999
DXF file: INE_assy_2.dxf
999
Pro/ENGINEER 2014200 by Parametric Technology Corporation
  0
SECTION
  2
HEADER
  9
$ACADVER
  1
AC1021
  9
$DWGCODEPAGE
  3
ANSI_1252
  9
$EXTMAX
 10
22.0
 20
17.0
 30
0.0
  9
$EXTMIN
 10
0.0
 20
0.0
 30
0.0
  9
$LIMMIN
 10
0.0
 20
0.0
  9
$LIMMAX
 10
22.0
 20
17.0
  9
$VIEWCTR
 10
11.0
 20
8.5
  9
$VIEWSIZE
 40
17.0
  9
$CLAYER
  8
0
  9
$LTSCALE
 40
1.21
  9
$CELTYPE
  6
BYLAYER
  9
$DIMSCALE
 40
1.0
  9
$DIMASZ
 40
0.1875
  9
$DIMEXO
 40
0.0625
  9
$DIMDLI
 40
0.836
  9
$DIMEXE
 40
0.125
  9
$DIMCEN
 40
0.198
  9
$DIMLFAC
 40
1.0
  9
$DIMBLK
  1
_FILLED
  9
$DIMTXT
 40
0.1
  9
$DIMTOL
 70
0
  9
$DIMLIM
 70
0
  9
$DIMTFAC
 40
1.0
  9
$DIMGAP
 40
0.09
  9
$DIMDSEP
 70
46
  9
$AUNITS
 70
0
  9
$PDMODE
 70
3
  9
$PDSIZE
 40
0.3125
  9
$HANDSEED
  5
375
  9
$TILEMODE
 70
1
  9
$MEASUREMENT
 70
0
  9
$INSUNITS
 70
1
  0
ENDSEC
  0
SECTION
  2
CLASSES
  0
CLASS
  1
ACDBDICTIONARYWDFLT
  2
AcDbDictionaryWithDefault
  3
AutoCAD 2000
 90
0
 91
1
280
0
281
0
  0
CLASS
  1
ACDBPLACEHOLDER
  2
AcDbPlaceHolder
  3
AutoCAD 2000
 90
0
 91
1
280
0
281
0
  0
CLASS
  1
LAYOUT
  2
AcDbLayout
  3
AutoCAD 2000
 90
0
 91
0
280
0
281
0
  0
CLASS
  1
RASTERVARIABLES
  2
AcDbRasterVariables
  3
ISM
 90
0
 91
1
280
0
281
0
  0
CLASS
  1
IMAGEDEF
  2
AcDbRasterImageDef
  3
ISM
 90
0
 91
1
280
0
281
0
  0
CLASS
  1
IMAGEDEF_REACTOR
  2
AcDbRasterImageDefReactor
  3
ISM
 90
0
 91
1
280
0
281
0
  0
CLASS
  1
IMAGE
  2
AcDbRasterImage
  3
ISM
 90
127
 91
1
280
0
281
1
  0
CLASS
  1
TABLESTYLE
  2
AcDbTableStyle
  3
ObjectDBX Classes
 90
2047
 91
1
280
0
281
0
  0
CLASS
  1
ACAD_TABLE
  2
AcDbTable
  3
ObjectDBX Classes
 90
1025
 91
3
280
0
281
1
  0
ENDSEC
  0
SECTION
  2
TABLES
  0
TABLE
  2
VPORT
  5
8
100
AcDbSymbolTable
 70
2
  0
VPORT
  5
1F4
100
AcDbSymbolTableRecord
100
AcDbViewportTableRecord
  2
*ACTIVE
 70
0
 10
0.0
 20
0.0
 11
1.0
 21
1.0
 12
11.0
 22
8.5
 13
0.0
 23
0.0
 14
1.0
 24
1.0
 15
0.0
 25
0.0
 16
0.0
 26
0.0
 36
1.0
 17
0.0
 27
0.0
 37
0.0
 40
17.0
 41
1.2941176471
 42
50.0
 43
0.0
 44
0.0
 50
0.0
 51
0.0
 71
0
 72
100
 73
1
 74
1
 75
0
 76
0
 77
0
 78
0
  0
ENDTAB
  0
TABLE
  2
LTYPE
  5
5
100
AcDbSymbolTable
 70
6
  0
LTYPE
  5
14
100
AcDbSymbolTableRecord
100
AcDbLinetypeTableRecord
  2
BYBLOCK
 70
0
  3

 72
65
 73
0
 40
0.0
  0
LTYPE
  5
15
100
AcDbSymbolTableRecord
100
AcDbLinetypeTableRecord
  2
BYLAYER
 70
0
  3

 72
65
 73
0
 40
0.0
  0
LTYPE
  5
16
100
AcDbSymbolTableRecord
100
AcDbLinetypeTableRecord
  2
CONTINUOUS
 70
64
  3
Solid line
 72
65
 73
0
 40
0.0
  0
LTYPE
  5
1F5
100
AcDbSymbolTableRecord
100
AcDbLinetypeTableRecord
  2
CENTER
 70
64
  3
____ _ ____ _ ____ _ ____ _ ____ _ ____ _ ____
 72
65
 73
4
 40
0.6
 49
0.375
 74
0
 49
-0.075
 74
0
 49
0.075
 74
0
 49
-0.075
 74
0
  0
LTYPE
  5
1F6
100
AcDbSymbolTableRecord
100
AcDbLinetypeTableRecord
  2
HIDDEN
 70
64
  3
- - - - - - - - - - - - - - - - - - - -
 72
65
 73
2
 40
0.2
 49
0.1
 74
0
 49
-0.1
 74
0
  0
LTYPE
  5
1F7
100
AcDbSymbolTableRecord
100
AcDbLinetypeTableRecord
  2
PHANTOM
 70
64
  3
_____ _ _ _____ _ _ _____ _ _ _____
 72
65
 73
6
 40
0.8
 49
0.45
 74
0
 49
-0.05
 74
0
 49
0.1
 74
0
 49
-0.05
 74
0
 49
0.1
 74
0
 49
-0.05
 74
0
  0
LTYPE
  5
1F8
100
AcDbSymbolTableRecord
100
AcDbLinetypeTableRecord
  2
DOT
 70
64
  3
. . . . . . . . . . . . . . . . . . . .
 72
65
 73
2
 40
0.2
 49
0.1
 74
0
 49
-0.1
 74
0
  0
LTYPE
  5
1F9
100
AcDbSymbolTableRecord
100
AcDbLinetypeTableRecord
  2
DASHED
 70
64
  3
- - - - - - - - - - - - - - - - - - - -
 72
65
 73
2
 40
0.2
 49
0.1
 74
0
 49
-0.1
 74
0
  0
ENDTAB
  0
TABLE
  2
LAYER
  5
2
100
AcDbSymbolTable
 70
36
  0
LAYER
  5
10
100
AcDbSymbolTableRecord
100
AcDbLayerTableRecord
  2
0
 70
0
 62
7
  6
CONTINUOUS
370
-3
390
F
  0
LAYER
  5
1FA
100
AcDbSymbolTableRecord
100
AcDbLayerTableRecord
  2
DEFAULT_1
 70
0
 62
7
  6
CENTER
370
-3
390
F
  0
LAYER
  5
1FB
100
AcDbSymbolTableRecord
100
AcDbLayerTableRecord
  2
DEFAULT_2
 70
0
 62
8
  6
HIDDEN
370
-3
390
F
  0
LAYER
  5
1FC
100
AcDbSymbolTableRecord
100
AcDbLayerTableRecord
  2
DEFAULT_3
 70
0
 62
7
  6
PHANTOM
370
-3
390
F
  0
LAYER
  5
1FD
100
AcDbSymbolTableRecord
100
AcDbLayerTableRecord
  2
01___PRT_ALL_DTM_PLN
 70
0
 62
7
  6
CONTINUOUS
370
-3
390
F
  0
LAYER
  5
1FE
100
AcDbSymbolTableRecord
100
AcDbLayerTableRecord
  2
01___PRT_DEF_DTM_PLN
 70
0
 62
7
  6
CONTINUOUS
370
-3
390
F
  0
LAYER
  5
1FF
100
AcDbSymbolTableRecord
100
AcDbLayerTableRecord
  2
02___PRT_ALL_AXES
 70
0
 62
7
  6
CONTINUOUS
370
-3
390
F
  0
LAYER
  5
200
100
AcDbSymbolTableRecord
100
AcDbLayerTableRecord
  2
03___PRT_ALL_CURVES
 70
0
 62
7
  6
CONTINUOUS
370
-3
390
F
  0
LAYER
  5
201
100
AcDbSymbolTableRecord
100
AcDbLayerTableRecord
  2
04___PRT_ALL_DTM_PNT
 70
0
 62
7
  6
CONTINUOUS
370
-3
390
F
  0
LAYER
  5
202
100
AcDbSymbolTableRecord
100
AcDbLayerTableRecord
  2
05___PRT_ALL_DTM_CSYS
 70
0
 62
7
  6
CONTINUOUS
370
-3
390
F
  0
LAYER
  5
203
100
AcDbSymbolTableRecord
100
AcDbLayerTableRecord
  2
05___PRT_DEF_DTM_CSYS
 70
0
 62
7
  6
CONTINUOUS
370
-3
390
F
  0
LAYER
  5
204
100
AcDbSymbolTableRecord
100
AcDbLayerTableRecord
  2
06___PRT_ALL_SURFS
 70
0
 62
7
  6
CONTINUOUS
370
-3
390
F
  0
LAYER
  5
205
100
AcDbSymbolTableRecord
100
AcDbLayerTableRecord
  2
DATUM_PLANES
 70
0
 62
7
  6
CONTINUOUS
370
-3
390
F
  0
LAYER
  5
206
100
AcDbSymbolTableRecord
100
AcDbLayerTableRecord
  2
PORT_AREAS
 70
0
 62
7
  6
CONTINUOUS
370
-3
390
F
  0
LAYER
  5
207
100
AcDbSymbolTableRecord
100
AcDbLayerTableRecord
  2
SUNNBOMCOSMETIC
 70
0
 62
7
  6
CONTINUOUS
370
-3
390
F
  0
LAYER
  5
208
100
AcDbSymbolTableRecord
100
AcDbLayerTableRecord
  2
SUNNBOMSTAMPING
 70
0
 62
7
  6
CONTINUOUS
370
-3
390
F
  0
LAYER
  5
209
100
AcDbSymbolTableRecord
100
AcDbLayerTableRecord
  2
THREADS
 70
0
 62
7
  6
CONTINUOUS
370
-3
390
F
  0
ENDTAB
  0
TABLE
  2
STYLE
  5
3
100
AcDbSymbolTable
 70
1
  0
STYLE
  5
11
100
AcDbSymbolTableRecord
100
AcDbTextStyleTableRecord
  2
STANDARD
 70
0
 40
0.0
 41
0.8
 50
0.0
 71
0
 42
0.2
  3
txt
  4

  0
STYLE
  5
20A
100
AcDbSymbolTableRecord
100
AcDbTextStyleTableRecord
  2
TEXTSTYLE_1
 70
0
 40
0.0
 41
0.8
 50
0.0
 71
0
 42
0.2
  3
gdt
  4

  0
ENDTAB
  0
TABLE
  2
VIEW
  5
6
100
AcDbSymbolTable
 70
0
  0
ENDTAB
  0
TABLE
  2
UCS
  5
7
100
AcDbSymbolTable
 70
0
  0
ENDTAB
  0
TABLE
  2
APPID
  5
9
100
AcDbSymbolTable
 70
1
  0
APPID
  5
20B
100
AcDbSymbolTableRecord
100
AcDbRegAppTableRecord
  2
ACAD
 70
0
  0
ENDTAB
  0
TABLE
  2
BLOCK_RECORD
  5
1
100
AcDbSymbolTable
 70
0
  0
BLOCK_RECORD
  5
20C
100
AcDbSymbolTableRecord
100
AcDbBlockTableRecord
  2
*Model_Space
  0
BLOCK_RECORD
  5
20D
100
AcDbSymbolTableRecord
100
AcDbBlockTableRecord
  2
*Paper_Space
  0
BLOCK_RECORD
  5
20E
100
AcDbSymbolTableRecord
100
AcDbBlockTableRecord
  2
SUN_FIRST_THIRD_ANGLE_BL0
  0
BLOCK_RECORD
  5
20F
100
AcDbSymbolTableRecord
100
AcDbBlockTableRecord
  2
*T1
  0
BLOCK_RECORD
  5
210
100
AcDbSymbolTableRecord
100
AcDbBlockTableRecord
  2
*T2
  0
BLOCK_RECORD
  5
211
100
AcDbSymbolTableRecord
100
AcDbBlockTableRecord
  2
*T3
  0
ENDTAB
  0
TABLE
  2
DIMSTYLE
  5
A
100
AcDbSymbolTable
 70
1
100
AcDbDimStyleTable
 71
0
  0
DIMSTYLE
105
212
100
AcDbSymbolTableRecord
100
AcDbDimStyleTableRecord
  2
STANDARD
 70
0
  3

  4

 40
1.0
 41
0.1875
 42
0.0625
 43
0.38
 44
0.125
 45
0.0
 46
0.0
 47
0.001
 48
0.001
140
0.1
141
0.09
142
0.0
143
25.4
144
1.0
145
0.0
146
1.0
147
0.09
 71
0.0
 72
0.0
 73
1
 74
1
 75
0
 76
0
 77
0
 78
4
170
0
171
2
172
0
173
0
174
0
175
0
176
0
177
0
178
0
270
2
271
3
272
3
273
2
274
2
275
0
280
0
281
0
282
0
283
1
284
4
285
0
286
0
287
3
288
0
340
11
278
46
  0
ENDTAB
  0
ENDSEC
  0
SECTION
  2
BLOCKS
  0
BLOCK
  5
20
100
AcDbEntity
  8
0
100
AcDbBlockBegin
  2
*Model_Space
 70
0
 10
0.0
 20
0.0
 30
0.0
  3
*Model_Space
  1

  0
ENDBLK
  5
21
100
AcDbEntity
  8
0
100
AcDbBlockEnd
  0
BLOCK
  5
1C
100
AcDbEntity
  8
0
100
AcDbBlockBegin
  2
*Paper_Space
 70
0
 10
0.0
 20
0.0
 30
0.0
  3
*Paper_Space
  1

  0
ENDBLK
  5
1D
100
AcDbEntity
  8
0
100
AcDbBlockEnd
  0
BLOCK
  5
213
100
AcDbEntity
  8
0
100
AcDbBlockBegin
 62
2
  6
CONTINUOUS
  2
SUN_FIRST_THIRD_ANGLE_BL0
 70
64
 10
20.4816717061
 20
1.2289683772
  3
SUN_FIRST_THIRD_ANGLE_BL0
  1

  0
TEXT
  5
214
100
AcDbEntity
  8
0
100
AcDbText
 62
2
  6
CONTINUOUS
 10
19.4750896608
 20
1.4136269581
  7
STANDARD
 40
0.08
  1
FIRST ANGLE
 41
0.8
 72
0
100
AcDbText
  0
TEXT
  5
215
100
AcDbEntity
  8
0
100
AcDbText
 62
2
  6
CONTINUOUS
 10
20.7842537513
 20
1.4047600029
  7
STANDARD
 40
0.08
  1
THIRD ANGLE
 41
0.8
 72
0
100
AcDbText
  0
LINE
  5
216
100
AcDbEntity
  8
0
100
AcDbLine
 62
7
  6
CONTINUOUS
 10
19.4767170086
 20
1.1727031207
 11
19.6334271527
 21
1.1717972817
  0
LINE
  5
217
100
AcDbEntity
  8
0
100
AcDbLine
 62
7
  6
CONTINUOUS
 10
19.6596964832
 20
1.1717972817
 11
19.6950230232
 21
1.171593082
  0
LINE
  5
218
100
AcDbEntity
  8
0
100
AcDbLine
 62
7
  6
CONTINUOUS
 10
19.7194818561
 20
1.1708914427
 11
19.8852396156
 21
1.1699333054
  0
LINE
  5
219
100
AcDbEntity
  8
0
100
AcDbLine
 62
7
  6
CONTINUOUS
 10
19.4758111696
 20
1.2723454088
 11
19.88525039
 21
1.3511534004
  0
LINE
  5
21A
100
AcDbEntity
  8
0
100
AcDbLine
 62
7
  6
CONTINUOUS
 10
19.88525039
 20
1.3511534004
 11
19.8831348489
 21
0.9851647912
  0
LINE
  5
21B
100
AcDbEntity
  8
0
100
AcDbLine
 62
7
  6
CONTINUOUS
 10
19.8831348489
 20
0.9851647912
 11
19.4767170086
 21
1.0658141206
  0
LINE
  5
21C
100
AcDbEntity
  8
0
100
AcDbLine
 62
7
  6
CONTINUOUS
 10
19.4767170086
 20
1.0658141206
 11
19.4779056764
 21
1.2714536432
  0
CIRCLE
  5
21D
100
AcDbEntity
  8
0
100
AcDbCircle
 62
7
  6
CONTINUOUS
 10
20.2068232291
 20
1.1717972817
 40
0.175742101
  0
CIRCLE
  5
21E
100
AcDbEntity
  8
0
100
AcDbCircle
 62
7
  6
CONTINUOUS
 10
20.2068232291
 20
1.1717972817
 40
0.1005522074
  0
LINE
  5
21F
100
AcDbEntity
  8
0
100
AcDbLine
 62
7
  6
CONTINUOUS
 10
20.2077290681
 20
1.3756110529
 11
20.2071171714
 21
1.2379342989
  0
LINE
  5
220
100
AcDbEntity
  8
0
100
AcDbLine
 62
7
  6
CONTINUOUS
 10
20.2077290681
 20
1.2016899681
 11
20.2074674401
 21
1.1428236749
  0
LINE
  5
221
100
AcDbEntity
  8
0
100
AcDbLine
 62
7
  6
CONTINUOUS
 10
20.208634907
 20
1.101141841
 11
20.2080230104
 21
0.963465087
  0
LINE
  5
222
100
AcDbEntity
  8
0
100
AcDbLine
 62
7
  6
CONTINUOUS
 10
20.0066328138
 20
1.1745147986
 11
20.1443095678
 21
1.1739029019
  0
LINE
  5
223
100
AcDbEntity
  8
0
100
AcDbLine
 62
7
  6
CONTINUOUS
 10
20.1832714155
 20
1.1727031207
 11
20.238153505
 21
1.172335442
  0
LINE
  5
224
100
AcDbEntity
  8
0
100
AcDbLine
 62
7
  6
CONTINUOUS
 10
20.2756669918
 20
1.1717972817
 11
20.407916871
 21
1.1712095044
  0
CIRCLE
  5
225
100
AcDbEntity
  8
0
100
AcDbCircle
 62
7
  6
CONTINUOUS
 10
20.7509457401
 20
1.1693297793
 40
0.1722024983
  0
CIRCLE
  5
226
100
AcDbEntity
  8
0
100
AcDbCircle
 62
7
  6
CONTINUOUS
 10
20.7509457401
 20
1.1693297793
 40
0.0985164967
  0
LINE
  5
227
100
AcDbEntity
  8
0
100
AcDbLine
 62
7
  6
CONTINUOUS
 10
20.7169767782
 20
1.170462078
 11
20.7825395137
 21
1.1682766535
  0
LINE
  5
228
100
AcDbEntity
  8
0
100
AcDbLine
 62
7
  6
CONTINUOUS
 10
20.8177513651
 20
1.1693297793
 11
20.947965719
 21
1.1693297793
  0
LINE
  5
229
100
AcDbEntity
  8
0
100
AcDbLine
 62
7
  6
CONTINUOUS
 10
20.6875370113
 20
1.170462078
 11
20.5573226574
 21
1.170462078
  0
LINE
  5
22A
100
AcDbEntity
  8
0
100
AcDbLine
 62
7
  6
CONTINUOUS
 10
20.7486811426
 20
1.1987695462
 11
20.7486811426
 21
1.1432869085
  0
LINE
  5
22B
100
AcDbEntity
  8
0
100
AcDbLine
 62
7
  6
CONTINUOUS
 10
20.7498134414
 20
1.1059210505
 11
20.7498134414
 21
0.9757066966
  0
LINE
  5
22C
100
AcDbEntity
  8
0
100
AcDbLine
 62
7
  6
CONTINUOUS
 10
20.7486811426
 20
1.2338708068
 11
20.7486811426
 21
1.3640851607
  0
LINE
  5
22D
100
AcDbEntity
  8
0
100
AcDbLine
 62
7
  6
CONTINUOUS
 10
21.0702539817
 20
1.2701043662
 11
21.4790138229
 21
1.3448360823
  0
LINE
  5
22E
100
AcDbEntity
  8
0
100
AcDbLine
 62
7
  6
CONTINUOUS
 10
21.4790138229
 20
1.3448360823
 11
21.4790138229
 21
0.9779712941
  0
LINE
  5
22F
100
AcDbEntity
  8
0
100
AcDbLine
 62
7
  6
CONTINUOUS
 10
21.4790138229
 20
0.9779712941
 11
21.069121683
 21
1.0617614
  0
LINE
  5
230
100
AcDbEntity
  8
0
100
AcDbLine
 62
7
  6
CONTINUOUS
 10
21.0702539817
 20
1.2701043662
 11
21.069121683
 21
1.0617614
  0
LINE
  5
231
100
AcDbEntity
  8
0
100
AcDbLine
 62
7
  6
CONTINUOUS
 10
21.4790138229
 20
1.1693297793
 11
21.3159628059
 21
1.1693297793
  0
LINE
  5
232
100
AcDbEntity
  8
0
100
AcDbLine
 62
7
  6
CONTINUOUS
 10
21.2876553377
 20
1.1693297793
 11
21.2502894796
 21
1.1693297793
  0
LINE
  5
233
100
AcDbEntity
  8
0
100
AcDbLine
 62
7
  6
CONTINUOUS
 10
21.2208497126
 20
1.1659328831
 11
21.0713862804
 21
1.1659328831
  0
LINE
  5
234
100
AcDbEntity
  8
0
100
AcDbLine
 62
7
  6
CONTINUOUS
 10
20.4796138713
 20
1.5284908897
 11
20.4766766948
 21
0.9294458646
  0
ENDBLK
  5
235
100
AcDbEntity
  8
0
  6
BYBLOCK
 62
0
100
AcDbBlockEnd
  0
BLOCK
  5
236
100
AcDbEntity
  8
0
100
AcDbBlockBegin
  2
*T1
 70
1
 10
0.0
 20
0.0
  3
*T1
  1

  0
LINE
  5
237
100
AcDbEntity
  8
0
100
AcDbLine
 62
2
  6
CONTINUOUS
 10
9.275
 20
0.0
 11
-0.0
 21
0.0
  0
LINE
  5
238
100
AcDbEntity
  8
0
100
AcDbLine
 62
2
  6
CONTINUOUS
 10
9.275
 20
0.0
 11
9.275
 21
1.25
  0
LINE
  5
239
100
AcDbEntity
  8
0
100
AcDbLine
 62
2
  6
CONTINUOUS
 10
9.275
 20
0.625
 11
-0.0
 21
0.625
  0
LINE
  5
23A
100
AcDbEntity
  8
0
100
AcDbLine
 62
2
  6
CONTINUOUS
 10
9.275
 20
1.25
 11
-0.0
 21
1.25
  0
LINE
  5
23B
100
AcDbEntity
  8
0
100
AcDbLine
 62
2
  6
CONTINUOUS
 10
6.8
 20
0.0
 11
6.8
 21
1.25
  0
LINE
  5
23C
100
AcDbEntity
  8
0
100
AcDbLine
 62
2
  6
CONTINUOUS
 10
6.4
 20
0.0
 11
6.4
 21
0.625
  0
LINE
  5
23D
100
AcDbEntity
  8
0
100
AcDbLine
 62
2
  6
CONTINUOUS
 10
5.9
 20
0.0
 11
5.9
 21
0.625
  0
LINE
  5
23E
100
AcDbEntity
  8
0
100
AcDbLine
 62
2
  6
CONTINUOUS
 10
5.2
 20
0.0
 11
5.2
 21
0.625
  0
LINE
  5
23F
100
AcDbEntity
  8
0
100
AcDbLine
 62
2
  6
CONTINUOUS
 10
4.1
 20
0.0
 11
4.1
 21
1.25
  0
LINE
  5
240
100
AcDbEntity
  8
0
100
AcDbLine
 62
2
  6
CONTINUOUS
 10
-0.0
 20
0.0
 11
-0.0
 21
1.25
  0
MTEXT
  5
241
100
AcDbEntity
  8
0
100
AcDbMText
 62
2
  6
CONTINUOUS
  7
STANDARD
 71
2
 72
1
 10
6.6
 20
0.325
 30
0.0
 11
1.0
 21
0.0
 31
0.0
 44
0.9
  1
2
 40
0.125
 41
0.2
  0
MTEXT
  5
242
100
AcDbEntity
  8
0
100
AcDbMText
 62
2
  6
CONTINUOUS
  7
STANDARD
 71
2
 72
1
 10
6.15
 20
0.325
 30
0.0
 11
1.0
 21
0.0
 31
0.0
 44
0.9
  1
C
 40
0.125
 41
0.2
  0
MTEXT
  5
243
100
AcDbEntity
  8
0
100
AcDbMText
 62
2
  6
CONTINUOUS
  7
STANDARD
 71
2
 72
1
 10
5.55
 20
0.325
 30
0.0
 11
1.0
 21
0.0
 31
0.0
 44
0.9
  1
1.000
 40
0.125
 41
1.0
  0
MTEXT
  5
244
100
AcDbEntity
  8
0
100
AcDbMText
 62
2
  6
CONTINUOUS
  7
STANDARD
 71
2
 72
1
 10
4.65
 20
0.325
 30
0.0
 11
1.0
 21
0.0
 31
0.0
 44
0.9
  1
Oct-16-23
 40
0.125
 41
1.8
  0
MTEXT
  5
245
100
AcDbEntity
  8
0
100
AcDbMText
 62
2
  6
CONTINUOUS
  7
STANDARD
 71
2
 72
1
 10
2.05
 20
0.4625
 30
0.0
 11
1.0
 21
0.0
 31
0.0
 44
0.9
  1
T-16A Line mount\PNinety degree with reverse flow check
 40
0.125
 41
7.4
  0
MTEXT
  5
246
100
AcDbEntity
  8
0
100
AcDbMText
 62
2
  6
CONTINUOUS
  7
STANDARD
 71
1
 72
1
 10
6.45
 20
0.5625
 30
0.0
 11
1.0
 21
0.0
 31
0.0
 44
0.9
  1
SHEET
 40
0.06
 41
0.48
  0
MTEXT
  5
247
100
AcDbEntity
  8
0
100
AcDbMText
 62
2
  6
CONTINUOUS
  7
STANDARD
 71
1
 72
1
 10
5.95
 20
0.5625
 30
0.0
 11
1.0
 21
0.0
 31
0.0
 44
0.9
  1
DWG SIZE
 40
0.06
 41
0.768
  0
MTEXT
  5
248
100
AcDbEntity
  8
0
100
AcDbMText
 62
2
  6
CONTINUOUS
  7
STANDARD
 71
1
 72
1
 10
5.25
 20
0.5625
 30
0.0
 11
1.0
 21
0.0
 31
0.0
 44
0.9
  1
SCALE
 40
0.06
 41
0.48
  0
MTEXT
  5
249
100
AcDbEntity
  8
0
100
AcDbMText
 62
2
  6
CONTINUOUS
  7
STANDARD
 71
1
 72
1
 10
4.15
 20
0.5625
 30
0.0
 11
1.0
 21
0.0
 31
0.0
 44
0.9
  1
DATE
 40
0.06
 41
0.384
  0
MTEXT
  5
24A
100
AcDbEntity
  8
0
100
AcDbMText
 62
2
  6
CONTINUOUS
  7
STANDARD
 71
1
 72
1
 10
0.05
 20
0.5625
 30
0.0
 11
1.0
 21
0.0
 31
0.0
 44
0.9
  1
DESCRIPTION
 40
0.06
 41
1.056
  0
MTEXT
  5
24B
100
AcDbEntity
  8
0
100
AcDbMText
 62
2
  6
CONTINUOUS
  7
STANDARD
 71
2
 72
1
 10
5.45
 20
1.0375
 30
0.0
 11
1.0
 21
0.0
 31
0.0
 44
0.9
  1
ALL DIMENSIONS IN INCH\PVIEWS ARE THIRD ANGLE
 40
0.12
 41
4.224
  0
MTEXT
  5
24C
100
AcDbEntity
  8
0
100
AcDbMText
 62
2
  6
CONTINUOUS
  7
STANDARD
 71
2
 72
1
 10
2.05
 20
0.95
 30
0.0
 11
1.0
 21
0.0
 31
0.0
 44
0.9
  1
INE
 40
0.125
 41
0.6
  0
MTEXT
  5
24D
100
AcDbEntity
  8
0
100
AcDbMText
 62
2
  6
CONTINUOUS
  7
STANDARD
 71
1
 72
1
 10
0.05
 20
1.1875
 30
0.0
 11
1.0
 21
0.0
 31
0.0
 44
0.9
  1
MODEL
 40
0.06
 41
0.48
  0
ENDBLK
  5
24E
100
AcDbEntity
  8
0
  6
BYBLOCK
 62
0
100
AcDbBlockEnd
  0
BLOCK
  5
24F
100
AcDbEntity
  8
0
100
AcDbBlockBegin
  2
*T2
 70
1
 10
0.0
 20
0.0
  3
*T2
  1

  0
LINE
  5
250
100
AcDbEntity
  8
0
100
AcDbLine
 62
2
  6
CONTINUOUS
 10
0.0
 20
0.0
 11
9.055
 21
0.0
  0
LINE
  5
251
100
AcDbEntity
  8
0
100
AcDbLine
 62
2
  6
CONTINUOUS
 10
0.0
 20
0.0
 11
0.0
 21
-2.844
  0
LINE
  5
252
100
AcDbEntity
  8
0
100
AcDbLine
 62
2
  6
CONTINUOUS
 10
0.0
 20
-0.344
 11
9.055
 21
-0.344
  0
LINE
  5
253
100
AcDbEntity
  8
0
100
AcDbLine
 62
2
  6
CONTINUOUS
 10
0.0
 20
-0.594
 11
9.055
 21
-0.594
  0
LINE
  5
254
100
AcDbEntity
  8
0
100
AcDbLine
 62
2
  6
CONTINUOUS
 10
0.0
 20
-0.844
 11
9.055
 21
-0.844
  0
LINE
  5
255
100
AcDbEntity
  8
0
100
AcDbLine
 62
2
  6
CONTINUOUS
 10
0.0
 20
-1.094
 11
9.055
 21
-1.094
  0
LINE
  5
256
100
AcDbEntity
  8
0
100
AcDbLine
 62
2
  6
CONTINUOUS
 10
0.0
 20
-1.344
 11
9.055
 21
-1.344
  0
LINE
  5
257
100
AcDbEntity
  8
0
100
AcDbLine
 62
2
  6
CONTINUOUS
 10
0.0
 20
-1.594
 11
9.055
 21
-1.594
  0
LINE
  5
258
100
AcDbEntity
  8
0
100
AcDbLine
 62
2
  6
CONTINUOUS
 10
0.0
 20
-1.844
 11
9.055
 21
-1.844
  0
LINE
  5
259
100
AcDbEntity
  8
0
100
AcDbLine
 62
2
  6
CONTINUOUS
 10
0.0
 20
-2.094
 11
9.055
 21
-2.094
  0
LINE
  5
25A
100
AcDbEntity
  8
0
100
AcDbLine
 62
2
  6
CONTINUOUS
 10
0.0
 20
-2.344
 11
9.055
 21
-2.344
  0
LINE
  5
25B
100
AcDbEntity
  8
0
100
AcDbLine
 62
2
  6
CONTINUOUS
 10
0.0
 20
-2.594
 11
9.055
 21
-2.594
  0
LINE
  5
25C
100
AcDbEntity
  8
0
100
AcDbLine
 62
2
  6
CONTINUOUS
 10
0.0
 20
-2.844
 11
9.055
 21
-2.844
  0
LINE
  5
25D
100
AcDbEntity
  8
0
100
AcDbLine
 62
2
  6
CONTINUOUS
 10
3.055
 20
0.0
 11
3.055
 21
-2.844
  0
LINE
  5
25E
100
AcDbEntity
  8
0
100
AcDbLine
 62
2
  6
CONTINUOUS
 10
9.055
 20
0.0
 11
9.055
 21
-2.844
  0
MTEXT
  5
25F
100
AcDbEntity
  8
0
100
AcDbMText
 62
2
  6
CONTINUOUS
  7
STANDARD
 71
2
 72
1
 10
1.5275
 20
-0.0995
 30
0.0
 11
1.0
 21
0.0
 31
0.0
 44
0.9
  1
Technical Data
 40
0.145
 41
3.248
  0
MTEXT
  5
260
100
AcDbEntity
  8
0
100
AcDbMText
 62
2
  6
CONTINUOUS
  7
STANDARD
 71
2
 72
1
 10
4.555
 20
-0.0995
 30
0.0
 11
1.0
 21
0.0
 31
0.0
 44
0.9
  1
U.S. Units
 40
0.145
 41
2.32
  0
MTEXT
  5
261
100
AcDbEntity
  8
0
100
AcDbMText
 62
2
  6
CONTINUOUS
  7
STANDARD
 71
2
 72
1
 10
7.555
 20
-0.0995
 30
0.0
 11
1.0
 21
0.0
 31
0.0
 44
0.9
  1
Metric Units
 40
0.145
 41
2.784
  0
MTEXT
  5
262
100
AcDbEntity
  8
0
100
AcDbMText
 62
2
  6
CONTINUOUS
  7
STANDARD
 71
2
 72
1
 10
1.5275
 20
-0.4065
 30
0.0
 11
1.0
 21
0.0
 31
0.0
 44
0.9
  1
Cavity
 40
0.125
 41
1.2
  0
MTEXT
  5
263
100
AcDbEntity
  8
0
100
AcDbMText
 62
2
  6
CONTINUOUS
  7
STANDARD
 71
2
 72
1
 10
6.055
 20
-0.4065
 30
0.0
 11
1.0
 21
0.0
 31
0.0
 44
0.9
  1
T-16A
 40
0.125
 41
1.0
  0
MTEXT
  5
264
100
AcDbEntity
  8
0
100
AcDbMText
 62
2
  6
CONTINUOUS
  7
STANDARD
 71
2
 72
1
 10
1.5275
 20
-0.6565
 30
0.0
 11
1.0
 21
0.0
 31
0.0
 44
0.9
  1
Body Features
 40
0.125
 41
2.6
  0
MTEXT
  5
265
100
AcDbEntity
  8
0
100
AcDbMText
 62
2
  6
CONTINUOUS
  7
STANDARD
 71
2
 72
1
 10
6.055
 20
-0.6565
 30
0.0
 11
1.0
 21
0.0
 31
0.0
 44
0.9
  1
Ninety degree with reverse flow check
 40
0.125
 41
7.4
  0
MTEXT
  5
266
100
AcDbEntity
  8
0
100
AcDbMText
 62
2
  6
CONTINUOUS
  7
STANDARD
 71
2
 72
1
 10
1.5275
 20
-0.9065
 30
0.0
 11
1.0
 21
0.0
 31
0.0
 44
0.9
  1
Body Type
 40
0.125
 41
1.8
  0
MTEXT
  5
267
100
AcDbEntity
  8
0
100
AcDbMText
 62
2
  6
CONTINUOUS
  7
STANDARD
 71
2
 72
1
 10
6.055
 20
-0.9065
 30
0.0
 11
1.0
 21
0.0
 31
0.0
 44
0.9
  1
Line mount
 40
0.125
 41
2.0
  0
MTEXT
  5
268
100
AcDbEntity
  8
0
100
AcDbMText
 62
2
  6
CONTINUOUS
  7
STANDARD
 71
2
 72
1
 10
1.5275
 20
-1.1565
 30
0.0
 11
1.0
 21
0.0
 31
0.0
 44
0.9
  1
Interface
 40
0.125
 41
1.8
  0
MTEXT
  5
269
100
AcDbEntity
  8
0
100
AcDbMText
 62
2
  6
CONTINUOUS
  7
STANDARD
 71
2
 72
1
 10
6.055
 20
-1.1565
 30
0.0
 11
1.0
 21
0.0
 31
0.0
 44
0.9
  1
None
 40
0.125
 41
0.8
  0
MTEXT
  5
26A
100
AcDbEntity
  8
0
100
AcDbMText
 62
2
  6
CONTINUOUS
  7
STANDARD
 71
2
 72
1
 10
1.5275
 20
-1.4065
 30
0.0
 11
1.0
 21
0.0
 31
0.0
 44
0.9
  1
Open Cavity Quantity
 40
0.125
 41
4.0
  0
MTEXT
  5
26B
100
AcDbEntity
  8
0
100
AcDbMText
 62
2
  6
CONTINUOUS
  7
STANDARD
 71
2
 72
1
 10
6.055
 20
-1.4065
 30
0.0
 11
1.0
 21
0.0
 31
0.0
 44
0.9
  1
1
 40
0.125
 41
0.2
  0
MTEXT
  5
26C
100
AcDbEntity
  8
0
100
AcDbMText
 62
2
  6
CONTINUOUS
  7
STANDARD
 71
2
 72
1
 10
1.5275
 20
-1.6565
 30
0.0
 11
1.0
 21
0.0
 31
0.0
 44
0.9
  1
Weight
 40
0.125
 41
1.2
  0
MTEXT
  5
26D
100
AcDbEntity
  8
0
100
AcDbMText
 62
2
  6
CONTINUOUS
  7
STANDARD
 71
2
 72
1
 10
4.555
 20
-1.6565
 30
0.0
 11
1.0
 21
0.0
 31
0.0
 44
0.9
  1
3.928 lb.
 40
0.125
 41
1.8
  0
MTEXT
  5
26E
100
AcDbEntity
  8
0
100
AcDbMText
 62
2
  6
CONTINUOUS
  7
STANDARD
 71
2
 72
1
 10
7.555
 20
-1.6565
 30
0.0
 11
1.0
 21
0.0
 31
0.0
 44
0.9
  1
1,782 kg.
 40
0.125
 41
1.8
  0
MTEXT
  5
26F
100
AcDbEntity
  8
0
100
AcDbMText
 62
2
  6
CONTINUOUS
  7
STANDARD
 71
2
 72
1
 10
1.5275
 20
-1.9065
 30
0.0
 11
1.0
 21
0.0
 31
0.0
 44
0.9
  1
Mounting Hole Diameter
 40
0.125
 41
4.4
  0
MTEXT
  5
270
100
AcDbEntity
  8
0
100
AcDbMText
 62
2
  6
CONTINUOUS
  7
STANDARD
 71
2
 72
1
 10
4.555
 20
-1.9065
 30
0.0
 11
1.0
 21
0.0
 31
0.0
 44
0.9
  1
.28 in.
 40
0.125
 41
1.4
  0
MTEXT
  5
271
100
AcDbEntity
  8
0
100
AcDbMText
 62
2
  6
CONTINUOUS
  7
STANDARD
 71
2
 72
1
 10
7.555
 20
-1.9065
 30
0.0
 11
1.0
 21
0.0
 31
0.0
 44
0.9
  1
7,1 mm
 40
0.125
 41
1.2
  0
MTEXT
  5
272
100
AcDbEntity
  8
0
100
AcDbMText
 62
2
  6
CONTINUOUS
  7
STANDARD
 71
2
 72
1
 10
1.5275
 20
-2.1565
 30
0.0
 11
1.0
 21
0.0
 31
0.0
 44
0.9
  1
Mounting Hole Depth
 40
0.125
 41
3.8
  0
MTEXT
  5
273
100
AcDbEntity
  8
0
100
AcDbMText
 62
2
  6
CONTINUOUS
  7
STANDARD
 71
2
 72
1
 10
6.055
 20
-2.1565
 30
0.0
 11
1.0
 21
0.0
 31
0.0
 44
0.9
  1
Through
 40
0.125
 41
1.4
  0
MTEXT
  5
274
100
AcDbEntity
  8
0
100
AcDbMText
 62
2
  6
CONTINUOUS
  7
STANDARD
 71
2
 72
1
 10
1.5275
 20
-2.4065
 30
0.0
 11
1.0
 21
0.0
 31
0.0
 44
0.9
  1
Mounting Hole Quantity
 40
0.125
 41
4.4
  0
MTEXT
  5
275
100
AcDbEntity
  8
0
100
AcDbMText
 62
2
  6
CONTINUOUS
  7
STANDARD
 71
2
 72
1
 10
6.055
 20
-2.4065
 30
0.0
 11
1.0
 21
0.0
 31
0.0
 44
0.9
  1
2
 40
0.125
 41
0.2
  0
MTEXT
  5
276
100
AcDbEntity
  8
0
100
AcDbMText
 62
2
  6
CONTINUOUS
  7
STANDARD
 71
2
 72
1
 10
1.5275
 20
-2.6565
 30
0.0
 11
1.0
 21
0.0
 31
0.0
 44
0.9
  1
Includes integral cartridge(s)
 40
0.125
 41
6.0
  0
MTEXT
  5
277
100
AcDbEntity
  8
0
100
AcDbMText
 62
2
  6
CONTINUOUS
  7
STANDARD
 71
2
 72
1
 10
6.055
 20
-2.6565
 30
0.0
 11
1.0
 21
0.0
 31
0.0
 44
0.9
  1
Yes (see Included Components)
 40
0.125
 41
5.8
  0
ENDBLK
  5
278
100
AcDbEntity
  8
0
  6
BYBLOCK
 62
0
100
AcDbBlockEnd
  0
BLOCK
  5
279
100
AcDbEntity
  8
0
100
AcDbBlockBegin
  2
*T3
 70
1
 10
0.0
 20
0.0
  3
*T3
  1

  0
LINE
  5
27A
100
AcDbEntity
  8
0
100
AcDbLine
 62
2
  6
CONTINUOUS
 10
0.0
 20
0.0
 11
4.6
 21
0.0
  0
LINE
  5
27B
100
AcDbEntity
  8
0
100
AcDbLine
 62
2
  6
CONTINUOUS
 10
0.0
 20
0.0
 11
0.0
 21
-1.18775
  0
LINE
  5
27C
100
AcDbEntity
  8
0
100
AcDbLine
 62
2
  6
CONTINUOUS
 10
0.0
 20
-0.34375
 11
4.6
 21
-0.34375
  0
LINE
  5
27D
100
AcDbEntity
  8
0
100
AcDbLine
 62
2
  6
CONTINUOUS
 10
0.0
 20
-0.68775
 11
4.6
 21
-0.68775
  0
LINE
  5
27E
100
AcDbEntity
  8
0
100
AcDbLine
 62
2
  6
CONTINUOUS
 10
0.0
 20
-0.93775
 11
4.6
 21
-0.93775
  0
LINE
  5
27F
100
AcDbEntity
  8
0
100
AcDbLine
 62
2
  6
CONTINUOUS
 10
0.0
 20
-1.18775
 11
4.6
 21
-1.18775
  0
LINE
  5
280
100
AcDbEntity
  8
0
100
AcDbLine
 62
2
  6
CONTINUOUS
 10
1.3
 20
-0.34375
 11
1.3
 21
-1.18775
  0
LINE
  5
281
100
AcDbEntity
  8
0
100
AcDbLine
 62
2
  6
CONTINUOUS
 10
3.3
 20
-0.34375
 11
3.3
 21
-1.18775
  0
LINE
  5
282
100
AcDbEntity
  8
0
100
AcDbLine
 62
2
  6
CONTINUOUS
 10
4.6
 20
0.0
 11
4.6
 21
-1.18775
  0
MTEXT
  5
283
100
AcDbEntity
  8
0
100
AcDbMText
 62
2
  6
CONTINUOUS
  7
STANDARD
 71
2
 72
1
 10
2.3
 20
-0.099375
 30
0.0
 11
1.0
 21
0.0
 31
0.0
 44
0.9
  1
Port Headings
 40
0.145
 41
3.016
  0
MTEXT
  5
284
100
AcDbEntity
  8
0
100
AcDbMText
 62
2
  6
CONTINUOUS
  7
STANDARD
 71
2
 72
1
 10
0.65
 20
-0.44325
 30
0.0
 11
1.0
 21
0.0
 31
0.0
 44
0.9
  1
Product
 40
0.145
 41
1.624
  0
MTEXT
  5
285
100
AcDbEntity
  8
0
100
AcDbMText
 62
2
  6
CONTINUOUS
  7
STANDARD
 71
2
 72
1
 10
2.3
 20
-0.44325
 30
0.0
 11
1.0
 21
0.0
 31
0.0
 44
0.9
  1
Port
 40
0.145
 41
0.928
  0
MTEXT
  5
286
100
AcDbEntity
  8
0
100
AcDbMText
 62
2
  6
CONTINUOUS
  7
STANDARD
 71
2
 72
1
 10
3.95
 20
-0.44325
 30
0.0
 11
1.0
 21
0.0
 31
0.0
 44
0.9
  1
Size
 40
0.145
 41
0.928
  0
MTEXT
  5
287
100
AcDbEntity
  8
0
100
AcDbMText
 62
2
  6
CONTINUOUS
  7
STANDARD
 71
2
 72
1
 10
0.65
 20
-0.75025
 30
0.0
 11
1.0
 21
0.0
 31
0.0
 44
0.9
  1
INE
 40
0.125
 41
0.6
  0
MTEXT
  5
288
100
AcDbEntity
  8
0
100
AcDbMText
 62
2
  6
CONTINUOUS
  7
STANDARD
 71
2
 72
1
 10
2.3
 20
-0.75025
 30
0.0
 11
1.0
 21
0.0
 31
0.0
 44
0.9
  1
Ports 1 &  2
 40
0.125
 41
2.4
  0
MTEXT
  5
289
100
AcDbEntity
  8
0
100
AcDbMText
 62
2
  6
CONTINUOUS
  7
STANDARD
 71
2
 72
1
 10
3.95
 20
-0.75025
 30
0.0
 11
1.0
 21
0.0
 31
0.0
 44
0.9
  1
1"  NPTF
 40
0.125
 41
1.6
  0
MTEXT
  5
28A
100
AcDbEntity
  8
0
100
AcDbMText
 62
2
  6
CONTINUOUS
  7
STANDARD
 71
2
 72
1
 10
0.65
 20
-1.00025
 30
0.0
 11
1.0
 21
0.0
 31
0.0
 44
0.9
  1
INE
 40
0.125
 41
0.6
  0
MTEXT
  5
28B
100
AcDbEntity
  8
0
100
AcDbMText
 62
2
  6
CONTINUOUS
  7
STANDARD
 71
2
 72
1
 10
2.3
 20
-1.00025
 30
0.0
 11
1.0
 21
0.0
 31
0.0
 44
0.9
  1
Gage Port
 40
0.125
 41
1.8
  0
MTEXT
  5
28C
100
AcDbEntity
  8
0
100
AcDbMText
 62
2
  6
CONTINUOUS
  7
STANDARD
 71
2
 72
1
 10
3.95
 20
-1.00025
 30
0.0
 11
1.0
 21
0.0
 31
0.0
 44
0.9
  1
1/4" NPTF
 40
0.125
 41
1.8
  0
ENDBLK
  5
28D
100
AcDbEntity
  8
0
  6
BYBLOCK
 62
0
100
AcDbBlockEnd
  0
ENDSEC
  0
SECTION
  2
ENTITIES
  0
IMAGE
  5
28E
100
AcDbEntity
  8
0
100
AcDbRasterImage
 62
7
  6
CONTINUOUS
 10
19.2297077316
 20
0.3094318264
 30
0.0
 11
0.0066666667
 21
0.0
 31
0.0
 12
0.0
 22
0.0066666667
 32
0.0
 13
369.0
 23
92.0
340
       372
 70
9
280
0
281
50
282
50
283
0
360
       36C
 71
1
 91
2
 14
-0.5
 24
-0.5
 14
368.5
 24
91.5
  0
INSERT
  5
28F
100
AcDbEntity
  8
0
100
AcDbBlockReference
 62
2
  6
CONTINUOUS
  2
SUN_FIRST_THIRD_ANGLE_BL0
 10
20.4816717061
 20
1.2289683772
  0
ACAD_TABLE
  5
290
100
AcDbEntity
  8
0
 62
2
  6
CONTINUOUS
100
AcDbBlockReference
  2
*T1
 10
12.42375
 20
0.30125
 30
0.0
100
AcDbTable
342
       374
343
20F
 11
1.0
 21
0.0
 31
0.0
 90
6
 91
4
 92
6
 93
20
 94
0
 95
0
 96
0
 70
1
 41
0.0
141
0.525
141
0.1
141
0.525
141
0.1
142
4.1
142
1.1
142
0.7
142
0.5
142
0.4
142
2.475
171
1
172
0
173
0
174
0
175
1
176
1
 91
33
178
0
145
0.0
301
CELL_VALUE
 90
4
  1
T-16A Line mount\PNinety degree with reverse flow check
304
ACVALUE_END
170
2
140
0.125
171
1
172
0
173
0
174
0
175
1
176
1
 91
33
178
0
145
0.0
301
CELL_VALUE
 90
4
  1
Oct-16-23
304
ACVALUE_END
170
5
140
0.125
171
1
172
0
173
0
174
0
175
1
176
1
 91
33
178
0
145
0.0
301
CELL_VALUE
 90
4
  1
1.000
304
ACVALUE_END
170
5
140
0.125
171
1
172
0
173
0
174
0
175
1
176
1
 91
33
178
0
145
0.0
301
CELL_VALUE
 90
4
  1
C
304
ACVALUE_END
170
5
140
0.125
171
1
172
0
173
0
174
0
175
1
176
1
 91
33
178
0
145
0.0
301
CELL_VALUE
 90
4
  1
2
304
ACVALUE_END
170
5
140
0.125
171
1
172
0
173
0
174
0
175
1
176
1
 91
33
178
0
145
0.0
301
CELL_VALUE
 90
4
  1
 
304
ACVALUE_END
170
1
140
0.125
171
1
172
0
173
0
174
0
175
1
176
1
 91
33
178
0
145
0.0
301
CELL_VALUE
 90
4
  1
DESCRIPTION
304
ACVALUE_END
170
1
140
0.06
171
1
172
0
173
0
174
0
175
1
176
1
 91
33
178
0
145
0.0
301
CELL_VALUE
 90
4
  1
DATE
304
ACVALUE_END
170
1
140
0.06
171
1
172
0
173
0
174
0
175
1
176
1
 91
33
178
0
145
0.0
301
CELL_VALUE
 90
4
  1
SCALE
304
ACVALUE_END
170
1
140
0.06
171
1
172
0
173
0
174
0
175
1
176
1
 91
33
178
0
145
0.0
301
CELL_VALUE
 90
4
  1
DWG SIZE
304
ACVALUE_END
170
1
140
0.06
171
1
172
0
173
0
174
0
175
1
176
1
 91
33
178
0
145
0.0
301
CELL_VALUE
 90
4
  1
SHEET
304
ACVALUE_END
170
1
140
0.06
171
1
172
0
173
0
174
0
175
1
176
1
 91
33
178
0
145
0.0
301
CELL_VALUE
 90
4
  1
 
304
ACVALUE_END
170
1
140
0.125
171
1
172
0
173
0
174
0
175
1
176
1
 91
33
178
0
145
0.0
301
CELL_VALUE
 90
4
  1
INE
304
ACVALUE_END
170
5
140
0.125
171
1
172
0
173
0
174
0
175
4
176
1
 91
33
178
0
145
0.0
301
CELL_VALUE
 90
4
  1
ALL DIMENSIONS IN INCH\PVIEWS ARE THIRD ANGLE
304
ACVALUE_END
170
5
140
0.12
171
1
172
0
173
1
174
0
175
1
176
1
 91
1
178
0
145
0.0
170
1
171
1
172
0
173
1
174
0
175
1
176
1
 91
1
178
0
145
0.0
170
1
171
1
172
0
173
1
174
0
175
1
176
1
 91
1
178
0
145
0.0
170
5
171
1
172
0
173
0
174
0
175
1
176
1
 91
33
178
0
145
0.0
301
CELL_VALUE
 90
4
  1
 
304
ACVALUE_END
170
1
140
0.125
171
1
172
0
173
0
174
0
175
1
176
1
 91
33
178
0
145
0.0
301
CELL_VALUE
 90
4
  1
MODEL
304
ACVALUE_END
170
1
140
0.06
171
1
172
0
173
0
174
0
175
1
176
1
 91
33
178
0
145
0.0
301
CELL_VALUE
 90
4
  1
 
304
ACVALUE_END
170
1
140
0.125
171
1
172
0
173
0
174
0
175
1
176
1
 91
33
178
0
145
0.0
301
CELL_VALUE
 90
4
  1
 
304
ACVALUE_END
170
1
140
0.125
171
1
172
0
173
0
174
0
175
1
176
1
 91
33
178
0
145
0.0
301
CELL_VALUE
 90
4
  1
 
304
ACVALUE_END
170
1
140
0.125
171
1
172
0
173
0
174
0
175
1
176
1
 91
33
178
0
145
0.0
301
CELL_VALUE
 90
4
  1
 
304
ACVALUE_END
170
1
140
0.125
171
1
172
0
173
0
174
0
175
1
176
1
 91
33
178
0
145
0.0
301
CELL_VALUE
 90
4
  1
 
304
ACVALUE_END
170
1
140
0.125
  0
ACAD_TABLE
  5
291
100
AcDbEntity
  8
0
 62
2
  6
CONTINUOUS
100
AcDbBlockReference
  2
*T2
 10
12.4237499994
 20
16.47875
 30
0.0
100
AcDbTable
342
       373
343
210
 11
1.0
 21
0.0
 31
0.0
 90
22
 91
11
 92
3
 93
16
 94
0
 95
0
 96
0
 41
0.028
141
0.344
141
0.25
141
0.25
141
0.25
141
0.25
141
0.25
141
0.25
141
0.25
141
0.25
141
0.25
141
0.25
142
3.055
142
3.0
142
3.0
171
1
172
0
173
0
174
0
175
1
176
1
 91
33
178
0
145
0.0
301
CELL_VALUE
 90
4
  1
Technical Data
304
ACVALUE_END
170
5
140
0.145
171
1
172
0
173
0
174
0
175
1
176
1
 91
33
178
0
145
0.0
301
CELL_VALUE
 90
4
  1
U.S. Units
304
ACVALUE_END
170
5
140
0.145
171
1
172
0
173
0
174
0
175
1
176
1
 91
33
178
0
145
0.0
301
CELL_VALUE
 90
4
  1
Metric Units
304
ACVALUE_END
170
5
140
0.145
171
1
172
0
173
0
174
0
175
1
176
1
 91
33
178
0
145
0.0
301
CELL_VALUE
 90
4
  1
Cavity
304
ACVALUE_END
170
5
140
0.125
171
1
172
0
173
0
174
0
175
2
176
1
 91
33
178
0
145
0.0
301
CELL_VALUE
 90
4
  1
T-16A
304
ACVALUE_END
170
5
140
0.125
171
1
172
0
173
1
174
0
175
1
176
1
 91
1
178
0
145
0.0
170
1
171
1
172
0
173
0
174
0
175
1
176
1
 91
33
178
0
145
0.0
301
CELL_VALUE
 90
4
  1
Body Features
304
ACVALUE_END
170
5
140
0.125
171
1
172
0
173
0
174
0
175
2
176
1
 91
33
178
0
145
0.0
301
CELL_VALUE
 90
4
  1
Ninety degree with reverse flow check
304
ACVALUE_END
170
5
140
0.125
171
1
172
0
173
1
174
0
175
1
176
1
 91
1
178
0
145
0.0
170
1
171
1
172
0
173
0
174
0
175
1
176
1
 91
33
178
0
145
0.0
301
CELL_VALUE
 90
4
  1
Body Type
304
ACVALUE_END
170
5
140
0.125
171
1
172
0
173
0
174
0
175
2
176
1
 91
33
178
0
145
0.0
301
CELL_VALUE
 90
4
  1
Line mount
304
ACVALUE_END
170
5
140
0.125
171
1
172
0
173
1
174
0
175
1
176
1
 91
1
178
0
145
0.0
170
1
171
1
172
0
173
0
174
0
175
1
176
1
 91
33
178
0
145
0.0
301
CELL_VALUE
 90
4
  1
Interface
304
ACVALUE_END
170
5
140
0.125
171
1
172
0
173
0
174
0
175
2
176
1
 91
33
178
0
145
0.0
301
CELL_VALUE
 90
4
  1
None
304
ACVALUE_END
170
5
140
0.125
171
1
172
0
173
1
174
0
175
1
176
1
 91
1
178
0
145
0.0
170
1
171
1
172
0
173
0
174
0
175
1
176
1
 91
33
178
0
145
0.0
301
CELL_VALUE
 90
4
  1
Open Cavity Quantity
304
ACVALUE_END
170
5
140
0.125
171
1
172
0
173
0
174
0
175
2
176
1
 91
33
178
0
145
0.0
301
CELL_VALUE
 90
4
  1
1
304
ACVALUE_END
170
5
140
0.125
171
1
172
0
173
1
174
0
175
1
176
1
 91
1
178
0
145
0.0
170
1
171
1
172
0
173
0
174
0
175
1
176
1
 91
33
178
0
145
0.0
301
CELL_VALUE
 90
4
  1
Weight
304
ACVALUE_END
170
5
140
0.125
171
1
172
0
173
0
174
0
175
1
176
1
 91
33
178
0
145
0.0
301
CELL_VALUE
 90
4
  1
3.928 lb.
304
ACVALUE_END
170
5
140
0.125
171
1
172
0
173
0
174
0
175
1
176
1
 91
33
178
0
145
0.0
301
CELL_VALUE
 90
4
  1
1,782 kg.
304
ACVALUE_END
170
5
140
0.125
171
1
172
0
173
0
174
0
175
1
176
1
 91
33
178
0
145
0.0
301
CELL_VALUE
 90
4
  1
Mounting Hole Diameter
304
ACVALUE_END
170
5
140
0.125
171
1
172
0
173
0
174
0
175
1
176
1
 91
33
178
0
145
0.0
301
CELL_VALUE
 90
4
  1
.28 in.
304
ACVALUE_END
170
5
140
0.125
171
1
172
0
173
0
174
0
175
1
176
1
 91
33
178
0
145
0.0
301
CELL_VALUE
 90
4
  1
7,1 mm
304
ACVALUE_END
170
5
140
0.125
171
1
172
0
173
0
174
0
175
1
176
1
 91
33
178
0
145
0.0
301
CELL_VALUE
 90
4
  1
Mounting Hole Depth
304
ACVALUE_END
170
5
140
0.125
171
1
172
0
173
0
174
0
175
2
176
1
 91
33
178
0
145
0.0
301
CELL_VALUE
 90
4
  1
Through
304
ACVALUE_END
170
5
140
0.125
171
1
172
0
173
1
174
0
175
1
176
1
 91
1
178
0
145
0.0
170
1
171
1
172
0
173
0
174
0
175
1
176
1
 91
33
178
0
145
0.0
301
CELL_VALUE
 90
4
  1
Mounting Hole Quantity
304
ACVALUE_END
170
5
140
0.125
171
1
172
0
173
0
174
0
175
2
176
1
 91
33
178
0
145
0.0
301
CELL_VALUE
 90
4
  1
2
304
ACVALUE_END
170
5
140
0.125
171
1
172
0
173
1
174
0
175
1
176
1
 91
1
178
0
145
0.0
170
1
171
1
172
0
173
0
174
0
175
1
176
1
 91
33
178
0
145
0.0
301
CELL_VALUE
 90
4
  1
Includes integral cartridge(s)
304
ACVALUE_END
170
5
140
0.125
171
1
172
0
173
0
174
0
175
2
176
1
 91
33
178
0
145
0.0
301
CELL_VALUE
 90
4
  1
Yes (see Included Components)
304
ACVALUE_END
170
5
140
0.125
171
1
172
0
173
1
174
0
175
1
176
1
 91
1
178
0
145
0.0
170
1
  0
ACAD_TABLE
  5
292
100
AcDbEntity
  8
0
 62
2
  6
CONTINUOUS
100
AcDbBlockReference
  2
*T3
 10
0.52125
 20
1.709
 30
0.0
100
AcDbTable
342
       373
343
211
 11
1.0
 21
0.0
 31
0.0
 90
22
 91
4
 92
3
 93
16
 94
0
 95
0
 96
0
 41
0.05
141
0.34375
141
0.344
141
0.25
141
0.25
142
1.3
142
2.0
142
1.3
171
1
172
0
173
0
174
0
175
3
176
1
 91
33
178
0
145
0.0
301
CELL_VALUE
 90
4
  1
Port Headings
304
ACVALUE_END
170
5
140
0.145
171
1
172
0
173
1
174
0
175
1
176
1
 91
1
178
0
145
0.0
170
1
171
1
172
0
173
1
174
0
175
1
176
1
 91
1
178
0
145
0.0
170
1
171
1
172
0
173
0
174
0
175
1
176
1
 91
33
178
0
145
0.0
301
CELL_VALUE
 90
4
  1
Product
304
ACVALUE_END
170
5
140
0.145
171
1
172
0
173
0
174
0
175
1
176
1
 91
33
178
0
145
0.0
301
CELL_VALUE
 90
4
  1
Port
304
ACVALUE_END
170
5
140
0.145
171
1
172
0
173
0
174
0
175
1
176
1
 91
33
178
0
145
0.0
301
CELL_VALUE
 90
4
  1
Size
304
ACVALUE_END
170
5
140
0.145
171
1
172
0
173
0
174
0
175
1
176
1
 91
33
178
0
145
0.0
301
CELL_VALUE
 90
4
  1
INE
304
ACVALUE_END
170
5
140
0.125
171
1
172
0
173
0
174
0
175
1
176
1
 91
33
178
0
145
0.0
301
CELL_VALUE
 90
4
  1
Ports 1 &  2
304
ACVALUE_END
170
5
140
0.125
171
1
172
0
173
0
174
0
175
1
176
1
 91
33
178
0
145
0.0
301
CELL_VALUE
 90
4
  1
1"  NPTF
304
ACVALUE_END
170
5
140
0.125
171
1
172
0
173
0
174
0
175
1
176
1
 91
33
178
0
145
0.0
301
CELL_VALUE
 90
4
  1
INE
304
ACVALUE_END
170
5
140
0.125
171
1
172
0
173
0
174
0
175
1
176
1
 91
33
178
0
145
0.0
301
CELL_VALUE
 90
4
  1
Gage Port
304
ACVALUE_END
170
5
140
0.125
171
1
172
0
173
0
174
0
175
1
176
1
 91
33
178
0
145
0.0
301
CELL_VALUE
 90
4
  1
1/4" NPTF
304
ACVALUE_END
170
5
140
0.125
  0
MTEXT
  5
293
100
AcDbEntity
  8
0
100
AcDbMText
 62
2
  6
CONTINUOUS
  7
STANDARD
 71
1
 72
1
 10
0.52125
 20
5.75995
 30
0.0
 11
1.0
 21
0.0
 31
0.0
 44
0.6
  3
Notes\P \P1. Important: Carefully consider\P   the maximum system pressure. The\P   pressure rating of the manifold is\P   dependent on the manifold material,\P   with the port type/size a secondary\P   consideration. Manifolds\P   constructed of alu
  3
minum are not\P   rated for pressures higher than\P   3000 psi (210 bar), regardless of\P   the port type/size specified.\P2. This drawing is for reference\P   only. It is generated by an\P   automated process and does not fall\P   under Sun's docume
  1
nt control\P   process.
 40
0.1
 41
3.04
  0
LINE
  5
294
100
AcDbEntity
  8
0
100
AcDbLine
 62
7
  6
CONTINUOUS
 10
0.30125
 20
0.30125
 11
0.30125
 21
16.69875
  0
LINE
  5
295
100
AcDbEntity
  8
0
100
AcDbLine
 62
7
  6
CONTINUOUS
 10
0.30125
 20
0.30125
 11
21.69875
 21
0.30125
  0
LINE
  5
296
100
AcDbEntity
  8
0
100
AcDbLine
 62
7
  6
CONTINUOUS
 10
0.30125
 20
16.69875
 11
21.69875
 21
16.69875
  0
LINE
  5
297
100
AcDbEntity
  8
0
100
AcDbLine
 62
7
  6
CONTINUOUS
 10
21.69875
 20
0.30125
 11
21.69875
 21
16.69875
  0
LINE
  5
298
100
AcDbEntity
  8
0
100
AcDbLine
 62
7
  6
CONTINUOUS
 10
9.3593194184
 20
11.6096412614
 11
8.7769770475
 21
11.0471416922
  0
LINE
  5
299
100
AcDbEntity
  8
0
100
AcDbLine
 62
7
  6
CONTINUOUS
 10
11.2774336431
 20
5.4855181342
 11
11.296000196
 21
5.4763466126
  0
LINE
  5
29A
100
AcDbEntity
  8
0
100
AcDbLine
 62
7
  6
CONTINUOUS
 10
8.7769770475
 20
6.3382530101
 11
12.6406805816
 21
6.0703042599
  0
LINE
  5
29B
100
AcDbEntity
  8
0
100
AcDbLine
 62
7
  6
CONTINUOUS
 10
8.7769770475
 20
6.3382530101
 11
8.7769770475
 21
11.0471416922
  0
LINE
  5
29C
100
AcDbEntity
  8
0
100
AcDbLine
 62
4
  6
CONTINUOUS
 10
11.3777324739
 20
6.3027788969
 11
11.363243586
 21
6.3037837047
  0
LINE
  5
29D
100
AcDbEntity
  8
0
100
AcDbLine
 62
4
  6
CONTINUOUS
 10
11.6964880084
 20
6.3193101612
 11
11.7399546722
 21
6.3162957378
  0
LINE
  5
29E
100
AcDbEntity
  8
0
100
AcDbLine
 62
4
  6
CONTINUOUS
 10
11.573332461
 20
6.3471695435
 11
11.6312880127
 21
6.3431503123
  0
LINE
  5
29F
100
AcDbEntity
  8
0
100
AcDbLine
 62
4
  6
CONTINUOUS
 10
11.363243586
 20
6.4196948082
 11
11.3777324739
 21
6.4186900004
  0
LINE
  5
2A0
100
AcDbEntity
  8
0
100
AcDbLine
 62
4
  6
CONTINUOUS
 10
9.0087993227
 20
7.8290205117
 11
9.0087993227
 21
7.7131094082
  0
LINE
  5
2A1
100
AcDbEntity
  8
0
100
AcDbLine
 62
4
  6
CONTINUOUS
 10
11.363243586
 20
6.3037837047
 11
11.3487546981
 21
6.3144477714
  0
LINE
  5
2A2
100
AcDbEntity
  8
0
100
AcDbLine
 62
4
  6
CONTINUOUS
 10
11.3777324739
 20
6.4186900004
 11
11.3922213619
 21
6.4080259363
  0
LINE
  5
2A3
100
AcDbEntity
  8
0
100
AcDbLine
 62
4
  6
CONTINUOUS
 10
10.2714023824
 20
9.2794886274
 11
10.2272457697
 21
9.2604725909
  0
LINE
  5
2A4
100
AcDbEntity
  8
0
100
AcDbLine
 62
4
  6
CONTINUOUS
 10
10.1592169868
 20
9.9225719609
 11
10.1592169868
 21
9.8646164079
  0
LINE
  5
2A5
100
AcDbEntity
  8
0
100
AcDbLine
 62
4
  6
CONTINUOUS
 10
10.2171725398
 20
9.8605971767
 11
10.2171725398
 21
9.8026416236
  0
LINE
  5
2A6
100
AcDbEntity
  8
0
100
AcDbLine
 62
4
  6
CONTINUOUS
 10
10.2461503163
 20
9.800632008
 11
10.2461503163
 21
9.916543114
  0
LINE
  5
2A7
100
AcDbEntity
  8
0
100
AcDbLine
 62
4
  6
CONTINUOUS
 10
10.3983526372
 20
9.1989301005
 11
10.4314700941
 21
9.3125445031
  0
LINE
  5
2A8
100
AcDbEntity
  8
0
100
AcDbLine
 62
4
  6
CONTINUOUS
 10
10.3514362365
 20
9.2187424941
 11
10.3348775081
 21
9.2033321157
  0
LINE
  5
2A9
100
AcDbEntity
  8
0
100
AcDbLine
 62
4
  6
CONTINUOUS
 10
11.3487546981
 20
6.3144477714
 11
11.3342658102
 21
6.3347710962
  0
LINE
  5
2AA
100
AcDbEntity
  8
0
100
AcDbLine
 62
4
  6
CONTINUOUS
 10
11.3922213619
 20
6.4080259363
 11
11.3994658058
 21
6.3978642691
  0
LINE
  5
2AB
100
AcDbEntity
  8
0
100
AcDbLine
 62
4
  6
CONTINUOUS
 10
10.3181118786
 20
8.1129985327
 11
10.3036229907
 21
8.1333218574
  0
LINE
  5
2AC
100
AcDbEntity
  8
0
100
AcDbLine
 62
4
  6
CONTINUOUS
 10
10.3036229907
 20
8.1333218574
 11
10.2963785467
 21
8.1628020372
  0
LINE
  5
2AD
100
AcDbEntity
  8
0
100
AcDbLine
 62
4
  6
CONTINUOUS
 10
10.2934806904
 20
9.2062029947
 11
10.2934806904
 21
9.3221141007
  0
LINE
  5
2AE
100
AcDbEntity
  8
0
100
AcDbLine
 62
4
  6
CONTINUOUS
 10
10.3041058694
 20
9.9125238828
 11
10.3041058694
 21
9.7966127768
  0
LINE
  5
2AF
100
AcDbEntity
  8
0
100
AcDbLine
 62
4
  6
CONTINUOUS
 10
10.3330836459
 20
9.9105142672
 11
10.3330836459
 21
9.7946031611
  0
LINE
  5
2B0
100
AcDbEntity
  8
0
100
AcDbLine
 62
4
  6
CONTINUOUS
 10
10.3514362365
 20
9.3015361415
 11
10.3514362365
 21
9.2187424941
  0
LINE
  5
2B1
100
AcDbEntity
  8
0
100
AcDbLine
 62
4
  6
CONTINUOUS
 10
10.3688229864
 20
8.1577779982
 11
10.3688229864
 21
8.1191409643
  0
LINE
  5
2B2
100
AcDbEntity
  8
0
100
AcDbLine
 62
4
  6
CONTINUOUS
 10
10.3910391989
 20
9.9064950359
 11
10.3910391989
 21
9.7905839299
  0
LINE
  5
2B3
100
AcDbEntity
  8
0
100
AcDbLine
 62
4
  6
CONTINUOUS
 10
10.5069503049
 20
9.7825454674
 11
10.5069503049
 21
9.8984565734
  0
LINE
  5
2B4
100
AcDbEntity
  8
0
100
AcDbLine
 62
4
  6
CONTINUOUS
 10
10.2963785467
 20
8.1628020372
 11
10.3036229907
 21
8.1912774092
  0
LINE
  5
2B5
100
AcDbEntity
  8
0
100
AcDbLine
 62
7
  6
CONTINUOUS
 10
12.6406805816
 20
10.7791929421
 11
13.2230229525
 21
11.3416925112
  0
LINE
  5
2B6
100
AcDbEntity
  8
0
100
AcDbLine
 62
4
  6
CONTINUOUS
 10
10.770924079
 20
9.2724445608
 11
10.7874828006
 21
9.287854938
  0
LINE
  5
2B7
100
AcDbEntity
  8
0
100
AcDbLine
 62
4
  6
CONTINUOUS
 10
10.8675166305
 20
9.2657458446
 11
10.8840753521
 21
9.2811562218
  0
LINE
  5
2B8
100
AcDbEntity
  8
0
100
AcDbLine
 62
4
  6
CONTINUOUS
 10
10.9254721836
 20
9.178932966
 11
10.908913462
 21
9.163522587
  0
LINE
  5
2B9
100
AcDbEntity
  8
0
100
AcDbLine
 62
4
  6
CONTINUOUS
 10
11.0165451796
 20
9.1726170322
 11
10.9999864581
 21
9.1572066533
  0
LINE
  5
2BA
100
AcDbEntity
  8
0
100
AcDbLine
 62
4
  6
CONTINUOUS
 10
11.1904118387
 20
9.1936767971
 11
11.1462552295
 21
9.174660762
  0
LINE
  5
2BB
100
AcDbEntity
  8
0
100
AcDbLine
 62
4
  6
CONTINUOUS
 10
10.3326007665
 20
8.102334466
 11
10.3181118786
 21
8.1129985327
  0
LINE
  5
2BC
100
AcDbEntity
  8
0
100
AcDbLine
 62
4
  6
CONTINUOUS
 10
10.3470896545
 20
8.2172407616
 11
10.3615785424
 21
8.2065766975
  0
LINE
  5
2BD
100
AcDbEntity
  8
0
100
AcDbLine
 62
4
  6
CONTINUOUS
 10
10.3615785424
 20
8.2065766975
 11
10.3688229864
 21
8.1964150304
  0
LINE
  5
2BE
100
AcDbEntity
  8
0
100
AcDbLine
 62
4
  6
CONTINUOUS
 10
11.4574213576
 20
6.4131635575
 11
11.5153769093
 21
6.2932332229
  0
LINE
  5
2BF
100
AcDbEntity
  8
0
100
AcDbLine
 62
4
  6
CONTINUOUS
 10
10.5308224786
 20
9.1897432858
 11
10.5308224786
 21
9.3056543918
  0
LINE
  5
2C0
100
AcDbEntity
  8
0
100
AcDbLine
 62
4
  6
CONTINUOUS
 10
10.5649058579
 20
9.7785262361
 11
10.5649058579
 21
9.8364817891
  0
LINE
  5
2C1
100
AcDbEntity
  8
0
100
AcDbLine
 62
4
  6
CONTINUOUS
 10
10.5970573924
 20
9.1851498789
 11
10.5970573924
 21
9.3010609849
  0
LINE
  5
2C2
100
AcDbEntity
  8
0
100
AcDbLine
 62
4
  6
CONTINUOUS
 10
10.6122362245
 20
9.4391016566
 11
10.6122362245
 21
9.5550127626
  0
LINE
  5
2C3
100
AcDbEntity
  8
0
100
AcDbLine
 62
4
  6
CONTINUOUS
 10
10.6122362262
 20
9.7752438639
 11
10.6122362262
 21
9.8331994169
  0
LINE
  5
2C4
100
AcDbEntity
  8
0
100
AcDbLine
 62
4
  6
CONTINUOUS
 10
10.6646721996
 20
9.4354652094
 11
10.6646721996
 21
9.5513763154
  0
LINE
  5
2C5
100
AcDbEntity
  8
0
100
AcDbLine
 62
4
  6
CONTINUOUS
 10
10.6701917792
 20
9.8291801857
 11
10.6701917792
 21
9.7132690797
  0
LINE
  5
2C6
100
AcDbEntity
  8
0
100
AcDbLine
 62
4
  6
CONTINUOUS
 10
10.7088288146
 20
9.7685451452
 11
10.7088288146
 21
9.8265006982
  0
LINE
  5
2C7
100
AcDbEntity
  8
0
100
AcDbLine
 62
4
  6
CONTINUOUS
 10
10.7226277596
 20
9.4314459776
 11
10.7226277596
 21
9.5473570837
  0
LINE
  5
2C8
100
AcDbEntity
  8
0
100
AcDbLine
 62
4
  6
CONTINUOUS
 10
10.7557452165
 20
9.4291492742
 11
10.7557452165
 21
9.5450603802
  0
LINE
  5
2C9
100
AcDbEntity
  8
0
100
AcDbLine
 62
4
  6
CONTINUOUS
 10
10.7667843676
 20
9.88043702
 11
10.7667843676
 21
9.7645259139
  0
LINE
  5
2CA
100
AcDbEntity
  8
0
100
AcDbLine
 62
4
  6
CONTINUOUS
 10
10.770924079
 20
9.1896509134
 11
10.770924079
 21
9.2724445608
  0
LINE
  5
2CB
100
AcDbEntity
  8
0
100
AcDbLine
 62
4
  6
CONTINUOUS
 10
10.3036229907
 20
8.1912774092
 11
10.3181118786
 21
8.2095911209
  0
LINE
  5
2CC
100
AcDbEntity
  8
0
100
AcDbLine
 62
4
  6
CONTINUOUS
 10
10.3688229864
 20
8.1191409643
 11
10.3615785424
 21
8.1099841093
  0
LINE
  5
2CD
100
AcDbEntity
  8
0
100
AcDbLine
 62
4
  6
CONTINUOUS
 10
10.3470896545
 20
8.1013296582
 11
10.3326007665
 21
8.102334466
  0
LINE
  5
2CE
100
AcDbEntity
  8
0
100
AcDbLine
 62
4
  6
CONTINUOUS
 10
10.3398452105
 20
8.1597876138
 11
10.3688229864
 21
8.1577779982
  0
LINE
  5
2CF
100
AcDbEntity
  8
0
100
AcDbLine
 62
4
  6
CONTINUOUS
 10
10.3326007665
 20
8.2182455694
 11
10.3470896545
 21
8.2172407616
  0
LINE
  5
2D0
100
AcDbEntity
  8
0
100
AcDbLine
 62
4
  6
CONTINUOUS
 10
10.4314700941
 20
9.3125445031
 11
10.4645875648
 21
9.1943366927
  0
LINE
  5
2D1
100
AcDbEntity
  8
0
100
AcDbLine
 62
4
  6
CONTINUOUS
 10
10.8054214029
 20
9.8198019794
 11
10.8054214029
 21
9.7618464264
  0
LINE
  5
2D2
100
AcDbEntity
  8
0
100
AcDbLine
 62
4
  6
CONTINUOUS
 10
10.8675166305
 20
9.1829521972
 11
10.8675166305
 21
9.2657458446
  0
LINE
  5
2D3
100
AcDbEntity
  8
0
100
AcDbLine
 62
4
  6
CONTINUOUS
 10
10.9020139913
 20
9.7551477077
 11
10.9020139913
 21
9.793784743
  0
LINE
  5
2D4
100
AcDbEntity
  8
0
100
AcDbLine
 62
4
  6
CONTINUOUS
 10
10.9254721836
 20
9.2617266134
 11
10.9254721836
 21
9.178932966
  0
LINE
  5
2D5
100
AcDbEntity
  8
0
100
AcDbLine
 62
4
  6
CONTINUOUS
 10
10.9585896266
 20
9.1600775333
 11
10.9585896266
 21
9.2759886393
  0
LINE
  5
2D6
100
AcDbEntity
  8
0
100
AcDbLine
 62
4
  6
CONTINUOUS
 10
10.9599695443
 20
9.8090840294
 11
10.9599695443
 21
9.7511284764
  0
LINE
  5
2D7
100
AcDbEntity
  8
0
100
AcDbLine
 62
4
  6
CONTINUOUS
 10
10.9986065796
 20
9.8064045419
 11
10.9986065796
 21
9.7484489889
  0
LINE
  5
2D8
100
AcDbEntity
  8
0
100
AcDbLine
 62
4
  6
CONTINUOUS
 10
11.0165451796
 20
9.2554106796
 11
11.0165451796
 21
9.1726170322
  0
LINE
  5
2D9
100
AcDbEntity
  8
0
100
AcDbLine
 62
7
  6
CONTINUOUS
 10
12.931851767
 20
10.3268219831
 11
12.9335082594
 21
10.328392678
  0
LINE
  5
2DA
100
AcDbEntity
  8
0
100
AcDbLine
 62
4
  6
CONTINUOUS
 10
12.4006479876
 20
9.5159875185
 11
12.4151368756
 21
9.5246419671
  0
LINE
  5
2DB
100
AcDbEntity
  8
0
100
AcDbLine
 62
4
  6
CONTINUOUS
 10
10.3181118786
 20
8.2095911209
 11
10.3326007665
 21
8.2182455694
  0
LINE
  5
2DC
100
AcDbEntity
  8
0
100
AcDbLine
 62
4
  6
CONTINUOUS
 10
12.4441146514
 20
9.4743360561
 11
12.4151368756
 21
9.4570271556
  0
LINE
  5
2DD
100
AcDbEntity
  8
0
100
AcDbLine
 62
4
  6
CONTINUOUS
 10
10.3615785424
 20
8.1099841093
 11
10.3470896545
 21
8.1013296582
  0
LINE
  5
2DE
100
AcDbEntity
  8
0
100
AcDbLine
 62
4
  6
CONTINUOUS
 10
11.3342658102
 20
6.3347710962
 11
11.3270213662
 21
6.3642512759
  0
LINE
  5
2DF
100
AcDbEntity
  8
0
100
AcDbLine
 62
4
  6
CONTINUOUS
 10
11.0565621326
 20
9.7444297577
 11
11.0565621326
 21
9.8023853107
  0
LINE
  5
2E0
100
AcDbEntity
  8
0
100
AcDbLine
 62
4
  6
CONTINUOUS
 10
11.0634616218
 20
9.1528046358
 11
11.0634616218
 21
9.2687157418
  0
LINE
  5
2E1
100
AcDbEntity
  8
0
100
AcDbLine
 62
4
  6
CONTINUOUS
 10
11.095199168
 20
9.7417502702
 11
11.095199168
 21
9.8576613762
  0
LINE
  5
2E2
100
AcDbEntity
  8
0
100
AcDbLine
 62
4
  6
CONTINUOUS
 10
11.1338362033
 20
9.7390707827
 11
11.1338362033
 21
9.7970263357
  0
LINE
  5
2E3
100
AcDbEntity
  8
0
100
AcDbLine
 62
7
  6
CONTINUOUS
 10
11.1548373152
 20
6.1733478404
 11
11.1548373152
 21
5.6422673162
  0
LINE
  5
2E4
100
AcDbEntity
  8
0
100
AcDbLine
 62
4
  6
CONTINUOUS
 10
11.1724732386
 20
9.7943468482
 11
11.1724732386
 21
9.7363912952
  0
LINE
  5
2E5
100
AcDbEntity
  8
0
100
AcDbLine
 62
4
  6
CONTINUOUS
 10
11.269065827
 20
9.7876481294
 11
11.269065827
 21
9.7586703529
  0
LINE
  5
2E6
100
AcDbEntity
  8
0
100
AcDbLine
 62
4
  6
CONTINUOUS
 10
10.2272457697
 20
9.2604725909
 11
10.2714023824
 21
9.235332013
  0
LINE
  5
2E7
100
AcDbEntity
  8
0
100
AcDbLine
 62
4
  6
CONTINUOUS
 10
10.3348775081
 20
9.3192432217
 11
10.3514362365
 21
9.3015361415
  0
LINE
  5
2E8
100
AcDbEntity
  8
0
100
AcDbLine
 62
4
  6
CONTINUOUS
 10
10.6646721996
 20
9.5513763154
 11
10.7226277596
 21
9.4314459776
  0
LINE
  5
2E9
100
AcDbEntity
  8
0
100
AcDbLine
 62
4
  6
CONTINUOUS
 10
11.7182213403
 20
6.3950770173
 11
11.7544435601
 21
6.2766538944
  0
LINE
  5
2EA
100
AcDbEntity
  8
0
100
AcDbLine
 62
4
  6
CONTINUOUS
 10
11.32702138
 20
9.7546511217
 11
11.32702138
 21
9.7256733452
  0
LINE
  5
2EB
100
AcDbEntity
  8
0
100
AcDbLine
 62
7
  6
CONTINUOUS
 10
11.3281054197
 20
6.1451716375
 11
11.3281054197
 21
5.4749034653
  0
LINE
  5
2EC
100
AcDbEntity
  8
0
100
AcDbLine
 62
7
  6
CONTINUOUS
 10
11.360098215
 20
6.1368913033
 11
11.360098215
 21
5.4666231311
  0
LINE
  5
2ED
100
AcDbEntity
  8
0
100
AcDbLine
 62
4
  6
CONTINUOUS
 10
12.3934035437
 20
9.5068306592
 11
12.4006479876
 21
9.5159875185
  0
LINE
  5
2EE
100
AcDbEntity
  8
0
100
AcDbLine
 62
4
  6
CONTINUOUS
 10
12.4151368756
 20
9.4570271556
 11
12.4006479876
 21
9.4387134473
  0
LINE
  5
2EF
100
AcDbEntity
  8
0
100
AcDbLine
 62
4
  6
CONTINUOUS
 10
12.4513590954
 20
9.4834929154
 11
12.4441146514
 21
9.4743360561
  0
LINE
  5
2F0
100
AcDbEntity
  8
0
100
AcDbLine
 62
4
  6
CONTINUOUS
 10
10.7874828006
 20
9.171943832
 11
10.770924079
 21
9.1896509134
  0
LINE
  5
2F1
100
AcDbEntity
  8
0
100
AcDbLine
 62
4
  6
CONTINUOUS
 10
10.8840753521
 20
9.1652451158
 11
10.8675166305
 21
9.1829521972
  0
LINE
  5
2F2
100
AcDbEntity
  8
0
100
AcDbLine
 62
4
  6
CONTINUOUS
 10
10.908913462
 20
9.2794336931
 11
10.9254721836
 21
9.2617266134
  0
LINE
  5
2F3
100
AcDbEntity
  8
0
100
AcDbLine
 62
4
  6
CONTINUOUS
 10
10.9999864581
 20
9.2731177593
 11
11.0165451796
 21
9.2554106796
  0
LINE
  5
2F4
100
AcDbEntity
  8
0
100
AcDbLine
 62
4
  6
CONTINUOUS
 10
11.573332461
 20
6.4051250952
 11
11.573332461
 21
6.2892139918
  0
LINE
  5
2F5
100
AcDbEntity
  8
0
100
AcDbLine
 62
4
  6
CONTINUOUS
 10
11.6312880127
 20
6.401105864
 11
11.6312880127
 21
6.2851947606
  0
LINE
  5
2F6
100
AcDbEntity
  8
0
100
AcDbLine
 62
4
  6
CONTINUOUS
 10
10.9999864581
 20
9.1572066533
 11
10.9585896266
 21
9.1600775333
  0
LINE
  5
2F7
100
AcDbEntity
  8
0
100
AcDbLine
 62
4
  6
CONTINUOUS
 10
10.908913462
 20
9.163522587
 11
10.8840753521
 21
9.1652451158
  0
LINE
  5
2F8
100
AcDbEntity
  8
0
100
AcDbLine
 62
4
  6
CONTINUOUS
 10
10.8206002437
 20
9.1696471295
 11
10.7874828006
 21
9.171943832
  0
LINE
  5
2F9
100
AcDbEntity
  8
0
100
AcDbLine
 62
4
  6
CONTINUOUS
 10
10.3348775081
 20
9.2033321157
 11
10.2934806904
 21
9.2062029947
  0
LINE
  5
2FA
100
AcDbEntity
  8
0
100
AcDbLine
 62
4
  6
CONTINUOUS
 10
10.5970573924
 20
9.1851498789
 11
10.6467335846
 21
9.1817048233
  0
LINE
  5
2FB
100
AcDbEntity
  8
0
100
AcDbLine
 62
4
  6
CONTINUOUS
 10
11.0634616218
 20
9.1528046358
 11
11.1131377864
 21
9.149359582
  0
LINE
  5
2FC
100
AcDbEntity
  8
0
100
AcDbLine
 62
4
  6
CONTINUOUS
 10
10.4093917895
 20
9.231281993
 11
10.4535483987
 21
9.2282197218
  0
LINE
  5
2FD
100
AcDbEntity
  8
0
100
AcDbLine
 62
4
  6
CONTINUOUS
 10
11.0965790649
 20
9.216742854
 11
11.0634616218
 21
9.2190395564
  0
LINE
  5
2FE
100
AcDbEntity
  8
0
100
AcDbLine
 62
4
  6
CONTINUOUS
 10
10.6301748631
 20
9.2490880952
 11
10.5970573924
 21
9.2513847996
  0
LINE
  5
2FF
100
AcDbEntity
  8
0
100
AcDbLine
 62
4
  6
CONTINUOUS
 10
10.2934806904
 20
9.3221141007
 11
10.3348775081
 21
9.3192432217
  0
LINE
  5
300
100
AcDbEntity
  8
0
100
AcDbLine
 62
4
  6
CONTINUOUS
 10
10.4977050079
 20
9.3079510962
 11
10.5639399217
 21
9.3033576893
  0
LINE
  5
301
100
AcDbEntity
  8
0
100
AcDbLine
 62
4
  6
CONTINUOUS
 10
10.5970573924
 20
9.3010609849
 11
10.6467335846
 21
9.2976159293
  0
LINE
  5
302
100
AcDbEntity
  8
0
100
AcDbLine
 62
4
  6
CONTINUOUS
 10
10.7874828006
 20
9.287854938
 11
10.8206002437
 21
9.2855582356
  0
LINE
  5
303
100
AcDbEntity
  8
0
100
AcDbLine
 62
4
  6
CONTINUOUS
 10
10.8840753521
 20
9.2811562218
 11
10.908913462
 21
9.2794336931
  0
LINE
  5
304
100
AcDbEntity
  8
0
100
AcDbLine
 62
4
  6
CONTINUOUS
 10
10.9585896266
 20
9.2759886393
 11
10.9999864581
 21
9.2731177593
  0
LINE
  5
305
100
AcDbEntity
  8
0
100
AcDbLine
 62
4
  6
CONTINUOUS
 10
11.0634616218
 20
9.2687157418
 11
11.1131377864
 21
9.2652706881
  0
LINE
  5
306
100
AcDbEntity
  8
0
100
AcDbLine
 62
4
  6
CONTINUOUS
 10
11.1462552295
 20
9.2188173764
 11
11.1904118387
 21
9.1936767971
  0
LINE
  5
307
100
AcDbEntity
  8
0
100
AcDbLine
 62
7
  6
CONTINUOUS
 10
12.006743089
 20
6.092046329
 11
12.006743089
 21
5.4217781568
  0
LINE
  5
308
100
AcDbEntity
  8
0
100
AcDbLine
 62
7
  6
CONTINUOUS
 10
12.0504460479
 20
6.0950771448
 11
12.0504460479
 21
5.4248089726
  0
LINE
  5
309
100
AcDbEntity
  8
0
100
AcDbLine
 62
4
  6
CONTINUOUS
 10
11.3270213662
 20
6.3642512759
 11
11.3342658102
 21
6.3927266479
  0
LINE
  5
30A
100
AcDbEntity
  8
0
100
AcDbLine
 62
4
  6
CONTINUOUS
 10
10.7557452165
 20
9.4291492742
 11
10.8054213949
 21
9.4257042195
  0
LINE
  5
30B
100
AcDbEntity
  8
0
100
AcDbLine
 62
4
  6
CONTINUOUS
 10
10.7888626733
 20
9.4930874914
 11
10.7557452165
 21
9.4953841949
  0
LINE
  5
30C
100
AcDbEntity
  8
0
100
AcDbLine
 62
4
  6
CONTINUOUS
 10
12.3934035437
 20
9.4102380753
 11
12.4513590954
 21
9.4062188442
  0
LINE
  5
30D
100
AcDbEntity
  8
0
100
AcDbLine
 62
4
  6
CONTINUOUS
 10
10.7557452165
 20
9.5450603802
 11
10.8054213949
 21
9.5416153255
  0
LINE
  5
30E
100
AcDbEntity
  8
0
100
AcDbLine
 62
4
  6
CONTINUOUS
 10
12.4006479876
 20
9.4387134473
 11
12.3934035437
 21
9.4102380753
  0
LINE
  5
30F
100
AcDbEntity
  8
0
100
AcDbLine
 62
4
  6
CONTINUOUS
 10
12.4151368756
 20
9.5246419671
 11
12.4296257635
 21
9.5236371593
  0
LINE
  5
310
100
AcDbEntity
  8
0
100
AcDbLine
 62
4
  6
CONTINUOUS
 10
10.6701917792
 20
9.7132690797
 11
10.6315547439
 21
9.7159485672
  0
LINE
  5
311
100
AcDbEntity
  8
0
100
AcDbLine
 62
4
  6
CONTINUOUS
 10
11.32702138
 20
9.7256733452
 11
11.269065827
 21
9.7296925764
  0
LINE
  5
312
100
AcDbEntity
  8
0
100
AcDbLine
 62
4
  6
CONTINUOUS
 10
10.9599695443
 20
9.7511284764
 11
10.9020139913
 21
9.7551477077
  0
LINE
  5
313
100
AcDbEntity
  8
0
100
AcDbLine
 62
4
  6
CONTINUOUS
 10
10.7667843676
 20
9.7645259139
 11
10.7088288146
 21
9.7685451452
  0
LINE
  5
314
100
AcDbEntity
  8
0
100
AcDbLine
 62
4
  6
CONTINUOUS
 10
10.6701917792
 20
9.7712246327
 11
10.6122362262
 21
9.7752438639
  0
LINE
  5
315
100
AcDbEntity
  8
0
100
AcDbLine
 62
4
  6
CONTINUOUS
 10
10.3041058694
 20
9.7966127768
 11
10.2461503163
 21
9.800632008
  0
LINE
  5
316
100
AcDbEntity
  8
0
100
AcDbLine
 62
4
  6
CONTINUOUS
 10
10.2171725398
 20
9.8026416236
 11
10.1592169868
 21
9.8066608549
  0
LINE
  5
317
100
AcDbEntity
  8
0
100
AcDbLine
 62
4
  6
CONTINUOUS
 10
10.9986065796
 20
9.7484489889
 11
11.0565621326
 21
9.7444297577
  0
LINE
  5
318
100
AcDbEntity
  8
0
100
AcDbLine
 62
4
  6
CONTINUOUS
 10
11.1724732386
 20
9.7363912952
 11
11.2304287917
 21
9.7323720639
  0
LINE
  5
319
100
AcDbEntity
  8
0
100
AcDbLine
 62
4
  6
CONTINUOUS
 10
11.269065827
 20
9.7586703529
 11
11.32702138
 21
9.7546511217
  0
LINE
  5
31A
100
AcDbEntity
  8
0
100
AcDbLine
 62
4
  6
CONTINUOUS
 10
10.9020139913
 20
9.793784743
 11
10.9599695443
 21
9.7897655118
  0
LINE
  5
31B
100
AcDbEntity
  8
0
100
AcDbLine
 62
4
  6
CONTINUOUS
 10
10.9599695443
 20
9.8090840294
 11
10.9213325089
 21
9.8117635169
  0
LINE
  5
31C
100
AcDbEntity
  8
0
100
AcDbLine
 62
4
  6
CONTINUOUS
 10
10.5649058579
 20
9.8364817891
 11
10.5069503049
 21
9.8405010204
  0
LINE
  5
31D
100
AcDbEntity
  8
0
100
AcDbLine
 62
4
  6
CONTINUOUS
 10
10.1592169868
 20
9.8646164079
 11
10.2171725398
 21
9.8605971767
  0
LINE
  5
31E
100
AcDbEntity
  8
0
100
AcDbLine
 62
4
  6
CONTINUOUS
 10
10.7088288146
 20
9.8265006982
 11
10.7667843676
 21
9.8224814669
  0
LINE
  5
31F
100
AcDbEntity
  8
0
100
AcDbLine
 62
4
  6
CONTINUOUS
 10
10.8054214029
 20
9.8198019794
 11
10.8633769559
 21
9.8157827482
  0
LINE
  5
320
100
AcDbEntity
  8
0
100
AcDbLine
 62
4
  6
CONTINUOUS
 10
11.1724732386
 20
9.7943468482
 11
11.2304287917
 21
9.7903276169
  0
LINE
  5
321
100
AcDbEntity
  8
0
100
AcDbLine
 62
4
  6
CONTINUOUS
 10
11.269065827
 20
9.7876481294
 11
11.32702138
 21
9.7836288982
  0
LINE
  5
322
100
AcDbEntity
  8
0
100
AcDbLine
 62
4
  6
CONTINUOUS
 10
12.4513590954
 20
9.502811428
 11
12.4513590954
 21
9.4834929154
  0
LINE
  5
323
100
AcDbEntity
  8
0
100
AcDbLine
 62
7
  6
CONTINUOUS
 10
12.5238228174
 20
6.0784083734
 11
12.5238228174
 21
5.5473278492
  0
LINE
  5
324
100
AcDbEntity
  8
0
100
AcDbLine
 62
7
  6
CONTINUOUS
 10
12.535532981
 20
6.0775962708
 11
12.535532981
 21
5.5586389992
  0
LINE
  5
325
100
AcDbEntity
  8
0
100
AcDbLine
 62
4
  6
CONTINUOUS
 10
11.6819991205
 20
6.2816779333
 11
11.7182213403
 21
6.3950770173
  0
LINE
  5
326
100
AcDbEntity
  8
0
100
AcDbLine
 62
4
  6
CONTINUOUS
 10
11.4574213576
 20
6.2972524541
 11
11.5153769093
 21
6.4091443264
  0
LINE
  5
327
100
AcDbEntity
  8
0
100
AcDbLine
 62
4
  6
CONTINUOUS
 10
11.1265917592
 20
9.8265065161
 11
11.1410806474
 21
9.8255017083
  0
LINE
  5
328
100
AcDbEntity
  8
0
100
AcDbLine
 62
4
  6
CONTINUOUS
 10
10.2171725398
 20
9.9185527297
 11
10.1592169868
 21
9.9225719609
  0
LINE
  5
329
100
AcDbEntity
  8
0
100
AcDbLine
 62
4
  6
CONTINUOUS
 10
10.3330836459
 20
9.9105142672
 11
10.3910391989
 21
9.9064950359
  0
LINE
  5
32A
100
AcDbEntity
  8
0
100
AcDbLine
 62
7
  6
CONTINUOUS
 10
12.6406805816
 20
6.0703042599
 11
12.6406805816
 21
10.7791929421
  0
LINE
  5
32B
100
AcDbEntity
  8
0
100
AcDbLine
 62
4
  6
CONTINUOUS
 10
11.3342658102
 20
6.3927266479
 11
11.3487546981
 21
6.4110403596
  0
LINE
  5
32C
100
AcDbEntity
  8
0
100
AcDbLine
 62
4
  6
CONTINUOUS
 10
11.3994658058
 20
6.3205902031
 11
11.3922213619
 21
6.3114333481
  0
LINE
  5
32D
100
AcDbEntity
  8
0
100
AcDbLine
 62
4
  6
CONTINUOUS
 10
12.4296257635
 20
9.5236371593
 11
12.4441146514
 21
9.5129730952
  0
LINE
  5
32E
100
AcDbEntity
  8
0
100
AcDbLine
 62
4
  6
CONTINUOUS
 10
12.4441146514
 20
9.5129730952
 11
12.4513590954
 21
9.502811428
  0
LINE
  5
32F
100
AcDbEntity
  8
0
100
AcDbLine
 62
4
  6
CONTINUOUS
 10
11.3487546981
 20
6.4110403596
 11
11.363243586
 21
6.4196948082
  0
LINE
  5
330
100
AcDbEntity
  8
0
100
AcDbLine
 62
7
  6
CONTINUOUS
 10
13.2230229525
 20
6.632803829
 11
13.2230229525
 21
11.3416925112
  0
LINE
  5
331
100
AcDbEntity
  8
0
100
AcDbLine
 62
4
  6
CONTINUOUS
 10
11.3922213619
 20
6.3114333481
 11
11.3777324739
 21
6.3027788969
  0
LINE
  5
332
100
AcDbEntity
  8
0
100
AcDbLine
 62
7
  6
CONTINUOUS
 10
8.7769770475
 20
11.0471416922
 11
12.6406805816
 21
10.7791929421
  0
LINE
  5
333
100
AcDbEntity
  8
0
100
AcDbLine
 62
7
  6
CONTINUOUS
 10
12.6406805816
 20
6.0703042599
 11
13.2230229525
 21
6.632803829
  0
LINE
  5
334
100
AcDbEntity
  8
0
100
AcDbLine
 62
7
  6
CONTINUOUS
 10
13.2230229525
 20
11.3416925112
 11
9.3593194184
 21
11.6096412614
  0
LINE
  5
335
100
AcDbEntity
  8
0
100
AcDbLine
 62
7
  6
CONTINUOUS
 10
12.4256921191
 20
5.4918190902
 11
12.3943701002
 21
5.4763466126
  0
ARC
  5
336
100
AcDbEntity
  8
0
100
AcDbCircle
 62
7
  6
CONTINUOUS
 10
11.8573024354
 20
8.5635148481
 40
2.4759824616
100
AcDbArc
 50
273.460253038
 51
274.4740090323
  0
ARC
  5
337
100
AcDbEntity
  8
0
100
AcDbCircle
 62
7
  6
CONTINUOUS
 10
11.8573024354
 20
7.8932466759
 40
2.4759824616
100
AcDbArc
 50
273.460253038
 51
274.4740090323
  0
ARC
  5
338
100
AcDbEntity
  8
0
100
AcDbCircle
 62
7
  6
CONTINUOUS
 10
11.8750377591
 20
8.3502263162
 40
2.2619606214
100
AcDbArc
 50
274.447581771
 51
276.8642058763
  0
ARC
  5
339
100
AcDbEntity
  8
0
100
AcDbCircle
 62
7
  6
CONTINUOUS
 10
11.6151590737
 20
7.1883176153
 40
1.0819211298
100
AcDbArc
 50
254.6141230724
 51
256.3642747627
  0
ARC
  5
33A
100
AcDbEntity
  8
0
100
AcDbCircle
 62
7
  6
CONTINUOUS
 10
11.6151590737
 20
6.518049443
 40
1.0819211298
100
AcDbArc
 50
254.6141230724
 51
256.3642747627
  0
ARC
  5
33B
100
AcDbEntity
  8
0
100
AcDbCircle
 62
7
  6
CONTINUOUS
 10
12.0472825527
 20
6.2562632949
 40
0.8529760664
100
AcDbArc
 50
293.9893580621
 51
296.3103566126
  0
ARC
  5
33C
100
AcDbEntity
  8
0
100
AcDbCircle
 62
7
  6
CONTINUOUS
 10
12.4347981966
 20
5.6516340374
 40
0.137131922
100
AcDbArc
 50
310.4805308012
 51
313.9817446454
  0
LINE
  5
33D
100
AcDbEntity
  8
0
100
AcDbLine
 62
7
  6
CONTINUOUS
 10
12.535532981
 20
5.5586389992
 11
12.5300265995
 21
5.5529592418
  0
SPLINE
  5
33E
100
AcDbEntity
  8
0
100
AcDbSpline
 62
7
  6
CONTINUOUS
 70
0
 71
3
 72
9
 73
5
 74
0
 42
0.0000001
 43
0.0000001
 44
0.0000000001
 40
0.0
 40
0.0
 40
0.0
 40
0.0
 40
0.518682247
 40
1.0
 40
1.0
 40
1.0
 40
1.0
 10
11.3281054197
 20
6.1451716375
 30
0.0
 10
11.316897754
 20
6.1482637037
 30
0.0
 10
11.2953928397
 20
6.154608199
 30
0.0
 10
11.274170842
 20
6.1618525079
 30
0.0
 10
11.2640534415
 20
6.1655991536
 30
0.0
  0
SPLINE
  5
33F
100
AcDbEntity
  8
0
100
AcDbSpline
 62
7
  6
CONTINUOUS
 70
0
 71
3
 72
9
 73
5
 74
0
 42
0.0000001
 43
0.0000001
 44
0.0000000001
 40
0.0
 40
0.0
 40
0.0
 40
0.0
 40
0.5046586347
 40
1.0
 40
1.0
 40
1.0
 40
1.0
 10
12.5238228174
 20
5.5473278492
 30
0.0
 10
12.5077250751
 20
5.5371675546
 30
0.0
 10
12.4753982731
 20
5.5177021675
 30
0.0
 10
12.4421004152
 20
5.4999285462
 30
0.0
 10
12.4253498896
 20
5.4916501517
 30
0.0
  0
SPLINE
  5
340
100
AcDbEntity
  8
0
100
AcDbSpline
 62
7
  6
CONTINUOUS
 70
0
 71
3
 72
21
 73
17
 74
0
 42
0.0000001
 43
0.0000001
 44
0.0000000001
 40
0.0
 40
0.0
 40
0.0
 40
0.0
 40
0.0657553467
 40
0.1321662899
 40
0.2659621551
 40
0.3995159223
 40
0.465614643
 40
0.5309502794
 40
0.5952940513
 40
0.6584222057
 40
0.7201168181
 40
0.7801667949
 40
0.8383677172
 40
0.8945262406
 40
0.948465955
 40
1.0
 40
1.0
 40
1.0
 40
1.0
 10
12.006743089
 20
6.092046329
 30
0.0
 10
11.9925150291
 20
6.091184538
 30
0.0
 10
11.9639019011
 20
6.0896926901
 30
0.0
 10
11.9062827894
 20
6.0876298354
 30
0.0
 10
11.833923633
 20
6.0867838953
 30
0.0
 10
11.7616415279
 20
6.088224131
 30
0.0
 10
11.7042526072
 20
6.0907629935
 30
0.0
 10
11.6618888712
 20
6.0933378173
 30
0.0
 10
11.6202168415
 20
6.0965799806
 30
0.0
 10
11.5793935923
 20
6.1004768902
 30
0.0
 10
11.5395730307
 20
6.1050138074
 30
0.0
 10
11.5009054963
 20
6.1101736511
 30
0.0
 10
11.4635367868
 20
6.1159362115
 30
0.0
 10
11.4276062614
 20
6.1222801022
 30
0.0
 10
11.3932513766
 20
6.129181046
 30
0.0
 10
11.3709541049
 20
6.1342554382
 30
0.0
 10
11.360098215
 20
6.1368913033
 30
0.0
  0
SPLINE
  5
341
100
AcDbEntity
  8
0
100
AcDbSpline
 62
7
  6
CONTINUOUS
 70
0
 71
3
 72
22
 73
18
 74
0
 42
0.0000001
 43
0.0000001
 44
0.0000000001
 40
0.0
 40
0.0
 40
0.0
 40
0.0
 40
0.0433496817
 40
0.0887204749
 40
0.1363684807
 40
0.186508223
 40
0.2393133424
 40
0.294902398
 40
0.3533490798
 40
0.4146723839
 40
0.4788530316
 40
0.5458283755
 40
0.6155092985
 40
0.6877791091
 40
0.7625074527
 40
0.8395533511
 40
1.0
 40
1.0
 40
1.0
 40
1.0
 10
11.277818628
 20
5.485328053
 30
0.0
 10
11.2751956526
 20
5.4866227645
 30
0.0
 10
11.2699293586
 20
5.4894837655
 30
0.0
 10
11.2621794105
 20
5.4944580601
 30
0.0
 10
11.2544190961
 20
5.500222416
 30
0.0
 10
11.2466535602
 20
5.5067857615
 30
0.0
 10
11.2388889604
 20
5.5141518307
 30
0.0
 10
11.2311293648
 20
5.5223146128
 30
0.0
 10
11.223381119
 20
5.53126265
 30
0.0
 10
11.2156476919
 20
5.5409755686
 30
0.0
 10
11.2079347328
 20
5.5514285078
 30
0.0
 10
11.2002449535
 20
5.5625899582
 30
0.0
 10
11.1925826586
 20
5.5744256432
 30
0.0
 10
11.1849496855
 20
5.5868975249
 30
0.0
 10
11.1773485409
 20
5.5999668361
 30
0.0
 10
11.167119204
 20
5.6183856802
 30
0.0
 10
11.159711821
 20
5.6326002687
 30
0.0
 10
11.1548373152
 20
5.6422673162
 30
0.0
  0
SPLINE
  5
342
100
AcDbEntity
  8
0
100
AcDbSpline
 62
7
  6
CONTINUOUS
 70
0
 71
3
 72
45
 73
41
 74
0
 42
0.0000001
 43
0.0000001
 44
0.0000000001
 40
0.0
 40
0.0
 40
0.0
 40
0.0
 40
0.0099874845
 40
0.0204477797
 40
0.0313772346
 40
0.0427709417
 40
0.0546220642
 40
0.0669226974
 40
0.0928353048
 40
0.1204259654
 40
0.1495972168
 40
0.1802393364
 40
0.2122321962
 40
0.2454472552
 40
0.2797477509
 40
0.3149906372
 40
0.3510273529
 40
0.3877044296
 40
0.4248650626
 40
0.4623495452
 40
0.4999964221
 40
0.5376433582
 40
0.575127933
 40
0.6122887496
 40
0.6489660315
 40
0.6850029789
 40
0.7202462826
 40
0.7545471433
 40
0.7877626678
 40
0.8197560782
 40
0.8503986535
 40
0.8795706031
 40
0.9071618935
 40
0.9330751181
 40
0.9453761802
 40
0.9572277353
 40
0.9686216429
 40
0.9795514157
 40
0.9900121412
 40
1.0
 40
1.0
 40
1.0
 40
1.0
 10
12.3943722805
 20
5.4763477026
 30
0.0
 10
12.3910315331
 20
5.4746974486
 30
0.0
 10
12.3841348072
 20
5.4714334293
 30
0.0
 10
12.3734080948
 20
5.4667423333
 30
0.0
 10
12.3620715277
 20
5.4621478388
 30
0.0
 10
12.350138103
 20
5.4576557666
 30
0.0
 10
12.3376216063
 20
5.453270857
 30
0.0
 10
12.3198650248
 20
5.4474731613
 30
0.0
 10
12.2963016138
 20
5.4405608753
 30
0.0
 10
12.2664169583
 20
5.4329068662
 30
0.0
 10
12.2345890896
 20
5.4257926738
 30
0.0
 10
12.2009645463
 20
5.4192514336
 30
0.0
 10
12.1656978318
 20
5.4133135524
 30
0.0
 10
12.1289513813
 20
5.4080073196
 30
0.0
 10
12.0908946084
 20
5.4033572171
 30
0.0
 10
12.0517030974
 20
5.3993850177
 30
0.0
 10
12.0115577181
 20
5.3961096013
 30
0.0
 10
11.9706438457
 20
5.3935458441
 30
0.0
 10
11.9291504531
 20
5.3917059991
 30
0.0
 10
11.8872691745
 20
5.3905986803
 30
0.0
 10
11.8451934843
 20
5.3902287535
 30
0.0
 10
11.8031177557
 20
5.3905983448
 30
0.0
 10
11.7612363476
 20
5.3917054803
 30
0.0
 10
11.7197427582
 20
5.3935449239
 30
0.0
 10
11.6788286374
 20
5.3961084383
 30
0.0
 10
11.6386829222
 20
5.399383641
 30
0.0
 10
11.5994909898
 20
5.4033554386
 30
0.0
 10
11.5614337282
 20
5.4080053863
 30
0.0
 10
11.5246867192
 20
5.4133113435
 30
0.0
 10
11.4894193915
 20
5.4192488989
 30
0.0
 10
11.4557941834
 20
5.4257900471
 30
0.0
 10
11.4239655563
 20
5.4329038913
 30
0.0
 10
11.3940801039
 20
5.4405577208
 30
0.0
 10
11.3705160145
 20
5.4474699123
 30
0.0
 10
11.3527588096
 20
5.4532674714
 30
0.0
 10
11.3402418259
 20
5.4576521924
 30
0.0
 10
11.3283080329
 20
5.4621442941
 30
0.0
 10
11.3169710197
 20
5.4667386238
 30
0.0
 10
11.3062437584
 20
5.4714295125
 30
0.0
 10
11.2993467137
 20
5.4746935644
 30
0.0
 10
11.2960058288
 20
5.4763438553
 30
0.0
  0
SPLINE
  5
343
100
AcDbEntity
  8
0
100
AcDbSpline
 62
7
  6
CONTINUOUS
 70
0
 71
3
 72
21
 73
17
 74
0
 42
0.0000001
 43
0.0000001
 44
0.0000000001
 40
0.0
 40
0.0
 40
0.0
 40
0.0
 40
0.1229777811
 40
0.1846429776
 40
0.2464399426
 40
0.3083804861
 40
0.3704752478
 40
0.4327329846
 40
0.4951582956
 40
0.5577522644
 40
0.6205120304
 40
0.6834304833
 40
0.7464981609
 40
0.8097030992
 40
0.8730318006
 40
1.0
 40
1.0
 40
1.0
 40
1.0
 10
12.006743089
 20
5.4217781568
 30
0.0
 10
11.9803576264
 20
5.4164159913
 30
0.0
 10
11.9405269503
 20
5.4093489723
 30
0.0
 10
11.8870254734
 20
5.4023099815
 30
0.0
 10
11.8466219316
 20
5.3983193637
 30
0.0
 10
11.8060099859
 20
5.3957249491
 30
0.0
 10
11.7652284738
 20
5.3946146801
 30
0.0
 10
11.7243275115
 20
5.3950583841
 30
0.0
 10
11.683365307
 20
5.3970980495
 30
0.0
 10
11.6424044749
 20
5.4007440714
 30
0.0
 10
11.6015075997
 20
5.4059769908
 30
0.0
 10
11.5607324385
 20
5.4127464518
 30
0.0
 10
11.5201282822
 20
5.4209756042
 30
0.0
 10
11.4797334657
 20
5.4305710418
 30
0.0
 10
11.4261486918
 20
5.4450567009
 30
0.0
 10
11.3864015852
 20
5.457629359
 30
0.0
 10
11.360098215
 20
5.4666231311
 30
0.0
  0
SPLINE
  5
344
100
AcDbEntity
  8
0
100
AcDbSpline
 62
7
  6
CONTINUOUS
 70
0
 71
3
 72
11
 73
7
 74
0
 42
0.0000001
 43
0.0000001
 44
0.0000000001
 40
0.0
 40
0.0
 40
0.0
 40
0.0
 40
0.2458763181
 40
0.4934036376
 40
0.7441674805
 40
1.0
 40
1.0
 40
1.0
 40
1.0
 10
11.3281054197
 20
5.4749034653
 30
0.0
 10
11.3254837261
 20
5.4747688759
 30
0.0
 10
11.3202108198
 20
5.4746872525
 30
0.0
 10
11.3122724283
 20
5.475173207
 30
0.0
 10
11.3042930335
 20
5.4763119738
 30
0.0
 10
11.2990134211
 20
5.4775211189
 30
0.0
 10
11.296378658
 20
5.4782414083
 30
0.0
  0
SPLINE
  5
345
100
AcDbEntity
  8
0
100
AcDbSpline
 62
7
  6
CONTINUOUS
 70
0
 71
3
 72
9
 73
5
 74
0
 42
0.0000001
 43
0.0000001
 44
0.0000000001
 40
0.0
 40
0.0
 40
0.0
 40
0.0
 40
0.489721828
 40
1.0
 40
1.0
 40
1.0
 40
1.0
 10
11.296378658
 20
5.4782414083
 30
0.0
 10
11.2932467476
 20
5.4790976074
 30
0.0
 10
11.2869347784
 20
5.4811645841
 30
0.0
 10
11.2808523066
 20
5.4838306167
 30
0.0
 10
11.277818628
 20
5.485328053
 30
0.0
  0
LINE
  5
346
100
AcDbEntity
  8
0
100
AcDbLine
 62
7
  6
CONTINUOUS
 10
12.3940744364
 20
5.4769664584
 11
12.3932010958
 21
5.4765790578
  0
SPLINE
  5
347
100
AcDbEntity
  8
0
100
AcDbSpline
 62
7
  6
CONTINUOUS
 70
0
 71
3
 72
15
 73
11
 74
0
 42
0.0000001
 43
0.0000001
 44
0.0000000001
 40
0.0
 40
0.0
 40
0.0
 40
0.0
 40
0.1323376899
 40
0.2620788828
 40
0.389339691
 40
0.5143818274
 40
0.6375722641
 40
0.7593203908
 40
0.880018331
 40
1.0
 40
1.0
 40
1.0
 40
1.0
 10
12.3932010958
 20
5.4765790578
 30
0.0
 10
12.3790430667
 20
5.4703089294
 30
0.0
 10
12.3506334324
 20
5.4587050835
 30
0.0
 10
12.3073861914
 20
5.4442792692
 30
0.0
 10
12.2640455032
 20
5.433171639
 30
0.0
 10
12.2207587336
 20
5.4254216549
 30
0.0
 10
12.1776650519
 20
5.4209279006
 30
0.0
 10
12.1348755802
 20
5.4194710574
 30
0.0
 10
12.0924633568
 20
5.420755029
 30
0.0
 10
12.064395043
 20
5.4232254156
 30
0.0
 10
12.0504460479
 20
5.4248089726
 30
0.0
  0
SPLINE
  5
348
100
AcDbEntity
  8
0
100
AcDbSpline
 62
7
  6
CONTINUOUS
 70
0
 71
3
 72
21
 73
17
 74
0
 42
0.0000001
 43
0.0000001
 44
0.0000000001
 40
0.0
 40
0.0
 40
0.0
 40
0.0
 40
0.132148599
 40
0.2658325108
 40
0.3326809035
 40
0.3992270385
 40
0.4652432816
 40
0.530504688
 40
0.5947891673
 40
0.6578796301
 40
0.7195639398
 40
0.7796368012
 40
0.8379006822
 40
0.8941662584
 40
0.9482553592
 40
1.0
 40
1.0
 40
1.0
 40
1.0
 10
12.0175486692
 20
6.1132823831
 30
0.0
 10
11.986517974
 20
6.1114614637
 30
0.0
 10
11.9240315946
 20
6.1088307765
 30
0.0
 10
11.8457693671
 20
6.1080014786
 30
0.0
 10
11.7829499973
 20
6.1088087474
 30
0.0
 10
11.7360616272
 20
6.1101505705
 30
0.0
 10
11.6895736045
 20
6.1122236255
 30
0.0
 10
11.643656337
 20
6.1150198778
 30
0.0
 10
11.5984782432
 20
6.1185295733
 30
0.0
 10
11.5542049811
 20
6.1227391084
 30
0.0
 10
11.5109988657
 20
6.1276333593
 30
0.0
 10
11.4690182106
 20
6.1331940078
 30
0.0
 10
11.4284168543
 20
6.1394002986
 30
0.0
 10
11.3893433371
 20
6.1462297125
 30
0.0
 10
11.3519409907
 20
6.15365611
 30
0.0
 10
11.327648795
 20
6.1591136079
 30
0.0
 10
11.3158120114
 20
6.1619479856
 30
0.0
  0
SPLINE
  5
349
100
AcDbEntity
  8
0
100
AcDbSpline
 62
7
  6
CONTINUOUS
 70
0
 71
3
 72
90
 73
86
 74
0
 42
0.0000001
 43
0.0000001
 44
0.0000000001
 40
0.0
 40
0.0
 40
0.0
 40
0.0
 40
0.0039801841
 40
0.0081241159
 40
0.0124359656
 40
0.0169193153
 40
0.0215771898
 40
0.0264119289
 40
0.0314251936
 40
0.0366181713
 40
0.0419915567
 40
0.0475456772
 40
0.0532804457
 40
0.0591954437
 40
0.0652899501
 40
0.0715629317
 40
0.0846386004
 40
0.098409911
 40
0.1128604817
 40
0.1279710074
 40
0.1437195982
 40
0.1600820565
 40
0.1770321086
 40
0.194541602
 40
0.2125806763
 40
0.2311179203
 40
0.2501205135
 40
0.2695543567
 40
0.2893841934
 40
0.3095737255
 40
0.3300857245
 40
0.3508821382
 40
0.3719241976
 40
0.3931725218
 40
0.4145872201
 40
0.4361279928
 40
0.4577542316
 40
0.4794251191
 40
0.5010997291
 40
0.5227371263
 40
0.5442964667
 40
0.5657370967
 40
0.5870186529
 40
0.608101162
 40
0.6289451422
 40
0.6495117057
 40
0.6697626638
 40
0.6896606308
 40
0.7091691309
 40
0.728252709
 40
0.7468770455
 40
0.7650090769
 40
0.7826171262
 40
0.7996710429
 40
0.8161423523
 40
0.8320044245
 40
0.8472326669
 40
0.8618047498
 40
0.8757008734
 40
0.8889040964
 40
0.8952416854
 40
0.9014012239
 40
0.9073816029
 40
0.9131819719
 40
0.9188018178
 40
0.9242409106
 40
0.9294994338
 40
0.9345779311
 40
0.9394774185
 40
0.9441994036
 40
0.9487459354
 40
0.9531197203
 40
0.9573241226
 40
0.9613633439
 40
0.9652424353
 40
0.9689674716
 40
0.9725456352
 40
0.9759853336
 40
0.9824864943
 40
0.9855753483
 40
0.9885738142
 40
0.9914977336
 40
0.9943643342
 40
0.9971920087
 40
1.0
 40
1.0
 40
1.0
 40
1.0
 10
10.9101688928
 20
11.2006469102
 30
0.0
 10
10.9086200902
 20
11.1991508816
 30
0.0
 10
10.9053884313
 20
11.1961694055
 30
0.0
 10
10.9002575507
 20
11.1918147351
 30
0.0
 10
10.8947498906
 20
11.1874913012
 30
0.0
 10
10.8888684723
 20
11.1832013996
 30
0.0
 10
10.8826161632
 20
11.1789470335
 30
0.0
 10
10.8759960268
 20
11.174730273
 30
0.0
 10
10.8690113742
 20
11.1705531396
 30
0.0
 10
10.8616656708
 20
11.1664178011
 30
0.0
 10
10.8539626261
 20
11.1623262424
 30
0.0
 10
10.8459060693
 20
11.158280569
 30
0.0
 10
10.8375000511
 20
11.1542827684
 30
0.0
 10
10.8287487902
 20
11.1503348696
 30
0.0
 10
10.8196566696
 20
11.1464388511
 30
0.0
 10
10.8069087195
 20
11.1412440206
 30
0.0
 10
10.7901440936
 20
11.1349084204
 30
0.0
 10
10.7690120904
 20
11.1276445676
 30
0.0
 10
10.7466388293
 20
11.1206329266
 30
0.0
 10
10.7230694223
 20
11.1138877493
 30
0.0
 10
10.6983511869
 20
11.1074227635
 30
0.0
 10
10.6725339158
 20
11.101251136
 30
0.0
 10
10.6456696521
 20
11.0953854396
 30
0.0
 10
10.617812606
 20
11.0898376259
 30
0.0
 10
10.5890190297
 20
11.0846189937
 30
0.0
 10
10.5593470973
 20
11.0797401695
 30
0.0
 10
10.5288567795
 20
11.0752110861
 30
0.0
 10
10.4976097176
 20
11.0710409627
 30
0.0
 10
10.4656690964
 20
11.0672382864
 30
0.0
 10
10.4330995141
 20
11.0638107954
 30
0.0
 10
10.3999668511
 20
11.0607654645
 30
0.0
 10
10.3663381354
 20
11.0581084868
 30
0.0
 10
10.3322814051
 20
11.0558452642
 30
0.0
 10
10.297865568
 20
11.0539803979
 30
0.0
 10
10.263160261
 20
11.0525176793
 30
0.0
 10
10.2282357093
 20
11.0514600826
 30
0.0
 10
10.1931625835
 20
11.0508097584
 30
0.0
 10
10.158011857
 20
11.0505680309
 30
0.0
 10
10.1228546612
 20
11.0507353911
 30
0.0
 10
10.0877621404
 20
11.051311497
 30
0.0
 10
10.0528053069
 20
11.0522951767
 30
0.0
 10
10.0180548969
 20
11.0536844301
 30
0.0
 10
9.9835812275
 20
11.0554764332
 30
0.0
 10
9.9494540541
 20
11.0576675435
 30
0.0
 10
9.9157424283
 20
11.0602533074
 30
0.0
 10
9.8825145561
 20
11.0632284668
 30
0.0
 10
9.8498376577
 20
11.0665869684
 30
0.0
 10
9.8177778314
 20
11.0703219795
 30
0.0
 10
9.786399919
 20
11.0744259004
 30
0.0
 10
9.7557673731
 20
11.0788903796
 30
0.0
 10
9.725942127
 20
11.0837063303
 30
0.0
 10
9.6969844657
 20
11.0888639491
 30
0.0
 10
9.6689528979
 20
11.0943527336
 30
0.0
 10
9.6419040311
 20
11.100161502
 30
0.0
 10
9.6158924546
 20
11.1062784205
 30
0.0
 10
9.5909706142
 20
11.1126910279
 30
0.0
 10
9.5671887258
 20
11.1193862635
 30
0.0
 10
9.5445945551
 20
11.1263505001
 30
0.0
 10
9.5232336701
 20
11.1335695761
 30
0.0
 10
9.5062723148
 20
11.1398685858
 30
0.0
 10
9.4933629747
 20
11.1450353228
 30
0.0
 10
9.4841480352
 20
11.1489119984
 30
0.0
 10
9.4752723036
 20
11.1528412393
 30
0.0
 10
9.4667402438
 20
11.1568211402
 30
0.0
 10
9.4585561243
 20
11.1608496253
 30
0.0
 10
9.450724074
 20
11.1649247475
 30
0.0
 10
9.4432479916
 20
11.1690443951
 30
0.0
 10
9.436131634
 20
11.1732065632
 30
0.0
 10
9.4293785466
 20
11.1774091613
 30
0.0
 10
9.4229920871
 20
11.1816501004
 30
0.0
 10
9.4169754593
 20
11.1859273451
 30
0.0
 10
9.4113316136
 20
11.1902387414
 30
0.0
 10
9.4060634071
 20
11.1945823013
 30
0.0
 10
9.4011734199
 20
11.1989558647
 30
0.0
 10
9.3966641179
 20
11.2033574833
 30
0.0
 10
9.392537866
 20
11.2077849403
 30
0.0
 10
9.3887964455
 20
11.2122367441
 30
0.0
 10
9.384407406
 20
11.2180903527
 30
0.0
 10
9.3806803968
 20
11.2241017404
 30
0.0
 10
9.3777213136
 20
11.2302414863
 30
0.0
 10
9.3759334487
 20
11.2347822865
 30
0.0
 10
9.3745411732
 20
11.2393341354
 30
0.0
 10
9.3735456286
 20
11.2438948217
 30
0.0
 10
9.3729479152
 20
11.2484610942
 30
0.0
 10
9.3728148517
 20
11.251511722
 30
0.0
 10
9.3728148519
 20
11.2530308908
 30
0.0
  0
SPLINE
  5
34A
100
AcDbEntity
  8
0
100
AcDbSpline
 62
7
  6
CONTINUOUS
 70
0
 71
3
 72
19
 73
15
 74
0
 42
0.0000001
 43
0.0000001
 44
0.0000000001
 40
0.0
 40
0.0
 40
0.0
 40
0.0
 40
0.12732766
 40
0.2538196711
 40
0.3795264658
 40
0.5045235362
 40
0.5668075958
 40
0.6289556124
 40
0.6909843715
 40
0.7529118454
 40
0.8147570127
 40
0.8765397119
 40
0.9382804145
 40
1.0
 40
1.0
 40
1.0
 40
1.0
 10
10.4219488272
 20
6.586396036
 30
0.0
 10
10.4219488272
 20
6.5801440401
 30
0.0
 10
10.4213518992
 20
6.5676724799
 30
0.0
 10
10.418652219
 20
6.5492047629
 30
0.0
 10
10.4141761725
 20
6.5312019437
 30
0.0
 10
10.4089910369
 20
6.5167050004
 30
0.0
 10
10.4040043558
 20
6.5055140711
 30
0.0
 10
10.399857584
 20
6.4973468626
 30
0.0
 10
10.3953098851
 20
6.4894163359
 30
0.0
 10
10.3903716096
 20
6.4817405204
 30
0.0
 10
10.385054151
 20
6.4743372369
 30
0.0
 10
10.3793697636
 20
6.4672234398
 30
0.0
 10
10.3733317365
 20
6.4604157992
 30
0.0
 10
10.3690790927
 20
6.4560911639
 30
0.0
 10
10.3668993679
 20
6.4539857123
 30
0.0
  0
SPLINE
  5
34B
100
AcDbEntity
  8
0
100
AcDbSpline
 62
7
  6
CONTINUOUS
 70
0
 71
3
 72
19
 73
15
 74
0
 42
0.0000001
 43
0.0000001
 44
0.0000000001
 40
0.0
 40
0.0
 40
0.0
 40
0.0
 40
0.12732766
 40
0.2538196711
 40
0.3795264658
 40
0.5045235362
 40
0.5668075958
 40
0.6289556124
 40
0.6909843715
 40
0.7529118454
 40
0.8147570127
 40
0.8765397119
 40
0.9382804145
 40
1.0
 40
1.0
 40
1.0
 40
1.0
 10
11.3878747107
 20
10.503853118
 30
0.0
 10
11.3878747107
 20
10.4976011221
 30
0.0
 10
11.3872777827
 20
10.4851295619
 30
0.0
 10
11.3845781025
 20
10.4666618449
 30
0.0
 10
11.380102056
 20
10.4486590256
 30
0.0
 10
11.3749169204
 20
10.4341620824
 30
0.0
 10
11.3699302393
 20
10.4229711531
 30
0.0
 10
11.3657834675
 20
10.4148039446
 30
0.0
 10
11.3612357686
 20
10.4068734179
 30
0.0
 10
11.3562974931
 20
10.3991976024
 30
0.0
 10
11.3509800345
 20
10.3917943189
 30
0.0
 10
11.3452956471
 20
10.3846805218
 30
0.0
 10
11.33925762
 20
10.3778728812
 30
0.0
 10
11.3350049762
 20
10.3735482459
 30
0.0
 10
11.3328252515
 20
10.3714427943
 30
0.0
  0
SPLINE
  5
34C
100
AcDbEntity
  8
0
100
AcDbSpline
 62
7
  6
CONTINUOUS
 70
0
 71
3
 72
33
 73
29
 74
0
 42
0.0000001
 43
0.0000001
 44
0.0000000001
 40
0.0
 40
0.0
 40
0.0
 40
0.0
 40
0.0623247869
 40
0.0938764388
 40
0.1256075815
 40
0.1893716783
 40
0.2532423862
 40
0.3169206061
 40
0.3802161285
 40
0.4430415181
 40
0.4742859262
 40
0.5054183057
 40
0.5364486688
 40
0.5673898675
 40
0.5982569681
 40
0.6290667137
 40
0.6598368646
 40
0.6905855157
 40
0.72133048
 40
0.7520886512
 40
0.7828754581
 40
0.8137043876
 40
0.844586553
 40
0.8755304397
 40
0.9065418726
 40
0.9376239085
 40
0.9687771504
 40
1.0
 40
1.0
 40
1.0
 40
1.0
 10
9.8336681797
 20
8.3767900926
 30
0.0
 10
9.8336681797
 20
8.3688312284
 30
0.0
 10
9.8342827194
 20
8.3568329443
 30
0.0
 10
9.8362688648
 20
8.3409120642
 30
0.0
 10
9.8390516486
 20
8.3249228367
 30
0.0
 10
9.8439763261
 20
8.3051424381
 30
0.0
 10
9.8521076784
 20
8.2820666175
 30
0.0
 10
9.8623851156
 20
8.2599262497
 30
0.0
 10
9.8747169309
 20
8.2390152158
 30
0.0
 10
9.8866569562
 20
8.2228018076
 30
0.0
 10
9.8971406209
 20
8.2107217875
 30
0.0
 10
9.9054422855
 20
8.2021479042
 30
0.0
 10
9.914180933
 20
8.1940768633
 30
0.0
 10
9.9233403869
 20
8.1865393689
 30
0.0
 10
9.9329020059
 20
8.1795663158
 30
0.0
 10
9.9428446325
 20
8.1731880419
 30
0.0
 10
9.9531441125
 20
8.1674340892
 30
0.0
 10
9.9637730179
 20
8.1623326988
 30
0.0
 10
9.9747004243
 20
8.1579102062
 30
0.0
 10
9.9858918706
 20
8.154190387
 30
0.0
 10
9.9973094889
 20
8.1511938186
 30
0.0
 10
10.0089122961
 20
8.1489372573
 30
0.0
 10
10.0206566438
 20
8.1474330943
 30
0.0
 10
10.0324968449
 20
8.1466889729
 30
0.0
 10
10.0443858015
 20
8.1467075455
 30
0.0
 10
10.0562760215
 20
8.1474864819
 30
0.0
 10
10.0681194289
 20
8.1490184781
 30
0.0
 10
10.0759457369
 20
8.1505327503
 30
0.0
 10
10.0798351136
 20
8.151410322
 30
0.0
  0
SPLINE
  5
34D
100
AcDbEntity
  8
0
100
AcDbSpline
 62
7
  6
CONTINUOUS
 70
0
 71
3
 72
19
 73
15
 74
0
 42
0.0000001
 43
0.0000001
 44
0.0000000001
 40
0.0
 40
0.0
 40
0.0
 40
0.0
 40
0.1273276594
 40
0.2538196703
 40
0.3795264652
 40
0.5045235359
 40
0.5668075957
 40
0.6289556126
 40
0.6909843719
 40
0.7529118459
 40
0.8147570133
 40
0.8765397124
 40
0.9382804148
 40
1.0
 40
1.0
 40
1.0
 40
1.0
 10
10.0853125273
 20
8.1978598813
 30
0.0
 10
10.0853125273
 20
8.1913615049
 30
0.0
 10
10.0846920757
 20
8.1783984615
 30
0.0
 10
10.0818860072
 20
8.1592029629
 30
0.0
 10
10.0772335698
 20
8.1404906823
 30
0.0
 10
10.0718440996
 20
8.1254224379
 30
0.0
 10
10.0666609045
 20
8.1137904918
 30
0.0
 10
10.0623507177
 20
8.1053014262
 30
0.0
 10
10.057623804
 20
8.0970583695
 30
0.0
 10
10.0524909219
 20
8.0890800614
 30
0.0
 10
10.0469639139
 20
8.081385025
 30
0.0
 10
10.0410555171
 20
8.073990883
 30
0.0
 10
10.0347795445
 20
8.0669149623
 30
0.0
 10
10.0303593131
 20
8.0624198985
 30
0.0
 10
10.0280936901
 20
8.0602314736
 30
0.0
  0
SPLINE
  5
34E
100
AcDbEntity
  8
0
100
AcDbSpline
 62
7
  6
CONTINUOUS
 70
0
 71
3
 72
42
 73
38
 74
0
 42
0.0000001
 43
0.0000001
 44
0.0000000001
 40
0.0
 40
0.0
 40
0.0
 40
0.0
 40
0.0310747056
 40
0.0466742377
 40
0.0623121031
 40
0.0936967548
 40
0.1252253866
 40
0.1568866096
 40
0.188666234
 40
0.220547657
 40
0.2525122025
 40
0.2845395218
 40
0.3166080091
 40
0.3486952389
 40
0.3807784134
 40
0.4128348152
 40
0.4448422591
 40
0.4767795367
 40
0.5086268466
 40
0.5403662047
 40
0.5719818277
 40
0.6034604811
 40
0.6347917865
 40
0.6659684788
 40
0.6969866066
 40
0.7278456677
 40
0.7585486729
 40
0.7891021331
 40
0.8195159634
 40
0.8498033031
 40
0.8649073458
 40
0.8799860274
 40
0.9100712977
 40
0.9400857963
 40
0.9550764681
 40
0.9700580355
 40
1.0
 40
1.0
 40
1.0
 40
1.0
 10
10.0853125273
 20
8.1978598813
 30
0.0
 10
10.0853125273
 20
8.2029107282
 30
0.0
 10
10.0850301933
 20
8.2105009177
 30
0.0
 10
10.0840977595
 20
8.2205876343
 30
0.0
 10
10.0827912366
 20
8.2306840145
 30
0.0
 10
10.080462188
 20
8.2432496931
 30
0.0
 10
10.076577357
 20
8.2581360296
 30
0.0
 10
10.0716203906
 20
8.2727685172
 30
0.0
 10
10.0656186806
 20
8.2870663518
 30
0.0
 10
10.0586052674
 20
8.3009512013
 30
0.0
 10
10.0506187361
 20
8.3143468409
 30
0.0
 10
10.0417029869
 20
8.3271797787
 30
0.0
 10
10.0319069989
 20
8.3393795967
 30
0.0
 10
10.0212845633
 20
8.3508793482
 30
0.0
 10
10.0098939899
 20
8.3616159169
 30
0.0
 10
9.9977977907
 20
8.3715303611
 30
0.0
 10
9.9850623405
 20
8.3805682335
 30
0.0
 10
9.9717575164
 20
8.3886798779
 30
0.0
 10
9.9579563191
 20
8.3958206998
 30
0.0
 10
9.9437344778
 20
8.4019514099
 30
0.0
 10
9.9291700395
 20
8.4070382399
 30
0.0
 10
9.9143429471
 20
8.4110531284
 30
0.0
 10
9.899334607
 20
8.4139738773
 30
0.0
 10
9.8842274474
 20
8.4157842768
 30
0.0
 10
9.8691044757
 20
8.4164742018
 30
0.0
 10
9.8540488116
 20
8.4160396666
 30
0.0
 10
9.8391432957
 20
8.4144828841
 30
0.0
 10
9.8244698091
 20
8.4118121582
 30
0.0
 10
9.8101096637
 20
8.4080422393
 30
0.0
 10
9.7984570183
 20
8.403997127
 30
0.0
 10
9.7893743215
 20
8.4002353198
 30
0.0
 10
9.7804755061
 20
8.3961349001
 30
0.0
 10
9.769685626
 20
8.3903711668
 30
0.0
 10
9.7593960758
 20
8.3837818003
 30
0.0
 10
9.7515103265
 20
8.378043628
 30
0.0
 10
9.7438680139
 20
8.3720048778
 30
0.0
 10
9.7384110604
 20
8.3671380289
 30
0.0
 10
9.7349106416
 20
8.3637568822
 30
0.0
  0
SPLINE
  5
34F
100
AcDbEntity
  8
0
100
AcDbSpline
 62
7
  6
CONTINUOUS
 70
0
 71
3
 72
18
 73
14
 74
0
 42
0.0000001
 43
0.0000001
 44
0.0000000001
 40
0.0
 40
0.0
 40
0.0
 40
0.0
 40
0.0548620589
 40
0.1099280789
 40
0.165399508
 40
0.2214731255
 40
0.2783387361
 40
0.3361775086
 40
0.4554063416
 40
0.5804417492
 40
0.7123343341
 40
0.8519577333
 40
1.0
 40
1.0
 40
1.0
 40
1.0
 10
10.9368148519
 20
11.2530308908
 30
0.0
 10
10.9368148517
 20
11.2519264886
 30
0.0
 10
10.936744743
 20
11.2497129442
 30
0.0
 10
10.9364295594
 20
11.2463962289
 30
0.0
 10
10.9359044327
 20
11.2430814249
 30
0.0
 10
10.9351695362
 20
11.2397697428
 30
0.0
 10
10.9342251547
 20
11.2364620188
 30
0.0
 10
10.9326718586
 20
11.2320140166
 30
0.0
 10
10.9301835046
 20
11.2264507569
 30
0.0
 10
10.9263960747
 20
11.2198805259
 30
0.0
 10
10.9217831902
 20
11.2133528223
 30
0.0
 10
10.9163518695
 20
11.2068741977
 30
0.0
 10
10.912312393
 20
11.2027173724
 30
0.0
 10
10.9101688928
 20
11.2006469102
 30
0.0
  0
SPLINE
  5
350
100
AcDbEntity
  8
0
100
AcDbSpline
 62
7
  6
CONTINUOUS
 70
0
 71
3
 72
42
 73
38
 74
0
 42
0.0000001
 43
0.0000001
 44
0.0000000001
 40
0.0
 40
0.0
 40
0.0
 40
0.0
 40
0.0299419644
 40
0.0449235317
 40
0.0599142035
 40
0.0899287023
 40
0.1200139727
 40
0.1350926544
 40
0.1501966973
 40
0.1804840373
 40
0.210897868
 40
0.2414513286
 40
0.2721543342
 40
0.3030133956
 40
0.3340315238
 40
0.3652082165
 40
0.3965395222
 40
0.4280181758
 40
0.459633799
 40
0.4913731572
 40
0.5232204671
 40
0.5551577446
 40
0.5871651885
 40
0.6192215901
 40
0.6513047644
 40
0.683391994
 40
0.715460481
 40
0.7474877999
 40
0.7794523452
 40
0.8113337678
 40
0.8431133918
 40
0.8747746145
 40
0.906303246
 40
0.9376878974
 40
0.9533257627
 40
0.9689252947
 40
1.0
 40
1.0
 40
1.0
 40
1.0
 10
10.0848323777
 20
6.7460031579
 30
0.0
 10
10.08820008
 20
6.7492561073
 30
0.0
 10
10.0934501359
 20
6.753938428
 30
0.0
 10
10.1008026938
 20
6.7597482168
 30
0.0
 10
10.1083894585
 20
6.7652688239
 30
0.0
 10
10.1182888844
 20
6.7716083516
 30
0.0
 10
10.1286696701
 20
6.7771535497
 30
0.0
 10
10.1372310898
 20
6.7810984994
 30
0.0
 10
10.1459694189
 20
6.7847176749
 30
0.0
 10
10.1571802575
 20
6.7886094134
 30
0.0
 10
10.1709959415
 20
6.7922363917
 30
0.0
 10
10.185113086
 20
6.7948058529
 30
0.0
 10
10.1994534621
 20
6.7963036057
 30
0.0
 10
10.2139382932
 20
6.7967216613
 30
0.0
 10
10.2284878796
 20
6.7960578907
 30
0.0
 10
10.2430222532
 20
6.7943161283
 30
0.0
 10
10.2574615537
 20
6.7915061156
 30
0.0
 10
10.2717264783
 20
6.7876434477
 30
0.0
 10
10.285738707
 20
6.782749481
 30
0.0
 10
10.2994213282
 20
6.776851213
 30
0.0
 10
10.3126992537
 20
6.7699811318
 30
0.0
 10
10.325499626
 20
6.762177037
 30
0.0
 10
10.337752212
 20
6.7534818322
 30
0.0
 10
10.3493897841
 20
6.743943291
 30
0.0
 10
10.3603484841
 20
6.7336137962
 30
0.0
 10
10.3705681701
 20
6.7225500549
 30
0.0
 10
10.3799927432
 20
6.7108127902
 30
0.0
 10
10.3885704518
 20
6.6984664106
 30
0.0
 10
10.3962541736
 20
6.6855786642
 30
0.0
 10
10.4030016732
 20
6.6722202563
 30
0.0
 10
10.4087758282
 20
6.6584645218
 30
0.0
 10
10.4135448511
 20
6.6443868227
 30
0.0
 10
10.4172823886
 20
6.6300648994
 30
0.0
 10
10.4195231313
 20
6.6179756468
 30
0.0
 10
10.4207801173
 20
6.6082620694
 30
0.0
 10
10.4216771979
 20
6.5985577892
 30
0.0
 10
10.4219488272
 20
6.5912553807
 30
0.0
 10
10.4219488272
 20
6.586396036
 30
0.0
  0
SPLINE
  5
351
100
AcDbEntity
  8
0
100
AcDbSpline
 62
7
  6
CONTINUOUS
 70
0
 71
3
 72
42
 73
38
 74
0
 42
0.0000001
 43
0.0000001
 44
0.0000000001
 40
0.0
 40
0.0
 40
0.0
 40
0.0
 40
0.0299419644
 40
0.0449235317
 40
0.0599142035
 40
0.0899287023
 40
0.1200139727
 40
0.1350926544
 40
0.1501966973
 40
0.1804840373
 40
0.210897868
 40
0.2414513286
 40
0.2721543342
 40
0.3030133956
 40
0.3340315238
 40
0.3652082165
 40
0.3965395222
 40
0.4280181758
 40
0.459633799
 40
0.4913731572
 40
0.5232204671
 40
0.5551577446
 40
0.5871651885
 40
0.6192215901
 40
0.6513047644
 40
0.683391994
 40
0.715460481
 40
0.7474877999
 40
0.7794523452
 40
0.8113337678
 40
0.8431133918
 40
0.8747746145
 40
0.906303246
 40
0.9376878974
 40
0.9533257627
 40
0.9689252947
 40
1.0
 40
1.0
 40
1.0
 40
1.0
 10
11.0507582612
 20
10.6634602399
 30
0.0
 10
11.0541259636
 20
10.6667131893
 30
0.0
 10
11.0593760195
 20
10.67139551
 30
0.0
 10
11.0667285774
 20
10.6772052988
 30
0.0
 10
11.074315342
 20
10.6827259059
 30
0.0
 10
11.084214768
 20
10.6890654336
 30
0.0
 10
11.0945955536
 20
10.6946106317
 30
0.0
 10
11.1031569733
 20
10.6985555814
 30
0.0
 10
11.1118953024
 20
10.7021747569
 30
0.0
 10
11.123106141
 20
10.7060664954
 30
0.0
 10
11.136921825
 20
10.7096934737
 30
0.0
 10
11.1510389695
 20
10.7122629349
 30
0.0
 10
11.1653793457
 20
10.7137606877
 30
0.0
 10
11.1798641767
 20
10.7141787433
 30
0.0
 10
11.1944137632
 20
10.7135149726
 30
0.0
 10
11.2089481368
 20
10.7117732103
 30
0.0
 10
11.2233874372
 20
10.7089631976
 30
0.0
 10
11.2376523618
 20
10.7051005297
 30
0.0
 10
11.2516645906
 20
10.700206563
 30
0.0
 10
11.2653472117
 20
10.694308295
 30
0.0
 10
11.2786251373
 20
10.6874382138
 30
0.0
 10
11.2914255095
 20
10.679634119
 30
0.0
 10
11.3036780956
 20
10.6709389142
 30
0.0
 10
11.3153156676
 20
10.661400373
 30
0.0
 10
11.3262743676
 20
10.6510708782
 30
0.0
 10
11.3364940537
 20
10.6400071369
 30
0.0
 10
11.3459186267
 20
10.6282698722
 30
0.0
 10
11.3544963353
 20
10.6159234926
 30
0.0
 10
11.3621800572
 20
10.6030357462
 30
0.0
 10
11.3689275567
 20
10.5896773383
 30
0.0
 10
11.3747017117
 20
10.5759216038
 30
0.0
 10
11.3794707346
 20
10.5618439046
 30
0.0
 10
11.3832082722
 20
10.5475219814
 30
0.0
 10
11.3854490148
 20
10.5354327288
 30
0.0
 10
11.3867060008
 20
10.5257191513
 30
0.0
 10
11.3876030814
 20
10.5160148712
 30
0.0
 10
11.3878747107
 20
10.5087124627
 30
0.0
 10
11.3878747107
 20
10.503853118
 30
0.0
  0
SPLINE
  5
352
100
AcDbEntity
  8
0
100
AcDbSpline
 62
7
  6
CONTINUOUS
 70
0
 71
3
 72
9
 73
5
 74
0
 42
0.0000001
 43
0.0000001
 44
0.0000000001
 40
0.0
 40
0.0
 40
0.0
 40
0.0
 40
0.4946639253
 40
1.0
 40
1.0
 40
1.0
 40
1.0
 10
9.8367534652
 20
8.413839572
 30
0.0
 10
9.835717284
 20
8.4077920294
 30
0.0
 10
9.8341687598
 20
8.3954675736
 30
0.0
 10
9.8336681797
 20
8.3830581366
 30
0.0
 10
9.8336681797
 20
8.3767900926
 30
0.0
  0
SPLINE
  5
353
100
AcDbEntity
  8
0
100
AcDbSpline
 62
7
  6
CONTINUOUS
 70
0
 71
3
 72
72
 73
68
 74
0
 42
0.0000001
 43
0.0000001
 44
0.0000000001
 40
0.0
 40
0.0
 40
0.0
 40
0.0
 40
0.0036899239
 40
0.0075220766
 40
0.0114999308
 40
0.0156264013
 40
0.0199038238
 40
0.0243340752
 40
0.0289186207
 40
0.033658496
 40
0.0436062568
 40
0.0541801511
 40
0.0653781142
 40
0.0771945967
 40
0.0896210566
 40
0.1026463721
 40
0.116257178
 40
0.1304381181
 40
0.1451720317
 40
0.1604401356
 40
0.1762221882
 40
0.192496614
 40
0.2092405972
 40
0.2264301875
 40
0.2440404074
 40
0.2620453339
 40
0.280418163
 40
0.2991312895
 40
0.3181563915
 40
0.3374644976
 40
0.3768103457
 40
0.4169271249
 40
0.4575662749
 40
0.4984750609
 40
0.5393986156
 40
0.5800819565
 40
0.6202719962
 40
0.6597195905
 40
0.6790889969
 40
0.6981821953
 40
0.7169700699
 40
0.7354241362
 40
0.7535166165
 40
0.7712205242
 40
0.7885097233
 40
0.8053590022
 40
0.8217441645
 40
0.837642135
 40
0.8530310393
 40
0.8678903069
 40
0.8822008033
 40
0.8959449922
 40
0.9091070802
 40
0.9216732096
 40
0.9336317115
 40
0.9449734319
 40
0.95569208
 40
0.9608169472
 40
0.9657852838
 40
0.9705973322
 40
0.9752536674
 40
0.9797551582
 40
0.9841030711
 40
0.9882991704
 40
0.9923456186
 40
0.9962449171
 40
1.0
 40
1.0
 40
1.0
 40
1.0
 10
12.8429409526
 20
9.0224743354
 30
0.0
 10
12.8418940256
 20
9.0237615934
 30
0.0
 10
12.8398140966
 20
9.0264302704
 30
0.0
 10
12.8367907822
 20
9.0306268738
 30
0.0
 10
12.8338070864
 20
9.0350898697
 30
0.0
 10
12.8308643232
 20
9.0398173787
 30
0.0
 10
12.8279635954
 20
9.0448074691
 30
0.0
 10
12.8251060924
 20
9.0500580976
 30
0.0
 10
12.8222929709
 20
9.0555671423
 30
0.0
 10
12.8185422976
 20
9.0633803588
 30
0.0
 10
12.8139859102
 20
9.0737901262
 30
0.0
 10
12.8087979168
 20
9.0870799876
 30
0.0
 10
12.803813451
 20
9.1013405476
 30
0.0
 10
12.7990407715
 20
9.1165483453
 30
0.0
 10
12.7944877915
 20
9.132678587
 30
0.0
 10
12.7901621028
 20
9.1497047511
 30
0.0
 10
12.786070944
 20
9.1675987996
 30
0.0
 10
12.7822211833
 20
9.1863311953
 30
0.0
 10
12.7786192748
 20
9.20587096
 30
0.0
 10
12.7752712556
 20
9.2261857357
 30
0.0
 10
12.7721827465
 20
9.2472418585
 30
0.0
 10
12.7693589421
 20
9.2690044156
 30
0.0
 10
12.766804581
 20
9.2914372981
 30
0.0
 10
12.7645239434
 20
9.3145032655
 30
0.0
 10
12.7625208588
 20
9.3381640203
 30
0.0
 10
12.7607987
 20
9.3623802708
 30
0.0
 10
12.7593603575
 20
9.3871117934
 30
0.0
 10
12.7582082483
 20
9.412317488
 30
0.0
 10
12.7573442829
 20
9.4379555098
 30
0.0
 10
12.7565737971
 20
9.472877508
 30
0.0
 10
12.7563508631
 20
9.517295037
 30
0.0
 10
12.757243906
 20
9.5712975878
 30
0.0
 10
12.7592905314
 20
9.6259720445
 30
0.0
 10
12.7624772232
 20
9.6809551892
 30
0.0
 10
12.7667829439
 20
9.7358819658
 30
0.0
 10
12.7721789989
 20
9.7903877042
 30
0.0
 10
12.7786294773
 20
9.8441103159
 30
0.0
 10
12.7848847999
 20
9.8881930295
 30
0.0
 10
12.7903936249
 20
9.9227916417
 30
0.0
 10
12.7947350009
 20
9.9481673158
 30
0.0
 10
12.7993038147
 20
9.9730846791
 30
0.0
 10
12.8040924883
 20
9.9975023604
 30
0.0
 10
12.8090930362
 20
10.0213797854
 30
0.0
 10
12.8142971136
 20
10.044677301
 30
0.0
 10
12.8196960398
 20
10.06735622
 30
0.0
 10
12.8252808137
 20
10.0893788859
 30
0.0
 10
12.831042125
 20
10.110708744
 30
0.0
 10
12.8369703508
 20
10.1313104134
 30
0.0
 10
12.8430555965
 20
10.1511497372
 30
0.0
 10
12.8492877106
 20
10.1701938363
 30
0.0
 10
12.8556563026
 20
10.1884111784
 30
0.0
 10
12.8621507383
 20
10.2057716466
 30
0.0
 10
12.8687601914
 20
10.2222465911
 30
0.0
 10
12.8754736583
 20
10.2378088484
 30
0.0
 10
12.8822800082
 20
10.2524329128
 30
0.0
 10
12.8891679295
 20
10.2660946484
 30
0.0
 10
12.8950511268
 20
10.2768137783
 30
0.0
 10
12.8997979258
 20
10.2848796964
 30
0.0
 10
12.9033179742
 20
10.29058399
 30
0.0
 10
12.9068498888
 20
10.2960315321
 30
0.0
 10
12.9103921904
 20
10.3012201054
 30
0.0
 10
12.913943427
 20
10.3061475683
 30
0.0
 10
12.9175022027
 20
10.3108119062
 30
0.0
 10
12.9210670716
 20
10.3152112765
 30
0.0
 10
12.9246366758
 20
10.3193438548
 30
0.0
 10
12.9282093595
 20
10.3232077812
 30
0.0
 10
12.9306372743
 20
10.3256488731
 30
0.0
 10
12.931851767
 20
10.3268219831
 30
0.0
  0
SPLINE
  5
354
100
AcDbEntity
  8
0
100
AcDbSpline
 62
7
  6
CONTINUOUS
 70
0
 71
3
 72
19
 73
15
 74
0
 42
0.0000001
 43
0.0000001
 44
0.0000000001
 40
0.0
 40
0.0
 40
0.0
 40
0.0
 40
0.12732766
 40
0.2538196711
 40
0.3795264658
 40
0.5045235362
 40
0.5668075958
 40
0.6289556124
 40
0.6909843715
 40
0.7529118454
 40
0.8147570127
 40
0.8765397119
 40
0.9382804145
 40
1.0
 40
1.0
 40
1.0
 40
1.0
 10
10.0297829184
 20
6.6135928341
 30
0.0
 10
10.0297829184
 20
6.6198448301
 30
0.0
 10
10.0303798464
 20
6.6323163903
 30
0.0
 10
10.0330795266
 20
6.6507841072
 30
0.0
 10
10.0375555731
 20
6.6687869265
 30
0.0
 10
10.0427407087
 20
6.6832838698
 30
0.0
 10
10.0477273898
 20
6.694474799
 30
0.0
 10
10.0518741616
 20
6.7026420076
 30
0.0
 10
10.0564218605
 20
6.7105725343
 30
0.0
 10
10.061360136
 20
6.7182483497
 30
0.0
 10
10.0666775946
 20
6.7256516333
 30
0.0
 10
10.072361982
 20
6.7327654304
 30
0.0
 10
10.0784000091
 20
6.7395730709
 30
0.0
 10
10.0826526529
 20
6.7438977063
 30
0.0
 10
10.0848323777
 20
6.7460031579
 30
0.0
  0
SPLINE
  5
355
100
AcDbEntity
  8
0
100
AcDbSpline
 62
7
  6
CONTINUOUS
 70
0
 71
3
 72
42
 73
38
 74
0
 42
0.0000001
 43
0.0000001
 44
0.0000000001
 40
0.0
 40
0.0
 40
0.0
 40
0.0
 40
0.0299419644
 40
0.0449235317
 40
0.0599142035
 40
0.0899287023
 40
0.1200139727
 40
0.1350926544
 40
0.1501966973
 40
0.1804840373
 40
0.210897868
 40
0.2414513286
 40
0.2721543342
 40
0.3030133956
 40
0.3340315238
 40
0.3652082165
 40
0.3965395222
 40
0.4280181758
 40
0.459633799
 40
0.4913731572
 40
0.5232204671
 40
0.5551577446
 40
0.5871651885
 40
0.6192215901
 40
0.6513047644
 40
0.683391994
 40
0.715460481
 40
0.7474877999
 40
0.7794523452
 40
0.8113337678
 40
0.8431133918
 40
0.8747746145
 40
0.906303246
 40
0.9376878974
 40
0.9533257627
 40
0.9689252947
 40
1.0
 40
1.0
 40
1.0
 40
1.0
 10
10.3668993679
 20
6.4539857123
 30
0.0
 10
10.3635316655
 20
6.4507327628
 30
0.0
 10
10.3582816096
 20
6.4460504421
 30
0.0
 10
10.3509290518
 20
6.4402406533
 30
0.0
 10
10.3433422871
 20
6.4347200462
 30
0.0
 10
10.3334428611
 20
6.4283805186
 30
0.0
 10
10.3230620755
 20
6.4228353204
 30
0.0
 10
10.3145006558
 20
6.4188903708
 30
0.0
 10
10.3057623267
 20
6.4152711952
 30
0.0
 10
10.2945514881
 20
6.4113794567
 30
0.0
 10
10.2807358041
 20
6.4077524784
 30
0.0
 10
10.2666186596
 20
6.4051830173
 30
0.0
 10
10.2522782835
 20
6.4036852644
 30
0.0
 10
10.2377934524
 20
6.4032672089
 30
0.0
 10
10.2232438659
 20
6.4039309795
 30
0.0
 10
10.2087094923
 20
6.4056727418
 30
0.0
 10
10.1942701919
 20
6.4084827546
 30
0.0
 10
10.1800052673
 20
6.4123454225
 30
0.0
 10
10.1659930386
 20
6.4172393892
 30
0.0
 10
10.1523104174
 20
6.4231376571
 30
0.0
 10
10.1390324918
 20
6.4300077383
 30
0.0
 10
10.1262321196
 20
6.4378118331
 30
0.0
 10
10.1139795336
 20
6.4465070379
 30
0.0
 10
10.1023419615
 20
6.4560455791
 30
0.0
 10
10.0913832615
 20
6.4663750739
 30
0.0
 10
10.0811635755
 20
6.4774388153
 30
0.0
 10
10.0717390024
 20
6.4891760799
 30
0.0
 10
10.0631612938
 20
6.5015224595
 30
0.0
 10
10.055477572
 20
6.514410206
 30
0.0
 10
10.0487300724
 20
6.5277686138
 30
0.0
 10
10.0429559174
 20
6.5415243484
 30
0.0
 10
10.0381868945
 20
6.5556020475
 30
0.0
 10
10.034449357
 20
6.5699239707
 30
0.0
 10
10.0322086143
 20
6.5820132234
 30
0.0
 10
10.0309516283
 20
6.5917268008
 30
0.0
 10
10.0300545477
 20
6.6014310809
 30
0.0
 10
10.0297829184
 20
6.6087334894
 30
0.0
 10
10.0297829184
 20
6.6135928341
 30
0.0
  0
SPLINE
  5
356
100
AcDbEntity
  8
0
100
AcDbSpline
 62
7
  6
CONTINUOUS
 70
0
 71
3
 72
42
 73
38
 74
0
 42
0.0000001
 43
0.0000001
 44
0.0000000001
 40
0.0
 40
0.0
 40
0.0
 40
0.0
 40
0.0299419644
 40
0.0449235317
 40
0.0599142035
 40
0.0899287023
 40
0.1200139727
 40
0.1350926544
 40
0.1501966973
 40
0.1804840373
 40
0.210897868
 40
0.2414513286
 40
0.2721543342
 40
0.3030133956
 40
0.3340315238
 40
0.3652082165
 40
0.3965395222
 40
0.4280181758
 40
0.459633799
 40
0.4913731572
 40
0.5232204671
 40
0.5551577446
 40
0.5871651885
 40
0.6192215901
 40
0.6513047644
 40
0.683391994
 40
0.715460481
 40
0.7474877999
 40
0.7794523452
 40
0.8113337678
 40
0.8431133918
 40
0.8747746145
 40
0.906303246
 40
0.9376878974
 40
0.9533257627
 40
0.9689252947
 40
1.0
 40
1.0
 40
1.0
 40
1.0
 10
11.3328252515
 20
10.3714427943
 30
0.0
 10
11.3294575491
 20
10.3681898448
 30
0.0
 10
11.3242074932
 20
10.3635075241
 30
0.0
 10
11.3168549353
 20
10.3576977353
 30
0.0
 10
11.3092681707
 20
10.3521771282
 30
0.0
 10
11.2993687447
 20
10.3458376006
 30
0.0
 10
11.288987959
 20
10.3402924024
 30
0.0
 10
11.2804265394
 20
10.3363474527
 30
0.0
 10
11.2716882102
 20
10.3327282772
 30
0.0
 10
11.2604773716
 20
10.3288365387
 30
0.0
 10
11.2466616876
 20
10.3252095604
 30
0.0
 10
11.2325445431
 20
10.3226400993
 30
0.0
 10
11.218204167
 20
10.3211423464
 30
0.0
 10
11.2037193359
 20
10.3207242908
 30
0.0
 10
11.1891697495
 20
10.3213880615
 30
0.0
 10
11.1746353759
 20
10.3231298238
 30
0.0
 10
11.1601960754
 20
10.3259398365
 30
0.0
 10
11.1459311508
 20
10.3298025045
 30
0.0
 10
11.1319189221
 20
10.3346964712
 30
0.0
 10
11.1182363009
 20
10.3405947391
 30
0.0
 10
11.1049583754
 20
10.3474648203
 30
0.0
 10
11.0921580031
 20
10.3552689151
 30
0.0
 10
11.0799054171
 20
10.3639641199
 30
0.0
 10
11.068267845
 20
10.3735026611
 30
0.0
 10
11.0573091451
 20
10.3838321559
 30
0.0
 10
11.047089459
 20
10.3948958972
 30
0.0
 10
11.0376648859
 20
10.4066331619
 30
0.0
 10
11.0290871773
 20
10.4189795415
 30
0.0
 10
11.0214034555
 20
10.4318672879
 30
0.0
 10
11.014655956
 20
10.4452256958
 30
0.0
 10
11.008881801
 20
10.4589814304
 30
0.0
 10
11.004112778
 20
10.4730591295
 30
0.0
 10
11.0003752405
 20
10.4873810527
 30
0.0
 10
10.9981344978
 20
10.4994703054
 30
0.0
 10
10.9968775118
 20
10.5091838828
 30
0.0
 10
10.9959804312
 20
10.5188881629
 30
0.0
 10
10.995708802
 20
10.5261905714
 30
0.0
 10
10.995708802
 20
10.5310499161
 30
0.0
  0
SPLINE
  5
357
100
AcDbEntity
  8
0
100
AcDbSpline
 62
7
  6
CONTINUOUS
 70
0
 71
3
 72
42
 73
38
 74
0
 42
0.0000001
 43
0.0000001
 44
0.0000000001
 40
0.0
 40
0.0
 40
0.0
 40
0.0
 40
0.0299419645
 40
0.0449235319
 40
0.0599142037
 40
0.0899287023
 40
0.1200139726
 40
0.1350926542
 40
0.1501966969
 40
0.1804840366
 40
0.2108978669
 40
0.2414513271
 40
0.2721543323
 40
0.3030133934
 40
0.3340315212
 40
0.3652082135
 40
0.3965395189
 40
0.4280181723
 40
0.4596337953
 40
0.4913731534
 40
0.5232204633
 40
0.5551577409
 40
0.5871651848
 40
0.6192215866
 40
0.6513047611
 40
0.6833919909
 40
0.7154604782
 40
0.7474877975
 40
0.779452343
 40
0.811333766
 40
0.8431133904
 40
0.8747746134
 40
0.9063032452
 40
0.9376878969
 40
0.9533257623
 40
0.9689252944
 40
1.0
 40
1.0
 40
1.0
 40
1.0
 10
10.0280936901
 20
8.0602314736
 30
0.0
 10
10.0245932713
 20
8.056850327
 30
0.0
 10
10.0191363178
 20
8.0519834781
 30
0.0
 10
10.0114940052
 20
8.0459447278
 30
0.0
 10
10.0036082559
 20
8.0402065556
 30
0.0
 10
9.9933187057
 20
8.033617189
 30
0.0
 10
9.9825288256
 20
8.0278534557
 30
0.0
 10
9.9736300102
 20
8.023753036
 30
0.0
 10
9.9645473134
 20
8.0199912289
 30
0.0
 10
9.952894668
 20
8.0159461166
 30
0.0
 10
9.9385345226
 20
8.0121761976
 30
0.0
 10
9.923861036
 20
8.0095054717
 30
0.0
 10
9.9089555201
 20
8.0079486892
 30
0.0
 10
9.893899856
 20
8.007514154
 30
0.0
 10
9.8787768843
 20
8.008204079
 30
0.0
 10
9.8636697246
 20
8.0100144785
 30
0.0
 10
9.8486613846
 20
8.0129352274
 30
0.0
 10
9.8338342922
 20
8.0169501159
 30
0.0
 10
9.8192698539
 20
8.0220369459
 30
0.0
 10
9.8050480126
 20
8.0281676561
 30
0.0
 10
9.7912468153
 20
8.0353084779
 30
0.0
 10
9.7779419912
 20
8.0434201223
 30
0.0
 10
9.765206541
 20
8.0524579947
 30
0.0
 10
9.7531103418
 20
8.0623724389
 30
0.0
 10
9.7417197684
 20
8.0731090076
 30
0.0
 10
9.7310973328
 20
8.0846087592
 30
0.0
 10
9.7213013448
 20
8.0968085772
 30
0.0
 10
9.7123855956
 20
8.109641515
 30
0.0
 10
9.7043990643
 20
8.1230371545
 30
0.0
 10
9.6973856511
 20
8.136922004
 30
0.0
 10
9.6913839411
 20
8.1512198387
 30
0.0
 10
9.6864269747
 20
8.1658523263
 30
0.0
 10
9.6825421437
 20
8.1807386628
 30
0.0
 10
9.6802130951
 20
8.1933043413
 30
0.0
 10
9.6789065722
 20
8.2034007216
 30
0.0
 10
9.6779741384
 20
8.2134874381
 30
0.0
 10
9.6776918044
 20
8.2210776276
 30
0.0
 10
9.6776918044
 20
8.2261284745
 30
0.0
  0
SPLINE
  5
358
100
AcDbEntity
  8
0
100
AcDbSpline
 62
7
  6
CONTINUOUS
 70
0
 71
3
 72
19
 73
15
 74
0
 42
0.0000001
 43
0.0000001
 44
0.0000000001
 40
0.0
 40
0.0
 40
0.0
 40
0.0
 40
0.0617195852
 40
0.1234602876
 40
0.1852429867
 40
0.2470881541
 40
0.3090156281
 40
0.3710443874
 40
0.4331924043
 40
0.4954764641
 40
0.6204735348
 40
0.7461803297
 40
0.8726723406
 40
1.0
 40
1.0
 40
1.0
 40
1.0
 10
9.7349106416
 20
8.3637568822
 30
0.0
 10
9.7326450186
 20
8.3615684573
 30
0.0
 10
9.7282247872
 20
8.3570733935
 30
0.0
 10
9.7219488146
 20
8.3499974728
 30
0.0
 10
9.7160404178
 20
8.3426033308
 30
0.0
 10
9.7105134098
 20
8.3349082944
 30
0.0
 10
9.7053805277
 20
8.3269299864
 30
0.0
 10
9.700653614
 20
8.3186869296
 30
0.0
 10
9.6963434272
 20
8.310197864
 30
0.0
 10
9.6911602321
 20
8.2985659179
 30
0.0
 10
9.6857707619
 20
8.2834976735
 30
0.0
 10
9.6811183245
 20
8.2647853929
 30
0.0
 10
9.678312256
 20
8.2455898943
 30
0.0
 10
9.6776918044
 20
8.232626851
 30
0.0
 10
9.6776918044
 20
8.2261284745
 30
0.0
  0
SPLINE
  5
359
100
AcDbEntity
  8
0
100
AcDbSpline
 62
7
  6
CONTINUOUS
 70
0
 71
3
 72
18
 73
14
 74
0
 42
0.0000001
 43
0.0000001
 44
0.0000000001
 40
0.0
 40
0.0
 40
0.0
 40
0.0
 40
0.0548620589
 40
0.1099280789
 40
0.165399508
 40
0.2214731255
 40
0.2783387361
 40
0.3361775086
 40
0.4554063416
 40
0.5804417492
 40
0.7123343341
 40
0.8519577333
 40
1.0
 40
1.0
 40
1.0
 40
1.0
 10
9.3728148519
 20
11.2530308908
 30
0.0
 10
9.3728148521
 20
11.254135293
 30
0.0
 10
9.3728849609
 20
11.2563488374
 30
0.0
 10
9.3732001445
 20
11.2596655527
 30
0.0
 10
9.3737252711
 20
11.2629803567
 30
0.0
 10
9.3744601676
 20
11.2662920388
 30
0.0
 10
9.3754045491
 20
11.2695997628
 30
0.0
 10
9.3769578452
 20
11.274047765
 30
0.0
 10
9.3794461992
 20
11.2796110247
 30
0.0
 10
9.3832336292
 20
11.2861812557
 30
0.0
 10
9.3878465136
 20
11.2927089594
 30
0.0
 10
9.3932778343
 20
11.2991875839
 30
0.0
 10
9.3973173109
 20
11.3033444092
 30
0.0
 10
9.399460811
 20
11.3054148715
 30
0.0
  0
SPLINE
  5
35A
100
AcDbEntity
  8
0
100
AcDbSpline
 62
7
  6
CONTINUOUS
 70
0
 71
3
 72
10
 73
6
 74
0
 42
0.0000001
 43
0.0000001
 44
0.0000000001
 40
0.0
 40
0.0
 40
0.0
 40
0.0
 40
0.4750853033
 40
0.7308906867
 40
1.0
 40
1.0
 40
1.0
 40
1.0
 10
9.381436592
 20
11.2231151725
 30
0.0
 10
9.3837234395
 20
11.2270680618
 30
0.0
 10
9.3877784499
 20
11.2328491218
 30
0.0
 10
9.3940659587
 20
11.2401232784
 30
0.0
 10
9.3976002457
 20
11.2437302995
 30
0.0
 10
9.399460811
 20
11.2455274677
 30
0.0
  0
SPLINE
  5
35B
100
AcDbEntity
  8
0
100
AcDbSpline
 62
7
  6
CONTINUOUS
 70
0
 71
3
 72
95
 73
91
 74
0
 42
0.0000001
 43
0.0000001
 44
0.0000000001
 40
0.0
 40
0.0
 40
0.0
 40
0.0
 40
0.0039488186
 40
0.0077209214
 40
0.0113256445
 40
0.0147745623
 40
0.0212567379
 40
0.0243282751
 40
0.0273113629
 40
0.0302282336
 40
0.0331028199
 40
0.0359602143
 40
0.0388260038
 40
0.0417255309
 40
0.0446832014
 40
0.0477218699
 40
0.0508624604
 40
0.054123679
 40
0.0575219936
 40
0.0610716364
 40
0.0647847726
 40
0.0686716672
 40
0.0727408686
 40
0.0769994465
 40
0.0814531065
 40
0.0861064471
 40
0.0909629987
 40
0.0960254618
 40
0.1012957099
 40
0.1067749705
 40
0.1124638402
 40
0.1183623842
 40
0.1244701939
 40
0.1307863998
 40
0.1373097798
 40
0.1440387018
 40
0.1509712635
 40
0.165437612
 40
0.1806882179
 40
0.1966981085
 40
0.213438923
 40
0.2308792972
 40
0.2489851807
 40
0.267720107
 40
0.2870454315
 40
0.3069205425
 40
0.3273030537
 40
0.3481489841
 40
0.3694129279
 40
0.3910482169
 40
0.4130070784
 40
0.4352407884
 40
0.4576998231
 40
0.4803340076
 40
0.5030926647
 40
0.5259247619
 40
0.5487790575
 40
0.5716042467
 40
0.5943491077
 40
0.6169626475
 40
0.6393942481
 40
0.6615938139
 40
0.6835119196
 40
0.7050999601
 40
0.7263103021
 40
0.7470964384
 40
0.7674131453
 40
0.7872166469
 40
0.8064647855
 40
0.8251172028
 40
0.8431355353
 40
0.8604836278
 40
0.8771277739
 40
0.893036993
 40
0.9081833566
 40
0.9225423822
 40
0.9294203032
 40
0.9360940384
 40
0.9425617647
 40
0.9488219437
 40
0.9548734598
 40
0.9607155432
 40
0.9663479326
 40
0.9717708198
 40
0.9769849626
 40
0.9819917154
 40
0.9867932039
 40
0.9913924565
 40
0.9957932256
 40
1.0
 40
1.0
 40
1.0
 40
1.0
 10
12.9335082598
 20
10.3283928211
 30
0.0
 10
12.934906022
 20
10.3296936605
 30
0.0
 10
12.9377003588
 20
10.3321724656
 30
0.0
 10
12.9419878186
 20
10.3355839053
 30
0.0
 10
12.9462714099
 20
10.3385993584
 30
0.0
 10
12.9518563124
 20
10.3420174301
 30
0.0
 10
12.9575543665
 20
10.3447433814
 30
0.0
 10
12.9633127574
 20
10.3466582922
 30
0.0
 10
12.9675389248
 20
10.3476638065
 30
0.0
 10
12.9717456684
 20
10.3482623564
 30
0.0
 10
12.9759300019
 20
10.3484530469
 30
0.0
 10
12.9800883971
 20
10.348235377
 30
0.0
 10
12.9842173055
 20
10.3476094072
 30
0.0
 10
12.9883133009
 20
10.3465760249
 30
0.0
 10
12.9923731698
 20
10.3451364081
 30
0.0
 10
12.996394145
 20
10.343292406
 30
0.0
 10
13.0003736782
 20
10.3410458118
 30
0.0
 10
13.0043096274
 20
10.3383987954
 30
0.0
 10
13.0081998984
 20
10.3353533855
 30
0.0
 10
13.0120425918
 20
10.3319118183
 30
0.0
 10
13.0158357773
 20
10.3280763339
 30
0.0
 10
13.0195775292
 20
10.3238493163
 30
0.0
 10
13.0232659469
 20
10.3192333289
 30
0.0
 10
13.0268990078
 20
10.314231057
 30
0.0
 10
13.0304748134
 20
10.3088454708
 30
0.0
 10
13.0339912816
 20
10.3030796644
 30
0.0
 10
13.0374465158
 20
10.2969370464
 30
0.0
 10
13.0408384449
 20
10.290421173
 30
0.0
 10
13.0441651725
 20
10.2835358937
 30
0.0
 10
13.0474246994
 20
10.2762852399
 30
0.0
 10
13.0506151331
 20
10.2686734977
 30
0.0
 10
13.0537345815
 20
10.2607051643
 30
0.0
 10
13.0567811694
 20
10.2523849571
 30
0.0
 10
13.0597531243
 20
10.2437178192
 30
0.0
 10
13.0626486055
 20
10.234708896
 30
0.0
 10
13.0654659789
 20
10.2253635434
 30
0.0
 10
13.0691685624
 20
10.2122755798
 30
0.0
 10
13.0735744855
 20
10.1951071685
 30
0.0
 10
13.0784521479
 20
10.1735382141
 30
0.0
 10
13.0829807756
 20
10.1507710491
 30
0.0
 10
13.0871494061
 20
10.1268600061
 30
0.0
 10
13.0909479133
 20
10.1018619747
 30
0.0
 10
13.0943670768
 20
10.0758365918
 30
0.0
 10
13.0973985952
 20
10.0488459824
 30
0.0
 10
13.1000351082
 20
10.0209546269
 30
0.0
 10
13.1022702131
 20
9.9922291896
 30
0.0
 10
13.1040984798
 20
9.9627383543
 30
0.0
 10
13.1055154628
 20
9.9325526548
 30
0.0
 10
13.1065177105
 20
9.901744302
 30
0.0
 10
13.107102773
 20
9.8703870084
 30
0.0
 10
13.1072692067
 20
9.8385558092
 30
0.0
 10
13.1070165776
 20
9.8063268813
 30
0.0
 10
13.1063454614
 20
9.7737773589
 30
0.0
 10
13.1052574433
 20
9.740985148
 30
0.0
 10
13.1037551117
 20
9.7080287381
 30
0.0
 10
13.1018420527
 20
9.6749870134
 30
0.0
 10
13.0995228407
 20
9.6419390627
 30
0.0
 10
13.0968030272
 20
9.6089639897
 30
0.0
 10
13.0936891281
 20
9.5761407228
 30
0.0
 10
13.0901886075
 20
9.5435478253
 30
0.0
 10
13.0863098604
 20
9.511263307
 30
0.0
 10
13.0820621923
 20
9.4793644359
 30
0.0
 10
13.0774557976
 20
9.4479275521
 30
0.0
 10
13.0725017362
 20
9.4170278834
 30
0.0
 10
13.067211907
 20
9.3867393629
 30
0.0
 10
13.0615990192
 20
9.3571344504
 30
0.0
 10
13.0556765624
 20
9.328283957
 30
0.0
 10
13.0494587751
 20
9.3002568718
 30
0.0
 10
13.0429606104
 20
9.2731201936
 30
0.0
 10
13.0361977014
 20
9.2469387641
 30
0.0
 10
13.0291863226
 20
9.2217751084
 30
0.0
 10
13.0219433508
 20
9.1976892679
 30
0.0
 10
13.0144862222
 20
9.1747386735
 30
0.0
 10
13.0068328843
 20
9.1529778877
 30
0.0
 10
12.9990017535
 20
9.1324588118
 30
0.0
 10
12.9922499943
 20
9.1162096222
 30
0.0
 10
12.986762861
 20
9.1038787549
 30
0.0
 10
12.9826738746
 20
9.0951039056
 30
0.0
 10
12.9785546257
 20
9.0866744327
 30
0.0
 10
12.9744074721
 20
9.0785953614
 30
0.0
 10
12.9702349704
 20
9.0708714692
 30
0.0
 10
12.9660395286
 20
9.063507359
 30
0.0
 10
12.9618236955
 20
9.0565073634
 30
0.0
 10
12.9575899115
 20
9.0498756402
 30
0.0
 10
12.9533407143
 20
9.0436161001
 30
0.0
 10
12.9490785935
 20
9.0377324176
 30
0.0
 10
12.9448059709
 20
9.032228028
 30
0.0
 10
12.9405252464
 20
9.0271060692
 30
0.0
 10
12.9362390509
 20
9.022369832
 30
0.0
 10
12.933314848
 20
9.0194056387
 30
0.0
 10
12.931851767
 20
9.0179924109
 30
0.0
  0
SPLINE
  5
35C
100
AcDbEntity
  8
0
100
AcDbSpline
 62
7
  6
CONTINUOUS
 70
0
 71
3
 72
19
 73
15
 74
0
 42
0.0000001
 43
0.0000001
 44
0.0000000001
 40
0.0
 40
0.0
 40
0.0
 40
0.0
 40
0.0566184208
 40
0.1127459492
 40
0.1686783261
 40
0.224714752
 40
0.2811525386
 40
0.338282276
 40
0.3963829848
 40
0.45571873
 40
0.578999426
 40
0.7099205328
 40
0.8498912396
 40
1.0
 40
1.0
 40
1.0
 40
1.0
 10
9.4208093066
 20
11.1832511577
 30
0.0
 10
9.4205609796
 20
11.1844854751
 30
0.0
 10
9.4201556439
 20
11.1869624104
 30
0.0
 10
9.4198280622
 20
11.1907024626
 30
0.0
 10
9.4197847399
 20
11.1944438833
 30
0.0
 10
9.4200256853
 20
11.1981846242
 30
0.0
 10
9.4205506951
 20
11.2019230034
 30
0.0
 10
9.4213594705
 20
11.2056572332
 30
0.0
 10
9.4224514448
 20
11.2093858118
 30
0.0
 10
9.4243072475
 20
11.2144106002
 30
0.0
 10
9.4273728231
 20
11.2206952483
 30
0.0
 10
9.4321248709
 20
11.2280811646
 30
0.0
 10
9.4379846875
 20
11.2354006886
 30
0.0
 10
9.4424584293
 20
11.2400599801
 30
0.0
 10
9.4448593275
 20
11.2423790699
 30
0.0
  0
SPLINE
  5
35D
100
AcDbEntity
  8
0
100
AcDbSpline
 62
7
  6
CONTINUOUS
 70
0
 71
3
 72
29
 73
25
 74
0
 42
0.0000001
 43
0.0000001
 44
0.0000000001
 40
0.0
 40
0.0
 40
0.0
 40
0.0
 40
0.0755849261
 40
0.1466145423
 40
0.2134284043
 40
0.2764668694
 40
0.3362691012
 40
0.3651660615
 40
0.3935048179
 40
0.4213819954
 40
0.4488995596
 40
0.4761640064
 40
0.503285025
 40
0.5303741997
 40
0.5575435754
 40
0.5849040881
 40
0.6125642198
 40
0.6406286477
 40
0.6691970702
 40
0.7281928859
 40
0.7902532206
 40
0.8559467831
 40
0.9257384363
 40
1.0
 40
1.0
 40
1.0
 40
1.0
 10
12.931851767
 20
9.0179924109
 30
0.0
 10
12.9299687687
 20
9.0161735741
 30
0.0
 10
12.9262053424
 20
9.0127572714
 30
0.0
 10
12.9203810707
 20
9.008193398
 30
0.0
 10
12.9145635416
 20
9.0043603229
 30
0.0
 10
12.9087586465
 20
9.0012640487
 30
0.0
 10
12.9038794435
 20
8.9992797607
 30
0.0
 10
12.9000041027
 20
8.9980834173
 30
0.0
 10
12.8971386464
 20
8.9973827941
 30
0.0
 10
12.8942823574
 20
8.9968690828
 30
0.0
 10
12.8914360252
 20
8.9965425479
 30
0.0
 10
12.8886005794
 20
8.9964033259
 30
0.0
 10
12.8857769313
 20
8.9964514953
 30
0.0
 10
12.8829660161
 20
8.9966871263
 30
0.0
 10
12.880168767
 20
8.9971101051
 30
0.0
 10
12.8773860828
 20
8.997720225
 30
0.0
 10
12.8746188771
 20
8.9985172612
 30
0.0
 10
12.8718679353
 20
8.9995009445
 30
0.0
 10
12.8681839621
 20
9.0010772636
 30
0.0
 10
12.8636086274
 20
9.0035368474
 30
0.0
 10
12.8582619558
 20
9.0071960477
 30
0.0
 10
12.8530033883
 20
9.0115884487
 30
0.0
 10
12.8478377758
 20
9.0167072662
 30
0.0
 10
12.8445638925
 20
9.0204788357
 30
0.0
 10
12.8429409526
 20
9.0224743354
 30
0.0
  0
SPLINE
  5
35E
100
AcDbEntity
  8
0
100
AcDbSpline
 62
7
  6
CONTINUOUS
 70
0
 71
3
 72
15
 73
11
 74
0
 42
0.0000001
 43
0.0000001
 44
0.0000000001
 40
0.0
 40
0.0
 40
0.0
 40
0.0
 40
0.1094613731
 40
0.2214548581
 40
0.3370807688
 40
0.4573270642
 40
0.5830585706
 40
0.7150191158
 40
0.8538340111
 40
1.0
 40
1.0
 40
1.0
 40
1.0
 10
9.4351694071
 20
11.1738953502
 30
0.0
 10
9.4353879409
 20
11.17569707
 30
0.0
 10
9.4360329305
 20
11.1793204744
 30
0.0
 10
9.4375936935
 20
11.1846969425
 30
0.0
 10
9.4397527169
 20
11.1900553182
 30
0.0
 10
9.4425062758
 20
11.1953901633
 30
0.0
 10
9.4458507662
 20
11.2006977025
 30
0.0
 10
9.449782479
 20
11.2059743346
 30
0.0
 10
9.4542973401
 20
11.2112160901
 30
0.0
 10
9.4576050983
 20
11.2145950491
 30
0.0
 10
9.4593482158
 20
11.2162787714
 30
0.0
  0
SPLINE
  5
35F
100
AcDbEntity
  8
0
100
AcDbSpline
 62
7
  6
CONTINUOUS
 70
0
 71
3
 72
19
 73
15
 74
0
 42
0.0000001
 43
0.0000001
 44
0.0000000001
 40
0.0
 40
0.0
 40
0.0
 40
0.0
 40
0.12732766
 40
0.2538196711
 40
0.3795264658
 40
0.5045235362
 40
0.5668075958
 40
0.6289556124
 40
0.6909843715
 40
0.7529118454
 40
0.8147570127
 40
0.8765397119
 40
0.9382804145
 40
1.0
 40
1.0
 40
1.0
 40
1.0
 10
10.995708802
 20
10.5310499161
 30
0.0
 10
10.995708802
 20
10.5373019121
 30
0.0
 10
10.9963057299
 20
10.5497734723
 30
0.0
 10
10.9990054101
 20
10.5682411892
 30
0.0
 10
11.0034814566
 20
10.5862440085
 30
0.0
 10
11.0086665923
 20
10.6007409518
 30
0.0
 10
11.0136532733
 20
10.611931881
 30
0.0
 10
11.0178000451
 20
10.6200990896
 30
0.0
 10
11.022347744
 20
10.6280296163
 30
0.0
 10
11.0272860195
 20
10.6357054317
 30
0.0
 10
11.0326034781
 20
10.6431087153
 30
0.0
 10
11.0382878655
 20
10.6502225124
 30
0.0
 10
11.0443258926
 20
10.6570301529
 30
0.0
 10
11.0485785364
 20
10.6613547883
 30
0.0
 10
11.0507582612
 20
10.6634602399
 30
0.0
  0
SPLINE
  5
360
100
AcDbEntity
  8
0
100
AcDbSpline
 62
7
  6
CONTINUOUS
 70
0
 71
3
 72
90
 73
86
 74
0
 42
0.0000001
 43
0.0000001
 44
0.0000000001
 40
0.0
 40
0.0
 40
0.0
 40
0.0
 40
0.0039801841
 40
0.0081241159
 40
0.0124359656
 40
0.0169193153
 40
0.0215771898
 40
0.0264119289
 40
0.0314251936
 40
0.0366181713
 40
0.0419915567
 40
0.0475456772
 40
0.0532804457
 40
0.0591954437
 40
0.0652899501
 40
0.0715629317
 40
0.0846386004
 40
0.098409911
 40
0.1128604817
 40
0.1279710074
 40
0.1437195982
 40
0.1600820565
 40
0.1770321086
 40
0.194541602
 40
0.2125806763
 40
0.2311179203
 40
0.2501205135
 40
0.2695543567
 40
0.2893841934
 40
0.3095737255
 40
0.3300857245
 40
0.3508821382
 40
0.3719241976
 40
0.3931725218
 40
0.4145872201
 40
0.4361279928
 40
0.4577542316
 40
0.4794251191
 40
0.5010997291
 40
0.5227371263
 40
0.5442964667
 40
0.5657370967
 40
0.5870186529
 40
0.608101162
 40
0.6289451422
 40
0.6495117057
 40
0.6697626638
 40
0.6896606308
 40
0.7091691309
 40
0.728252709
 40
0.7468770455
 40
0.7650090769
 40
0.7826171262
 40
0.7996710429
 40
0.8161423523
 40
0.8320044245
 40
0.8472326669
 40
0.8618047498
 40
0.8757008734
 40
0.8889040964
 40
0.8952416854
 40
0.9014012239
 40
0.9073816029
 40
0.9131819719
 40
0.9188018178
 40
0.9242409106
 40
0.9294994338
 40
0.9345779311
 40
0.9394774185
 40
0.9441994036
 40
0.9487459354
 40
0.9531197203
 40
0.9573241226
 40
0.9613633439
 40
0.9652424353
 40
0.9689674716
 40
0.9725456352
 40
0.9759853336
 40
0.9824864943
 40
0.9855753483
 40
0.9885738142
 40
0.9914977336
 40
0.9943643342
 40
0.9971920087
 40
1.0
 40
1.0
 40
1.0
 40
1.0
 10
9.399460811
 20
11.3054148715
 30
0.0
 10
9.4010096136
 20
11.3069109
 30
0.0
 10
9.4042412726
 20
11.3098923762
 30
0.0
 10
9.4093721531
 20
11.3142470465
 30
0.0
 10
9.4148798132
 20
11.3185704804
 30
0.0
 10
9.4207612315
 20
11.322860382
 30
0.0
 10
9.4270135407
 20
11.3271147481
 30
0.0
 10
9.433633677
 20
11.3313315087
 30
0.0
 10
9.4406183297
 20
11.3355086421
 30
0.0
 10
9.447964033
 20
11.3396439805
 30
0.0
 10
9.4556670778
 20
11.3437355392
 30
0.0
 10
9.4637236345
 20
11.3477812126
 30
0.0
 10
9.4721296528
 20
11.3517790132
 30
0.0
 10
9.4808809137
 20
11.355726912
 30
0.0
 10
9.4899730343
 20
11.3596229305
 30
0.0
 10
9.5027209844
 20
11.364817761
 30
0.0
 10
9.5194856103
 20
11.3711533612
 30
0.0
 10
9.5406176134
 20
11.3784172141
 30
0.0
 10
9.5629908745
 20
11.385428855
 30
0.0
 10
9.5865602815
 20
11.3921740323
 30
0.0
 10
9.6112785169
 20
11.3986390181
 30
0.0
 10
9.637095788
 20
11.4048106457
 30
0.0
 10
9.6639600518
 20
11.410676342
 30
0.0
 10
9.6918170978
 20
11.4162241557
 30
0.0
 10
9.7206106741
 20
11.4214427879
 30
0.0
 10
9.7502826065
 20
11.4263216122
 30
0.0
 10
9.7807729244
 20
11.4308506956
 30
0.0
 10
9.8120199862
 20
11.435020819
 30
0.0
 10
9.8439606074
 20
11.4388234952
 30
0.0
 10
9.8765301897
 20
11.4422509862
 30
0.0
 10
9.9096628527
 20
11.4452963172
 30
0.0
 10
9.9432915684
 20
11.4479532948
 30
0.0
 10
9.9773482987
 20
11.4502165174
 30
0.0
 10
10.0117641358
 20
11.4520813837
 30
0.0
 10
10.0464694428
 20
11.4535441023
 30
0.0
 10
10.0813939946
 20
11.454601699
 30
0.0
 10
10.1164671204
 20
11.4552520232
 30
0.0
 10
10.1516178469
 20
11.4554937507
 30
0.0
 10
10.1867750426
 20
11.4553263905
 30
0.0
 10
10.2218675634
 20
11.4547502846
 30
0.0
 10
10.2568243969
 20
11.453766605
 30
0.0
 10
10.2915748069
 20
11.4523773516
 30
0.0
 10
10.3260484763
 20
11.4505853484
 30
0.0
 10
10.3601756497
 20
11.4483942381
 30
0.0
 10
10.3938872755
 20
11.4458084742
 30
0.0
 10
10.4271151478
 20
11.4428333148
 30
0.0
 10
10.4597920462
 20
11.4394748132
 30
0.0
 10
10.4918518724
 20
11.4357398021
 30
0.0
 10
10.5232297849
 20
11.4316358812
 30
0.0
 10
10.5538623308
 20
11.427171402
 30
0.0
 10
10.5836875768
 20
11.4223554513
 30
0.0
 10
10.6126452382
 20
11.4171978325
 30
0.0
 10
10.640676806
 20
11.411709048
 30
0.0
 10
10.6677256728
 20
11.4059002796
 30
0.0
 10
10.6937372492
 20
11.3997833611
 30
0.0
 10
10.7186590896
 20
11.3933707537
 30
0.0
 10
10.7424409781
 20
11.3866755181
 30
0.0
 10
10.7650351487
 20
11.3797112815
 30
0.0
 10
10.7863960338
 20
11.3724922056
 30
0.0
 10
10.803357389
 20
11.3661931958
 30
0.0
 10
10.8162667291
 20
11.3610264588
 30
0.0
 10
10.8254816686
 20
11.3571497832
 30
0.0
 10
10.8343574002
 20
11.3532205423
 30
0.0
 10
10.84288946
 20
11.3492406414
 30
0.0
 10
10.8510735795
 20
11.3452121563
 30
0.0
 10
10.8589056298
 20
11.3411370342
 30
0.0
 10
10.8663817122
 20
11.3370173866
 30
0.0
 10
10.8734980698
 20
11.3328552184
 30
0.0
 10
10.8802511572
 20
11.3286526203
 30
0.0
 10
10.8866376168
 20
11.3244116813
 30
0.0
 10
10.8926542446
 20
11.3201344366
 30
0.0
 10
10.8982980902
 20
11.3158230402
 30
0.0
 10
10.9035662968
 20
11.3114794803
 30
0.0
 10
10.9084562839
 20
11.3071059169
 30
0.0
 10
10.9129655859
 20
11.3027042984
 30
0.0
 10
10.9170918379
 20
11.2982768413
 30
0.0
 10
10.9208332583
 20
11.2938250375
 30
0.0
 10
10.9252222978
 20
11.2879714289
 30
0.0
 10
10.928949307
 20
11.2819600412
 30
0.0
 10
10.9319083903
 20
11.2758202954
 30
0.0
 10
10.9336962551
 20
11.2712794951
 30
0.0
 10
10.9350885306
 20
11.2667276462
 30
0.0
 10
10.9360840752
 20
11.2621669599
 30
0.0
 10
10.9366817887
 20
11.2576006874
 30
0.0
 10
10.9368148522
 20
11.2545500597
 30
0.0
 10
10.9368148519
 20
11.2530308908
 30
0.0
  0
SPLINE
  5
361
100
AcDbEntity
  8
0
100
AcDbSpline
 62
7
  6
CONTINUOUS
 70
0
 71
3
 72
15
 73
11
 74
0
 42
0.0000001
 43
0.0000001
 44
0.0000000001
 40
0.0
 40
0.0
 40
0.0
 40
0.0
 40
0.1442868702
 40
0.2823220688
 40
0.414390134
 40
0.5408436573
 40
0.6621061493
 40
0.7786674397
 40
0.8910879172
 40
1.0
 40
1.0
 40
1.0
 40
1.0
 10
12.8284976975
 20
9.1285141095
 30
0.0
 10
12.8273574382
 20
9.1274127035
 30
0.0
 10
12.8250777516
 20
9.1253070319
 30
0.0
 10
12.8215817522
 20
9.1223870283
 30
0.0
 10
12.8180884953
 20
9.119778898
 30
0.0
 10
12.814599895
 20
9.1174844244
 30
0.0
 10
12.8111176772
 20
9.11550501
 30
0.0
 10
12.8076433776
 20
9.1138420752
 30
0.0
 10
12.8041791827
 20
9.1124969448
 30
0.0
 10
12.8018447936
 20
9.1118032761
 30
0.0
 10
12.8006838929
 20
9.1115129293
 30
0.0
  0
SPLINE
  5
362
100
AcDbEntity
  8
0
100
AcDbSpline
 62
7
  6
CONTINUOUS
 70
0
 71
3
 72
39
 73
35
 74
0
 42
0.0000001
 43
0.0000001
 44
0.0000000001
 40
0.0
 40
0.0
 40
0.0
 40
0.0
 40
0.0311159125
 40
0.0620233593
 40
0.0927351371
 40
0.1232711781
 40
0.1536587327
 40
0.1839312116
 40
0.2141268394
 40
0.2442870994
 40
0.2744549755
 40
0.3046731316
 40
0.3349820894
 40
0.3654185446
 40
0.3960138637
 40
0.4267928829
 40
0.4577729965
 40
0.4889636214
 40
0.5203659689
 40
0.5519731792
 40
0.5837707184
 40
0.6157370645
 40
0.647844591
 40
0.6800606403
 40
0.7123487317
 40
0.7446698625
 40
0.7769838849
 40
0.8092508935
 40
0.8414326248
 40
0.8734938012
 40
0.905403414
 40
0.9371358735
 40
0.9686718543
 40
1.0
 40
1.0
 40
1.0
 40
1.0
 10
10.1341029139
 20
8.1759877786
 30
0.0
 10
10.1341029139
 20
8.1671705953
 30
0.0
 10
10.1332421001
 20
8.1495825476
 30
0.0
 10
10.1293492195
 20
8.1235521134
 30
0.0
 10
10.1228955015
 20
8.098201677
 30
0.0
 10
10.1139422786
 20
8.0737792346
 30
0.0
 10
10.1025750309
 20
8.0505201413
 30
0.0
 10
10.0889029979
 20
8.0286497108
 30
0.0
 10
10.0730578301
 20
8.0083797314
 30
0.0
 10
10.0551925983
 20
7.9899065324
 30
0.0
 10
10.0354801178
 20
7.9734089545
 30
0.0
 10
10.0141112609
 20
7.9590465238
 30
0.0
 10
9.991293017
 20
7.9469577756
 30
0.0
 10
9.9672462856
 20
7.9372590715
 30
0.0
 10
9.942203739
 20
7.9300432344
 30
0.0
 10
9.9164073496
 20
7.9253791068
 30
0.0
 10
9.8901061103
 20
7.9233105075
 30
0.0
 10
9.8635535231
 20
7.9238564701
 30
0.0
 10
9.8370052025
 20
7.9270105521
 30
0.0
 10
9.8107164669
 20
7.9327416148
 30
0.0
 10
9.784939859
 20
7.9409935637
 30
0.0
 10
9.7599229004
 20
7.9516865196
 30
0.0
 10
9.7359056167
 20
7.9647170867
 30
0.0
 10
9.7131184638
 20
7.9799597961
 30
0.0
 10
9.6917799999
 20
7.9972679582
 30
0.0
 10
9.6720949743
 20
8.0164753042
 30
0.0
 10
9.65425231
 20
8.0373974079
 30
0.0
 10
9.6384233476
 20
8.0598334913
 30
0.0
 10
9.6247602865
 20
8.0835683072
 30
0.0
 10
9.613394588
 20
8.108374189
 30
0.0
 10
9.6044359785
 20
8.1340129091
 30
0.0
 10
9.5979710644
 20
8.160239205
 30
0.0
 10
9.5940627917
 20
8.1867979045
 30
0.0
 10
9.5931844191
 20
8.2046232807
 30
0.0
 10
9.5931844191
 20
8.2135006036
 30
0.0
  0
SPLINE
  5
363
100
AcDbEntity
  8
0
100
AcDbSpline
 62
7
  6
CONTINUOUS
 70
0
 71
3
 72
39
 73
35
 74
0
 42
0.0000001
 43
0.0000001
 44
0.0000000001
 40
0.0
 40
0.0
 40
0.0
 40
0.0
 40
0.0311159125
 40
0.0620233593
 40
0.0927351371
 40
0.1232711781
 40
0.1536587327
 40
0.1839312116
 40
0.2141268394
 40
0.2442870994
 40
0.2744549755
 40
0.3046731316
 40
0.3349820894
 40
0.3654185446
 40
0.3960138637
 40
0.4267928829
 40
0.4577729965
 40
0.4889636214
 40
0.5203659689
 40
0.5519731792
 40
0.5837707184
 40
0.6157370645
 40
0.647844591
 40
0.6800606403
 40
0.7123487317
 40
0.7446698625
 40
0.7769838849
 40
0.8092508935
 40
0.8414326248
 40
0.8734938012
 40
0.905403414
 40
0.9371358735
 40
0.9686718543
 40
1.0
 40
1.0
 40
1.0
 40
1.0
 10
9.5931844191
 20
8.2135006036
 30
0.0
 10
9.5931844191
 20
8.222317787
 30
0.0
 10
9.5940452329
 20
8.2399058347
 30
0.0
 10
9.5979381134
 20
8.2659362688
 30
0.0
 10
9.6043918314
 20
8.2912867053
 30
0.0
 10
9.6133450544
 20
8.3157091476
 30
0.0
 10
9.624712302
 20
8.338968241
 30
0.0
 10
9.6383843351
 20
8.3608386715
 30
0.0
 10
9.6542295029
 20
8.3811086509
 30
0.0
 10
9.6720947346
 20
8.3995818499
 30
0.0
 10
9.6918072152
 20
8.4160794277
 30
0.0
 10
9.7131760721
 20
8.4304418584
 30
0.0
 10
9.735994316
 20
8.4425306067
 30
0.0
 10
9.7600410473
 20
8.4522293107
 30
0.0
 10
9.785083594
 20
8.4594451479
 30
0.0
 10
9.8108799834
 20
8.4641092754
 30
0.0
 10
9.8371812227
 20
8.4661778748
 30
0.0
 10
9.8637338099
 20
8.4656319121
 30
0.0
 10
9.8902821304
 20
8.4624778302
 30
0.0
 10
9.9165708661
 20
8.4567467674
 30
0.0
 10
9.9423474739
 20
8.4484948186
 30
0.0
 10
9.9673644326
 20
8.4378018626
 30
0.0
 10
9.9913817162
 20
8.4247712956
 30
0.0
 10
10.0141688691
 20
8.4095285862
 30
0.0
 10
10.0355073331
 20
8.3922204241
 30
0.0
 10
10.0551923587
 20
8.373013078
 30
0.0
 10
10.0730350229
 20
8.3520909743
 30
0.0
 10
10.0888639853
 20
8.3296548909
 30
0.0
 10
10.1025270465
 20
8.3059200751
 30
0.0
 10
10.1138927449
 20
8.2811141932
 30
0.0
 10
10.1228513545
 20
8.2554754731
 30
0.0
 10
10.1293162686
 20
8.2292491773
 30
0.0
 10
10.1332245412
 20
8.2026904777
 30
0.0
 10
10.1341029139
 20
8.1848651016
 30
0.0
 10
10.1341029139
 20
8.1759877786
 30
0.0
  0
SPLINE
  5
364
100
AcDbEntity
  8
0
100
AcDbSpline
 62
7
  6
CONTINUOUS
 70
0
 71
3
 72
78
 73
74
 74
0
 42
0.0000001
 43
0.0000001
 44
0.0000000001
 40
0.0
 40
0.0
 40
0.0
 40
0.0
 40
0.0039123111
 40
0.0079853004
 40
0.0122223864
 40
0.0166264443
 40
0.0211999131
 40
0.0259447355
 40
0.030862236
 40
0.0359532723
 40
0.0412183387
 40
0.0466575292
 40
0.0580567386
 40
0.0701464532
 40
0.0829176023
 40
0.096357725
 40
0.1104513951
 40
0.1251805913
 40
0.140525009
 40
0.1564622954
 40
0.1729682332
 40
0.1900169057
 40
0.2075808697
 40
0.2256312882
 40
0.2441380414
 40
0.2630698281
 40
0.2823942907
 40
0.3020781166
 40
0.3220871286
 40
0.3423863666
 40
0.3629401928
 40
0.4046655382
 40
0.4469685443
 40
0.4895486047
 40
0.532102607
 40
0.5743276779
 40
0.6159239131
 40
0.6363943537
 40
0.6565978933
 40
0.6764991146
 40
0.6960633217
 40
0.7152566238
 40
0.7340460216
 40
0.752399505
 40
0.7702861734
 40
0.7876763365
 40
0.8045416173
 40
0.8208550754
 40
0.8365913663
 40
0.8517268981
 40
0.8662399919
 40
0.8801110917
 40
0.893323035
 40
0.9058613785
 40
0.9177147632
 40
0.9288754116
 40
0.9341949773
 40
0.9393404563
 40
0.9443122069
 40
0.9491109699
 40
0.9537379616
 40
0.9581948221
 40
0.9624837763
 40
0.9666076508
 40
0.9705699229
 40
0.9743748986
 40
0.9780277083
 40
0.9815344734
 40
0.988137316
 40
0.9912542143
 40
0.9942616232
 40
0.9971721696
 40
1.0
 40
1.0
 40
1.0
 40
1.0
 10
12.8284976975
 20
9.1285141095
 30
0.0
 10
12.8295922915
 20
9.1295714062
 30
0.0
 10
12.8317803626
 20
9.131777545
 30
0.0
 10
12.8349958078
 20
9.135281073
 30
0.0
 10
12.838208072
 20
9.1390428146
 30
0.0
 10
12.8414154664
 20
9.1430608408
 30
0.0
 10
12.844616603
 20
9.1473332573
 30
0.0
 10
12.8478099923
 20
9.1518581382
 30
0.0
 10
12.8509942086
 20
9.1566333659
 30
0.0
 10
12.8541677487
 20
9.1616566966
 30
0.0
 10
12.857329101
 20
9.1669257899
 30
0.0
 10
12.8615928424
 20
9.1743927639
 30
0.0
 10
12.8668710417
 20
9.1843342161
 30
0.0
 10
12.8730376537
 20
9.1970223526
 30
0.0
 10
12.879120611
 20
9.2106251457
 30
0.0
 10
12.8851083548
 20
9.2251169542
 30
0.0
 10
12.8909895138
 20
9.2404706333
 30
0.0
 10
12.896752893
 20
9.2566572474
 30
0.0
 10
12.9023875047
 20
9.2736462591
 30
0.0
 10
12.9078825952
 20
9.2914055668
 30
0.0
 10
12.9132276779
 20
9.3099015699
 30
0.0
 10
12.9184125653
 20
9.329099235
 30
0.0
 10
12.9234273675
 20
9.3489621812
 30
0.0
 10
12.928262517
 20
9.3694527552
 30
0.0
 10
12.9329087882
 20
9.3905320968
 30
0.0
 10
12.9373573334
 20
9.4121602096
 30
0.0
 10
12.9415996758
 20
9.4342960481
 30
0.0
 10
12.9456277326
 20
9.4568976044
 30
0.0
 10
12.9494338149
 20
9.4799219698
 30
0.0
 10
12.9530107112
 20
9.5033254633
 30
0.0
 10
12.9574873999
 20
9.5351346849
 30
0.0
 10
12.9624546407
 20
9.5755154565
 30
0.0
 10
12.9673764779
 20
9.6245220439
 30
0.0
 10
12.9712511541
 20
9.673945921
 30
0.0
 10
12.9740492467
 20
9.7234120637
 30
0.0
 10
12.9757495738
 20
9.7725451189
 30
0.0
 10
12.9762439188
 20
9.8131143067
 30
0.0
 10
12.976071975
 20
9.8451166613
 30
0.0
 10
12.9756638151
 20
9.868676798
 30
0.0
 10
12.9749766566
 20
9.8918777792
 30
0.0
 10
12.9740118092
 20
9.9146755942
 30
0.0
 10
12.9727711421
 20
9.937026959
 30
0.0
 10
12.9712570393
 20
9.9588894496
 30
0.0
 10
12.9694724023
 20
9.9802215728
 30
0.0
 10
12.9674206654
 20
10.0009828564
 30
0.0
 10
12.9651057755
 20
10.0211339258
 30
0.0
 10
12.962532179
 20
10.0406365734
 30
0.0
 10
12.9597048101
 20
10.0594538349
 30
0.0
 10
12.9566291002
 20
10.077550074
 30
0.0
 10
12.9533109643
 20
10.0948910575
 30
0.0
 10
12.9497567734
 20
10.1114440139
 30
0.0
 10
12.9459733388
 20
10.1271777126
 30
0.0
 10
12.9419679032
 20
10.1420625151
 30
0.0
 10
12.9377481296
 20
10.1560705679
 30
0.0
 10
12.9333220496
 20
10.1691754765
 30
0.0
 10
12.9294085994
 20
10.1794822067
 30
0.0
 10
12.926171184
 20
10.1872470946
 30
0.0
 10
12.9237356985
 20
10.1927363577
 30
0.0
 10
12.9212550467
 20
10.1979821478
 30
0.0
 10
12.918730325
 20
10.2029820019
 30
0.0
 10
12.9161627734
 20
10.2077336032
 30
0.0
 10
12.9135535189
 20
10.2122347102
 30
0.0
 10
12.9109037799
 20
10.2164832371
 30
0.0
 10
12.908214785
 20
10.2204772153
 30
0.0
 10
12.9054876565
 20
10.2242147718
 30
0.0
 10
12.9027237324
 20
10.2276941262
 30
0.0
 10
12.8999239287
 20
10.230913902
 30
0.0
 10
12.8962195668
 20
10.2347804187
 30
0.0
 10
12.8923759456
 20
10.23822055
 30
0.0
 10
12.8883924142
 20
10.2411649914
 30
0.0
 10
12.8854320843
 20
10.2430644695
 30
0.0
 10
12.8824435833
 20
10.2446959762
 30
0.0
 10
12.8804070124
 20
10.2456161987
 30
0.0
 10
12.8793872046
 20
10.2460284843
 30
0.0
  0
SPLINE
  5
365
100
AcDbEntity
  8
0
100
AcDbSpline
 62
7
  6
CONTINUOUS
 70
0
 71
3
 72
81
 73
77
 74
0
 42
0.0000001
 43
0.0000001
 44
0.0000000001
 40
0.0
 40
0.0
 40
0.0
 40
0.0
 40
0.00641291
 40
0.0098000347
 40
0.0133176797
 40
0.0169727105
 40
0.0207710222
 40
0.024717635
 40
0.0288167354
 40
0.0330718392
 40
0.0374857856
 40
0.0420608577
 40
0.0467988416
 40
0.0517010264
 40
0.0567683374
 40
0.0620012876
 40
0.0674000705
 40
0.0729645874
 40
0.0786944222
 40
0.0906468457
 40
0.1032499351
 40
0.1164925499
 40
0.1303607555
 40
0.1448381617
 40
0.1599061891
 40
0.1755442936
 40
0.1917301676
 40
0.208439902
 40
0.2256481279
 40
0.2433281362
 40
0.2614519913
 40
0.2799906458
 40
0.2989140393
 40
0.3181911903
 40
0.3377902815
 40
0.3576787453
 40
0.377823355
 40
0.398190306
 40
0.4187452956
 40
0.4394536006
 40
0.4811889929
 40
0.5231139882
 40
0.5649437553
 40
0.6063943007
 40
0.6268898024
 40
0.6471856573
 40
0.6672477212
 40
0.6870423766
 40
0.7065366115
 40
0.7256981015
 40
0.7444952967
 40
0.7628975162
 40
0.7808750321
 40
0.7983991633
 40
0.8154423746
 40
0.8319783893
 40
0.8479823158
 40
0.8634307708
 40
0.878302025
 40
0.8925761728
 40
0.9062353378
 40
0.9192639241
 40
0.9316489
 40
0.9433801625
 40
0.9489986592
 40
0.9544515408
 40
0.9597385745
 40
0.9648598794
 40
0.969815862
 40
0.9746072898
 40
0.9792353297
 40
0.9837015683
 40
0.9880082045
 40
0.9921579607
 40
0.9961540014
 40
1.0
 40
1.0
 40
1.0
 40
1.0
 10
10.9282507937
 20
11.2230152908
 30
0.0
 10
10.9265513996
 20
11.2259627776
 30
0.0
 10
10.9236572638
 20
11.2303011441
 30
0.0
 10
10.9192736001
 20
11.2358444102
 30
0.0
 10
10.9155776337
 20
11.2400581672
 30
0.0
 10
10.9115360857
 20
11.2442494102
 30
0.0
 10
10.9071504616
 20
11.2484168895
 30
0.0
 10
10.9024228228
 20
11.252558663
 30
0.0
 10
10.8973553245
 20
11.256673075
 30
0.0
 10
10.8919501975
 20
11.2607582627
 30
0.0
 10
10.8862098964
 20
11.2648124967
 30
0.0
 10
10.8801369875
 20
11.2688339869
 30
0.0
 10
10.8737341769
 20
11.2728209128
 30
0.0
 10
10.8670043715
 20
11.2767715642
 30
0.0
 10
10.8599505667
 20
11.280684102
 30
0.0
 10
10.8525759607
 20
11.284556816
 30
0.0
 10
10.8448838779
 20
11.288387944
 30
0.0
 10
10.8368777707
 20
11.2921757547
 30
0.0
 10
10.825630345
 20
11.2972375035
 30
0.0
 10
10.8108007114
 20
11.3034309554
 30
0.0
 10
10.792055172
 20
11.3105626405
 30
0.0
 10
10.772151041
 20
11.3174817869
 30
0.0
 10
10.7511243924
 20
11.3241757647
 30
0.0
 10
10.7290131224
 20
11.3306323377
 30
0.0
 10
10.7058572603
 20
11.3368396887
 30
0.0
 10
10.6816987699
 20
11.3427864575
 30
0.0
 10
10.6565814856
 20
11.3484617516
 30
0.0
 10
10.6305510119
 20
11.3538551743
 30
0.0
 10
10.60365464
 20
11.3589568416
 30
0.0
 10
10.575941263
 20
11.3637574081
 30
0.0
 10
10.5474612823
 20
11.3682480893
 30
0.0
 10
10.5182665069
 20
11.3724206644
 30
0.0
 10
10.4884100537
 20
11.3762674953
 30
0.0
 10
10.4579462517
 20
11.3797815377
 30
0.0
 10
10.4269305463
 20
11.3829563594
 30
0.0
 10
10.3954193972
 20
11.3857861576
 30
0.0
 10
10.363470166
 20
11.3882657592
 30
0.0
 10
10.3311410291
 20
11.3903906206
 30
0.0
 10
10.2984907954
 20
11.3921568818
 30
0.0
 10
10.254496041
 20
11.394034102
 30
0.0
 10
10.1991377703
 20
11.3954596578
 30
0.0
 10
10.1325555608
 20
11.3957027702
 30
0.0
 10
10.0661352472
 20
11.3944805986
 30
0.0
 10
10.0111186317
 20
11.392240566
 30
0.0
 10
9.9675584904
 20
11.3897146716
 30
0.0
 10
9.9353507635
 20
11.3874698106
 30
0.0
 10
9.9035426698
 20
11.3848716961
 30
0.0
 10
9.8721920658
 20
11.3819250491
 30
0.0
 10
9.8413560336
 20
11.3786352684
 30
0.0
 10
9.8110906999
 20
11.3750083673
 30
0.0
 10
9.7814511496
 20
11.3710509789
 30
0.0
 10
9.7524913148
 20
11.366770352
 30
0.0
 10
9.7242638797
 20
11.3621743242
 30
0.0
 10
9.6968201868
 20
11.3572713105
 30
0.0
 10
9.6702101416
 20
11.3520702866
 30
0.0
 10
9.6444821123
 20
11.3465807737
 30
0.0
 10
9.6196828331
 20
11.3408128335
 30
0.0
 10
9.5958573173
 20
11.334777034
 30
0.0
 10
9.5730487773
 20
11.3284844303
 30
0.0
 10
9.5512985278
 20
11.3219465405
 30
0.0
 10
9.5306459262
 20
11.3151753197
 30
0.0
 10
9.5111281597
 20
11.3081831371
 30
0.0
 10
9.492780578
 20
11.30098275
 30
0.0
 10
9.4782919135
 20
11.2947331246
 30
0.0
 10
9.4673232281
 20
11.2896284419
 30
0.0
 10
9.4595283042
 20
11.2858112566
 30
0.0
 10
9.4520497665
 20
11.2819519113
 30
0.0
 10
9.4448909517
 20
11.2780521718
 30
0.0
 10
9.4380551018
 20
11.2741137626
 30
0.0
 10
9.4315453062
 20
11.2701384517
 30
0.0
 10
9.4253644776
 20
11.266128079
 30
0.0
 10
9.4195154062
 20
11.2620843418
 30
0.0
 10
9.4140006387
 20
11.2580090422
 30
0.0
 10
9.4088226364
 20
11.2539038663
 30
0.0
 10
9.403983963
 20
11.2497708432
 30
0.0
 10
9.4009284144
 20
11.2469450638
 30
0.0
 10
9.399460811
 20
11.2455274677
 30
0.0
  0
SPLINE
  5
366
100
AcDbEntity
  8
0
100
AcDbSpline
 62
7
  6
CONTINUOUS
 70
0
 71
3
 72
92
 73
88
 74
0
 42
0.0000001
 43
0.0000001
 44
0.0000000001
 40
0.0
 40
0.0
 40
0.0
 40
0.0
 40
0.0028693881
 40
0.0057128619
 40
0.0085509659
 40
0.0114043754
 40
0.0142934012
 40
0.0172375552
 40
0.0202551521
 40
0.0233630773
 40
0.0265766011
 40
0.0299093323
 40
0.0333732543
 40
0.0369787533
 40
0.0407348012
 40
0.0446489982
 40
0.048727778
 40
0.052976491
 40
0.0573995245
 40
0.0620004548
 40
0.0667820602
 40
0.0717465079
 40
0.0768953287
 40
0.0822295524
 40
0.0877497357
 40
0.0934559857
 40
0.0993480711
 40
0.1054253567
 40
0.111686942
 40
0.1181315987
 40
0.1315635444
 40
0.1457069525
 40
0.1605436637
 40
0.1760525236
 40
0.1922097256
 40
0.20898909
 40
0.2263623001
 40
0.2442991114
 40
0.2627675318
 40
0.2817339815
 40
0.30116344
 40
0.3210195822
 40
0.3412649043
 40
0.3618608515
 40
0.3827679376
 40
0.4039458611
 40
0.4253536177
 40
0.4469496115
 40
0.4686917646
 40
0.4905376273
 40
0.5124444883
 40
0.5343694831
 40
0.5562697016
 40
0.5781022952
 40
0.5998245854
 40
0.6213941735
 40
0.6427690501
 40
0.663907704
 40
0.6847692316
 40
0.7053134492
 40
0.7255010059
 40
0.7452935023
 40
0.7646536121
 40
0.7835452036
 40
0.8019334694
 40
0.8197850641
 40
0.8370682533
 40
0.8537530779
 40
0.8698115425
 40
0.8852178204
 40
0.8999484944
 40
0.9139828478
 40
0.9273032188
 40
0.9336913188
 40
0.9398959527
 40
0.9459159654
 40
0.9517505492
 40
0.9573991894
 40
0.9628617425
 40
0.9681384827
 40
0.973230076
 40
0.9781377085
 40
0.9828630618
 40
0.9874085489
 40
0.9917772905
 40
0.9959729933
 40
1.0
 40
1.0
 40
1.0
 40
1.0
 10
10.888831062
 20
11.1833042859
 30
0.0
 10
10.889119223
 20
11.1847442946
 30
0.0
 10
10.8895714858
 20
11.1876373225
 30
0.0
 10
10.8898663379
 20
11.1920092306
 30
0.0
 10
10.889772905
 20
11.196382253
 30
0.0
 10
10.8892911622
 20
11.2007529365
 30
0.0
 10
10.8884218065
 20
11.2051184569
 30
0.0
 10
10.8871656223
 20
11.209475964
 30
0.0
 10
10.885523986
 20
11.2138229304
 30
0.0
 10
10.8834982282
 20
11.2181569473
 30
0.0
 10
10.8810899697
 20
11.222475829
 30
0.0
 10
10.8783008957
 20
11.2267775094
 30
0.0
 10
10.87513271
 20
11.231059925
 30
0.0
 10
10.8715873618
 20
11.2353211691
 30
0.0
 10
10.8676667345
 20
11.2395591747
 30
0.0
 10
10.8633730126
 20
11.2437720261
 30
0.0
 10
10.8587084103
 20
11.2479576663
 30
0.0
 10
10.8536753618
 20
11.2521140736
 30
0.0
 10
10.8482764844
 20
11.2562392386
 30
0.0
 10
10.8425145188
 20
11.2603310385
 30
0.0
 10
10.8363924787
 20
11.2643874975
 30
0.0
 10
10.8299134767
 20
11.2684064728
 30
0.0
 10
10.8230808879
 20
11.2723859679
 30
0.0
 10
10.8158982324
 20
11.2763239082
 30
0.0
 10
10.8083692286
 20
11.2802182445
 30
0.0
 10
10.8004977983
 20
11.2840670021
 30
0.0
 10
10.7922880096
 20
11.2878681101
 30
0.0
 10
10.7837441605
 20
11.2916196526
 30
0.0
 10
10.7748706725
 20
11.2953196376
 30
0.0
 10
10.7624340625
 20
11.3002497052
 30
0.0
 10
10.7460878621
 20
11.3062558971
 30
0.0
 10
10.7254961848
 20
11.3131318493
 30
0.0
 10
10.703709349
 20
11.3197577098
 30
0.0
 10
10.68077288
 20
11.3261195133
 30
0.0
 10
10.656734514
 20
11.3322038333
 30
0.0
 10
10.6316444454
 20
11.3379978241
 30
0.0
 10
10.6055551036
 20
11.3434892551
 30
0.0
 10
10.5785210581
 20
11.3486665324
 30
0.0
 10
10.5505988854
 20
11.353518727
 30
0.0
 10
10.5218470469
 20
11.3580355975
 30
0.0
 10
10.4923257617
 20
11.3622076116
 30
0.0
 10
10.4620968794
 20
11.3660259653
 30
0.0
 10
10.4312237479
 20
11.3694826075
 30
0.0
 10
10.3997710768
 20
11.3725702513
 30
0.0
 10
10.3678047973
 20
11.3752823879
 30
0.0
 10
10.3353919227
 20
11.3776133002
 30
0.0
 10
10.3026004071
 20
11.379558075
 30
0.0
 10
10.2694990032
 20
11.3811126113
 30
0.0
 10
10.2361571179
 20
11.3822736331
 30
0.0
 10
10.2026446653
 20
11.3830386968
 30
0.0
 10
10.1690319176
 20
11.3834061917
 30
0.0
 10
10.1353893577
 20
11.3833753439
 30
0.0
 10
10.1017875312
 20
11.3829462178
 30
0.0
 10
10.0682968989
 20
11.382119716
 30
0.0
 10
10.0349876877
 20
11.3808975771
 30
0.0
 10
10.001929742
 20
11.3792823783
 30
0.0
 10
9.969192376
 20
11.3772775249
 30
0.0
 10
9.9368442277
 20
11.3748872426
 30
0.0
 10
9.904953116
 20
11.3721165688
 30
0.0
 10
9.8735858972
 20
11.3689713433
 30
0.0
 10
9.8428083236
 20
11.3654581943
 30
0.0
 10
9.8126849016
 20
11.3615845298
 30
0.0
 10
9.7832787533
 20
11.3573585226
 30
0.0
 10
9.7546514833
 20
11.3527890891
 30
0.0
 10
9.7268630484
 20
11.3478858718
 30
0.0
 10
9.6999716289
 20
11.342659219
 30
0.0
 10
9.6740335006
 20
11.3371201637
 30
0.0
 10
9.6491029103
 20
11.3312803978
 30
0.0
 10
9.6252319414
 20
11.3251522546
 30
0.0
 10
9.6024704258
 20
11.3187486721
 30
0.0
 10
9.5808657199
 20
11.3120831619
 30
0.0
 10
9.560462964
 20
11.305169766
 30
0.0
 10
9.5442792748
 20
11.2991329823
 30
0.0
 10
9.5319760809
 20
11.2941794297
 30
0.0
 10
9.5232041844
 20
11.2904632769
 30
0.0
 10
9.514763325
 20
11.2866961664
 30
0.0
 10
9.5066578743
 20
11.2828800871
 30
0.0
 10
9.4988920571
 20
11.2790170134
 30
0.0
 10
9.4914699094
 20
11.2751089385
 30
0.0
 10
9.4843952606
 20
11.27115793
 30
0.0
 10
9.4776718117
 20
11.2671659588
 30
0.0
 10
9.4713030153
 20
11.2631351799
 30
0.0
 10
9.4652921751
 20
11.2590675783
 30
0.0
 10
9.4596423311
 20
11.2549652149
 30
0.0
 10
9.4543563454
 20
11.2508300627
 30
0.0
 10
9.4494372219
 20
11.2466644092
 30
0.0
 10
9.446341732
 20
11.2438109627
 30
0.0
 10
9.4448593275
 20
11.2423790699
 30
0.0
  0
SPLINE
  5
367
100
AcDbEntity
  8
0
100
AcDbSpline
 62
7
  6
CONTINUOUS
 70
0
 71
3
 72
86
 73
82
 74
0
 42
0.0000001
 43
0.0000001
 44
0.0000000001
 40
0.0
 40
0.0
 40
0.0
 40
0.0
 40
0.002820388
 40
0.0056858264
 40
0.0086138082
 40
0.0116206105
 40
0.014721137
 40
0.0179287816
 40
0.0212554727
 40
0.0247116618
 40
0.0283064343
 40
0.0320476237
 40
0.0359418722
 40
0.0399948279
 40
0.0442111647
 40
0.0485947516
 40
0.0531487212
 40
0.0578755206
 40
0.0627770597
 40
0.0678546725
 40
0.0731092663
 40
0.0785413118
 40
0.0841508867
 40
0.0899377644
 40
0.1020403157
 40
0.1148417311
 40
0.1283302856
 40
0.1424909051
 40
0.1573055958
 40
0.172753794
 40
0.1888126452
 40
0.2054572357
 40
0.2226607875
 40
0.2403948241
 40
0.258629329
 40
0.277332887
 40
0.29647281
 40
0.3160152546
 40
0.3359253309
 40
0.3561672095
 40
0.3767042305
 40
0.3974990049
 40
0.4185135127
 40
0.4397091995
 40
0.4610470719
 40
0.5039910707
 40
0.5470291872
 40
0.5898434573
 40
0.6110681603
 40
0.6321188103
 40
0.6529567646
 40
0.6735438947
 40
0.6938426862
 40
0.7138163409
 40
0.7334288735
 40
0.7526452147
 40
0.7714313167
 40
0.7897542652
 40
0.8075824034
 40
0.8248854543
 40
0.8416346529
 40
0.8578028945
 40
0.873364902
 40
0.8882974225
 40
0.9025794585
 40
0.916192529
 40
0.929120997
 40
0.9353247239
 40
0.9413529669
 40
0.9472047547
 40
0.9528794402
 40
0.958376626
 40
0.9636962944
 40
0.9688387774
 40
0.9738047901
 40
0.9785955157
 40
0.983212598
 40
0.9876583693
 40
0.9919357813
 40
0.9960483063
 40
1.0
 40
1.0
 40
1.0
 40
1.0
 10
10.8744671805
 20
11.1738382823
 30
0.0
 10
10.8743002871
 20
11.1752277397
 30
0.0
 10
10.8738438793
 20
11.1780158097
 30
0.0
 10
10.872805275
 20
11.1821663906
 30
0.0
 10
10.871409574
 20
11.1863086348
 30
0.0
 10
10.8696580526
 20
11.1904399597
 30
0.0
 10
10.8675519325
 20
11.1945583803
 30
0.0
 10
10.8650927696
 20
11.1986620026
 30
0.0
 10
10.8622819901
 20
11.2027489278
 30
0.0
 10
10.8591212577
 20
11.20681738
 30
0.0
 10
10.8556122737
 20
11.2108655734
 30
0.0
 10
10.8517568112
 20
11.2148916659
 30
0.0
 10
10.847556874
 20
11.2188939253
 30
0.0
 10
10.8430144719
 20
11.2228704492
 30
0.0
 10
10.8381318792
 20
11.2268194638
 30
0.0
 10
10.8329114559
 20
11.2307390982
 30
0.0
 10
10.8273557341
 20
11.2346274783
 30
0.0
 10
10.8214674473
 20
11.2384828046
 30
0.0
 10
10.815249426
 20
11.2423031448
 30
0.0
 10
10.8087047401
 20
11.2460867199
 30
0.0
 10
10.8018365668
 20
11.2498316447
 30
0.0
 10
10.7946482769
 20
11.2535360858
 30
0.0
 10
10.7871433933
 20
11.2571982937
 30
0.0
 10
10.7765610594
 20
11.2620956803
 30
0.0
 10
10.76255571
 20
11.2680848757
 30
0.0
 10
10.7447908098
 20
11.2749717968
 30
0.0
 10
10.7258596252
 20
11.2816483702
 30
0.0
 10
10.7057994302
 20
11.2881013358
 30
0.0
 10
10.6846495085
 20
11.2943178787
 30
0.0
 10
10.6624514744
 20
11.3002856216
 30
0.0
 10
10.6392490471
 20
11.3059926754
 30
0.0
 10
10.6150879878
 20
11.311427664
 30
0.0
 10
10.5900159934
 20
11.3165797502
 30
0.0
 10
10.5640825999
 20
11.3214386696
 30
0.0
 10
10.5373390743
 20
11.3259947421
 30
0.0
 10
10.5098383032
 20
11.3302388912
 30
0.0
 10
10.481634685
 20
11.3341626628
 30
0.0
 10
10.4527840213
 20
11.3377582398
 30
0.0
 10
10.4233434075
 20
11.3410184617
 30
0.0
 10
10.3933711174
 20
11.343936843
 30
0.0
 10
10.3629264848
 20
11.3465075764
 30
0.0
 10
10.3320697768
 20
11.3487255484
 30
0.0
 10
10.3008620977
 20
11.3505863362
 30
0.0
 10
10.2693651828
 20
11.3520862658
 30
0.0
 10
10.2269785518
 20
11.3536040604
 30
0.0
 10
10.1737312671
 20
11.3545783747
 30
0.0
 10
10.1098193368
 20
11.3542788487
 30
0.0
 10
10.0567040448
 20
11.3528051644
 30
0.0
 10
10.0145262384
 20
11.3508886541
 30
0.0
 10
9.9832608136
 20
11.3490937952
 30
0.0
 10
9.9523351246
 20
11.3469410532
 30
0.0
 10
9.9218103494
 20
11.3444346741
 30
0.0
 10
9.8917469335
 20
11.3415796536
 30
0.0
 10
9.8622043843
 20
11.3383816753
 30
0.0
 10
9.8332411752
 20
11.3348471066
 30
0.0
 10
9.8049146257
 20
11.330982984
 30
0.0
 10
9.7772807885
 20
11.326797001
 30
0.0
 10
9.7503943327
 20
11.3222974904
 30
0.0
 10
9.7243084295
 20
11.317493419
 30
0.0
 10
9.6990746441
 20
11.3123943621
 30
0.0
 10
9.6747428324
 20
11.3070104824
 30
0.0
 10
9.6513610414
 20
11.3013525105
 30
0.0
 10
9.6289753975
 20
11.2954317202
 30
0.0
 10
9.6076300282
 20
11.2892599057
 30
0.0
 10
9.5873668593
 20
11.2828493601
 30
0.0
 10
9.5682258649
 20
11.2762128337
 30
0.0
 10
9.5530393182
 20
11.2704283007
 30
0.0
 10
9.5414895848
 20
11.2656874335
 30
0.0
 10
9.5332503125
 20
11.2621324909
 30
0.0
 10
9.5253186736
 20
11.2585310199
 30
0.0
 10
9.5176985386
 20
11.2548848353
 30
0.0
 10
9.5103936721
 20
11.2511956774
 30
0.0
 10
9.5034076422
 20
11.2474653901
 30
0.0
 10
9.4967438689
 20
11.2436957947
 30
0.0
 10
9.4904056382
 20
11.2398886973
 30
0.0
 10
9.4843960259
 20
11.2360460326
 30
0.0
 10
9.4787179811
 20
11.232169572
 30
0.0
 10
9.4733742016
 20
11.2282611858
 30
0.0
 10
9.4683672624
 20
11.2243226373
 30
0.0
 10
9.4636998548
 20
11.2203560145
 30
0.0
 10
9.46075852
 20
11.2176410208
 30
0.0
 10
9.4593482158
 20
11.2162787714
 30
0.0
  0
SPLINE
  5
368
100
AcDbEntity
  8
0
100
AcDbSpline
 62
7
  6
CONTINUOUS
 70
0
 71
3
 72
47
 73
43
 74
0
 42
0.0000001
 43
0.0000001
 44
0.0000000001
 40
0.0
 40
0.0
 40
0.0
 40
0.0
 40
0.0112998339
 40
0.0229780526
 40
0.0350282287
 40
0.0474432799
 40
0.0602154439
 40
0.073336433
 40
0.0867973491
 40
0.1005888505
 40
0.1291231755
 40
0.1588560611
 40
0.1896972619
 40
0.2215509985
 40
0.2543166231
 40
0.2878892345
 40
0.3221602586
 40
0.3570180027
 40
0.3923481934
 40
0.4280345026
 40
0.4639590669
 40
0.5000030011
 40
0.5360469097
 40
0.5719713971
 40
0.6076575778
 40
0.6429875884
 40
0.6778451016
 40
0.7121158452
 40
0.7456881286
 40
0.77845338
 40
0.810306701
 40
0.8411474458
 40
0.8708798355
 40
0.8994136253
 40
0.9132048305
 40
0.9266654697
 40
0.9397861477
 40
0.9525580159
 40
0.9649727484
 40
0.977022607
 40
0.9887005044
 40
1.0
 40
1.0
 40
1.0
 40
1.0
 10
10.741964131
 20
11.1194044522
 30
0.0
 10
10.737753644
 20
11.1209398858
 30
0.0
 10
10.7291592606
 20
11.1239738958
 30
0.0
 10
10.715972757
 20
11.1283495946
 30
0.0
 10
10.7022883128
 20
11.1326219066
 30
0.0
 10
10.6881180993
 20
11.1367869609
 30
0.0
 10
10.6734746414
 20
11.1408411152
 30
0.0
 10
10.6583709111
 20
11.1447806879
 30
0.0
 10
10.6428202739
 20
11.1486022673
 30
0.0
 10
10.6212637336
 20
11.1535923071
 30
0.0
 10
10.5932968035
 20
11.1594945668
 30
0.0
 10
10.5585515805
 20
11.1659775257
 30
0.0
 10
10.5223743847
 20
11.1719152831
 30
0.0
 10
10.4848935147
 20
11.177286574
 30
0.0
 10
10.4462417153
 20
11.182072133
 30
0.0
 10
10.4065560184
 20
11.1862548164
 30
0.0
 10
10.3659771478
 20
11.1898196437
 30
0.0
 10
10.3246490352
 20
11.1927538527
 30
0.0
 10
10.2827182936
 20
11.1950469422
 30
0.0
 10
10.2403336927
 20
11.1966907074
 30
0.0
 10
10.1976456254
 20
11.1976792677
 30
0.0
 10
10.1548055694
 20
11.1980090868
 30
0.0
 10
10.1119655461
 20
11.1976789845
 30
0.0
 10
10.069277577
 20
11.1966901408
 30
0.0
 10
10.0268931401
 20
11.1950460926
 30
0.0
 10
9.9849626281
 20
11.192752722
 30
0.0
 10
9.9436348101
 20
11.1898182355
 30
0.0
 10
9.9030562976
 20
11.1862531359
 30
0.0
 10
9.8633710202
 20
11.1820701866
 30
0.0
 10
9.824719699
 20
11.1772843697
 30
0.0
 10
9.7872393633
 20
11.1719128301
 30
0.0
 10
9.7510627558
 20
11.1659748354
 30
0.0
 10
9.7163181765
 20
11.1594916429
 30
0.0
 10
9.6883518205
 20
11.1535892098
 30
0.0
 10
9.6667957716
 20
11.1485989969
 30
0.0
 10
9.6512455148
 20
11.1447773389
 30
0.0
 10
9.6361421792
 20
11.1408376413
 30
0.0
 10
9.621499124
 20
11.1367834088
 30
0.0
 10
9.607329327
 20
11.1326182477
 30
0.0
 10
9.5936453078
 20
11.1283458488
 30
0.0
 10
9.5804592407
 20
11.1239700648
 30
0.0
 10
9.5718651556
 20
11.1209359952
 30
0.0
 10
9.5676548234
 20
11.1194005287
 30
0.0
  0
SPLINE
  5
369
100
AcDbEntity
  8
0
100
AcDbSpline
 62
7
  6
CONTINUOUS
 70
0
 71
3
 72
39
 73
35
 74
0
 42
0.0000001
 43
0.0000001
 44
0.0000000001
 40
0.0
 40
0.0
 40
0.0
 40
0.0
 40
0.0258558397
 40
0.0527111353
 40
0.0805144354
 40
0.1092109617
 40
0.138742936
 40
0.1690498724
 40
0.200068846
 40
0.2317347452
 40
0.2639805115
 40
0.2967373703
 40
0.3299350547
 40
0.363502024
 40
0.3973656829
 40
0.4314525945
 40
0.4656886926
 40
0.4999994913
 40
0.5343102949
 40
0.5685464071
 40
0.6026333405
 40
0.6364970275
 40
0.6700640318
 40
0.7032617597
 40
0.7360186727
 40
0.7682645041
 40
0.7999304777
 40
0.830949532
 40
0.861256552
 40
0.8907886128
 40
0.9194852307
 40
0.9472886306
 40
0.9741440379
 40
1.0
 40
1.0
 40
1.0
 40
1.0
 10
10.6251098952
 20
11.0914116075
 30
0.0
 10
10.6171881242
 20
11.0934116819
 30
0.0
 10
10.6009903046
 20
11.097300714
 30
0.0
 10
10.576129451
 20
11.1027165984
 30
0.0
 10
10.5502862751
 20
11.1078163772
 30
0.0
 10
10.5235210956
 20
11.1125880225
 30
0.0
 10
10.4958961839
 20
11.1170203357
 30
0.0
 10
10.4674759063
 20
11.1211029024
 30
0.0
 10
10.4383264852
 20
11.1248261364
 30
0.0
 10
10.408515864
 20
11.1281812964
 30
0.0
 10
10.3781135395
 20
11.1311605069
 30
0.0
 10
10.3471903992
 20
11.133756776
 30
0.0
 10
10.3158185544
 20
11.1359640114
 30
0.0
 10
10.2840711702
 20
11.1377770368
 30
0.0
 10
10.2520222923
 20
11.139191601
 30
0.0
 10
10.2197466729
 20
11.1402043871
 30
0.0
 10
10.1873195949
 20
11.1408130203
 30
0.0
 10
10.1548166962
 20
11.1410160733
 30
0.0
 10
10.1223137928
 20
11.1408130694
 30
0.0
 10
10.089886701
 20
11.1402044838
 30
0.0
 10
10.0576110599
 20
11.139191742
 30
0.0
 10
10.0255621533
 20
11.1377772201
 30
0.0
 10
9.9938147329
 20
11.1359642366
 30
0.0
 10
9.9624428431
 20
11.133757044
 30
0.0
 10
9.9315196474
 20
11.13116082
 30
0.0
 10
9.9011172568
 20
11.1281816554
 30
0.0
 10
9.8713065606
 20
11.1248265407
 30
0.0
 10
9.8421570579
 20
11.1211033498
 30
0.0
 10
9.8137366947
 20
11.1170208221
 30
0.0
 10
9.7861116934
 20
11.1125885454
 30
0.0
 10
9.7593464185
 20
11.1078169345
 30
0.0
 10
9.7335031377
 20
11.1027171923
 30
0.0
 10
9.7086421701
 20
11.0973013372
 30
0.0
 10
9.6924442641
 20
11.0934123472
 30
0.0
 10
9.6845224529
 20
11.0914122743
 30
0.0
  0
SPLINE
  5
36A
100
AcDbEntity
  8
0
100
AcDbSpline
 62
4
  6
CONTINUOUS
 70
0
 71
3
 72
313
 73
309
 74
0
 42
0.0000001
 43
0.0000001
 44
0.0000000001
 40
0.0
 40
0.0
 40
0.0
 40
0.0
 40
0.015625
 40
0.0234375
 40
0.03125
 40
0.0390625
 40
0.046875
 40
0.05078125
 40
0.0546875
 40
0.056640625
 40
0.05859375
 40
0.060546875
 40
0.0615234375
 40
0.0620117188
 40
0.0625
 40
0.0629882812
 40
0.0634765625
 40
0.064453125
 40
0.06640625
 40
0.068359375
 40
0.0703125
 40
0.07421875
 40
0.078125
 40
0.0859375
 40
0.09375
 40
0.1015625
 40
0.109375
 40
0.11328125
 40
0.1171875
 40
0.119140625
 40
0.12109375
 40
0.123046875
 40
0.1240234375
 40
0.1245117188
 40
0.125
 40
0.1254882812
 40
0.1259765625
 40
0.126953125
 40
0.12890625
 40
0.130859375
 40
0.1328125
 40
0.13671875
 40
0.140625
 40
0.1484375
 40
0.15625
 40
0.1640625
 40
0.171875
 40
0.17578125
 40
0.1796875
 40
0.181640625
 40
0.18359375
 40
0.185546875
 40
0.1865234375
 40
0.1870117188
 40
0.1875
 40
0.1879882812
 40
0.1884765625
 40
0.189453125
 40
0.19140625
 40
0.193359375
 40
0.1953125
 40
0.19921875
 40
0.203125
 40
0.2109375
 40
0.21875
 40
0.2265625
 40
0.234375
 40
0.23828125
 40
0.2421875
 40
0.244140625
 40
0.24609375
 40
0.248046875
 40
0.2490234375
 40
0.2495117188
 40
0.25
 40
0.2504882812
 40
0.2509765625
 40
0.251953125
 40
0.25390625
 40
0.255859375
 40
0.2578125
 40
0.26171875
 40
0.265625
 40
0.2734375
 40
0.28125
 40
0.2890625
 40
0.296875
 40
0.30078125
 40
0.3046875
 40
0.306640625
 40
0.30859375
 40
0.310546875
 40
0.3115234375
 40
0.3120117188
 40
0.3125
 40
0.3129882812
 40
0.3134765625
 40
0.314453125
 40
0.31640625
 40
0.318359375
 40
0.3203125
 40
0.32421875
 40
0.328125
 40
0.3359375
 40
0.34375
 40
0.3515625
 40
0.359375
 40
0.36328125
 40
0.3671875
 40
0.369140625
 40
0.37109375
 40
0.373046875
 40
0.3740234375
 40
0.3745117188
 40
0.375
 40
0.3754882812
 40
0.3759765625
 40
0.376953125
 40
0.37890625
 40
0.380859375
 40
0.3828125
 40
0.38671875
 40
0.390625
 40
0.3984375
 40
0.40625
 40
0.4140625
 40
0.421875
 40
0.42578125
 40
0.4296875
 40
0.431640625
 40
0.43359375
 40
0.435546875
 40
0.4365234375
 40
0.4370117188
 40
0.4375
 40
0.4379882812
 40
0.4384765625
 40
0.439453125
 40
0.44140625
 40
0.443359375
 40
0.4453125
 40
0.44921875
 40
0.453125
 40
0.4609375
 40
0.46875
 40
0.4765625
 40
0.484375
 40
0.48828125
 40
0.4921875
 40
0.494140625
 40
0.49609375
 40
0.498046875
 40
0.4990234375
 40
0.4995117188
 40
0.5
 40
0.5004882812
 40
0.5009765625
 40
0.501953125
 40
0.50390625
 40
0.505859375
 40
0.5078125
 40
0.51171875
 40
0.515625
 40
0.5234375
 40
0.53125
 40
0.5390625
 40
0.546875
 40
0.55078125
 40
0.5546875
 40
0.556640625
 40
0.55859375
 40
0.560546875
 40
0.5615234375
 40
0.5620117188
 40
0.5625
 40
0.5629882812
 40
0.5634765625
 40
0.564453125
 40
0.56640625
 40
0.568359375
 40
0.5703125
 40
0.57421875
 40
0.578125
 40
0.5859375
 40
0.59375
 40
0.6015625
 40
0.609375
 40
0.61328125
 40
0.6171875
 40
0.619140625
 40
0.62109375
 40
0.623046875
 40
0.6240234375
 40
0.6245117188
 40
0.625
 40
0.6254882812
 40
0.6259765625
 40
0.626953125
 40
0.62890625
 40
0.630859375
 40
0.6328125
 40
0.63671875
 40
0.640625
 40
0.6484375
 40
0.65625
 40
0.6640625
 40
0.671875
 40
0.67578125
 40
0.6796875
 40
0.681640625
 40
0.68359375
 40
0.685546875
 40
0.6865234375
 40
0.6870117188
 40
0.6875
 40
0.6879882812
 40
0.6884765625
 40
0.689453125
 40
0.69140625
 40
0.693359375
 40
0.6953125
 40
0.69921875
 40
0.703125
 40
0.7109375
 40
0.71875
 40
0.7265625
 40
0.734375
 40
0.73828125
 40
0.7421875
 40
0.744140625
 40
0.74609375
 40
0.748046875
 40
0.7490234375
 40
0.7495117188
 40
0.75
 40
0.7504882812
 40
0.7509765625
 40
0.751953125
 40
0.75390625
 40
0.755859375
 40
0.7578125
 40
0.76171875
 40
0.765625
 40
0.7734375
 40
0.78125
 40
0.7890625
 40
0.796875
 40
0.80078125
 40
0.8046875
 40
0.806640625
 40
0.80859375
 40
0.810546875
 40
0.8115234375
 40
0.8120117188
 40
0.8125
 40
0.8129882812
 40
0.8134765625
 40
0.814453125
 40
0.81640625
 40
0.818359375
 40
0.8203125
 40
0.82421875
 40
0.828125
 40
0.8359375
 40
0.84375
 40
0.8515625
 40
0.859375
 40
0.86328125
 40
0.8671875
 40
0.869140625
 40
0.87109375
 40
0.873046875
 40
0.8740234375
 40
0.8745117188
 40
0.875
 40
0.8754882812
 40
0.8759765625
 40
0.876953125
 40
0.87890625
 40
0.880859375
 40
0.8828125
 40
0.88671875
 40
0.890625
 40
0.8984375
 40
0.90625
 40
0.9140625
 40
0.921875
 40
0.92578125
 40
0.9296875
 40
0.931640625
 40
0.93359375
 40
0.935546875
 40
0.9365234375
 40
0.9370117188
 40
0.9375
 40
0.9379882812
 40
0.9384765625
 40
0.939453125
 40
0.94140625
 40
0.943359375
 40
0.9453125
 40
0.94921875
 40
0.953125
 40
0.9609375
 40
0.96875
 40
0.9765625
 40
0.984375
 40
1.0
 40
1.0
 40
1.0
 40
1.0
 10
10.2751280929
 20
9.6827112864
 30
0.0
 10
10.2779423327
 20
9.6827920568
 30
0.0
 10
10.2821636924
 20
9.6829132122
 30
0.0
 10
10.2877921719
 20
9.6830747537
 30
0.0
 10
10.292013532
 20
9.6831959075
 30
0.0
 10
10.2962348904
 20
9.6833170699
 30
0.0
 10
10.2997526942
 20
9.6834180121
 30
0.0
 10
10.3025669257
 20
9.6834988251
 30
0.0
 10
10.3043258468
 20
9.6835491983
 30
0.0
 10
10.3057329232
 20
9.6835898058
 30
0.0
 10
10.3067883958
 20
9.6836194155
 30
0.0
 10
10.3076674307
 20
9.6836467813
 30
0.0
 10
10.3082837866
 20
9.6836606564
 30
0.0
 10
10.3086343794
 20
9.6836768307
 30
0.0
 10
10.308901861
 20
9.6836657334
 30
0.0
 10
10.309152
 20
9.6837434252
 30
0.0
 10
10.309491568
 20
9.6838160436
 30
0.0
 10
10.3100829934
 20
9.6839575557
 30
0.0
 10
10.3109293604
 20
9.6841521717
 30
0.0
 10
10.3119443701
 20
9.6843889401
 30
0.0
 10
10.3132979367
 20
9.6847035034
 30
0.0
 10
10.3149898195
 20
9.6850970937
 30
0.0
 10
10.3176968741
 20
9.6857266222
 30
0.0
 10
10.3210806777
 20
9.6865136075
 30
0.0
 10
10.3251412491
 20
9.6874579558
 30
0.0
 10
10.3292018156
 20
9.6884023207
 30
0.0
 10
10.3325856316
 20
9.6891892643
 30
0.0
 10
10.3352926616
 20
9.6898188762
 30
0.0
 10
10.336984607
 20
9.6902122546
 30
0.0
 10
10.3383380449
 20
9.6905272528
 30
0.0
 10
10.3393534476
 20
9.6907626925
 30
0.0
 10
10.3401985852
 20
9.6909614656
 30
0.0
 10
10.3407922053
 20
9.6910955566
 30
0.0
 10
10.3411282569
 20
9.6911800654
 30
0.0
 10
10.3413891968
 20
9.6912212339
 30
0.0
 10
10.3416161121
 20
9.6913473119
 30
0.0
 10
10.341930534
 20
9.6914857985
 30
0.0
 10
10.3424752427
 20
9.6917419493
 30
0.0
 10
10.3432562889
 20
9.6921006646
 30
0.0
 10
10.344192307
 20
9.692534211
 30
0.0
 10
10.3454407633
 20
9.6931111943
 30
0.0
 10
10.3470011857
 20
9.6938327927
 30
0.0
 10
10.3494979442
 20
9.6949871437
 30
0.0
 10
10.3526188638
 20
9.6964301537
 30
0.0
 10
10.3563639806
 20
9.6981617332
 30
0.0
 10
10.3601090899
 20
9.6998933288
 30
0.0
 10
10.3632300281
 20
9.7013362985
 30
0.0
 10
10.3657267494
 20
9.7024907301
 30
0.0
 10
10.3672872665
 20
9.7032121235
 30
0.0
 10
10.3685355284
 20
9.7037895276
 30
0.0
 10
10.3694721404
 20
9.7042217883
 30
0.0
 10
10.3702513285
 20
9.7045845262
 30
0.0
 10
10.3707993542
 20
9.7048334961
 30
0.0
 10
10.3711084614
 20
9.7049834883
 30
0.0
 10
10.3713517018
 20
9.7050742246
 30
0.0
 10
10.3715513275
 20
9.7052481304
 30
0.0
 10
10.3718327085
 20
9.7054509943
 30
0.0
 10
10.372318037
 20
9.7058195226
 30
0.0
 10
10.3730150691
 20
9.7063389251
 30
0.0
 10
10.3738499216
 20
9.7069652328
 30
0.0
 10
10.3749636122
 20
9.7077992533
 30
0.0
 10
10.3763555357
 20
9.7088421406
 30
0.0
 10
10.3785827195
 20
9.7105105581
 30
0.0
 10
10.3813666624
 20
9.7125961497
 30
0.0
 10
10.3847074114
 20
9.7150988281
 30
0.0
 10
10.3880481494
 20
9.7176015207
 30
0.0
 10
10.3908321196
 20
9.7196870771
 30
0.0
 10
10.3930592489
 20
9.7213555649
 30
0.0
 10
10.394451311
 20
9.7223982734
 30
0.0
 10
10.3955647173
 20
9.7232326609
 30
0.0
 10
10.3964004383
 20
9.7238578472
 30
0.0
 10
10.3970947528
 20
9.7243807585
 30
0.0
 10
10.3975849329
 20
9.7247430229
 30
0.0
 10
10.3978585404
 20
9.7249559232
 30
0.0
 10
10.3980820436
 20
9.7250990004
 30
0.0
 10
10.3982356041
 20
9.7253055235
 30
0.0
 10
10.3984647482
 20
9.725558757
 30
0.0
 10
10.3988543834
 20
9.7260122267
 30
0.0
 10
10.3994169479
 20
9.7266546498
 30
0.0
 10
10.4000894817
 20
9.727427865
 30
0.0
 10
10.4009870818
 20
9.7284580125
 30
0.0
 10
10.4021087777
 20
9.729745973
 30
0.0
 10
10.4039036612
 20
9.7318065554
 30
0.0
 10
10.4061472069
 20
9.7343823366
 30
0.0
 10
10.4088394887
 20
9.73747325
 30
0.0
 10
10.4115317566
 20
9.7405641747
 30
0.0
 10
10.4137753369
 20
9.7431399276
 30
0.0
 10
10.4155701512
 20
9.7452005668
 30
0.0
 10
10.416692023
 20
9.746488383
 30
0.0
 10
10.4175892622
 20
9.7475188266
 30
0.0
 10
10.4182628985
 20
9.7482911372
 30
0.0
 10
10.4188220134
 20
9.7489363905
 30
0.0
 10
10.4192178068
 20
9.7493848077
 30
0.0
 10
10.419437084
 20
9.7496461366
 30
0.0
 10
10.4196209522
 20
9.7498277932
 30
0.0
 10
10.4197306245
 20
9.7500642651
 30
0.0
 10
10.4199027346
 20
9.7503604407
 30
0.0
 10
10.420191869
 20
9.7508876566
 30
0.0
 10
10.4206112224
 20
9.7516361647
 30
0.0
 10
10.4211117481
 20
9.7525363679
 30
0.0
 10
10.4217800581
 20
9.7537359426
 30
0.0
 10
10.4226151229
 20
9.7552356494
 30
0.0
 10
10.4239514071
 20
9.757635047
 30
0.0
 10
10.4256216999
 20
9.7606343399
 30
0.0
 10
10.4276260801
 20
9.7642334708
 30
0.0
 10
10.4296304452
 20
9.7678326107
 30
0.0
 10
10.4313007756
 20
9.7708318809
 30
0.0
 10
10.4326369846
 20
9.773231324
 30
0.0
 10
10.4334722405
 20
9.774730915
 30
0.0
 10
10.4341401584
 20
9.7759307272
 30
0.0
 10
10.4346418821
 20
9.776830205
 30
0.0
 10
10.435057487
 20
9.7775809829
 30
0.0
 10
10.4353533131
 20
9.7781041467
 30
0.0
 10
10.4355147015
 20
9.7784068148
 30
0.0
 10
10.4356573073
 20
9.778623344
 30
0.0
 10
10.4357174826
 20
9.7788799022
 30
0.0
 10
10.435826469
 20
9.7792080173
 30
0.0
 10
10.4360037988
 20
9.779788724
 30
0.0
 10
10.4362641309
 20
9.780614904
 30
0.0
 10
10.4365735316
 20
9.7816077758
 30
0.0
 10
10.4369871129
 20
9.7829310964
 30
0.0
 10
10.437503731
 20
9.7845854212
 30
0.0
 10
10.4383305204
 20
9.7872322436
 30
0.0
 10
10.4393639379
 20
9.7905408051
 30
0.0
 10
10.4406040706
 20
9.7945110638
 30
0.0
 10
10.4418441871
 20
9.7984813294
 30
0.0
 10
10.4428776454
 20
9.8017898736
 30
0.0
 10
10.4437043532
 20
9.8044367305
 30
0.0
 10
10.4442211786
 20
9.8060909676
 30
0.0
 10
10.4446343344
 20
9.8074144683
 30
0.0
 10
10.444945035
 20
9.8084067898
 30
0.0
 10
10.4452013
 20
9.8092346913
 30
0.0
 10
10.4453858903
 20
9.809812325
 30
0.0
 10
10.4454832435
 20
9.8101453638
 30
0.0
 10
10.4455791521
 20
9.8103867978
 30
0.0
 10
10.4455875497
 20
9.8106601313
 30
0.0
 10
10.4456292712
 20
9.8110134491
 30
0.0
 10
10.4456880618
 20
9.8116369395
 30
0.0
 10
10.4457794839
 20
9.8125249296
 30
0.0
 10
10.4458860078
 20
9.8135916779
 30
0.0
 10
10.4460291513
 20
9.8150136037
 30
0.0
 10
10.4462077
 20
9.8167911498
 30
0.0
 10
10.4464935908
 20
9.819635146
 30
0.0
 10
10.4468508807
 20
9.8231901677
 30
0.0
 10
10.4472796623
 20
9.8274561825
 30
0.0
 10
10.4477084267
 20
9.8317222002
 30
0.0
 10
10.4480657595
 20
9.8352772148
 30
0.0
 10
10.4483515646
 20
9.8381212254
 30
0.0
 10
10.4485303309
 20
9.8398987346
 30
0.0
 10
10.4486730277
 20
9.841320736
 30
0.0
 10
10.4487809162
 20
9.8423872535
 30
0.0
 10
10.4488680688
 20
9.8432759659
 30
0.0
 10
10.4489344813
 20
9.8438981669
 30
0.0
 10
10.4489639906
 20
9.8442535505
 30
0.0
 10
10.4490099003
 20
9.8445205384
 30
0.0
 10
10.4489649197
 20
9.8447858056
 30
0.0
 10
10.4489366492
 20
9.8451400955
 30
0.0
 10
10.4488724044
 20
9.845759823
 30
0.0
 10
10.4487883488
 20
9.8466452942
 30
0.0
 10
10.4486841766
 20
9.8477077972
 30
0.0
 10
10.4485464349
 20
9.8491244896
 30
0.0
 10
10.4483738624
 20
9.8508953476
 30
0.0
 10
10.4480979673
 20
9.8537287247
 30
0.0
 10
10.4477530223
 20
9.8572704445
 30
0.0
 10
10.447339123
 20
9.8615205092
 30
0.0
 10
10.4469252066
 20
9.8657705726
 30
0.0
 10
10.4465803043
 20
9.8693122955
 30
0.0
 10
10.4463043237
 20
9.8721456663
 30
0.0
 10
10.4461319689
 20
9.8739165402
 30
0.0
 10
10.4459937803
 20
9.8753332001
 30
0.0
 10
10.4458909732
 20
9.8763958024
 30
0.0
 10
10.4458026463
 20
9.8772809628
 30
0.0
 10
10.4457460267
 20
9.8779012453
 30
0.0
 10
10.4457055387
 20
9.8782546459
 30
0.0
 10
10.4456980861
 20
9.8785226443
 30
0.0
 10
10.4456030471
 20
9.8787793743
 30
0.0
 10
10.4455068795
 20
9.8791256115
 30
0.0
 10
10.445324352
 20
9.8797296953
 30
0.0
 10
10.4450710402
 20
9.8805936295
 30
0.0
 10
10.4447638807
 20
9.8816299408
 30
0.0
 10
10.4443554472
 20
9.8830118323
 30
0.0
 10
10.4438445245
 20
9.8847391477
 30
0.0
 10
10.443027261
 20
9.8875028798
 30
0.0
 10
10.4420056082
 20
9.8909575352
 30
0.0
 10
10.4407796583
 20
9.8951031266
 30
0.0
 10
10.4395536921
 20
9.8992487141
 30
0.0
 10
10.4385320801
 20
9.9027033791
 30
0.0
 10
10.437714735
 20
9.9054670922
 30
0.0
 10
10.4372040198
 20
9.9071944558
 30
0.0
 10
10.4367951604
 20
9.9085762483
 30
0.0
 10
10.4364893023
 20
9.9096128622
 30
0.0
 10
10.4362319187
 20
9.9104758495
 30
0.0
 10
10.43605666
 20
9.9110816238
 30
0.0
 10
10.4359488459
 20
9.9114251524
 30
0.0
 10
10.4358895811
 20
9.9116902023
 30
0.0
 10
10.4357477666
 20
9.9119269525
 30
0.0
 10
10.4355874747
 20
9.9122524906
 30
0.0
 10
10.4352935482
 20
9.9128175832
 30
0.0
 10
10.4348806672
 20
9.9136272628
 30
0.0
 10
10.4343822077
 20
9.9145978492
 30
0.0
 10
10.4337186437
 20
9.9158923238
 30
0.0
 10
10.4328888296
 20
9.917510294
 30
0.0
 10
10.4315613279
 20
9.9200991151
 30
0.0
 10
10.4299018813
 20
9.9233351177
 30
0.0
 10
10.4279105771
 20
9.9272183319
 30
0.0
 10
10.4259192573
 20
9.9311015397
 30
0.0
 10
10.4242598498
 20
9.9343375582
 30
0.0
 10
10.42293227
 20
9.9369263475
 30
0.0
 10
10.4221026544
 20
9.9385443986
 30
0.0
 10
10.421438683
 20
9.9398387071
 30
0.0
 10
10.420941468
 20
9.940809801
 30
0.0
 10
10.4205246933
 20
9.9416178926
 30
0.0
 10
10.4202377177
 20
9.9421858201
 30
0.0
 10
10.4200662888
 20
9.9425068159
 30
0.0
 10
10.4199586837
 20
9.9427575187
 30
0.0
 10
10.4197709338
 20
9.942970165
 30
0.0
 10
10.4195485561
 20
9.9432669679
 30
0.0
 10
10.4191463701
 20
9.943780188
 30
0.0
 10
10.4185786283
 20
9.9445165933
 30
0.0
 10
10.4178944234
 20
9.9453988955
 30
0.0
 10
10.4169831682
 20
9.9465757818
 30
0.0
 10
10.4158437507
 20
9.9480467243
 30
0.0
 10
10.4140208775
 20
9.9504003247
 30
0.0
 10
10.4117422188
 20
9.9533422932
 30
0.0
 10
10.4090078586
 20
9.9568726706
 30
0.0
 10
10.406273485
 20
9.9604030381
 30
0.0
 10
10.4039948596
 20
9.9633450315
 30
0.0
 10
10.4021719199
 20
9.9656985821
 30
0.0
 10
10.4010326716
 20
9.9671696513
 30
0.0
 10
10.400121069
 20
9.9683462775
 30
0.0
 10
10.3994379254
 20
9.9692293747
 30
0.0
 10
10.3988668632
 20
9.9699632925
 30
0.0
 10
10.3984706046
 20
9.9704809532
 30
0.0
 10
10.3982387296
 20
9.9707706413
 30
0.0
 10
10.3980801524
 20
9.9710051419
 30
0.0
 10
10.3978629798
 20
9.9711737633
 30
0.0
 10
10.3975938551
 20
9.9714215712
 30
0.0
 10
10.3971133641
 20
9.9718445286
 30
0.0
 10
10.3964319271
 20
9.972454351
 30
0.0
 10
10.3956120715
 20
9.9731837419
 30
0.0
 10
10.3945196752
 20
9.9741570999
 30
0.0
 10
10.3931539249
 20
9.975373511
 30
0.0
 10
10.3909688669
 20
9.9773199288
 30
0.0
 10
10.3882374952
 20
9.9797528957
 30
0.0
 10
10.3849598715
 20
9.9826724815
 30
0.0
 10
10.3816822373
 20
9.9855920541
 30
0.0
 10
10.3789508916
 20
9.9880250539
 30
0.0
 10
10.3767657816
 20
9.9899714061
 30
0.0
 10
10.3754001634
 20
9.9911879838
 30
0.0
 10
10.374307496
 20
9.9921609998
 30
0.0
 10
10.3734884686
 20
9.9928914358
 30
0.0
 10
10.3728044405
 20
9.9934979882
 30
0.0
 10
10.372328575
 20
9.993926783
 30
0.0
 10
10.3720520391
 20
9.994165238
 30
0.0
 10
10.3718576313
 20
9.9943625885
 30
0.0
 10
10.3716135536
 20
9.9944891876
 30
0.0
 10
10.371305442
 20
9.9946826653
 30
0.0
 10
10.3707581746
 20
9.9950097529
 30
0.0
 10
10.3699805843
 20
9.9954830323
 30
0.0
 10
10.3690456694
 20
9.9960483945
 30
0.0
 10
10.3677997473
 20
9.9968031096
 30
0.0
 10
10.3662421286
 20
9.9977461956
 30
0.0
 10
10.3637500594
 20
9.9992553054
 30
0.0
 10
10.3606349312
 20
10.0011416331
 30
0.0
 10
10.3568967962
 20
10.0034052538
 30
0.0
 10
10.353158653
 20
10.00566886
 30
0.0
 10
10.3500435451
 20
10.0075552239
 30
0.0
 10
10.3475514356
 20
10.0090642613
 30
0.0
 10
10.3459939193
 20
10.0100075313
 30
0.0
 10
10.3447477869
 20
10.0107618687
 30
0.0
 10
10.3438135144
 20
10.0113283845
 30
0.0
 10
10.3430339142
 20
10.0117980549
 30
0.0
 10
10.3424902348
 20
10.0121315853
 30
0.0
 10
10.3421763743
 20
10.0123147399
 30
0.0
 10
10.3419499554
 20
10.0124730479
 30
0.0
 10
10.341689224
 20
10.012551305
 30
0.0
 10
10.3413535507
 20
10.0126835705
 30
0.0
 10
10.3407605461
 20
10.0129020253
 30
0.0
 10
10.339916312
 20
10.0132209052
 30
0.0
 10
10.3389019832
 20
10.0136006498
 30
0.0
 10
10.3375499807
 20
10.0141079928
 30
0.0
 10
10.3358598283
 20
10.0147418234
 30
0.0
 10
10.3331556679
 20
10.0157561469
 30
0.0
 10
10.3297754386
 20
10.0170239841
 30
0.0
 10
10.3257191764
 20
10.0185454196
 30
0.0
 10
10.3216629085
 20
10.0200668392
 30
0.0
 10
10.3182826936
 20
10.0213347162
 30
0.0
 10
10.3155785044
 20
10.0223489602
 30
0.0
 10
10.3138884253
 20
10.022982993
 30
0.0
 10
10.3125362722
 20
10.0234899209
 30
0.0
 10
10.3115224035
 20
10.0238709335
 30
0.0
 10
10.31067673
 20
10.0241858461
 30
0.0
 10
10.3100862949
 20
10.0244113833
 30
0.0
 10
10.3097465046
 20
10.0245323011
 30
0.0
 10
10.3094984194
 20
10.0246454144
 30
0.0
 10
10.3092245033
 20
10.0246728081
 30
0.0
 10
10.308868292
 20
10.024739233
 30
0.0
 10
10.3082407242
 20
10.0248415456
 30
0.0
 10
10.3073463935
 20
10.0249949897
 30
0.0
 10
10.3062722573
 20
10.0251760052
 30
0.0
 10
10.3048404038
 20
10.0254184481
 30
0.0
 10
10.3030504745
 20
10.0257211288
 30
0.0
 10
10.3001866505
 20
10.0262056264
 30
0.0
 10
10.296606849
 20
10.0268111768
 30
0.0
 10
10.2923110964
 20
10.027537868
 30
0.0
 10
10.2880153413
 20
10.028264551
 30
0.0
 10
10.2822876687
 20
10.0292334645
 30
0.0
 10
10.277991914
 20
10.029960149
 30
0.0
 10
10.2751280777
 20
10.0304446055
 30
0.0
  0
SPLINE
  5
36B
100
AcDbEntity
  8
0
100
AcDbSpline
 62
4
  6
CONTINUOUS
 70
0
 71
3
 72
313
 73
309
 74
0
 42
0.0000001
 43
0.0000001
 44
0.0000000001
 40
0.0
 40
0.0
 40
0.0
 40
0.0
 40
0.015625
 40
0.0234375
 40
0.03125
 40
0.0390625
 40
0.046875
 40
0.05078125
 40
0.0546875
 40
0.056640625
 40
0.05859375
 40
0.060546875
 40
0.0615234375
 40
0.0620117188
 40
0.0625
 40
0.0629882812
 40
0.0634765625
 40
0.064453125
 40
0.06640625
 40
0.068359375
 40
0.0703125
 40
0.07421875
 40
0.078125
 40
0.0859375
 40
0.09375
 40
0.1015625
 40
0.109375
 40
0.11328125
 40
0.1171875
 40
0.119140625
 40
0.12109375
 40
0.123046875
 40
0.1240234375
 40
0.1245117188
 40
0.125
 40
0.1254882812
 40
0.1259765625
 40
0.126953125
 40
0.12890625
 40
0.130859375
 40
0.1328125
 40
0.13671875
 40
0.140625
 40
0.1484375
 40
0.15625
 40
0.1640625
 40
0.171875
 40
0.17578125
 40
0.1796875
 40
0.181640625
 40
0.18359375
 40
0.185546875
 40
0.1865234375
 40
0.1870117188
 40
0.1875
 40
0.1879882812
 40
0.1884765625
 40
0.189453125
 40
0.19140625
 40
0.193359375
 40
0.1953125
 40
0.19921875
 40
0.203125
 40
0.2109375
 40
0.21875
 40
0.2265625
 40
0.234375
 40
0.23828125
 40
0.2421875
 40
0.244140625
 40
0.24609375
 40
0.248046875
 40
0.2490234375
 40
0.2495117188
 40
0.25
 40
0.2504882812
 40
0.2509765625
 40
0.251953125
 40
0.25390625
 40
0.255859375
 40
0.2578125
 40
0.26171875
 40
0.265625
 40
0.2734375
 40
0.28125
 40
0.2890625
 40
0.296875
 40
0.30078125
 40
0.3046875
 40
0.306640625
 40
0.30859375
 40
0.310546875
 40
0.3115234375
 40
0.3120117188
 40
0.3125
 40
0.3129882812
 40
0.3134765625
 40
0.314453125
 40
0.31640625
 40
0.318359375
 40
0.3203125
 40
0.32421875
 40
0.328125
 40
0.3359375
 40
0.34375
 40
0.3515625
 40
0.359375
 40
0.36328125
 40
0.3671875
 40
0.369140625
 40
0.37109375
 40
0.373046875
 40
0.3740234375
 40
0.3745117188
 40
0.375
 40
0.3754882812
 40
0.3759765625
 40
0.376953125
 40
0.37890625
 40
0.380859375
 40
0.3828125
 40
0.38671875
 40
0.390625
 40
0.3984375
 40
0.40625
 40
0.4140625
 40
0.421875
 40
0.42578125
 40
0.4296875
 40
0.431640625
 40
0.43359375
 40
0.435546875
 40
0.4365234375
 40
0.4370117188
 40
0.4375
 40
0.4379882812
 40
0.4384765625
 40
0.439453125
 40
0.44140625
 40
0.443359375
 40
0.4453125
 40
0.44921875
 40
0.453125
 40
0.4609375
 40
0.46875
 40
0.4765625
 40
0.484375
 40
0.48828125
 40
0.4921875
 40
0.494140625
 40
0.49609375
 40
0.498046875
 40
0.4990234375
 40
0.4995117188
 40
0.5
 40
0.5004882812
 40
0.5009765625
 40
0.501953125
 40
0.50390625
 40
0.505859375
 40
0.5078125
 40
0.51171875
 40
0.515625
 40
0.5234375
 40
0.53125
 40
0.5390625
 40
0.546875
 40
0.55078125
 40
0.5546875
 40
0.556640625
 40
0.55859375
 40
0.560546875
 40
0.5615234375
 40
0.5620117188
 40
0.5625
 40
0.5629882812
 40
0.5634765625
 40
0.564453125
 40
0.56640625
 40
0.568359375
 40
0.5703125
 40
0.57421875
 40
0.578125
 40
0.5859375
 40
0.59375
 40
0.6015625
 40
0.609375
 40
0.61328125
 40
0.6171875
 40
0.619140625
 40
0.62109375
 40
0.623046875
 40
0.6240234375
 40
0.6245117188
 40
0.625
 40
0.6254882812
 40
0.6259765625
 40
0.626953125
 40
0.62890625
 40
0.630859375
 40
0.6328125
 40
0.63671875
 40
0.640625
 40
0.6484375
 40
0.65625
 40
0.6640625
 40
0.671875
 40
0.67578125
 40
0.6796875
 40
0.681640625
 40
0.68359375
 40
0.685546875
 40
0.6865234375
 40
0.6870117188
 40
0.6875
 40
0.6879882812
 40
0.6884765625
 40
0.689453125
 40
0.69140625
 40
0.693359375
 40
0.6953125
 40
0.69921875
 40
0.703125
 40
0.7109375
 40
0.71875
 40
0.7265625
 40
0.734375
 40
0.73828125
 40
0.7421875
 40
0.744140625
 40
0.74609375
 40
0.748046875
 40
0.7490234375
 40
0.7495117188
 40
0.75
 40
0.7504882812
 40
0.7509765625
 40
0.751953125
 40
0.75390625
 40
0.755859375
 40
0.7578125
 40
0.76171875
 40
0.765625
 40
0.7734375
 40
0.78125
 40
0.7890625
 40
0.796875
 40
0.80078125
 40
0.8046875
 40
0.806640625
 40
0.80859375
 40
0.810546875
 40
0.8115234375
 40
0.8120117188
 40
0.8125
 40
0.8129882812
 40
0.8134765625
 40
0.814453125
 40
0.81640625
 40
0.818359375
 40
0.8203125
 40
0.82421875
 40
0.828125
 40
0.8359375
 40
0.84375
 40
0.8515625
 40
0.859375
 40
0.86328125
 40
0.8671875
 40
0.869140625
 40
0.87109375
 40
0.873046875
 40
0.8740234375
 40
0.8745117188
 40
0.875
 40
0.8754882812
 40
0.8759765625
 40
0.876953125
 40
0.87890625
 40
0.880859375
 40
0.8828125
 40
0.88671875
 40
0.890625
 40
0.8984375
 40
0.90625
 40
0.9140625
 40
0.921875
 40
0.92578125
 40
0.9296875
 40
0.931640625
 40
0.93359375
 40
0.935546875
 40
0.9365234375
 40
0.9370117188
 40
0.9375
 40
0.9379882812
 40
0.9384765625
 40
0.939453125
 40
0.94140625
 40
0.943359375
 40
0.9453125
 40
0.94921875
 40
0.953125
 40
0.9609375
 40
0.96875
 40
0.9765625
 40
0.984375
 40
1.0
 40
1.0
 40
1.0
 40
1.0
 10
10.2751280929
 20
10.0304446044
 30
0.0
 10
10.272313853
 20
10.030363834
 30
0.0
 10
10.2680924933
 20
10.0302426786
 30
0.0
 10
10.2624640138
 20
10.0300811371
 30
0.0
 10
10.2582426537
 20
10.0299599833
 30
0.0
 10
10.2540212953
 20
10.0298388209
 30
0.0
 10
10.2505034915
 20
10.0297378787
 30
0.0
 10
10.24768926
 20
10.0296570657
 30
0.0
 10
10.2459303389
 20
10.0296066925
 30
0.0
 10
10.2445232625
 20
10.029566085
 30
0.0
 10
10.2434677899
 20
10.0295364753
 30
0.0
 10
10.242588755
 20
10.0295091096
 30
0.0
 10
10.2419723991
 20
10.0294952344
 30
0.0
 10
10.2416218063
 20
10.0294790601
 30
0.0
 10
10.2413543247
 20
10.0294901574
 30
0.0
 10
10.2411041857
 20
10.0294124656
 30
0.0
 10
10.2407646178
 20
10.0293398472
 30
0.0
 10
10.2401731923
 20
10.0291983351
 30
0.0
 10
10.2393268253
 20
10.0290037191
 30
0.0
 10
10.2383118156
 20
10.0287669507
 30
0.0
 10
10.236958249
 20
10.0284523874
 30
0.0
 10
10.2352663663
 20
10.0280587971
 30
0.0
 10
10.2325593116
 20
10.0274292686
 30
0.0
 10
10.229175508
 20
10.0266422833
 30
0.0
 10
10.2251149366
 20
10.025697935
 30
0.0
 10
10.2210543701
 20
10.0247535701
 30
0.0
 10
10.2176705541
 20
10.0239666265
 30
0.0
 10
10.2149635242
 20
10.0233370146
 30
0.0
 10
10.2132715787
 20
10.0229436362
 30
0.0
 10
10.2119181408
 20
10.022628638
 30
0.0
 10
10.2109027381
 20
10.0223931983
 30
0.0
 10
10.2100576005
 20
10.0221944252
 30
0.0
 10
10.2094639804
 20
10.0220603342
 30
0.0
 10
10.2091279288
 20
10.0219758254
 30
0.0
 10
10.2088669889
 20
10.0219346569
 30
0.0
 10
10.2086400736
 20
10.0218085789
 30
0.0
 10
10.2083256517
 20
10.0216700923
 30
0.0
 10
10.207780943
 20
10.0214139415
 30
0.0
 10
10.2069998968
 20
10.0210552262
 30
0.0
 10
10.2060638787
 20
10.0206216798
 30
0.0
 10
10.2048154224
 20
10.0200446965
 30
0.0
 10
10.203255
 20
10.0193230981
 30
0.0
 10
10.2007582415
 20
10.0181687471
 30
0.0
 10
10.1976373219
 20
10.0167257371
 30
0.0
 10
10.1938922051
 20
10.0149941576
 30
0.0
 10
10.1901470958
 20
10.013262562
 30
0.0
 10
10.1870261576
 20
10.0118195923
 30
0.0
 10
10.1845294363
 20
10.0106651607
 30
0.0
 10
10.1829689192
 20
10.0099437673
 30
0.0
 10
10.1817206573
 20
10.0093663632
 30
0.0
 10
10.1807840454
 20
10.0089341025
 30
0.0
 10
10.1800048572
 20
10.0085713646
 30
0.0
 10
10.1794568315
 20
10.0083223947
 30
0.0
 10
10.1791477243
 20
10.0081724025
 30
0.0
 10
10.178904484
 20
10.0080816662
 30
0.0
 10
10.1787048582
 20
10.0079077604
 30
0.0
 10
10.1784234773
 20
10.0077048965
 30
0.0
 10
10.1779381488
 20
10.0073363682
 30
0.0
 10
10.1772411166
 20
10.0068169657
 30
0.0
 10
10.1764062641
 20
10.006190658
 30
0.0
 10
10.1752925735
 20
10.0053566375
 30
0.0
 10
10.17390065
 20
10.0043137502
 30
0.0
 10
10.1716734662
 20
10.0026453327
 30
0.0
 10
10.1688895233
 20
10.0005597412
 30
0.0
 10
10.1655487743
 20
9.9980570627
 30
0.0
 10
10.1622080363
 20
9.9955543701
 30
0.0
 10
10.1594240661
 20
9.9934688137
 30
0.0
 10
10.1571969368
 20
9.9918003259
 30
0.0
 10
10.1558048747
 20
9.9907576174
 30
0.0
 10
10.1546914685
 20
9.9899232299
 30
0.0
 10
10.1538557474
 20
9.9892980436
 30
0.0
 10
10.1531614329
 20
9.9887751323
 30
0.0
 10
10.1526712529
 20
9.9884128679
 30
0.0
 10
10.1523976453
 20
9.9881999676
 30
0.0
 10
10.1521741421
 20
9.9880568904
 30
0.0
 10
10.1520205816
 20
9.9878503673
 30
0.0
 10
10.1517914376
 20
9.9875971338
 30
0.0
 10
10.1514018023
 20
9.9871436641
 30
0.0
 10
10.1508392378
 20
9.986501241
 30
0.0
 10
10.1501667041
 20
9.9857280258
 30
0.0
 10
10.149269104
 20
9.9846978783
 30
0.0
 10
10.148147408
 20
9.9834099178
 30
0.0
 10
10.1463525245
 20
9.9813493354
 30
0.0
 10
10.1441089788
 20
9.9787735542
 30
0.0
 10
10.141416697
 20
9.9756826408
 30
0.0
 10
10.1387244291
 20
9.9725917161
 30
0.0
 10
10.1364808489
 20
9.9700159632
 30
0.0
 10
10.1346860345
 20
9.967955324
 30
0.0
 10
10.1335641627
 20
9.9666675079
 30
0.0
 10
10.1326669235
 20
9.9656370642
 30
0.0
 10
10.1319932872
 20
9.9648647537
 30
0.0
 10
10.1314341723
 20
9.9642195003
 30
0.0
 10
10.131038379
 20
9.9637710831
 30
0.0
 10
10.1308191017
 20
9.9635097542
 30
0.0
 10
10.1306352335
 20
9.9633280976
 30
0.0
 10
10.1305255612
 20
9.9630916257
 30
0.0
 10
10.1303534512
 20
9.9627954501
 30
0.0
 10
10.1300643167
 20
9.9622682342
 30
0.0
 10
10.1296449633
 20
9.9615197261
 30
0.0
 10
10.1291444377
 20
9.9606195229
 30
0.0
 10
10.1284761276
 20
9.9594199482
 30
0.0
 10
10.1276410628
 20
9.9579202414
 30
0.0
 10
10.1263047786
 20
9.9555208438
 30
0.0
 10
10.1246344858
 20
9.9525215509
 30
0.0
 10
10.1226301056
 20
9.94892242
 30
0.0
 10
10.1206257406
 20
9.9453232801
 30
0.0
 10
10.1189554101
 20
9.9423240099
 30
0.0
 10
10.1176192011
 20
9.9399245668
 30
0.0
 10
10.1167839452
 20
9.9384249758
 30
0.0
 10
10.1161160273
 20
9.9372251636
 30
0.0
 10
10.1156143036
 20
9.9363256858
 30
0.0
 10
10.1151986987
 20
9.9355749079
 30
0.0
 10
10.1149028726
 20
9.9350517441
 30
0.0
 10
10.1147414842
 20
9.934749076
 30
0.0
 10
10.1145988784
 20
9.9345325468
 30
0.0
 10
10.1145387031
 20
9.9342759886
 30
0.0
 10
10.1144297167
 20
9.9339478735
 30
0.0
 10
10.1142523869
 20
9.9333671668
 30
0.0
 10
10.1139920548
 20
9.9325409868
 30
0.0
 10
10.1136826541
 20
9.931548115
 30
0.0
 10
10.1132690728
 20
9.9302247944
 30
0.0
 10
10.1127524547
 20
9.9285704696
 30
0.0
 10
10.1119256653
 20
9.9259236472
 30
0.0
 10
10.1108922479
 20
9.9226150857
 30
0.0
 10
10.1096521151
 20
9.918644827
 30
0.0
 10
10.1084119986
 20
9.9146745614
 30
0.0
 10
10.1073785403
 20
9.9113660172
 30
0.0
 10
10.1065518325
 20
9.9087191603
 30
0.0
 10
10.1060350071
 20
9.9070649232
 30
0.0
 10
10.1056218513
 20
9.9057414225
 30
0.0
 10
10.1053111507
 20
9.904749101
 30
0.0
 10
10.1050548857
 20
9.9039211995
 30
0.0
 10
10.1048702954
 20
9.9033435658
 30
0.0
 10
10.1047729422
 20
9.903010527
 30
0.0
 10
10.1046770336
 20
9.902769093
 30
0.0
 10
10.1046686361
 20
9.9024957595
 30
0.0
 10
10.1046269145
 20
9.9021424417
 30
0.0
 10
10.1045681239
 20
9.9015189513
 30
0.0
 10
10.1044767018
 20
9.9006309612
 30
0.0
 10
10.1043701779
 20
9.8995642129
 30
0.0
 10
10.1042270344
 20
9.8981422871
 30
0.0
 10
10.1040484857
 20
9.896364741
 30
0.0
 10
10.1037625949
 20
9.8935207448
 30
0.0
 10
10.103405305
 20
9.8899657231
 30
0.0
 10
10.1029765234
 20
9.8856997083
 30
0.0
 10
10.102547759
 20
9.8814336906
 30
0.0
 10
10.1021904263
 20
9.8778786761
 30
0.0
 10
10.1019046211
 20
9.8750346654
 30
0.0
 10
10.1017258548
 20
9.8732571562
 30
0.0
 10
10.101583158
 20
9.8718351548
 30
0.0
 10
10.1014752695
 20
9.8707686373
 30
0.0
 10
10.101388117
 20
9.8698799249
 30
0.0
 10
10.1013217044
 20
9.8692577239
 30
0.0
 10
10.1012921951
 20
9.8689023403
 30
0.0
 10
10.1012462855
 20
9.8686353524
 30
0.0
 10
10.101291266
 20
9.8683700852
 30
0.0
 10
10.1013195366
 20
9.8680157953
 30
0.0
 10
10.1013837813
 20
9.8673960678
 30
0.0
 10
10.1014678369
 20
9.8665105966
 30
0.0
 10
10.1015720091
 20
9.8654480936
 30
0.0
 10
10.1017097508
 20
9.8640314012
 30
0.0
 10
10.1018823234
 20
9.8622605432
 30
0.0
 10
10.1021582184
 20
9.8594271661
 30
0.0
 10
10.1025031634
 20
9.8558854463
 30
0.0
 10
10.1029170627
 20
9.8516353816
 30
0.0
 10
10.1033309791
 20
9.8473853182
 30
0.0
 10
10.1036758814
 20
9.8438435953
 30
0.0
 10
10.103951862
 20
9.8410102245
 30
0.0
 10
10.1041242168
 20
9.8392393506
 30
0.0
 10
10.1042624055
 20
9.8378226907
 30
0.0
 10
10.1043652125
 20
9.8367600884
 30
0.0
 10
10.1044535394
 20
9.835874928
 30
0.0
 10
10.104510159
 20
9.8352546455
 30
0.0
 10
10.104550647
 20
9.8349012449
 30
0.0
 10
10.1045580996
 20
9.8346332465
 30
0.0
 10
10.1046531386
 20
9.8343765165
 30
0.0
 10
10.1047493062
 20
9.8340302793
 30
0.0
 10
10.1049318337
 20
9.8334261955
 30
0.0
 10
10.1051851455
 20
9.8325622613
 30
0.0
 10
10.105492305
 20
9.83152595
 30
0.0
 10
10.1059007385
 20
9.8301440585
 30
0.0
 10
10.1064116612
 20
9.8284167431
 30
0.0
 10
10.1072289247
 20
9.825653011
 30
0.0
 10
10.1082505775
 20
9.8221983556
 30
0.0
 10
10.1094765274
 20
9.8180527642
 30
0.0
 10
10.1107024936
 20
9.8139071767
 30
0.0
 10
10.1117241056
 20
9.8104525117
 30
0.0
 10
10.1125414507
 20
9.8076887986
 30
0.0
 10
10.1130521659
 20
9.805961435
 30
0.0
 10
10.1134610253
 20
9.8045796425
 30
0.0
 10
10.1137668834
 20
9.8035430286
 30
0.0
 10
10.114024267
 20
9.8026800413
 30
0.0
 10
10.1141995257
 20
9.802074267
 30
0.0
 10
10.1143073398
 20
9.8017307384
 30
0.0
 10
10.1143666046
 20
9.8014656885
 30
0.0
 10
10.1145084192
 20
9.8012289383
 30
0.0
 10
10.114668711
 20
9.8009034002
 30
0.0
 10
10.1149626375
 20
9.8003383076
 30
0.0
 10
10.1153755185
 20
9.799528628
 30
0.0
 10
10.115873978
 20
9.7985580416
 30
0.0
 10
10.116537542
 20
9.797263567
 30
0.0
 10
10.1173673561
 20
9.7956455968
 30
0.0
 10
10.1186948578
 20
9.7930567757
 30
0.0
 10
10.1203543044
 20
9.7898207731
 30
0.0
 10
10.1223456086
 20
9.7859375589
 30
0.0
 10
10.1243369284
 20
9.7820543511
 30
0.0
 10
10.1259963359
 20
9.7788183326
 30
0.0
 10
10.1273239157
 20
9.7762295433
 30
0.0
 10
10.1281535313
 20
9.7746114922
 30
0.0
 10
10.1288175027
 20
9.7733171837
 30
0.0
 10
10.1293147177
 20
9.7723460898
 30
0.0
 10
10.1297314924
 20
9.7715379982
 30
0.0
 10
10.130018468
 20
9.7709700707
 30
0.0
 10
10.1301898969
 20
9.7706490749
 30
0.0
 10
10.130297502
 20
9.7703983721
 30
0.0
 10
10.1304852519
 20
9.7701857258
 30
0.0
 10
10.1307076296
 20
9.7698889229
 30
0.0
 10
10.1311098156
 20
9.7693757028
 30
0.0
 10
10.1316775574
 20
9.7686392975
 30
0.0
 10
10.1323617624
 20
9.7677569953
 30
0.0
 10
10.1332730175
 20
9.766580109
 30
0.0
 10
10.1344124351
 20
9.7651091665
 30
0.0
 10
10.1362353082
 20
9.7627555661
 30
0.0
 10
10.1385139669
 20
9.7598135976
 30
0.0
 10
10.1412483271
 20
9.7562832202
 30
0.0
 10
10.1439827007
 20
9.7527528527
 30
0.0
 10
10.1462613261
 20
9.7498108593
 30
0.0
 10
10.1480842658
 20
9.7474573087
 30
0.0
 10
10.1492235141
 20
9.7459862395
 30
0.0
 10
10.1501351167
 20
9.7448096133
 30
0.0
 10
10.1508182603
 20
9.7439265161
 30
0.0
 10
10.1513893225
 20
9.7431925983
 30
0.0
 10
10.1517855811
 20
9.7426749376
 30
0.0
 10
10.1520174561
 20
9.7423852496
 30
0.0
 10
10.1521760333
 20
9.7421507489
 30
0.0
 10
10.1523932059
 20
9.7419821275
 30
0.0
 10
10.1526623306
 20
9.7417343196
 30
0.0
 10
10.1531428216
 20
9.7413113622
 30
0.0
 10
10.1538242587
 20
9.7407015398
 30
0.0
 10
10.1546441142
 20
9.7399721489
 30
0.0
 10
10.1557365105
 20
9.7389987909
 30
0.0
 10
10.1571022608
 20
9.7377823798
 30
0.0
 10
10.1592873188
 20
9.735835962
 30
0.0
 10
10.1620186905
 20
9.7334029951
 30
0.0
 10
10.1652963143
 20
9.7304834093
 30
0.0
 10
10.1685739484
 20
9.7275638367
 30
0.0
 10
10.1713052941
 20
9.7251308369
 30
0.0
 10
10.1734904041
 20
9.7231844847
 30
0.0
 10
10.1748560223
 20
9.721967907
 30
0.0
 10
10.1759486897
 20
9.720994891
 30
0.0
 10
10.1767677171
 20
9.720264455
 30
0.0
 10
10.1774517452
 20
9.7196579026
 30
0.0
 10
10.1779276107
 20
9.7192291078
 30
0.0
 10
10.1782041466
 20
9.7189906528
 30
0.0
 10
10.1783985544
 20
9.7187933023
 30
0.0
 10
10.1786426321
 20
9.7186667032
 30
0.0
 10
10.1789507437
 20
9.7184732255
 30
0.0
 10
10.1794980111
 20
9.7181461379
 30
0.0
 10
10.1802756015
 20
9.7176728585
 30
0.0
 10
10.1812105163
 20
9.7171074963
 30
0.0
 10
10.1824564384
 20
9.7163527812
 30
0.0
 10
10.1840140571
 20
9.7154096952
 30
0.0
 10
10.1865061263
 20
9.7139005854
 30
0.0
 10
10.1896212545
 20
9.7120142577
 30
0.0
 10
10.1933593895
 20
9.709750637
 30
0.0
 10
10.1970975327
 20
9.7074870308
 30
0.0
 10
10.2002126407
 20
9.7056006669
 30
0.0
 10
10.2027047502
 20
9.7040916295
 30
0.0
 10
10.2042622664
 20
9.7031483595
 30
0.0
 10
10.2055083989
 20
9.7023940221
 30
0.0
 10
10.2064426713
 20
9.7018275063
 30
0.0
 10
10.2072222715
 20
9.7013578359
 30
0.0
 10
10.2077659509
 20
9.7010243056
 30
0.0
 10
10.2080798114
 20
9.7008411509
 30
0.0
 10
10.2083062303
 20
9.7006828429
 30
0.0
 10
10.2085669617
 20
9.7006045858
 30
0.0
 10
10.208902635
 20
9.7004723203
 30
0.0
 10
10.2094956396
 20
9.7002538655
 30
0.0
 10
10.2103398737
 20
9.6999349856
 30
0.0
 10
10.2113542025
 20
9.699555241
 30
0.0
 10
10.212706205
 20
9.699047898
 30
0.0
 10
10.2143963574
 20
9.6984140674
 30
0.0
 10
10.2171005178
 20
9.6973997439
 30
0.0
 10
10.2204807471
 20
9.6961319067
 30
0.0
 10
10.2245370093
 20
9.6946104712
 30
0.0
 10
10.2285932772
 20
9.6930890516
 30
0.0
 10
10.2319734921
 20
9.6918211746
 30
0.0
 10
10.2346776813
 20
9.6908069306
 30
0.0
 10
10.2363677604
 20
9.6901728978
 30
0.0
 10
10.2377199135
 20
9.6896659699
 30
0.0
 10
10.2387337822
 20
9.6892849573
 30
0.0
 10
10.2395794557
 20
9.6889700447
 30
0.0
 10
10.2401698908
 20
9.6887445075
 30
0.0
 10
10.2405096811
 20
9.6886235897
 30
0.0
 10
10.2407577663
 20
9.6885104764
 30
0.0
 10
10.2410316824
 20
9.6884830827
 30
0.0
 10
10.2413878937
 20
9.6884166578
 30
0.0
 10
10.2420154615
 20
9.6883143452
 30
0.0
 10
10.2429097922
 20
9.6881609011
 30
0.0
 10
10.2439839284
 20
9.6879798856
 30
0.0
 10
10.2454157819
 20
9.6877374427
 30
0.0
 10
10.2472057112
 20
9.687434762
 30
0.0
 10
10.2500695352
 20
9.6869502644
 30
0.0
 10
10.2536493367
 20
9.686344714
 30
0.0
 10
10.2579450893
 20
9.6856180228
 30
0.0
 10
10.2622408444
 20
9.6848913398
 30
0.0
 10
10.267968517
 20
9.6839224263
 30
0.0
 10
10.2722642717
 20
9.6831957418
 30
0.0
 10
10.2751281081
 20
9.6827112853
 30
0.0
  0
ENDSEC
  0
SECTION
  2
OBJECTS
  0
DICTIONARY
  5
C
100
AcDbDictionary
280
0
281
1
  3
ACAD_GROUP
350
D
  3
ACAD_MLINESTYLE
350
17
  3
ACAD_LAYOUT
350
1A
  3
ACAD_PLOTSETTINGS
350
19
  3
ACAD_PLOTSTYLENAME
350
E
  3
ACAD_IMAGE_DICT
350
       36D
  3
ACAD_IMAGE_VARS
350
       36E
  3
ACAD_TABLESTYLE
350
       36F
  0
IMAGEDEF_REACTOR
  5
36C
100
AcDbRasterImageDefReactor
 90
2
330
28E
  0
DICTIONARY
  5
D
102
{ACAD_REACTORS
330
C
102
}
100
AcDbDictionary
280
0
281
1
  0
ACDBDICTIONARYWDFLT
  5
E
102
{ACAD_REACTORS
330
C
102
}
100
AcDbDictionary
281
1
  3
Normal
350
F
100
AcDbDictionaryWithDefault
340
F
  0
DICTIONARY
  5
36D
330
C
100
AcDbDictionary
281
1
  3
INE_assy_2_img_1
350
       372
  0
RASTERVARIABLES
  5
36E
330
C
100
AcDbRasterVariables
 90
0
 70
0
 71
1
 72
5
  0
DICTIONARY
  5
17
102
{ACAD_REACTORS
330
C
102
}
100
AcDbDictionary
280
0
281
1
  3
Standard
350
18
  0
DICTIONARY
  5
36F
330
C
100
AcDbDictionary
281
1
  3
Standard
350
       373
  3
Standard1
350
       374
  0
DICTIONARY
  5
19
102
{ACAD_REACTORS
330
C
102
}
100
AcDbDictionary
281
1
  0
DICTIONARY
  5
1A
102
{ACAD_REACTORS
330
C
102
}
100
AcDbDictionary
281
1
  3
Model
350
370
  3
Layout1
350
371
  0
ACDBPLACEHOLDER
  5
F
102
{ACAD_REACTORS
330
E
102
}
  0
MLINESTYLE
  5
18
102
{ACAD_REACTORS
330
17
102
}
100
AcDbMlineStyle
  2
STANDARD
 70
0
  3

 62
256
 51
90.0
 52
90.0
 71
2
 49
0.5
 62
256
  6
BYLAYER
 49
-0.5
 62
256
  6
BYLAYER
  0
LAYOUT
  5
370
102
{ACAD_REACTORS
330
1A
102
}
100
AcDbPlotSettings
  1

  2
none_device
  4
ANSI_C_(22.00_x_17.00_Inches)
  6

 40
0.0
 41
0.0
 42
0.0
 43
0.0
 44
558.8
 45
431.8
 46
0.0
 47
0.0
 48
0.0
 49
0.0
140
0.0
141
0.0
142
1.0
143
1.0
 70
1024
 72
0
 73
0
 74
0
  7

 75
0
147
1.0
148
0.0
149
0.0
100
AcDbLayout
  1
Model
 70
0
 71
0
 10
0.0
 20
0.0
 11
22.0
 21
17.0
 12
0.0
 22
0.0
 32
0.0
 14
0.0
 24
0.0
 34
0.0
 15
0.0
 25
0.0
 35
0.0
146
0.0
 13
0.0
 23
0.0
 33
0.0
 16
1.0
 26
0.0
 36
0.0
 17
0.0
 27
1.0
 37
0.0
 76
0
330
20C
345
0
346
0
  0
LAYOUT
  5
371
102
{ACAD_REACTORS
330
1A
102
}
100
AcDbPlotSettings
  1

  2
none_device
  4
ANSI_C_(22.00_x_17.00_Inches)
  6

 40
0.0
 41
0.0
 42
0.0
 43
0.0
 44
558.8
 45
431.8
 46
0.0
 47
0.0
 48
0.0
 49
0.0
140
0.0
141
0.0
142
1.0
143
1.0
 70
0
 72
0
 73
0
 74
0
  7

 75
0
147
1.0
148
0.0
149
0.0
100
AcDbLayout
  1
Layout1
 70
0
 71
1
 10
0.0
 20
0.0
 11
22.0
 21
17.0
 12
0.0
 22
0.0
 32
0.0
 14
0.0
 24
0.0
 34
0.0
 15
0.0
 25
0.0
 35
0.0
146
0.0
 13
0.0
 23
0.0
 33
0.0
 16
1.0
 26
0.0
 36
0.0
 17
0.0
 27
1.0
 37
0.0
 76
0
330
20D
345
0
346
0
  0
IMAGEDEF
  5
372
102
{ACAD_REACTORS
330
36D
330
36C
102
}
100
AcDbRasterImageDef
 90
0
  1
INE_assy_2_img_1.png
 10
369.0
 20
92.0
 11
0.0066666667
 21
0.0066666667
280
1
281
0
  0
TABLESTYLE
  5
373
102
{ACAD_REACTORS
330
36F
330
291
330
292
102
}
330
36F
100
AcDbTableStyle
  3
Standard
 70
0
 71
0
 40
0.06
 41
0.06
280
1
281
1
  7
Standard
140
0.18
170
1
 62
0
 63
7
283
0
  7
Standard
140
0.18
170
1
 62
0
 63
7
283
0
  7
Standard
140
0.18
170
1
 62
0
 63
7
283
0
  0
TABLESTYLE
  5
374
102
{ACAD_REACTORS
330
36F
330
290
102
}
330
36F
100
AcDbTableStyle
  3
Standard1
 70
1
 71
0
 40
0.06
 41
0.06
280
1
281
1
  7
Standard
140
0.18
170
1
 62
0
 63
7
283
0
  7
Standard
140
0.18
170
1
 62
0
 63
7
283
0
  7
Standard
140
0.18
170
1
 62
0
 63
7
283
0
  0
ENDSEC
  0
EOF
