999
DXF file: IN5_assy_2.dxf
999
Pro/ENGINEER 2014200 by Parametric Technology Corporation
  0
SECTION
  2
HEADER
  9
$ACADVER
  1
AC1021
  9
$DWGCODEPAGE
  3
ANSI_1252
  9
$EXTMAX
 10
22.0
 20
17.0
 30
0.0
  9
$EXTMIN
 10
0.0
 20
0.0
 30
0.0
  9
$LIMMIN
 10
0.0
 20
0.0
  9
$LIMMAX
 10
22.0
 20
17.0
  9
$VIEWCTR
 10
11.0
 20
8.5
  9
$VIEWSIZE
 40
17.0
  9
$CLAYER
  8
0
  9
$LTSCALE
 40
1.21
  9
$CELTYPE
  6
BYLAYER
  9
$DIMSCALE
 40
1.0
  9
$DIMASZ
 40
0.1875
  9
$DIMEXO
 40
0.0625
  9
$DIMDLI
 40
0.836
  9
$DIMEXE
 40
0.125
  9
$DIMCEN
 40
0.198
  9
$DIMLFAC
 40
1.0
  9
$DIMBLK
  1
_FILLED
  9
$DIMTXT
 40
0.1
  9
$DIMTOL
 70
0
  9
$DIMLIM
 70
0
  9
$DIMTFAC
 40
1.0
  9
$DIMGAP
 40
0.09
  9
$DIMDSEP
 70
46
  9
$AUNITS
 70
0
  9
$PDMODE
 70
3
  9
$PDSIZE
 40
0.3125
  9
$HANDSEED
  5
39C
  9
$TILEMODE
 70
1
  9
$MEASUREMENT
 70
0
  9
$INSUNITS
 70
1
  0
ENDSEC
  0
SECTION
  2
CLASSES
  0
CLASS
  1
ACDBDICTIONARYWDFLT
  2
AcDbDictionaryWithDefault
  3
AutoCAD 2000
 90
0
 91
1
280
0
281
0
  0
CLASS
  1
ACDBPLACEHOLDER
  2
AcDbPlaceHolder
  3
AutoCAD 2000
 90
0
 91
1
280
0
281
0
  0
CLASS
  1
LAYOUT
  2
AcDbLayout
  3
AutoCAD 2000
 90
0
 91
0
280
0
281
0
  0
CLASS
  1
RASTERVARIABLES
  2
AcDbRasterVariables
  3
ISM
 90
0
 91
1
280
0
281
0
  0
CLASS
  1
IMAGEDEF
  2
AcDbRasterImageDef
  3
ISM
 90
0
 91
1
280
0
281
0
  0
CLASS
  1
IMAGEDEF_REACTOR
  2
AcDbRasterImageDefReactor
  3
ISM
 90
0
 91
1
280
0
281
0
  0
CLASS
  1
IMAGE
  2
AcDbRasterImage
  3
ISM
 90
127
 91
1
280
0
281
1
  0
CLASS
  1
TABLESTYLE
  2
AcDbTableStyle
  3
ObjectDBX Classes
 90
2047
 91
1
280
0
281
0
  0
CLASS
  1
ACAD_TABLE
  2
AcDbTable
  3
ObjectDBX Classes
 90
1025
 91
3
280
0
281
1
  0
ENDSEC
  0
SECTION
  2
TABLES
  0
TABLE
  2
VPORT
  5
8
100
AcDbSymbolTable
 70
2
  0
VPORT
  5
1F4
100
AcDbSymbolTableRecord
100
AcDbViewportTableRecord
  2
*ACTIVE
 70
0
 10
0.0
 20
0.0
 11
1.0
 21
1.0
 12
11.0
 22
8.5
 13
0.0
 23
0.0
 14
1.0
 24
1.0
 15
0.0
 25
0.0
 16
0.0
 26
0.0
 36
1.0
 17
0.0
 27
0.0
 37
0.0
 40
17.0
 41
1.2941176471
 42
50.0
 43
0.0
 44
0.0
 50
0.0
 51
0.0
 71
0
 72
100
 73
1
 74
1
 75
0
 76
0
 77
0
 78
0
  0
ENDTAB
  0
TABLE
  2
LTYPE
  5
5
100
AcDbSymbolTable
 70
6
  0
LTYPE
  5
14
100
AcDbSymbolTableRecord
100
AcDbLinetypeTableRecord
  2
BYBLOCK
 70
0
  3

 72
65
 73
0
 40
0.0
  0
LTYPE
  5
15
100
AcDbSymbolTableRecord
100
AcDbLinetypeTableRecord
  2
BYLAYER
 70
0
  3

 72
65
 73
0
 40
0.0
  0
LTYPE
  5
16
100
AcDbSymbolTableRecord
100
AcDbLinetypeTableRecord
  2
CONTINUOUS
 70
64
  3
Solid line
 72
65
 73
0
 40
0.0
  0
LTYPE
  5
1F5
100
AcDbSymbolTableRecord
100
AcDbLinetypeTableRecord
  2
CENTER
 70
64
  3
____ _ ____ _ ____ _ ____ _ ____ _ ____ _ ____
 72
65
 73
4
 40
0.6
 49
0.375
 74
0
 49
-0.075
 74
0
 49
0.075
 74
0
 49
-0.075
 74
0
  0
LTYPE
  5
1F6
100
AcDbSymbolTableRecord
100
AcDbLinetypeTableRecord
  2
HIDDEN
 70
64
  3
- - - - - - - - - - - - - - - - - - - -
 72
65
 73
2
 40
0.2
 49
0.1
 74
0
 49
-0.1
 74
0
  0
LTYPE
  5
1F7
100
AcDbSymbolTableRecord
100
AcDbLinetypeTableRecord
  2
PHANTOM
 70
64
  3
_____ _ _ _____ _ _ _____ _ _ _____
 72
65
 73
6
 40
0.8
 49
0.45
 74
0
 49
-0.05
 74
0
 49
0.1
 74
0
 49
-0.05
 74
0
 49
0.1
 74
0
 49
-0.05
 74
0
  0
LTYPE
  5
1F8
100
AcDbSymbolTableRecord
100
AcDbLinetypeTableRecord
  2
DOT
 70
64
  3
. . . . . . . . . . . . . . . . . . . .
 72
65
 73
2
 40
0.2
 49
0.1
 74
0
 49
-0.1
 74
0
  0
LTYPE
  5
1F9
100
AcDbSymbolTableRecord
100
AcDbLinetypeTableRecord
  2
DASHED
 70
64
  3
- - - - - - - - - - - - - - - - - - - -
 72
65
 73
2
 40
0.2
 49
0.1
 74
0
 49
-0.1
 74
0
  0
ENDTAB
  0
TABLE
  2
LAYER
  5
2
100
AcDbSymbolTable
 70
36
  0
LAYER
  5
10
100
AcDbSymbolTableRecord
100
AcDbLayerTableRecord
  2
0
 70
0
 62
7
  6
CONTINUOUS
370
-3
390
F
  0
LAYER
  5
1FA
100
AcDbSymbolTableRecord
100
AcDbLayerTableRecord
  2
DEFAULT_1
 70
0
 62
7
  6
CENTER
370
-3
390
F
  0
LAYER
  5
1FB
100
AcDbSymbolTableRecord
100
AcDbLayerTableRecord
  2
DEFAULT_2
 70
0
 62
8
  6
HIDDEN
370
-3
390
F
  0
LAYER
  5
1FC
100
AcDbSymbolTableRecord
100
AcDbLayerTableRecord
  2
DEFAULT_3
 70
0
 62
7
  6
PHANTOM
370
-3
390
F
  0
LAYER
  5
1FD
100
AcDbSymbolTableRecord
100
AcDbLayerTableRecord
  2
01___PRT_ALL_DTM_PLN
 70
0
 62
7
  6
CONTINUOUS
370
-3
390
F
  0
LAYER
  5
1FE
100
AcDbSymbolTableRecord
100
AcDbLayerTableRecord
  2
01___PRT_DEF_DTM_PLN
 70
0
 62
7
  6
CONTINUOUS
370
-3
390
F
  0
LAYER
  5
1FF
100
AcDbSymbolTableRecord
100
AcDbLayerTableRecord
  2
02___PRT_ALL_AXES
 70
0
 62
7
  6
CONTINUOUS
370
-3
390
F
  0
LAYER
  5
200
100
AcDbSymbolTableRecord
100
AcDbLayerTableRecord
  2
03___PRT_ALL_CURVES
 70
0
 62
7
  6
CONTINUOUS
370
-3
390
F
  0
LAYER
  5
201
100
AcDbSymbolTableRecord
100
AcDbLayerTableRecord
  2
04___PRT_ALL_DTM_PNT
 70
0
 62
7
  6
CONTINUOUS
370
-3
390
F
  0
LAYER
  5
202
100
AcDbSymbolTableRecord
100
AcDbLayerTableRecord
  2
05___PRT_ALL_DTM_CSYS
 70
0
 62
7
  6
CONTINUOUS
370
-3
390
F
  0
LAYER
  5
203
100
AcDbSymbolTableRecord
100
AcDbLayerTableRecord
  2
05___PRT_DEF_DTM_CSYS
 70
0
 62
7
  6
CONTINUOUS
370
-3
390
F
  0
LAYER
  5
204
100
AcDbSymbolTableRecord
100
AcDbLayerTableRecord
  2
06___PRT_ALL_SURFS
 70
0
 62
7
  6
CONTINUOUS
370
-3
390
F
  0
LAYER
  5
205
100
AcDbSymbolTableRecord
100
AcDbLayerTableRecord
  2
DATUM_PLANES
 70
0
 62
7
  6
CONTINUOUS
370
-3
390
F
  0
LAYER
  5
206
100
AcDbSymbolTableRecord
100
AcDbLayerTableRecord
  2
PORT_AREAS
 70
0
 62
7
  6
CONTINUOUS
370
-3
390
F
  0
LAYER
  5
207
100
AcDbSymbolTableRecord
100
AcDbLayerTableRecord
  2
SUNNBOMCOSMETIC
 70
0
 62
7
  6
CONTINUOUS
370
-3
390
F
  0
LAYER
  5
208
100
AcDbSymbolTableRecord
100
AcDbLayerTableRecord
  2
SUNNBOMSTAMPING
 70
0
 62
7
  6
CONTINUOUS
370
-3
390
F
  0
LAYER
  5
209
100
AcDbSymbolTableRecord
100
AcDbLayerTableRecord
  2
THREADS
 70
0
 62
7
  6
CONTINUOUS
370
-3
390
F
  0
ENDTAB
  0
TABLE
  2
STYLE
  5
3
100
AcDbSymbolTable
 70
1
  0
STYLE
  5
11
100
AcDbSymbolTableRecord
100
AcDbTextStyleTableRecord
  2
STANDARD
 70
0
 40
0.0
 41
0.8
 50
0.0
 71
0
 42
0.2
  3
txt
  4

  0
STYLE
  5
20A
100
AcDbSymbolTableRecord
100
AcDbTextStyleTableRecord
  2
TEXTSTYLE_1
 70
0
 40
0.0
 41
0.8
 50
0.0
 71
0
 42
0.2
  3
gdt
  4

  0
ENDTAB
  0
TABLE
  2
VIEW
  5
6
100
AcDbSymbolTable
 70
0
  0
ENDTAB
  0
TABLE
  2
UCS
  5
7
100
AcDbSymbolTable
 70
0
  0
ENDTAB
  0
TABLE
  2
APPID
  5
9
100
AcDbSymbolTable
 70
1
  0
APPID
  5
20B
100
AcDbSymbolTableRecord
100
AcDbRegAppTableRecord
  2
ACAD
 70
0
  0
ENDTAB
  0
TABLE
  2
BLOCK_RECORD
  5
1
100
AcDbSymbolTable
 70
0
  0
BLOCK_RECORD
  5
20C
100
AcDbSymbolTableRecord
100
AcDbBlockTableRecord
  2
*Model_Space
  0
BLOCK_RECORD
  5
20D
100
AcDbSymbolTableRecord
100
AcDbBlockTableRecord
  2
*Paper_Space
  0
BLOCK_RECORD
  5
20E
100
AcDbSymbolTableRecord
100
AcDbBlockTableRecord
  2
SUN_FIRST_THIRD_ANGLE_BL0
  0
BLOCK_RECORD
  5
20F
100
AcDbSymbolTableRecord
100
AcDbBlockTableRecord
  2
*T1
  0
BLOCK_RECORD
  5
210
100
AcDbSymbolTableRecord
100
AcDbBlockTableRecord
  2
*T2
  0
BLOCK_RECORD
  5
211
100
AcDbSymbolTableRecord
100
AcDbBlockTableRecord
  2
*T3
  0
ENDTAB
  0
TABLE
  2
DIMSTYLE
  5
A
100
AcDbSymbolTable
 70
1
100
AcDbDimStyleTable
 71
0
  0
DIMSTYLE
105
212
100
AcDbSymbolTableRecord
100
AcDbDimStyleTableRecord
  2
STANDARD
 70
0
  3

  4

 40
1.0
 41
0.1875
 42
0.0625
 43
0.38
 44
0.125
 45
0.0
 46
0.0
 47
0.001
 48
0.001
140
0.1
141
0.09
142
0.0
143
25.4
144
1.0
145
0.0
146
1.0
147
0.09
 71
0.0
 72
0.0
 73
1
 74
1
 75
0
 76
0
 77
0
 78
4
170
0
171
2
172
0
173
0
174
0
175
0
176
0
177
0
178
0
270
2
271
3
272
3
273
2
274
2
275
0
280
0
281
0
282
0
283
1
284
4
285
0
286
0
287
3
288
0
340
11
278
46
  0
ENDTAB
  0
ENDSEC
  0
SECTION
  2
BLOCKS
  0
BLOCK
  5
20
100
AcDbEntity
  8
0
100
AcDbBlockBegin
  2
*Model_Space
 70
0
 10
0.0
 20
0.0
 30
0.0
  3
*Model_Space
  1

  0
ENDBLK
  5
21
100
AcDbEntity
  8
0
100
AcDbBlockEnd
  0
BLOCK
  5
1C
100
AcDbEntity
  8
0
100
AcDbBlockBegin
  2
*Paper_Space
 70
0
 10
0.0
 20
0.0
 30
0.0
  3
*Paper_Space
  1

  0
ENDBLK
  5
1D
100
AcDbEntity
  8
0
100
AcDbBlockEnd
  0
BLOCK
  5
213
100
AcDbEntity
  8
0
100
AcDbBlockBegin
 62
2
  6
CONTINUOUS
  2
SUN_FIRST_THIRD_ANGLE_BL0
 70
64
 10
20.4816717061
 20
1.2289683772
  3
SUN_FIRST_THIRD_ANGLE_BL0
  1

  0
TEXT
  5
214
100
AcDbEntity
  8
0
100
AcDbText
 62
2
  6
CONTINUOUS
 10
19.4750896608
 20
1.4136269581
  7
STANDARD
 40
0.08
  1
FIRST ANGLE
 41
0.8
 72
0
100
AcDbText
  0
TEXT
  5
215
100
AcDbEntity
  8
0
100
AcDbText
 62
2
  6
CONTINUOUS
 10
20.7842537513
 20
1.4047600029
  7
STANDARD
 40
0.08
  1
THIRD ANGLE
 41
0.8
 72
0
100
AcDbText
  0
LINE
  5
216
100
AcDbEntity
  8
0
100
AcDbLine
 62
7
  6
CONTINUOUS
 10
19.4767170086
 20
1.1727031207
 11
19.6334271527
 21
1.1717972817
  0
LINE
  5
217
100
AcDbEntity
  8
0
100
AcDbLine
 62
7
  6
CONTINUOUS
 10
19.6596964832
 20
1.1717972817
 11
19.6950230232
 21
1.171593082
  0
LINE
  5
218
100
AcDbEntity
  8
0
100
AcDbLine
 62
7
  6
CONTINUOUS
 10
19.7194818561
 20
1.1708914427
 11
19.8852396156
 21
1.1699333054
  0
LINE
  5
219
100
AcDbEntity
  8
0
100
AcDbLine
 62
7
  6
CONTINUOUS
 10
19.4758111696
 20
1.2723454088
 11
19.88525039
 21
1.3511534004
  0
LINE
  5
21A
100
AcDbEntity
  8
0
100
AcDbLine
 62
7
  6
CONTINUOUS
 10
19.88525039
 20
1.3511534004
 11
19.8831348489
 21
0.9851647912
  0
LINE
  5
21B
100
AcDbEntity
  8
0
100
AcDbLine
 62
7
  6
CONTINUOUS
 10
19.8831348489
 20
0.9851647912
 11
19.4767170086
 21
1.0658141206
  0
LINE
  5
21C
100
AcDbEntity
  8
0
100
AcDbLine
 62
7
  6
CONTINUOUS
 10
19.4767170086
 20
1.0658141206
 11
19.4779056764
 21
1.2714536432
  0
CIRCLE
  5
21D
100
AcDbEntity
  8
0
100
AcDbCircle
 62
7
  6
CONTINUOUS
 10
20.2068232291
 20
1.1717972817
 40
0.175742101
  0
CIRCLE
  5
21E
100
AcDbEntity
  8
0
100
AcDbCircle
 62
7
  6
CONTINUOUS
 10
20.2068232291
 20
1.1717972817
 40
0.1005522074
  0
LINE
  5
21F
100
AcDbEntity
  8
0
100
AcDbLine
 62
7
  6
CONTINUOUS
 10
20.2077290681
 20
1.3756110529
 11
20.2071171714
 21
1.2379342989
  0
LINE
  5
220
100
AcDbEntity
  8
0
100
AcDbLine
 62
7
  6
CONTINUOUS
 10
20.2077290681
 20
1.2016899681
 11
20.2074674401
 21
1.1428236749
  0
LINE
  5
221
100
AcDbEntity
  8
0
100
AcDbLine
 62
7
  6
CONTINUOUS
 10
20.208634907
 20
1.101141841
 11
20.2080230104
 21
0.963465087
  0
LINE
  5
222
100
AcDbEntity
  8
0
100
AcDbLine
 62
7
  6
CONTINUOUS
 10
20.0066328138
 20
1.1745147986
 11
20.1443095678
 21
1.1739029019
  0
LINE
  5
223
100
AcDbEntity
  8
0
100
AcDbLine
 62
7
  6
CONTINUOUS
 10
20.1832714155
 20
1.1727031207
 11
20.238153505
 21
1.172335442
  0
LINE
  5
224
100
AcDbEntity
  8
0
100
AcDbLine
 62
7
  6
CONTINUOUS
 10
20.2756669918
 20
1.1717972817
 11
20.407916871
 21
1.1712095044
  0
CIRCLE
  5
225
100
AcDbEntity
  8
0
100
AcDbCircle
 62
7
  6
CONTINUOUS
 10
20.7509457401
 20
1.1693297793
 40
0.1722024983
  0
CIRCLE
  5
226
100
AcDbEntity
  8
0
100
AcDbCircle
 62
7
  6
CONTINUOUS
 10
20.7509457401
 20
1.1693297793
 40
0.0985164967
  0
LINE
  5
227
100
AcDbEntity
  8
0
100
AcDbLine
 62
7
  6
CONTINUOUS
 10
20.7169767782
 20
1.170462078
 11
20.7825395137
 21
1.1682766535
  0
LINE
  5
228
100
AcDbEntity
  8
0
100
AcDbLine
 62
7
  6
CONTINUOUS
 10
20.8177513651
 20
1.1693297793
 11
20.947965719
 21
1.1693297793
  0
LINE
  5
229
100
AcDbEntity
  8
0
100
AcDbLine
 62
7
  6
CONTINUOUS
 10
20.6875370113
 20
1.170462078
 11
20.5573226574
 21
1.170462078
  0
LINE
  5
22A
100
AcDbEntity
  8
0
100
AcDbLine
 62
7
  6
CONTINUOUS
 10
20.7486811426
 20
1.1987695462
 11
20.7486811426
 21
1.1432869085
  0
LINE
  5
22B
100
AcDbEntity
  8
0
100
AcDbLine
 62
7
  6
CONTINUOUS
 10
20.7498134414
 20
1.1059210505
 11
20.7498134414
 21
0.9757066966
  0
LINE
  5
22C
100
AcDbEntity
  8
0
100
AcDbLine
 62
7
  6
CONTINUOUS
 10
20.7486811426
 20
1.2338708068
 11
20.7486811426
 21
1.3640851607
  0
LINE
  5
22D
100
AcDbEntity
  8
0
100
AcDbLine
 62
7
  6
CONTINUOUS
 10
21.0702539817
 20
1.2701043662
 11
21.4790138229
 21
1.3448360823
  0
LINE
  5
22E
100
AcDbEntity
  8
0
100
AcDbLine
 62
7
  6
CONTINUOUS
 10
21.4790138229
 20
1.3448360823
 11
21.4790138229
 21
0.9779712941
  0
LINE
  5
22F
100
AcDbEntity
  8
0
100
AcDbLine
 62
7
  6
CONTINUOUS
 10
21.4790138229
 20
0.9779712941
 11
21.069121683
 21
1.0617614
  0
LINE
  5
230
100
AcDbEntity
  8
0
100
AcDbLine
 62
7
  6
CONTINUOUS
 10
21.0702539817
 20
1.2701043662
 11
21.069121683
 21
1.0617614
  0
LINE
  5
231
100
AcDbEntity
  8
0
100
AcDbLine
 62
7
  6
CONTINUOUS
 10
21.4790138229
 20
1.1693297793
 11
21.3159628059
 21
1.1693297793
  0
LINE
  5
232
100
AcDbEntity
  8
0
100
AcDbLine
 62
7
  6
CONTINUOUS
 10
21.2876553377
 20
1.1693297793
 11
21.2502894796
 21
1.1693297793
  0
LINE
  5
233
100
AcDbEntity
  8
0
100
AcDbLine
 62
7
  6
CONTINUOUS
 10
21.2208497126
 20
1.1659328831
 11
21.0713862804
 21
1.1659328831
  0
LINE
  5
234
100
AcDbEntity
  8
0
100
AcDbLine
 62
7
  6
CONTINUOUS
 10
20.4796138713
 20
1.5284908897
 11
20.4766766948
 21
0.9294458646
  0
ENDBLK
  5
235
100
AcDbEntity
  8
0
  6
BYBLOCK
 62
0
100
AcDbBlockEnd
  0
BLOCK
  5
236
100
AcDbEntity
  8
0
100
AcDbBlockBegin
  2
*T1
 70
1
 10
0.0
 20
0.0
  3
*T1
  1

  0
LINE
  5
237
100
AcDbEntity
  8
0
100
AcDbLine
 62
2
  6
CONTINUOUS
 10
9.275
 20
0.0
 11
-0.0
 21
0.0
  0
LINE
  5
238
100
AcDbEntity
  8
0
100
AcDbLine
 62
2
  6
CONTINUOUS
 10
9.275
 20
0.0
 11
9.275
 21
1.25
  0
LINE
  5
239
100
AcDbEntity
  8
0
100
AcDbLine
 62
2
  6
CONTINUOUS
 10
9.275
 20
0.625
 11
-0.0
 21
0.625
  0
LINE
  5
23A
100
AcDbEntity
  8
0
100
AcDbLine
 62
2
  6
CONTINUOUS
 10
9.275
 20
1.25
 11
-0.0
 21
1.25
  0
LINE
  5
23B
100
AcDbEntity
  8
0
100
AcDbLine
 62
2
  6
CONTINUOUS
 10
6.8
 20
0.0
 11
6.8
 21
1.25
  0
LINE
  5
23C
100
AcDbEntity
  8
0
100
AcDbLine
 62
2
  6
CONTINUOUS
 10
6.4
 20
0.0
 11
6.4
 21
0.625
  0
LINE
  5
23D
100
AcDbEntity
  8
0
100
AcDbLine
 62
2
  6
CONTINUOUS
 10
5.9
 20
0.0
 11
5.9
 21
0.625
  0
LINE
  5
23E
100
AcDbEntity
  8
0
100
AcDbLine
 62
2
  6
CONTINUOUS
 10
5.2
 20
0.0
 11
5.2
 21
0.625
  0
LINE
  5
23F
100
AcDbEntity
  8
0
100
AcDbLine
 62
2
  6
CONTINUOUS
 10
4.1
 20
0.0
 11
4.1
 21
1.25
  0
LINE
  5
240
100
AcDbEntity
  8
0
100
AcDbLine
 62
2
  6
CONTINUOUS
 10
-0.0
 20
0.0
 11
-0.0
 21
1.25
  0
MTEXT
  5
241
100
AcDbEntity
  8
0
100
AcDbMText
 62
2
  6
CONTINUOUS
  7
STANDARD
 71
2
 72
1
 10
6.6
 20
0.325
 30
0.0
 11
1.0
 21
0.0
 31
0.0
 44
0.9
  1
2
 40
0.125
 41
0.2
  0
MTEXT
  5
242
100
AcDbEntity
  8
0
100
AcDbMText
 62
2
  6
CONTINUOUS
  7
STANDARD
 71
2
 72
1
 10
6.15
 20
0.325
 30
0.0
 11
1.0
 21
0.0
 31
0.0
 44
0.9
  1
C
 40
0.125
 41
0.2
  0
MTEXT
  5
243
100
AcDbEntity
  8
0
100
AcDbMText
 62
2
  6
CONTINUOUS
  7
STANDARD
 71
2
 72
1
 10
5.55
 20
0.325
 30
0.0
 11
1.0
 21
0.0
 31
0.0
 44
0.9
  1
1.000
 40
0.125
 41
1.0
  0
MTEXT
  5
244
100
AcDbEntity
  8
0
100
AcDbMText
 62
2
  6
CONTINUOUS
  7
STANDARD
 71
2
 72
1
 10
4.65
 20
0.325
 30
0.0
 11
1.0
 21
0.0
 31
0.0
 44
0.9
  1
Jun-27-22
 40
0.125
 41
1.8
  0
MTEXT
  5
245
100
AcDbEntity
  8
0
100
AcDbMText
 62
2
  6
CONTINUOUS
  7
STANDARD
 71
2
 72
1
 10
2.05
 20
0.4625
 30
0.0
 11
1.0
 21
0.0
 31
0.0
 44
0.9
  1
T-16A Line mount\PNinety degree with reverse flow check
 40
0.125
 41
7.4
  0
MTEXT
  5
246
100
AcDbEntity
  8
0
100
AcDbMText
 62
2
  6
CONTINUOUS
  7
STANDARD
 71
1
 72
1
 10
6.45
 20
0.5625
 30
0.0
 11
1.0
 21
0.0
 31
0.0
 44
0.9
  1
SHEET
 40
0.06
 41
0.48
  0
MTEXT
  5
247
100
AcDbEntity
  8
0
100
AcDbMText
 62
2
  6
CONTINUOUS
  7
STANDARD
 71
1
 72
1
 10
5.95
 20
0.5625
 30
0.0
 11
1.0
 21
0.0
 31
0.0
 44
0.9
  1
DWG SIZE
 40
0.06
 41
0.768
  0
MTEXT
  5
248
100
AcDbEntity
  8
0
100
AcDbMText
 62
2
  6
CONTINUOUS
  7
STANDARD
 71
1
 72
1
 10
5.25
 20
0.5625
 30
0.0
 11
1.0
 21
0.0
 31
0.0
 44
0.9
  1
SCALE
 40
0.06
 41
0.48
  0
MTEXT
  5
249
100
AcDbEntity
  8
0
100
AcDbMText
 62
2
  6
CONTINUOUS
  7
STANDARD
 71
1
 72
1
 10
4.15
 20
0.5625
 30
0.0
 11
1.0
 21
0.0
 31
0.0
 44
0.9
  1
DATE
 40
0.06
 41
0.384
  0
MTEXT
  5
24A
100
AcDbEntity
  8
0
100
AcDbMText
 62
2
  6
CONTINUOUS
  7
STANDARD
 71
1
 72
1
 10
0.05
 20
0.5625
 30
0.0
 11
1.0
 21
0.0
 31
0.0
 44
0.9
  1
DESCRIPTION
 40
0.06
 41
1.056
  0
MTEXT
  5
24B
100
AcDbEntity
  8
0
100
AcDbMText
 62
2
  6
CONTINUOUS
  7
STANDARD
 71
2
 72
1
 10
5.45
 20
1.0375
 30
0.0
 11
1.0
 21
0.0
 31
0.0
 44
0.9
  1
ALL DIMENSIONS IN INCH\PVIEWS ARE THIRD ANGLE
 40
0.12
 41
4.224
  0
MTEXT
  5
24C
100
AcDbEntity
  8
0
100
AcDbMText
 62
2
  6
CONTINUOUS
  7
STANDARD
 71
2
 72
1
 10
2.05
 20
0.95
 30
0.0
 11
1.0
 21
0.0
 31
0.0
 44
0.9
  1
IN5
 40
0.125
 41
0.6
  0
MTEXT
  5
24D
100
AcDbEntity
  8
0
100
AcDbMText
 62
2
  6
CONTINUOUS
  7
STANDARD
 71
1
 72
1
 10
0.05
 20
1.1875
 30
0.0
 11
1.0
 21
0.0
 31
0.0
 44
0.9
  1
MODEL
 40
0.06
 41
0.48
  0
ENDBLK
  5
24E
100
AcDbEntity
  8
0
  6
BYBLOCK
 62
0
100
AcDbBlockEnd
  0
BLOCK
  5
24F
100
AcDbEntity
  8
0
100
AcDbBlockBegin
  2
*T2
 70
1
 10
0.0
 20
0.0
  3
*T2
  1

  0
LINE
  5
250
100
AcDbEntity
  8
0
100
AcDbLine
 62
2
  6
CONTINUOUS
 10
0.0
 20
0.0
 11
9.055
 21
0.0
  0
LINE
  5
251
100
AcDbEntity
  8
0
100
AcDbLine
 62
2
  6
CONTINUOUS
 10
0.0
 20
0.0
 11
0.0
 21
-2.594
  0
LINE
  5
252
100
AcDbEntity
  8
0
100
AcDbLine
 62
2
  6
CONTINUOUS
 10
0.0
 20
-0.344
 11
9.055
 21
-0.344
  0
LINE
  5
253
100
AcDbEntity
  8
0
100
AcDbLine
 62
2
  6
CONTINUOUS
 10
0.0
 20
-0.594
 11
9.055
 21
-0.594
  0
LINE
  5
254
100
AcDbEntity
  8
0
100
AcDbLine
 62
2
  6
CONTINUOUS
 10
0.0
 20
-0.844
 11
9.055
 21
-0.844
  0
LINE
  5
255
100
AcDbEntity
  8
0
100
AcDbLine
 62
2
  6
CONTINUOUS
 10
0.0
 20
-1.094
 11
9.055
 21
-1.094
  0
LINE
  5
256
100
AcDbEntity
  8
0
100
AcDbLine
 62
2
  6
CONTINUOUS
 10
0.0
 20
-1.344
 11
9.055
 21
-1.344
  0
LINE
  5
257
100
AcDbEntity
  8
0
100
AcDbLine
 62
2
  6
CONTINUOUS
 10
0.0
 20
-1.594
 11
9.055
 21
-1.594
  0
LINE
  5
258
100
AcDbEntity
  8
0
100
AcDbLine
 62
2
  6
CONTINUOUS
 10
0.0
 20
-1.844
 11
9.055
 21
-1.844
  0
LINE
  5
259
100
AcDbEntity
  8
0
100
AcDbLine
 62
2
  6
CONTINUOUS
 10
0.0
 20
-2.094
 11
9.055
 21
-2.094
  0
LINE
  5
25A
100
AcDbEntity
  8
0
100
AcDbLine
 62
2
  6
CONTINUOUS
 10
0.0
 20
-2.344
 11
9.055
 21
-2.344
  0
LINE
  5
25B
100
AcDbEntity
  8
0
100
AcDbLine
 62
2
  6
CONTINUOUS
 10
0.0
 20
-2.594
 11
9.055
 21
-2.594
  0
LINE
  5
25C
100
AcDbEntity
  8
0
100
AcDbLine
 62
2
  6
CONTINUOUS
 10
3.055
 20
0.0
 11
3.055
 21
-2.594
  0
LINE
  5
25D
100
AcDbEntity
  8
0
100
AcDbLine
 62
2
  6
CONTINUOUS
 10
9.055
 20
0.0
 11
9.055
 21
-2.594
  0
MTEXT
  5
25E
100
AcDbEntity
  8
0
100
AcDbMText
 62
2
  6
CONTINUOUS
  7
STANDARD
 71
2
 72
1
 10
1.5275
 20
-0.0995
 30
0.0
 11
1.0
 21
0.0
 31
0.0
 44
0.9
  1
Technical Data
 40
0.145
 41
3.248
  0
MTEXT
  5
25F
100
AcDbEntity
  8
0
100
AcDbMText
 62
2
  6
CONTINUOUS
  7
STANDARD
 71
2
 72
1
 10
4.555
 20
-0.0995
 30
0.0
 11
1.0
 21
0.0
 31
0.0
 44
0.9
  1
U.S. Units
 40
0.145
 41
2.32
  0
MTEXT
  5
260
100
AcDbEntity
  8
0
100
AcDbMText
 62
2
  6
CONTINUOUS
  7
STANDARD
 71
2
 72
1
 10
7.555
 20
-0.0995
 30
0.0
 11
1.0
 21
0.0
 31
0.0
 44
0.9
  1
Metric Units
 40
0.145
 41
2.784
  0
MTEXT
  5
261
100
AcDbEntity
  8
0
100
AcDbMText
 62
2
  6
CONTINUOUS
  7
STANDARD
 71
2
 72
1
 10
1.5275
 20
-0.4065
 30
0.0
 11
1.0
 21
0.0
 31
0.0
 44
0.9
  1
Cavity
 40
0.125
 41
1.2
  0
MTEXT
  5
262
100
AcDbEntity
  8
0
100
AcDbMText
 62
2
  6
CONTINUOUS
  7
STANDARD
 71
2
 72
1
 10
6.055
 20
-0.4065
 30
0.0
 11
1.0
 21
0.0
 31
0.0
 44
0.9
  1
T-16A
 40
0.125
 41
1.0
  0
MTEXT
  5
263
100
AcDbEntity
  8
0
100
AcDbMText
 62
2
  6
CONTINUOUS
  7
STANDARD
 71
2
 72
1
 10
1.5275
 20
-0.6565
 30
0.0
 11
1.0
 21
0.0
 31
0.0
 44
0.9
  1
Body Features
 40
0.125
 41
2.6
  0
MTEXT
  5
264
100
AcDbEntity
  8
0
100
AcDbMText
 62
2
  6
CONTINUOUS
  7
STANDARD
 71
2
 72
1
 10
6.055
 20
-0.6565
 30
0.0
 11
1.0
 21
0.0
 31
0.0
 44
0.9
  1
Ninety degree with reverse flow check
 40
0.125
 41
7.4
  0
MTEXT
  5
265
100
AcDbEntity
  8
0
100
AcDbMText
 62
2
  6
CONTINUOUS
  7
STANDARD
 71
2
 72
1
 10
1.5275
 20
-0.9065
 30
0.0
 11
1.0
 21
0.0
 31
0.0
 44
0.9
  1
Body Type
 40
0.125
 41
1.8
  0
MTEXT
  5
266
100
AcDbEntity
  8
0
100
AcDbMText
 62
2
  6
CONTINUOUS
  7
STANDARD
 71
2
 72
1
 10
6.055
 20
-0.9065
 30
0.0
 11
1.0
 21
0.0
 31
0.0
 44
0.9
  1
Line mount
 40
0.125
 41
2.0
  0
MTEXT
  5
267
100
AcDbEntity
  8
0
100
AcDbMText
 62
2
  6
CONTINUOUS
  7
STANDARD
 71
2
 72
1
 10
1.5275
 20
-1.1565
 30
0.0
 11
1.0
 21
0.0
 31
0.0
 44
0.9
  1
Interface
 40
0.125
 41
1.8
  0
MTEXT
  5
268
100
AcDbEntity
  8
0
100
AcDbMText
 62
2
  6
CONTINUOUS
  7
STANDARD
 71
2
 72
1
 10
6.055
 20
-1.1565
 30
0.0
 11
1.0
 21
0.0
 31
0.0
 44
0.9
  1
None
 40
0.125
 41
0.8
  0
MTEXT
  5
269
100
AcDbEntity
  8
0
100
AcDbMText
 62
2
  6
CONTINUOUS
  7
STANDARD
 71
2
 72
1
 10
1.5275
 20
-1.4065
 30
0.0
 11
1.0
 21
0.0
 31
0.0
 44
0.9
  1
Open Cavity Quantity
 40
0.125
 41
4.0
  0
MTEXT
  5
26A
100
AcDbEntity
  8
0
100
AcDbMText
 62
2
  6
CONTINUOUS
  7
STANDARD
 71
2
 72
1
 10
6.055
 20
-1.4065
 30
0.0
 11
1.0
 21
0.0
 31
0.0
 44
0.9
  1
1
 40
0.125
 41
0.2
  0
MTEXT
  5
26B
100
AcDbEntity
  8
0
100
AcDbMText
 62
2
  6
CONTINUOUS
  7
STANDARD
 71
2
 72
1
 10
1.5275
 20
-1.6565
 30
0.0
 11
1.0
 21
0.0
 31
0.0
 44
0.9
  1
Weight
 40
0.125
 41
1.2
  0
MTEXT
  5
26C
100
AcDbEntity
  8
0
100
AcDbMText
 62
2
  6
CONTINUOUS
  7
STANDARD
 71
2
 72
1
 10
4.555
 20
-1.6565
 30
0.0
 11
1.0
 21
0.0
 31
0.0
 44
0.9
  1
7.994 lb.
 40
0.125
 41
1.8
  0
MTEXT
  5
26D
100
AcDbEntity
  8
0
100
AcDbMText
 62
2
  6
CONTINUOUS
  7
STANDARD
 71
2
 72
1
 10
7.555
 20
-1.6565
 30
0.0
 11
1.0
 21
0.0
 31
0.0
 44
0.9
  1
3,626 kg.
 40
0.125
 41
1.8
  0
MTEXT
  5
26E
100
AcDbEntity
  8
0
100
AcDbMText
 62
2
  6
CONTINUOUS
  7
STANDARD
 71
2
 72
1
 10
1.5275
 20
-1.9065
 30
0.0
 11
1.0
 21
0.0
 31
0.0
 44
0.9
  1
Mounting Hole Thread
 40
0.125
 41
4.0
  0
MTEXT
  5
26F
100
AcDbEntity
  8
0
100
AcDbMText
 62
2
  6
CONTINUOUS
  7
STANDARD
 71
2
 72
1
 10
4.555
 20
-1.9065
 30
0.0
 11
1.0
 21
0.0
 31
0.0
 44
0.9
  1
.375-16 UNC - 2B in.
 40
0.125
 41
4.0
  0
MTEXT
  5
270
100
AcDbEntity
  8
0
100
AcDbMText
 62
2
  6
CONTINUOUS
  7
STANDARD
 71
2
 72
1
 10
1.5275
 20
-2.1565
 30
0.0
 11
1.0
 21
0.0
 31
0.0
 44
0.9
  1
Mounting Hole Depth
 40
0.125
 41
3.8
  0
MTEXT
  5
271
100
AcDbEntity
  8
0
100
AcDbMText
 62
2
  6
CONTINUOUS
  7
STANDARD
 71
2
 72
1
 10
4.555
 20
-2.1565
 30
0.0
 11
1.0
 21
0.0
 31
0.0
 44
0.9
  1
.62 in.
 40
0.125
 41
1.4
  0
MTEXT
  5
272
100
AcDbEntity
  8
0
100
AcDbMText
 62
2
  6
CONTINUOUS
  7
STANDARD
 71
2
 72
1
 10
7.555
 20
-2.1565
 30
0.0
 11
1.0
 21
0.0
 31
0.0
 44
0.9
  1
15,7 mm
 40
0.125
 41
1.4
  0
MTEXT
  5
273
100
AcDbEntity
  8
0
100
AcDbMText
 62
2
  6
CONTINUOUS
  7
STANDARD
 71
2
 72
1
 10
1.5275
 20
-2.4065
 30
0.0
 11
1.0
 21
0.0
 31
0.0
 44
0.9
  1
Mounting Hole Quantity
 40
0.125
 41
4.4
  0
MTEXT
  5
274
100
AcDbEntity
  8
0
100
AcDbMText
 62
2
  6
CONTINUOUS
  7
STANDARD
 71
2
 72
1
 10
6.055
 20
-2.4065
 30
0.0
 11
1.0
 21
0.0
 31
0.0
 44
0.9
  1
2
 40
0.125
 41
0.2
  0
ENDBLK
  5
275
100
AcDbEntity
  8
0
  6
BYBLOCK
 62
0
100
AcDbBlockEnd
  0
BLOCK
  5
276
100
AcDbEntity
  8
0
100
AcDbBlockBegin
  2
*T3
 70
1
 10
0.0
 20
0.0
  3
*T3
  1

  0
LINE
  5
277
100
AcDbEntity
  8
0
100
AcDbLine
 62
2
  6
CONTINUOUS
 10
0.0
 20
0.0
 11
4.6
 21
0.0
  0
LINE
  5
278
100
AcDbEntity
  8
0
100
AcDbLine
 62
2
  6
CONTINUOUS
 10
0.0
 20
0.0
 11
0.0
 21
-1.18775
  0
LINE
  5
279
100
AcDbEntity
  8
0
100
AcDbLine
 62
2
  6
CONTINUOUS
 10
0.0
 20
-0.34375
 11
4.6
 21
-0.34375
  0
LINE
  5
27A
100
AcDbEntity
  8
0
100
AcDbLine
 62
2
  6
CONTINUOUS
 10
0.0
 20
-0.68775
 11
4.6
 21
-0.68775
  0
LINE
  5
27B
100
AcDbEntity
  8
0
100
AcDbLine
 62
2
  6
CONTINUOUS
 10
0.0
 20
-0.93775
 11
4.6
 21
-0.93775
  0
LINE
  5
27C
100
AcDbEntity
  8
0
100
AcDbLine
 62
2
  6
CONTINUOUS
 10
0.0
 20
-1.18775
 11
4.6
 21
-1.18775
  0
LINE
  5
27D
100
AcDbEntity
  8
0
100
AcDbLine
 62
2
  6
CONTINUOUS
 10
1.3
 20
-0.34375
 11
1.3
 21
-1.18775
  0
LINE
  5
27E
100
AcDbEntity
  8
0
100
AcDbLine
 62
2
  6
CONTINUOUS
 10
3.3
 20
-0.34375
 11
3.3
 21
-1.18775
  0
LINE
  5
27F
100
AcDbEntity
  8
0
100
AcDbLine
 62
2
  6
CONTINUOUS
 10
4.6
 20
0.0
 11
4.6
 21
-1.18775
  0
MTEXT
  5
280
100
AcDbEntity
  8
0
100
AcDbMText
 62
2
  6
CONTINUOUS
  7
STANDARD
 71
2
 72
1
 10
2.3
 20
-0.099375
 30
0.0
 11
1.0
 21
0.0
 31
0.0
 44
0.9
  1
Port Headings
 40
0.145
 41
3.016
  0
MTEXT
  5
281
100
AcDbEntity
  8
0
100
AcDbMText
 62
2
  6
CONTINUOUS
  7
STANDARD
 71
2
 72
1
 10
0.65
 20
-0.44325
 30
0.0
 11
1.0
 21
0.0
 31
0.0
 44
0.9
  1
Product
 40
0.145
 41
1.624
  0
MTEXT
  5
282
100
AcDbEntity
  8
0
100
AcDbMText
 62
2
  6
CONTINUOUS
  7
STANDARD
 71
2
 72
1
 10
2.3
 20
-0.44325
 30
0.0
 11
1.0
 21
0.0
 31
0.0
 44
0.9
  1
Port
 40
0.145
 41
0.928
  0
MTEXT
  5
283
100
AcDbEntity
  8
0
100
AcDbMText
 62
2
  6
CONTINUOUS
  7
STANDARD
 71
2
 72
1
 10
3.95
 20
-0.44325
 30
0.0
 11
1.0
 21
0.0
 31
0.0
 44
0.9
  1
Size
 40
0.145
 41
0.928
  0
MTEXT
  5
284
100
AcDbEntity
  8
0
100
AcDbMText
 62
2
  6
CONTINUOUS
  7
STANDARD
 71
2
 72
1
 10
0.65
 20
-0.75025
 30
0.0
 11
1.0
 21
0.0
 31
0.0
 44
0.9
  1
IN5
 40
0.125
 41
0.6
  0
MTEXT
  5
285
100
AcDbEntity
  8
0
100
AcDbMText
 62
2
  6
CONTINUOUS
  7
STANDARD
 71
2
 72
1
 10
2.3
 20
-0.75025
 30
0.0
 11
1.0
 21
0.0
 31
0.0
 44
0.9
  1
Ports 1 &  2
 40
0.125
 41
2.4
  0
MTEXT
  5
286
100
AcDbEntity
  8
0
100
AcDbMText
 62
2
  6
CONTINUOUS
  7
STANDARD
 71
2
 72
1
 10
3.95
 20
-0.75025
 30
0.0
 11
1.0
 21
0.0
 31
0.0
 44
0.9
  1
1 1/4" Code 62
 40
0.125
 41
2.8
  0
MTEXT
  5
287
100
AcDbEntity
  8
0
100
AcDbMText
 62
2
  6
CONTINUOUS
  7
STANDARD
 71
2
 72
1
 10
0.65
 20
-1.00025
 30
0.0
 11
1.0
 21
0.0
 31
0.0
 44
0.9
  1
IN5
 40
0.125
 41
0.6
  0
MTEXT
  5
288
100
AcDbEntity
  8
0
100
AcDbMText
 62
2
  6
CONTINUOUS
  7
STANDARD
 71
2
 72
1
 10
2.3
 20
-1.00025
 30
0.0
 11
1.0
 21
0.0
 31
0.0
 44
0.9
  1
Gage Port
 40
0.125
 41
1.8
  0
MTEXT
  5
289
100
AcDbEntity
  8
0
100
AcDbMText
 62
2
  6
CONTINUOUS
  7
STANDARD
 71
2
 72
1
 10
3.95
 20
-1.00025
 30
0.0
 11
1.0
 21
0.0
 31
0.0
 44
0.9
  1
1/4" NPTF
 40
0.125
 41
1.8
  0
ENDBLK
  5
28A
100
AcDbEntity
  8
0
  6
BYBLOCK
 62
0
100
AcDbBlockEnd
  0
ENDSEC
  0
SECTION
  2
ENTITIES
  0
IMAGE
  5
28B
100
AcDbEntity
  8
0
100
AcDbRasterImage
 62
7
  6
CONTINUOUS
 10
19.2297077316
 20
0.3094318264
 30
0.0
 11
0.0066666667
 21
0.0
 31
0.0
 12
0.0
 22
0.0066666667
 32
0.0
 13
369.0
 23
92.0
340
       399
 70
9
280
0
281
50
282
50
283
0
360
       393
 71
1
 91
2
 14
-0.5
 24
-0.5
 14
368.5
 24
91.5
  0
INSERT
  5
28C
100
AcDbEntity
  8
0
100
AcDbBlockReference
 62
2
  6
CONTINUOUS
  2
SUN_FIRST_THIRD_ANGLE_BL0
 10
20.4816717061
 20
1.2289683772
  0
ACAD_TABLE
  5
28D
100
AcDbEntity
  8
0
 62
2
  6
CONTINUOUS
100
AcDbBlockReference
  2
*T1
 10
12.42375
 20
0.30125
 30
0.0
100
AcDbTable
342
       39B
343
20F
 11
1.0
 21
0.0
 31
0.0
 90
6
 91
4
 92
6
 93
20
 94
0
 95
0
 96
0
 70
1
 41
0.0
141
0.525
141
0.1
141
0.525
141
0.1
142
4.1
142
1.1
142
0.7
142
0.5
142
0.4
142
2.475
171
1
172
0
173
0
174
0
175
1
176
1
 91
33
178
0
145
0.0
301
CELL_VALUE
 90
4
  1
T-16A Line mount\PNinety degree with reverse flow check
304
ACVALUE_END
170
2
140
0.125
171
1
172
0
173
0
174
0
175
1
176
1
 91
33
178
0
145
0.0
301
CELL_VALUE
 90
4
  1
Jun-27-22
304
ACVALUE_END
170
5
140
0.125
171
1
172
0
173
0
174
0
175
1
176
1
 91
33
178
0
145
0.0
301
CELL_VALUE
 90
4
  1
1.000
304
ACVALUE_END
170
5
140
0.125
171
1
172
0
173
0
174
0
175
1
176
1
 91
33
178
0
145
0.0
301
CELL_VALUE
 90
4
  1
C
304
ACVALUE_END
170
5
140
0.125
171
1
172
0
173
0
174
0
175
1
176
1
 91
33
178
0
145
0.0
301
CELL_VALUE
 90
4
  1
2
304
ACVALUE_END
170
5
140
0.125
171
1
172
0
173
0
174
0
175
1
176
1
 91
33
178
0
145
0.0
301
CELL_VALUE
 90
4
  1
 
304
ACVALUE_END
170
1
140
0.125
171
1
172
0
173
0
174
0
175
1
176
1
 91
33
178
0
145
0.0
301
CELL_VALUE
 90
4
  1
DESCRIPTION
304
ACVALUE_END
170
1
140
0.06
171
1
172
0
173
0
174
0
175
1
176
1
 91
33
178
0
145
0.0
301
CELL_VALUE
 90
4
  1
DATE
304
ACVALUE_END
170
1
140
0.06
171
1
172
0
173
0
174
0
175
1
176
1
 91
33
178
0
145
0.0
301
CELL_VALUE
 90
4
  1
SCALE
304
ACVALUE_END
170
1
140
0.06
171
1
172
0
173
0
174
0
175
1
176
1
 91
33
178
0
145
0.0
301
CELL_VALUE
 90
4
  1
DWG SIZE
304
ACVALUE_END
170
1
140
0.06
171
1
172
0
173
0
174
0
175
1
176
1
 91
33
178
0
145
0.0
301
CELL_VALUE
 90
4
  1
SHEET
304
ACVALUE_END
170
1
140
0.06
171
1
172
0
173
0
174
0
175
1
176
1
 91
33
178
0
145
0.0
301
CELL_VALUE
 90
4
  1
 
304
ACVALUE_END
170
1
140
0.125
171
1
172
0
173
0
174
0
175
1
176
1
 91
33
178
0
145
0.0
301
CELL_VALUE
 90
4
  1
IN5
304
ACVALUE_END
170
5
140
0.125
171
1
172
0
173
0
174
0
175
4
176
1
 91
33
178
0
145
0.0
301
CELL_VALUE
 90
4
  1
ALL DIMENSIONS IN INCH\PVIEWS ARE THIRD ANGLE
304
ACVALUE_END
170
5
140
0.12
171
1
172
0
173
1
174
0
175
1
176
1
 91
1
178
0
145
0.0
170
1
171
1
172
0
173
1
174
0
175
1
176
1
 91
1
178
0
145
0.0
170
1
171
1
172
0
173
1
174
0
175
1
176
1
 91
1
178
0
145
0.0
170
5
171
1
172
0
173
0
174
0
175
1
176
1
 91
33
178
0
145
0.0
301
CELL_VALUE
 90
4
  1
 
304
ACVALUE_END
170
1
140
0.125
171
1
172
0
173
0
174
0
175
1
176
1
 91
33
178
0
145
0.0
301
CELL_VALUE
 90
4
  1
MODEL
304
ACVALUE_END
170
1
140
0.06
171
1
172
0
173
0
174
0
175
1
176
1
 91
33
178
0
145
0.0
301
CELL_VALUE
 90
4
  1
 
304
ACVALUE_END
170
1
140
0.125
171
1
172
0
173
0
174
0
175
1
176
1
 91
33
178
0
145
0.0
301
CELL_VALUE
 90
4
  1
 
304
ACVALUE_END
170
1
140
0.125
171
1
172
0
173
0
174
0
175
1
176
1
 91
33
178
0
145
0.0
301
CELL_VALUE
 90
4
  1
 
304
ACVALUE_END
170
1
140
0.125
171
1
172
0
173
0
174
0
175
1
176
1
 91
33
178
0
145
0.0
301
CELL_VALUE
 90
4
  1
 
304
ACVALUE_END
170
1
140
0.125
171
1
172
0
173
0
174
0
175
1
176
1
 91
33
178
0
145
0.0
301
CELL_VALUE
 90
4
  1
 
304
ACVALUE_END
170
1
140
0.125
  0
ACAD_TABLE
  5
28E
100
AcDbEntity
  8
0
 62
2
  6
CONTINUOUS
100
AcDbBlockReference
  2
*T2
 10
12.4237499994
 20
16.47875
 30
0.0
100
AcDbTable
342
       39A
343
210
 11
1.0
 21
0.0
 31
0.0
 90
22
 91
10
 92
3
 93
16
 94
0
 95
0
 96
0
 41
0.028
141
0.344
141
0.25
141
0.25
141
0.25
141
0.25
141
0.25
141
0.25
141
0.25
141
0.25
141
0.25
142
3.055
142
3.0
142
3.0
171
1
172
0
173
0
174
0
175
1
176
1
 91
33
178
0
145
0.0
301
CELL_VALUE
 90
4
  1
Technical Data
304
ACVALUE_END
170
5
140
0.145
171
1
172
0
173
0
174
0
175
1
176
1
 91
33
178
0
145
0.0
301
CELL_VALUE
 90
4
  1
U.S. Units
304
ACVALUE_END
170
5
140
0.145
171
1
172
0
173
0
174
0
175
1
176
1
 91
33
178
0
145
0.0
301
CELL_VALUE
 90
4
  1
Metric Units
304
ACVALUE_END
170
5
140
0.145
171
1
172
0
173
0
174
0
175
1
176
1
 91
33
178
0
145
0.0
301
CELL_VALUE
 90
4
  1
Cavity
304
ACVALUE_END
170
5
140
0.125
171
1
172
0
173
0
174
0
175
2
176
1
 91
33
178
0
145
0.0
301
CELL_VALUE
 90
4
  1
T-16A
304
ACVALUE_END
170
5
140
0.125
171
1
172
0
173
1
174
0
175
1
176
1
 91
1
178
0
145
0.0
170
1
171
1
172
0
173
0
174
0
175
1
176
1
 91
33
178
0
145
0.0
301
CELL_VALUE
 90
4
  1
Body Features
304
ACVALUE_END
170
5
140
0.125
171
1
172
0
173
0
174
0
175
2
176
1
 91
33
178
0
145
0.0
301
CELL_VALUE
 90
4
  1
Ninety degree with reverse flow check
304
ACVALUE_END
170
5
140
0.125
171
1
172
0
173
1
174
0
175
1
176
1
 91
1
178
0
145
0.0
170
1
171
1
172
0
173
0
174
0
175
1
176
1
 91
33
178
0
145
0.0
301
CELL_VALUE
 90
4
  1
Body Type
304
ACVALUE_END
170
5
140
0.125
171
1
172
0
173
0
174
0
175
2
176
1
 91
33
178
0
145
0.0
301
CELL_VALUE
 90
4
  1
Line mount
304
ACVALUE_END
170
5
140
0.125
171
1
172
0
173
1
174
0
175
1
176
1
 91
1
178
0
145
0.0
170
1
171
1
172
0
173
0
174
0
175
1
176
1
 91
33
178
0
145
0.0
301
CELL_VALUE
 90
4
  1
Interface
304
ACVALUE_END
170
5
140
0.125
171
1
172
0
173
0
174
0
175
2
176
1
 91
33
178
0
145
0.0
301
CELL_VALUE
 90
4
  1
None
304
ACVALUE_END
170
5
140
0.125
171
1
172
0
173
1
174
0
175
1
176
1
 91
1
178
0
145
0.0
170
1
171
1
172
0
173
0
174
0
175
1
176
1
 91
33
178
0
145
0.0
301
CELL_VALUE
 90
4
  1
Open Cavity Quantity
304
ACVALUE_END
170
5
140
0.125
171
1
172
0
173
0
174
0
175
2
176
1
 91
33
178
0
145
0.0
301
CELL_VALUE
 90
4
  1
1
304
ACVALUE_END
170
5
140
0.125
171
1
172
0
173
1
174
0
175
1
176
1
 91
1
178
0
145
0.0
170
1
171
1
172
0
173
0
174
0
175
1
176
1
 91
33
178
0
145
0.0
301
CELL_VALUE
 90
4
  1
Weight
304
ACVALUE_END
170
5
140
0.125
171
1
172
0
173
0
174
0
175
1
176
1
 91
33
178
0
145
0.0
301
CELL_VALUE
 90
4
  1
7.994 lb.
304
ACVALUE_END
170
5
140
0.125
171
1
172
0
173
0
174
0
175
1
176
1
 91
33
178
0
145
0.0
301
CELL_VALUE
 90
4
  1
3,626 kg.
304
ACVALUE_END
170
5
140
0.125
171
1
172
0
173
0
174
0
175
1
176
1
 91
33
178
0
145
0.0
301
CELL_VALUE
 90
4
  1
Mounting Hole Thread
304
ACVALUE_END
170
5
140
0.125
171
1
172
0
173
0
174
0
175
1
176
1
 91
33
178
0
145
0.0
301
CELL_VALUE
 90
4
  1
.375-16 UNC - 2B in.
304
ACVALUE_END
170
5
140
0.125
171
1
172
0
173
0
174
0
175
1
176
1
 91
33
178
0
145
0.0
301
CELL_VALUE
 90
4
  1
 
304
ACVALUE_END
170
5
140
0.125
171
1
172
0
173
0
174
0
175
1
176
1
 91
33
178
0
145
0.0
301
CELL_VALUE
 90
4
  1
Mounting Hole Depth
304
ACVALUE_END
170
5
140
0.125
171
1
172
0
173
0
174
0
175
1
176
1
 91
33
178
0
145
0.0
301
CELL_VALUE
 90
4
  1
.62 in.
304
ACVALUE_END
170
5
140
0.125
171
1
172
0
173
0
174
0
175
1
176
1
 91
33
178
0
145
0.0
301
CELL_VALUE
 90
4
  1
15,7 mm
304
ACVALUE_END
170
5
140
0.125
171
1
172
0
173
0
174
0
175
1
176
1
 91
33
178
0
145
0.0
301
CELL_VALUE
 90
4
  1
Mounting Hole Quantity
304
ACVALUE_END
170
5
140
0.125
171
1
172
0
173
0
174
0
175
2
176
1
 91
33
178
0
145
0.0
301
CELL_VALUE
 90
4
  1
2
304
ACVALUE_END
170
5
140
0.125
171
1
172
0
173
1
174
0
175
1
176
1
 91
1
178
0
145
0.0
170
1
  0
ACAD_TABLE
  5
28F
100
AcDbEntity
  8
0
 62
2
  6
CONTINUOUS
100
AcDbBlockReference
  2
*T3
 10
0.52125
 20
1.709
 30
0.0
100
AcDbTable
342
       39A
343
211
 11
1.0
 21
0.0
 31
0.0
 90
22
 91
4
 92
3
 93
16
 94
0
 95
0
 96
0
 41
0.05
141
0.34375
141
0.344
141
0.25
141
0.25
142
1.3
142
2.0
142
1.3
171
1
172
0
173
0
174
0
175
3
176
1
 91
33
178
0
145
0.0
301
CELL_VALUE
 90
4
  1
Port Headings
304
ACVALUE_END
170
5
140
0.145
171
1
172
0
173
1
174
0
175
1
176
1
 91
1
178
0
145
0.0
170
1
171
1
172
0
173
1
174
0
175
1
176
1
 91
1
178
0
145
0.0
170
1
171
1
172
0
173
0
174
0
175
1
176
1
 91
33
178
0
145
0.0
301
CELL_VALUE
 90
4
  1
Product
304
ACVALUE_END
170
5
140
0.145
171
1
172
0
173
0
174
0
175
1
176
1
 91
33
178
0
145
0.0
301
CELL_VALUE
 90
4
  1
Port
304
ACVALUE_END
170
5
140
0.145
171
1
172
0
173
0
174
0
175
1
176
1
 91
33
178
0
145
0.0
301
CELL_VALUE
 90
4
  1
Size
304
ACVALUE_END
170
5
140
0.145
171
1
172
0
173
0
174
0
175
1
176
1
 91
33
178
0
145
0.0
301
CELL_VALUE
 90
4
  1
IN5
304
ACVALUE_END
170
5
140
0.125
171
1
172
0
173
0
174
0
175
1
176
1
 91
33
178
0
145
0.0
301
CELL_VALUE
 90
4
  1
Ports 1 &  2
304
ACVALUE_END
170
5
140
0.125
171
1
172
0
173
0
174
0
175
1
176
1
 91
33
178
0
145
0.0
301
CELL_VALUE
 90
4
  1
1 1/4" Code 62
304
ACVALUE_END
170
5
140
0.125
171
1
172
0
173
0
174
0
175
1
176
1
 91
33
178
0
145
0.0
301
CELL_VALUE
 90
4
  1
IN5
304
ACVALUE_END
170
5
140
0.125
171
1
172
0
173
0
174
0
175
1
176
1
 91
33
178
0
145
0.0
301
CELL_VALUE
 90
4
  1
Gage Port
304
ACVALUE_END
170
5
140
0.125
171
1
172
0
173
0
174
0
175
1
176
1
 91
33
178
0
145
0.0
301
CELL_VALUE
 90
4
  1
1/4" NPTF
304
ACVALUE_END
170
5
140
0.125
  0
MTEXT
  5
290
100
AcDbEntity
  8
0
100
AcDbMText
 62
2
  6
CONTINUOUS
  7
STANDARD
 71
1
 72
1
 10
0.52125
 20
5.75995
 30
0.0
 11
1.0
 21
0.0
 31
0.0
 44
0.6
  3
Notes\P \P1. Important: Carefully consider\P   the maximum system pressure. The\P   pressure rating of the manifold is\P   dependent on the manifold material,\P   with the port type/size a secondary\P   consideration. Manifolds\P   constructed of alu
  1
minum are not\P   rated for pressures higher than\P   3000 psi (210 bar), regardless of\P   the port type/size specified.
 40
0.1
 41
3.04
  0
LINE
  5
291
100
AcDbEntity
  8
0
100
AcDbLine
 62
7
  6
CONTINUOUS
 10
0.30125
 20
0.30125
 11
0.30125
 21
16.69875
  0
LINE
  5
292
100
AcDbEntity
  8
0
100
AcDbLine
 62
7
  6
CONTINUOUS
 10
0.30125
 20
0.30125
 11
21.69875
 21
0.30125
  0
LINE
  5
293
100
AcDbEntity
  8
0
100
AcDbLine
 62
7
  6
CONTINUOUS
 10
0.30125
 20
16.69875
 11
21.69875
 21
16.69875
  0
LINE
  5
294
100
AcDbEntity
  8
0
100
AcDbLine
 62
7
  6
CONTINUOUS
 10
21.69875
 20
0.30125
 11
21.69875
 21
16.69875
  0
LINE
  5
295
100
AcDbEntity
  8
0
100
AcDbLine
 62
7
  6
CONTINUOUS
 10
9.3742480298
 20
11.7562165106
 11
8.3389727038
 21
10.7562172767
  0
LINE
  5
296
100
AcDbEntity
  8
0
100
AcDbLine
 62
7
  6
CONTINUOUS
 10
8.3389727038
 20
5.9265878591
 11
8.3389727038
 21
10.7562172767
  0
LINE
  5
297
100
AcDbEntity
  8
0
100
AcDbLine
 62
4
  6
CONTINUOUS
 10
8.501248322
 20
7.4608153858
 11
8.501248322
 21
7.2869487199
  0
LINE
  5
298
100
AcDbEntity
  8
0
100
AcDbLine
 62
7
  6
CONTINUOUS
 10
8.3389727038
 20
5.9265878591
 11
12.6257519702
 21
5.6292987072
  0
LINE
  5
299
100
AcDbEntity
  8
0
100
AcDbLine
 62
7
  6
CONTINUOUS
 10
11.2646782154
 20
5.3450869314
 11
11.2960003111
 21
5.3296144158
  0
LINE
  5
29A
100
AcDbEntity
  8
0
100
AcDbLine
 62
4
  6
CONTINUOUS
 10
9.6679489333
 20
9.1806663799
 11
9.6927870296
 21
9.2037819457
  0
LINE
  5
29B
100
AcDbEntity
  8
0
100
AcDbLine
 62
4
  6
CONTINUOUS
 10
9.9754928755
 20
7.5421020943
 11
9.9537595422
 21
7.5580981954
  0
LINE
  5
29C
100
AcDbEntity
  8
0
100
AcDbLine
 62
4
  6
CONTINUOUS
 10
9.9537595422
 20
7.5580981954
 11
9.932026209
 21
7.5885831844
  0
LINE
  5
29D
100
AcDbEntity
  8
0
100
AcDbLine
 62
4
  6
CONTINUOUS
 10
9.6679489333
 20
9.1558282863
 11
9.6679489333
 21
9.1806663799
  0
LINE
  5
29E
100
AcDbEntity
  8
0
100
AcDbLine
 62
4
  6
CONTINUOUS
 10
9.7548822663
 20
9.0504470568
 11
9.7548822663
 21
9.075285153
  0
LINE
  5
29F
100
AcDbEntity
  8
0
100
AcDbLine
 62
4
  6
CONTINUOUS
 10
9.8045584536
 20
9.1960305712
 11
9.8045584536
 21
9.0470020015
  0
LINE
  5
2A0
100
AcDbEntity
  8
0
100
AcDbLine
 62
4
  6
CONTINUOUS
 10
9.8583742269
 20
8.1317117724
 11
9.8583742269
 21
8.3055784383
  0
LINE
  5
2A1
100
AcDbEntity
  8
0
100
AcDbLine
 62
4
  6
CONTINUOUS
 10
9.8914917866
 20
9.0409731543
 11
9.8914917866
 21
9.190001724
  0
LINE
  5
2A2
100
AcDbEntity
  8
0
100
AcDbLine
 62
4
  6
CONTINUOUS
 10
9.7300441726
 20
9.0273314882
 11
9.7548822663
 21
9.0504470568
  0
LINE
  5
2A3
100
AcDbEntity
  8
0
100
AcDbLine
 62
4
  6
CONTINUOUS
 10
9.8666537033
 20
9.017857585
 11
9.8914917866
 21
9.0409731543
  0
LINE
  5
2A4
100
AcDbEntity
  8
0
100
AcDbLine
 62
4
  6
CONTINUOUS
 10
9.9972262087
 20
7.7144615485
 11
10.018959542
 21
7.6984654513
  0
LINE
  5
2A5
100
AcDbEntity
  8
0
100
AcDbLine
 62
4
  6
CONTINUOUS
 10
10.018959542
 20
7.6984654513
 11
10.0298262086
 21
7.6832229497
  0
LINE
  5
2A6
100
AcDbEntity
  8
0
100
AcDbLine
 62
4
  6
CONTINUOUS
 10
9.932026209
 20
7.5885831844
 11
9.9211595424
 21
7.6328034568
  0
LINE
  5
2A7
100
AcDbEntity
  8
0
100
AcDbLine
 62
4
  6
CONTINUOUS
 10
9.9411679739
 20
9.0126900028
 11
9.9411679739
 21
9.1865566688
  0
LINE
  5
2A8
100
AcDbEntity
  8
0
100
AcDbLine
 62
4
  6
CONTINUOUS
 10
9.9453075495
 20
8.2747114983
 11
9.9453075495
 21
8.1505210222
  0
LINE
  5
2A9
100
AcDbEntity
  8
0
100
AcDbLine
 62
4
  6
CONTINUOUS
 10
10.0281013068
 20
9.0066611557
 11
10.0281013068
 21
9.1805278216
  0
LINE
  5
2AA
100
AcDbEntity
  8
0
100
AcDbLine
 62
4
  6
CONTINUOUS
 10
10.0298262086
 20
7.6252673979
 11
10.0298262086
 21
7.5673118434
  0
LINE
  5
2AB
100
AcDbEntity
  8
0
100
AcDbLine
 62
4
  6
CONTINUOUS
 10
9.9211595424
 20
7.6328034568
 11
9.932026209
 21
7.6755165174
  0
LINE
  5
2AC
100
AcDbEntity
  8
0
100
AcDbLine
 62
4
  6
CONTINUOUS
 10
10.0156821533
 20
8.1208024306
 11
10.0653583406
 21
8.2912240413
  0
LINE
  5
2AD
100
AcDbEntity
  8
0
100
AcDbLine
 62
4
  6
CONTINUOUS
 10
9.9972262087
 20
7.5405948826
 11
9.9754928755
 21
7.5421020943
  0
LINE
  5
2AE
100
AcDbEntity
  8
0
100
AcDbLine
 62
4
  6
CONTINUOUS
 10
9.9863595421
 20
7.6282818214
 11
10.0298262086
 21
7.6252673979
  0
LINE
  5
2AF
100
AcDbEntity
  8
0
100
AcDbLine
 62
4
  6
CONTINUOUS
 10
9.9754928755
 20
7.7159687603
 11
9.9972262087
 21
7.7144615485
  0
LINE
  5
2B0
100
AcDbEntity
  8
0
100
AcDbLine
 62
4
  6
CONTINUOUS
 10
9.7590218419
 20
8.2131161698
 11
9.8252567635
 21
8.1754053016
  0
LINE
  5
2B1
100
AcDbEntity
  8
0
100
AcDbLine
 62
4
  6
CONTINUOUS
 10
9.9204694558
 20
8.3012721195
 11
9.9453075495
 21
8.2747114983
  0
LINE
  5
2B2
100
AcDbEntity
  8
0
100
AcDbLine
 62
4
  6
CONTINUOUS
 10
10.0653583406
 20
8.2912240413
 11
10.1150345487
 21
8.1139123186
  0
LINE
  5
2B3
100
AcDbEntity
  8
0
100
AcDbLine
 62
4
  6
CONTINUOUS
 10
10.2143869233
 20
8.107022208
 11
10.2143869233
 21
8.2808888739
  0
LINE
  5
2B4
100
AcDbEntity
  8
0
100
AcDbLine
 62
4
  6
CONTINUOUS
 10
10.2143870144
 20
8.993742198
 11
10.2143870144
 21
9.1676088639
  0
LINE
  5
2B5
100
AcDbEntity
  8
0
100
AcDbLine
 62
4
  6
CONTINUOUS
 10
10.2889013058
 20
9.100346041
 11
10.2889013058
 21
8.9885746143
  0
LINE
  5
2B6
100
AcDbEntity
  8
0
100
AcDbLine
 62
4
  6
CONTINUOUS
 10
10.3137392979
 20
8.1001320974
 11
10.3137392979
 21
8.2739987634
  0
LINE
  5
2B7
100
AcDbEntity
  8
0
100
AcDbLine
 62
4
  6
CONTINUOUS
 10
10.3365076212
 20
8.4810597739
 11
10.3365076212
 21
8.6549264399
  0
LINE
  5
2B8
100
AcDbEntity
  8
0
100
AcDbLine
 62
4
  6
CONTINUOUS
 10
10.415161587
 20
8.4756051029
 11
10.415161587
 21
8.6494717688
  0
LINE
  5
2B9
100
AcDbEntity
  8
0
100
AcDbLine
 62
4
  6
CONTINUOUS
 10
10.4462092633
 20
8.9900843186
 11
10.4462092633
 21
9.0894366971
  0
LINE
  5
2BA
100
AcDbEntity
  8
0
100
AcDbLine
 62
4
  6
CONTINUOUS
 10
10.3634155971
 20
8.9420102053
 11
10.4130917637
 21
9.1041524555
  0
LINE
  5
2BB
100
AcDbEntity
  8
0
100
AcDbLine
 62
4
  6
CONTINUOUS
 10
10.4462092633
 20
9.0894366971
 11
10.4710473466
 21
9.1001332221
  0
LINE
  5
2BC
100
AcDbEntity
  8
0
100
AcDbLine
 62
4
  6
CONTINUOUS
 10
10.6821711789
 20
9.0109774485
 11
10.7070092622
 21
9.0216739684
  0
LINE
  5
2BD
100
AcDbEntity
  8
0
100
AcDbLine
 62
4
  6
CONTINUOUS
 10
9.6679489333
 20
9.0440568558
 11
9.6803679814
 21
9.0307765437
  0
LINE
  5
2BE
100
AcDbEntity
  8
0
100
AcDbLine
 62
4
  6
CONTINUOUS
 10
10.5993774216
 20
8.0803230263
 11
10.5745393383
 21
8.1068836494
  0
LINE
  5
2BF
100
AcDbEntity
  8
0
100
AcDbLine
 62
4
  6
CONTINUOUS
 10
9.9411679739
 20
9.1865566688
 11
10.0281013068
 21
9.0066611557
  0
LINE
  5
2C0
100
AcDbEntity
  8
0
100
AcDbLine
 62
4
  6
CONTINUOUS
 10
10.5020949304
 20
8.469576255
 11
10.5020949304
 21
8.643442921
  0
LINE
  5
2C1
100
AcDbEntity
  8
0
100
AcDbLine
 62
4
  6
CONTINUOUS
 10
10.5207235132
 20
9.1463643556
 11
10.5207235132
 21
8.9724976896
  0
LINE
  5
2C2
100
AcDbEntity
  8
0
100
AcDbLine
 62
4
  6
CONTINUOUS
 10
10.5517711177
 20
8.5654835847
 11
10.5517711177
 21
8.6399978657
  0
LINE
  5
2C3
100
AcDbEntity
  8
0
100
AcDbLine
 62
4
  6
CONTINUOUS
 10
10.5703997627
 20
8.96905263
 11
10.5703997627
 21
9.0932431087
  0
LINE
  5
2C4
100
AcDbEntity
  8
0
100
AcDbLine
 62
4
  6
CONTINUOUS
 10
10.5745393383
 20
8.1068836494
 11
10.5745393383
 21
8.2310741255
  0
LINE
  5
2C5
100
AcDbEntity
  8
0
100
AcDbLine
 62
4
  6
CONTINUOUS
 10
10.6262853883
 20
8.4858017138
 11
10.6262853883
 21
8.5354779037
  0
LINE
  5
2C6
100
AcDbEntity
  8
0
100
AcDbLine
 62
4
  6
CONTINUOUS
 10
10.6283552627
 20
9.0768048291
 11
10.6283552627
 21
9.0519667354
  0
LINE
  5
2C7
100
AcDbEntity
  8
0
100
AcDbLine
 62
4
  6
CONTINUOUS
 10
10.6821711789
 20
8.9737203041
 11
10.6821711789
 21
9.0109774485
  0
LINE
  5
2C8
100
AcDbEntity
  8
0
100
AcDbLine
 62
4
  6
CONTINUOUS
 10
10.7194281713
 20
8.0968355747
 11
10.7194281713
 21
8.2210260508
  0
LINE
  5
2C9
100
AcDbEntity
  8
0
100
AcDbLine
 62
4
  6
CONTINUOUS
 10
10.7566854288
 20
8.9561336752
 11
10.7566854288
 21
9.0554860602
  0
LINE
  5
2CA
100
AcDbEntity
  8
0
100
AcDbLine
 62
4
  6
CONTINUOUS
 10
9.932026209
 20
7.6755165174
 11
9.9537595422
 21
7.7029870867
  0
LINE
  5
2CB
100
AcDbEntity
  8
0
100
AcDbLine
 62
7
  6
CONTINUOUS
 10
12.6257519702
 20
10.4589281248
 11
13.6610272962
 21
11.4589273588
  0
LINE
  5
2CC
100
AcDbEntity
  8
0
100
AcDbLine
 62
4
  6
CONTINUOUS
 10
9.9453075495
 20
8.1505210222
 11
9.9204694558
 21
8.1274054536
  0
LINE
  5
2CD
100
AcDbEntity
  8
0
100
AcDbLine
 62
4
  6
CONTINUOUS
 10
11.1085584274
 20
9.0435026265
 11
11.1209774276
 21
9.0550604179
  0
LINE
  5
2CE
100
AcDbEntity
  8
0
100
AcDbLine
 62
4
  6
CONTINUOUS
 10
10.601447305
 20
8.4626861444
 11
10.6262853883
 21
8.4858017138
  0
LINE
  5
2CF
100
AcDbEntity
  8
0
100
AcDbLine
 62
4
  6
CONTINUOUS
 10
10.9181329205
 20
8.0582172573
 11
10.8560376709
 21
8.0625235775
  0
LINE
  5
2D0
100
AcDbEntity
  8
0
100
AcDbLine
 62
4
  6
CONTINUOUS
 10
10.781523421
 20
8.0676911583
 11
10.7442662546
 21
8.0702749516
  0
LINE
  5
2D1
100
AcDbEntity
  8
0
100
AcDbLine
 62
4
  6
CONTINUOUS
 10
10.6490535882
 20
8.0768779724
 11
10.5993774216
 21
8.0803230263
  0
LINE
  5
2D2
100
AcDbEntity
  8
0
100
AcDbLine
 62
4
  6
CONTINUOUS
 10
9.9204694558
 20
8.1274054536
 11
9.8583742269
 21
8.1317117724
  0
LINE
  5
2D3
100
AcDbEntity
  8
0
100
AcDbLine
 62
4
  6
CONTINUOUS
 10
10.3137392979
 20
8.1001320974
 11
10.3882535892
 21
8.0949645138
  0
LINE
  5
2D4
100
AcDbEntity
  8
0
100
AcDbLine
 62
4
  6
CONTINUOUS
 10
11.0133456699
 20
8.0516142307
 11
11.0878599197
 21
8.04644665
  0
LINE
  5
2D5
100
AcDbEntity
  8
0
100
AcDbLine
 62
4
  6
CONTINUOUS
 10
10.0322408824
 20
8.1693302713
 11
10.0984757989
 21
8.1647368643
  0
LINE
  5
2D6
100
AcDbEntity
  8
0
100
AcDbLine
 62
4
  6
CONTINUOUS
 10
11.0630218365
 20
8.1475215619
 11
11.0133456699
 21
8.1509666157
  0
LINE
  5
2D7
100
AcDbEntity
  8
0
100
AcDbLine
 62
4
  6
CONTINUOUS
 10
10.363415506
 20
8.1960394257
 11
10.3137392979
 21
8.1994844824
  0
LINE
  5
2D8
100
AcDbEntity
  8
0
100
AcDbLine
 62
4
  6
CONTINUOUS
 10
9.8583742269
 20
8.3055784383
 11
9.9204694558
 21
8.3012721195
  0
LINE
  5
2D9
100
AcDbEntity
  8
0
100
AcDbLine
 62
4
  6
CONTINUOUS
 10
10.1647107153
 20
8.2843339307
 11
10.2640630899
 21
8.2774438201
  0
LINE
  5
2DA
100
AcDbEntity
  8
0
100
AcDbLine
 62
4
  6
CONTINUOUS
 10
10.3137392979
 20
8.2739987634
 11
10.3882535892
 21
8.2688311797
  0
LINE
  5
2DB
100
AcDbEntity
  8
0
100
AcDbLine
 62
4
  6
CONTINUOUS
 10
10.5993774216
 20
8.2541896922
 11
10.6490535882
 21
8.2507446384
  0
LINE
  5
2DC
100
AcDbEntity
  8
0
100
AcDbLine
 62
4
  6
CONTINUOUS
 10
10.7442662546
 20
8.2441416175
 11
10.781523421
 21
8.2415578242
  0
LINE
  5
2DD
100
AcDbEntity
  8
0
100
AcDbLine
 62
4
  6
CONTINUOUS
 10
10.8560376709
 20
8.2363902435
 11
10.9181329205
 21
8.2320839233
  0
LINE
  5
2DE
100
AcDbEntity
  8
0
100
AcDbLine
 62
4
  6
CONTINUOUS
 10
11.0133456699
 20
8.2254808967
 11
11.0878599197
 21
8.2203133159
  0
LINE
  5
2DF
100
AcDbEntity
  8
0
100
AcDbLine
 62
4
  6
CONTINUOUS
 10
12.7627690575
 20
7.9578709649
 11
13.0319130573
 21
7.9233683031
  0
LINE
  5
2E0
100
AcDbEntity
  8
0
100
AcDbLine
 62
4
  6
CONTINUOUS
 10
9.7548822663
 20
9.075285153
 11
9.6679489333
 21
9.1558282863
  0
LINE
  5
2E1
100
AcDbEntity
  8
0
100
AcDbLine
 62
4
  6
CONTINUOUS
 10
9.8045584536
 20
9.0470020015
 11
9.8293965472
 21
9.0204413776
  0
LINE
  5
2E2
100
AcDbEntity
  8
0
100
AcDbLine
 62
4
  6
CONTINUOUS
 10
10.7442662546
 20
8.0702749516
 11
10.7194281713
 21
8.0968355747
  0
LINE
  5
2E3
100
AcDbEntity
  8
0
100
AcDbLine
 62
4
  6
CONTINUOUS
 10
9.7424632195
 20
9.2003368903
 11
9.7548822663
 21
9.1870565744
  0
LINE
  5
2E4
100
AcDbEntity
  8
0
100
AcDbLine
 62
4
  6
CONTINUOUS
 10
10.781523421
 20
8.2415578242
 11
10.8063615043
 21
8.2149972037
  0
LINE
  5
2E5
100
AcDbEntity
  8
0
100
AcDbLine
 62
4
  6
CONTINUOUS
 10
10.6262853883
 20
8.5354779037
 11
10.601447305
 21
8.5620385294
  0
LINE
  5
2E6
100
AcDbEntity
  8
0
100
AcDbLine
 62
4
  6
CONTINUOUS
 10
10.9181329205
 20
8.2320839233
 11
10.9429710038
 21
8.2055233027
  0
LINE
  5
2E7
100
AcDbEntity
  8
0
100
AcDbLine
 62
4
  6
CONTINUOUS
 10
10.415161587
 20
8.6494717688
 11
10.5020949304
 21
8.469576255
  0
LINE
  5
2E8
100
AcDbEntity
  8
0
100
AcDbLine
 62
4
  6
CONTINUOUS
 10
10.3385775138
 20
9.1093200362
 11
10.3758346802
 21
8.9825457643
  0
LINE
  5
2E9
100
AcDbEntity
  8
0
100
AcDbLine
 62
4
  6
CONTINUOUS
 10
10.8063615043
 20
8.2149972037
 11
10.8063615043
 21
8.0908067276
  0
LINE
  5
2EA
100
AcDbEntity
  8
0
100
AcDbLine
 62
4
  6
CONTINUOUS
 10
10.8063615954
 20
9.0768791
 11
10.8063615954
 21
8.9651076695
  0
LINE
  5
2EB
100
AcDbEntity
  8
0
100
AcDbLine
 62
4
  6
CONTINUOUS
 10
10.8560376709
 20
8.0625235775
 11
10.8560376709
 21
8.2363902435
  0
LINE
  5
2EC
100
AcDbEntity
  8
0
100
AcDbLine
 62
4
  6
CONTINUOUS
 10
10.8808759282
 20
8.9475210348
 11
10.8808759282
 21
9.0717115135
  0
LINE
  5
2ED
100
AcDbEntity
  8
0
100
AcDbLine
 62
4
  6
CONTINUOUS
 10
10.9305520948
 20
8.9564950291
 11
10.9305520948
 21
9.1179426469
  0
LINE
  5
2EE
100
AcDbEntity
  8
0
100
AcDbLine
 62
4
  6
CONTINUOUS
 10
10.9429710038
 20
8.2055233027
 11
10.9429710038
 21
8.0813328267
  0
LINE
  5
2EF
100
AcDbEntity
  8
0
100
AcDbLine
 62
4
  6
CONTINUOUS
 10
11.0133456699
 20
8.0516142307
 11
11.0133456699
 21
8.2254808967
  0
LINE
  5
2F0
100
AcDbEntity
  8
0
100
AcDbLine
 62
4
  6
CONTINUOUS
 10
11.0464631778
 20
9.109904186
 11
11.042323511
 21
9.0977722209
  0
LINE
  5
2F1
100
AcDbEntity
  8
0
100
AcDbLine
 62
4
  6
CONTINUOUS
 10
10.0298262086
 20
7.5673118434
 11
10.018959542
 21
7.55357656
  0
LINE
  5
2F2
100
AcDbEntity
  8
0
100
AcDbLine
 62
4
  6
CONTINUOUS
 10
11.2203299266
 20
9.0357512467
 11
11.2327489268
 21
9.0473090381
  0
LINE
  5
2F3
100
AcDbEntity
  8
0
100
AcDbLine
 62
4
  6
CONTINUOUS
 10
11.2824250934
 20
8.9196735056
 11
11.2948440936
 21
8.9312312932
  0
LINE
  5
2F4
100
AcDbEntity
  8
0
100
AcDbLine
 62
4
  6
CONTINUOUS
 10
10.5745393383
 20
8.2310741255
 11
10.5993774216
 21
8.2541896922
  0
LINE
  5
2F5
100
AcDbEntity
  8
0
100
AcDbLine
 62
4
  6
CONTINUOUS
 10
10.7194281713
 20
8.2210260508
 11
10.7442662546
 21
8.2441416175
  0
LINE
  5
2F6
100
AcDbEntity
  8
0
100
AcDbLine
 62
4
  6
CONTINUOUS
 10
9.8252567635
 20
8.2416402258
 11
9.7590218419
 21
8.2131161698
  0
LINE
  5
2F7
100
AcDbEntity
  8
0
100
AcDbLine
 62
4
  6
CONTINUOUS
 10
10.5517711177
 20
8.4661311997
 11
10.601447305
 21
8.4626861444
  0
LINE
  5
2F8
100
AcDbEntity
  8
0
100
AcDbLine
 62
4
  6
CONTINUOUS
 10
10.601447305
 20
8.5620385294
 11
10.5517711177
 21
8.5654835847
  0
LINE
  5
2F9
100
AcDbEntity
  8
0
100
AcDbLine
 62
4
  6
CONTINUOUS
 10
11.1375360863
 20
8.1506333456
 11
11.2037710027
 21
8.1129224752
  0
LINE
  5
2FA
100
AcDbEntity
  8
0
100
AcDbLine
 62
4
  6
CONTINUOUS
 10
10.2764822641
 20
9.1136263564
 11
10.2889013058
 21
9.100346041
  0
LINE
  5
2FB
100
AcDbEntity
  8
0
100
AcDbLine
 62
4
  6
CONTINUOUS
 10
10.6200759293
 20
9.0897980548
 11
10.6283552627
 21
9.0768048291
  0
LINE
  5
2FC
100
AcDbEntity
  8
0
100
AcDbLine
 62
4
  6
CONTINUOUS
 10
10.7566854288
 20
9.0554860602
 11
10.7442664286
 21
9.0811854144
  0
LINE
  5
2FD
100
AcDbEntity
  8
0
100
AcDbLine
 62
4
  6
CONTINUOUS
 10
11.042323511
 20
8.9363246069
 11
11.042323511
 21
9.0605150856
  0
LINE
  5
2FE
100
AcDbEntity
  8
0
100
AcDbLine
 62
4
  6
CONTINUOUS
 10
11.042323511
 20
9.0977722209
 11
11.042323511
 21
9.1101912729
  0
LINE
  5
2FF
100
AcDbEntity
  8
0
100
AcDbLine
 62
4
  6
CONTINUOUS
 10
11.1085584274
 20
8.944150248
 11
11.1085584274
 21
9.0435026265
  0
LINE
  5
300
100
AcDbEntity
  8
0
100
AcDbLine
 62
7
  6
CONTINUOUS
 10
11.1548375018
 20
5.7313069721
 11
11.1548375018
 21
5.4119067235
  0
LINE
  5
301
100
AcDbEntity
  8
0
100
AcDbLine
 62
7
  6
CONTINUOUS
 10
11.1665476847
 20
5.7304948681
 11
11.1665476847
 21
5.4005955747
  0
LINE
  5
302
100
AcDbEntity
  8
0
100
AcDbLine
 62
4
  6
CONTINUOUS
 10
11.2203299266
 20
8.9984941062
 11
11.2203299266
 21
9.0357512467
  0
LINE
  5
303
100
AcDbEntity
  8
0
100
AcDbLine
 62
4
  6
CONTINUOUS
 10
11.2948440936
 20
8.9312312932
 11
11.2948440936
 21
8.9684884375
  0
LINE
  5
304
100
AcDbEntity
  8
0
100
AcDbLine
 62
7
  6
CONTINUOUS
 10
13.4829599341
 20
10.6339617827
 11
13.4835984879
 21
10.6345671624
  0
LINE
  5
305
100
AcDbEntity
  8
0
100
AcDbLine
 62
7
  6
CONTINUOUS
 10
12.8038193169
 20
9.977962282
 11
12.8044578707
 21
9.9785676617
  0
LINE
  5
306
100
AcDbEntity
  8
0
100
AcDbLine
 62
4
  6
CONTINUOUS
 10
10.8063615043
 20
8.0908067276
 11
10.781523421
 21
8.0676911583
  0
LINE
  5
307
100
AcDbEntity
  8
0
100
AcDbLine
 62
4
  6
CONTINUOUS
 10
10.9429710038
 20
8.0813328267
 11
10.9181329205
 21
8.0582172573
  0
LINE
  5
308
100
AcDbEntity
  8
0
100
AcDbLine
 62
4
  6
CONTINUOUS
 10
9.9537595422
 20
7.7029870867
 11
9.9754928755
 21
7.7159687603
  0
LINE
  5
309
100
AcDbEntity
  8
0
100
AcDbLine
 62
4
  6
CONTINUOUS
 10
10.018959542
 20
7.55357656
 11
9.9972262087
 21
7.5405948826
  0
LINE
  5
30A
100
AcDbEntity
  8
0
100
AcDbLine
 62
4
  6
CONTINUOUS
 10
10.5517711177
 20
8.6399978657
 11
10.6262853883
 21
8.6348302835
  0
LINE
  5
30B
100
AcDbEntity
  8
0
100
AcDbLine
 62
4
  6
CONTINUOUS
 10
10.4710473466
 20
8.9759427435
 11
10.4462092633
 21
8.9900843186
  0
LINE
  5
30C
100
AcDbEntity
  8
0
100
AcDbLine
 62
4
  6
CONTINUOUS
 10
10.7070092622
 20
8.9595787291
 11
10.6821711789
 21
8.9737203041
  0
LINE
  5
30D
100
AcDbEntity
  8
0
100
AcDbLine
 62
4
  6
CONTINUOUS
 10
10.8063615954
 20
8.9651076695
 11
10.8187806785
 21
8.951827355
  0
LINE
  5
30E
100
AcDbEntity
  8
0
100
AcDbLine
 62
4
  6
CONTINUOUS
 10
10.9429711779
 20
8.9432147146
 11
10.9305520948
 21
8.9564950291
  0
LINE
  5
30F
100
AcDbEntity
  8
0
100
AcDbLine
 62
4
  6
CONTINUOUS
 10
12.4047964299
 20
8.943258928
 11
12.4265297632
 21
8.9562406016
  0
LINE
  5
310
100
AcDbEntity
  8
0
100
AcDbLine
 62
4
  6
CONTINUOUS
 10
12.4699964297
 20
8.8807817304
 11
12.4265297632
 21
8.8548183781
  0
LINE
  5
311
100
AcDbEntity
  8
0
100
AcDbLine
 62
4
  6
CONTINUOUS
 10
11.2037710027
 20
8.1129224752
 11
11.1375360863
 21
8.0843984215
  0
LINE
  5
312
100
AcDbEntity
  8
0
100
AcDbLine
 62
4
  6
CONTINUOUS
 10
12.3939297633
 20
8.7846347533
 11
12.4808630963
 21
8.7786059062
  0
LINE
  5
313
100
AcDbEntity
  8
0
100
AcDbLine
 62
4
  6
CONTINUOUS
 10
10.3385775138
 20
8.9437327323
 11
10.3634155971
 21
8.9420102053
  0
LINE
  5
314
100
AcDbEntity
  8
0
100
AcDbLine
 62
4
  6
CONTINUOUS
 10
11.17065376
 20
8.9274248739
 11
11.1209774276
 21
8.9308699393
  0
LINE
  5
315
100
AcDbEntity
  8
0
100
AcDbLine
 62
4
  6
CONTINUOUS
 10
10.9678092612
 20
8.9414921877
 11
10.9429711779
 21
8.9432147146
  0
LINE
  5
316
100
AcDbEntity
  8
0
100
AcDbLine
 62
4
  6
CONTINUOUS
 10
10.7566854288
 20
8.9561336752
 11
10.7070092622
 21
8.9595787291
  0
LINE
  5
317
100
AcDbEntity
  8
0
100
AcDbLine
 62
4
  6
CONTINUOUS
 10
10.5207235132
 20
8.9724976896
 11
10.4710473466
 21
8.9759427435
  0
LINE
  5
318
100
AcDbEntity
  8
0
100
AcDbLine
 62
4
  6
CONTINUOUS
 10
9.6803679814
 20
9.0307765437
 11
9.7300441726
 21
9.0273314882
  0
LINE
  5
319
100
AcDbEntity
  8
0
100
AcDbLine
 62
4
  6
CONTINUOUS
 10
9.8293965472
 20
9.0204413776
 11
9.8666537033
 21
9.017857585
  0
LINE
  5
31A
100
AcDbEntity
  8
0
100
AcDbLine
 62
4
  6
CONTINUOUS
 10
10.8187806785
 20
8.951827355
 11
10.8808759282
 21
8.9475210348
  0
LINE
  5
31B
100
AcDbEntity
  8
0
100
AcDbLine
 62
4
  6
CONTINUOUS
 10
11.2327489268
 20
8.9231185595
 11
11.2824250934
 21
8.9196735056
  0
LINE
  5
31C
100
AcDbEntity
  8
0
100
AcDbLine
 62
4
  6
CONTINUOUS
 10
10.7070092622
 20
9.0216739684
 11
10.7566854288
 21
9.0182289145
  0
LINE
  5
31D
100
AcDbEntity
  8
0
100
AcDbLine
 62
4
  6
CONTINUOUS
 10
12.4265297632
 20
8.9562406016
 11
12.4482630964
 21
8.9547333898
  0
LINE
  5
31E
100
AcDbEntity
  8
0
100
AcDbLine
 62
4
  6
CONTINUOUS
 10
10.7442664286
 20
9.0811854144
 11
10.6821711789
 21
9.0854917346
  0
LINE
  5
31F
100
AcDbEntity
  8
0
100
AcDbLine
 62
4
  6
CONTINUOUS
 10
10.2143870144
 20
9.1179326766
 11
10.2764822641
 21
9.1136263564
  0
LINE
  5
320
100
AcDbEntity
  8
0
100
AcDbLine
 62
4
  6
CONTINUOUS
 10
10.4710473466
 20
9.1001332221
 11
10.5207235132
 21
9.0966881683
  0
LINE
  5
321
100
AcDbEntity
  8
0
100
AcDbLine
 62
4
  6
CONTINUOUS
 10
10.5703997627
 20
9.0932431087
 11
10.6200759293
 21
9.0897980548
  0
LINE
  5
322
100
AcDbEntity
  8
0
100
AcDbLine
 62
4
  6
CONTINUOUS
 10
11.1209774276
 20
9.0550604179
 11
11.17065376
 21
9.0516153526
  0
LINE
  5
323
100
AcDbEntity
  8
0
100
AcDbLine
 62
4
  6
CONTINUOUS
 10
11.2327489268
 20
9.0473090381
 11
11.2824250934
 21
9.0438639843
  0
LINE
  5
324
100
AcDbEntity
  8
0
100
AcDbLine
 62
4
  6
CONTINUOUS
 10
11.2824250934
 20
8.9776290627
 11
11.2327489268
 21
8.9893534811
  0
LINE
  5
325
100
AcDbEntity
  8
0
100
AcDbLine
 62
4
  6
CONTINUOUS
 10
11.2327489268
 20
8.9893534811
 11
11.2203299266
 21
8.9984941062
  0
LINE
  5
326
100
AcDbEntity
  8
0
100
AcDbLine
 62
4
  6
CONTINUOUS
 10
11.2948440936
 20
8.9684884375
 11
11.2824250934
 21
8.9776290627
  0
LINE
  5
327
100
AcDbEntity
  8
0
100
AcDbLine
 62
4
  6
CONTINUOUS
 10
11.1209774276
 20
8.9308699393
 11
11.1085584274
 21
8.944150248
  0
LINE
  5
328
100
AcDbEntity
  8
0
100
AcDbLine
 62
4
  6
CONTINUOUS
 10
11.2203299266
 20
8.9363988682
 11
11.2327489268
 21
8.9231185595
  0
LINE
  5
329
100
AcDbEntity
  8
0
100
AcDbLine
 62
4
  6
CONTINUOUS
 10
11.2824250934
 20
9.0438639843
 11
11.2948440936
 21
9.0305836717
  0
LINE
  5
32A
100
AcDbEntity
  8
0
100
AcDbLine
 62
7
  6
CONTINUOUS
 10
11.6399246635
 20
5.6976660631
 11
11.6399246635
 21
5.2780767524
  0
LINE
  5
32B
100
AcDbEntity
  8
0
100
AcDbLine
 62
7
  6
CONTINUOUS
 10
11.6836276276
 20
5.6946352523
 11
11.6836276276
 21
5.2750459415
  0
LINE
  5
32C
100
AcDbEntity
  8
0
100
AcDbLine
 62
4
  6
CONTINUOUS
 10
13.0319130573
 20
10.7615784303
 11
12.7627690575
 21
10.2071294568
  0
LINE
  5
32D
100
AcDbEntity
  8
0
100
AcDbLine
 62
4
  6
CONTINUOUS
 10
12.3939297633
 20
8.9295236381
 11
12.4047964299
 21
8.943258928
  0
LINE
  5
32E
100
AcDbEntity
  8
0
100
AcDbLine
 62
4
  6
CONTINUOUS
 10
9.6927870296
 20
9.2037819457
 11
9.7424632195
 21
9.2003368903
  0
LINE
  5
32F
100
AcDbEntity
  8
0
100
AcDbLine
 62
4
  6
CONTINUOUS
 10
11.042323511
 20
9.1101912729
 11
11.0464631778
 21
9.109904186
  0
LINE
  5
330
100
AcDbEntity
  8
0
100
AcDbLine
 62
4
  6
CONTINUOUS
 10
12.4265297632
 20
8.8548183781
 11
12.4047964299
 21
8.8273478139
  0
LINE
  5
331
100
AcDbEntity
  8
0
100
AcDbLine
 62
4
  6
CONTINUOUS
 10
12.4808630963
 20
8.8945170203
 11
12.4699964297
 21
8.8807817304
  0
LINE
  5
332
100
AcDbEntity
  8
0
100
AcDbLine
 62
7
  6
CONTINUOUS
 10
13.4829599341
 20
9.426554198
 11
13.4835984879
 21
9.4271595777
  0
LINE
  5
333
100
AcDbEntity
  8
0
100
AcDbLine
 62
7
  6
CONTINUOUS
 10
12.8038193169
 20
8.7705546973
 11
12.8044578707
 21
8.771160077
  0
LINE
  5
334
100
AcDbEntity
  8
0
100
AcDbLine
 62
7
  6
CONTINUOUS
 10
12.330272425
 20
5.6497902833
 11
12.330272425
 21
5.3198909899
  0
LINE
  5
335
100
AcDbEntity
  8
0
100
AcDbLine
 62
7
  6
CONTINUOUS
 10
12.3622652062
 20
5.6475715764
 11
12.3622652062
 21
5.3281713278
  0
LINE
  5
336
100
AcDbEntity
  8
0
100
AcDbLine
 62
4
  6
CONTINUOUS
 10
12.4047964299
 20
8.8273478139
 11
12.3939297633
 21
8.7846347533
  0
LINE
  5
337
100
AcDbEntity
  8
0
100
AcDbLine
 62
4
  6
CONTINUOUS
 10
12.4482630964
 20
8.9547333898
 11
12.4699964297
 21
8.9387372926
  0
LINE
  5
338
100
AcDbEntity
  8
0
100
AcDbLine
 62
4
  6
CONTINUOUS
 10
12.4808630963
 20
8.923494791
 11
12.4808630963
 21
8.8945170203
  0
LINE
  5
339
100
AcDbEntity
  8
0
100
AcDbLine
 62
7
  6
CONTINUOUS
 10
12.5355330247
 20
5.6355554123
 11
12.5355330247
 21
5.4955351985
  0
LINE
  5
33A
100
AcDbEntity
  8
0
100
AcDbLine
 62
7
  6
CONTINUOUS
 10
12.6257519702
 20
5.6292987072
 11
12.6257519702
 21
10.4589281248
  0
LINE
  5
33B
100
AcDbEntity
  8
0
100
AcDbLine
 62
4
  6
CONTINUOUS
 10
12.6582337335
 20
8.3778231585
 11
12.6582337335
 21
9.5852305129
  0
LINE
  5
33C
100
AcDbEntity
  8
0
100
AcDbLine
 62
4
  6
CONTINUOUS
 10
12.4699964297
 20
8.9387372926
 11
12.4808630963
 21
8.923494791
  0
LINE
  5
33D
100
AcDbEntity
  8
0
100
AcDbLine
 62
4
  6
CONTINUOUS
 10
13.2548662091
 20
8.1387245232
 11
13.5240102089
 21
8.6931734966
  0
LINE
  5
33E
100
AcDbEntity
  8
0
100
AcDbLine
 62
7
  6
CONTINUOUS
 10
8.3389727038
 20
10.7562172767
 11
12.6257519702
 21
10.4589281248
  0
LINE
  5
33F
100
AcDbEntity
  8
0
100
AcDbLine
 62
4
  6
CONTINUOUS
 10
13.6285455328
 20
10.522479795
 11
13.6285455328
 21
9.3150724406
  0
LINE
  5
340
100
AcDbEntity
  8
0
100
AcDbLine
 62
7
  6
CONTINUOUS
 10
13.6610272962
 20
6.6292979412
 11
13.6610272962
 21
11.4589273588
  0
LINE
  5
341
100
AcDbEntity
  8
0
100
AcDbLine
 62
4
  6
CONTINUOUS
 10
13.5240102089
 20
10.9424319885
 11
13.2548662091
 21
10.9769346504
  0
LINE
  5
342
100
AcDbEntity
  8
0
100
AcDbLine
 62
7
  6
CONTINUOUS
 10
12.6257519702
 20
5.6292987072
 11
13.6610272962
 21
6.6292979412
  0
LINE
  5
343
100
AcDbEntity
  8
0
100
AcDbLine
 62
7
  6
CONTINUOUS
 10
13.6610272962
 20
11.4589273588
 11
9.3742480298
 21
11.7562165106
  0
LINE
  5
344
100
AcDbEntity
  8
0
100
AcDbLine
 62
7
  6
CONTINUOUS
 10
12.4129368226
 20
5.3387859643
 11
12.3943702153
 21
5.3296144158
  0
ARC
  5
345
100
AcDbEntity
  8
0
100
AcDbCircle
 62
7
  6
CONTINUOUS
 10
11.8359607911
 20
7.790381548
 40
2.5199441673
100
AcDbArc
 50
266.0342868665
 51
266.534299421
  0
ARC
  5
346
100
AcDbEntity
  8
0
100
AcDbCircle
 62
7
  6
CONTINUOUS
 10
11.8319388263
 20
7.7318146027
 40
2.4612392969
100
AcDbArc
 50
265.5255095248
 51
266.0333993217
  0
ARC
  5
347
100
AcDbEntity
  8
0
100
AcDbCircle
 62
7
  6
CONTINUOUS
 10
10.1789366365
 20
8.8015355097
 40
2.1909291844
100
AcDbArc
 50
83.2717108059
 51
86.0691737066
  0
ARC
  5
348
100
AcDbEntity
  8
0
100
AcDbCircle
 62
7
  6
CONTINUOUS
 10
12.0826750323
 20
6.3424797205
 40
1.0521369592
100
AcDbArc
 50
283.610963992
 51
285.4106627597
  0
ARC
  5
349
100
AcDbEntity
  8
0
100
AcDbCircle
 62
7
  6
CONTINUOUS
 10
11.6362426378
 20
6.0949513045
 40
0.8368726814
100
AcDbArc
 50
243.667307359
 51
246.0329012255
  0
ARC
  5
34A
100
AcDbEntity
  8
0
100
AcDbCircle
 62
7
  6
CONTINUOUS
 10
12.7625884443
 20
9.5090499543
 40
0.0148612917
100
AcDbArc
 50
254.6979247751
 51
265.9941021212
  0
ARC
  5
34B
100
AcDbEntity
  8
0
100
AcDbCircle
 62
7
  6
CONTINUOUS
 10
13.4417290615
 20
10.165049455
 40
0.0148612917
100
AcDbArc
 50
254.6979247752
 51
265.9941021211
  0
ARC
  5
34C
100
AcDbEntity
  8
0
100
AcDbCircle
 62
7
  6
CONTINUOUS
 10
13.4417290615
 20
8.9576418703
 40
0.0148612917
100
AcDbArc
 50
254.6979247751
 51
265.9941021212
  0
ARC
  5
34D
100
AcDbEntity
  8
0
100
AcDbCircle
 62
7
  6
CONTINUOUS
 10
12.7625884443
 20
8.3016423696
 40
0.0148612917
100
AcDbArc
 50
254.6979247751
 51
265.9941021212
  0
ARC
  5
34E
100
AcDbEntity
  8
0
100
AcDbCircle
 62
7
  6
CONTINUOUS
 10
12.7929103503
 20
9.9462856966
 40
0.0148528238
100
AcDbArc
 50
86.0697642833
 51
97.0823907319
  0
ARC
  5
34F
100
AcDbEntity
  8
0
100
AcDbCircle
 62
7
  6
CONTINUOUS
 10
13.4720509675
 20
10.6022851973
 40
0.0148528238
100
AcDbArc
 50
86.0697642833
 51
97.0823907319
  0
ARC
  5
350
100
AcDbEntity
  8
0
100
AcDbCircle
 62
7
  6
CONTINUOUS
 10
13.4720509675
 20
9.3948776126
 40
0.0148528238
100
AcDbArc
 50
86.0697642832
 51
97.082390732
  0
ARC
  5
351
100
AcDbEntity
  8
0
100
AcDbCircle
 62
7
  6
CONTINUOUS
 10
12.7929103503
 20
8.7388781119
 40
0.0148528238
100
AcDbArc
 50
86.0697642833
 51
97.0823907319
  0
SPLINE
  5
352
100
AcDbEntity
  8
0
100
AcDbSpline
 62
7
  6
CONTINUOUS
 70
0
 71
3
 72
22
 73
18
 74
0
 42
0.0000001
 43
0.0000001
 44
0.0000000001
 40
0.0
 40
0.0
 40
0.0
 40
0.0
 40
0.1531483315
 40
0.2277618074
 40
0.3008132082
 40
0.3721349284
 40
0.4415588991
 40
0.5089188333
 40
0.5740596174
 40
0.6368343793
 40
0.6971063921
 40
0.7547483058
 40
0.8096452574
 40
0.8616958455
 40
0.9108136932
 40
0.9569310411
 40
1.0
 40
1.0
 40
1.0
 40
1.0
 10
11.6847175877
 20
5.2490877761
 30
0.0
 10
11.6643959772
 20
5.2504970846
 30
0.0
 10
11.6342002404
 20
5.253016218
 30
0.0
 10
11.5944126529
 20
5.2572539765
 30
0.0
 10
11.5654997221
 20
5.2607951547
 30
0.0
 10
11.537332776
 20
5.2647172706
 30
0.0
 10
11.5099857323
 20
5.2690093791
 30
0.0
 10
11.4835316887
 20
5.2736605369
 30
0.0
 10
11.4580413414
 20
5.2786577625
 30
0.0
 10
11.4335823916
 20
5.2839879502
 30
0.0
 10
11.4102197167
 20
5.2896365067
 30
0.0
 10
11.3880152824
 20
5.2955884062
 30
0.0
 10
11.3670278951
 20
5.3018276387
 30
0.0
 10
11.3473129728
 20
5.3083373063
 30
0.0
 10
11.3289222275
 20
5.3151003421
 30
0.0
 10
11.3119042377
 20
5.3220980136
 30
0.0
 10
11.3011323793
 20
5.3270793287
 30
0.0
 10
11.2959962356
 20
5.3296165373
 30
0.0
  0
SPLINE
  5
353
100
AcDbEntity
  8
0
100
AcDbSpline
 62
7
  6
CONTINUOUS
 70
0
 71
3
 72
9
 73
5
 74
0
 42
0.0000001
 43
0.0000001
 44
0.0000000001
 40
0.0
 40
0.0
 40
0.0
 40
0.0
 40
0.5143582232
 40
1.0
 40
1.0
 40
1.0
 40
1.0
 10
11.1665476847
 20
5.4005955747
 30
0.0
 10
11.1644257026
 20
5.40241138
 30
0.0
 10
11.1603963682
 20
5.4060562303
 30
0.0
 10
11.1566060401
 20
5.4099508086
 30
0.0
 10
11.1548375018
 20
5.4119067235
 30
0.0
  0
SPLINE
  5
354
100
AcDbEntity
  8
0
100
AcDbSpline
 62
7
  6
CONTINUOUS
 70
0
 71
3
 72
22
 73
18
 74
0
 42
0.0000001
 43
0.0000001
 44
0.0000000001
 40
0.0
 40
0.0
 40
0.0
 40
0.0
 40
0.1604467223
 40
0.2374926511
 40
0.3122210204
 40
0.3844908515
 40
0.4541717897
 40
0.5211471428
 40
0.5853277936
 40
0.6466510947
 40
0.7050977672
 40
0.7606868075
 40
0.8134919058
 40
0.8636316218
 40
0.9112795969
 40
0.9566503556
 40
1.0
 40
1.0
 40
1.0
 40
1.0
 10
12.5355330247
 20
5.4955351985
 30
0.0
 10
12.5306585241
 20
5.4858681448
 30
0.0
 10
12.523251149
 20
5.4716535474
 30
0.0
 10
12.5130218224
 20
5.4532346915
 30
0.0
 10
12.5054206857
 20
5.4401653727
 30
0.0
 10
12.4977877204
 20
5.4276934843
 30
0.0
 10
12.4901254334
 20
5.4158577934
 30
0.0
 10
12.4824356621
 20
5.404696338
 30
0.0
 10
12.4747227109
 20
5.3942433948
 30
0.0
 10
12.4669892917
 20
5.3845304733
 30
0.0
 10
12.459241054
 20
5.3755824343
 30
0.0
 10
12.4514814664
 20
5.3674196514
 30
0.0
 10
12.4437168747
 20
5.3600535824
 30
0.0
 10
12.4359513469
 20
5.3534902381
 30
0.0
 10
12.4281910406
 20
5.3477258844
 30
0.0
 10
12.4204411007
 20
5.3427515927
 30
0.0
 10
12.415174812
 20
5.339890594
 30
0.0
 10
12.4125518393
 20
5.3385958839
 30
0.0
  0
SPLINE
  5
355
100
AcDbEntity
  8
0
100
AcDbSpline
 62
7
  6
CONTINUOUS
 70
0
 71
3
 72
9
 73
5
 74
0
 42
0.0000001
 43
0.0000001
 44
0.0000000001
 40
0.0
 40
0.0
 40
0.0
 40
0.0
 40
0.4953413827
 40
1.0
 40
1.0
 40
1.0
 40
1.0
 10
11.2650204372
 20
5.3449179968
 30
0.0
 10
11.2482699423
 20
5.3531963761
 30
0.0
 10
11.2149721452
 20
5.370969961
 30
0.0
 10
11.1826453992
 20
5.3904353041
 30
0.0
 10
11.1665476847
 20
5.4005955747
 30
0.0
  0
SPLINE
  5
356
100
AcDbEntity
  8
0
100
AcDbSpline
 62
7
  6
CONTINUOUS
 70
0
 71
3
 72
27
 73
23
 74
0
 42
0.0000001
 43
0.0000001
 44
0.0000000001
 40
0.0
 40
0.0
 40
0.0
 40
0.0
 40
0.0193647791
 40
0.0398589276
 40
0.061469632
 40
0.0841790588
 40
0.1079649992
 40
0.1327998891
 40
0.1586536891
 40
0.1854921547
 40
0.241969901
 40
0.3019081106
 40
0.3649423317
 40
0.4306772966
 40
0.4986918916
 40
0.5685444601
 40
0.6397769575
 40
0.7119194786
 40
0.7844946583
 40
0.8570173254
 40
0.9290164762
 40
1.0
 40
1.0
 40
1.0
 40
1.0
 10
12.3943682952
 20
5.3296135905
 30
0.0
 10
12.3902002354
 20
5.3275546686
 30
0.0
 10
12.3815318567
 20
5.3234956209
 30
0.0
 10
12.3679478615
 20
5.3177233886
 30
0.0
 10
12.3534356875
 20
5.3121035644
 30
0.0
 10
12.3380210166
 20
5.3066463669
 30
0.0
 10
12.321730793
 20
5.3013618448
 30
0.0
 10
12.304593895
 20
5.2962588096
 30
0.0
 10
12.2866404657
 20
5.2913469014
 30
0.0
 10
12.2612220545
 20
5.2849550822
 30
0.0
 10
12.2276303066
 20
5.2775461304
 30
0.0
 10
12.1852658595
 20
5.2696878936
 30
0.0
 10
12.1404873692
 20
5.2627752117
 30
0.0
 10
12.0936124191
 20
5.2568581082
 30
0.0
 10
12.0449731741
 20
5.2519793914
 30
0.0
 10
11.994914881
 20
5.2481743331
 30
0.0
 10
11.9437929133
 20
5.2454704284
 30
0.0
 10
11.8919702086
 20
5.2438872704
 30
0.0
 10
11.8398156453
 20
5.2434364676
 30
0.0
 10
11.7876979532
 20
5.2441207085
 30
0.0
 10
11.7359899302
 20
5.2459358544
 30
0.0
 10
11.701717608
 20
5.2479088207
 30
0.0
 10
11.6847175877
 20
5.2490877761
 30
0.0
  0
SPLINE
  5
357
100
AcDbEntity
  8
0
100
AcDbSpline
 62
7
  6
CONTINUOUS
 70
0
 71
3
 72
21
 73
17
 74
0
 42
0.0000001
 43
0.0000001
 44
0.0000000001
 40
0.0
 40
0.0
 40
0.0
 40
0.0
 40
0.1269682035
 40
0.1902969066
 40
0.2535018462
 40
0.3165695248
 40
0.3794879784
 40
0.4422477447
 40
0.5048417135
 40
0.5672670242
 40
0.6295247604
 40
0.6916195212
 40
0.7535600636
 40
0.8153570273
 40
0.8770222222
 40
1.0
 40
1.0
 40
1.0
 40
1.0
 10
12.330272425
 20
5.3198909899
 30
0.0
 10
12.3039690581
 20
5.3108972148
 30
0.0
 10
12.2642219562
 20
5.2983245522
 30
0.0
 10
12.2106371885
 20
5.2838388869
 30
0.0
 10
12.1702423768
 20
5.2742434447
 30
0.0
 10
12.1296382254
 20
5.2660142876
 30
0.0
 10
12.088863069
 20
5.2592448219
 30
0.0
 10
12.0479661986
 20
5.2540118979
 30
0.0
 10
12.0070053713
 20
5.2503658713
 30
0.0
 10
11.9660431717
 20
5.2483262012
 30
0.0
 10
11.9251422142
 20
5.2478824926
 30
0.0
 10
11.884360707
 20
5.2489927568
 30
0.0
 10
11.8437487661
 20
5.2515871668
 30
0.0
 10
11.8033452291
 20
5.2555777799
 30
0.0
 10
11.7498437586
 20
5.2626167646
 30
0.0
 10
11.7100130871
 20
5.2696837791
 30
0.0
 10
11.6836276276
 20
5.2750459415
 30
0.0
  0
SPLINE
  5
358
100
AcDbEntity
  8
0
100
AcDbSpline
 62
7
  6
CONTINUOUS
 70
0
 71
3
 72
9
 73
5
 74
0
 42
0.0000001
 43
0.0000001
 44
0.0000000001
 40
0.0
 40
0.0
 40
0.0
 40
0.0
 40
0.5102770743
 40
1.0
 40
1.0
 40
1.0
 40
1.0
 10
12.4125518393
 20
5.3385958839
 30
0.0
 10
12.4095185773
 20
5.3370986532
 30
0.0
 10
12.4034369469
 20
5.3344329451
 30
0.0
 10
12.3971258751
 20
5.3323661237
 30
0.0
 10
12.393994404
 20
5.3315099547
 30
0.0
  0
SPLINE
  5
359
100
AcDbEntity
  8
0
100
AcDbSpline
 62
7
  6
CONTINUOUS
 70
0
 71
3
 72
11
 73
7
 74
0
 42
0.0000001
 43
0.0000001
 44
0.0000000001
 40
0.0
 40
0.0
 40
0.0
 40
0.0
 40
0.2558334785
 40
0.5065974291
 40
0.7541243364
 40
1.0
 40
1.0
 40
1.0
 40
1.0
 10
12.393994404
 20
5.3315099547
 30
0.0
 10
12.3913594424
 20
5.3307895354
 30
0.0
 10
12.3860794296
 20
5.3295801683
 30
0.0
 10
12.3780994157
 20
5.3284411802
 30
0.0
 10
12.3701604115
 20
5.3279551137
 30
0.0
 10
12.3648870995
 20
5.3280367282
 30
0.0
 10
12.3622652062
 20
5.3281713278
 30
0.0
  0
SPLINE
  5
35A
100
AcDbEntity
  8
0
100
AcDbSpline
 62
7
  6
CONTINUOUS
 70
0
 71
3
 72
15
 73
11
 74
0
 42
0.0000001
 43
0.0000001
 44
0.0000000001
 40
0.0
 40
0.0
 40
0.0
 40
0.0
 40
0.1199816703
 40
0.2406796119
 40
0.36242774
 40
0.4856181779
 40
0.6106603149
 40
0.7379211228
 40
0.867662314
 40
1.0
 40
1.0
 40
1.0
 40
1.0
 10
11.6399246635
 20
5.2780767524
 30
0.0
 10
11.6259756556
 20
5.276493193
 30
0.0
 10
11.5979073159
 20
5.2740228023
 30
0.0
 10
11.5554950532
 20
5.2727388271
 30
0.0
 10
11.5127055417
 20
5.2741956695
 30
0.0
 10
11.4696118199
 20
5.2786894263
 30
0.0
 10
11.4263250102
 20
5.2864394163
 30
0.0
 10
11.3829842821
 20
5.2975470556
 30
0.0
 10
11.3397370019
 20
5.3119728821
 30
0.0
 10
11.3113273418
 20
5.3235767375
 30
0.0
 10
11.2971692999
 20
5.329846871
 30
0.0
  0
LINE
  5
35B
100
AcDbEntity
  8
0
100
AcDbLine
 62
7
  6
CONTINUOUS
 10
11.2971692999
 20
5.329846871
 11
11.2962949234
 21
5.3302347319
  0
SPLINE
  5
35C
100
AcDbEntity
  8
0
100
AcDbSpline
 62
7
  6
CONTINUOUS
 70
0
 71
3
 72
47
 73
43
 74
0
 42
0.0000001
 43
0.0000001
 44
0.0000000001
 40
0.0
 40
0.0
 40
0.0
 40
0.0
 40
0.0958288111
 40
0.142819056
 40
0.1890973226
 40
0.2345926742
 40
0.2792365299
 40
0.3229621663
 40
0.3657048032
 40
0.4074019306
 40
0.4479935008
 40
0.4874221382
 40
0.5256333545
 40
0.5625758117
 40
0.5982016755
 40
0.6324669342
 40
0.6653317617
 40
0.6967609905
 40
0.7267247393
 40
0.7551990982
 40
0.7821669619
 40
0.8076191396
 40
0.8315558348
 40
0.8429598954
 40
0.8539904236
 40
0.8646510588
 40
0.8749463966
 40
0.8848821863
 40
0.894465538
 40
0.9037048856
 40
0.9126103351
 40
0.9211937488
 40
0.9294688783
 40
0.9374517162
 40
0.9451605113
 40
0.959834734
 40
0.9668566107
 40
0.9737035074
 40
0.9804067699
 40
0.9870000208
 40
0.9935188065
 40
1.0
 40
1.0
 40
1.0
 40
1.0
 10
9.9524185257
 20
10.9706862566
 30
0.0
 10
9.9320505824
 20
10.9720987783
 30
0.0
 10
9.9017168347
 20
10.9745421868
 30
0.0
 10
9.8616220727
 20
10.9784928737
 30
0.0
 10
9.832236821
 20
10.9817500977
 30
0.0
 10
9.8033910163
 20
10.9853152494
 30
0.0
 10
9.7751328973
 20
10.9891823485
 30
0.0
 10
9.7475096984
 20
10.9933448816
 30
0.0
 10
9.7205675749
 20
10.9977958607
 30
0.0
 10
9.6943515532
 20
11.0025278118
 30
0.0
 10
9.6689054179
 20
11.0075327722
 30
0.0
 10
9.6442716509
 20
11.0128023197
 30
0.0
 10
9.6204913664
 20
11.0183275926
 30
0.0
 10
9.5976042341
 20
11.0240993111
 30
0.0
 10
9.5756483937
 20
11.0301077632
 30
0.0
 10
9.5546603886
 20
11.0363428409
 30
0.0
 10
9.5346751103
 20
11.0427940698
 30
0.0
 10
9.5157257315
 20
11.0494506384
 30
0.0
 10
9.4978436038
 20
11.0563013995
 30
0.0
 10
9.481058241
 20
11.0633349047
 30
0.0
 10
9.4653971003
 20
11.070539511
 30
0.0
 10
9.4508860961
 20
11.077903285
 30
0.0
 10
9.4395957456
 20
11.084261211
 30
0.0
 10
9.431173983
 20
11.089428462
 30
0.0
 10
9.4252623655
 20
11.0932734155
 30
0.0
 10
9.4196555278
 20
11.0971488911
 30
0.0
 10
9.4143557792
 20
11.101053381
 30
0.0
 10
9.4093653293
 20
11.1049853286
 30
0.0
 10
9.4046861911
 20
11.1089430994
 30
0.0
 10
9.4003203435
 20
11.1129251909
 30
0.0
 10
9.3962695885
 20
11.1169300043
 30
0.0
 10
9.3925355804
 20
11.120955996
 30
0.0
 10
9.3891200441
 20
11.1250015654
 30
0.0
 10
9.3860241693
 20
11.1290655286
 30
0.0
 10
9.3823851259
 20
11.1344170755
 30
0.0
 10
9.3793063131
 20
11.1398950819
 30
0.0
 10
9.3768670139
 20
11.1454699236
 30
0.0
 10
9.3753900342
 20
11.149600583
 30
0.0
 10
9.37424015
 20
11.1537393367
 30
0.0
 10
9.3734181876
 20
11.1578845604
 30
0.0
 10
9.3729246887
 20
11.162033802
 30
0.0
 10
9.3728148639
 20
11.1648047559
 30
0.0
 10
9.3728148573
 20
11.1661856104
 30
0.0
  0
SPLINE
  5
35D
100
AcDbEntity
  8
0
100
AcDbSpline
 62
7
  6
CONTINUOUS
 70
0
 71
3
 72
51
 73
47
 74
0
 42
0.0000001
 43
0.0000001
 44
0.0000000001
 40
0.0
 40
0.0
 40
0.0
 40
0.0
 40
0.0417744683
 40
0.0840379783
 40
0.1266600061
 40
0.1695085183
 40
0.2124506398
 40
0.2553531056
 40
0.2980828147
 40
0.340507344
 40
0.3824954781
 40
0.4239177372
 40
0.4646469112
 40
0.5045585996
 40
0.5435317641
 40
0.5814492947
 40
0.618198601
 40
0.6536722357
 40
0.687768567
 40
0.7203925213
 40
0.7514564269
 40
0.7663786334
 40
0.7808818693
 40
0.7949577079
 40
0.8085984786
 40
0.8217971992
 40
0.8345477656
 40
0.8468449089
 40
0.8586844038
 40
0.8700630626
 40
0.8809789739
 40
0.8914315506
 40
0.9014218177
 40
0.9109525401
 40
0.9200285868
 40
0.9286571749
 40
0.9368483468
 40
0.9446153723
 40
0.951975373
 40
0.9589498998
 40
0.9655656818
 40
0.9778458874
 40
0.9836071498
 40
0.9891799107
 40
0.9946230128
 40
1.0
 40
1.0
 40
1.0
 40
1.0
 10
12.9816278635
 20
9.2939015964
 30
0.0
 10
12.9816278635
 20
9.3055614898
 30
0.0
 10
12.9818097713
 20
9.3290181422
 30
0.0
 10
12.9826139447
 20
9.3643629681
 30
0.0
 10
12.9839486828
 20
9.399991787
 30
0.0
 10
12.9858096
 20
9.435786625
 30
0.0
 10
12.9881905537
 20
9.471629082
 30
0.0
 10
12.9910836704
 20
9.5074005716
 30
0.0
 10
12.9944793678
 20
9.5429827497
 30
0.0
 10
12.9983663885
 20
9.5782579013
 30
0.0
 10
13.0027318366
 20
9.6131093347
 30
0.0
 10
13.0075612194
 20
9.6474217696
 30
0.0
 10
13.0128384951
 20
9.6810817227
 30
0.0
 10
13.0185461247
 20
9.7139778876
 30
0.0
 10
13.0246651286
 20
9.7460015088
 30
0.0
 10
13.0311751488
 20
9.7770467469
 30
0.0
 10
13.0380545135
 20
9.8070110463
 30
0.0
 10
13.0452803118
 20
9.8357954587
 30
0.0
 10
13.0528284565
 20
9.863305088
 30
0.0
 10
13.0606738094
 20
9.8894490773
 30
0.0
 10
13.0675259945
 20
9.9102961871
 30
0.0
 10
13.0731490466
 20
9.926216379
 30
0.0
 10
13.0773677251
 20
9.9376023511
 30
0.0
 10
13.08164085
 20
9.948585098
 30
0.0
 10
13.0859648716
 20
9.9591555845
 30
0.0
 10
13.090336245
 20
9.9693050921
 30
0.0
 10
13.0947513108
 20
9.9790252805
 30
0.0
 10
13.0992064636
 20
9.988308151
 30
0.0
 10
13.1036979841
 20
9.9971460998
 30
0.0
 10
13.1082222177
 20
10.0055318771
 30
0.0
 10
13.1127754096
 20
10.0134586477
 30
0.0
 10
13.1173538822
 20
10.0209199395
 30
0.0
 10
13.1219538776
 20
10.0279097137
 30
0.0
 10
13.1265717335
 20
10.0344222998
 30
0.0
 10
13.131203735
 20
10.0404524717
 30
0.0
 10
13.1358462993
 20
10.0459953705
 30
0.0
 10
13.1404958011
 20
10.0510465601
 30
0.0
 10
13.1451488975
 20
10.0556019949
 30
0.0
 10
13.1498018558
 20
10.0596578062
 30
0.0
 10
13.1544526106
 20
10.0632111038
 30
0.0
 10
13.1604926409
 20
10.0671744542
 30
0.0
 10
13.1666852842
 20
10.0702740193
 30
0.0
 10
13.1729578026
 20
10.0723299639
 30
0.0
 10
13.177543887
 20
10.073321542
 30
0.0
 10
13.1821042586
 20
10.0737922818
 30
0.0
 10
13.1851320095
 20
10.0737577671
 30
0.0
 10
13.1866292135
 20
10.0736539445
 30
0.0
  0
SPLINE
  5
35E
100
AcDbEntity
  8
0
100
AcDbSpline
 62
7
  6
CONTINUOUS
 70
0
 71
3
 72
15
 73
11
 74
0
 42
0.0000001
 43
0.0000001
 44
0.0000000001
 40
0.0
 40
0.0
 40
0.0
 40
0.0
 40
0.1273483176
 40
0.2538606274
 40
0.3795878627
 40
0.5046051194
 40
0.6290174385
 40
0.7529533738
 40
0.8765605773
 40
1.0
 40
1.0
 40
1.0
 40
1.0
 10
9.8588460497
 20
7.3484490275
 30
0.0
 10
9.8588460497
 20
7.3419506476
 30
0.0
 10
9.8582255816
 20
7.328987564
 30
0.0
 10
9.855419597
 20
7.3097922639
 30
0.0
 10
9.8507667967
 20
7.2910792697
 30
0.0
 10
9.84430922
 20
7.2730235842
 30
0.0
 10
9.8361060718
 20
7.2557917319
 30
0.0
 10
9.8262321759
 20
7.2395428201
 30
0.0
 10
9.8147803754
 20
7.2244290864
 30
0.0
 10
9.8061577508
 20
7.2151967547
 30
0.0
 10
9.8016272233
 20
7.2108206086
 30
0.0
  0
SPLINE
  5
35F
100
AcDbEntity
  8
0
100
AcDbSpline
 62
7
  6
CONTINUOUS
 70
0
 71
3
 72
41
 73
37
 74
0
 42
0.0000001
 43
0.0000001
 44
0.0000000001
 40
0.0
 40
0.0
 40
0.0
 40
0.0
 40
0.0310747705
 40
0.0623072725
 40
0.0936920139
 40
0.1252208392
 40
0.1568822171
 40
0.1886620102
 40
0.2205435978
 40
0.2525083095
 40
0.2845357945
 40
0.3166044477
 40
0.3486918434
 40
0.3807751835
 40
0.4128317507
 40
0.4448393598
 40
0.4767768022
 40
0.5086242765
 40
0.5403637988
 40
0.5719795854
 40
0.603458402
 40
0.6347898701
 40
0.6659667248
 40
0.6969850144
 40
0.7278442368
 40
0.7585474029
 40
0.7891010235
 40
0.8195150139
 40
0.8498025133
 40
0.8649066328
 40
0.8799853948
 40
0.9100708242
 40
0.9400854817
 40
0.9550762305
 40
0.9700578769
 40
1.0
 40
1.0
 40
1.0
 40
1.0
 10
9.8588460497
 20
7.3484490275
 30
0.0
 10
9.8588460497
 20
7.3534998586
 30
0.0
 10
9.8584692537
 20
7.3636310435
 30
0.0
 10
9.8567870369
 20
7.3787793032
 30
0.0
 10
9.8539957289
 20
7.3938386428
 30
0.0
 10
9.8501108735
 20
7.4087252283
 30
0.0
 10
9.8451539089
 20
7.4233576483
 30
0.0
 10
9.8391521983
 20
7.4376555005
 30
0.0
 10
9.8321387835
 20
7.451540344
 30
0.0
 10
9.8241522518
 20
7.4649359839
 30
0.0
 10
9.8152365018
 20
7.4777689202
 30
0.0
 10
9.8054405137
 20
7.4899687372
 30
0.0
 10
9.794818078
 20
7.5014684876
 30
0.0
 10
9.7834275049
 20
7.5122050554
 30
0.0
 10
9.7713313063
 20
7.5221194988
 30
0.0
 10
9.7585958569
 20
7.5311573707
 30
0.0
 10
9.7452910337
 20
7.5392690149
 30
0.0
 10
9.7314898375
 20
7.5464098369
 30
0.0
 10
9.7172679972
 20
7.5525405476
 30
0.0
 10
9.7027035599
 20
7.5576273785
 30
0.0
 10
9.6878764685
 20
7.5616422683
 30
0.0
 10
9.6728681291
 20
7.5645630188
 30
0.0
 10
9.6577609699
 20
7.5663734202
 30
0.0
 10
9.6426379983
 20
7.5670633472
 30
0.0
 10
9.627582334
 20
7.5666288144
 30
0.0
 10
9.6126768178
 20
7.5650720334
 30
0.0
 10
9.5980033292
 20
7.5624013125
 30
0.0
 10
9.5836431869
 20
7.5586313853
 30
0.0
 10
9.5719905274
 20
7.5545863063
 30
0.0
 10
9.5629078572
 20
7.5508244359
 30
0.0
 10
9.5540090114
 20
7.5467240818
 30
0.0
 10
9.5432191515
 20
7.5409603077
 30
0.0
 10
9.5329295702
 20
7.5343709861
 30
0.0
 10
9.5250438739
 20
7.5286327413
 30
0.0
 10
9.5174015045
 20
7.5225940634
 30
0.0
 10
9.5119445761
 20
7.5177271825
 30
0.0
 10
9.5084441533
 20
7.5143460395
 30
0.0
  0
SPLINE
  5
360
100
AcDbEntity
  8
0
100
AcDbSpline
 62
7
  6
CONTINUOUS
 70
0
 71
3
 72
53
 73
49
 74
0
 42
0.0000001
 43
0.0000001
 44
0.0000000001
 40
0.0
 40
0.0
 40
0.0
 40
0.0
 40
0.0055575376
 40
0.0111779567
 40
0.0169218821
 40
0.0228457564
 40
0.0290005139
 40
0.0354309032
 40
0.0421753268
 40
0.0492661629
 40
0.0567301863
 40
0.0645892833
 40
0.0728609369
 40
0.0815589669
 40
0.0906938756
 40
0.1002734826
 40
0.1103031213
 40
0.1207861401
 40
0.1317240026
 40
0.14311666
 40
0.1549626112
 40
0.1672591551
 40
0.1800024545
 40
0.1931876791
 40
0.2068090973
 40
0.2208601246
 40
0.2353334527
 40
0.2502210197
 40
0.2655141749
 40
0.2812035909
 40
0.3137306612
 40
0.3477179984
 40
0.3830731233
 40
0.4196969504
 40
0.4574845402
 40
0.4963257781
 40
0.5361060008
 40
0.5767065869
 40
0.618005522
 40
0.6598779471
 40
0.7021966942
 40
0.7448328149
 40
0.7876560998
 40
0.8305356101
 40
0.8733401519
 40
0.9159389309
 40
0.9582016869
 40
1.0
 40
1.0
 40
1.0
 40
1.0
 10
10.9368148465
 20
11.1661866032
 30
0.0
 10
10.9368148557
 20
11.164252086
 30
0.0
 10
10.936598294
 20
11.1603577946
 30
0.0
 10
10.9356262677
 20
11.1545371345
 30
0.0
 10
10.9340086207
 20
11.1487294614
 30
0.0
 10
10.9317485277
 20
11.142941506
 30
0.0
 10
10.9288497054
 20
11.1371779567
 30
0.0
 10
10.9253160332
 20
11.1314432476
 30
0.0
 10
10.9211515739
 20
11.1257412817
 30
0.0
 10
10.9163603546
 20
11.1200759524
 30
0.0
 10
10.9109467285
 20
11.1144510044
 30
0.0
 10
10.9049151584
 20
11.1088704326
 30
0.0
 10
10.8982706249
 20
11.1033381268
 30
0.0
 10
10.8910183709
 20
11.0978582818
 30
0.0
 10
10.8831642403
 20
11.0924349347
 30
0.0
 10
10.8747144321
 20
11.087072389
 30
0.0
 10
10.8656757455
 20
11.0817747556
 30
0.0
 10
10.856055387
 20
11.0765463401
 30
0.0
 10
10.8458611259
 20
11.0713912597
 30
0.0
 10
10.8351011671
 20
11.0663137436
 30
0.0
 10
10.8237842328
 20
11.0613178664
 30
0.0
 10
10.8119194935
 20
11.0564077308
 30
0.0
 10
10.7995165952
 20
11.0515873331
 30
0.0
 10
10.786585633
 20
11.0468606187
 30
0.0
 10
10.7731371426
 20
11.0422314769
 30
0.0
 10
10.7591821002
 20
11.0377036775
 30
0.0
 10
10.7447318937
 20
11.0332809764
 30
0.0
 10
10.72979834
 20
11.0289669645
 30
0.0
 10
10.7143936247
 20
11.0247652087
 30
0.0
 10
10.6929847845
 20
11.0192508252
 30
0.0
 10
10.6651314362
 20
11.0126806742
 30
0.0
 10
10.6304265782
 20
11.0053880606
 30
0.0
 10
10.5941642281
 20
10.9986195267
 30
0.0
 10
10.5564630964
 20
10.9923974409
 30
0.0
 10
10.517446405
 20
10.9867424064
 30
0.0
 10
10.4772418364
 20
10.981673126
 30
0.0
 10
10.4359809934
 20
10.9772063616
 30
0.0
 10
10.3937989855
 20
10.973356876
 30
0.0
 10
10.3508339683
 20
10.9701373873
 30
0.0
 10
10.307226686
 20
10.9675585294
 30
0.0
 10
10.263120004
 20
10.9656288178
 30
0.0
 10
10.2186584366
 20
10.964354624
 30
0.0
 10
10.1739876676
 20
10.9637401531
 30
0.0
 10
10.1292540762
 20
10.9637874361
 30
0.0
 10
10.0846042345
 20
10.9644963111
 30
0.0
 10
10.0401844608
 20
10.9658644502
 30
0.0
 10
9.9961403843
 20
10.9678873139
 30
0.0
 10
9.9669331934
 20
10.969679661
 30
0.0
 10
9.9524185257
 20
10.9706862566
 30
0.0
  0
SPLINE
  5
361
100
AcDbEntity
  8
0
100
AcDbSpline
 62
7
  6
CONTINUOUS
 70
0
 71
3
 72
41
 73
37
 74
0
 42
0.0000001
 43
0.0000001
 44
0.0000000001
 40
0.0
 40
0.0
 40
0.0
 40
0.0
 40
0.0063160079
 40
0.012670914
 40
0.0191028693
 40
0.0256485311
 40
0.0323425104
 40
0.0392169797
 40
0.0536150169
 40
0.0611958751
 40
0.0690577399
 40
0.0856909608
 40
0.1036391145
 40
0.1229890565
 40
0.143801821
 40
0.1661176928
 40
0.1899604125
 40
0.2153403247
 40
0.2422566544
 40
0.2706994287
 40
0.3006509523
 40
0.3320868137
 40
0.3649767025
 40
0.3992852168
 40
0.4349723983
 40
0.4719940776
 40
0.5103023547
 40
0.5498459695
 40
0.5905705077
 40
0.6324186414
 40
0.6753304665
 40
0.7192436716
 40
0.7640936164
 40
0.8098138291
 40
0.9035871702
 40
1.0
 40
1.0
 40
1.0
 40
1.0
 10
13.1001500529
 20
8.826649009
 30
0.0
 10
13.0990936834
 20
8.8267222622
 30
0.0
 10
13.0969794311
 20
8.826955687
 30
0.0
 10
13.0938317336
 20
8.8275640748
 30
0.0
 10
13.0907050862
 20
8.8284308003
 30
0.0
 10
13.0876013103
 20
8.8295551121
 30
0.0
 10
13.0845216002
 20
8.8309363296
 30
0.0
 10
13.0803864159
 20
8.8331530084
 30
0.0
 10
13.0763635023
 20
8.8358664766
 30
0.0
 10
13.0724703193
 20
8.8390110793
 30
0.0
 10
13.0684744593
 20
8.8426137929
 30
0.0
 10
13.0635633071
 20
8.8477789724
 30
0.0
 10
13.0579151875
 20
8.8548513421
 30
0.0
 10
13.0524114382
 20
8.8628997766
 30
0.0
 10
13.0470597091
 20
8.8719113434
 30
0.0
 10
13.0418674309
 20
8.8818723314
 30
0.0
 10
13.0368424851
 20
8.892767183
 30
0.0
 10
13.0319927587
 20
8.9045787368
 30
0.0
 10
13.0273260198
 20
8.9172881298
 30
0.0
 10
13.0228498592
 20
8.9308748995
 30
0.0
 10
13.0185716527
 20
8.9453170443
 30
0.0
 10
13.0144984822
 20
8.9605910579
 30
0.0
 10
13.0106370848
 20
8.9766719816
 30
0.0
 10
13.006993885
 20
8.9935334838
 30
0.0
 10
13.0035749678
 20
9.0111479079
 30
0.0
 10
13.0003860119
 20
9.0294863098
 30
0.0
 10
12.9974323241
 20
9.0485185257
 30
0.0
 10
12.9947188408
 20
9.0682132366
 30
0.0
 10
12.9922500877
 20
9.0885380085
 30
0.0
 10
12.9900301627
 20
9.1094593488
 30
0.0
 10
12.9880627674
 20
9.1309427796
 30
0.0
 10
12.9863512082
 20
9.1529528732
 30
0.0
 10
12.9848982836
 20
9.1754533733
 30
0.0
 10
12.9832958015
 20
9.2063184913
 30
0.0
 10
12.9819703184
 20
9.2458508855
 30
0.0
 10
12.9816278635
 20
9.2777375649
 30
0.0
 10
12.9816278635
 20
9.2939015964
 30
0.0
  0
SPLINE
  5
362
100
AcDbEntity
  8
0
100
AcDbSpline
 62
7
  6
CONTINUOUS
 70
0
 71
3
 72
55
 73
51
 74
0
 42
0.0000001
 43
0.0000001
 44
0.0000000001
 40
0.0
 40
0.0
 40
0.0
 40
0.0
 40
0.0075207652
 40
0.0156241066
 40
0.0243309788
 40
0.0336547857
 40
0.0436026375
 40
0.0541766258
 40
0.06537473
 40
0.0771913136
 40
0.08961793
 40
0.1026433796
 40
0.1162543603
 40
0.1304354716
 40
0.1451695526
 40
0.1604378662
 40
0.176220107
 40
0.1924947643
 40
0.2264278483
 40
0.2620426738
 40
0.2991284313
 40
0.3374615491
 40
0.376807976
 40
0.4169253553
 40
0.4575651169
 40
0.4984745267
 40
0.5393987136
 40
0.5800826875
 40
0.6202733583
 40
0.6597215687
 40
0.6981841419
 40
0.7354259644
 40
0.7712221379
 40
0.8053602468
 40
0.8217456612
 40
0.8376439093
 40
0.8530330373
 40
0.867892555
 40
0.8822032776
 40
0.8959476879
 40
0.9091099944
 40
0.9216763044
 40
0.9336350246
 40
0.9449768953
 40
0.9556957469
 40
0.9657885602
 40
0.9752563091
 40
0.9841050956
 40
0.9923470469
 40
1.0
 40
1.0
 40
1.0
 40
1.0
 10
12.7695675676
 20
9.4754753089
 30
0.0
 10
12.7687455362
 20
9.4764860362
 30
0.0
 10
12.7671258337
 20
9.4786582836
 30
0.0
 10
12.764846564
 20
9.4822068289
 30
0.0
 10
12.7626323181
 20
9.4861583061
 30
0.0
 10
12.7604866899
 20
9.4905062819
 30
0.0
 10
12.7584128866
 20
9.4952439759
 30
0.0
 10
12.7564142391
 20
9.5003637949
 30
0.0
 10
12.7544940352
 20
9.5058574922
 30
0.0
 10
12.7526553771
 20
9.5117161209
 30
0.0
 10
12.7509013949
 20
9.5179301113
 30
0.0
 10
12.7492349437
 20
9.5244892493
 30
0.0
 10
12.747658865
 20
9.5313827348
 30
0.0
 10
12.7461757743
 20
9.5385991848
 30
0.0
 10
12.7447881549
 20
9.546126667
 30
0.0
 10
12.7434983722
 20
9.5539527147
 30
0.0
 10
12.7423085148
 20
9.5620643733
 30
0.0
 10
12.7408376079
 20
9.5734010952
 30
0.0
 10
12.7392750399
 20
9.5881880613
 30
0.0
 10
12.7378500542
 20
9.6066070695
 30
0.0
 10
12.7368600534
 20
9.6258177077
 30
0.0
 10
12.7363118579
 20
9.6456924792
 30
0.0
 10
12.7362093588
 20
9.6660995916
 30
0.0
 10
12.7365534032
 20
9.6869035973
 30
0.0
 10
12.7373418258
 20
9.7079663914
 30
0.0
 10
12.7385694606
 20
9.7291481235
 30
0.0
 10
12.7402281813
 20
9.7503081447
 30
0.0
 10
12.7423069557
 20
9.7713059517
 30
0.0
 10
12.7447919204
 20
9.7920021309
 30
0.0
 10
12.7476664642
 20
9.8122593054
 30
0.0
 10
12.7509113469
 20
9.8319430419
 30
0.0
 10
12.7545048
 20
9.8509228424
 30
0.0
 10
12.7584227435
 20
9.8690727652
 30
0.0
 10
12.7619829892
 20
9.8835981814
 30
0.0
 10
12.7649833647
 20
9.8947066508
 30
0.0
 10
12.7672671589
 20
9.9026432619
 30
0.0
 10
12.7696114517
 20
9.9102861736
 30
0.0
 10
12.7720123038
 20
9.9176227378
 30
0.0
 10
12.7744657464
 20
9.9246408006
 30
0.0
 10
12.7769676653
 20
9.9313287616
 30
0.0
 10
12.7795138852
 20
9.9376755817
 30
0.0
 10
12.782100202
 20
9.9436707966
 30
0.0
 10
12.7847222585
 20
9.9493045732
 30
0.0
 10
12.7873757894
 20
9.9545676781
 30
0.0
 10
12.7900563611
 20
9.9594515653
 30
0.0
 10
12.7927596617
 20
9.9639483113
 30
0.0
 10
12.7954812778
 20
9.9680507289
 30
0.0
 10
12.7982171022
 20
9.9717524589
 30
0.0
 10
12.8009627379
 20
9.9750472635
 30
0.0
 10
12.8028657972
 20
9.9770412527
 30
0.0
 10
12.8038193169
 20
9.977962282
 30
0.0
  0
SPLINE
  5
363
100
AcDbEntity
  8
0
100
AcDbSpline
 62
7
  6
CONTINUOUS
 70
0
 71
3
 72
55
 73
51
 74
0
 42
0.0000001
 43
0.0000001
 44
0.0000000001
 40
0.0
 40
0.0
 40
0.0
 40
0.0
 40
0.0075207652
 40
0.0156241066
 40
0.0243309788
 40
0.0336547857
 40
0.0436026375
 40
0.0541766258
 40
0.06537473
 40
0.0771913136
 40
0.08961793
 40
0.1026433796
 40
0.1162543603
 40
0.1304354716
 40
0.1451695526
 40
0.1604378662
 40
0.176220107
 40
0.1924947643
 40
0.2264278483
 40
0.2620426738
 40
0.2991284313
 40
0.3374615491
 40
0.376807976
 40
0.4169253553
 40
0.4575651169
 40
0.4984745267
 40
0.5393987136
 40
0.5800826875
 40
0.6202733583
 40
0.6597215687
 40
0.6981841419
 40
0.7354259644
 40
0.7712221379
 40
0.8053602468
 40
0.8217456612
 40
0.8376439093
 40
0.8530330373
 40
0.867892555
 40
0.8822032776
 40
0.8959476879
 40
0.9091099944
 40
0.9216763044
 40
0.9336350246
 40
0.9449768953
 40
0.9556957469
 40
0.9657885602
 40
0.9752563091
 40
0.9841050956
 40
0.9923470469
 40
1.0
 40
1.0
 40
1.0
 40
1.0
 10
13.4487081848
 20
10.1314748096
 30
0.0
 10
13.4478861534
 20
10.132485537
 30
0.0
 10
13.4462664509
 20
10.1346577843
 30
0.0
 10
13.4439871812
 20
10.1382063296
 30
0.0
 10
13.4417729353
 20
10.1421578068
 30
0.0
 10
13.4396273071
 20
10.1465057826
 30
0.0
 10
13.4375535038
 20
10.1512434766
 30
0.0
 10
13.4355548563
 20
10.1563632956
 30
0.0
 10
13.4336346524
 20
10.1618569929
 30
0.0
 10
13.4317959943
 20
10.1677156216
 30
0.0
 10
13.4300420121
 20
10.173929612
 30
0.0
 10
13.4283755609
 20
10.18048875
 30
0.0
 10
13.4267994822
 20
10.1873822355
 30
0.0
 10
13.4253163915
 20
10.1945986855
 30
0.0
 10
13.4239287721
 20
10.2021261677
 30
0.0
 10
13.4226389894
 20
10.2099522154
 30
0.0
 10
13.421449132
 20
10.218063874
 30
0.0
 10
13.4199782251
 20
10.2294005959
 30
0.0
 10
13.4184156571
 20
10.244187562
 30
0.0
 10
13.4169906714
 20
10.2626065702
 30
0.0
 10
13.4160006706
 20
10.2818172084
 30
0.0
 10
13.4154524751
 20
10.3016919799
 30
0.0
 10
13.415349976
 20
10.3220990923
 30
0.0
 10
13.4156940204
 20
10.3429030981
 30
0.0
 10
13.416482443
 20
10.3639658921
 30
0.0
 10
13.4177100778
 20
10.3851476242
 30
0.0
 10
13.4193687985
 20
10.4063076454
 30
0.0
 10
13.4214475729
 20
10.4273054524
 30
0.0
 10
13.4239325376
 20
10.4480016316
 30
0.0
 10
13.4268070814
 20
10.4682588061
 30
0.0
 10
13.4300519641
 20
10.4879425426
 30
0.0
 10
13.4336454172
 20
10.5069223431
 30
0.0
 10
13.4375633607
 20
10.5250722659
 30
0.0
 10
13.4411236064
 20
10.5395976821
 30
0.0
 10
13.4441239819
 20
10.5507061516
 30
0.0
 10
13.4464077761
 20
10.5586427626
 30
0.0
 10
13.4487520689
 20
10.5662856743
 30
0.0
 10
13.451152921
 20
10.5736222385
 30
0.0
 10
13.4536063636
 20
10.5806403013
 30
0.0
 10
13.4561082825
 20
10.5873282623
 30
0.0
 10
13.4586545024
 20
10.5936750824
 30
0.0
 10
13.4612408192
 20
10.5996702973
 30
0.0
 10
13.4638628757
 20
10.6053040739
 30
0.0
 10
13.4665164066
 20
10.6105671789
 30
0.0
 10
13.4691969783
 20
10.615451066
 30
0.0
 10
13.4719002789
 20
10.619947812
 30
0.0
 10
13.474621895
 20
10.6240502296
 30
0.0
 10
13.4773577194
 20
10.6277519597
 30
0.0
 10
13.4801033551
 20
10.6310467642
 30
0.0
 10
13.4820064144
 20
10.6330407534
 30
0.0
 10
13.4829599341
 20
10.6339617827
 30
0.0
  0
SPLINE
  5
364
100
AcDbEntity
  8
0
100
AcDbSpline
 62
7
  6
CONTINUOUS
 70
0
 71
3
 72
55
 73
51
 74
0
 42
0.0000001
 43
0.0000001
 44
0.0000000001
 40
0.0
 40
0.0
 40
0.0
 40
0.0
 40
0.0075207652
 40
0.0156241066
 40
0.0243309788
 40
0.0336547857
 40
0.0436026375
 40
0.0541766258
 40
0.06537473
 40
0.0771913136
 40
0.08961793
 40
0.1026433796
 40
0.1162543603
 40
0.1304354716
 40
0.1451695526
 40
0.1604378662
 40
0.176220107
 40
0.1924947643
 40
0.2264278483
 40
0.2620426738
 40
0.2991284313
 40
0.3374615491
 40
0.376807976
 40
0.4169253553
 40
0.4575651169
 40
0.4984745267
 40
0.5393987136
 40
0.5800826875
 40
0.6202733583
 40
0.6597215687
 40
0.6981841419
 40
0.7354259644
 40
0.7712221379
 40
0.8053602468
 40
0.8217456612
 40
0.8376439093
 40
0.8530330373
 40
0.867892555
 40
0.8822032776
 40
0.8959476879
 40
0.9091099944
 40
0.9216763044
 40
0.9336350246
 40
0.9449768953
 40
0.9556957469
 40
0.9657885602
 40
0.9752563091
 40
0.9841050956
 40
0.9923470469
 40
1.0
 40
1.0
 40
1.0
 40
1.0
 10
13.4487081848
 20
8.9240672249
 30
0.0
 10
13.4478861534
 20
8.9250779523
 30
0.0
 10
13.4462664509
 20
8.9272501996
 30
0.0
 10
13.4439871812
 20
8.9307987449
 30
0.0
 10
13.4417729353
 20
8.9347502221
 30
0.0
 10
13.4396273071
 20
8.9390981979
 30
0.0
 10
13.4375535038
 20
8.9438358919
 30
0.0
 10
13.4355548563
 20
8.9489557109
 30
0.0
 10
13.4336346524
 20
8.9544494082
 30
0.0
 10
13.4317959943
 20
8.9603080369
 30
0.0
 10
13.4300420121
 20
8.9665220273
 30
0.0
 10
13.4283755609
 20
8.9730811653
 30
0.0
 10
13.4267994822
 20
8.9799746508
 30
0.0
 10
13.4253163915
 20
8.9871911008
 30
0.0
 10
13.4239287721
 20
8.994718583
 30
0.0
 10
13.4226389894
 20
9.0025446307
 30
0.0
 10
13.421449132
 20
9.0106562893
 30
0.0
 10
13.4199782251
 20
9.0219930112
 30
0.0
 10
13.4184156571
 20
9.0367799773
 30
0.0
 10
13.4169906714
 20
9.0551989855
 30
0.0
 10
13.4160006706
 20
9.0744096237
 30
0.0
 10
13.4154524751
 20
9.0942843952
 30
0.0
 10
13.415349976
 20
9.1146915076
 30
0.0
 10
13.4156940204
 20
9.1354955134
 30
0.0
 10
13.416482443
 20
9.1565583074
 30
0.0
 10
13.4177100778
 20
9.1777400395
 30
0.0
 10
13.4193687985
 20
9.1989000607
 30
0.0
 10
13.4214475729
 20
9.2198978677
 30
0.0
 10
13.4239325376
 20
9.2405940469
 30
0.0
 10
13.4268070814
 20
9.2608512214
 30
0.0
 10
13.4300519641
 20
9.2805349579
 30
0.0
 10
13.4336454172
 20
9.2995147584
 30
0.0
 10
13.4375633607
 20
9.3176646812
 30
0.0
 10
13.4411236064
 20
9.3321900974
 30
0.0
 10
13.4441239819
 20
9.3432985669
 30
0.0
 10
13.4464077761
 20
9.351235178
 30
0.0
 10
13.4487520689
 20
9.3588780896
 30
0.0
 10
13.451152921
 20
9.3662146538
 30
0.0
 10
13.4536063636
 20
9.3732327166
 30
0.0
 10
13.4561082825
 20
9.3799206776
 30
0.0
 10
13.4586545024
 20
9.3862674977
 30
0.0
 10
13.4612408192
 20
9.3922627126
 30
0.0
 10
13.4638628757
 20
9.3978964892
 30
0.0
 10
13.4665164066
 20
9.4031595942
 30
0.0
 10
13.4691969783
 20
9.4080434813
 30
0.0
 10
13.4719002789
 20
9.4125402273
 30
0.0
 10
13.474621895
 20
9.4166426449
 30
0.0
 10
13.4773577194
 20
9.420344375
 30
0.0
 10
13.4801033551
 20
9.4236391795
 30
0.0
 10
13.4820064144
 20
9.4256331687
 30
0.0
 10
13.4829599341
 20
9.426554198
 30
0.0
  0
SPLINE
  5
365
100
AcDbEntity
  8
0
100
AcDbSpline
 62
7
  6
CONTINUOUS
 70
0
 71
3
 72
55
 73
51
 74
0
 42
0.0000001
 43
0.0000001
 44
0.0000000001
 40
0.0
 40
0.0
 40
0.0
 40
0.0
 40
0.0075207652
 40
0.0156241066
 40
0.0243309788
 40
0.0336547857
 40
0.0436026375
 40
0.0541766258
 40
0.06537473
 40
0.0771913136
 40
0.08961793
 40
0.1026433796
 40
0.1162543603
 40
0.1304354716
 40
0.1451695526
 40
0.1604378662
 40
0.176220107
 40
0.1924947643
 40
0.2264278483
 40
0.2620426738
 40
0.2991284313
 40
0.3374615491
 40
0.376807976
 40
0.4169253553
 40
0.4575651169
 40
0.4984745267
 40
0.5393987136
 40
0.5800826875
 40
0.6202733583
 40
0.6597215687
 40
0.6981841419
 40
0.7354259644
 40
0.7712221379
 40
0.8053602468
 40
0.8217456612
 40
0.8376439093
 40
0.8530330373
 40
0.867892555
 40
0.8822032776
 40
0.8959476879
 40
0.9091099944
 40
0.9216763044
 40
0.9336350246
 40
0.9449768953
 40
0.9556957469
 40
0.9657885602
 40
0.9752563091
 40
0.9841050956
 40
0.9923470469
 40
1.0
 40
1.0
 40
1.0
 40
1.0
 10
12.7695675676
 20
8.2680677242
 30
0.0
 10
12.7687455362
 20
8.2690784516
 30
0.0
 10
12.7671258337
 20
8.2712506989
 30
0.0
 10
12.764846564
 20
8.2747992442
 30
0.0
 10
12.7626323181
 20
8.2787507214
 30
0.0
 10
12.7604866899
 20
8.2830986972
 30
0.0
 10
12.7584128866
 20
8.2878363912
 30
0.0
 10
12.7564142391
 20
8.2929562102
 30
0.0
 10
12.7544940352
 20
8.2984499075
 30
0.0
 10
12.7526553771
 20
8.3043085362
 30
0.0
 10
12.7509013949
 20
8.3105225266
 30
0.0
 10
12.7492349437
 20
8.3170816646
 30
0.0
 10
12.747658865
 20
8.3239751501
 30
0.0
 10
12.7461757743
 20
8.3311916001
 30
0.0
 10
12.7447881549
 20
8.3387190823
 30
0.0
 10
12.7434983722
 20
8.34654513
 30
0.0
 10
12.7423085148
 20
8.3546567886
 30
0.0
 10
12.7408376079
 20
8.3659935105
 30
0.0
 10
12.7392750399
 20
8.3807804766
 30
0.0
 10
12.7378500542
 20
8.3991994848
 30
0.0
 10
12.7368600534
 20
8.418410123
 30
0.0
 10
12.7363118579
 20
8.4382848945
 30
0.0
 10
12.7362093588
 20
8.4586920069
 30
0.0
 10
12.7365534032
 20
8.4794960127
 30
0.0
 10
12.7373418258
 20
8.5005588067
 30
0.0
 10
12.7385694606
 20
8.5217405388
 30
0.0
 10
12.7402281813
 20
8.54290056
 30
0.0
 10
12.7423069557
 20
8.563898367
 30
0.0
 10
12.7447919204
 20
8.5845945462
 30
0.0
 10
12.7476664642
 20
8.6048517207
 30
0.0
 10
12.7509113469
 20
8.6245354572
 30
0.0
 10
12.7545048
 20
8.6435152577
 30
0.0
 10
12.7584227435
 20
8.6616651805
 30
0.0
 10
12.7619829892
 20
8.6761905967
 30
0.0
 10
12.7649833647
 20
8.6872990661
 30
0.0
 10
12.7672671589
 20
8.6952356772
 30
0.0
 10
12.7696114517
 20
8.7028785889
 30
0.0
 10
12.7720123038
 20
8.7102151531
 30
0.0
 10
12.7744657464
 20
8.7172332159
 30
0.0
 10
12.7769676653
 20
8.7239211769
 30
0.0
 10
12.7795138852
 20
8.730267997
 30
0.0
 10
12.782100202
 20
8.7362632119
 30
0.0
 10
12.7847222585
 20
8.7418969885
 30
0.0
 10
12.7873757894
 20
8.7471600934
 30
0.0
 10
12.7900563611
 20
8.7520439806
 30
0.0
 10
12.7927596617
 20
8.7565407266
 30
0.0
 10
12.7954812778
 20
8.7606431442
 30
0.0
 10
12.7982171022
 20
8.7643448743
 30
0.0
 10
12.8009627379
 20
8.7676396788
 30
0.0
 10
12.8028657972
 20
8.769633668
 30
0.0
 10
12.8038193169
 20
8.7705546973
 30
0.0
  0
SPLINE
  5
366
100
AcDbEntity
  8
0
100
AcDbSpline
 62
7
  6
CONTINUOUS
 70
0
 71
3
 72
31
 73
27
 74
0
 42
0.0000001
 43
0.0000001
 44
0.0000000001
 40
0.0
 40
0.0
 40
0.0
 40
0.0
 40
0.0760200182
 40
0.1532656915
 40
0.2310428538
 40
0.308648727
 40
0.3853832697
 40
0.4605564064
 40
0.5334962524
 40
0.6035574042
 40
0.6373172079
 40
0.6701318054
 40
0.7019319457
 40
0.7326517015
 40
0.7622290326
 40
0.7906060956
 40
0.8177295969
 40
0.8435515486
 40
0.8680299251
 40
0.8911293058
 40
0.9128221195
 40
0.9330902291
 40
0.9519263368
 40
0.9693367963
 40
0.9853466373
 40
1.0
 40
1.0
 40
1.0
 40
1.0
 10
13.5174435418
 20
9.2347561517
 30
0.0
 10
13.5174435418
 20
9.2272767407
 30
0.0
 10
13.5172435382
 20
9.2121966852
 30
0.0
 10
13.5163707769
 20
9.1894795414
 30
0.0
 10
13.5149302061
 20
9.1666348658
 30
0.0
 10
13.5129356145
 20
9.1438823911
 30
0.0
 10
13.5104062948
 20
9.1214408673
 30
0.0
 10
13.5073667621
 20
9.0995259325
 30
0.0
 10
13.5038465201
 20
9.0783482829
 30
0.0
 10
13.5005011321
 20
9.0612790463
 30
0.0
 10
13.4975995202
 20
9.0481521783
 30
0.0
 10
13.4953525028
 20
9.0387373025
 30
0.0
 10
13.4930132988
 20
9.0296534213
 30
0.0
 10
13.4905875157
 20
9.020922351
 30
0.0
 10
13.4880810487
 20
9.0125650516
 30
0.0
 10
13.4854999769
 20
9.0046015589
 30
0.0
 10
13.4828505318
 20
8.9970509501
 30
0.0
 10
13.4801391288
 20
8.9899312662
 30
0.0
 10
13.4773723384
 20
8.9832594616
 30
0.0
 10
13.4745568125
 20
8.9770513737
 30
0.0
 10
13.4716993
 20
8.9713216436
 30
0.0
 10
13.4688065897
 20
8.9660836481
 30
0.0
 10
13.4658854852
 20
8.9613495407
 30
0.0
 10
13.4629424365
 20
8.9571298561
 30
0.0
 10
13.4599842213
 20
8.9534345745
 30
0.0
 10
13.4579168889
 20
8.9512311602
 30
0.0
 10
13.4568799352
 20
8.9502295398
 30
0.0
  0
SPLINE
  5
367
100
AcDbEntity
  8
0
100
AcDbSpline
 62
7
  6
CONTINUOUS
 70
0
 71
3
 72
51
 73
47
 74
0
 42
0.0000001
 43
0.0000001
 44
0.0000000001
 40
0.0
 40
0.0
 40
0.0
 40
0.0
 40
0.0417744683
 40
0.0840379783
 40
0.1266600061
 40
0.1695085183
 40
0.2124506398
 40
0.2553531056
 40
0.2980828147
 40
0.340507344
 40
0.3824954781
 40
0.4239177372
 40
0.4646469112
 40
0.5045585996
 40
0.5435317641
 40
0.5814492947
 40
0.618198601
 40
0.6536722357
 40
0.687768567
 40
0.7203925213
 40
0.7514564269
 40
0.7663786334
 40
0.7808818693
 40
0.7949577079
 40
0.8085984786
 40
0.8217971992
 40
0.8345477656
 40
0.8468449089
 40
0.8586844038
 40
0.8700630626
 40
0.8809789739
 40
0.8914315506
 40
0.9014218177
 40
0.9109525401
 40
0.9200285868
 40
0.9286571749
 40
0.9368483468
 40
0.9446153723
 40
0.951975373
 40
0.9589498998
 40
0.9655656818
 40
0.9778458874
 40
0.9836071498
 40
0.9891799107
 40
0.9946230128
 40
1.0
 40
1.0
 40
1.0
 40
1.0
 10
13.3051514029
 20
9.606401357
 30
0.0
 10
13.3051514029
 20
9.5947414636
 30
0.0
 10
13.304969495
 20
9.5712848113
 30
0.0
 10
13.3041653216
 20
9.5359399854
 30
0.0
 10
13.3028305835
 20
9.5003111665
 30
0.0
 10
13.3009696664
 20
9.4645163285
 30
0.0
 10
13.2985887126
 20
9.4286738715
 30
0.0
 10
13.2956955959
 20
9.3929023819
 30
0.0
 10
13.2922998986
 20
9.3573202038
 30
0.0
 10
13.2884128778
 20
9.3220450521
 30
0.0
 10
13.2840474298
 20
9.2871936188
 30
0.0
 10
13.279218047
 20
9.2528811839
 30
0.0
 10
13.2739407713
 20
9.2192212307
 30
0.0
 10
13.2682331417
 20
9.1863250659
 30
0.0
 10
13.2621141378
 20
9.1543014447
 30
0.0
 10
13.2556041176
 20
9.1232562066
 30
0.0
 10
13.2487247528
 20
9.0932919072
 30
0.0
 10
13.2414989546
 20
9.0645074948
 30
0.0
 10
13.2339508098
 20
9.0369978654
 30
0.0
 10
13.226105457
 20
9.0108538762
 30
0.0
 10
13.2192532719
 20
8.9900067663
 30
0.0
 10
13.2136302197
 20
8.9740865745
 30
0.0
 10
13.2094115412
 20
8.9627006023
 30
0.0
 10
13.2051384164
 20
8.9517178554
 30
0.0
 10
13.2008143947
 20
8.941147369
 30
0.0
 10
13.1964430214
 20
8.9309978614
 30
0.0
 10
13.1920279556
 20
8.9212776729
 30
0.0
 10
13.1875728027
 20
8.9119948025
 30
0.0
 10
13.1830812823
 20
8.9031568536
 30
0.0
 10
13.1785570487
 20
8.8947710764
 30
0.0
 10
13.1740038567
 20
8.8868443058
 30
0.0
 10
13.1694253841
 20
8.8793830139
 30
0.0
 10
13.1648253887
 20
8.8723932398
 30
0.0
 10
13.1602075328
 20
8.8658806537
 30
0.0
 10
13.1555755314
 20
8.8598504818
 30
0.0
 10
13.150932967
 20
8.854307583
 30
0.0
 10
13.1462834652
 20
8.8492563934
 30
0.0
 10
13.1416303689
 20
8.8447009586
 30
0.0
 10
13.1369774106
 20
8.8406451473
 30
0.0
 10
13.1323266558
 20
8.8370918496
 30
0.0
 10
13.1262866254
 20
8.8331284993
 30
0.0
 10
13.1200939822
 20
8.8300289342
 30
0.0
 10
13.1138214637
 20
8.8279729895
 30
0.0
 10
13.1092353794
 20
8.8269814115
 30
0.0
 10
13.1046750077
 20
8.8265106717
 30
0.0
 10
13.1016472568
 20
8.8265451864
 30
0.0
 10
13.1001500529
 20
8.826649009
 30
0.0
  0
SPLINE
  5
368
100
AcDbEntity
  8
0
100
AcDbSpline
 62
7
  6
CONTINUOUS
 70
0
 71
3
 72
24
 73
20
 74
0
 42
0.0000001
 43
0.0000001
 44
0.0000000001
 40
0.0
 40
0.0
 40
0.0
 40
0.0
 40
0.0755923066
 40
0.1466353257
 40
0.2134617747
 40
0.2454355169
 40
0.2765282346
 40
0.3363384309
 40
0.393557742
 40
0.4489331062
 40
0.5032971329
 40
0.5575339256
 40
0.6125342166
 40
0.6691491175
 40
0.7281536798
 40
0.7902228906
 40
0.855926086
 40
0.9257275406
 40
1.0
 40
1.0
 40
1.0
 40
1.0
 10
12.8038193169
 20
9.4737489708
 30
0.0
 10
12.8030939547
 20
9.4730483247
 30
0.0
 10
12.8016441166
 20
9.471732258
 30
0.0
 10
12.7994004928
 20
9.4699741026
 30
0.0
 10
12.7975056872
 20
9.4687256336
 30
0.0
 10
12.7959945267
 20
9.4678761535
 30
0.0
 10
12.7945273627
 20
9.4671436648
 30
0.0
 10
12.7926929613
 20
9.4663976102
 30
0.0
 10
12.7904720521
 20
9.46577889
 30
0.0
 10
12.7882628042
 20
9.4654504818
 30
0.0
 10
12.7860690337
 20
9.4654140045
 30
0.0
 10
12.7838949218
 20
9.465669955
 30
0.0
 10
12.7817447025
 20
9.4662176201
 30
0.0
 10
12.7796219914
 20
9.4670550698
 30
0.0
 10
12.7775296607
 20
9.468179974
 30
0.0
 10
12.7754697502
 20
9.4695896331
 30
0.0
 10
12.7734440181
 20
9.4712817252
 30
0.0
 10
12.7714539921
 20
9.4732536346
 30
0.0
 10
12.7701927848
 20
9.4747065742
 30
0.0
 10
12.7695675676
 20
9.4754753089
 30
0.0
  0
SPLINE
  5
369
100
AcDbEntity
  8
0
100
AcDbSpline
 62
7
  6
CONTINUOUS
 70
0
 71
3
 72
16
 73
12
 74
0
 42
0.0000001
 43
0.0000001
 44
0.0000000001
 40
0.0
 40
0.0
 40
0.0
 40
0.0
 40
0.1504790676
 40
0.2917468496
 40
0.4244951198
 40
0.4879700185
 40
0.54967612
 40
0.6683414766
 40
0.781881548
 40
0.8918563265
 40
1.0
 40
1.0
 40
1.0
 40
1.0
 10
12.777739318
 20
8.2942300391
 30
0.0
 10
12.7770778121
 20
8.2935910734
 30
0.0
 10
12.7757556326
 20
8.2923921596
 30
0.0
 10
12.7737083954
 20
8.2907943914
 30
0.0
 10
12.7719791059
 20
8.289664352
 30
0.0
 10
12.7706001584
 20
8.2888991414
 30
0.0
 10
12.7692618442
 20
8.2882421766
 30
0.0
 10
12.7675883436
 20
8.2875784012
 30
0.0
 10
12.765562225
 20
8.2870393219
 30
0.0
 10
12.7635475408
 20
8.2867701402
 30
0.0
 10
12.762209625
 20
8.2867716648
 30
0.0
 10
12.7615502469
 20
8.2868173861
 30
0.0
  0
SPLINE
  5
36A
100
AcDbEntity
  8
0
100
AcDbSpline
 62
7
  6
CONTINUOUS
 70
0
 71
3
 72
31
 73
27
 74
0
 42
0.0000001
 43
0.0000001
 44
0.0000000001
 40
0.0
 40
0.0
 40
0.0
 40
0.0
 40
0.0760200182
 40
0.1532656915
 40
0.2310428538
 40
0.308648727
 40
0.3853832697
 40
0.4605564064
 40
0.5334962524
 40
0.6035574042
 40
0.6373172079
 40
0.6701318054
 40
0.7019319457
 40
0.7326517015
 40
0.7622290326
 40
0.7906060956
 40
0.8177295969
 40
0.8435515486
 40
0.8680299251
 40
0.8911293058
 40
0.9128221195
 40
0.9330902291
 40
0.9519263368
 40
0.9693367963
 40
0.9853466373
 40
1.0
 40
1.0
 40
1.0
 40
1.0
 10
12.8383029246
 20
8.578756651
 30
0.0
 10
12.8383029246
 20
8.57127724
 30
0.0
 10
12.838102921
 20
8.5561971845
 30
0.0
 10
12.8372301597
 20
8.5334800407
 30
0.0
 10
12.8357895889
 20
8.5106353651
 30
0.0
 10
12.8337949973
 20
8.4878828904
 30
0.0
 10
12.8312656776
 20
8.4654413666
 30
0.0
 10
12.8282261449
 20
8.4435264318
 30
0.0
 10
12.8247059029
 20
8.4223487822
 30
0.0
 10
12.8213605149
 20
8.4052795456
 30
0.0
 10
12.818458903
 20
8.3921526776
 30
0.0
 10
12.8162118856
 20
8.3827378018
 30
0.0
 10
12.8138726816
 20
8.3736539206
 30
0.0
 10
12.8114468985
 20
8.3649228503
 30
0.0
 10
12.8089404315
 20
8.3565655508
 30
0.0
 10
12.8063593597
 20
8.3486020582
 30
0.0
 10
12.8037099146
 20
8.3410514494
 30
0.0
 10
12.8009985116
 20
8.3339317655
 30
0.0
 10
12.7982317212
 20
8.3272599609
 30
0.0
 10
12.7954161953
 20
8.321051873
 30
0.0
 10
12.7925586828
 20
8.3153221429
 30
0.0
 10
12.7896659725
 20
8.3100841474
 30
0.0
 10
12.786744868
 20
8.30535004
 30
0.0
 10
12.7838018193
 20
8.3011303554
 30
0.0
 10
12.780843604
 20
8.2974350738
 30
0.0
 10
12.7787762717
 20
8.2952316595
 30
0.0
 10
12.777739318
 20
8.2942300391
 30
0.0
  0
SPLINE
  5
36B
100
AcDbEntity
  8
0
100
AcDbSpline
 62
7
  6
CONTINUOUS
 70
0
 71
3
 72
53
 73
49
 74
0
 42
0.0000001
 43
0.0000001
 44
0.0000000001
 40
0.0
 40
0.0
 40
0.0
 40
0.0
 40
0.0055575376
 40
0.0111779567
 40
0.0169218821
 40
0.0228457564
 40
0.0290005139
 40
0.0354309032
 40
0.0421753268
 40
0.0492661629
 40
0.0567301863
 40
0.0645892833
 40
0.0728609369
 40
0.0815589669
 40
0.0906938756
 40
0.1002734826
 40
0.1103031213
 40
0.1207861401
 40
0.1317240026
 40
0.14311666
 40
0.1549626112
 40
0.1672591551
 40
0.1800024545
 40
0.1931876791
 40
0.2068090973
 40
0.2208601246
 40
0.2353334527
 40
0.2502210197
 40
0.2655141749
 40
0.2812035909
 40
0.3137306612
 40
0.3477179984
 40
0.3830731233
 40
0.4196969504
 40
0.4574845402
 40
0.4963257781
 40
0.5361060008
 40
0.5767065869
 40
0.618005522
 40
0.6598779471
 40
0.7021966942
 40
0.7448328149
 40
0.7876560998
 40
0.8305356101
 40
0.8733401519
 40
0.9159389309
 40
0.9582016869
 40
1.0
 40
1.0
 40
1.0
 40
1.0
 10
9.3728148573
 20
11.1661856104
 30
0.0
 10
9.3728148482
 20
11.1681201277
 30
0.0
 10
9.3730314098
 20
11.172014419
 30
0.0
 10
9.3740034362
 20
11.1778350792
 30
0.0
 10
9.3756210832
 20
11.1836427523
 30
0.0
 10
9.3778811762
 20
11.1894307077
 30
0.0
 10
9.3807799984
 20
11.195194257
 30
0.0
 10
9.3843136706
 20
11.2009289661
 30
0.0
 10
9.3884781299
 20
11.2066309319
 30
0.0
 10
9.3932693492
 20
11.2122962612
 30
0.0
 10
9.3986829753
 20
11.2179212093
 30
0.0
 10
9.4047145455
 20
11.2235017811
 30
0.0
 10
9.4113590789
 20
11.2290340868
 30
0.0
 10
9.4186113329
 20
11.2345139319
 30
0.0
 10
9.4264654635
 20
11.239937279
 30
0.0
 10
9.4349152717
 20
11.2452998247
 30
0.0
 10
9.4439539583
 20
11.2505974581
 30
0.0
 10
9.4535743168
 20
11.2558258735
 30
0.0
 10
9.463768578
 20
11.260980954
 30
0.0
 10
9.4745285367
 20
11.2660584701
 30
0.0
 10
9.4858454711
 20
11.2710543473
 30
0.0
 10
9.4977102103
 20
11.2759644829
 30
0.0
 10
9.5101131086
 20
11.2807848805
 30
0.0
 10
9.5230440709
 20
11.285511595
 30
0.0
 10
9.5364925613
 20
11.2901407367
 30
0.0
 10
9.5504476037
 20
11.2946685362
 30
0.0
 10
9.5648978102
 20
11.2990912373
 30
0.0
 10
9.5798313639
 20
11.3034052491
 30
0.0
 10
9.5952360791
 20
11.307607005
 30
0.0
 10
9.6166449193
 20
11.3131213884
 30
0.0
 10
9.6444982676
 20
11.3196915395
 30
0.0
 10
9.6792031256
 20
11.3269841531
 30
0.0
 10
9.7154654757
 20
11.3337526869
 30
0.0
 10
9.7531666074
 20
11.3399747727
 30
0.0
 10
9.7921832989
 20
11.3456298072
 30
0.0
 10
9.8323878675
 20
11.3506990877
 30
0.0
 10
9.8736487104
 20
11.355165852
 30
0.0
 10
9.9158307183
 20
11.3590153377
 30
0.0
 10
9.9587957356
 20
11.3622348264
 30
0.0
 10
10.0024030179
 20
11.3648136842
 30
0.0
 10
10.0465096999
 20
11.3667433958
 30
0.0
 10
10.0909712672
 20
11.3680175897
 30
0.0
 10
10.1356420362
 20
11.3686320606
 30
0.0
 10
10.1803756276
 20
11.3685847775
 30
0.0
 10
10.2250254693
 20
11.3678759026
 30
0.0
 10
10.269445243
 20
11.3665077635
 30
0.0
 10
10.3134893196
 20
11.3644848998
 30
0.0
 10
10.3426965104
 20
11.3626925527
 30
0.0
 10
10.3572111782
 20
11.3616859571
 30
0.0
  0
SPLINE
  5
36C
100
AcDbEntity
  8
0
100
AcDbSpline
 62
7
  6
CONTINUOUS
 70
0
 71
3
 72
24
 73
20
 74
0
 42
0.0000001
 43
0.0000001
 44
0.0000000001
 40
0.0
 40
0.0
 40
0.0
 40
0.0
 40
0.0755923066
 40
0.1466353257
 40
0.2134617747
 40
0.2454355169
 40
0.2765282346
 40
0.3363384309
 40
0.393557742
 40
0.4489331062
 40
0.5032971329
 40
0.5575339256
 40
0.6125342166
 40
0.6691491175
 40
0.7281536798
 40
0.7902228906
 40
0.855926086
 40
0.9257275406
 40
1.0
 40
1.0
 40
1.0
 40
1.0
 10
13.4829599341
 20
10.1297484715
 30
0.0
 10
13.4822345719
 20
10.1290478255
 30
0.0
 10
13.4807847338
 20
10.1277317587
 30
0.0
 10
13.47854111
 20
10.1259736033
 30
0.0
 10
13.4766463044
 20
10.1247251343
 30
0.0
 10
13.4751351439
 20
10.1238756542
 30
0.0
 10
13.4736679799
 20
10.1231431655
 30
0.0
 10
13.4718335785
 20
10.1223971109
 30
0.0
 10
13.4696126693
 20
10.1217783907
 30
0.0
 10
13.4674034214
 20
10.1214499825
 30
0.0
 10
13.4652096509
 20
10.1214135052
 30
0.0
 10
13.463035539
 20
10.1216694557
 30
0.0
 10
13.4608853197
 20
10.1222171208
 30
0.0
 10
13.4587626086
 20
10.1230545705
 30
0.0
 10
13.4566702779
 20
10.1241794747
 30
0.0
 10
13.4546103674
 20
10.1255891338
 30
0.0
 10
13.4525846353
 20
10.1272812259
 30
0.0
 10
13.4505946093
 20
10.1292531353
 30
0.0
 10
13.449333402
 20
10.1307060749
 30
0.0
 10
13.4487081848
 20
10.1314748096
 30
0.0
  0
SPLINE
  5
36D
100
AcDbEntity
  8
0
100
AcDbSpline
 62
7
  6
CONTINUOUS
 70
0
 71
3
 72
47
 73
43
 74
0
 42
0.0000001
 43
0.0000001
 44
0.0000000001
 40
0.0
 40
0.0
 40
0.0
 40
0.0
 40
0.0958288111
 40
0.142819056
 40
0.1890973226
 40
0.2345926742
 40
0.2792365299
 40
0.3229621663
 40
0.3657048032
 40
0.4074019306
 40
0.4479935008
 40
0.4874221382
 40
0.5256333545
 40
0.5625758117
 40
0.5982016755
 40
0.6324669342
 40
0.6653317617
 40
0.6967609905
 40
0.7267247393
 40
0.7551990982
 40
0.7821669619
 40
0.8076191396
 40
0.8315558348
 40
0.8429598954
 40
0.8539904236
 40
0.8646510588
 40
0.8749463966
 40
0.8848821863
 40
0.894465538
 40
0.9037048856
 40
0.9126103351
 40
0.9211937488
 40
0.9294688783
 40
0.9374517162
 40
0.9451605113
 40
0.959834734
 40
0.9668566107
 40
0.9737035074
 40
0.9804067699
 40
0.9870000208
 40
0.9935188065
 40
1.0
 40
1.0
 40
1.0
 40
1.0
 10
10.3572111782
 20
11.3616859571
 30
0.0
 10
10.3775791215
 20
11.3602734354
 30
0.0
 10
10.4079128692
 20
11.3578300268
 30
0.0
 10
10.4480076311
 20
11.3538793399
 30
0.0
 10
10.4773928829
 20
11.3506221159
 30
0.0
 10
10.5062386875
 20
11.3470569643
 30
0.0
 10
10.5344968065
 20
11.3431898651
 30
0.0
 10
10.5621200054
 20
11.3390273321
 30
0.0
 10
10.589062129
 20
11.334576353
 30
0.0
 10
10.6152781506
 20
11.3298444018
 30
0.0
 10
10.640724286
 20
11.3248394415
 30
0.0
 10
10.6653580529
 20
11.319569894
 30
0.0
 10
10.6891383375
 20
11.3140446211
 30
0.0
 10
10.7120254697
 20
11.3082729025
 30
0.0
 10
10.7339813101
 20
11.3022644505
 30
0.0
 10
10.7549693152
 20
11.2960293728
 30
0.0
 10
10.7749545935
 20
11.2895781438
 30
0.0
 10
10.7939039724
 20
11.2829215753
 30
0.0
 10
10.8117861
 20
11.2760708142
 30
0.0
 10
10.8285714629
 20
11.2690373089
 30
0.0
 10
10.8442326036
 20
11.2618327027
 30
0.0
 10
10.8587436077
 20
11.2544689287
 30
0.0
 10
10.8700339582
 20
11.2481110027
 30
0.0
 10
10.8784557209
 20
11.2429437516
 30
0.0
 10
10.8843673383
 20
11.2390987981
 30
0.0
 10
10.8899741761
 20
11.2352233225
 30
0.0
 10
10.8952739246
 20
11.2313188327
 30
0.0
 10
10.9002643745
 20
11.2273868851
 30
0.0
 10
10.9049435127
 20
11.2234291143
 30
0.0
 10
10.9093093604
 20
11.2194470228
 30
0.0
 10
10.9133601153
 20
11.2154422094
 30
0.0
 10
10.9170941235
 20
11.2114162177
 30
0.0
 10
10.9205096598
 20
11.2073706483
 30
0.0
 10
10.9236055345
 20
11.203306685
 30
0.0
 10
10.9272445779
 20
11.1979551382
 30
0.0
 10
10.9303233907
 20
11.1924771318
 30
0.0
 10
10.93276269
 20
11.1869022901
 30
0.0
 10
10.9342396696
 20
11.1827716307
 30
0.0
 10
10.9353895538
 20
11.1786328769
 30
0.0
 10
10.9362115163
 20
11.1744876532
 30
0.0
 10
10.9367050151
 20
11.1703384117
 30
0.0
 10
10.93681484
 20
11.1675674577
 30
0.0
 10
10.9368148465
 20
11.1661866032
 30
0.0
  0
SPLINE
  5
36E
100
AcDbEntity
  8
0
100
AcDbSpline
 62
7
  6
CONTINUOUS
 70
0
 71
3
 72
24
 73
20
 74
0
 42
0.0000001
 43
0.0000001
 44
0.0000000001
 40
0.0
 40
0.0
 40
0.0
 40
0.0
 40
0.0755923066
 40
0.1466353257
 40
0.2134617747
 40
0.2454355169
 40
0.2765282346
 40
0.3363384309
 40
0.393557742
 40
0.4489331062
 40
0.5032971329
 40
0.5575339256
 40
0.6125342166
 40
0.6691491175
 40
0.7281536798
 40
0.7902228906
 40
0.855926086
 40
0.9257275406
 40
1.0
 40
1.0
 40
1.0
 40
1.0
 10
13.4829599341
 20
8.9223408868
 30
0.0
 10
13.4822345719
 20
8.9216402408
 30
0.0
 10
13.4807847338
 20
8.920324174
 30
0.0
 10
13.47854111
 20
8.9185660186
 30
0.0
 10
13.4766463044
 20
8.9173175496
 30
0.0
 10
13.4751351439
 20
8.9164680695
 30
0.0
 10
13.4736679799
 20
8.9157355808
 30
0.0
 10
13.4718335785
 20
8.9149895262
 30
0.0
 10
13.4696126693
 20
8.914370806
 30
0.0
 10
13.4674034214
 20
8.9140423978
 30
0.0
 10
13.4652096509
 20
8.9140059205
 30
0.0
 10
13.463035539
 20
8.914261871
 30
0.0
 10
13.4608853197
 20
8.9148095361
 30
0.0
 10
13.4587626086
 20
8.9156469858
 30
0.0
 10
13.4566702779
 20
8.91677189
 30
0.0
 10
13.4546103674
 20
8.9181815491
 30
0.0
 10
13.4525846353
 20
8.9198736412
 30
0.0
 10
13.4505946093
 20
8.9218455506
 30
0.0
 10
13.449333402
 20
8.9232984902
 30
0.0
 10
13.4487081848
 20
8.9240672249
 30
0.0
  0
SPLINE
  5
36F
100
AcDbEntity
  8
0
100
AcDbSpline
 62
7
  6
CONTINUOUS
 70
0
 71
3
 72
24
 73
20
 74
0
 42
0.0000001
 43
0.0000001
 44
0.0000000001
 40
0.0
 40
0.0
 40
0.0
 40
0.0
 40
0.0755923066
 40
0.1466353257
 40
0.2134617747
 40
0.2454355169
 40
0.2765282346
 40
0.3363384309
 40
0.393557742
 40
0.4489331062
 40
0.5032971329
 40
0.5575339256
 40
0.6125342166
 40
0.6691491175
 40
0.7281536798
 40
0.7902228906
 40
0.855926086
 40
0.9257275406
 40
1.0
 40
1.0
 40
1.0
 40
1.0
 10
12.8038193169
 20
8.2663413861
 30
0.0
 10
12.8030939547
 20
8.26564074
 30
0.0
 10
12.8016441166
 20
8.2643246733
 30
0.0
 10
12.7994004928
 20
8.2625665179
 30
0.0
 10
12.7975056872
 20
8.2613180489
 30
0.0
 10
12.7959945267
 20
8.2604685688
 30
0.0
 10
12.7945273627
 20
8.2597360801
 30
0.0
 10
12.7926929613
 20
8.2589900255
 30
0.0
 10
12.7904720521
 20
8.2583713053
 30
0.0
 10
12.7882628042
 20
8.2580428971
 30
0.0
 10
12.7860690337
 20
8.2580064198
 30
0.0
 10
12.7838949218
 20
8.2582623703
 30
0.0
 10
12.7817447025
 20
8.2588100354
 30
0.0
 10
12.7796219914
 20
8.2596474851
 30
0.0
 10
12.7775296607
 20
8.2607723893
 30
0.0
 10
12.7754697502
 20
8.2621820484
 30
0.0
 10
12.7734440181
 20
8.2638741405
 30
0.0
 10
12.7714539921
 20
8.2658460499
 30
0.0
 10
12.7701927848
 20
8.2672989895
 30
0.0
 10
12.7695675676
 20
8.2680677242
 30
0.0
  0
SPLINE
  5
370
100
AcDbEntity
  8
0
100
AcDbSpline
 62
7
  6
CONTINUOUS
 70
0
 71
3
 72
41
 73
37
 74
0
 42
0.0000001
 43
0.0000001
 44
0.0000000001
 40
0.0
 40
0.0
 40
0.0
 40
0.0
 40
0.0299421231
 40
0.0449237695
 40
0.0599145183
 40
0.0899291758
 40
0.1200146052
 40
0.1350933672
 40
0.1501974867
 40
0.1804849861
 40
0.2108989765
 40
0.2414525971
 40
0.2721557632
 40
0.3030149856
 40
0.3340332752
 40
0.3652101299
 40
0.396541598
 40
0.4280204146
 40
0.4596362012
 40
0.4913757235
 40
0.5232231978
 40
0.5551606402
 40
0.5871682493
 40
0.6192248165
 40
0.6513081566
 40
0.6833955523
 40
0.7154642055
 40
0.7474916905
 40
0.7794564022
 40
0.8113379898
 40
0.8431177829
 40
0.8747791608
 40
0.9063079861
 40
0.9376927275
 40
0.9689252295
 40
1.0
 40
1.0
 40
1.0
 40
1.0
 10
9.8016272233
 20
7.2108206086
 30
0.0
 10
9.7981268004
 20
7.2074394656
 30
0.0
 10
9.7926698721
 20
7.2025725848
 30
0.0
 10
9.7850275027
 20
7.1965339069
 30
0.0
 10
9.7771418064
 20
7.1907956621
 30
0.0
 10
9.766852225
 20
7.1842063405
 30
0.0
 10
9.7560623651
 20
7.1784425664
 30
0.0
 10
9.7471635194
 20
7.1743422123
 30
0.0
 10
9.7380808492
 20
7.1705803419
 30
0.0
 10
9.7264281896
 20
7.1665352629
 30
0.0
 10
9.7120680474
 20
7.1627653357
 30
0.0
 10
9.6973945588
 20
7.1600946147
 30
0.0
 10
9.6824890426
 20
7.1585378337
 30
0.0
 10
9.6674333782
 20
7.158103301
 30
0.0
 10
9.6523104067
 20
7.158793228
 30
0.0
 10
9.6372032475
 20
7.1606036294
 30
0.0
 10
9.6221949081
 20
7.1635243799
 30
0.0
 10
9.6073678166
 20
7.1675392697
 30
0.0
 10
9.5928033793
 20
7.1726261006
 30
0.0
 10
9.5785815391
 20
7.1787568113
 30
0.0
 10
9.5647803429
 20
7.1858976333
 30
0.0
 10
9.5514755197
 20
7.1940092775
 30
0.0
 10
9.5387400703
 20
7.2030471493
 30
0.0
 10
9.5266438717
 20
7.2129615928
 30
0.0
 10
9.5152532986
 20
7.2236981606
 30
0.0
 10
9.5046308629
 20
7.235197911
 30
0.0
 10
9.4948348748
 20
7.247397728
 30
0.0
 10
9.4859191248
 20
7.2602306642
 30
0.0
 10
9.477932593
 20
7.2736263042
 30
0.0
 10
9.4709191783
 20
7.2875111477
 30
0.0
 10
9.4649174676
 20
7.3018089999
 30
0.0
 10
9.4599605031
 20
7.3164414199
 30
0.0
 10
9.4560756477
 20
7.3313280053
 30
0.0
 10
9.4532843397
 20
7.346387345
 30
0.0
 10
9.4516021229
 20
7.3615356047
 30
0.0
 10
9.4512253269
 20
7.3716667896
 30
0.0
 10
9.4512253269
 20
7.3767176207
 30
0.0
  0
SPLINE
  5
371
100
AcDbEntity
  8
0
100
AcDbSpline
 62
7
  6
CONTINUOUS
 70
0
 71
3
 72
16
 73
12
 74
0
 42
0.0000001
 43
0.0000001
 44
0.0000000001
 40
0.0
 40
0.0
 40
0.0
 40
0.0
 40
0.1504790676
 40
0.2917468496
 40
0.4244951198
 40
0.4879700185
 40
0.54967612
 40
0.6683414766
 40
0.781881548
 40
0.8918563265
 40
1.0
 40
1.0
 40
1.0
 40
1.0
 10
12.777739318
 20
9.5016376238
 30
0.0
 10
12.7770778121
 20
9.5009986581
 30
0.0
 10
12.7757556326
 20
9.4997997443
 30
0.0
 10
12.7737083954
 20
9.4982019761
 30
0.0
 10
12.7719791059
 20
9.4970719367
 30
0.0
 10
12.7706001584
 20
9.4963067261
 30
0.0
 10
12.7692618442
 20
9.4956497613
 30
0.0
 10
12.7675883436
 20
9.4949859859
 30
0.0
 10
12.765562225
 20
9.4944469066
 30
0.0
 10
12.7635475408
 20
9.4941777249
 30
0.0
 10
12.762209625
 20
9.4941792495
 30
0.0
 10
12.7615502469
 20
9.4942249708
 30
0.0
  0
SPLINE
  5
372
100
AcDbEntity
  8
0
100
AcDbSpline
 62
7
  6
CONTINUOUS
 70
0
 71
3
 72
15
 73
11
 74
0
 42
0.0000001
 43
0.0000001
 44
0.0000000001
 40
0.0
 40
0.0
 40
0.0
 40
0.0
 40
0.1234394227
 40
0.2470466262
 40
0.3709825615
 40
0.4953948806
 40
0.6204121373
 40
0.7461393726
 40
0.8726516824
 40
1.0
 40
1.0
 40
1.0
 40
1.0
 10
9.5084441533
 20
7.5143460395
 30
0.0
 10
9.5039136257
 20
7.5099698935
 30
0.0
 10
9.4952910011
 20
7.5007375618
 30
0.0
 10
9.4838392007
 20
7.485623828
 30
0.0
 10
9.4739653047
 20
7.4693749162
 30
0.0
 10
9.4657621565
 20
7.452143064
 30
0.0
 10
9.4593045798
 20
7.4340873785
 30
0.0
 10
9.4546517795
 20
7.4153743843
 30
0.0
 10
9.451845795
 20
7.3961790842
 30
0.0
 10
9.4512253269
 20
7.3832160006
 30
0.0
 10
9.4512253269
 20
7.3767176207
 30
0.0
  0
SPLINE
  5
373
100
AcDbEntity
  8
0
100
AcDbSpline
 62
7
  6
CONTINUOUS
 70
0
 71
3
 72
45
 73
41
 74
0
 42
0.0000001
 43
0.0000001
 44
0.0000000001
 40
0.0
 40
0.0
 40
0.0
 40
0.0
 40
0.037447349
 40
0.0752588864
 40
0.1133533111
 40
0.1516504654
 40
0.1900684944
 40
0.2285256732
 40
0.2669400158
 40
0.3052296955
 40
0.3433132183
 40
0.3811096613
 40
0.4185388977
 40
0.4555218238
 40
0.4919805896
 40
0.5278388311
 40
0.5630219083
 40
0.5974571491
 40
0.6310741064
 40
0.6638048183
 40
0.695584084
 40
0.7263497612
 40
0.7560430896
 40
0.784609052
 40
0.8119967845
 40
0.8381600595
 40
0.8630578584
 40
0.8866550651
 40
0.8979572636
 40
0.9089242885
 40
0.9195538967
 40
0.929844339
 40
0.9397945667
 40
0.9494042128
 40
0.9586736715
 40
0.9676042639
 40
0.9761981946
 40
0.9844588617
 40
0.9923907972
 40
1.0
 40
1.0
 40
1.0
 40
1.0
 10
10.3572111782
 20
11.2409452216
 30
0.0
 10
10.3451095995
 20
11.241784469
 30
0.0
 10
10.3207772833
 20
11.2433098865
 30
0.0
 10
10.2841021715
 20
11.2451344568
 30
0.0
 10
10.2471317273
 20
11.2465039151
 30
0.0
 10
10.2099506604
 20
11.2474151603
 30
0.0
 10
10.1726436474
 20
11.2478660711
 30
0.0
 10
10.1352959535
 20
11.2478556303
 30
0.0
 10
10.097992815
 20
11.2473838523
 30
0.0
 10
10.0608194082
 20
11.2464518212
 30
0.0
 10
10.0238605997
 20
11.2450616747
 30
0.0
 10
9.9872007662
 20
11.2432166054
 30
0.0
 10
9.9509235971
 20
11.2409208491
 30
0.0
 10
9.9151119034
 20
11.2381796761
 30
0.0
 10
9.8798474279
 20
11.2349993797
 30
0.0
 10
9.8452106573
 20
11.2313872617
 30
0.0
 10
9.811280637
 20
11.2273516169
 30
0.0
 10
9.7781347865
 20
11.2229017141
 30
0.0
 10
9.745848718
 20
11.2180477801
 30
0.0
 10
9.7144960599
 20
11.2128009725
 30
0.0
 10
9.6841482859
 20
11.2071733546
 30
0.0
 10
9.6548745454
 20
11.2011778681
 30
0.0
 10
9.6267415006
 20
11.1948283028
 30
0.0
 10
9.5998131535
 20
11.1881392642
 30
0.0
 10
9.5741507205
 20
11.1811261359
 30
0.0
 10
9.549812344
 20
11.1738050385
 30
0.0
 10
9.5268533731
 20
11.16619279
 30
0.0
 10
9.5086609527
 20
11.1595288931
 30
0.0
 10
9.4948485135
 20
11.1540521319
 30
0.0
 10
9.4850151676
 20
11.1499417403
 30
0.0
 10
9.4755640198
 20
11.1457718583
 30
0.0
 10
9.4665004289
 20
11.1415447572
 30
0.0
 10
9.4578295219
 20
11.1372628787
 30
0.0
 10
9.4495561952
 20
11.1329286477
 30
0.0
 10
9.4416851357
 20
11.1285444692
 30
0.0
 10
9.434220742
 20
11.1241128772
 30
0.0
 10
9.4271672633
 20
11.1196362605
 30
0.0
 10
9.4205285687
 20
11.1151171693
 30
0.0
 10
9.414308558
 20
11.1105581173
 30
0.0
 10
9.4103623102
 20
11.1074295681
 30
0.0
 10
9.4084633393
 20
11.1058580351
 30
0.0
  0
SPLINE
  5
374
100
AcDbEntity
  8
0
100
AcDbSpline
 62
7
  6
CONTINUOUS
 70
0
 71
3
 72
33
 73
29
 74
0
 42
0.0000001
 43
0.0000001
 44
0.0000000001
 40
0.0
 40
0.0
 40
0.0
 40
0.0
 40
0.0832944035
 40
0.1649712217
 40
0.2447363503
 40
0.3223034226
 40
0.3973982611
 40
0.4697594762
 40
0.5048380161
 40
0.539142136
 40
0.5726436741
 40
0.60531583
 40
0.6371329788
 40
0.6680709951
 40
0.6981072202
 40
0.7272205978
 40
0.7553919238
 40
0.7826037715
 40
0.8088409812
 40
0.8340905459
 40
0.8583421422
 40
0.8815882532
 40
0.9038245716
 40
0.9250505441
 40
0.9452696723
 40
0.9644904866
 40
0.9827270046
 40
1.0
 40
1.0
 40
1.0
 40
1.0
 10
10.3572111782
 20
11.2409452216
 30
0.0
 10
10.3729094322
 20
11.239856544
 30
0.0
 10
10.4039832925
 20
11.2374330238
 30
0.0
 10
10.4500093671
 20
11.2330110641
 30
0.0
 10
10.4948699246
 20
11.2278512549
 30
0.0
 10
10.5383879708
 20
11.221974163
 30
0.0
 10
10.5803916217
 20
11.2154032408
 30
0.0
 10
10.6143369532
 20
11.2093099739
 30
0.0
 10
10.6406029165
 20
11.2040942017
 30
0.0
 10
10.659618426
 20
11.2000663237
 30
0.0
 10
10.6781352299
 20
11.195885929
 30
0.0
 10
10.696135083
 20
11.191557192
 30
0.0
 10
10.7136002223
 20
11.187084359
 30
0.0
 10
10.7305134318
 20
11.182471895
 30
0.0
 10
10.7468580435
 20
11.1777243671
 30
0.0
 10
10.7626179569
 20
11.1728464541
 30
0.0
 10
10.7777776692
 20
11.1678430403
 30
0.0
 10
10.7923222641
 20
11.1627190057
 30
0.0
 10
10.8062374725
 20
11.1574794947
 30
0.0
 10
10.8195096373
 20
11.1521296126
 30
0.0
 10
10.832125778
 20
11.1466746737
 30
0.0
 10
10.8440735766
 20
11.1411200259
 30
0.0
 10
10.8553413885
 20
11.1354710738
 30
0.0
 10
10.8659183147
 20
11.1297333647
 30
0.0
 10
10.8757940735
 20
11.1239123591
 30
0.0
 10
10.8849593098
 20
11.1180136181
 30
0.0
 10
10.8934048705
 20
11.1120428398
 30
0.0
 10
10.898691506
 20
11.1079073712
 30
0.0
 10
10.9012048818
 20
11.1058261498
 30
0.0
  0
SPLINE
  5
375
100
AcDbEntity
  8
0
100
AcDbSpline
 62
7
  6
CONTINUOUS
 70
0
 71
3
 72
35
 73
31
 74
0
 42
0.0000001
 43
0.0000001
 44
0.0000000001
 40
0.0
 40
0.0
 40
0.0
 40
0.0
 40
0.0867295905
 40
0.1715967045
 40
0.2542404727
 40
0.3343110452
 40
0.373277267
 40
0.4114766548
 40
0.4488703931
 40
0.4854210714
 40
0.5210926834
 40
0.5558507038
 40
0.5896623735
 40
0.6224965888
 40
0.6543242452
 40
0.6851183272
 40
0.7148539883
 40
0.743509006
 40
0.7710637581
 40
0.7975016943
 40
0.8228096892
 40
0.8469782903
 40
0.8700025323
 40
0.8918823184
 40
0.912623341
 40
0.9322381578
 40
0.9507471996
 40
0.9681805926
 40
0.9845798218
 40
1.0
 40
1.0
 40
1.0
 40
1.0
 10
10.3450466931
 20
11.2291952306
 30
0.0
 10
10.361077426
 20
11.2280834955
 30
0.0
 10
10.3927750047
 20
11.2255876916
 30
0.0
 10
10.4396569323
 20
11.2209714044
 30
0.0
 10
10.4852093609
 20
11.2155395096
 30
0.0
 10
10.5222122658
 20
11.2103085516
 30
0.0
 10
10.5509822829
 20
11.205722298
 30
0.0
 10
10.5719016233
 20
11.2021267532
 30
0.0
 10
10.5923337727
 20
11.1983484831
 30
0.0
 10
10.6122549114
 20
11.1943919135
 30
0.0
 10
10.6316417878
 20
11.190261697
 30
0.0
 10
10.650471785
 20
11.1859626397
 30
0.0
 10
10.6687229493
 20
11.181499835
 30
0.0
 10
10.6863740027
 20
11.1768784732
 30
0.0
 10
10.7034043841
 20
11.1721039893
 30
0.0
 10
10.7197942703
 20
11.167182002
 30
0.0
 10
10.7355245881
 20
11.1621182272
 30
0.0
 10
10.7505770718
 20
11.1569186529
 30
0.0
 10
10.764934251
 20
11.1515893225
 30
0.0
 10
10.7785794973
 20
11.1461364573
 30
0.0
 10
10.7914970575
 20
11.1405664499
 30
0.0
 10
10.8036720303
 20
11.1348856936
 30
0.0
 10
10.8150904638
 20
11.1291008039
 30
0.0
 10
10.8257393099
 20
11.1232183708
 30
0.0
 10
10.8356064542
 20
11.1172450247
 30
0.0
 10
10.844680803
 20
11.111187451
 30
0.0
 10
10.8529520765
 20
11.1050521939
 30
0.0
 10
10.8604111956
 20
11.0988455508
 30
0.0
 10
10.8670492011
 20
11.0925743889
 30
0.0
 10
10.8710400079
 20
11.0882257501
 30
0.0
 10
10.8728827393
 20
11.0860423911
 30
0.0
  0
SPLINE
  5
376
100
AcDbEntity
  8
0
100
AcDbSpline
 62
7
  6
CONTINUOUS
 70
0
 71
3
 72
41
 73
37
 74
0
 42
0.0000001
 43
0.0000001
 44
0.0000000001
 40
0.0
 40
0.0
 40
0.0
 40
0.0
 40
0.0063160079
 40
0.012670914
 40
0.0191028693
 40
0.0256485311
 40
0.0323425104
 40
0.0392169797
 40
0.0536150169
 40
0.0611958751
 40
0.0690577399
 40
0.0856909608
 40
0.1036391145
 40
0.1229890565
 40
0.143801821
 40
0.1661176928
 40
0.1899604125
 40
0.2153403247
 40
0.2422566544
 40
0.2706994287
 40
0.3006509523
 40
0.3320868137
 40
0.3649767025
 40
0.3992852168
 40
0.4349723983
 40
0.4719940776
 40
0.5103023547
 40
0.5498459695
 40
0.5905705077
 40
0.6324186414
 40
0.6753304665
 40
0.7192436716
 40
0.7640936164
 40
0.8098138291
 40
0.9035871702
 40
1.0
 40
1.0
 40
1.0
 40
1.0
 10
13.1866292135
 20
10.0736539445
 30
0.0
 10
13.187685583
 20
10.0735806913
 30
0.0
 10
13.1897998352
 20
10.0733472665
 30
0.0
 10
13.1929475328
 20
10.0727388787
 30
0.0
 10
13.1960741802
 20
10.0718721532
 30
0.0
 10
13.1991779561
 20
10.0707478414
 30
0.0
 10
13.2022576661
 20
10.0693666239
 30
0.0
 10
13.2063928505
 20
10.0671499451
 30
0.0
 10
13.2104157641
 20
10.0644364769
 30
0.0
 10
13.2143089471
 20
10.0612918742
 30
0.0
 10
13.2183048071
 20
10.0576891606
 30
0.0
 10
13.2232159593
 20
10.0525239811
 30
0.0
 10
13.2288640788
 20
10.0454516113
 30
0.0
 10
13.2343678281
 20
10.0374031769
 30
0.0
 10
13.2397195573
 20
10.0283916101
 30
0.0
 10
13.2449118355
 20
10.0184306221
 30
0.0
 10
13.2499367812
 20
10.0075357705
 30
0.0
 10
13.2547865076
 20
9.9957242167
 30
0.0
 10
13.2594532465
 20
9.9830148237
 30
0.0
 10
13.2639294072
 20
9.969428054
 30
0.0
 10
13.2682076137
 20
9.9549859092
 30
0.0
 10
13.2722807842
 20
9.9397118955
 30
0.0
 10
13.2761421816
 20
9.9236309719
 30
0.0
 10
13.2797853813
 20
9.9067694697
 30
0.0
 10
13.2832042986
 20
9.8891550455
 30
0.0
 10
13.2863932545
 20
9.8708166437
 30
0.0
 10
13.2893469422
 20
9.8517844278
 30
0.0
 10
13.2920604255
 20
9.8320897168
 30
0.0
 10
13.2945291786
 20
9.811764945
 30
0.0
 10
13.2967491037
 20
9.7908436047
 30
0.0
 10
13.2987164989
 20
9.7693601738
 30
0.0
 10
13.3004280581
 20
9.7473500803
 30
0.0
 10
13.3018809827
 20
9.7248495801
 30
0.0
 10
13.3034834649
 20
9.6939844622
 30
0.0
 10
13.304808948
 20
9.654452068
 30
0.0
 10
13.3051514029
 20
9.6225653886
 30
0.0
 10
13.3051514029
 20
9.606401357
 30
0.0
  0
SPLINE
  5
377
100
AcDbEntity
  8
0
100
AcDbSpline
 62
7
  6
CONTINUOUS
 70
0
 71
3
 72
35
 73
31
 74
0
 42
0.0000001
 43
0.0000001
 44
0.0000000001
 40
0.0
 40
0.0
 40
0.0
 40
0.0
 40
0.0063161816
 40
0.0126712863
 40
0.0256396853
 40
0.0392001943
 40
0.0535986795
 40
0.0690362498
 40
0.0856699862
 40
0.1036187495
 40
0.1229693505
 40
0.1437827275
 40
0.1660993706
 40
0.1899428057
 40
0.215323558
 40
0.2422406779
 40
0.2706843576
 40
0.300636815
 40
0.3320735748
 40
0.3649645069
 40
0.3992740096
 40
0.4349622913
 40
0.4719850238
 40
0.5102944612
 40
0.5498392381
 40
0.6324119545
 40
0.7192373686
 40
0.8098085678
 40
0.9035843039
 40
1.0
 40
1.0
 40
1.0
 40
1.0
 10
12.7939283891
 20
9.9611035902
 30
0.0
 10
12.7943238926
 20
9.961076166
 30
0.0
 10
12.7951155018
 20
9.960988743
 30
0.0
 10
12.7966970052
 20
9.9606831327
 30
0.0
 10
12.7986705544
 20
9.9600482022
 30
0.0
 10
12.8009795518
 20
9.9589034552
 30
0.0
 10
12.8032436075
 20
9.9573761649
 30
0.0
 10
12.8054597835
 20
9.9554710654
 30
0.0
 10
12.8076263433
 20
9.953192502
 30
0.0
 10
12.8097410924
 20
9.9505444562
 30
0.0
 10
12.811801647
 20
9.9475311437
 30
0.0
 10
12.8138053567
 20
9.9441572006
 30
0.0
 10
12.815749314
 20
9.9404277927
 30
0.0
 10
12.817630665
 20
9.9363487562
 30
0.0
 10
12.8194463791
 20
9.9319265014
 30
0.0
 10
12.821193613
 20
9.9271681044
 30
0.0
 10
12.8228694739
 20
9.9220812134
 30
0.0
 10
12.8244712231
 20
9.9166740737
 30
0.0
 10
12.8259962254
 20
9.9109554871
 30
0.0
 10
12.8274419116
 20
9.9049347916
 30
0.0
 10
12.8288059324
 20
9.8986218498
 30
0.0
 10
12.8300859586
 20
9.8920270158
 30
0.0
 10
12.8312799054
 20
9.8851611285
 30
0.0
 10
12.8323857712
 20
9.8780354682
 30
0.0
 10
12.8337601253
 20
9.8680596341
 30
0.0
 10
12.8352335321
 20
9.8550255056
 30
0.0
 10
12.8366014242
 20
9.8387632828
 30
0.0
 10
12.8375840454
 20
9.8217689267
 30
0.0
 10
12.8381747306
 20
9.8041544203
 30
0.0
 10
12.8383029246
 20
9.7922160422
 30
0.0
 10
12.8383029246
 20
9.7861642357
 30
0.0
  0
SPLINE
  5
378
100
AcDbEntity
  8
0
100
AcDbSpline
 62
7
  6
CONTINUOUS
 70
0
 71
3
 72
33
 73
29
 74
0
 42
0.0000001
 43
0.0000001
 44
0.0000000001
 40
0.0
 40
0.0
 40
0.0
 40
0.0
 40
0.0841630673
 40
0.1666471137
 40
0.2471415652
 40
0.3253443287
 40
0.4009665934
 40
0.4737335699
 40
0.5089656222
 40
0.5433885037
 40
0.5769728281
 40
0.6096907042
 40
0.6415155681
 40
0.6724224798
 40
0.7023881798
 40
0.7313911507
 40
0.759411987
 40
0.7864332715
 40
0.8124401346
 40
0.8374202024
 40
0.8613641036
 40
0.8842657808
 40
0.9061228322
 40
0.926937301
 40
0.9467160075
 40
0.965471726
 40
0.9832238895
 40
1.0
 40
1.0
 40
1.0
 40
1.0
 10
10.3411644106
 20
11.2003497429
 30
0.0
 10
10.3559437875
 20
11.1993247896
 30
0.0
 10
10.3851905996
 20
11.1970380805
 30
0.0
 10
10.4284943626
 20
11.1928507374
 30
0.0
 10
10.4706679046
 20
11.1879537579
 30
0.0
 10
10.5115371998
 20
11.1823675688
 30
0.0
 10
10.550933418
 20
11.1761154963
 30
0.0
 10
10.5827337334
 20
11.1703118029
 30
0.0
 10
10.6073066459
 20
11.1653415001
 30
0.0
 10
10.6250702624
 20
11.1615042623
 30
0.0
 10
10.6423479448
 20
11.1575214065
 30
0.0
 10
10.6591218887
 20
11.1533970865
 30
0.0
 10
10.6753747839
 20
11.1491355478
 30
0.0
 10
10.6910898756
 20
11.1447412224
 30
0.0
 10
10.706250972
 20
11.1402186825
 30
0.0
 10
10.7208424558
 20
11.1355725705
 30
0.0
 10
10.734849325
 20
11.1308077651
 30
0.0
 10
10.7482571737
 20
11.1259291227
 30
0.0
 10
10.761052256
 20
11.1209417535
 30
0.0
 10
10.7732214576
 20
11.1158507574
 30
0.0
 10
10.7847523431
 20
11.1106613835
 30
0.0
 10
10.7956331717
 20
11.1053789747
 30
0.0
 10
10.8058528696
 20
11.1000088533
 30
0.0
 10
10.8154011436
 20
11.0945565242
 30
0.0
 10
10.8242683153
 20
11.0890273673
 30
0.0
 10
10.8324456483
 20
11.0834268079
 30
0.0
 10
10.8399245996
 20
11.0777604959
 30
0.0
 10
10.8445688112
 20
11.0738337348
 30
0.0
 10
10.8467639024
 20
11.0718583982
 30
0.0
  0
SPLINE
  5
379
100
AcDbEntity
  8
0
100
AcDbSpline
 62
7
  6
CONTINUOUS
 70
0
 71
3
 72
15
 73
11
 74
0
 42
0.0000001
 43
0.0000001
 44
0.0000000001
 40
0.0
 40
0.0
 40
0.0
 40
0.0
 40
0.1357374279
 40
0.2691550721
 40
0.3998635632
 40
0.5274841961
 40
0.6516510947
 40
0.7720128539
 40
0.8882345825
 40
1.0
 40
1.0
 40
1.0
 40
1.0
 10
10.3411644106
 20
11.0438511674
 30
0.0
 10
10.3541568849
 20
11.0429501362
 30
0.0
 10
10.3799064756
 20
11.040964324
 30
0.0
 10
10.4181081584
 20
11.0374002289
 30
0.0
 10
10.4554712002
 20
11.0332849128
 30
0.0
 10
10.4918765374
 20
11.0286316
 30
0.0
 10
10.5272083009
 20
11.0234552518
 30
0.0
 10
10.561354155
 20
11.0177724999
 30
0.0
 10
10.5942052586
 20
11.0116016706
 30
0.0
 10
10.6156107697
 20
11.0070833167
 30
0.0
 10
10.6260749244
 20
11.0047386279
 30
0.0
  0
SPLINE
  5
37A
100
AcDbEntity
  8
0
100
AcDbSpline
 62
7
  6
CONTINUOUS
 70
0
 71
3
 72
69
 73
65
 74
0
 42
0.0000001
 43
0.0000001
 44
0.0000000001
 40
0.0
 40
0.0
 40
0.0
 40
0.0
 40
0.0077182502
 40
0.0147686575
 40
0.0212508681
 40
0.0243224672
 40
0.0273056586
 40
0.0302226231
 40
0.033097295
 40
0.0359547786
 40
0.0388206659
 40
0.0417203042
 40
0.0446780807
 40
0.0477168811
 40
0.0508576022
 40
0.0575130874
 40
0.0610628882
 40
0.0647761711
 40
0.0686632481
 40
0.0727326313
 40
0.0814433149
 40
0.0909521066
 40
0.101284104
 40
0.1124517799
 40
0.124457858
 40
0.1372973566
 40
0.1509588838
 40
0.1654257722
 40
0.1806769584
 40
0.1966874633
 40
0.2134288847
 40
0.23086989
 40
0.2489764402
 40
0.2677120276
 40
0.2870380269
 40
0.3069138479
 40
0.3272970669
 40
0.369407301
 40
0.4130019445
 40
0.4576952834
 40
0.503088762
 40
0.548775807
 40
0.5943464876
 40
0.6393922054
 40
0.6835103489
 40
0.7263090709
 40
0.7470958749
 40
0.7674132466
 40
0.7872173747
 40
0.8064661234
 40
0.8251191506
 40
0.8431380517
 40
0.8604866866
 40
0.8771313793
 40
0.8930411083
 40
0.9081879427
 40
0.9225474446
 40
0.9360990319
 40
0.9488266992
 40
0.9607199577
 40
0.971774642
 40
0.9819945558
 40
0.9913944015
 40
1.0
 40
1.0
 40
1.0
 40
1.0
 10
12.8044578711
 20
9.9785678069
 30
0.0
 10
12.8055103368
 20
9.9795472589
 30
0.0
 10
12.8076135308
 20
9.9813301084
 30
0.0
 10
12.8109191005
 20
9.9835258263
 30
0.0
 10
12.8137213389
 20
9.9848664719
 30
0.0
 10
12.815939782
 20
9.9856041138
 30
0.0
 10
12.8175678422
 20
9.9859914625
 30
0.0
 10
12.819188455
 20
9.986222008
 30
0.0
 10
12.8208004209
 20
9.9862954124
 30
0.0
 10
12.822402394
 20
9.9862115374
 30
0.0
 10
12.823993007
 20
9.9859703444
 30
0.0
 10
12.8255709347
 20
9.9855721778
 30
0.0
 10
12.8271349547
 20
9.9850175953
 30
0.0
 10
12.8286840245
 20
9.9843071105
 30
0.0
 10
12.8307679856
 20
9.9831306134
 30
0.0
 10
12.8327803079
 20
9.981653244
 30
0.0
 10
12.8347122497
 20
9.979922831
 30
0.0
 10
12.8361736782
 20
9.9784451248
 30
0.0
 10
12.8376151151
 20
9.9768166946
 30
0.0
 10
12.8395537687
 20
9.9743902819
 30
0.0
 10
12.841914233
 20
9.970968024
 30
0.0
 10
12.8445929447
 20
9.9663687745
 30
0.0
 10
12.8471738877
 20
9.9611975345
 30
0.0
 10
12.8496513827
 20
9.9554661819
 30
0.0
 10
12.8520198809
 20
9.9491875614
 30
0.0
 10
12.8542737978
 20
9.9423761467
 30
0.0
 10
12.8564077924
 20
9.9350477988
 30
0.0
 10
12.8584167517
 20
9.9272197367
 30
0.0
 10
12.8602957981
 20
9.9189104387
 30
0.0
 10
12.8620403828
 20
9.9101396069
 30
0.0
 10
12.8636462944
 20
9.9009280978
 30
0.0
 10
12.8651096176
 20
9.8912978463
 30
0.0
 10
12.8664267916
 20
9.8812718188
 30
0.0
 10
12.8675946432
 20
9.8708739531
 30
0.0
 10
12.868610319
 20
9.8601290922
 30
0.0
 10
12.8694713676
 20
9.8490628938
 30
0.0
 10
12.870420661
 20
9.8337485012
 30
0.0
 10
12.8711953931
 20
9.8139992012
 30
0.0
 10
12.8714771128
 20
9.7897082373
 30
0.0
 10
12.8711171928
 20
9.7648067203
 30
0.0
 10
12.8701188825
 20
9.7395327116
 30
0.0
 10
12.8684915176
 20
9.7141276712
 30
0.0
 10
12.8662506234
 20
9.6888344088
 30
0.0
 10
12.8634177509
 20
9.6638945681
 30
0.0
 10
12.8600201224
 20
9.6395465781
 30
0.0
 10
12.8567143524
 20
9.6197554879
 30
0.0
 10
12.8538030586
 20
9.6043995976
 30
0.0
 10
12.8515214819
 20
9.5932852591
 30
0.0
 10
12.849126143
 20
9.5824881482
 30
0.0
 10
12.8466227889
 20
9.5720340526
 30
0.0
 10
12.8440174576
 20
9.5619479541
 30
0.0
 10
12.8413163947
 20
9.5522539452
 30
0.0
 10
12.8385261117
 20
9.5429751545
 30
0.0
 10
12.8356533403
 20
9.5341336933
 30
0.0
 10
12.8327049749
 20
9.5257506135
 30
0.0
 10
12.829688108
 20
9.5178458258
 30
0.0
 10
12.826610008
 20
9.5104380403
 30
0.0
 10
12.8234780314
 20
9.5035447341
 30
0.0
 10
12.8202996367
 20
9.4971820681
 30
0.0
 10
12.8170823303
 20
9.4913648076
 30
0.0
 10
12.8138336346
 20
9.4861063684
 30
0.0
 10
12.8105606766
 20
9.4814183844
 30
0.0
 10
12.807270951
 20
9.4773118817
 30
0.0
 10
12.804972282
 20
9.4748626497
 30
0.0
 10
12.8038193169
 20
9.4737489708
 30
0.0
  0
SPLINE
  5
37B
100
AcDbEntity
  8
0
100
AcDbSpline
 62
7
  6
CONTINUOUS
 70
0
 71
3
 72
35
 73
31
 74
0
 42
0.0000001
 43
0.0000001
 44
0.0000000001
 40
0.0
 40
0.0
 40
0.0
 40
0.0
 40
0.0063161816
 40
0.0126712863
 40
0.0256396853
 40
0.0392001943
 40
0.0535986795
 40
0.0690362498
 40
0.0856699862
 40
0.1036187495
 40
0.1229693505
 40
0.1437827275
 40
0.1660993706
 40
0.1899428057
 40
0.215323558
 40
0.2422406779
 40
0.2706843576
 40
0.300636815
 40
0.3320735748
 40
0.3649645069
 40
0.3992740096
 40
0.4349622913
 40
0.4719850238
 40
0.5102944612
 40
0.5498392381
 40
0.6324119545
 40
0.7192373686
 40
0.8098085678
 40
0.9035843039
 40
1.0
 40
1.0
 40
1.0
 40
1.0
 10
13.4730690063
 20
10.6171030909
 30
0.0
 10
13.4734645098
 20
10.6170756667
 30
0.0
 10
13.474256119
 20
10.6169882437
 30
0.0
 10
13.4758376224
 20
10.6166826334
 30
0.0
 10
13.4778111716
 20
10.6160477029
 30
0.0
 10
13.480120169
 20
10.6149029559
 30
0.0
 10
13.4823842247
 20
10.6133756656
 30
0.0
 10
13.4846004007
 20
10.6114705661
 30
0.0
 10
13.4867669605
 20
10.6091920027
 30
0.0
 10
13.4888817096
 20
10.6065439569
 30
0.0
 10
13.4909422642
 20
10.6035306444
 30
0.0
 10
13.4929459739
 20
10.6001567013
 30
0.0
 10
13.4948899312
 20
10.5964272934
 30
0.0
 10
13.4967712822
 20
10.5923482569
 30
0.0
 10
13.4985869963
 20
10.5879260021
 30
0.0
 10
13.5003342302
 20
10.5831676051
 30
0.0
 10
13.5020100911
 20
10.5780807141
 30
0.0
 10
13.5036118403
 20
10.5726735744
 30
0.0
 10
13.5051368426
 20
10.5669549878
 30
0.0
 10
13.5065825288
 20
10.5609342923
 30
0.0
 10
13.5079465496
 20
10.5546213505
 30
0.0
 10
13.5092265758
 20
10.5480265165
 30
0.0
 10
13.5104205226
 20
10.5411606292
 30
0.0
 10
13.5115263884
 20
10.5340349689
 30
0.0
 10
13.5129007425
 20
10.5240591348
 30
0.0
 10
13.5143741493
 20
10.5110250063
 30
0.0
 10
13.5157420414
 20
10.4947627835
 30
0.0
 10
13.5167246626
 20
10.4777684274
 30
0.0
 10
13.5173153478
 20
10.460153921
 30
0.0
 10
13.5174435418
 20
10.4482155429
 30
0.0
 10
13.5174435418
 20
10.4421637364
 30
0.0
  0
SPLINE
  5
37C
100
AcDbEntity
  8
0
100
AcDbSpline
 62
7
  6
CONTINUOUS
 70
0
 71
3
 72
31
 73
27
 74
0
 42
0.0000001
 43
0.0000001
 44
0.0000000001
 40
0.0
 40
0.0
 40
0.0
 40
0.0
 40
0.0760200182
 40
0.1532656915
 40
0.2310428538
 40
0.308648727
 40
0.3853832697
 40
0.4605564064
 40
0.5334962524
 40
0.6035574042
 40
0.6373172079
 40
0.6701318054
 40
0.7019319457
 40
0.7326517015
 40
0.7622290326
 40
0.7906060956
 40
0.8177295969
 40
0.8435515486
 40
0.8680299251
 40
0.8911293058
 40
0.9128221195
 40
0.9330902291
 40
0.9519263368
 40
0.9693367963
 40
0.9853466373
 40
1.0
 40
1.0
 40
1.0
 40
1.0
 10
12.8383029246
 20
9.7861642357
 30
0.0
 10
12.8383029246
 20
9.7786848247
 30
0.0
 10
12.838102921
 20
9.7636047692
 30
0.0
 10
12.8372301597
 20
9.7408876254
 30
0.0
 10
12.8357895889
 20
9.7180429498
 30
0.0
 10
12.8337949973
 20
9.6952904751
 30
0.0
 10
12.8312656776
 20
9.6728489513
 30
0.0
 10
12.8282261449
 20
9.6509340165
 30
0.0
 10
12.8247059029
 20
9.6297563669
 30
0.0
 10
12.8213605149
 20
9.6126871303
 30
0.0
 10
12.818458903
 20
9.5995602623
 30
0.0
 10
12.8162118856
 20
9.5901453865
 30
0.0
 10
12.8138726816
 20
9.5810615053
 30
0.0
 10
12.8114468985
 20
9.572330435
 30
0.0
 10
12.8089404315
 20
9.5639731355
 30
0.0
 10
12.8063593597
 20
9.5560096428
 30
0.0
 10
12.8037099146
 20
9.5484590341
 30
0.0
 10
12.8009985116
 20
9.5413393502
 30
0.0
 10
12.7982317212
 20
9.5346675456
 30
0.0
 10
12.7954161953
 20
9.5284594577
 30
0.0
 10
12.7925586828
 20
9.5227297276
 30
0.0
 10
12.7896659725
 20
9.5174917321
 30
0.0
 10
12.786744868
 20
9.5127576247
 30
0.0
 10
12.7838018193
 20
9.5085379401
 30
0.0
 10
12.780843604
 20
9.5048426585
 30
0.0
 10
12.7787762717
 20
9.5026392442
 30
0.0
 10
12.777739318
 20
9.5016376238
 30
0.0
  0
SPLINE
  5
37D
100
AcDbEntity
  8
0
100
AcDbSpline
 62
7
  6
CONTINUOUS
 70
0
 71
3
 72
69
 73
65
 74
0
 42
0.0000001
 43
0.0000001
 44
0.0000000001
 40
0.0
 40
0.0
 40
0.0
 40
0.0
 40
0.0077182502
 40
0.0147686575
 40
0.0212508681
 40
0.0243224672
 40
0.0273056586
 40
0.0302226231
 40
0.033097295
 40
0.0359547786
 40
0.0388206659
 40
0.0417203042
 40
0.0446780807
 40
0.0477168811
 40
0.0508576022
 40
0.0575130874
 40
0.0610628882
 40
0.0647761711
 40
0.0686632481
 40
0.0727326313
 40
0.0814433149
 40
0.0909521066
 40
0.101284104
 40
0.1124517799
 40
0.124457858
 40
0.1372973566
 40
0.1509588838
 40
0.1654257722
 40
0.1806769584
 40
0.1966874633
 40
0.2134288847
 40
0.23086989
 40
0.2489764402
 40
0.2677120276
 40
0.2870380269
 40
0.3069138479
 40
0.3272970669
 40
0.369407301
 40
0.4130019445
 40
0.4576952834
 40
0.503088762
 40
0.548775807
 40
0.5943464876
 40
0.6393922054
 40
0.6835103489
 40
0.7263090709
 40
0.7470958749
 40
0.7674132466
 40
0.7872173747
 40
0.8064661234
 40
0.8251191506
 40
0.8431380517
 40
0.8604866866
 40
0.8771313793
 40
0.8930411083
 40
0.9081879427
 40
0.9225474446
 40
0.9360990319
 40
0.9488266992
 40
0.9607199577
 40
0.971774642
 40
0.9819945558
 40
0.9913944015
 40
1.0
 40
1.0
 40
1.0
 40
1.0
 10
13.4835984883
 20
10.6345673076
 30
0.0
 10
13.484650954
 20
10.6355467596
 30
0.0
 10
13.486754148
 20
10.6373296091
 30
0.0
 10
13.4900597177
 20
10.6395253271
 30
0.0
 10
13.4928619561
 20
10.6408659726
 30
0.0
 10
13.4950803992
 20
10.6416036145
 30
0.0
 10
13.4967084594
 20
10.6419909632
 30
0.0
 10
13.4983290722
 20
10.6422215087
 30
0.0
 10
13.4999410381
 20
10.6422949131
 30
0.0
 10
13.5015430112
 20
10.6422110381
 30
0.0
 10
13.5031336242
 20
10.6419698452
 30
0.0
 10
13.5047115519
 20
10.6415716785
 30
0.0
 10
13.5062755719
 20
10.641017096
 30
0.0
 10
13.5078246417
 20
10.6403066112
 30
0.0
 10
13.5099086028
 20
10.6391301141
 30
0.0
 10
13.5119209251
 20
10.6376527447
 30
0.0
 10
13.5138528669
 20
10.6359223317
 30
0.0
 10
13.5153142954
 20
10.6344446255
 30
0.0
 10
13.5167557323
 20
10.6328161953
 30
0.0
 10
13.5186943859
 20
10.6303897826
 30
0.0
 10
13.5210548502
 20
10.6269675247
 30
0.0
 10
13.5237335619
 20
10.6223682752
 30
0.0
 10
13.5263145049
 20
10.6171970352
 30
0.0
 10
13.5287919999
 20
10.6114656826
 30
0.0
 10
13.5311604981
 20
10.6051870621
 30
0.0
 10
13.533414415
 20
10.5983756474
 30
0.0
 10
13.5355484096
 20
10.5910472995
 30
0.0
 10
13.5375573689
 20
10.5832192374
 30
0.0
 10
13.5394364153
 20
10.5749099394
 30
0.0
 10
13.541181
 20
10.5661391076
 30
0.0
 10
13.5427869116
 20
10.5569275985
 30
0.0
 10
13.5442502349
 20
10.547297347
 30
0.0
 10
13.5455674088
 20
10.5372713195
 30
0.0
 10
13.5467352604
 20
10.5268734538
 30
0.0
 10
13.5477509362
 20
10.5161285929
 30
0.0
 10
13.5486119848
 20
10.5050623945
 30
0.0
 10
13.5495612782
 20
10.4897480019
 30
0.0
 10
13.5503360104
 20
10.4699987019
 30
0.0
 10
13.55061773
 20
10.445707738
 30
0.0
 10
13.55025781
 20
10.420806221
 30
0.0
 10
13.5492594997
 20
10.3955322123
 30
0.0
 10
13.5476321348
 20
10.3701271719
 30
0.0
 10
13.5453912406
 20
10.3448339095
 30
0.0
 10
13.5425583681
 20
10.3198940688
 30
0.0
 10
13.5391607396
 20
10.2955460788
 30
0.0
 10
13.5358549696
 20
10.2757549886
 30
0.0
 10
13.5329436758
 20
10.2603990983
 30
0.0
 10
13.5306620991
 20
10.2492847598
 30
0.0
 10
13.5282667602
 20
10.2384876489
 30
0.0
 10
13.5257634061
 20
10.2280335533
 30
0.0
 10
13.5231580748
 20
10.2179474549
 30
0.0
 10
13.5204570119
 20
10.2082534459
 30
0.0
 10
13.5176667289
 20
10.1989746552
 30
0.0
 10
13.5147939575
 20
10.190133194
 30
0.0
 10
13.5118455921
 20
10.1817501142
 30
0.0
 10
13.5088287253
 20
10.1738453265
 30
0.0
 10
13.5057506252
 20
10.166437541
 30
0.0
 10
13.5026186486
 20
10.1595442348
 30
0.0
 10
13.4994402539
 20
10.1531815688
 30
0.0
 10
13.4962229475
 20
10.1473643083
 30
0.0
 10
13.4929742518
 20
10.1421058691
 30
0.0
 10
13.4897012938
 20
10.1374178851
 30
0.0
 10
13.4864115682
 20
10.1333113824
 30
0.0
 10
13.4841128992
 20
10.1308621504
 30
0.0
 10
13.4829599341
 20
10.1297484715
 30
0.0
  0
SPLINE
  5
37E
100
AcDbEntity
  8
0
100
AcDbSpline
 62
7
  6
CONTINUOUS
 70
0
 71
3
 72
35
 73
31
 74
0
 42
0.0000001
 43
0.0000001
 44
0.0000000001
 40
0.0
 40
0.0
 40
0.0
 40
0.0
 40
0.0063161816
 40
0.0126712863
 40
0.0256396853
 40
0.0392001943
 40
0.0535986795
 40
0.0690362498
 40
0.0856699862
 40
0.1036187495
 40
0.1229693505
 40
0.1437827275
 40
0.1660993706
 40
0.1899428057
 40
0.215323558
 40
0.2422406779
 40
0.2706843576
 40
0.300636815
 40
0.3320735748
 40
0.3649645069
 40
0.3992740096
 40
0.4349622913
 40
0.4719850238
 40
0.5102944612
 40
0.5498392381
 40
0.6324119545
 40
0.7192373686
 40
0.8098085678
 40
0.9035843039
 40
1.0
 40
1.0
 40
1.0
 40
1.0
 10
13.4730690063
 20
9.4096955062
 30
0.0
 10
13.4734645098
 20
9.409668082
 30
0.0
 10
13.474256119
 20
9.409580659
 30
0.0
 10
13.4758376224
 20
9.4092750487
 30
0.0
 10
13.4778111716
 20
9.4086401182
 30
0.0
 10
13.480120169
 20
9.4074953712
 30
0.0
 10
13.4823842247
 20
9.4059680809
 30
0.0
 10
13.4846004007
 20
9.4040629814
 30
0.0
 10
13.4867669605
 20
9.401784418
 30
0.0
 10
13.4888817096
 20
9.3991363722
 30
0.0
 10
13.4909422642
 20
9.3961230597
 30
0.0
 10
13.4929459739
 20
9.3927491166
 30
0.0
 10
13.4948899312
 20
9.3890197087
 30
0.0
 10
13.4967712822
 20
9.3849406722
 30
0.0
 10
13.4985869963
 20
9.3805184174
 30
0.0
 10
13.5003342302
 20
9.3757600204
 30
0.0
 10
13.5020100911
 20
9.3706731294
 30
0.0
 10
13.5036118403
 20
9.3652659897
 30
0.0
 10
13.5051368426
 20
9.3595474031
 30
0.0
 10
13.5065825288
 20
9.3535267076
 30
0.0
 10
13.5079465496
 20
9.3472137658
 30
0.0
 10
13.5092265758
 20
9.3406189318
 30
0.0
 10
13.5104205226
 20
9.3337530445
 30
0.0
 10
13.5115263884
 20
9.3266273842
 30
0.0
 10
13.5129007425
 20
9.3166515501
 30
0.0
 10
13.5143741493
 20
9.3036174216
 30
0.0
 10
13.5157420414
 20
9.2873551988
 30
0.0
 10
13.5167246626
 20
9.2703608427
 30
0.0
 10
13.5173153478
 20
9.2527463363
 30
0.0
 10
13.5174435418
 20
9.2408079582
 30
0.0
 10
13.5174435418
 20
9.2347561517
 30
0.0
  0
SPLINE
  5
37F
100
AcDbEntity
  8
0
100
AcDbSpline
 62
7
  6
CONTINUOUS
 70
0
 71
3
 72
16
 73
12
 74
0
 42
0.0000001
 43
0.0000001
 44
0.0000000001
 40
0.0
 40
0.0
 40
0.0
 40
0.0
 40
0.1504790676
 40
0.2917468496
 40
0.4244951198
 40
0.4879700185
 40
0.54967612
 40
0.6683414766
 40
0.781881548
 40
0.8918563265
 40
1.0
 40
1.0
 40
1.0
 40
1.0
 10
13.4568799352
 20
10.1576371245
 30
0.0
 10
13.4562184293
 20
10.1569981588
 30
0.0
 10
13.4548962498
 20
10.155799245
 30
0.0
 10
13.4528490126
 20
10.1542014768
 30
0.0
 10
13.4511197231
 20
10.1530714374
 30
0.0
 10
13.4497407756
 20
10.1523062268
 30
0.0
 10
13.4484024614
 20
10.151649262
 30
0.0
 10
13.4467289608
 20
10.1509854866
 30
0.0
 10
13.4447028422
 20
10.1504464073
 30
0.0
 10
13.442688158
 20
10.1501772256
 30
0.0
 10
13.4413502422
 20
10.1501787502
 30
0.0
 10
13.4406908641
 20
10.1502244715
 30
0.0
  0
SPLINE
  5
380
100
AcDbEntity
  8
0
100
AcDbSpline
 62
7
  6
CONTINUOUS
 70
0
 71
3
 72
69
 73
65
 74
0
 42
0.0000001
 43
0.0000001
 44
0.0000000001
 40
0.0
 40
0.0
 40
0.0
 40
0.0
 40
0.0077182502
 40
0.0147686575
 40
0.0212508681
 40
0.0243224672
 40
0.0273056586
 40
0.0302226231
 40
0.033097295
 40
0.0359547786
 40
0.0388206659
 40
0.0417203042
 40
0.0446780807
 40
0.0477168811
 40
0.0508576022
 40
0.0575130874
 40
0.0610628882
 40
0.0647761711
 40
0.0686632481
 40
0.0727326313
 40
0.0814433149
 40
0.0909521066
 40
0.101284104
 40
0.1124517799
 40
0.124457858
 40
0.1372973566
 40
0.1509588838
 40
0.1654257722
 40
0.1806769584
 40
0.1966874633
 40
0.2134288847
 40
0.23086989
 40
0.2489764402
 40
0.2677120276
 40
0.2870380269
 40
0.3069138479
 40
0.3272970669
 40
0.369407301
 40
0.4130019445
 40
0.4576952834
 40
0.503088762
 40
0.548775807
 40
0.5943464876
 40
0.6393922054
 40
0.6835103489
 40
0.7263090709
 40
0.7470958749
 40
0.7674132466
 40
0.7872173747
 40
0.8064661234
 40
0.8251191506
 40
0.8431380517
 40
0.8604866866
 40
0.8771313793
 40
0.8930411083
 40
0.9081879427
 40
0.9225474446
 40
0.9360990319
 40
0.9488266992
 40
0.9607199577
 40
0.971774642
 40
0.9819945558
 40
0.9913944015
 40
1.0
 40
1.0
 40
1.0
 40
1.0
 10
13.4835984883
 20
9.4271597229
 30
0.0
 10
13.484650954
 20
9.4281391749
 30
0.0
 10
13.486754148
 20
9.4299220244
 30
0.0
 10
13.4900597177
 20
9.4321177424
 30
0.0
 10
13.4928619561
 20
9.433458388
 30
0.0
 10
13.4950803992
 20
9.4341960298
 30
0.0
 10
13.4967084594
 20
9.4345833785
 30
0.0
 10
13.4983290722
 20
9.434813924
 30
0.0
 10
13.4999410381
 20
9.4348873284
 30
0.0
 10
13.5015430112
 20
9.4348034534
 30
0.0
 10
13.5031336242
 20
9.4345622605
 30
0.0
 10
13.5047115519
 20
9.4341640938
 30
0.0
 10
13.5062755719
 20
9.4336095113
 30
0.0
 10
13.5078246417
 20
9.4328990265
 30
0.0
 10
13.5099086028
 20
9.4317225294
 30
0.0
 10
13.5119209251
 20
9.43024516
 30
0.0
 10
13.5138528669
 20
9.428514747
 30
0.0
 10
13.5153142954
 20
9.4270370408
 30
0.0
 10
13.5167557323
 20
9.4254086106
 30
0.0
 10
13.5186943859
 20
9.4229821979
 30
0.0
 10
13.5210548502
 20
9.41955994
 30
0.0
 10
13.5237335619
 20
9.4149606905
 30
0.0
 10
13.5263145049
 20
9.4097894505
 30
0.0
 10
13.5287919999
 20
9.4040580979
 30
0.0
 10
13.5311604981
 20
9.3977794774
 30
0.0
 10
13.533414415
 20
9.3909680627
 30
0.0
 10
13.5355484096
 20
9.3836397148
 30
0.0
 10
13.5375573689
 20
9.3758116527
 30
0.0
 10
13.5394364153
 20
9.3675023547
 30
0.0
 10
13.541181
 20
9.3587315229
 30
0.0
 10
13.5427869116
 20
9.3495200138
 30
0.0
 10
13.5442502349
 20
9.3398897623
 30
0.0
 10
13.5455674088
 20
9.3298637348
 30
0.0
 10
13.5467352604
 20
9.3194658691
 30
0.0
 10
13.5477509362
 20
9.3087210082
 30
0.0
 10
13.5486119848
 20
9.2976548098
 30
0.0
 10
13.5495612782
 20
9.2823404172
 30
0.0
 10
13.5503360104
 20
9.2625911172
 30
0.0
 10
13.55061773
 20
9.2383001533
 30
0.0
 10
13.55025781
 20
9.2133986363
 30
0.0
 10
13.5492594997
 20
9.1881246276
 30
0.0
 10
13.5476321348
 20
9.1627195872
 30
0.0
 10
13.5453912406
 20
9.1374263248
 30
0.0
 10
13.5425583681
 20
9.1124864841
 30
0.0
 10
13.5391607396
 20
9.0881384941
 30
0.0
 10
13.5358549696
 20
9.0683474039
 30
0.0
 10
13.5329436758
 20
9.0529915136
 30
0.0
 10
13.5306620991
 20
9.0418771751
 30
0.0
 10
13.5282667602
 20
9.0310800642
 30
0.0
 10
13.5257634061
 20
9.0206259686
 30
0.0
 10
13.5231580748
 20
9.0105398702
 30
0.0
 10
13.5204570119
 20
9.0008458612
 30
0.0
 10
13.5176667289
 20
8.9915670705
 30
0.0
 10
13.5147939575
 20
8.9827256093
 30
0.0
 10
13.5118455921
 20
8.9743425295
 30
0.0
 10
13.5088287253
 20
8.9664377418
 30
0.0
 10
13.5057506252
 20
8.9590299563
 30
0.0
 10
13.5026186486
 20
8.9521366501
 30
0.0
 10
13.4994402539
 20
8.9457739841
 30
0.0
 10
13.4962229475
 20
8.9399567236
 30
0.0
 10
13.4929742518
 20
8.9346982844
 30
0.0
 10
13.4897012938
 20
8.9300103004
 30
0.0
 10
13.4864115682
 20
8.9259037977
 30
0.0
 10
13.4841128992
 20
8.9234545657
 30
0.0
 10
13.4829599341
 20
8.9223408868
 30
0.0
  0
SPLINE
  5
381
100
AcDbEntity
  8
0
100
AcDbSpline
 62
7
  6
CONTINUOUS
 70
0
 71
3
 72
31
 73
27
 74
0
 42
0.0000001
 43
0.0000001
 44
0.0000000001
 40
0.0
 40
0.0
 40
0.0
 40
0.0
 40
0.0760200182
 40
0.1532656915
 40
0.2310428538
 40
0.308648727
 40
0.3853832697
 40
0.4605564064
 40
0.5334962524
 40
0.6035574042
 40
0.6373172079
 40
0.6701318054
 40
0.7019319457
 40
0.7326517015
 40
0.7622290326
 40
0.7906060956
 40
0.8177295969
 40
0.8435515486
 40
0.8680299251
 40
0.8911293058
 40
0.9128221195
 40
0.9330902291
 40
0.9519263368
 40
0.9693367963
 40
0.9853466373
 40
1.0
 40
1.0
 40
1.0
 40
1.0
 10
13.5174435418
 20
10.4421637364
 30
0.0
 10
13.5174435418
 20
10.4346843254
 30
0.0
 10
13.5172435382
 20
10.4196042699
 30
0.0
 10
13.5163707769
 20
10.3968871261
 30
0.0
 10
13.5149302061
 20
10.3740424505
 30
0.0
 10
13.5129356145
 20
10.3512899758
 30
0.0
 10
13.5104062948
 20
10.328848452
 30
0.0
 10
13.5073667621
 20
10.3069335172
 30
0.0
 10
13.5038465201
 20
10.2857558676
 30
0.0
 10
13.5005011321
 20
10.268686631
 30
0.0
 10
13.4975995202
 20
10.255559763
 30
0.0
 10
13.4953525028
 20
10.2461448872
 30
0.0
 10
13.4930132988
 20
10.237061006
 30
0.0
 10
13.4905875157
 20
10.2283299357
 30
0.0
 10
13.4880810487
 20
10.2199726362
 30
0.0
 10
13.4854999769
 20
10.2120091436
 30
0.0
 10
13.4828505318
 20
10.2044585348
 30
0.0
 10
13.4801391288
 20
10.1973388509
 30
0.0
 10
13.4773723384
 20
10.1906670463
 30
0.0
 10
13.4745568125
 20
10.1844589584
 30
0.0
 10
13.4716993
 20
10.1787292283
 30
0.0
 10
13.4688065897
 20
10.1734912328
 30
0.0
 10
13.4658854852
 20
10.1687571254
 30
0.0
 10
13.4629424365
 20
10.1645374408
 30
0.0
 10
13.4599842213
 20
10.1608421592
 30
0.0
 10
13.4579168889
 20
10.1586387449
 30
0.0
 10
13.4568799352
 20
10.1576371245
 30
0.0
  0
SPLINE
  5
382
100
AcDbEntity
  8
0
100
AcDbSpline
 62
7
  6
CONTINUOUS
 70
0
 71
3
 72
35
 73
31
 74
0
 42
0.0000001
 43
0.0000001
 44
0.0000000001
 40
0.0
 40
0.0
 40
0.0
 40
0.0
 40
0.0063161816
 40
0.0126712863
 40
0.0256396853
 40
0.0392001943
 40
0.0535986795
 40
0.0690362498
 40
0.0856699862
 40
0.1036187495
 40
0.1229693505
 40
0.1437827275
 40
0.1660993706
 40
0.1899428057
 40
0.215323558
 40
0.2422406779
 40
0.2706843576
 40
0.300636815
 40
0.3320735748
 40
0.3649645069
 40
0.3992740096
 40
0.4349622913
 40
0.4719850238
 40
0.5102944612
 40
0.5498392381
 40
0.6324119545
 40
0.7192373686
 40
0.8098085678
 40
0.9035843039
 40
1.0
 40
1.0
 40
1.0
 40
1.0
 10
12.7939283891
 20
8.7536960055
 30
0.0
 10
12.7943238926
 20
8.7536685813
 30
0.0
 10
12.7951155018
 20
8.7535811583
 30
0.0
 10
12.7966970052
 20
8.753275548
 30
0.0
 10
12.7986705544
 20
8.7526406175
 30
0.0
 10
12.8009795518
 20
8.7514958705
 30
0.0
 10
12.8032436075
 20
8.7499685802
 30
0.0
 10
12.8054597835
 20
8.7480634807
 30
0.0
 10
12.8076263433
 20
8.7457849173
 30
0.0
 10
12.8097410924
 20
8.7431368715
 30
0.0
 10
12.811801647
 20
8.740123559
 30
0.0
 10
12.8138053567
 20
8.7367496159
 30
0.0
 10
12.815749314
 20
8.733020208
 30
0.0
 10
12.817630665
 20
8.7289411715
 30
0.0
 10
12.8194463791
 20
8.7245189167
 30
0.0
 10
12.821193613
 20
8.7197605197
 30
0.0
 10
12.8228694739
 20
8.7146736287
 30
0.0
 10
12.8244712231
 20
8.709266489
 30
0.0
 10
12.8259962254
 20
8.7035479024
 30
0.0
 10
12.8274419116
 20
8.6975272069
 30
0.0
 10
12.8288059324
 20
8.6912142651
 30
0.0
 10
12.8300859586
 20
8.6846194311
 30
0.0
 10
12.8312799054
 20
8.6777535438
 30
0.0
 10
12.8323857712
 20
8.6706278835
 30
0.0
 10
12.8337601253
 20
8.6606520494
 30
0.0
 10
12.8352335321
 20
8.6476179209
 30
0.0
 10
12.8366014242
 20
8.6313556981
 30
0.0
 10
12.8375840454
 20
8.614361342
 30
0.0
 10
12.8381747306
 20
8.5967468356
 30
0.0
 10
12.8383029246
 20
8.5848084575
 30
0.0
 10
12.8383029246
 20
8.578756651
 30
0.0
  0
SPLINE
  5
383
100
AcDbEntity
  8
0
100
AcDbSpline
 62
7
  6
CONTINUOUS
 70
0
 71
3
 72
69
 73
65
 74
0
 42
0.0000001
 43
0.0000001
 44
0.0000000001
 40
0.0
 40
0.0
 40
0.0
 40
0.0
 40
0.0077182502
 40
0.0147686575
 40
0.0212508681
 40
0.0243224672
 40
0.0273056586
 40
0.0302226231
 40
0.033097295
 40
0.0359547786
 40
0.0388206659
 40
0.0417203042
 40
0.0446780807
 40
0.0477168811
 40
0.0508576022
 40
0.0575130874
 40
0.0610628882
 40
0.0647761711
 40
0.0686632481
 40
0.0727326313
 40
0.0814433149
 40
0.0909521066
 40
0.101284104
 40
0.1124517799
 40
0.124457858
 40
0.1372973566
 40
0.1509588838
 40
0.1654257722
 40
0.1806769584
 40
0.1966874633
 40
0.2134288847
 40
0.23086989
 40
0.2489764402
 40
0.2677120276
 40
0.2870380269
 40
0.3069138479
 40
0.3272970669
 40
0.369407301
 40
0.4130019445
 40
0.4576952834
 40
0.503088762
 40
0.548775807
 40
0.5943464876
 40
0.6393922054
 40
0.6835103489
 40
0.7263090709
 40
0.7470958749
 40
0.7674132466
 40
0.7872173747
 40
0.8064661234
 40
0.8251191506
 40
0.8431380517
 40
0.8604866866
 40
0.8771313793
 40
0.8930411083
 40
0.9081879427
 40
0.9225474446
 40
0.9360990319
 40
0.9488266992
 40
0.9607199577
 40
0.971774642
 40
0.9819945558
 40
0.9913944015
 40
1.0
 40
1.0
 40
1.0
 40
1.0
 10
12.8044578711
 20
8.7711602222
 30
0.0
 10
12.8055103368
 20
8.7721396742
 30
0.0
 10
12.8076135308
 20
8.7739225237
 30
0.0
 10
12.8109191005
 20
8.7761182417
 30
0.0
 10
12.8137213389
 20
8.7774588872
 30
0.0
 10
12.815939782
 20
8.7781965291
 30
0.0
 10
12.8175678422
 20
8.7785838778
 30
0.0
 10
12.819188455
 20
8.7788144233
 30
0.0
 10
12.8208004209
 20
8.7788878277
 30
0.0
 10
12.822402394
 20
8.7788039527
 30
0.0
 10
12.823993007
 20
8.7785627598
 30
0.0
 10
12.8255709347
 20
8.7781645931
 30
0.0
 10
12.8271349547
 20
8.7776100106
 30
0.0
 10
12.8286840245
 20
8.7768995258
 30
0.0
 10
12.8307679856
 20
8.7757230287
 30
0.0
 10
12.8327803079
 20
8.7742456593
 30
0.0
 10
12.8347122497
 20
8.7725152463
 30
0.0
 10
12.8361736782
 20
8.7710375401
 30
0.0
 10
12.8376151151
 20
8.7694091099
 30
0.0
 10
12.8395537687
 20
8.7669826972
 30
0.0
 10
12.841914233
 20
8.7635604393
 30
0.0
 10
12.8445929447
 20
8.7589611898
 30
0.0
 10
12.8471738877
 20
8.7537899498
 30
0.0
 10
12.8496513827
 20
8.7480585972
 30
0.0
 10
12.8520198809
 20
8.7417799767
 30
0.0
 10
12.8542737978
 20
8.734968562
 30
0.0
 10
12.8564077924
 20
8.7276402141
 30
0.0
 10
12.8584167517
 20
8.719812152
 30
0.0
 10
12.8602957981
 20
8.711502854
 30
0.0
 10
12.8620403828
 20
8.7027320222
 30
0.0
 10
12.8636462944
 20
8.6935205131
 30
0.0
 10
12.8651096176
 20
8.6838902616
 30
0.0
 10
12.8664267916
 20
8.6738642341
 30
0.0
 10
12.8675946432
 20
8.6634663684
 30
0.0
 10
12.868610319
 20
8.6527215075
 30
0.0
 10
12.8694713676
 20
8.6416553091
 30
0.0
 10
12.870420661
 20
8.6263409165
 30
0.0
 10
12.8711953931
 20
8.6065916165
 30
0.0
 10
12.8714771128
 20
8.5823006526
 30
0.0
 10
12.8711171928
 20
8.5573991356
 30
0.0
 10
12.8701188825
 20
8.5321251269
 30
0.0
 10
12.8684915176
 20
8.5067200865
 30
0.0
 10
12.8662506234
 20
8.4814268241
 30
0.0
 10
12.8634177509
 20
8.4564869834
 30
0.0
 10
12.8600201224
 20
8.4321389934
 30
0.0
 10
12.8567143524
 20
8.4123479032
 30
0.0
 10
12.8538030586
 20
8.3969920129
 30
0.0
 10
12.8515214819
 20
8.3858776744
 30
0.0
 10
12.849126143
 20
8.3750805635
 30
0.0
 10
12.8466227889
 20
8.3646264679
 30
0.0
 10
12.8440174576
 20
8.3545403695
 30
0.0
 10
12.8413163947
 20
8.3448463605
 30
0.0
 10
12.8385261117
 20
8.3355675698
 30
0.0
 10
12.8356533403
 20
8.3267261086
 30
0.0
 10
12.8327049749
 20
8.3183430288
 30
0.0
 10
12.829688108
 20
8.3104382411
 30
0.0
 10
12.826610008
 20
8.3030304556
 30
0.0
 10
12.8234780314
 20
8.2961371494
 30
0.0
 10
12.8202996367
 20
8.2897744834
 30
0.0
 10
12.8170823303
 20
8.2839572229
 30
0.0
 10
12.8138336346
 20
8.2786987837
 30
0.0
 10
12.8105606766
 20
8.2740107997
 30
0.0
 10
12.807270951
 20
8.269904297
 30
0.0
 10
12.804972282
 20
8.267455065
 30
0.0
 10
12.8038193169
 20
8.2663413861
 30
0.0
  0
SPLINE
  5
384
100
AcDbEntity
  8
0
100
AcDbSpline
 62
7
  6
CONTINUOUS
 70
0
 71
3
 72
39
 73
35
 74
0
 42
0.0000001
 43
0.0000001
 44
0.0000000001
 40
0.0
 40
0.0
 40
0.0
 40
0.0
 40
0.0311159435
 40
0.0620233446
 40
0.0927351373
 40
0.1232711777
 40
0.1536587331
 40
0.1839312108
 40
0.2141268399
 40
0.2442870988
 40
0.274454976
 40
0.3046731308
 40
0.3349820902
 40
0.3654185441
 40
0.3960138642
 40
0.4267928828
 40
0.4577729963
 40
0.4889636214
 40
0.5203659689
 40
0.5519731787
 40
0.5837707188
 40
0.6157370636
 40
0.647844591
 40
0.6800606403
 40
0.712348731
 40
0.744669863
 40
0.7769838843
 40
0.8092508935
 40
0.8414326252
 40
0.8734938001
 40
0.9054034144
 40
0.9371358873
 40
0.968671823
 40
1.0
 40
1.0
 40
1.0
 40
1.0
 10
9.9076364363
 20
7.3265769248
 30
0.0
 10
9.9076364363
 20
7.3177597327
 30
0.0
 10
9.9067756289
 20
7.300171688
 30
0.0
 10
9.9028827222
 20
7.2741412594
 30
0.0
 10
9.896429045
 20
7.2487908205
 30
0.0
 10
9.8874757721
 20
7.2243683931
 30
0.0
 10
9.8761085816
 20
7.201109272
 30
0.0
 10
9.8624364964
 20
7.1792388729
 30
0.0
 10
9.8465913642
 20
7.1589688688
 30
0.0
 10
9.8287261187
 20
7.140495679
 30
0.0
 10
9.8090136307
 20
7.1239981152
 30
0.0
 10
9.7876447967
 20
7.1096356462
 30
0.0
 10
9.7648265255
 20
7.0975469521
 30
0.0
 10
9.7407798174
 20
7.087848191
 30
0.0
 10
9.7157372555
 20
7.0806324033
 30
0.0
 10
9.6899408735
 20
7.0759682442
 30
0.0
 10
9.6636396322
 20
7.073899658
 30
0.0
 10
9.6370870455
 20
7.0744456182
 30
0.0
 10
9.6105387259
 20
7.0775997023
 30
0.0
 10
9.5842499865
 20
7.083330753
 30
0.0
 10
9.5584733897
 20
7.0915827307
 30
0.0
 10
9.5334564108
 20
7.1022756418
 30
0.0
 10
9.5094391554
 20
7.11530626
 30
0.0
 10
9.4866519714
 20
7.1305489213
 30
0.0
 10
9.4653135325
 20
7.147857117
 30
0.0
 10
9.4456284985
 20
7.1670644508
 30
0.0
 10
9.4277858211
 20
7.1879865463
 30
0.0
 10
9.4119568931
 20
7.2104226516
 30
0.0
 10
9.3982937818
 20
7.2341574393
 30
0.0
 10
9.3869281381
 20
7.2589633464
 30
0.0
 10
9.3779694808
 20
7.2846020528
 30
0.0
 10
9.371504606
 20
7.3108283505
 30
0.0
 10
9.3675963081
 20
7.3373870447
 30
0.0
 10
9.3667179415
 20
7.3552124181
 30
0.0
 10
9.3667179415
 20
7.3640897498
 30
0.0
  0
SPLINE
  5
385
100
AcDbEntity
  8
0
100
AcDbSpline
 62
7
  6
CONTINUOUS
 70
0
 71
3
 72
39
 73
35
 74
0
 42
0.0000001
 43
0.0000001
 44
0.0000000001
 40
0.0
 40
0.0
 40
0.0
 40
0.0
 40
0.0311159435
 40
0.0620233446
 40
0.0927351373
 40
0.1232711777
 40
0.1536587331
 40
0.1839312108
 40
0.2141268399
 40
0.2442870988
 40
0.274454976
 40
0.3046731308
 40
0.3349820902
 40
0.3654185441
 40
0.3960138642
 40
0.4267928828
 40
0.4577729963
 40
0.4889636214
 40
0.5203659689
 40
0.5519731787
 40
0.5837707188
 40
0.6157370636
 40
0.647844591
 40
0.6800606403
 40
0.712348731
 40
0.744669863
 40
0.7769838843
 40
0.8092508935
 40
0.8414326252
 40
0.8734938001
 40
0.9054034144
 40
0.9371358873
 40
0.968671823
 40
1.0
 40
1.0
 40
1.0
 40
1.0
 10
9.3667179415
 20
7.3640897498
 30
0.0
 10
9.3667179415
 20
7.3729069419
 30
0.0
 10
9.3675787489
 20
7.3904949866
 30
0.0
 10
9.3714716557
 20
7.4165254152
 30
0.0
 10
9.3779253328
 20
7.4418758541
 30
0.0
 10
9.3868786057
 20
7.4662982815
 30
0.0
 10
9.3982457962
 20
7.4895574026
 30
0.0
 10
9.4119178814
 20
7.5114278017
 30
0.0
 10
9.4277630136
 20
7.5316978058
 30
0.0
 10
9.4456282591
 20
7.5501709956
 30
0.0
 10
9.4653407471
 20
7.5666685594
 30
0.0
 10
9.4867095811
 20
7.5810310284
 30
0.0
 10
9.5095278523
 20
7.5931197225
 30
0.0
 10
9.5335745605
 20
7.6028184836
 30
0.0
 10
9.5586171223
 20
7.6100342713
 30
0.0
 10
9.5844135043
 20
7.6146984304
 30
0.0
 10
9.6107147457
 20
7.6167670166
 30
0.0
 10
9.6372673323
 20
7.6162210564
 30
0.0
 10
9.6638156519
 20
7.6130669723
 30
0.0
 10
9.6901043913
 20
7.6073359216
 30
0.0
 10
9.7158809881
 20
7.5990839439
 30
0.0
 10
9.740897967
 20
7.5883910328
 30
0.0
 10
9.7649152224
 20
7.5753604146
 30
0.0
 10
9.7877024064
 20
7.5601177533
 30
0.0
 10
9.8090408453
 20
7.5428095576
 30
0.0
 10
9.8287258793
 20
7.5236022238
 30
0.0
 10
9.8465685567
 20
7.5026801283
 30
0.0
 10
9.8623974847
 20
7.480244023
 30
0.0
 10
9.876060596
 20
7.4565092353
 30
0.0
 10
9.8874262397
 20
7.4317033282
 30
0.0
 10
9.896384897
 20
7.4060646218
 30
0.0
 10
9.9028497718
 20
7.3798383241
 30
0.0
 10
9.9067580697
 20
7.3532796299
 30
0.0
 10
9.9076364363
 20
7.3354542565
 30
0.0
 10
9.9076364363
 20
7.3265769248
 30
0.0
  0
SPLINE
  5
386
100
AcDbEntity
  8
0
100
AcDbSpline
 62
7
  6
CONTINUOUS
 70
0
 71
3
 72
16
 73
12
 74
0
 42
0.0000001
 43
0.0000001
 44
0.0000000001
 40
0.0
 40
0.0
 40
0.0
 40
0.0
 40
0.1504790676
 40
0.2917468496
 40
0.4244951198
 40
0.4879700185
 40
0.54967612
 40
0.6683414766
 40
0.781881548
 40
0.8918563265
 40
1.0
 40
1.0
 40
1.0
 40
1.0
 10
13.4568799352
 20
8.9502295398
 30
0.0
 10
13.4562184293
 20
8.9495905741
 30
0.0
 10
13.4548962498
 20
8.9483916603
 30
0.0
 10
13.4528490126
 20
8.9467938921
 30
0.0
 10
13.4511197231
 20
8.9456638527
 30
0.0
 10
13.4497407756
 20
8.9448986421
 30
0.0
 10
13.4484024614
 20
8.9442416773
 30
0.0
 10
13.4467289608
 20
8.9435779019
 30
0.0
 10
13.4447028422
 20
8.9430388226
 30
0.0
 10
13.442688158
 20
8.9427696409
 30
0.0
 10
13.4413502422
 20
8.9427711655
 30
0.0
 10
13.4406908641
 20
8.9428168868
 30
0.0
  0
SPLINE
  5
387
100
AcDbEntity
  8
0
100
AcDbSpline
 62
7
  6
CONTINUOUS
 70
0
 71
3
 72
47
 73
43
 74
0
 42
0.0000001
 43
0.0000001
 44
0.0000000001
 40
0.0
 40
0.0
 40
0.0
 40
0.0
 40
0.0386301496
 40
0.0776522304
 40
0.1169728738
 40
0.1564992329
 40
0.1961369593
 40
0.2357917287
 40
0.2753690341
 40
0.3147746477
 40
0.3539148574
 40
0.3926967735
 40
0.4310286181
 40
0.4688200226
 40
0.5059823272
 40
0.5424288849
 40
0.5780753733
 40
0.6128401165
 40
0.6466444214
 40
0.6794129331
 40
0.7110740171
 40
0.7415601779
 40
0.7708085286
 40
0.7987613327
 40
0.8253666378
 40
0.8505790454
 40
0.8626512314
 40
0.8743616555
 40
0.8857070175
 40
0.8966845515
 40
0.9072923095
 40
0.9175290217
 40
0.9273943608
 40
0.9368889096
 40
0.9460143479
 40
0.954773584
 40
0.9631708539
 40
0.9712120304
 40
0.9789046735
 40
0.9862584817
 40
0.9932853735
 40
1.0
 40
1.0
 40
1.0
 40
1.0
 10
10.3450466931
 20
11.2291952306
 30
0.0
 10
10.3330160955
 20
11.2300295554
 30
0.0
 10
10.3088207665
 20
11.2315371078
 30
0.0
 10
10.2723464496
 20
11.2333112539
 30
0.0
 10
10.2355719978
 20
11.2346068199
 30
0.0
 10
10.1985915283
 20
11.235420511
 30
0.0
 10
10.1614992698
 20
11.2357502143
 30
0.0
 10
10.1243899687
 20
11.2355950986
 30
0.0
 10
10.0873583195
 20
11.2349555544
 30
0.0
 10
10.0504988517
 20
11.2338332265
 30
0.0
 10
10.0139056423
 20
11.2322309945
 30
0.0
 10
9.9776720889
 20
11.2301529719
 30
0.0
 10
9.9418906648
 20
11.2276044938
 30
0.0
 10
9.9066526823
 20
11.2245921058
 30
0.0
 10
9.8720480565
 20
11.2211235468
 30
0.0
 10
9.8381650737
 20
11.2172077288
 30
0.0
 10
9.8050901636
 20
11.2128547157
 30
0.0
 10
9.7729076741
 20
11.208075698
 30
0.0
 10
9.7416996516
 20
11.2028829648
 30
0.0
 10
9.7115456241
 20
11.1972898737
 30
0.0
 10
9.6825223926
 20
11.1913108161
 30
0.0
 10
9.6547038131
 20
11.1849611803
 30
0.0
 10
9.6281606278
 20
11.1782573087
 30
0.0
 10
9.6029601358
 20
11.1712164563
 30
0.0
 10
9.5791664366
 20
11.1638567237
 30
0.0
 10
9.5602969968
 20
11.1573834249
 30
0.0
 10
9.5459626623
 20
11.1520457397
 30
0.0
 10
9.535756489
 20
11.1480325408
 30
0.0
 10
9.5259452652
 20
11.1439540636
 30
0.0
 10
9.5165352205
 20
11.1398127727
 30
0.0
 10
9.5075322946
 20
11.1356113997
 30
0.0
 10
9.4989421998
 20
11.1313525296
 30
0.0
 10
9.4907703418
 20
11.1270389105
 30
0.0
 10
9.4830218749
 20
11.1226732294
 30
0.0
 10
9.4757016721
 20
11.1182582167
 30
0.0
 10
9.4688143033
 20
11.1137966526
 30
0.0
 10
9.462364112
 20
11.1092912214
 30
0.0
 10
9.4563550692
 20
11.1047447538
 30
0.0
 10
9.4507910107
 20
11.1001598912
 30
0.0
 10
9.4456752842
 20
11.0955393834
 30
0.0
 10
9.4410114073
 20
11.0908860467
 30
0.0
 10
9.4381421071
 20
11.0876933348
 30
0.0
 10
9.4367891086
 20
11.0860923089
 30
0.0
  0
SPLINE
  5
388
100
AcDbEntity
  8
0
100
AcDbSpline
 62
7
  6
CONTINUOUS
 70
0
 71
3
 72
45
 73
41
 74
0
 42
0.0000001
 43
0.0000001
 44
0.0000000001
 40
0.0
 40
0.0
 40
0.0
 40
0.0
 40
0.0377469646
 40
0.075865303
 40
0.1142705434
 40
0.1528794535
 40
0.1916070085
 40
0.230368339
 40
0.2690783181
 40
0.3076520068
 40
0.346004843
 40
0.3840528946
 40
0.4217131008
 40
0.4589035153
 40
0.4955435529
 40
0.5315542392
 40
0.5668584656
 40
0.601381254
 40
0.6350500324
 40
0.6677949155
 40
0.6995490056
 40
0.7302487169
 40
0.7598341318
 40
0.7882494004
 40
0.8154432008
 40
0.8413692867
 40
0.8659871355
 40
0.8892627518
 40
0.9003891476
 40
0.9111707501
 40
0.921605701
 40
0.931692739
 40
0.9414313556
 40
0.9508218737
 40
0.9598654521
 40
0.9685643543
 40
0.9769218692
 40
0.9849426692
 40
0.9926328016
 40
1.0
 40
1.0
 40
1.0
 40
1.0
 10
10.3411644106
 20
11.2003497429
 30
0.0
 10
10.3298545768
 20
11.2011340825
 30
0.0
 10
10.3071127552
 20
11.2025575144
 30
0.0
 10
10.2728335049
 20
11.2042529727
 30
0.0
 10
10.2382765282
 20
11.20551668
 30
0.0
 10
10.2035233983
 20
11.2063456906
 30
0.0
 10
10.1686556441
 20
11.2067380142
 30
0.0
 10
10.1337553606
 20
11.2066927403
 30
0.0
 10
10.0989045999
 20
11.2062099667
 30
0.0
 10
10.0641853379
 20
11.2052908359
 30
0.0
 10
10.0296792285
 20
11.2039375206
 30
0.0
 10
9.9954674233
 20
11.2021532231
 30
0.0
 10
9.9616303774
 20
11.1999421638
 30
0.0
 10
9.9282476593
 20
11.1973095724
 30
0.0
 10
9.8953977636
 20
11.1942616763
 30
0.0
 10
9.8631579246
 20
11.1908056858
 30
0.0
 10
9.831603933
 20
11.1869497778
 30
0.0
 10
9.8008099529
 20
11.182703078
 30
0.0
 10
9.7708483426
 20
11.1780756438
 30
0.0
 10
9.7417894814
 20
11.1730784354
 30
0.0
 10
9.7137016004
 20
11.1677232921
 30
0.0
 10
9.6866506149
 20
11.1620229035
 30
0.0
 10
9.6606999634
 20
11.1559907795
 30
0.0
 10
9.6359104364
 20
11.1496412167
 30
0.0
 10
9.6123400524
 20
11.1429892592
 30
0.0
 10
9.5900437645
 20
11.1360506586
 30
0.0
 10
9.5690737659
 20
11.1288418279
 30
0.0
 10
9.5525043076
 20
11.1225322455
 30
0.0
 10
9.5399618156
 20
11.1173490876
 30
0.0
 10
9.5310582115
 20
11.1134632402
 30
0.0
 10
9.5225212363
 20
11.1095227765
 30
0.0
 10
9.5143558629
 20
11.1055299305
 30
0.0
 10
9.5065668531
 20
11.1014870363
 30
0.0
 10
9.4991587161
 20
11.0973964837
 30
0.0
 10
9.4921357815
 20
11.093260567
 30
0.0
 10
9.4855020699
 20
11.0890817576
 30
0.0
 10
9.4792614708
 20
11.0848623557
 30
0.0
 10
9.4734174996
 20
11.0806047954
 30
0.0
 10
9.4679736957
 20
11.0763115401
 30
0.0
 10
9.4645408581
 20
11.0733649067
 30
0.0
 10
9.4628956737
 20
11.0718852727
 30
0.0
  0
SPLINE
  5
389
100
AcDbEntity
  8
0
100
AcDbSpline
 62
7
  6
CONTINUOUS
 70
0
 71
3
 72
23
 73
19
 74
0
 42
0.0000001
 43
0.0000001
 44
0.0000000001
 40
0.0
 40
0.0
 40
0.0
 40
0.0
 40
0.0647602242
 40
0.1302724194
 40
0.1963111038
 40
0.262647298
 40
0.329051292
 40
0.3952928627
 40
0.4611425756
 40
0.5263727351
 40
0.5907584409
 40
0.6540786262
 40
0.7161171171
 40
0.7766637121
 40
0.8355152953
 40
0.8924769976
 40
0.9473634264
 40
1.0
 40
1.0
 40
1.0
 40
1.0
 10
10.3411644106
 20
11.0438511674
 30
0.0
 10
10.3269326929
 20
11.0448381404
 30
0.0
 10
10.2982866654
 20
11.0465812394
 30
0.0
 10
10.2550825443
 20
11.0485013507
 30
0.0
 10
10.2115060654
 20
11.0497378729
 30
0.0
 10
10.1677190855
 20
11.0502861456
 30
0.0
 10
10.123884206
 20
11.050144133
 30
0.0
 10
10.0801641632
 20
11.0493123586
 30
0.0
 10
10.0367212851
 20
11.0477939399
 30
0.0
 10
9.9937168557
 20
11.045594561
 30
0.0
 10
9.9513105204
 20
11.0427224587
 30
0.0
 10
9.9096596835
 20
11.039188391
 30
0.0
 10
9.8689189209
 20
11.0350056008
 30
0.0
 10
9.8292393838
 20
11.030189766
 30
0.0
 10
9.7907682695
 20
11.0247589521
 30
0.0
 10
9.7536480988
 20
11.0187335231
 30
0.0
 10
9.7180167328
 20
11.0121361554
 30
0.0
 10
9.6948337125
 20
11.0072662132
 30
0.0
 10
9.6835191364
 20
11.0047306354
 30
0.0
  0
SPLINE
  5
38A
100
AcDbEntity
  8
0
100
AcDbSpline
 62
7
  6
CONTINUOUS
 70
0
 71
3
 72
17
 73
13
 74
0
 42
0.0000001
 43
0.0000001
 44
0.0000000001
 40
0.0
 40
0.0
 40
0.0
 40
0.0
 40
0.124907288
 40
0.2516093755
 40
0.3792252637
 40
0.5068639027
 40
0.6336344306
 40
0.7586538743
 40
0.8202362424
 40
0.8810574045
 40
0.9410128287
 40
1.0
 40
1.0
 40
1.0
 40
1.0
 10
10.3291293349
 20
10.9873106227
 30
0.0
 10
10.3101850999
 20
10.9886244099
 30
0.0
 10
10.2719911964
 20
10.9908117401
 30
0.0
 10
10.214366428
 20
10.9927849835
 30
0.0
 10
10.1562964036
 20
10.9934664634
 30
0.0
 10
10.098215281
 20
10.9928510416
 30
0.0
 10
10.0405572556
 20
10.9909432848
 30
0.0
 10
9.9929850245
 20
10.9882756873
 30
0.0
 10
9.9554711771
 20
10.9854967172
 30
0.0
 10
9.9278490609
 20
10.9831116778
 30
0.0
 10
9.9006516399
 20
10.9804200425
 30
0.0
 10
9.8826804894
 20
10.9784070484
 30
0.0
 10
9.8737752969
 20
10.9773487378
 30
0.0
  0
SPLINE
  5
38B
100
AcDbEntity
  8
0
100
AcDbSpline
 62
4
  6
CONTINUOUS
 70
0
 71
3
 72
131
 73
127
 74
0
 42
0.0000001
 43
0.0000001
 44
0.0000000001
 40
0.0
 40
0.0
 40
0.0
 40
0.0
 40
0.03125
 40
0.0625
 40
0.078125
 40
0.09375
 40
0.109375
 40
0.125
 40
0.140625
 40
0.1484375
 40
0.15234375
 40
0.15625
 40
0.16015625
 40
0.1640625
 40
0.1650390625
 40
0.166015625
 40
0.1665039062
 40
0.1669921875
 40
0.16796875
 40
0.169921875
 40
0.171875
 40
0.17578125
 40
0.1796875
 40
0.1875
 40
0.1953125
 40
0.203125
 40
0.21875
 40
0.25
 40
0.28125
 40
0.296875
 40
0.3046875
 40
0.3125
 40
0.3203125
 40
0.32421875
 40
0.328125
 40
0.330078125
 40
0.33203125
 40
0.3330078125
 40
0.3334960938
 40
0.333984375
 40
0.3349609375
 40
0.3359375
 40
0.33984375
 40
0.34375
 40
0.34765625
 40
0.3515625
 40
0.359375
 40
0.375
 40
0.390625
 40
0.40625
 40
0.421875
 40
0.4375
 40
0.453125
 40
0.4609375
 40
0.46875
 40
0.4765625
 40
0.484375
 40
0.48828125
 40
0.4921875
 40
0.494140625
 40
0.49609375
 40
0.498046875
 40
0.4990234375
 40
0.5
 40
0.5009765625
 40
0.501953125
 40
0.50390625
 40
0.505859375
 40
0.5078125
 40
0.51171875
 40
0.515625
 40
0.5234375
 40
0.53125
 40
0.5390625
 40
0.546875
 40
0.5625
 40
0.578125
 40
0.59375
 40
0.609375
 40
0.625
 40
0.640625
 40
0.6484375
 40
0.65234375
 40
0.65625
 40
0.66015625
 40
0.6640625
 40
0.6650390625
 40
0.666015625
 40
0.6665039062
 40
0.6669921875
 40
0.66796875
 40
0.669921875
 40
0.671875
 40
0.67578125
 40
0.6796875
 40
0.6875
 40
0.6953125
 40
0.703125
 40
0.71875
 40
0.734375
 40
0.75
 40
0.78125
 40
0.796875
 40
0.8046875
 40
0.8125
 40
0.8203125
 40
0.82421875
 40
0.828125
 40
0.830078125
 40
0.83203125
 40
0.8330078125
 40
0.833984375
 40
0.8349609375
 40
0.8359375
 40
0.83984375
 40
0.84375
 40
0.84765625
 40
0.8515625
 40
0.859375
 40
0.875
 40
0.890625
 40
0.90625
 40
0.921875
 40
0.9375
 40
0.96875
 40
1.0
 40
1.0
 40
1.0
 40
1.0
 10
13.2548662091
 20
10.9769346504
 30
0.0
 10
13.2525987585
 20
10.9767978653
 30
0.0
 10
13.2480638575
 20
10.9765242952
 30
0.0
 10
13.2423952311
 20
10.9761823324
 30
0.0
 10
13.2378603301
 20
10.9759087625
 30
0.0
 10
13.2344591542
 20
10.9757035843
 30
0.0
 10
13.2310579785
 20
10.9754984087
 30
0.0
 10
13.2276568024
 20
10.9752932237
 30
0.0
 10
13.2248224903
 20
10.9751222653
 30
0.0
 10
13.2228384691
 20
10.9750025375
 30
0.0
 10
13.2217047471
 20
10.9749342104
 30
0.0
 10
13.2208544432
 20
10.974882715
 30
0.0
 10
13.2200041865
 20
10.9748321757
 30
0.0
 10
13.2193663617
 20
10.9747915903
 30
0.0
 10
13.2189413509
 20
10.9747687028
 30
0.0
 10
13.218763957
 20
10.974752962
 30
0.0
 10
13.2186227558
 20
10.9747548429
 30
0.0
 10
13.2184789439
 20
10.9747037928
 30
0.0
 10
13.21822606
 20
10.9745898621
 30
0.0
 10
13.2178654302
 20
10.9744399354
 30
0.0
 10
13.2172880688
 20
10.9741928819
 30
0.0
 10
13.2165664882
 20
10.9738865202
 30
0.0
 10
13.2154118916
 20
10.9733949693
 30
0.0
 10
13.213968669
 20
10.9727810015
 30
0.0
 10
13.2122367919
 20
10.9720440386
 30
0.0
 10
13.209927626
 20
10.9710614918
 30
0.0
 10
13.205886584
 20
10.9693420018
 30
0.0
 10
13.2001136678
 20
10.9668856064
 30
0.0
 10
13.1943407511
 20
10.9644291984
 30
0.0
 10
13.1902997098
 20
10.962709726
 30
0.0
 10
13.1879905428
 20
10.9617271516
 30
0.0
 10
13.1862586689
 20
10.960990273
 30
0.0
 10
13.1848154365
 20
10.9603760414
 30
0.0
 10
13.18366086
 20
10.9598850288
 30
0.0
 10
13.1829392281
 20
10.9595772971
 30
0.0
 10
13.1823619719
 20
10.9593330558
 30
0.0
 10
13.1820010744
 20
10.9591759694
 30
0.0
 10
13.1817486714
 20
10.9590748983
 30
0.0
 10
13.1816040886
 20
10.9590032351
 30
0.0
 10
13.1814581778
 20
10.9588791867
 30
0.0
 10
13.1812762431
 20
10.9587420317
 30
0.0
 10
13.1808392265
 20
10.9583981226
 30
0.0
 10
13.1801838584
 20
10.9578884487
 30
0.0
 10
13.1793099445
 20
10.9572053457
 30
0.0
 10
13.1784360547
 20
10.9565231891
 30
0.0
 10
13.1772708599
 20
10.9556133168
 30
0.0
 10
13.1752317728
 20
10.9540211941
 30
0.0
 10
13.1723187893
 20
10.9517466527
 30
0.0
 10
13.16882321
 20
10.9490172375
 30
0.0
 10
13.1653276304
 20
10.946287813
 30
0.0
 10
13.1618320509
 20
10.943558391
 30
0.0
 10
13.1583364714
 20
10.9408289685
 30
0.0
 10
13.1554234884
 20
10.9385544492
 30
0.0
 10
13.1530931021
 20
10.9367348354
 30
0.0
 10
13.1513453123
 20
10.9353701204
 30
0.0
 10
13.1495975226
 20
10.9340054233
 30
0.0
 10
13.1481410311
 20
10.9328681199
 30
0.0
 10
13.146975838
 20
10.9319584022
 30
0.0
 10
13.1462475921
 20
10.9313895439
 30
0.0
 10
13.1456649958
 20
10.9309351093
 30
0.0
 10
13.1452280474
 20
10.9305924982
 30
0.0
 10
13.1448639275
 20
10.9303126678
 30
0.0
 10
13.1445726232
 20
10.9300760669
 30
0.0
 10
13.1443541677
 20
10.9299334185
 30
0.0
 10
13.1441356256
 20
10.9296579294
 30
0.0
 10
13.1438442664
 20
10.9293370136
 30
0.0
 10
13.143480057
 20
10.9289199483
 30
0.0
 10
13.1430430102
 20
10.9284262843
 30
0.0
 10
13.1424602795
 20
10.9277656856
 30
0.0
 10
13.1417318667
 20
10.9269407522
 30
0.0
 10
13.1405664059
 20
10.9256204033
 30
0.0
 10
13.1391095801
 20
10.9239701234
 30
0.0
 10
13.137361389
 20
10.9219897205
 30
0.0
 10
13.1356131979
 20
10.9200093355
 30
0.0
 10
13.1332822765
 20
10.917368816
 30
0.0
 10
13.1303686247
 20
10.9140681687
 30
0.0
 10
13.1268722426
 20
10.9101073912
 30
0.0
 10
13.1233758605
 20
10.9061466132
 30
0.0
 10
13.1198794785
 20
10.9021858379
 30
0.0
 10
13.1163830958
 20
10.8982250523
 30
0.0
 10
13.1134694457
 20
10.8949244299
 30
0.0
 10
13.1114298864
 20
10.8926139309
 30
0.0
 10
13.1102644307
 20
10.8912937445
 30
0.0
 10
13.1093903197
 20
10.8903033268
 30
0.0
 10
13.108516282
 20
10.8893139714
 30
0.0
 10
13.1078605484
 20
10.8885689761
 30
0.0
 10
13.107423712
 20
10.8880769453
 30
0.0
 10
13.1072412217
 20
10.8878650387
 30
0.0
 10
13.1070963379
 20
10.8877115951
 30
0.0
 10
13.1069474003
 20
10.88749934
 30
0.0
 10
13.1066848762
 20
10.8871005684
 30
0.0
 10
13.1063108243
 20
10.8865451516
 30
0.0
 10
13.1057117921
 20
10.8856485173
 30
0.0
 10
13.10496319
 20
10.8845304525
 30
0.0
 10
13.1037653215
 20
10.8827400241
 30
0.0
 10
13.1022680219
 20
10.8805025117
 30
0.0
 10
13.1004712469
 20
10.8778172729
 30
0.0
 10
13.0980755524
 20
10.8742370327
 30
0.0
 10
13.0950809323
 20
10.8697617058
 30
0.0
 10
13.0914873891
 20
10.8643913245
 30
0.0
 10
13.0866959976
 20
10.8572308142
 30
0.0
 10
13.0819046077
 20
10.8500702934
 30
0.0
 10
13.0777121377
 20
10.8438048664
 30
0.0
 10
13.0753164463
 20
10.8402245785
 30
0.0
 10
13.0735196616
 20
10.8375394861
 30
0.0
 10
13.0720223927
 20
10.8353015156
 30
0.0
 10
13.0708244614
 20
10.8335120219
 30
0.0
 10
13.070076019
 20
10.8323915783
 30
0.0
 10
13.069476659
 20
10.8314998268
 30
0.0
 10
13.0691034417
 20
10.8309319786
 30
0.0
 10
13.068801701
 20
10.8305017578
 30
0.0
 10
13.0685840663
 20
10.8301132209
 30
0.0
 10
13.0683688613
 20
10.8297062256
 30
0.0
 10
13.0679372013
 20
10.8289017301
 30
0.0
 10
13.0672902364
 20
10.8276909989
 30
0.0
 10
13.0664273164
 20
10.8260789699
 30
0.0
 10
13.0655644767
 20
10.8244663312
 30
0.0
 10
13.0644139958
 20
10.822316359
 30
0.0
 10
13.0624006672
 20
10.8185538085
 30
0.0
 10
13.0595244766
 20
10.8131787881
 30
0.0
 10
13.0560730509
 20
10.8067287415
 30
0.0
 10
13.0526216244
 20
10.8002787008
 30
0.0
 10
13.0491701981
 20
10.7938286585
 30
0.0
 10
13.0445682963
 20
10.7852286027
 30
0.0
 10
13.038815919
 20
10.7744785328
 30
0.0
 10
13.0342140172
 20
10.7658784769
 30
0.0
 10
13.0319130663
 20
10.7615784489
 30
0.0
  0
SPLINE
  5
38C
100
AcDbEntity
  8
0
100
AcDbSpline
 62
4
  6
CONTINUOUS
 70
0
 71
3
 72
146
 73
142
 74
0
 42
0.0000001
 43
0.0000001
 44
0.0000000001
 40
0.0
 40
0.0
 40
0.0
 40
0.0
 40
0.03125
 40
0.0625
 40
0.078125
 40
0.09375
 40
0.109375
 40
0.125
 40
0.140625
 40
0.1484375
 40
0.15234375
 40
0.15625
 40
0.16015625
 40
0.1640625
 40
0.1650390625
 40
0.166015625
 40
0.1665039062
 40
0.1669921875
 40
0.16796875
 40
0.169921875
 40
0.171875
 40
0.17578125
 40
0.1796875
 40
0.1875
 40
0.1953125
 40
0.203125
 40
0.21875
 40
0.25
 40
0.265625
 40
0.28125
 40
0.296875
 40
0.3046875
 40
0.3125
 40
0.3203125
 40
0.32421875
 40
0.328125
 40
0.330078125
 40
0.33203125
 40
0.3330078125
 40
0.3334960938
 40
0.333984375
 40
0.3349609375
 40
0.3359375
 40
0.33984375
 40
0.34375
 40
0.34765625
 40
0.3515625
 40
0.359375
 40
0.375
 40
0.390625
 40
0.40625
 40
0.421875
 40
0.4375
 40
0.453125
 40
0.4609375
 40
0.46875
 40
0.4765625
 40
0.484375
 40
0.48828125
 40
0.4921875
 40
0.494140625
 40
0.49609375
 40
0.498046875
 40
0.4990234375
 40
0.4995117188
 40
0.5
 40
0.5004882812
 40
0.5009765625
 40
0.501953125
 40
0.50390625
 40
0.505859375
 40
0.5078125
 40
0.51171875
 40
0.515625
 40
0.5234375
 40
0.53125
 40
0.5390625
 40
0.546875
 40
0.5625
 40
0.578125
 40
0.59375
 40
0.609375
 40
0.625
 40
0.6328125
 40
0.640625
 40
0.6484375
 40
0.65234375
 40
0.65625
 40
0.66015625
 40
0.662109375
 40
0.6640625
 40
0.6650390625
 40
0.666015625
 40
0.6665039062
 40
0.6669921875
 40
0.6674804688
 40
0.66796875
 40
0.669921875
 40
0.671875
 40
0.673828125
 40
0.67578125
 40
0.6796875
 40
0.6875
 40
0.6953125
 40
0.703125
 40
0.7109375
 40
0.71875
 40
0.734375
 40
0.75
 40
0.765625
 40
0.78125
 40
0.7890625
 40
0.796875
 40
0.8046875
 40
0.8125
 40
0.8203125
 40
0.82421875
 40
0.826171875
 40
0.828125
 40
0.830078125
 40
0.83203125
 40
0.8325195312
 40
0.8330078125
 40
0.8334960938
 40
0.833984375
 40
0.8349609375
 40
0.8359375
 40
0.837890625
 40
0.83984375
 40
0.84375
 40
0.84765625
 40
0.8515625
 40
0.859375
 40
0.8671875
 40
0.875
 40
0.890625
 40
0.90625
 40
0.921875
 40
0.9375
 40
0.96875
 40
1.0
 40
1.0
 40
1.0
 40
1.0
 10
13.6285455328
 20
10.522479795
 30
0.0
 10
13.6283402205
 20
10.5294513371
 30
0.0
 10
13.6279295958
 20
10.5433944215
 30
0.0
 10
13.6274163148
 20
10.5608232768
 30
0.0
 10
13.6270056902
 20
10.5747663613
 30
0.0
 10
13.6266977214
 20
10.5852236741
 30
0.0
 10
13.6263897538
 20
10.595680989
 30
0.0
 10
13.6260817817
 20
10.606138296
 30
0.0
 10
13.6258251521
 20
10.614852743
 30
0.0
 10
13.6256454844
 20
10.620952808
 30
0.0
 10
13.6255428593
 20
10.6244386341
 30
0.0
 10
13.6254657718
 20
10.6270527933
 30
0.0
 10
13.625389138
 20
10.6296677569
 30
0.0
 10
13.6253303904
 20
10.6316267241
 30
0.0
 10
13.6252932039
 20
10.63293621
 30
0.0
 10
13.6252747653
 20
10.6334766095
 30
0.0
 10
13.6252668827
 20
10.6339211053
 30
0.0
 10
13.6252338824
 20
10.6343210719
 30
0.0
 10
13.6251644616
 20
10.6350003241
 30
0.0
 10
13.625071378
 20
10.6359814789
 30
0.0
 10
13.6249190414
 20
10.6375452941
 30
0.0
 10
13.6247297859
 20
10.6395021287
 30
0.0
 10
13.6244263257
 20
10.6426319096
 30
0.0
 10
13.624047224
 20
10.6465445318
 30
0.0
 10
13.6235922062
 20
10.6512395089
 30
0.0
 10
13.6229855493
 20
10.6574995376
 30
0.0
 10
13.6219238841
 20
10.6684545601
 30
0.0
 10
13.6207105589
 20
10.6809745974
 30
0.0
 10
13.6194972319
 20
10.6934946316
 30
0.0
 10
13.6185872357
 20
10.7028846549
 30
0.0
 10
13.6178289095
 20
10.7107096835
 30
0.0
 10
13.6172222396
 20
10.7169696855
 30
0.0
 10
13.6167672616
 20
10.7216647442
 30
0.0
 10
13.6163880353
 20
10.725577111
 30
0.0
 10
13.6160848293
 20
10.728707413
 30
0.0
 10
13.6158949271
 20
10.7306629213
 30
0.0
 10
13.6157439178
 20
10.732229459
 30
0.0
 10
13.6156474549
 20
10.7332036825
 30
0.0
 10
13.6155841036
 20
10.7338953842
 30
0.0
 10
13.6155413743
 20
10.734275395
 30
0.0
 10
13.6154740554
 20
10.7345979772
 30
0.0
 10
13.6153983115
 20
10.7350208342
 30
0.0
 10
13.6152096087
 20
10.7360195353
 30
0.0
 10
13.6149294598
 20
10.7375243726
 30
0.0
 10
13.6145542675
 20
10.7395269439
 30
0.0
 10
13.6141795193
 20
10.7415305527
 30
0.0
 10
13.6136797001
 20
10.7442016692
 30
0.0
 10
13.6128050888
 20
10.7488762916
 30
0.0
 10
13.6115556062
 20
10.7555542356
 30
0.0
 10
13.6100562434
 20
10.7635678061
 30
0.0
 10
13.6085568761
 20
10.7715813665
 30
0.0
 10
13.6070575101
 20
10.7795949296
 30
0.0
 10
13.6055581437
 20
10.7876084918
 30
0.0
 10
13.6043086719
 20
10.794286461
 30
0.0
 10
13.6033090942
 20
10.7996288353
 30
0.0
 10
13.6025594116
 20
10.8036356187
 30
0.0
 10
13.6018097265
 20
10.8076423919
 30
0.0
 10
13.6011849966
 20
10.8109814015
 30
0.0
 10
13.6006851956
 20
10.8136525375
 30
0.0
 10
13.6003728587
 20
10.815322161
 30
0.0
 10
13.6001229004
 20
10.8166574852
 30
0.0
 10
13.5999356749
 20
10.8176600039
 30
0.0
 10
13.5997788799
 20
10.8184921739
 30
0.0
 10
13.599670642
 20
10.8190810949
 30
0.0
 10
13.5996064205
 20
10.819407625
 30
0.0
 10
13.5995649342
 20
10.8196806822
 30
0.0
 10
13.5994979145
 20
10.8198460988
 30
0.0
 10
13.5994174612
 20
10.8201042006
 30
0.0
 10
13.5992725184
 20
10.8205383852
 30
0.0
 10
13.5990676267
 20
10.8211677947
 30
0.0
 10
13.598820828
 20
10.8219191714
 30
0.0
 10
13.5984920874
 20
10.8229223744
 30
0.0
 10
13.5980810507
 20
10.8241759099
 30
0.0
 10
13.597423454
 20
10.8261818284
 30
0.0
 10
13.5966014368
 20
10.8286891367
 30
0.0
 10
13.5956150253
 20
10.8316979452
 30
0.0
 10
13.5946286113
 20
10.8347067433
 30
0.0
 10
13.5933133936
 20
10.8387184778
 30
0.0
 10
13.5916693711
 20
10.8437331447
 30
0.0
 10
13.5896965442
 20
10.8497507455
 30
0.0
 10
13.5877237173
 20
10.8557683461
 30
0.0
 10
13.5857508905
 20
10.8617859471
 30
0.0
 10
13.5841068679
 20
10.8668006135
 30
0.0
 10
13.5827916503
 20
10.8708123489
 30
0.0
 10
13.581805236
 20
10.8738211443
 30
0.0
 10
13.5809832277
 20
10.8763284936
 30
0.0
 10
13.5803256127
 20
10.8783343285
 30
0.0
 10
13.5798324246
 20
10.8798388264
 30
0.0
 10
13.5794213608
 20
10.8810921873
 30
0.0
 10
13.579092675
 20
10.8820957448
 30
0.0
 10
13.5788868702
 20
10.88272099
 30
0.0
 10
13.5787230878
 20
10.8832257168
 30
0.0
 10
13.5786187582
 20
10.8835308335
 30
0.0
 10
13.5785397967
 20
10.8837986044
 30
0.0
 10
13.5784682485
 20
10.8839346026
 30
0.0
 10
13.578393246
 20
10.8840524342
 30
0.0
 10
13.578245018
 20
10.8842974423
 30
0.0
 10
13.5780219296
 20
10.8846610296
 30
0.0
 10
13.5777249049
 20
10.885148056
 30
0.0
 10
13.5774277662
 20
10.8856344823
 30
0.0
 10
13.577031621
 20
10.88628326
 30
0.0
 10
13.5763383484
 20
10.8874185234
 30
0.0
 10
13.5753479686
 20
10.8890403794
 30
0.0
 10
13.5741595088
 20
10.8909865846
 30
0.0
 10
13.57297105
 20
10.8929327958
 30
0.0
 10
13.571782591
 20
10.8948790053
 30
0.0
 10
13.570197979
 20
10.8974739519
 30
0.0
 10
13.5682172141
 20
10.900717635
 30
0.0
 10
13.5658402961
 20
10.9046100548
 30
0.0
 10
13.5634633781
 20
10.9085024746
 30
0.0
 10
13.5614826132
 20
10.9117461577
 30
0.0
 10
13.5598980012
 20
10.9143411041
 30
0.0
 10
13.5587095422
 20
10.9162873144
 30
0.0
 10
13.557521083
 20
10.9182335229
 30
0.0
 10
13.5563326248
 20
10.9201797378
 30
0.0
 10
13.5553422399
 20
10.9218015639
 30
0.0
 10
13.5546489765
 20
10.9229368806
 30
0.0
 10
13.5542528166
 20
10.9235855729
 30
0.0
 10
13.553955723
 20
10.9240722615
 30
0.0
 10
13.5536585288
 20
10.9245583027
 30
0.0
 10
13.5534359152
 20
10.9249246488
 30
0.0
 10
13.5532870675
 20
10.9251660565
 30
0.0
 10
13.5532134269
 20
10.9252918014
 30
0.0
 10
13.5531367413
 20
10.9253979467
 30
0.0
 10
13.5530200061
 20
10.9254462151
 30
0.0
 10
13.5528790476
 20
10.9255384821
 30
0.0
 10
13.5526507419
 20
10.9256682646
 30
0.0
 10
13.5523663089
 20
10.9258366027
 30
0.0
 10
13.5519106856
 20
10.9261025288
 30
0.0
 10
13.5513413386
 20
10.9264361081
 30
0.0
 10
13.5506580442
 20
10.9268359017
 30
0.0
 10
13.5497470122
 20
10.9273691351
 30
0.0
 10
13.5486082129
 20
10.9280356167
 30
0.0
 10
13.5472416577
 20
10.9288354203
 30
0.0
 10
13.5454195827
 20
10.9299018162
 30
0.0
 10
13.5431419895
 20
10.9312348141
 30
0.0
 10
13.5404088774
 20
10.9328344103
 30
0.0
 10
13.5376757654
 20
10.9344340068
 30
0.0
 10
13.534031616
 20
10.936566802
 30
0.0
 10
13.5294764293
 20
10.9392327961
 30
0.0
 10
13.52583228
 20
10.9413655914
 30
0.0
 10
13.5240102053
 20
10.942431989
 30
0.0
  0
SPLINE
  5
38D
100
AcDbEntity
  8
0
100
AcDbSpline
 62
4
  6
CONTINUOUS
 70
0
 71
3
 72
120
 73
116
 74
0
 42
0.0000001
 43
0.0000001
 44
0.0000000001
 40
0.0
 40
0.0
 40
0.0
 40
0.0
 40
0.03125
 40
0.0625
 40
0.078125
 40
0.09375
 40
0.109375
 40
0.125
 40
0.140625
 40
0.1484375
 40
0.15234375
 40
0.15625
 40
0.16015625
 40
0.162109375
 40
0.1640625
 40
0.1650390625
 40
0.166015625
 40
0.1665039062
 40
0.1669921875
 40
0.16796875
 40
0.169921875
 40
0.171875
 40
0.17578125
 40
0.1796875
 40
0.1875
 40
0.1953125
 40
0.203125
 40
0.21875
 40
0.234375
 40
0.25
 40
0.265625
 40
0.28125
 40
0.296875
 40
0.3046875
 40
0.3125
 40
0.3203125
 40
0.32421875
 40
0.328125
 40
0.330078125
 40
0.33203125
 40
0.3330078125
 40
0.3334960938
 40
0.333984375
 40
0.3349609375
 40
0.3359375
 40
0.33984375
 40
0.34375
 40
0.34765625
 40
0.3515625
 40
0.359375
 40
0.375
 40
0.390625
 40
0.40625
 40
0.421875
 40
0.4375
 40
0.453125
 40
0.46875
 40
0.4765625
 40
0.484375
 40
0.48828125
 40
0.4921875
 40
0.49609375
 40
0.498046875
 40
0.4990234375
 40
0.5
 40
0.5009765625
 40
0.501953125
 40
0.50390625
 40
0.5078125
 40
0.51171875
 40
0.515625
 40
0.5234375
 40
0.53125
 40
0.546875
 40
0.5625
 40
0.578125
 40
0.59375
 40
0.609375
 40
0.625
 40
0.640625
 40
0.6484375
 40
0.65625
 40
0.66015625
 40
0.6640625
 40
0.666015625
 40
0.6669921875
 40
0.66796875
 40
0.669921875
 40
0.671875
 40
0.6796875
 40
0.6875
 40
0.6953125
 40
0.703125
 40
0.71875
 40
0.75
 40
0.78125
 40
0.796875
 40
0.8046875
 40
0.8125
 40
0.8203125
 40
0.828125
 40
0.830078125
 40
0.83203125
 40
0.8330078125
 40
0.833984375
 40
0.8359375
 40
0.83984375
 40
0.84375
 40
0.8515625
 40
0.859375
 40
0.875
 40
0.890625
 40
0.90625
 40
0.9375
 40
1.0
 40
1.0
 40
1.0
 40
1.0
 10
13.5240102089
 20
8.6931734966
 30
0.0
 10
13.5257960128
 20
8.6976508209
 30
0.0
 10
13.5293676207
 20
8.7066054695
 30
0.0
 10
13.5338321305
 20
8.7177987801
 30
0.0
 10
13.5374037384
 20
8.7267534287
 30
0.0
 10
13.5400824443
 20
8.7334694149
 30
0.0
 10
13.5427611501
 20
8.7401854021
 30
0.0
 10
13.5454398565
 20
8.7469013855
 30
0.0
 10
13.5476721099
 20
8.7524980502
 30
0.0
 10
13.5492346912
 20
8.7564156923
 30
0.0
 10
13.5501275886
 20
8.7586543811
 30
0.0
 10
13.550797279
 20
8.7603332958
 30
0.0
 10
13.5513552992
 20
8.7617327159
 30
0.0
 10
13.5518018389
 20
8.7628515242
 30
0.0
 10
13.5520806451
 20
8.7635524364
 30
0.0
 10
13.5523043337
 20
8.7641093714
 30
0.0
 10
13.5524426706
 20
8.7644661142
 30
0.0
 10
13.5525567035
 20
8.7647316768
 30
0.0
 10
13.5526584578
 20
8.7650696393
 30
0.0
 10
13.5528308237
 20
8.7656947064
 30
0.0
 10
13.5530800367
 20
8.7665701115
 30
0.0
 10
13.5534771145
 20
8.7679805662
 30
0.0
 10
13.5539740311
 20
8.7697402769
 30
0.0
 10
13.5547687795
 20
8.7725576906
 30
0.0
 10
13.5557623242
 20
8.7760788139
 30
0.0
 10
13.556954531
 20
8.7803044374
 30
0.0
 10
13.5585441565
 20
8.7859385059
 30
0.0
 10
13.5605311827
 20
8.7929811245
 30
0.0
 10
13.5629156166
 20
8.8014322526
 30
0.0
 10
13.5653000498
 20
8.8098833847
 30
0.0
 10
13.5676844833
 20
8.8183345149
 30
0.0
 10
13.5700689161
 20
8.8267856488
 30
0.0
 10
13.5720559459
 20
8.8338282499
 30
0.0
 10
13.573645564
 20
8.8394623539
 30
0.0
 10
13.5748377932
 20
8.8436878686
 30
0.0
 10
13.5758312681
 20
8.8472093325
 30
0.0
 10
13.5766261588
 20
8.8500260514
 30
0.0
 10
13.5771227131
 20
8.8517875303
 30
0.0
 10
13.5775205346
 20
8.8531943554
 30
0.0
 10
13.5777678541
 20
8.8540790014
 30
0.0
 10
13.5779436211
 20
8.8546874708
 30
0.0
 10
13.5780399237
 20
8.8550520383
 30
0.0
 10
13.5781206493
 20
8.8554801489
 30
0.0
 10
13.5782268805
 20
8.8559935679
 30
0.0
 10
13.5784774535
 20
8.8572436493
 30
0.0
 10
13.5788551534
 20
8.8591112634
 30
0.0
 10
13.5793577013
 20
8.8616057069
 30
0.0
 10
13.5798605307
 20
8.8640990024
 30
0.0
 10
13.5805308716
 20
8.8674237969
 30
0.0
 10
13.581704014
 20
8.8732420006
 30
0.0
 10
13.5833799079
 20
8.8815538178
 30
0.0
 10
13.5853909907
 20
8.8915279567
 30
0.0
 10
13.5874020709
 20
8.9015021066
 30
0.0
 10
13.5894131514
 20
8.911476254
 30
0.0
 10
13.5914242332
 20
8.9214504002
 30
0.0
 10
13.5934353096
 20
8.9314245539
 30
0.0
 10
13.5951112235
 20
8.9397363246
 30
0.0
 10
13.5964519166
 20
8.9463857952
 30
0.0
 10
13.5972899365
 20
8.9505415911
 30
0.0
 10
13.5979601539
 20
8.9538665101
 30
0.0
 10
13.5984633604
 20
8.9563594266
 30
0.0
 10
13.5988809705
 20
8.958439315
 30
0.0
 10
13.5991766899
 20
8.9598904132
 30
0.0
 10
13.5993403755
 20
8.960727144
 30
0.0
 10
13.5994780613
 20
8.9613334746
 30
0.0
 10
13.5995587092
 20
8.9620209095
 30
0.0
 10
13.5996861352
 20
8.9629091993
 30
0.0
 10
13.5998998611
 20
8.9644768872
 30
0.0
 10
13.6002100301
 20
8.9667095503
 30
0.0
 10
13.6005801585
 20
8.9693916956
 30
0.0
 10
13.6010743876
 20
8.9729668591
 30
0.0
 10
13.6016919258
 20
8.9774361663
 30
0.0
 10
13.6026801257
 20
8.9845868605
 30
0.0
 10
13.6039153279
 20
8.9935252961
 30
0.0
 10
13.6053975912
 20
9.0042513896
 30
0.0
 10
13.6068798481
 20
9.0149774915
 30
0.0
 10
13.6083621099
 20
9.0257035888
 30
0.0
 10
13.6098443585
 20
9.0364296961
 30
0.0
 10
13.611326655
 20
9.0471557677
 30
0.0
 10
13.6125617535
 20
9.0560942717
 30
0.0
 10
13.6135501648
 20
9.0632448264
 30
0.0
 10
13.614167165
 20
9.0677144888
 30
0.0
 10
13.6146624985
 20
9.0712889231
 30
0.0
 10
13.6149681271
 20
9.0735259008
 30
0.0
 10
13.6151899931
 20
9.0750858604
 30
0.0
 10
13.6153043726
 20
9.0759865358
 30
0.0
 10
13.6153720436
 20
9.0769221266
 30
0.0
 10
13.6154725974
 20
9.0780796809
 30
0.0
 10
13.6157007865
 20
9.0808676335
 30
0.0
 10
13.6160485892
 20
9.0850454369
 30
0.0
 10
13.6165091717
 20
9.0906181995
 30
0.0
 10
13.616970598
 20
9.0961903313
 30
0.0
 10
13.6175855387
 20
9.1036200603
 30
0.0
 10
13.618661823
 20
9.1166219835
 30
0.0
 10
13.6201992925
 20
9.135196215
 30
0.0
 10
13.6217368165
 20
9.15377042
 30
0.0
 10
13.6228130244
 20
9.1667723803
 30
0.0
 10
13.6234280851
 20
9.174202051
 30
0.0
 10
13.6238891433
 20
9.1797743619
 30
0.0
 10
13.624351108
 20
9.1853464518
 30
0.0
 10
13.6246950402
 20
9.1895261388
 30
0.0
 10
13.6249282806
 20
9.1923116332
 30
0.0
 10
13.6250195829
 20
9.1934736898
 30
0.0
 10
13.6251063444
 20
9.19439999
 30
0.0
 10
13.6251429322
 20
9.1953385235
 30
0.0
 10
13.6251836489
 20
9.1969866408
 30
0.0
 10
13.6252539786
 20
9.1993381287
 30
0.0
 10
13.6253597089
 20
9.2031021665
 30
0.0
 10
13.6254941992
 20
9.2078066463
 30
0.0
 10
13.6257080828
 20
9.2153341312
 30
0.0
 10
13.6259758836
 20
9.2247433785
 30
0.0
 10
13.6262970536
 20
9.2360345218
 30
0.0
 10
13.6267253468
 20
9.2510893634
 30
0.0
 10
13.6274748288
 20
9.2774353436
 30
0.0
 10
13.6281172527
 20
9.3000176098
 30
0.0
 10
13.6285455328
 20
9.3150724546
 30
0.0
  0
SPLINE
  5
38E
100
AcDbEntity
  8
0
100
AcDbSpline
 62
4
  6
CONTINUOUS
 70
0
 71
3
 72
131
 73
127
 74
0
 42
0.0000001
 43
0.0000001
 44
0.0000000001
 40
0.0
 40
0.0
 40
0.0
 40
0.0
 40
0.03125
 40
0.0625
 40
0.078125
 40
0.09375
 40
0.109375
 40
0.125
 40
0.140625
 40
0.1484375
 40
0.15234375
 40
0.15625
 40
0.16015625
 40
0.1640625
 40
0.1650390625
 40
0.166015625
 40
0.1665039062
 40
0.1669921875
 40
0.16796875
 40
0.169921875
 40
0.171875
 40
0.17578125
 40
0.1796875
 40
0.1875
 40
0.1953125
 40
0.203125
 40
0.21875
 40
0.25
 40
0.28125
 40
0.296875
 40
0.3046875
 40
0.3125
 40
0.3203125
 40
0.32421875
 40
0.328125
 40
0.330078125
 40
0.33203125
 40
0.3330078125
 40
0.3334960938
 40
0.333984375
 40
0.3349609375
 40
0.3359375
 40
0.33984375
 40
0.34375
 40
0.34765625
 40
0.3515625
 40
0.359375
 40
0.375
 40
0.390625
 40
0.40625
 40
0.421875
 40
0.4375
 40
0.453125
 40
0.4609375
 40
0.46875
 40
0.4765625
 40
0.484375
 40
0.48828125
 40
0.4921875
 40
0.494140625
 40
0.49609375
 40
0.498046875
 40
0.4990234375
 40
0.5
 40
0.5009765625
 40
0.501953125
 40
0.50390625
 40
0.505859375
 40
0.5078125
 40
0.51171875
 40
0.515625
 40
0.5234375
 40
0.53125
 40
0.5390625
 40
0.546875
 40
0.5625
 40
0.578125
 40
0.59375
 40
0.609375
 40
0.625
 40
0.640625
 40
0.6484375
 40
0.65234375
 40
0.65625
 40
0.66015625
 40
0.6640625
 40
0.6650390625
 40
0.666015625
 40
0.6665039062
 40
0.6669921875
 40
0.66796875
 40
0.669921875
 40
0.671875
 40
0.67578125
 40
0.6796875
 40
0.6875
 40
0.6953125
 40
0.703125
 40
0.71875
 40
0.734375
 40
0.75
 40
0.78125
 40
0.796875
 40
0.8046875
 40
0.8125
 40
0.8203125
 40
0.82421875
 40
0.828125
 40
0.830078125
 40
0.83203125
 40
0.8330078125
 40
0.833984375
 40
0.8349609375
 40
0.8359375
 40
0.83984375
 40
0.84375
 40
0.84765625
 40
0.8515625
 40
0.859375
 40
0.875
 40
0.890625
 40
0.90625
 40
0.921875
 40
0.9375
 40
0.96875
 40
1.0
 40
1.0
 40
1.0
 40
1.0
 10
13.0319130573
 20
7.9233683031
 30
0.0
 10
13.0341805078
 20
7.9235050882
 30
0.0
 10
13.0387154089
 20
7.9237786583
 30
0.0
 10
13.0443840352
 20
7.924120621
 30
0.0
 10
13.0489189363
 20
7.924394191
 30
0.0
 10
13.0523201121
 20
7.9245993691
 30
0.0
 10
13.0557212878
 20
7.9248045448
 30
0.0
 10
13.059122464
 20
7.9250097297
 30
0.0
 10
13.061956776
 20
7.9251806882
 30
0.0
 10
13.0639407972
 20
7.925300416
 30
0.0
 10
13.0650745193
 20
7.925368743
 30
0.0
 10
13.0659248231
 20
7.9254202385
 30
0.0
 10
13.0667750799
 20
7.9254707778
 30
0.0
 10
13.0674129046
 20
7.9255113632
 30
0.0
 10
13.0678379155
 20
7.9255342507
 30
0.0
 10
13.0680153093
 20
7.9255499915
 30
0.0
 10
13.0681565106
 20
7.9255481106
 30
0.0
 10
13.0683003225
 20
7.9255991607
 30
0.0
 10
13.0685532064
 20
7.9257130913
 30
0.0
 10
13.0689138362
 20
7.9258630181
 30
0.0
 10
13.0694911975
 20
7.9261100716
 30
0.0
 10
13.0702127781
 20
7.9264164333
 30
0.0
 10
13.0713673748
 20
7.9269079842
 30
0.0
 10
13.0728105974
 20
7.927521952
 30
0.0
 10
13.0745424744
 20
7.9282589149
 30
0.0
 10
13.0768516403
 20
7.9292414617
 30
0.0
 10
13.0808926823
 20
7.9309609517
 30
0.0
 10
13.0866655986
 20
7.9334173471
 30
0.0
 10
13.0924385153
 20
7.935873755
 30
0.0
 10
13.0964795566
 20
7.9375932275
 30
0.0
 10
13.0987887235
 20
7.9385758019
 30
0.0
 10
13.1005205974
 20
7.9393126804
 30
0.0
 10
13.1019638299
 20
7.9399269121
 30
0.0
 10
13.1031184064
 20
7.9404179247
 30
0.0
 10
13.1038400382
 20
7.9407256563
 30
0.0
 10
13.1044172944
 20
7.9409698977
 30
0.0
 10
13.104778192
 20
7.9411269841
 30
0.0
 10
13.1050305949
 20
7.9412280552
 30
0.0
 10
13.1051751778
 20
7.9412997184
 30
0.0
 10
13.1053210886
 20
7.9414237668
 30
0.0
 10
13.1055030232
 20
7.9415609218
 30
0.0
 10
13.1059400399
 20
7.9419048309
 30
0.0
 10
13.106595408
 20
7.9424145048
 30
0.0
 10
13.1074693218
 20
7.9430976078
 30
0.0
 10
13.1083432117
 20
7.9437797644
 30
0.0
 10
13.1095084065
 20
7.9446896367
 30
0.0
 10
13.1115474935
 20
7.9462817594
 30
0.0
 10
13.114460477
 20
7.9485563008
 30
0.0
 10
13.1179560564
 20
7.951285716
 30
0.0
 10
13.1214516359
 20
7.9540151405
 30
0.0
 10
13.1249472155
 20
7.9567445625
 30
0.0
 10
13.128442795
 20
7.959473985
 30
0.0
 10
13.1313557779
 20
7.9617485043
 30
0.0
 10
13.1336861643
 20
7.9635681181
 30
0.0
 10
13.135433954
 20
7.9649328331
 30
0.0
 10
13.1371817438
 20
7.9662975302
 30
0.0
 10
13.1386382353
 20
7.9674348336
 30
0.0
 10
13.1398034284
 20
7.9683445513
 30
0.0
 10
13.1405316743
 20
7.9689134095
 30
0.0
 10
13.1411142706
 20
7.9693678441
 30
0.0
 10
13.1415512189
 20
7.9697104552
 30
0.0
 10
13.1419153389
 20
7.9699902857
 30
0.0
 10
13.1422066431
 20
7.9702268866
 30
0.0
 10
13.1424250987
 20
7.970369535
 30
0.0
 10
13.1426436407
 20
7.9706450241
 30
0.0
 10
13.142935
 20
7.9709659399
 30
0.0
 10
13.1432992094
 20
7.9713830052
 30
0.0
 10
13.1437362562
 20
7.9718766691
 30
0.0
 10
13.1443189869
 20
7.9725372678
 30
0.0
 10
13.1450473996
 20
7.9733622013
 30
0.0
 10
13.1462128604
 20
7.9746825502
 30
0.0
 10
13.1476696863
 20
7.9763328301
 30
0.0
 10
13.1494178774
 20
7.978313233
 30
0.0
 10
13.1511660684
 20
7.980293618
 30
0.0
 10
13.1534969898
 20
7.9829341375
 30
0.0
 10
13.1564106416
 20
7.9862347848
 30
0.0
 10
13.1599070237
 20
7.9901955623
 30
0.0
 10
13.1634034059
 20
7.9941563403
 30
0.0
 10
13.1668997879
 20
7.9981171156
 30
0.0
 10
13.1703961706
 20
8.0020779012
 30
0.0
 10
13.1733098206
 20
8.0053785236
 30
0.0
 10
13.17534938
 20
8.0076890225
 30
0.0
 10
13.1765148357
 20
8.009009209
 30
0.0
 10
13.1773889466
 20
8.0099996267
 30
0.0
 10
13.1782629843
 20
8.010988982
 30
0.0
 10
13.1789187179
 20
8.0117339774
 30
0.0
 10
13.1793555543
 20
8.0122260082
 30
0.0
 10
13.1795380447
 20
8.0124379148
 30
0.0
 10
13.1796829285
 20
8.0125913584
 30
0.0
 10
13.179831866
 20
8.0128036135
 30
0.0
 10
13.1800943902
 20
8.0132023851
 30
0.0
 10
13.1804684421
 20
8.0137578019
 30
0.0
 10
13.1810674742
 20
8.0146544362
 30
0.0
 10
13.1818160764
 20
8.015772501
 30
0.0
 10
13.1830139449
 20
8.0175629294
 30
0.0
 10
13.1845112445
 20
8.0198004418
 30
0.0
 10
13.1863080194
 20
8.0224856806
 30
0.0
 10
13.188703714
 20
8.0260659207
 30
0.0
 10
13.1916983341
 20
8.0305412477
 30
0.0
 10
13.1952918773
 20
8.035911629
 30
0.0
 10
13.2000832688
 20
8.0430721393
 30
0.0
 10
13.2048746587
 20
8.0502326601
 30
0.0
 10
13.2090671287
 20
8.0564980871
 30
0.0
 10
13.21146282
 20
8.060078375
 30
0.0
 10
13.2132596048
 20
8.0627634674
 30
0.0
 10
13.2147568737
 20
8.0650014379
 30
0.0
 10
13.2159548049
 20
8.0667909316
 30
0.0
 10
13.2167032474
 20
8.0679113752
 30
0.0
 10
13.2173026073
 20
8.0688031267
 30
0.0
 10
13.2176758247
 20
8.0693709749
 30
0.0
 10
13.2179775653
 20
8.0698011957
 30
0.0
 10
13.2181952001
 20
8.0701897326
 30
0.0
 10
13.2184104051
 20
8.0705967279
 30
0.0
 10
13.218842065
 20
8.0714012234
 30
0.0
 10
13.21948903
 20
8.0726119546
 30
0.0
 10
13.22035195
 20
8.0742239836
 30
0.0
 10
13.2212147897
 20
8.0758366223
 30
0.0
 10
13.2223652706
 20
8.0779865945
 30
0.0
 10
13.2243785992
 20
8.081749145
 30
0.0
 10
13.2272547898
 20
8.0871241654
 30
0.0
 10
13.2307062155
 20
8.093574212
 30
0.0
 10
13.234157642
 20
8.1000242527
 30
0.0
 10
13.2376090683
 20
8.106474295
 30
0.0
 10
13.2422109701
 20
8.1150743508
 30
0.0
 10
13.2479633473
 20
8.1258244207
 30
0.0
 10
13.2525652491
 20
8.1344244766
 30
0.0
 10
13.2548662
 20
8.1387245046
 30
0.0
  0
SPLINE
  5
38F
100
AcDbEntity
  8
0
100
AcDbSpline
 62
4
  6
CONTINUOUS
 70
0
 71
3
 72
146
 73
142
 74
0
 42
0.0000001
 43
0.0000001
 44
0.0000000001
 40
0.0
 40
0.0
 40
0.0
 40
0.0
 40
0.03125
 40
0.0625
 40
0.078125
 40
0.09375
 40
0.109375
 40
0.125
 40
0.140625
 40
0.1484375
 40
0.15234375
 40
0.15625
 40
0.16015625
 40
0.1640625
 40
0.1650390625
 40
0.166015625
 40
0.1665039062
 40
0.1669921875
 40
0.16796875
 40
0.169921875
 40
0.171875
 40
0.17578125
 40
0.1796875
 40
0.1875
 40
0.1953125
 40
0.203125
 40
0.21875
 40
0.25
 40
0.265625
 40
0.28125
 40
0.296875
 40
0.3046875
 40
0.3125
 40
0.3203125
 40
0.32421875
 40
0.328125
 40
0.330078125
 40
0.33203125
 40
0.3330078125
 40
0.3334960938
 40
0.333984375
 40
0.3349609375
 40
0.3359375
 40
0.33984375
 40
0.34375
 40
0.34765625
 40
0.3515625
 40
0.359375
 40
0.375
 40
0.390625
 40
0.40625
 40
0.421875
 40
0.4375
 40
0.453125
 40
0.4609375
 40
0.46875
 40
0.4765625
 40
0.484375
 40
0.48828125
 40
0.4921875
 40
0.494140625
 40
0.49609375
 40
0.498046875
 40
0.4990234375
 40
0.4995117188
 40
0.5
 40
0.5004882812
 40
0.5009765625
 40
0.501953125
 40
0.50390625
 40
0.505859375
 40
0.5078125
 40
0.51171875
 40
0.515625
 40
0.5234375
 40
0.53125
 40
0.5390625
 40
0.546875
 40
0.5625
 40
0.578125
 40
0.59375
 40
0.609375
 40
0.625
 40
0.6328125
 40
0.640625
 40
0.6484375
 40
0.65234375
 40
0.65625
 40
0.66015625
 40
0.662109375
 40
0.6640625
 40
0.6650390625
 40
0.666015625
 40
0.6665039062
 40
0.6669921875
 40
0.6674804688
 40
0.66796875
 40
0.669921875
 40
0.671875
 40
0.673828125
 40
0.67578125
 40
0.6796875
 40
0.6875
 40
0.6953125
 40
0.703125
 40
0.7109375
 40
0.71875
 40
0.734375
 40
0.75
 40
0.765625
 40
0.78125
 40
0.7890625
 40
0.796875
 40
0.8046875
 40
0.8125
 40
0.8203125
 40
0.82421875
 40
0.826171875
 40
0.828125
 40
0.830078125
 40
0.83203125
 40
0.8325195312
 40
0.8330078125
 40
0.8334960938
 40
0.833984375
 40
0.8349609375
 40
0.8359375
 40
0.837890625
 40
0.83984375
 40
0.84375
 40
0.84765625
 40
0.8515625
 40
0.859375
 40
0.8671875
 40
0.875
 40
0.890625
 40
0.90625
 40
0.921875
 40
0.9375
 40
0.96875
 40
1.0
 40
1.0
 40
1.0
 40
1.0
 10
12.6582337335
 20
8.3778231585
 30
0.0
 10
12.6584390459
 20
8.3708516164
 30
0.0
 10
12.6588496706
 20
8.356908532
 30
0.0
 10
12.6593629516
 20
8.3394796767
 30
0.0
 10
12.6597735762
 20
8.3255365922
 30
0.0
 10
12.660081545
 20
8.3150792794
 30
0.0
 10
12.6603895126
 20
8.3046219645
 30
0.0
 10
12.6606974846
 20
8.2941646575
 30
0.0
 10
12.6609541142
 20
8.2854502105
 30
0.0
 10
12.6611337819
 20
8.2793501455
 30
0.0
 10
12.6612364071
 20
8.2758643193
 30
0.0
 10
12.6613134946
 20
8.2732501602
 30
0.0
 10
12.6613901284
 20
8.2706351966
 30
0.0
 10
12.661448876
 20
8.2686762293
 30
0.0
 10
12.6614860624
 20
8.2673667435
 30
0.0
 10
12.661504501
 20
8.266826344
 30
0.0
 10
12.6615123836
 20
8.2663818481
 30
0.0
 10
12.6615453839
 20
8.2659818816
 30
0.0
 10
12.6616148047
 20
8.2653026294
 30
0.0
 10
12.6617078883
 20
8.2643214746
 30
0.0
 10
12.6618602249
 20
8.2627576593
 30
0.0
 10
12.6620494805
 20
8.2608008248
 30
0.0
 10
12.6623529406
 20
8.2576710439
 30
0.0
 10
12.6627320424
 20
8.2537584217
 30
0.0
 10
12.6631870601
 20
8.2490634445
 30
0.0
 10
12.6637937171
 20
8.2428034159
 30
0.0
 10
12.6648553823
 20
8.2318483934
 30
0.0
 10
12.6660687074
 20
8.2193283561
 30
0.0
 10
12.6672820344
 20
8.2068083219
 30
0.0
 10
12.6681920306
 20
8.1974182986
 30
0.0
 10
12.6689503569
 20
8.18959327
 30
0.0
 10
12.6695570268
 20
8.183333268
 30
0.0
 10
12.6700120047
 20
8.1786382093
 30
0.0
 10
12.670391231
 20
8.1747258425
 30
0.0
 10
12.6706944371
 20
8.1715955405
 30
0.0
 10
12.6708843393
 20
8.1696400322
 30
0.0
 10
12.6710353486
 20
8.1680734945
 30
0.0
 10
12.6711318114
 20
8.167099271
 30
0.0
 10
12.6711951627
 20
8.1664075693
 30
0.0
 10
12.671237892
 20
8.1660275585
 30
0.0
 10
12.671305211
 20
8.1657049763
 30
0.0
 10
12.6713809549
 20
8.1652821193
 30
0.0
 10
12.6715696577
 20
8.1642834182
 30
0.0
 10
12.6718498065
 20
8.1627785809
 30
0.0
 10
12.6722249989
 20
8.1607760096
 30
0.0
 10
12.6725997471
 20
8.1587724008
 30
0.0
 10
12.6730995662
 20
8.1561012843
 30
0.0
 10
12.6739741776
 20
8.1514266618
 30
0.0
 10
12.6752236601
 20
8.1447487179
 30
0.0
 10
12.676723023
 20
8.1367351474
 30
0.0
 10
12.6782223902
 20
8.128721587
 30
0.0
 10
12.6797217563
 20
8.1207080239
 30
0.0
 10
12.6812211226
 20
8.1126944616
 30
0.0
 10
12.6824705944
 20
8.1060164925
 30
0.0
 10
12.6834701721
 20
8.1006741182
 30
0.0
 10
12.6842198548
 20
8.0966673347
 30
0.0
 10
12.6849695398
 20
8.0926605616
 30
0.0
 10
12.6855942698
 20
8.0893215519
 30
0.0
 10
12.6860940708
 20
8.086650416
 30
0.0
 10
12.6864064076
 20
8.0849807925
 30
0.0
 10
12.6866563659
 20
8.0836454683
 30
0.0
 10
12.6868435914
 20
8.0826429496
 30
0.0
 10
12.6870003865
 20
8.0818107796
 30
0.0
 10
12.6871086244
 20
8.0812218586
 30
0.0
 10
12.6871728459
 20
8.0808953285
 30
0.0
 10
12.6872143322
 20
8.0806222713
 30
0.0
 10
12.6872813519
 20
8.0804568547
 30
0.0
 10
12.6873618052
 20
8.0801987529
 30
0.0
 10
12.687506748
 20
8.0797645683
 30
0.0
 10
12.6877116397
 20
8.0791351588
 30
0.0
 10
12.6879584384
 20
8.0783837821
 30
0.0
 10
12.6882871789
 20
8.0773805791
 30
0.0
 10
12.6886982157
 20
8.0761270436
 30
0.0
 10
12.6893558124
 20
8.0741211251
 30
0.0
 10
12.6901778296
 20
8.0716138168
 30
0.0
 10
12.6911642411
 20
8.0686050083
 30
0.0
 10
12.6921506551
 20
8.0655962101
 30
0.0
 10
12.6934658728
 20
8.0615844756
 30
0.0
 10
12.6951098953
 20
8.0565698088
 30
0.0
 10
12.6970827221
 20
8.0505522079
 30
0.0
 10
12.699055549
 20
8.0445346074
 30
0.0
 10
12.7010283759
 20
8.0385170064
 30
0.0
 10
12.7026723984
 20
8.03350234
 30
0.0
 10
12.703987616
 20
8.0294906045
 30
0.0
 10
12.7049740304
 20
8.0264818092
 30
0.0
 10
12.7057960386
 20
8.0239744599
 30
0.0
 10
12.7064536537
 20
8.021968625
 30
0.0
 10
12.7069468418
 20
8.0204641271
 30
0.0
 10
12.7073579056
 20
8.0192107662
 30
0.0
 10
12.7076865914
 20
8.0182072086
 30
0.0
 10
12.7078923962
 20
8.0175819635
 30
0.0
 10
12.7080561785
 20
8.0170772367
 30
0.0
 10
12.7081605081
 20
8.01677212
 30
0.0
 10
12.7082394697
 20
8.0165043491
 30
0.0
 10
12.7083110179
 20
8.0163683509
 30
0.0
 10
12.7083860203
 20
8.0162505193
 30
0.0
 10
12.7085342484
 20
8.0160055111
 30
0.0
 10
12.7087573368
 20
8.0156419239
 30
0.0
 10
12.7090543614
 20
8.0151548975
 30
0.0
 10
12.7093515002
 20
8.0146684712
 30
0.0
 10
12.7097476453
 20
8.0140196935
 30
0.0
 10
12.710440918
 20
8.01288443
 30
0.0
 10
12.7114312977
 20
8.0112625741
 30
0.0
 10
12.7126197576
 20
8.0093163688
 30
0.0
 10
12.7138082163
 20
8.0073701577
 30
0.0
 10
12.7149966754
 20
8.0054239482
 30
0.0
 10
12.7165812873
 20
8.0028290015
 30
0.0
 10
12.7185620523
 20
7.9995853185
 30
0.0
 10
12.7209389703
 20
7.9956928987
 30
0.0
 10
12.7233158882
 20
7.9918004789
 30
0.0
 10
12.7252966532
 20
7.9885567957
 30
0.0
 10
12.7268812652
 20
7.9859618493
 30
0.0
 10
12.7280697241
 20
7.9840156391
 30
0.0
 10
12.7292581833
 20
7.9820694305
 30
0.0
 10
12.7304466415
 20
7.9801232157
 30
0.0
 10
12.7314370264
 20
7.9785013896
 30
0.0
 10
12.7321302899
 20
7.9773660729
 30
0.0
 10
12.7325264498
 20
7.9767173805
 30
0.0
 10
12.7328235434
 20
7.9762306919
 30
0.0
 10
12.7331207375
 20
7.9757446508
 30
0.0
 10
12.7333433512
 20
7.9753783046
 30
0.0
 10
12.7334921988
 20
7.975136897
 30
0.0
 10
12.7335658395
 20
7.9750111521
 30
0.0
 10
12.733642525
 20
7.9749050068
 30
0.0
 10
12.7337592603
 20
7.9748567384
 30
0.0
 10
12.7339002187
 20
7.9747644714
 30
0.0
 10
12.7341285245
 20
7.9746346889
 30
0.0
 10
12.7344129575
 20
7.9744663508
 30
0.0
 10
12.7348685807
 20
7.9742004247
 30
0.0
 10
12.7354379278
 20
7.9738668454
 30
0.0
 10
12.7361212222
 20
7.9734670517
 30
0.0
 10
12.7370322542
 20
7.9729338184
 30
0.0
 10
12.7381710535
 20
7.9722673368
 30
0.0
 10
12.7395376087
 20
7.9714675332
 30
0.0
 10
12.7413596836
 20
7.9704011373
 30
0.0
 10
12.7436372768
 20
7.9690681394
 30
0.0
 10
12.7463703889
 20
7.9674685432
 30
0.0
 10
12.7491035009
 20
7.9658689467
 30
0.0
 10
12.7527476503
 20
7.9637361515
 30
0.0
 10
12.757302837
 20
7.9610701574
 30
0.0
 10
12.7609469864
 20
7.9589373621
 30
0.0
 10
12.7627690611
 20
7.9578709645
 30
0.0
  0
SPLINE
  5
390
100
AcDbEntity
  8
0
100
AcDbSpline
 62
4
  6
CONTINUOUS
 70
0
 71
3
 72
120
 73
116
 74
0
 42
0.0000001
 43
0.0000001
 44
0.0000000001
 40
0.0
 40
0.0
 40
0.0
 40
0.0
 40
0.03125
 40
0.0625
 40
0.078125
 40
0.09375
 40
0.109375
 40
0.125
 40
0.140625
 40
0.1484375
 40
0.15234375
 40
0.15625
 40
0.16015625
 40
0.162109375
 40
0.1640625
 40
0.1650390625
 40
0.166015625
 40
0.1665039062
 40
0.1669921875
 40
0.16796875
 40
0.169921875
 40
0.171875
 40
0.17578125
 40
0.1796875
 40
0.1875
 40
0.1953125
 40
0.203125
 40
0.21875
 40
0.234375
 40
0.25
 40
0.265625
 40
0.28125
 40
0.296875
 40
0.3046875
 40
0.3125
 40
0.3203125
 40
0.32421875
 40
0.328125
 40
0.330078125
 40
0.33203125
 40
0.3330078125
 40
0.3334960938
 40
0.333984375
 40
0.3349609375
 40
0.3359375
 40
0.33984375
 40
0.34375
 40
0.34765625
 40
0.3515625
 40
0.359375
 40
0.375
 40
0.390625
 40
0.40625
 40
0.421875
 40
0.4375
 40
0.453125
 40
0.46875
 40
0.4765625
 40
0.484375
 40
0.48828125
 40
0.4921875
 40
0.49609375
 40
0.498046875
 40
0.4990234375
 40
0.5
 40
0.5009765625
 40
0.501953125
 40
0.50390625
 40
0.5078125
 40
0.51171875
 40
0.515625
 40
0.5234375
 40
0.53125
 40
0.546875
 40
0.5625
 40
0.578125
 40
0.59375
 40
0.609375
 40
0.625
 40
0.640625
 40
0.6484375
 40
0.65625
 40
0.66015625
 40
0.6640625
 40
0.666015625
 40
0.6669921875
 40
0.66796875
 40
0.669921875
 40
0.671875
 40
0.6796875
 40
0.6875
 40
0.6953125
 40
0.703125
 40
0.71875
 40
0.75
 40
0.78125
 40
0.796875
 40
0.8046875
 40
0.8125
 40
0.8203125
 40
0.828125
 40
0.830078125
 40
0.83203125
 40
0.8330078125
 40
0.833984375
 40
0.8359375
 40
0.83984375
 40
0.84375
 40
0.8515625
 40
0.859375
 40
0.875
 40
0.890625
 40
0.90625
 40
0.9375
 40
1.0
 40
1.0
 40
1.0
 40
1.0
 10
12.7627690575
 20
10.2071294568
 30
0.0
 10
12.7609832536
 20
10.2026521326
 30
0.0
 10
12.7574116457
 20
10.193697484
 30
0.0
 10
12.7529471358
 20
10.1825041734
 30
0.0
 10
12.749375528
 20
10.1735495247
 30
0.0
 10
12.746696822
 20
10.1668335386
 30
0.0
 10
12.7440181162
 20
10.1601175513
 30
0.0
 10
12.7413394098
 20
10.1534015679
 30
0.0
 10
12.7391071565
 20
10.1478049033
 30
0.0
 10
12.7375445752
 20
10.1438872612
 30
0.0
 10
12.7366516778
 20
10.1416485724
 30
0.0
 10
12.7359819874
 20
10.1399696576
 30
0.0
 10
12.7354239671
 20
10.1385702376
 30
0.0
 10
12.7349774275
 20
10.1374514292
 30
0.0
 10
12.7346986212
 20
10.1367505171
 30
0.0
 10
12.7344749326
 20
10.1361935821
 30
0.0
 10
12.7343365957
 20
10.1358368393
 30
0.0
 10
12.7342225628
 20
10.1355712767
 30
0.0
 10
12.7341208086
 20
10.1352333142
 30
0.0
 10
12.7339484427
 20
10.1346082471
 30
0.0
 10
12.7336992296
 20
10.133732842
 30
0.0
 10
12.7333021519
 20
10.1323223872
 30
0.0
 10
12.7328052352
 20
10.1305626766
 30
0.0
 10
12.7320104868
 20
10.1277452628
 30
0.0
 10
12.7310169422
 20
10.1242241396
 30
0.0
 10
12.7298247353
 20
10.119998516
 30
0.0
 10
12.7282351099
 20
10.1143644476
 30
0.0
 10
12.7262480837
 20
10.107321829
 30
0.0
 10
12.7238636498
 20
10.0988707009
 30
0.0
 10
12.7214792166
 20
10.0904195688
 30
0.0
 10
12.719094783
 20
10.0819684385
 30
0.0
 10
12.7167103503
 20
10.0735173047
 30
0.0
 10
12.7147233205
 20
10.0664747036
 30
0.0
 10
12.7131337023
 20
10.0608405995
 30
0.0
 10
12.7119414732
 20
10.0566150848
 30
0.0
 10
12.7109479983
 20
10.053093621
 30
0.0
 10
12.7101531076
 20
10.0502769021
 30
0.0
 10
12.7096565532
 20
10.0485154232
 30
0.0
 10
12.7092587317
 20
10.047108598
 30
0.0
 10
12.7090114122
 20
10.0462239521
 30
0.0
 10
12.7088356453
 20
10.0456154827
 30
0.0
 10
12.7087393427
 20
10.0452509152
 30
0.0
 10
12.7086586171
 20
10.0448228046
 30
0.0
 10
12.7085523858
 20
10.0443093856
 30
0.0
 10
12.7083018129
 20
10.0430593041
 30
0.0
 10
12.707924113
 20
10.04119169
 30
0.0
 10
12.707421565
 20
10.0386972466
 30
0.0
 10
12.7069187357
 20
10.036203951
 30
0.0
 10
12.7062483947
 20
10.0328791566
 30
0.0
 10
12.7050752523
 20
10.0270609528
 30
0.0
 10
12.7033993585
 20
10.0187491357
 30
0.0
 10
12.7013882757
 20
10.0087749968
 30
0.0
 10
12.6993771955
 20
9.9988008469
 30
0.0
 10
12.697366115
 20
9.9888266995
 30
0.0
 10
12.6953550332
 20
9.9788525533
 30
0.0
 10
12.6933439568
 20
9.9688783996
 30
0.0
 10
12.6916680428
 20
9.9605666289
 30
0.0
 10
12.6903273497
 20
9.9539171583
 30
0.0
 10
12.6894893299
 20
9.9497613624
 30
0.0
 10
12.6888191125
 20
9.9464364434
 30
0.0
 10
12.688315906
 20
9.9439435269
 30
0.0
 10
12.6878982959
 20
9.9418636384
 30
0.0
 10
12.6876025765
 20
9.9404125403
 30
0.0
 10
12.6874388909
 20
9.9395758094
 30
0.0
 10
12.6873012051
 20
9.9389694789
 30
0.0
 10
12.6872205571
 20
9.938282044
 30
0.0
 10
12.6870931311
 20
9.9373937542
 30
0.0
 10
12.6868794052
 20
9.9358260663
 30
0.0
 10
12.6865692363
 20
9.9335934032
 30
0.0
 10
12.6861991079
 20
9.9309112579
 30
0.0
 10
12.6857048788
 20
9.9273360944
 30
0.0
 10
12.6850873405
 20
9.9228667872
 30
0.0
 10
12.6840991407
 20
9.9157160929
 30
0.0
 10
12.6828639385
 20
9.9067776574
 30
0.0
 10
12.6813816752
 20
9.8960515639
 30
0.0
 10
12.6798994183
 20
9.885325462
 30
0.0
 10
12.6784171565
 20
9.8745993647
 30
0.0
 10
12.6769349079
 20
9.8638732573
 30
0.0
 10
12.6754526114
 20
9.8531471858
 30
0.0
 10
12.6742175128
 20
9.8442086818
 30
0.0
 10
12.6732291015
 20
9.8370581271
 30
0.0
 10
12.6726121013
 20
9.8325884647
 30
0.0
 10
12.6721167679
 20
9.8290140304
 30
0.0
 10
12.6718111393
 20
9.8267770527
 30
0.0
 10
12.6715892732
 20
9.8252170931
 30
0.0
 10
12.6714748937
 20
9.8243164177
 30
0.0
 10
12.6714072228
 20
9.8233808269
 30
0.0
 10
12.671306669
 20
9.8222232726
 30
0.0
 10
12.6710784798
 20
9.81943532
 30
0.0
 10
12.6707306771
 20
9.8152575166
 30
0.0
 10
12.6702700946
 20
9.809684754
 30
0.0
 10
12.6698086683
 20
9.8041126222
 30
0.0
 10
12.6691937276
 20
9.7966828931
 30
0.0
 10
12.6681174434
 20
9.78368097
 30
0.0
 10
12.6665799739
 20
9.7651067385
 30
0.0
 10
12.6650424498
 20
9.7465325335
 30
0.0
 10
12.6639662419
 20
9.7335305732
 30
0.0
 10
12.6633511813
 20
9.7261009025
 30
0.0
 10
12.662890123
 20
9.7205285916
 30
0.0
 10
12.6624281583
 20
9.7149565017
 30
0.0
 10
12.6620842261
 20
9.7107768146
 30
0.0
 10
12.6618509857
 20
9.7079913202
 30
0.0
 10
12.6617596834
 20
9.7068292636
 30
0.0
 10
12.6616729219
 20
9.7059029635
 30
0.0
 10
12.6616363342
 20
9.70496443
 30
0.0
 10
12.6615956174
 20
9.7033163126
 30
0.0
 10
12.6615252877
 20
9.7009648248
 30
0.0
 10
12.6614195574
 20
9.697200787
 30
0.0
 10
12.6612850672
 20
9.6924963071
 30
0.0
 10
12.6610711836
 20
9.6849688223
 30
0.0
 10
12.6608033828
 20
9.675559575
 30
0.0
 10
12.6604822128
 20
9.6642684316
 30
0.0
 10
12.6600539195
 20
9.6492135901
 30
0.0
 10
12.6593044375
 20
9.6228676098
 30
0.0
 10
12.6586620137
 20
9.6002853436
 30
0.0
 10
12.6582337335
 20
9.5852304989
 30
0.0
  0
SPLINE
  5
391
100
AcDbEntity
  8
0
100
AcDbSpline
 62
4
  6
CONTINUOUS
 70
0
 71
3
 72
403
 73
399
 74
0
 42
0.0000001
 43
0.0000001
 44
0.0000000001
 40
0.0
 40
0.0
 40
0.0
 40
0.0
 40
0.015625
 40
0.0234375
 40
0.03125
 40
0.0390625
 40
0.04296875
 40
0.046875
 40
0.05078125
 40
0.0546875
 40
0.056640625
 40
0.05859375
 40
0.0595703125
 40
0.060546875
 40
0.0615234375
 40
0.0620117188
 40
0.0622558594
 40
0.0625
 40
0.0627441406
 40
0.0629882812
 40
0.0634765625
 40
0.064453125
 40
0.0654296875
 40
0.06640625
 40
0.068359375
 40
0.0703125
 40
0.07421875
 40
0.078125
 40
0.08203125
 40
0.0859375
 40
0.09375
 40
0.1015625
 40
0.10546875
 40
0.109375
 40
0.11328125
 40
0.1171875
 40
0.119140625
 40
0.12109375
 40
0.1220703125
 40
0.123046875
 40
0.1240234375
 40
0.1245117188
 40
0.1247558594
 40
0.125
 40
0.1252441406
 40
0.1254882812
 40
0.1259765625
 40
0.126953125
 40
0.1279296875
 40
0.12890625
 40
0.130859375
 40
0.1328125
 40
0.13671875
 40
0.140625
 40
0.14453125
 40
0.1484375
 40
0.15625
 40
0.1640625
 40
0.16796875
 40
0.171875
 40
0.17578125
 40
0.1796875
 40
0.181640625
 40
0.18359375
 40
0.1845703125
 40
0.185546875
 40
0.1865234375
 40
0.1870117188
 40
0.1872558594
 40
0.1875
 40
0.1877441406
 40
0.1879882812
 40
0.1884765625
 40
0.189453125
 40
0.1904296875
 40
0.19140625
 40
0.193359375
 40
0.1953125
 40
0.19921875
 40
0.203125
 40
0.20703125
 40
0.2109375
 40
0.21875
 40
0.2265625
 40
0.23046875
 40
0.234375
 40
0.23828125
 40
0.2421875
 40
0.244140625
 40
0.24609375
 40
0.2470703125
 40
0.248046875
 40
0.2490234375
 40
0.2495117188
 40
0.2497558594
 40
0.25
 40
0.2502441406
 40
0.2504882812
 40
0.2509765625
 40
0.251953125
 40
0.2529296875
 40
0.25390625
 40
0.255859375
 40
0.2578125
 40
0.26171875
 40
0.265625
 40
0.26953125
 40
0.2734375
 40
0.28125
 40
0.2890625
 40
0.29296875
 40
0.296875
 40
0.30078125
 40
0.3046875
 40
0.306640625
 40
0.30859375
 40
0.3095703125
 40
0.310546875
 40
0.3115234375
 40
0.3120117188
 40
0.3122558594
 40
0.3125
 40
0.3127441406
 40
0.3129882812
 40
0.3134765625
 40
0.314453125
 40
0.3154296875
 40
0.31640625
 40
0.318359375
 40
0.3203125
 40
0.32421875
 40
0.328125
 40
0.33203125
 40
0.3359375
 40
0.34375
 40
0.3515625
 40
0.35546875
 40
0.359375
 40
0.36328125
 40
0.3671875
 40
0.369140625
 40
0.37109375
 40
0.3720703125
 40
0.373046875
 40
0.3740234375
 40
0.3745117188
 40
0.3747558594
 40
0.375
 40
0.3752441406
 40
0.3754882812
 40
0.3759765625
 40
0.376953125
 40
0.3779296875
 40
0.37890625
 40
0.380859375
 40
0.3828125
 40
0.38671875
 40
0.390625
 40
0.39453125
 40
0.3984375
 40
0.40625
 40
0.4140625
 40
0.41796875
 40
0.421875
 40
0.42578125
 40
0.4296875
 40
0.431640625
 40
0.43359375
 40
0.4345703125
 40
0.435546875
 40
0.4365234375
 40
0.4370117188
 40
0.4372558594
 40
0.4375
 40
0.4377441406
 40
0.4379882812
 40
0.4384765625
 40
0.439453125
 40
0.4404296875
 40
0.44140625
 40
0.443359375
 40
0.4453125
 40
0.44921875
 40
0.453125
 40
0.45703125
 40
0.4609375
 40
0.46875
 40
0.4765625
 40
0.48046875
 40
0.484375
 40
0.48828125
 40
0.4921875
 40
0.494140625
 40
0.49609375
 40
0.4970703125
 40
0.498046875
 40
0.4990234375
 40
0.4995117188
 40
0.4997558594
 40
0.5
 40
0.5002441406
 40
0.5004882812
 40
0.5009765625
 40
0.501953125
 40
0.5029296875
 40
0.50390625
 40
0.505859375
 40
0.5078125
 40
0.51171875
 40
0.515625
 40
0.51953125
 40
0.5234375
 40
0.53125
 40
0.5390625
 40
0.54296875
 40
0.546875
 40
0.55078125
 40
0.5546875
 40
0.556640625
 40
0.55859375
 40
0.5595703125
 40
0.560546875
 40
0.5615234375
 40
0.5620117188
 40
0.5622558594
 40
0.5625
 40
0.5627441406
 40
0.5629882812
 40
0.5634765625
 40
0.564453125
 40
0.5654296875
 40
0.56640625
 40
0.568359375
 40
0.5703125
 40
0.57421875
 40
0.578125
 40
0.58203125
 40
0.5859375
 40
0.59375
 40
0.6015625
 40
0.60546875
 40
0.609375
 40
0.61328125
 40
0.6171875
 40
0.619140625
 40
0.62109375
 40
0.6220703125
 40
0.623046875
 40
0.6240234375
 40
0.6245117188
 40
0.6247558594
 40
0.625
 40
0.6252441406
 40
0.6254882812
 40
0.6259765625
 40
0.626953125
 40
0.6279296875
 40
0.62890625
 40
0.630859375
 40
0.6328125
 40
0.63671875
 40
0.640625
 40
0.64453125
 40
0.6484375
 40
0.65625
 40
0.6640625
 40
0.66796875
 40
0.671875
 40
0.67578125
 40
0.6796875
 40
0.681640625
 40
0.68359375
 40
0.6845703125
 40
0.685546875
 40
0.6865234375
 40
0.6870117188
 40
0.6872558594
 40
0.6875
 40
0.6877441406
 40
0.6879882812
 40
0.6884765625
 40
0.689453125
 40
0.6904296875
 40
0.69140625
 40
0.693359375
 40
0.6953125
 40
0.69921875
 40
0.703125
 40
0.70703125
 40
0.7109375
 40
0.71875
 40
0.7265625
 40
0.73046875
 40
0.734375
 40
0.73828125
 40
0.7421875
 40
0.744140625
 40
0.74609375
 40
0.7470703125
 40
0.748046875
 40
0.7490234375
 40
0.7495117188
 40
0.7497558594
 40
0.75
 40
0.7502441406
 40
0.7504882812
 40
0.7509765625
 40
0.751953125
 40
0.7529296875
 40
0.75390625
 40
0.755859375
 40
0.7578125
 40
0.76171875
 40
0.765625
 40
0.76953125
 40
0.7734375
 40
0.78125
 40
0.7890625
 40
0.79296875
 40
0.796875
 40
0.80078125
 40
0.8046875
 40
0.806640625
 40
0.80859375
 40
0.8095703125
 40
0.810546875
 40
0.8115234375
 40
0.8120117188
 40
0.8122558594
 40
0.8125
 40
0.8127441406
 40
0.8129882812
 40
0.8134765625
 40
0.814453125
 40
0.8154296875
 40
0.81640625
 40
0.818359375
 40
0.8203125
 40
0.82421875
 40
0.828125
 40
0.83203125
 40
0.8359375
 40
0.84375
 40
0.8515625
 40
0.85546875
 40
0.859375
 40
0.86328125
 40
0.8671875
 40
0.869140625
 40
0.87109375
 40
0.8720703125
 40
0.873046875
 40
0.8740234375
 40
0.8745117188
 40
0.8747558594
 40
0.875
 40
0.8752441406
 40
0.8754882812
 40
0.8759765625
 40
0.876953125
 40
0.8779296875
 40
0.87890625
 40
0.880859375
 40
0.8828125
 40
0.88671875
 40
0.890625
 40
0.89453125
 40
0.8984375
 40
0.90625
 40
0.9140625
 40
0.91796875
 40
0.921875
 40
0.92578125
 40
0.9296875
 40
0.931640625
 40
0.93359375
 40
0.9345703125
 40
0.935546875
 40
0.9365234375
 40
0.9370117188
 40
0.9372558594
 40
0.9375
 40
0.9377441406
 40
0.9379882812
 40
0.9384765625
 40
0.939453125
 40
0.9404296875
 40
0.94140625
 40
0.943359375
 40
0.9453125
 40
0.94921875
 40
0.953125
 40
0.95703125
 40
0.9609375
 40
0.96875
 40
0.9765625
 40
0.984375
 40
1.0
 40
1.0
 40
1.0
 40
1.0
 10
9.8433058171
 20
8.8160527673
 30
0.0
 10
9.8480055978
 20
8.8161876539
 30
0.0
 10
9.8550552688
 20
8.8163899839
 30
0.0
 10
9.8644548301
 20
8.8166597571
 30
0.0
 10
9.8715045011
 20
8.8168620871
 30
0.0
 10
9.877379227
 20
8.8170306952
 30
0.0
 10
9.8820790076
 20
8.8171655823
 30
0.0
 10
9.8856038434
 20
8.8172667457
 30
0.0
 10
9.8891286778
 20
8.8173679163
 30
0.0
 10
9.8920660441
 20
8.817452203
 30
0.0
 10
9.8944159275
 20
8.8175196819
 30
0.0
 10
9.8958846266
 20
8.8175617435
 30
0.0
 10
9.8970595355
 20
8.8175956508
 30
0.0
 10
9.8979408552
 20
8.8176203749
 30
0.0
 10
9.8986748493
 20
8.8176432253
 30
0.0
 10
9.8991895065
 20
8.8176548111
 30
0.0
 10
9.8994822515
 20
8.8176683166
 30
0.0
 10
9.8997055986
 20
8.8176590503
 30
0.0
 10
9.8999144647
 20
8.817723923
 30
0.0
 10
9.900198004
 20
8.8177845594
 30
0.0
 10
9.9006918442
 20
8.817902722
 30
0.0
 10
9.9013985607
 20
8.8180652264
 30
0.0
 10
9.9022460938
 20
8.818262928
 30
0.0
 10
9.903376322
 20
8.8185255883
 30
0.0
 10
9.9047890442
 20
8.8188542362
 30
0.0
 10
9.9070494348
 20
8.8193798926
 30
0.0
 10
9.9098749111
 20
8.820037025
 30
0.0
 10
9.9132654878
 20
8.8208255573
 30
0.0
 10
9.9166560631
 20
8.8216140967
 30
0.0
 10
9.9211768307
 20
8.8226654801
 30
0.0
 10
9.92682779
 20
8.8239797102
 30
0.0
 10
9.9324787495
 20
8.8252939398
 30
0.0
 10
9.9369995168
 20
8.8263453242
 30
0.0
 10
9.9403900929
 20
8.8271338606
 30
0.0
 10
9.9437806664
 20
8.8279224039
 30
0.0
 10
9.9466061528
 20
8.8285795022
 30
0.0
 10
9.9488665229
 20
8.8291052281
 30
0.0
 10
9.9502792974
 20
8.8294336991
 30
0.0
 10
9.9514094181
 20
8.8296967226
 30
0.0
 10
9.9522572793
 20
8.8298933147
 30
0.0
 10
9.9529629693
 20
8.8300592903
 30
0.0
 10
9.9534586421
 20
8.8301712563
 30
0.0
 10
9.9537392452
 20
8.8302418211
 30
0.0
 10
9.95395713
 20
8.8302761969
 30
0.0
 10
9.9541466043
 20
8.830381472
 30
0.0
 10
9.9544091466
 20
8.8304971083
 30
0.0
 10
9.9548639784
 20
8.8307109942
 30
0.0
 10
9.955516152
 20
8.8310105215
 30
0.0
 10
9.9562977271
 20
8.8313725328
 30
0.0
 10
9.9573401882
 20
8.8318543138
 30
0.0
 10
9.9586431409
 20
8.8324568485
 30
0.0
 10
9.9607279344
 20
8.8334207317
 30
0.0
 10
9.9633339025
 20
8.8346256447
 30
0.0
 10
9.9664610744
 20
8.8360715151
 30
0.0
 10
9.9695882436
 20
8.8375173922
 30
0.0
 10
9.9737578034
 20
8.839445226
 30
0.0
 10
9.9789697529
 20
8.8418550191
 30
0.0
 10
9.9841817026
 20
8.8442648116
 30
0.0
 10
9.9883512621
 20
8.8461926463
 30
0.0
 10
9.9914784325
 20
8.8476385206
 30
0.0
 10
9.9946055995
 20
8.8490844016
 30
0.0
 10
9.9972115829
 20
8.8502892817
 30
0.0
 10
9.9992963453
 20
8.8512532321
 30
0.0
 10
10.0005993771
 20
8.8518555956
 30
0.0
 10
10.0016416758
 20
8.852337728
 30
0.0
 10
10.0024237468
 20
8.8526986657
 30
0.0
 10
10.003074369
 20
8.8530015518
 30
0.0
 10
10.0035319705
 20
8.8532094417
 30
0.0
 10
10.003790075
 20
8.8533346852
 30
0.0
 10
10.0039931807
 20
8.8534104501
 30
0.0
 10
10.0041598682
 20
8.8535556614
 30
0.0
 10
10.0043948213
 20
8.8537250528
 30
0.0
 10
10.0048000706
 20
8.854032774
 30
0.0
 10
10.0053820925
 20
8.854466475
 30
0.0
 10
10.0060791943
 20
8.854989442
 30
0.0
 10
10.007009126
 20
8.8556858491
 30
0.0
 10
10.0081713822
 20
8.85655666
 30
0.0
 10
10.0100310807
 20
8.8579497887
 30
0.0
 10
10.0123556734
 20
8.8596912575
 30
0.0
 10
10.0151451977
 20
8.8617809952
 30
0.0
 10
10.0179347185
 20
8.8638707395
 30
0.0
 10
10.0216540808
 20
8.866657063
 30
0.0
 10
10.0263032832
 20
8.8701399682
 30
0.0
 10
10.030952486
 20
8.8736228729
 30
0.0
 10
10.0346718477
 20
8.8764091972
 30
0.0
 10
10.0374613704
 20
8.8784989391
 30
0.0
 10
10.0402508875
 20
8.880588686
 30
0.0
 10
10.0425755025
 20
8.882330126
 30
0.0
 10
10.0444351556
 20
8.8837233134
 30
0.0
 10
10.0455975274
 20
8.884593975
 30
0.0
 10
10.0465272217
 20
8.8852906886
 30
0.0
 10
10.0472250488
 20
8.8858127191
 30
0.0
 10
10.0478048015
 20
8.8862493501
 30
0.0
 10
10.0482141018
 20
8.8865518409
 30
0.0
 10
10.0484425641
 20
8.8867296127
 30
0.0
 10
10.0486291893
 20
8.8868490822
 30
0.0
 10
10.0487574123
 20
8.8870215289
 30
0.0
 10
10.0489487476
 20
8.8872329789
 30
0.0
 10
10.0492740931
 20
8.8876116261
 30
0.0
 10
10.0497438345
 20
8.8881480494
 30
0.0
 10
10.0503054002
 20
8.8887936841
 30
0.0
 10
10.0510548963
 20
8.8896538574
 30
0.0
 10
10.0519915124
 20
8.8907293044
 30
0.0
 10
10.0534902402
 20
8.8924498908
 30
0.0
 10
10.0553636012
 20
8.894600668
 30
0.0
 10
10.0576116553
 20
8.8971815817
 30
0.0
 10
10.0598597038
 20
8.8997625005
 30
0.0
 10
10.0628571038
 20
8.9032037237
 30
0.0
 10
10.066603853
 20
8.9075052534
 30
0.0
 10
10.0703506028
 20
8.9118067828
 30
0.0
 10
10.0733480019
 20
8.9152480067
 30
0.0
 10
10.0755960529
 20
8.9178289235
 30
0.0
 10
10.0778440979
 20
8.9204098446
 30
0.0
 10
10.0797174872
 20
8.9225605986
 30
0.0
 10
10.0812161573
 20
8.9242812324
 30
0.0
 10
10.0821529202
 20
8.9253565589
 30
0.0
 10
10.082902115
 20
8.9262169794
 30
0.0
 10
10.0834646013
 20
8.9268618587
 30
0.0
 10
10.0839314623
 20
8.9274006453
 30
0.0
 10
10.0842619498
 20
8.9277750737
 30
0.0
 10
10.0844450463
 20
8.9279932833
 30
0.0
 10
10.0845985762
 20
8.9281449665
 30
0.0
 10
10.0846901526
 20
8.9283424206
 30
0.0
 10
10.0848338645
 20
8.9285897273
 30
0.0
 10
10.0850752918
 20
8.9290299526
 30
0.0
 10
10.0854254519
 20
8.9296549568
 30
0.0
 10
10.0858433908
 20
8.9304066266
 30
0.0
 10
10.0864014297
 20
8.9314082715
 30
0.0
 10
10.0870987089
 20
8.9326605267
 30
0.0
 10
10.0882145062
 20
8.9346640238
 30
0.0
 10
10.0896092011
 20
8.9371684333
 30
0.0
 10
10.0912828572
 20
8.9401737084
 30
0.0
 10
10.0929565073
 20
8.9431789878
 30
0.0
 10
10.0951880429
 20
8.9471860255
 30
0.0
 10
10.0979774616
 20
8.9521948232
 30
0.0
 10
10.1007668808
 20
8.9572036206
 30
0.0
 10
10.1029984155
 20
8.9612106588
 30
0.0
 10
10.1046720683
 20
8.9642159367
 30
0.0
 10
10.1063457145
 20
8.9672212177
 30
0.0
 10
10.1077404402
 20
8.9697256086
 30
0.0
 10
10.1088561748
 20
8.9717291437
 30
0.0
 10
10.1095536134
 20
8.9729813023
 30
0.0
 10
10.1101113249
 20
8.9739831455
 30
0.0
 10
10.1105302642
 20
8.9747342094
 30
0.0
 10
10.1108772944
 20
8.9753611091
 30
0.0
 10
10.1111243092
 20
8.9757979508
 30
0.0
 10
10.1112590685
 20
8.9760506787
 30
0.0
 10
10.1113781443
 20
8.9762314806
 30
0.0
 10
10.1114283907
 20
8.9764457067
 30
0.0
 10
10.1115193943
 20
8.9767196828
 30
0.0
 10
10.1116674647
 20
8.977204573
 30
0.0
 10
10.111884842
 20
8.9778944333
 30
0.0
 10
10.1121431916
 20
8.9787234813
 30
0.0
 10
10.112488532
 20
8.979828454
 30
0.0
 10
10.1129199081
 20
8.9812098153
 30
0.0
 10
10.1136102773
 20
8.983419912
 30
0.0
 10
10.1144731813
 20
8.9861825609
 30
0.0
 10
10.1155086907
 20
8.9894977276
 30
0.0
 10
10.1165441935
 20
8.9928128974
 30
0.0
 10
10.1179248663
 20
8.9972331228
 30
0.0
 10
10.1196507063
 20
9.002758405
 30
0.0
 10
10.121376547
 20
9.0082836868
 30
0.0
 10
10.1227572188
 20
9.0127039126
 30
0.0
 10
10.1237927244
 20
9.0160190813
 30
0.0
 10
10.1248282231
 20
9.0193342525
 30
0.0
 10
10.1256911605
 20
9.0220968872
 30
0.0
 10
10.1263814616
 20
9.0243070128
 30
0.0
 10
10.1268130108
 20
9.0256883008
 30
0.0
 10
10.1271579959
 20
9.0267934239
 30
0.0
 10
10.1274174309
 20
9.0276220125
 30
0.0
 10
10.1276314122
 20
9.0283133102
 30
0.0
 10
10.1277855451
 20
9.0287956344
 30
0.0
 10
10.1278668351
 20
9.0290737218
 30
0.0
 10
10.1279469187
 20
9.0292753192
 30
0.0
 10
10.1279539307
 20
9.0295035527
 30
0.0
 10
10.1279887682
 20
9.029798573
 30
0.0
 10
10.1280378584
 20
9.0303191875
 30
0.0
 10
10.1281141958
 20
9.0310606593
 30
0.0
 10
10.1282031433
 20
9.0319513942
 30
0.0
 10
10.1283226681
 20
9.0331387023
 30
0.0
 10
10.1284717563
 20
9.0346229533
 30
0.0
 10
10.128710475
 20
9.0369976902
 30
0.0
 10
10.1290088125
 20
9.0399661335
 30
0.0
 10
10.1293668436
 20
9.043528256
 30
0.0
 10
10.1297248677
 20
9.047090381
 30
0.0
 10
10.1302022356
 20
9.0518398801
 30
0.0
 10
10.1307989446
 20
9.0577767543
 30
0.0
 10
10.1313956542
 20
9.0637136284
 30
0.0
 10
10.1318730211
 20
9.0684631277
 30
0.0
 10
10.1322310482
 20
9.0720252522
 30
0.0
 10
10.132589068
 20
9.0755873765
 30
0.0
 10
10.1328874405
 20
9.0785558139
 30
0.0
 10
10.1331260878
 20
9.0809305629
 30
0.0
 10
10.1332753577
 20
9.0824147832
 30
0.0
 10
10.1333945095
 20
9.0836021544
 30
0.0
 10
10.1334845965
 20
9.0844926965
 30
0.0
 10
10.1335573688
 20
9.0852347714
 30
0.0
 10
10.1336128233
 20
9.0857543093
 30
0.0
 10
10.1336374636
 20
9.0860510546
 30
0.0
 10
10.1336757981
 20
9.0862739895
 30
0.0
 10
10.1336382394
 20
9.0864954876
 30
0.0
 10
10.1336146334
 20
9.0867913196
 30
0.0
 10
10.1335609891
 20
9.0873087921
 30
0.0
 10
10.1334908027
 20
9.0880481607
 30
0.0
 10
10.1334038189
 20
9.0889353506
 30
0.0
 10
10.1332888045
 20
9.0901182889
 30
0.0
 10
10.1331447065
 20
9.0915969554
 30
0.0
 10
10.1329143341
 20
9.0939628253
 30
0.0
 10
10.1326263053
 20
9.0969201615
 30
0.0
 10
10.1322806979
 20
9.1004689655
 30
0.0
 10
10.1319350832
 20
9.1040177693
 30
0.0
 10
10.1314742662
 20
9.1087495078
 30
0.0
 10
10.130898244
 20
9.1146641809
 30
0.0
 10
10.1303222224
 20
9.120578854
 30
0.0
 10
10.1298614044
 20
9.1253105924
 30
0.0
 10
10.1295157927
 20
9.1288593964
 30
0.0
 10
10.129170174
 20
9.1324081996
 30
0.0
 10
10.1288821803
 20
9.1353655383
 30
0.0
 10
10.1286517364
 20
9.1377314031
 30
0.0
 10
10.1285078202
 20
9.1392100828
 30
0.0
 10
10.1283924327
 20
9.1403929939
 30
0.0
 10
10.1283065888
 20
9.1412802668
 30
0.0
 10
10.1282328358
 20
9.1420193758
 30
0.0
 10
10.1281855584
 20
9.1425373116
 30
0.0
 10
10.128151751
 20
9.1428324012
 30
0.0
 10
10.1281455281
 20
9.1430561799
 30
0.0
 10
10.1280661705
 20
9.1432705494
 30
0.0
 10
10.1279858706
 20
9.1435596575
 30
0.0
 10
10.12783346
 20
9.1440640675
 30
0.0
 10
10.1276219447
 20
9.1447854526
 30
0.0
 10
10.1273654665
 20
9.1456507726
 30
0.0
 10
10.1270244245
 20
9.146804652
 30
0.0
 10
10.126597804
 20
9.1482469604
 30
0.0
 10
10.125915389
 20
9.1505546768
 30
0.0
 10
10.1250623092
 20
9.1534393143
 30
0.0
 10
10.1240386396
 20
9.1569008828
 30
0.0
 10
10.123014963
 20
9.1603624503
 30
0.0
 10
10.1216500633
 20
9.164977874
 30
0.0
 10
10.1199439378
 20
9.1707471535
 30
0.0
 10
10.1182378129
 20
9.1765164331
 30
0.0
 10
10.1168729122
 20
9.1811318566
 30
0.0
 10
10.1158492385
 20
9.1845934248
 30
0.0
 10
10.1148255581
 20
9.1880549907
 30
0.0
 10
10.1139725117
 20
9.190939636
 30
0.0
 10
10.1132900286
 20
9.1932473365
 30
0.0
 10
10.1128635814
 20
9.1946896852
 30
0.0
 10
10.1125221838
 20
9.195843482
 30
0.0
 10
10.1122667922
 20
9.1967090547
 30
0.0
 10
10.1120518769
 20
9.1974296491
 30
0.0
 10
10.1119055359
 20
9.1979354706
 30
0.0
 10
10.1118155111
 20
9.198222317
 30
0.0
 10
10.111766025
 20
9.1984436337
 30
0.0
 10
10.1116476098
 20
9.1986413201
 30
0.0
 10
10.1115137662
 20
9.1989131445
 30
0.0
 10
10.1112683375
 20
9.1993849968
 30
0.0
 10
10.1109235818
 20
9.2000610793
 30
0.0
 10
10.1105073682
 20
9.2008715189
 30
0.0
 10
10.1099532922
 20
9.2019524053
 30
0.0
 10
10.1092603974
 20
9.2033034104
 30
0.0
 10
10.1081519334
 20
9.2054650761
 30
0.0
 10
10.1067662958
 20
9.2081671385
 30
0.0
 10
10.1051035553
 20
9.2114096219
 30
0.0
 10
10.1034408083
 20
9.214652103
 30
0.0
 10
10.1012238146
 20
9.2189754119
 30
0.0
 10
10.0984525715
 20
9.2243795477
 30
0.0
 10
10.0956813291
 20
9.2297836837
 30
0.0
 10
10.0934643344
 20
9.2341069923
 30
0.0
 10
10.0918015901
 20
9.2373494744
 30
0.0
 10
10.0901388394
 20
9.2405919536
 30
0.0
 10
10.0887532337
 20
9.243294029
 30
0.0
 10
10.0876447046
 20
9.2454556682
 30
0.0
 10
10.0869519755
 20
9.2468067409
 30
0.0
 10
10.0863975594
 20
9.2478874885
 30
0.0
 10
10.0859823849
 20
9.248698352
 30
0.0
 10
10.085634378
 20
9.2493731085
 30
0.0
 10
10.0853947533
 20
9.249847328
 30
0.0
 10
10.0852516102
 20
9.2501153595
 30
0.0
 10
10.0851617599
 20
9.2503246964
 30
0.0
 10
10.0850049888
 20
9.250502256
 30
0.0
 10
10.0848193034
 20
9.2507500864
 30
0.0
 10
10.084483478
 20
9.2511786253
 30
0.0
 10
10.0840094136
 20
9.2517935237
 30
0.0
 10
10.0834381025
 20
9.252530246
 30
0.0
 10
10.0826772044
 20
9.2535129462
 30
0.0
 10
10.0817257907
 20
9.2547411832
 30
0.0
 10
10.0802036915
 20
9.2567064396
 30
0.0
 10
10.0783010117
 20
9.2591629836
 30
0.0
 10
10.0760178198
 20
9.2621108478
 30
0.0
 10
10.0737346215
 20
9.265058709
 30
0.0
 10
10.0706903594
 20
9.2689891916
 30
0.0
 10
10.0668850309
 20
9.2739022944
 30
0.0
 10
10.0630797029
 20
9.2788153976
 30
0.0
 10
10.06003544
 20
9.2827458796
 30
0.0
 10
10.0577522441
 20
9.2856937425
 30
0.0
 10
10.0554690435
 20
9.2886416001
 30
0.0
 10
10.0535663909
 20
9.2910981645
 30
0.0
 10
10.0520442361
 20
9.2930633793
 30
0.0
 10
10.0510929638
 20
9.2942917222
 30
0.0
 10
10.0503317756
 20
9.295274205
 30
0.0
 10
10.0497613506
 20
9.2960115913
 30
0.0
 10
10.0492845137
 20
9.2966244126
 30
0.0
 10
10.0489536378
 20
9.2970566593
 30
0.0
 10
10.0487600221
 20
9.2972985489
 30
0.0
 10
10.0486276101
 20
9.2974943569
 30
0.0
 10
10.048446271
 20
9.2976351558
 30
0.0
 10
10.0482215519
 20
9.2978420755
 30
0.0
 10
10.0478203419
 20
9.2981952449
 30
0.0
 10
10.0472513419
 20
9.2987044466
 30
0.0
 10
10.0465667626
 20
9.299313488
 30
0.0
 10
10.0456546116
 20
9.300126242
 30
0.0
 10
10.04451421
 20
9.3011419453
 30
0.0
 10
10.0426896865
 20
9.3027672042
 30
0.0
 10
10.0404089913
 20
9.304798732
 30
0.0
 10
10.0376721745
 20
9.3072365849
 30
0.0
 10
10.034935353
 20
9.3096744327
 30
0.0
 10
10.0312862594
 20
9.3129248981
 30
0.0
 10
10.0267248917
 20
9.3169879793
 30
0.0
 10
10.0221635244
 20
9.3210510609
 30
0.0
 10
10.0185144301
 20
9.3243015257
 30
0.0
 10
10.0157776105
 20
9.3267393757
 30
0.0
 10
10.0130407869
 20
9.32917722
 30
0.0
 10
10.0107601129
 20
9.3312087746
 30
0.0
 10
10.008935546
 20
9.3328339789
 30
0.0
 10
10.0077952547
 20
9.3338498213
 30
0.0
 10
10.0068828774
 20
9.3346622896
 30
0.0
 10
10.0061989895
 20
9.3352722037
 30
0.0
 10
10.005627826
 20
9.3357786751
 30
0.0
 10
10.0052304783
 20
9.3361367187
 30
0.0
 10
10.0049995708
 20
9.3363358287
 30
0.0
 10
10.0048372403
 20
9.3365006163
 30
0.0
 10
10.0046334354
 20
9.3366063266
 30
0.0
 10
10.0043761622
 20
9.3367678804
 30
0.0
 10
10.0039191939
 20
9.3370409986
 30
0.0
 10
10.003269906
 20
9.3374361869
 30
0.0
 10
10.0024892521
 20
9.3379082644
 30
0.0
 10
10.001448907
 20
9.3385384515
 30
0.0
 10
10.0001482953
 20
9.3393259284
 30
0.0
 10
9.9980674175
 20
9.340586035
 30
0.0
 10
9.9954662855
 20
9.3421611191
 30
0.0
 10
9.992344942
 20
9.344051241
 30
0.0
 10
9.9892235945
 20
9.3459413574
 30
0.0
 10
9.9850617993
 20
9.3484615144
 30
0.0
 10
9.9798595548
 20
9.35161171
 30
0.0
 10
9.9746573105
 20
9.3547619061
 30
0.0
 10
9.9704955148
 20
9.3572820624
 30
0.0
 10
9.9673741687
 20
9.3591721812
 30
0.0
 10
9.9642528199
 20
9.3610622937
 30
0.0
 10
9.9616517045
 20
9.3626374073
 30
0.0
 10
9.959570793
 20
9.3638974536
 30
0.0
 10
9.9582702668
 20
9.3646850841
 30
0.0
 10
9.9572297462
 20
9.3653149559
 30
0.0
 10
9.9564496287
 20
9.3657879966
 30
0.0
 10
9.9557986625
 20
9.3661801713
 30
0.0
 10
9.9553446902
 20
9.3664586692
 30
0.0
 10
9.9550826167
 20
9.3666116034
 30
0.0
 10
9.9548935569
 20
9.3667437906
 30
0.0
 10
9.9546758462
 20
9.3668091352
 30
0.0
 10
9.954395559
 20
9.3669195769
 30
0.0
 10
9.9539004001
 20
9.3671019867
 30
0.0
 10
9.9531954646
 20
9.3673682514
 30
0.0
 10
9.9523485
 20
9.3676853382
 30
0.0
 10
9.9512195778
 20
9.3681089696
 30
0.0
 10
9.9498083005
 20
9.3686382181
 30
0.0
 10
9.9475503265
 20
9.3694851783
 30
0.0
 10
9.944727835
 20
9.3705438227
 30
0.0
 10
9.9413408555
 20
9.37181422
 30
0.0
 10
9.9379538733
 20
9.3730846108
 30
0.0
 10
9.9334378979
 20
9.3747784675
 30
0.0
 10
9.9277929284
 20
9.3768957875
 30
0.0
 10
9.9221479591
 20
9.3790131082
 30
0.0
 10
9.9176319834
 20
9.3807069639
 30
0.0
 10
9.9142450021
 20
9.3819773576
 30
0.0
 10
9.9108580188
 20
9.3832477443
 30
0.0
 10
9.9080355392
 20
9.3843064213
 30
0.0
 10
9.9057775411
 20
9.3851533151
 30
0.0
 10
9.904366325
 20
9.3856827325
 30
0.0
 10
9.9032372771
 20
9.3861060174
 30
0.0
 10
9.9023906967
 20
9.3864241629
 30
0.0
 10
9.9016845593
 20
9.386687115
 30
0.0
 10
9.901191546
 20
9.3868754385
 30
0.0
 10
9.9009078211
 20
9.3869764048
 30
0.0
 10
9.9007006699
 20
9.3870708545
 30
0.0
 10
9.90047195
 20
9.3870937282
 30
0.0
 10
9.9001745135
 20
9.387149193
 30
0.0
 10
9.8996504944
 20
9.387234624
 30
0.0
 10
9.8989037283
 20
9.3873627499
 30
0.0
 10
9.8980068245
 20
9.3875138978
 30
0.0
 10
9.8968112267
 20
9.3877163376
 30
0.0
 10
9.8953166358
 20
9.3879690761
 30
0.0
 10
9.8929253426
 20
9.3883736315
 30
0.0
 10
9.8899362082
 20
9.3888792662
 30
0.0
 10
9.8863492546
 20
9.3894860533
 30
0.0
 10
9.882762299
 20
9.3900928337
 30
0.0
 10
9.8779796922
 20
9.3909018765
 30
0.0
 10
9.8720014334
 20
9.3919131792
 30
0.0
 10
9.864827523
 20
9.3931267428
 30
0.0
 10
9.8552623091
 20
9.3947448274
 30
0.0
 10
9.8480883987
 20
9.3959583909
 30
0.0
 10
9.8433057917
 20
9.3967674333
 30
0.0
  0
SPLINE
  5
392
100
AcDbEntity
  8
0
100
AcDbSpline
 62
4
  6
CONTINUOUS
 70
0
 71
3
 72
403
 73
399
 74
0
 42
0.0000001
 43
0.0000001
 44
0.0000000001
 40
0.0
 40
0.0
 40
0.0
 40
0.0
 40
0.015625
 40
0.0234375
 40
0.03125
 40
0.0390625
 40
0.04296875
 40
0.046875
 40
0.05078125
 40
0.0546875
 40
0.056640625
 40
0.05859375
 40
0.0595703125
 40
0.060546875
 40
0.0615234375
 40
0.0620117188
 40
0.0622558594
 40
0.0625
 40
0.0627441406
 40
0.0629882812
 40
0.0634765625
 40
0.064453125
 40
0.0654296875
 40
0.06640625
 40
0.068359375
 40
0.0703125
 40
0.07421875
 40
0.078125
 40
0.08203125
 40
0.0859375
 40
0.09375
 40
0.1015625
 40
0.10546875
 40
0.109375
 40
0.11328125
 40
0.1171875
 40
0.119140625
 40
0.12109375
 40
0.1220703125
 40
0.123046875
 40
0.1240234375
 40
0.1245117188
 40
0.1247558594
 40
0.125
 40
0.1252441406
 40
0.1254882812
 40
0.1259765625
 40
0.126953125
 40
0.1279296875
 40
0.12890625
 40
0.130859375
 40
0.1328125
 40
0.13671875
 40
0.140625
 40
0.14453125
 40
0.1484375
 40
0.15625
 40
0.1640625
 40
0.16796875
 40
0.171875
 40
0.17578125
 40
0.1796875
 40
0.181640625
 40
0.18359375
 40
0.1845703125
 40
0.185546875
 40
0.1865234375
 40
0.1870117188
 40
0.1872558594
 40
0.1875
 40
0.1877441406
 40
0.1879882812
 40
0.1884765625
 40
0.189453125
 40
0.1904296875
 40
0.19140625
 40
0.193359375
 40
0.1953125
 40
0.19921875
 40
0.203125
 40
0.20703125
 40
0.2109375
 40
0.21875
 40
0.2265625
 40
0.23046875
 40
0.234375
 40
0.23828125
 40
0.2421875
 40
0.244140625
 40
0.24609375
 40
0.2470703125
 40
0.248046875
 40
0.2490234375
 40
0.2495117188
 40
0.2497558594
 40
0.25
 40
0.2502441406
 40
0.2504882812
 40
0.2509765625
 40
0.251953125
 40
0.2529296875
 40
0.25390625
 40
0.255859375
 40
0.2578125
 40
0.26171875
 40
0.265625
 40
0.26953125
 40
0.2734375
 40
0.28125
 40
0.2890625
 40
0.29296875
 40
0.296875
 40
0.30078125
 40
0.3046875
 40
0.306640625
 40
0.30859375
 40
0.3095703125
 40
0.310546875
 40
0.3115234375
 40
0.3120117188
 40
0.3122558594
 40
0.3125
 40
0.3127441406
 40
0.3129882812
 40
0.3134765625
 40
0.314453125
 40
0.3154296875
 40
0.31640625
 40
0.318359375
 40
0.3203125
 40
0.32421875
 40
0.328125
 40
0.33203125
 40
0.3359375
 40
0.34375
 40
0.3515625
 40
0.35546875
 40
0.359375
 40
0.36328125
 40
0.3671875
 40
0.369140625
 40
0.37109375
 40
0.3720703125
 40
0.373046875
 40
0.3740234375
 40
0.3745117188
 40
0.3747558594
 40
0.375
 40
0.3752441406
 40
0.3754882812
 40
0.3759765625
 40
0.376953125
 40
0.3779296875
 40
0.37890625
 40
0.380859375
 40
0.3828125
 40
0.38671875
 40
0.390625
 40
0.39453125
 40
0.3984375
 40
0.40625
 40
0.4140625
 40
0.41796875
 40
0.421875
 40
0.42578125
 40
0.4296875
 40
0.431640625
 40
0.43359375
 40
0.4345703125
 40
0.435546875
 40
0.4365234375
 40
0.4370117188
 40
0.4372558594
 40
0.4375
 40
0.4377441406
 40
0.4379882812
 40
0.4384765625
 40
0.439453125
 40
0.4404296875
 40
0.44140625
 40
0.443359375
 40
0.4453125
 40
0.44921875
 40
0.453125
 40
0.45703125
 40
0.4609375
 40
0.46875
 40
0.4765625
 40
0.48046875
 40
0.484375
 40
0.48828125
 40
0.4921875
 40
0.494140625
 40
0.49609375
 40
0.4970703125
 40
0.498046875
 40
0.4990234375
 40
0.4995117188
 40
0.4997558594
 40
0.5
 40
0.5002441406
 40
0.5004882812
 40
0.5009765625
 40
0.501953125
 40
0.5029296875
 40
0.50390625
 40
0.505859375
 40
0.5078125
 40
0.51171875
 40
0.515625
 40
0.51953125
 40
0.5234375
 40
0.53125
 40
0.5390625
 40
0.54296875
 40
0.546875
 40
0.55078125
 40
0.5546875
 40
0.556640625
 40
0.55859375
 40
0.5595703125
 40
0.560546875
 40
0.5615234375
 40
0.5620117188
 40
0.5622558594
 40
0.5625
 40
0.5627441406
 40
0.5629882812
 40
0.5634765625
 40
0.564453125
 40
0.5654296875
 40
0.56640625
 40
0.568359375
 40
0.5703125
 40
0.57421875
 40
0.578125
 40
0.58203125
 40
0.5859375
 40
0.59375
 40
0.6015625
 40
0.60546875
 40
0.609375
 40
0.61328125
 40
0.6171875
 40
0.619140625
 40
0.62109375
 40
0.6220703125
 40
0.623046875
 40
0.6240234375
 40
0.6245117188
 40
0.6247558594
 40
0.625
 40
0.6252441406
 40
0.6254882812
 40
0.6259765625
 40
0.626953125
 40
0.6279296875
 40
0.62890625
 40
0.630859375
 40
0.6328125
 40
0.63671875
 40
0.640625
 40
0.64453125
 40
0.6484375
 40
0.65625
 40
0.6640625
 40
0.66796875
 40
0.671875
 40
0.67578125
 40
0.6796875
 40
0.681640625
 40
0.68359375
 40
0.6845703125
 40
0.685546875
 40
0.6865234375
 40
0.6870117188
 40
0.6872558594
 40
0.6875
 40
0.6877441406
 40
0.6879882812
 40
0.6884765625
 40
0.689453125
 40
0.6904296875
 40
0.69140625
 40
0.693359375
 40
0.6953125
 40
0.69921875
 40
0.703125
 40
0.70703125
 40
0.7109375
 40
0.71875
 40
0.7265625
 40
0.73046875
 40
0.734375
 40
0.73828125
 40
0.7421875
 40
0.744140625
 40
0.74609375
 40
0.7470703125
 40
0.748046875
 40
0.7490234375
 40
0.7495117188
 40
0.7497558594
 40
0.75
 40
0.7502441406
 40
0.7504882812
 40
0.7509765625
 40
0.751953125
 40
0.7529296875
 40
0.75390625
 40
0.755859375
 40
0.7578125
 40
0.76171875
 40
0.765625
 40
0.76953125
 40
0.7734375
 40
0.78125
 40
0.7890625
 40
0.79296875
 40
0.796875
 40
0.80078125
 40
0.8046875
 40
0.806640625
 40
0.80859375
 40
0.8095703125
 40
0.810546875
 40
0.8115234375
 40
0.8120117188
 40
0.8122558594
 40
0.8125
 40
0.8127441406
 40
0.8129882812
 40
0.8134765625
 40
0.814453125
 40
0.8154296875
 40
0.81640625
 40
0.818359375
 40
0.8203125
 40
0.82421875
 40
0.828125
 40
0.83203125
 40
0.8359375
 40
0.84375
 40
0.8515625
 40
0.85546875
 40
0.859375
 40
0.86328125
 40
0.8671875
 40
0.869140625
 40
0.87109375
 40
0.8720703125
 40
0.873046875
 40
0.8740234375
 40
0.8745117188
 40
0.8747558594
 40
0.875
 40
0.8752441406
 40
0.8754882812
 40
0.8759765625
 40
0.876953125
 40
0.8779296875
 40
0.87890625
 40
0.880859375
 40
0.8828125
 40
0.88671875
 40
0.890625
 40
0.89453125
 40
0.8984375
 40
0.90625
 40
0.9140625
 40
0.91796875
 40
0.921875
 40
0.92578125
 40
0.9296875
 40
0.931640625
 40
0.93359375
 40
0.9345703125
 40
0.935546875
 40
0.9365234375
 40
0.9370117188
 40
0.9372558594
 40
0.9375
 40
0.9377441406
 40
0.9379882812
 40
0.9384765625
 40
0.939453125
 40
0.9404296875
 40
0.94140625
 40
0.943359375
 40
0.9453125
 40
0.94921875
 40
0.953125
 40
0.95703125
 40
0.9609375
 40
0.96875
 40
0.9765625
 40
0.984375
 40
1.0
 40
1.0
 40
1.0
 40
1.0
 10
9.8433058171
 20
9.3967674315
 30
0.0
 10
9.8386060364
 20
9.3966325449
 30
0.0
 10
9.8315563654
 20
9.396430215
 30
0.0
 10
9.8221568041
 20
9.3961604417
 30
0.0
 10
9.8151071331
 20
9.3959581117
 30
0.0
 10
9.8092324072
 20
9.3957895037
 30
0.0
 10
9.8045326266
 20
9.3956546165
 30
0.0
 10
9.8010077909
 20
9.3955534531
 30
0.0
 10
9.7974829564
 20
9.3954522825
 30
0.0
 10
9.7945455901
 20
9.3953679958
 30
0.0
 10
9.7921957067
 20
9.3953005169
 30
0.0
 10
9.7907270076
 20
9.3952584553
 30
0.0
 10
9.7895520987
 20
9.395224548
 30
0.0
 10
9.7886707791
 20
9.3951998239
 30
0.0
 10
9.7879367849
 20
9.3951769735
 30
0.0
 10
9.7874221277
 20
9.3951653878
 30
0.0
 10
9.7871293827
 20
9.3951518823
 30
0.0
 10
9.7869060356
 20
9.3951611485
 30
0.0
 10
9.7866971695
 20
9.3950962758
 30
0.0
 10
9.7864136302
 20
9.3950356394
 30
0.0
 10
9.78591979
 20
9.3949174768
 30
0.0
 10
9.7852130735
 20
9.3947549724
 30
0.0
 10
9.7843655404
 20
9.3945572708
 30
0.0
 10
9.7832353122
 20
9.3942946105
 30
0.0
 10
9.7818225901
 20
9.3939659626
 30
0.0
 10
9.7795621994
 20
9.3934403062
 30
0.0
 10
9.7767367231
 20
9.3927831738
 30
0.0
 10
9.7733461464
 20
9.3919946415
 30
0.0
 10
9.7699555711
 20
9.3912061021
 30
0.0
 10
9.7654348035
 20
9.3901547187
 30
0.0
 10
9.7597838442
 20
9.3888404886
 30
0.0
 10
9.7541328848
 20
9.387526259
 30
0.0
 10
9.7496121175
 20
9.3864748747
 30
0.0
 10
9.7462215413
 20
9.3856863382
 30
0.0
 10
9.7428309678
 20
9.3848977949
 30
0.0
 10
9.7400054815
 20
9.3842406966
 30
0.0
 10
9.7377451113
 20
9.3837149707
 30
0.0
 10
9.7363323368
 20
9.3833864997
 30
0.0
 10
9.7352022161
 20
9.3831234762
 30
0.0
 10
9.7343543549
 20
9.3829268841
 30
0.0
 10
9.7336486649
 20
9.3827609086
 30
0.0
 10
9.7331529922
 20
9.3826489425
 30
0.0
 10
9.732872389
 20
9.3825783777
 30
0.0
 10
9.7326545042
 20
9.3825440019
 30
0.0
 10
9.7324650299
 20
9.3824387268
 30
0.0
 10
9.7322024876
 20
9.3823230905
 30
0.0
 10
9.7317476558
 20
9.3821092046
 30
0.0
 10
9.7310954822
 20
9.3818096773
 30
0.0
 10
9.7303139071
 20
9.381447666
 30
0.0
 10
9.729271446
 20
9.380965885
 30
0.0
 10
9.7279684933
 20
9.3803633503
 30
0.0
 10
9.7258836998
 20
9.3793994672
 30
0.0
 10
9.7232777317
 20
9.3781945541
 30
0.0
 10
9.7201505598
 20
9.3767486837
 30
0.0
 10
9.7170233906
 20
9.3753028066
 30
0.0
 10
9.7128538308
 20
9.3733749728
 30
0.0
 10
9.7076418813
 20
9.3709651797
 30
0.0
 10
9.7024299316
 20
9.3685553872
 30
0.0
 10
9.6982603722
 20
9.3666275525
 30
0.0
 10
9.6951332017
 20
9.3651816782
 30
0.0
 10
9.6920060347
 20
9.3637357972
 30
0.0
 10
9.6894000513
 20
9.3625309172
 30
0.0
 10
9.6873152889
 20
9.3615669667
 30
0.0
 10
9.6860122571
 20
9.3609646032
 30
0.0
 10
9.6849699584
 20
9.3604824708
 30
0.0
 10
9.6841878874
 20
9.3601215331
 30
0.0
 10
9.6835372653
 20
9.359818647
 30
0.0
 10
9.6830796638
 20
9.3596107571
 30
0.0
 10
9.6828215592
 20
9.3594855136
 30
0.0
 10
9.6826184536
 20
9.3594097487
 30
0.0
 10
9.682451766
 20
9.3592645374
 30
0.0
 10
9.6822168129
 20
9.359095146
 30
0.0
 10
9.6818115636
 20
9.3587874249
 30
0.0
 10
9.6812295417
 20
9.3583537238
 30
0.0
 10
9.6805324399
 20
9.3578307568
 30
0.0
 10
9.6796025082
 20
9.3571343497
 30
0.0
 10
9.678440252
 20
9.3562635388
 30
0.0
 10
9.6765805535
 20
9.3548704101
 30
0.0
 10
9.6742559608
 20
9.3531289413
 30
0.0
 10
9.6714664365
 20
9.3510392036
 30
0.0
 10
9.6686769157
 20
9.3489494593
 30
0.0
 10
9.6649575534
 20
9.3461631358
 30
0.0
 10
9.660308351
 20
9.3426802306
 30
0.0
 10
9.6556591482
 20
9.3391973259
 30
0.0
 10
9.6519397865
 20
9.3364110016
 30
0.0
 10
9.6491502638
 20
9.3343212598
 30
0.0
 10
9.6463607467
 20
9.3322315128
 30
0.0
 10
9.6440361317
 20
9.3304900728
 30
0.0
 10
9.6421764787
 20
9.3290968854
 30
0.0
 10
9.6410141068
 20
9.3282262238
 30
0.0
 10
9.6400844125
 20
9.3275295102
 30
0.0
 10
9.6393865854
 20
9.3270074797
 30
0.0
 10
9.6388068328
 20
9.3265708487
 30
0.0
 10
9.6383975324
 20
9.3262683579
 30
0.0
 10
9.6381690701
 20
9.3260905862
 30
0.0
 10
9.6379824449
 20
9.3259711167
 30
0.0
 10
9.6378542219
 20
9.3257986699
 30
0.0
 10
9.6376628866
 20
9.3255872199
 30
0.0
 10
9.6373375411
 20
9.3252085727
 30
0.0
 10
9.6368677998
 20
9.3246721494
 30
0.0
 10
9.6363062341
 20
9.3240265147
 30
0.0
 10
9.6355567379
 20
9.3231663414
 30
0.0
 10
9.6346201218
 20
9.3220908945
 30
0.0
 10
9.633121394
 20
9.320370308
 30
0.0
 10
9.631248033
 20
9.3182195308
 30
0.0
 10
9.6289999789
 20
9.3156386171
 30
0.0
 10
9.6267519304
 20
9.3130576984
 30
0.0
 10
9.6237545304
 20
9.3096164751
 30
0.0
 10
9.6200077812
 20
9.3053149454
 30
0.0
 10
9.6162610314
 20
9.3010134161
 30
0.0
 10
9.6132636323
 20
9.2975721921
 30
0.0
 10
9.6110155813
 20
9.2949912754
 30
0.0
 10
9.6087675363
 20
9.2924103542
 30
0.0
 10
9.606894147
 20
9.2902596002
 30
0.0
 10
9.6053954769
 20
9.2885389664
 30
0.0
 10
9.604458714
 20
9.2874636399
 30
0.0
 10
9.6037095192
 20
9.2866032194
 30
0.0
 10
9.6031470329
 20
9.2859583401
 30
0.0
 10
9.6026801719
 20
9.2854195535
 30
0.0
 10
9.6023496845
 20
9.2850451251
 30
0.0
 10
9.6021665879
 20
9.2848269155
 30
0.0
 10
9.602013058
 20
9.2846752323
 30
0.0
 10
9.6019214816
 20
9.2844777782
 30
0.0
 10
9.6017777697
 20
9.2842304715
 30
0.0
 10
9.6015363424
 20
9.2837902463
 30
0.0
 10
9.6011861824
 20
9.283165242
 30
0.0
 10
9.6007682434
 20
9.2824135722
 30
0.0
 10
9.6002102045
 20
9.2814119273
 30
0.0
 10
9.5995129253
 20
9.2801596721
 30
0.0
 10
9.598397128
 20
9.278156175
 30
0.0
 10
9.5970024331
 20
9.2756517655
 30
0.0
 10
9.5953287771
 20
9.2726464905
 30
0.0
 10
9.5936551269
 20
9.269641211
 30
0.0
 10
9.5914235913
 20
9.2656341733
 30
0.0
 10
9.5886341726
 20
9.2606253756
 30
0.0
 10
9.5858447534
 20
9.2556165782
 30
0.0
 10
9.5836132187
 20
9.25160954
 30
0.0
 10
9.5819395659
 20
9.2486042621
 30
0.0
 10
9.5802659197
 20
9.2455989811
 30
0.0
 10
9.5788711941
 20
9.2430945902
 30
0.0
 10
9.5777554595
 20
9.2410910551
 30
0.0
 10
9.5770580208
 20
9.2398388965
 30
0.0
 10
9.5765003093
 20
9.2388370533
 30
0.0
 10
9.57608137
 20
9.2380859894
 30
0.0
 10
9.5757343399
 20
9.2374590898
 30
0.0
 10
9.5754873251
 20
9.237022248
 30
0.0
 10
9.5753525657
 20
9.2367695201
 30
0.0
 10
9.5752334899
 20
9.2365887182
 30
0.0
 10
9.5751832435
 20
9.2363744921
 30
0.0
 10
9.5750922399
 20
9.236100516
 30
0.0
 10
9.5749441695
 20
9.2356156258
 30
0.0
 10
9.5747267922
 20
9.2349257655
 30
0.0
 10
9.5744684426
 20
9.2340967175
 30
0.0
 10
9.5741231022
 20
9.2329917448
 30
0.0
 10
9.5736917261
 20
9.2316103836
 30
0.0
 10
9.5730013569
 20
9.2294002868
 30
0.0
 10
9.5721384529
 20
9.2266376379
 30
0.0
 10
9.5711029435
 20
9.2233224712
 30
0.0
 10
9.5700674407
 20
9.2200073014
 30
0.0
 10
9.568686768
 20
9.215587076
 30
0.0
 10
9.5669609279
 20
9.2100617939
 30
0.0
 10
9.5652350872
 20
9.204536512
 30
0.0
 10
9.5638544155
 20
9.2001162862
 30
0.0
 10
9.5628189098
 20
9.1968011175
 30
0.0
 10
9.5617834111
 20
9.1934859463
 30
0.0
 10
9.5609204737
 20
9.1907233116
 30
0.0
 10
9.5602301726
 20
9.188513186
 30
0.0
 10
9.5597986234
 20
9.187131898
 30
0.0
 10
9.5594536383
 20
9.1860267749
 30
0.0
 10
9.5591942033
 20
9.1851981863
 30
0.0
 10
9.558980222
 20
9.1845068886
 30
0.0
 10
9.5588260891
 20
9.1840245644
 30
0.0
 10
9.5587447991
 20
9.183746477
 30
0.0
 10
9.5586647155
 20
9.1835448797
 30
0.0
 10
9.5586577035
 20
9.1833166461
 30
0.0
 10
9.558622866
 20
9.1830216258
 30
0.0
 10
9.5585737758
 20
9.1825010113
 30
0.0
 10
9.5584974384
 20
9.1817595395
 30
0.0
 10
9.5584084909
 20
9.1808688046
 30
0.0
 10
9.5582889661
 20
9.1796814965
 30
0.0
 10
9.5581398779
 20
9.1781972455
 30
0.0
 10
9.5579011592
 20
9.1758225086
 30
0.0
 10
9.5576028217
 20
9.1728540653
 30
0.0
 10
9.5572447906
 20
9.1692919428
 30
0.0
 10
9.5568867665
 20
9.1657298178
 30
0.0
 10
9.5564093986
 20
9.1609803187
 30
0.0
 10
9.5558126897
 20
9.1550434445
 30
0.0
 10
9.5552159801
 20
9.1491065704
 30
0.0
 10
9.5547386131
 20
9.1443570711
 30
0.0
 10
9.554380586
 20
9.1407949466
 30
0.0
 10
9.5540225662
 20
9.1372328223
 30
0.0
 10
9.5537241937
 20
9.1342643849
 30
0.0
 10
9.5534855464
 20
9.1318896359
 30
0.0
 10
9.5533362765
 20
9.1304054156
 30
0.0
 10
9.5532171247
 20
9.1292180444
 30
0.0
 10
9.5531270377
 20
9.1283275023
 30
0.0
 10
9.5530542654
 20
9.1275854274
 30
0.0
 10
9.5529988109
 20
9.1270658896
 30
0.0
 10
9.5529741706
 20
9.1267691442
 30
0.0
 10
9.5529358361
 20
9.1265462093
 30
0.0
 10
9.5529733949
 20
9.1263247112
 30
0.0
 10
9.5529970008
 20
9.1260288792
 30
0.0
 10
9.5530506451
 20
9.1255114067
 30
0.0
 10
9.5531208315
 20
9.1247720381
 30
0.0
 10
9.5532078153
 20
9.1238848482
 30
0.0
 10
9.5533228297
 20
9.12270191
 30
0.0
 10
9.5534669278
 20
9.1212232434
 30
0.0
 10
9.5536973001
 20
9.1188573735
 30
0.0
 10
9.5539853289
 20
9.1159000373
 30
0.0
 10
9.5543309363
 20
9.1123512333
 30
0.0
 10
9.554676551
 20
9.1088024295
 30
0.0
 10
9.555137368
 20
9.104070691
 30
0.0
 10
9.5557133902
 20
9.098156018
 30
0.0
 10
9.5562894118
 20
9.0922413448
 30
0.0
 10
9.5567502299
 20
9.0875096064
 30
0.0
 10
9.5570958415
 20
9.0839608024
 30
0.0
 10
9.5574414602
 20
9.0804119992
 30
0.0
 10
9.557729454
 20
9.0774546605
 30
0.0
 10
9.5579598978
 20
9.0750887958
 30
0.0
 10
9.558103814
 20
9.073610116
 30
0.0
 10
9.5582192015
 20
9.0724272049
 30
0.0
 10
9.5583050454
 20
9.071539932
 30
0.0
 10
9.5583787984
 20
9.0708008231
 30
0.0
 10
9.5584260758
 20
9.0702828872
 30
0.0
 10
9.5584598832
 20
9.0699877976
 30
0.0
 10
9.5584661062
 20
9.0697640189
 30
0.0
 10
9.5585454637
 20
9.0695496494
 30
0.0
 10
9.5586257637
 20
9.0692605413
 30
0.0
 10
9.5587781742
 20
9.0687561313
 30
0.0
 10
9.5589896895
 20
9.0680347462
 30
0.0
 10
9.5592461677
 20
9.0671694263
 30
0.0
 10
9.5595872097
 20
9.0660155468
 30
0.0
 10
9.5600138302
 20
9.0645732384
 30
0.0
 10
9.5606962452
 20
9.0622655221
 30
0.0
 10
9.561549325
 20
9.0593808845
 30
0.0
 10
9.5625729946
 20
9.0559193161
 30
0.0
 10
9.5635966712
 20
9.0524577485
 30
0.0
 10
9.5649615709
 20
9.0478423248
 30
0.0
 10
9.5666676964
 20
9.0420730453
 30
0.0
 10
9.5683738214
 20
9.0363037657
 30
0.0
 10
9.569738722
 20
9.0316883422
 30
0.0
 10
9.5707623957
 20
9.028226774
 30
0.0
 10
9.5717860761
 20
9.0247652081
 30
0.0
 10
9.5726391225
 20
9.0218805628
 30
0.0
 10
9.5733216056
 20
9.0195728623
 30
0.0
 10
9.5737480528
 20
9.0181305136
 30
0.0
 10
9.5740894505
 20
9.0169767168
 30
0.0
 10
9.574344842
 20
9.0161111442
 30
0.0
 10
9.5745597573
 20
9.0153905497
 30
0.0
 10
9.5747060984
 20
9.0148847282
 30
0.0
 10
9.5747961231
 20
9.0145978818
 30
0.0
 10
9.5748456092
 20
9.0143765651
 30
0.0
 10
9.5749640244
 20
9.0141788787
 30
0.0
 10
9.575097868
 20
9.0139070544
 30
0.0
 10
9.5753432967
 20
9.013435202
 30
0.0
 10
9.5756880524
 20
9.0127591195
 30
0.0
 10
9.576104266
 20
9.0119486799
 30
0.0
 10
9.576658342
 20
9.0108677935
 30
0.0
 10
9.5773512368
 20
9.0095167884
 30
0.0
 10
9.5784597008
 20
9.0073551227
 30
0.0
 10
9.5798453384
 20
9.0046530603
 30
0.0
 10
9.5815080789
 20
9.0014105769
 30
0.0
 10
9.5831708259
 20
8.9981680959
 30
0.0
 10
9.5853878196
 20
8.993844787
 30
0.0
 10
9.5881590627
 20
8.9884406511
 30
0.0
 10
9.5909303052
 20
8.9830365151
 30
0.0
 10
9.5931472998
 20
8.9787132066
 30
0.0
 10
9.5948100441
 20
8.9754707244
 30
0.0
 10
9.5964727948
 20
8.9722282452
 30
0.0
 10
9.5978584005
 20
8.9695261698
 30
0.0
 10
9.5989669296
 20
8.9673645306
 30
0.0
 10
9.5996596587
 20
8.9660134579
 30
0.0
 10
9.6002140748
 20
8.9649327103
 30
0.0
 10
9.6006292493
 20
8.9641218468
 30
0.0
 10
9.6009772563
 20
8.9634470903
 30
0.0
 10
9.6012168809
 20
8.9629728708
 30
0.0
 10
9.601360024
 20
8.9627048393
 30
0.0
 10
9.6014498743
 20
8.9624955025
 30
0.0
 10
9.6016066454
 20
8.9623179428
 30
0.0
 10
9.6017923309
 20
8.9620701124
 30
0.0
 10
9.6021281562
 20
8.9616415735
 30
0.0
 10
9.6026022206
 20
8.9610266751
 30
0.0
 10
9.6031735317
 20
8.9602899528
 30
0.0
 10
9.6039344298
 20
8.9593072526
 30
0.0
 10
9.6048858435
 20
8.9580790156
 30
0.0
 10
9.6064079427
 20
8.9561137592
 30
0.0
 10
9.6083106225
 20
8.9536572152
 30
0.0
 10
9.6105938144
 20
8.950709351
 30
0.0
 10
9.6128770127
 20
8.9477614899
 30
0.0
 10
9.6159212748
 20
8.9438310073
 30
0.0
 10
9.6197266033
 20
8.9389179044
 30
0.0
 10
9.6235319313
 20
8.9340048013
 30
0.0
 10
9.6265761942
 20
8.9300743192
 30
0.0
 10
9.6288593901
 20
8.9271264564
 30
0.0
 10
9.6311425907
 20
8.9241785987
 30
0.0
 10
9.6330452433
 20
8.9217220343
 30
0.0
 10
9.6345673981
 20
8.9197568195
 30
0.0
 10
9.6355186704
 20
8.9185284766
 30
0.0
 10
9.6362798586
 20
8.9175459938
 30
0.0
 10
9.6368502836
 20
8.9168086075
 30
0.0
 10
9.6373271205
 20
8.9161957862
 30
0.0
 10
9.6376579964
 20
8.9157635395
 30
0.0
 10
9.6378516121
 20
8.9155216499
 30
0.0
 10
9.6379840241
 20
8.9153258419
 30
0.0
 10
9.6381653632
 20
8.915185043
 30
0.0
 10
9.6383900823
 20
8.9149781234
 30
0.0
 10
9.6387912923
 20
8.9146249539
 30
0.0
 10
9.6393602923
 20
8.9141157522
 30
0.0
 10
9.6400448716
 20
8.9135067108
 30
0.0
 10
9.6409570226
 20
8.9126939568
 30
0.0
 10
9.6420974242
 20
8.9116782536
 30
0.0
 10
9.6439219477
 20
8.9100529946
 30
0.0
 10
9.646202643
 20
8.9080214669
 30
0.0
 10
9.6489394597
 20
8.9055836139
 30
0.0
 10
9.6516762812
 20
8.9031457661
 30
0.0
 10
9.6553253749
 20
8.8998953007
 30
0.0
 10
9.6598867425
 20
8.8958322195
 30
0.0
 10
9.6644481098
 20
8.8917691379
 30
0.0
 10
9.6680972041
 20
8.8885186732
 30
0.0
 10
9.6708340237
 20
8.8860808231
 30
0.0
 10
9.6735708473
 20
8.8836429788
 30
0.0
 10
9.6758515213
 20
8.8816114242
 30
0.0
 10
9.6776760882
 20
8.8799862199
 30
0.0
 10
9.6788163795
 20
8.8789703775
 30
0.0
 10
9.6797287568
 20
8.8781579092
 30
0.0
 10
9.6804126447
 20
8.8775479951
 30
0.0
 10
9.6809838082
 20
8.8770415238
 30
0.0
 10
9.6813811559
 20
8.8766834801
 30
0.0
 10
9.6816120634
 20
8.8764843701
 30
0.0
 10
9.6817743939
 20
8.8763195825
 30
0.0
 10
9.6819781988
 20
8.8762138723
 30
0.0
 10
9.682235472
 20
8.8760523184
 30
0.0
 10
9.6826924403
 20
8.8757792002
 30
0.0
 10
9.6833417282
 20
8.8753840119
 30
0.0
 10
9.6841223821
 20
8.8749119344
 30
0.0
 10
9.6851627272
 20
8.8742817473
 30
0.0
 10
9.6864633389
 20
8.8734942704
 30
0.0
 10
9.6885442167
 20
8.8722341638
 30
0.0
 10
9.6911453487
 20
8.8706590797
 30
0.0
 10
9.6942666922
 20
8.8687689578
 30
0.0
 10
9.6973880397
 20
8.8668788415
 30
0.0
 10
9.7015498349
 20
8.8643586844
 30
0.0
 10
9.7067520795
 20
8.8612084888
 30
0.0
 10
9.7119543237
 20
8.8580582927
 30
0.0
 10
9.7161161194
 20
8.8555381365
 30
0.0
 10
9.7192374655
 20
8.8536480176
 30
0.0
 10
9.7223588143
 20
8.8517579052
 30
0.0
 10
9.7249599297
 20
8.8501827915
 30
0.0
 10
9.7270408412
 20
8.8489227452
 30
0.0
 10
9.7283413674
 20
8.8481351147
 30
0.0
 10
9.729381888
 20
8.8475052429
 30
0.0
 10
9.7301620055
 20
8.8470322023
 30
0.0
 10
9.7308129717
 20
8.8466400275
 30
0.0
 10
9.731266944
 20
8.8463615296
 30
0.0
 10
9.7315290175
 20
8.8462085954
 30
0.0
 10
9.7317180773
 20
8.8460764082
 30
0.0
 10
9.731935788
 20
8.8460110636
 30
0.0
 10
9.7322160753
 20
8.8459006219
 30
0.0
 10
9.7327112341
 20
8.8457182122
 30
0.0
 10
9.7334161696
 20
8.8454519474
 30
0.0
 10
9.7342631342
 20
8.8451348606
 30
0.0
 10
9.7353920564
 20
8.8447112292
 30
0.0
 10
9.7368033337
 20
8.8441819807
 30
0.0
 10
9.7390613077
 20
8.8433350205
 30
0.0
 10
9.7418837992
 20
8.8422763761
 30
0.0
 10
9.7452707787
 20
8.8410059788
 30
0.0
 10
9.7486577609
 20
8.839735588
 30
0.0
 10
9.7531737363
 20
8.8380417313
 30
0.0
 10
9.7588187058
 20
8.8359244113
 30
0.0
 10
9.7644636752
 20
8.8338070907
 30
0.0
 10
9.7689796509
 20
8.8321132349
 30
0.0
 10
9.7723666321
 20
8.8308428413
 30
0.0
 10
9.7757536154
 20
8.8295724545
 30
0.0
 10
9.778576095
 20
8.8285137775
 30
0.0
 10
9.7808340931
 20
8.8276668837
 30
0.0
 10
9.7822453092
 20
8.8271374663
 30
0.0
 10
9.7833743571
 20
8.8267141814
 30
0.0
 10
9.7842209375
 20
8.8263960359
 30
0.0
 10
9.7849270749
 20
8.8261330838
 30
0.0
 10
9.7854200882
 20
8.8259447603
 30
0.0
 10
9.7857038132
 20
8.825843794
 30
0.0
 10
9.7859109643
 20
8.8257493443
 30
0.0
 10
9.7861396842
 20
8.8257264706
 30
0.0
 10
9.7864371207
 20
8.8256710058
 30
0.0
 10
9.7869611398
 20
8.8255855748
 30
0.0
 10
9.7877079059
 20
8.8254574489
 30
0.0
 10
9.7886048097
 20
8.825306301
 30
0.0
 10
9.7898004075
 20
8.8251038612
 30
0.0
 10
9.7912949985
 20
8.8248511228
 30
0.0
 10
9.7936862916
 20
8.8244465673
 30
0.0
 10
9.796675426
 20
8.8239409326
 30
0.0
 10
9.8002623796
 20
8.8233341455
 30
0.0
 10
9.8038493352
 20
8.8227273652
 30
0.0
 10
9.808631942
 20
8.8219183223
 30
0.0
 10
9.8146102008
 20
8.8209070196
 30
0.0
 10
9.8217841112
 20
8.8196934561
 30
0.0
 10
9.8313493251
 20
8.8180753714
 30
0.0
 10
9.8385232355
 20
8.8168618079
 30
0.0
 10
9.8433058425
 20
8.8160527655
 30
0.0
  0
ENDSEC
  0
SECTION
  2
OBJECTS
  0
DICTIONARY
  5
C
100
AcDbDictionary
280
0
281
1
  3
ACAD_GROUP
350
D
  3
ACAD_MLINESTYLE
350
17
  3
ACAD_LAYOUT
350
1A
  3
ACAD_PLOTSETTINGS
350
19
  3
ACAD_PLOTSTYLENAME
350
E
  3
ACAD_IMAGE_DICT
350
       394
  3
ACAD_IMAGE_VARS
350
       395
  3
ACAD_TABLESTYLE
350
       396
  0
IMAGEDEF_REACTOR
  5
393
100
AcDbRasterImageDefReactor
 90
2
330
28B
  0
DICTIONARY
  5
D
102
{ACAD_REACTORS
330
C
102
}
100
AcDbDictionary
280
0
281
1
  0
ACDBDICTIONARYWDFLT
  5
E
102
{ACAD_REACTORS
330
C
102
}
100
AcDbDictionary
281
1
  3
Normal
350
F
100
AcDbDictionaryWithDefault
340
F
  0
DICTIONARY
  5
394
330
C
100
AcDbDictionary
281
1
  3
IN5_assy_2_img_1
350
       399
  0
RASTERVARIABLES
  5
395
330
C
100
AcDbRasterVariables
 90
0
 70
0
 71
1
 72
5
  0
DICTIONARY
  5
17
102
{ACAD_REACTORS
330
C
102
}
100
AcDbDictionary
280
0
281
1
  3
Standard
350
18
  0
DICTIONARY
  5
396
330
C
100
AcDbDictionary
281
1
  3
Standard
350
       39A
  3
Standard1
350
       39B
  0
DICTIONARY
  5
19
102
{ACAD_REACTORS
330
C
102
}
100
AcDbDictionary
281
1
  0
DICTIONARY
  5
1A
102
{ACAD_REACTORS
330
C
102
}
100
AcDbDictionary
281
1
  3
Model
350
397
  3
Layout1
350
398
  0
ACDBPLACEHOLDER
  5
F
102
{ACAD_REACTORS
330
E
102
}
  0
MLINESTYLE
  5
18
102
{ACAD_REACTORS
330
17
102
}
100
AcDbMlineStyle
  2
STANDARD
 70
0
  3

 62
256
 51
90.0
 52
90.0
 71
2
 49
0.5
 62
256
  6
BYLAYER
 49
-0.5
 62
256
  6
BYLAYER
  0
LAYOUT
  5
397
102
{ACAD_REACTORS
330
1A
102
}
100
AcDbPlotSettings
  1

  2
none_device
  4
ANSI_C_(22.00_x_17.00_Inches)
  6

 40
0.0
 41
0.0
 42
0.0
 43
0.0
 44
558.8
 45
431.8
 46
0.0
 47
0.0
 48
0.0
 49
0.0
140
0.0
141
0.0
142
1.0
143
1.0
 70
1024
 72
0
 73
0
 74
0
  7

 75
0
147
1.0
148
0.0
149
0.0
100
AcDbLayout
  1
Model
 70
0
 71
0
 10
0.0
 20
0.0
 11
22.0
 21
17.0
 12
0.0
 22
0.0
 32
0.0
 14
0.0
 24
0.0
 34
0.0
 15
0.0
 25
0.0
 35
0.0
146
0.0
 13
0.0
 23
0.0
 33
0.0
 16
1.0
 26
0.0
 36
0.0
 17
0.0
 27
1.0
 37
0.0
 76
0
330
20C
345
0
346
0
  0
LAYOUT
  5
398
102
{ACAD_REACTORS
330
1A
102
}
100
AcDbPlotSettings
  1

  2
none_device
  4
ANSI_C_(22.00_x_17.00_Inches)
  6

 40
0.0
 41
0.0
 42
0.0
 43
0.0
 44
558.8
 45
431.8
 46
0.0
 47
0.0
 48
0.0
 49
0.0
140
0.0
141
0.0
142
1.0
143
1.0
 70
0
 72
0
 73
0
 74
0
  7

 75
0
147
1.0
148
0.0
149
0.0
100
AcDbLayout
  1
Layout1
 70
0
 71
1
 10
0.0
 20
0.0
 11
22.0
 21
17.0
 12
0.0
 22
0.0
 32
0.0
 14
0.0
 24
0.0
 34
0.0
 15
0.0
 25
0.0
 35
0.0
146
0.0
 13
0.0
 23
0.0
 33
0.0
 16
1.0
 26
0.0
 36
0.0
 17
0.0
 27
1.0
 37
0.0
 76
0
330
20D
345
0
346
0
  0
IMAGEDEF
  5
399
102
{ACAD_REACTORS
330
394
330
393
102
}
100
AcDbRasterImageDef
 90
0
  1
IN5_assy_2_img_1.png
 10
369.0
 20
92.0
 11
0.0066666667
 21
0.0066666667
280
1
281
0
  0
TABLESTYLE
  5
39A
102
{ACAD_REACTORS
330
396
330
28E
330
28F
102
}
330
396
100
AcDbTableStyle
  3
Standard
 70
0
 71
0
 40
0.06
 41
0.06
280
1
281
1
  7
Standard
140
0.18
170
1
 62
0
 63
7
283
0
  7
Standard
140
0.18
170
1
 62
0
 63
7
283
0
  7
Standard
140
0.18
170
1
 62
0
 63
7
283
0
  0
TABLESTYLE
  5
39B
102
{ACAD_REACTORS
330
396
330
28D
102
}
330
396
100
AcDbTableStyle
  3
Standard1
 70
1
 71
0
 40
0.06
 41
0.06
280
1
281
1
  7
Standard
140
0.18
170
1
 62
0
 63
7
283
0
  7
Standard
140
0.18
170
1
 62
0
 63
7
283
0
  7
Standard
140
0.18
170
1
 62
0
 63
7
283
0
  0
ENDSEC
  0
EOF
