999
DXF file: IN4_assy_2.dxf
999
Pro/ENGINEER 2014200 by Parametric Technology Corporation
  0
SECTION
  2
HEADER
  9
$ACADVER
  1
AC1021
  9
$DWGCODEPAGE
  3
ANSI_1252
  9
$EXTMAX
 10
22.0
 20
17.0
 30
0.0
  9
$EXTMIN
 10
0.0
 20
0.0
 30
0.0
  9
$LIMMIN
 10
0.0
 20
0.0
  9
$LIMMAX
 10
22.0
 20
17.0
  9
$VIEWCTR
 10
11.0
 20
8.5
  9
$VIEWSIZE
 40
17.0
  9
$CLAYER
  8
0
  9
$LTSCALE
 40
1.21
  9
$CELTYPE
  6
BYLAYER
  9
$DIMSCALE
 40
1.0
  9
$DIMASZ
 40
0.1875
  9
$DIMEXO
 40
0.0625
  9
$DIMDLI
 40
0.836
  9
$DIMEXE
 40
0.125
  9
$DIMCEN
 40
0.198
  9
$DIMLFAC
 40
1.0
  9
$DIMBLK
  1
_FILLED
  9
$DIMTXT
 40
0.1
  9
$DIMTOL
 70
0
  9
$DIMLIM
 70
0
  9
$DIMTFAC
 40
1.0
  9
$DIMGAP
 40
0.09
  9
$DIMDSEP
 70
46
  9
$AUNITS
 70
0
  9
$PDMODE
 70
3
  9
$PDSIZE
 40
0.3125
  9
$HANDSEED
  5
381
  9
$TILEMODE
 70
1
  9
$MEASUREMENT
 70
0
  9
$INSUNITS
 70
1
  0
ENDSEC
  0
SECTION
  2
CLASSES
  0
CLASS
  1
ACDBDICTIONARYWDFLT
  2
AcDbDictionaryWithDefault
  3
AutoCAD 2000
 90
0
 91
1
280
0
281
0
  0
CLASS
  1
ACDBPLACEHOLDER
  2
AcDbPlaceHolder
  3
AutoCAD 2000
 90
0
 91
1
280
0
281
0
  0
CLASS
  1
LAYOUT
  2
AcDbLayout
  3
AutoCAD 2000
 90
0
 91
0
280
0
281
0
  0
CLASS
  1
RASTERVARIABLES
  2
AcDbRasterVariables
  3
ISM
 90
0
 91
1
280
0
281
0
  0
CLASS
  1
IMAGEDEF
  2
AcDbRasterImageDef
  3
ISM
 90
0
 91
1
280
0
281
0
  0
CLASS
  1
IMAGEDEF_REACTOR
  2
AcDbRasterImageDefReactor
  3
ISM
 90
0
 91
1
280
0
281
0
  0
CLASS
  1
IMAGE
  2
AcDbRasterImage
  3
ISM
 90
127
 91
1
280
0
281
1
  0
CLASS
  1
TABLESTYLE
  2
AcDbTableStyle
  3
ObjectDBX Classes
 90
2047
 91
1
280
0
281
0
  0
CLASS
  1
ACAD_TABLE
  2
AcDbTable
  3
ObjectDBX Classes
 90
1025
 91
3
280
0
281
1
  0
ENDSEC
  0
SECTION
  2
TABLES
  0
TABLE
  2
VPORT
  5
8
100
AcDbSymbolTable
 70
2
  0
VPORT
  5
1F4
100
AcDbSymbolTableRecord
100
AcDbViewportTableRecord
  2
*ACTIVE
 70
0
 10
0.0
 20
0.0
 11
1.0
 21
1.0
 12
11.0
 22
8.5
 13
0.0
 23
0.0
 14
1.0
 24
1.0
 15
0.0
 25
0.0
 16
0.0
 26
0.0
 36
1.0
 17
0.0
 27
0.0
 37
0.0
 40
17.0
 41
1.2941176471
 42
50.0
 43
0.0
 44
0.0
 50
0.0
 51
0.0
 71
0
 72
100
 73
1
 74
1
 75
0
 76
0
 77
0
 78
0
  0
ENDTAB
  0
TABLE
  2
LTYPE
  5
5
100
AcDbSymbolTable
 70
6
  0
LTYPE
  5
14
100
AcDbSymbolTableRecord
100
AcDbLinetypeTableRecord
  2
BYBLOCK
 70
0
  3

 72
65
 73
0
 40
0.0
  0
LTYPE
  5
15
100
AcDbSymbolTableRecord
100
AcDbLinetypeTableRecord
  2
BYLAYER
 70
0
  3

 72
65
 73
0
 40
0.0
  0
LTYPE
  5
16
100
AcDbSymbolTableRecord
100
AcDbLinetypeTableRecord
  2
CONTINUOUS
 70
64
  3
Solid line
 72
65
 73
0
 40
0.0
  0
LTYPE
  5
1F5
100
AcDbSymbolTableRecord
100
AcDbLinetypeTableRecord
  2
CENTER
 70
64
  3
____ _ ____ _ ____ _ ____ _ ____ _ ____ _ ____
 72
65
 73
4
 40
0.6
 49
0.375
 74
0
 49
-0.075
 74
0
 49
0.075
 74
0
 49
-0.075
 74
0
  0
LTYPE
  5
1F6
100
AcDbSymbolTableRecord
100
AcDbLinetypeTableRecord
  2
HIDDEN
 70
64
  3
- - - - - - - - - - - - - - - - - - - -
 72
65
 73
2
 40
0.2
 49
0.1
 74
0
 49
-0.1
 74
0
  0
LTYPE
  5
1F7
100
AcDbSymbolTableRecord
100
AcDbLinetypeTableRecord
  2
PHANTOM
 70
64
  3
_____ _ _ _____ _ _ _____ _ _ _____
 72
65
 73
6
 40
0.8
 49
0.45
 74
0
 49
-0.05
 74
0
 49
0.1
 74
0
 49
-0.05
 74
0
 49
0.1
 74
0
 49
-0.05
 74
0
  0
LTYPE
  5
1F8
100
AcDbSymbolTableRecord
100
AcDbLinetypeTableRecord
  2
DOT
 70
64
  3
. . . . . . . . . . . . . . . . . . . .
 72
65
 73
2
 40
0.2
 49
0.1
 74
0
 49
-0.1
 74
0
  0
LTYPE
  5
1F9
100
AcDbSymbolTableRecord
100
AcDbLinetypeTableRecord
  2
DASHED
 70
64
  3
- - - - - - - - - - - - - - - - - - - -
 72
65
 73
2
 40
0.2
 49
0.1
 74
0
 49
-0.1
 74
0
  0
ENDTAB
  0
TABLE
  2
LAYER
  5
2
100
AcDbSymbolTable
 70
36
  0
LAYER
  5
10
100
AcDbSymbolTableRecord
100
AcDbLayerTableRecord
  2
0
 70
0
 62
7
  6
CONTINUOUS
370
-3
390
F
  0
LAYER
  5
1FA
100
AcDbSymbolTableRecord
100
AcDbLayerTableRecord
  2
DEFAULT_1
 70
0
 62
7
  6
CENTER
370
-3
390
F
  0
LAYER
  5
1FB
100
AcDbSymbolTableRecord
100
AcDbLayerTableRecord
  2
DEFAULT_2
 70
0
 62
8
  6
HIDDEN
370
-3
390
F
  0
LAYER
  5
1FC
100
AcDbSymbolTableRecord
100
AcDbLayerTableRecord
  2
DEFAULT_3
 70
0
 62
7
  6
PHANTOM
370
-3
390
F
  0
LAYER
  5
1FD
100
AcDbSymbolTableRecord
100
AcDbLayerTableRecord
  2
01___PRT_ALL_DTM_PLN
 70
0
 62
7
  6
CONTINUOUS
370
-3
390
F
  0
LAYER
  5
1FE
100
AcDbSymbolTableRecord
100
AcDbLayerTableRecord
  2
01___PRT_DEF_DTM_PLN
 70
0
 62
7
  6
CONTINUOUS
370
-3
390
F
  0
LAYER
  5
1FF
100
AcDbSymbolTableRecord
100
AcDbLayerTableRecord
  2
02___PRT_ALL_AXES
 70
0
 62
7
  6
CONTINUOUS
370
-3
390
F
  0
LAYER
  5
200
100
AcDbSymbolTableRecord
100
AcDbLayerTableRecord
  2
03___PRT_ALL_CURVES
 70
0
 62
7
  6
CONTINUOUS
370
-3
390
F
  0
LAYER
  5
201
100
AcDbSymbolTableRecord
100
AcDbLayerTableRecord
  2
04___PRT_ALL_DTM_PNT
 70
0
 62
7
  6
CONTINUOUS
370
-3
390
F
  0
LAYER
  5
202
100
AcDbSymbolTableRecord
100
AcDbLayerTableRecord
  2
05___PRT_ALL_DTM_CSYS
 70
0
 62
7
  6
CONTINUOUS
370
-3
390
F
  0
LAYER
  5
203
100
AcDbSymbolTableRecord
100
AcDbLayerTableRecord
  2
05___PRT_DEF_DTM_CSYS
 70
0
 62
7
  6
CONTINUOUS
370
-3
390
F
  0
LAYER
  5
204
100
AcDbSymbolTableRecord
100
AcDbLayerTableRecord
  2
06___PRT_ALL_SURFS
 70
0
 62
7
  6
CONTINUOUS
370
-3
390
F
  0
LAYER
  5
205
100
AcDbSymbolTableRecord
100
AcDbLayerTableRecord
  2
DATUM_PLANES
 70
0
 62
7
  6
CONTINUOUS
370
-3
390
F
  0
LAYER
  5
206
100
AcDbSymbolTableRecord
100
AcDbLayerTableRecord
  2
PORT_AREAS
 70
0
 62
7
  6
CONTINUOUS
370
-3
390
F
  0
LAYER
  5
207
100
AcDbSymbolTableRecord
100
AcDbLayerTableRecord
  2
SUNNBOMCOSMETIC
 70
0
 62
7
  6
CONTINUOUS
370
-3
390
F
  0
LAYER
  5
208
100
AcDbSymbolTableRecord
100
AcDbLayerTableRecord
  2
SUNNBOMSTAMPING
 70
0
 62
7
  6
CONTINUOUS
370
-3
390
F
  0
LAYER
  5
209
100
AcDbSymbolTableRecord
100
AcDbLayerTableRecord
  2
THREADS
 70
0
 62
7
  6
CONTINUOUS
370
-3
390
F
  0
ENDTAB
  0
TABLE
  2
STYLE
  5
3
100
AcDbSymbolTable
 70
1
  0
STYLE
  5
11
100
AcDbSymbolTableRecord
100
AcDbTextStyleTableRecord
  2
STANDARD
 70
0
 40
0.0
 41
0.8
 50
0.0
 71
0
 42
0.2
  3
txt
  4

  0
STYLE
  5
20A
100
AcDbSymbolTableRecord
100
AcDbTextStyleTableRecord
  2
TEXTSTYLE_1
 70
0
 40
0.0
 41
0.8
 50
0.0
 71
0
 42
0.2
  3
gdt
  4

  0
ENDTAB
  0
TABLE
  2
VIEW
  5
6
100
AcDbSymbolTable
 70
0
  0
ENDTAB
  0
TABLE
  2
UCS
  5
7
100
AcDbSymbolTable
 70
0
  0
ENDTAB
  0
TABLE
  2
APPID
  5
9
100
AcDbSymbolTable
 70
1
  0
APPID
  5
20B
100
AcDbSymbolTableRecord
100
AcDbRegAppTableRecord
  2
ACAD
 70
0
  0
ENDTAB
  0
TABLE
  2
BLOCK_RECORD
  5
1
100
AcDbSymbolTable
 70
0
  0
BLOCK_RECORD
  5
20C
100
AcDbSymbolTableRecord
100
AcDbBlockTableRecord
  2
*Model_Space
  0
BLOCK_RECORD
  5
20D
100
AcDbSymbolTableRecord
100
AcDbBlockTableRecord
  2
*Paper_Space
  0
BLOCK_RECORD
  5
20E
100
AcDbSymbolTableRecord
100
AcDbBlockTableRecord
  2
SUN_FIRST_THIRD_ANGLE_BL0
  0
BLOCK_RECORD
  5
20F
100
AcDbSymbolTableRecord
100
AcDbBlockTableRecord
  2
*T1
  0
BLOCK_RECORD
  5
210
100
AcDbSymbolTableRecord
100
AcDbBlockTableRecord
  2
*T2
  0
BLOCK_RECORD
  5
211
100
AcDbSymbolTableRecord
100
AcDbBlockTableRecord
  2
*T3
  0
ENDTAB
  0
TABLE
  2
DIMSTYLE
  5
A
100
AcDbSymbolTable
 70
1
100
AcDbDimStyleTable
 71
0
  0
DIMSTYLE
105
212
100
AcDbSymbolTableRecord
100
AcDbDimStyleTableRecord
  2
STANDARD
 70
0
  3

  4

 40
1.0
 41
0.1875
 42
0.0625
 43
0.38
 44
0.125
 45
0.0
 46
0.0
 47
0.001
 48
0.001
140
0.1
141
0.09
142
0.0
143
25.4
144
1.0
145
0.0
146
1.0
147
0.09
 71
0.0
 72
0.0
 73
1
 74
1
 75
0
 76
0
 77
0
 78
4
170
0
171
2
172
0
173
0
174
0
175
0
176
0
177
0
178
0
270
2
271
3
272
3
273
2
274
2
275
0
280
0
281
0
282
0
283
1
284
4
285
0
286
0
287
3
288
0
340
11
278
46
  0
ENDTAB
  0
ENDSEC
  0
SECTION
  2
BLOCKS
  0
BLOCK
  5
20
100
AcDbEntity
  8
0
100
AcDbBlockBegin
  2
*Model_Space
 70
0
 10
0.0
 20
0.0
 30
0.0
  3
*Model_Space
  1

  0
ENDBLK
  5
21
100
AcDbEntity
  8
0
100
AcDbBlockEnd
  0
BLOCK
  5
1C
100
AcDbEntity
  8
0
100
AcDbBlockBegin
  2
*Paper_Space
 70
0
 10
0.0
 20
0.0
 30
0.0
  3
*Paper_Space
  1

  0
ENDBLK
  5
1D
100
AcDbEntity
  8
0
100
AcDbBlockEnd
  0
BLOCK
  5
213
100
AcDbEntity
  8
0
100
AcDbBlockBegin
 62
2
  6
CONTINUOUS
  2
SUN_FIRST_THIRD_ANGLE_BL0
 70
64
 10
20.4816717061
 20
1.2289683772
  3
SUN_FIRST_THIRD_ANGLE_BL0
  1

  0
TEXT
  5
214
100
AcDbEntity
  8
0
100
AcDbText
 62
2
  6
CONTINUOUS
 10
19.4750896608
 20
1.4136269581
  7
STANDARD
 40
0.08
  1
FIRST ANGLE
 41
0.8
 72
0
100
AcDbText
  0
TEXT
  5
215
100
AcDbEntity
  8
0
100
AcDbText
 62
2
  6
CONTINUOUS
 10
20.7842537513
 20
1.4047600029
  7
STANDARD
 40
0.08
  1
THIRD ANGLE
 41
0.8
 72
0
100
AcDbText
  0
LINE
  5
216
100
AcDbEntity
  8
0
100
AcDbLine
 62
7
  6
CONTINUOUS
 10
19.4767170086
 20
1.1727031207
 11
19.6334271527
 21
1.1717972817
  0
LINE
  5
217
100
AcDbEntity
  8
0
100
AcDbLine
 62
7
  6
CONTINUOUS
 10
19.6596964832
 20
1.1717972817
 11
19.6950230232
 21
1.171593082
  0
LINE
  5
218
100
AcDbEntity
  8
0
100
AcDbLine
 62
7
  6
CONTINUOUS
 10
19.7194818561
 20
1.1708914427
 11
19.8852396156
 21
1.1699333054
  0
LINE
  5
219
100
AcDbEntity
  8
0
100
AcDbLine
 62
7
  6
CONTINUOUS
 10
19.4758111696
 20
1.2723454088
 11
19.88525039
 21
1.3511534004
  0
LINE
  5
21A
100
AcDbEntity
  8
0
100
AcDbLine
 62
7
  6
CONTINUOUS
 10
19.88525039
 20
1.3511534004
 11
19.8831348489
 21
0.9851647912
  0
LINE
  5
21B
100
AcDbEntity
  8
0
100
AcDbLine
 62
7
  6
CONTINUOUS
 10
19.8831348489
 20
0.9851647912
 11
19.4767170086
 21
1.0658141206
  0
LINE
  5
21C
100
AcDbEntity
  8
0
100
AcDbLine
 62
7
  6
CONTINUOUS
 10
19.4767170086
 20
1.0658141206
 11
19.4779056764
 21
1.2714536432
  0
CIRCLE
  5
21D
100
AcDbEntity
  8
0
100
AcDbCircle
 62
7
  6
CONTINUOUS
 10
20.2068232291
 20
1.1717972817
 40
0.175742101
  0
CIRCLE
  5
21E
100
AcDbEntity
  8
0
100
AcDbCircle
 62
7
  6
CONTINUOUS
 10
20.2068232291
 20
1.1717972817
 40
0.1005522074
  0
LINE
  5
21F
100
AcDbEntity
  8
0
100
AcDbLine
 62
7
  6
CONTINUOUS
 10
20.2077290681
 20
1.3756110529
 11
20.2071171714
 21
1.2379342989
  0
LINE
  5
220
100
AcDbEntity
  8
0
100
AcDbLine
 62
7
  6
CONTINUOUS
 10
20.2077290681
 20
1.2016899681
 11
20.2074674401
 21
1.1428236749
  0
LINE
  5
221
100
AcDbEntity
  8
0
100
AcDbLine
 62
7
  6
CONTINUOUS
 10
20.208634907
 20
1.101141841
 11
20.2080230104
 21
0.963465087
  0
LINE
  5
222
100
AcDbEntity
  8
0
100
AcDbLine
 62
7
  6
CONTINUOUS
 10
20.0066328138
 20
1.1745147986
 11
20.1443095678
 21
1.1739029019
  0
LINE
  5
223
100
AcDbEntity
  8
0
100
AcDbLine
 62
7
  6
CONTINUOUS
 10
20.1832714155
 20
1.1727031207
 11
20.238153505
 21
1.172335442
  0
LINE
  5
224
100
AcDbEntity
  8
0
100
AcDbLine
 62
7
  6
CONTINUOUS
 10
20.2756669918
 20
1.1717972817
 11
20.407916871
 21
1.1712095044
  0
CIRCLE
  5
225
100
AcDbEntity
  8
0
100
AcDbCircle
 62
7
  6
CONTINUOUS
 10
20.7509457401
 20
1.1693297793
 40
0.1722024983
  0
CIRCLE
  5
226
100
AcDbEntity
  8
0
100
AcDbCircle
 62
7
  6
CONTINUOUS
 10
20.7509457401
 20
1.1693297793
 40
0.0985164967
  0
LINE
  5
227
100
AcDbEntity
  8
0
100
AcDbLine
 62
7
  6
CONTINUOUS
 10
20.7169767782
 20
1.170462078
 11
20.7825395137
 21
1.1682766535
  0
LINE
  5
228
100
AcDbEntity
  8
0
100
AcDbLine
 62
7
  6
CONTINUOUS
 10
20.8177513651
 20
1.1693297793
 11
20.947965719
 21
1.1693297793
  0
LINE
  5
229
100
AcDbEntity
  8
0
100
AcDbLine
 62
7
  6
CONTINUOUS
 10
20.6875370113
 20
1.170462078
 11
20.5573226574
 21
1.170462078
  0
LINE
  5
22A
100
AcDbEntity
  8
0
100
AcDbLine
 62
7
  6
CONTINUOUS
 10
20.7486811426
 20
1.1987695462
 11
20.7486811426
 21
1.1432869085
  0
LINE
  5
22B
100
AcDbEntity
  8
0
100
AcDbLine
 62
7
  6
CONTINUOUS
 10
20.7498134414
 20
1.1059210505
 11
20.7498134414
 21
0.9757066966
  0
LINE
  5
22C
100
AcDbEntity
  8
0
100
AcDbLine
 62
7
  6
CONTINUOUS
 10
20.7486811426
 20
1.2338708068
 11
20.7486811426
 21
1.3640851607
  0
LINE
  5
22D
100
AcDbEntity
  8
0
100
AcDbLine
 62
7
  6
CONTINUOUS
 10
21.0702539817
 20
1.2701043662
 11
21.4790138229
 21
1.3448360823
  0
LINE
  5
22E
100
AcDbEntity
  8
0
100
AcDbLine
 62
7
  6
CONTINUOUS
 10
21.4790138229
 20
1.3448360823
 11
21.4790138229
 21
0.9779712941
  0
LINE
  5
22F
100
AcDbEntity
  8
0
100
AcDbLine
 62
7
  6
CONTINUOUS
 10
21.4790138229
 20
0.9779712941
 11
21.069121683
 21
1.0617614
  0
LINE
  5
230
100
AcDbEntity
  8
0
100
AcDbLine
 62
7
  6
CONTINUOUS
 10
21.0702539817
 20
1.2701043662
 11
21.069121683
 21
1.0617614
  0
LINE
  5
231
100
AcDbEntity
  8
0
100
AcDbLine
 62
7
  6
CONTINUOUS
 10
21.4790138229
 20
1.1693297793
 11
21.3159628059
 21
1.1693297793
  0
LINE
  5
232
100
AcDbEntity
  8
0
100
AcDbLine
 62
7
  6
CONTINUOUS
 10
21.2876553377
 20
1.1693297793
 11
21.2502894796
 21
1.1693297793
  0
LINE
  5
233
100
AcDbEntity
  8
0
100
AcDbLine
 62
7
  6
CONTINUOUS
 10
21.2208497126
 20
1.1659328831
 11
21.0713862804
 21
1.1659328831
  0
LINE
  5
234
100
AcDbEntity
  8
0
100
AcDbLine
 62
7
  6
CONTINUOUS
 10
20.4796138713
 20
1.5284908897
 11
20.4766766948
 21
0.9294458646
  0
ENDBLK
  5
235
100
AcDbEntity
  8
0
  6
BYBLOCK
 62
0
100
AcDbBlockEnd
  0
BLOCK
  5
236
100
AcDbEntity
  8
0
100
AcDbBlockBegin
  2
*T1
 70
1
 10
0.0
 20
0.0
  3
*T1
  1

  0
LINE
  5
237
100
AcDbEntity
  8
0
100
AcDbLine
 62
2
  6
CONTINUOUS
 10
9.275
 20
0.0
 11
-0.0
 21
0.0
  0
LINE
  5
238
100
AcDbEntity
  8
0
100
AcDbLine
 62
2
  6
CONTINUOUS
 10
9.275
 20
0.0
 11
9.275
 21
1.25
  0
LINE
  5
239
100
AcDbEntity
  8
0
100
AcDbLine
 62
2
  6
CONTINUOUS
 10
9.275
 20
0.625
 11
-0.0
 21
0.625
  0
LINE
  5
23A
100
AcDbEntity
  8
0
100
AcDbLine
 62
2
  6
CONTINUOUS
 10
9.275
 20
1.25
 11
-0.0
 21
1.25
  0
LINE
  5
23B
100
AcDbEntity
  8
0
100
AcDbLine
 62
2
  6
CONTINUOUS
 10
6.8
 20
0.0
 11
6.8
 21
1.25
  0
LINE
  5
23C
100
AcDbEntity
  8
0
100
AcDbLine
 62
2
  6
CONTINUOUS
 10
6.4
 20
0.0
 11
6.4
 21
0.625
  0
LINE
  5
23D
100
AcDbEntity
  8
0
100
AcDbLine
 62
2
  6
CONTINUOUS
 10
5.9
 20
0.0
 11
5.9
 21
0.625
  0
LINE
  5
23E
100
AcDbEntity
  8
0
100
AcDbLine
 62
2
  6
CONTINUOUS
 10
5.2
 20
0.0
 11
5.2
 21
0.625
  0
LINE
  5
23F
100
AcDbEntity
  8
0
100
AcDbLine
 62
2
  6
CONTINUOUS
 10
4.1
 20
0.0
 11
4.1
 21
1.25
  0
LINE
  5
240
100
AcDbEntity
  8
0
100
AcDbLine
 62
2
  6
CONTINUOUS
 10
-0.0
 20
0.0
 11
-0.0
 21
1.25
  0
MTEXT
  5
241
100
AcDbEntity
  8
0
100
AcDbMText
 62
2
  6
CONTINUOUS
  7
STANDARD
 71
2
 72
1
 10
6.6
 20
0.325
 30
0.0
 11
1.0
 21
0.0
 31
0.0
 44
0.9
  1
2
 40
0.125
 41
0.2
  0
MTEXT
  5
242
100
AcDbEntity
  8
0
100
AcDbMText
 62
2
  6
CONTINUOUS
  7
STANDARD
 71
2
 72
1
 10
6.15
 20
0.325
 30
0.0
 11
1.0
 21
0.0
 31
0.0
 44
0.9
  1
C
 40
0.125
 41
0.2
  0
MTEXT
  5
243
100
AcDbEntity
  8
0
100
AcDbMText
 62
2
  6
CONTINUOUS
  7
STANDARD
 71
2
 72
1
 10
5.55
 20
0.325
 30
0.0
 11
1.0
 21
0.0
 31
0.0
 44
0.9
  1
1.000
 40
0.125
 41
1.0
  0
MTEXT
  5
244
100
AcDbEntity
  8
0
100
AcDbMText
 62
2
  6
CONTINUOUS
  7
STANDARD
 71
2
 72
1
 10
4.65
 20
0.325
 30
0.0
 11
1.0
 21
0.0
 31
0.0
 44
0.9
  1
Nov-10-23
 40
0.125
 41
1.8
  0
MTEXT
  5
245
100
AcDbEntity
  8
0
100
AcDbMText
 62
2
  6
CONTINUOUS
  7
STANDARD
 71
2
 72
1
 10
2.05
 20
0.4625
 30
0.0
 11
1.0
 21
0.0
 31
0.0
 44
0.9
  1
T-16A Line mount\PNinety degree with reverse flow check
 40
0.125
 41
7.4
  0
MTEXT
  5
246
100
AcDbEntity
  8
0
100
AcDbMText
 62
2
  6
CONTINUOUS
  7
STANDARD
 71
1
 72
1
 10
6.45
 20
0.5625
 30
0.0
 11
1.0
 21
0.0
 31
0.0
 44
0.9
  1
SHEET
 40
0.06
 41
0.48
  0
MTEXT
  5
247
100
AcDbEntity
  8
0
100
AcDbMText
 62
2
  6
CONTINUOUS
  7
STANDARD
 71
1
 72
1
 10
5.95
 20
0.5625
 30
0.0
 11
1.0
 21
0.0
 31
0.0
 44
0.9
  1
DWG SIZE
 40
0.06
 41
0.768
  0
MTEXT
  5
248
100
AcDbEntity
  8
0
100
AcDbMText
 62
2
  6
CONTINUOUS
  7
STANDARD
 71
1
 72
1
 10
5.25
 20
0.5625
 30
0.0
 11
1.0
 21
0.0
 31
0.0
 44
0.9
  1
SCALE
 40
0.06
 41
0.48
  0
MTEXT
  5
249
100
AcDbEntity
  8
0
100
AcDbMText
 62
2
  6
CONTINUOUS
  7
STANDARD
 71
1
 72
1
 10
4.15
 20
0.5625
 30
0.0
 11
1.0
 21
0.0
 31
0.0
 44
0.9
  1
DATE
 40
0.06
 41
0.384
  0
MTEXT
  5
24A
100
AcDbEntity
  8
0
100
AcDbMText
 62
2
  6
CONTINUOUS
  7
STANDARD
 71
1
 72
1
 10
0.05
 20
0.5625
 30
0.0
 11
1.0
 21
0.0
 31
0.0
 44
0.9
  1
DESCRIPTION
 40
0.06
 41
1.056
  0
MTEXT
  5
24B
100
AcDbEntity
  8
0
100
AcDbMText
 62
2
  6
CONTINUOUS
  7
STANDARD
 71
2
 72
1
 10
5.45
 20
1.0375
 30
0.0
 11
1.0
 21
0.0
 31
0.0
 44
0.9
  1
ALL DIMENSIONS IN INCH\PVIEWS ARE THIRD ANGLE
 40
0.12
 41
4.224
  0
MTEXT
  5
24C
100
AcDbEntity
  8
0
100
AcDbMText
 62
2
  6
CONTINUOUS
  7
STANDARD
 71
2
 72
1
 10
2.05
 20
0.95
 30
0.0
 11
1.0
 21
0.0
 31
0.0
 44
0.9
  1
IN4
 40
0.125
 41
0.6
  0
MTEXT
  5
24D
100
AcDbEntity
  8
0
100
AcDbMText
 62
2
  6
CONTINUOUS
  7
STANDARD
 71
1
 72
1
 10
0.05
 20
1.1875
 30
0.0
 11
1.0
 21
0.0
 31
0.0
 44
0.9
  1
MODEL
 40
0.06
 41
0.48
  0
ENDBLK
  5
24E
100
AcDbEntity
  8
0
  6
BYBLOCK
 62
0
100
AcDbBlockEnd
  0
BLOCK
  5
24F
100
AcDbEntity
  8
0
100
AcDbBlockBegin
  2
*T2
 70
1
 10
0.0
 20
0.0
  3
*T2
  1

  0
LINE
  5
250
100
AcDbEntity
  8
0
100
AcDbLine
 62
2
  6
CONTINUOUS
 10
0.0
 20
0.0
 11
9.055
 21
0.0
  0
LINE
  5
251
100
AcDbEntity
  8
0
100
AcDbLine
 62
2
  6
CONTINUOUS
 10
0.0
 20
0.0
 11
0.0
 21
-2.844
  0
LINE
  5
252
100
AcDbEntity
  8
0
100
AcDbLine
 62
2
  6
CONTINUOUS
 10
0.0
 20
-0.344
 11
9.055
 21
-0.344
  0
LINE
  5
253
100
AcDbEntity
  8
0
100
AcDbLine
 62
2
  6
CONTINUOUS
 10
0.0
 20
-0.594
 11
9.055
 21
-0.594
  0
LINE
  5
254
100
AcDbEntity
  8
0
100
AcDbLine
 62
2
  6
CONTINUOUS
 10
0.0
 20
-0.844
 11
9.055
 21
-0.844
  0
LINE
  5
255
100
AcDbEntity
  8
0
100
AcDbLine
 62
2
  6
CONTINUOUS
 10
0.0
 20
-1.094
 11
9.055
 21
-1.094
  0
LINE
  5
256
100
AcDbEntity
  8
0
100
AcDbLine
 62
2
  6
CONTINUOUS
 10
0.0
 20
-1.344
 11
9.055
 21
-1.344
  0
LINE
  5
257
100
AcDbEntity
  8
0
100
AcDbLine
 62
2
  6
CONTINUOUS
 10
0.0
 20
-1.594
 11
9.055
 21
-1.594
  0
LINE
  5
258
100
AcDbEntity
  8
0
100
AcDbLine
 62
2
  6
CONTINUOUS
 10
0.0
 20
-1.844
 11
9.055
 21
-1.844
  0
LINE
  5
259
100
AcDbEntity
  8
0
100
AcDbLine
 62
2
  6
CONTINUOUS
 10
0.0
 20
-2.094
 11
9.055
 21
-2.094
  0
LINE
  5
25A
100
AcDbEntity
  8
0
100
AcDbLine
 62
2
  6
CONTINUOUS
 10
0.0
 20
-2.344
 11
9.055
 21
-2.344
  0
LINE
  5
25B
100
AcDbEntity
  8
0
100
AcDbLine
 62
2
  6
CONTINUOUS
 10
0.0
 20
-2.594
 11
9.055
 21
-2.594
  0
LINE
  5
25C
100
AcDbEntity
  8
0
100
AcDbLine
 62
2
  6
CONTINUOUS
 10
0.0
 20
-2.844
 11
9.055
 21
-2.844
  0
LINE
  5
25D
100
AcDbEntity
  8
0
100
AcDbLine
 62
2
  6
CONTINUOUS
 10
3.055
 20
0.0
 11
3.055
 21
-2.844
  0
LINE
  5
25E
100
AcDbEntity
  8
0
100
AcDbLine
 62
2
  6
CONTINUOUS
 10
9.055
 20
0.0
 11
9.055
 21
-2.844
  0
MTEXT
  5
25F
100
AcDbEntity
  8
0
100
AcDbMText
 62
2
  6
CONTINUOUS
  7
STANDARD
 71
2
 72
1
 10
1.5275
 20
-0.0995
 30
0.0
 11
1.0
 21
0.0
 31
0.0
 44
0.9
  1
Technical Data
 40
0.145
 41
3.248
  0
MTEXT
  5
260
100
AcDbEntity
  8
0
100
AcDbMText
 62
2
  6
CONTINUOUS
  7
STANDARD
 71
2
 72
1
 10
4.555
 20
-0.0995
 30
0.0
 11
1.0
 21
0.0
 31
0.0
 44
0.9
  1
U.S. Units
 40
0.145
 41
2.32
  0
MTEXT
  5
261
100
AcDbEntity
  8
0
100
AcDbMText
 62
2
  6
CONTINUOUS
  7
STANDARD
 71
2
 72
1
 10
7.555
 20
-0.0995
 30
0.0
 11
1.0
 21
0.0
 31
0.0
 44
0.9
  1
Metric Units
 40
0.145
 41
2.784
  0
MTEXT
  5
262
100
AcDbEntity
  8
0
100
AcDbMText
 62
2
  6
CONTINUOUS
  7
STANDARD
 71
2
 72
1
 10
1.5275
 20
-0.4065
 30
0.0
 11
1.0
 21
0.0
 31
0.0
 44
0.9
  1
Cavity
 40
0.125
 41
1.2
  0
MTEXT
  5
263
100
AcDbEntity
  8
0
100
AcDbMText
 62
2
  6
CONTINUOUS
  7
STANDARD
 71
2
 72
1
 10
6.055
 20
-0.4065
 30
0.0
 11
1.0
 21
0.0
 31
0.0
 44
0.9
  1
T-16A
 40
0.125
 41
1.0
  0
MTEXT
  5
264
100
AcDbEntity
  8
0
100
AcDbMText
 62
2
  6
CONTINUOUS
  7
STANDARD
 71
2
 72
1
 10
1.5275
 20
-0.6565
 30
0.0
 11
1.0
 21
0.0
 31
0.0
 44
0.9
  1
Body Features
 40
0.125
 41
2.6
  0
MTEXT
  5
265
100
AcDbEntity
  8
0
100
AcDbMText
 62
2
  6
CONTINUOUS
  7
STANDARD
 71
2
 72
1
 10
6.055
 20
-0.6565
 30
0.0
 11
1.0
 21
0.0
 31
0.0
 44
0.9
  1
Ninety degree with reverse flow check
 40
0.125
 41
7.4
  0
MTEXT
  5
266
100
AcDbEntity
  8
0
100
AcDbMText
 62
2
  6
CONTINUOUS
  7
STANDARD
 71
2
 72
1
 10
1.5275
 20
-0.9065
 30
0.0
 11
1.0
 21
0.0
 31
0.0
 44
0.9
  1
Body Type
 40
0.125
 41
1.8
  0
MTEXT
  5
267
100
AcDbEntity
  8
0
100
AcDbMText
 62
2
  6
CONTINUOUS
  7
STANDARD
 71
2
 72
1
 10
6.055
 20
-0.9065
 30
0.0
 11
1.0
 21
0.0
 31
0.0
 44
0.9
  1
Line mount
 40
0.125
 41
2.0
  0
MTEXT
  5
268
100
AcDbEntity
  8
0
100
AcDbMText
 62
2
  6
CONTINUOUS
  7
STANDARD
 71
2
 72
1
 10
1.5275
 20
-1.1565
 30
0.0
 11
1.0
 21
0.0
 31
0.0
 44
0.9
  1
Interface
 40
0.125
 41
1.8
  0
MTEXT
  5
269
100
AcDbEntity
  8
0
100
AcDbMText
 62
2
  6
CONTINUOUS
  7
STANDARD
 71
2
 72
1
 10
6.055
 20
-1.1565
 30
0.0
 11
1.0
 21
0.0
 31
0.0
 44
0.9
  1
None
 40
0.125
 41
0.8
  0
MTEXT
  5
26A
100
AcDbEntity
  8
0
100
AcDbMText
 62
2
  6
CONTINUOUS
  7
STANDARD
 71
2
 72
1
 10
1.5275
 20
-1.4065
 30
0.0
 11
1.0
 21
0.0
 31
0.0
 44
0.9
  1
Open Cavity Quantity
 40
0.125
 41
4.0
  0
MTEXT
  5
26B
100
AcDbEntity
  8
0
100
AcDbMText
 62
2
  6
CONTINUOUS
  7
STANDARD
 71
2
 72
1
 10
6.055
 20
-1.4065
 30
0.0
 11
1.0
 21
0.0
 31
0.0
 44
0.9
  1
1
 40
0.125
 41
0.2
  0
MTEXT
  5
26C
100
AcDbEntity
  8
0
100
AcDbMText
 62
2
  6
CONTINUOUS
  7
STANDARD
 71
2
 72
1
 10
1.5275
 20
-1.6565
 30
0.0
 11
1.0
 21
0.0
 31
0.0
 44
0.9
  1
Weight
 40
0.125
 41
1.2
  0
MTEXT
  5
26D
100
AcDbEntity
  8
0
100
AcDbMText
 62
2
  6
CONTINUOUS
  7
STANDARD
 71
2
 72
1
 10
4.555
 20
-1.6565
 30
0.0
 11
1.0
 21
0.0
 31
0.0
 44
0.9
  1
6.993 lb.
 40
0.125
 41
1.8
  0
MTEXT
  5
26E
100
AcDbEntity
  8
0
100
AcDbMText
 62
2
  6
CONTINUOUS
  7
STANDARD
 71
2
 72
1
 10
7.555
 20
-1.6565
 30
0.0
 11
1.0
 21
0.0
 31
0.0
 44
0.9
  1
3,172 kg.
 40
0.125
 41
1.8
  0
MTEXT
  5
26F
100
AcDbEntity
  8
0
100
AcDbMText
 62
2
  6
CONTINUOUS
  7
STANDARD
 71
2
 72
1
 10
1.5275
 20
-1.9065
 30
0.0
 11
1.0
 21
0.0
 31
0.0
 44
0.9
  1
Mounting Hole Thread
 40
0.125
 41
4.0
  0
MTEXT
  5
270
100
AcDbEntity
  8
0
100
AcDbMText
 62
2
  6
CONTINUOUS
  7
STANDARD
 71
2
 72
1
 10
6.055
 20
-1.9065
 30
0.0
 11
1.0
 21
0.0
 31
0.0
 44
0.9
  1
.375-16 UNC - 2B in.
 40
0.125
 41
4.0
  0
MTEXT
  5
271
100
AcDbEntity
  8
0
100
AcDbMText
 62
2
  6
CONTINUOUS
  7
STANDARD
 71
2
 72
1
 10
1.5275
 20
-2.1565
 30
0.0
 11
1.0
 21
0.0
 31
0.0
 44
0.9
  1
Mounting Hole Depth
 40
0.125
 41
3.8
  0
MTEXT
  5
272
100
AcDbEntity
  8
0
100
AcDbMText
 62
2
  6
CONTINUOUS
  7
STANDARD
 71
2
 72
1
 10
4.555
 20
-2.1565
 30
0.0
 11
1.0
 21
0.0
 31
0.0
 44
0.9
  1
.62 in.
 40
0.125
 41
1.4
  0
MTEXT
  5
273
100
AcDbEntity
  8
0
100
AcDbMText
 62
2
  6
CONTINUOUS
  7
STANDARD
 71
2
 72
1
 10
7.555
 20
-2.1565
 30
0.0
 11
1.0
 21
0.0
 31
0.0
 44
0.9
  1
15,7 mm
 40
0.125
 41
1.4
  0
MTEXT
  5
274
100
AcDbEntity
  8
0
100
AcDbMText
 62
2
  6
CONTINUOUS
  7
STANDARD
 71
2
 72
1
 10
1.5275
 20
-2.4065
 30
0.0
 11
1.0
 21
0.0
 31
0.0
 44
0.9
  1
Mounting Hole Quantity
 40
0.125
 41
4.4
  0
MTEXT
  5
275
100
AcDbEntity
  8
0
100
AcDbMText
 62
2
  6
CONTINUOUS
  7
STANDARD
 71
2
 72
1
 10
6.055
 20
-2.4065
 30
0.0
 11
1.0
 21
0.0
 31
0.0
 44
0.9
  1
2
 40
0.125
 41
0.2
  0
MTEXT
  5
276
100
AcDbEntity
  8
0
100
AcDbMText
 62
2
  6
CONTINUOUS
  7
STANDARD
 71
2
 72
1
 10
1.5275
 20
-2.6565
 30
0.0
 11
1.0
 21
0.0
 31
0.0
 44
0.9
  1
Includes integral cartridge(s)
 40
0.125
 41
6.0
  0
MTEXT
  5
277
100
AcDbEntity
  8
0
100
AcDbMText
 62
2
  6
CONTINUOUS
  7
STANDARD
 71
2
 72
1
 10
6.055
 20
-2.6565
 30
0.0
 11
1.0
 21
0.0
 31
0.0
 44
0.9
  1
Yes (see Included Components)
 40
0.125
 41
5.8
  0
ENDBLK
  5
278
100
AcDbEntity
  8
0
  6
BYBLOCK
 62
0
100
AcDbBlockEnd
  0
BLOCK
  5
279
100
AcDbEntity
  8
0
100
AcDbBlockBegin
  2
*T3
 70
1
 10
0.0
 20
0.0
  3
*T3
  1

  0
LINE
  5
27A
100
AcDbEntity
  8
0
100
AcDbLine
 62
2
  6
CONTINUOUS
 10
0.0
 20
0.0
 11
4.6
 21
0.0
  0
LINE
  5
27B
100
AcDbEntity
  8
0
100
AcDbLine
 62
2
  6
CONTINUOUS
 10
0.0
 20
0.0
 11
0.0
 21
-1.18775
  0
LINE
  5
27C
100
AcDbEntity
  8
0
100
AcDbLine
 62
2
  6
CONTINUOUS
 10
0.0
 20
-0.34375
 11
4.6
 21
-0.34375
  0
LINE
  5
27D
100
AcDbEntity
  8
0
100
AcDbLine
 62
2
  6
CONTINUOUS
 10
0.0
 20
-0.68775
 11
4.6
 21
-0.68775
  0
LINE
  5
27E
100
AcDbEntity
  8
0
100
AcDbLine
 62
2
  6
CONTINUOUS
 10
0.0
 20
-0.93775
 11
4.6
 21
-0.93775
  0
LINE
  5
27F
100
AcDbEntity
  8
0
100
AcDbLine
 62
2
  6
CONTINUOUS
 10
0.0
 20
-1.18775
 11
4.6
 21
-1.18775
  0
LINE
  5
280
100
AcDbEntity
  8
0
100
AcDbLine
 62
2
  6
CONTINUOUS
 10
1.3
 20
-0.34375
 11
1.3
 21
-1.18775
  0
LINE
  5
281
100
AcDbEntity
  8
0
100
AcDbLine
 62
2
  6
CONTINUOUS
 10
3.3
 20
-0.34375
 11
3.3
 21
-1.18775
  0
LINE
  5
282
100
AcDbEntity
  8
0
100
AcDbLine
 62
2
  6
CONTINUOUS
 10
4.6
 20
0.0
 11
4.6
 21
-1.18775
  0
MTEXT
  5
283
100
AcDbEntity
  8
0
100
AcDbMText
 62
2
  6
CONTINUOUS
  7
STANDARD
 71
2
 72
1
 10
2.3
 20
-0.099375
 30
0.0
 11
1.0
 21
0.0
 31
0.0
 44
0.9
  1
Port Headings
 40
0.145
 41
3.016
  0
MTEXT
  5
284
100
AcDbEntity
  8
0
100
AcDbMText
 62
2
  6
CONTINUOUS
  7
STANDARD
 71
2
 72
1
 10
0.65
 20
-0.44325
 30
0.0
 11
1.0
 21
0.0
 31
0.0
 44
0.9
  1
Product
 40
0.145
 41
1.624
  0
MTEXT
  5
285
100
AcDbEntity
  8
0
100
AcDbMText
 62
2
  6
CONTINUOUS
  7
STANDARD
 71
2
 72
1
 10
2.3
 20
-0.44325
 30
0.0
 11
1.0
 21
0.0
 31
0.0
 44
0.9
  1
Port
 40
0.145
 41
0.928
  0
MTEXT
  5
286
100
AcDbEntity
  8
0
100
AcDbMText
 62
2
  6
CONTINUOUS
  7
STANDARD
 71
2
 72
1
 10
3.95
 20
-0.44325
 30
0.0
 11
1.0
 21
0.0
 31
0.0
 44
0.9
  1
Size
 40
0.145
 41
0.928
  0
MTEXT
  5
287
100
AcDbEntity
  8
0
100
AcDbMText
 62
2
  6
CONTINUOUS
  7
STANDARD
 71
2
 72
1
 10
0.65
 20
-0.75025
 30
0.0
 11
1.0
 21
0.0
 31
0.0
 44
0.9
  1
IN4
 40
0.125
 41
0.6
  0
MTEXT
  5
288
100
AcDbEntity
  8
0
100
AcDbMText
 62
2
  6
CONTINUOUS
  7
STANDARD
 71
2
 72
1
 10
2.3
 20
-0.75025
 30
0.0
 11
1.0
 21
0.0
 31
0.0
 44
0.9
  1
Ports 1 &  2
 40
0.125
 41
2.4
  0
MTEXT
  5
289
100
AcDbEntity
  8
0
100
AcDbMText
 62
2
  6
CONTINUOUS
  7
STANDARD
 71
2
 72
1
 10
3.95
 20
-0.75025
 30
0.0
 11
1.0
 21
0.0
 31
0.0
 44
0.9
  1
1" Code 62
 40
0.125
 41
2.0
  0
MTEXT
  5
28A
100
AcDbEntity
  8
0
100
AcDbMText
 62
2
  6
CONTINUOUS
  7
STANDARD
 71
2
 72
1
 10
0.65
 20
-1.00025
 30
0.0
 11
1.0
 21
0.0
 31
0.0
 44
0.9
  1
IN4
 40
0.125
 41
0.6
  0
MTEXT
  5
28B
100
AcDbEntity
  8
0
100
AcDbMText
 62
2
  6
CONTINUOUS
  7
STANDARD
 71
2
 72
1
 10
2.3
 20
-1.00025
 30
0.0
 11
1.0
 21
0.0
 31
0.0
 44
0.9
  1
Gage Port
 40
0.125
 41
1.8
  0
MTEXT
  5
28C
100
AcDbEntity
  8
0
100
AcDbMText
 62
2
  6
CONTINUOUS
  7
STANDARD
 71
2
 72
1
 10
3.95
 20
-1.00025
 30
0.0
 11
1.0
 21
0.0
 31
0.0
 44
0.9
  1
1/4" NPTF
 40
0.125
 41
1.8
  0
ENDBLK
  5
28D
100
AcDbEntity
  8
0
  6
BYBLOCK
 62
0
100
AcDbBlockEnd
  0
ENDSEC
  0
SECTION
  2
ENTITIES
  0
IMAGE
  5
28E
100
AcDbEntity
  8
0
100
AcDbRasterImage
 62
7
  6
CONTINUOUS
 10
19.2297077316
 20
0.3094318264
 30
0.0
 11
0.0066666667
 21
0.0
 31
0.0
 12
0.0
 22
0.0066666667
 32
0.0
 13
369.0
 23
92.0
340
       37E
 70
9
280
0
281
50
282
50
283
0
360
       378
 71
1
 91
2
 14
-0.5
 24
-0.5
 14
368.5
 24
91.5
  0
INSERT
  5
28F
100
AcDbEntity
  8
0
100
AcDbBlockReference
 62
2
  6
CONTINUOUS
  2
SUN_FIRST_THIRD_ANGLE_BL0
 10
20.4816717061
 20
1.2289683772
  0
ACAD_TABLE
  5
290
100
AcDbEntity
  8
0
 62
2
  6
CONTINUOUS
100
AcDbBlockReference
  2
*T1
 10
12.42375
 20
0.30125
 30
0.0
100
AcDbTable
342
       380
343
20F
 11
1.0
 21
0.0
 31
0.0
 90
6
 91
4
 92
6
 93
20
 94
0
 95
0
 96
0
 70
1
 41
0.0
141
0.525
141
0.1
141
0.525
141
0.1
142
4.1
142
1.1
142
0.7
142
0.5
142
0.4
142
2.475
171
1
172
0
173
0
174
0
175
1
176
1
 91
33
178
0
145
0.0
301
CELL_VALUE
 90
4
  1
T-16A Line mount\PNinety degree with reverse flow check
304
ACVALUE_END
170
2
140
0.125
171
1
172
0
173
0
174
0
175
1
176
1
 91
33
178
0
145
0.0
301
CELL_VALUE
 90
4
  1
Nov-10-23
304
ACVALUE_END
170
5
140
0.125
171
1
172
0
173
0
174
0
175
1
176
1
 91
33
178
0
145
0.0
301
CELL_VALUE
 90
4
  1
1.000
304
ACVALUE_END
170
5
140
0.125
171
1
172
0
173
0
174
0
175
1
176
1
 91
33
178
0
145
0.0
301
CELL_VALUE
 90
4
  1
C
304
ACVALUE_END
170
5
140
0.125
171
1
172
0
173
0
174
0
175
1
176
1
 91
33
178
0
145
0.0
301
CELL_VALUE
 90
4
  1
2
304
ACVALUE_END
170
5
140
0.125
171
1
172
0
173
0
174
0
175
1
176
1
 91
33
178
0
145
0.0
301
CELL_VALUE
 90
4
  1
 
304
ACVALUE_END
170
1
140
0.125
171
1
172
0
173
0
174
0
175
1
176
1
 91
33
178
0
145
0.0
301
CELL_VALUE
 90
4
  1
DESCRIPTION
304
ACVALUE_END
170
1
140
0.06
171
1
172
0
173
0
174
0
175
1
176
1
 91
33
178
0
145
0.0
301
CELL_VALUE
 90
4
  1
DATE
304
ACVALUE_END
170
1
140
0.06
171
1
172
0
173
0
174
0
175
1
176
1
 91
33
178
0
145
0.0
301
CELL_VALUE
 90
4
  1
SCALE
304
ACVALUE_END
170
1
140
0.06
171
1
172
0
173
0
174
0
175
1
176
1
 91
33
178
0
145
0.0
301
CELL_VALUE
 90
4
  1
DWG SIZE
304
ACVALUE_END
170
1
140
0.06
171
1
172
0
173
0
174
0
175
1
176
1
 91
33
178
0
145
0.0
301
CELL_VALUE
 90
4
  1
SHEET
304
ACVALUE_END
170
1
140
0.06
171
1
172
0
173
0
174
0
175
1
176
1
 91
33
178
0
145
0.0
301
CELL_VALUE
 90
4
  1
 
304
ACVALUE_END
170
1
140
0.125
171
1
172
0
173
0
174
0
175
1
176
1
 91
33
178
0
145
0.0
301
CELL_VALUE
 90
4
  1
IN4
304
ACVALUE_END
170
5
140
0.125
171
1
172
0
173
0
174
0
175
4
176
1
 91
33
178
0
145
0.0
301
CELL_VALUE
 90
4
  1
ALL DIMENSIONS IN INCH\PVIEWS ARE THIRD ANGLE
304
ACVALUE_END
170
5
140
0.12
171
1
172
0
173
1
174
0
175
1
176
1
 91
1
178
0
145
0.0
170
1
171
1
172
0
173
1
174
0
175
1
176
1
 91
1
178
0
145
0.0
170
1
171
1
172
0
173
1
174
0
175
1
176
1
 91
1
178
0
145
0.0
170
5
171
1
172
0
173
0
174
0
175
1
176
1
 91
33
178
0
145
0.0
301
CELL_VALUE
 90
4
  1
 
304
ACVALUE_END
170
1
140
0.125
171
1
172
0
173
0
174
0
175
1
176
1
 91
33
178
0
145
0.0
301
CELL_VALUE
 90
4
  1
MODEL
304
ACVALUE_END
170
1
140
0.06
171
1
172
0
173
0
174
0
175
1
176
1
 91
33
178
0
145
0.0
301
CELL_VALUE
 90
4
  1
 
304
ACVALUE_END
170
1
140
0.125
171
1
172
0
173
0
174
0
175
1
176
1
 91
33
178
0
145
0.0
301
CELL_VALUE
 90
4
  1
 
304
ACVALUE_END
170
1
140
0.125
171
1
172
0
173
0
174
0
175
1
176
1
 91
33
178
0
145
0.0
301
CELL_VALUE
 90
4
  1
 
304
ACVALUE_END
170
1
140
0.125
171
1
172
0
173
0
174
0
175
1
176
1
 91
33
178
0
145
0.0
301
CELL_VALUE
 90
4
  1
 
304
ACVALUE_END
170
1
140
0.125
171
1
172
0
173
0
174
0
175
1
176
1
 91
33
178
0
145
0.0
301
CELL_VALUE
 90
4
  1
 
304
ACVALUE_END
170
1
140
0.125
  0
ACAD_TABLE
  5
291
100
AcDbEntity
  8
0
 62
2
  6
CONTINUOUS
100
AcDbBlockReference
  2
*T2
 10
12.4237499994
 20
16.47875
 30
0.0
100
AcDbTable
342
       37F
343
210
 11
1.0
 21
0.0
 31
0.0
 90
22
 91
11
 92
3
 93
16
 94
0
 95
0
 96
0
 41
0.028
141
0.344
141
0.25
141
0.25
141
0.25
141
0.25
141
0.25
141
0.25
141
0.25
141
0.25
141
0.25
141
0.25
142
3.055
142
3.0
142
3.0
171
1
172
0
173
0
174
0
175
1
176
1
 91
33
178
0
145
0.0
301
CELL_VALUE
 90
4
  1
Technical Data
304
ACVALUE_END
170
5
140
0.145
171
1
172
0
173
0
174
0
175
1
176
1
 91
33
178
0
145
0.0
301
CELL_VALUE
 90
4
  1
U.S. Units
304
ACVALUE_END
170
5
140
0.145
171
1
172
0
173
0
174
0
175
1
176
1
 91
33
178
0
145
0.0
301
CELL_VALUE
 90
4
  1
Metric Units
304
ACVALUE_END
170
5
140
0.145
171
1
172
0
173
0
174
0
175
1
176
1
 91
33
178
0
145
0.0
301
CELL_VALUE
 90
4
  1
Cavity
304
ACVALUE_END
170
5
140
0.125
171
1
172
0
173
0
174
0
175
2
176
1
 91
33
178
0
145
0.0
301
CELL_VALUE
 90
4
  1
T-16A
304
ACVALUE_END
170
5
140
0.125
171
1
172
0
173
1
174
0
175
1
176
1
 91
1
178
0
145
0.0
170
1
171
1
172
0
173
0
174
0
175
1
176
1
 91
33
178
0
145
0.0
301
CELL_VALUE
 90
4
  1
Body Features
304
ACVALUE_END
170
5
140
0.125
171
1
172
0
173
0
174
0
175
2
176
1
 91
33
178
0
145
0.0
301
CELL_VALUE
 90
4
  1
Ninety degree with reverse flow check
304
ACVALUE_END
170
5
140
0.125
171
1
172
0
173
1
174
0
175
1
176
1
 91
1
178
0
145
0.0
170
1
171
1
172
0
173
0
174
0
175
1
176
1
 91
33
178
0
145
0.0
301
CELL_VALUE
 90
4
  1
Body Type
304
ACVALUE_END
170
5
140
0.125
171
1
172
0
173
0
174
0
175
2
176
1
 91
33
178
0
145
0.0
301
CELL_VALUE
 90
4
  1
Line mount
304
ACVALUE_END
170
5
140
0.125
171
1
172
0
173
1
174
0
175
1
176
1
 91
1
178
0
145
0.0
170
1
171
1
172
0
173
0
174
0
175
1
176
1
 91
33
178
0
145
0.0
301
CELL_VALUE
 90
4
  1
Interface
304
ACVALUE_END
170
5
140
0.125
171
1
172
0
173
0
174
0
175
2
176
1
 91
33
178
0
145
0.0
301
CELL_VALUE
 90
4
  1
None
304
ACVALUE_END
170
5
140
0.125
171
1
172
0
173
1
174
0
175
1
176
1
 91
1
178
0
145
0.0
170
1
171
1
172
0
173
0
174
0
175
1
176
1
 91
33
178
0
145
0.0
301
CELL_VALUE
 90
4
  1
Open Cavity Quantity
304
ACVALUE_END
170
5
140
0.125
171
1
172
0
173
0
174
0
175
2
176
1
 91
33
178
0
145
0.0
301
CELL_VALUE
 90
4
  1
1
304
ACVALUE_END
170
5
140
0.125
171
1
172
0
173
1
174
0
175
1
176
1
 91
1
178
0
145
0.0
170
1
171
1
172
0
173
0
174
0
175
1
176
1
 91
33
178
0
145
0.0
301
CELL_VALUE
 90
4
  1
Weight
304
ACVALUE_END
170
5
140
0.125
171
1
172
0
173
0
174
0
175
1
176
1
 91
33
178
0
145
0.0
301
CELL_VALUE
 90
4
  1
6.993 lb.
304
ACVALUE_END
170
5
140
0.125
171
1
172
0
173
0
174
0
175
1
176
1
 91
33
178
0
145
0.0
301
CELL_VALUE
 90
4
  1
3,172 kg.
304
ACVALUE_END
170
5
140
0.125
171
1
172
0
173
0
174
0
175
1
176
1
 91
33
178
0
145
0.0
301
CELL_VALUE
 90
4
  1
Mounting Hole Thread
304
ACVALUE_END
170
5
140
0.125
171
1
172
0
173
0
174
0
175
2
176
1
 91
33
178
0
145
0.0
301
CELL_VALUE
 90
4
  1
.375-16 UNC - 2B in.
304
ACVALUE_END
170
5
140
0.125
171
1
172
0
173
1
174
0
175
1
176
1
 91
1
178
0
145
0.0
170
1
171
1
172
0
173
0
174
0
175
1
176
1
 91
33
178
0
145
0.0
301
CELL_VALUE
 90
4
  1
Mounting Hole Depth
304
ACVALUE_END
170
5
140
0.125
171
1
172
0
173
0
174
0
175
1
176
1
 91
33
178
0
145
0.0
301
CELL_VALUE
 90
4
  1
.62 in.
304
ACVALUE_END
170
5
140
0.125
171
1
172
0
173
0
174
0
175
1
176
1
 91
33
178
0
145
0.0
301
CELL_VALUE
 90
4
  1
15,7 mm
304
ACVALUE_END
170
5
140
0.125
171
1
172
0
173
0
174
0
175
1
176
1
 91
33
178
0
145
0.0
301
CELL_VALUE
 90
4
  1
Mounting Hole Quantity
304
ACVALUE_END
170
5
140
0.125
171
1
172
0
173
0
174
0
175
2
176
1
 91
33
178
0
145
0.0
301
CELL_VALUE
 90
4
  1
2
304
ACVALUE_END
170
5
140
0.125
171
1
172
0
173
1
174
0
175
1
176
1
 91
1
178
0
145
0.0
170
1
171
1
172
0
173
0
174
0
175
1
176
1
 91
33
178
0
145
0.0
301
CELL_VALUE
 90
4
  1
Includes integral cartridge(s)
304
ACVALUE_END
170
5
140
0.125
171
1
172
0
173
0
174
0
175
2
176
1
 91
33
178
0
145
0.0
301
CELL_VALUE
 90
4
  1
Yes (see Included Components)
304
ACVALUE_END
170
5
140
0.125
171
1
172
0
173
1
174
0
175
1
176
1
 91
1
178
0
145
0.0
170
1
  0
ACAD_TABLE
  5
292
100
AcDbEntity
  8
0
 62
2
  6
CONTINUOUS
100
AcDbBlockReference
  2
*T3
 10
0.52125
 20
1.709
 30
0.0
100
AcDbTable
342
       37F
343
211
 11
1.0
 21
0.0
 31
0.0
 90
22
 91
4
 92
3
 93
16
 94
0
 95
0
 96
0
 41
0.05
141
0.34375
141
0.344
141
0.25
141
0.25
142
1.3
142
2.0
142
1.3
171
1
172
0
173
0
174
0
175
3
176
1
 91
33
178
0
145
0.0
301
CELL_VALUE
 90
4
  1
Port Headings
304
ACVALUE_END
170
5
140
0.145
171
1
172
0
173
1
174
0
175
1
176
1
 91
1
178
0
145
0.0
170
1
171
1
172
0
173
1
174
0
175
1
176
1
 91
1
178
0
145
0.0
170
1
171
1
172
0
173
0
174
0
175
1
176
1
 91
33
178
0
145
0.0
301
CELL_VALUE
 90
4
  1
Product
304
ACVALUE_END
170
5
140
0.145
171
1
172
0
173
0
174
0
175
1
176
1
 91
33
178
0
145
0.0
301
CELL_VALUE
 90
4
  1
Port
304
ACVALUE_END
170
5
140
0.145
171
1
172
0
173
0
174
0
175
1
176
1
 91
33
178
0
145
0.0
301
CELL_VALUE
 90
4
  1
Size
304
ACVALUE_END
170
5
140
0.145
171
1
172
0
173
0
174
0
175
1
176
1
 91
33
178
0
145
0.0
301
CELL_VALUE
 90
4
  1
IN4
304
ACVALUE_END
170
5
140
0.125
171
1
172
0
173
0
174
0
175
1
176
1
 91
33
178
0
145
0.0
301
CELL_VALUE
 90
4
  1
Ports 1 &  2
304
ACVALUE_END
170
5
140
0.125
171
1
172
0
173
0
174
0
175
1
176
1
 91
33
178
0
145
0.0
301
CELL_VALUE
 90
4
  1
1" Code 62
304
ACVALUE_END
170
5
140
0.125
171
1
172
0
173
0
174
0
175
1
176
1
 91
33
178
0
145
0.0
301
CELL_VALUE
 90
4
  1
IN4
304
ACVALUE_END
170
5
140
0.125
171
1
172
0
173
0
174
0
175
1
176
1
 91
33
178
0
145
0.0
301
CELL_VALUE
 90
4
  1
Gage Port
304
ACVALUE_END
170
5
140
0.125
171
1
172
0
173
0
174
0
175
1
176
1
 91
33
178
0
145
0.0
301
CELL_VALUE
 90
4
  1
1/4" NPTF
304
ACVALUE_END
170
5
140
0.125
  0
MTEXT
  5
293
100
AcDbEntity
  8
0
100
AcDbMText
 62
2
  6
CONTINUOUS
  7
STANDARD
 71
1
 72
1
 10
0.52125
 20
5.75995
 30
0.0
 11
1.0
 21
0.0
 31
0.0
 44
0.6
  3
Notes\P \P1. Important: Carefully consider\P   the maximum system pressure. The\P   pressure rating of the manifold is\P   dependent on the manifold material,\P   with the port type/size a secondary\P   consideration. Manifolds\P   constructed of alu
  3
minum are not\P   rated for pressures higher than\P   3000 psi (210 bar), regardless of\P   the port type/size specified.\P2. This drawing is for reference\P   only. It is generated by an\P   automated process and does not fall\P   under Sun's docume
  1
nt control\P   process.
 40
0.1
 41
3.04
  0
LINE
  5
294
100
AcDbEntity
  8
0
100
AcDbLine
 62
7
  6
CONTINUOUS
 10
0.30125
 20
0.30125
 11
0.30125
 21
16.69875
  0
LINE
  5
295
100
AcDbEntity
  8
0
100
AcDbLine
 62
7
  6
CONTINUOUS
 10
0.30125
 20
0.30125
 11
21.69875
 21
0.30125
  0
LINE
  5
296
100
AcDbEntity
  8
0
100
AcDbLine
 62
7
  6
CONTINUOUS
 10
0.30125
 20
16.69875
 11
21.69875
 21
16.69875
  0
LINE
  5
297
100
AcDbEntity
  8
0
100
AcDbLine
 62
7
  6
CONTINUOUS
 10
21.69875
 20
0.30125
 11
21.69875
 21
16.69875
  0
LINE
  5
298
100
AcDbEntity
  8
0
100
AcDbLine
 62
7
  6
CONTINUOUS
 10
9.309543322
 20
11.6950228322
 11
8.4036774117
 21
10.8200235025
  0
LINE
  5
299
100
AcDbEntity
  8
0
100
AcDbLine
 62
7
  6
CONTINUOUS
 10
8.4036774117
 20
6.1111348203
 11
8.4036774117
 21
10.8200235025
  0
LINE
  5
29A
100
AcDbEntity
  8
0
100
AcDbLine
 62
4
  6
CONTINUOUS
 10
8.5562940106
 20
7.6460322023
 11
8.5562940106
 21
7.4721655364
  0
LINE
  5
29B
100
AcDbEntity
  8
0
100
AcDbLine
 62
7
  6
CONTINUOUS
 10
8.4036774117
 20
6.1111348203
 11
12.690456678
 21
5.8138456684
  0
LINE
  5
29C
100
AcDbEntity
  8
0
100
AcDbLine
 62
7
  6
CONTINUOUS
 10
11.2646782154
 20
5.4062806098
 11
11.2960003111
 21
5.3908080943
  0
LINE
  5
29D
100
AcDbEntity
  8
0
100
AcDbLine
 62
4
  6
CONTINUOUS
 10
10.0401975834
 20
7.6880120571
 11
10.0184642501
 21
7.7040081581
  0
LINE
  5
29E
100
AcDbEntity
  8
0
100
AcDbLine
 62
4
  6
CONTINUOUS
 10
10.0619309166
 20
7.8603715112
 11
10.0836642498
 21
7.8443754141
  0
LINE
  5
29F
100
AcDbEntity
  8
0
100
AcDbLine
 62
4
  6
CONTINUOUS
 10
10.0184642501
 20
7.7040081581
 11
9.9967309169
 21
7.7344931471
  0
LINE
  5
2A0
100
AcDbEntity
  8
0
100
AcDbLine
 62
4
  6
CONTINUOUS
 10
10.0836642498
 20
7.8443754141
 11
10.0945309165
 21
7.8291329125
  0
LINE
  5
2A1
100
AcDbEntity
  8
0
100
AcDbLine
 62
4
  6
CONTINUOUS
 10
9.9967309169
 20
7.7344931471
 11
9.9858642502
 21
7.7787134195
  0
LINE
  5
2A2
100
AcDbEntity
  8
0
100
AcDbLine
 62
4
  6
CONTINUOUS
 10
9.9964893613
 20
9.1978876109
 11
9.9964893613
 21
9.1399320579
  0
LINE
  5
2A3
100
AcDbEntity
  8
0
100
AcDbLine
 62
4
  6
CONTINUOUS
 10
10.0544449143
 20
9.1359128266
 11
10.0544449143
 21
9.0779572736
  0
LINE
  5
2A4
100
AcDbEntity
  8
0
100
AcDbLine
 62
4
  6
CONTINUOUS
 10
10.0834226908
 20
9.075947658
 11
10.0834226908
 21
9.191858764
  0
LINE
  5
2A5
100
AcDbEntity
  8
0
100
AcDbLine
 62
4
  6
CONTINUOUS
 10
10.0945309165
 20
7.7711773606
 11
10.0945309165
 21
7.7132218062
  0
LINE
  5
2A6
100
AcDbEntity
  8
0
100
AcDbLine
 62
4
  6
CONTINUOUS
 10
10.1307530648
 20
8.4815186447
 11
10.1307530648
 21
8.5974297507
  0
LINE
  5
2A7
100
AcDbEntity
  8
0
100
AcDbLine
 62
4
  6
CONTINUOUS
 10
10.1413782438
 20
9.1878395327
 11
10.1413782438
 21
9.0719284267
  0
LINE
  5
2A8
100
AcDbEntity
  8
0
100
AcDbLine
 62
4
  6
CONTINUOUS
 10
10.1703560203
 20
9.1858299171
 11
10.1703560203
 21
9.0699188111
  0
LINE
  5
2A9
100
AcDbEntity
  8
0
100
AcDbLine
 62
4
  6
CONTINUOUS
 10
10.1887086109
 20
8.5768517915
 11
10.1887086109
 21
8.4940581441
  0
LINE
  5
2AA
100
AcDbEntity
  8
0
100
AcDbLine
 62
4
  6
CONTINUOUS
 10
9.9858642502
 20
7.7787134195
 11
9.9967309169
 21
7.8214264801
  0
LINE
  5
2AB
100
AcDbEntity
  8
0
100
AcDbLine
 62
4
  6
CONTINUOUS
 10
10.0619309166
 20
7.6865048453
 11
10.0401975834
 21
7.6880120571
  0
LINE
  5
2AC
100
AcDbEntity
  8
0
100
AcDbLine
 62
4
  6
CONTINUOUS
 10
10.05106425
 20
7.7741917842
 11
10.0945309165
 21
7.7711773606
  0
LINE
  5
2AD
100
AcDbEntity
  8
0
100
AcDbLine
 62
4
  6
CONTINUOUS
 10
10.2283115733
 20
9.1818106859
 11
10.2283115733
 21
9.0658995798
  0
LINE
  5
2AE
100
AcDbEntity
  8
0
100
AcDbLine
 62
4
  6
CONTINUOUS
 10
10.3442226793
 20
9.0578611173
 11
10.3442226793
 21
9.1737722234
  0
LINE
  5
2AF
100
AcDbEntity
  8
0
100
AcDbLine
 62
4
  6
CONTINUOUS
 10
10.368094853
 20
8.4650589357
 11
10.368094853
 21
8.5809700418
  0
LINE
  5
2B0
100
AcDbEntity
  8
0
100
AcDbLine
 62
4
  6
CONTINUOUS
 10
10.4021782323
 20
9.0538418861
 11
10.4021782323
 21
9.1117974391
  0
LINE
  5
2B1
100
AcDbEntity
  8
0
100
AcDbLine
 62
4
  6
CONTINUOUS
 10
10.4343297668
 20
8.4604655289
 11
10.4343297668
 21
8.5763766349
  0
LINE
  5
2B2
100
AcDbEntity
  8
0
100
AcDbLine
 62
4
  6
CONTINUOUS
 10
10.4453689154
 20
8.7147043946
 11
10.4453689154
 21
8.8306155006
  0
LINE
  5
2B3
100
AcDbEntity
  8
0
100
AcDbLine
 62
4
  6
CONTINUOUS
 10
10.4495086006
 20
9.0505595139
 11
10.4495086006
 21
9.1085150669
  0
LINE
  5
2B4
100
AcDbEntity
  8
0
100
AcDbLine
 62
4
  6
CONTINUOUS
 10
10.2356250117
 20
8.4742457505
 11
10.2687424685
 21
8.587860153
  0
LINE
  5
2B5
100
AcDbEntity
  8
0
100
AcDbLine
 62
4
  6
CONTINUOUS
 10
10.1887086109
 20
8.4940581441
 11
10.1721498825
 21
8.4786477656
  0
LINE
  5
2B6
100
AcDbEntity
  8
0
100
AcDbLine
 62
4
  6
CONTINUOUS
 10
10.0401975834
 20
7.861878723
 11
10.0619309166
 21
7.8603715112
  0
LINE
  5
2B7
100
AcDbEntity
  8
0
100
AcDbLine
 62
4
  6
CONTINUOUS
 10
10.1721498825
 20
8.5945588716
 11
10.1887086109
 21
8.5768517915
  0
LINE
  5
2B8
100
AcDbEntity
  8
0
100
AcDbLine
 62
4
  6
CONTINUOUS
 10
10.2687424685
 20
8.587860153
 11
10.3018599392
 21
8.4696523426
  0
LINE
  5
2B9
100
AcDbEntity
  8
0
100
AcDbLine
 62
4
  6
CONTINUOUS
 10
10.4978048905
 20
8.7110679473
 11
10.4978048905
 21
8.8269790534
  0
LINE
  5
2BA
100
AcDbEntity
  8
0
100
AcDbLine
 62
4
  6
CONTINUOUS
 10
10.5074641537
 20
9.1044958357
 11
10.5074641537
 21
8.9885847296
  0
LINE
  5
2BB
100
AcDbEntity
  8
0
100
AcDbLine
 62
4
  6
CONTINUOUS
 10
10.546101189
 20
9.0438607951
 11
10.546101189
 21
9.1018163481
  0
LINE
  5
2BC
100
AcDbEntity
  8
0
100
AcDbLine
 62
4
  6
CONTINUOUS
 10
10.5557604505
 20
8.7070487156
 11
10.5557604505
 21
8.8229598216
  0
LINE
  5
2BD
100
AcDbEntity
  8
0
100
AcDbLine
 62
4
  6
CONTINUOUS
 10
10.604056742
 20
9.1557526699
 11
10.604056742
 21
9.0398415639
  0
LINE
  5
2BE
100
AcDbEntity
  8
0
100
AcDbLine
 62
4
  6
CONTINUOUS
 10
10.6081964535
 20
8.4649665634
 11
10.6081964535
 21
8.5477602108
  0
LINE
  5
2BF
100
AcDbEntity
  8
0
100
AcDbLine
 62
4
  6
CONTINUOUS
 10
10.6275149335
 20
8.7020725253
 11
10.6275149335
 21
8.7600280783
  0
LINE
  5
2C0
100
AcDbEntity
  8
0
100
AcDbLine
 62
4
  6
CONTINUOUS
 10
10.6426937773
 20
9.0951176294
 11
10.6426937773
 21
9.0371620764
  0
LINE
  5
2C1
100
AcDbEntity
  8
0
100
AcDbLine
 62
4
  6
CONTINUOUS
 10
10.704789005
 20
8.4582678472
 11
10.704789005
 21
8.5410614946
  0
LINE
  5
2C2
100
AcDbEntity
  8
0
100
AcDbLine
 62
4
  6
CONTINUOUS
 10
10.7392863657
 20
9.0304633576
 11
10.7392863657
 21
9.069100393
  0
LINE
  5
2C3
100
AcDbEntity
  8
0
100
AcDbLine
 62
4
  6
CONTINUOUS
 10
10.5888779073
 20
8.7295901066
 11
10.6137160035
 21
8.8189405904
  0
LINE
  5
2C4
100
AcDbEntity
  8
0
100
AcDbLine
 62
4
  6
CONTINUOUS
 10
9.9967309169
 20
7.8214264801
 11
10.0184642501
 21
7.8488970494
  0
LINE
  5
2C5
100
AcDbEntity
  8
0
100
AcDbLine
 62
7
  6
CONTINUOUS
 10
12.690456678
 20
10.5227343506
 11
13.5963225883
 21
11.3977336803
  0
LINE
  5
2C6
100
AcDbEntity
  8
0
100
AcDbLine
 62
4
  6
CONTINUOUS
 10
10.6081964535
 20
8.5477602108
 11
10.624755175
 21
8.563170588
  0
LINE
  5
2C7
100
AcDbEntity
  8
0
100
AcDbLine
 62
4
  6
CONTINUOUS
 10
10.1086747568
 20
8.5548042774
 11
10.0645181441
 21
8.5357882408
  0
LINE
  5
2C8
100
AcDbEntity
  8
0
100
AcDbLine
 62
4
  6
CONTINUOUS
 10
10.0645181441
 20
8.5357882408
 11
10.1086747568
 21
8.510647663
  0
LINE
  5
2C9
100
AcDbEntity
  8
0
100
AcDbLine
 62
4
  6
CONTINUOUS
 10
10.624755175
 20
8.447259482
 11
10.6081964535
 21
8.4649665634
  0
LINE
  5
2CA
100
AcDbEntity
  8
0
100
AcDbLine
 62
4
  6
CONTINUOUS
 10
10.7213477265
 20
8.4405607658
 11
10.704789005
 21
8.4582678472
  0
LINE
  5
2CB
100
AcDbEntity
  8
0
100
AcDbLine
 62
4
  6
CONTINUOUS
 10
10.4978048905
 20
8.8269790534
 11
10.5557604505
 21
8.7070487156
  0
LINE
  5
2CC
100
AcDbEntity
  8
0
100
AcDbLine
 62
4
  6
CONTINUOUS
 10
10.762744558
 20
8.5370422633
 11
10.762744558
 21
8.4542486159
  0
LINE
  5
2CD
100
AcDbEntity
  8
0
100
AcDbLine
 62
4
  6
CONTINUOUS
 10
10.7958620011
 20
8.4353931833
 11
10.7958620011
 21
8.5513042893
  0
LINE
  5
2CE
100
AcDbEntity
  8
0
100
AcDbLine
 62
4
  6
CONTINUOUS
 10
10.7972419187
 20
9.0843996794
 11
10.7972419187
 21
9.0264441264
  0
LINE
  5
2CF
100
AcDbEntity
  8
0
100
AcDbLine
 62
4
  6
CONTINUOUS
 10
10.835878954
 20
9.0817201919
 11
10.835878954
 21
9.0237646389
  0
LINE
  5
2D0
100
AcDbEntity
  8
0
100
AcDbLine
 62
4
  6
CONTINUOUS
 10
10.8538175541
 20
8.5307263296
 11
10.8538175541
 21
8.4479326822
  0
LINE
  5
2D1
100
AcDbEntity
  8
0
100
AcDbLine
 62
4
  6
CONTINUOUS
 10
10.8938345071
 20
9.0197454076
 11
10.8938345071
 21
9.0777009606
  0
LINE
  5
2D2
100
AcDbEntity
  8
0
100
AcDbLine
 62
4
  6
CONTINUOUS
 10
10.9007339962
 20
8.4281202857
 11
10.9007339962
 21
8.5440313917
  0
LINE
  5
2D3
100
AcDbEntity
  8
0
100
AcDbLine
 62
4
  6
CONTINUOUS
 10
10.9324715424
 20
9.0170659201
 11
10.9324715424
 21
9.1329770261
  0
LINE
  5
2D4
100
AcDbEntity
  8
0
100
AcDbLine
 62
4
  6
CONTINUOUS
 10
10.9711085777
 20
9.0143864326
 11
10.9711085777
 21
9.0723419856
  0
LINE
  5
2D5
100
AcDbEntity
  8
0
100
AcDbLine
 62
4
  6
CONTINUOUS
 10
11.0097456131
 20
9.0696624981
 11
11.0097456131
 21
9.0117069451
  0
LINE
  5
2D6
100
AcDbEntity
  8
0
100
AcDbLine
 62
4
  6
CONTINUOUS
 10
10.0945309165
 20
7.7132218062
 11
10.0836642498
 21
7.6994865228
  0
LINE
  5
2D7
100
AcDbEntity
  8
0
100
AcDbLine
 62
4
  6
CONTINUOUS
 10
10.704789005
 20
8.5410614946
 11
10.7213477265
 21
8.5564718718
  0
LINE
  5
2D8
100
AcDbEntity
  8
0
100
AcDbLine
 62
4
  6
CONTINUOUS
 10
10.762744558
 20
8.4542486159
 11
10.7461858365
 21
8.438838237
  0
LINE
  5
2D9
100
AcDbEntity
  8
0
100
AcDbLine
 62
4
  6
CONTINUOUS
 10
10.8538175541
 20
8.4479326822
 11
10.8372588325
 21
8.4325223033
  0
LINE
  5
2DA
100
AcDbEntity
  8
0
100
AcDbLine
 62
4
  6
CONTINUOUS
 10
10.8372588325
 20
8.4325223033
 11
10.7958620011
 21
8.4353931833
  0
LINE
  5
2DB
100
AcDbEntity
  8
0
100
AcDbLine
 62
4
  6
CONTINUOUS
 10
10.7461858365
 20
8.438838237
 11
10.7213477265
 21
8.4405607658
  0
LINE
  5
2DC
100
AcDbEntity
  8
0
100
AcDbLine
 62
4
  6
CONTINUOUS
 10
10.6578726181
 20
8.4449627795
 11
10.624755175
 21
8.447259482
  0
LINE
  5
2DD
100
AcDbEntity
  8
0
100
AcDbLine
 62
4
  6
CONTINUOUS
 10
10.1721498825
 20
8.4786477656
 11
10.1307530648
 21
8.4815186447
  0
LINE
  5
2DE
100
AcDbEntity
  8
0
100
AcDbLine
 62
4
  6
CONTINUOUS
 10
10.4343297668
 20
8.4604655289
 11
10.4840059591
 21
8.4570204732
  0
LINE
  5
2DF
100
AcDbEntity
  8
0
100
AcDbLine
 62
4
  6
CONTINUOUS
 10
10.9007339962
 20
8.4281202857
 11
10.9504101609
 21
8.424675232
  0
LINE
  5
2E0
100
AcDbEntity
  8
0
100
AcDbLine
 62
4
  6
CONTINUOUS
 10
10.2466641639
 20
8.506597643
 11
10.2908207731
 21
8.5035353717
  0
LINE
  5
2E1
100
AcDbEntity
  8
0
100
AcDbLine
 62
4
  6
CONTINUOUS
 10
10.9338514393
 20
8.4920585039
 11
10.9007339962
 21
8.4943552064
  0
LINE
  5
2E2
100
AcDbEntity
  8
0
100
AcDbLine
 62
4
  6
CONTINUOUS
 10
10.4674472375
 20
8.5244037452
 11
10.4343297668
 21
8.5267004496
  0
LINE
  5
2E3
100
AcDbEntity
  8
0
100
AcDbLine
 62
4
  6
CONTINUOUS
 10
10.9835276039
 20
8.4941330263
 11
11.0276842131
 21
8.4689924471
  0
LINE
  5
2E4
100
AcDbEntity
  8
0
100
AcDbLine
 62
4
  6
CONTINUOUS
 10
10.7461858365
 20
8.554749343
 11
10.762744558
 21
8.5370422633
  0
LINE
  5
2E5
100
AcDbEntity
  8
0
100
AcDbLine
 62
4
  6
CONTINUOUS
 10
10.8372588325
 20
8.5484334093
 11
10.8538175541
 21
8.5307263296
  0
LINE
  5
2E6
100
AcDbEntity
  8
0
100
AcDbLine
 62
4
  6
CONTINUOUS
 10
11.1063382014
 20
9.0629637794
 11
11.1063382014
 21
9.0339860029
  0
LINE
  5
2E7
100
AcDbEntity
  8
0
100
AcDbLine
 62
7
  6
CONTINUOUS
 10
11.1548375018
 20
5.92034122
 11
11.1548375018
 21
5.4731004019
  0
LINE
  5
2E8
100
AcDbEntity
  8
0
100
AcDbLine
 62
4
  6
CONTINUOUS
 10
11.1642937544
 20
9.0299667716
 11
11.1642937544
 21
9.0009889951
  0
LINE
  5
2E9
100
AcDbEntity
  8
0
100
AcDbLine
 62
7
  6
CONTINUOUS
 10
11.1665476847
 20
5.9195291161
 11
11.1665476847
 21
5.4617892532
  0
LINE
  5
2EA
100
AcDbEntity
  8
0
100
AcDbLine
 62
7
  6
CONTINUOUS
 10
13.4345608186
 20
10.5431193199
 11
13.4351235693
 21
10.5436528231
  0
LINE
  5
2EB
100
AcDbEntity
  8
0
100
AcDbLine
 62
7
  6
CONTINUOUS
 10
12.8522184477
 20
9.9806197508
 11
12.8527811984
 21
9.9811532539
  0
LINE
  5
2EC
100
AcDbEntity
  8
0
100
AcDbLine
 62
4
  6
CONTINUOUS
 10
10.0184642501
 20
7.8488970494
 11
10.0401975834
 21
7.861878723
  0
LINE
  5
2ED
100
AcDbEntity
  8
0
100
AcDbLine
 62
4
  6
CONTINUOUS
 10
12.4598418738
 20
9.1284757615
 11
12.481575207
 21
9.141457435
  0
LINE
  5
2EE
100
AcDbEntity
  8
0
100
AcDbLine
 62
4
  6
CONTINUOUS
 10
10.0836642498
 20
7.6994865228
 11
10.0619309166
 21
7.6865048453
  0
LINE
  5
2EF
100
AcDbEntity
  8
0
100
AcDbLine
 62
4
  6
CONTINUOUS
 10
12.5250418735
 20
9.0659985639
 11
12.481575207
 21
9.0400352115
  0
LINE
  5
2F0
100
AcDbEntity
  8
0
100
AcDbLine
 62
4
  6
CONTINUOUS
 10
11.0276842131
 20
8.4689924471
 11
10.9835276039
 21
8.449976412
  0
LINE
  5
2F1
100
AcDbEntity
  8
0
100
AcDbLine
 62
4
  6
CONTINUOUS
 10
10.1307530648
 20
8.5974297507
 11
10.1721498825
 21
8.5945588716
  0
LINE
  5
2F2
100
AcDbEntity
  8
0
100
AcDbLine
 62
4
  6
CONTINUOUS
 10
10.3349773823
 20
8.5832667462
 11
10.4012122961
 21
8.5786733393
  0
LINE
  5
2F3
100
AcDbEntity
  8
0
100
AcDbLine
 62
4
  6
CONTINUOUS
 10
10.4343297668
 20
8.5763766349
 11
10.4840059591
 21
8.5729315793
  0
LINE
  5
2F4
100
AcDbEntity
  8
0
100
AcDbLine
 62
4
  6
CONTINUOUS
 10
10.624755175
 20
8.563170588
 11
10.6578726181
 21
8.5608738855
  0
LINE
  5
2F5
100
AcDbEntity
  8
0
100
AcDbLine
 62
4
  6
CONTINUOUS
 10
10.7213477265
 20
8.5564718718
 11
10.7461858365
 21
8.554749343
  0
LINE
  5
2F6
100
AcDbEntity
  8
0
100
AcDbLine
 62
4
  6
CONTINUOUS
 10
10.7958620011
 20
8.5513042893
 11
10.8372588325
 21
8.5484334093
  0
LINE
  5
2F7
100
AcDbEntity
  8
0
100
AcDbLine
 62
4
  6
CONTINUOUS
 10
10.9007339962
 20
8.5440313917
 11
10.9504101609
 21
8.540586338
  0
LINE
  5
2F8
100
AcDbEntity
  8
0
100
AcDbLine
 62
4
  6
CONTINUOUS
 10
10.6468334604
 20
8.7255708753
 11
10.5888779073
 21
8.7295901066
  0
LINE
  5
2F9
100
AcDbEntity
  8
0
100
AcDbLine
 62
4
  6
CONTINUOUS
 10
10.5074641537
 20
8.9885847296
 11
10.4688271183
 21
8.9912642171
  0
LINE
  5
2FA
100
AcDbEntity
  8
0
100
AcDbLine
 62
4
  6
CONTINUOUS
 10
11.1642937544
 20
9.0009889951
 11
11.1063382014
 21
9.0050082264
  0
LINE
  5
2FB
100
AcDbEntity
  8
0
100
AcDbLine
 62
4
  6
CONTINUOUS
 10
10.7972419187
 20
9.0264441264
 11
10.7392863657
 21
9.0304633576
  0
LINE
  5
2FC
100
AcDbEntity
  8
0
100
AcDbLine
 62
4
  6
CONTINUOUS
 10
10.604056742
 20
9.0398415639
 11
10.546101189
 21
9.0438607951
  0
LINE
  5
2FD
100
AcDbEntity
  8
0
100
AcDbLine
 62
4
  6
CONTINUOUS
 10
10.5074641537
 20
9.0465402826
 11
10.4495086006
 21
9.0505595139
  0
LINE
  5
2FE
100
AcDbEntity
  8
0
100
AcDbLine
 62
4
  6
CONTINUOUS
 10
10.1413782438
 20
9.0719284267
 11
10.0834226908
 21
9.075947658
  0
LINE
  5
2FF
100
AcDbEntity
  8
0
100
AcDbLine
 62
4
  6
CONTINUOUS
 10
10.0544449143
 20
9.0779572736
 11
9.9964893613
 21
9.0819765048
  0
LINE
  5
300
100
AcDbEntity
  8
0
100
AcDbLine
 62
4
  6
CONTINUOUS
 10
10.835878954
 20
9.0237646389
 11
10.8938345071
 21
9.0197454076
  0
LINE
  5
301
100
AcDbEntity
  8
0
100
AcDbLine
 62
4
  6
CONTINUOUS
 10
11.0097456131
 20
9.0117069451
 11
11.0677011661
 21
9.0076877139
  0
LINE
  5
302
100
AcDbEntity
  8
0
100
AcDbLine
 62
4
  6
CONTINUOUS
 10
11.1063382014
 20
9.0339860029
 11
11.1642937544
 21
9.0299667716
  0
LINE
  5
303
100
AcDbEntity
  8
0
100
AcDbLine
 62
4
  6
CONTINUOUS
 10
10.7392863657
 20
9.069100393
 11
10.7972419187
 21
9.0650811617
  0
LINE
  5
304
100
AcDbEntity
  8
0
100
AcDbLine
 62
4
  6
CONTINUOUS
 10
10.7972419187
 20
9.0843996794
 11
10.7586048834
 21
9.0870791669
  0
LINE
  5
305
100
AcDbEntity
  8
0
100
AcDbLine
 62
4
  6
CONTINUOUS
 10
10.4021782323
 20
9.1117974391
 11
10.3442226793
 21
9.1158166703
  0
LINE
  5
306
100
AcDbEntity
  8
0
100
AcDbLine
 62
4
  6
CONTINUOUS
 10
9.9964893613
 20
9.1399320579
 11
10.0544449143
 21
9.1359128266
  0
LINE
  5
307
100
AcDbEntity
  8
0
100
AcDbLine
 62
4
  6
CONTINUOUS
 10
10.546101189
 20
9.1018163481
 11
10.604056742
 21
9.0977971169
  0
LINE
  5
308
100
AcDbEntity
  8
0
100
AcDbLine
 62
4
  6
CONTINUOUS
 10
10.6426937773
 20
9.0951176294
 11
10.7006493304
 21
9.0910983981
  0
LINE
  5
309
100
AcDbEntity
  8
0
100
AcDbLine
 62
4
  6
CONTINUOUS
 10
11.0097456131
 20
9.0696624981
 11
11.0677011661
 21
9.0656432669
  0
LINE
  5
30A
100
AcDbEntity
  8
0
100
AcDbLine
 62
4
  6
CONTINUOUS
 10
11.1063382014
 20
9.0629637794
 11
11.1642937544
 21
9.0589445481
  0
LINE
  5
30B
100
AcDbEntity
  8
0
100
AcDbLine
 62
4
  6
CONTINUOUS
 10
12.4489752072
 20
8.9698515868
 11
12.5359085401
 21
8.9638227397
  0
LINE
  5
30C
100
AcDbEntity
  8
0
100
AcDbLine
 62
4
  6
CONTINUOUS
 10
12.8097533882
 20
8.2363222579
 11
13.0188918573
 21
8.1468652905
  0
LINE
  5
30D
100
AcDbEntity
  8
0
100
AcDbLine
 62
7
  6
CONTINUOUS
 10
11.6399246635
 20
5.8867003111
 11
11.6399246635
 21
5.3392704308
  0
LINE
  5
30E
100
AcDbEntity
  8
0
100
AcDbLine
 62
7
  6
CONTINUOUS
 10
11.6836276276
 20
5.8836695002
 11
11.6836276276
 21
5.33623962
  0
LINE
  5
30F
100
AcDbEntity
  8
0
100
AcDbLine
 62
4
  6
CONTINUOUS
 10
12.4489752072
 20
9.1147404716
 11
12.4598418738
 21
9.1284757615
  0
LINE
  5
310
100
AcDbEntity
  8
0
100
AcDbLine
 62
4
  6
CONTINUOUS
 10
12.481575207
 20
9.0400352115
 11
12.4598418738
 21
9.0125646474
  0
LINE
  5
311
100
AcDbEntity
  8
0
100
AcDbLine
 62
4
  6
CONTINUOUS
 10
12.5359085401
 20
9.0797338537
 11
12.5250418735
 21
9.0659985639
  0
LINE
  5
312
100
AcDbEntity
  8
0
100
AcDbLine
 62
4
  6
CONTINUOUS
 10
10.9638641336
 20
9.101822166
 11
10.9783530219
 21
9.1008173582
  0
LINE
  5
313
100
AcDbEntity
  8
0
100
AcDbLine
 62
4
  6
CONTINUOUS
 10
10.0544449143
 20
9.1938683796
 11
9.9964893613
 21
9.1978876109
  0
LINE
  5
314
100
AcDbEntity
  8
0
100
AcDbLine
 62
4
  6
CONTINUOUS
 10
10.1703560203
 20
9.1858299171
 11
10.2283115733
 21
9.1818106859
  0
LINE
  5
315
100
AcDbEntity
  8
0
100
AcDbLine
 62
4
  6
CONTINUOUS
 10
12.481575207
 20
9.141457435
 11
12.5033085403
 21
9.1399502233
  0
LINE
  5
316
100
AcDbEntity
  8
0
100
AcDbLine
 62
4
  6
CONTINUOUS
 10
13.0188918573
 20
10.6353138415
 11
12.8097533882
 21
10.141832353
  0
LINE
  5
317
100
AcDbEntity
  8
0
100
AcDbLine
 62
7
  6
CONTINUOUS
 10
13.4345608186
 20
9.486396536
 11
13.4351235693
 21
9.4869300391
  0
LINE
  5
318
100
AcDbEntity
  8
0
100
AcDbLine
 62
7
  6
CONTINUOUS
 10
12.8522184477
 20
8.9238969669
 11
12.8527811984
 21
8.92443047
  0
LINE
  5
319
100
AcDbEntity
  8
0
100
AcDbLine
 62
7
  6
CONTINUOUS
 10
12.330272425
 20
5.8388245312
 11
12.330272425
 21
5.3810846683
  0
LINE
  5
31A
100
AcDbEntity
  8
0
100
AcDbLine
 62
7
  6
CONTINUOUS
 10
12.3622652062
 20
5.8366058243
 11
12.3622652062
 21
5.3893650062
  0
LINE
  5
31B
100
AcDbEntity
  8
0
100
AcDbLine
 62
4
  6
CONTINUOUS
 10
12.4598418738
 20
9.0125646474
 11
12.4489752072
 21
8.9698515868
  0
LINE
  5
31C
100
AcDbEntity
  8
0
100
AcDbLine
 62
4
  6
CONTINUOUS
 10
12.5033085403
 20
9.1399502233
 11
12.5250418735
 21
9.1239541261
  0
LINE
  5
31D
100
AcDbEntity
  8
0
100
AcDbLine
 62
7
  6
CONTINUOUS
 10
12.5355330247
 20
5.8245896603
 11
12.5355330247
 21
5.5567288769
  0
LINE
  5
31E
100
AcDbEntity
  8
0
100
AcDbLine
 62
4
  6
CONTINUOUS
 10
12.5359085401
 20
9.1087116245
 11
12.5359085401
 21
9.0797338537
  0
LINE
  5
31F
100
AcDbEntity
  8
0
100
AcDbLine
 62
4
  6
CONTINUOUS
 10
12.5250418735
 20
9.1239541261
 11
12.5359085401
 21
9.1087116245
  0
LINE
  5
320
100
AcDbEntity
  8
0
100
AcDbLine
 62
7
  6
CONTINUOUS
 10
12.690456678
 20
5.8138456684
 11
12.690456678
 21
10.5227343506
  0
LINE
  5
321
100
AcDbEntity
  8
0
100
AcDbLine
 62
4
  6
CONTINUOUS
 10
12.7308324158
 20
8.5844840372
 11
12.7308324158
 21
9.6412069537
  0
LINE
  5
322
100
AcDbEntity
  8
0
100
AcDbLine
 62
4
  6
CONTINUOUS
 10
13.2678874091
 20
8.3873765389
 11
13.4770258782
 21
8.8808580274
  0
LINE
  5
323
100
AcDbEntity
  8
0
100
AcDbLine
 62
7
  6
CONTINUOUS
 10
8.4036774117
 20
10.8200235025
 11
12.690456678
 21
10.5227343506
  0
LINE
  5
324
100
AcDbEntity
  8
0
100
AcDbLine
 62
4
  6
CONTINUOUS
 10
13.5559468506
 20
10.4382063432
 11
13.5559468506
 21
9.3814834266
  0
LINE
  5
325
100
AcDbEntity
  8
0
100
AcDbLine
 62
7
  6
CONTINUOUS
 10
13.5963225883
 20
6.6888449982
 11
13.5963225883
 21
11.3977336803
  0
LINE
  5
326
100
AcDbEntity
  8
0
100
AcDbLine
 62
7
  6
CONTINUOUS
 10
12.690456678
 20
5.8138456684
 11
13.5963225883
 21
6.6888449982
  0
LINE
  5
327
100
AcDbEntity
  8
0
100
AcDbLine
 62
7
  6
CONTINUOUS
 10
13.5963225883
 20
11.3977336803
 11
9.309543322
 21
11.6950228322
  0
LINE
  5
328
100
AcDbEntity
  8
0
100
AcDbLine
 62
4
  6
CONTINUOUS
 10
13.4770258782
 20
10.7863681225
 11
13.2678874091
 21
10.8758250899
  0
LINE
  5
329
100
AcDbEntity
  8
0
100
AcDbLine
 62
7
  6
CONTINUOUS
 10
12.4129368226
 20
5.3999796428
 11
12.3943702153
 21
5.3908080943
  0
ARC
  5
32A
100
AcDbEntity
  8
0
100
AcDbCircle
 62
7
  6
CONTINUOUS
 10
11.8359607911
 20
7.8515752265
 40
2.5199441672
100
AcDbArc
 50
266.0342868665
 51
266.534299421
  0
ARC
  5
32B
100
AcDbEntity
  8
0
100
AcDbCircle
 62
7
  6
CONTINUOUS
 10
11.8319388263
 20
7.7930082813
 40
2.4612392971
100
AcDbArc
 50
265.5255095249
 51
266.0333993217
  0
ARC
  5
32C
100
AcDbEntity
  8
0
100
AcDbCircle
 62
7
  6
CONTINUOUS
 10
12.0826750323
 20
6.403673399
 40
1.0521369592
100
AcDbArc
 50
283.610963992
 51
285.4106627597
  0
ARC
  5
32D
100
AcDbEntity
  8
0
100
AcDbCircle
 62
7
  6
CONTINUOUS
 10
11.6362426378
 20
6.1561449829
 40
0.8368726814
100
AcDbArc
 50
243.667307359
 51
246.0329012255
  0
ARC
  5
32E
100
AcDbEntity
  8
0
100
AcDbCircle
 62
7
  6
CONTINUOUS
 10
12.8382738177
 20
9.9492455036
 40
0.0126331744
100
AcDbArc
 50
86.0334602995
 51
87.6973024689
  0
ARC
  5
32F
100
AcDbEntity
  8
0
100
AcDbCircle
 62
7
  6
CONTINUOUS
 10
13.4206161886
 20
10.5117450727
 40
0.0126331744
100
AcDbArc
 50
86.0334602998
 51
87.6973024682
  0
ARC
  5
330
100
AcDbEntity
  8
0
100
AcDbCircle
 62
7
  6
CONTINUOUS
 10
13.4206161886
 20
9.4550222887
 40
0.0126331744
100
AcDbArc
 50
86.0334603004
 51
87.697302468
  0
ARC
  5
331
100
AcDbEntity
  8
0
100
AcDbCircle
 62
7
  6
CONTINUOUS
 10
12.8382738177
 20
8.8925227196
 40
0.0126331744
100
AcDbArc
 50
86.0334603004
 51
87.697302468
  0
ARC
  5
332
100
AcDbEntity
  8
0
100
AcDbCircle
 62
7
  6
CONTINUOUS
 10
13.3944135199
 20
9.077193953
 40
0.0126309679
100
AcDbArc
 50
264.6152286287
 51
266.0331266657
  0
ARC
  5
333
100
AcDbEntity
  8
0
100
AcDbCircle
 62
7
  6
CONTINUOUS
 10
12.8120711491
 20
9.5714171678
 40
0.0126309679
100
AcDbArc
 50
264.6152286274
 51
266.0331266679
  0
ARC
  5
334
100
AcDbEntity
  8
0
100
AcDbCircle
 62
7
  6
CONTINUOUS
 10
13.3944135199
 20
10.133916737
 40
0.0126309679
100
AcDbArc
 50
264.6152286283
 51
266.0331266664
  0
ARC
  5
335
100
AcDbEntity
  8
0
100
AcDbCircle
 62
7
  6
CONTINUOUS
 10
12.8120711491
 20
8.5146943839
 40
0.0126309679
100
AcDbArc
 50
264.6152286277
 51
266.0331266667
  0
SPLINE
  5
336
100
AcDbEntity
  8
0
100
AcDbSpline
 62
7
  6
CONTINUOUS
 70
0
 71
3
 72
22
 73
18
 74
0
 42
0.0000001
 43
0.0000001
 44
0.0000000001
 40
0.0
 40
0.0
 40
0.0
 40
0.0
 40
0.1531483315
 40
0.2277618074
 40
0.3008132082
 40
0.3721349284
 40
0.4415588991
 40
0.5089188333
 40
0.5740596174
 40
0.6368343793
 40
0.6971063921
 40
0.7547483058
 40
0.8096452574
 40
0.8616958455
 40
0.9108136932
 40
0.9569310411
 40
1.0
 40
1.0
 40
1.0
 40
1.0
 10
11.6847175877
 20
5.3102814545
 30
0.0
 10
11.6643959772
 20
5.311690763
 30
0.0
 10
11.6342002404
 20
5.3142098964
 30
0.0
 10
11.5944126529
 20
5.318447655
 30
0.0
 10
11.5654997221
 20
5.3219888332
 30
0.0
 10
11.537332776
 20
5.3259109491
 30
0.0
 10
11.5099857323
 20
5.3302030576
 30
0.0
 10
11.4835316887
 20
5.3348542154
 30
0.0
 10
11.4580413414
 20
5.3398514409
 30
0.0
 10
11.4335823916
 20
5.3451816287
 30
0.0
 10
11.4102197167
 20
5.3508301852
 30
0.0
 10
11.3880152824
 20
5.3567820847
 30
0.0
 10
11.3670278951
 20
5.3630213171
 30
0.0
 10
11.3473129728
 20
5.3695309847
 30
0.0
 10
11.3289222275
 20
5.3762940205
 30
0.0
 10
11.3119042377
 20
5.383291692
 30
0.0
 10
11.3011323793
 20
5.3882730072
 30
0.0
 10
11.2959962356
 20
5.3908102157
 30
0.0
  0
SPLINE
  5
337
100
AcDbEntity
  8
0
100
AcDbSpline
 62
7
  6
CONTINUOUS
 70
0
 71
3
 72
9
 73
5
 74
0
 42
0.0000001
 43
0.0000001
 44
0.0000000001
 40
0.0
 40
0.0
 40
0.0
 40
0.0
 40
0.5143582232
 40
1.0
 40
1.0
 40
1.0
 40
1.0
 10
11.1665476847
 20
5.4617892532
 30
0.0
 10
11.1644257026
 20
5.4636050584
 30
0.0
 10
11.1603963682
 20
5.4672499088
 30
0.0
 10
11.1566060401
 20
5.471144487
 30
0.0
 10
11.1548375018
 20
5.4731004019
 30
0.0
  0
SPLINE
  5
338
100
AcDbEntity
  8
0
100
AcDbSpline
 62
7
  6
CONTINUOUS
 70
0
 71
3
 72
22
 73
18
 74
0
 42
0.0000001
 43
0.0000001
 44
0.0000000001
 40
0.0
 40
0.0
 40
0.0
 40
0.0
 40
0.1604467223
 40
0.2374926511
 40
0.3122210204
 40
0.3844908515
 40
0.4541717897
 40
0.5211471428
 40
0.5853277936
 40
0.6466510947
 40
0.7050977672
 40
0.7606868075
 40
0.8134919058
 40
0.8636316218
 40
0.9112795969
 40
0.9566503556
 40
1.0
 40
1.0
 40
1.0
 40
1.0
 10
12.5355330247
 20
5.5567288769
 30
0.0
 10
12.5306585241
 20
5.5470618232
 30
0.0
 10
12.523251149
 20
5.5328472258
 30
0.0
 10
12.5130218224
 20
5.51442837
 30
0.0
 10
12.5054206857
 20
5.5013590512
 30
0.0
 10
12.4977877204
 20
5.4888871627
 30
0.0
 10
12.4901254334
 20
5.4770514718
 30
0.0
 10
12.4824356621
 20
5.4658900164
 30
0.0
 10
12.4747227109
 20
5.4554370733
 30
0.0
 10
12.4669892917
 20
5.4457241518
 30
0.0
 10
12.459241054
 20
5.4367761127
 30
0.0
 10
12.4514814664
 20
5.4286133299
 30
0.0
 10
12.4437168747
 20
5.4212472609
 30
0.0
 10
12.4359513469
 20
5.4146839165
 30
0.0
 10
12.4281910406
 20
5.4089195628
 30
0.0
 10
12.4204411007
 20
5.4039452711
 30
0.0
 10
12.415174812
 20
5.4010842725
 30
0.0
 10
12.4125518393
 20
5.3997895623
 30
0.0
  0
SPLINE
  5
339
100
AcDbEntity
  8
0
100
AcDbSpline
 62
7
  6
CONTINUOUS
 70
0
 71
3
 72
9
 73
5
 74
0
 42
0.0000001
 43
0.0000001
 44
0.0000000001
 40
0.0
 40
0.0
 40
0.0
 40
0.0
 40
0.4953413827
 40
1.0
 40
1.0
 40
1.0
 40
1.0
 10
11.2650204372
 20
5.4061116752
 30
0.0
 10
11.2482699423
 20
5.4143900546
 30
0.0
 10
11.2149721452
 20
5.4321636395
 30
0.0
 10
11.1826453992
 20
5.4516289826
 30
0.0
 10
11.1665476847
 20
5.4617892532
 30
0.0
  0
SPLINE
  5
33A
100
AcDbEntity
  8
0
100
AcDbSpline
 62
7
  6
CONTINUOUS
 70
0
 71
3
 72
27
 73
23
 74
0
 42
0.0000001
 43
0.0000001
 44
0.0000000001
 40
0.0
 40
0.0
 40
0.0
 40
0.0
 40
0.0193647791
 40
0.0398589276
 40
0.061469632
 40
0.0841790588
 40
0.1079649992
 40
0.1327998891
 40
0.1586536891
 40
0.1854921547
 40
0.241969901
 40
0.3019081106
 40
0.3649423317
 40
0.4306772966
 40
0.4986918916
 40
0.5685444601
 40
0.6397769575
 40
0.7119194786
 40
0.7844946583
 40
0.8570173254
 40
0.9290164762
 40
1.0
 40
1.0
 40
1.0
 40
1.0
 10
12.3943682952
 20
5.390807269
 30
0.0
 10
12.3902002354
 20
5.3887483471
 30
0.0
 10
12.3815318567
 20
5.3846892993
 30
0.0
 10
12.3679478615
 20
5.3789170671
 30
0.0
 10
12.3534356875
 20
5.3732972428
 30
0.0
 10
12.3380210166
 20
5.3678400453
 30
0.0
 10
12.321730793
 20
5.3625555233
 30
0.0
 10
12.304593895
 20
5.357452488
 30
0.0
 10
12.2866404657
 20
5.3525405799
 30
0.0
 10
12.2612220545
 20
5.3461487607
 30
0.0
 10
12.2276303066
 20
5.3387398089
 30
0.0
 10
12.1852658595
 20
5.3308815721
 30
0.0
 10
12.1404873692
 20
5.3239688901
 30
0.0
 10
12.0936124191
 20
5.3180517867
 30
0.0
 10
12.0449731741
 20
5.3131730699
 30
0.0
 10
11.994914881
 20
5.3093680116
 30
0.0
 10
11.9437929133
 20
5.3066641069
 30
0.0
 10
11.8919702086
 20
5.3050809488
 30
0.0
 10
11.8398156453
 20
5.304630146
 30
0.0
 10
11.7876979532
 20
5.3053143869
 30
0.0
 10
11.7359899302
 20
5.3071295328
 30
0.0
 10
11.701717608
 20
5.3091024991
 30
0.0
 10
11.6847175877
 20
5.3102814545
 30
0.0
  0
SPLINE
  5
33B
100
AcDbEntity
  8
0
100
AcDbSpline
 62
7
  6
CONTINUOUS
 70
0
 71
3
 72
21
 73
17
 74
0
 42
0.0000001
 43
0.0000001
 44
0.0000000001
 40
0.0
 40
0.0
 40
0.0
 40
0.0
 40
0.1269682035
 40
0.1902969066
 40
0.2535018462
 40
0.3165695248
 40
0.3794879784
 40
0.4422477447
 40
0.5048417135
 40
0.5672670242
 40
0.6295247604
 40
0.6916195212
 40
0.7535600636
 40
0.8153570273
 40
0.8770222222
 40
1.0
 40
1.0
 40
1.0
 40
1.0
 10
12.330272425
 20
5.3810846683
 30
0.0
 10
12.3039690581
 20
5.3720908932
 30
0.0
 10
12.2642219562
 20
5.3595182307
 30
0.0
 10
12.2106371885
 20
5.3450325653
 30
0.0
 10
12.1702423768
 20
5.3354371231
 30
0.0
 10
12.1296382254
 20
5.327207966
 30
0.0
 10
12.088863069
 20
5.3204385004
 30
0.0
 10
12.0479661986
 20
5.3152055764
 30
0.0
 10
12.0070053713
 20
5.3115595497
 30
0.0
 10
11.9660431717
 20
5.3095198796
 30
0.0
 10
11.9251422142
 20
5.309076171
 30
0.0
 10
11.884360707
 20
5.3101864353
 30
0.0
 10
11.8437487661
 20
5.3127808453
 30
0.0
 10
11.8033452291
 20
5.3167714584
 30
0.0
 10
11.7498437586
 20
5.323810443
 30
0.0
 10
11.7100130871
 20
5.3308774575
 30
0.0
 10
11.6836276276
 20
5.33623962
 30
0.0
  0
SPLINE
  5
33C
100
AcDbEntity
  8
0
100
AcDbSpline
 62
7
  6
CONTINUOUS
 70
0
 71
3
 72
9
 73
5
 74
0
 42
0.0000001
 43
0.0000001
 44
0.0000000001
 40
0.0
 40
0.0
 40
0.0
 40
0.0
 40
0.5102770743
 40
1.0
 40
1.0
 40
1.0
 40
1.0
 10
12.4125518393
 20
5.3997895623
 30
0.0
 10
12.4095185773
 20
5.3982923317
 30
0.0
 10
12.4034369469
 20
5.3956266236
 30
0.0
 10
12.3971258751
 20
5.3935598022
 30
0.0
 10
12.393994404
 20
5.3927036332
 30
0.0
  0
SPLINE
  5
33D
100
AcDbEntity
  8
0
100
AcDbSpline
 62
7
  6
CONTINUOUS
 70
0
 71
3
 72
11
 73
7
 74
0
 42
0.0000001
 43
0.0000001
 44
0.0000000001
 40
0.0
 40
0.0
 40
0.0
 40
0.0
 40
0.2558334785
 40
0.5065974291
 40
0.7541243364
 40
1.0
 40
1.0
 40
1.0
 40
1.0
 10
12.393994404
 20
5.3927036332
 30
0.0
 10
12.3913594424
 20
5.3919832138
 30
0.0
 10
12.3860794296
 20
5.3907738467
 30
0.0
 10
12.3780994157
 20
5.3896348587
 30
0.0
 10
12.3701604115
 20
5.3891487921
 30
0.0
 10
12.3648870995
 20
5.3892304066
 30
0.0
 10
12.3622652062
 20
5.3893650062
 30
0.0
  0
SPLINE
  5
33E
100
AcDbEntity
  8
0
100
AcDbSpline
 62
7
  6
CONTINUOUS
 70
0
 71
3
 72
15
 73
11
 74
0
 42
0.0000001
 43
0.0000001
 44
0.0000000001
 40
0.0
 40
0.0
 40
0.0
 40
0.0
 40
0.1199816703
 40
0.2406796119
 40
0.36242774
 40
0.4856181779
 40
0.6106603149
 40
0.7379211228
 40
0.867662314
 40
1.0
 40
1.0
 40
1.0
 40
1.0
 10
11.6399246635
 20
5.3392704308
 30
0.0
 10
11.6259756556
 20
5.3376868715
 30
0.0
 10
11.5979073159
 20
5.3352164808
 30
0.0
 10
11.5554950532
 20
5.3339325055
 30
0.0
 10
11.5127055417
 20
5.335389348
 30
0.0
 10
11.4696118199
 20
5.3398831047
 30
0.0
 10
11.4263250102
 20
5.3476330947
 30
0.0
 10
11.3829842821
 20
5.3587407341
 30
0.0
 10
11.3397370019
 20
5.3731665605
 30
0.0
 10
11.3113273418
 20
5.384770416
 30
0.0
 10
11.2971692999
 20
5.3910405495
 30
0.0
  0
LINE
  5
33F
100
AcDbEntity
  8
0
100
AcDbLine
 62
7
  6
CONTINUOUS
 10
11.2971692999
 20
5.3910405495
 11
11.2962949234
 21
5.3914284103
  0
SPLINE
  5
340
100
AcDbEntity
  8
0
100
AcDbSpline
 62
7
  6
CONTINUOUS
 70
0
 71
3
 72
48
 73
44
 74
0
 42
0.0000001
 43
0.0000001
 44
0.0000000001
 40
0.0
 40
0.0
 40
0.0
 40
0.0
 40
0.0958287767
 40
0.1428190415
 40
0.1890973044
 40
0.2345926372
 40
0.2792364825
 40
0.3229620954
 40
0.3657047087
 40
0.407401818
 40
0.4479933573
 40
0.4874219524
 40
0.5256331251
 40
0.5625755503
 40
0.5982013669
 40
0.63246656
 40
0.6653313195
 40
0.6967604983
 40
0.7267241853
 40
0.7551984564
 40
0.7821662274
 40
0.8076183351
 40
0.8197764033
 40
0.8315565605
 40
0.8429605481
 40
0.8539910465
 40
0.8646516431
 40
0.8749469108
 40
0.8848826809
 40
0.8944659692
 40
0.9037052702
 40
0.9126106941
 40
0.9211940359
 40
0.929469141
 40
0.9374519366
 40
0.9451606785
 40
0.959834833
 40
0.9668566842
 40
0.9737035627
 40
0.9804067932
 40
0.9870000362
 40
0.9935188103
 40
1.0
 40
1.0
 40
1.0
 40
1.0
 10
9.9524185257
 20
10.9719925303
 30
0.0
 10
9.9320505347
 20
10.9734050552
 30
0.0
 10
9.9017167082
 20
10.9758484708
 30
0.0
 10
9.8616218422
 20
10.9797991715
 30
0.0
 10
9.8322365121
 20
10.9830564077
 30
0.0
 10
9.8033906369
 20
10.9866215709
 30
0.0
 10
9.7751324535
 20
10.9904886845
 30
0.0
 10
9.7475091934
 20
10.9946512356
 30
0.0
 10
9.7205670123
 20
10.9991022334
 30
0.0
 10
9.6943509358
 20
11.0038341987
 30
0.0
 10
9.6689047531
 20
11.0088391799
 30
0.0
 10
9.644270947
 20
11.014108751
 30
0.0
 10
9.6204906265
 20
11.0196340491
 30
0.0
 10
9.5976034597
 20
11.0254057844
 30
0.0
 10
9.5756475942
 20
11.0314142604
 30
0.0
 10
9.5546595756
 20
11.0376493667
 30
0.0
 10
9.5346742904
 20
11.0441006258
 30
0.0
 10
9.5157248957
 20
11.0507572147
 30
0.0
 10
9.4978427871
 20
11.0576079956
 30
0.0
 10
9.4810573713
 20
11.0646415463
 30
0.0
 10
9.4653964909
 20
11.0718461402
 30
0.0
 10
9.4531232461
 20
11.0780741511
 30
0.0
 10
9.4439009368
 20
11.0831433961
 30
0.0
 10
9.437387199
 20
11.0869224544
 30
0.0
 10
9.4311732607
 20
11.0907352265
 30
0.0
 10
9.4252616633
 20
11.0945801526
 30
0.0
 10
9.41965484
 20
11.0984556399
 30
0.0
 10
9.414355135
 20
11.1023601698
 30
0.0
 10
9.4093646906
 20
11.1062920999
 30
0.0
 10
9.4046855943
 20
11.1102499039
 30
0.0
 10
9.4003197812
 20
11.1142320128
 30
0.0
 10
9.3962690337
 20
11.1182368131
 30
0.0
 10
9.3925350956
 20
11.1222628545
 30
0.0
 10
9.3891195694
 20
11.1263084115
 30
0.0
 10
9.3860237344
 20
11.1303723917
 30
0.0
 10
9.3823847688
 20
11.1357239697
 30
0.0
 10
9.3793059996
 20
11.1412019845
 30
0.0
 10
9.3768667656
 20
11.1467768455
 30
0.0
 10
9.3753897951
 20
11.1509075053
 30
0.0
 10
9.3742400253
 20
11.1550462896
 30
0.0
 10
9.3734180561
 20
11.159191511
 30
0.0
 10
9.3729246297
 20
11.1633407703
 30
0.0
 10
9.3728148647
 20
11.1661117294
 30
0.0
 10
9.3728148674
 20
11.1674925869
 30
0.0
  0
SPLINE
  5
341
100
AcDbEntity
  8
0
100
AcDbSpline
 62
7
  6
CONTINUOUS
 70
0
 71
3
 72
51
 73
47
 74
0
 42
0.0000001
 43
0.0000001
 44
0.0000000001
 40
0.0
 40
0.0
 40
0.0
 40
0.0
 40
0.0417739629
 40
0.0840371215
 40
0.1266586488
 40
0.1695067259
 40
0.2124483844
 40
0.2553503964
 40
0.2980796496
 40
0.3405037262
 40
0.3824914108
 40
0.4239132254
 40
0.4646419608
 40
0.5045532181
 40
0.5435259598
 40
0.5814430774
 40
0.6181919816
 40
0.6536652261
 40
0.6877611803
 40
0.7203847716
 40
0.7514483292
 40
0.7808725758
 40
0.7949482763
 40
0.8085888699
 40
0.8217874589
 40
0.834537859
 40
0.846834877
 40
0.8586742173
 40
0.8700527567
 40
0.880968526
 40
0.8914209889
 40
0.9014111271
 40
0.9109417413
 40
0.9200176725
 40
0.928646158
 40
0.9368372277
 40
0.9446041567
 40
0.9519640678
 40
0.9589385046
 40
0.9655542088
 40
0.9718437296
 40
0.9778461439
 40
0.9836073323
 40
0.9891800323
 40
0.99462307
 40
1.0
 40
1.0
 40
1.0
 40
1.0
 10
13.0139672765
 20
9.386332786
 30
0.0
 10
13.0139672765
 20
9.3956616253
 30
0.0
 10
13.014112819
 20
9.4144288429
 30
0.0
 10
13.0147562194
 20
9.4427075457
 30
0.0
 10
13.0158241218
 20
9.4712134836
 30
0.0
 10
13.0173130041
 20
9.4998522271
 30
0.0
 10
13.0192179614
 20
9.5285290805
 30
0.0
 10
13.0215326886
 20
9.5571491494
 30
0.0
 10
13.0242495219
 20
9.5856177548
 30
0.0
 10
13.0273594533
 20
9.6138407132
 30
0.0
 10
13.0308521653
 20
9.6417246622
 30
0.0
 10
13.0347160625
 20
9.6691773681
 30
0.0
 10
13.0389383102
 20
9.6961080352
 30
0.0
 10
13.0435048756
 20
9.7224276092
 30
0.0
 10
13.0484005737
 20
9.7480490767
 30
0.0
 10
13.0536091162
 20
9.7728877591
 30
0.0
 10
13.0591131644
 20
9.7968615982
 30
0.0
 10
13.0648943857
 20
9.8198914462
 30
0.0
 10
13.0709335157
 20
9.841901313
 30
0.0
 10
13.0772104164
 20
9.8628187349
 30
0.0
 10
13.0837041723
 20
9.8825746982
 30
0.0
 10
13.089358724
 20
9.898239586
 30
0.0
 10
13.0939857249
 20
9.9101321737
 30
0.0
 10
13.0974453341
 20
9.9185894056
 30
0.0
 10
13.1009427579
 20
9.9267098234
 30
0.0
 10
13.1044751896
 20
9.9344867423
 30
0.0
 10
13.1080396506
 20
9.9419137816
 30
0.0
 10
13.1116332483
 20
9.9489848364
 30
0.0
 10
13.1152529826
 20
9.9556941286
 30
0.0
 10
13.1188959189
 20
9.9620361666
 30
0.0
 10
13.1225590522
 20
9.9680057951
 30
0.0
 10
13.126239431
 20
9.9735981604
 30
0.0
 10
13.129934078
 20
9.9788087462
 30
0.0
 10
13.1336400604
 20
9.9836333537
 30
0.0
 10
13.1373544774
 20
9.9880681071
 30
0.0
 10
13.1410744685
 20
9.9921094583
 30
0.0
 10
13.1447972742
 20
9.9957541352
 30
0.0
 10
13.1485201731
 20
9.9989991815
 30
0.0
 10
13.1522406015
 20
10.0018418074
 30
0.0
 10
13.1559559997
 20
10.0042794814
 30
0.0
 10
13.159663926
 20
10.0063096507
 30
0.0
 10
13.1633617908
 20
10.0079299472
 30
0.0
 10
13.167046802
 20
10.0091378384
 30
0.0
 10
13.1707158701
 20
10.0099311174
 30
0.0
 10
13.1743645801
 20
10.010307719
 30
0.0
 10
13.1767870128
 20
10.0102801103
 30
0.0
 10
13.1779848963
 20
10.0101970413
 30
0.0
  0
SPLINE
  5
342
100
AcDbEntity
  8
0
100
AcDbSpline
 62
7
  6
CONTINUOUS
 70
0
 71
3
 72
15
 73
11
 74
0
 42
0.0000001
 43
0.0000001
 44
0.0000000001
 40
0.0
 40
0.0
 40
0.0
 40
0.0
 40
0.1273483176
 40
0.2538606274
 40
0.3795878627
 40
0.5046051194
 40
0.6290174385
 40
0.7529533738
 40
0.8765605773
 40
1.0
 40
1.0
 40
1.0
 40
1.0
 10
9.9235507576
 20
7.473108549
 30
0.0
 10
9.9235507576
 20
7.466610169
 30
0.0
 10
9.9229302895
 20
7.4536470854
 30
0.0
 10
9.9201243049
 20
7.4344517854
 30
0.0
 10
9.9154715046
 20
7.4157387911
 30
0.0
 10
9.9090139279
 20
7.3976831056
 30
0.0
 10
9.9008107797
 20
7.3804512534
 30
0.0
 10
9.8909368837
 20
7.3642023416
 30
0.0
 10
9.8794850833
 20
7.3490886079
 30
0.0
 10
9.8708624587
 20
7.3398562761
 30
0.0
 10
9.8663319312
 20
7.3354801301
 30
0.0
  0
SPLINE
  5
343
100
AcDbEntity
  8
0
100
AcDbSpline
 62
7
  6
CONTINUOUS
 70
0
 71
3
 72
41
 73
37
 74
0
 42
0.0000001
 43
0.0000001
 44
0.0000000001
 40
0.0
 40
0.0
 40
0.0
 40
0.0
 40
0.0310747705
 40
0.0623072725
 40
0.0936920139
 40
0.1252208392
 40
0.1568822171
 40
0.1886620102
 40
0.2205435978
 40
0.2525083095
 40
0.2845357945
 40
0.3166044477
 40
0.3486918434
 40
0.3807751835
 40
0.4128317507
 40
0.4448393598
 40
0.4767768022
 40
0.5086242765
 40
0.5403637988
 40
0.5719795854
 40
0.603458402
 40
0.6347898701
 40
0.6659667248
 40
0.6969850144
 40
0.7278442368
 40
0.7585474029
 40
0.7891010235
 40
0.8195150139
 40
0.8498025133
 40
0.8649066328
 40
0.8799853948
 40
0.9100708242
 40
0.9400854817
 40
0.9550762305
 40
0.9700578769
 40
1.0
 40
1.0
 40
1.0
 40
1.0
 10
9.9235507576
 20
7.473108549
 30
0.0
 10
9.9235507576
 20
7.47815938
 30
0.0
 10
9.9231739616
 20
7.4882905649
 30
0.0
 10
9.9214917448
 20
7.5034388246
 30
0.0
 10
9.9187004368
 20
7.5184981643
 30
0.0
 10
9.9148155813
 20
7.5333847497
 30
0.0
 10
9.9098586168
 20
7.5480171697
 30
0.0
 10
9.9038569062
 20
7.5623150219
 30
0.0
 10
9.8968434914
 20
7.5761998655
 30
0.0
 10
9.8888569596
 20
7.5895955054
 30
0.0
 10
9.8799412097
 20
7.6024284417
 30
0.0
 10
9.8701452215
 20
7.6146282586
 30
0.0
 10
9.8595227859
 20
7.626128009
 30
0.0
 10
9.8481322128
 20
7.6368645768
 30
0.0
 10
9.8360360142
 20
7.6467790203
 30
0.0
 10
9.8233005647
 20
7.6558168922
 30
0.0
 10
9.8099957416
 20
7.6639285364
 30
0.0
 10
9.7961945454
 20
7.6710693584
 30
0.0
 10
9.7819727051
 20
7.677200069
 30
0.0
 10
9.7674082678
 20
7.6822869
 30
0.0
 10
9.7525811763
 20
7.6863017897
 30
0.0
 10
9.737572837
 20
7.6892225402
 30
0.0
 10
9.7224656778
 20
7.6910329416
 30
0.0
 10
9.7073427062
 20
7.6917228686
 30
0.0
 10
9.6922870419
 20
7.6912883359
 30
0.0
 10
9.6773815257
 20
7.6897315549
 30
0.0
 10
9.6627080371
 20
7.6870608339
 30
0.0
 10
9.6483478948
 20
7.6832909067
 30
0.0
 10
9.6366952352
 20
7.6792458277
 30
0.0
 10
9.6276125651
 20
7.6754839573
 30
0.0
 10
9.6187137193
 20
7.6713836032
 30
0.0
 10
9.6079238594
 20
7.6656198292
 30
0.0
 10
9.597634278
 20
7.6590305076
 30
0.0
 10
9.5897485818
 20
7.6532922628
 30
0.0
 10
9.5821062124
 20
7.6472535849
 30
0.0
 10
9.576649284
 20
7.642386704
 30
0.0
 10
9.5731488612
 20
7.639005561
 30
0.0
  0
SPLINE
  5
344
100
AcDbEntity
  8
0
100
AcDbSpline
 62
7
  6
CONTINUOUS
 70
0
 71
3
 72
53
 73
49
 74
0
 42
0.0000001
 43
0.0000001
 44
0.0000000001
 40
0.0
 40
0.0
 40
0.0
 40
0.0
 40
0.0055575334
 40
0.0111779591
 40
0.0169218931
 40
0.0228457847
 40
0.029000565
 40
0.0354309743
 40
0.0421754345
 40
0.0492662879
 40
0.0567303589
 40
0.0645894686
 40
0.0728611764
 40
0.0815592161
 40
0.0906941791
 40
0.1002737964
 40
0.1103034837
 40
0.1207865163
 40
0.1317244176
 40
0.1431170941
 40
0.1549630719
 40
0.1672596408
 40
0.1800029545
 40
0.1931882087
 40
0.2068096306
 40
0.2208606897
 40
0.2353340137
 40
0.2502216112
 40
0.2655147581
 40
0.2812041995
 40
0.3137312779
 40
0.3477186146
 40
0.3830737319
 40
0.419697545
 40
0.4574851157
 40
0.4963263298
 40
0.5361065238
 40
0.5767070763
 40
0.6180059734
 40
0.6598783563
 40
0.7021970576
 40
0.7448331294
 40
0.7876563632
 40
0.8305358211
 40
0.8733403081
 40
0.9159390405
 40
0.9582017244
 40
1.0
 40
1.0
 40
1.0
 40
1.0
 10
10.9368148364
 20
11.1674921741
 30
0.0
 10
10.9368148326
 20
11.1655576596
 30
0.0
 10
10.936598235
 20
11.1616633703
 30
0.0
 10
10.9356261019
 20
11.1558427286
 30
0.0
 10
10.9340084036
 20
11.1500350635
 30
0.0
 10
10.9317482362
 20
11.1442471221
 30
0.0
 10
10.928849338
 20
11.138483594
 30
0.0
 10
10.9253156244
 20
11.1327488824
 30
0.0
 10
10.9211510735
 20
11.1270469583
 30
0.0
 10
10.9163598332
 20
11.1213816069
 30
0.0
 10
10.910946113
 20
11.1157567192
 30
0.0
 10
10.9049145299
 20
11.1101761115
 30
0.0
 10
10.8982699105
 20
11.1046438758
 30
0.0
 10
10.8910176428
 20
11.0991639918
 30
0.0
 10
10.8831634409
 20
11.0937407127
 30
0.0
 10
10.8747136142
 20
11.0883781363
 30
0.0
 10
10.8656748729
 20
11.0830805592
 30
0.0
 10
10.8560544916
 20
11.0778521284
 30
0.0
 10
10.8458601908
 20
11.0726970872
 30
0.0
 10
10.8351002072
 20
11.0676195743
 30
0.0
 10
10.8237832456
 20
11.0626237179
 30
0.0
 10
10.8119184822
 20
11.0577136035
 30
0.0
 10
10.7995155661
 20
11.05289321
 30
0.0
 10
10.786584583
 20
11.0481665314
 30
0.0
 10
10.7731360816
 20
11.0435373814
 30
0.0
 10
10.7591810234
 20
11.0390096273
 30
0.0
 10
10.7447308109
 20
11.0345869113
 30
0.0
 10
10.7297972476
 20
11.0302729476
 30
0.0
 10
10.7143925302
 20
11.026071178
 30
0.0
 10
10.6929836828
 20
11.0205568457
 30
0.0
 10
10.6651303408
 20
11.0139867039
 30
0.0
 10
10.6304254998
 20
11.0066941241
 30
0.0
 10
10.594163178
 20
10.9999256159
 30
0.0
 10
10.5564620824
 20
10.9937035562
 30
0.0
 10
10.5174454342
 20
10.988048546
 30
0.0
 10
10.4772409152
 20
10.9829792891
 30
0.0
 10
10.4359801281
 20
10.9785125467
 30
0.0
 10
10.393798182
 20
10.9746630812
 30
0.0
 10
10.3508332321
 20
10.9714436108
 30
0.0
 10
10.3072260223
 20
10.9688647688
 30
0.0
 10
10.2631194171
 20
10.9669350708
 30
0.0
 10
10.2186579301
 20
10.9656608879
 30
0.0
 10
10.173987244
 20
10.9650464252
 30
0.0
 10
10.1292537378
 20
10.965093714
 30
0.0
 10
10.0846039797
 20
10.9658025915
 30
0.0
 10
10.0401842964
 20
10.9671707315
 30
0.0
 10
9.9961403038
 20
10.9691935919
 30
0.0
 10
9.9669331707
 20
10.9709859362
 30
0.0
 10
9.9524185257
 20
10.9719925303
 30
0.0
  0
SPLINE
  5
345
100
AcDbEntity
  8
0
100
AcDbSpline
 62
7
  6
CONTINUOUS
 70
0
 71
3
 72
40
 73
36
 74
0
 42
0.0000001
 43
0.0000001
 44
0.0000000001
 40
0.0
 40
0.0
 40
0.0
 40
0.0
 40
0.0063160423
 40
0.0126709865
 40
0.0191029724
 40
0.0256486827
 40
0.0323427081
 40
0.0392172067
 40
0.0536153583
 40
0.0690524996
 40
0.0856858071
 40
0.1036340937
 40
0.1229841962
 40
0.143797065
 40
0.1661130709
 40
0.1899559871
 40
0.2153360382
 40
0.2422525011
 40
0.2706954866
 40
0.3006471939
 40
0.3320831972
 40
0.3649732978
 40
0.3992820311
 40
0.4349693787
 40
0.4719912661
 40
0.5102997798
 40
0.5498435954
 40
0.5905683418
 40
0.6324167182
 40
0.6753287759
 40
0.7192421939
 40
0.7640923801
 40
0.8098128754
 40
0.9035866165
 40
1.0
 40
1.0
 40
1.0
 40
1.0
 10
13.10879437
 20
9.0124933391
 30
0.0
 10
13.1079491906
 20
9.0125519494
 30
0.0
 10
13.1062576217
 20
9.012738726
 30
0.0
 10
13.1037392191
 20
9.0132255091
 30
0.0
 10
13.1012376458
 20
9.0139189355
 30
0.0
 10
13.0987543822
 20
9.0148185127
 30
0.0
 10
13.0962903948
 20
9.0159235975
 30
0.0
 10
13.0929817953
 20
9.0176971634
 30
0.0
 10
13.08888769
 20
9.0204587988
 30
0.0
 10
13.0841522163
 20
9.0245296378
 30
0.0
 10
13.0795222194
 20
9.0293989103
 30
0.0
 10
13.0750030967
 20
9.0350576461
 30
0.0
 10
13.0705997351
 20
9.0414969832
 30
0.0
 10
13.0663178961
 20
9.0487069767
 30
0.0
 10
13.0621636648
 20
9.0566765634
 30
0.0
 10
13.0581433307
 20
9.0653933355
 30
0.0
 10
13.0542631585
 20
9.0748435222
 30
0.0
 10
13.0505293873
 20
9.0850120508
 30
0.0
 10
13.0469481222
 20
9.0958825624
 30
0.0
 10
13.0435252218
 20
9.1074374345
 30
0.0
 10
13.0402663487
 20
9.11965786
 30
0.0
 10
13.0371769358
 20
9.1325238856
 30
0.0
 10
13.0342620976
 20
9.1460144356
 30
0.0
 10
13.0315266816
 20
9.160107375
 30
0.0
 10
13.0289752675
 20
9.1747795565
 30
0.0
 10
13.026612094
 20
9.1900068471
 30
0.0
 10
13.0244410881
 20
9.2057641815
 30
0.0
 10
13.022465887
 20
9.2220256132
 30
0.0
 10
13.0206897794
 20
9.2387643501
 30
0.0
 10
13.0191157087
 20
9.2559528016
 30
0.0
 10
13.0177463201
 20
9.2735626222
 30
0.0
 10
13.0165838704
 20
9.2915648126
 30
0.0
 10
13.0153017615
 20
9.3162593509
 30
0.0
 10
13.0142412657
 20
9.3478884033
 30
0.0
 10
13.0139672765
 20
9.3734002715
 30
0.0
 10
13.0139672765
 20
9.386332786
 30
0.0
  0
SPLINE
  5
346
100
AcDbEntity
  8
0
100
AcDbSpline
 62
7
  6
CONTINUOUS
 70
0
 71
3
 72
54
 73
50
 74
0
 42
0.0000001
 43
0.0000001
 44
0.0000000001
 40
0.0
 40
0.0
 40
0.0
 40
0.0
 40
0.0075207357
 40
0.0156240259
 40
0.0243308472
 40
0.0336546294
 40
0.0436024123
 40
0.0541763978
 40
0.0653744316
 40
0.0771910133
 40
0.0896175786
 40
0.1026430062
 40
0.1162539722
 40
0.1304350395
 40
0.1451691381
 40
0.1604374016
 40
0.1762196697
 40
0.1924942923
 40
0.2264273872
 40
0.2620422341
 40
0.2991280181
 40
0.3374611663
 40
0.3768076342
 40
0.4169250688
 40
0.4575648991
 40
0.4984743865
 40
0.5393986549
 40
0.5800827137
 40
0.6202734757
 40
0.659721784
 40
0.6981844588
 40
0.7354263819
 40
0.7712226496
 40
0.8053608413
 40
0.837643493
 40
0.8530326786
 40
0.8678922169
 40
0.8822029989
 40
0.8959474279
 40
0.909109783
 40
0.9216761181
 40
0.9336348664
 40
0.9449767715
 40
0.9556956478
 40
0.9657884882
 40
0.9752562369
 40
0.9841050706
 40
0.9923470667
 40
1.0
 40
1.0
 40
1.0
 40
1.0
 10
12.8220351297
 20
9.5378148684
 30
0.0
 10
12.8213107336
 20
9.5387055409
 30
0.0
 10
12.8198834048
 20
9.5406197617
 30
0.0
 10
12.8178748413
 20
9.5437467993
 30
0.0
 10
12.8159235744
 20
9.5472289119
 30
0.0
 10
12.8140327984
 20
9.5510604387
 30
0.0
 10
12.8122052755
 20
9.5552353859
 30
0.0
 10
12.8104440345
 20
9.5597470864
 30
0.0
 10
12.8087518639
 20
9.5645882486
 30
0.0
 10
12.8071316044
 20
9.5697510079
 30
0.0
 10
12.8055859254
 20
9.5752269171
 30
0.0
 10
12.8041173997
 20
9.5810069834
 30
0.0
 10
12.802728516
 20
9.587081687
 30
0.0
 10
12.8014215517
 20
9.593440997
 30
0.0
 10
12.80019876
 20
9.6000743989
 30
0.0
 10
12.7990621349
 20
9.6069709071
 30
0.0
 10
12.7980136171
 20
9.614119103
 30
0.0
 10
12.7967173814
 20
9.6241093102
 30
0.0
 10
12.7953404069
 20
9.6371399658
 30
0.0
 10
12.7940846552
 20
9.6533712778
 30
0.0
 10
12.7932122281
 20
9.6703001984
 30
0.0
 10
12.7927291275
 20
9.6878143734
 30
0.0
 10
12.7926387867
 20
9.7057976659
 30
0.0
 10
12.7929419536
 20
9.7241307171
 30
0.0
 10
12.7936367218
 20
9.742691825
 30
0.0
 10
12.7947185396
 20
9.7613577482
 30
0.0
 10
12.7961802438
 20
9.7800045416
 30
0.0
 10
12.7980121108
 20
9.7985083896
 30
0.0
 10
12.8002019213
 20
9.8167464392
 30
0.0
 10
12.8027350402
 20
9.8345976258
 30
0.0
 10
12.8055945092
 20
9.8519434981
 30
0.0
 10
12.8087611621
 20
9.8686689986
 30
0.0
 10
12.8122137231
 20
9.8846633433
 30
0.0
 10
12.8159290258
 20
9.8998204855
 30
0.0
 10
12.8192743127
 20
9.9118552314
 30
0.0
 10
12.8220735193
 20
9.9209816586
 30
0.0
 10
12.824189249
 20
9.9274468485
 30
0.0
 10
12.8263512697
 20
9.9336313651
 30
0.0
 10
12.8285560427
 20
9.9395249834
 30
0.0
 10
12.830799831
 20
9.9451179822
 30
0.0
 10
12.8330789697
 20
9.9504011329
 30
0.0
 10
12.8353895964
 20
9.9553657752
 30
0.0
 10
12.8377279575
 20
9.9600037733
 30
0.0
 10
12.8400901578
 20
9.9643075891
 30
0.0
 10
12.8424723719
 20
9.9682702491
 30
0.0
 10
12.8448707388
 20
9.971885413
 30
0.0
 10
12.8472816228
 20
9.9751474867
 30
0.0
 10
12.8497011594
 20
9.9780509579
 30
0.0
 10
12.8513781838
 20
9.9798081182
 30
0.0
 10
12.8522184477
 20
9.9806197508
 30
0.0
  0
SPLINE
  5
347
100
AcDbEntity
  8
0
100
AcDbSpline
 62
7
  6
CONTINUOUS
 70
0
 71
3
 72
54
 73
50
 74
0
 42
0.0000001
 43
0.0000001
 44
0.0000000001
 40
0.0
 40
0.0
 40
0.0
 40
0.0
 40
0.0075207357
 40
0.0156240259
 40
0.0243308472
 40
0.0336546294
 40
0.0436024123
 40
0.0541763978
 40
0.0653744316
 40
0.0771910133
 40
0.0896175786
 40
0.1026430062
 40
0.1162539722
 40
0.1304350395
 40
0.1451691381
 40
0.1604374016
 40
0.1762196697
 40
0.1924942923
 40
0.2264273872
 40
0.2620422341
 40
0.2991280181
 40
0.3374611663
 40
0.3768076342
 40
0.4169250688
 40
0.4575648991
 40
0.4984743865
 40
0.5393986549
 40
0.5800827137
 40
0.6202734757
 40
0.659721784
 40
0.6981844588
 40
0.7354263819
 40
0.7712226496
 40
0.8053608413
 40
0.837643493
 40
0.8530326786
 40
0.8678922169
 40
0.8822029989
 40
0.8959474279
 40
0.909109783
 40
0.9216761181
 40
0.9336348664
 40
0.9449767715
 40
0.9556956478
 40
0.9657884882
 40
0.9752562369
 40
0.9841050706
 40
0.9923470667
 40
1.0
 40
1.0
 40
1.0
 40
1.0
 10
13.4043775006
 20
10.1003144375
 30
0.0
 10
13.4036531044
 20
10.10120511
 30
0.0
 10
13.4022257757
 20
10.1031193308
 30
0.0
 10
13.4002172122
 20
10.1062463684
 30
0.0
 10
13.3982659452
 20
10.109728481
 30
0.0
 10
13.3963751693
 20
10.1135600078
 30
0.0
 10
13.3945476463
 20
10.117734955
 30
0.0
 10
13.3927864054
 20
10.1222466556
 30
0.0
 10
13.3910942347
 20
10.1270878177
 30
0.0
 10
13.3894739753
 20
10.132250577
 30
0.0
 10
13.3879282963
 20
10.1377264862
 30
0.0
 10
13.3864597706
 20
10.1435065526
 30
0.0
 10
13.3850708868
 20
10.1495812561
 30
0.0
 10
13.3837639226
 20
10.1559405661
 30
0.0
 10
13.3825411309
 20
10.162573968
 30
0.0
 10
13.3814045058
 20
10.1694704762
 30
0.0
 10
13.380355988
 20
10.1766186722
 30
0.0
 10
13.3790597523
 20
10.1866088793
 30
0.0
 10
13.3776827778
 20
10.1996395349
 30
0.0
 10
13.3764270261
 20
10.2158708469
 30
0.0
 10
13.375554599
 20
10.2327997675
 30
0.0
 10
13.3750714984
 20
10.2503139425
 30
0.0
 10
13.3749811576
 20
10.268297235
 30
0.0
 10
13.3752843245
 20
10.2866302862
 30
0.0
 10
13.3759790927
 20
10.3051913941
 30
0.0
 10
13.3770609105
 20
10.3238573173
 30
0.0
 10
13.3785226146
 20
10.3425041107
 30
0.0
 10
13.3803544817
 20
10.3610079587
 30
0.0
 10
13.3825442922
 20
10.3792460083
 30
0.0
 10
13.3850774111
 20
10.3970971949
 30
0.0
 10
13.3879368801
 20
10.4144430673
 30
0.0
 10
13.391103533
 20
10.4311685677
 30
0.0
 10
13.394556094
 20
10.4471629124
 30
0.0
 10
13.3982713966
 20
10.4623200546
 30
0.0
 10
13.4016166836
 20
10.4743548005
 30
0.0
 10
13.4044158902
 20
10.4834812277
 30
0.0
 10
13.4065316199
 20
10.4899464177
 30
0.0
 10
13.4086936406
 20
10.4961309342
 30
0.0
 10
13.4108984136
 20
10.5020245526
 30
0.0
 10
13.4131422019
 20
10.5076175513
 30
0.0
 10
13.4154213406
 20
10.512900702
 30
0.0
 10
13.4177319673
 20
10.5178653443
 30
0.0
 10
13.4200703283
 20
10.5225033424
 30
0.0
 10
13.4224325286
 20
10.5268071582
 30
0.0
 10
13.4248147428
 20
10.5307698183
 30
0.0
 10
13.4272131097
 20
10.5343849821
 30
0.0
 10
13.4296239937
 20
10.5376470558
 30
0.0
 10
13.4320435303
 20
10.540550527
 30
0.0
 10
13.4337205547
 20
10.5423076873
 30
0.0
 10
13.4345608186
 20
10.5431193199
 30
0.0
  0
SPLINE
  5
348
100
AcDbEntity
  8
0
100
AcDbSpline
 62
7
  6
CONTINUOUS
 70
0
 71
3
 72
54
 73
50
 74
0
 42
0.0000001
 43
0.0000001
 44
0.0000000001
 40
0.0
 40
0.0
 40
0.0
 40
0.0
 40
0.0075207357
 40
0.0156240259
 40
0.0243308472
 40
0.0336546294
 40
0.0436024123
 40
0.0541763978
 40
0.0653744316
 40
0.0771910133
 40
0.0896175786
 40
0.1026430062
 40
0.1162539722
 40
0.1304350395
 40
0.1451691381
 40
0.1604374016
 40
0.1762196697
 40
0.1924942923
 40
0.2264273872
 40
0.2620422341
 40
0.2991280181
 40
0.3374611663
 40
0.3768076342
 40
0.4169250688
 40
0.4575648991
 40
0.4984743865
 40
0.5393986549
 40
0.5800827137
 40
0.6202734757
 40
0.659721784
 40
0.6981844588
 40
0.7354263819
 40
0.7712226496
 40
0.8053608413
 40
0.837643493
 40
0.8530326786
 40
0.8678922169
 40
0.8822029989
 40
0.8959474279
 40
0.909109783
 40
0.9216761181
 40
0.9336348664
 40
0.9449767715
 40
0.9556956478
 40
0.9657884882
 40
0.9752562369
 40
0.9841050706
 40
0.9923470667
 40
1.0
 40
1.0
 40
1.0
 40
1.0
 10
13.4043775006
 20
9.0435916536
 30
0.0
 10
13.4036531044
 20
9.044482326
 30
0.0
 10
13.4022257757
 20
9.0463965469
 30
0.0
 10
13.4002172122
 20
9.0495235845
 30
0.0
 10
13.3982659452
 20
9.0530056971
 30
0.0
 10
13.3963751693
 20
9.0568372239
 30
0.0
 10
13.3945476463
 20
9.0610121711
 30
0.0
 10
13.3927864054
 20
9.0655238716
 30
0.0
 10
13.3910942347
 20
9.0703650338
 30
0.0
 10
13.3894739753
 20
9.0755277931
 30
0.0
 10
13.3879282963
 20
9.0810037023
 30
0.0
 10
13.3864597706
 20
9.0867837686
 30
0.0
 10
13.3850708868
 20
9.0928584722
 30
0.0
 10
13.3837639226
 20
9.0992177821
 30
0.0
 10
13.3825411309
 20
9.1058511841
 30
0.0
 10
13.3814045058
 20
9.1127476923
 30
0.0
 10
13.380355988
 20
9.1198958882
 30
0.0
 10
13.3790597523
 20
9.1298860954
 30
0.0
 10
13.3776827778
 20
9.142916751
 30
0.0
 10
13.3764270261
 20
9.1591480629
 30
0.0
 10
13.375554599
 20
9.1760769836
 30
0.0
 10
13.3750714984
 20
9.1935911586
 30
0.0
 10
13.3749811576
 20
9.2115744511
 30
0.0
 10
13.3752843245
 20
9.2299075023
 30
0.0
 10
13.3759790927
 20
9.2484686102
 30
0.0
 10
13.3770609105
 20
9.2671345334
 30
0.0
 10
13.3785226146
 20
9.2857813268
 30
0.0
 10
13.3803544817
 20
9.3042851748
 30
0.0
 10
13.3825442922
 20
9.3225232244
 30
0.0
 10
13.3850774111
 20
9.340374411
 30
0.0
 10
13.3879368801
 20
9.3577202833
 30
0.0
 10
13.391103533
 20
9.3744457838
 30
0.0
 10
13.394556094
 20
9.3904401284
 30
0.0
 10
13.3982713966
 20
9.4055972707
 30
0.0
 10
13.4016166836
 20
9.4176320166
 30
0.0
 10
13.4044158902
 20
9.4267584438
 30
0.0
 10
13.4065316199
 20
9.4332236337
 30
0.0
 10
13.4086936406
 20
9.4394081502
 30
0.0
 10
13.4108984136
 20
9.4453017686
 30
0.0
 10
13.4131422019
 20
9.4508947674
 30
0.0
 10
13.4154213406
 20
9.4561779181
 30
0.0
 10
13.4177319673
 20
9.4611425604
 30
0.0
 10
13.4200703283
 20
9.4657805585
 30
0.0
 10
13.4224325286
 20
9.4700843742
 30
0.0
 10
13.4248147428
 20
9.4740470343
 30
0.0
 10
13.4272131097
 20
9.4776621982
 30
0.0
 10
13.4296239937
 20
9.4809242719
 30
0.0
 10
13.4320435303
 20
9.4838277431
 30
0.0
 10
13.4337205547
 20
9.4855849033
 30
0.0
 10
13.4345608186
 20
9.486396536
 30
0.0
  0
SPLINE
  5
349
100
AcDbEntity
  8
0
100
AcDbSpline
 62
7
  6
CONTINUOUS
 70
0
 71
3
 72
54
 73
50
 74
0
 42
0.0000001
 43
0.0000001
 44
0.0000000001
 40
0.0
 40
0.0
 40
0.0
 40
0.0
 40
0.0075207357
 40
0.0156240259
 40
0.0243308472
 40
0.0336546294
 40
0.0436024123
 40
0.0541763978
 40
0.0653744316
 40
0.0771910133
 40
0.0896175786
 40
0.1026430062
 40
0.1162539722
 40
0.1304350395
 40
0.1451691381
 40
0.1604374016
 40
0.1762196697
 40
0.1924942923
 40
0.2264273872
 40
0.2620422341
 40
0.2991280181
 40
0.3374611663
 40
0.3768076342
 40
0.4169250688
 40
0.4575648991
 40
0.4984743865
 40
0.5393986549
 40
0.5800827137
 40
0.6202734757
 40
0.659721784
 40
0.6981844588
 40
0.7354263819
 40
0.7712226496
 40
0.8053608413
 40
0.837643493
 40
0.8530326786
 40
0.8678922169
 40
0.8822029989
 40
0.8959474279
 40
0.909109783
 40
0.9216761181
 40
0.9336348664
 40
0.9449767715
 40
0.9556956478
 40
0.9657884882
 40
0.9752562369
 40
0.9841050706
 40
0.9923470667
 40
1.0
 40
1.0
 40
1.0
 40
1.0
 10
12.8220351297
 20
8.4810920845
 30
0.0
 10
12.8213107336
 20
8.4819827569
 30
0.0
 10
12.8198834048
 20
8.4838969778
 30
0.0
 10
12.8178748413
 20
8.4870240154
 30
0.0
 10
12.8159235744
 20
8.490506128
 30
0.0
 10
12.8140327984
 20
8.4943376548
 30
0.0
 10
12.8122052755
 20
8.498512602
 30
0.0
 10
12.8104440345
 20
8.5030243025
 30
0.0
 10
12.8087518639
 20
8.5078654646
 30
0.0
 10
12.8071316044
 20
8.513028224
 30
0.0
 10
12.8055859254
 20
8.5185041332
 30
0.0
 10
12.8041173997
 20
8.5242841995
 30
0.0
 10
12.802728516
 20
8.5303589031
 30
0.0
 10
12.8014215517
 20
8.536718213
 30
0.0
 10
12.80019876
 20
8.5433516149
 30
0.0
 10
12.7990621349
 20
8.5502481231
 30
0.0
 10
12.7980136171
 20
8.5573963191
 30
0.0
 10
12.7967173814
 20
8.5673865263
 30
0.0
 10
12.7953404069
 20
8.5804171819
 30
0.0
 10
12.7940846552
 20
8.5966484938
 30
0.0
 10
12.7932122281
 20
8.6135774145
 30
0.0
 10
12.7927291275
 20
8.6310915895
 30
0.0
 10
12.7926387867
 20
8.649074882
 30
0.0
 10
12.7929419536
 20
8.6674079332
 30
0.0
 10
12.7936367218
 20
8.6859690411
 30
0.0
 10
12.7947185396
 20
8.7046349642
 30
0.0
 10
12.7961802438
 20
8.7232817577
 30
0.0
 10
12.7980121108
 20
8.7417856057
 30
0.0
 10
12.8002019213
 20
8.7600236553
 30
0.0
 10
12.8027350402
 20
8.7778748419
 30
0.0
 10
12.8055945092
 20
8.7952207142
 30
0.0
 10
12.8087611621
 20
8.8119462147
 30
0.0
 10
12.8122137231
 20
8.8279405593
 30
0.0
 10
12.8159290258
 20
8.8430977016
 30
0.0
 10
12.8192743127
 20
8.8551324475
 30
0.0
 10
12.8220735193
 20
8.8642588747
 30
0.0
 10
12.824189249
 20
8.8707240646
 30
0.0
 10
12.8263512697
 20
8.8769085811
 30
0.0
 10
12.8285560427
 20
8.8828021995
 30
0.0
 10
12.830799831
 20
8.8883951983
 30
0.0
 10
12.8330789697
 20
8.893678349
 30
0.0
 10
12.8353895964
 20
8.8986429913
 30
0.0
 10
12.8377279575
 20
8.9032809894
 30
0.0
 10
12.8400901578
 20
8.9075848051
 30
0.0
 10
12.8424723719
 20
8.9115474652
 30
0.0
 10
12.8448707388
 20
8.9151626291
 30
0.0
 10
12.8472816228
 20
8.9184247028
 30
0.0
 10
12.8497011594
 20
8.921328174
 30
0.0
 10
12.8513781838
 20
8.9230853342
 30
0.0
 10
12.8522184477
 20
8.9238969669
 30
0.0
  0
SPLINE
  5
34A
100
AcDbEntity
  8
0
100
AcDbSpline
 62
7
  6
CONTINUOUS
 70
0
 71
3
 72
15
 73
11
 74
0
 42
0.0000001
 43
0.0000001
 44
0.0000000001
 40
0.0
 40
0.0
 40
0.0
 40
0.0
 40
0.1504829925
 40
0.2917570607
 40
0.4245123361
 40
0.549658856
 40
0.6683283344
 40
0.7818725043
 40
0.8918519991
 40
1.0
 40
1.0
 40
1.0
 40
1.0
 10
13.4075148939
 20
10.1277149795
 30
0.0
 10
13.4069438581
 20
10.1271634013
 30
0.0
 10
13.4058025119
 20
10.126128462
 30
0.0
 10
13.404035154
 20
10.1247491377
 30
0.0
 10
13.4022698579
 20
10.1235955482
 30
0.0
 10
13.4005083361
 20
10.1226695632
 30
0.0
 10
13.3987521364
 20
10.1219729792
 30
0.0
 10
13.3970030311
 20
10.1215076239
 30
0.0
 10
13.3952638797
 20
10.1212752231
 30
0.0
 10
13.3941089202
 20
10.1212765592
 30
0.0
 10
13.3935397134
 20
10.1213160301
 30
0.0
  0
SPLINE
  5
34B
100
AcDbEntity
  8
0
100
AcDbSpline
 62
7
  6
CONTINUOUS
 70
0
 71
3
 72
31
 73
27
 74
0
 42
0.0000001
 43
0.0000001
 44
0.0000000001
 40
0.0
 40
0.0
 40
0.0
 40
0.0
 40
0.0760200816
 40
0.1532656422
 40
0.2310428665
 40
0.3086487284
 40
0.3853832589
 40
0.4605564147
 40
0.5334962602
 40
0.6035573757
 40
0.6373172177
 40
0.6701318209
 40
0.7019319125
 40
0.7326517115
 40
0.7622290491
 40
0.790606063
 40
0.8177296049
 40
0.8435515631
 40
0.8680298995
 40
0.8911293074
 40
0.9128221273
 40
0.9330902288
 40
0.9519263105
 40
0.969336774
 40
0.9853467494
 40
1.0
 40
1.0
 40
1.0
 40
1.0
 10
13.4597962978
 20
10.3733319693
 30
0.0
 10
13.4597962978
 20
10.3668753783
 30
0.0
 10
13.4596236469
 20
10.3538575568
 30
0.0
 10
13.4588702313
 20
10.3342470302
 30
0.0
 10
13.4576266678
 20
10.3145264178
 30
0.0
 10
13.4559048422
 20
10.2948853892
 30
0.0
 10
13.4537214031
 20
10.2755127932
 30
0.0
 10
13.4510975412
 20
10.2565947711
 30
0.0
 10
13.4480587035
 20
10.238313211
 30
0.0
 10
13.4451707892
 20
10.2235782321
 30
0.0
 10
13.4426659916
 20
10.2122464879
 30
0.0
 10
13.4407262601
 20
10.2041191164
 30
0.0
 10
13.4387069342
 20
10.1962774789
 30
0.0
 10
13.4366128941
 20
10.1887403978
 30
0.0
 10
13.4344491929
 20
10.1815259763
 30
0.0
 10
13.4322210757
 20
10.1746515126
 30
0.0
 10
13.4299339589
 20
10.1681334621
 30
0.0
 10
13.4275933471
 20
10.161987409
 30
0.0
 10
13.42520491
 20
10.1562279933
 30
0.0
 10
13.4227744235
 20
10.1508688709
 30
0.0
 10
13.420307682
 20
10.1459226908
 30
0.0
 10
13.4178105459
 20
10.1414010109
 30
0.0
 10
13.4152889215
 20
10.1373142982
 30
0.0
 10
13.4127483347
 20
10.1336716566
 30
0.0
 10
13.4101946507
 20
10.130481719
 30
0.0
 10
13.4084100351
 20
10.1285796196
 30
0.0
 10
13.4075148939
 20
10.1277149795
 30
0.0
  0
SPLINE
  5
34C
100
AcDbEntity
  8
0
100
AcDbSpline
 62
7
  6
CONTINUOUS
 70
0
 71
3
 72
39
 73
35
 74
0
 42
0.0000001
 43
0.0000001
 44
0.0000000001
 40
0.0
 40
0.0
 40
0.0
 40
0.0
 40
0.0311159281
 40
0.0620233527
 40
0.0927351369
 40
0.1232711779
 40
0.1536587327
 40
0.183931211
 40
0.2141268396
 40
0.2442870991
 40
0.2744549758
 40
0.3046731313
 40
0.3349820901
 40
0.365418544
 40
0.3960138648
 40
0.4267928817
 40
0.4577729978
 40
0.4889636202
 40
0.5203659698
 40
0.5519731786
 40
0.5837707184
 40
0.6157370646
 40
0.6478445903
 40
0.6800606407
 40
0.712348731
 40
0.7446698627
 40
0.7769838849
 40
0.8092508934
 40
0.8414326252
 40
0.8734938006
 40
0.9054034144
 40
0.9371358797
 40
0.9686718386
 40
1.0
 40
1.0
 40
1.0
 40
1.0
 10
9.9723411442
 20
7.4512364462
 30
0.0
 10
9.9723411442
 20
7.4424192585
 30
0.0
 10
9.971480333
 20
7.4248312122
 30
0.0
 10
9.9675874415
 20
7.3988007805
 30
0.0
 10
9.9611337406
 20
7.3734503436
 30
0.0
 10
9.9521804945
 20
7.3490279087
 30
0.0
 10
9.9408132774
 20
7.3257687997
 30
0.0
 10
9.9271412091
 20
7.3038983919
 30
0.0
 10
9.9112960787
 20
7.2836283832
 30
0.0
 10
9.8934308136
 20
7.2651552156
 30
0.0
 10
9.8737183583
 20
7.2486576095
 30
0.0
 10
9.8523494865
 20
7.2342951977
 30
0.0
 10
9.8295312464
 20
7.2222064473
 30
0.0
 10
9.8054845193
 20
7.2125077263
 30
0.0
 10
9.7804419642
 20
7.2052919277
 30
0.0
 10
9.7546455833
 20
7.2006277418
 30
0.0
 10
9.7283443399
 20
7.1985592156
 30
0.0
 10
9.7017917503
 20
7.1991050968
 30
0.0
 10
9.6752434393
 20
7.2022592592
 30
0.0
 10
9.6489546891
 20
7.2079902513
 30
0.0
 10
9.6231780976
 20
7.2162422554
 30
0.0
 10
9.5981611257
 20
7.2269351754
 30
0.0
 10
9.5741438484
 20
7.2399657581
 30
0.0
 10
9.551356699
 20
7.2552084691
 30
0.0
 10
9.5300182197
 20
7.2725166148
 30
0.0
 10
9.5103332195
 20
7.2917239854
 30
0.0
 10
9.4924905224
 20
7.3126460617
 30
0.0
 10
9.4766615964
 20
7.3350821709
 30
0.0
 10
9.4629985013
 20
7.3588169664
 30
0.0
 10
9.4516328321
 20
7.3836228625
 30
0.0
 10
9.4426742005
 20
7.4092615758
 30
0.0
 10
9.4362093028
 20
7.4354878718
 30
0.0
 10
9.4323010196
 20
7.462046569
 30
0.0
 10
9.4314226494
 20
7.4798719439
 30
0.0
 10
9.4314226494
 20
7.4887492713
 30
0.0
  0
SPLINE
  5
34D
100
AcDbEntity
  8
0
100
AcDbSpline
 62
7
  6
CONTINUOUS
 70
0
 71
3
 72
39
 73
35
 74
0
 42
0.0000001
 43
0.0000001
 44
0.0000000001
 40
0.0
 40
0.0
 40
0.0
 40
0.0
 40
0.0311159281
 40
0.0620233527
 40
0.0927351369
 40
0.1232711779
 40
0.1536587327
 40
0.183931211
 40
0.2141268396
 40
0.2442870991
 40
0.2744549758
 40
0.3046731313
 40
0.3349820901
 40
0.365418544
 40
0.3960138648
 40
0.4267928817
 40
0.4577729978
 40
0.4889636202
 40
0.5203659698
 40
0.5519731786
 40
0.5837707184
 40
0.6157370646
 40
0.6478445903
 40
0.6800606407
 40
0.712348731
 40
0.7446698627
 40
0.7769838849
 40
0.8092508934
 40
0.8414326252
 40
0.8734938006
 40
0.9054034144
 40
0.9371358797
 40
0.9686718386
 40
1.0
 40
1.0
 40
1.0
 40
1.0
 10
9.4314226494
 20
7.4887492713
 30
0.0
 10
9.4314226494
 20
7.497566459
 30
0.0
 10
9.4322834606
 20
7.5151545053
 30
0.0
 10
9.4361763521
 20
7.541184937
 30
0.0
 10
9.442630053
 20
7.5665353739
 30
0.0
 10
9.4515832991
 20
7.5909578088
 30
0.0
 10
9.4629505161
 20
7.6142169178
 30
0.0
 10
9.4766225845
 20
7.6360873256
 30
0.0
 10
9.4924677149
 20
7.6563573343
 30
0.0
 10
9.5103329799
 20
7.6748305019
 30
0.0
 10
9.5300454353
 20
7.691328108
 30
0.0
 10
9.5514143071
 20
7.7056905198
 30
0.0
 10
9.5742325472
 20
7.7177792702
 30
0.0
 10
9.5982792743
 20
7.7274779912
 30
0.0
 10
9.6233218294
 20
7.7346937898
 30
0.0
 10
9.6491182103
 20
7.7393579757
 30
0.0
 10
9.6754194537
 20
7.7414265019
 30
0.0
 10
9.7019720433
 20
7.7408806207
 30
0.0
 10
9.7285203542
 20
7.7377264583
 30
0.0
 10
9.7548091044
 20
7.7319954662
 30
0.0
 10
9.780585696
 20
7.7237434621
 30
0.0
 10
9.8056026678
 20
7.7130505421
 30
0.0
 10
9.8296199452
 20
7.7000199594
 30
0.0
 10
9.8524070946
 20
7.6847772484
 30
0.0
 10
9.8737455739
 20
7.6674691027
 30
0.0
 10
9.893430574
 20
7.6482617321
 30
0.0
 10
9.9112732712
 20
7.6273396558
 30
0.0
 10
9.9271021972
 20
7.6049035466
 30
0.0
 10
9.9407652923
 20
7.5811687511
 30
0.0
 10
9.9521309614
 20
7.556362855
 30
0.0
 10
9.9610895931
 20
7.5307241417
 30
0.0
 10
9.9675544908
 20
7.5044978457
 30
0.0
 10
9.971462774
 20
7.4779391485
 30
0.0
 10
9.9723411442
 20
7.4601137736
 30
0.0
 10
9.9723411442
 20
7.4512364462
 30
0.0
  0
SPLINE
  5
34E
100
AcDbEntity
  8
0
100
AcDbSpline
 62
7
  6
CONTINUOUS
 70
0
 71
3
 72
15
 73
11
 74
0
 42
0.0000001
 43
0.0000001
 44
0.0000000001
 40
0.0
 40
0.0
 40
0.0
 40
0.0
 40
0.1504829925
 40
0.2917570607
 40
0.4245123361
 40
0.549658856
 40
0.6683283344
 40
0.7818725043
 40
0.8918519991
 40
1.0
 40
1.0
 40
1.0
 40
1.0
 10
13.4075148939
 20
9.0709921956
 30
0.0
 10
13.4069438581
 20
9.0704406173
 30
0.0
 10
13.4058025119
 20
9.0694056781
 30
0.0
 10
13.404035154
 20
9.0680263538
 30
0.0
 10
13.4022698579
 20
9.0668727643
 30
0.0
 10
13.4005083361
 20
9.0659467793
 30
0.0
 10
13.3987521364
 20
9.0652501953
 30
0.0
 10
13.3970030311
 20
9.06478484
 30
0.0
 10
13.3952638797
 20
9.0645524391
 30
0.0
 10
13.3941089202
 20
9.0645537753
 30
0.0
 10
13.3935397134
 20
9.0645932462
 30
0.0
  0
SPLINE
  5
34F
100
AcDbEntity
  8
0
100
AcDbSpline
 62
7
  6
CONTINUOUS
 70
0
 71
3
 72
51
 73
47
 74
0
 42
0.0000001
 43
0.0000001
 44
0.0000000001
 40
0.0
 40
0.0
 40
0.0
 40
0.0
 40
0.0417739629
 40
0.0840371215
 40
0.1266586488
 40
0.1695067259
 40
0.2124483844
 40
0.2553503964
 40
0.2980796496
 40
0.3405037262
 40
0.3824914108
 40
0.4239132254
 40
0.4646419608
 40
0.5045532181
 40
0.5435259598
 40
0.5814430774
 40
0.6181919816
 40
0.6536652261
 40
0.6877611803
 40
0.7203847716
 40
0.7514483292
 40
0.7808725758
 40
0.7949482763
 40
0.8085888699
 40
0.8217874589
 40
0.834537859
 40
0.846834877
 40
0.8586742173
 40
0.8700527567
 40
0.880968526
 40
0.8914209889
 40
0.9014111271
 40
0.9109417413
 40
0.9200176725
 40
0.928646158
 40
0.9368372277
 40
0.9446041567
 40
0.9519640678
 40
0.9589385046
 40
0.9655542088
 40
0.9718437296
 40
0.9778461439
 40
0.9836073323
 40
0.9891800323
 40
0.99462307
 40
1.0
 40
1.0
 40
1.0
 40
1.0
 10
13.2728119899
 20
9.6363575944
 30
0.0
 10
13.2728119899
 20
9.6270287551
 30
0.0
 10
13.2726664474
 20
9.6082615375
 30
0.0
 10
13.272023047
 20
9.5799828347
 30
0.0
 10
13.2709551445
 20
9.5514768968
 30
0.0
 10
13.2694662623
 20
9.5228381533
 30
0.0
 10
13.267561305
 20
9.4941612999
 30
0.0
 10
13.2652465777
 20
9.465541231
 30
0.0
 10
13.2625297445
 20
9.4370726256
 30
0.0
 10
13.2594198131
 20
9.4088496672
 30
0.0
 10
13.2559271011
 20
9.3809657182
 30
0.0
 10
13.2520632038
 20
9.3535130123
 30
0.0
 10
13.2478409562
 20
9.3265823452
 30
0.0
 10
13.2432743907
 20
9.3002627712
 30
0.0
 10
13.2383786926
 20
9.2746413037
 30
0.0
 10
13.2331701502
 20
9.2498026213
 30
0.0
 10
13.2276661019
 20
9.2258287822
 30
0.0
 10
13.2218848806
 20
9.2027989341
 30
0.0
 10
13.2158457507
 20
9.1807890674
 30
0.0
 10
13.20956885
 20
9.1598716455
 30
0.0
 10
13.203075094
 20
9.1401156822
 30
0.0
 10
13.1974205424
 20
9.1244507944
 30
0.0
 10
13.1927935415
 20
9.1125582067
 30
0.0
 10
13.1893339323
 20
9.1041009748
 30
0.0
 10
13.1858365084
 20
9.095980557
 30
0.0
 10
13.1823040767
 20
9.0882036381
 30
0.0
 10
13.1787396157
 20
9.0807765988
 30
0.0
 10
13.175146018
 20
9.073705544
 30
0.0
 10
13.1715262838
 20
9.0669962518
 30
0.0
 10
13.1678833475
 20
9.0606542138
 30
0.0
 10
13.1642202141
 20
9.0546845852
 30
0.0
 10
13.1605398354
 20
9.04909222
 30
0.0
 10
13.1568451883
 20
9.0438816342
 30
0.0
 10
13.1531392059
 20
9.0390570267
 30
0.0
 10
13.1494247889
 20
9.0346222733
 30
0.0
 10
13.1457047978
 20
9.0305809221
 30
0.0
 10
13.1419819921
 20
9.0269362452
 30
0.0
 10
13.1382590932
 20
9.0236911988
 30
0.0
 10
13.1345386649
 20
9.020848573
 30
0.0
 10
13.1308232667
 20
9.018410899
 30
0.0
 10
13.1271153404
 20
9.0163807297
 30
0.0
 10
13.1234174755
 20
9.0147604332
 30
0.0
 10
13.1197324643
 20
9.013552542
 30
0.0
 10
13.1160633962
 20
9.012759263
 30
0.0
 10
13.1124146862
 20
9.0123826614
 30
0.0
 10
13.1099922535
 20
9.01241027
 30
0.0
 10
13.10879437
 20
9.0124933391
 30
0.0
  0
SPLINE
  5
350
100
AcDbEntity
  8
0
100
AcDbSpline
 62
7
  6
CONTINUOUS
 70
0
 71
3
 72
31
 73
27
 74
0
 42
0.0000001
 43
0.0000001
 44
0.0000000001
 40
0.0
 40
0.0
 40
0.0
 40
0.0
 40
0.0760200816
 40
0.1532656422
 40
0.2310428665
 40
0.3086487284
 40
0.3853832589
 40
0.4605564147
 40
0.5334962602
 40
0.6035573757
 40
0.6373172177
 40
0.6701318209
 40
0.7019319125
 40
0.7326517115
 40
0.7622290491
 40
0.790606063
 40
0.8177296049
 40
0.8435515631
 40
0.8680298995
 40
0.8911293074
 40
0.9128221273
 40
0.9330902288
 40
0.9519263105
 40
0.969336774
 40
0.9853467494
 40
1.0
 40
1.0
 40
1.0
 40
1.0
 10
13.4597962978
 20
9.3166091854
 30
0.0
 10
13.4597962978
 20
9.3101525944
 30
0.0
 10
13.4596236469
 20
9.2971347729
 30
0.0
 10
13.4588702313
 20
9.2775242463
 30
0.0
 10
13.4576266678
 20
9.2578036339
 30
0.0
 10
13.4559048422
 20
9.2381626052
 30
0.0
 10
13.4537214031
 20
9.2187900093
 30
0.0
 10
13.4510975412
 20
9.1998719872
 30
0.0
 10
13.4480587035
 20
9.1815904271
 30
0.0
 10
13.4451707892
 20
9.1668554481
 30
0.0
 10
13.4426659916
 20
9.155523704
 30
0.0
 10
13.4407262601
 20
9.1473963325
 30
0.0
 10
13.4387069342
 20
9.1395546949
 30
0.0
 10
13.4366128941
 20
9.1320176138
 30
0.0
 10
13.4344491929
 20
9.1248031924
 30
0.0
 10
13.4322210757
 20
9.1179287287
 30
0.0
 10
13.4299339589
 20
9.1114106782
 30
0.0
 10
13.4275933471
 20
9.105264625
 30
0.0
 10
13.42520491
 20
9.0995052094
 30
0.0
 10
13.4227744235
 20
9.094146087
 30
0.0
 10
13.420307682
 20
9.0891999069
 30
0.0
 10
13.4178105459
 20
9.0846782269
 30
0.0
 10
13.4152889215
 20
9.0805915143
 30
0.0
 10
13.4127483347
 20
9.0769488726
 30
0.0
 10
13.4101946507
 20
9.0737589351
 30
0.0
 10
13.4084100351
 20
9.0718568356
 30
0.0
 10
13.4075148939
 20
9.0709921956
 30
0.0
  0
SPLINE
  5
351
100
AcDbEntity
  8
0
100
AcDbSpline
 62
7
  6
CONTINUOUS
 70
0
 71
3
 72
53
 73
49
 74
0
 42
0.0000001
 43
0.0000001
 44
0.0000000001
 40
0.0
 40
0.0
 40
0.0
 40
0.0
 40
0.0055575334
 40
0.0111779591
 40
0.0169218931
 40
0.0228457847
 40
0.029000565
 40
0.0354309743
 40
0.0421754345
 40
0.0492662879
 40
0.0567303589
 40
0.0645894686
 40
0.0728611764
 40
0.0815592161
 40
0.0906941791
 40
0.1002737964
 40
0.1103034837
 40
0.1207865163
 40
0.1317244176
 40
0.1431170941
 40
0.1549630719
 40
0.1672596408
 40
0.1800029545
 40
0.1931882087
 40
0.2068096306
 40
0.2208606897
 40
0.2353340137
 40
0.2502216112
 40
0.2655147581
 40
0.2812041995
 40
0.3137312779
 40
0.3477186146
 40
0.3830737319
 40
0.419697545
 40
0.4574851157
 40
0.4963263298
 40
0.5361065238
 40
0.5767070763
 40
0.6180059734
 40
0.6598783563
 40
0.7021970576
 40
0.7448331294
 40
0.7876563632
 40
0.8305358211
 40
0.8733403081
 40
0.9159390405
 40
0.9582017244
 40
1.0
 40
1.0
 40
1.0
 40
1.0
 10
9.3728148674
 20
11.1674925869
 30
0.0
 10
9.3728148712
 20
11.1694271014
 30
0.0
 10
9.3730314689
 20
11.1733213907
 30
0.0
 10
9.374003602
 20
11.1791420324
 30
0.0
 10
9.3756213003
 20
11.1849496975
 30
0.0
 10
9.3778814677
 20
11.1907376389
 30
0.0
 10
9.3807803659
 20
11.196501167
 30
0.0
 10
9.3843140794
 20
11.2022358786
 30
0.0
 10
9.3884786304
 20
11.2079378027
 30
0.0
 10
9.3932698706
 20
11.2136031541
 30
0.0
 10
9.3986835908
 20
11.2192280418
 30
0.0
 10
9.4047151739
 20
11.2248086495
 30
0.0
 10
9.4113597934
 20
11.2303408852
 30
0.0
 10
9.4186120611
 20
11.2358207692
 30
0.0
 10
9.426466263
 20
11.2412440483
 30
0.0
 10
9.4349160896
 20
11.2466066247
 30
0.0
 10
9.443954831
 20
11.2519042018
 30
0.0
 10
9.4535752123
 20
11.2571326326
 30
0.0
 10
9.463769513
 20
11.2622876738
 30
0.0
 10
9.4745294967
 20
11.2673651867
 30
0.0
 10
9.4858464583
 20
11.2723610431
 30
0.0
 10
9.4977112216
 20
11.2772711575
 30
0.0
 10
9.5101141377
 20
11.282091551
 30
0.0
 10
9.5230451208
 20
11.2868182296
 30
0.0
 10
9.5364936222
 20
11.2914473796
 30
0.0
 10
9.5504486804
 20
11.2959751337
 30
0.0
 10
9.5648988929
 20
11.3003978497
 30
0.0
 10
9.5798324563
 20
11.3047118134
 30
0.0
 10
9.5952371737
 20
11.3089135831
 30
0.0
 10
9.616646021
 20
11.3144279154
 30
0.0
 10
9.644499363
 20
11.3209980571
 30
0.0
 10
9.679204204
 20
11.3282906369
 30
0.0
 10
9.7154665258
 20
11.3350591451
 30
0.0
 10
9.7531676214
 20
11.3412812048
 30
0.0
 10
9.7921842696
 20
11.346936215
 30
0.0
 10
9.8323887886
 20
11.3520054719
 30
0.0
 10
9.8736495757
 20
11.3564722143
 30
0.0
 10
9.9158315218
 20
11.3603216798
 30
0.0
 10
9.9587964717
 20
11.3635411503
 30
0.0
 10
10.0024036816
 20
11.3661199922
 30
0.0
 10
10.0465102868
 20
11.3680496903
 30
0.0
 10
10.0909717737
 20
11.3693238731
 30
0.0
 10
10.1356424598
 20
11.3699383358
 30
0.0
 10
10.180375966
 20
11.369891047
 30
0.0
 10
10.2250257241
 20
11.3691821695
 30
0.0
 10
10.2694454075
 20
11.3678140295
 30
0.0
 10
10.3134894
 20
11.3657911691
 30
0.0
 10
10.3426965332
 20
11.3639988248
 30
0.0
 10
10.3572111782
 20
11.3629922307
 30
0.0
  0
SPLINE
  5
352
100
AcDbEntity
  8
0
100
AcDbSpline
 62
7
  6
CONTINUOUS
 70
0
 71
3
 72
15
 73
11
 74
0
 42
0.0000001
 43
0.0000001
 44
0.0000000001
 40
0.0
 40
0.0
 40
0.0
 40
0.0
 40
0.1504829925
 40
0.2917570607
 40
0.4245123361
 40
0.549658856
 40
0.6683283344
 40
0.7818725043
 40
0.8918519991
 40
1.0
 40
1.0
 40
1.0
 40
1.0
 10
12.825172523
 20
8.5084926265
 30
0.0
 10
12.8246014872
 20
8.5079410482
 30
0.0
 10
12.823460141
 20
8.506906109
 30
0.0
 10
12.8216927831
 20
8.5055267847
 30
0.0
 10
12.8199274871
 20
8.5043731952
 30
0.0
 10
12.8181659652
 20
8.5034472102
 30
0.0
 10
12.8164097655
 20
8.5027506262
 30
0.0
 10
12.8146606602
 20
8.5022852709
 30
0.0
 10
12.8129215088
 20
8.50205287
 30
0.0
 10
12.8117665493
 20
8.5020542062
 30
0.0
 10
12.8111973425
 20
8.5020936771
 30
0.0
  0
SPLINE
  5
353
100
AcDbEntity
  8
0
100
AcDbSpline
 62
7
  6
CONTINUOUS
 70
0
 71
3
 72
23
 73
19
 74
0
 42
0.0000001
 43
0.0000001
 44
0.0000000001
 40
0.0
 40
0.0
 40
0.0
 40
0.0
 40
0.0755934099
 40
0.1466381264
 40
0.2134664798
 40
0.2765154076
 40
0.3363268198
 40
0.3935473187
 40
0.4489240048
 40
0.5032892102
 40
0.5575270935
 40
0.6125284697
 40
0.6691443351
 40
0.7281499311
 40
0.7902200951
 40
0.8559242127
 40
0.925726745
 40
1.0
 40
1.0
 40
1.0
 40
1.0
 10
12.8522184477
 20
9.5362938444
 30
0.0
 10
12.8515792488
 20
9.5356764256
 30
0.0
 10
12.8503016459
 20
9.5345166995
 30
0.0
 10
12.8483244329
 20
9.5329673189
 30
0.0
 10
12.8463494994
 20
9.5316660378
 30
0.0
 10
12.8443787241
 20
9.5306148526
 30
0.0
 10
12.8424137425
 20
9.5298156775
 30
0.0
 10
12.8404565685
 20
9.529270428
 30
0.0
 10
12.8385097558
 20
9.528981001
 30
0.0
 10
12.8365765574
 20
9.5289488601
 30
0.0
 10
12.8346606858
 20
9.5291743692
 30
0.0
 10
12.8327658754
 20
9.5296569845
 30
0.0
 10
12.8308952936
 20
9.5303949224
 30
0.0
 10
12.8290514946
 20
9.5313861975
 30
0.0
 10
12.827236258
 20
9.5326283876
 30
0.0
 10
12.8254511368
 20
9.5341194621
 30
0.0
 10
12.8236974962
 20
9.5358571274
 30
0.0
 10
12.8225860803
 20
9.537137454
 30
0.0
 10
12.8220351297
 20
9.5378148684
 30
0.0
  0
SPLINE
  5
354
100
AcDbEntity
  8
0
100
AcDbSpline
 62
7
  6
CONTINUOUS
 70
0
 71
3
 72
31
 73
27
 74
0
 42
0.0000001
 43
0.0000001
 44
0.0000000001
 40
0.0
 40
0.0
 40
0.0
 40
0.0
 40
0.0760200816
 40
0.1532656422
 40
0.2310428665
 40
0.3086487284
 40
0.3853832589
 40
0.4605564147
 40
0.5334962602
 40
0.6035573757
 40
0.6373172177
 40
0.6701318209
 40
0.7019319125
 40
0.7326517115
 40
0.7622290491
 40
0.790606063
 40
0.8177296049
 40
0.8435515631
 40
0.8680298995
 40
0.8911293074
 40
0.9128221273
 40
0.9330902288
 40
0.9519263105
 40
0.969336774
 40
0.9853467494
 40
1.0
 40
1.0
 40
1.0
 40
1.0
 10
12.877453927
 20
8.7541096162
 30
0.0
 10
12.877453927
 20
8.7476530253
 30
0.0
 10
12.877281276
 20
8.7346352038
 30
0.0
 10
12.8765278604
 20
8.7150246772
 30
0.0
 10
12.8752842969
 20
8.6953040648
 30
0.0
 10
12.8735624713
 20
8.6756630361
 30
0.0
 10
12.8713790322
 20
8.6562904402
 30
0.0
 10
12.8687551703
 20
8.637372418
 30
0.0
 10
12.8657163326
 20
8.619090858
 30
0.0
 10
12.8628284183
 20
8.604355879
 30
0.0
 10
12.8603236207
 20
8.5930241349
 30
0.0
 10
12.8583838892
 20
8.5848967634
 30
0.0
 10
12.8563645633
 20
8.5770551258
 30
0.0
 10
12.8542705232
 20
8.5695180447
 30
0.0
 10
12.852106822
 20
8.5623036233
 30
0.0
 10
12.8498787048
 20
8.5554291596
 30
0.0
 10
12.847591588
 20
8.5489111091
 30
0.0
 10
12.8452509762
 20
8.5427650559
 30
0.0
 10
12.8428625391
 20
8.5370056403
 30
0.0
 10
12.8404320526
 20
8.5316465178
 30
0.0
 10
12.8379653111
 20
8.5267003378
 30
0.0
 10
12.835468175
 20
8.5221786578
 30
0.0
 10
12.8329465506
 20
8.5180919452
 30
0.0
 10
12.8304059638
 20
8.5144493035
 30
0.0
 10
12.8278522798
 20
8.511259366
 30
0.0
 10
12.8260676642
 20
8.5093572665
 30
0.0
 10
12.825172523
 20
8.5084926265
 30
0.0
  0
SPLINE
  5
355
100
AcDbEntity
  8
0
100
AcDbSpline
 62
7
  6
CONTINUOUS
 70
0
 71
3
 72
23
 73
19
 74
0
 42
0.0000001
 43
0.0000001
 44
0.0000000001
 40
0.0
 40
0.0
 40
0.0
 40
0.0
 40
0.0755934099
 40
0.1466381264
 40
0.2134664798
 40
0.2765154076
 40
0.3363268198
 40
0.3935473187
 40
0.4489240048
 40
0.5032892102
 40
0.5575270935
 40
0.6125284697
 40
0.6691443351
 40
0.7281499311
 40
0.7902200951
 40
0.8559242127
 40
0.925726745
 40
1.0
 40
1.0
 40
1.0
 40
1.0
 10
13.4345608186
 20
10.0987934135
 30
0.0
 10
13.4339216197
 20
10.0981759947
 30
0.0
 10
13.4326440168
 20
10.0970162686
 30
0.0
 10
13.4306668037
 20
10.095466888
 30
0.0
 10
13.4286918703
 20
10.0941656069
 30
0.0
 10
13.426721095
 20
10.0931144217
 30
0.0
 10
13.4247561134
 20
10.0923152466
 30
0.0
 10
13.4227989394
 20
10.0917699971
 30
0.0
 10
13.4208521267
 20
10.0914805701
 30
0.0
 10
13.4189189283
 20
10.0914484292
 30
0.0
 10
13.4170030567
 20
10.0916739383
 30
0.0
 10
13.4151082463
 20
10.0921565536
 30
0.0
 10
13.4132376645
 20
10.0928944915
 30
0.0
 10
13.4113938655
 20
10.0938857666
 30
0.0
 10
13.4095786288
 20
10.0951279567
 30
0.0
 10
13.4077935077
 20
10.0966190312
 30
0.0
 10
13.4060398671
 20
10.0983566965
 30
0.0
 10
13.4049284511
 20
10.0996370231
 30
0.0
 10
13.4043775006
 20
10.1003144375
 30
0.0
  0
SPLINE
  5
356
100
AcDbEntity
  8
0
100
AcDbSpline
 62
7
  6
CONTINUOUS
 70
0
 71
3
 72
48
 73
44
 74
0
 42
0.0000001
 43
0.0000001
 44
0.0000000001
 40
0.0
 40
0.0
 40
0.0
 40
0.0
 40
0.0958287767
 40
0.1428190415
 40
0.1890973044
 40
0.2345926372
 40
0.2792364825
 40
0.3229620954
 40
0.3657047087
 40
0.407401818
 40
0.4479933573
 40
0.4874219524
 40
0.5256331251
 40
0.5625755503
 40
0.5982013669
 40
0.63246656
 40
0.6653313195
 40
0.6967604983
 40
0.7267241853
 40
0.7551984564
 40
0.7821662274
 40
0.8076183351
 40
0.8197764033
 40
0.8315565605
 40
0.8429605481
 40
0.8539910465
 40
0.8646516431
 40
0.8749469108
 40
0.8848826809
 40
0.8944659692
 40
0.9037052702
 40
0.9126106941
 40
0.9211940359
 40
0.929469141
 40
0.9374519366
 40
0.9451606785
 40
0.959834833
 40
0.9668566842
 40
0.9737035627
 40
0.9804067932
 40
0.9870000362
 40
0.9935188103
 40
1.0
 40
1.0
 40
1.0
 40
1.0
 10
10.3572111782
 20
11.3629922307
 30
0.0
 10
10.3775791692
 20
11.3615797058
 30
0.0
 10
10.4079129956
 20
11.3591362902
 30
0.0
 10
10.4480078616
 20
11.3551855895
 30
0.0
 10
10.4773931917
 20
11.3519283533
 30
0.0
 10
10.5062390669
 20
11.3483631901
 30
0.0
 10
10.5344972503
 20
11.3444960766
 30
0.0
 10
10.5621205104
 20
11.3403335254
 30
0.0
 10
10.5890626915
 20
11.3358825276
 30
0.0
 10
10.615278768
 20
11.3311505623
 30
0.0
 10
10.6407249508
 20
11.3261455811
 30
0.0
 10
10.6653587568
 20
11.32087601
 30
0.0
 10
10.6891390773
 20
11.3153507119
 30
0.0
 10
10.7120262441
 20
11.3095789766
 30
0.0
 10
10.7339821096
 20
11.3035705006
 30
0.0
 10
10.7549701282
 20
11.2973353943
 30
0.0
 10
10.7749554135
 20
11.2908841352
 30
0.0
 10
10.7939048081
 20
11.2842275463
 30
0.0
 10
10.8117869167
 20
11.2773767654
 30
0.0
 10
10.8285723325
 20
11.2703432147
 30
0.0
 10
10.8442332129
 20
11.2631386208
 30
0.0
 10
10.8565064577
 20
11.2569106099
 30
0.0
 10
10.8657287671
 20
11.2518413649
 30
0.0
 10
10.8722425048
 20
11.2480623066
 30
0.0
 10
10.8784564432
 20
11.2442495345
 30
0.0
 10
10.8843680405
 20
11.2404046084
 30
0.0
 10
10.8899748638
 20
11.2365291211
 30
0.0
 10
10.8952745689
 20
11.2326245912
 30
0.0
 10
10.9002650132
 20
11.2286926611
 30
0.0
 10
10.9049441095
 20
11.2247348571
 30
0.0
 10
10.9093099226
 20
11.2207527482
 30
0.0
 10
10.9133606702
 20
11.2167479479
 30
0.0
 10
10.9170946083
 20
11.2127219065
 30
0.0
 10
10.9205101344
 20
11.2086763495
 30
0.0
 10
10.9236059694
 20
11.2046123693
 30
0.0
 10
10.9272449351
 20
11.1992607913
 30
0.0
 10
10.9303237042
 20
11.1937827765
 30
0.0
 10
10.9327629383
 20
11.1882079155
 30
0.0
 10
10.9342399087
 20
11.1840772557
 30
0.0
 10
10.9353896785
 20
11.1799384714
 30
0.0
 10
10.9362116478
 20
11.17579325
 30
0.0
 10
10.9367050741
 20
11.1716439907
 30
0.0
 10
10.9368148392
 20
11.1688730316
 30
0.0
 10
10.9368148364
 20
11.1674921741
 30
0.0
  0
SPLINE
  5
357
100
AcDbEntity
  8
0
100
AcDbSpline
 62
7
  6
CONTINUOUS
 70
0
 71
3
 72
23
 73
19
 74
0
 42
0.0000001
 43
0.0000001
 44
0.0000000001
 40
0.0
 40
0.0
 40
0.0
 40
0.0
 40
0.0755934099
 40
0.1466381264
 40
0.2134664798
 40
0.2765154076
 40
0.3363268198
 40
0.3935473187
 40
0.4489240048
 40
0.5032892102
 40
0.5575270935
 40
0.6125284697
 40
0.6691443351
 40
0.7281499311
 40
0.7902200951
 40
0.8559242127
 40
0.925726745
 40
1.0
 40
1.0
 40
1.0
 40
1.0
 10
13.4345608186
 20
9.0420706296
 30
0.0
 10
13.4339216197
 20
9.0414532108
 30
0.0
 10
13.4326440168
 20
9.0402934847
 30
0.0
 10
13.4306668037
 20
9.0387441041
 30
0.0
 10
13.4286918703
 20
9.037442823
 30
0.0
 10
13.426721095
 20
9.0363916377
 30
0.0
 10
13.4247561134
 20
9.0355924627
 30
0.0
 10
13.4227989394
 20
9.0350472132
 30
0.0
 10
13.4208521267
 20
9.0347577862
 30
0.0
 10
13.4189189283
 20
9.0347256453
 30
0.0
 10
13.4170030567
 20
9.0349511544
 30
0.0
 10
13.4151082463
 20
9.0354337697
 30
0.0
 10
13.4132376645
 20
9.0361717076
 30
0.0
 10
13.4113938655
 20
9.0371629826
 30
0.0
 10
13.4095786288
 20
9.0384051727
 30
0.0
 10
13.4077935077
 20
9.0398962473
 30
0.0
 10
13.4060398671
 20
9.0416339126
 30
0.0
 10
13.4049284511
 20
9.0429142392
 30
0.0
 10
13.4043775006
 20
9.0435916536
 30
0.0
  0
SPLINE
  5
358
100
AcDbEntity
  8
0
100
AcDbSpline
 62
7
  6
CONTINUOUS
 70
0
 71
3
 72
41
 73
37
 74
0
 42
0.0000001
 43
0.0000001
 44
0.0000000001
 40
0.0
 40
0.0
 40
0.0
 40
0.0
 40
0.0299421231
 40
0.0449237695
 40
0.0599145183
 40
0.0899291758
 40
0.1200146052
 40
0.1350933672
 40
0.1501974867
 40
0.1804849861
 40
0.2108989765
 40
0.2414525971
 40
0.2721557632
 40
0.3030149856
 40
0.3340332752
 40
0.3652101299
 40
0.396541598
 40
0.4280204146
 40
0.4596362012
 40
0.4913757235
 40
0.5232231978
 40
0.5551606402
 40
0.5871682493
 40
0.6192248165
 40
0.6513081566
 40
0.6833955523
 40
0.7154642055
 40
0.7474916905
 40
0.7794564022
 40
0.8113379898
 40
0.8431177829
 40
0.8747791608
 40
0.9063079861
 40
0.9376927275
 40
0.9689252295
 40
1.0
 40
1.0
 40
1.0
 40
1.0
 10
9.8663319312
 20
7.3354801301
 30
0.0
 10
9.8628315083
 20
7.3320989871
 30
0.0
 10
9.8573745799
 20
7.3272321062
 30
0.0
 10
9.8497322105
 20
7.3211934283
 30
0.0
 10
9.8418465143
 20
7.3154551835
 30
0.0
 10
9.8315569329
 20
7.3088658619
 30
0.0
 10
9.820767073
 20
7.3031020878
 30
0.0
 10
9.8118682272
 20
7.2990017338
 30
0.0
 10
9.8027855571
 20
7.2952398633
 30
0.0
 10
9.7911328975
 20
7.2911947844
 30
0.0
 10
9.7767727552
 20
7.2874248572
 30
0.0
 10
9.7620992666
 20
7.2847541362
 30
0.0
 10
9.7471937504
 20
7.2831973552
 30
0.0
 10
9.7321380861
 20
7.2827628224
 30
0.0
 10
9.7170151145
 20
7.2834527495
 30
0.0
 10
9.7019079553
 20
7.2852631509
 30
0.0
 10
9.686899616
 20
7.2881839014
 30
0.0
 10
9.6720725245
 20
7.2921987911
 30
0.0
 10
9.6575080872
 20
7.297285622
 30
0.0
 10
9.6432862469
 20
7.3034163327
 30
0.0
 10
9.6294850508
 20
7.3105571547
 30
0.0
 10
9.6161802276
 20
7.3186687989
 30
0.0
 10
9.6034447781
 20
7.3277066708
 30
0.0
 10
9.5913485795
 20
7.3376211142
 30
0.0
 10
9.5799580064
 20
7.348357682
 30
0.0
 10
9.5693355708
 20
7.3598574324
 30
0.0
 10
9.5595395826
 20
7.3720572494
 30
0.0
 10
9.5506238327
 20
7.3848901857
 30
0.0
 10
9.5426373009
 20
7.3982858256
 30
0.0
 10
9.5356238861
 20
7.4121706692
 30
0.0
 10
9.5296221755
 20
7.4264685213
 30
0.0
 10
9.524665211
 20
7.4411009413
 30
0.0
 10
9.5207803555
 20
7.4559875268
 30
0.0
 10
9.5179890475
 20
7.4710468664
 30
0.0
 10
9.5163068308
 20
7.4861951261
 30
0.0
 10
9.5159300347
 20
7.4963263111
 30
0.0
 10
9.5159300347
 20
7.5013771421
 30
0.0
  0
SPLINE
  5
359
100
AcDbEntity
  8
0
100
AcDbSpline
 62
7
  6
CONTINUOUS
 70
0
 71
3
 72
23
 73
19
 74
0
 42
0.0000001
 43
0.0000001
 44
0.0000000001
 40
0.0
 40
0.0
 40
0.0
 40
0.0
 40
0.0755934099
 40
0.1466381264
 40
0.2134664798
 40
0.2765154076
 40
0.3363268198
 40
0.3935473187
 40
0.4489240048
 40
0.5032892102
 40
0.5575270935
 40
0.6125284697
 40
0.6691443351
 40
0.7281499311
 40
0.7902200951
 40
0.8559242127
 40
0.925726745
 40
1.0
 40
1.0
 40
1.0
 40
1.0
 10
12.8522184477
 20
8.4795710605
 30
0.0
 10
12.8515792488
 20
8.4789536417
 30
0.0
 10
12.8503016459
 20
8.4777939156
 30
0.0
 10
12.8483244329
 20
8.4762445349
 30
0.0
 10
12.8463494994
 20
8.4749432539
 30
0.0
 10
12.8443787241
 20
8.4738920686
 30
0.0
 10
12.8424137425
 20
8.4730928936
 30
0.0
 10
12.8404565685
 20
8.4725476441
 30
0.0
 10
12.8385097558
 20
8.4722582171
 30
0.0
 10
12.8365765574
 20
8.4722260762
 30
0.0
 10
12.8346606858
 20
8.4724515853
 30
0.0
 10
12.8327658754
 20
8.4729342006
 30
0.0
 10
12.8308952936
 20
8.4736721385
 30
0.0
 10
12.8290514946
 20
8.4746634135
 30
0.0
 10
12.827236258
 20
8.4759056036
 30
0.0
 10
12.8254511368
 20
8.4773966782
 30
0.0
 10
12.8236974962
 20
8.4791343435
 30
0.0
 10
12.8225860803
 20
8.48041467
 30
0.0
 10
12.8220351297
 20
8.4810920845
 30
0.0
  0
SPLINE
  5
35A
100
AcDbEntity
  8
0
100
AcDbSpline
 62
7
  6
CONTINUOUS
 70
0
 71
3
 72
15
 73
11
 74
0
 42
0.0000001
 43
0.0000001
 44
0.0000000001
 40
0.0
 40
0.0
 40
0.0
 40
0.0
 40
0.1234394227
 40
0.2470466262
 40
0.3709825615
 40
0.4953948806
 40
0.6204121373
 40
0.7461393726
 40
0.8726516824
 40
1.0
 40
1.0
 40
1.0
 40
1.0
 10
9.5731488612
 20
7.639005561
 30
0.0
 10
9.5686183336
 20
7.6346294149
 30
0.0
 10
9.559995709
 20
7.6253970832
 30
0.0
 10
9.5485439086
 20
7.6102833495
 30
0.0
 10
9.5386700126
 20
7.5940344377
 30
0.0
 10
9.5304668644
 20
7.5768025854
 30
0.0
 10
9.5240092877
 20
7.5587468999
 30
0.0
 10
9.5193564874
 20
7.5400339057
 30
0.0
 10
9.5165505028
 20
7.5208386057
 30
0.0
 10
9.5159300347
 20
7.507875522
 30
0.0
 10
9.5159300347
 20
7.5013771421
 30
0.0
  0
SPLINE
  5
35B
100
AcDbEntity
  8
0
100
AcDbSpline
 62
7
  6
CONTINUOUS
 70
0
 71
3
 72
49
 73
45
 74
0
 42
0.0000001
 43
0.0000001
 44
0.0000000001
 40
0.0
 40
0.0
 40
0.0
 40
0.0
 40
0.0395812237
 40
0.0795760266
 40
0.119881418
 40
0.1603936977
 40
0.2010082768
 40
0.2416203102
 40
0.2821249301
 40
0.3224176369
 40
0.362394635
 40
0.4019531883
 40
0.440991973
 40
0.4794114349
 40
0.5171141523
 40
0.5540052064
 40
0.5899925628
 40
0.6249874676
 40
0.6589048658
 40
0.6916638481
 40
0.7231881395
 40
0.7534066455
 40
0.7822540776
 40
0.7961453816
 40
0.8096724591
 40
0.8228291752
 40
0.8356098634
 40
0.8480094932
 40
0.8600236038
 40
0.8716484609
 40
0.8828810337
 40
0.8937191409
 40
0.9041614829
 40
0.9142077826
 40
0.9238588857
 40
0.9331169073
 40
0.9419854155
 40
0.9504696009
 40
0.9585765605
 40
0.9663155108
 40
0.973698185
 40
0.980739106
 40
0.9874560856
 40
1.0
 40
1.0
 40
1.0
 40
1.0
 10
10.3572111782
 20
11.3031048269
 30
0.0
 10
10.3438824247
 20
11.3040291791
 30
0.0
 10
10.3170717026
 20
11.3056919105
 30
0.0
 10
10.2766502504
 20
11.3076241698
 30
0.0
 10
10.2358916606
 20
11.3090043044
 30
0.0
 10
10.1949088337
 20
11.3098284753
 30
0.0
 10
10.153815076
 20
11.3100943833
 30
0.0
 10
10.1127240903
 20
11.3098012921
 30
0.0
 10
10.0717495398
 20
11.3089500153
 30
0.0
 10
10.0310047747
 20
11.3075429236
 30
0.0
 10
9.9906025022
 20
11.3055839336
 30
0.0
 10
9.9506544778
 20
11.3030784995
 30
0.0
 10
9.9112711916
 20
11.3000335977
 30
0.0
 10
9.8725615612
 20
11.2964577084
 30
0.0
 10
9.8346326267
 20
11.292360793
 30
0.0
 10
9.7975892504
 20
11.2877542677
 30
0.0
 10
9.7615338217
 20
11.2826509724
 30
0.0
 10
9.7265659689
 20
11.2770651367
 30
0.0
 10
9.6927822673
 20
11.2710123419
 30
0.0
 10
9.6602759897
 20
11.2645094756
 30
0.0
 10
9.6291367312
 20
11.2575746941
 30
0.0
 10
9.5994505005
 20
11.2502273357
 30
0.0
 10
9.5757013105
 20
11.2436984415
 30
0.0
 10
9.5574999024
 20
11.2382712979
 30
0.0
 10
9.5444340974
 20
11.2341618943
 30
0.0
 10
9.531790467
 20
11.2299651472
 30
0.0
 10
9.5195777198
 20
11.225683878
 30
0.0
 10
9.5078042677
 20
11.2213211078
 30
0.0
 10
9.4964782217
 20
11.2168798092
 30
0.0
 10
9.4856073646
 20
11.2123630889
 30
0.0
 10
9.4751991693
 20
11.2077740324
 30
0.0
 10
9.4652607691
 20
11.2031158231
 30
0.0
 10
9.4557989718
 20
11.1983916439
 30
0.0
 10
9.4468202404
 20
11.1936047344
 30
0.0
 10
9.4383306932
 20
11.1887583555
 30
0.0
 10
9.4303361062
 20
11.1838557748
 30
0.0
 10
9.4228418902
 20
11.1789003037
 30
0.0
 10
9.4158531244
 20
11.1738951943
 30
0.0
 10
9.4093745219
 20
11.1688437854
 30
0.0
 10
9.4034104333
 20
11.1637491974
 30
0.0
 10
9.3979650788
 20
11.158614974
 30
0.0
 10
9.3930415353
 20
11.1534432507
 30
0.0
 10
9.3873100883
 20
11.1466596619
 30
0.0
 10
9.3835900189
 20
11.1412923438
 30
0.0
 10
9.3814668324
 20
11.137628896
 30
0.0
  0
SPLINE
  5
35C
100
AcDbEntity
  8
0
100
AcDbSpline
 62
7
  6
CONTINUOUS
 70
0
 71
3
 72
38
 73
34
 74
0
 42
0.0000001
 43
0.0000001
 44
0.0000000001
 40
0.0
 40
0.0
 40
0.0
 40
0.0
 40
0.089490802
 40
0.1769172619
 40
0.2618609871
 40
0.3032756371
 40
0.3439198856
 40
0.3837464974
 40
0.4227096886
 40
0.4607653161
 40
0.4978709299
 40
0.5339858772
 40
0.5690715753
 40
0.6030915817
 40
0.6360117355
 40
0.6678005067
 40
0.6984291339
 40
0.7278718543
 40
0.7561063859
 40
0.7831142201
 40
0.8088810455
 40
0.8333974986
 40
0.8566597942
 40
0.8786705808
 40
0.8994402569
 40
0.9189883289
 40
0.9373451774
 40
0.9545544875
 40
0.9627482375
 40
0.9706790415
 40
0.978357373
 40
0.9857951884
 40
1.0
 40
1.0
 40
1.0
 40
1.0
 10
10.3572111782
 20
11.3031048269
 30
0.0
 10
10.3752943826
 20
11.3018507525
 30
0.0
 10
10.4110203129
 20
11.2990176256
 30
0.0
 10
10.4638000189
 20
11.2937245442
 30
0.0
 10
10.5067857446
 20
11.2884599595
 30
0.0
 10
10.5402845165
 20
11.283754929
 30
0.0
 10
10.5646900119
 20
11.2800245932
 30
0.0
 10
10.58855667
 20
11.2760679896
 30
0.0
 10
10.6118531613
 20
11.2718902816
 30
0.0
 10
10.6345488841
 20
11.2674970147
 30
0.0
 10
10.6566140382
 20
11.2628939935
 30
0.0
 10
10.6780196511
 20
11.2580872688
 30
0.0
 10
10.6987376391
 20
11.2530832095
 30
0.0
 10
10.7187408308
 20
11.2478884317
 30
0.0
 10
10.7380029989
 20
11.242509764
 30
0.0
 10
10.7564989219
 20
11.2369543276
 30
0.0
 10
10.7742044046
 20
11.2312294624
 30
0.0
 10
10.7910963021
 20
11.2253426807
 30
0.0
 10
10.8071525898
 20
11.2193017531
 30
0.0
 10
10.8223523793
 20
11.2131146264
 30
0.0
 10
10.836675933
 20
11.206789362
 30
0.0
 10
10.8501047469
 20
11.2003342178
 30
0.0
 10
10.8626215547
 20
11.1937575538
 30
0.0
 10
10.8742103418
 20
11.1870677216
 30
0.0
 10
10.8848563688
 20
11.1802731723
 30
0.0
 10
10.8945463568
 20
11.1733821547
 30
0.0
 10
10.9032676902
 20
11.1664030885
 30
0.0
 10
10.9098232222
 20
11.1604256538
 30
0.0
 10
10.9145509705
 20
11.1556031823
 30
0.0
 10
10.9177891545
 20
11.1520293819
 30
0.0
 10
10.920776873
 20
11.1484403021
 30
0.0
 10
10.9243694116
 20
11.1437096646
 30
0.0
 10
10.926774051
 20
11.1400325041
 30
0.0
 10
10.9282135648
 20
11.1375412709
 30
0.0
  0
SPLINE
  5
35D
100
AcDbEntity
  8
0
100
AcDbSpline
 62
7
  6
CONTINUOUS
 70
0
 71
3
 72
40
 73
36
 74
0
 42
0.0000001
 43
0.0000001
 44
0.0000000001
 40
0.0
 40
0.0
 40
0.0
 40
0.0
 40
0.0063160423
 40
0.0126709865
 40
0.0191029724
 40
0.0256486827
 40
0.0323427081
 40
0.0392172067
 40
0.0536153583
 40
0.0690524996
 40
0.0856858071
 40
0.1036340937
 40
0.1229841962
 40
0.143797065
 40
0.1661130709
 40
0.1899559871
 40
0.2153360382
 40
0.2422525011
 40
0.2706954866
 40
0.3006471939
 40
0.3320831972
 40
0.3649732978
 40
0.3992820311
 40
0.4349693787
 40
0.4719912661
 40
0.5102997798
 40
0.5498435954
 40
0.5905683418
 40
0.6324167182
 40
0.6753287759
 40
0.7192421939
 40
0.7640923801
 40
0.8098128754
 40
0.9035866165
 40
1.0
 40
1.0
 40
1.0
 40
1.0
 10
13.1779848963
 20
10.0101970413
 30
0.0
 10
13.1788300758
 20
10.010138431
 30
0.0
 10
13.1805216447
 20
10.0099516544
 30
0.0
 10
13.1830400473
 20
10.0094648713
 30
0.0
 10
13.1855416205
 20
10.0087714449
 30
0.0
 10
13.1880248842
 20
10.0078718676
 30
0.0
 10
13.1904888715
 20
10.0067667829
 30
0.0
 10
13.1937974711
 20
10.004993217
 30
0.0
 10
13.1978915763
 20
10.0022315816
 30
0.0
 10
13.2026270501
 20
9.9981607426
 30
0.0
 10
13.207257047
 20
9.9932914701
 30
0.0
 10
13.2117761697
 20
9.9876327343
 30
0.0
 10
13.2161795312
 20
9.9811933972
 30
0.0
 10
13.2204613702
 20
9.9739834037
 30
0.0
 10
13.2246156016
 20
9.966013817
 30
0.0
 10
13.2286359357
 20
9.9572970449
 30
0.0
 10
13.2325161079
 20
9.9478468582
 30
0.0
 10
13.236249879
 20
9.9376783296
 30
0.0
 10
13.2398311442
 20
9.926807818
 30
0.0
 10
13.2432540446
 20
9.9152529459
 30
0.0
 10
13.2465129176
 20
9.9030325204
 30
0.0
 10
13.2496023306
 20
9.8901664947
 30
0.0
 10
13.2525171688
 20
9.8766759448
 30
0.0
 10
13.2552525848
 20
9.8625830054
 30
0.0
 10
13.2578039989
 20
9.8479108239
 30
0.0
 10
13.2601671723
 20
9.8326835333
 30
0.0
 10
13.2623381783
 20
9.8169261989
 30
0.0
 10
13.2643133794
 20
9.8006647672
 30
0.0
 10
13.266089487
 20
9.7839260303
 30
0.0
 10
13.2676635576
 20
9.7667375788
 30
0.0
 10
13.2690329463
 20
9.7491277581
 30
0.0
 10
13.270195396
 20
9.7311255677
 30
0.0
 10
13.2714775048
 20
9.7064310295
 30
0.0
 10
13.2725380007
 20
9.6748019771
 30
0.0
 10
13.2728119899
 20
9.6492901089
 30
0.0
 10
13.2728119899
 20
9.6363575944
 30
0.0
  0
SPLINE
  5
35E
100
AcDbEntity
  8
0
100
AcDbSpline
 62
7
  6
CONTINUOUS
 70
0
 71
3
 72
33
 73
29
 74
0
 42
0.0000001
 43
0.0000001
 44
0.0000000001
 40
0.0
 40
0.0
 40
0.0
 40
0.0
 40
0.0126611173
 40
0.0256297091
 40
0.039190364
 40
0.0535890713
 40
0.0690268251
 40
0.0856607676
 40
0.103609812
 40
0.1229605849
 40
0.1437743495
 40
0.1660911585
 40
0.1899350372
 40
0.2153160127
 40
0.2422335644
 40
0.270677582
 40
0.3006304277
 40
0.3320676502
 40
0.3649589356
 40
0.3992689892
 40
0.4349576341
 40
0.4719809497
 40
0.5498333215
 40
0.6324071126
 40
0.719233654
 40
0.8098060303
 40
0.9035831362
 40
1.0
 40
1.0
 40
1.0
 40
1.0
 10
12.8391477035
 20
9.9618484167
 30
0.0
 10
12.8398320838
 20
9.9618009592
 30
0.0
 10
12.8412120677
 20
9.9615905756
 30
0.0
 10
12.8432410594
 20
9.960937344
 30
0.0
 10
12.8452346996
 20
9.9599491749
 30
0.0
 10
12.8471890134
 20
9.9586307226
 30
0.0
 10
12.8491021629
 20
9.95698616
 30
0.0
 10
12.8509724367
 20
9.9550191977
 30
0.0
 10
12.8527979733
 20
9.9527332672
 30
0.0
 10
12.8545767732
 20
9.9501320479
 30
0.0
 10
12.8563064315
 20
9.9472194809
 30
0.0
 10
12.8579845917
 20
9.9440000935
 30
0.0
 10
12.8596086229
 20
9.940478861
 30
0.0
 10
12.8611760681
 20
9.9366613679
 30
0.0
 10
12.8626843411
 20
9.932553687
 30
0.0
 10
12.864131035
 20
9.9281624412
 30
0.0
 10
12.8655137434
 20
9.9234947392
 30
0.0
 10
12.8668301855
 20
9.9185581806
 30
0.0
 10
12.8680781928
 20
9.9133608289
 30
0.0
 10
12.8692556511
 20
9.9079111962
 30
0.0
 10
12.8703606751
 20
9.9022182144
 30
0.0
 10
12.8717583146
 20
9.8941802853
 30
0.0
 10
12.8732990558
 20
9.8835909595
 30
0.0
 10
12.8748043156
 20
9.8702768298
 30
0.0
 10
12.8759851011
 20
9.8562383933
 30
0.0
 10
12.8768333605
 20
9.8415680777
 30
0.0
 10
12.8773432626
 20
9.8263623827
 30
0.0
 10
12.877453927
 20
9.8160566036
 30
0.0
 10
12.877453927
 20
9.8108324002
 30
0.0
  0
SPLINE
  5
35F
100
AcDbEntity
  8
0
100
AcDbSpline
 62
7
  6
CONTINUOUS
 70
0
 71
3
 72
50
 73
46
 74
0
 42
0.0000001
 43
0.0000001
 44
0.0000000001
 40
0.0
 40
0.0
 40
0.0
 40
0.0
 40
0.0492941815
 40
0.0979830345
 40
0.1459827329
 40
0.1932158392
 40
0.2396041221
 40
0.2850720821
 40
0.3295463383
 40
0.372955851
 40
0.4152322467
 40
0.4563100316
 40
0.4961269095
 40
0.5346240403
 40
0.571746361
 40
0.6074429708
 40
0.6416676209
 40
0.6743792064
 40
0.7055423717
 40
0.7351282835
 40
0.763115645
 40
0.7894919416
 40
0.8020756272
 40
0.8142567052
 40
0.8260368811
 40
0.8374188309
 40
0.8484061739
 40
0.8590038241
 40
0.8692179079
 40
0.8790560114
 40
0.8885274198
 40
0.8976431223
 40
0.9064162336
 40
0.914862079
 40
0.9229984206
 40
0.930845808
 40
0.9457623942
 40
0.9528954513
 40
0.9598515125
 40
0.9666660956
 40
0.9733771863
 40
0.9800247482
 40
0.9866500146
 40
0.9932946699
 40
1.0
 40
1.0
 40
1.0
 40
1.0
 10
10.3450466931
 20
11.2913548359
 30
0.0
 10
10.3550587358
 20
11.2906604984
 30
0.0
 10
10.3749520298
 20
11.289164164
 30
0.0
 10
10.4045615781
 20
11.2865791333
 30
0.0
 10
10.4337195164
 20
11.2836708033
 30
0.0
 10
10.4623727215
 20
11.2804445685
 30
0.0
 10
10.4904696586
 20
11.2769062153
 30
0.0
 10
10.5179594181
 20
11.2730622046
 30
0.0
 10
10.5447923291
 20
11.2689195308
 30
0.0
 10
10.5709198945
 20
11.2644857266
 30
0.0
 10
10.5962948933
 20
11.2597688554
 30
0.0
 10
10.6208714884
 20
11.2547774927
 30
0.0
 10
10.644605311
 20
11.2495207322
 30
0.0
 10
10.6674535393
 20
11.2440081428
 30
0.0
 10
10.6893749725
 20
11.238249756
 30
0.0
 10
10.7103301201
 20
11.2322560379
 30
0.0
 10
10.7302812924
 20
11.2260378962
 30
0.0
 10
10.7491926864
 20
11.2196066299
 30
0.0
 10
10.7670304109
 20
11.2129739045
 30
0.0
 10
10.7837627114
 20
11.2061516815
 30
0.0
 10
10.7993595675
 20
11.199152274
 30
0.0
 10
10.8115726343
 20
11.1930907268
 30
0.0
 10
10.820739612
 20
11.1881515782
 30
0.0
 10
10.8272056096
 20
11.184468979
 30
0.0
 10
10.8333676911
 20
11.1807516121
 30
0.0
 10
10.8392231379
 20
11.1770011318
 30
0.0
 10
10.8447692973
 20
11.1732191342
 30
0.0
 10
10.8500037343
 20
11.1694073411
 30
0.0
 10
10.854924107
 20
11.1655673886
 30
0.0
 10
10.8595282002
 20
11.1617009079
 30
0.0
 10
10.8638140084
 20
11.1578096129
 30
0.0
 10
10.8677795437
 20
11.1538950833
 30
0.0
 10
10.8714230591
 20
11.1499589589
 30
0.0
 10
10.8747428158
 20
11.1460029992
 30
0.0
 10
10.8777374104
 20
11.1420282986
 30
0.0
 10
10.881234771
 20
11.1367962764
 30
0.0
 10
10.8841613398
 20
11.131435685
 30
0.0
 10
10.8864336885
 20
11.1259803517
 30
0.0
 10
10.8877810816
 20
11.1219390528
 30
0.0
 10
10.8887955304
 20
11.1178900312
 30
0.0
 10
10.8894762573
 20
11.1138351614
 30
0.0
 10
10.8898225972
 20
11.1097767449
 30
0.0
 10
10.8898343273
 20
11.1057170011
 30
0.0
 10
10.8895113614
 20
11.1016586084
 30
0.0
 10
10.8890758775
 20
11.098972231
 30
0.0
 10
10.8888045635
 20
11.0976342856
 30
0.0
  0
SPLINE
  5
360
100
AcDbEntity
  8
0
100
AcDbSpline
 62
7
  6
CONTINUOUS
 70
0
 71
3
 72
43
 73
39
 74
0
 42
0.0000001
 43
0.0000001
 44
0.0000000001
 40
0.0
 40
0.0
 40
0.0
 40
0.0
 40
0.0945111415
 40
0.1408812872
 40
0.186571048
 40
0.2315136888
 40
0.2756445015
 40
0.3189005995
 40
0.3612207738
 40
0.4025459243
 40
0.4428191648
 40
0.4819859698
 40
0.5199944155
 40
0.5567954741
 40
0.5923432006
 40
0.6265950024
 40
0.6595120454
 40
0.6910596643
 40
0.7212077598
 40
0.7499313832
 40
0.7772115458
 40
0.8030360487
 40
0.8274005682
 40
0.8503101577
 40
0.8717811779
 40
0.8819871469
 40
0.8918460668
 40
0.9013643183
 40
0.9105496485
 40
0.919411129
 40
0.9279594689
 40
0.9441638252
 40
0.9592898564
 40
0.9734966611
 40
0.9803196323
 40
0.9869904173
 40
0.9935396865
 40
1.0
 40
1.0
 40
1.0
 40
1.0
 10
10.3411644106
 20
11.2625093482
 30
0.0
 10
10.3594766377
 20
11.261239391
 30
0.0
 10
10.3867542855
 20
11.259049304
 30
0.0
 10
10.4228190775
 20
11.2555215179
 30
0.0
 10
10.4492697793
 20
11.2526169862
 30
0.0
 10
10.4752512163
 20
11.2494417759
 30
0.0
 10
10.5007219802
 20
11.2460009614
 30
0.0
 10
10.52564148
 20
11.2423000668
 30
0.0
 10
10.5499700375
 20
11.2383449948
 30
0.0
 10
10.573668906
 20
11.2341420907
 30
0.0
 10
10.5967003637
 20
11.2296980958
 30
0.0
 10
10.6190277525
 20
11.225020124
 30
0.0
 10
10.6406155483
 20
11.2201156573
 30
0.0
 10
10.6614294336
 20
11.2149925702
 30
0.0
 10
10.6814363415
 20
11.2096590751
 30
0.0
 10
10.7006045042
 20
11.204123702
 30
0.0
 10
10.7189035293
 20
11.1983953111
 30
0.0
 10
10.7363044587
 20
11.1924830808
 30
0.0
 10
10.7527798043
 20
11.1863964522
 30
0.0
 10
10.7683035993
 20
11.1801451005
 30
0.0
 10
10.7828514989
 20
11.1737389509
 30
0.0
 10
10.7964007644
 20
11.1671881192
 30
0.0
 10
10.8089304829
 20
11.1605027654
 30
0.0
 10
10.8204209775
 20
11.1536932812
 30
0.0
 10
10.8292600415
 20
11.1478283639
 30
0.0
 10
10.8357786042
 20
11.1430737804
 30
0.0
 10
10.8403134963
 20
11.1395439433
 30
0.0
 10
10.8445755105
 20
11.1359911675
 30
0.0
 10
10.8485629747
 20
11.1324168535
 30
0.0
 10
10.8522744437
 20
11.1288221612
 30
0.0
 10
10.8567725606
 20
11.124088451
 30
0.0
 10
10.8617367086
 20
11.1181265591
 30
0.0
 10
10.8666803599
 20
11.110772682
 30
0.0
 10
10.8698976575
 20
11.1045078353
 30
0.0
 10
10.8718653012
 20
11.0994965771
 30
0.0
 10
10.873034919
 20
11.0957800838
 30
0.0
 10
10.8739171917
 20
11.0920576
 30
0.0
 10
10.8743155157
 20
11.0895595528
 30
0.0
 10
10.8744655008
 20
11.0883138097
 30
0.0
  0
SPLINE
  5
361
100
AcDbEntity
  8
0
100
AcDbSpline
 62
7
  6
CONTINUOUS
 70
0
 71
3
 72
67
 73
63
 74
0
 42
0.0000001
 43
0.0000001
 44
0.0000000001
 40
0.0
 40
0.0
 40
0.0
 40
0.0
 40
0.00771825
 40
0.0147687136
 40
0.0212509346
 40
0.0243225328
 40
0.0273057307
 40
0.0302227098
 40
0.0330973919
 40
0.0359548859
 40
0.0388207819
 40
0.0417204335
 40
0.044678224
 40
0.0477170311
 40
0.0508577732
 40
0.0575132806
 40
0.0610631098
 40
0.0647764126
 40
0.0727303723
 40
0.0814410792
 40
0.090949934
 40
0.1012819817
 40
0.1124496833
 40
0.1244558327
 40
0.1372953967
 40
0.1509569538
 40
0.1654239173
 40
0.1806751828
 40
0.1966857238
 40
0.2134272217
 40
0.2308683172
 40
0.2489749116
 40
0.2677105757
 40
0.2870366717
 40
0.3069125462
 40
0.3272958421
 40
0.3694062378
 40
0.4130010542
 40
0.457694545
 40
0.5030881905
 40
0.548775401
 40
0.594346247
 40
0.6393921159
 40
0.6835104175
 40
0.7263093002
 40
0.7674124243
 40
0.7872166414
 40
0.8064654479
 40
0.825118528
 40
0.8431375118
 40
0.8604861999
 40
0.877130938
 40
0.8930407394
 40
0.9081876224
 40
0.922547164
 40
0.9360988093
 40
0.9488265195
 40
0.9607198183
 40
0.9717745357
 40
0.9819944847
 40
0.9913944022
 40
1.0
 40
1.0
 40
1.0
 40
1.0
 10
12.8527811988
 20
9.9811533924
 30
0.0
 10
12.8537086571
 20
9.9820165058
 30
0.0
 10
12.8555620508
 20
9.9835875939
 30
0.0
 10
12.8584750035
 20
9.9855225148
 30
0.0
 10
12.8609444103
 20
9.9867039261
 30
0.0
 10
12.8628993595
 20
9.9873539417
 30
0.0
 10
12.8643340481
 20
9.9876952733
 30
0.0
 10
12.8657621724
 20
9.9878984468
 30
0.0
 10
12.8671826804
 20
9.9879631204
 30
0.0
 10
12.8685943788
 20
9.9878891981
 30
0.0
 10
12.8699960704
 20
9.9876766651
 30
0.0
 10
12.8713865784
 20
9.9873257735
 30
0.0
 10
12.8727648297
 20
9.9868370528
 30
0.0
 10
12.8741299184
 20
9.9862109697
 30
0.0
 10
12.875966347
 20
9.985174184
 30
0.0
 10
12.8777396602
 20
9.9838723065
 30
0.0
 10
12.8794421574
 20
9.982347397
 30
0.0
 10
12.8811995812
 20
9.9805702651
 30
0.0
 10
12.8833464329
 20
9.9779968436
 30
0.0
 10
12.8857886121
 20
9.9744564048
 30
0.0
 10
12.8881492881
 20
9.9704031262
 30
0.0
 10
12.8904236368
 20
9.9658461769
 30
0.0
 10
12.8926068949
 20
9.9607955352
 30
0.0
 10
12.8946940615
 20
9.95526265
 30
0.0
 10
12.8966802662
 20
9.9492602464
 30
0.0
 10
12.8985608103
 20
9.9428023173
 30
0.0
 10
12.9003311487
 20
9.9359040192
 30
0.0
 10
12.9019870035
 20
9.9285816448
 30
0.0
 10
12.9035243895
 20
9.9208525604
 30
0.0
 10
12.904939555
 20
9.9127351357
 30
0.0
 10
12.9062290612
 20
9.9042487036
 30
0.0
 10
12.9073898012
 20
9.895413508
 30
0.0
 10
12.9084189398
 20
9.886250637
 30
0.0
 10
12.9093139655
 20
9.8767819836
 30
0.0
 10
12.9100727557
 20
9.8670301623
 30
0.0
 10
12.9109092932
 20
9.853534724
 30
0.0
 10
12.9115920066
 20
9.8361311254
 30
0.0
 10
12.9118402514
 20
9.8147252971
 30
0.0
 10
12.9115230946
 20
9.7927814348
 30
0.0
 10
12.9106433467
 20
9.7705093253
 30
0.0
 10
12.9092092643
 20
9.7481217491
 30
0.0
 10
12.9072345451
 20
9.7258326631
 30
0.0
 10
12.9047381204
 20
9.703855069
 30
0.0
 10
12.9017440808
 20
9.6823988647
 30
0.0
 10
12.8982813197
 20
9.6616691031
 30
0.0
 10
12.8949937334
 20
9.6449633726
 30
0.0
 10
12.8921440178
 20
9.6321176119
 30
0.0
 10
12.8899379705
 20
9.6229051869
 30
0.0
 10
12.8876420848
 20
9.6140170613
 30
0.0
 10
12.8852618469
 20
9.6054744475
 30
0.0
 10
12.8828029735
 20
9.5972977396
 30
0.0
 10
12.8802714073
 20
9.5895064188
 30
0.0
 10
12.87767324
 20
9.5821190302
 30
0.0
 10
12.8750146963
 20
9.5751531283
 30
0.0
 10
12.8723021896
 20
9.5686252
 30
0.0
 10
12.8695422177
 20
9.5625506384
 30
0.0
 10
12.8667413326
 20
9.5569436925
 30
0.0
 10
12.8639061541
 20
9.5518173773
 30
0.0
 10
12.8610433266
 20
9.5471835026
 30
0.0
 10
12.8581591077
 20
9.5430523262
 30
0.0
 10
12.8552601108
 20
9.5394335736
 30
0.0
 10
12.8532344667
 20
9.5372752434
 30
0.0
 10
12.8522184477
 20
9.5362938444
 30
0.0
  0
SPLINE
  5
362
100
AcDbEntity
  8
0
100
AcDbSpline
 62
7
  6
CONTINUOUS
 70
0
 71
3
 72
23
 73
19
 74
0
 42
0.0000001
 43
0.0000001
 44
0.0000000001
 40
0.0
 40
0.0
 40
0.0
 40
0.0
 40
0.0733808756
 40
0.1458435608
 40
0.2172596261
 40
0.2875098452
 40
0.3564741045
 40
0.4240365498
 40
0.4900846121
 40
0.554509468
 40
0.6172064993
 40
0.6780756246
 40
0.7370218139
 40
0.7939555481
 40
0.8487933256
 40
0.9014582759
 40
0.9518809021
 40
1.0
 40
1.0
 40
1.0
 40
1.0
 10
10.3411644106
 20
11.1060107727
 30
0.0
 10
10.3511318946
 20
11.1053195254
 30
0.0
 10
10.3709342112
 20
11.1038281438
 30
0.0
 10
10.4004037976
 20
11.1012465315
 30
0.0
 10
10.4294146161
 20
11.098337941
 30
0.0
 10
10.4579120985
 20
11.095107939
 30
0.0
 10
10.4858432753
 20
11.0915625176
 30
0.0
 10
10.5131558711
 20
11.0877083618
 30
0.0
 10
10.5397989082
 20
11.0835527156
 30
0.0
 10
10.5657226447
 20
11.0791033884
 30
0.0
 10
10.5908786883
 20
11.0743687449
 30
0.0
 10
10.6152200996
 20
11.0693576771
 30
0.0
 10
10.638701484
 20
11.0640796119
 30
0.0
 10
10.6612790924
 20
11.0585444784
 30
0.0
 10
10.6829108663
 20
11.0527626913
 30
0.0
 10
10.7035566352
 20
11.0467450939
 30
0.0
 10
10.723177816
 20
11.0405030606
 30
0.0
 10
10.7358526024
 20
11.0360951227
 30
0.0
 10
10.7420077548
 20
11.0338500279
 30
0.0
  0
SPLINE
  5
363
100
AcDbEntity
  8
0
100
AcDbSpline
 62
7
  6
CONTINUOUS
 70
0
 71
3
 72
33
 73
29
 74
0
 42
0.0000001
 43
0.0000001
 44
0.0000000001
 40
0.0
 40
0.0
 40
0.0
 40
0.0
 40
0.0126611173
 40
0.0256297091
 40
0.039190364
 40
0.0535890713
 40
0.0690268251
 40
0.0856607676
 40
0.103609812
 40
0.1229605849
 40
0.1437743495
 40
0.1660911585
 40
0.1899350372
 40
0.2153160127
 40
0.2422335644
 40
0.270677582
 40
0.3006304277
 40
0.3320676502
 40
0.3649589356
 40
0.3992689892
 40
0.4349576341
 40
0.4719809497
 40
0.5498333215
 40
0.6324071126
 40
0.719233654
 40
0.8098060303
 40
0.9035831362
 40
1.0
 40
1.0
 40
1.0
 40
1.0
 10
13.4214900744
 20
10.5243479858
 30
0.0
 10
13.4221744546
 20
10.5243005283
 30
0.0
 10
13.4235544386
 20
10.5240901447
 30
0.0
 10
13.4255834303
 20
10.5234369132
 30
0.0
 10
13.4275770705
 20
10.522448744
 30
0.0
 10
13.4295313843
 20
10.5211302917
 30
0.0
 10
13.4314445338
 20
10.5194857291
 30
0.0
 10
13.4333148076
 20
10.5175187668
 30
0.0
 10
13.4351403441
 20
10.5152328363
 30
0.0
 10
13.4369191441
 20
10.512631617
 30
0.0
 10
13.4386488024
 20
10.50971905
 30
0.0
 10
13.4403269626
 20
10.5064996626
 30
0.0
 10
13.4419509938
 20
10.5029784301
 30
0.0
 10
13.4435184389
 20
10.499160937
 30
0.0
 10
13.445026712
 20
10.4950532561
 30
0.0
 10
13.4464734059
 20
10.4906620103
 30
0.0
 10
13.4478561143
 20
10.4859943083
 30
0.0
 10
13.4491725563
 20
10.4810577498
 30
0.0
 10
13.4504205637
 20
10.475860398
 30
0.0
 10
13.451598022
 20
10.4704107653
 30
0.0
 10
13.452703046
 20
10.4647177835
 30
0.0
 10
13.4541006855
 20
10.4566798544
 30
0.0
 10
13.4556414267
 20
10.4460905286
 30
0.0
 10
13.4571466865
 20
10.432776399
 30
0.0
 10
13.458327472
 20
10.4187379624
 30
0.0
 10
13.4591757314
 20
10.4040676468
 30
0.0
 10
13.4596856335
 20
10.3888619518
 30
0.0
 10
13.4597962978
 20
10.3785561727
 30
0.0
 10
13.4597962978
 20
10.3733319693
 30
0.0
  0
SPLINE
  5
364
100
AcDbEntity
  8
0
100
AcDbSpline
 62
7
  6
CONTINUOUS
 70
0
 71
3
 72
15
 73
11
 74
0
 42
0.0000001
 43
0.0000001
 44
0.0000000001
 40
0.0
 40
0.0
 40
0.0
 40
0.0
 40
0.1379289653
 40
0.2731252766
 40
0.405085672
 40
0.5333205178
 40
0.6573615346
 40
0.7767629355
 40
0.8911054464
 40
1.0
 40
1.0
 40
1.0
 40
1.0
 10
10.3291293349
 20
11.049470228
 30
0.0
 10
10.3428753178
 20
11.0485169409
 30
0.0
 10
10.3700791301
 20
11.0463913361
 30
0.0
 10
10.4103618562
 20
11.042502607
 30
0.0
 10
10.4496013591
 20
11.0379574661
 30
0.0
 10
10.4876375277
 20
11.032774638
 30
0.0
 10
10.5243151976
 20
11.0269755656
 30
0.0
 10
10.5594850752
 20
11.0205841853
 30
0.0
 10
10.5930035713
 20
11.0136270094
 30
0.0
 10
10.6147112681
 20
11.0085001687
 30
0.0
 10
10.625258375
 20
11.0058355994
 30
0.0
  0
SPLINE
  5
365
100
AcDbEntity
  8
0
100
AcDbSpline
 62
7
  6
CONTINUOUS
 70
0
 71
3
 72
67
 73
63
 74
0
 42
0.0000001
 43
0.0000001
 44
0.0000000001
 40
0.0
 40
0.0
 40
0.0
 40
0.0
 40
0.00771825
 40
0.0147687136
 40
0.0212509346
 40
0.0243225328
 40
0.0273057307
 40
0.0302227098
 40
0.0330973919
 40
0.0359548859
 40
0.0388207819
 40
0.0417204335
 40
0.044678224
 40
0.0477170311
 40
0.0508577732
 40
0.0575132806
 40
0.0610631098
 40
0.0647764126
 40
0.0727303723
 40
0.0814410792
 40
0.090949934
 40
0.1012819817
 40
0.1124496833
 40
0.1244558327
 40
0.1372953967
 40
0.1509569538
 40
0.1654239173
 40
0.1806751828
 40
0.1966857238
 40
0.2134272217
 40
0.2308683172
 40
0.2489749116
 40
0.2677105757
 40
0.2870366717
 40
0.3069125462
 40
0.3272958421
 40
0.3694062378
 40
0.4130010542
 40
0.457694545
 40
0.5030881905
 40
0.548775401
 40
0.594346247
 40
0.6393921159
 40
0.6835104175
 40
0.7263093002
 40
0.7674124243
 40
0.7872166414
 40
0.8064654479
 40
0.825118528
 40
0.8431375118
 40
0.8604861999
 40
0.877130938
 40
0.8930407394
 40
0.9081876224
 40
0.922547164
 40
0.9360988093
 40
0.9488265195
 40
0.9607198183
 40
0.9717745357
 40
0.9819944847
 40
0.9913944022
 40
1.0
 40
1.0
 40
1.0
 40
1.0
 10
13.4351235697
 20
10.5436529615
 30
0.0
 10
13.436051028
 20
10.5445160749
 30
0.0
 10
13.4379044217
 20
10.546087163
 30
0.0
 10
13.4408173744
 20
10.5480220839
 30
0.0
 10
13.4432867812
 20
10.5492034952
 30
0.0
 10
13.4452417304
 20
10.5498535108
 30
0.0
 10
13.446676419
 20
10.5501948424
 30
0.0
 10
13.4481045433
 20
10.5503980159
 30
0.0
 10
13.4495250512
 20
10.5504626895
 30
0.0
 10
13.4509367497
 20
10.5503887672
 30
0.0
 10
13.4523384413
 20
10.5501762343
 30
0.0
 10
13.4537289492
 20
10.5498253426
 30
0.0
 10
13.4551072005
 20
10.5493366219
 30
0.0
 10
13.4564722893
 20
10.5487105388
 30
0.0
 10
13.4583087179
 20
10.5476737531
 30
0.0
 10
13.460082031
 20
10.5463718756
 30
0.0
 10
13.4617845283
 20
10.5448469661
 30
0.0
 10
13.4635419521
 20
10.5430698342
 30
0.0
 10
13.4656888038
 20
10.5404964127
 30
0.0
 10
13.468130983
 20
10.536955974
 30
0.0
 10
13.470491659
 20
10.5329026953
 30
0.0
 10
13.4727660077
 20
10.528345746
 30
0.0
 10
13.4749492658
 20
10.5232951044
 30
0.0
 10
13.4770364324
 20
10.5177622191
 30
0.0
 10
13.4790226371
 20
10.5117598155
 30
0.0
 10
13.4809031812
 20
10.5053018864
 30
0.0
 10
13.4826735196
 20
10.4984035884
 30
0.0
 10
13.4843293744
 20
10.4910812139
 30
0.0
 10
13.4858667604
 20
10.4833521296
 30
0.0
 10
13.4872819259
 20
10.4752347048
 30
0.0
 10
13.4885714321
 20
10.4667482727
 30
0.0
 10
13.4897321721
 20
10.4579130772
 30
0.0
 10
13.4907613107
 20
10.4487502061
 30
0.0
 10
13.4916563364
 20
10.4392815527
 30
0.0
 10
13.4924151266
 20
10.4295297314
 30
0.0
 10
13.493251664
 20
10.4160342931
 30
0.0
 10
13.4939343775
 20
10.3986306945
 30
0.0
 10
13.4941826223
 20
10.3772248662
 30
0.0
 10
13.4938654655
 20
10.355281004
 30
0.0
 10
13.4929857176
 20
10.3330088944
 30
0.0
 10
13.4915516352
 20
10.3106213182
 30
0.0
 10
13.489576916
 20
10.2883322322
 30
0.0
 10
13.4870804913
 20
10.2663546381
 30
0.0
 10
13.4840864516
 20
10.2448984339
 30
0.0
 10
13.4806236906
 20
10.2241686722
 30
0.0
 10
13.4773361043
 20
10.2074629417
 30
0.0
 10
13.4744863887
 20
10.194617181
 30
0.0
 10
13.4722803413
 20
10.185404756
 30
0.0
 10
13.4699844557
 20
10.1765166304
 30
0.0
 10
13.4676042178
 20
10.1679740167
 30
0.0
 10
13.4651453444
 20
10.1597973087
 30
0.0
 10
13.4626137782
 20
10.1520059879
 30
0.0
 10
13.4600156109
 20
10.1446185993
 30
0.0
 10
13.4573570672
 20
10.1376526974
 30
0.0
 10
13.4546445605
 20
10.1311247691
 30
0.0
 10
13.4518845886
 20
10.1250502075
 30
0.0
 10
13.4490837035
 20
10.1194432616
 30
0.0
 10
13.446248525
 20
10.1143169464
 30
0.0
 10
13.4433856975
 20
10.1096830717
 30
0.0
 10
13.4405014786
 20
10.1055518953
 30
0.0
 10
13.4376024817
 20
10.1019331427
 30
0.0
 10
13.4355768376
 20
10.0997748125
 30
0.0
 10
13.4345608186
 20
10.0987934135
 30
0.0
  0
SPLINE
  5
366
100
AcDbEntity
  8
0
100
AcDbSpline
 62
7
  6
CONTINUOUS
 70
0
 71
3
 72
33
 73
29
 74
0
 42
0.0000001
 43
0.0000001
 44
0.0000000001
 40
0.0
 40
0.0
 40
0.0
 40
0.0
 40
0.0126611173
 40
0.0256297091
 40
0.039190364
 40
0.0535890713
 40
0.0690268251
 40
0.0856607676
 40
0.103609812
 40
0.1229605849
 40
0.1437743495
 40
0.1660911585
 40
0.1899350372
 40
0.2153160127
 40
0.2422335644
 40
0.270677582
 40
0.3006304277
 40
0.3320676502
 40
0.3649589356
 40
0.3992689892
 40
0.4349576341
 40
0.4719809497
 40
0.5498333215
 40
0.6324071126
 40
0.719233654
 40
0.8098060303
 40
0.9035831362
 40
1.0
 40
1.0
 40
1.0
 40
1.0
 10
13.4214900744
 20
9.4676252019
 30
0.0
 10
13.4221744546
 20
9.4675777444
 30
0.0
 10
13.4235544386
 20
9.4673673607
 30
0.0
 10
13.4255834303
 20
9.4667141292
 30
0.0
 10
13.4275770705
 20
9.4657259601
 30
0.0
 10
13.4295313843
 20
9.4644075078
 30
0.0
 10
13.4314445338
 20
9.4627629452
 30
0.0
 10
13.4333148076
 20
9.4607959829
 30
0.0
 10
13.4351403441
 20
9.4585100524
 30
0.0
 10
13.4369191441
 20
9.4559088331
 30
0.0
 10
13.4386488024
 20
9.4529962661
 30
0.0
 10
13.4403269626
 20
9.4497768787
 30
0.0
 10
13.4419509938
 20
9.4462556462
 30
0.0
 10
13.4435184389
 20
9.4424381531
 30
0.0
 10
13.445026712
 20
9.4383304722
 30
0.0
 10
13.4464734059
 20
9.4339392264
 30
0.0
 10
13.4478561143
 20
9.4292715244
 30
0.0
 10
13.4491725563
 20
9.4243349658
 30
0.0
 10
13.4504205637
 20
9.4191376141
 30
0.0
 10
13.451598022
 20
9.4136879814
 30
0.0
 10
13.452703046
 20
9.4079949996
 30
0.0
 10
13.4541006855
 20
9.3999570705
 30
0.0
 10
13.4556414267
 20
9.3893677447
 30
0.0
 10
13.4571466865
 20
9.376053615
 30
0.0
 10
13.458327472
 20
9.3620151785
 30
0.0
 10
13.4591757314
 20
9.3473448628
 30
0.0
 10
13.4596856335
 20
9.3321391679
 30
0.0
 10
13.4597962978
 20
9.3218333888
 30
0.0
 10
13.4597962978
 20
9.3166091854
 30
0.0
  0
SPLINE
  5
367
100
AcDbEntity
  8
0
100
AcDbSpline
 62
7
  6
CONTINUOUS
 70
0
 71
3
 72
15
 73
11
 74
0
 42
0.0000001
 43
0.0000001
 44
0.0000000001
 40
0.0
 40
0.0
 40
0.0
 40
0.0
 40
0.1504829925
 40
0.2917570607
 40
0.4245123361
 40
0.549658856
 40
0.6683283344
 40
0.7818725043
 40
0.8918519991
 40
1.0
 40
1.0
 40
1.0
 40
1.0
 10
12.825172523
 20
9.5652154104
 30
0.0
 10
12.8246014872
 20
9.5646638322
 30
0.0
 10
12.823460141
 20
9.5636288929
 30
0.0
 10
12.8216927831
 20
9.5622495686
 30
0.0
 10
12.8199274871
 20
9.5610959791
 30
0.0
 10
12.8181659652
 20
9.5601699941
 30
0.0
 10
12.8164097655
 20
9.5594734101
 30
0.0
 10
12.8146606602
 20
9.5590080548
 30
0.0
 10
12.8129215088
 20
9.5587756539
 30
0.0
 10
12.8117665493
 20
9.5587769901
 30
0.0
 10
12.8111973425
 20
9.558816461
 30
0.0
  0
SPLINE
  5
368
100
AcDbEntity
  8
0
100
AcDbSpline
 62
7
  6
CONTINUOUS
 70
0
 71
3
 72
31
 73
27
 74
0
 42
0.0000001
 43
0.0000001
 44
0.0000000001
 40
0.0
 40
0.0
 40
0.0
 40
0.0
 40
0.0760200816
 40
0.1532656422
 40
0.2310428665
 40
0.3086487284
 40
0.3853832589
 40
0.4605564147
 40
0.5334962602
 40
0.6035573757
 40
0.6373172177
 40
0.6701318209
 40
0.7019319125
 40
0.7326517115
 40
0.7622290491
 40
0.790606063
 40
0.8177296049
 40
0.8435515631
 40
0.8680298995
 40
0.8911293074
 40
0.9128221273
 40
0.9330902288
 40
0.9519263105
 40
0.969336774
 40
0.9853467494
 40
1.0
 40
1.0
 40
1.0
 40
1.0
 10
12.877453927
 20
9.8108324002
 30
0.0
 10
12.877453927
 20
9.8043758092
 30
0.0
 10
12.877281276
 20
9.7913579877
 30
0.0
 10
12.8765278604
 20
9.7717474611
 30
0.0
 10
12.8752842969
 20
9.7520268487
 30
0.0
 10
12.8735624713
 20
9.73238582
 30
0.0
 10
12.8713790322
 20
9.7130132241
 30
0.0
 10
12.8687551703
 20
9.694095202
 30
0.0
 10
12.8657163326
 20
9.6758136419
 30
0.0
 10
12.8628284183
 20
9.6610786629
 30
0.0
 10
12.8603236207
 20
9.6497469188
 30
0.0
 10
12.8583838892
 20
9.6416195473
 30
0.0
 10
12.8563645633
 20
9.6337779098
 30
0.0
 10
12.8542705232
 20
9.6262408286
 30
0.0
 10
12.852106822
 20
9.6190264072
 30
0.0
 10
12.8498787048
 20
9.6121519435
 30
0.0
 10
12.847591588
 20
9.605633893
 30
0.0
 10
12.8452509762
 20
9.5994878398
 30
0.0
 10
12.8428625391
 20
9.5937284242
 30
0.0
 10
12.8404320526
 20
9.5883693018
 30
0.0
 10
12.8379653111
 20
9.5834231217
 30
0.0
 10
12.835468175
 20
9.5789014417
 30
0.0
 10
12.8329465506
 20
9.5748147291
 30
0.0
 10
12.8304059638
 20
9.5711720875
 30
0.0
 10
12.8278522798
 20
9.5679821499
 30
0.0
 10
12.8260676642
 20
9.5660800504
 30
0.0
 10
12.825172523
 20
9.5652154104
 30
0.0
  0
SPLINE
  5
369
100
AcDbEntity
  8
0
100
AcDbSpline
 62
7
  6
CONTINUOUS
 70
0
 71
3
 72
67
 73
63
 74
0
 42
0.0000001
 43
0.0000001
 44
0.0000000001
 40
0.0
 40
0.0
 40
0.0
 40
0.0
 40
0.00771825
 40
0.0147687136
 40
0.0212509346
 40
0.0243225328
 40
0.0273057307
 40
0.0302227098
 40
0.0330973919
 40
0.0359548859
 40
0.0388207819
 40
0.0417204335
 40
0.044678224
 40
0.0477170311
 40
0.0508577732
 40
0.0575132806
 40
0.0610631098
 40
0.0647764126
 40
0.0727303723
 40
0.0814410792
 40
0.090949934
 40
0.1012819817
 40
0.1124496833
 40
0.1244558327
 40
0.1372953967
 40
0.1509569538
 40
0.1654239173
 40
0.1806751828
 40
0.1966857238
 40
0.2134272217
 40
0.2308683172
 40
0.2489749116
 40
0.2677105757
 40
0.2870366717
 40
0.3069125462
 40
0.3272958421
 40
0.3694062378
 40
0.4130010542
 40
0.457694545
 40
0.5030881905
 40
0.548775401
 40
0.594346247
 40
0.6393921159
 40
0.6835104175
 40
0.7263093002
 40
0.7674124243
 40
0.7872166414
 40
0.8064654479
 40
0.825118528
 40
0.8431375118
 40
0.8604861999
 40
0.877130938
 40
0.8930407394
 40
0.9081876224
 40
0.922547164
 40
0.9360988093
 40
0.9488265195
 40
0.9607198183
 40
0.9717745357
 40
0.9819944847
 40
0.9913944022
 40
1.0
 40
1.0
 40
1.0
 40
1.0
 10
13.4351235697
 20
9.4869301775
 30
0.0
 10
13.436051028
 20
9.487793291
 30
0.0
 10
13.4379044217
 20
9.4893643791
 30
0.0
 10
13.4408173744
 20
9.4912993
 30
0.0
 10
13.4432867812
 20
9.4924807113
 30
0.0
 10
13.4452417304
 20
9.4931307269
 30
0.0
 10
13.446676419
 20
9.4934720585
 30
0.0
 10
13.4481045433
 20
9.493675232
 30
0.0
 10
13.4495250512
 20
9.4937399056
 30
0.0
 10
13.4509367497
 20
9.4936659833
 30
0.0
 10
13.4523384413
 20
9.4934534503
 30
0.0
 10
13.4537289492
 20
9.4931025587
 30
0.0
 10
13.4551072005
 20
9.492613838
 30
0.0
 10
13.4564722893
 20
9.4919877549
 30
0.0
 10
13.4583087179
 20
9.4909509692
 30
0.0
 10
13.460082031
 20
9.4896490917
 30
0.0
 10
13.4617845283
 20
9.4881241822
 30
0.0
 10
13.4635419521
 20
9.4863470503
 30
0.0
 10
13.4656888038
 20
9.4837736288
 30
0.0
 10
13.468130983
 20
9.48023319
 30
0.0
 10
13.470491659
 20
9.4761799113
 30
0.0
 10
13.4727660077
 20
9.4716229621
 30
0.0
 10
13.4749492658
 20
9.4665723204
 30
0.0
 10
13.4770364324
 20
9.4610394352
 30
0.0
 10
13.4790226371
 20
9.4550370316
 30
0.0
 10
13.4809031812
 20
9.4485791025
 30
0.0
 10
13.4826735196
 20
9.4416808044
 30
0.0
 10
13.4843293744
 20
9.43435843
 30
0.0
 10
13.4858667604
 20
9.4266293456
 30
0.0
 10
13.4872819259
 20
9.4185119208
 30
0.0
 10
13.4885714321
 20
9.4100254888
 30
0.0
 10
13.4897321721
 20
9.4011902932
 30
0.0
 10
13.4907613107
 20
9.3920274222
 30
0.0
 10
13.4916563364
 20
9.3825587688
 30
0.0
 10
13.4924151266
 20
9.3728069475
 30
0.0
 10
13.493251664
 20
9.3593115092
 30
0.0
 10
13.4939343775
 20
9.3419079106
 30
0.0
 10
13.4941826223
 20
9.3205020823
 30
0.0
 10
13.4938654655
 20
9.29855822
 30
0.0
 10
13.4929857176
 20
9.2762861105
 30
0.0
 10
13.4915516352
 20
9.2538985343
 30
0.0
 10
13.489576916
 20
9.2316094483
 30
0.0
 10
13.4870804913
 20
9.2096318542
 30
0.0
 10
13.4840864516
 20
9.1881756499
 30
0.0
 10
13.4806236906
 20
9.1674458883
 30
0.0
 10
13.4773361043
 20
9.1507401578
 30
0.0
 10
13.4744863887
 20
9.137894397
 30
0.0
 10
13.4722803413
 20
9.1286819721
 30
0.0
 10
13.4699844557
 20
9.1197938465
 30
0.0
 10
13.4676042178
 20
9.1112512327
 30
0.0
 10
13.4651453444
 20
9.1030745248
 30
0.0
 10
13.4626137782
 20
9.095283204
 30
0.0
 10
13.4600156109
 20
9.0878958154
 30
0.0
 10
13.4573570672
 20
9.0809299135
 30
0.0
 10
13.4546445605
 20
9.0744019852
 30
0.0
 10
13.4518845886
 20
9.0683274236
 30
0.0
 10
13.4490837035
 20
9.0627204777
 30
0.0
 10
13.446248525
 20
9.0575941625
 30
0.0
 10
13.4433856975
 20
9.0529602877
 30
0.0
 10
13.4405014786
 20
9.0488291113
 30
0.0
 10
13.4376024817
 20
9.0452103588
 30
0.0
 10
13.4355768376
 20
9.0430520286
 30
0.0
 10
13.4345608186
 20
9.0420706296
 30
0.0
  0
SPLINE
  5
36A
100
AcDbEntity
  8
0
100
AcDbSpline
 62
7
  6
CONTINUOUS
 70
0
 71
3
 72
33
 73
29
 74
0
 42
0.0000001
 43
0.0000001
 44
0.0000000001
 40
0.0
 40
0.0
 40
0.0
 40
0.0
 40
0.0126611173
 40
0.0256297091
 40
0.039190364
 40
0.0535890713
 40
0.0690268251
 40
0.0856607676
 40
0.103609812
 40
0.1229605849
 40
0.1437743495
 40
0.1660911585
 40
0.1899350372
 40
0.2153160127
 40
0.2422335644
 40
0.270677582
 40
0.3006304277
 40
0.3320676502
 40
0.3649589356
 40
0.3992689892
 40
0.4349576341
 40
0.4719809497
 40
0.5498333215
 40
0.6324071126
 40
0.719233654
 40
0.8098060303
 40
0.9035831362
 40
1.0
 40
1.0
 40
1.0
 40
1.0
 10
12.8391477035
 20
8.9051256328
 30
0.0
 10
12.8398320838
 20
8.9050781753
 30
0.0
 10
12.8412120677
 20
8.9048677916
 30
0.0
 10
12.8432410594
 20
8.9042145601
 30
0.0
 10
12.8452346996
 20
8.9032263909
 30
0.0
 10
12.8471890134
 20
8.9019079387
 30
0.0
 10
12.8491021629
 20
8.9002633761
 30
0.0
 10
12.8509724367
 20
8.8982964138
 30
0.0
 10
12.8527979733
 20
8.8960104833
 30
0.0
 10
12.8545767732
 20
8.8934092639
 30
0.0
 10
12.8563064315
 20
8.890496697
 30
0.0
 10
12.8579845917
 20
8.8872773096
 30
0.0
 10
12.8596086229
 20
8.8837560771
 30
0.0
 10
12.8611760681
 20
8.879938584
 30
0.0
 10
12.8626843411
 20
8.8758309031
 30
0.0
 10
12.864131035
 20
8.8714396573
 30
0.0
 10
12.8655137434
 20
8.8667719553
 30
0.0
 10
12.8668301855
 20
8.8618353967
 30
0.0
 10
12.8680781928
 20
8.856638045
 30
0.0
 10
12.8692556511
 20
8.8511884123
 30
0.0
 10
12.8703606751
 20
8.8454954305
 30
0.0
 10
12.8717583146
 20
8.8374575014
 30
0.0
 10
12.8732990558
 20
8.8268681756
 30
0.0
 10
12.8748043156
 20
8.8135540459
 30
0.0
 10
12.8759851011
 20
8.7995156093
 30
0.0
 10
12.8768333605
 20
8.7848452937
 30
0.0
 10
12.8773432626
 20
8.7696395987
 30
0.0
 10
12.877453927
 20
8.7593338197
 30
0.0
 10
12.877453927
 20
8.7541096162
 30
0.0
  0
SPLINE
  5
36B
100
AcDbEntity
  8
0
100
AcDbSpline
 62
7
  6
CONTINUOUS
 70
0
 71
3
 72
54
 73
50
 74
0
 42
0.0000001
 43
0.0000001
 44
0.0000000001
 40
0.0
 40
0.0
 40
0.0
 40
0.0
 40
0.0425724163
 40
0.085627529
 40
0.1290268863
 40
0.1726299766
 40
0.2162957698
 40
0.2598828526
 40
0.3032501786
 40
0.3462576093
 40
0.3887665214
 40
0.4306404004
 40
0.4717454455
 40
0.5119511843
 40
0.5511311037
 40
0.5891633027
 40
0.62593118
 40
0.6613241702
 40
0.6952385501
 40
0.7116113127
 40
0.7275791274
 40
0.7431313807
 40
0.7582580877
 40
0.7729499569
 40
0.7871983863
 40
0.8009956165
 40
0.8143346716
 40
0.8272095967
 40
0.8396153695
 40
0.8515482072
 40
0.8630054946
 40
0.8739861365
 40
0.8844905643
 40
0.8945211172
 40
0.9040821907
 40
0.9131806523
 40
0.9218261901
 40
0.9300317893
 40
0.9378143194
 40
0.9451950961
 40
0.9522006735
 40
0.958863431
 40
0.9652223387
 40
0.9713232507
 40
0.9772190496
 40
0.9829689785
 40
0.9886374056
 40
0.9942917548
 40
1.0
 40
1.0
 40
1.0
 40
1.0
 10
10.3450466931
 20
11.2913548359
 30
0.0
 10
10.3310086294
 20
11.292328379
 30
0.0
 10
10.3027568256
 20
11.2940555708
 30
0.0
 10
10.2601505722
 20
11.2959841051
 30
0.0
 10
10.2171789094
 20
11.2972610636
 30
0.0
 10
10.1739909434
 20
11.2978819568
 30
0.0
 10
10.1307364787
 20
11.2978446284
 30
0.0
 10
10.0875655211
 20
11.2971492019
 30
0.0
 10
10.0446278016
 20
11.2957981113
 30
0.0
 10
10.0020722305
 20
11.2937960782
 30
0.0
 10
9.9600463848
 20
11.2911501024
 30
0.0
 10
9.918695989
 20
11.2878694361
 30
0.0
 10
9.8781644049
 20
11.2839655548
 30
0.0
 10
9.8385921287
 20
11.2794521176
 30
0.0
 10
9.8001162877
 20
11.2743449243
 30
0.0
 10
9.7628701809
 20
11.2686618572
 30
0.0
 10
9.7269827013
 20
11.2624228392
 30
0.0
 10
9.6925782202
 20
11.2556497025
 30
0.0
 10
9.6649277292
 20
11.2495104297
 30
0.0
 10
9.6436474398
 20
11.2443360722
 30
0.0
 10
9.6283181595
 20
11.2403824078
 30
0.0
 10
9.6134455491
 20
11.2363137952
 30
0.0
 10
9.599042465
 20
11.2321337335
 30
0.0
 10
9.5851213707
 20
11.2278458892
 30
0.0
 10
9.5716943056
 20
11.2234539503
 30
0.0
 10
9.5587728635
 20
11.2189617875
 30
0.0
 10
9.5463682078
 20
11.214373234
 30
0.0
 10
9.5344910186
 20
11.2096923488
 30
0.0
 10
9.523151539
 20
11.2049230981
 30
0.0
 10
9.5123594919
 20
11.2000696947
 30
0.0
 10
9.5021241552
 20
11.1951362279
 30
0.0
 10
9.4924542561
 20
11.1901270154
 30
0.0
 10
9.4833580635
 20
11.1850462517
 30
0.0
 10
9.4748432805
 20
11.1798982964
 30
0.0
 10
9.4669171301
 20
11.1746874099
 30
0.0
 10
9.4595862844
 20
11.1694179112
 30
0.0
 10
9.4528569106
 20
11.1640940553
 30
0.0
 10
9.4467346973
 20
11.1587200153
 30
0.0
 10
9.4412248215
 20
11.1532999391
 30
0.0
 10
9.4363321528
 20
11.1478377593
 30
0.0
 10
9.4320611044
 20
11.1423374539
 30
0.0
 10
9.428416074
 20
11.1368027835
 30
0.0
 10
9.4254011138
 20
11.1312377789
 30
0.0
 10
9.4230205094
 20
11.1256466027
 30
0.0
 10
9.4212780879
 20
11.1200341647
 30
0.0
 10
9.4201775614
 20
11.1144061906
 30
0.0
 10
9.4197214432
 20
11.1087691459
 30
0.0
 10
9.4199109241
 20
11.1031312198
 30
0.0
 10
9.4204628523
 20
11.099406913
 30
0.0
 10
9.4208405986
 20
11.0975583241
 30
0.0
  0
SPLINE
  5
36C
100
AcDbEntity
  8
0
100
AcDbSpline
 62
7
  6
CONTINUOUS
 70
0
 71
3
 72
67
 73
63
 74
0
 42
0.0000001
 43
0.0000001
 44
0.0000000001
 40
0.0
 40
0.0
 40
0.0
 40
0.0
 40
0.00771825
 40
0.0147687136
 40
0.0212509346
 40
0.0243225328
 40
0.0273057307
 40
0.0302227098
 40
0.0330973919
 40
0.0359548859
 40
0.0388207819
 40
0.0417204335
 40
0.044678224
 40
0.0477170311
 40
0.0508577732
 40
0.0575132806
 40
0.0610631098
 40
0.0647764126
 40
0.0727303723
 40
0.0814410792
 40
0.090949934
 40
0.1012819817
 40
0.1124496833
 40
0.1244558327
 40
0.1372953967
 40
0.1509569538
 40
0.1654239173
 40
0.1806751828
 40
0.1966857238
 40
0.2134272217
 40
0.2308683172
 40
0.2489749116
 40
0.2677105757
 40
0.2870366717
 40
0.3069125462
 40
0.3272958421
 40
0.3694062378
 40
0.4130010542
 40
0.457694545
 40
0.5030881905
 40
0.548775401
 40
0.594346247
 40
0.6393921159
 40
0.6835104175
 40
0.7263093002
 40
0.7674124243
 40
0.7872166414
 40
0.8064654479
 40
0.825118528
 40
0.8431375118
 40
0.8604861999
 40
0.877130938
 40
0.8930407394
 40
0.9081876224
 40
0.922547164
 40
0.9360988093
 40
0.9488265195
 40
0.9607198183
 40
0.9717745357
 40
0.9819944847
 40
0.9913944022
 40
1.0
 40
1.0
 40
1.0
 40
1.0
 10
12.8527811988
 20
8.9244306084
 30
0.0
 10
12.8537086571
 20
8.9252937219
 30
0.0
 10
12.8555620508
 20
8.92686481
 30
0.0
 10
12.8584750035
 20
8.9287997309
 30
0.0
 10
12.8609444103
 20
8.9299811422
 30
0.0
 10
12.8628993595
 20
8.9306311577
 30
0.0
 10
12.8643340481
 20
8.9309724894
 30
0.0
 10
12.8657621724
 20
8.9311756629
 30
0.0
 10
12.8671826804
 20
8.9312403365
 30
0.0
 10
12.8685943788
 20
8.9311664142
 30
0.0
 10
12.8699960704
 20
8.9309538812
 30
0.0
 10
12.8713865784
 20
8.9306029896
 30
0.0
 10
12.8727648297
 20
8.9301142688
 30
0.0
 10
12.8741299184
 20
8.9294881858
 30
0.0
 10
12.875966347
 20
8.9284514
 30
0.0
 10
12.8777396602
 20
8.9271495226
 30
0.0
 10
12.8794421574
 20
8.925624613
 30
0.0
 10
12.8811995812
 20
8.9238474812
 30
0.0
 10
12.8833464329
 20
8.9212740597
 30
0.0
 10
12.8857886121
 20
8.9177336209
 30
0.0
 10
12.8881492881
 20
8.9136803422
 30
0.0
 10
12.8904236368
 20
8.909123393
 30
0.0
 10
12.8926068949
 20
8.9040727513
 30
0.0
 10
12.8946940615
 20
8.898539866
 30
0.0
 10
12.8966802662
 20
8.8925374625
 30
0.0
 10
12.8985608103
 20
8.8860795334
 30
0.0
 10
12.9003311487
 20
8.8791812353
 30
0.0
 10
12.9019870035
 20
8.8718588609
 30
0.0
 10
12.9035243895
 20
8.8641297765
 30
0.0
 10
12.904939555
 20
8.8560123517
 30
0.0
 10
12.9062290612
 20
8.8475259196
 30
0.0
 10
12.9073898012
 20
8.8386907241
 30
0.0
 10
12.9084189398
 20
8.8295278531
 30
0.0
 10
12.9093139655
 20
8.8200591997
 30
0.0
 10
12.9100727557
 20
8.8103073783
 30
0.0
 10
12.9109092932
 20
8.7968119401
 30
0.0
 10
12.9115920066
 20
8.7794083415
 30
0.0
 10
12.9118402514
 20
8.7580025132
 30
0.0
 10
12.9115230946
 20
8.7360586509
 30
0.0
 10
12.9106433467
 20
8.7137865414
 30
0.0
 10
12.9092092643
 20
8.6913989651
 30
0.0
 10
12.9072345451
 20
8.6691098792
 30
0.0
 10
12.9047381204
 20
8.6471322851
 30
0.0
 10
12.9017440808
 20
8.6256760808
 30
0.0
 10
12.8982813197
 20
8.6049463192
 30
0.0
 10
12.8949937334
 20
8.5882405886
 30
0.0
 10
12.8921440178
 20
8.5753948279
 30
0.0
 10
12.8899379705
 20
8.566182403
 30
0.0
 10
12.8876420848
 20
8.5572942773
 30
0.0
 10
12.8852618469
 20
8.5487516636
 30
0.0
 10
12.8828029735
 20
8.5405749557
 30
0.0
 10
12.8802714073
 20
8.5327836349
 30
0.0
 10
12.87767324
 20
8.5253962463
 30
0.0
 10
12.8750146963
 20
8.5184303444
 30
0.0
 10
12.8723021896
 20
8.5119024161
 30
0.0
 10
12.8695422177
 20
8.5058278545
 30
0.0
 10
12.8667413326
 20
8.5002209085
 30
0.0
 10
12.8639061541
 20
8.4950945934
 30
0.0
 10
12.8610433266
 20
8.4904607186
 30
0.0
 10
12.8581591077
 20
8.4863295422
 30
0.0
 10
12.8552601108
 20
8.4827107896
 30
0.0
 10
12.8532344667
 20
8.4805524594
 30
0.0
 10
12.8522184477
 20
8.4795710605
 30
0.0
  0
SPLINE
  5
36D
100
AcDbEntity
  8
0
100
AcDbSpline
 62
7
  6
CONTINUOUS
 70
0
 71
3
 72
52
 73
48
 74
0
 42
0.0000001
 43
0.0000001
 44
0.0000000001
 40
0.0
 40
0.0
 40
0.0
 40
0.0
 40
0.0413438999
 40
0.0831417648
 40
0.1252706241
 40
0.1676060092
 40
0.2100227926
 40
0.2523954848
 40
0.2945987821
 40
0.3365080218
 40
0.3779996698
 40
0.4189518013
 40
0.4592445889
 40
0.4987607969
 40
0.537386286
 40
0.5750105328
 40
0.6115271703
 40
0.6468345591
 40
0.6808364019
 40
0.7134424191
 40
0.7445691131
 40
0.759554101
 40
0.7741414904
 40
0.7883232267
 40
0.8020917924
 40
0.8154404426
 40
0.8283630687
 40
0.8408544644
 40
0.8529101965
 40
0.8645269036
 40
0.8757021907
 40
0.8864349655
 40
0.896725377
 40
0.9065752013
 40
0.915987851
 40
0.9249688281
 40
0.9335258385
 40
0.9416693348
 40
0.9494127696
 40
0.9567732409
 40
0.9637718907
 40
0.9704346091
 40
0.97679248
 40
0.9828823383
 40
0.9887469365
 40
0.9944348879
 40
1.0
 40
1.0
 40
1.0
 40
1.0
 10
10.3411644106
 20
11.2625093482
 30
0.0
 10
10.3280239603
 20
11.2634206415
 30
0.0
 10
10.3015840265
 20
11.2650466912
 30
0.0
 10
10.2617145912
 20
11.2668930962
 30
0.0
 10
10.2215063234
 20
11.2681566641
 30
0.0
 10
10.1810867336
 20
11.2688333485
 30
0.0
 10
10.1405838913
 20
11.2689209959
 30
0.0
 10
10.1001261447
 20
11.2684193238
 30
0.0
 10
10.0598416987
 20
11.2673299345
 30
0.0
 10
10.0198582046
 20
11.2656563042
 30
0.0
 10
9.980302354
 20
11.2634037755
 30
0.0
 10
9.9412994735
 20
11.2605795392
 30
0.0
 10
9.9029731244
 20
11.2571926138
 30
0.0
 10
9.865444706
 20
11.2532538172
 30
0.0
 10
9.8288330656
 20
11.2487757345
 30
0.0
 10
9.793254116
 20
11.2437726785
 30
0.0
 10
9.7588204511
 20
11.2382606481
 30
0.0
 10
9.7256410061
 20
11.232257274
 30
0.0
 10
9.6938205908
 20
11.2257817779
 30
0.0
 10
9.6634599032
 20
11.2188548627
 30
0.0
 10
9.6391572272
 20
11.2126488033
 30
0.0
 10
9.6205268902
 20
11.2074611906
 30
0.0
 10
9.6071548837
 20
11.2035208939
 30
0.0
 10
9.5942168257
 20
11.1994849393
 30
0.0
 10
9.5817229302
 20
11.1953564226
 30
0.0
 10
9.5696830551
 20
11.1911387091
 30
0.0
 10
9.5581067097
 20
11.1868350587
 30
0.0
 10
9.5470030012
 20
11.1824489693
 30
0.0
 10
9.5363806868
 20
11.1779838207
 30
0.0
 10
9.5262480914
 20
11.1734432331
 30
0.0
 10
9.5166131874
 20
11.1688306863
 30
0.0
 10
9.5074834847
 20
11.1641498986
 30
0.0
 10
9.4988661413
 20
11.1594044249
 30
0.0
 10
9.4907678234
 20
11.1545980471
 30
0.0
 10
9.483194853
 20
11.1497343578
 30
0.0
 10
9.4761530348
 20
11.144817152
 30
0.0
 10
9.4696478518
 20
11.1398500054
 30
0.0
 10
9.4636842614
 20
11.1348366545
 30
0.0
 10
9.4582669513
 20
11.1297805867
 30
0.0
 10
9.4534001168
 20
11.1246854008
 30
0.0
 10
9.4490877911
 20
11.119554442
 30
0.0
 10
9.4453336184
 20
11.1143911643
 30
0.0
 10
9.4421412441
 20
11.1091988552
 30
0.0
 10
9.439514064
 20
11.1039811364
 30
0.0
 10
9.4374555251
 20
11.0987415305
 30
0.0
 10
9.4359688209
 20
11.0934852267
 30
0.0
 10
9.4353560054
 20
11.089944704
 30
0.0
 10
9.4351487354
 20
11.088183837
 30
0.0
  0
SPLINE
  5
36E
100
AcDbEntity
  8
0
100
AcDbSpline
 62
7
  6
CONTINUOUS
 70
0
 71
3
 72
30
 73
26
 74
0
 42
0.0000001
 43
0.0000001
 44
0.0000000001
 40
0.0
 40
0.0
 40
0.0
 40
0.0
 40
0.068349981
 40
0.1376144296
 40
0.2074226584
 40
0.2773988543
 40
0.3471664415
 40
0.4163502722
 40
0.4845792665
 40
0.5514890513
 40
0.6167246111
 40
0.6486074297
 40
0.6799442343
 40
0.7106945339
 40
0.7408189692
 40
0.7702793663
 40
0.7990388911
 40
0.8270621754
 40
0.8543153683
 40
0.880766302
 40
0.9063846874
 40
0.9311421913
 40
0.9550126316
 40
0.9779722749
 40
1.0
 40
1.0
 40
1.0
 40
1.0
 10
10.3411644106
 20
11.1060107727
 30
0.0
 10
10.3234022446
 20
11.1072425831
 30
0.0
 10
10.2876130717
 20
11.1093451411
 30
0.0
 10
10.2336169724
 20
11.1114207532
 30
0.0
 10
10.1791666068
 20
11.1124326565
 30
0.0
 10
10.1245758989
 20
11.112374895
 30
0.0
 10
10.0701594304
 20
11.1112478455
 30
0.0
 10
10.0162307979
 20
11.1090580498
 30
0.0
 10
9.9631006506
 20
11.1058183237
 30
0.0
 10
9.9110752708
 20
11.1015475486
 30
0.0
 10
9.8685730166
 20
11.0971172051
 30
0.0
 10
9.8353568547
 20
11.0930635369
 30
0.0
 10
9.8110952662
 20
11.0898058
 30
0.0
 10
9.787329381
 20
11.0863122504
 30
0.0
 10
9.7640934205
 20
11.0825879288
 30
0.0
 10
9.7414208834
 20
11.0786382219
 30
0.0
 10
9.7193444348
 20
11.0744688475
 30
0.0
 10
9.6978958701
 20
11.0700858669
 30
0.0
 10
9.6771060775
 20
11.0654956201
 30
0.0
 10
9.6570049858
 20
11.0607047464
 30
0.0
 10
9.6376215006
 20
11.0557202107
 30
0.0
 10
9.6189835015
 20
11.0505492363
 30
0.0
 10
9.6011177203
 20
11.0451992762
 30
0.0
 10
9.5840499385
 20
11.0396781487
 30
0.0
 10
9.5729871847
 20
11.0358072648
 30
0.0
 10
9.5675965592
 20
11.0338407736
 30
0.0
  0
SPLINE
  5
36F
100
AcDbEntity
  8
0
100
AcDbSpline
 62
7
  6
CONTINUOUS
 70
0
 71
3
 72
23
 73
19
 74
0
 42
0.0000001
 43
0.0000001
 44
0.0000000001
 40
0.0
 40
0.0
 40
0.0
 40
0.0
 40
0.0655227105
 40
0.1318374298
 40
0.1986873688
 40
0.2658115018
 40
0.3329481619
 40
0.3998354042
 40
0.4662125851
 40
0.5318216298
 40
0.5964083753
 40
0.6597239121
 40
0.7215259515
 40
0.78158023
 40
0.8396619701
 40
0.8955574291
 40
0.9490655857
 40
1.0
 40
1.0
 40
1.0
 40
1.0
 10
10.3291293349
 20
11.049470228
 30
0.0
 10
10.3150000124
 20
11.0504500999
 30
0.0
 10
10.2865522755
 20
11.0521663411
 30
0.0
 10
10.2436419825
 20
11.0540094355
 30
0.0
 10
10.2003604344
 20
11.0551323375
 30
0.0
 10
10.1568885384
 20
11.0555302727
 30
0.0
 10
10.1134079907
 20
11.0552015813
 30
0.0
 10
10.0701004631
 20
11.0541476403
 30
0.0
 10
10.02714692
 20
11.0523728956
 30
0.0
 10
9.9847268287
 20
11.0498848332
 30
0.0
 10
9.9430174064
 20
11.0466939552
 30
0.0
 10
9.9021928685
 20
11.0428137321
 30
0.0
 10
9.8624236948
 20
11.0382605511
 30
0.0
 10
9.823875886
 20
11.0330536487
 30
0.0
 10
9.78671031
 20
11.0272150443
 30
0.0
 10
9.7510817851
 20
11.0207694133
 30
0.0
 10
9.717139144
 20
11.0137441252
 30
0.0
 10
9.695162292
 20
11.0085604593
 30
0.0
 10
9.6844874794
 20
11.0058649309
 30
0.0
  0
SPLINE
  5
370
100
AcDbEntity
  8
0
100
AcDbSpline
 62
4
  6
CONTINUOUS
 70
0
 71
3
 72
141
 73
137
 74
0
 42
0.0000001
 43
0.0000001
 44
0.0000000001
 40
0.0
 40
0.0
 40
0.0
 40
0.0
 40
0.03125
 40
0.0625
 40
0.078125
 40
0.09375
 40
0.109375
 40
0.125
 40
0.140625
 40
0.1484375
 40
0.15234375
 40
0.15625
 40
0.16015625
 40
0.162109375
 40
0.1640625
 40
0.1650390625
 40
0.166015625
 40
0.1665039062
 40
0.1669921875
 40
0.16796875
 40
0.169921875
 40
0.171875
 40
0.17578125
 40
0.1796875
 40
0.1875
 40
0.1953125
 40
0.203125
 40
0.21875
 40
0.234375
 40
0.25
 40
0.265625
 40
0.28125
 40
0.296875
 40
0.3046875
 40
0.3125
 40
0.3203125
 40
0.32421875
 40
0.328125
 40
0.330078125
 40
0.33203125
 40
0.3330078125
 40
0.3334960938
 40
0.333984375
 40
0.3349609375
 40
0.3359375
 40
0.337890625
 40
0.33984375
 40
0.34375
 40
0.34765625
 40
0.3515625
 40
0.359375
 40
0.375
 40
0.390625
 40
0.40625
 40
0.421875
 40
0.4375
 40
0.453125
 40
0.4609375
 40
0.46875
 40
0.4765625
 40
0.484375
 40
0.48828125
 40
0.4921875
 40
0.494140625
 40
0.49609375
 40
0.498046875
 40
0.4990234375
 40
0.4995117188
 40
0.5
 40
0.5004882812
 40
0.5009765625
 40
0.501953125
 40
0.50390625
 40
0.505859375
 40
0.5078125
 40
0.51171875
 40
0.515625
 40
0.5234375
 40
0.53125
 40
0.5390625
 40
0.546875
 40
0.5625
 40
0.578125
 40
0.59375
 40
0.609375
 40
0.625
 40
0.640625
 40
0.6484375
 40
0.65234375
 40
0.65625
 40
0.66015625
 40
0.662109375
 40
0.6640625
 40
0.6650390625
 40
0.666015625
 40
0.6665039062
 40
0.6669921875
 40
0.66796875
 40
0.669921875
 40
0.671875
 40
0.67578125
 40
0.6796875
 40
0.6875
 40
0.6953125
 40
0.703125
 40
0.71875
 40
0.734375
 40
0.75
 40
0.765625
 40
0.78125
 40
0.796875
 40
0.8046875
 40
0.8125
 40
0.8203125
 40
0.82421875
 40
0.828125
 40
0.830078125
 40
0.83203125
 40
0.8330078125
 40
0.8334960938
 40
0.833984375
 40
0.8349609375
 40
0.8359375
 40
0.837890625
 40
0.83984375
 40
0.84375
 40
0.84765625
 40
0.8515625
 40
0.859375
 40
0.875
 40
0.890625
 40
0.90625
 40
0.921875
 40
0.9375
 40
0.96875
 40
1.0
 40
1.0
 40
1.0
 40
1.0
 10
13.2678874091
 20
10.8758250899
 30
0.0
 10
13.2653655147
 20
10.8762804917
 30
0.0
 10
13.2603217258
 20
10.8771912953
 30
0.0
 10
13.2540169896
 20
10.8783297998
 30
0.0
 10
13.2489732007
 20
10.8792406033
 30
0.0
 10
13.2451903591
 20
10.8799237062
 30
0.0
 10
13.2414075173
 20
10.8806068081
 30
0.0
 10
13.2376246758
 20
10.8812899139
 30
0.0
 10
13.2344723072
 20
10.8818591564
 30
0.0
 10
13.2322656506
 20
10.8822576503
 30
0.0
 10
13.2310047017
 20
10.8824853234
 30
0.0
 10
13.2300589965
 20
10.8826561844
 30
0.0
 10
13.2292708881
 20
10.8827982304
 30
0.0
 10
13.2286404479
 20
10.8829126259
 30
0.0
 10
13.2282463168
 20
10.8829823953
 30
0.0
 10
13.2279312547
 20
10.8830421678
 30
0.0
 10
13.227733787
 20
10.883070497
 30
0.0
 10
13.2275770814
 20
10.8831138398
 30
0.0
 10
13.2274157447
 20
10.8830816879
 30
0.0
 10
13.2271312543
 20
10.8829903516
 30
0.0
 10
13.2267259618
 20
10.8828781693
 30
0.0
 10
13.2260768666
 20
10.8826884517
 30
0.0
 10
13.2252657124
 20
10.8824548061
 30
0.0
 10
13.2239677456
 20
10.8820790162
 30
0.0
 10
13.2223453283
 20
10.8816099503
 30
0.0
 10
13.2203984098
 20
10.8810467838
 30
0.0
 10
13.2178025248
 20
10.8802959955
 30
0.0
 10
13.2145576663
 20
10.8793574756
 30
0.0
 10
13.2106638371
 20
10.8782312666
 30
0.0
 10
13.2067700076
 20
10.8771050534
 30
0.0
 10
13.2028761782
 20
10.8759788423
 30
0.0
 10
13.1989823487
 20
10.874852627
 30
0.0
 10
13.1957374911
 20
10.8739141265
 30
0.0
 10
13.1931416042
 20
10.8731632988
 30
0.0
 10
13.1911946914
 20
10.8726002527
 30
0.0
 10
13.1895722566
 20
10.8721308101
 30
0.0
 10
13.1882743254
 20
10.8717557885
 30
0.0
 10
13.1874630805
 20
10.8715201877
 30
0.0
 10
13.1868141715
 20
10.8713344835
 30
0.0
 10
13.1864084049
 20
10.8712120833
 30
0.0
 10
13.1861247661
 20
10.8711390996
 30
0.0
 10
13.1859620643
 20
10.8710775298
 30
0.0
 10
13.1857970173
 20
10.8709411266
 30
0.0
 10
13.1855915115
 20
10.8707962453
 30
0.0
 10
13.1852622534
 20
10.8705501161
 30
0.0
 10
13.1848508345
 20
10.8702473575
 30
0.0
 10
13.1841924785
 20
10.8697602035
 30
0.0
 10
13.1833695628
 20
10.8691522012
 30
0.0
 10
13.1823820514
 20
10.868422196
 30
0.0
 10
13.181065374
 20
10.8674489961
 30
0.0
 10
13.1787611864
 20
10.8657458309
 30
0.0
 10
13.1754694909
 20
10.8633127719
 30
0.0
 10
13.1715194558
 20
10.8603930865
 30
0.0
 10
13.1675694209
 20
10.857473405
 30
0.0
 10
13.1636193859
 20
10.8545537225
 30
0.0
 10
13.159669351
 20
10.8516340401
 30
0.0
 10
13.1563776552
 20
10.8492009718
 30
0.0
 10
13.1537442986
 20
10.8472545163
 30
0.0
 10
13.1517692811
 20
10.845794677
 30
0.0
 10
13.1497942636
 20
10.8443348287
 30
0.0
 10
13.1481484157
 20
10.8431183166
 30
0.0
 10
13.1468317374
 20
10.8421450439
 30
0.0
 10
13.1460088135
 20
10.841536892
 30
0.0
 10
13.1453504742
 20
10.8410500417
 30
0.0
 10
13.1448567201
 20
10.8406858043
 30
0.0
 10
13.1444452573
 20
10.840379409
 30
0.0
 10
13.1441572354
 20
10.8401705531
 30
0.0
 10
13.1439926483
 20
10.8400424304
 30
0.0
 10
13.1438692169
 20
10.8399710617
 30
0.0
 10
13.1437457513
 20
10.839805188
 30
0.0
 10
13.1435811425
 20
10.8396169874
 30
0.0
 10
13.1432930716
 20
10.8392722776
 30
0.0
 10
13.1428815445
 20
10.8387878648
 30
0.0
 10
13.1423877108
 20
10.8382031325
 30
0.0
 10
13.1417292663
 20
10.8374246899
 30
0.0
 10
13.1409062106
 20
10.8364512255
 30
0.0
 10
13.1395893214
 20
10.8348939123
 30
0.0
 10
13.1379432099
 20
10.8329471919
 30
0.0
 10
13.1359678762
 20
10.8306111613
 30
0.0
 10
13.1339925424
 20
10.8282751217
 30
0.0
 10
13.1313587641
 20
10.8251604053
 30
0.0
 10
13.1280665412
 20
10.8212670087
 30
0.0
 10
13.1241158737
 20
10.8165949332
 30
0.0
 10
13.1201652062
 20
10.8119228578
 30
0.0
 10
13.1162145387
 20
10.8072507815
 30
0.0
 10
13.1122638711
 20
10.8025787089
 30
0.0
 10
13.1089716485
 20
10.7986853036
 30
0.0
 10
13.1066670919
 20
10.7959599423
 30
0.0
 10
13.1053502036
 20
10.7944025579
 30
0.0
 10
13.1043625342
 20
10.7932346186
 30
0.0
 10
13.1035394865
 20
10.7922610205
 30
0.0
 10
13.1028810254
 20
10.7914828494
 30
0.0
 10
13.1024695397
 20
10.7909948817
 30
0.0
 10
13.1021402309
 20
10.7906081964
 30
0.0
 10
13.1019346871
 20
10.7903581015
 30
0.0
 10
13.1017696241
 20
10.7901773031
 30
0.0
 10
13.1016068538
 20
10.7899261278
 30
0.0
 10
13.1013230709
 20
10.7894538781
 30
0.0
 10
13.1009171111
 20
10.7887962931
 30
0.0
 10
13.100267886
 20
10.7877346247
 30
0.0
 10
13.0994562482
 20
10.7864108031
 30
0.0
 10
13.0981576872
 20
10.7842908643
 30
0.0
 10
13.0965344655
 20
10.7816415667
 30
0.0
 10
13.0945866083
 20
10.7784621416
 30
0.0
 10
13.0919894622
 20
10.7742230018
 30
0.0
 10
13.0887430307
 20
10.7689240449
 30
0.0
 10
13.0848473125
 20
10.7625653105
 30
0.0
 10
13.0809515943
 20
10.7562065721
 30
0.0
 10
13.0770558761
 20
10.7498478358
 30
0.0
 10
13.073160158
 20
10.7434890952
 30
0.0
 10
13.0699137261
 20
10.738190157
 30
0.0
 10
13.0673165809
 20
10.7339509791
 30
0.0
 10
13.065368721
 20
10.7307716704
 30
0.0
 10
13.0637455077
 20
10.7281220088
 30
0.0
 10
13.0624469296
 20
10.7260028126
 30
0.0
 10
13.0616353354
 20
10.7246771012
 30
0.0
 10
13.0609860207
 20
10.7236193119
 30
0.0
 10
13.060580289
 20
10.7229518509
 30
0.0
 10
13.0602960964
 20
10.7224973396
 30
0.0
 10
13.0601339828
 20
10.7222177307
 30
0.0
 10
13.0599729324
 20
10.7218632
 30
0.0
 10
13.0597712553
 20
10.7214456897
 30
0.0
 10
13.0594487753
 20
10.7207633371
 30
0.0
 10
13.0590456057
 20
10.7199153051
 30
0.0
 10
13.0584005733
 20
10.7185557103
 30
0.0
 10
13.0575942694
 20
10.7168571581
 30
0.0
 10
13.0566267105
 20
10.7148184927
 30
0.0
 10
13.0553366299
 20
10.7121004126
 30
0.0
 10
13.0530789899
 20
10.7073437069
 30
0.0
 10
13.0498537893
 20
10.7005484473
 30
0.0
 10
13.0459835489
 20
10.6923941211
 30
0.0
 10
13.0421133083
 20
10.6842397989
 30
0.0
 10
13.0382430678
 20
10.6760854756
 30
0.0
 10
13.0330827471
 20
10.665213045
 30
0.0
 10
13.0266323463
 20
10.6516225065
 30
0.0
 10
13.0214720256
 20
10.6407500757
 30
0.0
 10
13.0188918652
 20
10.6353138604
 30
0.0
  0
SPLINE
  5
371
100
AcDbEntity
  8
0
100
AcDbSpline
 62
4
  6
CONTINUOUS
 70
0
 71
3
 72
134
 73
130
 74
0
 42
0.0000001
 43
0.0000001
 44
0.0000000001
 40
0.0
 40
0.0
 40
0.0
 40
0.0
 40
0.03125
 40
0.0625
 40
0.09375
 40
0.109375
 40
0.125
 40
0.140625
 40
0.1484375
 40
0.15625
 40
0.16015625
 40
0.1640625
 40
0.166015625
 40
0.1669921875
 40
0.16796875
 40
0.169921875
 40
0.171875
 40
0.17578125
 40
0.1796875
 40
0.1875
 40
0.1953125
 40
0.203125
 40
0.21875
 40
0.25
 40
0.265625
 40
0.28125
 40
0.296875
 40
0.3046875
 40
0.3125
 40
0.3203125
 40
0.32421875
 40
0.328125
 40
0.330078125
 40
0.33203125
 40
0.3330078125
 40
0.3334960938
 40
0.333984375
 40
0.3349609375
 40
0.3359375
 40
0.33984375
 40
0.34375
 40
0.34765625
 40
0.3515625
 40
0.359375
 40
0.375
 40
0.390625
 40
0.40625
 40
0.421875
 40
0.4375
 40
0.453125
 40
0.4609375
 40
0.46875
 40
0.4765625
 40
0.484375
 40
0.48828125
 40
0.4921875
 40
0.494140625
 40
0.49609375
 40
0.498046875
 40
0.4990234375
 40
0.4995117188
 40
0.5
 40
0.5004882812
 40
0.5009765625
 40
0.501953125
 40
0.50390625
 40
0.505859375
 40
0.5078125
 40
0.51171875
 40
0.515625
 40
0.5234375
 40
0.53125
 40
0.5390625
 40
0.546875
 40
0.5625
 40
0.578125
 40
0.59375
 40
0.609375
 40
0.625
 40
0.640625
 40
0.6484375
 40
0.65234375
 40
0.65625
 40
0.66015625
 40
0.662109375
 40
0.6640625
 40
0.6650390625
 40
0.666015625
 40
0.6665039062
 40
0.6669921875
 40
0.66796875
 40
0.669921875
 40
0.671875
 40
0.67578125
 40
0.6796875
 40
0.6875
 40
0.6953125
 40
0.703125
 40
0.71875
 40
0.734375
 40
0.75
 40
0.765625
 40
0.78125
 40
0.796875
 40
0.8046875
 40
0.8125
 40
0.8203125
 40
0.82421875
 40
0.828125
 40
0.830078125
 40
0.83203125
 40
0.8330078125
 40
0.8334960938
 40
0.833984375
 40
0.8349609375
 40
0.8359375
 40
0.837890625
 40
0.83984375
 40
0.84375
 40
0.84765625
 40
0.8515625
 40
0.859375
 40
0.875
 40
0.890625
 40
0.90625
 40
0.921875
 40
0.9375
 40
0.96875
 40
1.0
 40
1.0
 40
1.0
 40
1.0
 10
13.5559468506
 20
10.4382063432
 30
0.0
 10
13.5557971754
 20
10.4436581792
 30
0.0
 10
13.5554978252
 20
10.4545618515
 30
0.0
 10
13.5550487979
 20
10.4709173571
 30
0.0
 10
13.5546746147
 20
10.4845469538
 30
0.0
 10
13.5543752543
 20
10.4954506118
 30
0.0
 10
13.5541507719
 20
10.5036284081
 30
0.0
 10
13.5539635826
 20
10.5104430703
 30
0.0
 10
13.5538141016
 20
10.515895177
 30
0.0
 10
13.5537200601
 20
10.5193018854
 30
0.0
 10
13.5536462376
 20
10.5220292176
 30
0.0
 10
13.5535968797
 20
10.5237293158
 30
0.0
 10
13.5535687801
 20
10.5249283719
 30
0.0
 10
13.55354263
 20
10.5255994853
 30
0.0
 10
13.5534784577
 20
10.5262176268
 30
0.0
 10
13.553411261
 20
10.5270084412
 30
0.0
 10
13.5532964707
 20
10.5282636081
 30
0.0
 10
13.5531554741
 20
10.5298360373
 30
0.0
 10
13.5529284872
 20
10.5323499844
 30
0.0
 10
13.5526452313
 20
10.5354930838
 30
0.0
 10
13.5523051197
 20
10.5392645182
 30
0.0
 10
13.5518517089
 20
10.5442931967
 30
0.0
 10
13.5510582068
 20
10.5530933379
 30
0.0
 10
13.5501513614
 20
10.5631506617
 30
0.0
 10
13.5492445113
 20
10.5732079794
 30
0.0
 10
13.5485643736
 20
10.5807509664
 30
0.0
 10
13.5479975949
 20
10.587036796
 30
0.0
 10
13.5475441654
 20
10.5920654431
 30
0.0
 10
13.5472041111
 20
10.5958369738
 30
0.0
 10
13.5469206759
 20
10.5989797717
 30
0.0
 10
13.5466940547
 20
10.6014943339
 30
0.0
 10
13.5465521273
 20
10.6030651976
 30
0.0
 10
13.5464392478
 20
10.6043235781
 30
0.0
 10
13.5463671864
 20
10.605106211
 30
0.0
 10
13.5463197731
 20
10.6056617797
 30
0.0
 10
13.5462879397
 20
10.60596716
 30
0.0
 10
13.5462382531
 20
10.606227013
 30
0.0
 10
13.5461822471
 20
10.6065673907
 30
0.0
 10
13.5460428103
 20
10.6073714894
 30
0.0
 10
13.5458357647
 20
10.6085830168
 30
0.0
 10
13.5455584981
 20
10.610195312
 30
0.0
 10
13.545281554
 20
10.6118084297
 30
0.0
 10
13.5449121827
 20
10.6139589664
 30
0.0
 10
13.5442658354
 20
10.6177225394
 30
0.0
 10
13.5433424547
 20
10.6230990022
 30
0.0
 10
13.5422344097
 20
10.6295507876
 30
0.0
 10
13.5411263614
 20
10.636002565
 30
0.0
 10
13.540018314
 20
10.6424543446
 30
0.0
 10
13.5389102664
 20
10.6489061234
 30
0.0
 10
13.5379868935
 20
10.6542826062
 30
0.0
 10
13.537248195
 20
10.6585837918
 30
0.0
 10
13.5366941716
 20
10.6618096828
 30
0.0
 10
13.5361401463
 20
10.6650355668
 30
0.0
 10
13.5356784647
 20
10.6677238253
 30
0.0
 10
13.5353091056
 20
10.6698743833
 30
0.0
 10
13.5350782875
 20
10.671218593
 30
0.0
 10
13.5348935612
 20
10.6722937066
 30
0.0
 10
13.5347552131
 20
10.6731007379
 30
0.0
 10
13.5346392977
 20
10.6737710497
 30
0.0
 10
13.5345593842
 20
10.6742446133
 30
0.0
 10
13.5345118029
 20
10.6745084361
 30
0.0
 10
13.5344815155
 20
10.6747254166
 30
0.0
 10
13.5344305922
 20
10.674869336
 30
0.0
 10
13.5343698925
 20
10.6750867131
 30
0.0
 10
13.5342603144
 20
10.6754552492
 30
0.0
 10
13.5341055276
 20
10.675987937
 30
0.0
 10
13.5339190329
 20
10.6766245054
 30
0.0
 10
13.5336706354
 20
10.6774741912
 30
0.0
 10
13.5333600488
 20
10.6785359808
 30
0.0
 10
13.5328631605
 20
10.6802350217
 30
0.0
 10
13.5322420328
 20
10.6823587618
 30
0.0
 10
13.531496687
 20
10.6849072762
 30
0.0
 10
13.5307513392
 20
10.6874557835
 30
0.0
 10
13.5297575428
 20
10.6908537957
 30
0.0
 10
13.5285152971
 20
10.6951013101
 30
0.0
 10
13.5270246024
 20
10.7001983278
 30
0.0
 10
13.5255339076
 20
10.7052953455
 30
0.0
 10
13.5240432127
 20
10.7103923624
 30
0.0
 10
13.5225525185
 20
10.7154893827
 30
0.0
 10
13.5213102712
 20
10.719736889
 30
0.0
 10
13.5204407023
 20
10.7227101643
 30
0.0
 10
13.5199437991
 20
10.7244091461
 30
0.0
 10
13.5195711406
 20
10.7256834743
 30
0.0
 10
13.5192605317
 20
10.7267451221
 30
0.0
 10
13.5190121795
 20
10.7275950959
 30
0.0
 10
13.5188566521
 20
10.728124837
 30
0.0
 10
13.5187329339
 20
10.7285520481
 30
0.0
 10
13.5186540044
 20
10.7288112557
 30
0.0
 10
13.5185945383
 20
10.7290364856
 30
0.0
 10
13.5185216469
 20
10.7291964997
 30
0.0
 10
13.5183878502
 20
10.7294462287
 30
0.0
 10
13.5181999661
 20
10.7298187912
 30
0.0
 10
13.517897533
 20
10.7304060577
 30
0.0
 10
13.5175201143
 20
10.7311431654
 30
0.0
 10
13.5169158964
 20
10.7323208473
 30
0.0
 10
13.5161607435
 20
10.7337935296
 30
0.0
 10
13.5152545088
 20
10.7355605001
 30
0.0
 10
13.5140462138
 20
10.7379165476
 30
0.0
 10
13.5125358389
 20
10.7408615771
 30
0.0
 10
13.5107233916
 20
10.7443956254
 30
0.0
 10
13.5089109436
 20
10.74792967
 30
0.0
 10
13.507098496
 20
10.7514637165
 30
0.0
 10
13.5052860477
 20
10.754997759
 30
0.0
 10
13.5037756759
 20
10.757942806
 30
0.0
 10
13.5025673744
 20
10.7602988178
 30
0.0
 10
13.5016611596
 20
10.7620658973
 30
0.0
 10
13.5009059447
 20
10.7635382388
 30
0.0
 10
13.5003018531
 20
10.764716616
 30
0.0
 10
13.499924113
 20
10.7654519542
 30
0.0
 10
13.4996223397
 20
10.7660428527
 30
0.0
 10
13.4994327758
 20
10.7664061683
 30
0.0
 10
13.4993019963
 20
10.766672506
 30
0.0
 10
13.4992242685
 20
10.7668058975
 30
0.0
 10
13.4991352517
 20
10.7668684615
 30
0.0
 10
13.4990278461
 20
10.7669709178
 30
0.0
 10
13.4988538369
 20
10.767121295
 30
0.0
 10
13.498637065
 20
10.767313907
 30
0.0
 10
13.4982898167
 20
10.7676194927
 30
0.0
 10
13.4978558981
 20
10.7680023646
 30
0.0
 10
13.4973351351
 20
10.76846143
 30
0.0
 10
13.4966408056
 20
10.7690736501
 30
0.0
 10
13.4954257192
 20
10.7701449734
 30
0.0
 10
13.4936898865
 20
10.7716754677
 30
0.0
 10
13.4916068851
 20
10.7735120468
 30
0.0
 10
13.4895238843
 20
10.7753486297
 30
0.0
 10
13.4874408833
 20
10.7771852117
 30
0.0
 10
13.4846635487
 20
10.7796339879
 30
0.0
 10
13.4811918805
 20
10.782694958
 30
0.0
 10
13.4784145459
 20
10.7851437342
 30
0.0
 10
13.4770258786
 20
10.7863681223
 30
0.0
  0
SPLINE
  5
372
100
AcDbEntity
  8
0
100
AcDbSpline
 62
4
  6
CONTINUOUS
 70
0
 71
3
 72
112
 73
108
 74
0
 42
0.0000001
 43
0.0000001
 44
0.0000000001
 40
0.0
 40
0.0
 40
0.0
 40
0.0
 40
0.03125
 40
0.0625
 40
0.078125
 40
0.09375
 40
0.109375
 40
0.125
 40
0.140625
 40
0.1484375
 40
0.15234375
 40
0.15625
 40
0.16015625
 40
0.1640625
 40
0.1650390625
 40
0.166015625
 40
0.1665039062
 40
0.1669921875
 40
0.16796875
 40
0.169921875
 40
0.171875
 40
0.17578125
 40
0.1796875
 40
0.1875
 40
0.1953125
 40
0.203125
 40
0.21875
 40
0.234375
 40
0.25
 40
0.28125
 40
0.296875
 40
0.3046875
 40
0.3125
 40
0.3203125
 40
0.32421875
 40
0.328125
 40
0.330078125
 40
0.33203125
 40
0.3330078125
 40
0.333984375
 40
0.3349609375
 40
0.3359375
 40
0.33984375
 40
0.34375
 40
0.3515625
 40
0.359375
 40
0.375
 40
0.390625
 40
0.40625
 40
0.421875
 40
0.4375
 40
0.453125
 40
0.46875
 40
0.4765625
 40
0.484375
 40
0.48828125
 40
0.4921875
 40
0.49609375
 40
0.498046875
 40
0.4990234375
 40
0.5
 40
0.5009765625
 40
0.501953125
 40
0.50390625
 40
0.5078125
 40
0.51171875
 40
0.515625
 40
0.5234375
 40
0.53125
 40
0.546875
 40
0.5625
 40
0.578125
 40
0.59375
 40
0.609375
 40
0.625
 40
0.640625
 40
0.6484375
 40
0.65625
 40
0.66015625
 40
0.6640625
 40
0.666015625
 40
0.66796875
 40
0.669921875
 40
0.671875
 40
0.6796875
 40
0.6875
 40
0.6953125
 40
0.703125
 40
0.71875
 40
0.75
 40
0.78125
 40
0.796875
 40
0.8125
 40
0.8203125
 40
0.828125
 40
0.83203125
 40
0.833984375
 40
0.8359375
 40
0.83984375
 40
0.84375
 40
0.8515625
 40
0.859375
 40
0.875
 40
0.890625
 40
0.90625
 40
0.9375
 40
1.0
 40
1.0
 40
1.0
 40
1.0
 10
13.4770258782
 20
8.8808580274
 30
0.0
 10
13.4783783145
 20
8.8846454992
 30
0.0
 10
13.4810831871
 20
8.8922204429
 30
0.0
 10
13.4844642778
 20
8.9016891225
 30
0.0
 10
13.4871691504
 20
8.909264066
 30
0.0
 10
13.4891978047
 20
8.9149452743
 30
0.0
 10
13.4912264595
 20
8.92062648
 30
0.0
 10
13.4932551127
 20
8.9263076954
 30
0.0
 10
13.4949456618
 20
8.9310420113
 30
0.0
 10
13.4961290368
 20
8.9343560918
 30
0.0
 10
13.4968052657
 20
8.9362497594
 30
0.0
 10
13.4973123963
 20
8.9376702712
 30
0.0
 10
13.4978196839
 20
8.9390897852
 30
0.0
 10
13.4981997095
 20
8.940157218
 30
0.0
 10
13.4984537443
 20
8.9408644895
 30
0.0
 10
13.4985585737
 20
8.9411656596
 30
0.0
 10
13.4986448131
 20
8.941391494
 30
0.0
 10
13.4987223636
 20
8.941672556
 30
0.0
 10
13.4988540399
 20
8.9421900744
 30
0.0
 10
13.4990442552
 20
8.9429159983
 30
0.0
 10
13.4993474226
 20
8.9440849585
 30
0.0
 10
13.4997267849
 20
8.945543597
 30
0.0
 10
13.5003335394
 20
8.9478788502
 30
0.0
 10
13.5010920597
 20
8.9507974256
 30
0.0
 10
13.5020022511
 20
8.9542999263
 30
0.0
 10
13.5032158511
 20
8.9589698538
 30
0.0
 10
13.5047328471
 20
8.9648072883
 30
0.0
 10
13.506553244
 20
8.9718121993
 30
0.0
 10
13.5089804398
 20
8.9811520825
 30
0.0
 10
13.5114076323
 20
8.9904919749
 30
0.0
 10
13.5135314343
 20
8.9986643555
 30
0.0
 10
13.5147450225
 20
9.003334326
 30
0.0
 10
13.5156552502
 20
9.0068366951
 30
0.0
 10
13.5164136567
 20
9.0097556823
 30
0.0
 10
13.5170206434
 20
9.0120900953
 30
0.0
 10
13.5173994146
 20
9.0135508721
 30
0.0
 10
13.5177037954
 20
9.014715443
 30
0.0
 10
13.5178909216
 20
9.0154525418
 30
0.0
 10
13.5180477499
 20
9.0160210528
 30
0.0
 10
13.5181458562
 20
9.0165053948
 30
0.0
 10
13.5182384941
 20
9.0170059779
 30
0.0
 10
13.5184265826
 20
9.0179987903
 30
0.0
 10
13.5187075371
 20
9.0194915082
 30
0.0
 10
13.5192078898
 20
9.0221426215
 30
0.0
 10
13.51983303
 20
9.0254574059
 30
0.0
 10
13.5208334223
 20
9.0307605619
 30
0.0
 10
13.5220838551
 20
9.0373896782
 30
0.0
 10
13.5235843992
 20
9.0453445444
 30
0.0
 10
13.5250849367
 20
9.05329943
 30
0.0
 10
13.5265854757
 20
9.0612543109
 30
0.0
 10
13.5280860153
 20
9.0692091915
 30
0.0
 10
13.529586551
 20
9.0771640782
 30
0.0
 10
13.5308370097
 20
9.0837931304
 30
0.0
 10
13.5318373493
 20
9.0890964171
 30
0.0
 10
13.5324626239
 20
9.0924108689
 30
0.0
 10
13.5329627006
 20
9.0950626649
 30
0.0
 10
13.5333381498
 20
9.0970508696
 30
0.0
 10
13.5336497782
 20
9.09870975
 30
0.0
 10
13.5338703632
 20
9.0998669568
 30
0.0
 10
13.5339925939
 20
9.1005344783
 30
0.0
 10
13.5340950218
 20
9.1010174835
 30
0.0
 10
13.5341563391
 20
9.101567902
 30
0.0
 10
13.5342524354
 20
9.1022782787
 30
0.0
 10
13.5344139226
 20
9.1035323939
 30
0.0
 10
13.5346481117
 20
9.1053182591
 30
0.0
 10
13.5349276434
 20
9.1074637491
 30
0.0
 10
13.5353008746
 20
9.1103235461
 30
0.0
 10
13.5357672348
 20
9.1138985856
 30
0.0
 10
13.5365135111
 20
9.1196184849
 30
0.0
 10
13.5374463221
 20
9.1267684153
 30
0.0
 10
13.5385657104
 20
9.1353483073
 30
0.0
 10
13.5396850929
 20
9.143928207
 30
0.0
 10
13.5408044837
 20
9.1525081003
 30
0.0
 10
13.5419238473
 20
9.1610880114
 30
0.0
 10
13.5430433112
 20
9.1696678579
 30
0.0
 10
13.543975886
 20
9.1768179306
 30
0.0
 10
13.544722644
 20
9.1825375397
 30
0.0
 10
13.5451877783
 20
9.1861133176
 30
0.0
 10
13.545563526
 20
9.1889715988
 30
0.0
 10
13.5457900623
 20
9.1907633662
 30
0.0
 10
13.5459903156
 20
9.1921845455
 30
0.0
 10
13.5460884166
 20
9.1932839289
 30
0.0
 10
13.5461719212
 20
9.1943926994
 30
0.0
 10
13.5463464389
 20
9.1966054116
 30
0.0
 10
13.5466050618
 20
9.1999265081
 30
0.0
 10
13.5469516949
 20
9.2043534775
 30
0.0
 10
13.5472978457
 20
9.208780757
 30
0.0
 10
13.547759549
 20
9.2146836881
 30
0.0
 10
13.5485674435
 20
9.2250138681
 30
0.0
 10
13.5497216853
 20
9.2397712411
 30
0.0
 10
13.5508756643
 20
9.2545286259
 30
0.0
 10
13.5517993926
 20
9.2663345271
 30
0.0
 10
13.5523754916
 20
9.273713226
 30
0.0
 10
13.5528391893
 20
9.2796161611
 30
0.0
 10
13.5531225696
 20
9.2833055503
 30
0.0
 10
13.553333824
 20
9.2858880131
 30
0.0
 10
13.5534343759
 20
9.2873638777
 30
0.0
 10
13.5534589635
 20
9.2888403889
 30
0.0
 10
13.553515708
 20
9.2906858066
 30
0.0
 10
13.5535919637
 20
9.2936385985
 30
0.0
 10
13.5536922602
 20
9.2973295461
 30
0.0
 10
13.553849953
 20
9.3032350859
 30
0.0
 10
13.5540480234
 20
9.3106170026
 30
0.0
 10
13.5542852995
 20
9.319475306
 30
0.0
 10
13.55460181
 20
9.3312863761
 30
0.0
 10
13.5551556366
 20
9.3519557492
 30
0.0
 10
13.5556303681
 20
9.3696723546
 30
0.0
 10
13.5559468506
 20
9.3814834249
 30
0.0
  0
SPLINE
  5
373
100
AcDbEntity
  8
0
100
AcDbSpline
 62
4
  6
CONTINUOUS
 70
0
 71
3
 72
141
 73
137
 74
0
 42
0.0000001
 43
0.0000001
 44
0.0000000001
 40
0.0
 40
0.0
 40
0.0
 40
0.0
 40
0.03125
 40
0.0625
 40
0.078125
 40
0.09375
 40
0.109375
 40
0.125
 40
0.140625
 40
0.1484375
 40
0.15234375
 40
0.15625
 40
0.16015625
 40
0.162109375
 40
0.1640625
 40
0.1650390625
 40
0.166015625
 40
0.1665039062
 40
0.1669921875
 40
0.16796875
 40
0.169921875
 40
0.171875
 40
0.17578125
 40
0.1796875
 40
0.1875
 40
0.1953125
 40
0.203125
 40
0.21875
 40
0.234375
 40
0.25
 40
0.265625
 40
0.28125
 40
0.296875
 40
0.3046875
 40
0.3125
 40
0.3203125
 40
0.32421875
 40
0.328125
 40
0.330078125
 40
0.33203125
 40
0.3330078125
 40
0.3334960938
 40
0.333984375
 40
0.3349609375
 40
0.3359375
 40
0.337890625
 40
0.33984375
 40
0.34375
 40
0.34765625
 40
0.3515625
 40
0.359375
 40
0.375
 40
0.390625
 40
0.40625
 40
0.421875
 40
0.4375
 40
0.453125
 40
0.4609375
 40
0.46875
 40
0.4765625
 40
0.484375
 40
0.48828125
 40
0.4921875
 40
0.494140625
 40
0.49609375
 40
0.498046875
 40
0.4990234375
 40
0.4995117188
 40
0.5
 40
0.5004882812
 40
0.5009765625
 40
0.501953125
 40
0.50390625
 40
0.505859375
 40
0.5078125
 40
0.51171875
 40
0.515625
 40
0.5234375
 40
0.53125
 40
0.5390625
 40
0.546875
 40
0.5625
 40
0.578125
 40
0.59375
 40
0.609375
 40
0.625
 40
0.640625
 40
0.6484375
 40
0.65234375
 40
0.65625
 40
0.66015625
 40
0.662109375
 40
0.6640625
 40
0.6650390625
 40
0.666015625
 40
0.6665039062
 40
0.6669921875
 40
0.66796875
 40
0.669921875
 40
0.671875
 40
0.67578125
 40
0.6796875
 40
0.6875
 40
0.6953125
 40
0.703125
 40
0.71875
 40
0.734375
 40
0.75
 40
0.765625
 40
0.78125
 40
0.796875
 40
0.8046875
 40
0.8125
 40
0.8203125
 40
0.82421875
 40
0.828125
 40
0.830078125
 40
0.83203125
 40
0.8330078125
 40
0.8334960938
 40
0.833984375
 40
0.8349609375
 40
0.8359375
 40
0.837890625
 40
0.83984375
 40
0.84375
 40
0.84765625
 40
0.8515625
 40
0.859375
 40
0.875
 40
0.890625
 40
0.90625
 40
0.921875
 40
0.9375
 40
0.96875
 40
1.0
 40
1.0
 40
1.0
 40
1.0
 10
13.0188918573
 20
8.1468652905
 30
0.0
 10
13.0214137517
 20
8.1464098887
 30
0.0
 10
13.0264575406
 20
8.1454990851
 30
0.0
 10
13.0327622767
 20
8.1443605806
 30
0.0
 10
13.0378060656
 20
8.1434497771
 30
0.0
 10
13.0415889073
 20
8.1427666742
 30
0.0
 10
13.045371749
 20
8.1420835723
 30
0.0
 10
13.0491545905
 20
8.1414004665
 30
0.0
 10
13.0523069592
 20
8.140831224
 30
0.0
 10
13.0545136158
 20
8.1404327301
 30
0.0
 10
13.0557745647
 20
8.140205057
 30
0.0
 10
13.0567202699
 20
8.1400341959
 30
0.0
 10
13.0575083783
 20
8.13989215
 30
0.0
 10
13.0581388185
 20
8.1397777545
 30
0.0
 10
13.0585329496
 20
8.1397079851
 30
0.0
 10
13.0588480117
 20
8.1396482126
 30
0.0
 10
13.0590454794
 20
8.1396198834
 30
0.0
 10
13.059202185
 20
8.1395765406
 30
0.0
 10
13.0593635216
 20
8.1396086925
 30
0.0
 10
13.0596480121
 20
8.1397000288
 30
0.0
 10
13.0600533045
 20
8.1398122111
 30
0.0
 10
13.0607023997
 20
8.1400019287
 30
0.0
 10
13.061513554
 20
8.1402355743
 30
0.0
 10
13.0628115208
 20
8.1406113642
 30
0.0
 10
13.0644339381
 20
8.1410804301
 30
0.0
 10
13.0663808565
 20
8.1416435966
 30
0.0
 10
13.0689767416
 20
8.1423943849
 30
0.0
 10
13.0722216001
 20
8.1433329048
 30
0.0
 10
13.0761154293
 20
8.1444591137
 30
0.0
 10
13.0800092588
 20
8.145585327
 30
0.0
 10
13.0839030882
 20
8.1467115381
 30
0.0
 10
13.0877969177
 20
8.1478377534
 30
0.0
 10
13.0910417752
 20
8.1487762538
 30
0.0
 10
13.0936376621
 20
8.1495270816
 30
0.0
 10
13.095584575
 20
8.1500901277
 30
0.0
 10
13.0972070098
 20
8.1505595702
 30
0.0
 10
13.0985049409
 20
8.1509345918
 30
0.0
 10
13.0993161859
 20
8.1511701927
 30
0.0
 10
13.0999650949
 20
8.1513558968
 30
0.0
 10
13.1003708615
 20
8.1514782971
 30
0.0
 10
13.1006545002
 20
8.1515512808
 30
0.0
 10
13.1008172021
 20
8.1516128506
 30
0.0
 10
13.1009822491
 20
8.1517492538
 30
0.0
 10
13.1011877549
 20
8.1518941351
 30
0.0
 10
13.1015170129
 20
8.1521402643
 30
0.0
 10
13.1019284318
 20
8.1524430229
 30
0.0
 10
13.1025867879
 20
8.1529301769
 30
0.0
 10
13.1034097036
 20
8.1535381792
 30
0.0
 10
13.1043972149
 20
8.1542681844
 30
0.0
 10
13.1057138924
 20
8.1552413843
 30
0.0
 10
13.10801808
 20
8.1569445495
 30
0.0
 10
13.1113097755
 20
8.1593776085
 30
0.0
 10
13.1152598105
 20
8.1622972939
 30
0.0
 10
13.1192098455
 20
8.1652169754
 30
0.0
 10
13.1231598804
 20
8.1681366579
 30
0.0
 10
13.1271099154
 20
8.1710563403
 30
0.0
 10
13.1304016112
 20
8.1734894086
 30
0.0
 10
13.1330349678
 20
8.1754358641
 30
0.0
 10
13.1350099853
 20
8.1768957034
 30
0.0
 10
13.1369850027
 20
8.1783555517
 30
0.0
 10
13.1386308506
 20
8.1795720637
 30
0.0
 10
13.139947529
 20
8.1805453365
 30
0.0
 10
13.1407704529
 20
8.1811534884
 30
0.0
 10
13.1414287921
 20
8.1816403387
 30
0.0
 10
13.1419225462
 20
8.1820045761
 30
0.0
 10
13.142334009
 20
8.1823109714
 30
0.0
 10
13.1426220309
 20
8.1825198273
 30
0.0
 10
13.1427866181
 20
8.18264795
 30
0.0
 10
13.1429100495
 20
8.1827193187
 30
0.0
 10
13.143033515
 20
8.1828851924
 30
0.0
 10
13.1431981238
 20
8.183073393
 30
0.0
 10
13.1434861948
 20
8.1834181028
 30
0.0
 10
13.1438977218
 20
8.1839025156
 30
0.0
 10
13.1443915555
 20
8.1844872479
 30
0.0
 10
13.14505
 20
8.1852656905
 30
0.0
 10
13.1458730558
 20
8.1862391549
 30
0.0
 10
13.147189945
 20
8.1877964681
 30
0.0
 10
13.1488360564
 20
8.1897431884
 30
0.0
 10
13.1508113902
 20
8.1920792191
 30
0.0
 10
13.1527867239
 20
8.1944152587
 30
0.0
 10
13.1554205022
 20
8.1975299751
 30
0.0
 10
13.1587127252
 20
8.2014233717
 30
0.0
 10
13.1626633927
 20
8.2060954472
 30
0.0
 10
13.1666140602
 20
8.2107675225
 30
0.0
 10
13.1705647276
 20
8.2154395989
 30
0.0
 10
13.1745153952
 20
8.2201116715
 30
0.0
 10
13.1778076179
 20
8.2240050768
 30
0.0
 10
13.1801121744
 20
8.226730438
 30
0.0
 10
13.1814290627
 20
8.2282878225
 30
0.0
 10
13.1824167322
 20
8.2294557618
 30
0.0
 10
13.1832397798
 20
8.2304293599
 30
0.0
 10
13.183898241
 20
8.231207531
 30
0.0
 10
13.1843097267
 20
8.2316954987
 30
0.0
 10
13.1846390355
 20
8.232082184
 30
0.0
 10
13.1848445792
 20
8.2323322789
 30
0.0
 10
13.1850096423
 20
8.2325130773
 30
0.0
 10
13.1851724126
 20
8.2327642526
 30
0.0
 10
13.1854561954
 20
8.2332365023
 30
0.0
 10
13.1858621553
 20
8.2338940872
 30
0.0
 10
13.1865113804
 20
8.2349557557
 30
0.0
 10
13.1873230182
 20
8.2362795773
 30
0.0
 10
13.1886215792
 20
8.2383995161
 30
0.0
 10
13.1902448008
 20
8.2410488137
 30
0.0
 10
13.1921926581
 20
8.2442282388
 30
0.0
 10
13.1947898041
 20
8.2484673786
 30
0.0
 10
13.1980362356
 20
8.2537663355
 30
0.0
 10
13.2019319539
 20
8.2601250699
 30
0.0
 10
13.205827672
 20
8.2664838083
 30
0.0
 10
13.2097233902
 20
8.2728425446
 30
0.0
 10
13.2136191084
 20
8.2792012852
 30
0.0
 10
13.2168655403
 20
8.2845002234
 30
0.0
 10
13.2194626855
 20
8.2887394013
 30
0.0
 10
13.2214105454
 20
8.29191871
 30
0.0
 10
13.2230337587
 20
8.2945683716
 30
0.0
 10
13.2243323368
 20
8.2966875678
 30
0.0
 10
13.2251439309
 20
8.2980132792
 30
0.0
 10
13.2257932457
 20
8.2990710685
 30
0.0
 10
13.2261989774
 20
8.2997385295
 30
0.0
 10
13.22648317
 20
8.3001930407
 30
0.0
 10
13.2266452835
 20
8.3004726497
 30
0.0
 10
13.226806334
 20
8.3008271804
 30
0.0
 10
13.2270080111
 20
8.3012446907
 30
0.0
 10
13.2273304911
 20
8.3019270433
 30
0.0
 10
13.2277336606
 20
8.3027750753
 30
0.0
 10
13.2283786931
 20
8.3041346701
 30
0.0
 10
13.2291849969
 20
8.3058332222
 30
0.0
 10
13.2301525559
 20
8.3078718877
 30
0.0
 10
13.2314426364
 20
8.3105899678
 30
0.0
 10
13.2337002765
 20
8.3153466735
 30
0.0
 10
13.236925477
 20
8.3221419331
 30
0.0
 10
13.2407957175
 20
8.3302962592
 30
0.0
 10
13.244665958
 20
8.3384505815
 30
0.0
 10
13.2485361985
 20
8.3466049048
 30
0.0
 10
13.2536965192
 20
8.3574773354
 30
0.0
 10
13.2601469201
 20
8.3710678739
 30
0.0
 10
13.2653072408
 20
8.3819403047
 30
0.0
 10
13.2678874011
 20
8.38737652
 30
0.0
  0
SPLINE
  5
374
100
AcDbEntity
  8
0
100
AcDbSpline
 62
4
  6
CONTINUOUS
 70
0
 71
3
 72
134
 73
130
 74
0
 42
0.0000001
 43
0.0000001
 44
0.0000000001
 40
0.0
 40
0.0
 40
0.0
 40
0.0
 40
0.03125
 40
0.0625
 40
0.09375
 40
0.109375
 40
0.125
 40
0.140625
 40
0.1484375
 40
0.15625
 40
0.16015625
 40
0.1640625
 40
0.166015625
 40
0.1669921875
 40
0.16796875
 40
0.169921875
 40
0.171875
 40
0.17578125
 40
0.1796875
 40
0.1875
 40
0.1953125
 40
0.203125
 40
0.21875
 40
0.25
 40
0.265625
 40
0.28125
 40
0.296875
 40
0.3046875
 40
0.3125
 40
0.3203125
 40
0.32421875
 40
0.328125
 40
0.330078125
 40
0.33203125
 40
0.3330078125
 40
0.3334960938
 40
0.333984375
 40
0.3349609375
 40
0.3359375
 40
0.33984375
 40
0.34375
 40
0.34765625
 40
0.3515625
 40
0.359375
 40
0.375
 40
0.390625
 40
0.40625
 40
0.421875
 40
0.4375
 40
0.453125
 40
0.4609375
 40
0.46875
 40
0.4765625
 40
0.484375
 40
0.48828125
 40
0.4921875
 40
0.494140625
 40
0.49609375
 40
0.498046875
 40
0.4990234375
 40
0.4995117188
 40
0.5
 40
0.5004882812
 40
0.5009765625
 40
0.501953125
 40
0.50390625
 40
0.505859375
 40
0.5078125
 40
0.51171875
 40
0.515625
 40
0.5234375
 40
0.53125
 40
0.5390625
 40
0.546875
 40
0.5625
 40
0.578125
 40
0.59375
 40
0.609375
 40
0.625
 40
0.640625
 40
0.6484375
 40
0.65234375
 40
0.65625
 40
0.66015625
 40
0.662109375
 40
0.6640625
 40
0.6650390625
 40
0.666015625
 40
0.6665039062
 40
0.6669921875
 40
0.66796875
 40
0.669921875
 40
0.671875
 40
0.67578125
 40
0.6796875
 40
0.6875
 40
0.6953125
 40
0.703125
 40
0.71875
 40
0.734375
 40
0.75
 40
0.765625
 40
0.78125
 40
0.796875
 40
0.8046875
 40
0.8125
 40
0.8203125
 40
0.82421875
 40
0.828125
 40
0.830078125
 40
0.83203125
 40
0.8330078125
 40
0.8334960938
 40
0.833984375
 40
0.8349609375
 40
0.8359375
 40
0.837890625
 40
0.83984375
 40
0.84375
 40
0.84765625
 40
0.8515625
 40
0.859375
 40
0.875
 40
0.890625
 40
0.90625
 40
0.921875
 40
0.9375
 40
0.96875
 40
1.0
 40
1.0
 40
1.0
 40
1.0
 10
12.7308324158
 20
8.5844840372
 30
0.0
 10
12.730982091
 20
8.5790322012
 30
0.0
 10
12.7312814411
 20
8.5681285289
 30
0.0
 10
12.7317304684
 20
8.5517730233
 30
0.0
 10
12.7321046516
 20
8.5381434266
 30
0.0
 10
12.7324040121
 20
8.5272397686
 30
0.0
 10
12.7326284945
 20
8.5190619723
 30
0.0
 10
12.7328156838
 20
8.5122473101
 30
0.0
 10
12.7329651647
 20
8.5067952034
 30
0.0
 10
12.7330592063
 20
8.5033884949
 30
0.0
 10
12.7331330288
 20
8.5006611628
 30
0.0
 10
12.7331823867
 20
8.4989610645
 30
0.0
 10
12.7332104863
 20
8.4977620085
 30
0.0
 10
12.7332366363
 20
8.4970908951
 30
0.0
 10
12.7333008087
 20
8.4964727536
 30
0.0
 10
12.7333680054
 20
8.4956819392
 30
0.0
 10
12.7334827956
 20
8.4944267723
 30
0.0
 10
12.7336237922
 20
8.492854343
 30
0.0
 10
12.7338507791
 20
8.490340396
 30
0.0
 10
12.7341340351
 20
8.4871972966
 30
0.0
 10
12.7344741467
 20
8.4834258622
 30
0.0
 10
12.7349275575
 20
8.4783971836
 30
0.0
 10
12.7357210596
 20
8.4695970425
 30
0.0
 10
12.736627905
 20
8.4595397187
 30
0.0
 10
12.737534755
 20
8.4494824009
 30
0.0
 10
12.7382148928
 20
8.441939414
 30
0.0
 10
12.7387816715
 20
8.4356535844
 30
0.0
 10
12.739235101
 20
8.4306249373
 30
0.0
 10
12.7395751553
 20
8.4268534066
 30
0.0
 10
12.7398585905
 20
8.4237106087
 30
0.0
 10
12.7400852116
 20
8.4211960465
 30
0.0
 10
12.7402271391
 20
8.4196251828
 30
0.0
 10
12.7403400186
 20
8.4183668023
 30
0.0
 10
12.7404120799
 20
8.4175841694
 30
0.0
 10
12.7404594933
 20
8.4170286007
 30
0.0
 10
12.7404913267
 20
8.4167232204
 30
0.0
 10
12.7405410133
 20
8.4164633674
 30
0.0
 10
12.7405970192
 20
8.4161229897
 30
0.0
 10
12.740736456
 20
8.415318891
 30
0.0
 10
12.7409435017
 20
8.4141073636
 30
0.0
 10
12.7412207683
 20
8.4124950684
 30
0.0
 10
12.7414977124
 20
8.4108819507
 30
0.0
 10
12.7418670836
 20
8.4087314139
 30
0.0
 10
12.7425134309
 20
8.404967841
 30
0.0
 10
12.7434368116
 20
8.3995913781
 30
0.0
 10
12.7445448567
 20
8.3931395927
 30
0.0
 10
12.7456529049
 20
8.3866878154
 30
0.0
 10
12.7467609523
 20
8.3802360358
 30
0.0
 10
12.747869
 20
8.373784257
 30
0.0
 10
12.7487923728
 20
8.3684077741
 30
0.0
 10
12.7495310714
 20
8.3641065886
 30
0.0
 10
12.7500850947
 20
8.3608806976
 30
0.0
 10
12.7506391201
 20
8.3576548136
 30
0.0
 10
12.7511008017
 20
8.3549665551
 30
0.0
 10
12.7514701608
 20
8.3528159971
 30
0.0
 10
12.7517009789
 20
8.3514717874
 30
0.0
 10
12.7518857051
 20
8.3503966738
 30
0.0
 10
12.7520240532
 20
8.3495896425
 30
0.0
 10
12.7521399687
 20
8.3489193307
 30
0.0
 10
12.7522198822
 20
8.3484457671
 30
0.0
 10
12.7522674635
 20
8.3481819443
 30
0.0
 10
12.7522977509
 20
8.3479649637
 30
0.0
 10
12.7523486741
 20
8.3478210444
 30
0.0
 10
12.7524093738
 20
8.3476036673
 30
0.0
 10
12.752518952
 20
8.3472351312
 30
0.0
 10
12.7526737388
 20
8.3467024434
 30
0.0
 10
12.7528602335
 20
8.346065875
 30
0.0
 10
12.7531086309
 20
8.3452161892
 30
0.0
 10
12.7534192175
 20
8.3441543996
 30
0.0
 10
12.7539161059
 20
8.3424553587
 30
0.0
 10
12.7545372336
 20
8.3403316186
 30
0.0
 10
12.7552825794
 20
8.3377831042
 30
0.0
 10
12.7560279272
 20
8.3352345969
 30
0.0
 10
12.7570217235
 20
8.3318365847
 30
0.0
 10
12.7582639692
 20
8.3275890702
 30
0.0
 10
12.759754664
 20
8.3224920526
 30
0.0
 10
12.7612453587
 20
8.3173950348
 30
0.0
 10
12.7627360536
 20
8.312298018
 30
0.0
 10
12.7642267478
 20
8.3072009977
 30
0.0
 10
12.7654689952
 20
8.3029534914
 30
0.0
 10
12.7663385641
 20
8.2999802161
 30
0.0
 10
12.7668354673
 20
8.2982812343
 30
0.0
 10
12.7672081258
 20
8.2970069061
 30
0.0
 10
12.7675187347
 20
8.2959452582
 30
0.0
 10
12.7677670869
 20
8.2950952845
 30
0.0
 10
12.7679226143
 20
8.2945655434
 30
0.0
 10
12.7680463325
 20
8.2941383323
 30
0.0
 10
12.7681252619
 20
8.2938791247
 30
0.0
 10
12.7681847281
 20
8.2936538948
 30
0.0
 10
12.7682576195
 20
8.2934938807
 30
0.0
 10
12.7683914162
 20
8.2932441517
 30
0.0
 10
12.7685793003
 20
8.2928715892
 30
0.0
 10
12.7688817334
 20
8.2922843227
 30
0.0
 10
12.769259152
 20
8.291547215
 30
0.0
 10
12.7698633699
 20
8.2903695331
 30
0.0
 10
12.7706185229
 20
8.2888968508
 30
0.0
 10
12.7715247575
 20
8.2871298802
 30
0.0
 10
12.7727330526
 20
8.2847738328
 30
0.0
 10
12.7742434275
 20
8.2818288033
 30
0.0
 10
12.7760558747
 20
8.278294755
 30
0.0
 10
12.7778683227
 20
8.2747607104
 30
0.0
 10
12.7796807704
 20
8.2712266639
 30
0.0
 10
12.7814932187
 20
8.2676926214
 30
0.0
 10
12.7830035904
 20
8.2647475743
 30
0.0
 10
12.7842118919
 20
8.2623915626
 30
0.0
 10
12.7851181068
 20
8.2606244831
 30
0.0
 10
12.7858733217
 20
8.2591521416
 30
0.0
 10
12.7864774132
 20
8.2579737644
 30
0.0
 10
12.7868551534
 20
8.2572384262
 30
0.0
 10
12.7871569266
 20
8.2566475276
 30
0.0
 10
12.7873464906
 20
8.2562842121
 30
0.0
 10
12.78747727
 20
8.2560178744
 30
0.0
 10
12.7875549979
 20
8.2558844829
 30
0.0
 10
12.7876440146
 20
8.2558219189
 30
0.0
 10
12.7877514203
 20
8.2557194626
 30
0.0
 10
12.7879254295
 20
8.2555690854
 30
0.0
 10
12.7881422013
 20
8.2553764734
 30
0.0
 10
12.7884894496
 20
8.2550708877
 30
0.0
 10
12.7889233682
 20
8.2546880158
 30
0.0
 10
12.7894441312
 20
8.2542289504
 30
0.0
 10
12.7901384607
 20
8.2536167303
 30
0.0
 10
12.7913535472
 20
8.252545407
 30
0.0
 10
12.7930893799
 20
8.2510149127
 30
0.0
 10
12.7951723813
 20
8.2491783336
 30
0.0
 10
12.7972553821
 20
8.2473417506
 30
0.0
 10
12.799338383
 20
8.2455051687
 30
0.0
 10
12.8021157176
 20
8.2430563925
 30
0.0
 10
12.8055873858
 20
8.2399954223
 30
0.0
 10
12.8083647204
 20
8.2375466462
 30
0.0
 10
12.8097533877
 20
8.2363222581
 30
0.0
  0
SPLINE
  5
375
100
AcDbEntity
  8
0
100
AcDbSpline
 62
4
  6
CONTINUOUS
 70
0
 71
3
 72
112
 73
108
 74
0
 42
0.0000001
 43
0.0000001
 44
0.0000000001
 40
0.0
 40
0.0
 40
0.0
 40
0.0
 40
0.03125
 40
0.0625
 40
0.078125
 40
0.09375
 40
0.109375
 40
0.125
 40
0.140625
 40
0.1484375
 40
0.15234375
 40
0.15625
 40
0.16015625
 40
0.1640625
 40
0.1650390625
 40
0.166015625
 40
0.1665039062
 40
0.1669921875
 40
0.16796875
 40
0.169921875
 40
0.171875
 40
0.17578125
 40
0.1796875
 40
0.1875
 40
0.1953125
 40
0.203125
 40
0.21875
 40
0.234375
 40
0.25
 40
0.28125
 40
0.296875
 40
0.3046875
 40
0.3125
 40
0.3203125
 40
0.32421875
 40
0.328125
 40
0.330078125
 40
0.33203125
 40
0.3330078125
 40
0.333984375
 40
0.3349609375
 40
0.3359375
 40
0.33984375
 40
0.34375
 40
0.3515625
 40
0.359375
 40
0.375
 40
0.390625
 40
0.40625
 40
0.421875
 40
0.4375
 40
0.453125
 40
0.46875
 40
0.4765625
 40
0.484375
 40
0.48828125
 40
0.4921875
 40
0.49609375
 40
0.498046875
 40
0.4990234375
 40
0.5
 40
0.5009765625
 40
0.501953125
 40
0.50390625
 40
0.5078125
 40
0.51171875
 40
0.515625
 40
0.5234375
 40
0.53125
 40
0.546875
 40
0.5625
 40
0.578125
 40
0.59375
 40
0.609375
 40
0.625
 40
0.640625
 40
0.6484375
 40
0.65625
 40
0.66015625
 40
0.6640625
 40
0.666015625
 40
0.66796875
 40
0.669921875
 40
0.671875
 40
0.6796875
 40
0.6875
 40
0.6953125
 40
0.703125
 40
0.71875
 40
0.75
 40
0.78125
 40
0.796875
 40
0.8125
 40
0.8203125
 40
0.828125
 40
0.83203125
 40
0.833984375
 40
0.8359375
 40
0.83984375
 40
0.84375
 40
0.8515625
 40
0.859375
 40
0.875
 40
0.890625
 40
0.90625
 40
0.9375
 40
1.0
 40
1.0
 40
1.0
 40
1.0
 10
12.8097533882
 20
10.141832353
 30
0.0
 10
12.8084009519
 20
10.1380448812
 30
0.0
 10
12.8056960793
 20
10.1304699375
 30
0.0
 10
12.8023149886
 20
10.1210012579
 30
0.0
 10
12.799610116
 20
10.1134263144
 30
0.0
 10
12.7975814617
 20
10.1077451061
 30
0.0
 10
12.7955528069
 20
10.1020639004
 30
0.0
 10
12.7935241537
 20
10.096382685
 30
0.0
 10
12.7918336046
 20
10.0916483691
 30
0.0
 10
12.7906502295
 20
10.0883342886
 30
0.0
 10
12.7899740006
 20
10.086440621
 30
0.0
 10
12.78946687
 20
10.0850201092
 30
0.0
 10
12.7889595825
 20
10.0836005952
 30
0.0
 10
12.7885795569
 20
10.0825331624
 30
0.0
 10
12.7883255221
 20
10.0818258909
 30
0.0
 10
12.7882206927
 20
10.0815247208
 30
0.0
 10
12.7881344533
 20
10.0812988864
 30
0.0
 10
12.7880569028
 20
10.0810178244
 30
0.0
 10
12.7879252265
 20
10.080500306
 30
0.0
 10
12.7877350112
 20
10.0797743821
 30
0.0
 10
12.7874318437
 20
10.0786054219
 30
0.0
 10
12.7870524814
 20
10.0771467834
 30
0.0
 10
12.786445727
 20
10.0748115301
 30
0.0
 10
12.7856872066
 20
10.0718929548
 30
0.0
 10
12.7847770153
 20
10.0683904541
 30
0.0
 10
12.7835634153
 20
10.0637205266
 30
0.0
 10
12.7820464192
 20
10.0578830921
 30
0.0
 10
12.7802260224
 20
10.0508781811
 30
0.0
 10
12.7777988266
 20
10.0415382978
 30
0.0
 10
12.775371634
 20
10.0321984055
 30
0.0
 10
12.773247832
 20
10.0240260248
 30
0.0
 10
12.7720342439
 20
10.0193560544
 30
0.0
 10
12.7711240162
 20
10.0158536853
 30
0.0
 10
12.7703656097
 20
10.0129346981
 30
0.0
 10
12.769758623
 20
10.0106002851
 30
0.0
 10
12.7693798517
 20
10.0091395083
 30
0.0
 10
12.769075471
 20
10.0079749374
 30
0.0
 10
12.7688883448
 20
10.0072378386
 30
0.0
 10
12.7687315165
 20
10.0066693276
 30
0.0
 10
12.7686334102
 20
10.0061849856
 30
0.0
 10
12.7685407723
 20
10.0056844025
 30
0.0
 10
12.7683526838
 20
10.0046915901
 30
0.0
 10
12.7680717293
 20
10.0031988722
 30
0.0
 10
12.7675713766
 20
10.0005477589
 30
0.0
 10
12.7669462364
 20
9.9972329745
 30
0.0
 10
12.765945844
 20
9.9919298185
 30
0.0
 10
12.7646954112
 20
9.9853007022
 30
0.0
 10
12.7631948672
 20
9.977345836
 30
0.0
 10
12.7616943297
 20
9.9693909503
 30
0.0
 10
12.7601937907
 20
9.9614360695
 30
0.0
 10
12.7586932511
 20
9.9534811889
 30
0.0
 10
12.7571927153
 20
9.9455263022
 30
0.0
 10
12.7559422566
 20
9.93889725
 30
0.0
 10
12.7549419171
 20
9.9335939633
 30
0.0
 10
12.7543166424
 20
9.9302795115
 30
0.0
 10
12.7538165657
 20
9.9276277155
 30
0.0
 10
12.7534411166
 20
9.9256395108
 30
0.0
 10
12.7531294882
 20
9.9239806304
 30
0.0
 10
12.7529089032
 20
9.9228234236
 30
0.0
 10
12.7527866725
 20
9.9221559021
 30
0.0
 10
12.7526842446
 20
9.9216728968
 30
0.0
 10
12.7526229272
 20
9.9211224784
 30
0.0
 10
12.752526831
 20
9.9204121017
 30
0.0
 10
12.7523653438
 20
9.9191579865
 30
0.0
 10
12.7521311547
 20
9.9173721212
 30
0.0
 10
12.751851623
 20
9.9152266312
 30
0.0
 10
12.7514783917
 20
9.9123668342
 30
0.0
 10
12.7510120315
 20
9.9087917948
 30
0.0
 10
12.7502657552
 20
9.9030718955
 30
0.0
 10
12.7493329443
 20
9.8959219651
 30
0.0
 10
12.7482135559
 20
9.8873420731
 30
0.0
 10
12.7470941734
 20
9.8787621734
 30
0.0
 10
12.7459747827
 20
9.87018228
 30
0.0
 10
12.7448554191
 20
9.8616023689
 30
0.0
 10
12.7437359551
 20
9.8530225224
 30
0.0
 10
12.7428033803
 20
9.8458724498
 30
0.0
 10
12.7420566223
 20
9.8401528407
 30
0.0
 10
12.7415914881
 20
9.8365770628
 30
0.0
 10
12.7412157404
 20
9.8337187816
 30
0.0
 10
12.740989204
 20
9.8319270142
 30
0.0
 10
12.7407889508
 20
9.8305058349
 30
0.0
 10
12.7406908498
 20
9.8294064515
 30
0.0
 10
12.7406073451
 20
9.828297681
 30
0.0
 10
12.7404328274
 20
9.8260849688
 30
0.0
 10
12.7401742045
 20
9.8227638723
 30
0.0
 10
12.7398275714
 20
9.8183369029
 30
0.0
 10
12.7394814207
 20
9.8139096234
 30
0.0
 10
12.7390197173
 20
9.8080066923
 30
0.0
 10
12.7382118229
 20
9.7976765123
 30
0.0
 10
12.7370575811
 20
9.7829191393
 30
0.0
 10
12.735903602
 20
9.7681617545
 30
0.0
 10
12.7349798738
 20
9.7563558533
 30
0.0
 10
12.7344037748
 20
9.7489771544
 30
0.0
 10
12.733940077
 20
9.7430742192
 30
0.0
 10
12.7336566968
 20
9.73938483
 30
0.0
 10
12.7334454423
 20
9.7368023673
 30
0.0
 10
12.7333448905
 20
9.7353265027
 30
0.0
 10
12.7333203029
 20
9.7338499915
 30
0.0
 10
12.7332635583
 20
9.7320045738
 30
0.0
 10
12.7331873027
 20
9.7290517819
 30
0.0
 10
12.7330870061
 20
9.7253608343
 30
0.0
 10
12.7329293133
 20
9.7194552945
 30
0.0
 10
12.7327312429
 20
9.7120733778
 30
0.0
 10
12.7324939669
 20
9.7032150744
 30
0.0
 10
12.7321774564
 20
9.6914040043
 30
0.0
 10
12.7316236297
 20
9.6707346312
 30
0.0
 10
12.7311488983
 20
9.6530180258
 30
0.0
 10
12.7308324158
 20
9.6412069555
 30
0.0
  0
SPLINE
  5
376
100
AcDbEntity
  8
0
100
AcDbSpline
 62
4
  6
CONTINUOUS
 70
0
 71
3
 72
313
 73
309
 74
0
 42
0.0000001
 43
0.0000001
 44
0.0000000001
 40
0.0
 40
0.0
 40
0.0
 40
0.0
 40
0.015625
 40
0.0234375
 40
0.03125
 40
0.0390625
 40
0.046875
 40
0.05078125
 40
0.0546875
 40
0.056640625
 40
0.05859375
 40
0.060546875
 40
0.0615234375
 40
0.0620117188
 40
0.0625
 40
0.0629882812
 40
0.0634765625
 40
0.064453125
 40
0.06640625
 40
0.068359375
 40
0.0703125
 40
0.07421875
 40
0.078125
 40
0.0859375
 40
0.09375
 40
0.1015625
 40
0.109375
 40
0.11328125
 40
0.1171875
 40
0.119140625
 40
0.12109375
 40
0.123046875
 40
0.1240234375
 40
0.1245117188
 40
0.125
 40
0.1254882812
 40
0.1259765625
 40
0.126953125
 40
0.12890625
 40
0.130859375
 40
0.1328125
 40
0.13671875
 40
0.140625
 40
0.1484375
 40
0.15625
 40
0.1640625
 40
0.171875
 40
0.17578125
 40
0.1796875
 40
0.181640625
 40
0.18359375
 40
0.185546875
 40
0.1865234375
 40
0.1870117188
 40
0.1875
 40
0.1879882812
 40
0.1884765625
 40
0.189453125
 40
0.19140625
 40
0.193359375
 40
0.1953125
 40
0.19921875
 40
0.203125
 40
0.2109375
 40
0.21875
 40
0.2265625
 40
0.234375
 40
0.23828125
 40
0.2421875
 40
0.244140625
 40
0.24609375
 40
0.248046875
 40
0.2490234375
 40
0.2495117188
 40
0.25
 40
0.2504882812
 40
0.2509765625
 40
0.251953125
 40
0.25390625
 40
0.255859375
 40
0.2578125
 40
0.26171875
 40
0.265625
 40
0.2734375
 40
0.28125
 40
0.2890625
 40
0.296875
 40
0.30078125
 40
0.3046875
 40
0.306640625
 40
0.30859375
 40
0.310546875
 40
0.3115234375
 40
0.3120117188
 40
0.3125
 40
0.3129882812
 40
0.3134765625
 40
0.314453125
 40
0.31640625
 40
0.318359375
 40
0.3203125
 40
0.32421875
 40
0.328125
 40
0.3359375
 40
0.34375
 40
0.3515625
 40
0.359375
 40
0.36328125
 40
0.3671875
 40
0.369140625
 40
0.37109375
 40
0.373046875
 40
0.3740234375
 40
0.3745117188
 40
0.375
 40
0.3754882812
 40
0.3759765625
 40
0.376953125
 40
0.37890625
 40
0.380859375
 40
0.3828125
 40
0.38671875
 40
0.390625
 40
0.3984375
 40
0.40625
 40
0.4140625
 40
0.421875
 40
0.42578125
 40
0.4296875
 40
0.431640625
 40
0.43359375
 40
0.435546875
 40
0.4365234375
 40
0.4370117188
 40
0.4375
 40
0.4379882812
 40
0.4384765625
 40
0.439453125
 40
0.44140625
 40
0.443359375
 40
0.4453125
 40
0.44921875
 40
0.453125
 40
0.4609375
 40
0.46875
 40
0.4765625
 40
0.484375
 40
0.48828125
 40
0.4921875
 40
0.494140625
 40
0.49609375
 40
0.498046875
 40
0.4990234375
 40
0.4995117188
 40
0.5
 40
0.5004882812
 40
0.5009765625
 40
0.501953125
 40
0.50390625
 40
0.505859375
 40
0.5078125
 40
0.51171875
 40
0.515625
 40
0.5234375
 40
0.53125
 40
0.5390625
 40
0.546875
 40
0.55078125
 40
0.5546875
 40
0.556640625
 40
0.55859375
 40
0.560546875
 40
0.5615234375
 40
0.5620117188
 40
0.5625
 40
0.5629882812
 40
0.5634765625
 40
0.564453125
 40
0.56640625
 40
0.568359375
 40
0.5703125
 40
0.57421875
 40
0.578125
 40
0.5859375
 40
0.59375
 40
0.6015625
 40
0.609375
 40
0.61328125
 40
0.6171875
 40
0.619140625
 40
0.62109375
 40
0.623046875
 40
0.6240234375
 40
0.6245117188
 40
0.625
 40
0.6254882812
 40
0.6259765625
 40
0.626953125
 40
0.62890625
 40
0.630859375
 40
0.6328125
 40
0.63671875
 40
0.640625
 40
0.6484375
 40
0.65625
 40
0.6640625
 40
0.671875
 40
0.67578125
 40
0.6796875
 40
0.681640625
 40
0.68359375
 40
0.685546875
 40
0.6865234375
 40
0.6870117188
 40
0.6875
 40
0.6879882812
 40
0.6884765625
 40
0.689453125
 40
0.69140625
 40
0.693359375
 40
0.6953125
 40
0.69921875
 40
0.703125
 40
0.7109375
 40
0.71875
 40
0.7265625
 40
0.734375
 40
0.73828125
 40
0.7421875
 40
0.744140625
 40
0.74609375
 40
0.748046875
 40
0.7490234375
 40
0.7495117188
 40
0.75
 40
0.7504882812
 40
0.7509765625
 40
0.751953125
 40
0.75390625
 40
0.755859375
 40
0.7578125
 40
0.76171875
 40
0.765625
 40
0.7734375
 40
0.78125
 40
0.7890625
 40
0.796875
 40
0.80078125
 40
0.8046875
 40
0.806640625
 40
0.80859375
 40
0.810546875
 40
0.8115234375
 40
0.8120117188
 40
0.8125
 40
0.8129882812
 40
0.8134765625
 40
0.814453125
 40
0.81640625
 40
0.818359375
 40
0.8203125
 40
0.82421875
 40
0.828125
 40
0.8359375
 40
0.84375
 40
0.8515625
 40
0.859375
 40
0.86328125
 40
0.8671875
 40
0.869140625
 40
0.87109375
 40
0.873046875
 40
0.8740234375
 40
0.8745117188
 40
0.875
 40
0.8754882812
 40
0.8759765625
 40
0.876953125
 40
0.87890625
 40
0.880859375
 40
0.8828125
 40
0.88671875
 40
0.890625
 40
0.8984375
 40
0.90625
 40
0.9140625
 40
0.921875
 40
0.92578125
 40
0.9296875
 40
0.931640625
 40
0.93359375
 40
0.935546875
 40
0.9365234375
 40
0.9370117188
 40
0.9375
 40
0.9379882812
 40
0.9384765625
 40
0.939453125
 40
0.94140625
 40
0.943359375
 40
0.9453125
 40
0.94921875
 40
0.953125
 40
0.9609375
 40
0.96875
 40
0.9765625
 40
0.984375
 40
1.0
 40
1.0
 40
1.0
 40
1.0
 10
10.1124004673
 20
8.9580269363
 30
0.0
 10
10.1152147071
 20
8.9581077068
 30
0.0
 10
10.1194360669
 20
8.9582288622
 30
0.0
 10
10.1250645464
 20
8.9583904036
 30
0.0
 10
10.1292859064
 20
8.9585115575
 30
0.0
 10
10.1335072648
 20
8.9586327199
 30
0.0
 10
10.1370250687
 20
8.958733662
 30
0.0
 10
10.1398393002
 20
8.958814475
 30
0.0
 10
10.1415982212
 20
8.9588648482
 30
0.0
 10
10.1430052977
 20
8.9589054558
 30
0.0
 10
10.1440607703
 20
8.9589350655
 30
0.0
 10
10.1449398052
 20
8.9589624312
 30
0.0
 10
10.1455561611
 20
8.9589763064
 30
0.0
 10
10.1459067539
 20
8.9589924806
 30
0.0
 10
10.1461742354
 20
8.9589813833
 30
0.0
 10
10.1464243744
 20
8.9590590751
 30
0.0
 10
10.1467639424
 20
8.9591316936
 30
0.0
 10
10.1473553678
 20
8.9592732057
 30
0.0
 10
10.1482017348
 20
8.9594678217
 30
0.0
 10
10.1492167445
 20
8.95970459
 30
0.0
 10
10.1505703111
 20
8.9600191533
 30
0.0
 10
10.1522621939
 20
8.9604127436
 30
0.0
 10
10.1549692485
 20
8.9610422722
 30
0.0
 10
10.1583530521
 20
8.9618292574
 30
0.0
 10
10.1624136236
 20
8.9627736057
 30
0.0
 10
10.1664741901
 20
8.9637179707
 30
0.0
 10
10.169858006
 20
8.9645049142
 30
0.0
 10
10.172565036
 20
8.9651345262
 30
0.0
 10
10.1742569814
 20
8.9655279046
 30
0.0
 10
10.1756104194
 20
8.9658429027
 30
0.0
 10
10.176625822
 20
8.9660783424
 30
0.0
 10
10.1774709597
 20
8.9662771155
 30
0.0
 10
10.1780645797
 20
8.9664112066
 30
0.0
 10
10.1784006314
 20
8.9664957153
 30
0.0
 10
10.1786615712
 20
8.9665368839
 30
0.0
 10
10.1788884865
 20
8.9666629619
 30
0.0
 10
10.1792029084
 20
8.9668014485
 30
0.0
 10
10.1797476171
 20
8.9670575993
 30
0.0
 10
10.1805286634
 20
8.9674163146
 30
0.0
 10
10.1814646815
 20
8.967849861
 30
0.0
 10
10.1827131378
 20
8.9684268443
 30
0.0
 10
10.1842735601
 20
8.9691484427
 30
0.0
 10
10.1867703187
 20
8.9703027936
 30
0.0
 10
10.1898912382
 20
8.9717458037
 30
0.0
 10
10.193636355
 20
8.9734773831
 30
0.0
 10
10.1973814644
 20
8.9752089787
 30
0.0
 10
10.2005024026
 20
8.9766519484
 30
0.0
 10
10.2029991238
 20
8.9778063801
 30
0.0
 10
10.2045596409
 20
8.9785277734
 30
0.0
 10
10.2058079028
 20
8.9791051775
 30
0.0
 10
10.2067445148
 20
8.9795374383
 30
0.0
 10
10.2075237029
 20
8.9799001761
 30
0.0
 10
10.2080717287
 20
8.980149146
 30
0.0
 10
10.2083808359
 20
8.9802991382
 30
0.0
 10
10.2086240762
 20
8.9803898746
 30
0.0
 10
10.208823702
 20
8.9805637803
 30
0.0
 10
10.2091050829
 20
8.9807666443
 30
0.0
 10
10.2095904114
 20
8.9811351726
 30
0.0
 10
10.2102874436
 20
8.9816545751
 30
0.0
 10
10.211122296
 20
8.9822808828
 30
0.0
 10
10.2122359866
 20
8.9831149032
 30
0.0
 10
10.2136279102
 20
8.9841577905
 30
0.0
 10
10.2158550939
 20
8.985826208
 30
0.0
 10
10.2186390369
 20
8.9879117996
 30
0.0
 10
10.2219797858
 20
8.9904144781
 30
0.0
 10
10.2253205239
 20
8.9929171707
 30
0.0
 10
10.2281044941
 20
8.9950027271
 30
0.0
 10
10.2303316233
 20
8.9966712149
 30
0.0
 10
10.2317236854
 20
8.9977139234
 30
0.0
 10
10.2328370917
 20
8.9985483109
 30
0.0
 10
10.2336728128
 20
8.9991734971
 30
0.0
 10
10.2343671272
 20
8.9996964085
 30
0.0
 10
10.2348573073
 20
9.0000586729
 30
0.0
 10
10.2351309148
 20
9.0002715732
 30
0.0
 10
10.2353544181
 20
9.0004146504
 30
0.0
 10
10.2355079785
 20
9.0006211735
 30
0.0
 10
10.2357371226
 20
9.000874407
 30
0.0
 10
10.2361267578
 20
9.0013278767
 30
0.0
 10
10.2366893223
 20
9.0019702998
 30
0.0
 10
10.2373618561
 20
9.0027435149
 30
0.0
 10
10.2382594562
 20
9.0037736625
 30
0.0
 10
10.2393811521
 20
9.0050616229
 30
0.0
 10
10.2411760357
 20
9.0071222053
 30
0.0
 10
10.2434195813
 20
9.0096979866
 30
0.0
 10
10.2461118631
 20
9.0127889
 30
0.0
 10
10.248804131
 20
9.0158798247
 30
0.0
 10
10.2510477113
 20
9.0184555776
 30
0.0
 10
10.2528425257
 20
9.0205162167
 30
0.0
 10
10.2539643974
 20
9.0218040329
 30
0.0
 10
10.2548616366
 20
9.0228344766
 30
0.0
 10
10.2555352729
 20
9.0236067871
 30
0.0
 10
10.2560943878
 20
9.0242520405
 30
0.0
 10
10.2564901812
 20
9.0247004576
 30
0.0
 10
10.2567094584
 20
9.0249617866
 30
0.0
 10
10.2568933267
 20
9.0251434431
 30
0.0
 10
10.2570029989
 20
9.025379915
 30
0.0
 10
10.257175109
 20
9.0256760907
 30
0.0
 10
10.2574642435
 20
9.0262033066
 30
0.0
 10
10.2578835968
 20
9.0269518147
 30
0.0
 10
10.2583841225
 20
9.0278520179
 30
0.0
 10
10.2590524325
 20
9.0290515926
 30
0.0
 10
10.2598874974
 20
9.0305512994
 30
0.0
 10
10.2612237815
 20
9.0329506969
 30
0.0
 10
10.2628940744
 20
9.0359499899
 30
0.0
 10
10.2648984545
 20
9.0395491207
 30
0.0
 10
10.2669028196
 20
9.0431482607
 30
0.0
 10
10.26857315
 20
9.0461475308
 30
0.0
 10
10.269909359
 20
9.0485469739
 30
0.0
 10
10.2707446149
 20
9.050046565
 30
0.0
 10
10.2714125328
 20
9.0512463772
 30
0.0
 10
10.2719142566
 20
9.0521458549
 30
0.0
 10
10.2723298615
 20
9.0528966329
 30
0.0
 10
10.2726256875
 20
9.0534197967
 30
0.0
 10
10.2727870759
 20
9.0537224648
 30
0.0
 10
10.2729296817
 20
9.0539389939
 30
0.0
 10
10.272989857
 20
9.0541955522
 30
0.0
 10
10.2730988434
 20
9.0545236672
 30
0.0
 10
10.2732761733
 20
9.055104374
 30
0.0
 10
10.2735365053
 20
9.055930554
 30
0.0
 10
10.273845906
 20
9.0569234258
 30
0.0
 10
10.2742594873
 20
9.0582467463
 30
0.0
 10
10.2747761054
 20
9.0599010712
 30
0.0
 10
10.2756028948
 20
9.0625478935
 30
0.0
 10
10.2766363123
 20
9.0658564551
 30
0.0
 10
10.2778764451
 20
9.0698267137
 30
0.0
 10
10.2791165615
 20
9.0737969793
 30
0.0
 10
10.2801500198
 20
9.0771055236
 30
0.0
 10
10.2809767276
 20
9.0797523805
 30
0.0
 10
10.281493553
 20
9.0814066176
 30
0.0
 10
10.2819067089
 20
9.0827301182
 30
0.0
 10
10.2822174094
 20
9.0837224398
 30
0.0
 10
10.2824736744
 20
9.0845503412
 30
0.0
 10
10.2826582647
 20
9.085127975
 30
0.0
 10
10.282755618
 20
9.0854610138
 30
0.0
 10
10.2828515265
 20
9.0857024477
 30
0.0
 10
10.2828599241
 20
9.0859757813
 30
0.0
 10
10.2829016456
 20
9.086329099
 30
0.0
 10
10.2829604363
 20
9.0869525894
 30
0.0
 10
10.2830518584
 20
9.0878405796
 30
0.0
 10
10.2831583823
 20
9.0889073278
 30
0.0
 10
10.2833015257
 20
9.0903292537
 30
0.0
 10
10.2834800744
 20
9.0921067998
 30
0.0
 10
10.2837659652
 20
9.0949507959
 30
0.0
 10
10.2841232551
 20
9.0985058177
 30
0.0
 10
10.2845520367
 20
9.1027718325
 30
0.0
 10
10.2849808012
 20
9.1070378502
 30
0.0
 10
10.2853381339
 20
9.1105928647
 30
0.0
 10
10.285623939
 20
9.1134368753
 30
0.0
 10
10.2858027054
 20
9.1152143846
 30
0.0
 10
10.2859454022
 20
9.116636386
 30
0.0
 10
10.2860532907
 20
9.1177029034
 30
0.0
 10
10.2861404432
 20
9.1185916158
 30
0.0
 10
10.2862068557
 20
9.1192138169
 30
0.0
 10
10.2862363651
 20
9.1195692005
 30
0.0
 10
10.2862822747
 20
9.1198361884
 30
0.0
 10
10.2862372941
 20
9.1201014556
 30
0.0
 10
10.2862090236
 20
9.1204557454
 30
0.0
 10
10.2861447789
 20
9.1210754729
 30
0.0
 10
10.2860607233
 20
9.1219609442
 30
0.0
 10
10.2859565511
 20
9.1230234471
 30
0.0
 10
10.2858188093
 20
9.1244401395
 30
0.0
 10
10.2856462368
 20
9.1262109976
 30
0.0
 10
10.2853703418
 20
9.1290443746
 30
0.0
 10
10.2850253967
 20
9.1325860944
 30
0.0
 10
10.2846114974
 20
9.1368361591
 30
0.0
 10
10.284197581
 20
9.1410862226
 30
0.0
 10
10.2838526788
 20
9.1446279455
 30
0.0
 10
10.2835766981
 20
9.1474613163
 30
0.0
 10
10.2834043433
 20
9.1492321902
 30
0.0
 10
10.2832661547
 20
9.1506488501
 30
0.0
 10
10.2831633477
 20
9.1517114524
 30
0.0
 10
10.2830750207
 20
9.1525966127
 30
0.0
 10
10.2830184011
 20
9.1532168952
 30
0.0
 10
10.2829779132
 20
9.1535702959
 30
0.0
 10
10.2829704605
 20
9.1538382943
 30
0.0
 10
10.2828754215
 20
9.1540950243
 30
0.0
 10
10.282779254
 20
9.1544412615
 30
0.0
 10
10.2825967264
 20
9.1550453452
 30
0.0
 10
10.2823434146
 20
9.1559092795
 30
0.0
 10
10.2820362551
 20
9.1569455908
 30
0.0
 10
10.2816278217
 20
9.1583274823
 30
0.0
 10
10.2811168989
 20
9.1600547977
 30
0.0
 10
10.2802996355
 20
9.1628185297
 30
0.0
 10
10.2792779827
 20
9.1662731852
 30
0.0
 10
10.2780520328
 20
9.1704187765
 30
0.0
 10
10.2768260665
 20
9.1745643641
 30
0.0
 10
10.2758044546
 20
9.1780190291
 30
0.0
 10
10.2749871095
 20
9.1807827421
 30
0.0
 10
10.2744763943
 20
9.1825101058
 30
0.0
 10
10.2740675348
 20
9.1838918982
 30
0.0
 10
10.2737616767
 20
9.1849285122
 30
0.0
 10
10.2735042932
 20
9.1857914995
 30
0.0
 10
10.2733290344
 20
9.1863972737
 30
0.0
 10
10.2732212204
 20
9.1867408023
 30
0.0
 10
10.2731619556
 20
9.1870058522
 30
0.0
 10
10.273020141
 20
9.1872426024
 30
0.0
 10
10.2728598492
 20
9.1875681406
 30
0.0
 10
10.2725659227
 20
9.1881332332
 30
0.0
 10
10.2721530416
 20
9.1889429128
 30
0.0
 10
10.2716545821
 20
9.1899134991
 30
0.0
 10
10.2709910181
 20
9.1912079738
 30
0.0
 10
10.2701612041
 20
9.1928259439
 30
0.0
 10
10.2688337023
 20
9.1954147651
 30
0.0
 10
10.2671742558
 20
9.1986507676
 30
0.0
 10
10.2651829516
 20
9.2025339818
 30
0.0
 10
10.2631916317
 20
9.2064171897
 30
0.0
 10
10.2615322243
 20
9.2096532081
 30
0.0
 10
10.2602046444
 20
9.2122419974
 30
0.0
 10
10.2593750288
 20
9.2138600485
 30
0.0
 10
10.2587110575
 20
9.215154357
 30
0.0
 10
10.2582138425
 20
9.2161254509
 30
0.0
 10
10.2577970677
 20
9.2169335425
 30
0.0
 10
10.2575100921
 20
9.2175014701
 30
0.0
 10
10.2573386632
 20
9.2178224659
 30
0.0
 10
10.2572310581
 20
9.2180731687
 30
0.0
 10
10.2570433083
 20
9.2182858149
 30
0.0
 10
10.2568209305
 20
9.2185826178
 30
0.0
 10
10.2564187445
 20
9.219095838
 30
0.0
 10
10.2558510027
 20
9.2198322432
 30
0.0
 10
10.2551667978
 20
9.2207145454
 30
0.0
 10
10.2542555426
 20
9.2218914318
 30
0.0
 10
10.2531161251
 20
9.2233623742
 30
0.0
 10
10.2512932519
 20
9.2257159747
 30
0.0
 10
10.2490145932
 20
9.2286579431
 30
0.0
 10
10.246280233
 20
9.2321883206
 30
0.0
 10
10.2435458595
 20
9.2357186881
 30
0.0
 10
10.2412672341
 20
9.2386606815
 30
0.0
 10
10.2394442943
 20
9.2410142321
 30
0.0
 10
10.238305046
 20
9.2424853013
 30
0.0
 10
10.2373934435
 20
9.2436619274
 30
0.0
 10
10.2367102998
 20
9.2445450246
 30
0.0
 10
10.2361392376
 20
9.2452789424
 30
0.0
 10
10.2357429791
 20
9.2457966031
 30
0.0
 10
10.235511104
 20
9.2460862912
 30
0.0
 10
10.2353525268
 20
9.2463207918
 30
0.0
 10
10.2351353543
 20
9.2464894132
 30
0.0
 10
10.2348662296
 20
9.2467372212
 30
0.0
 10
10.2343857386
 20
9.2471601786
 30
0.0
 10
10.2337043015
 20
9.2477700009
 30
0.0
 10
10.232884446
 20
9.2484993918
 30
0.0
 10
10.2317920496
 20
9.2494727499
 30
0.0
 10
10.2304262993
 20
9.2506891609
 30
0.0
 10
10.2282412413
 20
9.2526355788
 30
0.0
 10
10.2255098696
 20
9.2550685457
 30
0.0
 10
10.2222322459
 20
9.2579881314
 30
0.0
 10
10.2189546117
 20
9.2609077041
 30
0.0
 10
10.2162232661
 20
9.2633407038
 30
0.0
 10
10.2140381561
 20
9.2652870561
 30
0.0
 10
10.2126725378
 20
9.2665036338
 30
0.0
 10
10.2115798704
 20
9.2674766497
 30
0.0
 10
10.2107608431
 20
9.2682070858
 30
0.0
 10
10.2100768149
 20
9.2688136382
 30
0.0
 10
10.2096009494
 20
9.2692424329
 30
0.0
 10
10.2093244135
 20
9.269480888
 30
0.0
 10
10.2091300057
 20
9.2696782385
 30
0.0
 10
10.208885928
 20
9.2698048376
 30
0.0
 10
10.2085778165
 20
9.2699983152
 30
0.0
 10
10.208030549
 20
9.2703254028
 30
0.0
 10
10.2072529587
 20
9.2707986823
 30
0.0
 10
10.2063180439
 20
9.2713640445
 30
0.0
 10
10.2050721217
 20
9.2721187595
 30
0.0
 10
10.203514503
 20
9.2730618456
 30
0.0
 10
10.2010224338
 20
9.2745709553
 30
0.0
 10
10.1979073057
 20
9.2764572831
 30
0.0
 10
10.1941691706
 20
9.2787209037
 30
0.0
 10
10.1904310275
 20
9.2809845099
 30
0.0
 10
10.1873159195
 20
9.2828708738
 30
0.0
 10
10.18482381
 20
9.2843799112
 30
0.0
 10
10.1832662937
 20
9.2853231812
 30
0.0
 10
10.1820201613
 20
9.2860775187
 30
0.0
 10
10.1810858889
 20
9.2866440345
 30
0.0
 10
10.1803062886
 20
9.2871137048
 30
0.0
 10
10.1797626092
 20
9.2874472352
 30
0.0
 10
10.1794487488
 20
9.2876303899
 30
0.0
 10
10.1792223299
 20
9.2877886979
 30
0.0
 10
10.1789615985
 20
9.287866955
 30
0.0
 10
10.1786259252
 20
9.2879992204
 30
0.0
 10
10.1780329205
 20
9.2882176752
 30
0.0
 10
10.1771886865
 20
9.2885365551
 30
0.0
 10
10.1761743577
 20
9.2889162998
 30
0.0
 10
10.1748223551
 20
9.2894236427
 30
0.0
 10
10.1731322027
 20
9.2900574733
 30
0.0
 10
10.1704280423
 20
9.2910717969
 30
0.0
 10
10.1670478131
 20
9.2923396341
 30
0.0
 10
10.1629915509
 20
9.2938610696
 30
0.0
 10
10.1589352829
 20
9.2953824892
 30
0.0
 10
10.1555550681
 20
9.2966503661
 30
0.0
 10
10.1528508788
 20
9.2976646101
 30
0.0
 10
10.1511607998
 20
9.2982986429
 30
0.0
 10
10.1498086467
 20
9.2988055709
 30
0.0
 10
10.1487947779
 20
9.2991865835
 30
0.0
 10
10.1479491044
 20
9.2995014961
 30
0.0
 10
10.1473586693
 20
9.2997270332
 30
0.0
 10
10.147018879
 20
9.299847951
 30
0.0
 10
10.1467707938
 20
9.2999610644
 30
0.0
 10
10.1464968778
 20
9.2999884581
 30
0.0
 10
10.1461406664
 20
9.3000548829
 30
0.0
 10
10.1455130987
 20
9.3001571956
 30
0.0
 10
10.144618768
 20
9.3003106397
 30
0.0
 10
10.1435446317
 20
9.3004916552
 30
0.0
 10
10.1421127782
 20
9.300734098
 30
0.0
 10
10.140322849
 20
9.3010367788
 30
0.0
 10
10.137459025
 20
9.3015212763
 30
0.0
 10
10.1338792234
 20
9.3021268268
 30
0.0
 10
10.1295834708
 20
9.302853518
 30
0.0
 10
10.1252877157
 20
9.303580201
 30
0.0
 10
10.1195600431
 20
9.3045491145
 30
0.0
 10
10.1152642885
 20
9.305275799
 30
0.0
 10
10.1124004521
 20
9.3057602554
 30
0.0
  0
SPLINE
  5
377
100
AcDbEntity
  8
0
100
AcDbSpline
 62
4
  6
CONTINUOUS
 70
0
 71
3
 72
313
 73
309
 74
0
 42
0.0000001
 43
0.0000001
 44
0.0000000001
 40
0.0
 40
0.0
 40
0.0
 40
0.0
 40
0.015625
 40
0.0234375
 40
0.03125
 40
0.0390625
 40
0.046875
 40
0.05078125
 40
0.0546875
 40
0.056640625
 40
0.05859375
 40
0.060546875
 40
0.0615234375
 40
0.0620117188
 40
0.0625
 40
0.0629882812
 40
0.0634765625
 40
0.064453125
 40
0.06640625
 40
0.068359375
 40
0.0703125
 40
0.07421875
 40
0.078125
 40
0.0859375
 40
0.09375
 40
0.1015625
 40
0.109375
 40
0.11328125
 40
0.1171875
 40
0.119140625
 40
0.12109375
 40
0.123046875
 40
0.1240234375
 40
0.1245117188
 40
0.125
 40
0.1254882812
 40
0.1259765625
 40
0.126953125
 40
0.12890625
 40
0.130859375
 40
0.1328125
 40
0.13671875
 40
0.140625
 40
0.1484375
 40
0.15625
 40
0.1640625
 40
0.171875
 40
0.17578125
 40
0.1796875
 40
0.181640625
 40
0.18359375
 40
0.185546875
 40
0.1865234375
 40
0.1870117188
 40
0.1875
 40
0.1879882812
 40
0.1884765625
 40
0.189453125
 40
0.19140625
 40
0.193359375
 40
0.1953125
 40
0.19921875
 40
0.203125
 40
0.2109375
 40
0.21875
 40
0.2265625
 40
0.234375
 40
0.23828125
 40
0.2421875
 40
0.244140625
 40
0.24609375
 40
0.248046875
 40
0.2490234375
 40
0.2495117188
 40
0.25
 40
0.2504882812
 40
0.2509765625
 40
0.251953125
 40
0.25390625
 40
0.255859375
 40
0.2578125
 40
0.26171875
 40
0.265625
 40
0.2734375
 40
0.28125
 40
0.2890625
 40
0.296875
 40
0.30078125
 40
0.3046875
 40
0.306640625
 40
0.30859375
 40
0.310546875
 40
0.3115234375
 40
0.3120117188
 40
0.3125
 40
0.3129882812
 40
0.3134765625
 40
0.314453125
 40
0.31640625
 40
0.318359375
 40
0.3203125
 40
0.32421875
 40
0.328125
 40
0.3359375
 40
0.34375
 40
0.3515625
 40
0.359375
 40
0.36328125
 40
0.3671875
 40
0.369140625
 40
0.37109375
 40
0.373046875
 40
0.3740234375
 40
0.3745117188
 40
0.375
 40
0.3754882812
 40
0.3759765625
 40
0.376953125
 40
0.37890625
 40
0.380859375
 40
0.3828125
 40
0.38671875
 40
0.390625
 40
0.3984375
 40
0.40625
 40
0.4140625
 40
0.421875
 40
0.42578125
 40
0.4296875
 40
0.431640625
 40
0.43359375
 40
0.435546875
 40
0.4365234375
 40
0.4370117188
 40
0.4375
 40
0.4379882812
 40
0.4384765625
 40
0.439453125
 40
0.44140625
 40
0.443359375
 40
0.4453125
 40
0.44921875
 40
0.453125
 40
0.4609375
 40
0.46875
 40
0.4765625
 40
0.484375
 40
0.48828125
 40
0.4921875
 40
0.494140625
 40
0.49609375
 40
0.498046875
 40
0.4990234375
 40
0.4995117188
 40
0.5
 40
0.5004882812
 40
0.5009765625
 40
0.501953125
 40
0.50390625
 40
0.505859375
 40
0.5078125
 40
0.51171875
 40
0.515625
 40
0.5234375
 40
0.53125
 40
0.5390625
 40
0.546875
 40
0.55078125
 40
0.5546875
 40
0.556640625
 40
0.55859375
 40
0.560546875
 40
0.5615234375
 40
0.5620117188
 40
0.5625
 40
0.5629882812
 40
0.5634765625
 40
0.564453125
 40
0.56640625
 40
0.568359375
 40
0.5703125
 40
0.57421875
 40
0.578125
 40
0.5859375
 40
0.59375
 40
0.6015625
 40
0.609375
 40
0.61328125
 40
0.6171875
 40
0.619140625
 40
0.62109375
 40
0.623046875
 40
0.6240234375
 40
0.6245117188
 40
0.625
 40
0.6254882812
 40
0.6259765625
 40
0.626953125
 40
0.62890625
 40
0.630859375
 40
0.6328125
 40
0.63671875
 40
0.640625
 40
0.6484375
 40
0.65625
 40
0.6640625
 40
0.671875
 40
0.67578125
 40
0.6796875
 40
0.681640625
 40
0.68359375
 40
0.685546875
 40
0.6865234375
 40
0.6870117188
 40
0.6875
 40
0.6879882812
 40
0.6884765625
 40
0.689453125
 40
0.69140625
 40
0.693359375
 40
0.6953125
 40
0.69921875
 40
0.703125
 40
0.7109375
 40
0.71875
 40
0.7265625
 40
0.734375
 40
0.73828125
 40
0.7421875
 40
0.744140625
 40
0.74609375
 40
0.748046875
 40
0.7490234375
 40
0.7495117188
 40
0.75
 40
0.7504882812
 40
0.7509765625
 40
0.751953125
 40
0.75390625
 40
0.755859375
 40
0.7578125
 40
0.76171875
 40
0.765625
 40
0.7734375
 40
0.78125
 40
0.7890625
 40
0.796875
 40
0.80078125
 40
0.8046875
 40
0.806640625
 40
0.80859375
 40
0.810546875
 40
0.8115234375
 40
0.8120117188
 40
0.8125
 40
0.8129882812
 40
0.8134765625
 40
0.814453125
 40
0.81640625
 40
0.818359375
 40
0.8203125
 40
0.82421875
 40
0.828125
 40
0.8359375
 40
0.84375
 40
0.8515625
 40
0.859375
 40
0.86328125
 40
0.8671875
 40
0.869140625
 40
0.87109375
 40
0.873046875
 40
0.8740234375
 40
0.8745117188
 40
0.875
 40
0.8754882812
 40
0.8759765625
 40
0.876953125
 40
0.87890625
 40
0.880859375
 40
0.8828125
 40
0.88671875
 40
0.890625
 40
0.8984375
 40
0.90625
 40
0.9140625
 40
0.921875
 40
0.92578125
 40
0.9296875
 40
0.931640625
 40
0.93359375
 40
0.935546875
 40
0.9365234375
 40
0.9370117188
 40
0.9375
 40
0.9379882812
 40
0.9384765625
 40
0.939453125
 40
0.94140625
 40
0.943359375
 40
0.9453125
 40
0.94921875
 40
0.953125
 40
0.9609375
 40
0.96875
 40
0.9765625
 40
0.984375
 40
1.0
 40
1.0
 40
1.0
 40
1.0
 10
10.1124004673
 20
9.3057602544
 30
0.0
 10
10.1095862275
 20
9.305679484
 30
0.0
 10
10.1053648677
 20
9.3055583285
 30
0.0
 10
10.0997363882
 20
9.3053967871
 30
0.0
 10
10.0955150282
 20
9.3052756332
 30
0.0
 10
10.0912936698
 20
9.3051544709
 30
0.0
 10
10.0877758659
 20
9.3050535287
 30
0.0
 10
10.0849616344
 20
9.3049727157
 30
0.0
 10
10.0832027134
 20
9.3049223425
 30
0.0
 10
10.0817956369
 20
9.304881735
 30
0.0
 10
10.0807401643
 20
9.3048521252
 30
0.0
 10
10.0798611294
 20
9.3048247595
 30
0.0
 10
10.0792447735
 20
9.3048108844
 30
0.0
 10
10.0788941807
 20
9.3047947101
 30
0.0
 10
10.0786266991
 20
9.3048058074
 30
0.0
 10
10.0783765601
 20
9.3047281156
 30
0.0
 10
10.0780369922
 20
9.3046554971
 30
0.0
 10
10.0774455668
 20
9.3045139851
 30
0.0
 10
10.0765991997
 20
9.304319369
 30
0.0
 10
10.07558419
 20
9.3040826007
 30
0.0
 10
10.0742306235
 20
9.3037680374
 30
0.0
 10
10.0725387407
 20
9.3033744471
 30
0.0
 10
10.0698316861
 20
9.3027449185
 30
0.0
 10
10.0664478825
 20
9.3019579333
 30
0.0
 10
10.062387311
 20
9.301013585
 30
0.0
 10
10.0583267445
 20
9.30006922
 30
0.0
 10
10.0549429286
 20
9.2992822765
 30
0.0
 10
10.0522358986
 20
9.2986526645
 30
0.0
 10
10.0505439532
 20
9.2982592861
 30
0.0
 10
10.0491905152
 20
9.297944288
 30
0.0
 10
10.0481751126
 20
9.2977088483
 30
0.0
 10
10.0473299749
 20
9.2975100752
 30
0.0
 10
10.0467363549
 20
9.2973759841
 30
0.0
 10
10.0464003032
 20
9.2972914754
 30
0.0
 10
10.0461393633
 20
9.2972503068
 30
0.0
 10
10.045912448
 20
9.2971242288
 30
0.0
 10
10.0455980261
 20
9.2969857423
 30
0.0
 10
10.0450533174
 20
9.2967295914
 30
0.0
 10
10.0442722712
 20
9.2963708761
 30
0.0
 10
10.0433362531
 20
9.2959373297
 30
0.0
 10
10.0420877968
 20
9.2953603465
 30
0.0
 10
10.0405273745
 20
9.2946387481
 30
0.0
 10
10.0380306159
 20
9.2934843971
 30
0.0
 10
10.0349096963
 20
9.2920413871
 30
0.0
 10
10.0311645796
 20
9.2903098076
 30
0.0
 10
10.0274194702
 20
9.288578212
 30
0.0
 10
10.024298532
 20
9.2871352423
 30
0.0
 10
10.0218018107
 20
9.2859808106
 30
0.0
 10
10.0202412936
 20
9.2852594173
 30
0.0
 10
10.0189930317
 20
9.2846820132
 30
0.0
 10
10.0180564198
 20
9.2842497525
 30
0.0
 10
10.0172772316
 20
9.2838870146
 30
0.0
 10
10.0167292059
 20
9.2836380447
 30
0.0
 10
10.0164200987
 20
9.2834880525
 30
0.0
 10
10.0161768584
 20
9.2833973161
 30
0.0
 10
10.0159772326
 20
9.2832234104
 30
0.0
 10
10.0156958517
 20
9.2830205464
 30
0.0
 10
10.0152105232
 20
9.2826520181
 30
0.0
 10
10.014513491
 20
9.2821326156
 30
0.0
 10
10.0136786386
 20
9.2815063079
 30
0.0
 10
10.012564948
 20
9.2806722875
 30
0.0
 10
10.0111730244
 20
9.2796294002
 30
0.0
 10
10.0089458406
 20
9.2779609827
 30
0.0
 10
10.0061618977
 20
9.2758753911
 30
0.0
 10
10.0028211488
 20
9.2733727126
 30
0.0
 10
9.9994804107
 20
9.2708700201
 30
0.0
 10
9.9966964405
 20
9.2687844637
 30
0.0
 10
9.9944693113
 20
9.2671159758
 30
0.0
 10
9.9930772492
 20
9.2660732674
 30
0.0
 10
9.9919638429
 20
9.2652388798
 30
0.0
 10
9.9911281218
 20
9.2646136936
 30
0.0
 10
9.9904338074
 20
9.2640907823
 30
0.0
 10
9.9899436273
 20
9.2637285178
 30
0.0
 10
9.9896700198
 20
9.2635156176
 30
0.0
 10
9.9894465165
 20
9.2633725403
 30
0.0
 10
9.9892929561
 20
9.2631660172
 30
0.0
 10
9.989063812
 20
9.2629127837
 30
0.0
 10
9.9886741768
 20
9.262459314
 30
0.0
 10
9.9881116122
 20
9.2618168909
 30
0.0
 10
9.9874390785
 20
9.2610436758
 30
0.0
 10
9.9865414784
 20
9.2600135282
 30
0.0
 10
9.9854197825
 20
9.2587255678
 30
0.0
 10
9.9836248989
 20
9.2566649854
 30
0.0
 10
9.9813813533
 20
9.2540892041
 30
0.0
 10
9.9786890715
 20
9.2509982907
 30
0.0
 10
9.9759968035
 20
9.247907366
 30
0.0
 10
9.9737532233
 20
9.2453316131
 30
0.0
 10
9.9719584089
 20
9.243270974
 30
0.0
 10
9.9708365372
 20
9.2419831578
 30
0.0
 10
9.9699392979
 20
9.2409527141
 30
0.0
 10
9.9692656617
 20
9.2401804036
 30
0.0
 10
9.9687065467
 20
9.2395351502
 30
0.0
 10
9.9683107534
 20
9.2390867331
 30
0.0
 10
9.9680914761
 20
9.2388254041
 30
0.0
 10
9.9679076079
 20
9.2386437476
 30
0.0
 10
9.9677979357
 20
9.2384072757
 30
0.0
 10
9.9676258256
 20
9.2381111
 30
0.0
 10
9.9673366911
 20
9.2375838841
 30
0.0
 10
9.9669173378
 20
9.2368353761
 30
0.0
 10
9.9664168121
 20
9.2359351728
 30
0.0
 10
9.9657485021
 20
9.2347355981
 30
0.0
 10
9.9649134372
 20
9.2332358913
 30
0.0
 10
9.963577153
 20
9.2308364938
 30
0.0
 10
9.9619068602
 20
9.2278372008
 30
0.0
 10
9.9599024801
 20
9.22423807
 30
0.0
 10
9.957898115
 20
9.2206389301
 30
0.0
 10
9.9562277846
 20
9.2176396599
 30
0.0
 10
9.9548915756
 20
9.2152402168
 30
0.0
 10
9.9540563197
 20
9.2137406257
 30
0.0
 10
9.9533884018
 20
9.2125408136
 30
0.0
 10
9.952886678
 20
9.2116413358
 30
0.0
 10
9.9524710731
 20
9.2108905578
 30
0.0
 10
9.952175247
 20
9.210367394
 30
0.0
 10
9.9520138586
 20
9.2100647259
 30
0.0
 10
9.9518712528
 20
9.2098481968
 30
0.0
 10
9.9518110775
 20
9.2095916385
 30
0.0
 10
9.9517020911
 20
9.2092635235
 30
0.0
 10
9.9515247613
 20
9.2086828167
 30
0.0
 10
9.9512644292
 20
9.2078566367
 30
0.0
 10
9.9509550286
 20
9.2068637649
 30
0.0
 10
9.9505414473
 20
9.2055404444
 30
0.0
 10
9.9500248292
 20
9.2038861196
 30
0.0
 10
9.9491980398
 20
9.2012392972
 30
0.0
 10
9.9481646223
 20
9.1979307357
 30
0.0
 10
9.9469244895
 20
9.193960477
 30
0.0
 10
9.9456843731
 20
9.1899902114
 30
0.0
 10
9.9446509148
 20
9.1866816671
 30
0.0
 10
9.9438242069
 20
9.1840348102
 30
0.0
 10
9.9433073815
 20
9.1823805732
 30
0.0
 10
9.9428942257
 20
9.1810570725
 30
0.0
 10
9.9425835252
 20
9.1800647509
 30
0.0
 10
9.9423272602
 20
9.1792368495
 30
0.0
 10
9.9421426699
 20
9.1786592158
 30
0.0
 10
9.9420453166
 20
9.1783261769
 30
0.0
 10
9.941949408
 20
9.178084743
 30
0.0
 10
9.9419410105
 20
9.1778114094
 30
0.0
 10
9.9418992889
 20
9.1774580917
 30
0.0
 10
9.9418404983
 20
9.1768346013
 30
0.0
 10
9.9417490762
 20
9.1759466112
 30
0.0
 10
9.9416425523
 20
9.1748798629
 30
0.0
 10
9.9414994088
 20
9.173457937
 30
0.0
 10
9.9413208601
 20
9.171680391
 30
0.0
 10
9.9410349694
 20
9.1688363948
 30
0.0
 10
9.9406776795
 20
9.165281373
 30
0.0
 10
9.9402488979
 20
9.1610153582
 30
0.0
 10
9.9398201334
 20
9.1567493406
 30
0.0
 10
9.9394628007
 20
9.153194326
 30
0.0
 10
9.9391769956
 20
9.1503503154
 30
0.0
 10
9.9389982292
 20
9.1485728061
 30
0.0
 10
9.9388555324
 20
9.1471508047
 30
0.0
 10
9.9387476439
 20
9.1460842873
 30
0.0
 10
9.9386604914
 20
9.1451955749
 30
0.0
 10
9.9385940788
 20
9.1445733739
 30
0.0
 10
9.9385645695
 20
9.1442179902
 30
0.0
 10
9.9385186599
 20
9.1439510023
 30
0.0
 10
9.9385636404
 20
9.1436857351
 30
0.0
 10
9.938591911
 20
9.1433314453
 30
0.0
 10
9.9386561557
 20
9.1427117178
 30
0.0
 10
9.9387402113
 20
9.1418262465
 30
0.0
 10
9.9388443835
 20
9.1407637436
 30
0.0
 10
9.9389821253
 20
9.1393470512
 30
0.0
 10
9.9391546978
 20
9.1375761931
 30
0.0
 10
9.9394305928
 20
9.1347428161
 30
0.0
 10
9.9397755379
 20
9.1312010963
 30
0.0
 10
9.9401894372
 20
9.1269510316
 30
0.0
 10
9.9406033536
 20
9.1227009682
 30
0.0
 10
9.9409482558
 20
9.1191592452
 30
0.0
 10
9.9412242365
 20
9.1163258744
 30
0.0
 10
9.9413965913
 20
9.1145550005
 30
0.0
 10
9.9415347799
 20
9.1131383406
 30
0.0
 10
9.9416375869
 20
9.1120757384
 30
0.0
 10
9.9417259139
 20
9.111190578
 30
0.0
 10
9.9417825335
 20
9.1105702955
 30
0.0
 10
9.9418230214
 20
9.1102168948
 30
0.0
 10
9.941830474
 20
9.1099488964
 30
0.0
 10
9.941925513
 20
9.1096921664
 30
0.0
 10
9.9420216806
 20
9.1093459292
 30
0.0
 10
9.9422042082
 20
9.1087418455
 30
0.0
 10
9.94245752
 20
9.1078779112
 30
0.0
 10
9.9427646795
 20
9.1068415999
 30
0.0
 10
9.9431731129
 20
9.1054597084
 30
0.0
 10
9.9436840357
 20
9.103732393
 30
0.0
 10
9.9445012991
 20
9.100968661
 30
0.0
 10
9.9455229519
 20
9.0975140055
 30
0.0
 10
9.9467489018
 20
9.0933684142
 30
0.0
 10
9.947974868
 20
9.0892228266
 30
0.0
 10
9.94899648
 20
9.0857681616
 30
0.0
 10
9.9498138251
 20
9.0830044486
 30
0.0
 10
9.9503245403
 20
9.0812770849
 30
0.0
 10
9.9507333997
 20
9.0798952925
 30
0.0
 10
9.9510392578
 20
9.0788586785
 30
0.0
 10
9.9512966414
 20
9.0779956912
 30
0.0
 10
9.9514719002
 20
9.077389917
 30
0.0
 10
9.9515797142
 20
9.0770463884
 30
0.0
 10
9.951638979
 20
9.0767813385
 30
0.0
 10
9.9517807936
 20
9.0765445883
 30
0.0
 10
9.9519410854
 20
9.0762190501
 30
0.0
 10
9.9522350119
 20
9.0756539576
 30
0.0
 10
9.952647893
 20
9.0748442779
 30
0.0
 10
9.9531463524
 20
9.0738736916
 30
0.0
 10
9.9538099164
 20
9.072579217
 30
0.0
 10
9.9546397305
 20
9.0709612468
 30
0.0
 10
9.9559672323
 20
9.0683724257
 30
0.0
 10
9.9576266788
 20
9.0651364231
 30
0.0
 10
9.959617983
 20
9.0612532089
 30
0.0
 10
9.9616093028
 20
9.0573700011
 30
0.0
 10
9.9632687103
 20
9.0541339826
 30
0.0
 10
9.9645962902
 20
9.0515451933
 30
0.0
 10
9.9654259058
 20
9.0499271422
 30
0.0
 10
9.9660898771
 20
9.0486328337
 30
0.0
 10
9.9665870921
 20
9.0476617398
 30
0.0
 10
9.9670038668
 20
9.0468536482
 30
0.0
 10
9.9672908425
 20
9.0462857206
 30
0.0
 10
9.9674622713
 20
9.0459647248
 30
0.0
 10
9.9675698765
 20
9.045714022
 30
0.0
 10
9.9677576263
 20
9.0455013758
 30
0.0
 10
9.9679800041
 20
9.0452045729
 30
0.0
 10
9.96838219
 20
9.0446913527
 30
0.0
 10
9.9689499319
 20
9.0439549475
 30
0.0
 10
9.9696341368
 20
9.0430726453
 30
0.0
 10
9.9705453919
 20
9.0418957589
 30
0.0
 10
9.9716848095
 20
9.0404248165
 30
0.0
 10
9.9735076827
 20
9.038071216
 30
0.0
 10
9.9757863414
 20
9.0351292476
 30
0.0
 10
9.9785207016
 20
9.0315988701
 30
0.0
 10
9.9812550751
 20
9.0280685026
 30
0.0
 10
9.9835337005
 20
9.0251265092
 30
0.0
 10
9.9853566403
 20
9.0227729587
 30
0.0
 10
9.9864958886
 20
9.0213018894
 30
0.0
 10
9.9874074911
 20
9.0201252633
 30
0.0
 10
9.9880906348
 20
9.0192421661
 30
0.0
 10
9.988661697
 20
9.0185082483
 30
0.0
 10
9.9890579555
 20
9.0179905876
 30
0.0
 10
9.9892898305
 20
9.0177008995
 30
0.0
 10
9.9894484078
 20
9.0174663989
 30
0.0
 10
9.9896655803
 20
9.0172977775
 30
0.0
 10
9.989934705
 20
9.0170499695
 30
0.0
 10
9.990415196
 20
9.0166270121
 30
0.0
 10
9.9910966331
 20
9.0160171898
 30
0.0
 10
9.9919164886
 20
9.0152877989
 30
0.0
 10
9.993008885
 20
9.0143144408
 30
0.0
 10
9.9943746353
 20
9.0130980298
 30
0.0
 10
9.9965596933
 20
9.0111516119
 30
0.0
 10
9.9992910649
 20
9.008718645
 30
0.0
 10
10.0025686887
 20
9.0057990593
 30
0.0
 10
10.0058463228
 20
9.0028794866
 30
0.0
 10
10.0085776685
 20
9.0004464869
 30
0.0
 10
10.0107627785
 20
8.9985001346
 30
0.0
 10
10.0121283967
 20
8.9972835569
 30
0.0
 10
10.0132210642
 20
8.996310541
 30
0.0
 10
10.0140400915
 20
8.995580105
 30
0.0
 10
10.0147241197
 20
8.9949735525
 30
0.0
 10
10.0151999852
 20
8.9945447578
 30
0.0
 10
10.015476521
 20
8.9943063027
 30
0.0
 10
10.0156709289
 20
8.9941089523
 30
0.0
 10
10.0159150066
 20
8.9939823531
 30
0.0
 10
10.0162231181
 20
8.9937888755
 30
0.0
 10
10.0167703855
 20
8.9934617879
 30
0.0
 10
10.0175479759
 20
8.9929885084
 30
0.0
 10
10.0184828907
 20
8.9924231462
 30
0.0
 10
10.0197288129
 20
8.9916684312
 30
0.0
 10
10.0212864316
 20
8.9907253451
 30
0.0
 10
10.0237785008
 20
8.9892162354
 30
0.0
 10
10.0268936289
 20
8.9873299076
 30
0.0
 10
10.030631764
 20
8.985066287
 30
0.0
 10
10.0343699071
 20
8.9828026808
 30
0.0
 10
10.0374850151
 20
8.9809163169
 30
0.0
 10
10.0399771246
 20
8.9794072795
 30
0.0
 10
10.0415346409
 20
8.9784640095
 30
0.0
 10
10.0427807733
 20
8.977709672
 30
0.0
 10
10.0437150457
 20
8.9771431563
 30
0.0
 10
10.044494646
 20
8.9766734859
 30
0.0
 10
10.0450383254
 20
8.9763399555
 30
0.0
 10
10.0453521858
 20
8.9761568008
 30
0.0
 10
10.0455786047
 20
8.9759984928
 30
0.0
 10
10.0458393361
 20
8.9759202357
 30
0.0
 10
10.0461750094
 20
8.9757879703
 30
0.0
 10
10.046768014
 20
8.9755695155
 30
0.0
 10
10.0476122481
 20
8.9752506356
 30
0.0
 10
10.0486265769
 20
8.974870891
 30
0.0
 10
10.0499785794
 20
8.974363548
 30
0.0
 10
10.0516687318
 20
8.9737297174
 30
0.0
 10
10.0543728922
 20
8.9727153938
 30
0.0
 10
10.0577531215
 20
8.9714475567
 30
0.0
 10
10.0618093837
 20
8.9699261211
 30
0.0
 10
10.0658656517
 20
8.9684047015
 30
0.0
 10
10.0692458665
 20
8.9671368246
 30
0.0
 10
10.0719500558
 20
8.9661225806
 30
0.0
 10
10.0736401348
 20
8.9654885478
 30
0.0
 10
10.0749922879
 20
8.9649816198
 30
0.0
 10
10.0760061567
 20
8.9646006072
 30
0.0
 10
10.0768518301
 20
8.9642856946
 30
0.0
 10
10.0774422652
 20
8.9640601575
 30
0.0
 10
10.0777820556
 20
8.9639392397
 30
0.0
 10
10.0780301407
 20
8.9638261263
 30
0.0
 10
10.0783040568
 20
8.9637987327
 30
0.0
 10
10.0786602681
 20
8.9637323078
 30
0.0
 10
10.0792878359
 20
8.9636299952
 30
0.0
 10
10.0801821666
 20
8.963476551
 30
0.0
 10
10.0812563028
 20
8.9632955355
 30
0.0
 10
10.0826881564
 20
8.9630530927
 30
0.0
 10
10.0844780856
 20
8.9627504119
 30
0.0
 10
10.0873419096
 20
8.9622659144
 30
0.0
 10
10.0909217112
 20
8.9616603639
 30
0.0
 10
10.0952174638
 20
8.9609336727
 30
0.0
 10
10.0995132189
 20
8.9602069898
 30
0.0
 10
10.1052408915
 20
8.9592380762
 30
0.0
 10
10.1095366461
 20
8.9585113917
 30
0.0
 10
10.1124004825
 20
8.9580269353
 30
0.0
  0
ENDSEC
  0
SECTION
  2
OBJECTS
  0
DICTIONARY
  5
C
100
AcDbDictionary
280
0
281
1
  3
ACAD_GROUP
350
D
  3
ACAD_MLINESTYLE
350
17
  3
ACAD_LAYOUT
350
1A
  3
ACAD_PLOTSETTINGS
350
19
  3
ACAD_PLOTSTYLENAME
350
E
  3
ACAD_IMAGE_DICT
350
       379
  3
ACAD_IMAGE_VARS
350
       37A
  3
ACAD_TABLESTYLE
350
       37B
  0
IMAGEDEF_REACTOR
  5
378
100
AcDbRasterImageDefReactor
 90
2
330
28E
  0
DICTIONARY
  5
D
102
{ACAD_REACTORS
330
C
102
}
100
AcDbDictionary
280
0
281
1
  0
ACDBDICTIONARYWDFLT
  5
E
102
{ACAD_REACTORS
330
C
102
}
100
AcDbDictionary
281
1
  3
Normal
350
F
100
AcDbDictionaryWithDefault
340
F
  0
DICTIONARY
  5
379
330
C
100
AcDbDictionary
281
1
  3
IN4_assy_2_img_1
350
       37E
  0
RASTERVARIABLES
  5
37A
330
C
100
AcDbRasterVariables
 90
0
 70
0
 71
1
 72
5
  0
DICTIONARY
  5
17
102
{ACAD_REACTORS
330
C
102
}
100
AcDbDictionary
280
0
281
1
  3
Standard
350
18
  0
DICTIONARY
  5
37B
330
C
100
AcDbDictionary
281
1
  3
Standard
350
       37F
  3
Standard1
350
       380
  0
DICTIONARY
  5
19
102
{ACAD_REACTORS
330
C
102
}
100
AcDbDictionary
281
1
  0
DICTIONARY
  5
1A
102
{ACAD_REACTORS
330
C
102
}
100
AcDbDictionary
281
1
  3
Model
350
37C
  3
Layout1
350
37D
  0
ACDBPLACEHOLDER
  5
F
102
{ACAD_REACTORS
330
E
102
}
  0
MLINESTYLE
  5
18
102
{ACAD_REACTORS
330
17
102
}
100
AcDbMlineStyle
  2
STANDARD
 70
0
  3

 62
256
 51
90.0
 52
90.0
 71
2
 49
0.5
 62
256
  6
BYLAYER
 49
-0.5
 62
256
  6
BYLAYER
  0
LAYOUT
  5
37C
102
{ACAD_REACTORS
330
1A
102
}
100
AcDbPlotSettings
  1

  2
none_device
  4
ANSI_C_(22.00_x_17.00_Inches)
  6

 40
0.0
 41
0.0
 42
0.0
 43
0.0
 44
558.8
 45
431.8
 46
0.0
 47
0.0
 48
0.0
 49
0.0
140
0.0
141
0.0
142
1.0
143
1.0
 70
1024
 72
0
 73
0
 74
0
  7

 75
0
147
1.0
148
0.0
149
0.0
100
AcDbLayout
  1
Model
 70
0
 71
0
 10
0.0
 20
0.0
 11
22.0
 21
17.0
 12
0.0
 22
0.0
 32
0.0
 14
0.0
 24
0.0
 34
0.0
 15
0.0
 25
0.0
 35
0.0
146
0.0
 13
0.0
 23
0.0
 33
0.0
 16
1.0
 26
0.0
 36
0.0
 17
0.0
 27
1.0
 37
0.0
 76
0
330
20C
345
0
346
0
  0
LAYOUT
  5
37D
102
{ACAD_REACTORS
330
1A
102
}
100
AcDbPlotSettings
  1

  2
none_device
  4
ANSI_C_(22.00_x_17.00_Inches)
  6

 40
0.0
 41
0.0
 42
0.0
 43
0.0
 44
558.8
 45
431.8
 46
0.0
 47
0.0
 48
0.0
 49
0.0
140
0.0
141
0.0
142
1.0
143
1.0
 70
0
 72
0
 73
0
 74
0
  7

 75
0
147
1.0
148
0.0
149
0.0
100
AcDbLayout
  1
Layout1
 70
0
 71
1
 10
0.0
 20
0.0
 11
22.0
 21
17.0
 12
0.0
 22
0.0
 32
0.0
 14
0.0
 24
0.0
 34
0.0
 15
0.0
 25
0.0
 35
0.0
146
0.0
 13
0.0
 23
0.0
 33
0.0
 16
1.0
 26
0.0
 36
0.0
 17
0.0
 27
1.0
 37
0.0
 76
0
330
20D
345
0
346
0
  0
IMAGEDEF
  5
37E
102
{ACAD_REACTORS
330
379
330
378
102
}
100
AcDbRasterImageDef
 90
0
  1
IN4_assy_2_img_1.png
 10
369.0
 20
92.0
 11
0.0066666667
 21
0.0066666667
280
1
281
0
  0
TABLESTYLE
  5
37F
102
{ACAD_REACTORS
330
37B
330
291
330
292
102
}
330
37B
100
AcDbTableStyle
  3
Standard
 70
0
 71
0
 40
0.06
 41
0.06
280
1
281
1
  7
Standard
140
0.18
170
1
 62
0
 63
7
283
0
  7
Standard
140
0.18
170
1
 62
0
 63
7
283
0
  7
Standard
140
0.18
170
1
 62
0
 63
7
283
0
  0
TABLESTYLE
  5
380
102
{ACAD_REACTORS
330
37B
330
290
102
}
330
37B
100
AcDbTableStyle
  3
Standard1
 70
1
 71
0
 40
0.06
 41
0.06
280
1
281
1
  7
Standard
140
0.18
170
1
 62
0
 63
7
283
0
  7
Standard
140
0.18
170
1
 62
0
 63
7
283
0
  7
Standard
140
0.18
170
1
 62
0
 63
7
283
0
  0
ENDSEC
  0
EOF
