999
DXF file: IMY_assy_2.dxf
999
Pro/ENGINEER 2014200 by Parametric Technology Corporation
  0
SECTION
  2
HEADER
  9
$ACADVER
  1
AC1021
  9
$DWGCODEPAGE
  3
ANSI_1252
  9
$EXTMAX
 10
22.0
 20
17.0
 30
0.0
  9
$EXTMIN
 10
0.0
 20
0.0
 30
0.0
  9
$LIMMIN
 10
0.0
 20
0.0
  9
$LIMMAX
 10
22.0
 20
17.0
  9
$VIEWCTR
 10
11.0
 20
8.5
  9
$VIEWSIZE
 40
17.0
  9
$CLAYER
  8
0
  9
$LTSCALE
 40
1.21
  9
$CELTYPE
  6
BYLAYER
  9
$DIMSCALE
 40
1.0
  9
$DIMASZ
 40
0.1875
  9
$DIMEXO
 40
0.0625
  9
$DIMDLI
 40
0.836
  9
$DIMEXE
 40
0.125
  9
$DIMCEN
 40
0.198
  9
$DIMLFAC
 40
1.0
  9
$DIMBLK
  1
_FILLED
  9
$DIMTXT
 40
0.1
  9
$DIMTOL
 70
0
  9
$DIMLIM
 70
0
  9
$DIMTFAC
 40
1.0
  9
$DIMGAP
 40
0.09
  9
$DIMDSEP
 70
46
  9
$AUNITS
 70
0
  9
$PDMODE
 70
3
  9
$PDSIZE
 40
0.3125
  9
$HANDSEED
  5
3A9
  9
$TILEMODE
 70
1
  9
$MEASUREMENT
 70
0
  9
$INSUNITS
 70
1
  0
ENDSEC
  0
SECTION
  2
CLASSES
  0
CLASS
  1
ACDBDICTIONARYWDFLT
  2
AcDbDictionaryWithDefault
  3
AutoCAD 2000
 90
0
 91
1
280
0
281
0
  0
CLASS
  1
ACDBPLACEHOLDER
  2
AcDbPlaceHolder
  3
AutoCAD 2000
 90
0
 91
1
280
0
281
0
  0
CLASS
  1
LAYOUT
  2
AcDbLayout
  3
AutoCAD 2000
 90
0
 91
0
280
0
281
0
  0
CLASS
  1
RASTERVARIABLES
  2
AcDbRasterVariables
  3
ISM
 90
0
 91
1
280
0
281
0
  0
CLASS
  1
IMAGEDEF
  2
AcDbRasterImageDef
  3
ISM
 90
0
 91
1
280
0
281
0
  0
CLASS
  1
IMAGEDEF_REACTOR
  2
AcDbRasterImageDefReactor
  3
ISM
 90
0
 91
1
280
0
281
0
  0
CLASS
  1
IMAGE
  2
AcDbRasterImage
  3
ISM
 90
127
 91
1
280
0
281
1
  0
CLASS
  1
TABLESTYLE
  2
AcDbTableStyle
  3
ObjectDBX Classes
 90
2047
 91
1
280
0
281
0
  0
CLASS
  1
ACAD_TABLE
  2
AcDbTable
  3
ObjectDBX Classes
 90
1025
 91
3
280
0
281
1
  0
ENDSEC
  0
SECTION
  2
TABLES
  0
TABLE
  2
VPORT
  5
8
100
AcDbSymbolTable
 70
2
  0
VPORT
  5
1F4
100
AcDbSymbolTableRecord
100
AcDbViewportTableRecord
  2
*ACTIVE
 70
0
 10
0.0
 20
0.0
 11
1.0
 21
1.0
 12
11.0
 22
8.5
 13
0.0
 23
0.0
 14
1.0
 24
1.0
 15
0.0
 25
0.0
 16
0.0
 26
0.0
 36
1.0
 17
0.0
 27
0.0
 37
0.0
 40
17.0
 41
1.2941176471
 42
50.0
 43
0.0
 44
0.0
 50
0.0
 51
0.0
 71
0
 72
100
 73
1
 74
1
 75
0
 76
0
 77
0
 78
0
  0
ENDTAB
  0
TABLE
  2
LTYPE
  5
5
100
AcDbSymbolTable
 70
6
  0
LTYPE
  5
14
100
AcDbSymbolTableRecord
100
AcDbLinetypeTableRecord
  2
BYBLOCK
 70
0
  3

 72
65
 73
0
 40
0.0
  0
LTYPE
  5
15
100
AcDbSymbolTableRecord
100
AcDbLinetypeTableRecord
  2
BYLAYER
 70
0
  3

 72
65
 73
0
 40
0.0
  0
LTYPE
  5
16
100
AcDbSymbolTableRecord
100
AcDbLinetypeTableRecord
  2
CONTINUOUS
 70
64
  3
Solid line
 72
65
 73
0
 40
0.0
  0
LTYPE
  5
1F5
100
AcDbSymbolTableRecord
100
AcDbLinetypeTableRecord
  2
CENTER
 70
64
  3
____ _ ____ _ ____ _ ____ _ ____ _ ____ _ ____
 72
65
 73
4
 40
0.6
 49
0.375
 74
0
 49
-0.075
 74
0
 49
0.075
 74
0
 49
-0.075
 74
0
  0
LTYPE
  5
1F6
100
AcDbSymbolTableRecord
100
AcDbLinetypeTableRecord
  2
HIDDEN
 70
64
  3
- - - - - - - - - - - - - - - - - - - -
 72
65
 73
2
 40
0.2
 49
0.1
 74
0
 49
-0.1
 74
0
  0
LTYPE
  5
1F7
100
AcDbSymbolTableRecord
100
AcDbLinetypeTableRecord
  2
PHANTOM
 70
64
  3
_____ _ _ _____ _ _ _____ _ _ _____
 72
65
 73
6
 40
0.8
 49
0.45
 74
0
 49
-0.05
 74
0
 49
0.1
 74
0
 49
-0.05
 74
0
 49
0.1
 74
0
 49
-0.05
 74
0
  0
LTYPE
  5
1F8
100
AcDbSymbolTableRecord
100
AcDbLinetypeTableRecord
  2
DOT
 70
64
  3
. . . . . . . . . . . . . . . . . . . .
 72
65
 73
2
 40
0.2
 49
0.1
 74
0
 49
-0.1
 74
0
  0
LTYPE
  5
1F9
100
AcDbSymbolTableRecord
100
AcDbLinetypeTableRecord
  2
DASHED
 70
64
  3
- - - - - - - - - - - - - - - - - - - -
 72
65
 73
2
 40
0.2
 49
0.1
 74
0
 49
-0.1
 74
0
  0
ENDTAB
  0
TABLE
  2
LAYER
  5
2
100
AcDbSymbolTable
 70
36
  0
LAYER
  5
10
100
AcDbSymbolTableRecord
100
AcDbLayerTableRecord
  2
0
 70
0
 62
7
  6
CONTINUOUS
370
-3
390
F
  0
LAYER
  5
1FA
100
AcDbSymbolTableRecord
100
AcDbLayerTableRecord
  2
DEFAULT_1
 70
0
 62
7
  6
CENTER
370
-3
390
F
  0
LAYER
  5
1FB
100
AcDbSymbolTableRecord
100
AcDbLayerTableRecord
  2
DEFAULT_2
 70
0
 62
8
  6
HIDDEN
370
-3
390
F
  0
LAYER
  5
1FC
100
AcDbSymbolTableRecord
100
AcDbLayerTableRecord
  2
DEFAULT_3
 70
0
 62
7
  6
PHANTOM
370
-3
390
F
  0
LAYER
  5
1FD
100
AcDbSymbolTableRecord
100
AcDbLayerTableRecord
  2
01___PRT_ALL_DTM_PLN
 70
0
 62
7
  6
CONTINUOUS
370
-3
390
F
  0
LAYER
  5
1FE
100
AcDbSymbolTableRecord
100
AcDbLayerTableRecord
  2
01___PRT_DEF_DTM_PLN
 70
0
 62
7
  6
CONTINUOUS
370
-3
390
F
  0
LAYER
  5
1FF
100
AcDbSymbolTableRecord
100
AcDbLayerTableRecord
  2
02___PRT_ALL_AXES
 70
0
 62
7
  6
CONTINUOUS
370
-3
390
F
  0
LAYER
  5
200
100
AcDbSymbolTableRecord
100
AcDbLayerTableRecord
  2
03___PRT_ALL_CURVES
 70
0
 62
7
  6
CONTINUOUS
370
-3
390
F
  0
LAYER
  5
201
100
AcDbSymbolTableRecord
100
AcDbLayerTableRecord
  2
04___PRT_ALL_DTM_PNT
 70
0
 62
7
  6
CONTINUOUS
370
-3
390
F
  0
LAYER
  5
202
100
AcDbSymbolTableRecord
100
AcDbLayerTableRecord
  2
05___PRT_ALL_DTM_CSYS
 70
0
 62
7
  6
CONTINUOUS
370
-3
390
F
  0
LAYER
  5
203
100
AcDbSymbolTableRecord
100
AcDbLayerTableRecord
  2
05___PRT_DEF_DTM_CSYS
 70
0
 62
7
  6
CONTINUOUS
370
-3
390
F
  0
LAYER
  5
204
100
AcDbSymbolTableRecord
100
AcDbLayerTableRecord
  2
06___PRT_ALL_SURFS
 70
0
 62
7
  6
CONTINUOUS
370
-3
390
F
  0
LAYER
  5
205
100
AcDbSymbolTableRecord
100
AcDbLayerTableRecord
  2
DATUM_PLANES
 70
0
 62
7
  6
CONTINUOUS
370
-3
390
F
  0
LAYER
  5
206
100
AcDbSymbolTableRecord
100
AcDbLayerTableRecord
  2
PORT_AREAS
 70
0
 62
7
  6
CONTINUOUS
370
-3
390
F
  0
LAYER
  5
207
100
AcDbSymbolTableRecord
100
AcDbLayerTableRecord
  2
SUNNBOMCOSMETIC
 70
0
 62
7
  6
CONTINUOUS
370
-3
390
F
  0
LAYER
  5
208
100
AcDbSymbolTableRecord
100
AcDbLayerTableRecord
  2
SUNNBOMSTAMPING
 70
0
 62
7
  6
CONTINUOUS
370
-3
390
F
  0
LAYER
  5
209
100
AcDbSymbolTableRecord
100
AcDbLayerTableRecord
  2
THREADS
 70
0
 62
7
  6
CONTINUOUS
370
-3
390
F
  0
ENDTAB
  0
TABLE
  2
STYLE
  5
3
100
AcDbSymbolTable
 70
1
  0
STYLE
  5
11
100
AcDbSymbolTableRecord
100
AcDbTextStyleTableRecord
  2
STANDARD
 70
0
 40
0.0
 41
0.8
 50
0.0
 71
0
 42
0.2
  3
txt
  4

  0
STYLE
  5
20A
100
AcDbSymbolTableRecord
100
AcDbTextStyleTableRecord
  2
TEXTSTYLE_1
 70
0
 40
0.0
 41
0.8
 50
0.0
 71
0
 42
0.2
  3
gdt
  4

  0
ENDTAB
  0
TABLE
  2
VIEW
  5
6
100
AcDbSymbolTable
 70
0
  0
ENDTAB
  0
TABLE
  2
UCS
  5
7
100
AcDbSymbolTable
 70
0
  0
ENDTAB
  0
TABLE
  2
APPID
  5
9
100
AcDbSymbolTable
 70
1
  0
APPID
  5
20B
100
AcDbSymbolTableRecord
100
AcDbRegAppTableRecord
  2
ACAD
 70
0
  0
ENDTAB
  0
TABLE
  2
BLOCK_RECORD
  5
1
100
AcDbSymbolTable
 70
0
  0
BLOCK_RECORD
  5
20C
100
AcDbSymbolTableRecord
100
AcDbBlockTableRecord
  2
*Model_Space
  0
BLOCK_RECORD
  5
20D
100
AcDbSymbolTableRecord
100
AcDbBlockTableRecord
  2
*Paper_Space
  0
BLOCK_RECORD
  5
20E
100
AcDbSymbolTableRecord
100
AcDbBlockTableRecord
  2
SUN_FIRST_THIRD_ANGLE_BL0
  0
BLOCK_RECORD
  5
20F
100
AcDbSymbolTableRecord
100
AcDbBlockTableRecord
  2
*T1
  0
BLOCK_RECORD
  5
210
100
AcDbSymbolTableRecord
100
AcDbBlockTableRecord
  2
*T2
  0
BLOCK_RECORD
  5
211
100
AcDbSymbolTableRecord
100
AcDbBlockTableRecord
  2
*T3
  0
ENDTAB
  0
TABLE
  2
DIMSTYLE
  5
A
100
AcDbSymbolTable
 70
1
100
AcDbDimStyleTable
 71
0
  0
DIMSTYLE
105
212
100
AcDbSymbolTableRecord
100
AcDbDimStyleTableRecord
  2
STANDARD
 70
0
  3

  4

 40
1.0
 41
0.1875
 42
0.0625
 43
0.38
 44
0.125
 45
0.0
 46
0.0
 47
0.001
 48
0.001
140
0.1
141
0.09
142
0.0
143
25.4
144
1.0
145
0.0
146
1.0
147
0.09
 71
0.0
 72
0.0
 73
1
 74
1
 75
0
 76
0
 77
0
 78
4
170
0
171
2
172
0
173
0
174
0
175
0
176
0
177
0
178
0
270
2
271
3
272
3
273
2
274
2
275
0
280
0
281
0
282
0
283
1
284
4
285
0
286
0
287
3
288
0
340
11
278
46
  0
ENDTAB
  0
ENDSEC
  0
SECTION
  2
BLOCKS
  0
BLOCK
  5
20
100
AcDbEntity
  8
0
100
AcDbBlockBegin
  2
*Model_Space
 70
0
 10
0.0
 20
0.0
 30
0.0
  3
*Model_Space
  1

  0
ENDBLK
  5
21
100
AcDbEntity
  8
0
100
AcDbBlockEnd
  0
BLOCK
  5
1C
100
AcDbEntity
  8
0
100
AcDbBlockBegin
  2
*Paper_Space
 70
0
 10
0.0
 20
0.0
 30
0.0
  3
*Paper_Space
  1

  0
ENDBLK
  5
1D
100
AcDbEntity
  8
0
100
AcDbBlockEnd
  0
BLOCK
  5
213
100
AcDbEntity
  8
0
100
AcDbBlockBegin
 62
2
  6
CONTINUOUS
  2
SUN_FIRST_THIRD_ANGLE_BL0
 70
64
 10
20.4816717061
 20
1.2289683772
  3
SUN_FIRST_THIRD_ANGLE_BL0
  1

  0
TEXT
  5
214
100
AcDbEntity
  8
0
100
AcDbText
 62
2
  6
CONTINUOUS
 10
19.4750896608
 20
1.4136269581
  7
STANDARD
 40
0.08
  1
FIRST ANGLE
 41
0.8
 72
0
100
AcDbText
  0
TEXT
  5
215
100
AcDbEntity
  8
0
100
AcDbText
 62
2
  6
CONTINUOUS
 10
20.7842537513
 20
1.4047600029
  7
STANDARD
 40
0.08
  1
THIRD ANGLE
 41
0.8
 72
0
100
AcDbText
  0
LINE
  5
216
100
AcDbEntity
  8
0
100
AcDbLine
 62
7
  6
CONTINUOUS
 10
19.4767170086
 20
1.1727031207
 11
19.6334271527
 21
1.1717972817
  0
LINE
  5
217
100
AcDbEntity
  8
0
100
AcDbLine
 62
7
  6
CONTINUOUS
 10
19.6596964832
 20
1.1717972817
 11
19.6950230232
 21
1.171593082
  0
LINE
  5
218
100
AcDbEntity
  8
0
100
AcDbLine
 62
7
  6
CONTINUOUS
 10
19.7194818561
 20
1.1708914427
 11
19.8852396156
 21
1.1699333054
  0
LINE
  5
219
100
AcDbEntity
  8
0
100
AcDbLine
 62
7
  6
CONTINUOUS
 10
19.4758111696
 20
1.2723454088
 11
19.88525039
 21
1.3511534004
  0
LINE
  5
21A
100
AcDbEntity
  8
0
100
AcDbLine
 62
7
  6
CONTINUOUS
 10
19.88525039
 20
1.3511534004
 11
19.8831348489
 21
0.9851647912
  0
LINE
  5
21B
100
AcDbEntity
  8
0
100
AcDbLine
 62
7
  6
CONTINUOUS
 10
19.8831348489
 20
0.9851647912
 11
19.4767170086
 21
1.0658141206
  0
LINE
  5
21C
100
AcDbEntity
  8
0
100
AcDbLine
 62
7
  6
CONTINUOUS
 10
19.4767170086
 20
1.0658141206
 11
19.4779056764
 21
1.2714536432
  0
CIRCLE
  5
21D
100
AcDbEntity
  8
0
100
AcDbCircle
 62
7
  6
CONTINUOUS
 10
20.2068232291
 20
1.1717972817
 40
0.175742101
  0
CIRCLE
  5
21E
100
AcDbEntity
  8
0
100
AcDbCircle
 62
7
  6
CONTINUOUS
 10
20.2068232291
 20
1.1717972817
 40
0.1005522074
  0
LINE
  5
21F
100
AcDbEntity
  8
0
100
AcDbLine
 62
7
  6
CONTINUOUS
 10
20.2077290681
 20
1.3756110529
 11
20.2071171714
 21
1.2379342989
  0
LINE
  5
220
100
AcDbEntity
  8
0
100
AcDbLine
 62
7
  6
CONTINUOUS
 10
20.2077290681
 20
1.2016899681
 11
20.2074674401
 21
1.1428236749
  0
LINE
  5
221
100
AcDbEntity
  8
0
100
AcDbLine
 62
7
  6
CONTINUOUS
 10
20.208634907
 20
1.101141841
 11
20.2080230104
 21
0.963465087
  0
LINE
  5
222
100
AcDbEntity
  8
0
100
AcDbLine
 62
7
  6
CONTINUOUS
 10
20.0066328138
 20
1.1745147986
 11
20.1443095678
 21
1.1739029019
  0
LINE
  5
223
100
AcDbEntity
  8
0
100
AcDbLine
 62
7
  6
CONTINUOUS
 10
20.1832714155
 20
1.1727031207
 11
20.238153505
 21
1.172335442
  0
LINE
  5
224
100
AcDbEntity
  8
0
100
AcDbLine
 62
7
  6
CONTINUOUS
 10
20.2756669918
 20
1.1717972817
 11
20.407916871
 21
1.1712095044
  0
CIRCLE
  5
225
100
AcDbEntity
  8
0
100
AcDbCircle
 62
7
  6
CONTINUOUS
 10
20.7509457401
 20
1.1693297793
 40
0.1722024983
  0
CIRCLE
  5
226
100
AcDbEntity
  8
0
100
AcDbCircle
 62
7
  6
CONTINUOUS
 10
20.7509457401
 20
1.1693297793
 40
0.0985164967
  0
LINE
  5
227
100
AcDbEntity
  8
0
100
AcDbLine
 62
7
  6
CONTINUOUS
 10
20.7169767782
 20
1.170462078
 11
20.7825395137
 21
1.1682766535
  0
LINE
  5
228
100
AcDbEntity
  8
0
100
AcDbLine
 62
7
  6
CONTINUOUS
 10
20.8177513651
 20
1.1693297793
 11
20.947965719
 21
1.1693297793
  0
LINE
  5
229
100
AcDbEntity
  8
0
100
AcDbLine
 62
7
  6
CONTINUOUS
 10
20.6875370113
 20
1.170462078
 11
20.5573226574
 21
1.170462078
  0
LINE
  5
22A
100
AcDbEntity
  8
0
100
AcDbLine
 62
7
  6
CONTINUOUS
 10
20.7486811426
 20
1.1987695462
 11
20.7486811426
 21
1.1432869085
  0
LINE
  5
22B
100
AcDbEntity
  8
0
100
AcDbLine
 62
7
  6
CONTINUOUS
 10
20.7498134414
 20
1.1059210505
 11
20.7498134414
 21
0.9757066966
  0
LINE
  5
22C
100
AcDbEntity
  8
0
100
AcDbLine
 62
7
  6
CONTINUOUS
 10
20.7486811426
 20
1.2338708068
 11
20.7486811426
 21
1.3640851607
  0
LINE
  5
22D
100
AcDbEntity
  8
0
100
AcDbLine
 62
7
  6
CONTINUOUS
 10
21.0702539817
 20
1.2701043662
 11
21.4790138229
 21
1.3448360823
  0
LINE
  5
22E
100
AcDbEntity
  8
0
100
AcDbLine
 62
7
  6
CONTINUOUS
 10
21.4790138229
 20
1.3448360823
 11
21.4790138229
 21
0.9779712941
  0
LINE
  5
22F
100
AcDbEntity
  8
0
100
AcDbLine
 62
7
  6
CONTINUOUS
 10
21.4790138229
 20
0.9779712941
 11
21.069121683
 21
1.0617614
  0
LINE
  5
230
100
AcDbEntity
  8
0
100
AcDbLine
 62
7
  6
CONTINUOUS
 10
21.0702539817
 20
1.2701043662
 11
21.069121683
 21
1.0617614
  0
LINE
  5
231
100
AcDbEntity
  8
0
100
AcDbLine
 62
7
  6
CONTINUOUS
 10
21.4790138229
 20
1.1693297793
 11
21.3159628059
 21
1.1693297793
  0
LINE
  5
232
100
AcDbEntity
  8
0
100
AcDbLine
 62
7
  6
CONTINUOUS
 10
21.2876553377
 20
1.1693297793
 11
21.2502894796
 21
1.1693297793
  0
LINE
  5
233
100
AcDbEntity
  8
0
100
AcDbLine
 62
7
  6
CONTINUOUS
 10
21.2208497126
 20
1.1659328831
 11
21.0713862804
 21
1.1659328831
  0
LINE
  5
234
100
AcDbEntity
  8
0
100
AcDbLine
 62
7
  6
CONTINUOUS
 10
20.4796138713
 20
1.5284908897
 11
20.4766766948
 21
0.9294458646
  0
ENDBLK
  5
235
100
AcDbEntity
  8
0
  6
BYBLOCK
 62
0
100
AcDbBlockEnd
  0
BLOCK
  5
236
100
AcDbEntity
  8
0
100
AcDbBlockBegin
  2
*T1
 70
1
 10
0.0
 20
0.0
  3
*T1
  1

  0
LINE
  5
237
100
AcDbEntity
  8
0
100
AcDbLine
 62
2
  6
CONTINUOUS
 10
9.275
 20
0.0
 11
-0.0
 21
0.0
  0
LINE
  5
238
100
AcDbEntity
  8
0
100
AcDbLine
 62
2
  6
CONTINUOUS
 10
9.275
 20
0.0
 11
9.275
 21
1.25
  0
LINE
  5
239
100
AcDbEntity
  8
0
100
AcDbLine
 62
2
  6
CONTINUOUS
 10
9.275
 20
0.625
 11
-0.0
 21
0.625
  0
LINE
  5
23A
100
AcDbEntity
  8
0
100
AcDbLine
 62
2
  6
CONTINUOUS
 10
9.275
 20
1.25
 11
-0.0
 21
1.25
  0
LINE
  5
23B
100
AcDbEntity
  8
0
100
AcDbLine
 62
2
  6
CONTINUOUS
 10
6.8
 20
0.0
 11
6.8
 21
1.25
  0
LINE
  5
23C
100
AcDbEntity
  8
0
100
AcDbLine
 62
2
  6
CONTINUOUS
 10
6.4
 20
0.0
 11
6.4
 21
0.625
  0
LINE
  5
23D
100
AcDbEntity
  8
0
100
AcDbLine
 62
2
  6
CONTINUOUS
 10
5.9
 20
0.0
 11
5.9
 21
0.625
  0
LINE
  5
23E
100
AcDbEntity
  8
0
100
AcDbLine
 62
2
  6
CONTINUOUS
 10
5.2
 20
0.0
 11
5.2
 21
0.625
  0
LINE
  5
23F
100
AcDbEntity
  8
0
100
AcDbLine
 62
2
  6
CONTINUOUS
 10
4.1
 20
0.0
 11
4.1
 21
1.25
  0
LINE
  5
240
100
AcDbEntity
  8
0
100
AcDbLine
 62
2
  6
CONTINUOUS
 10
-0.0
 20
0.0
 11
-0.0
 21
1.25
  0
MTEXT
  5
241
100
AcDbEntity
  8
0
100
AcDbMText
 62
2
  6
CONTINUOUS
  7
STANDARD
 71
2
 72
1
 10
6.6
 20
0.325
 30
0.0
 11
1.0
 21
0.0
 31
0.0
 44
0.9
  1
2
 40
0.125
 41
0.2
  0
MTEXT
  5
242
100
AcDbEntity
  8
0
100
AcDbMText
 62
2
  6
CONTINUOUS
  7
STANDARD
 71
2
 72
1
 10
6.15
 20
0.325
 30
0.0
 11
1.0
 21
0.0
 31
0.0
 44
0.9
  1
C
 40
0.125
 41
0.2
  0
MTEXT
  5
243
100
AcDbEntity
  8
0
100
AcDbMText
 62
2
  6
CONTINUOUS
  7
STANDARD
 71
2
 72
1
 10
5.55
 20
0.325
 30
0.0
 11
1.0
 21
0.0
 31
0.0
 44
0.9
  1
1.000
 40
0.125
 41
1.0
  0
MTEXT
  5
244
100
AcDbEntity
  8
0
100
AcDbMText
 62
2
  6
CONTINUOUS
  7
STANDARD
 71
2
 72
1
 10
4.65
 20
0.325
 30
0.0
 11
1.0
 21
0.0
 31
0.0
 44
0.9
  1
Jan-22-24
 40
0.125
 41
1.8
  0
MTEXT
  5
245
100
AcDbEntity
  8
0
100
AcDbMText
 62
2
  6
CONTINUOUS
  7
STANDARD
 71
2
 72
1
 10
2.05
 20
0.4625
 30
0.0
 11
1.0
 21
0.0
 31
0.0
 44
0.9
  1
T-16A Line mount\PCross port with make up checks
 40
0.125
 41
6.0
  0
MTEXT
  5
246
100
AcDbEntity
  8
0
100
AcDbMText
 62
2
  6
CONTINUOUS
  7
STANDARD
 71
1
 72
1
 10
6.45
 20
0.5625
 30
0.0
 11
1.0
 21
0.0
 31
0.0
 44
0.9
  1
SHEET
 40
0.06
 41
0.48
  0
MTEXT
  5
247
100
AcDbEntity
  8
0
100
AcDbMText
 62
2
  6
CONTINUOUS
  7
STANDARD
 71
1
 72
1
 10
5.95
 20
0.5625
 30
0.0
 11
1.0
 21
0.0
 31
0.0
 44
0.9
  1
DWG SIZE
 40
0.06
 41
0.768
  0
MTEXT
  5
248
100
AcDbEntity
  8
0
100
AcDbMText
 62
2
  6
CONTINUOUS
  7
STANDARD
 71
1
 72
1
 10
5.25
 20
0.5625
 30
0.0
 11
1.0
 21
0.0
 31
0.0
 44
0.9
  1
SCALE
 40
0.06
 41
0.48
  0
MTEXT
  5
249
100
AcDbEntity
  8
0
100
AcDbMText
 62
2
  6
CONTINUOUS
  7
STANDARD
 71
1
 72
1
 10
4.15
 20
0.5625
 30
0.0
 11
1.0
 21
0.0
 31
0.0
 44
0.9
  1
DATE
 40
0.06
 41
0.384
  0
MTEXT
  5
24A
100
AcDbEntity
  8
0
100
AcDbMText
 62
2
  6
CONTINUOUS
  7
STANDARD
 71
1
 72
1
 10
0.05
 20
0.5625
 30
0.0
 11
1.0
 21
0.0
 31
0.0
 44
0.9
  1
DESCRIPTION
 40
0.06
 41
1.056
  0
MTEXT
  5
24B
100
AcDbEntity
  8
0
100
AcDbMText
 62
2
  6
CONTINUOUS
  7
STANDARD
 71
2
 72
1
 10
5.45
 20
1.0375
 30
0.0
 11
1.0
 21
0.0
 31
0.0
 44
0.9
  1
ALL DIMENSIONS IN INCH\PVIEWS ARE THIRD ANGLE
 40
0.12
 41
4.224
  0
MTEXT
  5
24C
100
AcDbEntity
  8
0
100
AcDbMText
 62
2
  6
CONTINUOUS
  7
STANDARD
 71
2
 72
1
 10
2.05
 20
0.95
 30
0.0
 11
1.0
 21
0.0
 31
0.0
 44
0.9
  1
IMY
 40
0.125
 41
0.6
  0
MTEXT
  5
24D
100
AcDbEntity
  8
0
100
AcDbMText
 62
2
  6
CONTINUOUS
  7
STANDARD
 71
1
 72
1
 10
0.05
 20
1.1875
 30
0.0
 11
1.0
 21
0.0
 31
0.0
 44
0.9
  1
MODEL
 40
0.06
 41
0.48
  0
ENDBLK
  5
24E
100
AcDbEntity
  8
0
  6
BYBLOCK
 62
0
100
AcDbBlockEnd
  0
BLOCK
  5
24F
100
AcDbEntity
  8
0
100
AcDbBlockBegin
  2
*T2
 70
1
 10
0.0
 20
0.0
  3
*T2
  1

  0
LINE
  5
250
100
AcDbEntity
  8
0
100
AcDbLine
 62
2
  6
CONTINUOUS
 10
0.0
 20
0.0
 11
9.055
 21
0.0
  0
LINE
  5
251
100
AcDbEntity
  8
0
100
AcDbLine
 62
2
  6
CONTINUOUS
 10
0.0
 20
0.0
 11
0.0
 21
-2.844
  0
LINE
  5
252
100
AcDbEntity
  8
0
100
AcDbLine
 62
2
  6
CONTINUOUS
 10
0.0
 20
-0.344
 11
9.055
 21
-0.344
  0
LINE
  5
253
100
AcDbEntity
  8
0
100
AcDbLine
 62
2
  6
CONTINUOUS
 10
0.0
 20
-0.594
 11
9.055
 21
-0.594
  0
LINE
  5
254
100
AcDbEntity
  8
0
100
AcDbLine
 62
2
  6
CONTINUOUS
 10
0.0
 20
-0.844
 11
9.055
 21
-0.844
  0
LINE
  5
255
100
AcDbEntity
  8
0
100
AcDbLine
 62
2
  6
CONTINUOUS
 10
0.0
 20
-1.094
 11
9.055
 21
-1.094
  0
LINE
  5
256
100
AcDbEntity
  8
0
100
AcDbLine
 62
2
  6
CONTINUOUS
 10
0.0
 20
-1.344
 11
9.055
 21
-1.344
  0
LINE
  5
257
100
AcDbEntity
  8
0
100
AcDbLine
 62
2
  6
CONTINUOUS
 10
0.0
 20
-1.594
 11
9.055
 21
-1.594
  0
LINE
  5
258
100
AcDbEntity
  8
0
100
AcDbLine
 62
2
  6
CONTINUOUS
 10
0.0
 20
-1.844
 11
9.055
 21
-1.844
  0
LINE
  5
259
100
AcDbEntity
  8
0
100
AcDbLine
 62
2
  6
CONTINUOUS
 10
0.0
 20
-2.094
 11
9.055
 21
-2.094
  0
LINE
  5
25A
100
AcDbEntity
  8
0
100
AcDbLine
 62
2
  6
CONTINUOUS
 10
0.0
 20
-2.344
 11
9.055
 21
-2.344
  0
LINE
  5
25B
100
AcDbEntity
  8
0
100
AcDbLine
 62
2
  6
CONTINUOUS
 10
0.0
 20
-2.594
 11
9.055
 21
-2.594
  0
LINE
  5
25C
100
AcDbEntity
  8
0
100
AcDbLine
 62
2
  6
CONTINUOUS
 10
0.0
 20
-2.844
 11
9.055
 21
-2.844
  0
LINE
  5
25D
100
AcDbEntity
  8
0
100
AcDbLine
 62
2
  6
CONTINUOUS
 10
3.055
 20
0.0
 11
3.055
 21
-2.844
  0
LINE
  5
25E
100
AcDbEntity
  8
0
100
AcDbLine
 62
2
  6
CONTINUOUS
 10
9.055
 20
0.0
 11
9.055
 21
-2.844
  0
MTEXT
  5
25F
100
AcDbEntity
  8
0
100
AcDbMText
 62
2
  6
CONTINUOUS
  7
STANDARD
 71
2
 72
1
 10
1.5275
 20
-0.0995
 30
0.0
 11
1.0
 21
0.0
 31
0.0
 44
0.9
  1
Technical Data
 40
0.145
 41
3.248
  0
MTEXT
  5
260
100
AcDbEntity
  8
0
100
AcDbMText
 62
2
  6
CONTINUOUS
  7
STANDARD
 71
2
 72
1
 10
4.555
 20
-0.0995
 30
0.0
 11
1.0
 21
0.0
 31
0.0
 44
0.9
  1
U.S. Units
 40
0.145
 41
2.32
  0
MTEXT
  5
261
100
AcDbEntity
  8
0
100
AcDbMText
 62
2
  6
CONTINUOUS
  7
STANDARD
 71
2
 72
1
 10
7.555
 20
-0.0995
 30
0.0
 11
1.0
 21
0.0
 31
0.0
 44
0.9
  1
Metric Units
 40
0.145
 41
2.784
  0
MTEXT
  5
262
100
AcDbEntity
  8
0
100
AcDbMText
 62
2
  6
CONTINUOUS
  7
STANDARD
 71
2
 72
1
 10
1.5275
 20
-0.4065
 30
0.0
 11
1.0
 21
0.0
 31
0.0
 44
0.9
  1
Cavity
 40
0.125
 41
1.2
  0
MTEXT
  5
263
100
AcDbEntity
  8
0
100
AcDbMText
 62
2
  6
CONTINUOUS
  7
STANDARD
 71
2
 72
1
 10
6.055
 20
-0.4065
 30
0.0
 11
1.0
 21
0.0
 31
0.0
 44
0.9
  1
T-16A
 40
0.125
 41
1.0
  0
MTEXT
  5
264
100
AcDbEntity
  8
0
100
AcDbMText
 62
2
  6
CONTINUOUS
  7
STANDARD
 71
2
 72
1
 10
1.5275
 20
-0.6565
 30
0.0
 11
1.0
 21
0.0
 31
0.0
 44
0.9
  1
Body Features
 40
0.125
 41
2.6
  0
MTEXT
  5
265
100
AcDbEntity
  8
0
100
AcDbMText
 62
2
  6
CONTINUOUS
  7
STANDARD
 71
2
 72
1
 10
6.055
 20
-0.6565
 30
0.0
 11
1.0
 21
0.0
 31
0.0
 44
0.9
  1
Cross port with make up checks
 40
0.125
 41
6.0
  0
MTEXT
  5
266
100
AcDbEntity
  8
0
100
AcDbMText
 62
2
  6
CONTINUOUS
  7
STANDARD
 71
2
 72
1
 10
1.5275
 20
-0.9065
 30
0.0
 11
1.0
 21
0.0
 31
0.0
 44
0.9
  1
Body Type
 40
0.125
 41
1.8
  0
MTEXT
  5
267
100
AcDbEntity
  8
0
100
AcDbMText
 62
2
  6
CONTINUOUS
  7
STANDARD
 71
2
 72
1
 10
6.055
 20
-0.9065
 30
0.0
 11
1.0
 21
0.0
 31
0.0
 44
0.9
  1
Line mount
 40
0.125
 41
2.0
  0
MTEXT
  5
268
100
AcDbEntity
  8
0
100
AcDbMText
 62
2
  6
CONTINUOUS
  7
STANDARD
 71
2
 72
1
 10
1.5275
 20
-1.1565
 30
0.0
 11
1.0
 21
0.0
 31
0.0
 44
0.9
  1
Interface
 40
0.125
 41
1.8
  0
MTEXT
  5
269
100
AcDbEntity
  8
0
100
AcDbMText
 62
2
  6
CONTINUOUS
  7
STANDARD
 71
2
 72
1
 10
6.055
 20
-1.1565
 30
0.0
 11
1.0
 21
0.0
 31
0.0
 44
0.9
  1
None
 40
0.125
 41
0.8
  0
MTEXT
  5
26A
100
AcDbEntity
  8
0
100
AcDbMText
 62
2
  6
CONTINUOUS
  7
STANDARD
 71
2
 72
1
 10
1.5275
 20
-1.4065
 30
0.0
 11
1.0
 21
0.0
 31
0.0
 44
0.9
  1
Open Cavity Quantity
 40
0.125
 41
4.0
  0
MTEXT
  5
26B
100
AcDbEntity
  8
0
100
AcDbMText
 62
2
  6
CONTINUOUS
  7
STANDARD
 71
2
 72
1
 10
6.055
 20
-1.4065
 30
0.0
 11
1.0
 21
0.0
 31
0.0
 44
0.9
  1
2
 40
0.125
 41
0.2
  0
MTEXT
  5
26C
100
AcDbEntity
  8
0
100
AcDbMText
 62
2
  6
CONTINUOUS
  7
STANDARD
 71
2
 72
1
 10
1.5275
 20
-1.6565
 30
0.0
 11
1.0
 21
0.0
 31
0.0
 44
0.9
  1
Weight
 40
0.125
 41
1.2
  0
MTEXT
  5
26D
100
AcDbEntity
  8
0
100
AcDbMText
 62
2
  6
CONTINUOUS
  7
STANDARD
 71
2
 72
1
 10
4.555
 20
-1.6565
 30
0.0
 11
1.0
 21
0.0
 31
0.0
 44
0.9
  1
8.103 lb.
 40
0.125
 41
1.8
  0
MTEXT
  5
26E
100
AcDbEntity
  8
0
100
AcDbMText
 62
2
  6
CONTINUOUS
  7
STANDARD
 71
2
 72
1
 10
7.555
 20
-1.6565
 30
0.0
 11
1.0
 21
0.0
 31
0.0
 44
0.9
  1
3,675 kg.
 40
0.125
 41
1.8
  0
MTEXT
  5
26F
100
AcDbEntity
  8
0
100
AcDbMText
 62
2
  6
CONTINUOUS
  7
STANDARD
 71
2
 72
1
 10
1.5275
 20
-1.9065
 30
0.0
 11
1.0
 21
0.0
 31
0.0
 44
0.9
  1
Mounting Hole Diameter
 40
0.125
 41
4.4
  0
MTEXT
  5
270
100
AcDbEntity
  8
0
100
AcDbMText
 62
2
  6
CONTINUOUS
  7
STANDARD
 71
2
 72
1
 10
4.555
 20
-1.9065
 30
0.0
 11
1.0
 21
0.0
 31
0.0
 44
0.9
  1
.42 in.
 40
0.125
 41
1.4
  0
MTEXT
  5
271
100
AcDbEntity
  8
0
100
AcDbMText
 62
2
  6
CONTINUOUS
  7
STANDARD
 71
2
 72
1
 10
7.555
 20
-1.9065
 30
0.0
 11
1.0
 21
0.0
 31
0.0
 44
0.9
  1
10,7 mm
 40
0.125
 41
1.4
  0
MTEXT
  5
272
100
AcDbEntity
  8
0
100
AcDbMText
 62
2
  6
CONTINUOUS
  7
STANDARD
 71
2
 72
1
 10
1.5275
 20
-2.1565
 30
0.0
 11
1.0
 21
0.0
 31
0.0
 44
0.9
  1
Mounting Hole Depth
 40
0.125
 41
3.8
  0
MTEXT
  5
273
100
AcDbEntity
  8
0
100
AcDbMText
 62
2
  6
CONTINUOUS
  7
STANDARD
 71
2
 72
1
 10
6.055
 20
-2.1565
 30
0.0
 11
1.0
 21
0.0
 31
0.0
 44
0.9
  1
Through
 40
0.125
 41
1.4
  0
MTEXT
  5
274
100
AcDbEntity
  8
0
100
AcDbMText
 62
2
  6
CONTINUOUS
  7
STANDARD
 71
2
 72
1
 10
1.5275
 20
-2.4065
 30
0.0
 11
1.0
 21
0.0
 31
0.0
 44
0.9
  1
Mounting Hole Quantity
 40
0.125
 41
4.4
  0
MTEXT
  5
275
100
AcDbEntity
  8
0
100
AcDbMText
 62
2
  6
CONTINUOUS
  7
STANDARD
 71
2
 72
1
 10
6.055
 20
-2.4065
 30
0.0
 11
1.0
 21
0.0
 31
0.0
 44
0.9
  1
2
 40
0.125
 41
0.2
  0
MTEXT
  5
276
100
AcDbEntity
  8
0
100
AcDbMText
 62
2
  6
CONTINUOUS
  7
STANDARD
 71
2
 72
1
 10
1.5275
 20
-2.6565
 30
0.0
 11
1.0
 21
0.0
 31
0.0
 44
0.9
  1
Includes integral cartridge(s)
 40
0.125
 41
6.0
  0
MTEXT
  5
277
100
AcDbEntity
  8
0
100
AcDbMText
 62
2
  6
CONTINUOUS
  7
STANDARD
 71
2
 72
1
 10
6.055
 20
-2.6565
 30
0.0
 11
1.0
 21
0.0
 31
0.0
 44
0.9
  1
Yes (see Included Components)
 40
0.125
 41
5.8
  0
ENDBLK
  5
278
100
AcDbEntity
  8
0
  6
BYBLOCK
 62
0
100
AcDbBlockEnd
  0
BLOCK
  5
279
100
AcDbEntity
  8
0
100
AcDbBlockBegin
  2
*T3
 70
1
 10
0.0
 20
0.0
  3
*T3
  1

  0
LINE
  5
27A
100
AcDbEntity
  8
0
100
AcDbLine
 62
2
  6
CONTINUOUS
 10
0.0
 20
0.0
 11
4.6
 21
0.0
  0
LINE
  5
27B
100
AcDbEntity
  8
0
100
AcDbLine
 62
2
  6
CONTINUOUS
 10
0.0
 20
0.0
 11
0.0
 21
-0.93775
  0
LINE
  5
27C
100
AcDbEntity
  8
0
100
AcDbLine
 62
2
  6
CONTINUOUS
 10
0.0
 20
-0.34375
 11
4.6
 21
-0.34375
  0
LINE
  5
27D
100
AcDbEntity
  8
0
100
AcDbLine
 62
2
  6
CONTINUOUS
 10
0.0
 20
-0.68775
 11
4.6
 21
-0.68775
  0
LINE
  5
27E
100
AcDbEntity
  8
0
100
AcDbLine
 62
2
  6
CONTINUOUS
 10
0.0
 20
-0.93775
 11
4.6
 21
-0.93775
  0
LINE
  5
27F
100
AcDbEntity
  8
0
100
AcDbLine
 62
2
  6
CONTINUOUS
 10
1.3
 20
-0.34375
 11
1.3
 21
-0.93775
  0
LINE
  5
280
100
AcDbEntity
  8
0
100
AcDbLine
 62
2
  6
CONTINUOUS
 10
3.3
 20
-0.34375
 11
3.3
 21
-0.93775
  0
LINE
  5
281
100
AcDbEntity
  8
0
100
AcDbLine
 62
2
  6
CONTINUOUS
 10
4.6
 20
0.0
 11
4.6
 21
-0.93775
  0
MTEXT
  5
282
100
AcDbEntity
  8
0
100
AcDbMText
 62
2
  6
CONTINUOUS
  7
STANDARD
 71
2
 72
1
 10
2.3
 20
-0.099375
 30
0.0
 11
1.0
 21
0.0
 31
0.0
 44
0.9
  1
Port Headings
 40
0.145
 41
3.016
  0
MTEXT
  5
283
100
AcDbEntity
  8
0
100
AcDbMText
 62
2
  6
CONTINUOUS
  7
STANDARD
 71
2
 72
1
 10
0.65
 20
-0.44325
 30
0.0
 11
1.0
 21
0.0
 31
0.0
 44
0.9
  1
Product
 40
0.145
 41
1.624
  0
MTEXT
  5
284
100
AcDbEntity
  8
0
100
AcDbMText
 62
2
  6
CONTINUOUS
  7
STANDARD
 71
2
 72
1
 10
2.3
 20
-0.44325
 30
0.0
 11
1.0
 21
0.0
 31
0.0
 44
0.9
  1
Port
 40
0.145
 41
0.928
  0
MTEXT
  5
285
100
AcDbEntity
  8
0
100
AcDbMText
 62
2
  6
CONTINUOUS
  7
STANDARD
 71
2
 72
1
 10
3.95
 20
-0.44325
 30
0.0
 11
1.0
 21
0.0
 31
0.0
 44
0.9
  1
Size
 40
0.145
 41
0.928
  0
MTEXT
  5
286
100
AcDbEntity
  8
0
100
AcDbMText
 62
2
  6
CONTINUOUS
  7
STANDARD
 71
2
 72
1
 10
0.65
 20
-0.75025
 30
0.0
 11
1.0
 21
0.0
 31
0.0
 44
0.9
  1
IMY
 40
0.125
 41
0.6
  0
MTEXT
  5
287
100
AcDbEntity
  8
0
100
AcDbMText
 62
2
  6
CONTINUOUS
  7
STANDARD
 71
2
 72
1
 10
2.3
 20
-0.75025
 30
0.0
 11
1.0
 21
0.0
 31
0.0
 44
0.9
  1
All Ports
 40
0.125
 41
1.8
  0
MTEXT
  5
288
100
AcDbEntity
  8
0
100
AcDbMText
 62
2
  6
CONTINUOUS
  7
STANDARD
 71
2
 72
1
 10
3.95
 20
-0.75025
 30
0.0
 11
1.0
 21
0.0
 31
0.0
 44
0.9
  1
1 1/4" BSPP
 40
0.125
 41
2.2
  0
ENDBLK
  5
289
100
AcDbEntity
  8
0
  6
BYBLOCK
 62
0
100
AcDbBlockEnd
  0
ENDSEC
  0
SECTION
  2
ENTITIES
  0
IMAGE
  5
28A
100
AcDbEntity
  8
0
100
AcDbRasterImage
 62
7
  6
CONTINUOUS
 10
19.2297077316
 20
0.3094318264
 30
0.0
 11
0.0066666667
 21
0.0
 31
0.0
 12
0.0
 22
0.0066666667
 32
0.0
 13
369.0
 23
92.0
340
       3A6
 70
9
280
0
281
50
282
50
283
0
360
       3A0
 71
1
 91
2
 14
-0.5
 24
-0.5
 14
368.5
 24
91.5
  0
INSERT
  5
28B
100
AcDbEntity
  8
0
100
AcDbBlockReference
 62
2
  6
CONTINUOUS
  2
SUN_FIRST_THIRD_ANGLE_BL0
 10
20.4816717061
 20
1.2289683772
  0
ACAD_TABLE
  5
28C
100
AcDbEntity
  8
0
 62
2
  6
CONTINUOUS
100
AcDbBlockReference
  2
*T1
 10
12.42375
 20
0.30125
 30
0.0
100
AcDbTable
342
       3A8
343
20F
 11
1.0
 21
0.0
 31
0.0
 90
6
 91
4
 92
6
 93
20
 94
0
 95
0
 96
0
 70
1
 41
0.0
141
0.525
141
0.1
141
0.525
141
0.1
142
4.1
142
1.1
142
0.7
142
0.5
142
0.4
142
2.475
171
1
172
0
173
0
174
0
175
1
176
1
 91
33
178
0
145
0.0
301
CELL_VALUE
 90
4
  1
T-16A Line mount\PCross port with make up checks
304
ACVALUE_END
170
2
140
0.125
171
1
172
0
173
0
174
0
175
1
176
1
 91
33
178
0
145
0.0
301
CELL_VALUE
 90
4
  1
Jan-22-24
304
ACVALUE_END
170
5
140
0.125
171
1
172
0
173
0
174
0
175
1
176
1
 91
33
178
0
145
0.0
301
CELL_VALUE
 90
4
  1
1.000
304
ACVALUE_END
170
5
140
0.125
171
1
172
0
173
0
174
0
175
1
176
1
 91
33
178
0
145
0.0
301
CELL_VALUE
 90
4
  1
C
304
ACVALUE_END
170
5
140
0.125
171
1
172
0
173
0
174
0
175
1
176
1
 91
33
178
0
145
0.0
301
CELL_VALUE
 90
4
  1
2
304
ACVALUE_END
170
5
140
0.125
171
1
172
0
173
0
174
0
175
1
176
1
 91
33
178
0
145
0.0
301
CELL_VALUE
 90
4
  1
 
304
ACVALUE_END
170
1
140
0.125
171
1
172
0
173
0
174
0
175
1
176
1
 91
33
178
0
145
0.0
301
CELL_VALUE
 90
4
  1
DESCRIPTION
304
ACVALUE_END
170
1
140
0.06
171
1
172
0
173
0
174
0
175
1
176
1
 91
33
178
0
145
0.0
301
CELL_VALUE
 90
4
  1
DATE
304
ACVALUE_END
170
1
140
0.06
171
1
172
0
173
0
174
0
175
1
176
1
 91
33
178
0
145
0.0
301
CELL_VALUE
 90
4
  1
SCALE
304
ACVALUE_END
170
1
140
0.06
171
1
172
0
173
0
174
0
175
1
176
1
 91
33
178
0
145
0.0
301
CELL_VALUE
 90
4
  1
DWG SIZE
304
ACVALUE_END
170
1
140
0.06
171
1
172
0
173
0
174
0
175
1
176
1
 91
33
178
0
145
0.0
301
CELL_VALUE
 90
4
  1
SHEET
304
ACVALUE_END
170
1
140
0.06
171
1
172
0
173
0
174
0
175
1
176
1
 91
33
178
0
145
0.0
301
CELL_VALUE
 90
4
  1
 
304
ACVALUE_END
170
1
140
0.125
171
1
172
0
173
0
174
0
175
1
176
1
 91
33
178
0
145
0.0
301
CELL_VALUE
 90
4
  1
IMY
304
ACVALUE_END
170
5
140
0.125
171
1
172
0
173
0
174
0
175
4
176
1
 91
33
178
0
145
0.0
301
CELL_VALUE
 90
4
  1
ALL DIMENSIONS IN INCH\PVIEWS ARE THIRD ANGLE
304
ACVALUE_END
170
5
140
0.12
171
1
172
0
173
1
174
0
175
1
176
1
 91
1
178
0
145
0.0
170
1
171
1
172
0
173
1
174
0
175
1
176
1
 91
1
178
0
145
0.0
170
1
171
1
172
0
173
1
174
0
175
1
176
1
 91
1
178
0
145
0.0
170
5
171
1
172
0
173
0
174
0
175
1
176
1
 91
33
178
0
145
0.0
301
CELL_VALUE
 90
4
  1
 
304
ACVALUE_END
170
1
140
0.125
171
1
172
0
173
0
174
0
175
1
176
1
 91
33
178
0
145
0.0
301
CELL_VALUE
 90
4
  1
MODEL
304
ACVALUE_END
170
1
140
0.06
171
1
172
0
173
0
174
0
175
1
176
1
 91
33
178
0
145
0.0
301
CELL_VALUE
 90
4
  1
 
304
ACVALUE_END
170
1
140
0.125
171
1
172
0
173
0
174
0
175
1
176
1
 91
33
178
0
145
0.0
301
CELL_VALUE
 90
4
  1
 
304
ACVALUE_END
170
1
140
0.125
171
1
172
0
173
0
174
0
175
1
176
1
 91
33
178
0
145
0.0
301
CELL_VALUE
 90
4
  1
 
304
ACVALUE_END
170
1
140
0.125
171
1
172
0
173
0
174
0
175
1
176
1
 91
33
178
0
145
0.0
301
CELL_VALUE
 90
4
  1
 
304
ACVALUE_END
170
1
140
0.125
171
1
172
0
173
0
174
0
175
1
176
1
 91
33
178
0
145
0.0
301
CELL_VALUE
 90
4
  1
 
304
ACVALUE_END
170
1
140
0.125
  0
ACAD_TABLE
  5
28D
100
AcDbEntity
  8
0
 62
2
  6
CONTINUOUS
100
AcDbBlockReference
  2
*T2
 10
12.4237499994
 20
16.47875
 30
0.0
100
AcDbTable
342
       3A7
343
210
 11
1.0
 21
0.0
 31
0.0
 90
22
 91
11
 92
3
 93
16
 94
0
 95
0
 96
0
 41
0.028
141
0.344
141
0.25
141
0.25
141
0.25
141
0.25
141
0.25
141
0.25
141
0.25
141
0.25
141
0.25
141
0.25
142
3.055
142
3.0
142
3.0
171
1
172
0
173
0
174
0
175
1
176
1
 91
33
178
0
145
0.0
301
CELL_VALUE
 90
4
  1
Technical Data
304
ACVALUE_END
170
5
140
0.145
171
1
172
0
173
0
174
0
175
1
176
1
 91
33
178
0
145
0.0
301
CELL_VALUE
 90
4
  1
U.S. Units
304
ACVALUE_END
170
5
140
0.145
171
1
172
0
173
0
174
0
175
1
176
1
 91
33
178
0
145
0.0
301
CELL_VALUE
 90
4
  1
Metric Units
304
ACVALUE_END
170
5
140
0.145
171
1
172
0
173
0
174
0
175
1
176
1
 91
33
178
0
145
0.0
301
CELL_VALUE
 90
4
  1
Cavity
304
ACVALUE_END
170
5
140
0.125
171
1
172
0
173
0
174
0
175
2
176
1
 91
33
178
0
145
0.0
301
CELL_VALUE
 90
4
  1
T-16A
304
ACVALUE_END
170
5
140
0.125
171
1
172
0
173
1
174
0
175
1
176
1
 91
1
178
0
145
0.0
170
1
171
1
172
0
173
0
174
0
175
1
176
1
 91
33
178
0
145
0.0
301
CELL_VALUE
 90
4
  1
Body Features
304
ACVALUE_END
170
5
140
0.125
171
1
172
0
173
0
174
0
175
2
176
1
 91
33
178
0
145
0.0
301
CELL_VALUE
 90
4
  1
Cross port with make up checks
304
ACVALUE_END
170
5
140
0.125
171
1
172
0
173
1
174
0
175
1
176
1
 91
1
178
0
145
0.0
170
1
171
1
172
0
173
0
174
0
175
1
176
1
 91
33
178
0
145
0.0
301
CELL_VALUE
 90
4
  1
Body Type
304
ACVALUE_END
170
5
140
0.125
171
1
172
0
173
0
174
0
175
2
176
1
 91
33
178
0
145
0.0
301
CELL_VALUE
 90
4
  1
Line mount
304
ACVALUE_END
170
5
140
0.125
171
1
172
0
173
1
174
0
175
1
176
1
 91
1
178
0
145
0.0
170
1
171
1
172
0
173
0
174
0
175
1
176
1
 91
33
178
0
145
0.0
301
CELL_VALUE
 90
4
  1
Interface
304
ACVALUE_END
170
5
140
0.125
171
1
172
0
173
0
174
0
175
2
176
1
 91
33
178
0
145
0.0
301
CELL_VALUE
 90
4
  1
None
304
ACVALUE_END
170
5
140
0.125
171
1
172
0
173
1
174
0
175
1
176
1
 91
1
178
0
145
0.0
170
1
171
1
172
0
173
0
174
0
175
1
176
1
 91
33
178
0
145
0.0
301
CELL_VALUE
 90
4
  1
Open Cavity Quantity
304
ACVALUE_END
170
5
140
0.125
171
1
172
0
173
0
174
0
175
2
176
1
 91
33
178
0
145
0.0
301
CELL_VALUE
 90
4
  1
2
304
ACVALUE_END
170
5
140
0.125
171
1
172
0
173
1
174
0
175
1
176
1
 91
1
178
0
145
0.0
170
1
171
1
172
0
173
0
174
0
175
1
176
1
 91
33
178
0
145
0.0
301
CELL_VALUE
 90
4
  1
Weight
304
ACVALUE_END
170
5
140
0.125
171
1
172
0
173
0
174
0
175
1
176
1
 91
33
178
0
145
0.0
301
CELL_VALUE
 90
4
  1
8.103 lb.
304
ACVALUE_END
170
5
140
0.125
171
1
172
0
173
0
174
0
175
1
176
1
 91
33
178
0
145
0.0
301
CELL_VALUE
 90
4
  1
3,675 kg.
304
ACVALUE_END
170
5
140
0.125
171
1
172
0
173
0
174
0
175
1
176
1
 91
33
178
0
145
0.0
301
CELL_VALUE
 90
4
  1
Mounting Hole Diameter
304
ACVALUE_END
170
5
140
0.125
171
1
172
0
173
0
174
0
175
1
176
1
 91
33
178
0
145
0.0
301
CELL_VALUE
 90
4
  1
.42 in.
304
ACVALUE_END
170
5
140
0.125
171
1
172
0
173
0
174
0
175
1
176
1
 91
33
178
0
145
0.0
301
CELL_VALUE
 90
4
  1
10,7 mm
304
ACVALUE_END
170
5
140
0.125
171
1
172
0
173
0
174
0
175
1
176
1
 91
33
178
0
145
0.0
301
CELL_VALUE
 90
4
  1
Mounting Hole Depth
304
ACVALUE_END
170
5
140
0.125
171
1
172
0
173
0
174
0
175
2
176
1
 91
33
178
0
145
0.0
301
CELL_VALUE
 90
4
  1
Through
304
ACVALUE_END
170
5
140
0.125
171
1
172
0
173
1
174
0
175
1
176
1
 91
1
178
0
145
0.0
170
1
171
1
172
0
173
0
174
0
175
1
176
1
 91
33
178
0
145
0.0
301
CELL_VALUE
 90
4
  1
Mounting Hole Quantity
304
ACVALUE_END
170
5
140
0.125
171
1
172
0
173
0
174
0
175
2
176
1
 91
33
178
0
145
0.0
301
CELL_VALUE
 90
4
  1
2
304
ACVALUE_END
170
5
140
0.125
171
1
172
0
173
1
174
0
175
1
176
1
 91
1
178
0
145
0.0
170
1
171
1
172
0
173
0
174
0
175
1
176
1
 91
33
178
0
145
0.0
301
CELL_VALUE
 90
4
  1
Includes integral cartridge(s)
304
ACVALUE_END
170
5
140
0.125
171
1
172
0
173
0
174
0
175
2
176
1
 91
33
178
0
145
0.0
301
CELL_VALUE
 90
4
  1
Yes (see Included Components)
304
ACVALUE_END
170
5
140
0.125
171
1
172
0
173
1
174
0
175
1
176
1
 91
1
178
0
145
0.0
170
1
  0
ACAD_TABLE
  5
28E
100
AcDbEntity
  8
0
 62
2
  6
CONTINUOUS
100
AcDbBlockReference
  2
*T3
 10
0.52125
 20
1.459
 30
0.0
100
AcDbTable
342
       3A7
343
211
 11
1.0
 21
0.0
 31
0.0
 90
22
 91
3
 92
3
 93
16
 94
0
 95
0
 96
0
 41
0.05
141
0.34375
141
0.344
141
0.25
142
1.3
142
2.0
142
1.3
171
1
172
0
173
0
174
0
175
3
176
1
 91
33
178
0
145
0.0
301
CELL_VALUE
 90
4
  1
Port Headings
304
ACVALUE_END
170
5
140
0.145
171
1
172
0
173
1
174
0
175
1
176
1
 91
1
178
0
145
0.0
170
1
171
1
172
0
173
1
174
0
175
1
176
1
 91
1
178
0
145
0.0
170
1
171
1
172
0
173
0
174
0
175
1
176
1
 91
33
178
0
145
0.0
301
CELL_VALUE
 90
4
  1
Product
304
ACVALUE_END
170
5
140
0.145
171
1
172
0
173
0
174
0
175
1
176
1
 91
33
178
0
145
0.0
301
CELL_VALUE
 90
4
  1
Port
304
ACVALUE_END
170
5
140
0.145
171
1
172
0
173
0
174
0
175
1
176
1
 91
33
178
0
145
0.0
301
CELL_VALUE
 90
4
  1
Size
304
ACVALUE_END
170
5
140
0.145
171
1
172
0
173
0
174
0
175
1
176
1
 91
33
178
0
145
0.0
301
CELL_VALUE
 90
4
  1
IMY
304
ACVALUE_END
170
5
140
0.125
171
1
172
0
173
0
174
0
175
1
176
1
 91
33
178
0
145
0.0
301
CELL_VALUE
 90
4
  1
All Ports
304
ACVALUE_END
170
5
140
0.125
171
1
172
0
173
0
174
0
175
1
176
1
 91
33
178
0
145
0.0
301
CELL_VALUE
 90
4
  1
1 1/4" BSPP
304
ACVALUE_END
170
5
140
0.125
  0
MTEXT
  5
28F
100
AcDbEntity
  8
0
100
AcDbMText
 62
2
  6
CONTINUOUS
  7
STANDARD
 71
1
 72
1
 10
0.52125
 20
5.75995
 30
0.0
 11
1.0
 21
0.0
 31
0.0
 44
0.6
  3
Notes\P \P1. Important: Carefully consider\P   the maximum system pressure. The\P   pressure rating of the manifold is\P   dependent on the manifold material,\P   with the port type/size a secondary\P   consideration. Manifolds\P   constructed of alu
  3
minum are not\P   rated for pressures higher than\P   3000 psi (210 bar), regardless of\P   the port type/size specified.\P2. This drawing is for reference\P   only. It is generated by an\P   automated process and does not fall\P   under Sun's docume
  1
nt control\P   process.
 40
0.1
 41
3.04
  0
LINE
  5
290
100
AcDbEntity
  8
0
100
AcDbLine
 62
7
  6
CONTINUOUS
 10
0.30125
 20
0.30125
 11
0.30125
 21
16.69875
  0
LINE
  5
291
100
AcDbEntity
  8
0
100
AcDbLine
 62
7
  6
CONTINUOUS
 10
0.30125
 20
0.30125
 11
21.69875
 21
0.30125
  0
LINE
  5
292
100
AcDbEntity
  8
0
100
AcDbLine
 62
7
  6
CONTINUOUS
 10
0.30125
 20
16.69875
 11
21.69875
 21
16.69875
  0
LINE
  5
293
100
AcDbEntity
  8
0
100
AcDbLine
 62
7
  6
CONTINUOUS
 10
21.69875
 20
0.30125
 11
21.69875
 21
16.69875
  0
LINE
  5
294
100
AcDbEntity
  8
0
100
AcDbLine
 62
7
  6
CONTINUOUS
 10
9.4251853099
 20
11.5832900702
 11
8.2281482142
 21
10.4270409559
  0
LINE
  5
295
100
AcDbEntity
  8
0
100
AcDbLine
 62
7
  6
CONTINUOUS
 10
8.2281482142
 20
5.7181522737
 11
8.2281482142
 21
10.4270409559
  0
LINE
  5
296
100
AcDbEntity
  8
0
100
AcDbLine
 62
7
  6
CONTINUOUS
 10
8.2281482142
 20
5.7181522737
 11
12.5748146901
 21
5.4167099298
  0
LINE
  5
297
100
AcDbEntity
  8
0
100
AcDbLine
 62
4
  6
CONTINUOUS
 10
10.3715378479
 20
5.7752499105
 11
10.4439822875
 21
5.7702258716
  0
LINE
  5
298
100
AcDbEntity
  8
0
100
AcDbLine
 62
4
  6
CONTINUOUS
 10
8.5372443101
 20
6.8394066693
 11
8.5734665299
 21
6.7209835464
  0
LINE
  5
299
100
AcDbEntity
  8
0
100
AcDbLine
 62
4
  6
CONTINUOUS
 10
8.4213332067
 20
6.8474451316
 11
8.4213332067
 21
6.7315340282
  0
LINE
  5
29A
100
AcDbEntity
  8
0
100
AcDbLine
 62
4
  6
CONTINUOUS
 10
8.4792887584
 20
9.3596628252
 11
8.4792887584
 21
9.3403443125
  0
LINE
  5
29B
100
AcDbEntity
  8
0
100
AcDbLine
 62
4
  6
CONTINUOUS
 10
8.4285776507
 20
9.2955648444
 11
8.4213332067
 21
9.2670894724
  0
LINE
  5
29C
100
AcDbEntity
  8
0
100
AcDbLine
 62
4
  6
CONTINUOUS
 10
8.5299998662
 20
9.259553414
 11
8.566222086
 21
9.372952498
  0
LINE
  5
29D
100
AcDbEntity
  8
0
100
AcDbLine
 62
4
  6
CONTINUOUS
 10
8.4213332067
 20
9.3636820563
 11
8.4285776507
 21
9.3728389157
  0
LINE
  5
29E
100
AcDbEntity
  8
0
100
AcDbLine
 62
4
  6
CONTINUOUS
 10
8.4430665386
 20
9.3138785527
 11
8.4285776507
 21
9.2955648444
  0
LINE
  5
29F
100
AcDbEntity
  8
0
100
AcDbLine
 62
4
  6
CONTINUOUS
 10
8.4792887584
 20
9.3403443125
 11
8.4720443144
 21
9.3311874532
  0
LINE
  5
2A0
100
AcDbEntity
  8
0
100
AcDbLine
 62
4
  6
CONTINUOUS
 10
9.069469714
 20
9.943687723
 11
9.069469714
 21
9.88573217
  0
LINE
  5
2A1
100
AcDbEntity
  8
0
100
AcDbLine
 62
4
  6
CONTINUOUS
 10
8.4285776507
 20
9.3728389157
 11
8.4430665386
 21
9.3814933642
  0
LINE
  5
2A2
100
AcDbEntity
  8
0
100
AcDbLine
 62
4
  6
CONTINUOUS
 10
8.4720443144
 20
9.3311874532
 11
8.4430665386
 21
9.3138785527
  0
LINE
  5
2A3
100
AcDbEntity
  8
0
100
AcDbLine
 62
4
  6
CONTINUOUS
 10
12.2681332145
 20
6.4647575416
 11
12.3188443223
 21
6.4612407143
  0
LINE
  5
2A4
100
AcDbEntity
  8
0
100
AcDbLine
 62
4
  6
CONTINUOUS
 10
8.5155109782
 20
6.7636398132
 11
8.558977642
 21
6.7606253898
  0
LINE
  5
2A5
100
AcDbEntity
  8
0
100
AcDbLine
 62
4
  6
CONTINUOUS
 10
8.566222086
 20
9.372952498
 11
8.6024443058
 21
9.2545293751
  0
LINE
  5
2A6
100
AcDbEntity
  8
0
100
AcDbLine
 62
4
  6
CONTINUOUS
 10
9.127425267
 20
9.8817129387
 11
9.127425267
 21
9.8237573857
  0
LINE
  5
2A7
100
AcDbEntity
  8
0
100
AcDbLine
 62
4
  6
CONTINUOUS
 10
9.1564030436
 20
9.8217477701
 11
9.1564030436
 21
9.9376588761
  0
LINE
  5
2A8
100
AcDbEntity
  8
0
100
AcDbLine
 62
4
  6
CONTINUOUS
 10
9.2037334176
 20
9.2273187568
 11
9.2037334176
 21
9.3432298628
  0
LINE
  5
2A9
100
AcDbEntity
  8
0
100
AcDbLine
 62
4
  6
CONTINUOUS
 10
9.2143585966
 20
9.9336396448
 11
9.2143585966
 21
9.8177285388
  0
LINE
  5
2AA
100
AcDbEntity
  8
0
100
AcDbLine
 62
4
  6
CONTINUOUS
 10
9.2433363731
 20
9.9316300292
 11
9.2433363731
 21
9.8157189232
  0
LINE
  5
2AB
100
AcDbEntity
  8
0
100
AcDbLine
 62
4
  6
CONTINUOUS
 10
9.2616889637
 20
9.3226519036
 11
9.2616889637
 21
9.2398582562
  0
LINE
  5
2AC
100
AcDbEntity
  8
0
100
AcDbLine
 62
4
  6
CONTINUOUS
 10
9.3012919261
 20
9.927610798
 11
9.3012919261
 21
9.8116996919
  0
LINE
  5
2AD
100
AcDbEntity
  8
0
100
AcDbLine
 62
4
  6
CONTINUOUS
 10
9.3086053644
 20
9.2200458626
 11
9.3417228213
 21
9.3336602651
  0
LINE
  5
2AE
100
AcDbEntity
  8
0
100
AcDbLine
 62
4
  6
CONTINUOUS
 10
8.5010220903
 20
6.7260075853
 11
8.5372443101
 21
6.8394066693
  0
LINE
  5
2AF
100
AcDbEntity
  8
0
100
AcDbLine
 62
4
  6
CONTINUOUS
 10
9.5956233403
 20
9.5048217204
 11
9.6287408041
 21
9.5687599337
  0
LINE
  5
2B0
100
AcDbEntity
  8
0
100
AcDbLine
 62
4
  6
CONTINUOUS
 10
9.6949757179
 20
9.5144903415
 11
9.7280931748
 21
9.5618698234
  0
LINE
  5
2B1
100
AcDbEntity
  8
0
100
AcDbLine
 62
4
  6
CONTINUOUS
 10
9.2616889637
 20
9.2398582562
 11
9.2451302353
 21
9.2244478777
  0
LINE
  5
2B2
100
AcDbEntity
  8
0
100
AcDbLine
 62
4
  6
CONTINUOUS
 10
12.2681332145
 20
6.5323723496
 11
12.3188443223
 21
6.5288555223
  0
LINE
  5
2B3
100
AcDbEntity
  8
0
100
AcDbLine
 62
4
  6
CONTINUOUS
 10
12.3188443223
 20
6.5771518177
 11
12.2681332145
 21
6.580668645
  0
LINE
  5
2B4
100
AcDbEntity
  8
0
100
AcDbLine
 62
4
  6
CONTINUOUS
 10
9.4172030321
 20
9.8036612294
 11
9.4172030321
 21
9.9195723355
  0
LINE
  5
2B5
100
AcDbEntity
  8
0
100
AcDbLine
 62
4
  6
CONTINUOUS
 10
9.4410752058
 20
9.2108590479
 11
9.4410752058
 21
9.3267701539
  0
LINE
  5
2B6
100
AcDbEntity
  8
0
100
AcDbLine
 62
4
  6
CONTINUOUS
 10
9.4751585851
 20
9.7996419982
 11
9.4751585851
 21
9.8575975512
  0
LINE
  5
2B7
100
AcDbEntity
  8
0
100
AcDbLine
 62
4
  6
CONTINUOUS
 10
9.5073101196
 20
9.206265641
 11
9.5073101196
 21
9.322176747
  0
LINE
  5
2B8
100
AcDbEntity
  8
0
100
AcDbLine
 62
4
  6
CONTINUOUS
 10
9.5100699083
 20
9.4610786822
 11
9.5100699083
 21
9.5769897883
  0
LINE
  5
2B9
100
AcDbEntity
  8
0
100
AcDbLine
 62
4
  6
CONTINUOUS
 10
9.5224889534
 20
9.796359626
 11
9.5224889534
 21
9.854315179
  0
LINE
  5
2BA
100
AcDbEntity
  8
0
100
AcDbLine
 62
4
  6
CONTINUOUS
 10
9.5625058834
 20
9.457442235
 11
9.5625058834
 21
9.573353341
  0
LINE
  5
2BB
100
AcDbEntity
  8
0
100
AcDbLine
 62
4
  6
CONTINUOUS
 10
9.5804445064
 20
9.8502959478
 11
9.5804445064
 21
9.7343848417
  0
LINE
  5
2BC
100
AcDbEntity
  8
0
100
AcDbLine
 62
4
  6
CONTINUOUS
 10
9.6190815418
 20
9.7896609072
 11
9.6190815418
 21
9.8476164603
  0
LINE
  5
2BD
100
AcDbEntity
  8
0
100
AcDbLine
 62
4
  6
CONTINUOUS
 10
9.6287408041
 20
9.5687599337
 11
9.6287408041
 21
9.4528488277
  0
LINE
  5
2BE
100
AcDbEntity
  8
0
100
AcDbLine
 62
4
  6
CONTINUOUS
 10
9.6811768062
 20
9.2935603229
 11
9.6977355278
 21
9.3089707001
  0
LINE
  5
2BF
100
AcDbEntity
  8
0
100
AcDbLine
 62
4
  6
CONTINUOUS
 10
9.7777693578
 20
9.2868616067
 11
9.7943280793
 21
9.3022719839
  0
LINE
  5
2C0
100
AcDbEntity
  8
0
100
AcDbLine
 62
4
  6
CONTINUOUS
 10
9.1816551096
 20
9.3006043895
 11
9.1374984969
 21
9.2815883529
  0
LINE
  5
2C1
100
AcDbEntity
  8
0
100
AcDbLine
 62
4
  6
CONTINUOUS
 10
8.4720443144
 20
9.3698244923
 11
8.4792887584
 21
9.3596628252
  0
LINE
  5
2C2
100
AcDbEntity
  8
0
100
AcDbLine
 62
4
  6
CONTINUOUS
 10
9.3417228213
 20
9.3336602651
 11
9.374840292
 21
9.2154524547
  0
LINE
  5
2C3
100
AcDbEntity
  8
0
100
AcDbLine
 62
4
  6
CONTINUOUS
 10
9.6770370948
 20
9.901552782
 11
9.6770370948
 21
9.785641676
  0
LINE
  5
2C4
100
AcDbEntity
  8
0
100
AcDbLine
 62
4
  6
CONTINUOUS
 10
9.6811768062
 20
9.2107666755
 11
9.6811768062
 21
9.2935603229
  0
LINE
  5
2C5
100
AcDbEntity
  8
0
100
AcDbLine
 62
4
  6
CONTINUOUS
 10
9.6949757179
 20
9.5144903415
 11
9.6949757179
 21
9.4482554208
  0
LINE
  5
2C6
100
AcDbEntity
  8
0
100
AcDbLine
 62
4
  6
CONTINUOUS
 10
9.7156741301
 20
9.8409177415
 11
9.7156741301
 21
9.7829621885
  0
LINE
  5
2C7
100
AcDbEntity
  8
0
100
AcDbLine
 62
4
  6
CONTINUOUS
 10
9.7777693578
 20
9.2040679593
 11
9.7777693578
 21
9.2868616067
  0
LINE
  5
2C8
100
AcDbEntity
  8
0
100
AcDbLine
 62
4
  6
CONTINUOUS
 10
9.8122667185
 20
9.7762634697
 11
9.8122667185
 21
9.8149005051
  0
LINE
  5
2C9
100
AcDbEntity
  8
0
100
AcDbLine
 62
4
  6
CONTINUOUS
 10
9.8357249108
 20
9.2828423754
 11
9.8357249108
 21
9.200048728
  0
LINE
  5
2CA
100
AcDbEntity
  8
0
100
AcDbLine
 62
4
  6
CONTINUOUS
 10
9.8688423538
 20
9.1811932954
 11
9.8688423538
 21
9.2971044014
  0
LINE
  5
2CB
100
AcDbEntity
  8
0
100
AcDbLine
 62
4
  6
CONTINUOUS
 10
9.8702222715
 20
9.8301997915
 11
9.8702222715
 21
9.7722442385
  0
LINE
  5
2CC
100
AcDbEntity
  8
0
100
AcDbLine
 62
4
  6
CONTINUOUS
 10
9.9088593068
 20
9.827520304
 11
9.9088593068
 21
9.769564751
  0
LINE
  5
2CD
100
AcDbEntity
  8
0
100
AcDbLine
 62
4
  6
CONTINUOUS
 10
9.9267979068
 20
9.2765264417
 11
9.9267979068
 21
9.1937327943
  0
LINE
  5
2CE
100
AcDbEntity
  8
0
100
AcDbLine
 62
4
  6
CONTINUOUS
 10
9.8357249108
 20
9.200048728
 11
9.8191661892
 21
9.1846383491
  0
LINE
  5
2CF
100
AcDbEntity
  8
0
100
AcDbLine
 62
4
  6
CONTINUOUS
 10
9.9267979068
 20
9.1937327943
 11
9.9102391853
 21
9.1783224154
  0
LINE
  5
2D0
100
AcDbEntity
  8
0
100
AcDbLine
 62
4
  6
CONTINUOUS
 10
9.9668148598
 20
9.7655455197
 11
9.9668148598
 21
9.8235010727
  0
LINE
  5
2D1
100
AcDbEntity
  8
0
100
AcDbLine
 62
4
  6
CONTINUOUS
 10
9.973714349
 20
9.1739203978
 11
9.973714349
 21
9.2898315038
  0
LINE
  5
2D2
100
AcDbEntity
  8
0
100
AcDbLine
 62
4
  6
CONTINUOUS
 10
10.0054518952
 20
9.7628660322
 11
10.0054518952
 21
9.8787771383
  0
LINE
  5
2D3
100
AcDbEntity
  8
0
100
AcDbLine
 62
4
  6
CONTINUOUS
 10
10.0440889305
 20
9.7601865447
 11
10.0440889305
 21
9.8181420977
  0
LINE
  5
2D4
100
AcDbEntity
  8
0
100
AcDbLine
 62
4
  6
CONTINUOUS
 10
10.0827259659
 20
9.8154626102
 11
10.0827259659
 21
9.7575070572
  0
LINE
  5
2D5
100
AcDbEntity
  8
0
100
AcDbLine
 62
4
  6
CONTINUOUS
 10
10.1793185542
 20
9.8087638915
 11
10.1793185542
 21
9.779786115
  0
LINE
  5
2D6
100
AcDbEntity
  8
0
100
AcDbLine
 62
4
  6
CONTINUOUS
 10
10.1006645659
 20
9.2147925592
 11
10.0565079567
 21
9.1957765241
  0
LINE
  5
2D7
100
AcDbEntity
  8
0
100
AcDbLine
 62
4
  6
CONTINUOUS
 10
8.4575554265
 20
9.3804885564
 11
8.4720443144
 21
9.3698244923
  0
LINE
  5
2D8
100
AcDbEntity
  8
0
100
AcDbLine
 62
4
  6
CONTINUOUS
 10
9.5625058834
 20
9.573353341
 11
9.5956233403
 21
9.5048217204
  0
LINE
  5
2D9
100
AcDbEntity
  8
0
100
AcDbLine
 62
4
  6
CONTINUOUS
 10
10.2372741072
 20
9.7757668837
 11
10.2372741072
 21
9.7467891072
  0
LINE
  5
2DA
100
AcDbEntity
  8
0
100
AcDbLine
 62
4
  6
CONTINUOUS
 10
10.4077600677
 20
5.772737891
 11
10.4077600677
 21
5.6568267876
  0
LINE
  5
2DB
100
AcDbEntity
  8
0
100
AcDbLine
 62
4
  6
CONTINUOUS
 10
9.2451302353
 20
9.3403589837
 11
9.2616889637
 21
9.3226519036
  0
LINE
  5
2DC
100
AcDbEntity
  8
0
100
AcDbLine
 62
4
  6
CONTINUOUS
 10
9.661858261
 20
9.5664632303
 11
9.6949757179
 21
9.5144903415
  0
LINE
  5
2DD
100
AcDbEntity
  8
0
100
AcDbLine
 62
4
  6
CONTINUOUS
 10
9.1374984969
 20
9.2815883529
 11
9.1816551096
 21
9.2564477751
  0
LINE
  5
2DE
100
AcDbEntity
  8
0
100
AcDbLine
 62
4
  6
CONTINUOUS
 10
9.6977355278
 20
9.1930595941
 11
9.6811768062
 21
9.2107666755
  0
LINE
  5
2DF
100
AcDbEntity
  8
0
100
AcDbLine
 62
4
  6
CONTINUOUS
 10
9.7943280793
 20
9.1863608779
 11
9.7777693578
 21
9.2040679593
  0
LINE
  5
2E0
100
AcDbEntity
  8
0
100
AcDbLine
 62
4
  6
CONTINUOUS
 10
9.8191661892
 20
9.3005494551
 11
9.8357249108
 21
9.2828423754
  0
LINE
  5
2E1
100
AcDbEntity
  8
0
100
AcDbLine
 62
4
  6
CONTINUOUS
 10
9.9102391853
 20
9.2942335214
 11
9.9267979068
 21
9.2765264417
  0
LINE
  5
2E2
100
AcDbEntity
  8
0
100
AcDbLine
 62
7
  6
CONTINUOUS
 10
12.5748146901
 20
10.125598612
 11
13.7718517858
 21
11.2818477263
  0
LINE
  5
2E3
100
AcDbEntity
  8
0
100
AcDbLine
 62
4
  6
CONTINUOUS
 10
12.3333332102
 20
6.5085321984
 11
12.3188443223
 21
6.5288555223
  0
LINE
  5
2E4
100
AcDbEntity
  8
0
100
AcDbLine
 62
4
  6
CONTINUOUS
 10
12.3260887662
 20
6.5669901575
 11
12.3188443223
 21
6.5771518177
  0
LINE
  5
2E5
100
AcDbEntity
  8
0
100
AcDbLine
 62
4
  6
CONTINUOUS
 10
12.1956887749
 20
9.1115888719
 11
12.2101776628
 21
9.1202433204
  0
LINE
  5
2E6
100
AcDbEntity
  8
0
100
AcDbLine
 62
4
  6
CONTINUOUS
 10
12.2391554387
 20
9.0699374094
 11
12.2101776628
 21
9.0526285089
  0
LINE
  5
2E7
100
AcDbEntity
  8
0
100
AcDbLine
 62
4
  6
CONTINUOUS
 10
10.0565079567
 20
9.2399331385
 11
10.1006645659
 21
9.2147925592
  0
LINE
  5
2E8
100
AcDbEntity
  8
0
100
AcDbLine
 62
4
  6
CONTINUOUS
 10
12.1884443309
 20
9.1024320125
 11
12.1956887749
 21
9.1115888719
  0
LINE
  5
2E9
100
AcDbEntity
  8
0
100
AcDbLine
 62
4
  6
CONTINUOUS
 10
8.4213332067
 20
9.2670894724
 11
8.4792887584
 21
9.2630702413
  0
LINE
  5
2EA
100
AcDbEntity
  8
0
100
AcDbLine
 62
4
  6
CONTINUOUS
 10
12.1884443309
 20
9.0058394286
 11
12.2463998826
 21
9.0018201975
  0
LINE
  5
2EB
100
AcDbEntity
  8
0
100
AcDbLine
 62
4
  6
CONTINUOUS
 10
12.2971109904
 20
8.9983033702
 11
12.3478220981
 21
8.9947865429
  0
LINE
  5
2EC
100
AcDbEntity
  8
0
100
AcDbLine
 62
4
  6
CONTINUOUS
 10
12.2101776628
 20
9.0526285089
 11
12.1956887749
 21
9.0343148006
  0
LINE
  5
2ED
100
AcDbEntity
  8
0
100
AcDbLine
 62
4
  6
CONTINUOUS
 10
12.2463998826
 20
9.0790942687
 11
12.2391554387
 21
9.0699374094
  0
LINE
  5
2EE
100
AcDbEntity
  8
0
100
AcDbLine
 62
4
  6
CONTINUOUS
 10
12.3478220981
 20
9.062401351
 11
12.3550665421
 21
9.0715582103
  0
LINE
  5
2EF
100
AcDbEntity
  8
0
100
AcDbLine
 62
4
  6
CONTINUOUS
 10
12.3478220981
 20
8.9947865429
 11
12.3623109861
 21
9.013100253
  0
LINE
  5
2F0
100
AcDbEntity
  8
0
100
AcDbLine
 62
4
  6
CONTINUOUS
 10
9.9102391853
 20
9.1783224154
 11
9.8688423538
 21
9.1811932954
  0
LINE
  5
2F1
100
AcDbEntity
  8
0
100
AcDbLine
 62
4
  6
CONTINUOUS
 10
9.8191661892
 20
9.1846383491
 11
9.7943280793
 21
9.1863608779
  0
LINE
  5
2F2
100
AcDbEntity
  8
0
100
AcDbLine
 62
4
  6
CONTINUOUS
 10
9.7308529709
 20
9.1907628916
 11
9.6977355278
 21
9.1930595941
  0
LINE
  5
2F3
100
AcDbEntity
  8
0
100
AcDbLine
 62
4
  6
CONTINUOUS
 10
9.2451302353
 20
9.2244478777
 11
9.2037334176
 21
9.2273187568
  0
LINE
  5
2F4
100
AcDbEntity
  8
0
100
AcDbLine
 62
4
  6
CONTINUOUS
 10
9.5073101196
 20
9.206265641
 11
9.5569863118
 21
9.2028205854
  0
LINE
  5
2F5
100
AcDbEntity
  8
0
100
AcDbLine
 62
4
  6
CONTINUOUS
 10
9.973714349
 20
9.1739203978
 11
10.0233905136
 21
9.1704753441
  0
LINE
  5
2F6
100
AcDbEntity
  8
0
100
AcDbLine
 62
4
  6
CONTINUOUS
 10
8.5444887541
 20
9.2971856418
 11
8.5879554179
 21
9.2941712185
  0
LINE
  5
2F7
100
AcDbEntity
  8
0
100
AcDbLine
 62
4
  6
CONTINUOUS
 10
9.3196445167
 20
9.2523977551
 11
9.3638011259
 21
9.2493354838
  0
LINE
  5
2F8
100
AcDbEntity
  8
0
100
AcDbLine
 62
4
  6
CONTINUOUS
 10
12.2971109904
 20
9.0659181782
 11
12.3478220981
 21
9.062401351
  0
LINE
  5
2F9
100
AcDbEntity
  8
0
100
AcDbLine
 62
4
  6
CONTINUOUS
 10
10.0068317921
 20
9.237858616
 11
9.973714349
 21
9.2401553185
  0
LINE
  5
2FA
100
AcDbEntity
  8
0
100
AcDbLine
 62
4
  6
CONTINUOUS
 10
9.5404275903
 20
9.2702038573
 11
9.5073101196
 21
9.2725005617
  0
LINE
  5
2FB
100
AcDbEntity
  8
0
100
AcDbLine
 62
4
  6
CONTINUOUS
 10
12.3478220981
 20
9.1106976464
 11
12.2971109904
 21
9.1142144736
  0
LINE
  5
2FC
100
AcDbEntity
  8
0
100
AcDbLine
 62
4
  6
CONTINUOUS
 10
8.4430665386
 20
9.3814933642
 11
8.4575554265
 21
9.3804885564
  0
LINE
  5
2FD
100
AcDbEntity
  8
0
100
AcDbLine
 62
4
  6
CONTINUOUS
 10
12.2101776628
 20
9.1202433204
 11
12.2246665507
 21
9.1192385126
  0
LINE
  5
2FE
100
AcDbEntity
  8
0
100
AcDbLine
 62
4
  6
CONTINUOUS
 10
9.2037334176
 20
9.3432298628
 11
9.2451302353
 21
9.3403589837
  0
LINE
  5
2FF
100
AcDbEntity
  8
0
100
AcDbLine
 62
4
  6
CONTINUOUS
 10
9.4079577351
 20
9.3290668583
 11
9.4741926489
 21
9.3244734514
  0
LINE
  5
300
100
AcDbEntity
  8
0
100
AcDbLine
 62
4
  6
CONTINUOUS
 10
9.5073101196
 20
9.322176747
 11
9.5569863118
 21
9.3187316914
  0
LINE
  5
301
100
AcDbEntity
  8
0
100
AcDbLine
 62
4
  6
CONTINUOUS
 10
9.6977355278
 20
9.3089707001
 11
9.7308529709
 21
9.3066739976
  0
LINE
  5
302
100
AcDbEntity
  8
0
100
AcDbLine
 62
4
  6
CONTINUOUS
 10
9.7943280793
 20
9.3022719839
 11
9.8191661892
 21
9.3005494551
  0
LINE
  5
303
100
AcDbEntity
  8
0
100
AcDbLine
 62
4
  6
CONTINUOUS
 10
9.8688423538
 20
9.2971044014
 11
9.9102391853
 21
9.2942335214
  0
LINE
  5
304
100
AcDbEntity
  8
0
100
AcDbLine
 62
4
  6
CONTINUOUS
 10
9.973714349
 20
9.2898315038
 11
10.0233905136
 21
9.2863864501
  0
LINE
  5
305
100
AcDbEntity
  8
0
100
AcDbLine
 62
4
  6
CONTINUOUS
 10
12.1956887749
 20
9.0343148006
 11
12.1884443309
 21
9.0058394286
  0
LINE
  5
306
100
AcDbEntity
  8
0
100
AcDbLine
 62
4
  6
CONTINUOUS
 10
9.5804445064
 20
9.7343848417
 11
9.5418074711
 21
9.7370643292
  0
LINE
  5
307
100
AcDbEntity
  8
0
100
AcDbLine
 62
4
  6
CONTINUOUS
 10
12.1884443309
 20
6.5861950878
 11
12.1884443309
 21
6.4702839844
  0
LINE
  5
308
100
AcDbEntity
  8
0
100
AcDbLine
 62
4
  6
CONTINUOUS
 10
12.2463998826
 20
9.0984127814
 11
12.2463998826
 21
9.0790942687
  0
LINE
  5
309
100
AcDbEntity
  8
0
100
AcDbLine
 62
4
  6
CONTINUOUS
 10
12.2681332145
 20
6.580668645
 11
12.2681332145
 21
6.4647575416
  0
LINE
  5
30A
100
AcDbEntity
  8
0
100
AcDbLine
 62
4
  6
CONTINUOUS
 10
12.2971109904
 20
9.1142144736
 11
12.2971109904
 21
8.9983033702
  0
LINE
  5
30B
100
AcDbEntity
  8
0
100
AcDbLine
 62
4
  6
CONTINUOUS
 10
12.3260887662
 20
6.5380123816
 11
12.3260887662
 21
6.5669901575
  0
LINE
  5
30C
100
AcDbEntity
  8
0
100
AcDbLine
 62
4
  6
CONTINUOUS
 10
12.3333332102
 20
6.4795544243
 11
12.3333332102
 21
6.5085321984
  0
LINE
  5
30D
100
AcDbEntity
  8
0
100
AcDbLine
 62
4
  6
CONTINUOUS
 10
12.3550665421
 20
9.0715582103
 11
12.3550665421
 21
9.1005359862
  0
LINE
  5
30E
100
AcDbEntity
  8
0
100
AcDbLine
 62
4
  6
CONTINUOUS
 10
12.3623109861
 20
9.013100253
 11
12.3623109861
 21
9.0420780271
  0
LINE
  5
30F
100
AcDbEntity
  8
0
100
AcDbLine
 62
4
  6
CONTINUOUS
 10
10.2372741072
 20
9.7467891072
 11
10.1793185542
 21
9.7508083385
  0
LINE
  5
310
100
AcDbEntity
  8
0
100
AcDbLine
 62
4
  6
CONTINUOUS
 10
9.8702222715
 20
9.7722442385
 11
9.8122667185
 21
9.7762634697
  0
LINE
  5
311
100
AcDbEntity
  8
0
100
AcDbLine
 62
4
  6
CONTINUOUS
 10
9.6770370948
 20
9.785641676
 11
9.6190815418
 21
9.7896609072
  0
LINE
  5
312
100
AcDbEntity
  8
0
100
AcDbLine
 62
4
  6
CONTINUOUS
 10
9.5804445064
 20
9.7923403947
 11
9.5224889534
 21
9.796359626
  0
LINE
  5
313
100
AcDbEntity
  8
0
100
AcDbLine
 62
4
  6
CONTINUOUS
 10
9.2143585966
 20
9.8177285388
 11
9.1564030436
 21
9.8217477701
  0
LINE
  5
314
100
AcDbEntity
  8
0
100
AcDbLine
 62
4
  6
CONTINUOUS
 10
9.127425267
 20
9.8237573857
 11
9.069469714
 21
9.827776617
  0
LINE
  5
315
100
AcDbEntity
  8
0
100
AcDbLine
 62
4
  6
CONTINUOUS
 10
9.9088593068
 20
9.769564751
 11
9.9668148598
 21
9.7655455197
  0
LINE
  5
316
100
AcDbEntity
  8
0
100
AcDbLine
 62
4
  6
CONTINUOUS
 10
10.0827259659
 20
9.7575070572
 11
10.1406815189
 21
9.753487826
  0
LINE
  5
317
100
AcDbEntity
  8
0
100
AcDbLine
 62
4
  6
CONTINUOUS
 10
10.1793185542
 20
9.779786115
 11
10.2372741072
 21
9.7757668837
  0
LINE
  5
318
100
AcDbEntity
  8
0
100
AcDbLine
 62
4
  6
CONTINUOUS
 10
9.8122667185
 20
9.8149005051
 11
9.8702222715
 21
9.8108812738
  0
LINE
  5
319
100
AcDbEntity
  8
0
100
AcDbLine
 62
4
  6
CONTINUOUS
 10
9.8702222715
 20
9.8301997915
 11
9.8315852361
 21
9.832879279
  0
LINE
  5
31A
100
AcDbEntity
  8
0
100
AcDbLine
 62
4
  6
CONTINUOUS
 10
9.4751585851
 20
9.8575975512
 11
9.4172030321
 21
9.8616167825
  0
LINE
  5
31B
100
AcDbEntity
  8
0
100
AcDbLine
 62
4
  6
CONTINUOUS
 10
9.069469714
 20
9.88573217
 11
9.127425267
 21
9.8817129387
  0
LINE
  5
31C
100
AcDbEntity
  8
0
100
AcDbLine
 62
4
  6
CONTINUOUS
 10
9.6190815418
 20
9.8476164603
 11
9.6770370948
 21
9.843597229
  0
LINE
  5
31D
100
AcDbEntity
  8
0
100
AcDbLine
 62
4
  6
CONTINUOUS
 10
9.7156741301
 20
9.8409177415
 11
9.7736296831
 21
9.8368985103
  0
LINE
  5
31E
100
AcDbEntity
  8
0
100
AcDbLine
 62
4
  6
CONTINUOUS
 10
10.0827259659
 20
9.8154626102
 11
10.1406815189
 21
9.811443379
  0
LINE
  5
31F
100
AcDbEntity
  8
0
100
AcDbLine
 62
4
  6
CONTINUOUS
 10
10.1793185542
 20
9.8087638915
 11
10.2372741072
 21
9.8047446602
  0
LINE
  5
320
100
AcDbEntity
  8
0
100
AcDbLine
 62
4
  6
CONTINUOUS
 10
10.0368444864
 20
9.8476222782
 11
10.0513333746
 21
9.8466174703
  0
LINE
  5
321
100
AcDbEntity
  8
0
100
AcDbLine
 62
4
  6
CONTINUOUS
 10
9.127425267
 20
9.9396684917
 11
9.069469714
 21
9.943687723
  0
LINE
  5
322
100
AcDbEntity
  8
0
100
AcDbLine
 62
4
  6
CONTINUOUS
 10
9.2433363731
 20
9.9316300292
 11
9.3012919261
 21
9.927610798
  0
LINE
  5
323
100
AcDbEntity
  8
0
100
AcDbLine
 62
4
  6
CONTINUOUS
 10
12.2246665507
 20
9.1192385126
 11
12.2391554387
 21
9.1085744485
  0
LINE
  5
324
100
AcDbEntity
  8
0
100
AcDbLine
 62
4
  6
CONTINUOUS
 10
12.2391554387
 20
9.1085744485
 11
12.2463998826
 21
9.0984127814
  0
LINE
  5
325
100
AcDbEntity
  8
0
100
AcDbLine
 62
7
  6
CONTINUOUS
 10
12.5748146901
 20
5.4167099298
 11
12.5748146901
 21
10.125598612
  0
LINE
  5
326
100
AcDbEntity
  8
0
100
AcDbLine
 62
4
  6
CONTINUOUS
 10
12.3623109861
 20
9.0420780271
 11
12.3478220981
 21
9.062401351
  0
LINE
  5
327
100
AcDbEntity
  8
0
100
AcDbLine
 62
4
  6
CONTINUOUS
 10
12.3550665421
 20
9.1005359862
 11
12.3478220981
 21
9.1106976464
  0
LINE
  5
328
100
AcDbEntity
  8
0
100
AcDbLine
 62
7
  6
CONTINUOUS
 10
8.2281482142
 20
10.4270409559
 11
12.5748146901
 21
10.125598612
  0
LINE
  5
329
100
AcDbEntity
  8
0
100
AcDbLine
 62
4
  6
CONTINUOUS
 10
12.3188443223
 20
6.5288555223
 11
12.3260887662
 21
6.5380123816
  0
LINE
  5
32A
100
AcDbEntity
  8
0
100
AcDbLine
 62
4
  6
CONTINUOUS
 10
12.3188443223
 20
6.4612407143
 11
12.3333332102
 21
6.4795544243
  0
LINE
  5
32B
100
AcDbEntity
  8
0
100
AcDbLine
 62
7
  6
CONTINUOUS
 10
13.7718517858
 20
6.5729590441
 11
13.7718517858
 21
11.2818477263
  0
LINE
  5
32C
100
AcDbEntity
  8
0
100
AcDbLine
 62
7
  6
CONTINUOUS
 10
13.7718517858
 20
11.2818477263
 11
9.4251853099
 21
11.5832900702
  0
LINE
  5
32D
100
AcDbEntity
  8
0
100
AcDbLine
 62
7
  6
CONTINUOUS
 10
12.5748146901
 20
5.4167099298
 11
13.7718517858
 21
6.5729590441
  0
ARC
  5
32E
100
AcDbEntity
  8
0
100
AcDbCircle
 62
7
  6
CONTINUOUS
 10
7.8527726386
 20
7.7004255407
 40
2.461838561
100
AcDbArc
 50
349.6913740032
 51
350.4215256002
  0
ARC
  5
32F
100
AcDbEntity
  8
0
100
AcDbCircle
 62
7
  6
CONTINUOUS
 10
8.0496656796
 20
7.6794085002
 40
2.2737242645
100
AcDbArc
 50
349.3388423692
 51
349.7145724264
  0
ARC
  5
330
100
AcDbEntity
  8
0
100
AcDbCircle
 62
7
  6
CONTINUOUS
 10
11.8175131784
 20
9.4302937623
 40
0.5994163371
100
AcDbArc
 50
175.136235562
 51
180.0069676821
  0
ARC
  5
331
100
AcDbEntity
  8
0
100
AcDbCircle
 62
7
  6
CONTINUOUS
 10
10.2488494736
 20
7.7279699282
 40
0.5994163371
100
AcDbArc
 50
175.136235562
 51
180.0069676821
  0
ARC
  5
332
100
AcDbEntity
  8
0
100
AcDbCircle
 62
7
  6
CONTINUOUS
 10
11.8225985988
 20
9.4339676487
 40
0.5800068652
100
AcDbArc
 50
175.638730522
 51
180.0085476715
  0
ARC
  5
333
100
AcDbEntity
  8
0
100
AcDbCircle
 62
7
  6
CONTINUOUS
 10
10.2539348939
 20
7.7316438145
 40
0.5800068652
100
AcDbArc
 50
175.638730522
 51
180.0085476715
  0
ARC
  5
334
100
AcDbEntity
  8
0
100
AcDbCircle
 62
7
  6
CONTINUOUS
 10
11.8253679628
 20
9.4267986425
 40
0.4804363757
100
AcDbArc
 50
176.3798120336
 51
180.0017667696
  0
ARC
  5
335
100
AcDbEntity
  8
0
100
AcDbCircle
 62
7
  6
CONTINUOUS
 10
10.256704258
 20
7.7244748084
 40
0.4804363757
100
AcDbArc
 50
176.3798120336
 51
180.0017667696
  0
ARC
  5
336
100
AcDbEntity
  8
0
100
AcDbCircle
 62
7
  6
CONTINUOUS
 10
10.119510613
 20
7.7712938537
 40
0.3734435791
100
AcDbArc
 50
237.7354984961
 51
242.4370548789
  0
ARC
  5
337
100
AcDbEntity
  8
0
100
AcDbCircle
 62
7
  6
CONTINUOUS
 10
11.6738379268
 20
9.4437332575
 40
0.173050682
100
AcDbArc
 50
266.0496648757
 51
267.5807144545
  0
SPLINE
  5
338
100
AcDbEntity
  8
0
100
AcDbSpline
 62
7
  6
CONTINUOUS
 70
0
 71
3
 72
33
 73
29
 74
0
 42
0.0000001
 43
0.0000001
 44
0.0000000001
 40
0.0
 40
0.0
 40
0.0
 40
0.0
 40
0.0958348039
 40
0.1891069742
 40
0.2792500435
 40
0.36572131
 40
0.4480125246
 40
0.5256540669
 40
0.5625988158
 40
0.598226802
 40
0.632494146
 40
0.6653609288
 40
0.6967920316
 40
0.726757616
 40
0.7552336203
 40
0.7822031337
 40
0.8076567456
 40
0.8315949344
 40
0.8540288219
 40
0.8749836671
 40
0.8945009457
 40
0.9126431418
 40
0.9294980666
 40
0.945184889
 40
0.9598599849
 40
0.9737213022
 40
0.9870092614
 40
1.0
 40
1.0
 40
1.0
 40
1.0
 10
12.4978108267
 20
10.4262185872
 30
0.0
 10
12.4923151118
 20
10.4265997163
 30
0.0
 10
12.4814785633
 20
10.4274726547
 30
0.0
 10
12.4655115092
 20
10.4291389773
 30
0.0
 10
12.4501247871
 20
10.4311358603
 30
0.0
 10
12.4354209517
 20
10.4334497294
 30
0.0
 10
12.4214980957
 20
10.4360648517
 30
0.0
 10
12.4104475524
 20
10.4385191148
 30
0.0
 10
12.4020743518
 20
10.4406305668
 30
0.0
 10
12.3961501954
 20
10.4422518083
 30
0.0
 10
12.3904871894
 20
10.4439341556
 30
0.0
 10
12.3850947416
 20
10.4456748424
 30
0.0
 10
12.3799818011
 20
10.447470932
 30
0.0
 10
12.3751568265
 20
10.4493194049
 30
0.0
 10
12.3706277846
 20
10.4512172137
 30
0.0
 10
12.3664020958
 20
10.4531611498
 30
0.0
 10
12.3624866792
 20
10.4551480948
 30
0.0
 10
12.3588878414
 20
10.4571747343
 30
0.0
 10
12.3556113913
 20
10.4592379497
 30
0.0
 10
12.3526624835
 20
10.4613344828
 30
0.0
 10
12.3500458062
 20
10.4634613593
 30
0.0
 10
12.3477654758
 20
10.4656156479
 30
0.0
 10
12.3458252979
 20
10.4677947456
 30
0.0
 10
12.3442289248
 20
10.4699962762
 30
0.0
 10
12.3429801315
 20
10.4722178229
 30
0.0
 10
12.3420832233
 20
10.4744568662
 30
0.0
 10
12.3415425168
 20
10.4767085963
 30
0.0
 10
12.3414216174
 20
10.4782217944
 30
0.0
 10
12.3414216174
 20
10.4789685468
 30
0.0
  0
SPLINE
  5
339
100
AcDbEntity
  8
0
100
AcDbSpline
 62
7
  6
CONTINUOUS
 70
0
 71
3
 72
33
 73
29
 74
0
 42
0.0000001
 43
0.0000001
 44
0.0000000001
 40
0.0
 40
0.0
 40
0.0
 40
0.0
 40
0.0958348039
 40
0.1891069742
 40
0.2792500435
 40
0.36572131
 40
0.4480125246
 40
0.5256540669
 40
0.5625988158
 40
0.598226802
 40
0.632494146
 40
0.6653609288
 40
0.6967920316
 40
0.726757616
 40
0.7552336203
 40
0.7822031337
 40
0.8076567456
 40
0.8315949344
 40
0.8540288219
 40
0.8749836671
 40
0.8945009457
 40
0.9126431418
 40
0.9294980666
 40
0.945184889
 40
0.9598599849
 40
0.9737213022
 40
0.9870092614
 40
1.0
 40
1.0
 40
1.0
 40
1.0
 10
8.8755887635
 20
10.6774205405
 30
0.0
 10
8.8700930486
 20
10.6778016696
 30
0.0
 10
8.8592565
 20
10.678674608
 30
0.0
 10
8.843289446
 20
10.6803409305
 30
0.0
 10
8.8279027239
 20
10.6823378136
 30
0.0
 10
8.8131988885
 20
10.6846516827
 30
0.0
 10
8.7992760325
 20
10.687266805
 30
0.0
 10
8.7882254892
 20
10.6897210681
 30
0.0
 10
8.7798522886
 20
10.6918325201
 30
0.0
 10
8.7739281322
 20
10.6934537616
 30
0.0
 10
8.7682651262
 20
10.6951361089
 30
0.0
 10
8.7628726784
 20
10.6968767957
 30
0.0
 10
8.7577597379
 20
10.6986728853
 30
0.0
 10
8.7529347633
 20
10.7005213581
 30
0.0
 10
8.7484057214
 20
10.702419167
 30
0.0
 10
8.7441800326
 20
10.7043631031
 30
0.0
 10
8.740264616
 20
10.7063500481
 30
0.0
 10
8.7366657782
 20
10.7083766876
 30
0.0
 10
8.7333893281
 20
10.710439903
 30
0.0
 10
8.7304404203
 20
10.7125364361
 30
0.0
 10
8.727823743
 20
10.7146633125
 30
0.0
 10
8.7255434126
 20
10.7168176012
 30
0.0
 10
8.7236032347
 20
10.7189966989
 30
0.0
 10
8.7220068616
 20
10.7211982294
 30
0.0
 10
8.7207580682
 20
10.7234197762
 30
0.0
 10
8.7198611601
 20
10.7256588194
 30
0.0
 10
8.7193204536
 20
10.7279105496
 30
0.0
 10
8.7191995542
 20
10.7294237477
 30
0.0
 10
8.7191995542
 20
10.7301705001
 30
0.0
  0
SPLINE
  5
33A
100
AcDbEntity
  8
0
100
AcDbSpline
 62
7
  6
CONTINUOUS
 70
0
 71
3
 72
23
 73
19
 74
0
 42
0.0000001
 43
0.0000001
 44
0.0000000001
 40
0.0
 40
0.0
 40
0.0
 40
0.0
 40
0.0637776914
 40
0.1273445726
 40
0.19070205
 40
0.2538561286
 40
0.3168131755
 40
0.3795820937
 40
0.4421733816
 40
0.5045993375
 40
0.566873868
 40
0.6290123843
 40
0.691031656
 40
0.7529496505
 40
0.8147853588
 40
0.8765586069
 40
0.938289857
 40
1.0
 40
1.0
 40
1.0
 40
1.0
 10
11.9411673455
 20
8.7206533793
 30
0.0
 10
11.9411673455
 20
8.7085880197
 30
0.0
 10
11.9405898968
 20
8.6844930909
 30
0.0
 10
11.9379833301
 20
8.6484971779
 30
0.0
 10
11.9336435598
 20
8.6127867234
 30
0.0
 10
11.9275806908
 20
8.577445268
 30
0.0
 10
11.9198084793
 20
8.5425538495
 30
0.0
 10
11.910344834
 20
8.5081930346
 30
0.0
 10
11.8992114564
 20
8.4744420072
 30
0.0
 10
11.8864339513
 20
8.4413786065
 30
0.0
 10
11.8720417025
 20
8.4090790854
 30
0.0
 10
11.8560678319
 20
8.3776179455
 30
0.0
 10
11.8385491299
 20
8.347067764
 30
0.0
 10
11.8195259372
 20
8.3174990013
 30
0.0
 10
11.7990421534
 20
8.2889799361
 30
0.0
 10
11.777144763
 20
8.2615761353
 30
0.0
 10
11.7538851172
 20
8.2353516811
 30
0.0
 10
11.7375031923
 20
8.2186921932
 30
0.0
 10
11.729106464
 20
8.2105815543
 30
0.0
  0
SPLINE
  5
33B
100
AcDbEntity
  8
0
100
AcDbSpline
 62
7
  6
CONTINUOUS
 70
0
 71
3
 72
23
 73
19
 74
0
 42
0.0000001
 43
0.0000001
 44
0.0000000001
 40
0.0
 40
0.0
 40
0.0
 40
0.0
 40
0.0637776914
 40
0.1273445726
 40
0.19070205
 40
0.2538561286
 40
0.3168131755
 40
0.3795820937
 40
0.4421733816
 40
0.5045993375
 40
0.566873868
 40
0.6290123843
 40
0.691031656
 40
0.7529496505
 40
0.8147853588
 40
0.8765586069
 40
0.938289857
 40
1.0
 40
1.0
 40
1.0
 40
1.0
 10
10.3725036406
 20
7.0183295451
 30
0.0
 10
10.3725036406
 20
7.0062641855
 30
0.0
 10
10.3719261919
 20
6.9821692567
 30
0.0
 10
10.3693196253
 20
6.9461733438
 30
0.0
 10
10.3649798549
 20
6.9104628893
 30
0.0
 10
10.3589169859
 20
6.8751214339
 30
0.0
 10
10.3511447745
 20
6.8402300153
 30
0.0
 10
10.3416811291
 20
6.8058692004
 30
0.0
 10
10.3305477515
 20
6.772118173
 30
0.0
 10
10.3177702465
 20
6.7390547723
 30
0.0
 10
10.3033779976
 20
6.7067552512
 30
0.0
 10
10.2874041271
 20
6.6752941113
 30
0.0
 10
10.2698854251
 20
6.6447439298
 30
0.0
 10
10.2508622323
 20
6.6151751671
 30
0.0
 10
10.2303784485
 20
6.5866561019
 30
0.0
 10
10.2084810582
 20
6.5592523012
 30
0.0
 10
10.1852214124
 20
6.5330278469
 30
0.0
 10
10.1688394874
 20
6.516368359
 30
0.0
 10
10.1604427592
 20
6.5082577201
 30
0.0
  0
SPLINE
  5
33C
100
AcDbEntity
  8
0
100
AcDbSpline
 62
7
  6
CONTINUOUS
 70
0
 71
3
 72
56
 73
52
 74
0
 42
0.0000001
 43
0.0000001
 44
0.0000000001
 40
0.0
 40
0.0
 40
0.0
 40
0.0
 40
0.0417738543
 40
0.0840365046
 40
0.1266578532
 40
0.1695056202
 40
0.2124470096
 40
0.2553487411
 40
0.2980777186
 40
0.3405015202
 40
0.3824889321
 40
0.4239104771
 40
0.4646389477
 40
0.5045499464
 40
0.5435224368
 40
0.58143931
 40
0.6181879754
 40
0.653660986
 40
0.6877567136
 40
0.7042584199
 40
0.7203807218
 40
0.7361129262
 40
0.7514448081
 40
0.7663667614
 40
0.7808697253
 40
0.7949453179
 40
0.8085858377
 40
0.8217843194
 40
0.8345346546
 40
0.8468315703
 40
0.8586708476
 40
0.8700492971
 40
0.880965
 40
0.8914173896
 40
0.9014074573
 40
0.9109380132
 40
0.920013873
 40
0.9286423085
 40
0.9368333128
 40
0.9446001945
 40
0.9519600503
 40
0.9589344411
 40
0.9655500985
 40
0.9718395766
 40
0.9778419482
 40
0.9836030996
 40
0.9891757586
 40
0.9919106344
 40
0.9946208946
 40
0.9973146059
 40
1.0
 40
1.0
 40
1.0
 40
1.0
 10
13.1858859559
 20
9.6291815454
 30
0.0
 10
13.1858859559
 20
9.6486769487
 30
0.0
 10
13.186190103
 20
9.687896484
 30
0.0
 10
13.1875346948
 20
9.7469930835
 30
0.0
 10
13.1897663731
 20
9.8065644673
 30
0.0
 10
13.1928778358
 20
9.8664134997
 30
0.0
 10
13.1968587936
 20
9.926342128
 30
0.0
 10
13.2016960904
 20
9.986152104
 30
0.0
 10
13.2073737028
 20
10.0456455487
 30
0.0
 10
13.2138728113
 20
10.1046256429
 30
0.0
 10
13.2211718528
 20
10.162897277
 30
0.0
 10
13.229246594
 20
10.2202677024
 30
0.0
 10
13.238070212
 20
10.2765471764
 30
0.0
 10
13.2476133814
 20
10.3315495936
 30
0.0
 10
13.2578443682
 20
10.3850931193
 30
0.0
 10
13.268729136
 20
10.4370007715
 30
0.0
 10
13.2802314442
 20
10.4871011347
 30
0.0
 10
13.2923130104
 20
10.5352285526
 30
0.0
 10
13.30294249
 20
10.5739687674
 30
0.0
 10
13.3117212603
 20
10.6038436905
 30
0.0
 10
13.31835309
 20
10.6254152256
 30
0.0
 10
13.3250987942
 20
10.6463786491
 30
0.0
 10
13.3319528815
 20
10.6667166545
 30
0.0
 10
13.3389095965
 20
10.686412451
 30
0.0
 10
13.3459632231
 20
10.7054497755
 30
0.0
 10
13.3531078871
 20
10.7238129276
 30
0.0
 10
13.3603376678
 20
10.74148677
 30
0.0
 10
13.3676466085
 20
10.758456738
 30
0.0
 10
13.3750286056
 20
10.7747088822
 30
0.0
 10
13.3824776311
 20
10.7902298276
 30
0.0
 10
13.3899874616
 20
10.8050068632
 30
0.0
 10
13.3975519816
 20
10.8190278686
 30
0.0
 10
13.4051649403
 20
10.8322814054
 30
0.0
 10
13.4128201304
 20
10.8447566766
 30
0.0
 10
13.4205113617
 20
10.8564435431
 30
0.0
 10
13.4282323851
 20
10.8673325851
 30
0.0
 10
13.4359771408
 20
10.8774149858
 30
0.0
 10
13.443739469
 20
10.8866827075
 30
0.0
 10
13.4515135016
 20
10.895128261
 30
0.0
 10
13.459293366
 20
10.9027448867
 30
0.0
 10
13.4670734652
 20
10.909526334
 30
0.0
 10
13.474848371
 20
10.915466833
 30
0.0
 10
13.4826127931
 20
10.9205610477
 30
0.0
 10
13.4903615496
 20
10.924803679
 30
0.0
 10
13.4980894278
 20
10.9281897391
 30
0.0
 10
13.5057899523
 20
10.9307139901
 30
0.0
 10
13.512220943
 20
10.9321041626
 30
0.0
 10
13.5173217126
 20
10.9327706918
 30
0.0
 10
13.5211117644
 20
10.9330514088
 30
0.0
 10
13.524888376
 20
10.9331156869
 30
0.0
 10
13.5273983362
 20
10.9330141475
 30
0.0
 10
13.5286485778
 20
10.9329274468
 30
0.0
  0
SPLINE
  5
33D
100
AcDbEntity
  8
0
100
AcDbSpline
 62
7
  6
CONTINUOUS
 70
0
 71
3
 72
56
 73
52
 74
0
 42
0.0000001
 43
0.0000001
 44
0.0000000001
 40
0.0
 40
0.0
 40
0.0
 40
0.0
 40
0.0417738543
 40
0.0840365046
 40
0.1266578532
 40
0.1695056202
 40
0.2124470096
 40
0.2553487411
 40
0.2980777186
 40
0.3405015202
 40
0.3824889321
 40
0.4239104771
 40
0.4646389477
 40
0.5045499464
 40
0.5435224368
 40
0.58143931
 40
0.6181879754
 40
0.653660986
 40
0.6877567136
 40
0.7042584199
 40
0.7203807218
 40
0.7361129262
 40
0.7514448081
 40
0.7663667614
 40
0.7808697253
 40
0.7949453179
 40
0.8085858377
 40
0.8217843194
 40
0.8345346546
 40
0.8468315703
 40
0.8586708476
 40
0.8700492971
 40
0.880965
 40
0.8914173896
 40
0.9014074573
 40
0.9109380132
 40
0.920013873
 40
0.9286423085
 40
0.9368333128
 40
0.9446001945
 40
0.9519600503
 40
0.9589344411
 40
0.9655500985
 40
0.9718395766
 40
0.9778419482
 40
0.9836030996
 40
0.9891757586
 40
0.9919106344
 40
0.9946208946
 40
0.9973146059
 40
1.0
 40
1.0
 40
1.0
 40
1.0
 10
13.1858859559
 20
7.0936261012
 30
0.0
 10
13.1858859559
 20
7.1131215045
 30
0.0
 10
13.186190103
 20
7.1523410398
 30
0.0
 10
13.1875346948
 20
7.2114376393
 30
0.0
 10
13.1897663731
 20
7.271009023
 30
0.0
 10
13.1928778358
 20
7.3308580555
 30
0.0
 10
13.1968587936
 20
7.3907866838
 30
0.0
 10
13.2016960904
 20
7.4505966597
 30
0.0
 10
13.2073737028
 20
7.5100901044
 30
0.0
 10
13.2138728113
 20
7.5690701987
 30
0.0
 10
13.2211718528
 20
7.6273418327
 30
0.0
 10
13.229246594
 20
7.6847122582
 30
0.0
 10
13.238070212
 20
7.7409917322
 30
0.0
 10
13.2476133814
 20
7.7959941493
 30
0.0
 10
13.2578443682
 20
7.849537675
 30
0.0
 10
13.268729136
 20
7.9014453272
 30
0.0
 10
13.2802314442
 20
7.9515456904
 30
0.0
 10
13.2923130104
 20
7.9996731083
 30
0.0
 10
13.30294249
 20
8.0384133232
 30
0.0
 10
13.3117212603
 20
8.0682882462
 30
0.0
 10
13.31835309
 20
8.0898597814
 30
0.0
 10
13.3250987942
 20
8.1108232049
 30
0.0
 10
13.3319528815
 20
8.1311612102
 30
0.0
 10
13.3389095965
 20
8.1508570067
 30
0.0
 10
13.3459632231
 20
8.1698943313
 30
0.0
 10
13.3531078871
 20
8.1882574834
 30
0.0
 10
13.3603376678
 20
8.2059313257
 30
0.0
 10
13.3676466085
 20
8.2229012937
 30
0.0
 10
13.3750286056
 20
8.2391534379
 30
0.0
 10
13.3824776311
 20
8.2546743834
 30
0.0
 10
13.3899874616
 20
8.2694514189
 30
0.0
 10
13.3975519816
 20
8.2834724244
 30
0.0
 10
13.4051649403
 20
8.2967259612
 30
0.0
 10
13.4128201304
 20
8.3092012324
 30
0.0
 10
13.4205113617
 20
8.3208880988
 30
0.0
 10
13.4282323851
 20
8.3317771409
 30
0.0
 10
13.4359771408
 20
8.3418595415
 30
0.0
 10
13.443739469
 20
8.3511272633
 30
0.0
 10
13.4515135016
 20
8.3595728168
 30
0.0
 10
13.459293366
 20
8.3671894425
 30
0.0
 10
13.4670734652
 20
8.3739708898
 30
0.0
 10
13.474848371
 20
8.3799113887
 30
0.0
 10
13.4826127931
 20
8.3850056035
 30
0.0
 10
13.4903615496
 20
8.3892482347
 30
0.0
 10
13.4980894278
 20
8.3926342948
 30
0.0
 10
13.5057899523
 20
8.3951585459
 30
0.0
 10
13.512220943
 20
8.3965487184
 30
0.0
 10
13.5173217126
 20
8.3972152476
 30
0.0
 10
13.5211117644
 20
8.3974959645
 30
0.0
 10
13.524888376
 20
8.3975602427
 30
0.0
 10
13.5273983362
 20
8.3974587032
 30
0.0
 10
13.5286485778
 20
8.3973720026
 30
0.0
  0
SPLINE
  5
33E
100
AcDbEntity
  8
0
100
AcDbSpline
 62
7
  6
CONTINUOUS
 70
0
 71
3
 72
23
 73
19
 74
0
 42
0.0000001
 43
0.0000001
 44
0.0000000001
 40
0.0
 40
0.0
 40
0.0
 40
0.0
 40
0.0637774724
 40
0.127344696
 40
0.1907020124
 40
0.2538561402
 40
0.3168131804
 40
0.3795820984
 40
0.4421733882
 40
0.5045993399
 40
0.5668738668
 40
0.6290123797
 40
0.6910316501
 40
0.7529496455
 40
0.8147853558
 40
0.8765586055
 40
0.9382898564
 40
1.0
 40
1.0
 40
1.0
 40
1.0
 10
11.8960276348
 20
8.7390517644
 30
0.0
 10
11.8960276348
 20
8.7279429959
 30
0.0
 10
11.8954959496
 20
8.7057583146
 30
0.0
 10
11.8930960519
 20
8.672616196
 30
0.0
 10
11.8891002996
 20
8.6397368641
 30
0.0
 10
11.8835181051
 20
8.6071973326
 30
0.0
 10
11.8763620612
 20
8.5750721349
 30
0.0
 10
11.8676486814
 20
8.5434354838
 30
0.0
 10
11.8573979269
 20
8.512360283
 30
0.0
 10
11.845633381
 20
8.481918201
 30
0.0
 10
11.8323821142
 20
8.4521794399
 30
0.0
 10
11.8176746266
 20
8.4232125907
 30
0.0
 10
11.8015447874
 20
8.3950844774
 30
0.0
 10
11.7840297322
 20
8.3678599782
 30
0.0
 10
11.765169869
 20
8.3416019674
 30
0.0
 10
11.7450084558
 20
8.3163708189
 30
0.0
 10
11.723592792
 20
8.2922255194
 30
0.0
 10
11.7085095869
 20
8.2768868649
 30
0.0
 10
11.7007785457
 20
8.2694192587
 30
0.0
  0
SPLINE
  5
33F
100
AcDbEntity
  8
0
100
AcDbSpline
 62
7
  6
CONTINUOUS
 70
0
 71
3
 72
15
 73
11
 74
0
 42
0.0000001
 43
0.0000001
 44
0.0000000001
 40
0.0
 40
0.0
 40
0.0
 40
0.0
 40
0.1264442311
 40
0.2523456173
 40
0.3777573463
 40
0.502743308
 40
0.6273767125
 40
0.7517385671
 40
0.8759159311
 40
1.0
 40
1.0
 40
1.0
 40
1.0
 10
11.8923787581
 20
8.6672504863
 30
0.0
 10
11.8893473154
 20
8.6523458664
 30
0.0
 10
11.8822078997
 20
8.622809889
 30
0.0
 10
11.8682881154
 20
8.5795128814
 30
0.0
 10
11.8512497922
 20
8.5375315534
 30
0.0
 10
11.8311797441
 20
8.4970826153
 30
0.0
 10
11.8081797537
 20
8.4583712937
 30
0.0
 10
11.7823659583
 20
8.421594268
 30
0.0
 10
11.7538719614
 20
8.3869411614
 30
0.0
 10
11.7331770648
 20
8.3653640427
 30
0.0
 10
11.7224415415
 20
8.354994358
 30
0.0
  0
SPLINE
  5
340
100
AcDbEntity
  8
0
100
AcDbSpline
 62
7
  6
CONTINUOUS
 70
0
 71
3
 72
47
 73
43
 74
0
 42
0.0000001
 43
0.0000001
 44
0.0000000001
 40
0.0
 40
0.0
 40
0.0
 40
0.0
 40
0.007143046
 40
0.0146360302
 40
0.0224940305
 40
0.0307286884
 40
0.0393484106
 40
0.0483583624
 40
0.0577613828
 40
0.0675583518
 40
0.0777483818
 40
0.0883293202
 40
0.0992976567
 40
0.1106491391
 40
0.1223784618
 40
0.1344798558
 40
0.146946791
 40
0.1597723306
 40
0.1864660515
 40
0.2144998339
 40
0.2438035441
 40
0.2743009185
 40
0.3059092322
 40
0.3385390241
 40
0.3720940609
 40
0.4064724958
 40
0.4415691377
 40
0.4772782982
 40
0.5134973085
 40
0.5501299432
 40
0.587089148
 40
0.624298487
 40
0.6616924593
 40
0.6992160037
 40
0.7368232625
 40
0.7744761999
 40
0.8121434406
 40
0.8497994712
 40
0.88742429
 40
0.9250036555
 40
0.9625290932
 40
1.0
 40
1.0
 40
1.0
 40
1.0
 10
11.4580275741
 20
8.4589484285
 30
0.0
 10
11.4561014553
 20
8.4570879405
 30
0.0
 10
11.4520280256
 20
8.4534054442
 30
0.0
 10
11.4454477488
 20
8.4481247589
 30
0.0
 10
11.4382616552
 20
8.4429656761
 30
0.0
 10
11.4304761962
 20
8.4379373014
 30
0.0
 10
11.4220980536
 20
8.4330495555
 30
0.0
 10
11.4131343893
 20
8.4283146432
 30
0.0
 10
11.4035931458
 20
8.423746295
 30
0.0
 10
11.3934829107
 20
8.4193598991
 30
0.0
 10
11.3828128752
 20
8.4151726087
 30
0.0
 10
11.3715931608
 20
8.4112028407
 30
0.0
 10
11.3598344733
 20
8.4074709645
 30
0.0
 10
11.347548662
 20
8.4039982608
 30
0.0
 10
11.334748271
 20
8.4008079662
 30
0.0
 10
11.3214471752
 20
8.3979241005
 30
0.0
 10
11.307660069
 20
8.3953722987
 30
0.0
 10
11.2883945001
 20
8.3924086309
 30
0.0
 10
11.2631950629
 20
8.3897154246
 30
0.0
 10
11.231703766
 20
8.3882977306
 30
0.0
 10
11.1987571029
 20
8.3888906274
 30
0.0
 10
11.1645806112
 20
8.3917321513
 30
0.0
 10
11.1294364671
 20
8.3970499991
 30
0.0
 10
11.0936256803
 20
8.405049704
 30
0.0
 10
11.0574848601
 20
8.4159013776
 30
0.0
 10
11.0213790483
 20
8.4297268967
 30
0.0
 10
10.9856903347
 20
8.446590062
 30
0.0
 10
10.9508029624
 20
8.4664899879
 30
0.0
 10
10.9170873529
 20
8.4893606206
 30
0.0
 10
10.8848858447
 20
8.5150765181
 30
0.0
 10
10.8545010535
 20
8.5434618635
 30
0.0
 10
10.8261898471
 20
8.5743033607
 30
0.0
 10
10.8001621393
 20
8.607363203
 30
0.0
 10
10.7765832271
 20
8.6423903632
 30
0.0
 10
10.7555792599
 20
8.6791299919
 30
0.0
 10
10.7372439463
 20
8.7173300255
 30
0.0
 10
10.7216451921
 20
8.7567452791
 30
0.0
 10
10.7088311474
 20
8.7971397966
 30
0.0
 10
10.6988352234
 20
8.8382875516
 30
0.0
 10
10.691680177
 20
8.8799735759
 30
0.0
 10
10.6873805515
 20
8.9219898275
 30
0.0
 10
10.6864229302
 20
8.950115378
 30
0.0
 10
10.6864229302
 20
8.9641632713
 30
0.0
  0
SPLINE
  5
341
100
AcDbEntity
  8
0
100
AcDbSpline
 62
7
  6
CONTINUOUS
 70
0
 71
3
 72
47
 73
43
 74
0
 42
0.0000001
 43
0.0000001
 44
0.0000000001
 40
0.0
 40
0.0
 40
0.0
 40
0.0
 40
0.0310739092
 40
0.0623050493
 40
0.093688793
 40
0.1252165054
 40
0.1568767965
 40
0.1886554889
 40
0.2205359759
 40
0.252499584
 40
0.2845259636
 40
0.3165935101
 40
0.3486797987
 40
0.3807620323
 40
0.4128174943
 40
0.4448239996
 40
0.4767603407
 40
0.5086067173
 40
0.5403451453
 40
0.5719598413
 40
0.6034375724
 40
0.6347679604
 40
0.6659437388
 40
0.6969609577
 40
0.7278191155
 40
0.7585212212
 40
0.7738184273
 40
0.7890793501
 40
0.8043053363
 40
0.819497931
 40
0.8346588746
 40
0.8497900954
 40
0.8648936935
 40
0.8799719343
 40
0.8950272361
 40
0.9100621516
 40
0.925079358
 40
0.9400816404
 40
0.9550718718
 40
0.9700530002
 40
0.9850280299
 40
1.0
 40
1.0
 40
1.0
 40
1.0
 10
11.8960276348
 20
8.7390517644
 30
0.0
 10
11.8960276348
 20
8.7562869456
 30
0.0
 10
11.89474192
 20
8.7908577786
 30
0.0
 10
11.889001537
 20
8.842548517
 30
0.0
 10
11.8794768198
 20
8.8939357353
 30
0.0
 10
11.8662203912
 20
8.9447335927
 30
0.0
 10
11.8493056371
 20
8.994664115
 30
0.0
 10
11.8288258803
 20
9.043453004
 30
0.0
 10
11.8048938671
 20
9.0908325746
 30
0.0
 10
11.7776412271
 20
9.136542806
 30
0.0
 10
11.7472178234
 20
9.1803329274
 30
0.0
 10
11.7137907763
 20
9.2219626559
 30
0.0
 10
11.6775435869
 20
9.2612035011
 30
0.0
 10
11.6386752752
 20
9.297840129
 30
0.0
 10
11.5973991622
 20
9.3316714294
 30
0.0
 10
11.5539416982
 20
9.3625115608
 30
0.0
 10
11.5085413403
 20
9.3901910902
 30
0.0
 10
11.4614472152
 20
9.4145578922
 30
0.0
 10
11.412917714
 20
9.4354778671
 30
0.0
 10
11.363219145
 20
9.4528357473
 30
0.0
 10
11.3126243345
 20
9.4665358471
 30
0.0
 10
11.26141102
 20
9.4765024073
 30
0.0
 10
11.2098606074
 20
9.4826800729
 30
0.0
 10
11.1582558197
 20
9.4850342441
 30
0.0
 10
11.1068822714
 20
9.4835517417
 30
0.0
 10
11.0644396665
 20
9.479118533
 30
0.0
 10
11.0308949857
 20
9.4736666261
 30
0.0
 10
11.005996985
 20
9.4686382135
 30
0.0
 10
10.981366761
 20
9.4626727332
 30
0.0
 10
10.957037761
 20
9.4557782371
 30
0.0
 10
10.9330435747
 20
9.4479642447
 30
0.0
 10
10.9094171631
 20
9.4392415403
 30
0.0
 10
10.8861910882
 20
9.429621998
 30
0.0
 10
10.8633972824
 20
9.4191189146
 30
0.0
 10
10.841067101
 20
9.4077467484
 30
0.0
 10
10.8192313288
 20
9.3955210351
 30
0.0
 10
10.7979199707
 20
9.3824586838
 30
0.0
 10
10.7771623534
 20
9.3685776403
 30
0.0
 10
10.7569871276
 20
9.3538969508
 30
0.0
 10
10.7374218939
 20
9.3384368117
 30
0.0
 10
10.7184939749
 20
9.3222188182
 30
0.0
 10
10.7063163034
 20
9.3109151471
 30
0.0
 10
10.7003434517
 20
9.3051458202
 30
0.0
  0
SPLINE
  5
342
100
AcDbEntity
  8
0
100
AcDbSpline
 62
7
  6
CONTINUOUS
 70
0
 71
3
 72
23
 73
19
 74
0
 42
0.0000001
 43
0.0000001
 44
0.0000000001
 40
0.0
 40
0.0
 40
0.0
 40
0.0
 40
0.0620640523
 40
0.1240875249
 40
0.186079545
 40
0.2480598093
 40
0.3100482896
 40
0.3720692178
 40
0.4341496007
 40
0.4963183573
 40
0.558605502
 40
0.6210408622
 40
0.6836525987
 40
0.7464654984
 40
0.8094991483
 40
0.8727659572
 40
0.9362689793
 40
1.0
 40
1.0
 40
1.0
 40
1.0
 10
10.6864229302
 20
8.9641632713
 30
0.0
 10
10.6864229302
 20
8.9732455091
 30
0.0
 10
10.6868227037
 20
8.9914066
 30
0.0
 10
10.6886227949
 20
9.0185857197
 30
0.0
 10
10.6916221779
 20
9.0456470032
 30
0.0
 10
10.6958183732
 20
9.0725434235
 30
0.0
 10
10.7012082865
 20
9.0992306823
 30
0.0
 10
10.7077872675
 20
9.1256650913
 30
0.0
 10
10.715549165
 20
9.1518042205
 30
0.0
 10
10.724485967
 20
9.1776065798
 30
0.0
 10
10.7345873973
 20
9.2030315404
 30
0.0
 10
10.7458403893
 20
9.2280392762
 30
0.0
 10
10.7582284898
 20
9.2525907131
 30
0.0
 10
10.771731282
 20
9.2766475149
 30
0.0
 10
10.7863236332
 20
9.300172093
 30
0.0
 10
10.8019751125
 20
9.3231279274
 30
0.0
 10
10.818648516
 20
9.3454791328
 30
0.0
 10
10.8303974701
 20
9.3599311242
 30
0.0
 10
10.8364262798
 20
9.3670466716
 30
0.0
  0
SPLINE
  5
343
100
AcDbEntity
  8
0
100
AcDbSpline
 62
7
  6
CONTINUOUS
 70
0
 71
3
 72
18
 73
14
 74
0
 42
0.0000001
 43
0.0000001
 44
0.0000000001
 40
0.0
 40
0.0
 40
0.0
 40
0.0
 40
0.1264277499
 40
0.2523154137
 40
0.3777161502
 40
0.5026936021
 40
0.6273206272
 40
0.6895387991
 40
0.751700113
 40
0.8138155617
 40
0.8758963798
 40
0.937954003
 40
1.0
 40
1.0
 40
1.0
 40
1.0
 10
11.1034148978
 20
9.4826488442
 30
0.0
 10
11.0884687574
 20
9.4801159218
 30
0.0
 10
11.0588127178
 20
9.4739719306
 30
0.0
 10
11.015223325
 20
9.461534309
 30
0.0
 10
10.9728369132
 20
9.4459559348
 30
0.0
 10
10.931872291
 20
9.4273165851
 30
0.0
 10
10.8990677359
 20
9.4092972433
 30
0.0
 10
10.873751509
 20
9.3934581263
 30
0.0
 10
10.8552527128
 20
9.3808849071
 30
0.0
 10
10.8372579132
 20
9.3676286986
 30
0.0
 10
10.8197894571
 20
9.3537058569
 30
0.0
 10
10.8028696918
 20
9.3391344341
 30
0.0
 10
10.7919688351
 20
9.3289988812
 30
0.0
 10
10.7866178669
 20
9.32383026
 30
0.0
  0
SPLINE
  5
344
100
AcDbEntity
  8
0
100
AcDbSpline
 62
7
  6
CONTINUOUS
 70
0
 71
3
 72
23
 73
19
 74
0
 42
0.0000001
 43
0.0000001
 44
0.0000000001
 40
0.0
 40
0.0
 40
0.0
 40
0.0
 40
0.0637774724
 40
0.127344696
 40
0.1907020124
 40
0.2538561402
 40
0.3168131804
 40
0.3795820984
 40
0.4421733882
 40
0.5045993399
 40
0.5668738668
 40
0.6290123797
 40
0.6910316501
 40
0.7529496455
 40
0.8147853558
 40
0.8765586055
 40
0.9382898564
 40
1.0
 40
1.0
 40
1.0
 40
1.0
 10
10.32736393
 20
7.0367279302
 30
0.0
 10
10.32736393
 20
7.0256191617
 30
0.0
 10
10.3268322448
 20
7.0034344805
 30
0.0
 10
10.3244323471
 20
6.9702923618
 30
0.0
 10
10.3204365947
 20
6.93741303
 30
0.0
 10
10.3148544003
 20
6.9048734985
 30
0.0
 10
10.3076983563
 20
6.8727483007
 30
0.0
 10
10.2989849765
 20
6.8411116496
 30
0.0
 10
10.2887342221
 20
6.8100364488
 30
0.0
 10
10.2769696762
 20
6.7795943668
 30
0.0
 10
10.2637184094
 20
6.7498556057
 30
0.0
 10
10.2490109217
 20
6.7208887565
 30
0.0
 10
10.2328810825
 20
6.6927606432
 30
0.0
 10
10.2153660273
 20
6.665536144
 30
0.0
 10
10.1965061642
 20
6.6392781332
 30
0.0
 10
10.176344751
 20
6.6140469847
 30
0.0
 10
10.1549290871
 20
6.5899016852
 30
0.0
 10
10.1398458821
 20
6.5745630308
 30
0.0
 10
10.1321148409
 20
6.5670954245
 30
0.0
  0
SPLINE
  5
345
100
AcDbEntity
  8
0
100
AcDbSpline
 62
7
  6
CONTINUOUS
 70
0
 71
3
 72
15
 73
11
 74
0
 42
0.0000001
 43
0.0000001
 44
0.0000000001
 40
0.0
 40
0.0
 40
0.0
 40
0.0
 40
0.1264442311
 40
0.2523456173
 40
0.3777573463
 40
0.502743308
 40
0.6273767125
 40
0.7517385671
 40
0.8759159311
 40
1.0
 40
1.0
 40
1.0
 40
1.0
 10
10.3237150533
 20
6.9649266522
 30
0.0
 10
10.3206836106
 20
6.9500220322
 30
0.0
 10
10.3135441948
 20
6.9204860549
 30
0.0
 10
10.2996244105
 20
6.8771890472
 30
0.0
 10
10.2825860874
 20
6.8352077193
 30
0.0
 10
10.2625160393
 20
6.7947587811
 30
0.0
 10
10.2395160488
 20
6.7560474596
 30
0.0
 10
10.2137022535
 20
6.7192704338
 30
0.0
 10
10.1852082565
 20
6.6846173272
 30
0.0
 10
10.1645133599
 20
6.6630402085
 30
0.0
 10
10.1537778367
 20
6.6526705238
 30
0.0
  0
SPLINE
  5
346
100
AcDbEntity
  8
0
100
AcDbSpline
 62
7
  6
CONTINUOUS
 70
0
 71
3
 72
47
 73
43
 74
0
 42
0.0000001
 43
0.0000001
 44
0.0000000001
 40
0.0
 40
0.0
 40
0.0
 40
0.0
 40
0.0310739092
 40
0.0623050493
 40
0.093688793
 40
0.1252165054
 40
0.1568767965
 40
0.1886554889
 40
0.2205359759
 40
0.252499584
 40
0.2845259636
 40
0.3165935101
 40
0.3486797987
 40
0.3807620323
 40
0.4128174943
 40
0.4448239996
 40
0.4767603407
 40
0.5086067173
 40
0.5403451453
 40
0.5719598413
 40
0.6034375724
 40
0.6347679604
 40
0.6659437388
 40
0.6969609577
 40
0.7278191155
 40
0.7585212212
 40
0.7738184273
 40
0.7890793501
 40
0.8043053363
 40
0.819497931
 40
0.8346588746
 40
0.8497900954
 40
0.8648936935
 40
0.8799719343
 40
0.8950272361
 40
0.9100621516
 40
0.925079358
 40
0.9400816404
 40
0.9550718718
 40
0.9700530002
 40
0.9850280299
 40
1.0
 40
1.0
 40
1.0
 40
1.0
 10
10.32736393
 20
7.0367279302
 30
0.0
 10
10.32736393
 20
7.0539631114
 30
0.0
 10
10.3260782151
 20
7.0885339444
 30
0.0
 10
10.3203378322
 20
7.1402246828
 30
0.0
 10
10.310813115
 20
7.1916119012
 30
0.0
 10
10.2975566863
 20
7.2424097585
 30
0.0
 10
10.2806419323
 20
7.2923402808
 30
0.0
 10
10.2601621755
 20
7.3411291698
 30
0.0
 10
10.2362301622
 20
7.3885087404
 30
0.0
 10
10.2089775222
 20
7.4342189718
 30
0.0
 10
10.1785541186
 20
7.4780090932
 30
0.0
 10
10.1451270714
 20
7.5196388218
 30
0.0
 10
10.108879882
 20
7.5588796669
 30
0.0
 10
10.0700115704
 20
7.5955162948
 30
0.0
 10
10.0287354574
 20
7.6293475952
 30
0.0
 10
9.9852779934
 20
7.6601877266
 30
0.0
 10
9.9398776354
 20
7.687867256
 30
0.0
 10
9.8927835104
 20
7.7122340581
 30
0.0
 10
9.8442540091
 20
7.7331540329
 30
0.0
 10
9.7945554402
 20
7.7505119132
 30
0.0
 10
9.7439606296
 20
7.7642120129
 30
0.0
 10
9.6927473152
 20
7.7741785731
 30
0.0
 10
9.6411969025
 20
7.7803562388
 30
0.0
 10
9.5895921148
 20
7.7827104099
 30
0.0
 10
9.5382185665
 20
7.7812279076
 30
0.0
 10
9.4957759616
 20
7.7767946988
 30
0.0
 10
9.4622312808
 20
7.771342792
 30
0.0
 10
9.4373332801
 20
7.7663143793
 30
0.0
 10
9.4127030562
 20
7.760348899
 30
0.0
 10
9.3883740562
 20
7.7534544029
 30
0.0
 10
9.3643798699
 20
7.7456404105
 30
0.0
 10
9.3407534583
 20
7.7369177061
 30
0.0
 10
9.3175273833
 20
7.7272981638
 30
0.0
 10
9.2947335775
 20
7.7167950804
 30
0.0
 10
9.2724033961
 20
7.7054229142
 30
0.0
 10
9.2505676239
 20
7.6931972009
 30
0.0
 10
9.2292562659
 20
7.6801348496
 30
0.0
 10
9.2084986486
 20
7.6662538061
 30
0.0
 10
9.1883234227
 20
7.6515731166
 30
0.0
 10
9.1687581891
 20
7.6361129775
 30
0.0
 10
9.1498302701
 20
7.619894984
 30
0.0
 10
9.1376525985
 20
7.608591313
 30
0.0
 10
9.1316797469
 20
7.602821986
 30
0.0
  0
SPLINE
  5
347
100
AcDbEntity
  8
0
100
AcDbSpline
 62
7
  6
CONTINUOUS
 70
0
 71
3
 72
18
 73
14
 74
0
 42
0.0000001
 43
0.0000001
 44
0.0000000001
 40
0.0
 40
0.0
 40
0.0
 40
0.0
 40
0.1264277499
 40
0.2523154137
 40
0.3777161502
 40
0.5026936021
 40
0.6273206272
 40
0.6895387991
 40
0.751700113
 40
0.8138155617
 40
0.8758963798
 40
0.937954003
 40
1.0
 40
1.0
 40
1.0
 40
1.0
 10
9.534751193
 20
7.78032501
 30
0.0
 10
9.5198050525
 20
7.7777920876
 30
0.0
 10
9.490149013
 20
7.7716480964
 30
0.0
 10
9.4465596202
 20
7.7592104748
 30
0.0
 10
9.4041732083
 20
7.7436321006
 30
0.0
 10
9.3632085862
 20
7.7249927509
 30
0.0
 10
9.330404031
 20
7.7069734091
 30
0.0
 10
9.3050878041
 20
7.6911342922
 30
0.0
 10
9.2865890079
 20
7.6785610729
 30
0.0
 10
9.2685942083
 20
7.6653048644
 30
0.0
 10
9.2511257522
 20
7.6513820227
 30
0.0
 10
9.234205987
 20
7.6368105999
 30
0.0
 10
9.2233051302
 20
7.626675047
 30
0.0
 10
9.217954162
 20
7.6215064258
 30
0.0
  0
SPLINE
  5
348
100
AcDbEntity
  8
0
100
AcDbSpline
 62
7
  6
CONTINUOUS
 70
0
 71
3
 72
15
 73
11
 74
0
 42
0.0000001
 43
0.0000001
 44
0.0000000001
 40
0.0
 40
0.0
 40
0.0
 40
0.0
 40
0.1255461874
 40
0.2510632731
 40
0.3765184218
 40
0.5018529504
 40
0.6269837512
 40
0.7518038665
 40
0.876188111
 40
1.0
 40
1.0
 40
1.0
 40
1.0
 10
9.920155768
 20
7.4555126754
 30
0.0
 10
9.9129183235
 20
7.4656367485
 30
0.0
 10
9.8992636224
 20
7.4864829027
 30
0.0
 10
9.8814443656
 20
7.5193242128
 30
0.0
 10
9.8664327452
 20
7.5535204499
 30
0.0
 10
9.8543418561
 20
7.5888137158
 30
0.0
 10
9.8452342356
 20
7.6249258556
 30
0.0
 10
9.8391201586
 20
7.6615667035
 30
0.0
 10
9.8359547856
 20
7.6984433433
 30
0.0
 10
9.8357466696
 20
7.7230729618
 30
0.0
 10
9.8360992208
 20
7.7353409592
 30
0.0
  0
SPLINE
  5
349
100
AcDbEntity
  8
0
100
AcDbSpline
 62
7
  6
CONTINUOUS
 70
0
 71
3
 72
42
 73
38
 74
0
 42
0.0000001
 43
0.0000001
 44
0.0000000001
 40
0.0
 40
0.0
 40
0.0
 40
0.0
 40
0.0055576443
 40
0.0111781836
 40
0.0169222355
 40
0.022846223
 40
0.0290011442
 40
0.0354316623
 40
0.0421762431
 40
0.049267259
 40
0.0567314277
 40
0.0645907244
 40
0.072862575
 40
0.081560766
 40
0.0906959315
 40
0.100275708
 40
0.1103055927
 40
0.1207888494
 40
0.1431177711
 40
0.1672591076
 40
0.1931868442
 40
0.2208588039
 40
0.2502193991
 40
0.2812018039
 40
0.3137295194
 40
0.3477175618
 40
0.3830734051
 40
0.419697946
 40
0.4574862654
 40
0.4963282772
 40
0.5361092896
 40
0.5767106614
 40
0.6598810502
 40
0.7448351505
 40
0.8305372122
 40
0.9159392559
 40
1.0
 40
1.0
 40
1.0
 40
1.0
 10
12.7634215829
 20
10.4789685468
 30
0.0
 10
12.7634215829
 20
10.4784465742
 30
0.0
 10
12.7633631627
 20
10.477395812
 30
0.0
 10
12.7631008557
 20
10.4758252796
 30
0.0
 10
12.7626643605
 20
10.4742582548
 30
0.0
 10
12.7620545552
 20
10.4726965324
 30
0.0
 10
12.7612723462
 20
10.4711414262
 30
0.0
 10
12.7603188975
 20
10.4695940709
 30
0.0
 10
12.7591952217
 20
10.4680555665
 30
0.0
 10
12.7579024316
 20
10.4665269533
 30
0.0
 10
12.7564417248
 20
10.4650092131
 30
0.0
 10
12.7548142614
 20
10.4635034701
 30
0.0
 10
12.7530214161
 20
10.4620107453
 30
0.0
 10
12.7510646083
 20
10.4605321526
 30
0.0
 10
12.7489453762
 20
10.4590688482
 30
0.0
 10
12.7466654457
 20
10.4576219049
 30
0.0
 10
12.7442266036
 20
10.4561924894
 30
0.0
 10
12.7406907007
 20
10.4542709299
 30
0.0
 10
12.7358774902
 20
10.4519305286
 30
0.0
 10
12.7296192908
 20
10.4492658242
 30
0.0
 10
12.7227823966
 20
10.4466973757
 30
0.0
 10
12.7153888836
 20
10.4442335943
 30
0.0
 10
12.7074624926
 20
10.4418825724
 30
0.0
 10
12.6990289117
 20
10.4396520814
 30
0.0
 10
12.6901155352
 20
10.4375495081
 30
0.0
 10
12.6807514001
 20
10.4355818252
 30
0.0
 10
12.670967071
 20
10.4337555384
 30
0.0
 10
12.6607945214
 20
10.4320766931
 30
0.0
 10
12.6502670104
 20
10.4305508448
 30
0.0
 10
12.6394189879
 20
10.4291830593
 30
0.0
 10
12.6282859389
 20
10.427977819
 30
0.0
 10
12.6129880662
 20
10.4265818542
 30
0.0
 10
12.5934244129
 20
10.4252780303
 30
0.0
 10
12.5695970787
 20
10.424420044
 30
0.0
 10
12.5455450518
 20
10.4242681576
 30
0.0
 10
12.5215831669
 20
10.4248243637
 30
0.0
 10
12.5056868742
 20
10.4256723815
 30
0.0
 10
12.4978108267
 20
10.4262185872
 30
0.0
  0
SPLINE
  5
34A
100
AcDbEntity
  8
0
100
AcDbSpline
 62
7
  6
CONTINUOUS
 70
0
 71
3
 72
42
 73
38
 74
0
 42
0.0000001
 43
0.0000001
 44
0.0000000001
 40
0.0
 40
0.0
 40
0.0
 40
0.0
 40
0.0055576443
 40
0.0111781836
 40
0.0169222355
 40
0.022846223
 40
0.0290011442
 40
0.0354316623
 40
0.0421762431
 40
0.049267259
 40
0.0567314277
 40
0.0645907244
 40
0.072862575
 40
0.081560766
 40
0.0906959315
 40
0.100275708
 40
0.1103055927
 40
0.1207888494
 40
0.1431177711
 40
0.1672591076
 40
0.1931868442
 40
0.2208588039
 40
0.2502193991
 40
0.2812018039
 40
0.3137295194
 40
0.3477175618
 40
0.3830734051
 40
0.419697946
 40
0.4574862654
 40
0.4963282772
 40
0.5361092896
 40
0.5767106614
 40
0.6598810502
 40
0.7448351505
 40
0.8305372122
 40
0.9159392559
 40
1.0
 40
1.0
 40
1.0
 40
1.0
 10
9.1411995197
 20
10.7301705001
 30
0.0
 10
9.1411995197
 20
10.7296485275
 30
0.0
 10
9.1411410995
 20
10.7285977653
 30
0.0
 10
9.1408787924
 20
10.7270272329
 30
0.0
 10
9.1404422973
 20
10.7254602081
 30
0.0
 10
9.139832492
 20
10.7238984857
 30
0.0
 10
9.139050283
 20
10.7223433795
 30
0.0
 10
9.1380968343
 20
10.7207960242
 30
0.0
 10
9.1369731585
 20
10.7192575198
 30
0.0
 10
9.1356803684
 20
10.7177289066
 30
0.0
 10
9.1342196616
 20
10.7162111664
 30
0.0
 10
9.1325921982
 20
10.7147054234
 30
0.0
 10
9.1307993529
 20
10.7132126986
 30
0.0
 10
9.1288425451
 20
10.7117341059
 30
0.0
 10
9.1267233129
 20
10.7102708014
 30
0.0
 10
9.1244433824
 20
10.7088238582
 30
0.0
 10
9.1220045404
 20
10.7073944426
 30
0.0
 10
9.1184686375
 20
10.7054728831
 30
0.0
 10
9.113655427
 20
10.7031324819
 30
0.0
 10
9.1073972276
 20
10.7004677775
 30
0.0
 10
9.1005603334
 20
10.697899329
 30
0.0
 10
9.0931668204
 20
10.6954355476
 30
0.0
 10
9.0852404294
 20
10.6930845257
 30
0.0
 10
9.0768068485
 20
10.6908540347
 30
0.0
 10
9.067893472
 20
10.6887514614
 30
0.0
 10
9.0585293369
 20
10.6867837785
 30
0.0
 10
9.0487450078
 20
10.6849574917
 30
0.0
 10
9.0385724582
 20
10.6832786464
 30
0.0
 10
9.0280449472
 20
10.6817527981
 30
0.0
 10
9.0171969247
 20
10.6803850126
 30
0.0
 10
9.0060638757
 20
10.6791797722
 30
0.0
 10
8.990766003
 20
10.6777838075
 30
0.0
 10
8.9712023496
 20
10.6764799836
 30
0.0
 10
8.9473750155
 20
10.6756219973
 30
0.0
 10
8.9233229886
 20
10.6754701109
 30
0.0
 10
8.8993611037
 20
10.676026317
 30
0.0
 10
8.883464811
 20
10.6768743347
 30
0.0
 10
8.8755887635
 20
10.6774205405
 30
0.0
  0
SPLINE
  5
34B
100
AcDbEntity
  8
0
100
AcDbSpline
 62
7
  6
CONTINUOUS
 70
0
 71
3
 72
49
 73
45
 74
0
 42
0.0000001
 43
0.0000001
 44
0.0000000001
 40
0.0
 40
0.0
 40
0.0
 40
0.0
 40
0.0149718081
 40
0.0299466748
 40
0.0449276404
 40
0.059917709
 40
0.0749198276
 40
0.0899368702
 40
0.1049716217
 40
0.120026759
 40
0.1351048351
 40
0.1502082677
 40
0.1653393229
 40
0.1805001009
 40
0.1956925286
 40
0.2109183481
 40
0.2261791043
 40
0.2414761418
 40
0.256810598
 40
0.2721833946
 40
0.287595237
 40
0.3030466133
 40
0.3340634927
 40
0.3652389307
 40
0.3965689749
 40
0.4280463623
 40
0.4596607137
 40
0.4913987952
 40
0.5232448251
 40
0.5551808189
 40
0.5871869764
 40
0.6192420905
 40
0.6513239761
 40
0.6834099169
 40
0.7154771164
 40
0.7475031494
 40
0.779466411
 40
0.8113465537
 40
0.8431249023
 40
0.8747848503
 40
0.906312225
 40
0.9376956122
 40
0.9689264437
 40
1.0
 40
1.0
 40
1.0
 40
1.0
 10
10.6425201451
 20
9.3354931656
 30
0.0
 10
10.6490073215
 20
9.341759314
 30
0.0
 10
10.6622336129
 20
9.3540363984
 30
0.0
 10
10.6827914174
 20
9.3716510055
 30
0.0
 10
10.7040413936
 20
9.3884425317
 30
0.0
 10
10.7259539286
 20
9.4043874418
 30
0.0
 10
10.7484989895
 20
9.4194638721
 30
0.0
 10
10.7716454747
 20
9.4336511175
 30
0.0
 10
10.7953615483
 20
9.4469296573
 30
0.0
 10
10.8196145955
 20
9.459281173
 30
0.0
 10
10.8443712024
 20
9.4706887491
 30
0.0
 10
10.8695973019
 20
9.4811367056
 30
0.0
 10
10.8952582061
 20
9.4906106144
 30
0.0
 10
10.9213185792
 20
9.4990975172
 30
0.0
 10
10.9477425598
 20
9.5065857772
 30
0.0
 10
10.9744938102
 20
9.5130650404
 30
0.0
 10
11.0015355156
 20
9.5185264537
 30
0.0
 10
11.02883046
 20
9.522962566
 30
0.0
 10
11.0563411422
 20
9.5263672282
 30
0.0
 10
11.0840295857
 20
9.5287358037
 30
0.0
 10
11.1118581912
 20
9.5300650708
 30
0.0
 10
11.1491411514
 20
9.5304498794
 30
0.0
 10
11.1959134214
 20
9.5283164801
 30
0.0
 10
11.2519017501
 20
9.5216068657
 30
0.0
 10
11.3075255065
 20
9.5107822157
 30
0.0
 10
11.3624770734
 20
9.4959024182
 30
0.0
 10
11.4164553342
 20
9.4770498645
 30
0.0
 10
11.4691638528
 20
9.4543285217
 30
0.0
 10
11.5203133821
 20
9.4278634853
 30
0.0
 10
11.5696232985
 20
9.3978004654
 30
0.0
 10
11.6168230098
 20
9.3643046603
 30
0.0
 10
11.6616535381
 20
9.3275601168
 30
0.0
 10
11.7038689384
 20
9.2877686788
 30
0.0
 10
11.7432374523
 20
9.2451487126
 30
0.0
 10
11.7795430284
 20
9.199934196
 30
0.0
 10
11.8125863178
 20
9.1523732452
 30
0.0
 10
11.8421857185
 20
9.1027267858
 30
0.0
 10
11.8681786233
 20
9.0512672805
 30
0.0
 10
11.8904219856
 20
8.9982770866
 30
0.0
 10
11.9087932814
 20
8.9440469222
 30
0.0
 10
11.9231912797
 20
8.8888747633
 30
0.0
 10
11.9335362295
 20
8.8330624703
 30
0.0
 10
11.9397709037
 20
8.776920524
 30
0.0
 10
11.9411673455
 20
8.7393727111
 30
0.0
 10
11.9411673455
 20
8.7206533793
 30
0.0
  0
SPLINE
  5
34C
100
AcDbEntity
  8
0
100
AcDbSpline
 62
7
  6
CONTINUOUS
 70
0
 71
3
 72
37
 73
33
 74
0
 42
0.0000001
 43
0.0000001
 44
0.0000000001
 40
0.0
 40
0.0
 40
0.0
 40
0.0
 40
0.1034273487
 40
0.2013171886
 40
0.2933738005
 40
0.3371554994
 40
0.3794082372
 40
0.4201204064
 40
0.4592875509
 40
0.4969107567
 40
0.5329971428
 40
0.567560379
 40
0.6006188471
 40
0.6321977936
 40
0.6623271566
 40
0.691043121
 40
0.7183876678
 40
0.7444086819
 40
0.7691614631
 40
0.7927078273
 40
0.8151189833
 40
0.8364743107
 40
0.8467867142
 40
0.856870115
 40
0.8763972399
 40
0.8951758769
 40
0.9133325402
 40
0.9310072939
 40
0.9483500638
 40
0.9655204706
 40
0.9826819643
 40
1.0
 40
1.0
 40
1.0
 40
1.0
 10
10.1984516655
 20
6.701349382
 30
0.0
 10
10.190883003
 20
6.6958505237
 30
0.0
 10
10.1757560162
 20
6.6856757974
 30
0.0
 10
10.1526392537
 20
6.6725934079
 30
0.0
 10
10.1334385769
 20
6.6636812268
 30
0.0
 10
10.1184172793
 20
6.6578509078
 30
0.0
 10
10.1075563034
 20
6.6541679465
 30
0.0
 10
10.0969432227
 20
6.651088058
 30
0.0
 10
10.0866073624
 20
6.6485949293
 30
0.0
 10
10.0765763125
 20
6.6466706319
 30
0.0
 10
10.0668757026
 20
6.6452953418
 30
0.0
 10
10.0575292355
 20
6.6444476047
 30
0.0
 10
10.0485585216
 20
6.6441050255
 30
0.0
 10
10.0399832964
 20
6.6442438641
 30
0.0
 10
10.0318213
 20
6.644840004
 30
0.0
 10
10.0240884725
 20
6.6458685893
 30
0.0
 10
10.0167990142
 20
6.6473046819
 30
0.0
 10
10.0099654582
 20
6.6491232218
 30
0.0
 10
10.0035989231
 20
6.6512993028
 30
0.0
 10
9.99770899
 20
6.6538084214
 30
0.0
 10
9.9923044772
 20
6.6566262455
 30
0.0
 10
9.9881635037
 20
6.6592424082
 30
0.0
 10
9.9851117498
 20
6.661469001
 30
0.0
 10
9.9822933906
 20
6.6637283521
 30
0.0
 10
9.9790712851
 20
6.6667014859
 30
0.0
 10
9.9756736387
 20
6.6705261816
 30
0.0
 10
9.972790725
 20
6.6745489174
 30
0.0
 10
9.9704269426
 20
6.6787491369
 30
0.0
 10
9.9685858818
 20
6.6831069845
 30
0.0
 10
9.967270367
 20
6.6876031386
 30
0.0
 10
9.9664824202
 20
6.6922181079
 30
0.0
 10
9.9663106267
 20
6.6953399172
 30
0.0
 10
9.9663105694
 20
6.6969063872
 30
0.0
  0
SPLINE
  5
34D
100
AcDbEntity
  8
0
100
AcDbSpline
 62
7
  6
CONTINUOUS
 70
0
 71
3
 72
49
 73
45
 74
0
 42
0.0000001
 43
0.0000001
 44
0.0000000001
 40
0.0
 40
0.0
 40
0.0
 40
0.0
 40
0.0149718081
 40
0.0299466748
 40
0.0449276404
 40
0.059917709
 40
0.0749198276
 40
0.0899368702
 40
0.1049716217
 40
0.120026759
 40
0.1351048351
 40
0.1502082677
 40
0.1653393229
 40
0.1805001009
 40
0.1956925286
 40
0.2109183481
 40
0.2261791043
 40
0.2414761418
 40
0.256810598
 40
0.2721833946
 40
0.287595237
 40
0.3030466133
 40
0.3340634927
 40
0.3652389307
 40
0.3965689749
 40
0.4280463623
 40
0.4596607137
 40
0.4913987952
 40
0.5232448251
 40
0.5551808189
 40
0.5871869764
 40
0.6192420905
 40
0.6513239761
 40
0.6834099169
 40
0.7154771164
 40
0.7475031494
 40
0.779466411
 40
0.8113465537
 40
0.8431249023
 40
0.8747848503
 40
0.906312225
 40
0.9376956122
 40
0.9689264437
 40
1.0
 40
1.0
 40
1.0
 40
1.0
 10
9.0738564403
 20
7.6331693314
 30
0.0
 10
9.0803436167
 20
7.6394354799
 30
0.0
 10
9.0935699081
 20
7.6517125642
 30
0.0
 10
9.1141277126
 20
7.6693271713
 30
0.0
 10
9.1353776888
 20
7.6861186975
 30
0.0
 10
9.1572902238
 20
7.7020636077
 30
0.0
 10
9.1798352846
 20
7.7171400379
 30
0.0
 10
9.2029817699
 20
7.7313272833
 30
0.0
 10
9.2266978434
 20
7.7446058231
 30
0.0
 10
9.2509508907
 20
7.7569573389
 30
0.0
 10
9.2757074975
 20
7.7683649149
 30
0.0
 10
9.3009335971
 20
7.7788128714
 30
0.0
 10
9.3265945013
 20
7.7882867802
 30
0.0
 10
9.3526548744
 20
7.796773683
 30
0.0
 10
9.3790788549
 20
7.804261943
 30
0.0
 10
9.4058301054
 20
7.8107412063
 30
0.0
 10
9.4328718108
 20
7.8162026195
 30
0.0
 10
9.4601667551
 20
7.8206387318
 30
0.0
 10
9.4876774373
 20
7.824043394
 30
0.0
 10
9.5153658809
 20
7.8264119696
 30
0.0
 10
9.5431944864
 20
7.8277412366
 30
0.0
 10
9.5804774466
 20
7.8281260452
 30
0.0
 10
9.6272497166
 20
7.8259926459
 30
0.0
 10
9.6832380453
 20
7.8192830316
 30
0.0
 10
9.7388618017
 20
7.8084583815
 30
0.0
 10
9.7938133685
 20
7.793578584
 30
0.0
 10
9.8477916294
 20
7.7747260303
 30
0.0
 10
9.900500148
 20
7.7520046875
 30
0.0
 10
9.9516496773
 20
7.7255396511
 30
0.0
 10
10.0009595937
 20
7.6954766312
 30
0.0
 10
10.048159305
 20
7.6619808261
 30
0.0
 10
10.0929898332
 20
7.6252362827
 30
0.0
 10
10.1352052336
 20
7.5854448446
 30
0.0
 10
10.1745737475
 20
7.5428248784
 30
0.0
 10
10.2108793235
 20
7.4976103618
 30
0.0
 10
10.243922613
 20
7.450049411
 30
0.0
 10
10.2735220136
 20
7.4004029517
 30
0.0
 10
10.2995149185
 20
7.3489434463
 30
0.0
 10
10.3217582807
 20
7.2959532524
 30
0.0
 10
10.3401295765
 20
7.241723088
 30
0.0
 10
10.3545275749
 20
7.1865509291
 30
0.0
 10
10.3648725246
 20
7.1307386361
 30
0.0
 10
10.3711071988
 20
7.0745966898
 30
0.0
 10
10.3725036406
 20
7.037048877
 30
0.0
 10
10.3725036406
 20
7.0183295451
 30
0.0
  0
SPLINE
  5
34E
100
AcDbEntity
  8
0
100
AcDbSpline
 62
7
  6
CONTINUOUS
 70
0
 71
3
 72
21
 73
17
 74
0
 42
0.0000001
 43
0.0000001
 44
0.0000000001
 40
0.0
 40
0.0
 40
0.0
 40
0.0
 40
0.122912101
 40
0.1847996113
 40
0.246918343
 40
0.3716752998
 40
0.4342806974
 40
0.4969859363
 40
0.5597654513
 40
0.6225978121
 40
0.685465863
 40
0.7483564666
 40
0.8112605038
 40
0.8741710163
 40
0.9370857207
 40
1.0
 40
1.0
 40
1.0
 40
1.0
 10
10.2917350452
 20
7.2578864455
 30
0.0
 10
10.2754295572
 20
7.2595839964
 30
0.0
 10
10.251016035
 20
7.2633059503
 30
0.0
 10
10.2188764962
 20
7.2705312999
 30
0.0
 10
10.1868690957
 20
7.2793089277
 30
0.0
 10
10.1554172836
 20
7.2903473796
 30
0.0
 10
10.1247907688
 20
7.303578982
 30
0.0
 10
10.1022486103
 20
7.3146110406
 30
0.0
 10
10.0802338163
 20
7.3267229389
 30
0.0
 10
10.0588127443
 20
7.3398987954
 30
0.0
 10
10.0380530016
 20
7.3541205144
 30
0.0
 10
10.0180219284
 20
7.3693678374
 30
0.0
 10
9.9987872351
 20
7.385617534
 30
0.0
 10
9.9804160382
 20
7.4028430212
 30
0.0
 10
9.9629763297
 20
7.4210123692
 30
0.0
 10
9.9520132504
 20
7.4337321584
 30
0.0
 10
9.9467097529
 20
7.4402349926
 30
0.0
  0
SPLINE
  5
34F
100
AcDbEntity
  8
0
100
AcDbSpline
 62
7
  6
CONTINUOUS
 70
0
 71
3
 72
51
 73
47
 74
0
 42
0.0000001
 43
0.0000001
 44
0.0000000001
 40
0.0
 40
0.0
 40
0.0
 40
0.0
 40
0.0063158635
 40
0.0126706303
 40
0.0191024432
 40
0.0256479571
 40
0.0323418077
 40
0.0392161183
 40
0.0536138704
 40
0.0611945442
 40
0.0690562655
 40
0.0772173314
 40
0.0856936749
 40
0.0944990308
 40
0.1036450874
 40
0.1131418266
 40
0.1229975322
 40
0.133219107
 40
0.1438121681
 40
0.1547811246
 40
0.1661294492
 40
0.1778595878
 40
0.1899732142
 40
0.2024712423
 40
0.2153538436
 40
0.2286206595
 40
0.2422706578
 40
0.2707128324
 40
0.3006637013
 40
0.3320988399
 40
0.3649879973
 40
0.399295771
 40
0.4349821468
 40
0.4720029839
 40
0.5103104049
 40
0.5498531248
 40
0.5905767307
 40
0.6324239266
 40
0.6753347831
 40
0.7192469671
 40
0.7640959128
 40
0.8098150179
 40
0.8563359555
 40
0.9035880697
 40
0.951501099
 40
1.0
 40
1.0
 40
1.0
 40
1.0
 10
13.3840546919
 20
8.8479352437
 30
0.0
 10
13.3822884442
 20
8.8480577279
 30
0.0
 10
13.3787534152
 20
8.8484480106
 30
0.0
 10
13.3734904794
 20
8.8494653026
 30
0.0
 10
13.3682627344
 20
8.8509144855
 30
0.0
 10
13.36307321
 20
8.8527943195
 30
0.0
 10
13.3579239768
 20
8.8551038131
 30
0.0
 10
13.3510099176
 20
8.8588100514
 30
0.0
 10
13.3442836425
 20
8.8633471001
 30
0.0
 10
13.3377742849
 20
8.8686047923
 30
0.0
 10
13.3328575659
 20
8.8730377
 30
0.0
 10
13.327993311
 20
8.8778894844
 30
0.0
 10
13.3231827934
 20
8.8831584758
 30
0.0
 10
13.3184279845
 20
8.8888423937
 30
0.0
 10
13.3137305668
 20
8.8949388881
 30
0.0
 10
13.3090924426
 20
8.901445526
 30
0.0
 10
13.3045153344
 20
8.9083596216
 30
0.0
 10
13.3000010736
 20
8.915678393
 30
0.0
 10
13.2955514711
 20
8.9233988795
 30
0.0
 10
13.2911682433
 20
8.9315179212
 30
0.0
 10
13.2868532379
 20
8.9400322514
 30
0.0
 10
13.2826081319
 20
8.9489383748
 30
0.0
 10
13.2784346842
 20
8.9582326719
 30
0.0
 10
13.2743346121
 20
8.9679113502
 30
0.0
 10
13.2703095481
 20
8.977970433
 30
0.0
 10
13.2663611814
 20
8.9884058359
 30
0.0
 10
13.261129301
 20
9.0030165025
 30
0.0
 10
13.2548089992
 20
9.0222014831
 30
0.0
 10
13.2476558522
 20
9.0463485949
 30
0.0
 10
13.2408455075
 20
9.0718867758
 30
0.0
 10
13.2343892637
 20
9.0987740599
 30
0.0
 10
13.2282978632
 20
9.1269664938
 30
0.0
 10
13.2225814377
 20
9.156417797
 30
0.0
 10
13.2172495081
 20
9.1870795846
 30
0.0
 10
13.2123109591
 20
9.2189014294
 30
0.0
 10
13.2077740242
 20
9.251830962
 30
0.0
 10
13.2036462697
 20
9.2858139541
 30
0.0
 10
13.1999345682
 20
9.3207944107
 30
0.0
 10
13.196645103
 20
9.3567146749
 30
0.0
 10
13.1937833583
 20
9.3935155273
 30
0.0
 10
13.1913541087
 20
9.4311362839
 30
0.0
 10
13.1893614056
 20
9.4695149317
 30
0.0
 10
13.1878085921
 20
9.5085880475
 30
0.0
 10
13.1866982107
 20
9.5482914633
 30
0.0
 10
13.1860322002
 20
9.5885592814
 30
0.0
 10
13.1858859559
 20
9.6155861285
 30
0.0
 10
13.1858859559
 20
9.6291815454
 30
0.0
  0
SPLINE
  5
350
100
AcDbEntity
  8
0
100
AcDbSpline
 62
7
  6
CONTINUOUS
 70
0
 71
3
 72
34
 73
30
 74
0
 42
0.0000001
 43
0.0000001
 44
0.0000000001
 40
0.0
 40
0.0
 40
0.0
 40
0.0
 40
0.0162143241
 40
0.0334273298
 40
0.0516716389
 40
0.0709707208
 40
0.0913401736
 40
0.112789239
 40
0.1353214798
 40
0.1589357807
 40
0.1836269308
 40
0.2093860194
 40
0.2362011108
 40
0.2640572752
 40
0.2929371507
 40
0.3228210295
 40
0.3536870519
 40
0.3855115414
 40
0.4182688922
 40
0.4519319798
 40
0.4864720684
 40
0.5218590018
 40
0.5580613538
 40
0.5950463412
 40
0.671226581
 40
0.7501172652
 40
0.8314197126
 40
0.9148212181
 40
1.0
 40
1.0
 40
1.0
 40
1.0
 10
13.3319737934
 20
9.095274291
 30
0.0
 10
13.3299082342
 20
9.0978139911
 30
0.0
 10
13.3258237478
 20
9.1031928721
 30
0.0
 10
13.3199988064
 20
9.1118532291
 30
0.0
 10
13.314301892
 20
9.1213325738
 30
0.0
 10
13.3087389291
 20
9.1316208995
 30
0.0
 10
13.3033152029
 20
9.1427078803
 30
0.0
 10
13.2980363178
 20
9.1545821935
 30
0.0
 10
13.2929076165
 20
9.1672316335
 30
0.0
 10
13.2879344387
 20
9.1806431428
 30
0.0
 10
13.2831220089
 20
9.1948028182
 30
0.0
 10
13.2784753171
 20
9.2096959135
 30
0.0
 10
13.2739993387
 20
9.2253069003
 30
0.0
 10
13.2696987337
 20
9.2416194447
 30
0.0
 10
13.2655780896
 20
9.2586164651
 30
0.0
 10
13.2616417721
 20
9.2762801351
 30
0.0
 10
13.2578939154
 20
9.29459191
 30
0.0
 10
13.254338554
 20
9.3135325531
 30
0.0
 10
13.2509793938
 20
9.3330821508
 30
0.0
 10
13.2478200459
 20
9.3532201399
 30
0.0
 10
13.2448638407
 20
9.3739253326
 30
0.0
 10
13.2421139074
 20
9.3951759294
 30
0.0
 10
13.2395731727
 20
9.4169495807
 30
0.0
 10
13.2364372256
 20
9.4469435587
 30
0.0
 10
13.2330762637
 20
9.485576663
 30
0.0
 10
13.2299528568
 20
9.5332006655
 30
0.0
 10
13.2277143114
 20
9.5823338756
 30
0.0
 10
13.2263702332
 20
9.6327692693
 30
0.0
 10
13.2260771898
 20
9.6668059575
 30
0.0
 10
13.2260771898
 20
9.6840032993
 30
0.0
  0
SPLINE
  5
351
100
AcDbEntity
  8
0
100
AcDbSpline
 62
7
  6
CONTINUOUS
 70
0
 71
3
 72
13
 73
9
 74
0
 42
0.0000001
 43
0.0000001
 44
0.0000000001
 40
0.0
 40
0.0
 40
0.0
 40
0.0
 40
0.1202593462
 40
0.240989319
 40
0.3626544022
 40
0.4857076266
 40
0.7375953483
 40
1.0
 40
1.0
 40
1.0
 40
1.0
 10
13.3341532455
 20
9.1220444107
 30
0.0
 10
13.3331105067
 20
9.1221167191
 30
0.0
 10
13.3310250167
 20
9.1223294241
 30
0.0
 10
13.3279144017
 20
9.1228512598
 30
0.0
 10
13.3248195863
 20
9.123575926
 30
0.0
 10
13.3206843774
 20
9.124821457
 30
0.0
 10
13.315537285
 20
9.1269062826
 30
0.0
 10
13.3116029513
 20
9.1290489164
 30
0.0
 10
13.3096576444
 20
9.130239469
 30
0.0
  0
SPLINE
  5
352
100
AcDbEntity
  8
0
100
AcDbSpline
 62
7
  6
CONTINUOUS
 70
0
 71
3
 72
46
 73
42
 74
0
 42
0.0000001
 43
0.0000001
 44
0.0000000001
 40
0.0
 40
0.0
 40
0.0
 40
0.0
 40
0.0070628664
 40
0.01445588
 40
0.0221882532
 40
0.0302672457
 40
0.0386984761
 40
0.0474860086
 40
0.056632706
 40
0.0661401804
 40
0.0760091336
 40
0.0862392741
 40
0.0968295661
 40
0.1077782088
 40
0.119082741
 40
0.1307401293
 40
0.1550976944
 40
0.1808170151
 40
0.2078562577
 40
0.2361674539
 40
0.2656972162
 40
0.2963873254
 40
0.3281752241
 40
0.3609944463
 40
0.3947750015
 40
0.4294437227
 40
0.4649245881
 40
0.5011390245
 40
0.5380061974
 40
0.5754432909
 40
0.6133657808
 40
0.6516877028
 40
0.6903219163
 40
0.7291803682
 40
0.7681743505
 40
0.8072147741
 40
0.8462123748
 40
0.8850781417
 40
0.9237230808
 40
0.962059711
 40
1.0
 40
1.0
 40
1.0
 40
1.0
 10
13.4429251359
 20
10.695145074
 30
0.0
 10
13.4411159869
 20
10.6934613163
 30
0.0
 10
13.4374995584
 20
10.6899212907
 30
0.0
 10
13.4321993709
 20
10.6842446242
 30
0.0
 10
13.4269049199
 20
10.678085642
 30
0.0
 10
13.421619406
 20
10.6714482101
 30
0.0
 10
13.4163459149
 20
10.6643361945
 30
0.0
 10
13.4110874776
 20
10.6567539012
 30
0.0
 10
13.4058473161
 20
10.6487058078
 30
0.0
 10
13.4006284586
 20
10.6401967902
 30
0.0
 10
13.3954341382
 20
10.6312319191
 30
0.0
 10
13.3902674124
 20
10.6218166258
 30
0.0
 10
13.385131457
 20
10.6119565702
 30
0.0
 10
13.380029377
 20
10.6016577232
 30
0.0
 10
13.3749642215
 20
10.5909263073
 30
0.0
 10
13.3681644506
 20
10.5758280201
 30
0.0
 10
13.3597968947
 20
10.5559078945
 30
0.0
 10
13.3500926669
 20
10.5307249245
 30
0.0
 10
13.340607588
 20
10.5039862169
 30
0.0
 10
13.3313648947
 20
10.4757566873
 30
0.0
 10
13.3223872381
 20
10.4461046428
 30
0.0
 10
13.3136966266
 20
10.4151020546
 30
0.0
 10
13.3053143621
 20
10.382824228
 30
0.0
 10
13.297260984
 20
10.3493496409
 30
0.0
 10
13.2895562206
 20
10.3147597282
 30
0.0
 10
13.2822189394
 20
10.2791386762
 30
0.0
 10
13.275267102
 20
10.2425732094
 30
0.0
 10
13.2687177206
 20
10.2051523744
 30
0.0
 10
13.2625868173
 20
10.1669673184
 30
0.0
 10
13.2568893854
 20
10.1281110641
 30
0.0
 10
13.251639354
 20
10.0886782809
 30
0.0
 10
13.2468495543
 20
10.0487650518
 30
0.0
 10
13.2425316871
 20
10.0084686375
 30
0.0
 10
13.2386962957
 20
9.9678872385
 30
0.0
 10
13.2353527389
 20
9.9271197497
 30
0.0
 10
13.2325091759
 20
9.8862655325
 30
0.0
 10
13.2301725267
 20
9.8454241239
 30
0.0
 10
13.2283485005
 20
9.8046951339
 30
0.0
 10
13.2270414912
 20
9.7641776453
 30
0.0
 10
13.2262547153
 20
9.723970671
 30
0.0
 10
13.2260771898
 20
9.6972794234
 30
0.0
 10
13.2260771898
 20
9.6840032993
 30
0.0
  0
SPLINE
  5
353
100
AcDbEntity
  8
0
100
AcDbSpline
 62
7
  6
CONTINUOUS
 70
0
 71
3
 72
13
 73
9
 74
0
 42
0.0000001
 43
0.0000001
 44
0.0000000001
 40
0.0
 40
0.0
 40
0.0
 40
0.0
 40
0.1201991939
 40
0.2408750917
 40
0.3624983461
 40
0.4855279538
 40
0.7374408079
 40
1.0
 40
1.0
 40
1.0
 40
1.0
 10
13.4413885473
 20
10.6683304606
 30
0.0
 10
13.4403386862
 20
10.6684032629
 30
0.0
 10
13.4382293944
 20
10.668480515
 30
0.0
 10
13.4350547978
 20
10.6683903921
 30
0.0
 10
13.4318676937
 20
10.6680943822
 30
0.0
 10
13.4275701664
 20
10.6674203354
 30
0.0
 10
13.4221463614
 20
10.6660446438
 30
0.0
 10
13.4179258499
 20
10.6644422438
 30
0.0
 10
13.4158208441
 20
10.6635184562
 30
0.0
  0
SPLINE
  5
354
100
AcDbEntity
  8
0
100
AcDbSpline
 62
7
  6
CONTINUOUS
 70
0
 71
3
 72
22
 73
18
 74
0
 42
0.0000001
 43
0.0000001
 44
0.0000000001
 40
0.0
 40
0.0
 40
0.0
 40
0.0
 40
0.0520527122
 40
0.1060834623
 40
0.1619179205
 40
0.2193849284
 40
0.2783274373
 40
0.3386061062
 40
0.4001031992
 40
0.462724263
 40
0.5910137935
 40
0.6566625276
 40
0.7232791052
 40
0.7908779565
 40
0.8594932421
 40
0.9291774379
 40
1.0
 40
1.0
 40
1.0
 40
1.0
 10
11.6619161636
 20
9.2710937194
 30
0.0
 10
11.6571673901
 20
9.2714208791
 30
0.0
 10
11.6475129632
 20
9.2724748774
 30
0.0
 10
11.6329352748
 20
9.275130956
 30
0.0
 10
11.6180861711
 20
9.2788705779
 30
0.0
 10
11.6030749951
 20
9.283674068
 30
0.0
 10
11.5880039219
 20
9.2895256276
 30
0.0
 10
11.5729709934
 20
9.2964125539
 30
0.0
 10
11.5580691615
 20
9.3043260325
 30
0.0
 10
11.5383430073
 20
9.3163301318
 30
0.0
 10
11.5194108847
 20
9.3303005692
 30
0.0
 10
11.5015892611
 20
9.3461324647
 30
0.0
 10
11.4886987174
 20
9.359107391
 30
0.0
 10
11.4764852773
 20
9.3730836925
 30
0.0
 10
11.465044309
 20
9.3880555358
 30
0.0
 10
11.4544764123
 20
9.4040106662
 30
0.0
 10
11.4481342427
 20
9.4151995825
 30
0.0
 10
11.4451411052
 20
9.4209429012
 30
0.0
  0
SPLINE
  5
355
100
AcDbEntity
  8
0
100
AcDbSpline
 62
7
  6
CONTINUOUS
 70
0
 71
3
 72
51
 73
47
 74
0
 42
0.0000001
 43
0.0000001
 44
0.0000000001
 40
0.0
 40
0.0
 40
0.0
 40
0.0
 40
0.0063158635
 40
0.0126706303
 40
0.0191024432
 40
0.0256479571
 40
0.0323418077
 40
0.0392161183
 40
0.0536138704
 40
0.0611945442
 40
0.0690562655
 40
0.0772173314
 40
0.0856936749
 40
0.0944990308
 40
0.1036450874
 40
0.1131418266
 40
0.1229975322
 40
0.133219107
 40
0.1438121681
 40
0.1547811246
 40
0.1661294492
 40
0.1778595878
 40
0.1899732142
 40
0.2024712423
 40
0.2153538436
 40
0.2286206595
 40
0.2422706578
 40
0.2707128324
 40
0.3006637013
 40
0.3320988399
 40
0.3649879973
 40
0.399295771
 40
0.4349821468
 40
0.4720029839
 40
0.5103104049
 40
0.5498531248
 40
0.5905767307
 40
0.6324239266
 40
0.6753347831
 40
0.7192469671
 40
0.7640959128
 40
0.8098150179
 40
0.8563359555
 40
0.9035880697
 40
0.951501099
 40
1.0
 40
1.0
 40
1.0
 40
1.0
 10
13.3840546919
 20
6.3123797995
 30
0.0
 10
13.3822884442
 20
6.3125022836
 30
0.0
 10
13.3787534152
 20
6.3128925664
 30
0.0
 10
13.3734904794
 20
6.3139098583
 30
0.0
 10
13.3682627344
 20
6.3153590413
 30
0.0
 10
13.36307321
 20
6.3172388752
 30
0.0
 10
13.3579239768
 20
6.3195483689
 30
0.0
 10
13.3510099176
 20
6.3232546071
 30
0.0
 10
13.3442836425
 20
6.3277916559
 30
0.0
 10
13.3377742849
 20
6.3330493481
 30
0.0
 10
13.3328575659
 20
6.3374822557
 30
0.0
 10
13.327993311
 20
6.3423340402
 30
0.0
 10
13.3231827934
 20
6.3476030316
 30
0.0
 10
13.3184279845
 20
6.3532869495
 30
0.0
 10
13.3137305668
 20
6.3593834439
 30
0.0
 10
13.3090924426
 20
6.3658900818
 30
0.0
 10
13.3045153344
 20
6.3728041774
 30
0.0
 10
13.3000010736
 20
6.3801229488
 30
0.0
 10
13.2955514711
 20
6.3878434353
 30
0.0
 10
13.2911682433
 20
6.3959624769
 30
0.0
 10
13.2868532379
 20
6.4044768071
 30
0.0
 10
13.2826081319
 20
6.4133829305
 30
0.0
 10
13.2784346842
 20
6.4226772276
 30
0.0
 10
13.2743346121
 20
6.432355906
 30
0.0
 10
13.2703095481
 20
6.4424149888
 30
0.0
 10
13.2663611814
 20
6.4528503917
 30
0.0
 10
13.261129301
 20
6.4674610583
 30
0.0
 10
13.2548089992
 20
6.4866460389
 30
0.0
 10
13.2476558522
 20
6.5107931506
 30
0.0
 10
13.2408455075
 20
6.5363313315
 30
0.0
 10
13.2343892637
 20
6.5632186156
 30
0.0
 10
13.2282978632
 20
6.5914110495
 30
0.0
 10
13.2225814377
 20
6.6208623528
 30
0.0
 10
13.2172495081
 20
6.6515241403
 30
0.0
 10
13.2123109591
 20
6.6833459851
 30
0.0
 10
13.2077740242
 20
6.7162755178
 30
0.0
 10
13.2036462697
 20
6.7502585098
 30
0.0
 10
13.1999345682
 20
6.7852389664
 30
0.0
 10
13.196645103
 20
6.8211592306
 30
0.0
 10
13.1937833583
 20
6.857960083
 30
0.0
 10
13.1913541087
 20
6.8955808397
 30
0.0
 10
13.1893614056
 20
6.9339594875
 30
0.0
 10
13.1878085921
 20
6.9730326033
 30
0.0
 10
13.1866982107
 20
7.012736019
 30
0.0
 10
13.1860322002
 20
7.0530038371
 30
0.0
 10
13.1858859559
 20
7.0800306842
 30
0.0
 10
13.1858859559
 20
7.0936261012
 30
0.0
  0
SPLINE
  5
356
100
AcDbEntity
  8
0
100
AcDbSpline
 62
7
  6
CONTINUOUS
 70
0
 71
3
 72
34
 73
30
 74
0
 42
0.0000001
 43
0.0000001
 44
0.0000000001
 40
0.0
 40
0.0
 40
0.0
 40
0.0
 40
0.0162143241
 40
0.0334273298
 40
0.0516716389
 40
0.0709707208
 40
0.0913401736
 40
0.112789239
 40
0.1353214798
 40
0.1589357807
 40
0.1836269308
 40
0.2093860194
 40
0.2362011108
 40
0.2640572752
 40
0.2929371507
 40
0.3228210295
 40
0.3536870519
 40
0.3855115414
 40
0.4182688922
 40
0.4519319798
 40
0.4864720684
 40
0.5218590018
 40
0.5580613538
 40
0.5950463412
 40
0.671226581
 40
0.7501172652
 40
0.8314197126
 40
0.9148212181
 40
1.0
 40
1.0
 40
1.0
 40
1.0
 10
13.3319737934
 20
6.5597188468
 30
0.0
 10
13.3299082342
 20
6.5622585469
 30
0.0
 10
13.3258237478
 20
6.5676374278
 30
0.0
 10
13.3199988064
 20
6.5762977848
 30
0.0
 10
13.314301892
 20
6.5857771296
 30
0.0
 10
13.3087389291
 20
6.5960654552
 30
0.0
 10
13.3033152029
 20
6.607152436
 30
0.0
 10
13.2980363178
 20
6.6190267493
 30
0.0
 10
13.2929076165
 20
6.6316761893
 30
0.0
 10
13.2879344387
 20
6.6450876986
 30
0.0
 10
13.2831220089
 20
6.6592473739
 30
0.0
 10
13.2784753171
 20
6.6741404692
 30
0.0
 10
13.2739993387
 20
6.6897514561
 30
0.0
 10
13.2696987337
 20
6.7060640005
 30
0.0
 10
13.2655780896
 20
6.7230610209
 30
0.0
 10
13.2616417721
 20
6.7407246909
 30
0.0
 10
13.2578939154
 20
6.7590364657
 30
0.0
 10
13.254338554
 20
6.7779771089
 30
0.0
 10
13.2509793938
 20
6.7975267065
 30
0.0
 10
13.2478200459
 20
6.8176646957
 30
0.0
 10
13.2448638407
 20
6.8383698883
 30
0.0
 10
13.2421139074
 20
6.8596204851
 30
0.0
 10
13.2395731727
 20
6.8813941365
 30
0.0
 10
13.2364372256
 20
6.9113881144
 30
0.0
 10
13.2330762637
 20
6.9500212188
 30
0.0
 10
13.2299528568
 20
6.9976452213
 30
0.0
 10
13.2277143114
 20
7.0467784314
 30
0.0
 10
13.2263702332
 20
7.097213825
 30
0.0
 10
13.2260771898
 20
7.1312505133
 30
0.0
 10
13.2260771898
 20
7.148447855
 30
0.0
  0
SPLINE
  5
357
100
AcDbEntity
  8
0
100
AcDbSpline
 62
7
  6
CONTINUOUS
 70
0
 71
3
 72
13
 73
9
 74
0
 42
0.0000001
 43
0.0000001
 44
0.0000000001
 40
0.0
 40
0.0
 40
0.0
 40
0.0
 40
0.1202593462
 40
0.240989319
 40
0.3626544022
 40
0.4857076266
 40
0.7375953483
 40
1.0
 40
1.0
 40
1.0
 40
1.0
 10
13.3341532455
 20
6.5864889664
 30
0.0
 10
13.3331105067
 20
6.5865612748
 30
0.0
 10
13.3310250167
 20
6.5867739799
 30
0.0
 10
13.3279144017
 20
6.5872958156
 30
0.0
 10
13.3248195863
 20
6.5880204818
 30
0.0
 10
13.3206843774
 20
6.5892660127
 30
0.0
 10
13.315537285
 20
6.5913508384
 30
0.0
 10
13.3116029513
 20
6.5934934722
 30
0.0
 10
13.3096576444
 20
6.5946840247
 30
0.0
  0
SPLINE
  5
358
100
AcDbEntity
  8
0
100
AcDbSpline
 62
7
  6
CONTINUOUS
 70
0
 71
3
 72
46
 73
42
 74
0
 42
0.0000001
 43
0.0000001
 44
0.0000000001
 40
0.0
 40
0.0
 40
0.0
 40
0.0
 40
0.0070628664
 40
0.01445588
 40
0.0221882532
 40
0.0302672457
 40
0.0386984761
 40
0.0474860086
 40
0.056632706
 40
0.0661401804
 40
0.0760091336
 40
0.0862392741
 40
0.0968295661
 40
0.1077782088
 40
0.119082741
 40
0.1307401293
 40
0.1550976944
 40
0.1808170151
 40
0.2078562577
 40
0.2361674539
 40
0.2656972162
 40
0.2963873254
 40
0.3281752241
 40
0.3609944463
 40
0.3947750015
 40
0.4294437227
 40
0.4649245881
 40
0.5011390245
 40
0.5380061974
 40
0.5754432909
 40
0.6133657808
 40
0.6516877028
 40
0.6903219163
 40
0.7291803682
 40
0.7681743505
 40
0.8072147741
 40
0.8462123748
 40
0.8850781417
 40
0.9237230808
 40
0.962059711
 40
1.0
 40
1.0
 40
1.0
 40
1.0
 10
13.4429251359
 20
8.1595896297
 30
0.0
 10
13.4411159869
 20
8.157905872
 30
0.0
 10
13.4374995584
 20
8.1543658464
 30
0.0
 10
13.4321993709
 20
8.14868918
 30
0.0
 10
13.4269049199
 20
8.1425301978
 30
0.0
 10
13.421619406
 20
8.1358927658
 30
0.0
 10
13.4163459149
 20
8.1287807503
 30
0.0
 10
13.4110874776
 20
8.121198457
 30
0.0
 10
13.4058473161
 20
8.1131503635
 30
0.0
 10
13.4006284586
 20
8.104641346
 30
0.0
 10
13.3954341382
 20
8.0956764749
 30
0.0
 10
13.3902674124
 20
8.0862611815
 30
0.0
 10
13.385131457
 20
8.076401126
 30
0.0
 10
13.380029377
 20
8.066102279
 30
0.0
 10
13.3749642215
 20
8.055370863
 30
0.0
 10
13.3681644506
 20
8.0402725759
 30
0.0
 10
13.3597968947
 20
8.0203524502
 30
0.0
 10
13.3500926669
 20
7.9951694803
 30
0.0
 10
13.340607588
 20
7.9684307726
 30
0.0
 10
13.3313648947
 20
7.9402012431
 30
0.0
 10
13.3223872381
 20
7.9105491986
 30
0.0
 10
13.3136966266
 20
7.8795466104
 30
0.0
 10
13.3053143621
 20
7.8472687838
 30
0.0
 10
13.297260984
 20
7.8137941967
 30
0.0
 10
13.2895562206
 20
7.779204284
 30
0.0
 10
13.2822189394
 20
7.743583232
 30
0.0
 10
13.275267102
 20
7.7070177652
 30
0.0
 10
13.2687177206
 20
7.6695969301
 30
0.0
 10
13.2625868173
 20
7.6314118741
 30
0.0
 10
13.2568893854
 20
7.5925556199
 30
0.0
 10
13.251639354
 20
7.5531228367
 30
0.0
 10
13.2468495543
 20
7.5132096075
 30
0.0
 10
13.2425316871
 20
7.4729131932
 30
0.0
 10
13.2386962957
 20
7.4323317943
 30
0.0
 10
13.2353527389
 20
7.3915643054
 30
0.0
 10
13.2325091759
 20
7.3507100883
 30
0.0
 10
13.2301725267
 20
7.3098686797
 30
0.0
 10
13.2283485005
 20
7.2691396897
 30
0.0
 10
13.2270414912
 20
7.228622201
 30
0.0
 10
13.2262547153
 20
7.1884152268
 30
0.0
 10
13.2260771898
 20
7.1617239792
 30
0.0
 10
13.2260771898
 20
7.148447855
 30
0.0
  0
SPLINE
  5
359
100
AcDbEntity
  8
0
100
AcDbSpline
 62
7
  6
CONTINUOUS
 70
0
 71
3
 72
13
 73
9
 74
0
 42
0.0000001
 43
0.0000001
 44
0.0000000001
 40
0.0
 40
0.0
 40
0.0
 40
0.0
 40
0.1201991939
 40
0.2408750917
 40
0.3624983461
 40
0.4855279538
 40
0.7374408079
 40
1.0
 40
1.0
 40
1.0
 40
1.0
 10
13.4413885473
 20
8.1327750163
 30
0.0
 10
13.4403386862
 20
8.1328478186
 30
0.0
 10
13.4382293944
 20
8.1329250707
 30
0.0
 10
13.4350547978
 20
8.1328349478
 30
0.0
 10
13.4318676937
 20
8.132538938
 30
0.0
 10
13.4275701664
 20
8.1318648912
 30
0.0
 10
13.4221463614
 20
8.1304891996
 30
0.0
 10
13.4179258499
 20
8.1288867995
 30
0.0
 10
13.4158208441
 20
8.127963012
 30
0.0
  0
SPLINE
  5
35A
100
AcDbEntity
  8
0
100
AcDbSpline
 62
7
  6
CONTINUOUS
 70
0
 71
3
 72
20
 73
16
 74
0
 42
0.0000001
 43
0.0000001
 44
0.0000000001
 40
0.0
 40
0.0
 40
0.0
 40
0.0
 40
0.0591192005
 40
0.1177748361
 40
0.1761819644
 40
0.2345550481
 40
0.2931027619
 40
0.3520302153
 40
0.4115362859
 40
0.4718068989
 40
0.5952960497
 40
0.723811182
 40
0.7903106631
 40
0.8584499714
 40
1.0
 40
1.0
 40
1.0
 40
1.0
 10
11.483310563
 20
8.5116782853
 30
0.0
 10
11.4833106562
 20
8.510492929
 30
0.0
 10
11.4832455327
 20
8.5081309445
 30
0.0
 10
11.4829481188
 20
8.5046091539
 30
0.0
 10
11.4824514509
 20
8.5011248749
 30
0.0
 10
11.4817556208
 20
8.4976770881
 30
0.0
 10
11.4808608709
 20
8.4942647226
 30
0.0
 10
11.4797674883
 20
8.490886905
 30
0.0
 10
11.4784757809
 20
8.4875427827
 30
0.0
 10
11.4764739412
 20
8.4830927424
 30
0.0
 10
11.473454849
 20
8.4775941919
 30
0.0
 10
11.4698470468
 20
8.4723134286
 30
0.0
 10
11.46659059
 20
8.4681602179
 30
0.0
 10
11.4629925777
 20
8.4639490166
 30
0.0
 10
11.460068903
 20
8.460920201
 30
0.0
 10
11.4580275741
 20
8.4589484285
 30
0.0
  0
SPLINE
  5
35B
100
AcDbEntity
  8
0
100
AcDbSpline
 62
7
  6
CONTINUOUS
 70
0
 71
3
 72
21
 73
17
 74
0
 42
0.0000001
 43
0.0000001
 44
0.0000000001
 40
0.0
 40
0.0
 40
0.0
 40
0.0
 40
0.063130646
 40
0.1260956563
 40
0.1889118925
 40
0.2515982677
 40
0.3141748298
 40
0.3766618613
 40
0.4390790473
 40
0.5014449278
 40
0.5637763692
 40
0.6260880935
 40
0.6883925444
 40
0.7506996674
 40
0.8753175979
 40
1.0
 40
1.0
 40
1.0
 40
1.0
 10
10.6909436162
 20
8.890740434
 30
0.0
 10
10.6941522917
 20
8.8967077298
 30
0.0
 10
10.7003045845
 20
8.9087667957
 30
0.0
 10
10.7087236906
 20
8.9272171517
 30
0.0
 10
10.7163062586
 20
8.9459758352
 30
0.0
 10
10.7230389887
 20
8.9650117543
 30
0.0
 10
10.7289110603
 20
8.9842936442
 30
0.0
 10
10.7339136444
 20
9.0037893627
 30
0.0
 10
10.7380395949
 20
9.0234661519
 30
0.0
 10
10.7412832341
 20
9.0432905498
 30
0.0
 10
10.7436403556
 20
9.0632284018
 30
0.0
 10
10.7451080424
 20
9.0832446776
 30
0.0
 10
10.7456844306
 20
9.1033041275
 30
0.0
 10
10.745263893
 20
9.1300559597
 30
0.0
 10
10.7425084087
 20
9.1634303627
 30
0.0
 10
10.7379370483
 20
9.1898337708
 30
0.0
 10
10.7350677725
 20
9.2029036064
 30
0.0
  0
SPLINE
  5
35C
100
AcDbEntity
  8
0
100
AcDbSpline
 62
7
  6
CONTINUOUS
 70
0
 71
3
 72
39
 73
35
 74
0
 42
0.0000001
 43
0.0000001
 44
0.0000000001
 40
0.0
 40
0.0
 40
0.0
 40
0.0
 40
0.0304912905
 40
0.0610938915
 40
0.091807735
 40
0.1226315329
 40
0.1535628042
 40
0.1845979142
 40
0.2157321236
 40
0.2469596505
 40
0.2782737394
 40
0.3096667402
 40
0.3411301927
 40
0.3726549189
 40
0.40423112
 40
0.4358484779
 40
0.4674962613
 40
0.4991634345
 40
0.5308387682
 40
0.5625109521
 40
0.5941687077
 40
0.6258009004
 40
0.6573966509
 40
0.6889454449
 40
0.7204372403
 40
0.7518625704
 40
0.7832126449
 40
0.8144794412
 40
0.8456558057
 40
0.8767354862
 40
0.9077133713
 40
0.9385850564
 40
0.9693481681
 40
1.0
 40
1.0
 40
1.0
 40
1.0
 10
11.8924919249
 20
8.8070292553
 30
0.0
 10
11.882285569
 20
8.8066046535
 30
0.0
 10
11.8618089004
 20
8.8062978488
 30
0.0
 10
11.8310599634
 20
8.8074585879
 30
0.0
 10
11.8003021311
 20
8.8102360067
 30
0.0
 10
11.7696214036
 20
8.8146223863
 30
0.0
 10
11.7391021065
 20
8.8206055295
 30
0.0
 10
11.7088285
 20
8.8281688552
 30
0.0
 10
11.6788840513
 20
8.8372914239
 30
0.0
 10
11.6493513374
 20
8.8479479989
 30
0.0
 10
11.6203117854
 20
8.8601091237
 30
0.0
 10
11.5918454589
 20
8.8737412028
 30
0.0
 10
11.5640308362
 20
8.8888065947
 30
0.0
 10
11.5369445973
 20
8.9052637155
 30
0.0
 10
11.5106614134
 20
8.9230671534
 30
0.0
 10
11.4852537424
 20
8.9421677927
 30
0.0
 10
11.4607916322
 20
8.9625129507
 30
0.0
 10
11.4373425224
 20
8.9840465147
 30
0.0
 10
11.4149710604
 20
9.0067090995
 30
0.0
 10
11.3937389279
 20
9.030438215
 30
0.0
 10
11.373704671
 20
9.055168436
 30
0.0
 10
11.3549235402
 20
9.0808315821
 30
0.0
 10
11.3374473385
 20
9.1073569041
 30
0.0
 10
11.3213242799
 20
9.1346712776
 30
0.0
 10
11.3065988567
 20
9.1626994033
 30
0.0
 10
11.2933117173
 20
9.1913640134
 30
0.0
 10
11.2814995479
 20
9.2205860784
 30
0.0
 10
11.2711949677
 20
9.2502850317
 30
0.0
 10
11.2624264689
 20
9.2803789749
 30
0.0
 10
11.2552182646
 20
9.3107849646
 30
0.0
 10
11.2495903927
 20
9.3414190128
 30
0.0
 10
11.2455583129
 20
9.3721970617
 30
0.0
 10
11.2431334383
 20
9.4030329327
 30
0.0
 10
11.24259174
 20
9.4236121517
 30
0.0
 10
11.24259174
 20
9.4338811203
 30
0.0
  0
SPLINE
  5
35D
100
AcDbEntity
  8
0
100
AcDbSpline
 62
7
  6
CONTINUOUS
 70
0
 71
3
 72
42
 73
38
 74
0
 42
0.0000001
 43
0.0000001
 44
0.0000000001
 40
0.0
 40
0.0
 40
0.0
 40
0.0
 40
0.0055576443
 40
0.0111781836
 40
0.0169222355
 40
0.022846223
 40
0.0290011442
 40
0.0354316623
 40
0.0421762431
 40
0.049267259
 40
0.0567314277
 40
0.0645907244
 40
0.072862575
 40
0.081560766
 40
0.0906959315
 40
0.100275708
 40
0.1103055927
 40
0.1207888494
 40
0.1431177711
 40
0.1672591076
 40
0.1931868442
 40
0.2208588039
 40
0.2502193991
 40
0.2812018039
 40
0.3137295194
 40
0.3477175618
 40
0.3830734051
 40
0.419697946
 40
0.4574862654
 40
0.4963282772
 40
0.5361092896
 40
0.5767106614
 40
0.6598810502
 40
0.7448351505
 40
0.8305372122
 40
0.9159392559
 40
1.0
 40
1.0
 40
1.0
 40
1.0
 10
12.3414216174
 20
10.4789685468
 30
0.0
 10
12.3414216174
 20
10.4794905194
 30
0.0
 10
12.3414800375
 20
10.4805412816
 30
0.0
 10
12.3417423446
 20
10.482111814
 30
0.0
 10
12.3421788397
 20
10.4836788388
 30
0.0
 10
12.342788645
 20
10.4852405612
 30
0.0
 10
12.343570854
 20
10.4867956674
 30
0.0
 10
12.3445243028
 20
10.4883430227
 30
0.0
 10
12.3456479785
 20
10.4898815271
 30
0.0
 10
12.3469407687
 20
10.4914101403
 30
0.0
 10
12.3484014755
 20
10.4929278805
 30
0.0
 10
12.3500289388
 20
10.4944336235
 30
0.0
 10
12.3518217842
 20
10.4959263483
 30
0.0
 10
12.3537785919
 20
10.497404941
 30
0.0
 10
12.3558978241
 20
10.4988682454
 30
0.0
 10
12.3581777546
 20
10.5003151887
 30
0.0
 10
12.3606165966
 20
10.5017446042
 30
0.0
 10
12.3641524995
 20
10.5036661637
 30
0.0
 10
12.3689657101
 20
10.506006565
 30
0.0
 10
12.3752239094
 20
10.5086712694
 30
0.0
 10
12.3820608037
 20
10.5112397179
 30
0.0
 10
12.3894543167
 20
10.5137034993
 30
0.0
 10
12.3973807076
 20
10.5160545212
 30
0.0
 10
12.4058142885
 20
10.5182850122
 30
0.0
 10
12.4147276651
 20
10.5203875855
 30
0.0
 10
12.4240918002
 20
10.5223552684
 30
0.0
 10
12.4338761292
 20
10.5241815552
 30
0.0
 10
12.4440486789
 20
10.5258604005
 30
0.0
 10
12.4545761899
 20
10.5273862488
 30
0.0
 10
12.4654242123
 20
10.5287540343
 30
0.0
 10
12.4765572613
 20
10.5299592746
 30
0.0
 10
12.491855134
 20
10.5313552394
 30
0.0
 10
12.5114187874
 20
10.5326590633
 30
0.0
 10
12.5352461216
 20
10.5335170496
 30
0.0
 10
12.5592981485
 20
10.533668936
 30
0.0
 10
12.5832600333
 20
10.5331127299
 30
0.0
 10
12.599156326
 20
10.5322647121
 30
0.0
 10
12.6070323736
 20
10.5317185064
 30
0.0
  0
SPLINE
  5
35E
100
AcDbEntity
  8
0
100
AcDbSpline
 62
7
  6
CONTINUOUS
 70
0
 71
3
 72
71
 73
67
 74
0
 42
0.0000001
 43
0.0000001
 44
0.0000000001
 40
0.0
 40
0.0
 40
0.0
 40
0.0
 40
0.0156373971
 40
0.0313278976
 40
0.0470702878
 40
0.0628636373
 40
0.0787060812
 40
0.0945954871
 40
0.1105292288
 40
0.1265042944
 40
0.1425172944
 40
0.1585644997
 40
0.1746418768
 40
0.1907451251
 40
0.2068697163
 40
0.2230109347
 40
0.2391639194
 40
0.2553237067
 40
0.2714852733
 40
0.2876435805
 40
0.3037936184
 40
0.3199304489
 40
0.3360492494
 40
0.3521453551
 40
0.3682143003
 40
0.3842518588
 40
0.4002540825
 40
0.416217339
 40
0.4321383459
 40
0.4480142034
 40
0.4638424236
 40
0.4796209569
 40
0.4953482153
 40
0.5110230907
 40
0.5266449714
 40
0.5422137523
 40
0.5577298414
 40
0.5731941611
 40
0.5886081441
 40
0.6039737242
 40
0.6192933216
 40
0.6345698232
 40
0.6498065569
 40
0.6650072611
 40
0.6801760494
 40
0.6953173697
 40
0.710435959
 40
0.7255367955
 40
0.7406250456
 40
0.7557060103
 40
0.7707850681
 40
0.7858676181
 40
0.800959022
 40
0.816064547
 40
0.8311893099
 40
0.8463382233
 40
0.8615159441
 40
0.8767268263
 40
0.8919748772
 40
0.9072637174
 40
0.9225965517
 40
0.937976118
 40
0.9534047439
 40
0.9688840783
 40
0.9844157248
 40
1.0
 40
1.0
 40
1.0
 40
1.0
 10
11.9037922126
 20
8.731551771
 30
0.0
 10
11.9037922126
 20
8.7431869195
 30
0.0
 10
11.9032189436
 20
8.766500691
 30
0.0
 10
11.9006517205
 20
8.8014426844
 30
0.0
 10
11.8963817839
 20
8.8363353398
 30
0.0
 10
11.8904197084
 20
8.8710933428
 30
0.0
 10
11.8827797681
 20
8.9056334542
 30
0.0
 10
11.8734805091
 20
8.9398723731
 30
0.0
 10
11.8625443421
 20
8.9737277171
 30
0.0
 10
11.8499976631
 20
9.0071179785
 30
0.0
 10
11.8358707176
 20
9.0399627859
 30
0.0
 10
11.8201975657
 20
9.0721830857
 30
0.0
 10
11.8030159789
 20
9.1037013307
 30
0.0
 10
11.7843673512
 20
9.1344416648
 30
0.0
 10
11.7642965998
 20
9.1643301045
 30
0.0
 10
11.7428520572
 20
9.193294715
 30
0.0
 10
11.7200853553
 20
9.2212657827
 30
0.0
 10
11.6960513025
 20
9.2481759815
 30
0.0
 10
11.6708077518
 20
9.2739605338
 30
0.0
 10
11.6444154719
 20
9.2985573758
 30
0.0
 10
11.6169379909
 20
9.3219072974
 30
0.0
 10
11.5884414442
 20
9.3439540843
 30
0.0
 10
11.5589944163
 20
9.3646446521
 30
0.0
 10
11.5286677775
 20
9.3839291736
 30
0.0
 10
11.4975345139
 20
9.4017611979
 30
0.0
 10
11.4656695536
 20
9.4180977618
 30
0.0
 10
11.4331495874
 20
9.4328994932
 30
0.0
 10
11.4000528903
 20
9.4461307182
 30
0.0
 10
11.3664591277
 20
9.4577595355
 30
0.0
 10
11.332449165
 20
9.467757893
 30
0.0
 10
11.2981048747
 20
9.4761016559
 30
0.0
 10
11.2635089411
 20
9.4827706646
 30
0.0
 10
11.2287446628
 20
9.4877487847
 30
0.0
 10
11.1938957536
 20
9.4910239463
 30
0.0
 10
11.1590461425
 20
9.4925881745
 30
0.0
 10
11.1242797724
 20
9.4924376242
 30
0.0
 10
11.0896803966
 20
9.4905725768
 30
0.0
 10
11.0553313784
 20
9.4869974419
 30
0.0
 10
11.0213154913
 20
9.4817207482
 30
0.0
 10
10.9877147197
 20
9.4747551251
 30
0.0
 10
10.9546100616
 20
9.4661172748
 30
0.0
 10
10.9220813332
 20
9.4558279344
 30
0.0
 10
10.8902069755
 20
9.443911828
 30
0.0
 10
10.8590638584
 20
9.430397622
 30
0.0
 10
10.8287270968
 20
9.4153178444
 30
0.0
 10
10.7992698685
 20
9.3987088076
 30
0.0
 10
10.7707632354
 20
9.3806105219
 30
0.0
 10
10.7432759703
 20
9.3610665999
 30
0.0
 10
10.7168743886
 20
9.3401241514
 30
0.0
 10
10.6916221862
 20
9.3178336697
 30
0.0
 10
10.6675802836
 20
9.2942489094
 30
0.0
 10
10.6448066665
 20
9.2694267644
 30
0.0
 10
10.623356253
 20
9.2434271185
 30
0.0
 10
10.6032807598
 20
9.2163126981
 30
0.0
 10
10.5846285775
 20
9.1881489195
 30
0.0
 10
10.567444653
 20
9.1590037283
 30
0.0
 10
10.5517703822
 20
9.1289474339
 30
0.0
 10
10.5376435099
 20
9.0980525371
 30
0.0
 10
10.5250980421
 20
9.066393555
 30
0.0
 10
10.5141641446
 20
9.0340468398
 30
0.0
 10
10.5048681098
 20
9.0010904025
 30
0.0
 10
10.4972322228
 20
8.9676036591
 30
0.0
 10
10.4912748882
 20
8.9336674725
 30
0.0
 10
10.4870102191
 20
8.8993631929
 30
0.0
 10
10.484448625
 20
8.8647747577
 30
0.0
 10
10.4838811638
 20
8.8416185593
 30
0.0
 10
10.4838811638
 20
8.8300229367
 30
0.0
  0
SPLINE
  5
35F
100
AcDbEntity
  8
0
100
AcDbSpline
 62
7
  6
CONTINUOUS
 70
0
 71
3
 72
42
 73
38
 74
0
 42
0.0000001
 43
0.0000001
 44
0.0000000001
 40
0.0
 40
0.0
 40
0.0
 40
0.0
 40
0.0055576443
 40
0.0111781836
 40
0.0169222355
 40
0.022846223
 40
0.0290011442
 40
0.0354316623
 40
0.0421762431
 40
0.049267259
 40
0.0567314277
 40
0.0645907244
 40
0.072862575
 40
0.081560766
 40
0.0906959315
 40
0.100275708
 40
0.1103055927
 40
0.1207888494
 40
0.1431177711
 40
0.1672591076
 40
0.1931868442
 40
0.2208588039
 40
0.2502193991
 40
0.2812018039
 40
0.3137295194
 40
0.3477175618
 40
0.3830734051
 40
0.419697946
 40
0.4574862654
 40
0.4963282772
 40
0.5361092896
 40
0.5767106614
 40
0.6598810502
 40
0.7448351505
 40
0.8305372122
 40
0.9159392559
 40
1.0
 40
1.0
 40
1.0
 40
1.0
 10
8.7191995542
 20
10.7301705001
 30
0.0
 10
8.7191995542
 20
10.7306924727
 30
0.0
 10
8.7192579743
 20
10.7317432349
 30
0.0
 10
8.7195202814
 20
10.7333137673
 30
0.0
 10
8.7199567765
 20
10.7348807921
 30
0.0
 10
8.7205665818
 20
10.7364425145
 30
0.0
 10
8.7213487908
 20
10.7379976207
 30
0.0
 10
8.7223022396
 20
10.739544976
 30
0.0
 10
8.7234259153
 20
10.7410834804
 30
0.0
 10
8.7247187055
 20
10.7426120936
 30
0.0
 10
8.7261794122
 20
10.7441298338
 30
0.0
 10
8.7278068756
 20
10.7456355767
 30
0.0
 10
8.729599721
 20
10.7471283016
 30
0.0
 10
8.7315565287
 20
10.7486068943
 30
0.0
 10
8.7336757609
 20
10.7500701987
 30
0.0
 10
8.7359556914
 20
10.751517142
 30
0.0
 10
8.7383945334
 20
10.7529465575
 30
0.0
 10
8.7419304363
 20
10.754868117
 30
0.0
 10
8.7467436469
 20
10.7572085183
 30
0.0
 10
8.7530018462
 20
10.7598732227
 30
0.0
 10
8.7598387405
 20
10.7624416712
 30
0.0
 10
8.7672322535
 20
10.7649054526
 30
0.0
 10
8.7751586444
 20
10.7672564744
 30
0.0
 10
8.7835922253
 20
10.7694869654
 30
0.0
 10
8.7925056019
 20
10.7715895388
 30
0.0
 10
8.801869737
 20
10.7735572217
 30
0.0
 10
8.811654066
 20
10.7753835085
 30
0.0
 10
8.8218266157
 20
10.7770623538
 30
0.0
 10
8.8323541267
 20
10.7785882021
 30
0.0
 10
8.8432021491
 20
10.7799559876
 30
0.0
 10
8.8543351981
 20
10.7811612279
 30
0.0
 10
8.8696330708
 20
10.7825571927
 30
0.0
 10
8.8891967242
 20
10.7838610166
 30
0.0
 10
8.9130240584
 20
10.7847190029
 30
0.0
 10
8.9370760853
 20
10.7848708893
 30
0.0
 10
8.9610379701
 20
10.7843146831
 30
0.0
 10
8.9769342628
 20
10.7834666654
 30
0.0
 10
8.9848103104
 20
10.7829204597
 30
0.0
  0
SPLINE
  5
360
100
AcDbEntity
  8
0
100
AcDbSpline
 62
7
  6
CONTINUOUS
 70
0
 71
3
 72
49
 73
45
 74
0
 42
0.0000001
 43
0.0000001
 44
0.0000000001
 40
0.0
 40
0.0
 40
0.0
 40
0.0
 40
0.0149718081
 40
0.0299466748
 40
0.0449276404
 40
0.059917709
 40
0.0749198276
 40
0.0899368702
 40
0.1049716217
 40
0.120026759
 40
0.1351048351
 40
0.1502082677
 40
0.1653393229
 40
0.1805001009
 40
0.1956925286
 40
0.2109183481
 40
0.2261791043
 40
0.2414761418
 40
0.256810598
 40
0.2721833946
 40
0.287595237
 40
0.3030466133
 40
0.3340634927
 40
0.3652389307
 40
0.3965689749
 40
0.4280463623
 40
0.4596607137
 40
0.4913987952
 40
0.5232448251
 40
0.5551808189
 40
0.5871869764
 40
0.6192420905
 40
0.6513239761
 40
0.6834099169
 40
0.7154771164
 40
0.7475031494
 40
0.779466411
 40
0.8113465537
 40
0.8431249023
 40
0.8747848503
 40
0.906312225
 40
0.9376956122
 40
0.9689264437
 40
1.0
 40
1.0
 40
1.0
 40
1.0
 10
11.729106464
 20
8.2105815543
 30
0.0
 10
11.7226192876
 20
8.2043154059
 30
0.0
 10
11.7093929962
 20
8.1920383215
 30
0.0
 10
11.6888351917
 20
8.1744237144
 30
0.0
 10
11.6675852155
 20
8.1576321882
 30
0.0
 10
11.6456726805
 20
8.1416872781
 30
0.0
 10
11.6231276196
 20
8.1266108478
 30
0.0
 10
11.5999811344
 20
8.1124236024
 30
0.0
 10
11.5762650609
 20
8.0991450626
 30
0.0
 10
11.5520120136
 20
8.0867935469
 30
0.0
 10
11.5272554068
 20
8.0753859708
 30
0.0
 10
11.5020293072
 20
8.0649380143
 30
0.0
 10
11.476368403
 20
8.0554641055
 30
0.0
 10
11.4503080299
 20
8.0469772027
 30
0.0
 10
11.4238840494
 20
8.0394889427
 30
0.0
 10
11.3971327989
 20
8.0330096795
 30
0.0
 10
11.3700910935
 20
8.0275482662
 30
0.0
 10
11.3427961492
 20
8.0231121539
 30
0.0
 10
11.315285467
 20
8.0197074917
 30
0.0
 10
11.2875970234
 20
8.0173389162
 30
0.0
 10
11.2597684179
 20
8.0160096491
 30
0.0
 10
11.2224854577
 20
8.0156248405
 30
0.0
 10
11.1757131877
 20
8.0177582398
 30
0.0
 10
11.119724859
 20
8.0244678542
 30
0.0
 10
11.0641011026
 20
8.0352925042
 30
0.0
 10
11.0091495358
 20
8.0501723017
 30
0.0
 10
10.9551712749
 20
8.0690248554
 30
0.0
 10
10.9024627563
 20
8.0917461982
 30
0.0
 10
10.851313227
 20
8.1182112346
 30
0.0
 10
10.8020033106
 20
8.1482742545
 30
0.0
 10
10.7548035993
 20
8.1817700596
 30
0.0
 10
10.709973071
 20
8.2185146031
 30
0.0
 10
10.6677576707
 20
8.2583060411
 30
0.0
 10
10.6283891568
 20
8.3009260073
 30
0.0
 10
10.5920835808
 20
8.3461405239
 30
0.0
 10
10.5590402913
 20
8.3937014747
 30
0.0
 10
10.5294408907
 20
8.4433479341
 30
0.0
 10
10.5034479858
 20
8.4948074394
 30
0.0
 10
10.4812046236
 20
8.5477976333
 30
0.0
 10
10.4628333278
 20
8.6020277977
 30
0.0
 10
10.4484353294
 20
8.6571999566
 30
0.0
 10
10.4380903796
 20
8.7130122496
 30
0.0
 10
10.4318557055
 20
8.7691541959
 30
0.0
 10
10.4304592637
 20
8.8067020088
 30
0.0
 10
10.4304592637
 20
8.8254213406
 30
0.0
  0
SPLINE
  5
361
100
AcDbEntity
  8
0
100
AcDbSpline
 62
7
  6
CONTINUOUS
 70
0
 71
3
 72
47
 73
43
 74
0
 42
0.0000001
 43
0.0000001
 44
0.0000000001
 40
0.0
 40
0.0
 40
0.0
 40
0.0
 40
0.0149687608
 40
0.0299417876
 40
0.0449220687
 40
0.0599125491
 40
0.0749161113
 40
0.0899355593
 40
0.1049736039
 40
0.1200328435
 40
0.1351157501
 40
0.1502246587
 40
0.1653617491
 40
0.1805290361
 40
0.1957283616
 40
0.2109613808
 40
0.2262295544
 40
0.241534146
 40
0.2722511961
 40
0.3031239162
 40
0.3341547734
 40
0.3653427973
 40
0.3966836467
 40
0.4281697532
 40
0.4597905257
 40
0.4915326035
 40
0.5233801615
 40
0.5553152561
 40
0.5873181981
 40
0.6193679555
 40
0.6514425759
 40
0.6835196185
 40
0.7155765949
 40
0.7475914099
 40
0.7795427988
 40
0.8114107494
 40
0.8431769085
 40
0.8748249662
 40
0.906341008
 40
0.9377138422
 40
0.9689350341
 40
1.0
 40
1.0
 40
1.0
 40
1.0
 10
11.7290483318
 20
8.2106522787
 30
0.0
 10
11.7225014381
 20
8.2045324877
 30
0.0
 10
11.7091625581
 20
8.1925484097
 30
0.0
 10
11.688457147
 20
8.1753735889
 30
0.0
 10
11.6670798658
 20
8.1590205193
 30
0.0
 10
11.6450601132
 20
8.1435118435
 30
0.0
 10
11.622427686
 20
8.1288685489
 30
0.0
 10
11.5992134114
 20
8.115110471
 30
0.0
 10
11.5754487916
 20
8.1022563264
 30
0.0
 10
11.5511661018
 20
8.0903236002
 30
0.0
 10
11.5263983713
 20
8.0793284048
 30
0.0
 10
11.5011792244
 20
8.0692857057
 30
0.0
 10
11.4755429062
 20
8.060209165
 30
0.0
 10
11.4495242806
 20
8.0521110063
 30
0.0
 10
11.4231586355
 20
8.0450022528
 30
0.0
 10
11.3964819052
 20
8.0388925872
 30
0.0
 10
11.3695298466
 20
8.0337901736
 30
0.0
 10
11.3332364407
 20
8.0283331041
 30
0.0
 10
11.2873502723
 20
8.024069521
 30
0.0
 10
11.2318577096
 20
8.0230692388
 30
0.0
 10
11.1761602068
 20
8.0261818472
 30
0.0
 10
11.12056207
 20
8.0333902518
 30
0.0
 10
11.0653642835
 20
8.044654561
 30
0.0
 10
11.0108662448
 20
8.0599130982
 30
0.0
 10
10.9573633122
 20
8.0790826979
 30
0.0
 10
10.9051453875
 20
8.1020589351
 30
0.0
 10
10.8544953394
 20
8.1287168705
 30
0.0
 10
10.8056875778
 20
8.1589118085
 30
0.0
 10
10.7589864428
 20
8.1924798298
 30
0.0
 10
10.714644876
 20
8.2292388582
 30
0.0
 10
10.6729031388
 20
8.2689896862
 30
0.0
 10
10.6339873381
 20
8.3115168332
 30
0.0
 10
10.5981083438
 20
8.3565898723
 30
0.0
 10
10.5654607266
 20
8.4039646854
 30
0.0
 10
10.5362214863
 20
8.4533846025
 30
0.0
 10
10.510549274
 20
8.5045819328
 30
0.0
 10
10.4885835943
 20
8.5572793565
 30
0.0
 10
10.4704437975
 20
8.611191424
 30
0.0
 10
10.4562286314
 20
8.6660257333
 30
0.0
 10
10.4460158231
 20
8.7214860924
 30
0.0
 10
10.439861089
 20
8.7772679374
 30
0.0
 10
10.4384826473
 20
8.8145727564
 30
0.0
 10
10.4384826473
 20
8.8331713345
 30
0.0
  0
SPLINE
  5
362
100
AcDbEntity
  8
0
100
AcDbSpline
 62
7
  6
CONTINUOUS
 70
0
 71
3
 72
47
 73
43
 74
0
 42
0.0000001
 43
0.0000001
 44
0.0000000001
 40
0.0
 40
0.0
 40
0.0
 40
0.0
 40
0.0149719701
 40
0.0299469998
 40
0.0449281282
 40
0.0599183596
 40
0.074920642
 40
0.0899378484
 40
0.1049727639
 40
0.1200280657
 40
0.1351063065
 40
0.1502099046
 40
0.1653411254
 40
0.180502069
 40
0.1956946637
 40
0.2109206499
 40
0.2261815727
 40
0.2414787788
 40
0.2721808845
 40
0.3030390423
 40
0.3340562612
 40
0.3652320396
 40
0.3965624276
 40
0.4280401587
 40
0.4596548547
 40
0.4913932827
 40
0.5232396593
 40
0.5551760004
 40
0.5871825057
 40
0.6192379677
 40
0.6513202013
 40
0.6834064899
 40
0.7154740364
 40
0.747500416
 40
0.7794640241
 40
0.8113445111
 40
0.8431232035
 40
0.8747834946
 40
0.906311207
 40
0.9376949507
 40
0.9689260908
 40
1.0
 40
1.0
 40
1.0
 40
1.0
 10
11.7007785457
 20
8.2694192587
 30
0.0
 10
11.694805694
 20
8.2636499317
 30
0.0
 10
11.6826280225
 20
8.2523462607
 30
0.0
 10
11.6637001035
 20
8.2361282672
 30
0.0
 10
11.6441348698
 20
8.2206681281
 30
0.0
 10
11.623959644
 20
8.2059874385
 30
0.0
 10
11.6032020267
 20
8.1921063951
 30
0.0
 10
11.5818906686
 20
8.1790440438
 30
0.0
 10
11.5600548964
 20
8.1668183305
 30
0.0
 10
11.537724715
 20
8.1554461643
 30
0.0
 10
11.5149309093
 20
8.1449430809
 30
0.0
 10
11.4917048343
 20
8.1353235386
 30
0.0
 10
11.4680784227
 20
8.1266008342
 30
0.0
 10
11.4440842364
 20
8.1187868418
 30
0.0
 10
11.4197552364
 20
8.1118923457
 30
0.0
 10
11.3951250125
 20
8.1059268654
 30
0.0
 10
11.3702270117
 20
8.1008984527
 30
0.0
 10
11.3366823309
 20
8.0954465459
 30
0.0
 10
11.2942397261
 20
8.0910133371
 30
0.0
 10
11.2428661778
 20
8.0895308348
 30
0.0
 10
11.1912613901
 20
8.0918850059
 30
0.0
 10
11.1397109774
 20
8.0980626716
 30
0.0
 10
11.0884976629
 20
8.1080292318
 30
0.0
 10
11.0379028524
 20
8.1217293315
 30
0.0
 10
10.9882042834
 20
8.1390872118
 30
0.0
 10
10.9396747822
 20
8.1600071866
 30
0.0
 10
10.8925806571
 20
8.1843739887
 30
0.0
 10
10.8471802992
 20
8.2120535181
 30
0.0
 10
10.8037228352
 20
8.2428936495
 30
0.0
 10
10.7624467222
 20
8.2767249499
 30
0.0
 10
10.7235784106
 20
8.3133615778
 30
0.0
 10
10.6873312212
 20
8.3526024229
 30
0.0
 10
10.653904174
 20
8.3942321515
 30
0.0
 10
10.6234807703
 20
8.4380222729
 30
0.0
 10
10.5962281303
 20
8.4837325043
 30
0.0
 10
10.5722961171
 20
8.5311120749
 30
0.0
 10
10.5518163603
 20
8.5799009639
 30
0.0
 10
10.5349016062
 20
8.6298314862
 30
0.0
 10
10.5216451776
 20
8.6806293435
 30
0.0
 10
10.5121204604
 20
8.7320165619
 30
0.0
 10
10.5063800775
 20
8.7837073003
 30
0.0
 10
10.5050943626
 20
8.8182781333
 30
0.0
 10
10.5050943626
 20
8.8355133145
 30
0.0
  0
SPLINE
  5
363
100
AcDbEntity
  8
0
100
AcDbSpline
 62
7
  6
CONTINUOUS
 70
0
 71
3
 72
45
 73
41
 74
0
 42
0.0000001
 43
0.0000001
 44
0.0000000001
 40
0.0
 40
0.0
 40
0.0
 40
0.0
 40
0.0149641173
 40
0.029934725
 40
0.044914706
 40
0.0599068892
 40
0.0749140294
 40
0.0899387964
 40
0.1049837574
 40
0.12005136
 40
0.1351439243
 40
0.1502636262
 40
0.165412484
 40
0.1805923547
 40
0.2110462731
 40
0.2416420462
 40
0.2723877382
 40
0.3032881496
 40
0.3343447615
 40
0.3655557503
 40
0.396916077
 40
0.428417638
 40
0.4600494691
 40
0.4917979987
 40
0.523647349
 40
0.555579669
 40
0.5875754965
 40
0.6196141436
 40
0.6516741015
 40
0.6837334534
 40
0.7157702939
 40
0.7477631489
 40
0.779691388
 40
0.8115356274
 40
0.8432781162
 40
0.8749030945
 40
0.9063971251
 40
0.9377494391
 40
0.9689518427
 40
1.0
 40
1.0
 40
1.0
 40
1.0
 10
11.7208983431
 20
8.2898290489
 30
0.0
 10
11.7147737149
 20
8.2844492228
 30
0.0
 10
11.702310567
 20
8.2739250081
 30
0.0
 10
11.6830105598
 20
8.2588758896
 30
0.0
 10
11.6631267543
 20
8.2445801784
 30
0.0
 10
11.642685794
 20
8.2310572471
 30
0.0
 10
11.6217147071
 20
8.2183248893
 30
0.0
 10
11.6002413486
 20
8.2063999371
 30
0.0
 10
11.5782941113
 20
8.1952982928
 30
0.0
 10
11.5559021464
 20
8.1850345695
 30
0.0
 10
11.5330950963
 20
8.1756223492
 30
0.0
 10
11.5099032728
 20
8.1670742065
 30
0.0
 10
11.4863570136
 20
8.1594012544
 30
0.0
 10
11.4545012833
 20
8.1503424951
 30
0.0
 10
11.4139357703
 20
8.1412592978
 30
0.0
 10
11.3644113568
 20
8.1340111182
 30
0.0
 10
11.3142423943
 20
8.1304379975
 30
0.0
 10
11.2636965284
 20
8.1305588462
 30
0.0
 10
11.21304096
 20
8.1343723287
 30
0.0
 10
11.162543969
 20
8.1418576805
 30
0.0
 10
11.1124727085
 20
8.1529747139
 30
0.0
 10
11.0630920409
 20
8.1676641524
 30
0.0
 10
11.0146630972
 20
8.1858478843
 30
0.0
 10
10.9674418887
 20
8.2074293037
 30
0.0
 10
10.9216780113
 20
8.232293964
 30
0.0
 10
10.8776133643
 20
8.2603101794
 30
0.0
 10
10.8354808297
 20
8.2913296159
 30
0.0
 10
10.7955030592
 20
8.3251881051
 30
0.0
 10
10.7578913652
 20
8.3617065756
 30
0.0
 10
10.7228446211
 20
8.4006919704
 30
0.0
 10
10.6905481103
 20
8.4419381603
 30
0.0
 10
10.6611726452
 20
8.485227121
 30
0.0
 10
10.634873702
 20
8.5303300765
 30
0.0
 10
10.6117905566
 20
8.5770086612
 30
0.0
 10
10.5920454777
 20
8.6250161091
 30
0.0
 10
10.5757432064
 20
8.6740987197
 30
0.0
 10
10.5629703821
 20
8.7239967674
 30
0.0
 10
10.5537950789
 20
8.7744472241
 30
0.0
 10
10.5482661233
 20
8.8251797963
 30
0.0
 10
10.5470279924
 20
8.8591041844
 30
0.0
 10
10.5470279924
 20
8.8760180929
 30
0.0
  0
SPLINE
  5
364
100
AcDbEntity
  8
0
100
AcDbSpline
 62
7
  6
CONTINUOUS
 70
0
 71
3
 72
45
 73
41
 74
0
 42
0.0000001
 43
0.0000001
 44
0.0000000001
 40
0.0
 40
0.0
 40
0.0
 40
0.0
 40
0.0149721384
 40
0.0299473353
 40
0.0449286316
 40
0.0599190316
 40
0.0749214813
 40
0.0899388561
 40
0.1049739408
 40
0.1200294102
 40
0.1351078205
 40
0.1502115883
 40
0.1653429774
 40
0.1805040919
 40
0.2109173721
 40
0.2414702803
 40
0.2721727302
 40
0.3030312324
 40
0.3340487994
 40
0.3652249282
 40
0.3965556662
 40
0.4280337495
 40
0.4596488007
 40
0.4913875843
 40
0.5232343171
 40
0.5551710162
 40
0.5871778805
 40
0.6192337014
 40
0.6513162944
 40
0.6834029425
 40
0.7154708484
 40
0.7474975871
 40
0.779461553
 40
0.8113423971
 40
0.8431214459
 40
0.874782092
 40
0.9063101554
 40
0.9376942574
 40
0.9689257386
 40
1.0
 40
1.0
 40
1.0
 40
1.0
 10
11.7224415415
 20
8.354994358
 30
0.0
 10
11.7168544295
 20
8.3495976402
 30
0.0
 10
11.7054632324
 20
8.3390239981
 30
0.0
 10
11.687757728
 20
8.3238534335
 30
0.0
 10
11.669456115
 20
8.30939172
 30
0.0
 10
11.650583841
 20
8.2956592005
 30
0.0
 10
11.6311668272
 20
8.2826746324
 30
0.0
 10
11.6112318496
 20
8.2704558542
 30
0.0
 10
11.5908062706
 20
8.2590197757
 30
0.0
 10
11.56991827
 20
8.2483820302
 30
0.0
 10
11.5485965524
 20
8.2385572467
 30
0.0
 10
11.5268705438
 20
8.2295590413
 30
0.0
 10
11.5047697521
 20
8.2213995673
 30
0.0
 10
11.4748160344
 20
8.2116446349
 30
0.0
 10
11.4365726611
 20
8.2016042188
 30
0.0
 10
11.3897371091
 20
8.1930799688
 30
0.0
 10
11.342159174
 20
8.1881106611
 30
0.0
 10
11.29410245
 20
8.1867236657
 30
0.0
 10
11.2458307549
 20
8.1889258742
 30
0.0
 10
11.1976095683
 20
8.1947045857
 30
0.0
 10
11.1497037948
 20
8.2040274368
 30
0.0
 10
11.1023765541
 20
8.2168427209
 30
0.0
 10
11.0558877018
 20
8.233079618
 30
0.0
 10
11.0104923948
 20
8.2526485016
 30
0.0
 10
10.966439748
 20
8.2754415814
 30
0.0
 10
10.923971507
 20
8.3013334939
 30
0.0
 10
10.8833206867
 20
8.3301818875
 30
0.0
 10
10.8447103041
 20
8.361828226
 30
0.0
 10
10.8083522269
 20
8.3960987287
 30
0.0
 10
10.7744460308
 20
8.4328052958
 30
0.0
 10
10.7431778054
 20
8.4717464296
 30
0.0
 10
10.7147192288
 20
8.5127084273
 30
0.0
 10
10.6892266666
 20
8.5554665469
 30
0.0
 10
10.6668402745
 20
8.5997861922
 30
0.0
 10
10.6476831544
 20
8.6454241259
 30
0.0
 10
10.6318608073
 20
8.6921299669
 30
0.0
 10
10.619460535
 20
8.7396471348
 30
0.0
 10
10.6105509551
 20
8.7877155925
 30
0.0
 10
10.6051812983
 20
8.836067971
 30
0.0
 10
10.6039786217
 20
8.868406102
 30
0.0
 10
10.6039786217
 20
8.8845281798
 30
0.0
  0
SPLINE
  5
365
100
AcDbEntity
  8
0
100
AcDbSpline
 62
7
  6
CONTINUOUS
 70
0
 71
3
 72
42
 73
38
 74
0
 42
0.0000001
 43
0.0000001
 44
0.0000000001
 40
0.0
 40
0.0
 40
0.0
 40
0.0
 40
0.0302771196
 40
0.0454600827
 40
0.0606722779
 40
0.0911827256
 40
0.121813731
 40
0.1371762047
 40
0.1525688739
 40
0.1834409134
 40
0.2144303296
 40
0.2455330339
 40
0.2767435214
 40
0.3080549539
 40
0.3394592565
 40
0.370947227
 40
0.4025086555
 40
0.4341324542
 40
0.4658067944
 40
0.49751925
 40
0.5292569463
 40
0.5610067125
 40
0.5927552361
 40
0.6244892194
 40
0.6561955349
 40
0.6878613803
 40
0.7194744295
 40
0.7510229812
 40
0.7824961012
 40
0.8138837575
 40
0.8451769508
 40
0.8763678238
 40
0.9074497942
 40
0.9384175771
 40
0.9538587615
 40
0.9692704983
 40
1.0
 40
1.0
 40
1.0
 40
1.0
 10
11.8896531798
 20
8.6550193437
 30
0.0
 10
11.8776710593
 20
8.6527667785
 30
0.0
 10
11.8595751409
 20
8.6499125716
 30
0.0
 10
11.8352964787
 20
8.6471620331
 30
0.0
 10
11.8108538972
 20
8.6451086289
 30
0.0
 10
11.7801148822
 20
8.6438648701
 30
0.0
 10
11.7492948549
 20
8.6443856472
 30
0.0
 10
11.7246166903
 20
8.6458558423
 30
0.0
 10
11.6998934045
 20
8.6480328612
 30
0.0
 10
11.6690302162
 20
8.652073747
 30
0.0
 10
11.6322236835
 20
8.6590069416
 30
0.0
 10
11.5957263929
 20
8.6680066036
 30
0.0
 10
11.5596573745
 20
8.6790433876
 30
0.0
 10
11.5241332922
 20
8.6920814188
 30
0.0
 10
11.4892692907
 20
8.7070783368
 30
0.0
 10
11.4551782971
 20
8.7239854541
 30
0.0
 10
11.4219707461
 20
8.7427479088
 30
0.0
 10
11.3897542014
 20
8.7633048435
 30
0.0
 10
11.3586330164
 20
8.7855896022
 30
0.0
 10
11.3287079972
 20
8.8095299453
 30
0.0
 10
11.3000760782
 20
8.8350482828
 30
0.0
 10
11.2728300107
 20
8.8620619246
 30
0.0
 10
11.2470580639
 20
8.8904833466
 30
0.0
 10
11.2228437411
 20
8.9202204731
 30
0.0
 10
11.2002655103
 20
8.9511769727
 30
0.0
 10
11.1793965516
 20
8.9832525692
 30
0.0
 10
11.1603045209
 20
9.0163433631
 30
0.0
 10
11.1430513317
 20
9.0503421678
 30
0.0
 10
11.127692956
 20
9.0851388481
 30
0.0
 10
11.1142792387
 20
9.1206206971
 30
0.0
 10
11.1028537502
 20
9.1566727135
 30
0.0
 10
11.0934536007
 20
9.1931782859
 30
0.0
 10
11.086109457
 20
9.2300184015
 30
0.0
 10
11.0817181745
 20
9.2609297722
 30
0.0
 10
11.0792569073
 20
9.2857048013
 30
0.0
 10
11.0775005272
 20
9.3104429026
 30
0.0
 10
11.0769700362
 20
9.3290286478
 30
0.0
 10
11.0769700362
 20
9.3414028298
 30
0.0
  0
SPLINE
  5
366
100
AcDbEntity
  8
0
100
AcDbSpline
 62
7
  6
CONTINUOUS
 70
0
 71
3
 72
40
 73
36
 74
0
 42
0.0000001
 43
0.0000001
 44
0.0000000001
 40
0.0
 40
0.0
 40
0.0
 40
0.0
 40
0.0302735628
 40
0.0454547395
 40
0.0606651469
 40
0.0911720625
 40
0.1217996634
 40
0.1525485123
 40
0.183417598
 40
0.2144043668
 40
0.2455047726
 40
0.2767133439
 40
0.3080232666
 40
0.3394264809
 40
0.370913791
 40
0.4024749851
 40
0.4340989655
 40
0.4657738864
 40
0.4974872981
 40
0.5292262965
 40
0.5609776762
 40
0.5927280864
 40
0.6244641876
 40
0.6561728088
 40
0.6878411021
 40
0.7194566963
 40
0.7510078452
 40
0.7824835715
 40
0.8138738019
 40
0.8451695014
 40
0.8763627742
 40
0.9074470243
 40
0.9384169054
 40
0.9692687565
 40
1.0
 40
1.0
 40
1.0
 40
1.0
 10
11.8954057225
 20
8.7156286105
 30
0.0
 10
11.8842600294
 20
8.7135014296
 30
0.0
 10
11.8674257482
 20
8.710799387
 30
0.0
 10
11.8448368649
 20
8.7081801707
 30
0.0
 10
11.8220936692
 20
8.7062104206
 30
0.0
 10
11.7934879299
 20
8.7049814666
 30
0.0
 10
11.7590342963
 20
8.7054809924
 30
0.0
 10
11.7245292864
 20
8.7079513205
 30
0.0
 10
11.6900858048
 20
8.7123843306
 30
0.0
 10
11.6558156468
 20
8.7187654511
 30
0.0
 10
11.6218302625
 20
8.7270738083
 30
0.0
 10
11.5882400945
 20
8.7372822702
 30
0.0
 10
11.5551543036
 20
8.7493575437
 30
0.0
 10
11.5226803947
 20
8.7632602829
 30
0.0
 10
11.4909238767
 20
8.7789452175
 30
0.0
 10
11.4599879207
 20
8.796361301
 30
0.0
 10
11.4299730283
 20
8.815451876
 30
0.0
 10
11.400976707
 20
8.8361548584
 30
0.0
 10
11.3730931561
 20
8.8584029382
 30
0.0
 10
11.3464129627
 20
8.8821237976
 30
0.0
 10
11.3210228094
 20
8.9072403445
 30
0.0
 10
11.2970051946
 20
8.933670962
 30
0.0
 10
11.2744381659
 20
8.961329772
 30
0.0
 10
11.2533950681
 20
8.9901269123
 30
0.0
 10
11.2339443059
 20
9.0199688268
 30
0.0
 10
11.216149123
 20
9.0507585675
 30
0.0
 10
11.2000673967
 20
9.0823961074
 30
0.0
 10
11.1857514522
 20
9.1147786621
 30
0.0
 10
11.1732478879
 20
9.1478010247
 30
0.0
 10
11.1625974359
 20
9.1813558911
 30
0.0
 10
11.1538348005
 20
9.2153342597
 30
0.0
 10
11.1469886068
 20
9.2496255819
 30
0.0
 10
11.1420811849
 20
9.2841188398
 30
0.0
 10
11.1391286908
 20
9.3187003666
 30
0.0
 10
11.1384688046
 20
9.341787672
 30
0.0
 10
11.1384688046
 20
9.353306082
 30
0.0
  0
SPLINE
  5
367
100
AcDbEntity
  8
0
100
AcDbSpline
 62
7
  6
CONTINUOUS
 70
0
 71
3
 72
39
 73
35
 74
0
 42
0.0000001
 43
0.0000001
 44
0.0000000001
 40
0.0
 40
0.0
 40
0.0
 40
0.0
 40
0.0304776686
 40
0.0610671238
 40
0.0917684886
 40
0.1225806441
 40
0.1535012551
 40
0.1845268082
 40
0.215652662
 40
0.2468731074
 40
0.2781814377
 40
0.3095700275
 40
0.3410304184
 40
0.3725534122
 40
0.4041291697
 40
0.4357473138
 40
0.4673970371
 40
0.4990672135
 40
0.5307465107
 40
0.5624235047
 40
0.5940867951
 40
0.6257251194
 40
0.6573274668
 40
0.6888831908
 40
0.7203821177
 40
0.7518146537
 40
0.7831718867
 40
0.814445681
 40
0.8456287794
 40
0.8767148391
 40
0.9076986677
 40
0.93857581
 40
0.9693438181
 40
1.0
 40
1.0
 40
1.0
 40
1.0
 10
11.8945537389
 20
8.7829153099
 30
0.0
 10
11.8839675443
 20
8.7823837046
 30
0.0
 10
11.8627235454
 20
8.7818861794
 30
0.0
 10
11.8308081672
 20
8.7828319932
 30
0.0
 10
11.7988700684
 20
8.7854655864
 30
0.0
 10
11.766999458
 20
8.7897795835
 30
0.0
 10
11.7352848224
 20
8.7957618552
 30
0.0
 10
11.7038146104
 20
8.8033956466
 30
0.0
 10
11.672676467
 20
8.8126595988
 30
0.0
 10
11.6419571322
 20
8.8235278238
 30
0.0
 10
11.6117421636
 20
8.8359699738
 30
0.0
 10
11.5821157098
 20
8.8499513274
 30
0.0
 10
11.5531602759
 20
8.8654328864
 30
0.0
 10
11.524956496
 20
8.8823714839
 30
0.0
 10
11.4975829099
 20
8.9007199047
 30
0.0
 10
11.4711157471
 20
8.9204270167
 30
0.0
 10
11.4456287133
 20
8.9414379092
 30
0.0
 10
11.4211927822
 20
8.9636940432
 30
0.0
 10
11.3978760053
 20
8.9871334206
 30
0.0
 10
11.3757433217
 20
9.0116907546
 30
0.0
 10
11.3548563789
 20
9.0372976512
 30
0.0
 10
11.3352733625
 20
9.063882798
 30
0.0
 10
11.3170488347
 20
9.091372162
 30
0.0
 10
11.300233583
 20
9.1196891933
 30
0.0
 10
11.28487448
 20
9.1487550382
 30
0.0
 10
11.2710143508
 20
9.1784887555
 30
0.0
 10
11.2586918495
 20
9.2088075376
 30
0.0
 10
11.2479413507
 20
9.2396269487
 30
0.0
 10
11.2387928806
 20
9.2708611402
 30
0.0
 10
11.2312719597
 20
9.3024231534
 30
0.0
 10
11.2253997035
 20
9.3342249274
 30
0.0
 10
11.2211924148
 20
9.3661783084
 30
0.0
 10
11.2186621117
 20
9.3981929297
 30
0.0
 10
11.2180968457
 20
9.4195592506
 30
0.0
 10
11.2180968457
 20
9.4302208679
 30
0.0
  0
SPLINE
  5
368
100
AcDbEntity
  8
0
100
AcDbSpline
 62
7
  6
CONTINUOUS
 70
0
 71
3
 72
23
 73
19
 74
0
 42
0.0000001
 43
0.0000001
 44
0.0000000001
 40
0.0
 40
0.0
 40
0.0
 40
0.0
 40
0.0616984931
 40
0.1234238109
 40
0.1851959183
 40
0.2470343206
 40
0.3089578756
 40
0.3709846125
 40
0.4331315605
 40
0.4954145908
 40
0.5578482694
 40
0.6204457293
 40
0.6832185673
 40
0.7461766721
 40
0.8093284814
 40
0.8726797996
 40
0.9362367739
 40
1.0
 40
1.0
 40
1.0
 40
1.0
 10
10.6425875135
 20
9.3354312268
 30
0.0
 10
10.6344885854
 20
9.3273476337
 30
0.0
 10
10.6186921149
 20
9.3107653196
 30
0.0
 10
10.5962757595
 20
9.284723624
 30
0.0
 10
10.575181794
 20
9.2575657336
 30
0.0
 10
10.5554577525
 20
9.2293526386
 30
0.0
 10
10.5371470774
 20
9.200146654
 30
0.0
 10
10.5202903535
 20
9.1700125621
 30
0.0
 10
10.5049248611
 20
9.139017123
 30
0.0
 10
10.4910845917
 20
9.1072290178
 30
0.0
 10
10.4788001469
 20
9.0747186716
 30
0.0
 10
10.4680986779
 20
9.0415580992
 30
0.0
 10
10.4590038227
 20
9.007820766
 30
0.0
 10
10.4515356034
 20
8.9735813492
 30
0.0
 10
10.4457105708
 20
8.9389158168
 30
0.0
 10
10.4415413709
 20
8.9039004664
 30
0.0
 10
10.4390374061
 20
8.8686140523
 30
0.0
 10
10.4384826473
 20
8.8449970414
 30
0.0
 10
10.4384826473
 20
8.8331713345
 30
0.0
  0
SPLINE
  5
369
100
AcDbEntity
  8
0
100
AcDbSpline
 62
7
  6
CONTINUOUS
 70
0
 71
3
 72
23
 73
19
 74
0
 42
0.0000001
 43
0.0000001
 44
0.0000000001
 40
0.0
 40
0.0
 40
0.0
 40
0.0
 40
0.0617101436
 40
0.1234413945
 40
0.1852146442
 40
0.2470503545
 40
0.3089683499
 40
0.3709876203
 40
0.4331261332
 40
0.4954006601
 40
0.5578266118
 40
0.6204179016
 40
0.6831868196
 40
0.7461438598
 40
0.8092979876
 40
0.872655304
 40
0.9362225276
 40
1.0
 40
1.0
 40
1.0
 40
1.0
 10
10.7003434517
 20
9.3051458202
 30
0.0
 10
10.6926124105
 20
9.2976782139
 30
0.0
 10
10.6775292054
 20
9.2823395595
 30
0.0
 10
10.6561135416
 20
9.25819426
 30
0.0
 10
10.6359521284
 20
9.2329631115
 30
0.0
 10
10.6170922652
 20
9.2067051007
 30
0.0
 10
10.5995772101
 20
9.1794806014
 30
0.0
 10
10.5834473708
 20
9.1513524882
 30
0.0
 10
10.5687398832
 20
9.122385639
 30
0.0
 10
10.5554886164
 20
9.0926468779
 30
0.0
 10
10.5437240705
 20
9.0622047959
 30
0.0
 10
10.533473316
 20
9.031129595
 30
0.0
 10
10.5247599362
 20
8.999492944
 30
0.0
 10
10.5176038923
 20
8.9673677462
 30
0.0
 10
10.5120216978
 20
8.9348282147
 30
0.0
 10
10.5080259455
 20
8.9019488829
 30
0.0
 10
10.5056260478
 20
8.8688067642
 30
0.0
 10
10.5050943626
 20
8.846622083
 30
0.0
 10
10.5050943626
 20
8.8355133145
 30
0.0
  0
SPLINE
  5
36A
100
AcDbEntity
  8
0
100
AcDbSpline
 62
7
  6
CONTINUOUS
 70
0
 71
3
 72
23
 73
19
 74
0
 42
0.0000001
 43
0.0000001
 44
0.0000000001
 40
0.0
 40
0.0
 40
0.0
 40
0.0
 40
0.0616810998
 40
0.1233985808
 40
0.1851707683
 40
0.2470154915
 40
0.3089499244
 40
0.3709904319
 40
0.4331524248
 40
0.4954502264
 40
0.5578969509
 40
0.6205044193
 40
0.6832830137
 40
0.7462416459
 40
0.8093878795
 40
0.8727266079
 40
0.9362643481
 40
1.0
 40
1.0
 40
1.0
 40
1.0
 10
10.7221124934
 20
9.3252610912
 30
0.0
 10
10.715139365
 20
9.3178798815
 30
0.0
 10
10.7015454496
 20
9.3027716127
 30
0.0
 10
10.6822725378
 20
9.2791392569
 30
0.0
 10
10.6641507986
 20
9.2545786628
 30
0.0
 10
10.6472181313
 20
9.229141056
 30
0.0
 10
10.63150916
 20
9.2028785946
 30
0.0
 10
10.6170562175
 20
9.1758453563
 30
0.0
 10
10.6038890073
 20
9.1480969316
 30
0.0
 10
10.5920345627
 20
9.1196904151
 30
0.0
 10
10.5815171929
 20
9.0906842458
 30
0.0
 10
10.5723584785
 20
9.0611380806
 30
0.0
 10
10.5645772053
 20
9.0311126851
 30
0.0
 10
10.558189323
 20
9.0006697507
 30
0.0
 10
10.5532079755
 20
8.9698720351
 30
0.0
 10
10.5496431227
 20
8.9387823704
 30
0.0
 10
10.547502353
 20
8.9074658143
 30
0.0
 10
10.5470279924
 20
8.8865104709
 30
0.0
 10
10.5470279924
 20
8.8760180929
 30
0.0
  0
SPLINE
  5
36B
100
AcDbEntity
  8
0
100
AcDbSpline
 62
7
  6
CONTINUOUS
 70
0
 71
3
 72
50
 73
46
 74
0
 42
0.0000001
 43
0.0000001
 44
0.0000000001
 40
0.0
 40
0.0
 40
0.0
 40
0.0
 40
0.0478553417
 40
0.0951474067
 40
0.1418048237
 40
0.1877615625
 40
0.2329508085
 40
0.2773079275
 40
0.3207699221
 40
0.3632755901
 40
0.4047657716
 40
0.445183494
 40
0.4844741987
 40
0.5225859154
 40
0.5594694793
 40
0.5950787889
 40
0.6293711314
 40
0.6623074898
 40
0.6938529144
 40
0.7239769903
 40
0.7526544436
 40
0.7798658523
 40
0.8055985016
 40
0.8179090452
 40
0.8298488485
 40
0.841418725
 40
0.8526202911
 40
0.8634558677
 40
0.8739286239
 40
0.8840427441
 40
0.8938033674
 40
0.9032168878
 40
0.9122909837
 40
0.9210347493
 40
0.9294589915
 40
0.9375762374
 40
0.9454010469
 40
0.9529501735
 40
0.9602426663
 40
0.9673001566
 40
0.9741468398
 40
0.9808095632
 40
0.9873177811
 40
0.9937032956
 40
1.0
 40
1.0
 40
1.0
 40
1.0
 10
13.7113624989
 20
10.1527529402
 30
0.0
 10
13.7113624989
 20
10.1660470687
 30
0.0
 10
13.7112226366
 20
10.1924790792
 30
0.0
 10
13.7105858751
 20
10.2318678185
 30
0.0
 10
13.7095242289
 20
10.2707198525
 30
0.0
 10
13.7080394835
 20
10.3089734525
 30
0.0
 10
13.7061339491
 20
10.3465686242
 30
0.0
 10
13.7038106867
 20
10.3834459622
 30
0.0
 10
13.7010734053
 20
10.4195473534
 30
0.0
 10
13.6979264637
 20
10.4548158899
 30
0.0
 10
13.6943748702
 20
10.4891959746
 30
0.0
 10
13.6904242738
 20
10.5226334333
 30
0.0
 10
13.6860809767
 20
10.5550755978
 30
0.0
 10
13.681351897
 20
10.5864713884
 30
0.0
 10
13.6762445635
 20
10.6167713894
 30
0.0
 10
13.6707670965
 20
10.6459279399
 30
0.0
 10
13.6649282243
 20
10.6738952287
 30
0.0
 10
13.6587372426
 20
10.7006293663
 30
0.0
 10
13.6522039936
 20
10.7260884658
 30
0.0
 10
13.6453388374
 20
10.7502326807
 30
0.0
 10
13.6381526357
 20
10.7730244568
 30
0.0
 10
13.6306567418
 20
10.7944280849
 30
0.0
 10
13.6240682179
 20
10.8113210082
 30
0.0
 10
13.6186376638
 20
10.8241011116
 30
0.0
 10
13.6145549288
 20
10.833176647
 30
0.0
 10
13.610403723
 20
10.8418810043
 30
0.0
 10
13.6061856828
 20
10.8502108265
 30
0.0
 10
13.6019024335
 20
10.8581628606
 30
0.0
 10
13.5975555883
 20
10.8657339968
 30
0.0
 10
13.5931468863
 20
10.8729213299
 30
0.0
 10
13.5886779264
 20
10.8797220341
 30
0.0
 10
13.5841504348
 20
10.8861334926
 30
0.0
 10
13.579566115
 20
10.8921532312
 30
0.0
 10
13.5749265873
 20
10.8977788576
 30
0.0
 10
13.5702336246
 20
10.9030082298
 30
0.0
 10
13.5654888479
 20
10.9078392313
 30
0.0
 10
13.560693947
 20
10.9122699111
 30
0.0
 10
13.5558506528
 20
10.9162984821
 30
0.0
 10
13.5509605799
 20
10.9199231081
 30
0.0
 10
13.5460255311
 20
10.9231422165
 30
0.0
 10
13.5410472472
 20
10.9259542017
 30
0.0
 10
13.5360276124
 20
10.9283575173
 30
0.0
 10
13.530968549
 20
10.9303509056
 30
0.0
 10
13.5258725691
 20
10.9319329141
 30
0.0
 10
13.5224334867
 20
10.9327168929
 30
0.0
 10
13.5207140107
 20
10.9330380617
 30
0.0
  0
SPLINE
  5
36C
100
AcDbEntity
  8
0
100
AcDbSpline
 62
7
  6
CONTINUOUS
 70
0
 71
3
 72
23
 73
19
 74
0
 42
0.0000001
 43
0.0000001
 44
0.0000000001
 40
0.0
 40
0.0
 40
0.0
 40
0.0
 40
0.0617101446
 40
0.123441395
 40
0.1852146431
 40
0.247050352
 40
0.3089683478
 40
0.3709876199
 40
0.4331261339
 40
0.495400661
 40
0.5578266111
 40
0.6204179017
 40
0.6831868168
 40
0.746143859
 40
0.8092980008
 40
0.8726552579
 40
0.9362226181
 40
1.0
 40
1.0
 40
1.0
 40
1.0
 10
10.7866178669
 20
9.32383026
 30
0.0
 10
10.7793861132
 20
9.3168449456
 30
0.0
 10
10.7652770532
 20
9.3024968906
 30
0.0
 10
10.745244486
 20
9.2799109749
 30
0.0
 10
10.7263851683
 20
9.2563093355
 30
0.0
 10
10.7087433269
 20
9.2317471634
 30
0.0
 10
10.6923594424
 20
9.206280919
 30
0.0
 10
10.6772713259
 20
9.1799694101
 30
0.0
 10
10.6635137037
 20
9.1528733326
 30
0.0
 10
10.6511182534
 20
9.1250551976
 30
0.0
 10
10.6401135014
 20
9.096579167
 30
0.0
 10
10.6305247678
 20
9.0675109092
 30
0.0
 10
10.6223741218
 20
9.03791746
 30
0.0
 10
10.6156802415
 20
9.0078670117
 30
0.0
 10
10.6104585721
 20
8.9774289976
 30
0.0
 10
10.6067208696
 20
8.9466731087
 30
0.0
 10
10.6044759749
 20
8.91567142
 30
0.0
 10
10.6039786217
 20
8.8949194922
 30
0.0
 10
10.6039786217
 20
8.8845281798
 30
0.0
  0
SPLINE
  5
36D
100
AcDbEntity
  8
0
100
AcDbSpline
 62
7
  6
CONTINUOUS
 70
0
 71
3
 72
11
 73
7
 74
0
 42
0.0000001
 43
0.0000001
 44
0.0000000001
 40
0.0
 40
0.0
 40
0.0
 40
0.0
 40
0.2467996616
 40
0.495857677
 40
0.7469761553
 40
1.0
 40
1.0
 40
1.0
 40
1.0
 10
11.0807321641
 20
9.478218637
 30
0.0
 10
11.0779162486
 20
9.4661329003
 30
0.0
 10
11.0729703819
 20
9.4416790123
 30
0.0
 10
11.0676626729
 20
9.4044767268
 30
0.0
 10
11.0644658976
 20
9.3667199955
 30
0.0
 10
11.0637597467
 20
9.3413650787
 30
0.0
 10
11.0637597467
 20
9.3286426692
 30
0.0
  0
SPLINE
  5
36E
100
AcDbEntity
  8
0
100
AcDbSpline
 62
7
  6
CONTINUOUS
 70
0
 71
3
 72
11
 73
7
 74
0
 42
0.0000001
 43
0.0000001
 44
0.0000000001
 40
0.0
 40
0.0
 40
0.0
 40
0.0
 40
0.2486290009
 40
0.4981545096
 40
0.7486071405
 40
1.0
 40
1.0
 40
1.0
 40
1.0
 10
11.0922475995
 20
9.4805012875
 30
0.0
 10
11.0897072359
 20
9.469163056
 30
0.0
 10
11.0852525804
 20
9.446298176
 30
0.0
 10
11.080475894
 20
9.4116233344
 30
0.0
 10
11.0776056626
 20
9.376609443
 30
0.0
 10
11.0769700362
 20
9.3531513297
 30
0.0
 10
11.0769700362
 20
9.3414028298
 30
0.0
  0
SPLINE
  5
36F
100
AcDbEntity
  8
0
100
AcDbSpline
 62
7
  6
CONTINUOUS
 70
0
 71
3
 72
11
 73
7
 74
0
 42
0.0000001
 43
0.0000001
 44
0.0000000001
 40
0.0
 40
0.0
 40
0.0
 40
0.0
 40
0.2486123832
 40
0.4981315927
 40
0.7485897087
 40
1.0
 40
1.0
 40
1.0
 40
1.0
 10
11.1530399505
 20
9.4842392185
 30
0.0
 10
11.1506172634
 20
9.4735720562
 30
0.0
 10
11.146368699
 20
9.4520562328
 30
0.0
 10
11.1418127654
 20
9.419418508
 30
0.0
 10
11.1390750637
 20
9.3864548484
 30
0.0
 10
11.1384688046
 20
9.3643680076
 30
0.0
 10
11.1384688046
 20
9.353306082
 30
0.0
  0
SPLINE
  5
370
100
AcDbEntity
  8
0
100
AcDbSpline
 62
7
  6
CONTINUOUS
 70
0
 71
3
 72
54
 73
50
 74
0
 42
0.0000001
 43
0.0000001
 44
0.0000000001
 40
0.0
 40
0.0
 40
0.0
 40
0.0
 40
0.0413597142
 40
0.0831981357
 40
0.1253902428
 40
0.1678089847
 40
0.2103267913
 40
0.2528155962
 40
0.2951474775
 40
0.3371951042
 40
0.3788322377
 40
0.4199342215
 40
0.4603784791
 40
0.500045018
 40
0.5388169418
 40
0.5765809754
 40
0.6132280111
 40
0.6486536828
 40
0.6827589815
 40
0.6992874631
 40
0.7154515179
 40
0.7312405848
 40
0.7466446084
 40
0.7616539984
 40
0.7762597685
 40
0.7904534475
 40
0.8042272617
 40
0.8175740481
 40
0.8304874302
 40
0.8429617942
 40
0.8549924154
 40
0.8665755429
 40
0.8777084649
 40
0.8883897197
 40
0.8986191272
 40
0.9083981161
 40
0.9177297907
 40
0.926619344
 40
0.9350742545
 40
0.943104762
 40
0.950724278
 40
0.9579499246
 40
0.9648031773
 40
0.9713104489
 40
0.9775038354
 40
0.9834215685
 40
0.9891084367
 40
0.9946156079
 40
1.0
 40
1.0
 40
1.0
 40
1.0
 10
13.7113624989
 20
10.1527529402
 30
0.0
 10
13.7113624989
 20
10.133549816
 30
0.0
 10
13.7110674131
 20
10.0949207194
 30
0.0
 10
13.7097625301
 20
10.036715271
 30
0.0
 10
13.7075965523
 20
9.9780433732
 30
0.0
 10
13.7045763591
 20
9.9190934598
 30
0.0
 10
13.7007116421
 20
9.8600548366
 30
0.0
 10
13.6960147945
 20
9.801117036
 30
0.0
 10
13.6905009142
 20
9.7424692903
 30
0.0
 10
13.6841877365
 20
9.6842998871
 30
0.0
 10
13.6770955847
 20
9.6267955703
 30
0.0
 10
13.6692473031
 20
9.5701409341
 30
0.0
 10
13.6606681856
 20
9.5145178239
 30
0.0
 10
13.6513858972
 20
9.460104748
 30
0.0
 10
13.641430386
 20
9.4070762878
 30
0.0
 10
13.6308337857
 20
9.3556025563
 30
0.0
 10
13.6196303268
 20
9.305848536
 30
0.0
 10
13.6078561834
 20
9.2579738959
 30
0.0
 10
13.597495445
 20
9.2193798075
 30
0.0
 10
13.5889354943
 20
9.1895699243
 30
0.0
 10
13.5824639112
 20
9.1680098882
 30
0.0
 10
13.5758788957
 20
9.147030779
 30
0.0
 10
13.569185749
 20
9.1266493954
 30
0.0
 10
13.5623898101
 20
9.1068820868
 30
0.0
 10
13.5554966143
 20
9.0877446813
 30
0.0
 10
13.5485116306
 20
9.0692525182
 30
0.0
 10
13.5414405524
 20
9.051420386
 30
0.0
 10
13.5342889972
 20
9.0342625602
 30
0.0
 10
13.5270627613
 20
9.0177927422
 30
0.0
 10
13.5197676165
 20
9.0020240857
 30
0.0
 10
13.512409414
 20
8.986969162
 30
0.0
 10
13.5049940672
 20
8.9726399453
 30
0.0
 10
13.4975274441
 20
8.9590478354
 30
0.0
 10
13.4900155604
 20
8.9462035746
 30
0.0
 10
13.4824642719
 20
8.9341173484
 30
0.0
 10
13.4748796207
 20
8.9227986288
 30
0.0
 10
13.4672674226
 20
8.9122563429
 30
0.0
 10
13.4596336299
 20
8.9024986849
 30
0.0
 10
13.4519839677
 20
8.8935332961
 30
0.0
 10
13.4443241526
 20
8.8853671431
 30
0.0
 10
13.436659723
 20
8.8780066232
 30
0.0
 10
13.4289960208
 20
8.8714576418
 30
0.0
 10
13.4213382979
 20
8.8657255612
 30
0.0
 10
13.4136915265
 20
8.8608155918
 30
0.0
 10
13.4060607727
 20
8.8567325196
 30
0.0
 10
13.3984512152
 20
8.8534813508
 30
0.0
 10
13.3908682244
 20
8.8510666941
 30
0.0
 10
13.3833195412
 20
8.8494932594
 30
0.0
 10
13.3782740582
 20
8.8490037588
 30
0.0
 10
13.3757761183
 20
8.8489035675
 30
0.0
  0
SPLINE
  5
371
100
AcDbEntity
  8
0
100
AcDbSpline
 62
7
  6
CONTINUOUS
 70
0
 71
3
 72
37
 73
33
 74
0
 42
0.0000001
 43
0.0000001
 44
0.0000000001
 40
0.0
 40
0.0
 40
0.0
 40
0.0
 40
0.0305134177
 40
0.0611373634
 40
0.0918714846
 40
0.122714242
 40
0.1536629377
 40
0.1847137574
 40
0.2158618205
 40
0.2471012413
 40
0.278425197
 40
0.3098260052
 40
0.3412952071
 40
0.3728236578
 40
0.4044016224
 40
0.4360188757
 40
0.4993097563
 40
0.5626274341
 40
0.5942779063
 40
0.6259019172
 40
0.6574887871
 40
0.689028203
 40
0.7205103218
 40
0.7519258709
 40
0.7832662428
 40
0.814523587
 40
0.8456909045
 40
0.8767620784
 40
0.9077321343
 40
0.9385966889
 40
0.9693536233
 40
1.0
 40
1.0
 40
1.0
 40
1.0
 10
11.8749558725
 20
8.9093087067
 30
0.0
 10
11.866587836
 20
8.9090706665
 30
0.0
 10
11.849805616
 20
8.9090354131
 30
0.0
 10
11.8246213327
 20
8.9102985819
 30
0.0
 10
11.7994458329
 20
8.9128740688
 30
0.0
 10
11.7743484209
 20
8.9167548447
 30
0.0
 10
11.749397012
 20
8.9219302809
 30
0.0
 10
11.7246594291
 20
8.9283862543
 30
0.0
 10
11.7002028219
 20
8.9361051687
 30
0.0
 10
11.6760935944
 20
8.9450660077
 30
0.0
 10
11.6523971934
 20
8.9552443944
 30
0.0
 10
11.6291779569
 20
8.9666126427
 30
0.0
 10
11.6064988782
 20
8.9791398903
 30
0.0
 10
11.584421658
 20
8.9927919548
 30
0.0
 10
11.5630056834
 20
9.0075322366
 30
0.0
 10
11.5354060674
 20
9.0285862395
 30
0.0
 10
11.5028531565
 20
9.0574142677
 30
0.0
 10
11.4732480777
 20
9.0892743701
 30
0.0
 10
11.4515175551
 20
9.1163817793
 30
0.0
 10
11.4362412447
 20
9.137465363
 30
0.0
 10
11.4220292825
 20
9.1592435596
 30
0.0
 10
11.4089197603
 20
9.18165778
 30
0.0
 10
11.3969484321
 20
9.2046470446
 30
0.0
 10
11.3861477977
 20
9.2281489902
 30
0.0
 10
11.3765472359
 20
9.2520998126
 30
0.0
 10
11.3681728549
 20
9.2764344992
 30
0.0
 10
11.361047449
 20
9.301086973
 30
0.0
 10
11.3551903831
 20
9.3259903376
 30
0.0
 10
11.3506177021
 20
9.3510768496
 30
0.0
 10
11.3473417386
 20
9.3762787678
 30
0.0
 10
11.345371673
 20
9.4015265733
 30
0.0
 10
11.3449315873
 20
9.4183759287
 30
0.0
 10
11.3449315873
 20
9.4267838278
 30
0.0
  0
SPLINE
  5
372
100
AcDbEntity
  8
0
100
AcDbSpline
 62
7
  6
CONTINUOUS
 70
0
 71
3
 72
64
 73
60
 74
0
 42
0.0000001
 43
0.0000001
 44
0.0000000001
 40
0.0
 40
0.0
 40
0.0
 40
0.0
 40
0.0452102416
 40
0.0910011192
 40
0.137188789
 40
0.1835862807
 40
0.2300060334
 40
0.2762602484
 40
0.3221619985
 40
0.367526173
 40
0.4121704491
 40
0.4559162714
 40
0.4985898475
 40
0.5400231801
 40
0.5800551296
 40
0.5994977177
 40
0.6185332174
 40
0.6371439492
 40
0.6553128728
 40
0.6730236329
 40
0.6902606819
 40
0.7070092143
 40
0.7232553595
 40
0.7389861575
 40
0.7541896577
 40
0.7688550749
 40
0.7829727667
 40
0.7965345107
 40
0.8095335349
 40
0.8219647417
 40
0.833824978
 40
0.8451131807
 40
0.8558308717
 40
0.8659824363
 40
0.8755757077
 40
0.884622637
 40
0.8931399811
 40
0.9011504142
 40
0.9086835265
 40
0.9157771659
 40
0.9224787218
 40
0.9288461322
 40
0.9319270047
 40
0.9349511566
 40
0.9379288491
 40
0.9408708813
 40
0.9437884775
 40
0.9466931766
 40
0.949596687
 40
0.9525107294
 40
0.9554468926
 40
0.9584164761
 40
0.9614303671
 40
0.9644989467
 40
0.9708361869
 40
0.9775010712
 40
0.9845526667
 40
0.9920394025
 40
1.0
 40
1.0
 40
1.0
 40
1.0
 10
13.6557164501
 20
10.0990029814
 30
0.0
 10
13.6557164501
 20
10.0813067526
 30
0.0
 10
13.6554008487
 20
10.0456863056
 30
0.0
 10
13.6540092074
 20
9.9920033889
 30
0.0
 10
13.6517016106
 20
9.937886789
 30
0.0
 10
13.6484879059
 20
9.8835699257
 30
0.0
 10
13.6443819501
 20
9.8292870839
 30
0.0
 10
13.6394014484
 20
9.7752723282
 30
0.0
 10
13.6335679363
 20
9.7217585743
 30
0.0
 10
13.6269066633
 20
9.6689765571
 30
0.0
 10
13.6194464863
 20
9.6171538206
 30
0.0
 10
13.6112197453
 20
9.5665137545
 30
0.0
 10
13.602262139
 20
9.5172745164
 30
0.0
 10
13.5926125326
 20
9.4696484152
 30
0.0
 10
13.5839475138
 20
9.4311095233
 30
0.0
 10
13.5766872268
 20
9.4012483976
 30
0.0
 10
13.5711486708
 20
9.3795993188
 30
0.0
 10
13.565469929
 20
9.3585024396
 30
0.0
 10
13.5596571081
 20
9.3379804746
 30
0.0
 10
13.5537164746
 20
9.3180555427
 30
0.0
 10
13.5476545054
 20
9.2987490954
 30
0.0
 10
13.5414777012
 20
9.2800819263
 30
0.0
 10
13.5351927847
 20
9.2620741149
 30
0.0
 10
13.5288065439
 20
9.2447450269
 30
0.0
 10
13.5223258548
 20
9.2281132885
 30
0.0
 10
13.5157577773
 20
9.2121967394
 30
0.0
 10
13.5091093344
 20
9.1970124587
 30
0.0
 10
13.5023877481
 20
9.1825766829
 30
0.0
 10
13.495600232
 20
9.168904833
 30
0.0
 10
13.4887540432
 20
9.1560114817
 30
0.0
 10
13.4818565573
 20
9.1439102915
 30
0.0
 10
13.4749150154
 20
9.1326140881
 30
0.0
 10
13.4679367882
 20
9.1221347216
 30
0.0
 10
13.4609290866
 20
9.1124831621
 30
0.0
 10
13.4538990306
 20
9.1036694603
 30
0.0
 10
13.4468536569
 20
9.095702697
 30
0.0
 10
13.4397996217
 20
9.0885912101
 30
0.0
 10
13.4327434288
 20
9.0823424333
 30
0.0
 10
13.4256911996
 20
9.0769633224
 30
0.0
 10
13.4186484961
 20
9.0724604106
 30
0.0
 10
13.4116218871
 20
9.0688402829
 30
0.0
 10
13.4057189849
 20
9.0665396699
 30
0.0
 10
13.4010314757
 20
9.0651668403
 30
0.0
 10
13.3975640577
 20
9.0643717704
 30
0.0
 10
13.394107863
 20
9.0638005424
 30
0.0
 10
13.3906638418
 20
9.0634533274
 30
0.0
 10
13.3872330791
 20
9.0633303693
 30
0.0
 10
13.3838166635
 20
9.0634317956
 30
0.0
 10
13.3804156943
 20
9.0637575205
 30
0.0
 10
13.3770312586
 20
9.0643074343
 30
0.0
 10
13.3736644382
 20
9.0650813917
 30
0.0
 10
13.3703162876
 20
9.0660789967
 30
0.0
 10
13.3669877063
 20
9.0672998924
 30
0.0
 10
13.3625299357
 20
9.0692453405
 30
0.0
 10
13.3569940352
 20
9.0722622731
 30
0.0
 10
13.3505238854
 20
9.0767284599
 30
0.0
 10
13.3441590979
 20
9.08207203
 30
0.0
 10
13.3379056289
 20
9.0882851861
 30
0.0
 10
13.3339398611
 20
9.0928569203
 30
0.0
 10
13.3319737934
 20
9.095274291
 30
0.0
  0
SPLINE
  5
373
100
AcDbEntity
  8
0
100
AcDbSpline
 62
7
  6
CONTINUOUS
 70
0
 71
3
 72
52
 73
48
 74
0
 42
0.0000001
 43
0.0000001
 44
0.0000000001
 40
0.0
 40
0.0
 40
0.0
 40
0.0
 40
0.0417740404
 40
0.0840370578
 40
0.1266586418
 40
0.1695066849
 40
0.2124483434
 40
0.2553503429
 40
0.2980795865
 40
0.3405036514
 40
0.3824913233
 40
0.4239131236
 40
0.4646418429
 40
0.5045530821
 40
0.5435258036
 40
0.5814428986
 40
0.6181917776
 40
0.6536649944
 40
0.687760918
 40
0.7203844759
 40
0.7514479972
 40
0.7663700376
 40
0.7808730686
 40
0.7949487479
 40
0.8085893208
 40
0.8217878887
 40
0.8345382655
 40
0.8468352626
 40
0.858674577
 40
0.870053096
 40
0.8809688368
 40
0.8914212801
 40
0.9014113878
 40
0.9109419832
 40
0.9200178825
 40
0.9286463501
 40
0.9368373875
 40
0.9446042998
 40
0.9519641798
 40
0.9589386014
 40
0.9655542774
 40
0.9718437854
 40
0.977846177
 40
0.9836073557
 40
0.9891800414
 40
0.9946230737
 40
1.0
 40
1.0
 40
1.0
 40
1.0
 10
13.5883554908
 20
10.0889372872
 30
0.0
 10
13.5883554908
 20
10.0744789878
 30
0.0
 10
13.5881299251
 20
10.0453926959
 30
0.0
 10
13.5871327448
 20
10.001565039
 30
0.0
 10
13.5854776661
 20
9.9573852406
 30
0.0
 10
13.58317012
 20
9.9129995656
 30
0.0
 10
13.5802177284
 20
9.8685548496
 30
0.0
 10
13.5766302518
 20
9.8241981328
 30
0.0
 10
13.5724195738
 20
9.7800761652
 30
0.0
 10
13.5675996528
 20
9.7363349132
 30
0.0
 10
13.5621864803
 20
9.6931190756
 30
0.0
 10
13.5561980272
 20
9.6505716004
 30
0.0
 10
13.5496541856
 20
9.6088332074
 30
0.0
 10
13.5425767039
 20
9.5680419174
 30
0.0
 10
13.5349891168
 20
9.5283325877
 30
0.0
 10
13.5269166687
 20
9.4898364594
 30
0.0
 10
13.5183862324
 20
9.4526807024
 30
0.0
 10
13.5094262185
 20
9.4169880123
 30
0.0
 10
13.5000664924
 20
9.382876062
 30
0.0
 10
13.4903382355
 20
9.3504575109
 30
0.0
 10
13.4818414847
 20
9.3246070978
 30
0.0
 10
13.4748689155
 20
9.3048660554
 30
0.0
 10
13.4696377072
 20
9.2907474636
 30
0.0
 10
13.4643390558
 20
9.2771288621
 30
0.0
 10
13.4589772196
 20
9.2640214796
 30
0.0
 10
13.4535567409
 20
9.2514360977
 30
0.0
 10
13.4480820103
 20
9.2393830913
 30
0.0
 10
13.4425576447
 20
9.2278723426
 30
0.0
 10
13.4369881117
 20
9.21691332
 30
0.0
 10
13.431378085
 20
9.2065149698
 30
0.0
 10
13.4257320816
 20
9.196685815
 30
0.0
 10
13.4200547967
 20
9.1874338298
 30
0.0
 10
13.4143507603
 20
9.1787665571
 30
0.0
 10
13.4086246378
 20
9.1706909707
 30
0.0
 10
13.4028809168
 20
9.1632136101
 30
0.0
 10
13.3971241574
 20
9.1563404427
 30
0.0
 10
13.3913587226
 20
9.1500770155
 30
0.0
 10
13.385588965
 20
9.1444283419
 30
0.0
 10
13.3798190223
 20
9.139399073
 30
0.0
 10
13.3740529503
 20
9.1349934504
 30
0.0
 10
13.3682946334
 20
9.1312154937
 30
0.0
 10
13.3625479363
 20
9.1280690481
 30
0.0
 10
13.3568167974
 20
9.1255579104
 30
0.0
 10
13.3511056103
 20
9.1236858641
 30
0.0
 10
13.34541911
 20
9.1224564864
 30
0.0
 10
13.3397641759
 20
9.1218727999
 30
0.0
 10
13.3360097805
 20
9.1219156699
 30
0.0
 10
13.3341532455
 20
9.1220444107
 30
0.0
  0
SPLINE
  5
374
100
AcDbEntity
  8
0
100
AcDbSpline
 62
7
  6
CONTINUOUS
 70
0
 71
3
 72
49
 73
45
 74
0
 42
0.0000001
 43
0.0000001
 44
0.0000000001
 40
0.0
 40
0.0
 40
0.0
 40
0.0
 40
0.0149718081
 40
0.0299466748
 40
0.0449276404
 40
0.059917709
 40
0.0749198276
 40
0.0899368702
 40
0.1049716217
 40
0.120026759
 40
0.1351048351
 40
0.1502082677
 40
0.1653393229
 40
0.1805001009
 40
0.1956925286
 40
0.2109183481
 40
0.2261791043
 40
0.2414761418
 40
0.256810598
 40
0.2721833946
 40
0.287595237
 40
0.3030466133
 40
0.3340634927
 40
0.3652389307
 40
0.3965689749
 40
0.4280463623
 40
0.4596607137
 40
0.4913987952
 40
0.5232448251
 40
0.5551808189
 40
0.5871869764
 40
0.6192420905
 40
0.6513239761
 40
0.6834099169
 40
0.7154771164
 40
0.7475031494
 40
0.779466411
 40
0.8113465537
 40
0.8431249023
 40
0.8747848503
 40
0.906312225
 40
0.9376956122
 40
0.9689264437
 40
1.0
 40
1.0
 40
1.0
 40
1.0
 10
10.1604427592
 20
6.5082577201
 30
0.0
 10
10.1539555828
 20
6.5019915717
 30
0.0
 10
10.1407292913
 20
6.4897144874
 30
0.0
 10
10.1201714869
 20
6.4720998802
 30
0.0
 10
10.0989215107
 20
6.455308354
 30
0.0
 10
10.0770089757
 20
6.4393634439
 30
0.0
 10
10.0544639148
 20
6.4242870137
 30
0.0
 10
10.0313174296
 20
6.4100997682
 30
0.0
 10
10.007601356
 20
6.3968212284
 30
0.0
 10
9.9833483088
 20
6.3844697127
 30
0.0
 10
9.9585917019
 20
6.3730621366
 30
0.0
 10
9.9333656024
 20
6.3626141802
 30
0.0
 10
9.9077046981
 20
6.3531402713
 30
0.0
 10
9.8816443251
 20
6.3446533685
 30
0.0
 10
9.8552203445
 20
6.3371651085
 30
0.0
 10
9.8284690941
 20
6.3306858453
 30
0.0
 10
9.8014273886
 20
6.3252244321
 30
0.0
 10
9.7741324443
 20
6.3207883197
 30
0.0
 10
9.7466217621
 20
6.3173836575
 30
0.0
 10
9.7189333186
 20
6.315015082
 30
0.0
 10
9.6911047131
 20
6.3136858149
 30
0.0
 10
9.6538217529
 20
6.3133010064
 30
0.0
 10
9.6070494829
 20
6.3154344056
 30
0.0
 10
9.5510611541
 20
6.32214402
 30
0.0
 10
9.4954373977
 20
6.33296867
 30
0.0
 10
9.4404858309
 20
6.3478484675
 30
0.0
 10
9.3865075701
 20
6.3667010212
 30
0.0
 10
9.3337990515
 20
6.389422364
 30
0.0
 10
9.2826495222
 20
6.4158874004
 30
0.0
 10
9.2333396057
 20
6.4459504203
 30
0.0
 10
9.1861398945
 20
6.4794462254
 30
0.0
 10
9.1413093662
 20
6.5161907689
 30
0.0
 10
9.0990939659
 20
6.555982207
 30
0.0
 10
9.0597254519
 20
6.5986021731
 30
0.0
 10
9.0234198759
 20
6.6438166897
 30
0.0
 10
8.9903765864
 20
6.6913776405
 30
0.0
 10
8.9607771858
 20
6.7410240999
 30
0.0
 10
8.9347842809
 20
6.7924836052
 30
0.0
 10
8.9125409187
 20
6.8454737991
 30
0.0
 10
8.8941696229
 20
6.8997039635
 30
0.0
 10
8.8797716246
 20
6.9548761224
 30
0.0
 10
8.8694266748
 20
7.0106884155
 30
0.0
 10
8.8631920006
 20
7.0668303617
 30
0.0
 10
8.8617955588
 20
7.1043781746
 30
0.0
 10
8.8617955588
 20
7.1230975064
 30
0.0
  0
SPLINE
  5
375
100
AcDbEntity
  8
0
100
AcDbSpline
 62
7
  6
CONTINUOUS
 70
0
 71
3
 72
47
 73
43
 74
0
 42
0.0000001
 43
0.0000001
 44
0.0000000001
 40
0.0
 40
0.0
 40
0.0
 40
0.0
 40
0.0149687608
 40
0.0299417876
 40
0.0449220687
 40
0.0599125491
 40
0.0749161113
 40
0.0899355593
 40
0.1049736039
 40
0.1200328435
 40
0.1351157501
 40
0.1502246587
 40
0.1653617491
 40
0.1805290361
 40
0.1957283616
 40
0.2109613808
 40
0.2262295544
 40
0.241534146
 40
0.2722511961
 40
0.3031239162
 40
0.3341547734
 40
0.3653427973
 40
0.3966836467
 40
0.4281697532
 40
0.4597905257
 40
0.4915326035
 40
0.5233801615
 40
0.5553152561
 40
0.5873181981
 40
0.6193679555
 40
0.6514425759
 40
0.6835196185
 40
0.7155765949
 40
0.7475914099
 40
0.7795427988
 40
0.8114107494
 40
0.8431769085
 40
0.8748249662
 40
0.906341008
 40
0.9377138422
 40
0.9689350341
 40
1.0
 40
1.0
 40
1.0
 40
1.0
 10
10.160384627
 20
6.5083284445
 30
0.0
 10
10.1538377332
 20
6.5022086535
 30
0.0
 10
10.1404988533
 20
6.4902245755
 30
0.0
 10
10.1197934421
 20
6.4730497547
 30
0.0
 10
10.098416161
 20
6.4566966851
 30
0.0
 10
10.0763964083
 20
6.4411880093
 30
0.0
 10
10.0537639811
 20
6.4265447147
 30
0.0
 10
10.0305497065
 20
6.4127866369
 30
0.0
 10
10.0067850867
 20
6.3999324922
 30
0.0
 10
9.982502397
 20
6.387999766
 30
0.0
 10
9.9577346665
 20
6.3770045706
 30
0.0
 10
9.9325155195
 20
6.3669618715
 30
0.0
 10
9.9068792014
 20
6.3578853308
 30
0.0
 10
9.8808605758
 20
6.3497871721
 30
0.0
 10
9.8544949307
 20
6.3426784186
 30
0.0
 10
9.8278182004
 20
6.336568753
 30
0.0
 10
9.8008661417
 20
6.3314663394
 30
0.0
 10
9.7645727359
 20
6.3260092699
 30
0.0
 10
9.7186865675
 20
6.3217456869
 30
0.0
 10
9.6631940047
 20
6.3207454046
 30
0.0
 10
9.607496502
 20
6.323858013
 30
0.0
 10
9.5518983651
 20
6.3310664176
 30
0.0
 10
9.4967005786
 20
6.3423307268
 30
0.0
 10
9.4422025399
 20
6.357589264
 30
0.0
 10
9.3886996073
 20
6.3767588637
 30
0.0
 10
9.3364816827
 20
6.3997351009
 30
0.0
 10
9.2858316346
 20
6.4263930363
 30
0.0
 10
9.237023873
 20
6.4565879743
 30
0.0
 10
9.190322738
 20
6.4901559956
 30
0.0
 10
9.1459811711
 20
6.5269150241
 30
0.0
 10
9.104239434
 20
6.566665852
 30
0.0
 10
9.0653236332
 20
6.609192999
 30
0.0
 10
9.029444639
 20
6.6542660381
 30
0.0
 10
8.9967970218
 20
6.7016408512
 30
0.0
 10
8.9675577815
 20
6.7510607683
 30
0.0
 10
8.9418855691
 20
6.8022580986
 30
0.0
 10
8.9199198894
 20
6.8549555223
 30
0.0
 10
8.9017800927
 20
6.9088675898
 30
0.0
 10
8.8875649265
 20
6.9637018991
 30
0.0
 10
8.8773521182
 20
7.0191622582
 30
0.0
 10
8.8711973842
 20
7.0749441033
 30
0.0
 10
8.8698189425
 20
7.1122489222
 30
0.0
 10
8.8698189425
 20
7.1308475004
 30
0.0
  0
SPLINE
  5
376
100
AcDbEntity
  8
0
100
AcDbSpline
 62
7
  6
CONTINUOUS
 70
0
 71
3
 72
71
 73
67
 74
0
 42
0.0000001
 43
0.0000001
 44
0.0000000001
 40
0.0
 40
0.0
 40
0.0
 40
0.0
 40
0.0155842752
 40
0.0311159217
 40
0.0465952561
 40
0.062023882
 40
0.0774034483
 40
0.0927362826
 40
0.1080251228
 40
0.1232731737
 40
0.1384840559
 40
0.1536617767
 40
0.1688106901
 40
0.183935453
 40
0.199040978
 40
0.2141323819
 40
0.2292149319
 40
0.2442939897
 40
0.2593749544
 40
0.2744632045
 40
0.289564041
 40
0.3046826303
 40
0.3198239506
 40
0.3349927389
 40
0.3501934431
 40
0.3654301768
 40
0.3807066784
 40
0.3960262758
 40
0.4113918559
 40
0.4268058389
 40
0.4422701586
 40
0.4577862477
 40
0.4733550286
 40
0.4889769093
 40
0.5046517847
 40
0.5203790431
 40
0.5361575764
 40
0.5519857966
 40
0.5678616541
 40
0.583782661
 40
0.5997459175
 40
0.6157481412
 40
0.6317856997
 40
0.6478546449
 40
0.6639507506
 40
0.6800695511
 40
0.6962063816
 40
0.7123564195
 40
0.7285147267
 40
0.7446762933
 40
0.7608360806
 40
0.7769890653
 40
0.7931302837
 40
0.8092548749
 40
0.8253581232
 40
0.8414355003
 40
0.8574827056
 40
0.8734957056
 40
0.8894707712
 40
0.9054045129
 40
0.9212939188
 40
0.9371363627
 40
0.9529297122
 40
0.9686721024
 40
0.9843626029
 40
1.0
 40
1.0
 40
1.0
 40
1.0
 10
11.9037922126
 20
8.731551771
 30
0.0
 10
11.9037922126
 20
8.7199561485
 30
0.0
 10
11.9032247514
 20
8.6967999501
 30
0.0
 10
11.9006631573
 20
8.6622115149
 30
0.0
 10
11.8963984882
 20
8.6279072352
 30
0.0
 10
11.8904411537
 20
8.5939710487
 30
0.0
 10
11.8828052667
 20
8.5604843053
 30
0.0
 10
11.8735092318
 20
8.527527868
 30
0.0
 10
11.8625753343
 20
8.4951811527
 30
0.0
 10
11.8500298666
 20
8.4635221707
 30
0.0
 10
11.8359029942
 20
8.4326272739
 30
0.0
 10
11.8202287234
 20
8.4025709795
 30
0.0
 10
11.803044799
 20
8.3734257883
 30
0.0
 10
11.7843926166
 20
8.3452620097
 30
0.0
 10
11.7643171235
 20
8.3181475893
 30
0.0
 10
11.7428667099
 20
8.2921479433
 30
0.0
 10
11.7200930929
 20
8.2673257984
 30
0.0
 10
11.6960511903
 20
8.243741038
 30
0.0
 10
11.6707989878
 20
8.2214505564
 30
0.0
 10
11.6443974061
 20
8.2005081079
 30
0.0
 10
11.616910141
 20
8.1809641859
 30
0.0
 10
11.5884035079
 20
8.1628659002
 30
0.0
 10
11.5589462796
 20
8.1462568634
 30
0.0
 10
11.5286095181
 20
8.1311770858
 30
0.0
 10
11.4974664009
 20
8.1176628798
 30
0.0
 10
11.4655920433
 20
8.1057467733
 30
0.0
 10
11.4330633148
 20
8.095457433
 30
0.0
 10
11.3999586568
 20
8.0868195827
 30
0.0
 10
11.3663578851
 20
8.0798539596
 30
0.0
 10
11.332341998
 20
8.0745772658
 30
0.0
 10
11.2979929799
 20
8.0710021309
 30
0.0
 10
11.2633936041
 20
8.0691370836
 30
0.0
 10
11.228627234
 20
8.0689865332
 30
0.0
 10
11.1937776229
 20
8.0705507615
 30
0.0
 10
11.1589287137
 20
8.0738259231
 30
0.0
 10
11.1241644353
 20
8.0788040431
 30
0.0
 10
11.0895685017
 20
8.0854730519
 30
0.0
 10
11.0552242114
 20
8.0938168147
 30
0.0
 10
11.0212142487
 20
8.1038151723
 30
0.0
 10
10.9876204861
 20
8.1154439896
 30
0.0
 10
10.9545237891
 20
8.1286752146
 30
0.0
 10
10.9220038229
 20
8.143476946
 30
0.0
 10
10.8901388625
 20
8.1598135099
 30
0.0
 10
10.8590055989
 20
8.1776455342
 30
0.0
 10
10.8286789601
 20
8.1969300557
 30
0.0
 10
10.7992319323
 20
8.2176206235
 30
0.0
 10
10.7707353855
 20
8.2396674104
 30
0.0
 10
10.7432579045
 20
8.263017332
 30
0.0
 10
10.7168656247
 20
8.2876141739
 30
0.0
 10
10.691622074
 20
8.3133987263
 30
0.0
 10
10.6675880211
 20
8.3403089251
 30
0.0
 10
10.6448213192
 20
8.3682799928
 30
0.0
 10
10.6233767766
 20
8.3972446033
 30
0.0
 10
10.6033060252
 20
8.427133043
 30
0.0
 10
10.5846573976
 20
8.4578733771
 30
0.0
 10
10.5674758107
 20
8.4893916221
 30
0.0
 10
10.5518026588
 20
8.5216119219
 30
0.0
 10
10.5376757134
 20
8.5544567293
 30
0.0
 10
10.5251290343
 20
8.5878469907
 30
0.0
 10
10.5141928674
 20
8.6217023347
 30
0.0
 10
10.5048936083
 20
8.6559412535
 30
0.0
 10
10.497253668
 20
8.690481365
 30
0.0
 10
10.4912915925
 20
8.7252393679
 30
0.0
 10
10.4870216559
 20
8.7601320234
 30
0.0
 10
10.4844544328
 20
8.7950740168
 30
0.0
 10
10.4838811638
 20
8.8183877883
 30
0.0
 10
10.4838811638
 20
8.8300229367
 30
0.0
  0
SPLINE
  5
377
100
AcDbEntity
  8
0
100
AcDbSpline
 62
7
  6
CONTINUOUS
 70
0
 71
3
 72
47
 73
43
 74
0
 42
0.0000001
 43
0.0000001
 44
0.0000000001
 40
0.0
 40
0.0
 40
0.0
 40
0.0
 40
0.0149719701
 40
0.0299469998
 40
0.0449281282
 40
0.0599183596
 40
0.074920642
 40
0.0899378484
 40
0.1049727639
 40
0.1200280657
 40
0.1351063065
 40
0.1502099046
 40
0.1653411254
 40
0.180502069
 40
0.1956946637
 40
0.2109206499
 40
0.2261815727
 40
0.2414787788
 40
0.2721808845
 40
0.3030390423
 40
0.3340562612
 40
0.3652320396
 40
0.3965624276
 40
0.4280401587
 40
0.4596548547
 40
0.4913932827
 40
0.5232396593
 40
0.5551760004
 40
0.5871825057
 40
0.6192379677
 40
0.6513202013
 40
0.6834064899
 40
0.7154740364
 40
0.747500416
 40
0.7794640241
 40
0.8113445111
 40
0.8431232035
 40
0.8747834946
 40
0.906311207
 40
0.9376949507
 40
0.9689260908
 40
1.0
 40
1.0
 40
1.0
 40
1.0
 10
10.1321148409
 20
6.5670954245
 30
0.0
 10
10.1261419892
 20
6.5613260975
 30
0.0
 10
10.1139643176
 20
6.5500224265
 30
0.0
 10
10.0950363986
 20
6.533804433
 30
0.0
 10
10.075471165
 20
6.5183442939
 30
0.0
 10
10.0552959391
 20
6.5036636044
 30
0.0
 10
10.0345383218
 20
6.4897825609
 30
0.0
 10
10.0132269638
 20
6.4767202096
 30
0.0
 10
9.9913911916
 20
6.4644944963
 30
0.0
 10
9.9690610102
 20
6.4531223301
 30
0.0
 10
9.9462672044
 20
6.4426192467
 30
0.0
 10
9.9230411295
 20
6.4329997044
 30
0.0
 10
9.8994147178
 20
6.424277
 30
0.0
 10
9.8754205315
 20
6.4164630076
 30
0.0
 10
9.8510915315
 20
6.4095685115
 30
0.0
 10
9.8264613076
 20
6.4036030312
 30
0.0
 10
9.8015633069
 20
6.3985746186
 30
0.0
 10
9.7680186261
 20
6.3931227117
 30
0.0
 10
9.7255760212
 20
6.388689503
 30
0.0
 10
9.6742024729
 20
6.3872070006
 30
0.0
 10
9.6225976852
 20
6.3895611718
 30
0.0
 10
9.5710472726
 20
6.3957388374
 30
0.0
 10
9.5198339581
 20
6.4057053976
 30
0.0
 10
9.4692391475
 20
6.4194054974
 30
0.0
 10
9.4195405786
 20
6.4367633776
 30
0.0
 10
9.3710110774
 20
6.4576833525
 30
0.0
 10
9.3239169523
 20
6.4820501545
 30
0.0
 10
9.2785165944
 20
6.5097296839
 30
0.0
 10
9.2350591303
 20
6.5405698153
 30
0.0
 10
9.1937830173
 20
6.5744011157
 30
0.0
 10
9.1549147057
 20
6.6110377436
 30
0.0
 10
9.1186675163
 20
6.6502785887
 30
0.0
 10
9.0852404691
 20
6.6919083173
 30
0.0
 10
9.0548170655
 20
6.7356984387
 30
0.0
 10
9.0275644255
 20
6.7814086701
 30
0.0
 10
9.0036324122
 20
6.8287882407
 30
0.0
 10
8.9831526555
 20
6.8775771297
 30
0.0
 10
8.9662379014
 20
6.927507652
 30
0.0
 10
8.9529814727
 20
6.9783055093
 30
0.0
 10
8.9434567556
 20
7.0296927277
 30
0.0
 10
8.9377163726
 20
7.0813834661
 30
0.0
 10
8.9364306577
 20
7.1159542991
 30
0.0
 10
8.9364306577
 20
7.1331894803
 30
0.0
  0
SPLINE
  5
378
100
AcDbEntity
  8
0
100
AcDbSpline
 62
7
  6
CONTINUOUS
 70
0
 71
3
 72
45
 73
41
 74
0
 42
0.0000001
 43
0.0000001
 44
0.0000000001
 40
0.0
 40
0.0
 40
0.0
 40
0.0
 40
0.0149641173
 40
0.029934725
 40
0.044914706
 40
0.0599068892
 40
0.0749140294
 40
0.0899387964
 40
0.1049837574
 40
0.12005136
 40
0.1351439243
 40
0.1502636262
 40
0.165412484
 40
0.1805923547
 40
0.2110462731
 40
0.2416420462
 40
0.2723877382
 40
0.3032881496
 40
0.3343447615
 40
0.3655557503
 40
0.396916077
 40
0.428417638
 40
0.4600494691
 40
0.4917979987
 40
0.523647349
 40
0.555579669
 40
0.5875754965
 40
0.6196141436
 40
0.6516741015
 40
0.6837334534
 40
0.7157702939
 40
0.7477631489
 40
0.779691388
 40
0.8115356274
 40
0.8432781162
 40
0.8749030945
 40
0.9063971251
 40
0.9377494391
 40
0.9689518427
 40
1.0
 40
1.0
 40
1.0
 40
1.0
 10
10.1522346382
 20
6.5875052147
 30
0.0
 10
10.1461100101
 20
6.5821253886
 30
0.0
 10
10.1336468622
 20
6.5716011739
 30
0.0
 10
10.114346855
 20
6.5565520554
 30
0.0
 10
10.0944630495
 20
6.5422563442
 30
0.0
 10
10.0740220892
 20
6.528733413
 30
0.0
 10
10.0530510022
 20
6.5160010551
 30
0.0
 10
10.0315776437
 20
6.504076103
 30
0.0
 10
10.0096304064
 20
6.4929744587
 30
0.0
 10
9.9872384416
 20
6.4827107353
 30
0.0
 10
9.9644313914
 20
6.4732985151
 30
0.0
 10
9.9412395679
 20
6.4647503723
 30
0.0
 10
9.9176933088
 20
6.4570774202
 30
0.0
 10
9.8858375785
 20
6.4480186609
 30
0.0
 10
9.8452720654
 20
6.4389354636
 30
0.0
 10
9.795747652
 20
6.431687284
 30
0.0
 10
9.7455786894
 20
6.4281141633
 30
0.0
 10
9.6950328236
 20
6.428235012
 30
0.0
 10
9.6443772551
 20
6.4320484946
 30
0.0
 10
9.5938802641
 20
6.4395338463
 30
0.0
 10
9.5438090036
 20
6.4506508798
 30
0.0
 10
9.494428336
 20
6.4653403182
 30
0.0
 10
9.4459993924
 20
6.4835240501
 30
0.0
 10
9.3987781839
 20
6.5051054695
 30
0.0
 10
9.3530143065
 20
6.5299701298
 30
0.0
 10
9.3089496594
 20
6.5579863452
 30
0.0
 10
9.2668171249
 20
6.5890057817
 30
0.0
 10
9.2268393544
 20
6.6228642709
 30
0.0
 10
9.1892276604
 20
6.6593827414
 30
0.0
 10
9.1541809162
 20
6.6983681362
 30
0.0
 10
9.1218844054
 20
6.7396143261
 30
0.0
 10
9.0925089403
 20
6.7829032868
 30
0.0
 10
9.0662099971
 20
6.8280062424
 30
0.0
 10
9.0431268518
 20
6.8746848271
 30
0.0
 10
9.0233817729
 20
6.9226922749
 30
0.0
 10
9.0070795016
 20
6.9717748855
 30
0.0
 10
8.9943066773
 20
7.0216729332
 30
0.0
 10
8.985131374
 20
7.0721233899
 30
0.0
 10
8.9796024184
 20
7.1228559622
 30
0.0
 10
8.9783642876
 20
7.1567803502
 30
0.0
 10
8.9783642876
 20
7.1736942587
 30
0.0
  0
SPLINE
  5
379
100
AcDbEntity
  8
0
100
AcDbSpline
 62
7
  6
CONTINUOUS
 70
0
 71
3
 72
45
 73
41
 74
0
 42
0.0000001
 43
0.0000001
 44
0.0000000001
 40
0.0
 40
0.0
 40
0.0
 40
0.0
 40
0.0149721384
 40
0.0299473353
 40
0.0449286316
 40
0.0599190316
 40
0.0749214813
 40
0.0899388561
 40
0.1049739408
 40
0.1200294102
 40
0.1351078205
 40
0.1502115883
 40
0.1653429774
 40
0.1805040919
 40
0.2109173721
 40
0.2414702803
 40
0.2721727302
 40
0.3030312324
 40
0.3340487994
 40
0.3652249282
 40
0.3965556662
 40
0.4280337495
 40
0.4596488007
 40
0.4913875843
 40
0.5232343171
 40
0.5551710162
 40
0.5871778805
 40
0.6192337014
 40
0.6513162944
 40
0.6834029425
 40
0.7154708484
 40
0.7474975871
 40
0.779461553
 40
0.8113423971
 40
0.8431214459
 40
0.874782092
 40
0.9063101554
 40
0.9376942574
 40
0.9689257386
 40
1.0
 40
1.0
 40
1.0
 40
1.0
 10
10.1537778367
 20
6.6526705238
 30
0.0
 10
10.1481907247
 20
6.647273806
 30
0.0
 10
10.1367995276
 20
6.6367001639
 30
0.0
 10
10.1190940231
 20
6.6215295993
 30
0.0
 10
10.1007924101
 20
6.6070678858
 30
0.0
 10
10.0819201361
 20
6.5933353664
 30
0.0
 10
10.0625031224
 20
6.5803507982
 30
0.0
 10
10.0425681447
 20
6.56813202
 30
0.0
 10
10.0221425657
 20
6.5566959415
 30
0.0
 10
10.0012545651
 20
6.546058196
 30
0.0
 10
9.9799328476
 20
6.5362334125
 30
0.0
 10
9.958206839
 20
6.5272352071
 30
0.0
 10
9.9361060473
 20
6.5190757331
 30
0.0
 10
9.9061523295
 20
6.5093208007
 30
0.0
 10
9.8679089563
 20
6.4992803846
 30
0.0
 10
9.8210734042
 20
6.4907561346
 30
0.0
 10
9.7734954691
 20
6.4857868269
 30
0.0
 10
9.7254387452
 20
6.4843998315
 30
0.0
 10
9.6771670501
 20
6.48660204
 30
0.0
 10
9.6289458634
 20
6.4923807515
 30
0.0
 10
9.58104009
 20
6.5017036026
 30
0.0
 10
9.5337128493
 20
6.5145188867
 30
0.0
 10
9.4872239969
 20
6.5307557838
 30
0.0
 10
9.44182869
 20
6.5503246675
 30
0.0
 10
9.3977760431
 20
6.5731177472
 30
0.0
 10
9.3553078022
 20
6.5990096597
 30
0.0
 10
9.3146569819
 20
6.6278580534
 30
0.0
 10
9.2760465993
 20
6.6595043918
 30
0.0
 10
9.2396885221
 20
6.6937748945
 30
0.0
 10
9.205782326
 20
6.7304814616
 30
0.0
 10
9.1745141005
 20
6.7694225954
 30
0.0
 10
9.1460555239
 20
6.8103845931
 30
0.0
 10
9.1205629617
 20
6.8531427127
 30
0.0
 10
9.0981765696
 20
6.897462358
 30
0.0
 10
9.0790194496
 20
6.9431002917
 30
0.0
 10
9.0631971025
 20
6.9898061327
 30
0.0
 10
9.0507968301
 20
7.0373233006
 30
0.0
 10
9.0418872503
 20
7.0853917583
 30
0.0
 10
9.0365175935
 20
7.1337441368
 30
0.0
 10
9.0353149168
 20
7.1660822678
 30
0.0
 10
9.0353149168
 20
7.1822043456
 30
0.0
  0
SPLINE
  5
37A
100
AcDbEntity
  8
0
100
AcDbSpline
 62
7
  6
CONTINUOUS
 70
0
 71
3
 72
42
 73
38
 74
0
 42
0.0000001
 43
0.0000001
 44
0.0000000001
 40
0.0
 40
0.0
 40
0.0
 40
0.0
 40
0.0302771196
 40
0.0454600827
 40
0.0606722779
 40
0.0911827256
 40
0.121813731
 40
0.1371762047
 40
0.1525688739
 40
0.1834409134
 40
0.2144303296
 40
0.2455330339
 40
0.2767435214
 40
0.3080549539
 40
0.3394592565
 40
0.370947227
 40
0.4025086555
 40
0.4341324542
 40
0.4658067944
 40
0.49751925
 40
0.5292569463
 40
0.5610067125
 40
0.5927552361
 40
0.6244892194
 40
0.6561955349
 40
0.6878613803
 40
0.7194744295
 40
0.7510229812
 40
0.7824961012
 40
0.8138837575
 40
0.8451769508
 40
0.8763678238
 40
0.9074497942
 40
0.9384175771
 40
0.9538587615
 40
0.9692704983
 40
1.0
 40
1.0
 40
1.0
 40
1.0
 10
10.320989475
 20
6.9526955095
 30
0.0
 10
10.3090073544
 20
6.9504429443
 30
0.0
 10
10.2909114361
 20
6.9475887374
 30
0.0
 10
10.2666327739
 20
6.9448381989
 30
0.0
 10
10.2421901923
 20
6.9427847947
 30
0.0
 10
10.2114511774
 20
6.9415410359
 30
0.0
 10
10.1806311501
 20
6.9420618131
 30
0.0
 10
10.1559529854
 20
6.9435320081
 30
0.0
 10
10.1312296997
 20
6.945709027
 30
0.0
 10
10.1003665113
 20
6.9497499128
 30
0.0
 10
10.0635599787
 20
6.9566831075
 30
0.0
 10
10.0270626881
 20
6.9656827694
 30
0.0
 10
9.9909936697
 20
6.9767195534
 30
0.0
 10
9.9554695873
 20
6.9897575846
 30
0.0
 10
9.9206055859
 20
7.0047545026
 30
0.0
 10
9.8865145923
 20
7.0216616199
 30
0.0
 10
9.8533070412
 20
7.0404240746
 30
0.0
 10
9.8210904965
 20
7.0609810093
 30
0.0
 10
9.7899693116
 20
7.083265768
 30
0.0
 10
9.7600442923
 20
7.1072061111
 30
0.0
 10
9.7314123734
 20
7.1327244487
 30
0.0
 10
9.7041663058
 20
7.1597380904
 30
0.0
 10
9.6783943591
 20
7.1881595124
 30
0.0
 10
9.6541800363
 20
7.2178966389
 30
0.0
 10
9.6316018055
 20
7.2488531386
 30
0.0
 10
9.6107328467
 20
7.280928735
 30
0.0
 10
9.5916408161
 20
7.3140195289
 30
0.0
 10
9.5743876269
 20
7.3480183336
 30
0.0
 10
9.5590292511
 20
7.382815014
 30
0.0
 10
9.5456155339
 20
7.4182968629
 30
0.0
 10
9.5341900453
 20
7.4543488793
 30
0.0
 10
9.5247898959
 20
7.4908544517
 30
0.0
 10
9.5174457522
 20
7.5276945673
 30
0.0
 10
9.5130544696
 20
7.558605938
 30
0.0
 10
9.5105932024
 20
7.5833809671
 30
0.0
 10
9.5088368223
 20
7.6081190684
 30
0.0
 10
9.5083063314
 20
7.6267048136
 30
0.0
 10
9.5083063314
 20
7.6390789956
 30
0.0
  0
SPLINE
  5
37B
100
AcDbEntity
  8
0
100
AcDbSpline
 62
7
  6
CONTINUOUS
 70
0
 71
3
 72
40
 73
36
 74
0
 42
0.0000001
 43
0.0000001
 44
0.0000000001
 40
0.0
 40
0.0
 40
0.0
 40
0.0
 40
0.0302735628
 40
0.0454547395
 40
0.0606651469
 40
0.0911720625
 40
0.1217996634
 40
0.1525485123
 40
0.183417598
 40
0.2144043668
 40
0.2455047726
 40
0.2767133439
 40
0.3080232666
 40
0.3394264809
 40
0.370913791
 40
0.4024749851
 40
0.4340989655
 40
0.4657738864
 40
0.4974872981
 40
0.5292262965
 40
0.5609776762
 40
0.5927280864
 40
0.6244641876
 40
0.6561728088
 40
0.6878411021
 40
0.7194566963
 40
0.7510078452
 40
0.7824835715
 40
0.8138738019
 40
0.8451695014
 40
0.8763627742
 40
0.9074470243
 40
0.9384169054
 40
0.9692687565
 40
1.0
 40
1.0
 40
1.0
 40
1.0
 10
10.3267420176
 20
7.0133047763
 30
0.0
 10
10.3155963245
 20
7.0111775955
 30
0.0
 10
10.2987620433
 20
7.0084755529
 30
0.0
 10
10.2761731601
 20
7.0058563365
 30
0.0
 10
10.2534299643
 20
7.0038865864
 30
0.0
 10
10.2248242251
 20
7.0026576324
 30
0.0
 10
10.1903705915
 20
7.0031571582
 30
0.0
 10
10.1558655815
 20
7.0056274863
 30
0.0
 10
10.1214221
 20
7.0100604964
 30
0.0
 10
10.0871519419
 20
7.0164416169
 30
0.0
 10
10.0531665576
 20
7.0247499741
 30
0.0
 10
10.0195763897
 20
7.034958436
 30
0.0
 10
9.9864905987
 20
7.0470337096
 30
0.0
 10
9.9540166898
 20
7.0609364487
 30
0.0
 10
9.9222601718
 20
7.0766213834
 30
0.0
 10
9.8913242159
 20
7.0940374668
 30
0.0
 10
9.8613093235
 20
7.1131280418
 30
0.0
 10
9.8323130022
 20
7.1338310242
 30
0.0
 10
9.8044294512
 20
7.156079104
 30
0.0
 10
9.7777492578
 20
7.1797999634
 30
0.0
 10
9.7523591045
 20
7.2049165103
 30
0.0
 10
9.7283414897
 20
7.2313471279
 30
0.0
 10
9.7057744611
 20
7.2590059378
 30
0.0
 10
9.6847313632
 20
7.2878030781
 30
0.0
 10
9.665280601
 20
7.3176449926
 30
0.0
 10
9.6474854181
 20
7.3484347333
 30
0.0
 10
9.6314036918
 20
7.3800722732
 30
0.0
 10
9.6170877473
 20
7.4124548279
 30
0.0
 10
9.604584183
 20
7.4454771906
 30
0.0
 10
9.5939337311
 20
7.4790320569
 30
0.0
 10
9.5851710957
 20
7.5130104255
 30
0.0
 10
9.5783249019
 20
7.5473017477
 30
0.0
 10
9.5734174801
 20
7.5817950057
 30
0.0
 10
9.570464986
 20
7.6163765324
 30
0.0
 10
9.5698050997
 20
7.6394638378
 30
0.0
 10
9.5698050997
 20
7.6509822478
 30
0.0
  0
SPLINE
  5
37C
100
AcDbEntity
  8
0
100
AcDbSpline
 62
7
  6
CONTINUOUS
 70
0
 71
3
 72
39
 73
35
 74
0
 42
0.0000001
 43
0.0000001
 44
0.0000000001
 40
0.0
 40
0.0
 40
0.0
 40
0.0
 40
0.0304776686
 40
0.0610671238
 40
0.0917684886
 40
0.1225806441
 40
0.1535012551
 40
0.1845268082
 40
0.215652662
 40
0.2468731074
 40
0.2781814377
 40
0.3095700275
 40
0.3410304184
 40
0.3725534122
 40
0.4041291697
 40
0.4357473138
 40
0.4673970371
 40
0.4990672135
 40
0.5307465107
 40
0.5624235047
 40
0.5940867951
 40
0.6257251194
 40
0.6573274668
 40
0.6888831908
 40
0.7203821177
 40
0.7518146537
 40
0.7831718867
 40
0.814445681
 40
0.8456287794
 40
0.8767148391
 40
0.9076986677
 40
0.93857581
 40
0.9693438181
 40
1.0
 40
1.0
 40
1.0
 40
1.0
 10
10.325890034
 20
7.0805914757
 30
0.0
 10
10.3153038395
 20
7.0800598704
 30
0.0
 10
10.2940598406
 20
7.0795623452
 30
0.0
 10
10.2621444623
 20
7.080508159
 30
0.0
 10
10.2302063635
 20
7.0831417522
 30
0.0
 10
10.1983357532
 20
7.0874557493
 30
0.0
 10
10.1666211176
 20
7.093438021
 30
0.0
 10
10.1351509056
 20
7.1010718124
 30
0.0
 10
10.1040127622
 20
7.1103357646
 30
0.0
 10
10.0732934274
 20
7.1212039896
 30
0.0
 10
10.0430784587
 20
7.1336461396
 30
0.0
 10
10.013452005
 20
7.1476274933
 30
0.0
 10
9.9844965711
 20
7.1631090522
 30
0.0
 10
9.9562927911
 20
7.1800476497
 30
0.0
 10
9.928919205
 20
7.1983960705
 30
0.0
 10
9.9024520423
 20
7.2181031825
 30
0.0
 10
9.8769650084
 20
7.239114075
 30
0.0
 10
9.8525290774
 20
7.2613702091
 30
0.0
 10
9.8292123005
 20
7.2848095864
 30
0.0
 10
9.8070796168
 20
7.3093669204
 30
0.0
 10
9.7861926741
 20
7.334973817
 30
0.0
 10
9.7666096577
 20
7.3615589639
 30
0.0
 10
9.7483851298
 20
7.3890483278
 30
0.0
 10
9.7315698781
 20
7.4173653592
 30
0.0
 10
9.7162107751
 20
7.446431204
 30
0.0
 10
9.7023506459
 20
7.4761649213
 30
0.0
 10
9.6900281446
 20
7.5064837035
 30
0.0
 10
9.6792776458
 20
7.5373031145
 30
0.0
 10
9.6701291757
 20
7.568537306
 30
0.0
 10
9.6626082549
 20
7.6000993192
 30
0.0
 10
9.6567359986
 20
7.6319010932
 30
0.0
 10
9.6525287099
 20
7.6638544742
 30
0.0
 10
9.6499984068
 20
7.6958690955
 30
0.0
 10
9.6494331408
 20
7.7172354164
 30
0.0
 10
9.6494331408
 20
7.7278970337
 30
0.0
  0
SPLINE
  5
37D
100
AcDbEntity
  8
0
100
AcDbSpline
 62
7
  6
CONTINUOUS
 70
0
 71
3
 72
23
 73
19
 74
0
 42
0.0000001
 43
0.0000001
 44
0.0000000001
 40
0.0
 40
0.0
 40
0.0
 40
0.0
 40
0.0616984931
 40
0.1234238109
 40
0.1851959183
 40
0.2470343206
 40
0.3089578756
 40
0.3709846125
 40
0.4331315605
 40
0.4954145908
 40
0.5578482694
 40
0.6204457293
 40
0.6832185673
 40
0.7461766721
 40
0.8093284814
 40
0.8726797996
 40
0.9362367739
 40
1.0
 40
1.0
 40
1.0
 40
1.0
 10
9.0739238087
 20
7.6331073926
 30
0.0
 10
9.0658248805
 20
7.6250237995
 30
0.0
 10
9.05002841
 20
7.6084414854
 30
0.0
 10
9.0276120547
 20
7.5823997898
 30
0.0
 10
9.0065180892
 20
7.5552418995
 30
0.0
 10
8.9867940476
 20
7.5270288044
 30
0.0
 10
8.9684833726
 20
7.4978228198
 30
0.0
 10
8.9516266486
 20
7.4676887279
 30
0.0
 10
8.9362611562
 20
7.4366932888
 30
0.0
 10
8.9224208868
 20
7.4049051836
 30
0.0
 10
8.9101364421
 20
7.3723948374
 30
0.0
 10
8.8994349731
 20
7.339234265
 30
0.0
 10
8.8903401179
 20
7.3054969318
 30
0.0
 10
8.8828718986
 20
7.271257515
 30
0.0
 10
8.877046866
 20
7.2365919826
 30
0.0
 10
8.872877666
 20
7.2015766322
 30
0.0
 10
8.8703737013
 20
7.1662902181
 30
0.0
 10
8.8698189425
 20
7.1426732072
 30
0.0
 10
8.8698189425
 20
7.1308475004
 30
0.0
  0
SPLINE
  5
37E
100
AcDbEntity
  8
0
100
AcDbSpline
 62
7
  6
CONTINUOUS
 70
0
 71
3
 72
23
 73
19
 74
0
 42
0.0000001
 43
0.0000001
 44
0.0000000001
 40
0.0
 40
0.0
 40
0.0
 40
0.0
 40
0.0617101436
 40
0.1234413945
 40
0.1852146442
 40
0.2470503545
 40
0.3089683499
 40
0.3709876203
 40
0.4331261332
 40
0.4954006601
 40
0.5578266118
 40
0.6204179016
 40
0.6831868196
 40
0.7461438598
 40
0.8092979876
 40
0.872655304
 40
0.9362225276
 40
1.0
 40
1.0
 40
1.0
 40
1.0
 10
9.1316797469
 20
7.602821986
 30
0.0
 10
9.1239487056
 20
7.5953543798
 30
0.0
 10
9.1088655006
 20
7.5800157253
 30
0.0
 10
9.0874498367
 20
7.5558704258
 30
0.0
 10
9.0672884235
 20
7.5306392773
 30
0.0
 10
9.0484285604
 20
7.5043812665
 30
0.0
 10
9.0309135052
 20
7.4771567673
 30
0.0
 10
9.014783666
 20
7.449028654
 30
0.0
 10
9.0000761783
 20
7.4200618048
 30
0.0
 10
8.9868249115
 20
7.3903230437
 30
0.0
 10
8.9750603657
 20
7.3598809617
 30
0.0
 10
8.9648096112
 20
7.3288057609
 30
0.0
 10
8.9560962314
 20
7.2971691098
 30
0.0
 10
8.9489401874
 20
7.2650439121
 30
0.0
 10
8.943357993
 20
7.2325043806
 30
0.0
 10
8.9393622406
 20
7.1996250487
 30
0.0
 10
8.9369623429
 20
7.1664829301
 30
0.0
 10
8.9364306577
 20
7.1442982488
 30
0.0
 10
8.9364306577
 20
7.1331894803
 30
0.0
  0
SPLINE
  5
37F
100
AcDbEntity
  8
0
100
AcDbSpline
 62
7
  6
CONTINUOUS
 70
0
 71
3
 72
23
 73
19
 74
0
 42
0.0000001
 43
0.0000001
 44
0.0000000001
 40
0.0
 40
0.0
 40
0.0
 40
0.0
 40
0.0616810998
 40
0.1233985808
 40
0.1851707683
 40
0.2470154915
 40
0.3089499244
 40
0.3709904319
 40
0.4331524248
 40
0.4954502264
 40
0.5578969509
 40
0.6205044193
 40
0.6832830137
 40
0.7462416459
 40
0.8093878795
 40
0.8727266079
 40
0.9362643481
 40
1.0
 40
1.0
 40
1.0
 40
1.0
 10
9.1534487885
 20
7.6229372571
 30
0.0
 10
9.1464756601
 20
7.6155560473
 30
0.0
 10
9.1328817448
 20
7.6004477785
 30
0.0
 10
9.113608833
 20
7.5768154227
 30
0.0
 10
9.0954870938
 20
7.5522548286
 30
0.0
 10
9.0785544264
 20
7.5268172218
 30
0.0
 10
9.0628454551
 20
7.5005547604
 30
0.0
 10
9.0483925127
 20
7.4735215222
 30
0.0
 10
9.0352253025
 20
7.4457730974
 30
0.0
 10
9.0233708579
 20
7.4173665809
 30
0.0
 10
9.0128534881
 20
7.3883604116
 30
0.0
 10
9.0036947736
 20
7.3588142464
 30
0.0
 10
8.9959135004
 20
7.3287888509
 30
0.0
 10
8.9895256181
 20
7.2983459165
 30
0.0
 10
8.9845442707
 20
7.2675482009
 30
0.0
 10
8.9809794179
 20
7.2364585362
 30
0.0
 10
8.9788386481
 20
7.2051419801
 30
0.0
 10
8.9783642876
 20
7.1841866367
 30
0.0
 10
8.9783642876
 20
7.1736942587
 30
0.0
  0
SPLINE
  5
380
100
AcDbEntity
  8
0
100
AcDbSpline
 62
7
  6
CONTINUOUS
 70
0
 71
3
 72
23
 73
19
 74
0
 42
0.0000001
 43
0.0000001
 44
0.0000000001
 40
0.0
 40
0.0
 40
0.0
 40
0.0
 40
0.0617101446
 40
0.123441395
 40
0.1852146431
 40
0.247050352
 40
0.3089683478
 40
0.3709876199
 40
0.4331261339
 40
0.495400661
 40
0.5578266111
 40
0.6204179017
 40
0.6831868168
 40
0.746143859
 40
0.8092980008
 40
0.8726552579
 40
0.9362226181
 40
1.0
 40
1.0
 40
1.0
 40
1.0
 10
9.217954162
 20
7.6215064258
 30
0.0
 10
9.2107224084
 20
7.6145211114
 30
0.0
 10
9.1966133484
 20
7.6001730564
 30
0.0
 10
9.1765807812
 20
7.5775871407
 30
0.0
 10
9.1577214635
 20
7.5539855013
 30
0.0
 10
9.1400796221
 20
7.5294233292
 30
0.0
 10
9.1236957376
 20
7.5039570849
 30
0.0
 10
9.1086076211
 20
7.4776455759
 30
0.0
 10
9.0948499988
 20
7.4505494985
 30
0.0
 10
9.0824545486
 20
7.4227313634
 30
0.0
 10
9.0714497966
 20
7.3942553328
 30
0.0
 10
9.061861063
 20
7.365187075
 30
0.0
 10
9.053710417
 20
7.3355936258
 30
0.0
 10
9.0470165367
 20
7.3055431775
 30
0.0
 10
9.0417948672
 20
7.2751051634
 30
0.0
 10
9.0380571647
 20
7.2443492745
 30
0.0
 10
9.03581227
 20
7.2133475859
 30
0.0
 10
9.0353149168
 20
7.1925956581
 30
0.0
 10
9.0353149168
 20
7.1822043456
 30
0.0
  0
SPLINE
  5
381
100
AcDbEntity
  8
0
100
AcDbSpline
 62
7
  6
CONTINUOUS
 70
0
 71
3
 72
11
 73
7
 74
0
 42
0.0000001
 43
0.0000001
 44
0.0000000001
 40
0.0
 40
0.0
 40
0.0
 40
0.0
 40
0.2486290009
 40
0.4981545096
 40
0.7486071405
 40
1.0
 40
1.0
 40
1.0
 40
1.0
 10
9.5235838947
 20
7.7781774533
 30
0.0
 10
9.5210435311
 20
7.7668392218
 30
0.0
 10
9.5165888755
 20
7.7439743418
 30
0.0
 10
9.5118121892
 20
7.7092995002
 30
0.0
 10
9.5089419577
 20
7.6742856088
 30
0.0
 10
9.5083063314
 20
7.6508274955
 30
0.0
 10
9.5083063314
 20
7.6390789956
 30
0.0
  0
SPLINE
  5
382
100
AcDbEntity
  8
0
100
AcDbSpline
 62
7
  6
CONTINUOUS
 70
0
 71
3
 72
11
 73
7
 74
0
 42
0.0000001
 43
0.0000001
 44
0.0000000001
 40
0.0
 40
0.0
 40
0.0
 40
0.0
 40
0.2486123832
 40
0.4981315927
 40
0.7485897087
 40
1.0
 40
1.0
 40
1.0
 40
1.0
 10
9.5843762456
 20
7.7819153843
 30
0.0
 10
9.5819535585
 20
7.771248222
 30
0.0
 10
9.5777049941
 20
7.7497323986
 30
0.0
 10
9.5731490606
 20
7.7170946738
 30
0.0
 10
9.5704113588
 20
7.6841310142
 30
0.0
 10
9.5698050997
 20
7.6620441735
 30
0.0
 10
9.5698050997
 20
7.6509822478
 30
0.0
  0
SPLINE
  5
383
100
AcDbEntity
  8
0
100
AcDbSpline
 62
7
  6
CONTINUOUS
 70
0
 71
3
 72
37
 73
33
 74
0
 42
0.0000001
 43
0.0000001
 44
0.0000000001
 40
0.0
 40
0.0
 40
0.0
 40
0.0
 40
0.0305134177
 40
0.0611373634
 40
0.0918714846
 40
0.122714242
 40
0.1536629377
 40
0.1847137574
 40
0.2158618205
 40
0.2471012413
 40
0.278425197
 40
0.3098260052
 40
0.3412952071
 40
0.3728236578
 40
0.4044016224
 40
0.4360188757
 40
0.4993097563
 40
0.5626274341
 40
0.5942779063
 40
0.6259019172
 40
0.6574887871
 40
0.689028203
 40
0.7205103218
 40
0.7519258709
 40
0.7832662428
 40
0.814523587
 40
0.8456909045
 40
0.8767620784
 40
0.9077321343
 40
0.9385966889
 40
0.9693536233
 40
1.0
 40
1.0
 40
1.0
 40
1.0
 10
10.3062921677
 20
7.2069848725
 30
0.0
 10
10.2979241311
 20
7.2067468323
 30
0.0
 10
10.2811419112
 20
7.2067115789
 30
0.0
 10
10.2559576279
 20
7.2079747477
 30
0.0
 10
10.2307821281
 20
7.2105502346
 30
0.0
 10
10.2056847161
 20
7.2144310105
 30
0.0
 10
10.1807333071
 20
7.2196064468
 30
0.0
 10
10.1559957243
 20
7.2260624201
 30
0.0
 10
10.1315391171
 20
7.2337813345
 30
0.0
 10
10.1074298895
 20
7.2427421735
 30
0.0
 10
10.0837334885
 20
7.2529205602
 30
0.0
 10
10.060514252
 20
7.2642888085
 30
0.0
 10
10.0378351734
 20
7.2768160561
 30
0.0
 10
10.0157579532
 20
7.2904681206
 30
0.0
 10
9.9943419785
 20
7.3052084024
 30
0.0
 10
9.9667423626
 20
7.3262624054
 30
0.0
 10
9.9341894516
 20
7.3550904335
 30
0.0
 10
9.9045843728
 20
7.386950536
 30
0.0
 10
9.8828538502
 20
7.4140579451
 30
0.0
 10
9.8675775398
 20
7.4351415288
 30
0.0
 10
9.8533655777
 20
7.4569197254
 30
0.0
 10
9.8402560554
 20
7.4793339458
 30
0.0
 10
9.8282847273
 20
7.5023232104
 30
0.0
 10
9.8174840929
 20
7.525825156
 30
0.0
 10
9.8078835311
 20
7.5497759784
 30
0.0
 10
9.79950915
 20
7.5741106651
 30
0.0
 10
9.7923837442
 20
7.5987631389
 30
0.0
 10
9.7865266783
 20
7.6236665034
 30
0.0
 10
9.7819539973
 20
7.6487530154
 30
0.0
 10
9.7786780338
 20
7.6739549336
 30
0.0
 10
9.7767079681
 20
7.6992027391
 30
0.0
 10
9.7762678825
 20
7.7160520945
 30
0.0
 10
9.7762678825
 20
7.7244599936
 30
0.0
  0
SPLINE
  5
384
100
AcDbEntity
  8
0
100
AcDbSpline
 62
7
  6
CONTINUOUS
 70
0
 71
3
 72
11
 73
7
 74
0
 42
0.0000001
 43
0.0000001
 44
0.0000000001
 40
0.0
 40
0.0
 40
0.0
 40
0.0
 40
0.2485821051
 40
0.498090461
 40
0.7485573928
 40
1.0
 40
1.0
 40
1.0
 40
1.0
 10
11.1395038242
 20
9.4842948151
 30
0.0
 10
11.1369306588
 20
9.4732367497
 30
0.0
 10
11.1324176803
 20
9.4509243177
 30
0.0
 10
11.1275777816
 20
9.4170614828
 30
0.0
 10
11.1246691627
 20
9.382847431
 30
0.0
 10
11.1240251081
 20
9.3599183806
 30
0.0
 10
11.1240251081
 20
9.3484342315
 30
0.0
  0
SPLINE
  5
385
100
AcDbEntity
  8
0
100
AcDbSpline
 62
7
  6
CONTINUOUS
 70
0
 71
3
 72
51
 73
47
 74
0
 42
0.0000001
 43
0.0000001
 44
0.0000000001
 40
0.0
 40
0.0
 40
0.0
 40
0.0
 40
0.0063158635
 40
0.0126706303
 40
0.0191024432
 40
0.0256479571
 40
0.0323418077
 40
0.0392161183
 40
0.0536138704
 40
0.0611945442
 40
0.0690562655
 40
0.0772173314
 40
0.0856936749
 40
0.0944990308
 40
0.1036450874
 40
0.1131418266
 40
0.1229975322
 40
0.133219107
 40
0.1438121681
 40
0.1547811246
 40
0.1661294492
 40
0.1778595878
 40
0.1899732142
 40
0.2024712423
 40
0.2153538436
 40
0.2286206595
 40
0.2422706578
 40
0.2707128324
 40
0.3006637013
 40
0.3320988399
 40
0.3649879973
 40
0.399295771
 40
0.4349821468
 40
0.4720029839
 40
0.5103104049
 40
0.5498531248
 40
0.5905767307
 40
0.6324239266
 40
0.6753347831
 40
0.7192469671
 40
0.7640959128
 40
0.8098150179
 40
0.8563359555
 40
0.9035880697
 40
0.951501099
 40
1.0
 40
1.0
 40
1.0
 40
1.0
 10
13.5286485778
 20
10.9329274468
 30
0.0
 10
13.5304148255
 20
10.9328049627
 30
0.0
 10
13.5339498545
 20
10.9324146799
 30
0.0
 10
13.5392127903
 20
10.931397388
 30
0.0
 10
13.5444405353
 20
10.929948205
 30
0.0
 10
13.5496300597
 20
10.9280683711
 30
0.0
 10
13.5547792929
 20
10.9257588774
 30
0.0
 10
13.5616933522
 20
10.9220526392
 30
0.0
 10
13.5684196272
 20
10.9175155904
 30
0.0
 10
13.5749289848
 20
10.9122578982
 30
0.0
 10
13.5798457039
 20
10.9078249906
 30
0.0
 10
13.5847099588
 20
10.9029732061
 30
0.0
 10
13.5895204763
 20
10.8977042147
 30
0.0
 10
13.5942752853
 20
10.8920202968
 30
0.0
 10
13.598972703
 20
10.8859238024
 30
0.0
 10
13.6036108271
 20
10.8794171645
 30
0.0
 10
13.6081879353
 20
10.8725030689
 30
0.0
 10
13.6127021961
 20
10.8651842975
 30
0.0
 10
13.6171517986
 20
10.857463811
 30
0.0
 10
13.6215350264
 20
10.8493447694
 30
0.0
 10
13.6258500318
 20
10.8408304392
 30
0.0
 10
13.6300951379
 20
10.8319243158
 30
0.0
 10
13.6342685855
 20
10.8226300187
 30
0.0
 10
13.6383686576
 20
10.8129513403
 30
0.0
 10
13.6423937216
 20
10.8028922575
 30
0.0
 10
13.6463420883
 20
10.7924568546
 30
0.0
 10
13.6515739687
 20
10.777846188
 30
0.0
 10
13.6578942705
 20
10.7586612074
 30
0.0
 10
13.6650474175
 20
10.7345140957
 30
0.0
 10
13.6718577622
 20
10.7089759148
 30
0.0
 10
13.678314006
 20
10.6820886307
 30
0.0
 10
13.6844054066
 20
10.6538961968
 30
0.0
 10
13.690121832
 20
10.6244448935
 30
0.0
 10
13.6954537616
 20
10.593783106
 30
0.0
 10
13.7003923107
 20
10.5619612612
 30
0.0
 10
13.7049292456
 20
10.5290317285
 30
0.0
 10
13.709057
 20
10.4950487365
 30
0.0
 10
13.7127687015
 20
10.4600682799
 30
0.0
 10
13.7160581667
 20
10.4241480157
 30
0.0
 10
13.7189199115
 20
10.3873471633
 30
0.0
 10
13.721349161
 20
10.3497264066
 30
0.0
 10
13.7233418641
 20
10.3113477588
 30
0.0
 10
13.7248946776
 20
10.272274643
 30
0.0
 10
13.726005059
 20
10.2325712273
 30
0.0
 10
13.7266710695
 20
10.1923034092
 30
0.0
 10
13.7268173138
 20
10.1652765621
 30
0.0
 10
13.7268173138
 20
10.1516811451
 30
0.0
  0
SPLINE
  5
386
100
AcDbEntity
  8
0
100
AcDbSpline
 62
7
  6
CONTINUOUS
 70
0
 71
3
 72
57
 73
53
 74
0
 42
0.0000001
 43
0.0000001
 44
0.0000000001
 40
0.0
 40
0.0
 40
0.0
 40
0.0
 40
0.0532126396
 40
0.1056323
 40
0.1571426295
 40
0.2076322898
 40
0.2569916241
 40
0.3051150116
 40
0.3519005002
 40
0.3972504994
 40
0.4410721683
 40
0.4832779491
 40
0.5237861371
 40
0.5625215323
 40
0.5994162092
 40
0.6344104499
 40
0.6511793612
 40
0.6674551227
 40
0.6832331821
 40
0.6985097524
 40
0.7132818934
 40
0.7275476926
 40
0.7413061778
 40
0.7545576932
 40
0.7673037416
 40
0.7795474387
 40
0.7912934545
 40
0.8025484123
 40
0.8133210715
 40
0.8236226126
 40
0.8334671064
 40
0.8428717214
 40
0.8518574065
 40
0.8604491099
 40
0.8686764789
 40
0.8765741103
 40
0.8841819731
 40
0.8915454782
 40
0.8987152672
 40
0.9057466802
 40
0.9126986646
 40
0.9196324082
 40
0.9266096147
 40
0.9336907433
 40
0.9409334227
 40
0.948391164
 40
0.9561125076
 40
0.9641406606
 40
0.9725133275
 40
0.9812630844
 40
0.9904175373
 40
1.0
 40
1.0
 40
1.0
 40
1.0
 10
13.6557164501
 20
10.0990029814
 30
0.0
 10
13.6557164501
 20
10.1119549409
 30
0.0
 10
13.6555496215
 20
10.1376661927
 30
0.0
 10
13.6547880369
 20
10.1759082666
 30
0.0
 10
13.6535186181
 20
10.2134738386
 30
0.0
 10
13.651744506
 20
10.250273288
 30
0.0
 10
13.6494699517
 20
10.2862193015
 30
0.0
 10
13.6467004761
 20
10.3212263427
 30
0.0
 10
13.6434427546
 20
10.3552112422
 30
0.0
 10
13.6397046542
 20
10.3880932517
 30
0.0
 10
13.635495193
 20
10.4197942928
 30
0.0
 10
13.6308245294
 20
10.45023915
 30
0.0
 10
13.6257039329
 20
10.4793556342
 30
0.0
 10
13.6201457668
 20
10.5070748947
 30
0.0
 10
13.6141634002
 20
10.5333311813
 30
0.0
 10
13.6087627242
 20
10.554227642
 30
0.0
 10
13.6042259823
 20
10.5701554925
 30
0.0
 10
13.6007747906
 20
10.5815274272
 30
0.0
 10
13.5972286624
 20
10.5924889955
 30
0.0
 10
13.5935896717
 20
10.6030337335
 30
0.0
 10
13.5898599524
 20
10.6131554007
 30
0.0
 10
13.5860417782
 20
10.6228480433
 30
0.0
 10
13.5821373135
 20
10.6321059325
 30
0.0
 10
13.5781489601
 20
10.6409236564
 30
0.0
 10
13.5740789483
 20
10.6492960166
 30
0.0
 10
13.5699297353
 20
10.6572181469
 30
0.0
 10
13.5657036508
 20
10.6646854091
 30
0.0
 10
13.5614031311
 20
10.6716934694
 30
0.0
 10
13.5570306098
 20
10.6782382736
 30
0.0
 10
13.5525884467
 20
10.6843159927
 30
0.0
 10
13.5480791372
 20
10.6899231503
 30
0.0
 10
13.5435049453
 20
10.6950563751
 30
0.0
 10
13.5388683492
 20
10.6997126913
 30
0.0
 10
13.5341715603
 20
10.7038891145
 30
0.0
 10
13.529416996
 20
10.707582989
 30
0.0
 10
13.5246069624
 20
10.7107916194
 30
0.0
 10
13.5197439593
 20
10.713512455
 30
0.0
 10
13.5148306993
 20
10.7157430577
 30
0.0
 10
13.5098701713
 20
10.7174809945
 30
0.0
 10
13.5048658681
 20
10.7187243754
 30
0.0
 10
13.4998216069
 20
10.7194714352
 30
0.0
 10
13.4947416038
 20
10.7197214702
 30
0.0
 10
13.4896301511
 20
10.7194741553
 30
0.0
 10
13.4844914476
 20
10.7187302631
 30
0.0
 10
13.4793294055
 20
10.7174909706
 30
0.0
 10
13.4741475678
 20
10.7157580071
 30
0.0
 10
13.4689490925
 20
10.713533403
 30
0.0
 10
13.4637369489
 20
10.7108191955
 30
0.0
 10
13.4585138225
 20
10.7076177558
 30
0.0
 10
13.4532824623
 20
10.7039312365
 30
0.0
 10
13.4480456003
 20
10.699762355
 30
0.0
 10
13.4446324779
 20
10.6967340807
 30
0.0
 10
13.4429251359
 20
10.695145074
 30
0.0
  0
SPLINE
  5
387
100
AcDbEntity
  8
0
100
AcDbSpline
 62
7
  6
CONTINUOUS
 70
0
 71
3
 72
48
 73
44
 74
0
 42
0.0000001
 43
0.0000001
 44
0.0000000001
 40
0.0
 40
0.0
 40
0.0
 40
0.0
 40
0.0964108957
 40
0.1436630075
 40
0.1901840565
 40
0.2359033551
 40
0.2807524226
 40
0.3246647742
 40
0.3675757725
 40
0.4094230935
 40
0.4501468426
 40
0.4896897161
 40
0.5279972682
 40
0.5650182374
 40
0.6007047557
 40
0.6350126551
 40
0.6679019302
 40
0.6993372087
 40
0.7292882221
 40
0.7577305011
 40
0.7846463413
 40
0.8100258236
 40
0.8221394995
 40
0.8338697211
 40
0.8452180732
 40
0.8561870973
 40
0.86678022
 40
0.8770018317
 40
0.8868576008
 40
0.8963543883
 40
0.90550049
 40
0.9143058985
 40
0.9227822912
 40
0.9309433945
 40
0.938805166
 40
0.9463858825
 40
0.960783718
 40
0.9676580551
 40
0.9743519358
 40
0.980897489
 40
0.9873293209
 40
0.9936841153
 40
1.0
 40
1.0
 40
1.0
 40
1.0
 10
13.5883554908
 20
10.0889372872
 30
0.0
 10
13.5883554908
 20
10.1089806357
 30
0.0
 10
13.5880348824
 20
10.1388490325
 30
0.0
 10
13.586929633
 20
10.1783725375
 30
0.0
 10
13.5857780067
 20
10.2073501951
 30
0.0
 10
13.5843001685
 20
10.2358127804
 30
0.0
 10
13.5824985738
 20
10.2637133242
 30
0.0
 10
13.5803762435
 20
10.2910057935
 30
0.0
 10
13.5779366902
 20
10.3176451986
 30
0.0
 10
13.575183992
 20
10.3435876143
 30
0.0
 10
13.5721227471
 20
10.3687902901
 30
0.0
 10
13.5687580502
 20
10.3932116978
 30
0.0
 10
13.5650954933
 20
10.416811614
 30
0.0
 10
13.5611411986
 20
10.4395512022
 30
0.0
 10
13.5569017594
 20
10.4613930679
 30
0.0
 10
13.5523842212
 20
10.4823013187
 30
0.0
 10
13.5475961026
 20
10.5022416489
 30
0.0
 10
13.5425453826
 20
10.5211814214
 30
0.0
 10
13.5372404427
 20
10.539089674
 30
0.0
 10
13.531690025
 20
10.5559373264
 30
0.0
 10
13.5259032908
 20
10.5716968087
 30
0.0
 10
13.5208159953
 20
10.584087439
 30
0.0
 10
13.5166239015
 20
10.593423489
 30
0.0
 10
13.5134756266
 20
10.6000285341
 30
0.0
 10
13.5102754876
 20
10.6063429839
 30
0.0
 10
13.5070247868
 20
10.6123642968
 30
0.0
 10
13.5037248556
 20
10.6180900309
 30
0.0
 10
13.500376949
 20
10.6235178288
 30
0.0
 10
13.4969824634
 20
10.6286455258
 30
0.0
 10
13.4935427087
 20
10.6334710334
 30
0.0
 10
13.4900589815
 20
10.6379923667
 30
0.0
 10
13.4865326974
 20
10.642207729
 30
0.0
 10
13.4829650997
 20
10.6461153727
 30
0.0
 10
13.4793576346
 20
10.6497135915
 30
0.0
 10
13.4757112796
 20
10.6530011805
 30
0.0
 10
13.4708837698
 20
10.6569004464
 30
0.0
 10
13.4658954038
 20
10.6602652831
 30
0.0
 10
13.4607677511
 20
10.6630139373
 30
0.0
 10
13.4569489432
 20
10.6647267227
 30
0.0
 10
13.453100277
 20
10.6661209301
 30
0.0
 10
13.4492232298
 20
10.6671956452
 30
0.0
 10
13.4453201125
 20
10.6679501541
 30
0.0
 10
13.4426984428
 20
10.6682396263
 30
0.0
 10
13.4413885473
 20
10.6683304606
 30
0.0
  0
SPLINE
  5
388
100
AcDbEntity
  8
0
100
AcDbSpline
 62
7
  6
CONTINUOUS
 70
0
 71
3
 72
54
 73
50
 74
0
 42
0.0000001
 43
0.0000001
 44
0.0000000001
 40
0.0
 40
0.0
 40
0.0
 40
0.0
 40
0.0386099858
 40
0.0580073208
 40
0.0774620674
 40
0.1165343742
 40
0.1558129707
 40
0.175524779
 40
0.1952798763
 40
0.2349023505
 40
0.2746479688
 40
0.3144704672
 40
0.3543101414
 40
0.3940914431
 40
0.4337210156
 40
0.4730863528
 40
0.5120555099
 40
0.5504781347
 40
0.5881882525
 40
0.6250087696
 40
0.66075754
 40
0.6952547199
 40
0.7283304973
 40
0.7442869036
 40
0.7598324164
 40
0.7749516619
 40
0.7896311305
 40
0.8038589177
 40
0.8176253976
 40
0.8309225421
 40
0.8437447193
 40
0.8560880146
 40
0.8679508114
 40
0.8793333954
 40
0.890238249
 40
0.9006699484
 40
0.910635285
 40
0.9201433584
 40
0.9292056813
 40
0.9378363673
 40
0.9460523355
 40
0.9538735303
 40
0.9613232531
 40
0.9684283521
 40
0.9752195794
 40
0.9817316621
 40
0.9880034137
 40
0.9940775169
 40
1.0
 40
1.0
 40
1.0
 40
1.0
 10
11.0637597467
 20
9.3286426692
 30
0.0
 10
11.0637597467
 20
9.316519231
 30
0.0
 10
11.0642433033
 20
9.2983004663
 30
0.0
 10
11.0658376805
 20
9.2740279915
 30
0.0
 10
11.0680724195
 20
9.2496596682
 30
0.0
 10
11.0720547445
 20
9.219194037
 30
0.0
 10
11.0775788905
 20
9.1888885059
 30
0.0
 10
11.0829070457
 20
9.1647413453
 30
0.0
 10
11.0888461023
 20
9.1406259178
 30
0.0
 10
11.097376086
 20
9.1106799668
 30
0.0
 10
11.1092988661
 20
9.0751908686
 30
0.0
 10
11.1228341729
 20
9.0402122502
 30
0.0
 10
11.1378806282
 20
9.0058454814
 30
0.0
 10
11.1543191222
 20
8.972190858
 30
0.0
 10
11.1720111992
 20
8.9393482662
 30
0.0
 10
11.1907980715
 20
8.9074161729
 30
0.0
 10
11.2105001745
 20
8.8764902266
 30
0.0
 10
11.2309177827
 20
8.8466610076
 30
0.0
 10
11.2518329657
 20
8.8180110943
 30
0.0
 10
11.273013093
 20
8.7906116154
 30
0.0
 10
11.2942159077
 20
8.7645186415
 30
0.0
 10
11.3151957582
 20
8.7397698472
 30
0.0
 10
11.3324921045
 20
8.7200519276
 30
0.0
 10
11.3460076449
 20
8.7049357441
 30
0.0
 10
11.3558196685
 20
8.6940718589
 30
0.0
 10
11.3654022863
 20
8.6835412435
 30
0.0
 10
11.3747304882
 20
8.6733386161
 30
0.0
 10
11.3837806537
 20
8.6634573402
 30
0.0
 10
11.3925308225
 20
8.6538898833
 30
0.0
 10
11.4009604792
 20
8.6446274295
 30
0.0
 10
11.4090508723
 20
8.6356605583
 30
0.0
 10
11.4167846916
 20
8.6269788208
 30
0.0
 10
11.4241463098
 20
8.6185713474
 30
0.0
 10
11.4311215313
 20
8.6104266186
 30
0.0
 10
11.4376976195
 20
8.6025327971
 30
0.0
 10
11.44386325
 20
8.5948777909
 30
0.0
 10
11.4496082636
 20
8.5874492773
 30
0.0
 10
11.4549238579
 20
8.5802350123
 30
0.0
 10
11.4598020951
 20
8.573222633
 30
0.0
 10
11.4642362831
 20
8.5664000935
 30
0.0
 10
11.4682203349
 20
8.5597553827
 30
0.0
 10
11.4717492188
 20
8.5532769502
 30
0.0
 10
11.4748183244
 20
8.5469534865
 30
0.0
 10
11.4774238211
 20
8.5407742498
 30
0.0
 10
11.4795622109
 20
8.5347289942
 30
0.0
 10
11.4812304688
 20
8.5288082457
 30
0.0
 10
11.4824259657
 20
8.5230031569
 30
0.0
 10
11.4831463629
 20
8.5173065552
 30
0.0
 10
11.4833104169
 20
8.5135379301
 30
0.0
 10
11.483310563
 20
8.5116782853
 30
0.0
  0
SPLINE
  5
389
100
AcDbEntity
  8
0
100
AcDbSpline
 62
7
  6
CONTINUOUS
 70
0
 71
3
 72
11
 73
7
 74
0
 42
0.0000001
 43
0.0000001
 44
0.0000000001
 40
0.0
 40
0.0
 40
0.0
 40
0.0
 40
0.2485821051
 40
0.498090461
 40
0.7485573928
 40
1.0
 40
1.0
 40
1.0
 40
1.0
 10
9.5708401194
 20
7.7819709809
 30
0.0
 10
9.5682669539
 20
7.7709129155
 30
0.0
 10
9.5637539755
 20
7.7486004835
 30
0.0
 10
9.5589140768
 20
7.7147376486
 30
0.0
 10
9.5560054578
 20
7.6805235968
 30
0.0
 10
9.5553614033
 20
7.6575945464
 30
0.0
 10
9.5553614033
 20
7.6461103973
 30
0.0
  0
SPLINE
  5
38A
100
AcDbEntity
  8
0
100
AcDbSpline
 62
7
  6
CONTINUOUS
 70
0
 71
3
 72
50
 73
46
 74
0
 42
0.0000001
 43
0.0000001
 44
0.0000000001
 40
0.0
 40
0.0
 40
0.0
 40
0.0
 40
0.0478553417
 40
0.0951474067
 40
0.1418048237
 40
0.1877615625
 40
0.2329508085
 40
0.2773079275
 40
0.3207699221
 40
0.3632755901
 40
0.4047657716
 40
0.445183494
 40
0.4844741987
 40
0.5225859154
 40
0.5594694793
 40
0.5950787889
 40
0.6293711314
 40
0.6623074898
 40
0.6938529144
 40
0.7239769903
 40
0.7526544436
 40
0.7798658523
 40
0.8055985016
 40
0.8179090452
 40
0.8298488485
 40
0.841418725
 40
0.8526202911
 40
0.8634558677
 40
0.8739286239
 40
0.8840427441
 40
0.8938033674
 40
0.9032168878
 40
0.9122909837
 40
0.9210347493
 40
0.9294589915
 40
0.9375762374
 40
0.9454010469
 40
0.9529501735
 40
0.9602426663
 40
0.9673001566
 40
0.9741468398
 40
0.9808095632
 40
0.9873177811
 40
0.9937032956
 40
1.0
 40
1.0
 40
1.0
 40
1.0
 10
13.7113624989
 20
7.617197496
 30
0.0
 10
13.7113624989
 20
7.6304916244
 30
0.0
 10
13.7112226366
 20
7.6569236349
 30
0.0
 10
13.7105858751
 20
7.6963123743
 30
0.0
 10
13.7095242289
 20
7.7351644082
 30
0.0
 10
13.7080394835
 20
7.7734180082
 30
0.0
 10
13.7061339491
 20
7.81101318
 30
0.0
 10
13.7038106867
 20
7.847890518
 30
0.0
 10
13.7010734053
 20
7.8839919092
 30
0.0
 10
13.6979264637
 20
7.9192604456
 30
0.0
 10
13.6943748702
 20
7.9536405303
 30
0.0
 10
13.6904242738
 20
7.987077989
 30
0.0
 10
13.6860809767
 20
8.0195201535
 30
0.0
 10
13.681351897
 20
8.0509159442
 30
0.0
 10
13.6762445635
 20
8.0812159451
 30
0.0
 10
13.6707670965
 20
8.1103724957
 30
0.0
 10
13.6649282243
 20
8.1383397844
 30
0.0
 10
13.6587372426
 20
8.1650739221
 30
0.0
 10
13.6522039936
 20
8.1905330215
 30
0.0
 10
13.6453388374
 20
8.2146772364
 30
0.0
 10
13.6381526357
 20
8.2374690125
 30
0.0
 10
13.6306567418
 20
8.2588726406
 30
0.0
 10
13.6240682179
 20
8.275765564
 30
0.0
 10
13.6186376638
 20
8.2885456673
 30
0.0
 10
13.6145549288
 20
8.2976212027
 30
0.0
 10
13.610403723
 20
8.3063255601
 30
0.0
 10
13.6061856828
 20
8.3146553823
 30
0.0
 10
13.6019024335
 20
8.3226074163
 30
0.0
 10
13.5975555883
 20
8.3301785525
 30
0.0
 10
13.5931468863
 20
8.3373658856
 30
0.0
 10
13.5886779264
 20
8.3441665898
 30
0.0
 10
13.5841504348
 20
8.3505780484
 30
0.0
 10
13.579566115
 20
8.356597787
 30
0.0
 10
13.5749265873
 20
8.3622234133
 30
0.0
 10
13.5702336246
 20
8.3674527855
 30
0.0
 10
13.5654888479
 20
8.3722837871
 30
0.0
 10
13.560693947
 20
8.3767144668
 30
0.0
 10
13.5558506528
 20
8.3807430379
 30
0.0
 10
13.5509605799
 20
8.3843676639
 30
0.0
 10
13.5460255311
 20
8.3875867723
 30
0.0
 10
13.5410472472
 20
8.3903987575
 30
0.0
 10
13.5360276124
 20
8.3928020731
 30
0.0
 10
13.530968549
 20
8.3947954614
 30
0.0
 10
13.5258725691
 20
8.3963774698
 30
0.0
 10
13.5224334867
 20
8.3971614486
 30
0.0
 10
13.5207140107
 20
8.3974826175
 30
0.0
  0
SPLINE
  5
38B
100
AcDbEntity
  8
0
100
AcDbSpline
 62
7
  6
CONTINUOUS
 70
0
 71
3
 72
54
 73
50
 74
0
 42
0.0000001
 43
0.0000001
 44
0.0000000001
 40
0.0
 40
0.0
 40
0.0
 40
0.0
 40
0.0413597142
 40
0.0831981357
 40
0.1253902428
 40
0.1678089847
 40
0.2103267913
 40
0.2528155962
 40
0.2951474775
 40
0.3371951042
 40
0.3788322377
 40
0.4199342215
 40
0.4603784791
 40
0.500045018
 40
0.5388169418
 40
0.5765809754
 40
0.6132280111
 40
0.6486536828
 40
0.6827589815
 40
0.6992874631
 40
0.7154515179
 40
0.7312405848
 40
0.7466446084
 40
0.7616539984
 40
0.7762597685
 40
0.7904534475
 40
0.8042272617
 40
0.8175740481
 40
0.8304874302
 40
0.8429617942
 40
0.8549924154
 40
0.8665755429
 40
0.8777084649
 40
0.8883897197
 40
0.8986191272
 40
0.9083981161
 40
0.9177297907
 40
0.926619344
 40
0.9350742545
 40
0.943104762
 40
0.950724278
 40
0.9579499246
 40
0.9648031773
 40
0.9713104489
 40
0.9775038354
 40
0.9834215685
 40
0.9891084367
 40
0.9946156079
 40
1.0
 40
1.0
 40
1.0
 40
1.0
 10
13.7113624989
 20
7.617197496
 30
0.0
 10
13.7113624989
 20
7.5979943717
 30
0.0
 10
13.7110674131
 20
7.5593652752
 30
0.0
 10
13.7097625301
 20
7.5011598268
 30
0.0
 10
13.7075965523
 20
7.442487929
 30
0.0
 10
13.7045763591
 20
7.3835380155
 30
0.0
 10
13.7007116421
 20
7.3244993923
 30
0.0
 10
13.6960147945
 20
7.2655615917
 30
0.0
 10
13.6905009142
 20
7.2069138461
 30
0.0
 10
13.6841877365
 20
7.1487444429
 30
0.0
 10
13.6770955847
 20
7.0912401261
 30
0.0
 10
13.6692473031
 20
7.0345854898
 30
0.0
 10
13.6606681856
 20
6.9789623797
 30
0.0
 10
13.6513858972
 20
6.9245493038
 30
0.0
 10
13.641430386
 20
6.8715208436
 30
0.0
 10
13.6308337857
 20
6.820047112
 30
0.0
 10
13.6196303268
 20
6.7702930918
 30
0.0
 10
13.6078561834
 20
6.7224184516
 30
0.0
 10
13.597495445
 20
6.6838243632
 30
0.0
 10
13.5889354943
 20
6.65401448
 30
0.0
 10
13.5824639112
 20
6.632454444
 30
0.0
 10
13.5758788957
 20
6.6114753347
 30
0.0
 10
13.569185749
 20
6.5910939511
 30
0.0
 10
13.5623898101
 20
6.5713266425
 30
0.0
 10
13.5554966143
 20
6.552189237
 30
0.0
 10
13.5485116306
 20
6.533697074
 30
0.0
 10
13.5414405524
 20
6.5158649417
 30
0.0
 10
13.5342889972
 20
6.498707116
 30
0.0
 10
13.5270627613
 20
6.482237298
 30
0.0
 10
13.5197676165
 20
6.4664686415
 30
0.0
 10
13.512409414
 20
6.4514137178
 30
0.0
 10
13.5049940672
 20
6.4370845011
 30
0.0
 10
13.4975274441
 20
6.4234923912
 30
0.0
 10
13.4900155604
 20
6.4106481303
 30
0.0
 10
13.4824642719
 20
6.3985619041
 30
0.0
 10
13.4748796207
 20
6.3872431845
 30
0.0
 10
13.4672674226
 20
6.3767008986
 30
0.0
 10
13.4596336299
 20
6.3669432407
 30
0.0
 10
13.4519839677
 20
6.3579778519
 30
0.0
 10
13.4443241526
 20
6.3498116989
 30
0.0
 10
13.436659723
 20
6.342451179
 30
0.0
 10
13.4289960208
 20
6.3359021975
 30
0.0
 10
13.4213382979
 20
6.330170117
 30
0.0
 10
13.4136915265
 20
6.3252601476
 30
0.0
 10
13.4060607727
 20
6.3211770753
 30
0.0
 10
13.3984512152
 20
6.3179259066
 30
0.0
 10
13.3908682244
 20
6.3155112499
 30
0.0
 10
13.3833195412
 20
6.3139378151
 30
0.0
 10
13.3782740582
 20
6.3134483146
 30
0.0
 10
13.3757761183
 20
6.3133481233
 30
0.0
  0
SPLINE
  5
38C
100
AcDbEntity
  8
0
100
AcDbSpline
 62
7
  6
CONTINUOUS
 70
0
 71
3
 72
51
 73
47
 74
0
 42
0.0000001
 43
0.0000001
 44
0.0000000001
 40
0.0
 40
0.0
 40
0.0
 40
0.0
 40
0.0063158635
 40
0.0126706303
 40
0.0191024432
 40
0.0256479571
 40
0.0323418077
 40
0.0392161183
 40
0.0536138704
 40
0.0611945442
 40
0.0690562655
 40
0.0772173314
 40
0.0856936749
 40
0.0944990308
 40
0.1036450874
 40
0.1131418266
 40
0.1229975322
 40
0.133219107
 40
0.1438121681
 40
0.1547811246
 40
0.1661294492
 40
0.1778595878
 40
0.1899732142
 40
0.2024712423
 40
0.2153538436
 40
0.2286206595
 40
0.2422706578
 40
0.2707128324
 40
0.3006637013
 40
0.3320988399
 40
0.3649879973
 40
0.399295771
 40
0.4349821468
 40
0.4720029839
 40
0.5103104049
 40
0.5498531248
 40
0.5905767307
 40
0.6324239266
 40
0.6753347831
 40
0.7192469671
 40
0.7640959128
 40
0.8098150179
 40
0.8563359555
 40
0.9035880697
 40
0.951501099
 40
1.0
 40
1.0
 40
1.0
 40
1.0
 10
13.5286485778
 20
8.3973720026
 30
0.0
 10
13.5304148255
 20
8.3972495184
 30
0.0
 10
13.5339498545
 20
8.3968592357
 30
0.0
 10
13.5392127903
 20
8.3958419437
 30
0.0
 10
13.5444405353
 20
8.3943927608
 30
0.0
 10
13.5496300597
 20
8.3925129268
 30
0.0
 10
13.5547792929
 20
8.3902034332
 30
0.0
 10
13.5616933522
 20
8.3864971949
 30
0.0
 10
13.5684196272
 20
8.3819601462
 30
0.0
 10
13.5749289848
 20
8.376702454
 30
0.0
 10
13.5798457039
 20
8.3722695463
 30
0.0
 10
13.5847099588
 20
8.3674177619
 30
0.0
 10
13.5895204763
 20
8.3621487705
 30
0.0
 10
13.5942752853
 20
8.3564648526
 30
0.0
 10
13.598972703
 20
8.3503683582
 30
0.0
 10
13.6036108271
 20
8.3438617203
 30
0.0
 10
13.6081879353
 20
8.3369476247
 30
0.0
 10
13.6127021961
 20
8.3296288532
 30
0.0
 10
13.6171517986
 20
8.3219083668
 30
0.0
 10
13.6215350264
 20
8.3137893251
 30
0.0
 10
13.6258500318
 20
8.3052749949
 30
0.0
 10
13.6300951379
 20
8.2963688715
 30
0.0
 10
13.6342685855
 20
8.2870745744
 30
0.0
 10
13.6383686576
 20
8.2773958961
 30
0.0
 10
13.6423937216
 20
8.2673368133
 30
0.0
 10
13.6463420883
 20
8.2569014104
 30
0.0
 10
13.6515739687
 20
8.2422907438
 30
0.0
 10
13.6578942705
 20
8.2231057632
 30
0.0
 10
13.6650474175
 20
8.1989586514
 30
0.0
 10
13.6718577622
 20
8.1734204705
 30
0.0
 10
13.678314006
 20
8.1465331864
 30
0.0
 10
13.6844054066
 20
8.1183407525
 30
0.0
 10
13.690121832
 20
8.0888894493
 30
0.0
 10
13.6954537616
 20
8.0582276617
 30
0.0
 10
13.7003923107
 20
8.0264058169
 30
0.0
 10
13.7049292456
 20
7.9934762843
 30
0.0
 10
13.709057
 20
7.9594932922
 30
0.0
 10
13.7127687015
 20
7.9245128356
 30
0.0
 10
13.7160581667
 20
7.8885925714
 30
0.0
 10
13.7189199115
 20
7.851791719
 30
0.0
 10
13.721349161
 20
7.8141709624
 30
0.0
 10
13.7233418641
 20
7.7757923146
 30
0.0
 10
13.7248946776
 20
7.7367191988
 30
0.0
 10
13.726005059
 20
7.697015783
 30
0.0
 10
13.7266710695
 20
7.6567479649
 30
0.0
 10
13.7268173138
 20
7.6297211178
 30
0.0
 10
13.7268173138
 20
7.6161257009
 30
0.0
  0
SPLINE
  5
38D
100
AcDbEntity
  8
0
100
AcDbSpline
 62
7
  6
CONTINUOUS
 70
0
 71
3
 72
64
 73
60
 74
0
 42
0.0000001
 43
0.0000001
 44
0.0000000001
 40
0.0
 40
0.0
 40
0.0
 40
0.0
 40
0.0452102416
 40
0.0910011192
 40
0.137188789
 40
0.1835862807
 40
0.2300060334
 40
0.2762602484
 40
0.3221619985
 40
0.367526173
 40
0.4121704491
 40
0.4559162714
 40
0.4985898475
 40
0.5400231801
 40
0.5800551296
 40
0.5994977177
 40
0.6185332174
 40
0.6371439492
 40
0.6553128728
 40
0.6730236329
 40
0.6902606819
 40
0.7070092143
 40
0.7232553595
 40
0.7389861575
 40
0.7541896577
 40
0.7688550749
 40
0.7829727667
 40
0.7965345107
 40
0.8095335349
 40
0.8219647417
 40
0.833824978
 40
0.8451131807
 40
0.8558308717
 40
0.8659824363
 40
0.8755757077
 40
0.884622637
 40
0.8931399811
 40
0.9011504142
 40
0.9086835265
 40
0.9157771659
 40
0.9224787218
 40
0.9288461322
 40
0.9319270047
 40
0.9349511566
 40
0.9379288491
 40
0.9408708813
 40
0.9437884775
 40
0.9466931766
 40
0.949596687
 40
0.9525107294
 40
0.9554468926
 40
0.9584164761
 40
0.9614303671
 40
0.9644989467
 40
0.9708361869
 40
0.9775010712
 40
0.9845526667
 40
0.9920394025
 40
1.0
 40
1.0
 40
1.0
 40
1.0
 10
13.6557164501
 20
7.5634475371
 30
0.0
 10
13.6557164501
 20
7.5457513084
 30
0.0
 10
13.6554008487
 20
7.5101308614
 30
0.0
 10
13.6540092074
 20
7.4564479446
 30
0.0
 10
13.6517016106
 20
7.4023313447
 30
0.0
 10
13.6484879059
 20
7.3480144814
 30
0.0
 10
13.6443819501
 20
7.2937316397
 30
0.0
 10
13.6394014484
 20
7.239716884
 30
0.0
 10
13.6335679363
 20
7.18620313
 30
0.0
 10
13.6269066633
 20
7.1334211128
 30
0.0
 10
13.6194464863
 20
7.0815983763
 30
0.0
 10
13.6112197453
 20
7.0309583103
 30
0.0
 10
13.602262139
 20
6.9817190722
 30
0.0
 10
13.5926125326
 20
6.934092971
 30
0.0
 10
13.5839475138
 20
6.8955540791
 30
0.0
 10
13.5766872268
 20
6.8656929534
 30
0.0
 10
13.5711486708
 20
6.8440438745
 30
0.0
 10
13.565469929
 20
6.8229469954
 30
0.0
 10
13.5596571081
 20
6.8024250304
 30
0.0
 10
13.5537164746
 20
6.7825000985
 30
0.0
 10
13.5476545054
 20
6.7631936511
 30
0.0
 10
13.5414777012
 20
6.744526482
 30
0.0
 10
13.5351927847
 20
6.7265186706
 30
0.0
 10
13.5288065439
 20
6.7091895826
 30
0.0
 10
13.5223258548
 20
6.6925578443
 30
0.0
 10
13.5157577773
 20
6.6766412951
 30
0.0
 10
13.5091093344
 20
6.6614570144
 30
0.0
 10
13.5023877481
 20
6.6470212387
 30
0.0
 10
13.495600232
 20
6.6333493888
 30
0.0
 10
13.4887540432
 20
6.6204560374
 30
0.0
 10
13.4818565573
 20
6.6083548472
 30
0.0
 10
13.4749150154
 20
6.5970586438
 30
0.0
 10
13.4679367882
 20
6.5865792773
 30
0.0
 10
13.4609290866
 20
6.5769277179
 30
0.0
 10
13.4538990306
 20
6.5681140161
 30
0.0
 10
13.4468536569
 20
6.5601472527
 30
0.0
 10
13.4397996217
 20
6.5530357658
 30
0.0
 10
13.4327434288
 20
6.546786989
 30
0.0
 10
13.4256911996
 20
6.5414078782
 30
0.0
 10
13.4186484961
 20
6.5369049664
 30
0.0
 10
13.4116218871
 20
6.5332848387
 30
0.0
 10
13.4057189849
 20
6.5309842257
 30
0.0
 10
13.4010314757
 20
6.5296113961
 30
0.0
 10
13.3975640577
 20
6.5288163262
 30
0.0
 10
13.394107863
 20
6.5282450981
 30
0.0
 10
13.3906638418
 20
6.5278978831
 30
0.0
 10
13.3872330791
 20
6.5277749251
 30
0.0
 10
13.3838166635
 20
6.5278763513
 30
0.0
 10
13.3804156943
 20
6.5282020763
 30
0.0
 10
13.3770312586
 20
6.5287519901
 30
0.0
 10
13.3736644382
 20
6.5295259474
 30
0.0
 10
13.3703162876
 20
6.5305235524
 30
0.0
 10
13.3669877063
 20
6.5317444482
 30
0.0
 10
13.3625299357
 20
6.5336898963
 30
0.0
 10
13.3569940352
 20
6.5367068289
 30
0.0
 10
13.3505238854
 20
6.5411730157
 30
0.0
 10
13.3441590979
 20
6.5465165857
 30
0.0
 10
13.3379056289
 20
6.5527297418
 30
0.0
 10
13.3339398611
 20
6.557301476
 30
0.0
 10
13.3319737934
 20
6.5597188468
 30
0.0
  0
SPLINE
  5
38E
100
AcDbEntity
  8
0
100
AcDbSpline
 62
7
  6
CONTINUOUS
 70
0
 71
3
 72
52
 73
48
 74
0
 42
0.0000001
 43
0.0000001
 44
0.0000000001
 40
0.0
 40
0.0
 40
0.0
 40
0.0
 40
0.0417740404
 40
0.0840370578
 40
0.1266586418
 40
0.1695066849
 40
0.2124483434
 40
0.2553503429
 40
0.2980795865
 40
0.3405036514
 40
0.3824913233
 40
0.4239131236
 40
0.4646418429
 40
0.5045530821
 40
0.5435258036
 40
0.5814428986
 40
0.6181917776
 40
0.6536649944
 40
0.687760918
 40
0.7203844759
 40
0.7514479972
 40
0.7663700376
 40
0.7808730686
 40
0.7949487479
 40
0.8085893208
 40
0.8217878887
 40
0.8345382655
 40
0.8468352626
 40
0.858674577
 40
0.870053096
 40
0.8809688368
 40
0.8914212801
 40
0.9014113878
 40
0.9109419832
 40
0.9200178825
 40
0.9286463501
 40
0.9368373875
 40
0.9446042998
 40
0.9519641798
 40
0.9589386014
 40
0.9655542774
 40
0.9718437854
 40
0.977846177
 40
0.9836073557
 40
0.9891800414
 40
0.9946230737
 40
1.0
 40
1.0
 40
1.0
 40
1.0
 10
13.5883554908
 20
7.553381843
 30
0.0
 10
13.5883554908
 20
7.5389235435
 30
0.0
 10
13.5881299251
 20
7.5098372517
 30
0.0
 10
13.5871327448
 20
7.4660095948
 30
0.0
 10
13.5854776661
 20
7.4218297964
 30
0.0
 10
13.58317012
 20
7.3774441213
 30
0.0
 10
13.5802177284
 20
7.3329994054
 30
0.0
 10
13.5766302518
 20
7.2886426885
 30
0.0
 10
13.5724195738
 20
7.244520721
 30
0.0
 10
13.5675996528
 20
7.2007794689
 30
0.0
 10
13.5621864803
 20
7.1575636313
 30
0.0
 10
13.5561980272
 20
7.1150161561
 30
0.0
 10
13.5496541856
 20
7.0732777631
 30
0.0
 10
13.5425767039
 20
7.0324864732
 30
0.0
 10
13.5349891168
 20
6.9927771434
 30
0.0
 10
13.5269166687
 20
6.9542810152
 30
0.0
 10
13.5183862324
 20
6.9171252581
 30
0.0
 10
13.5094262185
 20
6.8814325681
 30
0.0
 10
13.5000664924
 20
6.8473206178
 30
0.0
 10
13.4903382355
 20
6.8149020667
 30
0.0
 10
13.4818414847
 20
6.7890516535
 30
0.0
 10
13.4748689155
 20
6.7693106112
 30
0.0
 10
13.4696377072
 20
6.7551920194
 30
0.0
 10
13.4643390558
 20
6.7415734178
 30
0.0
 10
13.4589772196
 20
6.7284660353
 30
0.0
 10
13.4535567409
 20
6.7158806534
 30
0.0
 10
13.4480820103
 20
6.7038276471
 30
0.0
 10
13.4425576447
 20
6.6923168983
 30
0.0
 10
13.4369881117
 20
6.6813578758
 30
0.0
 10
13.431378085
 20
6.6709595255
 30
0.0
 10
13.4257320816
 20
6.6611303708
 30
0.0
 10
13.4200547967
 20
6.6518783856
 30
0.0
 10
13.4143507603
 20
6.6432111129
 30
0.0
 10
13.4086246378
 20
6.6351355265
 30
0.0
 10
13.4028809168
 20
6.6276581659
 30
0.0
 10
13.3971241574
 20
6.6207849985
 30
0.0
 10
13.3913587226
 20
6.6145215713
 30
0.0
 10
13.385588965
 20
6.6088728976
 30
0.0
 10
13.3798190223
 20
6.6038436287
 30
0.0
 10
13.3740529503
 20
6.5994380061
 30
0.0
 10
13.3682946334
 20
6.5956600494
 30
0.0
 10
13.3625479363
 20
6.5925136039
 30
0.0
 10
13.3568167974
 20
6.5900024661
 30
0.0
 10
13.3511056103
 20
6.5881304198
 30
0.0
 10
13.34541911
 20
6.5869010422
 30
0.0
 10
13.3397641759
 20
6.5863173557
 30
0.0
 10
13.3360097805
 20
6.5863602256
 30
0.0
 10
13.3341532455
 20
6.5864889664
 30
0.0
  0
SPLINE
  5
38F
100
AcDbEntity
  8
0
100
AcDbSpline
 62
7
  6
CONTINUOUS
 70
0
 71
3
 72
33
 73
29
 74
0
 42
0.0000001
 43
0.0000001
 44
0.0000000001
 40
0.0
 40
0.0
 40
0.0
 40
0.0
 40
0.0958348039
 40
0.1891069742
 40
0.2792500435
 40
0.36572131
 40
0.4480125246
 40
0.5256540669
 40
0.5625988158
 40
0.598226802
 40
0.632494146
 40
0.6653609288
 40
0.6967920316
 40
0.726757616
 40
0.7552336203
 40
0.7822031337
 40
0.8076567456
 40
0.8315949344
 40
0.8540288219
 40
0.8749836671
 40
0.8945009457
 40
0.9126431418
 40
0.9294980666
 40
0.945184889
 40
0.9598599849
 40
0.9737213022
 40
0.9870092614
 40
1.0
 40
1.0
 40
1.0
 40
1.0
 10
12.6070323736
 20
10.5317185064
 30
0.0
 10
12.6125280885
 20
10.5313373773
 30
0.0
 10
12.623364637
 20
10.5304644388
 30
0.0
 10
12.6393316911
 20
10.5287981163
 30
0.0
 10
12.6547184132
 20
10.5268012333
 30
0.0
 10
12.6694222485
 20
10.5244873642
 30
0.0
 10
12.6833451045
 20
10.5218722419
 30
0.0
 10
12.6943956479
 20
10.5194179787
 30
0.0
 10
12.7027688485
 20
10.5173065268
 30
0.0
 10
12.7086930049
 20
10.5156852853
 30
0.0
 10
12.7143560109
 20
10.514002938
 30
0.0
 10
12.7197484587
 20
10.5122622512
 30
0.0
 10
12.7248613991
 20
10.5104661615
 30
0.0
 10
12.7296863738
 20
10.5086176887
 30
0.0
 10
12.7342154157
 20
10.5067198799
 30
0.0
 10
12.7384411045
 20
10.5047759437
 30
0.0
 10
12.7423565211
 20
10.5027889988
 30
0.0
 10
12.7459553588
 20
10.5007623593
 30
0.0
 10
12.749231809
 20
10.4986991439
 30
0.0
 10
12.7521807168
 20
10.4966026108
 30
0.0
 10
12.754797394
 20
10.4944757343
 30
0.0
 10
12.7570777244
 20
10.4923214457
 30
0.0
 10
12.7590179024
 20
10.490142348
 30
0.0
 10
12.7606142755
 20
10.4879408174
 30
0.0
 10
12.7618630688
 20
10.4857192707
 30
0.0
 10
12.762759977
 20
10.4834802274
 30
0.0
 10
12.7633006835
 20
10.4812284973
 30
0.0
 10
12.7634215829
 20
10.4797152992
 30
0.0
 10
12.7634215829
 20
10.4789685468
 30
0.0
  0
SPLINE
  5
390
100
AcDbEntity
  8
0
100
AcDbSpline
 62
7
  6
CONTINUOUS
 70
0
 71
3
 72
41
 73
37
 74
0
 42
0.0000001
 43
0.0000001
 44
0.0000000001
 40
0.0
 40
0.0
 40
0.0
 40
0.0
 40
0.0302662093
 40
0.0454436825
 40
0.0606503944
 40
0.0911499791
 40
0.1217704871
 40
0.1371279292
 40
0.152515731
 40
0.1833785845
 40
0.2143597119
 40
0.2454551511
 40
0.276659497
 40
0.3079659837
 40
0.3393665824
 40
0.3708521104
 40
0.4024123531
 40
0.4340361944
 40
0.4657117558
 40
0.4974265417
 40
0.5291675912
 40
0.5609216321
 40
0.5926752387
 40
0.6244149905
 40
0.6561276306
 40
0.6878002234
 40
0.7194203089
 40
0.7509760533
 40
0.7824563948
 40
0.8138511811
 40
0.8451513018
 40
0.8763488026
 40
0.9074370139
 40
0.9384105913
 40
0.9692657371
 40
1.0
 40
1.0
 40
1.0
 40
1.0
 10
11.8950437751
 20
8.7021085798
 30
0.0
 10
11.8837196545
 20
8.6998839974
 30
0.0
 10
11.866612678
 20
8.6970454111
 30
0.0
 10
11.8436521855
 20
8.6942635492
 30
0.0
 10
11.8205310254
 20
8.6921439687
 30
0.0
 10
11.791443528
 20
8.6907521455
 30
0.0
 10
11.7622669305
 20
8.6910389417
 30
0.0
 10
11.7388977406
 20
8.6922707855
 30
0.0
 10
11.71548102
 20
8.6941749517
 30
0.0
 10
11.6862405655
 20
8.6978111659
 30
0.0
 10
11.6513573842
 20
8.704159222
 30
0.0
 10
11.616756073
 20
8.7124754555
 30
0.0
 10
11.5825504616
 20
8.7227325131
 30
0.0
 10
11.5488521494
 20
8.7348967587
 30
0.0
 10
11.5157713137
 20
8.7489283238
 30
0.0
 10
11.4834160372
 20
8.7647812558
 30
0.0
 10
11.451892043
 20
8.7824036635
 30
0.0
 10
11.4213023288
 20
8.8017378884
 30
0.0
 10
11.3917468393
 20
8.8227206925
 30
0.0
 10
11.3633221405
 20
8.8452834641
 30
0.0
 10
11.3361211066
 20
8.8693524412
 30
0.0
 10
11.3102326186
 20
8.8948489517
 30
0.0
 10
11.2857412759
 20
8.9216896684
 30
0.0
 10
11.2627271213
 20
8.9497868808
 30
0.0
 10
11.2412653811
 20
8.9790487788
 30
0.0
 10
11.2214262205
 20
9.0093797516
 30
0.0
 10
11.2032745154
 20
9.0406806978
 30
0.0
 10
11.186869641
 20
9.0728493467
 30
0.0
 10
11.1722652791
 20
9.1057805898
 30
0.0
 10
11.1595092407
 20
9.1393668243
 30
0.0
 10
11.1486433147
 20
9.1734982894
 30
0.0
 10
11.1397031191
 20
9.2080634719
 30
0.0
 10
11.1327180085
 20
9.2429492796
 30
0.0
 10
11.1277109284
 20
9.278042099
 30
0.0
 10
11.1246984151
 20
9.3132256533
 30
0.0
 10
11.1240251081
 20
9.336715204
 30
0.0
 10
11.1240251081
 20
9.3484342315
 30
0.0
  0
SPLINE
  5
391
100
AcDbEntity
  8
0
100
AcDbSpline
 62
7
  6
CONTINUOUS
 70
0
 71
3
 72
57
 73
53
 74
0
 42
0.0000001
 43
0.0000001
 44
0.0000000001
 40
0.0
 40
0.0
 40
0.0
 40
0.0
 40
0.0532126396
 40
0.1056323
 40
0.1571426295
 40
0.2076322898
 40
0.2569916241
 40
0.3051150116
 40
0.3519005002
 40
0.3972504994
 40
0.4410721683
 40
0.4832779491
 40
0.5237861371
 40
0.5625215323
 40
0.5994162092
 40
0.6344104499
 40
0.6511793612
 40
0.6674551227
 40
0.6832331821
 40
0.6985097524
 40
0.7132818934
 40
0.7275476926
 40
0.7413061778
 40
0.7545576932
 40
0.7673037416
 40
0.7795474387
 40
0.7912934545
 40
0.8025484123
 40
0.8133210715
 40
0.8236226126
 40
0.8334671064
 40
0.8428717214
 40
0.8518574065
 40
0.8604491099
 40
0.8686764789
 40
0.8765741103
 40
0.8841819731
 40
0.8915454782
 40
0.8987152672
 40
0.9057466802
 40
0.9126986646
 40
0.9196324082
 40
0.9266096147
 40
0.9336907433
 40
0.9409334227
 40
0.948391164
 40
0.9561125076
 40
0.9641406606
 40
0.9725133275
 40
0.9812630844
 40
0.9904175373
 40
1.0
 40
1.0
 40
1.0
 40
1.0
 10
13.6557164501
 20
7.5634475371
 30
0.0
 10
13.6557164501
 20
7.5763994966
 30
0.0
 10
13.6555496215
 20
7.6021107484
 30
0.0
 10
13.6547880369
 20
7.6403528224
 30
0.0
 10
13.6535186181
 20
7.6779183944
 30
0.0
 10
13.651744506
 20
7.7147178437
 30
0.0
 10
13.6494699517
 20
7.7506638573
 30
0.0
 10
13.6467004761
 20
7.7856708985
 30
0.0
 10
13.6434427546
 20
7.8196557979
 30
0.0
 10
13.6397046542
 20
7.8525378074
 30
0.0
 10
13.635495193
 20
7.8842388485
 30
0.0
 10
13.6308245294
 20
7.9146837057
 30
0.0
 10
13.6257039329
 20
7.9438001899
 30
0.0
 10
13.6201457668
 20
7.9715194504
 30
0.0
 10
13.6141634002
 20
7.9977757371
 30
0.0
 10
13.6087627242
 20
8.0186721977
 30
0.0
 10
13.6042259823
 20
8.0346000482
 30
0.0
 10
13.6007747906
 20
8.045971983
 30
0.0
 10
13.5972286624
 20
8.0569335513
 30
0.0
 10
13.5935896717
 20
8.0674782892
 30
0.0
 10
13.5898599524
 20
8.0775999565
 30
0.0
 10
13.5860417782
 20
8.087292599
 30
0.0
 10
13.5821373135
 20
8.0965504883
 30
0.0
 10
13.5781489601
 20
8.1053682121
 30
0.0
 10
13.5740789483
 20
8.1137405724
 30
0.0
 10
13.5699297353
 20
8.1216627027
 30
0.0
 10
13.5657036508
 20
8.1291299648
 30
0.0
 10
13.5614031311
 20
8.1361380251
 30
0.0
 10
13.5570306098
 20
8.1426828293
 30
0.0
 10
13.5525884467
 20
8.1487605484
 30
0.0
 10
13.5480791372
 20
8.154367706
 30
0.0
 10
13.5435049453
 20
8.1595009308
 30
0.0
 10
13.5388683492
 20
8.164157247
 30
0.0
 10
13.5341715603
 20
8.1683336703
 30
0.0
 10
13.529416996
 20
8.1720275448
 30
0.0
 10
13.5246069624
 20
8.1752361752
 30
0.0
 10
13.5197439593
 20
8.1779570107
 30
0.0
 10
13.5148306993
 20
8.1801876134
 30
0.0
 10
13.5098701713
 20
8.1819255503
 30
0.0
 10
13.5048658681
 20
8.1831689311
 30
0.0
 10
13.4998216069
 20
8.183915991
 30
0.0
 10
13.4947416038
 20
8.184166026
 30
0.0
 10
13.4896301511
 20
8.183918711
 30
0.0
 10
13.4844914476
 20
8.1831748188
 30
0.0
 10
13.4793294055
 20
8.1819355264
 30
0.0
 10
13.4741475678
 20
8.1802025629
 30
0.0
 10
13.4689490925
 20
8.1779779588
 30
0.0
 10
13.4637369489
 20
8.1752637513
 30
0.0
 10
13.4585138225
 20
8.1720623116
 30
0.0
 10
13.4532824623
 20
8.1683757923
 30
0.0
 10
13.4480456003
 20
8.1642069108
 30
0.0
 10
13.4446324779
 20
8.1611786364
 30
0.0
 10
13.4429251359
 20
8.1595896297
 30
0.0
  0
SPLINE
  5
392
100
AcDbEntity
  8
0
100
AcDbSpline
 62
7
  6
CONTINUOUS
 70
0
 71
3
 72
56
 73
52
 74
0
 42
0.0000001
 43
0.0000001
 44
0.0000000001
 40
0.0
 40
0.0
 40
0.0
 40
0.0
 40
0.0417738543
 40
0.0840365046
 40
0.1266578532
 40
0.1695056202
 40
0.2124470096
 40
0.2553487411
 40
0.2980777186
 40
0.3405015202
 40
0.3824889321
 40
0.4239104771
 40
0.4646389477
 40
0.5045499464
 40
0.5435224368
 40
0.58143931
 40
0.6181879754
 40
0.653660986
 40
0.6877567136
 40
0.7042584199
 40
0.7203807218
 40
0.7361129262
 40
0.7514448081
 40
0.7663667614
 40
0.7808697253
 40
0.7949453179
 40
0.8085858377
 40
0.8217843194
 40
0.8345346546
 40
0.8468315703
 40
0.8586708476
 40
0.8700492971
 40
0.880965
 40
0.8914173896
 40
0.9014074573
 40
0.9109380132
 40
0.920013873
 40
0.9286423085
 40
0.9368333128
 40
0.9446001945
 40
0.9519600503
 40
0.9589344411
 40
0.9655500985
 40
0.9718395766
 40
0.9778419482
 40
0.9836030996
 40
0.9891757586
 40
0.9919106344
 40
0.9946208946
 40
0.9973146059
 40
1.0
 40
1.0
 40
1.0
 40
1.0
 10
13.7268173138
 20
7.6161257009
 30
0.0
 10
13.7268173138
 20
7.5966302976
 30
0.0
 10
13.7265131667
 20
7.5574107623
 30
0.0
 10
13.725168575
 20
7.4983141628
 30
0.0
 10
13.7229368966
 20
7.438742779
 30
0.0
 10
13.719825434
 20
7.3788937466
 30
0.0
 10
13.7158444761
 20
7.3189651183
 30
0.0
 10
13.7110071793
 20
7.2591551423
 30
0.0
 10
13.705329567
 20
7.1996616976
 30
0.0
 10
13.6988304585
 20
7.1406816034
 30
0.0
 10
13.691531417
 20
7.0824099693
 30
0.0
 10
13.6834566758
 20
7.0250395439
 30
0.0
 10
13.6746330577
 20
6.9687600699
 30
0.0
 10
13.6650898883
 20
6.9137576527
 30
0.0
 10
13.6548589015
 20
6.860214127
 30
0.0
 10
13.6439741338
 20
6.8083064748
 30
0.0
 10
13.6324718256
 20
6.7582061116
 30
0.0
 10
13.6203902593
 20
6.7100786937
 30
0.0
 10
13.6097607797
 20
6.6713384789
 30
0.0
 10
13.6009820095
 20
6.6414635558
 30
0.0
 10
13.5943501797
 20
6.6198920207
 30
0.0
 10
13.5876044755
 20
6.5989285972
 30
0.0
 10
13.5807503882
 20
6.5785905918
 30
0.0
 10
13.5737936732
 20
6.5588947953
 30
0.0
 10
13.5667400467
 20
6.5398574708
 30
0.0
 10
13.5595953826
 20
6.5214943187
 30
0.0
 10
13.5523656019
 20
6.5038204763
 30
0.0
 10
13.5450566612
 20
6.4868505083
 30
0.0
 10
13.5376746641
 20
6.4705983641
 30
0.0
 10
13.5302256386
 20
6.4550774187
 30
0.0
 10
13.5227158081
 20
6.4403003831
 30
0.0
 10
13.5151512881
 20
6.4262793777
 30
0.0
 10
13.5075383294
 20
6.4130258409
 30
0.0
 10
13.4998831393
 20
6.4005505697
 30
0.0
 10
13.492191908
 20
6.3888637032
 30
0.0
 10
13.4844708847
 20
6.3779746612
 30
0.0
 10
13.476726129
 20
6.3678922605
 30
0.0
 10
13.4689638007
 20
6.3586245388
 30
0.0
 10
13.4611897681
 20
6.3501789853
 30
0.0
 10
13.4534099037
 20
6.3425623596
 30
0.0
 10
13.4456298046
 20
6.3357809123
 30
0.0
 10
13.4378548988
 20
6.3298404133
 30
0.0
 10
13.4300904767
 20
6.3247461986
 30
0.0
 10
13.4223417201
 20
6.3205035673
 30
0.0
 10
13.4146138419
 20
6.3171175072
 30
0.0
 10
13.4069133174
 20
6.3145932562
 30
0.0
 10
13.4004823268
 20
6.3132030837
 30
0.0
 10
13.3953815571
 20
6.3125365545
 30
0.0
 10
13.3915915054
 20
6.3122558375
 30
0.0
 10
13.3878148937
 20
6.3121915593
 30
0.0
 10
13.3853049335
 20
6.3122930988
 30
0.0
 10
13.3840546919
 20
6.3123797995
 30
0.0
  0
SPLINE
  5
393
100
AcDbEntity
  8
0
100
AcDbSpline
 62
7
  6
CONTINUOUS
 70
0
 71
3
 72
71
 73
67
 74
0
 42
0.0000001
 43
0.0000001
 44
0.0000000001
 40
0.0
 40
0.0
 40
0.0
 40
0.0
 40
0.0155842752
 40
0.0311159217
 40
0.0465952561
 40
0.062023882
 40
0.0774034483
 40
0.0927362826
 40
0.1080251228
 40
0.1232731737
 40
0.1384840559
 40
0.1536617767
 40
0.1688106901
 40
0.183935453
 40
0.199040978
 40
0.2141323819
 40
0.2292149319
 40
0.2442939897
 40
0.2593749544
 40
0.2744632045
 40
0.289564041
 40
0.3046826303
 40
0.3198239506
 40
0.3349927389
 40
0.3501934431
 40
0.3654301768
 40
0.3807066784
 40
0.3960262758
 40
0.4113918559
 40
0.4268058389
 40
0.4422701586
 40
0.4577862477
 40
0.4733550286
 40
0.4889769093
 40
0.5046517847
 40
0.5203790431
 40
0.5361575764
 40
0.5519857966
 40
0.5678616541
 40
0.583782661
 40
0.5997459175
 40
0.6157481412
 40
0.6317856997
 40
0.6478546449
 40
0.6639507506
 40
0.6800695511
 40
0.6962063816
 40
0.7123564195
 40
0.7285147267
 40
0.7446762933
 40
0.7608360806
 40
0.7769890653
 40
0.7931302837
 40
0.8092548749
 40
0.8253581232
 40
0.8414355003
 40
0.8574827056
 40
0.8734957056
 40
0.8894707712
 40
0.9054045129
 40
0.9212939188
 40
0.9371363627
 40
0.9529297122
 40
0.9686721024
 40
0.9843626029
 40
1.0
 40
1.0
 40
1.0
 40
1.0
 10
10.3351285078
 20
7.0292279369
 30
0.0
 10
10.3351285078
 20
7.0176323143
 30
0.0
 10
10.3345610465
 20
6.9944761159
 30
0.0
 10
10.3319994524
 20
6.9598876807
 30
0.0
 10
10.3277347834
 20
6.9255834011
 30
0.0
 10
10.3217774488
 20
6.8916472145
 30
0.0
 10
10.3141415618
 20
6.8581604711
 30
0.0
 10
10.304845527
 20
6.8252040338
 30
0.0
 10
10.2939116295
 20
6.7928573185
 30
0.0
 10
10.2813661617
 20
6.7611983365
 30
0.0
 10
10.2672392894
 20
6.7303034397
 30
0.0
 10
10.2515650185
 20
6.7002471453
 30
0.0
 10
10.2343810941
 20
6.6711019541
 30
0.0
 10
10.2157289118
 20
6.6429381755
 30
0.0
 10
10.1956534186
 20
6.6158237551
 30
0.0
 10
10.1742030051
 20
6.5898241092
 30
0.0
 10
10.151429388
 20
6.5650019642
 30
0.0
 10
10.1273874854
 20
6.5414172039
 30
0.0
 10
10.102135283
 20
6.5191267222
 30
0.0
 10
10.0757337012
 20
6.4981842737
 30
0.0
 10
10.0482464361
 20
6.4786403517
 30
0.0
 10
10.0197398031
 20
6.460542066
 30
0.0
 10
9.9902825748
 20
6.4439330292
 30
0.0
 10
9.9599458132
 20
6.4288532516
 30
0.0
 10
9.9288026961
 20
6.4153390456
 30
0.0
 10
9.8969283384
 20
6.4034229392
 30
0.0
 10
9.86439961
 20
6.3931335988
 30
0.0
 10
9.8312949519
 20
6.3844957485
 30
0.0
 10
9.7976941803
 20
6.3775301254
 30
0.0
 10
9.7636782932
 20
6.3722534316
 30
0.0
 10
9.729329275
 20
6.3686782967
 30
0.0
 10
9.6947298992
 20
6.3668132494
 30
0.0
 10
9.6599635291
 20
6.366662699
 30
0.0
 10
9.625113918
 20
6.3682269273
 30
0.0
 10
9.5902650088
 20
6.3715020889
 30
0.0
 10
9.5555007305
 20
6.376480209
 30
0.0
 10
9.5209047968
 20
6.3831492177
 30
0.0
 10
9.4865605065
 20
6.3914929806
 30
0.0
 10
9.4525505438
 20
6.4014913381
 30
0.0
 10
9.4189567813
 20
6.4131201554
 30
0.0
 10
9.3858600842
 20
6.4263513804
 30
0.0
 10
9.353340118
 20
6.4411531118
 30
0.0
 10
9.3214751577
 20
6.4574896757
 30
0.0
 10
9.2903418941
 20
6.4753217
 30
0.0
 10
9.2600152552
 20
6.4946062215
 30
0.0
 10
9.2305682274
 20
6.5152967893
 30
0.0
 10
9.2020716806
 20
6.5373435762
 30
0.0
 10
9.1745941996
 20
6.5606934978
 30
0.0
 10
9.1482019198
 20
6.5852903398
 30
0.0
 10
9.1229583691
 20
6.6110748921
 30
0.0
 10
9.0989243162
 20
6.6379850909
 30
0.0
 10
9.0761576144
 20
6.6659561586
 30
0.0
 10
9.0547130717
 20
6.6949207691
 30
0.0
 10
9.0346423204
 20
6.7248092088
 30
0.0
 10
9.0159936927
 20
6.7555495429
 30
0.0
 10
8.9988121059
 20
6.7870677879
 30
0.0
 10
8.983138954
 20
6.8192880877
 30
0.0
 10
8.9690120085
 20
6.8521328951
 30
0.0
 10
8.9564653294
 20
6.8855231565
 30
0.0
 10
8.9455291625
 20
6.9193785005
 30
0.0
 10
8.9362299035
 20
6.9536174194
 30
0.0
 10
8.9285899631
 20
6.9881575308
 30
0.0
 10
8.9226278876
 20
7.0229155338
 30
0.0
 10
8.9183579511
 20
7.0578081892
 30
0.0
 10
8.915790728
 20
7.0927501826
 30
0.0
 10
8.915217459
 20
7.1160639541
 30
0.0
 10
8.915217459
 20
7.1276991025
 30
0.0
  0
SPLINE
  5
394
100
AcDbEntity
  8
0
100
AcDbSpline
 62
7
  6
CONTINUOUS
 70
0
 71
3
 72
23
 73
19
 74
0
 42
0.0000001
 43
0.0000001
 44
0.0000000001
 40
0.0
 40
0.0
 40
0.0
 40
0.0
 40
0.0637776914
 40
0.1273445726
 40
0.19070205
 40
0.2538561286
 40
0.3168131755
 40
0.3795820937
 40
0.4421733816
 40
0.5045993375
 40
0.566873868
 40
0.6290123843
 40
0.691031656
 40
0.7529496505
 40
0.8147853588
 40
0.8765586069
 40
0.938289857
 40
1.0
 40
1.0
 40
1.0
 40
1.0
 10
10.4304592637
 20
8.8254213406
 30
0.0
 10
10.4304592637
 20
8.8374867002
 30
0.0
 10
10.4310367123
 20
8.861581629
 30
0.0
 10
10.433643279
 20
8.897577542
 30
0.0
 10
10.4379830494
 20
8.9332879965
 30
0.0
 10
10.4440459183
 20
8.9686294519
 30
0.0
 10
10.4518181298
 20
9.0035208704
 30
0.0
 10
10.4612817752
 20
9.0378816853
 30
0.0
 10
10.4724151528
 20
9.0716327127
 30
0.0
 10
10.4851926578
 20
9.1046961134
 30
0.0
 10
10.4995849067
 20
9.1369956345
 30
0.0
 10
10.5155587772
 20
9.1684567744
 30
0.0
 10
10.5330774792
 20
9.1990069559
 30
0.0
 10
10.552100672
 20
9.2285757186
 30
0.0
 10
10.5725844557
 20
9.2570947838
 30
0.0
 10
10.5944818461
 20
9.2844985846
 30
0.0
 10
10.6177414919
 20
9.3107230388
 30
0.0
 10
10.6341234169
 20
9.3273825267
 30
0.0
 10
10.6425201451
 20
9.3354931656
 30
0.0
  0
SPLINE
  5
395
100
AcDbEntity
  8
0
100
AcDbSpline
 62
7
  6
CONTINUOUS
 70
0
 71
3
 72
33
 73
29
 74
0
 42
0.0000001
 43
0.0000001
 44
0.0000000001
 40
0.0
 40
0.0
 40
0.0
 40
0.0
 40
0.0958348039
 40
0.1891069742
 40
0.2792500435
 40
0.36572131
 40
0.4480125246
 40
0.5256540669
 40
0.5625988158
 40
0.598226802
 40
0.632494146
 40
0.6653609288
 40
0.6967920316
 40
0.726757616
 40
0.7552336203
 40
0.7822031337
 40
0.8076567456
 40
0.8315949344
 40
0.8540288219
 40
0.8749836671
 40
0.8945009457
 40
0.9126431418
 40
0.9294980666
 40
0.945184889
 40
0.9598599849
 40
0.9737213022
 40
0.9870092614
 40
1.0
 40
1.0
 40
1.0
 40
1.0
 10
8.9848103104
 20
10.7829204597
 30
0.0
 10
8.9903060253
 20
10.7825393305
 30
0.0
 10
9.0011425738
 20
10.7816663921
 30
0.0
 10
9.0171096279
 20
10.7800000696
 30
0.0
 10
9.03249635
 20
10.7780031865
 30
0.0
 10
9.0472001853
 20
10.7756893175
 30
0.0
 10
9.0611230413
 20
10.7730741952
 30
0.0
 10
9.0721735847
 20
10.770619932
 30
0.0
 10
9.0805467853
 20
10.7685084801
 30
0.0
 10
9.0864709417
 20
10.7668872386
 30
0.0
 10
9.0921339477
 20
10.7652048913
 30
0.0
 10
9.0975263955
 20
10.7634642045
 30
0.0
 10
9.1026393359
 20
10.7616681148
 30
0.0
 10
9.1074643106
 20
10.759819642
 30
0.0
 10
9.1119933525
 20
10.7579218332
 30
0.0
 10
9.1162190413
 20
10.755977897
 30
0.0
 10
9.1201344579
 20
10.753990952
 30
0.0
 10
9.1237332956
 20
10.7519643126
 30
0.0
 10
9.1270097458
 20
10.7499010972
 30
0.0
 10
9.1299586536
 20
10.7478045641
 30
0.0
 10
9.1325753308
 20
10.7456776876
 30
0.0
 10
9.1348556612
 20
10.743523399
 30
0.0
 10
9.1367958392
 20
10.7413443013
 30
0.0
 10
9.1383922123
 20
10.7391427707
 30
0.0
 10
9.1396410056
 20
10.7369212239
 30
0.0
 10
9.1405379138
 20
10.7346821807
 30
0.0
 10
9.1410786203
 20
10.7324304506
 30
0.0
 10
9.1411995197
 20
10.7309172525
 30
0.0
 10
9.1411995197
 20
10.7301705001
 30
0.0
  0
SPLINE
  5
396
100
AcDbEntity
  8
0
100
AcDbSpline
 62
7
  6
CONTINUOUS
 70
0
 71
3
 72
17
 73
13
 74
0
 42
0.0000001
 43
0.0000001
 44
0.0000000001
 40
0.0
 40
0.0
 40
0.0
 40
0.0
 40
0.0516710442
 40
0.1041122666
 40
0.157497716
 40
0.2119920235
 40
0.3248837527
 40
0.4439816542
 40
0.5702715598
 40
0.7045891197
 40
0.8476422559
 40
1.0
 40
1.0
 40
1.0
 40
1.0
 10
9.9663105694
 20
6.6969063872
 30
0.0
 10
9.9663105329
 20
6.6979063476
 30
0.0
 10
9.9663810804
 20
6.6999218271
 30
0.0
 10
9.9666942697
 20
6.7029558018
 30
0.0
 10
9.9672153591
 20
6.7060166186
 30
0.0
 10
9.9681984843
 20
6.7101769065
 30
0.0
 10
9.9699702423
 20
6.7154450431
 30
0.0
 10
9.9728997966
 20
6.7217428942
 30
0.0
 10
9.9766519896
 20
6.7280736595
 30
0.0
 10
9.9812216239
 20
6.7344207824
 30
0.0
 10
9.9866026574
 20
6.7407712046
 30
0.0
 10
9.9905972919
 20
6.7448676447
 30
0.0
 10
9.9927180088
 20
6.7469161001
 30
0.0
  0
SPLINE
  5
397
100
AcDbEntity
  8
0
100
AcDbSpline
 62
7
  6
CONTINUOUS
 70
0
 71
3
 72
31
 73
27
 74
0
 42
0.0000001
 43
0.0000001
 44
0.0000000001
 40
0.0
 40
0.0
 40
0.0
 40
0.0
 40
0.0182584383
 40
0.037300674
 40
0.0571436132
 40
0.0778029601
 40
0.0992928508
 40
0.1216249743
 40
0.1448089829
 40
0.1688524182
 40
0.1937614792
 40
0.2195407142
 40
0.246193228
 40
0.2737207905
 40
0.3021238028
 40
0.33140147
 40
0.3615518177
 40
0.3925716331
 40
0.4572010668
 40
0.5252423014
 40
0.5966288409
 40
0.6712751303
 40
0.7490752692
 40
0.8299013772
 40
0.913601903
 40
1.0
 40
1.0
 40
1.0
 40
1.0
 10
9.9927180088
 20
6.7469161001
 30
0.0
 10
9.9942445467
 20
6.7483906225
 30
0.0
 10
9.9974285042
 20
6.751335897
 30
0.0
 10
10.0024767613
 20
6.7556551918
 30
0.0
 10
10.0078938611
 20
6.7599658477
 30
0.0
 10
10.0136767599
 20
6.7642672618
 30
0.0
 10
10.0198225839
 20
6.7685597394
 30
0.0
 10
10.0263284821
 20
6.772843866
 30
0.0
 10
10.0331909477
 20
6.7771214409
 30
0.0
 10
10.0404067859
 20
6.7813940604
 30
0.0
 10
10.0479720986
 20
6.7856647246
 30
0.0
 10
10.0558831407
 20
6.7899364892
 30
0.0
 10
10.064135815
 20
6.7942132034
 30
0.0
 10
10.0727257051
 20
6.7984994894
 30
0.0
 10
10.0816484255
 20
6.8027999917
 30
0.0
 10
10.0908989597
 20
6.80712068
 30
0.0
 10
10.1004724025
 20
6.8114672671
 30
0.0
 10
10.1138436893
 20
6.817387572
 30
0.0
 10
10.1313358775
 20
6.8248775852
 30
0.0
 10
10.1532442406
 20
6.833969924
 30
0.0
 10
10.1762912286
 20
6.8433544215
 30
0.0
 10
10.2004130001
 20
6.8531069356
 30
0.0
 10
10.2255368269
 20
6.8633084336
 30
0.0
 10
10.2515795623
 20
6.8740439071
 30
0.0
 10
10.2784461507
 20
6.8854008368
 30
0.0
 10
10.2965617835
 20
6.8933260265
 30
0.0
 10
10.3057310662
 20
6.8974232268
 30
0.0
  0
SPLINE
  5
398
100
AcDbEntity
  8
0
100
AcDbSpline
 62
7
  6
CONTINUOUS
 70
0
 71
3
 72
48
 73
44
 74
0
 42
0.0000001
 43
0.0000001
 44
0.0000000001
 40
0.0
 40
0.0
 40
0.0
 40
0.0
 40
0.0964108957
 40
0.1436630075
 40
0.1901840565
 40
0.2359033551
 40
0.2807524226
 40
0.3246647742
 40
0.3675757725
 40
0.4094230935
 40
0.4501468426
 40
0.4896897161
 40
0.5279972682
 40
0.5650182374
 40
0.6007047557
 40
0.6350126551
 40
0.6679019302
 40
0.6993372087
 40
0.7292882221
 40
0.7577305011
 40
0.7846463413
 40
0.8100258236
 40
0.8221394995
 40
0.8338697211
 40
0.8452180732
 40
0.8561870973
 40
0.86678022
 40
0.8770018317
 40
0.8868576008
 40
0.8963543883
 40
0.90550049
 40
0.9143058985
 40
0.9227822912
 40
0.9309433945
 40
0.938805166
 40
0.9463858825
 40
0.960783718
 40
0.9676580551
 40
0.9743519358
 40
0.980897489
 40
0.9873293209
 40
0.9936841153
 40
1.0
 40
1.0
 40
1.0
 40
1.0
 10
13.5883554908
 20
7.553381843
 30
0.0
 10
13.5883554908
 20
7.5734251915
 30
0.0
 10
13.5880348824
 20
7.6032935883
 30
0.0
 10
13.586929633
 20
7.6428170933
 30
0.0
 10
13.5857780067
 20
7.6717947509
 30
0.0
 10
13.5843001685
 20
7.7002573361
 30
0.0
 10
13.5824985738
 20
7.72815788
 30
0.0
 10
13.5803762435
 20
7.7554503493
 30
0.0
 10
13.5779366902
 20
7.7820897544
 30
0.0
 10
13.575183992
 20
7.80803217
 30
0.0
 10
13.5721227471
 20
7.8332348458
 30
0.0
 10
13.5687580502
 20
7.8576562536
 30
0.0
 10
13.5650954933
 20
7.8812561698
 30
0.0
 10
13.5611411986
 20
7.9039957579
 30
0.0
 10
13.5569017594
 20
7.9258376236
 30
0.0
 10
13.5523842212
 20
7.9467458745
 30
0.0
 10
13.5475961026
 20
7.9666862047
 30
0.0
 10
13.5425453826
 20
7.9856259772
 30
0.0
 10
13.5372404427
 20
8.0035342298
 30
0.0
 10
13.531690025
 20
8.0203818821
 30
0.0
 10
13.5259032908
 20
8.0361413644
 30
0.0
 10
13.5208159953
 20
8.0485319948
 30
0.0
 10
13.5166239015
 20
8.0578680447
 30
0.0
 10
13.5134756266
 20
8.0644730898
 30
0.0
 10
13.5102754876
 20
8.0707875397
 30
0.0
 10
13.5070247868
 20
8.0768088526
 30
0.0
 10
13.5037248556
 20
8.0825345867
 30
0.0
 10
13.500376949
 20
8.0879623846
 30
0.0
 10
13.4969824634
 20
8.0930900816
 30
0.0
 10
13.4935427087
 20
8.0979155891
 30
0.0
 10
13.4900589815
 20
8.1024369224
 30
0.0
 10
13.4865326974
 20
8.1066522847
 30
0.0
 10
13.4829650997
 20
8.1105599285
 30
0.0
 10
13.4793576346
 20
8.1141581473
 30
0.0
 10
13.4757112796
 20
8.1174457362
 30
0.0
 10
13.4708837698
 20
8.1213450022
 30
0.0
 10
13.4658954038
 20
8.1247098389
 30
0.0
 10
13.4607677511
 20
8.1274584931
 30
0.0
 10
13.4569489432
 20
8.1291712785
 30
0.0
 10
13.453100277
 20
8.1305654859
 30
0.0
 10
13.4492232298
 20
8.131640201
 30
0.0
 10
13.4453201125
 20
8.1323947099
 30
0.0
 10
13.4426984428
 20
8.1326841821
 30
0.0
 10
13.4413885473
 20
8.1327750163
 30
0.0
  0
SPLINE
  5
399
100
AcDbEntity
  8
0
100
AcDbSpline
 62
7
  6
CONTINUOUS
 70
0
 71
3
 72
23
 73
19
 74
0
 42
0.0000001
 43
0.0000001
 44
0.0000000001
 40
0.0
 40
0.0
 40
0.0
 40
0.0
 40
0.0637776914
 40
0.1273445726
 40
0.19070205
 40
0.2538561286
 40
0.3168131755
 40
0.3795820937
 40
0.4421733816
 40
0.5045993375
 40
0.566873868
 40
0.6290123843
 40
0.691031656
 40
0.7529496505
 40
0.8147853588
 40
0.8765586069
 40
0.938289857
 40
1.0
 40
1.0
 40
1.0
 40
1.0
 10
8.8617955588
 20
7.1230975064
 30
0.0
 10
8.8617955588
 20
7.135162866
 30
0.0
 10
8.8623730075
 20
7.1592577948
 30
0.0
 10
8.8649795741
 20
7.1952537078
 30
0.0
 10
8.8693193445
 20
7.2309641623
 30
0.0
 10
8.8753822135
 20
7.2663056177
 30
0.0
 10
8.883154425
 20
7.3011970362
 30
0.0
 10
8.8926180703
 20
7.3355578512
 30
0.0
 10
8.9037514479
 20
7.3693088785
 30
0.0
 10
8.916528953
 20
7.4023722792
 30
0.0
 10
8.9309212018
 20
7.4346718004
 30
0.0
 10
8.9468950724
 20
7.4661329402
 30
0.0
 10
8.9644137744
 20
7.4966831218
 30
0.0
 10
8.9834369671
 20
7.5262518844
 30
0.0
 10
9.0039207509
 20
7.5547709496
 30
0.0
 10
9.0258181413
 20
7.5821747504
 30
0.0
 10
9.0490777871
 20
7.6083992047
 30
0.0
 10
9.065459712
 20
7.6250586925
 30
0.0
 10
9.0738564403
 20
7.6331693314
 30
0.0
  0
SPLINE
  5
39A
100
AcDbEntity
  8
0
100
AcDbSpline
 62
7
  6
CONTINUOUS
 70
0
 71
3
 72
41
 73
37
 74
0
 42
0.0000001
 43
0.0000001
 44
0.0000000001
 40
0.0
 40
0.0
 40
0.0
 40
0.0
 40
0.0302662093
 40
0.0454436825
 40
0.0606503944
 40
0.0911499791
 40
0.1217704871
 40
0.1371279292
 40
0.152515731
 40
0.1833785845
 40
0.2143597119
 40
0.2454551511
 40
0.276659497
 40
0.3079659837
 40
0.3393665824
 40
0.3708521104
 40
0.4024123531
 40
0.4340361944
 40
0.4657117558
 40
0.4974265417
 40
0.5291675912
 40
0.5609216321
 40
0.5926752387
 40
0.6244149905
 40
0.6561276306
 40
0.6878002234
 40
0.7194203089
 40
0.7509760533
 40
0.7824563948
 40
0.8138511811
 40
0.8451513018
 40
0.8763488026
 40
0.9074370139
 40
0.9384105913
 40
0.9692657371
 40
1.0
 40
1.0
 40
1.0
 40
1.0
 10
10.3263800702
 20
6.9997847456
 30
0.0
 10
10.3150559497
 20
6.9975601632
 30
0.0
 10
10.2979489732
 20
6.9947215769
 30
0.0
 10
10.2749884807
 20
6.991939715
 30
0.0
 10
10.2518673206
 20
6.9898201345
 30
0.0
 10
10.2227798232
 20
6.9884283113
 30
0.0
 10
10.1936032256
 20
6.9887151075
 30
0.0
 10
10.1702340358
 20
6.9899469513
 30
0.0
 10
10.1468173152
 20
6.9918511175
 30
0.0
 10
10.1175768607
 20
6.9954873317
 30
0.0
 10
10.0826936794
 20
7.0018353878
 30
0.0
 10
10.0480923681
 20
7.0101516213
 30
0.0
 10
10.0138867567
 20
7.0204086789
 30
0.0
 10
9.9801884446
 20
7.0325729245
 30
0.0
 10
9.9471076089
 20
7.0466044897
 30
0.0
 10
9.9147523324
 20
7.0624574216
 30
0.0
 10
9.8832283381
 20
7.0800798293
 30
0.0
 10
9.8526386239
 20
7.0994140543
 30
0.0
 10
9.8230831345
 20
7.1203968584
 30
0.0
 10
9.7946584356
 20
7.1429596299
 30
0.0
 10
9.7674574017
 20
7.1670286071
 30
0.0
 10
9.7415689137
 20
7.1925251175
 30
0.0
 10
9.717077571
 20
7.2193658342
 30
0.0
 10
9.6940634164
 20
7.2474630466
 30
0.0
 10
9.6726016762
 20
7.2767249446
 30
0.0
 10
9.6527625156
 20
7.3070559174
 30
0.0
 10
9.6346108105
 20
7.3383568636
 30
0.0
 10
9.6182059362
 20
7.3705255125
 30
0.0
 10
9.6036015743
 20
7.4034567556
 30
0.0
 10
9.5908455359
 20
7.4370429902
 30
0.0
 10
9.5799796098
 20
7.4711744552
 30
0.0
 10
9.5710394142
 20
7.5057396377
 30
0.0
 10
9.5640543036
 20
7.5406254455
 30
0.0
 10
9.5590472235
 20
7.5757182648
 30
0.0
 10
9.5560347102
 20
7.6109018191
 30
0.0
 10
9.5553614033
 20
7.6343913698
 30
0.0
 10
9.5553614033
 20
7.6461103973
 30
0.0
  0
SPLINE
  5
39B
100
AcDbEntity
  8
0
100
AcDbSpline
 62
7
  6
CONTINUOUS
 70
0
 71
3
 72
39
 73
35
 74
0
 42
0.0000001
 43
0.0000001
 44
0.0000000001
 40
0.0
 40
0.0
 40
0.0
 40
0.0
 40
0.0304912905
 40
0.0610938915
 40
0.091807735
 40
0.1226315329
 40
0.1535628042
 40
0.1845979142
 40
0.2157321236
 40
0.2469596505
 40
0.2782737394
 40
0.3096667402
 40
0.3411301927
 40
0.3726549189
 40
0.40423112
 40
0.4358484779
 40
0.4674962613
 40
0.4991634345
 40
0.5308387682
 40
0.5625109521
 40
0.5941687077
 40
0.6258009004
 40
0.6573966509
 40
0.6889454449
 40
0.7204372403
 40
0.7518625704
 40
0.7832126449
 40
0.8144794412
 40
0.8456558057
 40
0.8767354862
 40
0.9077133713
 40
0.9385850564
 40
0.9693481681
 40
1.0
 40
1.0
 40
1.0
 40
1.0
 10
10.32382822
 20
7.1047054211
 30
0.0
 10
10.3136218642
 20
7.1042808194
 30
0.0
 10
10.2931451955
 20
7.1039740146
 30
0.0
 10
10.2623962586
 20
7.1051347537
 30
0.0
 10
10.2316384262
 20
7.1079121725
 30
0.0
 10
10.2009576988
 20
7.1122985522
 30
0.0
 10
10.1704384017
 20
7.1182816953
 30
0.0
 10
10.1401647952
 20
7.125845021
 30
0.0
 10
10.1102203464
 20
7.1349675897
 30
0.0
 10
10.0806876326
 20
7.1456241647
 30
0.0
 10
10.0516480806
 20
7.1577852895
 30
0.0
 10
10.023181754
 20
7.1714173686
 30
0.0
 10
9.9953671314
 20
7.1864827606
 30
0.0
 10
9.9682808925
 20
7.2029398814
 30
0.0
 10
9.9419977085
 20
7.2207433192
 30
0.0
 10
9.9165900376
 20
7.2398439585
 30
0.0
 10
9.8921279273
 20
7.2601891165
 30
0.0
 10
9.8686788175
 20
7.2817226805
 30
0.0
 10
9.8463073555
 20
7.3043852654
 30
0.0
 10
9.825075223
 20
7.3281143808
 30
0.0
 10
9.8050409662
 20
7.3528446018
 30
0.0
 10
9.7862598353
 20
7.3785077479
 30
0.0
 10
9.7687836336
 20
7.4050330699
 30
0.0
 10
9.7526605751
 20
7.4323474435
 30
0.0
 10
9.7379351518
 20
7.4603755692
 30
0.0
 10
9.7246480125
 20
7.4890401792
 30
0.0
 10
9.712835843
 20
7.5182622442
 30
0.0
 10
9.7025312629
 20
7.5479611975
 30
0.0
 10
9.693762764
 20
7.5780551407
 30
0.0
 10
9.6865545597
 20
7.6084611304
 30
0.0
 10
9.6809266879
 20
7.6390951786
 30
0.0
 10
9.6768946081
 20
7.6698732275
 30
0.0
 10
9.6744697334
 20
7.7007090985
 30
0.0
 10
9.6739280351
 20
7.7212883175
 30
0.0
 10
9.6739280351
 20
7.7315572862
 30
0.0
  0
SPLINE
  5
39C
100
AcDbEntity
  8
0
100
AcDbSpline
 62
7
  6
CONTINUOUS
 70
0
 71
3
 72
71
 73
67
 74
0
 42
0.0000001
 43
0.0000001
 44
0.0000000001
 40
0.0
 40
0.0
 40
0.0
 40
0.0
 40
0.0156373971
 40
0.0313278976
 40
0.0470702878
 40
0.0628636373
 40
0.0787060812
 40
0.0945954871
 40
0.1105292288
 40
0.1265042944
 40
0.1425172944
 40
0.1585644997
 40
0.1746418768
 40
0.1907451251
 40
0.2068697163
 40
0.2230109347
 40
0.2391639194
 40
0.2553237067
 40
0.2714852733
 40
0.2876435805
 40
0.3037936184
 40
0.3199304489
 40
0.3360492494
 40
0.3521453551
 40
0.3682143003
 40
0.3842518588
 40
0.4002540825
 40
0.416217339
 40
0.4321383459
 40
0.4480142034
 40
0.4638424236
 40
0.4796209569
 40
0.4953482153
 40
0.5110230907
 40
0.5266449714
 40
0.5422137523
 40
0.5577298414
 40
0.5731941611
 40
0.5886081441
 40
0.6039737242
 40
0.6192933216
 40
0.6345698232
 40
0.6498065569
 40
0.6650072611
 40
0.6801760494
 40
0.6953173697
 40
0.710435959
 40
0.7255367955
 40
0.7406250456
 40
0.7557060103
 40
0.7707850681
 40
0.7858676181
 40
0.800959022
 40
0.816064547
 40
0.8311893099
 40
0.8463382233
 40
0.8615159441
 40
0.8767268263
 40
0.8919748772
 40
0.9072637174
 40
0.9225965517
 40
0.937976118
 40
0.9534047439
 40
0.9688840783
 40
0.9844157248
 40
1.0
 40
1.0
 40
1.0
 40
1.0
 10
10.3351285078
 20
7.0292279369
 30
0.0
 10
10.3351285078
 20
7.0408630853
 30
0.0
 10
10.3345552388
 20
7.0641768568
 30
0.0
 10
10.3319880157
 20
7.0991188502
 30
0.0
 10
10.3277180791
 20
7.1340115056
 30
0.0
 10
10.3217560036
 20
7.1687695086
 30
0.0
 10
10.3141160632
 20
7.2033096201
 30
0.0
 10
10.3048168042
 20
7.2375485389
 30
0.0
 10
10.2938806373
 20
7.2714038829
 30
0.0
 10
10.2813339582
 20
7.3047941443
 30
0.0
 10
10.2672070128
 20
7.3376389517
 30
0.0
 10
10.2515338609
 20
7.3698592515
 30
0.0
 10
10.234352274
 20
7.4013774965
 30
0.0
 10
10.2157036464
 20
7.4321178306
 30
0.0
 10
10.195632895
 20
7.4620062703
 30
0.0
 10
10.1741883523
 20
7.4909708808
 30
0.0
 10
10.1514216505
 20
7.5189419485
 30
0.0
 10
10.1273875976
 20
7.5458521473
 30
0.0
 10
10.1021440469
 20
7.5716366997
 30
0.0
 10
10.0757517671
 20
7.5962335416
 30
0.0
 10
10.0482742861
 20
7.6195834632
 30
0.0
 10
10.0197777393
 20
7.6416302501
 30
0.0
 10
9.9903307115
 20
7.6623208179
 30
0.0
 10
9.9600040726
 20
7.6816053394
 30
0.0
 10
9.928870809
 20
7.6994373637
 30
0.0
 10
9.8970058487
 20
7.7157739276
 30
0.0
 10
9.8644858825
 20
7.730575659
 30
0.0
 10
9.8313891855
 20
7.743806884
 30
0.0
 10
9.7977954229
 20
7.7554357013
 30
0.0
 10
9.7637854602
 20
7.7654340589
 30
0.0
 10
9.7294411699
 20
7.7737778217
 30
0.0
 10
9.6948452363
 20
7.7804468304
 30
0.0
 10
9.6600809579
 20
7.7854249505
 30
0.0
 10
9.6252320487
 20
7.7887001121
 30
0.0
 10
9.5903824376
 20
7.7902643404
 30
0.0
 10
9.5556160675
 20
7.79011379
 30
0.0
 10
9.5210166917
 20
7.7882487427
 30
0.0
 10
9.4866676736
 20
7.7846736078
 30
0.0
 10
9.4526517865
 20
7.779396914
 30
0.0
 10
9.4190510148
 20
7.7724312909
 30
0.0
 10
9.3859463567
 20
7.7637934406
 30
0.0
 10
9.3534176283
 20
7.7535041002
 30
0.0
 10
9.3215432706
 20
7.7415879938
 30
0.0
 10
9.2904001535
 20
7.7280737878
 30
0.0
 10
9.260063392
 20
7.7129940102
 30
0.0
 10
9.2306061637
 20
7.6963849734
 30
0.0
 10
9.2020995306
 20
7.6782866877
 30
0.0
 10
9.1746122655
 20
7.6587427657
 30
0.0
 10
9.1482106838
 20
7.6378003172
 30
0.0
 10
9.1229584813
 20
7.6155098355
 30
0.0
 10
9.0989165787
 20
7.5919250752
 30
0.0
 10
9.0761429617
 20
7.5671029302
 30
0.0
 10
9.0546925481
 20
7.5411032843
 30
0.0
 10
9.034617055
 20
7.5139888639
 30
0.0
 10
9.0159648726
 20
7.4858250853
 30
0.0
 10
8.9987809482
 20
7.4566798941
 30
0.0
 10
8.9831066773
 20
7.4266235997
 30
0.0
 10
8.968979805
 20
7.3957287029
 30
0.0
 10
8.9564343373
 20
7.3640697209
 30
0.0
 10
8.9455004398
 20
7.3317230056
 30
0.0
 10
8.9362044049
 20
7.2987665683
 30
0.0
 10
8.9285685179
 20
7.2652798249
 30
0.0
 10
8.9226111834
 20
7.2313436383
 30
0.0
 10
8.9183465143
 20
7.1970393587
 30
0.0
 10
8.9157849202
 20
7.1624509235
 30
0.0
 10
8.915217459
 20
7.1392947251
 30
0.0
 10
8.915217459
 20
7.1276991025
 30
0.0
  0
SPLINE
  5
39D
100
AcDbEntity
  8
0
100
AcDbSpline
 62
7
  6
CONTINUOUS
 70
0
 71
3
 72
56
 73
52
 74
0
 42
0.0000001
 43
0.0000001
 44
0.0000000001
 40
0.0
 40
0.0
 40
0.0
 40
0.0
 40
0.0417738543
 40
0.0840365046
 40
0.1266578532
 40
0.1695056202
 40
0.2124470096
 40
0.2553487411
 40
0.2980777186
 40
0.3405015202
 40
0.3824889321
 40
0.4239104771
 40
0.4646389477
 40
0.5045499464
 40
0.5435224368
 40
0.58143931
 40
0.6181879754
 40
0.653660986
 40
0.6877567136
 40
0.7042584199
 40
0.7203807218
 40
0.7361129262
 40
0.7514448081
 40
0.7663667614
 40
0.7808697253
 40
0.7949453179
 40
0.8085858377
 40
0.8217843194
 40
0.8345346546
 40
0.8468315703
 40
0.8586708476
 40
0.8700492971
 40
0.880965
 40
0.8914173896
 40
0.9014074573
 40
0.9109380132
 40
0.920013873
 40
0.9286423085
 40
0.9368333128
 40
0.9446001945
 40
0.9519600503
 40
0.9589344411
 40
0.9655500985
 40
0.9718395766
 40
0.9778419482
 40
0.9836030996
 40
0.9891757586
 40
0.9919106344
 40
0.9946208946
 40
0.9973146059
 40
1.0
 40
1.0
 40
1.0
 40
1.0
 10
13.7268173138
 20
10.1516811451
 30
0.0
 10
13.7268173138
 20
10.1321857418
 30
0.0
 10
13.7265131667
 20
10.0929662065
 30
0.0
 10
13.725168575
 20
10.033869607
 30
0.0
 10
13.7229368966
 20
9.9742982233
 30
0.0
 10
13.719825434
 20
9.9144491908
 30
0.0
 10
13.7158444761
 20
9.8545205625
 30
0.0
 10
13.7110071793
 20
9.7947105866
 30
0.0
 10
13.705329567
 20
9.7352171419
 30
0.0
 10
13.6988304585
 20
9.6762370476
 30
0.0
 10
13.691531417
 20
9.6179654136
 30
0.0
 10
13.6834566758
 20
9.5605949881
 30
0.0
 10
13.6746330577
 20
9.5043155141
 30
0.0
 10
13.6650898883
 20
9.449313097
 30
0.0
 10
13.6548589015
 20
9.3957695713
 30
0.0
 10
13.6439741338
 20
9.3438619191
 30
0.0
 10
13.6324718256
 20
9.2937615559
 30
0.0
 10
13.6203902593
 20
9.245634138
 30
0.0
 10
13.6097607797
 20
9.2068939231
 30
0.0
 10
13.6009820095
 20
9.1770190001
 30
0.0
 10
13.5943501797
 20
9.1554474649
 30
0.0
 10
13.5876044755
 20
9.1344840414
 30
0.0
 10
13.5807503882
 20
9.1141460361
 30
0.0
 10
13.5737936732
 20
9.0944502396
 30
0.0
 10
13.5667400467
 20
9.075412915
 30
0.0
 10
13.5595953826
 20
9.0570497629
 30
0.0
 10
13.5523656019
 20
9.0393759206
 30
0.0
 10
13.5450566612
 20
9.0224059526
 30
0.0
 10
13.5376746641
 20
9.0061538084
 30
0.0
 10
13.5302256386
 20
8.9906328629
 30
0.0
 10
13.5227158081
 20
8.9758558274
 30
0.0
 10
13.5151512881
 20
8.9618348219
 30
0.0
 10
13.5075383294
 20
8.9485812851
 30
0.0
 10
13.4998831393
 20
8.9361060139
 30
0.0
 10
13.492191908
 20
8.9244191475
 30
0.0
 10
13.4844708847
 20
8.9135301054
 30
0.0
 10
13.476726129
 20
8.9034477048
 30
0.0
 10
13.4689638007
 20
8.894179983
 30
0.0
 10
13.4611897681
 20
8.8857344295
 30
0.0
 10
13.4534099037
 20
8.8781178038
 30
0.0
 10
13.4456298046
 20
8.8713363565
 30
0.0
 10
13.4378548988
 20
8.8653958576
 30
0.0
 10
13.4300904767
 20
8.8603016428
 30
0.0
 10
13.4223417201
 20
8.8560590116
 30
0.0
 10
13.4146138419
 20
8.8526729515
 30
0.0
 10
13.4069133174
 20
8.8501487004
 30
0.0
 10
13.4004823268
 20
8.8487585279
 30
0.0
 10
13.3953815571
 20
8.8480919987
 30
0.0
 10
13.3915915054
 20
8.8478112818
 30
0.0
 10
13.3878148937
 20
8.8477470036
 30
0.0
 10
13.3853049335
 20
8.8478485431
 30
0.0
 10
13.3840546919
 20
8.8479352437
 30
0.0
  0
SPLINE
  5
39E
100
AcDbEntity
  8
0
100
AcDbSpline
 62
4
  6
CONTINUOUS
 70
0
 71
3
 72
313
 73
309
 74
0
 42
0.0000001
 43
0.0000001
 44
0.0000000001
 40
0.0
 40
0.0
 40
0.0
 40
0.0
 40
0.015625
 40
0.0234375
 40
0.03125
 40
0.0390625
 40
0.046875
 40
0.05078125
 40
0.0546875
 40
0.056640625
 40
0.05859375
 40
0.060546875
 40
0.0615234375
 40
0.0620117188
 40
0.0625
 40
0.0629882812
 40
0.0634765625
 40
0.064453125
 40
0.06640625
 40
0.068359375
 40
0.0703125
 40
0.07421875
 40
0.078125
 40
0.0859375
 40
0.09375
 40
0.1015625
 40
0.109375
 40
0.11328125
 40
0.1171875
 40
0.119140625
 40
0.12109375
 40
0.123046875
 40
0.1240234375
 40
0.1245117188
 40
0.125
 40
0.1254882812
 40
0.1259765625
 40
0.126953125
 40
0.12890625
 40
0.130859375
 40
0.1328125
 40
0.13671875
 40
0.140625
 40
0.1484375
 40
0.15625
 40
0.1640625
 40
0.171875
 40
0.17578125
 40
0.1796875
 40
0.181640625
 40
0.18359375
 40
0.185546875
 40
0.1865234375
 40
0.1870117188
 40
0.1875
 40
0.1879882812
 40
0.1884765625
 40
0.189453125
 40
0.19140625
 40
0.193359375
 40
0.1953125
 40
0.19921875
 40
0.203125
 40
0.2109375
 40
0.21875
 40
0.2265625
 40
0.234375
 40
0.23828125
 40
0.2421875
 40
0.244140625
 40
0.24609375
 40
0.248046875
 40
0.2490234375
 40
0.2495117188
 40
0.25
 40
0.2504882812
 40
0.2509765625
 40
0.251953125
 40
0.25390625
 40
0.255859375
 40
0.2578125
 40
0.26171875
 40
0.265625
 40
0.2734375
 40
0.28125
 40
0.2890625
 40
0.296875
 40
0.30078125
 40
0.3046875
 40
0.306640625
 40
0.30859375
 40
0.310546875
 40
0.3115234375
 40
0.3120117188
 40
0.3125
 40
0.3129882812
 40
0.3134765625
 40
0.314453125
 40
0.31640625
 40
0.318359375
 40
0.3203125
 40
0.32421875
 40
0.328125
 40
0.3359375
 40
0.34375
 40
0.3515625
 40
0.359375
 40
0.36328125
 40
0.3671875
 40
0.369140625
 40
0.37109375
 40
0.373046875
 40
0.3740234375
 40
0.3745117188
 40
0.375
 40
0.3754882812
 40
0.3759765625
 40
0.376953125
 40
0.37890625
 40
0.380859375
 40
0.3828125
 40
0.38671875
 40
0.390625
 40
0.3984375
 40
0.40625
 40
0.4140625
 40
0.421875
 40
0.42578125
 40
0.4296875
 40
0.431640625
 40
0.43359375
 40
0.435546875
 40
0.4365234375
 40
0.4370117188
 40
0.4375
 40
0.4379882812
 40
0.4384765625
 40
0.439453125
 40
0.44140625
 40
0.443359375
 40
0.4453125
 40
0.44921875
 40
0.453125
 40
0.4609375
 40
0.46875
 40
0.4765625
 40
0.484375
 40
0.48828125
 40
0.4921875
 40
0.494140625
 40
0.49609375
 40
0.498046875
 40
0.4990234375
 40
0.4995117188
 40
0.5
 40
0.5004882812
 40
0.5009765625
 40
0.501953125
 40
0.50390625
 40
0.505859375
 40
0.5078125
 40
0.51171875
 40
0.515625
 40
0.5234375
 40
0.53125
 40
0.5390625
 40
0.546875
 40
0.55078125
 40
0.5546875
 40
0.556640625
 40
0.55859375
 40
0.560546875
 40
0.5615234375
 40
0.5620117188
 40
0.5625
 40
0.5629882812
 40
0.5634765625
 40
0.564453125
 40
0.56640625
 40
0.568359375
 40
0.5703125
 40
0.57421875
 40
0.578125
 40
0.5859375
 40
0.59375
 40
0.6015625
 40
0.609375
 40
0.61328125
 40
0.6171875
 40
0.619140625
 40
0.62109375
 40
0.623046875
 40
0.6240234375
 40
0.6245117188
 40
0.625
 40
0.6254882812
 40
0.6259765625
 40
0.626953125
 40
0.62890625
 40
0.630859375
 40
0.6328125
 40
0.63671875
 40
0.640625
 40
0.6484375
 40
0.65625
 40
0.6640625
 40
0.671875
 40
0.67578125
 40
0.6796875
 40
0.681640625
 40
0.68359375
 40
0.685546875
 40
0.6865234375
 40
0.6870117188
 40
0.6875
 40
0.6879882812
 40
0.6884765625
 40
0.689453125
 40
0.69140625
 40
0.693359375
 40
0.6953125
 40
0.69921875
 40
0.703125
 40
0.7109375
 40
0.71875
 40
0.7265625
 40
0.734375
 40
0.73828125
 40
0.7421875
 40
0.744140625
 40
0.74609375
 40
0.748046875
 40
0.7490234375
 40
0.7495117188
 40
0.75
 40
0.7504882812
 40
0.7509765625
 40
0.751953125
 40
0.75390625
 40
0.755859375
 40
0.7578125
 40
0.76171875
 40
0.765625
 40
0.7734375
 40
0.78125
 40
0.7890625
 40
0.796875
 40
0.80078125
 40
0.8046875
 40
0.806640625
 40
0.80859375
 40
0.810546875
 40
0.8115234375
 40
0.8120117188
 40
0.8125
 40
0.8129882812
 40
0.8134765625
 40
0.814453125
 40
0.81640625
 40
0.818359375
 40
0.8203125
 40
0.82421875
 40
0.828125
 40
0.8359375
 40
0.84375
 40
0.8515625
 40
0.859375
 40
0.86328125
 40
0.8671875
 40
0.869140625
 40
0.87109375
 40
0.873046875
 40
0.8740234375
 40
0.8745117188
 40
0.875
 40
0.8754882812
 40
0.8759765625
 40
0.876953125
 40
0.87890625
 40
0.880859375
 40
0.8828125
 40
0.88671875
 40
0.890625
 40
0.8984375
 40
0.90625
 40
0.9140625
 40
0.921875
 40
0.92578125
 40
0.9296875
 40
0.931640625
 40
0.93359375
 40
0.935546875
 40
0.9365234375
 40
0.9370117188
 40
0.9375
 40
0.9379882812
 40
0.9384765625
 40
0.939453125
 40
0.94140625
 40
0.943359375
 40
0.9453125
 40
0.94921875
 40
0.953125
 40
0.9609375
 40
0.96875
 40
0.9765625
 40
0.984375
 40
1.0
 40
1.0
 40
1.0
 40
1.0
 10
9.1853808201
 20
9.7038270484
 30
0.0
 10
9.1881950599
 20
9.7039078189
 30
0.0
 10
9.1924164196
 20
9.7040289743
 30
0.0
 10
9.1980448991
 20
9.7041905157
 30
0.0
 10
9.2022662592
 20
9.7043116696
 30
0.0
 10
9.2064876176
 20
9.704432832
 30
0.0
 10
9.2100054214
 20
9.7045337741
 30
0.0
 10
9.2128196529
 20
9.7046145871
 30
0.0
 10
9.214578574
 20
9.7046649603
 30
0.0
 10
9.2159856505
 20
9.7047055679
 30
0.0
 10
9.217041123
 20
9.7047351776
 30
0.0
 10
9.2179201579
 20
9.7047625433
 30
0.0
 10
9.2185365138
 20
9.7047764185
 30
0.0
 10
9.2188871066
 20
9.7047925927
 30
0.0
 10
9.2191545882
 20
9.7047814954
 30
0.0
 10
9.2194047272
 20
9.7048591872
 30
0.0
 10
9.2197442952
 20
9.7049318057
 30
0.0
 10
9.2203357206
 20
9.7050733178
 30
0.0
 10
9.2211820876
 20
9.7052679338
 30
0.0
 10
9.2221970973
 20
9.7055047022
 30
0.0
 10
9.2235506639
 20
9.7058192654
 30
0.0
 10
9.2252425467
 20
9.7062128557
 30
0.0
 10
9.2279496013
 20
9.7068423843
 30
0.0
 10
9.2313334049
 20
9.7076293695
 30
0.0
 10
9.2353939763
 20
9.7085737178
 30
0.0
 10
9.2394545428
 20
9.7095180828
 30
0.0
 10
9.2428383588
 20
9.7103050264
 30
0.0
 10
9.2455453888
 20
9.7109346383
 30
0.0
 10
9.2472373342
 20
9.7113280167
 30
0.0
 10
9.2485907722
 20
9.7116430148
 30
0.0
 10
9.2496061748
 20
9.7118784545
 30
0.0
 10
9.2504513124
 20
9.7120772276
 30
0.0
 10
9.2510449325
 20
9.7122113187
 30
0.0
 10
9.2513809841
 20
9.7122958275
 30
0.0
 10
9.251641924
 20
9.712336996
 30
0.0
 10
9.2518688393
 20
9.712463074
 30
0.0
 10
9.2521832612
 20
9.7126015606
 30
0.0
 10
9.2527279699
 20
9.7128577114
 30
0.0
 10
9.2535090162
 20
9.7132164267
 30
0.0
 10
9.2544450342
 20
9.7136499731
 30
0.0
 10
9.2556934905
 20
9.7142269564
 30
0.0
 10
9.2572539129
 20
9.7149485548
 30
0.0
 10
9.2597506715
 20
9.7161029057
 30
0.0
 10
9.262871591
 20
9.7175459158
 30
0.0
 10
9.2666167078
 20
9.7192774952
 30
0.0
 10
9.2703618171
 20
9.7210090908
 30
0.0
 10
9.2734827553
 20
9.7224520605
 30
0.0
 10
9.2759794766
 20
9.7236064922
 30
0.0
 10
9.2775399937
 20
9.7243278855
 30
0.0
 10
9.2787882556
 20
9.7249052896
 30
0.0
 10
9.2797248676
 20
9.7253375504
 30
0.0
 10
9.2805040557
 20
9.7257002882
 30
0.0
 10
9.2810520814
 20
9.7259492581
 30
0.0
 10
9.2813611886
 20
9.7260992504
 30
0.0
 10
9.281604429
 20
9.7261899867
 30
0.0
 10
9.2818040547
 20
9.7263638925
 30
0.0
 10
9.2820854357
 20
9.7265667564
 30
0.0
 10
9.2825707642
 20
9.7269352847
 30
0.0
 10
9.2832677963
 20
9.7274546872
 30
0.0
 10
9.2841026488
 20
9.7280809949
 30
0.0
 10
9.2852163394
 20
9.7289150153
 30
0.0
 10
9.2866082629
 20
9.7299579027
 30
0.0
 10
9.2888354467
 20
9.7316263201
 30
0.0
 10
9.2916193896
 20
9.7337119117
 30
0.0
 10
9.2949601386
 20
9.7362145902
 30
0.0
 10
9.2983008766
 20
9.7387172828
 30
0.0
 10
9.3010848468
 20
9.7408028392
 30
0.0
 10
9.3033119761
 20
9.742471327
 30
0.0
 10
9.3047040382
 20
9.7435140355
 30
0.0
 10
9.3058174445
 20
9.744348423
 30
0.0
 10
9.3066531655
 20
9.7449736092
 30
0.0
 10
9.30734748
 20
9.7454965206
 30
0.0
 10
9.3078376601
 20
9.745858785
 30
0.0
 10
9.3081112676
 20
9.7460716853
 30
0.0
 10
9.3083347708
 20
9.7462147625
 30
0.0
 10
9.3084883313
 20
9.7464212856
 30
0.0
 10
9.3087174754
 20
9.7466745191
 30
0.0
 10
9.3091071106
 20
9.7471279888
 30
0.0
 10
9.3096696751
 20
9.7477704119
 30
0.0
 10
9.3103422089
 20
9.748543627
 30
0.0
 10
9.311239809
 20
9.7495737746
 30
0.0
 10
9.3123615049
 20
9.750861735
 30
0.0
 10
9.3141563884
 20
9.7529223174
 30
0.0
 10
9.3163999341
 20
9.7554980987
 30
0.0
 10
9.3190922159
 20
9.7585890121
 30
0.0
 10
9.3217844838
 20
9.7616799368
 30
0.0
 10
9.3240280641
 20
9.7642556897
 30
0.0
 10
9.3258228784
 20
9.7663163288
 30
0.0
 10
9.3269447502
 20
9.767604145
 30
0.0
 10
9.3278419894
 20
9.7686345887
 30
0.0
 10
9.3285156257
 20
9.7694068992
 30
0.0
 10
9.3290747406
 20
9.7700521526
 30
0.0
 10
9.329470534
 20
9.7705005698
 30
0.0
 10
9.3296898112
 20
9.7707618987
 30
0.0
 10
9.3298736794
 20
9.7709435552
 30
0.0
 10
9.3299833517
 20
9.7711800271
 30
0.0
 10
9.3301554618
 20
9.7714762028
 30
0.0
 10
9.3304445962
 20
9.7720034187
 30
0.0
 10
9.3308639496
 20
9.7727519268
 30
0.0
 10
9.3313644753
 20
9.77365213
 30
0.0
 10
9.3320327853
 20
9.7748517047
 30
0.0
 10
9.3328678501
 20
9.7763514115
 30
0.0
 10
9.3342041343
 20
9.7787508091
 30
0.0
 10
9.3358744272
 20
9.781750102
 30
0.0
 10
9.3378788073
 20
9.7853492328
 30
0.0
 10
9.3398831724
 20
9.7889483728
 30
0.0
 10
9.3415535028
 20
9.7919476429
 30
0.0
 10
9.3428897118
 20
9.794347086
 30
0.0
 10
9.3437249677
 20
9.7958466771
 30
0.0
 10
9.3443928856
 20
9.7970464893
 30
0.0
 10
9.3448946093
 20
9.797945967
 30
0.0
 10
9.3453102142
 20
9.798696745
 30
0.0
 10
9.3456060403
 20
9.7992199088
 30
0.0
 10
9.3457674287
 20
9.7995225769
 30
0.0
 10
9.3459100345
 20
9.799739106
 30
0.0
 10
9.3459702098
 20
9.7999956643
 30
0.0
 10
9.3460791962
 20
9.8003237793
 30
0.0
 10
9.346256526
 20
9.8009044861
 30
0.0
 10
9.3465168581
 20
9.8017306661
 30
0.0
 10
9.3468262588
 20
9.8027235379
 30
0.0
 10
9.3472398401
 20
9.8040468585
 30
0.0
 10
9.3477564582
 20
9.8057011833
 30
0.0
 10
9.3485832476
 20
9.8083480056
 30
0.0
 10
9.3496166651
 20
9.8116565672
 30
0.0
 10
9.3508567978
 20
9.8156268258
 30
0.0
 10
9.3520969143
 20
9.8195970914
 30
0.0
 10
9.3531303726
 20
9.8229056357
 30
0.0
 10
9.3539570804
 20
9.8255524926
 30
0.0
 10
9.3544739058
 20
9.8272067297
 30
0.0
 10
9.3548870616
 20
9.8285302303
 30
0.0
 10
9.3551977622
 20
9.8295225519
 30
0.0
 10
9.3554540272
 20
9.8303504533
 30
0.0
 10
9.3556386175
 20
9.8309280871
 30
0.0
 10
9.3557359707
 20
9.8312611259
 30
0.0
 10
9.3558318793
 20
9.8315025598
 30
0.0
 10
9.3558402769
 20
9.8317758934
 30
0.0
 10
9.3558819984
 20
9.8321292112
 30
0.0
 10
9.355940789
 20
9.8327527015
 30
0.0
 10
9.3560322111
 20
9.8336406917
 30
0.0
 10
9.356138735
 20
9.83470744
 30
0.0
 10
9.3562818785
 20
9.8361293658
 30
0.0
 10
9.3564604272
 20
9.8379069119
 30
0.0
 10
9.356746318
 20
9.840750908
 30
0.0
 10
9.3571036079
 20
9.8443059298
 30
0.0
 10
9.3575323895
 20
9.8485719446
 30
0.0
 10
9.3579611539
 20
9.8528379623
 30
0.0
 10
9.3583184867
 20
9.8563929768
 30
0.0
 10
9.3586042918
 20
9.8592369874
 30
0.0
 10
9.3587830581
 20
9.8610144967
 30
0.0
 10
9.3589257549
 20
9.8624364981
 30
0.0
 10
9.3590336435
 20
9.8635030156
 30
0.0
 10
9.359120796
 20
9.864391728
 30
0.0
 10
9.3591872085
 20
9.865013929
 30
0.0
 10
9.3592167178
 20
9.8653693126
 30
0.0
 10
9.3592626275
 20
9.8656363005
 30
0.0
 10
9.3592176469
 20
9.8659015677
 30
0.0
 10
9.3591893764
 20
9.8662558575
 30
0.0
 10
9.3591251316
 20
9.8668755851
 30
0.0
 10
9.359041076
 20
9.8677610563
 30
0.0
 10
9.3589369038
 20
9.8688235592
 30
0.0
 10
9.3587991621
 20
9.8702402516
 30
0.0
 10
9.3586265896
 20
9.8720111097
 30
0.0
 10
9.3583506946
 20
9.8748444867
 30
0.0
 10
9.3580057495
 20
9.8783862065
 30
0.0
 10
9.3575918502
 20
9.8826362712
 30
0.0
 10
9.3571779338
 20
9.8868863347
 30
0.0
 10
9.3568330315
 20
9.8904280576
 30
0.0
 10
9.3565570509
 20
9.8932614284
 30
0.0
 10
9.3563846961
 20
9.8950323023
 30
0.0
 10
9.3562465075
 20
9.8964489622
 30
0.0
 10
9.3561437004
 20
9.8975115645
 30
0.0
 10
9.3560553735
 20
9.8983967249
 30
0.0
 10
9.3559987539
 20
9.8990170073
 30
0.0
 10
9.3559582659
 20
9.899370408
 30
0.0
 10
9.3559508133
 20
9.8996384064
 30
0.0
 10
9.3558557743
 20
9.8998951364
 30
0.0
 10
9.3557596067
 20
9.9002413736
 30
0.0
 10
9.3555770792
 20
9.9008454573
 30
0.0
 10
9.3553237674
 20
9.9017093916
 30
0.0
 10
9.3550166079
 20
9.9027457029
 30
0.0
 10
9.3546081744
 20
9.9041275944
 30
0.0
 10
9.3540972517
 20
9.9058549098
 30
0.0
 10
9.3532799882
 20
9.9086186418
 30
0.0
 10
9.3522583354
 20
9.9120732973
 30
0.0
 10
9.3510323855
 20
9.9162188887
 30
0.0
 10
9.3498064193
 20
9.9203644762
 30
0.0
 10
9.3487848073
 20
9.9238191412
 30
0.0
 10
9.3479674622
 20
9.9265828542
 30
0.0
 10
9.347456747
 20
9.9283102179
 30
0.0
 10
9.3470478876
 20
9.9296920103
 30
0.0
 10
9.3467420295
 20
9.9307286243
 30
0.0
 10
9.3464846459
 20
9.9315916116
 30
0.0
 10
9.3463093872
 20
9.9321973858
 30
0.0
 10
9.3462015731
 20
9.9325409144
 30
0.0
 10
9.3461423083
 20
9.9328059643
 30
0.0
 10
9.3460004938
 20
9.9330427145
 30
0.0
 10
9.3458402019
 20
9.9333682527
 30
0.0
 10
9.3455462754
 20
9.9339333453
 30
0.0
 10
9.3451333944
 20
9.9347430249
 30
0.0
 10
9.3446349349
 20
9.9357136113
 30
0.0
 10
9.3439713709
 20
9.9370080859
 30
0.0
 10
9.3431415568
 20
9.938626056
 30
0.0
 10
9.3418140551
 20
9.9412148772
 30
0.0
 10
9.3401546085
 20
9.9444508797
 30
0.0
 10
9.3381633043
 20
9.9483340939
 30
0.0
 10
9.3361719845
 20
9.9522173018
 30
0.0
 10
9.334512577
 20
9.9554533203
 30
0.0
 10
9.3331849972
 20
9.9580421095
 30
0.0
 10
9.3323553816
 20
9.9596601607
 30
0.0
 10
9.3316914102
 20
9.9609544691
 30
0.0
 10
9.3311941952
 20
9.9619255631
 30
0.0
 10
9.3307774205
 20
9.9627336546
 30
0.0
 10
9.3304904449
 20
9.9633015822
 30
0.0
 10
9.330319016
 20
9.963622578
 30
0.0
 10
9.3302114109
 20
9.9638732808
 30
0.0
 10
9.330023661
 20
9.964085927
 30
0.0
 10
9.3298012833
 20
9.9643827299
 30
0.0
 10
9.3293990973
 20
9.9648959501
 30
0.0
 10
9.3288313555
 20
9.9656323553
 30
0.0
 10
9.3281471506
 20
9.9665146575
 30
0.0
 10
9.3272358954
 20
9.9676915439
 30
0.0
 10
9.3260964779
 20
9.9691624863
 30
0.0
 10
9.3242736047
 20
9.9715160868
 30
0.0
 10
9.321994946
 20
9.9744580552
 30
0.0
 10
9.3192605858
 20
9.9779884327
 30
0.0
 10
9.3165262122
 20
9.9815188002
 30
0.0
 10
9.3142475869
 20
9.9844607936
 30
0.0
 10
9.3124246471
 20
9.9868143442
 30
0.0
 10
9.3112853988
 20
9.9882854134
 30
0.0
 10
9.3103737962
 20
9.9894620395
 30
0.0
 10
9.3096906526
 20
9.9903451368
 30
0.0
 10
9.3091195904
 20
9.9910790545
 30
0.0
 10
9.3087233318
 20
9.9915967152
 30
0.0
 10
9.3084914568
 20
9.9918864033
 30
0.0
 10
9.3083328796
 20
9.9921209039
 30
0.0
 10
9.308115707
 20
9.9922895254
 30
0.0
 10
9.3078465823
 20
9.9925373333
 30
0.0
 10
9.3073660913
 20
9.9929602907
 30
0.0
 10
9.3066846543
 20
9.993570113
 30
0.0
 10
9.3058647988
 20
9.994299504
 30
0.0
 10
9.3047724024
 20
9.995272862
 30
0.0
 10
9.3034066521
 20
9.996489273
 30
0.0
 10
9.3012215941
 20
9.9984356909
 30
0.0
 10
9.2984902224
 20
10.0008686578
 30
0.0
 10
9.2952125987
 20
10.0037882436
 30
0.0
 10
9.2919349645
 20
10.0067078162
 30
0.0
 10
9.2892036188
 20
10.0091408159
 30
0.0
 10
9.2870185088
 20
10.0110871682
 30
0.0
 10
9.2856528906
 20
10.0123037459
 30
0.0
 10
9.2845602232
 20
10.0132767618
 30
0.0
 10
9.2837411958
 20
10.0140071979
 30
0.0
 10
9.2830571677
 20
10.0146137503
 30
0.0
 10
9.2825813022
 20
10.015042545
 30
0.0
 10
9.2823047663
 20
10.0152810001
 30
0.0
 10
9.2821103585
 20
10.0154783506
 30
0.0
 10
9.2818662808
 20
10.0156049497
 30
0.0
 10
9.2815581692
 20
10.0157984273
 30
0.0
 10
9.2810109018
 20
10.0161255149
 30
0.0
 10
9.2802333115
 20
10.0165987944
 30
0.0
 10
9.2792983966
 20
10.0171641566
 30
0.0
 10
9.2780524745
 20
10.0179188716
 30
0.0
 10
9.2764948558
 20
10.0188619577
 30
0.0
 10
9.2740027866
 20
10.0203710675
 30
0.0
 10
9.2708876585
 20
10.0222573952
 30
0.0
 10
9.2671495234
 20
10.0245210158
 30
0.0
 10
9.2634113802
 20
10.026784622
 30
0.0
 10
9.2602962723
 20
10.0286709859
 30
0.0
 10
9.2578041628
 20
10.0301800233
 30
0.0
 10
9.2562466465
 20
10.0311232933
 30
0.0
 10
9.2550005141
 20
10.0318776308
 30
0.0
 10
9.2540662416
 20
10.0324441466
 30
0.0
 10
9.2532866414
 20
10.0329138169
 30
0.0
 10
9.252742962
 20
10.0332473473
 30
0.0
 10
9.2524291015
 20
10.033430502
 30
0.0
 10
9.2522026826
 20
10.03358881
 30
0.0
 10
9.2519419512
 20
10.0336670671
 30
0.0
 10
9.251606278
 20
10.0337993325
 30
0.0
 10
9.2510132733
 20
10.0340177873
 30
0.0
 10
9.2501690392
 20
10.0343366673
 30
0.0
 10
9.2491547104
 20
10.0347164119
 30
0.0
 10
9.2478027079
 20
10.0352237549
 30
0.0
 10
9.2461125555
 20
10.0358575854
 30
0.0
 10
9.2434083951
 20
10.036871909
 30
0.0
 10
9.2400281658
 20
10.0381397462
 30
0.0
 10
9.2359719036
 20
10.0396611817
 30
0.0
 10
9.2319156357
 20
10.0411826013
 30
0.0
 10
9.2285354208
 20
10.0424504782
 30
0.0
 10
9.2258312316
 20
10.0434647222
 30
0.0
 10
9.2241411525
 20
10.044098755
 30
0.0
 10
9.2227889994
 20
10.044605683
 30
0.0
 10
9.2217751307
 20
10.0449866956
 30
0.0
 10
9.2209294572
 20
10.0453016082
 30
0.0
 10
9.2203390221
 20
10.0455271453
 30
0.0
 10
9.2199992318
 20
10.0456480631
 30
0.0
 10
9.2197511466
 20
10.0457611765
 30
0.0
 10
9.2194772305
 20
10.0457885702
 30
0.0
 10
9.2191210192
 20
10.0458549951
 30
0.0
 10
9.2184934514
 20
10.0459573077
 30
0.0
 10
9.2175991207
 20
10.0461107518
 30
0.0
 10
9.2165249845
 20
10.0462917673
 30
0.0
 10
9.215093131
 20
10.0465342101
 30
0.0
 10
9.2133032018
 20
10.0468368909
 30
0.0
 10
9.2104393778
 20
10.0473213884
 30
0.0
 10
9.2068595762
 20
10.0479269389
 30
0.0
 10
9.2025638236
 20
10.0486536301
 30
0.0
 10
9.1982680685
 20
10.0493803131
 30
0.0
 10
9.1925403959
 20
10.0503492266
 30
0.0
 10
9.1882446412
 20
10.0510759111
 30
0.0
 10
9.1853808049
 20
10.0515603676
 30
0.0
  0
SPLINE
  5
39F
100
AcDbEntity
  8
0
100
AcDbSpline
 62
4
  6
CONTINUOUS
 70
0
 71
3
 72
313
 73
309
 74
0
 42
0.0000001
 43
0.0000001
 44
0.0000000001
 40
0.0
 40
0.0
 40
0.0
 40
0.0
 40
0.015625
 40
0.0234375
 40
0.03125
 40
0.0390625
 40
0.046875
 40
0.05078125
 40
0.0546875
 40
0.056640625
 40
0.05859375
 40
0.060546875
 40
0.0615234375
 40
0.0620117188
 40
0.0625
 40
0.0629882812
 40
0.0634765625
 40
0.064453125
 40
0.06640625
 40
0.068359375
 40
0.0703125
 40
0.07421875
 40
0.078125
 40
0.0859375
 40
0.09375
 40
0.1015625
 40
0.109375
 40
0.11328125
 40
0.1171875
 40
0.119140625
 40
0.12109375
 40
0.123046875
 40
0.1240234375
 40
0.1245117188
 40
0.125
 40
0.1254882812
 40
0.1259765625
 40
0.126953125
 40
0.12890625
 40
0.130859375
 40
0.1328125
 40
0.13671875
 40
0.140625
 40
0.1484375
 40
0.15625
 40
0.1640625
 40
0.171875
 40
0.17578125
 40
0.1796875
 40
0.181640625
 40
0.18359375
 40
0.185546875
 40
0.1865234375
 40
0.1870117188
 40
0.1875
 40
0.1879882812
 40
0.1884765625
 40
0.189453125
 40
0.19140625
 40
0.193359375
 40
0.1953125
 40
0.19921875
 40
0.203125
 40
0.2109375
 40
0.21875
 40
0.2265625
 40
0.234375
 40
0.23828125
 40
0.2421875
 40
0.244140625
 40
0.24609375
 40
0.248046875
 40
0.2490234375
 40
0.2495117188
 40
0.25
 40
0.2504882812
 40
0.2509765625
 40
0.251953125
 40
0.25390625
 40
0.255859375
 40
0.2578125
 40
0.26171875
 40
0.265625
 40
0.2734375
 40
0.28125
 40
0.2890625
 40
0.296875
 40
0.30078125
 40
0.3046875
 40
0.306640625
 40
0.30859375
 40
0.310546875
 40
0.3115234375
 40
0.3120117188
 40
0.3125
 40
0.3129882812
 40
0.3134765625
 40
0.314453125
 40
0.31640625
 40
0.318359375
 40
0.3203125
 40
0.32421875
 40
0.328125
 40
0.3359375
 40
0.34375
 40
0.3515625
 40
0.359375
 40
0.36328125
 40
0.3671875
 40
0.369140625
 40
0.37109375
 40
0.373046875
 40
0.3740234375
 40
0.3745117188
 40
0.375
 40
0.3754882812
 40
0.3759765625
 40
0.376953125
 40
0.37890625
 40
0.380859375
 40
0.3828125
 40
0.38671875
 40
0.390625
 40
0.3984375
 40
0.40625
 40
0.4140625
 40
0.421875
 40
0.42578125
 40
0.4296875
 40
0.431640625
 40
0.43359375
 40
0.435546875
 40
0.4365234375
 40
0.4370117188
 40
0.4375
 40
0.4379882812
 40
0.4384765625
 40
0.439453125
 40
0.44140625
 40
0.443359375
 40
0.4453125
 40
0.44921875
 40
0.453125
 40
0.4609375
 40
0.46875
 40
0.4765625
 40
0.484375
 40
0.48828125
 40
0.4921875
 40
0.494140625
 40
0.49609375
 40
0.498046875
 40
0.4990234375
 40
0.4995117188
 40
0.5
 40
0.5004882812
 40
0.5009765625
 40
0.501953125
 40
0.50390625
 40
0.505859375
 40
0.5078125
 40
0.51171875
 40
0.515625
 40
0.5234375
 40
0.53125
 40
0.5390625
 40
0.546875
 40
0.55078125
 40
0.5546875
 40
0.556640625
 40
0.55859375
 40
0.560546875
 40
0.5615234375
 40
0.5620117188
 40
0.5625
 40
0.5629882812
 40
0.5634765625
 40
0.564453125
 40
0.56640625
 40
0.568359375
 40
0.5703125
 40
0.57421875
 40
0.578125
 40
0.5859375
 40
0.59375
 40
0.6015625
 40
0.609375
 40
0.61328125
 40
0.6171875
 40
0.619140625
 40
0.62109375
 40
0.623046875
 40
0.6240234375
 40
0.6245117188
 40
0.625
 40
0.6254882812
 40
0.6259765625
 40
0.626953125
 40
0.62890625
 40
0.630859375
 40
0.6328125
 40
0.63671875
 40
0.640625
 40
0.6484375
 40
0.65625
 40
0.6640625
 40
0.671875
 40
0.67578125
 40
0.6796875
 40
0.681640625
 40
0.68359375
 40
0.685546875
 40
0.6865234375
 40
0.6870117188
 40
0.6875
 40
0.6879882812
 40
0.6884765625
 40
0.689453125
 40
0.69140625
 40
0.693359375
 40
0.6953125
 40
0.69921875
 40
0.703125
 40
0.7109375
 40
0.71875
 40
0.7265625
 40
0.734375
 40
0.73828125
 40
0.7421875
 40
0.744140625
 40
0.74609375
 40
0.748046875
 40
0.7490234375
 40
0.7495117188
 40
0.75
 40
0.7504882812
 40
0.7509765625
 40
0.751953125
 40
0.75390625
 40
0.755859375
 40
0.7578125
 40
0.76171875
 40
0.765625
 40
0.7734375
 40
0.78125
 40
0.7890625
 40
0.796875
 40
0.80078125
 40
0.8046875
 40
0.806640625
 40
0.80859375
 40
0.810546875
 40
0.8115234375
 40
0.8120117188
 40
0.8125
 40
0.8129882812
 40
0.8134765625
 40
0.814453125
 40
0.81640625
 40
0.818359375
 40
0.8203125
 40
0.82421875
 40
0.828125
 40
0.8359375
 40
0.84375
 40
0.8515625
 40
0.859375
 40
0.86328125
 40
0.8671875
 40
0.869140625
 40
0.87109375
 40
0.873046875
 40
0.8740234375
 40
0.8745117188
 40
0.875
 40
0.8754882812
 40
0.8759765625
 40
0.876953125
 40
0.87890625
 40
0.880859375
 40
0.8828125
 40
0.88671875
 40
0.890625
 40
0.8984375
 40
0.90625
 40
0.9140625
 40
0.921875
 40
0.92578125
 40
0.9296875
 40
0.931640625
 40
0.93359375
 40
0.935546875
 40
0.9365234375
 40
0.9370117188
 40
0.9375
 40
0.9379882812
 40
0.9384765625
 40
0.939453125
 40
0.94140625
 40
0.943359375
 40
0.9453125
 40
0.94921875
 40
0.953125
 40
0.9609375
 40
0.96875
 40
0.9765625
 40
0.984375
 40
1.0
 40
1.0
 40
1.0
 40
1.0
 10
9.1853808201
 20
10.0515603665
 30
0.0
 10
9.1825665803
 20
10.0514795961
 30
0.0
 10
9.1783452205
 20
10.0513584406
 30
0.0
 10
9.172716741
 20
10.0511968992
 30
0.0
 10
9.1684953809
 20
10.0510757453
 30
0.0
 10
9.1642740225
 20
10.050954583
 30
0.0
 10
9.1607562187
 20
10.0508536408
 30
0.0
 10
9.1579419872
 20
10.0507728278
 30
0.0
 10
9.1561830662
 20
10.0507224546
 30
0.0
 10
9.1547759897
 20
10.0506818471
 30
0.0
 10
9.1537205171
 20
10.0506522373
 30
0.0
 10
9.1528414822
 20
10.0506248716
 30
0.0
 10
9.1522251263
 20
10.0506109965
 30
0.0
 10
9.1518745335
 20
10.0505948222
 30
0.0
 10
9.1516070519
 20
10.0506059195
 30
0.0
 10
9.1513569129
 20
10.0505282277
 30
0.0
 10
9.151017345
 20
10.0504556092
 30
0.0
 10
9.1504259195
 20
10.0503140972
 30
0.0
 10
9.1495795525
 20
10.0501194811
 30
0.0
 10
9.1485645428
 20
10.0498827128
 30
0.0
 10
9.1472109762
 20
10.0495681495
 30
0.0
 10
9.1455190935
 20
10.0491745592
 30
0.0
 10
9.1428120388
 20
10.0485450307
 30
0.0
 10
9.1394282352
 20
10.0477580454
 30
0.0
 10
9.1353676638
 20
10.0468136971
 30
0.0
 10
9.1313070973
 20
10.0458693321
 30
0.0
 10
9.1279232813
 20
10.0450823886
 30
0.0
 10
9.1252162514
 20
10.0444527767
 30
0.0
 10
9.1235243059
 20
10.0440593983
 30
0.0
 10
9.122170868
 20
10.0437444001
 30
0.0
 10
9.1211554654
 20
10.0435089604
 30
0.0
 10
9.1203103277
 20
10.0433101873
 30
0.0
 10
9.1197167077
 20
10.0431760962
 30
0.0
 10
9.119380656
 20
10.0430915875
 30
0.0
 10
9.1191197161
 20
10.0430504189
 30
0.0
 10
9.1188928008
 20
10.042924341
 30
0.0
 10
9.1185783789
 20
10.0427858544
 30
0.0
 10
9.1180336702
 20
10.0425297035
 30
0.0
 10
9.117252624
 20
10.0421709882
 30
0.0
 10
9.1163166059
 20
10.0417374418
 30
0.0
 10
9.1150681496
 20
10.0411604586
 30
0.0
 10
9.1135077272
 20
10.0404388602
 30
0.0
 10
9.1110109687
 20
10.0392845092
 30
0.0
 10
9.1078900491
 20
10.0378414992
 30
0.0
 10
9.1041449323
 20
10.0361099197
 30
0.0
 10
9.100399823
 20
10.0343783241
 30
0.0
 10
9.0972788848
 20
10.0329353544
 30
0.0
 10
9.0947821635
 20
10.0317809228
 30
0.0
 10
9.0932216464
 20
10.0310595294
 30
0.0
 10
9.0919733845
 20
10.0304821253
 30
0.0
 10
9.0910367726
 20
10.0300498646
 30
0.0
 10
9.0902575844
 20
10.0296871267
 30
0.0
 10
9.0897095587
 20
10.0294381568
 30
0.0
 10
9.0894004515
 20
10.0292881646
 30
0.0
 10
9.0891572112
 20
10.0291974282
 30
0.0
 10
9.0889575854
 20
10.0290235225
 30
0.0
 10
9.0886762045
 20
10.0288206586
 30
0.0
 10
9.088190876
 20
10.0284521302
 30
0.0
 10
9.0874938438
 20
10.0279327277
 30
0.0
 10
9.0866589913
 20
10.02730642
 30
0.0
 10
9.0855453007
 20
10.0264723996
 30
0.0
 10
9.0841533772
 20
10.0254295123
 30
0.0
 10
9.0819261934
 20
10.0237610948
 30
0.0
 10
9.0791422505
 20
10.0216755032
 30
0.0
 10
9.0758015015
 20
10.0191728247
 30
0.0
 10
9.0724607635
 20
10.0166701322
 30
0.0
 10
9.0696767933
 20
10.0145845758
 30
0.0
 10
9.067449664
 20
10.0129160879
 30
0.0
 10
9.066057602
 20
10.0118733795
 30
0.0
 10
9.0649441957
 20
10.0110389919
 30
0.0
 10
9.0641084746
 20
10.0104138057
 30
0.0
 10
9.0634141601
 20
10.0098908944
 30
0.0
 10
9.0629239801
 20
10.0095286299
 30
0.0
 10
9.0626503726
 20
10.0093157297
 30
0.0
 10
9.0624268693
 20
10.0091726524
 30
0.0
 10
9.0622733089
 20
10.0089661293
 30
0.0
 10
9.0620441648
 20
10.0087128958
 30
0.0
 10
9.0616545295
 20
10.0082594261
 30
0.0
 10
9.061091965
 20
10.007617003
 30
0.0
 10
9.0604194313
 20
10.0068437879
 30
0.0
 10
9.0595218312
 20
10.0058136403
 30
0.0
 10
9.0584001352
 20
10.0045256799
 30
0.0
 10
9.0566052517
 20
10.0024650975
 30
0.0
 10
9.054361706
 20
9.9998893162
 30
0.0
 10
9.0516694243
 20
9.9967984029
 30
0.0
 10
9.0489771563
 20
9.9937074781
 30
0.0
 10
9.0467335761
 20
9.9911317253
 30
0.0
 10
9.0449387617
 20
9.9890710861
 30
0.0
 10
9.0438168899
 20
9.9877832699
 30
0.0
 10
9.0429196507
 20
9.9867528262
 30
0.0
 10
9.0422460144
 20
9.9859805157
 30
0.0
 10
9.0416868995
 20
9.9853352623
 30
0.0
 10
9.0412911062
 20
9.9848868452
 30
0.0
 10
9.0410718289
 20
9.9846255162
 30
0.0
 10
9.0408879607
 20
9.9844438597
 30
0.0
 10
9.0407782884
 20
9.9842073878
 30
0.0
 10
9.0406061784
 20
9.9839112121
 30
0.0
 10
9.0403170439
 20
9.9833839963
 30
0.0
 10
9.0398976905
 20
9.9826354882
 30
0.0
 10
9.0393971649
 20
9.9817352849
 30
0.0
 10
9.0387288548
 20
9.9805357102
 30
0.0
 10
9.03789379
 20
9.9790360034
 30
0.0
 10
9.0365575058
 20
9.9766366059
 30
0.0
 10
9.034887213
 20
9.973637313
 30
0.0
 10
9.0328828328
 20
9.9700381821
 30
0.0
 10
9.0308784678
 20
9.9664390422
 30
0.0
 10
9.0292081373
 20
9.963439772
 30
0.0
 10
9.0278719283
 20
9.9610403289
 30
0.0
 10
9.0270366724
 20
9.9595407378
 30
0.0
 10
9.0263687545
 20
9.9583409257
 30
0.0
 10
9.0258670308
 20
9.9574414479
 30
0.0
 10
9.0254514259
 20
9.9566906699
 30
0.0
 10
9.0251555998
 20
9.9561675062
 30
0.0
 10
9.0249942114
 20
9.955864838
 30
0.0
 10
9.0248516056
 20
9.9556483089
 30
0.0
 10
9.0247914303
 20
9.9553917506
 30
0.0
 10
9.0246824439
 20
9.9550636356
 30
0.0
 10
9.0245051141
 20
9.9544829288
 30
0.0
 10
9.024244782
 20
9.9536567488
 30
0.0
 10
9.0239353813
 20
9.952663877
 30
0.0
 10
9.0235218
 20
9.9513405565
 30
0.0
 10
9.0230051819
 20
9.9496862317
 30
0.0
 10
9.0221783925
 20
9.9470394093
 30
0.0
 10
9.0211449751
 20
9.9437308478
 30
0.0
 10
9.0199048423
 20
9.9397605891
 30
0.0
 10
9.0186647258
 20
9.9357903235
 30
0.0
 10
9.0176312676
 20
9.9324817792
 30
0.0
 10
9.0168045597
 20
9.9298349223
 30
0.0
 10
9.0162877343
 20
9.9281806853
 30
0.0
 10
9.0158745785
 20
9.9268571846
 30
0.0
 10
9.0155638779
 20
9.925864863
 30
0.0
 10
9.015307613
 20
9.9250369616
 30
0.0
 10
9.0151230227
 20
9.9244593279
 30
0.0
 10
9.0150256694
 20
9.924126289
 30
0.0
 10
9.0149297608
 20
9.9238848551
 30
0.0
 10
9.0149213633
 20
9.9236115216
 30
0.0
 10
9.0148796417
 20
9.9232582038
 30
0.0
 10
9.0148208511
 20
9.9226347134
 30
0.0
 10
9.014729429
 20
9.9217467233
 30
0.0
 10
9.0146229051
 20
9.920679975
 30
0.0
 10
9.0144797616
 20
9.9192580491
 30
0.0
 10
9.0143012129
 20
9.9174805031
 30
0.0
 10
9.0140153222
 20
9.9146365069
 30
0.0
 10
9.0136580322
 20
9.9110814851
 30
0.0
 10
9.0132292507
 20
9.9068154703
 30
0.0
 10
9.0128004862
 20
9.9025494527
 30
0.0
 10
9.0124431535
 20
9.8989944381
 30
0.0
 10
9.0121573483
 20
9.8961504275
 30
0.0
 10
9.011978582
 20
9.8943729182
 30
0.0
 10
9.0118358852
 20
9.8929509168
 30
0.0
 10
9.0117279967
 20
9.8918843994
 30
0.0
 10
9.0116408442
 20
9.890995687
 30
0.0
 10
9.0115744316
 20
9.890373486
 30
0.0
 10
9.0115449223
 20
9.8900181023
 30
0.0
 10
9.0114990127
 20
9.8897511144
 30
0.0
 10
9.0115439932
 20
9.8894858472
 30
0.0
 10
9.0115722638
 20
9.8891315574
 30
0.0
 10
9.0116365085
 20
9.8885118299
 30
0.0
 10
9.0117205641
 20
9.8876263586
 30
0.0
 10
9.0118247363
 20
9.8865638557
 30
0.0
 10
9.011962478
 20
9.8851471633
 30
0.0
 10
9.0121350506
 20
9.8833763053
 30
0.0
 10
9.0124109456
 20
9.8805429282
 30
0.0
 10
9.0127558906
 20
9.8770012084
 30
0.0
 10
9.0131697899
 20
9.8727511437
 30
0.0
 10
9.0135837063
 20
9.8685010803
 30
0.0
 10
9.0139286086
 20
9.8649593573
 30
0.0
 10
9.0142045893
 20
9.8621259865
 30
0.0
 10
9.0143769441
 20
9.8603551126
 30
0.0
 10
9.0145151327
 20
9.8589384527
 30
0.0
 10
9.0146179397
 20
9.8578758505
 30
0.0
 10
9.0147062667
 20
9.8569906901
 30
0.0
 10
9.0147628862
 20
9.8563704076
 30
0.0
 10
9.0148033742
 20
9.8560170069
 30
0.0
 10
9.0148108268
 20
9.8557490085
 30
0.0
 10
9.0149058658
 20
9.8554922786
 30
0.0
 10
9.0150020334
 20
9.8551460414
 30
0.0
 10
9.0151845609
 20
9.8545419576
 30
0.0
 10
9.0154378727
 20
9.8536780233
 30
0.0
 10
9.0157450323
 20
9.8526417121
 30
0.0
 10
9.0161534657
 20
9.8512598205
 30
0.0
 10
9.0166643884
 20
9.8495325051
 30
0.0
 10
9.0174816519
 20
9.8467687731
 30
0.0
 10
9.0185033047
 20
9.8433141176
 30
0.0
 10
9.0197292546
 20
9.8391685263
 30
0.0
 10
9.0209552208
 20
9.8350229387
 30
0.0
 10
9.0219768328
 20
9.8315682737
 30
0.0
 10
9.0227941779
 20
9.8288045607
 30
0.0
 10
9.0233048931
 20
9.827077197
 30
0.0
 10
9.0237137525
 20
9.8256954046
 30
0.0
 10
9.0240196106
 20
9.8246587906
 30
0.0
 10
9.0242769942
 20
9.8237958034
 30
0.0
 10
9.0244522529
 20
9.8231900291
 30
0.0
 10
9.024560067
 20
9.8228465005
 30
0.0
 10
9.0246193318
 20
9.8225814506
 30
0.0
 10
9.0247611464
 20
9.8223447004
 30
0.0
 10
9.0249214382
 20
9.8220191622
 30
0.0
 10
9.0252153647
 20
9.8214540697
 30
0.0
 10
9.0256282457
 20
9.82064439
 30
0.0
 10
9.0261267052
 20
9.8196738037
 30
0.0
 10
9.0267902692
 20
9.8183793291
 30
0.0
 10
9.0276200833
 20
9.8167613589
 30
0.0
 10
9.0289475851
 20
9.8141725378
 30
0.0
 10
9.0306070316
 20
9.8109365352
 30
0.0
 10
9.0325983358
 20
9.807053321
 30
0.0
 10
9.0345896556
 20
9.8031701132
 30
0.0
 10
9.0362490631
 20
9.7999340947
 30
0.0
 10
9.0375766429
 20
9.7973453054
 30
0.0
 10
9.0384062585
 20
9.7957272543
 30
0.0
 10
9.0390702299
 20
9.7944329458
 30
0.0
 10
9.0395674449
 20
9.7934618519
 30
0.0
 10
9.0399842196
 20
9.7926537603
 30
0.0
 10
9.0402711952
 20
9.7920858328
 30
0.0
 10
9.0404426241
 20
9.7917648369
 30
0.0
 10
9.0405502292
 20
9.7915141342
 30
0.0
 10
9.0407379791
 20
9.7913014879
 30
0.0
 10
9.0409603568
 20
9.791004685
 30
0.0
 10
9.0413625428
 20
9.7904914648
 30
0.0
 10
9.0419302846
 20
9.7897550596
 30
0.0
 10
9.0426144896
 20
9.7888727574
 30
0.0
 10
9.0435257447
 20
9.787695871
 30
0.0
 10
9.0446651623
 20
9.7862249286
 30
0.0
 10
9.0464880355
 20
9.7838713281
 30
0.0
 10
9.0487666941
 20
9.7809293597
 30
0.0
 10
9.0515010543
 20
9.7773989822
 30
0.0
 10
9.0542354279
 20
9.7738686147
 30
0.0
 10
9.0565140533
 20
9.7709266213
 30
0.0
 10
9.058336993
 20
9.7685730708
 30
0.0
 10
9.0594762413
 20
9.7671020015
 30
0.0
 10
9.0603878439
 20
9.7659253754
 30
0.0
 10
9.0610709875
 20
9.7650422782
 30
0.0
 10
9.0616420498
 20
9.7643083604
 30
0.0
 10
9.0620383083
 20
9.7637906997
 30
0.0
 10
9.0622701833
 20
9.7635010116
 30
0.0
 10
9.0624287606
 20
9.763266511
 30
0.0
 10
9.0626459331
 20
9.7630978896
 30
0.0
 10
9.0629150578
 20
9.7628500816
 30
0.0
 10
9.0633955488
 20
9.7624271242
 30
0.0
 10
9.0640769859
 20
9.7618173019
 30
0.0
 10
9.0648968414
 20
9.761087911
 30
0.0
 10
9.0659892377
 20
9.7601145529
 30
0.0
 10
9.067354988
 20
9.7588981419
 30
0.0
 10
9.069540046
 20
9.7569517241
 30
0.0
 10
9.0722714177
 20
9.7545187571
 30
0.0
 10
9.0755490415
 20
9.7515991714
 30
0.0
 10
9.0788266756
 20
9.7486795987
 30
0.0
 10
9.0815580213
 20
9.746246599
 30
0.0
 10
9.0837431313
 20
9.7443002467
 30
0.0
 10
9.0851087495
 20
9.7430836691
 30
0.0
 10
9.0862014169
 20
9.7421106531
 30
0.0
 10
9.0870204443
 20
9.7413802171
 30
0.0
 10
9.0877044724
 20
9.7407736646
 30
0.0
 10
9.088180338
 20
9.7403448699
 30
0.0
 10
9.0884568738
 20
9.7401064148
 30
0.0
 10
9.0886512816
 20
9.7399090644
 30
0.0
 10
9.0888953594
 20
9.7397824653
 30
0.0
 10
9.0892034709
 20
9.7395889876
 30
0.0
 10
9.0897507383
 20
9.7392619
 30
0.0
 10
9.0905283287
 20
9.7387886206
 30
0.0
 10
9.0914632435
 20
9.7382232583
 30
0.0
 10
9.0927091656
 20
9.7374685433
 30
0.0
 10
9.0942667844
 20
9.7365254572
 30
0.0
 10
9.0967588535
 20
9.7350163475
 30
0.0
 10
9.0998739817
 20
9.7331300198
 30
0.0
 10
9.1036121167
 20
9.7308663991
 30
0.0
 10
9.1073502599
 20
9.7286027929
 30
0.0
 10
9.1104653679
 20
9.726716429
 30
0.0
 10
9.1129574774
 20
9.7252073916
 30
0.0
 10
9.1145149936
 20
9.7242641216
 30
0.0
 10
9.1157611261
 20
9.7235097841
 30
0.0
 10
9.1166953985
 20
9.7229432684
 30
0.0
 10
9.1174749987
 20
9.722473598
 30
0.0
 10
9.1180186781
 20
9.7221400676
 30
0.0
 10
9.1183325386
 20
9.7219569129
 30
0.0
 10
9.1185589575
 20
9.7217986049
 30
0.0
 10
9.1188196889
 20
9.7217203478
 30
0.0
 10
9.1191553622
 20
9.7215880824
 30
0.0
 10
9.1197483668
 20
9.7213696276
 30
0.0
 10
9.1205926009
 20
9.7210507477
 30
0.0
 10
9.1216069297
 20
9.7206710031
 30
0.0
 10
9.1229589322
 20
9.7201636601
 30
0.0
 10
9.1246490846
 20
9.7195298295
 30
0.0
 10
9.127353245
 20
9.7185155059
 30
0.0
 10
9.1307334743
 20
9.7172476688
 30
0.0
 10
9.1347897365
 20
9.7157262333
 30
0.0
 10
9.1388460044
 20
9.7142048137
 30
0.0
 10
9.1422262193
 20
9.7129369367
 30
0.0
 10
9.1449304086
 20
9.7119226927
 30
0.0
 10
9.1466204876
 20
9.7112886599
 30
0.0
 10
9.1479726407
 20
9.710781732
 30
0.0
 10
9.1489865094
 20
9.7104007193
 30
0.0
 10
9.1498321829
 20
9.7100858067
 30
0.0
 10
9.150422618
 20
9.7098602696
 30
0.0
 10
9.1507624083
 20
9.7097393518
 30
0.0
 10
9.1510104935
 20
9.7096262385
 30
0.0
 10
9.1512844096
 20
9.7095988448
 30
0.0
 10
9.1516406209
 20
9.7095324199
 30
0.0
 10
9.1522681887
 20
9.7094301073
 30
0.0
 10
9.1531625194
 20
9.7092766631
 30
0.0
 10
9.1542366556
 20
9.7090956476
 30
0.0
 10
9.1556685091
 20
9.7088532048
 30
0.0
 10
9.1574584384
 20
9.708550524
 30
0.0
 10
9.1603222624
 20
9.7080660265
 30
0.0
 10
9.1639020639
 20
9.707460476
 30
0.0
 10
9.1681978165
 20
9.7067337849
 30
0.0
 10
9.1724935716
 20
9.7060071019
 30
0.0
 10
9.1782212442
 20
9.7050381883
 30
0.0
 10
9.1825169989
 20
9.7043115039
 30
0.0
 10
9.1853808353
 20
9.7038270474
 30
0.0
  0
ENDSEC
  0
SECTION
  2
OBJECTS
  0
DICTIONARY
  5
C
100
AcDbDictionary
280
0
281
1
  3
ACAD_GROUP
350
D
  3
ACAD_MLINESTYLE
350
17
  3
ACAD_LAYOUT
350
1A
  3
ACAD_PLOTSETTINGS
350
19
  3
ACAD_PLOTSTYLENAME
350
E
  3
ACAD_IMAGE_DICT
350
       3A1
  3
ACAD_IMAGE_VARS
350
       3A2
  3
ACAD_TABLESTYLE
350
       3A3
  0
IMAGEDEF_REACTOR
  5
3A0
100
AcDbRasterImageDefReactor
 90
2
330
28A
  0
DICTIONARY
  5
D
102
{ACAD_REACTORS
330
C
102
}
100
AcDbDictionary
280
0
281
1
  0
ACDBDICTIONARYWDFLT
  5
E
102
{ACAD_REACTORS
330
C
102
}
100
AcDbDictionary
281
1
  3
Normal
350
F
100
AcDbDictionaryWithDefault
340
F
  0
DICTIONARY
  5
3A1
330
C
100
AcDbDictionary
281
1
  3
IMY_assy_2_img_1
350
       3A6
  0
RASTERVARIABLES
  5
3A2
330
C
100
AcDbRasterVariables
 90
0
 70
0
 71
1
 72
5
  0
DICTIONARY
  5
17
102
{ACAD_REACTORS
330
C
102
}
100
AcDbDictionary
280
0
281
1
  3
Standard
350
18
  0
DICTIONARY
  5
3A3
330
C
100
AcDbDictionary
281
1
  3
Standard
350
       3A7
  3
Standard1
350
       3A8
  0
DICTIONARY
  5
19
102
{ACAD_REACTORS
330
C
102
}
100
AcDbDictionary
281
1
  0
DICTIONARY
  5
1A
102
{ACAD_REACTORS
330
C
102
}
100
AcDbDictionary
281
1
  3
Model
350
3A4
  3
Layout1
350
3A5
  0
ACDBPLACEHOLDER
  5
F
102
{ACAD_REACTORS
330
E
102
}
  0
MLINESTYLE
  5
18
102
{ACAD_REACTORS
330
17
102
}
100
AcDbMlineStyle
  2
STANDARD
 70
0
  3

 62
256
 51
90.0
 52
90.0
 71
2
 49
0.5
 62
256
  6
BYLAYER
 49
-0.5
 62
256
  6
BYLAYER
  0
LAYOUT
  5
3A4
102
{ACAD_REACTORS
330
1A
102
}
100
AcDbPlotSettings
  1

  2
none_device
  4
ANSI_C_(22.00_x_17.00_Inches)
  6

 40
0.0
 41
0.0
 42
0.0
 43
0.0
 44
558.8
 45
431.8
 46
0.0
 47
0.0
 48
0.0
 49
0.0
140
0.0
141
0.0
142
1.0
143
1.0
 70
1024
 72
0
 73
0
 74
0
  7

 75
0
147
1.0
148
0.0
149
0.0
100
AcDbLayout
  1
Model
 70
0
 71
0
 10
0.0
 20
0.0
 11
22.0
 21
17.0
 12
0.0
 22
0.0
 32
0.0
 14
0.0
 24
0.0
 34
0.0
 15
0.0
 25
0.0
 35
0.0
146
0.0
 13
0.0
 23
0.0
 33
0.0
 16
1.0
 26
0.0
 36
0.0
 17
0.0
 27
1.0
 37
0.0
 76
0
330
20C
345
0
346
0
  0
LAYOUT
  5
3A5
102
{ACAD_REACTORS
330
1A
102
}
100
AcDbPlotSettings
  1

  2
none_device
  4
ANSI_C_(22.00_x_17.00_Inches)
  6

 40
0.0
 41
0.0
 42
0.0
 43
0.0
 44
558.8
 45
431.8
 46
0.0
 47
0.0
 48
0.0
 49
0.0
140
0.0
141
0.0
142
1.0
143
1.0
 70
0
 72
0
 73
0
 74
0
  7

 75
0
147
1.0
148
0.0
149
0.0
100
AcDbLayout
  1
Layout1
 70
0
 71
1
 10
0.0
 20
0.0
 11
22.0
 21
17.0
 12
0.0
 22
0.0
 32
0.0
 14
0.0
 24
0.0
 34
0.0
 15
0.0
 25
0.0
 35
0.0
146
0.0
 13
0.0
 23
0.0
 33
0.0
 16
1.0
 26
0.0
 36
0.0
 17
0.0
 27
1.0
 37
0.0
 76
0
330
20D
345
0
346
0
  0
IMAGEDEF
  5
3A6
102
{ACAD_REACTORS
330
3A1
330
3A0
102
}
100
AcDbRasterImageDef
 90
0
  1
IMY_assy_2_img_1.png
 10
369.0
 20
92.0
 11
0.0066666667
 21
0.0066666667
280
1
281
0
  0
TABLESTYLE
  5
3A7
102
{ACAD_REACTORS
330
3A3
330
28D
330
28E
102
}
330
3A3
100
AcDbTableStyle
  3
Standard
 70
0
 71
0
 40
0.06
 41
0.06
280
1
281
1
  7
Standard
140
0.18
170
1
 62
0
 63
7
283
0
  7
Standard
140
0.18
170
1
 62
0
 63
7
283
0
  7
Standard
140
0.18
170
1
 62
0
 63
7
283
0
  0
TABLESTYLE
  5
3A8
102
{ACAD_REACTORS
330
3A3
330
28C
102
}
330
3A3
100
AcDbTableStyle
  3
Standard1
 70
1
 71
0
 40
0.06
 41
0.06
280
1
281
1
  7
Standard
140
0.18
170
1
 62
0
 63
7
283
0
  7
Standard
140
0.18
170
1
 62
0
 63
7
283
0
  7
Standard
140
0.18
170
1
 62
0
 63
7
283
0
  0
ENDSEC
  0
EOF
