999
DXF file: IMX_assy_2.dxf
999
Pro/ENGINEER 2014200 by Parametric Technology Corporation
  0
SECTION
  2
HEADER
  9
$ACADVER
  1
AC1021
  9
$DWGCODEPAGE
  3
ANSI_1252
  9
$EXTMAX
 10
22.0
 20
17.0
 30
0.0
  9
$EXTMIN
 10
0.0
 20
0.0
 30
0.0
  9
$LIMMIN
 10
0.0
 20
0.0
  9
$LIMMAX
 10
22.0
 20
17.0
  9
$VIEWCTR
 10
11.0
 20
8.5
  9
$VIEWSIZE
 40
17.0
  9
$CLAYER
  8
0
  9
$LTSCALE
 40
1.21
  9
$CELTYPE
  6
BYLAYER
  9
$DIMSCALE
 40
1.0
  9
$DIMASZ
 40
0.1875
  9
$DIMEXO
 40
0.0625
  9
$DIMDLI
 40
0.836
  9
$DIMEXE
 40
0.125
  9
$DIMCEN
 40
0.198
  9
$DIMLFAC
 40
1.0
  9
$DIMBLK
  1
_FILLED
  9
$DIMTXT
 40
0.1
  9
$DIMTOL
 70
0
  9
$DIMLIM
 70
0
  9
$DIMTFAC
 40
1.0
  9
$DIMGAP
 40
0.09
  9
$DIMDSEP
 70
46
  9
$AUNITS
 70
0
  9
$PDMODE
 70
3
  9
$PDSIZE
 40
0.3125
  9
$HANDSEED
  5
3BF
  9
$TILEMODE
 70
1
  9
$MEASUREMENT
 70
0
  9
$INSUNITS
 70
1
  0
ENDSEC
  0
SECTION
  2
CLASSES
  0
CLASS
  1
ACDBDICTIONARYWDFLT
  2
AcDbDictionaryWithDefault
  3
AutoCAD 2000
 90
0
 91
1
280
0
281
0
  0
CLASS
  1
ACDBPLACEHOLDER
  2
AcDbPlaceHolder
  3
AutoCAD 2000
 90
0
 91
1
280
0
281
0
  0
CLASS
  1
LAYOUT
  2
AcDbLayout
  3
AutoCAD 2000
 90
0
 91
0
280
0
281
0
  0
CLASS
  1
RASTERVARIABLES
  2
AcDbRasterVariables
  3
ISM
 90
0
 91
1
280
0
281
0
  0
CLASS
  1
IMAGEDEF
  2
AcDbRasterImageDef
  3
ISM
 90
0
 91
1
280
0
281
0
  0
CLASS
  1
IMAGEDEF_REACTOR
  2
AcDbRasterImageDefReactor
  3
ISM
 90
0
 91
1
280
0
281
0
  0
CLASS
  1
IMAGE
  2
AcDbRasterImage
  3
ISM
 90
127
 91
1
280
0
281
1
  0
CLASS
  1
TABLESTYLE
  2
AcDbTableStyle
  3
ObjectDBX Classes
 90
2047
 91
1
280
0
281
0
  0
CLASS
  1
ACAD_TABLE
  2
AcDbTable
  3
ObjectDBX Classes
 90
1025
 91
3
280
0
281
1
  0
ENDSEC
  0
SECTION
  2
TABLES
  0
TABLE
  2
VPORT
  5
8
100
AcDbSymbolTable
 70
2
  0
VPORT
  5
1F4
100
AcDbSymbolTableRecord
100
AcDbViewportTableRecord
  2
*ACTIVE
 70
0
 10
0.0
 20
0.0
 11
1.0
 21
1.0
 12
11.0
 22
8.5
 13
0.0
 23
0.0
 14
1.0
 24
1.0
 15
0.0
 25
0.0
 16
0.0
 26
0.0
 36
1.0
 17
0.0
 27
0.0
 37
0.0
 40
17.0
 41
1.2941176471
 42
50.0
 43
0.0
 44
0.0
 50
0.0
 51
0.0
 71
0
 72
100
 73
1
 74
1
 75
0
 76
0
 77
0
 78
0
  0
ENDTAB
  0
TABLE
  2
LTYPE
  5
5
100
AcDbSymbolTable
 70
6
  0
LTYPE
  5
14
100
AcDbSymbolTableRecord
100
AcDbLinetypeTableRecord
  2
BYBLOCK
 70
0
  3

 72
65
 73
0
 40
0.0
  0
LTYPE
  5
15
100
AcDbSymbolTableRecord
100
AcDbLinetypeTableRecord
  2
BYLAYER
 70
0
  3

 72
65
 73
0
 40
0.0
  0
LTYPE
  5
16
100
AcDbSymbolTableRecord
100
AcDbLinetypeTableRecord
  2
CONTINUOUS
 70
64
  3
Solid line
 72
65
 73
0
 40
0.0
  0
LTYPE
  5
1F5
100
AcDbSymbolTableRecord
100
AcDbLinetypeTableRecord
  2
CENTER
 70
64
  3
____ _ ____ _ ____ _ ____ _ ____ _ ____ _ ____
 72
65
 73
4
 40
0.6
 49
0.375
 74
0
 49
-0.075
 74
0
 49
0.075
 74
0
 49
-0.075
 74
0
  0
LTYPE
  5
1F6
100
AcDbSymbolTableRecord
100
AcDbLinetypeTableRecord
  2
HIDDEN
 70
64
  3
- - - - - - - - - - - - - - - - - - - -
 72
65
 73
2
 40
0.2
 49
0.1
 74
0
 49
-0.1
 74
0
  0
LTYPE
  5
1F7
100
AcDbSymbolTableRecord
100
AcDbLinetypeTableRecord
  2
PHANTOM
 70
64
  3
_____ _ _ _____ _ _ _____ _ _ _____
 72
65
 73
6
 40
0.8
 49
0.45
 74
0
 49
-0.05
 74
0
 49
0.1
 74
0
 49
-0.05
 74
0
 49
0.1
 74
0
 49
-0.05
 74
0
  0
LTYPE
  5
1F8
100
AcDbSymbolTableRecord
100
AcDbLinetypeTableRecord
  2
DOT
 70
64
  3
. . . . . . . . . . . . . . . . . . . .
 72
65
 73
2
 40
0.2
 49
0.1
 74
0
 49
-0.1
 74
0
  0
LTYPE
  5
1F9
100
AcDbSymbolTableRecord
100
AcDbLinetypeTableRecord
  2
DASHED
 70
64
  3
- - - - - - - - - - - - - - - - - - - -
 72
65
 73
2
 40
0.2
 49
0.1
 74
0
 49
-0.1
 74
0
  0
ENDTAB
  0
TABLE
  2
LAYER
  5
2
100
AcDbSymbolTable
 70
36
  0
LAYER
  5
10
100
AcDbSymbolTableRecord
100
AcDbLayerTableRecord
  2
0
 70
0
 62
7
  6
CONTINUOUS
370
-3
390
F
  0
LAYER
  5
1FA
100
AcDbSymbolTableRecord
100
AcDbLayerTableRecord
  2
DEFAULT_1
 70
0
 62
7
  6
CENTER
370
-3
390
F
  0
LAYER
  5
1FB
100
AcDbSymbolTableRecord
100
AcDbLayerTableRecord
  2
DEFAULT_2
 70
0
 62
8
  6
HIDDEN
370
-3
390
F
  0
LAYER
  5
1FC
100
AcDbSymbolTableRecord
100
AcDbLayerTableRecord
  2
DEFAULT_3
 70
0
 62
7
  6
PHANTOM
370
-3
390
F
  0
LAYER
  5
1FD
100
AcDbSymbolTableRecord
100
AcDbLayerTableRecord
  2
01___PRT_ALL_DTM_PLN
 70
0
 62
7
  6
CONTINUOUS
370
-3
390
F
  0
LAYER
  5
1FE
100
AcDbSymbolTableRecord
100
AcDbLayerTableRecord
  2
01___PRT_DEF_DTM_PLN
 70
0
 62
7
  6
CONTINUOUS
370
-3
390
F
  0
LAYER
  5
1FF
100
AcDbSymbolTableRecord
100
AcDbLayerTableRecord
  2
02___PRT_ALL_AXES
 70
0
 62
7
  6
CONTINUOUS
370
-3
390
F
  0
LAYER
  5
200
100
AcDbSymbolTableRecord
100
AcDbLayerTableRecord
  2
03___PRT_ALL_CURVES
 70
0
 62
7
  6
CONTINUOUS
370
-3
390
F
  0
LAYER
  5
201
100
AcDbSymbolTableRecord
100
AcDbLayerTableRecord
  2
04___PRT_ALL_DTM_PNT
 70
0
 62
7
  6
CONTINUOUS
370
-3
390
F
  0
LAYER
  5
202
100
AcDbSymbolTableRecord
100
AcDbLayerTableRecord
  2
05___PRT_ALL_DTM_CSYS
 70
0
 62
7
  6
CONTINUOUS
370
-3
390
F
  0
LAYER
  5
203
100
AcDbSymbolTableRecord
100
AcDbLayerTableRecord
  2
05___PRT_DEF_DTM_CSYS
 70
0
 62
7
  6
CONTINUOUS
370
-3
390
F
  0
LAYER
  5
204
100
AcDbSymbolTableRecord
100
AcDbLayerTableRecord
  2
06___PRT_ALL_SURFS
 70
0
 62
7
  6
CONTINUOUS
370
-3
390
F
  0
LAYER
  5
205
100
AcDbSymbolTableRecord
100
AcDbLayerTableRecord
  2
DATUM_PLANES
 70
0
 62
7
  6
CONTINUOUS
370
-3
390
F
  0
LAYER
  5
206
100
AcDbSymbolTableRecord
100
AcDbLayerTableRecord
  2
PORT_AREAS
 70
0
 62
7
  6
CONTINUOUS
370
-3
390
F
  0
LAYER
  5
207
100
AcDbSymbolTableRecord
100
AcDbLayerTableRecord
  2
SUNNBOMCOSMETIC
 70
0
 62
7
  6
CONTINUOUS
370
-3
390
F
  0
LAYER
  5
208
100
AcDbSymbolTableRecord
100
AcDbLayerTableRecord
  2
SUNNBOMSTAMPING
 70
0
 62
7
  6
CONTINUOUS
370
-3
390
F
  0
LAYER
  5
209
100
AcDbSymbolTableRecord
100
AcDbLayerTableRecord
  2
THREADS
 70
0
 62
7
  6
CONTINUOUS
370
-3
390
F
  0
ENDTAB
  0
TABLE
  2
STYLE
  5
3
100
AcDbSymbolTable
 70
1
  0
STYLE
  5
11
100
AcDbSymbolTableRecord
100
AcDbTextStyleTableRecord
  2
STANDARD
 70
0
 40
0.0
 41
0.8
 50
0.0
 71
0
 42
0.2
  3
txt
  4

  0
STYLE
  5
20A
100
AcDbSymbolTableRecord
100
AcDbTextStyleTableRecord
  2
TEXTSTYLE_1
 70
0
 40
0.0
 41
0.8
 50
0.0
 71
0
 42
0.2
  3
gdt
  4

  0
ENDTAB
  0
TABLE
  2
VIEW
  5
6
100
AcDbSymbolTable
 70
0
  0
ENDTAB
  0
TABLE
  2
UCS
  5
7
100
AcDbSymbolTable
 70
0
  0
ENDTAB
  0
TABLE
  2
APPID
  5
9
100
AcDbSymbolTable
 70
1
  0
APPID
  5
20B
100
AcDbSymbolTableRecord
100
AcDbRegAppTableRecord
  2
ACAD
 70
0
  0
ENDTAB
  0
TABLE
  2
BLOCK_RECORD
  5
1
100
AcDbSymbolTable
 70
0
  0
BLOCK_RECORD
  5
20C
100
AcDbSymbolTableRecord
100
AcDbBlockTableRecord
  2
*Model_Space
  0
BLOCK_RECORD
  5
20D
100
AcDbSymbolTableRecord
100
AcDbBlockTableRecord
  2
*Paper_Space
  0
BLOCK_RECORD
  5
20E
100
AcDbSymbolTableRecord
100
AcDbBlockTableRecord
  2
SUN_FIRST_THIRD_ANGLE_BL0
  0
BLOCK_RECORD
  5
20F
100
AcDbSymbolTableRecord
100
AcDbBlockTableRecord
  2
*T1
  0
BLOCK_RECORD
  5
210
100
AcDbSymbolTableRecord
100
AcDbBlockTableRecord
  2
*T2
  0
BLOCK_RECORD
  5
211
100
AcDbSymbolTableRecord
100
AcDbBlockTableRecord
  2
*T3
  0
ENDTAB
  0
TABLE
  2
DIMSTYLE
  5
A
100
AcDbSymbolTable
 70
1
100
AcDbDimStyleTable
 71
0
  0
DIMSTYLE
105
212
100
AcDbSymbolTableRecord
100
AcDbDimStyleTableRecord
  2
STANDARD
 70
0
  3

  4

 40
1.0
 41
0.1875
 42
0.0625
 43
0.38
 44
0.125
 45
0.0
 46
0.0
 47
0.001
 48
0.001
140
0.1
141
0.09
142
0.0
143
25.4
144
1.0
145
0.0
146
1.0
147
0.09
 71
0.0
 72
0.0
 73
1
 74
1
 75
0
 76
0
 77
0
 78
4
170
0
171
2
172
0
173
0
174
0
175
0
176
0
177
0
178
0
270
2
271
3
272
3
273
2
274
2
275
0
280
0
281
0
282
0
283
1
284
4
285
0
286
0
287
3
288
0
340
11
278
46
  0
ENDTAB
  0
ENDSEC
  0
SECTION
  2
BLOCKS
  0
BLOCK
  5
20
100
AcDbEntity
  8
0
100
AcDbBlockBegin
  2
*Model_Space
 70
0
 10
0.0
 20
0.0
 30
0.0
  3
*Model_Space
  1

  0
ENDBLK
  5
21
100
AcDbEntity
  8
0
100
AcDbBlockEnd
  0
BLOCK
  5
1C
100
AcDbEntity
  8
0
100
AcDbBlockBegin
  2
*Paper_Space
 70
0
 10
0.0
 20
0.0
 30
0.0
  3
*Paper_Space
  1

  0
ENDBLK
  5
1D
100
AcDbEntity
  8
0
100
AcDbBlockEnd
  0
BLOCK
  5
213
100
AcDbEntity
  8
0
100
AcDbBlockBegin
 62
2
  6
CONTINUOUS
  2
SUN_FIRST_THIRD_ANGLE_BL0
 70
64
 10
20.4816717061
 20
1.2289683772
  3
SUN_FIRST_THIRD_ANGLE_BL0
  1

  0
TEXT
  5
214
100
AcDbEntity
  8
0
100
AcDbText
 62
2
  6
CONTINUOUS
 10
19.4750896608
 20
1.4136269581
  7
STANDARD
 40
0.08
  1
FIRST ANGLE
 41
0.8
 72
0
100
AcDbText
  0
TEXT
  5
215
100
AcDbEntity
  8
0
100
AcDbText
 62
2
  6
CONTINUOUS
 10
20.7842537513
 20
1.4047600029
  7
STANDARD
 40
0.08
  1
THIRD ANGLE
 41
0.8
 72
0
100
AcDbText
  0
LINE
  5
216
100
AcDbEntity
  8
0
100
AcDbLine
 62
7
  6
CONTINUOUS
 10
19.4767170086
 20
1.1727031207
 11
19.6334271527
 21
1.1717972817
  0
LINE
  5
217
100
AcDbEntity
  8
0
100
AcDbLine
 62
7
  6
CONTINUOUS
 10
19.6596964832
 20
1.1717972817
 11
19.6950230232
 21
1.171593082
  0
LINE
  5
218
100
AcDbEntity
  8
0
100
AcDbLine
 62
7
  6
CONTINUOUS
 10
19.7194818561
 20
1.1708914427
 11
19.8852396156
 21
1.1699333054
  0
LINE
  5
219
100
AcDbEntity
  8
0
100
AcDbLine
 62
7
  6
CONTINUOUS
 10
19.4758111696
 20
1.2723454088
 11
19.88525039
 21
1.3511534004
  0
LINE
  5
21A
100
AcDbEntity
  8
0
100
AcDbLine
 62
7
  6
CONTINUOUS
 10
19.88525039
 20
1.3511534004
 11
19.8831348489
 21
0.9851647912
  0
LINE
  5
21B
100
AcDbEntity
  8
0
100
AcDbLine
 62
7
  6
CONTINUOUS
 10
19.8831348489
 20
0.9851647912
 11
19.4767170086
 21
1.0658141206
  0
LINE
  5
21C
100
AcDbEntity
  8
0
100
AcDbLine
 62
7
  6
CONTINUOUS
 10
19.4767170086
 20
1.0658141206
 11
19.4779056764
 21
1.2714536432
  0
CIRCLE
  5
21D
100
AcDbEntity
  8
0
100
AcDbCircle
 62
7
  6
CONTINUOUS
 10
20.2068232291
 20
1.1717972817
 40
0.175742101
  0
CIRCLE
  5
21E
100
AcDbEntity
  8
0
100
AcDbCircle
 62
7
  6
CONTINUOUS
 10
20.2068232291
 20
1.1717972817
 40
0.1005522074
  0
LINE
  5
21F
100
AcDbEntity
  8
0
100
AcDbLine
 62
7
  6
CONTINUOUS
 10
20.2077290681
 20
1.3756110529
 11
20.2071171714
 21
1.2379342989
  0
LINE
  5
220
100
AcDbEntity
  8
0
100
AcDbLine
 62
7
  6
CONTINUOUS
 10
20.2077290681
 20
1.2016899681
 11
20.2074674401
 21
1.1428236749
  0
LINE
  5
221
100
AcDbEntity
  8
0
100
AcDbLine
 62
7
  6
CONTINUOUS
 10
20.208634907
 20
1.101141841
 11
20.2080230104
 21
0.963465087
  0
LINE
  5
222
100
AcDbEntity
  8
0
100
AcDbLine
 62
7
  6
CONTINUOUS
 10
20.0066328138
 20
1.1745147986
 11
20.1443095678
 21
1.1739029019
  0
LINE
  5
223
100
AcDbEntity
  8
0
100
AcDbLine
 62
7
  6
CONTINUOUS
 10
20.1832714155
 20
1.1727031207
 11
20.238153505
 21
1.172335442
  0
LINE
  5
224
100
AcDbEntity
  8
0
100
AcDbLine
 62
7
  6
CONTINUOUS
 10
20.2756669918
 20
1.1717972817
 11
20.407916871
 21
1.1712095044
  0
CIRCLE
  5
225
100
AcDbEntity
  8
0
100
AcDbCircle
 62
7
  6
CONTINUOUS
 10
20.7509457401
 20
1.1693297793
 40
0.1722024983
  0
CIRCLE
  5
226
100
AcDbEntity
  8
0
100
AcDbCircle
 62
7
  6
CONTINUOUS
 10
20.7509457401
 20
1.1693297793
 40
0.0985164967
  0
LINE
  5
227
100
AcDbEntity
  8
0
100
AcDbLine
 62
7
  6
CONTINUOUS
 10
20.7169767782
 20
1.170462078
 11
20.7825395137
 21
1.1682766535
  0
LINE
  5
228
100
AcDbEntity
  8
0
100
AcDbLine
 62
7
  6
CONTINUOUS
 10
20.8177513651
 20
1.1693297793
 11
20.947965719
 21
1.1693297793
  0
LINE
  5
229
100
AcDbEntity
  8
0
100
AcDbLine
 62
7
  6
CONTINUOUS
 10
20.6875370113
 20
1.170462078
 11
20.5573226574
 21
1.170462078
  0
LINE
  5
22A
100
AcDbEntity
  8
0
100
AcDbLine
 62
7
  6
CONTINUOUS
 10
20.7486811426
 20
1.1987695462
 11
20.7486811426
 21
1.1432869085
  0
LINE
  5
22B
100
AcDbEntity
  8
0
100
AcDbLine
 62
7
  6
CONTINUOUS
 10
20.7498134414
 20
1.1059210505
 11
20.7498134414
 21
0.9757066966
  0
LINE
  5
22C
100
AcDbEntity
  8
0
100
AcDbLine
 62
7
  6
CONTINUOUS
 10
20.7486811426
 20
1.2338708068
 11
20.7486811426
 21
1.3640851607
  0
LINE
  5
22D
100
AcDbEntity
  8
0
100
AcDbLine
 62
7
  6
CONTINUOUS
 10
21.0702539817
 20
1.2701043662
 11
21.4790138229
 21
1.3448360823
  0
LINE
  5
22E
100
AcDbEntity
  8
0
100
AcDbLine
 62
7
  6
CONTINUOUS
 10
21.4790138229
 20
1.3448360823
 11
21.4790138229
 21
0.9779712941
  0
LINE
  5
22F
100
AcDbEntity
  8
0
100
AcDbLine
 62
7
  6
CONTINUOUS
 10
21.4790138229
 20
0.9779712941
 11
21.069121683
 21
1.0617614
  0
LINE
  5
230
100
AcDbEntity
  8
0
100
AcDbLine
 62
7
  6
CONTINUOUS
 10
21.0702539817
 20
1.2701043662
 11
21.069121683
 21
1.0617614
  0
LINE
  5
231
100
AcDbEntity
  8
0
100
AcDbLine
 62
7
  6
CONTINUOUS
 10
21.4790138229
 20
1.1693297793
 11
21.3159628059
 21
1.1693297793
  0
LINE
  5
232
100
AcDbEntity
  8
0
100
AcDbLine
 62
7
  6
CONTINUOUS
 10
21.2876553377
 20
1.1693297793
 11
21.2502894796
 21
1.1693297793
  0
LINE
  5
233
100
AcDbEntity
  8
0
100
AcDbLine
 62
7
  6
CONTINUOUS
 10
21.2208497126
 20
1.1659328831
 11
21.0713862804
 21
1.1659328831
  0
LINE
  5
234
100
AcDbEntity
  8
0
100
AcDbLine
 62
7
  6
CONTINUOUS
 10
20.4796138713
 20
1.5284908897
 11
20.4766766948
 21
0.9294458646
  0
ENDBLK
  5
235
100
AcDbEntity
  8
0
  6
BYBLOCK
 62
0
100
AcDbBlockEnd
  0
BLOCK
  5
236
100
AcDbEntity
  8
0
100
AcDbBlockBegin
  2
*T1
 70
1
 10
0.0
 20
0.0
  3
*T1
  1

  0
LINE
  5
237
100
AcDbEntity
  8
0
100
AcDbLine
 62
2
  6
CONTINUOUS
 10
9.275
 20
0.0
 11
-0.0
 21
0.0
  0
LINE
  5
238
100
AcDbEntity
  8
0
100
AcDbLine
 62
2
  6
CONTINUOUS
 10
9.275
 20
0.0
 11
9.275
 21
1.25
  0
LINE
  5
239
100
AcDbEntity
  8
0
100
AcDbLine
 62
2
  6
CONTINUOUS
 10
9.275
 20
0.625
 11
-0.0
 21
0.625
  0
LINE
  5
23A
100
AcDbEntity
  8
0
100
AcDbLine
 62
2
  6
CONTINUOUS
 10
9.275
 20
1.25
 11
-0.0
 21
1.25
  0
LINE
  5
23B
100
AcDbEntity
  8
0
100
AcDbLine
 62
2
  6
CONTINUOUS
 10
6.8
 20
0.0
 11
6.8
 21
1.25
  0
LINE
  5
23C
100
AcDbEntity
  8
0
100
AcDbLine
 62
2
  6
CONTINUOUS
 10
6.4
 20
0.0
 11
6.4
 21
0.625
  0
LINE
  5
23D
100
AcDbEntity
  8
0
100
AcDbLine
 62
2
  6
CONTINUOUS
 10
5.9
 20
0.0
 11
5.9
 21
0.625
  0
LINE
  5
23E
100
AcDbEntity
  8
0
100
AcDbLine
 62
2
  6
CONTINUOUS
 10
5.2
 20
0.0
 11
5.2
 21
0.625
  0
LINE
  5
23F
100
AcDbEntity
  8
0
100
AcDbLine
 62
2
  6
CONTINUOUS
 10
4.1
 20
0.0
 11
4.1
 21
1.25
  0
LINE
  5
240
100
AcDbEntity
  8
0
100
AcDbLine
 62
2
  6
CONTINUOUS
 10
-0.0
 20
0.0
 11
-0.0
 21
1.25
  0
MTEXT
  5
241
100
AcDbEntity
  8
0
100
AcDbMText
 62
2
  6
CONTINUOUS
  7
STANDARD
 71
2
 72
1
 10
6.6
 20
0.325
 30
0.0
 11
1.0
 21
0.0
 31
0.0
 44
0.9
  1
2
 40
0.125
 41
0.2
  0
MTEXT
  5
242
100
AcDbEntity
  8
0
100
AcDbMText
 62
2
  6
CONTINUOUS
  7
STANDARD
 71
2
 72
1
 10
6.15
 20
0.325
 30
0.0
 11
1.0
 21
0.0
 31
0.0
 44
0.9
  1
C
 40
0.125
 41
0.2
  0
MTEXT
  5
243
100
AcDbEntity
  8
0
100
AcDbMText
 62
2
  6
CONTINUOUS
  7
STANDARD
 71
2
 72
1
 10
5.55
 20
0.325
 30
0.0
 11
1.0
 21
0.0
 31
0.0
 44
0.9
  1
1.000
 40
0.125
 41
1.0
  0
MTEXT
  5
244
100
AcDbEntity
  8
0
100
AcDbMText
 62
2
  6
CONTINUOUS
  7
STANDARD
 71
2
 72
1
 10
4.65
 20
0.325
 30
0.0
 11
1.0
 21
0.0
 31
0.0
 44
0.9
  1
May-10-22
 40
0.125
 41
1.8
  0
MTEXT
  5
245
100
AcDbEntity
  8
0
100
AcDbMText
 62
2
  6
CONTINUOUS
  7
STANDARD
 71
2
 72
1
 10
2.05
 20
0.4625
 30
0.0
 11
1.0
 21
0.0
 31
0.0
 44
0.9
  1
T-16A Line mount\PCross port with make up checks
 40
0.125
 41
6.0
  0
MTEXT
  5
246
100
AcDbEntity
  8
0
100
AcDbMText
 62
2
  6
CONTINUOUS
  7
STANDARD
 71
1
 72
1
 10
6.45
 20
0.5625
 30
0.0
 11
1.0
 21
0.0
 31
0.0
 44
0.9
  1
SHEET
 40
0.06
 41
0.48
  0
MTEXT
  5
247
100
AcDbEntity
  8
0
100
AcDbMText
 62
2
  6
CONTINUOUS
  7
STANDARD
 71
1
 72
1
 10
5.95
 20
0.5625
 30
0.0
 11
1.0
 21
0.0
 31
0.0
 44
0.9
  1
DWG SIZE
 40
0.06
 41
0.768
  0
MTEXT
  5
248
100
AcDbEntity
  8
0
100
AcDbMText
 62
2
  6
CONTINUOUS
  7
STANDARD
 71
1
 72
1
 10
5.25
 20
0.5625
 30
0.0
 11
1.0
 21
0.0
 31
0.0
 44
0.9
  1
SCALE
 40
0.06
 41
0.48
  0
MTEXT
  5
249
100
AcDbEntity
  8
0
100
AcDbMText
 62
2
  6
CONTINUOUS
  7
STANDARD
 71
1
 72
1
 10
4.15
 20
0.5625
 30
0.0
 11
1.0
 21
0.0
 31
0.0
 44
0.9
  1
DATE
 40
0.06
 41
0.384
  0
MTEXT
  5
24A
100
AcDbEntity
  8
0
100
AcDbMText
 62
2
  6
CONTINUOUS
  7
STANDARD
 71
1
 72
1
 10
0.05
 20
0.5625
 30
0.0
 11
1.0
 21
0.0
 31
0.0
 44
0.9
  1
DESCRIPTION
 40
0.06
 41
1.056
  0
MTEXT
  5
24B
100
AcDbEntity
  8
0
100
AcDbMText
 62
2
  6
CONTINUOUS
  7
STANDARD
 71
2
 72
1
 10
5.45
 20
1.0375
 30
0.0
 11
1.0
 21
0.0
 31
0.0
 44
0.9
  1
ALL DIMENSIONS IN INCH\PVIEWS ARE THIRD ANGLE
 40
0.12
 41
4.224
  0
MTEXT
  5
24C
100
AcDbEntity
  8
0
100
AcDbMText
 62
2
  6
CONTINUOUS
  7
STANDARD
 71
2
 72
1
 10
2.05
 20
0.95
 30
0.0
 11
1.0
 21
0.0
 31
0.0
 44
0.9
  1
IMX
 40
0.125
 41
0.6
  0
MTEXT
  5
24D
100
AcDbEntity
  8
0
100
AcDbMText
 62
2
  6
CONTINUOUS
  7
STANDARD
 71
1
 72
1
 10
0.05
 20
1.1875
 30
0.0
 11
1.0
 21
0.0
 31
0.0
 44
0.9
  1
MODEL
 40
0.06
 41
0.48
  0
ENDBLK
  5
24E
100
AcDbEntity
  8
0
  6
BYBLOCK
 62
0
100
AcDbBlockEnd
  0
BLOCK
  5
24F
100
AcDbEntity
  8
0
100
AcDbBlockBegin
  2
*T2
 70
1
 10
0.0
 20
0.0
  3
*T2
  1

  0
LINE
  5
250
100
AcDbEntity
  8
0
100
AcDbLine
 62
2
  6
CONTINUOUS
 10
0.0
 20
0.0
 11
9.055
 21
0.0
  0
LINE
  5
251
100
AcDbEntity
  8
0
100
AcDbLine
 62
2
  6
CONTINUOUS
 10
0.0
 20
0.0
 11
0.0
 21
-2.844
  0
LINE
  5
252
100
AcDbEntity
  8
0
100
AcDbLine
 62
2
  6
CONTINUOUS
 10
0.0
 20
-0.344
 11
9.055
 21
-0.344
  0
LINE
  5
253
100
AcDbEntity
  8
0
100
AcDbLine
 62
2
  6
CONTINUOUS
 10
0.0
 20
-0.594
 11
9.055
 21
-0.594
  0
LINE
  5
254
100
AcDbEntity
  8
0
100
AcDbLine
 62
2
  6
CONTINUOUS
 10
0.0
 20
-0.844
 11
9.055
 21
-0.844
  0
LINE
  5
255
100
AcDbEntity
  8
0
100
AcDbLine
 62
2
  6
CONTINUOUS
 10
0.0
 20
-1.094
 11
9.055
 21
-1.094
  0
LINE
  5
256
100
AcDbEntity
  8
0
100
AcDbLine
 62
2
  6
CONTINUOUS
 10
0.0
 20
-1.344
 11
9.055
 21
-1.344
  0
LINE
  5
257
100
AcDbEntity
  8
0
100
AcDbLine
 62
2
  6
CONTINUOUS
 10
0.0
 20
-1.594
 11
9.055
 21
-1.594
  0
LINE
  5
258
100
AcDbEntity
  8
0
100
AcDbLine
 62
2
  6
CONTINUOUS
 10
0.0
 20
-1.844
 11
9.055
 21
-1.844
  0
LINE
  5
259
100
AcDbEntity
  8
0
100
AcDbLine
 62
2
  6
CONTINUOUS
 10
0.0
 20
-2.094
 11
9.055
 21
-2.094
  0
LINE
  5
25A
100
AcDbEntity
  8
0
100
AcDbLine
 62
2
  6
CONTINUOUS
 10
0.0
 20
-2.344
 11
9.055
 21
-2.344
  0
LINE
  5
25B
100
AcDbEntity
  8
0
100
AcDbLine
 62
2
  6
CONTINUOUS
 10
0.0
 20
-2.594
 11
9.055
 21
-2.594
  0
LINE
  5
25C
100
AcDbEntity
  8
0
100
AcDbLine
 62
2
  6
CONTINUOUS
 10
0.0
 20
-2.844
 11
9.055
 21
-2.844
  0
LINE
  5
25D
100
AcDbEntity
  8
0
100
AcDbLine
 62
2
  6
CONTINUOUS
 10
3.055
 20
0.0
 11
3.055
 21
-2.844
  0
LINE
  5
25E
100
AcDbEntity
  8
0
100
AcDbLine
 62
2
  6
CONTINUOUS
 10
9.055
 20
0.0
 11
9.055
 21
-2.844
  0
MTEXT
  5
25F
100
AcDbEntity
  8
0
100
AcDbMText
 62
2
  6
CONTINUOUS
  7
STANDARD
 71
2
 72
1
 10
1.5275
 20
-0.0995
 30
0.0
 11
1.0
 21
0.0
 31
0.0
 44
0.9
  1
Technical Data
 40
0.145
 41
3.248
  0
MTEXT
  5
260
100
AcDbEntity
  8
0
100
AcDbMText
 62
2
  6
CONTINUOUS
  7
STANDARD
 71
2
 72
1
 10
4.555
 20
-0.0995
 30
0.0
 11
1.0
 21
0.0
 31
0.0
 44
0.9
  1
U.S. Units
 40
0.145
 41
2.32
  0
MTEXT
  5
261
100
AcDbEntity
  8
0
100
AcDbMText
 62
2
  6
CONTINUOUS
  7
STANDARD
 71
2
 72
1
 10
7.555
 20
-0.0995
 30
0.0
 11
1.0
 21
0.0
 31
0.0
 44
0.9
  1
Metric Units
 40
0.145
 41
2.784
  0
MTEXT
  5
262
100
AcDbEntity
  8
0
100
AcDbMText
 62
2
  6
CONTINUOUS
  7
STANDARD
 71
2
 72
1
 10
1.5275
 20
-0.4065
 30
0.0
 11
1.0
 21
0.0
 31
0.0
 44
0.9
  1
Cavity
 40
0.125
 41
1.2
  0
MTEXT
  5
263
100
AcDbEntity
  8
0
100
AcDbMText
 62
2
  6
CONTINUOUS
  7
STANDARD
 71
2
 72
1
 10
6.055
 20
-0.4065
 30
0.0
 11
1.0
 21
0.0
 31
0.0
 44
0.9
  1
T-16A
 40
0.125
 41
1.0
  0
MTEXT
  5
264
100
AcDbEntity
  8
0
100
AcDbMText
 62
2
  6
CONTINUOUS
  7
STANDARD
 71
2
 72
1
 10
1.5275
 20
-0.6565
 30
0.0
 11
1.0
 21
0.0
 31
0.0
 44
0.9
  1
Body Features
 40
0.125
 41
2.6
  0
MTEXT
  5
265
100
AcDbEntity
  8
0
100
AcDbMText
 62
2
  6
CONTINUOUS
  7
STANDARD
 71
2
 72
1
 10
6.055
 20
-0.6565
 30
0.0
 11
1.0
 21
0.0
 31
0.0
 44
0.9
  1
Cross port with make up checks
 40
0.125
 41
6.0
  0
MTEXT
  5
266
100
AcDbEntity
  8
0
100
AcDbMText
 62
2
  6
CONTINUOUS
  7
STANDARD
 71
2
 72
1
 10
1.5275
 20
-0.9065
 30
0.0
 11
1.0
 21
0.0
 31
0.0
 44
0.9
  1
Body Type
 40
0.125
 41
1.8
  0
MTEXT
  5
267
100
AcDbEntity
  8
0
100
AcDbMText
 62
2
  6
CONTINUOUS
  7
STANDARD
 71
2
 72
1
 10
6.055
 20
-0.9065
 30
0.0
 11
1.0
 21
0.0
 31
0.0
 44
0.9
  1
Line mount
 40
0.125
 41
2.0
  0
MTEXT
  5
268
100
AcDbEntity
  8
0
100
AcDbMText
 62
2
  6
CONTINUOUS
  7
STANDARD
 71
2
 72
1
 10
1.5275
 20
-1.1565
 30
0.0
 11
1.0
 21
0.0
 31
0.0
 44
0.9
  1
Interface
 40
0.125
 41
1.8
  0
MTEXT
  5
269
100
AcDbEntity
  8
0
100
AcDbMText
 62
2
  6
CONTINUOUS
  7
STANDARD
 71
2
 72
1
 10
6.055
 20
-1.1565
 30
0.0
 11
1.0
 21
0.0
 31
0.0
 44
0.9
  1
None
 40
0.125
 41
0.8
  0
MTEXT
  5
26A
100
AcDbEntity
  8
0
100
AcDbMText
 62
2
  6
CONTINUOUS
  7
STANDARD
 71
2
 72
1
 10
1.5275
 20
-1.4065
 30
0.0
 11
1.0
 21
0.0
 31
0.0
 44
0.9
  1
Open Cavity Quantity
 40
0.125
 41
4.0
  0
MTEXT
  5
26B
100
AcDbEntity
  8
0
100
AcDbMText
 62
2
  6
CONTINUOUS
  7
STANDARD
 71
2
 72
1
 10
6.055
 20
-1.4065
 30
0.0
 11
1.0
 21
0.0
 31
0.0
 44
0.9
  1
2
 40
0.125
 41
0.2
  0
MTEXT
  5
26C
100
AcDbEntity
  8
0
100
AcDbMText
 62
2
  6
CONTINUOUS
  7
STANDARD
 71
2
 72
1
 10
1.5275
 20
-1.6565
 30
0.0
 11
1.0
 21
0.0
 31
0.0
 44
0.9
  1
Weight
 40
0.125
 41
1.2
  0
MTEXT
  5
26D
100
AcDbEntity
  8
0
100
AcDbMText
 62
2
  6
CONTINUOUS
  7
STANDARD
 71
2
 72
1
 10
4.555
 20
-1.6565
 30
0.0
 11
1.0
 21
0.0
 31
0.0
 44
0.9
  1
8.783 lb.
 40
0.125
 41
1.8
  0
MTEXT
  5
26E
100
AcDbEntity
  8
0
100
AcDbMText
 62
2
  6
CONTINUOUS
  7
STANDARD
 71
2
 72
1
 10
7.555
 20
-1.6565
 30
0.0
 11
1.0
 21
0.0
 31
0.0
 44
0.9
  1
3,984 kg.
 40
0.125
 41
1.8
  0
MTEXT
  5
26F
100
AcDbEntity
  8
0
100
AcDbMText
 62
2
  6
CONTINUOUS
  7
STANDARD
 71
2
 72
1
 10
1.5275
 20
-1.9065
 30
0.0
 11
1.0
 21
0.0
 31
0.0
 44
0.9
  1
Mounting Hole Diameter
 40
0.125
 41
4.4
  0
MTEXT
  5
270
100
AcDbEntity
  8
0
100
AcDbMText
 62
2
  6
CONTINUOUS
  7
STANDARD
 71
2
 72
1
 10
4.555
 20
-1.9065
 30
0.0
 11
1.0
 21
0.0
 31
0.0
 44
0.9
  1
.42 in.
 40
0.125
 41
1.4
  0
MTEXT
  5
271
100
AcDbEntity
  8
0
100
AcDbMText
 62
2
  6
CONTINUOUS
  7
STANDARD
 71
2
 72
1
 10
7.555
 20
-1.9065
 30
0.0
 11
1.0
 21
0.0
 31
0.0
 44
0.9
  1
10,7 mm
 40
0.125
 41
1.4
  0
MTEXT
  5
272
100
AcDbEntity
  8
0
100
AcDbMText
 62
2
  6
CONTINUOUS
  7
STANDARD
 71
2
 72
1
 10
1.5275
 20
-2.1565
 30
0.0
 11
1.0
 21
0.0
 31
0.0
 44
0.9
  1
Mounting Hole Depth
 40
0.125
 41
3.8
  0
MTEXT
  5
273
100
AcDbEntity
  8
0
100
AcDbMText
 62
2
  6
CONTINUOUS
  7
STANDARD
 71
2
 72
1
 10
6.055
 20
-2.1565
 30
0.0
 11
1.0
 21
0.0
 31
0.0
 44
0.9
  1
Through
 40
0.125
 41
1.4
  0
MTEXT
  5
274
100
AcDbEntity
  8
0
100
AcDbMText
 62
2
  6
CONTINUOUS
  7
STANDARD
 71
2
 72
1
 10
1.5275
 20
-2.4065
 30
0.0
 11
1.0
 21
0.0
 31
0.0
 44
0.9
  1
Mounting Hole Quantity
 40
0.125
 41
4.4
  0
MTEXT
  5
275
100
AcDbEntity
  8
0
100
AcDbMText
 62
2
  6
CONTINUOUS
  7
STANDARD
 71
2
 72
1
 10
6.055
 20
-2.4065
 30
0.0
 11
1.0
 21
0.0
 31
0.0
 44
0.9
  1
2
 40
0.125
 41
0.2
  0
MTEXT
  5
276
100
AcDbEntity
  8
0
100
AcDbMText
 62
2
  6
CONTINUOUS
  7
STANDARD
 71
2
 72
1
 10
1.5275
 20
-2.6565
 30
0.0
 11
1.0
 21
0.0
 31
0.0
 44
0.9
  1
Includes integral cartridge(s)
 40
0.125
 41
6.0
  0
MTEXT
  5
277
100
AcDbEntity
  8
0
100
AcDbMText
 62
2
  6
CONTINUOUS
  7
STANDARD
 71
2
 72
1
 10
6.055
 20
-2.6565
 30
0.0
 11
1.0
 21
0.0
 31
0.0
 44
0.9
  1
Yes (see Included Components)
 40
0.125
 41
5.8
  0
ENDBLK
  5
278
100
AcDbEntity
  8
0
  6
BYBLOCK
 62
0
100
AcDbBlockEnd
  0
BLOCK
  5
279
100
AcDbEntity
  8
0
100
AcDbBlockBegin
  2
*T3
 70
1
 10
0.0
 20
0.0
  3
*T3
  1

  0
LINE
  5
27A
100
AcDbEntity
  8
0
100
AcDbLine
 62
2
  6
CONTINUOUS
 10
0.0
 20
0.0
 11
4.6
 21
0.0
  0
LINE
  5
27B
100
AcDbEntity
  8
0
100
AcDbLine
 62
2
  6
CONTINUOUS
 10
0.0
 20
0.0
 11
0.0
 21
-0.93775
  0
LINE
  5
27C
100
AcDbEntity
  8
0
100
AcDbLine
 62
2
  6
CONTINUOUS
 10
0.0
 20
-0.34375
 11
4.6
 21
-0.34375
  0
LINE
  5
27D
100
AcDbEntity
  8
0
100
AcDbLine
 62
2
  6
CONTINUOUS
 10
0.0
 20
-0.68775
 11
4.6
 21
-0.68775
  0
LINE
  5
27E
100
AcDbEntity
  8
0
100
AcDbLine
 62
2
  6
CONTINUOUS
 10
0.0
 20
-0.93775
 11
4.6
 21
-0.93775
  0
LINE
  5
27F
100
AcDbEntity
  8
0
100
AcDbLine
 62
2
  6
CONTINUOUS
 10
1.3
 20
-0.34375
 11
1.3
 21
-0.93775
  0
LINE
  5
280
100
AcDbEntity
  8
0
100
AcDbLine
 62
2
  6
CONTINUOUS
 10
3.3
 20
-0.34375
 11
3.3
 21
-0.93775
  0
LINE
  5
281
100
AcDbEntity
  8
0
100
AcDbLine
 62
2
  6
CONTINUOUS
 10
4.6
 20
0.0
 11
4.6
 21
-0.93775
  0
MTEXT
  5
282
100
AcDbEntity
  8
0
100
AcDbMText
 62
2
  6
CONTINUOUS
  7
STANDARD
 71
2
 72
1
 10
2.3
 20
-0.099375
 30
0.0
 11
1.0
 21
0.0
 31
0.0
 44
0.9
  1
Port Headings
 40
0.145
 41
3.016
  0
MTEXT
  5
283
100
AcDbEntity
  8
0
100
AcDbMText
 62
2
  6
CONTINUOUS
  7
STANDARD
 71
2
 72
1
 10
0.65
 20
-0.44325
 30
0.0
 11
1.0
 21
0.0
 31
0.0
 44
0.9
  1
Product
 40
0.145
 41
1.624
  0
MTEXT
  5
284
100
AcDbEntity
  8
0
100
AcDbMText
 62
2
  6
CONTINUOUS
  7
STANDARD
 71
2
 72
1
 10
2.3
 20
-0.44325
 30
0.0
 11
1.0
 21
0.0
 31
0.0
 44
0.9
  1
Port
 40
0.145
 41
0.928
  0
MTEXT
  5
285
100
AcDbEntity
  8
0
100
AcDbMText
 62
2
  6
CONTINUOUS
  7
STANDARD
 71
2
 72
1
 10
3.95
 20
-0.44325
 30
0.0
 11
1.0
 21
0.0
 31
0.0
 44
0.9
  1
Size
 40
0.145
 41
0.928
  0
MTEXT
  5
286
100
AcDbEntity
  8
0
100
AcDbMText
 62
2
  6
CONTINUOUS
  7
STANDARD
 71
2
 72
1
 10
0.65
 20
-0.75025
 30
0.0
 11
1.0
 21
0.0
 31
0.0
 44
0.9
  1
IMX
 40
0.125
 41
0.6
  0
MTEXT
  5
287
100
AcDbEntity
  8
0
100
AcDbMText
 62
2
  6
CONTINUOUS
  7
STANDARD
 71
2
 72
1
 10
2.3
 20
-0.75025
 30
0.0
 11
1.0
 21
0.0
 31
0.0
 44
0.9
  1
All Ports
 40
0.125
 41
1.8
  0
MTEXT
  5
288
100
AcDbEntity
  8
0
100
AcDbMText
 62
2
  6
CONTINUOUS
  7
STANDARD
 71
2
 72
1
 10
3.95
 20
-0.75025
 30
0.0
 11
1.0
 21
0.0
 31
0.0
 44
0.9
  1
1" BSPP
 40
0.125
 41
1.4
  0
ENDBLK
  5
289
100
AcDbEntity
  8
0
  6
BYBLOCK
 62
0
100
AcDbBlockEnd
  0
ENDSEC
  0
SECTION
  2
ENTITIES
  0
IMAGE
  5
28A
100
AcDbEntity
  8
0
100
AcDbRasterImage
 62
7
  6
CONTINUOUS
 10
19.2297077316
 20
0.3094318264
 30
0.0
 11
0.0066666667
 21
0.0
 31
0.0
 12
0.0
 22
0.0066666667
 32
0.0
 13
369.0
 23
92.0
340
       3BC
 70
9
280
0
281
50
282
50
283
0
360
       3B6
 71
1
 91
2
 14
-0.5
 24
-0.5
 14
368.5
 24
91.5
  0
INSERT
  5
28B
100
AcDbEntity
  8
0
100
AcDbBlockReference
 62
2
  6
CONTINUOUS
  2
SUN_FIRST_THIRD_ANGLE_BL0
 10
20.4816717061
 20
1.2289683772
  0
ACAD_TABLE
  5
28C
100
AcDbEntity
  8
0
 62
2
  6
CONTINUOUS
100
AcDbBlockReference
  2
*T1
 10
12.42375
 20
0.30125
 30
0.0
100
AcDbTable
342
       3BE
343
20F
 11
1.0
 21
0.0
 31
0.0
 90
6
 91
4
 92
6
 93
20
 94
0
 95
0
 96
0
 70
1
 41
0.0
141
0.525
141
0.1
141
0.525
141
0.1
142
4.1
142
1.1
142
0.7
142
0.5
142
0.4
142
2.475
171
1
172
0
173
0
174
0
175
1
176
1
 91
33
178
0
145
0.0
301
CELL_VALUE
 90
4
  1
T-16A Line mount\PCross port with make up checks
304
ACVALUE_END
170
2
140
0.125
171
1
172
0
173
0
174
0
175
1
176
1
 91
33
178
0
145
0.0
301
CELL_VALUE
 90
4
  1
May-10-22
304
ACVALUE_END
170
5
140
0.125
171
1
172
0
173
0
174
0
175
1
176
1
 91
33
178
0
145
0.0
301
CELL_VALUE
 90
4
  1
1.000
304
ACVALUE_END
170
5
140
0.125
171
1
172
0
173
0
174
0
175
1
176
1
 91
33
178
0
145
0.0
301
CELL_VALUE
 90
4
  1
C
304
ACVALUE_END
170
5
140
0.125
171
1
172
0
173
0
174
0
175
1
176
1
 91
33
178
0
145
0.0
301
CELL_VALUE
 90
4
  1
2
304
ACVALUE_END
170
5
140
0.125
171
1
172
0
173
0
174
0
175
1
176
1
 91
33
178
0
145
0.0
301
CELL_VALUE
 90
4
  1
 
304
ACVALUE_END
170
1
140
0.125
171
1
172
0
173
0
174
0
175
1
176
1
 91
33
178
0
145
0.0
301
CELL_VALUE
 90
4
  1
DESCRIPTION
304
ACVALUE_END
170
1
140
0.06
171
1
172
0
173
0
174
0
175
1
176
1
 91
33
178
0
145
0.0
301
CELL_VALUE
 90
4
  1
DATE
304
ACVALUE_END
170
1
140
0.06
171
1
172
0
173
0
174
0
175
1
176
1
 91
33
178
0
145
0.0
301
CELL_VALUE
 90
4
  1
SCALE
304
ACVALUE_END
170
1
140
0.06
171
1
172
0
173
0
174
0
175
1
176
1
 91
33
178
0
145
0.0
301
CELL_VALUE
 90
4
  1
DWG SIZE
304
ACVALUE_END
170
1
140
0.06
171
1
172
0
173
0
174
0
175
1
176
1
 91
33
178
0
145
0.0
301
CELL_VALUE
 90
4
  1
SHEET
304
ACVALUE_END
170
1
140
0.06
171
1
172
0
173
0
174
0
175
1
176
1
 91
33
178
0
145
0.0
301
CELL_VALUE
 90
4
  1
 
304
ACVALUE_END
170
1
140
0.125
171
1
172
0
173
0
174
0
175
1
176
1
 91
33
178
0
145
0.0
301
CELL_VALUE
 90
4
  1
IMX
304
ACVALUE_END
170
5
140
0.125
171
1
172
0
173
0
174
0
175
4
176
1
 91
33
178
0
145
0.0
301
CELL_VALUE
 90
4
  1
ALL DIMENSIONS IN INCH\PVIEWS ARE THIRD ANGLE
304
ACVALUE_END
170
5
140
0.12
171
1
172
0
173
1
174
0
175
1
176
1
 91
1
178
0
145
0.0
170
1
171
1
172
0
173
1
174
0
175
1
176
1
 91
1
178
0
145
0.0
170
1
171
1
172
0
173
1
174
0
175
1
176
1
 91
1
178
0
145
0.0
170
5
171
1
172
0
173
0
174
0
175
1
176
1
 91
33
178
0
145
0.0
301
CELL_VALUE
 90
4
  1
 
304
ACVALUE_END
170
1
140
0.125
171
1
172
0
173
0
174
0
175
1
176
1
 91
33
178
0
145
0.0
301
CELL_VALUE
 90
4
  1
MODEL
304
ACVALUE_END
170
1
140
0.06
171
1
172
0
173
0
174
0
175
1
176
1
 91
33
178
0
145
0.0
301
CELL_VALUE
 90
4
  1
 
304
ACVALUE_END
170
1
140
0.125
171
1
172
0
173
0
174
0
175
1
176
1
 91
33
178
0
145
0.0
301
CELL_VALUE
 90
4
  1
 
304
ACVALUE_END
170
1
140
0.125
171
1
172
0
173
0
174
0
175
1
176
1
 91
33
178
0
145
0.0
301
CELL_VALUE
 90
4
  1
 
304
ACVALUE_END
170
1
140
0.125
171
1
172
0
173
0
174
0
175
1
176
1
 91
33
178
0
145
0.0
301
CELL_VALUE
 90
4
  1
 
304
ACVALUE_END
170
1
140
0.125
171
1
172
0
173
0
174
0
175
1
176
1
 91
33
178
0
145
0.0
301
CELL_VALUE
 90
4
  1
 
304
ACVALUE_END
170
1
140
0.125
  0
ACAD_TABLE
  5
28D
100
AcDbEntity
  8
0
 62
2
  6
CONTINUOUS
100
AcDbBlockReference
  2
*T2
 10
12.4237499994
 20
16.47875
 30
0.0
100
AcDbTable
342
       3BD
343
210
 11
1.0
 21
0.0
 31
0.0
 90
22
 91
11
 92
3
 93
16
 94
0
 95
0
 96
0
 41
0.028
141
0.344
141
0.25
141
0.25
141
0.25
141
0.25
141
0.25
141
0.25
141
0.25
141
0.25
141
0.25
141
0.25
142
3.055
142
3.0
142
3.0
171
1
172
0
173
0
174
0
175
1
176
1
 91
33
178
0
145
0.0
301
CELL_VALUE
 90
4
  1
Technical Data
304
ACVALUE_END
170
5
140
0.145
171
1
172
0
173
0
174
0
175
1
176
1
 91
33
178
0
145
0.0
301
CELL_VALUE
 90
4
  1
U.S. Units
304
ACVALUE_END
170
5
140
0.145
171
1
172
0
173
0
174
0
175
1
176
1
 91
33
178
0
145
0.0
301
CELL_VALUE
 90
4
  1
Metric Units
304
ACVALUE_END
170
5
140
0.145
171
1
172
0
173
0
174
0
175
1
176
1
 91
33
178
0
145
0.0
301
CELL_VALUE
 90
4
  1
Cavity
304
ACVALUE_END
170
5
140
0.125
171
1
172
0
173
0
174
0
175
2
176
1
 91
33
178
0
145
0.0
301
CELL_VALUE
 90
4
  1
T-16A
304
ACVALUE_END
170
5
140
0.125
171
1
172
0
173
1
174
0
175
1
176
1
 91
1
178
0
145
0.0
170
1
171
1
172
0
173
0
174
0
175
1
176
1
 91
33
178
0
145
0.0
301
CELL_VALUE
 90
4
  1
Body Features
304
ACVALUE_END
170
5
140
0.125
171
1
172
0
173
0
174
0
175
2
176
1
 91
33
178
0
145
0.0
301
CELL_VALUE
 90
4
  1
Cross port with make up checks
304
ACVALUE_END
170
5
140
0.125
171
1
172
0
173
1
174
0
175
1
176
1
 91
1
178
0
145
0.0
170
1
171
1
172
0
173
0
174
0
175
1
176
1
 91
33
178
0
145
0.0
301
CELL_VALUE
 90
4
  1
Body Type
304
ACVALUE_END
170
5
140
0.125
171
1
172
0
173
0
174
0
175
2
176
1
 91
33
178
0
145
0.0
301
CELL_VALUE
 90
4
  1
Line mount
304
ACVALUE_END
170
5
140
0.125
171
1
172
0
173
1
174
0
175
1
176
1
 91
1
178
0
145
0.0
170
1
171
1
172
0
173
0
174
0
175
1
176
1
 91
33
178
0
145
0.0
301
CELL_VALUE
 90
4
  1
Interface
304
ACVALUE_END
170
5
140
0.125
171
1
172
0
173
0
174
0
175
2
176
1
 91
33
178
0
145
0.0
301
CELL_VALUE
 90
4
  1
None
304
ACVALUE_END
170
5
140
0.125
171
1
172
0
173
1
174
0
175
1
176
1
 91
1
178
0
145
0.0
170
1
171
1
172
0
173
0
174
0
175
1
176
1
 91
33
178
0
145
0.0
301
CELL_VALUE
 90
4
  1
Open Cavity Quantity
304
ACVALUE_END
170
5
140
0.125
171
1
172
0
173
0
174
0
175
2
176
1
 91
33
178
0
145
0.0
301
CELL_VALUE
 90
4
  1
2
304
ACVALUE_END
170
5
140
0.125
171
1
172
0
173
1
174
0
175
1
176
1
 91
1
178
0
145
0.0
170
1
171
1
172
0
173
0
174
0
175
1
176
1
 91
33
178
0
145
0.0
301
CELL_VALUE
 90
4
  1
Weight
304
ACVALUE_END
170
5
140
0.125
171
1
172
0
173
0
174
0
175
1
176
1
 91
33
178
0
145
0.0
301
CELL_VALUE
 90
4
  1
8.783 lb.
304
ACVALUE_END
170
5
140
0.125
171
1
172
0
173
0
174
0
175
1
176
1
 91
33
178
0
145
0.0
301
CELL_VALUE
 90
4
  1
3,984 kg.
304
ACVALUE_END
170
5
140
0.125
171
1
172
0
173
0
174
0
175
1
176
1
 91
33
178
0
145
0.0
301
CELL_VALUE
 90
4
  1
Mounting Hole Diameter
304
ACVALUE_END
170
5
140
0.125
171
1
172
0
173
0
174
0
175
1
176
1
 91
33
178
0
145
0.0
301
CELL_VALUE
 90
4
  1
.42 in.
304
ACVALUE_END
170
5
140
0.125
171
1
172
0
173
0
174
0
175
1
176
1
 91
33
178
0
145
0.0
301
CELL_VALUE
 90
4
  1
10,7 mm
304
ACVALUE_END
170
5
140
0.125
171
1
172
0
173
0
174
0
175
1
176
1
 91
33
178
0
145
0.0
301
CELL_VALUE
 90
4
  1
Mounting Hole Depth
304
ACVALUE_END
170
5
140
0.125
171
1
172
0
173
0
174
0
175
2
176
1
 91
33
178
0
145
0.0
301
CELL_VALUE
 90
4
  1
Through
304
ACVALUE_END
170
5
140
0.125
171
1
172
0
173
1
174
0
175
1
176
1
 91
1
178
0
145
0.0
170
1
171
1
172
0
173
0
174
0
175
1
176
1
 91
33
178
0
145
0.0
301
CELL_VALUE
 90
4
  1
Mounting Hole Quantity
304
ACVALUE_END
170
5
140
0.125
171
1
172
0
173
0
174
0
175
2
176
1
 91
33
178
0
145
0.0
301
CELL_VALUE
 90
4
  1
2
304
ACVALUE_END
170
5
140
0.125
171
1
172
0
173
1
174
0
175
1
176
1
 91
1
178
0
145
0.0
170
1
171
1
172
0
173
0
174
0
175
1
176
1
 91
33
178
0
145
0.0
301
CELL_VALUE
 90
4
  1
Includes integral cartridge(s)
304
ACVALUE_END
170
5
140
0.125
171
1
172
0
173
0
174
0
175
2
176
1
 91
33
178
0
145
0.0
301
CELL_VALUE
 90
4
  1
Yes (see Included Components)
304
ACVALUE_END
170
5
140
0.125
171
1
172
0
173
1
174
0
175
1
176
1
 91
1
178
0
145
0.0
170
1
  0
ACAD_TABLE
  5
28E
100
AcDbEntity
  8
0
 62
2
  6
CONTINUOUS
100
AcDbBlockReference
  2
*T3
 10
0.52125
 20
1.459
 30
0.0
100
AcDbTable
342
       3BD
343
211
 11
1.0
 21
0.0
 31
0.0
 90
22
 91
3
 92
3
 93
16
 94
0
 95
0
 96
0
 41
0.05
141
0.34375
141
0.344
141
0.25
142
1.3
142
2.0
142
1.3
171
1
172
0
173
0
174
0
175
3
176
1
 91
33
178
0
145
0.0
301
CELL_VALUE
 90
4
  1
Port Headings
304
ACVALUE_END
170
5
140
0.145
171
1
172
0
173
1
174
0
175
1
176
1
 91
1
178
0
145
0.0
170
1
171
1
172
0
173
1
174
0
175
1
176
1
 91
1
178
0
145
0.0
170
1
171
1
172
0
173
0
174
0
175
1
176
1
 91
33
178
0
145
0.0
301
CELL_VALUE
 90
4
  1
Product
304
ACVALUE_END
170
5
140
0.145
171
1
172
0
173
0
174
0
175
1
176
1
 91
33
178
0
145
0.0
301
CELL_VALUE
 90
4
  1
Port
304
ACVALUE_END
170
5
140
0.145
171
1
172
0
173
0
174
0
175
1
176
1
 91
33
178
0
145
0.0
301
CELL_VALUE
 90
4
  1
Size
304
ACVALUE_END
170
5
140
0.145
171
1
172
0
173
0
174
0
175
1
176
1
 91
33
178
0
145
0.0
301
CELL_VALUE
 90
4
  1
IMX
304
ACVALUE_END
170
5
140
0.125
171
1
172
0
173
0
174
0
175
1
176
1
 91
33
178
0
145
0.0
301
CELL_VALUE
 90
4
  1
All Ports
304
ACVALUE_END
170
5
140
0.125
171
1
172
0
173
0
174
0
175
1
176
1
 91
33
178
0
145
0.0
301
CELL_VALUE
 90
4
  1
1" BSPP
304
ACVALUE_END
170
5
140
0.125
  0
MTEXT
  5
28F
100
AcDbEntity
  8
0
100
AcDbMText
 62
2
  6
CONTINUOUS
  7
STANDARD
 71
1
 72
1
 10
0.52125
 20
5.75995
 30
0.0
 11
1.0
 21
0.0
 31
0.0
 44
0.6
  3
Notes\P \P1. Important: Carefully consider\P   the maximum system pressure. The\P   pressure rating of the manifold is\P   dependent on the manifold material,\P   with the port type/size a secondary\P   consideration. Manifolds\P   constructed of alu
  1
minum are not\P   rated for pressures higher than\P   3000 psi (210 bar), regardless of\P   the port type/size specified.
 40
0.1
 41
3.04
  0
LINE
  5
290
100
AcDbEntity
  8
0
100
AcDbLine
 62
7
  6
CONTINUOUS
 10
0.30125
 20
0.30125
 11
0.30125
 21
16.69875
  0
LINE
  5
291
100
AcDbEntity
  8
0
100
AcDbLine
 62
7
  6
CONTINUOUS
 10
0.30125
 20
0.30125
 11
21.69875
 21
0.30125
  0
LINE
  5
292
100
AcDbEntity
  8
0
100
AcDbLine
 62
7
  6
CONTINUOUS
 10
0.30125
 20
16.69875
 11
21.69875
 21
16.69875
  0
LINE
  5
293
100
AcDbEntity
  8
0
100
AcDbLine
 62
7
  6
CONTINUOUS
 10
21.69875
 20
0.30125
 11
21.69875
 21
16.69875
  0
LINE
  5
294
100
AcDbEntity
  8
0
100
AcDbLine
 62
7
  6
CONTINUOUS
 10
9.4251853099
 20
11.5832900702
 11
8.2281482142
 21
10.4270409559
  0
LINE
  5
295
100
AcDbEntity
  8
0
100
AcDbLine
 62
7
  6
CONTINUOUS
 10
8.2281482142
 20
5.7181522737
 11
8.2281482142
 21
10.4270409559
  0
LINE
  5
296
100
AcDbEntity
  8
0
100
AcDbLine
 62
7
  6
CONTINUOUS
 10
8.2281482142
 20
5.7181522737
 11
12.5748146901
 21
5.4167099298
  0
LINE
  5
297
100
AcDbEntity
  8
0
100
AcDbLine
 62
4
  6
CONTINUOUS
 10
10.3715378479
 20
5.7752499105
 11
10.4439822875
 21
5.7702258716
  0
LINE
  5
298
100
AcDbEntity
  8
0
100
AcDbLine
 62
4
  6
CONTINUOUS
 10
8.5372443101
 20
6.8394066693
 11
8.5734665299
 21
6.7209835464
  0
LINE
  5
299
100
AcDbEntity
  8
0
100
AcDbLine
 62
4
  6
CONTINUOUS
 10
8.4213332067
 20
6.8474451316
 11
8.4213332067
 21
6.7315340282
  0
LINE
  5
29A
100
AcDbEntity
  8
0
100
AcDbLine
 62
4
  6
CONTINUOUS
 10
8.4792887584
 20
9.3596628252
 11
8.4792887584
 21
9.3403443125
  0
LINE
  5
29B
100
AcDbEntity
  8
0
100
AcDbLine
 62
4
  6
CONTINUOUS
 10
8.4285776507
 20
9.2955648444
 11
8.4213332067
 21
9.2670894724
  0
LINE
  5
29C
100
AcDbEntity
  8
0
100
AcDbLine
 62
4
  6
CONTINUOUS
 10
8.5299998662
 20
9.259553414
 11
8.566222086
 21
9.372952498
  0
LINE
  5
29D
100
AcDbEntity
  8
0
100
AcDbLine
 62
4
  6
CONTINUOUS
 10
8.4213332067
 20
9.3636820563
 11
8.4285776507
 21
9.3728389157
  0
LINE
  5
29E
100
AcDbEntity
  8
0
100
AcDbLine
 62
4
  6
CONTINUOUS
 10
8.4430665386
 20
9.3138785527
 11
8.4285776507
 21
9.2955648444
  0
LINE
  5
29F
100
AcDbEntity
  8
0
100
AcDbLine
 62
4
  6
CONTINUOUS
 10
8.4792887584
 20
9.3403443125
 11
8.4720443144
 21
9.3311874532
  0
LINE
  5
2A0
100
AcDbEntity
  8
0
100
AcDbLine
 62
4
  6
CONTINUOUS
 10
9.0767831766
 20
9.9266218033
 11
9.0933419064
 21
9.9420321795
  0
LINE
  5
2A1
100
AcDbEntity
  8
0
100
AcDbLine
 62
4
  6
CONTINUOUS
 10
9.1181800002
 20
9.8243985484
 11
9.1347387283
 21
9.8398089265
  0
LINE
  5
2A2
100
AcDbEntity
  8
0
100
AcDbLine
 62
4
  6
CONTINUOUS
 10
9.209253015
 20
9.8180826134
 11
9.2258117361
 21
9.833492992
  0
LINE
  5
2A3
100
AcDbEntity
  8
0
100
AcDbLine
 62
4
  6
CONTINUOUS
 10
9.0767831766
 20
9.9100630752
 11
9.0767831766
 21
9.9266218033
  0
LINE
  5
2A4
100
AcDbEntity
  8
0
100
AcDbLine
 62
4
  6
CONTINUOUS
 10
8.4285776507
 20
9.3728389157
 11
8.4430665386
 21
9.3814933642
  0
LINE
  5
2A5
100
AcDbEntity
  8
0
100
AcDbLine
 62
4
  6
CONTINUOUS
 10
8.4720443144
 20
9.3311874532
 11
8.4430665386
 21
9.3138785527
  0
LINE
  5
2A6
100
AcDbEntity
  8
0
100
AcDbLine
 62
4
  6
CONTINUOUS
 10
12.2681332145
 20
6.4647575416
 11
12.3188443223
 21
6.4612407143
  0
LINE
  5
2A7
100
AcDbEntity
  8
0
100
AcDbLine
 62
4
  6
CONTINUOUS
 10
8.5155109782
 20
6.7636398132
 11
8.558977642
 21
6.7606253898
  0
LINE
  5
2A8
100
AcDbEntity
  8
0
100
AcDbLine
 62
4
  6
CONTINUOUS
 10
8.566222086
 20
9.372952498
 11
8.6024443058
 21
9.2545293751
  0
LINE
  5
2A9
100
AcDbEntity
  8
0
100
AcDbLine
 62
4
  6
CONTINUOUS
 10
9.1347387283
 20
9.8398089265
 11
9.1347387283
 21
9.8563676563
  0
LINE
  5
2AA
100
AcDbEntity
  8
0
100
AcDbLine
 62
4
  6
CONTINUOUS
 10
9.1678561844
 20
9.9368645968
 11
9.1678561844
 21
9.8375122232
  0
LINE
  5
2AB
100
AcDbEntity
  8
0
100
AcDbLine
 62
4
  6
CONTINUOUS
 10
9.2037334449
 20
9.2273187694
 11
9.2037334449
 21
9.3432298728
  0
LINE
  5
2AC
100
AcDbEntity
  8
0
100
AcDbLine
 62
4
  6
CONTINUOUS
 10
9.2258117361
 20
9.833492992
 11
9.2258117361
 21
9.9328453656
  0
LINE
  5
2AD
100
AcDbEntity
  8
0
100
AcDbLine
 62
4
  6
CONTINUOUS
 10
9.2589291923
 20
9.8146375588
 11
9.2589291923
 21
9.9305486622
  0
LINE
  5
2AE
100
AcDbEntity
  8
0
100
AcDbLine
 62
4
  6
CONTINUOUS
 10
9.2616889897
 20
9.3226519141
 11
9.2616889897
 21
9.2398582685
  0
LINE
  5
2AF
100
AcDbEntity
  8
0
100
AcDbLine
 62
4
  6
CONTINUOUS
 10
9.316884744
 20
9.8106183276
 11
9.316884744
 21
9.9265294311
  0
LINE
  5
2B0
100
AcDbEntity
  8
0
100
AcDbLine
 62
4
  6
CONTINUOUS
 10
9.3086053894
 20
9.2200458753
 11
9.3417228455
 21
9.3336602754
  0
LINE
  5
2B1
100
AcDbEntity
  8
0
100
AcDbLine
 62
4
  6
CONTINUOUS
 10
9.5404275903
 20
9.7675176968
 11
9.5735450326
 21
9.8756125235
  0
LINE
  5
2B2
100
AcDbEntity
  8
0
100
AcDbLine
 62
4
  6
CONTINUOUS
 10
8.5010220903
 20
6.7260075853
 11
8.5372443101
 21
6.8394066693
  0
LINE
  5
2B3
100
AcDbEntity
  8
0
100
AcDbLine
 62
4
  6
CONTINUOUS
 10
9.5956233748
 20
9.5048217257
 11
9.6287408378
 21
9.5687599376
  0
LINE
  5
2B4
100
AcDbEntity
  8
0
100
AcDbLine
 62
4
  6
CONTINUOUS
 10
9.661858294
 20
9.4505521307
 11
9.7280932063
 21
9.5618698274
  0
LINE
  5
2B5
100
AcDbEntity
  8
0
100
AcDbLine
 62
4
  6
CONTINUOUS
 10
9.2616889897
 20
9.2398582685
 11
9.2451302616
 21
9.2244478904
  0
LINE
  5
2B6
100
AcDbEntity
  8
0
100
AcDbLine
 62
4
  6
CONTINUOUS
 10
10.0371894463
 20
9.8351793067
 11
10.0454687793
 21
9.8428845005
  0
LINE
  5
2B7
100
AcDbEntity
  8
0
100
AcDbLine
 62
4
  6
CONTINUOUS
 10
9.5956233644
 20
9.8658020185
 11
9.6121820855
 21
9.8729330347
  0
LINE
  5
2B8
100
AcDbEntity
  8
0
100
AcDbLine
 62
4
  6
CONTINUOUS
 10
9.7529312983
 20
9.813495856
 11
9.7694900195
 21
9.8206268688
  0
LINE
  5
2B9
100
AcDbEntity
  8
0
100
AcDbLine
 62
4
  6
CONTINUOUS
 10
12.2681332145
 20
6.5323723496
 11
12.3188443223
 21
6.5288555223
  0
LINE
  5
2BA
100
AcDbEntity
  8
0
100
AcDbLine
 62
4
  6
CONTINUOUS
 10
12.3188443223
 20
6.5771518177
 11
12.2681332145
 21
6.580668645
  0
LINE
  5
2BB
100
AcDbEntity
  8
0
100
AcDbLine
 62
4
  6
CONTINUOUS
 10
9.4410752278
 20
9.2108590608
 11
9.4410752278
 21
9.3267701643
  0
LINE
  5
2BC
100
AcDbEntity
  8
0
100
AcDbLine
 62
4
  6
CONTINUOUS
 10
9.441075208
 20
9.8020056897
 11
9.441075208
 21
9.9179167931
  0
LINE
  5
2BD
100
AcDbEntity
  8
0
100
AcDbLine
 62
4
  6
CONTINUOUS
 10
9.4907513992
 20
9.873074914
 11
9.4907513992
 21
9.7985606342
  0
LINE
  5
2BE
100
AcDbEntity
  8
0
100
AcDbLine
 62
4
  6
CONTINUOUS
 10
9.5073101401
 20
9.2062656541
 11
9.5073101401
 21
9.3221767575
  0
LINE
  5
2BF
100
AcDbEntity
  8
0
100
AcDbLine
 62
4
  6
CONTINUOUS
 10
9.5100699447
 20
9.4610786885
 11
9.5100699447
 21
9.576989792
  0
LINE
  5
2C0
100
AcDbEntity
  8
0
100
AcDbLine
 62
4
  6
CONTINUOUS
 10
9.5625059186
 20
9.4574422414
 11
9.5625059186
 21
9.5733533448
  0
LINE
  5
2C1
100
AcDbEntity
  8
0
100
AcDbLine
 62
4
  6
CONTINUOUS
 10
9.5956233644
 20
9.7995671036
 11
9.5956233644
 21
9.8658020185
  0
LINE
  5
2C2
100
AcDbEntity
  8
0
100
AcDbLine
 62
4
  6
CONTINUOUS
 10
9.6287408378
 20
9.5687599376
 11
9.6287408378
 21
9.4528488341
  0
LINE
  5
2C3
100
AcDbEntity
  8
0
100
AcDbLine
 62
4
  6
CONTINUOUS
 10
9.6452995278
 20
9.9037537885
 11
9.6452995278
 21
9.787842685
  0
LINE
  5
2C4
100
AcDbEntity
  8
0
100
AcDbLine
 62
4
  6
CONTINUOUS
 10
9.9957926158
 20
9.8794470103
 11
9.9930328381
 21
9.871359034
  0
LINE
  5
2C5
100
AcDbEntity
  8
0
100
AcDbLine
 62
4
  6
CONTINUOUS
 10
10.1117037745
 20
9.8300117205
 11
10.1199831074
 21
9.8377169143
  0
LINE
  5
2C6
100
AcDbEntity
  8
0
100
AcDbLine
 62
4
  6
CONTINUOUS
 10
10.1531005498
 20
9.7526265646
 11
10.1613798827
 21
9.7603317558
  0
LINE
  5
2C7
100
AcDbEntity
  8
0
100
AcDbLine
 62
4
  6
CONTINUOUS
 10
9.6811768229
 20
9.293560334
 11
9.697735544
 21
9.3089707109
  0
LINE
  5
2C8
100
AcDbEntity
  8
0
100
AcDbLine
 62
4
  6
CONTINUOUS
 10
9.7777693722
 20
9.286861618
 11
9.7943280934
 21
9.3022719948
  0
LINE
  5
2C9
100
AcDbEntity
  8
0
100
AcDbLine
 62
4
  6
CONTINUOUS
 10
9.1816551374
 20
9.3006044005
 11
9.1374985257
 21
9.2815883643
  0
LINE
  5
2CA
100
AcDbEntity
  8
0
100
AcDbLine
 62
4
  6
CONTINUOUS
 10
8.4720443144
 20
9.3698244923
 11
8.4792887584
 21
9.3596628252
  0
LINE
  5
2CB
100
AcDbEntity
  8
0
100
AcDbLine
 62
4
  6
CONTINUOUS
 10
9.3417228455
 20
9.3336602754
 11
9.3748403155
 21
9.2154524676
  0
LINE
  5
2CC
100
AcDbEntity
  8
0
100
AcDbLine
 62
4
  6
CONTINUOUS
 10
9.6784170255
 20
9.7855459788
 11
9.6784170255
 21
9.8683396261
  0
LINE
  5
2CD
100
AcDbEntity
  8
0
100
AcDbLine
 62
4
  6
CONTINUOUS
 10
9.6811768229
 20
9.2107666885
 11
9.6811768229
 21
9.293560334
  0
LINE
  5
2CE
100
AcDbEntity
  8
0
100
AcDbLine
 62
4
  6
CONTINUOUS
 10
9.7170540231
 20
9.8573807737
 11
9.7170540231
 21
9.8408220456
  0
LINE
  5
2CF
100
AcDbEntity
  8
0
100
AcDbLine
 62
4
  6
CONTINUOUS
 10
9.7529312983
 20
9.7886577613
 11
9.7529312983
 21
9.813495856
  0
LINE
  5
2D0
100
AcDbEntity
  8
0
100
AcDbLine
 62
4
  6
CONTINUOUS
 10
9.7777693722
 20
9.2040679724
 11
9.7777693722
 21
9.286861618
  0
LINE
  5
2D1
100
AcDbEntity
  8
0
100
AcDbLine
 62
4
  6
CONTINUOUS
 10
9.8026074618
 20
9.7769333428
 11
9.8026074618
 21
9.843168262
  0
LINE
  5
2D2
100
AcDbEntity
  8
0
100
AcDbLine
 62
4
  6
CONTINUOUS
 10
9.8357249042
 20
9.8574302876
 11
9.8357249042
 21
9.7829160052
  0
LINE
  5
2D3
100
AcDbEntity
  8
0
100
AcDbLine
 62
4
  6
CONTINUOUS
 10
9.8357249239
 20
9.2828423868
 11
9.8357249239
 21
9.2000487413
  0
LINE
  5
2D4
100
AcDbEntity
  8
0
100
AcDbLine
 62
4
  6
CONTINUOUS
 10
9.8688423663
 20
9.181193309
 11
9.8688423663
 21
9.2971044125
  0
LINE
  5
2D5
100
AcDbEntity
  8
0
100
AcDbLine
 62
4
  6
CONTINUOUS
 10
9.8854011229
 20
9.7711915829
 11
9.8854011229
 21
9.8539852301
  0
LINE
  5
2D6
100
AcDbEntity
  8
0
100
AcDbLine
 62
4
  6
CONTINUOUS
 10
9.9185185653
 20
9.7771742453
 11
9.9185185653
 21
9.8848059839
  0
LINE
  5
2D7
100
AcDbEntity
  8
0
100
AcDbLine
 62
4
  6
CONTINUOUS
 10
9.926797918
 20
9.2765264532
 11
9.926797918
 21
9.1937328077
  0
LINE
  5
2D8
100
AcDbEntity
  8
0
100
AcDbLine
 62
4
  6
CONTINUOUS
 10
9.8357249239
 20
9.2000487413
 11
9.8191662028
 21
9.1846383627
  0
LINE
  5
2D9
100
AcDbEntity
  8
0
100
AcDbLine
 62
4
  6
CONTINUOUS
 10
9.926797918
 20
9.1937328077
 11
9.9102391968
 21
9.1783224291
  0
LINE
  5
2DA
100
AcDbEntity
  8
0
100
AcDbLine
 62
4
  6
CONTINUOUS
 10
9.9737143591
 20
9.1739204116
 11
9.9737143591
 21
9.2898315151
  0
LINE
  5
2DB
100
AcDbEntity
  8
0
100
AcDbLine
 62
4
  6
CONTINUOUS
 10
9.9930328381
 20
9.7637272981
 11
9.9930328381
 21
9.8465209453
  0
LINE
  5
2DC
100
AcDbEntity
  8
0
100
AcDbLine
 62
4
  6
CONTINUOUS
 10
9.9930328381
 20
9.871359034
 11
9.9930328381
 21
9.8796384015
  0
LINE
  5
2DD
100
AcDbEntity
  8
0
100
AcDbLine
 62
4
  6
CONTINUOUS
 10
10.0371894463
 20
9.7689443918
 11
10.0371894463
 21
9.8351793067
  0
LINE
  5
2DE
100
AcDbEntity
  8
0
100
AcDbLine
 62
4
  6
CONTINUOUS
 10
10.1117037745
 20
9.8051736283
 11
10.1117037745
 21
9.8300117205
  0
LINE
  5
2DF
100
AcDbEntity
  8
0
100
AcDbLine
 62
4
  6
CONTINUOUS
 10
10.1613798827
 20
9.7603317558
 11
10.1613798827
 21
9.7851698505
  0
LINE
  5
2E0
100
AcDbEntity
  8
0
100
AcDbLine
 62
4
  6
CONTINUOUS
 10
10.1006645731
 20
9.2147925721
 11
10.0565079649
 21
9.1957765374
  0
LINE
  5
2E1
100
AcDbEntity
  8
0
100
AcDbLine
 62
4
  6
CONTINUOUS
 10
8.4575554265
 20
9.3804885564
 11
8.4720443144
 21
9.3698244923
  0
LINE
  5
2E2
100
AcDbEntity
  8
0
100
AcDbLine
 62
4
  6
CONTINUOUS
 10
9.2589291923
 20
9.9305486622
 11
9.316884744
 21
9.8106183276
  0
LINE
  5
2E3
100
AcDbEntity
  8
0
100
AcDbLine
 62
4
  6
CONTINUOUS
 10
9.5625059186
 20
9.5733533448
 11
9.5956233748
 21
9.5048217257
  0
LINE
  5
2E4
100
AcDbEntity
  8
0
100
AcDbLine
 62
4
  6
CONTINUOUS
 10
9.5238688691
 20
9.8790575771
 11
9.5487069785
 21
9.7945414011
  0
LINE
  5
2E5
100
AcDbEntity
  8
0
100
AcDbLine
 62
4
  6
CONTINUOUS
 10
10.4077600677
 20
5.772737891
 11
10.4077600677
 21
5.6568267876
  0
LINE
  5
2E6
100
AcDbEntity
  8
0
100
AcDbLine
 62
4
  6
CONTINUOUS
 10
9.2451302616
 20
9.3403589938
 11
9.2616889897
 21
9.3226519141
  0
LINE
  5
2E7
100
AcDbEntity
  8
0
100
AcDbLine
 62
4
  6
CONTINUOUS
 10
9.661858294
 20
9.5664632342
 11
9.7280932063
 21
9.445958724
  0
LINE
  5
2E8
100
AcDbEntity
  8
0
100
AcDbLine
 62
4
  6
CONTINUOUS
 10
9.1374985257
 20
9.2815883643
 11
9.1816551374
 21
9.2564477871
  0
LINE
  5
2E9
100
AcDbEntity
  8
0
100
AcDbLine
 62
4
  6
CONTINUOUS
 10
9.1347387283
 20
9.8563676563
 11
9.0767831766
 21
9.9100630752
  0
LINE
  5
2EA
100
AcDbEntity
  8
0
100
AcDbLine
 62
4
  6
CONTINUOUS
 10
9.0767831766
 20
9.8355487928
 11
9.0850625415
 21
9.826695252
  0
LINE
  5
2EB
100
AcDbEntity
  8
0
100
AcDbLine
 62
4
  6
CONTINUOUS
 10
9.697735544
 20
9.1930596075
 11
9.6811768229
 21
9.2107666885
  0
LINE
  5
2EC
100
AcDbEntity
  8
0
100
AcDbLine
 62
4
  6
CONTINUOUS
 10
9.1678561844
 20
9.8375122232
 11
9.1844149125
 21
9.8198051417
  0
LINE
  5
2ED
100
AcDbEntity
  8
0
100
AcDbLine
 62
4
  6
CONTINUOUS
 10
9.7943280934
 20
9.1863608914
 11
9.7777693722
 21
9.2040679724
  0
LINE
  5
2EE
100
AcDbEntity
  8
0
100
AcDbLine
 62
4
  6
CONTINUOUS
 10
9.1264593642
 20
9.939735476
 11
9.1347387283
 21
9.9308819327
  0
LINE
  5
2EF
100
AcDbEntity
  8
0
100
AcDbLine
 62
4
  6
CONTINUOUS
 10
9.8191662028
 20
9.3005494661
 11
9.8357249239
 21
9.2828423868
  0
LINE
  5
2F0
100
AcDbEntity
  8
0
100
AcDbLine
 62
4
  6
CONTINUOUS
 10
9.9102391968
 20
9.2942335325
 11
9.926797918
 21
9.2765264532
  0
LINE
  5
2F1
100
AcDbEntity
  8
0
100
AcDbLine
 62
4
  6
CONTINUOUS
 10
9.7115344678
 20
9.8660429236
 11
9.7170540231
 21
9.8573807737
  0
LINE
  5
2F2
100
AcDbEntity
  8
0
100
AcDbLine
 62
4
  6
CONTINUOUS
 10
9.8026074618
 20
9.843168262
 11
9.7943281289
 21
9.8603011637
  0
LINE
  5
2F3
100
AcDbEntity
  8
0
100
AcDbLine
 62
7
  6
CONTINUOUS
 10
12.5748146901
 20
10.125598612
 11
13.7718517858
 21
11.2818477263
  0
LINE
  5
2F4
100
AcDbEntity
  8
0
100
AcDbLine
 62
4
  6
CONTINUOUS
 10
9.4824720386
 20
9.881928457
 11
9.4907513992
 21
9.873074914
  0
LINE
  5
2F5
100
AcDbEntity
  8
0
100
AcDbLine
 62
4
  6
CONTINUOUS
 10
9.8357249042
 20
9.7829160052
 11
9.8440042924
 21
9.7740624628
  0
LINE
  5
2F6
100
AcDbEntity
  8
0
100
AcDbLine
 62
4
  6
CONTINUOUS
 10
12.3333332102
 20
6.5085321984
 11
12.3188443223
 21
6.5288555223
  0
LINE
  5
2F7
100
AcDbEntity
  8
0
100
AcDbLine
 62
4
  6
CONTINUOUS
 10
12.3260887662
 20
6.5669901575
 11
12.3188443223
 21
6.5771518177
  0
LINE
  5
2F8
100
AcDbEntity
  8
0
100
AcDbLine
 62
4
  6
CONTINUOUS
 10
12.1956887749
 20
9.1115888719
 11
12.2101776628
 21
9.1202433204
  0
LINE
  5
2F9
100
AcDbEntity
  8
0
100
AcDbLine
 62
4
  6
CONTINUOUS
 10
12.2391554387
 20
9.0699374094
 11
12.2101776628
 21
9.0526285089
  0
LINE
  5
2FA
100
AcDbEntity
  8
0
100
AcDbLine
 62
4
  6
CONTINUOUS
 10
10.0565079649
 20
9.2399331508
 11
10.1006645731
 21
9.2147925721
  0
LINE
  5
2FB
100
AcDbEntity
  8
0
100
AcDbLine
 62
4
  6
CONTINUOUS
 10
9.9267979535
 20
9.7683207029
 11
9.9185185653
 21
9.7771742453
  0
LINE
  5
2FC
100
AcDbEntity
  8
0
100
AcDbLine
 62
4
  6
CONTINUOUS
 10
10.0454687793
 20
9.7600908532
 11
10.0371894463
 21
9.7689443918
  0
LINE
  5
2FD
100
AcDbEntity
  8
0
100
AcDbLine
 62
4
  6
CONTINUOUS
 10
10.1117037745
 20
9.7637768056
 11
10.1199831074
 21
9.754923267
  0
LINE
  5
2FE
100
AcDbEntity
  8
0
100
AcDbLine
 62
4
  6
CONTINUOUS
 10
10.1531005498
 20
9.8354202118
 11
10.1613798827
 21
9.8265666707
  0
LINE
  5
2FF
100
AcDbEntity
  8
0
100
AcDbLine
 62
4
  6
CONTINUOUS
 10
12.1884443309
 20
9.1024320125
 11
12.1956887749
 21
9.1115888719
  0
LINE
  5
300
100
AcDbEntity
  8
0
100
AcDbLine
 62
4
  6
CONTINUOUS
 10
8.4213332067
 20
9.2670894724
 11
8.4792887584
 21
9.2630702413
  0
LINE
  5
301
100
AcDbEntity
  8
0
100
AcDbLine
 62
4
  6
CONTINUOUS
 10
12.1884443309
 20
9.0058394286
 11
12.2463998826
 21
9.0018201975
  0
LINE
  5
302
100
AcDbEntity
  8
0
100
AcDbLine
 62
4
  6
CONTINUOUS
 10
12.2971109904
 20
8.9983033702
 11
12.3478220981
 21
8.9947865429
  0
LINE
  5
303
100
AcDbEntity
  8
0
100
AcDbLine
 62
4
  6
CONTINUOUS
 10
9.6121820855
 20
9.7901393875
 11
9.5956233644
 21
9.7995671036
  0
LINE
  5
304
100
AcDbEntity
  8
0
100
AcDbLine
 62
4
  6
CONTINUOUS
 10
9.7694900195
 20
9.7792300452
 11
9.7529312983
 21
9.7886577613
  0
LINE
  5
305
100
AcDbEntity
  8
0
100
AcDbLine
 62
4
  6
CONTINUOUS
 10
10.1199831074
 20
9.7990798786
 11
10.1117037745
 21
9.8051736283
  0
LINE
  5
306
100
AcDbEntity
  8
0
100
AcDbLine
 62
4
  6
CONTINUOUS
 10
10.1613798827
 20
9.7851698505
 11
10.1531005498
 21
9.7912636002
  0
LINE
  5
307
100
AcDbEntity
  8
0
100
AcDbLine
 62
4
  6
CONTINUOUS
 10
12.2101776628
 20
9.0526285089
 11
12.1956887749
 21
9.0343148006
  0
LINE
  5
308
100
AcDbEntity
  8
0
100
AcDbLine
 62
4
  6
CONTINUOUS
 10
12.2463998826
 20
9.0790942687
 11
12.2391554387
 21
9.0699374094
  0
LINE
  5
309
100
AcDbEntity
  8
0
100
AcDbLine
 62
4
  6
CONTINUOUS
 10
12.3478220981
 20
9.062401351
 11
12.3550665421
 21
9.0715582103
  0
LINE
  5
30A
100
AcDbEntity
  8
0
100
AcDbLine
 62
4
  6
CONTINUOUS
 10
12.3478220981
 20
8.9947865429
 11
12.3623109861
 21
9.013100253
  0
LINE
  5
30B
100
AcDbEntity
  8
0
100
AcDbLine
 62
4
  6
CONTINUOUS
 10
9.9102391968
 20
9.1783224291
 11
9.8688423663
 21
9.181193309
  0
LINE
  5
30C
100
AcDbEntity
  8
0
100
AcDbLine
 62
4
  6
CONTINUOUS
 10
9.8191662028
 20
9.1846383627
 11
9.7943280934
 21
9.1863608914
  0
LINE
  5
30D
100
AcDbEntity
  8
0
100
AcDbLine
 62
4
  6
CONTINUOUS
 10
9.7308529864
 20
9.190762905
 11
9.697735544
 21
9.1930596075
  0
LINE
  5
30E
100
AcDbEntity
  8
0
100
AcDbLine
 62
4
  6
CONTINUOUS
 10
9.2451302616
 20
9.2244478904
 11
9.2037334449
 21
9.2273187694
  0
LINE
  5
30F
100
AcDbEntity
  8
0
100
AcDbLine
 62
4
  6
CONTINUOUS
 10
9.5073101401
 20
9.2062656541
 11
9.5569863312
 21
9.2028205985
  0
LINE
  5
310
100
AcDbEntity
  8
0
100
AcDbLine
 62
4
  6
CONTINUOUS
 10
9.9737143591
 20
9.1739204116
 11
10.0233905226
 21
9.170475358
  0
LINE
  5
311
100
AcDbEntity
  8
0
100
AcDbLine
 62
4
  6
CONTINUOUS
 10
8.5444887541
 20
9.2971856418
 11
8.5879554179
 21
9.2941712185
  0
LINE
  5
312
100
AcDbEntity
  8
0
100
AcDbLine
 62
4
  6
CONTINUOUS
 10
9.3196445414
 20
9.2523977671
 11
9.3638011496
 21
9.249335496
  0
LINE
  5
313
100
AcDbEntity
  8
0
100
AcDbLine
 62
4
  6
CONTINUOUS
 10
12.2971109904
 20
9.0659181782
 11
12.3478220981
 21
9.062401351
  0
LINE
  5
314
100
AcDbEntity
  8
0
100
AcDbLine
 62
4
  6
CONTINUOUS
 10
10.0068318014
 20
9.2378586284
 11
9.9737143591
 21
9.2401553308
  0
LINE
  5
315
100
AcDbEntity
  8
0
100
AcDbLine
 62
4
  6
CONTINUOUS
 10
9.5404276101
 20
9.2702038689
 11
9.5073101401
 21
9.2725005733
  0
LINE
  5
316
100
AcDbEntity
  8
0
100
AcDbLine
 62
4
  6
CONTINUOUS
 10
12.3478220981
 20
9.1106976464
 11
12.2971109904
 21
9.1142144736
  0
LINE
  5
317
100
AcDbEntity
  8
0
100
AcDbLine
 62
4
  6
CONTINUOUS
 10
8.4430665386
 20
9.3814933642
 11
8.4575554265
 21
9.3804885564
  0
LINE
  5
318
100
AcDbEntity
  8
0
100
AcDbLine
 62
4
  6
CONTINUOUS
 10
12.2101776628
 20
9.1202433204
 11
12.2246665507
 21
9.1192385126
  0
LINE
  5
319
100
AcDbEntity
  8
0
100
AcDbLine
 62
4
  6
CONTINUOUS
 10
9.2037334449
 20
9.3432298728
 11
9.2451302616
 21
9.3403589938
  0
LINE
  5
31A
100
AcDbEntity
  8
0
100
AcDbLine
 62
4
  6
CONTINUOUS
 10
9.4079577578
 20
9.3290668686
 11
9.4741926701
 21
9.3244734618
  0
LINE
  5
31B
100
AcDbEntity
  8
0
100
AcDbLine
 62
4
  6
CONTINUOUS
 10
9.5073101401
 20
9.3221767575
 11
9.5569863312
 21
9.3187317019
  0
LINE
  5
31C
100
AcDbEntity
  8
0
100
AcDbLine
 62
4
  6
CONTINUOUS
 10
9.697735544
 20
9.3089707109
 11
9.7308529864
 21
9.3066740085
  0
LINE
  5
31D
100
AcDbEntity
  8
0
100
AcDbLine
 62
4
  6
CONTINUOUS
 10
9.7943280934
 20
9.3022719948
 11
9.8191662028
 21
9.3005494661
  0
LINE
  5
31E
100
AcDbEntity
  8
0
100
AcDbLine
 62
4
  6
CONTINUOUS
 10
9.8688423663
 20
9.2971044125
 11
9.9102391968
 21
9.2942335325
  0
LINE
  5
31F
100
AcDbEntity
  8
0
100
AcDbLine
 62
4
  6
CONTINUOUS
 10
9.9737143591
 20
9.2898315151
 11
10.0233905226
 21
9.2863864614
  0
LINE
  5
320
100
AcDbEntity
  8
0
100
AcDbLine
 62
4
  6
CONTINUOUS
 10
12.1956887749
 20
9.0343148006
 11
12.1884443309
 21
9.0058394286
  0
LINE
  5
321
100
AcDbEntity
  8
0
100
AcDbLine
 62
4
  6
CONTINUOUS
 10
10.1531005498
 20
9.7912636002
 11
10.1199831074
 21
9.7990798786
  0
LINE
  5
322
100
AcDbEntity
  8
0
100
AcDbLine
 62
4
  6
CONTINUOUS
 10
12.1884443309
 20
6.5861950878
 11
12.1884443309
 21
6.4702839844
  0
LINE
  5
323
100
AcDbEntity
  8
0
100
AcDbLine
 62
4
  6
CONTINUOUS
 10
12.2463998826
 20
9.0984127814
 11
12.2463998826
 21
9.0790942687
  0
LINE
  5
324
100
AcDbEntity
  8
0
100
AcDbLine
 62
4
  6
CONTINUOUS
 10
12.2681332145
 20
6.580668645
 11
12.2681332145
 21
6.4647575416
  0
LINE
  5
325
100
AcDbEntity
  8
0
100
AcDbLine
 62
4
  6
CONTINUOUS
 10
12.2971109904
 20
9.1142144736
 11
12.2971109904
 21
8.9983033702
  0
LINE
  5
326
100
AcDbEntity
  8
0
100
AcDbLine
 62
4
  6
CONTINUOUS
 10
12.3260887662
 20
6.5380123816
 11
12.3260887662
 21
6.5669901575
  0
LINE
  5
327
100
AcDbEntity
  8
0
100
AcDbLine
 62
4
  6
CONTINUOUS
 10
12.3333332102
 20
6.4795544243
 11
12.3333332102
 21
6.5085321984
  0
LINE
  5
328
100
AcDbEntity
  8
0
100
AcDbLine
 62
4
  6
CONTINUOUS
 10
12.3550665421
 20
9.0715582103
 11
12.3550665421
 21
9.1005359862
  0
LINE
  5
329
100
AcDbEntity
  8
0
100
AcDbLine
 62
4
  6
CONTINUOUS
 10
12.3623109861
 20
9.013100253
 11
12.3623109861
 21
9.0420780271
  0
LINE
  5
32A
100
AcDbEntity
  8
0
100
AcDbLine
 62
4
  6
CONTINUOUS
 10
9.5238688691
 20
9.768666048
 11
9.5404275903
 21
9.7675176968
  0
LINE
  5
32B
100
AcDbEntity
  8
0
100
AcDbLine
 62
4
  6
CONTINUOUS
 10
10.0785863322
 20
9.7577941431
 11
10.0454687793
 21
9.7600908532
  0
LINE
  5
32C
100
AcDbEntity
  8
0
100
AcDbLine
 62
4
  6
CONTINUOUS
 10
9.9433566746
 20
9.7671723517
 11
9.9267979535
 21
9.7683207029
  0
LINE
  5
32D
100
AcDbEntity
  8
0
100
AcDbLine
 62
4
  6
CONTINUOUS
 10
9.8026074618
 20
9.7769333428
 11
9.7694900195
 21
9.7792300452
  0
LINE
  5
32E
100
AcDbEntity
  8
0
100
AcDbLine
 62
4
  6
CONTINUOUS
 10
9.6452995278
 20
9.787842685
 11
9.6121820855
 21
9.7901393875
  0
LINE
  5
32F
100
AcDbEntity
  8
0
100
AcDbLine
 62
4
  6
CONTINUOUS
 10
9.0850625415
 20
9.826695252
 11
9.1181800002
 21
9.8243985484
  0
LINE
  5
330
100
AcDbEntity
  8
0
100
AcDbLine
 62
4
  6
CONTINUOUS
 10
9.1844149125
 20
9.8198051417
 11
9.209253015
 21
9.8180826134
  0
LINE
  5
331
100
AcDbEntity
  8
0
100
AcDbLine
 62
4
  6
CONTINUOUS
 10
9.8440042924
 20
9.7740624628
 11
9.8854011229
 21
9.7711915829
  0
LINE
  5
332
100
AcDbEntity
  8
0
100
AcDbLine
 62
4
  6
CONTINUOUS
 10
10.1199831074
 20
9.754923267
 11
10.1531005498
 21
9.7526265646
  0
LINE
  5
333
100
AcDbEntity
  8
0
100
AcDbLine
 62
4
  6
CONTINUOUS
 10
9.7694900195
 20
9.8206268688
 11
9.8026074618
 21
9.8183301664
  0
LINE
  5
334
100
AcDbEntity
  8
0
100
AcDbLine
 62
4
  6
CONTINUOUS
 10
9.7943281289
 20
9.8603011637
 11
9.7529312983
 21
9.8631720437
  0
LINE
  5
335
100
AcDbEntity
  8
0
100
AcDbLine
 62
4
  6
CONTINUOUS
 10
9.441075208
 20
9.884799337
 11
9.4824720386
 21
9.881928457
  0
LINE
  5
336
100
AcDbEntity
  8
0
100
AcDbLine
 62
4
  6
CONTINUOUS
 10
9.6121820855
 20
9.8729330347
 11
9.6452995278
 21
9.8706363323
  0
LINE
  5
337
100
AcDbEntity
  8
0
100
AcDbLine
 62
4
  6
CONTINUOUS
 10
9.6784170255
 20
9.8683396261
 11
9.7115344678
 21
9.8660429236
  0
LINE
  5
338
100
AcDbEntity
  8
0
100
AcDbLine
 62
4
  6
CONTINUOUS
 10
10.0454687793
 20
9.8428845005
 11
10.0785863322
 21
9.8405877904
  0
LINE
  5
339
100
AcDbEntity
  8
0
100
AcDbLine
 62
4
  6
CONTINUOUS
 10
10.1199831074
 20
9.8377169143
 11
10.1531005498
 21
9.8354202118
  0
LINE
  5
33A
100
AcDbEntity
  8
0
100
AcDbLine
 62
4
  6
CONTINUOUS
 10
9.0933419064
 20
9.9420321795
 11
9.1264593642
 21
9.939735476
  0
LINE
  5
33B
100
AcDbEntity
  8
0
100
AcDbLine
 62
4
  6
CONTINUOUS
 10
9.9930328381
 20
9.8796384015
 11
9.9957926158
 21
9.8794470103
  0
LINE
  5
33C
100
AcDbEntity
  8
0
100
AcDbLine
 62
4
  6
CONTINUOUS
 10
12.2246665507
 20
9.1192385126
 11
12.2391554387
 21
9.1085744485
  0
LINE
  5
33D
100
AcDbEntity
  8
0
100
AcDbLine
 62
4
  6
CONTINUOUS
 10
12.2391554387
 20
9.1085744485
 11
12.2463998826
 21
9.0984127814
  0
LINE
  5
33E
100
AcDbEntity
  8
0
100
AcDbLine
 62
7
  6
CONTINUOUS
 10
12.5748146901
 20
5.4167099298
 11
12.5748146901
 21
10.125598612
  0
LINE
  5
33F
100
AcDbEntity
  8
0
100
AcDbLine
 62
4
  6
CONTINUOUS
 10
12.3623109861
 20
9.0420780271
 11
12.3478220981
 21
9.062401351
  0
LINE
  5
340
100
AcDbEntity
  8
0
100
AcDbLine
 62
4
  6
CONTINUOUS
 10
12.3550665421
 20
9.1005359862
 11
12.3478220981
 21
9.1106976464
  0
LINE
  5
341
100
AcDbEntity
  8
0
100
AcDbLine
 62
7
  6
CONTINUOUS
 10
8.2281482142
 20
10.4270409559
 11
12.5748146901
 21
10.125598612
  0
LINE
  5
342
100
AcDbEntity
  8
0
100
AcDbLine
 62
4
  6
CONTINUOUS
 10
12.3188443223
 20
6.5288555223
 11
12.3260887662
 21
6.5380123816
  0
LINE
  5
343
100
AcDbEntity
  8
0
100
AcDbLine
 62
4
  6
CONTINUOUS
 10
12.3188443223
 20
6.4612407143
 11
12.3333332102
 21
6.4795544243
  0
LINE
  5
344
100
AcDbEntity
  8
0
100
AcDbLine
 62
7
  6
CONTINUOUS
 10
13.7718517858
 20
6.5729590441
 11
13.7718517858
 21
11.2818477263
  0
LINE
  5
345
100
AcDbEntity
  8
0
100
AcDbLine
 62
7
  6
CONTINUOUS
 10
13.7718517858
 20
11.2818477263
 11
9.4251853099
 21
11.5832900702
  0
LINE
  5
346
100
AcDbEntity
  8
0
100
AcDbLine
 62
7
  6
CONTINUOUS
 10
12.5748146901
 20
5.4167099298
 11
13.7718517858
 21
6.5729590441
  0
ARC
  5
347
100
AcDbEntity
  8
0
100
AcDbCircle
 62
7
  6
CONTINUOUS
 10
8.1221023121
 20
7.7081209852
 40
2.0942747996
100
AcDbArc
 50
349.8972526994
 51
352.8221868641
  0
ARC
  5
348
100
AcDbEntity
  8
0
100
AcDbCircle
 62
7
  6
CONTINUOUS
 10
8.3157044058
 20
7.6900610038
 40
1.9103405056
100
AcDbArc
 50
349.3537769751
 51
352.2690209146
  0
ARC
  5
349
100
AcDbEntity
  8
0
100
AcDbCircle
 62
7
  6
CONTINUOUS
 10
11.8169377781
 20
9.4297954085
 40
0.5993585747
100
AcDbArc
 50
175.0842625561
 51
180.0071256824
  0
ARC
  5
34A
100
AcDbEntity
  8
0
100
AcDbCircle
 62
7
  6
CONTINUOUS
 10
10.2482740733
 20
7.7274715743
 40
0.5993585747
100
AcDbArc
 50
175.0842625561
 51
180.0071256824
  0
ARC
  5
34B
100
AcDbEntity
  8
0
100
AcDbCircle
 62
7
  6
CONTINUOUS
 10
11.8220101476
 20
9.4334699754
 40
0.5799360521
100
AcDbArc
 50
175.5828997716
 51
180.008778553
  0
ARC
  5
34C
100
AcDbEntity
  8
0
100
AcDbCircle
 62
7
  6
CONTINUOUS
 10
10.2533464427
 20
7.7311461412
 40
0.5799360521
100
AcDbArc
 50
175.5828997717
 51
180.008778553
  0
ARC
  5
34D
100
AcDbEntity
  8
0
100
AcDbCircle
 62
7
  6
CONTINUOUS
 10
10.2561307538
 20
7.7239755011
 40
0.4803805092
100
AcDbArc
 50
176.3028630157
 51
180.0018495521
  0
ARC
  5
34E
100
AcDbEntity
  8
0
100
AcDbCircle
 62
7
  6
CONTINUOUS
 10
11.8247944586
 20
9.4262993353
 40
0.4803805092
100
AcDbArc
 50
176.3028630157
 51
180.0018495521
  0
ARC
  5
34F
100
AcDbEntity
  8
0
100
AcDbCircle
 62
7
  6
CONTINUOUS
 10
10.1323225143
 20
7.757193042
 40
0.2712744081
100
AcDbArc
 50
215.3847305594
 51
223.9930820356
  0
SPLINE
  5
350
100
AcDbEntity
  8
0
100
AcDbSpline
 62
7
  6
CONTINUOUS
 70
0
 71
3
 72
33
 73
29
 74
0
 42
0.0000001
 43
0.0000001
 44
0.0000000001
 40
0.0
 40
0.0
 40
0.0
 40
0.0
 40
0.0958348039
 40
0.1891069742
 40
0.2792500435
 40
0.36572131
 40
0.4480125246
 40
0.5256540669
 40
0.5625988158
 40
0.598226802
 40
0.632494146
 40
0.6653609288
 40
0.6967920316
 40
0.726757616
 40
0.7552336203
 40
0.7822031337
 40
0.8076567456
 40
0.8315949344
 40
0.8540288219
 40
0.8749836671
 40
0.8945009457
 40
0.9126431418
 40
0.9294980666
 40
0.945184889
 40
0.9598599849
 40
0.9737213022
 40
0.9870092614
 40
1.0
 40
1.0
 40
1.0
 40
1.0
 10
12.4978108267
 20
10.4262185872
 30
0.0
 10
12.4923151118
 20
10.4265997163
 30
0.0
 10
12.4814785633
 20
10.4274726547
 30
0.0
 10
12.4655115092
 20
10.4291389773
 30
0.0
 10
12.4501247871
 20
10.4311358603
 30
0.0
 10
12.4354209517
 20
10.4334497294
 30
0.0
 10
12.4214980957
 20
10.4360648517
 30
0.0
 10
12.4104475524
 20
10.4385191148
 30
0.0
 10
12.4020743518
 20
10.4406305668
 30
0.0
 10
12.3961501954
 20
10.4422518083
 30
0.0
 10
12.3904871894
 20
10.4439341556
 30
0.0
 10
12.3850947416
 20
10.4456748424
 30
0.0
 10
12.3799818011
 20
10.447470932
 30
0.0
 10
12.3751568265
 20
10.4493194049
 30
0.0
 10
12.3706277846
 20
10.4512172137
 30
0.0
 10
12.3664020958
 20
10.4531611498
 30
0.0
 10
12.3624866792
 20
10.4551480948
 30
0.0
 10
12.3588878414
 20
10.4571747343
 30
0.0
 10
12.3556113913
 20
10.4592379497
 30
0.0
 10
12.3526624835
 20
10.4613344828
 30
0.0
 10
12.3500458062
 20
10.4634613593
 30
0.0
 10
12.3477654758
 20
10.4656156479
 30
0.0
 10
12.3458252979
 20
10.4677947456
 30
0.0
 10
12.3442289248
 20
10.4699962762
 30
0.0
 10
12.3429801315
 20
10.4722178229
 30
0.0
 10
12.3420832233
 20
10.4744568662
 30
0.0
 10
12.3415425168
 20
10.4767085963
 30
0.0
 10
12.3414216174
 20
10.4782217944
 30
0.0
 10
12.3414216174
 20
10.4789685468
 30
0.0
  0
SPLINE
  5
351
100
AcDbEntity
  8
0
100
AcDbSpline
 62
7
  6
CONTINUOUS
 70
0
 71
3
 72
33
 73
29
 74
0
 42
0.0000001
 43
0.0000001
 44
0.0000000001
 40
0.0
 40
0.0
 40
0.0
 40
0.0
 40
0.0958348039
 40
0.1891069742
 40
0.2792500435
 40
0.36572131
 40
0.4480125246
 40
0.5256540669
 40
0.5625988158
 40
0.598226802
 40
0.632494146
 40
0.6653609288
 40
0.6967920316
 40
0.726757616
 40
0.7552336203
 40
0.7822031337
 40
0.8076567456
 40
0.8315949344
 40
0.8540288219
 40
0.8749836671
 40
0.8945009457
 40
0.9126431418
 40
0.9294980666
 40
0.945184889
 40
0.9598599849
 40
0.9737213022
 40
0.9870092614
 40
1.0
 40
1.0
 40
1.0
 40
1.0
 10
8.8755887635
 20
10.6774205405
 30
0.0
 10
8.8700930486
 20
10.6778016696
 30
0.0
 10
8.8592565
 20
10.678674608
 30
0.0
 10
8.843289446
 20
10.6803409305
 30
0.0
 10
8.8279027239
 20
10.6823378136
 30
0.0
 10
8.8131988885
 20
10.6846516827
 30
0.0
 10
8.7992760325
 20
10.687266805
 30
0.0
 10
8.7882254892
 20
10.6897210681
 30
0.0
 10
8.7798522886
 20
10.6918325201
 30
0.0
 10
8.7739281322
 20
10.6934537616
 30
0.0
 10
8.7682651262
 20
10.6951361089
 30
0.0
 10
8.7628726784
 20
10.6968767957
 30
0.0
 10
8.7577597379
 20
10.6986728853
 30
0.0
 10
8.7529347633
 20
10.7005213581
 30
0.0
 10
8.7484057214
 20
10.702419167
 30
0.0
 10
8.7441800326
 20
10.7043631031
 30
0.0
 10
8.740264616
 20
10.7063500481
 30
0.0
 10
8.7366657782
 20
10.7083766876
 30
0.0
 10
8.7333893281
 20
10.710439903
 30
0.0
 10
8.7304404203
 20
10.7125364361
 30
0.0
 10
8.727823743
 20
10.7146633125
 30
0.0
 10
8.7255434126
 20
10.7168176012
 30
0.0
 10
8.7236032347
 20
10.7189966989
 30
0.0
 10
8.7220068616
 20
10.7211982294
 30
0.0
 10
8.7207580682
 20
10.7234197762
 30
0.0
 10
8.7198611601
 20
10.7256588194
 30
0.0
 10
8.7193204536
 20
10.7279105496
 30
0.0
 10
8.7191995542
 20
10.7294237477
 30
0.0
 10
8.7191995542
 20
10.7301705001
 30
0.0
  0
SPLINE
  5
352
100
AcDbEntity
  8
0
100
AcDbSpline
 62
7
  6
CONTINUOUS
 70
0
 71
3
 72
23
 73
19
 74
0
 42
0.0000001
 43
0.0000001
 44
0.0000000001
 40
0.0
 40
0.0
 40
0.0
 40
0.0
 40
0.0637776914
 40
0.1273445726
 40
0.19070205
 40
0.2538561286
 40
0.3168131755
 40
0.3795820937
 40
0.4421733816
 40
0.5045993375
 40
0.566873868
 40
0.6290123843
 40
0.691031656
 40
0.7529496505
 40
0.8147853588
 40
0.8765586069
 40
0.938289857
 40
1.0
 40
1.0
 40
1.0
 40
1.0
 10
11.9411673455
 20
8.7206533793
 30
0.0
 10
11.9411673455
 20
8.7085880197
 30
0.0
 10
11.9405898968
 20
8.6844930909
 30
0.0
 10
11.9379833301
 20
8.6484971779
 30
0.0
 10
11.9336435598
 20
8.6127867234
 30
0.0
 10
11.9275806908
 20
8.577445268
 30
0.0
 10
11.9198084793
 20
8.5425538495
 30
0.0
 10
11.910344834
 20
8.5081930346
 30
0.0
 10
11.8992114564
 20
8.4744420072
 30
0.0
 10
11.8864339513
 20
8.4413786065
 30
0.0
 10
11.8720417025
 20
8.4090790854
 30
0.0
 10
11.8560678319
 20
8.3776179455
 30
0.0
 10
11.8385491299
 20
8.347067764
 30
0.0
 10
11.8195259372
 20
8.3174990013
 30
0.0
 10
11.7990421534
 20
8.2889799361
 30
0.0
 10
11.777144763
 20
8.2615761353
 30
0.0
 10
11.7538851172
 20
8.2353516811
 30
0.0
 10
11.7375031923
 20
8.2186921932
 30
0.0
 10
11.729106464
 20
8.2105815543
 30
0.0
  0
SPLINE
  5
353
100
AcDbEntity
  8
0
100
AcDbSpline
 62
7
  6
CONTINUOUS
 70
0
 71
3
 72
23
 73
19
 74
0
 42
0.0000001
 43
0.0000001
 44
0.0000000001
 40
0.0
 40
0.0
 40
0.0
 40
0.0
 40
0.0637776914
 40
0.1273445726
 40
0.19070205
 40
0.2538561286
 40
0.3168131755
 40
0.3795820937
 40
0.4421733816
 40
0.5045993375
 40
0.566873868
 40
0.6290123843
 40
0.691031656
 40
0.7529496505
 40
0.8147853588
 40
0.8765586069
 40
0.938289857
 40
1.0
 40
1.0
 40
1.0
 40
1.0
 10
10.3725036406
 20
7.0183295451
 30
0.0
 10
10.3725036406
 20
7.0062641855
 30
0.0
 10
10.3719261919
 20
6.9821692567
 30
0.0
 10
10.3693196253
 20
6.9461733438
 30
0.0
 10
10.3649798549
 20
6.9104628893
 30
0.0
 10
10.3589169859
 20
6.8751214339
 30
0.0
 10
10.3511447745
 20
6.8402300153
 30
0.0
 10
10.3416811291
 20
6.8058692004
 30
0.0
 10
10.3305477515
 20
6.772118173
 30
0.0
 10
10.3177702465
 20
6.7390547723
 30
0.0
 10
10.3033779976
 20
6.7067552512
 30
0.0
 10
10.2874041271
 20
6.6752941113
 30
0.0
 10
10.2698854251
 20
6.6447439298
 30
0.0
 10
10.2508622323
 20
6.6151751671
 30
0.0
 10
10.2303784485
 20
6.5866561019
 30
0.0
 10
10.2084810582
 20
6.5592523012
 30
0.0
 10
10.1852214124
 20
6.5330278469
 30
0.0
 10
10.1688394874
 20
6.516368359
 30
0.0
 10
10.1604427592
 20
6.5082577201
 30
0.0
  0
SPLINE
  5
354
100
AcDbEntity
  8
0
100
AcDbSpline
 62
7
  6
CONTINUOUS
 70
0
 71
3
 72
53
 73
49
 74
0
 42
0.0000001
 43
0.0000001
 44
0.0000000001
 40
0.0
 40
0.0
 40
0.0
 40
0.0
 40
0.0417740747
 40
0.0840370059
 40
0.1266586015
 40
0.1695066206
 40
0.2124482643
 40
0.2553502464
 40
0.2980794728
 40
0.3405035203
 40
0.3824911749
 40
0.4239129577
 40
0.4646416591
 40
0.5045528794
 40
0.5435255803
 40
0.5814426526
 40
0.6181915072
 40
0.6536646981
 40
0.6877605949
 40
0.7203841254
 40
0.7361164043
 40
0.7514483531
 40
0.7663703757
 40
0.7808733967
 40
0.7949490545
 40
0.8085896209
 40
0.8217881625
 40
0.8345385373
 40
0.8468355031
 40
0.8586748197
 40
0.8700533035
 40
0.880969049
 40
0.8914214554
 40
0.9014115674
 40
0.9109421276
 40
0.9200180273
 40
0.9286464653
 40
0.9368374971
 40
0.9446043876
 40
0.9519642556
 40
0.9589386637
 40
0.9655543233
 40
0.9718438245
 40
0.977846199
 40
0.9836073748
 40
0.9891800477
 40
0.9946230782
 40
1.0
 40
1.0
 40
1.0
 40
1.0
 10
13.2298851573
 20
9.6716815128
 30
0.0
 10
13.2298851573
 20
9.6880054278
 30
0.0
 10
13.230139827
 20
9.7208447997
 30
0.0
 10
13.2312656821
 20
9.7703276679
 30
0.0
 10
13.2331343184
 20
9.8202080931
 30
0.0
 10
13.235739618
 20
9.8703209875
 30
0.0
 10
13.2390729665
 20
9.9205005298
 30
0.0
 10
13.2431233478
 20
9.9705807208
 30
0.0
 10
13.2478773435
 20
10.0203958711
 30
0.0
 10
13.2533191945
 20
10.0697811809
 30
0.0
 10
13.2594308459
 20
10.1185732803
 30
0.0
 10
13.2661920082
 20
10.166610776
 30
0.0
 10
13.2735802228
 20
10.2137347901
 30
0.0
 10
13.281570935
 20
10.2597894925
 30
0.0
 10
13.2901375741
 20
10.3046226221
 30
0.0
 10
13.2992516374
 20
10.34808601
 30
0.0
 10
13.3088827867
 20
10.3900360518
 30
0.0
 10
13.3189989361
 20
10.4303343122
 30
0.0
 10
13.3295663982
 20
10.4688476102
 30
0.0
 10
13.3388277797
 20
10.4997110815
 30
0.0
 10
13.3464512031
 20
10.5234024555
 30
0.0
 10
13.3521903121
 20
10.5404318911
 30
0.0
 10
13.3580153121
 20
10.556923579
 30
0.0
 10
13.3639214827
 20
10.572863913
 30
0.0
 10
13.369903856
 20
10.5882397493
 30
0.0
 10
13.375957528
 20
10.6030384045
 30
0.0
 10
13.3820774505
 20
10.6172476959
 30
0.0
 10
13.3882585755
 20
10.6308559287
 30
0.0
 10
13.3944957994
 20
10.6438519188
 30
0.0
 10
13.4007839493
 20
10.6562250118
 30
0.0
 10
13.4071178965
 20
10.6679650609
 30
0.0
 10
13.413492376
 20
10.6790625005
 30
0.0
 10
13.4199022649
 20
10.689508259
 30
0.0
 10
13.4263422633
 20
10.6992938991
 30
0.0
 10
13.4328072896
 20
10.7084114597
 30
0.0
 10
13.439292099
 20
10.7168536502
 30
0.0
 10
13.4457917047
 20
10.7246136399
 30
0.0
 10
13.4523010432
 20
10.7316852543
 30
0.0
 10
13.4588153077
 20
10.7380627573
 30
0.0
 10
13.4653297538
 20
10.7437409534
 30
0.0
 10
13.471839838
 20
10.7487150266
 30
0.0
 10
13.4783411753
 20
10.7529804283
 30
0.0
 10
13.48482937
 20
10.7565328728
 30
0.0
 10
13.4913000318
 20
10.7593679666
 30
0.0
 10
13.4977481308
 20
10.761481598
 30
0.0
 10
13.5041683904
 20
10.7628695184
 30
0.0
 10
13.5105529868
 20
10.7635285617
 30
0.0
 10
13.5147918236
 20
10.763480104
 30
0.0
 10
13.5168879105
 20
10.7633347357
 30
0.0
  0
SPLINE
  5
355
100
AcDbEntity
  8
0
100
AcDbSpline
 62
7
  6
CONTINUOUS
 70
0
 71
3
 72
53
 73
49
 74
0
 42
0.0000001
 43
0.0000001
 44
0.0000000001
 40
0.0
 40
0.0
 40
0.0
 40
0.0
 40
0.0417740747
 40
0.0840370059
 40
0.1266586015
 40
0.1695066206
 40
0.2124482643
 40
0.2553502464
 40
0.2980794728
 40
0.3405035203
 40
0.3824911749
 40
0.4239129577
 40
0.4646416591
 40
0.5045528794
 40
0.5435255803
 40
0.5814426526
 40
0.6181915072
 40
0.6536646981
 40
0.6877605949
 40
0.7203841254
 40
0.7361164043
 40
0.7514483531
 40
0.7663703757
 40
0.7808733967
 40
0.7949490545
 40
0.8085896209
 40
0.8217881625
 40
0.8345385373
 40
0.8468355031
 40
0.8586748197
 40
0.8700533035
 40
0.880969049
 40
0.8914214554
 40
0.9014115674
 40
0.9109421276
 40
0.9200180273
 40
0.9286464653
 40
0.9368374971
 40
0.9446043876
 40
0.9519642556
 40
0.9589386637
 40
0.9655543233
 40
0.9718438245
 40
0.977846199
 40
0.9836073748
 40
0.9891800477
 40
0.9946230782
 40
1.0
 40
1.0
 40
1.0
 40
1.0
 10
13.2298851573
 20
7.1361260686
 30
0.0
 10
13.2298851573
 20
7.1524499836
 30
0.0
 10
13.230139827
 20
7.1852893554
 30
0.0
 10
13.2312656821
 20
7.2347722237
 30
0.0
 10
13.2331343184
 20
7.2846526488
 30
0.0
 10
13.235739618
 20
7.3347655432
 30
0.0
 10
13.2390729665
 20
7.3849450856
 30
0.0
 10
13.2431233478
 20
7.4350252766
 30
0.0
 10
13.2478773435
 20
7.4848404269
 30
0.0
 10
13.2533191945
 20
7.5342257367
 30
0.0
 10
13.2594308459
 20
7.583017836
 30
0.0
 10
13.2661920082
 20
7.6310553317
 30
0.0
 10
13.2735802228
 20
7.6781793458
 30
0.0
 10
13.281570935
 20
7.7242340483
 30
0.0
 10
13.2901375741
 20
7.7690671779
 30
0.0
 10
13.2992516374
 20
7.8125305658
 30
0.0
 10
13.3088827867
 20
7.8544806075
 30
0.0
 10
13.3189989361
 20
7.894778868
 30
0.0
 10
13.3295663982
 20
7.933292166
 30
0.0
 10
13.3388277797
 20
7.9641556372
 30
0.0
 10
13.3464512031
 20
7.9878470112
 30
0.0
 10
13.3521903121
 20
8.0048764468
 30
0.0
 10
13.3580153121
 20
8.0213681347
 30
0.0
 10
13.3639214827
 20
8.0373084687
 30
0.0
 10
13.369903856
 20
8.0526843051
 30
0.0
 10
13.375957528
 20
8.0674829603
 30
0.0
 10
13.3820774505
 20
8.0816922517
 30
0.0
 10
13.3882585755
 20
8.0953004845
 30
0.0
 10
13.3944957994
 20
8.1082964745
 30
0.0
 10
13.4007839493
 20
8.1206695675
 30
0.0
 10
13.4071178965
 20
8.1324096166
 30
0.0
 10
13.413492376
 20
8.1435070563
 30
0.0
 10
13.4199022649
 20
8.1539528148
 30
0.0
 10
13.4263422633
 20
8.1637384549
 30
0.0
 10
13.4328072896
 20
8.1728560155
 30
0.0
 10
13.439292099
 20
8.1812982059
 30
0.0
 10
13.4457917047
 20
8.1890581957
 30
0.0
 10
13.4523010432
 20
8.19612981
 30
0.0
 10
13.4588153077
 20
8.2025073131
 30
0.0
 10
13.4653297538
 20
8.2081855091
 30
0.0
 10
13.471839838
 20
8.2131595823
 30
0.0
 10
13.4783411753
 20
8.2174249841
 30
0.0
 10
13.48482937
 20
8.2209774286
 30
0.0
 10
13.4913000318
 20
8.2238125224
 30
0.0
 10
13.4977481308
 20
8.2259261537
 30
0.0
 10
13.5041683904
 20
8.2273140741
 30
0.0
 10
13.5105529868
 20
8.2279731175
 30
0.0
 10
13.5147918236
 20
8.2279246598
 30
0.0
 10
13.5168879105
 20
8.2277792914
 30
0.0
  0
SPLINE
  5
356
100
AcDbEntity
  8
0
100
AcDbSpline
 62
7
  6
CONTINUOUS
 70
0
 71
3
 72
23
 73
19
 74
0
 42
0.0000001
 43
0.0000001
 44
0.0000000001
 40
0.0
 40
0.0
 40
0.0
 40
0.0
 40
0.0637774724
 40
0.127344696
 40
0.1907020124
 40
0.2538561402
 40
0.3168131804
 40
0.3795820984
 40
0.4421733882
 40
0.5045993399
 40
0.5668738668
 40
0.6290123797
 40
0.6910316501
 40
0.7529496455
 40
0.8147853558
 40
0.8765586055
 40
0.9382898564
 40
1.0
 40
1.0
 40
1.0
 40
1.0
 10
11.8960276348
 20
8.7390517644
 30
0.0
 10
11.8960276348
 20
8.7279429959
 30
0.0
 10
11.8954959496
 20
8.7057583146
 30
0.0
 10
11.8930960519
 20
8.672616196
 30
0.0
 10
11.8891002996
 20
8.6397368641
 30
0.0
 10
11.8835181051
 20
8.6071973326
 30
0.0
 10
11.8763620612
 20
8.5750721349
 30
0.0
 10
11.8676486814
 20
8.5434354838
 30
0.0
 10
11.8573979269
 20
8.512360283
 30
0.0
 10
11.845633381
 20
8.481918201
 30
0.0
 10
11.8323821142
 20
8.4521794399
 30
0.0
 10
11.8176746266
 20
8.4232125907
 30
0.0
 10
11.8015447874
 20
8.3950844774
 30
0.0
 10
11.7840297322
 20
8.3678599782
 30
0.0
 10
11.765169869
 20
8.3416019674
 30
0.0
 10
11.7450084558
 20
8.3163708189
 30
0.0
 10
11.723592792
 20
8.2922255194
 30
0.0
 10
11.7085095869
 20
8.2768868649
 30
0.0
 10
11.7007785457
 20
8.2694192587
 30
0.0
  0
SPLINE
  5
357
100
AcDbEntity
  8
0
100
AcDbSpline
 62
7
  6
CONTINUOUS
 70
0
 71
3
 72
15
 73
11
 74
0
 42
0.0000001
 43
0.0000001
 44
0.0000000001
 40
0.0
 40
0.0
 40
0.0
 40
0.0
 40
0.1264442311
 40
0.2523456173
 40
0.3777573463
 40
0.502743308
 40
0.6273767125
 40
0.7517385671
 40
0.8759159311
 40
1.0
 40
1.0
 40
1.0
 40
1.0
 10
11.8923787581
 20
8.6672504863
 30
0.0
 10
11.8893473154
 20
8.6523458664
 30
0.0
 10
11.8822078997
 20
8.622809889
 30
0.0
 10
11.8682881154
 20
8.5795128814
 30
0.0
 10
11.8512497922
 20
8.5375315534
 30
0.0
 10
11.8311797441
 20
8.4970826153
 30
0.0
 10
11.8081797537
 20
8.4583712937
 30
0.0
 10
11.7823659583
 20
8.421594268
 30
0.0
 10
11.7538719614
 20
8.3869411614
 30
0.0
 10
11.7331770648
 20
8.3653640427
 30
0.0
 10
11.7224415415
 20
8.354994358
 30
0.0
  0
SPLINE
  5
358
100
AcDbEntity
  8
0
100
AcDbSpline
 62
7
  6
CONTINUOUS
 70
0
 71
3
 72
48
 73
44
 74
0
 42
0.0000001
 43
0.0000001
 44
0.0000000001
 40
0.0
 40
0.0
 40
0.0
 40
0.0
 40
0.0071510032
 40
0.0145726607
 40
0.0222964078
 40
0.030348849
 40
0.0387516057
 40
0.0475214546
 40
0.0566712605
 40
0.0662106443
 40
0.0761460907
 40
0.086481802
 40
0.0972195159
 40
0.1083593279
 40
0.1198994419
 40
0.1318366872
 40
0.1441665466
 40
0.1568831467
 40
0.1834439523
 40
0.2114554256
 40
0.240834663
 40
0.2714854835
 40
0.3033005852
 40
0.3361642664
 40
0.3529541616
 40
0.3699607713
 40
0.4045584909
 40
0.4398437185
 40
0.4757045755
 40
0.5120386893
 40
0.5487550106
 40
0.5857744383
 40
0.62302959
 40
0.6604639587
 40
0.6980306437
 40
0.7356910471
 40
0.773413704
 40
0.8111732592
 40
0.8489497713
 40
0.8867283699
 40
0.9244988495
 40
0.9622562696
 40
1.0
 40
1.0
 40
1.0
 40
1.0
 10
11.2923712851
 20
8.510174389
 30
0.0
 10
11.2908475933
 20
8.5087026157
 30
0.0
 10
11.2876139721
 20
8.5058340271
 30
0.0
 10
11.282342384
 20
8.5018446646
 30
0.0
 10
11.2765729468
 20
8.4981006069
 30
0.0
 10
11.2703130445
 20
8.4946091783
 30
0.0
 10
11.2635700609
 20
8.4913780535
 30
0.0
 10
11.2563522018
 20
8.4884165032
 30
0.0
 10
11.2486685276
 20
8.4857349021
 30
0.0
 10
11.2405290598
 20
8.4833446445
 30
0.0
 10
11.2319446958
 20
8.4812583345
 30
0.0
 10
11.2229275309
 20
8.4794892999
 30
0.0
 10
11.2134906686
 20
8.4780519983
 30
0.0
 10
11.2036485451
 20
8.4769613601
 30
0.0
 10
11.1934167808
 20
8.4762331846
 30
0.0
 10
11.1828124466
 20
8.475883576
 30
0.0
 10
11.1718538404
 20
8.4759290841
 30
0.0
 10
11.1565752836
 20
8.476547872
 30
0.0
 10
11.1367127629
 20
8.4784351516
 30
0.0
 10
11.1121588103
 20
8.4825066929
 30
0.0
 10
11.0867624015
 20
8.4885357288
 30
0.0
 10
11.0607609912
 20
8.4966218903
 30
0.0
 10
11.0344099784
 20
8.5068385027
 30
0.0
 10
11.0125380011
 20
8.5170892367
 30
0.0
 10
10.9951037793
 20
8.5263706159
 30
0.0
 10
10.9775516946
 20
8.536498994
 30
0.0
 10
10.9559299665
 20
8.5505055781
 30
0.0
 10
10.9308344871
 20
8.5692933818
 30
0.0
 10
10.9066662192
 20
8.5900590804
 30
0.0
 10
10.8836256258
 20
8.6126779118
 30
0.0
 10
10.8618820001
 20
8.6370078218
 30
0.0
 10
10.8415747077
 20
8.6628956492
 30
0.0
 10
10.8228147664
 20
8.6901834618
 30
0.0
 10
10.8056881569
 20
8.7187133082
 30
0.0
 10
10.7902596636
 20
8.7483306895
 30
0.0
 10
10.7765768697
 20
8.778886773
 30
0.0
 10
10.7646738665
 20
8.8102396009
 30
0.0
 10
10.7545745239
 20
8.8422545579
 30
0.0
 10
10.746295144
 20
8.8748043949
 30
0.0
 10
10.7398466646
 20
8.907768736
 30
0.0
 10
10.7352361167
 20
8.9410342913
 30
0.0
 10
10.732468019
 20
8.9744920084
 30
0.0
 10
10.7318524784
 20
8.9968635465
 30
0.0
 10
10.7318524784
 20
9.0080448478
 30
0.0
  0
SPLINE
  5
359
100
AcDbEntity
  8
0
100
AcDbSpline
 62
7
  6
CONTINUOUS
 70
0
 71
3
 72
47
 73
43
 74
0
 42
0.0000001
 43
0.0000001
 44
0.0000000001
 40
0.0
 40
0.0
 40
0.0
 40
0.0
 40
0.0310739092
 40
0.0623050493
 40
0.093688793
 40
0.1252165054
 40
0.1568767965
 40
0.1886554889
 40
0.2205359759
 40
0.252499584
 40
0.2845259636
 40
0.3165935101
 40
0.3486797987
 40
0.3807620323
 40
0.4128174943
 40
0.4448239996
 40
0.4767603407
 40
0.5086067173
 40
0.5403451453
 40
0.5719598413
 40
0.6034375724
 40
0.6347679604
 40
0.6659437388
 40
0.6969609577
 40
0.7278191155
 40
0.7585212212
 40
0.7738184273
 40
0.7890793501
 40
0.8043053363
 40
0.819497931
 40
0.8346588746
 40
0.8497900954
 40
0.8648936935
 40
0.8799719343
 40
0.8950272361
 40
0.9100621516
 40
0.925079358
 40
0.9400816404
 40
0.9550718718
 40
0.9700530002
 40
0.9850280299
 40
1.0
 40
1.0
 40
1.0
 40
1.0
 10
11.8960276348
 20
8.7390517644
 30
0.0
 10
11.8960276348
 20
8.7562869456
 30
0.0
 10
11.89474192
 20
8.7908577786
 30
0.0
 10
11.889001537
 20
8.842548517
 30
0.0
 10
11.8794768198
 20
8.8939357353
 30
0.0
 10
11.8662203912
 20
8.9447335927
 30
0.0
 10
11.8493056371
 20
8.994664115
 30
0.0
 10
11.8288258803
 20
9.043453004
 30
0.0
 10
11.8048938671
 20
9.0908325746
 30
0.0
 10
11.7776412271
 20
9.136542806
 30
0.0
 10
11.7472178234
 20
9.1803329274
 30
0.0
 10
11.7137907763
 20
9.2219626559
 30
0.0
 10
11.6775435869
 20
9.2612035011
 30
0.0
 10
11.6386752752
 20
9.297840129
 30
0.0
 10
11.5973991622
 20
9.3316714294
 30
0.0
 10
11.5539416982
 20
9.3625115608
 30
0.0
 10
11.5085413403
 20
9.3901910902
 30
0.0
 10
11.4614472152
 20
9.4145578922
 30
0.0
 10
11.412917714
 20
9.4354778671
 30
0.0
 10
11.363219145
 20
9.4528357473
 30
0.0
 10
11.3126243345
 20
9.4665358471
 30
0.0
 10
11.26141102
 20
9.4765024073
 30
0.0
 10
11.2098606074
 20
9.4826800729
 30
0.0
 10
11.1582558197
 20
9.4850342441
 30
0.0
 10
11.1068822714
 20
9.4835517417
 30
0.0
 10
11.0644396665
 20
9.479118533
 30
0.0
 10
11.0308949857
 20
9.4736666261
 30
0.0
 10
11.005996985
 20
9.4686382135
 30
0.0
 10
10.981366761
 20
9.4626727332
 30
0.0
 10
10.957037761
 20
9.4557782371
 30
0.0
 10
10.9330435747
 20
9.4479642447
 30
0.0
 10
10.9094171631
 20
9.4392415403
 30
0.0
 10
10.8861910882
 20
9.429621998
 30
0.0
 10
10.8633972824
 20
9.4191189146
 30
0.0
 10
10.841067101
 20
9.4077467484
 30
0.0
 10
10.8192313288
 20
9.3955210351
 30
0.0
 10
10.7979199707
 20
9.3824586838
 30
0.0
 10
10.7771623534
 20
9.3685776403
 30
0.0
 10
10.7569871276
 20
9.3538969508
 30
0.0
 10
10.7374218939
 20
9.3384368117
 30
0.0
 10
10.7184939749
 20
9.3222188182
 30
0.0
 10
10.7063163034
 20
9.3109151471
 30
0.0
 10
10.7003434517
 20
9.3051458202
 30
0.0
  0
SPLINE
  5
35A
100
AcDbEntity
  8
0
100
AcDbSpline
 62
7
  6
CONTINUOUS
 70
0
 71
3
 72
21
 73
17
 74
0
 42
0.0000001
 43
0.0000001
 44
0.0000000001
 40
0.0
 40
0.0
 40
0.0
 40
0.0
 40
0.1236763482
 40
0.2473977035
 40
0.3093310309
 40
0.3713320883
 40
0.4334252281
 40
0.4956360159
 40
0.5579903905
 40
0.6205132169
 40
0.6832267768
 40
0.7461489496
 40
0.8092909174
 40
0.8726549867
 40
0.9362322275
 40
1.0
 40
1.0
 40
1.0
 40
1.0
 10
10.7318524784
 20
9.0080448478
 30
0.0
 10
10.7318524784
 20
9.0247898608
 30
0.0
 10
10.73323342
 20
9.0583013539
 30
0.0
 10
10.7384129365
 20
9.0999115446
 30
0.0
 10
10.7446160142
 20
9.1328721882
 30
0.0
 10
10.7502999225
 20
9.1574171861
 30
0.0
 10
10.757009484
 20
9.181740483
 30
0.0
 10
10.7647395748
 20
9.2058093073
 30
0.0
 10
10.7734830376
 20
9.2295907569
 30
0.0
 10
10.783230311
 20
9.2530524046
 30
0.0
 10
10.7939688456
 20
9.2761619421
 30
0.0
 10
10.8056824167
 20
9.2988871179
 30
0.0
 10
10.818350116
 20
9.3211957106
 30
0.0
 10
10.8319456958
 20
9.3430556766
 30
0.0
 10
10.8464362111
 20
9.3644346632
 30
0.0
 10
10.8566540549
 20
9.3783285874
 30
0.0
 10
10.8618983432
 20
9.385187107
 30
0.0
  0
SPLINE
  5
35B
100
AcDbEntity
  8
0
100
AcDbSpline
 62
7
  6
CONTINUOUS
 70
0
 71
3
 72
18
 73
14
 74
0
 42
0.0000001
 43
0.0000001
 44
0.0000000001
 40
0.0
 40
0.0
 40
0.0
 40
0.0
 40
0.1264277499
 40
0.2523154137
 40
0.3777161502
 40
0.5026936021
 40
0.6273206272
 40
0.6895387991
 40
0.751700113
 40
0.8138155617
 40
0.8758963798
 40
0.937954003
 40
1.0
 40
1.0
 40
1.0
 40
1.0
 10
11.1034148978
 20
9.4826488442
 30
0.0
 10
11.0884687574
 20
9.4801159218
 30
0.0
 10
11.0588127178
 20
9.4739719306
 30
0.0
 10
11.015223325
 20
9.461534309
 30
0.0
 10
10.9728369132
 20
9.4459559348
 30
0.0
 10
10.931872291
 20
9.4273165851
 30
0.0
 10
10.8990677359
 20
9.4092972433
 30
0.0
 10
10.873751509
 20
9.3934581263
 30
0.0
 10
10.8552527128
 20
9.3808849071
 30
0.0
 10
10.8372579132
 20
9.3676286986
 30
0.0
 10
10.8197894571
 20
9.3537058569
 30
0.0
 10
10.8028696918
 20
9.3391344341
 30
0.0
 10
10.7919688351
 20
9.3289988812
 30
0.0
 10
10.7866178669
 20
9.32383026
 30
0.0
  0
SPLINE
  5
35C
100
AcDbEntity
  8
0
100
AcDbSpline
 62
7
  6
CONTINUOUS
 70
0
 71
3
 72
23
 73
19
 74
0
 42
0.0000001
 43
0.0000001
 44
0.0000000001
 40
0.0
 40
0.0
 40
0.0
 40
0.0
 40
0.0637774724
 40
0.127344696
 40
0.1907020124
 40
0.2538561402
 40
0.3168131804
 40
0.3795820984
 40
0.4421733882
 40
0.5045993399
 40
0.5668738668
 40
0.6290123797
 40
0.6910316501
 40
0.7529496455
 40
0.8147853558
 40
0.8765586055
 40
0.9382898564
 40
1.0
 40
1.0
 40
1.0
 40
1.0
 10
10.32736393
 20
7.0367279302
 30
0.0
 10
10.32736393
 20
7.0256191617
 30
0.0
 10
10.3268322448
 20
7.0034344805
 30
0.0
 10
10.3244323471
 20
6.9702923618
 30
0.0
 10
10.3204365947
 20
6.93741303
 30
0.0
 10
10.3148544003
 20
6.9048734985
 30
0.0
 10
10.3076983563
 20
6.8727483007
 30
0.0
 10
10.2989849765
 20
6.8411116496
 30
0.0
 10
10.2887342221
 20
6.8100364488
 30
0.0
 10
10.2769696762
 20
6.7795943668
 30
0.0
 10
10.2637184094
 20
6.7498556057
 30
0.0
 10
10.2490109217
 20
6.7208887565
 30
0.0
 10
10.2328810825
 20
6.6927606432
 30
0.0
 10
10.2153660273
 20
6.665536144
 30
0.0
 10
10.1965061642
 20
6.6392781332
 30
0.0
 10
10.176344751
 20
6.6140469847
 30
0.0
 10
10.1549290871
 20
6.5899016852
 30
0.0
 10
10.1398458821
 20
6.5745630308
 30
0.0
 10
10.1321148409
 20
6.5670954245
 30
0.0
  0
SPLINE
  5
35D
100
AcDbEntity
  8
0
100
AcDbSpline
 62
7
  6
CONTINUOUS
 70
0
 71
3
 72
33
 73
29
 74
0
 42
0.0000001
 43
0.0000001
 44
0.0000000001
 40
0.0
 40
0.0
 40
0.0
 40
0.0
 40
0.1091653631
 40
0.211498482
 40
0.3068940709
 40
0.3952909319
 40
0.4766752244
 40
0.5147545803
 40
0.5511007197
 40
0.5857299122
 40
0.6186612032
 40
0.6499192068
 40
0.6795360186
 40
0.7075487276
 40
0.7340033905
 40
0.7589564466
 40
0.7824737877
 40
0.8046358134
 40
0.8255389488
 40
0.863996569
 40
0.8818874933
 40
0.8991012163
 40
0.9158371695
 40
0.9323107359
 40
0.9487447883
 40
0.9653636438
 40
0.9823827116
 40
1.0
 40
1.0
 40
1.0
 40
1.0
 10
10.2250573605
 20
6.735994118
 30
0.0
 10
10.2218329001
 20
6.7342264635
 30
0.0
 10
10.2155068426
 20
6.7309428897
 30
0.0
 10
10.2061041483
 20
6.726636727
 30
0.0
 10
10.1971387423
 20
6.7230862103
 30
0.0
 10
10.1886575124
 20
6.7202678874
 30
0.0
 10
10.1818854297
 20
6.718468368
 30
0.0
 10
10.1767492381
 20
6.7173843685
 30
0.0
 10
10.1731292712
 20
6.7167547388
 30
0.0
 10
10.1696598444
 20
6.716286048
 30
0.0
 10
10.1663448546
 20
6.7159741042
 30
0.0
 10
10.1631879948
 20
6.7158146396
 30
0.0
 10
10.1601927025
 20
6.7158032499
 30
0.0
 10
10.1573621413
 20
6.7159355646
 30
0.0
 10
10.1546992571
 20
6.7162072149
 30
0.0
 10
10.1522066956
 20
6.7166138305
 30
0.0
 10
10.1498870758
 20
6.7171510323
 30
0.0
 10
10.1477421433
 20
6.7178149251
 30
0.0
 10
10.145190509
 20
6.7188341821
 30
0.0
 10
10.1429005905
 20
6.7201109834
 30
0.0
 10
10.140956111
 20
6.721654081
 30
0.0
 10
10.1397175938
 20
6.7228909354
 30
0.0
 10
10.138666671
 20
6.7242307225
 30
0.0
 10
10.1378051667
 20
6.7256691876
 30
0.0
 10
10.1371348194
 20
6.7272017393
 30
0.0
 10
10.136656704
 20
6.72882373
 30
0.0
 10
10.1363712551
 20
6.7305303631
 30
0.0
 10
10.1363107306
 20
6.7316982447
 30
0.0
 10
10.1363105813
 20
6.7322916762
 30
0.0
  0
SPLINE
  5
35E
100
AcDbEntity
  8
0
100
AcDbSpline
 62
7
  6
CONTINUOUS
 70
0
 71
3
 72
15
 73
11
 74
0
 42
0.0000001
 43
0.0000001
 44
0.0000000001
 40
0.0
 40
0.0
 40
0.0
 40
0.0
 40
0.1264442311
 40
0.2523456173
 40
0.3777573463
 40
0.502743308
 40
0.6273767125
 40
0.7517385671
 40
0.8759159311
 40
1.0
 40
1.0
 40
1.0
 40
1.0
 10
10.3237150533
 20
6.9649266522
 30
0.0
 10
10.3206836106
 20
6.9500220322
 30
0.0
 10
10.3135441948
 20
6.9204860549
 30
0.0
 10
10.2996244105
 20
6.8771890472
 30
0.0
 10
10.2825860874
 20
6.8352077193
 30
0.0
 10
10.2625160393
 20
6.7947587811
 30
0.0
 10
10.2395160488
 20
6.7560474596
 30
0.0
 10
10.2137022535
 20
6.7192704338
 30
0.0
 10
10.1852082565
 20
6.6846173272
 30
0.0
 10
10.1645133599
 20
6.6630402085
 30
0.0
 10
10.1537778367
 20
6.6526705238
 30
0.0
  0
SPLINE
  5
35F
100
AcDbEntity
  8
0
100
AcDbSpline
 62
7
  6
CONTINUOUS
 70
0
 71
3
 72
47
 73
43
 74
0
 42
0.0000001
 43
0.0000001
 44
0.0000000001
 40
0.0
 40
0.0
 40
0.0
 40
0.0
 40
0.0310739092
 40
0.0623050493
 40
0.093688793
 40
0.1252165054
 40
0.1568767965
 40
0.1886554889
 40
0.2205359759
 40
0.252499584
 40
0.2845259636
 40
0.3165935101
 40
0.3486797987
 40
0.3807620323
 40
0.4128174943
 40
0.4448239996
 40
0.4767603407
 40
0.5086067173
 40
0.5403451453
 40
0.5719598413
 40
0.6034375724
 40
0.6347679604
 40
0.6659437388
 40
0.6969609577
 40
0.7278191155
 40
0.7585212212
 40
0.7738184273
 40
0.7890793501
 40
0.8043053363
 40
0.819497931
 40
0.8346588746
 40
0.8497900954
 40
0.8648936935
 40
0.8799719343
 40
0.8950272361
 40
0.9100621516
 40
0.925079358
 40
0.9400816404
 40
0.9550718718
 40
0.9700530002
 40
0.9850280299
 40
1.0
 40
1.0
 40
1.0
 40
1.0
 10
10.32736393
 20
7.0367279302
 30
0.0
 10
10.32736393
 20
7.0539631114
 30
0.0
 10
10.3260782151
 20
7.0885339444
 30
0.0
 10
10.3203378322
 20
7.1402246828
 30
0.0
 10
10.310813115
 20
7.1916119012
 30
0.0
 10
10.2975566863
 20
7.2424097585
 30
0.0
 10
10.2806419323
 20
7.2923402808
 30
0.0
 10
10.2601621755
 20
7.3411291698
 30
0.0
 10
10.2362301622
 20
7.3885087404
 30
0.0
 10
10.2089775222
 20
7.4342189718
 30
0.0
 10
10.1785541186
 20
7.4780090932
 30
0.0
 10
10.1451270714
 20
7.5196388218
 30
0.0
 10
10.108879882
 20
7.5588796669
 30
0.0
 10
10.0700115704
 20
7.5955162948
 30
0.0
 10
10.0287354574
 20
7.6293475952
 30
0.0
 10
9.9852779934
 20
7.6601877266
 30
0.0
 10
9.9398776354
 20
7.687867256
 30
0.0
 10
9.8927835104
 20
7.7122340581
 30
0.0
 10
9.8442540091
 20
7.7331540329
 30
0.0
 10
9.7945554402
 20
7.7505119132
 30
0.0
 10
9.7439606296
 20
7.7642120129
 30
0.0
 10
9.6927473152
 20
7.7741785731
 30
0.0
 10
9.6411969025
 20
7.7803562388
 30
0.0
 10
9.5895921148
 20
7.7827104099
 30
0.0
 10
9.5382185665
 20
7.7812279076
 30
0.0
 10
9.4957759616
 20
7.7767946988
 30
0.0
 10
9.4622312808
 20
7.771342792
 30
0.0
 10
9.4373332801
 20
7.7663143793
 30
0.0
 10
9.4127030562
 20
7.760348899
 30
0.0
 10
9.3883740562
 20
7.7534544029
 30
0.0
 10
9.3643798699
 20
7.7456404105
 30
0.0
 10
9.3407534583
 20
7.7369177061
 30
0.0
 10
9.3175273833
 20
7.7272981638
 30
0.0
 10
9.2947335775
 20
7.7167950804
 30
0.0
 10
9.2724033961
 20
7.7054229142
 30
0.0
 10
9.2505676239
 20
7.6931972009
 30
0.0
 10
9.2292562659
 20
7.6801348496
 30
0.0
 10
9.2084986486
 20
7.6662538061
 30
0.0
 10
9.1883234227
 20
7.6515731166
 30
0.0
 10
9.1687581891
 20
7.6361129775
 30
0.0
 10
9.1498302701
 20
7.619894984
 30
0.0
 10
9.1376525985
 20
7.608591313
 30
0.0
 10
9.1316797469
 20
7.602821986
 30
0.0
  0
SPLINE
  5
360
100
AcDbEntity
  8
0
100
AcDbSpline
 62
7
  6
CONTINUOUS
 70
0
 71
3
 72
18
 73
14
 74
0
 42
0.0000001
 43
0.0000001
 44
0.0000000001
 40
0.0
 40
0.0
 40
0.0
 40
0.0
 40
0.1264277499
 40
0.2523154137
 40
0.3777161502
 40
0.5026936021
 40
0.6273206272
 40
0.6895387991
 40
0.751700113
 40
0.8138155617
 40
0.8758963798
 40
0.937954003
 40
1.0
 40
1.0
 40
1.0
 40
1.0
 10
9.534751193
 20
7.78032501
 30
0.0
 10
9.5198050525
 20
7.7777920876
 30
0.0
 10
9.490149013
 20
7.7716480964
 30
0.0
 10
9.4465596202
 20
7.7592104748
 30
0.0
 10
9.4041732083
 20
7.7436321006
 30
0.0
 10
9.3632085862
 20
7.7249927509
 30
0.0
 10
9.330404031
 20
7.7069734091
 30
0.0
 10
9.3050878041
 20
7.6911342922
 30
0.0
 10
9.2865890079
 20
7.6785610729
 30
0.0
 10
9.2685942083
 20
7.6653048644
 30
0.0
 10
9.2511257522
 20
7.6513820227
 30
0.0
 10
9.234205987
 20
7.6368105999
 30
0.0
 10
9.2233051302
 20
7.626675047
 30
0.0
 10
9.217954162
 20
7.6215064258
 30
0.0
  0
SPLINE
  5
361
100
AcDbEntity
  8
0
100
AcDbSpline
 62
7
  6
CONTINUOUS
 70
0
 71
3
 72
11
 73
7
 74
0
 42
0.0000001
 43
0.0000001
 44
0.0000000001
 40
0.0
 40
0.0
 40
0.0
 40
0.0
 40
0.2517361533
 40
0.5025275895
 40
0.7520649033
 40
1.0
 40
1.0
 40
1.0
 40
1.0
 10
9.9111573326
 20
7.6001078202
 30
0.0
 10
9.9078147474
 20
7.6093554261
 30
0.0
 10
9.9017765276
 20
7.6280522622
 30
0.0
 10
9.894673968
 20
7.6565797706
 30
0.0
 10
9.8895291739
 20
7.6853728487
 30
0.0
 10
9.8873712956
 20
7.7047006077
 30
0.0
 10
9.8866046083
 20
7.7143549008
 30
0.0
  0
SPLINE
  5
362
100
AcDbEntity
  8
0
100
AcDbSpline
 62
7
  6
CONTINUOUS
 70
0
 71
3
 72
42
 73
38
 74
0
 42
0.0000001
 43
0.0000001
 44
0.0000000001
 40
0.0
 40
0.0
 40
0.0
 40
0.0
 40
0.0055576443
 40
0.0111781836
 40
0.0169222355
 40
0.022846223
 40
0.0290011442
 40
0.0354316623
 40
0.0421762431
 40
0.049267259
 40
0.0567314277
 40
0.0645907244
 40
0.072862575
 40
0.081560766
 40
0.0906959315
 40
0.100275708
 40
0.1103055927
 40
0.1207888494
 40
0.1431177711
 40
0.1672591076
 40
0.1931868442
 40
0.2208588039
 40
0.2502193991
 40
0.2812018039
 40
0.3137295194
 40
0.3477175618
 40
0.3830734051
 40
0.419697946
 40
0.4574862654
 40
0.4963282772
 40
0.5361092896
 40
0.5767106614
 40
0.6598810502
 40
0.7448351505
 40
0.8305372122
 40
0.9159392559
 40
1.0
 40
1.0
 40
1.0
 40
1.0
 10
12.7634215829
 20
10.4789685468
 30
0.0
 10
12.7634215829
 20
10.4784465742
 30
0.0
 10
12.7633631627
 20
10.477395812
 30
0.0
 10
12.7631008557
 20
10.4758252796
 30
0.0
 10
12.7626643605
 20
10.4742582548
 30
0.0
 10
12.7620545552
 20
10.4726965324
 30
0.0
 10
12.7612723462
 20
10.4711414262
 30
0.0
 10
12.7603188975
 20
10.4695940709
 30
0.0
 10
12.7591952217
 20
10.4680555665
 30
0.0
 10
12.7579024316
 20
10.4665269533
 30
0.0
 10
12.7564417248
 20
10.4650092131
 30
0.0
 10
12.7548142614
 20
10.4635034701
 30
0.0
 10
12.7530214161
 20
10.4620107453
 30
0.0
 10
12.7510646083
 20
10.4605321526
 30
0.0
 10
12.7489453762
 20
10.4590688482
 30
0.0
 10
12.7466654457
 20
10.4576219049
 30
0.0
 10
12.7442266036
 20
10.4561924894
 30
0.0
 10
12.7406907007
 20
10.4542709299
 30
0.0
 10
12.7358774902
 20
10.4519305286
 30
0.0
 10
12.7296192908
 20
10.4492658242
 30
0.0
 10
12.7227823966
 20
10.4466973757
 30
0.0
 10
12.7153888836
 20
10.4442335943
 30
0.0
 10
12.7074624926
 20
10.4418825724
 30
0.0
 10
12.6990289117
 20
10.4396520814
 30
0.0
 10
12.6901155352
 20
10.4375495081
 30
0.0
 10
12.6807514001
 20
10.4355818252
 30
0.0
 10
12.670967071
 20
10.4337555384
 30
0.0
 10
12.6607945214
 20
10.4320766931
 30
0.0
 10
12.6502670104
 20
10.4305508448
 30
0.0
 10
12.6394189879
 20
10.4291830593
 30
0.0
 10
12.6282859389
 20
10.427977819
 30
0.0
 10
12.6129880662
 20
10.4265818542
 30
0.0
 10
12.5934244129
 20
10.4252780303
 30
0.0
 10
12.5695970787
 20
10.424420044
 30
0.0
 10
12.5455450518
 20
10.4242681576
 30
0.0
 10
12.5215831669
 20
10.4248243637
 30
0.0
 10
12.5056868742
 20
10.4256723815
 30
0.0
 10
12.4978108267
 20
10.4262185872
 30
0.0
  0
SPLINE
  5
363
100
AcDbEntity
  8
0
100
AcDbSpline
 62
7
  6
CONTINUOUS
 70
0
 71
3
 72
42
 73
38
 74
0
 42
0.0000001
 43
0.0000001
 44
0.0000000001
 40
0.0
 40
0.0
 40
0.0
 40
0.0
 40
0.0055576443
 40
0.0111781836
 40
0.0169222355
 40
0.022846223
 40
0.0290011442
 40
0.0354316623
 40
0.0421762431
 40
0.049267259
 40
0.0567314277
 40
0.0645907244
 40
0.072862575
 40
0.081560766
 40
0.0906959315
 40
0.100275708
 40
0.1103055927
 40
0.1207888494
 40
0.1431177711
 40
0.1672591076
 40
0.1931868442
 40
0.2208588039
 40
0.2502193991
 40
0.2812018039
 40
0.3137295194
 40
0.3477175618
 40
0.3830734051
 40
0.419697946
 40
0.4574862654
 40
0.4963282772
 40
0.5361092896
 40
0.5767106614
 40
0.6598810502
 40
0.7448351505
 40
0.8305372122
 40
0.9159392559
 40
1.0
 40
1.0
 40
1.0
 40
1.0
 10
9.1411995197
 20
10.7301705001
 30
0.0
 10
9.1411995197
 20
10.7296485275
 30
0.0
 10
9.1411410995
 20
10.7285977653
 30
0.0
 10
9.1408787924
 20
10.7270272329
 30
0.0
 10
9.1404422973
 20
10.7254602081
 30
0.0
 10
9.139832492
 20
10.7238984857
 30
0.0
 10
9.139050283
 20
10.7223433795
 30
0.0
 10
9.1380968343
 20
10.7207960242
 30
0.0
 10
9.1369731585
 20
10.7192575198
 30
0.0
 10
9.1356803684
 20
10.7177289066
 30
0.0
 10
9.1342196616
 20
10.7162111664
 30
0.0
 10
9.1325921982
 20
10.7147054234
 30
0.0
 10
9.1307993529
 20
10.7132126986
 30
0.0
 10
9.1288425451
 20
10.7117341059
 30
0.0
 10
9.1267233129
 20
10.7102708014
 30
0.0
 10
9.1244433824
 20
10.7088238582
 30
0.0
 10
9.1220045404
 20
10.7073944426
 30
0.0
 10
9.1184686375
 20
10.7054728831
 30
0.0
 10
9.113655427
 20
10.7031324819
 30
0.0
 10
9.1073972276
 20
10.7004677775
 30
0.0
 10
9.1005603334
 20
10.697899329
 30
0.0
 10
9.0931668204
 20
10.6954355476
 30
0.0
 10
9.0852404294
 20
10.6930845257
 30
0.0
 10
9.0768068485
 20
10.6908540347
 30
0.0
 10
9.067893472
 20
10.6887514614
 30
0.0
 10
9.0585293369
 20
10.6867837785
 30
0.0
 10
9.0487450078
 20
10.6849574917
 30
0.0
 10
9.0385724582
 20
10.6832786464
 30
0.0
 10
9.0280449472
 20
10.6817527981
 30
0.0
 10
9.0171969247
 20
10.6803850126
 30
0.0
 10
9.0060638757
 20
10.6791797722
 30
0.0
 10
8.990766003
 20
10.6777838075
 30
0.0
 10
8.9712023496
 20
10.6764799836
 30
0.0
 10
8.9473750155
 20
10.6756219973
 30
0.0
 10
8.9233229886
 20
10.6754701109
 30
0.0
 10
8.8993611037
 20
10.676026317
 30
0.0
 10
8.883464811
 20
10.6768743347
 30
0.0
 10
8.8755887635
 20
10.6774205405
 30
0.0
  0
SPLINE
  5
364
100
AcDbEntity
  8
0
100
AcDbSpline
 62
7
  6
CONTINUOUS
 70
0
 71
3
 72
49
 73
45
 74
0
 42
0.0000001
 43
0.0000001
 44
0.0000000001
 40
0.0
 40
0.0
 40
0.0
 40
0.0
 40
0.0149718081
 40
0.0299466748
 40
0.0449276404
 40
0.059917709
 40
0.0749198276
 40
0.0899368702
 40
0.1049716217
 40
0.120026759
 40
0.1351048351
 40
0.1502082677
 40
0.1653393229
 40
0.1805001009
 40
0.1956925286
 40
0.2109183481
 40
0.2261791043
 40
0.2414761418
 40
0.256810598
 40
0.2721833946
 40
0.287595237
 40
0.3030466133
 40
0.3340634927
 40
0.3652389307
 40
0.3965689749
 40
0.4280463623
 40
0.4596607137
 40
0.4913987952
 40
0.5232448251
 40
0.5551808189
 40
0.5871869764
 40
0.6192420905
 40
0.6513239761
 40
0.6834099169
 40
0.7154771164
 40
0.7475031494
 40
0.779466411
 40
0.8113465537
 40
0.8431249023
 40
0.8747848503
 40
0.906312225
 40
0.9376956122
 40
0.9689264437
 40
1.0
 40
1.0
 40
1.0
 40
1.0
 10
10.6425201451
 20
9.3354931656
 30
0.0
 10
10.6490073215
 20
9.341759314
 30
0.0
 10
10.6622336129
 20
9.3540363984
 30
0.0
 10
10.6827914174
 20
9.3716510055
 30
0.0
 10
10.7040413936
 20
9.3884425317
 30
0.0
 10
10.7259539286
 20
9.4043874418
 30
0.0
 10
10.7484989895
 20
9.4194638721
 30
0.0
 10
10.7716454747
 20
9.4336511175
 30
0.0
 10
10.7953615483
 20
9.4469296573
 30
0.0
 10
10.8196145955
 20
9.459281173
 30
0.0
 10
10.8443712024
 20
9.4706887491
 30
0.0
 10
10.8695973019
 20
9.4811367056
 30
0.0
 10
10.8952582061
 20
9.4906106144
 30
0.0
 10
10.9213185792
 20
9.4990975172
 30
0.0
 10
10.9477425598
 20
9.5065857772
 30
0.0
 10
10.9744938102
 20
9.5130650404
 30
0.0
 10
11.0015355156
 20
9.5185264537
 30
0.0
 10
11.02883046
 20
9.522962566
 30
0.0
 10
11.0563411422
 20
9.5263672282
 30
0.0
 10
11.0840295857
 20
9.5287358037
 30
0.0
 10
11.1118581912
 20
9.5300650708
 30
0.0
 10
11.1491411514
 20
9.5304498794
 30
0.0
 10
11.1959134214
 20
9.5283164801
 30
0.0
 10
11.2519017501
 20
9.5216068657
 30
0.0
 10
11.3075255065
 20
9.5107822157
 30
0.0
 10
11.3624770734
 20
9.4959024182
 30
0.0
 10
11.4164553342
 20
9.4770498645
 30
0.0
 10
11.4691638528
 20
9.4543285217
 30
0.0
 10
11.5203133821
 20
9.4278634853
 30
0.0
 10
11.5696232985
 20
9.3978004654
 30
0.0
 10
11.6168230098
 20
9.3643046603
 30
0.0
 10
11.6616535381
 20
9.3275601168
 30
0.0
 10
11.7038689384
 20
9.2877686788
 30
0.0
 10
11.7432374523
 20
9.2451487126
 30
0.0
 10
11.7795430284
 20
9.199934196
 30
0.0
 10
11.8125863178
 20
9.1523732452
 30
0.0
 10
11.8421857185
 20
9.1027267858
 30
0.0
 10
11.8681786233
 20
9.0512672805
 30
0.0
 10
11.8904219856
 20
8.9982770866
 30
0.0
 10
11.9087932814
 20
8.9440469222
 30
0.0
 10
11.9231912797
 20
8.8888747633
 30
0.0
 10
11.9335362295
 20
8.8330624703
 30
0.0
 10
11.9397709037
 20
8.776920524
 30
0.0
 10
11.9411673455
 20
8.7393727111
 30
0.0
 10
11.9411673455
 20
8.7206533793
 30
0.0
  0
SPLINE
  5
365
100
AcDbEntity
  8
0
100
AcDbSpline
 62
7
  6
CONTINUOUS
 70
0
 71
3
 72
49
 73
45
 74
0
 42
0.0000001
 43
0.0000001
 44
0.0000000001
 40
0.0
 40
0.0
 40
0.0
 40
0.0
 40
0.0149718081
 40
0.0299466748
 40
0.0449276404
 40
0.059917709
 40
0.0749198276
 40
0.0899368702
 40
0.1049716217
 40
0.120026759
 40
0.1351048351
 40
0.1502082677
 40
0.1653393229
 40
0.1805001009
 40
0.1956925286
 40
0.2109183481
 40
0.2261791043
 40
0.2414761418
 40
0.256810598
 40
0.2721833946
 40
0.287595237
 40
0.3030466133
 40
0.3340634927
 40
0.3652389307
 40
0.3965689749
 40
0.4280463623
 40
0.4596607137
 40
0.4913987952
 40
0.5232448251
 40
0.5551808189
 40
0.5871869764
 40
0.6192420905
 40
0.6513239761
 40
0.6834099169
 40
0.7154771164
 40
0.7475031494
 40
0.779466411
 40
0.8113465537
 40
0.8431249023
 40
0.8747848503
 40
0.906312225
 40
0.9376956122
 40
0.9689264437
 40
1.0
 40
1.0
 40
1.0
 40
1.0
 10
9.0738564403
 20
7.6331693314
 30
0.0
 10
9.0803436167
 20
7.6394354799
 30
0.0
 10
9.0935699081
 20
7.6517125642
 30
0.0
 10
9.1141277126
 20
7.6693271713
 30
0.0
 10
9.1353776888
 20
7.6861186975
 30
0.0
 10
9.1572902238
 20
7.7020636077
 30
0.0
 10
9.1798352846
 20
7.7171400379
 30
0.0
 10
9.2029817699
 20
7.7313272833
 30
0.0
 10
9.2266978434
 20
7.7446058231
 30
0.0
 10
9.2509508907
 20
7.7569573389
 30
0.0
 10
9.2757074975
 20
7.7683649149
 30
0.0
 10
9.3009335971
 20
7.7788128714
 30
0.0
 10
9.3265945013
 20
7.7882867802
 30
0.0
 10
9.3526548744
 20
7.796773683
 30
0.0
 10
9.3790788549
 20
7.804261943
 30
0.0
 10
9.4058301054
 20
7.8107412063
 30
0.0
 10
9.4328718108
 20
7.8162026195
 30
0.0
 10
9.4601667551
 20
7.8206387318
 30
0.0
 10
9.4876774373
 20
7.824043394
 30
0.0
 10
9.5153658809
 20
7.8264119696
 30
0.0
 10
9.5431944864
 20
7.8277412366
 30
0.0
 10
9.5804774466
 20
7.8281260452
 30
0.0
 10
9.6272497166
 20
7.8259926459
 30
0.0
 10
9.6832380453
 20
7.8192830316
 30
0.0
 10
9.7388618017
 20
7.8084583815
 30
0.0
 10
9.7938133685
 20
7.793578584
 30
0.0
 10
9.8477916294
 20
7.7747260303
 30
0.0
 10
9.900500148
 20
7.7520046875
 30
0.0
 10
9.9516496773
 20
7.7255396511
 30
0.0
 10
10.0009595937
 20
7.6954766312
 30
0.0
 10
10.048159305
 20
7.6619808261
 30
0.0
 10
10.0929898332
 20
7.6252362827
 30
0.0
 10
10.1352052336
 20
7.5854448446
 30
0.0
 10
10.1745737475
 20
7.5428248784
 30
0.0
 10
10.2108793235
 20
7.4976103618
 30
0.0
 10
10.243922613
 20
7.450049411
 30
0.0
 10
10.2735220136
 20
7.4004029517
 30
0.0
 10
10.2995149185
 20
7.3489434463
 30
0.0
 10
10.3217582807
 20
7.2959532524
 30
0.0
 10
10.3401295765
 20
7.241723088
 30
0.0
 10
10.3545275749
 20
7.1865509291
 30
0.0
 10
10.3648725246
 20
7.1307386361
 30
0.0
 10
10.3711071988
 20
7.0745966898
 30
0.0
 10
10.3725036406
 20
7.037048877
 30
0.0
 10
10.3725036406
 20
7.0183295451
 30
0.0
  0
SPLINE
  5
366
100
AcDbEntity
  8
0
100
AcDbSpline
 62
7
  6
CONTINUOUS
 70
0
 71
3
 72
22
 73
18
 74
0
 42
0.0000001
 43
0.0000001
 44
0.0000000001
 40
0.0
 40
0.0
 40
0.0
 40
0.0
 40
0.1239763816
 40
0.1862691764
 40
0.2486922387
 40
0.311207961
 40
0.373785804
 40
0.4364023964
 40
0.4990410858
 40
0.5616909876
 40
0.624345412
 40
0.6870000328
 40
0.7496507089
 40
0.8122910086
 40
0.8749099065
 40
0.937488662
 40
1.0
 40
1.0
 40
1.0
 40
1.0
 10
10.2719642181
 20
7.3124050499
 30
0.0
 10
10.2544043028
 20
7.3164519969
 30
0.0
 10
10.2283001474
 20
7.3238561341
 30
0.0
 10
10.1943500613
 20
7.3362980652
 30
0.0
 10
10.1692911406
 20
7.3469457187
 30
0.0
 10
10.1447736857
 20
7.358879926
 30
0.0
 10
10.1208853541
 20
7.3720881621
 30
0.0
 10
10.0977164779
 20
7.3865558575
 30
0.0
 10
10.0753579712
 20
7.4022662315
 30
0.0
 10
10.0539023464
 20
7.4191988164
 30
0.0
 10
10.0334436432
 20
7.4373279176
 30
0.0
 10
10.0140772175
 20
7.4566206931
 30
0.0
 10
9.9958989319
 20
7.4770351229
 30
0.0
 10
9.9790037883
 20
7.4985177395
 30
0.0
 10
9.9634836323
 20
7.5210022257
 30
0.0
 10
9.9494251969
 20
7.5444057832
 30
0.0
 10
9.941070914
 20
7.5605715577
 30
0.0
 10
9.9371612843
 20
7.5687735664
 30
0.0
  0
SPLINE
  5
367
100
AcDbEntity
  8
0
100
AcDbSpline
 62
7
  6
CONTINUOUS
 70
0
 71
3
 72
49
 73
45
 74
0
 42
0.0000001
 43
0.0000001
 44
0.0000000001
 40
0.0
 40
0.0
 40
0.0
 40
0.0
 40
0.0063158739
 40
0.0126706599
 40
0.0191024896
 40
0.0256480301
 40
0.0323419112
 40
0.039216248
 40
0.0536140773
 40
0.06119479
 40
0.0690565573
 40
0.0772176635
 40
0.0856940531
 40
0.0944994572
 40
0.1036455587
 40
0.1131423452
 40
0.122998104
 40
0.1332197191
 40
0.1438128355
 40
0.1547818436
 40
0.1661302067
 40
0.1778604088
 40
0.1899740704
 40
0.2024721524
 40
0.215354813
 40
0.2422706486
 40
0.2707129033
 40
0.3006638566
 40
0.3320991037
 40
0.3649883645
 40
0.3992962141
 40
0.4349826582
 40
0.4720035847
 40
0.5103111049
 40
0.5498539072
 40
0.5905775763
 40
0.6324248432
 40
0.6753357844
 40
0.7192480525
 40
0.764097054
 40
0.809816243
 40
0.856337252
 40
0.9035893524
 40
1.0
 40
1.0
 40
1.0
 40
1.0
 10
13.3958153592
 20
9.0175279549
 30
0.0
 10
13.3943364468
 20
9.0176305208
 30
0.0
 10
13.3913764973
 20
9.0179573244
 30
0.0
 10
13.3869697546
 20
9.0188092113
 30
0.0
 10
13.3825924592
 20
9.0200226475
 30
0.0
 10
13.3782471803
 20
9.0215967261
 30
0.0
 10
13.3739356377
 20
9.0235305554
 30
0.0
 10
13.3681463586
 20
9.0266338944
 30
0.0
 10
13.3625143383
 20
9.0304329202
 30
0.0
 10
13.3570639301
 20
9.03483533
 30
0.0
 10
13.3529470792
 20
9.0385471321
 30
0.0
 10
13.3488741454
 20
9.0426096544
 30
0.0
 10
13.3448462149
 20
9.0470215185
 30
0.0
 10
13.3408649297
 20
9.0517808069
 30
0.0
 10
13.3369316958
 20
9.0568855494
 30
0.0
 10
13.33304811
 20
9.0623337135
 30
0.0
 10
13.3292156227
 20
9.0681230524
 30
0.0
 10
13.3254357414
 20
9.0742512241
 30
0.0
 10
13.3217100169
 20
9.0807157684
 30
0.0
 10
13.3180398651
 20
9.0875140262
 30
0.0
 10
13.3144268221
 20
9.09464326
 30
0.0
 10
13.3108723358
 20
9.10210056
 30
0.0
 10
13.3073778239
 20
9.10988287
 30
0.0
 10
13.3039447451
 20
9.1179870477
 30
0.0
 10
13.2993843539
 20
9.1293842955
 30
0.0
 10
13.2938622012
 20
9.1444238415
 30
0.0
 10
13.2875956201
 20
9.1634451739
 30
0.0
 10
13.2816061613
 20
9.1836642209
 30
0.0
 10
13.2759037476
 20
9.2050478172
 30
0.0
 10
13.2704978277
 20
9.2275611032
 30
0.0
 10
13.2653973864
 20
9.2511671832
 30
0.0
 10
13.2606109156
 20
9.2758273382
 30
0.0
 10
13.2561464006
 20
9.3015010591
 30
0.0
 10
13.252011275
 20
9.3281461207
 30
0.0
 10
13.2482124222
 20
9.3557186614
 30
0.0
 10
13.2447561738
 20
9.3841732745
 30
0.0
 10
13.2416482991
 20
9.4134630835
 30
0.0
 10
13.2388939778
 20
9.4435398159
 30
0.0
 10
13.2364977939
 20
9.4743538753
 30
0.0
 10
13.2344637364
 20
9.5058544592
 30
0.0
 10
13.2327952137
 20
9.537989617
 30
0.0
 10
13.2314949966
 20
9.5707063215
 30
0.0
 10
13.2302471323
 20
9.6153296066
 30
0.0
 10
13.2298851573
 20
9.649051962
 30
0.0
 10
13.2298851573
 20
9.6716815128
 30
0.0
  0
SPLINE
  5
368
100
AcDbEntity
  8
0
100
AcDbSpline
 62
7
  6
CONTINUOUS
 70
0
 71
3
 72
33
 73
29
 74
0
 42
0.0000001
 43
0.0000001
 44
0.0000000001
 40
0.0
 40
0.0
 40
0.0
 40
0.0
 40
0.0162143429
 40
0.0334273554
 40
0.0516716908
 40
0.0709707838
 40
0.0913402541
 40
0.1127893536
 40
0.1353215922
 40
0.1589359554
 40
0.183627096
 40
0.2093862491
 40
0.2362013509
 40
0.2640575503
 40
0.2929374798
 40
0.322821361
 40
0.3536874699
 40
0.3855119554
 40
0.4182693861
 40
0.4519324994
 40
0.4864726378
 40
0.5218596361
 40
0.5950457625
 40
0.6712261094
 40
0.7501168873
 40
0.8314194625
 40
0.9148211312
 40
1.0
 40
1.0
 40
1.0
 40
1.0
 10
13.3542833835
 20
9.2583572419
 30
0.0
 10
13.3526408899
 20
9.2603767619
 30
0.0
 10
13.3493929867
 20
9.264653943
 30
0.0
 10
13.3447610947
 20
9.2715404833
 30
0.0
 10
13.3402310242
 20
9.2790782758
 30
0.0
 10
13.3358074556
 20
9.2872593476
 30
0.0
 10
13.3314946076
 20
9.2960754974
 30
0.0
 10
13.32729695
 20
9.3055177224
 30
0.0
 10
13.3232186803
 20
9.3155763061
 30
0.0
 10
13.3192641323
 20
9.3262408846
 30
0.0
 10
13.315437348
 20
9.3375003798
 30
0.0
 10
13.3117424119
 20
9.3493430859
 30
0.0
 10
13.3081831824
 20
9.3617566393
 30
0.0
 10
13.3047634226
 20
9.3747280607
 30
0.0
 10
13.3014867776
 20
9.3882437651
 30
0.0
 10
13.2983566657
 20
9.4022895755
 30
0.0
 10
13.2953764732
 20
9.4168507489
 30
0.0
 10
13.2925492842
 20
9.4319119852
 30
0.0
 10
13.2898781673
 20
9.4474574517
 30
0.0
 10
13.2873659037
 20
9.4634707932
 30
0.0
 10
13.2850151674
 20
9.479935179
 30
0.0
 10
13.282066568
 20
9.5027217823
 30
0.0
 10
13.2788183834
 20
9.5322077082
 30
0.0
 10
13.2756418918
 20
9.5687180774
 30
0.0
 10
13.2731582581
 20
9.606587909
 30
0.0
 10
13.2713781955
 20
9.6456576701
 30
0.0
 10
13.2703094144
 20
9.6857629485
 30
0.0
 10
13.2700763912
 20
9.7128282737
 30
0.0
 10
13.2700763912
 20
9.7265032667
 30
0.0
  0
SPLINE
  5
369
100
AcDbEntity
  8
0
100
AcDbSpline
 62
7
  6
CONTINUOUS
 70
0
 71
3
 72
11
 73
7
 74
0
 42
0.0000001
 43
0.0000001
 44
0.0000000001
 40
0.0
 40
0.0
 40
0.0
 40
0.0
 40
0.2449679611
 40
0.491980595
 40
0.7430287213
 40
1.0
 40
1.0
 40
1.0
 40
1.0
 10
13.3459145364
 20
9.2916370701
 30
0.0
 10
13.3447228279
 20
9.2917197198
 30
0.0
 10
13.3423358469
 20
9.2919996544
 30
0.0
 10
13.3387879092
 20
9.2927594154
 30
0.0
 10
13.335268931
 20
9.293858837
 30
0.0
 10
13.3329753448
 20
9.2948044976
 30
0.0
 10
13.3318374948
 20
9.2953294437
 30
0.0
  0
SPLINE
  5
36A
100
AcDbEntity
  8
0
100
AcDbSpline
 62
7
  6
CONTINUOUS
 70
0
 71
3
 72
44
 73
40
 74
0
 42
0.0000001
 43
0.0000001
 44
0.0000000001
 40
0.0
 40
0.0
 40
0.0
 40
0.0
 40
0.0070629497
 40
0.0144560426
 40
0.0221884791
 40
0.0302675725
 40
0.0386988533
 40
0.0474864927
 40
0.0566332452
 40
0.0661408114
 40
0.0760098363
 40
0.0862400459
 40
0.0968304263
 40
0.1077791245
 40
0.1190837485
 40
0.1307411928
 40
0.1550989019
 40
0.1808183581
 40
0.2078577261
 40
0.2361690394
 40
0.2656989142
 40
0.2963891344
 40
0.3281771379
 40
0.3609964552
 40
0.394777096
 40
0.4294458956
 40
0.4649268354
 40
0.5011413457
 40
0.5380085918
 40
0.5754457529
 40
0.6133683032
 40
0.6516902787
 40
0.6903245425
 40
0.7681755751
 40
0.8462121947
 40
0.8850780365
 40
0.9237229178
 40
0.9620597997
 40
1.0
 40
1.0
 40
1.0
 40
1.0
 10
13.4425088226
 20
10.5305429059
 30
0.0
 10
13.4410702184
 20
10.529203997
 30
0.0
 10
13.4381945281
 20
10.5263889724
 30
0.0
 10
13.4339799362
 20
10.5218749355
 30
0.0
 10
13.4297698843
 20
10.5169773845
 30
0.0
 10
13.425566997
 20
10.5116993479
 30
0.0
 10
13.42137359
 20
10.5060439807
 30
0.0
 10
13.4171922423
 20
10.5000146126
 30
0.0
 10
13.413025347
 20
10.4936148934
 30
0.0
 10
13.4088754525
 20
10.4868486311
 30
0.0
 10
13.4047450375
 20
10.4797199013
 30
0.0
 10
13.4006365681
 20
10.4722330052
 30
0.0
 10
13.3965525902
 20
10.4643924384
 30
0.0
 10
13.3924955091
 20
10.4562029683
 30
0.0
 10
13.3884678372
 20
10.4476695168
 30
0.0
 10
13.3830607934
 20
10.4356636235
 30
0.0
 10
13.3764071215
 20
10.4198234844
 30
0.0
 10
13.3686905405
 20
10.3997984403
 30
0.0
 10
13.3611482273
 20
10.3785363157
 30
0.0
 10
13.3537986521
 20
10.3560887319
 30
0.0
 10
13.3466598294
 20
10.3325100013
 30
0.0
 10
13.3397492617
 20
10.3078573525
 30
0.0
 10
13.3330838847
 20
10.2821906687
 30
0.0
 10
13.32668003
 20
10.2555723562
 30
0.0
 10
13.3205533848
 20
10.2280671705
 30
0.0
 10
13.314718952
 20
10.1997420527
 30
0.0
 10
13.3091910151
 20
10.1706659615
 30
0.0
 10
13.3039831037
 20
10.1409097022
 30
0.0
 10
13.2991079607
 20
10.1105457541
 30
0.0
 10
13.2945775019
 20
10.0796480859
 30
0.0
 10
13.2904028132
 20
10.0482919915
 30
0.0
 10
13.2865940522
 20
10.0165538227
 30
0.0
 10
13.2820047444
 20
9.9737229621
 30
0.0
 10
13.2772498837
 20
9.9198006301
 30
0.0
 10
13.2738189925
 20
9.8657133989
 30
0.0
 10
13.27188247
 20
9.8224748166
 30
0.0
 10
13.270843182
 20
9.790256122
 30
0.0
 10
13.2702175578
 20
9.7582844327
 30
0.0
 10
13.2700763912
 20
9.7370601134
 30
0.0
 10
13.2700763912
 20
9.7265032667
 30
0.0
  0
SPLINE
  5
36B
100
AcDbEntity
  8
0
100
AcDbSpline
 62
7
  6
CONTINUOUS
 70
0
 71
3
 72
11
 73
7
 74
0
 42
0.0000001
 43
0.0000001
 44
0.0000000001
 40
0.0
 40
0.0
 40
0.0
 40
0.0
 40
0.2450439787
 40
0.4921013733
 40
0.7431327901
 40
1.0
 40
1.0
 40
1.0
 40
1.0
 10
13.4296272564
 20
10.4987378012
 30
0.0
 10
13.4284449949
 20
10.4988197957
 30
0.0
 10
13.4260615092
 20
10.4988725131
 30
0.0
 10
13.4224717495
 20
10.4986158851
 30
0.0
 10
13.4188640039
 20
10.4980243017
 30
0.0
 10
13.416480763
 20
10.4974152643
 30
0.0
 10
13.415290757
 20
10.4970586831
 30
0.0
  0
SPLINE
  5
36C
100
AcDbEntity
  8
0
100
AcDbSpline
 62
7
  6
CONTINUOUS
 70
0
 71
3
 72
49
 73
45
 74
0
 42
0.0000001
 43
0.0000001
 44
0.0000000001
 40
0.0
 40
0.0
 40
0.0
 40
0.0
 40
0.0063158739
 40
0.0126706599
 40
0.0191024896
 40
0.0256480301
 40
0.0323419112
 40
0.039216248
 40
0.0536140773
 40
0.06119479
 40
0.0690565573
 40
0.0772176635
 40
0.0856940531
 40
0.0944994572
 40
0.1036455587
 40
0.1131423452
 40
0.122998104
 40
0.1332197191
 40
0.1438128355
 40
0.1547818436
 40
0.1661302067
 40
0.1778604088
 40
0.1899740704
 40
0.2024721524
 40
0.215354813
 40
0.2422706486
 40
0.2707129033
 40
0.3006638566
 40
0.3320991037
 40
0.3649883645
 40
0.3992962141
 40
0.4349826582
 40
0.4720035847
 40
0.5103111049
 40
0.5498539072
 40
0.5905775763
 40
0.6324248432
 40
0.6753357844
 40
0.7192480525
 40
0.764097054
 40
0.809816243
 40
0.856337252
 40
0.9035893524
 40
1.0
 40
1.0
 40
1.0
 40
1.0
 10
13.3958153592
 20
6.4819725106
 30
0.0
 10
13.3943364468
 20
6.4820750765
 30
0.0
 10
13.3913764973
 20
6.4824018802
 30
0.0
 10
13.3869697546
 20
6.4832537671
 30
0.0
 10
13.3825924592
 20
6.4844672032
 30
0.0
 10
13.3782471803
 20
6.4860412819
 30
0.0
 10
13.3739356377
 20
6.4879751112
 30
0.0
 10
13.3681463586
 20
6.4910784502
 30
0.0
 10
13.3625143383
 20
6.4948774759
 30
0.0
 10
13.3570639301
 20
6.4992798858
 30
0.0
 10
13.3529470792
 20
6.5029916879
 30
0.0
 10
13.3488741454
 20
6.5070542102
 30
0.0
 10
13.3448462149
 20
6.5114660742
 30
0.0
 10
13.3408649297
 20
6.5162253627
 30
0.0
 10
13.3369316958
 20
6.5213301052
 30
0.0
 10
13.33304811
 20
6.5267782692
 30
0.0
 10
13.3292156227
 20
6.5325676081
 30
0.0
 10
13.3254357414
 20
6.5386957799
 30
0.0
 10
13.3217100169
 20
6.5451603242
 30
0.0
 10
13.3180398651
 20
6.5519585819
 30
0.0
 10
13.3144268221
 20
6.5590878158
 30
0.0
 10
13.3108723358
 20
6.5665451157
 30
0.0
 10
13.3073778239
 20
6.5743274258
 30
0.0
 10
13.3039447451
 20
6.5824316035
 30
0.0
 10
13.2993843539
 20
6.5938288513
 30
0.0
 10
13.2938622012
 20
6.6088683972
 30
0.0
 10
13.2875956201
 20
6.6278897296
 30
0.0
 10
13.2816061613
 20
6.6481087767
 30
0.0
 10
13.2759037476
 20
6.6694923729
 30
0.0
 10
13.2704978277
 20
6.692005659
 30
0.0
 10
13.2653973864
 20
6.715611739
 30
0.0
 10
13.2606109156
 20
6.740271894
 30
0.0
 10
13.2561464006
 20
6.7659456149
 30
0.0
 10
13.252011275
 20
6.7925906764
 30
0.0
 10
13.2482124222
 20
6.8201632172
 30
0.0
 10
13.2447561738
 20
6.8486178303
 30
0.0
 10
13.2416482991
 20
6.8779076392
 30
0.0
 10
13.2388939778
 20
6.9079843716
 30
0.0
 10
13.2364977939
 20
6.938798431
 30
0.0
 10
13.2344637364
 20
6.970299015
 30
0.0
 10
13.2327952137
 20
7.0024341727
 30
0.0
 10
13.2314949966
 20
7.0351508773
 30
0.0
 10
13.2302471323
 20
7.0797741623
 30
0.0
 10
13.2298851573
 20
7.1134965178
 30
0.0
 10
13.2298851573
 20
7.1361260686
 30
0.0
  0
SPLINE
  5
36D
100
AcDbEntity
  8
0
100
AcDbSpline
 62
7
  6
CONTINUOUS
 70
0
 71
3
 72
33
 73
29
 74
0
 42
0.0000001
 43
0.0000001
 44
0.0000000001
 40
0.0
 40
0.0
 40
0.0
 40
0.0
 40
0.0162143429
 40
0.0334273554
 40
0.0516716908
 40
0.0709707838
 40
0.0913402541
 40
0.1127893536
 40
0.1353215922
 40
0.1589359554
 40
0.183627096
 40
0.2093862491
 40
0.2362013509
 40
0.2640575503
 40
0.2929374798
 40
0.322821361
 40
0.3536874699
 40
0.3855119554
 40
0.4182693861
 40
0.4519324994
 40
0.4864726378
 40
0.5218596361
 40
0.5950457625
 40
0.6712261094
 40
0.7501168873
 40
0.8314194625
 40
0.9148211312
 40
1.0
 40
1.0
 40
1.0
 40
1.0
 10
13.3542833835
 20
6.7228017977
 30
0.0
 10
13.3526408899
 20
6.7248213177
 30
0.0
 10
13.3493929867
 20
6.7290984987
 30
0.0
 10
13.3447610947
 20
6.735985039
 30
0.0
 10
13.3402310242
 20
6.7435228316
 30
0.0
 10
13.3358074556
 20
6.7517039034
 30
0.0
 10
13.3314946076
 20
6.7605200531
 30
0.0
 10
13.32729695
 20
6.7699622781
 30
0.0
 10
13.3232186803
 20
6.7800208618
 30
0.0
 10
13.3192641323
 20
6.7906854404
 30
0.0
 10
13.315437348
 20
6.8019449356
 30
0.0
 10
13.3117424119
 20
6.8137876416
 30
0.0
 10
13.3081831824
 20
6.8262011951
 30
0.0
 10
13.3047634226
 20
6.8391726165
 30
0.0
 10
13.3014867776
 20
6.8526883209
 30
0.0
 10
13.2983566657
 20
6.8667341313
 30
0.0
 10
13.2953764732
 20
6.8812953047
 30
0.0
 10
13.2925492842
 20
6.8963565409
 30
0.0
 10
13.2898781673
 20
6.9119020075
 30
0.0
 10
13.2873659037
 20
6.927915349
 30
0.0
 10
13.2850151674
 20
6.9443797348
 30
0.0
 10
13.282066568
 20
6.9671663381
 30
0.0
 10
13.2788183834
 20
6.996652264
 30
0.0
 10
13.2756418918
 20
7.0331626331
 30
0.0
 10
13.2731582581
 20
7.0710324648
 30
0.0
 10
13.2713781955
 20
7.1101022259
 30
0.0
 10
13.2703094144
 20
7.1502075043
 30
0.0
 10
13.2700763912
 20
7.1772728295
 30
0.0
 10
13.2700763912
 20
7.1909478225
 30
0.0
  0
SPLINE
  5
36E
100
AcDbEntity
  8
0
100
AcDbSpline
 62
7
  6
CONTINUOUS
 70
0
 71
3
 72
11
 73
7
 74
0
 42
0.0000001
 43
0.0000001
 44
0.0000000001
 40
0.0
 40
0.0
 40
0.0
 40
0.0
 40
0.2449679611
 40
0.491980595
 40
0.7430287213
 40
1.0
 40
1.0
 40
1.0
 40
1.0
 10
13.3459145364
 20
6.7560816259
 30
0.0
 10
13.3447228279
 20
6.7561642755
 30
0.0
 10
13.3423358469
 20
6.7564442101
 30
0.0
 10
13.3387879092
 20
6.7572039711
 30
0.0
 10
13.335268931
 20
6.7583033928
 30
0.0
 10
13.3329753448
 20
6.7592490534
 30
0.0
 10
13.3318374948
 20
6.7597739995
 30
0.0
  0
SPLINE
  5
36F
100
AcDbEntity
  8
0
100
AcDbSpline
 62
7
  6
CONTINUOUS
 70
0
 71
3
 72
44
 73
40
 74
0
 42
0.0000001
 43
0.0000001
 44
0.0000000001
 40
0.0
 40
0.0
 40
0.0
 40
0.0
 40
0.0070629497
 40
0.0144560426
 40
0.0221884791
 40
0.0302675725
 40
0.0386988533
 40
0.0474864927
 40
0.0566332452
 40
0.0661408114
 40
0.0760098363
 40
0.0862400459
 40
0.0968304263
 40
0.1077791245
 40
0.1190837485
 40
0.1307411928
 40
0.1550989019
 40
0.1808183581
 40
0.2078577261
 40
0.2361690394
 40
0.2656989142
 40
0.2963891344
 40
0.3281771379
 40
0.3609964552
 40
0.394777096
 40
0.4294458956
 40
0.4649268354
 40
0.5011413457
 40
0.5380085918
 40
0.5754457529
 40
0.6133683032
 40
0.6516902787
 40
0.6903245425
 40
0.7681755751
 40
0.8462121947
 40
0.8850780365
 40
0.9237229178
 40
0.9620597997
 40
1.0
 40
1.0
 40
1.0
 40
1.0
 10
13.4425088226
 20
7.9949874616
 30
0.0
 10
13.4410702184
 20
7.9936485528
 30
0.0
 10
13.4381945281
 20
7.9908335282
 30
0.0
 10
13.4339799362
 20
7.9863194913
 30
0.0
 10
13.4297698843
 20
7.9814219403
 30
0.0
 10
13.425566997
 20
7.9761439036
 30
0.0
 10
13.42137359
 20
7.9704885364
 30
0.0
 10
13.4171922423
 20
7.9644591684
 30
0.0
 10
13.413025347
 20
7.9580594491
 30
0.0
 10
13.4088754525
 20
7.9512931869
 30
0.0
 10
13.4047450375
 20
7.944164457
 30
0.0
 10
13.4006365681
 20
7.936677561
 30
0.0
 10
13.3965525902
 20
7.9288369941
 30
0.0
 10
13.3924955091
 20
7.920647524
 30
0.0
 10
13.3884678372
 20
7.9121140725
 30
0.0
 10
13.3830607934
 20
7.9001081792
 30
0.0
 10
13.3764071215
 20
7.8842680402
 30
0.0
 10
13.3686905405
 20
7.864242996
 30
0.0
 10
13.3611482273
 20
7.8429808715
 30
0.0
 10
13.3537986521
 20
7.8205332877
 30
0.0
 10
13.3466598294
 20
7.796954557
 30
0.0
 10
13.3397492617
 20
7.7723019082
 30
0.0
 10
13.3330838847
 20
7.7466352244
 30
0.0
 10
13.32668003
 20
7.720016912
 30
0.0
 10
13.3205533848
 20
7.6925117263
 30
0.0
 10
13.314718952
 20
7.6641866085
 30
0.0
 10
13.3091910151
 20
7.6351105173
 30
0.0
 10
13.3039831037
 20
7.605354258
 30
0.0
 10
13.2991079607
 20
7.5749903099
 30
0.0
 10
13.2945775019
 20
7.5440926416
 30
0.0
 10
13.2904028132
 20
7.5127365473
 30
0.0
 10
13.2865940522
 20
7.4809983784
 30
0.0
 10
13.2820047444
 20
7.4381675179
 30
0.0
 10
13.2772498837
 20
7.3842451859
 30
0.0
 10
13.2738189925
 20
7.3301579546
 30
0.0
 10
13.27188247
 20
7.2869193724
 30
0.0
 10
13.270843182
 20
7.2547006777
 30
0.0
 10
13.2702175578
 20
7.2227289884
 30
0.0
 10
13.2700763912
 20
7.2015046691
 30
0.0
 10
13.2700763912
 20
7.1909478225
 30
0.0
  0
SPLINE
  5
370
100
AcDbEntity
  8
0
100
AcDbSpline
 62
7
  6
CONTINUOUS
 70
0
 71
3
 72
11
 73
7
 74
0
 42
0.0000001
 43
0.0000001
 44
0.0000000001
 40
0.0
 40
0.0
 40
0.0
 40
0.0
 40
0.2450439787
 40
0.4921013733
 40
0.7431327901
 40
1.0
 40
1.0
 40
1.0
 40
1.0
 10
13.4296272564
 20
7.9631823569
 30
0.0
 10
13.4284449949
 20
7.9632643514
 30
0.0
 10
13.4260615092
 20
7.9633170689
 30
0.0
 10
13.4224717495
 20
7.9630604409
 30
0.0
 10
13.4188640039
 20
7.9624688575
 30
0.0
 10
13.416480763
 20
7.96185982
 30
0.0
 10
13.415290757
 20
7.9615032389
 30
0.0
  0
SPLINE
  5
371
100
AcDbEntity
  8
0
100
AcDbSpline
 62
7
  6
CONTINUOUS
 70
0
 71
3
 72
15
 73
11
 74
0
 42
0.0000001
 43
0.0000001
 44
0.0000000001
 40
0.0
 40
0.0
 40
0.0
 40
0.0
 40
0.1297930667
 40
0.2555543043
 40
0.3785942045
 40
0.5002811114
 40
0.6219837449
 40
0.7450327304
 40
0.8706721657
 40
1.0
 40
1.0
 40
1.0
 40
1.0
 10
11.3118105546
 20
8.5559500697
 30
0.0
 10
11.3118108234
 20
8.5537363514
 30
0.0
 10
11.3116194612
 20
8.5493744674
 30
0.0
 10
11.3107122732
 20
8.5429708862
 30
0.0
 10
11.3091882993
 20
8.5368265247
 30
0.0
 10
11.3070473498
 20
8.5309423683
 30
0.0
 10
11.3042917628
 20
8.5253196775
 30
0.0
 10
11.3009253402
 20
8.5199606113
 30
0.0
 10
11.296954157
 20
8.5148686141
 30
0.0
 10
11.2939578049
 20
8.5117068496
 30
0.0
 10
11.2923712851
 20
8.510174389
 30
0.0
  0
SPLINE
  5
372
100
AcDbEntity
  8
0
100
AcDbSpline
 62
7
  6
CONTINUOUS
 70
0
 71
3
 72
50
 73
46
 74
0
 42
0.0000001
 43
0.0000001
 44
0.0000000001
 40
0.0
 40
0.0
 40
0.0
 40
0.0
 40
0.0417744868
 40
0.0840381758
 40
0.126660238
 40
0.1695088528
 40
0.2124510497
 40
0.2553535989
 40
0.2980833861
 40
0.3405079916
 40
0.3824961983
 40
0.4239185262
 40
0.4646477642
 40
0.5045595116
 40
0.5435327294
 40
0.5814503073
 40
0.6181996544
 40
0.653673323
 40
0.6877696811
 40
0.7203936548
 40
0.7514575722
 40
0.7808821551
 40
0.7949580145
 40
0.808598761
 40
0.8217974965
 40
0.8345480369
 40
0.8468451888
 40
0.8586846567
 40
0.8700633173
 40
0.8809792014
 40
0.891431773
 40
0.9014220135
 40
0.9109527242
 40
0.9200287459
 40
0.9286573164
 40
0.9368484657
 40
0.9446154694
 40
0.9519754509
 40
0.958949954
 40
0.9655657214
 40
0.9778458973
 40
0.9836071449
 40
0.989179905
 40
0.9946230047
 40
1.0
 40
1.0
 40
1.0
 40
1.0
 10
13.5443562895
 20
7.5108818755
 30
0.0
 10
13.5443562895
 20
7.4995950973
 30
0.0
 10
13.5441802003
 20
7.4768890117
 30
0.0
 10
13.5434017621
 20
7.4426751682
 30
0.0
 10
13.5421097268
 20
7.4081863973
 30
0.0
 10
13.5403083559
 20
7.3735369477
 30
0.0
 10
13.5380035835
 20
7.3388413901
 30
0.0
 10
13.535203038
 20
7.3042145357
 30
0.0
 10
13.5319159921
 20
7.2697709348
 30
0.0
 10
13.5281533441
 20
7.2356245384
 30
0.0
 10
13.5239275771
 20
7.2018883041
 30
0.0
 10
13.5192527201
 20
7.1686738238
 30
0.0
 10
13.5141443017
 20
7.1360909497
 30
0.0
 10
13.5086192999
 20
7.1042474269
 30
0.0
 10
13.5026960868
 20
7.0732485314
 30
0.0
 10
13.4963943694
 20
7.0431967144
 30
0.0
 10
13.4897351253
 20
7.0141912565
 30
0.0
 10
13.482740535
 20
6.9863279174
 30
0.0
 10
13.4754339063
 20
6.9596986361
 30
0.0
 10
13.4678396035
 20
6.934391085
 30
0.0
 10
13.4599829321
 20
6.9104887624
 30
0.0
 10
13.453141598
 20
6.8915361488
 30
0.0
 10
13.4475434781
 20
6.8771475631
 30
0.0
 10
13.4433577634
 20
6.8669153422
 30
0.0
 10
13.4391262976
 20
6.8570906269
 30
0.0
 10
13.4348524766
 20
6.8476815047
 30
0.0
 10
13.4305399041
 20
6.8386956957
 30
0.0
 10
13.4261920798
 20
6.8301405861
 30
0.0
 10
13.4218126336
 20
6.8220231666
 30
0.0
 10
13.4174051157
 20
6.8143500815
 30
0.0
 10
13.4129731621
 20
6.807127568
 30
0.0
 10
13.4085203438
 20
6.8003614986
 30
0.0
 10
13.4040502622
 20
6.7940573371
 30
0.0
 10
13.3995664682
 20
6.7882201647
 30
0.0
 10
13.3950724634
 20
6.7828546668
 30
0.0
 10
13.3905717359
 20
6.7779651496
 30
0.0
 10
13.3860675303
 20
6.7735555248
 30
0.0
 10
13.3815634633
 20
6.7696295324
 30
0.0
 10
13.37706152
 20
6.7661899851
 30
0.0
 10
13.3712147672
 20
6.7623535063
 30
0.0
 10
13.3652202815
 20
6.7593531719
 30
0.0
 10
13.359148469
 20
6.7573631132
 30
0.0
 10
13.3547091418
 20
6.7564032795
 30
0.0
 10
13.3502946928
 20
6.7559476923
 30
0.0
 10
13.3473638306
 20
6.7559811116
 30
0.0
 10
13.3459145364
 20
6.7560816259
 30
0.0
  0
SPLINE
  5
373
100
AcDbEntity
  8
0
100
AcDbSpline
 62
7
  6
CONTINUOUS
 70
0
 71
3
 72
55
 73
51
 74
0
 42
0.0000001
 43
0.0000001
 44
0.0000000001
 40
0.0
 40
0.0
 40
0.0
 40
0.0
 40
0.0532131714
 40
0.1056338492
 40
0.1571447341
 40
0.2076351223
 40
0.2569951171
 40
0.3051191451
 40
0.3519052421
 40
0.3972558126
 40
0.4410780313
 40
0.483284344
 40
0.5237930432
 40
0.5625289179
 40
0.5994240269
 40
0.6344186508
 40
0.6674624498
 40
0.683240699
 40
0.6985173966
 40
0.7132897156
 40
0.7275556294
 40
0.7413142618
 40
0.7545658967
 40
0.7673120548
 40
0.7795558711
 40
0.7913019715
 40
0.8025570311
 40
0.8133297688
 40
0.823631389
 40
0.8334759587
 40
0.8428806376
 40
0.8518663878
 40
0.8604581549
 40
0.8686855775
 40
0.8765832784
 40
0.8841911944
 40
0.8915547711
 40
0.8987246284
 40
0.9057561183
 40
0.9127081912
 40
0.9196420331
 40
0.9266193436
 40
0.9337006018
 40
0.9409434075
 40
0.9484013011
 40
0.9641398396
 40
0.9725127197
 40
0.9812626417
 40
0.9904173392
 40
1.0
 40
1.0
 40
1.0
 40
1.0
 10
13.6117172488
 20
7.5209475697
 30
0.0
 10
13.6117172488
 20
7.5312467134
 30
0.0
 10
13.6115845848
 20
7.5516918912
 30
0.0
 10
13.6109789906
 20
7.5821013407
 30
0.0
 10
13.6099695584
 20
7.6119728917
 30
0.0
 10
13.6085588158
 20
7.6412351743
 30
0.0
 10
13.6067501231
 20
7.669818844
 30
0.0
 10
13.6045478772
 20
7.6976558452
 30
0.0
 10
13.6019573807
 20
7.7246800492
 30
0.0
 10
13.5989848916
 20
7.7508272462
 30
0.0
 10
13.595637586
 20
7.7760353555
 30
0.0
 10
13.591923542
 20
7.8002445646
 30
0.0
 10
13.5878517223
 20
7.8233974912
 30
0.0
 10
13.5834319476
 20
7.8454393012
 30
0.0
 10
13.5786748743
 20
7.8663179825
 30
0.0
 10
13.5735919377
 20
7.8859840857
 30
0.0
 10
13.5690272921
 20
7.9015546517
 30
0.0
 10
13.5652086279
 20
7.9133589997
 30
0.0
 10
13.5623149049
 20
7.921743967
 30
0.0
 10
13.5593491218
 20
7.9297925152
 30
0.0
 10
13.5563129392
 20
7.9374998999
 30
0.0
 10
13.5532081824
 20
7.9448615832
 30
0.0
 10
13.5500366983
 20
7.9518732492
 30
0.0
 10
13.5468002792
 20
7.9585307656
 30
0.0
 10
13.5435009
 20
7.9648302731
 30
0.0
 10
13.5401403647
 20
7.9707680625
 30
0.0
 10
13.5367206685
 20
7.9763407133
 30
0.0
 10
13.5332436974
 20
7.9815449797
 30
0.0
 10
13.5297113576
 20
7.9863778303
 30
0.0
 10
13.5261256255
 20
7.9908364989
 30
0.0
 10
13.5224882935
 20
7.9949182968
 30
0.0
 10
13.5188013427
 20
7.998620866
 30
0.0
 10
13.5150665329
 20
8.0019418374
 30
0.0
 10
13.511285764
 20
8.0048790717
 30
0.0
 10
13.5074609148
 20
8.0074304839
 30
0.0
 10
13.5035939132
 20
8.0095939594
 30
0.0
 10
13.4996869763
 20
8.0113676561
 30
0.0
 10
13.4957424356
 20
8.0127495606
 30
0.0
 10
13.4917630905
 20
8.0137381948
 30
0.0
 10
13.4877519756
 20
8.0143322145
 30
0.0
 10
13.4837124387
 20
8.0145309123
 30
0.0
 10
13.4796478778
 20
8.0143342454
 30
0.0
 10
13.4755617112
 20
8.0137425982
 30
0.0
 10
13.4714567765
 20
8.0127570305
 30
0.0
 10
13.4658637877
 20
8.0108865748
 30
0.0
 10
13.4603296208
 20
8.008231289
 30
0.0
 10
13.454905042
 20
8.0049058802
 30
0.0
 10
13.4507446775
 20
8.0019742032
 30
0.0
 10
13.4465805789
 20
7.9986591094
 30
0.0
 10
13.4438664754
 20
7.996251029
 30
0.0
 10
13.4425088226
 20
7.9949874616
 30
0.0
  0
SPLINE
  5
374
100
AcDbEntity
  8
0
100
AcDbSpline
 62
7
  6
CONTINUOUS
 70
0
 71
3
 72
53
 73
49
 74
0
 42
0.0000001
 43
0.0000001
 44
0.0000000001
 40
0.0
 40
0.0
 40
0.0
 40
0.0
 40
0.0417740747
 40
0.0840370059
 40
0.1266586015
 40
0.1695066206
 40
0.2124482643
 40
0.2553502464
 40
0.2980794728
 40
0.3405035203
 40
0.3824911749
 40
0.4239129577
 40
0.4646416591
 40
0.5045528794
 40
0.5435255803
 40
0.5814426526
 40
0.6181915072
 40
0.6536646981
 40
0.6877605949
 40
0.7203841254
 40
0.7361164043
 40
0.7514483531
 40
0.7663703757
 40
0.7808733967
 40
0.7949490545
 40
0.8085896209
 40
0.8217881625
 40
0.8345385373
 40
0.8468355031
 40
0.8586748197
 40
0.8700533035
 40
0.880969049
 40
0.8914214554
 40
0.9014115674
 40
0.9109421276
 40
0.9200180273
 40
0.9286464653
 40
0.9368374971
 40
0.9446043876
 40
0.9519642556
 40
0.9589386637
 40
0.9655543233
 40
0.9718438245
 40
0.977846199
 40
0.9836073748
 40
0.9891800477
 40
0.9946230782
 40
1.0
 40
1.0
 40
1.0
 40
1.0
 10
13.6828181124
 20
7.5736257335
 30
0.0
 10
13.6828181124
 20
7.5573018185
 30
0.0
 10
13.6825634428
 20
7.5244624466
 30
0.0
 10
13.6814375877
 20
7.4749795784
 30
0.0
 10
13.6795689513
 20
7.4250991532
 30
0.0
 10
13.6769636517
 20
7.3749862588
 30
0.0
 10
13.6736303032
 20
7.3248067165
 30
0.0
 10
13.669579922
 20
7.2747265254
 30
0.0
 10
13.6648259262
 20
7.2249113752
 30
0.0
 10
13.6593840752
 20
7.1755260654
 30
0.0
 10
13.6532724238
 20
7.126733966
 30
0.0
 10
13.6465112615
 20
7.0786964703
 30
0.0
 10
13.6391230469
 20
7.0315724562
 30
0.0
 10
13.6311323347
 20
6.9855177538
 30
0.0
 10
13.6225656957
 20
6.9406846242
 30
0.0
 10
13.6134516324
 20
6.8972212362
 30
0.0
 10
13.6038204831
 20
6.8552711945
 30
0.0
 10
13.5937043336
 20
6.814972934
 30
0.0
 10
13.5831368715
 20
6.7764596361
 30
0.0
 10
13.57387549
 20
6.7455961648
 30
0.0
 10
13.5662520667
 20
6.7219047908
 30
0.0
 10
13.5605129577
 20
6.7048753552
 30
0.0
 10
13.5546879577
 20
6.6883836673
 30
0.0
 10
13.548781787
 20
6.6724433333
 30
0.0
 10
13.5427994137
 20
6.657067497
 30
0.0
 10
13.5367457417
 20
6.6422688418
 30
0.0
 10
13.5306258193
 20
6.6280595504
 30
0.0
 10
13.5244446942
 20
6.6144513176
 30
0.0
 10
13.5182074703
 20
6.6014553275
 30
0.0
 10
13.5119193204
 20
6.5890822345
 30
0.0
 10
13.5055853733
 20
6.5773421854
 30
0.0
 10
13.4992108938
 20
6.5662447458
 30
0.0
 10
13.4928010048
 20
6.5557989873
 30
0.0
 10
13.4863610064
 20
6.5460133471
 30
0.0
 10
13.4798959802
 20
6.5368957866
 30
0.0
 10
13.4734111708
 20
6.5284535961
 30
0.0
 10
13.466911565
 20
6.5206936064
 30
0.0
 10
13.4604022265
 20
6.513621992
 30
0.0
 10
13.453887962
 20
6.507244489
 30
0.0
 10
13.447373516
 20
6.5015662929
 30
0.0
 10
13.4408634317
 20
6.4965922197
 30
0.0
 10
13.4343620944
 20
6.492326818
 30
0.0
 10
13.4278738997
 20
6.4887743735
 30
0.0
 10
13.4214032379
 20
6.4859392797
 30
0.0
 10
13.4149551389
 20
6.4838256483
 30
0.0
 10
13.4085348793
 20
6.4824377279
 30
0.0
 10
13.4021502829
 20
6.4817786846
 30
0.0
 10
13.3979114462
 20
6.4818271423
 30
0.0
 10
13.3958153592
 20
6.4819725106
 30
0.0
  0
SPLINE
  5
375
100
AcDbEntity
  8
0
100
AcDbSpline
 62
7
  6
CONTINUOUS
 70
0
 71
3
 72
40
 73
36
 74
0
 42
0.0000001
 43
0.0000001
 44
0.0000000001
 40
0.0
 40
0.0
 40
0.0
 40
0.0
 40
0.0964133039
 40
0.1901869723
 40
0.2359074344
 40
0.2807575898
 40
0.3246709797
 40
0.3675830122
 40
0.4094313664
 40
0.4501560941
 40
0.4896998943
 40
0.5280083962
 40
0.5650302755
 40
0.6007176189
 40
0.635026352
 40
0.6679164564
 40
0.6993524674
 40
0.7293041865
 40
0.7577471878
 40
0.7846636702
 40
0.8100437444
 40
0.8338866872
 40
0.8562027225
 40
0.8770156231
 40
0.896365759
 40
0.9143140796
 40
0.9309474204
 40
0.9463845923
 40
0.9607827699
 40
0.9676572789
 40
0.9743513125
 40
0.9808970285
 40
0.9873290172
 40
0.9936839613
 40
1.0
 40
1.0
 40
1.0
 40
1.0
 10
13.5443562895
 20
7.5108818755
 30
0.0
 10
13.5443562895
 20
7.5265286315
 30
0.0
 10
13.5440247966
 20
7.5573948631
 30
0.0
 10
13.5427417285
 20
7.5956621379
 30
0.0
 10
13.5411905363
 20
7.6255395024
 30
0.0
 10
13.5397841168
 20
7.6473199475
 30
0.0
 10
13.5381273268
 20
7.6686256744
 30
0.0
 10
13.536222897
 20
7.6894215973
 30
0.0
 10
13.5340740277
 20
7.7096734219
 30
0.0
 10
13.5316842799
 20
7.7293477671
 30
0.0
 10
13.5290576325
 20
7.7484122176
 30
0.0
 10
13.5261984863
 20
7.7668353816
 30
0.0
 10
13.5231115923
 20
7.7845869331
 30
0.0
 10
13.5198020787
 20
7.8016376743
 30
0.0
 10
13.5162754865
 20
7.8179595997
 30
0.0
 10
13.5125376804
 20
7.8335259289
 30
0.0
 10
13.5085948486
 20
7.8483111629
 30
0.0
 10
13.5044535638
 20
7.8622911605
 30
0.0
 10
13.5001206773
 20
7.8754431677
 30
0.0
 10
13.4956032773
 20
7.8877458633
 30
0.0
 10
13.49090875
 20
7.8991794551
 30
0.0
 10
13.4860446441
 20
7.9097257071
 30
0.0
 10
13.4810185388
 20
7.9193679581
 30
0.0
 10
13.475838044
 20
7.9280911962
 30
0.0
 10
13.4705105217
 20
7.9358820365
 30
0.0
 10
13.4650429427
 20
7.9427284466
 30
0.0
 10
13.4594412194
 20
7.9486197047
 30
0.0
 10
13.4537118821
 20
7.9535449581
 30
0.0
 10
13.4487585208
 20
7.9568862317
 30
0.0
 10
13.4447555238
 20
7.9590320566
 30
0.0
 10
13.4417744034
 20
7.9603690945
 30
0.0
 10
13.4387699611
 20
7.9614574939
 30
0.0
 10
13.4357433663
 20
7.9622964764
 30
0.0
 10
13.4326964099
 20
7.9628854463
 30
0.0
 10
13.4306498196
 20
7.9631114381
 30
0.0
 10
13.4296272564
 20
7.9631823569
 30
0.0
  0
SPLINE
  5
376
100
AcDbEntity
  8
0
100
AcDbSpline
 62
7
  6
CONTINUOUS
 70
0
 71
3
 72
71
 73
67
 74
0
 42
0.0000001
 43
0.0000001
 44
0.0000000001
 40
0.0
 40
0.0
 40
0.0
 40
0.0
 40
0.0156373971
 40
0.0313278976
 40
0.0470702878
 40
0.0628636373
 40
0.0787060812
 40
0.0945954871
 40
0.1105292288
 40
0.1265042944
 40
0.1425172944
 40
0.1585644997
 40
0.1746418768
 40
0.1907451251
 40
0.2068697163
 40
0.2230109347
 40
0.2391639194
 40
0.2553237067
 40
0.2714852733
 40
0.2876435805
 40
0.3037936184
 40
0.3199304489
 40
0.3360492494
 40
0.3521453551
 40
0.3682143003
 40
0.3842518588
 40
0.4002540825
 40
0.416217339
 40
0.4321383459
 40
0.4480142034
 40
0.4638424236
 40
0.4796209569
 40
0.4953482153
 40
0.5110230907
 40
0.5266449714
 40
0.5422137523
 40
0.5577298414
 40
0.5731941611
 40
0.5886081441
 40
0.6039737242
 40
0.6192933216
 40
0.6345698232
 40
0.6498065569
 40
0.6650072611
 40
0.6801760494
 40
0.6953173697
 40
0.710435959
 40
0.7255367955
 40
0.7406250456
 40
0.7557060103
 40
0.7707850681
 40
0.7858676181
 40
0.800959022
 40
0.816064547
 40
0.8311893099
 40
0.8463382233
 40
0.8615159441
 40
0.8767268263
 40
0.8919748772
 40
0.9072637174
 40
0.9225965517
 40
0.937976118
 40
0.9534047439
 40
0.9688840783
 40
0.9844157248
 40
1.0
 40
1.0
 40
1.0
 40
1.0
 10
11.9037922126
 20
8.731551771
 30
0.0
 10
11.9037922126
 20
8.7431869195
 30
0.0
 10
11.9032189436
 20
8.766500691
 30
0.0
 10
11.9006517205
 20
8.8014426844
 30
0.0
 10
11.8963817839
 20
8.8363353398
 30
0.0
 10
11.8904197084
 20
8.8710933428
 30
0.0
 10
11.8827797681
 20
8.9056334542
 30
0.0
 10
11.8734805091
 20
8.9398723731
 30
0.0
 10
11.8625443421
 20
8.9737277171
 30
0.0
 10
11.8499976631
 20
9.0071179785
 30
0.0
 10
11.8358707176
 20
9.0399627859
 30
0.0
 10
11.8201975657
 20
9.0721830857
 30
0.0
 10
11.8030159789
 20
9.1037013307
 30
0.0
 10
11.7843673512
 20
9.1344416648
 30
0.0
 10
11.7642965998
 20
9.1643301045
 30
0.0
 10
11.7428520572
 20
9.193294715
 30
0.0
 10
11.7200853553
 20
9.2212657827
 30
0.0
 10
11.6960513025
 20
9.2481759815
 30
0.0
 10
11.6708077518
 20
9.2739605338
 30
0.0
 10
11.6444154719
 20
9.2985573758
 30
0.0
 10
11.6169379909
 20
9.3219072974
 30
0.0
 10
11.5884414442
 20
9.3439540843
 30
0.0
 10
11.5589944163
 20
9.3646446521
 30
0.0
 10
11.5286677775
 20
9.3839291736
 30
0.0
 10
11.4975345139
 20
9.4017611979
 30
0.0
 10
11.4656695536
 20
9.4180977618
 30
0.0
 10
11.4331495874
 20
9.4328994932
 30
0.0
 10
11.4000528903
 20
9.4461307182
 30
0.0
 10
11.3664591277
 20
9.4577595355
 30
0.0
 10
11.332449165
 20
9.467757893
 30
0.0
 10
11.2981048747
 20
9.4761016559
 30
0.0
 10
11.2635089411
 20
9.4827706646
 30
0.0
 10
11.2287446628
 20
9.4877487847
 30
0.0
 10
11.1938957536
 20
9.4910239463
 30
0.0
 10
11.1590461425
 20
9.4925881745
 30
0.0
 10
11.1242797724
 20
9.4924376242
 30
0.0
 10
11.0896803966
 20
9.4905725768
 30
0.0
 10
11.0553313784
 20
9.4869974419
 30
0.0
 10
11.0213154913
 20
9.4817207482
 30
0.0
 10
10.9877147197
 20
9.4747551251
 30
0.0
 10
10.9546100616
 20
9.4661172748
 30
0.0
 10
10.9220813332
 20
9.4558279344
 30
0.0
 10
10.8902069755
 20
9.443911828
 30
0.0
 10
10.8590638584
 20
9.430397622
 30
0.0
 10
10.8287270968
 20
9.4153178444
 30
0.0
 10
10.7992698685
 20
9.3987088076
 30
0.0
 10
10.7707632354
 20
9.3806105219
 30
0.0
 10
10.7432759703
 20
9.3610665999
 30
0.0
 10
10.7168743886
 20
9.3401241514
 30
0.0
 10
10.6916221862
 20
9.3178336697
 30
0.0
 10
10.6675802836
 20
9.2942489094
 30
0.0
 10
10.6448066665
 20
9.2694267644
 30
0.0
 10
10.623356253
 20
9.2434271185
 30
0.0
 10
10.6032807598
 20
9.2163126981
 30
0.0
 10
10.5846285775
 20
9.1881489195
 30
0.0
 10
10.567444653
 20
9.1590037283
 30
0.0
 10
10.5517703822
 20
9.1289474339
 30
0.0
 10
10.5376435099
 20
9.0980525371
 30
0.0
 10
10.5250980421
 20
9.066393555
 30
0.0
 10
10.5141641446
 20
9.0340468398
 30
0.0
 10
10.5048681098
 20
9.0010904025
 30
0.0
 10
10.4972322228
 20
8.9676036591
 30
0.0
 10
10.4912748882
 20
8.9336674725
 30
0.0
 10
10.4870102191
 20
8.8993631929
 30
0.0
 10
10.484448625
 20
8.8647747577
 30
0.0
 10
10.4838811638
 20
8.8416185593
 30
0.0
 10
10.4838811638
 20
8.8300229367
 30
0.0
  0
SPLINE
  5
377
100
AcDbEntity
  8
0
100
AcDbSpline
 62
7
  6
CONTINUOUS
 70
0
 71
3
 72
42
 73
38
 74
0
 42
0.0000001
 43
0.0000001
 44
0.0000000001
 40
0.0
 40
0.0
 40
0.0
 40
0.0
 40
0.0055576443
 40
0.0111781836
 40
0.0169222355
 40
0.022846223
 40
0.0290011442
 40
0.0354316623
 40
0.0421762431
 40
0.049267259
 40
0.0567314277
 40
0.0645907244
 40
0.072862575
 40
0.081560766
 40
0.0906959315
 40
0.100275708
 40
0.1103055927
 40
0.1207888494
 40
0.1431177711
 40
0.1672591076
 40
0.1931868442
 40
0.2208588039
 40
0.2502193991
 40
0.2812018039
 40
0.3137295194
 40
0.3477175618
 40
0.3830734051
 40
0.419697946
 40
0.4574862654
 40
0.4963282772
 40
0.5361092896
 40
0.5767106614
 40
0.6598810502
 40
0.7448351505
 40
0.8305372122
 40
0.9159392559
 40
1.0
 40
1.0
 40
1.0
 40
1.0
 10
12.3414216174
 20
10.4789685468
 30
0.0
 10
12.3414216174
 20
10.4794905194
 30
0.0
 10
12.3414800375
 20
10.4805412816
 30
0.0
 10
12.3417423446
 20
10.482111814
 30
0.0
 10
12.3421788397
 20
10.4836788388
 30
0.0
 10
12.342788645
 20
10.4852405612
 30
0.0
 10
12.343570854
 20
10.4867956674
 30
0.0
 10
12.3445243028
 20
10.4883430227
 30
0.0
 10
12.3456479785
 20
10.4898815271
 30
0.0
 10
12.3469407687
 20
10.4914101403
 30
0.0
 10
12.3484014755
 20
10.4929278805
 30
0.0
 10
12.3500289388
 20
10.4944336235
 30
0.0
 10
12.3518217842
 20
10.4959263483
 30
0.0
 10
12.3537785919
 20
10.497404941
 30
0.0
 10
12.3558978241
 20
10.4988682454
 30
0.0
 10
12.3581777546
 20
10.5003151887
 30
0.0
 10
12.3606165966
 20
10.5017446042
 30
0.0
 10
12.3641524995
 20
10.5036661637
 30
0.0
 10
12.3689657101
 20
10.506006565
 30
0.0
 10
12.3752239094
 20
10.5086712694
 30
0.0
 10
12.3820608037
 20
10.5112397179
 30
0.0
 10
12.3894543167
 20
10.5137034993
 30
0.0
 10
12.3973807076
 20
10.5160545212
 30
0.0
 10
12.4058142885
 20
10.5182850122
 30
0.0
 10
12.4147276651
 20
10.5203875855
 30
0.0
 10
12.4240918002
 20
10.5223552684
 30
0.0
 10
12.4338761292
 20
10.5241815552
 30
0.0
 10
12.4440486789
 20
10.5258604005
 30
0.0
 10
12.4545761899
 20
10.5273862488
 30
0.0
 10
12.4654242123
 20
10.5287540343
 30
0.0
 10
12.4765572613
 20
10.5299592746
 30
0.0
 10
12.491855134
 20
10.5313552394
 30
0.0
 10
12.5114187874
 20
10.5326590633
 30
0.0
 10
12.5352461216
 20
10.5335170496
 30
0.0
 10
12.5592981485
 20
10.533668936
 30
0.0
 10
12.5832600333
 20
10.5331127299
 30
0.0
 10
12.599156326
 20
10.5322647121
 30
0.0
 10
12.6070323736
 20
10.5317185064
 30
0.0
  0
SPLINE
  5
378
100
AcDbEntity
  8
0
100
AcDbSpline
 62
7
  6
CONTINUOUS
 70
0
 71
3
 72
42
 73
38
 74
0
 42
0.0000001
 43
0.0000001
 44
0.0000000001
 40
0.0
 40
0.0
 40
0.0
 40
0.0
 40
0.0055576443
 40
0.0111781836
 40
0.0169222355
 40
0.022846223
 40
0.0290011442
 40
0.0354316623
 40
0.0421762431
 40
0.049267259
 40
0.0567314277
 40
0.0645907244
 40
0.072862575
 40
0.081560766
 40
0.0906959315
 40
0.100275708
 40
0.1103055927
 40
0.1207888494
 40
0.1431177711
 40
0.1672591076
 40
0.1931868442
 40
0.2208588039
 40
0.2502193991
 40
0.2812018039
 40
0.3137295194
 40
0.3477175618
 40
0.3830734051
 40
0.419697946
 40
0.4574862654
 40
0.4963282772
 40
0.5361092896
 40
0.5767106614
 40
0.6598810502
 40
0.7448351505
 40
0.8305372122
 40
0.9159392559
 40
1.0
 40
1.0
 40
1.0
 40
1.0
 10
8.7191995542
 20
10.7301705001
 30
0.0
 10
8.7191995542
 20
10.7306924727
 30
0.0
 10
8.7192579743
 20
10.7317432349
 30
0.0
 10
8.7195202814
 20
10.7333137673
 30
0.0
 10
8.7199567765
 20
10.7348807921
 30
0.0
 10
8.7205665818
 20
10.7364425145
 30
0.0
 10
8.7213487908
 20
10.7379976207
 30
0.0
 10
8.7223022396
 20
10.739544976
 30
0.0
 10
8.7234259153
 20
10.7410834804
 30
0.0
 10
8.7247187055
 20
10.7426120936
 30
0.0
 10
8.7261794122
 20
10.7441298338
 30
0.0
 10
8.7278068756
 20
10.7456355767
 30
0.0
 10
8.729599721
 20
10.7471283016
 30
0.0
 10
8.7315565287
 20
10.7486068943
 30
0.0
 10
8.7336757609
 20
10.7500701987
 30
0.0
 10
8.7359556914
 20
10.751517142
 30
0.0
 10
8.7383945334
 20
10.7529465575
 30
0.0
 10
8.7419304363
 20
10.754868117
 30
0.0
 10
8.7467436469
 20
10.7572085183
 30
0.0
 10
8.7530018462
 20
10.7598732227
 30
0.0
 10
8.7598387405
 20
10.7624416712
 30
0.0
 10
8.7672322535
 20
10.7649054526
 30
0.0
 10
8.7751586444
 20
10.7672564744
 30
0.0
 10
8.7835922253
 20
10.7694869654
 30
0.0
 10
8.7925056019
 20
10.7715895388
 30
0.0
 10
8.801869737
 20
10.7735572217
 30
0.0
 10
8.811654066
 20
10.7753835085
 30
0.0
 10
8.8218266157
 20
10.7770623538
 30
0.0
 10
8.8323541267
 20
10.7785882021
 30
0.0
 10
8.8432021491
 20
10.7799559876
 30
0.0
 10
8.8543351981
 20
10.7811612279
 30
0.0
 10
8.8696330708
 20
10.7825571927
 30
0.0
 10
8.8891967242
 20
10.7838610166
 30
0.0
 10
8.9130240584
 20
10.7847190029
 30
0.0
 10
8.9370760853
 20
10.7848708893
 30
0.0
 10
8.9610379701
 20
10.7843146831
 30
0.0
 10
8.9769342628
 20
10.7834666654
 30
0.0
 10
8.9848103104
 20
10.7829204597
 30
0.0
  0
SPLINE
  5
379
100
AcDbEntity
  8
0
100
AcDbSpline
 62
7
  6
CONTINUOUS
 70
0
 71
3
 72
49
 73
45
 74
0
 42
0.0000001
 43
0.0000001
 44
0.0000000001
 40
0.0
 40
0.0
 40
0.0
 40
0.0
 40
0.0149718081
 40
0.0299466748
 40
0.0449276404
 40
0.059917709
 40
0.0749198276
 40
0.0899368702
 40
0.1049716217
 40
0.120026759
 40
0.1351048351
 40
0.1502082677
 40
0.1653393229
 40
0.1805001009
 40
0.1956925286
 40
0.2109183481
 40
0.2261791043
 40
0.2414761418
 40
0.256810598
 40
0.2721833946
 40
0.287595237
 40
0.3030466133
 40
0.3340634927
 40
0.3652389307
 40
0.3965689749
 40
0.4280463623
 40
0.4596607137
 40
0.4913987952
 40
0.5232448251
 40
0.5551808189
 40
0.5871869764
 40
0.6192420905
 40
0.6513239761
 40
0.6834099169
 40
0.7154771164
 40
0.7475031494
 40
0.779466411
 40
0.8113465537
 40
0.8431249023
 40
0.8747848503
 40
0.906312225
 40
0.9376956122
 40
0.9689264437
 40
1.0
 40
1.0
 40
1.0
 40
1.0
 10
11.729106464
 20
8.2105815543
 30
0.0
 10
11.7226192876
 20
8.2043154059
 30
0.0
 10
11.7093929962
 20
8.1920383215
 30
0.0
 10
11.6888351917
 20
8.1744237144
 30
0.0
 10
11.6675852155
 20
8.1576321882
 30
0.0
 10
11.6456726805
 20
8.1416872781
 30
0.0
 10
11.6231276196
 20
8.1266108478
 30
0.0
 10
11.5999811344
 20
8.1124236024
 30
0.0
 10
11.5762650609
 20
8.0991450626
 30
0.0
 10
11.5520120136
 20
8.0867935469
 30
0.0
 10
11.5272554068
 20
8.0753859708
 30
0.0
 10
11.5020293072
 20
8.0649380143
 30
0.0
 10
11.476368403
 20
8.0554641055
 30
0.0
 10
11.4503080299
 20
8.0469772027
 30
0.0
 10
11.4238840494
 20
8.0394889427
 30
0.0
 10
11.3971327989
 20
8.0330096795
 30
0.0
 10
11.3700910935
 20
8.0275482662
 30
0.0
 10
11.3427961492
 20
8.0231121539
 30
0.0
 10
11.315285467
 20
8.0197074917
 30
0.0
 10
11.2875970234
 20
8.0173389162
 30
0.0
 10
11.2597684179
 20
8.0160096491
 30
0.0
 10
11.2224854577
 20
8.0156248405
 30
0.0
 10
11.1757131877
 20
8.0177582398
 30
0.0
 10
11.119724859
 20
8.0244678542
 30
0.0
 10
11.0641011026
 20
8.0352925042
 30
0.0
 10
11.0091495358
 20
8.0501723017
 30
0.0
 10
10.9551712749
 20
8.0690248554
 30
0.0
 10
10.9024627563
 20
8.0917461982
 30
0.0
 10
10.851313227
 20
8.1182112346
 30
0.0
 10
10.8020033106
 20
8.1482742545
 30
0.0
 10
10.7548035993
 20
8.1817700596
 30
0.0
 10
10.709973071
 20
8.2185146031
 30
0.0
 10
10.6677576707
 20
8.2583060411
 30
0.0
 10
10.6283891568
 20
8.3009260073
 30
0.0
 10
10.5920835808
 20
8.3461405239
 30
0.0
 10
10.5590402913
 20
8.3937014747
 30
0.0
 10
10.5294408907
 20
8.4433479341
 30
0.0
 10
10.5034479858
 20
8.4948074394
 30
0.0
 10
10.4812046236
 20
8.5477976333
 30
0.0
 10
10.4628333278
 20
8.6020277977
 30
0.0
 10
10.4484353294
 20
8.6571999566
 30
0.0
 10
10.4380903796
 20
8.7130122496
 30
0.0
 10
10.4318557055
 20
8.7691541959
 30
0.0
 10
10.4304592637
 20
8.8067020088
 30
0.0
 10
10.4304592637
 20
8.8254213406
 30
0.0
  0
SPLINE
  5
37A
100
AcDbEntity
  8
0
100
AcDbSpline
 62
7
  6
CONTINUOUS
 70
0
 71
3
 72
47
 73
43
 74
0
 42
0.0000001
 43
0.0000001
 44
0.0000000001
 40
0.0
 40
0.0
 40
0.0
 40
0.0
 40
0.0149687608
 40
0.0299417876
 40
0.0449220687
 40
0.0599125491
 40
0.0749161113
 40
0.0899355593
 40
0.1049736039
 40
0.1200328435
 40
0.1351157501
 40
0.1502246587
 40
0.1653617491
 40
0.1805290361
 40
0.1957283616
 40
0.2109613808
 40
0.2262295544
 40
0.241534146
 40
0.2722511961
 40
0.3031239162
 40
0.3341547734
 40
0.3653427973
 40
0.3966836467
 40
0.4281697532
 40
0.4597905257
 40
0.4915326035
 40
0.5233801615
 40
0.5553152561
 40
0.5873181981
 40
0.6193679555
 40
0.6514425759
 40
0.6835196185
 40
0.7155765949
 40
0.7475914099
 40
0.7795427988
 40
0.8114107494
 40
0.8431769085
 40
0.8748249662
 40
0.906341008
 40
0.9377138422
 40
0.9689350341
 40
1.0
 40
1.0
 40
1.0
 40
1.0
 10
11.7290483318
 20
8.2106522787
 30
0.0
 10
11.7225014381
 20
8.2045324877
 30
0.0
 10
11.7091625581
 20
8.1925484097
 30
0.0
 10
11.688457147
 20
8.1753735889
 30
0.0
 10
11.6670798658
 20
8.1590205193
 30
0.0
 10
11.6450601132
 20
8.1435118435
 30
0.0
 10
11.622427686
 20
8.1288685489
 30
0.0
 10
11.5992134114
 20
8.115110471
 30
0.0
 10
11.5754487916
 20
8.1022563264
 30
0.0
 10
11.5511661018
 20
8.0903236002
 30
0.0
 10
11.5263983713
 20
8.0793284048
 30
0.0
 10
11.5011792244
 20
8.0692857057
 30
0.0
 10
11.4755429062
 20
8.060209165
 30
0.0
 10
11.4495242806
 20
8.0521110063
 30
0.0
 10
11.4231586355
 20
8.0450022528
 30
0.0
 10
11.3964819052
 20
8.0388925872
 30
0.0
 10
11.3695298466
 20
8.0337901736
 30
0.0
 10
11.3332364407
 20
8.0283331041
 30
0.0
 10
11.2873502723
 20
8.024069521
 30
0.0
 10
11.2318577096
 20
8.0230692388
 30
0.0
 10
11.1761602068
 20
8.0261818472
 30
0.0
 10
11.12056207
 20
8.0333902518
 30
0.0
 10
11.0653642835
 20
8.044654561
 30
0.0
 10
11.0108662448
 20
8.0599130982
 30
0.0
 10
10.9573633122
 20
8.0790826979
 30
0.0
 10
10.9051453875
 20
8.1020589351
 30
0.0
 10
10.8544953394
 20
8.1287168705
 30
0.0
 10
10.8056875778
 20
8.1589118085
 30
0.0
 10
10.7589864428
 20
8.1924798298
 30
0.0
 10
10.714644876
 20
8.2292388582
 30
0.0
 10
10.6729031388
 20
8.2689896862
 30
0.0
 10
10.6339873381
 20
8.3115168332
 30
0.0
 10
10.5981083438
 20
8.3565898723
 30
0.0
 10
10.5654607266
 20
8.4039646854
 30
0.0
 10
10.5362214863
 20
8.4533846025
 30
0.0
 10
10.510549274
 20
8.5045819328
 30
0.0
 10
10.4885835943
 20
8.5572793565
 30
0.0
 10
10.4704437975
 20
8.611191424
 30
0.0
 10
10.4562286314
 20
8.6660257333
 30
0.0
 10
10.4460158231
 20
8.7214860924
 30
0.0
 10
10.439861089
 20
8.7772679374
 30
0.0
 10
10.4384826473
 20
8.8145727564
 30
0.0
 10
10.4384826473
 20
8.8331713345
 30
0.0
  0
SPLINE
  5
37B
100
AcDbEntity
  8
0
100
AcDbSpline
 62
7
  6
CONTINUOUS
 70
0
 71
3
 72
47
 73
43
 74
0
 42
0.0000001
 43
0.0000001
 44
0.0000000001
 40
0.0
 40
0.0
 40
0.0
 40
0.0
 40
0.0149719701
 40
0.0299469998
 40
0.0449281282
 40
0.0599183596
 40
0.074920642
 40
0.0899378484
 40
0.1049727639
 40
0.1200280657
 40
0.1351063065
 40
0.1502099046
 40
0.1653411254
 40
0.180502069
 40
0.1956946637
 40
0.2109206499
 40
0.2261815727
 40
0.2414787788
 40
0.2721808845
 40
0.3030390423
 40
0.3340562612
 40
0.3652320396
 40
0.3965624276
 40
0.4280401587
 40
0.4596548547
 40
0.4913932827
 40
0.5232396593
 40
0.5551760004
 40
0.5871825057
 40
0.6192379677
 40
0.6513202013
 40
0.6834064899
 40
0.7154740364
 40
0.747500416
 40
0.7794640241
 40
0.8113445111
 40
0.8431232035
 40
0.8747834946
 40
0.906311207
 40
0.9376949507
 40
0.9689260908
 40
1.0
 40
1.0
 40
1.0
 40
1.0
 10
11.7007785457
 20
8.2694192587
 30
0.0
 10
11.694805694
 20
8.2636499317
 30
0.0
 10
11.6826280225
 20
8.2523462607
 30
0.0
 10
11.6637001035
 20
8.2361282672
 30
0.0
 10
11.6441348698
 20
8.2206681281
 30
0.0
 10
11.623959644
 20
8.2059874385
 30
0.0
 10
11.6032020267
 20
8.1921063951
 30
0.0
 10
11.5818906686
 20
8.1790440438
 30
0.0
 10
11.5600548964
 20
8.1668183305
 30
0.0
 10
11.537724715
 20
8.1554461643
 30
0.0
 10
11.5149309093
 20
8.1449430809
 30
0.0
 10
11.4917048343
 20
8.1353235386
 30
0.0
 10
11.4680784227
 20
8.1266008342
 30
0.0
 10
11.4440842364
 20
8.1187868418
 30
0.0
 10
11.4197552364
 20
8.1118923457
 30
0.0
 10
11.3951250125
 20
8.1059268654
 30
0.0
 10
11.3702270117
 20
8.1008984527
 30
0.0
 10
11.3366823309
 20
8.0954465459
 30
0.0
 10
11.2942397261
 20
8.0910133371
 30
0.0
 10
11.2428661778
 20
8.0895308348
 30
0.0
 10
11.1912613901
 20
8.0918850059
 30
0.0
 10
11.1397109774
 20
8.0980626716
 30
0.0
 10
11.0884976629
 20
8.1080292318
 30
0.0
 10
11.0379028524
 20
8.1217293315
 30
0.0
 10
10.9882042834
 20
8.1390872118
 30
0.0
 10
10.9396747822
 20
8.1600071866
 30
0.0
 10
10.8925806571
 20
8.1843739887
 30
0.0
 10
10.8471802992
 20
8.2120535181
 30
0.0
 10
10.8037228352
 20
8.2428936495
 30
0.0
 10
10.7624467222
 20
8.2767249499
 30
0.0
 10
10.7235784106
 20
8.3133615778
 30
0.0
 10
10.6873312212
 20
8.3526024229
 30
0.0
 10
10.653904174
 20
8.3942321515
 30
0.0
 10
10.6234807703
 20
8.4380222729
 30
0.0
 10
10.5962281303
 20
8.4837325043
 30
0.0
 10
10.5722961171
 20
8.5311120749
 30
0.0
 10
10.5518163603
 20
8.5799009639
 30
0.0
 10
10.5349016062
 20
8.6298314862
 30
0.0
 10
10.5216451776
 20
8.6806293435
 30
0.0
 10
10.5121204604
 20
8.7320165619
 30
0.0
 10
10.5063800775
 20
8.7837073003
 30
0.0
 10
10.5050943626
 20
8.8182781333
 30
0.0
 10
10.5050943626
 20
8.8355133145
 30
0.0
  0
SPLINE
  5
37C
100
AcDbEntity
  8
0
100
AcDbSpline
 62
7
  6
CONTINUOUS
 70
0
 71
3
 72
45
 73
41
 74
0
 42
0.0000001
 43
0.0000001
 44
0.0000000001
 40
0.0
 40
0.0
 40
0.0
 40
0.0
 40
0.0149641173
 40
0.029934725
 40
0.044914706
 40
0.0599068892
 40
0.0749140294
 40
0.0899387964
 40
0.1049837574
 40
0.12005136
 40
0.1351439243
 40
0.1502636262
 40
0.165412484
 40
0.1805923547
 40
0.2110462731
 40
0.2416420462
 40
0.2723877382
 40
0.3032881496
 40
0.3343447615
 40
0.3655557503
 40
0.396916077
 40
0.428417638
 40
0.4600494691
 40
0.4917979987
 40
0.523647349
 40
0.555579669
 40
0.5875754965
 40
0.6196141436
 40
0.6516741015
 40
0.6837334534
 40
0.7157702939
 40
0.7477631489
 40
0.779691388
 40
0.8115356274
 40
0.8432781162
 40
0.8749030945
 40
0.9063971251
 40
0.9377494391
 40
0.9689518427
 40
1.0
 40
1.0
 40
1.0
 40
1.0
 10
11.7208983431
 20
8.2898290489
 30
0.0
 10
11.7147737149
 20
8.2844492228
 30
0.0
 10
11.702310567
 20
8.2739250081
 30
0.0
 10
11.6830105598
 20
8.2588758896
 30
0.0
 10
11.6631267543
 20
8.2445801784
 30
0.0
 10
11.642685794
 20
8.2310572471
 30
0.0
 10
11.6217147071
 20
8.2183248893
 30
0.0
 10
11.6002413486
 20
8.2063999371
 30
0.0
 10
11.5782941113
 20
8.1952982928
 30
0.0
 10
11.5559021464
 20
8.1850345695
 30
0.0
 10
11.5330950963
 20
8.1756223492
 30
0.0
 10
11.5099032728
 20
8.1670742065
 30
0.0
 10
11.4863570136
 20
8.1594012544
 30
0.0
 10
11.4545012833
 20
8.1503424951
 30
0.0
 10
11.4139357703
 20
8.1412592978
 30
0.0
 10
11.3644113568
 20
8.1340111182
 30
0.0
 10
11.3142423943
 20
8.1304379975
 30
0.0
 10
11.2636965284
 20
8.1305588462
 30
0.0
 10
11.21304096
 20
8.1343723287
 30
0.0
 10
11.162543969
 20
8.1418576805
 30
0.0
 10
11.1124727085
 20
8.1529747139
 30
0.0
 10
11.0630920409
 20
8.1676641524
 30
0.0
 10
11.0146630972
 20
8.1858478843
 30
0.0
 10
10.9674418887
 20
8.2074293037
 30
0.0
 10
10.9216780113
 20
8.232293964
 30
0.0
 10
10.8776133643
 20
8.2603101794
 30
0.0
 10
10.8354808297
 20
8.2913296159
 30
0.0
 10
10.7955030592
 20
8.3251881051
 30
0.0
 10
10.7578913652
 20
8.3617065756
 30
0.0
 10
10.7228446211
 20
8.4006919704
 30
0.0
 10
10.6905481103
 20
8.4419381603
 30
0.0
 10
10.6611726452
 20
8.485227121
 30
0.0
 10
10.634873702
 20
8.5303300765
 30
0.0
 10
10.6117905566
 20
8.5770086612
 30
0.0
 10
10.5920454777
 20
8.6250161091
 30
0.0
 10
10.5757432064
 20
8.6740987197
 30
0.0
 10
10.5629703821
 20
8.7239967674
 30
0.0
 10
10.5537950789
 20
8.7744472241
 30
0.0
 10
10.5482661233
 20
8.8251797963
 30
0.0
 10
10.5470279924
 20
8.8591041844
 30
0.0
 10
10.5470279924
 20
8.8760180929
 30
0.0
  0
SPLINE
  5
37D
100
AcDbEntity
  8
0
100
AcDbSpline
 62
7
  6
CONTINUOUS
 70
0
 71
3
 72
45
 73
41
 74
0
 42
0.0000001
 43
0.0000001
 44
0.0000000001
 40
0.0
 40
0.0
 40
0.0
 40
0.0
 40
0.0149721384
 40
0.0299473353
 40
0.0449286316
 40
0.0599190316
 40
0.0749214813
 40
0.0899388561
 40
0.1049739408
 40
0.1200294102
 40
0.1351078205
 40
0.1502115883
 40
0.1653429774
 40
0.1805040919
 40
0.2109173721
 40
0.2414702803
 40
0.2721727302
 40
0.3030312324
 40
0.3340487994
 40
0.3652249282
 40
0.3965556662
 40
0.4280337495
 40
0.4596488007
 40
0.4913875843
 40
0.5232343171
 40
0.5551710162
 40
0.5871778805
 40
0.6192337014
 40
0.6513162944
 40
0.6834029425
 40
0.7154708484
 40
0.7474975871
 40
0.779461553
 40
0.8113423971
 40
0.8431214459
 40
0.874782092
 40
0.9063101554
 40
0.9376942574
 40
0.9689257386
 40
1.0
 40
1.0
 40
1.0
 40
1.0
 10
11.7224415415
 20
8.354994358
 30
0.0
 10
11.7168544295
 20
8.3495976402
 30
0.0
 10
11.7054632324
 20
8.3390239981
 30
0.0
 10
11.687757728
 20
8.3238534335
 30
0.0
 10
11.669456115
 20
8.30939172
 30
0.0
 10
11.650583841
 20
8.2956592005
 30
0.0
 10
11.6311668272
 20
8.2826746324
 30
0.0
 10
11.6112318496
 20
8.2704558542
 30
0.0
 10
11.5908062706
 20
8.2590197757
 30
0.0
 10
11.56991827
 20
8.2483820302
 30
0.0
 10
11.5485965524
 20
8.2385572467
 30
0.0
 10
11.5268705438
 20
8.2295590413
 30
0.0
 10
11.5047697521
 20
8.2213995673
 30
0.0
 10
11.4748160344
 20
8.2116446349
 30
0.0
 10
11.4365726611
 20
8.2016042188
 30
0.0
 10
11.3897371091
 20
8.1930799688
 30
0.0
 10
11.342159174
 20
8.1881106611
 30
0.0
 10
11.29410245
 20
8.1867236657
 30
0.0
 10
11.2458307549
 20
8.1889258742
 30
0.0
 10
11.1976095683
 20
8.1947045857
 30
0.0
 10
11.1497037948
 20
8.2040274368
 30
0.0
 10
11.1023765541
 20
8.2168427209
 30
0.0
 10
11.0558877018
 20
8.233079618
 30
0.0
 10
11.0104923948
 20
8.2526485016
 30
0.0
 10
10.966439748
 20
8.2754415814
 30
0.0
 10
10.923971507
 20
8.3013334939
 30
0.0
 10
10.8833206867
 20
8.3301818875
 30
0.0
 10
10.8447103041
 20
8.361828226
 30
0.0
 10
10.8083522269
 20
8.3960987287
 30
0.0
 10
10.7744460308
 20
8.4328052958
 30
0.0
 10
10.7431778054
 20
8.4717464296
 30
0.0
 10
10.7147192288
 20
8.5127084273
 30
0.0
 10
10.6892266666
 20
8.5554665469
 30
0.0
 10
10.6668402745
 20
8.5997861922
 30
0.0
 10
10.6476831544
 20
8.6454241259
 30
0.0
 10
10.6318608073
 20
8.6921299669
 30
0.0
 10
10.619460535
 20
8.7396471348
 30
0.0
 10
10.6105509551
 20
8.7877155925
 30
0.0
 10
10.6051812983
 20
8.836067971
 30
0.0
 10
10.6039786217
 20
8.868406102
 30
0.0
 10
10.6039786217
 20
8.8845281798
 30
0.0
  0
SPLINE
  5
37E
100
AcDbEntity
  8
0
100
AcDbSpline
 62
7
  6
CONTINUOUS
 70
0
 71
3
 72
42
 73
38
 74
0
 42
0.0000001
 43
0.0000001
 44
0.0000000001
 40
0.0
 40
0.0
 40
0.0
 40
0.0
 40
0.0302771196
 40
0.0454600827
 40
0.0606722779
 40
0.0911827256
 40
0.121813731
 40
0.1371762047
 40
0.1525688739
 40
0.1834409134
 40
0.2144303296
 40
0.2455330339
 40
0.2767435214
 40
0.3080549539
 40
0.3394592565
 40
0.370947227
 40
0.4025086555
 40
0.4341324542
 40
0.4658067944
 40
0.49751925
 40
0.5292569463
 40
0.5610067125
 40
0.5927552361
 40
0.6244892194
 40
0.6561955349
 40
0.6878613803
 40
0.7194744295
 40
0.7510229812
 40
0.7824961012
 40
0.8138837575
 40
0.8451769508
 40
0.8763678238
 40
0.9074497942
 40
0.9384175771
 40
0.9538587615
 40
0.9692704983
 40
1.0
 40
1.0
 40
1.0
 40
1.0
 10
11.8896531798
 20
8.6550193437
 30
0.0
 10
11.8776710593
 20
8.6527667785
 30
0.0
 10
11.8595751409
 20
8.6499125716
 30
0.0
 10
11.8352964787
 20
8.6471620331
 30
0.0
 10
11.8108538972
 20
8.6451086289
 30
0.0
 10
11.7801148822
 20
8.6438648701
 30
0.0
 10
11.7492948549
 20
8.6443856472
 30
0.0
 10
11.7246166903
 20
8.6458558423
 30
0.0
 10
11.6998934045
 20
8.6480328612
 30
0.0
 10
11.6690302162
 20
8.652073747
 30
0.0
 10
11.6322236835
 20
8.6590069416
 30
0.0
 10
11.5957263929
 20
8.6680066036
 30
0.0
 10
11.5596573745
 20
8.6790433876
 30
0.0
 10
11.5241332922
 20
8.6920814188
 30
0.0
 10
11.4892692907
 20
8.7070783368
 30
0.0
 10
11.4551782971
 20
8.7239854541
 30
0.0
 10
11.4219707461
 20
8.7427479088
 30
0.0
 10
11.3897542014
 20
8.7633048435
 30
0.0
 10
11.3586330164
 20
8.7855896022
 30
0.0
 10
11.3287079972
 20
8.8095299453
 30
0.0
 10
11.3000760782
 20
8.8350482828
 30
0.0
 10
11.2728300107
 20
8.8620619246
 30
0.0
 10
11.2470580639
 20
8.8904833466
 30
0.0
 10
11.2228437411
 20
8.9202204731
 30
0.0
 10
11.2002655103
 20
8.9511769727
 30
0.0
 10
11.1793965516
 20
8.9832525692
 30
0.0
 10
11.1603045209
 20
9.0163433631
 30
0.0
 10
11.1430513317
 20
9.0503421678
 30
0.0
 10
11.127692956
 20
9.0851388481
 30
0.0
 10
11.1142792387
 20
9.1206206971
 30
0.0
 10
11.1028537502
 20
9.1566727135
 30
0.0
 10
11.0934536007
 20
9.1931782859
 30
0.0
 10
11.086109457
 20
9.2300184015
 30
0.0
 10
11.0817181745
 20
9.2609297722
 30
0.0
 10
11.0792569073
 20
9.2857048013
 30
0.0
 10
11.0775005272
 20
9.3104429026
 30
0.0
 10
11.0769700362
 20
9.3290286478
 30
0.0
 10
11.0769700362
 20
9.3414028298
 30
0.0
  0
SPLINE
  5
37F
100
AcDbEntity
  8
0
100
AcDbSpline
 62
7
  6
CONTINUOUS
 70
0
 71
3
 72
40
 73
36
 74
0
 42
0.0000001
 43
0.0000001
 44
0.0000000001
 40
0.0
 40
0.0
 40
0.0
 40
0.0
 40
0.0302735628
 40
0.0454547395
 40
0.0606651469
 40
0.0911720625
 40
0.1217996634
 40
0.1525485123
 40
0.183417598
 40
0.2144043668
 40
0.2455047726
 40
0.2767133439
 40
0.3080232666
 40
0.3394264809
 40
0.370913791
 40
0.4024749851
 40
0.4340989655
 40
0.4657738864
 40
0.4974872981
 40
0.5292262965
 40
0.5609776762
 40
0.5927280864
 40
0.6244641876
 40
0.6561728088
 40
0.6878411021
 40
0.7194566963
 40
0.7510078452
 40
0.7824835715
 40
0.8138738019
 40
0.8451695014
 40
0.8763627742
 40
0.9074470243
 40
0.9384169054
 40
0.9692687565
 40
1.0
 40
1.0
 40
1.0
 40
1.0
 10
11.8954057225
 20
8.7156286105
 30
0.0
 10
11.8842600294
 20
8.7135014296
 30
0.0
 10
11.8674257482
 20
8.710799387
 30
0.0
 10
11.8448368649
 20
8.7081801707
 30
0.0
 10
11.8220936692
 20
8.7062104206
 30
0.0
 10
11.7934879299
 20
8.7049814666
 30
0.0
 10
11.7590342963
 20
8.7054809924
 30
0.0
 10
11.7245292864
 20
8.7079513205
 30
0.0
 10
11.6900858048
 20
8.7123843306
 30
0.0
 10
11.6558156468
 20
8.7187654511
 30
0.0
 10
11.6218302625
 20
8.7270738083
 30
0.0
 10
11.5882400945
 20
8.7372822702
 30
0.0
 10
11.5551543036
 20
8.7493575437
 30
0.0
 10
11.5226803947
 20
8.7632602829
 30
0.0
 10
11.4909238767
 20
8.7789452175
 30
0.0
 10
11.4599879207
 20
8.796361301
 30
0.0
 10
11.4299730283
 20
8.815451876
 30
0.0
 10
11.400976707
 20
8.8361548584
 30
0.0
 10
11.3730931561
 20
8.8584029382
 30
0.0
 10
11.3464129627
 20
8.8821237976
 30
0.0
 10
11.3210228094
 20
8.9072403445
 30
0.0
 10
11.2970051946
 20
8.933670962
 30
0.0
 10
11.2744381659
 20
8.961329772
 30
0.0
 10
11.2533950681
 20
8.9901269123
 30
0.0
 10
11.2339443059
 20
9.0199688268
 30
0.0
 10
11.216149123
 20
9.0507585675
 30
0.0
 10
11.2000673967
 20
9.0823961074
 30
0.0
 10
11.1857514522
 20
9.1147786621
 30
0.0
 10
11.1732478879
 20
9.1478010247
 30
0.0
 10
11.1625974359
 20
9.1813558911
 30
0.0
 10
11.1538348005
 20
9.2153342597
 30
0.0
 10
11.1469886068
 20
9.2496255819
 30
0.0
 10
11.1420811849
 20
9.2841188398
 30
0.0
 10
11.1391286908
 20
9.3187003666
 30
0.0
 10
11.1384688046
 20
9.341787672
 30
0.0
 10
11.1384688046
 20
9.353306082
 30
0.0
  0
SPLINE
  5
380
100
AcDbEntity
  8
0
100
AcDbSpline
 62
7
  6
CONTINUOUS
 70
0
 71
3
 72
39
 73
35
 74
0
 42
0.0000001
 43
0.0000001
 44
0.0000000001
 40
0.0
 40
0.0
 40
0.0
 40
0.0
 40
0.0304761839
 40
0.0610642047
 40
0.0917642063
 40
0.1225750885
 40
0.1534945326
 40
0.1845190385
 40
0.2156439758
 40
0.2468636434
 40
0.2781713405
 40
0.3095594443
 40
0.3410194968
 40
0.3725422978
 40
0.4041180036
 40
0.4357362309
 40
0.4673861641
 40
0.4990566671
 40
0.5307363964
 40
0.5624139156
 40
0.594077811
 40
0.6257168061
 40
0.6573198757
 40
0.6888763586
 40
0.7203760669
 40
0.7518093927
 40
0.7831674108
 40
0.8144419727
 40
0.8456258101
 40
0.87671257
 40
0.9076970513
 40
0.9385747933
 40
0.9693433396
 40
1.0
 40
1.0
 40
1.0
 40
1.0
 10
11.8945942425
 20
8.7824436015
 30
0.0
 10
11.8840034003
 20
8.7819017763
 30
0.0
 10
11.8627494944
 20
8.7813843986
 30
0.0
 10
11.8308176713
 20
8.7823023637
 30
0.0
 10
11.7988616318
 20
8.7849100478
 30
0.0
 10
11.7669717354
 20
8.7892001422
 30
0.0
 10
11.7352366196
 20
8.7951605701
 30
0.0
 10
11.7037448875
 20
8.8027746177
 30
0.0
 10
11.6725843408
 20
8.8120209579
 30
0.0
 10
11.6418418775
 20
8.8228737231
 30
0.0
 10
11.6116032136
 20
8.8353025752
 30
0.0
 10
11.5819526566
 20
8.8492727916
 30
0.0
 10
11.5529728695
 20
8.8647453621
 30
0.0
 10
11.524744643
 20
8.8816770974
 30
0.0
 10
11.4973466715
 20
8.9000207493
 30
0.0
 10
11.4708553364
 20
8.9197251427
 30
0.0
 10
11.4453444911
 20
8.9407353134
 30
0.0
 10
11.4208852541
 20
8.9629926601
 30
0.0
 10
11.3975458164
 20
8.9864351132
 30
0.0
 10
11.3753912517
 20
9.0109973055
 30
0.0
 10
11.3544833364
 20
9.0366107544
 30
0.0
 10
11.3348803785
 20
9.0632040508
 30
0.0
 10
11.3166370558
 20
9.0907030575
 30
0.0
 10
11.2998042641
 20
9.1190311138
 30
0.0
 10
11.2844289765
 20
9.1481092484
 30
0.0
 10
11.27055411
 20
9.1778563966
 30
0.0
 10
11.2582184022
 20
9.2081896228
 30
0.0
 10
11.2474563027
 20
9.2390243578
 30
0.0
 10
11.238297903
 20
9.2702746162
 30
0.0
 10
11.2307687797
 20
9.3018532986
 30
0.0
 10
11.2248900941
 20
9.3336722012
 30
0.0
 10
11.2206781857
 20
9.3656430249
 30
0.0
 10
11.2181450979
 20
9.3976752554
 30
0.0
 10
11.217579208
 20
9.4190533756
 30
0.0
 10
11.217579208
 20
9.4297208683
 30
0.0
  0
SPLINE
  5
381
100
AcDbEntity
  8
0
100
AcDbSpline
 62
7
  6
CONTINUOUS
 70
0
 71
3
 72
23
 73
19
 74
0
 42
0.0000001
 43
0.0000001
 44
0.0000000001
 40
0.0
 40
0.0
 40
0.0
 40
0.0
 40
0.0616984931
 40
0.1234238109
 40
0.1851959183
 40
0.2470343206
 40
0.3089578756
 40
0.3709846125
 40
0.4331315605
 40
0.4954145908
 40
0.5578482694
 40
0.6204457293
 40
0.6832185673
 40
0.7461766721
 40
0.8093284814
 40
0.8726797996
 40
0.9362367739
 40
1.0
 40
1.0
 40
1.0
 40
1.0
 10
10.6425875135
 20
9.3354312268
 30
0.0
 10
10.6344885854
 20
9.3273476337
 30
0.0
 10
10.6186921149
 20
9.3107653196
 30
0.0
 10
10.5962757595
 20
9.284723624
 30
0.0
 10
10.575181794
 20
9.2575657336
 30
0.0
 10
10.5554577525
 20
9.2293526386
 30
0.0
 10
10.5371470774
 20
9.200146654
 30
0.0
 10
10.5202903535
 20
9.1700125621
 30
0.0
 10
10.5049248611
 20
9.139017123
 30
0.0
 10
10.4910845917
 20
9.1072290178
 30
0.0
 10
10.4788001469
 20
9.0747186716
 30
0.0
 10
10.4680986779
 20
9.0415580992
 30
0.0
 10
10.4590038227
 20
9.007820766
 30
0.0
 10
10.4515356034
 20
8.9735813492
 30
0.0
 10
10.4457105708
 20
8.9389158168
 30
0.0
 10
10.4415413709
 20
8.9039004664
 30
0.0
 10
10.4390374061
 20
8.8686140523
 30
0.0
 10
10.4384826473
 20
8.8449970414
 30
0.0
 10
10.4384826473
 20
8.8331713345
 30
0.0
  0
SPLINE
  5
382
100
AcDbEntity
  8
0
100
AcDbSpline
 62
7
  6
CONTINUOUS
 70
0
 71
3
 72
23
 73
19
 74
0
 42
0.0000001
 43
0.0000001
 44
0.0000000001
 40
0.0
 40
0.0
 40
0.0
 40
0.0
 40
0.0617101436
 40
0.1234413945
 40
0.1852146442
 40
0.2470503545
 40
0.3089683499
 40
0.3709876203
 40
0.4331261332
 40
0.4954006601
 40
0.5578266118
 40
0.6204179016
 40
0.6831868196
 40
0.7461438598
 40
0.8092979876
 40
0.872655304
 40
0.9362225276
 40
1.0
 40
1.0
 40
1.0
 40
1.0
 10
10.7003434517
 20
9.3051458202
 30
0.0
 10
10.6926124105
 20
9.2976782139
 30
0.0
 10
10.6775292054
 20
9.2823395595
 30
0.0
 10
10.6561135416
 20
9.25819426
 30
0.0
 10
10.6359521284
 20
9.2329631115
 30
0.0
 10
10.6170922652
 20
9.2067051007
 30
0.0
 10
10.5995772101
 20
9.1794806014
 30
0.0
 10
10.5834473708
 20
9.1513524882
 30
0.0
 10
10.5687398832
 20
9.122385639
 30
0.0
 10
10.5554886164
 20
9.0926468779
 30
0.0
 10
10.5437240705
 20
9.0622047959
 30
0.0
 10
10.533473316
 20
9.031129595
 30
0.0
 10
10.5247599362
 20
8.999492944
 30
0.0
 10
10.5176038923
 20
8.9673677462
 30
0.0
 10
10.5120216978
 20
8.9348282147
 30
0.0
 10
10.5080259455
 20
8.9019488829
 30
0.0
 10
10.5056260478
 20
8.8688067642
 30
0.0
 10
10.5050943626
 20
8.846622083
 30
0.0
 10
10.5050943626
 20
8.8355133145
 30
0.0
  0
SPLINE
  5
383
100
AcDbEntity
  8
0
100
AcDbSpline
 62
7
  6
CONTINUOUS
 70
0
 71
3
 72
23
 73
19
 74
0
 42
0.0000001
 43
0.0000001
 44
0.0000000001
 40
0.0
 40
0.0
 40
0.0
 40
0.0
 40
0.0616810998
 40
0.1233985808
 40
0.1851707683
 40
0.2470154915
 40
0.3089499244
 40
0.3709904319
 40
0.4331524248
 40
0.4954502264
 40
0.5578969509
 40
0.6205044193
 40
0.6832830137
 40
0.7462416459
 40
0.8093878795
 40
0.8727266079
 40
0.9362643481
 40
1.0
 40
1.0
 40
1.0
 40
1.0
 10
10.7221124934
 20
9.3252610912
 30
0.0
 10
10.715139365
 20
9.3178798815
 30
0.0
 10
10.7015454496
 20
9.3027716127
 30
0.0
 10
10.6822725378
 20
9.2791392569
 30
0.0
 10
10.6641507986
 20
9.2545786628
 30
0.0
 10
10.6472181313
 20
9.229141056
 30
0.0
 10
10.63150916
 20
9.2028785946
 30
0.0
 10
10.6170562175
 20
9.1758453563
 30
0.0
 10
10.6038890073
 20
9.1480969316
 30
0.0
 10
10.5920345627
 20
9.1196904151
 30
0.0
 10
10.5815171929
 20
9.0906842458
 30
0.0
 10
10.5723584785
 20
9.0611380806
 30
0.0
 10
10.5645772053
 20
9.0311126851
 30
0.0
 10
10.558189323
 20
9.0006697507
 30
0.0
 10
10.5532079755
 20
8.9698720351
 30
0.0
 10
10.5496431227
 20
8.9387823704
 30
0.0
 10
10.547502353
 20
8.9074658143
 30
0.0
 10
10.5470279924
 20
8.8865104709
 30
0.0
 10
10.5470279924
 20
8.8760180929
 30
0.0
  0
SPLINE
  5
384
100
AcDbEntity
  8
0
100
AcDbSpline
 62
7
  6
CONTINUOUS
 70
0
 71
3
 72
23
 73
19
 74
0
 42
0.0000001
 43
0.0000001
 44
0.0000000001
 40
0.0
 40
0.0
 40
0.0
 40
0.0
 40
0.0617101446
 40
0.123441395
 40
0.1852146431
 40
0.247050352
 40
0.3089683478
 40
0.3709876199
 40
0.4331261339
 40
0.495400661
 40
0.5578266111
 40
0.6204179017
 40
0.6831868168
 40
0.746143859
 40
0.8092980008
 40
0.8726552579
 40
0.9362226181
 40
1.0
 40
1.0
 40
1.0
 40
1.0
 10
10.7866178669
 20
9.32383026
 30
0.0
 10
10.7793861132
 20
9.3168449456
 30
0.0
 10
10.7652770532
 20
9.3024968906
 30
0.0
 10
10.745244486
 20
9.2799109749
 30
0.0
 10
10.7263851683
 20
9.2563093355
 30
0.0
 10
10.7087433269
 20
9.2317471634
 30
0.0
 10
10.6923594424
 20
9.206280919
 30
0.0
 10
10.6772713259
 20
9.1799694101
 30
0.0
 10
10.6635137037
 20
9.1528733326
 30
0.0
 10
10.6511182534
 20
9.1250551976
 30
0.0
 10
10.6401135014
 20
9.096579167
 30
0.0
 10
10.6305247678
 20
9.0675109092
 30
0.0
 10
10.6223741218
 20
9.03791746
 30
0.0
 10
10.6156802415
 20
9.0078670117
 30
0.0
 10
10.6104585721
 20
8.9774289976
 30
0.0
 10
10.6067208696
 20
8.9466731087
 30
0.0
 10
10.6044759749
 20
8.91567142
 30
0.0
 10
10.6039786217
 20
8.8949194922
 30
0.0
 10
10.6039786217
 20
8.8845281798
 30
0.0
  0
SPLINE
  5
385
100
AcDbEntity
  8
0
100
AcDbSpline
 62
7
  6
CONTINUOUS
 70
0
 71
3
 72
11
 73
7
 74
0
 42
0.0000001
 43
0.0000001
 44
0.0000000001
 40
0.0
 40
0.0
 40
0.0
 40
0.0
 40
0.2448295351
 40
0.4934461566
 40
0.7453023672
 40
1.0
 40
1.0
 40
1.0
 40
1.0
 10
11.0442140943
 20
9.4695128036
 30
0.0
 10
11.0399425958
 20
9.4548496132
 30
0.0
 10
11.0324142394
 20
9.4249702003
 30
0.0
 10
11.0243115564
 20
9.3791505396
 30
0.0
 10
11.0194112263
 20
9.332259945
 30
0.0
 10
11.0183301984
 20
9.3006493566
 30
0.0
 10
11.0183301984
 20
9.2847610927
 30
0.0
  0
SPLINE
  5
386
100
AcDbEntity
  8
0
100
AcDbSpline
 62
7
  6
CONTINUOUS
 70
0
 71
3
 72
11
 73
7
 74
0
 42
0.0000001
 43
0.0000001
 44
0.0000000001
 40
0.0
 40
0.0
 40
0.0
 40
0.0
 40
0.2486290009
 40
0.4981545096
 40
0.7486071405
 40
1.0
 40
1.0
 40
1.0
 40
1.0
 10
11.0922475995
 20
9.4805012875
 30
0.0
 10
11.0897072359
 20
9.469163056
 30
0.0
 10
11.0852525804
 20
9.446298176
 30
0.0
 10
11.080475894
 20
9.4116233344
 30
0.0
 10
11.0776056626
 20
9.376609443
 30
0.0
 10
11.0769700362
 20
9.3531513297
 30
0.0
 10
11.0769700362
 20
9.3414028298
 30
0.0
  0
SPLINE
  5
387
100
AcDbEntity
  8
0
100
AcDbSpline
 62
7
  6
CONTINUOUS
 70
0
 71
3
 72
11
 73
7
 74
0
 42
0.0000001
 43
0.0000001
 44
0.0000000001
 40
0.0
 40
0.0
 40
0.0
 40
0.0
 40
0.2486123832
 40
0.4981315927
 40
0.7485897087
 40
1.0
 40
1.0
 40
1.0
 40
1.0
 10
11.1530399505
 20
9.4842392185
 30
0.0
 10
11.1506172634
 20
9.4735720562
 30
0.0
 10
11.146368699
 20
9.4520562328
 30
0.0
 10
11.1418127654
 20
9.419418508
 30
0.0
 10
11.1390750637
 20
9.3864548484
 30
0.0
 10
11.1384688046
 20
9.3643680076
 30
0.0
 10
11.1384688046
 20
9.353306082
 30
0.0
  0
SPLINE
  5
388
100
AcDbEntity
  8
0
100
AcDbSpline
 62
7
  6
CONTINUOUS
 70
0
 71
3
 72
37
 73
33
 74
0
 42
0.0000001
 43
0.0000001
 44
0.0000000001
 40
0.0
 40
0.0
 40
0.0
 40
0.0
 40
0.030511255
 40
0.0611331222
 40
0.0918652781
 40
0.1227062082
 40
0.1536532367
 40
0.1847025672
 40
0.2158493334
 40
0.2470876599
 40
0.2784107306
 40
0.309810866
 40
0.3412796067
 40
0.3728078041
 40
0.4043857165
 40
0.4360031089
 40
0.4992947599
 40
0.5626138002
 40
0.5942651451
 40
0.62589012
 40
0.6574780247
 40
0.6890185255
 40
0.7205017591
 40
0.7519184329
 40
0.7832599207
 40
0.8145183543
 40
0.8456867189
 40
0.8767588835
 40
0.9077298612
 40
0.938595261
 40
0.9693529522
 40
1.0
 40
1.0
 40
1.0
 40
1.0
 10
11.8750811716
 20
8.9088274303
 30
0.0
 10
11.866707521
 20
8.9085779231
 30
0.0
 10
11.8499134004
 20
8.9085204176
 30
0.0
 10
11.8247095386
 20
8.9097524303
 30
0.0
 10
11.7995128261
 20
8.912298992
 30
0.0
 10
11.7743927372
 20
8.9161531416
 30
0.0
 10
11.7494173574
 20
8.9213043047
 30
0.0
 10
11.724654684
 20
8.9277384018
 30
0.0
 10
11.7001720425
 20
8.9354378682
 30
0.0
 10
11.6760360144
 20
8.9443817067
 30
0.0
 10
11.6523122244
 20
8.9545455474
 30
0.0
 10
11.6290651884
 20
8.9659016996
 30
0.0
 10
11.606358076
 20
8.9784192834
 30
0.0
 10
11.5842527625
 20
8.9920640868
 30
0.0
 10
11.5628088061
 20
9.006799472
 30
0.0
 10
11.5351721852
 20
9.0278500784
 30
0.0
 10
11.5025741644
 20
9.0566795103
 30
0.0
 10
11.4729266849
 20
9.0885478663
 30
0.0
 10
11.4511643313
 20
9.1156656836
 30
0.0
 10
11.4358653015
 20
9.1367589122
 30
0.0
 10
11.4216319412
 20
9.1585484285
 30
0.0
 10
11.4085024607
 20
9.1809755193
 30
0.0
 10
11.3965127261
 20
9.2039790721
 30
0.0
 10
11.3856953392
 20
9.227496585
 30
0.0
 10
11.3760797715
 20
9.2514641093
 30
0.0
 10
11.3676922135
 20
9.2758164826
 30
0.0
 10
11.3605555321
 20
9.3004874741
 30
0.0
 10
11.354689154
 20
9.3254100298
 30
0.0
 10
11.3501091752
 20
9.3505162459
 30
0.0
 10
11.3468279688
 20
9.3757382183
 30
0.0
 10
11.3448547431
 20
9.4010062627
 30
0.0
 10
11.3444139497
 20
9.417869177
 30
0.0
 10
11.3444139497
 20
9.4262838282
 30
0.0
  0
SPLINE
  5
389
100
AcDbEntity
  8
0
100
AcDbSpline
 62
7
  6
CONTINUOUS
 70
0
 71
3
 72
11
 73
7
 74
0
 42
0.0000001
 43
0.0000001
 44
0.0000000001
 40
0.0
 40
0.0
 40
0.0
 40
0.0
 40
0.2485821051
 40
0.498090461
 40
0.7485573928
 40
1.0
 40
1.0
 40
1.0
 40
1.0
 10
9.5708401194
 20
7.7819709809
 30
0.0
 10
9.5682669539
 20
7.7709129155
 30
0.0
 10
9.5637539755
 20
7.7486004835
 30
0.0
 10
9.5589140768
 20
7.7147376486
 30
0.0
 10
9.5560054578
 20
7.6805235968
 30
0.0
 10
9.5553614033
 20
7.6575945464
 30
0.0
 10
9.5553614033
 20
7.6461103973
 30
0.0
  0
SPLINE
  5
38A
100
AcDbEntity
  8
0
100
AcDbSpline
 62
7
  6
CONTINUOUS
 70
0
 71
3
 72
49
 73
45
 74
0
 42
0.0000001
 43
0.0000001
 44
0.0000000001
 40
0.0
 40
0.0
 40
0.0
 40
0.0
 40
0.0149718081
 40
0.0299466748
 40
0.0449276404
 40
0.059917709
 40
0.0749198276
 40
0.0899368702
 40
0.1049716217
 40
0.120026759
 40
0.1351048351
 40
0.1502082677
 40
0.1653393229
 40
0.1805001009
 40
0.1956925286
 40
0.2109183481
 40
0.2261791043
 40
0.2414761418
 40
0.256810598
 40
0.2721833946
 40
0.287595237
 40
0.3030466133
 40
0.3340634927
 40
0.3652389307
 40
0.3965689749
 40
0.4280463623
 40
0.4596607137
 40
0.4913987952
 40
0.5232448251
 40
0.5551808189
 40
0.5871869764
 40
0.6192420905
 40
0.6513239761
 40
0.6834099169
 40
0.7154771164
 40
0.7475031494
 40
0.779466411
 40
0.8113465537
 40
0.8431249023
 40
0.8747848503
 40
0.906312225
 40
0.9376956122
 40
0.9689264437
 40
1.0
 40
1.0
 40
1.0
 40
1.0
 10
10.1604427592
 20
6.5082577201
 30
0.0
 10
10.1539555828
 20
6.5019915717
 30
0.0
 10
10.1407292913
 20
6.4897144874
 30
0.0
 10
10.1201714869
 20
6.4720998802
 30
0.0
 10
10.0989215107
 20
6.455308354
 30
0.0
 10
10.0770089757
 20
6.4393634439
 30
0.0
 10
10.0544639148
 20
6.4242870137
 30
0.0
 10
10.0313174296
 20
6.4100997682
 30
0.0
 10
10.007601356
 20
6.3968212284
 30
0.0
 10
9.9833483088
 20
6.3844697127
 30
0.0
 10
9.9585917019
 20
6.3730621366
 30
0.0
 10
9.9333656024
 20
6.3626141802
 30
0.0
 10
9.9077046981
 20
6.3531402713
 30
0.0
 10
9.8816443251
 20
6.3446533685
 30
0.0
 10
9.8552203445
 20
6.3371651085
 30
0.0
 10
9.8284690941
 20
6.3306858453
 30
0.0
 10
9.8014273886
 20
6.3252244321
 30
0.0
 10
9.7741324443
 20
6.3207883197
 30
0.0
 10
9.7466217621
 20
6.3173836575
 30
0.0
 10
9.7189333186
 20
6.315015082
 30
0.0
 10
9.6911047131
 20
6.3136858149
 30
0.0
 10
9.6538217529
 20
6.3133010064
 30
0.0
 10
9.6070494829
 20
6.3154344056
 30
0.0
 10
9.5510611541
 20
6.32214402
 30
0.0
 10
9.4954373977
 20
6.33296867
 30
0.0
 10
9.4404858309
 20
6.3478484675
 30
0.0
 10
9.3865075701
 20
6.3667010212
 30
0.0
 10
9.3337990515
 20
6.389422364
 30
0.0
 10
9.2826495222
 20
6.4158874004
 30
0.0
 10
9.2333396057
 20
6.4459504203
 30
0.0
 10
9.1861398945
 20
6.4794462254
 30
0.0
 10
9.1413093662
 20
6.5161907689
 30
0.0
 10
9.0990939659
 20
6.555982207
 30
0.0
 10
9.0597254519
 20
6.5986021731
 30
0.0
 10
9.0234198759
 20
6.6438166897
 30
0.0
 10
8.9903765864
 20
6.6913776405
 30
0.0
 10
8.9607771858
 20
6.7410240999
 30
0.0
 10
8.9347842809
 20
6.7924836052
 30
0.0
 10
8.9125409187
 20
6.8454737991
 30
0.0
 10
8.8941696229
 20
6.8997039635
 30
0.0
 10
8.8797716246
 20
6.9548761224
 30
0.0
 10
8.8694266748
 20
7.0106884155
 30
0.0
 10
8.8631920006
 20
7.0668303617
 30
0.0
 10
8.8617955588
 20
7.1043781746
 30
0.0
 10
8.8617955588
 20
7.1230975064
 30
0.0
  0
SPLINE
  5
38B
100
AcDbEntity
  8
0
100
AcDbSpline
 62
7
  6
CONTINUOUS
 70
0
 71
3
 72
47
 73
43
 74
0
 42
0.0000001
 43
0.0000001
 44
0.0000000001
 40
0.0
 40
0.0
 40
0.0
 40
0.0
 40
0.0149687608
 40
0.0299417876
 40
0.0449220687
 40
0.0599125491
 40
0.0749161113
 40
0.0899355593
 40
0.1049736039
 40
0.1200328435
 40
0.1351157501
 40
0.1502246587
 40
0.1653617491
 40
0.1805290361
 40
0.1957283616
 40
0.2109613808
 40
0.2262295544
 40
0.241534146
 40
0.2722511961
 40
0.3031239162
 40
0.3341547734
 40
0.3653427973
 40
0.3966836467
 40
0.4281697532
 40
0.4597905257
 40
0.4915326035
 40
0.5233801615
 40
0.5553152561
 40
0.5873181981
 40
0.6193679555
 40
0.6514425759
 40
0.6835196185
 40
0.7155765949
 40
0.7475914099
 40
0.7795427988
 40
0.8114107494
 40
0.8431769085
 40
0.8748249662
 40
0.906341008
 40
0.9377138422
 40
0.9689350341
 40
1.0
 40
1.0
 40
1.0
 40
1.0
 10
10.160384627
 20
6.5083284445
 30
0.0
 10
10.1538377332
 20
6.5022086535
 30
0.0
 10
10.1404988533
 20
6.4902245755
 30
0.0
 10
10.1197934421
 20
6.4730497547
 30
0.0
 10
10.098416161
 20
6.4566966851
 30
0.0
 10
10.0763964083
 20
6.4411880093
 30
0.0
 10
10.0537639811
 20
6.4265447147
 30
0.0
 10
10.0305497065
 20
6.4127866369
 30
0.0
 10
10.0067850867
 20
6.3999324922
 30
0.0
 10
9.982502397
 20
6.387999766
 30
0.0
 10
9.9577346665
 20
6.3770045706
 30
0.0
 10
9.9325155195
 20
6.3669618715
 30
0.0
 10
9.9068792014
 20
6.3578853308
 30
0.0
 10
9.8808605758
 20
6.3497871721
 30
0.0
 10
9.8544949307
 20
6.3426784186
 30
0.0
 10
9.8278182004
 20
6.336568753
 30
0.0
 10
9.8008661417
 20
6.3314663394
 30
0.0
 10
9.7645727359
 20
6.3260092699
 30
0.0
 10
9.7186865675
 20
6.3217456869
 30
0.0
 10
9.6631940047
 20
6.3207454046
 30
0.0
 10
9.607496502
 20
6.323858013
 30
0.0
 10
9.5518983651
 20
6.3310664176
 30
0.0
 10
9.4967005786
 20
6.3423307268
 30
0.0
 10
9.4422025399
 20
6.357589264
 30
0.0
 10
9.3886996073
 20
6.3767588637
 30
0.0
 10
9.3364816827
 20
6.3997351009
 30
0.0
 10
9.2858316346
 20
6.4263930363
 30
0.0
 10
9.237023873
 20
6.4565879743
 30
0.0
 10
9.190322738
 20
6.4901559956
 30
0.0
 10
9.1459811711
 20
6.5269150241
 30
0.0
 10
9.104239434
 20
6.566665852
 30
0.0
 10
9.0653236332
 20
6.609192999
 30
0.0
 10
9.029444639
 20
6.6542660381
 30
0.0
 10
8.9967970218
 20
6.7016408512
 30
0.0
 10
8.9675577815
 20
6.7510607683
 30
0.0
 10
8.9418855691
 20
6.8022580986
 30
0.0
 10
8.9199198894
 20
6.8549555223
 30
0.0
 10
8.9017800927
 20
6.9088675898
 30
0.0
 10
8.8875649265
 20
6.9637018991
 30
0.0
 10
8.8773521182
 20
7.0191622582
 30
0.0
 10
8.8711973842
 20
7.0749441033
 30
0.0
 10
8.8698189425
 20
7.1122489222
 30
0.0
 10
8.8698189425
 20
7.1308475004
 30
0.0
  0
SPLINE
  5
38C
100
AcDbEntity
  8
0
100
AcDbSpline
 62
7
  6
CONTINUOUS
 70
0
 71
3
 72
47
 73
43
 74
0
 42
0.0000001
 43
0.0000001
 44
0.0000000001
 40
0.0
 40
0.0
 40
0.0
 40
0.0
 40
0.0149719701
 40
0.0299469998
 40
0.0449281282
 40
0.0599183596
 40
0.074920642
 40
0.0899378484
 40
0.1049727639
 40
0.1200280657
 40
0.1351063065
 40
0.1502099046
 40
0.1653411254
 40
0.180502069
 40
0.1956946637
 40
0.2109206499
 40
0.2261815727
 40
0.2414787788
 40
0.2721808845
 40
0.3030390423
 40
0.3340562612
 40
0.3652320396
 40
0.3965624276
 40
0.4280401587
 40
0.4596548547
 40
0.4913932827
 40
0.5232396593
 40
0.5551760004
 40
0.5871825057
 40
0.6192379677
 40
0.6513202013
 40
0.6834064899
 40
0.7154740364
 40
0.747500416
 40
0.7794640241
 40
0.8113445111
 40
0.8431232035
 40
0.8747834946
 40
0.906311207
 40
0.9376949507
 40
0.9689260908
 40
1.0
 40
1.0
 40
1.0
 40
1.0
 10
10.1321148409
 20
6.5670954245
 30
0.0
 10
10.1261419892
 20
6.5613260975
 30
0.0
 10
10.1139643176
 20
6.5500224265
 30
0.0
 10
10.0950363986
 20
6.533804433
 30
0.0
 10
10.075471165
 20
6.5183442939
 30
0.0
 10
10.0552959391
 20
6.5036636044
 30
0.0
 10
10.0345383218
 20
6.4897825609
 30
0.0
 10
10.0132269638
 20
6.4767202096
 30
0.0
 10
9.9913911916
 20
6.4644944963
 30
0.0
 10
9.9690610102
 20
6.4531223301
 30
0.0
 10
9.9462672044
 20
6.4426192467
 30
0.0
 10
9.9230411295
 20
6.4329997044
 30
0.0
 10
9.8994147178
 20
6.424277
 30
0.0
 10
9.8754205315
 20
6.4164630076
 30
0.0
 10
9.8510915315
 20
6.4095685115
 30
0.0
 10
9.8264613076
 20
6.4036030312
 30
0.0
 10
9.8015633069
 20
6.3985746186
 30
0.0
 10
9.7680186261
 20
6.3931227117
 30
0.0
 10
9.7255760212
 20
6.388689503
 30
0.0
 10
9.6742024729
 20
6.3872070006
 30
0.0
 10
9.6225976852
 20
6.3895611718
 30
0.0
 10
9.5710472726
 20
6.3957388374
 30
0.0
 10
9.5198339581
 20
6.4057053976
 30
0.0
 10
9.4692391475
 20
6.4194054974
 30
0.0
 10
9.4195405786
 20
6.4367633776
 30
0.0
 10
9.3710110774
 20
6.4576833525
 30
0.0
 10
9.3239169523
 20
6.4820501545
 30
0.0
 10
9.2785165944
 20
6.5097296839
 30
0.0
 10
9.2350591303
 20
6.5405698153
 30
0.0
 10
9.1937830173
 20
6.5744011157
 30
0.0
 10
9.1549147057
 20
6.6110377436
 30
0.0
 10
9.1186675163
 20
6.6502785887
 30
0.0
 10
9.0852404691
 20
6.6919083173
 30
0.0
 10
9.0548170655
 20
6.7356984387
 30
0.0
 10
9.0275644255
 20
6.7814086701
 30
0.0
 10
9.0036324122
 20
6.8287882407
 30
0.0
 10
8.9831526555
 20
6.8775771297
 30
0.0
 10
8.9662379014
 20
6.927507652
 30
0.0
 10
8.9529814727
 20
6.9783055093
 30
0.0
 10
8.9434567556
 20
7.0296927277
 30
0.0
 10
8.9377163726
 20
7.0813834661
 30
0.0
 10
8.9364306577
 20
7.1159542991
 30
0.0
 10
8.9364306577
 20
7.1331894803
 30
0.0
  0
SPLINE
  5
38D
100
AcDbEntity
  8
0
100
AcDbSpline
 62
7
  6
CONTINUOUS
 70
0
 71
3
 72
45
 73
41
 74
0
 42
0.0000001
 43
0.0000001
 44
0.0000000001
 40
0.0
 40
0.0
 40
0.0
 40
0.0
 40
0.0149641173
 40
0.029934725
 40
0.044914706
 40
0.0599068892
 40
0.0749140294
 40
0.0899387964
 40
0.1049837574
 40
0.12005136
 40
0.1351439243
 40
0.1502636262
 40
0.165412484
 40
0.1805923547
 40
0.2110462731
 40
0.2416420462
 40
0.2723877382
 40
0.3032881496
 40
0.3343447615
 40
0.3655557503
 40
0.396916077
 40
0.428417638
 40
0.4600494691
 40
0.4917979987
 40
0.523647349
 40
0.555579669
 40
0.5875754965
 40
0.6196141436
 40
0.6516741015
 40
0.6837334534
 40
0.7157702939
 40
0.7477631489
 40
0.779691388
 40
0.8115356274
 40
0.8432781162
 40
0.8749030945
 40
0.9063971251
 40
0.9377494391
 40
0.9689518427
 40
1.0
 40
1.0
 40
1.0
 40
1.0
 10
10.1522346382
 20
6.5875052147
 30
0.0
 10
10.1461100101
 20
6.5821253886
 30
0.0
 10
10.1336468622
 20
6.5716011739
 30
0.0
 10
10.114346855
 20
6.5565520554
 30
0.0
 10
10.0944630495
 20
6.5422563442
 30
0.0
 10
10.0740220892
 20
6.528733413
 30
0.0
 10
10.0530510022
 20
6.5160010551
 30
0.0
 10
10.0315776437
 20
6.504076103
 30
0.0
 10
10.0096304064
 20
6.4929744587
 30
0.0
 10
9.9872384416
 20
6.4827107353
 30
0.0
 10
9.9644313914
 20
6.4732985151
 30
0.0
 10
9.9412395679
 20
6.4647503723
 30
0.0
 10
9.9176933088
 20
6.4570774202
 30
0.0
 10
9.8858375785
 20
6.4480186609
 30
0.0
 10
9.8452720654
 20
6.4389354636
 30
0.0
 10
9.795747652
 20
6.431687284
 30
0.0
 10
9.7455786894
 20
6.4281141633
 30
0.0
 10
9.6950328236
 20
6.428235012
 30
0.0
 10
9.6443772551
 20
6.4320484946
 30
0.0
 10
9.5938802641
 20
6.4395338463
 30
0.0
 10
9.5438090036
 20
6.4506508798
 30
0.0
 10
9.494428336
 20
6.4653403182
 30
0.0
 10
9.4459993924
 20
6.4835240501
 30
0.0
 10
9.3987781839
 20
6.5051054695
 30
0.0
 10
9.3530143065
 20
6.5299701298
 30
0.0
 10
9.3089496594
 20
6.5579863452
 30
0.0
 10
9.2668171249
 20
6.5890057817
 30
0.0
 10
9.2268393544
 20
6.6228642709
 30
0.0
 10
9.1892276604
 20
6.6593827414
 30
0.0
 10
9.1541809162
 20
6.6983681362
 30
0.0
 10
9.1218844054
 20
6.7396143261
 30
0.0
 10
9.0925089403
 20
6.7829032868
 30
0.0
 10
9.0662099971
 20
6.8280062424
 30
0.0
 10
9.0431268518
 20
6.8746848271
 30
0.0
 10
9.0233817729
 20
6.9226922749
 30
0.0
 10
9.0070795016
 20
6.9717748855
 30
0.0
 10
8.9943066773
 20
7.0216729332
 30
0.0
 10
8.985131374
 20
7.0721233899
 30
0.0
 10
8.9796024184
 20
7.1228559622
 30
0.0
 10
8.9783642876
 20
7.1567803502
 30
0.0
 10
8.9783642876
 20
7.1736942587
 30
0.0
  0
SPLINE
  5
38E
100
AcDbEntity
  8
0
100
AcDbSpline
 62
7
  6
CONTINUOUS
 70
0
 71
3
 72
45
 73
41
 74
0
 42
0.0000001
 43
0.0000001
 44
0.0000000001
 40
0.0
 40
0.0
 40
0.0
 40
0.0
 40
0.0149721384
 40
0.0299473353
 40
0.0449286316
 40
0.0599190316
 40
0.0749214813
 40
0.0899388561
 40
0.1049739408
 40
0.1200294102
 40
0.1351078205
 40
0.1502115883
 40
0.1653429774
 40
0.1805040919
 40
0.2109173721
 40
0.2414702803
 40
0.2721727302
 40
0.3030312324
 40
0.3340487994
 40
0.3652249282
 40
0.3965556662
 40
0.4280337495
 40
0.4596488007
 40
0.4913875843
 40
0.5232343171
 40
0.5551710162
 40
0.5871778805
 40
0.6192337014
 40
0.6513162944
 40
0.6834029425
 40
0.7154708484
 40
0.7474975871
 40
0.779461553
 40
0.8113423971
 40
0.8431214459
 40
0.874782092
 40
0.9063101554
 40
0.9376942574
 40
0.9689257386
 40
1.0
 40
1.0
 40
1.0
 40
1.0
 10
10.1537778367
 20
6.6526705238
 30
0.0
 10
10.1481907247
 20
6.647273806
 30
0.0
 10
10.1367995276
 20
6.6367001639
 30
0.0
 10
10.1190940231
 20
6.6215295993
 30
0.0
 10
10.1007924101
 20
6.6070678858
 30
0.0
 10
10.0819201361
 20
6.5933353664
 30
0.0
 10
10.0625031224
 20
6.5803507982
 30
0.0
 10
10.0425681447
 20
6.56813202
 30
0.0
 10
10.0221425657
 20
6.5566959415
 30
0.0
 10
10.0012545651
 20
6.546058196
 30
0.0
 10
9.9799328476
 20
6.5362334125
 30
0.0
 10
9.958206839
 20
6.5272352071
 30
0.0
 10
9.9361060473
 20
6.5190757331
 30
0.0
 10
9.9061523295
 20
6.5093208007
 30
0.0
 10
9.8679089563
 20
6.4992803846
 30
0.0
 10
9.8210734042
 20
6.4907561346
 30
0.0
 10
9.7734954691
 20
6.4857868269
 30
0.0
 10
9.7254387452
 20
6.4843998315
 30
0.0
 10
9.6771670501
 20
6.48660204
 30
0.0
 10
9.6289458634
 20
6.4923807515
 30
0.0
 10
9.58104009
 20
6.5017036026
 30
0.0
 10
9.5337128493
 20
6.5145188867
 30
0.0
 10
9.4872239969
 20
6.5307557838
 30
0.0
 10
9.44182869
 20
6.5503246675
 30
0.0
 10
9.3977760431
 20
6.5731177472
 30
0.0
 10
9.3553078022
 20
6.5990096597
 30
0.0
 10
9.3146569819
 20
6.6278580534
 30
0.0
 10
9.2760465993
 20
6.6595043918
 30
0.0
 10
9.2396885221
 20
6.6937748945
 30
0.0
 10
9.205782326
 20
6.7304814616
 30
0.0
 10
9.1745141005
 20
6.7694225954
 30
0.0
 10
9.1460555239
 20
6.8103845931
 30
0.0
 10
9.1205629617
 20
6.8531427127
 30
0.0
 10
9.0981765696
 20
6.897462358
 30
0.0
 10
9.0790194496
 20
6.9431002917
 30
0.0
 10
9.0631971025
 20
6.9898061327
 30
0.0
 10
9.0507968301
 20
7.0373233006
 30
0.0
 10
9.0418872503
 20
7.0853917583
 30
0.0
 10
9.0365175935
 20
7.1337441368
 30
0.0
 10
9.0353149168
 20
7.1660822678
 30
0.0
 10
9.0353149168
 20
7.1822043456
 30
0.0
  0
SPLINE
  5
38F
100
AcDbEntity
  8
0
100
AcDbSpline
 62
7
  6
CONTINUOUS
 70
0
 71
3
 72
42
 73
38
 74
0
 42
0.0000001
 43
0.0000001
 44
0.0000000001
 40
0.0
 40
0.0
 40
0.0
 40
0.0
 40
0.0302771196
 40
0.0454600827
 40
0.0606722779
 40
0.0911827256
 40
0.121813731
 40
0.1371762047
 40
0.1525688739
 40
0.1834409134
 40
0.2144303296
 40
0.2455330339
 40
0.2767435214
 40
0.3080549539
 40
0.3394592565
 40
0.370947227
 40
0.4025086555
 40
0.4341324542
 40
0.4658067944
 40
0.49751925
 40
0.5292569463
 40
0.5610067125
 40
0.5927552361
 40
0.6244892194
 40
0.6561955349
 40
0.6878613803
 40
0.7194744295
 40
0.7510229812
 40
0.7824961012
 40
0.8138837575
 40
0.8451769508
 40
0.8763678238
 40
0.9074497942
 40
0.9384175771
 40
0.9538587615
 40
0.9692704983
 40
1.0
 40
1.0
 40
1.0
 40
1.0
 10
10.320989475
 20
6.9526955095
 30
0.0
 10
10.3090073544
 20
6.9504429443
 30
0.0
 10
10.2909114361
 20
6.9475887374
 30
0.0
 10
10.2666327739
 20
6.9448381989
 30
0.0
 10
10.2421901923
 20
6.9427847947
 30
0.0
 10
10.2114511774
 20
6.9415410359
 30
0.0
 10
10.1806311501
 20
6.9420618131
 30
0.0
 10
10.1559529854
 20
6.9435320081
 30
0.0
 10
10.1312296997
 20
6.945709027
 30
0.0
 10
10.1003665113
 20
6.9497499128
 30
0.0
 10
10.0635599787
 20
6.9566831075
 30
0.0
 10
10.0270626881
 20
6.9656827694
 30
0.0
 10
9.9909936697
 20
6.9767195534
 30
0.0
 10
9.9554695873
 20
6.9897575846
 30
0.0
 10
9.9206055859
 20
7.0047545026
 30
0.0
 10
9.8865145923
 20
7.0216616199
 30
0.0
 10
9.8533070412
 20
7.0404240746
 30
0.0
 10
9.8210904965
 20
7.0609810093
 30
0.0
 10
9.7899693116
 20
7.083265768
 30
0.0
 10
9.7600442923
 20
7.1072061111
 30
0.0
 10
9.7314123734
 20
7.1327244487
 30
0.0
 10
9.7041663058
 20
7.1597380904
 30
0.0
 10
9.6783943591
 20
7.1881595124
 30
0.0
 10
9.6541800363
 20
7.2178966389
 30
0.0
 10
9.6316018055
 20
7.2488531386
 30
0.0
 10
9.6107328467
 20
7.280928735
 30
0.0
 10
9.5916408161
 20
7.3140195289
 30
0.0
 10
9.5743876269
 20
7.3480183336
 30
0.0
 10
9.5590292511
 20
7.382815014
 30
0.0
 10
9.5456155339
 20
7.4182968629
 30
0.0
 10
9.5341900453
 20
7.4543488793
 30
0.0
 10
9.5247898959
 20
7.4908544517
 30
0.0
 10
9.5174457522
 20
7.5276945673
 30
0.0
 10
9.5130544696
 20
7.558605938
 30
0.0
 10
9.5105932024
 20
7.5833809671
 30
0.0
 10
9.5088368223
 20
7.6081190684
 30
0.0
 10
9.5083063314
 20
7.6267048136
 30
0.0
 10
9.5083063314
 20
7.6390789956
 30
0.0
  0
SPLINE
  5
390
100
AcDbEntity
  8
0
100
AcDbSpline
 62
7
  6
CONTINUOUS
 70
0
 71
3
 72
40
 73
36
 74
0
 42
0.0000001
 43
0.0000001
 44
0.0000000001
 40
0.0
 40
0.0
 40
0.0
 40
0.0
 40
0.0302735628
 40
0.0454547395
 40
0.0606651469
 40
0.0911720625
 40
0.1217996634
 40
0.1525485123
 40
0.183417598
 40
0.2144043668
 40
0.2455047726
 40
0.2767133439
 40
0.3080232666
 40
0.3394264809
 40
0.370913791
 40
0.4024749851
 40
0.4340989655
 40
0.4657738864
 40
0.4974872981
 40
0.5292262965
 40
0.5609776762
 40
0.5927280864
 40
0.6244641876
 40
0.6561728088
 40
0.6878411021
 40
0.7194566963
 40
0.7510078452
 40
0.7824835715
 40
0.8138738019
 40
0.8451695014
 40
0.8763627742
 40
0.9074470243
 40
0.9384169054
 40
0.9692687565
 40
1.0
 40
1.0
 40
1.0
 40
1.0
 10
10.3267420176
 20
7.0133047763
 30
0.0
 10
10.3155963245
 20
7.0111775955
 30
0.0
 10
10.2987620433
 20
7.0084755529
 30
0.0
 10
10.2761731601
 20
7.0058563365
 30
0.0
 10
10.2534299643
 20
7.0038865864
 30
0.0
 10
10.2248242251
 20
7.0026576324
 30
0.0
 10
10.1903705915
 20
7.0031571582
 30
0.0
 10
10.1558655815
 20
7.0056274863
 30
0.0
 10
10.1214221
 20
7.0100604964
 30
0.0
 10
10.0871519419
 20
7.0164416169
 30
0.0
 10
10.0531665576
 20
7.0247499741
 30
0.0
 10
10.0195763897
 20
7.034958436
 30
0.0
 10
9.9864905987
 20
7.0470337096
 30
0.0
 10
9.9540166898
 20
7.0609364487
 30
0.0
 10
9.9222601718
 20
7.0766213834
 30
0.0
 10
9.8913242159
 20
7.0940374668
 30
0.0
 10
9.8613093235
 20
7.1131280418
 30
0.0
 10
9.8323130022
 20
7.1338310242
 30
0.0
 10
9.8044294512
 20
7.156079104
 30
0.0
 10
9.7777492578
 20
7.1797999634
 30
0.0
 10
9.7523591045
 20
7.2049165103
 30
0.0
 10
9.7283414897
 20
7.2313471279
 30
0.0
 10
9.7057744611
 20
7.2590059378
 30
0.0
 10
9.6847313632
 20
7.2878030781
 30
0.0
 10
9.665280601
 20
7.3176449926
 30
0.0
 10
9.6474854181
 20
7.3484347333
 30
0.0
 10
9.6314036918
 20
7.3800722732
 30
0.0
 10
9.6170877473
 20
7.4124548279
 30
0.0
 10
9.604584183
 20
7.4454771906
 30
0.0
 10
9.5939337311
 20
7.4790320569
 30
0.0
 10
9.5851710957
 20
7.5130104255
 30
0.0
 10
9.5783249019
 20
7.5473017477
 30
0.0
 10
9.5734174801
 20
7.5817950057
 30
0.0
 10
9.570464986
 20
7.6163765324
 30
0.0
 10
9.5698050997
 20
7.6394638378
 30
0.0
 10
9.5698050997
 20
7.6509822478
 30
0.0
  0
SPLINE
  5
391
100
AcDbEntity
  8
0
100
AcDbSpline
 62
7
  6
CONTINUOUS
 70
0
 71
3
 72
39
 73
35
 74
0
 42
0.0000001
 43
0.0000001
 44
0.0000000001
 40
0.0
 40
0.0
 40
0.0
 40
0.0
 40
0.0304761839
 40
0.0610642047
 40
0.0917642063
 40
0.1225750885
 40
0.1534945326
 40
0.1845190385
 40
0.2156439758
 40
0.2468636434
 40
0.2781713405
 40
0.3095594443
 40
0.3410194968
 40
0.3725422978
 40
0.4041180036
 40
0.4357362309
 40
0.4673861641
 40
0.4990566671
 40
0.5307363964
 40
0.5624139156
 40
0.594077811
 40
0.6257168061
 40
0.6573198757
 40
0.6888763586
 40
0.7203760669
 40
0.7518093927
 40
0.7831674108
 40
0.8144419727
 40
0.8456258101
 40
0.87671257
 40
0.9076970513
 40
0.9385747933
 40
0.9693433396
 40
1.0
 40
1.0
 40
1.0
 40
1.0
 10
10.3259305377
 20
7.0801197673
 30
0.0
 10
10.3153396955
 20
7.0795779422
 30
0.0
 10
10.2940857896
 20
7.0790605644
 30
0.0
 10
10.2621539664
 20
7.0799785295
 30
0.0
 10
10.230197927
 20
7.0825862136
 30
0.0
 10
10.1983080306
 20
7.086876308
 30
0.0
 10
10.1665729147
 20
7.0928367359
 30
0.0
 10
10.1350811827
 20
7.1004507835
 30
0.0
 10
10.103920636
 20
7.1096971237
 30
0.0
 10
10.0731781726
 20
7.1205498889
 30
0.0
 10
10.0429395087
 20
7.132978741
 30
0.0
 10
10.0132889517
 20
7.1469489574
 30
0.0
 10
9.9843091647
 20
7.1624215279
 30
0.0
 10
9.9560809381
 20
7.1793532632
 30
0.0
 10
9.9286829666
 20
7.1976969151
 30
0.0
 10
9.9021916315
 20
7.2174013085
 30
0.0
 10
9.8766807863
 20
7.2384114793
 30
0.0
 10
9.8522215493
 20
7.260668826
 30
0.0
 10
9.8288821116
 20
7.284111279
 30
0.0
 10
9.8067275468
 20
7.3086734713
 30
0.0
 10
9.7858196316
 20
7.3342869202
 30
0.0
 10
9.7662166737
 20
7.3608802166
 30
0.0
 10
9.747973351
 20
7.3883792233
 30
0.0
 10
9.7311405592
 20
7.4167072796
 30
0.0
 10
9.7157652716
 20
7.4457854142
 30
0.0
 10
9.7018904051
 20
7.4755325625
 30
0.0
 10
9.6895546974
 20
7.5058657887
 30
0.0
 10
9.6787925979
 20
7.5367005236
 30
0.0
 10
9.6696341982
 20
7.567950782
 30
0.0
 10
9.6621050748
 20
7.5995294644
 30
0.0
 10
9.6562263892
 20
7.6313483671
 30
0.0
 10
9.6520144808
 20
7.6633191908
 30
0.0
 10
9.649481393
 20
7.6953514212
 30
0.0
 10
9.6489155032
 20
7.7167295414
 30
0.0
 10
9.6489155032
 20
7.7273970341
 30
0.0
  0
SPLINE
  5
392
100
AcDbEntity
  8
0
100
AcDbSpline
 62
7
  6
CONTINUOUS
 70
0
 71
3
 72
23
 73
19
 74
0
 42
0.0000001
 43
0.0000001
 44
0.0000000001
 40
0.0
 40
0.0
 40
0.0
 40
0.0
 40
0.0616984931
 40
0.1234238109
 40
0.1851959183
 40
0.2470343206
 40
0.3089578756
 40
0.3709846125
 40
0.4331315605
 40
0.4954145908
 40
0.5578482694
 40
0.6204457293
 40
0.6832185673
 40
0.7461766721
 40
0.8093284814
 40
0.8726797996
 40
0.9362367739
 40
1.0
 40
1.0
 40
1.0
 40
1.0
 10
9.0739238087
 20
7.6331073926
 30
0.0
 10
9.0658248805
 20
7.6250237995
 30
0.0
 10
9.05002841
 20
7.6084414854
 30
0.0
 10
9.0276120547
 20
7.5823997898
 30
0.0
 10
9.0065180892
 20
7.5552418995
 30
0.0
 10
8.9867940476
 20
7.5270288044
 30
0.0
 10
8.9684833726
 20
7.4978228198
 30
0.0
 10
8.9516266486
 20
7.4676887279
 30
0.0
 10
8.9362611562
 20
7.4366932888
 30
0.0
 10
8.9224208868
 20
7.4049051836
 30
0.0
 10
8.9101364421
 20
7.3723948374
 30
0.0
 10
8.8994349731
 20
7.339234265
 30
0.0
 10
8.8903401179
 20
7.3054969318
 30
0.0
 10
8.8828718986
 20
7.271257515
 30
0.0
 10
8.877046866
 20
7.2365919826
 30
0.0
 10
8.872877666
 20
7.2015766322
 30
0.0
 10
8.8703737013
 20
7.1662902181
 30
0.0
 10
8.8698189425
 20
7.1426732072
 30
0.0
 10
8.8698189425
 20
7.1308475004
 30
0.0
  0
SPLINE
  5
393
100
AcDbEntity
  8
0
100
AcDbSpline
 62
7
  6
CONTINUOUS
 70
0
 71
3
 72
23
 73
19
 74
0
 42
0.0000001
 43
0.0000001
 44
0.0000000001
 40
0.0
 40
0.0
 40
0.0
 40
0.0
 40
0.0617101436
 40
0.1234413945
 40
0.1852146442
 40
0.2470503545
 40
0.3089683499
 40
0.3709876203
 40
0.4331261332
 40
0.4954006601
 40
0.5578266118
 40
0.6204179016
 40
0.6831868196
 40
0.7461438598
 40
0.8092979876
 40
0.872655304
 40
0.9362225276
 40
1.0
 40
1.0
 40
1.0
 40
1.0
 10
9.1316797469
 20
7.602821986
 30
0.0
 10
9.1239487056
 20
7.5953543798
 30
0.0
 10
9.1088655006
 20
7.5800157253
 30
0.0
 10
9.0874498367
 20
7.5558704258
 30
0.0
 10
9.0672884235
 20
7.5306392773
 30
0.0
 10
9.0484285604
 20
7.5043812665
 30
0.0
 10
9.0309135052
 20
7.4771567673
 30
0.0
 10
9.014783666
 20
7.449028654
 30
0.0
 10
9.0000761783
 20
7.4200618048
 30
0.0
 10
8.9868249115
 20
7.3903230437
 30
0.0
 10
8.9750603657
 20
7.3598809617
 30
0.0
 10
8.9648096112
 20
7.3288057609
 30
0.0
 10
8.9560962314
 20
7.2971691098
 30
0.0
 10
8.9489401874
 20
7.2650439121
 30
0.0
 10
8.943357993
 20
7.2325043806
 30
0.0
 10
8.9393622406
 20
7.1996250487
 30
0.0
 10
8.9369623429
 20
7.1664829301
 30
0.0
 10
8.9364306577
 20
7.1442982488
 30
0.0
 10
8.9364306577
 20
7.1331894803
 30
0.0
  0
SPLINE
  5
394
100
AcDbEntity
  8
0
100
AcDbSpline
 62
7
  6
CONTINUOUS
 70
0
 71
3
 72
23
 73
19
 74
0
 42
0.0000001
 43
0.0000001
 44
0.0000000001
 40
0.0
 40
0.0
 40
0.0
 40
0.0
 40
0.0616810998
 40
0.1233985808
 40
0.1851707683
 40
0.2470154915
 40
0.3089499244
 40
0.3709904319
 40
0.4331524248
 40
0.4954502264
 40
0.5578969509
 40
0.6205044193
 40
0.6832830137
 40
0.7462416459
 40
0.8093878795
 40
0.8727266079
 40
0.9362643481
 40
1.0
 40
1.0
 40
1.0
 40
1.0
 10
9.1534487885
 20
7.6229372571
 30
0.0
 10
9.1464756601
 20
7.6155560473
 30
0.0
 10
9.1328817448
 20
7.6004477785
 30
0.0
 10
9.113608833
 20
7.5768154227
 30
0.0
 10
9.0954870938
 20
7.5522548286
 30
0.0
 10
9.0785544264
 20
7.5268172218
 30
0.0
 10
9.0628454551
 20
7.5005547604
 30
0.0
 10
9.0483925127
 20
7.4735215222
 30
0.0
 10
9.0352253025
 20
7.4457730974
 30
0.0
 10
9.0233708579
 20
7.4173665809
 30
0.0
 10
9.0128534881
 20
7.3883604116
 30
0.0
 10
9.0036947736
 20
7.3588142464
 30
0.0
 10
8.9959135004
 20
7.3287888509
 30
0.0
 10
8.9895256181
 20
7.2983459165
 30
0.0
 10
8.9845442707
 20
7.2675482009
 30
0.0
 10
8.9809794179
 20
7.2364585362
 30
0.0
 10
8.9788386481
 20
7.2051419801
 30
0.0
 10
8.9783642876
 20
7.1841866367
 30
0.0
 10
8.9783642876
 20
7.1736942587
 30
0.0
  0
SPLINE
  5
395
100
AcDbEntity
  8
0
100
AcDbSpline
 62
7
  6
CONTINUOUS
 70
0
 71
3
 72
23
 73
19
 74
0
 42
0.0000001
 43
0.0000001
 44
0.0000000001
 40
0.0
 40
0.0
 40
0.0
 40
0.0
 40
0.0617101446
 40
0.123441395
 40
0.1852146431
 40
0.247050352
 40
0.3089683478
 40
0.3709876199
 40
0.4331261339
 40
0.495400661
 40
0.5578266111
 40
0.6204179017
 40
0.6831868168
 40
0.746143859
 40
0.8092980008
 40
0.8726552579
 40
0.9362226181
 40
1.0
 40
1.0
 40
1.0
 40
1.0
 10
9.217954162
 20
7.6215064258
 30
0.0
 10
9.2107224084
 20
7.6145211114
 30
0.0
 10
9.1966133484
 20
7.6001730564
 30
0.0
 10
9.1765807812
 20
7.5775871407
 30
0.0
 10
9.1577214635
 20
7.5539855013
 30
0.0
 10
9.1400796221
 20
7.5294233292
 30
0.0
 10
9.1236957376
 20
7.5039570849
 30
0.0
 10
9.1086076211
 20
7.4776455759
 30
0.0
 10
9.0948499988
 20
7.4505494985
 30
0.0
 10
9.0824545486
 20
7.4227313634
 30
0.0
 10
9.0714497966
 20
7.3942553328
 30
0.0
 10
9.061861063
 20
7.365187075
 30
0.0
 10
9.053710417
 20
7.3355936258
 30
0.0
 10
9.0470165367
 20
7.3055431775
 30
0.0
 10
9.0417948672
 20
7.2751051634
 30
0.0
 10
9.0380571647
 20
7.2443492745
 30
0.0
 10
9.03581227
 20
7.2133475859
 30
0.0
 10
9.0353149168
 20
7.1925956581
 30
0.0
 10
9.0353149168
 20
7.1822043456
 30
0.0
  0
SPLINE
  5
396
100
AcDbEntity
  8
0
100
AcDbSpline
 62
7
  6
CONTINUOUS
 70
0
 71
3
 72
11
 73
7
 74
0
 42
0.0000001
 43
0.0000001
 44
0.0000000001
 40
0.0
 40
0.0
 40
0.0
 40
0.0
 40
0.2486290009
 40
0.4981545096
 40
0.7486071405
 40
1.0
 40
1.0
 40
1.0
 40
1.0
 10
9.5235838947
 20
7.7781774533
 30
0.0
 10
9.5210435311
 20
7.7668392218
 30
0.0
 10
9.5165888755
 20
7.7439743418
 30
0.0
 10
9.5118121892
 20
7.7092995002
 30
0.0
 10
9.5089419577
 20
7.6742856088
 30
0.0
 10
9.5083063314
 20
7.6508274955
 30
0.0
 10
9.5083063314
 20
7.6390789956
 30
0.0
  0
SPLINE
  5
397
100
AcDbEntity
  8
0
100
AcDbSpline
 62
7
  6
CONTINUOUS
 70
0
 71
3
 72
11
 73
7
 74
0
 42
0.0000001
 43
0.0000001
 44
0.0000000001
 40
0.0
 40
0.0
 40
0.0
 40
0.0
 40
0.2486123832
 40
0.4981315927
 40
0.7485897087
 40
1.0
 40
1.0
 40
1.0
 40
1.0
 10
9.5843762456
 20
7.7819153843
 30
0.0
 10
9.5819535585
 20
7.771248222
 30
0.0
 10
9.5777049941
 20
7.7497323986
 30
0.0
 10
9.5731490606
 20
7.7170946738
 30
0.0
 10
9.5704113588
 20
7.6841310142
 30
0.0
 10
9.5698050997
 20
7.6620441735
 30
0.0
 10
9.5698050997
 20
7.6509822478
 30
0.0
  0
SPLINE
  5
398
100
AcDbEntity
  8
0
100
AcDbSpline
 62
7
  6
CONTINUOUS
 70
0
 71
3
 72
71
 73
67
 74
0
 42
0.0000001
 43
0.0000001
 44
0.0000000001
 40
0.0
 40
0.0
 40
0.0
 40
0.0
 40
0.0156373971
 40
0.0313278976
 40
0.0470702878
 40
0.0628636373
 40
0.0787060812
 40
0.0945954871
 40
0.1105292288
 40
0.1265042944
 40
0.1425172944
 40
0.1585644997
 40
0.1746418768
 40
0.1907451251
 40
0.2068697163
 40
0.2230109347
 40
0.2391639194
 40
0.2553237067
 40
0.2714852733
 40
0.2876435805
 40
0.3037936184
 40
0.3199304489
 40
0.3360492494
 40
0.3521453551
 40
0.3682143003
 40
0.3842518588
 40
0.4002540825
 40
0.416217339
 40
0.4321383459
 40
0.4480142034
 40
0.4638424236
 40
0.4796209569
 40
0.4953482153
 40
0.5110230907
 40
0.5266449714
 40
0.5422137523
 40
0.5577298414
 40
0.5731941611
 40
0.5886081441
 40
0.6039737242
 40
0.6192933216
 40
0.6345698232
 40
0.6498065569
 40
0.6650072611
 40
0.6801760494
 40
0.6953173697
 40
0.710435959
 40
0.7255367955
 40
0.7406250456
 40
0.7557060103
 40
0.7707850681
 40
0.7858676181
 40
0.800959022
 40
0.816064547
 40
0.8311893099
 40
0.8463382233
 40
0.8615159441
 40
0.8767268263
 40
0.8919748772
 40
0.9072637174
 40
0.9225965517
 40
0.937976118
 40
0.9534047439
 40
0.9688840783
 40
0.9844157248
 40
1.0
 40
1.0
 40
1.0
 40
1.0
 10
10.3351285078
 20
7.0292279369
 30
0.0
 10
10.3351285078
 20
7.0408630853
 30
0.0
 10
10.3345552388
 20
7.0641768568
 30
0.0
 10
10.3319880157
 20
7.0991188502
 30
0.0
 10
10.3277180791
 20
7.1340115056
 30
0.0
 10
10.3217560036
 20
7.1687695086
 30
0.0
 10
10.3141160632
 20
7.2033096201
 30
0.0
 10
10.3048168042
 20
7.2375485389
 30
0.0
 10
10.2938806373
 20
7.2714038829
 30
0.0
 10
10.2813339582
 20
7.3047941443
 30
0.0
 10
10.2672070128
 20
7.3376389517
 30
0.0
 10
10.2515338609
 20
7.3698592515
 30
0.0
 10
10.234352274
 20
7.4013774965
 30
0.0
 10
10.2157036464
 20
7.4321178306
 30
0.0
 10
10.195632895
 20
7.4620062703
 30
0.0
 10
10.1741883523
 20
7.4909708808
 30
0.0
 10
10.1514216505
 20
7.5189419485
 30
0.0
 10
10.1273875976
 20
7.5458521473
 30
0.0
 10
10.1021440469
 20
7.5716366997
 30
0.0
 10
10.0757517671
 20
7.5962335416
 30
0.0
 10
10.0482742861
 20
7.6195834632
 30
0.0
 10
10.0197777393
 20
7.6416302501
 30
0.0
 10
9.9903307115
 20
7.6623208179
 30
0.0
 10
9.9600040726
 20
7.6816053394
 30
0.0
 10
9.928870809
 20
7.6994373637
 30
0.0
 10
9.8970058487
 20
7.7157739276
 30
0.0
 10
9.8644858825
 20
7.730575659
 30
0.0
 10
9.8313891855
 20
7.743806884
 30
0.0
 10
9.7977954229
 20
7.7554357013
 30
0.0
 10
9.7637854602
 20
7.7654340589
 30
0.0
 10
9.7294411699
 20
7.7737778217
 30
0.0
 10
9.6948452363
 20
7.7804468304
 30
0.0
 10
9.6600809579
 20
7.7854249505
 30
0.0
 10
9.6252320487
 20
7.7887001121
 30
0.0
 10
9.5903824376
 20
7.7902643404
 30
0.0
 10
9.5556160675
 20
7.79011379
 30
0.0
 10
9.5210166917
 20
7.7882487427
 30
0.0
 10
9.4866676736
 20
7.7846736078
 30
0.0
 10
9.4526517865
 20
7.779396914
 30
0.0
 10
9.4190510148
 20
7.7724312909
 30
0.0
 10
9.3859463567
 20
7.7637934406
 30
0.0
 10
9.3534176283
 20
7.7535041002
 30
0.0
 10
9.3215432706
 20
7.7415879938
 30
0.0
 10
9.2904001535
 20
7.7280737878
 30
0.0
 10
9.260063392
 20
7.7129940102
 30
0.0
 10
9.2306061637
 20
7.6963849734
 30
0.0
 10
9.2020995306
 20
7.6782866877
 30
0.0
 10
9.1746122655
 20
7.6587427657
 30
0.0
 10
9.1482106838
 20
7.6378003172
 30
0.0
 10
9.1229584813
 20
7.6155098355
 30
0.0
 10
9.0989165787
 20
7.5919250752
 30
0.0
 10
9.0761429617
 20
7.5671029302
 30
0.0
 10
9.0546925481
 20
7.5411032843
 30
0.0
 10
9.034617055
 20
7.5139888639
 30
0.0
 10
9.0159648726
 20
7.4858250853
 30
0.0
 10
8.9987809482
 20
7.4566798941
 30
0.0
 10
8.9831066773
 20
7.4266235997
 30
0.0
 10
8.968979805
 20
7.3957287029
 30
0.0
 10
8.9564343373
 20
7.3640697209
 30
0.0
 10
8.9455004398
 20
7.3317230056
 30
0.0
 10
8.9362044049
 20
7.2987665683
 30
0.0
 10
8.9285685179
 20
7.2652798249
 30
0.0
 10
8.9226111834
 20
7.2313436383
 30
0.0
 10
8.9183465143
 20
7.1970393587
 30
0.0
 10
8.9157849202
 20
7.1624509235
 30
0.0
 10
8.915217459
 20
7.1392947251
 30
0.0
 10
8.915217459
 20
7.1276991025
 30
0.0
  0
SPLINE
  5
399
100
AcDbEntity
  8
0
100
AcDbSpline
 62
7
  6
CONTINUOUS
 70
0
 71
3
 72
37
 73
33
 74
0
 42
0.0000001
 43
0.0000001
 44
0.0000000001
 40
0.0
 40
0.0
 40
0.0
 40
0.0
 40
0.030511255
 40
0.0611331222
 40
0.0918652781
 40
0.1227062082
 40
0.1536532367
 40
0.1847025672
 40
0.2158493334
 40
0.2470876599
 40
0.2784107306
 40
0.309810866
 40
0.3412796067
 40
0.3728078041
 40
0.4043857165
 40
0.4360031089
 40
0.4992947599
 40
0.5626138002
 40
0.5942651451
 40
0.62589012
 40
0.6574780247
 40
0.6890185255
 40
0.7205017591
 40
0.7519184329
 40
0.7832599207
 40
0.8145183543
 40
0.8456867189
 40
0.8767588835
 40
0.9077298612
 40
0.938595261
 40
0.9693529522
 40
1.0
 40
1.0
 40
1.0
 40
1.0
 10
10.3064174667
 20
7.2065035961
 30
0.0
 10
10.2980438161
 20
7.2062540889
 30
0.0
 10
10.2812496955
 20
7.2061965834
 30
0.0
 10
10.2560458337
 20
7.2074285961
 30
0.0
 10
10.2308491213
 20
7.2099751579
 30
0.0
 10
10.2057290324
 20
7.2138293074
 30
0.0
 10
10.1807536526
 20
7.2189804705
 30
0.0
 10
10.1559909792
 20
7.2254145676
 30
0.0
 10
10.1315083377
 20
7.233114034
 30
0.0
 10
10.1073723095
 20
7.2420578725
 30
0.0
 10
10.0836485195
 20
7.2522217132
 30
0.0
 10
10.0604014835
 20
7.2635778654
 30
0.0
 10
10.0376943711
 20
7.2760954492
 30
0.0
 10
10.0155890577
 20
7.2897402527
 30
0.0
 10
9.9941451013
 20
7.3044756378
 30
0.0
 10
9.9665084803
 20
7.3255262442
 30
0.0
 10
9.9339104595
 20
7.3543556761
 30
0.0
 10
9.9042629801
 20
7.3862240321
 30
0.0
 10
9.8825006265
 20
7.4133418494
 30
0.0
 10
9.8672015966
 20
7.434435078
 30
0.0
 10
9.8529682363
 20
7.4562245943
 30
0.0
 10
9.8398387559
 20
7.4786516851
 30
0.0
 10
9.8278490213
 20
7.5016552379
 30
0.0
 10
9.8170316343
 20
7.5251727508
 30
0.0
 10
9.8074160667
 20
7.5491402751
 30
0.0
 10
9.7990285087
 20
7.5734926485
 30
0.0
 10
9.7918918272
 20
7.59816364
 30
0.0
 10
9.7860254492
 20
7.6230861956
 30
0.0
 10
9.7814454703
 20
7.6481924118
 30
0.0
 10
9.778164264
 20
7.6734143841
 30
0.0
 10
9.7761910383
 20
7.6986824285
 30
0.0
 10
9.7757502448
 20
7.7155453429
 30
0.0
 10
9.7757502448
 20
7.723959994
 30
0.0
  0
SPLINE
  5
39A
100
AcDbEntity
  8
0
100
AcDbSpline
 62
7
  6
CONTINUOUS
 70
0
 71
3
 72
71
 73
67
 74
0
 42
0.0000001
 43
0.0000001
 44
0.0000000001
 40
0.0
 40
0.0
 40
0.0
 40
0.0
 40
0.0155842752
 40
0.0311159217
 40
0.0465952561
 40
0.062023882
 40
0.0774034483
 40
0.0927362826
 40
0.1080251228
 40
0.1232731737
 40
0.1384840559
 40
0.1536617767
 40
0.1688106901
 40
0.183935453
 40
0.199040978
 40
0.2141323819
 40
0.2292149319
 40
0.2442939897
 40
0.2593749544
 40
0.2744632045
 40
0.289564041
 40
0.3046826303
 40
0.3198239506
 40
0.3349927389
 40
0.3501934431
 40
0.3654301768
 40
0.3807066784
 40
0.3960262758
 40
0.4113918559
 40
0.4268058389
 40
0.4422701586
 40
0.4577862477
 40
0.4733550286
 40
0.4889769093
 40
0.5046517847
 40
0.5203790431
 40
0.5361575764
 40
0.5519857966
 40
0.5678616541
 40
0.583782661
 40
0.5997459175
 40
0.6157481412
 40
0.6317856997
 40
0.6478546449
 40
0.6639507506
 40
0.6800695511
 40
0.6962063816
 40
0.7123564195
 40
0.7285147267
 40
0.7446762933
 40
0.7608360806
 40
0.7769890653
 40
0.7931302837
 40
0.8092548749
 40
0.8253581232
 40
0.8414355003
 40
0.8574827056
 40
0.8734957056
 40
0.8894707712
 40
0.9054045129
 40
0.9212939188
 40
0.9371363627
 40
0.9529297122
 40
0.9686721024
 40
0.9843626029
 40
1.0
 40
1.0
 40
1.0
 40
1.0
 10
11.9037922126
 20
8.731551771
 30
0.0
 10
11.9037922126
 20
8.7199561485
 30
0.0
 10
11.9032247514
 20
8.6967999501
 30
0.0
 10
11.9006631573
 20
8.6622115149
 30
0.0
 10
11.8963984882
 20
8.6279072352
 30
0.0
 10
11.8904411537
 20
8.5939710487
 30
0.0
 10
11.8828052667
 20
8.5604843053
 30
0.0
 10
11.8735092318
 20
8.527527868
 30
0.0
 10
11.8625753343
 20
8.4951811527
 30
0.0
 10
11.8500298666
 20
8.4635221707
 30
0.0
 10
11.8359029942
 20
8.4326272739
 30
0.0
 10
11.8202287234
 20
8.4025709795
 30
0.0
 10
11.803044799
 20
8.3734257883
 30
0.0
 10
11.7843926166
 20
8.3452620097
 30
0.0
 10
11.7643171235
 20
8.3181475893
 30
0.0
 10
11.7428667099
 20
8.2921479433
 30
0.0
 10
11.7200930929
 20
8.2673257984
 30
0.0
 10
11.6960511903
 20
8.243741038
 30
0.0
 10
11.6707989878
 20
8.2214505564
 30
0.0
 10
11.6443974061
 20
8.2005081079
 30
0.0
 10
11.616910141
 20
8.1809641859
 30
0.0
 10
11.5884035079
 20
8.1628659002
 30
0.0
 10
11.5589462796
 20
8.1462568634
 30
0.0
 10
11.5286095181
 20
8.1311770858
 30
0.0
 10
11.4974664009
 20
8.1176628798
 30
0.0
 10
11.4655920433
 20
8.1057467733
 30
0.0
 10
11.4330633148
 20
8.095457433
 30
0.0
 10
11.3999586568
 20
8.0868195827
 30
0.0
 10
11.3663578851
 20
8.0798539596
 30
0.0
 10
11.332341998
 20
8.0745772658
 30
0.0
 10
11.2979929799
 20
8.0710021309
 30
0.0
 10
11.2633936041
 20
8.0691370836
 30
0.0
 10
11.228627234
 20
8.0689865332
 30
0.0
 10
11.1937776229
 20
8.0705507615
 30
0.0
 10
11.1589287137
 20
8.0738259231
 30
0.0
 10
11.1241644353
 20
8.0788040431
 30
0.0
 10
11.0895685017
 20
8.0854730519
 30
0.0
 10
11.0552242114
 20
8.0938168147
 30
0.0
 10
11.0212142487
 20
8.1038151723
 30
0.0
 10
10.9876204861
 20
8.1154439896
 30
0.0
 10
10.9545237891
 20
8.1286752146
 30
0.0
 10
10.9220038229
 20
8.143476946
 30
0.0
 10
10.8901388625
 20
8.1598135099
 30
0.0
 10
10.8590055989
 20
8.1776455342
 30
0.0
 10
10.8286789601
 20
8.1969300557
 30
0.0
 10
10.7992319323
 20
8.2176206235
 30
0.0
 10
10.7707353855
 20
8.2396674104
 30
0.0
 10
10.7432579045
 20
8.263017332
 30
0.0
 10
10.7168656247
 20
8.2876141739
 30
0.0
 10
10.691622074
 20
8.3133987263
 30
0.0
 10
10.6675880211
 20
8.3403089251
 30
0.0
 10
10.6448213192
 20
8.3682799928
 30
0.0
 10
10.6233767766
 20
8.3972446033
 30
0.0
 10
10.6033060252
 20
8.427133043
 30
0.0
 10
10.5846573976
 20
8.4578733771
 30
0.0
 10
10.5674758107
 20
8.4893916221
 30
0.0
 10
10.5518026588
 20
8.5216119219
 30
0.0
 10
10.5376757134
 20
8.5544567293
 30
0.0
 10
10.5251290343
 20
8.5878469907
 30
0.0
 10
10.5141928674
 20
8.6217023347
 30
0.0
 10
10.5048936083
 20
8.6559412535
 30
0.0
 10
10.497253668
 20
8.690481365
 30
0.0
 10
10.4912915925
 20
8.7252393679
 30
0.0
 10
10.4870216559
 20
8.7601320234
 30
0.0
 10
10.4844544328
 20
8.7950740168
 30
0.0
 10
10.4838811638
 20
8.8183877883
 30
0.0
 10
10.4838811638
 20
8.8300229367
 30
0.0
  0
SPLINE
  5
39B
100
AcDbEntity
  8
0
100
AcDbSpline
 62
7
  6
CONTINUOUS
 70
0
 71
3
 72
49
 73
45
 74
0
 42
0.0000001
 43
0.0000001
 44
0.0000000001
 40
0.0
 40
0.0
 40
0.0
 40
0.0
 40
0.0063158739
 40
0.0126706599
 40
0.0191024896
 40
0.0256480301
 40
0.0323419112
 40
0.039216248
 40
0.0536140773
 40
0.06119479
 40
0.0690565573
 40
0.0772176635
 40
0.0856940531
 40
0.0944994572
 40
0.1036455587
 40
0.1131423452
 40
0.122998104
 40
0.1332197191
 40
0.1438128355
 40
0.1547818436
 40
0.1661302067
 40
0.1778604088
 40
0.1899740704
 40
0.2024721524
 40
0.215354813
 40
0.2422706486
 40
0.2707129033
 40
0.3006638566
 40
0.3320991037
 40
0.3649883645
 40
0.3992962141
 40
0.4349826582
 40
0.4720035847
 40
0.5103111049
 40
0.5498539072
 40
0.5905775763
 40
0.6324248432
 40
0.6753357844
 40
0.7192480525
 40
0.764097054
 40
0.809816243
 40
0.856337252
 40
0.9035893524
 40
1.0
 40
1.0
 40
1.0
 40
1.0
 10
13.5168879105
 20
10.7633347357
 30
0.0
 10
13.518366823
 20
10.7632321698
 30
0.0
 10
13.5213267724
 20
10.7629053661
 30
0.0
 10
13.5257335152
 20
10.7620534792
 30
0.0
 10
13.5301108106
 20
10.7608400431
 30
0.0
 10
13.5344560894
 20
10.7592659644
 30
0.0
 10
13.538767632
 20
10.7573321351
 30
0.0
 10
13.5445569112
 20
10.7542287961
 30
0.0
 10
13.5501889314
 20
10.7504297704
 30
0.0
 10
13.5556393396
 20
10.7460273605
 30
0.0
 10
13.5597561906
 20
10.7423155584
 30
0.0
 10
13.5638291243
 20
10.7382530361
 30
0.0
 10
13.5678570549
 20
10.7338411721
 30
0.0
 10
13.5718383401
 20
10.7290818836
 30
0.0
 10
13.5757715739
 20
10.7239771411
 30
0.0
 10
13.5796551597
 20
10.7185289771
 30
0.0
 10
13.583487647
 20
10.7127396382
 30
0.0
 10
13.5872675284
 20
10.7066114664
 30
0.0
 10
13.5909932528
 20
10.7001469221
 30
0.0
 10
13.5946634047
 20
10.6933486644
 30
0.0
 10
13.5982764476
 20
10.6862194305
 30
0.0
 10
13.6018309339
 20
10.6787621306
 30
0.0
 10
13.6053254458
 20
10.6709798205
 30
0.0
 10
13.6087585246
 20
10.6628756428
 30
0.0
 10
13.6133189159
 20
10.651478395
 30
0.0
 10
13.6188410685
 20
10.6364388491
 30
0.0
 10
13.6251076496
 20
10.6174175167
 30
0.0
 10
13.6310971084
 20
10.5971984696
 30
0.0
 10
13.6367995222
 20
10.5758148734
 30
0.0
 10
13.6422054421
 20
10.5533015873
 30
0.0
 10
13.6473058834
 20
10.5296955073
 30
0.0
 10
13.6520923541
 20
10.5050353523
 30
0.0
 10
13.6565568692
 20
10.4793616314
 30
0.0
 10
13.6606919947
 20
10.4527165699
 30
0.0
 10
13.6644908475
 20
10.4251440291
 30
0.0
 10
13.6679470959
 20
10.396689416
 30
0.0
 10
13.6710549706
 20
10.3673996071
 30
0.0
 10
13.6738092919
 20
10.3373228747
 30
0.0
 10
13.6762054758
 20
10.3065088153
 30
0.0
 10
13.6782395333
 20
10.2750082313
 30
0.0
 10
13.679908056
 20
10.2428730736
 30
0.0
 10
13.6812082732
 20
10.210156369
 30
0.0
 10
13.6824561374
 20
10.165533084
 30
0.0
 10
13.6828181124
 20
10.1318107285
 30
0.0
 10
13.6828181124
 20
10.1091811777
 30
0.0
  0
SPLINE
  5
39C
100
AcDbEntity
  8
0
100
AcDbSpline
 62
7
  6
CONTINUOUS
 70
0
 71
3
 72
11
 73
7
 74
0
 42
0.0000001
 43
0.0000001
 44
0.0000000001
 40
0.0
 40
0.0
 40
0.0
 40
0.0
 40
0.2485821051
 40
0.498090461
 40
0.7485573928
 40
1.0
 40
1.0
 40
1.0
 40
1.0
 10
11.1395038242
 20
9.4842948151
 30
0.0
 10
11.1369306588
 20
9.4732367497
 30
0.0
 10
11.1324176803
 20
9.4509243177
 30
0.0
 10
11.1275777816
 20
9.4170614828
 30
0.0
 10
11.1246691627
 20
9.382847431
 30
0.0
 10
11.1240251081
 20
9.3599183806
 30
0.0
 10
11.1240251081
 20
9.3484342315
 30
0.0
  0
SPLINE
  5
39D
100
AcDbEntity
  8
0
100
AcDbSpline
 62
7
  6
CONTINUOUS
 70
0
 71
3
 72
53
 73
49
 74
0
 42
0.0000001
 43
0.0000001
 44
0.0000000001
 40
0.0
 40
0.0
 40
0.0
 40
0.0
 40
0.0417740747
 40
0.0840370059
 40
0.1266586015
 40
0.1695066206
 40
0.2124482643
 40
0.2553502464
 40
0.2980794728
 40
0.3405035203
 40
0.3824911749
 40
0.4239129577
 40
0.4646416591
 40
0.5045528794
 40
0.5435255803
 40
0.5814426526
 40
0.6181915072
 40
0.6536646981
 40
0.6877605949
 40
0.7203841254
 40
0.7361164043
 40
0.7514483531
 40
0.7663703757
 40
0.7808733967
 40
0.7949490545
 40
0.8085896209
 40
0.8217881625
 40
0.8345385373
 40
0.8468355031
 40
0.8586748197
 40
0.8700533035
 40
0.880969049
 40
0.8914214554
 40
0.9014115674
 40
0.9109421276
 40
0.9200180273
 40
0.9286464653
 40
0.9368374971
 40
0.9446043876
 40
0.9519642556
 40
0.9589386637
 40
0.9655543233
 40
0.9718438245
 40
0.977846199
 40
0.9836073748
 40
0.9891800477
 40
0.9946230782
 40
1.0
 40
1.0
 40
1.0
 40
1.0
 10
13.6828181124
 20
10.1091811777
 30
0.0
 10
13.6828181124
 20
10.0928572627
 30
0.0
 10
13.6825634428
 20
10.0600178909
 30
0.0
 10
13.6814375877
 20
10.0105350226
 30
0.0
 10
13.6795689513
 20
9.9606545975
 30
0.0
 10
13.6769636517
 20
9.9105417031
 30
0.0
 10
13.6736303032
 20
9.8603621607
 30
0.0
 10
13.669579922
 20
9.8102819697
 30
0.0
 10
13.6648259262
 20
9.7604668194
 30
0.0
 10
13.6593840752
 20
9.7110815096
 30
0.0
 10
13.6532724238
 20
9.6622894103
 30
0.0
 10
13.6465112615
 20
9.6142519146
 30
0.0
 10
13.6391230469
 20
9.5671279005
 30
0.0
 10
13.6311323347
 20
9.521073198
 30
0.0
 10
13.6225656957
 20
9.4762400684
 30
0.0
 10
13.6134516324
 20
9.4327766805
 30
0.0
 10
13.6038204831
 20
9.3908266388
 30
0.0
 10
13.5937043336
 20
9.3505283783
 30
0.0
 10
13.5831368715
 20
9.3120150803
 30
0.0
 10
13.57387549
 20
9.2811516091
 30
0.0
 10
13.5662520667
 20
9.2574602351
 30
0.0
 10
13.5605129577
 20
9.2404307995
 30
0.0
 10
13.5546879577
 20
9.2239391116
 30
0.0
 10
13.548781787
 20
9.2079987775
 30
0.0
 10
13.5427994137
 20
9.1926229412
 30
0.0
 10
13.5367457417
 20
9.177824286
 30
0.0
 10
13.5306258193
 20
9.1636149946
 30
0.0
 10
13.5244446942
 20
9.1500067618
 30
0.0
 10
13.5182074703
 20
9.1370107718
 30
0.0
 10
13.5119193204
 20
9.1246376788
 30
0.0
 10
13.5055853733
 20
9.1128976296
 30
0.0
 10
13.4992108938
 20
9.10180019
 30
0.0
 10
13.4928010048
 20
9.0913544315
 30
0.0
 10
13.4863610064
 20
9.0815687914
 30
0.0
 10
13.4798959802
 20
9.0724512308
 30
0.0
 10
13.4734111708
 20
9.0640090404
 30
0.0
 10
13.466911565
 20
9.0562490506
 30
0.0
 10
13.4604022265
 20
9.0491774363
 30
0.0
 10
13.453887962
 20
9.0427999332
 30
0.0
 10
13.447373516
 20
9.0371217372
 30
0.0
 10
13.4408634317
 20
9.032147664
 30
0.0
 10
13.4343620944
 20
9.0278822622
 30
0.0
 10
13.4278738997
 20
9.0243298177
 30
0.0
 10
13.4214032379
 20
9.0214947239
 30
0.0
 10
13.4149551389
 20
9.0193810926
 30
0.0
 10
13.4085348793
 20
9.0179931722
 30
0.0
 10
13.4021502829
 20
9.0173341288
 30
0.0
 10
13.3979114462
 20
9.0173825865
 30
0.0
 10
13.3958153592
 20
9.0175279549
 30
0.0
  0
SPLINE
  5
39E
100
AcDbEntity
  8
0
100
AcDbSpline
 62
7
  6
CONTINUOUS
 70
0
 71
3
 72
50
 73
46
 74
0
 42
0.0000001
 43
0.0000001
 44
0.0000000001
 40
0.0
 40
0.0
 40
0.0
 40
0.0
 40
0.0364576187
 40
0.0731205088
 40
0.1099741718
 40
0.14700641
 40
0.1842017478
 40
0.2215423305
 40
0.2590058088
 40
0.296563989
 40
0.3341812287
 40
0.3718128098
 40
0.4094032696
 40
0.44688483
 40
0.4841761005
 40
0.5211811191
 40
0.5577890242
 40
0.5938746279
 40
0.6293000249
 40
0.6639173086
 40
0.6975726212
 40
0.7301111693
 40
0.7613830141
 40
0.7764998786
 40
0.7912492376
 40
0.8056163122
 40
0.8195879575
 40
0.8331523686
 40
0.8462996073
 40
0.8590214
 40
0.8713114921
 40
0.8831655824
 40
0.8945815263
 40
0.9055593826
 40
0.9161015211
 40
0.9262127525
 40
0.9359004189
 40
0.9451745619
 40
0.9540480651
 40
0.9625368256
 40
0.97065997
 40
0.9784399781
 40
0.9859029165
 40
0.9930784637
 40
1.0
 40
1.0
 40
1.0
 40
1.0
 10
11.0183301984
 20
9.2847610927
 30
0.0
 10
11.0183301984
 20
9.2750582409
 30
0.0
 10
11.0187365636
 20
9.2555955695
 30
0.0
 10
11.0205496177
 20
9.2263754649
 30
0.0
 10
11.0235595663
 20
9.1971002551
 30
0.0
 10
11.0277516539
 20
9.1678280574
 30
0.0
 10
11.0331053578
 20
9.1386143769
 30
0.0
 10
11.0395934604
 20
9.109514268
 30
0.0
 10
11.0471818815
 20
9.0805820415
 30
0.0
 10
11.0558289408
 20
9.0518718978
 30
0.0
 10
11.0654847291
 20
9.0234383144
 30
0.0
 10
11.0760902481
 20
8.9953364655
 30
0.0
 10
11.0875764501
 20
8.9676225626
 30
0.0
 10
11.0998632599
 20
8.9403540784
 30
0.0
 10
11.112858617
 20
8.9135897697
 30
0.0
 10
11.1264577117
 20
8.887389442
 30
0.0
 10
11.1405425505
 20
8.8618133733
 30
0.0
 10
11.1549820444
 20
8.8369213398
 30
0.0
 10
11.1696327917
 20
8.8127712606
 30
0.0
 10
11.1843406738
 20
8.7894174752
 30
0.0
 10
11.1989433692
 20
8.7669088295
 30
0.0
 10
11.2132735444
 20
8.7452865997
 30
0.0
 10
11.2249762661
 20
8.7278427235
 30
0.0
 10
11.2340498016
 20
8.7143361795
 30
0.0
 10
11.2406052603
 20
8.7045580124
 30
0.0
 10
11.2469685214
 20
8.6950179624
 30
0.0
 10
11.2531206808
 20
8.6857162589
 30
0.0
 10
11.2590436458
 20
8.676652358
 30
0.0
 10
11.2647202265
 20
8.6678250955
 30
0.0
 10
11.2701341601
 20
8.6592325996
 30
0.0
 10
11.2752701969
 20
8.6508724425
 30
0.0
 10
11.2801141339
 20
8.6427416395
 30
0.0
 10
11.2846527828
 20
8.6348367205
 30
0.0
 10
11.2888740892
 20
8.6271538451
 30
0.0
 10
11.2927669344
 20
8.6196887802
 30
0.0
 10
11.2963213711
 20
8.6124371118
 30
0.0
 10
11.2995282657
 20
8.6053941532
 30
0.0
 10
11.3023796286
 20
8.5985552038
 30
0.0
 10
11.3048681594
 20
8.5919154402
 30
0.0
 10
11.3069875964
 20
8.5854701609
 30
0.0
 10
11.3087322684
 20
8.5792147115
 30
0.0
 10
11.3100973724
 20
8.573144724
 30
0.0
 10
11.3110786456
 20
8.5672559499
 30
0.0
 10
11.3116724855
 20
8.5615450517
 30
0.0
 10
11.3118103309
 20
8.5577921713
 30
0.0
 10
11.3118105546
 20
8.5559500697
 30
0.0
  0
SPLINE
  5
39F
100
AcDbEntity
  8
0
100
AcDbSpline
 62
7
  6
CONTINUOUS
 70
0
 71
3
 72
49
 73
45
 74
0
 42
0.0000001
 43
0.0000001
 44
0.0000000001
 40
0.0
 40
0.0
 40
0.0
 40
0.0
 40
0.0063158739
 40
0.0126706599
 40
0.0191024896
 40
0.0256480301
 40
0.0323419112
 40
0.039216248
 40
0.0536140773
 40
0.06119479
 40
0.0690565573
 40
0.0772176635
 40
0.0856940531
 40
0.0944994572
 40
0.1036455587
 40
0.1131423452
 40
0.122998104
 40
0.1332197191
 40
0.1438128355
 40
0.1547818436
 40
0.1661302067
 40
0.1778604088
 40
0.1899740704
 40
0.2024721524
 40
0.215354813
 40
0.2422706486
 40
0.2707129033
 40
0.3006638566
 40
0.3320991037
 40
0.3649883645
 40
0.3992962141
 40
0.4349826582
 40
0.4720035847
 40
0.5103111049
 40
0.5498539072
 40
0.5905775763
 40
0.6324248432
 40
0.6753357844
 40
0.7192480525
 40
0.764097054
 40
0.809816243
 40
0.856337252
 40
0.9035893524
 40
1.0
 40
1.0
 40
1.0
 40
1.0
 10
13.5168879105
 20
8.2277792914
 30
0.0
 10
13.518366823
 20
8.2276767255
 30
0.0
 10
13.5213267724
 20
8.2273499219
 30
0.0
 10
13.5257335152
 20
8.226498035
 30
0.0
 10
13.5301108106
 20
8.2252845988
 30
0.0
 10
13.5344560894
 20
8.2237105202
 30
0.0
 10
13.538767632
 20
8.2217766909
 30
0.0
 10
13.5445569112
 20
8.2186733519
 30
0.0
 10
13.5501889314
 20
8.2148743261
 30
0.0
 10
13.5556393396
 20
8.2104719163
 30
0.0
 10
13.5597561906
 20
8.2067601142
 30
0.0
 10
13.5638291243
 20
8.2026975919
 30
0.0
 10
13.5678570549
 20
8.1982857278
 30
0.0
 10
13.5718383401
 20
8.1935264394
 30
0.0
 10
13.5757715739
 20
8.1884216969
 30
0.0
 10
13.5796551597
 20
8.1829735328
 30
0.0
 10
13.583487647
 20
8.1771841939
 30
0.0
 10
13.5872675284
 20
8.1710560222
 30
0.0
 10
13.5909932528
 20
8.1645914779
 30
0.0
 10
13.5946634047
 20
8.1577932201
 30
0.0
 10
13.5982764476
 20
8.1506639863
 30
0.0
 10
13.6018309339
 20
8.1432066863
 30
0.0
 10
13.6053254458
 20
8.1354243763
 30
0.0
 10
13.6087585246
 20
8.1273201986
 30
0.0
 10
13.6133189159
 20
8.1159229508
 30
0.0
 10
13.6188410685
 20
8.1008834048
 30
0.0
 10
13.6251076496
 20
8.0818620724
 30
0.0
 10
13.6310971084
 20
8.0616430254
 30
0.0
 10
13.6367995222
 20
8.0402594291
 30
0.0
 10
13.6422054421
 20
8.0177461431
 30
0.0
 10
13.6473058834
 20
7.9941400631
 30
0.0
 10
13.6520923541
 20
7.9694799081
 30
0.0
 10
13.6565568692
 20
7.9438061872
 30
0.0
 10
13.6606919947
 20
7.9171611256
 30
0.0
 10
13.6644908475
 20
7.8895885849
 30
0.0
 10
13.6679470959
 20
7.8611339718
 30
0.0
 10
13.6710549706
 20
7.8318441628
 30
0.0
 10
13.6738092919
 20
7.8017674304
 30
0.0
 10
13.6762054758
 20
7.770953371
 30
0.0
 10
13.6782395333
 20
7.7394527871
 30
0.0
 10
13.679908056
 20
7.7073176293
 30
0.0
 10
13.6812082732
 20
7.6746009248
 30
0.0
 10
13.6824561374
 20
7.6299776397
 30
0.0
 10
13.6828181124
 20
7.5962552843
 30
0.0
 10
13.6828181124
 20
7.5736257335
 30
0.0
  0
SPLINE
  5
3A0
100
AcDbEntity
  8
0
100
AcDbSpline
 62
7
  6
CONTINUOUS
 70
0
 71
3
 72
47
 73
43
 74
0
 42
0.0000001
 43
0.0000001
 44
0.0000000001
 40
0.0
 40
0.0
 40
0.0
 40
0.0
 40
0.0949812985
 40
0.1415610895
 40
0.18744415
 40
0.2325641754
 40
0.2768569144
 40
0.3202598847
 40
0.3627122759
 40
0.404155344
 40
0.4445325328
 40
0.4837896136
 40
0.5218748958
 40
0.5587395162
 40
0.5943376471
 40
0.6286267374
 40
0.6615678652
 40
0.6931261859
 40
0.7232713154
 40
0.7519778659
 40
0.7792261968
 40
0.8050033075
 40
0.8293038631
 40
0.840901931
 40
0.8521331922
 40
0.8629998132
 40
0.8735048399
 40
0.8836522819
 40
0.8934470718
 40
0.9028953829
 40
0.912004636
 40
0.9207836104
 40
0.9292427735
 40
0.9373942739
 40
0.945252198
 40
0.9528328259
 40
0.960154658
 40
0.974101641
 40
0.9807834377
 40
0.9873059704
 40
0.9937004046
 40
1.0
 40
1.0
 40
1.0
 40
1.0
 10
13.6673632976
 20
10.1102529728
 30
0.0
 10
13.6673632976
 20
10.1323197118
 30
0.0
 10
13.6670189895
 20
10.1652098373
 30
0.0
 10
13.6658331704
 20
10.2087427206
 30
0.0
 10
13.6645972627
 20
10.2406838343
 30
0.0
 10
13.6630111018
 20
10.2720774317
 30
0.0
 10
13.661077192
 20
10.3028742808
 30
0.0
 10
13.6587986138
 20
10.3330260986
 30
0.0
 10
13.6561789534
 20
10.3624856473
 30
0.0
 10
13.653222363
 20
10.3912067612
 30
0.0
 10
13.6499335353
 20
10.4191444587
 30
0.0
 10
13.6463176748
 20
10.4462549887
 30
0.0
 10
13.6423804874
 20
10.4724959074
 30
0.0
 10
13.6381282171
 20
10.4978261632
 30
0.0
 10
13.6335676028
 20
10.5222061586
 30
0.0
 10
13.6287058553
 20
10.5455978022
 30
0.0
 10
13.6235506477
 20
10.5679645892
 30
0.0
 10
13.6181101463
 20
10.5892716791
 30
0.0
 10
13.6123929395
 20
10.6094859584
 30
0.0
 10
13.6064080142
 20
10.628576051
 30
0.0
 10
13.6001647332
 20
10.6465125618
 30
0.0
 10
13.5936728674
 20
10.6632676253
 30
0.0
 10
13.5879790176
 20
10.6764217217
 30
0.0
 10
13.5832952028
 20
10.6863198539
 30
0.0
 10
13.5797812473
 20
10.6933162522
 30
0.0
 10
13.5762128426
 20
10.6999985355
 30
0.0
 10
13.5725913126
 20
10.7063641288
 30
0.0
 10
13.5689181012
 20
10.7124105983
 30
0.0
 10
13.5651945257
 20
10.7181355757
 30
0.0
 10
13.5614220239
 20
10.7235368745
 30
0.0
 10
13.5576020167
 20
10.728612427
 30
0.0
 10
13.5537358345
 20
10.7333602224
 30
0.0
 10
13.5498249595
 20
10.7377784585
 30
0.0
 10
13.5458707283
 20
10.7418654063
 30
0.0
 10
13.541874628
 20
10.7456193168
 30
0.0
 10
13.5378376785
 20
10.7490389859
 30
0.0
 10
13.5324908693
 20
10.7530842804
 30
0.0
 10
13.5269734713
 20
10.7565475909
 30
0.0
 10
13.5213143978
 20
10.7593437376
 30
0.0
 10
13.5170966907
 20
10.7610704055
 30
0.0
 10
13.512848103
 20
10.762454824
 30
0.0
 10
13.5099792113
 20
10.7631531159
 30
0.0
 10
13.5085446775
 20
10.7634431886
 30
0.0
  0
SPLINE
  5
3A1
100
AcDbEntity
  8
0
100
AcDbSpline
 62
7
  6
CONTINUOUS
 70
0
 71
3
 72
53
 73
49
 74
0
 42
0.0000001
 43
0.0000001
 44
0.0000000001
 40
0.0
 40
0.0
 40
0.0
 40
0.0
 40
0.0412513386
 40
0.0829788473
 40
0.1250586474
 40
0.1673651226
 40
0.2097720153
 40
0.2521526031
 40
0.2943802911
 40
0.336329056
 40
0.3778739382
 40
0.4188915225
 40
0.4592604266
 40
0.4988617949
 40
0.5375798003
 40
0.5753021606
 40
0.6119206729
 40
0.6473317759
 40
0.6814371515
 40
0.7141443835
 40
0.7299469253
 40
0.7453683589
 40
0.7603991304
 40
0.7750302497
 40
0.7892532526
 40
0.8030603391
 40
0.8164443038
 40
0.829398727
 40
0.8419178829
 40
0.8539969827
 40
0.8656320776
 40
0.8768203521
 40
0.8875600468
 40
0.8978508009
 40
0.9076936305
 40
0.9170913237
 40
0.9260485181
 40
0.9345721636
 40
0.9426717464
 40
0.9503598442
 40
0.9576525367
 40
0.9645700612
 40
0.9711373971
 40
0.9773849405
 40
0.9833490763
 40
0.9890725518
 40
0.9946045223
 40
1.0
 40
1.0
 40
1.0
 40
1.0
 10
13.6673632976
 20
10.1102529728
 30
0.0
 10
13.6673632976
 20
10.0942375882
 30
0.0
 10
13.6671181733
 20
10.0620214656
 30
0.0
 10
13.6660341553
 20
10.0134792804
 30
0.0
 10
13.6642347394
 20
9.9645483485
 30
0.0
 10
13.6617256053
 20
9.9153846229
 30
0.0
 10
13.6585147354
 20
9.8661447133
 30
0.0
 10
13.6546123472
 20
9.8169854616
 30
0.0
 10
13.6500308853
 20
9.7680634618
 30
0.0
 10
13.64478497
 20
9.7195345429
 30
0.0
 10
13.6388913557
 20
9.6715532752
 30
0.0
 10
13.6323688767
 20
9.624272472
 30
0.0
 10
13.6252383883
 20
9.5778426993
 30
0.0
 10
13.6175227015
 20
9.5324117905
 30
0.0
 10
13.6092465117
 20
9.4881243706
 30
0.0
 10
13.6004363223
 20
9.4451213795
 30
0.0
 10
13.5911203589
 20
9.4035396401
 30
0.0
 10
13.5813284924
 20
9.3635113083
 30
0.0
 10
13.5710921015
 20
9.3251637859
 30
0.0
 10
13.56211902
 20
9.2943665843
 30
0.0
 10
13.5547292772
 20
9.2706709577
 30
0.0
 10
13.5491600473
 20
9.2535978892
 30
0.0
 10
13.5435047879
 20
9.2370329592
 30
0.0
 10
13.5377680113
 20
9.2209893178
 30
0.0
 10
13.5319542614
 20
9.2054797246
 30
0.0
 10
13.5260682294
 20
9.1905164883
 30
0.0
 10
13.5201145462
 20
9.1761114968
 30
0.0
 10
13.5140980319
 20
9.1622761585
 30
0.0
 10
13.5080233958
 20
9.1490214529
 30
0.0
 10
13.5018955617
 20
9.136357844
 30
0.0
 10
13.4957192994
 20
9.124295363
 30
0.0
 10
13.489499606
 20
9.1128434886
 30
0.0
 10
13.4832412892
 20
9.1020112656
 30
0.0
 10
13.4769493778
 20
9.0918071503
 30
0.0
 10
13.4706286856
 20
9.0822391653
 30
0.0
 10
13.4642842156
 20
9.073314717
 30
0.0
 10
13.4579207369
 20
9.0650407819
 30
0.0
 10
13.4515431453
 20
9.0574237116
 30
0.0
 10
13.4451560882
 20
9.0504694446
 30
0.0
 10
13.4387642468
 20
9.0441833325
 30
0.0
 10
13.4323720519
 20
9.0385703664
 30
0.0
 10
13.4259838741
 20
9.0336350794
 30
0.0
 10
13.4196039045
 20
9.0293817663
 30
0.0
 10
13.4132362683
 20
9.0258145132
 30
0.0
 10
13.4068852864
 20
9.0229373199
 30
0.0
 10
13.4005552025
 20
9.0207541723
 30
0.0
 10
13.394252284
 20
9.0192688691
 30
0.0
 10
13.3900326382
 20
9.0187413404
 30
0.0
 10
13.3879427834
 20
9.0185984256
 30
0.0
  0
SPLINE
  5
3A2
100
AcDbEntity
  8
0
100
AcDbSpline
 62
7
  6
CONTINUOUS
 70
0
 71
3
 72
57
 73
53
 74
0
 42
0.0000001
 43
0.0000001
 44
0.0000000001
 40
0.0
 40
0.0
 40
0.0
 40
0.0
 40
0.0452110465
 40
0.0910027698
 40
0.1371912899
 40
0.1835896178
 40
0.2300102179
 40
0.2762652744
 40
0.3221678628
 40
0.3675328648
 40
0.4121779514
 40
0.4559245655
 40
0.4985989182
 40
0.5400330108
 40
0.5800656962
 40
0.6185438014
 40
0.6371548672
 40
0.6553241289
 40
0.6730352101
 40
0.6902725778
 40
0.7070214147
 40
0.7232678628
 40
0.7389989442
 40
0.7542027293
 40
0.7688684152
 40
0.7829863638
 40
0.7965483704
 40
0.8095476168
 40
0.8219790731
 40
0.8338395114
 40
0.845127934
 40
0.8558458262
 40
0.8659975671
 40
0.8755910394
 40
0.8846381117
 40
0.8931556374
 40
0.9011662069
 40
0.9086994629
 40
0.9157932415
 40
0.9224949103
 40
0.9288624523
 40
0.9349648844
 40
0.9408817647
 40
0.9467010563
 40
0.9525155983
 40
0.9584184703
 40
0.9644983266
 40
0.9708356729
 40
0.97750068
 40
0.9845523957
 40
0.9920392651
 40
1.0
 40
1.0
 40
1.0
 40
1.0
 10
13.6117172488
 20
10.0565030139
 30
0.0
 10
13.6117172488
 20
10.0424313219
 30
0.0
 10
13.6114662891
 20
10.0141066357
 30
0.0
 10
13.6103596837
 20
9.9714190211
 30
0.0
 10
13.608524727
 20
9.9283865471
 30
0.0
 10
13.6059692483
 20
9.8851948308
 30
0.0
 10
13.6027042714
 20
9.8420301708
 30
0.0
 10
13.5987438766
 20
9.7990786836
 30
0.0
 10
13.5941051867
 20
9.7565255835
 30
0.0
 10
13.5888082741
 20
9.7145543461
 30
0.0
 10
13.5828760836
 20
9.6733459167
 30
0.0
 10
13.5763343369
 20
9.6330779111
 30
0.0
 10
13.5692114161
 20
9.5939238633
 30
0.0
 10
13.5615382628
 20
9.5560523682
 30
0.0
 10
13.5533481843
 20
9.5196266674
 30
0.0
 10
13.5460434312
 20
9.4902905962
 30
0.0
 10
13.5399549897
 20
9.4676713513
 30
0.0
 10
13.5353327354
 20
9.4513526706
 30
0.0
 10
13.5306088588
 20
9.435508752
 30
0.0
 10
13.5257885026
 20
9.4201566364
 30
0.0
 10
13.5208768234
 20
9.4053128637
 30
0.0
 10
13.515879187
 20
9.3909933978
 30
0.0
 10
13.5108009651
 20
9.3772136419
 30
0.0
 10
13.5056476535
 20
9.3639884016
 30
0.0
 10
13.5004248453
 20
9.3513318674
 30
0.0
 10
13.4951381255
 20
9.3392576196
 30
0.0
 10
13.4897932692
 20
9.3277785616
 30
0.0
 10
13.4843959418
 20
9.3169069767
 30
0.0
 10
13.4789520156
 20
9.3066544196
 30
0.0
 10
13.4734672426
 20
9.2970317942
 30
0.0
 10
13.467947478
 20
9.2880492617
 30
0.0
 10
13.4623985315
 20
9.2797162644
 30
0.0
 10
13.4568261196
 20
9.2720415409
 30
0.0
 10
13.4512359957
 20
9.2650330244
 30
0.0
 10
13.4456336045
 20
9.2586980388
 30
0.0
 10
13.4400244129
 20
9.2530430815
 30
0.0
 10
13.4344134474
 20
9.2480741954
 30
0.0
 10
13.4288056255
 20
9.2437968157
 30
0.0
 10
13.4232055295
 20
9.2402161795
 30
0.0
 10
13.4176176953
 20
9.2373374945
 30
0.0
 10
13.4120470136
 20
9.2351660114
 30
0.0
 10
13.4064991995
 20
9.2337073189
 30
0.0
 10
13.4009816113
 20
9.2329662679
 30
0.0
 10
13.3955033066
 20
9.2329466213
 30
0.0
 10
13.3900745621
 20
9.2336491926
 30
0.0
 10
13.384705507
 20
9.2350720026
 30
0.0
 10
13.3794048436
 20
9.2372104056
 30
0.0
 10
13.3741792806
 20
9.2400584559
 30
0.0
 10
13.3690339816
 20
9.2436100167
 30
0.0
 10
13.3639729234
 20
9.2478590637
 30
0.0
 10
13.3590002609
 20
9.2527996556
 30
0.0
 10
13.3558467616
 20
9.256434998
 30
0.0
 10
13.3542833835
 20
9.2583572419
 30
0.0
  0
SPLINE
  5
3A3
100
AcDbEntity
  8
0
100
AcDbSpline
 62
7
  6
CONTINUOUS
 70
0
 71
3
 72
50
 73
46
 74
0
 42
0.0000001
 43
0.0000001
 44
0.0000000001
 40
0.0
 40
0.0
 40
0.0
 40
0.0
 40
0.0417744868
 40
0.0840381758
 40
0.126660238
 40
0.1695088528
 40
0.2124510497
 40
0.2553535989
 40
0.2980833861
 40
0.3405079916
 40
0.3824961983
 40
0.4239185262
 40
0.4646477642
 40
0.5045595116
 40
0.5435327294
 40
0.5814503073
 40
0.6181996544
 40
0.653673323
 40
0.6877696811
 40
0.7203936548
 40
0.7514575722
 40
0.7808821551
 40
0.7949580145
 40
0.808598761
 40
0.8217974965
 40
0.8345480369
 40
0.8468451888
 40
0.8586846567
 40
0.8700633173
 40
0.8809792014
 40
0.891431773
 40
0.9014220135
 40
0.9109527242
 40
0.9200287459
 40
0.9286573164
 40
0.9368484657
 40
0.9446154694
 40
0.9519754509
 40
0.958949954
 40
0.9655657214
 40
0.9778458973
 40
0.9836071449
 40
0.989179905
 40
0.9946230047
 40
1.0
 40
1.0
 40
1.0
 40
1.0
 10
13.5443562895
 20
10.0464373198
 30
0.0
 10
13.5443562895
 20
10.0351505415
 30
0.0
 10
13.5441802003
 20
10.0124444559
 30
0.0
 10
13.5434017621
 20
9.9782306124
 30
0.0
 10
13.5421097268
 20
9.9437418415
 30
0.0
 10
13.5403083559
 20
9.909092392
 30
0.0
 10
13.5380035835
 20
9.8743968344
 30
0.0
 10
13.535203038
 20
9.8397699799
 30
0.0
 10
13.5319159921
 20
9.805326379
 30
0.0
 10
13.5281533441
 20
9.7711799827
 30
0.0
 10
13.5239275771
 20
9.7374437484
 30
0.0
 10
13.5192527201
 20
9.7042292681
 30
0.0
 10
13.5141443017
 20
9.671646394
 30
0.0
 10
13.5086192999
 20
9.6398028711
 30
0.0
 10
13.5026960868
 20
9.6088039757
 30
0.0
 10
13.4963943694
 20
9.5787521587
 30
0.0
 10
13.4897351253
 20
9.5497467008
 30
0.0
 10
13.482740535
 20
9.5218833617
 30
0.0
 10
13.4754339063
 20
9.4952540804
 30
0.0
 10
13.4678396035
 20
9.4699465292
 30
0.0
 10
13.4599829321
 20
9.4460442067
 30
0.0
 10
13.453141598
 20
9.4270915931
 30
0.0
 10
13.4475434781
 20
9.4127030074
 30
0.0
 10
13.4433577634
 20
9.4024707865
 30
0.0
 10
13.4391262976
 20
9.3926460711
 30
0.0
 10
13.4348524766
 20
9.3832369489
 30
0.0
 10
13.4305399041
 20
9.3742511399
 30
0.0
 10
13.4261920798
 20
9.3656960303
 30
0.0
 10
13.4218126336
 20
9.3575786109
 30
0.0
 10
13.4174051157
 20
9.3499055258
 30
0.0
 10
13.4129731621
 20
9.3426830122
 30
0.0
 10
13.4085203438
 20
9.3359169428
 30
0.0
 10
13.4040502622
 20
9.3296127813
 30
0.0
 10
13.3995664682
 20
9.323775609
 30
0.0
 10
13.3950724634
 20
9.318410111
 30
0.0
 10
13.3905717359
 20
9.3135205938
 30
0.0
 10
13.3860675303
 20
9.309110969
 30
0.0
 10
13.3815634633
 20
9.3051849766
 30
0.0
 10
13.37706152
 20
9.3017454293
 30
0.0
 10
13.3712147672
 20
9.2979089506
 30
0.0
 10
13.3652202815
 20
9.2949086162
 30
0.0
 10
13.359148469
 20
9.2929185575
 30
0.0
 10
13.3547091418
 20
9.2919587238
 30
0.0
 10
13.3502946928
 20
9.2915031365
 30
0.0
 10
13.3473638306
 20
9.2915365559
 30
0.0
 10
13.3459145364
 20
9.2916370701
 30
0.0
  0
SPLINE
  5
3A4
100
AcDbEntity
  8
0
100
AcDbSpline
 62
7
  6
CONTINUOUS
 70
0
 71
3
 72
41
 73
37
 74
0
 42
0.0000001
 43
0.0000001
 44
0.0000000001
 40
0.0
 40
0.0
 40
0.0
 40
0.0
 40
0.0302662093
 40
0.0454436825
 40
0.0606503944
 40
0.0911499791
 40
0.1217704871
 40
0.1371279292
 40
0.152515731
 40
0.1833785845
 40
0.2143597119
 40
0.2454551511
 40
0.276659497
 40
0.3079659837
 40
0.3393665824
 40
0.3708521104
 40
0.4024123531
 40
0.4340361944
 40
0.4657117558
 40
0.4974265417
 40
0.5291675912
 40
0.5609216321
 40
0.5926752387
 40
0.6244149905
 40
0.6561276306
 40
0.6878002234
 40
0.7194203089
 40
0.7509760533
 40
0.7824563948
 40
0.8138511811
 40
0.8451513018
 40
0.8763488026
 40
0.9074370139
 40
0.9384105913
 40
0.9692657371
 40
1.0
 40
1.0
 40
1.0
 40
1.0
 10
11.8950437751
 20
8.7021085798
 30
0.0
 10
11.8837196545
 20
8.6998839974
 30
0.0
 10
11.866612678
 20
8.6970454111
 30
0.0
 10
11.8436521855
 20
8.6942635492
 30
0.0
 10
11.8205310254
 20
8.6921439687
 30
0.0
 10
11.791443528
 20
8.6907521455
 30
0.0
 10
11.7622669305
 20
8.6910389417
 30
0.0
 10
11.7388977406
 20
8.6922707855
 30
0.0
 10
11.71548102
 20
8.6941749517
 30
0.0
 10
11.6862405655
 20
8.6978111659
 30
0.0
 10
11.6513573842
 20
8.704159222
 30
0.0
 10
11.616756073
 20
8.7124754555
 30
0.0
 10
11.5825504616
 20
8.7227325131
 30
0.0
 10
11.5488521494
 20
8.7348967587
 30
0.0
 10
11.5157713137
 20
8.7489283238
 30
0.0
 10
11.4834160372
 20
8.7647812558
 30
0.0
 10
11.451892043
 20
8.7824036635
 30
0.0
 10
11.4213023288
 20
8.8017378884
 30
0.0
 10
11.3917468393
 20
8.8227206925
 30
0.0
 10
11.3633221405
 20
8.8452834641
 30
0.0
 10
11.3361211066
 20
8.8693524412
 30
0.0
 10
11.3102326186
 20
8.8948489517
 30
0.0
 10
11.2857412759
 20
8.9216896684
 30
0.0
 10
11.2627271213
 20
8.9497868808
 30
0.0
 10
11.2412653811
 20
8.9790487788
 30
0.0
 10
11.2214262205
 20
9.0093797516
 30
0.0
 10
11.2032745154
 20
9.0406806978
 30
0.0
 10
11.186869641
 20
9.0728493467
 30
0.0
 10
11.1722652791
 20
9.1057805898
 30
0.0
 10
11.1595092407
 20
9.1393668243
 30
0.0
 10
11.1486433147
 20
9.1734982894
 30
0.0
 10
11.1397031191
 20
9.2080634719
 30
0.0
 10
11.1327180085
 20
9.2429492796
 30
0.0
 10
11.1277109284
 20
9.278042099
 30
0.0
 10
11.1246984151
 20
9.3132256533
 30
0.0
 10
11.1240251081
 20
9.336715204
 30
0.0
 10
11.1240251081
 20
9.3484342315
 30
0.0
  0
SPLINE
  5
3A5
100
AcDbEntity
  8
0
100
AcDbSpline
 62
7
  6
CONTINUOUS
 70
0
 71
3
 72
55
 73
51
 74
0
 42
0.0000001
 43
0.0000001
 44
0.0000000001
 40
0.0
 40
0.0
 40
0.0
 40
0.0
 40
0.0532131714
 40
0.1056338492
 40
0.1571447341
 40
0.2076351223
 40
0.2569951171
 40
0.3051191451
 40
0.3519052421
 40
0.3972558126
 40
0.4410780313
 40
0.483284344
 40
0.5237930432
 40
0.5625289179
 40
0.5994240269
 40
0.6344186508
 40
0.6674624498
 40
0.683240699
 40
0.6985173966
 40
0.7132897156
 40
0.7275556294
 40
0.7413142618
 40
0.7545658967
 40
0.7673120548
 40
0.7795558711
 40
0.7913019715
 40
0.8025570311
 40
0.8133297688
 40
0.823631389
 40
0.8334759587
 40
0.8428806376
 40
0.8518663878
 40
0.8604581549
 40
0.8686855775
 40
0.8765832784
 40
0.8841911944
 40
0.8915547711
 40
0.8987246284
 40
0.9057561183
 40
0.9127081912
 40
0.9196420331
 40
0.9266193436
 40
0.9337006018
 40
0.9409434075
 40
0.9484013011
 40
0.9641398396
 40
0.9725127197
 40
0.9812626417
 40
0.9904173392
 40
1.0
 40
1.0
 40
1.0
 40
1.0
 10
13.6117172488
 20
10.0565030139
 30
0.0
 10
13.6117172488
 20
10.0668021577
 30
0.0
 10
13.6115845848
 20
10.0872473355
 30
0.0
 10
13.6109789906
 20
10.1176567849
 30
0.0
 10
13.6099695584
 20
10.147528336
 30
0.0
 10
13.6085588158
 20
10.1767906185
 30
0.0
 10
13.6067501231
 20
10.2053742883
 30
0.0
 10
13.6045478772
 20
10.2332112895
 30
0.0
 10
13.6019573807
 20
10.2602354934
 30
0.0
 10
13.5989848916
 20
10.2863826905
 30
0.0
 10
13.595637586
 20
10.3115907998
 30
0.0
 10
13.591923542
 20
10.3358000088
 30
0.0
 10
13.5878517223
 20
10.3589529355
 30
0.0
 10
13.5834319476
 20
10.3809947454
 30
0.0
 10
13.5786748743
 20
10.4018734267
 30
0.0
 10
13.5735919377
 20
10.4215395299
 30
0.0
 10
13.5690272921
 20
10.4371100959
 30
0.0
 10
13.5652086279
 20
10.4489144439
 30
0.0
 10
13.5623149049
 20
10.4572994112
 30
0.0
 10
13.5593491218
 20
10.4653479595
 30
0.0
 10
13.5563129392
 20
10.4730553442
 30
0.0
 10
13.5532081824
 20
10.4804170275
 30
0.0
 10
13.5500366983
 20
10.4874286935
 30
0.0
 10
13.5468002792
 20
10.4940862098
 30
0.0
 10
13.5435009
 20
10.5003857173
 30
0.0
 10
13.5401403647
 20
10.5063235068
 30
0.0
 10
13.5367206685
 20
10.5118961575
 30
0.0
 10
13.5332436974
 20
10.5171004239
 30
0.0
 10
13.5297113576
 20
10.5219332746
 30
0.0
 10
13.5261256255
 20
10.5263919431
 30
0.0
 10
13.5224882935
 20
10.530473741
 30
0.0
 10
13.5188013427
 20
10.5341763102
 30
0.0
 10
13.5150665329
 20
10.5374972816
 30
0.0
 10
13.511285764
 20
10.5404345159
 30
0.0
 10
13.5074609148
 20
10.5429859282
 30
0.0
 10
13.5035939132
 20
10.5451494037
 30
0.0
 10
13.4996869763
 20
10.5469231004
 30
0.0
 10
13.4957424356
 20
10.5483050048
 30
0.0
 10
13.4917630905
 20
10.5492936391
 30
0.0
 10
13.4877519756
 20
10.5498876588
 30
0.0
 10
13.4837124387
 20
10.5500863566
 30
0.0
 10
13.4796478778
 20
10.5498896896
 30
0.0
 10
13.4755617112
 20
10.5492980424
 30
0.0
 10
13.4714567765
 20
10.5483124747
 30
0.0
 10
13.4658637877
 20
10.546442019
 30
0.0
 10
13.4603296208
 20
10.5437867333
 30
0.0
 10
13.454905042
 20
10.5404613244
 30
0.0
 10
13.4507446775
 20
10.5375296475
 30
0.0
 10
13.4465805789
 20
10.5342145536
 30
0.0
 10
13.4438664754
 20
10.5318064733
 30
0.0
 10
13.4425088226
 20
10.5305429059
 30
0.0
  0
SPLINE
  5
3A6
100
AcDbEntity
  8
0
100
AcDbSpline
 62
7
  6
CONTINUOUS
 70
0
 71
3
 72
40
 73
36
 74
0
 42
0.0000001
 43
0.0000001
 44
0.0000000001
 40
0.0
 40
0.0
 40
0.0
 40
0.0
 40
0.0964133039
 40
0.1901869723
 40
0.2359074344
 40
0.2807575898
 40
0.3246709797
 40
0.3675830122
 40
0.4094313664
 40
0.4501560941
 40
0.4896998943
 40
0.5280083962
 40
0.5650302755
 40
0.6007176189
 40
0.635026352
 40
0.6679164564
 40
0.6993524674
 40
0.7293041865
 40
0.7577471878
 40
0.7846636702
 40
0.8100437444
 40
0.8338866872
 40
0.8562027225
 40
0.8770156231
 40
0.896365759
 40
0.9143140796
 40
0.9309474204
 40
0.9463845923
 40
0.9607827699
 40
0.9676572789
 40
0.9743513125
 40
0.9808970285
 40
0.9873290172
 40
0.9936839613
 40
1.0
 40
1.0
 40
1.0
 40
1.0
 10
13.5443562895
 20
10.0464373198
 30
0.0
 10
13.5443562895
 20
10.0620840757
 30
0.0
 10
13.5440247966
 20
10.0929503074
 30
0.0
 10
13.5427417285
 20
10.1312175822
 30
0.0
 10
13.5411905363
 20
10.1610949466
 30
0.0
 10
13.5397841168
 20
10.1828753918
 30
0.0
 10
13.5381273268
 20
10.2041811186
 30
0.0
 10
13.536222897
 20
10.2249770415
 30
0.0
 10
13.5340740277
 20
10.2452288662
 30
0.0
 10
13.5316842799
 20
10.2649032113
 30
0.0
 10
13.5290576325
 20
10.2839676618
 30
0.0
 10
13.5261984863
 20
10.3023908259
 30
0.0
 10
13.5231115923
 20
10.3201423773
 30
0.0
 10
13.5198020787
 20
10.3371931185
 30
0.0
 10
13.5162754865
 20
10.3535150439
 30
0.0
 10
13.5125376804
 20
10.3690813732
 30
0.0
 10
13.5085948486
 20
10.3838666071
 30
0.0
 10
13.5044535638
 20
10.3978466048
 30
0.0
 10
13.5001206773
 20
10.410998612
 30
0.0
 10
13.4956032773
 20
10.4233013076
 30
0.0
 10
13.49090875
 20
10.4347348994
 30
0.0
 10
13.4860446441
 20
10.4452811514
 30
0.0
 10
13.4810185388
 20
10.4549234023
 30
0.0
 10
13.475838044
 20
10.4636466405
 30
0.0
 10
13.4705105217
 20
10.4714374807
 30
0.0
 10
13.4650429427
 20
10.4782838908
 30
0.0
 10
13.4594412194
 20
10.4841751489
 30
0.0
 10
13.4537118821
 20
10.4891004023
 30
0.0
 10
13.4487585208
 20
10.4924416759
 30
0.0
 10
13.4447555238
 20
10.4945875009
 30
0.0
 10
13.4417744034
 20
10.4959245387
 30
0.0
 10
13.4387699611
 20
10.4970129381
 30
0.0
 10
13.4357433663
 20
10.4978519206
 30
0.0
 10
13.4326964099
 20
10.4984408905
 30
0.0
 10
13.4306498196
 20
10.4986668824
 30
0.0
 10
13.4296272564
 20
10.4987378012
 30
0.0
  0
SPLINE
  5
3A7
100
AcDbEntity
  8
0
100
AcDbSpline
 62
7
  6
CONTINUOUS
 70
0
 71
3
 72
33
 73
29
 74
0
 42
0.0000001
 43
0.0000001
 44
0.0000000001
 40
0.0
 40
0.0
 40
0.0
 40
0.0
 40
0.0958348039
 40
0.1891069742
 40
0.2792500435
 40
0.36572131
 40
0.4480125246
 40
0.5256540669
 40
0.5625988158
 40
0.598226802
 40
0.632494146
 40
0.6653609288
 40
0.6967920316
 40
0.726757616
 40
0.7552336203
 40
0.7822031337
 40
0.8076567456
 40
0.8315949344
 40
0.8540288219
 40
0.8749836671
 40
0.8945009457
 40
0.9126431418
 40
0.9294980666
 40
0.945184889
 40
0.9598599849
 40
0.9737213022
 40
0.9870092614
 40
1.0
 40
1.0
 40
1.0
 40
1.0
 10
12.6070323736
 20
10.5317185064
 30
0.0
 10
12.6125280885
 20
10.5313373773
 30
0.0
 10
12.623364637
 20
10.5304644388
 30
0.0
 10
12.6393316911
 20
10.5287981163
 30
0.0
 10
12.6547184132
 20
10.5268012333
 30
0.0
 10
12.6694222485
 20
10.5244873642
 30
0.0
 10
12.6833451045
 20
10.5218722419
 30
0.0
 10
12.6943956479
 20
10.5194179787
 30
0.0
 10
12.7027688485
 20
10.5173065268
 30
0.0
 10
12.7086930049
 20
10.5156852853
 30
0.0
 10
12.7143560109
 20
10.514002938
 30
0.0
 10
12.7197484587
 20
10.5122622512
 30
0.0
 10
12.7248613991
 20
10.5104661615
 30
0.0
 10
12.7296863738
 20
10.5086176887
 30
0.0
 10
12.7342154157
 20
10.5067198799
 30
0.0
 10
12.7384411045
 20
10.5047759437
 30
0.0
 10
12.7423565211
 20
10.5027889988
 30
0.0
 10
12.7459553588
 20
10.5007623593
 30
0.0
 10
12.749231809
 20
10.4986991439
 30
0.0
 10
12.7521807168
 20
10.4966026108
 30
0.0
 10
12.754797394
 20
10.4944757343
 30
0.0
 10
12.7570777244
 20
10.4923214457
 30
0.0
 10
12.7590179024
 20
10.490142348
 30
0.0
 10
12.7606142755
 20
10.4879408174
 30
0.0
 10
12.7618630688
 20
10.4857192707
 30
0.0
 10
12.762759977
 20
10.4834802274
 30
0.0
 10
12.7633006835
 20
10.4812284973
 30
0.0
 10
12.7634215829
 20
10.4797152992
 30
0.0
 10
12.7634215829
 20
10.4789685468
 30
0.0
  0
SPLINE
  5
3A8
100
AcDbEntity
  8
0
100
AcDbSpline
 62
7
  6
CONTINUOUS
 70
0
 71
3
 72
39
 73
35
 74
0
 42
0.0000001
 43
0.0000001
 44
0.0000000001
 40
0.0
 40
0.0
 40
0.0
 40
0.0
 40
0.0304897483
 40
0.0610908626
 40
0.0918032959
 40
0.1226257792
 40
0.1535558479
 40
0.1845898806
 40
0.2157231489
 40
0.2469498789
 40
0.2782633205
 40
0.3096558262
 40
0.341118936
 40
0.3726434694
 40
0.404219623
 40
0.4358370719
 40
0.4674850763
 40
0.4991525901
 40
0.5308283723
 40
0.5625011
 40
0.5941594808
 40
0.6257923656
 40
0.6573888603
 40
0.6889384359
 40
0.7204310352
 40
0.7518571774
 40
0.7832080584
 40
0.8144756429
 40
0.8456527656
 40
0.8767331641
 40
0.9077117181
 40
0.9385840171
 40
0.9693476793
 40
1.0
 40
1.0
 40
1.0
 40
1.0
 10
11.8925329455
 20
8.8065527683
 30
0.0
 10
11.8823218468
 20
8.8061180429
 30
0.0
 10
11.8618350915
 20
8.8057915812
 30
0.0
 10
11.8310694727
 20
8.8069247655
 30
0.0
 10
11.8002934922
 20
8.8096765696
 30
0.0
 10
11.7695932997
 20
8.814039339
 30
0.0
 10
11.7390533708
 20
8.8200009268
 30
0.0
 10
11.7087581192
 20
8.8275447925
 30
0.0
 10
11.678791167
 20
8.8366500252
 30
0.0
 10
11.6492352479
 20
8.8472914071
 30
0.0
 10
11.6201719458
 20
8.85943949
 30
0.0
 10
11.5916814814
 20
8.873060676
 30
0.0
 10
11.5638424895
 20
8.8881173105
 30
0.0
 10
11.5367318046
 20
8.9045677864
 30
0.0
 10
11.5104242508
 20
8.9223666581
 30
0.0
 10
11.4849924361
 20
8.9414647667
 30
0.0
 10
11.4605065548
 20
8.9618093757
 30
0.0
 10
11.4370341887
 20
8.9833443096
 30
0.0
 10
11.4146401232
 20
9.0060101117
 30
0.0
 10
11.3933861729
 20
9.0297442116
 30
0.0
 10
11.3733310108
 20
9.0544810958
 30
0.0
 10
11.3545300083
 20
9.0801524878
 30
0.0
 10
11.3370350824
 20
9.1066875348
 30
0.0
 10
11.3208945538
 20
9.1340130023
 30
0.0
 10
11.3061530139
 20
9.1620534741
 30
0.0
 10
11.2928512019
 20
9.1907315604
 30
0.0
 10
11.2810258861
 20
9.2199681041
 30
0.0
 10
11.2707097595
 20
9.2496824067
 30
0.0
 10
11.2619313787
 20
9.2797924343
 30
0.0
 10
11.254715012
 20
9.3102151041
 30
0.0
 10
11.2490807428
 20
9.3408662867
 30
0.0
 10
11.2450440665
 20
9.3716617802
 30
0.0
 10
11.2426164213
 20
9.4025152599
 30
0.0
 10
11.2420741023
 20
9.4231062771
 30
0.0
 10
11.2420741023
 20
9.4333811207
 30
0.0
  0
SPLINE
  5
3A9
100
AcDbEntity
  8
0
100
AcDbSpline
 62
7
  6
CONTINUOUS
 70
0
 71
3
 72
71
 73
67
 74
0
 42
0.0000001
 43
0.0000001
 44
0.0000000001
 40
0.0
 40
0.0
 40
0.0
 40
0.0
 40
0.0155842752
 40
0.0311159217
 40
0.0465952561
 40
0.062023882
 40
0.0774034483
 40
0.0927362826
 40
0.1080251228
 40
0.1232731737
 40
0.1384840559
 40
0.1536617767
 40
0.1688106901
 40
0.183935453
 40
0.199040978
 40
0.2141323819
 40
0.2292149319
 40
0.2442939897
 40
0.2593749544
 40
0.2744632045
 40
0.289564041
 40
0.3046826303
 40
0.3198239506
 40
0.3349927389
 40
0.3501934431
 40
0.3654301768
 40
0.3807066784
 40
0.3960262758
 40
0.4113918559
 40
0.4268058389
 40
0.4422701586
 40
0.4577862477
 40
0.4733550286
 40
0.4889769093
 40
0.5046517847
 40
0.5203790431
 40
0.5361575764
 40
0.5519857966
 40
0.5678616541
 40
0.583782661
 40
0.5997459175
 40
0.6157481412
 40
0.6317856997
 40
0.6478546449
 40
0.6639507506
 40
0.6800695511
 40
0.6962063816
 40
0.7123564195
 40
0.7285147267
 40
0.7446762933
 40
0.7608360806
 40
0.7769890653
 40
0.7931302837
 40
0.8092548749
 40
0.8253581232
 40
0.8414355003
 40
0.8574827056
 40
0.8734957056
 40
0.8894707712
 40
0.9054045129
 40
0.9212939188
 40
0.9371363627
 40
0.9529297122
 40
0.9686721024
 40
0.9843626029
 40
1.0
 40
1.0
 40
1.0
 40
1.0
 10
10.3351285078
 20
7.0292279369
 30
0.0
 10
10.3351285078
 20
7.0176323143
 30
0.0
 10
10.3345610465
 20
6.9944761159
 30
0.0
 10
10.3319994524
 20
6.9598876807
 30
0.0
 10
10.3277347834
 20
6.9255834011
 30
0.0
 10
10.3217774488
 20
6.8916472145
 30
0.0
 10
10.3141415618
 20
6.8581604711
 30
0.0
 10
10.304845527
 20
6.8252040338
 30
0.0
 10
10.2939116295
 20
6.7928573185
 30
0.0
 10
10.2813661617
 20
6.7611983365
 30
0.0
 10
10.2672392894
 20
6.7303034397
 30
0.0
 10
10.2515650185
 20
6.7002471453
 30
0.0
 10
10.2343810941
 20
6.6711019541
 30
0.0
 10
10.2157289118
 20
6.6429381755
 30
0.0
 10
10.1956534186
 20
6.6158237551
 30
0.0
 10
10.1742030051
 20
6.5898241092
 30
0.0
 10
10.151429388
 20
6.5650019642
 30
0.0
 10
10.1273874854
 20
6.5414172039
 30
0.0
 10
10.102135283
 20
6.5191267222
 30
0.0
 10
10.0757337012
 20
6.4981842737
 30
0.0
 10
10.0482464361
 20
6.4786403517
 30
0.0
 10
10.0197398031
 20
6.460542066
 30
0.0
 10
9.9902825748
 20
6.4439330292
 30
0.0
 10
9.9599458132
 20
6.4288532516
 30
0.0
 10
9.9288026961
 20
6.4153390456
 30
0.0
 10
9.8969283384
 20
6.4034229392
 30
0.0
 10
9.86439961
 20
6.3931335988
 30
0.0
 10
9.8312949519
 20
6.3844957485
 30
0.0
 10
9.7976941803
 20
6.3775301254
 30
0.0
 10
9.7636782932
 20
6.3722534316
 30
0.0
 10
9.729329275
 20
6.3686782967
 30
0.0
 10
9.6947298992
 20
6.3668132494
 30
0.0
 10
9.6599635291
 20
6.366662699
 30
0.0
 10
9.625113918
 20
6.3682269273
 30
0.0
 10
9.5902650088
 20
6.3715020889
 30
0.0
 10
9.5555007305
 20
6.376480209
 30
0.0
 10
9.5209047968
 20
6.3831492177
 30
0.0
 10
9.4865605065
 20
6.3914929806
 30
0.0
 10
9.4525505438
 20
6.4014913381
 30
0.0
 10
9.4189567813
 20
6.4131201554
 30
0.0
 10
9.3858600842
 20
6.4263513804
 30
0.0
 10
9.353340118
 20
6.4411531118
 30
0.0
 10
9.3214751577
 20
6.4574896757
 30
0.0
 10
9.2903418941
 20
6.4753217
 30
0.0
 10
9.2600152552
 20
6.4946062215
 30
0.0
 10
9.2305682274
 20
6.5152967893
 30
0.0
 10
9.2020716806
 20
6.5373435762
 30
0.0
 10
9.1745941996
 20
6.5606934978
 30
0.0
 10
9.1482019198
 20
6.5852903398
 30
0.0
 10
9.1229583691
 20
6.6110748921
 30
0.0
 10
9.0989243162
 20
6.6379850909
 30
0.0
 10
9.0761576144
 20
6.6659561586
 30
0.0
 10
9.0547130717
 20
6.6949207691
 30
0.0
 10
9.0346423204
 20
6.7248092088
 30
0.0
 10
9.0159936927
 20
6.7555495429
 30
0.0
 10
8.9988121059
 20
6.7870677879
 30
0.0
 10
8.983138954
 20
6.8192880877
 30
0.0
 10
8.9690120085
 20
6.8521328951
 30
0.0
 10
8.9564653294
 20
6.8855231565
 30
0.0
 10
8.9455291625
 20
6.9193785005
 30
0.0
 10
8.9362299035
 20
6.9536174194
 30
0.0
 10
8.9285899631
 20
6.9881575308
 30
0.0
 10
8.9226278876
 20
7.0229155338
 30
0.0
 10
8.9183579511
 20
7.0578081892
 30
0.0
 10
8.915790728
 20
7.0927501826
 30
0.0
 10
8.915217459
 20
7.1160639541
 30
0.0
 10
8.915217459
 20
7.1276991025
 30
0.0
  0
SPLINE
  5
3AA
100
AcDbEntity
  8
0
100
AcDbSpline
 62
7
  6
CONTINUOUS
 70
0
 71
3
 72
20
 73
16
 74
0
 42
0.0000001
 43
0.0000001
 44
0.0000000001
 40
0.0
 40
0.0
 40
0.0
 40
0.0
 40
0.0860577716
 40
0.13229492
 40
0.1809522822
 40
0.2322204435
 40
0.2862584343
 40
0.3431994243
 40
0.4031568082
 40
0.4662245678
 40
0.5324803705
 40
0.6019916209
 40
0.6748154121
 40
0.8305613682
 40
1.0
 40
1.0
 40
1.0
 40
1.0
 10
10.1363105813
 20
6.7322916762
 30
0.0
 10
10.1363102893
 20
6.7334521088
 30
0.0
 10
10.1364899896
 20
6.7352392618
 30
0.0
 10
10.1370205936
 20
6.7376219616
 30
0.0
 10
10.137589795
 20
6.739510886
 30
0.0
 10
10.1383204145
 20
6.7414555651
 30
0.0
 10
10.1392124001
 20
6.7434546077
 30
0.0
 10
10.1402656759
 20
6.7455060017
 30
0.0
 10
10.1414799227
 20
6.7476081326
 30
0.0
 10
10.1428548834
 20
6.7497593762
 30
0.0
 10
10.1443903829
 20
6.7519581215
 30
0.0
 10
10.1460860164
 20
6.7542030184
 30
0.0
 10
10.1486169437
 20
6.7573264033
 30
0.0
 10
10.1521931777
 20
6.7613324961
 30
0.0
 10
10.1552820785
 20
6.7644473605
 30
0.0
 10
10.156925409
 20
6.766034696
 30
0.0
  0
SPLINE
  5
3AB
100
AcDbEntity
  8
0
100
AcDbSpline
 62
7
  6
CONTINUOUS
 70
0
 71
3
 72
47
 73
43
 74
0
 42
0.0000001
 43
0.0000001
 44
0.0000000001
 40
0.0
 40
0.0
 40
0.0
 40
0.0
 40
0.0949812985
 40
0.1415610895
 40
0.18744415
 40
0.2325641754
 40
0.2768569144
 40
0.3202598847
 40
0.3627122759
 40
0.404155344
 40
0.4445325328
 40
0.4837896136
 40
0.5218748958
 40
0.5587395162
 40
0.5943376471
 40
0.6286267374
 40
0.6615678652
 40
0.6931261859
 40
0.7232713154
 40
0.7519778659
 40
0.7792261968
 40
0.8050033075
 40
0.8293038631
 40
0.840901931
 40
0.8521331922
 40
0.8629998132
 40
0.8735048399
 40
0.8836522819
 40
0.8934470718
 40
0.9028953829
 40
0.912004636
 40
0.9207836104
 40
0.9292427735
 40
0.9373942739
 40
0.945252198
 40
0.9528328259
 40
0.960154658
 40
0.974101641
 40
0.9807834377
 40
0.9873059704
 40
0.9937004046
 40
1.0
 40
1.0
 40
1.0
 40
1.0
 10
13.6673632976
 20
7.5746975285
 30
0.0
 10
13.6673632976
 20
7.5967642675
 30
0.0
 10
13.6670189895
 20
7.629654393
 30
0.0
 10
13.6658331704
 20
7.6731872764
 30
0.0
 10
13.6645972627
 20
7.70512839
 30
0.0
 10
13.6630111018
 20
7.7365219875
 30
0.0
 10
13.661077192
 20
7.7673188366
 30
0.0
 10
13.6587986138
 20
7.7974706543
 30
0.0
 10
13.6561789534
 20
7.826930203
 30
0.0
 10
13.653222363
 20
7.855651317
 30
0.0
 10
13.6499335353
 20
7.8835890145
 30
0.0
 10
13.6463176748
 20
7.9106995444
 30
0.0
 10
13.6423804874
 20
7.9369404632
 30
0.0
 10
13.6381282171
 20
7.962270719
 30
0.0
 10
13.6335676028
 20
7.9866507143
 30
0.0
 10
13.6287058553
 20
8.0100423579
 30
0.0
 10
13.6235506477
 20
8.0324091449
 30
0.0
 10
13.6181101463
 20
8.0537162348
 30
0.0
 10
13.6123929395
 20
8.0739305142
 30
0.0
 10
13.6064080142
 20
8.0930206067
 30
0.0
 10
13.6001647332
 20
8.1109571175
 30
0.0
 10
13.5936728674
 20
8.127712181
 30
0.0
 10
13.5879790176
 20
8.1408662775
 30
0.0
 10
13.5832952028
 20
8.1507644097
 30
0.0
 10
13.5797812473
 20
8.157760808
 30
0.0
 10
13.5762128426
 20
8.1644430912
 30
0.0
 10
13.5725913126
 20
8.1708086845
 30
0.0
 10
13.5689181012
 20
8.176855154
 30
0.0
 10
13.5651945257
 20
8.1825801315
 30
0.0
 10
13.5614220239
 20
8.1879814303
 30
0.0
 10
13.5576020167
 20
8.1930569828
 30
0.0
 10
13.5537358345
 20
8.1978047781
 30
0.0
 10
13.5498249595
 20
8.2022230143
 30
0.0
 10
13.5458707283
 20
8.206309962
 30
0.0
 10
13.541874628
 20
8.2100638725
 30
0.0
 10
13.5378376785
 20
8.2134835416
 30
0.0
 10
13.5324908693
 20
8.2175288362
 30
0.0
 10
13.5269734713
 20
8.2209921467
 30
0.0
 10
13.5213143978
 20
8.2237882934
 30
0.0
 10
13.5170966907
 20
8.2255149612
 30
0.0
 10
13.512848103
 20
8.2268993797
 30
0.0
 10
13.5099792113
 20
8.2275976717
 30
0.0
 10
13.5085446775
 20
8.2278877443
 30
0.0
  0
SPLINE
  5
3AC
100
AcDbEntity
  8
0
100
AcDbSpline
 62
7
  6
CONTINUOUS
 70
0
 71
3
 72
21
 73
17
 74
0
 42
0.0000001
 43
0.0000001
 44
0.0000000001
 40
0.0
 40
0.0
 40
0.0
 40
0.0
 40
0.0414740104
 40
0.0857891345
 40
0.1329528617
 40
0.1829712298
 40
0.2358437012
 40
0.2915626864
 40
0.3501151199
 40
0.4114832968
 40
0.4756444129
 40
0.542570844
 40
0.6122297288
 40
0.6845835308
 40
0.8371970883
 40
1.0
 40
1.0
 40
1.0
 40
1.0
 10
10.156925409
 20
6.766034696
 30
0.0
 10
10.1585053136
 20
6.7675607667
 30
0.0
 10
10.1618390067
 20
6.7706499129
 30
0.0
 10
10.1671682028
 20
6.7752542053
 30
0.0
 10
10.1729863981
 20
6.7799792298
 30
0.0
 10
10.1792873414
 20
6.7848239262
 30
0.0
 10
10.1860649754
 20
6.7897880292
 30
0.0
 10
10.1933120262
 20
6.7948728307
 30
0.0
 10
10.2010207948
 20
6.8000802478
 30
0.0
 10
10.2091825816
 20
6.8054135919
 30
0.0
 10
10.2177880116
 20
6.8108770474
 30
0.0
 10
10.2268268318
 20
6.8164757648
 30
0.0
 10
10.236287758
 20
6.8222160397
 30
0.0
 10
10.2496887834
 20
6.8302103837
 30
0.0
 10
10.2674181964
 20
6.8405770256
 30
0.0
 10
10.281883636
 20
6.848932887
 30
0.0
 10
10.2893492116
 20
6.8532471752
 30
0.0
  0
SPLINE
  5
3AD
100
AcDbEntity
  8
0
100
AcDbSpline
 62
7
  6
CONTINUOUS
 70
0
 71
3
 72
23
 73
19
 74
0
 42
0.0000001
 43
0.0000001
 44
0.0000000001
 40
0.0
 40
0.0
 40
0.0
 40
0.0
 40
0.0637776914
 40
0.1273445726
 40
0.19070205
 40
0.2538561286
 40
0.3168131755
 40
0.3795820937
 40
0.4421733816
 40
0.5045993375
 40
0.566873868
 40
0.6290123843
 40
0.691031656
 40
0.7529496505
 40
0.8147853588
 40
0.8765586069
 40
0.938289857
 40
1.0
 40
1.0
 40
1.0
 40
1.0
 10
10.4304592637
 20
8.8254213406
 30
0.0
 10
10.4304592637
 20
8.8374867002
 30
0.0
 10
10.4310367123
 20
8.861581629
 30
0.0
 10
10.433643279
 20
8.897577542
 30
0.0
 10
10.4379830494
 20
8.9332879965
 30
0.0
 10
10.4440459183
 20
8.9686294519
 30
0.0
 10
10.4518181298
 20
9.0035208704
 30
0.0
 10
10.4612817752
 20
9.0378816853
 30
0.0
 10
10.4724151528
 20
9.0716327127
 30
0.0
 10
10.4851926578
 20
9.1046961134
 30
0.0
 10
10.4995849067
 20
9.1369956345
 30
0.0
 10
10.5155587772
 20
9.1684567744
 30
0.0
 10
10.5330774792
 20
9.1990069559
 30
0.0
 10
10.552100672
 20
9.2285757186
 30
0.0
 10
10.5725844557
 20
9.2570947838
 30
0.0
 10
10.5944818461
 20
9.2844985846
 30
0.0
 10
10.6177414919
 20
9.3107230388
 30
0.0
 10
10.6341234169
 20
9.3273825267
 30
0.0
 10
10.6425201451
 20
9.3354931656
 30
0.0
  0
SPLINE
  5
3AE
100
AcDbEntity
  8
0
100
AcDbSpline
 62
7
  6
CONTINUOUS
 70
0
 71
3
 72
33
 73
29
 74
0
 42
0.0000001
 43
0.0000001
 44
0.0000000001
 40
0.0
 40
0.0
 40
0.0
 40
0.0
 40
0.0958348039
 40
0.1891069742
 40
0.2792500435
 40
0.36572131
 40
0.4480125246
 40
0.5256540669
 40
0.5625988158
 40
0.598226802
 40
0.632494146
 40
0.6653609288
 40
0.6967920316
 40
0.726757616
 40
0.7552336203
 40
0.7822031337
 40
0.8076567456
 40
0.8315949344
 40
0.8540288219
 40
0.8749836671
 40
0.8945009457
 40
0.9126431418
 40
0.9294980666
 40
0.945184889
 40
0.9598599849
 40
0.9737213022
 40
0.9870092614
 40
1.0
 40
1.0
 40
1.0
 40
1.0
 10
8.9848103104
 20
10.7829204597
 30
0.0
 10
8.9903060253
 20
10.7825393305
 30
0.0
 10
9.0011425738
 20
10.7816663921
 30
0.0
 10
9.0171096279
 20
10.7800000696
 30
0.0
 10
9.03249635
 20
10.7780031865
 30
0.0
 10
9.0472001853
 20
10.7756893175
 30
0.0
 10
9.0611230413
 20
10.7730741952
 30
0.0
 10
9.0721735847
 20
10.770619932
 30
0.0
 10
9.0805467853
 20
10.7685084801
 30
0.0
 10
9.0864709417
 20
10.7668872386
 30
0.0
 10
9.0921339477
 20
10.7652048913
 30
0.0
 10
9.0975263955
 20
10.7634642045
 30
0.0
 10
9.1026393359
 20
10.7616681148
 30
0.0
 10
9.1074643106
 20
10.759819642
 30
0.0
 10
9.1119933525
 20
10.7579218332
 30
0.0
 10
9.1162190413
 20
10.755977897
 30
0.0
 10
9.1201344579
 20
10.753990952
 30
0.0
 10
9.1237332956
 20
10.7519643126
 30
0.0
 10
9.1270097458
 20
10.7499010972
 30
0.0
 10
9.1299586536
 20
10.7478045641
 30
0.0
 10
9.1325753308
 20
10.7456776876
 30
0.0
 10
9.1348556612
 20
10.743523399
 30
0.0
 10
9.1367958392
 20
10.7413443013
 30
0.0
 10
9.1383922123
 20
10.7391427707
 30
0.0
 10
9.1396410056
 20
10.7369212239
 30
0.0
 10
9.1405379138
 20
10.7346821807
 30
0.0
 10
9.1410786203
 20
10.7324304506
 30
0.0
 10
9.1411995197
 20
10.7309172525
 30
0.0
 10
9.1411995197
 20
10.7301705001
 30
0.0
  0
SPLINE
  5
3AF
100
AcDbEntity
  8
0
100
AcDbSpline
 62
7
  6
CONTINUOUS
 70
0
 71
3
 72
23
 73
19
 74
0
 42
0.0000001
 43
0.0000001
 44
0.0000000001
 40
0.0
 40
0.0
 40
0.0
 40
0.0
 40
0.0637776914
 40
0.1273445726
 40
0.19070205
 40
0.2538561286
 40
0.3168131755
 40
0.3795820937
 40
0.4421733816
 40
0.5045993375
 40
0.566873868
 40
0.6290123843
 40
0.691031656
 40
0.7529496505
 40
0.8147853588
 40
0.8765586069
 40
0.938289857
 40
1.0
 40
1.0
 40
1.0
 40
1.0
 10
8.8617955588
 20
7.1230975064
 30
0.0
 10
8.8617955588
 20
7.135162866
 30
0.0
 10
8.8623730075
 20
7.1592577948
 30
0.0
 10
8.8649795741
 20
7.1952537078
 30
0.0
 10
8.8693193445
 20
7.2309641623
 30
0.0
 10
8.8753822135
 20
7.2663056177
 30
0.0
 10
8.883154425
 20
7.3011970362
 30
0.0
 10
8.8926180703
 20
7.3355578512
 30
0.0
 10
8.9037514479
 20
7.3693088785
 30
0.0
 10
8.916528953
 20
7.4023722792
 30
0.0
 10
8.9309212018
 20
7.4346718004
 30
0.0
 10
8.9468950724
 20
7.4661329402
 30
0.0
 10
8.9644137744
 20
7.4966831218
 30
0.0
 10
8.9834369671
 20
7.5262518844
 30
0.0
 10
9.0039207509
 20
7.5547709496
 30
0.0
 10
9.0258181413
 20
7.5821747504
 30
0.0
 10
9.0490777871
 20
7.6083992047
 30
0.0
 10
9.065459712
 20
7.6250586925
 30
0.0
 10
9.0738564403
 20
7.6331693314
 30
0.0
  0
SPLINE
  5
3B0
100
AcDbEntity
  8
0
100
AcDbSpline
 62
7
  6
CONTINUOUS
 70
0
 71
3
 72
53
 73
49
 74
0
 42
0.0000001
 43
0.0000001
 44
0.0000000001
 40
0.0
 40
0.0
 40
0.0
 40
0.0
 40
0.0412513386
 40
0.0829788473
 40
0.1250586474
 40
0.1673651226
 40
0.2097720153
 40
0.2521526031
 40
0.2943802911
 40
0.336329056
 40
0.3778739382
 40
0.4188915225
 40
0.4592604266
 40
0.4988617949
 40
0.5375798003
 40
0.5753021606
 40
0.6119206729
 40
0.6473317759
 40
0.6814371515
 40
0.7141443835
 40
0.7299469253
 40
0.7453683589
 40
0.7603991304
 40
0.7750302497
 40
0.7892532526
 40
0.8030603391
 40
0.8164443038
 40
0.829398727
 40
0.8419178829
 40
0.8539969827
 40
0.8656320776
 40
0.8768203521
 40
0.8875600468
 40
0.8978508009
 40
0.9076936305
 40
0.9170913237
 40
0.9260485181
 40
0.9345721636
 40
0.9426717464
 40
0.9503598442
 40
0.9576525367
 40
0.9645700612
 40
0.9711373971
 40
0.9773849405
 40
0.9833490763
 40
0.9890725518
 40
0.9946045223
 40
1.0
 40
1.0
 40
1.0
 40
1.0
 10
13.6673632976
 20
7.5746975285
 30
0.0
 10
13.6673632976
 20
7.5586821439
 30
0.0
 10
13.6671181733
 20
7.5264660214
 30
0.0
 10
13.6660341553
 20
7.4779238361
 30
0.0
 10
13.6642347394
 20
7.4289929042
 30
0.0
 10
13.6617256053
 20
7.3798291787
 30
0.0
 10
13.6585147354
 20
7.3305892691
 30
0.0
 10
13.6546123472
 20
7.2814300173
 30
0.0
 10
13.6500308853
 20
7.2325080175
 30
0.0
 10
13.64478497
 20
7.1839790987
 30
0.0
 10
13.6388913557
 20
7.1359978309
 30
0.0
 10
13.6323688767
 20
7.0887170277
 30
0.0
 10
13.6252383883
 20
7.0422872551
 30
0.0
 10
13.6175227015
 20
6.9968563463
 30
0.0
 10
13.6092465117
 20
6.9525689263
 30
0.0
 10
13.6004363223
 20
6.9095659352
 30
0.0
 10
13.5911203589
 20
6.8679841958
 30
0.0
 10
13.5813284924
 20
6.8279558641
 30
0.0
 10
13.5710921015
 20
6.7896083417
 30
0.0
 10
13.56211902
 20
6.75881114
 30
0.0
 10
13.5547292772
 20
6.7351155135
 30
0.0
 10
13.5491600473
 20
6.718042445
 30
0.0
 10
13.5435047879
 20
6.7014775149
 30
0.0
 10
13.5377680113
 20
6.6854338735
 30
0.0
 10
13.5319542614
 20
6.6699242804
 30
0.0
 10
13.5260682294
 20
6.654961044
 30
0.0
 10
13.5201145462
 20
6.6405560525
 30
0.0
 10
13.5140980319
 20
6.6267207143
 30
0.0
 10
13.5080233958
 20
6.6134660086
 30
0.0
 10
13.5018955617
 20
6.6008023997
 30
0.0
 10
13.4957192994
 20
6.5887399187
 30
0.0
 10
13.489499606
 20
6.5772880444
 30
0.0
 10
13.4832412892
 20
6.5664558214
 30
0.0
 10
13.4769493778
 20
6.556251706
 30
0.0
 10
13.4706286856
 20
6.5466837211
 30
0.0
 10
13.4642842156
 20
6.5377592727
 30
0.0
 10
13.4579207369
 20
6.5294853376
 30
0.0
 10
13.4515431453
 20
6.5218682673
 30
0.0
 10
13.4451560882
 20
6.5149140004
 30
0.0
 10
13.4387642468
 20
6.5086278883
 30
0.0
 10
13.4323720519
 20
6.5030149221
 30
0.0
 10
13.4259838741
 20
6.4980796352
 30
0.0
 10
13.4196039045
 20
6.493826322
 30
0.0
 10
13.4132362683
 20
6.490259069
 30
0.0
 10
13.4068852864
 20
6.4873818757
 30
0.0
 10
13.4005552025
 20
6.485198728
 30
0.0
 10
13.394252284
 20
6.4837134248
 30
0.0
 10
13.3900326382
 20
6.4831858962
 30
0.0
 10
13.3879427834
 20
6.4830429814
 30
0.0
  0
SPLINE
  5
3B1
100
AcDbEntity
  8
0
100
AcDbSpline
 62
7
  6
CONTINUOUS
 70
0
 71
3
 72
41
 73
37
 74
0
 42
0.0000001
 43
0.0000001
 44
0.0000000001
 40
0.0
 40
0.0
 40
0.0
 40
0.0
 40
0.0302662093
 40
0.0454436825
 40
0.0606503944
 40
0.0911499791
 40
0.1217704871
 40
0.1371279292
 40
0.152515731
 40
0.1833785845
 40
0.2143597119
 40
0.2454551511
 40
0.276659497
 40
0.3079659837
 40
0.3393665824
 40
0.3708521104
 40
0.4024123531
 40
0.4340361944
 40
0.4657117558
 40
0.4974265417
 40
0.5291675912
 40
0.5609216321
 40
0.5926752387
 40
0.6244149905
 40
0.6561276306
 40
0.6878002234
 40
0.7194203089
 40
0.7509760533
 40
0.7824563948
 40
0.8138511811
 40
0.8451513018
 40
0.8763488026
 40
0.9074370139
 40
0.9384105913
 40
0.9692657371
 40
1.0
 40
1.0
 40
1.0
 40
1.0
 10
10.3263800702
 20
6.9997847456
 30
0.0
 10
10.3150559497
 20
6.9975601632
 30
0.0
 10
10.2979489732
 20
6.9947215769
 30
0.0
 10
10.2749884807
 20
6.991939715
 30
0.0
 10
10.2518673206
 20
6.9898201345
 30
0.0
 10
10.2227798232
 20
6.9884283113
 30
0.0
 10
10.1936032256
 20
6.9887151075
 30
0.0
 10
10.1702340358
 20
6.9899469513
 30
0.0
 10
10.1468173152
 20
6.9918511175
 30
0.0
 10
10.1175768607
 20
6.9954873317
 30
0.0
 10
10.0826936794
 20
7.0018353878
 30
0.0
 10
10.0480923681
 20
7.0101516213
 30
0.0
 10
10.0138867567
 20
7.0204086789
 30
0.0
 10
9.9801884446
 20
7.0325729245
 30
0.0
 10
9.9471076089
 20
7.0466044897
 30
0.0
 10
9.9147523324
 20
7.0624574216
 30
0.0
 10
9.8832283381
 20
7.0800798293
 30
0.0
 10
9.8526386239
 20
7.0994140543
 30
0.0
 10
9.8230831345
 20
7.1203968584
 30
0.0
 10
9.7946584356
 20
7.1429596299
 30
0.0
 10
9.7674574017
 20
7.1670286071
 30
0.0
 10
9.7415689137
 20
7.1925251175
 30
0.0
 10
9.717077571
 20
7.2193658342
 30
0.0
 10
9.6940634164
 20
7.2474630466
 30
0.0
 10
9.6726016762
 20
7.2767249446
 30
0.0
 10
9.6527625156
 20
7.3070559174
 30
0.0
 10
9.6346108105
 20
7.3383568636
 30
0.0
 10
9.6182059362
 20
7.3705255125
 30
0.0
 10
9.6036015743
 20
7.4034567556
 30
0.0
 10
9.5908455359
 20
7.4370429902
 30
0.0
 10
9.5799796098
 20
7.4711744552
 30
0.0
 10
9.5710394142
 20
7.5057396377
 30
0.0
 10
9.5640543036
 20
7.5406254455
 30
0.0
 10
9.5590472235
 20
7.5757182648
 30
0.0
 10
9.5560347102
 20
7.6109018191
 30
0.0
 10
9.5553614033
 20
7.6343913698
 30
0.0
 10
9.5553614033
 20
7.6461103973
 30
0.0
  0
SPLINE
  5
3B2
100
AcDbEntity
  8
0
100
AcDbSpline
 62
7
  6
CONTINUOUS
 70
0
 71
3
 72
57
 73
53
 74
0
 42
0.0000001
 43
0.0000001
 44
0.0000000001
 40
0.0
 40
0.0
 40
0.0
 40
0.0
 40
0.0452110465
 40
0.0910027698
 40
0.1371912899
 40
0.1835896178
 40
0.2300102179
 40
0.2762652744
 40
0.3221678628
 40
0.3675328648
 40
0.4121779514
 40
0.4559245655
 40
0.4985989182
 40
0.5400330108
 40
0.5800656962
 40
0.6185438014
 40
0.6371548672
 40
0.6553241289
 40
0.6730352101
 40
0.6902725778
 40
0.7070214147
 40
0.7232678628
 40
0.7389989442
 40
0.7542027293
 40
0.7688684152
 40
0.7829863638
 40
0.7965483704
 40
0.8095476168
 40
0.8219790731
 40
0.8338395114
 40
0.845127934
 40
0.8558458262
 40
0.8659975671
 40
0.8755910394
 40
0.8846381117
 40
0.8931556374
 40
0.9011662069
 40
0.9086994629
 40
0.9157932415
 40
0.9224949103
 40
0.9288624523
 40
0.9349648844
 40
0.9408817647
 40
0.9467010563
 40
0.9525155983
 40
0.9584184703
 40
0.9644983266
 40
0.9708356729
 40
0.97750068
 40
0.9845523957
 40
0.9920392651
 40
1.0
 40
1.0
 40
1.0
 40
1.0
 10
13.6117172488
 20
7.5209475697
 30
0.0
 10
13.6117172488
 20
7.5068758777
 30
0.0
 10
13.6114662891
 20
7.4785511914
 30
0.0
 10
13.6103596837
 20
7.4358635769
 30
0.0
 10
13.608524727
 20
7.3928311029
 30
0.0
 10
13.6059692483
 20
7.3496393865
 30
0.0
 10
13.6027042714
 20
7.3064747265
 30
0.0
 10
13.5987438766
 20
7.2635232393
 30
0.0
 10
13.5941051867
 20
7.2209701393
 30
0.0
 10
13.5888082741
 20
7.1789989018
 30
0.0
 10
13.5828760836
 20
7.1377904724
 30
0.0
 10
13.5763343369
 20
7.0975224668
 30
0.0
 10
13.5692114161
 20
7.058368419
 30
0.0
 10
13.5615382628
 20
7.020496924
 30
0.0
 10
13.5533481843
 20
6.9840712232
 30
0.0
 10
13.5460434312
 20
6.9547351519
 30
0.0
 10
13.5399549897
 20
6.932115907
 30
0.0
 10
13.5353327354
 20
6.9157972263
 30
0.0
 10
13.5306088588
 20
6.8999533077
 30
0.0
 10
13.5257885026
 20
6.8846011921
 30
0.0
 10
13.5208768234
 20
6.8697574195
 30
0.0
 10
13.515879187
 20
6.8554379535
 30
0.0
 10
13.5108009651
 20
6.8416581977
 30
0.0
 10
13.5056476535
 20
6.8284329574
 30
0.0
 10
13.5004248453
 20
6.8157764232
 30
0.0
 10
13.4951381255
 20
6.8037021754
 30
0.0
 10
13.4897932692
 20
6.7922231173
 30
0.0
 10
13.4843959418
 20
6.7813515324
 30
0.0
 10
13.4789520156
 20
6.7710989754
 30
0.0
 10
13.4734672426
 20
6.76147635
 30
0.0
 10
13.467947478
 20
6.7524938174
 30
0.0
 10
13.4623985315
 20
6.7441608202
 30
0.0
 10
13.4568261196
 20
6.7364860967
 30
0.0
 10
13.4512359957
 20
6.7294775802
 30
0.0
 10
13.4456336045
 20
6.7231425945
 30
0.0
 10
13.4400244129
 20
6.7174876373
 30
0.0
 10
13.4344134474
 20
6.7125187511
 30
0.0
 10
13.4288056255
 20
6.7082413714
 30
0.0
 10
13.4232055295
 20
6.7046607353
 30
0.0
 10
13.4176176953
 20
6.7017820503
 30
0.0
 10
13.4120470136
 20
6.6996105671
 30
0.0
 10
13.4064991995
 20
6.6981518747
 30
0.0
 10
13.4009816113
 20
6.6974108236
 30
0.0
 10
13.3955033066
 20
6.697391177
 30
0.0
 10
13.3900745621
 20
6.6980937484
 30
0.0
 10
13.384705507
 20
6.6995165584
 30
0.0
 10
13.3794048436
 20
6.7016549614
 30
0.0
 10
13.3741792806
 20
6.7045030116
 30
0.0
 10
13.3690339816
 20
6.7080545724
 30
0.0
 10
13.3639729234
 20
6.7123036195
 30
0.0
 10
13.3590002609
 20
6.7172442114
 30
0.0
 10
13.3558467616
 20
6.7208795538
 30
0.0
 10
13.3542833835
 20
6.7228017977
 30
0.0
  0
SPLINE
  5
3B3
100
AcDbEntity
  8
0
100
AcDbSpline
 62
7
  6
CONTINUOUS
 70
0
 71
3
 72
39
 73
35
 74
0
 42
0.0000001
 43
0.0000001
 44
0.0000000001
 40
0.0
 40
0.0
 40
0.0
 40
0.0
 40
0.0304897483
 40
0.0610908626
 40
0.0918032959
 40
0.1226257792
 40
0.1535558479
 40
0.1845898806
 40
0.2157231489
 40
0.2469498789
 40
0.2782633205
 40
0.3096558262
 40
0.341118936
 40
0.3726434694
 40
0.404219623
 40
0.4358370719
 40
0.4674850763
 40
0.4991525901
 40
0.5308283723
 40
0.5625011
 40
0.5941594808
 40
0.6257923656
 40
0.6573888603
 40
0.6889384359
 40
0.7204310352
 40
0.7518571774
 40
0.7832080584
 40
0.8144756429
 40
0.8456527656
 40
0.8767331641
 40
0.9077117181
 40
0.9385840171
 40
0.9693476793
 40
1.0
 40
1.0
 40
1.0
 40
1.0
 10
10.3238692406
 20
7.1042289342
 30
0.0
 10
10.313658142
 20
7.1037942087
 30
0.0
 10
10.2931713866
 20
7.103467747
 30
0.0
 10
10.2624057678
 20
7.1046009313
 30
0.0
 10
10.2316297873
 20
7.1073527354
 30
0.0
 10
10.2009295948
 20
7.1117155048
 30
0.0
 10
10.1703896659
 20
7.1176770926
 30
0.0
 10
10.1400944144
 20
7.1252209584
 30
0.0
 10
10.1101274622
 20
7.134326191
 30
0.0
 10
10.080571543
 20
7.1449675729
 30
0.0
 10
10.051508241
 20
7.1571156558
 30
0.0
 10
10.0230177766
 20
7.1707368418
 30
0.0
 10
9.9951787846
 20
7.1857934764
 30
0.0
 10
9.9680680998
 20
7.2022439522
 30
0.0
 10
9.9417605459
 20
7.2200428239
 30
0.0
 10
9.9163287312
 20
7.2391409325
 30
0.0
 10
9.8918428499
 20
7.2594855416
 30
0.0
 10
9.8683704838
 20
7.2810204754
 30
0.0
 10
9.8459764184
 20
7.3036862775
 30
0.0
 10
9.824722468
 20
7.3274203774
 30
0.0
 10
9.804667306
 20
7.3521572616
 30
0.0
 10
9.7858663034
 20
7.3778286536
 30
0.0
 10
9.7683713775
 20
7.4043637006
 30
0.0
 10
9.752230849
 20
7.4316891681
 30
0.0
 10
9.737489309
 20
7.45972964
 30
0.0
 10
9.7241874971
 20
7.4884077262
 30
0.0
 10
9.7123621812
 20
7.5176442699
 30
0.0
 10
9.7020460546
 20
7.5473585726
 30
0.0
 10
9.6932676738
 20
7.5774686001
 30
0.0
 10
9.6860513072
 20
7.60789127
 30
0.0
 10
9.6804170379
 20
7.6385424525
 30
0.0
 10
9.6763803617
 20
7.669337946
 30
0.0
 10
9.6739527164
 20
7.7001914258
 30
0.0
 10
9.6734103975
 20
7.7207824429
 30
0.0
 10
9.6734103975
 20
7.7310572865
 30
0.0
  0
SPLINE
  5
3B4
100
AcDbEntity
  8
0
100
AcDbSpline
 62
4
  6
CONTINUOUS
 70
0
 71
3
 72
313
 73
309
 74
0
 42
0.0000001
 43
0.0000001
 44
0.0000000001
 40
0.0
 40
0.0
 40
0.0
 40
0.0
 40
0.015625
 40
0.0234375
 40
0.03125
 40
0.0390625
 40
0.046875
 40
0.05078125
 40
0.0546875
 40
0.056640625
 40
0.05859375
 40
0.060546875
 40
0.0615234375
 40
0.0620117188
 40
0.0625
 40
0.0629882812
 40
0.0634765625
 40
0.064453125
 40
0.06640625
 40
0.068359375
 40
0.0703125
 40
0.07421875
 40
0.078125
 40
0.0859375
 40
0.09375
 40
0.1015625
 40
0.109375
 40
0.11328125
 40
0.1171875
 40
0.119140625
 40
0.12109375
 40
0.123046875
 40
0.1240234375
 40
0.1245117188
 40
0.125
 40
0.1254882812
 40
0.1259765625
 40
0.126953125
 40
0.12890625
 40
0.130859375
 40
0.1328125
 40
0.13671875
 40
0.140625
 40
0.1484375
 40
0.15625
 40
0.1640625
 40
0.171875
 40
0.17578125
 40
0.1796875
 40
0.181640625
 40
0.18359375
 40
0.185546875
 40
0.1865234375
 40
0.1870117188
 40
0.1875
 40
0.1879882812
 40
0.1884765625
 40
0.189453125
 40
0.19140625
 40
0.193359375
 40
0.1953125
 40
0.19921875
 40
0.203125
 40
0.2109375
 40
0.21875
 40
0.2265625
 40
0.234375
 40
0.23828125
 40
0.2421875
 40
0.244140625
 40
0.24609375
 40
0.248046875
 40
0.2490234375
 40
0.2495117188
 40
0.25
 40
0.2504882812
 40
0.2509765625
 40
0.251953125
 40
0.25390625
 40
0.255859375
 40
0.2578125
 40
0.26171875
 40
0.265625
 40
0.2734375
 40
0.28125
 40
0.2890625
 40
0.296875
 40
0.30078125
 40
0.3046875
 40
0.306640625
 40
0.30859375
 40
0.310546875
 40
0.3115234375
 40
0.3120117188
 40
0.3125
 40
0.3129882812
 40
0.3134765625
 40
0.314453125
 40
0.31640625
 40
0.318359375
 40
0.3203125
 40
0.32421875
 40
0.328125
 40
0.3359375
 40
0.34375
 40
0.3515625
 40
0.359375
 40
0.36328125
 40
0.3671875
 40
0.369140625
 40
0.37109375
 40
0.373046875
 40
0.3740234375
 40
0.3745117188
 40
0.375
 40
0.3754882812
 40
0.3759765625
 40
0.376953125
 40
0.37890625
 40
0.380859375
 40
0.3828125
 40
0.38671875
 40
0.390625
 40
0.3984375
 40
0.40625
 40
0.4140625
 40
0.421875
 40
0.42578125
 40
0.4296875
 40
0.431640625
 40
0.43359375
 40
0.435546875
 40
0.4365234375
 40
0.4370117188
 40
0.4375
 40
0.4379882812
 40
0.4384765625
 40
0.439453125
 40
0.44140625
 40
0.443359375
 40
0.4453125
 40
0.44921875
 40
0.453125
 40
0.4609375
 40
0.46875
 40
0.4765625
 40
0.484375
 40
0.48828125
 40
0.4921875
 40
0.494140625
 40
0.49609375
 40
0.498046875
 40
0.4990234375
 40
0.4995117188
 40
0.5
 40
0.5004882812
 40
0.5009765625
 40
0.501953125
 40
0.50390625
 40
0.505859375
 40
0.5078125
 40
0.51171875
 40
0.515625
 40
0.5234375
 40
0.53125
 40
0.5390625
 40
0.546875
 40
0.55078125
 40
0.5546875
 40
0.556640625
 40
0.55859375
 40
0.560546875
 40
0.5615234375
 40
0.5620117188
 40
0.5625
 40
0.5629882812
 40
0.5634765625
 40
0.564453125
 40
0.56640625
 40
0.568359375
 40
0.5703125
 40
0.57421875
 40
0.578125
 40
0.5859375
 40
0.59375
 40
0.6015625
 40
0.609375
 40
0.61328125
 40
0.6171875
 40
0.619140625
 40
0.62109375
 40
0.623046875
 40
0.6240234375
 40
0.6245117188
 40
0.625
 40
0.6254882812
 40
0.6259765625
 40
0.626953125
 40
0.62890625
 40
0.630859375
 40
0.6328125
 40
0.63671875
 40
0.640625
 40
0.6484375
 40
0.65625
 40
0.6640625
 40
0.671875
 40
0.67578125
 40
0.6796875
 40
0.681640625
 40
0.68359375
 40
0.685546875
 40
0.6865234375
 40
0.6870117188
 40
0.6875
 40
0.6879882812
 40
0.6884765625
 40
0.689453125
 40
0.69140625
 40
0.693359375
 40
0.6953125
 40
0.69921875
 40
0.703125
 40
0.7109375
 40
0.71875
 40
0.7265625
 40
0.734375
 40
0.73828125
 40
0.7421875
 40
0.744140625
 40
0.74609375
 40
0.748046875
 40
0.7490234375
 40
0.7495117188
 40
0.75
 40
0.7504882812
 40
0.7509765625
 40
0.751953125
 40
0.75390625
 40
0.755859375
 40
0.7578125
 40
0.76171875
 40
0.765625
 40
0.7734375
 40
0.78125
 40
0.7890625
 40
0.796875
 40
0.80078125
 40
0.8046875
 40
0.806640625
 40
0.80859375
 40
0.810546875
 40
0.8115234375
 40
0.8120117188
 40
0.8125
 40
0.8129882812
 40
0.8134765625
 40
0.814453125
 40
0.81640625
 40
0.818359375
 40
0.8203125
 40
0.82421875
 40
0.828125
 40
0.8359375
 40
0.84375
 40
0.8515625
 40
0.859375
 40
0.86328125
 40
0.8671875
 40
0.869140625
 40
0.87109375
 40
0.873046875
 40
0.8740234375
 40
0.8745117188
 40
0.875
 40
0.8754882812
 40
0.8759765625
 40
0.876953125
 40
0.87890625
 40
0.880859375
 40
0.8828125
 40
0.88671875
 40
0.890625
 40
0.8984375
 40
0.90625
 40
0.9140625
 40
0.921875
 40
0.92578125
 40
0.9296875
 40
0.931640625
 40
0.93359375
 40
0.935546875
 40
0.9365234375
 40
0.9370117188
 40
0.9375
 40
0.9379882812
 40
0.9384765625
 40
0.939453125
 40
0.94140625
 40
0.943359375
 40
0.9453125
 40
0.94921875
 40
0.953125
 40
0.9609375
 40
0.96875
 40
0.9765625
 40
0.984375
 40
1.0
 40
1.0
 40
1.0
 40
1.0
 10
9.1936877922
 20
9.6835460743
 30
0.0
 10
9.1968209791
 20
9.6836359987
 30
0.0
 10
9.2015207595
 20
9.683770885
 30
0.0
 10
9.2077871332
 20
9.6839507345
 30
0.0
 10
9.212486914
 20
9.6840856192
 30
0.0
 10
9.2171866929
 20
9.6842205132
 30
0.0
 10
9.2211031811
 20
9.6843328955
 30
0.0
 10
9.2242363588
 20
9.6844228673
 30
0.0
 10
9.2261946241
 20
9.6844789495
 30
0.0
 10
9.2277611692
 20
9.6845241592
 30
0.0
 10
9.228936262
 20
9.6845571247
 30
0.0
 10
9.2299149209
 20
9.6845875919
 30
0.0
 10
9.2306011304
 20
9.6846030395
 30
0.0
 10
9.2309914571
 20
9.6846210469
 30
0.0
 10
9.2312892532
 20
9.6846086919
 30
0.0
 10
9.2315677413
 20
9.6846951888
 30
0.0
 10
9.2319457936
 20
9.6847760373
 30
0.0
 10
9.2326042472
 20
9.6849335874
 30
0.0
 10
9.2335465358
 20
9.6851502599
 30
0.0
 10
9.2346765799
 20
9.685413862
 30
0.0
 10
9.2361835507
 20
9.6857640758
 30
0.0
 10
9.2380671801
 20
9.686202273
 30
0.0
 10
9.2410810342
 20
9.6869031481
 30
0.0
 10
9.2448483355
 20
9.687779325
 30
0.0
 10
9.2493691049
 20
9.6888306994
 30
0.0
 10
9.2538898689
 20
9.6898820924
 30
0.0
 10
9.2576571839
 20
9.6907582229
 30
0.0
 10
9.2606710105
 20
9.6914591908
 30
0.0
 10
9.2625547097
 20
9.691897152
 30
0.0
 10
9.2640615373
 20
9.69224785
 30
0.0
 10
9.2651920188
 20
9.6925099729
 30
0.0
 10
9.2661329387
 20
9.6927312736
 30
0.0
 10
9.2667938357
 20
9.6928805616
 30
0.0
 10
9.2671679732
 20
9.692974648
 30
0.0
 10
9.2674584863
 20
9.6930204824
 30
0.0
 10
9.2677111186
 20
9.6931608491
 30
0.0
 10
9.268061175
 20
9.6933150309
 30
0.0
 10
9.2686676173
 20
9.6936002121
 30
0.0
 10
9.2695371821
 20
9.6939995818
 30
0.0
 10
9.2705792822
 20
9.6944822635
 30
0.0
 10
9.2719692302
 20
9.6951246382
 30
0.0
 10
9.2737065004
 20
9.6959280177
 30
0.0
 10
9.2764862249
 20
9.6972131951
 30
0.0
 10
9.2799608486
 20
9.6988197462
 30
0.0
 10
9.2841304118
 20
9.7007475713
 30
0.0
 10
9.2882999668
 20
9.7026754144
 30
0.0
 10
9.2917746112
 20
9.7042819206
 30
0.0
 10
9.2945542942
 20
9.7055671878
 30
0.0
 10
9.2962916699
 20
9.7063703391
 30
0.0
 10
9.2976814014
 20
9.7070131823
 30
0.0
 10
9.2987241627
 20
9.7074944325
 30
0.0
 10
9.2995916588
 20
9.7078982807
 30
0.0
 10
9.3002017941
 20
9.7081754672
 30
0.0
 10
9.3005459334
 20
9.7083424585
 30
0.0
 10
9.300816741
 20
9.7084434783
 30
0.0
 10
9.301038991
 20
9.7086370934
 30
0.0
 10
9.3013522618
 20
9.7088629485
 30
0.0
 10
9.3018925942
 20
9.7092732434
 30
0.0
 10
9.3026686233
 20
9.7098515115
 30
0.0
 10
9.3035980924
 20
9.7105488007
 30
0.0
 10
9.3048380012
 20
9.7114773435
 30
0.0
 10
9.3063876761
 20
9.7126384246
 30
0.0
 10
9.3088672739
 20
9.7144959294
 30
0.0
 10
9.3119667303
 20
9.716817888
 30
0.0
 10
9.3156860974
 20
9.7196042033
 30
0.0
 10
9.3194054524
 20
9.7223905343
 30
0.0
 10
9.3225049391
 20
9.7247124537
 30
0.0
 10
9.3249844763
 20
9.7265700368
 30
0.0
 10
9.3265343054
 20
9.7277309188
 30
0.0
 10
9.3277738977
 20
9.7286598703
 30
0.0
 10
9.3287043338
 20
9.7293559109
 30
0.0
 10
9.3294773372
 20
9.7299380855
 30
0.0
 10
9.330023071
 20
9.7303414066
 30
0.0
 10
9.3303276873
 20
9.7305784356
 30
0.0
 10
9.330576521
 20
9.7307377282
 30
0.0
 10
9.3307474849
 20
9.7309676573
 30
0.0
 10
9.3310025987
 20
9.7312495905
 30
0.0
 10
9.3314363926
 20
9.7317544535
 30
0.0
 10
9.3320627144
 20
9.7324696845
 30
0.0
 10
9.3328114686
 20
9.7333305307
 30
0.0
 10
9.3338107967
 20
9.7344774283
 30
0.0
 10
9.3350596181
 20
9.7359113575
 30
0.0
 10
9.3370579217
 20
9.7382054725
 30
0.0
 10
9.3395557359
 20
9.7410731756
 30
0.0
 10
9.3425531428
 20
9.7445143924
 30
0.0
 10
9.3455505344
 20
9.7479556219
 30
0.0
 10
9.348048387
 20
9.7508232933
 30
0.0
 10
9.3500466137
 20
9.7531174716
 30
0.0
 10
9.3512956308
 20
9.7545512402
 30
0.0
 10
9.3522945572
 20
9.7556984675
 30
0.0
 10
9.3530445389
 20
9.7565583065
 30
0.0
 10
9.3536670201
 20
9.7572766886
 30
0.0
 10
9.3541076701
 20
9.7577759263
 30
0.0
 10
9.3543517987
 20
9.7580668725
 30
0.0
 10
9.3545565053
 20
9.7582691168
 30
0.0
 10
9.3546786071
 20
9.7585323889
 30
0.0
 10
9.354870223
 20
9.7588621311
 30
0.0
 10
9.355192126
 20
9.7594490981
 30
0.0
 10
9.3556590061
 20
9.7602824371
 30
0.0
 10
9.356216258
 20
9.7612846633
 30
0.0
 10
9.3569603098
 20
9.7626201898
 30
0.0
 10
9.3578900153
 20
9.7642898633
 30
0.0
 10
9.359377745
 20
9.7669611926
 30
0.0
 10
9.3612373377
 20
9.7703004053
 30
0.0
 10
9.3634688808
 20
9.7743074375
 30
0.0
 10
9.3657004072
 20
9.7783144799
 30
0.0
 10
9.3675600417
 20
9.7816536673
 30
0.0
 10
9.3690476877
 20
9.7843250472
 30
0.0
 10
9.3699776059
 20
9.7859945919
 30
0.0
 10
9.3707212212
 20
9.7873303827
 30
0.0
 10
9.3712798069
 20
9.7883318013
 30
0.0
 10
9.3717425137
 20
9.7891676674
 30
0.0
 10
9.3720718667
 20
9.7897501231
 30
0.0
 10
9.3722515458
 20
9.7900870936
 30
0.0
 10
9.3724103136
 20
9.7903281627
 30
0.0
 10
9.3724773088
 20
9.7906137975
 30
0.0
 10
9.372598647
 20
9.7909790989
 30
0.0
 10
9.3727960741
 20
9.7916256191
 30
0.0
 10
9.3730859105
 20
9.7925454328
 30
0.0
 10
9.3734303766
 20
9.7936508301
 30
0.0
 10
9.3738908304
 20
9.7951241269
 30
0.0
 10
9.3744659986
 20
9.7969659418
 30
0.0
 10
9.3753864907
 20
9.7999127373
 30
0.0
 10
9.3765370289
 20
9.8035962691
 30
0.0
 10
9.37791771
 20
9.8080164903
 30
0.0
 10
9.3792983729
 20
9.8124367193
 30
0.0
 10
9.3804489565
 20
9.8161202318
 30
0.0
 10
9.3813693578
 20
9.8190670657
 30
0.0
 10
9.3819447568
 20
9.820908783
 30
0.0
 10
9.3824047369
 20
9.8223822803
 30
0.0
 10
9.3827506502
 20
9.823487065
 30
0.0
 10
9.3830359585
 20
9.8244087952
 30
0.0
 10
9.383241469
 20
9.8250518941
 30
0.0
 10
9.3833498557
 20
9.8254226773
 30
0.0
 10
9.3834566339
 20
9.8256914738
 30
0.0
 10
9.3834659832
 20
9.8259957851
 30
0.0
 10
9.3835124332
 20
9.8263891456
 30
0.0
 10
9.3835778867
 20
9.8270832982
 30
0.0
 10
9.38367967
 20
9.8280719272
 30
0.0
 10
9.3837982666
 20
9.8292595736
 30
0.0
 10
9.383957633
 20
9.830842651
 30
0.0
 10
9.3841564172
 20
9.8328216522
 30
0.0
 10
9.3844747089
 20
9.8359879679
 30
0.0
 10
9.3848724917
 20
9.839945892
 30
0.0
 10
9.3853498685
 20
9.8446953884
 30
0.0
 10
9.3858272263
 20
9.849444888
 30
0.0
 10
9.3862250567
 20
9.8534028041
 30
0.0
 10
9.386543253
 20
9.8565691358
 30
0.0
 10
9.3867422796
 20
9.8585480961
 30
0.0
 10
9.3869011487
 20
9.8601312576
 30
0.0
 10
9.3870212646
 20
9.861318647
 30
0.0
 10
9.3871182943
 20
9.8623080801
 30
0.0
 10
9.3871922337
 20
9.8630007972
 30
0.0
 10
9.3872250874
 20
9.8633964577
 30
0.0
 10
9.3872762001
 20
9.8636937042
 30
0.0
 10
9.3872261217
 20
9.863989035
 30
0.0
 10
9.3871946472
 20
9.8643834777
 30
0.0
 10
9.3871231214
 20
9.865073441
 30
0.0
 10
9.3870295395
 20
9.8660592656
 30
0.0
 10
9.3869135611
 20
9.8672421855
 30
0.0
 10
9.3867602086
 20
9.8688194364
 30
0.0
 10
9.3865680779
 20
9.8707909916
 30
0.0
 10
9.3862609148
 20
9.8739454846
 30
0.0
 10
9.385876876
 20
9.8778885993
 30
0.0
 10
9.3854160681
 20
9.8826203379
 30
0.0
 10
9.3849552412
 20
9.887352075
 30
0.0
 10
9.38457125
 20
9.8912951932
 30
0.0
 10
9.3842639915
 20
9.8944496793
 30
0.0
 10
9.3840721032
 20
9.8964212521
 30
0.0
 10
9.3839182532
 20
9.8979984668
 30
0.0
 10
9.3838037947
 20
9.8991814973
 30
0.0
 10
9.3837054574
 20
9.9001669758
 30
0.0
 10
9.3836424209
 20
9.900857557
 30
0.0
 10
9.3835973443
 20
9.9012510097
 30
0.0
 10
9.3835890471
 20
9.9015493813
 30
0.0
 10
9.383483237
 20
9.9018352073
 30
0.0
 10
9.3833761704
 20
9.9022206847
 30
0.0
 10
9.3831729564
 20
9.9028932313
 30
0.0
 10
9.382890936
 20
9.9038550781
 30
0.0
 10
9.382548965
 20
9.9050088379
 30
0.0
 10
9.3820942425
 20
9.9065473438
 30
0.0
 10
9.3815254152
 20
9.9084704215
 30
0.0
 10
9.3806155286
 20
9.9115473765
 30
0.0
 10
9.3794780885
 20
9.9153935595
 30
0.0
 10
9.3781131976
 20
9.9200089844
 30
0.0
 10
9.3767482886
 20
9.9246244051
 30
0.0
 10
9.3756108939
 20
9.9284705987
 30
0.0
 10
9.3747009164
 20
9.9315475325
 30
0.0
 10
9.3741323202
 20
9.933470664
 30
0.0
 10
9.3736771234
 20
9.9350090596
 30
0.0
 10
9.3733366013
 20
9.9361631564
 30
0.0
 10
9.3730500476
 20
9.9371239489
 30
0.0
 10
9.3728549262
 20
9.9377983776
 30
0.0
 10
9.3727348933
 20
9.9381808394
 30
0.0
 10
9.3726689118
 20
9.9384759283
 30
0.0
 10
9.3725110249
 20
9.9387395101
 30
0.0
 10
9.3723325667
 20
9.9391019426
 30
0.0
 10
9.3720053285
 20
9.939731079
 30
0.0
 10
9.3715456543
 20
9.9406325223
 30
0.0
 10
9.3709907027
 20
9.9417131084
 30
0.0
 10
9.3702519348
 20
9.9431542901
 30
0.0
 10
9.3693280752
 20
9.9449556302
 30
0.0
 10
9.3678501233
 20
9.947837851
 30
0.0
 10
9.3660026062
 20
9.9514406005
 30
0.0
 10
9.3637856209
 20
9.9557639122
 30
0.0
 10
9.3615686182
 20
9.9600872168
 30
0.0
 10
9.3597211445
 20
9.963689984
 30
0.0
 10
9.3582431057
 20
9.9665721693
 30
0.0
 10
9.357319467
 20
9.9683735995
 30
0.0
 10
9.3565802456
 20
9.9698145962
 30
0.0
 10
9.3560266796
 20
9.9708957475
 30
0.0
 10
9.3555626704
 20
9.9717954227
 30
0.0
 10
9.3552431709
 20
9.9724277154
 30
0.0
 10
9.3550523134
 20
9.9727850907
 30
0.0
 10
9.354932513
 20
9.9730642065
 30
0.0
 10
9.3547234849
 20
9.9733009526
 30
0.0
 10
9.3544759043
 20
9.9736313932
 30
0.0
 10
9.3540281372
 20
9.9742027783
 30
0.0
 10
9.3533960514
 20
9.9750226428
 30
0.0
 10
9.3526343032
 20
9.9760049392
 30
0.0
 10
9.3516197725
 20
9.977315206
 30
0.0
 10
9.350351221
 20
9.9789528552
 30
0.0
 10
9.3483217556
 20
9.981573197
 30
0.0
 10
9.345784849
 20
9.9848485884
 30
0.0
 10
9.3427405947
 20
9.9887790753
 30
0.0
 10
9.3396963255
 20
9.992709551
 30
0.0
 10
9.337159456
 20
9.9959849702
 30
0.0
 10
9.3351299164
 20
9.9986052565
 30
0.0
 10
9.3338615533
 20
10.0002430468
 30
0.0
 10
9.3328466359
 20
10.0015530239
 30
0.0
 10
9.3320860693
 20
10.0025362055
 30
0.0
 10
9.3314502867
 20
10.0033533006
 30
0.0
 10
9.3310091189
 20
10.0039296295
 30
0.0
 10
9.3307509647
 20
10.0042521489
 30
0.0
 10
9.3305744154
 20
10.0045132262
 30
0.0
 10
9.3303326299
 20
10.0047009581
 30
0.0
 10
9.3300330044
 20
10.0049768509
 30
0.0
 10
9.3294980578
 20
10.0054477435
 30
0.0
 10
9.3287393912
 20
10.006126679
 30
0.0
 10
9.3278266188
 20
10.0069387342
 30
0.0
 10
9.3266104175
 20
10.0080224061
 30
0.0
 10
9.3250898822
 20
10.009376677
 30
0.0
 10
9.3226571844
 20
10.0115436888
 30
0.0
 10
9.3196162573
 20
10.014252392
 30
0.0
 10
9.3159671696
 20
10.017502864
 30
0.0
 10
9.3123180703
 20
10.0207533215
 30
0.0
 10
9.3092771722
 20
10.0234620611
 30
0.0
 10
9.3068444165
 20
10.0256289999
 30
0.0
 10
9.3053240282
 20
10.0269834564
 30
0.0
 10
9.3041075252
 20
10.0280667475
 30
0.0
 10
9.3031956747
 20
10.0288799662
 30
0.0
 10
9.3024341234
 20
10.0295552613
 30
0.0
 10
9.3019043265
 20
10.0300326527
 30
0.0
 10
9.3015964499
 20
10.0302981327
 30
0.0
 10
9.3013800092
 20
10.0305178496
 30
0.0
 10
9.3011082694
 20
10.0306587966
 30
0.0
 10
9.3007652385
 20
10.0308742017
 30
0.0
 10
9.3001559475
 20
10.0312383592
 30
0.0
 10
9.2992902302
 20
10.031765277
 30
0.0
 10
9.2982493584
 20
10.0323947136
 30
0.0
 10
9.2968622318
 20
10.033234963
 30
0.0
 10
9.295128083
 20
10.0342849321
 30
0.0
 10
9.2923535793
 20
10.0359650742
 30
0.0
 10
9.2888854034
 20
10.0380651857
 30
0.0
 10
9.2847236132
 20
10.04058535
 30
0.0
 10
9.2805618139
 20
10.0431054982
 30
0.0
 10
9.2770936604
 20
10.0452056499
 30
0.0
 10
9.2743191119
 20
10.0468857115
 30
0.0
 10
9.2725850772
 20
10.0479358855
 30
0.0
 10
9.2711977164
 20
10.0487757145
 30
0.0
 10
9.2701575598
 20
10.0494064353
 30
0.0
 10
9.2692896049
 20
10.049929335
 30
0.0
 10
9.2686843085
 20
10.0503006655
 30
0.0
 10
9.2683348772
 20
10.0505045777
 30
0.0
 10
9.2680827975
 20
10.0506808273
 30
0.0
 10
9.2677925166
 20
10.0507679535
 30
0.0
 10
9.2674188003
 20
10.050915209
 30
0.0
 10
9.2667585885
 20
10.051158422
 30
0.0
 10
9.2658186746
 20
10.0515134417
 30
0.0
 10
9.2646893885
 20
10.051936224
 30
0.0
 10
9.2631841591
 20
10.0525010658
 30
0.0
 10
9.2613024561
 20
10.0532067305
 30
0.0
 10
9.2582918243
 20
10.0543360107
 30
0.0
 10
9.2545285024
 20
10.0557475361
 30
0.0
 10
9.2500125306
 20
10.0574414009
 30
0.0
 10
9.2454965524
 20
10.059135248
 30
0.0
 10
9.2417332466
 20
10.0605468177
 30
0.0
 10
9.2387225826
 20
10.0616760093
 30
0.0
 10
9.2368409614
 20
10.0623818991
 30
0.0
 10
9.2353355643
 20
10.0629462789
 30
0.0
 10
9.2342067904
 20
10.0633704729
 30
0.0
 10
9.233265274
 20
10.0637210757
 30
0.0
 10
9.2326079229
 20
10.0639721736
 30
0.0
 10
9.232229623
 20
10.0641067955
 30
0.0
 10
9.2319534215
 20
10.0642327283
 30
0.0
 10
9.2316484617
 20
10.0642632266
 30
0.0
 10
9.2312518797
 20
10.0643371797
 30
0.0
 10
9.2305531876
 20
10.0644510877
 30
0.0
 10
9.2295574995
 20
10.0646219222
 30
0.0
 10
9.2283616278
 20
10.0648234527
 30
0.0
 10
9.2267674976
 20
10.0650933724
 30
0.0
 10
9.2247747098
 20
10.065430357
 30
0.0
 10
9.2215863191
 20
10.0659697643
 30
0.0
 10
9.2176008068
 20
10.0666439437
 30
0.0
 10
9.2128182023
 20
10.0674529932
 30
0.0
 10
9.2080355951
 20
10.0682620336
 30
0.0
 10
9.2016587864
 20
10.0693407573
 30
0.0
 10
9.1968761797
 20
10.0701497994
 30
0.0
 10
9.1936877752
 20
10.0706891609
 30
0.0
  0
SPLINE
  5
3B5
100
AcDbEntity
  8
0
100
AcDbSpline
 62
4
  6
CONTINUOUS
 70
0
 71
3
 72
313
 73
309
 74
0
 42
0.0000001
 43
0.0000001
 44
0.0000000001
 40
0.0
 40
0.0
 40
0.0
 40
0.0
 40
0.015625
 40
0.0234375
 40
0.03125
 40
0.0390625
 40
0.046875
 40
0.05078125
 40
0.0546875
 40
0.056640625
 40
0.05859375
 40
0.060546875
 40
0.0615234375
 40
0.0620117188
 40
0.0625
 40
0.0629882812
 40
0.0634765625
 40
0.064453125
 40
0.06640625
 40
0.068359375
 40
0.0703125
 40
0.07421875
 40
0.078125
 40
0.0859375
 40
0.09375
 40
0.1015625
 40
0.109375
 40
0.11328125
 40
0.1171875
 40
0.119140625
 40
0.12109375
 40
0.123046875
 40
0.1240234375
 40
0.1245117188
 40
0.125
 40
0.1254882812
 40
0.1259765625
 40
0.126953125
 40
0.12890625
 40
0.130859375
 40
0.1328125
 40
0.13671875
 40
0.140625
 40
0.1484375
 40
0.15625
 40
0.1640625
 40
0.171875
 40
0.17578125
 40
0.1796875
 40
0.181640625
 40
0.18359375
 40
0.185546875
 40
0.1865234375
 40
0.1870117188
 40
0.1875
 40
0.1879882812
 40
0.1884765625
 40
0.189453125
 40
0.19140625
 40
0.193359375
 40
0.1953125
 40
0.19921875
 40
0.203125
 40
0.2109375
 40
0.21875
 40
0.2265625
 40
0.234375
 40
0.23828125
 40
0.2421875
 40
0.244140625
 40
0.24609375
 40
0.248046875
 40
0.2490234375
 40
0.2495117188
 40
0.25
 40
0.2504882812
 40
0.2509765625
 40
0.251953125
 40
0.25390625
 40
0.255859375
 40
0.2578125
 40
0.26171875
 40
0.265625
 40
0.2734375
 40
0.28125
 40
0.2890625
 40
0.296875
 40
0.30078125
 40
0.3046875
 40
0.306640625
 40
0.30859375
 40
0.310546875
 40
0.3115234375
 40
0.3120117188
 40
0.3125
 40
0.3129882812
 40
0.3134765625
 40
0.314453125
 40
0.31640625
 40
0.318359375
 40
0.3203125
 40
0.32421875
 40
0.328125
 40
0.3359375
 40
0.34375
 40
0.3515625
 40
0.359375
 40
0.36328125
 40
0.3671875
 40
0.369140625
 40
0.37109375
 40
0.373046875
 40
0.3740234375
 40
0.3745117188
 40
0.375
 40
0.3754882812
 40
0.3759765625
 40
0.376953125
 40
0.37890625
 40
0.380859375
 40
0.3828125
 40
0.38671875
 40
0.390625
 40
0.3984375
 40
0.40625
 40
0.4140625
 40
0.421875
 40
0.42578125
 40
0.4296875
 40
0.431640625
 40
0.43359375
 40
0.435546875
 40
0.4365234375
 40
0.4370117188
 40
0.4375
 40
0.4379882812
 40
0.4384765625
 40
0.439453125
 40
0.44140625
 40
0.443359375
 40
0.4453125
 40
0.44921875
 40
0.453125
 40
0.4609375
 40
0.46875
 40
0.4765625
 40
0.484375
 40
0.48828125
 40
0.4921875
 40
0.494140625
 40
0.49609375
 40
0.498046875
 40
0.4990234375
 40
0.4995117188
 40
0.5
 40
0.5004882812
 40
0.5009765625
 40
0.501953125
 40
0.50390625
 40
0.505859375
 40
0.5078125
 40
0.51171875
 40
0.515625
 40
0.5234375
 40
0.53125
 40
0.5390625
 40
0.546875
 40
0.55078125
 40
0.5546875
 40
0.556640625
 40
0.55859375
 40
0.560546875
 40
0.5615234375
 40
0.5620117188
 40
0.5625
 40
0.5629882812
 40
0.5634765625
 40
0.564453125
 40
0.56640625
 40
0.568359375
 40
0.5703125
 40
0.57421875
 40
0.578125
 40
0.5859375
 40
0.59375
 40
0.6015625
 40
0.609375
 40
0.61328125
 40
0.6171875
 40
0.619140625
 40
0.62109375
 40
0.623046875
 40
0.6240234375
 40
0.6245117188
 40
0.625
 40
0.6254882812
 40
0.6259765625
 40
0.626953125
 40
0.62890625
 40
0.630859375
 40
0.6328125
 40
0.63671875
 40
0.640625
 40
0.6484375
 40
0.65625
 40
0.6640625
 40
0.671875
 40
0.67578125
 40
0.6796875
 40
0.681640625
 40
0.68359375
 40
0.685546875
 40
0.6865234375
 40
0.6870117188
 40
0.6875
 40
0.6879882812
 40
0.6884765625
 40
0.689453125
 40
0.69140625
 40
0.693359375
 40
0.6953125
 40
0.69921875
 40
0.703125
 40
0.7109375
 40
0.71875
 40
0.7265625
 40
0.734375
 40
0.73828125
 40
0.7421875
 40
0.744140625
 40
0.74609375
 40
0.748046875
 40
0.7490234375
 40
0.7495117188
 40
0.75
 40
0.7504882812
 40
0.7509765625
 40
0.751953125
 40
0.75390625
 40
0.755859375
 40
0.7578125
 40
0.76171875
 40
0.765625
 40
0.7734375
 40
0.78125
 40
0.7890625
 40
0.796875
 40
0.80078125
 40
0.8046875
 40
0.806640625
 40
0.80859375
 40
0.810546875
 40
0.8115234375
 40
0.8120117188
 40
0.8125
 40
0.8129882812
 40
0.8134765625
 40
0.814453125
 40
0.81640625
 40
0.818359375
 40
0.8203125
 40
0.82421875
 40
0.828125
 40
0.8359375
 40
0.84375
 40
0.8515625
 40
0.859375
 40
0.86328125
 40
0.8671875
 40
0.869140625
 40
0.87109375
 40
0.873046875
 40
0.8740234375
 40
0.8745117188
 40
0.875
 40
0.8754882812
 40
0.8759765625
 40
0.876953125
 40
0.87890625
 40
0.880859375
 40
0.8828125
 40
0.88671875
 40
0.890625
 40
0.8984375
 40
0.90625
 40
0.9140625
 40
0.921875
 40
0.92578125
 40
0.9296875
 40
0.931640625
 40
0.93359375
 40
0.935546875
 40
0.9365234375
 40
0.9370117188
 40
0.9375
 40
0.9379882812
 40
0.9384765625
 40
0.939453125
 40
0.94140625
 40
0.943359375
 40
0.9453125
 40
0.94921875
 40
0.953125
 40
0.9609375
 40
0.96875
 40
0.9765625
 40
0.984375
 40
1.0
 40
1.0
 40
1.0
 40
1.0
 10
9.1936877922
 20
10.0706891597
 30
0.0
 10
9.1905546052
 20
10.0705992353
 30
0.0
 10
9.1858548248
 20
10.0704643489
 30
0.0
 10
9.1795884511
 20
10.0702844995
 30
0.0
 10
9.1748886704
 20
10.0701496148
 30
0.0
 10
9.1701888914
 20
10.0700147207
 30
0.0
 10
9.1662724032
 20
10.0699023385
 30
0.0
 10
9.1631392256
 20
10.0698123667
 30
0.0
 10
9.1611809602
 20
10.0697562845
 30
0.0
 10
9.1596144151
 20
10.0697110748
 30
0.0
 10
9.1584393223
 20
10.0696781093
 30
0.0
 10
9.1574606635
 20
10.0696476421
 30
0.0
 10
9.1567744539
 20
10.0696321944
 30
0.0
 10
9.1563841273
 20
10.0696141871
 30
0.0
 10
9.1560863311
 20
10.0696265421
 30
0.0
 10
9.1558078431
 20
10.0695400452
 30
0.0
 10
9.1554297907
 20
10.0694591967
 30
0.0
 10
9.1547713371
 20
10.0693016466
 30
0.0
 10
9.1538290485
 20
10.069084974
 30
0.0
 10
9.1526990044
 20
10.0688213719
 30
0.0
 10
9.1511920337
 20
10.0684711582
 30
0.0
 10
9.1493084042
 20
10.068032961
 30
0.0
 10
9.1462945501
 20
10.0673320859
 30
0.0
 10
9.1425272489
 20
10.066455909
 30
0.0
 10
9.1380064794
 20
10.0654045346
 30
0.0
 10
9.1334857155
 20
10.0643531416
 30
0.0
 10
9.1297184005
 20
10.0634770111
 30
0.0
 10
9.1267045738
 20
10.0627760432
 30
0.0
 10
9.1248208746
 20
10.0623380819
 30
0.0
 10
9.1233140471
 20
10.061987384
 30
0.0
 10
9.1221835655
 20
10.0617252611
 30
0.0
 10
9.1212426456
 20
10.0615039604
 30
0.0
 10
9.1205817487
 20
10.0613546724
 30
0.0
 10
9.1202076111
 20
10.061260586
 30
0.0
 10
9.1199170981
 20
10.0612147516
 30
0.0
 10
9.1196644657
 20
10.0610743848
 30
0.0
 10
9.1193144094
 20
10.0609202031
 30
0.0
 10
9.118707967
 20
10.0606350219
 30
0.0
 10
9.1178384022
 20
10.0602356521
 30
0.0
 10
9.1167963021
 20
10.0597529705
 30
0.0
 10
9.1154063541
 20
10.0591105958
 30
0.0
 10
9.1136690839
 20
10.0583072163
 30
0.0
 10
9.1108893595
 20
10.0570220389
 30
0.0
 10
9.1074147358
 20
10.0554154878
 30
0.0
 10
9.1032451725
 20
10.0534876627
 30
0.0
 10
9.0990756175
 20
10.0515598196
 30
0.0
 10
9.0956009731
 20
10.0499533134
 30
0.0
 10
9.0928212901
 20
10.0486680462
 30
0.0
 10
9.0910839145
 20
10.0478648949
 30
0.0
 10
9.0896941829
 20
10.0472220517
 30
0.0
 10
9.0886514216
 20
10.0467408014
 30
0.0
 10
9.0877839255
 20
10.0463369533
 30
0.0
 10
9.0871737902
 20
10.0460597668
 30
0.0
 10
9.0868296509
 20
10.0458927755
 30
0.0
 10
9.0865588433
 20
10.0457917557
 30
0.0
 10
9.0863365933
 20
10.0455981406
 30
0.0
 10
9.0860233225
 20
10.0453722855
 30
0.0
 10
9.0854829902
 20
10.0449619906
 30
0.0
 10
9.084706961
 20
10.0443837225
 30
0.0
 10
9.083777492
 20
10.0436864333
 30
0.0
 10
9.0825375831
 20
10.0427578905
 30
0.0
 10
9.0809879083
 20
10.0415968093
 30
0.0
 10
9.0785083104
 20
10.0397393046
 30
0.0
 10
9.075408854
 20
10.037417346
 30
0.0
 10
9.0716894869
 20
10.0346310307
 30
0.0
 10
9.067970132
 20
10.0318446997
 30
0.0
 10
9.0648706453
 20
10.0295227803
 30
0.0
 10
9.0623911081
 20
10.0276651972
 30
0.0
 10
9.060841279
 20
10.0265043151
 30
0.0
 10
9.0596016867
 20
10.0255753637
 30
0.0
 10
9.0586712506
 20
10.0248793231
 30
0.0
 10
9.0578982471
 20
10.0242971485
 30
0.0
 10
9.0573525133
 20
10.0238938274
 30
0.0
 10
9.057047897
 20
10.0236567984
 30
0.0
 10
9.0567990634
 20
10.0234975058
 30
0.0
 10
9.0566280994
 20
10.0232675767
 30
0.0
 10
9.0563729857
 20
10.0229856434
 30
0.0
 10
9.0559391918
 20
10.0224807805
 30
0.0
 10
9.05531287
 20
10.0217655495
 30
0.0
 10
9.0545641158
 20
10.0209047033
 30
0.0
 10
9.0535647877
 20
10.0197578057
 30
0.0
 10
9.0523159662
 20
10.0183238765
 30
0.0
 10
9.0503176626
 20
10.0160297614
 30
0.0
 10
9.0478198485
 20
10.0131620584
 30
0.0
 10
9.0448224415
 20
10.0097208416
 30
0.0
 10
9.0418250499
 20
10.0062796121
 30
0.0
 10
9.0393271973
 20
10.0034119406
 30
0.0
 10
9.0373289707
 20
10.0011177624
 30
0.0
 10
9.0360799535
 20
9.9996839938
 30
0.0
 10
9.0350810272
 20
9.9985367665
 30
0.0
 10
9.0343310455
 20
9.9976769275
 30
0.0
 10
9.0337085642
 20
9.9969585454
 30
0.0
 10
9.0332679143
 20
9.9964593076
 30
0.0
 10
9.0330237856
 20
9.9961683614
 30
0.0
 10
9.032819079
 20
9.9959661172
 30
0.0
 10
9.0326969772
 20
9.9957028451
 30
0.0
 10
9.0325053613
 20
9.9953731029
 30
0.0
 10
9.0321834583
 20
9.9947861359
 30
0.0
 10
9.0317165782
 20
9.9939527969
 30
0.0
 10
9.0311593264
 20
9.9929505706
 30
0.0
 10
9.0304152745
 20
9.9916150442
 30
0.0
 10
9.029485569
 20
9.9899453707
 30
0.0
 10
9.0279978393
 20
9.9872740414
 30
0.0
 10
9.0261382467
 20
9.9839348287
 30
0.0
 10
9.0239067035
 20
9.9799277965
 30
0.0
 10
9.0216751771
 20
9.9759207541
 30
0.0
 10
9.0198155426
 20
9.9725815667
 30
0.0
 10
9.0183278966
 20
9.9699101868
 30
0.0
 10
9.0173979784
 20
9.9682406421
 30
0.0
 10
9.0166543632
 20
9.9669048512
 30
0.0
 10
9.0160957774
 20
9.9659034327
 30
0.0
 10
9.0156330706
 20
9.9650675666
 30
0.0
 10
9.0153037176
 20
9.9644851109
 30
0.0
 10
9.0151240385
 20
9.9641481404
 30
0.0
 10
9.0149652707
 20
9.9639070713
 30
0.0
 10
9.0148982756
 20
9.9636214365
 30
0.0
 10
9.0147769374
 20
9.9632561351
 30
0.0
 10
9.0145795102
 20
9.9626096149
 30
0.0
 10
9.0142896738
 20
9.9616898011
 30
0.0
 10
9.0139452077
 20
9.9605844039
 30
0.0
 10
9.0134847539
 20
9.9591111071
 30
0.0
 10
9.0129095858
 20
9.9572692921
 30
0.0
 10
9.0119890936
 20
9.9543224966
 30
0.0
 10
9.0108385555
 20
9.9506389649
 30
0.0
 10
9.0094578744
 20
9.9462187436
 30
0.0
 10
9.0080772114
 20
9.9417985147
 30
0.0
 10
9.0069266279
 20
9.9381150022
 30
0.0
 10
9.0060062265
 20
9.9351681683
 30
0.0
 10
9.0054308276
 20
9.933326451
 30
0.0
 10
9.0049708474
 20
9.9318529537
 30
0.0
 10
9.0046249341
 20
9.930748169
 30
0.0
 10
9.0043396258
 20
9.9298264388
 30
0.0
 10
9.0041341153
 20
9.9291833399
 30
0.0
 10
9.0040257287
 20
9.9288125566
 30
0.0
 10
9.0039189504
 20
9.9285437602
 30
0.0
 10
9.0039096012
 20
9.9282394489
 30
0.0
 10
9.0038631512
 20
9.9278460884
 30
0.0
 10
9.0037976976
 20
9.9271519358
 30
0.0
 10
9.0036959144
 20
9.9261633068
 30
0.0
 10
9.0035773178
 20
9.9249756604
 30
0.0
 10
9.0034179514
 20
9.923392583
 30
0.0
 10
9.0032191671
 20
9.9214135818
 30
0.0
 10
9.0029008754
 20
9.9182472661
 30
0.0
 10
9.0025030927
 20
9.914289342
 30
0.0
 10
9.0020257158
 20
9.9095398456
 30
0.0
 10
9.0015483581
 20
9.904790346
 30
0.0
 10
9.0011505277
 20
9.9008324299
 30
0.0
 10
9.0008323313
 20
9.8976660982
 30
0.0
 10
9.0006333048
 20
9.8956871379
 30
0.0
 10
9.0004744357
 20
9.8941039764
 30
0.0
 10
9.0003543198
 20
9.892916587
 30
0.0
 10
9.00025729
 20
9.8919271539
 30
0.0
 10
9.0001833507
 20
9.8912344367
 30
0.0
 10
9.000150497
 20
9.8908387763
 30
0.0
 10
9.0000993843
 20
9.8905415298
 30
0.0
 10
9.0001494626
 20
9.890246199
 30
0.0
 10
9.0001809371
 20
9.8898517563
 30
0.0
 10
9.0002524629
 20
9.889161793
 30
0.0
 10
9.0003460448
 20
9.8881759684
 30
0.0
 10
9.0004620232
 20
9.8869930485
 30
0.0
 10
9.0006153757
 20
9.8854157976
 30
0.0
 10
9.0008075064
 20
9.8834442424
 30
0.0
 10
9.0011146695
 20
9.8802897493
 30
0.0
 10
9.0014987084
 20
9.8763466347
 30
0.0
 10
9.0019595162
 20
9.8716148961
 30
0.0
 10
9.0024203432
 20
9.8668831589
 30
0.0
 10
9.0028043343
 20
9.8629400408
 30
0.0
 10
9.0031115928
 20
9.8597855547
 30
0.0
 10
9.0033034811
 20
9.8578139818
 30
0.0
 10
9.0034573311
 20
9.8562367672
 30
0.0
 10
9.0035717896
 20
9.8550537367
 30
0.0
 10
9.003670127
 20
9.8540682581
 30
0.0
 10
9.0037331634
 20
9.853377677
 30
0.0
 10
9.00377824
 20
9.8529842243
 30
0.0
 10
9.0037865373
 20
9.8526858527
 30
0.0
 10
9.0038923473
 20
9.8524000267
 30
0.0
 10
9.0039994139
 20
9.8520145493
 30
0.0
 10
9.0042026279
 20
9.8513420027
 30
0.0
 10
9.0044846484
 20
9.8503801559
 30
0.0
 10
9.0048266193
 20
9.8492263961
 30
0.0
 10
9.0052813418
 20
9.8476878902
 30
0.0
 10
9.0058501692
 20
9.8457648124
 30
0.0
 10
9.0067600558
 20
9.8426878575
 30
0.0
 10
9.0078974959
 20
9.8388416745
 30
0.0
 10
9.0092623867
 20
9.8342262496
 30
0.0
 10
9.0106272958
 20
9.8296108288
 30
0.0
 10
9.0117646904
 20
9.8257646353
 30
0.0
 10
9.0126746679
 20
9.8226877015
 30
0.0
 10
9.0132432642
 20
9.82076457
 30
0.0
 10
9.013698461
 20
9.8192261744
 30
0.0
 10
9.014038983
 20
9.8180720776
 30
0.0
 10
9.0143255367
 20
9.8171112851
 30
0.0
 10
9.0145206581
 20
9.8164368564
 30
0.0
 10
9.0146406911
 20
9.8160543946
 30
0.0
 10
9.0147066725
 20
9.8157593057
 30
0.0
 10
9.0148645594
 20
9.8154957239
 30
0.0
 10
9.0150430177
 20
9.8151332914
 30
0.0
 10
9.0153702558
 20
9.814504155
 30
0.0
 10
9.0158299301
 20
9.8136027117
 30
0.0
 10
9.0163848816
 20
9.8125221256
 30
0.0
 10
9.0171236495
 20
9.8110809438
 30
0.0
 10
9.0180475091
 20
9.8092796038
 30
0.0
 10
9.0195254611
 20
9.806397383
 30
0.0
 10
9.0213729782
 20
9.8027946335
 30
0.0
 10
9.0235899635
 20
9.7984713218
 30
0.0
 10
9.0258069662
 20
9.7941480172
 30
0.0
 10
9.0276544398
 20
9.79054525
 30
0.0
 10
9.0291324787
 20
9.7876630647
 30
0.0
 10
9.0300561173
 20
9.7858616345
 30
0.0
 10
9.0307953388
 20
9.7844206377
 30
0.0
 10
9.0313489048
 20
9.7833394865
 30
0.0
 10
9.031812914
 20
9.7824398113
 30
0.0
 10
9.0321324135
 20
9.7818075186
 30
0.0
 10
9.032323271
 20
9.7814501433
 30
0.0
 10
9.0324430713
 20
9.7811710275
 30
0.0
 10
9.0326520995
 20
9.7809342814
 30
0.0
 10
9.03289968
 20
9.7806038408
 30
0.0
 10
9.0333474471
 20
9.7800324557
 30
0.0
 10
9.033979533
 20
9.7792125912
 30
0.0
 10
9.0347412811
 20
9.7782302948
 30
0.0
 10
9.0357558118
 20
9.776920028
 30
0.0
 10
9.0370243633
 20
9.7752823788
 30
0.0
 10
9.0390538288
 20
9.772662037
 30
0.0
 10
9.0415907354
 20
9.7693866456
 30
0.0
 10
9.0446349897
 20
9.7654561587
 30
0.0
 10
9.0476792588
 20
9.761525683
 30
0.0
 10
9.0502161283
 20
9.7582502638
 30
0.0
 10
9.0522456679
 20
9.7556299775
 30
0.0
 10
9.053514031
 20
9.7539921872
 30
0.0
 10
9.0545289485
 20
9.7526822101
 30
0.0
 10
9.055289515
 20
9.7516990285
 30
0.0
 10
9.0559252976
 20
9.7508819334
 30
0.0
 10
9.0563664655
 20
9.7503056045
 30
0.0
 10
9.0566246196
 20
9.7499830851
 30
0.0
 10
9.056801169
 20
9.7497220078
 30
0.0
 10
9.0570429544
 20
9.7495342759
 30
0.0
 10
9.0573425799
 20
9.7492583831
 30
0.0
 10
9.0578775265
 20
9.7487874905
 30
0.0
 10
9.0586361931
 20
9.748108555
 30
0.0
 10
9.0595489656
 20
9.7472964998
 30
0.0
 10
9.0607651668
 20
9.7462128279
 30
0.0
 10
9.0622857021
 20
9.744858557
 30
0.0
 10
9.0647184
 20
9.7426915451
 30
0.0
 10
9.067759327
 20
9.739982842
 30
0.0
 10
9.0714084147
 20
9.7367323699
 30
0.0
 10
9.075057514
 20
9.7334819125
 30
0.0
 10
9.0780984121
 20
9.7307731729
 30
0.0
 10
9.0805311678
 20
9.728606234
 30
0.0
 10
9.0820515561
 20
9.7272517776
 30
0.0
 10
9.0832680592
 20
9.7261684865
 30
0.0
 10
9.0841799096
 20
9.7253552677
 30
0.0
 10
9.0849414609
 20
9.7246799727
 30
0.0
 10
9.0854712578
 20
9.7242025813
 30
0.0
 10
9.0857791344
 20
9.7239371013
 30
0.0
 10
9.0859955751
 20
9.7237173844
 30
0.0
 10
9.086267315
 20
9.7235764374
 30
0.0
 10
9.0866103458
 20
9.7233610323
 30
0.0
 10
9.0872196369
 20
9.7229968748
 30
0.0
 10
9.0880853541
 20
9.722469957
 30
0.0
 10
9.0891262259
 20
9.7218405204
 30
0.0
 10
9.0905133525
 20
9.721000271
 30
0.0
 10
9.0922475013
 20
9.7199503019
 30
0.0
 10
9.095022005
 20
9.7182701598
 30
0.0
 10
9.0984901809
 20
9.7161700483
 30
0.0
 10
9.1026519712
 20
9.713649884
 30
0.0
 10
9.1068137705
 20
9.7111297358
 30
0.0
 10
9.1102819239
 20
9.709029584
 30
0.0
 10
9.1130564724
 20
9.7073495225
 30
0.0
 10
9.1147905072
 20
9.7062993485
 30
0.0
 10
9.1161778679
 20
9.7054595195
 30
0.0
 10
9.1172180245
 20
9.7048287987
 30
0.0
 10
9.1180859794
 20
9.704305899
 30
0.0
 10
9.1186912758
 20
9.7039345685
 30
0.0
 10
9.1190407071
 20
9.7037306563
 30
0.0
 10
9.1192927868
 20
9.7035544067
 30
0.0
 10
9.1195830678
 20
9.7034672805
 30
0.0
 10
9.119956784
 20
9.703320025
 30
0.0
 10
9.1206169958
 20
9.703076812
 30
0.0
 10
9.1215569098
 20
9.7027217923
 30
0.0
 10
9.1226861958
 20
9.70229901
 30
0.0
 10
9.1241914253
 20
9.7017341681
 30
0.0
 10
9.1260731282
 20
9.7010285035
 30
0.0
 10
9.1290837601
 20
9.6998992233
 30
0.0
 10
9.1328470819
 20
9.6984876979
 30
0.0
 10
9.1373630537
 20
9.6967938331
 30
0.0
 10
9.1418790319
 20
9.695099986
 30
0.0
 10
9.1456423377
 20
9.6936884163
 30
0.0
 10
9.1486530017
 20
9.6925592247
 30
0.0
 10
9.150534623
 20
9.6918533349
 30
0.0
 10
9.1520400201
 20
9.6912889551
 30
0.0
 10
9.1531687939
 20
9.690864761
 30
0.0
 10
9.1541103103
 20
9.6905141583
 30
0.0
 10
9.1547676614
 20
9.6902630603
 30
0.0
 10
9.1551459613
 20
9.6901284385
 30
0.0
 10
9.1554221628
 20
9.6900025057
 30
0.0
 10
9.1557271227
 20
9.6899720074
 30
0.0
 10
9.1561237046
 20
9.6898980543
 30
0.0
 10
9.1568223967
 20
9.6897841463
 30
0.0
 10
9.1578180849
 20
9.6896133118
 30
0.0
 10
9.1590139565
 20
9.6894117812
 30
0.0
 10
9.1606080867
 20
9.6891418615
 30
0.0
 10
9.1626008746
 20
9.688804877
 30
0.0
 10
9.1657892652
 20
9.6882654697
 30
0.0
 10
9.1697747775
 20
9.6875912902
 30
0.0
 10
9.174557382
 20
9.6867822407
 30
0.0
 10
9.1793399892
 20
9.6859732004
 30
0.0
 10
9.1857167979
 20
9.6848944767
 30
0.0
 10
9.1904994047
 20
9.6840854346
 30
0.0
 10
9.1936878091
 20
9.6835460731
 30
0.0
  0
ENDSEC
  0
SECTION
  2
OBJECTS
  0
DICTIONARY
  5
C
100
AcDbDictionary
280
0
281
1
  3
ACAD_GROUP
350
D
  3
ACAD_MLINESTYLE
350
17
  3
ACAD_LAYOUT
350
1A
  3
ACAD_PLOTSETTINGS
350
19
  3
ACAD_PLOTSTYLENAME
350
E
  3
ACAD_IMAGE_DICT
350
       3B7
  3
ACAD_IMAGE_VARS
350
       3B8
  3
ACAD_TABLESTYLE
350
       3B9
  0
IMAGEDEF_REACTOR
  5
3B6
100
AcDbRasterImageDefReactor
 90
2
330
28A
  0
DICTIONARY
  5
D
102
{ACAD_REACTORS
330
C
102
}
100
AcDbDictionary
280
0
281
1
  0
ACDBDICTIONARYWDFLT
  5
E
102
{ACAD_REACTORS
330
C
102
}
100
AcDbDictionary
281
1
  3
Normal
350
F
100
AcDbDictionaryWithDefault
340
F
  0
DICTIONARY
  5
3B7
330
C
100
AcDbDictionary
281
1
  3
IMX_assy_2_img_1
350
       3BC
  0
RASTERVARIABLES
  5
3B8
330
C
100
AcDbRasterVariables
 90
0
 70
0
 71
1
 72
5
  0
DICTIONARY
  5
17
102
{ACAD_REACTORS
330
C
102
}
100
AcDbDictionary
280
0
281
1
  3
Standard
350
18
  0
DICTIONARY
  5
3B9
330
C
100
AcDbDictionary
281
1
  3
Standard
350
       3BD
  3
Standard1
350
       3BE
  0
DICTIONARY
  5
19
102
{ACAD_REACTORS
330
C
102
}
100
AcDbDictionary
281
1
  0
DICTIONARY
  5
1A
102
{ACAD_REACTORS
330
C
102
}
100
AcDbDictionary
281
1
  3
Model
350
3BA
  3
Layout1
350
3BB
  0
ACDBPLACEHOLDER
  5
F
102
{ACAD_REACTORS
330
E
102
}
  0
MLINESTYLE
  5
18
102
{ACAD_REACTORS
330
17
102
}
100
AcDbMlineStyle
  2
STANDARD
 70
0
  3

 62
256
 51
90.0
 52
90.0
 71
2
 49
0.5
 62
256
  6
BYLAYER
 49
-0.5
 62
256
  6
BYLAYER
  0
LAYOUT
  5
3BA
102
{ACAD_REACTORS
330
1A
102
}
100
AcDbPlotSettings
  1

  2
none_device
  4
ANSI_C_(22.00_x_17.00_Inches)
  6

 40
0.0
 41
0.0
 42
0.0
 43
0.0
 44
558.8
 45
431.8
 46
0.0
 47
0.0
 48
0.0
 49
0.0
140
0.0
141
0.0
142
1.0
143
1.0
 70
1024
 72
0
 73
0
 74
0
  7

 75
0
147
1.0
148
0.0
149
0.0
100
AcDbLayout
  1
Model
 70
0
 71
0
 10
0.0
 20
0.0
 11
22.0
 21
17.0
 12
0.0
 22
0.0
 32
0.0
 14
0.0
 24
0.0
 34
0.0
 15
0.0
 25
0.0
 35
0.0
146
0.0
 13
0.0
 23
0.0
 33
0.0
 16
1.0
 26
0.0
 36
0.0
 17
0.0
 27
1.0
 37
0.0
 76
0
330
20C
345
0
346
0
  0
LAYOUT
  5
3BB
102
{ACAD_REACTORS
330
1A
102
}
100
AcDbPlotSettings
  1

  2
none_device
  4
ANSI_C_(22.00_x_17.00_Inches)
  6

 40
0.0
 41
0.0
 42
0.0
 43
0.0
 44
558.8
 45
431.8
 46
0.0
 47
0.0
 48
0.0
 49
0.0
140
0.0
141
0.0
142
1.0
143
1.0
 70
0
 72
0
 73
0
 74
0
  7

 75
0
147
1.0
148
0.0
149
0.0
100
AcDbLayout
  1
Layout1
 70
0
 71
1
 10
0.0
 20
0.0
 11
22.0
 21
17.0
 12
0.0
 22
0.0
 32
0.0
 14
0.0
 24
0.0
 34
0.0
 15
0.0
 25
0.0
 35
0.0
146
0.0
 13
0.0
 23
0.0
 33
0.0
 16
1.0
 26
0.0
 36
0.0
 17
0.0
 27
1.0
 37
0.0
 76
0
330
20D
345
0
346
0
  0
IMAGEDEF
  5
3BC
102
{ACAD_REACTORS
330
3B7
330
3B6
102
}
100
AcDbRasterImageDef
 90
0
  1
IMX_assy_2_img_1.png
 10
369.0
 20
92.0
 11
0.0066666667
 21
0.0066666667
280
1
281
0
  0
TABLESTYLE
  5
3BD
102
{ACAD_REACTORS
330
3B9
330
28D
330
28E
102
}
330
3B9
100
AcDbTableStyle
  3
Standard
 70
0
 71
0
 40
0.06
 41
0.06
280
1
281
1
  7
Standard
140
0.18
170
1
 62
0
 63
7
283
0
  7
Standard
140
0.18
170
1
 62
0
 63
7
283
0
  7
Standard
140
0.18
170
1
 62
0
 63
7
283
0
  0
TABLESTYLE
  5
3BE
102
{ACAD_REACTORS
330
3B9
330
28C
102
}
330
3B9
100
AcDbTableStyle
  3
Standard1
 70
1
 71
0
 40
0.06
 41
0.06
280
1
281
1
  7
Standard
140
0.18
170
1
 62
0
 63
7
283
0
  7
Standard
140
0.18
170
1
 62
0
 63
7
283
0
  7
Standard
140
0.18
170
1
 62
0
 63
7
283
0
  0
ENDSEC
  0
EOF
