999
DXF file: IMN_assy_2.dxf
999
Pro/ENGINEER 2014200 by Parametric Technology Corporation
  0
SECTION
  2
HEADER
  9
$ACADVER
  1
AC1021
  9
$DWGCODEPAGE
  3
ANSI_1252
  9
$EXTMAX
 10
22.0
 20
17.0
 30
0.0
  9
$EXTMIN
 10
0.0
 20
0.0
 30
0.0
  9
$LIMMIN
 10
0.0
 20
0.0
  9
$LIMMAX
 10
22.0
 20
17.0
  9
$VIEWCTR
 10
11.0
 20
8.5
  9
$VIEWSIZE
 40
17.0
  9
$CLAYER
  8
0
  9
$LTSCALE
 40
1.21
  9
$CELTYPE
  6
BYLAYER
  9
$DIMSCALE
 40
1.0
  9
$DIMASZ
 40
0.1875
  9
$DIMEXO
 40
0.0625
  9
$DIMDLI
 40
0.836
  9
$DIMEXE
 40
0.125
  9
$DIMCEN
 40
0.198
  9
$DIMLFAC
 40
1.0
  9
$DIMBLK
  1
_FILLED
  9
$DIMTXT
 40
0.1
  9
$DIMTOL
 70
0
  9
$DIMLIM
 70
0
  9
$DIMTFAC
 40
1.0
  9
$DIMGAP
 40
0.09
  9
$DIMDSEP
 70
46
  9
$AUNITS
 70
0
  9
$PDMODE
 70
3
  9
$PDSIZE
 40
0.3125
  9
$HANDSEED
  5
3B7
  9
$TILEMODE
 70
1
  9
$MEASUREMENT
 70
0
  9
$INSUNITS
 70
1
  0
ENDSEC
  0
SECTION
  2
CLASSES
  0
CLASS
  1
ACDBDICTIONARYWDFLT
  2
AcDbDictionaryWithDefault
  3
AutoCAD 2000
 90
0
 91
1
280
0
281
0
  0
CLASS
  1
ACDBPLACEHOLDER
  2
AcDbPlaceHolder
  3
AutoCAD 2000
 90
0
 91
1
280
0
281
0
  0
CLASS
  1
LAYOUT
  2
AcDbLayout
  3
AutoCAD 2000
 90
0
 91
0
280
0
281
0
  0
CLASS
  1
RASTERVARIABLES
  2
AcDbRasterVariables
  3
ISM
 90
0
 91
1
280
0
281
0
  0
CLASS
  1
IMAGEDEF
  2
AcDbRasterImageDef
  3
ISM
 90
0
 91
1
280
0
281
0
  0
CLASS
  1
IMAGEDEF_REACTOR
  2
AcDbRasterImageDefReactor
  3
ISM
 90
0
 91
1
280
0
281
0
  0
CLASS
  1
IMAGE
  2
AcDbRasterImage
  3
ISM
 90
127
 91
1
280
0
281
1
  0
CLASS
  1
TABLESTYLE
  2
AcDbTableStyle
  3
ObjectDBX Classes
 90
2047
 91
1
280
0
281
0
  0
CLASS
  1
ACAD_TABLE
  2
AcDbTable
  3
ObjectDBX Classes
 90
1025
 91
3
280
0
281
1
  0
ENDSEC
  0
SECTION
  2
TABLES
  0
TABLE
  2
VPORT
  5
8
100
AcDbSymbolTable
 70
2
  0
VPORT
  5
1F4
100
AcDbSymbolTableRecord
100
AcDbViewportTableRecord
  2
*ACTIVE
 70
0
 10
0.0
 20
0.0
 11
1.0
 21
1.0
 12
11.0
 22
8.5
 13
0.0
 23
0.0
 14
1.0
 24
1.0
 15
0.0
 25
0.0
 16
0.0
 26
0.0
 36
1.0
 17
0.0
 27
0.0
 37
0.0
 40
17.0
 41
1.2941176471
 42
50.0
 43
0.0
 44
0.0
 50
0.0
 51
0.0
 71
0
 72
100
 73
1
 74
1
 75
0
 76
0
 77
0
 78
0
  0
ENDTAB
  0
TABLE
  2
LTYPE
  5
5
100
AcDbSymbolTable
 70
6
  0
LTYPE
  5
14
100
AcDbSymbolTableRecord
100
AcDbLinetypeTableRecord
  2
BYBLOCK
 70
0
  3

 72
65
 73
0
 40
0.0
  0
LTYPE
  5
15
100
AcDbSymbolTableRecord
100
AcDbLinetypeTableRecord
  2
BYLAYER
 70
0
  3

 72
65
 73
0
 40
0.0
  0
LTYPE
  5
16
100
AcDbSymbolTableRecord
100
AcDbLinetypeTableRecord
  2
CONTINUOUS
 70
64
  3
Solid line
 72
65
 73
0
 40
0.0
  0
LTYPE
  5
1F5
100
AcDbSymbolTableRecord
100
AcDbLinetypeTableRecord
  2
CENTER
 70
64
  3
____ _ ____ _ ____ _ ____ _ ____ _ ____ _ ____
 72
65
 73
4
 40
0.6
 49
0.375
 74
0
 49
-0.075
 74
0
 49
0.075
 74
0
 49
-0.075
 74
0
  0
LTYPE
  5
1F6
100
AcDbSymbolTableRecord
100
AcDbLinetypeTableRecord
  2
HIDDEN
 70
64
  3
- - - - - - - - - - - - - - - - - - - -
 72
65
 73
2
 40
0.2
 49
0.1
 74
0
 49
-0.1
 74
0
  0
LTYPE
  5
1F7
100
AcDbSymbolTableRecord
100
AcDbLinetypeTableRecord
  2
PHANTOM
 70
64
  3
_____ _ _ _____ _ _ _____ _ _ _____
 72
65
 73
6
 40
0.8
 49
0.45
 74
0
 49
-0.05
 74
0
 49
0.1
 74
0
 49
-0.05
 74
0
 49
0.1
 74
0
 49
-0.05
 74
0
  0
LTYPE
  5
1F8
100
AcDbSymbolTableRecord
100
AcDbLinetypeTableRecord
  2
DOT
 70
64
  3
. . . . . . . . . . . . . . . . . . . .
 72
65
 73
2
 40
0.2
 49
0.1
 74
0
 49
-0.1
 74
0
  0
LTYPE
  5
1F9
100
AcDbSymbolTableRecord
100
AcDbLinetypeTableRecord
  2
DASHED
 70
64
  3
- - - - - - - - - - - - - - - - - - - -
 72
65
 73
2
 40
0.2
 49
0.1
 74
0
 49
-0.1
 74
0
  0
ENDTAB
  0
TABLE
  2
LAYER
  5
2
100
AcDbSymbolTable
 70
36
  0
LAYER
  5
10
100
AcDbSymbolTableRecord
100
AcDbLayerTableRecord
  2
0
 70
0
 62
7
  6
CONTINUOUS
370
-3
390
F
  0
LAYER
  5
1FA
100
AcDbSymbolTableRecord
100
AcDbLayerTableRecord
  2
DEFAULT_1
 70
0
 62
7
  6
CENTER
370
-3
390
F
  0
LAYER
  5
1FB
100
AcDbSymbolTableRecord
100
AcDbLayerTableRecord
  2
DEFAULT_2
 70
0
 62
8
  6
HIDDEN
370
-3
390
F
  0
LAYER
  5
1FC
100
AcDbSymbolTableRecord
100
AcDbLayerTableRecord
  2
DEFAULT_3
 70
0
 62
7
  6
PHANTOM
370
-3
390
F
  0
LAYER
  5
1FD
100
AcDbSymbolTableRecord
100
AcDbLayerTableRecord
  2
01___PRT_ALL_DTM_PLN
 70
0
 62
7
  6
CONTINUOUS
370
-3
390
F
  0
LAYER
  5
1FE
100
AcDbSymbolTableRecord
100
AcDbLayerTableRecord
  2
01___PRT_DEF_DTM_PLN
 70
0
 62
7
  6
CONTINUOUS
370
-3
390
F
  0
LAYER
  5
1FF
100
AcDbSymbolTableRecord
100
AcDbLayerTableRecord
  2
02___PRT_ALL_AXES
 70
0
 62
7
  6
CONTINUOUS
370
-3
390
F
  0
LAYER
  5
200
100
AcDbSymbolTableRecord
100
AcDbLayerTableRecord
  2
03___PRT_ALL_CURVES
 70
0
 62
7
  6
CONTINUOUS
370
-3
390
F
  0
LAYER
  5
201
100
AcDbSymbolTableRecord
100
AcDbLayerTableRecord
  2
04___PRT_ALL_DTM_PNT
 70
0
 62
7
  6
CONTINUOUS
370
-3
390
F
  0
LAYER
  5
202
100
AcDbSymbolTableRecord
100
AcDbLayerTableRecord
  2
05___PRT_ALL_DTM_CSYS
 70
0
 62
7
  6
CONTINUOUS
370
-3
390
F
  0
LAYER
  5
203
100
AcDbSymbolTableRecord
100
AcDbLayerTableRecord
  2
05___PRT_DEF_DTM_CSYS
 70
0
 62
7
  6
CONTINUOUS
370
-3
390
F
  0
LAYER
  5
204
100
AcDbSymbolTableRecord
100
AcDbLayerTableRecord
  2
06___PRT_ALL_SURFS
 70
0
 62
7
  6
CONTINUOUS
370
-3
390
F
  0
LAYER
  5
205
100
AcDbSymbolTableRecord
100
AcDbLayerTableRecord
  2
DATUM_PLANES
 70
0
 62
7
  6
CONTINUOUS
370
-3
390
F
  0
LAYER
  5
206
100
AcDbSymbolTableRecord
100
AcDbLayerTableRecord
  2
PORT_AREAS
 70
0
 62
7
  6
CONTINUOUS
370
-3
390
F
  0
LAYER
  5
207
100
AcDbSymbolTableRecord
100
AcDbLayerTableRecord
  2
SUNNBOMCOSMETIC
 70
0
 62
7
  6
CONTINUOUS
370
-3
390
F
  0
LAYER
  5
208
100
AcDbSymbolTableRecord
100
AcDbLayerTableRecord
  2
SUNNBOMSTAMPING
 70
0
 62
7
  6
CONTINUOUS
370
-3
390
F
  0
LAYER
  5
209
100
AcDbSymbolTableRecord
100
AcDbLayerTableRecord
  2
THREADS
 70
0
 62
7
  6
CONTINUOUS
370
-3
390
F
  0
ENDTAB
  0
TABLE
  2
STYLE
  5
3
100
AcDbSymbolTable
 70
1
  0
STYLE
  5
11
100
AcDbSymbolTableRecord
100
AcDbTextStyleTableRecord
  2
STANDARD
 70
0
 40
0.0
 41
0.8
 50
0.0
 71
0
 42
0.2
  3
txt
  4

  0
STYLE
  5
20A
100
AcDbSymbolTableRecord
100
AcDbTextStyleTableRecord
  2
TEXTSTYLE_1
 70
0
 40
0.0
 41
0.8
 50
0.0
 71
0
 42
0.2
  3
gdt
  4

  0
ENDTAB
  0
TABLE
  2
VIEW
  5
6
100
AcDbSymbolTable
 70
0
  0
ENDTAB
  0
TABLE
  2
UCS
  5
7
100
AcDbSymbolTable
 70
0
  0
ENDTAB
  0
TABLE
  2
APPID
  5
9
100
AcDbSymbolTable
 70
1
  0
APPID
  5
20B
100
AcDbSymbolTableRecord
100
AcDbRegAppTableRecord
  2
ACAD
 70
0
  0
ENDTAB
  0
TABLE
  2
BLOCK_RECORD
  5
1
100
AcDbSymbolTable
 70
0
  0
BLOCK_RECORD
  5
20C
100
AcDbSymbolTableRecord
100
AcDbBlockTableRecord
  2
*Model_Space
  0
BLOCK_RECORD
  5
20D
100
AcDbSymbolTableRecord
100
AcDbBlockTableRecord
  2
*Paper_Space
  0
BLOCK_RECORD
  5
20E
100
AcDbSymbolTableRecord
100
AcDbBlockTableRecord
  2
SUN_FIRST_THIRD_ANGLE_BL0
  0
BLOCK_RECORD
  5
20F
100
AcDbSymbolTableRecord
100
AcDbBlockTableRecord
  2
*T1
  0
BLOCK_RECORD
  5
210
100
AcDbSymbolTableRecord
100
AcDbBlockTableRecord
  2
*T2
  0
BLOCK_RECORD
  5
211
100
AcDbSymbolTableRecord
100
AcDbBlockTableRecord
  2
*T3
  0
ENDTAB
  0
TABLE
  2
DIMSTYLE
  5
A
100
AcDbSymbolTable
 70
1
100
AcDbDimStyleTable
 71
0
  0
DIMSTYLE
105
212
100
AcDbSymbolTableRecord
100
AcDbDimStyleTableRecord
  2
STANDARD
 70
0
  3

  4

 40
1.0
 41
0.1875
 42
0.0625
 43
0.38
 44
0.125
 45
0.0
 46
0.0
 47
0.001
 48
0.001
140
0.1
141
0.09
142
0.0
143
25.4
144
1.0
145
0.0
146
1.0
147
0.09
 71
0.0
 72
0.0
 73
1
 74
1
 75
0
 76
0
 77
0
 78
4
170
0
171
2
172
0
173
0
174
0
175
0
176
0
177
0
178
0
270
2
271
3
272
3
273
2
274
2
275
0
280
0
281
0
282
0
283
1
284
4
285
0
286
0
287
3
288
0
340
11
278
46
  0
ENDTAB
  0
ENDSEC
  0
SECTION
  2
BLOCKS
  0
BLOCK
  5
20
100
AcDbEntity
  8
0
100
AcDbBlockBegin
  2
*Model_Space
 70
0
 10
0.0
 20
0.0
 30
0.0
  3
*Model_Space
  1

  0
ENDBLK
  5
21
100
AcDbEntity
  8
0
100
AcDbBlockEnd
  0
BLOCK
  5
1C
100
AcDbEntity
  8
0
100
AcDbBlockBegin
  2
*Paper_Space
 70
0
 10
0.0
 20
0.0
 30
0.0
  3
*Paper_Space
  1

  0
ENDBLK
  5
1D
100
AcDbEntity
  8
0
100
AcDbBlockEnd
  0
BLOCK
  5
213
100
AcDbEntity
  8
0
100
AcDbBlockBegin
 62
2
  6
CONTINUOUS
  2
SUN_FIRST_THIRD_ANGLE_BL0
 70
64
 10
20.4816717061
 20
1.2289683772
  3
SUN_FIRST_THIRD_ANGLE_BL0
  1

  0
TEXT
  5
214
100
AcDbEntity
  8
0
100
AcDbText
 62
2
  6
CONTINUOUS
 10
19.4750896608
 20
1.4136269581
  7
STANDARD
 40
0.08
  1
FIRST ANGLE
 41
0.8
 72
0
100
AcDbText
  0
TEXT
  5
215
100
AcDbEntity
  8
0
100
AcDbText
 62
2
  6
CONTINUOUS
 10
20.7842537513
 20
1.4047600029
  7
STANDARD
 40
0.08
  1
THIRD ANGLE
 41
0.8
 72
0
100
AcDbText
  0
LINE
  5
216
100
AcDbEntity
  8
0
100
AcDbLine
 62
7
  6
CONTINUOUS
 10
19.4767170086
 20
1.1727031207
 11
19.6334271527
 21
1.1717972817
  0
LINE
  5
217
100
AcDbEntity
  8
0
100
AcDbLine
 62
7
  6
CONTINUOUS
 10
19.6596964832
 20
1.1717972817
 11
19.6950230232
 21
1.171593082
  0
LINE
  5
218
100
AcDbEntity
  8
0
100
AcDbLine
 62
7
  6
CONTINUOUS
 10
19.7194818561
 20
1.1708914427
 11
19.8852396156
 21
1.1699333054
  0
LINE
  5
219
100
AcDbEntity
  8
0
100
AcDbLine
 62
7
  6
CONTINUOUS
 10
19.4758111696
 20
1.2723454088
 11
19.88525039
 21
1.3511534004
  0
LINE
  5
21A
100
AcDbEntity
  8
0
100
AcDbLine
 62
7
  6
CONTINUOUS
 10
19.88525039
 20
1.3511534004
 11
19.8831348489
 21
0.9851647912
  0
LINE
  5
21B
100
AcDbEntity
  8
0
100
AcDbLine
 62
7
  6
CONTINUOUS
 10
19.8831348489
 20
0.9851647912
 11
19.4767170086
 21
1.0658141206
  0
LINE
  5
21C
100
AcDbEntity
  8
0
100
AcDbLine
 62
7
  6
CONTINUOUS
 10
19.4767170086
 20
1.0658141206
 11
19.4779056764
 21
1.2714536432
  0
CIRCLE
  5
21D
100
AcDbEntity
  8
0
100
AcDbCircle
 62
7
  6
CONTINUOUS
 10
20.2068232291
 20
1.1717972817
 40
0.175742101
  0
CIRCLE
  5
21E
100
AcDbEntity
  8
0
100
AcDbCircle
 62
7
  6
CONTINUOUS
 10
20.2068232291
 20
1.1717972817
 40
0.1005522074
  0
LINE
  5
21F
100
AcDbEntity
  8
0
100
AcDbLine
 62
7
  6
CONTINUOUS
 10
20.2077290681
 20
1.3756110529
 11
20.2071171714
 21
1.2379342989
  0
LINE
  5
220
100
AcDbEntity
  8
0
100
AcDbLine
 62
7
  6
CONTINUOUS
 10
20.2077290681
 20
1.2016899681
 11
20.2074674401
 21
1.1428236749
  0
LINE
  5
221
100
AcDbEntity
  8
0
100
AcDbLine
 62
7
  6
CONTINUOUS
 10
20.208634907
 20
1.101141841
 11
20.2080230104
 21
0.963465087
  0
LINE
  5
222
100
AcDbEntity
  8
0
100
AcDbLine
 62
7
  6
CONTINUOUS
 10
20.0066328138
 20
1.1745147986
 11
20.1443095678
 21
1.1739029019
  0
LINE
  5
223
100
AcDbEntity
  8
0
100
AcDbLine
 62
7
  6
CONTINUOUS
 10
20.1832714155
 20
1.1727031207
 11
20.238153505
 21
1.172335442
  0
LINE
  5
224
100
AcDbEntity
  8
0
100
AcDbLine
 62
7
  6
CONTINUOUS
 10
20.2756669918
 20
1.1717972817
 11
20.407916871
 21
1.1712095044
  0
CIRCLE
  5
225
100
AcDbEntity
  8
0
100
AcDbCircle
 62
7
  6
CONTINUOUS
 10
20.7509457401
 20
1.1693297793
 40
0.1722024983
  0
CIRCLE
  5
226
100
AcDbEntity
  8
0
100
AcDbCircle
 62
7
  6
CONTINUOUS
 10
20.7509457401
 20
1.1693297793
 40
0.0985164967
  0
LINE
  5
227
100
AcDbEntity
  8
0
100
AcDbLine
 62
7
  6
CONTINUOUS
 10
20.7169767782
 20
1.170462078
 11
20.7825395137
 21
1.1682766535
  0
LINE
  5
228
100
AcDbEntity
  8
0
100
AcDbLine
 62
7
  6
CONTINUOUS
 10
20.8177513651
 20
1.1693297793
 11
20.947965719
 21
1.1693297793
  0
LINE
  5
229
100
AcDbEntity
  8
0
100
AcDbLine
 62
7
  6
CONTINUOUS
 10
20.6875370113
 20
1.170462078
 11
20.5573226574
 21
1.170462078
  0
LINE
  5
22A
100
AcDbEntity
  8
0
100
AcDbLine
 62
7
  6
CONTINUOUS
 10
20.7486811426
 20
1.1987695462
 11
20.7486811426
 21
1.1432869085
  0
LINE
  5
22B
100
AcDbEntity
  8
0
100
AcDbLine
 62
7
  6
CONTINUOUS
 10
20.7498134414
 20
1.1059210505
 11
20.7498134414
 21
0.9757066966
  0
LINE
  5
22C
100
AcDbEntity
  8
0
100
AcDbLine
 62
7
  6
CONTINUOUS
 10
20.7486811426
 20
1.2338708068
 11
20.7486811426
 21
1.3640851607
  0
LINE
  5
22D
100
AcDbEntity
  8
0
100
AcDbLine
 62
7
  6
CONTINUOUS
 10
21.0702539817
 20
1.2701043662
 11
21.4790138229
 21
1.3448360823
  0
LINE
  5
22E
100
AcDbEntity
  8
0
100
AcDbLine
 62
7
  6
CONTINUOUS
 10
21.4790138229
 20
1.3448360823
 11
21.4790138229
 21
0.9779712941
  0
LINE
  5
22F
100
AcDbEntity
  8
0
100
AcDbLine
 62
7
  6
CONTINUOUS
 10
21.4790138229
 20
0.9779712941
 11
21.069121683
 21
1.0617614
  0
LINE
  5
230
100
AcDbEntity
  8
0
100
AcDbLine
 62
7
  6
CONTINUOUS
 10
21.0702539817
 20
1.2701043662
 11
21.069121683
 21
1.0617614
  0
LINE
  5
231
100
AcDbEntity
  8
0
100
AcDbLine
 62
7
  6
CONTINUOUS
 10
21.4790138229
 20
1.1693297793
 11
21.3159628059
 21
1.1693297793
  0
LINE
  5
232
100
AcDbEntity
  8
0
100
AcDbLine
 62
7
  6
CONTINUOUS
 10
21.2876553377
 20
1.1693297793
 11
21.2502894796
 21
1.1693297793
  0
LINE
  5
233
100
AcDbEntity
  8
0
100
AcDbLine
 62
7
  6
CONTINUOUS
 10
21.2208497126
 20
1.1659328831
 11
21.0713862804
 21
1.1659328831
  0
LINE
  5
234
100
AcDbEntity
  8
0
100
AcDbLine
 62
7
  6
CONTINUOUS
 10
20.4796138713
 20
1.5284908897
 11
20.4766766948
 21
0.9294458646
  0
ENDBLK
  5
235
100
AcDbEntity
  8
0
  6
BYBLOCK
 62
0
100
AcDbBlockEnd
  0
BLOCK
  5
236
100
AcDbEntity
  8
0
100
AcDbBlockBegin
  2
*T1
 70
1
 10
0.0
 20
0.0
  3
*T1
  1

  0
LINE
  5
237
100
AcDbEntity
  8
0
100
AcDbLine
 62
2
  6
CONTINUOUS
 10
9.275
 20
0.0
 11
-0.0
 21
0.0
  0
LINE
  5
238
100
AcDbEntity
  8
0
100
AcDbLine
 62
2
  6
CONTINUOUS
 10
9.275
 20
0.0
 11
9.275
 21
1.25
  0
LINE
  5
239
100
AcDbEntity
  8
0
100
AcDbLine
 62
2
  6
CONTINUOUS
 10
9.275
 20
0.625
 11
-0.0
 21
0.625
  0
LINE
  5
23A
100
AcDbEntity
  8
0
100
AcDbLine
 62
2
  6
CONTINUOUS
 10
9.275
 20
1.25
 11
-0.0
 21
1.25
  0
LINE
  5
23B
100
AcDbEntity
  8
0
100
AcDbLine
 62
2
  6
CONTINUOUS
 10
6.8
 20
0.0
 11
6.8
 21
1.25
  0
LINE
  5
23C
100
AcDbEntity
  8
0
100
AcDbLine
 62
2
  6
CONTINUOUS
 10
6.4
 20
0.0
 11
6.4
 21
0.625
  0
LINE
  5
23D
100
AcDbEntity
  8
0
100
AcDbLine
 62
2
  6
CONTINUOUS
 10
5.9
 20
0.0
 11
5.9
 21
0.625
  0
LINE
  5
23E
100
AcDbEntity
  8
0
100
AcDbLine
 62
2
  6
CONTINUOUS
 10
5.2
 20
0.0
 11
5.2
 21
0.625
  0
LINE
  5
23F
100
AcDbEntity
  8
0
100
AcDbLine
 62
2
  6
CONTINUOUS
 10
4.1
 20
0.0
 11
4.1
 21
1.25
  0
LINE
  5
240
100
AcDbEntity
  8
0
100
AcDbLine
 62
2
  6
CONTINUOUS
 10
-0.0
 20
0.0
 11
-0.0
 21
1.25
  0
MTEXT
  5
241
100
AcDbEntity
  8
0
100
AcDbMText
 62
2
  6
CONTINUOUS
  7
STANDARD
 71
2
 72
1
 10
6.6
 20
0.325
 30
0.0
 11
1.0
 21
0.0
 31
0.0
 44
0.9
  1
2
 40
0.125
 41
0.2
  0
MTEXT
  5
242
100
AcDbEntity
  8
0
100
AcDbMText
 62
2
  6
CONTINUOUS
  7
STANDARD
 71
2
 72
1
 10
6.15
 20
0.325
 30
0.0
 11
1.0
 21
0.0
 31
0.0
 44
0.9
  1
C
 40
0.125
 41
0.2
  0
MTEXT
  5
243
100
AcDbEntity
  8
0
100
AcDbMText
 62
2
  6
CONTINUOUS
  7
STANDARD
 71
2
 72
1
 10
5.55
 20
0.325
 30
0.0
 11
1.0
 21
0.0
 31
0.0
 44
0.9
  1
1.000
 40
0.125
 41
1.0
  0
MTEXT
  5
244
100
AcDbEntity
  8
0
100
AcDbMText
 62
2
  6
CONTINUOUS
  7
STANDARD
 71
2
 72
1
 10
4.65
 20
0.325
 30
0.0
 11
1.0
 21
0.0
 31
0.0
 44
0.9
  1
Jan-30-24
 40
0.125
 41
1.8
  0
MTEXT
  5
245
100
AcDbEntity
  8
0
100
AcDbMText
 62
2
  6
CONTINUOUS
  7
STANDARD
 71
2
 72
1
 10
2.05
 20
0.4625
 30
0.0
 11
1.0
 21
0.0
 31
0.0
 44
0.9
  1
T-16A Line mount\PCross port with make up checks
 40
0.125
 41
6.0
  0
MTEXT
  5
246
100
AcDbEntity
  8
0
100
AcDbMText
 62
2
  6
CONTINUOUS
  7
STANDARD
 71
1
 72
1
 10
6.45
 20
0.5625
 30
0.0
 11
1.0
 21
0.0
 31
0.0
 44
0.9
  1
SHEET
 40
0.06
 41
0.48
  0
MTEXT
  5
247
100
AcDbEntity
  8
0
100
AcDbMText
 62
2
  6
CONTINUOUS
  7
STANDARD
 71
1
 72
1
 10
5.95
 20
0.5625
 30
0.0
 11
1.0
 21
0.0
 31
0.0
 44
0.9
  1
DWG SIZE
 40
0.06
 41
0.768
  0
MTEXT
  5
248
100
AcDbEntity
  8
0
100
AcDbMText
 62
2
  6
CONTINUOUS
  7
STANDARD
 71
1
 72
1
 10
5.25
 20
0.5625
 30
0.0
 11
1.0
 21
0.0
 31
0.0
 44
0.9
  1
SCALE
 40
0.06
 41
0.48
  0
MTEXT
  5
249
100
AcDbEntity
  8
0
100
AcDbMText
 62
2
  6
CONTINUOUS
  7
STANDARD
 71
1
 72
1
 10
4.15
 20
0.5625
 30
0.0
 11
1.0
 21
0.0
 31
0.0
 44
0.9
  1
DATE
 40
0.06
 41
0.384
  0
MTEXT
  5
24A
100
AcDbEntity
  8
0
100
AcDbMText
 62
2
  6
CONTINUOUS
  7
STANDARD
 71
1
 72
1
 10
0.05
 20
0.5625
 30
0.0
 11
1.0
 21
0.0
 31
0.0
 44
0.9
  1
DESCRIPTION
 40
0.06
 41
1.056
  0
MTEXT
  5
24B
100
AcDbEntity
  8
0
100
AcDbMText
 62
2
  6
CONTINUOUS
  7
STANDARD
 71
2
 72
1
 10
5.45
 20
1.0375
 30
0.0
 11
1.0
 21
0.0
 31
0.0
 44
0.9
  1
ALL DIMENSIONS IN INCH\PVIEWS ARE THIRD ANGLE
 40
0.12
 41
4.224
  0
MTEXT
  5
24C
100
AcDbEntity
  8
0
100
AcDbMText
 62
2
  6
CONTINUOUS
  7
STANDARD
 71
2
 72
1
 10
2.05
 20
0.95
 30
0.0
 11
1.0
 21
0.0
 31
0.0
 44
0.9
  1
IMN
 40
0.125
 41
0.6
  0
MTEXT
  5
24D
100
AcDbEntity
  8
0
100
AcDbMText
 62
2
  6
CONTINUOUS
  7
STANDARD
 71
1
 72
1
 10
0.05
 20
1.1875
 30
0.0
 11
1.0
 21
0.0
 31
0.0
 44
0.9
  1
MODEL
 40
0.06
 41
0.48
  0
ENDBLK
  5
24E
100
AcDbEntity
  8
0
  6
BYBLOCK
 62
0
100
AcDbBlockEnd
  0
BLOCK
  5
24F
100
AcDbEntity
  8
0
100
AcDbBlockBegin
  2
*T2
 70
1
 10
0.0
 20
0.0
  3
*T2
  1

  0
LINE
  5
250
100
AcDbEntity
  8
0
100
AcDbLine
 62
2
  6
CONTINUOUS
 10
0.0
 20
0.0
 11
9.055
 21
0.0
  0
LINE
  5
251
100
AcDbEntity
  8
0
100
AcDbLine
 62
2
  6
CONTINUOUS
 10
0.0
 20
0.0
 11
0.0
 21
-2.844
  0
LINE
  5
252
100
AcDbEntity
  8
0
100
AcDbLine
 62
2
  6
CONTINUOUS
 10
0.0
 20
-0.344
 11
9.055
 21
-0.344
  0
LINE
  5
253
100
AcDbEntity
  8
0
100
AcDbLine
 62
2
  6
CONTINUOUS
 10
0.0
 20
-0.594
 11
9.055
 21
-0.594
  0
LINE
  5
254
100
AcDbEntity
  8
0
100
AcDbLine
 62
2
  6
CONTINUOUS
 10
0.0
 20
-0.844
 11
9.055
 21
-0.844
  0
LINE
  5
255
100
AcDbEntity
  8
0
100
AcDbLine
 62
2
  6
CONTINUOUS
 10
0.0
 20
-1.094
 11
9.055
 21
-1.094
  0
LINE
  5
256
100
AcDbEntity
  8
0
100
AcDbLine
 62
2
  6
CONTINUOUS
 10
0.0
 20
-1.344
 11
9.055
 21
-1.344
  0
LINE
  5
257
100
AcDbEntity
  8
0
100
AcDbLine
 62
2
  6
CONTINUOUS
 10
0.0
 20
-1.594
 11
9.055
 21
-1.594
  0
LINE
  5
258
100
AcDbEntity
  8
0
100
AcDbLine
 62
2
  6
CONTINUOUS
 10
0.0
 20
-1.844
 11
9.055
 21
-1.844
  0
LINE
  5
259
100
AcDbEntity
  8
0
100
AcDbLine
 62
2
  6
CONTINUOUS
 10
0.0
 20
-2.094
 11
9.055
 21
-2.094
  0
LINE
  5
25A
100
AcDbEntity
  8
0
100
AcDbLine
 62
2
  6
CONTINUOUS
 10
0.0
 20
-2.344
 11
9.055
 21
-2.344
  0
LINE
  5
25B
100
AcDbEntity
  8
0
100
AcDbLine
 62
2
  6
CONTINUOUS
 10
0.0
 20
-2.594
 11
9.055
 21
-2.594
  0
LINE
  5
25C
100
AcDbEntity
  8
0
100
AcDbLine
 62
2
  6
CONTINUOUS
 10
0.0
 20
-2.844
 11
9.055
 21
-2.844
  0
LINE
  5
25D
100
AcDbEntity
  8
0
100
AcDbLine
 62
2
  6
CONTINUOUS
 10
3.055
 20
0.0
 11
3.055
 21
-2.844
  0
LINE
  5
25E
100
AcDbEntity
  8
0
100
AcDbLine
 62
2
  6
CONTINUOUS
 10
9.055
 20
0.0
 11
9.055
 21
-2.844
  0
MTEXT
  5
25F
100
AcDbEntity
  8
0
100
AcDbMText
 62
2
  6
CONTINUOUS
  7
STANDARD
 71
2
 72
1
 10
1.5275
 20
-0.0995
 30
0.0
 11
1.0
 21
0.0
 31
0.0
 44
0.9
  1
Technical Data
 40
0.145
 41
3.248
  0
MTEXT
  5
260
100
AcDbEntity
  8
0
100
AcDbMText
 62
2
  6
CONTINUOUS
  7
STANDARD
 71
2
 72
1
 10
4.555
 20
-0.0995
 30
0.0
 11
1.0
 21
0.0
 31
0.0
 44
0.9
  1
U.S. Units
 40
0.145
 41
2.32
  0
MTEXT
  5
261
100
AcDbEntity
  8
0
100
AcDbMText
 62
2
  6
CONTINUOUS
  7
STANDARD
 71
2
 72
1
 10
7.555
 20
-0.0995
 30
0.0
 11
1.0
 21
0.0
 31
0.0
 44
0.9
  1
Metric Units
 40
0.145
 41
2.784
  0
MTEXT
  5
262
100
AcDbEntity
  8
0
100
AcDbMText
 62
2
  6
CONTINUOUS
  7
STANDARD
 71
2
 72
1
 10
1.5275
 20
-0.4065
 30
0.0
 11
1.0
 21
0.0
 31
0.0
 44
0.9
  1
Cavity
 40
0.125
 41
1.2
  0
MTEXT
  5
263
100
AcDbEntity
  8
0
100
AcDbMText
 62
2
  6
CONTINUOUS
  7
STANDARD
 71
2
 72
1
 10
6.055
 20
-0.4065
 30
0.0
 11
1.0
 21
0.0
 31
0.0
 44
0.9
  1
T-16A
 40
0.125
 41
1.0
  0
MTEXT
  5
264
100
AcDbEntity
  8
0
100
AcDbMText
 62
2
  6
CONTINUOUS
  7
STANDARD
 71
2
 72
1
 10
1.5275
 20
-0.6565
 30
0.0
 11
1.0
 21
0.0
 31
0.0
 44
0.9
  1
Body Features
 40
0.125
 41
2.6
  0
MTEXT
  5
265
100
AcDbEntity
  8
0
100
AcDbMText
 62
2
  6
CONTINUOUS
  7
STANDARD
 71
2
 72
1
 10
6.055
 20
-0.6565
 30
0.0
 11
1.0
 21
0.0
 31
0.0
 44
0.9
  1
Cross port with make up checks
 40
0.125
 41
6.0
  0
MTEXT
  5
266
100
AcDbEntity
  8
0
100
AcDbMText
 62
2
  6
CONTINUOUS
  7
STANDARD
 71
2
 72
1
 10
1.5275
 20
-0.9065
 30
0.0
 11
1.0
 21
0.0
 31
0.0
 44
0.9
  1
Body Type
 40
0.125
 41
1.8
  0
MTEXT
  5
267
100
AcDbEntity
  8
0
100
AcDbMText
 62
2
  6
CONTINUOUS
  7
STANDARD
 71
2
 72
1
 10
6.055
 20
-0.9065
 30
0.0
 11
1.0
 21
0.0
 31
0.0
 44
0.9
  1
Line mount
 40
0.125
 41
2.0
  0
MTEXT
  5
268
100
AcDbEntity
  8
0
100
AcDbMText
 62
2
  6
CONTINUOUS
  7
STANDARD
 71
2
 72
1
 10
1.5275
 20
-1.1565
 30
0.0
 11
1.0
 21
0.0
 31
0.0
 44
0.9
  1
Interface
 40
0.125
 41
1.8
  0
MTEXT
  5
269
100
AcDbEntity
  8
0
100
AcDbMText
 62
2
  6
CONTINUOUS
  7
STANDARD
 71
2
 72
1
 10
6.055
 20
-1.1565
 30
0.0
 11
1.0
 21
0.0
 31
0.0
 44
0.9
  1
None
 40
0.125
 41
0.8
  0
MTEXT
  5
26A
100
AcDbEntity
  8
0
100
AcDbMText
 62
2
  6
CONTINUOUS
  7
STANDARD
 71
2
 72
1
 10
1.5275
 20
-1.4065
 30
0.0
 11
1.0
 21
0.0
 31
0.0
 44
0.9
  1
Open Cavity Quantity
 40
0.125
 41
4.0
  0
MTEXT
  5
26B
100
AcDbEntity
  8
0
100
AcDbMText
 62
2
  6
CONTINUOUS
  7
STANDARD
 71
2
 72
1
 10
6.055
 20
-1.4065
 30
0.0
 11
1.0
 21
0.0
 31
0.0
 44
0.9
  1
2
 40
0.125
 41
0.2
  0
MTEXT
  5
26C
100
AcDbEntity
  8
0
100
AcDbMText
 62
2
  6
CONTINUOUS
  7
STANDARD
 71
2
 72
1
 10
1.5275
 20
-1.6565
 30
0.0
 11
1.0
 21
0.0
 31
0.0
 44
0.9
  1
Weight
 40
0.125
 41
1.2
  0
MTEXT
  5
26D
100
AcDbEntity
  8
0
100
AcDbMText
 62
2
  6
CONTINUOUS
  7
STANDARD
 71
2
 72
1
 10
4.555
 20
-1.6565
 30
0.0
 11
1.0
 21
0.0
 31
0.0
 44
0.9
  1
8.074 lb.
 40
0.125
 41
1.8
  0
MTEXT
  5
26E
100
AcDbEntity
  8
0
100
AcDbMText
 62
2
  6
CONTINUOUS
  7
STANDARD
 71
2
 72
1
 10
7.555
 20
-1.6565
 30
0.0
 11
1.0
 21
0.0
 31
0.0
 44
0.9
  1
3,662 kg.
 40
0.125
 41
1.8
  0
MTEXT
  5
26F
100
AcDbEntity
  8
0
100
AcDbMText
 62
2
  6
CONTINUOUS
  7
STANDARD
 71
2
 72
1
 10
1.5275
 20
-1.9065
 30
0.0
 11
1.0
 21
0.0
 31
0.0
 44
0.9
  1
Mounting Hole Diameter
 40
0.125
 41
4.4
  0
MTEXT
  5
270
100
AcDbEntity
  8
0
100
AcDbMText
 62
2
  6
CONTINUOUS
  7
STANDARD
 71
2
 72
1
 10
4.555
 20
-1.9065
 30
0.0
 11
1.0
 21
0.0
 31
0.0
 44
0.9
  1
.42 in.
 40
0.125
 41
1.4
  0
MTEXT
  5
271
100
AcDbEntity
  8
0
100
AcDbMText
 62
2
  6
CONTINUOUS
  7
STANDARD
 71
2
 72
1
 10
7.555
 20
-1.9065
 30
0.0
 11
1.0
 21
0.0
 31
0.0
 44
0.9
  1
10,7 mm
 40
0.125
 41
1.4
  0
MTEXT
  5
272
100
AcDbEntity
  8
0
100
AcDbMText
 62
2
  6
CONTINUOUS
  7
STANDARD
 71
2
 72
1
 10
1.5275
 20
-2.1565
 30
0.0
 11
1.0
 21
0.0
 31
0.0
 44
0.9
  1
Mounting Hole Depth
 40
0.125
 41
3.8
  0
MTEXT
  5
273
100
AcDbEntity
  8
0
100
AcDbMText
 62
2
  6
CONTINUOUS
  7
STANDARD
 71
2
 72
1
 10
6.055
 20
-2.1565
 30
0.0
 11
1.0
 21
0.0
 31
0.0
 44
0.9
  1
Through
 40
0.125
 41
1.4
  0
MTEXT
  5
274
100
AcDbEntity
  8
0
100
AcDbMText
 62
2
  6
CONTINUOUS
  7
STANDARD
 71
2
 72
1
 10
1.5275
 20
-2.4065
 30
0.0
 11
1.0
 21
0.0
 31
0.0
 44
0.9
  1
Mounting Hole Quantity
 40
0.125
 41
4.4
  0
MTEXT
  5
275
100
AcDbEntity
  8
0
100
AcDbMText
 62
2
  6
CONTINUOUS
  7
STANDARD
 71
2
 72
1
 10
6.055
 20
-2.4065
 30
0.0
 11
1.0
 21
0.0
 31
0.0
 44
0.9
  1
2
 40
0.125
 41
0.2
  0
MTEXT
  5
276
100
AcDbEntity
  8
0
100
AcDbMText
 62
2
  6
CONTINUOUS
  7
STANDARD
 71
2
 72
1
 10
1.5275
 20
-2.6565
 30
0.0
 11
1.0
 21
0.0
 31
0.0
 44
0.9
  1
Includes integral cartridge(s)
 40
0.125
 41
6.0
  0
MTEXT
  5
277
100
AcDbEntity
  8
0
100
AcDbMText
 62
2
  6
CONTINUOUS
  7
STANDARD
 71
2
 72
1
 10
6.055
 20
-2.6565
 30
0.0
 11
1.0
 21
0.0
 31
0.0
 44
0.9
  1
Yes (see Included Components)
 40
0.125
 41
5.8
  0
ENDBLK
  5
278
100
AcDbEntity
  8
0
  6
BYBLOCK
 62
0
100
AcDbBlockEnd
  0
BLOCK
  5
279
100
AcDbEntity
  8
0
100
AcDbBlockBegin
  2
*T3
 70
1
 10
0.0
 20
0.0
  3
*T3
  1

  0
LINE
  5
27A
100
AcDbEntity
  8
0
100
AcDbLine
 62
2
  6
CONTINUOUS
 10
0.0
 20
0.0
 11
4.6
 21
0.0
  0
LINE
  5
27B
100
AcDbEntity
  8
0
100
AcDbLine
 62
2
  6
CONTINUOUS
 10
0.0
 20
0.0
 11
0.0
 21
-0.93775
  0
LINE
  5
27C
100
AcDbEntity
  8
0
100
AcDbLine
 62
2
  6
CONTINUOUS
 10
0.0
 20
-0.34375
 11
4.6
 21
-0.34375
  0
LINE
  5
27D
100
AcDbEntity
  8
0
100
AcDbLine
 62
2
  6
CONTINUOUS
 10
0.0
 20
-0.68775
 11
4.6
 21
-0.68775
  0
LINE
  5
27E
100
AcDbEntity
  8
0
100
AcDbLine
 62
2
  6
CONTINUOUS
 10
0.0
 20
-0.93775
 11
4.6
 21
-0.93775
  0
LINE
  5
27F
100
AcDbEntity
  8
0
100
AcDbLine
 62
2
  6
CONTINUOUS
 10
1.3
 20
-0.34375
 11
1.3
 21
-0.93775
  0
LINE
  5
280
100
AcDbEntity
  8
0
100
AcDbLine
 62
2
  6
CONTINUOUS
 10
3.3
 20
-0.34375
 11
3.3
 21
-0.93775
  0
LINE
  5
281
100
AcDbEntity
  8
0
100
AcDbLine
 62
2
  6
CONTINUOUS
 10
4.6
 20
0.0
 11
4.6
 21
-0.93775
  0
MTEXT
  5
282
100
AcDbEntity
  8
0
100
AcDbMText
 62
2
  6
CONTINUOUS
  7
STANDARD
 71
2
 72
1
 10
2.3
 20
-0.099375
 30
0.0
 11
1.0
 21
0.0
 31
0.0
 44
0.9
  1
Port Headings
 40
0.145
 41
3.016
  0
MTEXT
  5
283
100
AcDbEntity
  8
0
100
AcDbMText
 62
2
  6
CONTINUOUS
  7
STANDARD
 71
2
 72
1
 10
0.65
 20
-0.44325
 30
0.0
 11
1.0
 21
0.0
 31
0.0
 44
0.9
  1
Product
 40
0.145
 41
1.624
  0
MTEXT
  5
284
100
AcDbEntity
  8
0
100
AcDbMText
 62
2
  6
CONTINUOUS
  7
STANDARD
 71
2
 72
1
 10
2.3
 20
-0.44325
 30
0.0
 11
1.0
 21
0.0
 31
0.0
 44
0.9
  1
Port
 40
0.145
 41
0.928
  0
MTEXT
  5
285
100
AcDbEntity
  8
0
100
AcDbMText
 62
2
  6
CONTINUOUS
  7
STANDARD
 71
2
 72
1
 10
3.95
 20
-0.44325
 30
0.0
 11
1.0
 21
0.0
 31
0.0
 44
0.9
  1
Size
 40
0.145
 41
0.928
  0
MTEXT
  5
286
100
AcDbEntity
  8
0
100
AcDbMText
 62
2
  6
CONTINUOUS
  7
STANDARD
 71
2
 72
1
 10
0.65
 20
-0.75025
 30
0.0
 11
1.0
 21
0.0
 31
0.0
 44
0.9
  1
IMN
 40
0.125
 41
0.6
  0
MTEXT
  5
287
100
AcDbEntity
  8
0
100
AcDbMText
 62
2
  6
CONTINUOUS
  7
STANDARD
 71
2
 72
1
 10
2.3
 20
-0.75025
 30
0.0
 11
1.0
 21
0.0
 31
0.0
 44
0.9
  1
All Ports
 40
0.125
 41
1.8
  0
MTEXT
  5
288
100
AcDbEntity
  8
0
100
AcDbMText
 62
2
  6
CONTINUOUS
  7
STANDARD
 71
2
 72
1
 10
3.95
 20
-0.75025
 30
0.0
 11
1.0
 21
0.0
 31
0.0
 44
0.9
  1
SAE 20
 40
0.125
 41
1.2
  0
ENDBLK
  5
289
100
AcDbEntity
  8
0
  6
BYBLOCK
 62
0
100
AcDbBlockEnd
  0
ENDSEC
  0
SECTION
  2
ENTITIES
  0
IMAGE
  5
28A
100
AcDbEntity
  8
0
100
AcDbRasterImage
 62
7
  6
CONTINUOUS
 10
19.2297077316
 20
0.3094318264
 30
0.0
 11
0.0066666667
 21
0.0
 31
0.0
 12
0.0
 22
0.0066666667
 32
0.0
 13
369.0
 23
92.0
340
       3B4
 70
9
280
0
281
50
282
50
283
0
360
       3AE
 71
1
 91
2
 14
-0.5
 24
-0.5
 14
368.5
 24
91.5
  0
INSERT
  5
28B
100
AcDbEntity
  8
0
100
AcDbBlockReference
 62
2
  6
CONTINUOUS
  2
SUN_FIRST_THIRD_ANGLE_BL0
 10
20.4816717061
 20
1.2289683772
  0
ACAD_TABLE
  5
28C
100
AcDbEntity
  8
0
 62
2
  6
CONTINUOUS
100
AcDbBlockReference
  2
*T1
 10
12.42375
 20
0.30125
 30
0.0
100
AcDbTable
342
       3B6
343
20F
 11
1.0
 21
0.0
 31
0.0
 90
6
 91
4
 92
6
 93
20
 94
0
 95
0
 96
0
 70
1
 41
0.0
141
0.525
141
0.1
141
0.525
141
0.1
142
4.1
142
1.1
142
0.7
142
0.5
142
0.4
142
2.475
171
1
172
0
173
0
174
0
175
1
176
1
 91
33
178
0
145
0.0
301
CELL_VALUE
 90
4
  1
T-16A Line mount\PCross port with make up checks
304
ACVALUE_END
170
2
140
0.125
171
1
172
0
173
0
174
0
175
1
176
1
 91
33
178
0
145
0.0
301
CELL_VALUE
 90
4
  1
Jan-30-24
304
ACVALUE_END
170
5
140
0.125
171
1
172
0
173
0
174
0
175
1
176
1
 91
33
178
0
145
0.0
301
CELL_VALUE
 90
4
  1
1.000
304
ACVALUE_END
170
5
140
0.125
171
1
172
0
173
0
174
0
175
1
176
1
 91
33
178
0
145
0.0
301
CELL_VALUE
 90
4
  1
C
304
ACVALUE_END
170
5
140
0.125
171
1
172
0
173
0
174
0
175
1
176
1
 91
33
178
0
145
0.0
301
CELL_VALUE
 90
4
  1
2
304
ACVALUE_END
170
5
140
0.125
171
1
172
0
173
0
174
0
175
1
176
1
 91
33
178
0
145
0.0
301
CELL_VALUE
 90
4
  1
 
304
ACVALUE_END
170
1
140
0.125
171
1
172
0
173
0
174
0
175
1
176
1
 91
33
178
0
145
0.0
301
CELL_VALUE
 90
4
  1
DESCRIPTION
304
ACVALUE_END
170
1
140
0.06
171
1
172
0
173
0
174
0
175
1
176
1
 91
33
178
0
145
0.0
301
CELL_VALUE
 90
4
  1
DATE
304
ACVALUE_END
170
1
140
0.06
171
1
172
0
173
0
174
0
175
1
176
1
 91
33
178
0
145
0.0
301
CELL_VALUE
 90
4
  1
SCALE
304
ACVALUE_END
170
1
140
0.06
171
1
172
0
173
0
174
0
175
1
176
1
 91
33
178
0
145
0.0
301
CELL_VALUE
 90
4
  1
DWG SIZE
304
ACVALUE_END
170
1
140
0.06
171
1
172
0
173
0
174
0
175
1
176
1
 91
33
178
0
145
0.0
301
CELL_VALUE
 90
4
  1
SHEET
304
ACVALUE_END
170
1
140
0.06
171
1
172
0
173
0
174
0
175
1
176
1
 91
33
178
0
145
0.0
301
CELL_VALUE
 90
4
  1
 
304
ACVALUE_END
170
1
140
0.125
171
1
172
0
173
0
174
0
175
1
176
1
 91
33
178
0
145
0.0
301
CELL_VALUE
 90
4
  1
IMN
304
ACVALUE_END
170
5
140
0.125
171
1
172
0
173
0
174
0
175
4
176
1
 91
33
178
0
145
0.0
301
CELL_VALUE
 90
4
  1
ALL DIMENSIONS IN INCH\PVIEWS ARE THIRD ANGLE
304
ACVALUE_END
170
5
140
0.12
171
1
172
0
173
1
174
0
175
1
176
1
 91
1
178
0
145
0.0
170
1
171
1
172
0
173
1
174
0
175
1
176
1
 91
1
178
0
145
0.0
170
1
171
1
172
0
173
1
174
0
175
1
176
1
 91
1
178
0
145
0.0
170
5
171
1
172
0
173
0
174
0
175
1
176
1
 91
33
178
0
145
0.0
301
CELL_VALUE
 90
4
  1
 
304
ACVALUE_END
170
1
140
0.125
171
1
172
0
173
0
174
0
175
1
176
1
 91
33
178
0
145
0.0
301
CELL_VALUE
 90
4
  1
MODEL
304
ACVALUE_END
170
1
140
0.06
171
1
172
0
173
0
174
0
175
1
176
1
 91
33
178
0
145
0.0
301
CELL_VALUE
 90
4
  1
 
304
ACVALUE_END
170
1
140
0.125
171
1
172
0
173
0
174
0
175
1
176
1
 91
33
178
0
145
0.0
301
CELL_VALUE
 90
4
  1
 
304
ACVALUE_END
170
1
140
0.125
171
1
172
0
173
0
174
0
175
1
176
1
 91
33
178
0
145
0.0
301
CELL_VALUE
 90
4
  1
 
304
ACVALUE_END
170
1
140
0.125
171
1
172
0
173
0
174
0
175
1
176
1
 91
33
178
0
145
0.0
301
CELL_VALUE
 90
4
  1
 
304
ACVALUE_END
170
1
140
0.125
171
1
172
0
173
0
174
0
175
1
176
1
 91
33
178
0
145
0.0
301
CELL_VALUE
 90
4
  1
 
304
ACVALUE_END
170
1
140
0.125
  0
ACAD_TABLE
  5
28D
100
AcDbEntity
  8
0
 62
2
  6
CONTINUOUS
100
AcDbBlockReference
  2
*T2
 10
12.4237499994
 20
16.47875
 30
0.0
100
AcDbTable
342
       3B5
343
210
 11
1.0
 21
0.0
 31
0.0
 90
22
 91
11
 92
3
 93
16
 94
0
 95
0
 96
0
 41
0.028
141
0.344
141
0.25
141
0.25
141
0.25
141
0.25
141
0.25
141
0.25
141
0.25
141
0.25
141
0.25
141
0.25
142
3.055
142
3.0
142
3.0
171
1
172
0
173
0
174
0
175
1
176
1
 91
33
178
0
145
0.0
301
CELL_VALUE
 90
4
  1
Technical Data
304
ACVALUE_END
170
5
140
0.145
171
1
172
0
173
0
174
0
175
1
176
1
 91
33
178
0
145
0.0
301
CELL_VALUE
 90
4
  1
U.S. Units
304
ACVALUE_END
170
5
140
0.145
171
1
172
0
173
0
174
0
175
1
176
1
 91
33
178
0
145
0.0
301
CELL_VALUE
 90
4
  1
Metric Units
304
ACVALUE_END
170
5
140
0.145
171
1
172
0
173
0
174
0
175
1
176
1
 91
33
178
0
145
0.0
301
CELL_VALUE
 90
4
  1
Cavity
304
ACVALUE_END
170
5
140
0.125
171
1
172
0
173
0
174
0
175
2
176
1
 91
33
178
0
145
0.0
301
CELL_VALUE
 90
4
  1
T-16A
304
ACVALUE_END
170
5
140
0.125
171
1
172
0
173
1
174
0
175
1
176
1
 91
1
178
0
145
0.0
170
1
171
1
172
0
173
0
174
0
175
1
176
1
 91
33
178
0
145
0.0
301
CELL_VALUE
 90
4
  1
Body Features
304
ACVALUE_END
170
5
140
0.125
171
1
172
0
173
0
174
0
175
2
176
1
 91
33
178
0
145
0.0
301
CELL_VALUE
 90
4
  1
Cross port with make up checks
304
ACVALUE_END
170
5
140
0.125
171
1
172
0
173
1
174
0
175
1
176
1
 91
1
178
0
145
0.0
170
1
171
1
172
0
173
0
174
0
175
1
176
1
 91
33
178
0
145
0.0
301
CELL_VALUE
 90
4
  1
Body Type
304
ACVALUE_END
170
5
140
0.125
171
1
172
0
173
0
174
0
175
2
176
1
 91
33
178
0
145
0.0
301
CELL_VALUE
 90
4
  1
Line mount
304
ACVALUE_END
170
5
140
0.125
171
1
172
0
173
1
174
0
175
1
176
1
 91
1
178
0
145
0.0
170
1
171
1
172
0
173
0
174
0
175
1
176
1
 91
33
178
0
145
0.0
301
CELL_VALUE
 90
4
  1
Interface
304
ACVALUE_END
170
5
140
0.125
171
1
172
0
173
0
174
0
175
2
176
1
 91
33
178
0
145
0.0
301
CELL_VALUE
 90
4
  1
None
304
ACVALUE_END
170
5
140
0.125
171
1
172
0
173
1
174
0
175
1
176
1
 91
1
178
0
145
0.0
170
1
171
1
172
0
173
0
174
0
175
1
176
1
 91
33
178
0
145
0.0
301
CELL_VALUE
 90
4
  1
Open Cavity Quantity
304
ACVALUE_END
170
5
140
0.125
171
1
172
0
173
0
174
0
175
2
176
1
 91
33
178
0
145
0.0
301
CELL_VALUE
 90
4
  1
2
304
ACVALUE_END
170
5
140
0.125
171
1
172
0
173
1
174
0
175
1
176
1
 91
1
178
0
145
0.0
170
1
171
1
172
0
173
0
174
0
175
1
176
1
 91
33
178
0
145
0.0
301
CELL_VALUE
 90
4
  1
Weight
304
ACVALUE_END
170
5
140
0.125
171
1
172
0
173
0
174
0
175
1
176
1
 91
33
178
0
145
0.0
301
CELL_VALUE
 90
4
  1
8.074 lb.
304
ACVALUE_END
170
5
140
0.125
171
1
172
0
173
0
174
0
175
1
176
1
 91
33
178
0
145
0.0
301
CELL_VALUE
 90
4
  1
3,662 kg.
304
ACVALUE_END
170
5
140
0.125
171
1
172
0
173
0
174
0
175
1
176
1
 91
33
178
0
145
0.0
301
CELL_VALUE
 90
4
  1
Mounting Hole Diameter
304
ACVALUE_END
170
5
140
0.125
171
1
172
0
173
0
174
0
175
1
176
1
 91
33
178
0
145
0.0
301
CELL_VALUE
 90
4
  1
.42 in.
304
ACVALUE_END
170
5
140
0.125
171
1
172
0
173
0
174
0
175
1
176
1
 91
33
178
0
145
0.0
301
CELL_VALUE
 90
4
  1
10,7 mm
304
ACVALUE_END
170
5
140
0.125
171
1
172
0
173
0
174
0
175
1
176
1
 91
33
178
0
145
0.0
301
CELL_VALUE
 90
4
  1
Mounting Hole Depth
304
ACVALUE_END
170
5
140
0.125
171
1
172
0
173
0
174
0
175
2
176
1
 91
33
178
0
145
0.0
301
CELL_VALUE
 90
4
  1
Through
304
ACVALUE_END
170
5
140
0.125
171
1
172
0
173
1
174
0
175
1
176
1
 91
1
178
0
145
0.0
170
1
171
1
172
0
173
0
174
0
175
1
176
1
 91
33
178
0
145
0.0
301
CELL_VALUE
 90
4
  1
Mounting Hole Quantity
304
ACVALUE_END
170
5
140
0.125
171
1
172
0
173
0
174
0
175
2
176
1
 91
33
178
0
145
0.0
301
CELL_VALUE
 90
4
  1
2
304
ACVALUE_END
170
5
140
0.125
171
1
172
0
173
1
174
0
175
1
176
1
 91
1
178
0
145
0.0
170
1
171
1
172
0
173
0
174
0
175
1
176
1
 91
33
178
0
145
0.0
301
CELL_VALUE
 90
4
  1
Includes integral cartridge(s)
304
ACVALUE_END
170
5
140
0.125
171
1
172
0
173
0
174
0
175
2
176
1
 91
33
178
0
145
0.0
301
CELL_VALUE
 90
4
  1
Yes (see Included Components)
304
ACVALUE_END
170
5
140
0.125
171
1
172
0
173
1
174
0
175
1
176
1
 91
1
178
0
145
0.0
170
1
  0
ACAD_TABLE
  5
28E
100
AcDbEntity
  8
0
 62
2
  6
CONTINUOUS
100
AcDbBlockReference
  2
*T3
 10
0.52125
 20
1.459
 30
0.0
100
AcDbTable
342
       3B5
343
211
 11
1.0
 21
0.0
 31
0.0
 90
22
 91
3
 92
3
 93
16
 94
0
 95
0
 96
0
 41
0.05
141
0.34375
141
0.344
141
0.25
142
1.3
142
2.0
142
1.3
171
1
172
0
173
0
174
0
175
3
176
1
 91
33
178
0
145
0.0
301
CELL_VALUE
 90
4
  1
Port Headings
304
ACVALUE_END
170
5
140
0.145
171
1
172
0
173
1
174
0
175
1
176
1
 91
1
178
0
145
0.0
170
1
171
1
172
0
173
1
174
0
175
1
176
1
 91
1
178
0
145
0.0
170
1
171
1
172
0
173
0
174
0
175
1
176
1
 91
33
178
0
145
0.0
301
CELL_VALUE
 90
4
  1
Product
304
ACVALUE_END
170
5
140
0.145
171
1
172
0
173
0
174
0
175
1
176
1
 91
33
178
0
145
0.0
301
CELL_VALUE
 90
4
  1
Port
304
ACVALUE_END
170
5
140
0.145
171
1
172
0
173
0
174
0
175
1
176
1
 91
33
178
0
145
0.0
301
CELL_VALUE
 90
4
  1
Size
304
ACVALUE_END
170
5
140
0.145
171
1
172
0
173
0
174
0
175
1
176
1
 91
33
178
0
145
0.0
301
CELL_VALUE
 90
4
  1
IMN
304
ACVALUE_END
170
5
140
0.125
171
1
172
0
173
0
174
0
175
1
176
1
 91
33
178
0
145
0.0
301
CELL_VALUE
 90
4
  1
All Ports
304
ACVALUE_END
170
5
140
0.125
171
1
172
0
173
0
174
0
175
1
176
1
 91
33
178
0
145
0.0
301
CELL_VALUE
 90
4
  1
SAE 20
304
ACVALUE_END
170
5
140
0.125
  0
MTEXT
  5
28F
100
AcDbEntity
  8
0
100
AcDbMText
 62
2
  6
CONTINUOUS
  7
STANDARD
 71
1
 72
1
 10
0.52125
 20
5.75995
 30
0.0
 11
1.0
 21
0.0
 31
0.0
 44
0.6
  3
Notes\P \P1. Important: Carefully consider\P   the maximum system pressure. The\P   pressure rating of the manifold is\P   dependent on the manifold material,\P   with the port type/size a secondary\P   consideration. Manifolds\P   constructed of alu
  3
minum are not\P   rated for pressures higher than\P   3000 psi (210 bar), regardless of\P   the port type/size specified.\P2. This drawing is for reference\P   only. It is generated by an\P   automated process and does not fall\P   under Sun's docume
  1
nt control\P   process.
 40
0.1
 41
3.04
  0
LINE
  5
290
100
AcDbEntity
  8
0
100
AcDbLine
 62
7
  6
CONTINUOUS
 10
0.30125
 20
0.30125
 11
0.30125
 21
16.69875
  0
LINE
  5
291
100
AcDbEntity
  8
0
100
AcDbLine
 62
7
  6
CONTINUOUS
 10
0.30125
 20
0.30125
 11
21.69875
 21
0.30125
  0
LINE
  5
292
100
AcDbEntity
  8
0
100
AcDbLine
 62
7
  6
CONTINUOUS
 10
0.30125
 20
16.69875
 11
21.69875
 21
16.69875
  0
LINE
  5
293
100
AcDbEntity
  8
0
100
AcDbLine
 62
7
  6
CONTINUOUS
 10
21.69875
 20
0.30125
 11
21.69875
 21
16.69875
  0
LINE
  5
294
100
AcDbEntity
  8
0
100
AcDbLine
 62
7
  6
CONTINUOUS
 10
9.4251853099
 20
11.5832900702
 11
9.1604947961
 21
11.3276186518
  0
LINE
  5
295
100
AcDbEntity
  8
0
100
AcDbLine
 62
7
  6
CONTINUOUS
 10
9.0588755219
 20
11.2294619646
 11
8.2281482142
 21
10.4270409559
  0
LINE
  5
296
100
AcDbEntity
  8
0
100
AcDbLine
 62
7
  6
CONTINUOUS
 10
9.0897851509
 20
11.2273183745
 11
9.1914044251
 21
11.3254750617
  0
LINE
  5
297
100
AcDbEntity
  8
0
100
AcDbLine
 62
7
  6
CONTINUOUS
 10
8.2281482142
 20
5.7181522737
 11
8.2281482142
 21
10.4270409559
  0
LINE
  5
298
100
AcDbEntity
  8
0
100
AcDbLine
 62
7
  6
CONTINUOUS
 10
8.2281482142
 20
5.7181522737
 11
12.5748146901
 21
5.4167099298
  0
LINE
  5
299
100
AcDbEntity
  8
0
100
AcDbLine
 62
4
  6
CONTINUOUS
 10
10.3715378479
 20
5.7752499105
 11
10.4439822875
 21
5.7702258716
  0
LINE
  5
29A
100
AcDbEntity
  8
0
100
AcDbLine
 62
4
  6
CONTINUOUS
 10
8.5372443101
 20
6.8394066693
 11
8.5734665299
 21
6.7209835464
  0
LINE
  5
29B
100
AcDbEntity
  8
0
100
AcDbLine
 62
4
  6
CONTINUOUS
 10
8.4213332067
 20
6.8474451316
 11
8.4213332067
 21
6.7315340282
  0
LINE
  5
29C
100
AcDbEntity
  8
0
100
AcDbLine
 62
4
  6
CONTINUOUS
 10
8.4792887584
 20
9.3596628252
 11
8.4792887584
 21
9.3403443125
  0
LINE
  5
29D
100
AcDbEntity
  8
0
100
AcDbLine
 62
4
  6
CONTINUOUS
 10
8.4285776507
 20
9.2955648444
 11
8.4213332067
 21
9.2670894724
  0
LINE
  5
29E
100
AcDbEntity
  8
0
100
AcDbLine
 62
4
  6
CONTINUOUS
 10
8.5299998662
 20
9.259553414
 11
8.566222086
 21
9.372952498
  0
LINE
  5
29F
100
AcDbEntity
  8
0
100
AcDbLine
 62
4
  6
CONTINUOUS
 10
8.4213332067
 20
9.3636820563
 11
8.4285776507
 21
9.3728389157
  0
LINE
  5
2A0
100
AcDbEntity
  8
0
100
AcDbLine
 62
4
  6
CONTINUOUS
 10
8.4430665386
 20
9.3138785527
 11
8.4285776507
 21
9.2955648444
  0
LINE
  5
2A1
100
AcDbEntity
  8
0
100
AcDbLine
 62
4
  6
CONTINUOUS
 10
8.4792887584
 20
9.3403443125
 11
8.4720443144
 21
9.3311874532
  0
LINE
  5
2A2
100
AcDbEntity
  8
0
100
AcDbLine
 62
4
  6
CONTINUOUS
 10
9.069469714
 20
9.943687723
 11
9.069469714
 21
9.88573217
  0
LINE
  5
2A3
100
AcDbEntity
  8
0
100
AcDbLine
 62
4
  6
CONTINUOUS
 10
8.4285776507
 20
9.3728389157
 11
8.4430665386
 21
9.3814933642
  0
LINE
  5
2A4
100
AcDbEntity
  8
0
100
AcDbLine
 62
4
  6
CONTINUOUS
 10
8.4720443144
 20
9.3311874532
 11
8.4430665386
 21
9.3138785527
  0
LINE
  5
2A5
100
AcDbEntity
  8
0
100
AcDbLine
 62
7
  6
CONTINUOUS
 10
13.4055419978
 20
6.2191309385
 11
13.3746323688
 21
6.2212745285
  0
LINE
  5
2A6
100
AcDbEntity
  8
0
100
AcDbLine
 62
7
  6
CONTINUOUS
 10
13.507161272
 20
6.3172876257
 11
13.4762516429
 21
6.3194312157
  0
LINE
  5
2A7
100
AcDbEntity
  8
0
100
AcDbLine
 62
4
  6
CONTINUOUS
 10
12.2681332145
 20
6.4647575416
 11
12.3188443223
 21
6.4612407143
  0
LINE
  5
2A8
100
AcDbEntity
  8
0
100
AcDbLine
 62
4
  6
CONTINUOUS
 10
8.5155109782
 20
6.7636398132
 11
8.558977642
 21
6.7606253898
  0
LINE
  5
2A9
100
AcDbEntity
  8
0
100
AcDbLine
 62
4
  6
CONTINUOUS
 10
8.566222086
 20
9.372952498
 11
8.6024443058
 21
9.2545293751
  0
LINE
  5
2AA
100
AcDbEntity
  8
0
100
AcDbLine
 62
4
  6
CONTINUOUS
 10
9.127425267
 20
9.8817129387
 11
9.127425267
 21
9.8237573857
  0
LINE
  5
2AB
100
AcDbEntity
  8
0
100
AcDbLine
 62
4
  6
CONTINUOUS
 10
9.1564030436
 20
9.8217477701
 11
9.1564030436
 21
9.9376588761
  0
LINE
  5
2AC
100
AcDbEntity
  8
0
100
AcDbLine
 62
4
  6
CONTINUOUS
 10
9.2037334176
 20
9.2273187568
 11
9.2037334176
 21
9.3432298628
  0
LINE
  5
2AD
100
AcDbEntity
  8
0
100
AcDbLine
 62
4
  6
CONTINUOUS
 10
9.2143585966
 20
9.9336396448
 11
9.2143585966
 21
9.8177285388
  0
LINE
  5
2AE
100
AcDbEntity
  8
0
100
AcDbLine
 62
4
  6
CONTINUOUS
 10
9.2433363731
 20
9.9316300292
 11
9.2433363731
 21
9.8157189232
  0
LINE
  5
2AF
100
AcDbEntity
  8
0
100
AcDbLine
 62
4
  6
CONTINUOUS
 10
9.2616889637
 20
9.3226519036
 11
9.2616889637
 21
9.2398582562
  0
LINE
  5
2B0
100
AcDbEntity
  8
0
100
AcDbLine
 62
4
  6
CONTINUOUS
 10
9.3012919261
 20
9.927610798
 11
9.3012919261
 21
9.8116996919
  0
LINE
  5
2B1
100
AcDbEntity
  8
0
100
AcDbLine
 62
4
  6
CONTINUOUS
 10
9.3086053644
 20
9.2200458626
 11
9.3417228213
 21
9.3336602651
  0
LINE
  5
2B2
100
AcDbEntity
  8
0
100
AcDbLine
 62
4
  6
CONTINUOUS
 10
8.5010220903
 20
6.7260075853
 11
8.5372443101
 21
6.8394066693
  0
LINE
  5
2B3
100
AcDbEntity
  8
0
100
AcDbLine
 62
4
  6
CONTINUOUS
 10
9.5997630238
 20
9.5045346323
 11
9.6328804876
 21
9.5684728457
  0
LINE
  5
2B4
100
AcDbEntity
  8
0
100
AcDbLine
 62
4
  6
CONTINUOUS
 10
9.2616889637
 20
9.2398582562
 11
9.2451302353
 21
9.2244478777
  0
LINE
  5
2B5
100
AcDbEntity
  8
0
100
AcDbLine
 62
4
  6
CONTINUOUS
 10
12.2681332145
 20
6.5323723496
 11
12.3188443223
 21
6.5288555223
  0
LINE
  5
2B6
100
AcDbEntity
  8
0
100
AcDbLine
 62
4
  6
CONTINUOUS
 10
12.3188443223
 20
6.5771518177
 11
12.2681332145
 21
6.580668645
  0
LINE
  5
2B7
100
AcDbEntity
  8
0
100
AcDbLine
 62
4
  6
CONTINUOUS
 10
9.4172030321
 20
9.8036612294
 11
9.4172030321
 21
9.9195723355
  0
LINE
  5
2B8
100
AcDbEntity
  8
0
100
AcDbLine
 62
4
  6
CONTINUOUS
 10
9.4410752058
 20
9.2108590479
 11
9.4410752058
 21
9.3267701539
  0
LINE
  5
2B9
100
AcDbEntity
  8
0
100
AcDbLine
 62
4
  6
CONTINUOUS
 10
9.4751585851
 20
9.7996419982
 11
9.4751585851
 21
9.8575975512
  0
LINE
  5
2BA
100
AcDbEntity
  8
0
100
AcDbLine
 62
4
  6
CONTINUOUS
 10
9.5073101196
 20
9.206265641
 11
9.5073101196
 21
9.322176747
  0
LINE
  5
2BB
100
AcDbEntity
  8
0
100
AcDbLine
 62
4
  6
CONTINUOUS
 10
9.5142095918
 20
9.4607915942
 11
9.5142095918
 21
9.5767027002
  0
LINE
  5
2BC
100
AcDbEntity
  8
0
100
AcDbLine
 62
4
  6
CONTINUOUS
 10
9.5224889534
 20
9.796359626
 11
9.5224889534
 21
9.854315179
  0
LINE
  5
2BD
100
AcDbEntity
  8
0
100
AcDbLine
 62
4
  6
CONTINUOUS
 10
9.566645567
 20
9.457155147
 11
9.566645567
 21
9.573066253
  0
LINE
  5
2BE
100
AcDbEntity
  8
0
100
AcDbLine
 62
4
  6
CONTINUOUS
 10
9.5804445064
 20
9.8502959478
 11
9.5804445064
 21
9.7343848417
  0
LINE
  5
2BF
100
AcDbEntity
  8
0
100
AcDbLine
 62
4
  6
CONTINUOUS
 10
9.6190815418
 20
9.7896609072
 11
9.6190815418
 21
9.8476164603
  0
LINE
  5
2C0
100
AcDbEntity
  8
0
100
AcDbLine
 62
4
  6
CONTINUOUS
 10
9.6328804876
 20
9.5684728457
 11
9.6328804876
 21
9.4525617396
  0
LINE
  5
2C1
100
AcDbEntity
  8
0
100
AcDbLine
 62
4
  6
CONTINUOUS
 10
9.6811768062
 20
9.2935603229
 11
9.6977355278
 21
9.3089707001
  0
LINE
  5
2C2
100
AcDbEntity
  8
0
100
AcDbLine
 62
4
  6
CONTINUOUS
 10
9.7777693578
 20
9.2868616067
 11
9.7943280793
 21
9.3022719839
  0
LINE
  5
2C3
100
AcDbEntity
  8
0
100
AcDbLine
 62
4
  6
CONTINUOUS
 10
9.1816551096
 20
9.3006043895
 11
9.1374984969
 21
9.2815883529
  0
LINE
  5
2C4
100
AcDbEntity
  8
0
100
AcDbLine
 62
4
  6
CONTINUOUS
 10
8.4720443144
 20
9.3698244923
 11
8.4792887584
 21
9.3596628252
  0
LINE
  5
2C5
100
AcDbEntity
  8
0
100
AcDbLine
 62
4
  6
CONTINUOUS
 10
9.3417228213
 20
9.3336602651
 11
9.374840292
 21
9.2154524547
  0
LINE
  5
2C6
100
AcDbEntity
  8
0
100
AcDbLine
 62
4
  6
CONTINUOUS
 10
9.6659979445
 20
9.4502650362
 11
9.6659979445
 21
9.5661761422
  0
LINE
  5
2C7
100
AcDbEntity
  8
0
100
AcDbLine
 62
4
  6
CONTINUOUS
 10
9.6770370948
 20
9.901552782
 11
9.6770370948
 21
9.785641676
  0
LINE
  5
2C8
100
AcDbEntity
  8
0
100
AcDbLine
 62
4
  6
CONTINUOUS
 10
9.6811768062
 20
9.2107666755
 11
9.6811768062
 21
9.2935603229
  0
LINE
  5
2C9
100
AcDbEntity
  8
0
100
AcDbLine
 62
4
  6
CONTINUOUS
 10
9.7156741301
 20
9.8409177415
 11
9.7156741301
 21
9.7829621885
  0
LINE
  5
2CA
100
AcDbEntity
  8
0
100
AcDbLine
 62
4
  6
CONTINUOUS
 10
9.7239534975
 20
9.4462458049
 11
9.7239534975
 21
9.562156911
  0
LINE
  5
2CB
100
AcDbEntity
  8
0
100
AcDbLine
 62
4
  6
CONTINUOUS
 10
9.7777693578
 20
9.2040679593
 11
9.7777693578
 21
9.2868616067
  0
LINE
  5
2CC
100
AcDbEntity
  8
0
100
AcDbLine
 62
4
  6
CONTINUOUS
 10
9.8122667185
 20
9.7762634697
 11
9.8122667185
 21
9.8149005051
  0
LINE
  5
2CD
100
AcDbEntity
  8
0
100
AcDbLine
 62
4
  6
CONTINUOUS
 10
9.8357249108
 20
9.2828423754
 11
9.8357249108
 21
9.200048728
  0
LINE
  5
2CE
100
AcDbEntity
  8
0
100
AcDbLine
 62
4
  6
CONTINUOUS
 10
9.8688423538
 20
9.1811932954
 11
9.8688423538
 21
9.2971044014
  0
LINE
  5
2CF
100
AcDbEntity
  8
0
100
AcDbLine
 62
4
  6
CONTINUOUS
 10
9.8702222715
 20
9.8301997915
 11
9.8702222715
 21
9.7722442385
  0
LINE
  5
2D0
100
AcDbEntity
  8
0
100
AcDbLine
 62
4
  6
CONTINUOUS
 10
9.9088593068
 20
9.827520304
 11
9.9088593068
 21
9.769564751
  0
LINE
  5
2D1
100
AcDbEntity
  8
0
100
AcDbLine
 62
4
  6
CONTINUOUS
 10
9.9267979068
 20
9.2765264417
 11
9.9267979068
 21
9.1937327943
  0
LINE
  5
2D2
100
AcDbEntity
  8
0
100
AcDbLine
 62
4
  6
CONTINUOUS
 10
9.8357249108
 20
9.200048728
 11
9.8191661892
 21
9.1846383491
  0
LINE
  5
2D3
100
AcDbEntity
  8
0
100
AcDbLine
 62
4
  6
CONTINUOUS
 10
9.9267979068
 20
9.1937327943
 11
9.9102391853
 21
9.1783224154
  0
LINE
  5
2D4
100
AcDbEntity
  8
0
100
AcDbLine
 62
4
  6
CONTINUOUS
 10
9.9668148598
 20
9.7655455197
 11
9.9668148598
 21
9.8235010727
  0
LINE
  5
2D5
100
AcDbEntity
  8
0
100
AcDbLine
 62
4
  6
CONTINUOUS
 10
9.973714349
 20
9.1739203978
 11
9.973714349
 21
9.2898315038
  0
LINE
  5
2D6
100
AcDbEntity
  8
0
100
AcDbLine
 62
4
  6
CONTINUOUS
 10
10.0054518952
 20
9.7628660322
 11
10.0054518952
 21
9.8787771383
  0
LINE
  5
2D7
100
AcDbEntity
  8
0
100
AcDbLine
 62
4
  6
CONTINUOUS
 10
10.0440889305
 20
9.7601865447
 11
10.0440889305
 21
9.8181420977
  0
LINE
  5
2D8
100
AcDbEntity
  8
0
100
AcDbLine
 62
4
  6
CONTINUOUS
 10
10.0827259659
 20
9.8154626102
 11
10.0827259659
 21
9.7575070572
  0
LINE
  5
2D9
100
AcDbEntity
  8
0
100
AcDbLine
 62
4
  6
CONTINUOUS
 10
10.1793185542
 20
9.8087638915
 11
10.1793185542
 21
9.779786115
  0
LINE
  5
2DA
100
AcDbEntity
  8
0
100
AcDbLine
 62
4
  6
CONTINUOUS
 10
10.1006645659
 20
9.2147925592
 11
10.0565079567
 21
9.1957765241
  0
LINE
  5
2DB
100
AcDbEntity
  8
0
100
AcDbLine
 62
4
  6
CONTINUOUS
 10
8.4575554265
 20
9.3804885564
 11
8.4720443144
 21
9.3698244923
  0
LINE
  5
2DC
100
AcDbEntity
  8
0
100
AcDbLine
 62
4
  6
CONTINUOUS
 10
9.566645567
 20
9.573066253
 11
9.5997630238
 21
9.5045346323
  0
LINE
  5
2DD
100
AcDbEntity
  8
0
100
AcDbLine
 62
4
  6
CONTINUOUS
 10
10.2372741072
 20
9.7757668837
 11
10.2372741072
 21
9.7467891072
  0
LINE
  5
2DE
100
AcDbEntity
  8
0
100
AcDbLine
 62
4
  6
CONTINUOUS
 10
10.4077600677
 20
5.772737891
 11
10.4077600677
 21
5.6568267876
  0
LINE
  5
2DF
100
AcDbEntity
  8
0
100
AcDbLine
 62
4
  6
CONTINUOUS
 10
9.2451302353
 20
9.3403589837
 11
9.2616889637
 21
9.3226519036
  0
LINE
  5
2E0
100
AcDbEntity
  8
0
100
AcDbLine
 62
4
  6
CONTINUOUS
 10
9.6659979445
 20
9.5661761422
 11
9.7239534975
 21
9.4462458049
  0
LINE
  5
2E1
100
AcDbEntity
  8
0
100
AcDbLine
 62
4
  6
CONTINUOUS
 10
9.1374984969
 20
9.2815883529
 11
9.1816551096
 21
9.2564477751
  0
LINE
  5
2E2
100
AcDbEntity
  8
0
100
AcDbLine
 62
4
  6
CONTINUOUS
 10
9.6977355278
 20
9.1930595941
 11
9.6811768062
 21
9.2107666755
  0
LINE
  5
2E3
100
AcDbEntity
  8
0
100
AcDbLine
 62
4
  6
CONTINUOUS
 10
9.7943280793
 20
9.1863608779
 11
9.7777693578
 21
9.2040679593
  0
LINE
  5
2E4
100
AcDbEntity
  8
0
100
AcDbLine
 62
4
  6
CONTINUOUS
 10
9.8191661892
 20
9.3005494551
 11
9.8357249108
 21
9.2828423754
  0
LINE
  5
2E5
100
AcDbEntity
  8
0
100
AcDbLine
 62
4
  6
CONTINUOUS
 10
9.9102391853
 20
9.2942335214
 11
9.9267979068
 21
9.2765264417
  0
LINE
  5
2E6
100
AcDbEntity
  8
0
100
AcDbLine
 62
7
  6
CONTINUOUS
 10
13.3746323688
 20
10.9301632107
 11
13.4762516429
 21
11.0283198979
  0
LINE
  5
2E7
100
AcDbEntity
  8
0
100
AcDbLine
 62
7
  6
CONTINUOUS
 10
12.5748146901
 20
10.125598612
 11
13.4055419978
 21
10.9280196206
  0
LINE
  5
2E8
100
AcDbEntity
  8
0
100
AcDbLine
 62
7
  6
CONTINUOUS
 10
13.507161272
 20
11.0261763078
 11
13.7718517858
 21
11.2818477263
  0
LINE
  5
2E9
100
AcDbEntity
  8
0
100
AcDbLine
 62
4
  6
CONTINUOUS
 10
12.3333332102
 20
6.5085321984
 11
12.3188443223
 21
6.5288555223
  0
LINE
  5
2EA
100
AcDbEntity
  8
0
100
AcDbLine
 62
4
  6
CONTINUOUS
 10
12.3260887662
 20
6.5669901575
 11
12.3188443223
 21
6.5771518177
  0
LINE
  5
2EB
100
AcDbEntity
  8
0
100
AcDbLine
 62
4
  6
CONTINUOUS
 10
12.1956887749
 20
9.1115888719
 11
12.2101776628
 21
9.1202433204
  0
LINE
  5
2EC
100
AcDbEntity
  8
0
100
AcDbLine
 62
4
  6
CONTINUOUS
 10
12.2391554387
 20
9.0699374094
 11
12.2101776628
 21
9.0526285089
  0
LINE
  5
2ED
100
AcDbEntity
  8
0
100
AcDbLine
 62
4
  6
CONTINUOUS
 10
10.0565079567
 20
9.2399331385
 11
10.1006645659
 21
9.2147925592
  0
LINE
  5
2EE
100
AcDbEntity
  8
0
100
AcDbLine
 62
4
  6
CONTINUOUS
 10
12.1884443309
 20
9.1024320125
 11
12.1956887749
 21
9.1115888719
  0
LINE
  5
2EF
100
AcDbEntity
  8
0
100
AcDbLine
 62
4
  6
CONTINUOUS
 10
8.4213332067
 20
9.2670894724
 11
8.4792887584
 21
9.2630702413
  0
LINE
  5
2F0
100
AcDbEntity
  8
0
100
AcDbLine
 62
4
  6
CONTINUOUS
 10
12.1884443309
 20
9.0058394286
 11
12.2463998826
 21
9.0018201975
  0
LINE
  5
2F1
100
AcDbEntity
  8
0
100
AcDbLine
 62
4
  6
CONTINUOUS
 10
12.2971109904
 20
8.9983033702
 11
12.3478220981
 21
8.9947865429
  0
LINE
  5
2F2
100
AcDbEntity
  8
0
100
AcDbLine
 62
4
  6
CONTINUOUS
 10
12.2101776628
 20
9.0526285089
 11
12.1956887749
 21
9.0343148006
  0
LINE
  5
2F3
100
AcDbEntity
  8
0
100
AcDbLine
 62
4
  6
CONTINUOUS
 10
12.2463998826
 20
9.0790942687
 11
12.2391554387
 21
9.0699374094
  0
LINE
  5
2F4
100
AcDbEntity
  8
0
100
AcDbLine
 62
4
  6
CONTINUOUS
 10
12.3478220981
 20
9.062401351
 11
12.3550665421
 21
9.0715582103
  0
LINE
  5
2F5
100
AcDbEntity
  8
0
100
AcDbLine
 62
4
  6
CONTINUOUS
 10
12.3478220981
 20
8.9947865429
 11
12.3623109861
 21
9.013100253
  0
LINE
  5
2F6
100
AcDbEntity
  8
0
100
AcDbLine
 62
4
  6
CONTINUOUS
 10
9.9102391853
 20
9.1783224154
 11
9.8688423538
 21
9.1811932954
  0
LINE
  5
2F7
100
AcDbEntity
  8
0
100
AcDbLine
 62
4
  6
CONTINUOUS
 10
9.8191661892
 20
9.1846383491
 11
9.7943280793
 21
9.1863608779
  0
LINE
  5
2F8
100
AcDbEntity
  8
0
100
AcDbLine
 62
4
  6
CONTINUOUS
 10
9.7308529709
 20
9.1907628916
 11
9.6977355278
 21
9.1930595941
  0
LINE
  5
2F9
100
AcDbEntity
  8
0
100
AcDbLine
 62
4
  6
CONTINUOUS
 10
9.2451302353
 20
9.2244478777
 11
9.2037334176
 21
9.2273187568
  0
LINE
  5
2FA
100
AcDbEntity
  8
0
100
AcDbLine
 62
4
  6
CONTINUOUS
 10
9.5073101196
 20
9.206265641
 11
9.5569863118
 21
9.2028205854
  0
LINE
  5
2FB
100
AcDbEntity
  8
0
100
AcDbLine
 62
4
  6
CONTINUOUS
 10
9.973714349
 20
9.1739203978
 11
10.0233905136
 21
9.1704753441
  0
LINE
  5
2FC
100
AcDbEntity
  8
0
100
AcDbLine
 62
4
  6
CONTINUOUS
 10
8.5444887541
 20
9.2971856418
 11
8.5879554179
 21
9.2941712185
  0
LINE
  5
2FD
100
AcDbEntity
  8
0
100
AcDbLine
 62
4
  6
CONTINUOUS
 10
9.3196445167
 20
9.2523977551
 11
9.3638011259
 21
9.2493354838
  0
LINE
  5
2FE
100
AcDbEntity
  8
0
100
AcDbLine
 62
4
  6
CONTINUOUS
 10
12.2971109904
 20
9.0659181782
 11
12.3478220981
 21
9.062401351
  0
LINE
  5
2FF
100
AcDbEntity
  8
0
100
AcDbLine
 62
4
  6
CONTINUOUS
 10
10.0068317921
 20
9.237858616
 11
9.973714349
 21
9.2401553185
  0
LINE
  5
300
100
AcDbEntity
  8
0
100
AcDbLine
 62
4
  6
CONTINUOUS
 10
9.5404275903
 20
9.2702038573
 11
9.5073101196
 21
9.2725005617
  0
LINE
  5
301
100
AcDbEntity
  8
0
100
AcDbLine
 62
4
  6
CONTINUOUS
 10
12.3478220981
 20
9.1106976464
 11
12.2971109904
 21
9.1142144736
  0
LINE
  5
302
100
AcDbEntity
  8
0
100
AcDbLine
 62
4
  6
CONTINUOUS
 10
8.4430665386
 20
9.3814933642
 11
8.4575554265
 21
9.3804885564
  0
LINE
  5
303
100
AcDbEntity
  8
0
100
AcDbLine
 62
4
  6
CONTINUOUS
 10
12.2101776628
 20
9.1202433204
 11
12.2246665507
 21
9.1192385126
  0
LINE
  5
304
100
AcDbEntity
  8
0
100
AcDbLine
 62
4
  6
CONTINUOUS
 10
9.2037334176
 20
9.3432298628
 11
9.2451302353
 21
9.3403589837
  0
LINE
  5
305
100
AcDbEntity
  8
0
100
AcDbLine
 62
4
  6
CONTINUOUS
 10
9.4079577351
 20
9.3290668583
 11
9.4741926489
 21
9.3244734514
  0
LINE
  5
306
100
AcDbEntity
  8
0
100
AcDbLine
 62
4
  6
CONTINUOUS
 10
9.5073101196
 20
9.322176747
 11
9.5569863118
 21
9.3187316914
  0
LINE
  5
307
100
AcDbEntity
  8
0
100
AcDbLine
 62
4
  6
CONTINUOUS
 10
9.6977355278
 20
9.3089707001
 11
9.7308529709
 21
9.3066739976
  0
LINE
  5
308
100
AcDbEntity
  8
0
100
AcDbLine
 62
4
  6
CONTINUOUS
 10
9.7943280793
 20
9.3022719839
 11
9.8191661892
 21
9.3005494551
  0
LINE
  5
309
100
AcDbEntity
  8
0
100
AcDbLine
 62
4
  6
CONTINUOUS
 10
9.8688423538
 20
9.2971044014
 11
9.9102391853
 21
9.2942335214
  0
LINE
  5
30A
100
AcDbEntity
  8
0
100
AcDbLine
 62
4
  6
CONTINUOUS
 10
9.973714349
 20
9.2898315038
 11
10.0233905136
 21
9.2863864501
  0
LINE
  5
30B
100
AcDbEntity
  8
0
100
AcDbLine
 62
4
  6
CONTINUOUS
 10
12.1956887749
 20
9.0343148006
 11
12.1884443309
 21
9.0058394286
  0
LINE
  5
30C
100
AcDbEntity
  8
0
100
AcDbLine
 62
4
  6
CONTINUOUS
 10
9.5804445064
 20
9.7343848417
 11
9.5418074711
 21
9.7370643292
  0
LINE
  5
30D
100
AcDbEntity
  8
0
100
AcDbLine
 62
4
  6
CONTINUOUS
 10
12.1884443309
 20
6.5861950878
 11
12.1884443309
 21
6.4702839844
  0
LINE
  5
30E
100
AcDbEntity
  8
0
100
AcDbLine
 62
4
  6
CONTINUOUS
 10
12.2463998826
 20
9.0984127814
 11
12.2463998826
 21
9.0790942687
  0
LINE
  5
30F
100
AcDbEntity
  8
0
100
AcDbLine
 62
4
  6
CONTINUOUS
 10
12.2681332145
 20
6.580668645
 11
12.2681332145
 21
6.4647575416
  0
LINE
  5
310
100
AcDbEntity
  8
0
100
AcDbLine
 62
4
  6
CONTINUOUS
 10
12.2971109904
 20
9.1142144736
 11
12.2971109904
 21
8.9983033702
  0
LINE
  5
311
100
AcDbEntity
  8
0
100
AcDbLine
 62
4
  6
CONTINUOUS
 10
12.3260887662
 20
6.5380123816
 11
12.3260887662
 21
6.5669901575
  0
LINE
  5
312
100
AcDbEntity
  8
0
100
AcDbLine
 62
4
  6
CONTINUOUS
 10
12.3333332102
 20
6.4795544243
 11
12.3333332102
 21
6.5085321984
  0
LINE
  5
313
100
AcDbEntity
  8
0
100
AcDbLine
 62
4
  6
CONTINUOUS
 10
12.3550665421
 20
9.0715582103
 11
12.3550665421
 21
9.1005359862
  0
LINE
  5
314
100
AcDbEntity
  8
0
100
AcDbLine
 62
4
  6
CONTINUOUS
 10
12.3623109861
 20
9.013100253
 11
12.3623109861
 21
9.0420780271
  0
LINE
  5
315
100
AcDbEntity
  8
0
100
AcDbLine
 62
4
  6
CONTINUOUS
 10
10.2372741072
 20
9.7467891072
 11
10.1793185542
 21
9.7508083385
  0
LINE
  5
316
100
AcDbEntity
  8
0
100
AcDbLine
 62
4
  6
CONTINUOUS
 10
9.8702222715
 20
9.7722442385
 11
9.8122667185
 21
9.7762634697
  0
LINE
  5
317
100
AcDbEntity
  8
0
100
AcDbLine
 62
4
  6
CONTINUOUS
 10
9.6770370948
 20
9.785641676
 11
9.6190815418
 21
9.7896609072
  0
LINE
  5
318
100
AcDbEntity
  8
0
100
AcDbLine
 62
4
  6
CONTINUOUS
 10
9.5804445064
 20
9.7923403947
 11
9.5224889534
 21
9.796359626
  0
LINE
  5
319
100
AcDbEntity
  8
0
100
AcDbLine
 62
4
  6
CONTINUOUS
 10
9.2143585966
 20
9.8177285388
 11
9.1564030436
 21
9.8217477701
  0
LINE
  5
31A
100
AcDbEntity
  8
0
100
AcDbLine
 62
4
  6
CONTINUOUS
 10
9.127425267
 20
9.8237573857
 11
9.069469714
 21
9.827776617
  0
LINE
  5
31B
100
AcDbEntity
  8
0
100
AcDbLine
 62
4
  6
CONTINUOUS
 10
9.9088593068
 20
9.769564751
 11
9.9668148598
 21
9.7655455197
  0
LINE
  5
31C
100
AcDbEntity
  8
0
100
AcDbLine
 62
4
  6
CONTINUOUS
 10
10.0827259659
 20
9.7575070572
 11
10.1406815189
 21
9.753487826
  0
LINE
  5
31D
100
AcDbEntity
  8
0
100
AcDbLine
 62
4
  6
CONTINUOUS
 10
10.1793185542
 20
9.779786115
 11
10.2372741072
 21
9.7757668837
  0
LINE
  5
31E
100
AcDbEntity
  8
0
100
AcDbLine
 62
4
  6
CONTINUOUS
 10
9.8122667185
 20
9.8149005051
 11
9.8702222715
 21
9.8108812738
  0
LINE
  5
31F
100
AcDbEntity
  8
0
100
AcDbLine
 62
4
  6
CONTINUOUS
 10
9.8702222715
 20
9.8301997915
 11
9.8315852361
 21
9.832879279
  0
LINE
  5
320
100
AcDbEntity
  8
0
100
AcDbLine
 62
4
  6
CONTINUOUS
 10
9.4751585851
 20
9.8575975512
 11
9.4172030321
 21
9.8616167825
  0
LINE
  5
321
100
AcDbEntity
  8
0
100
AcDbLine
 62
4
  6
CONTINUOUS
 10
9.069469714
 20
9.88573217
 11
9.127425267
 21
9.8817129387
  0
LINE
  5
322
100
AcDbEntity
  8
0
100
AcDbLine
 62
4
  6
CONTINUOUS
 10
9.6190815418
 20
9.8476164603
 11
9.6770370948
 21
9.843597229
  0
LINE
  5
323
100
AcDbEntity
  8
0
100
AcDbLine
 62
4
  6
CONTINUOUS
 10
9.7156741301
 20
9.8409177415
 11
9.7736296831
 21
9.8368985103
  0
LINE
  5
324
100
AcDbEntity
  8
0
100
AcDbLine
 62
4
  6
CONTINUOUS
 10
10.0827259659
 20
9.8154626102
 11
10.1406815189
 21
9.811443379
  0
LINE
  5
325
100
AcDbEntity
  8
0
100
AcDbLine
 62
4
  6
CONTINUOUS
 10
10.1793185542
 20
9.8087638915
 11
10.2372741072
 21
9.8047446602
  0
LINE
  5
326
100
AcDbEntity
  8
0
100
AcDbLine
 62
4
  6
CONTINUOUS
 10
10.0368444864
 20
9.8476222782
 11
10.0513333746
 21
9.8466174703
  0
LINE
  5
327
100
AcDbEntity
  8
0
100
AcDbLine
 62
4
  6
CONTINUOUS
 10
9.127425267
 20
9.9396684917
 11
9.069469714
 21
9.943687723
  0
LINE
  5
328
100
AcDbEntity
  8
0
100
AcDbLine
 62
4
  6
CONTINUOUS
 10
9.2433363731
 20
9.9316300292
 11
9.3012919261
 21
9.927610798
  0
LINE
  5
329
100
AcDbEntity
  8
0
100
AcDbLine
 62
4
  6
CONTINUOUS
 10
12.2246665507
 20
9.1192385126
 11
12.2391554387
 21
9.1085744485
  0
LINE
  5
32A
100
AcDbEntity
  8
0
100
AcDbLine
 62
4
  6
CONTINUOUS
 10
12.2391554387
 20
9.1085744485
 11
12.2463998826
 21
9.0984127814
  0
LINE
  5
32B
100
AcDbEntity
  8
0
100
AcDbLine
 62
7
  6
CONTINUOUS
 10
12.5748146901
 20
5.4167099298
 11
12.5748146901
 21
10.125598612
  0
LINE
  5
32C
100
AcDbEntity
  8
0
100
AcDbLine
 62
4
  6
CONTINUOUS
 10
12.3623109861
 20
9.0420780271
 11
12.3478220981
 21
9.062401351
  0
LINE
  5
32D
100
AcDbEntity
  8
0
100
AcDbLine
 62
4
  6
CONTINUOUS
 10
12.3550665421
 20
9.1005359862
 11
12.3478220981
 21
9.1106976464
  0
LINE
  5
32E
100
AcDbEntity
  8
0
100
AcDbLine
 62
7
  6
CONTINUOUS
 10
8.2281482142
 20
10.4270409559
 11
12.5748146901
 21
10.125598612
  0
LINE
  5
32F
100
AcDbEntity
  8
0
100
AcDbLine
 62
4
  6
CONTINUOUS
 10
12.3188443223
 20
6.5288555223
 11
12.3260887662
 21
6.5380123816
  0
LINE
  5
330
100
AcDbEntity
  8
0
100
AcDbLine
 62
4
  6
CONTINUOUS
 10
12.3188443223
 20
6.4612407143
 11
12.3333332102
 21
6.4795544243
  0
LINE
  5
331
100
AcDbEntity
  8
0
100
AcDbLine
 62
7
  6
CONTINUOUS
 10
13.7718517858
 20
6.5729590441
 11
13.7718517858
 21
11.2818477263
  0
LINE
  5
332
100
AcDbEntity
  8
0
100
AcDbLine
 62
7
  6
CONTINUOUS
 10
13.4055419978
 20
10.9280196206
 11
13.3746323688
 21
10.9301632107
  0
LINE
  5
333
100
AcDbEntity
  8
0
100
AcDbLine
 62
7
  6
CONTINUOUS
 10
9.0588755219
 20
11.2294619646
 11
9.0897851509
 21
11.2273183745
  0
LINE
  5
334
100
AcDbEntity
  8
0
100
AcDbLine
 62
7
  6
CONTINUOUS
 10
13.507161272
 20
11.0261763078
 11
13.4762516429
 21
11.0283198979
  0
LINE
  5
335
100
AcDbEntity
  8
0
100
AcDbLine
 62
7
  6
CONTINUOUS
 10
9.1604947961
 20
11.3276186518
 11
9.1914044251
 21
11.3254750617
  0
LINE
  5
336
100
AcDbEntity
  8
0
100
AcDbLine
 62
7
  6
CONTINUOUS
 10
13.7718517858
 20
11.2818477263
 11
9.4251853099
 21
11.5832900702
  0
LINE
  5
337
100
AcDbEntity
  8
0
100
AcDbLine
 62
7
  6
CONTINUOUS
 10
13.3746323688
 20
6.2212745285
 11
13.4762516429
 21
6.3194312157
  0
LINE
  5
338
100
AcDbEntity
  8
0
100
AcDbLine
 62
7
  6
CONTINUOUS
 10
12.5748146901
 20
5.4167099298
 11
13.4055419978
 21
6.2191309385
  0
LINE
  5
339
100
AcDbEntity
  8
0
100
AcDbLine
 62
7
  6
CONTINUOUS
 10
13.507161272
 20
6.3172876257
 11
13.7718517858
 21
6.5729590441
  0
ARC
  5
33A
100
AcDbEntity
  8
0
100
AcDbCircle
 62
7
  6
CONTINUOUS
 10
7.4616831309
 20
7.7624285679
 40
2.7517537277
100
AcDbArc
 50
352.0697781427
 51
353.5357291484
  0
ARC
  5
33B
100
AcDbEntity
  8
0
100
AcDbCircle
 62
7
  6
CONTINUOUS
 10
7.7009052464
 20
7.7281961949
 40
2.5100965585
100
AcDbArc
 50
349.8314464974
 51
352.0903272993
  0
ARC
  5
33C
100
AcDbEntity
  8
0
100
AcDbCircle
 62
7
  6
CONTINUOUS
 10
9.2624345314
 20
7.8860551414
 40
1.503883417
100
AcDbArc
 50
306.1826914324
 51
307.0786969587
  0
ARC
  5
33D
100
AcDbEntity
  8
0
100
AcDbCircle
 62
7
  6
CONTINUOUS
 10
11.8175131784
 20
9.4302937623
 40
0.5994163371
100
AcDbArc
 50
175.136235562
 51
180.0069676821
  0
ARC
  5
33E
100
AcDbEntity
  8
0
100
AcDbCircle
 62
7
  6
CONTINUOUS
 10
10.2488494736
 20
7.7279699282
 40
0.5994163371
100
AcDbArc
 50
175.136235562
 51
180.0069676821
  0
ARC
  5
33F
100
AcDbEntity
  8
0
100
AcDbCircle
 62
7
  6
CONTINUOUS
 10
11.8225985988
 20
9.4339676487
 40
0.5800068652
100
AcDbArc
 50
175.638730522
 51
180.0085476715
  0
ARC
  5
340
100
AcDbEntity
  8
0
100
AcDbCircle
 62
7
  6
CONTINUOUS
 10
10.2539348939
 20
7.7316438145
 40
0.5800068652
100
AcDbArc
 50
175.638730522
 51
180.0085476715
  0
ARC
  5
341
100
AcDbEntity
  8
0
100
AcDbCircle
 62
7
  6
CONTINUOUS
 10
11.8253679628
 20
9.4267986425
 40
0.4804363757
100
AcDbArc
 50
176.3798120336
 51
180.0017667696
  0
ARC
  5
342
100
AcDbEntity
  8
0
100
AcDbCircle
 62
7
  6
CONTINUOUS
 10
10.256704258
 20
7.7244748084
 40
0.4804363757
100
AcDbArc
 50
176.3798120336
 51
180.0017667696
  0
ARC
  5
343
100
AcDbEntity
  8
0
100
AcDbCircle
 62
7
  6
CONTINUOUS
 10
11.6738379268
 20
9.4437332575
 40
0.1730506821
100
AcDbArc
 50
266.0496648758
 51
267.5807144545
  0
SPLINE
  5
344
100
AcDbEntity
  8
0
100
AcDbSpline
 62
7
  6
CONTINUOUS
 70
0
 71
3
 72
33
 73
29
 74
0
 42
0.0000001
 43
0.0000001
 44
0.0000000001
 40
0.0
 40
0.0
 40
0.0
 40
0.0
 40
0.0958348039
 40
0.1891069742
 40
0.2792500435
 40
0.36572131
 40
0.4480125246
 40
0.5256540669
 40
0.5625988158
 40
0.598226802
 40
0.632494146
 40
0.6653609288
 40
0.6967920316
 40
0.726757616
 40
0.7552336203
 40
0.7822031337
 40
0.8076567456
 40
0.8315949344
 40
0.8540288219
 40
0.8749836671
 40
0.8945009457
 40
0.9126431418
 40
0.9294980666
 40
0.945184889
 40
0.9598599849
 40
0.9737213022
 40
0.9870092614
 40
1.0
 40
1.0
 40
1.0
 40
1.0
 10
12.4978108267
 20
10.4262185872
 30
0.0
 10
12.4923151118
 20
10.4265997163
 30
0.0
 10
12.4814785633
 20
10.4274726547
 30
0.0
 10
12.4655115092
 20
10.4291389773
 30
0.0
 10
12.4501247871
 20
10.4311358603
 30
0.0
 10
12.4354209517
 20
10.4334497294
 30
0.0
 10
12.4214980957
 20
10.4360648517
 30
0.0
 10
12.4104475524
 20
10.4385191148
 30
0.0
 10
12.4020743518
 20
10.4406305668
 30
0.0
 10
12.3961501954
 20
10.4422518083
 30
0.0
 10
12.3904871894
 20
10.4439341556
 30
0.0
 10
12.3850947416
 20
10.4456748424
 30
0.0
 10
12.3799818011
 20
10.447470932
 30
0.0
 10
12.3751568265
 20
10.4493194049
 30
0.0
 10
12.3706277846
 20
10.4512172137
 30
0.0
 10
12.3664020958
 20
10.4531611498
 30
0.0
 10
12.3624866792
 20
10.4551480948
 30
0.0
 10
12.3588878414
 20
10.4571747343
 30
0.0
 10
12.3556113913
 20
10.4592379497
 30
0.0
 10
12.3526624835
 20
10.4613344828
 30
0.0
 10
12.3500458062
 20
10.4634613593
 30
0.0
 10
12.3477654758
 20
10.4656156479
 30
0.0
 10
12.3458252979
 20
10.4677947456
 30
0.0
 10
12.3442289248
 20
10.4699962762
 30
0.0
 10
12.3429801315
 20
10.4722178229
 30
0.0
 10
12.3420832233
 20
10.4744568662
 30
0.0
 10
12.3415425168
 20
10.4767085963
 30
0.0
 10
12.3414216174
 20
10.4782217944
 30
0.0
 10
12.3414216174
 20
10.4789685468
 30
0.0
  0
SPLINE
  5
345
100
AcDbEntity
  8
0
100
AcDbSpline
 62
7
  6
CONTINUOUS
 70
0
 71
3
 72
33
 73
29
 74
0
 42
0.0000001
 43
0.0000001
 44
0.0000000001
 40
0.0
 40
0.0
 40
0.0
 40
0.0
 40
0.0958348039
 40
0.1891069742
 40
0.2792500435
 40
0.36572131
 40
0.4480125246
 40
0.5256540669
 40
0.5625988158
 40
0.598226802
 40
0.632494146
 40
0.6653609288
 40
0.6967920316
 40
0.726757616
 40
0.7552336203
 40
0.7822031337
 40
0.8076567456
 40
0.8315949344
 40
0.8540288219
 40
0.8749836671
 40
0.8945009457
 40
0.9126431418
 40
0.9294980666
 40
0.945184889
 40
0.9598599849
 40
0.9737213022
 40
0.9870092614
 40
1.0
 40
1.0
 40
1.0
 40
1.0
 10
8.8755887635
 20
10.6774205405
 30
0.0
 10
8.8700930486
 20
10.6778016696
 30
0.0
 10
8.8592565
 20
10.678674608
 30
0.0
 10
8.843289446
 20
10.6803409305
 30
0.0
 10
8.8279027239
 20
10.6823378136
 30
0.0
 10
8.8131988885
 20
10.6846516827
 30
0.0
 10
8.7992760325
 20
10.687266805
 30
0.0
 10
8.7882254892
 20
10.6897210681
 30
0.0
 10
8.7798522886
 20
10.6918325201
 30
0.0
 10
8.7739281322
 20
10.6934537616
 30
0.0
 10
8.7682651262
 20
10.6951361089
 30
0.0
 10
8.7628726784
 20
10.6968767957
 30
0.0
 10
8.7577597379
 20
10.6986728853
 30
0.0
 10
8.7529347633
 20
10.7005213581
 30
0.0
 10
8.7484057214
 20
10.702419167
 30
0.0
 10
8.7441800326
 20
10.7043631031
 30
0.0
 10
8.740264616
 20
10.7063500481
 30
0.0
 10
8.7366657782
 20
10.7083766876
 30
0.0
 10
8.7333893281
 20
10.710439903
 30
0.0
 10
8.7304404203
 20
10.7125364361
 30
0.0
 10
8.727823743
 20
10.7146633125
 30
0.0
 10
8.7255434126
 20
10.7168176012
 30
0.0
 10
8.7236032347
 20
10.7189966989
 30
0.0
 10
8.7220068616
 20
10.7211982294
 30
0.0
 10
8.7207580682
 20
10.7234197762
 30
0.0
 10
8.7198611601
 20
10.7256588194
 30
0.0
 10
8.7193204536
 20
10.7279105496
 30
0.0
 10
8.7191995542
 20
10.7294237477
 30
0.0
 10
8.7191995542
 20
10.7301705001
 30
0.0
  0
SPLINE
  5
346
100
AcDbEntity
  8
0
100
AcDbSpline
 62
7
  6
CONTINUOUS
 70
0
 71
3
 72
23
 73
19
 74
0
 42
0.0000001
 43
0.0000001
 44
0.0000000001
 40
0.0
 40
0.0
 40
0.0
 40
0.0
 40
0.0637776914
 40
0.1273445726
 40
0.19070205
 40
0.2538561286
 40
0.3168131755
 40
0.3795820937
 40
0.4421733816
 40
0.5045993375
 40
0.566873868
 40
0.6290123843
 40
0.691031656
 40
0.7529496505
 40
0.8147853588
 40
0.8765586069
 40
0.938289857
 40
1.0
 40
1.0
 40
1.0
 40
1.0
 10
11.9411673455
 20
8.7206533793
 30
0.0
 10
11.9411673455
 20
8.7085880197
 30
0.0
 10
11.9405898968
 20
8.6844930909
 30
0.0
 10
11.9379833301
 20
8.6484971779
 30
0.0
 10
11.9336435598
 20
8.6127867234
 30
0.0
 10
11.9275806908
 20
8.577445268
 30
0.0
 10
11.9198084793
 20
8.5425538495
 30
0.0
 10
11.910344834
 20
8.5081930346
 30
0.0
 10
11.8992114564
 20
8.4744420072
 30
0.0
 10
11.8864339513
 20
8.4413786065
 30
0.0
 10
11.8720417025
 20
8.4090790854
 30
0.0
 10
11.8560678319
 20
8.3776179455
 30
0.0
 10
11.8385491299
 20
8.347067764
 30
0.0
 10
11.8195259372
 20
8.3174990013
 30
0.0
 10
11.7990421534
 20
8.2889799361
 30
0.0
 10
11.777144763
 20
8.2615761353
 30
0.0
 10
11.7538851172
 20
8.2353516811
 30
0.0
 10
11.7375031923
 20
8.2186921932
 30
0.0
 10
11.729106464
 20
8.2105815543
 30
0.0
  0
SPLINE
  5
347
100
AcDbEntity
  8
0
100
AcDbSpline
 62
7
  6
CONTINUOUS
 70
0
 71
3
 72
23
 73
19
 74
0
 42
0.0000001
 43
0.0000001
 44
0.0000000001
 40
0.0
 40
0.0
 40
0.0
 40
0.0
 40
0.0637776914
 40
0.1273445726
 40
0.19070205
 40
0.2538561286
 40
0.3168131755
 40
0.3795820937
 40
0.4421733816
 40
0.5045993375
 40
0.566873868
 40
0.6290123843
 40
0.691031656
 40
0.7529496505
 40
0.8147853588
 40
0.8765586069
 40
0.938289857
 40
1.0
 40
1.0
 40
1.0
 40
1.0
 10
10.3725036406
 20
7.0183295451
 30
0.0
 10
10.3725036406
 20
7.0062641855
 30
0.0
 10
10.3719261919
 20
6.9821692567
 30
0.0
 10
10.3693196253
 20
6.9461733438
 30
0.0
 10
10.3649798549
 20
6.9104628893
 30
0.0
 10
10.3589169859
 20
6.8751214339
 30
0.0
 10
10.3511447745
 20
6.8402300153
 30
0.0
 10
10.3416811291
 20
6.8058692004
 30
0.0
 10
10.3305477515
 20
6.772118173
 30
0.0
 10
10.3177702465
 20
6.7390547723
 30
0.0
 10
10.3033779976
 20
6.7067552512
 30
0.0
 10
10.2874041271
 20
6.6752941113
 30
0.0
 10
10.2698854251
 20
6.6447439298
 30
0.0
 10
10.2508622323
 20
6.6151751671
 30
0.0
 10
10.2303784485
 20
6.5866561019
 30
0.0
 10
10.2084810582
 20
6.5592523012
 30
0.0
 10
10.1852214124
 20
6.5330278469
 30
0.0
 10
10.1688394874
 20
6.516368359
 30
0.0
 10
10.1604427592
 20
6.5082577201
 30
0.0
  0
SPLINE
  5
348
100
AcDbEntity
  8
0
100
AcDbSpline
 62
7
  6
CONTINUOUS
 70
0
 71
3
 72
23
 73
19
 74
0
 42
0.0000001
 43
0.0000001
 44
0.0000000001
 40
0.0
 40
0.0
 40
0.0
 40
0.0
 40
0.0637774724
 40
0.127344696
 40
0.1907020124
 40
0.2538561402
 40
0.3168131804
 40
0.3795820984
 40
0.4421733882
 40
0.5045993399
 40
0.5668738668
 40
0.6290123797
 40
0.6910316501
 40
0.7529496455
 40
0.8147853558
 40
0.8765586055
 40
0.9382898564
 40
1.0
 40
1.0
 40
1.0
 40
1.0
 10
11.8960276348
 20
8.7390517644
 30
0.0
 10
11.8960276348
 20
8.7279429959
 30
0.0
 10
11.8954959496
 20
8.7057583146
 30
0.0
 10
11.8930960519
 20
8.672616196
 30
0.0
 10
11.8891002996
 20
8.6397368641
 30
0.0
 10
11.8835181051
 20
8.6071973326
 30
0.0
 10
11.8763620612
 20
8.5750721349
 30
0.0
 10
11.8676486814
 20
8.5434354838
 30
0.0
 10
11.8573979269
 20
8.512360283
 30
0.0
 10
11.845633381
 20
8.481918201
 30
0.0
 10
11.8323821142
 20
8.4521794399
 30
0.0
 10
11.8176746266
 20
8.4232125907
 30
0.0
 10
11.8015447874
 20
8.3950844774
 30
0.0
 10
11.7840297322
 20
8.3678599782
 30
0.0
 10
11.765169869
 20
8.3416019674
 30
0.0
 10
11.7450084558
 20
8.3163708189
 30
0.0
 10
11.723592792
 20
8.2922255194
 30
0.0
 10
11.7085095869
 20
8.2768868649
 30
0.0
 10
11.7007785457
 20
8.2694192587
 30
0.0
  0
SPLINE
  5
349
100
AcDbEntity
  8
0
100
AcDbSpline
 62
7
  6
CONTINUOUS
 70
0
 71
3
 72
15
 73
11
 74
0
 42
0.0000001
 43
0.0000001
 44
0.0000000001
 40
0.0
 40
0.0
 40
0.0
 40
0.0
 40
0.1264442311
 40
0.2523456173
 40
0.3777573463
 40
0.502743308
 40
0.6273767125
 40
0.7517385671
 40
0.8759159311
 40
1.0
 40
1.0
 40
1.0
 40
1.0
 10
11.8923787581
 20
8.6672504863
 30
0.0
 10
11.8893473154
 20
8.6523458664
 30
0.0
 10
11.8822078997
 20
8.622809889
 30
0.0
 10
11.8682881154
 20
8.5795128814
 30
0.0
 10
11.8512497922
 20
8.5375315534
 30
0.0
 10
11.8311797441
 20
8.4970826153
 30
0.0
 10
11.8081797537
 20
8.4583712937
 30
0.0
 10
11.7823659583
 20
8.421594268
 30
0.0
 10
11.7538719614
 20
8.3869411614
 30
0.0
 10
11.7331770648
 20
8.3653640427
 30
0.0
 10
11.7224415415
 20
8.354994358
 30
0.0
  0
SPLINE
  5
34A
100
AcDbEntity
  8
0
100
AcDbSpline
 62
7
  6
CONTINUOUS
 70
0
 71
3
 72
47
 73
43
 74
0
 42
0.0000001
 43
0.0000001
 44
0.0000000001
 40
0.0
 40
0.0
 40
0.0
 40
0.0
 40
0.007143046
 40
0.0146360302
 40
0.0224940305
 40
0.0307286884
 40
0.0393484106
 40
0.0483583624
 40
0.0577613828
 40
0.0675583518
 40
0.0777483818
 40
0.0883293202
 40
0.0992976567
 40
0.1106491391
 40
0.1223784618
 40
0.1344798558
 40
0.146946791
 40
0.1597723306
 40
0.1864660515
 40
0.2144998339
 40
0.2438035441
 40
0.2743009185
 40
0.3059092322
 40
0.3385390241
 40
0.3720940609
 40
0.4064724958
 40
0.4415691377
 40
0.4772782982
 40
0.5134973085
 40
0.5501299432
 40
0.587089148
 40
0.624298487
 40
0.6616924593
 40
0.6992160037
 40
0.7368232625
 40
0.7744761999
 40
0.8121434406
 40
0.8497994712
 40
0.88742429
 40
0.9250036555
 40
0.9625290932
 40
1.0
 40
1.0
 40
1.0
 40
1.0
 10
11.4580275741
 20
8.4589484285
 30
0.0
 10
11.4561014553
 20
8.4570879405
 30
0.0
 10
11.4520280256
 20
8.4534054442
 30
0.0
 10
11.4454477488
 20
8.4481247589
 30
0.0
 10
11.4382616552
 20
8.4429656761
 30
0.0
 10
11.4304761962
 20
8.4379373014
 30
0.0
 10
11.4220980536
 20
8.4330495555
 30
0.0
 10
11.4131343893
 20
8.4283146432
 30
0.0
 10
11.4035931458
 20
8.423746295
 30
0.0
 10
11.3934829107
 20
8.4193598991
 30
0.0
 10
11.3828128752
 20
8.4151726087
 30
0.0
 10
11.3715931608
 20
8.4112028407
 30
0.0
 10
11.3598344733
 20
8.4074709645
 30
0.0
 10
11.347548662
 20
8.4039982608
 30
0.0
 10
11.334748271
 20
8.4008079662
 30
0.0
 10
11.3214471752
 20
8.3979241005
 30
0.0
 10
11.307660069
 20
8.3953722987
 30
0.0
 10
11.2883945001
 20
8.3924086309
 30
0.0
 10
11.2631950629
 20
8.3897154246
 30
0.0
 10
11.231703766
 20
8.3882977306
 30
0.0
 10
11.1987571029
 20
8.3888906274
 30
0.0
 10
11.1645806112
 20
8.3917321513
 30
0.0
 10
11.1294364671
 20
8.3970499991
 30
0.0
 10
11.0936256803
 20
8.405049704
 30
0.0
 10
11.0574848601
 20
8.4159013776
 30
0.0
 10
11.0213790483
 20
8.4297268967
 30
0.0
 10
10.9856903347
 20
8.446590062
 30
0.0
 10
10.9508029624
 20
8.4664899879
 30
0.0
 10
10.9170873529
 20
8.4893606206
 30
0.0
 10
10.8848858447
 20
8.5150765181
 30
0.0
 10
10.8545010535
 20
8.5434618635
 30
0.0
 10
10.8261898471
 20
8.5743033607
 30
0.0
 10
10.8001621393
 20
8.607363203
 30
0.0
 10
10.7765832271
 20
8.6423903632
 30
0.0
 10
10.7555792599
 20
8.6791299919
 30
0.0
 10
10.7372439463
 20
8.7173300255
 30
0.0
 10
10.7216451921
 20
8.7567452791
 30
0.0
 10
10.7088311474
 20
8.7971397966
 30
0.0
 10
10.6988352234
 20
8.8382875516
 30
0.0
 10
10.691680177
 20
8.8799735759
 30
0.0
 10
10.6873805515
 20
8.9219898275
 30
0.0
 10
10.6864229302
 20
8.950115378
 30
0.0
 10
10.6864229302
 20
8.9641632713
 30
0.0
  0
SPLINE
  5
34B
100
AcDbEntity
  8
0
100
AcDbSpline
 62
7
  6
CONTINUOUS
 70
0
 71
3
 72
47
 73
43
 74
0
 42
0.0000001
 43
0.0000001
 44
0.0000000001
 40
0.0
 40
0.0
 40
0.0
 40
0.0
 40
0.0310739092
 40
0.0623050493
 40
0.093688793
 40
0.1252165054
 40
0.1568767965
 40
0.1886554889
 40
0.2205359759
 40
0.252499584
 40
0.2845259636
 40
0.3165935101
 40
0.3486797987
 40
0.3807620323
 40
0.4128174943
 40
0.4448239996
 40
0.4767603407
 40
0.5086067173
 40
0.5403451453
 40
0.5719598413
 40
0.6034375724
 40
0.6347679604
 40
0.6659437388
 40
0.6969609577
 40
0.7278191155
 40
0.7585212212
 40
0.7738184273
 40
0.7890793501
 40
0.8043053363
 40
0.819497931
 40
0.8346588746
 40
0.8497900954
 40
0.8648936935
 40
0.8799719343
 40
0.8950272361
 40
0.9100621516
 40
0.925079358
 40
0.9400816404
 40
0.9550718718
 40
0.9700530002
 40
0.9850280299
 40
1.0
 40
1.0
 40
1.0
 40
1.0
 10
11.8960276348
 20
8.7390517644
 30
0.0
 10
11.8960276348
 20
8.7562869456
 30
0.0
 10
11.89474192
 20
8.7908577786
 30
0.0
 10
11.889001537
 20
8.842548517
 30
0.0
 10
11.8794768198
 20
8.8939357353
 30
0.0
 10
11.8662203912
 20
8.9447335927
 30
0.0
 10
11.8493056371
 20
8.994664115
 30
0.0
 10
11.8288258803
 20
9.043453004
 30
0.0
 10
11.8048938671
 20
9.0908325746
 30
0.0
 10
11.7776412271
 20
9.136542806
 30
0.0
 10
11.7472178234
 20
9.1803329274
 30
0.0
 10
11.7137907763
 20
9.2219626559
 30
0.0
 10
11.6775435869
 20
9.2612035011
 30
0.0
 10
11.6386752752
 20
9.297840129
 30
0.0
 10
11.5973991622
 20
9.3316714294
 30
0.0
 10
11.5539416982
 20
9.3625115608
 30
0.0
 10
11.5085413403
 20
9.3901910902
 30
0.0
 10
11.4614472152
 20
9.4145578922
 30
0.0
 10
11.412917714
 20
9.4354778671
 30
0.0
 10
11.363219145
 20
9.4528357473
 30
0.0
 10
11.3126243345
 20
9.4665358471
 30
0.0
 10
11.26141102
 20
9.4765024073
 30
0.0
 10
11.2098606074
 20
9.4826800729
 30
0.0
 10
11.1582558197
 20
9.4850342441
 30
0.0
 10
11.1068822714
 20
9.4835517417
 30
0.0
 10
11.0644396665
 20
9.479118533
 30
0.0
 10
11.0308949857
 20
9.4736666261
 30
0.0
 10
11.005996985
 20
9.4686382135
 30
0.0
 10
10.981366761
 20
9.4626727332
 30
0.0
 10
10.957037761
 20
9.4557782371
 30
0.0
 10
10.9330435747
 20
9.4479642447
 30
0.0
 10
10.9094171631
 20
9.4392415403
 30
0.0
 10
10.8861910882
 20
9.429621998
 30
0.0
 10
10.8633972824
 20
9.4191189146
 30
0.0
 10
10.841067101
 20
9.4077467484
 30
0.0
 10
10.8192313288
 20
9.3955210351
 30
0.0
 10
10.7979199707
 20
9.3824586838
 30
0.0
 10
10.7771623534
 20
9.3685776403
 30
0.0
 10
10.7569871276
 20
9.3538969508
 30
0.0
 10
10.7374218939
 20
9.3384368117
 30
0.0
 10
10.7184939749
 20
9.3222188182
 30
0.0
 10
10.7063163034
 20
9.3109151471
 30
0.0
 10
10.7003434517
 20
9.3051458202
 30
0.0
  0
SPLINE
  5
34C
100
AcDbEntity
  8
0
100
AcDbSpline
 62
7
  6
CONTINUOUS
 70
0
 71
3
 72
23
 73
19
 74
0
 42
0.0000001
 43
0.0000001
 44
0.0000000001
 40
0.0
 40
0.0
 40
0.0
 40
0.0
 40
0.0620640523
 40
0.1240875249
 40
0.186079545
 40
0.2480598093
 40
0.3100482896
 40
0.3720692178
 40
0.4341496007
 40
0.4963183573
 40
0.558605502
 40
0.6210408622
 40
0.6836525987
 40
0.7464654984
 40
0.8094991483
 40
0.8727659572
 40
0.9362689793
 40
1.0
 40
1.0
 40
1.0
 40
1.0
 10
10.6864229302
 20
8.9641632713
 30
0.0
 10
10.6864229302
 20
8.9732455091
 30
0.0
 10
10.6868227037
 20
8.9914066
 30
0.0
 10
10.6886227949
 20
9.0185857197
 30
0.0
 10
10.6916221779
 20
9.0456470032
 30
0.0
 10
10.6958183732
 20
9.0725434235
 30
0.0
 10
10.7012082865
 20
9.0992306823
 30
0.0
 10
10.7077872675
 20
9.1256650913
 30
0.0
 10
10.715549165
 20
9.1518042205
 30
0.0
 10
10.724485967
 20
9.1776065798
 30
0.0
 10
10.7345873973
 20
9.2030315404
 30
0.0
 10
10.7458403893
 20
9.2280392762
 30
0.0
 10
10.7582284898
 20
9.2525907131
 30
0.0
 10
10.771731282
 20
9.2766475149
 30
0.0
 10
10.7863236332
 20
9.300172093
 30
0.0
 10
10.8019751125
 20
9.3231279274
 30
0.0
 10
10.818648516
 20
9.3454791328
 30
0.0
 10
10.8303974701
 20
9.3599311242
 30
0.0
 10
10.8364262798
 20
9.3670466716
 30
0.0
  0
SPLINE
  5
34D
100
AcDbEntity
  8
0
100
AcDbSpline
 62
7
  6
CONTINUOUS
 70
0
 71
3
 72
18
 73
14
 74
0
 42
0.0000001
 43
0.0000001
 44
0.0000000001
 40
0.0
 40
0.0
 40
0.0
 40
0.0
 40
0.1264277499
 40
0.2523154137
 40
0.3777161502
 40
0.5026936021
 40
0.6273206272
 40
0.6895387991
 40
0.751700113
 40
0.8138155617
 40
0.8758963798
 40
0.937954003
 40
1.0
 40
1.0
 40
1.0
 40
1.0
 10
11.1034148978
 20
9.4826488442
 30
0.0
 10
11.0884687574
 20
9.4801159218
 30
0.0
 10
11.0588127178
 20
9.4739719306
 30
0.0
 10
11.015223325
 20
9.461534309
 30
0.0
 10
10.9728369132
 20
9.4459559348
 30
0.0
 10
10.931872291
 20
9.4273165851
 30
0.0
 10
10.8990677359
 20
9.4092972433
 30
0.0
 10
10.873751509
 20
9.3934581263
 30
0.0
 10
10.8552527128
 20
9.3808849071
 30
0.0
 10
10.8372579132
 20
9.3676286986
 30
0.0
 10
10.8197894571
 20
9.3537058569
 30
0.0
 10
10.8028696918
 20
9.3391344341
 30
0.0
 10
10.7919688351
 20
9.3289988812
 30
0.0
 10
10.7866178669
 20
9.32383026
 30
0.0
  0
SPLINE
  5
34E
100
AcDbEntity
  8
0
100
AcDbSpline
 62
7
  6
CONTINUOUS
 70
0
 71
3
 72
23
 73
19
 74
0
 42
0.0000001
 43
0.0000001
 44
0.0000000001
 40
0.0
 40
0.0
 40
0.0
 40
0.0
 40
0.0637774724
 40
0.127344696
 40
0.1907020124
 40
0.2538561402
 40
0.3168131804
 40
0.3795820984
 40
0.4421733882
 40
0.5045993399
 40
0.5668738668
 40
0.6290123797
 40
0.6910316501
 40
0.7529496455
 40
0.8147853558
 40
0.8765586055
 40
0.9382898564
 40
1.0
 40
1.0
 40
1.0
 40
1.0
 10
10.32736393
 20
7.0367279302
 30
0.0
 10
10.32736393
 20
7.0256191617
 30
0.0
 10
10.3268322448
 20
7.0034344805
 30
0.0
 10
10.3244323471
 20
6.9702923618
 30
0.0
 10
10.3204365947
 20
6.93741303
 30
0.0
 10
10.3148544003
 20
6.9048734985
 30
0.0
 10
10.3076983563
 20
6.8727483007
 30
0.0
 10
10.2989849765
 20
6.8411116496
 30
0.0
 10
10.2887342221
 20
6.8100364488
 30
0.0
 10
10.2769696762
 20
6.7795943668
 30
0.0
 10
10.2637184094
 20
6.7498556057
 30
0.0
 10
10.2490109217
 20
6.7208887565
 30
0.0
 10
10.2328810825
 20
6.6927606432
 30
0.0
 10
10.2153660273
 20
6.665536144
 30
0.0
 10
10.1965061642
 20
6.6392781332
 30
0.0
 10
10.176344751
 20
6.6140469847
 30
0.0
 10
10.1549290871
 20
6.5899016852
 30
0.0
 10
10.1398458821
 20
6.5745630308
 30
0.0
 10
10.1321148409
 20
6.5670954245
 30
0.0
  0
SPLINE
  5
34F
100
AcDbEntity
  8
0
100
AcDbSpline
 62
7
  6
CONTINUOUS
 70
0
 71
3
 72
36
 73
32
 74
0
 42
0.0000001
 43
0.0000001
 44
0.0000000001
 40
0.0
 40
0.0
 40
0.0
 40
0.0
 40
0.1012057964
 40
0.1966189575
 40
0.2861402554
 40
0.3286877976
 40
0.3697568797
 40
0.4093543862
 40
0.4474919968
 40
0.4841848961
 40
0.5194530648
 40
0.5533198318
 40
0.5858134318
 40
0.6169653407
 40
0.6468125059
 40
0.6753952089
 40
0.7027601389
 40
0.7289578549
 40
0.7540464796
 40
0.7780892196
 40
0.8011579339
 40
0.8233314931
 40
0.8446979972
 40
0.8653546393
 40
0.8854074091
 40
0.904972423
 40
0.9241726284
 40
0.9431394336
 40
0.9620076531
 40
0.9809153839
 40
1.0
 40
1.0
 40
1.0
 40
1.0
 10
10.1502699499
 20
6.6722126469
 30
0.0
 10
10.143896939
 20
6.6690268058
 30
0.0
 10
10.1313001288
 20
6.6632553074
 30
0.0
 10
10.1124093851
 20
6.6562106409
 30
0.0
 10
10.0970049802
 20
6.6517651862
 30
0.0
 10
10.0851068916
 20
6.6491048374
 30
0.0
 10
10.0765683827
 20
6.6475610569
 30
0.0
 10
10.0682798472
 20
6.6464220532
 30
0.0
 10
10.0602562165
 20
6.6456738843
 30
0.0
 10
10.0525114121
 20
6.6453022548
 30
0.0
 10
10.045058287
 20
6.6452920038
 30
0.0
 10
10.0379085745
 20
6.6456278405
 30
0.0
 10
10.0310730242
 20
6.6462938667
 30
0.0
 10
10.0245613483
 20
6.647274272
 30
0.0
 10
10.0183823626
 20
6.6485528692
 30
0.0
 10
10.0125439511
 20
6.6501137243
 30
0.0
 10
10.0070532246
 20
6.6519407699
 30
0.0
 10
10.0019164719
 20
6.6540182742
 30
0.0
 10
9.9971393646
 20
6.6563306245
 30
0.0
 10
9.992726863
 20
6.6588625573
 30
0.0
 10
9.9886834766
 20
6.661599146
 30
0.0
 10
9.985013134
 20
6.6645257981
 30
0.0
 10
9.9817194448
 20
6.667628372
 30
0.0
 10
9.9788055959
 20
6.6708930288
 30
0.0
 10
9.9762745026
 20
6.6743063836
 30
0.0
 10
9.9741287567
 20
6.6778552819
 30
0.0
 10
9.9723706352
 20
6.6815269994
 30
0.0
 10
9.9710020241
 20
6.6853089673
 30
0.0
 10
9.9700243831
 20
6.6891892226
 30
0.0
 10
9.9694386892
 20
6.6931555592
 30
0.0
 10
9.9693106644
 20
6.6958321787
 30
0.0
 10
9.9693105719
 20
6.6971757465
 30
0.0
  0
SPLINE
  5
350
100
AcDbEntity
  8
0
100
AcDbSpline
 62
7
  6
CONTINUOUS
 70
0
 71
3
 72
15
 73
11
 74
0
 42
0.0000001
 43
0.0000001
 44
0.0000000001
 40
0.0
 40
0.0
 40
0.0
 40
0.0
 40
0.1264442311
 40
0.2523456173
 40
0.3777573463
 40
0.502743308
 40
0.6273767125
 40
0.7517385671
 40
0.8759159311
 40
1.0
 40
1.0
 40
1.0
 40
1.0
 10
10.3237150533
 20
6.9649266522
 30
0.0
 10
10.3206836106
 20
6.9500220322
 30
0.0
 10
10.3135441948
 20
6.9204860549
 30
0.0
 10
10.2996244105
 20
6.8771890472
 30
0.0
 10
10.2825860874
 20
6.8352077193
 30
0.0
 10
10.2625160393
 20
6.7947587811
 30
0.0
 10
10.2395160488
 20
6.7560474596
 30
0.0
 10
10.2137022535
 20
6.7192704338
 30
0.0
 10
10.1852082565
 20
6.6846173272
 30
0.0
 10
10.1645133599
 20
6.6630402085
 30
0.0
 10
10.1537778367
 20
6.6526705238
 30
0.0
  0
SPLINE
  5
351
100
AcDbEntity
  8
0
100
AcDbSpline
 62
7
  6
CONTINUOUS
 70
0
 71
3
 72
47
 73
43
 74
0
 42
0.0000001
 43
0.0000001
 44
0.0000000001
 40
0.0
 40
0.0
 40
0.0
 40
0.0
 40
0.0310739092
 40
0.0623050493
 40
0.093688793
 40
0.1252165054
 40
0.1568767965
 40
0.1886554889
 40
0.2205359759
 40
0.252499584
 40
0.2845259636
 40
0.3165935101
 40
0.3486797987
 40
0.3807620323
 40
0.4128174943
 40
0.4448239996
 40
0.4767603407
 40
0.5086067173
 40
0.5403451453
 40
0.5719598413
 40
0.6034375724
 40
0.6347679604
 40
0.6659437388
 40
0.6969609577
 40
0.7278191155
 40
0.7585212212
 40
0.7738184273
 40
0.7890793501
 40
0.8043053363
 40
0.819497931
 40
0.8346588746
 40
0.8497900954
 40
0.8648936935
 40
0.8799719343
 40
0.8950272361
 40
0.9100621516
 40
0.925079358
 40
0.9400816404
 40
0.9550718718
 40
0.9700530002
 40
0.9850280299
 40
1.0
 40
1.0
 40
1.0
 40
1.0
 10
10.32736393
 20
7.0367279302
 30
0.0
 10
10.32736393
 20
7.0539631114
 30
0.0
 10
10.3260782151
 20
7.0885339444
 30
0.0
 10
10.3203378322
 20
7.1402246828
 30
0.0
 10
10.310813115
 20
7.1916119012
 30
0.0
 10
10.2975566863
 20
7.2424097585
 30
0.0
 10
10.2806419323
 20
7.2923402808
 30
0.0
 10
10.2601621755
 20
7.3411291698
 30
0.0
 10
10.2362301622
 20
7.3885087404
 30
0.0
 10
10.2089775222
 20
7.4342189718
 30
0.0
 10
10.1785541186
 20
7.4780090932
 30
0.0
 10
10.1451270714
 20
7.5196388218
 30
0.0
 10
10.108879882
 20
7.5588796669
 30
0.0
 10
10.0700115704
 20
7.5955162948
 30
0.0
 10
10.0287354574
 20
7.6293475952
 30
0.0
 10
9.9852779934
 20
7.6601877266
 30
0.0
 10
9.9398776354
 20
7.687867256
 30
0.0
 10
9.8927835104
 20
7.7122340581
 30
0.0
 10
9.8442540091
 20
7.7331540329
 30
0.0
 10
9.7945554402
 20
7.7505119132
 30
0.0
 10
9.7439606296
 20
7.7642120129
 30
0.0
 10
9.6927473152
 20
7.7741785731
 30
0.0
 10
9.6411969025
 20
7.7803562388
 30
0.0
 10
9.5895921148
 20
7.7827104099
 30
0.0
 10
9.5382185665
 20
7.7812279076
 30
0.0
 10
9.4957759616
 20
7.7767946988
 30
0.0
 10
9.4622312808
 20
7.771342792
 30
0.0
 10
9.4373332801
 20
7.7663143793
 30
0.0
 10
9.4127030562
 20
7.760348899
 30
0.0
 10
9.3883740562
 20
7.7534544029
 30
0.0
 10
9.3643798699
 20
7.7456404105
 30
0.0
 10
9.3407534583
 20
7.7369177061
 30
0.0
 10
9.3175273833
 20
7.7272981638
 30
0.0
 10
9.2947335775
 20
7.7167950804
 30
0.0
 10
9.2724033961
 20
7.7054229142
 30
0.0
 10
9.2505676239
 20
7.6931972009
 30
0.0
 10
9.2292562659
 20
7.6801348496
 30
0.0
 10
9.2084986486
 20
7.6662538061
 30
0.0
 10
9.1883234227
 20
7.6515731166
 30
0.0
 10
9.1687581891
 20
7.6361129775
 30
0.0
 10
9.1498302701
 20
7.619894984
 30
0.0
 10
9.1376525985
 20
7.608591313
 30
0.0
 10
9.1316797469
 20
7.602821986
 30
0.0
  0
SPLINE
  5
352
100
AcDbEntity
  8
0
100
AcDbSpline
 62
7
  6
CONTINUOUS
 70
0
 71
3
 72
18
 73
14
 74
0
 42
0.0000001
 43
0.0000001
 44
0.0000000001
 40
0.0
 40
0.0
 40
0.0
 40
0.0
 40
0.1264277499
 40
0.2523154137
 40
0.3777161502
 40
0.5026936021
 40
0.6273206272
 40
0.6895387991
 40
0.751700113
 40
0.8138155617
 40
0.8758963798
 40
0.937954003
 40
1.0
 40
1.0
 40
1.0
 40
1.0
 10
9.534751193
 20
7.78032501
 30
0.0
 10
9.5198050525
 20
7.7777920876
 30
0.0
 10
9.490149013
 20
7.7716480964
 30
0.0
 10
9.4465596202
 20
7.7592104748
 30
0.0
 10
9.4041732083
 20
7.7436321006
 30
0.0
 10
9.3632085862
 20
7.7249927509
 30
0.0
 10
9.330404031
 20
7.7069734091
 30
0.0
 10
9.3050878041
 20
7.6911342922
 30
0.0
 10
9.2865890079
 20
7.6785610729
 30
0.0
 10
9.2685942083
 20
7.6653048644
 30
0.0
 10
9.2511257522
 20
7.6513820227
 30
0.0
 10
9.234205987
 20
7.6368105999
 30
0.0
 10
9.2233051302
 20
7.626675047
 30
0.0
 10
9.217954162
 20
7.6215064258
 30
0.0
  0
SPLINE
  5
353
100
AcDbEntity
  8
0
100
AcDbSpline
 62
7
  6
CONTINUOUS
 70
0
 71
3
 72
9
 73
5
 74
0
 42
0.0000001
 43
0.0000001
 44
0.0000000001
 40
0.0
 40
0.0
 40
0.0
 40
0.0
 40
0.4887924787
 40
1.0
 40
1.0
 40
1.0
 40
1.0
 10
9.8458750714
 20
7.7035670397
 30
0.0
 10
9.8446433435
 20
7.7083903162
 30
0.0
 10
9.8425289487
 20
7.7183653856
 30
0.0
 10
9.8412082637
 20
7.7284753374
 30
0.0
 10
9.8407265888
 20
7.7336593591
 30
0.0
  0
SPLINE
  5
354
100
AcDbEntity
  8
0
100
AcDbSpline
 62
7
  6
CONTINUOUS
 70
0
 71
3
 72
11
 73
7
 74
0
 42
0.0000001
 43
0.0000001
 44
0.0000000001
 40
0.0
 40
0.0
 40
0.0
 40
0.0
 40
0.2574089082
 40
0.5085363059
 40
0.7553602741
 40
1.0
 40
1.0
 40
1.0
 40
1.0
 10
13.507161272
 20
11.0261763078
 30
0.0
 10
13.5095000589
 20
11.0269122751
 30
0.0
 10
13.5141848818
 20
11.0281719252
 30
0.0
 10
13.5212836333
 20
11.0294045135
 30
0.0
 10
13.5283462983
 20
11.0299507393
 30
0.0
 10
13.5330354046
 20
11.0298562248
 30
0.0
 10
13.5353600432
 20
11.0296949997
 30
0.0
  0
SPLINE
  5
355
100
AcDbEntity
  8
0
100
AcDbSpline
 62
7
  6
CONTINUOUS
 70
0
 71
3
 72
42
 73
38
 74
0
 42
0.0000001
 43
0.0000001
 44
0.0000000001
 40
0.0
 40
0.0
 40
0.0
 40
0.0
 40
0.0055576443
 40
0.0111781836
 40
0.0169222355
 40
0.022846223
 40
0.0290011442
 40
0.0354316623
 40
0.0421762431
 40
0.049267259
 40
0.0567314277
 40
0.0645907244
 40
0.072862575
 40
0.081560766
 40
0.0906959315
 40
0.100275708
 40
0.1103055927
 40
0.1207888494
 40
0.1431177711
 40
0.1672591076
 40
0.1931868442
 40
0.2208588039
 40
0.2502193991
 40
0.2812018039
 40
0.3137295194
 40
0.3477175618
 40
0.3830734051
 40
0.419697946
 40
0.4574862654
 40
0.4963282772
 40
0.5361092896
 40
0.5767106614
 40
0.6598810502
 40
0.7448351505
 40
0.8305372122
 40
0.9159392559
 40
1.0
 40
1.0
 40
1.0
 40
1.0
 10
12.7634215829
 20
10.4789685468
 30
0.0
 10
12.7634215829
 20
10.4784465742
 30
0.0
 10
12.7633631627
 20
10.477395812
 30
0.0
 10
12.7631008557
 20
10.4758252796
 30
0.0
 10
12.7626643605
 20
10.4742582548
 30
0.0
 10
12.7620545552
 20
10.4726965324
 30
0.0
 10
12.7612723462
 20
10.4711414262
 30
0.0
 10
12.7603188975
 20
10.4695940709
 30
0.0
 10
12.7591952217
 20
10.4680555665
 30
0.0
 10
12.7579024316
 20
10.4665269533
 30
0.0
 10
12.7564417248
 20
10.4650092131
 30
0.0
 10
12.7548142614
 20
10.4635034701
 30
0.0
 10
12.7530214161
 20
10.4620107453
 30
0.0
 10
12.7510646083
 20
10.4605321526
 30
0.0
 10
12.7489453762
 20
10.4590688482
 30
0.0
 10
12.7466654457
 20
10.4576219049
 30
0.0
 10
12.7442266036
 20
10.4561924894
 30
0.0
 10
12.7406907007
 20
10.4542709299
 30
0.0
 10
12.7358774902
 20
10.4519305286
 30
0.0
 10
12.7296192908
 20
10.4492658242
 30
0.0
 10
12.7227823966
 20
10.4466973757
 30
0.0
 10
12.7153888836
 20
10.4442335943
 30
0.0
 10
12.7074624926
 20
10.4418825724
 30
0.0
 10
12.6990289117
 20
10.4396520814
 30
0.0
 10
12.6901155352
 20
10.4375495081
 30
0.0
 10
12.6807514001
 20
10.4355818252
 30
0.0
 10
12.670967071
 20
10.4337555384
 30
0.0
 10
12.6607945214
 20
10.4320766931
 30
0.0
 10
12.6502670104
 20
10.4305508448
 30
0.0
 10
12.6394189879
 20
10.4291830593
 30
0.0
 10
12.6282859389
 20
10.427977819
 30
0.0
 10
12.6129880662
 20
10.4265818542
 30
0.0
 10
12.5934244129
 20
10.4252780303
 30
0.0
 10
12.5695970787
 20
10.424420044
 30
0.0
 10
12.5455450518
 20
10.4242681576
 30
0.0
 10
12.5215831669
 20
10.4248243637
 30
0.0
 10
12.5056868742
 20
10.4256723815
 30
0.0
 10
12.4978108267
 20
10.4262185872
 30
0.0
  0
SPLINE
  5
356
100
AcDbEntity
  8
0
100
AcDbSpline
 62
7
  6
CONTINUOUS
 70
0
 71
3
 72
42
 73
38
 74
0
 42
0.0000001
 43
0.0000001
 44
0.0000000001
 40
0.0
 40
0.0
 40
0.0
 40
0.0
 40
0.0055576443
 40
0.0111781836
 40
0.0169222355
 40
0.022846223
 40
0.0290011442
 40
0.0354316623
 40
0.0421762431
 40
0.049267259
 40
0.0567314277
 40
0.0645907244
 40
0.072862575
 40
0.081560766
 40
0.0906959315
 40
0.100275708
 40
0.1103055927
 40
0.1207888494
 40
0.1431177711
 40
0.1672591076
 40
0.1931868442
 40
0.2208588039
 40
0.2502193991
 40
0.2812018039
 40
0.3137295194
 40
0.3477175618
 40
0.3830734051
 40
0.419697946
 40
0.4574862654
 40
0.4963282772
 40
0.5361092896
 40
0.5767106614
 40
0.6598810502
 40
0.7448351505
 40
0.8305372122
 40
0.9159392559
 40
1.0
 40
1.0
 40
1.0
 40
1.0
 10
9.1411995197
 20
10.7301705001
 30
0.0
 10
9.1411995197
 20
10.7296485275
 30
0.0
 10
9.1411410995
 20
10.7285977653
 30
0.0
 10
9.1408787924
 20
10.7270272329
 30
0.0
 10
9.1404422973
 20
10.7254602081
 30
0.0
 10
9.139832492
 20
10.7238984857
 30
0.0
 10
9.139050283
 20
10.7223433795
 30
0.0
 10
9.1380968343
 20
10.7207960242
 30
0.0
 10
9.1369731585
 20
10.7192575198
 30
0.0
 10
9.1356803684
 20
10.7177289066
 30
0.0
 10
9.1342196616
 20
10.7162111664
 30
0.0
 10
9.1325921982
 20
10.7147054234
 30
0.0
 10
9.1307993529
 20
10.7132126986
 30
0.0
 10
9.1288425451
 20
10.7117341059
 30
0.0
 10
9.1267233129
 20
10.7102708014
 30
0.0
 10
9.1244433824
 20
10.7088238582
 30
0.0
 10
9.1220045404
 20
10.7073944426
 30
0.0
 10
9.1184686375
 20
10.7054728831
 30
0.0
 10
9.113655427
 20
10.7031324819
 30
0.0
 10
9.1073972276
 20
10.7004677775
 30
0.0
 10
9.1005603334
 20
10.697899329
 30
0.0
 10
9.0931668204
 20
10.6954355476
 30
0.0
 10
9.0852404294
 20
10.6930845257
 30
0.0
 10
9.0768068485
 20
10.6908540347
 30
0.0
 10
9.067893472
 20
10.6887514614
 30
0.0
 10
9.0585293369
 20
10.6867837785
 30
0.0
 10
9.0487450078
 20
10.6849574917
 30
0.0
 10
9.0385724582
 20
10.6832786464
 30
0.0
 10
9.0280449472
 20
10.6817527981
 30
0.0
 10
9.0171969247
 20
10.6803850126
 30
0.0
 10
9.0060638757
 20
10.6791797722
 30
0.0
 10
8.990766003
 20
10.6777838075
 30
0.0
 10
8.9712023496
 20
10.6764799836
 30
0.0
 10
8.9473750155
 20
10.6756219973
 30
0.0
 10
8.9233229886
 20
10.6754701109
 30
0.0
 10
8.8993611037
 20
10.676026317
 30
0.0
 10
8.883464811
 20
10.6768743347
 30
0.0
 10
8.8755887635
 20
10.6774205405
 30
0.0
  0
SPLINE
  5
357
100
AcDbEntity
  8
0
100
AcDbSpline
 62
7
  6
CONTINUOUS
 70
0
 71
3
 72
49
 73
45
 74
0
 42
0.0000001
 43
0.0000001
 44
0.0000000001
 40
0.0
 40
0.0
 40
0.0
 40
0.0
 40
0.0149718081
 40
0.0299466748
 40
0.0449276404
 40
0.059917709
 40
0.0749198276
 40
0.0899368702
 40
0.1049716217
 40
0.120026759
 40
0.1351048351
 40
0.1502082677
 40
0.1653393229
 40
0.1805001009
 40
0.1956925286
 40
0.2109183481
 40
0.2261791043
 40
0.2414761418
 40
0.256810598
 40
0.2721833946
 40
0.287595237
 40
0.3030466133
 40
0.3340634927
 40
0.3652389307
 40
0.3965689749
 40
0.4280463623
 40
0.4596607137
 40
0.4913987952
 40
0.5232448251
 40
0.5551808189
 40
0.5871869764
 40
0.6192420905
 40
0.6513239761
 40
0.6834099169
 40
0.7154771164
 40
0.7475031494
 40
0.779466411
 40
0.8113465537
 40
0.8431249023
 40
0.8747848503
 40
0.906312225
 40
0.9376956122
 40
0.9689264437
 40
1.0
 40
1.0
 40
1.0
 40
1.0
 10
10.6425201451
 20
9.3354931656
 30
0.0
 10
10.6490073215
 20
9.341759314
 30
0.0
 10
10.6622336129
 20
9.3540363984
 30
0.0
 10
10.6827914174
 20
9.3716510055
 30
0.0
 10
10.7040413936
 20
9.3884425317
 30
0.0
 10
10.7259539286
 20
9.4043874418
 30
0.0
 10
10.7484989895
 20
9.4194638721
 30
0.0
 10
10.7716454747
 20
9.4336511175
 30
0.0
 10
10.7953615483
 20
9.4469296573
 30
0.0
 10
10.8196145955
 20
9.459281173
 30
0.0
 10
10.8443712024
 20
9.4706887491
 30
0.0
 10
10.8695973019
 20
9.4811367056
 30
0.0
 10
10.8952582061
 20
9.4906106144
 30
0.0
 10
10.9213185792
 20
9.4990975172
 30
0.0
 10
10.9477425598
 20
9.5065857772
 30
0.0
 10
10.9744938102
 20
9.5130650404
 30
0.0
 10
11.0015355156
 20
9.5185264537
 30
0.0
 10
11.02883046
 20
9.522962566
 30
0.0
 10
11.0563411422
 20
9.5263672282
 30
0.0
 10
11.0840295857
 20
9.5287358037
 30
0.0
 10
11.1118581912
 20
9.5300650708
 30
0.0
 10
11.1491411514
 20
9.5304498794
 30
0.0
 10
11.1959134214
 20
9.5283164801
 30
0.0
 10
11.2519017501
 20
9.5216068657
 30
0.0
 10
11.3075255065
 20
9.5107822157
 30
0.0
 10
11.3624770734
 20
9.4959024182
 30
0.0
 10
11.4164553342
 20
9.4770498645
 30
0.0
 10
11.4691638528
 20
9.4543285217
 30
0.0
 10
11.5203133821
 20
9.4278634853
 30
0.0
 10
11.5696232985
 20
9.3978004654
 30
0.0
 10
11.6168230098
 20
9.3643046603
 30
0.0
 10
11.6616535381
 20
9.3275601168
 30
0.0
 10
11.7038689384
 20
9.2877686788
 30
0.0
 10
11.7432374523
 20
9.2451487126
 30
0.0
 10
11.7795430284
 20
9.199934196
 30
0.0
 10
11.8125863178
 20
9.1523732452
 30
0.0
 10
11.8421857185
 20
9.1027267858
 30
0.0
 10
11.8681786233
 20
9.0512672805
 30
0.0
 10
11.8904219856
 20
8.9982770866
 30
0.0
 10
11.9087932814
 20
8.9440469222
 30
0.0
 10
11.9231912797
 20
8.8888747633
 30
0.0
 10
11.9335362295
 20
8.8330624703
 30
0.0
 10
11.9397709037
 20
8.776920524
 30
0.0
 10
11.9411673455
 20
8.7393727111
 30
0.0
 10
11.9411673455
 20
8.7206533793
 30
0.0
  0
SPLINE
  5
358
100
AcDbEntity
  8
0
100
AcDbSpline
 62
7
  6
CONTINUOUS
 70
0
 71
3
 72
9
 73
5
 74
0
 42
0.0000001
 43
0.0000001
 44
0.0000000001
 40
0.0
 40
0.0
 40
0.0
 40
0.0
 40
0.5115264502
 40
1.0
 40
1.0
 40
1.0
 40
1.0
 10
10.2036235753
 20
6.7075396664
 30
0.0
 10
10.1979615404
 20
6.7035731852
 30
0.0
 10
10.1866721219
 20
6.696128195
 30
0.0
 10
10.1749607548
 20
6.6893647229
 30
0.0
 10
10.1691429844
 20
6.6862446926
 30
0.0
  0
SPLINE
  5
359
100
AcDbEntity
  8
0
100
AcDbSpline
 62
7
  6
CONTINUOUS
 70
0
 71
3
 72
49
 73
45
 74
0
 42
0.0000001
 43
0.0000001
 44
0.0000000001
 40
0.0
 40
0.0
 40
0.0
 40
0.0
 40
0.0149718081
 40
0.0299466748
 40
0.0449276404
 40
0.059917709
 40
0.0749198276
 40
0.0899368702
 40
0.1049716217
 40
0.120026759
 40
0.1351048351
 40
0.1502082677
 40
0.1653393229
 40
0.1805001009
 40
0.1956925286
 40
0.2109183481
 40
0.2261791043
 40
0.2414761418
 40
0.256810598
 40
0.2721833946
 40
0.287595237
 40
0.3030466133
 40
0.3340634927
 40
0.3652389307
 40
0.3965689749
 40
0.4280463623
 40
0.4596607137
 40
0.4913987952
 40
0.5232448251
 40
0.5551808189
 40
0.5871869764
 40
0.6192420905
 40
0.6513239761
 40
0.6834099169
 40
0.7154771164
 40
0.7475031494
 40
0.779466411
 40
0.8113465537
 40
0.8431249023
 40
0.8747848503
 40
0.906312225
 40
0.9376956122
 40
0.9689264437
 40
1.0
 40
1.0
 40
1.0
 40
1.0
 10
9.0738564403
 20
7.6331693314
 30
0.0
 10
9.0803436167
 20
7.6394354799
 30
0.0
 10
9.0935699081
 20
7.6517125642
 30
0.0
 10
9.1141277126
 20
7.6693271713
 30
0.0
 10
9.1353776888
 20
7.6861186975
 30
0.0
 10
9.1572902238
 20
7.7020636077
 30
0.0
 10
9.1798352846
 20
7.7171400379
 30
0.0
 10
9.2029817699
 20
7.7313272833
 30
0.0
 10
9.2266978434
 20
7.7446058231
 30
0.0
 10
9.2509508907
 20
7.7569573389
 30
0.0
 10
9.2757074975
 20
7.7683649149
 30
0.0
 10
9.3009335971
 20
7.7788128714
 30
0.0
 10
9.3265945013
 20
7.7882867802
 30
0.0
 10
9.3526548744
 20
7.796773683
 30
0.0
 10
9.3790788549
 20
7.804261943
 30
0.0
 10
9.4058301054
 20
7.8107412063
 30
0.0
 10
9.4328718108
 20
7.8162026195
 30
0.0
 10
9.4601667551
 20
7.8206387318
 30
0.0
 10
9.4876774373
 20
7.824043394
 30
0.0
 10
9.5153658809
 20
7.8264119696
 30
0.0
 10
9.5431944864
 20
7.8277412366
 30
0.0
 10
9.5804774466
 20
7.8281260452
 30
0.0
 10
9.6272497166
 20
7.8259926459
 30
0.0
 10
9.6832380453
 20
7.8192830316
 30
0.0
 10
9.7388618017
 20
7.8084583815
 30
0.0
 10
9.7938133685
 20
7.793578584
 30
0.0
 10
9.8477916294
 20
7.7747260303
 30
0.0
 10
9.900500148
 20
7.7520046875
 30
0.0
 10
9.9516496773
 20
7.7255396511
 30
0.0
 10
10.0009595937
 20
7.6954766312
 30
0.0
 10
10.048159305
 20
7.6619808261
 30
0.0
 10
10.0929898332
 20
7.6252362827
 30
0.0
 10
10.1352052336
 20
7.5854448446
 30
0.0
 10
10.1745737475
 20
7.5428248784
 30
0.0
 10
10.2108793235
 20
7.4976103618
 30
0.0
 10
10.243922613
 20
7.450049411
 30
0.0
 10
10.2735220136
 20
7.4004029517
 30
0.0
 10
10.2995149185
 20
7.3489434463
 30
0.0
 10
10.3217582807
 20
7.2959532524
 30
0.0
 10
10.3401295765
 20
7.241723088
 30
0.0
 10
10.3545275749
 20
7.1865509291
 30
0.0
 10
10.3648725246
 20
7.1307386361
 30
0.0
 10
10.3711071988
 20
7.0745966898
 30
0.0
 10
10.3725036406
 20
7.037048877
 30
0.0
 10
10.3725036406
 20
7.0183295451
 30
0.0
  0
SPLINE
  5
35A
100
AcDbEntity
  8
0
100
AcDbSpline
 62
7
  6
CONTINUOUS
 70
0
 71
3
 72
32
 73
28
 74
0
 42
0.0000001
 43
0.0000001
 44
0.0000000001
 40
0.0
 40
0.0
 40
0.0
 40
0.0
 40
0.0613393567
 40
0.1231491177
 40
0.1853288855
 40
0.2477774499
 40
0.3104043976
 40
0.3731372733
 40
0.435924561
 40
0.4673356148
 40
0.4987499991
 40
0.5301661147
 40
0.561582928
 40
0.5929997149
 40
0.6244157162
 40
0.655829834
 40
0.6872404376
 40
0.7186450879
 40
0.750040249
 40
0.7814210889
 40
0.8127814571
 40
0.8441137837
 40
0.8754091096
 40
0.9066572527
 40
0.9378463527
 40
0.9689656835
 40
1.0
 40
1.0
 40
1.0
 40
1.0
 10
10.2917544222
 20
7.2578844248
 30
0.0
 10
10.2777845214
 20
7.2593382978
 30
0.0
 10
10.2498439713
 20
7.2634025174
 30
0.0
 10
10.2084315343
 20
7.2728615596
 30
0.0
 10
10.1676582861
 20
7.2856645515
 30
0.0
 10
10.1278652058
 20
7.3017554609
 30
0.0
 10
10.0893889747
 20
7.3210705412
 30
0.0
 10
10.0525701278
 20
7.3435337335
 30
0.0
 10
10.0235489065
 20
7.3648055975
 30
0.0
 10
10.0015051362
 20
7.383293373
 30
0.0
 10
9.9855951818
 20
7.397883038
 30
0.0
 10
9.9703556883
 20
7.413173299
 30
0.0
 10
9.955828155
 20
7.429142725
 30
0.0
 10
9.9420539673
 20
7.4457665089
 30
0.0
 10
9.9290732452
 20
7.4630164731
 30
0.0
 10
9.916924488
 20
7.48086064
 30
0.0
 10
9.9056440335
 20
7.4992631397
 30
0.0
 10
9.8952654155
 20
7.5181840893
 30
0.0
 10
9.8858186321
 20
7.5375795827
 30
0.0
 10
9.877329325
 20
7.5574018445
 30
0.0
 10
9.8698182589
 20
7.5775996866
 30
0.0
 10
9.8633006843
 20
7.5981190219
 30
0.0
 10
9.8577859065
 20
7.6189035847
 30
0.0
 10
9.8532769305
 20
7.6398955183
 30
0.0
 10
9.8497700218
 20
7.6610369502
 30
0.0
 10
9.8472556413
 20
7.6822692331
 30
0.0
 10
9.8462286708
 20
7.6964696733
 30
0.0
 10
9.8458750714
 20
7.7035670397
 30
0.0
  0
SPLINE
  5
35B
100
AcDbEntity
  8
0
100
AcDbSpline
 62
7
  6
CONTINUOUS
 70
0
 71
3
 72
38
 73
34
 74
0
 42
0.0000001
 43
0.0000001
 44
0.0000000001
 40
0.0
 40
0.0
 40
0.0
 40
0.0
 40
0.016541533
 40
0.0332480664
 40
0.050279395
 40
0.0677855255
 40
0.0859035484
 40
0.1047555508
 40
0.1244482586
 40
0.1450731003
 40
0.1667075179
 40
0.1894159514
 40
0.2132516109
 40
0.2382575505
 40
0.2644682746
 40
0.291910606
 40
0.3206049334
 40
0.350565861
 40
0.3818030906
 40
0.4143219251
 40
0.4481238358
 40
0.4832068962
 40
0.5195660894
 40
0.5571937273
 40
0.5960795487
 40
0.6362111556
 40
0.6775739459
 40
0.7201515785
 40
0.7639257811
 40
0.8088768421
 40
0.8549833307
 40
0.9022226034
 40
1.0
 40
1.0
 40
1.0
 40
1.0
 10
13.3773430777
 20
8.7511677039
 30
0.0
 10
13.3748819715
 20
8.7513383884
 30
0.0
 10
13.3699493203
 20
8.7519393582
 30
0.0
 10
13.3626263153
 20
8.7536092265
 30
0.0
 10
13.3553699283
 20
8.7560469381
 30
0.0
 10
13.3481870196
 20
8.7592487399
 30
0.0
 10
13.3410824471
 20
8.7632108194
 30
0.0
 10
13.334060599
 20
8.7679287438
 30
0.0
 10
13.3271255512
 20
8.7733983098
 30
0.0
 10
13.3202809767
 20
8.7796149406
 30
0.0
 10
13.3135307116
 20
8.7865741559
 30
0.0
 10
13.306878397
 20
8.7942710319
 30
0.0
 10
13.3003279447
 20
8.8027004941
 30
0.0
 10
13.2938831348
 20
8.8118569466
 30
0.0
 10
13.2875479649
 20
8.821734467
 30
0.0
 10
13.2813263122
 20
8.8323265923
 30
0.0
 10
13.275222176
 20
8.8436264405
 30
0.0
 10
13.2692394473
 20
8.8556266061
 30
0.0
 10
13.2633820464
 20
8.8683192234
 30
0.0
 10
13.2576538084
 20
8.8816959322
 30
0.0
 10
13.2520585183
 20
8.8957478999
 30
0.0
 10
13.2465999056
 20
8.910465827
 30
0.0
 10
13.2412815844
 20
8.9258399452
 30
0.0
 10
13.2361071439
 20
8.9418600424
 30
0.0
 10
13.2310800053
 20
8.9585154506
 30
0.0
 10
13.2262035923
 20
8.9757950768
 30
0.0
 10
13.2214811191
 20
8.9936873901
 30
0.0
 10
13.2169158245
 20
9.0121804495
 30
0.0
 10
13.212510705
 20
9.0312619017
 30
0.0
 10
13.2082688059
 20
9.0509189817
 30
0.0
 10
13.204192868
 20
9.0711385963
 30
0.0
 10
13.1989228988
 20
9.099152038
 30
0.0
 10
13.1953226449
 20
9.1204809178
 30
0.0
 10
13.1930543915
 20
9.1348860307
 30
0.0
  0
SPLINE
  5
35C
100
AcDbEntity
  8
0
100
AcDbSpline
 62
7
  6
CONTINUOUS
 70
0
 71
3
 72
39
 73
35
 74
0
 42
0.0000001
 43
0.0000001
 44
0.0000000001
 40
0.0
 40
0.0
 40
0.0
 40
0.0
 40
0.026252648
 40
0.0534353941
 40
0.0814988005
 40
0.1103907081
 40
0.1400564861
 40
0.1704392637
 40
0.2014801449
 40
0.233118414
 40
0.2652917315
 40
0.2979363244
 40
0.330987173
 40
0.3643781928
 40
0.3980424155
 40
0.4319121666
 40
0.4659192436
 40
0.4999950918
 40
0.5340709806
 40
0.5680781796
 40
0.6019481336
 40
0.6356126393
 40
0.6690040214
 40
0.7020553104
 40
0.7347004206
 40
0.7668743309
 40
0.7985132675
 40
0.8295548892
 40
0.8599384783
 40
0.8896051369
 40
0.9184979913
 40
0.9465624081
 40
0.9737462247
 40
1.0
 40
1.0
 40
1.0
 40
1.0
 10
13.1930543915
 20
9.1348860307
 30
0.0
 10
13.1909389245
 20
9.1483208356
 30
0.0
 10
13.1869149399
 20
9.1757114506
 30
0.0
 10
13.1815651508
 20
9.2175942738
 30
0.0
 10
13.1768045475
 20
9.2609239065
 30
0.0
 10
13.1726435299
 20
9.3056070737
 30
0.0
 10
13.1690911576
 20
9.3515478575
 30
0.0
 10
13.1661551767
 20
9.3986475221
 30
0.0
 10
13.1638419918
 20
9.4468048404
 30
0.0
 10
13.1621566567
 20
9.4959162861
 30
0.0
 10
13.1611028631
 20
9.5458762683
 30
0.0
 10
13.1606829341
 20
9.5965773592
 30
0.0
 10
13.1608978203
 20
9.6479105283
 30
0.0
 10
13.1617470984
 20
9.6997653789
 30
0.0
 10
13.1632289727
 20
9.7520303871
 30
0.0
 10
13.1653402795
 20
9.8045931431
 30
0.0
 10
13.1680764941
 20
9.8573405939
 30
0.0
 10
13.1714317413
 20
9.9101592879
 30
0.0
 10
13.1753988076
 20
9.9629356197
 30
0.0
 10
13.1799691574
 20
10.0155560753
 30
0.0
 10
13.1851329508
 20
10.0679074773
 30
0.0
 10
13.1908790654
 20
10.1198772296
 30
0.0
 10
13.1971951195
 20
10.1713535601
 30
0.0
 10
13.2040674986
 20
10.2222257631
 30
0.0
 10
13.2114813848
 20
10.2723844383
 30
0.0
 10
13.2194207871
 20
10.3217217287
 30
0.0
 10
13.2278685766
 20
10.3701315538
 30
0.0
 10
13.2368065226
 20
10.4175098412
 30
0.0
 10
13.2462153306
 20
10.4637547506
 30
0.0
 10
13.2560746858
 20
10.5087669053
 30
0.0
 10
13.2663632885
 20
10.5524495801
 30
0.0
 10
13.2770589254
 20
10.5947090228
 30
0.0
 10
13.288138427
 20
10.6354542812
 30
0.0
 10
13.2959044978
 20
10.662028506
 30
0.0
 10
13.2998540707
 20
10.6750433415
 30
0.0
  0
SPLINE
  5
35D
100
AcDbEntity
  8
0
100
AcDbSpline
 62
7
  6
CONTINUOUS
 70
0
 71
3
 72
20
 73
16
 74
0
 42
0.0000001
 43
0.0000001
 44
0.0000000001
 40
0.0
 40
0.0
 40
0.0
 40
0.0
 40
0.1482384793
 40
0.2902561615
 40
0.425805018
 40
0.4910850789
 40
0.554667597
 40
0.6165297488
 40
0.6766512213
 40
0.7350136906
 40
0.7916014147
 40
0.8464015225
 40
0.8994056838
 40
0.9506074102
 40
1.0
 40
1.0
 40
1.0
 40
1.0
 10
13.2998540707
 20
10.6750433415
 30
0.0
 10
13.3037982072
 20
10.6880402623
 30
0.0
 10
13.3117831967
 20
10.7134102725
 30
0.0
 10
13.3243422995
 20
10.7503510555
 30
0.0
 10
13.3351925944
 20
10.7798349382
 30
0.0
 10
13.3440323491
 20
10.8023918152
 30
0.0
 10
13.3506438483
 20
10.8185685118
 30
0.0
 10
13.3573164321
 20
10.8342075261
 30
0.0
 10
13.3640462253
 20
10.8492998624
 30
0.0
 10
13.3708293746
 20
10.8638367698
 30
0.0
 10
13.3776618576
 20
10.8778098744
 30
0.0
 10
13.3845398408
 20
10.8912111735
 30
0.0
 10
13.3914593727
 20
10.904033106
 30
0.0
 10
13.3984163527
 20
10.9162679272
 30
0.0
 10
13.4031618608
 20
10.9241705281
 30
0.0
 10
13.4055419978
 20
10.9280196206
 30
0.0
  0
SPLINE
  5
35E
100
AcDbEntity
  8
0
100
AcDbSpline
 62
7
  6
CONTINUOUS
 70
0
 71
3
 72
43
 73
39
 74
0
 42
0.0000001
 43
0.0000001
 44
0.0000000001
 40
0.0
 40
0.0
 40
0.0
 40
0.0
 40
0.0063858201
 40
0.0129182754
 40
0.026522799
 40
0.0410103737
 40
0.0565331933
 40
0.0647229055
 40
0.0732132219
 40
0.0820145136
 40
0.0911356204
 40
0.1005839935
 40
0.1103659679
 40
0.120486711
 40
0.1309504065
 40
0.141760441
 40
0.1529192967
 40
0.1762887867
 40
0.2010672945
 40
0.2272529583
 40
0.2548364563
 40
0.2838021305
 40
0.314128892
 40
0.3457908272
 40
0.3787576881
 40
0.4129954387
 40
0.4484666124
 40
0.485130529
 40
0.5229436318
 40
0.561859761
 40
0.6018302975
 40
0.6428043305
 40
0.6847289188
 40
0.7275492166
 40
0.7712085231
 40
0.8156486894
 40
0.9066291879
 40
1.0
 40
1.0
 40
1.0
 40
1.0
 10
13.3514635186
 20
9.040205235
 30
0.0
 10
13.3501087649
 20
9.0406842058
 30
0.0
 10
13.3474023663
 20
9.0417529841
 30
0.0
 10
13.3420121588
 20
9.0443238524
 30
0.0
 10
13.3353298751
 20
9.0483736807
 30
0.0
 10
13.3275723433
 20
9.0544151428
 30
0.0
 10
13.3213529922
 20
9.0603687951
 30
0.0
 10
13.3164549878
 20
9.0657110406
 30
0.0
 10
13.3127565908
 20
9.0700947783
 30
0.0
 10
13.3091003656
 20
9.0747821218
 30
0.0
 10
13.3054874283
 20
9.0797715525
 30
0.0
 10
13.3019190347
 20
9.0850611652
 30
0.0
 10
13.2983964965
 20
9.0906490899
 30
0.0
 10
13.2949210389
 20
9.0965332679
 30
0.0
 10
13.291493892
 20
9.1027115428
 30
0.0
 10
13.2881163177
 20
9.1091817047
 30
0.0
 10
13.2836111304
 20
9.1183359628
 30
0.0
 10
13.278126054
 20
9.1305066099
 30
0.0
 10
13.2718586126
 20
9.146018464
 30
0.0
 10
13.2658173896
 20
9.1626322159
 30
0.0
 10
13.2600112537
 20
9.1803235092
 30
0.0
 10
13.2544487408
 20
9.1990666776
 30
0.0
 10
13.2491381129
 20
9.2188343198
 30
0.0
 10
13.2440872741
 20
9.2395974784
 30
0.0
 10
13.2393037211
 20
9.2613256464
 30
0.0
 10
13.2347945871
 20
9.2839868607
 30
0.0
 10
13.2305666198
 20
9.3075477495
 30
0.0
 10
13.2266261119
 20
9.3319735712
 30
0.0
 10
13.2229789343
 20
9.3572282826
 30
0.0
 10
13.2196305443
 20
9.3832746081
 30
0.0
 10
13.2165859449
 20
9.4100740816
 30
0.0
 10
13.2138496606
 20
9.4375871054
 30
0.0
 10
13.2114257768
 20
9.4657730269
 30
0.0
 10
13.2093179416
 20
9.4945901741
 30
0.0
 10
13.2075292426
 20
9.5239959931
 30
0.0
 10
13.2055581856
 20
9.5642449584
 30
0.0
 10
13.2039270309
 20
9.6157060189
 30
0.0
 10
13.2035048578
 20
9.6571898908
 30
0.0
 10
13.2035048578
 20
9.6782000995
 30
0.0
  0
SPLINE
  5
35F
100
AcDbEntity
  8
0
100
AcDbSpline
 62
7
  6
CONTINUOUS
 70
0
 71
3
 72
51
 73
47
 74
0
 42
0.0000001
 43
0.0000001
 44
0.0000000001
 40
0.0
 40
0.0
 40
0.0
 40
0.0
 40
0.0054988968
 40
0.0111936782
 40
0.017129836
 40
0.0233468902
 40
0.0298784408
 40
0.0367526137
 40
0.0439925341
 40
0.0516170064
 40
0.0596409893
 40
0.0680762379
 40
0.0769316343
 40
0.0862137247
 40
0.0959268963
 40
0.1060738195
 40
0.116655505
 40
0.1276716768
 40
0.139120744
 40
0.1510001264
 40
0.1633061707
 40
0.1760344421
 40
0.1891796066
 40
0.2027356953
 40
0.2166959702
 40
0.231053164
 40
0.2609254231
 40
0.2922838714
 40
0.3250515245
 40
0.3591447032
 40
0.394473776
 40
0.4309438083
 40
0.4684551469
 40
0.5069039578
 40
0.5461827331
 40
0.5861807741
 40
0.6267846602
 40
0.6678787058
 40
0.70934541
 40
0.7510659024
 40
0.7929203821
 40
0.8347885654
 40
0.8765501011
 40
0.9180850773
 40
0.9592742833
 40
1.0
 40
1.0
 40
1.0
 40
1.0
 10
13.4698299021
 20
10.7469967469
 30
0.0
 10
13.4677935927
 20
10.7465810959
 30
0.0
 10
13.4636903208
 20
10.745516535
 30
0.0
 10
13.4576029656
 20
10.7432861282
 30
0.0
 10
13.4514955837
 20
10.7404020679
 30
0.0
 10
13.4453732894
 20
10.7368680686
 30
0.0
 10
13.4392396911
 20
10.732687829
 30
0.0
 10
13.4330987839
 20
10.7278650716
 30
0.0
 10
13.4269544142
 20
10.7224038296
 30
0.0
 10
13.4208107094
 20
10.7163082888
 30
0.0
 10
13.4146717651
 20
10.7095831257
 30
0.0
 10
13.4085419588
 20
10.7022333031
 30
0.0
 10
13.4024255861
 20
10.6942643519
 30
0.0
 10
13.3963271978
 20
10.6856821567
 30
0.0
 10
13.3902512028
 20
10.6764931829
 30
0.0
 10
13.3842022369
 20
10.6667042761
 30
0.0
 10
13.3781847516
 20
10.6563228466
 30
0.0
 10
13.3722034021
 20
10.6453566933
 30
0.0
 10
13.3662626336
 20
10.6338141523
 30
0.0
 10
13.360367075
 20
10.6217039493
 30
0.0
 10
13.3545211323
 20
10.6090353167
 30
0.0
 10
13.3487293765
 20
10.5958178738
 30
0.0
 10
13.3429961482
 20
10.582061715
 30
0.0
 10
13.3373259458
 20
10.5677773203
 30
0.0
 10
13.3317229895
 20
10.5529755982
 30
0.0
 10
13.3242490103
 20
10.5322910811
 30
0.0
 10
13.3151251448
 20
10.5052147573
 30
0.0
 10
13.3046511443
 20
10.4712637417
 30
0.0
 10
13.2945443885
 20
10.4355409564
 30
0.0
 10
13.2848360543
 20
10.3981556767
 30
0.0
 10
13.2755561035
 20
10.359222047
 30
0.0
 10
13.2667331567
 20
10.3188591397
 30
0.0
 10
13.2583944134
 20
10.2771904456
 30
0.0
 10
13.2505655676
 20
10.2343435151
 30
0.0
 10
13.2432707303
 20
10.190449546
 30
0.0
 10
13.2365323574
 20
10.145642975
 30
0.0
 10
13.2303711817
 20
10.1000610588
 30
0.0
 10
13.2248061512
 20
10.053843448
 30
0.0
 10
13.2198543713
 20
10.0071317546
 30
0.0
 10
13.2155310536
 20
9.9600691146
 30
0.0
 10
13.2118494689
 20
9.9127997458
 30
0.0
 10
13.2088209097
 20
9.8654685048
 30
0.0
 10
13.206454648
 20
9.8182204375
 30
0.0
 10
13.2047579215
 20
9.7712003216
 30
0.0
 10
13.2037358881
 20
9.7245523517
 30
0.0
 10
13.2035048578
 20
9.6935923088
 30
0.0
 10
13.2035048578
 20
9.6782000995
 30
0.0
  0
SPLINE
  5
360
100
AcDbEntity
  8
0
100
AcDbSpline
 62
7
  6
CONTINUOUS
 70
0
 71
3
 72
22
 73
18
 74
0
 42
0.0000001
 43
0.0000001
 44
0.0000000001
 40
0.0
 40
0.0
 40
0.0
 40
0.0
 40
0.0520527122
 40
0.1060834623
 40
0.1619179205
 40
0.2193849284
 40
0.2783274373
 40
0.3386061062
 40
0.4001031992
 40
0.462724263
 40
0.5910137935
 40
0.6566625276
 40
0.7232791052
 40
0.7908779565
 40
0.8594932421
 40
0.9291774379
 40
1.0
 40
1.0
 40
1.0
 40
1.0
 10
11.6619161636
 20
9.2710937194
 30
0.0
 10
11.6571673901
 20
9.2714208791
 30
0.0
 10
11.6475129632
 20
9.2724748774
 30
0.0
 10
11.6329352748
 20
9.275130956
 30
0.0
 10
11.6180861711
 20
9.2788705779
 30
0.0
 10
11.6030749951
 20
9.283674068
 30
0.0
 10
11.5880039219
 20
9.2895256276
 30
0.0
 10
11.5729709934
 20
9.2964125539
 30
0.0
 10
11.5580691615
 20
9.3043260325
 30
0.0
 10
11.5383430073
 20
9.3163301318
 30
0.0
 10
11.5194108847
 20
9.3303005692
 30
0.0
 10
11.5015892611
 20
9.3461324647
 30
0.0
 10
11.4886987174
 20
9.359107391
 30
0.0
 10
11.4764852773
 20
9.3730836925
 30
0.0
 10
11.465044309
 20
9.3880555358
 30
0.0
 10
11.4544764123
 20
9.4040106662
 30
0.0
 10
11.4481342427
 20
9.4151995825
 30
0.0
 10
11.4451411052
 20
9.4209429012
 30
0.0
  0
SPLINE
  5
361
100
AcDbEntity
  8
0
100
AcDbSpline
 62
7
  6
CONTINUOUS
 70
0
 71
3
 72
38
 73
34
 74
0
 42
0.0000001
 43
0.0000001
 44
0.0000000001
 40
0.0
 40
0.0
 40
0.0
 40
0.0
 40
0.0165414325
 40
0.0332479454
 40
0.0502792272
 40
0.0677852951
 40
0.0859032643
 40
0.1047552221
 40
0.1244478846
 40
0.1450726905
 40
0.1667070718
 40
0.1894154825
 40
0.2132511159
 40
0.2382570455
 40
0.2644677538
 40
0.2919100873
 40
0.3206044091
 40
0.3505653498
 40
0.3818025833
 40
0.4143214402
 40
0.4481233639
 40
0.4832064545
 40
0.5195656685
 40
0.5571933425
 40
0.5960791916
 40
0.6362108388
 40
0.6775736623
 40
0.7201513375
 40
0.7639255775
 40
0.8088766815
 40
0.8549832103
 40
0.9022225243
 40
1.0
 40
1.0
 40
1.0
 40
1.0
 10
13.3773432263
 20
6.2156122466
 30
0.0
 10
13.3748821118
 20
6.2157829369
 30
0.0
 10
13.3699494315
 20
6.2163839058
 30
0.0
 10
13.3626263748
 20
6.2180537605
 30
0.0
 10
13.3553699343
 20
6.2204914854
 30
0.0
 10
13.3481869818
 20
6.2236933151
 30
0.0
 10
13.3410823638
 20
6.2276554245
 30
0.0
 10
13.3340604726
 20
6.2323733923
 30
0.0
 10
13.3271253786
 20
6.2378430068
 30
0.0
 10
13.3202807666
 20
6.2440597027
 30
0.0
 10
13.3135304565
 20
6.2510189845
 30
0.0
 10
13.3068781082
 20
6.2587159441
 30
0.0
 10
13.3003276127
 20
6.2671454916
 30
0.0
 10
13.2938827732
 20
6.2763020456
 30
0.0
 10
13.2875475627
 20
6.2861796698
 30
0.0
 10
13.2813258842
 20
6.2967719137
 30
0.0
 10
13.2752217107
 20
6.3080718838
 30
0.0
 10
13.2692389598
 20
6.3200721844
 30
0.0
 10
13.2633815256
 20
6.3327649409
 30
0.0
 10
13.257653269
 20
6.3461418004
 30
0.0
 10
13.2520579502
 20
6.3601939238
 30
0.0
 10
13.2465993224
 20
6.3749120166
 30
0.0
 10
13.2412809776
 20
6.3902863059
 30
0.0
 10
13.2361065256
 20
6.406306583
 30
0.0
 10
13.2310793691
 20
6.4229621768
 30
0.0
 10
13.2262029482
 20
6.4402419959
 30
0.0
 10
13.2214804629
 20
6.458134508
 30
0.0
 10
13.2169151643
 20
6.4766277726
 30
0.0
 10
13.2125100387
 20
6.4957094355
 30
0.0
 10
13.2082681395
 20
6.5153667318
 30
0.0
 10
13.2041922019
 20
6.5355865679
 30
0.0
 10
13.1989222379
 20
6.5636003139
 30
0.0
 10
13.1953219927
 20
6.5849294245
 30
0.0
 10
13.1930537448
 20
6.5993346922
 30
0.0
  0
SPLINE
  5
362
100
AcDbEntity
  8
0
100
AcDbSpline
 62
7
  6
CONTINUOUS
 70
0
 71
3
 72
39
 73
35
 74
0
 42
0.0000001
 43
0.0000001
 44
0.0000000001
 40
0.0
 40
0.0
 40
0.0
 40
0.0
 40
0.0262527879
 40
0.0534356772
 40
0.081499229
 40
0.1103912828
 40
0.1400572066
 40
0.1704401282
 40
0.2014811505
 40
0.2331195564
 40
0.2652930053
 40
0.2979377228
 40
0.3309886879
 40
0.3643798147
 40
0.3980441334
 40
0.4319139685
 40
0.4659211158
 40
0.4999970196
 40
0.534072948
 40
0.5680801694
 40
0.6019501276
 40
0.6356146183
 40
0.6690059651
 40
0.7020571976
 40
0.7347022292
 40
0.766876038
 40
0.7985148492
 40
0.8295563212
 40
0.8599397356
 40
0.8896061941
 40
0.9184988229
 40
0.9465629882
 40
0.9737465275
 40
1.0
 40
1.0
 40
1.0
 40
1.0
 10
13.1930537448
 20
6.5993346922
 30
0.0
 10
13.1909382798
 20
6.6127696616
 30
0.0
 10
13.1869143069
 20
6.6401606113
 30
0.0
 10
13.1815645423
 20
6.6820439422
 30
0.0
 10
13.1768039752
 20
6.7253740949
 30
0.0
 10
13.1726430042
 20
6.7700577913
 30
0.0
 10
13.1690906893
 20
6.8159991111
 30
0.0
 10
13.1661547766
 20
6.8630993156
 30
0.0
 10
13.1638416706
 20
6.9112571751
 30
0.0
 10
13.1621564248
 20
6.9603691604
 30
0.0
 10
13.1611027313
 20
7.0103296781
 30
0.0
 10
13.160682913
 20
7.0610312975
 30
0.0
 10
13.1608979202
 20
7.1123649852
 30
0.0
 10
13.1617473293
 20
7.1642203415
 30
0.0
 10
13.1632293442
 20
7.2164858395
 30
0.0
 10
13.1653408009
 20
7.2690490666
 30
0.0
 10
13.1680771744
 20
7.3217969671
 30
0.0
 10
13.1714325888
 20
7.3746160864
 30
0.0
 10
13.1753998303
 20
7.4273928163
 30
0.0
 10
13.1799703626
 20
7.4800136404
 30
0.0
 10
13.1851343454
 20
7.5323653786
 30
0.0
 10
13.1908806556
 20
7.5843354323
 30
0.0
 10
13.1971969107
 20
7.6358120272
 30
0.0
 10
13.2040694959
 20
7.6866844551
 30
0.0
 10
13.2114835924
 20
7.7368433135
 30
0.0
 10
13.2194232088
 20
7.7861807431
 30
0.0
 10
13.2278712154
 20
7.8345906615
 30
0.0
 10
13.2368093807
 20
7.8819689942
 30
0.0
 10
13.2462184095
 20
7.9282138993
 30
0.0
 10
13.2560779859
 20
7.9732259983
 30
0.0
 10
13.2663668096
 20
8.016908565
 30
0.0
 10
13.2770626665
 20
8.0591678457
 30
0.0
 10
13.2881423855
 20
8.0999128874
 30
0.0
 10
13.2959086085
 20
8.1264869451
 30
0.0
 10
13.2998582564
 20
8.1395016876
 30
0.0
  0
SPLINE
  5
363
100
AcDbEntity
  8
0
100
AcDbSpline
 62
7
  6
CONTINUOUS
 70
0
 71
3
 72
39
 73
35
 74
0
 42
0.0000001
 43
0.0000001
 44
0.0000000001
 40
0.0
 40
0.0
 40
0.0
 40
0.0
 40
0.0977776026
 40
0.1450169907
 40
0.1911236182
 40
0.2360748151
 40
0.279849158
 40
0.3224269343
 40
0.3637898527
 40
0.4039215984
 40
0.4428075235
 40
0.4804352819
 40
0.5167945432
 40
0.5518776932
 40
0.5856796263
 40
0.6181985065
 40
0.6494357033
 40
0.6793966208
 40
0.7080908519
 40
0.735533106
 40
0.7617436631
 40
0.7867494484
 40
0.8105848652
 40
0.8332930601
 40
0.8549271573
 40
0.8755516739
 40
0.8855105532
 40
0.8952472565
 40
0.9140988531
 40
0.9322164205
 40
0.9497220832
 40
0.96675292
 40
0.9834589582
 40
1.0
 40
1.0
 40
1.0
 40
1.0
 10
13.2998582564
 20
8.1395016876
 30
0.0
 10
13.304093341
 20
8.1534569914
 30
0.0
 10
13.3106034673
 20
8.1740864979
 30
0.0
 10
13.3196901463
 20
8.2011066552
 30
0.0
 10
13.3265183262
 20
8.2205717795
 30
0.0
 10
13.333433249
 20
8.2394568042
 30
0.0
 10
13.3404303836
 20
8.2577491388
 30
0.0
 10
13.3475049508
 20
8.2754365587
 30
0.0
 10
13.354652287
 20
8.2925072381
 30
0.0
 10
13.3618675152
 20
8.3089497997
 30
0.0
 10
13.3691458904
 20
8.3247532575
 30
0.0
 10
13.3764824486
 20
8.3399071057
 30
0.0
 10
13.3838723792
 20
8.3544012343
 30
0.0
 10
13.3913106565
 20
8.3682260414
 30
0.0
 10
13.3987924211
 20
8.3813723259
 30
0.0
 10
13.4063126177
 20
8.3938314192
 30
0.0
 10
13.4138663618
 20
8.4055950596
 30
0.0
 10
13.4214486098
 20
8.4166555358
 30
0.0
 10
13.429054488
 20
8.4270055493
 30
0.0
 10
13.4366790207
 20
8.4366383569
 30
0.0
 10
13.4443173963
 20
8.4455476291
 30
0.0
 10
13.4519647857
 20
8.453727574
 30
0.0
 10
13.4596164895
 20
8.4611727825
 30
0.0
 10
13.4672679751
 20
8.4678783761
 30
0.0
 10
13.4749144702
 20
8.4738395739
 30
0.0
 10
13.481352545
 20
8.478233726
 30
0.0
 10
13.4864927054
 20
8.4813577498
 30
0.0
 10
13.4915122821
 20
8.4841633607
 30
0.0
 10
13.4977825461
 20
8.4872166329
 30
0.0
 10
13.5053662628
 20
8.4901602447
 30
0.0
 10
13.5129227808
 20
8.4923400946
 30
0.0
 10
13.5204465632
 20
8.4937528935
 30
0.0
 10
13.5279303391
 20
8.494395967
 30
0.0
 10
13.532898967
 20
8.4943102351
 30
0.0
 10
13.5353601927
 20
8.4941395423
 30
0.0
  0
SPLINE
  5
364
100
AcDbEntity
  8
0
100
AcDbSpline
 62
7
  6
CONTINUOUS
 70
0
 71
3
 72
43
 73
39
 74
0
 42
0.0000001
 43
0.0000001
 44
0.0000000001
 40
0.0
 40
0.0
 40
0.0
 40
0.0
 40
0.0063858201
 40
0.0129182754
 40
0.026522799
 40
0.0410103737
 40
0.0565331933
 40
0.0647229055
 40
0.0732132219
 40
0.0820145136
 40
0.0911356204
 40
0.1005839935
 40
0.1103659679
 40
0.120486711
 40
0.1309504065
 40
0.141760441
 40
0.1529192967
 40
0.1762887867
 40
0.2010672945
 40
0.2272529583
 40
0.2548364563
 40
0.2838021305
 40
0.314128892
 40
0.3457908272
 40
0.3787576881
 40
0.4129954387
 40
0.4484666124
 40
0.485130529
 40
0.5229436318
 40
0.561859761
 40
0.6018302975
 40
0.6428043305
 40
0.6847289188
 40
0.7275492166
 40
0.7712085231
 40
0.8156486894
 40
0.9066291879
 40
1.0
 40
1.0
 40
1.0
 40
1.0
 10
13.3514635186
 20
6.5046497908
 30
0.0
 10
13.3501087649
 20
6.5051287616
 30
0.0
 10
13.3474023663
 20
6.5061975399
 30
0.0
 10
13.3420121588
 20
6.5087684081
 30
0.0
 10
13.3353298751
 20
6.5128182365
 30
0.0
 10
13.3275723433
 20
6.5188596985
 30
0.0
 10
13.3213529922
 20
6.5248133508
 30
0.0
 10
13.3164549878
 20
6.5301555964
 30
0.0
 10
13.3127565908
 20
6.534539334
 30
0.0
 10
13.3091003656
 20
6.5392266775
 30
0.0
 10
13.3054874283
 20
6.5442161083
 30
0.0
 10
13.3019190347
 20
6.549505721
 30
0.0
 10
13.2983964965
 20
6.5550936457
 30
0.0
 10
13.2949210389
 20
6.5609778236
 30
0.0
 10
13.291493892
 20
6.5671560985
 30
0.0
 10
13.2881163177
 20
6.5736262605
 30
0.0
 10
13.2836111304
 20
6.5827805186
 30
0.0
 10
13.278126054
 20
6.5949511657
 30
0.0
 10
13.2718586126
 20
6.6104630197
 30
0.0
 10
13.2658173896
 20
6.6270767716
 30
0.0
 10
13.2600112537
 20
6.644768065
 30
0.0
 10
13.2544487408
 20
6.6635112334
 30
0.0
 10
13.2491381129
 20
6.6832788755
 30
0.0
 10
13.2440872741
 20
6.7040420342
 30
0.0
 10
13.2393037211
 20
6.7257702022
 30
0.0
 10
13.2347945871
 20
6.7484314164
 30
0.0
 10
13.2305666198
 20
6.7719923053
 30
0.0
 10
13.2266261119
 20
6.7964181269
 30
0.0
 10
13.2229789343
 20
6.8216728384
 30
0.0
 10
13.2196305443
 20
6.8477191639
 30
0.0
 10
13.2165859449
 20
6.8745186374
 30
0.0
 10
13.2138496606
 20
6.9020316612
 30
0.0
 10
13.2114257768
 20
6.9302175826
 30
0.0
 10
13.2093179416
 20
6.9590347299
 30
0.0
 10
13.2075292426
 20
6.9884405488
 30
0.0
 10
13.2055581856
 20
7.0286895142
 30
0.0
 10
13.2039270309
 20
7.0801505747
 30
0.0
 10
13.2035048578
 20
7.1216344466
 30
0.0
 10
13.2035048578
 20
7.1426446553
 30
0.0
  0
SPLINE
  5
365
100
AcDbEntity
  8
0
100
AcDbSpline
 62
7
  6
CONTINUOUS
 70
0
 71
3
 72
51
 73
47
 74
0
 42
0.0000001
 43
0.0000001
 44
0.0000000001
 40
0.0
 40
0.0
 40
0.0
 40
0.0
 40
0.0054988968
 40
0.0111936782
 40
0.017129836
 40
0.0233468902
 40
0.0298784408
 40
0.0367526137
 40
0.0439925341
 40
0.0516170064
 40
0.0596409893
 40
0.0680762379
 40
0.0769316343
 40
0.0862137247
 40
0.0959268963
 40
0.1060738195
 40
0.116655505
 40
0.1276716768
 40
0.139120744
 40
0.1510001264
 40
0.1633061707
 40
0.1760344421
 40
0.1891796066
 40
0.2027356953
 40
0.2166959702
 40
0.231053164
 40
0.2609254231
 40
0.2922838714
 40
0.3250515245
 40
0.3591447032
 40
0.394473776
 40
0.4309438083
 40
0.4684551469
 40
0.5069039578
 40
0.5461827331
 40
0.5861807741
 40
0.6267846602
 40
0.6678787058
 40
0.70934541
 40
0.7510659024
 40
0.7929203821
 40
0.8347885654
 40
0.8765501011
 40
0.9180850773
 40
0.9592742833
 40
1.0
 40
1.0
 40
1.0
 40
1.0
 10
13.4698299021
 20
8.2114413026
 30
0.0
 10
13.4677935927
 20
8.2110256517
 30
0.0
 10
13.4636903208
 20
8.2099610908
 30
0.0
 10
13.4576029656
 20
8.207730684
 30
0.0
 10
13.4514955837
 20
8.2048466236
 30
0.0
 10
13.4453732894
 20
8.2013126243
 30
0.0
 10
13.4392396911
 20
8.1971323847
 30
0.0
 10
13.4330987839
 20
8.1923096273
 30
0.0
 10
13.4269544142
 20
8.1868483854
 30
0.0
 10
13.4208107094
 20
8.1807528446
 30
0.0
 10
13.4146717651
 20
8.1740276815
 30
0.0
 10
13.4085419588
 20
8.1666778588
 30
0.0
 10
13.4024255861
 20
8.1587089077
 30
0.0
 10
13.3963271978
 20
8.1501267124
 30
0.0
 10
13.3902512028
 20
8.1409377386
 30
0.0
 10
13.3842022369
 20
8.1311488319
 30
0.0
 10
13.3781847516
 20
8.1207674024
 30
0.0
 10
13.3722034021
 20
8.1098012491
 30
0.0
 10
13.3662626336
 20
8.098258708
 30
0.0
 10
13.360367075
 20
8.086148505
 30
0.0
 10
13.3545211323
 20
8.0734798724
 30
0.0
 10
13.3487293765
 20
8.0602624295
 30
0.0
 10
13.3429961482
 20
8.0465062707
 30
0.0
 10
13.3373259458
 20
8.032221876
 30
0.0
 10
13.3317229895
 20
8.017420154
 30
0.0
 10
13.3242490103
 20
7.9967356369
 30
0.0
 10
13.3151251448
 20
7.9696593131
 30
0.0
 10
13.3046511443
 20
7.9357082975
 30
0.0
 10
13.2945443885
 20
7.8999855122
 30
0.0
 10
13.2848360543
 20
7.8626002325
 30
0.0
 10
13.2755561035
 20
7.8236666027
 30
0.0
 10
13.2667331567
 20
7.7833036954
 30
0.0
 10
13.2583944134
 20
7.7416350014
 30
0.0
 10
13.2505655676
 20
7.6987880709
 30
0.0
 10
13.2432707303
 20
7.6548941017
 30
0.0
 10
13.2365323574
 20
7.6100875307
 30
0.0
 10
13.2303711817
 20
7.5645056146
 30
0.0
 10
13.2248061512
 20
7.5182880038
 30
0.0
 10
13.2198543713
 20
7.4715763103
 30
0.0
 10
13.2155310536
 20
7.4245136704
 30
0.0
 10
13.2118494689
 20
7.3772443015
 30
0.0
 10
13.2088209097
 20
7.3299130605
 30
0.0
 10
13.206454648
 20
7.2826649932
 30
0.0
 10
13.2047579215
 20
7.2356448773
 30
0.0
 10
13.2037358881
 20
7.1889969075
 30
0.0
 10
13.2035048578
 20
7.1580368645
 30
0.0
 10
13.2035048578
 20
7.1426446553
 30
0.0
  0
SPLINE
  5
366
100
AcDbEntity
  8
0
100
AcDbSpline
 62
7
  6
CONTINUOUS
 70
0
 71
3
 72
20
 73
16
 74
0
 42
0.0000001
 43
0.0000001
 44
0.0000000001
 40
0.0
 40
0.0
 40
0.0
 40
0.0
 40
0.0591192005
 40
0.1177748361
 40
0.1761819644
 40
0.2345550481
 40
0.2931027619
 40
0.3520302153
 40
0.4115362859
 40
0.4718068989
 40
0.5952960497
 40
0.723811182
 40
0.7903106631
 40
0.8584499714
 40
1.0
 40
1.0
 40
1.0
 40
1.0
 10
11.483310563
 20
8.5116782853
 30
0.0
 10
11.4833106562
 20
8.510492929
 30
0.0
 10
11.4832455327
 20
8.5081309445
 30
0.0
 10
11.4829481188
 20
8.5046091539
 30
0.0
 10
11.4824514509
 20
8.5011248749
 30
0.0
 10
11.4817556208
 20
8.4976770881
 30
0.0
 10
11.4808608709
 20
8.4942647226
 30
0.0
 10
11.4797674883
 20
8.490886905
 30
0.0
 10
11.4784757809
 20
8.4875427827
 30
0.0
 10
11.4764739412
 20
8.4830927424
 30
0.0
 10
11.473454849
 20
8.4775941919
 30
0.0
 10
11.4698470468
 20
8.4723134286
 30
0.0
 10
11.46659059
 20
8.4681602179
 30
0.0
 10
11.4629925777
 20
8.4639490166
 30
0.0
 10
11.460068903
 20
8.460920201
 30
0.0
 10
11.4580275741
 20
8.4589484285
 30
0.0
  0
SPLINE
  5
367
100
AcDbEntity
  8
0
100
AcDbSpline
 62
7
  6
CONTINUOUS
 70
0
 71
3
 72
21
 73
17
 74
0
 42
0.0000001
 43
0.0000001
 44
0.0000000001
 40
0.0
 40
0.0
 40
0.0
 40
0.0
 40
0.063130646
 40
0.1260956563
 40
0.1889118925
 40
0.2515982677
 40
0.3141748298
 40
0.3766618613
 40
0.4390790473
 40
0.5014449278
 40
0.5637763692
 40
0.6260880935
 40
0.6883925444
 40
0.7506996674
 40
0.8753175979
 40
1.0
 40
1.0
 40
1.0
 40
1.0
 10
10.6909436162
 20
8.890740434
 30
0.0
 10
10.6941522917
 20
8.8967077298
 30
0.0
 10
10.7003045845
 20
8.9087667957
 30
0.0
 10
10.7087236906
 20
8.9272171517
 30
0.0
 10
10.7163062586
 20
8.9459758352
 30
0.0
 10
10.7230389887
 20
8.9650117543
 30
0.0
 10
10.7289110603
 20
8.9842936442
 30
0.0
 10
10.7339136444
 20
9.0037893627
 30
0.0
 10
10.7380395949
 20
9.0234661519
 30
0.0
 10
10.7412832341
 20
9.0432905498
 30
0.0
 10
10.7436403556
 20
9.0632284018
 30
0.0
 10
10.7451080424
 20
9.0832446776
 30
0.0
 10
10.7456844306
 20
9.1033041275
 30
0.0
 10
10.745263893
 20
9.1300559597
 30
0.0
 10
10.7425084087
 20
9.1634303627
 30
0.0
 10
10.7379370483
 20
9.1898337708
 30
0.0
 10
10.7350677725
 20
9.2029036064
 30
0.0
  0
SPLINE
  5
368
100
AcDbEntity
  8
0
100
AcDbSpline
 62
7
  6
CONTINUOUS
 70
0
 71
3
 72
34
 73
30
 74
0
 42
0.0000001
 43
0.0000001
 44
0.0000000001
 40
0.0
 40
0.0
 40
0.0
 40
0.0
 40
0.0853044463
 40
0.1688225602
 40
0.2502301712
 40
0.3292123027
 40
0.4054681588
 40
0.4424844145
 40
0.4787133727
 40
0.5141220475
 40
0.5486788166
 40
0.5823533623
 40
0.6151167861
 40
0.64694184
 40
0.6778028116
 40
0.7076759356
 40
0.7365393156
 40
0.7643732082
 40
0.7911602863
 40
0.8168856772
 40
0.8415375566
 40
0.8651072056
 40
0.8875896391
 40
0.9089841009
 40
0.9292945809
 40
0.9485309005
 40
0.9667094095
 40
0.9838544958
 40
1.0
 40
1.0
 40
1.0
 40
1.0
 10
13.504511041
 20
7.5713943187
 30
0.0
 10
13.504511041
 20
7.5884462283
 30
0.0
 10
13.5042196189
 20
7.6221937989
 30
0.0
 10
13.5028829024
 20
7.6721983452
 30
0.0
 10
13.5006566436
 20
7.7209065341
 30
0.0
 10
13.4975504547
 20
7.768111891
 30
0.0
 10
13.4942079791
 20
7.8064003921
 30
0.0
 10
13.4910892928
 20
7.8361222961
 30
0.0
 10
13.4885627281
 20
7.8576947505
 30
0.0
 10
13.4858282063
 20
7.8787461738
 30
0.0
 10
13.4828886484
 20
7.8992542926
 30
0.0
 10
13.479747194
 20
7.9191973842
 30
0.0
 10
13.4764071664
 20
7.9385543391
 30
0.0
 10
13.4728721827
 20
7.9573046744
 30
0.0
 10
13.4691459513
 20
7.975428558
 30
0.0
 10
13.4652325
 20
7.9929068362
 30
0.0
 10
13.4611359769
 20
8.0097210497
 30
0.0
 10
13.4568607333
 20
8.0258534575
 30
0.0
 10
13.4524113693
 20
8.0412870678
 30
0.0
 10
13.4477925398
 20
8.0560056364
 30
0.0
 10
13.4430092139
 20
8.0699937268
 30
0.0
 10
13.4380663958
 20
8.0832366909
 30
0.0
 10
13.4329692842
 20
8.095720717
 30
0.0
 10
13.4277232367
 20
8.1074328528
 30
0.0
 10
13.4223335724
 20
8.1183609894
 30
0.0
 10
13.4168058862
 20
8.1284939068
 30
0.0
 10
13.4111454606
 20
8.1378213927
 30
0.0
 10
13.4053581744
 20
8.1463335208
 30
0.0
 10
13.401299839
 20
8.1516138522
 30
0.0
 10
13.3992476495
 20
8.1541047632
 30
0.0
  0
SPLINE
  5
369
100
AcDbEntity
  8
0
100
AcDbSpline
 62
7
  6
CONTINUOUS
 70
0
 71
3
 72
71
 73
67
 74
0
 42
0.0000001
 43
0.0000001
 44
0.0000000001
 40
0.0
 40
0.0
 40
0.0
 40
0.0
 40
0.0156373971
 40
0.0313278976
 40
0.0470702878
 40
0.0628636373
 40
0.0787060812
 40
0.0945954871
 40
0.1105292288
 40
0.1265042944
 40
0.1425172944
 40
0.1585644997
 40
0.1746418768
 40
0.1907451251
 40
0.2068697163
 40
0.2230109347
 40
0.2391639194
 40
0.2553237067
 40
0.2714852733
 40
0.2876435805
 40
0.3037936184
 40
0.3199304489
 40
0.3360492494
 40
0.3521453551
 40
0.3682143003
 40
0.3842518588
 40
0.4002540825
 40
0.416217339
 40
0.4321383459
 40
0.4480142034
 40
0.4638424236
 40
0.4796209569
 40
0.4953482153
 40
0.5110230907
 40
0.5266449714
 40
0.5422137523
 40
0.5577298414
 40
0.5731941611
 40
0.5886081441
 40
0.6039737242
 40
0.6192933216
 40
0.6345698232
 40
0.6498065569
 40
0.6650072611
 40
0.6801760494
 40
0.6953173697
 40
0.710435959
 40
0.7255367955
 40
0.7406250456
 40
0.7557060103
 40
0.7707850681
 40
0.7858676181
 40
0.800959022
 40
0.816064547
 40
0.8311893099
 40
0.8463382233
 40
0.8615159441
 40
0.8767268263
 40
0.8919748772
 40
0.9072637174
 40
0.9225965517
 40
0.937976118
 40
0.9534047439
 40
0.9688840783
 40
0.9844157248
 40
1.0
 40
1.0
 40
1.0
 40
1.0
 10
11.9037922126
 20
8.731551771
 30
0.0
 10
11.9037922126
 20
8.7431869195
 30
0.0
 10
11.9032189436
 20
8.766500691
 30
0.0
 10
11.9006517205
 20
8.8014426844
 30
0.0
 10
11.8963817839
 20
8.8363353398
 30
0.0
 10
11.8904197084
 20
8.8710933428
 30
0.0
 10
11.8827797681
 20
8.9056334542
 30
0.0
 10
11.8734805091
 20
8.9398723731
 30
0.0
 10
11.8625443421
 20
8.9737277171
 30
0.0
 10
11.8499976631
 20
9.0071179785
 30
0.0
 10
11.8358707176
 20
9.0399627859
 30
0.0
 10
11.8201975657
 20
9.0721830857
 30
0.0
 10
11.8030159789
 20
9.1037013307
 30
0.0
 10
11.7843673512
 20
9.1344416648
 30
0.0
 10
11.7642965998
 20
9.1643301045
 30
0.0
 10
11.7428520572
 20
9.193294715
 30
0.0
 10
11.7200853553
 20
9.2212657827
 30
0.0
 10
11.6960513025
 20
9.2481759815
 30
0.0
 10
11.6708077518
 20
9.2739605338
 30
0.0
 10
11.6444154719
 20
9.2985573758
 30
0.0
 10
11.6169379909
 20
9.3219072974
 30
0.0
 10
11.5884414442
 20
9.3439540843
 30
0.0
 10
11.5589944163
 20
9.3646446521
 30
0.0
 10
11.5286677775
 20
9.3839291736
 30
0.0
 10
11.4975345139
 20
9.4017611979
 30
0.0
 10
11.4656695536
 20
9.4180977618
 30
0.0
 10
11.4331495874
 20
9.4328994932
 30
0.0
 10
11.4000528903
 20
9.4461307182
 30
0.0
 10
11.3664591277
 20
9.4577595355
 30
0.0
 10
11.332449165
 20
9.467757893
 30
0.0
 10
11.2981048747
 20
9.4761016559
 30
0.0
 10
11.2635089411
 20
9.4827706646
 30
0.0
 10
11.2287446628
 20
9.4877487847
 30
0.0
 10
11.1938957536
 20
9.4910239463
 30
0.0
 10
11.1590461425
 20
9.4925881745
 30
0.0
 10
11.1242797724
 20
9.4924376242
 30
0.0
 10
11.0896803966
 20
9.4905725768
 30
0.0
 10
11.0553313784
 20
9.4869974419
 30
0.0
 10
11.0213154913
 20
9.4817207482
 30
0.0
 10
10.9877147197
 20
9.4747551251
 30
0.0
 10
10.9546100616
 20
9.4661172748
 30
0.0
 10
10.9220813332
 20
9.4558279344
 30
0.0
 10
10.8902069755
 20
9.443911828
 30
0.0
 10
10.8590638584
 20
9.430397622
 30
0.0
 10
10.8287270968
 20
9.4153178444
 30
0.0
 10
10.7992698685
 20
9.3987088076
 30
0.0
 10
10.7707632354
 20
9.3806105219
 30
0.0
 10
10.7432759703
 20
9.3610665999
 30
0.0
 10
10.7168743886
 20
9.3401241514
 30
0.0
 10
10.6916221862
 20
9.3178336697
 30
0.0
 10
10.6675802836
 20
9.2942489094
 30
0.0
 10
10.6448066665
 20
9.2694267644
 30
0.0
 10
10.623356253
 20
9.2434271185
 30
0.0
 10
10.6032807598
 20
9.2163126981
 30
0.0
 10
10.5846285775
 20
9.1881489195
 30
0.0
 10
10.567444653
 20
9.1590037283
 30
0.0
 10
10.5517703822
 20
9.1289474339
 30
0.0
 10
10.5376435099
 20
9.0980525371
 30
0.0
 10
10.5250980421
 20
9.066393555
 30
0.0
 10
10.5141641446
 20
9.0340468398
 30
0.0
 10
10.5048681098
 20
9.0010904025
 30
0.0
 10
10.4972322228
 20
8.9676036591
 30
0.0
 10
10.4912748882
 20
8.9336674725
 30
0.0
 10
10.4870102191
 20
8.8993631929
 30
0.0
 10
10.484448625
 20
8.8647747577
 30
0.0
 10
10.4838811638
 20
8.8416185593
 30
0.0
 10
10.4838811638
 20
8.8300229367
 30
0.0
  0
SPLINE
  5
36A
100
AcDbEntity
  8
0
100
AcDbSpline
 62
7
  6
CONTINUOUS
 70
0
 71
3
 72
31
 73
27
 74
0
 42
0.0000001
 43
0.0000001
 44
0.0000000001
 40
0.0
 40
0.0
 40
0.0
 40
0.0
 40
0.08176658
 40
0.1620000129
 40
0.2404409944
 40
0.3168370339
 40
0.3909454464
 40
0.4625338926
 40
0.5313821335
 40
0.5972835347
 40
0.6290694961
 40
0.6600483706
 40
0.6901991141
 40
0.7195017456
 40
0.7479378086
 40
0.7754901271
 40
0.8021432425
 40
0.82788328
 40
0.8526983286
 40
0.8765784768
 40
0.899516124
 40
0.9215062383
 40
0.9425466197
 40
0.9626384291
 40
0.981786462
 40
1.0
 40
1.0
 40
1.0
 40
1.0
 10
13.4450827392
 20
7.5625139952
 30
0.0
 10
13.4450827392
 20
7.5771466269
 30
0.0
 10
13.4448543477
 20
7.606138109
 30
0.0
 10
13.4438084817
 20
7.6491557146
 30
0.0
 10
13.4420660535
 20
7.6911890927
 30
0.0
 10
13.4396333402
 20
7.7320903286
 30
0.0
 10
13.43651912
 20
7.7717155703
 30
0.0
 10
13.4327346034
 20
7.8099256342
 30
0.0
 10
13.4282933448
 20
7.8465861097
 30
0.0
 10
13.4240085218
 20
7.8760824998
 30
0.0
 10
13.4202489775
 20
7.8987997258
 30
0.0
 10
13.4173093649
 20
7.9151662045
 30
0.0
 10
13.4142185928
 20
7.9310523263
 30
0.0
 10
13.4109792826
 20
7.9464441553
 30
0.0
 10
13.4075943868
 20
7.961328172
 30
0.0
 10
13.404066826
 20
7.9756913146
 30
0.0
 10
13.4003997819
 20
7.989520992
 30
0.0
 10
13.3965964424
 20
8.002805087
 30
0.0
 10
13.3926602005
 20
8.0155319816
 30
0.0
 10
13.3885945013
 20
8.0276905576
 30
0.0
 10
13.3844029215
 20
8.0392702149
 30
0.0
 10
13.380089142
 20
8.0502608934
 30
0.0
 10
13.3756568968
 20
8.0606530383
 30
0.0
 10
13.3711100351
 20
8.0704377557
 30
0.0
 10
13.3664525117
 20
8.0796063813
 30
0.0
 10
13.3631954499
 20
8.0854480283
 30
0.0
 10
13.3615461221
 20
8.0882593564
 30
0.0
  0
SPLINE
  5
36B
100
AcDbEntity
  8
0
100
AcDbSpline
 62
7
  6
CONTINUOUS
 70
0
 71
3
 72
42
 73
38
 74
0
 42
0.0000001
 43
0.0000001
 44
0.0000000001
 40
0.0
 40
0.0
 40
0.0
 40
0.0
 40
0.0055576443
 40
0.0111781836
 40
0.0169222355
 40
0.022846223
 40
0.0290011442
 40
0.0354316623
 40
0.0421762431
 40
0.049267259
 40
0.0567314277
 40
0.0645907244
 40
0.072862575
 40
0.081560766
 40
0.0906959315
 40
0.100275708
 40
0.1103055927
 40
0.1207888494
 40
0.1431177711
 40
0.1672591076
 40
0.1931868442
 40
0.2208588039
 40
0.2502193991
 40
0.2812018039
 40
0.3137295194
 40
0.3477175618
 40
0.3830734051
 40
0.419697946
 40
0.4574862654
 40
0.4963282772
 40
0.5361092896
 40
0.5767106614
 40
0.6598810502
 40
0.7448351505
 40
0.8305372122
 40
0.9159392559
 40
1.0
 40
1.0
 40
1.0
 40
1.0
 10
12.3414216174
 20
10.4789685468
 30
0.0
 10
12.3414216174
 20
10.4794905194
 30
0.0
 10
12.3414800375
 20
10.4805412816
 30
0.0
 10
12.3417423446
 20
10.482111814
 30
0.0
 10
12.3421788397
 20
10.4836788388
 30
0.0
 10
12.342788645
 20
10.4852405612
 30
0.0
 10
12.343570854
 20
10.4867956674
 30
0.0
 10
12.3445243028
 20
10.4883430227
 30
0.0
 10
12.3456479785
 20
10.4898815271
 30
0.0
 10
12.3469407687
 20
10.4914101403
 30
0.0
 10
12.3484014755
 20
10.4929278805
 30
0.0
 10
12.3500289388
 20
10.4944336235
 30
0.0
 10
12.3518217842
 20
10.4959263483
 30
0.0
 10
12.3537785919
 20
10.497404941
 30
0.0
 10
12.3558978241
 20
10.4988682454
 30
0.0
 10
12.3581777546
 20
10.5003151887
 30
0.0
 10
12.3606165966
 20
10.5017446042
 30
0.0
 10
12.3641524995
 20
10.5036661637
 30
0.0
 10
12.3689657101
 20
10.506006565
 30
0.0
 10
12.3752239094
 20
10.5086712694
 30
0.0
 10
12.3820608037
 20
10.5112397179
 30
0.0
 10
12.3894543167
 20
10.5137034993
 30
0.0
 10
12.3973807076
 20
10.5160545212
 30
0.0
 10
12.4058142885
 20
10.5182850122
 30
0.0
 10
12.4147276651
 20
10.5203875855
 30
0.0
 10
12.4240918002
 20
10.5223552684
 30
0.0
 10
12.4338761292
 20
10.5241815552
 30
0.0
 10
12.4440486789
 20
10.5258604005
 30
0.0
 10
12.4545761899
 20
10.5273862488
 30
0.0
 10
12.4654242123
 20
10.5287540343
 30
0.0
 10
12.4765572613
 20
10.5299592746
 30
0.0
 10
12.491855134
 20
10.5313552394
 30
0.0
 10
12.5114187874
 20
10.5326590633
 30
0.0
 10
12.5352461216
 20
10.5335170496
 30
0.0
 10
12.5592981485
 20
10.533668936
 30
0.0
 10
12.5832600333
 20
10.5331127299
 30
0.0
 10
12.599156326
 20
10.5322647121
 30
0.0
 10
12.6070323736
 20
10.5317185064
 30
0.0
  0
SPLINE
  5
36C
100
AcDbEntity
  8
0
100
AcDbSpline
 62
7
  6
CONTINUOUS
 70
0
 71
3
 72
33
 73
29
 74
0
 42
0.0000001
 43
0.0000001
 44
0.0000000001
 40
0.0
 40
0.0
 40
0.0
 40
0.0
 40
0.0958348039
 40
0.1891069742
 40
0.2792500435
 40
0.36572131
 40
0.4480125246
 40
0.5256540669
 40
0.5625988158
 40
0.598226802
 40
0.632494146
 40
0.6653609288
 40
0.6967920316
 40
0.726757616
 40
0.7552336203
 40
0.7822031337
 40
0.8076567456
 40
0.8315949344
 40
0.8540288219
 40
0.8749836671
 40
0.8945009457
 40
0.9126431418
 40
0.9294980666
 40
0.945184889
 40
0.9598599849
 40
0.9737213022
 40
0.9870092614
 40
1.0
 40
1.0
 40
1.0
 40
1.0
 10
12.6070323736
 20
10.5317185064
 30
0.0
 10
12.6125280885
 20
10.5313373773
 30
0.0
 10
12.623364637
 20
10.5304644388
 30
0.0
 10
12.6393316911
 20
10.5287981163
 30
0.0
 10
12.6547184132
 20
10.5268012333
 30
0.0
 10
12.6694222485
 20
10.5244873642
 30
0.0
 10
12.6833451045
 20
10.5218722419
 30
0.0
 10
12.6943956479
 20
10.5194179787
 30
0.0
 10
12.7027688485
 20
10.5173065268
 30
0.0
 10
12.7086930049
 20
10.5156852853
 30
0.0
 10
12.7143560109
 20
10.514002938
 30
0.0
 10
12.7197484587
 20
10.5122622512
 30
0.0
 10
12.7248613991
 20
10.5104661615
 30
0.0
 10
12.7296863738
 20
10.5086176887
 30
0.0
 10
12.7342154157
 20
10.5067198799
 30
0.0
 10
12.7384411045
 20
10.5047759437
 30
0.0
 10
12.7423565211
 20
10.5027889988
 30
0.0
 10
12.7459553588
 20
10.5007623593
 30
0.0
 10
12.749231809
 20
10.4986991439
 30
0.0
 10
12.7521807168
 20
10.4966026108
 30
0.0
 10
12.754797394
 20
10.4944757343
 30
0.0
 10
12.7570777244
 20
10.4923214457
 30
0.0
 10
12.7590179024
 20
10.490142348
 30
0.0
 10
12.7606142755
 20
10.4879408174
 30
0.0
 10
12.7618630688
 20
10.4857192707
 30
0.0
 10
12.762759977
 20
10.4834802274
 30
0.0
 10
12.7633006835
 20
10.4812284973
 30
0.0
 10
12.7634215829
 20
10.4797152992
 30
0.0
 10
12.7634215829
 20
10.4789685468
 30
0.0
  0
SPLINE
  5
36D
100
AcDbEntity
  8
0
100
AcDbSpline
 62
7
  6
CONTINUOUS
 70
0
 71
3
 72
42
 73
38
 74
0
 42
0.0000001
 43
0.0000001
 44
0.0000000001
 40
0.0
 40
0.0
 40
0.0
 40
0.0
 40
0.0055576443
 40
0.0111781836
 40
0.0169222355
 40
0.022846223
 40
0.0290011442
 40
0.0354316623
 40
0.0421762431
 40
0.049267259
 40
0.0567314277
 40
0.0645907244
 40
0.072862575
 40
0.081560766
 40
0.0906959315
 40
0.100275708
 40
0.1103055927
 40
0.1207888494
 40
0.1431177711
 40
0.1672591076
 40
0.1931868442
 40
0.2208588039
 40
0.2502193991
 40
0.2812018039
 40
0.3137295194
 40
0.3477175618
 40
0.3830734051
 40
0.419697946
 40
0.4574862654
 40
0.4963282772
 40
0.5361092896
 40
0.5767106614
 40
0.6598810502
 40
0.7448351505
 40
0.8305372122
 40
0.9159392559
 40
1.0
 40
1.0
 40
1.0
 40
1.0
 10
8.7191995542
 20
10.7301705001
 30
0.0
 10
8.7191995542
 20
10.7306924727
 30
0.0
 10
8.7192579743
 20
10.7317432349
 30
0.0
 10
8.7195202814
 20
10.7333137673
 30
0.0
 10
8.7199567765
 20
10.7348807921
 30
0.0
 10
8.7205665818
 20
10.7364425145
 30
0.0
 10
8.7213487908
 20
10.7379976207
 30
0.0
 10
8.7223022396
 20
10.739544976
 30
0.0
 10
8.7234259153
 20
10.7410834804
 30
0.0
 10
8.7247187055
 20
10.7426120936
 30
0.0
 10
8.7261794122
 20
10.7441298338
 30
0.0
 10
8.7278068756
 20
10.7456355767
 30
0.0
 10
8.729599721
 20
10.7471283016
 30
0.0
 10
8.7315565287
 20
10.7486068943
 30
0.0
 10
8.7336757609
 20
10.7500701987
 30
0.0
 10
8.7359556914
 20
10.751517142
 30
0.0
 10
8.7383945334
 20
10.7529465575
 30
0.0
 10
8.7419304363
 20
10.754868117
 30
0.0
 10
8.7467436469
 20
10.7572085183
 30
0.0
 10
8.7530018462
 20
10.7598732227
 30
0.0
 10
8.7598387405
 20
10.7624416712
 30
0.0
 10
8.7672322535
 20
10.7649054526
 30
0.0
 10
8.7751586444
 20
10.7672564744
 30
0.0
 10
8.7835922253
 20
10.7694869654
 30
0.0
 10
8.7925056019
 20
10.7715895388
 30
0.0
 10
8.801869737
 20
10.7735572217
 30
0.0
 10
8.811654066
 20
10.7753835085
 30
0.0
 10
8.8218266157
 20
10.7770623538
 30
0.0
 10
8.8323541267
 20
10.7785882021
 30
0.0
 10
8.8432021491
 20
10.7799559876
 30
0.0
 10
8.8543351981
 20
10.7811612279
 30
0.0
 10
8.8696330708
 20
10.7825571927
 30
0.0
 10
8.8891967242
 20
10.7838610166
 30
0.0
 10
8.9130240584
 20
10.7847190029
 30
0.0
 10
8.9370760853
 20
10.7848708893
 30
0.0
 10
8.9610379701
 20
10.7843146831
 30
0.0
 10
8.9769342628
 20
10.7834666654
 30
0.0
 10
8.9848103104
 20
10.7829204597
 30
0.0
  0
SPLINE
  5
36E
100
AcDbEntity
  8
0
100
AcDbSpline
 62
7
  6
CONTINUOUS
 70
0
 71
3
 72
49
 73
45
 74
0
 42
0.0000001
 43
0.0000001
 44
0.0000000001
 40
0.0
 40
0.0
 40
0.0
 40
0.0
 40
0.0149718081
 40
0.0299466748
 40
0.0449276404
 40
0.059917709
 40
0.0749198276
 40
0.0899368702
 40
0.1049716217
 40
0.120026759
 40
0.1351048351
 40
0.1502082677
 40
0.1653393229
 40
0.1805001009
 40
0.1956925286
 40
0.2109183481
 40
0.2261791043
 40
0.2414761418
 40
0.256810598
 40
0.2721833946
 40
0.287595237
 40
0.3030466133
 40
0.3340634927
 40
0.3652389307
 40
0.3965689749
 40
0.4280463623
 40
0.4596607137
 40
0.4913987952
 40
0.5232448251
 40
0.5551808189
 40
0.5871869764
 40
0.6192420905
 40
0.6513239761
 40
0.6834099169
 40
0.7154771164
 40
0.7475031494
 40
0.779466411
 40
0.8113465537
 40
0.8431249023
 40
0.8747848503
 40
0.906312225
 40
0.9376956122
 40
0.9689264437
 40
1.0
 40
1.0
 40
1.0
 40
1.0
 10
11.729106464
 20
8.2105815543
 30
0.0
 10
11.7226192876
 20
8.2043154059
 30
0.0
 10
11.7093929962
 20
8.1920383215
 30
0.0
 10
11.6888351917
 20
8.1744237144
 30
0.0
 10
11.6675852155
 20
8.1576321882
 30
0.0
 10
11.6456726805
 20
8.1416872781
 30
0.0
 10
11.6231276196
 20
8.1266108478
 30
0.0
 10
11.5999811344
 20
8.1124236024
 30
0.0
 10
11.5762650609
 20
8.0991450626
 30
0.0
 10
11.5520120136
 20
8.0867935469
 30
0.0
 10
11.5272554068
 20
8.0753859708
 30
0.0
 10
11.5020293072
 20
8.0649380143
 30
0.0
 10
11.476368403
 20
8.0554641055
 30
0.0
 10
11.4503080299
 20
8.0469772027
 30
0.0
 10
11.4238840494
 20
8.0394889427
 30
0.0
 10
11.3971327989
 20
8.0330096795
 30
0.0
 10
11.3700910935
 20
8.0275482662
 30
0.0
 10
11.3427961492
 20
8.0231121539
 30
0.0
 10
11.315285467
 20
8.0197074917
 30
0.0
 10
11.2875970234
 20
8.0173389162
 30
0.0
 10
11.2597684179
 20
8.0160096491
 30
0.0
 10
11.2224854577
 20
8.0156248405
 30
0.0
 10
11.1757131877
 20
8.0177582398
 30
0.0
 10
11.119724859
 20
8.0244678542
 30
0.0
 10
11.0641011026
 20
8.0352925042
 30
0.0
 10
11.0091495358
 20
8.0501723017
 30
0.0
 10
10.9551712749
 20
8.0690248554
 30
0.0
 10
10.9024627563
 20
8.0917461982
 30
0.0
 10
10.851313227
 20
8.1182112346
 30
0.0
 10
10.8020033106
 20
8.1482742545
 30
0.0
 10
10.7548035993
 20
8.1817700596
 30
0.0
 10
10.709973071
 20
8.2185146031
 30
0.0
 10
10.6677576707
 20
8.2583060411
 30
0.0
 10
10.6283891568
 20
8.3009260073
 30
0.0
 10
10.5920835808
 20
8.3461405239
 30
0.0
 10
10.5590402913
 20
8.3937014747
 30
0.0
 10
10.5294408907
 20
8.4433479341
 30
0.0
 10
10.5034479858
 20
8.4948074394
 30
0.0
 10
10.4812046236
 20
8.5477976333
 30
0.0
 10
10.4628333278
 20
8.6020277977
 30
0.0
 10
10.4484353294
 20
8.6571999566
 30
0.0
 10
10.4380903796
 20
8.7130122496
 30
0.0
 10
10.4318557055
 20
8.7691541959
 30
0.0
 10
10.4304592637
 20
8.8067020088
 30
0.0
 10
10.4304592637
 20
8.8254213406
 30
0.0
  0
SPLINE
  5
36F
100
AcDbEntity
  8
0
100
AcDbSpline
 62
7
  6
CONTINUOUS
 70
0
 71
3
 72
47
 73
43
 74
0
 42
0.0000001
 43
0.0000001
 44
0.0000000001
 40
0.0
 40
0.0
 40
0.0
 40
0.0
 40
0.0149687608
 40
0.0299417876
 40
0.0449220687
 40
0.0599125491
 40
0.0749161113
 40
0.0899355593
 40
0.1049736039
 40
0.1200328435
 40
0.1351157501
 40
0.1502246587
 40
0.1653617491
 40
0.1805290361
 40
0.1957283616
 40
0.2109613808
 40
0.2262295544
 40
0.241534146
 40
0.2722511961
 40
0.3031239162
 40
0.3341547734
 40
0.3653427973
 40
0.3966836467
 40
0.4281697532
 40
0.4597905257
 40
0.4915326035
 40
0.5233801615
 40
0.5553152561
 40
0.5873181981
 40
0.6193679555
 40
0.6514425759
 40
0.6835196185
 40
0.7155765949
 40
0.7475914099
 40
0.7795427988
 40
0.8114107494
 40
0.8431769085
 40
0.8748249662
 40
0.906341008
 40
0.9377138422
 40
0.9689350341
 40
1.0
 40
1.0
 40
1.0
 40
1.0
 10
11.7290483318
 20
8.2106522787
 30
0.0
 10
11.7225014381
 20
8.2045324877
 30
0.0
 10
11.7091625581
 20
8.1925484097
 30
0.0
 10
11.688457147
 20
8.1753735889
 30
0.0
 10
11.6670798658
 20
8.1590205193
 30
0.0
 10
11.6450601132
 20
8.1435118435
 30
0.0
 10
11.622427686
 20
8.1288685489
 30
0.0
 10
11.5992134114
 20
8.115110471
 30
0.0
 10
11.5754487916
 20
8.1022563264
 30
0.0
 10
11.5511661018
 20
8.0903236002
 30
0.0
 10
11.5263983713
 20
8.0793284048
 30
0.0
 10
11.5011792244
 20
8.0692857057
 30
0.0
 10
11.4755429062
 20
8.060209165
 30
0.0
 10
11.4495242806
 20
8.0521110063
 30
0.0
 10
11.4231586355
 20
8.0450022528
 30
0.0
 10
11.3964819052
 20
8.0388925872
 30
0.0
 10
11.3695298466
 20
8.0337901736
 30
0.0
 10
11.3332364407
 20
8.0283331041
 30
0.0
 10
11.2873502723
 20
8.024069521
 30
0.0
 10
11.2318577096
 20
8.0230692388
 30
0.0
 10
11.1761602068
 20
8.0261818472
 30
0.0
 10
11.12056207
 20
8.0333902518
 30
0.0
 10
11.0653642835
 20
8.044654561
 30
0.0
 10
11.0108662448
 20
8.0599130982
 30
0.0
 10
10.9573633122
 20
8.0790826979
 30
0.0
 10
10.9051453875
 20
8.1020589351
 30
0.0
 10
10.8544953394
 20
8.1287168705
 30
0.0
 10
10.8056875778
 20
8.1589118085
 30
0.0
 10
10.7589864428
 20
8.1924798298
 30
0.0
 10
10.714644876
 20
8.2292388582
 30
0.0
 10
10.6729031388
 20
8.2689896862
 30
0.0
 10
10.6339873381
 20
8.3115168332
 30
0.0
 10
10.5981083438
 20
8.3565898723
 30
0.0
 10
10.5654607266
 20
8.4039646854
 30
0.0
 10
10.5362214863
 20
8.4533846025
 30
0.0
 10
10.510549274
 20
8.5045819328
 30
0.0
 10
10.4885835943
 20
8.5572793565
 30
0.0
 10
10.4704437975
 20
8.611191424
 30
0.0
 10
10.4562286314
 20
8.6660257333
 30
0.0
 10
10.4460158231
 20
8.7214860924
 30
0.0
 10
10.439861089
 20
8.7772679374
 30
0.0
 10
10.4384826473
 20
8.8145727564
 30
0.0
 10
10.4384826473
 20
8.8331713345
 30
0.0
  0
SPLINE
  5
370
100
AcDbEntity
  8
0
100
AcDbSpline
 62
7
  6
CONTINUOUS
 70
0
 71
3
 72
47
 73
43
 74
0
 42
0.0000001
 43
0.0000001
 44
0.0000000001
 40
0.0
 40
0.0
 40
0.0
 40
0.0
 40
0.0149719701
 40
0.0299469998
 40
0.0449281282
 40
0.0599183596
 40
0.074920642
 40
0.0899378484
 40
0.1049727639
 40
0.1200280657
 40
0.1351063065
 40
0.1502099046
 40
0.1653411254
 40
0.180502069
 40
0.1956946637
 40
0.2109206499
 40
0.2261815727
 40
0.2414787788
 40
0.2721808845
 40
0.3030390423
 40
0.3340562612
 40
0.3652320396
 40
0.3965624276
 40
0.4280401587
 40
0.4596548547
 40
0.4913932827
 40
0.5232396593
 40
0.5551760004
 40
0.5871825057
 40
0.6192379677
 40
0.6513202013
 40
0.6834064899
 40
0.7154740364
 40
0.747500416
 40
0.7794640241
 40
0.8113445111
 40
0.8431232035
 40
0.8747834946
 40
0.906311207
 40
0.9376949507
 40
0.9689260908
 40
1.0
 40
1.0
 40
1.0
 40
1.0
 10
11.7007785457
 20
8.2694192587
 30
0.0
 10
11.694805694
 20
8.2636499317
 30
0.0
 10
11.6826280225
 20
8.2523462607
 30
0.0
 10
11.6637001035
 20
8.2361282672
 30
0.0
 10
11.6441348698
 20
8.2206681281
 30
0.0
 10
11.623959644
 20
8.2059874385
 30
0.0
 10
11.6032020267
 20
8.1921063951
 30
0.0
 10
11.5818906686
 20
8.1790440438
 30
0.0
 10
11.5600548964
 20
8.1668183305
 30
0.0
 10
11.537724715
 20
8.1554461643
 30
0.0
 10
11.5149309093
 20
8.1449430809
 30
0.0
 10
11.4917048343
 20
8.1353235386
 30
0.0
 10
11.4680784227
 20
8.1266008342
 30
0.0
 10
11.4440842364
 20
8.1187868418
 30
0.0
 10
11.4197552364
 20
8.1118923457
 30
0.0
 10
11.3951250125
 20
8.1059268654
 30
0.0
 10
11.3702270117
 20
8.1008984527
 30
0.0
 10
11.3366823309
 20
8.0954465459
 30
0.0
 10
11.2942397261
 20
8.0910133371
 30
0.0
 10
11.2428661778
 20
8.0895308348
 30
0.0
 10
11.1912613901
 20
8.0918850059
 30
0.0
 10
11.1397109774
 20
8.0980626716
 30
0.0
 10
11.0884976629
 20
8.1080292318
 30
0.0
 10
11.0379028524
 20
8.1217293315
 30
0.0
 10
10.9882042834
 20
8.1390872118
 30
0.0
 10
10.9396747822
 20
8.1600071866
 30
0.0
 10
10.8925806571
 20
8.1843739887
 30
0.0
 10
10.8471802992
 20
8.2120535181
 30
0.0
 10
10.8037228352
 20
8.2428936495
 30
0.0
 10
10.7624467222
 20
8.2767249499
 30
0.0
 10
10.7235784106
 20
8.3133615778
 30
0.0
 10
10.6873312212
 20
8.3526024229
 30
0.0
 10
10.653904174
 20
8.3942321515
 30
0.0
 10
10.6234807703
 20
8.4380222729
 30
0.0
 10
10.5962281303
 20
8.4837325043
 30
0.0
 10
10.5722961171
 20
8.5311120749
 30
0.0
 10
10.5518163603
 20
8.5799009639
 30
0.0
 10
10.5349016062
 20
8.6298314862
 30
0.0
 10
10.5216451776
 20
8.6806293435
 30
0.0
 10
10.5121204604
 20
8.7320165619
 30
0.0
 10
10.5063800775
 20
8.7837073003
 30
0.0
 10
10.5050943626
 20
8.8182781333
 30
0.0
 10
10.5050943626
 20
8.8355133145
 30
0.0
  0
SPLINE
  5
371
100
AcDbEntity
  8
0
100
AcDbSpline
 62
7
  6
CONTINUOUS
 70
0
 71
3
 72
45
 73
41
 74
0
 42
0.0000001
 43
0.0000001
 44
0.0000000001
 40
0.0
 40
0.0
 40
0.0
 40
0.0
 40
0.0149641173
 40
0.029934725
 40
0.044914706
 40
0.0599068892
 40
0.0749140294
 40
0.0899387964
 40
0.1049837574
 40
0.12005136
 40
0.1351439243
 40
0.1502636262
 40
0.165412484
 40
0.1805923547
 40
0.2110462731
 40
0.2416420462
 40
0.2723877382
 40
0.3032881496
 40
0.3343447615
 40
0.3655557503
 40
0.396916077
 40
0.428417638
 40
0.4600494691
 40
0.4917979987
 40
0.523647349
 40
0.555579669
 40
0.5875754965
 40
0.6196141436
 40
0.6516741015
 40
0.6837334534
 40
0.7157702939
 40
0.7477631489
 40
0.779691388
 40
0.8115356274
 40
0.8432781162
 40
0.8749030945
 40
0.9063971251
 40
0.9377494391
 40
0.9689518427
 40
1.0
 40
1.0
 40
1.0
 40
1.0
 10
11.7208983431
 20
8.2898290489
 30
0.0
 10
11.7147737149
 20
8.2844492228
 30
0.0
 10
11.702310567
 20
8.2739250081
 30
0.0
 10
11.6830105598
 20
8.2588758896
 30
0.0
 10
11.6631267543
 20
8.2445801784
 30
0.0
 10
11.642685794
 20
8.2310572471
 30
0.0
 10
11.6217147071
 20
8.2183248893
 30
0.0
 10
11.6002413486
 20
8.2063999371
 30
0.0
 10
11.5782941113
 20
8.1952982928
 30
0.0
 10
11.5559021464
 20
8.1850345695
 30
0.0
 10
11.5330950963
 20
8.1756223492
 30
0.0
 10
11.5099032728
 20
8.1670742065
 30
0.0
 10
11.4863570136
 20
8.1594012544
 30
0.0
 10
11.4545012833
 20
8.1503424951
 30
0.0
 10
11.4139357703
 20
8.1412592978
 30
0.0
 10
11.3644113568
 20
8.1340111182
 30
0.0
 10
11.3142423943
 20
8.1304379975
 30
0.0
 10
11.2636965284
 20
8.1305588462
 30
0.0
 10
11.21304096
 20
8.1343723287
 30
0.0
 10
11.162543969
 20
8.1418576805
 30
0.0
 10
11.1124727085
 20
8.1529747139
 30
0.0
 10
11.0630920409
 20
8.1676641524
 30
0.0
 10
11.0146630972
 20
8.1858478843
 30
0.0
 10
10.9674418887
 20
8.2074293037
 30
0.0
 10
10.9216780113
 20
8.232293964
 30
0.0
 10
10.8776133643
 20
8.2603101794
 30
0.0
 10
10.8354808297
 20
8.2913296159
 30
0.0
 10
10.7955030592
 20
8.3251881051
 30
0.0
 10
10.7578913652
 20
8.3617065756
 30
0.0
 10
10.7228446211
 20
8.4006919704
 30
0.0
 10
10.6905481103
 20
8.4419381603
 30
0.0
 10
10.6611726452
 20
8.485227121
 30
0.0
 10
10.634873702
 20
8.5303300765
 30
0.0
 10
10.6117905566
 20
8.5770086612
 30
0.0
 10
10.5920454777
 20
8.6250161091
 30
0.0
 10
10.5757432064
 20
8.6740987197
 30
0.0
 10
10.5629703821
 20
8.7239967674
 30
0.0
 10
10.5537950789
 20
8.7744472241
 30
0.0
 10
10.5482661233
 20
8.8251797963
 30
0.0
 10
10.5470279924
 20
8.8591041844
 30
0.0
 10
10.5470279924
 20
8.8760180929
 30
0.0
  0
SPLINE
  5
372
100
AcDbEntity
  8
0
100
AcDbSpline
 62
7
  6
CONTINUOUS
 70
0
 71
3
 72
45
 73
41
 74
0
 42
0.0000001
 43
0.0000001
 44
0.0000000001
 40
0.0
 40
0.0
 40
0.0
 40
0.0
 40
0.0149721384
 40
0.0299473353
 40
0.0449286316
 40
0.0599190316
 40
0.0749214813
 40
0.0899388561
 40
0.1049739408
 40
0.1200294102
 40
0.1351078205
 40
0.1502115883
 40
0.1653429774
 40
0.1805040919
 40
0.2109173721
 40
0.2414702803
 40
0.2721727302
 40
0.3030312324
 40
0.3340487994
 40
0.3652249282
 40
0.3965556662
 40
0.4280337495
 40
0.4596488007
 40
0.4913875843
 40
0.5232343171
 40
0.5551710162
 40
0.5871778805
 40
0.6192337014
 40
0.6513162944
 40
0.6834029425
 40
0.7154708484
 40
0.7474975871
 40
0.779461553
 40
0.8113423971
 40
0.8431214459
 40
0.874782092
 40
0.9063101554
 40
0.9376942574
 40
0.9689257386
 40
1.0
 40
1.0
 40
1.0
 40
1.0
 10
11.7224415415
 20
8.354994358
 30
0.0
 10
11.7168544295
 20
8.3495976402
 30
0.0
 10
11.7054632324
 20
8.3390239981
 30
0.0
 10
11.687757728
 20
8.3238534335
 30
0.0
 10
11.669456115
 20
8.30939172
 30
0.0
 10
11.650583841
 20
8.2956592005
 30
0.0
 10
11.6311668272
 20
8.2826746324
 30
0.0
 10
11.6112318496
 20
8.2704558542
 30
0.0
 10
11.5908062706
 20
8.2590197757
 30
0.0
 10
11.56991827
 20
8.2483820302
 30
0.0
 10
11.5485965524
 20
8.2385572467
 30
0.0
 10
11.5268705438
 20
8.2295590413
 30
0.0
 10
11.5047697521
 20
8.2213995673
 30
0.0
 10
11.4748160344
 20
8.2116446349
 30
0.0
 10
11.4365726611
 20
8.2016042188
 30
0.0
 10
11.3897371091
 20
8.1930799688
 30
0.0
 10
11.342159174
 20
8.1881106611
 30
0.0
 10
11.29410245
 20
8.1867236657
 30
0.0
 10
11.2458307549
 20
8.1889258742
 30
0.0
 10
11.1976095683
 20
8.1947045857
 30
0.0
 10
11.1497037948
 20
8.2040274368
 30
0.0
 10
11.1023765541
 20
8.2168427209
 30
0.0
 10
11.0558877018
 20
8.233079618
 30
0.0
 10
11.0104923948
 20
8.2526485016
 30
0.0
 10
10.966439748
 20
8.2754415814
 30
0.0
 10
10.923971507
 20
8.3013334939
 30
0.0
 10
10.8833206867
 20
8.3301818875
 30
0.0
 10
10.8447103041
 20
8.361828226
 30
0.0
 10
10.8083522269
 20
8.3960987287
 30
0.0
 10
10.7744460308
 20
8.4328052958
 30
0.0
 10
10.7431778054
 20
8.4717464296
 30
0.0
 10
10.7147192288
 20
8.5127084273
 30
0.0
 10
10.6892266666
 20
8.5554665469
 30
0.0
 10
10.6668402745
 20
8.5997861922
 30
0.0
 10
10.6476831544
 20
8.6454241259
 30
0.0
 10
10.6318608073
 20
8.6921299669
 30
0.0
 10
10.619460535
 20
8.7396471348
 30
0.0
 10
10.6105509551
 20
8.7877155925
 30
0.0
 10
10.6051812983
 20
8.836067971
 30
0.0
 10
10.6039786217
 20
8.868406102
 30
0.0
 10
10.6039786217
 20
8.8845281798
 30
0.0
  0
SPLINE
  5
373
100
AcDbEntity
  8
0
100
AcDbSpline
 62
7
  6
CONTINUOUS
 70
0
 71
3
 72
42
 73
38
 74
0
 42
0.0000001
 43
0.0000001
 44
0.0000000001
 40
0.0
 40
0.0
 40
0.0
 40
0.0
 40
0.0302771196
 40
0.0454600827
 40
0.0606722779
 40
0.0911827256
 40
0.121813731
 40
0.1371762047
 40
0.1525688739
 40
0.1834409134
 40
0.2144303296
 40
0.2455330339
 40
0.2767435214
 40
0.3080549539
 40
0.3394592565
 40
0.370947227
 40
0.4025086555
 40
0.4341324542
 40
0.4658067944
 40
0.49751925
 40
0.5292569463
 40
0.5610067125
 40
0.5927552361
 40
0.6244892194
 40
0.6561955349
 40
0.6878613803
 40
0.7194744295
 40
0.7510229812
 40
0.7824961012
 40
0.8138837575
 40
0.8451769508
 40
0.8763678238
 40
0.9074497942
 40
0.9384175771
 40
0.9538587615
 40
0.9692704983
 40
1.0
 40
1.0
 40
1.0
 40
1.0
 10
11.8896531798
 20
8.6550193437
 30
0.0
 10
11.8776710593
 20
8.6527667785
 30
0.0
 10
11.8595751409
 20
8.6499125716
 30
0.0
 10
11.8352964787
 20
8.6471620331
 30
0.0
 10
11.8108538972
 20
8.6451086289
 30
0.0
 10
11.7801148822
 20
8.6438648701
 30
0.0
 10
11.7492948549
 20
8.6443856472
 30
0.0
 10
11.7246166903
 20
8.6458558423
 30
0.0
 10
11.6998934045
 20
8.6480328612
 30
0.0
 10
11.6690302162
 20
8.652073747
 30
0.0
 10
11.6322236835
 20
8.6590069416
 30
0.0
 10
11.5957263929
 20
8.6680066036
 30
0.0
 10
11.5596573745
 20
8.6790433876
 30
0.0
 10
11.5241332922
 20
8.6920814188
 30
0.0
 10
11.4892692907
 20
8.7070783368
 30
0.0
 10
11.4551782971
 20
8.7239854541
 30
0.0
 10
11.4219707461
 20
8.7427479088
 30
0.0
 10
11.3897542014
 20
8.7633048435
 30
0.0
 10
11.3586330164
 20
8.7855896022
 30
0.0
 10
11.3287079972
 20
8.8095299453
 30
0.0
 10
11.3000760782
 20
8.8350482828
 30
0.0
 10
11.2728300107
 20
8.8620619246
 30
0.0
 10
11.2470580639
 20
8.8904833466
 30
0.0
 10
11.2228437411
 20
8.9202204731
 30
0.0
 10
11.2002655103
 20
8.9511769727
 30
0.0
 10
11.1793965516
 20
8.9832525692
 30
0.0
 10
11.1603045209
 20
9.0163433631
 30
0.0
 10
11.1430513317
 20
9.0503421678
 30
0.0
 10
11.127692956
 20
9.0851388481
 30
0.0
 10
11.1142792387
 20
9.1206206971
 30
0.0
 10
11.1028537502
 20
9.1566727135
 30
0.0
 10
11.0934536007
 20
9.1931782859
 30
0.0
 10
11.086109457
 20
9.2300184015
 30
0.0
 10
11.0817181745
 20
9.2609297722
 30
0.0
 10
11.0792569073
 20
9.2857048013
 30
0.0
 10
11.0775005272
 20
9.3104429026
 30
0.0
 10
11.0769700362
 20
9.3290286478
 30
0.0
 10
11.0769700362
 20
9.3414028298
 30
0.0
  0
SPLINE
  5
374
100
AcDbEntity
  8
0
100
AcDbSpline
 62
7
  6
CONTINUOUS
 70
0
 71
3
 72
40
 73
36
 74
0
 42
0.0000001
 43
0.0000001
 44
0.0000000001
 40
0.0
 40
0.0
 40
0.0
 40
0.0
 40
0.0302735628
 40
0.0454547395
 40
0.0606651469
 40
0.0911720625
 40
0.1217996634
 40
0.1525485123
 40
0.183417598
 40
0.2144043668
 40
0.2455047726
 40
0.2767133439
 40
0.3080232666
 40
0.3394264809
 40
0.370913791
 40
0.4024749851
 40
0.4340989655
 40
0.4657738864
 40
0.4974872981
 40
0.5292262965
 40
0.5609776762
 40
0.5927280864
 40
0.6244641876
 40
0.6561728088
 40
0.6878411021
 40
0.7194566963
 40
0.7510078452
 40
0.7824835715
 40
0.8138738019
 40
0.8451695014
 40
0.8763627742
 40
0.9074470243
 40
0.9384169054
 40
0.9692687565
 40
1.0
 40
1.0
 40
1.0
 40
1.0
 10
11.8954057225
 20
8.7156286105
 30
0.0
 10
11.8842600294
 20
8.7135014296
 30
0.0
 10
11.8674257482
 20
8.710799387
 30
0.0
 10
11.8448368649
 20
8.7081801707
 30
0.0
 10
11.8220936692
 20
8.7062104206
 30
0.0
 10
11.7934879299
 20
8.7049814666
 30
0.0
 10
11.7590342963
 20
8.7054809924
 30
0.0
 10
11.7245292864
 20
8.7079513205
 30
0.0
 10
11.6900858048
 20
8.7123843306
 30
0.0
 10
11.6558156468
 20
8.7187654511
 30
0.0
 10
11.6218302625
 20
8.7270738083
 30
0.0
 10
11.5882400945
 20
8.7372822702
 30
0.0
 10
11.5551543036
 20
8.7493575437
 30
0.0
 10
11.5226803947
 20
8.7632602829
 30
0.0
 10
11.4909238767
 20
8.7789452175
 30
0.0
 10
11.4599879207
 20
8.796361301
 30
0.0
 10
11.4299730283
 20
8.815451876
 30
0.0
 10
11.400976707
 20
8.8361548584
 30
0.0
 10
11.3730931561
 20
8.8584029382
 30
0.0
 10
11.3464129627
 20
8.8821237976
 30
0.0
 10
11.3210228094
 20
8.9072403445
 30
0.0
 10
11.2970051946
 20
8.933670962
 30
0.0
 10
11.2744381659
 20
8.961329772
 30
0.0
 10
11.2533950681
 20
8.9901269123
 30
0.0
 10
11.2339443059
 20
9.0199688268
 30
0.0
 10
11.216149123
 20
9.0507585675
 30
0.0
 10
11.2000673967
 20
9.0823961074
 30
0.0
 10
11.1857514522
 20
9.1147786621
 30
0.0
 10
11.1732478879
 20
9.1478010247
 30
0.0
 10
11.1625974359
 20
9.1813558911
 30
0.0
 10
11.1538348005
 20
9.2153342597
 30
0.0
 10
11.1469886068
 20
9.2496255819
 30
0.0
 10
11.1420811849
 20
9.2841188398
 30
0.0
 10
11.1391286908
 20
9.3187003666
 30
0.0
 10
11.1384688046
 20
9.341787672
 30
0.0
 10
11.1384688046
 20
9.353306082
 30
0.0
  0
SPLINE
  5
375
100
AcDbEntity
  8
0
100
AcDbSpline
 62
7
  6
CONTINUOUS
 70
0
 71
3
 72
39
 73
35
 74
0
 42
0.0000001
 43
0.0000001
 44
0.0000000001
 40
0.0
 40
0.0
 40
0.0
 40
0.0
 40
0.0304776686
 40
0.0610671238
 40
0.0917684886
 40
0.1225806441
 40
0.1535012551
 40
0.1845268082
 40
0.215652662
 40
0.2468731074
 40
0.2781814377
 40
0.3095700275
 40
0.3410304184
 40
0.3725534122
 40
0.4041291697
 40
0.4357473138
 40
0.4673970371
 40
0.4990672135
 40
0.5307465107
 40
0.5624235047
 40
0.5940867951
 40
0.6257251194
 40
0.6573274668
 40
0.6888831908
 40
0.7203821177
 40
0.7518146537
 40
0.7831718867
 40
0.814445681
 40
0.8456287794
 40
0.8767148391
 40
0.9076986677
 40
0.93857581
 40
0.9693438181
 40
1.0
 40
1.0
 40
1.0
 40
1.0
 10
11.8945537389
 20
8.7829153099
 30
0.0
 10
11.8839675443
 20
8.7823837046
 30
0.0
 10
11.8627235454
 20
8.7818861794
 30
0.0
 10
11.8308081672
 20
8.7828319932
 30
0.0
 10
11.7988700684
 20
8.7854655864
 30
0.0
 10
11.766999458
 20
8.7897795835
 30
0.0
 10
11.7352848224
 20
8.7957618552
 30
0.0
 10
11.7038146104
 20
8.8033956466
 30
0.0
 10
11.672676467
 20
8.8126595988
 30
0.0
 10
11.6419571322
 20
8.8235278238
 30
0.0
 10
11.6117421636
 20
8.8359699738
 30
0.0
 10
11.5821157098
 20
8.8499513274
 30
0.0
 10
11.5531602759
 20
8.8654328864
 30
0.0
 10
11.524956496
 20
8.8823714839
 30
0.0
 10
11.4975829099
 20
8.9007199047
 30
0.0
 10
11.4711157471
 20
8.9204270167
 30
0.0
 10
11.4456287133
 20
8.9414379092
 30
0.0
 10
11.4211927822
 20
8.9636940432
 30
0.0
 10
11.3978760053
 20
8.9871334206
 30
0.0
 10
11.3757433217
 20
9.0116907546
 30
0.0
 10
11.3548563789
 20
9.0372976512
 30
0.0
 10
11.3352733625
 20
9.063882798
 30
0.0
 10
11.3170488347
 20
9.091372162
 30
0.0
 10
11.300233583
 20
9.1196891933
 30
0.0
 10
11.28487448
 20
9.1487550382
 30
0.0
 10
11.2710143508
 20
9.1784887555
 30
0.0
 10
11.2586918495
 20
9.2088075376
 30
0.0
 10
11.2479413507
 20
9.2396269487
 30
0.0
 10
11.2387928806
 20
9.2708611402
 30
0.0
 10
11.2312719597
 20
9.3024231534
 30
0.0
 10
11.2253997035
 20
9.3342249274
 30
0.0
 10
11.2211924148
 20
9.3661783084
 30
0.0
 10
11.2186621117
 20
9.3981929297
 30
0.0
 10
11.2180968457
 20
9.4195592506
 30
0.0
 10
11.2180968457
 20
9.4302208679
 30
0.0
  0
SPLINE
  5
376
100
AcDbEntity
  8
0
100
AcDbSpline
 62
7
  6
CONTINUOUS
 70
0
 71
3
 72
23
 73
19
 74
0
 42
0.0000001
 43
0.0000001
 44
0.0000000001
 40
0.0
 40
0.0
 40
0.0
 40
0.0
 40
0.0616984931
 40
0.1234238109
 40
0.1851959183
 40
0.2470343206
 40
0.3089578756
 40
0.3709846125
 40
0.4331315605
 40
0.4954145908
 40
0.5578482694
 40
0.6204457293
 40
0.6832185673
 40
0.7461766721
 40
0.8093284814
 40
0.8726797996
 40
0.9362367739
 40
1.0
 40
1.0
 40
1.0
 40
1.0
 10
10.6425875135
 20
9.3354312268
 30
0.0
 10
10.6344885854
 20
9.3273476337
 30
0.0
 10
10.6186921149
 20
9.3107653196
 30
0.0
 10
10.5962757595
 20
9.284723624
 30
0.0
 10
10.575181794
 20
9.2575657336
 30
0.0
 10
10.5554577525
 20
9.2293526386
 30
0.0
 10
10.5371470774
 20
9.200146654
 30
0.0
 10
10.5202903535
 20
9.1700125621
 30
0.0
 10
10.5049248611
 20
9.139017123
 30
0.0
 10
10.4910845917
 20
9.1072290178
 30
0.0
 10
10.4788001469
 20
9.0747186716
 30
0.0
 10
10.4680986779
 20
9.0415580992
 30
0.0
 10
10.4590038227
 20
9.007820766
 30
0.0
 10
10.4515356034
 20
8.9735813492
 30
0.0
 10
10.4457105708
 20
8.9389158168
 30
0.0
 10
10.4415413709
 20
8.9039004664
 30
0.0
 10
10.4390374061
 20
8.8686140523
 30
0.0
 10
10.4384826473
 20
8.8449970414
 30
0.0
 10
10.4384826473
 20
8.8331713345
 30
0.0
  0
SPLINE
  5
377
100
AcDbEntity
  8
0
100
AcDbSpline
 62
7
  6
CONTINUOUS
 70
0
 71
3
 72
23
 73
19
 74
0
 42
0.0000001
 43
0.0000001
 44
0.0000000001
 40
0.0
 40
0.0
 40
0.0
 40
0.0
 40
0.0617101436
 40
0.1234413945
 40
0.1852146442
 40
0.2470503545
 40
0.3089683499
 40
0.3709876203
 40
0.4331261332
 40
0.4954006601
 40
0.5578266118
 40
0.6204179016
 40
0.6831868196
 40
0.7461438598
 40
0.8092979876
 40
0.872655304
 40
0.9362225276
 40
1.0
 40
1.0
 40
1.0
 40
1.0
 10
10.7003434517
 20
9.3051458202
 30
0.0
 10
10.6926124105
 20
9.2976782139
 30
0.0
 10
10.6775292054
 20
9.2823395595
 30
0.0
 10
10.6561135416
 20
9.25819426
 30
0.0
 10
10.6359521284
 20
9.2329631115
 30
0.0
 10
10.6170922652
 20
9.2067051007
 30
0.0
 10
10.5995772101
 20
9.1794806014
 30
0.0
 10
10.5834473708
 20
9.1513524882
 30
0.0
 10
10.5687398832
 20
9.122385639
 30
0.0
 10
10.5554886164
 20
9.0926468779
 30
0.0
 10
10.5437240705
 20
9.0622047959
 30
0.0
 10
10.533473316
 20
9.031129595
 30
0.0
 10
10.5247599362
 20
8.999492944
 30
0.0
 10
10.5176038923
 20
8.9673677462
 30
0.0
 10
10.5120216978
 20
8.9348282147
 30
0.0
 10
10.5080259455
 20
8.9019488829
 30
0.0
 10
10.5056260478
 20
8.8688067642
 30
0.0
 10
10.5050943626
 20
8.846622083
 30
0.0
 10
10.5050943626
 20
8.8355133145
 30
0.0
  0
SPLINE
  5
378
100
AcDbEntity
  8
0
100
AcDbSpline
 62
7
  6
CONTINUOUS
 70
0
 71
3
 72
23
 73
19
 74
0
 42
0.0000001
 43
0.0000001
 44
0.0000000001
 40
0.0
 40
0.0
 40
0.0
 40
0.0
 40
0.0616810998
 40
0.1233985808
 40
0.1851707683
 40
0.2470154915
 40
0.3089499244
 40
0.3709904319
 40
0.4331524248
 40
0.4954502264
 40
0.5578969509
 40
0.6205044193
 40
0.6832830137
 40
0.7462416459
 40
0.8093878795
 40
0.8727266079
 40
0.9362643481
 40
1.0
 40
1.0
 40
1.0
 40
1.0
 10
10.7221124934
 20
9.3252610912
 30
0.0
 10
10.715139365
 20
9.3178798815
 30
0.0
 10
10.7015454496
 20
9.3027716127
 30
0.0
 10
10.6822725378
 20
9.2791392569
 30
0.0
 10
10.6641507986
 20
9.2545786628
 30
0.0
 10
10.6472181313
 20
9.229141056
 30
0.0
 10
10.63150916
 20
9.2028785946
 30
0.0
 10
10.6170562175
 20
9.1758453563
 30
0.0
 10
10.6038890073
 20
9.1480969316
 30
0.0
 10
10.5920345627
 20
9.1196904151
 30
0.0
 10
10.5815171929
 20
9.0906842458
 30
0.0
 10
10.5723584785
 20
9.0611380806
 30
0.0
 10
10.5645772053
 20
9.0311126851
 30
0.0
 10
10.558189323
 20
9.0006697507
 30
0.0
 10
10.5532079755
 20
8.9698720351
 30
0.0
 10
10.5496431227
 20
8.9387823704
 30
0.0
 10
10.547502353
 20
8.9074658143
 30
0.0
 10
10.5470279924
 20
8.8865104709
 30
0.0
 10
10.5470279924
 20
8.8760180929
 30
0.0
  0
SPLINE
  5
379
100
AcDbEntity
  8
0
100
AcDbSpline
 62
7
  6
CONTINUOUS
 70
0
 71
3
 72
23
 73
19
 74
0
 42
0.0000001
 43
0.0000001
 44
0.0000000001
 40
0.0
 40
0.0
 40
0.0
 40
0.0
 40
0.0617101446
 40
0.123441395
 40
0.1852146431
 40
0.247050352
 40
0.3089683478
 40
0.3709876199
 40
0.4331261339
 40
0.495400661
 40
0.5578266111
 40
0.6204179017
 40
0.6831868168
 40
0.746143859
 40
0.8092980008
 40
0.8726552579
 40
0.9362226181
 40
1.0
 40
1.0
 40
1.0
 40
1.0
 10
10.7866178669
 20
9.32383026
 30
0.0
 10
10.7793861132
 20
9.3168449456
 30
0.0
 10
10.7652770532
 20
9.3024968906
 30
0.0
 10
10.745244486
 20
9.2799109749
 30
0.0
 10
10.7263851683
 20
9.2563093355
 30
0.0
 10
10.7087433269
 20
9.2317471634
 30
0.0
 10
10.6923594424
 20
9.206280919
 30
0.0
 10
10.6772713259
 20
9.1799694101
 30
0.0
 10
10.6635137037
 20
9.1528733326
 30
0.0
 10
10.6511182534
 20
9.1250551976
 30
0.0
 10
10.6401135014
 20
9.096579167
 30
0.0
 10
10.6305247678
 20
9.0675109092
 30
0.0
 10
10.6223741218
 20
9.03791746
 30
0.0
 10
10.6156802415
 20
9.0078670117
 30
0.0
 10
10.6104585721
 20
8.9774289976
 30
0.0
 10
10.6067208696
 20
8.9466731087
 30
0.0
 10
10.6044759749
 20
8.91567142
 30
0.0
 10
10.6039786217
 20
8.8949194922
 30
0.0
 10
10.6039786217
 20
8.8845281798
 30
0.0
  0
SPLINE
  5
37A
100
AcDbEntity
  8
0
100
AcDbSpline
 62
7
  6
CONTINUOUS
 70
0
 71
3
 72
11
 73
7
 74
0
 42
0.0000001
 43
0.0000001
 44
0.0000000001
 40
0.0
 40
0.0
 40
0.0
 40
0.0
 40
0.2467996616
 40
0.495857677
 40
0.7469761553
 40
1.0
 40
1.0
 40
1.0
 40
1.0
 10
11.0807321641
 20
9.478218637
 30
0.0
 10
11.0779162486
 20
9.4661329003
 30
0.0
 10
11.0729703819
 20
9.4416790123
 30
0.0
 10
11.0676626729
 20
9.4044767268
 30
0.0
 10
11.0644658976
 20
9.3667199955
 30
0.0
 10
11.0637597467
 20
9.3413650787
 30
0.0
 10
11.0637597467
 20
9.3286426692
 30
0.0
  0
SPLINE
  5
37B
100
AcDbEntity
  8
0
100
AcDbSpline
 62
7
  6
CONTINUOUS
 70
0
 71
3
 72
11
 73
7
 74
0
 42
0.0000001
 43
0.0000001
 44
0.0000000001
 40
0.0
 40
0.0
 40
0.0
 40
0.0
 40
0.2486290009
 40
0.4981545096
 40
0.7486071405
 40
1.0
 40
1.0
 40
1.0
 40
1.0
 10
11.0922475995
 20
9.4805012875
 30
0.0
 10
11.0897072359
 20
9.469163056
 30
0.0
 10
11.0852525804
 20
9.446298176
 30
0.0
 10
11.080475894
 20
9.4116233344
 30
0.0
 10
11.0776056626
 20
9.376609443
 30
0.0
 10
11.0769700362
 20
9.3531513297
 30
0.0
 10
11.0769700362
 20
9.3414028298
 30
0.0
  0
SPLINE
  5
37C
100
AcDbEntity
  8
0
100
AcDbSpline
 62
7
  6
CONTINUOUS
 70
0
 71
3
 72
11
 73
7
 74
0
 42
0.0000001
 43
0.0000001
 44
0.0000000001
 40
0.0
 40
0.0
 40
0.0
 40
0.0
 40
0.2486123832
 40
0.4981315927
 40
0.7485897087
 40
1.0
 40
1.0
 40
1.0
 40
1.0
 10
11.1530399505
 20
9.4842392185
 30
0.0
 10
11.1506172634
 20
9.4735720562
 30
0.0
 10
11.146368699
 20
9.4520562328
 30
0.0
 10
11.1418127654
 20
9.419418508
 30
0.0
 10
11.1390750637
 20
9.3864548484
 30
0.0
 10
11.1384688046
 20
9.3643680076
 30
0.0
 10
11.1384688046
 20
9.353306082
 30
0.0
  0
SPLINE
  5
37D
100
AcDbEntity
  8
0
100
AcDbSpline
 62
7
  6
CONTINUOUS
 70
0
 71
3
 72
55
 73
51
 74
0
 42
0.0000001
 43
0.0000001
 44
0.0000000001
 40
0.0
 40
0.0
 40
0.0
 40
0.0
 40
0.0427960547
 40
0.0861063967
 40
0.1297874194
 40
0.1736931635
 40
0.2176771166
 40
0.2615923
 40
0.3052920645
 40
0.3486306656
 40
0.3914639002
 40
0.4336497335
 40
0.4750489352
 40
0.5155257275
 40
0.5549484447
 40
0.5931902178
 40
0.6301296918
 40
0.6656517933
 40
0.6828476146
 40
0.6996492339
 40
0.7160444347
 40
0.7320215716
 40
0.7475695872
 40
0.7626781258
 40
0.7773374682
 40
0.7915387359
 40
0.8052737858
 40
0.8185354544
 40
0.8313174886
 40
0.843614768
 40
0.8554233487
 40
0.8667406285
 40
0.8775655537
 40
0.88789874
 40
0.8977428613
 40
0.9071027935
 40
0.9159861746
 40
0.9244036901
 40
0.932369777
 40
0.9399031696
 40
0.9470277158
 40
0.9537731914
 40
0.9601760989
 40
0.9662804498
 40
0.9721380756
 40
0.9778085542
 40
0.9833581507
 40
0.9888579632
 40
0.9943811817
 40
1.0
 40
1.0
 40
1.0
 40
1.0
 10
13.6473791539
 20
10.1069497711
 30
0.0
 10
13.6473791539
 20
10.0903468741
 30
0.0
 10
13.6471103066
 20
10.0569410003
 30
0.0
 10
13.6459225815
 20
10.0066015959
 30
0.0
 10
13.6439517334
 20
9.9558558448
 30
0.0
 10
13.6412047069
 20
9.9048845422
 30
0.0
 10
13.6376912833
 20
9.8538692682
 30
0.0
 10
13.6334239657
 20
9.8029917022
 30
0.0
 10
13.6284179779
 20
9.7524330546
 30
0.0
 10
13.6226911912
 20
9.7023733846
 30
0.0
 10
13.6162640682
 20
9.6529909634
 30
0.0
 10
13.6091595891
 20
9.604461631
 30
0.0
 10
13.6014031718
 20
9.5569581646
 30
0.0
 10
13.5930225856
 20
9.5106496463
 30
0.0
 10
13.5840478488
 20
9.4657008776
 30
0.0
 10
13.5745111374
 20
9.4222716808
 30
0.0
 10
13.5644466264
 20
9.3805166572
 30
0.0
 10
13.5555564651
 20
9.3468855408
 30
0.0
 10
13.5481938457
 20
9.320938969
 30
0.0
 10
13.5426224687
 20
9.3021990495
 30
0.0
 10
13.5369469637
 20
9.2839850172
 30
0.0
 10
13.5311723734
 20
9.2663130543
 30
0.0
 10
13.5253038319
 20
9.2491988815
 30
0.0
 10
13.5193466275
 20
9.2326577006
 30
0.0
 10
13.5133060106
 20
9.216704215
 30
0.0
 10
13.5071874493
 20
9.2013525719
 30
0.0
 10
13.5009963203
 20
9.1866164018
 30
0.0
 10
13.494738215
 20
9.1725087443
 30
0.0
 10
13.4884186455
 20
9.1590420952
 30
0.0
 10
13.482043266
 20
9.1462283405
 30
0.0
 10
13.4756177193
 20
9.134078778
 30
0.0
 10
13.4691476669
 20
9.1226040985
 30
0.0
 10
13.4626388495
 20
9.1118143416
 30
0.0
 10
13.4560968842
 20
9.1017189634
 30
0.0
 10
13.4495275346
 20
9.0923266996
 30
0.0
 10
13.4429363192
 20
9.0836457384
 30
0.0
 10
13.4363288914
 20
9.0756835072
 30
0.0
 10
13.4297105967
 20
9.0684469222
 30
0.0
 10
13.4230867958
 20
9.0619421947
 30
0.0
 10
13.4164625548
 20
9.0561750748
 30
0.0
 10
13.4098427887
 20
9.051150842
 30
0.0
 10
13.4032322573
 20
9.04687443
 30
0.0
 10
13.3966355874
 20
9.0433507462
 30
0.0
 10
13.390057704
 20
9.0405844811
 30
0.0
 10
13.3835039665
 20
9.0385806067
 30
0.0
 10
13.3769808445
 20
9.0373434934
 30
0.0
 10
13.3704960927
 20
9.036876999
 30
0.0
 10
13.3640583467
 20
9.0371830879
 30
0.0
 10
13.3576779499
 20
9.0382613613
 30
0.0
 10
13.3535186972
 20
9.0394786303
 30
0.0
 10
13.3514635186
 20
9.040205235
 30
0.0
  0
SPLINE
  5
37E
100
AcDbEntity
  8
0
100
AcDbSpline
 62
7
  6
CONTINUOUS
 70
0
 71
3
 72
37
 73
33
 74
0
 42
0.0000001
 43
0.0000001
 44
0.0000000001
 40
0.0
 40
0.0
 40
0.0
 40
0.0
 40
0.0305134177
 40
0.0611373634
 40
0.0918714846
 40
0.122714242
 40
0.1536629377
 40
0.1847137574
 40
0.2158618205
 40
0.2471012413
 40
0.278425197
 40
0.3098260052
 40
0.3412952071
 40
0.3728236578
 40
0.4044016224
 40
0.4360188757
 40
0.4993097563
 40
0.5626274341
 40
0.5942779063
 40
0.6259019172
 40
0.6574887871
 40
0.689028203
 40
0.7205103218
 40
0.7519258709
 40
0.7832662428
 40
0.814523587
 40
0.8456909045
 40
0.8767620784
 40
0.9077321343
 40
0.9385966889
 40
0.9693536233
 40
1.0
 40
1.0
 40
1.0
 40
1.0
 10
11.8749558725
 20
8.9093087067
 30
0.0
 10
11.866587836
 20
8.9090706665
 30
0.0
 10
11.849805616
 20
8.9090354131
 30
0.0
 10
11.8246213327
 20
8.9102985819
 30
0.0
 10
11.7994458329
 20
8.9128740688
 30
0.0
 10
11.7743484209
 20
8.9167548447
 30
0.0
 10
11.749397012
 20
8.9219302809
 30
0.0
 10
11.7246594291
 20
8.9283862543
 30
0.0
 10
11.7002028219
 20
8.9361051687
 30
0.0
 10
11.6760935944
 20
8.9450660077
 30
0.0
 10
11.6523971934
 20
8.9552443944
 30
0.0
 10
11.6291779569
 20
8.9666126427
 30
0.0
 10
11.6064988782
 20
8.9791398903
 30
0.0
 10
11.584421658
 20
8.9927919548
 30
0.0
 10
11.5630056834
 20
9.0075322366
 30
0.0
 10
11.5354060674
 20
9.0285862395
 30
0.0
 10
11.5028531565
 20
9.0574142677
 30
0.0
 10
11.4732480777
 20
9.0892743701
 30
0.0
 10
11.4515175551
 20
9.1163817793
 30
0.0
 10
11.4362412447
 20
9.137465363
 30
0.0
 10
11.4220292825
 20
9.1592435596
 30
0.0
 10
11.4089197603
 20
9.18165778
 30
0.0
 10
11.3969484321
 20
9.2046470446
 30
0.0
 10
11.3861477977
 20
9.2281489902
 30
0.0
 10
11.3765472359
 20
9.2520998126
 30
0.0
 10
11.3681728549
 20
9.2764344992
 30
0.0
 10
11.361047449
 20
9.301086973
 30
0.0
 10
11.3551903831
 20
9.3259903376
 30
0.0
 10
11.3506177021
 20
9.3510768496
 30
0.0
 10
11.3473417386
 20
9.3762787678
 30
0.0
 10
11.345371673
 20
9.4015265733
 30
0.0
 10
11.3449315873
 20
9.4183759287
 30
0.0
 10
11.3449315873
 20
9.4267838278
 30
0.0
  0
SPLINE
  5
37F
100
AcDbEntity
  8
0
100
AcDbSpline
 62
7
  6
CONTINUOUS
 70
0
 71
3
 72
71
 73
67
 74
0
 42
0.0000001
 43
0.0000001
 44
0.0000000001
 40
0.0
 40
0.0
 40
0.0
 40
0.0
 40
0.0155842752
 40
0.0311159217
 40
0.0465952561
 40
0.062023882
 40
0.0774034483
 40
0.0927362826
 40
0.1080251228
 40
0.1232731737
 40
0.1384840559
 40
0.1536617767
 40
0.1688106901
 40
0.183935453
 40
0.199040978
 40
0.2141323819
 40
0.2292149319
 40
0.2442939897
 40
0.2593749544
 40
0.2744632045
 40
0.289564041
 40
0.3046826303
 40
0.3198239506
 40
0.3349927389
 40
0.3501934431
 40
0.3654301768
 40
0.3807066784
 40
0.3960262758
 40
0.4113918559
 40
0.4268058389
 40
0.4422701586
 40
0.4577862477
 40
0.4733550286
 40
0.4889769093
 40
0.5046517847
 40
0.5203790431
 40
0.5361575764
 40
0.5519857966
 40
0.5678616541
 40
0.583782661
 40
0.5997459175
 40
0.6157481412
 40
0.6317856997
 40
0.6478546449
 40
0.6639507506
 40
0.6800695511
 40
0.6962063816
 40
0.7123564195
 40
0.7285147267
 40
0.7446762933
 40
0.7608360806
 40
0.7769890653
 40
0.7931302837
 40
0.8092548749
 40
0.8253581232
 40
0.8414355003
 40
0.8574827056
 40
0.8734957056
 40
0.8894707712
 40
0.9054045129
 40
0.9212939188
 40
0.9371363627
 40
0.9529297122
 40
0.9686721024
 40
0.9843626029
 40
1.0
 40
1.0
 40
1.0
 40
1.0
 10
11.9037922126
 20
8.731551771
 30
0.0
 10
11.9037922126
 20
8.7199561485
 30
0.0
 10
11.9032247514
 20
8.6967999501
 30
0.0
 10
11.9006631573
 20
8.6622115149
 30
0.0
 10
11.8963984882
 20
8.6279072352
 30
0.0
 10
11.8904411537
 20
8.5939710487
 30
0.0
 10
11.8828052667
 20
8.5604843053
 30
0.0
 10
11.8735092318
 20
8.527527868
 30
0.0
 10
11.8625753343
 20
8.4951811527
 30
0.0
 10
11.8500298666
 20
8.4635221707
 30
0.0
 10
11.8359029942
 20
8.4326272739
 30
0.0
 10
11.8202287234
 20
8.4025709795
 30
0.0
 10
11.803044799
 20
8.3734257883
 30
0.0
 10
11.7843926166
 20
8.3452620097
 30
0.0
 10
11.7643171235
 20
8.3181475893
 30
0.0
 10
11.7428667099
 20
8.2921479433
 30
0.0
 10
11.7200930929
 20
8.2673257984
 30
0.0
 10
11.6960511903
 20
8.243741038
 30
0.0
 10
11.6707989878
 20
8.2214505564
 30
0.0
 10
11.6443974061
 20
8.2005081079
 30
0.0
 10
11.616910141
 20
8.1809641859
 30
0.0
 10
11.5884035079
 20
8.1628659002
 30
0.0
 10
11.5589462796
 20
8.1462568634
 30
0.0
 10
11.5286095181
 20
8.1311770858
 30
0.0
 10
11.4974664009
 20
8.1176628798
 30
0.0
 10
11.4655920433
 20
8.1057467733
 30
0.0
 10
11.4330633148
 20
8.095457433
 30
0.0
 10
11.3999586568
 20
8.0868195827
 30
0.0
 10
11.3663578851
 20
8.0798539596
 30
0.0
 10
11.332341998
 20
8.0745772658
 30
0.0
 10
11.2979929799
 20
8.0710021309
 30
0.0
 10
11.2633936041
 20
8.0691370836
 30
0.0
 10
11.228627234
 20
8.0689865332
 30
0.0
 10
11.1937776229
 20
8.0705507615
 30
0.0
 10
11.1589287137
 20
8.0738259231
 30
0.0
 10
11.1241644353
 20
8.0788040431
 30
0.0
 10
11.0895685017
 20
8.0854730519
 30
0.0
 10
11.0552242114
 20
8.0938168147
 30
0.0
 10
11.0212142487
 20
8.1038151723
 30
0.0
 10
10.9876204861
 20
8.1154439896
 30
0.0
 10
10.9545237891
 20
8.1286752146
 30
0.0
 10
10.9220038229
 20
8.143476946
 30
0.0
 10
10.8901388625
 20
8.1598135099
 30
0.0
 10
10.8590055989
 20
8.1776455342
 30
0.0
 10
10.8286789601
 20
8.1969300557
 30
0.0
 10
10.7992319323
 20
8.2176206235
 30
0.0
 10
10.7707353855
 20
8.2396674104
 30
0.0
 10
10.7432579045
 20
8.263017332
 30
0.0
 10
10.7168656247
 20
8.2876141739
 30
0.0
 10
10.691622074
 20
8.3133987263
 30
0.0
 10
10.6675880211
 20
8.3403089251
 30
0.0
 10
10.6448213192
 20
8.3682799928
 30
0.0
 10
10.6233767766
 20
8.3972446033
 30
0.0
 10
10.6033060252
 20
8.427133043
 30
0.0
 10
10.5846573976
 20
8.4578733771
 30
0.0
 10
10.5674758107
 20
8.4893916221
 30
0.0
 10
10.5518026588
 20
8.5216119219
 30
0.0
 10
10.5376757134
 20
8.5544567293
 30
0.0
 10
10.5251290343
 20
8.5878469907
 30
0.0
 10
10.5141928674
 20
8.6217023347
 30
0.0
 10
10.5048936083
 20
8.6559412535
 30
0.0
 10
10.497253668
 20
8.690481365
 30
0.0
 10
10.4912915925
 20
8.7252393679
 30
0.0
 10
10.4870216559
 20
8.7601320234
 30
0.0
 10
10.4844544328
 20
8.7950740168
 30
0.0
 10
10.4838811638
 20
8.8183877883
 30
0.0
 10
10.4838811638
 20
8.8300229367
 30
0.0
  0
SPLINE
  5
380
100
AcDbEntity
  8
0
100
AcDbSpline
 62
7
  6
CONTINUOUS
 70
0
 71
3
 72
46
 73
42
 74
0
 42
0.0000001
 43
0.0000001
 44
0.0000000001
 40
0.0
 40
0.0
 40
0.0
 40
0.0
 40
0.0379860876
 40
0.0763696409
 40
0.115062165
 40
0.1539756797
 40
0.193020706
 40
0.2321077413
 40
0.2711470328
 40
0.3100490071
 40
0.3487244788
 40
0.3870849272
 40
0.4250427555
 40
0.4625115579
 40
0.4994063863
 40
0.5356440207
 40
0.5711432455
 40
0.6058251322
 40
0.639613333
 40
0.6724343874
 40
0.7042180481
 40
0.7348976327
 40
0.7644104131
 40
0.7926980528
 40
0.8197071087
 40
0.8453896291
 40
0.8697038833
 40
0.8813372451
 40
0.8926162061
 40
0.9035377939
 40
0.9140995899
 40
0.9242998803
 40
0.9341376978
 40
0.9436128664
 40
0.952726198
 40
0.9614794527
 40
0.9698756641
 40
0.9779190896
 40
0.9856155984
 40
0.9929727148
 40
1.0
 40
1.0
 40
1.0
 40
1.0
 10
13.504511041
 20
10.1069497629
 30
0.0
 10
13.504511041
 20
10.0937970208
 30
0.0
 10
13.5043347866
 20
10.0673536039
 30
0.0
 10
13.5035536689
 20
10.0275197744
 30
0.0
 10
13.5022560734
 20
9.9873780835
 30
0.0
 10
13.5004452057
 20
9.9470270407
 30
0.0
 10
13.4981254478
 20
9.9065652331
 30
0.0
 10
13.4953024912
 20
9.866091765
 30
0.0
 10
13.4919832356
 20
9.8257056679
 30
0.0
 10
13.4881758155
 20
9.7855057945
 30
0.0
 10
13.4838895615
 20
9.7455905287
 30
0.0
 10
13.4791349847
 20
9.7060575577
 30
0.0
 10
13.4739237495
 20
9.6670036276
 30
0.0
 10
13.4682686469
 20
9.6285243051
 30
0.0
 10
13.4621835618
 20
9.5907137417
 30
0.0
 10
13.4556834396
 20
9.5536644412
 30
0.0
 10
13.4487842504
 20
9.5174670312
 30
0.0
 10
13.4415029502
 20
9.4822100376
 30
0.0
 10
13.4338574404
 20
9.4479796645
 30
0.0
 10
13.4258665242
 20
9.4148595773
 30
0.0
 10
13.4175498611
 20
9.3829306906
 30
0.0
 10
13.408927918
 20
9.352270963
 30
0.0
 10
13.4000219188
 20
9.3229551818
 30
0.0
 10
13.3908537902
 20
9.2950548016
 30
0.0
 10
13.3814460965
 20
9.268637613
 30
0.0
 10
13.3718219845
 20
9.2437680184
 30
0.0
 10
13.3635236238
 20
9.2241036904
 30
0.0
 10
13.3567805059
 20
9.2092056579
 30
0.0
 10
13.3517583113
 20
9.1986209533
 30
0.0
 10
13.3466998124
 20
9.1884664033
 30
0.0
 10
13.3416080168
 20
9.178748177
 30
0.0
 10
13.3364860452
 20
9.1694721734
 30
0.0
 10
13.3313370288
 20
9.1606440013
 30
0.0
 10
13.3261640356
 20
9.1522690211
 30
0.0
 10
13.3209702638
 20
9.1443522499
 30
0.0
 10
13.3157587329
 20
9.1368985009
 30
0.0
 10
13.3105326509
 20
9.1299121884
 30
0.0
 10
13.305295013
 20
9.1233975713
 30
0.0
 10
13.3000489111
 20
9.1173584391
 30
0.0
 10
13.2947974924
 20
9.1117986286
 30
0.0
 10
13.2912143425
 20
9.1083359312
 30
0.0
 10
13.289421961
 20
9.10669037
 30
0.0
  0
SPLINE
  5
381
100
AcDbEntity
  8
0
100
AcDbSpline
 62
7
  6
CONTINUOUS
 70
0
 71
3
 72
49
 73
45
 74
0
 42
0.0000001
 43
0.0000001
 44
0.0000000001
 40
0.0
 40
0.0
 40
0.0
 40
0.0
 40
0.0149718081
 40
0.0299466748
 40
0.0449276404
 40
0.059917709
 40
0.0749198276
 40
0.0899368702
 40
0.1049716217
 40
0.120026759
 40
0.1351048351
 40
0.1502082677
 40
0.1653393229
 40
0.1805001009
 40
0.1956925286
 40
0.2109183481
 40
0.2261791043
 40
0.2414761418
 40
0.256810598
 40
0.2721833946
 40
0.287595237
 40
0.3030466133
 40
0.3340634927
 40
0.3652389307
 40
0.3965689749
 40
0.4280463623
 40
0.4596607137
 40
0.4913987952
 40
0.5232448251
 40
0.5551808189
 40
0.5871869764
 40
0.6192420905
 40
0.6513239761
 40
0.6834099169
 40
0.7154771164
 40
0.7475031494
 40
0.779466411
 40
0.8113465537
 40
0.8431249023
 40
0.8747848503
 40
0.906312225
 40
0.9376956122
 40
0.9689264437
 40
1.0
 40
1.0
 40
1.0
 40
1.0
 10
10.1604427592
 20
6.5082577201
 30
0.0
 10
10.1539555828
 20
6.5019915717
 30
0.0
 10
10.1407292913
 20
6.4897144874
 30
0.0
 10
10.1201714869
 20
6.4720998802
 30
0.0
 10
10.0989215107
 20
6.455308354
 30
0.0
 10
10.0770089757
 20
6.4393634439
 30
0.0
 10
10.0544639148
 20
6.4242870137
 30
0.0
 10
10.0313174296
 20
6.4100997682
 30
0.0
 10
10.007601356
 20
6.3968212284
 30
0.0
 10
9.9833483088
 20
6.3844697127
 30
0.0
 10
9.9585917019
 20
6.3730621366
 30
0.0
 10
9.9333656024
 20
6.3626141802
 30
0.0
 10
9.9077046981
 20
6.3531402713
 30
0.0
 10
9.8816443251
 20
6.3446533685
 30
0.0
 10
9.8552203445
 20
6.3371651085
 30
0.0
 10
9.8284690941
 20
6.3306858453
 30
0.0
 10
9.8014273886
 20
6.3252244321
 30
0.0
 10
9.7741324443
 20
6.3207883197
 30
0.0
 10
9.7466217621
 20
6.3173836575
 30
0.0
 10
9.7189333186
 20
6.315015082
 30
0.0
 10
9.6911047131
 20
6.3136858149
 30
0.0
 10
9.6538217529
 20
6.3133010064
 30
0.0
 10
9.6070494829
 20
6.3154344056
 30
0.0
 10
9.5510611541
 20
6.32214402
 30
0.0
 10
9.4954373977
 20
6.33296867
 30
0.0
 10
9.4404858309
 20
6.3478484675
 30
0.0
 10
9.3865075701
 20
6.3667010212
 30
0.0
 10
9.3337990515
 20
6.389422364
 30
0.0
 10
9.2826495222
 20
6.4158874004
 30
0.0
 10
9.2333396057
 20
6.4459504203
 30
0.0
 10
9.1861398945
 20
6.4794462254
 30
0.0
 10
9.1413093662
 20
6.5161907689
 30
0.0
 10
9.0990939659
 20
6.555982207
 30
0.0
 10
9.0597254519
 20
6.5986021731
 30
0.0
 10
9.0234198759
 20
6.6438166897
 30
0.0
 10
8.9903765864
 20
6.6913776405
 30
0.0
 10
8.9607771858
 20
6.7410240999
 30
0.0
 10
8.9347842809
 20
6.7924836052
 30
0.0
 10
8.9125409187
 20
6.8454737991
 30
0.0
 10
8.8941696229
 20
6.8997039635
 30
0.0
 10
8.8797716246
 20
6.9548761224
 30
0.0
 10
8.8694266748
 20
7.0106884155
 30
0.0
 10
8.8631920006
 20
7.0668303617
 30
0.0
 10
8.8617955588
 20
7.1043781746
 30
0.0
 10
8.8617955588
 20
7.1230975064
 30
0.0
  0
SPLINE
  5
382
100
AcDbEntity
  8
0
100
AcDbSpline
 62
7
  6
CONTINUOUS
 70
0
 71
3
 72
47
 73
43
 74
0
 42
0.0000001
 43
0.0000001
 44
0.0000000001
 40
0.0
 40
0.0
 40
0.0
 40
0.0
 40
0.0149687608
 40
0.0299417876
 40
0.0449220687
 40
0.0599125491
 40
0.0749161113
 40
0.0899355593
 40
0.1049736039
 40
0.1200328435
 40
0.1351157501
 40
0.1502246587
 40
0.1653617491
 40
0.1805290361
 40
0.1957283616
 40
0.2109613808
 40
0.2262295544
 40
0.241534146
 40
0.2722511961
 40
0.3031239162
 40
0.3341547734
 40
0.3653427973
 40
0.3966836467
 40
0.4281697532
 40
0.4597905257
 40
0.4915326035
 40
0.5233801615
 40
0.5553152561
 40
0.5873181981
 40
0.6193679555
 40
0.6514425759
 40
0.6835196185
 40
0.7155765949
 40
0.7475914099
 40
0.7795427988
 40
0.8114107494
 40
0.8431769085
 40
0.8748249662
 40
0.906341008
 40
0.9377138422
 40
0.9689350341
 40
1.0
 40
1.0
 40
1.0
 40
1.0
 10
10.160384627
 20
6.5083284445
 30
0.0
 10
10.1538377332
 20
6.5022086535
 30
0.0
 10
10.1404988533
 20
6.4902245755
 30
0.0
 10
10.1197934421
 20
6.4730497547
 30
0.0
 10
10.098416161
 20
6.4566966851
 30
0.0
 10
10.0763964083
 20
6.4411880093
 30
0.0
 10
10.0537639811
 20
6.4265447147
 30
0.0
 10
10.0305497065
 20
6.4127866369
 30
0.0
 10
10.0067850867
 20
6.3999324922
 30
0.0
 10
9.982502397
 20
6.387999766
 30
0.0
 10
9.9577346665
 20
6.3770045706
 30
0.0
 10
9.9325155195
 20
6.3669618715
 30
0.0
 10
9.9068792014
 20
6.3578853308
 30
0.0
 10
9.8808605758
 20
6.3497871721
 30
0.0
 10
9.8544949307
 20
6.3426784186
 30
0.0
 10
9.8278182004
 20
6.336568753
 30
0.0
 10
9.8008661417
 20
6.3314663394
 30
0.0
 10
9.7645727359
 20
6.3260092699
 30
0.0
 10
9.7186865675
 20
6.3217456869
 30
0.0
 10
9.6631940047
 20
6.3207454046
 30
0.0
 10
9.607496502
 20
6.323858013
 30
0.0
 10
9.5518983651
 20
6.3310664176
 30
0.0
 10
9.4967005786
 20
6.3423307268
 30
0.0
 10
9.4422025399
 20
6.357589264
 30
0.0
 10
9.3886996073
 20
6.3767588637
 30
0.0
 10
9.3364816827
 20
6.3997351009
 30
0.0
 10
9.2858316346
 20
6.4263930363
 30
0.0
 10
9.237023873
 20
6.4565879743
 30
0.0
 10
9.190322738
 20
6.4901559956
 30
0.0
 10
9.1459811711
 20
6.5269150241
 30
0.0
 10
9.104239434
 20
6.566665852
 30
0.0
 10
9.0653236332
 20
6.609192999
 30
0.0
 10
9.029444639
 20
6.6542660381
 30
0.0
 10
8.9967970218
 20
6.7016408512
 30
0.0
 10
8.9675577815
 20
6.7510607683
 30
0.0
 10
8.9418855691
 20
6.8022580986
 30
0.0
 10
8.9199198894
 20
6.8549555223
 30
0.0
 10
8.9017800927
 20
6.9088675898
 30
0.0
 10
8.8875649265
 20
6.9637018991
 30
0.0
 10
8.8773521182
 20
7.0191622582
 30
0.0
 10
8.8711973842
 20
7.0749441033
 30
0.0
 10
8.8698189425
 20
7.1122489222
 30
0.0
 10
8.8698189425
 20
7.1308475004
 30
0.0
  0
SPLINE
  5
383
100
AcDbEntity
  8
0
100
AcDbSpline
 62
7
  6
CONTINUOUS
 70
0
 71
3
 72
47
 73
43
 74
0
 42
0.0000001
 43
0.0000001
 44
0.0000000001
 40
0.0
 40
0.0
 40
0.0
 40
0.0
 40
0.0149719701
 40
0.0299469998
 40
0.0449281282
 40
0.0599183596
 40
0.074920642
 40
0.0899378484
 40
0.1049727639
 40
0.1200280657
 40
0.1351063065
 40
0.1502099046
 40
0.1653411254
 40
0.180502069
 40
0.1956946637
 40
0.2109206499
 40
0.2261815727
 40
0.2414787788
 40
0.2721808845
 40
0.3030390423
 40
0.3340562612
 40
0.3652320396
 40
0.3965624276
 40
0.4280401587
 40
0.4596548547
 40
0.4913932827
 40
0.5232396593
 40
0.5551760004
 40
0.5871825057
 40
0.6192379677
 40
0.6513202013
 40
0.6834064899
 40
0.7154740364
 40
0.747500416
 40
0.7794640241
 40
0.8113445111
 40
0.8431232035
 40
0.8747834946
 40
0.906311207
 40
0.9376949507
 40
0.9689260908
 40
1.0
 40
1.0
 40
1.0
 40
1.0
 10
10.1321148409
 20
6.5670954245
 30
0.0
 10
10.1261419892
 20
6.5613260975
 30
0.0
 10
10.1139643176
 20
6.5500224265
 30
0.0
 10
10.0950363986
 20
6.533804433
 30
0.0
 10
10.075471165
 20
6.5183442939
 30
0.0
 10
10.0552959391
 20
6.5036636044
 30
0.0
 10
10.0345383218
 20
6.4897825609
 30
0.0
 10
10.0132269638
 20
6.4767202096
 30
0.0
 10
9.9913911916
 20
6.4644944963
 30
0.0
 10
9.9690610102
 20
6.4531223301
 30
0.0
 10
9.9462672044
 20
6.4426192467
 30
0.0
 10
9.9230411295
 20
6.4329997044
 30
0.0
 10
9.8994147178
 20
6.424277
 30
0.0
 10
9.8754205315
 20
6.4164630076
 30
0.0
 10
9.8510915315
 20
6.4095685115
 30
0.0
 10
9.8264613076
 20
6.4036030312
 30
0.0
 10
9.8015633069
 20
6.3985746186
 30
0.0
 10
9.7680186261
 20
6.3931227117
 30
0.0
 10
9.7255760212
 20
6.388689503
 30
0.0
 10
9.6742024729
 20
6.3872070006
 30
0.0
 10
9.6225976852
 20
6.3895611718
 30
0.0
 10
9.5710472726
 20
6.3957388374
 30
0.0
 10
9.5198339581
 20
6.4057053976
 30
0.0
 10
9.4692391475
 20
6.4194054974
 30
0.0
 10
9.4195405786
 20
6.4367633776
 30
0.0
 10
9.3710110774
 20
6.4576833525
 30
0.0
 10
9.3239169523
 20
6.4820501545
 30
0.0
 10
9.2785165944
 20
6.5097296839
 30
0.0
 10
9.2350591303
 20
6.5405698153
 30
0.0
 10
9.1937830173
 20
6.5744011157
 30
0.0
 10
9.1549147057
 20
6.6110377436
 30
0.0
 10
9.1186675163
 20
6.6502785887
 30
0.0
 10
9.0852404691
 20
6.6919083173
 30
0.0
 10
9.0548170655
 20
6.7356984387
 30
0.0
 10
9.0275644255
 20
6.7814086701
 30
0.0
 10
9.0036324122
 20
6.8287882407
 30
0.0
 10
8.9831526555
 20
6.8775771297
 30
0.0
 10
8.9662379014
 20
6.927507652
 30
0.0
 10
8.9529814727
 20
6.9783055093
 30
0.0
 10
8.9434567556
 20
7.0296927277
 30
0.0
 10
8.9377163726
 20
7.0813834661
 30
0.0
 10
8.9364306577
 20
7.1159542991
 30
0.0
 10
8.9364306577
 20
7.1331894803
 30
0.0
  0
SPLINE
  5
384
100
AcDbEntity
  8
0
100
AcDbSpline
 62
7
  6
CONTINUOUS
 70
0
 71
3
 72
45
 73
41
 74
0
 42
0.0000001
 43
0.0000001
 44
0.0000000001
 40
0.0
 40
0.0
 40
0.0
 40
0.0
 40
0.0149641173
 40
0.029934725
 40
0.044914706
 40
0.0599068892
 40
0.0749140294
 40
0.0899387964
 40
0.1049837574
 40
0.12005136
 40
0.1351439243
 40
0.1502636262
 40
0.165412484
 40
0.1805923547
 40
0.2110462731
 40
0.2416420462
 40
0.2723877382
 40
0.3032881496
 40
0.3343447615
 40
0.3655557503
 40
0.396916077
 40
0.428417638
 40
0.4600494691
 40
0.4917979987
 40
0.523647349
 40
0.555579669
 40
0.5875754965
 40
0.6196141436
 40
0.6516741015
 40
0.6837334534
 40
0.7157702939
 40
0.7477631489
 40
0.779691388
 40
0.8115356274
 40
0.8432781162
 40
0.8749030945
 40
0.9063971251
 40
0.9377494391
 40
0.9689518427
 40
1.0
 40
1.0
 40
1.0
 40
1.0
 10
10.1522346382
 20
6.5875052147
 30
0.0
 10
10.1461100101
 20
6.5821253886
 30
0.0
 10
10.1336468622
 20
6.5716011739
 30
0.0
 10
10.114346855
 20
6.5565520554
 30
0.0
 10
10.0944630495
 20
6.5422563442
 30
0.0
 10
10.0740220892
 20
6.528733413
 30
0.0
 10
10.0530510022
 20
6.5160010551
 30
0.0
 10
10.0315776437
 20
6.504076103
 30
0.0
 10
10.0096304064
 20
6.4929744587
 30
0.0
 10
9.9872384416
 20
6.4827107353
 30
0.0
 10
9.9644313914
 20
6.4732985151
 30
0.0
 10
9.9412395679
 20
6.4647503723
 30
0.0
 10
9.9176933088
 20
6.4570774202
 30
0.0
 10
9.8858375785
 20
6.4480186609
 30
0.0
 10
9.8452720654
 20
6.4389354636
 30
0.0
 10
9.795747652
 20
6.431687284
 30
0.0
 10
9.7455786894
 20
6.4281141633
 30
0.0
 10
9.6950328236
 20
6.428235012
 30
0.0
 10
9.6443772551
 20
6.4320484946
 30
0.0
 10
9.5938802641
 20
6.4395338463
 30
0.0
 10
9.5438090036
 20
6.4506508798
 30
0.0
 10
9.494428336
 20
6.4653403182
 30
0.0
 10
9.4459993924
 20
6.4835240501
 30
0.0
 10
9.3987781839
 20
6.5051054695
 30
0.0
 10
9.3530143065
 20
6.5299701298
 30
0.0
 10
9.3089496594
 20
6.5579863452
 30
0.0
 10
9.2668171249
 20
6.5890057817
 30
0.0
 10
9.2268393544
 20
6.6228642709
 30
0.0
 10
9.1892276604
 20
6.6593827414
 30
0.0
 10
9.1541809162
 20
6.6983681362
 30
0.0
 10
9.1218844054
 20
6.7396143261
 30
0.0
 10
9.0925089403
 20
6.7829032868
 30
0.0
 10
9.0662099971
 20
6.8280062424
 30
0.0
 10
9.0431268518
 20
6.8746848271
 30
0.0
 10
9.0233817729
 20
6.9226922749
 30
0.0
 10
9.0070795016
 20
6.9717748855
 30
0.0
 10
8.9943066773
 20
7.0216729332
 30
0.0
 10
8.985131374
 20
7.0721233899
 30
0.0
 10
8.9796024184
 20
7.1228559622
 30
0.0
 10
8.9783642876
 20
7.1567803502
 30
0.0
 10
8.9783642876
 20
7.1736942587
 30
0.0
  0
SPLINE
  5
385
100
AcDbEntity
  8
0
100
AcDbSpline
 62
7
  6
CONTINUOUS
 70
0
 71
3
 72
40
 73
36
 74
0
 42
0.0000001
 43
0.0000001
 44
0.0000000001
 40
0.0
 40
0.0
 40
0.0
 40
0.0
 40
0.0739364715
 40
0.1490382301
 40
0.2246961078
 40
0.3002945722
 40
0.3378798523
 40
0.3752201367
 40
0.4122397225
 40
0.4488637403
 40
0.4850183591
 40
0.5206309968
 40
0.5556305231
 40
0.5899474685
 40
0.6235142392
 40
0.65626534
 40
0.6881376146
 40
0.7190705004
 40
0.7490062851
 40
0.7778903947
 40
0.8056717154
 40
0.8323029621
 40
0.8577411178
 40
0.8819479536
 40
0.9048906448
 40
0.9158797644
 40
0.9265434177
 40
0.936879433
 40
0.9468861628
 40
0.9565624937
 40
0.9659080434
 40
0.974923033
 40
0.9836085678
 40
0.9919665811
 40
1.0
 40
1.0
 40
1.0
 40
1.0
 10
13.4450827392
 20
10.0980694394
 30
0.0
 10
13.4450827392
 20
10.0746568505
 30
0.0
 10
13.4444886627
 20
10.0274608541
 30
0.0
 10
13.4418921396
 20
9.956350101
 30
0.0
 10
13.4376028318
 20
9.8847940055
 30
0.0
 10
13.4326393911
 20
9.8251961723
 30
0.0
 10
13.4278461317
 20
9.7777722055
 30
0.0
 10
13.4238623725
 20
9.7425475302
 30
0.0
 10
13.4194918214
 20
9.7076755314
 30
0.0
 10
13.4147439391
 20
9.6732318213
 30
0.0
 10
13.4096290642
 20
9.6392911491
 30
0.0
 10
13.4041583297
 20
9.6059271447
 30
0.0
 10
13.3983436475
 20
9.5732121828
 30
0.0
 10
13.3921976794
 20
9.5412172207
 30
0.0
 10
13.3857338121
 20
9.510011645
 30
0.0
 10
13.3789661261
 20
9.4796631178
 30
0.0
 10
13.3719093695
 20
9.4502374216
 30
0.0
 10
13.3645789312
 20
9.42179831
 30
0.0
 10
13.3569907976
 20
9.3944073661
 30
0.0
 10
13.34916152
 20
9.3681238686
 30
0.0
 10
13.3411081764
 20
9.3430046455
 30
0.0
 10
13.3328483307
 20
9.319103969
 30
0.0
 10
13.3243999869
 20
9.2964733014
 30
0.0
 10
13.3157815645
 20
9.2751615518
 30
0.0
 10
13.308370892
 20
9.2583051081
 30
0.0
 10
13.3023599632
 20
9.245526078
 30
0.0
 10
13.2978857147
 20
9.2364376287
 30
0.0
 10
13.293383031
 20
9.2277118306
 30
0.0
 10
13.2888543321
 20
9.2193533661
 30
0.0
 10
13.2843020121
 20
9.2113667594
 30
0.0
 10
13.2797286004
 20
9.2037562648
 30
0.0
 10
13.2751364747
 20
9.1965260074
 30
0.0
 10
13.2705281295
 20
9.1896798023
 30
0.0
 10
13.2659060724
 20
9.1832214114
 30
0.0
 10
13.2627551179
 20
9.1790954196
 30
0.0
 10
13.261176711
 20
9.1771004776
 30
0.0
  0
SPLINE
  5
386
100
AcDbEntity
  8
0
100
AcDbSpline
 62
7
  6
CONTINUOUS
 70
0
 71
3
 72
45
 73
41
 74
0
 42
0.0000001
 43
0.0000001
 44
0.0000000001
 40
0.0
 40
0.0
 40
0.0
 40
0.0
 40
0.0149721384
 40
0.0299473353
 40
0.0449286316
 40
0.0599190316
 40
0.0749214813
 40
0.0899388561
 40
0.1049739408
 40
0.1200294102
 40
0.1351078205
 40
0.1502115883
 40
0.1653429774
 40
0.1805040919
 40
0.2109173721
 40
0.2414702803
 40
0.2721727302
 40
0.3030312324
 40
0.3340487994
 40
0.3652249282
 40
0.3965556662
 40
0.4280337495
 40
0.4596488007
 40
0.4913875843
 40
0.5232343171
 40
0.5551710162
 40
0.5871778805
 40
0.6192337014
 40
0.6513162944
 40
0.6834029425
 40
0.7154708484
 40
0.7474975871
 40
0.779461553
 40
0.8113423971
 40
0.8431214459
 40
0.874782092
 40
0.9063101554
 40
0.9376942574
 40
0.9689257386
 40
1.0
 40
1.0
 40
1.0
 40
1.0
 10
10.1537778367
 20
6.6526705238
 30
0.0
 10
10.1481907247
 20
6.647273806
 30
0.0
 10
10.1367995276
 20
6.6367001639
 30
0.0
 10
10.1190940231
 20
6.6215295993
 30
0.0
 10
10.1007924101
 20
6.6070678858
 30
0.0
 10
10.0819201361
 20
6.5933353664
 30
0.0
 10
10.0625031224
 20
6.5803507982
 30
0.0
 10
10.0425681447
 20
6.56813202
 30
0.0
 10
10.0221425657
 20
6.5566959415
 30
0.0
 10
10.0012545651
 20
6.546058196
 30
0.0
 10
9.9799328476
 20
6.5362334125
 30
0.0
 10
9.958206839
 20
6.5272352071
 30
0.0
 10
9.9361060473
 20
6.5190757331
 30
0.0
 10
9.9061523295
 20
6.5093208007
 30
0.0
 10
9.8679089563
 20
6.4992803846
 30
0.0
 10
9.8210734042
 20
6.4907561346
 30
0.0
 10
9.7734954691
 20
6.4857868269
 30
0.0
 10
9.7254387452
 20
6.4843998315
 30
0.0
 10
9.6771670501
 20
6.48660204
 30
0.0
 10
9.6289458634
 20
6.4923807515
 30
0.0
 10
9.58104009
 20
6.5017036026
 30
0.0
 10
9.5337128493
 20
6.5145188867
 30
0.0
 10
9.4872239969
 20
6.5307557838
 30
0.0
 10
9.44182869
 20
6.5503246675
 30
0.0
 10
9.3977760431
 20
6.5731177472
 30
0.0
 10
9.3553078022
 20
6.5990096597
 30
0.0
 10
9.3146569819
 20
6.6278580534
 30
0.0
 10
9.2760465993
 20
6.6595043918
 30
0.0
 10
9.2396885221
 20
6.6937748945
 30
0.0
 10
9.205782326
 20
6.7304814616
 30
0.0
 10
9.1745141005
 20
6.7694225954
 30
0.0
 10
9.1460555239
 20
6.8103845931
 30
0.0
 10
9.1205629617
 20
6.8531427127
 30
0.0
 10
9.0981765696
 20
6.897462358
 30
0.0
 10
9.0790194496
 20
6.9431002917
 30
0.0
 10
9.0631971025
 20
6.9898061327
 30
0.0
 10
9.0507968301
 20
7.0373233006
 30
0.0
 10
9.0418872503
 20
7.0853917583
 30
0.0
 10
9.0365175935
 20
7.1337441368
 30
0.0
 10
9.0353149168
 20
7.1660822678
 30
0.0
 10
9.0353149168
 20
7.1822043456
 30
0.0
  0
SPLINE
  5
387
100
AcDbEntity
  8
0
100
AcDbSpline
 62
7
  6
CONTINUOUS
 70
0
 71
3
 72
33
 73
29
 74
0
 42
0.0000001
 43
0.0000001
 44
0.0000000001
 40
0.0
 40
0.0
 40
0.0
 40
0.0
 40
0.0958348039
 40
0.1891069742
 40
0.2792500435
 40
0.36572131
 40
0.4480125246
 40
0.5256540669
 40
0.5625988158
 40
0.598226802
 40
0.632494146
 40
0.6653609288
 40
0.6967920316
 40
0.726757616
 40
0.7552336203
 40
0.7822031337
 40
0.8076567456
 40
0.8315949344
 40
0.8540288219
 40
0.8749836671
 40
0.8945009457
 40
0.9126431418
 40
0.9294980666
 40
0.945184889
 40
0.9598599849
 40
0.9737213022
 40
0.9870092614
 40
1.0
 40
1.0
 40
1.0
 40
1.0
 10
8.9848103104
 20
10.7829204597
 30
0.0
 10
8.9903060253
 20
10.7825393305
 30
0.0
 10
9.0011425738
 20
10.7816663921
 30
0.0
 10
9.0171096279
 20
10.7800000696
 30
0.0
 10
9.03249635
 20
10.7780031865
 30
0.0
 10
9.0472001853
 20
10.7756893175
 30
0.0
 10
9.0611230413
 20
10.7730741952
 30
0.0
 10
9.0721735847
 20
10.770619932
 30
0.0
 10
9.0805467853
 20
10.7685084801
 30
0.0
 10
9.0864709417
 20
10.7668872386
 30
0.0
 10
9.0921339477
 20
10.7652048913
 30
0.0
 10
9.0975263955
 20
10.7634642045
 30
0.0
 10
9.1026393359
 20
10.7616681148
 30
0.0
 10
9.1074643106
 20
10.759819642
 30
0.0
 10
9.1119933525
 20
10.7579218332
 30
0.0
 10
9.1162190413
 20
10.755977897
 30
0.0
 10
9.1201344579
 20
10.753990952
 30
0.0
 10
9.1237332956
 20
10.7519643126
 30
0.0
 10
9.1270097458
 20
10.7499010972
 30
0.0
 10
9.1299586536
 20
10.7478045641
 30
0.0
 10
9.1325753308
 20
10.7456776876
 30
0.0
 10
9.1348556612
 20
10.743523399
 30
0.0
 10
9.1367958392
 20
10.7413443013
 30
0.0
 10
9.1383922123
 20
10.7391427707
 30
0.0
 10
9.1396410056
 20
10.7369212239
 30
0.0
 10
9.1405379138
 20
10.7346821807
 30
0.0
 10
9.1410786203
 20
10.7324304506
 30
0.0
 10
9.1411995197
 20
10.7309172525
 30
0.0
 10
9.1411995197
 20
10.7301705001
 30
0.0
  0
SPLINE
  5
388
100
AcDbEntity
  8
0
100
AcDbSpline
 62
7
  6
CONTINUOUS
 70
0
 71
3
 72
42
 73
38
 74
0
 42
0.0000001
 43
0.0000001
 44
0.0000000001
 40
0.0
 40
0.0
 40
0.0
 40
0.0
 40
0.0302771196
 40
0.0454600827
 40
0.0606722779
 40
0.0911827256
 40
0.121813731
 40
0.1371762047
 40
0.1525688739
 40
0.1834409134
 40
0.2144303296
 40
0.2455330339
 40
0.2767435214
 40
0.3080549539
 40
0.3394592565
 40
0.370947227
 40
0.4025086555
 40
0.4341324542
 40
0.4658067944
 40
0.49751925
 40
0.5292569463
 40
0.5610067125
 40
0.5927552361
 40
0.6244892194
 40
0.6561955349
 40
0.6878613803
 40
0.7194744295
 40
0.7510229812
 40
0.7824961012
 40
0.8138837575
 40
0.8451769508
 40
0.8763678238
 40
0.9074497942
 40
0.9384175771
 40
0.9538587615
 40
0.9692704983
 40
1.0
 40
1.0
 40
1.0
 40
1.0
 10
10.320989475
 20
6.9526955095
 30
0.0
 10
10.3090073544
 20
6.9504429443
 30
0.0
 10
10.2909114361
 20
6.9475887374
 30
0.0
 10
10.2666327739
 20
6.9448381989
 30
0.0
 10
10.2421901923
 20
6.9427847947
 30
0.0
 10
10.2114511774
 20
6.9415410359
 30
0.0
 10
10.1806311501
 20
6.9420618131
 30
0.0
 10
10.1559529854
 20
6.9435320081
 30
0.0
 10
10.1312296997
 20
6.945709027
 30
0.0
 10
10.1003665113
 20
6.9497499128
 30
0.0
 10
10.0635599787
 20
6.9566831075
 30
0.0
 10
10.0270626881
 20
6.9656827694
 30
0.0
 10
9.9909936697
 20
6.9767195534
 30
0.0
 10
9.9554695873
 20
6.9897575846
 30
0.0
 10
9.9206055859
 20
7.0047545026
 30
0.0
 10
9.8865145923
 20
7.0216616199
 30
0.0
 10
9.8533070412
 20
7.0404240746
 30
0.0
 10
9.8210904965
 20
7.0609810093
 30
0.0
 10
9.7899693116
 20
7.083265768
 30
0.0
 10
9.7600442923
 20
7.1072061111
 30
0.0
 10
9.7314123734
 20
7.1327244487
 30
0.0
 10
9.7041663058
 20
7.1597380904
 30
0.0
 10
9.6783943591
 20
7.1881595124
 30
0.0
 10
9.6541800363
 20
7.2178966389
 30
0.0
 10
9.6316018055
 20
7.2488531386
 30
0.0
 10
9.6107328467
 20
7.280928735
 30
0.0
 10
9.5916408161
 20
7.3140195289
 30
0.0
 10
9.5743876269
 20
7.3480183336
 30
0.0
 10
9.5590292511
 20
7.382815014
 30
0.0
 10
9.5456155339
 20
7.4182968629
 30
0.0
 10
9.5341900453
 20
7.4543488793
 30
0.0
 10
9.5247898959
 20
7.4908544517
 30
0.0
 10
9.5174457522
 20
7.5276945673
 30
0.0
 10
9.5130544696
 20
7.558605938
 30
0.0
 10
9.5105932024
 20
7.5833809671
 30
0.0
 10
9.5088368223
 20
7.6081190684
 30
0.0
 10
9.5083063314
 20
7.6267048136
 30
0.0
 10
9.5083063314
 20
7.6390789956
 30
0.0
  0
SPLINE
  5
389
100
AcDbEntity
  8
0
100
AcDbSpline
 62
7
  6
CONTINUOUS
 70
0
 71
3
 72
40
 73
36
 74
0
 42
0.0000001
 43
0.0000001
 44
0.0000000001
 40
0.0
 40
0.0
 40
0.0
 40
0.0
 40
0.0302735628
 40
0.0454547395
 40
0.0606651469
 40
0.0911720625
 40
0.1217996634
 40
0.1525485123
 40
0.183417598
 40
0.2144043668
 40
0.2455047726
 40
0.2767133439
 40
0.3080232666
 40
0.3394264809
 40
0.370913791
 40
0.4024749851
 40
0.4340989655
 40
0.4657738864
 40
0.4974872981
 40
0.5292262965
 40
0.5609776762
 40
0.5927280864
 40
0.6244641876
 40
0.6561728088
 40
0.6878411021
 40
0.7194566963
 40
0.7510078452
 40
0.7824835715
 40
0.8138738019
 40
0.8451695014
 40
0.8763627742
 40
0.9074470243
 40
0.9384169054
 40
0.9692687565
 40
1.0
 40
1.0
 40
1.0
 40
1.0
 10
10.3267420176
 20
7.0133047763
 30
0.0
 10
10.3155963245
 20
7.0111775955
 30
0.0
 10
10.2987620433
 20
7.0084755529
 30
0.0
 10
10.2761731601
 20
7.0058563365
 30
0.0
 10
10.2534299643
 20
7.0038865864
 30
0.0
 10
10.2248242251
 20
7.0026576324
 30
0.0
 10
10.1903705915
 20
7.0031571582
 30
0.0
 10
10.1558655815
 20
7.0056274863
 30
0.0
 10
10.1214221
 20
7.0100604964
 30
0.0
 10
10.0871519419
 20
7.0164416169
 30
0.0
 10
10.0531665576
 20
7.0247499741
 30
0.0
 10
10.0195763897
 20
7.034958436
 30
0.0
 10
9.9864905987
 20
7.0470337096
 30
0.0
 10
9.9540166898
 20
7.0609364487
 30
0.0
 10
9.9222601718
 20
7.0766213834
 30
0.0
 10
9.8913242159
 20
7.0940374668
 30
0.0
 10
9.8613093235
 20
7.1131280418
 30
0.0
 10
9.8323130022
 20
7.1338310242
 30
0.0
 10
9.8044294512
 20
7.156079104
 30
0.0
 10
9.7777492578
 20
7.1797999634
 30
0.0
 10
9.7523591045
 20
7.2049165103
 30
0.0
 10
9.7283414897
 20
7.2313471279
 30
0.0
 10
9.7057744611
 20
7.2590059378
 30
0.0
 10
9.6847313632
 20
7.2878030781
 30
0.0
 10
9.665280601
 20
7.3176449926
 30
0.0
 10
9.6474854181
 20
7.3484347333
 30
0.0
 10
9.6314036918
 20
7.3800722732
 30
0.0
 10
9.6170877473
 20
7.4124548279
 30
0.0
 10
9.604584183
 20
7.4454771906
 30
0.0
 10
9.5939337311
 20
7.4790320569
 30
0.0
 10
9.5851710957
 20
7.5130104255
 30
0.0
 10
9.5783249019
 20
7.5473017477
 30
0.0
 10
9.5734174801
 20
7.5817950057
 30
0.0
 10
9.570464986
 20
7.6163765324
 30
0.0
 10
9.5698050997
 20
7.6394638378
 30
0.0
 10
9.5698050997
 20
7.6509822478
 30
0.0
  0
SPLINE
  5
38A
100
AcDbEntity
  8
0
100
AcDbSpline
 62
7
  6
CONTINUOUS
 70
0
 71
3
 72
54
 73
50
 74
0
 42
0.0000001
 43
0.0000001
 44
0.0000000001
 40
0.0
 40
0.0
 40
0.0
 40
0.0
 40
0.0386099858
 40
0.0580073208
 40
0.0774620674
 40
0.1165343742
 40
0.1558129707
 40
0.175524779
 40
0.1952798763
 40
0.2349023505
 40
0.2746479688
 40
0.3144704672
 40
0.3543101414
 40
0.3940914431
 40
0.4337210156
 40
0.4730863528
 40
0.5120555099
 40
0.5504781347
 40
0.5881882525
 40
0.6250087696
 40
0.66075754
 40
0.6952547199
 40
0.7283304973
 40
0.7442869036
 40
0.7598324164
 40
0.7749516619
 40
0.7896311305
 40
0.8038589177
 40
0.8176253976
 40
0.8309225421
 40
0.8437447193
 40
0.8560880146
 40
0.8679508114
 40
0.8793333954
 40
0.890238249
 40
0.9006699484
 40
0.910635285
 40
0.9201433584
 40
0.9292056813
 40
0.9378363673
 40
0.9460523355
 40
0.9538735303
 40
0.9613232531
 40
0.9684283521
 40
0.9752195794
 40
0.9817316621
 40
0.9880034137
 40
0.9940775169
 40
1.0
 40
1.0
 40
1.0
 40
1.0
 10
11.0637597467
 20
9.3286426692
 30
0.0
 10
11.0637597467
 20
9.316519231
 30
0.0
 10
11.0642433033
 20
9.2983004663
 30
0.0
 10
11.0658376805
 20
9.2740279915
 30
0.0
 10
11.0680724195
 20
9.2496596682
 30
0.0
 10
11.0720547445
 20
9.219194037
 30
0.0
 10
11.0775788905
 20
9.1888885059
 30
0.0
 10
11.0829070457
 20
9.1647413453
 30
0.0
 10
11.0888461023
 20
9.1406259178
 30
0.0
 10
11.097376086
 20
9.1106799668
 30
0.0
 10
11.1092988661
 20
9.0751908686
 30
0.0
 10
11.1228341729
 20
9.0402122502
 30
0.0
 10
11.1378806282
 20
9.0058454814
 30
0.0
 10
11.1543191222
 20
8.972190858
 30
0.0
 10
11.1720111992
 20
8.9393482662
 30
0.0
 10
11.1907980715
 20
8.9074161729
 30
0.0
 10
11.2105001745
 20
8.8764902266
 30
0.0
 10
11.2309177827
 20
8.8466610076
 30
0.0
 10
11.2518329657
 20
8.8180110943
 30
0.0
 10
11.273013093
 20
8.7906116154
 30
0.0
 10
11.2942159077
 20
8.7645186415
 30
0.0
 10
11.3151957582
 20
8.7397698472
 30
0.0
 10
11.3324921045
 20
8.7200519276
 30
0.0
 10
11.3460076449
 20
8.7049357441
 30
0.0
 10
11.3558196685
 20
8.6940718589
 30
0.0
 10
11.3654022863
 20
8.6835412435
 30
0.0
 10
11.3747304882
 20
8.6733386161
 30
0.0
 10
11.3837806537
 20
8.6634573402
 30
0.0
 10
11.3925308225
 20
8.6538898833
 30
0.0
 10
11.4009604792
 20
8.6446274295
 30
0.0
 10
11.4090508723
 20
8.6356605583
 30
0.0
 10
11.4167846916
 20
8.6269788208
 30
0.0
 10
11.4241463098
 20
8.6185713474
 30
0.0
 10
11.4311215313
 20
8.6104266186
 30
0.0
 10
11.4376976195
 20
8.6025327971
 30
0.0
 10
11.44386325
 20
8.5948777909
 30
0.0
 10
11.4496082636
 20
8.5874492773
 30
0.0
 10
11.4549238579
 20
8.5802350123
 30
0.0
 10
11.4598020951
 20
8.573222633
 30
0.0
 10
11.4642362831
 20
8.5664000935
 30
0.0
 10
11.4682203349
 20
8.5597553827
 30
0.0
 10
11.4717492188
 20
8.5532769502
 30
0.0
 10
11.4748183244
 20
8.5469534865
 30
0.0
 10
11.4774238211
 20
8.5407742498
 30
0.0
 10
11.4795622109
 20
8.5347289942
 30
0.0
 10
11.4812304688
 20
8.5288082457
 30
0.0
 10
11.4824259657
 20
8.5230031569
 30
0.0
 10
11.4831463629
 20
8.5173065552
 30
0.0
 10
11.4833104169
 20
8.5135379301
 30
0.0
 10
11.483310563
 20
8.5116782853
 30
0.0
  0
SPLINE
  5
38B
100
AcDbEntity
  8
0
100
AcDbSpline
 62
7
  6
CONTINUOUS
 70
0
 71
3
 72
39
 73
35
 74
0
 42
0.0000001
 43
0.0000001
 44
0.0000000001
 40
0.0
 40
0.0
 40
0.0
 40
0.0
 40
0.0304776686
 40
0.0610671238
 40
0.0917684886
 40
0.1225806441
 40
0.1535012551
 40
0.1845268082
 40
0.215652662
 40
0.2468731074
 40
0.2781814377
 40
0.3095700275
 40
0.3410304184
 40
0.3725534122
 40
0.4041291697
 40
0.4357473138
 40
0.4673970371
 40
0.4990672135
 40
0.5307465107
 40
0.5624235047
 40
0.5940867951
 40
0.6257251194
 40
0.6573274668
 40
0.6888831908
 40
0.7203821177
 40
0.7518146537
 40
0.7831718867
 40
0.814445681
 40
0.8456287794
 40
0.8767148391
 40
0.9076986677
 40
0.93857581
 40
0.9693438181
 40
1.0
 40
1.0
 40
1.0
 40
1.0
 10
10.325890034
 20
7.0805914757
 30
0.0
 10
10.3153038395
 20
7.0800598704
 30
0.0
 10
10.2940598406
 20
7.0795623452
 30
0.0
 10
10.2621444623
 20
7.080508159
 30
0.0
 10
10.2302063635
 20
7.0831417522
 30
0.0
 10
10.1983357532
 20
7.0874557493
 30
0.0
 10
10.1666211176
 20
7.093438021
 30
0.0
 10
10.1351509056
 20
7.1010718124
 30
0.0
 10
10.1040127622
 20
7.1103357646
 30
0.0
 10
10.0732934274
 20
7.1212039896
 30
0.0
 10
10.0430784587
 20
7.1336461396
 30
0.0
 10
10.013452005
 20
7.1476274933
 30
0.0
 10
9.9844965711
 20
7.1631090522
 30
0.0
 10
9.9562927911
 20
7.1800476497
 30
0.0
 10
9.928919205
 20
7.1983960705
 30
0.0
 10
9.9024520423
 20
7.2181031825
 30
0.0
 10
9.8769650084
 20
7.239114075
 30
0.0
 10
9.8525290774
 20
7.2613702091
 30
0.0
 10
9.8292123005
 20
7.2848095864
 30
0.0
 10
9.8070796168
 20
7.3093669204
 30
0.0
 10
9.7861926741
 20
7.334973817
 30
0.0
 10
9.7666096577
 20
7.3615589639
 30
0.0
 10
9.7483851298
 20
7.3890483278
 30
0.0
 10
9.7315698781
 20
7.4173653592
 30
0.0
 10
9.7162107751
 20
7.446431204
 30
0.0
 10
9.7023506459
 20
7.4761649213
 30
0.0
 10
9.6900281446
 20
7.5064837035
 30
0.0
 10
9.6792776458
 20
7.5373031145
 30
0.0
 10
9.6701291757
 20
7.568537306
 30
0.0
 10
9.6626082549
 20
7.6000993192
 30
0.0
 10
9.6567359986
 20
7.6319010932
 30
0.0
 10
9.6525287099
 20
7.6638544742
 30
0.0
 10
9.6499984068
 20
7.6958690955
 30
0.0
 10
9.6494331408
 20
7.7172354164
 30
0.0
 10
9.6494331408
 20
7.7278970337
 30
0.0
  0
SPLINE
  5
38C
100
AcDbEntity
  8
0
100
AcDbSpline
 62
7
  6
CONTINUOUS
 70
0
 71
3
 72
23
 73
19
 74
0
 42
0.0000001
 43
0.0000001
 44
0.0000000001
 40
0.0
 40
0.0
 40
0.0
 40
0.0
 40
0.0616984931
 40
0.1234238109
 40
0.1851959183
 40
0.2470343206
 40
0.3089578756
 40
0.3709846125
 40
0.4331315605
 40
0.4954145908
 40
0.5578482694
 40
0.6204457293
 40
0.6832185673
 40
0.7461766721
 40
0.8093284814
 40
0.8726797996
 40
0.9362367739
 40
1.0
 40
1.0
 40
1.0
 40
1.0
 10
9.0739238087
 20
7.6331073926
 30
0.0
 10
9.0658248805
 20
7.6250237995
 30
0.0
 10
9.05002841
 20
7.6084414854
 30
0.0
 10
9.0276120547
 20
7.5823997898
 30
0.0
 10
9.0065180892
 20
7.5552418995
 30
0.0
 10
8.9867940476
 20
7.5270288044
 30
0.0
 10
8.9684833726
 20
7.4978228198
 30
0.0
 10
8.9516266486
 20
7.4676887279
 30
0.0
 10
8.9362611562
 20
7.4366932888
 30
0.0
 10
8.9224208868
 20
7.4049051836
 30
0.0
 10
8.9101364421
 20
7.3723948374
 30
0.0
 10
8.8994349731
 20
7.339234265
 30
0.0
 10
8.8903401179
 20
7.3054969318
 30
0.0
 10
8.8828718986
 20
7.271257515
 30
0.0
 10
8.877046866
 20
7.2365919826
 30
0.0
 10
8.872877666
 20
7.2015766322
 30
0.0
 10
8.8703737013
 20
7.1662902181
 30
0.0
 10
8.8698189425
 20
7.1426732072
 30
0.0
 10
8.8698189425
 20
7.1308475004
 30
0.0
  0
SPLINE
  5
38D
100
AcDbEntity
  8
0
100
AcDbSpline
 62
7
  6
CONTINUOUS
 70
0
 71
3
 72
23
 73
19
 74
0
 42
0.0000001
 43
0.0000001
 44
0.0000000001
 40
0.0
 40
0.0
 40
0.0
 40
0.0
 40
0.0617101436
 40
0.1234413945
 40
0.1852146442
 40
0.2470503545
 40
0.3089683499
 40
0.3709876203
 40
0.4331261332
 40
0.4954006601
 40
0.5578266118
 40
0.6204179016
 40
0.6831868196
 40
0.7461438598
 40
0.8092979876
 40
0.872655304
 40
0.9362225276
 40
1.0
 40
1.0
 40
1.0
 40
1.0
 10
9.1316797469
 20
7.602821986
 30
0.0
 10
9.1239487056
 20
7.5953543798
 30
0.0
 10
9.1088655006
 20
7.5800157253
 30
0.0
 10
9.0874498367
 20
7.5558704258
 30
0.0
 10
9.0672884235
 20
7.5306392773
 30
0.0
 10
9.0484285604
 20
7.5043812665
 30
0.0
 10
9.0309135052
 20
7.4771567673
 30
0.0
 10
9.014783666
 20
7.449028654
 30
0.0
 10
9.0000761783
 20
7.4200618048
 30
0.0
 10
8.9868249115
 20
7.3903230437
 30
0.0
 10
8.9750603657
 20
7.3598809617
 30
0.0
 10
8.9648096112
 20
7.3288057609
 30
0.0
 10
8.9560962314
 20
7.2971691098
 30
0.0
 10
8.9489401874
 20
7.2650439121
 30
0.0
 10
8.943357993
 20
7.2325043806
 30
0.0
 10
8.9393622406
 20
7.1996250487
 30
0.0
 10
8.9369623429
 20
7.1664829301
 30
0.0
 10
8.9364306577
 20
7.1442982488
 30
0.0
 10
8.9364306577
 20
7.1331894803
 30
0.0
  0
SPLINE
  5
38E
100
AcDbEntity
  8
0
100
AcDbSpline
 62
7
  6
CONTINUOUS
 70
0
 71
3
 72
23
 73
19
 74
0
 42
0.0000001
 43
0.0000001
 44
0.0000000001
 40
0.0
 40
0.0
 40
0.0
 40
0.0
 40
0.0616810998
 40
0.1233985808
 40
0.1851707683
 40
0.2470154915
 40
0.3089499244
 40
0.3709904319
 40
0.4331524248
 40
0.4954502264
 40
0.5578969509
 40
0.6205044193
 40
0.6832830137
 40
0.7462416459
 40
0.8093878795
 40
0.8727266079
 40
0.9362643481
 40
1.0
 40
1.0
 40
1.0
 40
1.0
 10
9.1534487885
 20
7.6229372571
 30
0.0
 10
9.1464756601
 20
7.6155560473
 30
0.0
 10
9.1328817448
 20
7.6004477785
 30
0.0
 10
9.113608833
 20
7.5768154227
 30
0.0
 10
9.0954870938
 20
7.5522548286
 30
0.0
 10
9.0785544264
 20
7.5268172218
 30
0.0
 10
9.0628454551
 20
7.5005547604
 30
0.0
 10
9.0483925127
 20
7.4735215222
 30
0.0
 10
9.0352253025
 20
7.4457730974
 30
0.0
 10
9.0233708579
 20
7.4173665809
 30
0.0
 10
9.0128534881
 20
7.3883604116
 30
0.0
 10
9.0036947736
 20
7.3588142464
 30
0.0
 10
8.9959135004
 20
7.3287888509
 30
0.0
 10
8.9895256181
 20
7.2983459165
 30
0.0
 10
8.9845442707
 20
7.2675482009
 30
0.0
 10
8.9809794179
 20
7.2364585362
 30
0.0
 10
8.9788386481
 20
7.2051419801
 30
0.0
 10
8.9783642876
 20
7.1841866367
 30
0.0
 10
8.9783642876
 20
7.1736942587
 30
0.0
  0
SPLINE
  5
38F
100
AcDbEntity
  8
0
100
AcDbSpline
 62
7
  6
CONTINUOUS
 70
0
 71
3
 72
23
 73
19
 74
0
 42
0.0000001
 43
0.0000001
 44
0.0000000001
 40
0.0
 40
0.0
 40
0.0
 40
0.0
 40
0.0617101446
 40
0.123441395
 40
0.1852146431
 40
0.247050352
 40
0.3089683478
 40
0.3709876199
 40
0.4331261339
 40
0.495400661
 40
0.5578266111
 40
0.6204179017
 40
0.6831868168
 40
0.746143859
 40
0.8092980008
 40
0.8726552579
 40
0.9362226181
 40
1.0
 40
1.0
 40
1.0
 40
1.0
 10
9.217954162
 20
7.6215064258
 30
0.0
 10
9.2107224084
 20
7.6145211114
 30
0.0
 10
9.1966133484
 20
7.6001730564
 30
0.0
 10
9.1765807812
 20
7.5775871407
 30
0.0
 10
9.1577214635
 20
7.5539855013
 30
0.0
 10
9.1400796221
 20
7.5294233292
 30
0.0
 10
9.1236957376
 20
7.5039570849
 30
0.0
 10
9.1086076211
 20
7.4776455759
 30
0.0
 10
9.0948499988
 20
7.4505494985
 30
0.0
 10
9.0824545486
 20
7.4227313634
 30
0.0
 10
9.0714497966
 20
7.3942553328
 30
0.0
 10
9.061861063
 20
7.365187075
 30
0.0
 10
9.053710417
 20
7.3355936258
 30
0.0
 10
9.0470165367
 20
7.3055431775
 30
0.0
 10
9.0417948672
 20
7.2751051634
 30
0.0
 10
9.0380571647
 20
7.2443492745
 30
0.0
 10
9.03581227
 20
7.2133475859
 30
0.0
 10
9.0353149168
 20
7.1925956581
 30
0.0
 10
9.0353149168
 20
7.1822043456
 30
0.0
  0
SPLINE
  5
390
100
AcDbEntity
  8
0
100
AcDbSpline
 62
7
  6
CONTINUOUS
 70
0
 71
3
 72
11
 73
7
 74
0
 42
0.0000001
 43
0.0000001
 44
0.0000000001
 40
0.0
 40
0.0
 40
0.0
 40
0.0
 40
0.2486290009
 40
0.4981545096
 40
0.7486071405
 40
1.0
 40
1.0
 40
1.0
 40
1.0
 10
9.5235838947
 20
7.7781774533
 30
0.0
 10
9.5210435311
 20
7.7668392218
 30
0.0
 10
9.5165888755
 20
7.7439743418
 30
0.0
 10
9.5118121892
 20
7.7092995002
 30
0.0
 10
9.5089419577
 20
7.6742856088
 30
0.0
 10
9.5083063314
 20
7.6508274955
 30
0.0
 10
9.5083063314
 20
7.6390789956
 30
0.0
  0
SPLINE
  5
391
100
AcDbEntity
  8
0
100
AcDbSpline
 62
7
  6
CONTINUOUS
 70
0
 71
3
 72
11
 73
7
 74
0
 42
0.0000001
 43
0.0000001
 44
0.0000000001
 40
0.0
 40
0.0
 40
0.0
 40
0.0
 40
0.2486123832
 40
0.4981315927
 40
0.7485897087
 40
1.0
 40
1.0
 40
1.0
 40
1.0
 10
9.5843762456
 20
7.7819153843
 30
0.0
 10
9.5819535585
 20
7.771248222
 30
0.0
 10
9.5777049941
 20
7.7497323986
 30
0.0
 10
9.5731490606
 20
7.7170946738
 30
0.0
 10
9.5704113588
 20
7.6841310142
 30
0.0
 10
9.5698050997
 20
7.6620441735
 30
0.0
 10
9.5698050997
 20
7.6509822478
 30
0.0
  0
SPLINE
  5
392
100
AcDbEntity
  8
0
100
AcDbSpline
 62
7
  6
CONTINUOUS
 70
0
 71
3
 72
37
 73
33
 74
0
 42
0.0000001
 43
0.0000001
 44
0.0000000001
 40
0.0
 40
0.0
 40
0.0
 40
0.0
 40
0.0305134177
 40
0.0611373634
 40
0.0918714846
 40
0.122714242
 40
0.1536629377
 40
0.1847137574
 40
0.2158618205
 40
0.2471012413
 40
0.278425197
 40
0.3098260052
 40
0.3412952071
 40
0.3728236578
 40
0.4044016224
 40
0.4360188757
 40
0.4993097563
 40
0.5626274341
 40
0.5942779063
 40
0.6259019172
 40
0.6574887871
 40
0.689028203
 40
0.7205103218
 40
0.7519258709
 40
0.7832662428
 40
0.814523587
 40
0.8456909045
 40
0.8767620784
 40
0.9077321343
 40
0.9385966889
 40
0.9693536233
 40
1.0
 40
1.0
 40
1.0
 40
1.0
 10
10.3062921677
 20
7.2069848725
 30
0.0
 10
10.2979241311
 20
7.2067468323
 30
0.0
 10
10.2811419112
 20
7.2067115789
 30
0.0
 10
10.2559576279
 20
7.2079747477
 30
0.0
 10
10.2307821281
 20
7.2105502346
 30
0.0
 10
10.2056847161
 20
7.2144310105
 30
0.0
 10
10.1807333071
 20
7.2196064468
 30
0.0
 10
10.1559957243
 20
7.2260624201
 30
0.0
 10
10.1315391171
 20
7.2337813345
 30
0.0
 10
10.1074298895
 20
7.2427421735
 30
0.0
 10
10.0837334885
 20
7.2529205602
 30
0.0
 10
10.060514252
 20
7.2642888085
 30
0.0
 10
10.0378351734
 20
7.2768160561
 30
0.0
 10
10.0157579532
 20
7.2904681206
 30
0.0
 10
9.9943419785
 20
7.3052084024
 30
0.0
 10
9.9667423626
 20
7.3262624054
 30
0.0
 10
9.9341894516
 20
7.3550904335
 30
0.0
 10
9.9045843728
 20
7.386950536
 30
0.0
 10
9.8828538502
 20
7.4140579451
 30
0.0
 10
9.8675775398
 20
7.4351415288
 30
0.0
 10
9.8533655777
 20
7.4569197254
 30
0.0
 10
9.8402560554
 20
7.4793339458
 30
0.0
 10
9.8282847273
 20
7.5023232104
 30
0.0
 10
9.8174840929
 20
7.525825156
 30
0.0
 10
9.8078835311
 20
7.5497759784
 30
0.0
 10
9.79950915
 20
7.5741106651
 30
0.0
 10
9.7923837442
 20
7.5987631389
 30
0.0
 10
9.7865266783
 20
7.6236665034
 30
0.0
 10
9.7819539973
 20
7.6487530154
 30
0.0
 10
9.7786780338
 20
7.6739549336
 30
0.0
 10
9.7767079681
 20
7.6992027391
 30
0.0
 10
9.7762678825
 20
7.7160520945
 30
0.0
 10
9.7762678825
 20
7.7244599936
 30
0.0
  0
SPLINE
  5
393
100
AcDbEntity
  8
0
100
AcDbSpline
 62
7
  6
CONTINUOUS
 70
0
 71
3
 72
97
 73
93
 74
0
 42
0.0000001
 43
0.0000001
 44
0.0000000001
 40
0.0
 40
0.0
 40
0.0
 40
0.0
 40
0.0028856136
 40
0.0058442195
 40
0.0088954173
 40
0.0120568706
 40
0.0153442542
 40
0.018771223
 40
0.02234957
 40
0.026089306
 40
0.0299988963
 40
0.0340853608
 40
0.0383545065
 40
0.0428110127
 40
0.0474586233
 40
0.0523002144
 40
0.0573379353
 40
0.0625732682
 40
0.0680071176
 40
0.0736398729
 40
0.0794714507
 40
0.0855013665
 40
0.0917287367
 40
0.0981523627
 40
0.1047706996
 40
0.1115819519
 40
0.1185840184
 40
0.1257745939
 40
0.1407104618
 40
0.156366999
 40
0.1727182433
 40
0.1897355455
 40
0.2073878463
 40
0.2256419132
 40
0.2444625466
 40
0.2638127648
 40
0.2836539733
 40
0.3039461212
 40
0.3246478498
 40
0.3457166342
 40
0.3671089207
 40
0.3887802599
 40
0.4106854385
 40
0.4327786075
 40
0.4550134111
 40
0.4773431128
 40
0.4997207223
 40
0.5220991216
 40
0.5444311903
 40
0.5666699319
 40
0.5887685994
 40
0.610680822
 40
0.6323607321
 40
0.6537630926
 40
0.6748434267
 40
0.6955581485
 40
0.7158646965
 40
0.7357216705
 40
0.7550889734
 40
0.7739279592
 40
0.7922015898
 40
0.8098746028
 40
0.8269136965
 40
0.8432877353
 40
0.858967985
 40
0.8739283884
 40
0.8811315057
 40
0.8881462794
 40
0.8949703872
 40
0.9016017101
 40
0.9080384367
 40
0.9142789977
 40
0.9203221787
 40
0.9261670646
 40
0.9318131532
 40
0.937260322
 40
0.9425089382
 40
0.9475598589
 40
0.9524145362
 40
0.9570750618
 40
0.9615442696
 40
0.9658258332
 40
0.9699243728
 40
0.9738456093
 40
0.9775964807
 40
0.9811853472
 40
0.9846221121
 40
0.9879184443
 40
0.991087869
 40
0.9941459253
 40
0.9971101415
 40
1.0
 40
1.0
 40
1.0
 40
1.0
 10
13.3617031362
 20
8.7538745456
 30
0.0
 10
13.3640059257
 20
8.7542009269
 30
0.0
 10
13.3686417388
 20
8.7550770382
 30
0.0
 10
13.3755516891
 20
8.757019724
 30
0.0
 10
13.3824863817
 20
8.7596023712
 30
0.0
 10
13.3894412306
 20
8.762822203
 30
0.0
 10
13.3964127697
 20
8.7666767098
 30
0.0
 10
13.4033975704
 20
8.7711629154
 30
0.0
 10
13.410392134
 20
8.7762780105
 30
0.0
 10
13.4173931368
 20
8.7820187396
 30
0.0
 10
13.4243969937
 20
8.7883818758
 30
0.0
 10
13.4314002636
 20
8.7953637274
 30
0.0
 10
13.4383992411
 20
8.802960494
 30
0.0
 10
13.4453903387
 20
8.811167923
 30
0.0
 10
13.4523697657
 20
8.8199815497
 30
0.0
 10
13.4593338163
 20
8.8293964931
 30
0.0
 10
13.4662786637
 20
8.8394075916
 30
0.0
 10
13.4732005221
 20
8.8500093091
 30
0.0
 10
13.4800955684
 20
8.8611957868
 30
0.0
 10
13.486959971
 20
8.8729608289
 30
0.0
 10
13.493789938
 20
8.8852978943
 30
0.0
 10
13.5005816209
 20
8.8982001344
 30
0.0
 10
13.5073312757
 20
8.9116603469
 30
0.0
 10
13.5140350611
 20
8.9256710424
 30
0.0
 10
13.5206892937
 20
8.9402243811
 30
0.0
 10
13.5272901524
 20
8.9553122456
 30
0.0
 10
13.5338340539
 20
8.9709261952
 30
0.0
 10
13.5425891962
 20
8.9927109876
 30
0.0
 10
13.5533453445
 20
9.0212055226
 30
0.0
 10
13.5658100343
 20
9.0569337188
 30
0.0
 10
13.5779618961
 20
9.0945364194
 30
0.0
 10
13.5897734992
 20
9.13392937
 30
0.0
 10
13.6012181805
 20
9.1750245373
 30
0.0
 10
13.6122701072
 20
9.2177298954
 30
0.0
 10
13.6229043385
 20
9.2619497727
 30
0.0
 10
13.633096883
 20
9.3075850433
 30
0.0
 10
13.6428247528
 20
9.3545333698
 30
0.0
 10
13.6520660146
 20
9.4026894372
 30
0.0
 10
13.6607998388
 20
9.4519451957
 30
0.0
 10
13.6690065458
 20
9.502190108
 30
0.0
 10
13.6766676489
 20
9.5533114011
 30
0.0
 10
13.683765896
 20
9.6051943225
 30
0.0
 10
13.6902853071
 20
9.6577224003
 30
0.0
 10
13.6962112101
 20
9.7107777065
 30
0.0
 10
13.7015302736
 20
9.7642411238
 30
0.0
 10
13.7062305359
 20
9.8179926142
 30
0.0
 10
13.7103014323
 20
9.8719114901
 30
0.0
 10
13.7137338186
 20
9.9258766864
 30
0.0
 10
13.7165199915
 20
9.9797670334
 30
0.0
 10
13.7186537062
 20
10.0334615302
 30
0.0
 10
13.7201301904
 20
10.0868396172
 30
0.0
 10
13.7209461559
 20
10.1397814487
 30
0.0
 10
13.7210998058
 20
10.1921681628
 30
0.0
 10
13.7205908394
 20
10.2438821501
 30
0.0
 10
13.7194204537
 20
10.29480732
 30
0.0
 10
13.7175913414
 20
10.3448293629
 30
0.0
 10
13.7151076858
 20
10.3938360104
 30
0.0
 10
13.7119751527
 20
10.4417172905
 30
0.0
 10
13.7082008788
 20
10.4883657787
 30
0.0
 10
13.703793457
 20
10.5336768461
 30
0.0
 10
13.6987629186
 20
10.5775488982
 30
0.0
 10
13.6931207121
 20
10.6198836226
 30
0.0
 10
13.6868796741
 20
10.6605861871
 30
0.0
 10
13.6800540156
 20
10.6995655913
 30
0.0
 10
13.6726592306
 20
10.7367344654
 30
0.0
 10
13.6659549079
 20
10.7664946918
 30
0.0
 10
13.6603028878
 20
10.7893238396
 30
0.0
 10
13.6559856665
 20
10.8057256808
 30
0.0
 10
13.6515392494
 20
10.8216149403
 30
0.0
 10
13.6469660108
 20
10.8369827429
 30
0.0
 10
13.6422686228
 20
10.851820503
 30
0.0
 10
13.6374496263
 20
10.8661199237
 30
0.0
 10
13.6325118163
 20
10.8798730411
 30
0.0
 10
13.6274578671
 20
10.893072177
 30
0.0
 10
13.622290683
 20
10.9057100043
 30
0.0
 10
13.6170130661
 20
10.917779488
 30
0.0
 10
13.6116280048
 20
10.9292739544
 30
0.0
 10
13.6061384185
 20
10.9401870339
 30
0.0
 10
13.6005473487
 20
10.9505127177
 30
0.0
 10
13.5948578118
 20
10.9602453201
 30
0.0
 10
13.5890728631
 20
10.9693794981
 30
0.0
 10
13.5831955826
 20
10.9779102565
 30
0.0
 10
13.5772289919
 20
10.9858328959
 30
0.0
 10
13.5711761878
 20
10.9931430903
 30
0.0
 10
13.5650401145
 20
10.9998367188
 30
0.0
 10
13.5588238439
 20
11.005910048
 30
0.0
 10
13.5525302453
 20
11.0113594031
 30
0.0
 10
13.5461623777
 20
11.0161814943
 30
0.0
 10
13.5397232237
 20
11.0203728949
 30
0.0
 10
13.5332158645
 20
11.0239306481
 30
0.0
 10
13.5266444178
 20
11.0268513316
 30
0.0
 10
13.5221755389
 20
11.0283882716
 30
0.0
 10
13.519940505
 20
11.0290439501
 30
0.0
  0
SPLINE
  5
394
100
AcDbEntity
  8
0
100
AcDbSpline
 62
7
  6
CONTINUOUS
 70
0
 71
3
 72
101
 73
97
 74
0
 42
0.0000001
 43
0.0000001
 44
0.0000000001
 40
0.0
 40
0.0
 40
0.0
 40
0.0
 40
0.002864332
 40
0.0057543737
 40
0.0086950715
 40
0.0117100049
 40
0.0148209125
 40
0.0180473533
 40
0.0214066252
 40
0.0249137399
 40
0.0285815846
 40
0.0324210424
 40
0.0364412417
 40
0.0406497036
 40
0.0450525856
 40
0.0496548025
 40
0.0544602312
 40
0.0594717951
 40
0.0646916254
 40
0.070121116
 40
0.0757610461
 40
0.0816116155
 40
0.087672536
 40
0.0939430554
 40
0.1004220234
 40
0.1071079113
 40
0.113998857
 40
0.1210926843
 40
0.1283869309
 40
0.1358788694
 40
0.1435655221
 40
0.1514436847
 40
0.167760337
 40
0.1847993949
 40
0.2025281798
 40
0.2209114101
 40
0.2399114606
 40
0.2594885909
 40
0.2796011516
 40
0.3002057739
 40
0.3212575473
 40
0.3427101889
 40
0.3645162055
 40
0.3866270522
 40
0.4089932868
 40
0.4315647218
 40
0.4542905758
 40
0.4771196222
 40
0.5000003384
 40
0.5228810535
 40
0.5457100969
 40
0.5684359458
 40
0.5910073738
 40
0.6133735993
 40
0.6354844351
 40
0.6572904389
 40
0.6787430657
 40
0.6997948226
 40
0.7203994264
 40
0.740511967
 40
0.7600890754
 40
0.7790891025
 40
0.7974723078
 40
0.8152010662
 40
0.8322400963
 40
0.8485567195
 40
0.8564348637
 40
0.8641215046
 40
0.8716134241
 40
0.8789076584
 40
0.8860014663
 40
0.8928923994
 40
0.8995782676
 40
0.9060572226
 40
0.9123277221
 40
0.9183886292
 40
0.9242391788
 40
0.9298790952
 40
0.9353085664
 40
0.9405283828
 40
0.9455399278
 40
0.9503453426
 40
0.9549475414
 40
0.9593504098
 40
0.9635588547
 40
0.967579041
 40
0.9714184834
 40
0.9750863161
 40
0.9785934176
 40
0.9819526789
 40
0.9851791091
 40
0.9882900092
 40
0.991304937
 40
0.9942456276
 40
0.9971356602
 40
1.0
 40
1.0
 40
1.0
 40
1.0
 10
13.5353600432
 20
11.0296949997
 30
0.0
 10
13.5376927509
 20
11.029533215
 30
0.0
 10
13.5423662718
 20
11.0289767427
 30
0.0
 10
13.5493095744
 20
11.0274520175
 30
0.0
 10
13.5561939815
 20
11.0252375367
 30
0.0
 10
13.5630136443
 20
11.0223362801
 30
0.0
 10
13.5697643445
 20
11.0187512673
 30
0.0
 10
13.5764422164
 20
11.0144861025
 30
0.0
 10
13.5830436487
 20
11.0095442213
 30
0.0
 10
13.5895653989
 20
11.0039294211
 30
0.0
 10
13.5960041152
 20
10.9976454042
 30
0.0
 10
13.6023566458
 20
10.9906962504
 30
0.0
 10
13.6086196151
 20
10.9830861217
 30
0.0
 10
13.6147897926
 20
10.974819616
 30
0.0
 10
13.6208637362
 20
10.9659015521
 30
0.0
 10
13.6268381462
 20
10.9563372069
 30
0.0
 10
13.6327095635
 20
10.9461321575
 30
0.0
 10
13.6384746759
 20
10.9352924321
 30
0.0
 10
13.6441300676
 20
10.923824398
 30
0.0
 10
13.6496724687
 20
10.9117348533
 30
0.0
 10
13.655098553
 20
10.8990309512
 30
0.0
 10
13.6604051326
 20
10.8857202528
 30
0.0
 10
13.6655890036
 20
10.8718106778
 30
0.0
 10
13.6706470876
 20
10.8573105323
 30
0.0
 10
13.6755763243
 20
10.8422284774
 30
0.0
 10
13.680373765
 20
10.8265735411
 30
0.0
 10
13.6850365074
 20
10.8103550993
 30
0.0
 10
13.6895617462
 20
10.7935828775
 30
0.0
 10
13.6939467503
 20
10.7762669369
 30
0.0
 10
13.6981888613
 20
10.7584176794
 30
0.0
 10
13.7022855575
 20
10.7400458054
 30
0.0
 10
13.7076128311
 20
10.7145696083
 30
0.0
 10
13.7138715026
 20
10.6814913951
 30
0.0
 10
13.7206797093
 20
10.640344515
 30
0.0
 10
13.7268540065
 20
10.5973928444
 30
0.0
 10
13.732379355
 20
10.5527397093
 30
0.0
 10
13.7372422448
 20
10.5064923168
 30
0.0
 10
13.7414307988
 20
10.4587618567
 30
0.0
 10
13.7449347805
 20
10.4096631128
 30
0.0
 10
13.7477456226
 20
10.3593142067
 30
0.0
 10
13.7498564443
 20
10.3078362965
 30
0.0
 10
13.7512620669
 20
10.2553532822
 30
0.0
 10
13.7519590245
 20
10.2019915009
 30
0.0
 10
13.7519455712
 20
10.1478794198
 30
0.0
 10
13.751221684
 20
10.0931473233
 30
0.0
 10
13.7497890622
 20
10.0379269969
 30
0.0
 10
13.7476511224
 20
9.9823514075
 30
0.0
 10
13.7448129894
 20
9.9265543819
 30
0.0
 10
13.7412814839
 20
9.8706702823
 30
0.0
 10
13.7370651054
 20
9.8148336815
 30
0.0
 10
13.7321740118
 20
9.7591790371
 30
0.0
 10
13.7266199948
 20
9.7038403668
 30
0.0
 10
13.7204164513
 20
9.6489509233
 30
0.0
 10
13.7135783521
 20
9.5946428724
 30
0.0
 10
13.7061222055
 20
9.5410469726
 30
0.0
 10
13.6980660182
 20
9.4882922578
 30
0.0
 10
13.6894292525
 20
9.4365057243
 30
0.0
 10
13.6802327806
 20
9.3858120213
 30
0.0
 10
13.6704988342
 20
9.3363331477
 30
0.0
 10
13.6602509526
 20
9.288188152
 30
0.0
 10
13.6495139262
 20
9.2414928423
 30
0.0
 10
13.6383137381
 20
9.1963594903
 30
0.0
 10
13.6266774996
 20
9.152896582
 30
0.0
 10
13.6146333909
 20
9.1112084327
 30
0.0
 10
13.6022105666
 20
9.0713953046
 30
0.0
 10
13.5914458006
 20
9.0394977366
 30
0.0
 10
13.5826528557
 20
9.0150008376
 30
0.0
 10
13.5760593929
 20
8.9973703694
 30
0.0
 10
13.5693940211
 20
8.9802775923
 30
0.0
 10
13.5626607695
 20
8.963732747
 30
0.0
 10
13.5558636508
 20
8.9477457795
 30
0.0
 10
13.5490068156
 20
8.9323262657
 30
0.0
 10
13.5420943276
 20
8.9174834641
 30
0.0
 10
13.5351304128
 20
8.9032262454
 30
0.0
 10
13.5281191806
 20
8.8895631602
 30
0.0
 10
13.5210649148
 20
8.8765023469
 30
0.0
 10
13.513971754
 20
8.8640516259
 30
0.0
 10
13.5068440208
 20
8.8522183784
 30
0.0
 10
13.4996858611
 20
8.8410096751
 30
0.0
 10
13.4925016107
 20
8.8304321178
 30
0.0
 10
13.4852953938
 20
8.8204920136
 30
0.0
 10
13.4780715237
 20
8.8111951703
 30
0.0
 10
13.4708340638
 20
8.8025471296
 30
0.0
 10
13.4635872563
 20
8.7945529079
 30
0.0
 10
13.4563350546
 20
8.7872173069
 30
0.0
 10
13.4490815728
 20
8.7805445926
 30
0.0
 10
13.4418306091
 20
8.7745389046
 30
0.0
 10
13.4345861128
 20
8.7692038679
 30
0.0
 10
13.4273517418
 20
8.7645431188
 30
0.0
 10
13.4201313496
 20
8.7605598322
 30
0.0
 10
13.4129286545
 20
8.7572573457
 30
0.0
 10
13.4057477168
 20
8.7546385467
 30
0.0
 10
13.3985928585
 20
8.7527064877
 30
0.0
 10
13.3914686853
 20
8.751463559
 30
0.0
 10
13.3843813855
 20
8.7509118938
 30
0.0
 10
13.3796757921
 20
8.7510059238
 30
0.0
 10
13.3773430777
 20
8.7511677039
 30
0.0
  0
SPLINE
  5
395
100
AcDbEntity
  8
0
100
AcDbSpline
 62
7
  6
CONTINUOUS
 70
0
 71
3
 72
53
 73
49
 74
0
 42
0.0000001
 43
0.0000001
 44
0.0000000001
 40
0.0
 40
0.0
 40
0.0
 40
0.0
 40
0.049977977
 40
0.0993158238
 40
0.1479275978
 40
0.1957333188
 40
0.2426525021
 40
0.2886074965
 40
0.3335228209
 40
0.3773254927
 40
0.4199453107
 40
0.4613150708
 40
0.5013708891
 40
0.5400525146
 40
0.5773036508
 40
0.613072349
 40
0.6473114751
 40
0.6799793005
 40
0.7110401649
 40
0.7404652901
 40
0.7545581649
 40
0.7682350653
 40
0.7814947995
 40
0.7943369973
 40
0.806761939
 40
0.8187707847
 40
0.8303656606
 40
0.8415496191
 40
0.8523269935
 40
0.8627033118
 40
0.8726855735
 40
0.8822824605
 40
0.89150438
 40
0.9003639132
 40
0.9088758729
 40
0.9170576435
 40
0.9249294973
 40
0.9325146981
 40
0.9398398849
 40
0.9469350776
 40
0.9538337363
 40
0.9605726625
 40
0.9671915756
 40
0.9737326422
 40
0.9802396701
 40
0.9867572209
 40
0.9933296157
 40
1.0
 40
1.0
 40
1.0
 40
1.0
 10
13.6473791539
 20
10.1069497711
 30
0.0
 10
13.6473791539
 20
10.1186962099
 30
0.0
 10
13.6472461656
 20
10.1420388739
 30
0.0
 10
13.6466401586
 20
10.1768021376
 30
0.0
 10
13.6456298559
 20
10.2110453161
 30
0.0
 10
13.6442172232
 20
10.2447053333
 30
0.0
 10
13.6424048235
 20
10.2777208973
 30
0.0
 10
13.6401960344
 20
10.3100314838
 30
0.0
 10
13.6375949499
 20
10.3415780199
 30
0.0
 10
13.6346063866
 20
10.3723028123
 30
0.0
 10
13.6312358773
 20
10.4021496796
 30
0.0
 10
13.6274896514
 20
10.4310640651
 30
0.0
 10
13.6233746413
 20
10.4589931429
 30
0.0
 10
13.6188984704
 20
10.4858859264
 30
0.0
 10
13.6140694221
 20
10.5116933566
 30
0.0
 10
13.6088964296
 20
10.536368405
 30
0.0
 10
13.603389046
 20
10.5598661439
 30
0.0
 10
13.5975574486
 20
10.582143976
 30
0.0
 10
13.5914123784
 20
10.6031613146
 30
0.0
 10
13.585964199
 20
10.6198253922
 30
0.0
 10
13.5814448411
 20
10.6324862745
 30
0.0
 10
13.5780328556
 20
10.6415064028
 30
0.0
 10
13.5745510909
 20
10.650183912
 30
0.0
 10
13.571001169
 20
10.6585148971
 30
0.0
 10
13.5673846648
 20
10.6664955681
 30
0.0
 10
13.5637032069
 20
10.674122311
 30
0.0
 10
13.5599585058
 20
10.6813917013
 30
0.0
 10
13.5561521545
 20
10.6883004282
 30
0.0
 10
13.5522859229
 20
10.6948454154
 30
0.0
 10
13.5483614768
 20
10.7010237087
 30
0.0
 10
13.5443805102
 20
10.7068325216
 30
0.0
 10
13.5403448062
 20
10.7122692882
 30
0.0
 10
13.5362559865
 20
10.7173315027
 30
0.0
 10
13.5321158362
 20
10.7220169219
 30
0.0
 10
13.5279260267
 20
10.726323381
 30
0.0
 10
13.5236882208
 20
10.7302488247
 30
0.0
 10
13.519404186
 20
10.7337914241
 30
0.0
 10
13.5150755401
 20
10.7369492722
 30
0.0
 10
13.5107040936
 20
10.7397207128
 30
0.0
 10
13.506291647
 20
10.7421040819
 30
0.0
 10
13.5018401113
 20
10.7440977412
 30
0.0
 10
13.4973516448
 20
10.7457003625
 30
0.0
 10
13.4928284982
 20
10.7469105299
 30
0.0
 10
13.4882732082
 20
10.7477273068
 30
0.0
 10
13.4836884673
 20
10.7481500038
 30
0.0
 10
13.4790769567
 20
10.7481782047
 30
0.0
 10
13.4744418342
 20
10.747812239
 30
0.0
 10
13.4713659841
 20
10.7473102915
 30
0.0
 10
13.4698299021
 20
10.7469967469
 30
0.0
  0
SPLINE
  5
396
100
AcDbEntity
  8
0
100
AcDbSpline
 62
7
  6
CONTINUOUS
 70
0
 71
3
 72
11
 73
7
 74
0
 42
0.0000001
 43
0.0000001
 44
0.0000000001
 40
0.0
 40
0.0
 40
0.0
 40
0.0
 40
0.2485821051
 40
0.498090461
 40
0.7485573928
 40
1.0
 40
1.0
 40
1.0
 40
1.0
 10
11.1395038242
 20
9.4842948151
 30
0.0
 10
11.1369306588
 20
9.4732367497
 30
0.0
 10
11.1324176803
 20
9.4509243177
 30
0.0
 10
11.1275777816
 20
9.4170614828
 30
0.0
 10
11.1246691627
 20
9.382847431
 30
0.0
 10
11.1240251081
 20
9.3599183806
 30
0.0
 10
11.1240251081
 20
9.3484342315
 30
0.0
  0
SPLINE
  5
397
100
AcDbEntity
  8
0
100
AcDbSpline
 62
7
  6
CONTINUOUS
 70
0
 71
3
 72
34
 73
30
 74
0
 42
0.0000001
 43
0.0000001
 44
0.0000000001
 40
0.0
 40
0.0
 40
0.0
 40
0.0
 40
0.0853044463
 40
0.1688225602
 40
0.2502301712
 40
0.3292123027
 40
0.4054681588
 40
0.4424844145
 40
0.4787133727
 40
0.5141220475
 40
0.5486788166
 40
0.5823533623
 40
0.6151167861
 40
0.64694184
 40
0.6778028116
 40
0.7076759356
 40
0.7365393156
 40
0.7643732082
 40
0.7911602863
 40
0.8168856772
 40
0.8415375566
 40
0.8651072056
 40
0.8875896391
 40
0.9089841009
 40
0.9292945809
 40
0.9485309005
 40
0.9667094095
 40
0.9838544958
 40
1.0
 40
1.0
 40
1.0
 40
1.0
 10
13.504511041
 20
10.1069497629
 30
0.0
 10
13.504511041
 20
10.1240016725
 30
0.0
 10
13.5042196189
 20
10.1577492431
 30
0.0
 10
13.5028829024
 20
10.2077537895
 30
0.0
 10
13.5006566436
 20
10.2564619783
 30
0.0
 10
13.4975504547
 20
10.3036673352
 30
0.0
 10
13.4942079791
 20
10.3419558364
 30
0.0
 10
13.4910892928
 20
10.3716777404
 30
0.0
 10
13.4885627281
 20
10.3932501948
 30
0.0
 10
13.4858282063
 20
10.4143016181
 30
0.0
 10
13.4828886484
 20
10.4348097368
 30
0.0
 10
13.479747194
 20
10.4547528285
 30
0.0
 10
13.4764071664
 20
10.4741097833
 30
0.0
 10
13.4728721827
 20
10.4928601187
 30
0.0
 10
13.4691459513
 20
10.5109840023
 30
0.0
 10
13.4652325
 20
10.5284622804
 30
0.0
 10
13.4611359769
 20
10.545276494
 30
0.0
 10
13.4568607333
 20
10.5614089018
 30
0.0
 10
13.4524113693
 20
10.576842512
 30
0.0
 10
13.4477925398
 20
10.5915610806
 30
0.0
 10
13.4430092139
 20
10.605549171
 30
0.0
 10
13.4380663958
 20
10.6187921351
 30
0.0
 10
13.4329692842
 20
10.6312761613
 30
0.0
 10
13.4277232367
 20
10.642988297
 30
0.0
 10
13.4223335724
 20
10.6539164337
 30
0.0
 10
13.4168058862
 20
10.664049351
 30
0.0
 10
13.4111454606
 20
10.6733768369
 30
0.0
 10
13.4053581744
 20
10.681888965
 30
0.0
 10
13.401299839
 20
10.6871692965
 30
0.0
 10
13.3992476495
 20
10.6896602074
 30
0.0
  0
SPLINE
  5
398
100
AcDbEntity
  8
0
100
AcDbSpline
 62
7
  6
CONTINUOUS
 70
0
 71
3
 72
31
 73
27
 74
0
 42
0.0000001
 43
0.0000001
 44
0.0000000001
 40
0.0
 40
0.0
 40
0.0
 40
0.0
 40
0.08176658
 40
0.1620000129
 40
0.2404409944
 40
0.3168370339
 40
0.3909454464
 40
0.4625338926
 40
0.5313821335
 40
0.5972835347
 40
0.6290694961
 40
0.6600483706
 40
0.6901991141
 40
0.7195017456
 40
0.7479378086
 40
0.7754901271
 40
0.8021432425
 40
0.82788328
 40
0.8526983286
 40
0.8765784768
 40
0.899516124
 40
0.9215062383
 40
0.9425466197
 40
0.9626384291
 40
0.981786462
 40
1.0
 40
1.0
 40
1.0
 40
1.0
 10
13.4450827392
 20
10.0980694394
 30
0.0
 10
13.4450827392
 20
10.1127020712
 30
0.0
 10
13.4448543477
 20
10.1416935532
 30
0.0
 10
13.4438084817
 20
10.1847111589
 30
0.0
 10
13.4420660535
 20
10.226744537
 30
0.0
 10
13.4396333402
 20
10.2676457728
 30
0.0
 10
13.43651912
 20
10.3072710145
 30
0.0
 10
13.4327346034
 20
10.3454810785
 30
0.0
 10
13.4282933448
 20
10.382141554
 30
0.0
 10
13.4240085218
 20
10.411637944
 30
0.0
 10
13.4202489775
 20
10.4343551701
 30
0.0
 10
13.4173093649
 20
10.4507216488
 30
0.0
 10
13.4142185928
 20
10.4666077705
 30
0.0
 10
13.4109792826
 20
10.4819995996
 30
0.0
 10
13.4075943868
 20
10.4968836162
 30
0.0
 10
13.404066826
 20
10.5112467588
 30
0.0
 10
13.4003997819
 20
10.5250764363
 30
0.0
 10
13.3965964424
 20
10.5383605313
 30
0.0
 10
13.3926602005
 20
10.5510874258
 30
0.0
 10
13.3885945013
 20
10.5632460018
 30
0.0
 10
13.3844029215
 20
10.5748256592
 30
0.0
 10
13.380089142
 20
10.5858163376
 30
0.0
 10
13.3756568968
 20
10.5962084826
 30
0.0
 10
13.3711100351
 20
10.6059931999
 30
0.0
 10
13.3664525117
 20
10.6151618255
 30
0.0
 10
13.3631954499
 20
10.6210034725
 30
0.0
 10
13.3615461221
 20
10.6238148006
 30
0.0
  0
SPLINE
  5
399
100
AcDbEntity
  8
0
100
AcDbSpline
 62
7
  6
CONTINUOUS
 70
0
 71
3
 72
41
 73
37
 74
0
 42
0.0000001
 43
0.0000001
 44
0.0000000001
 40
0.0
 40
0.0
 40
0.0
 40
0.0
 40
0.0302662093
 40
0.0454436825
 40
0.0606503944
 40
0.0911499791
 40
0.1217704871
 40
0.1371279292
 40
0.152515731
 40
0.1833785845
 40
0.2143597119
 40
0.2454551511
 40
0.276659497
 40
0.3079659837
 40
0.3393665824
 40
0.3708521104
 40
0.4024123531
 40
0.4340361944
 40
0.4657117558
 40
0.4974265417
 40
0.5291675912
 40
0.5609216321
 40
0.5926752387
 40
0.6244149905
 40
0.6561276306
 40
0.6878002234
 40
0.7194203089
 40
0.7509760533
 40
0.7824563948
 40
0.8138511811
 40
0.8451513018
 40
0.8763488026
 40
0.9074370139
 40
0.9384105913
 40
0.9692657371
 40
1.0
 40
1.0
 40
1.0
 40
1.0
 10
11.8950437751
 20
8.7021085798
 30
0.0
 10
11.8837196545
 20
8.6998839974
 30
0.0
 10
11.866612678
 20
8.6970454111
 30
0.0
 10
11.8436521855
 20
8.6942635492
 30
0.0
 10
11.8205310254
 20
8.6921439687
 30
0.0
 10
11.791443528
 20
8.6907521455
 30
0.0
 10
11.7622669305
 20
8.6910389417
 30
0.0
 10
11.7388977406
 20
8.6922707855
 30
0.0
 10
11.71548102
 20
8.6941749517
 30
0.0
 10
11.6862405655
 20
8.6978111659
 30
0.0
 10
11.6513573842
 20
8.704159222
 30
0.0
 10
11.616756073
 20
8.7124754555
 30
0.0
 10
11.5825504616
 20
8.7227325131
 30
0.0
 10
11.5488521494
 20
8.7348967587
 30
0.0
 10
11.5157713137
 20
8.7489283238
 30
0.0
 10
11.4834160372
 20
8.7647812558
 30
0.0
 10
11.451892043
 20
8.7824036635
 30
0.0
 10
11.4213023288
 20
8.8017378884
 30
0.0
 10
11.3917468393
 20
8.8227206925
 30
0.0
 10
11.3633221405
 20
8.8452834641
 30
0.0
 10
11.3361211066
 20
8.8693524412
 30
0.0
 10
11.3102326186
 20
8.8948489517
 30
0.0
 10
11.2857412759
 20
8.9216896684
 30
0.0
 10
11.2627271213
 20
8.9497868808
 30
0.0
 10
11.2412653811
 20
8.9790487788
 30
0.0
 10
11.2214262205
 20
9.0093797516
 30
0.0
 10
11.2032745154
 20
9.0406806978
 30
0.0
 10
11.186869641
 20
9.0728493467
 30
0.0
 10
11.1722652791
 20
9.1057805898
 30
0.0
 10
11.1595092407
 20
9.1393668243
 30
0.0
 10
11.1486433147
 20
9.1734982894
 30
0.0
 10
11.1397031191
 20
9.2080634719
 30
0.0
 10
11.1327180085
 20
9.2429492796
 30
0.0
 10
11.1277109284
 20
9.278042099
 30
0.0
 10
11.1246984151
 20
9.3132256533
 30
0.0
 10
11.1240251081
 20
9.336715204
 30
0.0
 10
11.1240251081
 20
9.3484342315
 30
0.0
  0
SPLINE
  5
39A
100
AcDbEntity
  8
0
100
AcDbSpline
 62
7
  6
CONTINUOUS
 70
0
 71
3
 72
11
 73
7
 74
0
 42
0.0000001
 43
0.0000001
 44
0.0000000001
 40
0.0
 40
0.0
 40
0.0
 40
0.0
 40
0.2485821051
 40
0.498090461
 40
0.7485573928
 40
1.0
 40
1.0
 40
1.0
 40
1.0
 10
9.5708401194
 20
7.7819709809
 30
0.0
 10
9.5682669539
 20
7.7709129155
 30
0.0
 10
9.5637539755
 20
7.7486004835
 30
0.0
 10
9.5589140768
 20
7.7147376486
 30
0.0
 10
9.5560054578
 20
7.6805235968
 30
0.0
 10
9.5553614033
 20
7.6575945464
 30
0.0
 10
9.5553614033
 20
7.6461103973
 30
0.0
  0
SPLINE
  5
39B
100
AcDbEntity
  8
0
100
AcDbSpline
 62
7
  6
CONTINUOUS
 70
0
 71
3
 72
9
 73
5
 74
0
 42
0.0000001
 43
0.0000001
 44
0.0000000001
 40
0.0
 40
0.0
 40
0.0
 40
0.0
 40
0.4942811959
 40
1.0
 40
1.0
 40
1.0
 40
1.0
 10
13.3618515598
 20
6.2183402948
 30
0.0
 10
13.3639918911
 20
6.2186479687
 30
0.0
 10
13.3682972027
 20
6.2194557262
 30
0.0
 10
13.3725220207
 20
6.2206104462
 30
0.0
 10
13.3746323688
 20
6.2212745285
 30
0.0
  0
SPLINE
  5
39C
100
AcDbEntity
  8
0
100
AcDbSpline
 62
7
  6
CONTINUOUS
 70
0
 71
3
 72
85
 73
81
 74
0
 42
0.0000001
 43
0.0000001
 44
0.0000000001
 40
0.0
 40
0.0
 40
0.0
 40
0.0
 40
0.0026458694
 40
0.0053092812
 40
0.0080074052
 40
0.0107567015
 40
0.0135726387
 40
0.0164695182
 40
0.0225536346
 40
0.02576594
 40
0.0291032129
 40
0.0325733289
 40
0.0361830516
 40
0.0399381875
 40
0.0438436158
 40
0.0479034521
 40
0.052121083
 40
0.0564992651
 40
0.0610402093
 40
0.0657455916
 40
0.07061668
 40
0.0756542997
 40
0.080858942
 40
0.0862307594
 40
0.0917695979
 40
0.0974750598
 40
0.1033464598
 40
0.1093829262
 40
0.1155833424
 40
0.1284703496
 40
0.1419953663
 40
0.1561433584
 40
0.1708970461
 40
0.1862371437
 40
0.2021425555
 40
0.2185905425
 40
0.2355568721
 40
0.2530159464
 40
0.2709409177
 40
0.2893037929
 40
0.3080755308
 40
0.327226131
 40
0.3467247235
 40
0.3665396541
 40
0.3866385659
 40
0.4069884782
 40
0.4275558639
 40
0.4483067257
 40
0.469206672
 40
0.4902209941
 40
0.511314741
 40
0.5535993523
 40
0.5957794562
 40
0.6167427815
 40
0.6375749
 40
0.6582412483
 40
0.6787076165
 40
0.6989402239
 40
0.7189057966
 40
0.7385716461
 40
0.7579057466
 40
0.7768768149
 40
0.7954543921
 40
0.8136089295
 40
0.8313118776
 40
0.848535785
 40
0.8652543967
 40
0.8814427623
 40
0.8970773572
 40
0.9121362175
 40
0.9265990967
 40
0.9404476513
 40
0.9536656501
 40
0.9662392782
 40
0.9722810355
 40
0.9781577208
 40
0.9838685131
 40
0.9894128447
 40
0.9947901843
 40
1.0
 40
1.0
 40
1.0
 40
1.0
 10
13.5353601927
 20
8.4941395423
 30
0.0
 10
13.5373631222
 20
8.4940006337
 30
0.0
 10
13.5413725009
 20
8.4935516442
 30
0.0
 10
13.5473394689
 20
8.4923699263
 30
0.0
 10
13.5532647066
 20
8.4906799696
 30
0.0
 10
13.5591444387
 20
8.4884832071
 30
0.0
 10
13.5649762426
 20
8.4857811948
 30
0.0
 10
13.5728106609
 20
8.4814373131
 30
0.0
 10
13.5804189117
 20
8.4761192569
 30
0.0
 10
13.5877701189
 20
8.4699611708
 30
0.0
 10
13.5933246487
 20
8.4647634644
 30
0.0
 10
13.5988164932
 20
8.4590738396
 30
0.0
 10
13.6042442143
 20
8.4528944848
 30
0.0
 10
13.609605352
 20
8.4462282029
 30
0.0
 10
13.614897879
 20
8.4390779588
 30
0.0
 10
13.620119517
 20
8.431446838
 30
0.0
 10
13.6252681163
 20
8.4233381874
 30
0.0
 10
13.6303415073
 20
8.4147555448
 30
0.0
 10
13.6353374592
 20
8.4057026303
 30
0.0
 10
13.6402539022
 20
8.3961834336
 30
0.0
 10
13.6450886045
 20
8.3862020859
 30
0.0
 10
13.6498395344
 20
8.3757629928
 30
0.0
 10
13.6545045593
 20
8.3648707235
 30
0.0
 10
13.659081632
 20
8.3535300739
 30
0.0
 10
13.663568766
 20
8.3417460468
 30
0.0
 10
13.6679639124
 20
8.3295238252
 30
0.0
 10
13.672265196
 20
8.316868826
 30
0.0
 10
13.6764706666
 20
8.3037866109
 30
0.0
 10
13.6820191555
 20
8.2855466672
 30
0.0
 10
13.6886846239
 20
8.2617103855
 30
0.0
 10
13.6961730287
 20
8.231854147
 30
0.0
 10
13.7032372159
 20
8.2004414066
 30
0.0
 10
13.7098645409
 20
8.1675278274
 30
0.0
 10
13.7160431038
 20
8.133171507
 30
0.0
 10
13.7217618123
 20
8.0974332622
 30
0.0
 10
13.727010402
 20
8.0603763933
 30
0.0
 10
13.7317794501
 20
8.0220665904
 30
0.0
 10
13.7360603939
 20
7.9825717962
 30
0.0
 10
13.7398455456
 20
7.9419620814
 30
0.0
 10
13.7431281062
 20
7.9003095157
 30
0.0
 10
13.7459021755
 20
7.8576880392
 30
0.0
 10
13.7481627691
 20
7.8141733286
 30
0.0
 10
13.749905823
 20
7.7698426597
 30
0.0
 10
13.7511281975
 20
7.7247747649
 30
0.0
 10
13.7518276827
 20
7.6790496917
 30
0.0
 10
13.7520030026
 20
7.6327486595
 30
0.0
 10
13.7516538149
 20
7.5859539172
 30
0.0
 10
13.7507807177
 20
7.5387485903
 30
0.0
 10
13.7493852389
 20
7.4912165586
 30
0.0
 10
13.7474698757
 20
7.4434422037
 30
0.0
 10
13.7442247668
 20
7.3794845572
 30
0.0
 10
13.7388991695
 20
7.2995555311
 30
0.0
 10
13.73190213
 20
7.2198547209
 30
0.0
 10
13.7253134869
 20
7.1564728329
 30
0.0
 10
13.7199046722
 20
7.1093841831
 30
0.0
 10
13.7140283792
 20
7.0627316667
 30
0.0
 10
13.7076950253
 20
7.0165981037
 30
0.0
 10
13.7009158945
 20
6.9710654608
 30
0.0
 10
13.6937030549
 20
6.9262146127
 30
0.0
 10
13.6860693573
 20
6.8821252199
 30
0.0
 10
13.6780284019
 20
6.8388755809
 30
0.0
 10
13.669594517
 20
6.7965424952
 30
0.0
 10
13.6607827334
 20
6.7552011256
 30
0.0
 10
13.6516087583
 20
6.7149248625
 30
0.0
 10
13.6420889461
 20
6.6757851889
 30
0.0
 10
13.6322402772
 20
6.6378515458
 30
0.0
 10
13.622080321
 20
6.6011912063
 30
0.0
 10
13.6116272039
 20
6.565869153
 30
0.0
 10
13.6008995762
 20
6.5319479601
 30
0.0
 10
13.5899165767
 20
6.4994876633
 30
0.0
 10
13.5786977964
 20
6.4685456745
 30
0.0
 10
13.5672632252
 20
6.4391765437
 30
0.0
 10
13.5556332591
 20
6.4114322424
 30
0.0
 10
13.5456680077
 20
6.3894233696
 30
0.0
 10
13.5376008372
 20
6.3726796306
 30
0.0
 10
13.5315950015
 20
6.3607254101
 30
0.0
 10
13.5255558211
 20
6.3492125614
 30
0.0
 10
13.5194858661
 20
6.3381460978
 30
0.0
 10
13.5133880099
 20
6.3275312328
 30
0.0
 10
13.509240454
 20
6.3206500222
 30
0.0
 10
13.507161272
 20
6.3172876257
 30
0.0
  0
SPLINE
  5
39D
100
AcDbEntity
  8
0
100
AcDbSpline
 62
7
  6
CONTINUOUS
 70
0
 71
3
 72
81
 73
77
 74
0
 42
0.0000001
 43
0.0000001
 44
0.0000000001
 40
0.0
 40
0.0
 40
0.0
 40
0.0
 40
0.0051371815
 40
0.0104362255
 40
0.0158966313
 40
0.021517893
 40
0.0332402677
 40
0.0455966296
 40
0.0585765421
 40
0.0721671561
 40
0.0863533514
 40
0.101118019
 40
0.1164422636
 40
0.1323055727
 40
0.1486859628
 40
0.1655601045
 40
0.1829034313
 40
0.2006902415
 40
0.218893796
 40
0.2374864055
 40
0.2564395123
 40
0.2757237683
 40
0.2953091076
 40
0.3151648222
 40
0.3352596361
 40
0.3555617754
 40
0.3760390377
 40
0.3966588599
 40
0.4381939739
 40
0.4799025712
 40
0.5215181192
 40
0.5627748367
 40
0.5831866145
 40
0.6034104689
 40
0.6234143569
 40
0.6431666919
 40
0.6626364164
 40
0.6817930707
 40
0.7006068648
 40
0.7190487524
 40
0.7370905066
 40
0.7547048037
 40
0.7718653087
 40
0.7885467615
 40
0.8047250723
 40
0.8203774268
 40
0.8354824037
 40
0.8500201136
 40
0.8639723522
 40
0.8773227772
 40
0.8900571258
 40
0.9021634802
 40
0.9079783512
 40
0.913633019
 40
0.9191268009
 40
0.9244592683
 40
0.9296302317
 40
0.9346397571
 40
0.93948824
 40
0.9441763624
 40
0.9487052067
 40
0.9530762344
 40
0.9572913593
 40
0.9613530144
 40
0.9652641613
 40
0.9690284301
 40
0.9726501228
 40
0.9761343469
 40
0.9794870864
 40
0.9827152758
 40
0.985826937
 40
0.9888312038
 40
0.9917384392
 40
0.9945602371
 40
0.9973094231
 40
1.0
 40
1.0
 40
1.0
 40
1.0
 10
13.4762516429
 20
6.3194312157
 30
0.0
 10
13.4782875069
 20
6.3227235593
 30
0.0
 10
13.4823489375
 20
6.3294582734
 30
0.0
 10
13.488322633
 20
6.3398416376
 30
0.0
 10
13.4942697079
 20
6.3506584844
 30
0.0
 10
13.5022719926
 20
6.3658655221
 30
0.0
 10
13.5121732596
 20
6.3859404645
 30
0.0
 10
13.5237482374
 20
6.4113569975
 30
0.0
 10
13.5351571854
 20
6.4383831095
 30
0.0
 10
13.5463806177
 20
6.4669728927
 30
0.0
 10
13.5573993681
 20
6.4970781345
 30
0.0
 10
13.5681945981
 20
6.5286478138
 30
0.0
 10
13.5787478385
 20
6.5616283863
 30
0.0
 10
13.5890410283
 20
6.5959638458
 30
0.0
 10
13.5990565501
 20
6.6315958418
 30
0.0
 10
13.6087772598
 20
6.6684637811
 30
0.0
 10
13.6181865228
 20
6.7065049329
 30
0.0
 10
13.6272682452
 20
6.7456545411
 30
0.0
 10
13.6360068931
 20
6.7858459439
 30
0.0
 10
13.6443875222
 20
6.8270106931
 30
0.0
 10
13.6523958021
 20
6.8690786723
 30
0.0
 10
13.6600180386
 20
6.9119782148
 30
0.0
 10
13.6672412056
 20
6.9556362259
 30
0.0
 10
13.6740529627
 20
6.999978308
 30
0.0
 10
13.6804416763
 20
7.044928899
 30
0.0
 10
13.6863964224
 20
7.0904113778
 30
0.0
 10
13.6919070717
 20
7.1363482875
 30
0.0
 10
13.698665807
 20
7.1982460803
 30
0.0
 10
13.705933809
 20
7.2761769718
 30
0.0
 10
13.7127350689
 20
7.3700208957
 30
0.0
 10
13.7175900594
 20
7.4637755887
 30
0.0
 10
13.719995344
 20
7.5415709774
 30
0.0
 10
13.7209109062
 20
7.6032724333
 30
0.0
 10
13.7210920999
 20
7.6489659191
 30
0.0
 10
13.7207700822
 20
7.6941616971
 30
0.0
 10
13.7199453892
 20
7.738782802
 30
0.0
 10
13.7186194711
 20
7.7827531756
 30
0.0
 10
13.716794623
 20
7.8259978962
 30
0.0
 10
13.7144739972
 20
7.868443279
 30
0.0
 10
13.711661595
 20
7.9100170079
 30
0.0
 10
13.7083622592
 20
7.9506482603
 30
0.0
 10
13.7045816722
 20
7.9902678343
 30
0.0
 10
13.7003263495
 20
8.0288082706
 30
0.0
 10
13.6956036204
 20
8.0662039683
 30
0.0
 10
13.6904216174
 20
8.1023912971
 30
0.0
 10
13.6847892627
 20
8.1373087111
 30
0.0
 10
13.6787162495
 20
8.170896861
 30
0.0
 10
13.6722130339
 20
8.2030987202
 30
0.0
 10
13.6652908097
 20
8.2338596584
 30
0.0
 10
13.657961484
 20
8.2631276724
 30
0.0
 10
13.650237624
 20
8.2908530449
 30
0.0
 10
13.6433946514
 20
8.3129198988
 30
0.0
 10
13.6377185478
 20
8.3297542847
 30
0.0
 10
13.6334283497
 20
8.3417956569
 30
0.0
 10
13.6290496093
 20
8.3534174908
 30
0.0
 10
13.6245841773
 20
8.3646148878
 30
0.0
 10
13.6200339676
 20
8.3753831129
 30
0.0
 10
13.6154008488
 20
8.3857176022
 30
0.0
 10
13.610686855
 20
8.3956140215
 30
0.0
 10
13.6058938794
 20
8.405068175
 30
0.0
 10
13.6010239927
 20
8.4140761111
 30
0.0
 10
13.5960791917
 20
8.4226340417
 30
0.0
 10
13.5910614943
 20
8.4307383673
 30
0.0
 10
13.58597302
 20
8.4383857311
 30
0.0
 10
13.5808157337
 20
8.4455728807
 30
0.0
 10
13.5755917924
 20
8.4522968594
 30
0.0
 10
13.5703031888
 20
8.4585547989
 30
0.0
 10
13.5649519974
 20
8.4643440518
 30
0.0
 10
13.5595402979
 20
8.469662156
 30
0.0
 10
13.5540700575
 20
8.4745066893
 30
0.0
 10
13.5485434249
 20
8.4788755279
 30
0.0
 10
13.5429623761
 20
8.4827664686
 30
0.0
 10
13.5373291378
 20
8.4861775521
 30
0.0
 10
13.5316457835
 20
8.4891068952
 30
0.0
 10
13.5259151568
 20
8.4915524878
 30
0.0
 10
13.5220290515
 20
8.4928714821
 30
0.0
 10
13.5200847715
 20
8.4934460287
 30
0.0
  0
SPLINE
  5
39E
100
AcDbEntity
  8
0
100
AcDbSpline
 62
7
  6
CONTINUOUS
 70
0
 71
3
 72
11
 73
7
 74
0
 42
0.0000001
 43
0.0000001
 44
0.0000000001
 40
0.0
 40
0.0
 40
0.0
 40
0.0
 40
0.2574089079
 40
0.5085363058
 40
0.7553602742
 40
1.0
 40
1.0
 40
1.0
 40
1.0
 10
13.4055419978
 20
6.2191309385
 30
0.0
 10
13.4032032108
 20
6.2183949712
 30
0.0
 10
13.3985183879
 20
6.2171353211
 30
0.0
 10
13.3914196363
 20
6.2159027328
 30
0.0
 10
13.3843569712
 20
6.215356507
 30
0.0
 10
13.3796678649
 20
6.2154510215
 30
0.0
 10
13.3773432263
 20
6.2156122466
 30
0.0
  0
SPLINE
  5
39F
100
AcDbEntity
  8
0
100
AcDbSpline
 62
7
  6
CONTINUOUS
 70
0
 71
3
 72
55
 73
51
 74
0
 42
0.0000001
 43
0.0000001
 44
0.0000000001
 40
0.0
 40
0.0
 40
0.0
 40
0.0
 40
0.0427960547
 40
0.0861063967
 40
0.1297874194
 40
0.1736931635
 40
0.2176771166
 40
0.2615923
 40
0.3052920645
 40
0.3486306656
 40
0.3914639002
 40
0.4336497335
 40
0.4750489352
 40
0.5155257275
 40
0.5549484447
 40
0.5931902178
 40
0.6301296918
 40
0.6656517933
 40
0.6828476146
 40
0.6996492339
 40
0.7160444347
 40
0.7320215716
 40
0.7475695872
 40
0.7626781258
 40
0.7773374682
 40
0.7915387359
 40
0.8052737858
 40
0.8185354544
 40
0.8313174886
 40
0.843614768
 40
0.8554233487
 40
0.8667406285
 40
0.8775655537
 40
0.88789874
 40
0.8977428613
 40
0.9071027935
 40
0.9159861746
 40
0.9244036901
 40
0.932369777
 40
0.9399031696
 40
0.9470277158
 40
0.9537731914
 40
0.9601760989
 40
0.9662804498
 40
0.9721380756
 40
0.9778085542
 40
0.9833581507
 40
0.9888579632
 40
0.9943811817
 40
1.0
 40
1.0
 40
1.0
 40
1.0
 10
13.6473791539
 20
7.5713943269
 30
0.0
 10
13.6473791539
 20
7.5547914299
 30
0.0
 10
13.6471103066
 20
7.5213855561
 30
0.0
 10
13.6459225815
 20
7.4710461517
 30
0.0
 10
13.6439517334
 20
7.4203004005
 30
0.0
 10
13.6412047069
 20
7.369329098
 30
0.0
 10
13.6376912833
 20
7.3183138239
 30
0.0
 10
13.6334239657
 20
7.2674362579
 30
0.0
 10
13.6284179779
 20
7.2168776104
 30
0.0
 10
13.6226911912
 20
7.1668179403
 30
0.0
 10
13.6162640682
 20
7.1174355192
 30
0.0
 10
13.6091595891
 20
7.0689061868
 30
0.0
 10
13.6014031718
 20
7.0214027204
 30
0.0
 10
13.5930225856
 20
6.9750942021
 30
0.0
 10
13.5840478488
 20
6.9301454333
 30
0.0
 10
13.5745111374
 20
6.8867162366
 30
0.0
 10
13.5644466264
 20
6.844961213
 30
0.0
 10
13.5555564651
 20
6.8113300965
 30
0.0
 10
13.5481938457
 20
6.7853835247
 30
0.0
 10
13.5426224687
 20
6.7666436052
 30
0.0
 10
13.5369469637
 20
6.748429573
 30
0.0
 10
13.5311723734
 20
6.73075761
 30
0.0
 10
13.5253038319
 20
6.7136434373
 30
0.0
 10
13.5193466275
 20
6.6971022563
 30
0.0
 10
13.5133060106
 20
6.6811487708
 30
0.0
 10
13.5071874493
 20
6.6657971276
 30
0.0
 10
13.5009963203
 20
6.6510609576
 30
0.0
 10
13.494738215
 20
6.6369533001
 30
0.0
 10
13.4884186455
 20
6.6234866509
 30
0.0
 10
13.482043266
 20
6.6106728962
 30
0.0
 10
13.4756177193
 20
6.5985233337
 30
0.0
 10
13.4691476669
 20
6.5870486543
 30
0.0
 10
13.4626388495
 20
6.5762588973
 30
0.0
 10
13.4560968842
 20
6.5661635192
 30
0.0
 10
13.4495275346
 20
6.5567712554
 30
0.0
 10
13.4429363192
 20
6.5480902942
 30
0.0
 10
13.4363288914
 20
6.5401280629
 30
0.0
 10
13.4297105967
 20
6.532891478
 30
0.0
 10
13.4230867958
 20
6.5263867505
 30
0.0
 10
13.4164625548
 20
6.5206196305
 30
0.0
 10
13.4098427887
 20
6.5155953977
 30
0.0
 10
13.4032322573
 20
6.5113189858
 30
0.0
 10
13.3966355874
 20
6.5077953019
 30
0.0
 10
13.390057704
 20
6.5050290369
 30
0.0
 10
13.3835039665
 20
6.5030251625
 30
0.0
 10
13.3769808445
 20
6.5017880492
 30
0.0
 10
13.3704960927
 20
6.5013215547
 30
0.0
 10
13.3640583467
 20
6.5016276436
 30
0.0
 10
13.3576779499
 20
6.502705917
 30
0.0
 10
13.3535186972
 20
6.503923186
 30
0.0
 10
13.3514635186
 20
6.5046497908
 30
0.0
  0
SPLINE
  5
3A0
100
AcDbEntity
  8
0
100
AcDbSpline
 62
7
  6
CONTINUOUS
 70
0
 71
3
 72
46
 73
42
 74
0
 42
0.0000001
 43
0.0000001
 44
0.0000000001
 40
0.0
 40
0.0
 40
0.0
 40
0.0
 40
0.0379860876
 40
0.0763696409
 40
0.115062165
 40
0.1539756797
 40
0.193020706
 40
0.2321077413
 40
0.2711470328
 40
0.3100490071
 40
0.3487244788
 40
0.3870849272
 40
0.4250427555
 40
0.4625115579
 40
0.4994063863
 40
0.5356440207
 40
0.5711432455
 40
0.6058251322
 40
0.639613333
 40
0.6724343874
 40
0.7042180481
 40
0.7348976327
 40
0.7644104131
 40
0.7926980528
 40
0.8197071087
 40
0.8453896291
 40
0.8697038833
 40
0.8813372451
 40
0.8926162061
 40
0.9035377939
 40
0.9140995899
 40
0.9242998803
 40
0.9341376978
 40
0.9436128664
 40
0.952726198
 40
0.9614794527
 40
0.9698756641
 40
0.9779190896
 40
0.9856155984
 40
0.9929727148
 40
1.0
 40
1.0
 40
1.0
 40
1.0
 10
13.504511041
 20
7.5713943187
 30
0.0
 10
13.504511041
 20
7.5582415765
 30
0.0
 10
13.5043347866
 20
7.5317981597
 30
0.0
 10
13.5035536689
 20
7.4919643301
 30
0.0
 10
13.5022560734
 20
7.4518226392
 30
0.0
 10
13.5004452057
 20
7.4114715964
 30
0.0
 10
13.4981254478
 20
7.3710097888
 30
0.0
 10
13.4953024912
 20
7.3305363207
 30
0.0
 10
13.4919832356
 20
7.2901502237
 30
0.0
 10
13.4881758155
 20
7.2499503503
 30
0.0
 10
13.4838895615
 20
7.2100350844
 30
0.0
 10
13.4791349847
 20
7.1705021134
 30
0.0
 10
13.4739237495
 20
7.1314481834
 30
0.0
 10
13.4682686469
 20
7.0929688609
 30
0.0
 10
13.4621835618
 20
7.0551582975
 30
0.0
 10
13.4556834396
 20
7.018108997
 30
0.0
 10
13.4487842504
 20
6.9819115869
 30
0.0
 10
13.4415029502
 20
6.9466545934
 30
0.0
 10
13.4338574404
 20
6.9124242203
 30
0.0
 10
13.4258665242
 20
6.8793041331
 30
0.0
 10
13.4175498611
 20
6.8473752463
 30
0.0
 10
13.408927918
 20
6.8167155187
 30
0.0
 10
13.4000219188
 20
6.7873997376
 30
0.0
 10
13.3908537902
 20
6.7594993574
 30
0.0
 10
13.3814460965
 20
6.7330821688
 30
0.0
 10
13.3718219845
 20
6.7082125741
 30
0.0
 10
13.3635236238
 20
6.6885482461
 30
0.0
 10
13.3567805059
 20
6.6736502136
 30
0.0
 10
13.3517583113
 20
6.663065509
 30
0.0
 10
13.3466998124
 20
6.652910959
 30
0.0
 10
13.3416080168
 20
6.6431927327
 30
0.0
 10
13.3364860452
 20
6.6339167291
 30
0.0
 10
13.3313370288
 20
6.625088557
 30
0.0
 10
13.3261640356
 20
6.6167135769
 30
0.0
 10
13.3209702638
 20
6.6087968056
 30
0.0
 10
13.3157587329
 20
6.6013430566
 30
0.0
 10
13.3105326509
 20
6.5943567442
 30
0.0
 10
13.305295013
 20
6.5878421271
 30
0.0
 10
13.3000489111
 20
6.5818029948
 30
0.0
 10
13.2947974924
 20
6.5762431844
 30
0.0
 10
13.2912143425
 20
6.572780487
 30
0.0
 10
13.289421961
 20
6.5711349257
 30
0.0
  0
SPLINE
  5
3A1
100
AcDbEntity
  8
0
100
AcDbSpline
 62
7
  6
CONTINUOUS
 70
0
 71
3
 72
39
 73
35
 74
0
 42
0.0000001
 43
0.0000001
 44
0.0000000001
 40
0.0
 40
0.0
 40
0.0
 40
0.0
 40
0.0304912905
 40
0.0610938915
 40
0.091807735
 40
0.1226315329
 40
0.1535628042
 40
0.1845979142
 40
0.2157321236
 40
0.2469596505
 40
0.2782737394
 40
0.3096667402
 40
0.3411301927
 40
0.3726549189
 40
0.40423112
 40
0.4358484779
 40
0.4674962613
 40
0.4991634345
 40
0.5308387682
 40
0.5625109521
 40
0.5941687077
 40
0.6258009004
 40
0.6573966509
 40
0.6889454449
 40
0.7204372403
 40
0.7518625704
 40
0.7832126449
 40
0.8144794412
 40
0.8456558057
 40
0.8767354862
 40
0.9077133713
 40
0.9385850564
 40
0.9693481681
 40
1.0
 40
1.0
 40
1.0
 40
1.0
 10
11.8924919249
 20
8.8070292553
 30
0.0
 10
11.882285569
 20
8.8066046535
 30
0.0
 10
11.8618089004
 20
8.8062978488
 30
0.0
 10
11.8310599634
 20
8.8074585879
 30
0.0
 10
11.8003021311
 20
8.8102360067
 30
0.0
 10
11.7696214036
 20
8.8146223863
 30
0.0
 10
11.7391021065
 20
8.8206055295
 30
0.0
 10
11.7088285
 20
8.8281688552
 30
0.0
 10
11.6788840513
 20
8.8372914239
 30
0.0
 10
11.6493513374
 20
8.8479479989
 30
0.0
 10
11.6203117854
 20
8.8601091237
 30
0.0
 10
11.5918454589
 20
8.8737412028
 30
0.0
 10
11.5640308362
 20
8.8888065947
 30
0.0
 10
11.5369445973
 20
8.9052637155
 30
0.0
 10
11.5106614134
 20
8.9230671534
 30
0.0
 10
11.4852537424
 20
8.9421677927
 30
0.0
 10
11.4607916322
 20
8.9625129507
 30
0.0
 10
11.4373425224
 20
8.9840465147
 30
0.0
 10
11.4149710604
 20
9.0067090995
 30
0.0
 10
11.3937389279
 20
9.030438215
 30
0.0
 10
11.373704671
 20
9.055168436
 30
0.0
 10
11.3549235402
 20
9.0808315821
 30
0.0
 10
11.3374473385
 20
9.1073569041
 30
0.0
 10
11.3213242799
 20
9.1346712776
 30
0.0
 10
11.3065988567
 20
9.1626994033
 30
0.0
 10
11.2933117173
 20
9.1913640134
 30
0.0
 10
11.2814995479
 20
9.2205860784
 30
0.0
 10
11.2711949677
 20
9.2502850317
 30
0.0
 10
11.2624264689
 20
9.2803789749
 30
0.0
 10
11.2552182646
 20
9.3107849646
 30
0.0
 10
11.2495903927
 20
9.3414190128
 30
0.0
 10
11.2455583129
 20
9.3721970617
 30
0.0
 10
11.2431334383
 20
9.4030329327
 30
0.0
 10
11.24259174
 20
9.4236121517
 30
0.0
 10
11.24259174
 20
9.4338811203
 30
0.0
  0
SPLINE
  5
3A2
100
AcDbEntity
  8
0
100
AcDbSpline
 62
7
  6
CONTINUOUS
 70
0
 71
3
 72
40
 73
36
 74
0
 42
0.0000001
 43
0.0000001
 44
0.0000000001
 40
0.0
 40
0.0
 40
0.0
 40
0.0
 40
0.0739364715
 40
0.1490382301
 40
0.2246961078
 40
0.3002945722
 40
0.3378798523
 40
0.3752201367
 40
0.4122397225
 40
0.4488637403
 40
0.4850183591
 40
0.5206309968
 40
0.5556305231
 40
0.5899474685
 40
0.6235142392
 40
0.65626534
 40
0.6881376146
 40
0.7190705004
 40
0.7490062851
 40
0.7778903947
 40
0.8056717154
 40
0.8323029621
 40
0.8577411178
 40
0.8819479536
 40
0.9048906448
 40
0.9158797644
 40
0.9265434177
 40
0.936879433
 40
0.9468861628
 40
0.9565624937
 40
0.9659080434
 40
0.974923033
 40
0.9836085678
 40
0.9919665811
 40
1.0
 40
1.0
 40
1.0
 40
1.0
 10
13.4450827392
 20
7.5625139952
 30
0.0
 10
13.4450827392
 20
7.5391014062
 30
0.0
 10
13.4444886627
 20
7.4919054099
 30
0.0
 10
13.4418921396
 20
7.4207946567
 30
0.0
 10
13.4376028318
 20
7.3492385613
 30
0.0
 10
13.4326393911
 20
7.2896407281
 30
0.0
 10
13.4278461317
 20
7.2422167613
 30
0.0
 10
13.4238623725
 20
7.206992086
 30
0.0
 10
13.4194918214
 20
7.1721200872
 30
0.0
 10
13.4147439391
 20
7.1376763771
 30
0.0
 10
13.4096290642
 20
7.1037357049
 30
0.0
 10
13.4041583297
 20
7.0703717004
 30
0.0
 10
13.3983436475
 20
7.0376567385
 30
0.0
 10
13.3921976794
 20
7.0056617764
 30
0.0
 10
13.3857338121
 20
6.9744562007
 30
0.0
 10
13.3789661261
 20
6.9441076735
 30
0.0
 10
13.3719093695
 20
6.9146819774
 30
0.0
 10
13.3645789312
 20
6.8862428657
 30
0.0
 10
13.3569907976
 20
6.8588519219
 30
0.0
 10
13.34916152
 20
6.8325684243
 30
0.0
 10
13.3411081764
 20
6.8074492013
 30
0.0
 10
13.3328483307
 20
6.7835485247
 30
0.0
 10
13.3243999869
 20
6.7609178572
 30
0.0
 10
13.3157815645
 20
6.7396061075
 30
0.0
 10
13.308370892
 20
6.7227496638
 30
0.0
 10
13.3023599632
 20
6.7099706338
 30
0.0
 10
13.2978857147
 20
6.7008821845
 30
0.0
 10
13.293383031
 20
6.6921563864
 30
0.0
 10
13.2888543321
 20
6.6837979218
 30
0.0
 10
13.2843020121
 20
6.6758113152
 30
0.0
 10
13.2797286004
 20
6.6682008206
 30
0.0
 10
13.2751364747
 20
6.6609705631
 30
0.0
 10
13.2705281295
 20
6.654124358
 30
0.0
 10
13.2659060724
 20
6.6476659671
 30
0.0
 10
13.2627551179
 20
6.6435399753
 30
0.0
 10
13.261176711
 20
6.6415450334
 30
0.0
  0
SPLINE
  5
3A3
100
AcDbEntity
  8
0
100
AcDbSpline
 62
7
  6
CONTINUOUS
 70
0
 71
3
 72
71
 73
67
 74
0
 42
0.0000001
 43
0.0000001
 44
0.0000000001
 40
0.0
 40
0.0
 40
0.0
 40
0.0
 40
0.0155842752
 40
0.0311159217
 40
0.0465952561
 40
0.062023882
 40
0.0774034483
 40
0.0927362826
 40
0.1080251228
 40
0.1232731737
 40
0.1384840559
 40
0.1536617767
 40
0.1688106901
 40
0.183935453
 40
0.199040978
 40
0.2141323819
 40
0.2292149319
 40
0.2442939897
 40
0.2593749544
 40
0.2744632045
 40
0.289564041
 40
0.3046826303
 40
0.3198239506
 40
0.3349927389
 40
0.3501934431
 40
0.3654301768
 40
0.3807066784
 40
0.3960262758
 40
0.4113918559
 40
0.4268058389
 40
0.4422701586
 40
0.4577862477
 40
0.4733550286
 40
0.4889769093
 40
0.5046517847
 40
0.5203790431
 40
0.5361575764
 40
0.5519857966
 40
0.5678616541
 40
0.583782661
 40
0.5997459175
 40
0.6157481412
 40
0.6317856997
 40
0.6478546449
 40
0.6639507506
 40
0.6800695511
 40
0.6962063816
 40
0.7123564195
 40
0.7285147267
 40
0.7446762933
 40
0.7608360806
 40
0.7769890653
 40
0.7931302837
 40
0.8092548749
 40
0.8253581232
 40
0.8414355003
 40
0.8574827056
 40
0.8734957056
 40
0.8894707712
 40
0.9054045129
 40
0.9212939188
 40
0.9371363627
 40
0.9529297122
 40
0.9686721024
 40
0.9843626029
 40
1.0
 40
1.0
 40
1.0
 40
1.0
 10
10.3351285078
 20
7.0292279369
 30
0.0
 10
10.3351285078
 20
7.0176323143
 30
0.0
 10
10.3345610465
 20
6.9944761159
 30
0.0
 10
10.3319994524
 20
6.9598876807
 30
0.0
 10
10.3277347834
 20
6.9255834011
 30
0.0
 10
10.3217774488
 20
6.8916472145
 30
0.0
 10
10.3141415618
 20
6.8581604711
 30
0.0
 10
10.304845527
 20
6.8252040338
 30
0.0
 10
10.2939116295
 20
6.7928573185
 30
0.0
 10
10.2813661617
 20
6.7611983365
 30
0.0
 10
10.2672392894
 20
6.7303034397
 30
0.0
 10
10.2515650185
 20
6.7002471453
 30
0.0
 10
10.2343810941
 20
6.6711019541
 30
0.0
 10
10.2157289118
 20
6.6429381755
 30
0.0
 10
10.1956534186
 20
6.6158237551
 30
0.0
 10
10.1742030051
 20
6.5898241092
 30
0.0
 10
10.151429388
 20
6.5650019642
 30
0.0
 10
10.1273874854
 20
6.5414172039
 30
0.0
 10
10.102135283
 20
6.5191267222
 30
0.0
 10
10.0757337012
 20
6.4981842737
 30
0.0
 10
10.0482464361
 20
6.4786403517
 30
0.0
 10
10.0197398031
 20
6.460542066
 30
0.0
 10
9.9902825748
 20
6.4439330292
 30
0.0
 10
9.9599458132
 20
6.4288532516
 30
0.0
 10
9.9288026961
 20
6.4153390456
 30
0.0
 10
9.8969283384
 20
6.4034229392
 30
0.0
 10
9.86439961
 20
6.3931335988
 30
0.0
 10
9.8312949519
 20
6.3844957485
 30
0.0
 10
9.7976941803
 20
6.3775301254
 30
0.0
 10
9.7636782932
 20
6.3722534316
 30
0.0
 10
9.729329275
 20
6.3686782967
 30
0.0
 10
9.6947298992
 20
6.3668132494
 30
0.0
 10
9.6599635291
 20
6.366662699
 30
0.0
 10
9.625113918
 20
6.3682269273
 30
0.0
 10
9.5902650088
 20
6.3715020889
 30
0.0
 10
9.5555007305
 20
6.376480209
 30
0.0
 10
9.5209047968
 20
6.3831492177
 30
0.0
 10
9.4865605065
 20
6.3914929806
 30
0.0
 10
9.4525505438
 20
6.4014913381
 30
0.0
 10
9.4189567813
 20
6.4131201554
 30
0.0
 10
9.3858600842
 20
6.4263513804
 30
0.0
 10
9.353340118
 20
6.4411531118
 30
0.0
 10
9.3214751577
 20
6.4574896757
 30
0.0
 10
9.2903418941
 20
6.4753217
 30
0.0
 10
9.2600152552
 20
6.4946062215
 30
0.0
 10
9.2305682274
 20
6.5152967893
 30
0.0
 10
9.2020716806
 20
6.5373435762
 30
0.0
 10
9.1745941996
 20
6.5606934978
 30
0.0
 10
9.1482019198
 20
6.5852903398
 30
0.0
 10
9.1229583691
 20
6.6110748921
 30
0.0
 10
9.0989243162
 20
6.6379850909
 30
0.0
 10
9.0761576144
 20
6.6659561586
 30
0.0
 10
9.0547130717
 20
6.6949207691
 30
0.0
 10
9.0346423204
 20
6.7248092088
 30
0.0
 10
9.0159936927
 20
6.7555495429
 30
0.0
 10
8.9988121059
 20
6.7870677879
 30
0.0
 10
8.983138954
 20
6.8192880877
 30
0.0
 10
8.9690120085
 20
6.8521328951
 30
0.0
 10
8.9564653294
 20
6.8855231565
 30
0.0
 10
8.9455291625
 20
6.9193785005
 30
0.0
 10
8.9362299035
 20
6.9536174194
 30
0.0
 10
8.9285899631
 20
6.9881575308
 30
0.0
 10
8.9226278876
 20
7.0229155338
 30
0.0
 10
8.9183579511
 20
7.0578081892
 30
0.0
 10
8.915790728
 20
7.0927501826
 30
0.0
 10
8.915217459
 20
7.1160639541
 30
0.0
 10
8.915217459
 20
7.1276991025
 30
0.0
  0
SPLINE
  5
3A4
100
AcDbEntity
  8
0
100
AcDbSpline
 62
7
  6
CONTINUOUS
 70
0
 71
3
 72
30
 73
26
 74
0
 42
0.0000001
 43
0.0000001
 44
0.0000000001
 40
0.0
 40
0.0
 40
0.0
 40
0.0
 40
0.0182770071
 40
0.0373382803
 40
0.0572003346
 40
0.0778784508
 40
0.0993864818
 40
0.1217358494
 40
0.1449360063
 40
0.1689943031
 40
0.1939167399
 40
0.2197077637
 40
0.2463703454
 40
0.2739061859
 40
0.3023156249
 40
0.331597813
 40
0.3927705713
 40
0.4573955752
 40
0.5254249123
 40
0.5967925648
 40
0.6714137028
 40
0.7491834277
 40
0.829975153
 40
0.9136389594
 40
1.0
 40
1.0
 40
1.0
 40
1.0
 10
9.9956157865
 20
6.7468810591
 30
0.0
 10
9.9971299552
 20
6.7483436339
 30
0.0
 10
10.000287515
 20
6.7512655993
 30
0.0
 10
10.0052924567
 20
6.7555524273
 30
0.0
 10
10.0106617172
 20
6.7598324005
 30
0.0
 10
10.0163923283
 20
6.764104867
 30
0.0
 10
10.0224814156
 20
6.7683701588
 30
0.0
 10
10.0289262243
 20
6.772628767
 30
0.0
 10
10.0357232803
 20
6.7768824679
 30
0.0
 10
10.0428694313
 20
6.7811328142
 30
0.0
 10
10.0503608908
 20
6.7853826276
 30
0.0
 10
10.0581938924
 20
6.7896350065
 30
0.0
 10
10.0663644978
 20
6.7938935201
 30
0.0
 10
10.0748682813
 20
6.7981628018
 30
0.0
 10
10.0837009652
 20
6.8024473037
 30
0.0
 10
10.096091067
 20
6.8082730387
 30
0.0
 10
10.1123783464
 20
6.8156103524
 30
0.0
 10
10.132878593
 20
6.8244531275
 30
0.0
 10
10.1545599653
 20
6.8335180123
 30
0.0
 10
10.1773671762
 20
6.8428728861
 30
0.0
 10
10.2012376049
 20
6.8525915985
 30
0.0
 10
10.2260997742
 20
6.862753115
 30
0.0
 10
10.2518720965
 20
6.8734403284
 30
0.0
 10
10.2784613646
 20
6.8847386172
 30
0.0
 10
10.2963915236
 20
6.8926169669
 30
0.0
 10
10.3054674393
 20
6.896688352
 30
0.0
  0
SPLINE
  5
3A5
100
AcDbEntity
  8
0
100
AcDbSpline
 62
7
  6
CONTINUOUS
 70
0
 71
3
 72
17
 73
13
 74
0
 42
0.0000001
 43
0.0000001
 44
0.0000000001
 40
0.0
 40
0.0
 40
0.0
 40
0.0
 40
0.051531726
 40
0.1038503575
 40
0.1571306827
 40
0.2115385632
 40
0.3243159799
 40
0.4433784531
 40
0.5697108931
 40
0.7041462478
 40
0.8473879911
 40
1.0
 40
1.0
 40
1.0
 40
1.0
 10
9.9693105719
 20
6.6971757465
 30
0.0
 10
9.9693105036
 20
6.6981673868
 30
0.0
 10
9.9693807479
 20
6.7001664653
 30
0.0
 10
9.9696926647
 20
6.7031761891
 30
0.0
 10
9.970211701
 20
6.7062134698
 30
0.0
 10
9.9711911759
 20
6.7103438086
 30
0.0
 10
9.9729565194
 20
6.7155762572
 30
0.0
 10
9.9758748542
 20
6.721833826
 30
0.0
 10
9.9796126027
 20
6.728127661
 30
0.0
 10
9.9841646096
 20
6.734441346
 30
0.0
 10
9.9895249047
 20
6.7407618987
 30
0.0
 10
9.9935035098
 20
6.7448407565
 30
0.0
 10
9.9956157865
 20
6.7468810591
 30
0.0
  0
SPLINE
  5
3A6
100
AcDbEntity
  8
0
100
AcDbSpline
 62
7
  6
CONTINUOUS
 70
0
 71
3
 72
23
 73
19
 74
0
 42
0.0000001
 43
0.0000001
 44
0.0000000001
 40
0.0
 40
0.0
 40
0.0
 40
0.0
 40
0.0637776914
 40
0.1273445726
 40
0.19070205
 40
0.2538561286
 40
0.3168131755
 40
0.3795820937
 40
0.4421733816
 40
0.5045993375
 40
0.566873868
 40
0.6290123843
 40
0.691031656
 40
0.7529496505
 40
0.8147853588
 40
0.8765586069
 40
0.938289857
 40
1.0
 40
1.0
 40
1.0
 40
1.0
 10
10.4304592637
 20
8.8254213406
 30
0.0
 10
10.4304592637
 20
8.8374867002
 30
0.0
 10
10.4310367123
 20
8.861581629
 30
0.0
 10
10.433643279
 20
8.897577542
 30
0.0
 10
10.4379830494
 20
8.9332879965
 30
0.0
 10
10.4440459183
 20
8.9686294519
 30
0.0
 10
10.4518181298
 20
9.0035208704
 30
0.0
 10
10.4612817752
 20
9.0378816853
 30
0.0
 10
10.4724151528
 20
9.0716327127
 30
0.0
 10
10.4851926578
 20
9.1046961134
 30
0.0
 10
10.4995849067
 20
9.1369956345
 30
0.0
 10
10.5155587772
 20
9.1684567744
 30
0.0
 10
10.5330774792
 20
9.1990069559
 30
0.0
 10
10.552100672
 20
9.2285757186
 30
0.0
 10
10.5725844557
 20
9.2570947838
 30
0.0
 10
10.5944818461
 20
9.2844985846
 30
0.0
 10
10.6177414919
 20
9.3107230388
 30
0.0
 10
10.6341234169
 20
9.3273825267
 30
0.0
 10
10.6425201451
 20
9.3354931656
 30
0.0
  0
SPLINE
  5
3A7
100
AcDbEntity
  8
0
100
AcDbSpline
 62
7
  6
CONTINUOUS
 70
0
 71
3
 72
41
 73
37
 74
0
 42
0.0000001
 43
0.0000001
 44
0.0000000001
 40
0.0
 40
0.0
 40
0.0
 40
0.0
 40
0.0302662093
 40
0.0454436825
 40
0.0606503944
 40
0.0911499791
 40
0.1217704871
 40
0.1371279292
 40
0.152515731
 40
0.1833785845
 40
0.2143597119
 40
0.2454551511
 40
0.276659497
 40
0.3079659837
 40
0.3393665824
 40
0.3708521104
 40
0.4024123531
 40
0.4340361944
 40
0.4657117558
 40
0.4974265417
 40
0.5291675912
 40
0.5609216321
 40
0.5926752387
 40
0.6244149905
 40
0.6561276306
 40
0.6878002234
 40
0.7194203089
 40
0.7509760533
 40
0.7824563948
 40
0.8138511811
 40
0.8451513018
 40
0.8763488026
 40
0.9074370139
 40
0.9384105913
 40
0.9692657371
 40
1.0
 40
1.0
 40
1.0
 40
1.0
 10
10.3263800702
 20
6.9997847456
 30
0.0
 10
10.3150559497
 20
6.9975601632
 30
0.0
 10
10.2979489732
 20
6.9947215769
 30
0.0
 10
10.2749884807
 20
6.991939715
 30
0.0
 10
10.2518673206
 20
6.9898201345
 30
0.0
 10
10.2227798232
 20
6.9884283113
 30
0.0
 10
10.1936032256
 20
6.9887151075
 30
0.0
 10
10.1702340358
 20
6.9899469513
 30
0.0
 10
10.1468173152
 20
6.9918511175
 30
0.0
 10
10.1175768607
 20
6.9954873317
 30
0.0
 10
10.0826936794
 20
7.0018353878
 30
0.0
 10
10.0480923681
 20
7.0101516213
 30
0.0
 10
10.0138867567
 20
7.0204086789
 30
0.0
 10
9.9801884446
 20
7.0325729245
 30
0.0
 10
9.9471076089
 20
7.0466044897
 30
0.0
 10
9.9147523324
 20
7.0624574216
 30
0.0
 10
9.8832283381
 20
7.0800798293
 30
0.0
 10
9.8526386239
 20
7.0994140543
 30
0.0
 10
9.8230831345
 20
7.1203968584
 30
0.0
 10
9.7946584356
 20
7.1429596299
 30
0.0
 10
9.7674574017
 20
7.1670286071
 30
0.0
 10
9.7415689137
 20
7.1925251175
 30
0.0
 10
9.717077571
 20
7.2193658342
 30
0.0
 10
9.6940634164
 20
7.2474630466
 30
0.0
 10
9.6726016762
 20
7.2767249446
 30
0.0
 10
9.6527625156
 20
7.3070559174
 30
0.0
 10
9.6346108105
 20
7.3383568636
 30
0.0
 10
9.6182059362
 20
7.3705255125
 30
0.0
 10
9.6036015743
 20
7.4034567556
 30
0.0
 10
9.5908455359
 20
7.4370429902
 30
0.0
 10
9.5799796098
 20
7.4711744552
 30
0.0
 10
9.5710394142
 20
7.5057396377
 30
0.0
 10
9.5640543036
 20
7.5406254455
 30
0.0
 10
9.5590472235
 20
7.5757182648
 30
0.0
 10
9.5560347102
 20
7.6109018191
 30
0.0
 10
9.5553614033
 20
7.6343913698
 30
0.0
 10
9.5553614033
 20
7.6461103973
 30
0.0
  0
SPLINE
  5
3A8
100
AcDbEntity
  8
0
100
AcDbSpline
 62
7
  6
CONTINUOUS
 70
0
 71
3
 72
53
 73
49
 74
0
 42
0.0000001
 43
0.0000001
 44
0.0000000001
 40
0.0
 40
0.0
 40
0.0
 40
0.0
 40
0.049977977
 40
0.0993158238
 40
0.1479275978
 40
0.1957333188
 40
0.2426525021
 40
0.2886074965
 40
0.3335228209
 40
0.3773254927
 40
0.4199453107
 40
0.4613150708
 40
0.5013708891
 40
0.5400525146
 40
0.5773036508
 40
0.613072349
 40
0.6473114751
 40
0.6799793005
 40
0.7110401649
 40
0.7404652901
 40
0.7545581649
 40
0.7682350653
 40
0.7814947995
 40
0.7943369973
 40
0.806761939
 40
0.8187707847
 40
0.8303656606
 40
0.8415496191
 40
0.8523269935
 40
0.8627033118
 40
0.8726855735
 40
0.8822824605
 40
0.89150438
 40
0.9003639132
 40
0.9088758729
 40
0.9170576435
 40
0.9249294973
 40
0.9325146981
 40
0.9398398849
 40
0.9469350776
 40
0.9538337363
 40
0.9605726625
 40
0.9671915756
 40
0.9737326422
 40
0.9802396701
 40
0.9867572209
 40
0.9933296157
 40
1.0
 40
1.0
 40
1.0
 40
1.0
 10
13.6473791539
 20
7.5713943269
 30
0.0
 10
13.6473791539
 20
7.5831407656
 30
0.0
 10
13.6472461656
 20
7.6064834297
 30
0.0
 10
13.6466401586
 20
7.6412466933
 30
0.0
 10
13.6456298559
 20
7.6754898719
 30
0.0
 10
13.6442172232
 20
7.7091498891
 30
0.0
 10
13.6424048235
 20
7.7421654531
 30
0.0
 10
13.6401960344
 20
7.7744760395
 30
0.0
 10
13.6375949499
 20
7.8060225756
 30
0.0
 10
13.6346063866
 20
7.8367473681
 30
0.0
 10
13.6312358773
 20
7.8665942354
 30
0.0
 10
13.6274896514
 20
7.8955086208
 30
0.0
 10
13.6233746413
 20
7.9234376987
 30
0.0
 10
13.6188984704
 20
7.9503304822
 30
0.0
 10
13.6140694221
 20
7.9761379123
 30
0.0
 10
13.6088964296
 20
8.0008129608
 30
0.0
 10
13.603389046
 20
8.0243106997
 30
0.0
 10
13.5975574486
 20
8.0465885317
 30
0.0
 10
13.5914123784
 20
8.0676058704
 30
0.0
 10
13.585964199
 20
8.084269948
 30
0.0
 10
13.5814448411
 20
8.0969308303
 30
0.0
 10
13.5780328556
 20
8.1059509585
 30
0.0
 10
13.5745510909
 20
8.1146284677
 30
0.0
 10
13.571001169
 20
8.1229594528
 30
0.0
 10
13.5673846648
 20
8.1309401239
 30
0.0
 10
13.5637032069
 20
8.1385668667
 30
0.0
 10
13.5599585058
 20
8.145836257
 30
0.0
 10
13.5561521545
 20
8.152744984
 30
0.0
 10
13.5522859229
 20
8.1592899712
 30
0.0
 10
13.5483614768
 20
8.1654682645
 30
0.0
 10
13.5443805102
 20
8.1712770774
 30
0.0
 10
13.5403448062
 20
8.176713844
 30
0.0
 10
13.5362559865
 20
8.1817760585
 30
0.0
 10
13.5321158362
 20
8.1864614777
 30
0.0
 10
13.5279260267
 20
8.1907679368
 30
0.0
 10
13.5236882208
 20
8.1946933804
 30
0.0
 10
13.519404186
 20
8.1982359799
 30
0.0
 10
13.5150755401
 20
8.2013938279
 30
0.0
 10
13.5107040936
 20
8.2041652685
 30
0.0
 10
13.506291647
 20
8.2065486377
 30
0.0
 10
13.5018401113
 20
8.2085422969
 30
0.0
 10
13.4973516448
 20
8.2101449183
 30
0.0
 10
13.4928284982
 20
8.2113550857
 30
0.0
 10
13.4882732082
 20
8.2121718626
 30
0.0
 10
13.4836884673
 20
8.2125945595
 30
0.0
 10
13.4790769567
 20
8.2126227605
 30
0.0
 10
13.4744418342
 20
8.2122567948
 30
0.0
 10
13.4713659841
 20
8.2117548472
 30
0.0
 10
13.4698299021
 20
8.2114413026
 30
0.0
  0
SPLINE
  5
3A9
100
AcDbEntity
  8
0
100
AcDbSpline
 62
7
  6
CONTINUOUS
 70
0
 71
3
 72
39
 73
35
 74
0
 42
0.0000001
 43
0.0000001
 44
0.0000000001
 40
0.0
 40
0.0
 40
0.0
 40
0.0
 40
0.0304912905
 40
0.0610938915
 40
0.091807735
 40
0.1226315329
 40
0.1535628042
 40
0.1845979142
 40
0.2157321236
 40
0.2469596505
 40
0.2782737394
 40
0.3096667402
 40
0.3411301927
 40
0.3726549189
 40
0.40423112
 40
0.4358484779
 40
0.4674962613
 40
0.4991634345
 40
0.5308387682
 40
0.5625109521
 40
0.5941687077
 40
0.6258009004
 40
0.6573966509
 40
0.6889454449
 40
0.7204372403
 40
0.7518625704
 40
0.7832126449
 40
0.8144794412
 40
0.8456558057
 40
0.8767354862
 40
0.9077133713
 40
0.9385850564
 40
0.9693481681
 40
1.0
 40
1.0
 40
1.0
 40
1.0
 10
10.32382822
 20
7.1047054211
 30
0.0
 10
10.3136218642
 20
7.1042808194
 30
0.0
 10
10.2931451955
 20
7.1039740146
 30
0.0
 10
10.2623962586
 20
7.1051347537
 30
0.0
 10
10.2316384262
 20
7.1079121725
 30
0.0
 10
10.2009576988
 20
7.1122985522
 30
0.0
 10
10.1704384017
 20
7.1182816953
 30
0.0
 10
10.1401647952
 20
7.125845021
 30
0.0
 10
10.1102203464
 20
7.1349675897
 30
0.0
 10
10.0806876326
 20
7.1456241647
 30
0.0
 10
10.0516480806
 20
7.1577852895
 30
0.0
 10
10.023181754
 20
7.1714173686
 30
0.0
 10
9.9953671314
 20
7.1864827606
 30
0.0
 10
9.9682808925
 20
7.2029398814
 30
0.0
 10
9.9419977085
 20
7.2207433192
 30
0.0
 10
9.9165900376
 20
7.2398439585
 30
0.0
 10
9.8921279273
 20
7.2601891165
 30
0.0
 10
9.8686788175
 20
7.2817226805
 30
0.0
 10
9.8463073555
 20
7.3043852654
 30
0.0
 10
9.825075223
 20
7.3281143808
 30
0.0
 10
9.8050409662
 20
7.3528446018
 30
0.0
 10
9.7862598353
 20
7.3785077479
 30
0.0
 10
9.7687836336
 20
7.4050330699
 30
0.0
 10
9.7526605751
 20
7.4323474435
 30
0.0
 10
9.7379351518
 20
7.4603755692
 30
0.0
 10
9.7246480125
 20
7.4890401792
 30
0.0
 10
9.712835843
 20
7.5182622442
 30
0.0
 10
9.7025312629
 20
7.5479611975
 30
0.0
 10
9.693762764
 20
7.5780551407
 30
0.0
 10
9.6865545597
 20
7.6084611304
 30
0.0
 10
9.6809266879
 20
7.6390951786
 30
0.0
 10
9.6768946081
 20
7.6698732275
 30
0.0
 10
9.6744697334
 20
7.7007090985
 30
0.0
 10
9.6739280351
 20
7.7212883175
 30
0.0
 10
9.6739280351
 20
7.7315572862
 30
0.0
  0
SPLINE
  5
3AA
100
AcDbEntity
  8
0
100
AcDbSpline
 62
7
  6
CONTINUOUS
 70
0
 71
3
 72
71
 73
67
 74
0
 42
0.0000001
 43
0.0000001
 44
0.0000000001
 40
0.0
 40
0.0
 40
0.0
 40
0.0
 40
0.0156373971
 40
0.0313278976
 40
0.0470702878
 40
0.0628636373
 40
0.0787060812
 40
0.0945954871
 40
0.1105292288
 40
0.1265042944
 40
0.1425172944
 40
0.1585644997
 40
0.1746418768
 40
0.1907451251
 40
0.2068697163
 40
0.2230109347
 40
0.2391639194
 40
0.2553237067
 40
0.2714852733
 40
0.2876435805
 40
0.3037936184
 40
0.3199304489
 40
0.3360492494
 40
0.3521453551
 40
0.3682143003
 40
0.3842518588
 40
0.4002540825
 40
0.416217339
 40
0.4321383459
 40
0.4480142034
 40
0.4638424236
 40
0.4796209569
 40
0.4953482153
 40
0.5110230907
 40
0.5266449714
 40
0.5422137523
 40
0.5577298414
 40
0.5731941611
 40
0.5886081441
 40
0.6039737242
 40
0.6192933216
 40
0.6345698232
 40
0.6498065569
 40
0.6650072611
 40
0.6801760494
 40
0.6953173697
 40
0.710435959
 40
0.7255367955
 40
0.7406250456
 40
0.7557060103
 40
0.7707850681
 40
0.7858676181
 40
0.800959022
 40
0.816064547
 40
0.8311893099
 40
0.8463382233
 40
0.8615159441
 40
0.8767268263
 40
0.8919748772
 40
0.9072637174
 40
0.9225965517
 40
0.937976118
 40
0.9534047439
 40
0.9688840783
 40
0.9844157248
 40
1.0
 40
1.0
 40
1.0
 40
1.0
 10
10.3351285078
 20
7.0292279369
 30
0.0
 10
10.3351285078
 20
7.0408630853
 30
0.0
 10
10.3345552388
 20
7.0641768568
 30
0.0
 10
10.3319880157
 20
7.0991188502
 30
0.0
 10
10.3277180791
 20
7.1340115056
 30
0.0
 10
10.3217560036
 20
7.1687695086
 30
0.0
 10
10.3141160632
 20
7.2033096201
 30
0.0
 10
10.3048168042
 20
7.2375485389
 30
0.0
 10
10.2938806373
 20
7.2714038829
 30
0.0
 10
10.2813339582
 20
7.3047941443
 30
0.0
 10
10.2672070128
 20
7.3376389517
 30
0.0
 10
10.2515338609
 20
7.3698592515
 30
0.0
 10
10.234352274
 20
7.4013774965
 30
0.0
 10
10.2157036464
 20
7.4321178306
 30
0.0
 10
10.195632895
 20
7.4620062703
 30
0.0
 10
10.1741883523
 20
7.4909708808
 30
0.0
 10
10.1514216505
 20
7.5189419485
 30
0.0
 10
10.1273875976
 20
7.5458521473
 30
0.0
 10
10.1021440469
 20
7.5716366997
 30
0.0
 10
10.0757517671
 20
7.5962335416
 30
0.0
 10
10.0482742861
 20
7.6195834632
 30
0.0
 10
10.0197777393
 20
7.6416302501
 30
0.0
 10
9.9903307115
 20
7.6623208179
 30
0.0
 10
9.9600040726
 20
7.6816053394
 30
0.0
 10
9.928870809
 20
7.6994373637
 30
0.0
 10
9.8970058487
 20
7.7157739276
 30
0.0
 10
9.8644858825
 20
7.730575659
 30
0.0
 10
9.8313891855
 20
7.743806884
 30
0.0
 10
9.7977954229
 20
7.7554357013
 30
0.0
 10
9.7637854602
 20
7.7654340589
 30
0.0
 10
9.7294411699
 20
7.7737778217
 30
0.0
 10
9.6948452363
 20
7.7804468304
 30
0.0
 10
9.6600809579
 20
7.7854249505
 30
0.0
 10
9.6252320487
 20
7.7887001121
 30
0.0
 10
9.5903824376
 20
7.7902643404
 30
0.0
 10
9.5556160675
 20
7.79011379
 30
0.0
 10
9.5210166917
 20
7.7882487427
 30
0.0
 10
9.4866676736
 20
7.7846736078
 30
0.0
 10
9.4526517865
 20
7.779396914
 30
0.0
 10
9.4190510148
 20
7.7724312909
 30
0.0
 10
9.3859463567
 20
7.7637934406
 30
0.0
 10
9.3534176283
 20
7.7535041002
 30
0.0
 10
9.3215432706
 20
7.7415879938
 30
0.0
 10
9.2904001535
 20
7.7280737878
 30
0.0
 10
9.260063392
 20
7.7129940102
 30
0.0
 10
9.2306061637
 20
7.6963849734
 30
0.0
 10
9.2020995306
 20
7.6782866877
 30
0.0
 10
9.1746122655
 20
7.6587427657
 30
0.0
 10
9.1482106838
 20
7.6378003172
 30
0.0
 10
9.1229584813
 20
7.6155098355
 30
0.0
 10
9.0989165787
 20
7.5919250752
 30
0.0
 10
9.0761429617
 20
7.5671029302
 30
0.0
 10
9.0546925481
 20
7.5411032843
 30
0.0
 10
9.034617055
 20
7.5139888639
 30
0.0
 10
9.0159648726
 20
7.4858250853
 30
0.0
 10
8.9987809482
 20
7.4566798941
 30
0.0
 10
8.9831066773
 20
7.4266235997
 30
0.0
 10
8.968979805
 20
7.3957287029
 30
0.0
 10
8.9564343373
 20
7.3640697209
 30
0.0
 10
8.9455004398
 20
7.3317230056
 30
0.0
 10
8.9362044049
 20
7.2987665683
 30
0.0
 10
8.9285685179
 20
7.2652798249
 30
0.0
 10
8.9226111834
 20
7.2313436383
 30
0.0
 10
8.9183465143
 20
7.1970393587
 30
0.0
 10
8.9157849202
 20
7.1624509235
 30
0.0
 10
8.915217459
 20
7.1392947251
 30
0.0
 10
8.915217459
 20
7.1276991025
 30
0.0
  0
SPLINE
  5
3AB
100
AcDbEntity
  8
0
100
AcDbSpline
 62
7
  6
CONTINUOUS
 70
0
 71
3
 72
23
 73
19
 74
0
 42
0.0000001
 43
0.0000001
 44
0.0000000001
 40
0.0
 40
0.0
 40
0.0
 40
0.0
 40
0.0637776914
 40
0.1273445726
 40
0.19070205
 40
0.2538561286
 40
0.3168131755
 40
0.3795820937
 40
0.4421733816
 40
0.5045993375
 40
0.566873868
 40
0.6290123843
 40
0.691031656
 40
0.7529496505
 40
0.8147853588
 40
0.8765586069
 40
0.938289857
 40
1.0
 40
1.0
 40
1.0
 40
1.0
 10
8.8617955588
 20
7.1230975064
 30
0.0
 10
8.8617955588
 20
7.135162866
 30
0.0
 10
8.8623730075
 20
7.1592577948
 30
0.0
 10
8.8649795741
 20
7.1952537078
 30
0.0
 10
8.8693193445
 20
7.2309641623
 30
0.0
 10
8.8753822135
 20
7.2663056177
 30
0.0
 10
8.883154425
 20
7.3011970362
 30
0.0
 10
8.8926180703
 20
7.3355578512
 30
0.0
 10
8.9037514479
 20
7.3693088785
 30
0.0
 10
8.916528953
 20
7.4023722792
 30
0.0
 10
8.9309212018
 20
7.4346718004
 30
0.0
 10
8.9468950724
 20
7.4661329402
 30
0.0
 10
8.9644137744
 20
7.4966831218
 30
0.0
 10
8.9834369671
 20
7.5262518844
 30
0.0
 10
9.0039207509
 20
7.5547709496
 30
0.0
 10
9.0258181413
 20
7.5821747504
 30
0.0
 10
9.0490777871
 20
7.6083992047
 30
0.0
 10
9.065459712
 20
7.6250586925
 30
0.0
 10
9.0738564403
 20
7.6331693314
 30
0.0
  0
SPLINE
  5
3AC
100
AcDbEntity
  8
0
100
AcDbSpline
 62
4
  6
CONTINUOUS
 70
0
 71
3
 72
313
 73
309
 74
0
 42
0.0000001
 43
0.0000001
 44
0.0000000001
 40
0.0
 40
0.0
 40
0.0
 40
0.0
 40
0.015625
 40
0.0234375
 40
0.03125
 40
0.0390625
 40
0.046875
 40
0.05078125
 40
0.0546875
 40
0.056640625
 40
0.05859375
 40
0.060546875
 40
0.0615234375
 40
0.0620117188
 40
0.0625
 40
0.0629882812
 40
0.0634765625
 40
0.064453125
 40
0.06640625
 40
0.068359375
 40
0.0703125
 40
0.07421875
 40
0.078125
 40
0.0859375
 40
0.09375
 40
0.1015625
 40
0.109375
 40
0.11328125
 40
0.1171875
 40
0.119140625
 40
0.12109375
 40
0.123046875
 40
0.1240234375
 40
0.1245117188
 40
0.125
 40
0.1254882812
 40
0.1259765625
 40
0.126953125
 40
0.12890625
 40
0.130859375
 40
0.1328125
 40
0.13671875
 40
0.140625
 40
0.1484375
 40
0.15625
 40
0.1640625
 40
0.171875
 40
0.17578125
 40
0.1796875
 40
0.181640625
 40
0.18359375
 40
0.185546875
 40
0.1865234375
 40
0.1870117188
 40
0.1875
 40
0.1879882812
 40
0.1884765625
 40
0.189453125
 40
0.19140625
 40
0.193359375
 40
0.1953125
 40
0.19921875
 40
0.203125
 40
0.2109375
 40
0.21875
 40
0.2265625
 40
0.234375
 40
0.23828125
 40
0.2421875
 40
0.244140625
 40
0.24609375
 40
0.248046875
 40
0.2490234375
 40
0.2495117188
 40
0.25
 40
0.2504882812
 40
0.2509765625
 40
0.251953125
 40
0.25390625
 40
0.255859375
 40
0.2578125
 40
0.26171875
 40
0.265625
 40
0.2734375
 40
0.28125
 40
0.2890625
 40
0.296875
 40
0.30078125
 40
0.3046875
 40
0.306640625
 40
0.30859375
 40
0.310546875
 40
0.3115234375
 40
0.3120117188
 40
0.3125
 40
0.3129882812
 40
0.3134765625
 40
0.314453125
 40
0.31640625
 40
0.318359375
 40
0.3203125
 40
0.32421875
 40
0.328125
 40
0.3359375
 40
0.34375
 40
0.3515625
 40
0.359375
 40
0.36328125
 40
0.3671875
 40
0.369140625
 40
0.37109375
 40
0.373046875
 40
0.3740234375
 40
0.3745117188
 40
0.375
 40
0.3754882812
 40
0.3759765625
 40
0.376953125
 40
0.37890625
 40
0.380859375
 40
0.3828125
 40
0.38671875
 40
0.390625
 40
0.3984375
 40
0.40625
 40
0.4140625
 40
0.421875
 40
0.42578125
 40
0.4296875
 40
0.431640625
 40
0.43359375
 40
0.435546875
 40
0.4365234375
 40
0.4370117188
 40
0.4375
 40
0.4379882812
 40
0.4384765625
 40
0.439453125
 40
0.44140625
 40
0.443359375
 40
0.4453125
 40
0.44921875
 40
0.453125
 40
0.4609375
 40
0.46875
 40
0.4765625
 40
0.484375
 40
0.48828125
 40
0.4921875
 40
0.494140625
 40
0.49609375
 40
0.498046875
 40
0.4990234375
 40
0.4995117188
 40
0.5
 40
0.5004882812
 40
0.5009765625
 40
0.501953125
 40
0.50390625
 40
0.505859375
 40
0.5078125
 40
0.51171875
 40
0.515625
 40
0.5234375
 40
0.53125
 40
0.5390625
 40
0.546875
 40
0.55078125
 40
0.5546875
 40
0.556640625
 40
0.55859375
 40
0.560546875
 40
0.5615234375
 40
0.5620117188
 40
0.5625
 40
0.5629882812
 40
0.5634765625
 40
0.564453125
 40
0.56640625
 40
0.568359375
 40
0.5703125
 40
0.57421875
 40
0.578125
 40
0.5859375
 40
0.59375
 40
0.6015625
 40
0.609375
 40
0.61328125
 40
0.6171875
 40
0.619140625
 40
0.62109375
 40
0.623046875
 40
0.6240234375
 40
0.6245117188
 40
0.625
 40
0.6254882812
 40
0.6259765625
 40
0.626953125
 40
0.62890625
 40
0.630859375
 40
0.6328125
 40
0.63671875
 40
0.640625
 40
0.6484375
 40
0.65625
 40
0.6640625
 40
0.671875
 40
0.67578125
 40
0.6796875
 40
0.681640625
 40
0.68359375
 40
0.685546875
 40
0.6865234375
 40
0.6870117188
 40
0.6875
 40
0.6879882812
 40
0.6884765625
 40
0.689453125
 40
0.69140625
 40
0.693359375
 40
0.6953125
 40
0.69921875
 40
0.703125
 40
0.7109375
 40
0.71875
 40
0.7265625
 40
0.734375
 40
0.73828125
 40
0.7421875
 40
0.744140625
 40
0.74609375
 40
0.748046875
 40
0.7490234375
 40
0.7495117188
 40
0.75
 40
0.7504882812
 40
0.7509765625
 40
0.751953125
 40
0.75390625
 40
0.755859375
 40
0.7578125
 40
0.76171875
 40
0.765625
 40
0.7734375
 40
0.78125
 40
0.7890625
 40
0.796875
 40
0.80078125
 40
0.8046875
 40
0.806640625
 40
0.80859375
 40
0.810546875
 40
0.8115234375
 40
0.8120117188
 40
0.8125
 40
0.8129882812
 40
0.8134765625
 40
0.814453125
 40
0.81640625
 40
0.818359375
 40
0.8203125
 40
0.82421875
 40
0.828125
 40
0.8359375
 40
0.84375
 40
0.8515625
 40
0.859375
 40
0.86328125
 40
0.8671875
 40
0.869140625
 40
0.87109375
 40
0.873046875
 40
0.8740234375
 40
0.8745117188
 40
0.875
 40
0.8754882812
 40
0.8759765625
 40
0.876953125
 40
0.87890625
 40
0.880859375
 40
0.8828125
 40
0.88671875
 40
0.890625
 40
0.8984375
 40
0.90625
 40
0.9140625
 40
0.921875
 40
0.92578125
 40
0.9296875
 40
0.931640625
 40
0.93359375
 40
0.935546875
 40
0.9365234375
 40
0.9370117188
 40
0.9375
 40
0.9379882812
 40
0.9384765625
 40
0.939453125
 40
0.94140625
 40
0.943359375
 40
0.9453125
 40
0.94921875
 40
0.953125
 40
0.9609375
 40
0.96875
 40
0.9765625
 40
0.984375
 40
1.0
 40
1.0
 40
1.0
 40
1.0
 10
9.1853808201
 20
9.7038270484
 30
0.0
 10
9.1881950599
 20
9.7039078189
 30
0.0
 10
9.1924164196
 20
9.7040289743
 30
0.0
 10
9.1980448991
 20
9.7041905157
 30
0.0
 10
9.2022662592
 20
9.7043116696
 30
0.0
 10
9.2064876176
 20
9.704432832
 30
0.0
 10
9.2100054214
 20
9.7045337741
 30
0.0
 10
9.2128196529
 20
9.7046145871
 30
0.0
 10
9.214578574
 20
9.7046649603
 30
0.0
 10
9.2159856505
 20
9.7047055679
 30
0.0
 10
9.217041123
 20
9.7047351776
 30
0.0
 10
9.2179201579
 20
9.7047625433
 30
0.0
 10
9.2185365138
 20
9.7047764185
 30
0.0
 10
9.2188871066
 20
9.7047925927
 30
0.0
 10
9.2191545882
 20
9.7047814954
 30
0.0
 10
9.2194047272
 20
9.7048591872
 30
0.0
 10
9.2197442952
 20
9.7049318057
 30
0.0
 10
9.2203357206
 20
9.7050733178
 30
0.0
 10
9.2211820876
 20
9.7052679338
 30
0.0
 10
9.2221970973
 20
9.7055047022
 30
0.0
 10
9.2235506639
 20
9.7058192654
 30
0.0
 10
9.2252425467
 20
9.7062128557
 30
0.0
 10
9.2279496013
 20
9.7068423843
 30
0.0
 10
9.2313334049
 20
9.7076293695
 30
0.0
 10
9.2353939763
 20
9.7085737178
 30
0.0
 10
9.2394545428
 20
9.7095180828
 30
0.0
 10
9.2428383588
 20
9.7103050264
 30
0.0
 10
9.2455453888
 20
9.7109346383
 30
0.0
 10
9.2472373342
 20
9.7113280167
 30
0.0
 10
9.2485907722
 20
9.7116430148
 30
0.0
 10
9.2496061748
 20
9.7118784545
 30
0.0
 10
9.2504513124
 20
9.7120772276
 30
0.0
 10
9.2510449325
 20
9.7122113187
 30
0.0
 10
9.2513809841
 20
9.7122958275
 30
0.0
 10
9.251641924
 20
9.712336996
 30
0.0
 10
9.2518688393
 20
9.712463074
 30
0.0
 10
9.2521832612
 20
9.7126015606
 30
0.0
 10
9.2527279699
 20
9.7128577114
 30
0.0
 10
9.2535090162
 20
9.7132164267
 30
0.0
 10
9.2544450342
 20
9.7136499731
 30
0.0
 10
9.2556934905
 20
9.7142269564
 30
0.0
 10
9.2572539129
 20
9.7149485548
 30
0.0
 10
9.2597506715
 20
9.7161029057
 30
0.0
 10
9.262871591
 20
9.7175459158
 30
0.0
 10
9.2666167078
 20
9.7192774952
 30
0.0
 10
9.2703618171
 20
9.7210090908
 30
0.0
 10
9.2734827553
 20
9.7224520605
 30
0.0
 10
9.2759794766
 20
9.7236064922
 30
0.0
 10
9.2775399937
 20
9.7243278855
 30
0.0
 10
9.2787882556
 20
9.7249052896
 30
0.0
 10
9.2797248676
 20
9.7253375504
 30
0.0
 10
9.2805040557
 20
9.7257002882
 30
0.0
 10
9.2810520814
 20
9.7259492581
 30
0.0
 10
9.2813611886
 20
9.7260992504
 30
0.0
 10
9.281604429
 20
9.7261899867
 30
0.0
 10
9.2818040547
 20
9.7263638925
 30
0.0
 10
9.2820854357
 20
9.7265667564
 30
0.0
 10
9.2825707642
 20
9.7269352847
 30
0.0
 10
9.2832677963
 20
9.7274546872
 30
0.0
 10
9.2841026488
 20
9.7280809949
 30
0.0
 10
9.2852163394
 20
9.7289150153
 30
0.0
 10
9.2866082629
 20
9.7299579027
 30
0.0
 10
9.2888354467
 20
9.7316263201
 30
0.0
 10
9.2916193896
 20
9.7337119117
 30
0.0
 10
9.2949601386
 20
9.7362145902
 30
0.0
 10
9.2983008766
 20
9.7387172828
 30
0.0
 10
9.3010848468
 20
9.7408028392
 30
0.0
 10
9.3033119761
 20
9.742471327
 30
0.0
 10
9.3047040382
 20
9.7435140355
 30
0.0
 10
9.3058174445
 20
9.744348423
 30
0.0
 10
9.3066531655
 20
9.7449736092
 30
0.0
 10
9.30734748
 20
9.7454965206
 30
0.0
 10
9.3078376601
 20
9.745858785
 30
0.0
 10
9.3081112676
 20
9.7460716853
 30
0.0
 10
9.3083347708
 20
9.7462147625
 30
0.0
 10
9.3084883313
 20
9.7464212856
 30
0.0
 10
9.3087174754
 20
9.7466745191
 30
0.0
 10
9.3091071106
 20
9.7471279888
 30
0.0
 10
9.3096696751
 20
9.7477704119
 30
0.0
 10
9.3103422089
 20
9.748543627
 30
0.0
 10
9.311239809
 20
9.7495737746
 30
0.0
 10
9.3123615049
 20
9.750861735
 30
0.0
 10
9.3141563884
 20
9.7529223174
 30
0.0
 10
9.3163999341
 20
9.7554980987
 30
0.0
 10
9.3190922159
 20
9.7585890121
 30
0.0
 10
9.3217844838
 20
9.7616799368
 30
0.0
 10
9.3240280641
 20
9.7642556897
 30
0.0
 10
9.3258228784
 20
9.7663163288
 30
0.0
 10
9.3269447502
 20
9.767604145
 30
0.0
 10
9.3278419894
 20
9.7686345887
 30
0.0
 10
9.3285156257
 20
9.7694068992
 30
0.0
 10
9.3290747406
 20
9.7700521526
 30
0.0
 10
9.329470534
 20
9.7705005698
 30
0.0
 10
9.3296898112
 20
9.7707618987
 30
0.0
 10
9.3298736794
 20
9.7709435552
 30
0.0
 10
9.3299833517
 20
9.7711800271
 30
0.0
 10
9.3301554618
 20
9.7714762028
 30
0.0
 10
9.3304445962
 20
9.7720034187
 30
0.0
 10
9.3308639496
 20
9.7727519268
 30
0.0
 10
9.3313644753
 20
9.77365213
 30
0.0
 10
9.3320327853
 20
9.7748517047
 30
0.0
 10
9.3328678501
 20
9.7763514115
 30
0.0
 10
9.3342041343
 20
9.7787508091
 30
0.0
 10
9.3358744272
 20
9.781750102
 30
0.0
 10
9.3378788073
 20
9.7853492328
 30
0.0
 10
9.3398831724
 20
9.7889483728
 30
0.0
 10
9.3415535028
 20
9.7919476429
 30
0.0
 10
9.3428897118
 20
9.794347086
 30
0.0
 10
9.3437249677
 20
9.7958466771
 30
0.0
 10
9.3443928856
 20
9.7970464893
 30
0.0
 10
9.3448946093
 20
9.797945967
 30
0.0
 10
9.3453102142
 20
9.798696745
 30
0.0
 10
9.3456060403
 20
9.7992199088
 30
0.0
 10
9.3457674287
 20
9.7995225769
 30
0.0
 10
9.3459100345
 20
9.799739106
 30
0.0
 10
9.3459702098
 20
9.7999956643
 30
0.0
 10
9.3460791962
 20
9.8003237793
 30
0.0
 10
9.346256526
 20
9.8009044861
 30
0.0
 10
9.3465168581
 20
9.8017306661
 30
0.0
 10
9.3468262588
 20
9.8027235379
 30
0.0
 10
9.3472398401
 20
9.8040468585
 30
0.0
 10
9.3477564582
 20
9.8057011833
 30
0.0
 10
9.3485832476
 20
9.8083480056
 30
0.0
 10
9.3496166651
 20
9.8116565672
 30
0.0
 10
9.3508567978
 20
9.8156268258
 30
0.0
 10
9.3520969143
 20
9.8195970914
 30
0.0
 10
9.3531303726
 20
9.8229056357
 30
0.0
 10
9.3539570804
 20
9.8255524926
 30
0.0
 10
9.3544739058
 20
9.8272067297
 30
0.0
 10
9.3548870616
 20
9.8285302303
 30
0.0
 10
9.3551977622
 20
9.8295225519
 30
0.0
 10
9.3554540272
 20
9.8303504533
 30
0.0
 10
9.3556386175
 20
9.8309280871
 30
0.0
 10
9.3557359707
 20
9.8312611259
 30
0.0
 10
9.3558318793
 20
9.8315025598
 30
0.0
 10
9.3558402769
 20
9.8317758934
 30
0.0
 10
9.3558819984
 20
9.8321292112
 30
0.0
 10
9.355940789
 20
9.8327527015
 30
0.0
 10
9.3560322111
 20
9.8336406917
 30
0.0
 10
9.356138735
 20
9.83470744
 30
0.0
 10
9.3562818785
 20
9.8361293658
 30
0.0
 10
9.3564604272
 20
9.8379069119
 30
0.0
 10
9.356746318
 20
9.840750908
 30
0.0
 10
9.3571036079
 20
9.8443059298
 30
0.0
 10
9.3575323895
 20
9.8485719446
 30
0.0
 10
9.3579611539
 20
9.8528379623
 30
0.0
 10
9.3583184867
 20
9.8563929768
 30
0.0
 10
9.3586042918
 20
9.8592369874
 30
0.0
 10
9.3587830581
 20
9.8610144967
 30
0.0
 10
9.3589257549
 20
9.8624364981
 30
0.0
 10
9.3590336435
 20
9.8635030156
 30
0.0
 10
9.359120796
 20
9.864391728
 30
0.0
 10
9.3591872085
 20
9.865013929
 30
0.0
 10
9.3592167178
 20
9.8653693126
 30
0.0
 10
9.3592626275
 20
9.8656363005
 30
0.0
 10
9.3592176469
 20
9.8659015677
 30
0.0
 10
9.3591893764
 20
9.8662558575
 30
0.0
 10
9.3591251316
 20
9.8668755851
 30
0.0
 10
9.359041076
 20
9.8677610563
 30
0.0
 10
9.3589369038
 20
9.8688235592
 30
0.0
 10
9.3587991621
 20
9.8702402516
 30
0.0
 10
9.3586265896
 20
9.8720111097
 30
0.0
 10
9.3583506946
 20
9.8748444867
 30
0.0
 10
9.3580057495
 20
9.8783862065
 30
0.0
 10
9.3575918502
 20
9.8826362712
 30
0.0
 10
9.3571779338
 20
9.8868863347
 30
0.0
 10
9.3568330315
 20
9.8904280576
 30
0.0
 10
9.3565570509
 20
9.8932614284
 30
0.0
 10
9.3563846961
 20
9.8950323023
 30
0.0
 10
9.3562465075
 20
9.8964489622
 30
0.0
 10
9.3561437004
 20
9.8975115645
 30
0.0
 10
9.3560553735
 20
9.8983967249
 30
0.0
 10
9.3559987539
 20
9.8990170073
 30
0.0
 10
9.3559582659
 20
9.899370408
 30
0.0
 10
9.3559508133
 20
9.8996384064
 30
0.0
 10
9.3558557743
 20
9.8998951364
 30
0.0
 10
9.3557596067
 20
9.9002413736
 30
0.0
 10
9.3555770792
 20
9.9008454573
 30
0.0
 10
9.3553237674
 20
9.9017093916
 30
0.0
 10
9.3550166079
 20
9.9027457029
 30
0.0
 10
9.3546081744
 20
9.9041275944
 30
0.0
 10
9.3540972517
 20
9.9058549098
 30
0.0
 10
9.3532799882
 20
9.9086186418
 30
0.0
 10
9.3522583354
 20
9.9120732973
 30
0.0
 10
9.3510323855
 20
9.9162188887
 30
0.0
 10
9.3498064193
 20
9.9203644762
 30
0.0
 10
9.3487848073
 20
9.9238191412
 30
0.0
 10
9.3479674622
 20
9.9265828542
 30
0.0
 10
9.347456747
 20
9.9283102179
 30
0.0
 10
9.3470478876
 20
9.9296920103
 30
0.0
 10
9.3467420295
 20
9.9307286243
 30
0.0
 10
9.3464846459
 20
9.9315916116
 30
0.0
 10
9.3463093872
 20
9.9321973858
 30
0.0
 10
9.3462015731
 20
9.9325409144
 30
0.0
 10
9.3461423083
 20
9.9328059643
 30
0.0
 10
9.3460004938
 20
9.9330427145
 30
0.0
 10
9.3458402019
 20
9.9333682527
 30
0.0
 10
9.3455462754
 20
9.9339333453
 30
0.0
 10
9.3451333944
 20
9.9347430249
 30
0.0
 10
9.3446349349
 20
9.9357136113
 30
0.0
 10
9.3439713709
 20
9.9370080859
 30
0.0
 10
9.3431415568
 20
9.938626056
 30
0.0
 10
9.3418140551
 20
9.9412148772
 30
0.0
 10
9.3401546085
 20
9.9444508797
 30
0.0
 10
9.3381633043
 20
9.9483340939
 30
0.0
 10
9.3361719845
 20
9.9522173018
 30
0.0
 10
9.334512577
 20
9.9554533203
 30
0.0
 10
9.3331849972
 20
9.9580421095
 30
0.0
 10
9.3323553816
 20
9.9596601607
 30
0.0
 10
9.3316914102
 20
9.9609544691
 30
0.0
 10
9.3311941952
 20
9.9619255631
 30
0.0
 10
9.3307774205
 20
9.9627336546
 30
0.0
 10
9.3304904449
 20
9.9633015822
 30
0.0
 10
9.330319016
 20
9.963622578
 30
0.0
 10
9.3302114109
 20
9.9638732808
 30
0.0
 10
9.330023661
 20
9.964085927
 30
0.0
 10
9.3298012833
 20
9.9643827299
 30
0.0
 10
9.3293990973
 20
9.9648959501
 30
0.0
 10
9.3288313555
 20
9.9656323553
 30
0.0
 10
9.3281471506
 20
9.9665146575
 30
0.0
 10
9.3272358954
 20
9.9676915439
 30
0.0
 10
9.3260964779
 20
9.9691624863
 30
0.0
 10
9.3242736047
 20
9.9715160868
 30
0.0
 10
9.321994946
 20
9.9744580552
 30
0.0
 10
9.3192605858
 20
9.9779884327
 30
0.0
 10
9.3165262122
 20
9.9815188002
 30
0.0
 10
9.3142475869
 20
9.9844607936
 30
0.0
 10
9.3124246471
 20
9.9868143442
 30
0.0
 10
9.3112853988
 20
9.9882854134
 30
0.0
 10
9.3103737962
 20
9.9894620395
 30
0.0
 10
9.3096906526
 20
9.9903451368
 30
0.0
 10
9.3091195904
 20
9.9910790545
 30
0.0
 10
9.3087233318
 20
9.9915967152
 30
0.0
 10
9.3084914568
 20
9.9918864033
 30
0.0
 10
9.3083328796
 20
9.9921209039
 30
0.0
 10
9.308115707
 20
9.9922895254
 30
0.0
 10
9.3078465823
 20
9.9925373333
 30
0.0
 10
9.3073660913
 20
9.9929602907
 30
0.0
 10
9.3066846543
 20
9.993570113
 30
0.0
 10
9.3058647988
 20
9.994299504
 30
0.0
 10
9.3047724024
 20
9.995272862
 30
0.0
 10
9.3034066521
 20
9.996489273
 30
0.0
 10
9.3012215941
 20
9.9984356909
 30
0.0
 10
9.2984902224
 20
10.0008686578
 30
0.0
 10
9.2952125987
 20
10.0037882436
 30
0.0
 10
9.2919349645
 20
10.0067078162
 30
0.0
 10
9.2892036188
 20
10.0091408159
 30
0.0
 10
9.2870185088
 20
10.0110871682
 30
0.0
 10
9.2856528906
 20
10.0123037459
 30
0.0
 10
9.2845602232
 20
10.0132767618
 30
0.0
 10
9.2837411958
 20
10.0140071979
 30
0.0
 10
9.2830571677
 20
10.0146137503
 30
0.0
 10
9.2825813022
 20
10.015042545
 30
0.0
 10
9.2823047663
 20
10.0152810001
 30
0.0
 10
9.2821103585
 20
10.0154783506
 30
0.0
 10
9.2818662808
 20
10.0156049497
 30
0.0
 10
9.2815581692
 20
10.0157984273
 30
0.0
 10
9.2810109018
 20
10.0161255149
 30
0.0
 10
9.2802333115
 20
10.0165987944
 30
0.0
 10
9.2792983966
 20
10.0171641566
 30
0.0
 10
9.2780524745
 20
10.0179188716
 30
0.0
 10
9.2764948558
 20
10.0188619577
 30
0.0
 10
9.2740027866
 20
10.0203710675
 30
0.0
 10
9.2708876585
 20
10.0222573952
 30
0.0
 10
9.2671495234
 20
10.0245210158
 30
0.0
 10
9.2634113802
 20
10.026784622
 30
0.0
 10
9.2602962723
 20
10.0286709859
 30
0.0
 10
9.2578041628
 20
10.0301800233
 30
0.0
 10
9.2562466465
 20
10.0311232933
 30
0.0
 10
9.2550005141
 20
10.0318776308
 30
0.0
 10
9.2540662416
 20
10.0324441466
 30
0.0
 10
9.2532866414
 20
10.0329138169
 30
0.0
 10
9.252742962
 20
10.0332473473
 30
0.0
 10
9.2524291015
 20
10.033430502
 30
0.0
 10
9.2522026826
 20
10.03358881
 30
0.0
 10
9.2519419512
 20
10.0336670671
 30
0.0
 10
9.251606278
 20
10.0337993325
 30
0.0
 10
9.2510132733
 20
10.0340177873
 30
0.0
 10
9.2501690392
 20
10.0343366673
 30
0.0
 10
9.2491547104
 20
10.0347164119
 30
0.0
 10
9.2478027079
 20
10.0352237549
 30
0.0
 10
9.2461125555
 20
10.0358575854
 30
0.0
 10
9.2434083951
 20
10.036871909
 30
0.0
 10
9.2400281658
 20
10.0381397462
 30
0.0
 10
9.2359719036
 20
10.0396611817
 30
0.0
 10
9.2319156357
 20
10.0411826013
 30
0.0
 10
9.2285354208
 20
10.0424504782
 30
0.0
 10
9.2258312316
 20
10.0434647222
 30
0.0
 10
9.2241411525
 20
10.044098755
 30
0.0
 10
9.2227889994
 20
10.044605683
 30
0.0
 10
9.2217751307
 20
10.0449866956
 30
0.0
 10
9.2209294572
 20
10.0453016082
 30
0.0
 10
9.2203390221
 20
10.0455271453
 30
0.0
 10
9.2199992318
 20
10.0456480631
 30
0.0
 10
9.2197511466
 20
10.0457611765
 30
0.0
 10
9.2194772305
 20
10.0457885702
 30
0.0
 10
9.2191210192
 20
10.0458549951
 30
0.0
 10
9.2184934514
 20
10.0459573077
 30
0.0
 10
9.2175991207
 20
10.0461107518
 30
0.0
 10
9.2165249845
 20
10.0462917673
 30
0.0
 10
9.215093131
 20
10.0465342101
 30
0.0
 10
9.2133032018
 20
10.0468368909
 30
0.0
 10
9.2104393778
 20
10.0473213884
 30
0.0
 10
9.2068595762
 20
10.0479269389
 30
0.0
 10
9.2025638236
 20
10.0486536301
 30
0.0
 10
9.1982680685
 20
10.0493803131
 30
0.0
 10
9.1925403959
 20
10.0503492266
 30
0.0
 10
9.1882446412
 20
10.0510759111
 30
0.0
 10
9.1853808049
 20
10.0515603676
 30
0.0
  0
SPLINE
  5
3AD
100
AcDbEntity
  8
0
100
AcDbSpline
 62
4
  6
CONTINUOUS
 70
0
 71
3
 72
313
 73
309
 74
0
 42
0.0000001
 43
0.0000001
 44
0.0000000001
 40
0.0
 40
0.0
 40
0.0
 40
0.0
 40
0.015625
 40
0.0234375
 40
0.03125
 40
0.0390625
 40
0.046875
 40
0.05078125
 40
0.0546875
 40
0.056640625
 40
0.05859375
 40
0.060546875
 40
0.0615234375
 40
0.0620117188
 40
0.0625
 40
0.0629882812
 40
0.0634765625
 40
0.064453125
 40
0.06640625
 40
0.068359375
 40
0.0703125
 40
0.07421875
 40
0.078125
 40
0.0859375
 40
0.09375
 40
0.1015625
 40
0.109375
 40
0.11328125
 40
0.1171875
 40
0.119140625
 40
0.12109375
 40
0.123046875
 40
0.1240234375
 40
0.1245117188
 40
0.125
 40
0.1254882812
 40
0.1259765625
 40
0.126953125
 40
0.12890625
 40
0.130859375
 40
0.1328125
 40
0.13671875
 40
0.140625
 40
0.1484375
 40
0.15625
 40
0.1640625
 40
0.171875
 40
0.17578125
 40
0.1796875
 40
0.181640625
 40
0.18359375
 40
0.185546875
 40
0.1865234375
 40
0.1870117188
 40
0.1875
 40
0.1879882812
 40
0.1884765625
 40
0.189453125
 40
0.19140625
 40
0.193359375
 40
0.1953125
 40
0.19921875
 40
0.203125
 40
0.2109375
 40
0.21875
 40
0.2265625
 40
0.234375
 40
0.23828125
 40
0.2421875
 40
0.244140625
 40
0.24609375
 40
0.248046875
 40
0.2490234375
 40
0.2495117188
 40
0.25
 40
0.2504882812
 40
0.2509765625
 40
0.251953125
 40
0.25390625
 40
0.255859375
 40
0.2578125
 40
0.26171875
 40
0.265625
 40
0.2734375
 40
0.28125
 40
0.2890625
 40
0.296875
 40
0.30078125
 40
0.3046875
 40
0.306640625
 40
0.30859375
 40
0.310546875
 40
0.3115234375
 40
0.3120117188
 40
0.3125
 40
0.3129882812
 40
0.3134765625
 40
0.314453125
 40
0.31640625
 40
0.318359375
 40
0.3203125
 40
0.32421875
 40
0.328125
 40
0.3359375
 40
0.34375
 40
0.3515625
 40
0.359375
 40
0.36328125
 40
0.3671875
 40
0.369140625
 40
0.37109375
 40
0.373046875
 40
0.3740234375
 40
0.3745117188
 40
0.375
 40
0.3754882812
 40
0.3759765625
 40
0.376953125
 40
0.37890625
 40
0.380859375
 40
0.3828125
 40
0.38671875
 40
0.390625
 40
0.3984375
 40
0.40625
 40
0.4140625
 40
0.421875
 40
0.42578125
 40
0.4296875
 40
0.431640625
 40
0.43359375
 40
0.435546875
 40
0.4365234375
 40
0.4370117188
 40
0.4375
 40
0.4379882812
 40
0.4384765625
 40
0.439453125
 40
0.44140625
 40
0.443359375
 40
0.4453125
 40
0.44921875
 40
0.453125
 40
0.4609375
 40
0.46875
 40
0.4765625
 40
0.484375
 40
0.48828125
 40
0.4921875
 40
0.494140625
 40
0.49609375
 40
0.498046875
 40
0.4990234375
 40
0.4995117188
 40
0.5
 40
0.5004882812
 40
0.5009765625
 40
0.501953125
 40
0.50390625
 40
0.505859375
 40
0.5078125
 40
0.51171875
 40
0.515625
 40
0.5234375
 40
0.53125
 40
0.5390625
 40
0.546875
 40
0.55078125
 40
0.5546875
 40
0.556640625
 40
0.55859375
 40
0.560546875
 40
0.5615234375
 40
0.5620117188
 40
0.5625
 40
0.5629882812
 40
0.5634765625
 40
0.564453125
 40
0.56640625
 40
0.568359375
 40
0.5703125
 40
0.57421875
 40
0.578125
 40
0.5859375
 40
0.59375
 40
0.6015625
 40
0.609375
 40
0.61328125
 40
0.6171875
 40
0.619140625
 40
0.62109375
 40
0.623046875
 40
0.6240234375
 40
0.6245117188
 40
0.625
 40
0.6254882812
 40
0.6259765625
 40
0.626953125
 40
0.62890625
 40
0.630859375
 40
0.6328125
 40
0.63671875
 40
0.640625
 40
0.6484375
 40
0.65625
 40
0.6640625
 40
0.671875
 40
0.67578125
 40
0.6796875
 40
0.681640625
 40
0.68359375
 40
0.685546875
 40
0.6865234375
 40
0.6870117188
 40
0.6875
 40
0.6879882812
 40
0.6884765625
 40
0.689453125
 40
0.69140625
 40
0.693359375
 40
0.6953125
 40
0.69921875
 40
0.703125
 40
0.7109375
 40
0.71875
 40
0.7265625
 40
0.734375
 40
0.73828125
 40
0.7421875
 40
0.744140625
 40
0.74609375
 40
0.748046875
 40
0.7490234375
 40
0.7495117188
 40
0.75
 40
0.7504882812
 40
0.7509765625
 40
0.751953125
 40
0.75390625
 40
0.755859375
 40
0.7578125
 40
0.76171875
 40
0.765625
 40
0.7734375
 40
0.78125
 40
0.7890625
 40
0.796875
 40
0.80078125
 40
0.8046875
 40
0.806640625
 40
0.80859375
 40
0.810546875
 40
0.8115234375
 40
0.8120117188
 40
0.8125
 40
0.8129882812
 40
0.8134765625
 40
0.814453125
 40
0.81640625
 40
0.818359375
 40
0.8203125
 40
0.82421875
 40
0.828125
 40
0.8359375
 40
0.84375
 40
0.8515625
 40
0.859375
 40
0.86328125
 40
0.8671875
 40
0.869140625
 40
0.87109375
 40
0.873046875
 40
0.8740234375
 40
0.8745117188
 40
0.875
 40
0.8754882812
 40
0.8759765625
 40
0.876953125
 40
0.87890625
 40
0.880859375
 40
0.8828125
 40
0.88671875
 40
0.890625
 40
0.8984375
 40
0.90625
 40
0.9140625
 40
0.921875
 40
0.92578125
 40
0.9296875
 40
0.931640625
 40
0.93359375
 40
0.935546875
 40
0.9365234375
 40
0.9370117188
 40
0.9375
 40
0.9379882812
 40
0.9384765625
 40
0.939453125
 40
0.94140625
 40
0.943359375
 40
0.9453125
 40
0.94921875
 40
0.953125
 40
0.9609375
 40
0.96875
 40
0.9765625
 40
0.984375
 40
1.0
 40
1.0
 40
1.0
 40
1.0
 10
9.1853808201
 20
10.0515603665
 30
0.0
 10
9.1825665803
 20
10.0514795961
 30
0.0
 10
9.1783452205
 20
10.0513584406
 30
0.0
 10
9.172716741
 20
10.0511968992
 30
0.0
 10
9.1684953809
 20
10.0510757453
 30
0.0
 10
9.1642740225
 20
10.050954583
 30
0.0
 10
9.1607562187
 20
10.0508536408
 30
0.0
 10
9.1579419872
 20
10.0507728278
 30
0.0
 10
9.1561830662
 20
10.0507224546
 30
0.0
 10
9.1547759897
 20
10.0506818471
 30
0.0
 10
9.1537205171
 20
10.0506522373
 30
0.0
 10
9.1528414822
 20
10.0506248716
 30
0.0
 10
9.1522251263
 20
10.0506109965
 30
0.0
 10
9.1518745335
 20
10.0505948222
 30
0.0
 10
9.1516070519
 20
10.0506059195
 30
0.0
 10
9.1513569129
 20
10.0505282277
 30
0.0
 10
9.151017345
 20
10.0504556092
 30
0.0
 10
9.1504259195
 20
10.0503140972
 30
0.0
 10
9.1495795525
 20
10.0501194811
 30
0.0
 10
9.1485645428
 20
10.0498827128
 30
0.0
 10
9.1472109762
 20
10.0495681495
 30
0.0
 10
9.1455190935
 20
10.0491745592
 30
0.0
 10
9.1428120388
 20
10.0485450307
 30
0.0
 10
9.1394282352
 20
10.0477580454
 30
0.0
 10
9.1353676638
 20
10.0468136971
 30
0.0
 10
9.1313070973
 20
10.0458693321
 30
0.0
 10
9.1279232813
 20
10.0450823886
 30
0.0
 10
9.1252162514
 20
10.0444527767
 30
0.0
 10
9.1235243059
 20
10.0440593983
 30
0.0
 10
9.122170868
 20
10.0437444001
 30
0.0
 10
9.1211554654
 20
10.0435089604
 30
0.0
 10
9.1203103277
 20
10.0433101873
 30
0.0
 10
9.1197167077
 20
10.0431760962
 30
0.0
 10
9.119380656
 20
10.0430915875
 30
0.0
 10
9.1191197161
 20
10.0430504189
 30
0.0
 10
9.1188928008
 20
10.042924341
 30
0.0
 10
9.1185783789
 20
10.0427858544
 30
0.0
 10
9.1180336702
 20
10.0425297035
 30
0.0
 10
9.117252624
 20
10.0421709882
 30
0.0
 10
9.1163166059
 20
10.0417374418
 30
0.0
 10
9.1150681496
 20
10.0411604586
 30
0.0
 10
9.1135077272
 20
10.0404388602
 30
0.0
 10
9.1110109687
 20
10.0392845092
 30
0.0
 10
9.1078900491
 20
10.0378414992
 30
0.0
 10
9.1041449323
 20
10.0361099197
 30
0.0
 10
9.100399823
 20
10.0343783241
 30
0.0
 10
9.0972788848
 20
10.0329353544
 30
0.0
 10
9.0947821635
 20
10.0317809228
 30
0.0
 10
9.0932216464
 20
10.0310595294
 30
0.0
 10
9.0919733845
 20
10.0304821253
 30
0.0
 10
9.0910367726
 20
10.0300498646
 30
0.0
 10
9.0902575844
 20
10.0296871267
 30
0.0
 10
9.0897095587
 20
10.0294381568
 30
0.0
 10
9.0894004515
 20
10.0292881646
 30
0.0
 10
9.0891572112
 20
10.0291974282
 30
0.0
 10
9.0889575854
 20
10.0290235225
 30
0.0
 10
9.0886762045
 20
10.0288206586
 30
0.0
 10
9.088190876
 20
10.0284521302
 30
0.0
 10
9.0874938438
 20
10.0279327277
 30
0.0
 10
9.0866589913
 20
10.02730642
 30
0.0
 10
9.0855453007
 20
10.0264723996
 30
0.0
 10
9.0841533772
 20
10.0254295123
 30
0.0
 10
9.0819261934
 20
10.0237610948
 30
0.0
 10
9.0791422505
 20
10.0216755032
 30
0.0
 10
9.0758015015
 20
10.0191728247
 30
0.0
 10
9.0724607635
 20
10.0166701322
 30
0.0
 10
9.0696767933
 20
10.0145845758
 30
0.0
 10
9.067449664
 20
10.0129160879
 30
0.0
 10
9.066057602
 20
10.0118733795
 30
0.0
 10
9.0649441957
 20
10.0110389919
 30
0.0
 10
9.0641084746
 20
10.0104138057
 30
0.0
 10
9.0634141601
 20
10.0098908944
 30
0.0
 10
9.0629239801
 20
10.0095286299
 30
0.0
 10
9.0626503726
 20
10.0093157297
 30
0.0
 10
9.0624268693
 20
10.0091726524
 30
0.0
 10
9.0622733089
 20
10.0089661293
 30
0.0
 10
9.0620441648
 20
10.0087128958
 30
0.0
 10
9.0616545295
 20
10.0082594261
 30
0.0
 10
9.061091965
 20
10.007617003
 30
0.0
 10
9.0604194313
 20
10.0068437879
 30
0.0
 10
9.0595218312
 20
10.0058136403
 30
0.0
 10
9.0584001352
 20
10.0045256799
 30
0.0
 10
9.0566052517
 20
10.0024650975
 30
0.0
 10
9.054361706
 20
9.9998893162
 30
0.0
 10
9.0516694243
 20
9.9967984029
 30
0.0
 10
9.0489771563
 20
9.9937074781
 30
0.0
 10
9.0467335761
 20
9.9911317253
 30
0.0
 10
9.0449387617
 20
9.9890710861
 30
0.0
 10
9.0438168899
 20
9.9877832699
 30
0.0
 10
9.0429196507
 20
9.9867528262
 30
0.0
 10
9.0422460144
 20
9.9859805157
 30
0.0
 10
9.0416868995
 20
9.9853352623
 30
0.0
 10
9.0412911062
 20
9.9848868452
 30
0.0
 10
9.0410718289
 20
9.9846255162
 30
0.0
 10
9.0408879607
 20
9.9844438597
 30
0.0
 10
9.0407782884
 20
9.9842073878
 30
0.0
 10
9.0406061784
 20
9.9839112121
 30
0.0
 10
9.0403170439
 20
9.9833839963
 30
0.0
 10
9.0398976905
 20
9.9826354882
 30
0.0
 10
9.0393971649
 20
9.9817352849
 30
0.0
 10
9.0387288548
 20
9.9805357102
 30
0.0
 10
9.03789379
 20
9.9790360034
 30
0.0
 10
9.0365575058
 20
9.9766366059
 30
0.0
 10
9.034887213
 20
9.973637313
 30
0.0
 10
9.0328828328
 20
9.9700381821
 30
0.0
 10
9.0308784678
 20
9.9664390422
 30
0.0
 10
9.0292081373
 20
9.963439772
 30
0.0
 10
9.0278719283
 20
9.9610403289
 30
0.0
 10
9.0270366724
 20
9.9595407378
 30
0.0
 10
9.0263687545
 20
9.9583409257
 30
0.0
 10
9.0258670308
 20
9.9574414479
 30
0.0
 10
9.0254514259
 20
9.9566906699
 30
0.0
 10
9.0251555998
 20
9.9561675062
 30
0.0
 10
9.0249942114
 20
9.955864838
 30
0.0
 10
9.0248516056
 20
9.9556483089
 30
0.0
 10
9.0247914303
 20
9.9553917506
 30
0.0
 10
9.0246824439
 20
9.9550636356
 30
0.0
 10
9.0245051141
 20
9.9544829288
 30
0.0
 10
9.024244782
 20
9.9536567488
 30
0.0
 10
9.0239353813
 20
9.952663877
 30
0.0
 10
9.0235218
 20
9.9513405565
 30
0.0
 10
9.0230051819
 20
9.9496862317
 30
0.0
 10
9.0221783925
 20
9.9470394093
 30
0.0
 10
9.0211449751
 20
9.9437308478
 30
0.0
 10
9.0199048423
 20
9.9397605891
 30
0.0
 10
9.0186647258
 20
9.9357903235
 30
0.0
 10
9.0176312676
 20
9.9324817792
 30
0.0
 10
9.0168045597
 20
9.9298349223
 30
0.0
 10
9.0162877343
 20
9.9281806853
 30
0.0
 10
9.0158745785
 20
9.9268571846
 30
0.0
 10
9.0155638779
 20
9.925864863
 30
0.0
 10
9.015307613
 20
9.9250369616
 30
0.0
 10
9.0151230227
 20
9.9244593279
 30
0.0
 10
9.0150256694
 20
9.924126289
 30
0.0
 10
9.0149297608
 20
9.9238848551
 30
0.0
 10
9.0149213633
 20
9.9236115216
 30
0.0
 10
9.0148796417
 20
9.9232582038
 30
0.0
 10
9.0148208511
 20
9.9226347134
 30
0.0
 10
9.014729429
 20
9.9217467233
 30
0.0
 10
9.0146229051
 20
9.920679975
 30
0.0
 10
9.0144797616
 20
9.9192580491
 30
0.0
 10
9.0143012129
 20
9.9174805031
 30
0.0
 10
9.0140153222
 20
9.9146365069
 30
0.0
 10
9.0136580322
 20
9.9110814851
 30
0.0
 10
9.0132292507
 20
9.9068154703
 30
0.0
 10
9.0128004862
 20
9.9025494527
 30
0.0
 10
9.0124431535
 20
9.8989944381
 30
0.0
 10
9.0121573483
 20
9.8961504275
 30
0.0
 10
9.011978582
 20
9.8943729182
 30
0.0
 10
9.0118358852
 20
9.8929509168
 30
0.0
 10
9.0117279967
 20
9.8918843994
 30
0.0
 10
9.0116408442
 20
9.890995687
 30
0.0
 10
9.0115744316
 20
9.890373486
 30
0.0
 10
9.0115449223
 20
9.8900181023
 30
0.0
 10
9.0114990127
 20
9.8897511144
 30
0.0
 10
9.0115439932
 20
9.8894858472
 30
0.0
 10
9.0115722638
 20
9.8891315574
 30
0.0
 10
9.0116365085
 20
9.8885118299
 30
0.0
 10
9.0117205641
 20
9.8876263586
 30
0.0
 10
9.0118247363
 20
9.8865638557
 30
0.0
 10
9.011962478
 20
9.8851471633
 30
0.0
 10
9.0121350506
 20
9.8833763053
 30
0.0
 10
9.0124109456
 20
9.8805429282
 30
0.0
 10
9.0127558906
 20
9.8770012084
 30
0.0
 10
9.0131697899
 20
9.8727511437
 30
0.0
 10
9.0135837063
 20
9.8685010803
 30
0.0
 10
9.0139286086
 20
9.8649593573
 30
0.0
 10
9.0142045893
 20
9.8621259865
 30
0.0
 10
9.0143769441
 20
9.8603551126
 30
0.0
 10
9.0145151327
 20
9.8589384527
 30
0.0
 10
9.0146179397
 20
9.8578758505
 30
0.0
 10
9.0147062667
 20
9.8569906901
 30
0.0
 10
9.0147628862
 20
9.8563704076
 30
0.0
 10
9.0148033742
 20
9.8560170069
 30
0.0
 10
9.0148108268
 20
9.8557490085
 30
0.0
 10
9.0149058658
 20
9.8554922786
 30
0.0
 10
9.0150020334
 20
9.8551460414
 30
0.0
 10
9.0151845609
 20
9.8545419576
 30
0.0
 10
9.0154378727
 20
9.8536780233
 30
0.0
 10
9.0157450323
 20
9.8526417121
 30
0.0
 10
9.0161534657
 20
9.8512598205
 30
0.0
 10
9.0166643884
 20
9.8495325051
 30
0.0
 10
9.0174816519
 20
9.8467687731
 30
0.0
 10
9.0185033047
 20
9.8433141176
 30
0.0
 10
9.0197292546
 20
9.8391685263
 30
0.0
 10
9.0209552208
 20
9.8350229387
 30
0.0
 10
9.0219768328
 20
9.8315682737
 30
0.0
 10
9.0227941779
 20
9.8288045607
 30
0.0
 10
9.0233048931
 20
9.827077197
 30
0.0
 10
9.0237137525
 20
9.8256954046
 30
0.0
 10
9.0240196106
 20
9.8246587906
 30
0.0
 10
9.0242769942
 20
9.8237958034
 30
0.0
 10
9.0244522529
 20
9.8231900291
 30
0.0
 10
9.024560067
 20
9.8228465005
 30
0.0
 10
9.0246193318
 20
9.8225814506
 30
0.0
 10
9.0247611464
 20
9.8223447004
 30
0.0
 10
9.0249214382
 20
9.8220191622
 30
0.0
 10
9.0252153647
 20
9.8214540697
 30
0.0
 10
9.0256282457
 20
9.82064439
 30
0.0
 10
9.0261267052
 20
9.8196738037
 30
0.0
 10
9.0267902692
 20
9.8183793291
 30
0.0
 10
9.0276200833
 20
9.8167613589
 30
0.0
 10
9.0289475851
 20
9.8141725378
 30
0.0
 10
9.0306070316
 20
9.8109365352
 30
0.0
 10
9.0325983358
 20
9.807053321
 30
0.0
 10
9.0345896556
 20
9.8031701132
 30
0.0
 10
9.0362490631
 20
9.7999340947
 30
0.0
 10
9.0375766429
 20
9.7973453054
 30
0.0
 10
9.0384062585
 20
9.7957272543
 30
0.0
 10
9.0390702299
 20
9.7944329458
 30
0.0
 10
9.0395674449
 20
9.7934618519
 30
0.0
 10
9.0399842196
 20
9.7926537603
 30
0.0
 10
9.0402711952
 20
9.7920858328
 30
0.0
 10
9.0404426241
 20
9.7917648369
 30
0.0
 10
9.0405502292
 20
9.7915141342
 30
0.0
 10
9.0407379791
 20
9.7913014879
 30
0.0
 10
9.0409603568
 20
9.791004685
 30
0.0
 10
9.0413625428
 20
9.7904914648
 30
0.0
 10
9.0419302846
 20
9.7897550596
 30
0.0
 10
9.0426144896
 20
9.7888727574
 30
0.0
 10
9.0435257447
 20
9.787695871
 30
0.0
 10
9.0446651623
 20
9.7862249286
 30
0.0
 10
9.0464880355
 20
9.7838713281
 30
0.0
 10
9.0487666941
 20
9.7809293597
 30
0.0
 10
9.0515010543
 20
9.7773989822
 30
0.0
 10
9.0542354279
 20
9.7738686147
 30
0.0
 10
9.0565140533
 20
9.7709266213
 30
0.0
 10
9.058336993
 20
9.7685730708
 30
0.0
 10
9.0594762413
 20
9.7671020015
 30
0.0
 10
9.0603878439
 20
9.7659253754
 30
0.0
 10
9.0610709875
 20
9.7650422782
 30
0.0
 10
9.0616420498
 20
9.7643083604
 30
0.0
 10
9.0620383083
 20
9.7637906997
 30
0.0
 10
9.0622701833
 20
9.7635010116
 30
0.0
 10
9.0624287606
 20
9.763266511
 30
0.0
 10
9.0626459331
 20
9.7630978896
 30
0.0
 10
9.0629150578
 20
9.7628500816
 30
0.0
 10
9.0633955488
 20
9.7624271242
 30
0.0
 10
9.0640769859
 20
9.7618173019
 30
0.0
 10
9.0648968414
 20
9.761087911
 30
0.0
 10
9.0659892377
 20
9.7601145529
 30
0.0
 10
9.067354988
 20
9.7588981419
 30
0.0
 10
9.069540046
 20
9.7569517241
 30
0.0
 10
9.0722714177
 20
9.7545187571
 30
0.0
 10
9.0755490415
 20
9.7515991714
 30
0.0
 10
9.0788266756
 20
9.7486795987
 30
0.0
 10
9.0815580213
 20
9.746246599
 30
0.0
 10
9.0837431313
 20
9.7443002467
 30
0.0
 10
9.0851087495
 20
9.7430836691
 30
0.0
 10
9.0862014169
 20
9.7421106531
 30
0.0
 10
9.0870204443
 20
9.7413802171
 30
0.0
 10
9.0877044724
 20
9.7407736646
 30
0.0
 10
9.088180338
 20
9.7403448699
 30
0.0
 10
9.0884568738
 20
9.7401064148
 30
0.0
 10
9.0886512816
 20
9.7399090644
 30
0.0
 10
9.0888953594
 20
9.7397824653
 30
0.0
 10
9.0892034709
 20
9.7395889876
 30
0.0
 10
9.0897507383
 20
9.7392619
 30
0.0
 10
9.0905283287
 20
9.7387886206
 30
0.0
 10
9.0914632435
 20
9.7382232583
 30
0.0
 10
9.0927091656
 20
9.7374685433
 30
0.0
 10
9.0942667844
 20
9.7365254572
 30
0.0
 10
9.0967588535
 20
9.7350163475
 30
0.0
 10
9.0998739817
 20
9.7331300198
 30
0.0
 10
9.1036121167
 20
9.7308663991
 30
0.0
 10
9.1073502599
 20
9.7286027929
 30
0.0
 10
9.1104653679
 20
9.726716429
 30
0.0
 10
9.1129574774
 20
9.7252073916
 30
0.0
 10
9.1145149936
 20
9.7242641216
 30
0.0
 10
9.1157611261
 20
9.7235097841
 30
0.0
 10
9.1166953985
 20
9.7229432684
 30
0.0
 10
9.1174749987
 20
9.722473598
 30
0.0
 10
9.1180186781
 20
9.7221400676
 30
0.0
 10
9.1183325386
 20
9.7219569129
 30
0.0
 10
9.1185589575
 20
9.7217986049
 30
0.0
 10
9.1188196889
 20
9.7217203478
 30
0.0
 10
9.1191553622
 20
9.7215880824
 30
0.0
 10
9.1197483668
 20
9.7213696276
 30
0.0
 10
9.1205926009
 20
9.7210507477
 30
0.0
 10
9.1216069297
 20
9.7206710031
 30
0.0
 10
9.1229589322
 20
9.7201636601
 30
0.0
 10
9.1246490846
 20
9.7195298295
 30
0.0
 10
9.127353245
 20
9.7185155059
 30
0.0
 10
9.1307334743
 20
9.7172476688
 30
0.0
 10
9.1347897365
 20
9.7157262333
 30
0.0
 10
9.1388460044
 20
9.7142048137
 30
0.0
 10
9.1422262193
 20
9.7129369367
 30
0.0
 10
9.1449304086
 20
9.7119226927
 30
0.0
 10
9.1466204876
 20
9.7112886599
 30
0.0
 10
9.1479726407
 20
9.710781732
 30
0.0
 10
9.1489865094
 20
9.7104007193
 30
0.0
 10
9.1498321829
 20
9.7100858067
 30
0.0
 10
9.150422618
 20
9.7098602696
 30
0.0
 10
9.1507624083
 20
9.7097393518
 30
0.0
 10
9.1510104935
 20
9.7096262385
 30
0.0
 10
9.1512844096
 20
9.7095988448
 30
0.0
 10
9.1516406209
 20
9.7095324199
 30
0.0
 10
9.1522681887
 20
9.7094301073
 30
0.0
 10
9.1531625194
 20
9.7092766631
 30
0.0
 10
9.1542366556
 20
9.7090956476
 30
0.0
 10
9.1556685091
 20
9.7088532048
 30
0.0
 10
9.1574584384
 20
9.708550524
 30
0.0
 10
9.1603222624
 20
9.7080660265
 30
0.0
 10
9.1639020639
 20
9.707460476
 30
0.0
 10
9.1681978165
 20
9.7067337849
 30
0.0
 10
9.1724935716
 20
9.7060071019
 30
0.0
 10
9.1782212442
 20
9.7050381883
 30
0.0
 10
9.1825169989
 20
9.7043115039
 30
0.0
 10
9.1853808353
 20
9.7038270474
 30
0.0
  0
ENDSEC
  0
SECTION
  2
OBJECTS
  0
DICTIONARY
  5
C
100
AcDbDictionary
280
0
281
1
  3
ACAD_GROUP
350
D
  3
ACAD_MLINESTYLE
350
17
  3
ACAD_LAYOUT
350
1A
  3
ACAD_PLOTSETTINGS
350
19
  3
ACAD_PLOTSTYLENAME
350
E
  3
ACAD_IMAGE_DICT
350
       3AF
  3
ACAD_IMAGE_VARS
350
       3B0
  3
ACAD_TABLESTYLE
350
       3B1
  0
IMAGEDEF_REACTOR
  5
3AE
100
AcDbRasterImageDefReactor
 90
2
330
28A
  0
DICTIONARY
  5
D
102
{ACAD_REACTORS
330
C
102
}
100
AcDbDictionary
280
0
281
1
  0
ACDBDICTIONARYWDFLT
  5
E
102
{ACAD_REACTORS
330
C
102
}
100
AcDbDictionary
281
1
  3
Normal
350
F
100
AcDbDictionaryWithDefault
340
F
  0
DICTIONARY
  5
3AF
330
C
100
AcDbDictionary
281
1
  3
IMN_assy_2_img_1
350
       3B4
  0
RASTERVARIABLES
  5
3B0
330
C
100
AcDbRasterVariables
 90
0
 70
0
 71
1
 72
5
  0
DICTIONARY
  5
17
102
{ACAD_REACTORS
330
C
102
}
100
AcDbDictionary
280
0
281
1
  3
Standard
350
18
  0
DICTIONARY
  5
3B1
330
C
100
AcDbDictionary
281
1
  3
Standard
350
       3B5
  3
Standard1
350
       3B6
  0
DICTIONARY
  5
19
102
{ACAD_REACTORS
330
C
102
}
100
AcDbDictionary
281
1
  0
DICTIONARY
  5
1A
102
{ACAD_REACTORS
330
C
102
}
100
AcDbDictionary
281
1
  3
Model
350
3B2
  3
Layout1
350
3B3
  0
ACDBPLACEHOLDER
  5
F
102
{ACAD_REACTORS
330
E
102
}
  0
MLINESTYLE
  5
18
102
{ACAD_REACTORS
330
17
102
}
100
AcDbMlineStyle
  2
STANDARD
 70
0
  3

 62
256
 51
90.0
 52
90.0
 71
2
 49
0.5
 62
256
  6
BYLAYER
 49
-0.5
 62
256
  6
BYLAYER
  0
LAYOUT
  5
3B2
102
{ACAD_REACTORS
330
1A
102
}
100
AcDbPlotSettings
  1

  2
none_device
  4
ANSI_C_(22.00_x_17.00_Inches)
  6

 40
0.0
 41
0.0
 42
0.0
 43
0.0
 44
558.8
 45
431.8
 46
0.0
 47
0.0
 48
0.0
 49
0.0
140
0.0
141
0.0
142
1.0
143
1.0
 70
1024
 72
0
 73
0
 74
0
  7

 75
0
147
1.0
148
0.0
149
0.0
100
AcDbLayout
  1
Model
 70
0
 71
0
 10
0.0
 20
0.0
 11
22.0
 21
17.0
 12
0.0
 22
0.0
 32
0.0
 14
0.0
 24
0.0
 34
0.0
 15
0.0
 25
0.0
 35
0.0
146
0.0
 13
0.0
 23
0.0
 33
0.0
 16
1.0
 26
0.0
 36
0.0
 17
0.0
 27
1.0
 37
0.0
 76
0
330
20C
345
0
346
0
  0
LAYOUT
  5
3B3
102
{ACAD_REACTORS
330
1A
102
}
100
AcDbPlotSettings
  1

  2
none_device
  4
ANSI_C_(22.00_x_17.00_Inches)
  6

 40
0.0
 41
0.0
 42
0.0
 43
0.0
 44
558.8
 45
431.8
 46
0.0
 47
0.0
 48
0.0
 49
0.0
140
0.0
141
0.0
142
1.0
143
1.0
 70
0
 72
0
 73
0
 74
0
  7

 75
0
147
1.0
148
0.0
149
0.0
100
AcDbLayout
  1
Layout1
 70
0
 71
1
 10
0.0
 20
0.0
 11
22.0
 21
17.0
 12
0.0
 22
0.0
 32
0.0
 14
0.0
 24
0.0
 34
0.0
 15
0.0
 25
0.0
 35
0.0
146
0.0
 13
0.0
 23
0.0
 33
0.0
 16
1.0
 26
0.0
 36
0.0
 17
0.0
 27
1.0
 37
0.0
 76
0
330
20D
345
0
346
0
  0
IMAGEDEF
  5
3B4
102
{ACAD_REACTORS
330
3AF
330
3AE
102
}
100
AcDbRasterImageDef
 90
0
  1
IMN_assy_2_img_1.png
 10
369.0
 20
92.0
 11
0.0066666667
 21
0.0066666667
280
1
281
0
  0
TABLESTYLE
  5
3B5
102
{ACAD_REACTORS
330
3B1
330
28D
330
28E
102
}
330
3B1
100
AcDbTableStyle
  3
Standard
 70
0
 71
0
 40
0.06
 41
0.06
280
1
281
1
  7
Standard
140
0.18
170
1
 62
0
 63
7
283
0
  7
Standard
140
0.18
170
1
 62
0
 63
7
283
0
  7
Standard
140
0.18
170
1
 62
0
 63
7
283
0
  0
TABLESTYLE
  5
3B6
102
{ACAD_REACTORS
330
3B1
330
28C
102
}
330
3B1
100
AcDbTableStyle
  3
Standard1
 70
1
 71
0
 40
0.06
 41
0.06
280
1
281
1
  7
Standard
140
0.18
170
1
 62
0
 63
7
283
0
  7
Standard
140
0.18
170
1
 62
0
 63
7
283
0
  7
Standard
140
0.18
170
1
 62
0
 63
7
283
0
  0
ENDSEC
  0
EOF
