999
DXF file: HGE_assy_2.dxf
999
Pro/ENGINEER 2014200 by Parametric Technology Corporation
  0
SECTION
  2
HEADER
  9
$ACADVER
  1
AC1021
  9
$DWGCODEPAGE
  3
ANSI_1252
  9
$EXTMAX
 10
22.0
 20
17.0
 30
0.0
  9
$EXTMIN
 10
0.0
 20
0.0
 30
0.0
  9
$LIMMIN
 10
0.0
 20
0.0
  9
$LIMMAX
 10
22.0
 20
17.0
  9
$VIEWCTR
 10
11.0
 20
8.5
  9
$VIEWSIZE
 40
17.0
  9
$CLAYER
  8
0
  9
$LTSCALE
 40
1.21
  9
$CELTYPE
  6
BYLAYER
  9
$DIMSCALE
 40
1.0
  9
$DIMASZ
 40
0.1875
  9
$DIMEXO
 40
0.0625
  9
$DIMDLI
 40
0.836
  9
$DIMEXE
 40
0.125
  9
$DIMCEN
 40
0.198
  9
$DIMLFAC
 40
1.0
  9
$DIMBLK
  1
_FILLED
  9
$DIMTXT
 40
0.1
  9
$DIMTOL
 70
0
  9
$DIMLIM
 70
0
  9
$DIMTFAC
 40
1.0
  9
$DIMGAP
 40
0.09
  9
$DIMDSEP
 70
46
  9
$AUNITS
 70
0
  9
$PDMODE
 70
3
  9
$PDSIZE
 40
0.3125
  9
$HANDSEED
  5
3FE
  9
$TILEMODE
 70
1
  9
$MEASUREMENT
 70
0
  9
$INSUNITS
 70
1
  0
ENDSEC
  0
SECTION
  2
CLASSES
  0
CLASS
  1
ACDBDICTIONARYWDFLT
  2
AcDbDictionaryWithDefault
  3
AutoCAD 2000
 90
0
 91
1
280
0
281
0
  0
CLASS
  1
ACDBPLACEHOLDER
  2
AcDbPlaceHolder
  3
AutoCAD 2000
 90
0
 91
1
280
0
281
0
  0
CLASS
  1
LAYOUT
  2
AcDbLayout
  3
AutoCAD 2000
 90
0
 91
0
280
0
281
0
  0
CLASS
  1
RASTERVARIABLES
  2
AcDbRasterVariables
  3
ISM
 90
0
 91
1
280
0
281
0
  0
CLASS
  1
IMAGEDEF
  2
AcDbRasterImageDef
  3
ISM
 90
0
 91
1
280
0
281
0
  0
CLASS
  1
IMAGEDEF_REACTOR
  2
AcDbRasterImageDefReactor
  3
ISM
 90
0
 91
1
280
0
281
0
  0
CLASS
  1
IMAGE
  2
AcDbRasterImage
  3
ISM
 90
127
 91
1
280
0
281
1
  0
CLASS
  1
TABLESTYLE
  2
AcDbTableStyle
  3
ObjectDBX Classes
 90
2047
 91
1
280
0
281
0
  0
CLASS
  1
ACAD_TABLE
  2
AcDbTable
  3
ObjectDBX Classes
 90
1025
 91
3
280
0
281
1
  0
ENDSEC
  0
SECTION
  2
TABLES
  0
TABLE
  2
VPORT
  5
8
100
AcDbSymbolTable
 70
2
  0
VPORT
  5
1F4
100
AcDbSymbolTableRecord
100
AcDbViewportTableRecord
  2
*ACTIVE
 70
0
 10
0.0
 20
0.0
 11
1.0
 21
1.0
 12
11.0
 22
8.5
 13
0.0
 23
0.0
 14
1.0
 24
1.0
 15
0.0
 25
0.0
 16
0.0
 26
0.0
 36
1.0
 17
0.0
 27
0.0
 37
0.0
 40
17.0
 41
1.2941176471
 42
50.0
 43
0.0
 44
0.0
 50
0.0
 51
0.0
 71
0
 72
100
 73
1
 74
1
 75
0
 76
0
 77
0
 78
0
  0
ENDTAB
  0
TABLE
  2
LTYPE
  5
5
100
AcDbSymbolTable
 70
6
  0
LTYPE
  5
14
100
AcDbSymbolTableRecord
100
AcDbLinetypeTableRecord
  2
BYBLOCK
 70
0
  3

 72
65
 73
0
 40
0.0
  0
LTYPE
  5
15
100
AcDbSymbolTableRecord
100
AcDbLinetypeTableRecord
  2
BYLAYER
 70
0
  3

 72
65
 73
0
 40
0.0
  0
LTYPE
  5
16
100
AcDbSymbolTableRecord
100
AcDbLinetypeTableRecord
  2
CONTINUOUS
 70
64
  3
Solid line
 72
65
 73
0
 40
0.0
  0
LTYPE
  5
1F5
100
AcDbSymbolTableRecord
100
AcDbLinetypeTableRecord
  2
CENTER
 70
64
  3
____ _ ____ _ ____ _ ____ _ ____ _ ____ _ ____
 72
65
 73
4
 40
0.6
 49
0.375
 74
0
 49
-0.075
 74
0
 49
0.075
 74
0
 49
-0.075
 74
0
  0
LTYPE
  5
1F6
100
AcDbSymbolTableRecord
100
AcDbLinetypeTableRecord
  2
HIDDEN
 70
64
  3
- - - - - - - - - - - - - - - - - - - -
 72
65
 73
2
 40
0.2
 49
0.1
 74
0
 49
-0.1
 74
0
  0
LTYPE
  5
1F7
100
AcDbSymbolTableRecord
100
AcDbLinetypeTableRecord
  2
PHANTOM
 70
64
  3
_____ _ _ _____ _ _ _____ _ _ _____
 72
65
 73
6
 40
0.8
 49
0.45
 74
0
 49
-0.05
 74
0
 49
0.1
 74
0
 49
-0.05
 74
0
 49
0.1
 74
0
 49
-0.05
 74
0
  0
LTYPE
  5
1F8
100
AcDbSymbolTableRecord
100
AcDbLinetypeTableRecord
  2
DOT
 70
64
  3
. . . . . . . . . . . . . . . . . . . .
 72
65
 73
2
 40
0.2
 49
0.1
 74
0
 49
-0.1
 74
0
  0
LTYPE
  5
1F9
100
AcDbSymbolTableRecord
100
AcDbLinetypeTableRecord
  2
DASHED
 70
64
  3
- - - - - - - - - - - - - - - - - - - -
 72
65
 73
2
 40
0.2
 49
0.1
 74
0
 49
-0.1
 74
0
  0
ENDTAB
  0
TABLE
  2
LAYER
  5
2
100
AcDbSymbolTable
 70
36
  0
LAYER
  5
10
100
AcDbSymbolTableRecord
100
AcDbLayerTableRecord
  2
0
 70
0
 62
7
  6
CONTINUOUS
370
-3
390
F
  0
LAYER
  5
1FA
100
AcDbSymbolTableRecord
100
AcDbLayerTableRecord
  2
DEFAULT_1
 70
0
 62
7
  6
CENTER
370
-3
390
F
  0
LAYER
  5
1FB
100
AcDbSymbolTableRecord
100
AcDbLayerTableRecord
  2
DEFAULT_2
 70
0
 62
8
  6
HIDDEN
370
-3
390
F
  0
LAYER
  5
1FC
100
AcDbSymbolTableRecord
100
AcDbLayerTableRecord
  2
DEFAULT_3
 70
0
 62
7
  6
PHANTOM
370
-3
390
F
  0
LAYER
  5
1FD
100
AcDbSymbolTableRecord
100
AcDbLayerTableRecord
  2
01___PRT_ALL_DTM_PLN
 70
0
 62
7
  6
CONTINUOUS
370
-3
390
F
  0
LAYER
  5
1FE
100
AcDbSymbolTableRecord
100
AcDbLayerTableRecord
  2
01___PRT_DEF_DTM_PLN
 70
0
 62
7
  6
CONTINUOUS
370
-3
390
F
  0
LAYER
  5
1FF
100
AcDbSymbolTableRecord
100
AcDbLayerTableRecord
  2
02___PRT_ALL_AXES
 70
0
 62
7
  6
CONTINUOUS
370
-3
390
F
  0
LAYER
  5
200
100
AcDbSymbolTableRecord
100
AcDbLayerTableRecord
  2
03___PRT_ALL_CURVES
 70
0
 62
7
  6
CONTINUOUS
370
-3
390
F
  0
LAYER
  5
201
100
AcDbSymbolTableRecord
100
AcDbLayerTableRecord
  2
04___PRT_ALL_DTM_PNT
 70
0
 62
7
  6
CONTINUOUS
370
-3
390
F
  0
LAYER
  5
202
100
AcDbSymbolTableRecord
100
AcDbLayerTableRecord
  2
05___PRT_ALL_DTM_CSYS
 70
0
 62
7
  6
CONTINUOUS
370
-3
390
F
  0
LAYER
  5
203
100
AcDbSymbolTableRecord
100
AcDbLayerTableRecord
  2
05___PRT_DEF_DTM_CSYS
 70
0
 62
7
  6
CONTINUOUS
370
-3
390
F
  0
LAYER
  5
204
100
AcDbSymbolTableRecord
100
AcDbLayerTableRecord
  2
06___PRT_ALL_SURFS
 70
0
 62
7
  6
CONTINUOUS
370
-3
390
F
  0
LAYER
  5
205
100
AcDbSymbolTableRecord
100
AcDbLayerTableRecord
  2
DATUM_PLANES
 70
0
 62
7
  6
CONTINUOUS
370
-3
390
F
  0
LAYER
  5
206
100
AcDbSymbolTableRecord
100
AcDbLayerTableRecord
  2
DIMENSIONS
 70
0
 62
7
  6
CONTINUOUS
370
-3
390
F
  0
LAYER
  5
207
100
AcDbSymbolTableRecord
100
AcDbLayerTableRecord
  2
PARAMETERDIMENSIONS
 70
0
 62
7
  6
CONTINUOUS
370
-3
390
F
  0
LAYER
  5
208
100
AcDbSymbolTableRecord
100
AcDbLayerTableRecord
  2
PORT_AREAS
 70
0
 62
7
  6
CONTINUOUS
370
-3
390
F
  0
LAYER
  5
209
100
AcDbSymbolTableRecord
100
AcDbLayerTableRecord
  2
SUNNBOMCOSMETIC
 70
0
 62
7
  6
CONTINUOUS
370
-3
390
F
  0
LAYER
  5
20A
100
AcDbSymbolTableRecord
100
AcDbLayerTableRecord
  2
SUNNBOMSTAMPING
 70
0
 62
7
  6
CONTINUOUS
370
-3
390
F
  0
LAYER
  5
20B
100
AcDbSymbolTableRecord
100
AcDbLayerTableRecord
  2
THREADS
 70
0
 62
7
  6
CONTINUOUS
370
-3
390
F
  0
ENDTAB
  0
TABLE
  2
STYLE
  5
3
100
AcDbSymbolTable
 70
1
  0
STYLE
  5
11
100
AcDbSymbolTableRecord
100
AcDbTextStyleTableRecord
  2
STANDARD
 70
0
 40
0.0
 41
0.8
 50
0.0
 71
0
 42
0.2
  3
txt
  4

  0
STYLE
  5
20C
100
AcDbSymbolTableRecord
100
AcDbTextStyleTableRecord
  2
TEXTSTYLE_1
 70
0
 40
0.0
 41
0.8
 50
0.0
 71
0
 42
0.2
  3
gdt
  4

  0
ENDTAB
  0
TABLE
  2
VIEW
  5
6
100
AcDbSymbolTable
 70
0
  0
ENDTAB
  0
TABLE
  2
UCS
  5
7
100
AcDbSymbolTable
 70
0
  0
ENDTAB
  0
TABLE
  2
APPID
  5
9
100
AcDbSymbolTable
 70
1
  0
APPID
  5
20D
100
AcDbSymbolTableRecord
100
AcDbRegAppTableRecord
  2
ACAD
 70
0
  0
ENDTAB
  0
TABLE
  2
BLOCK_RECORD
  5
1
100
AcDbSymbolTable
 70
0
  0
BLOCK_RECORD
  5
20E
100
AcDbSymbolTableRecord
100
AcDbBlockTableRecord
  2
*Model_Space
  0
BLOCK_RECORD
  5
20F
100
AcDbSymbolTableRecord
100
AcDbBlockTableRecord
  2
*Paper_Space
  0
BLOCK_RECORD
  5
210
100
AcDbSymbolTableRecord
100
AcDbBlockTableRecord
  2
SUN_FIRST_THIRD_ANGLE_BL0
  0
BLOCK_RECORD
  5
211
100
AcDbSymbolTableRecord
100
AcDbBlockTableRecord
  2
*T1
  0
BLOCK_RECORD
  5
212
100
AcDbSymbolTableRecord
100
AcDbBlockTableRecord
  2
*T2
  0
BLOCK_RECORD
  5
213
100
AcDbSymbolTableRecord
100
AcDbBlockTableRecord
  2
*T3
  0
ENDTAB
  0
TABLE
  2
DIMSTYLE
  5
A
100
AcDbSymbolTable
 70
1
100
AcDbDimStyleTable
 71
0
  0
DIMSTYLE
105
214
100
AcDbSymbolTableRecord
100
AcDbDimStyleTableRecord
  2
STANDARD
 70
0
  3

  4

 40
1.0
 41
0.1875
 42
0.0625
 43
0.38
 44
0.125
 45
0.0
 46
0.0
 47
0.001
 48
0.001
140
0.1
141
0.09
142
0.0
143
25.4
144
1.0
145
0.0
146
1.0
147
0.09
 71
0.0
 72
0.0
 73
1
 74
1
 75
0
 76
0
 77
0
 78
4
170
0
171
2
172
0
173
0
174
0
175
0
176
0
177
0
178
0
270
2
271
3
272
3
273
2
274
2
275
0
280
0
281
0
282
0
283
1
284
4
285
0
286
0
287
3
288
0
340
11
278
46
  0
ENDTAB
  0
ENDSEC
  0
SECTION
  2
BLOCKS
  0
BLOCK
  5
20
100
AcDbEntity
  8
0
100
AcDbBlockBegin
  2
*Model_Space
 70
0
 10
0.0
 20
0.0
 30
0.0
  3
*Model_Space
  1

  0
ENDBLK
  5
21
100
AcDbEntity
  8
0
100
AcDbBlockEnd
  0
BLOCK
  5
1C
100
AcDbEntity
  8
0
100
AcDbBlockBegin
  2
*Paper_Space
 70
0
 10
0.0
 20
0.0
 30
0.0
  3
*Paper_Space
  1

  0
ENDBLK
  5
1D
100
AcDbEntity
  8
0
100
AcDbBlockEnd
  0
BLOCK
  5
215
100
AcDbEntity
  8
0
100
AcDbBlockBegin
 62
2
  6
CONTINUOUS
  2
SUN_FIRST_THIRD_ANGLE_BL0
 70
64
 10
20.4816717061
 20
1.2289683772
  3
SUN_FIRST_THIRD_ANGLE_BL0
  1

  0
TEXT
  5
216
100
AcDbEntity
  8
0
100
AcDbText
 62
2
  6
CONTINUOUS
 10
19.4750896608
 20
1.4136269581
  7
STANDARD
 40
0.08
  1
FIRST ANGLE
 41
0.8
 72
0
100
AcDbText
  0
TEXT
  5
217
100
AcDbEntity
  8
0
100
AcDbText
 62
2
  6
CONTINUOUS
 10
20.7842537513
 20
1.4047600029
  7
STANDARD
 40
0.08
  1
THIRD ANGLE
 41
0.8
 72
0
100
AcDbText
  0
LINE
  5
218
100
AcDbEntity
  8
0
100
AcDbLine
 62
7
  6
CONTINUOUS
 10
19.4767170086
 20
1.1727031207
 11
19.6334271527
 21
1.1717972817
  0
LINE
  5
219
100
AcDbEntity
  8
0
100
AcDbLine
 62
7
  6
CONTINUOUS
 10
19.6596964832
 20
1.1717972817
 11
19.6950230232
 21
1.171593082
  0
LINE
  5
21A
100
AcDbEntity
  8
0
100
AcDbLine
 62
7
  6
CONTINUOUS
 10
19.7194818561
 20
1.1708914427
 11
19.8852396156
 21
1.1699333054
  0
LINE
  5
21B
100
AcDbEntity
  8
0
100
AcDbLine
 62
7
  6
CONTINUOUS
 10
19.4758111696
 20
1.2723454088
 11
19.88525039
 21
1.3511534004
  0
LINE
  5
21C
100
AcDbEntity
  8
0
100
AcDbLine
 62
7
  6
CONTINUOUS
 10
19.88525039
 20
1.3511534004
 11
19.8831348489
 21
0.9851647912
  0
LINE
  5
21D
100
AcDbEntity
  8
0
100
AcDbLine
 62
7
  6
CONTINUOUS
 10
19.8831348489
 20
0.9851647912
 11
19.4767170086
 21
1.0658141206
  0
LINE
  5
21E
100
AcDbEntity
  8
0
100
AcDbLine
 62
7
  6
CONTINUOUS
 10
19.4767170086
 20
1.0658141206
 11
19.4779056764
 21
1.2714536432
  0
CIRCLE
  5
21F
100
AcDbEntity
  8
0
100
AcDbCircle
 62
7
  6
CONTINUOUS
 10
20.2068232291
 20
1.1717972817
 40
0.175742101
  0
CIRCLE
  5
220
100
AcDbEntity
  8
0
100
AcDbCircle
 62
7
  6
CONTINUOUS
 10
20.2068232291
 20
1.1717972817
 40
0.1005522074
  0
LINE
  5
221
100
AcDbEntity
  8
0
100
AcDbLine
 62
7
  6
CONTINUOUS
 10
20.2077290681
 20
1.3756110529
 11
20.2071171714
 21
1.2379342989
  0
LINE
  5
222
100
AcDbEntity
  8
0
100
AcDbLine
 62
7
  6
CONTINUOUS
 10
20.2077290681
 20
1.2016899681
 11
20.2074674401
 21
1.1428236749
  0
LINE
  5
223
100
AcDbEntity
  8
0
100
AcDbLine
 62
7
  6
CONTINUOUS
 10
20.208634907
 20
1.101141841
 11
20.2080230104
 21
0.963465087
  0
LINE
  5
224
100
AcDbEntity
  8
0
100
AcDbLine
 62
7
  6
CONTINUOUS
 10
20.0066328138
 20
1.1745147986
 11
20.1443095678
 21
1.1739029019
  0
LINE
  5
225
100
AcDbEntity
  8
0
100
AcDbLine
 62
7
  6
CONTINUOUS
 10
20.1832714155
 20
1.1727031207
 11
20.238153505
 21
1.172335442
  0
LINE
  5
226
100
AcDbEntity
  8
0
100
AcDbLine
 62
7
  6
CONTINUOUS
 10
20.2756669918
 20
1.1717972817
 11
20.407916871
 21
1.1712095044
  0
CIRCLE
  5
227
100
AcDbEntity
  8
0
100
AcDbCircle
 62
7
  6
CONTINUOUS
 10
20.7509457401
 20
1.1693297793
 40
0.1722024983
  0
CIRCLE
  5
228
100
AcDbEntity
  8
0
100
AcDbCircle
 62
7
  6
CONTINUOUS
 10
20.7509457401
 20
1.1693297793
 40
0.0985164967
  0
LINE
  5
229
100
AcDbEntity
  8
0
100
AcDbLine
 62
7
  6
CONTINUOUS
 10
20.7169767782
 20
1.170462078
 11
20.7825395137
 21
1.1682766535
  0
LINE
  5
22A
100
AcDbEntity
  8
0
100
AcDbLine
 62
7
  6
CONTINUOUS
 10
20.8177513651
 20
1.1693297793
 11
20.947965719
 21
1.1693297793
  0
LINE
  5
22B
100
AcDbEntity
  8
0
100
AcDbLine
 62
7
  6
CONTINUOUS
 10
20.6875370113
 20
1.170462078
 11
20.5573226574
 21
1.170462078
  0
LINE
  5
22C
100
AcDbEntity
  8
0
100
AcDbLine
 62
7
  6
CONTINUOUS
 10
20.7486811426
 20
1.1987695462
 11
20.7486811426
 21
1.1432869085
  0
LINE
  5
22D
100
AcDbEntity
  8
0
100
AcDbLine
 62
7
  6
CONTINUOUS
 10
20.7498134414
 20
1.1059210505
 11
20.7498134414
 21
0.9757066966
  0
LINE
  5
22E
100
AcDbEntity
  8
0
100
AcDbLine
 62
7
  6
CONTINUOUS
 10
20.7486811426
 20
1.2338708068
 11
20.7486811426
 21
1.3640851607
  0
LINE
  5
22F
100
AcDbEntity
  8
0
100
AcDbLine
 62
7
  6
CONTINUOUS
 10
21.0702539817
 20
1.2701043662
 11
21.4790138229
 21
1.3448360823
  0
LINE
  5
230
100
AcDbEntity
  8
0
100
AcDbLine
 62
7
  6
CONTINUOUS
 10
21.4790138229
 20
1.3448360823
 11
21.4790138229
 21
0.9779712941
  0
LINE
  5
231
100
AcDbEntity
  8
0
100
AcDbLine
 62
7
  6
CONTINUOUS
 10
21.4790138229
 20
0.9779712941
 11
21.069121683
 21
1.0617614
  0
LINE
  5
232
100
AcDbEntity
  8
0
100
AcDbLine
 62
7
  6
CONTINUOUS
 10
21.0702539817
 20
1.2701043662
 11
21.069121683
 21
1.0617614
  0
LINE
  5
233
100
AcDbEntity
  8
0
100
AcDbLine
 62
7
  6
CONTINUOUS
 10
21.4790138229
 20
1.1693297793
 11
21.3159628059
 21
1.1693297793
  0
LINE
  5
234
100
AcDbEntity
  8
0
100
AcDbLine
 62
7
  6
CONTINUOUS
 10
21.2876553377
 20
1.1693297793
 11
21.2502894796
 21
1.1693297793
  0
LINE
  5
235
100
AcDbEntity
  8
0
100
AcDbLine
 62
7
  6
CONTINUOUS
 10
21.2208497126
 20
1.1659328831
 11
21.0713862804
 21
1.1659328831
  0
LINE
  5
236
100
AcDbEntity
  8
0
100
AcDbLine
 62
7
  6
CONTINUOUS
 10
20.4796138713
 20
1.5284908897
 11
20.4766766948
 21
0.9294458646
  0
ENDBLK
  5
237
100
AcDbEntity
  8
0
  6
BYBLOCK
 62
0
100
AcDbBlockEnd
  0
BLOCK
  5
238
100
AcDbEntity
  8
0
100
AcDbBlockBegin
  2
*T1
 70
1
 10
0.0
 20
0.0
  3
*T1
  1

  0
LINE
  5
239
100
AcDbEntity
  8
0
100
AcDbLine
 62
2
  6
CONTINUOUS
 10
9.275
 20
0.0
 11
-0.0
 21
0.0
  0
LINE
  5
23A
100
AcDbEntity
  8
0
100
AcDbLine
 62
2
  6
CONTINUOUS
 10
9.275
 20
0.0
 11
9.275
 21
1.25
  0
LINE
  5
23B
100
AcDbEntity
  8
0
100
AcDbLine
 62
2
  6
CONTINUOUS
 10
9.275
 20
0.625
 11
-0.0
 21
0.625
  0
LINE
  5
23C
100
AcDbEntity
  8
0
100
AcDbLine
 62
2
  6
CONTINUOUS
 10
9.275
 20
1.25
 11
-0.0
 21
1.25
  0
LINE
  5
23D
100
AcDbEntity
  8
0
100
AcDbLine
 62
2
  6
CONTINUOUS
 10
6.8
 20
0.0
 11
6.8
 21
1.25
  0
LINE
  5
23E
100
AcDbEntity
  8
0
100
AcDbLine
 62
2
  6
CONTINUOUS
 10
6.4
 20
0.0
 11
6.4
 21
0.625
  0
LINE
  5
23F
100
AcDbEntity
  8
0
100
AcDbLine
 62
2
  6
CONTINUOUS
 10
5.9
 20
0.0
 11
5.9
 21
0.625
  0
LINE
  5
240
100
AcDbEntity
  8
0
100
AcDbLine
 62
2
  6
CONTINUOUS
 10
5.2
 20
0.0
 11
5.2
 21
0.625
  0
LINE
  5
241
100
AcDbEntity
  8
0
100
AcDbLine
 62
2
  6
CONTINUOUS
 10
4.1
 20
0.0
 11
4.1
 21
1.25
  0
LINE
  5
242
100
AcDbEntity
  8
0
100
AcDbLine
 62
2
  6
CONTINUOUS
 10
-0.0
 20
0.0
 11
-0.0
 21
1.25
  0
MTEXT
  5
243
100
AcDbEntity
  8
0
100
AcDbMText
 62
2
  6
CONTINUOUS
  7
STANDARD
 71
2
 72
1
 10
6.6
 20
0.325
 30
0.0
 11
1.0
 21
0.0
 31
0.0
 44
0.9
  1
2
 40
0.125
 41
0.2
  0
MTEXT
  5
244
100
AcDbEntity
  8
0
100
AcDbMText
 62
2
  6
CONTINUOUS
  7
STANDARD
 71
2
 72
1
 10
6.15
 20
0.325
 30
0.0
 11
1.0
 21
0.0
 31
0.0
 44
0.9
  1
C
 40
0.125
 41
0.2
  0
MTEXT
  5
245
100
AcDbEntity
  8
0
100
AcDbMText
 62
2
  6
CONTINUOUS
  7
STANDARD
 71
2
 72
1
 10
5.55
 20
0.325
 30
0.0
 11
1.0
 21
0.0
 31
0.0
 44
0.9
  1
1.000
 40
0.125
 41
1.0
  0
MTEXT
  5
246
100
AcDbEntity
  8
0
100
AcDbMText
 62
2
  6
CONTINUOUS
  7
STANDARD
 71
2
 72
1
 10
4.65
 20
0.325
 30
0.0
 11
1.0
 21
0.0
 31
0.0
 44
0.9
  1
Sep-09-19
 40
0.125
 41
1.8
  0
MTEXT
  5
247
100
AcDbEntity
  8
0
100
AcDbMText
 62
2
  6
CONTINUOUS
  7
STANDARD
 71
2
 72
1
 10
2.05
 20
0.4625
 30
0.0
 11
1.0
 21
0.0
 31
0.0
 44
0.9
  1
T-17A Line mount\PNinety degree with shuttle
 40
0.125
 41
5.2
  0
MTEXT
  5
248
100
AcDbEntity
  8
0
100
AcDbMText
 62
2
  6
CONTINUOUS
  7
STANDARD
 71
1
 72
1
 10
6.45
 20
0.5625
 30
0.0
 11
1.0
 21
0.0
 31
0.0
 44
0.9
  1
SHEET
 40
0.06
 41
0.48
  0
MTEXT
  5
249
100
AcDbEntity
  8
0
100
AcDbMText
 62
2
  6
CONTINUOUS
  7
STANDARD
 71
1
 72
1
 10
5.95
 20
0.5625
 30
0.0
 11
1.0
 21
0.0
 31
0.0
 44
0.9
  1
DWG SIZE
 40
0.06
 41
0.768
  0
MTEXT
  5
24A
100
AcDbEntity
  8
0
100
AcDbMText
 62
2
  6
CONTINUOUS
  7
STANDARD
 71
1
 72
1
 10
5.25
 20
0.5625
 30
0.0
 11
1.0
 21
0.0
 31
0.0
 44
0.9
  1
SCALE
 40
0.06
 41
0.48
  0
MTEXT
  5
24B
100
AcDbEntity
  8
0
100
AcDbMText
 62
2
  6
CONTINUOUS
  7
STANDARD
 71
1
 72
1
 10
4.15
 20
0.5625
 30
0.0
 11
1.0
 21
0.0
 31
0.0
 44
0.9
  1
DATE
 40
0.06
 41
0.384
  0
MTEXT
  5
24C
100
AcDbEntity
  8
0
100
AcDbMText
 62
2
  6
CONTINUOUS
  7
STANDARD
 71
1
 72
1
 10
0.05
 20
0.5625
 30
0.0
 11
1.0
 21
0.0
 31
0.0
 44
0.9
  1
DESCRIPTION
 40
0.06
 41
1.056
  0
MTEXT
  5
24D
100
AcDbEntity
  8
0
100
AcDbMText
 62
2
  6
CONTINUOUS
  7
STANDARD
 71
2
 72
1
 10
5.45
 20
1.0375
 30
0.0
 11
1.0
 21
0.0
 31
0.0
 44
0.9
  1
ALL DIMENSIONS IN INCH\PVIEWS ARE THIRD ANGLE
 40
0.12
 41
4.224
  0
MTEXT
  5
24E
100
AcDbEntity
  8
0
100
AcDbMText
 62
2
  6
CONTINUOUS
  7
STANDARD
 71
2
 72
1
 10
2.05
 20
0.95
 30
0.0
 11
1.0
 21
0.0
 31
0.0
 44
0.9
  1
HGE
 40
0.125
 41
0.6
  0
MTEXT
  5
24F
100
AcDbEntity
  8
0
100
AcDbMText
 62
2
  6
CONTINUOUS
  7
STANDARD
 71
1
 72
1
 10
0.05
 20
1.1875
 30
0.0
 11
1.0
 21
0.0
 31
0.0
 44
0.9
  1
MODEL
 40
0.06
 41
0.48
  0
ENDBLK
  5
250
100
AcDbEntity
  8
0
  6
BYBLOCK
 62
0
100
AcDbBlockEnd
  0
BLOCK
  5
251
100
AcDbEntity
  8
0
100
AcDbBlockBegin
  2
*T2
 70
1
 10
0.0
 20
0.0
  3
*T2
  1

  0
LINE
  5
252
100
AcDbEntity
  8
0
100
AcDbLine
 62
2
  6
CONTINUOUS
 10
0.0
 20
0.0
 11
9.055
 21
0.0
  0
LINE
  5
253
100
AcDbEntity
  8
0
100
AcDbLine
 62
2
  6
CONTINUOUS
 10
0.0
 20
0.0
 11
0.0
 21
-2.594
  0
LINE
  5
254
100
AcDbEntity
  8
0
100
AcDbLine
 62
2
  6
CONTINUOUS
 10
0.0
 20
-0.344
 11
9.055
 21
-0.344
  0
LINE
  5
255
100
AcDbEntity
  8
0
100
AcDbLine
 62
2
  6
CONTINUOUS
 10
0.0
 20
-0.594
 11
9.055
 21
-0.594
  0
LINE
  5
256
100
AcDbEntity
  8
0
100
AcDbLine
 62
2
  6
CONTINUOUS
 10
0.0
 20
-0.844
 11
9.055
 21
-0.844
  0
LINE
  5
257
100
AcDbEntity
  8
0
100
AcDbLine
 62
2
  6
CONTINUOUS
 10
0.0
 20
-1.094
 11
9.055
 21
-1.094
  0
LINE
  5
258
100
AcDbEntity
  8
0
100
AcDbLine
 62
2
  6
CONTINUOUS
 10
0.0
 20
-1.344
 11
9.055
 21
-1.344
  0
LINE
  5
259
100
AcDbEntity
  8
0
100
AcDbLine
 62
2
  6
CONTINUOUS
 10
0.0
 20
-1.594
 11
9.055
 21
-1.594
  0
LINE
  5
25A
100
AcDbEntity
  8
0
100
AcDbLine
 62
2
  6
CONTINUOUS
 10
0.0
 20
-1.844
 11
9.055
 21
-1.844
  0
LINE
  5
25B
100
AcDbEntity
  8
0
100
AcDbLine
 62
2
  6
CONTINUOUS
 10
0.0
 20
-2.094
 11
9.055
 21
-2.094
  0
LINE
  5
25C
100
AcDbEntity
  8
0
100
AcDbLine
 62
2
  6
CONTINUOUS
 10
0.0
 20
-2.344
 11
9.055
 21
-2.344
  0
LINE
  5
25D
100
AcDbEntity
  8
0
100
AcDbLine
 62
2
  6
CONTINUOUS
 10
0.0
 20
-2.594
 11
9.055
 21
-2.594
  0
LINE
  5
25E
100
AcDbEntity
  8
0
100
AcDbLine
 62
2
  6
CONTINUOUS
 10
3.055
 20
0.0
 11
3.055
 21
-2.594
  0
LINE
  5
25F
100
AcDbEntity
  8
0
100
AcDbLine
 62
2
  6
CONTINUOUS
 10
9.055
 20
0.0
 11
9.055
 21
-2.594
  0
MTEXT
  5
260
100
AcDbEntity
  8
0
100
AcDbMText
 62
2
  6
CONTINUOUS
  7
STANDARD
 71
2
 72
1
 10
1.5275
 20
-0.0995
 30
0.0
 11
1.0
 21
0.0
 31
0.0
 44
0.9
  1
Technical Data
 40
0.145
 41
3.248
  0
MTEXT
  5
261
100
AcDbEntity
  8
0
100
AcDbMText
 62
2
  6
CONTINUOUS
  7
STANDARD
 71
2
 72
1
 10
4.555
 20
-0.0995
 30
0.0
 11
1.0
 21
0.0
 31
0.0
 44
0.9
  1
U.S. Units
 40
0.145
 41
2.32
  0
MTEXT
  5
262
100
AcDbEntity
  8
0
100
AcDbMText
 62
2
  6
CONTINUOUS
  7
STANDARD
 71
2
 72
1
 10
7.555
 20
-0.0995
 30
0.0
 11
1.0
 21
0.0
 31
0.0
 44
0.9
  1
Metric Units
 40
0.145
 41
2.784
  0
MTEXT
  5
263
100
AcDbEntity
  8
0
100
AcDbMText
 62
2
  6
CONTINUOUS
  7
STANDARD
 71
2
 72
1
 10
1.5275
 20
-0.4065
 30
0.0
 11
1.0
 21
0.0
 31
0.0
 44
0.9
  1
Cavity
 40
0.125
 41
1.2
  0
MTEXT
  5
264
100
AcDbEntity
  8
0
100
AcDbMText
 62
2
  6
CONTINUOUS
  7
STANDARD
 71
2
 72
1
 10
6.055
 20
-0.4065
 30
0.0
 11
1.0
 21
0.0
 31
0.0
 44
0.9
  1
T-17A
 40
0.125
 41
1.0
  0
MTEXT
  5
265
100
AcDbEntity
  8
0
100
AcDbMText
 62
2
  6
CONTINUOUS
  7
STANDARD
 71
2
 72
1
 10
1.5275
 20
-0.6565
 30
0.0
 11
1.0
 21
0.0
 31
0.0
 44
0.9
  1
Body Features
 40
0.125
 41
2.6
  0
MTEXT
  5
266
100
AcDbEntity
  8
0
100
AcDbMText
 62
2
  6
CONTINUOUS
  7
STANDARD
 71
2
 72
1
 10
6.055
 20
-0.6565
 30
0.0
 11
1.0
 21
0.0
 31
0.0
 44
0.9
  1
Ninety degree with shuttle
 40
0.125
 41
5.2
  0
MTEXT
  5
267
100
AcDbEntity
  8
0
100
AcDbMText
 62
2
  6
CONTINUOUS
  7
STANDARD
 71
2
 72
1
 10
1.5275
 20
-0.9065
 30
0.0
 11
1.0
 21
0.0
 31
0.0
 44
0.9
  1
Body Type
 40
0.125
 41
1.8
  0
MTEXT
  5
268
100
AcDbEntity
  8
0
100
AcDbMText
 62
2
  6
CONTINUOUS
  7
STANDARD
 71
2
 72
1
 10
6.055
 20
-0.9065
 30
0.0
 11
1.0
 21
0.0
 31
0.0
 44
0.9
  1
Line mount
 40
0.125
 41
2.0
  0
MTEXT
  5
269
100
AcDbEntity
  8
0
100
AcDbMText
 62
2
  6
CONTINUOUS
  7
STANDARD
 71
2
 72
1
 10
1.5275
 20
-1.1565
 30
0.0
 11
1.0
 21
0.0
 31
0.0
 44
0.9
  1
Interface
 40
0.125
 41
1.8
  0
MTEXT
  5
26A
100
AcDbEntity
  8
0
100
AcDbMText
 62
2
  6
CONTINUOUS
  7
STANDARD
 71
2
 72
1
 10
6.055
 20
-1.1565
 30
0.0
 11
1.0
 21
0.0
 31
0.0
 44
0.9
  1
None
 40
0.125
 41
0.8
  0
MTEXT
  5
26B
100
AcDbEntity
  8
0
100
AcDbMText
 62
2
  6
CONTINUOUS
  7
STANDARD
 71
2
 72
1
 10
1.5275
 20
-1.4065
 30
0.0
 11
1.0
 21
0.0
 31
0.0
 44
0.9
  1
Open Cavity Quantity
 40
0.125
 41
4.0
  0
MTEXT
  5
26C
100
AcDbEntity
  8
0
100
AcDbMText
 62
2
  6
CONTINUOUS
  7
STANDARD
 71
2
 72
1
 10
6.055
 20
-1.4065
 30
0.0
 11
1.0
 21
0.0
 31
0.0
 44
0.9
  1
1
 40
0.125
 41
0.2
  0
MTEXT
  5
26D
100
AcDbEntity
  8
0
100
AcDbMText
 62
2
  6
CONTINUOUS
  7
STANDARD
 71
2
 72
1
 10
1.5275
 20
-1.6565
 30
0.0
 11
1.0
 21
0.0
 31
0.0
 44
0.9
  1
Weight
 40
0.125
 41
1.2
  0
MTEXT
  5
26E
100
AcDbEntity
  8
0
100
AcDbMText
 62
2
  6
CONTINUOUS
  7
STANDARD
 71
2
 72
1
 10
4.555
 20
-1.6565
 30
0.0
 11
1.0
 21
0.0
 31
0.0
 44
0.9
  1
2.972 lb.
 40
0.125
 41
1.8
  0
MTEXT
  5
26F
100
AcDbEntity
  8
0
100
AcDbMText
 62
2
  6
CONTINUOUS
  7
STANDARD
 71
2
 72
1
 10
7.555
 20
-1.6565
 30
0.0
 11
1.0
 21
0.0
 31
0.0
 44
0.9
  1
1,348 kg.
 40
0.125
 41
1.8
  0
MTEXT
  5
270
100
AcDbEntity
  8
0
100
AcDbMText
 62
2
  6
CONTINUOUS
  7
STANDARD
 71
2
 72
1
 10
1.5275
 20
-1.9065
 30
0.0
 11
1.0
 21
0.0
 31
0.0
 44
0.9
  1
Mounting Hole Diameter
 40
0.125
 41
4.4
  0
MTEXT
  5
271
100
AcDbEntity
  8
0
100
AcDbMText
 62
2
  6
CONTINUOUS
  7
STANDARD
 71
2
 72
1
 10
4.555
 20
-1.9065
 30
0.0
 11
1.0
 21
0.0
 31
0.0
 44
0.9
  1
.42 in.
 40
0.125
 41
1.4
  0
MTEXT
  5
272
100
AcDbEntity
  8
0
100
AcDbMText
 62
2
  6
CONTINUOUS
  7
STANDARD
 71
2
 72
1
 10
7.555
 20
-1.9065
 30
0.0
 11
1.0
 21
0.0
 31
0.0
 44
0.9
  1
10,7 mm
 40
0.125
 41
1.4
  0
MTEXT
  5
273
100
AcDbEntity
  8
0
100
AcDbMText
 62
2
  6
CONTINUOUS
  7
STANDARD
 71
2
 72
1
 10
1.5275
 20
-2.1565
 30
0.0
 11
1.0
 21
0.0
 31
0.0
 44
0.9
  1
Mounting Hole Depth
 40
0.125
 41
3.8
  0
MTEXT
  5
274
100
AcDbEntity
  8
0
100
AcDbMText
 62
2
  6
CONTINUOUS
  7
STANDARD
 71
2
 72
1
 10
6.055
 20
-2.1565
 30
0.0
 11
1.0
 21
0.0
 31
0.0
 44
0.9
  1
Through
 40
0.125
 41
1.4
  0
MTEXT
  5
275
100
AcDbEntity
  8
0
100
AcDbMText
 62
2
  6
CONTINUOUS
  7
STANDARD
 71
2
 72
1
 10
1.5275
 20
-2.4065
 30
0.0
 11
1.0
 21
0.0
 31
0.0
 44
0.9
  1
Mounting Hole Quantity
 40
0.125
 41
4.4
  0
MTEXT
  5
276
100
AcDbEntity
  8
0
100
AcDbMText
 62
2
  6
CONTINUOUS
  7
STANDARD
 71
2
 72
1
 10
6.055
 20
-2.4065
 30
0.0
 11
1.0
 21
0.0
 31
0.0
 44
0.9
  1
2
 40
0.125
 41
0.2
  0
ENDBLK
  5
277
100
AcDbEntity
  8
0
  6
BYBLOCK
 62
0
100
AcDbBlockEnd
  0
BLOCK
  5
278
100
AcDbEntity
  8
0
100
AcDbBlockBegin
  2
*T3
 70
1
 10
0.0
 20
0.0
  3
*T3
  1

  0
LINE
  5
279
100
AcDbEntity
  8
0
100
AcDbLine
 62
2
  6
CONTINUOUS
 10
0.0
 20
0.0
 11
4.6
 21
0.0
  0
LINE
  5
27A
100
AcDbEntity
  8
0
100
AcDbLine
 62
2
  6
CONTINUOUS
 10
0.0
 20
0.0
 11
0.0
 21
-1.18775
  0
LINE
  5
27B
100
AcDbEntity
  8
0
100
AcDbLine
 62
2
  6
CONTINUOUS
 10
0.0
 20
-0.34375
 11
4.6
 21
-0.34375
  0
LINE
  5
27C
100
AcDbEntity
  8
0
100
AcDbLine
 62
2
  6
CONTINUOUS
 10
0.0
 20
-0.68775
 11
4.6
 21
-0.68775
  0
LINE
  5
27D
100
AcDbEntity
  8
0
100
AcDbLine
 62
2
  6
CONTINUOUS
 10
0.0
 20
-0.93775
 11
4.6
 21
-0.93775
  0
LINE
  5
27E
100
AcDbEntity
  8
0
100
AcDbLine
 62
2
  6
CONTINUOUS
 10
0.0
 20
-1.18775
 11
4.6
 21
-1.18775
  0
LINE
  5
27F
100
AcDbEntity
  8
0
100
AcDbLine
 62
2
  6
CONTINUOUS
 10
1.3
 20
-0.34375
 11
1.3
 21
-1.18775
  0
LINE
  5
280
100
AcDbEntity
  8
0
100
AcDbLine
 62
2
  6
CONTINUOUS
 10
3.3
 20
-0.34375
 11
3.3
 21
-1.18775
  0
LINE
  5
281
100
AcDbEntity
  8
0
100
AcDbLine
 62
2
  6
CONTINUOUS
 10
4.6
 20
0.0
 11
4.6
 21
-1.18775
  0
MTEXT
  5
282
100
AcDbEntity
  8
0
100
AcDbMText
 62
2
  6
CONTINUOUS
  7
STANDARD
 71
2
 72
1
 10
2.3
 20
-0.099375
 30
0.0
 11
1.0
 21
0.0
 31
0.0
 44
0.9
  1
Port Headings
 40
0.145
 41
3.016
  0
MTEXT
  5
283
100
AcDbEntity
  8
0
100
AcDbMText
 62
2
  6
CONTINUOUS
  7
STANDARD
 71
2
 72
1
 10
0.65
 20
-0.44325
 30
0.0
 11
1.0
 21
0.0
 31
0.0
 44
0.9
  1
Product
 40
0.145
 41
1.624
  0
MTEXT
  5
284
100
AcDbEntity
  8
0
100
AcDbMText
 62
2
  6
CONTINUOUS
  7
STANDARD
 71
2
 72
1
 10
2.3
 20
-0.44325
 30
0.0
 11
1.0
 21
0.0
 31
0.0
 44
0.9
  1
Port
 40
0.145
 41
0.928
  0
MTEXT
  5
285
100
AcDbEntity
  8
0
100
AcDbMText
 62
2
  6
CONTINUOUS
  7
STANDARD
 71
2
 72
1
 10
3.95
 20
-0.44325
 30
0.0
 11
1.0
 21
0.0
 31
0.0
 44
0.9
  1
Size
 40
0.145
 41
0.928
  0
MTEXT
  5
286
100
AcDbEntity
  8
0
100
AcDbMText
 62
2
  6
CONTINUOUS
  7
STANDARD
 71
2
 72
1
 10
0.65
 20
-0.75025
 30
0.0
 11
1.0
 21
0.0
 31
0.0
 44
0.9
  1
HGE
 40
0.125
 41
0.6
  0
MTEXT
  5
287
100
AcDbEntity
  8
0
100
AcDbMText
 62
2
  6
CONTINUOUS
  7
STANDARD
 71
2
 72
1
 10
2.3
 20
-0.75025
 30
0.0
 11
1.0
 21
0.0
 31
0.0
 44
0.9
  1
Ports 1 &  2
 40
0.125
 41
2.4
  0
MTEXT
  5
288
100
AcDbEntity
  8
0
100
AcDbMText
 62
2
  6
CONTINUOUS
  7
STANDARD
 71
2
 72
1
 10
3.95
 20
-0.75025
 30
0.0
 11
1.0
 21
0.0
 31
0.0
 44
0.9
  1
1"  NPTF
 40
0.125
 41
1.6
  0
MTEXT
  5
289
100
AcDbEntity
  8
0
100
AcDbMText
 62
2
  6
CONTINUOUS
  7
STANDARD
 71
2
 72
1
 10
0.65
 20
-1.00025
 30
0.0
 11
1.0
 21
0.0
 31
0.0
 44
0.9
  1
HGE
 40
0.125
 41
0.6
  0
MTEXT
  5
28A
100
AcDbEntity
  8
0
100
AcDbMText
 62
2
  6
CONTINUOUS
  7
STANDARD
 71
2
 72
1
 10
2.3
 20
-1.00025
 30
0.0
 11
1.0
 21
0.0
 31
0.0
 44
0.9
  1
Ports 3 & S
 40
0.125
 41
2.2
  0
MTEXT
  5
28B
100
AcDbEntity
  8
0
100
AcDbMText
 62
2
  6
CONTINUOUS
  7
STANDARD
 71
2
 72
1
 10
3.95
 20
-1.00025
 30
0.0
 11
1.0
 21
0.0
 31
0.0
 44
0.9
  1
1/4" NPTF
 40
0.125
 41
1.8
  0
ENDBLK
  5
28C
100
AcDbEntity
  8
0
  6
BYBLOCK
 62
0
100
AcDbBlockEnd
  0
ENDSEC
  0
SECTION
  2
ENTITIES
  0
IMAGE
  5
28D
100
AcDbEntity
  8
0
100
AcDbRasterImage
 62
7
  6
CONTINUOUS
 10
19.2297077316
 20
0.3094318264
 30
0.0
 11
0.0066666667
 21
0.0
 31
0.0
 12
0.0
 22
0.0066666667
 32
0.0
 13
369.0
 23
92.0
340
       3FB
 70
9
280
0
281
50
282
50
283
0
360
       3F5
 71
1
 91
2
 14
-0.5
 24
-0.5
 14
368.5
 24
91.5
  0
INSERT
  5
28E
100
AcDbEntity
  8
0
100
AcDbBlockReference
 62
2
  6
CONTINUOUS
  2
SUN_FIRST_THIRD_ANGLE_BL0
 10
20.4816717061
 20
1.2289683772
  0
ACAD_TABLE
  5
28F
100
AcDbEntity
  8
0
 62
2
  6
CONTINUOUS
100
AcDbBlockReference
  2
*T1
 10
12.42375
 20
0.30125
 30
0.0
100
AcDbTable
342
       3FD
343
211
 11
1.0
 21
0.0
 31
0.0
 90
6
 91
4
 92
6
 93
20
 94
0
 95
0
 96
0
 70
1
 41
0.0
141
0.525
141
0.1
141
0.525
141
0.1
142
4.1
142
1.1
142
0.7
142
0.5
142
0.4
142
2.475
171
1
172
0
173
0
174
0
175
1
176
1
 91
33
178
0
145
0.0
301
CELL_VALUE
 90
4
  1
T-17A Line mount\PNinety degree with shuttle
304
ACVALUE_END
170
2
140
0.125
171
1
172
0
173
0
174
0
175
1
176
1
 91
33
178
0
145
0.0
301
CELL_VALUE
 90
4
  1
Sep-09-19
304
ACVALUE_END
170
5
140
0.125
171
1
172
0
173
0
174
0
175
1
176
1
 91
33
178
0
145
0.0
301
CELL_VALUE
 90
4
  1
1.000
304
ACVALUE_END
170
5
140
0.125
171
1
172
0
173
0
174
0
175
1
176
1
 91
33
178
0
145
0.0
301
CELL_VALUE
 90
4
  1
C
304
ACVALUE_END
170
5
140
0.125
171
1
172
0
173
0
174
0
175
1
176
1
 91
33
178
0
145
0.0
301
CELL_VALUE
 90
4
  1
2
304
ACVALUE_END
170
5
140
0.125
171
1
172
0
173
0
174
0
175
1
176
1
 91
33
178
0
145
0.0
301
CELL_VALUE
 90
4
  1
 
304
ACVALUE_END
170
1
140
0.125
171
1
172
0
173
0
174
0
175
1
176
1
 91
33
178
0
145
0.0
301
CELL_VALUE
 90
4
  1
DESCRIPTION
304
ACVALUE_END
170
1
140
0.06
171
1
172
0
173
0
174
0
175
1
176
1
 91
33
178
0
145
0.0
301
CELL_VALUE
 90
4
  1
DATE
304
ACVALUE_END
170
1
140
0.06
171
1
172
0
173
0
174
0
175
1
176
1
 91
33
178
0
145
0.0
301
CELL_VALUE
 90
4
  1
SCALE
304
ACVALUE_END
170
1
140
0.06
171
1
172
0
173
0
174
0
175
1
176
1
 91
33
178
0
145
0.0
301
CELL_VALUE
 90
4
  1
DWG SIZE
304
ACVALUE_END
170
1
140
0.06
171
1
172
0
173
0
174
0
175
1
176
1
 91
33
178
0
145
0.0
301
CELL_VALUE
 90
4
  1
SHEET
304
ACVALUE_END
170
1
140
0.06
171
1
172
0
173
0
174
0
175
1
176
1
 91
33
178
0
145
0.0
301
CELL_VALUE
 90
4
  1
 
304
ACVALUE_END
170
1
140
0.125
171
1
172
0
173
0
174
0
175
1
176
1
 91
33
178
0
145
0.0
301
CELL_VALUE
 90
4
  1
HGE
304
ACVALUE_END
170
5
140
0.125
171
1
172
0
173
0
174
0
175
4
176
1
 91
33
178
0
145
0.0
301
CELL_VALUE
 90
4
  1
ALL DIMENSIONS IN INCH\PVIEWS ARE THIRD ANGLE
304
ACVALUE_END
170
5
140
0.12
171
1
172
0
173
1
174
0
175
1
176
1
 91
1
178
0
145
0.0
170
1
171
1
172
0
173
1
174
0
175
1
176
1
 91
1
178
0
145
0.0
170
1
171
1
172
0
173
1
174
0
175
1
176
1
 91
1
178
0
145
0.0
170
5
171
1
172
0
173
0
174
0
175
1
176
1
 91
33
178
0
145
0.0
301
CELL_VALUE
 90
4
  1
 
304
ACVALUE_END
170
1
140
0.125
171
1
172
0
173
0
174
0
175
1
176
1
 91
33
178
0
145
0.0
301
CELL_VALUE
 90
4
  1
MODEL
304
ACVALUE_END
170
1
140
0.06
171
1
172
0
173
0
174
0
175
1
176
1
 91
33
178
0
145
0.0
301
CELL_VALUE
 90
4
  1
 
304
ACVALUE_END
170
1
140
0.125
171
1
172
0
173
0
174
0
175
1
176
1
 91
33
178
0
145
0.0
301
CELL_VALUE
 90
4
  1
 
304
ACVALUE_END
170
1
140
0.125
171
1
172
0
173
0
174
0
175
1
176
1
 91
33
178
0
145
0.0
301
CELL_VALUE
 90
4
  1
 
304
ACVALUE_END
170
1
140
0.125
171
1
172
0
173
0
174
0
175
1
176
1
 91
33
178
0
145
0.0
301
CELL_VALUE
 90
4
  1
 
304
ACVALUE_END
170
1
140
0.125
171
1
172
0
173
0
174
0
175
1
176
1
 91
33
178
0
145
0.0
301
CELL_VALUE
 90
4
  1
 
304
ACVALUE_END
170
1
140
0.125
  0
ACAD_TABLE
  5
290
100
AcDbEntity
  8
0
 62
2
  6
CONTINUOUS
100
AcDbBlockReference
  2
*T2
 10
12.4237499994
 20
16.47875
 30
0.0
100
AcDbTable
342
       3FC
343
212
 11
1.0
 21
0.0
 31
0.0
 90
22
 91
10
 92
3
 93
16
 94
0
 95
0
 96
0
 41
0.028
141
0.344
141
0.25
141
0.25
141
0.25
141
0.25
141
0.25
141
0.25
141
0.25
141
0.25
141
0.25
142
3.055
142
3.0
142
3.0
171
1
172
0
173
0
174
0
175
1
176
1
 91
33
178
0
145
0.0
301
CELL_VALUE
 90
4
  1
Technical Data
304
ACVALUE_END
170
5
140
0.145
171
1
172
0
173
0
174
0
175
1
176
1
 91
33
178
0
145
0.0
301
CELL_VALUE
 90
4
  1
U.S. Units
304
ACVALUE_END
170
5
140
0.145
171
1
172
0
173
0
174
0
175
1
176
1
 91
33
178
0
145
0.0
301
CELL_VALUE
 90
4
  1
Metric Units
304
ACVALUE_END
170
5
140
0.145
171
1
172
0
173
0
174
0
175
1
176
1
 91
33
178
0
145
0.0
301
CELL_VALUE
 90
4
  1
Cavity
304
ACVALUE_END
170
5
140
0.125
171
1
172
0
173
0
174
0
175
2
176
1
 91
33
178
0
145
0.0
301
CELL_VALUE
 90
4
  1
T-17A
304
ACVALUE_END
170
5
140
0.125
171
1
172
0
173
1
174
0
175
1
176
1
 91
1
178
0
145
0.0
170
1
171
1
172
0
173
0
174
0
175
1
176
1
 91
33
178
0
145
0.0
301
CELL_VALUE
 90
4
  1
Body Features
304
ACVALUE_END
170
5
140
0.125
171
1
172
0
173
0
174
0
175
2
176
1
 91
33
178
0
145
0.0
301
CELL_VALUE
 90
4
  1
Ninety degree with shuttle
304
ACVALUE_END
170
5
140
0.125
171
1
172
0
173
1
174
0
175
1
176
1
 91
1
178
0
145
0.0
170
1
171
1
172
0
173
0
174
0
175
1
176
1
 91
33
178
0
145
0.0
301
CELL_VALUE
 90
4
  1
Body Type
304
ACVALUE_END
170
5
140
0.125
171
1
172
0
173
0
174
0
175
2
176
1
 91
33
178
0
145
0.0
301
CELL_VALUE
 90
4
  1
Line mount
304
ACVALUE_END
170
5
140
0.125
171
1
172
0
173
1
174
0
175
1
176
1
 91
1
178
0
145
0.0
170
1
171
1
172
0
173
0
174
0
175
1
176
1
 91
33
178
0
145
0.0
301
CELL_VALUE
 90
4
  1
Interface
304
ACVALUE_END
170
5
140
0.125
171
1
172
0
173
0
174
0
175
2
176
1
 91
33
178
0
145
0.0
301
CELL_VALUE
 90
4
  1
None
304
ACVALUE_END
170
5
140
0.125
171
1
172
0
173
1
174
0
175
1
176
1
 91
1
178
0
145
0.0
170
1
171
1
172
0
173
0
174
0
175
1
176
1
 91
33
178
0
145
0.0
301
CELL_VALUE
 90
4
  1
Open Cavity Quantity
304
ACVALUE_END
170
5
140
0.125
171
1
172
0
173
0
174
0
175
2
176
1
 91
33
178
0
145
0.0
301
CELL_VALUE
 90
4
  1
1
304
ACVALUE_END
170
5
140
0.125
171
1
172
0
173
1
174
0
175
1
176
1
 91
1
178
0
145
0.0
170
1
171
1
172
0
173
0
174
0
175
1
176
1
 91
33
178
0
145
0.0
301
CELL_VALUE
 90
4
  1
Weight
304
ACVALUE_END
170
5
140
0.125
171
1
172
0
173
0
174
0
175
1
176
1
 91
33
178
0
145
0.0
301
CELL_VALUE
 90
4
  1
2.972 lb.
304
ACVALUE_END
170
5
140
0.125
171
1
172
0
173
0
174
0
175
1
176
1
 91
33
178
0
145
0.0
301
CELL_VALUE
 90
4
  1
1,348 kg.
304
ACVALUE_END
170
5
140
0.125
171
1
172
0
173
0
174
0
175
1
176
1
 91
33
178
0
145
0.0
301
CELL_VALUE
 90
4
  1
Mounting Hole Diameter
304
ACVALUE_END
170
5
140
0.125
171
1
172
0
173
0
174
0
175
1
176
1
 91
33
178
0
145
0.0
301
CELL_VALUE
 90
4
  1
.42 in.
304
ACVALUE_END
170
5
140
0.125
171
1
172
0
173
0
174
0
175
1
176
1
 91
33
178
0
145
0.0
301
CELL_VALUE
 90
4
  1
10,7 mm
304
ACVALUE_END
170
5
140
0.125
171
1
172
0
173
0
174
0
175
1
176
1
 91
33
178
0
145
0.0
301
CELL_VALUE
 90
4
  1
Mounting Hole Depth
304
ACVALUE_END
170
5
140
0.125
171
1
172
0
173
0
174
0
175
2
176
1
 91
33
178
0
145
0.0
301
CELL_VALUE
 90
4
  1
Through
304
ACVALUE_END
170
5
140
0.125
171
1
172
0
173
1
174
0
175
1
176
1
 91
1
178
0
145
0.0
170
1
171
1
172
0
173
0
174
0
175
1
176
1
 91
33
178
0
145
0.0
301
CELL_VALUE
 90
4
  1
Mounting Hole Quantity
304
ACVALUE_END
170
5
140
0.125
171
1
172
0
173
0
174
0
175
2
176
1
 91
33
178
0
145
0.0
301
CELL_VALUE
 90
4
  1
2
304
ACVALUE_END
170
5
140
0.125
171
1
172
0
173
1
174
0
175
1
176
1
 91
1
178
0
145
0.0
170
1
  0
ACAD_TABLE
  5
291
100
AcDbEntity
  8
0
 62
2
  6
CONTINUOUS
100
AcDbBlockReference
  2
*T3
 10
0.52125
 20
1.709
 30
0.0
100
AcDbTable
342
       3FC
343
213
 11
1.0
 21
0.0
 31
0.0
 90
22
 91
4
 92
3
 93
16
 94
0
 95
0
 96
0
 41
0.05
141
0.34375
141
0.344
141
0.25
141
0.25
142
1.3
142
2.0
142
1.3
171
1
172
0
173
0
174
0
175
3
176
1
 91
33
178
0
145
0.0
301
CELL_VALUE
 90
4
  1
Port Headings
304
ACVALUE_END
170
5
140
0.145
171
1
172
0
173
1
174
0
175
1
176
1
 91
1
178
0
145
0.0
170
1
171
1
172
0
173
1
174
0
175
1
176
1
 91
1
178
0
145
0.0
170
1
171
1
172
0
173
0
174
0
175
1
176
1
 91
33
178
0
145
0.0
301
CELL_VALUE
 90
4
  1
Product
304
ACVALUE_END
170
5
140
0.145
171
1
172
0
173
0
174
0
175
1
176
1
 91
33
178
0
145
0.0
301
CELL_VALUE
 90
4
  1
Port
304
ACVALUE_END
170
5
140
0.145
171
1
172
0
173
0
174
0
175
1
176
1
 91
33
178
0
145
0.0
301
CELL_VALUE
 90
4
  1
Size
304
ACVALUE_END
170
5
140
0.145
171
1
172
0
173
0
174
0
175
1
176
1
 91
33
178
0
145
0.0
301
CELL_VALUE
 90
4
  1
HGE
304
ACVALUE_END
170
5
140
0.125
171
1
172
0
173
0
174
0
175
1
176
1
 91
33
178
0
145
0.0
301
CELL_VALUE
 90
4
  1
Ports 1 &  2
304
ACVALUE_END
170
5
140
0.125
171
1
172
0
173
0
174
0
175
1
176
1
 91
33
178
0
145
0.0
301
CELL_VALUE
 90
4
  1
1"  NPTF
304
ACVALUE_END
170
5
140
0.125
171
1
172
0
173
0
174
0
175
1
176
1
 91
33
178
0
145
0.0
301
CELL_VALUE
 90
4
  1
HGE
304
ACVALUE_END
170
5
140
0.125
171
1
172
0
173
0
174
0
175
1
176
1
 91
33
178
0
145
0.0
301
CELL_VALUE
 90
4
  1
Ports 3 & S
304
ACVALUE_END
170
5
140
0.125
171
1
172
0
173
0
174
0
175
1
176
1
 91
33
178
0
145
0.0
301
CELL_VALUE
 90
4
  1
1/4" NPTF
304
ACVALUE_END
170
5
140
0.125
  0
MTEXT
  5
292
100
AcDbEntity
  8
0
100
AcDbMText
 62
2
  6
CONTINUOUS
  7
STANDARD
 71
1
 72
1
 10
0.52125
 20
5.75995
 30
0.0
 11
1.0
 21
0.0
 31
0.0
 44
0.6
  3
Notes\P \P1. Important: Carefully consider\P   the maximum system pressure. The\P   pressure rating of the manifold is\P   dependent on the manifold material,\P   with the port type/size a secondary\P   consideration. Manifolds\P   constructed of alu
  1
minum are not\P   rated for pressures higher than\P   3000 psi (210 bar), regardless of\P   the port type/size specified.
 40
0.1
 41
3.04
  0
LINE
  5
293
100
AcDbEntity
  8
0
100
AcDbLine
 62
7
  6
CONTINUOUS
 10
0.30125
 20
0.30125
 11
0.30125
 21
16.69875
  0
LINE
  5
294
100
AcDbEntity
  8
0
100
AcDbLine
 62
7
  6
CONTINUOUS
 10
0.30125
 20
0.30125
 11
21.69875
 21
0.30125
  0
LINE
  5
295
100
AcDbEntity
  8
0
100
AcDbLine
 62
7
  6
CONTINUOUS
 10
0.30125
 20
16.69875
 11
21.69875
 21
16.69875
  0
LINE
  5
296
100
AcDbEntity
  8
0
100
AcDbLine
 62
7
  6
CONTINUOUS
 10
21.69875
 20
0.30125
 11
21.69875
 21
16.69875
  0
LINE
  5
297
100
AcDbEntity
  8
0
100
AcDbLine
 62
7
  6
CONTINUOUS
 10
9.3593194184
 20
10.9678166621
 11
8.7769770475
 21
10.405317093
  0
LINE
  5
298
100
AcDbEntity
  8
0
100
AcDbLine
 62
7
  6
CONTINUOUS
 10
8.7769770475
 20
6.300132088
 11
8.7769770475
 21
10.405317093
  0
LINE
  5
299
100
AcDbEntity
  8
0
100
AcDbLine
 62
7
  6
CONTINUOUS
 10
8.7769770475
 20
6.300132088
 11
12.6406805816
 21
6.0321833379
  0
LINE
  5
29A
100
AcDbEntity
  8
0
100
AcDbLine
 62
4
  6
CONTINUOUS
 10
8.931525189
 20
8.3758139867
 11
8.931525189
 21
8.3564954741
  0
LINE
  5
29B
100
AcDbEntity
  8
0
100
AcDbLine
 62
4
  6
CONTINUOUS
 10
8.8808140813
 20
8.3117160059
 11
8.8735696373
 21
8.283240634
  0
LINE
  5
29C
100
AcDbEntity
  8
0
100
AcDbLine
 62
4
  6
CONTINUOUS
 10
8.9242807451
 20
8.3859756538
 11
8.931525189
 21
8.3758139867
  0
LINE
  5
29D
100
AcDbEntity
  8
0
100
AcDbLine
 62
4
  6
CONTINUOUS
 10
8.8735696373
 20
8.3798332179
 11
8.8808140813
 21
8.3889900772
  0
LINE
  5
29E
100
AcDbEntity
  8
0
100
AcDbLine
 62
4
  6
CONTINUOUS
 10
8.8953029692
 20
8.3300297142
 11
8.8808140813
 21
8.3117160059
  0
LINE
  5
29F
100
AcDbEntity
  8
0
100
AcDbLine
 62
4
  6
CONTINUOUS
 10
8.931525189
 20
8.3564954741
 11
8.9242807451
 21
8.3473386147
  0
LINE
  5
2A0
100
AcDbEntity
  8
0
100
AcDbLine
 62
4
  6
CONTINUOUS
 10
8.9097918571
 20
8.3966397179
 11
8.9242807451
 21
8.3859756538
  0
LINE
  5
2A1
100
AcDbEntity
  8
0
100
AcDbLine
 62
4
  6
CONTINUOUS
 10
10.1665304494
 20
9.3844221774
 11
10.1830891792
 21
9.3998325537
  0
LINE
  5
2A2
100
AcDbEntity
  8
0
100
AcDbLine
 62
4
  6
CONTINUOUS
 10
10.207927273
 20
9.2821989226
 11
10.2244860011
 21
9.2976093007
  0
LINE
  5
2A3
100
AcDbEntity
  8
0
100
AcDbLine
 62
4
  6
CONTINUOUS
 10
10.2990002878
 20
9.2758829876
 11
10.3155590089
 21
9.2912933661
  0
LINE
  5
2A4
100
AcDbEntity
  8
0
100
AcDbLine
 62
7
  6
CONTINUOUS
 10
11.9739225718
 20
10.5931584745
 11
11.958507642
 21
10.5788132642
  0
LINE
  5
2A5
100
AcDbEntity
  8
0
100
AcDbLine
 62
4
  6
CONTINUOUS
 10
8.8808140813
 20
8.3889900772
 11
8.8953029692
 21
8.3976445257
  0
LINE
  5
2A6
100
AcDbEntity
  8
0
100
AcDbLine
 62
4
  6
CONTINUOUS
 10
8.9242807451
 20
8.3473386147
 11
8.8953029692
 21
8.3300297142
  0
LINE
  5
2A7
100
AcDbEntity
  8
0
100
AcDbLine
 62
4
  6
CONTINUOUS
 10
10.6853706371
 20
9.3236023926
 11
10.7019293583
 21
9.3307334089
  0
LINE
  5
2A8
100
AcDbEntity
  8
0
100
AcDbLine
 62
4
  6
CONTINUOUS
 10
10.1665304494
 20
9.3678634493
 11
10.1665304494
 21
9.3844221774
  0
LINE
  5
2A9
100
AcDbEntity
  8
0
100
AcDbLine
 62
4
  6
CONTINUOUS
 10
10.2244860011
 20
9.2976093007
 11
10.2244860011
 21
9.3141680305
  0
LINE
  5
2AA
100
AcDbEntity
  8
0
100
AcDbLine
 62
4
  6
CONTINUOUS
 10
10.2576034572
 20
9.3946649709
 11
10.2576034572
 21
9.2953125973
  0
LINE
  5
2AB
100
AcDbEntity
  8
0
100
AcDbLine
 62
4
  6
CONTINUOUS
 10
10.2934807177
 20
8.6851191435
 11
10.2934807177
 21
8.801030247
  0
LINE
  5
2AC
100
AcDbEntity
  8
0
100
AcDbLine
 62
4
  6
CONTINUOUS
 10
10.3155590089
 20
9.2912933661
 11
10.3155590089
 21
9.3906457398
  0
LINE
  5
2AD
100
AcDbEntity
  8
0
100
AcDbLine
 62
4
  6
CONTINUOUS
 10
10.3486764651
 20
9.272437933
 11
10.3486764651
 21
9.3883490364
  0
LINE
  5
2AE
100
AcDbEntity
  8
0
100
AcDbLine
 62
4
  6
CONTINUOUS
 10
10.3514362625
 20
8.7804522882
 11
10.3514362625
 21
8.6976586427
  0
LINE
  5
2AF
100
AcDbEntity
  8
0
100
AcDbLine
 62
4
  6
CONTINUOUS
 10
10.8426785711
 20
9.2712962301
 11
10.8592372923
 21
9.278427243
  0
LINE
  5
2B0
100
AcDbEntity
  8
0
100
AcDbLine
 62
4
  6
CONTINUOUS
 10
10.4066320168
 20
9.2684187018
 11
10.4066320168
 21
9.3843298052
  0
LINE
  5
2B1
100
AcDbEntity
  8
0
100
AcDbLine
 62
4
  6
CONTINUOUS
 10
10.5308225006
 20
8.668659435
 11
10.5308225006
 21
8.7845705384
  0
LINE
  5
2B2
100
AcDbEntity
  8
0
100
AcDbLine
 62
4
  6
CONTINUOUS
 10
10.5308224808
 20
9.2598060639
 11
10.5308224808
 21
9.3757171673
  0
LINE
  5
2B3
100
AcDbEntity
  8
0
100
AcDbLine
 62
4
  6
CONTINUOUS
 10
10.5804986719
 20
9.3308752881
 11
10.5804986719
 21
9.2563610083
  0
LINE
  5
2B4
100
AcDbEntity
  8
0
100
AcDbLine
 62
4
  6
CONTINUOUS
 10
10.3983526622
 20
8.6778462495
 11
10.4314701183
 21
8.7914606495
  0
LINE
  5
2B5
100
AcDbEntity
  8
0
100
AcDbLine
 62
4
  6
CONTINUOUS
 10
10.6301748631
 20
9.2253180709
 11
10.6632923054
 21
9.3334128976
  0
LINE
  5
2B6
100
AcDbEntity
  8
0
100
AcDbLine
 62
4
  6
CONTINUOUS
 10
10.6839907118
 20
9.0123939864
 11
10.7005494399
 21
9.0278043628
  0
LINE
  5
2B7
100
AcDbEntity
  8
0
100
AcDbLine
 62
4
  6
CONTINUOUS
 10
10.3514362625
 20
8.6976586427
 11
10.3348775344
 21
8.6822482645
  0
LINE
  5
2B8
100
AcDbEntity
  8
0
100
AcDbLine
 62
4
  6
CONTINUOUS
 10
11.1269367191
 20
9.2929796808
 11
11.1352160521
 21
9.3006848746
  0
LINE
  5
2B9
100
AcDbEntity
  8
0
100
AcDbLine
 62
4
  6
CONTINUOUS
 10
11.2014510473
 20
9.2878120946
 11
11.2097303802
 21
9.2955172884
  0
LINE
  5
2BA
100
AcDbEntity
  8
0
100
AcDbLine
 62
4
  6
CONTINUOUS
 10
10.2714024102
 20
8.7584047746
 11
10.2272457985
 21
8.7393887385
  0
LINE
  5
2BB
100
AcDbEntity
  8
0
100
AcDbLine
 62
4
  6
CONTINUOUS
 10
10.4314701183
 20
8.7914606495
 11
10.4645875883
 21
8.6732528418
  0
LINE
  5
2BC
100
AcDbEntity
  8
0
100
AcDbLine
 62
4
  6
CONTINUOUS
 10
10.5929177039
 20
8.9193575456
 11
10.5929177039
 21
9.035268649
  0
LINE
  5
2BD
100
AcDbEntity
  8
0
100
AcDbLine
 62
4
  6
CONTINUOUS
 10
10.5970574129
 20
8.6640660282
 11
10.5970574129
 21
8.7799771317
  0
LINE
  5
2BE
100
AcDbEntity
  8
0
100
AcDbLine
 62
4
  6
CONTINUOUS
 10
10.6508732556
 20
9.0312494178
 11
10.6508732556
 21
8.9153383144
  0
LINE
  5
2BF
100
AcDbEntity
  8
0
100
AcDbLine
 62
4
  6
CONTINUOUS
 10
10.6839907118
 20
8.9296003408
 11
10.6839907118
 21
9.0123939864
  0
LINE
  5
2C0
100
AcDbEntity
  8
0
100
AcDbLine
 62
4
  6
CONTINUOUS
 10
10.6853706371
 20
9.2573674777
 11
10.6853706371
 21
9.3236023926
  0
LINE
  5
2C1
100
AcDbEntity
  8
0
100
AcDbLine
 62
4
  6
CONTINUOUS
 10
10.7350468006
 20
9.3615541626
 11
10.7350468006
 21
9.2456430592
  0
LINE
  5
2C2
100
AcDbEntity
  8
0
100
AcDbLine
 62
4
  6
CONTINUOUS
 10
10.7378066174
 20
6.3766517887
 11
10.7378066174
 21
6.2607406853
  0
LINE
  5
2C3
100
AcDbEntity
  8
0
100
AcDbLine
 62
4
  6
CONTINUOUS
 10
10.7419462635
 20
8.9752572991
 11
10.7419462635
 21
8.9090223799
  0
LINE
  5
2C4
100
AcDbEntity
  8
0
100
AcDbLine
 62
4
  6
CONTINUOUS
 10
10.7681642982
 20
9.2433463529
 11
10.7681642982
 21
9.3261400002
  0
LINE
  5
2C5
100
AcDbEntity
  8
0
100
AcDbLine
 62
4
  6
CONTINUOUS
 10
10.7709240957
 20
8.6685670626
 11
10.7709240957
 21
8.7513607082
  0
LINE
  5
2C6
100
AcDbEntity
  8
0
100
AcDbLine
 62
4
  6
CONTINUOUS
 10
10.7750637197
 20
8.9067256765
 11
10.7750637197
 21
9.0226367799
  0
LINE
  5
2C7
100
AcDbEntity
  8
0
100
AcDbLine
 62
4
  6
CONTINUOUS
 10
10.8068012959
 20
9.3151811478
 11
10.8068012959
 21
9.2986224198
  0
LINE
  5
2C8
100
AcDbEntity
  8
0
100
AcDbLine
 62
7
  6
CONTINUOUS
 10
11.6776894504
 20
9.5713404324
 11
11.6973596816
 21
9.5903404178
  0
LINE
  5
2C9
100
AcDbEntity
  8
0
100
AcDbLine
 62
4
  6
CONTINUOUS
 10
11.2428478226
 20
9.2104269387
 11
11.2511271555
 21
9.2181321299
  0
LINE
  5
2CA
100
AcDbEntity
  8
0
100
AcDbLine
 62
4
  6
CONTINUOUS
 10
10.7709240957
 20
8.7513607082
 11
10.7874828168
 21
8.766771085
  0
LINE
  5
2CB
100
AcDbEntity
  8
0
100
AcDbLine
 62
4
  6
CONTINUOUS
 10
10.867516645
 20
8.7446619921
 11
10.8840753662
 21
8.760072369
  0
LINE
  5
2CC
100
AcDbEntity
  8
0
100
AcDbLine
 62
7
  6
CONTINUOUS
 10
11.858050211
 20
9.3713639632
 11
11.8890789356
 21
9.3871265564
  0
LINE
  5
2CD
100
AcDbEntity
  8
0
100
AcDbLine
 62
4
  6
CONTINUOUS
 10
8.8735696373
 20
8.283240634
 11
8.931525189
 21
8.2792214028
  0
LINE
  5
2CE
100
AcDbEntity
  8
0
100
AcDbLine
 62
4
  6
CONTINUOUS
 10
8.8953029692
 20
8.3976445257
 11
8.9097918571
 21
8.3966397179
  0
LINE
  5
2CF
100
AcDbEntity
  8
0
100
AcDbLine
 62
4
  6
CONTINUOUS
 10
12.5025532147
 20
8.1571402435
 11
12.4880643268
 21
8.1581450513
  0
LINE
  5
2D0
100
AcDbEntity
  8
0
100
AcDbLine
 62
7
  6
CONTINUOUS
 10
11.7976798433
 20
7.7499789342
 11
11.858050211
 21
7.710937387
  0
LINE
  5
2D1
100
AcDbEntity
  8
0
100
AcDbLine
 62
4
  6
CONTINUOUS
 10
10.3348775344
 20
8.798159368
 11
10.3514362625
 21
8.7804522882
  0
LINE
  5
2D2
100
AcDbEntity
  8
0
100
AcDbLine
 62
4
  6
CONTINUOUS
 10
10.3486764651
 20
9.3883490364
 11
10.4066320168
 21
9.2684187018
  0
LINE
  5
2D3
100
AcDbEntity
  8
0
100
AcDbLine
 62
4
  6
CONTINUOUS
 10
10.8426785711
 20
9.2464581354
 11
10.8426785711
 21
9.2712962301
  0
LINE
  5
2D4
100
AcDbEntity
  8
0
100
AcDbLine
 62
4
  6
CONTINUOUS
 10
10.867516645
 20
8.6618683466
 11
10.867516645
 21
8.7446619921
  0
LINE
  5
2D5
100
AcDbEntity
  8
0
100
AcDbLine
 62
4
  6
CONTINUOUS
 10
10.8923547346
 20
9.2347337169
 11
10.8923547346
 21
9.3009686361
  0
LINE
  5
2D6
100
AcDbEntity
  8
0
100
AcDbLine
 62
4
  6
CONTINUOUS
 10
10.925472177
 20
9.3152306618
 11
10.925472177
 21
9.2407163794
  0
LINE
  5
2D7
100
AcDbEntity
  8
0
100
AcDbLine
 62
4
  6
CONTINUOUS
 10
10.9254721967
 20
8.740642761
 11
10.9254721967
 21
8.6578491154
  0
LINE
  5
2D8
100
AcDbEntity
  8
0
100
AcDbLine
 62
4
  6
CONTINUOUS
 10
10.9585896391
 20
8.6389936832
 11
10.9585896391
 21
8.7549047866
  0
LINE
  5
2D9
100
AcDbEntity
  8
0
100
AcDbLine
 62
4
  6
CONTINUOUS
 10
10.9751483957
 20
9.228991957
 11
10.9751483957
 21
9.3117856043
  0
LINE
  5
2DA
100
AcDbEntity
  8
0
100
AcDbLine
 62
4
  6
CONTINUOUS
 10
11.0082658381
 20
9.2349746195
 11
11.0082658381
 21
9.342606358
  0
LINE
  5
2DB
100
AcDbEntity
  8
0
100
AcDbLine
 62
4
  6
CONTINUOUS
 10
11.0165451908
 20
8.7343268274
 11
11.0165451908
 21
8.6515331818
  0
LINE
  5
2DC
100
AcDbEntity
  8
0
100
AcDbLine
 62
4
  6
CONTINUOUS
 10
11.0855398886
 20
9.3372473844
 11
11.0827801109
 21
9.3291594081
  0
LINE
  5
2DD
100
AcDbEntity
  8
0
100
AcDbLine
 62
7
  6
CONTINUOUS
 10
11.766836718
 20
9.3806133374
 11
11.7976798433
 21
9.4104055105
  0
LINE
  5
2DE
100
AcDbEntity
  8
0
100
AcDbLine
 62
7
  6
CONTINUOUS
 10
12.6406805816
 20
10.1373683428
 11
13.2230229525
 21
10.699867912
  0
LINE
  5
2DF
100
AcDbEntity
  8
0
100
AcDbLine
 62
7
  6
CONTINUOUS
 10
11.8272070857
 20
9.3415717901
 11
11.858050211
 21
9.3713639632
  0
LINE
  5
2E0
100
AcDbEntity
  8
0
100
AcDbLine
 62
4
  6
CONTINUOUS
 10
10.9254721967
 20
8.6578491154
 11
10.9089134756
 21
8.6424387368
  0
LINE
  5
2E1
100
AcDbEntity
  8
0
100
AcDbLine
 62
4
  6
CONTINUOUS
 10
11.0165451908
 20
8.6515331818
 11
10.9999864696
 21
8.6361228032
  0
LINE
  5
2E2
100
AcDbEntity
  8
0
100
AcDbLine
 62
4
  6
CONTINUOUS
 10
12.4663309945
 20
9.4153559668
 11
12.4808198824
 21
9.4240104153
  0
LINE
  5
2E3
100
AcDbEntity
  8
0
100
AcDbLine
 62
4
  6
CONTINUOUS
 10
12.5097976583
 20
9.3833637675
 11
12.4953087703
 21
9.3747093121
  0
LINE
  5
2E4
100
AcDbEntity
  8
0
100
AcDbLine
 62
4
  6
CONTINUOUS
 10
11.1904118459
 20
8.6725929462
 11
11.1462552377
 21
8.6535769116
  0
LINE
  5
2E5
100
AcDbEntity
  8
0
100
AcDbLine
 62
4
  6
CONTINUOUS
 10
12.5025532147
 20
8.2730513469
 11
12.4880643268
 21
8.2740561547
  0
LINE
  5
2E6
100
AcDbEntity
  8
0
100
AcDbLine
 62
4
  6
CONTINUOUS
 10
10.2272457985
 20
8.7393887385
 11
10.2714024102
 21
8.7142481612
  0
LINE
  5
2E7
100
AcDbEntity
  8
0
100
AcDbLine
 62
4
  6
CONTINUOUS
 10
10.1665304494
 20
9.293349167
 11
10.1748098143
 21
9.2844956261
  0
LINE
  5
2E8
100
AcDbEntity
  8
0
100
AcDbLine
 62
4
  6
CONTINUOUS
 10
10.7874828168
 20
8.6508599816
 11
10.7709240957
 21
8.6685670626
  0
LINE
  5
2E9
100
AcDbEntity
  8
0
100
AcDbLine
 62
4
  6
CONTINUOUS
 10
10.2576034572
 20
9.2953125973
 11
10.2741621853
 21
9.2776055158
  0
LINE
  5
2EA
100
AcDbEntity
  8
0
100
AcDbLine
 62
4
  6
CONTINUOUS
 10
10.8840753662
 20
8.6441612656
 11
10.867516645
 21
8.6618683466
  0
LINE
  5
2EB
100
AcDbEntity
  8
0
100
AcDbLine
 62
4
  6
CONTINUOUS
 10
10.6136161419
 20
9.3368579512
 11
10.6384542513
 21
9.2523417752
  0
LINE
  5
2EC
100
AcDbEntity
  8
0
100
AcDbLine
 62
4
  6
CONTINUOUS
 10
11.0634616319
 20
8.6317207858
 11
11.0634616319
 21
8.7476318892
  0
LINE
  5
2ED
100
AcDbEntity
  8
0
100
AcDbLine
 62
4
  6
CONTINUOUS
 10
11.0827801109
 20
9.2215276722
 11
11.0827801109
 21
9.3043213195
  0
LINE
  5
2EE
100
AcDbEntity
  8
0
100
AcDbLine
 62
4
  6
CONTINUOUS
 10
11.0827801109
 20
9.3291594081
 11
11.0827801109
 21
9.3374387756
  0
LINE
  5
2EF
100
AcDbEntity
  8
0
100
AcDbLine
 62
4
  6
CONTINUOUS
 10
11.1269367191
 20
9.2267447659
 11
11.1269367191
 21
9.2929796808
  0
LINE
  5
2F0
100
AcDbEntity
  8
0
100
AcDbLine
 62
4
  6
CONTINUOUS
 10
11.2014510473
 20
9.2629740025
 11
11.2014510473
 21
9.2878120946
  0
LINE
  5
2F1
100
AcDbEntity
  8
0
100
AcDbLine
 62
4
  6
CONTINUOUS
 10
11.2511271555
 20
9.2181321299
 11
11.2511271555
 21
9.2429702246
  0
LINE
  5
2F2
100
AcDbEntity
  8
0
100
AcDbLine
 62
7
  6
CONTINUOUS
 10
11.9819884664
 20
9.2563069281
 11
12.0016586976
 21
9.2753069135
  0
LINE
  5
2F3
100
AcDbEntity
  8
0
100
AcDbLine
 62
4
  6
CONTINUOUS
 10
12.5097976583
 20
9.3157489552
 11
12.4953087703
 21
9.3070945041
  0
LINE
  5
2F4
100
AcDbEntity
  8
0
100
AcDbLine
 62
4
  6
CONTINUOUS
 10
10.9999864696
 20
8.6361228032
 11
10.9585896391
 21
8.6389936832
  0
LINE
  5
2F5
100
AcDbEntity
  8
0
100
AcDbLine
 62
4
  6
CONTINUOUS
 10
10.9089134756
 20
8.6424387368
 11
10.8840753662
 21
8.6441612656
  0
LINE
  5
2F6
100
AcDbEntity
  8
0
100
AcDbLine
 62
4
  6
CONTINUOUS
 10
10.8206002592
 20
8.6485632792
 11
10.7874828168
 21
8.6508599816
  0
LINE
  5
2F7
100
AcDbEntity
  8
0
100
AcDbLine
 62
4
  6
CONTINUOUS
 10
10.3348775344
 20
8.6822482645
 11
10.2934807177
 21
8.6851191435
  0
LINE
  5
2F8
100
AcDbEntity
  8
0
100
AcDbLine
 62
4
  6
CONTINUOUS
 10
10.5970574129
 20
8.6640660282
 11
10.646733604
 21
8.6606209727
  0
LINE
  5
2F9
100
AcDbEntity
  8
0
100
AcDbLine
 62
4
  6
CONTINUOUS
 10
11.0634616319
 20
8.6317207858
 11
11.1131377954
 21
8.6282757321
  0
LINE
  5
2FA
100
AcDbEntity
  8
0
100
AcDbLine
 62
4
  6
CONTINUOUS
 10
10.4093918142
 20
8.7101981413
 11
10.4535484224
 21
8.7071358701
  0
LINE
  5
2FB
100
AcDbEntity
  8
0
100
AcDbLine
 62
4
  6
CONTINUOUS
 10
11.0965790742
 20
8.6956590026
 11
11.0634616319
 21
8.697955705
  0
LINE
  5
2FC
100
AcDbEntity
  8
0
100
AcDbLine
 62
4
  6
CONTINUOUS
 10
10.6301748829
 20
8.7280042431
 11
10.5970574129
 21
8.7303009474
  0
LINE
  5
2FD
100
AcDbEntity
  8
0
100
AcDbLine
 62
4
  6
CONTINUOUS
 10
11.1462552377
 20
8.6977335249
 11
11.1904118459
 21
8.6725929462
  0
LINE
  5
2FE
100
AcDbEntity
  8
0
100
AcDbLine
 62
7
  6
CONTINUOUS
 10
11.7976798433
 20
8.2628855959
 11
11.858050211
 21
8.2238440486
  0
LINE
  5
2FF
100
AcDbEntity
  8
0
100
AcDbLine
 62
4
  6
CONTINUOUS
 10
10.2244860011
 20
9.3141680305
 11
10.1665304494
 21
9.3678634493
  0
LINE
  5
300
100
AcDbEntity
  8
0
100
AcDbLine
 62
4
  6
CONTINUOUS
 10
10.216206637
 20
9.3975358502
 11
10.2244860011
 21
9.3886823068
  0
LINE
  5
301
100
AcDbEntity
  8
0
100
AcDbLine
 62
4
  6
CONTINUOUS
 10
10.7005494399
 20
8.9118932593
 11
10.6839907118
 21
8.9296003408
  0
LINE
  5
302
100
AcDbEntity
  8
0
100
AcDbLine
 62
4
  6
CONTINUOUS
 10
10.9089134756
 20
8.7583498403
 11
10.9254721967
 21
8.740642761
  0
LINE
  5
303
100
AcDbEntity
  8
0
100
AcDbLine
 62
4
  6
CONTINUOUS
 10
10.9999864696
 20
8.7520339067
 11
11.0165451908
 21
8.7343268274
  0
LINE
  5
304
100
AcDbEntity
  8
0
100
AcDbLine
 62
7
  6
CONTINUOUS
 10
12.931851767
 20
9.9047455224
 11
12.9325366398
 21
9.9053948592
  0
LINE
  5
305
100
AcDbEntity
  8
0
100
AcDbLine
 62
4
  6
CONTINUOUS
 10
10.2934807177
 20
8.801030247
 11
10.3348775344
 21
8.798159368
  0
LINE
  5
306
100
AcDbEntity
  8
0
100
AcDbLine
 62
4
  6
CONTINUOUS
 10
10.4977050306
 20
8.7868672428
 11
10.5639399429
 21
8.782273836
  0
LINE
  5
307
100
AcDbEntity
  8
0
100
AcDbLine
 62
4
  6
CONTINUOUS
 10
10.5970574129
 20
8.7799771317
 11
10.646733604
 21
8.7765320761
  0
LINE
  5
308
100
AcDbEntity
  8
0
100
AcDbLine
 62
4
  6
CONTINUOUS
 10
10.7874828168
 20
8.766771085
 11
10.8206002592
 21
8.7644743826
  0
LINE
  5
309
100
AcDbEntity
  8
0
100
AcDbLine
 62
4
  6
CONTINUOUS
 10
10.8840753662
 20
8.760072369
 11
10.9089134756
 21
8.7583498403
  0
LINE
  5
30A
100
AcDbEntity
  8
0
100
AcDbLine
 62
4
  6
CONTINUOUS
 10
10.9585896391
 20
8.7549047866
 11
10.9999864696
 21
8.7520339067
  0
LINE
  5
30B
100
AcDbEntity
  8
0
100
AcDbLine
 62
4
  6
CONTINUOUS
 10
11.0634616319
 20
8.7476318892
 11
11.1131377954
 21
8.7441868356
  0
LINE
  5
30C
100
AcDbEntity
  8
0
100
AcDbLine
 62
4
  6
CONTINUOUS
 10
10.7419462635
 20
8.9090223799
 11
10.7005494399
 21
8.9118932593
  0
LINE
  5
30D
100
AcDbEntity
  8
0
100
AcDbLine
 62
4
  6
CONTINUOUS
 10
10.7750637197
 20
8.9067256765
 11
10.8247399108
 21
8.9032806209
  0
LINE
  5
30E
100
AcDbEntity
  8
0
100
AcDbLine
 62
4
  6
CONTINUOUS
 10
10.8081811758
 20
8.9706638923
 11
10.7750637197
 21
8.9729605957
  0
LINE
  5
30F
100
AcDbEntity
  8
0
100
AcDbLine
 62
4
  6
CONTINUOUS
 10
10.5929177039
 20
8.9855924648
 11
10.6508732556
 21
8.9815732336
  0
LINE
  5
310
100
AcDbEntity
  8
0
100
AcDbLine
 62
4
  6
CONTINUOUS
 10
10.7171081679
 20
8.9769798268
 11
10.7419462635
 21
8.9752572991
  0
LINE
  5
311
100
AcDbEntity
  8
0
100
AcDbLine
 62
4
  6
CONTINUOUS
 10
10.5722193114
 20
9.3397288312
 11
10.5804986719
 21
9.3308752881
  0
LINE
  5
312
100
AcDbEntity
  8
0
100
AcDbLine
 62
4
  6
CONTINUOUS
 10
10.925472177
 20
9.2407163794
 11
10.9337515652
 21
9.231862837
  0
LINE
  5
313
100
AcDbEntity
  8
0
100
AcDbLine
 62
4
  6
CONTINUOUS
 10
10.8012817406
 20
9.3238432978
 11
10.8068012959
 21
9.3151811478
  0
LINE
  5
314
100
AcDbEntity
  8
0
100
AcDbLine
 62
4
  6
CONTINUOUS
 10
10.8923547346
 20
9.3009686361
 11
10.8840754017
 21
9.3181015379
  0
LINE
  5
315
100
AcDbEntity
  8
0
100
AcDbLine
 62
4
  6
CONTINUOUS
 10
12.5170421022
 20
9.39252062
 11
12.5097976583
 21
9.3833637675
  0
LINE
  5
316
100
AcDbEntity
  8
0
100
AcDbLine
 62
4
  6
CONTINUOUS
 10
12.5242865462
 20
9.3340626644
 11
12.5097976583
 21
9.3157489552
  0
LINE
  5
317
100
AcDbEntity
  8
0
100
AcDbLine
 62
7
  6
CONTINUOUS
 10
11.6776894504
 20
8.4238205178
 11
11.6973596816
 21
8.4428205032
  0
LINE
  5
318
100
AcDbEntity
  8
0
100
AcDbLine
 62
7
  6
CONTINUOUS
 10
11.858050211
 20
8.2238440486
 11
11.8890789356
 21
8.2396066418
  0
LINE
  5
319
100
AcDbEntity
  8
0
100
AcDbLine
 62
4
  6
CONTINUOUS
 10
10.7005494399
 20
9.0278043628
 11
10.7419462635
 21
9.0249334833
  0
LINE
  5
31A
100
AcDbEntity
  8
0
100
AcDbLine
 62
4
  6
CONTINUOUS
 10
10.7750637197
 20
9.0226367799
 11
10.8247399108
 21
9.0191917243
  0
LINE
  5
31B
100
AcDbEntity
  8
0
100
AcDbLine
 62
4
  6
CONTINUOUS
 10
10.7019293583
 20
9.2479397616
 11
10.6853706371
 21
9.2573674777
  0
LINE
  5
31C
100
AcDbEntity
  8
0
100
AcDbLine
 62
4
  6
CONTINUOUS
 10
10.8592372923
 20
9.2370304193
 11
10.8426785711
 21
9.2464581354
  0
LINE
  5
31D
100
AcDbEntity
  8
0
100
AcDbLine
 62
4
  6
CONTINUOUS
 10
12.4880643268
 20
8.1581450513
 11
12.4735754389
 21
8.168809118
  0
LINE
  5
31E
100
AcDbEntity
  8
0
100
AcDbLine
 62
4
  6
CONTINUOUS
 10
12.4735754389
 20
8.2364239303
 11
12.5170421027
 21
8.2044317276
  0
LINE
  5
31F
100
AcDbEntity
  8
0
100
AcDbLine
 62
4
  6
CONTINUOUS
 10
11.0165452263
 20
9.2261210771
 11
11.0082658381
 21
9.2349746195
  0
LINE
  5
320
100
AcDbEntity
  8
0
100
AcDbLine
 62
4
  6
CONTINUOUS
 10
11.1352160521
 20
9.2178912273
 11
11.1269367191
 21
9.2267447659
  0
LINE
  5
321
100
AcDbEntity
  8
0
100
AcDbLine
 62
4
  6
CONTINUOUS
 10
11.2014510473
 20
9.2215771797
 11
11.2097303802
 21
9.2127236411
  0
LINE
  5
322
100
AcDbEntity
  8
0
100
AcDbLine
 62
7
  6
CONTINUOUS
 10
11.7976798433
 20
9.4671198225
 11
11.7976798433
 21
9.4104055105
  0
LINE
  5
323
100
AcDbEntity
  8
0
100
AcDbLine
 62
7
  6
CONTINUOUS
 10
11.7976798433
 20
8.3195999079
 11
11.7976798433
 21
8.2628855959
  0
LINE
  5
324
100
AcDbEntity
  8
0
100
AcDbLine
 62
7
  6
CONTINUOUS
 10
11.7976798433
 20
7.8066932462
 11
11.7976798433
 21
7.7499789342
  0
LINE
  5
325
100
AcDbEntity
  8
0
100
AcDbLine
 62
7
  6
CONTINUOUS
 10
11.766836718
 20
8.2330934228
 11
11.7976798433
 21
8.2628855959
  0
LINE
  5
326
100
AcDbEntity
  8
0
100
AcDbLine
 62
7
  6
CONTINUOUS
 10
11.8272070857
 20
8.1940518755
 11
11.858050211
 21
8.2238440486
  0
LINE
  5
327
100
AcDbEntity
  8
0
100
AcDbLine
 62
7
  6
CONTINUOUS
 10
11.6776894504
 20
7.9109138561
 11
11.6973596816
 21
7.9299138416
  0
LINE
  5
328
100
AcDbEntity
  8
0
100
AcDbLine
 62
4
  6
CONTINUOUS
 10
10.6136161419
 20
9.2264664221
 11
10.6301748631
 21
9.2253180709
  0
LINE
  5
329
100
AcDbEntity
  8
0
100
AcDbLine
 62
4
  6
CONTINUOUS
 10
11.168333605
 20
9.2155945172
 11
11.1352160521
 21
9.2178912273
  0
LINE
  5
32A
100
AcDbEntity
  8
0
100
AcDbLine
 62
4
  6
CONTINUOUS
 10
11.0331039474
 20
9.2249727258
 11
11.0165452263
 21
9.2261210771
  0
LINE
  5
32B
100
AcDbEntity
  8
0
100
AcDbLine
 62
4
  6
CONTINUOUS
 10
10.8923547346
 20
9.2347337169
 11
10.8592372923
 21
9.2370304193
  0
LINE
  5
32C
100
AcDbEntity
  8
0
100
AcDbLine
 62
4
  6
CONTINUOUS
 10
10.7350468006
 20
9.2456430592
 11
10.7019293583
 21
9.2479397616
  0
LINE
  5
32D
100
AcDbEntity
  8
0
100
AcDbLine
 62
4
  6
CONTINUOUS
 10
10.1748098143
 20
9.2844956261
 11
10.207927273
 21
9.2821989226
  0
LINE
  5
32E
100
AcDbEntity
  8
0
100
AcDbLine
 62
4
  6
CONTINUOUS
 10
10.2741621853
 20
9.2776055158
 11
10.2990002878
 21
9.2758829876
  0
LINE
  5
32F
100
AcDbEntity
  8
0
100
AcDbLine
 62
4
  6
CONTINUOUS
 10
10.9337515652
 20
9.231862837
 11
10.9751483957
 21
9.228991957
  0
LINE
  5
330
100
AcDbEntity
  8
0
100
AcDbLine
 62
4
  6
CONTINUOUS
 10
11.2097303802
 20
9.2127236411
 11
11.2428478226
 21
9.2104269387
  0
LINE
  5
331
100
AcDbEntity
  8
0
100
AcDbLine
 62
4
  6
CONTINUOUS
 10
10.8592372923
 20
9.278427243
 11
10.8923547346
 21
9.2761305405
  0
LINE
  5
332
100
AcDbEntity
  8
0
100
AcDbLine
 62
4
  6
CONTINUOUS
 10
10.8840754017
 20
9.3181015379
 11
10.8426785711
 21
9.3209724178
  0
LINE
  5
333
100
AcDbEntity
  8
0
100
AcDbLine
 62
4
  6
CONTINUOUS
 10
10.5308224808
 20
9.3425997111
 11
10.5722193114
 21
9.3397288312
  0
LINE
  5
334
100
AcDbEntity
  8
0
100
AcDbLine
 62
4
  6
CONTINUOUS
 10
10.7019293583
 20
9.3307334089
 11
10.7350468006
 21
9.3284367065
  0
LINE
  5
335
100
AcDbEntity
  8
0
100
AcDbLine
 62
4
  6
CONTINUOUS
 10
10.7681642982
 20
9.3261400002
 11
10.8012817406
 21
9.3238432978
  0
LINE
  5
336
100
AcDbEntity
  8
0
100
AcDbLine
 62
4
  6
CONTINUOUS
 10
11.1352160521
 20
9.3006848746
 11
11.168333605
 21
9.2983881645
  0
LINE
  5
337
100
AcDbEntity
  8
0
100
AcDbLine
 62
4
  6
CONTINUOUS
 10
11.2097303802
 20
9.2955172884
 11
11.2428478226
 21
9.293220586
  0
LINE
  5
338
100
AcDbEntity
  8
0
100
AcDbLine
 62
4
  6
CONTINUOUS
 10
10.1830891792
 20
9.3998325537
 11
10.216206637
 21
9.3975358502
  0
LINE
  5
339
100
AcDbEntity
  8
0
100
AcDbLine
 62
4
  6
CONTINUOUS
 10
11.0827801109
 20
9.3374387756
 11
11.0855398886
 21
9.3372473844
  0
LINE
  5
33A
100
AcDbEntity
  8
0
100
AcDbLine
 62
4
  6
CONTINUOUS
 10
12.4953087703
 20
9.3070945041
 11
12.4808198824
 21
9.3080993119
  0
LINE
  5
33B
100
AcDbEntity
  8
0
100
AcDbLine
 62
4
  6
CONTINUOUS
 10
11.2428478226
 20
9.2490639743
 11
11.2097303802
 21
9.2568802528
  0
LINE
  5
33C
100
AcDbEntity
  8
0
100
AcDbLine
 62
4
  6
CONTINUOUS
 10
12.5170421027
 20
8.2623872828
 11
12.5025532147
 21
8.2730513469
  0
LINE
  5
33D
100
AcDbEntity
  8
0
100
AcDbLine
 62
4
  6
CONTINUOUS
 10
11.2097303802
 20
9.2568802528
 11
11.2014510473
 21
9.2629740025
  0
LINE
  5
33E
100
AcDbEntity
  8
0
100
AcDbLine
 62
4
  6
CONTINUOUS
 10
11.2511271555
 20
9.2429702246
 11
11.2428478226
 21
9.2490639743
  0
LINE
  5
33F
100
AcDbEntity
  8
0
100
AcDbLine
 62
4
  6
CONTINUOUS
 10
11.2428478226
 20
9.293220586
 11
11.2511271555
 21
9.2843670448
  0
LINE
  5
340
100
AcDbEntity
  8
0
100
AcDbLine
 62
7
  6
CONTINUOUS
 10
11.9482140625
 20
10.5592911729
 11
11.9482140625
 21
10.5369963969
  0
LINE
  5
341
100
AcDbEntity
  8
0
100
AcDbLine
 62
7
  6
CONTINUOUS
 10
11.9819884664
 20
8.1087870134
 11
12.0016586976
 21
8.1277869989
  0
LINE
  5
342
100
AcDbEntity
  8
0
100
AcDbLine
 62
7
  6
CONTINUOUS
 10
11.766836718
 20
7.7201867612
 11
11.7976798433
 21
7.7499789342
  0
LINE
  5
343
100
AcDbEntity
  8
0
100
AcDbLine
 62
4
  6
CONTINUOUS
 10
12.4880643268
 20
8.2740561547
 11
12.4735754389
 21
8.2654017062
  0
LINE
  5
344
100
AcDbEntity
  8
0
100
AcDbLine
 62
4
  6
CONTINUOUS
 10
12.5170421027
 20
8.1657946946
 11
12.5025532147
 21
8.1571402435
  0
LINE
  5
345
100
AcDbEntity
  8
0
100
AcDbLine
 62
7
  6
CONTINUOUS
 10
11.858050211
 20
7.710937387
 11
11.8890789356
 21
7.7266999801
  0
LINE
  5
346
100
AcDbEntity
  8
0
100
AcDbLine
 62
4
  6
CONTINUOUS
 10
12.4808198824
 20
9.3757141199
 11
12.4953087703
 21
9.3747093121
  0
LINE
  5
347
100
AcDbEntity
  8
0
100
AcDbLine
 62
4
  6
CONTINUOUS
 10
12.4808198824
 20
9.4240104153
 11
12.4953087703
 21
9.4230056075
  0
LINE
  5
348
100
AcDbEntity
  8
0
100
AcDbLine
 62
4
  6
CONTINUOUS
 10
12.4735754389
 20
8.168809118
 11
12.459086551
 21
8.1891324427
  0
LINE
  5
349
100
AcDbEntity
  8
0
100
AcDbLine
 62
4
  6
CONTINUOUS
 10
12.4663309949
 20
8.2465855905
 11
12.4735754389
 21
8.2364239303
  0
LINE
  5
34A
100
AcDbEntity
  8
0
100
AcDbLine
 62
4
  6
CONTINUOUS
 10
12.5170421027
 20
8.2044317276
 11
12.5242865466
 21
8.1942700674
  0
LINE
  5
34B
100
AcDbEntity
  8
0
100
AcDbLine
 62
4
  6
CONTINUOUS
 10
12.5242865466
 20
8.2522256157
 11
12.5170421027
 21
8.2623872828
  0
LINE
  5
34C
100
AcDbEntity
  8
0
100
AcDbLine
 62
7
  6
CONTINUOUS
 10
12.2016213411
 20
10.6009559243
 11
12.2016213411
 21
10.547371008
  0
LINE
  5
34D
100
AcDbEntity
  8
0
100
AcDbLine
 62
7
  6
CONTINUOUS
 10
12.3064647241
 20
10.593685011
 11
12.3064647241
 21
10.5545589707
  0
LINE
  5
34E
100
AcDbEntity
  8
0
100
AcDbLine
 62
4
  6
CONTINUOUS
 10
12.4735754389
 20
8.2654017062
 11
12.4663309949
 21
8.2562448469
  0
LINE
  5
34F
100
AcDbEntity
  8
0
100
AcDbLine
 62
7
  6
CONTINUOUS
 10
11.8272070857
 20
7.6811452139
 11
11.858050211
 21
7.710937387
  0
LINE
  5
350
100
AcDbEntity
  8
0
100
AcDbLine
 62
7
  6
CONTINUOUS
 10
11.9819884664
 20
7.5958803518
 11
12.0016586976
 21
7.6148803372
  0
LINE
  5
351
100
AcDbEntity
  8
0
100
AcDbLine
 62
7
  6
CONTINUOUS
 10
12.931851767
 20
8.7572256077
 11
12.9325366398
 21
8.7578749445
  0
LINE
  5
352
100
AcDbEntity
  8
0
100
AcDbLine
 62
7
  6
CONTINUOUS
 10
11.7976798433
 20
9.4104055105
 11
11.858050211
 21
9.3713639632
  0
LINE
  5
353
100
AcDbEntity
  8
0
100
AcDbLine
 62
4
  6
CONTINUOUS
 10
12.4663309949
 20
8.2562448469
 11
12.4663309949
 21
8.2465855905
  0
LINE
  5
354
100
AcDbEntity
  8
0
100
AcDbLine
 62
7
  6
CONTINUOUS
 10
12.5112140625
 20
10.5592911729
 11
12.5112140625
 21
10.5369325066
  0
LINE
  5
355
100
AcDbEntity
  8
0
100
AcDbLine
 62
4
  6
CONTINUOUS
 10
12.5170421022
 20
9.4021798763
 11
12.5170421022
 21
9.39252062
  0
LINE
  5
356
100
AcDbEntity
  8
0
100
AcDbLine
 62
4
  6
CONTINUOUS
 10
12.5242865462
 20
9.3437219241
 11
12.5242865462
 21
9.3340626644
  0
LINE
  5
357
100
AcDbEntity
  8
0
100
AcDbLine
 62
4
  6
CONTINUOUS
 10
12.5242865466
 20
8.1942700674
 11
12.5242865466
 21
8.1749515496
  0
LINE
  5
358
100
AcDbEntity
  8
0
100
AcDbLine
 62
4
  6
CONTINUOUS
 10
12.5242865466
 20
8.1749515496
 11
12.5170421027
 21
8.1657946946
  0
LINE
  5
359
100
AcDbEntity
  8
0
100
AcDbLine
 62
4
  6
CONTINUOUS
 10
12.4808198824
 20
9.3080993119
 11
12.4663309945
 21
9.3187633786
  0
LINE
  5
35A
100
AcDbEntity
  8
0
100
AcDbLine
 62
7
  6
CONTINUOUS
 10
12.6406805816
 20
6.0321833379
 11
12.6406805816
 21
10.1373683428
  0
LINE
  5
35B
100
AcDbEntity
  8
0
100
AcDbLine
 62
7
  6
CONTINUOUS
 10
8.7769770475
 20
10.405317093
 11
12.6406805816
 21
10.1373683428
  0
LINE
  5
35C
100
AcDbEntity
  8
0
100
AcDbLine
 62
4
  6
CONTINUOUS
 10
12.4953087703
 20
9.3747093121
 11
12.5097976583
 21
9.364045248
  0
LINE
  5
35D
100
AcDbEntity
  8
0
100
AcDbLine
 62
4
  6
CONTINUOUS
 10
12.4953087703
 20
9.4230056075
 11
12.5097976583
 21
9.4123415434
  0
LINE
  5
35E
100
AcDbEntity
  8
0
100
AcDbLine
 62
4
  6
CONTINUOUS
 10
12.4663309945
 20
9.3187633786
 11
12.4590865505
 21
9.3289250414
  0
LINE
  5
35F
100
AcDbEntity
  8
0
100
AcDbLine
 62
4
  6
CONTINUOUS
 10
12.5097976583
 20
9.364045248
 11
12.5242865462
 21
9.3437219241
  0
LINE
  5
360
100
AcDbEntity
  8
0
100
AcDbLine
 62
4
  6
CONTINUOUS
 10
12.5097976583
 20
9.4123415434
 11
12.5170421022
 21
9.4021798763
  0
LINE
  5
361
100
AcDbEntity
  8
0
100
AcDbLine
 62
7
  6
CONTINUOUS
 10
13.2230229525
 20
6.594682907
 11
13.2230229525
 21
10.699867912
  0
LINE
  5
362
100
AcDbEntity
  8
0
100
AcDbLine
 62
7
  6
CONTINUOUS
 10
13.2230229525
 20
10.699867912
 11
9.3593194184
 21
10.9678166621
  0
LINE
  5
363
100
AcDbEntity
  8
0
100
AcDbLine
 62
7
  6
CONTINUOUS
 10
12.4855055531
 20
10.5931584745
 11
12.5009204829
 21
10.5788132642
  0
LINE
  5
364
100
AcDbEntity
  8
0
100
AcDbLine
 62
7
  6
CONTINUOUS
 10
12.6406805816
 20
6.0321833379
 11
13.2230229525
 21
6.594682907
  0
ARC
  5
365
100
AcDbEntity
  8
0
100
AcDbCircle
 62
7
  6
CONTINUOUS
 10
11.8103447486
 20
7.77356039
 40
0.1909538695
100
AcDbArc
 50
125.8987524149
 51
134.00315076
  0
ARC
  5
366
100
AcDbEntity
  8
0
100
AcDbCircle
 62
7
  6
CONTINUOUS
 10
11.8103447486
 20
8.2864670517
 40
0.1909538695
100
AcDbArc
 50
125.8987524149
 51
134.00315076
  0
ARC
  5
367
100
AcDbEntity
  8
0
100
AcDbCircle
 62
7
  6
CONTINUOUS
 10
11.8103447486
 20
9.4339869663
 40
0.1909538695
100
AcDbArc
 50
125.8987524149
 51
134.00315076
  0
ARC
  5
368
100
AcDbEntity
  8
0
100
AcDbCircle
 62
7
  6
CONTINUOUS
 10
11.8909464368
 20
7.8170628719
 40
0.0599008065
100
AcDbArc
 50
178.3695231772
 51
180.0002030494
  0
ARC
  5
369
100
AcDbEntity
  8
0
100
AcDbCircle
 62
7
  6
CONTINUOUS
 10
11.8909464368
 20
8.3299695336
 40
0.0599008065
100
AcDbArc
 50
178.3695231772
 51
180.0002030494
  0
ARC
  5
36A
100
AcDbEntity
  8
0
100
AcDbCircle
 62
7
  6
CONTINUOUS
 10
11.8909464368
 20
9.4774894482
 40
0.0599008065
100
AcDbArc
 50
178.3695231772
 51
180.0002030494
  0
ARC
  5
36B
100
AcDbEntity
  8
0
100
AcDbCircle
 62
7
  6
CONTINUOUS
 10
11.8632932133
 20
7.7753701105
 40
0.0550707706
100
AcDbArc
 50
296.9306324498
 51
297.980570971
  0
ARC
  5
36C
100
AcDbEntity
  8
0
100
AcDbCircle
 62
7
  6
CONTINUOUS
 10
11.8632932133
 20
8.2882767722
 40
0.0550707705
100
AcDbArc
 50
296.9306324495
 51
297.9805709712
  0
ARC
  5
36D
100
AcDbEntity
  8
0
100
AcDbCircle
 62
7
  6
CONTINUOUS
 10
11.8632932133
 20
9.4357966868
 40
0.0550707705
100
AcDbArc
 50
296.9306324496
 51
297.980570971
  0
ARC
  5
36E
100
AcDbEntity
  8
0
100
AcDbCircle
 62
7
  6
CONTINUOUS
 10
12.3184433793
 20
10.5853469966
 40
0.0247440017
100
AcDbArc
 50
308.5408875224
 51
310.8709417722
  0
ARC
  5
36F
100
AcDbEntity
  8
0
100
AcDbCircle
 62
7
  6
CONTINUOUS
 10
12.3202307934
 20
10.5832643557
 40
0.0219995342
100
AcDbArc
 50
310.9000460891
 51
312.9171738591
  0
SPLINE
  5
370
100
AcDbEntity
  8
0
100
AcDbSpline
 62
7
  6
CONTINUOUS
 70
0
 71
3
 72
17
 73
13
 74
0
 42
0.0000001
 43
0.0000001
 44
0.0000000001
 40
0.0
 40
0.0
 40
0.0
 40
0.0
 40
0.1273148359
 40
0.1907080938
 40
0.253886694
 40
0.3795973721
 40
0.5046020162
 40
0.5668927094
 40
0.6290466736
 40
0.7529728785
 40
0.8765701029
 40
1.0
 40
1.0
 40
1.0
 40
1.0
 10
11.6183011899
 20
7.768067298
 30
0.0
 10
11.6183011899
 20
7.7748108089
 30
0.0
 10
11.6187863305
 20
7.7849211534
 30
0.0
 10
11.6204079992
 20
7.7982745827
 30
0.0
 10
11.6226681709
 20
7.8114496892
 30
0.0
 10
11.6266864379
 20
7.8276125693
 30
0.0
 10
11.6322808163
 20
7.843250726
 30
0.0
 10
11.6376600114
 20
7.8553242394
 30
0.0
 10
11.6436179681
 20
7.8670586191
 30
0.0
 10
11.6521517753
 20
7.8811033266
 30
0.0
 10
11.6640379725
 20
7.8967888779
 30
0.0
 10
11.672987081
 20
7.9063718609
 30
0.0
 10
11.6776894913
 20
7.9109138138
 30
0.0
  0
SPLINE
  5
371
100
AcDbEntity
  8
0
100
AcDbSpline
 62
7
  6
CONTINUOUS
 70
0
 71
3
 72
13
 73
9
 74
0
 42
0.0000001
 43
0.0000001
 44
0.0000000001
 40
0.0
 40
0.0
 40
0.0
 40
0.0
 40
0.2513862213
 40
0.5015608494
 40
0.6263585162
 40
0.7509958623
 40
0.8755254063
 40
1.0
 40
1.0
 40
1.0
 40
1.0
 10
12.0494083071
 20
7.6893352708
 30
0.0
 10
12.0469090865
 20
7.6822897521
 30
0.0
 10
12.041122755
 20
7.668502109
 30
0.0
 10
12.0319702948
 20
7.6522298173
 30
0.0
 10
12.0235878763
 20
7.6399544889
 30
0.0
 10
12.0167896919
 20
7.631145134
 30
0.0
 10
12.00949831
 20
7.6227530852
 30
0.0
 10
12.0043211081
 20
7.6174519817
 30
0.0
 10
12.0016586567
 20
7.6148803796
 30
0.0
  0
SPLINE
  5
372
100
AcDbEntity
  8
0
100
AcDbSpline
 62
7
  6
CONTINUOUS
 70
0
 71
3
 72
11
 73
7
 74
0
 42
0.0000001
 43
0.0000001
 44
0.0000000001
 40
0.0
 40
0.0
 40
0.0
 40
0.0
 40
0.249272203
 40
0.5008802135
 40
0.7525275855
 40
1.0
 40
1.0
 40
1.0
 40
1.0
 10
11.8875774534
 20
7.7118133627
 30
0.0
 10
11.8879432918
 20
7.714897393
 30
0.0
 10
11.8886221269
 20
7.7211012608
 30
0.0
 10
11.8894251073
 20
7.7304435404
 30
0.0
 10
11.8899517718
 20
7.739783478
 30
0.0
 10
11.8900799212
 20
7.7460024735
 30
0.0
 10
11.8900799212
 20
7.7490857031
 30
0.0
  0
SPLINE
  5
373
100
AcDbEntity
  8
0
100
AcDbSpline
 62
7
  6
CONTINUOUS
 70
0
 71
3
 72
11
 73
7
 74
0
 42
0.0000001
 43
0.0000001
 44
0.0000000001
 40
0.0
 40
0.0
 40
0.0
 40
0.0
 40
0.2732656329
 40
0.5313487246
 40
0.7731209783
 40
1.0
 40
1.0
 40
1.0
 40
1.0
 10
11.8900799212
 20
7.7490857031
 30
0.0
 10
11.8900799212
 20
7.7520519438
 30
0.0
 10
11.889965378
 20
7.7578204509
 30
0.0
 10
11.8894474245
 20
7.766198828
 30
0.0
 10
11.8886472984
 20
7.7740485532
 30
0.0
 10
11.8879520306
 20
7.779088988
 30
0.0
 10
11.8875774534
 20
7.7815230588
 30
0.0
  0
SPLINE
  5
374
100
AcDbEntity
  8
0
100
AcDbSpline
 62
7
  6
CONTINUOUS
 70
0
 71
3
 72
15
 73
11
 74
0
 42
0.0000001
 43
0.0000001
 44
0.0000000001
 40
0.0
 40
0.0
 40
0.0
 40
0.0
 40
0.1240777136
 40
0.2511220676
 40
0.3805653088
 40
0.5108217172
 40
0.639494926
 40
0.764424719
 40
0.8845808224
 40
1.0
 40
1.0
 40
1.0
 40
1.0
 10
11.8272070857
 20
7.8205646061
 30
0.0
 10
11.8299535568
 20
7.8193818392
 30
0.0
 10
11.8354792348
 20
7.8169102608
 30
0.0
 10
11.8437187459
 20
7.8128763515
 30
0.0
 10
11.8519112568
 20
7.8084243302
 30
0.0
 10
11.8599077568
 20
7.8035515303
 30
0.0
 10
11.867544071
 20
7.7983215449
 30
0.0
 10
11.8747039319
 20
7.7928494508
 30
0.0
 10
11.881354807
 20
7.7872549472
 30
0.0
 10
11.8855525177
 20
7.7834302067
 30
0.0
 10
11.8875774534
 20
7.7815230588
 30
0.0
  0
SPLINE
  5
375
100
AcDbEntity
  8
0
100
AcDbSpline
 62
7
  6
CONTINUOUS
 70
0
 71
3
 72
15
 73
11
 74
0
 42
0.0000001
 43
0.0000001
 44
0.0000000001
 40
0.0
 40
0.0
 40
0.0
 40
0.0
 40
0.1387137725
 40
0.2777269652
 40
0.4154031561
 40
0.5490459746
 40
0.6755623724
 40
0.7928750885
 40
0.9006878119
 40
1.0
 40
1.0
 40
1.0
 40
1.0
 10
11.766836718
 20
7.7898964573
 30
0.0
 10
11.7695591756
 20
7.7914464896
 30
0.0
 10
11.7750208698
 20
7.7945308258
 30
0.0
 10
11.7832317464
 20
7.7990696401
 30
0.0
 10
11.7913944017
 20
7.8034578658
 30
0.0
 10
11.7993695762
 20
7.8075970145
 30
0.0
 10
11.8070021301
 20
7.8113954537
 30
0.0
 10
11.8141756877
 20
7.8148038953
 30
0.0
 10
11.8208497954
 20
7.8178288971
 30
0.0
 10
11.8251422559
 20
7.8196887179
 30
0.0
 10
11.8272070857
 20
7.8205646061
 30
0.0
  0
SPLINE
  5
376
100
AcDbEntity
  8
0
100
AcDbSpline
 62
7
  6
CONTINUOUS
 70
0
 71
3
 72
38
 73
34
 74
0
 42
0.0000001
 43
0.0000001
 44
0.0000000001
 40
0.0
 40
0.0
 40
0.0
 40
0.0
 40
0.029944812
 40
0.0599139139
 40
0.0899312717
 40
0.1200193174
 40
0.1350994304
 40
0.150204915
 40
0.1804950416
 40
0.2109117799
 40
0.2414680483
 40
0.2721739917
 40
0.3030358878
 40
0.3340569838
 40
0.365236542
 40
0.3965708423
 40
0.4280523939
 40
0.4596710329
 40
0.4914133205
 40
0.5232636592
 40
0.5552038952
 40
0.5872143744
 40
0.6192737535
 40
0.6513599477
 40
0.6834501859
 40
0.7155217223
 40
0.7475519957
 40
0.7795193843
 40
0.8114039982
 40
0.8431871813
 40
0.8748506854
 40
0.9377293214
 40
1.0
 40
1.0
 40
1.0
 40
1.0
 10
11.9819884255
 20
7.5958803941
 30
0.0
 10
11.9783551985
 20
7.5923711416
 30
0.0
 10
11.9708031541
 20
7.5856358493
 30
0.0
 10
11.9587039526
 20
7.5764595225
 30
0.0
 10
11.9458949357
 20
7.5682575552
 30
0.0
 10
11.9346960544
 20
7.5622745679
 30
0.0
 10
11.9254596697
 20
7.5580191414
 30
0.0
 10
11.9160326422
 20
7.5541146465
 30
0.0
 10
11.9039383078
 20
7.5499157904
 30
0.0
 10
11.8890335756
 20
7.5460035262
 30
0.0
 10
11.8738038611
 20
7.5432309051
 30
0.0
 10
11.8583331587
 20
7.5416157611
 30
0.0
 10
11.8427066831
 20
7.5411640749
 30
0.0
 10
11.8270103797
 20
7.5418808433
 30
0.0
 10
11.8113303547
 20
7.5437591938
 30
0.0
 10
11.7957531315
 20
7.5467913691
 30
0.0
 10
11.7803636901
 20
7.5509577946
 30
0.0
 10
11.7652473004
 20
7.5562381632
 30
0.0
 10
11.7504859576
 20
7.5626006499
 30
0.0
 10
11.7361618445
 20
7.5700128568
 30
0.0
 10
11.7223521906
 20
7.5784314187
 30
0.0
 10
11.7091343266
 20
7.5878125613
 30
0.0
 10
11.6965790315
 20
7.59810232
 30
0.0
 10
11.6847571148
 20
7.6092465012
 30
0.0
 10
11.6737313741
 20
7.6211817442
 30
0.0
 10
11.6635646036
 20
7.6338446073
 30
0.0
 10
11.6543101892
 20
7.6471636055
 30
0.0
 10
11.6460214602
 20
7.661067535
 30
0.0
 10
11.6387414585
 20
7.6754784176
 30
0.0
 10
11.6325129792
 20
7.6903193313
 30
0.0
 10
11.6256695788
 20
7.7105157278
 30
0.0
 10
11.6198783901
 20
7.7364229865
 30
0.0
 10
11.6183011899
 20
7.7575631356
 30
0.0
 10
11.6183011899
 20
7.768067298
 30
0.0
  0
SPLINE
  5
377
100
AcDbEntity
  8
0
100
AcDbSpline
 62
7
  6
CONTINUOUS
 70
0
 71
3
 72
14
 73
10
 74
0
 42
0.0000001
 43
0.0000001
 44
0.0000000001
 40
0.0
 40
0.0
 40
0.0
 40
0.0
 40
0.1244922981
 40
0.2490359167
 40
0.3736813378
 40
0.4984788096
 40
0.6234752712
 40
0.74871602
 40
1.0
 40
1.0
 40
1.0
 40
1.0
 10
11.6973597225
 20
7.9299137992
 30
0.0
 10
11.6999433269
 20
7.9324092448
 30
0.0
 10
11.7052540209
 20
7.9372560846
 30
0.0
 10
11.713619322
 20
7.9440668527
 30
0.0
 10
11.7223632474
 20
7.950399892
 30
0.0
 10
11.7314607501
 20
7.9562372542
 30
0.0
 10
11.7408867191
 20
7.9615641166
 30
0.0
 10
11.7538679984
 20
7.9679692731
 30
0.0
 10
11.7640055558
 20
7.9719560394
 30
0.0
 10
11.7708885812
 20
7.9742343343
 30
0.0
  0
SPLINE
  5
378
100
AcDbEntity
  8
0
100
AcDbSpline
 62
7
  6
CONTINUOUS
 70
0
 71
3
 72
19
 73
15
 74
0
 42
0.0000001
 43
0.0000001
 44
0.0000000001
 40
0.0
 40
0.0
 40
0.0
 40
0.0
 40
0.1259165152
 40
0.1890435013
 40
0.2521765074
 40
0.3783027214
 40
0.5041309176
 40
0.5668776413
 40
0.6294512568
 40
0.6918223904
 40
0.7539712289
 40
0.8158897976
 40
0.8775715464
 40
1.0
 40
1.0
 40
1.0
 40
1.0
 10
11.8278650272
 20
7.7304581606
 30
0.0
 10
11.8255817418
 20
7.7319347624
 30
0.0
 10
11.8222861701
 20
7.734366818
 30
0.0
 10
11.8182162822
 20
7.7379886573
 30
0.0
 10
11.8143717412
 20
7.7418562885
 30
0.0
 10
11.8100244434
 20
7.7471138834
 30
0.0
 10
11.8063556343
 20
7.7528561353
 30
0.0
 10
11.8038696109
 20
7.7576795769
 30
0.0
 10
11.8022379539
 20
7.7613927655
 30
0.0
 10
11.800845132
 20
7.7651881493
 30
0.0
 10
11.7996974228
 20
7.7690499143
 30
0.0
 10
11.7987989755
 20
7.7729622522
 30
0.0
 10
11.7979424556
 20
7.7782080904
 30
0.0
 10
11.7976798433
 20
7.7821899622
 30
0.0
 10
11.7976798433
 20
7.7848337823
 30
0.0
  0
SPLINE
  5
379
100
AcDbEntity
  8
0
100
AcDbSpline
 62
7
  6
CONTINUOUS
 70
0
 71
3
 72
17
 73
13
 74
0
 42
0.0000001
 43
0.0000001
 44
0.0000000001
 40
0.0
 40
0.0
 40
0.0
 40
0.0
 40
0.1214811947
 40
0.1825928933
 40
0.2439208635
 40
0.305493007
 40
0.3673350785
 40
0.4918016094
 40
0.6173948385
 40
0.7440422234
 40
0.8716680821
 40
1.0
 40
1.0
 40
1.0
 40
1.0
 10
11.8882353949
 20
7.7262714614
 30
0.0
 10
11.8859497078
 20
7.7251103323
 30
0.0
 10
11.8823861095
 20
7.7236024275
 30
0.0
 10
11.8774626044
 20
7.7220909961
 30
0.0
 10
11.8736781087
 20
7.7212061722
 30
0.0
 10
11.8698276153
 20
7.7205758824
 30
0.0
 10
11.8646169069
 20
7.7200779536
 30
0.0
 10
11.8580138951
 20
7.7201063707
 30
0.0
 10
11.8501147298
 20
7.7211771046
 30
0.0
 10
11.8423516687
 20
7.723263462
 30
0.0
 10
11.8348606001
 20
7.7263300267
 30
0.0
 10
11.8301391909
 20
7.7289874578
 30
0.0
 10
11.8278650272
 20
7.7304581606
 30
0.0
  0
SPLINE
  5
37A
100
AcDbEntity
  8
0
100
AcDbSpline
 62
7
  6
CONTINUOUS
 70
0
 71
3
 72
49
 73
45
 74
0
 42
0.0000001
 43
0.0000001
 44
0.0000000001
 40
0.0
 40
0.0
 40
0.0
 40
0.0
 40
0.0313124516
 40
0.0628593141
 40
0.0787075028
 40
0.0945995998
 40
0.126502659
 40
0.1585608398
 40
0.1907402095
 40
0.2068682324
 40
0.2230127563
 40
0.2391689252
 40
0.255331956
 40
0.2714969196
 40
0.2876586436
 40
0.3038119942
 40
0.3199521348
 40
0.3521652624
 40
0.3842696438
 40
0.4162330966
 40
0.4480275395
 40
0.4796318702
 40
0.5110311876
 40
0.5422189324
 40
0.573196104
 40
0.6039722241
 40
0.6345646967
 40
0.6649982209
 40
0.6953044026
 40
0.7104261239
 40
0.7255300429
 40
0.7556952105
 40
0.7707772913
 40
0.7858628248
 40
0.8160556666
 40
0.8311837819
 40
0.8463363278
 40
0.8615175372
 40
0.8767311605
 40
0.9072608757
 40
0.9225962674
 40
0.9379813914
 40
0.9688998926
 40
1.0
 40
1.0
 40
1.0
 40
1.0
 10
11.7503556382
 20
7.7546221076
 30
0.0
 10
11.7503556382
 20
7.7521501492
 30
0.0
 10
11.7506011843
 20
7.747184707
 30
0.0
 10
11.7515060452
 20
7.741027414
 30
0.0
 10
11.7525856678
 20
7.736147522
 30
0.0
 10
11.7539030184
 20
7.7312973112
 30
0.0
 10
11.755985801
 20
7.7253365061
 30
0.0
 10
11.7591519737
 20
7.7184271781
 30
0.0
 10
11.7623217497
 20
7.7129198709
 30
0.0
 10
11.7651594496
 20
7.7086947608
 30
0.0
 10
11.7674351405
 20
7.7056208655
 30
0.0
 10
11.7698510068
 20
7.7026524072
 30
0.0
 10
11.7724017158
 20
7.6997967916
 30
0.0
 10
11.7750807149
 20
7.6970605698
 30
0.0
 10
11.7778813918
 20
7.694450177
 30
0.0
 10
11.7807973069
 20
7.6919720477
 30
0.0
 10
11.7848264427
 20
7.6888552991
 30
0.0
 10
11.7901137888
 20
7.685317919
 30
0.0
 10
11.7968043257
 20
7.6816885398
 30
0.0
 10
11.8037731749
 20
7.6787092825
 30
0.0
 10
11.8109539511
 20
7.6764110792
 30
0.0
 10
11.8182770992
 20
7.6748139594
 30
0.0
 10
11.8256727705
 20
7.6739359718
 30
0.0
 10
11.8330695332
 20
7.6737832258
 30
0.0
 10
11.8403962545
 20
7.6743601137
 30
0.0
 10
11.8475824627
 20
7.6756588178
 30
0.0
 10
11.8545585108
 20
7.6776694956
 30
0.0
 10
11.8612571639
 20
7.6803706609
 30
0.0
 10
11.8665593965
 20
7.6831803228
 30
0.0
 10
11.8705954983
 20
7.685742369
 30
0.0
 10
11.8744823279
 20
7.6885061927
 30
0.0
 10
11.8781439688
 20
7.6915707328
 30
0.0
 10
11.8815455119
 20
7.694907267
 30
0.0
 10
11.8847680199
 20
7.6984199814
 30
0.0
 10
11.8877115134
 20
7.7021851821
 30
0.0
 10
11.8903485148
 20
7.7061668577
 30
0.0
 10
11.892171908
 20
7.7092601284
 30
0.0
 10
11.8938352522
 20
7.7124499041
 30
0.0
 10
11.8958364815
 20
7.7168252784
 30
0.0
 10
11.8974995954
 20
7.7213620424
 30
0.0
 10
11.8988127382
 20
7.7260173826
 30
0.0
 10
11.8998952452
 20
7.7307635169
 30
0.0
 10
11.9007994178
 20
7.7368176123
 30
0.0
 10
11.901040076
 20
7.7417169115
 30
0.0
 10
11.901040076
 20
7.7441721064
 30
0.0
  0
SPLINE
  5
37B
100
AcDbEntity
  8
0
100
AcDbSpline
 62
7
  6
CONTINUOUS
 70
0
 71
3
 72
13
 73
9
 74
0
 42
0.0000001
 43
0.0000001
 44
0.0000000001
 40
0.0
 40
0.0
 40
0.0
 40
0.0
 40
0.2525061031
 40
0.5033171101
 40
0.6280725826
 40
0.7524088264
 40
0.8763708792
 40
1.0
 40
1.0
 40
1.0
 40
1.0
 10
11.7976798433
 20
7.7848337823
 30
0.0
 10
11.7976798433
 20
7.7869949054
 30
0.0
 10
11.7979121491
 20
7.7913061151
 30
0.0
 10
11.7987869751
 20
7.7966215001
 30
0.0
 10
11.7998325651
 20
7.80077225
 30
0.0
 10
11.80078453
 20
7.8038217238
 30
0.0
 10
11.8019032388
 20
7.8068035858
 30
0.0
 10
11.8027592163
 20
7.8087435394
 30
0.0
 10
11.8032136949
 20
7.8096990673
 30
0.0
  0
SPLINE
  5
37C
100
AcDbEntity
  8
0
100
AcDbSpline
 62
7
  6
CONTINUOUS
 70
0
 71
3
 72
15
 73
11
 74
0
 42
0.0000001
 43
0.0000001
 44
0.0000000001
 40
0.0
 40
0.0
 40
0.0
 40
0.0
 40
0.1154191779
 40
0.2355752813
 40
0.3605050746
 40
0.4891782854
 40
0.6194346919
 40
0.7488779326
 40
0.8759222867
 40
1.0
 40
1.0
 40
1.0
 40
1.0
 10
11.8272070857
 20
7.6811452139
 30
0.0
 10
11.8251821499
 20
7.6830523618
 30
0.0
 10
11.8209844393
 20
7.6868771023
 30
0.0
 10
11.8143335642
 20
7.6924716059
 30
0.0
 10
11.8071737032
 20
7.6979437
 30
0.0
 10
11.799537389
 20
7.7031736854
 30
0.0
 10
11.7915408891
 20
7.7080464853
 30
0.0
 10
11.7833483782
 20
7.7124985066
 30
0.0
 10
11.7751088671
 20
7.7165324159
 30
0.0
 10
11.769583189
 20
7.7190039942
 30
0.0
 10
11.766836718
 20
7.7201867612
 30
0.0
  0
SPLINE
  5
37D
100
AcDbEntity
  8
0
100
AcDbSpline
 62
7
  6
CONTINUOUS
 70
0
 71
3
 72
15
 73
11
 74
0
 42
0.0000001
 43
0.0000001
 44
0.0000000001
 40
0.0
 40
0.0
 40
0.0
 40
0.0
 40
0.0993121883
 40
0.2071249118
 40
0.3244376282
 40
0.450954028
 40
0.5845968446
 40
0.7222730351
 40
0.8612862279
 40
1.0
 40
1.0
 40
1.0
 40
1.0
 10
11.8875774534
 20
7.7118133627
 30
0.0
 10
11.8855126236
 20
7.7109374745
 30
0.0
 10
11.8812201631
 20
7.7090776538
 30
0.0
 10
11.8745460554
 20
7.706052652
 30
0.0
 10
11.8673724978
 20
7.7026442103
 30
0.0
 10
11.8597399439
 20
7.6988457711
 30
0.0
 10
11.8517647693
 20
7.6947066223
 30
0.0
 10
11.8436021141
 20
7.6903183967
 30
0.0
 10
11.8353912375
 20
7.6857795824
 30
0.0
 10
11.8299295433
 20
7.6826952462
 30
0.0
 10
11.8272070857
 20
7.6811452139
 30
0.0
  0
SPLINE
  5
37E
100
AcDbEntity
  8
0
100
AcDbSpline
 62
7
  6
CONTINUOUS
 70
0
 71
3
 72
11
 73
7
 74
0
 42
0.0000001
 43
0.0000001
 44
0.0000000001
 40
0.0
 40
0.0
 40
0.0
 40
0.0
 40
0.2474744049
 40
0.499121966
 40
0.750729073
 40
1.0
 40
1.0
 40
1.0
 40
1.0
 10
11.7693391858
 20
7.7574585138
 30
0.0
 10
11.7693391858
 20
7.7543753079
 30
0.0
 10
11.7692110114
 20
7.7481563834
 30
0.0
 10
11.7686843455
 20
7.7388165776
 30
0.0
 10
11.7678813714
 20
7.7294744702
 30
0.0
 10
11.7672025488
 20
7.7232707271
 30
0.0
 10
11.766836718
 20
7.7201867612
 30
0.0
  0
SPLINE
  5
37F
100
AcDbEntity
  8
0
100
AcDbSpline
 62
7
  6
CONTINUOUS
 70
0
 71
3
 72
11
 73
7
 74
0
 42
0.0000001
 43
0.0000001
 44
0.0000000001
 40
0.0
 40
0.0
 40
0.0
 40
0.0
 40
0.2268797892
 40
0.4686527917
 40
0.7267359359
 40
1.0
 40
1.0
 40
1.0
 40
1.0
 10
11.766836718
 20
7.7898964573
 30
0.0
 10
11.7672113032
 20
7.7874623343
 30
0.0
 10
11.7679065839
 20
7.7824217918
 30
0.0
 10
11.7687067161
 20
7.7745719072
 30
0.0
 10
11.7692246668
 20
7.7661933861
 30
0.0
 10
11.7693391858
 20
7.760424791
 30
0.0
 10
11.7693391858
 20
7.7574585138
 30
0.0
  0
SPLINE
  5
380
100
AcDbEntity
  8
0
100
AcDbSpline
 62
7
  6
CONTINUOUS
 70
0
 71
3
 72
49
 73
45
 74
0
 42
0.0000001
 43
0.0000001
 44
0.0000000001
 40
0.0
 40
0.0
 40
0.0
 40
0.0
 40
0.0313124516
 40
0.0628593141
 40
0.0787075028
 40
0.0945995998
 40
0.126502659
 40
0.1585608398
 40
0.1907402095
 40
0.2068682324
 40
0.2230127563
 40
0.2391689252
 40
0.255331956
 40
0.2714969196
 40
0.2876586436
 40
0.3038119942
 40
0.3199521348
 40
0.3521652624
 40
0.3842696438
 40
0.4162330966
 40
0.4480275395
 40
0.4796318702
 40
0.5110311876
 40
0.5422189324
 40
0.573196104
 40
0.6039722241
 40
0.6345646967
 40
0.6649982209
 40
0.6953044026
 40
0.7104261239
 40
0.7255300429
 40
0.7556952105
 40
0.7707772913
 40
0.7858628248
 40
0.8160556666
 40
0.8311837819
 40
0.8463363278
 40
0.8615175372
 40
0.8767311605
 40
0.9072608757
 40
0.9225962674
 40
0.9379813914
 40
0.9688998926
 40
1.0
 40
1.0
 40
1.0
 40
1.0
 10
11.901040076
 20
7.7441721064
 30
0.0
 10
11.901040076
 20
7.7466440648
 30
0.0
 10
11.9007945299
 20
7.7516095071
 30
0.0
 10
11.899889669
 20
7.7577668
 30
0.0
 10
11.8988100464
 20
7.762646692
 30
0.0
 10
11.8974926958
 20
7.7674969028
 30
0.0
 10
11.8954099132
 20
7.773457708
 30
0.0
 10
11.8922437405
 20
7.7803670359
 30
0.0
 10
11.8890739645
 20
7.7858743431
 30
0.0
 10
11.8862362646
 20
7.7900994532
 30
0.0
 10
11.8839605736
 20
7.7931733485
 30
0.0
 10
11.8815447073
 20
7.7961418068
 30
0.0
 10
11.8789939984
 20
7.7989974225
 30
0.0
 10
11.8763149993
 20
7.8017336442
 30
0.0
 10
11.8735143224
 20
7.804344037
 30
0.0
 10
11.8705984073
 20
7.8068221663
 30
0.0
 10
11.8665692715
 20
7.8099389149
 30
0.0
 10
11.8612819254
 20
7.8134762951
 30
0.0
 10
11.8545913885
 20
7.8171056743
 30
0.0
 10
11.8476225393
 20
7.8200849316
 30
0.0
 10
11.8404417631
 20
7.8223831348
 30
0.0
 10
11.833118615
 20
7.8239802546
 30
0.0
 10
11.8257229437
 20
7.8248582423
 30
0.0
 10
11.818326181
 20
7.8250109883
 30
0.0
 10
11.8109994597
 20
7.8244341004
 30
0.0
 10
11.8038132515
 20
7.8231353962
 30
0.0
 10
11.7968372034
 20
7.8211247184
 30
0.0
 10
11.7901385503
 20
7.8184235531
 30
0.0
 10
11.7848363177
 20
7.8156138912
 30
0.0
 10
11.7808002159
 20
7.813051845
 30
0.0
 10
11.7769133863
 20
7.8102880213
 30
0.0
 10
11.7732517454
 20
7.8072234812
 30
0.0
 10
11.7698502023
 20
7.8038869471
 30
0.0
 10
11.7666276943
 20
7.8003742326
 30
0.0
 10
11.7636842008
 20
7.796609032
 30
0.0
 10
11.7610471994
 20
7.7926273563
 30
0.0
 10
11.7592238062
 20
7.7895340857
 30
0.0
 10
11.757560462
 20
7.7863443099
 30
0.0
 10
11.7555592326
 20
7.7819689357
 30
0.0
 10
11.7538961188
 20
7.7774321716
 30
0.0
 10
11.752582976
 20
7.7727768314
 30
0.0
 10
11.751500469
 20
7.7680306972
 30
0.0
 10
11.7505962964
 20
7.7619766017
 30
0.0
 10
11.7503556382
 20
7.7570773026
 30
0.0
 10
11.7503556382
 20
7.7546221076
 30
0.0
  0
SPLINE
  5
381
100
AcDbEntity
  8
0
100
AcDbSpline
 62
7
  6
CONTINUOUS
 70
0
 71
3
 72
40
 73
36
 74
0
 42
0.0000001
 43
0.0000001
 44
0.0000000001
 40
0.0
 40
0.0
 40
0.0
 40
0.0
 40
0.0299275589
 40
0.0599160714
 40
0.0899846757
 40
0.1201507588
 40
0.150429626
 40
0.1656180488
 40
0.1808392746
 40
0.2113800023
 40
0.2420644903
 40
0.2728972301
 40
0.3038801423
 40
0.3350117637
 40
0.3662882351
 40
0.3977024366
 40
0.4292451487
 40
0.4609043058
 40
0.4926660988
 40
0.5245145436
 40
0.5564322949
 40
0.58840068
 40
0.6204000814
 40
0.6524105147
 40
0.6844115406
 40
0.7163831542
 40
0.7483054209
 40
0.7801599929
 40
0.8119295892
 40
0.8435979117
 40
0.8751488956
 40
0.9065716384
 40
0.9378631313
 40
0.969015287
 40
1.0
 40
1.0
 40
1.0
 40
1.0
 10
11.6983780462
 20
7.9282434138
 30
0.0
 10
11.7022496563
 20
7.9310459476
 30
0.0
 10
11.7102145364
 20
7.9363678859
 30
0.0
 10
11.7227358059
 20
7.943445945
 30
0.0
 10
11.7357837266
 20
7.9495903545
 30
0.0
 10
11.7492915452
 20
7.9547729488
 30
0.0
 10
11.7608669909
 20
7.9582642561
 30
0.0
 10
11.7702865959
 20
7.9605539282
 30
0.0
 10
11.779823826
 20
7.962509971
 30
0.0
 10
11.791910199
 20
7.9643127883
 30
0.0
 10
11.8065809464
 20
7.9654393318
 30
0.0
 10
11.8213654712
 20
7.9655258025
 30
0.0
 10
11.8361906944
 20
7.9645718254
 30
0.0
 10
11.8509842129
 20
7.9625828842
 30
0.0
 10
11.8656732462
 20
7.9595676459
 30
0.0
 10
11.880186292
 20
7.9555427274
 30
0.0
 10
11.8944516039
 20
7.9505258217
 30
0.0
 10
11.908400269
 20
7.9445440526
 30
0.0
 10
11.9219628192
 20
7.9376241498
 30
0.0
 10
11.9350742857
 20
7.9298027824
 30
0.0
 10
11.9476689054
 20
7.9211156478
 30
0.0
 10
11.9596867222
 20
7.9116077944
 30
0.0
 10
11.971067232
 20
7.9013236124
 30
0.0
 10
11.9817563119
 20
7.8903152896
 30
0.0
 10
11.9917002248
 20
7.8786352721
 30
0.0
 10
12.0008513749
 20
7.8663418087
 30
0.0
 10
12.0091642671
 20
7.8534944596
 30
0.0
 10
12.0165984213
 20
7.8401562723
 30
0.0
 10
12.0231174731
 20
7.8263924665
 30
0.0
 10
12.0286886559
 20
7.8122704895
 30
0.0
 10
12.0332862922
 20
7.7978602224
 30
0.0
 10
12.0368859814
 20
7.7832307288
 30
0.0
 10
12.0394714022
 20
7.7684526472
 30
0.0
 10
12.0410271781
 20
7.753601969
 30
0.0
 10
12.0413767269
 20
7.7436752334
 30
0.0
 10
12.0413767269
 20
7.7387269099
 30
0.0
  0
SPLINE
  5
382
100
AcDbEntity
  8
0
100
AcDbSpline
 62
7
  6
CONTINUOUS
 70
0
 71
3
 72
58
 73
54
 74
0
 42
0.0000001
 43
0.0000001
 44
0.0000000001
 40
0.0
 40
0.0
 40
0.0
 40
0.0
 40
0.0311036881
 40
0.0465905488
 40
0.0620239956
 40
0.0927288498
 40
0.1080185634
 40
0.1232684009
 40
0.1384815121
 40
0.1536613576
 40
0.1688121874
 40
0.1839387771
 40
0.1990460596
 40
0.2141392863
 40
0.2442942278
 40
0.2744567609
 40
0.2895594381
 40
0.3046798642
 40
0.3198230822
 40
0.334993731
 40
0.3654247619
 40
0.3960145868
 40
0.4113820902
 40
0.4267979847
 40
0.4422641616
 40
0.4577821839
 40
0.4889672415
 40
0.5203640478
 40
0.5361444902
 40
0.551974645
 40
0.5678524977
 40
0.58377545
 40
0.6157360994
 40
0.6478378676
 40
0.6639359765
 40
0.6800567845
 40
0.6961955629
 40
0.7123475841
 40
0.728507911
 40
0.7446714551
 40
0.7769797727
 40
0.793122956
 40
0.8092494136
 40
0.8253545969
 40
0.8414340341
 40
0.8574834655
 40
0.8734987676
 40
0.9054016335
 40
0.921291582
 40
0.9371359134
 40
0.9529341635
 40
0.9686840572
 40
1.0
 40
1.0
 40
1.0
 40
1.0
 10
12.0217808115
 20
7.7357987079
 30
0.0
 10
12.0217808115
 20
7.7294076281
 30
0.0
 10
12.0213105253
 20
7.719825418
 30
0.0
 10
12.0197389373
 20
7.7071742252
 30
0.0
 10
12.0175490944
 20
7.69469807
 30
0.0
 10
12.0144286442
 20
7.6824412046
 30
0.0
 10
12.0103969832
 20
7.6705157671
 30
0.0
 10
12.0069316955
 20
7.6617719024
 30
0.0
 10
12.0030303998
 20
7.6532388115
 30
0.0
 10
11.998701445
 20
7.6449373038
 30
0.0
 10
11.9939549908
 20
7.6368878595
 30
0.0
 10
11.9888036609
 20
7.6291092477
 30
0.0
 10
11.9832590951
 20
7.6216202319
 30
0.0
 10
11.9753632915
 20
7.6120507799
 30
0.0
 10
11.964571268
 20
7.6008893381
 30
0.0
 10
11.9526627135
 20
7.5909248613
 30
0.0
 10
11.9425468871
 20
7.5837316571
 30
0.0
 10
11.9346733557
 20
7.5787332297
 30
0.0
 10
11.9265373168
 20
7.5741461701
 30
0.0
 10
11.9153564553
 20
7.5685875175
 30
0.0
 10
11.9008095569
 20
7.5627207907
 30
0.0
 10
11.885699376
 20
7.5583664587
 30
0.0
 10
11.8733466118
 20
7.5558064422
 30
0.0
 10
11.8639516712
 20
7.5543487726
 30
0.0
 10
11.8544647081
 20
7.5533610761
 30
0.0
 10
11.8417044378
 20
7.5526738277
 30
0.0
 10
11.825632389
 20
7.5530029376
 30
0.0
 10
11.8096167352
 20
7.5549070153
 30
0.0
 10
11.7969000746
 20
7.5573577912
 30
0.0
 10
11.7874144381
 20
7.5596625554
 30
0.0
 10
11.7780211982
 20
7.5624242788
 30
0.0
 10
11.7656363872
 20
7.5667106711
 30
0.0
 10
11.7505004669
 20
7.5731807371
 30
0.0
 10
11.736000569
 20
7.5810470656
 30
0.0
 10
11.7248451011
 20
7.5881415652
 30
0.0
 10
11.7167118569
 20
7.5938559766
 30
0.0
 10
11.7088412331
 20
7.5999448513
 30
0.0
 10
11.7012525501
 20
7.6063941811
 30
0.0
 10
11.6939630649
 20
7.6131877073
 30
0.0
 10
11.6846695996
 20
7.622679435
 30
0.0
 10
11.6760404993
 20
7.6327990759
 30
0.0
 10
11.6681423048
 20
7.6434660442
 30
0.0
 10
11.6625990291
 20
7.6517212313
 30
0.0
 10
11.6574486732
 20
7.6602114567
 30
0.0
 10
11.6527028968
 20
7.6689162851
 30
0.0
 10
11.6483741814
 20
7.6778156864
 30
0.0
 10
11.6431798709
 20
7.6898934249
 30
0.0
 10
11.6388465768
 20
7.7022922425
 30
0.0
 10
11.6354187064
 20
7.7149147599
 30
0.0
 10
11.6333082329
 20
7.72445476
 30
0.0
 10
11.6316613398
 20
7.7340566348
 30
0.0
 10
11.6300931372
 20
7.7468814881
 30
0.0
 10
11.6296149027
 20
7.7565608128
 30
0.0
 10
11.6296149027
 20
7.7629955061
 30
0.0
  0
SPLINE
  5
383
100
AcDbEntity
  8
0
100
AcDbSpline
 62
7
  6
CONTINUOUS
 70
0
 71
3
 72
17
 73
13
 74
0
 42
0.0000001
 43
0.0000001
 44
0.0000000001
 40
0.0
 40
0.0
 40
0.0
 40
0.0
 40
0.1273148359
 40
0.1907080938
 40
0.253886694
 40
0.3795973721
 40
0.5046020162
 40
0.5668927094
 40
0.6290466736
 40
0.7529728785
 40
0.8765701029
 40
1.0
 40
1.0
 40
1.0
 40
1.0
 10
12.0413767269
 20
7.7387269099
 30
0.0
 10
12.0413767269
 20
7.731983399
 30
0.0
 10
12.0408915863
 20
7.7218730545
 30
0.0
 10
12.0392699176
 20
7.7085196252
 30
0.0
 10
12.0370097459
 20
7.6953445187
 30
0.0
 10
12.0329914789
 20
7.6791816386
 30
0.0
 10
12.0273971005
 20
7.6635434819
 30
0.0
 10
12.0220179054
 20
7.6514699685
 30
0.0
 10
12.0160599487
 20
7.6397355888
 30
0.0
 10
12.0075261415
 20
7.6256908813
 30
0.0
 10
11.9956399443
 20
7.61000533
 30
0.0
 10
11.9866908358
 20
7.600422347
 30
0.0
 10
11.9819884255
 20
7.5958803941
 30
0.0
  0
SPLINE
  5
384
100
AcDbEntity
  8
0
100
AcDbSpline
 62
7
  6
CONTINUOUS
 70
0
 71
3
 72
58
 73
54
 74
0
 42
0.0000001
 43
0.0000001
 44
0.0000000001
 40
0.0
 40
0.0
 40
0.0
 40
0.0
 40
0.0311036881
 40
0.0465905488
 40
0.0620239956
 40
0.0927288498
 40
0.1080185634
 40
0.1232684009
 40
0.1384815121
 40
0.1536613576
 40
0.1688121874
 40
0.1839387771
 40
0.1990460596
 40
0.2141392863
 40
0.2442942278
 40
0.2744567609
 40
0.2895594381
 40
0.3046798642
 40
0.3198230822
 40
0.334993731
 40
0.3654247619
 40
0.3960145868
 40
0.4113820902
 40
0.4267979847
 40
0.4422641616
 40
0.4577821839
 40
0.4889672415
 40
0.5203640478
 40
0.5361444902
 40
0.551974645
 40
0.5678524977
 40
0.58377545
 40
0.6157360994
 40
0.6478378676
 40
0.6639359765
 40
0.6800567845
 40
0.6961955629
 40
0.7123475841
 40
0.728507911
 40
0.7446714551
 40
0.7769797727
 40
0.793122956
 40
0.8092494136
 40
0.8253545969
 40
0.8414340341
 40
0.8574834655
 40
0.8734987676
 40
0.9054016335
 40
0.921291582
 40
0.9371359134
 40
0.9529341635
 40
0.9686840572
 40
1.0
 40
1.0
 40
1.0
 40
1.0
 10
11.6296149027
 20
7.7629955061
 30
0.0
 10
11.6296149027
 20
7.7693865859
 30
0.0
 10
11.6300851889
 20
7.778968796
 30
0.0
 10
11.6316567769
 20
7.7916199888
 30
0.0
 10
11.6338466198
 20
7.804096144
 30
0.0
 10
11.63696707
 20
7.8163530094
 30
0.0
 10
11.640998731
 20
7.8282784469
 30
0.0
 10
11.6444640187
 20
7.8370223116
 30
0.0
 10
11.6483653144
 20
7.8455554025
 30
0.0
 10
11.6526942692
 20
7.8538569102
 30
0.0
 10
11.6574407234
 20
7.8619063545
 30
0.0
 10
11.6625920533
 20
7.8696849663
 30
0.0
 10
11.6681366191
 20
7.8771739821
 30
0.0
 10
11.6760324226
 20
7.8867434341
 30
0.0
 10
11.6868244462
 20
7.8979048759
 30
0.0
 10
11.6987330007
 20
7.9078693527
 30
0.0
 10
11.7088488271
 20
7.915062557
 30
0.0
 10
11.7167223585
 20
7.9200609844
 30
0.0
 10
11.7248583974
 20
7.9246480439
 30
0.0
 10
11.7360392589
 20
7.9302066965
 30
0.0
 10
11.7505861573
 20
7.9360734233
 30
0.0
 10
11.7656963381
 20
7.9404277554
 30
0.0
 10
11.7780491024
 20
7.9429877719
 30
0.0
 10
11.787444043
 20
7.9444454415
 30
0.0
 10
11.7969310061
 20
7.9454331379
 30
0.0
 10
11.8096912764
 20
7.9461203863
 30
0.0
 10
11.8257633252
 20
7.9457912765
 30
0.0
 10
11.841778979
 20
7.9438871987
 30
0.0
 10
11.8544956395
 20
7.9414364228
 30
0.0
 10
11.863981276
 20
7.9391316586
 30
0.0
 10
11.8733745159
 20
7.9363699352
 30
0.0
 10
11.885759327
 20
7.9320835429
 30
0.0
 10
11.9008952472
 20
7.9256134769
 30
0.0
 10
11.9153951452
 20
7.9177471484
 30
0.0
 10
11.9265506131
 20
7.9106526488
 30
0.0
 10
11.9346838573
 20
7.9049382374
 30
0.0
 10
11.942554481
 20
7.8988493628
 30
0.0
 10
11.9501431641
 20
7.8924000329
 30
0.0
 10
11.9574326493
 20
7.8856065068
 30
0.0
 10
11.9667261146
 20
7.876114779
 30
0.0
 10
11.9753552149
 20
7.8659951381
 30
0.0
 10
11.9832534094
 20
7.8553281698
 30
0.0
 10
11.9887966851
 20
7.8470729828
 30
0.0
 10
11.993947041
 20
7.8385827574
 30
0.0
 10
11.9986928174
 20
7.829877929
 30
0.0
 10
12.0030215327
 20
7.8209785277
 30
0.0
 10
12.0082158433
 20
7.8089007891
 30
0.0
 10
12.0125491374
 20
7.7965019715
 30
0.0
 10
12.0159770078
 20
7.7838794541
 30
0.0
 10
12.0180874812
 20
7.7743394541
 30
0.0
 10
12.0197343744
 20
7.7647375793
 30
0.0
 10
12.021302577
 20
7.7519127259
 30
0.0
 10
12.0217808115
 20
7.7422334012
 30
0.0
 10
12.0217808115
 20
7.7357987079
 30
0.0
  0
SPLINE
  5
385
100
AcDbEntity
  8
0
100
AcDbSpline
 62
7
  6
CONTINUOUS
 70
0
 71
3
 72
23
 73
19
 74
0
 42
0.0000001
 43
0.0000001
 44
0.0000000001
 40
0.0
 40
0.0
 40
0.0
 40
0.0
 40
0.061523767
 40
0.1234381424
 40
0.1857112903
 40
0.2483007245
 40
0.3111517292
 40
0.3742007865
 40
0.4373781626
 40
0.5006079167
 40
0.5638158502
 40
0.6269263446
 40
0.6898666247
 40
0.7525623527
 40
0.8149613326
 40
0.877040031
 40
0.938757234
 40
1.0
 40
1.0
 40
1.0
 40
1.0
 10
11.890014781
 20
7.7526193069
 30
0.0
 10
11.8880632446
 20
7.752799875
 30
0.0
 10
11.8841626908
 20
7.7533508157
 30
0.0
 10
11.8784016823
 20
7.7547317871
 30
0.0
 10
11.8727617633
 20
7.7566543017
 30
0.0
 10
11.8672973242
 20
7.7591033344
 30
0.0
 10
11.8620577264
 20
7.7620529396
 30
0.0
 10
11.8570933047
 20
7.7654782567
 30
0.0
 10
11.8524488196
 20
7.7693450155
 30
0.0
 10
11.8481687635
 20
7.7736188279
 30
0.0
 10
11.8442920868
 20
7.7782588431
 30
0.0
 10
11.8408555411
 20
7.7832225109
 30
0.0
 10
11.8378913079
 20
7.7884631827
 30
0.0
 10
11.8354259278
 20
7.7939314894
 30
0.0
 10
11.8334839364
 20
7.7995778693
 30
0.0
 10
11.8320823468
 20
7.8053503188
 30
0.0
 10
11.8312369449
 20
7.811192335
 30
0.0
 10
11.8310456304
 20
7.8151117388
 30
0.0
 10
11.8310456304
 20
7.8170626597
 30
0.0
  0
SPLINE
  5
386
100
AcDbEntity
  8
0
100
AcDbSpline
 62
7
  6
CONTINUOUS
 70
0
 71
3
 72
17
 73
13
 74
0
 42
0.0000001
 43
0.0000001
 44
0.0000000001
 40
0.0
 40
0.0
 40
0.0
 40
0.0
 40
0.1273148359
 40
0.1907080938
 40
0.253886694
 40
0.3795973721
 40
0.5046020162
 40
0.5668927094
 40
0.6290466736
 40
0.7529728785
 40
0.8765701029
 40
1.0
 40
1.0
 40
1.0
 40
1.0
 10
11.6183011899
 20
8.2809739597
 30
0.0
 10
11.6183011899
 20
8.2877174705
 30
0.0
 10
11.6187863305
 20
8.297827815
 30
0.0
 10
11.6204079992
 20
8.3111812443
 30
0.0
 10
11.6226681709
 20
8.3243563509
 30
0.0
 10
11.6266864379
 20
8.3405192309
 30
0.0
 10
11.6322808163
 20
8.3561573876
 30
0.0
 10
11.6376600114
 20
8.3682309011
 30
0.0
 10
11.6436179681
 20
8.3799652808
 30
0.0
 10
11.6521517753
 20
8.3940099882
 30
0.0
 10
11.6640379725
 20
8.4096955396
 30
0.0
 10
11.672987081
 20
8.4192785226
 30
0.0
 10
11.6776894913
 20
8.4238204754
 30
0.0
  0
SPLINE
  5
387
100
AcDbEntity
  8
0
100
AcDbSpline
 62
7
  6
CONTINUOUS
 70
0
 71
3
 72
13
 73
9
 74
0
 42
0.0000001
 43
0.0000001
 44
0.0000000001
 40
0.0
 40
0.0
 40
0.0
 40
0.0
 40
0.2513862213
 40
0.5015608494
 40
0.6263585162
 40
0.7509958623
 40
0.8755254063
 40
1.0
 40
1.0
 40
1.0
 40
1.0
 10
12.0494083071
 20
8.2022419324
 30
0.0
 10
12.0469090865
 20
8.1951964137
 30
0.0
 10
12.041122755
 20
8.1814087707
 30
0.0
 10
12.0319702948
 20
8.1651364789
 30
0.0
 10
12.0235878763
 20
8.1528611505
 30
0.0
 10
12.0167896919
 20
8.1440517956
 30
0.0
 10
12.00949831
 20
8.1356597468
 30
0.0
 10
12.0043211081
 20
8.1303586434
 30
0.0
 10
12.0016586567
 20
8.1277870412
 30
0.0
  0
SPLINE
  5
388
100
AcDbEntity
  8
0
100
AcDbSpline
 62
7
  6
CONTINUOUS
 70
0
 71
3
 72
11
 73
7
 74
0
 42
0.0000001
 43
0.0000001
 44
0.0000000001
 40
0.0
 40
0.0
 40
0.0
 40
0.0
 40
0.249272203
 40
0.5008802135
 40
0.7525275855
 40
1.0
 40
1.0
 40
1.0
 40
1.0
 10
11.8875774534
 20
8.2247200244
 30
0.0
 10
11.8879432918
 20
8.2278040546
 30
0.0
 10
11.8886221269
 20
8.2340079224
 30
0.0
 10
11.8894251073
 20
8.243350202
 30
0.0
 10
11.8899517718
 20
8.2526901397
 30
0.0
 10
11.8900799212
 20
8.2589091351
 30
0.0
 10
11.8900799212
 20
8.2619923647
 30
0.0
  0
SPLINE
  5
389
100
AcDbEntity
  8
0
100
AcDbSpline
 62
7
  6
CONTINUOUS
 70
0
 71
3
 72
11
 73
7
 74
0
 42
0.0000001
 43
0.0000001
 44
0.0000000001
 40
0.0
 40
0.0
 40
0.0
 40
0.0
 40
0.2732656329
 40
0.5313487246
 40
0.7731209783
 40
1.0
 40
1.0
 40
1.0
 40
1.0
 10
11.8900799212
 20
8.2619923647
 30
0.0
 10
11.8900799212
 20
8.2649586054
 30
0.0
 10
11.889965378
 20
8.2707271126
 30
0.0
 10
11.8894474245
 20
8.2791054897
 30
0.0
 10
11.8886472984
 20
8.2869552148
 30
0.0
 10
11.8879520306
 20
8.2919956497
 30
0.0
 10
11.8875774534
 20
8.2944297205
 30
0.0
  0
SPLINE
  5
38A
100
AcDbEntity
  8
0
100
AcDbSpline
 62
7
  6
CONTINUOUS
 70
0
 71
3
 72
15
 73
11
 74
0
 42
0.0000001
 43
0.0000001
 44
0.0000000001
 40
0.0
 40
0.0
 40
0.0
 40
0.0
 40
0.1240777136
 40
0.2511220676
 40
0.3805653088
 40
0.5108217172
 40
0.639494926
 40
0.764424719
 40
0.8845808224
 40
1.0
 40
1.0
 40
1.0
 40
1.0
 10
11.8272070857
 20
8.3334712677
 30
0.0
 10
11.8299535568
 20
8.3322885008
 30
0.0
 10
11.8354792348
 20
8.3298169225
 30
0.0
 10
11.8437187459
 20
8.3257830132
 30
0.0
 10
11.8519112568
 20
8.3213309918
 30
0.0
 10
11.8599077568
 20
8.3164581919
 30
0.0
 10
11.867544071
 20
8.3112282065
 30
0.0
 10
11.8747039319
 20
8.3057561124
 30
0.0
 10
11.881354807
 20
8.3001616089
 30
0.0
 10
11.8855525177
 20
8.2963368684
 30
0.0
 10
11.8875774534
 20
8.2944297205
 30
0.0
  0
SPLINE
  5
38B
100
AcDbEntity
  8
0
100
AcDbSpline
 62
7
  6
CONTINUOUS
 70
0
 71
3
 72
15
 73
11
 74
0
 42
0.0000001
 43
0.0000001
 44
0.0000000001
 40
0.0
 40
0.0
 40
0.0
 40
0.0
 40
0.1387137725
 40
0.2777269652
 40
0.4154031561
 40
0.5490459746
 40
0.6755623724
 40
0.7928750885
 40
0.9006878119
 40
1.0
 40
1.0
 40
1.0
 40
1.0
 10
11.766836718
 20
8.3028031189
 30
0.0
 10
11.7695591756
 20
8.3043531513
 30
0.0
 10
11.7750208698
 20
8.3074374875
 30
0.0
 10
11.7832317464
 20
8.3119763018
 30
0.0
 10
11.7913944017
 20
8.3163645274
 30
0.0
 10
11.7993695762
 20
8.3205036762
 30
0.0
 10
11.8070021301
 20
8.3243021154
 30
0.0
 10
11.8141756877
 20
8.327710557
 30
0.0
 10
11.8208497954
 20
8.3307355588
 30
0.0
 10
11.8251422559
 20
8.3325953796
 30
0.0
 10
11.8272070857
 20
8.3334712677
 30
0.0
  0
SPLINE
  5
38C
100
AcDbEntity
  8
0
100
AcDbSpline
 62
7
  6
CONTINUOUS
 70
0
 71
3
 72
38
 73
34
 74
0
 42
0.0000001
 43
0.0000001
 44
0.0000000001
 40
0.0
 40
0.0
 40
0.0
 40
0.0
 40
0.029944812
 40
0.0599139139
 40
0.0899312717
 40
0.1200193174
 40
0.1350994304
 40
0.150204915
 40
0.1804950416
 40
0.2109117799
 40
0.2414680483
 40
0.2721739917
 40
0.3030358878
 40
0.3340569838
 40
0.365236542
 40
0.3965708423
 40
0.4280523939
 40
0.4596710329
 40
0.4914133205
 40
0.5232636592
 40
0.5552038952
 40
0.5872143744
 40
0.6192737535
 40
0.6513599477
 40
0.6834501859
 40
0.7155217223
 40
0.7475519957
 40
0.7795193843
 40
0.8114039982
 40
0.8431871813
 40
0.8748506854
 40
0.9377293214
 40
1.0
 40
1.0
 40
1.0
 40
1.0
 10
11.9819884255
 20
8.1087870558
 30
0.0
 10
11.9783551985
 20
8.1052778032
 30
0.0
 10
11.9708031541
 20
8.098542511
 30
0.0
 10
11.9587039526
 20
8.0893661842
 30
0.0
 10
11.9458949357
 20
8.0811642168
 30
0.0
 10
11.9346960544
 20
8.0751812296
 30
0.0
 10
11.9254596697
 20
8.070925803
 30
0.0
 10
11.9160326422
 20
8.0670213082
 30
0.0
 10
11.9039383078
 20
8.062822452
 30
0.0
 10
11.8890335756
 20
8.0589101878
 30
0.0
 10
11.8738038611
 20
8.0561375667
 30
0.0
 10
11.8583331587
 20
8.0545224227
 30
0.0
 10
11.8427066831
 20
8.0540707366
 30
0.0
 10
11.8270103797
 20
8.054787505
 30
0.0
 10
11.8113303547
 20
8.0566658554
 30
0.0
 10
11.7957531315
 20
8.0596980307
 30
0.0
 10
11.7803636901
 20
8.0638644562
 30
0.0
 10
11.7652473004
 20
8.0691448248
 30
0.0
 10
11.7504859576
 20
8.0755073116
 30
0.0
 10
11.7361618445
 20
8.0829195184
 30
0.0
 10
11.7223521906
 20
8.0913380804
 30
0.0
 10
11.7091343266
 20
8.1007192229
 30
0.0
 10
11.6965790315
 20
8.1110089817
 30
0.0
 10
11.6847571148
 20
8.1221531629
 30
0.0
 10
11.6737313741
 20
8.1340884058
 30
0.0
 10
11.6635646036
 20
8.146751269
 30
0.0
 10
11.6543101892
 20
8.1600702672
 30
0.0
 10
11.6460214602
 20
8.1739741966
 30
0.0
 10
11.6387414585
 20
8.1883850792
 30
0.0
 10
11.6325129792
 20
8.203225993
 30
0.0
 10
11.6256695788
 20
8.2234223895
 30
0.0
 10
11.6198783901
 20
8.2493296482
 30
0.0
 10
11.6183011899
 20
8.2704697972
 30
0.0
 10
11.6183011899
 20
8.2809739597
 30
0.0
  0
SPLINE
  5
38D
100
AcDbEntity
  8
0
100
AcDbSpline
 62
7
  6
CONTINUOUS
 70
0
 71
3
 72
14
 73
10
 74
0
 42
0.0000001
 43
0.0000001
 44
0.0000000001
 40
0.0
 40
0.0
 40
0.0
 40
0.0
 40
0.1244922981
 40
0.2490359167
 40
0.3736813378
 40
0.4984788096
 40
0.6234752712
 40
0.74871602
 40
1.0
 40
1.0
 40
1.0
 40
1.0
 10
11.6973597225
 20
8.4428204609
 30
0.0
 10
11.6999433269
 20
8.4453159064
 30
0.0
 10
11.7052540209
 20
8.4501627462
 30
0.0
 10
11.713619322
 20
8.4569735143
 30
0.0
 10
11.7223632474
 20
8.4633065537
 30
0.0
 10
11.7314607501
 20
8.4691439159
 30
0.0
 10
11.7408867191
 20
8.4744707782
 30
0.0
 10
11.7538679984
 20
8.4808759347
 30
0.0
 10
11.7640055558
 20
8.4848627011
 30
0.0
 10
11.7708885812
 20
8.487140996
 30
0.0
  0
SPLINE
  5
38E
100
AcDbEntity
  8
0
100
AcDbSpline
 62
7
  6
CONTINUOUS
 70
0
 71
3
 72
19
 73
15
 74
0
 42
0.0000001
 43
0.0000001
 44
0.0000000001
 40
0.0
 40
0.0
 40
0.0
 40
0.0
 40
0.1259165152
 40
0.1890435013
 40
0.2521765074
 40
0.3783027214
 40
0.5041309176
 40
0.5668776413
 40
0.6294512568
 40
0.6918223904
 40
0.7539712289
 40
0.8158897976
 40
0.8775715464
 40
1.0
 40
1.0
 40
1.0
 40
1.0
 10
11.8278650272
 20
8.2433648223
 30
0.0
 10
11.8255817418
 20
8.244841424
 30
0.0
 10
11.8222861701
 20
8.2472734796
 30
0.0
 10
11.8182162822
 20
8.250895319
 30
0.0
 10
11.8143717412
 20
8.2547629501
 30
0.0
 10
11.8100244434
 20
8.260020545
 30
0.0
 10
11.8063556343
 20
8.265762797
 30
0.0
 10
11.8038696109
 20
8.2705862386
 30
0.0
 10
11.8022379539
 20
8.2742994272
 30
0.0
 10
11.800845132
 20
8.278094811
 30
0.0
 10
11.7996974228
 20
8.2819565759
 30
0.0
 10
11.7987989755
 20
8.2858689139
 30
0.0
 10
11.7979424556
 20
8.291114752
 30
0.0
 10
11.7976798433
 20
8.2950966239
 30
0.0
 10
11.7976798433
 20
8.297740444
 30
0.0
  0
SPLINE
  5
38F
100
AcDbEntity
  8
0
100
AcDbSpline
 62
7
  6
CONTINUOUS
 70
0
 71
3
 72
17
 73
13
 74
0
 42
0.0000001
 43
0.0000001
 44
0.0000000001
 40
0.0
 40
0.0
 40
0.0
 40
0.0
 40
0.1214811947
 40
0.1825928933
 40
0.2439208635
 40
0.305493007
 40
0.3673350785
 40
0.4918016094
 40
0.6173948385
 40
0.7440422234
 40
0.8716680821
 40
1.0
 40
1.0
 40
1.0
 40
1.0
 10
11.8882353949
 20
8.239178123
 30
0.0
 10
11.8859497078
 20
8.2380169939
 30
0.0
 10
11.8823861095
 20
8.2365090892
 30
0.0
 10
11.8774626044
 20
8.2349976577
 30
0.0
 10
11.8736781087
 20
8.2341128339
 30
0.0
 10
11.8698276153
 20
8.233482544
 30
0.0
 10
11.8646169069
 20
8.2329846152
 30
0.0
 10
11.8580138951
 20
8.2330130324
 30
0.0
 10
11.8501147298
 20
8.2340837662
 30
0.0
 10
11.8423516687
 20
8.2361701236
 30
0.0
 10
11.8348606001
 20
8.2392366884
 30
0.0
 10
11.8301391909
 20
8.2418941194
 30
0.0
 10
11.8278650272
 20
8.2433648223
 30
0.0
  0
SPLINE
  5
390
100
AcDbEntity
  8
0
100
AcDbSpline
 62
7
  6
CONTINUOUS
 70
0
 71
3
 72
49
 73
45
 74
0
 42
0.0000001
 43
0.0000001
 44
0.0000000001
 40
0.0
 40
0.0
 40
0.0
 40
0.0
 40
0.0313124516
 40
0.0628593141
 40
0.0787075028
 40
0.0945995998
 40
0.126502659
 40
0.1585608398
 40
0.1907402095
 40
0.2068682324
 40
0.2230127563
 40
0.2391689252
 40
0.255331956
 40
0.2714969196
 40
0.2876586436
 40
0.3038119942
 40
0.3199521348
 40
0.3521652624
 40
0.3842696438
 40
0.4162330966
 40
0.4480275395
 40
0.4796318702
 40
0.5110311876
 40
0.5422189324
 40
0.573196104
 40
0.6039722241
 40
0.6345646967
 40
0.6649982209
 40
0.6953044026
 40
0.7104261239
 40
0.7255300429
 40
0.7556952105
 40
0.7707772913
 40
0.7858628248
 40
0.8160556666
 40
0.8311837819
 40
0.8463363278
 40
0.8615175372
 40
0.8767311605
 40
0.9072608757
 40
0.9225962674
 40
0.9379813914
 40
0.9688998926
 40
1.0
 40
1.0
 40
1.0
 40
1.0
 10
11.7503556382
 20
8.2675287693
 30
0.0
 10
11.7503556382
 20
8.2650568109
 30
0.0
 10
11.7506011843
 20
8.2600913686
 30
0.0
 10
11.7515060452
 20
8.2539340757
 30
0.0
 10
11.7525856678
 20
8.2490541837
 30
0.0
 10
11.7539030184
 20
8.2442039729
 30
0.0
 10
11.755985801
 20
8.2382431677
 30
0.0
 10
11.7591519737
 20
8.2313338398
 30
0.0
 10
11.7623217497
 20
8.2258265326
 30
0.0
 10
11.7651594496
 20
8.2216014224
 30
0.0
 10
11.7674351405
 20
8.2185275271
 30
0.0
 10
11.7698510068
 20
8.2155590689
 30
0.0
 10
11.7724017158
 20
8.2127034532
 30
0.0
 10
11.7750807149
 20
8.2099672314
 30
0.0
 10
11.7778813918
 20
8.2073568387
 30
0.0
 10
11.7807973069
 20
8.2048787094
 30
0.0
 10
11.7848264427
 20
8.2017619608
 30
0.0
 10
11.7901137888
 20
8.1982245806
 30
0.0
 10
11.7968043257
 20
8.1945952014
 30
0.0
 10
11.8037731749
 20
8.1916159441
 30
0.0
 10
11.8109539511
 20
8.1893177409
 30
0.0
 10
11.8182770992
 20
8.1877206211
 30
0.0
 10
11.8256727705
 20
8.1868426334
 30
0.0
 10
11.8330695332
 20
8.1866898874
 30
0.0
 10
11.8403962545
 20
8.1872667753
 30
0.0
 10
11.8475824627
 20
8.1885654795
 30
0.0
 10
11.8545585108
 20
8.1905761573
 30
0.0
 10
11.8612571639
 20
8.1932773225
 30
0.0
 10
11.8665593965
 20
8.1960869845
 30
0.0
 10
11.8705954983
 20
8.1986490307
 30
0.0
 10
11.8744823279
 20
8.2014128544
 30
0.0
 10
11.8781439688
 20
8.2044773945
 30
0.0
 10
11.8815455119
 20
8.2078139286
 30
0.0
 10
11.8847680199
 20
8.2113266431
 30
0.0
 10
11.8877115134
 20
8.2150918437
 30
0.0
 10
11.8903485148
 20
8.2190735193
 30
0.0
 10
11.892171908
 20
8.22216679
 30
0.0
 10
11.8938352522
 20
8.2253565658
 30
0.0
 10
11.8958364815
 20
8.22973194
 30
0.0
 10
11.8974995954
 20
8.2342687041
 30
0.0
 10
11.8988127382
 20
8.2389240443
 30
0.0
 10
11.8998952452
 20
8.2436701785
 30
0.0
 10
11.9007994178
 20
8.249724274
 30
0.0
 10
11.901040076
 20
8.2546235731
 30
0.0
 10
11.901040076
 20
8.257078768
 30
0.0
  0
SPLINE
  5
391
100
AcDbEntity
  8
0
100
AcDbSpline
 62
7
  6
CONTINUOUS
 70
0
 71
3
 72
13
 73
9
 74
0
 42
0.0000001
 43
0.0000001
 44
0.0000000001
 40
0.0
 40
0.0
 40
0.0
 40
0.0
 40
0.2525061031
 40
0.5033171101
 40
0.6280725826
 40
0.7524088264
 40
0.8763708792
 40
1.0
 40
1.0
 40
1.0
 40
1.0
 10
11.7976798433
 20
8.297740444
 30
0.0
 10
11.7976798433
 20
8.299901567
 30
0.0
 10
11.7979121491
 20
8.3042127768
 30
0.0
 10
11.7987869751
 20
8.3095281618
 30
0.0
 10
11.7998325651
 20
8.3136789117
 30
0.0
 10
11.80078453
 20
8.3167283854
 30
0.0
 10
11.8019032388
 20
8.3197102474
 30
0.0
 10
11.8027592163
 20
8.3216502011
 30
0.0
 10
11.8032136949
 20
8.3226057289
 30
0.0
  0
SPLINE
  5
392
100
AcDbEntity
  8
0
100
AcDbSpline
 62
7
  6
CONTINUOUS
 70
0
 71
3
 72
15
 73
11
 74
0
 42
0.0000001
 43
0.0000001
 44
0.0000000001
 40
0.0
 40
0.0
 40
0.0
 40
0.0
 40
0.1154191779
 40
0.2355752813
 40
0.3605050746
 40
0.4891782854
 40
0.6194346919
 40
0.7488779326
 40
0.8759222867
 40
1.0
 40
1.0
 40
1.0
 40
1.0
 10
11.8272070857
 20
8.1940518755
 30
0.0
 10
11.8251821499
 20
8.1959590234
 30
0.0
 10
11.8209844393
 20
8.199783764
 30
0.0
 10
11.8143335642
 20
8.2053782675
 30
0.0
 10
11.8071737032
 20
8.2108503616
 30
0.0
 10
11.799537389
 20
8.216080347
 30
0.0
 10
11.7915408891
 20
8.2209531469
 30
0.0
 10
11.7833483782
 20
8.2254051682
 30
0.0
 10
11.7751088671
 20
8.2294390775
 30
0.0
 10
11.769583189
 20
8.2319106559
 30
0.0
 10
11.766836718
 20
8.2330934228
 30
0.0
  0
SPLINE
  5
393
100
AcDbEntity
  8
0
100
AcDbSpline
 62
7
  6
CONTINUOUS
 70
0
 71
3
 72
15
 73
11
 74
0
 42
0.0000001
 43
0.0000001
 44
0.0000000001
 40
0.0
 40
0.0
 40
0.0
 40
0.0
 40
0.0993121883
 40
0.2071249118
 40
0.3244376282
 40
0.450954028
 40
0.5845968446
 40
0.7222730351
 40
0.8612862279
 40
1.0
 40
1.0
 40
1.0
 40
1.0
 10
11.8875774534
 20
8.2247200244
 30
0.0
 10
11.8855126236
 20
8.2238441362
 30
0.0
 10
11.8812201631
 20
8.2219843154
 30
0.0
 10
11.8745460554
 20
8.2189593136
 30
0.0
 10
11.8673724978
 20
8.2155508719
 30
0.0
 10
11.8597399439
 20
8.2117524328
 30
0.0
 10
11.8517647693
 20
8.207613284
 30
0.0
 10
11.8436021141
 20
8.2032250584
 30
0.0
 10
11.8353912375
 20
8.1986862441
 30
0.0
 10
11.8299295433
 20
8.1956019079
 30
0.0
 10
11.8272070857
 20
8.1940518755
 30
0.0
  0
SPLINE
  5
394
100
AcDbEntity
  8
0
100
AcDbSpline
 62
7
  6
CONTINUOUS
 70
0
 71
3
 72
11
 73
7
 74
0
 42
0.0000001
 43
0.0000001
 44
0.0000000001
 40
0.0
 40
0.0
 40
0.0
 40
0.0
 40
0.2474744049
 40
0.499121966
 40
0.750729073
 40
1.0
 40
1.0
 40
1.0
 40
1.0
 10
11.7693391858
 20
8.2703651754
 30
0.0
 10
11.7693391858
 20
8.2672819695
 30
0.0
 10
11.7692110114
 20
8.261063045
 30
0.0
 10
11.7686843455
 20
8.2517232392
 30
0.0
 10
11.7678813714
 20
8.2423811319
 30
0.0
 10
11.7672025488
 20
8.2361773888
 30
0.0
 10
11.766836718
 20
8.2330934228
 30
0.0
  0
SPLINE
  5
395
100
AcDbEntity
  8
0
100
AcDbSpline
 62
7
  6
CONTINUOUS
 70
0
 71
3
 72
11
 73
7
 74
0
 42
0.0000001
 43
0.0000001
 44
0.0000000001
 40
0.0
 40
0.0
 40
0.0
 40
0.0
 40
0.2268797892
 40
0.4686527917
 40
0.7267359359
 40
1.0
 40
1.0
 40
1.0
 40
1.0
 10
11.766836718
 20
8.3028031189
 30
0.0
 10
11.7672113032
 20
8.300368996
 30
0.0
 10
11.7679065839
 20
8.2953284535
 30
0.0
 10
11.7687067161
 20
8.2874785688
 30
0.0
 10
11.7692246668
 20
8.2791000477
 30
0.0
 10
11.7693391858
 20
8.2733314526
 30
0.0
 10
11.7693391858
 20
8.2703651754
 30
0.0
  0
SPLINE
  5
396
100
AcDbEntity
  8
0
100
AcDbSpline
 62
7
  6
CONTINUOUS
 70
0
 71
3
 72
49
 73
45
 74
0
 42
0.0000001
 43
0.0000001
 44
0.0000000001
 40
0.0
 40
0.0
 40
0.0
 40
0.0
 40
0.0313124516
 40
0.0628593141
 40
0.0787075028
 40
0.0945995998
 40
0.126502659
 40
0.1585608398
 40
0.1907402095
 40
0.2068682324
 40
0.2230127563
 40
0.2391689252
 40
0.255331956
 40
0.2714969196
 40
0.2876586436
 40
0.3038119942
 40
0.3199521348
 40
0.3521652624
 40
0.3842696438
 40
0.4162330966
 40
0.4480275395
 40
0.4796318702
 40
0.5110311876
 40
0.5422189324
 40
0.573196104
 40
0.6039722241
 40
0.6345646967
 40
0.6649982209
 40
0.6953044026
 40
0.7104261239
 40
0.7255300429
 40
0.7556952105
 40
0.7707772913
 40
0.7858628248
 40
0.8160556666
 40
0.8311837819
 40
0.8463363278
 40
0.8615175372
 40
0.8767311605
 40
0.9072608757
 40
0.9225962674
 40
0.9379813914
 40
0.9688998926
 40
1.0
 40
1.0
 40
1.0
 40
1.0
 10
11.901040076
 20
8.257078768
 30
0.0
 10
11.901040076
 20
8.2595507264
 30
0.0
 10
11.9007945299
 20
8.2645161687
 30
0.0
 10
11.899889669
 20
8.2706734617
 30
0.0
 10
11.8988100464
 20
8.2755533536
 30
0.0
 10
11.8974926958
 20
8.2804035645
 30
0.0
 10
11.8954099132
 20
8.2863643696
 30
0.0
 10
11.8922437405
 20
8.2932736975
 30
0.0
 10
11.8890739645
 20
8.2987810048
 30
0.0
 10
11.8862362646
 20
8.3030061149
 30
0.0
 10
11.8839605736
 20
8.3060800102
 30
0.0
 10
11.8815447073
 20
8.3090484685
 30
0.0
 10
11.8789939984
 20
8.3119040841
 30
0.0
 10
11.8763149993
 20
8.3146403059
 30
0.0
 10
11.8735143224
 20
8.3172506987
 30
0.0
 10
11.8705984073
 20
8.319728828
 30
0.0
 10
11.8665692715
 20
8.3228455766
 30
0.0
 10
11.8612819254
 20
8.3263829567
 30
0.0
 10
11.8545913885
 20
8.3300123359
 30
0.0
 10
11.8476225393
 20
8.3329915932
 30
0.0
 10
11.8404417631
 20
8.3352897964
 30
0.0
 10
11.833118615
 20
8.3368869163
 30
0.0
 10
11.8257229437
 20
8.3377649039
 30
0.0
 10
11.818326181
 20
8.3379176499
 30
0.0
 10
11.8109994597
 20
8.337340762
 30
0.0
 10
11.8038132515
 20
8.3360420578
 30
0.0
 10
11.7968372034
 20
8.3340313801
 30
0.0
 10
11.7901385503
 20
8.3313302148
 30
0.0
 10
11.7848363177
 20
8.3285205528
 30
0.0
 10
11.7808002159
 20
8.3259585067
 30
0.0
 10
11.7769133863
 20
8.323194683
 30
0.0
 10
11.7732517454
 20
8.3201301429
 30
0.0
 10
11.7698502023
 20
8.3167936087
 30
0.0
 10
11.7666276943
 20
8.3132808942
 30
0.0
 10
11.7636842008
 20
8.3095156936
 30
0.0
 10
11.7610471994
 20
8.305534018
 30
0.0
 10
11.7592238062
 20
8.3024407473
 30
0.0
 10
11.757560462
 20
8.2992509715
 30
0.0
 10
11.7555592326
 20
8.2948755973
 30
0.0
 10
11.7538961188
 20
8.2903388333
 30
0.0
 10
11.752582976
 20
8.2856834931
 30
0.0
 10
11.751500469
 20
8.2809373588
 30
0.0
 10
11.7505962964
 20
8.2748832633
 30
0.0
 10
11.7503556382
 20
8.2699839642
 30
0.0
 10
11.7503556382
 20
8.2675287693
 30
0.0
  0
SPLINE
  5
397
100
AcDbEntity
  8
0
100
AcDbSpline
 62
7
  6
CONTINUOUS
 70
0
 71
3
 72
40
 73
36
 74
0
 42
0.0000001
 43
0.0000001
 44
0.0000000001
 40
0.0
 40
0.0
 40
0.0
 40
0.0
 40
0.0299275589
 40
0.0599160714
 40
0.0899846757
 40
0.1201507588
 40
0.150429626
 40
0.1656180488
 40
0.1808392746
 40
0.2113800023
 40
0.2420644903
 40
0.2728972301
 40
0.3038801423
 40
0.3350117637
 40
0.3662882351
 40
0.3977024366
 40
0.4292451487
 40
0.4609043058
 40
0.4926660988
 40
0.5245145436
 40
0.5564322949
 40
0.58840068
 40
0.6204000814
 40
0.6524105147
 40
0.6844115406
 40
0.7163831542
 40
0.7483054209
 40
0.7801599929
 40
0.8119295892
 40
0.8435979117
 40
0.8751488956
 40
0.9065716384
 40
0.9378631313
 40
0.969015287
 40
1.0
 40
1.0
 40
1.0
 40
1.0
 10
11.6983780462
 20
8.4411500755
 30
0.0
 10
11.7022496563
 20
8.4439526093
 30
0.0
 10
11.7102145364
 20
8.4492745475
 30
0.0
 10
11.7227358059
 20
8.4563526067
 30
0.0
 10
11.7357837266
 20
8.4624970161
 30
0.0
 10
11.7492915452
 20
8.4676796104
 30
0.0
 10
11.7608669909
 20
8.4711709177
 30
0.0
 10
11.7702865959
 20
8.4734605899
 30
0.0
 10
11.779823826
 20
8.4754166327
 30
0.0
 10
11.791910199
 20
8.47721945
 30
0.0
 10
11.8065809464
 20
8.4783459934
 30
0.0
 10
11.8213654712
 20
8.4784324641
 30
0.0
 10
11.8361906944
 20
8.4774784871
 30
0.0
 10
11.8509842129
 20
8.4754895458
 30
0.0
 10
11.8656732462
 20
8.4724743075
 30
0.0
 10
11.880186292
 20
8.468449389
 30
0.0
 10
11.8944516039
 20
8.4634324833
 30
0.0
 10
11.908400269
 20
8.4574507143
 30
0.0
 10
11.9219628192
 20
8.4505308114
 30
0.0
 10
11.9350742857
 20
8.4427094441
 30
0.0
 10
11.9476689054
 20
8.4340223095
 30
0.0
 10
11.9596867222
 20
8.4245144561
 30
0.0
 10
11.971067232
 20
8.414230274
 30
0.0
 10
11.9817563119
 20
8.4032219513
 30
0.0
 10
11.9917002248
 20
8.3915419338
 30
0.0
 10
12.0008513749
 20
8.3792484704
 30
0.0
 10
12.0091642671
 20
8.3664011213
 30
0.0
 10
12.0165984213
 20
8.3530629339
 30
0.0
 10
12.0231174731
 20
8.3392991281
 30
0.0
 10
12.0286886559
 20
8.3251771512
 30
0.0
 10
12.0332862922
 20
8.3107668841
 30
0.0
 10
12.0368859814
 20
8.2961373904
 30
0.0
 10
12.0394714022
 20
8.2813593089
 30
0.0
 10
12.0410271781
 20
8.2665086306
 30
0.0
 10
12.0413767269
 20
8.256581895
 30
0.0
 10
12.0413767269
 20
8.2516335715
 30
0.0
  0
SPLINE
  5
398
100
AcDbEntity
  8
0
100
AcDbSpline
 62
7
  6
CONTINUOUS
 70
0
 71
3
 72
58
 73
54
 74
0
 42
0.0000001
 43
0.0000001
 44
0.0000000001
 40
0.0
 40
0.0
 40
0.0
 40
0.0
 40
0.0311036881
 40
0.0465905488
 40
0.0620239956
 40
0.0927288498
 40
0.1080185634
 40
0.1232684009
 40
0.1384815121
 40
0.1536613576
 40
0.1688121874
 40
0.1839387771
 40
0.1990460596
 40
0.2141392863
 40
0.2442942278
 40
0.2744567609
 40
0.2895594381
 40
0.3046798642
 40
0.3198230822
 40
0.334993731
 40
0.3654247619
 40
0.3960145868
 40
0.4113820902
 40
0.4267979847
 40
0.4422641616
 40
0.4577821839
 40
0.4889672415
 40
0.5203640478
 40
0.5361444902
 40
0.551974645
 40
0.5678524977
 40
0.58377545
 40
0.6157360994
 40
0.6478378676
 40
0.6639359765
 40
0.6800567845
 40
0.6961955629
 40
0.7123475841
 40
0.728507911
 40
0.7446714551
 40
0.7769797727
 40
0.793122956
 40
0.8092494136
 40
0.8253545969
 40
0.8414340341
 40
0.8574834655
 40
0.8734987676
 40
0.9054016335
 40
0.921291582
 40
0.9371359134
 40
0.9529341635
 40
0.9686840572
 40
1.0
 40
1.0
 40
1.0
 40
1.0
 10
12.0217808115
 20
8.2487053696
 30
0.0
 10
12.0217808115
 20
8.2423142897
 30
0.0
 10
12.0213105253
 20
8.2327320797
 30
0.0
 10
12.0197389373
 20
8.2200808869
 30
0.0
 10
12.0175490944
 20
8.2076047316
 30
0.0
 10
12.0144286442
 20
8.1953478663
 30
0.0
 10
12.0103969832
 20
8.1834224288
 30
0.0
 10
12.0069316955
 20
8.1746785641
 30
0.0
 10
12.0030303998
 20
8.1661454731
 30
0.0
 10
11.998701445
 20
8.1578439655
 30
0.0
 10
11.9939549908
 20
8.1497945212
 30
0.0
 10
11.9888036609
 20
8.1420159094
 30
0.0
 10
11.9832590951
 20
8.1345268936
 30
0.0
 10
11.9753632915
 20
8.1249574415
 30
0.0
 10
11.964571268
 20
8.1137959998
 30
0.0
 10
11.9526627135
 20
8.103831523
 30
0.0
 10
11.9425468871
 20
8.0966383187
 30
0.0
 10
11.9346733557
 20
8.0916398913
 30
0.0
 10
11.9265373168
 20
8.0870528317
 30
0.0
 10
11.9153564553
 20
8.0814941791
 30
0.0
 10
11.9008095569
 20
8.0756274524
 30
0.0
 10
11.885699376
 20
8.0712731203
 30
0.0
 10
11.8733466118
 20
8.0687131038
 30
0.0
 10
11.8639516712
 20
8.0672554342
 30
0.0
 10
11.8544647081
 20
8.0662677378
 30
0.0
 10
11.8417044378
 20
8.0655804894
 30
0.0
 10
11.825632389
 20
8.0659095992
 30
0.0
 10
11.8096167352
 20
8.0678136769
 30
0.0
 10
11.7969000746
 20
8.0702644529
 30
0.0
 10
11.7874144381
 20
8.072569217
 30
0.0
 10
11.7780211982
 20
8.0753309404
 30
0.0
 10
11.7656363872
 20
8.0796173328
 30
0.0
 10
11.7505004669
 20
8.0860873988
 30
0.0
 10
11.736000569
 20
8.0939537273
 30
0.0
 10
11.7248451011
 20
8.1010482269
 30
0.0
 10
11.7167118569
 20
8.1067626383
 30
0.0
 10
11.7088412331
 20
8.1128515129
 30
0.0
 10
11.7012525501
 20
8.1193008427
 30
0.0
 10
11.6939630649
 20
8.1260943689
 30
0.0
 10
11.6846695996
 20
8.1355860967
 30
0.0
 10
11.6760404993
 20
8.1457057376
 30
0.0
 10
11.6681423048
 20
8.1563727059
 30
0.0
 10
11.6625990291
 20
8.1646278929
 30
0.0
 10
11.6574486732
 20
8.1731181183
 30
0.0
 10
11.6527028968
 20
8.1818229467
 30
0.0
 10
11.6483741814
 20
8.190722348
 30
0.0
 10
11.6431798709
 20
8.2028000865
 30
0.0
 10
11.6388465768
 20
8.2151989042
 30
0.0
 10
11.6354187064
 20
8.2278214216
 30
0.0
 10
11.6333082329
 20
8.2373614216
 30
0.0
 10
11.6316613398
 20
8.2469632964
 30
0.0
 10
11.6300931372
 20
8.2597881498
 30
0.0
 10
11.6296149027
 20
8.2694674745
 30
0.0
 10
11.6296149027
 20
8.2759021677
 30
0.0
  0
SPLINE
  5
399
100
AcDbEntity
  8
0
100
AcDbSpline
 62
7
  6
CONTINUOUS
 70
0
 71
3
 72
17
 73
13
 74
0
 42
0.0000001
 43
0.0000001
 44
0.0000000001
 40
0.0
 40
0.0
 40
0.0
 40
0.0
 40
0.1273148359
 40
0.1907080938
 40
0.253886694
 40
0.3795973721
 40
0.5046020162
 40
0.5668927094
 40
0.6290466736
 40
0.7529728785
 40
0.8765701029
 40
1.0
 40
1.0
 40
1.0
 40
1.0
 10
12.0413767269
 20
8.2516335715
 30
0.0
 10
12.0413767269
 20
8.2448900607
 30
0.0
 10
12.0408915863
 20
8.2347797162
 30
0.0
 10
12.0392699176
 20
8.2214262869
 30
0.0
 10
12.0370097459
 20
8.2082511803
 30
0.0
 10
12.0329914789
 20
8.1920883003
 30
0.0
 10
12.0273971005
 20
8.1764501436
 30
0.0
 10
12.0220179054
 20
8.1643766301
 30
0.0
 10
12.0160599487
 20
8.1526422504
 30
0.0
 10
12.0075261415
 20
8.138597543
 30
0.0
 10
11.9956399443
 20
8.1229119917
 30
0.0
 10
11.9866908358
 20
8.1133290086
 30
0.0
 10
11.9819884255
 20
8.1087870558
 30
0.0
  0
SPLINE
  5
39A
100
AcDbEntity
  8
0
100
AcDbSpline
 62
7
  6
CONTINUOUS
 70
0
 71
3
 72
58
 73
54
 74
0
 42
0.0000001
 43
0.0000001
 44
0.0000000001
 40
0.0
 40
0.0
 40
0.0
 40
0.0
 40
0.0311036881
 40
0.0465905488
 40
0.0620239956
 40
0.0927288498
 40
0.1080185634
 40
0.1232684009
 40
0.1384815121
 40
0.1536613576
 40
0.1688121874
 40
0.1839387771
 40
0.1990460596
 40
0.2141392863
 40
0.2442942278
 40
0.2744567609
 40
0.2895594381
 40
0.3046798642
 40
0.3198230822
 40
0.334993731
 40
0.3654247619
 40
0.3960145868
 40
0.4113820902
 40
0.4267979847
 40
0.4422641616
 40
0.4577821839
 40
0.4889672415
 40
0.5203640478
 40
0.5361444902
 40
0.551974645
 40
0.5678524977
 40
0.58377545
 40
0.6157360994
 40
0.6478378676
 40
0.6639359765
 40
0.6800567845
 40
0.6961955629
 40
0.7123475841
 40
0.728507911
 40
0.7446714551
 40
0.7769797727
 40
0.793122956
 40
0.8092494136
 40
0.8253545969
 40
0.8414340341
 40
0.8574834655
 40
0.8734987676
 40
0.9054016335
 40
0.921291582
 40
0.9371359134
 40
0.9529341635
 40
0.9686840572
 40
1.0
 40
1.0
 40
1.0
 40
1.0
 10
11.6296149027
 20
8.2759021677
 30
0.0
 10
11.6296149027
 20
8.2822932476
 30
0.0
 10
11.6300851889
 20
8.2918754577
 30
0.0
 10
11.6316567769
 20
8.3045266505
 30
0.0
 10
11.6338466198
 20
8.3170028057
 30
0.0
 10
11.63696707
 20
8.3292596711
 30
0.0
 10
11.640998731
 20
8.3411851086
 30
0.0
 10
11.6444640187
 20
8.3499289733
 30
0.0
 10
11.6483653144
 20
8.3584620642
 30
0.0
 10
11.6526942692
 20
8.3667635719
 30
0.0
 10
11.6574407234
 20
8.3748130161
 30
0.0
 10
11.6625920533
 20
8.3825916279
 30
0.0
 10
11.6681366191
 20
8.3900806438
 30
0.0
 10
11.6760324226
 20
8.3996500958
 30
0.0
 10
11.6868244462
 20
8.4108115375
 30
0.0
 10
11.6987330007
 20
8.4207760144
 30
0.0
 10
11.7088488271
 20
8.4279692186
 30
0.0
 10
11.7167223585
 20
8.432967646
 30
0.0
 10
11.7248583974
 20
8.4375547056
 30
0.0
 10
11.7360392589
 20
8.4431133582
 30
0.0
 10
11.7505861573
 20
8.448980085
 30
0.0
 10
11.7656963381
 20
8.453334417
 30
0.0
 10
11.7780491024
 20
8.4558944335
 30
0.0
 10
11.787444043
 20
8.4573521031
 30
0.0
 10
11.7969310061
 20
8.4583397996
 30
0.0
 10
11.8096912764
 20
8.459027048
 30
0.0
 10
11.8257633252
 20
8.4586979381
 30
0.0
 10
11.841778979
 20
8.4567938604
 30
0.0
 10
11.8544956395
 20
8.4543430845
 30
0.0
 10
11.863981276
 20
8.4520383203
 30
0.0
 10
11.8733745159
 20
8.4492765969
 30
0.0
 10
11.885759327
 20
8.4449902046
 30
0.0
 10
11.9008952472
 20
8.4385201385
 30
0.0
 10
11.9153951452
 20
8.4306538101
 30
0.0
 10
11.9265506131
 20
8.4235593105
 30
0.0
 10
11.9346838573
 20
8.4178448991
 30
0.0
 10
11.942554481
 20
8.4117560244
 30
0.0
 10
11.9501431641
 20
8.4053066946
 30
0.0
 10
11.9574326493
 20
8.3985131684
 30
0.0
 10
11.9667261146
 20
8.3890214407
 30
0.0
 10
11.9753552149
 20
8.3789017998
 30
0.0
 10
11.9832534094
 20
8.3682348315
 30
0.0
 10
11.9887966851
 20
8.3599796444
 30
0.0
 10
11.993947041
 20
8.351489419
 30
0.0
 10
11.9986928174
 20
8.3427845906
 30
0.0
 10
12.0030215327
 20
8.3338851893
 30
0.0
 10
12.0082158433
 20
8.3218074508
 30
0.0
 10
12.0125491374
 20
8.3094086331
 30
0.0
 10
12.0159770078
 20
8.2967861157
 30
0.0
 10
12.0180874812
 20
8.2872461157
 30
0.0
 10
12.0197343744
 20
8.2776442409
 30
0.0
 10
12.021302577
 20
8.2648193875
 30
0.0
 10
12.0217808115
 20
8.2551400628
 30
0.0
 10
12.0217808115
 20
8.2487053696
 30
0.0
  0
SPLINE
  5
39B
100
AcDbEntity
  8
0
100
AcDbSpline
 62
7
  6
CONTINUOUS
 70
0
 71
3
 72
23
 73
19
 74
0
 42
0.0000001
 43
0.0000001
 44
0.0000000001
 40
0.0
 40
0.0
 40
0.0
 40
0.0
 40
0.061523767
 40
0.1234381424
 40
0.1857112903
 40
0.2483007245
 40
0.3111517292
 40
0.3742007865
 40
0.4373781626
 40
0.5006079167
 40
0.5638158502
 40
0.6269263446
 40
0.6898666247
 40
0.7525623527
 40
0.8149613326
 40
0.877040031
 40
0.938757234
 40
1.0
 40
1.0
 40
1.0
 40
1.0
 10
11.890014781
 20
8.2655259685
 30
0.0
 10
11.8880632446
 20
8.2657065366
 30
0.0
 10
11.8841626908
 20
8.2662574773
 30
0.0
 10
11.8784016823
 20
8.2676384488
 30
0.0
 10
11.8727617633
 20
8.2695609633
 30
0.0
 10
11.8672973242
 20
8.2720099961
 30
0.0
 10
11.8620577264
 20
8.2749596013
 30
0.0
 10
11.8570933047
 20
8.2783849184
 30
0.0
 10
11.8524488196
 20
8.2822516771
 30
0.0
 10
11.8481687635
 20
8.2865254895
 30
0.0
 10
11.8442920868
 20
8.2911655048
 30
0.0
 10
11.8408555411
 20
8.2961291726
 30
0.0
 10
11.8378913079
 20
8.3013698444
 30
0.0
 10
11.8354259278
 20
8.306838151
 30
0.0
 10
11.8334839364
 20
8.3124845309
 30
0.0
 10
11.8320823468
 20
8.3182569804
 30
0.0
 10
11.8312369449
 20
8.3240989966
 30
0.0
 10
11.8310456304
 20
8.3280184005
 30
0.0
 10
11.8310456304
 20
8.3299693213
 30
0.0
  0
SPLINE
  5
39C
100
AcDbEntity
  8
0
100
AcDbSpline
 62
7
  6
CONTINUOUS
 70
0
 71
3
 72
17
 73
13
 74
0
 42
0.0000001
 43
0.0000001
 44
0.0000000001
 40
0.0
 40
0.0
 40
0.0
 40
0.0
 40
0.1273148359
 40
0.1907080938
 40
0.253886694
 40
0.3795973721
 40
0.5046020162
 40
0.5668927094
 40
0.6290466736
 40
0.7529728785
 40
0.8765701029
 40
1.0
 40
1.0
 40
1.0
 40
1.0
 10
11.6183011899
 20
9.4284938743
 30
0.0
 10
11.6183011899
 20
9.4352373851
 30
0.0
 10
11.6187863305
 20
9.4453477297
 30
0.0
 10
11.6204079992
 20
9.458701159
 30
0.0
 10
11.6226681709
 20
9.4718762655
 30
0.0
 10
11.6266864379
 20
9.4880391455
 30
0.0
 10
11.6322808163
 20
9.5036773023
 30
0.0
 10
11.6376600114
 20
9.5157508157
 30
0.0
 10
11.6436179681
 20
9.5274851954
 30
0.0
 10
11.6521517753
 20
9.5415299029
 30
0.0
 10
11.6640379725
 20
9.5572154542
 30
0.0
 10
11.672987081
 20
9.5667984372
 30
0.0
 10
11.6776894913
 20
9.57134039
 30
0.0
  0
SPLINE
  5
39D
100
AcDbEntity
  8
0
100
AcDbSpline
 62
7
  6
CONTINUOUS
 70
0
 71
3
 72
13
 73
9
 74
0
 42
0.0000001
 43
0.0000001
 44
0.0000000001
 40
0.0
 40
0.0
 40
0.0
 40
0.0
 40
0.2513862213
 40
0.5015608494
 40
0.6263585162
 40
0.7509958623
 40
0.8755254063
 40
1.0
 40
1.0
 40
1.0
 40
1.0
 10
12.0494083071
 20
9.3497618471
 30
0.0
 10
12.0469090865
 20
9.3427163283
 30
0.0
 10
12.041122755
 20
9.3289286853
 30
0.0
 10
12.0319702948
 20
9.3126563935
 30
0.0
 10
12.0235878763
 20
9.3003810651
 30
0.0
 10
12.0167896919
 20
9.2915717103
 30
0.0
 10
12.00949831
 20
9.2831796615
 30
0.0
 10
12.0043211081
 20
9.277878558
 30
0.0
 10
12.0016586567
 20
9.2753069559
 30
0.0
  0
SPLINE
  5
39E
100
AcDbEntity
  8
0
100
AcDbSpline
 62
7
  6
CONTINUOUS
 70
0
 71
3
 72
11
 73
7
 74
0
 42
0.0000001
 43
0.0000001
 44
0.0000000001
 40
0.0
 40
0.0
 40
0.0
 40
0.0
 40
0.249272203
 40
0.5008802135
 40
0.7525275855
 40
1.0
 40
1.0
 40
1.0
 40
1.0
 10
11.8875774534
 20
9.372239939
 30
0.0
 10
11.8879432918
 20
9.3753239692
 30
0.0
 10
11.8886221269
 20
9.3815278371
 30
0.0
 10
11.8894251073
 20
9.3908701167
 30
0.0
 10
11.8899517718
 20
9.4002100543
 30
0.0
 10
11.8900799212
 20
9.4064290497
 30
0.0
 10
11.8900799212
 20
9.4095122793
 30
0.0
  0
SPLINE
  5
39F
100
AcDbEntity
  8
0
100
AcDbSpline
 62
7
  6
CONTINUOUS
 70
0
 71
3
 72
11
 73
7
 74
0
 42
0.0000001
 43
0.0000001
 44
0.0000000001
 40
0.0
 40
0.0
 40
0.0
 40
0.0
 40
0.2732656329
 40
0.5313487246
 40
0.7731209783
 40
1.0
 40
1.0
 40
1.0
 40
1.0
 10
11.8900799212
 20
9.4095122793
 30
0.0
 10
11.8900799212
 20
9.41247852
 30
0.0
 10
11.889965378
 20
9.4182470272
 30
0.0
 10
11.8894474245
 20
9.4266254043
 30
0.0
 10
11.8886472984
 20
9.4344751294
 30
0.0
 10
11.8879520306
 20
9.4395155643
 30
0.0
 10
11.8875774534
 20
9.4419496351
 30
0.0
  0
SPLINE
  5
3A0
100
AcDbEntity
  8
0
100
AcDbSpline
 62
7
  6
CONTINUOUS
 70
0
 71
3
 72
15
 73
11
 74
0
 42
0.0000001
 43
0.0000001
 44
0.0000000001
 40
0.0
 40
0.0
 40
0.0
 40
0.0
 40
0.1240777136
 40
0.2511220676
 40
0.3805653088
 40
0.5108217172
 40
0.639494926
 40
0.764424719
 40
0.8845808224
 40
1.0
 40
1.0
 40
1.0
 40
1.0
 10
11.8272070857
 20
9.4809911824
 30
0.0
 10
11.8299535568
 20
9.4798084154
 30
0.0
 10
11.8354792348
 20
9.4773368371
 30
0.0
 10
11.8437187459
 20
9.4733029278
 30
0.0
 10
11.8519112568
 20
9.4688509064
 30
0.0
 10
11.8599077568
 20
9.4639781066
 30
0.0
 10
11.867544071
 20
9.4587481211
 30
0.0
 10
11.8747039319
 20
9.4532760271
 30
0.0
 10
11.881354807
 20
9.4476815235
 30
0.0
 10
11.8855525177
 20
9.443856783
 30
0.0
 10
11.8875774534
 20
9.4419496351
 30
0.0
  0
SPLINE
  5
3A1
100
AcDbEntity
  8
0
100
AcDbSpline
 62
7
  6
CONTINUOUS
 70
0
 71
3
 72
15
 73
11
 74
0
 42
0.0000001
 43
0.0000001
 44
0.0000000001
 40
0.0
 40
0.0
 40
0.0
 40
0.0
 40
0.1387137725
 40
0.2777269652
 40
0.4154031561
 40
0.5490459746
 40
0.6755623724
 40
0.7928750885
 40
0.9006878119
 40
1.0
 40
1.0
 40
1.0
 40
1.0
 10
11.766836718
 20
9.4503230335
 30
0.0
 10
11.7695591756
 20
9.4518730659
 30
0.0
 10
11.7750208698
 20
9.4549574021
 30
0.0
 10
11.7832317464
 20
9.4594962164
 30
0.0
 10
11.7913944017
 20
9.463884442
 30
0.0
 10
11.7993695762
 20
9.4680235908
 30
0.0
 10
11.8070021301
 20
9.47182203
 30
0.0
 10
11.8141756877
 20
9.4752304716
 30
0.0
 10
11.8208497954
 20
9.4782554734
 30
0.0
 10
11.8251422559
 20
9.4801152942
 30
0.0
 10
11.8272070857
 20
9.4809911824
 30
0.0
  0
SPLINE
  5
3A2
100
AcDbEntity
  8
0
100
AcDbSpline
 62
7
  6
CONTINUOUS
 70
0
 71
3
 72
38
 73
34
 74
0
 42
0.0000001
 43
0.0000001
 44
0.0000000001
 40
0.0
 40
0.0
 40
0.0
 40
0.0
 40
0.029944812
 40
0.0599139139
 40
0.0899312717
 40
0.1200193174
 40
0.1350994304
 40
0.150204915
 40
0.1804950416
 40
0.2109117799
 40
0.2414680483
 40
0.2721739917
 40
0.3030358878
 40
0.3340569838
 40
0.365236542
 40
0.3965708423
 40
0.4280523939
 40
0.4596710329
 40
0.4914133205
 40
0.5232636592
 40
0.5552038952
 40
0.5872143744
 40
0.6192737535
 40
0.6513599477
 40
0.6834501859
 40
0.7155217223
 40
0.7475519957
 40
0.7795193843
 40
0.8114039982
 40
0.8431871813
 40
0.8748506854
 40
0.9377293214
 40
1.0
 40
1.0
 40
1.0
 40
1.0
 10
11.9819884255
 20
9.2563069704
 30
0.0
 10
11.9783551985
 20
9.2527977178
 30
0.0
 10
11.9708031541
 20
9.2460624256
 30
0.0
 10
11.9587039526
 20
9.2368860988
 30
0.0
 10
11.9458949357
 20
9.2286841315
 30
0.0
 10
11.9346960544
 20
9.2227011442
 30
0.0
 10
11.9254596697
 20
9.2184457177
 30
0.0
 10
11.9160326422
 20
9.2145412228
 30
0.0
 10
11.9039383078
 20
9.2103423666
 30
0.0
 10
11.8890335756
 20
9.2064301024
 30
0.0
 10
11.8738038611
 20
9.2036574814
 30
0.0
 10
11.8583331587
 20
9.2020423373
 30
0.0
 10
11.8427066831
 20
9.2015906512
 30
0.0
 10
11.8270103797
 20
9.2023074196
 30
0.0
 10
11.8113303547
 20
9.2041857701
 30
0.0
 10
11.7957531315
 20
9.2072179454
 30
0.0
 10
11.7803636901
 20
9.2113843708
 30
0.0
 10
11.7652473004
 20
9.2166647395
 30
0.0
 10
11.7504859576
 20
9.2230272262
 30
0.0
 10
11.7361618445
 20
9.230439433
 30
0.0
 10
11.7223521906
 20
9.238857995
 30
0.0
 10
11.7091343266
 20
9.2482391375
 30
0.0
 10
11.6965790315
 20
9.2585288963
 30
0.0
 10
11.6847571148
 20
9.2696730775
 30
0.0
 10
11.6737313741
 20
9.2816083204
 30
0.0
 10
11.6635646036
 20
9.2942711836
 30
0.0
 10
11.6543101892
 20
9.3075901818
 30
0.0
 10
11.6460214602
 20
9.3214941113
 30
0.0
 10
11.6387414585
 20
9.3359049938
 30
0.0
 10
11.6325129792
 20
9.3507459076
 30
0.0
 10
11.6256695788
 20
9.3709423041
 30
0.0
 10
11.6198783901
 20
9.3968495628
 30
0.0
 10
11.6183011899
 20
9.4179897119
 30
0.0
 10
11.6183011899
 20
9.4284938743
 30
0.0
  0
SPLINE
  5
3A3
100
AcDbEntity
  8
0
100
AcDbSpline
 62
7
  6
CONTINUOUS
 70
0
 71
3
 72
14
 73
10
 74
0
 42
0.0000001
 43
0.0000001
 44
0.0000000001
 40
0.0
 40
0.0
 40
0.0
 40
0.0
 40
0.1244922981
 40
0.2490359167
 40
0.3736813378
 40
0.4984788096
 40
0.6234752712
 40
0.74871602
 40
1.0
 40
1.0
 40
1.0
 40
1.0
 10
11.6973597225
 20
9.5903403755
 30
0.0
 10
11.6999433269
 20
9.5928358211
 30
0.0
 10
11.7052540209
 20
9.5976826608
 30
0.0
 10
11.713619322
 20
9.6044934289
 30
0.0
 10
11.7223632474
 20
9.6108264683
 30
0.0
 10
11.7314607501
 20
9.6166638305
 30
0.0
 10
11.7408867191
 20
9.6219906928
 30
0.0
 10
11.7538679984
 20
9.6283958494
 30
0.0
 10
11.7640055558
 20
9.6323826157
 30
0.0
 10
11.7708885812
 20
9.6346609106
 30
0.0
  0
SPLINE
  5
3A4
100
AcDbEntity
  8
0
100
AcDbSpline
 62
7
  6
CONTINUOUS
 70
0
 71
3
 72
19
 73
15
 74
0
 42
0.0000001
 43
0.0000001
 44
0.0000000001
 40
0.0
 40
0.0
 40
0.0
 40
0.0
 40
0.1259165152
 40
0.1890435013
 40
0.2521765074
 40
0.3783027214
 40
0.5041309176
 40
0.5668776413
 40
0.6294512568
 40
0.6918223904
 40
0.7539712289
 40
0.8158897976
 40
0.8775715464
 40
1.0
 40
1.0
 40
1.0
 40
1.0
 10
11.8278650272
 20
9.3908847369
 30
0.0
 10
11.8255817418
 20
9.3923613387
 30
0.0
 10
11.8222861701
 20
9.3947933942
 30
0.0
 10
11.8182162822
 20
9.3984152336
 30
0.0
 10
11.8143717412
 20
9.4022828647
 30
0.0
 10
11.8100244434
 20
9.4075404596
 30
0.0
 10
11.8063556343
 20
9.4132827116
 30
0.0
 10
11.8038696109
 20
9.4181061532
 30
0.0
 10
11.8022379539
 20
9.4218193418
 30
0.0
 10
11.800845132
 20
9.4256147256
 30
0.0
 10
11.7996974228
 20
9.4294764906
 30
0.0
 10
11.7987989755
 20
9.4333888285
 30
0.0
 10
11.7979424556
 20
9.4386346666
 30
0.0
 10
11.7976798433
 20
9.4426165385
 30
0.0
 10
11.7976798433
 20
9.4452603586
 30
0.0
  0
SPLINE
  5
3A5
100
AcDbEntity
  8
0
100
AcDbSpline
 62
7
  6
CONTINUOUS
 70
0
 71
3
 72
17
 73
13
 74
0
 42
0.0000001
 43
0.0000001
 44
0.0000000001
 40
0.0
 40
0.0
 40
0.0
 40
0.0
 40
0.1214811947
 40
0.1825928933
 40
0.2439208635
 40
0.305493007
 40
0.3673350785
 40
0.4918016094
 40
0.6173948385
 40
0.7440422234
 40
0.8716680821
 40
1.0
 40
1.0
 40
1.0
 40
1.0
 10
11.8882353949
 20
9.3866980377
 30
0.0
 10
11.8859497078
 20
9.3855369086
 30
0.0
 10
11.8823861095
 20
9.3840290038
 30
0.0
 10
11.8774626044
 20
9.3825175723
 30
0.0
 10
11.8736781087
 20
9.3816327485
 30
0.0
 10
11.8698276153
 20
9.3810024587
 30
0.0
 10
11.8646169069
 20
9.3805045298
 30
0.0
 10
11.8580138951
 20
9.380532947
 30
0.0
 10
11.8501147298
 20
9.3816036808
 30
0.0
 10
11.8423516687
 20
9.3836900382
 30
0.0
 10
11.8348606001
 20
9.386756603
 30
0.0
 10
11.8301391909
 20
9.389414034
 30
0.0
 10
11.8278650272
 20
9.3908847369
 30
0.0
  0
SPLINE
  5
3A6
100
AcDbEntity
  8
0
100
AcDbSpline
 62
7
  6
CONTINUOUS
 70
0
 71
3
 72
49
 73
45
 74
0
 42
0.0000001
 43
0.0000001
 44
0.0000000001
 40
0.0
 40
0.0
 40
0.0
 40
0.0
 40
0.0313124516
 40
0.0628593141
 40
0.0787075028
 40
0.0945995998
 40
0.126502659
 40
0.1585608398
 40
0.1907402095
 40
0.2068682324
 40
0.2230127563
 40
0.2391689252
 40
0.255331956
 40
0.2714969196
 40
0.2876586436
 40
0.3038119942
 40
0.3199521348
 40
0.3521652624
 40
0.3842696438
 40
0.4162330966
 40
0.4480275395
 40
0.4796318702
 40
0.5110311876
 40
0.5422189324
 40
0.573196104
 40
0.6039722241
 40
0.6345646967
 40
0.6649982209
 40
0.6953044026
 40
0.7104261239
 40
0.7255300429
 40
0.7556952105
 40
0.7707772913
 40
0.7858628248
 40
0.8160556666
 40
0.8311837819
 40
0.8463363278
 40
0.8615175372
 40
0.8767311605
 40
0.9072608757
 40
0.9225962674
 40
0.9379813914
 40
0.9688998926
 40
1.0
 40
1.0
 40
1.0
 40
1.0
 10
11.7503556382
 20
9.4150486839
 30
0.0
 10
11.7503556382
 20
9.4125767255
 30
0.0
 10
11.7506011843
 20
9.4076112832
 30
0.0
 10
11.7515060452
 20
9.4014539903
 30
0.0
 10
11.7525856678
 20
9.3965740983
 30
0.0
 10
11.7539030184
 20
9.3917238875
 30
0.0
 10
11.755985801
 20
9.3857630823
 30
0.0
 10
11.7591519737
 20
9.3788537544
 30
0.0
 10
11.7623217497
 20
9.3733464472
 30
0.0
 10
11.7651594496
 20
9.3691213371
 30
0.0
 10
11.7674351405
 20
9.3660474418
 30
0.0
 10
11.7698510068
 20
9.3630789835
 30
0.0
 10
11.7724017158
 20
9.3602233678
 30
0.0
 10
11.7750807149
 20
9.3574871461
 30
0.0
 10
11.7778813918
 20
9.3548767533
 30
0.0
 10
11.7807973069
 20
9.352398624
 30
0.0
 10
11.7848264427
 20
9.3492818754
 30
0.0
 10
11.7901137888
 20
9.3457444952
 30
0.0
 10
11.7968043257
 20
9.342115116
 30
0.0
 10
11.8037731749
 20
9.3391358587
 30
0.0
 10
11.8109539511
 20
9.3368376555
 30
0.0
 10
11.8182770992
 20
9.3352405357
 30
0.0
 10
11.8256727705
 20
9.334362548
 30
0.0
 10
11.8330695332
 20
9.334209802
 30
0.0
 10
11.8403962545
 20
9.3347866899
 30
0.0
 10
11.8475824627
 20
9.3360853941
 30
0.0
 10
11.8545585108
 20
9.3380960719
 30
0.0
 10
11.8612571639
 20
9.3407972372
 30
0.0
 10
11.8665593965
 20
9.3436068991
 30
0.0
 10
11.8705954983
 20
9.3461689453
 30
0.0
 10
11.8744823279
 20
9.348932769
 30
0.0
 10
11.8781439688
 20
9.3519973091
 30
0.0
 10
11.8815455119
 20
9.3553338432
 30
0.0
 10
11.8847680199
 20
9.3588465577
 30
0.0
 10
11.8877115134
 20
9.3626117583
 30
0.0
 10
11.8903485148
 20
9.366593434
 30
0.0
 10
11.892171908
 20
9.3696867046
 30
0.0
 10
11.8938352522
 20
9.3728764804
 30
0.0
 10
11.8958364815
 20
9.3772518547
 30
0.0
 10
11.8974995954
 20
9.3817886187
 30
0.0
 10
11.8988127382
 20
9.3864439589
 30
0.0
 10
11.8998952452
 20
9.3911900931
 30
0.0
 10
11.9007994178
 20
9.3972441886
 30
0.0
 10
11.901040076
 20
9.4021434877
 30
0.0
 10
11.901040076
 20
9.4045986827
 30
0.0
  0
SPLINE
  5
3A7
100
AcDbEntity
  8
0
100
AcDbSpline
 62
7
  6
CONTINUOUS
 70
0
 71
3
 72
13
 73
9
 74
0
 42
0.0000001
 43
0.0000001
 44
0.0000000001
 40
0.0
 40
0.0
 40
0.0
 40
0.0
 40
0.2525061031
 40
0.5033171101
 40
0.6280725826
 40
0.7524088264
 40
0.8763708792
 40
1.0
 40
1.0
 40
1.0
 40
1.0
 10
11.7976798433
 20
9.4452603586
 30
0.0
 10
11.7976798433
 20
9.4474214816
 30
0.0
 10
11.7979121491
 20
9.4517326914
 30
0.0
 10
11.7987869751
 20
9.4570480764
 30
0.0
 10
11.7998325651
 20
9.4611988263
 30
0.0
 10
11.80078453
 20
9.4642483
 30
0.0
 10
11.8019032388
 20
9.4672301621
 30
0.0
 10
11.8027592163
 20
9.4691701157
 30
0.0
 10
11.8032136949
 20
9.4701256435
 30
0.0
  0
SPLINE
  5
3A8
100
AcDbEntity
  8
0
100
AcDbSpline
 62
7
  6
CONTINUOUS
 70
0
 71
3
 72
15
 73
11
 74
0
 42
0.0000001
 43
0.0000001
 44
0.0000000001
 40
0.0
 40
0.0
 40
0.0
 40
0.0
 40
0.1154191779
 40
0.2355752813
 40
0.3605050746
 40
0.4891782854
 40
0.6194346919
 40
0.7488779326
 40
0.8759222867
 40
1.0
 40
1.0
 40
1.0
 40
1.0
 10
11.8272070857
 20
9.3415717901
 30
0.0
 10
11.8251821499
 20
9.3434789381
 30
0.0
 10
11.8209844393
 20
9.3473036786
 30
0.0
 10
11.8143335642
 20
9.3528981821
 30
0.0
 10
11.8071737032
 20
9.3583702762
 30
0.0
 10
11.799537389
 20
9.3636002617
 30
0.0
 10
11.7915408891
 20
9.3684730615
 30
0.0
 10
11.7833483782
 20
9.3729250829
 30
0.0
 10
11.7751088671
 20
9.3769589921
 30
0.0
 10
11.769583189
 20
9.3794305705
 30
0.0
 10
11.766836718
 20
9.3806133374
 30
0.0
  0
SPLINE
  5
3A9
100
AcDbEntity
  8
0
100
AcDbSpline
 62
7
  6
CONTINUOUS
 70
0
 71
3
 72
15
 73
11
 74
0
 42
0.0000001
 43
0.0000001
 44
0.0000000001
 40
0.0
 40
0.0
 40
0.0
 40
0.0
 40
0.0993121883
 40
0.2071249118
 40
0.3244376282
 40
0.450954028
 40
0.5845968446
 40
0.7222730351
 40
0.8612862279
 40
1.0
 40
1.0
 40
1.0
 40
1.0
 10
11.8875774534
 20
9.372239939
 30
0.0
 10
11.8855126236
 20
9.3713640508
 30
0.0
 10
11.8812201631
 20
9.36950423
 30
0.0
 10
11.8745460554
 20
9.3664792282
 30
0.0
 10
11.8673724978
 20
9.3630707866
 30
0.0
 10
11.8597399439
 20
9.3592723474
 30
0.0
 10
11.8517647693
 20
9.3551331986
 30
0.0
 10
11.8436021141
 20
9.350744973
 30
0.0
 10
11.8353912375
 20
9.3462061587
 30
0.0
 10
11.8299295433
 20
9.3431218225
 30
0.0
 10
11.8272070857
 20
9.3415717901
 30
0.0
  0
SPLINE
  5
3AA
100
AcDbEntity
  8
0
100
AcDbSpline
 62
7
  6
CONTINUOUS
 70
0
 71
3
 72
11
 73
7
 74
0
 42
0.0000001
 43
0.0000001
 44
0.0000000001
 40
0.0
 40
0.0
 40
0.0
 40
0.0
 40
0.2474744049
 40
0.499121966
 40
0.750729073
 40
1.0
 40
1.0
 40
1.0
 40
1.0
 10
11.7693391858
 20
9.4178850901
 30
0.0
 10
11.7693391858
 20
9.4148018841
 30
0.0
 10
11.7692110114
 20
9.4085829597
 30
0.0
 10
11.7686843455
 20
9.3992431539
 30
0.0
 10
11.7678813714
 20
9.3899010465
 30
0.0
 10
11.7672025488
 20
9.3836973034
 30
0.0
 10
11.766836718
 20
9.3806133374
 30
0.0
  0
SPLINE
  5
3AB
100
AcDbEntity
  8
0
100
AcDbSpline
 62
7
  6
CONTINUOUS
 70
0
 71
3
 72
11
 73
7
 74
0
 42
0.0000001
 43
0.0000001
 44
0.0000000001
 40
0.0
 40
0.0
 40
0.0
 40
0.0
 40
0.2268797892
 40
0.4686527917
 40
0.7267359359
 40
1.0
 40
1.0
 40
1.0
 40
1.0
 10
11.766836718
 20
9.4503230335
 30
0.0
 10
11.7672113032
 20
9.4478889106
 30
0.0
 10
11.7679065839
 20
9.4428483681
 30
0.0
 10
11.7687067161
 20
9.4349984834
 30
0.0
 10
11.7692246668
 20
9.4266199624
 30
0.0
 10
11.7693391858
 20
9.4208513673
 30
0.0
 10
11.7693391858
 20
9.4178850901
 30
0.0
  0
SPLINE
  5
3AC
100
AcDbEntity
  8
0
100
AcDbSpline
 62
7
  6
CONTINUOUS
 70
0
 71
3
 72
49
 73
45
 74
0
 42
0.0000001
 43
0.0000001
 44
0.0000000001
 40
0.0
 40
0.0
 40
0.0
 40
0.0
 40
0.0313124516
 40
0.0628593141
 40
0.0787075028
 40
0.0945995998
 40
0.126502659
 40
0.1585608398
 40
0.1907402095
 40
0.2068682324
 40
0.2230127563
 40
0.2391689252
 40
0.255331956
 40
0.2714969196
 40
0.2876586436
 40
0.3038119942
 40
0.3199521348
 40
0.3521652624
 40
0.3842696438
 40
0.4162330966
 40
0.4480275395
 40
0.4796318702
 40
0.5110311876
 40
0.5422189324
 40
0.573196104
 40
0.6039722241
 40
0.6345646967
 40
0.6649982209
 40
0.6953044026
 40
0.7104261239
 40
0.7255300429
 40
0.7556952105
 40
0.7707772913
 40
0.7858628248
 40
0.8160556666
 40
0.8311837819
 40
0.8463363278
 40
0.8615175372
 40
0.8767311605
 40
0.9072608757
 40
0.9225962674
 40
0.9379813914
 40
0.9688998926
 40
1.0
 40
1.0
 40
1.0
 40
1.0
 10
11.901040076
 20
9.4045986827
 30
0.0
 10
11.901040076
 20
9.4070706411
 30
0.0
 10
11.9007945299
 20
9.4120360833
 30
0.0
 10
11.899889669
 20
9.4181933763
 30
0.0
 10
11.8988100464
 20
9.4230732683
 30
0.0
 10
11.8974926958
 20
9.4279234791
 30
0.0
 10
11.8954099132
 20
9.4338842842
 30
0.0
 10
11.8922437405
 20
9.4407936122
 30
0.0
 10
11.8890739645
 20
9.4463009194
 30
0.0
 10
11.8862362646
 20
9.4505260295
 30
0.0
 10
11.8839605736
 20
9.4535999248
 30
0.0
 10
11.8815447073
 20
9.4565683831
 30
0.0
 10
11.8789939984
 20
9.4594239987
 30
0.0
 10
11.8763149993
 20
9.4621602205
 30
0.0
 10
11.8735143224
 20
9.4647706133
 30
0.0
 10
11.8705984073
 20
9.4672487426
 30
0.0
 10
11.8665692715
 20
9.4703654912
 30
0.0
 10
11.8612819254
 20
9.4739028714
 30
0.0
 10
11.8545913885
 20
9.4775322505
 30
0.0
 10
11.8476225393
 20
9.4805115078
 30
0.0
 10
11.8404417631
 20
9.4828097111
 30
0.0
 10
11.833118615
 20
9.4844068309
 30
0.0
 10
11.8257229437
 20
9.4852848185
 30
0.0
 10
11.818326181
 20
9.4854375645
 30
0.0
 10
11.8109994597
 20
9.4848606766
 30
0.0
 10
11.8038132515
 20
9.4835619725
 30
0.0
 10
11.7968372034
 20
9.4815512947
 30
0.0
 10
11.7901385503
 20
9.4788501294
 30
0.0
 10
11.7848363177
 20
9.4760404675
 30
0.0
 10
11.7808002159
 20
9.4734784213
 30
0.0
 10
11.7769133863
 20
9.4707145976
 30
0.0
 10
11.7732517454
 20
9.4676500575
 30
0.0
 10
11.7698502023
 20
9.4643135233
 30
0.0
 10
11.7666276943
 20
9.4608008089
 30
0.0
 10
11.7636842008
 20
9.4570356083
 30
0.0
 10
11.7610471994
 20
9.4530539326
 30
0.0
 10
11.7592238062
 20
9.4499606619
 30
0.0
 10
11.757560462
 20
9.4467708862
 30
0.0
 10
11.7555592326
 20
9.4423955119
 30
0.0
 10
11.7538961188
 20
9.4378587479
 30
0.0
 10
11.752582976
 20
9.4332034077
 30
0.0
 10
11.751500469
 20
9.4284572734
 30
0.0
 10
11.7505962964
 20
9.422403178
 30
0.0
 10
11.7503556382
 20
9.4175038788
 30
0.0
 10
11.7503556382
 20
9.4150486839
 30
0.0
  0
SPLINE
  5
3AD
100
AcDbEntity
  8
0
100
AcDbSpline
 62
7
  6
CONTINUOUS
 70
0
 71
3
 72
40
 73
36
 74
0
 42
0.0000001
 43
0.0000001
 44
0.0000000001
 40
0.0
 40
0.0
 40
0.0
 40
0.0
 40
0.0299275589
 40
0.0599160714
 40
0.0899846757
 40
0.1201507588
 40
0.150429626
 40
0.1656180488
 40
0.1808392746
 40
0.2113800023
 40
0.2420644903
 40
0.2728972301
 40
0.3038801423
 40
0.3350117637
 40
0.3662882351
 40
0.3977024366
 40
0.4292451487
 40
0.4609043058
 40
0.4926660988
 40
0.5245145436
 40
0.5564322949
 40
0.58840068
 40
0.6204000814
 40
0.6524105147
 40
0.6844115406
 40
0.7163831542
 40
0.7483054209
 40
0.7801599929
 40
0.8119295892
 40
0.8435979117
 40
0.8751488956
 40
0.9065716384
 40
0.9378631313
 40
0.969015287
 40
1.0
 40
1.0
 40
1.0
 40
1.0
 10
11.6983780462
 20
9.5886699901
 30
0.0
 10
11.7022496563
 20
9.5914725239
 30
0.0
 10
11.7102145364
 20
9.5967944622
 30
0.0
 10
11.7227358059
 20
9.6038725213
 30
0.0
 10
11.7357837266
 20
9.6100169308
 30
0.0
 10
11.7492915452
 20
9.615199525
 30
0.0
 10
11.7608669909
 20
9.6186908323
 30
0.0
 10
11.7702865959
 20
9.6209805045
 30
0.0
 10
11.779823826
 20
9.6229365473
 30
0.0
 10
11.791910199
 20
9.6247393646
 30
0.0
 10
11.8065809464
 20
9.625865908
 30
0.0
 10
11.8213654712
 20
9.6259523787
 30
0.0
 10
11.8361906944
 20
9.6249984017
 30
0.0
 10
11.8509842129
 20
9.6230094604
 30
0.0
 10
11.8656732462
 20
9.6199942221
 30
0.0
 10
11.880186292
 20
9.6159693037
 30
0.0
 10
11.8944516039
 20
9.6109523979
 30
0.0
 10
11.908400269
 20
9.6049706289
 30
0.0
 10
11.9219628192
 20
9.598050726
 30
0.0
 10
11.9350742857
 20
9.5902293587
 30
0.0
 10
11.9476689054
 20
9.5815422241
 30
0.0
 10
11.9596867222
 20
9.5720343707
 30
0.0
 10
11.971067232
 20
9.5617501886
 30
0.0
 10
11.9817563119
 20
9.5507418659
 30
0.0
 10
11.9917002248
 20
9.5390618484
 30
0.0
 10
12.0008513749
 20
9.526768385
 30
0.0
 10
12.0091642671
 20
9.5139210359
 30
0.0
 10
12.0165984213
 20
9.5005828486
 30
0.0
 10
12.0231174731
 20
9.4868190428
 30
0.0
 10
12.0286886559
 20
9.4726970658
 30
0.0
 10
12.0332862922
 20
9.4582867987
 30
0.0
 10
12.0368859814
 20
9.4436573051
 30
0.0
 10
12.0394714022
 20
9.4288792235
 30
0.0
 10
12.0410271781
 20
9.4140285452
 30
0.0
 10
12.0413767269
 20
9.4041018096
 30
0.0
 10
12.0413767269
 20
9.3991534862
 30
0.0
  0
SPLINE
  5
3AE
100
AcDbEntity
  8
0
100
AcDbSpline
 62
7
  6
CONTINUOUS
 70
0
 71
3
 72
58
 73
54
 74
0
 42
0.0000001
 43
0.0000001
 44
0.0000000001
 40
0.0
 40
0.0
 40
0.0
 40
0.0
 40
0.0311036881
 40
0.0465905488
 40
0.0620239956
 40
0.0927288498
 40
0.1080185634
 40
0.1232684009
 40
0.1384815121
 40
0.1536613576
 40
0.1688121874
 40
0.1839387771
 40
0.1990460596
 40
0.2141392863
 40
0.2442942278
 40
0.2744567609
 40
0.2895594381
 40
0.3046798642
 40
0.3198230822
 40
0.334993731
 40
0.3654247619
 40
0.3960145868
 40
0.4113820902
 40
0.4267979847
 40
0.4422641616
 40
0.4577821839
 40
0.4889672415
 40
0.5203640478
 40
0.5361444902
 40
0.551974645
 40
0.5678524977
 40
0.58377545
 40
0.6157360994
 40
0.6478378676
 40
0.6639359765
 40
0.6800567845
 40
0.6961955629
 40
0.7123475841
 40
0.728507911
 40
0.7446714551
 40
0.7769797727
 40
0.793122956
 40
0.8092494136
 40
0.8253545969
 40
0.8414340341
 40
0.8574834655
 40
0.8734987676
 40
0.9054016335
 40
0.921291582
 40
0.9371359134
 40
0.9529341635
 40
0.9686840572
 40
1.0
 40
1.0
 40
1.0
 40
1.0
 10
12.0217808115
 20
9.3962252842
 30
0.0
 10
12.0217808115
 20
9.3898342044
 30
0.0
 10
12.0213105253
 20
9.3802519943
 30
0.0
 10
12.0197389373
 20
9.3676008015
 30
0.0
 10
12.0175490944
 20
9.3551246463
 30
0.0
 10
12.0144286442
 20
9.3428677809
 30
0.0
 10
12.0103969832
 20
9.3309423434
 30
0.0
 10
12.0069316955
 20
9.3221984787
 30
0.0
 10
12.0030303998
 20
9.3136653878
 30
0.0
 10
11.998701445
 20
9.3053638801
 30
0.0
 10
11.9939549908
 20
9.2973144358
 30
0.0
 10
11.9888036609
 20
9.289535824
 30
0.0
 10
11.9832590951
 20
9.2820468082
 30
0.0
 10
11.9753632915
 20
9.2724773562
 30
0.0
 10
11.964571268
 20
9.2613159144
 30
0.0
 10
11.9526627135
 20
9.2513514376
 30
0.0
 10
11.9425468871
 20
9.2441582333
 30
0.0
 10
11.9346733557
 20
9.2391598059
 30
0.0
 10
11.9265373168
 20
9.2345727464
 30
0.0
 10
11.9153564553
 20
9.2290140938
 30
0.0
 10
11.9008095569
 20
9.223147367
 30
0.0
 10
11.885699376
 20
9.2187930349
 30
0.0
 10
11.8733466118
 20
9.2162330184
 30
0.0
 10
11.8639516712
 20
9.2147753488
 30
0.0
 10
11.8544647081
 20
9.2137876524
 30
0.0
 10
11.8417044378
 20
9.213100404
 30
0.0
 10
11.825632389
 20
9.2134295138
 30
0.0
 10
11.8096167352
 20
9.2153335916
 30
0.0
 10
11.7969000746
 20
9.2177843675
 30
0.0
 10
11.7874144381
 20
9.2200891317
 30
0.0
 10
11.7780211982
 20
9.2228508551
 30
0.0
 10
11.7656363872
 20
9.2271372474
 30
0.0
 10
11.7505004669
 20
9.2336073134
 30
0.0
 10
11.736000569
 20
9.2414736419
 30
0.0
 10
11.7248451011
 20
9.2485681415
 30
0.0
 10
11.7167118569
 20
9.2542825529
 30
0.0
 10
11.7088412331
 20
9.2603714275
 30
0.0
 10
11.7012525501
 20
9.2668207574
 30
0.0
 10
11.6939630649
 20
9.2736142835
 30
0.0
 10
11.6846695996
 20
9.2831060113
 30
0.0
 10
11.6760404993
 20
9.2932256522
 30
0.0
 10
11.6681423048
 20
9.3038926205
 30
0.0
 10
11.6625990291
 20
9.3121478075
 30
0.0
 10
11.6574486732
 20
9.3206380329
 30
0.0
 10
11.6527028968
 20
9.3293428613
 30
0.0
 10
11.6483741814
 20
9.3382422626
 30
0.0
 10
11.6431798709
 20
9.3503200012
 30
0.0
 10
11.6388465768
 20
9.3627188188
 30
0.0
 10
11.6354187064
 20
9.3753413362
 30
0.0
 10
11.6333082329
 20
9.3848813362
 30
0.0
 10
11.6316613398
 20
9.394483211
 30
0.0
 10
11.6300931372
 20
9.4073080644
 30
0.0
 10
11.6296149027
 20
9.4169873891
 30
0.0
 10
11.6296149027
 20
9.4234220824
 30
0.0
  0
SPLINE
  5
3AF
100
AcDbEntity
  8
0
100
AcDbSpline
 62
7
  6
CONTINUOUS
 70
0
 71
3
 72
17
 73
13
 74
0
 42
0.0000001
 43
0.0000001
 44
0.0000000001
 40
0.0
 40
0.0
 40
0.0
 40
0.0
 40
0.1273148359
 40
0.1907080938
 40
0.253886694
 40
0.3795973721
 40
0.5046020162
 40
0.5668927094
 40
0.6290466736
 40
0.7529728785
 40
0.8765701029
 40
1.0
 40
1.0
 40
1.0
 40
1.0
 10
12.0413767269
 20
9.3991534862
 30
0.0
 10
12.0413767269
 20
9.3924099753
 30
0.0
 10
12.0408915863
 20
9.3822996308
 30
0.0
 10
12.0392699176
 20
9.3689462015
 30
0.0
 10
12.0370097459
 20
9.3557710949
 30
0.0
 10
12.0329914789
 20
9.3396082149
 30
0.0
 10
12.0273971005
 20
9.3239700582
 30
0.0
 10
12.0220179054
 20
9.3118965448
 30
0.0
 10
12.0160599487
 20
9.300162165
 30
0.0
 10
12.0075261415
 20
9.2861174576
 30
0.0
 10
11.9956399443
 20
9.2704319063
 30
0.0
 10
11.9866908358
 20
9.2608489232
 30
0.0
 10
11.9819884255
 20
9.2563069704
 30
0.0
  0
SPLINE
  5
3B0
100
AcDbEntity
  8
0
100
AcDbSpline
 62
7
  6
CONTINUOUS
 70
0
 71
3
 72
58
 73
54
 74
0
 42
0.0000001
 43
0.0000001
 44
0.0000000001
 40
0.0
 40
0.0
 40
0.0
 40
0.0
 40
0.0311036881
 40
0.0465905488
 40
0.0620239956
 40
0.0927288498
 40
0.1080185634
 40
0.1232684009
 40
0.1384815121
 40
0.1536613576
 40
0.1688121874
 40
0.1839387771
 40
0.1990460596
 40
0.2141392863
 40
0.2442942278
 40
0.2744567609
 40
0.2895594381
 40
0.3046798642
 40
0.3198230822
 40
0.334993731
 40
0.3654247619
 40
0.3960145868
 40
0.4113820902
 40
0.4267979847
 40
0.4422641616
 40
0.4577821839
 40
0.4889672415
 40
0.5203640478
 40
0.5361444902
 40
0.551974645
 40
0.5678524977
 40
0.58377545
 40
0.6157360994
 40
0.6478378676
 40
0.6639359765
 40
0.6800567845
 40
0.6961955629
 40
0.7123475841
 40
0.728507911
 40
0.7446714551
 40
0.7769797727
 40
0.793122956
 40
0.8092494136
 40
0.8253545969
 40
0.8414340341
 40
0.8574834655
 40
0.8734987676
 40
0.9054016335
 40
0.921291582
 40
0.9371359134
 40
0.9529341635
 40
0.9686840572
 40
1.0
 40
1.0
 40
1.0
 40
1.0
 10
11.6296149027
 20
9.4234220824
 30
0.0
 10
11.6296149027
 20
9.4298131622
 30
0.0
 10
11.6300851889
 20
9.4393953723
 30
0.0
 10
11.6316567769
 20
9.4520465651
 30
0.0
 10
11.6338466198
 20
9.4645227203
 30
0.0
 10
11.63696707
 20
9.4767795857
 30
0.0
 10
11.640998731
 20
9.4887050232
 30
0.0
 10
11.6444640187
 20
9.4974488879
 30
0.0
 10
11.6483653144
 20
9.5059819788
 30
0.0
 10
11.6526942692
 20
9.5142834865
 30
0.0
 10
11.6574407234
 20
9.5223329308
 30
0.0
 10
11.6625920533
 20
9.5301115426
 30
0.0
 10
11.6681366191
 20
9.5376005584
 30
0.0
 10
11.6760324226
 20
9.5471700104
 30
0.0
 10
11.6868244462
 20
9.5583314522
 30
0.0
 10
11.6987330007
 20
9.568295929
 30
0.0
 10
11.7088488271
 20
9.5754891332
 30
0.0
 10
11.7167223585
 20
9.5804875606
 30
0.0
 10
11.7248583974
 20
9.5850746202
 30
0.0
 10
11.7360392589
 20
9.5906332728
 30
0.0
 10
11.7505861573
 20
9.5964999996
 30
0.0
 10
11.7656963381
 20
9.6008543316
 30
0.0
 10
11.7780491024
 20
9.6034143481
 30
0.0
 10
11.787444043
 20
9.6048720177
 30
0.0
 10
11.7969310061
 20
9.6058597142
 30
0.0
 10
11.8096912764
 20
9.6065469626
 30
0.0
 10
11.8257633252
 20
9.6062178527
 30
0.0
 10
11.841778979
 20
9.604313775
 30
0.0
 10
11.8544956395
 20
9.6018629991
 30
0.0
 10
11.863981276
 20
9.5995582349
 30
0.0
 10
11.8733745159
 20
9.5967965115
 30
0.0
 10
11.885759327
 20
9.5925101192
 30
0.0
 10
11.9008952472
 20
9.5860400532
 30
0.0
 10
11.9153951452
 20
9.5781737247
 30
0.0
 10
11.9265506131
 20
9.5710792251
 30
0.0
 10
11.9346838573
 20
9.5653648137
 30
0.0
 10
11.942554481
 20
9.559275939
 30
0.0
 10
11.9501431641
 20
9.5528266092
 30
0.0
 10
11.9574326493
 20
9.546033083
 30
0.0
 10
11.9667261146
 20
9.5365413553
 30
0.0
 10
11.9753552149
 20
9.5264217144
 30
0.0
 10
11.9832534094
 20
9.5157547461
 30
0.0
 10
11.9887966851
 20
9.507499559
 30
0.0
 10
11.993947041
 20
9.4990093336
 30
0.0
 10
11.9986928174
 20
9.4903045052
 30
0.0
 10
12.0030215327
 20
9.4814051039
 30
0.0
 10
12.0082158433
 20
9.4693273654
 30
0.0
 10
12.0125491374
 20
9.4569285478
 30
0.0
 10
12.0159770078
 20
9.4443060304
 30
0.0
 10
12.0180874812
 20
9.4347660303
 30
0.0
 10
12.0197343744
 20
9.4251641555
 30
0.0
 10
12.021302577
 20
9.4123393022
 30
0.0
 10
12.0217808115
 20
9.4026599775
 30
0.0
 10
12.0217808115
 20
9.3962252842
 30
0.0
  0
SPLINE
  5
3B1
100
AcDbEntity
  8
0
100
AcDbSpline
 62
7
  6
CONTINUOUS
 70
0
 71
3
 72
23
 73
19
 74
0
 42
0.0000001
 43
0.0000001
 44
0.0000000001
 40
0.0
 40
0.0
 40
0.0
 40
0.0
 40
0.061523767
 40
0.1234381424
 40
0.1857112903
 40
0.2483007245
 40
0.3111517292
 40
0.3742007865
 40
0.4373781626
 40
0.5006079167
 40
0.5638158502
 40
0.6269263446
 40
0.6898666247
 40
0.7525623527
 40
0.8149613326
 40
0.877040031
 40
0.938757234
 40
1.0
 40
1.0
 40
1.0
 40
1.0
 10
11.890014781
 20
9.4130458831
 30
0.0
 10
11.8880632446
 20
9.4132264512
 30
0.0
 10
11.8841626908
 20
9.413777392
 30
0.0
 10
11.8784016823
 20
9.4151583634
 30
0.0
 10
11.8727617633
 20
9.4170808779
 30
0.0
 10
11.8672973242
 20
9.4195299107
 30
0.0
 10
11.8620577264
 20
9.4224795159
 30
0.0
 10
11.8570933047
 20
9.425904833
 30
0.0
 10
11.8524488196
 20
9.4297715917
 30
0.0
 10
11.8481687635
 20
9.4340454041
 30
0.0
 10
11.8442920868
 20
9.4386854194
 30
0.0
 10
11.8408555411
 20
9.4436490872
 30
0.0
 10
11.8378913079
 20
9.448889759
 30
0.0
 10
11.8354259278
 20
9.4543580656
 30
0.0
 10
11.8334839364
 20
9.4600044455
 30
0.0
 10
11.8320823468
 20
9.465776895
 30
0.0
 10
11.8312369449
 20
9.4716189112
 30
0.0
 10
11.8310456304
 20
9.4755383151
 30
0.0
 10
11.8310456304
 20
9.4774892359
 30
0.0
  0
SPLINE
  5
3B2
100
AcDbEntity
  8
0
100
AcDbSpline
 62
7
  6
CONTINUOUS
 70
0
 71
3
 72
27
 73
23
 74
0
 42
0.0000001
 43
0.0000001
 44
0.0000000001
 40
0.0
 40
0.0
 40
0.0
 40
0.0
 40
0.0749513226
 40
0.1510822497
 40
0.2276743313
 40
0.3041009266
 40
0.3797384522
 40
0.4539472472
 40
0.5261078116
 40
0.5956265633
 40
0.6619424684
 40
0.7245265323
 40
0.7829045181
 40
0.8366516071
 40
0.861681302
 40
0.885429661
 40
0.9078665
 40
0.9289726828
 40
0.9487355309
 40
0.9671504321
 40
0.9842288404
 40
1.0
 40
1.0
 40
1.0
 40
1.0
 10
12.2013734004
 20
10.547371008
 30
0.0
 10
12.2047532982
 20
10.5471366113
 30
0.0
 10
12.2115728313
 20
10.5467543412
 30
0.0
 10
12.2218604304
 20
10.5464357365
 30
0.0
 10
12.2322195028
 20
10.5463704078
 30
0.0
 10
12.2425547514
 20
10.5465582712
 30
0.0
 10
12.2527745726
 20
10.5469977045
 30
0.0
 10
12.2627875261
 20
10.54768461
 30
0.0
 10
12.2725032932
 20
10.5486127702
 30
0.0
 10
12.2818347067
 20
10.5497737818
 30
0.0
 10
12.2906981677
 20
10.5511565208
 30
0.0
 10
12.29901451
 20
10.5527488937
 30
0.0
 10
12.3067093529
 20
10.5545354026
 30
0.0
 10
12.3126816224
 20
10.5562103142
 30
0.0
 10
12.3170885267
 20
10.5576464678
 30
0.0
 10
12.3201181976
 20
10.5587361412
 30
0.0
 10
12.3229447255
 20
10.5598617355
 30
0.0
 10
12.3255620684
 20
10.561020497
 30
0.0
 10
12.3279645482
 20
10.5622097839
 30
0.0
 10
12.3301468022
 20
10.5634273423
 30
0.0
 10
12.3321040098
 20
10.5646704624
 30
0.0
 10
12.3333031869
 20
10.5655488271
 30
0.0
 10
12.3338606978
 20
10.5659931362
 30
0.0
  0
SPLINE
  5
3B3
100
AcDbEntity
  8
0
100
AcDbSpline
 62
7
  6
CONTINUOUS
 70
0
 71
3
 72
27
 73
23
 74
0
 42
0.0000001
 43
0.0000001
 44
0.0000000001
 40
0.0
 40
0.0
 40
0.0
 40
0.0
 40
0.0844727401
 40
0.1672976196
 40
0.2480934737
 40
0.3265423038
 40
0.4023654559
 40
0.4752906401
 40
0.5450530373
 40
0.61140255
 40
0.6741228228
 40
0.7330160091
 40
0.7879210958
 40
0.8387079153
 40
0.8625307061
 40
0.8852979512
 40
0.9070079818
 40
0.9276626526
 40
0.9472699484
 40
0.9658458177
 40
0.9834125539
 40
1.0
 40
1.0
 40
1.0
 40
1.0
 10
12.2984304622
 20
10.6411209362
 30
0.0
 10
12.3039245841
 20
10.6407399175
 30
0.0
 10
12.3147992176
 20
10.6398885546
 30
0.0
 10
12.3308995053
 20
10.638328211
 30
0.0
 10
12.3465765335
 20
10.6365013221
 30
0.0
 10
12.3617607446
 20
10.6344162249
 30
0.0
 10
12.3763893552
 20
10.6320818656
 30
0.0
 10
12.3904024207
 20
10.6295078205
 30
0.0
 10
12.4037413522
 20
10.6267057211
 30
0.0
 10
12.4163498773
 20
10.6236863592
 30
0.0
 10
12.4281753656
 20
10.6204638909
 30
0.0
 10
12.4391688405
 20
10.6170508915
 30
0.0
 10
12.4492847122
 20
10.6134626584
 30
0.0
 10
12.45710789
 20
10.6102743649
 30
0.0
 10
12.4628825176
 20
10.6076345419
 30
0.0
 10
12.4668758608
 20
10.6056626746
 30
0.0
 10
12.4706204528
 20
10.6036584972
 30
0.0
 10
12.4741122563
 20
10.6016238872
 30
0.0
 10
12.4773475831
 20
10.5995608062
 30
0.0
 10
12.4803234315
 20
10.5974714927
 30
0.0
 10
12.4830367739
 20
10.5953581226
 30
0.0
 10
12.4847159384
 20
10.5938933157
 30
0.0
 10
12.4855075882
 20
10.5931565616
 30
0.0
  0
SPLINE
  5
3B4
100
AcDbEntity
  8
0
100
AcDbSpline
 62
7
  6
CONTINUOUS
 70
0
 71
3
 72
21
 73
17
 74
0
 42
0.0000001
 43
0.0000001
 44
0.0000000001
 40
0.0
 40
0.0
 40
0.0
 40
0.0
 40
0.0341429687
 40
0.0723180841
 40
0.1146763036
 40
0.1612655187
 40
0.2120522808
 40
0.2669599432
 40
0.3258572853
 40
0.3885793367
 40
0.4549372658
 40
0.5247002389
 40
0.5976226907
 40
0.6734481982
 40
0.8327181803
 40
1.0
 40
1.0
 40
1.0
 40
1.0
 10
12.1242169593
 20
10.5671532425
 30
0.0
 10
12.1248889757
 20
10.5665278106
 30
0.0
 10
12.1263998983
 20
10.565296127
 30
0.0
 10
12.1289721933
 20
10.5635896484
 30
0.0
 10
12.1319638751
 20
10.5619302484
 30
0.0
 10
12.135362966
 20
10.5603245454
 30
0.0
 10
12.13915613
 20
10.5587781757
 30
0.0
 10
12.1433283105
 20
10.5572983719
 30
0.0
 10
12.1478623524
 20
10.555890829
 30
0.0
 10
12.152739621
 20
10.5545614817
 30
0.0
 10
12.1579398759
 20
10.5533165383
 30
0.0
 10
12.1634411028
 20
10.5521606489
 30
0.0
 10
12.1692202515
 20
10.5510990249
 30
0.0
 10
12.1773993302
 20
10.5497940267
 30
0.0
 10
12.1881369301
 20
10.5484430525
 30
0.0
 10
12.1968863551
 20
10.5476821856
 30
0.0
 10
12.2013734004
 20
10.547371008
 30
0.0
  0
SPLINE
  5
3B5
100
AcDbEntity
  8
0
100
AcDbSpline
 62
7
  6
CONTINUOUS
 70
0
 71
3
 72
12
 73
8
 74
0
 42
0.0000001
 43
0.0000001
 44
0.0000000001
 40
0.0
 40
0.0
 40
0.0
 40
0.0
 40
0.1083470297
 40
0.2222743354
 40
0.4652264043
 40
0.7254919759
 40
1.0
 40
1.0
 40
1.0
 40
1.0
 10
12.1332666064
 20
10.5613522046
 30
0.0
 10
12.1328915947
 20
10.5620309875
 30
0.0
 10
12.1321479318
 20
10.5634377985
 30
0.0
 10
12.1306825829
 20
10.5664282928
 30
0.0
 10
12.1288961068
 20
10.5704699434
 30
0.0
 10
12.1268378377
 20
10.5756428481
 30
0.0
 10
12.1255248801
 20
10.5792387368
 30
0.0
 10
12.1248706795
 20
10.581091399
 30
0.0
  0
SPLINE
  5
3B6
100
AcDbEntity
  8
0
100
AcDbSpline
 62
7
  6
CONTINUOUS
 70
0
 71
3
 72
31
 73
27
 74
0
 42
0.0000001
 43
0.0000001
 44
0.0000000001
 40
0.0
 40
0.0
 40
0.0
 40
0.0
 40
0.0148671859
 40
0.0310582622
 40
0.0486205571
 40
0.0675787103
 40
0.0879430739
 40
0.1097082394
 40
0.1328564996
 40
0.1573637938
 40
0.1831966261
 40
0.2103132594
 40
0.2386687581
 40
0.2682119105
 40
0.2988851523
 40
0.3306290929
 40
0.3633800485
 40
0.397069223
 40
0.4669773298
 40
0.5397584626
 40
0.6147818119
 40
0.691389773
 40
0.7689013484
 40
0.8466289366
 40
0.9239071349
 40
1.0
 40
1.0
 40
1.0
 40
1.0
 10
11.9739241349
 20
10.5931596035
 30
0.0
 10
11.9751326555
 20
10.5942842211
 30
0.0
 10
11.9777728412
 20
10.5965109988
 30
0.0
 10
11.9821643659
 20
10.5996586314
 30
0.0
 10
11.9871411107
 20
10.60274644
 30
0.0
 10
11.9926913509
 20
10.6057678362
 30
0.0
 10
11.9988031812
 20
10.6087155099
 30
0.0
 10
12.0054624288
 20
10.6115828779
 30
0.0
 10
12.0126535376
 20
10.614363669
 30
0.0
 10
12.0203599971
 20
10.6170506979
 30
0.0
 10
12.0285636872
 20
10.6196376715
 30
0.0
 10
12.0372451454
 20
10.6221188535
 30
0.0
 10
12.0463840324
 20
10.6244878154
 30
0.0
 10
12.0559587254
 20
10.6267388789
 30
0.0
 10
12.0659464187
 20
10.6288671027
 30
0.0
 10
12.0763235113
 20
10.6308669825
 30
0.0
 10
12.0870654205
 20
10.6327336673
 30
0.0
 10
12.1020249967
 20
10.6350683169
 30
0.0
 10
12.1214481594
 20
10.637607989
 30
0.0
 10
12.1455045258
 20
10.6400287772
 30
0.0
 10
12.170360724
 20
10.6418345428
 30
0.0
 10
12.1957803914
 20
10.6430080275
 30
0.0
 10
12.2215218505
 20
10.6435382362
 30
0.0
 10
12.2473429546
 20
10.6434196019
 30
0.0
 10
12.2729951845
 20
10.6426527868
 30
0.0
 10
12.2900013971
 20
10.6417054938
 30
0.0
 10
12.2984304622
 20
10.6411209362
 30
0.0
  0
SPLINE
  5
3B7
100
AcDbEntity
  8
0
100
AcDbSpline
 62
7
  6
CONTINUOUS
 70
0
 71
3
 72
15
 73
11
 74
0
 42
0.0000001
 43
0.0000001
 44
0.0000000001
 40
0.0
 40
0.0
 40
0.0
 40
0.0
 40
0.1492582953
 40
0.2896921235
 40
0.4220199565
 40
0.5471281248
 40
0.6660945356
 40
0.7802102316
 40
0.8909663823
 40
1.0
 40
1.0
 40
1.0
 40
1.0
 10
12.5009204627
 20
10.5788132627
 30
0.0
 10
12.5017473259
 20
10.5780438232
 30
0.0
 10
12.5033054871
 20
10.5764988713
 30
0.0
 10
12.5054032487
 20
10.5740867386
 30
0.0
 10
12.507185519
 20
10.5716552414
 30
0.0
 10
12.5086496252
 20
10.5692065605
 30
0.0
 10
12.5097925452
 20
10.5667427753
 30
0.0
 10
12.5106112086
 20
10.5642663576
 30
0.0
 10
12.511103719
 20
10.5617814713
 30
0.0
 10
12.5112137709
 20
10.5601162661
 30
0.0
 10
12.5112138548
 20
10.5592911729
 30
0.0
  0
SPLINE
  5
3B8
100
AcDbEntity
  8
0
100
AcDbSpline
 62
7
  6
CONTINUOUS
 70
0
 71
3
 72
15
 73
11
 74
0
 42
0.0000001
 43
0.0000001
 44
0.0000000001
 40
0.0
 40
0.0
 40
0.0
 40
0.0
 40
0.1090312127
 40
0.2197878998
 40
0.3339080497
 40
0.4528713587
 40
0.57796851
 40
0.7102941733
 40
0.8507385035
 40
1.0
 40
1.0
 40
1.0
 40
1.0
 10
11.9482142701
 20
10.5592911729
 30
0.0
 10
11.9482141862
 20
10.5601162569
 30
0.0
 10
11.9483238932
 20
10.5617815075
 30
0.0
 10
11.9488167982
 20
10.5642663961
 30
0.0
 10
11.9496360073
 20
10.5667426592
 30
0.0
 10
11.9507787075
 20
10.5692064673
 30
0.0
 10
11.9522422904
 20
10.5716553619
 30
0.0
 10
11.9540246046
 20
10.574086869
 30
0.0
 10
11.956122823
 20
10.5764987679
 30
0.0
 10
11.9576811312
 20
10.5780437377
 30
0.0
 10
11.9585079865
 20
10.5788132394
 30
0.0
  0
SPLINE
  5
3B9
100
AcDbEntity
  8
0
100
AcDbSpline
 62
7
  6
CONTINUOUS
 70
0
 71
3
 72
33
 73
29
 74
0
 42
0.0000001
 43
0.0000001
 44
0.0000000001
 40
0.0
 40
0.0
 40
0.0
 40
0.0
 40
0.0192515833
 40
0.0368821699
 40
0.0531237905
 40
0.0682840035
 40
0.0827532029
 40
0.0969869317
 40
0.1114633783
 40
0.1266373917
 40
0.1428981332
 40
0.1605519194
 40
0.179829714
 40
0.2008964686
 40
0.2238583309
 40
0.2487829695
 40
0.2757103772
 40
0.3046506675
 40
0.3355921753
 40
0.3685117893
 40
0.403374067
 40
0.4401263274
 40
0.519051069
 40
0.6047234833
 40
0.6964479347
 40
0.793475343
 40
0.894997834
 40
1.0
 40
1.0
 40
1.0
 40
1.0
 10
12.3352111653
 20
10.5671532426
 30
0.0
 10
12.3356730001
 20
10.567583062
 30
0.0
 10
12.3365212955
 20
10.5684475763
 30
0.0
 10
12.3375948283
 20
10.5698235529
 30
0.0
 10
12.3384069525
 20
10.571216724
 30
0.0
 10
12.3389525439
 20
10.5726251744
 30
0.0
 10
12.3392258004
 20
10.5740449397
 30
0.0
 10
12.3392236919
 20
10.5754687805
 30
0.0
 10
12.338946246
 20
10.5768884208
 30
0.0
 10
12.3383965273
 20
10.578296663
 30
0.0
 10
12.337580397
 20
10.5796895622
 30
0.0
 10
12.336502804
 20
10.5810653606
 30
0.0
 10
12.3351670939
 20
10.5824223065
 30
0.0
 10
12.3335765251
 20
10.5837582998
 30
0.0
 10
12.3317351731
 20
10.5850715199
 30
0.0
 10
12.3296470591
 20
10.5863593459
 30
0.0
 10
12.3273166211
 20
10.587618629
 30
0.0
 10
12.3247493784
 20
10.5888466841
 30
0.0
 10
12.3219515072
 20
10.5900408133
 30
0.0
 10
12.3189294974
 20
10.5911979735
 30
0.0
 10
12.3156904438
 20
10.5923151759
 30
0.0
 10
12.3109799362
 20
10.5937833048
 30
0.0
 10
12.3046014783
 20
10.5954849836
 30
0.0
 10
12.2963939534
 20
10.5972835468
 30
0.0
 10
12.2875390496
 20
10.5988665393
 30
0.0
 10
12.2781211538
 20
10.6002181024
 30
0.0
 10
12.2682335496
 20
10.6013238389
 30
0.0
 10
12.2614875461
 20
10.601882899
 30
0.0
 10
12.2580547245
 20
10.602120966
 30
0.0
  0
SPLINE
  5
3BA
100
AcDbEntity
  8
0
100
AcDbSpline
 62
7
  6
CONTINUOUS
 70
0
 71
3
 72
28
 73
24
 74
0
 42
0.0000001
 43
0.0000001
 44
0.0000000001
 40
0.0
 40
0.0
 40
0.0
 40
0.0
 40
0.0975846803
 40
0.1919096235
 40
0.282477881
 40
0.3687584312
 40
0.4501642595
 40
0.5261426986
 40
0.5961848299
 40
0.6598870243
 40
0.6893184406
 40
0.7171429874
 40
0.7680751082
 40
0.7913630965
 40
0.8133473464
 40
0.8341688923
 40
0.8539909875
 40
0.8730103259
 40
0.8914353127
 40
0.909471397
 40
0.9273145443
 40
0.9630919534
 40
1.0
 40
1.0
 40
1.0
 40
1.0
 10
12.3064647241
 20
10.593685011
 30
0.0
 10
12.3069211026
 20
10.5923925708
 30
0.0
 10
12.3078376202
 20
10.5898575015
 30
0.0
 10
12.3092548654
 20
10.5861513662
 30
0.0
 10
12.3106938275
 20
10.5826243979
 30
0.0
 10
12.3121541533
 20
10.5793033711
 30
0.0
 10
12.3136355369
 20
10.5762172707
 30
0.0
 10
12.3151371581
 20
10.5733965217
 30
0.0
 10
12.3166554618
 20
10.5708704199
 30
0.0
 10
12.3179661031
 20
10.5689871916
 30
0.0
 10
12.3190266474
 20
10.5676590573
 30
0.0
 10
12.3200315733
 20
10.5665188388
 30
0.0
 10
12.3210657104
 20
10.5655198328
 30
0.0
 10
12.3221339876
 20
10.5646905389
 30
0.0
 10
12.3229101774
 20
10.5641793782
 30
0.0
 10
12.323684665
 20
10.5637597831
 30
0.0
 10
12.3244570982
 20
10.5634313717
 30
0.0
 10
12.3252264987
 20
10.5631920502
 30
0.0
 10
12.3259920421
 20
10.5630389721
 30
0.0
 10
12.3267530655
 20
10.5629692934
 30
0.0
 10
12.3277610843
 20
10.5629834009
 30
0.0
 10
12.3290230896
 20
10.563197987
 30
0.0
 10
12.3299873304
 20
10.5635484091
 30
0.0
 10
12.3304606581
 20
10.5637598351
 30
0.0
  0
SPLINE
  5
3BB
100
AcDbEntity
  8
0
100
AcDbSpline
 62
7
  6
CONTINUOUS
 70
0
 71
3
 72
14
 73
10
 74
0
 42
0.0000001
 43
0.0000001
 44
0.0000000001
 40
0.0
 40
0.0
 40
0.0
 40
0.0
 40
0.2474709815
 40
0.3716912309
 40
0.4962775993
 40
0.6213302611
 40
0.7469294863
 40
0.8731693029
 40
1.0
 40
1.0
 40
1.0
 40
1.0
 10
12.3064647241
 20
10.593685011
 30
0.0
 10
12.3023765898
 20
10.591924457
 30
0.0
 10
12.2961332594
 20
10.5895038248
 30
0.0
 10
12.287596349
 20
10.5868852825
 30
0.0
 10
12.2810659279
 20
10.5852655795
 30
0.0
 10
12.2744235677
 20
10.5840441441
 30
0.0
 10
12.2676839448
 20
10.5832648028
 30
0.0
 10
12.2608734324
 20
10.5829732652
 30
0.0
 10
12.2563187939
 20
10.5831162932
 30
0.0
 10
12.2540430326
 20
10.5832741178
 30
0.0
  0
SPLINE
  5
3BC
100
AcDbEntity
  8
0
100
AcDbSpline
 62
7
  6
CONTINUOUS
 70
0
 71
3
 72
14
 73
10
 74
0
 42
0.0000001
 43
0.0000001
 44
0.0000000001
 40
0.0
 40
0.0
 40
0.0
 40
0.0
 40
0.1233101328
 40
0.247286606
 40
0.3717899772
 40
0.4967697517
 40
0.6221519979
 40
0.7478826686
 40
1.0
 40
1.0
 40
1.0
 40
1.0
 10
12.2540430326
 20
10.5832741178
 30
0.0
 10
12.2517554056
 20
10.5834327653
 30
0.0
 10
12.2471782161
 20
10.5839256612
 30
0.0
 10
12.2403703931
 20
10.5851637936
 30
0.0
 10
12.2336351389
 20
10.5868789162
 30
0.0
 10
12.2269972388
 20
10.5890218736
 30
0.0
 10
12.2204712783
 20
10.5915468693
 30
0.0
 10
12.2119206233
 20
10.5953569282
 30
0.0
 10
12.2056957145
 20
10.5986361789
 30
0.0
 10
12.2016213411
 20
10.6009559243
 30
0.0
  0
SPLINE
  5
3BD
100
AcDbEntity
  8
0
100
AcDbSpline
 62
7
  6
CONTINUOUS
 70
0
 71
3
 72
23
 73
19
 74
0
 42
0.0000001
 43
0.0000001
 44
0.0000000001
 40
0.0
 40
0.0
 40
0.0
 40
0.0
 40
0.1140670316
 40
0.1709933172
 40
0.2280153169
 40
0.2853691162
 40
0.34333191
 40
0.4022328677
 40
0.4623818571
 40
0.5240496366
 40
0.5873934082
 40
0.6197201999
 40
0.6524769331
 40
0.7192202027
 40
0.7875080673
 40
0.8571886069
 40
0.928076041
 40
1.0
 40
1.0
 40
1.0
 40
1.0
 10
12.1248706795
 20
10.581091399
 30
0.0
 10
12.1278472397
 20
10.5798287602
 30
0.0
 10
12.1324127584
 20
10.5781569664
 30
0.0
 10
12.1386800666
 20
10.5765586738
 30
0.0
 10
12.1434687411
 20
10.5757219461
 30
0.0
 10
12.1483419336
 20
10.5752984764
 30
0.0
 10
12.1532878555
 20
10.5753308342
 30
0.0
 10
12.1582855836
 20
10.5758617467
 30
0.0
 10
12.1633090355
 20
10.5769065104
 30
0.0
 10
12.1683262644
 20
10.5784731085
 30
0.0
 10
12.1724527666
 20
10.5801801857
 30
0.0
 10
12.1757261735
 20
10.5817746344
 30
0.0
 10
12.1790216714
 20
10.5835377616
 30
0.0
 10
12.1830923952
 20
10.5860047382
 30
0.0
 10
12.187863287
 20
10.5893128653
 30
0.0
 10
12.192548095
 20
10.5929360779
 30
0.0
 10
12.1971467989
 20
10.5968283764
 30
0.0
 10
12.2001372288
 20
10.5995581401
 30
0.0
 10
12.2016213411
 20
10.6009559243
 30
0.0
  0
SPLINE
  5
3BE
100
AcDbEntity
  8
0
100
AcDbSpline
 62
7
  6
CONTINUOUS
 70
0
 71
3
 72
39
 73
35
 74
0
 42
0.0000001
 43
0.0000001
 44
0.0000000001
 40
0.0
 40
0.0
 40
0.0
 40
0.0
 40
0.0911292516
 40
0.1837667519
 40
0.2763639314
 40
0.3674675361
 40
0.4556066029
 40
0.5393865197
 40
0.5792352345
 40
0.6175154807
 40
0.6540876753
 40
0.6888218315
 40
0.7215973523
 40
0.7523145176
 40
0.7808850724
 40
0.8072430943
 40
0.8313516336
 40
0.8531994502
 40
0.8728249643
 40
0.8903235161
 40
0.9058705204
 40
0.913006899
 40
0.9197785647
 40
0.9262454776
 40
0.9324780545
 40
0.9385566283
 40
0.9445680429
 40
0.9506020274
 40
0.9567473277
 40
0.9630879948
 40
0.9696996603
 40
0.9766474426
 40
0.9839862318
 40
1.0
 40
1.0
 40
1.0
 40
1.0
 10
12.2580547245
 20
10.602120966
 30
0.0
 10
12.2533564339
 20
10.6024467936
 30
0.0
 10
12.2438693137
 20
10.6029302203
 30
0.0
 10
12.2295861629
 20
10.6031676347
 30
0.0
 10
12.215304294
 20
10.6029216419
 30
0.0
 10
12.2012713195
 20
10.6021976483
 30
0.0
 10
12.1877274078
 20
10.6010078106
 30
0.0
 10
12.1768674741
 20
10.5996241524
 30
0.0
 10
12.1686067477
 20
10.5982876932
 30
0.0
 10
12.1627788241
 20
10.5972008171
 30
0.0
 10
12.157239606
 20
10.5960177504
 30
0.0
 10
12.1520128193
 20
10.594743845
 30
0.0
 10
12.1471209363
 20
10.593384073
 30
0.0
 10
12.142584699
 20
10.591945053
 30
0.0
 10
12.1384233349
 20
10.5904327238
 30
0.0
 10
12.1346543823
 20
10.588853357
 30
0.0
 10
12.1312930527
 20
10.5872143494
 30
0.0
 10
12.1283531292
 20
10.5855215187
 30
0.0
 10
12.1258455781
 20
10.583781312
 30
0.0
 10
12.1237798181
 20
10.5819998306
 30
0.0
 10
12.1223957725
 20
10.5804395697
 30
0.0
 10
12.1215412194
 20
10.5791774915
 30
0.0
 10
12.1210353317
 20
10.5782519762
 30
0.0
 10
12.1206471365
 20
10.5773214045
 30
0.0
 10
12.1203778573
 20
10.5763866852
 30
0.0
 10
12.1202281006
 20
10.5754492042
 30
0.0
 10
12.1201982083
 20
10.5745104914
 30
0.0
 10
12.1202882675
 20
10.5735721961
 30
0.0
 10
12.1204980321
 20
10.5726359157
 30
0.0
 10
12.1208271005
 20
10.5717031255
 30
0.0
 10
12.1212744834
 20
10.5707750099
 30
0.0
 10
12.1218390451
 20
10.5698523351
 30
0.0
 10
12.1227738827
 20
10.5685940943
 30
0.0
 10
12.1236111408
 20
10.5677170653
 30
0.0
 10
12.1242169593
 20
10.5671532425
 30
0.0
  0
SPLINE
  5
3BF
100
AcDbEntity
  8
0
100
AcDbSpline
 62
7
  6
CONTINUOUS
 70
0
 71
3
 72
49
 73
45
 74
0
 42
0.0000001
 43
0.0000001
 44
0.0000000001
 40
0.0
 40
0.0
 40
0.0
 40
0.0
 40
0.0082487065
 40
0.016024007
 40
0.023362819
 40
0.0303104283
 40
0.0369216606
 40
0.0432619541
 40
0.0494071691
 40
0.0554409996
 40
0.0614521248
 40
0.067530545
 40
0.0737631106
 40
0.0802294864
 40
0.0941202097
 40
0.1016716061
 40
0.1096789998
 40
0.1181743776
 40
0.1271830379
 40
0.1367247555
 40
0.1468135287
 40
0.1574582876
 40
0.1686648083
 40
0.1804363801
 40
0.1927738774
 40
0.2056746312
 40
0.2191340003
 40
0.2477024907
 40
0.2784181319
 40
0.3111925763
 40
0.3459248494
 40
0.3824951563
 40
0.4207743226
 40
0.4606204649
 40
0.5018826001
 40
0.5444022913
 40
0.5880121234
 40
0.6325410339
 40
0.723639792
 40
0.8162382684
 40
0.862637132
 40
0.9088622424
 40
0.9547220101
 40
1.0
 40
1.0
 40
1.0
 40
1.0
 10
12.4855075882
 20
10.5931565616
 30
0.0
 10
12.4862642659
 20
10.5924523545
 30
0.0
 10
12.4876926649
 20
10.5910385365
 30
0.0
 10
12.4896230742
 20
10.5888338975
 30
0.0
 10
12.491273888
 20
10.5866121063
 30
0.0
 10
12.4926428447
 20
10.5843750814
 30
0.0
 10
12.4937274778
 20
10.5821246143
 30
0.0
 10
12.4945250826
 20
10.5798628423
 30
0.0
 10
12.4950340474
 20
10.5775927456
 30
0.0
 10
12.4952528933
 20
10.5753177057
 30
0.0
 10
12.4951807161
 20
10.5730415773
 30
0.0
 10
12.4948172113
 20
10.5707685202
 30
0.0
 10
12.4941637838
 20
10.5685021763
 30
0.0
 10
12.492879225
 20
10.5654211762
 30
0.0
 10
12.4910197379
 20
10.5624292148
 30
0.0
 10
12.4886973405
 20
10.5595588673
 30
0.0
 10
12.4866278199
 20
10.5573631334
 30
0.0
 10
12.484282445
 20
10.5551877853
 30
0.0
 10
12.4816631855
 20
10.5530340974
 30
0.0
 10
12.4787726052
 20
10.5509045156
 30
0.0
 10
12.4756137224
 20
10.5488010424
 30
0.0
 10
12.4721901
 20
10.5467256138
 30
0.0
 10
12.4685053552
 20
10.5446803871
 30
0.0
 10
12.4645631987
 20
10.5426675556
 30
0.0
 10
12.4603676248
 20
10.5406894768
 30
0.0
 10
12.4559232551
 20
10.5387479983
 30
0.0
 10
12.4495446321
 20
10.5361592838
 30
0.0
 10
12.4409740004
 20
10.5330443581
 30
0.0
 10
12.4299753592
 20
10.5295552583
 30
0.0
 10
12.4181141187
 20
10.5262583775
 30
0.0
 10
12.4054409912
 20
10.5231694422
 30
0.0
 10
12.3920102493
 20
10.5203007653
 30
0.0
 10
12.3778795137
 20
10.5176658186
 30
0.0
 10
12.3631095871
 20
10.5152756156
 30
0.0
 10
12.3477640355
 20
10.5131407025
 30
0.0
 10
12.3319090584
 20
10.5112707353
 30
0.0
 10
12.3156129756
 20
10.5096731791
 30
0.0
 10
12.2932209513
 20
10.5079035488
 30
0.0
 10
12.2646529458
 20
10.5064295953
 30
0.0
 10
12.2358173836
 20
10.5059329581
 30
0.0
 10
12.2126065092
 20
10.5061228439
 30
0.0
 10
12.1952573668
 20
10.5065609349
 30
0.0
 10
12.1780588054
 20
10.5072926818
 30
0.0
 10
12.1666579742
 20
10.5079784939
 30
0.0
 10
12.1609976627
 20
10.5083710378
 30
0.0
  0
SPLINE
  5
3C0
100
AcDbEntity
  8
0
100
AcDbSpline
 62
7
  6
CONTINUOUS
 70
0
 71
3
 72
42
 73
38
 74
0
 42
0.0000001
 43
0.0000001
 44
0.0000000001
 40
0.0
 40
0.0
 40
0.0
 40
0.0
 40
0.1050109445
 40
0.2065076564
 40
0.2556278283
 40
0.303524602
 40
0.3500983951
 40
0.3952520198
 40
0.4388900488
 40
0.4809206484
 40
0.5212634179
 40
0.5598435332
 40
0.5965910039
 40
0.6314484839
 40
0.6643667264
 40
0.6953047746
 40
0.72423992
 40
0.7511642444
 40
0.7760863701
 40
0.7990445475
 40
0.8201077224
 40
0.8393829218
 40
0.857034535
 40
0.8732927285
 40
0.8809981564
 40
0.8884775627
 40
0.895782405
 40
0.9029680631
 40
0.9100928595
 40
0.9172167829
 40
0.9244000159
 40
0.9317011887
 40
0.9391756334
 40
0.9468744656
 40
0.96311483
 40
0.980746701
 40
1.0
 40
1.0
 40
1.0
 40
1.0
 10
12.1609976627
 20
10.5083710378
 30
0.0
 10
12.1526725731
 20
10.5089483848
 30
0.0
 10
12.1363153221
 20
10.5103036648
 30
0.0
 10
12.1161235601
 20
10.5125620195
 30
0.0
 10
12.1004909867
 20
10.5146861663
 30
0.0
 10
12.0892100571
 20
10.5164076467
 30
0.0
 10
12.0782713076
 20
10.5182710998
 30
0.0
 10
12.0677009866
 20
10.5202715924
 30
0.0
 10
12.0575250456
 20
10.5224040941
 30
0.0
 10
12.0477685849
 20
10.5246639369
 30
0.0
 10
12.0384552576
 20
10.5270451157
 30
0.0
 10
12.0296075226
 20
10.5295416147
 30
0.0
 10
12.0212468944
 20
10.5321479267
 30
0.0
 10
12.0133933825
 20
10.5348572258
 30
0.0
 10
12.0060657684
 20
10.5376626649
 30
0.0
 10
11.9992818552
 20
10.5405581501
 30
0.0
 10
11.9930575393
 20
10.5435362552
 30
0.0
 10
11.9874071779
 20
10.5465896407
 30
0.0
 10
11.9823442387
 20
10.5497121412
 30
0.0
 10
11.9778799317
 20
10.5528965353
 30
0.0
 10
11.9740238398
 20
10.5561360747
 30
0.0
 10
11.9707854471
 20
10.5594264804
 30
0.0
 10
11.9681730251
 20
10.562761835
 30
0.0
 10
11.9664950974
 20
10.5656270332
 30
0.0
 10
11.9654994138
 20
10.5679215805
 30
0.0
 10
11.9649276124
 20
10.5696172697
 30
0.0
 10
11.9645180438
 20
10.5713169218
 30
0.0
 10
11.9642711044
 20
10.5730193668
 30
0.0
 10
11.9641871518
 20
10.574723248
 30
0.0
 10
11.9642663968
 20
10.5764271692
 30
0.0
 10
11.9645089867
 20
10.5781296962
 30
0.0
 10
11.9649145674
 20
10.5798294107
 30
0.0
 10
11.9654823849
 20
10.5815251633
 30
0.0
 10
11.9664721386
 20
10.5838197088
 30
0.0
 10
11.9681420679
 20
10.5866856481
 30
0.0
 10
11.9707462853
 20
10.5900211205
 30
0.0
 10
11.9728040542
 20
10.5921172858
 30
0.0
 10
11.9739241349
 20
10.5931596035
 30
0.0
  0
SPLINE
  5
3C1
100
AcDbEntity
  8
0
100
AcDbSpline
 62
7
  6
CONTINUOUS
 70
0
 71
3
 72
22
 73
18
 74
0
 42
0.0000001
 43
0.0000001
 44
0.0000000001
 40
0.0
 40
0.0
 40
0.0
 40
0.0
 40
0.045807583
 40
0.0921449812
 40
0.1395227497
 40
0.1884135451
 40
0.2392430955
 40
0.2923861342
 40
0.3481663549
 40
0.4068531713
 40
0.4686651169
 40
0.5337808301
 40
0.602345401
 40
0.6744757489
 40
0.7502591024
 40
0.8297535207
 40
1.0
 40
1.0
 40
1.0
 40
1.0
 10
12.5112138548
 20
10.5592911729
 30
0.0
 10
12.5112139263
 20
10.5585873114
 30
0.0
 10
12.5111344339
 20
10.5571701812
 30
0.0
 10
12.5107767754
 20
10.5550522376
 30
0.0
 10
12.5101815364
 20
10.5529392025
 30
0.0
 10
12.5093502438
 20
10.5508335046
 30
0.0
 10
12.5082843207
 20
10.548736856
 30
0.0
 10
12.5069851093
 20
10.5466508646
 30
0.0
 10
12.5054537696
 20
10.5445771399
 30
0.0
 10
12.5036919178
 20
10.5425170919
 30
0.0
 10
12.5017014423
 20
10.5404719897
 30
0.0
 10
12.4994841023
 20
10.5384432876
 30
0.0
 10
12.4970416428
 20
10.5364324634
 30
0.0
 10
12.4943758297
 20
10.5344411808
 30
0.0
 10
12.4914887705
 20
10.5324709613
 30
0.0
 10
12.4872504076
 20
10.5298130971
 30
0.0
 10
12.4838912287
 20
10.5279504449
 30
0.0
 10
12.4815688298
 20
10.5267464472
 30
0.0
  0
SPLINE
  5
3C2
100
AcDbEntity
  8
0
100
AcDbSpline
 62
7
  6
CONTINUOUS
 70
0
 71
3
 72
22
 73
18
 74
0
 42
0.0000001
 43
0.0000001
 44
0.0000000001
 40
0.0
 40
0.0
 40
0.0
 40
0.0
 40
0.1706855305
 40
0.2503501086
 40
0.3262736171
 40
0.3985198609
 40
0.4671726626
 40
0.5323401761
 40
0.5941621046
 40
0.6528219489
 40
0.7085447578
 40
0.7616003583
 40
0.8123090398
 40
0.861046455
 40
0.9082468785
 40
0.9543923299
 40
1.0
 40
1.0
 40
1.0
 40
1.0
 10
11.9784710432
 20
10.5264313578
 30
0.0
 10
11.9761018682
 20
10.5276447485
 30
0.0
 10
11.9726746092
 20
10.5295222888
 30
0.0
 10
11.968349267
 20
10.5322038462
 30
0.0
 10
11.9654032471
 20
10.5341918953
 30
0.0
 10
11.962682495
 20
10.5362014759
 30
0.0
 10
11.960189228
 20
10.5382310595
 30
0.0
 10
11.9579256729
 20
10.5402790937
 30
0.0
 10
11.9558940112
 20
10.5423442548
 30
0.0
 10
11.9540958112
 20
10.5444248758
 30
0.0
 10
11.9525325067
 20
10.5465194452
 30
0.0
 10
11.9512056477
 20
10.548626519
 30
0.0
 10
11.9501169111
 20
10.5507446399
 30
0.0
 10
11.9492682606
 20
10.5528722869
 30
0.0
 10
11.9486609169
 20
10.5550075317
 30
0.0
 10
11.9482958347
 20
10.5571477662
 30
0.0
 10
11.9482143425
 20
10.5585799257
 30
0.0
 10
11.9482142701
 20
10.5592911729
 30
0.0
  0
SPLINE
  5
3C3
100
AcDbEntity
  8
0
100
AcDbSpline
 62
7
  6
CONTINUOUS
 70
0
 71
3
 72
50
 73
46
 74
0
 42
0.0000001
 43
0.0000001
 44
0.0000000001
 40
0.0
 40
0.0
 40
0.0
 40
0.0
 40
0.0481982083
 40
0.0958298701
 40
0.1428200524
 40
0.189098114
 40
0.2345932474
 40
0.2792369361
 40
0.3229623678
 40
0.3657048054
 40
0.4074017555
 40
0.4479931603
 40
0.4874216252
 40
0.5256326572
 40
0.5625749471
 40
0.5982006586
 40
0.6324657627
 40
0.6653304343
 40
0.6967595242
 40
0.7267231403
 40
0.7551973579
 40
0.7821650798
 40
0.795081438
 40
0.8076184763
 40
0.8197765388
 40
0.8315566783
 40
0.8429606516
 40
0.8539911544
 40
0.8646517245
 40
0.874947003
 40
0.8848827667
 40
0.8944660433
 40
0.903705364
 40
0.9126107643
 40
0.9211941226
 40
0.9294692285
 40
0.937452012
 40
0.9451607745
 40
0.9598349183
 40
0.966856766
 40
0.9737036278
 40
0.9804068575
 40
0.987000079
 40
0.9935188351
 40
1.0
 40
1.0
 40
1.0
 40
1.0
 10
10.7735335224
 20
10.3338426701
 30
0.0
 10
10.762070865
 20
10.334637608
 30
0.0
 10
10.739288937
 20
10.3363460977
 30
0.0
 10
10.7053676489
 20
10.3392837824
 30
0.0
 10
10.6719389619
 20
10.3425777184
 30
0.0
 10
10.6390590666
 20
10.3462222919
 30
0.0
 10
10.6067827224
 20
10.3502114368
 30
0.0
 10
10.5751639772
 20
10.3545384279
 30
0.0
 10
10.5442556558
 20
10.3591960028
 30
0.0
 10
10.5141094146
 20
10.3641763279
 30
0.0
 10
10.4847756196
 20
10.3694710297
 30
0.0
 10
10.4563032672
 20
10.3750712064
 30
0.0
 10
10.4287399014
 20
10.3809674417
 30
0.0
 10
10.4021315259
 20
10.3871498239
 30
0.0
 10
10.3765225193
 20
10.3936079522
 30
0.0
 10
10.3519555552
 20
10.4003309643
 30
0.0
 10
10.3284715313
 20
10.4073075577
 30
0.0
 10
10.3061094832
 20
10.4145260136
 30
0.0
 10
10.2849065421
 20
10.42197422
 30
0.0
 10
10.2648977246
 20
10.4296397197
 30
0.0
 10
10.2461162967
 20
10.4375096797
 30
0.0
 10
10.2313077841
 20
10.4443219256
 30
0.0
 10
10.2201116355
 20
10.449875046
 30
0.0
 10
10.2121615685
 20
10.454022859
 30
0.0
 10
10.204540771
 20
10.4582118531
 30
0.0
 10
10.1972523738
 20
10.4624403031
 30
0.0
 10
10.1902994209
 20
10.4667065127
 30
0.0
 10
10.1836847528
 20
10.4710086661
 30
0.0
 10
10.1774111261
 20
10.4753450609
 30
0.0
 10
10.1714811141
 20
10.479713908
 30
0.0
 10
10.165897152
 20
10.4841134355
 30
0.0
 10
10.160661576
 20
10.4885419284
 30
0.0
 10
10.1557765005
 20
10.4929975679
 30
0.0
 10
10.1512440143
 20
10.4974786648
 30
0.0
 10
10.1470659613
 20
10.5019834706
 30
0.0
 10
10.1432442038
 20
10.5065101364
 30
0.0
 10
10.1397801843
 20
10.511057437
 30
0.0
 10
10.1357083514
 20
10.5170454051
 30
0.0
 10
10.1322634235
 20
10.5231749073
 30
0.0
 10
10.1295340156
 20
10.5294127333
 30
0.0
 10
10.1278814007
 20
10.5340346411
 30
0.0
 10
10.1265947779
 20
10.538665602
 30
0.0
 10
10.1256750642
 20
10.5433038003
 30
0.0
 10
10.1251228823
 20
10.5479464962
 30
0.0
 10
10.1250000137
 20
10.5510469894
 30
0.0
 10
10.1250000079
 20
10.5525920636
 30
0.0
  0
SPLINE
  5
3C4
100
AcDbEntity
  8
0
100
AcDbSpline
 62
7
  6
CONTINUOUS
 70
0
 71
3
 72
39
 73
35
 74
0
 42
0.0000001
 43
0.0000001
 44
0.0000000001
 40
0.0
 40
0.0
 40
0.0
 40
0.0
 40
0.0958316692
 40
0.1891006713
 40
0.2792405779
 40
0.3229673496
 40
0.365711151
 40
0.4074094009
 40
0.44800203
 40
0.4874317177
 40
0.5256439125
 40
0.5625873001
 40
0.5982141024
 40
0.6324802019
 40
0.6653458058
 40
0.6967758253
 40
0.7267402733
 40
0.755215278
 40
0.7821837659
 40
0.8076364736
 40
0.8315736893
 40
0.8540068195
 40
0.8749607761
 40
0.8944773435
 40
0.9126188304
 40
0.9294730678
 40
0.9451592994
 40
0.9598338091
 40
0.9668558277
 40
0.9737028614
 40
0.9804062769
 40
0.9869996865
 40
0.993518631
 40
1.0
 40
1.0
 40
1.0
 40
1.0
 10
12.1427509351
 20
10.5004053102
 30
0.0
 10
12.1339994311
 20
10.501012229
 30
0.0
 10
12.1167430468
 20
10.5024023111
 30
0.0
 10
12.0913168728
 20
10.505055831
 30
0.0
 10
12.0706949396
 20
10.5077320084
 30
0.0
 10
12.0547078854
 20
10.510141039
 30
0.0
 10
12.0431316755
 20
10.5120535064
 30
0.0
 10
12.031867463
 20
10.5140866794
 30
0.0
 10
12.0209340475
 20
10.5162371705
 30
0.0
 10
12.0103496852
 20
10.518501334
 30
0.0
 10
12.0001320428
 20
10.5208753845
 30
0.0
 10
11.9902981625
 20
10.5233553279
 30
0.0
 10
11.9808644287
 20
10.5259369731
 30
0.0
 10
11.9718465522
 20
10.5286160063
 30
0.0
 10
11.9632595224
 20
10.5313879178
 30
0.0
 10
11.9551175824
 20
10.5342480389
 30
0.0
 10
11.9474342172
 20
10.5371916126
 30
0.0
 10
11.9402220939
 20
10.5402137084
 30
0.0
 10
11.9334930479
 20
10.5433092993
 30
0.0
 10
11.9272580749
 20
10.5464733299
 30
0.0
 10
11.9215272563
 20
10.5497006388
 30
0.0
 10
11.9163097743
 20
10.5529861027
 30
0.0
 10
11.9116139317
 20
10.5563247134
 30
0.0
 10
11.9074470964
 20
10.5597115837
 30
0.0
 10
11.9038158986
 20
10.5631420939
 30
0.0
 10
11.9007263381
 20
10.566612262
 30
0.0
 10
11.8981843837
 20
10.5701176421
 30
0.0
 10
11.8965030208
 20
10.5731092692
 30
0.0
 10
11.8954549382
 20
10.5755046866
 30
0.0
 10
11.8948203833
 20
10.5772794952
 30
0.0
 10
11.8943263466
 20
10.5790577945
 30
0.0
 10
11.8939732037
 20
10.5808388691
 30
0.0
 10
11.8937612288
 20
10.5826216758
 30
0.0
 10
11.8937140623
 20
10.583812268
 30
0.0
 10
11.8937140667
 20
10.5844055788
 30
0.0
  0
SPLINE
  5
3C5
100
AcDbEntity
  8
0
100
AcDbSpline
 62
7
  6
CONTINUOUS
 70
0
 71
3
 72
42
 73
38
 74
0
 42
0.0000001
 43
0.0000001
 44
0.0000000001
 40
0.0
 40
0.0
 40
0.0
 40
0.0
 40
0.0311444347
 40
0.0467772112
 40
0.0624471461
 40
0.093891844
 40
0.1254739796
 40
0.1571813629
 40
0.1889992234
 40
0.2209106216
 40
0.2528967716
 40
0.2849374315
 40
0.3170113014
 40
0.34909644
 40
0.3811706886
 40
0.4132120984
 40
0.4451993552
 40
0.4771121951
 40
0.5089318057
 40
0.5406412074
 40
0.572225607
 40
0.6036727182
 40
0.6349730419
 40
0.6661200987
 40
0.6971106068
 40
0.7279445994
 40
0.7586254742
 40
0.7891599701
 40
0.8195580671
 40
0.8498328085
 40
0.864931571
 40
0.8800056544
 40
0.910083706
 40
0.9400929707
 40
0.9550814956
 40
0.9700611828
 40
1.0
 40
1.0
 40
1.0
 40
1.0
 10
9.5014214602
 20
9.8344426511
 30
0.0
 10
9.5063983177
 20
9.8340975049
 30
0.0
 10
9.5138579797
 20
9.8333060795
 30
0.0
 10
9.5237352352
 20
9.8317156378
 30
0.0
 10
9.53359681
 20
9.8297630635
 30
0.0
 10
9.5458249922
 20
9.8266534104
 30
0.0
 10
9.5602424994
 20
9.8218803389
 30
0.0
 10
9.5743458898
 20
9.8160866435
 30
0.0
 10
9.5880595421
 20
9.8093033965
 30
0.0
 10
9.6013105056
 20
9.8015668278
 30
0.0
 10
9.614028143
 20
9.7929182503
 30
0.0
 10
9.6261447019
 20
9.7834038117
 30
0.0
 10
9.637595618
 20
9.7730742569
 30
0.0
 10
9.6483198693
 20
9.7619846581
 30
0.0
 10
9.6582602945
 20
9.7501941241
 30
0.0
 10
9.6673638955
 20
9.7377654883
 30
0.0
 10
9.6755821171
 20
9.7247649774
 30
0.0
 10
9.6828711038
 20
9.7112618622
 30
0.0
 10
9.6891919325
 20
9.697328093
 30
0.0
 10
9.694510819
 20
9.683037921
 30
0.0
 10
9.6987992985
 20
9.6684675072
 30
0.0
 10
9.7020343785
 20
9.6536945227
 30
0.0
 10
9.7041986635
 20
9.6387977399
 30
0.0
 10
9.7052804518
 20
9.623856617
 30
0.0
 10
9.7052738043
 20
9.608950884
 30
0.0
 10
9.7041785757
 20
9.5941601058
 30
0.0
 10
9.702000452
 20
9.5795633183
 30
0.0
 10
9.6987508219
 20
9.565238395
 30
0.0
 10
9.6944471257
 20
9.5512624207
 30
0.0
 10
9.6899963923
 20
9.5399566834
 30
0.0
 10
9.6859348828
 20
9.5311647234
 30
0.0
 10
9.6815517235
 20
9.5225639366
 30
0.0
 10
9.6754659705
 20
9.5121608369
 30
0.0
 10
9.6685974961
 20
9.502273633
 30
0.0
 10
9.6626621279
 20
9.4947161064
 30
0.0
 10
9.6564436287
 20
9.4874052564
 30
0.0
 10
9.6514615106
 20
9.4822005747
 30
0.0
 10
9.6480121772
 20
9.4788687947
 30
0.0
  0
SPLINE
  5
3C6
100
AcDbEntity
  8
0
100
AcDbSpline
 62
7
  6
CONTINUOUS
 70
0
 71
3
 72
42
 73
38
 74
0
 42
0.0000001
 43
0.0000001
 44
0.0000000001
 40
0.0
 40
0.0
 40
0.0
 40
0.0
 40
0.0311444347
 40
0.0467772112
 40
0.0624471461
 40
0.093891844
 40
0.1254739796
 40
0.1571813629
 40
0.1889992234
 40
0.2209106216
 40
0.2528967716
 40
0.2849374315
 40
0.3170113014
 40
0.34909644
 40
0.3811706886
 40
0.4132120984
 40
0.4451993552
 40
0.4771121951
 40
0.5089318057
 40
0.5406412074
 40
0.572225607
 40
0.6036727182
 40
0.6349730419
 40
0.6661200987
 40
0.6971106068
 40
0.7279445994
 40
0.7586254742
 40
0.7891599701
 40
0.8195580671
 40
0.8498328085
 40
0.864931571
 40
0.8800056544
 40
0.910083706
 40
0.9400929707
 40
0.9550814956
 40
0.9700611828
 40
1.0
 40
1.0
 40
1.0
 40
1.0
 10
9.5014214602
 20
7.1781464715
 30
0.0
 10
9.5063983177
 20
7.1778013252
 30
0.0
 10
9.5138579797
 20
7.1770098998
 30
0.0
 10
9.5237352352
 20
7.1754194581
 30
0.0
 10
9.53359681
 20
7.1734668839
 30
0.0
 10
9.5458249922
 20
7.1703572307
 30
0.0
 10
9.5602424994
 20
7.1655841592
 30
0.0
 10
9.5743458898
 20
7.1597904638
 30
0.0
 10
9.5880595421
 20
7.1530072168
 30
0.0
 10
9.6013105056
 20
7.1452706481
 30
0.0
 10
9.614028143
 20
7.1366220706
 30
0.0
 10
9.6261447019
 20
7.127107632
 30
0.0
 10
9.637595618
 20
7.1167780772
 30
0.0
 10
9.6483198693
 20
7.1056884784
 30
0.0
 10
9.6582602945
 20
7.0938979444
 30
0.0
 10
9.6673638955
 20
7.0814693087
 30
0.0
 10
9.6755821171
 20
7.0684687977
 30
0.0
 10
9.6828711038
 20
7.0549656825
 30
0.0
 10
9.6891919325
 20
7.0410319134
 30
0.0
 10
9.694510819
 20
7.0267417413
 30
0.0
 10
9.6987992985
 20
7.0121713275
 30
0.0
 10
9.7020343785
 20
6.997398343
 30
0.0
 10
9.7041986635
 20
6.9825015602
 30
0.0
 10
9.7052804518
 20
6.9675604373
 30
0.0
 10
9.7052738043
 20
6.9526547043
 30
0.0
 10
9.7041785757
 20
6.9378639261
 30
0.0
 10
9.702000452
 20
6.9232671386
 30
0.0
 10
9.6987508219
 20
6.9089422153
 30
0.0
 10
9.6944471257
 20
6.894966241
 30
0.0
 10
9.6899963923
 20
6.8836605037
 30
0.0
 10
9.6859348828
 20
6.8748685437
 30
0.0
 10
9.6815517235
 20
6.8662677569
 30
0.0
 10
9.6754659705
 20
6.8558646572
 30
0.0
 10
9.6685974961
 20
6.8459774533
 30
0.0
 10
9.6626621279
 20
6.8384199267
 30
0.0
 10
9.6564436287
 20
6.8311090767
 30
0.0
 10
9.6514615106
 20
6.825904395
 30
0.0
 10
9.6480121772
 20
6.822572615
 30
0.0
  0
SPLINE
  5
3C7
100
AcDbEntity
  8
0
100
AcDbSpline
 62
7
  6
CONTINUOUS
 70
0
 71
3
 72
40
 73
36
 74
0
 42
0.0000001
 43
0.0000001
 44
0.0000000001
 40
0.0
 40
0.0
 40
0.0
 40
0.0
 40
0.0311448352
 40
0.0467776712
 40
0.0624478163
 40
0.0938928931
 40
0.1254753683
 40
0.1571831038
 40
0.1890013145
 40
0.2209130644
 40
0.2528995674
 40
0.2849405815
 40
0.3170148072
 40
0.349100303
 40
0.3811749104
 40
0.4132166804
 40
0.4452042987
 40
0.4771175008
 40
0.5089374741
 40
0.5406472387
 40
0.5722320012
 40
0.6036794751
 40
0.6349801612
 40
0.6661275796
 40
0.6971184487
 40
0.7279528012
 40
0.7586340346
 40
0.7891688873
 40
0.8195673392
 40
0.849842433
 40
0.8800100174
 40
0.9100884154
 40
0.9400980228
 40
0.9700608475
 40
1.0
 40
1.0
 40
1.0
 40
1.0
 10
11.8254390383
 20
7.9771056157
 30
0.0
 10
11.831005555
 20
7.9767195765
 30
0.0
 10
11.8393490143
 20
7.9758343883
 30
0.0
 10
11.8503965063
 20
7.9740555181
 30
0.0
 10
11.8614264544
 20
7.9718716071
 30
0.0
 10
11.875103424
 20
7.9683935427
 30
0.0
 10
11.8912290994
 20
7.9630549768
 30
0.0
 10
11.9070034418
 20
7.9565748789
 30
0.0
 10
11.9223418753
 20
7.9489879908
 30
0.0
 10
11.9371628066
 20
7.9403348389
 30
0.0
 10
11.9513872299
 20
7.9306616284
 30
0.0
 10
11.9649393668
 20
7.9200199744
 30
0.0
 10
11.9777470036
 20
7.9084666327
 30
0.0
 10
11.9897418891
 20
7.8960631993
 30
0.0
 10
12.0008600897
 20
7.8828757849
 30
0.0
 10
12.0110423279
 20
7.8689746662
 30
0.0
 10
12.0202342954
 20
7.854433915
 30
0.0
 10
12.02838694
 20
7.8393310083
 30
0.0
 10
12.0354567271
 20
7.8237464204
 30
0.0
 10
12.0414058706
 20
7.8077631992
 30
0.0
 10
12.0462025334
 20
7.7914665286
 30
0.0
 10
12.049820999
 20
7.7749432812
 30
0.0
 10
12.0522418111
 20
7.7582815612
 30
0.0
 10
12.0534518816
 20
7.7415702406
 30
0.0
 10
12.053444566
 20
7.7248984918
 30
0.0
 10
12.0522197064
 20
7.7083553161
 30
0.0
 10
12.0497836415
 20
7.6920290729
 30
0.0
 10
12.0461491834
 20
7.6760070094
 30
0.0
 10
12.0413355582
 20
7.6603747928
 30
0.0
 10
12.0353683227
 20
7.6452160559
 30
0.0
 10
12.0282792093
 20
7.6306119158
 30
0.0
 10
12.0201060725
 20
7.6166406369
 30
0.0
 10
12.0108922944
 20
7.603376806
 30
0.0
 10
12.0006880426
 20
7.5908923851
 30
0.0
 10
11.9932580092
 20
7.5831303438
 30
0.0
 10
11.9894000258
 20
7.5794037978
 30
0.0
  0
SPLINE
  5
3C8
100
AcDbEntity
  8
0
100
AcDbSpline
 62
7
  6
CONTINUOUS
 70
0
 71
3
 72
40
 73
36
 74
0
 42
0.0000001
 43
0.0000001
 44
0.0000000001
 40
0.0
 40
0.0
 40
0.0
 40
0.0
 40
0.0311448352
 40
0.0467776712
 40
0.0624478163
 40
0.0938928931
 40
0.1254753683
 40
0.1571831038
 40
0.1890013145
 40
0.2209130644
 40
0.2528995674
 40
0.2849405815
 40
0.3170148072
 40
0.349100303
 40
0.3811749104
 40
0.4132166804
 40
0.4452042987
 40
0.4771175008
 40
0.5089374741
 40
0.5406472387
 40
0.5722320012
 40
0.6036794751
 40
0.6349801612
 40
0.6661275796
 40
0.6971184487
 40
0.7279528012
 40
0.7586340346
 40
0.7891688873
 40
0.8195673392
 40
0.849842433
 40
0.8800100174
 40
0.9100884154
 40
0.9400980228
 40
0.9700608475
 40
1.0
 40
1.0
 40
1.0
 40
1.0
 10
11.8254390383
 20
8.4900122774
 30
0.0
 10
11.831005555
 20
8.4896262381
 30
0.0
 10
11.8393490143
 20
8.48874105
 30
0.0
 10
11.8503965063
 20
8.4869621797
 30
0.0
 10
11.8614264544
 20
8.4847782688
 30
0.0
 10
11.875103424
 20
8.4813002043
 30
0.0
 10
11.8912290994
 20
8.4759616385
 30
0.0
 10
11.9070034418
 20
8.4694815405
 30
0.0
 10
11.9223418753
 20
8.4618946525
 30
0.0
 10
11.9371628066
 20
8.4532415005
 30
0.0
 10
11.9513872299
 20
8.4435682901
 30
0.0
 10
11.9649393668
 20
8.432926636
 30
0.0
 10
11.9777470036
 20
8.4213732944
 30
0.0
 10
11.9897418891
 20
8.408969861
 30
0.0
 10
12.0008600897
 20
8.3957824466
 30
0.0
 10
12.0110423279
 20
8.3818813279
 30
0.0
 10
12.0202342954
 20
8.3673405767
 30
0.0
 10
12.02838694
 20
8.3522376699
 30
0.0
 10
12.0354567271
 20
8.3366530821
 30
0.0
 10
12.0414058706
 20
8.3206698608
 30
0.0
 10
12.0462025334
 20
8.3043731903
 30
0.0
 10
12.049820999
 20
8.2878499429
 30
0.0
 10
12.0522418111
 20
8.2711882228
 30
0.0
 10
12.0534518816
 20
8.2544769023
 30
0.0
 10
12.053444566
 20
8.2378051534
 30
0.0
 10
12.0522197064
 20
8.2212619778
 30
0.0
 10
12.0497836415
 20
8.2049357345
 30
0.0
 10
12.0461491834
 20
8.1889136711
 30
0.0
 10
12.0413355582
 20
8.1732814544
 30
0.0
 10
12.0353683227
 20
8.1581227175
 30
0.0
 10
12.0282792093
 20
8.1435185775
 30
0.0
 10
12.0201060725
 20
8.1295472986
 30
0.0
 10
12.0108922944
 20
8.1162834677
 30
0.0
 10
12.0006880426
 20
8.1037990467
 30
0.0
 10
11.9932580092
 20
8.0960370054
 30
0.0
 10
11.9894000258
 20
8.0923104595
 30
0.0
  0
SPLINE
  5
3C9
100
AcDbEntity
  8
0
100
AcDbSpline
 62
7
  6
CONTINUOUS
 70
0
 71
3
 72
40
 73
36
 74
0
 42
0.0000001
 43
0.0000001
 44
0.0000000001
 40
0.0
 40
0.0
 40
0.0
 40
0.0
 40
0.0311448352
 40
0.0467776712
 40
0.0624478163
 40
0.0938928931
 40
0.1254753683
 40
0.1571831038
 40
0.1890013145
 40
0.2209130644
 40
0.2528995674
 40
0.2849405815
 40
0.3170148072
 40
0.349100303
 40
0.3811749104
 40
0.4132166804
 40
0.4452042987
 40
0.4771175008
 40
0.5089374741
 40
0.5406472387
 40
0.5722320012
 40
0.6036794751
 40
0.6349801612
 40
0.6661275796
 40
0.6971184487
 40
0.7279528012
 40
0.7586340346
 40
0.7891688873
 40
0.8195673392
 40
0.849842433
 40
0.8800100174
 40
0.9100884154
 40
0.9400980228
 40
0.9700608475
 40
1.0
 40
1.0
 40
1.0
 40
1.0
 10
11.8254390383
 20
9.637532192
 30
0.0
 10
11.831005555
 20
9.6371461527
 30
0.0
 10
11.8393490143
 20
9.6362609646
 30
0.0
 10
11.8503965063
 20
9.6344820944
 30
0.0
 10
11.8614264544
 20
9.6322981834
 30
0.0
 10
11.875103424
 20
9.6288201189
 30
0.0
 10
11.8912290994
 20
9.6234815531
 30
0.0
 10
11.9070034418
 20
9.6170014551
 30
0.0
 10
11.9223418753
 20
9.6094145671
 30
0.0
 10
11.9371628066
 20
9.6007614151
 30
0.0
 10
11.9513872299
 20
9.5910882047
 30
0.0
 10
11.9649393668
 20
9.5804465507
 30
0.0
 10
11.9777470036
 20
9.568893209
 30
0.0
 10
11.9897418891
 20
9.5564897756
 30
0.0
 10
12.0008600897
 20
9.5433023612
 30
0.0
 10
12.0110423279
 20
9.5294012425
 30
0.0
 10
12.0202342954
 20
9.5148604913
 30
0.0
 10
12.02838694
 20
9.4997575846
 30
0.0
 10
12.0354567271
 20
9.4841729967
 30
0.0
 10
12.0414058706
 20
9.4681897754
 30
0.0
 10
12.0462025334
 20
9.4518931049
 30
0.0
 10
12.049820999
 20
9.4353698575
 30
0.0
 10
12.0522418111
 20
9.4187081374
 30
0.0
 10
12.0534518816
 20
9.4019968169
 30
0.0
 10
12.053444566
 20
9.385325068
 30
0.0
 10
12.0522197064
 20
9.3687818924
 30
0.0
 10
12.0497836415
 20
9.3524556491
 30
0.0
 10
12.0461491834
 20
9.3364335857
 30
0.0
 10
12.0413355582
 20
9.320801369
 30
0.0
 10
12.0353683227
 20
9.3056426322
 30
0.0
 10
12.0282792093
 20
9.2910384921
 30
0.0
 10
12.0201060725
 20
9.2770672132
 30
0.0
 10
12.0108922944
 20
9.2638033823
 30
0.0
 10
12.0006880426
 20
9.2513189613
 30
0.0
 10
11.9932580092
 20
9.24355692
 30
0.0
 10
11.9894000258
 20
9.2398303741
 30
0.0
  0
SPLINE
  5
3CA
100
AcDbEntity
  8
0
100
AcDbSpline
 62
7
  6
CONTINUOUS
 70
0
 71
3
 72
57
 73
53
 74
0
 42
0.0000001
 43
0.0000001
 44
0.0000000001
 40
0.0
 40
0.0
 40
0.0
 40
0.0
 40
0.0027758556
 40
0.0055596162
 40
0.0083591163
 40
0.0111820474
 40
0.0169259367
 40
0.0228497814
 40
0.0290045027
 40
0.035434857
 40
0.0387662474
 40
0.0421804316
 40
0.0492712204
 40
0.0567352172
 40
0.0645942543
 40
0.0728658822
 40
0.0815638466
 40
0.0906987208
 40
0.1002782631
 40
0.1103078527
 40
0.1207908096
 40
0.1317286097
 40
0.1431212046
 40
0.1549670863
 40
0.1672635606
 40
0.1800067873
 40
0.1931919329
 40
0.2068132748
 40
0.2208642175
 40
0.2353374611
 40
0.2502249441
 40
0.2655180013
 40
0.2812073357
 40
0.2972830868
 40
0.3137348879
 40
0.3477220191
 40
0.3830769267
 40
0.4197005279
 40
0.4574878865
 40
0.4963288883
 40
0.5361088686
 40
0.5767092055
 40
0.6180078859
 40
0.6598800522
 40
0.7021985379
 40
0.7448343954
 40
0.7876574166
 40
0.8305366596
 40
0.8733409362
 40
0.9159394633
 40
0.9582018992
 40
1.0
 40
1.0
 40
1.0
 40
1.0
 10
11.8749999921
 20
10.5525929413
 30
0.0
 10
11.8749999961
 20
10.5515117789
 30
0.0
 10
11.8749400181
 20
10.5493458959
 30
0.0
 10
11.8746702815
 20
10.5460997619
 30
0.0
 10
11.8742207317
 20
10.5428549468
 30
0.0
 10
11.8733771898
 20
10.5385071824
 30
0.0
 10
11.8718600046
 20
10.5330594713
 30
0.0
 10
11.8693310922
 20
10.5265834538
 30
0.0
 10
11.8660876004
 20
10.5201345061
 30
0.0
 10
11.8628315609
 20
10.5148504035
 30
0.0
 10
11.8598891402
 20
10.5106446709
 30
0.0
 10
11.8566359303
 20
10.5063468466
 30
0.0
 10
11.852112763
 20
10.5009984198
 30
0.0
 10
11.8460554026
 20
10.4947047217
 30
0.0
 10
11.8393065145
 20
10.4884603832
 30
0.0
 10
11.8318717414
 20
10.4822702111
 30
0.0
 10
11.8237570254
 20
10.4761386214
 30
0.0
 10
11.8149688073
 20
10.4700703423
 30
0.0
 10
11.8055141062
 20
10.4640700242
 30
0.0
 10
11.7954004726
 20
10.4581423861
 30
0.0
 10
11.7846360026
 20
10.4522921717
 30
0.0
 10
11.7732293754
 20
10.4465240221
 30
0.0
 10
11.7611897735
 20
10.4408426643
 30
0.0
 10
11.7485269599
 20
10.4352526475
 30
0.0
 10
11.7352511921
 20
10.4297585743
 30
0.0
 10
11.7213732653
 20
10.4243649109
 30
0.0
 10
11.7069044755
 20
10.4190760668
 30
0.0
 10
11.691856609
 20
10.4138964079
 30
0.0
 10
11.6762419498
 20
10.4088301355
 30
0.0
 10
11.6600732393
 20
10.4038814641
 30
0.0
 10
11.6433636952
 20
10.3990544091
 30
0.0
 10
11.6261269731
 20
10.3943529686
 30
0.0
 10
11.6083771772
 20
10.3897810022
 30
0.0
 10
11.5901288111
 20
10.3853422249
 30
0.0
 10
11.5648788216
 20
10.3795435667
 30
0.0
 10
11.532173927
 20
10.3726714042
 30
0.0
 10
11.4915992282
 20
10.3650978913
 30
0.0
 10
11.4494144186
 20
10.3581358487
 30
0.0
 10
11.405757657
 20
10.3518082857
 30
0.0
 10
11.3607717304
 20
10.3461361424
 30
0.0
 10
11.3146039167
 20
10.3411381687
 30
0.0
 10
11.2674053881
 20
10.3368308831
 30
0.0
 10
11.2193307323
 20
10.3332285159
 30
0.0
 10
11.1705374302
 20
10.330342966
 30
0.0
 10
11.1211853372
 20
10.3281837628
 30
0.0
 10
11.0714361535
 20
10.3267580372
 30
0.0
 10
11.0214528896
 20
10.326070494
 30
0.0
 10
10.9713993327
 20
10.3261234032
 30
0.0
 10
10.9214394813
 20
10.3269165831
 30
0.0
 10
10.871737081
 20
10.3284474301
 30
0.0
 10
10.8224550394
 20
10.3307108598
 30
0.0
 10
10.7897743728
 20
10.3327163633
 30
0.0
 10
10.7735335224
 20
10.3338426701
 30
0.0
  0
SPLINE
  5
3CB
100
AcDbEntity
  8
0
100
AcDbSpline
 62
7
  6
CONTINUOUS
 70
0
 71
3
 72
50
 73
46
 74
0
 42
0.0000001
 43
0.0000001
 44
0.0000000001
 40
0.0
 40
0.0
 40
0.0
 40
0.0
 40
0.0055575475
 40
0.0111779905
 40
0.0169219494
 40
0.022845874
 40
0.0290006802
 40
0.0354311413
 40
0.0421756235
 40
0.0492665445
 40
0.0567306363
 40
0.0645898203
 40
0.072861554
 40
0.081559664
 40
0.0906946644
 40
0.1002743405
 40
0.1103040801
 40
0.1207871571
 40
0.1317251254
 40
0.1431178344
 40
0.1549638891
 40
0.1672604853
 40
0.1800038776
 40
0.1931891613
 40
0.2208606557
 40
0.2502207678
 40
0.2812026806
 40
0.3137298604
 40
0.3477172945
 40
0.3830725052
 40
0.4196964085
 40
0.4574840669
 40
0.4963253675
 40
0.5361056481
 40
0.5767062875
 40
0.6180052701
 40
0.6598777364
 40
0.7021965195
 40
0.744832668
 40
0.7876559879
 40
0.8305354945
 40
0.8733401402
 40
0.9159387341
 40
0.9582019299
 40
1.0
 40
1.0
 40
1.0
 40
1.0
 10
12.5657140582
 20
10.5844049129
 30
0.0
 10
12.5657140521
 20
10.5835737155
 30
0.0
 10
12.5656209452
 20
10.581900469
 30
0.0
 10
12.5652032436
 20
10.5793995309
 30
0.0
 10
12.5645081427
 20
10.5769041698
 30
0.0
 10
12.5635369895
 20
10.5744172895
 30
0.0
 10
12.562291423
 20
10.5719408819
 30
0.0
 10
12.5607730538
 20
10.569476886
 30
0.0
 10
12.5589836894
 20
10.5670269351
 30
0.0
 10
12.5569249999
 20
10.5645927513
 30
0.0
 10
12.5545989077
 20
10.5621758949
 30
0.0
 10
12.5520072911
 20
10.5597781237
 30
0.0
 10
12.5491523148
 20
10.5574010811
 30
0.0
 10
12.5460362216
 20
10.5550465795
 30
0.0
 10
12.5426615194
 20
10.5527163635
 30
0.0
 10
12.5390308852
 20
10.5504122519
 30
0.0
 10
12.5351472195
 20
10.5481360602
 30
0.0
 10
12.5310136442
 20
10.5458895729
 30
0.0
 10
12.5266334698
 20
10.5436746367
 30
0.0
 10
12.5220102491
 20
10.5414929839
 30
0.0
 10
12.517147704
 20
10.5393464508
 30
0.0
 10
12.5120497982
 20
10.5372367238
 30
0.0
 10
12.5067206524
 20
10.5351655654
 30
0.0
 10
12.4991908977
 20
10.5324132774
 30
0.0
 10
12.4892253541
 20
10.5290925603
 30
0.0
 10
12.4766033433
 20
10.525348755
 30
0.0
 10
12.4631735212
 20
10.5217969075
 30
0.0
 10
12.4489797162
 20
10.5184487535
 30
0.0
 10
12.434068117
 20
10.5153153883
 30
0.0
 10
12.4184874021
 20
10.5124071874
 30
0.0
 10
12.402288474
 20
10.5097337801
 30
0.0
 10
12.3855243051
 20
10.5073040137
 30
0.0
 10
12.3682497473
 20
10.505125926
 30
0.0
 10
12.3505213475
 20
10.5032067188
 30
0.0
 10
12.332397157
 20
10.5015527356
 30
0.0
 10
12.3139365368
 20
10.5001694403
 30
0.0
 10
12.2951999602
 20
10.4990614016
 30
0.0
 10
12.2762488116
 20
10.4982322784
 30
0.0
 10
12.2571451821
 20
10.4976848069
 30
0.0
 10
12.2379516718
 20
10.4974207965
 30
0.0
 10
12.2187311576
 20
10.4974411137
 30
0.0
 10
12.1995466608
 20
10.4977457015
 30
0.0
 10
12.1804609497
 20
10.4983335384
 30
0.0
 10
12.1615367154
 20
10.4992027049
 30
0.0
 10
12.1489873551
 20
10.499972813
 30
0.0
 10
12.1427509351
 20
10.5004053102
 30
0.0
  0
SPLINE
  5
3CC
100
AcDbEntity
  8
0
100
AcDbSpline
 62
7
  6
CONTINUOUS
 70
0
 71
3
 72
21
 73
17
 74
0
 42
0.0000001
 43
0.0000001
 44
0.0000000001
 40
0.0
 40
0.0
 40
0.0
 40
0.0
 40
0.06165322
 40
0.1233294719
 40
0.1850515326
 40
0.2468416528
 40
0.308721334
 40
0.3707110997
 40
0.4328302469
 40
0.4950966389
 40
0.5575265783
 40
0.620134583
 40
0.6829331586
 40
0.745933179
 40
0.8725262751
 40
1.0
 40
1.0
 40
1.0
 40
1.0
 10
9.3548307431
 20
9.7823957847
 30
0.0
 10
9.3571985878
 20
9.7846829332
 30
0.0
 10
9.3620592536
 20
9.7891315891
 30
0.0
 10
9.3696997814
 20
9.7954044107
 30
0.0
 10
9.3776721052
 20
9.8012625881
 30
0.0
 10
9.3859558539
 20
9.8066911104
 30
0.0
 10
9.3945301999
 20
9.8116764179
 30
0.0
 10
9.403373526
 20
9.8162059324
 30
0.0
 10
9.4124635711
 20
9.8202682246
 30
0.0
 10
9.4217774008
 20
9.8238531279
 30
0.0
 10
9.431291572
 20
9.8269516415
 30
0.0
 10
9.4409820569
 20
9.8295559307
 30
0.0
 10
9.4508247194
 20
9.8316595112
 30
0.0
 10
9.464136835
 20
9.8337928293
 30
0.0
 10
9.4810410987
 20
9.8351787887
 30
0.0
 10
9.4946311071
 20
9.8349135637
 30
0.0
 10
9.5014214602
 20
9.8344426511
 30
0.0
  0
SPLINE
  5
3CD
100
AcDbEntity
  8
0
100
AcDbSpline
 62
7
  6
CONTINUOUS
 70
0
 71
3
 72
21
 73
17
 74
0
 42
0.0000001
 43
0.0000001
 44
0.0000000001
 40
0.0
 40
0.0
 40
0.0
 40
0.0
 40
0.06165322
 40
0.1233294719
 40
0.1850515326
 40
0.2468416528
 40
0.308721334
 40
0.3707110997
 40
0.4328302469
 40
0.4950966389
 40
0.5575265783
 40
0.620134583
 40
0.6829331586
 40
0.745933179
 40
0.8725262751
 40
1.0
 40
1.0
 40
1.0
 40
1.0
 10
9.3548307431
 20
7.126099605
 30
0.0
 10
9.3571985878
 20
7.1283867535
 30
0.0
 10
9.3620592536
 20
7.1328354094
 30
0.0
 10
9.3696997814
 20
7.139108231
 30
0.0
 10
9.3776721052
 20
7.1449664084
 30
0.0
 10
9.3859558539
 20
7.1503949307
 30
0.0
 10
9.3945301999
 20
7.1553802383
 30
0.0
 10
9.403373526
 20
7.1599097528
 30
0.0
 10
9.4124635711
 20
7.1639720449
 30
0.0
 10
9.4217774008
 20
7.1675569482
 30
0.0
 10
9.431291572
 20
7.1706554618
 30
0.0
 10
9.4409820569
 20
7.173259751
 30
0.0
 10
9.4508247194
 20
7.1753633315
 30
0.0
 10
9.464136835
 20
7.1774966496
 30
0.0
 10
9.4810410987
 20
7.178882609
 30
0.0
 10
9.4946311071
 20
7.178617384
 30
0.0
 10
9.5014214602
 20
7.1781464715
 30
0.0
  0
SPLINE
  5
3CE
100
AcDbEntity
  8
0
100
AcDbSpline
 62
7
  6
CONTINUOUS
 70
0
 71
3
 72
57
 73
53
 74
0
 42
0.0000001
 43
0.0000001
 44
0.0000000001
 40
0.0
 40
0.0
 40
0.0
 40
0.0
 40
0.0075207525
 40
0.0156240325
 40
0.0243308614
 40
0.0336546301
 40
0.0436024271
 40
0.0541763765
 40
0.0653744283
 40
0.0771909745
 40
0.0896175297
 40
0.1026429528
 40
0.1162538654
 40
0.1304349454
 40
0.1451689843
 40
0.1604372353
 40
0.1762194622
 40
0.1924940453
 40
0.2092382131
 40
0.2264279957
 40
0.2620427487
 40
0.2991284251
 40
0.3374614636
 40
0.3768078207
 40
0.4169251328
 40
0.4575648304
 40
0.4984741812
 40
0.5393983111
 40
0.5800822305
 40
0.6202728557
 40
0.6597210261
 40
0.6981835546
 40
0.7354253343
 40
0.7712214718
 40
0.7885109206
 40
0.8053604621
 40
0.8217458644
 40
0.8376440784
 40
0.8530332192
 40
0.8678926933
 40
0.8822034212
 40
0.895947816
 40
0.9091100893
 40
0.9216764187
 40
0.9336350908
 40
0.9449769803
 40
0.9556957931
 40
0.9657885947
 40
0.9752564015
 40
0.9841051066
 40
0.9923469445
 40
1.0
 40
1.0
 40
1.0
 40
1.0
 10
12.8951067341
 20
8.2181589348
 30
0.0
 10
12.8942248584
 20
8.2192432387
 30
0.0
 10
12.892487259
 20
8.2215736191
 30
0.0
 10
12.8900420391
 20
8.2253804562
 30
0.0
 10
12.8876666027
 20
8.2296195719
 30
0.0
 10
12.8853647781
 20
8.2342840509
 30
0.0
 10
12.8831399941
 20
8.2393666155
 30
0.0
 10
12.8809958533
 20
8.2448591277
 30
0.0
 10
12.8789358505
 20
8.2507527342
 30
0.0
 10
12.8769633478
 20
8.2570378407
 30
0.0
 10
12.8750816611
 20
8.2637041771
 30
0.0
 10
12.8732939082
 20
8.2707407903
 30
0.0
 10
12.8716030733
 20
8.2781360888
 30
0.0
 10
12.8700120213
 20
8.2858778668
 30
0.0
 10
12.8685233858
 20
8.2939533187
 30
0.0
 10
12.867139685
 20
8.3023490748
 30
0.0
 10
12.8658632454
 20
8.3110512232
 30
0.0
 10
12.8646961907
 20
8.3200453283
 30
0.0
 10
12.8636404874
 20
8.3293164823
 30
0.0
 10
12.8623687623
 20
8.3421790105
 30
0.0
 10
12.8610802083
 20
8.3588365824
 30
0.0
 10
12.8600180802
 20
8.3794455839
 30
0.0
 10
12.8594299789
 20
8.4007672158
 30
0.0
 10
12.8593200078
 20
8.422659904
 30
0.0
 10
12.8596890905
 20
8.4449783937
 30
0.0
 10
12.8605348985
 20
8.4675745104
 30
0.0
 10
12.8618518959
 20
8.4902982265
 30
0.0
 10
12.8636313674
 20
8.5129986527
 30
0.0
 10
12.8658614692
 20
8.5355250575
 30
0.0
 10
12.8685273244
 20
8.5577278835
 30
0.0
 10
12.8716111226
 20
8.5794597358
 30
0.0
 10
12.8750922151
 20
8.6005764465
 30
0.0
 10
12.878947294
 20
8.6209378244
 30
0.0
 10
12.8824895987
 20
8.6373484059
 30
0.0
 10
12.885499483
 20
8.6499921345
 30
0.0
 10
12.887807592
 20
8.6590937938
 30
0.0
 10
12.8901886553
 20
8.6679091161
 30
0.0
 10
12.8926386994
 20
8.676423492
 30
0.0
 10
12.8951536343
 20
8.6846227998
 30
0.0
 10
12.8977292834
 20
8.6924934501
 30
0.0
 10
12.9003613163
 20
8.7000224195
 30
0.0
 10
12.9030453702
 20
8.7071972528
 30
0.0
 10
12.9057769642
 20
8.7140061068
 30
0.0
 10
12.9085515308
 20
8.7204377713
 30
0.0
 10
12.9113644995
 20
8.7264816683
 30
0.0
 10
12.9142111785
 20
8.7321279232
 30
0.0
 10
12.9170868953
 20
8.7373673474
 30
0.0
 10
12.9199869972
 20
8.7421914534
 30
0.0
 10
12.9229067388
 20
8.7465925213
 30
0.0
 10
12.9258417226
 20
8.7505637078
 30
0.0
 10
12.9287872072
 20
8.7540983764
 30
0.0
 10
12.9308288181
 20
8.7562375149
 30
0.0
 10
12.931851767
 20
8.7572256077
 30
0.0
  0
SPLINE
  5
3CF
100
AcDbEntity
  8
0
100
AcDbSpline
 62
7
  6
CONTINUOUS
 70
0
 71
3
 72
21
 73
17
 74
0
 42
0.0000001
 43
0.0000001
 44
0.0000000001
 40
0.0
 40
0.0
 40
0.0
 40
0.0
 40
0.0616532342
 40
0.1233294953
 40
0.1850515501
 40
0.2468416649
 40
0.3087213494
 40
0.3707111104
 40
0.4328302434
 40
0.4950966323
 40
0.5575265657
 40
0.6201345673
 40
0.682933156
 40
0.7459330948
 40
0.8725263949
 40
1.0
 40
1.0
 40
1.0
 40
1.0
 10
11.6614780507
 20
7.9188904166
 30
0.0
 10
11.6641264666
 20
7.9214486038
 30
0.0
 10
11.6695630179
 20
7.9264245221
 30
0.0
 10
11.6781088959
 20
7.9334407132
 30
0.0
 10
11.6870258628
 20
7.9399931567
 30
0.0
 10
11.6962911488
 20
7.9460650583
 30
0.0
 10
11.705881495
 20
7.9516411929
 30
0.0
 10
11.7157727157
 20
7.9567074899
 30
0.0
 10
11.7259398739
 20
7.9612512428
 30
0.0
 10
11.7363573447
 20
7.9652610289
 30
0.0
 10
11.7469989162
 20
7.9687267451
 30
0.0
 10
11.7578376935
 20
7.9716396834
 30
0.0
 10
11.7688466775
 20
7.9739925899
 30
0.0
 10
11.7837362552
 20
7.9763787528
 30
0.0
 10
11.8026436426
 20
7.9779289694
 30
0.0
 10
11.8178440479
 20
7.9776323301
 30
0.0
 10
11.8254390383
 20
7.9771056157
 30
0.0
  0
SPLINE
  5
3D0
100
AcDbEntity
  8
0
100
AcDbSpline
 62
7
  6
CONTINUOUS
 70
0
 71
3
 72
57
 73
53
 74
0
 42
0.0000001
 43
0.0000001
 44
0.0000000001
 40
0.0
 40
0.0
 40
0.0
 40
0.0
 40
0.0075207525
 40
0.0156240325
 40
0.0243308614
 40
0.0336546301
 40
0.0436024271
 40
0.0541763765
 40
0.0653744283
 40
0.0771909745
 40
0.0896175297
 40
0.1026429528
 40
0.1162538654
 40
0.1304349454
 40
0.1451689843
 40
0.1604372353
 40
0.1762194622
 40
0.1924940453
 40
0.2092382131
 40
0.2264279957
 40
0.2620427487
 40
0.2991284251
 40
0.3374614636
 40
0.3768078207
 40
0.4169251328
 40
0.4575648304
 40
0.4984741812
 40
0.5393983111
 40
0.5800822305
 40
0.6202728557
 40
0.6597210261
 40
0.6981835546
 40
0.7354253343
 40
0.7712214718
 40
0.7885109206
 40
0.8053604621
 40
0.8217458644
 40
0.8376440784
 40
0.8530332192
 40
0.8678926933
 40
0.8822034212
 40
0.895947816
 40
0.9091100893
 40
0.9216764187
 40
0.9336350908
 40
0.9449769803
 40
0.9556957931
 40
0.9657885947
 40
0.9752564015
 40
0.9841051066
 40
0.9923469445
 40
1.0
 40
1.0
 40
1.0
 40
1.0
 10
12.8951067341
 20
9.3656788494
 30
0.0
 10
12.8942248584
 20
9.3667631533
 30
0.0
 10
12.892487259
 20
9.3690935337
 30
0.0
 10
12.8900420391
 20
9.3729003709
 30
0.0
 10
12.8876666027
 20
9.3771394865
 30
0.0
 10
12.8853647781
 20
9.3818039655
 30
0.0
 10
12.8831399941
 20
9.3868865301
 30
0.0
 10
12.8809958533
 20
9.3923790423
 30
0.0
 10
12.8789358505
 20
9.3982726488
 30
0.0
 10
12.8769633478
 20
9.4045577553
 30
0.0
 10
12.8750816611
 20
9.4112240918
 30
0.0
 10
12.8732939082
 20
9.4182607049
 30
0.0
 10
12.8716030733
 20
9.4256560034
 30
0.0
 10
12.8700120213
 20
9.4333977815
 30
0.0
 10
12.8685233858
 20
9.4414732333
 30
0.0
 10
12.867139685
 20
9.4498689894
 30
0.0
 10
12.8658632454
 20
9.4585711378
 30
0.0
 10
12.8646961907
 20
9.467565243
 30
0.0
 10
12.8636404874
 20
9.4768363969
 30
0.0
 10
12.8623687623
 20
9.4896989251
 30
0.0
 10
12.8610802083
 20
9.506356497
 30
0.0
 10
12.8600180802
 20
9.5269654985
 30
0.0
 10
12.8594299789
 20
9.5482871304
 30
0.0
 10
12.8593200078
 20
9.5701798187
 30
0.0
 10
12.8596890905
 20
9.5924983083
 30
0.0
 10
12.8605348985
 20
9.615094425
 30
0.0
 10
12.8618518959
 20
9.6378181412
 30
0.0
 10
12.8636313674
 20
9.6605185673
 30
0.0
 10
12.8658614692
 20
9.6830449721
 30
0.0
 10
12.8685273244
 20
9.7052477981
 30
0.0
 10
12.8716111226
 20
9.7269796504
 30
0.0
 10
12.8750922151
 20
9.7480963611
 30
0.0
 10
12.878947294
 20
9.768457739
 30
0.0
 10
12.8824895987
 20
9.7848683205
 30
0.0
 10
12.885499483
 20
9.7975120491
 30
0.0
 10
12.887807592
 20
9.8066137084
 30
0.0
 10
12.8901886553
 20
9.8154290307
 30
0.0
 10
12.8926386994
 20
9.8239434066
 30
0.0
 10
12.8951536343
 20
9.8321427144
 30
0.0
 10
12.8977292834
 20
9.8400133647
 30
0.0
 10
12.9003613163
 20
9.8475423341
 30
0.0
 10
12.9030453702
 20
9.8547171674
 30
0.0
 10
12.9057769642
 20
9.8615260214
 30
0.0
 10
12.9085515308
 20
9.867957686
 30
0.0
 10
12.9113644995
 20
9.8740015829
 30
0.0
 10
12.9142111785
 20
9.8796478379
 30
0.0
 10
12.9170868953
 20
9.884887262
 30
0.0
 10
12.9199869972
 20
9.889711368
 30
0.0
 10
12.9229067388
 20
9.8941124359
 30
0.0
 10
12.9258417226
 20
9.8980836224
 30
0.0
 10
12.9287872072
 20
9.9016182911
 30
0.0
 10
12.9308288181
 20
9.9037574295
 30
0.0
 10
12.931851767
 20
9.9047455224
 30
0.0
  0
SPLINE
  5
3D1
100
AcDbEntity
  8
0
100
AcDbSpline
 62
7
  6
CONTINUOUS
 70
0
 71
3
 72
21
 73
17
 74
0
 42
0.0000001
 43
0.0000001
 44
0.0000000001
 40
0.0
 40
0.0
 40
0.0
 40
0.0
 40
0.0616532342
 40
0.1233294953
 40
0.1850515501
 40
0.2468416649
 40
0.3087213494
 40
0.3707111104
 40
0.4328302434
 40
0.4950966323
 40
0.5575265657
 40
0.6201345673
 40
0.682933156
 40
0.7459330948
 40
0.8725263949
 40
1.0
 40
1.0
 40
1.0
 40
1.0
 10
11.6614780507
 20
8.4317970782
 30
0.0
 10
11.6641264666
 20
8.4343552654
 30
0.0
 10
11.6695630179
 20
8.4393311837
 30
0.0
 10
11.6781088959
 20
8.4463473749
 30
0.0
 10
11.6870258628
 20
8.4528998183
 30
0.0
 10
11.6962911488
 20
8.45897172
 30
0.0
 10
11.705881495
 20
8.4645478545
 30
0.0
 10
11.7157727157
 20
8.4696141516
 30
0.0
 10
11.7259398739
 20
8.4741579044
 30
0.0
 10
11.7363573447
 20
8.4781676905
 30
0.0
 10
11.7469989162
 20
8.4816334067
 30
0.0
 10
11.7578376935
 20
8.4845463451
 30
0.0
 10
11.7688466775
 20
8.4868992515
 30
0.0
 10
11.7837362552
 20
8.4892854145
 30
0.0
 10
11.8026436426
 20
8.4908356311
 30
0.0
 10
11.8178440479
 20
8.4905389917
 30
0.0
 10
11.8254390383
 20
8.4900122774
 30
0.0
  0
SPLINE
  5
3D2
100
AcDbEntity
  8
0
100
AcDbSpline
 62
7
  6
CONTINUOUS
 70
0
 71
3
 72
21
 73
17
 74
0
 42
0.0000001
 43
0.0000001
 44
0.0000000001
 40
0.0
 40
0.0
 40
0.0
 40
0.0
 40
0.0616532342
 40
0.1233294953
 40
0.1850515501
 40
0.2468416649
 40
0.3087213494
 40
0.3707111104
 40
0.4328302434
 40
0.4950966323
 40
0.5575265657
 40
0.6201345673
 40
0.682933156
 40
0.7459330948
 40
0.8725263949
 40
1.0
 40
1.0
 40
1.0
 40
1.0
 10
11.6614780507
 20
9.5793169929
 30
0.0
 10
11.6641264666
 20
9.58187518
 30
0.0
 10
11.6695630179
 20
9.5868510983
 30
0.0
 10
11.6781088959
 20
9.5938672895
 30
0.0
 10
11.6870258628
 20
9.6004197329
 30
0.0
 10
11.6962911488
 20
9.6064916346
 30
0.0
 10
11.705881495
 20
9.6120677692
 30
0.0
 10
11.7157727157
 20
9.6171340662
 30
0.0
 10
11.7259398739
 20
9.621677819
 30
0.0
 10
11.7363573447
 20
9.6256876052
 30
0.0
 10
11.7469989162
 20
9.6291533213
 30
0.0
 10
11.7578376935
 20
9.6320662597
 30
0.0
 10
11.7688466775
 20
9.6344191662
 30
0.0
 10
11.7837362552
 20
9.6368053291
 30
0.0
 10
11.8026436426
 20
9.6383555457
 30
0.0
 10
11.8178440479
 20
9.6380589064
 30
0.0
 10
11.8254390383
 20
9.637532192
 30
0.0
  0
SPLINE
  5
3D3
100
AcDbEntity
  8
0
100
AcDbSpline
 62
7
  6
CONTINUOUS
 70
0
 71
3
 72
51
 73
47
 74
0
 42
0.0000001
 43
0.0000001
 44
0.0000000001
 40
0.0
 40
0.0
 40
0.0
 40
0.0
 40
0.008390176
 40
0.017343939
 40
0.0268687814
 40
0.036967263
 40
0.0476385416
 40
0.0588786695
 40
0.0706813399
 40
0.0830378111
 40
0.09593754
 40
0.1093681302
 40
0.1233157205
 40
0.1377649806
 40
0.1680999756
 40
0.2002281105
 40
0.2339872071
 40
0.2692015501
 40
0.305683929
 40
0.3432374803
 40
0.381657406
 40
0.4207326178
 40
0.4602473374
 40
0.4999826705
 40
0.5397181672
 40
0.5792333762
 40
0.6183093993
 40
0.6567304513
 40
0.6942854351
 40
0.7307695413
 40
0.7659858932
 40
0.799747265
 40
0.831877923
 40
0.8622156679
 40
0.8766663996
 40
0.8906154698
 40
0.9040476375
 40
0.916948914
 40
0.9293070456
 40
0.9411113151
 40
0.952353174
 40
0.9630260777
 40
0.9731262712
 40
0.982652784
 40
0.991608401
 40
1.0
 40
1.0
 40
1.0
 40
1.0
 10
12.8689586786
 20
8.2916885093
 30
0.0
 10
12.8696813778
 20
8.2925725007
 30
0.0
 10
12.8711211372
 20
8.2944445918
 30
0.0
 10
12.8732022985
 20
8.2974526239
 30
0.0
 10
12.8752716094
 20
8.3007467881
 30
0.0
 10
12.8773261254
 20
8.3043222454
 30
0.0
 10
12.8793628025
 20
8.3081739242
 30
0.0
 10
12.8813787351
 20
8.3122962005
 30
0.0
 10
12.8833709004
 20
8.3166831011
 30
0.0
 10
12.8853364128
 20
8.3213282024
 30
0.0
 10
12.8872723174
 20
8.326224707
 30
0.0
 10
12.8891757725
 20
8.3313654137
 30
0.0
 10
12.8910439579
 20
8.3367427679
 30
0.0
 10
12.893524432
 20
8.3443413125
 30
0.0
 10
12.8965061702
 20
8.3543767834
 30
0.0
 10
12.8998461271
 20
8.3670403218
 30
0.0
 10
12.9029834859
 20
8.3804383643
 30
0.0
 10
12.9058995068
 20
8.3944918366
 30
0.0
 10
12.9085767472
 20
8.4091178923
 30
0.0
 10
12.9109992268
 20
8.4242301664
 30
0.0
 10
12.9131525002
 20
8.4397393847
 30
0.0
 10
12.9150237449
 20
8.4555538852
 30
0.0
 10
12.9166018328
 20
8.471580178
 30
0.0
 10
12.9178773951
 20
8.4877235047
 30
0.0
 10
12.9188428767
 20
8.5038884068
 30
0.0
 10
12.9194925806
 20
8.5199792963
 30
0.0
 10
12.919822703
 20
8.5359010273
 30
0.0
 10
12.9198313572
 20
8.5515594666
 30
0.0
 10
12.9195185876
 20
8.5668620567
 30
0.0
 10
12.9188863751
 20
8.58171838
 30
0.0
 10
12.9179386233
 20
8.596040688
 30
0.0
 10
12.916681168
 20
8.6097445143
 30
0.0
 10
12.9151216556
 20
8.6227489496
 30
0.0
 10
12.9135540792
 20
8.6331009226
 30
0.0
 10
12.9121465235
 20
8.6409699647
 30
0.0
 10
12.9110386814
 20
8.6465543855
 30
0.0
 10
12.9098632699
 20
8.6519093165
 30
0.0
 10
12.9086219609
 20
8.6570268833
 30
0.0
 10
12.9073166745
 20
8.6618995657
 30
0.0
 10
12.9059492784
 20
8.6665202135
 30
0.0
 10
12.9045218793
 20
8.6708820787
 30
0.0
 10
12.9030364992
 20
8.6749788009
 30
0.0
 10
12.9014954059
 20
8.6788044488
 30
0.0
 10
12.8999007201
 20
8.6823535447
 30
0.0
 10
12.8982548794
 20
8.6856209016
 30
0.0
 10
12.8970873983
 20
8.6876743672
 30
0.0
 10
12.8964937187
 20
8.6886499295
 30
0.0
  0
SPLINE
  5
3D4
100
AcDbEntity
  8
0
100
AcDbSpline
 62
7
  6
CONTINUOUS
 70
0
 71
3
 72
39
 73
35
 74
0
 42
0.0000001
 43
0.0000001
 44
0.0000000001
 40
0.0
 40
0.0
 40
0.0
 40
0.0
 40
0.0958316692
 40
0.1891006713
 40
0.2792405779
 40
0.3229673496
 40
0.365711151
 40
0.4074094009
 40
0.44800203
 40
0.4874317177
 40
0.5256439125
 40
0.5625873001
 40
0.5982141024
 40
0.6324802019
 40
0.6653458058
 40
0.6967758253
 40
0.7267402733
 40
0.755215278
 40
0.7821837659
 40
0.8076364736
 40
0.8315736893
 40
0.8540068195
 40
0.8749607761
 40
0.8944773435
 40
0.9126188304
 40
0.9294730678
 40
0.9451592994
 40
0.9598338091
 40
0.9668558277
 40
0.9737028614
 40
0.9804062769
 40
0.9869996865
 40
0.993518631
 40
1.0
 40
1.0
 40
1.0
 40
1.0
 10
12.3166771898
 20
10.6684051815
 30
0.0
 10
12.3254286938
 20
10.6677982626
 30
0.0
 10
12.3426850781
 20
10.6664081805
 30
0.0
 10
12.3681112521
 20
10.6637546607
 30
0.0
 10
12.3887331853
 20
10.6610784833
 30
0.0
 10
12.4047202395
 20
10.6586694527
 30
0.0
 10
12.4162964494
 20
10.6567569853
 30
0.0
 10
12.4275606619
 20
10.6547238122
 30
0.0
 10
12.4384940774
 20
10.6525733212
 30
0.0
 10
12.4490784397
 20
10.6503091576
 30
0.0
 10
12.4592960821
 20
10.6479351072
 30
0.0
 10
12.4691299624
 20
10.6454551637
 30
0.0
 10
12.4785636962
 20
10.6428735186
 30
0.0
 10
12.4875815727
 20
10.6401944853
 30
0.0
 10
12.4961686025
 20
10.6374225738
 30
0.0
 10
12.5043105425
 20
10.6345624527
 30
0.0
 10
12.5119939077
 20
10.631618879
 30
0.0
 10
12.519206031
 20
10.6285967833
 30
0.0
 10
12.525935077
 20
10.6255011924
 30
0.0
 10
12.53217005
 20
10.6223371617
 30
0.0
 10
12.5379008686
 20
10.6191098529
 30
0.0
 10
12.5431183506
 20
10.6158243889
 30
0.0
 10
12.5478141932
 20
10.6124857783
 30
0.0
 10
12.5519810285
 20
10.609098908
 30
0.0
 10
12.5556122264
 20
10.6056683977
 30
0.0
 10
12.5587017868
 20
10.6021982297
 30
0.0
 10
12.5612437412
 20
10.5986928495
 30
0.0
 10
12.5629251041
 20
10.5957012224
 30
0.0
 10
12.5639731867
 20
10.593305805
 30
0.0
 10
12.5646077416
 20
10.5915309964
 30
0.0
 10
12.5651017783
 20
10.5897526971
 30
0.0
 10
12.5654549212
 20
10.5879716225
 30
0.0
 10
12.5656668961
 20
10.5861888159
 30
0.0
 10
12.5657140626
 20
10.5849982237
 30
0.0
 10
12.5657140582
 20
10.5844049129
 30
0.0
  0
SPLINE
  5
3D5
100
AcDbEntity
  8
0
100
AcDbSpline
 62
7
  6
CONTINUOUS
 70
0
 71
3
 72
32
 73
28
 74
0
 42
0.0000001
 43
0.0000001
 44
0.0000000001
 40
0.0
 40
0.0
 40
0.0
 40
0.0
 40
0.020762625
 40
0.0425552575
 40
0.0653597049
 40
0.0891539989
 40
0.1139128331
 40
0.1396079257
 40
0.1662083033
 40
0.1936805209
 40
0.2219888763
 40
0.2510956226
 40
0.2809611334
 40
0.3115440394
 40
0.3428013596
 40
0.3746886589
 40
0.4071601724
 40
0.440168916
 40
0.4736667877
 40
0.5076046997
 40
0.5765989694
 40
0.6467444427
 40
0.7176236938
 40
0.7888136157
 40
0.8598886854
 40
0.9304240904
 40
1.0
 40
1.0
 40
1.0
 40
1.0
 10
10.3339532136
 20
10.4057282313
 30
0.0
 10
10.3395614885
 20
10.4080876088
 30
0.0
 10
10.351136106
 20
10.4127352437
 30
0.0
 10
10.3691110556
 20
10.4193560232
 30
0.0
 10
10.3880954974
 20
10.425786114
 30
0.0
 10
10.4080590264
 20
10.4320151046
 30
0.0
 10
10.4289699468
 20
10.4380330135
 30
0.0
 10
10.4507949166
 20
10.4438301481
 30
0.0
 10
10.4734991277
 20
10.4493971688
 30
0.0
 10
10.4970463213
 20
10.4547251103
 30
0.0
 10
10.5213988632
 20
10.4598054005
 30
0.0
 10
10.546517816
 20
10.4646298579
 30
0.0
 10
10.5723630067
 20
10.4691907089
 30
0.0
 10
10.5988930832
 20
10.4734806057
 30
0.0
 10
10.6260655813
 20
10.4774926521
 30
0.0
 10
10.6538370009
 20
10.4812203913
 30
0.0
 10
10.6821628853
 20
10.4846578238
 30
0.0
 10
10.71099787
 20
10.4877994028
 30
0.0
 10
10.7402958153
 20
10.4906401137
 30
0.0
 10
10.7801317959
 20
10.4940388831
 30
0.0
 10
10.8307379117
 20
10.4974928905
 30
0.0
 10
10.8922205395
 20
10.5003562
 30
0.0
 10
10.9543930636
 20
10.5019415621
 30
0.0
 10
11.0168573722
 20
10.5022387114
 30
0.0
 10
11.0792138412
 20
10.5012457349
 30
0.0
 10
11.1410631308
 20
10.4989690705
 30
0.0
 10
11.1820563932
 20
10.4965842992
 30
0.0
 10
11.2023963262
 20
10.4951737201
 30
0.0
  0
SPLINE
  5
3D6
100
AcDbEntity
  8
0
100
AcDbSpline
 62
7
  6
CONTINUOUS
 70
0
 71
3
 72
42
 73
38
 74
0
 42
0.0000001
 43
0.0000001
 44
0.0000000001
 40
0.0
 40
0.0
 40
0.0
 40
0.0
 40
0.0311444347
 40
0.0467772112
 40
0.0624471461
 40
0.093891844
 40
0.1254739796
 40
0.1571813629
 40
0.1889992234
 40
0.2209106216
 40
0.2528967716
 40
0.2849374315
 40
0.3170113014
 40
0.34909644
 40
0.3811706886
 40
0.4132120984
 40
0.4451993552
 40
0.4771121951
 40
0.5089318057
 40
0.5406412074
 40
0.572225607
 40
0.6036727182
 40
0.6349730419
 40
0.6661200987
 40
0.6971106068
 40
0.7279445994
 40
0.7586254742
 40
0.7891599701
 40
0.8195580671
 40
0.8498328085
 40
0.864931571
 40
0.8800056544
 40
0.910083706
 40
0.9400929707
 40
0.9550814956
 40
0.9700611828
 40
1.0
 40
1.0
 40
1.0
 40
1.0
 10
9.5014214602
 20
9.4268219283
 30
0.0
 10
9.4964446026
 20
9.4271670745
 30
0.0
 10
9.4889849406
 20
9.4279584999
 30
0.0
 10
9.4791076851
 20
9.4295489416
 30
0.0
 10
9.4692461103
 20
9.4315015159
 30
0.0
 10
9.4570179281
 20
9.434611169
 30
0.0
 10
9.4426004209
 20
9.4393842405
 30
0.0
 10
9.4284970305
 20
9.4451779359
 30
0.0
 10
9.4147833782
 20
9.4519611829
 30
0.0
 10
9.4015324147
 20
9.4596977516
 30
0.0
 10
9.3888147773
 20
9.4683463292
 30
0.0
 10
9.3766982184
 20
9.4778607678
 30
0.0
 10
9.3652473023
 20
9.4881903226
 30
0.0
 10
9.354523051
 20
9.4992799213
 30
0.0
 10
9.3445826258
 20
9.5110704553
 30
0.0
 10
9.3354790248
 20
9.5234990911
 30
0.0
 10
9.3272608032
 20
9.536499602
 30
0.0
 10
9.3199718165
 20
9.5500027172
 30
0.0
 10
9.3136509878
 20
9.5639364864
 30
0.0
 10
9.3083321013
 20
9.5782266585
 30
0.0
 10
9.3040436218
 20
9.5927970722
 30
0.0
 10
9.3008085419
 20
9.6075700567
 30
0.0
 10
9.2986442568
 20
9.6224668396
 30
0.0
 10
9.2975624685
 20
9.6374079624
 30
0.0
 10
9.297569116
 20
9.6523136954
 30
0.0
 10
9.2986643446
 20
9.6671044737
 30
0.0
 10
9.3008424683
 20
9.6817012612
 30
0.0
 10
9.3040920984
 20
9.6960261845
 30
0.0
 10
9.3083957946
 20
9.7100021588
 30
0.0
 10
9.312846528
 20
9.721307896
 30
0.0
 10
9.3169080376
 20
9.7300998561
 30
0.0
 10
9.3212911968
 20
9.7387006428
 30
0.0
 10
9.3273769498
 20
9.7491037425
 30
0.0
 10
9.3342454242
 20
9.7589909464
 30
0.0
 10
9.3401807924
 20
9.7665484731
 30
0.0
 10
9.3463992916
 20
9.773859323
 30
0.0
 10
9.3513814097
 20
9.7790640048
 30
0.0
 10
9.3548307431
 20
9.7823957847
 30
0.0
  0
SPLINE
  5
3D7
100
AcDbEntity
  8
0
100
AcDbSpline
 62
7
  6
CONTINUOUS
 70
0
 71
3
 72
42
 73
38
 74
0
 42
0.0000001
 43
0.0000001
 44
0.0000000001
 40
0.0
 40
0.0
 40
0.0
 40
0.0
 40
0.0311444347
 40
0.0467772112
 40
0.0624471461
 40
0.093891844
 40
0.1254739796
 40
0.1571813629
 40
0.1889992234
 40
0.2209106216
 40
0.2528967716
 40
0.2849374315
 40
0.3170113014
 40
0.34909644
 40
0.3811706886
 40
0.4132120984
 40
0.4451993552
 40
0.4771121951
 40
0.5089318057
 40
0.5406412074
 40
0.572225607
 40
0.6036727182
 40
0.6349730419
 40
0.6661200987
 40
0.6971106068
 40
0.7279445994
 40
0.7586254742
 40
0.7891599701
 40
0.8195580671
 40
0.8498328085
 40
0.864931571
 40
0.8800056544
 40
0.910083706
 40
0.9400929707
 40
0.9550814956
 40
0.9700611828
 40
1.0
 40
1.0
 40
1.0
 40
1.0
 10
9.5014214602
 20
6.7705257486
 30
0.0
 10
9.4964446026
 20
6.7708708948
 30
0.0
 10
9.4889849406
 20
6.7716623202
 30
0.0
 10
9.4791076851
 20
6.773252762
 30
0.0
 10
9.4692461103
 20
6.7752053362
 30
0.0
 10
9.4570179281
 20
6.7783149894
 30
0.0
 10
9.4426004209
 20
6.7830880608
 30
0.0
 10
9.4284970305
 20
6.7888817562
 30
0.0
 10
9.4147833782
 20
6.7956650032
 30
0.0
 10
9.4015324147
 20
6.8034015719
 30
0.0
 10
9.3888147773
 20
6.8120501495
 30
0.0
 10
9.3766982184
 20
6.8215645881
 30
0.0
 10
9.3652473023
 20
6.8318941429
 30
0.0
 10
9.354523051
 20
6.8429837416
 30
0.0
 10
9.3445826258
 20
6.8547742756
 30
0.0
 10
9.3354790248
 20
6.8672029114
 30
0.0
 10
9.3272608032
 20
6.8802034223
 30
0.0
 10
9.3199718165
 20
6.8937065375
 30
0.0
 10
9.3136509878
 20
6.9076403067
 30
0.0
 10
9.3083321013
 20
6.9219304788
 30
0.0
 10
9.3040436218
 20
6.9365008925
 30
0.0
 10
9.3008085419
 20
6.951273877
 30
0.0
 10
9.2986442568
 20
6.9661706599
 30
0.0
 10
9.2975624685
 20
6.9811117827
 30
0.0
 10
9.297569116
 20
6.9960175157
 30
0.0
 10
9.2986643446
 20
7.010808294
 30
0.0
 10
9.3008424683
 20
7.0254050815
 30
0.0
 10
9.3040920984
 20
7.0397300048
 30
0.0
 10
9.3083957946
 20
7.0537059791
 30
0.0
 10
9.312846528
 20
7.0650117163
 30
0.0
 10
9.3169080376
 20
7.0738036764
 30
0.0
 10
9.3212911968
 20
7.0824044631
 30
0.0
 10
9.3273769498
 20
7.0928075628
 30
0.0
 10
9.3342454242
 20
7.1026947667
 30
0.0
 10
9.3401807924
 20
7.1102522934
 30
0.0
 10
9.3463992916
 20
7.1175631433
 30
0.0
 10
9.3513814097
 20
7.1227678251
 30
0.0
 10
9.3548307431
 20
7.126099605
 30
0.0
  0
SPLINE
  5
3D8
100
AcDbEntity
  8
0
100
AcDbSpline
 62
7
  6
CONTINUOUS
 70
0
 71
3
 72
57
 73
53
 74
0
 42
0.0000001
 43
0.0000001
 44
0.0000000001
 40
0.0
 40
0.0
 40
0.0
 40
0.0
 40
0.0027758556
 40
0.0055596162
 40
0.0083591163
 40
0.0111820474
 40
0.0169259367
 40
0.0228497814
 40
0.0290045027
 40
0.035434857
 40
0.0387662474
 40
0.0421804316
 40
0.0492712204
 40
0.0567352172
 40
0.0645942543
 40
0.0728658822
 40
0.0815638466
 40
0.0906987208
 40
0.1002782631
 40
0.1103078527
 40
0.1207908096
 40
0.1317286097
 40
0.1431212046
 40
0.1549670863
 40
0.1672635606
 40
0.1800067873
 40
0.1931919329
 40
0.2068132748
 40
0.2208642175
 40
0.2353374611
 40
0.2502249441
 40
0.2655180013
 40
0.2812073357
 40
0.2972830868
 40
0.3137348879
 40
0.3477220191
 40
0.3830769267
 40
0.4197005279
 40
0.4574878865
 40
0.4963288883
 40
0.5361088686
 40
0.5767092055
 40
0.6180078859
 40
0.6598800522
 40
0.7021985379
 40
0.7448343954
 40
0.7876574166
 40
0.8305366596
 40
0.8733409362
 40
0.9159394633
 40
0.9582018992
 40
1.0
 40
1.0
 40
1.0
 40
1.0
 10
10.1250000079
 20
10.5525920636
 30
0.0
 10
10.1250000039
 20
10.553673226
 30
0.0
 10
10.1250599819
 20
10.555839109
 30
0.0
 10
10.1253297185
 20
10.5590852431
 30
0.0
 10
10.1257792683
 20
10.5623300582
 30
0.0
 10
10.1266228102
 20
10.5666778226
 30
0.0
 10
10.1281399954
 20
10.5721255336
 30
0.0
 10
10.1306689078
 20
10.5786015512
 30
0.0
 10
10.1339123996
 20
10.5850504988
 30
0.0
 10
10.1371684391
 20
10.5903346015
 30
0.0
 10
10.1401108598
 20
10.594540334
 30
0.0
 10
10.1433640697
 20
10.5988381583
 30
0.0
 10
10.147887237
 20
10.6041865852
 30
0.0
 10
10.1539445974
 20
10.6104802832
 30
0.0
 10
10.1606934855
 20
10.6167246218
 30
0.0
 10
10.1681282586
 20
10.6229147939
 30
0.0
 10
10.1762429746
 20
10.6290463836
 30
0.0
 10
10.1850311927
 20
10.6351146627
 30
0.0
 10
10.1944858938
 20
10.6411149807
 30
0.0
 10
10.2045995274
 20
10.6470426188
 30
0.0
 10
10.2153639974
 20
10.6528928333
 30
0.0
 10
10.2267706246
 20
10.6586609829
 30
0.0
 10
10.2388102265
 20
10.6643423407
 30
0.0
 10
10.2514730401
 20
10.6699323575
 30
0.0
 10
10.2647488079
 20
10.6754264307
 30
0.0
 10
10.2786267347
 20
10.6808200941
 30
0.0
 10
10.2930955245
 20
10.6861089382
 30
0.0
 10
10.308143391
 20
10.691288597
 30
0.0
 10
10.3237580502
 20
10.6963548695
 30
0.0
 10
10.3399267607
 20
10.7013035409
 30
0.0
 10
10.3566363048
 20
10.7061305959
 30
0.0
 10
10.3738730269
 20
10.7108320364
 30
0.0
 10
10.3916228228
 20
10.7154040028
 30
0.0
 10
10.4098711889
 20
10.7198427801
 30
0.0
 10
10.4351211784
 20
10.7256414382
 30
0.0
 10
10.467826073
 20
10.7325136008
 30
0.0
 10
10.5084007718
 20
10.7400871137
 30
0.0
 10
10.5505855814
 20
10.7470491563
 30
0.0
 10
10.594242343
 20
10.7533767193
 30
0.0
 10
10.6392282696
 20
10.7590488625
 30
0.0
 10
10.6853960833
 20
10.7640468363
 30
0.0
 10
10.7325946119
 20
10.7683541219
 30
0.0
 10
10.7806692677
 20
10.7719564891
 30
0.0
 10
10.8294625698
 20
10.7748420389
 30
0.0
 10
10.8788146628
 20
10.7770012422
 30
0.0
 10
10.9285638465
 20
10.7784269678
 30
0.0
 10
10.9785471104
 20
10.779114511
 30
0.0
 10
11.0286006673
 20
10.7790616018
 30
0.0
 10
11.0785605187
 20
10.7782684219
 30
0.0
 10
11.128262919
 20
10.7767375749
 30
0.0
 10
11.1775449606
 20
10.7744741452
 30
0.0
 10
11.2102256272
 20
10.7724686417
 30
0.0
 10
11.2264664776
 20
10.7713423349
 30
0.0
  0
SPLINE
  5
3D9
100
AcDbEntity
  8
0
100
AcDbSpline
 62
7
  6
CONTINUOUS
 70
0
 71
3
 72
46
 73
42
 74
0
 42
0.0000001
 43
0.0000001
 44
0.0000000001
 40
0.0
 40
0.0
 40
0.0
 40
0.0
 40
0.0079974583
 40
0.0163143029
 40
0.0249542346
 40
0.0339199585
 40
0.0432131618
 40
0.0528347323
 40
0.0627847561
 40
0.0730626471
 40
0.083667194
 40
0.0945965952
 40
0.1058485646
 40
0.1174202832
 40
0.1293085537
 40
0.1415096947
 40
0.1668336208
 40
0.1933563577
 40
0.2210364767
 40
0.2498280618
 40
0.2796811753
 40
0.3105422525
 40
0.3423544481
 40
0.3750579431
 40
0.4085902249
 40
0.4428863461
 40
0.4778791685
 40
0.5134995946
 40
0.549676791
 40
0.5863384053
 40
0.6234107788
 40
0.6608191552
 40
0.6984878874
 40
0.7363406423
 40
0.7743006009
 40
0.8122906722
 40
0.8502336589
 40
0.8880525685
 40
0.9256705115
 40
0.9630116462
 40
1.0
 40
1.0
 40
1.0
 40
1.0
 10
10.1748690436
 20
10.4772700815
 30
0.0
 10
10.1771793428
 20
10.4789645385
 30
0.0
 10
10.181954937
 20
10.4823362639
 30
0.0
 10
10.1894238265
 20
10.4872516111
 30
0.0
 10
10.1973334006
 20
10.4921205159
 30
0.0
 10
10.2056793334
 20
10.4969402211
 30
0.0
 10
10.2144571533
 20
10.5017082444
 30
0.0
 10
10.2236621508
 20
10.5064219681
 30
0.0
 10
10.2332893591
 20
10.5110788861
 30
0.0
 10
10.2433335893
 20
10.5156764692
 30
0.0
 10
10.2537894172
 20
10.5202122204
 30
0.0
 10
10.264651183
 20
10.5246837037
 30
0.0
 10
10.2759130165
 20
10.5290884508
 30
0.0
 10
10.2875688027
 20
10.5334241123
 30
0.0
 10
10.2996122468
 20
10.5376882975
 30
0.0
 10
10.3163867216
 20
10.5433457114
 30
0.0
 10
10.338284975
 20
10.5502075557
 30
0.0
 10
10.3656855291
 20
10.558022133
 30
0.0
 10
10.3944654512
 20
10.5654986856
 30
0.0
 10
10.4245622168
 20
10.5726208425
 30
0.0
 10
10.4559106291
 20
10.5793729866
 30
0.0
 10
10.4884426374
 20
10.5857403174
 30
0.0
 10
10.5220875936
 20
10.5917088784
 30
0.0
 10
10.5567723877
 20
10.5972655905
 30
0.0
 10
10.5924216214
 20
10.6023982798
 30
0.0
 10
10.6289577761
 20
10.6070957044
 30
0.0
 10
10.6663013855
 20
10.6113475781
 30
0.0
 10
10.7043712125
 20
10.6151445922
 30
0.0
 10
10.7430844281
 20
10.6184784356
 30
0.0
 10
10.7823567941
 20
10.6213418128
 30
0.0
 10
10.822102848
 20
10.6237284588
 30
0.0
 10
10.8622360912
 20
10.6256331526
 30
0.0
 10
10.9026691785
 20
10.6270517278
 30
0.0
 10
10.9433141083
 20
10.6279810813
 30
0.0
 10
10.9840824187
 20
10.6284191813
 30
0.0
 10
11.0248853698
 20
10.6283650675
 30
0.0
 10
11.0656341707
 20
10.6278188632
 30
0.0
 10
11.1062400803
 20
10.6267817533
 30
0.0
 10
11.1466148365
 20
10.6252560208
 30
0.0
 10
11.186670367
 20
10.6232449855
 30
0.0
 10
11.2132472078
 20
10.6215746566
 30
0.0
 10
11.2264664776
 20
10.6206578971
 30
0.0
  0
SPLINE
  5
3DA
100
AcDbEntity
  8
0
100
AcDbSpline
 62
7
  6
CONTINUOUS
 70
0
 71
3
 72
34
 73
30
 74
0
 42
0.0000001
 43
0.0000001
 44
0.0000000001
 40
0.0
 40
0.0
 40
0.0
 40
0.0
 40
0.0194433486
 40
0.0400104425
 40
0.0616885475
 40
0.0844595075
 40
0.1083004609
 40
0.1331844017
 40
0.1590806356
 40
0.185955174
 40
0.2137710542
 40
0.2424886106
 40
0.27206571
 40
0.3024579527
 40
0.3336188736
 40
0.3655001229
 40
0.3980516291
 40
0.4312217521
 40
0.4649574256
 40
0.4992042994
 40
0.5339068861
 40
0.5690086954
 40
0.6044523658
 40
0.6401797932
 40
0.7122494675
 40
0.7847440833
 40
0.8571852327
 40
0.9290948608
 40
1.0
 40
1.0
 40
1.0
 40
1.0
 10
10.300676354
 20
10.4165589826
 30
0.0
 10
10.3060166792
 20
10.4191727901
 30
0.0
 10
10.3171176848
 20
10.4243253092
 30
0.0
 10
10.3345036186
 20
10.4316537524
 30
0.0
 10
10.3530646631
 20
10.4387874903
 30
0.0
 10
10.3727680752
 20
10.445713769
 30
0.0
 10
10.3935795102
 20
10.4524203691
 30
0.0
 10
10.4154624308
 20
10.4588953715
 30
0.0
 10
10.4383783794
 20
10.4651272777
 30
0.0
 10
10.4622870105
 20
10.4711050042
 30
0.0
 10
10.4871461912
 20
10.4768179166
 30
0.0
 10
10.5129120781
 20
10.4822558489
 30
0.0
 10
10.5395391984
 20
10.4874091216
 30
0.0
 10
10.5669805308
 20
10.4922685707
 30
0.0
 10
10.5951875968
 20
10.4968255553
 30
0.0
 10
10.6241105528
 20
10.5010719719
 30
0.0
 10
10.6536982814
 20
10.5050002699
 30
0.0
 10
10.683898481
 20
10.5086034626
 30
0.0
 10
10.7146577572
 20
10.511875145
 30
0.0
 10
10.7459217175
 20
10.5148095066
 30
0.0
 10
10.7776350773
 20
10.5174013365
 30
0.0
 10
10.8097417392
 20
10.5196460222
 30
0.0
 10
10.8421849684
 20
10.521539604
 30
0.0
 10
10.8859396559
 20
10.5235974838
 30
0.0
 10
10.94105159
 20
10.5252656203
 30
0.0
 10
11.0074134408
 20
10.5258252575
 30
0.0
 10
11.0737231535
 20
10.5249442197
 30
0.0
 10
11.1395116265
 20
10.5226289237
 30
0.0
 10
11.1831158471
 20
10.5201171143
 30
0.0
 10
11.2047463209
 20
10.5186170358
 30
0.0
  0
SPLINE
  5
3DB
100
AcDbEntity
  8
0
100
AcDbSpline
 62
7
  6
CONTINUOUS
 70
0
 71
3
 72
23
 73
19
 74
0
 42
0.0000001
 43
0.0000001
 44
0.0000000001
 40
0.0
 40
0.0
 40
0.0
 40
0.0
 40
0.0457507553
 40
0.0941635233
 40
0.1451791973
 40
0.1987256571
 40
0.2547194082
 40
0.3130668966
 40
0.3736655876
 40
0.436404876
 40
0.5011668776
 40
0.5678271164
 40
0.6362551771
 40
0.7063151902
 40
0.7778666583
 40
0.8507641414
 40
0.9248597914
 40
1.0
 40
1.0
 40
1.0
 40
1.0
 10
11.665953289
 20
10.4057675552
 30
0.0
 10
11.6592907945
 20
10.4085690064
 30
0.0
 10
11.6454652159
 20
10.4140688472
 30
0.0
 10
11.6238790906
 20
10.4218282054
 30
0.0
 10
11.6008985392
 20
10.4293161241
 30
0.0
 10
11.5765748797
 20
10.4365156166
 30
0.0
 10
11.550961994
 20
10.4434105171
 30
0.0
 10
11.5241169129
 20
10.449985271
 30
0.0
 10
11.4960994544
 20
10.4562250563
 30
0.0
 10
11.4669721336
 20
10.4621158018
 30
0.0
 10
11.4367999918
 20
10.4676442247
 30
0.0
 10
11.4056504431
 20
10.4727978638
 30
0.0
 10
11.3735931249
 20
10.4775651003
 30
0.0
 10
11.3406997016
 20
10.481935202
 30
0.0
 10
11.3070438028
 20
10.4858983044
 30
0.0
 10
11.2727005932
 20
10.4894455204
 30
0.0
 10
11.237747124
 20
10.4925688097
 30
0.0
 10
11.2142382219
 20
10.4943524818
 30
0.0
 10
11.2023963262
 20
10.4951737201
 30
0.0
  0
SPLINE
  5
3DC
100
AcDbEntity
  8
0
100
AcDbSpline
 62
7
  6
CONTINUOUS
 70
0
 71
3
 72
40
 73
36
 74
0
 42
0.0000001
 43
0.0000001
 44
0.0000000001
 40
0.0
 40
0.0
 40
0.0
 40
0.0
 40
0.0311448352
 40
0.0467776712
 40
0.0624478163
 40
0.0938928931
 40
0.1254753683
 40
0.1571831038
 40
0.1890013145
 40
0.2209130644
 40
0.2528995674
 40
0.2849405815
 40
0.3170148072
 40
0.349100303
 40
0.3811749104
 40
0.4132166804
 40
0.4452042987
 40
0.4771175008
 40
0.5089374741
 40
0.5406472387
 40
0.5722320012
 40
0.6036794751
 40
0.6349801612
 40
0.6661275796
 40
0.6971184487
 40
0.7279528012
 40
0.7586340346
 40
0.7891688873
 40
0.8195673392
 40
0.849842433
 40
0.8800100174
 40
0.9100884154
 40
0.9400980228
 40
0.9700608475
 40
1.0
 40
1.0
 40
1.0
 40
1.0
 10
11.8254390383
 20
7.5211885987
 30
0.0
 10
11.8198725216
 20
7.5215746379
 30
0.0
 10
11.8115290623
 20
7.5224598261
 30
0.0
 10
11.8004815703
 20
7.5242386963
 30
0.0
 10
11.7894516221
 20
7.5264226073
 30
0.0
 10
11.7757746525
 20
7.5299006717
 30
0.0
 10
11.7596489771
 20
7.5352392376
 30
0.0
 10
11.7438746348
 20
7.5417193355
 30
0.0
 10
11.7285362012
 20
7.5493062236
 30
0.0
 10
11.7137152699
 20
7.5579593756
 30
0.0
 10
11.6994908466
 20
7.567632586
 30
0.0
 10
11.6859387098
 20
7.57827424
 30
0.0
 10
11.673131073
 20
7.5898275817
 30
0.0
 10
11.6611361874
 20
7.6022310151
 30
0.0
 10
11.6500179868
 20
7.6154184295
 30
0.0
 10
11.6398357486
 20
7.6293195482
 30
0.0
 10
11.6306437811
 20
7.6438602994
 30
0.0
 10
11.6224911366
 20
7.6589632061
 30
0.0
 10
11.6154213494
 20
7.674547794
 30
0.0
 10
11.6094722059
 20
7.6905310152
 30
0.0
 10
11.6046755432
 20
7.7068276858
 30
0.0
 10
11.6010570775
 20
7.7233509332
 30
0.0
 10
11.5986362654
 20
7.7400126533
 30
0.0
 10
11.5974261949
 20
7.7567239738
 30
0.0
 10
11.5974335106
 20
7.7733957226
 30
0.0
 10
11.5986583701
 20
7.7899388983
 30
0.0
 10
11.601094435
 20
7.8062651415
 30
0.0
 10
11.6047288931
 20
7.822287205
 30
0.0
 10
11.6095425183
 20
7.8379194216
 30
0.0
 10
11.6155097538
 20
7.8530781585
 30
0.0
 10
11.6225988672
 20
7.8676822986
 30
0.0
 10
11.6307720041
 20
7.8816535775
 30
0.0
 10
11.6399857821
 20
7.8949174084
 30
0.0
 10
11.650190034
 20
7.9074018293
 30
0.0
 10
11.6576200674
 20
7.9151638707
 30
0.0
 10
11.6614780507
 20
7.9188904166
 30
0.0
  0
SPLINE
  5
3DD
100
AcDbEntity
  8
0
100
AcDbSpline
 62
7
  6
CONTINUOUS
 70
0
 71
3
 72
15
 73
11
 74
0
 42
0.0000001
 43
0.0000001
 44
0.0000000001
 40
0.0
 40
0.0
 40
0.0
 40
0.0
 40
0.1260749211
 40
0.2517739598
 40
0.3771269315
 40
0.502167657
 40
0.6269334691
 40
0.7514649033
 40
0.8758052429
 40
1.0
 40
1.0
 40
1.0
 40
1.0
 10
11.9220621975
 20
7.5572292468
 30
0.0
 10
11.9258163963
 20
7.5580721184
 30
0.0
 10
11.9332703329
 20
7.5599554178
 30
0.0
 10
11.9442668134
 20
7.5633711116
 30
0.0
 10
11.9550337206
 20
7.5673643724
 30
0.0
 10
11.9655419675
 20
7.5719245208
 30
0.0
 10
11.9757636326
 20
7.5770394802
 30
0.0
 10
11.9856715622
 20
7.5826956947
 30
0.0
 10
11.9952390179
 20
7.5888778266
 30
0.0
 10
12.0013770569
 20
7.5933416376
 30
0.0
 10
12.0043797232
 20
7.5956546809
 30
0.0
  0
SPLINE
  5
3DE
100
AcDbEntity
  8
0
100
AcDbSpline
 62
7
  6
CONTINUOUS
 70
0
 71
3
 72
15
 73
11
 74
0
 42
0.0000001
 43
0.0000001
 44
0.0000000001
 40
0.0
 40
0.0
 40
0.0
 40
0.0
 40
0.1260372505
 40
0.2517117287
 40
0.3770524612
 40
0.5020921117
 40
0.6268666141
 40
0.7514148229
 40
0.8757781331
 40
1.0
 40
1.0
 40
1.0
 40
1.0
 10
11.6375250133
 20
7.854390586
 30
0.0
 10
11.6385091732
 20
7.8580141333
 30
0.0
 10
11.6406634774
 20
7.8652010707
 30
0.0
 10
11.6444503566
 20
7.8757816419
 30
0.0
 10
11.6487785036
 20
7.8861207378
 30
0.0
 10
11.6536368675
 20
7.8961917306
 30
0.0
 10
11.6590131808
 20
7.905969109
 30
0.0
 10
11.6648938713
 20
7.9154281046
 30
0.0
 10
11.6712637274
 20
7.9245443935
 30
0.0
 10
11.675828359
 20
7.9303814375
 30
0.0
 10
11.6781858274
 20
7.933234119
 30
0.0
  0
SPLINE
  5
3DF
100
AcDbEntity
  8
0
100
AcDbSpline
 62
7
  6
CONTINUOUS
 70
0
 71
3
 72
33
 73
29
 74
0
 42
0.0000001
 43
0.0000001
 44
0.0000000001
 40
0.0
 40
0.0
 40
0.0
 40
0.0
 40
0.0180649816
 40
0.0370652194
 40
0.0570131293
 40
0.0779160938
 40
0.0997773123
 40
0.1225962836
 40
0.1463691984
 40
0.1710894883
 40
0.1967479176
 40
0.2233330317
 40
0.2508312928
 40
0.2792272208
 40
0.3085037065
 40
0.3386419434
 40
0.369621728
 40
0.4014214759
 40
0.4340182887
 40
0.4673881652
 40
0.5015058985
 40
0.53634531
 40
0.608078417
 40
0.6823606318
 40
0.758950912
 40
0.8375971204
 40
0.9180365908
 40
1.0
 40
1.0
 40
1.0
 40
1.0
 10
11.825184679
 20
10.4772306766
 30
0.0
 10
11.8221673783
 20
10.4794449816
 30
0.0
 10
11.8158687441
 20
10.4838426572
 30
0.0
 10
11.805909551
 20
10.490198665
 30
0.0
 10
11.7952116264
 20
10.496473537
 30
0.0
 10
11.783784871
 20
10.5026615587
 30
0.0
 10
11.7716394673
 20
10.5087572123
 30
0.0
 10
11.7587864009
 20
10.5147549532
 30
0.0
 10
11.7452373198
 20
10.5206493778
 30
0.0
 10
11.7310045132
 20
10.5264350442
 30
0.0
 10
11.7161009477
 20
10.5321067044
 30
0.0
 10
11.7005402048
 20
10.5376591322
 30
0.0
 10
11.6843364894
 20
10.5430872149
 30
0.0
 10
11.6675046178
 20
10.5483859981
 30
0.0
 10
11.6500599797
 20
10.5535505546
 30
0.0
 10
11.6320185524
 20
10.5585761729
 30
0.0
 10
11.6133968593
 20
10.563458203
 30
0.0
 10
11.5942119661
 20
10.5681921399
 30
0.0
 10
11.574481463
 20
10.572773656
 30
0.0
 10
11.5542234466
 20
10.5771984782
 30
0.0
 10
11.5334564817
 20
10.5814626014
 30
0.0
 10
11.5048356486
 20
10.5869821055
 30
0.0
 10
11.4679233914
 20
10.5934354156
 30
0.0
 10
11.422331626
 20
10.6004065479
 30
0.0
 10
11.3751898269
 20
10.6066521572
 30
0.0
 10
11.3266710942
 20
10.6121490928
 30
0.0
 10
11.2769533903
 20
10.6168770029
 30
0.0
 10
11.2434066209
 20
10.6194830942
 30
0.0
 10
11.2264664776
 20
10.6206578971
 30
0.0
  0
SPLINE
  5
3E0
100
AcDbEntity
  8
0
100
AcDbSpline
 62
7
  6
CONTINUOUS
 70
0
 71
3
 72
28
 73
24
 74
0
 42
0.0000001
 43
0.0000001
 44
0.0000000001
 40
0.0
 40
0.0
 40
0.0
 40
0.0
 40
0.0212304212
 40
0.0432215941
 40
0.0659698051
 40
0.089469637
 40
0.1137144394
 40
0.1386961188
 40
0.1644055687
 40
0.1908324364
 40
0.2179655207
 40
0.2457925273
 40
0.3034740809
 40
0.3637641359
 40
0.4265367173
 40
0.4916554765
 40
0.5589747777
 40
0.6283406532
 40
0.6995916638
 40
0.7725596964
 40
0.8470706975
 40
0.9229454089
 40
1.0
 40
1.0
 40
1.0
 40
1.0
 10
11.6993436494
 20
10.4165491931
 30
0.0
 10
11.6961172537
 20
10.4181285455
 30
0.0
 10
11.6895084705
 20
10.4212619118
 30
0.0
 10
11.6793152204
 20
10.4258127927
 30
0.0
 10
11.6686734395
 20
10.4302944628
 30
0.0
 10
11.6575902083
 20
10.4347040072
 30
0.0
 10
11.6460727662
 20
10.4390384531
 30
0.0
 10
11.6341287041
 20
10.4432950081
 30
0.0
 10
11.6217658658
 20
10.44747079
 30
0.0
 10
11.6089924042
 20
10.4515630991
 30
0.0
 10
11.5958167109
 20
10.4555691909
 30
0.0
 10
11.577504847
 20
10.4608554819
 30
0.0
 10
11.5536659935
 20
10.467214063
 30
0.0
 10
11.5239304938
 20
10.4743715998
 30
0.0
 10
11.4928120057
 20
10.4811256604
 30
0.0
 10
11.4603926295
 20
10.4874582745
 30
0.0
 10
11.4267577213
 20
10.4933525643
 30
0.0
 10
11.3919959729
 20
10.498792834
 30
0.0
 10
11.356199072
 20
10.503764599
 30
0.0
 10
11.3194614876
 20
10.5082546269
 30
0.0
 10
11.2818801621
 20
10.5122509733
 30
0.0
 10
11.2435544171
 20
10.5157430021
 30
0.0
 10
11.2177528061
 20
10.517715033
 30
0.0
 10
11.2047463209
 20
10.5186170358
 30
0.0
  0
SPLINE
  5
3E1
100
AcDbEntity
  8
0
100
AcDbSpline
 62
7
  6
CONTINUOUS
 70
0
 71
3
 72
50
 73
46
 74
0
 42
0.0000001
 43
0.0000001
 44
0.0000000001
 40
0.0
 40
0.0
 40
0.0
 40
0.0
 40
0.0055575475
 40
0.0111779905
 40
0.0169219494
 40
0.022845874
 40
0.0290006802
 40
0.0354311413
 40
0.0421756235
 40
0.0492665445
 40
0.0567306363
 40
0.0645898203
 40
0.072861554
 40
0.081559664
 40
0.0906946644
 40
0.1002743405
 40
0.1103040801
 40
0.1207871571
 40
0.1317251254
 40
0.1431178344
 40
0.1549638891
 40
0.1672604853
 40
0.1800038776
 40
0.1931891613
 40
0.2208606557
 40
0.2502207678
 40
0.2812026806
 40
0.3137298604
 40
0.3477172945
 40
0.3830725052
 40
0.4196964085
 40
0.4574840669
 40
0.4963253675
 40
0.5361056481
 40
0.5767062875
 40
0.6180052701
 40
0.6598777364
 40
0.7021965195
 40
0.744832668
 40
0.7876559879
 40
0.8305354945
 40
0.8733401402
 40
0.9159387341
 40
0.9582019299
 40
1.0
 40
1.0
 40
1.0
 40
1.0
 10
11.8937140667
 20
10.5844055788
 30
0.0
 10
11.8937140728
 20
10.5852367761
 30
0.0
 10
11.8938071797
 20
10.5869100227
 30
0.0
 10
11.8942248813
 20
10.5894109607
 30
0.0
 10
11.8949199823
 20
10.5919063218
 30
0.0
 10
11.8958911354
 20
10.5943932021
 30
0.0
 10
11.8971367019
 20
10.5968696098
 30
0.0
 10
11.8986550711
 20
10.5993336057
 30
0.0
 10
11.9004444355
 20
10.6017835566
 30
0.0
 10
11.902503125
 20
10.6042177404
 30
0.0
 10
11.9048292172
 20
10.6066345968
 30
0.0
 10
11.9074208339
 20
10.609032368
 30
0.0
 10
11.9102758101
 20
10.6114094106
 30
0.0
 10
11.9133919034
 20
10.6137639121
 30
0.0
 10
11.9167666055
 20
10.6160941281
 30
0.0
 10
11.9203972397
 20
10.6183982397
 30
0.0
 10
11.9242809054
 20
10.6206744315
 30
0.0
 10
11.9284144807
 20
10.6229209187
 30
0.0
 10
11.9327946551
 20
10.625135855
 30
0.0
 10
11.9374178758
 20
10.6273175077
 30
0.0
 10
11.9422804209
 20
10.6294640409
 30
0.0
 10
11.9473783267
 20
10.6315737678
 30
0.0
 10
11.9527074725
 20
10.6336449262
 30
0.0
 10
11.9602372273
 20
10.6363972143
 30
0.0
 10
11.9702027708
 20
10.6397179314
 30
0.0
 10
11.9828247816
 20
10.6434617367
 30
0.0
 10
11.9962546037
 20
10.6470135842
 30
0.0
 10
12.0104484087
 20
10.6503617382
 30
0.0
 10
12.0253600079
 20
10.6534951034
 30
0.0
 10
12.0409407228
 20
10.6564033043
 30
0.0
 10
12.0571396509
 20
10.6590767116
 30
0.0
 10
12.0739038198
 20
10.6615064779
 30
0.0
 10
12.0911783776
 20
10.6636845657
 30
0.0
 10
12.1089067774
 20
10.6656037728
 30
0.0
 10
12.1270309679
 20
10.6672577561
 30
0.0
 10
12.1454915881
 20
10.6686410513
 30
0.0
 10
12.1642281648
 20
10.66974909
 30
0.0
 10
12.1831793133
 20
10.6705782133
 30
0.0
 10
12.2022829428
 20
10.6711256848
 30
0.0
 10
12.2214764531
 20
10.6713896951
 30
0.0
 10
12.2406969673
 20
10.671369378
 30
0.0
 10
12.2598814641
 20
10.6710647901
 30
0.0
 10
12.2789671752
 20
10.6704769532
 30
0.0
 10
12.2978914095
 20
10.6696077868
 30
0.0
 10
12.3104407699
 20
10.6688376787
 30
0.0
 10
12.3166771898
 20
10.6684051815
 30
0.0
  0
SPLINE
  5
3E2
100
AcDbEntity
  8
0
100
AcDbSpline
 62
7
  6
CONTINUOUS
 70
0
 71
3
 72
15
 73
11
 74
0
 42
0.0000001
 43
0.0000001
 44
0.0000000001
 40
0.0
 40
0.0
 40
0.0
 40
0.0
 40
0.1260749211
 40
0.2517739598
 40
0.3771269315
 40
0.502167657
 40
0.6269334691
 40
0.7514649033
 40
0.8758052429
 40
1.0
 40
1.0
 40
1.0
 40
1.0
 10
11.9220621975
 20
8.0701359084
 30
0.0
 10
11.9258163963
 20
8.0709787801
 30
0.0
 10
11.9332703329
 20
8.0728620795
 30
0.0
 10
11.9442668134
 20
8.0762777733
 30
0.0
 10
11.9550337206
 20
8.080271034
 30
0.0
 10
11.9655419675
 20
8.0848311825
 30
0.0
 10
11.9757636326
 20
8.0899461418
 30
0.0
 10
11.9856715622
 20
8.0956023564
 30
0.0
 10
11.9952390179
 20
8.1017844882
 30
0.0
 10
12.0013770569
 20
8.1062482992
 30
0.0
 10
12.0043797232
 20
8.1085613426
 30
0.0
  0
SPLINE
  5
3E3
100
AcDbEntity
  8
0
100
AcDbSpline
 62
7
  6
CONTINUOUS
 70
0
 71
3
 72
15
 73
11
 74
0
 42
0.0000001
 43
0.0000001
 44
0.0000000001
 40
0.0
 40
0.0
 40
0.0
 40
0.0
 40
0.1260372505
 40
0.2517117287
 40
0.3770524612
 40
0.5020921117
 40
0.6268666141
 40
0.7514148229
 40
0.8757781331
 40
1.0
 40
1.0
 40
1.0
 40
1.0
 10
11.6375250133
 20
8.3672972477
 30
0.0
 10
11.6385091732
 20
8.370920795
 30
0.0
 10
11.6406634774
 20
8.3781077323
 30
0.0
 10
11.6444503566
 20
8.3886883036
 30
0.0
 10
11.6487785036
 20
8.3990273995
 30
0.0
 10
11.6536368675
 20
8.4090983922
 30
0.0
 10
11.6590131808
 20
8.4188757707
 30
0.0
 10
11.6648938713
 20
8.4283347662
 30
0.0
 10
11.6712637274
 20
8.4374510552
 30
0.0
 10
11.675828359
 20
8.4432880991
 30
0.0
 10
11.6781858274
 20
8.4461407807
 30
0.0
  0
SPLINE
  5
3E4
100
AcDbEntity
  8
0
100
AcDbSpline
 62
7
  6
CONTINUOUS
 70
0
 71
3
 72
40
 73
36
 74
0
 42
0.0000001
 43
0.0000001
 44
0.0000000001
 40
0.0
 40
0.0
 40
0.0
 40
0.0
 40
0.0311448352
 40
0.0467776712
 40
0.0624478163
 40
0.0938928931
 40
0.1254753683
 40
0.1571831038
 40
0.1890013145
 40
0.2209130644
 40
0.2528995674
 40
0.2849405815
 40
0.3170148072
 40
0.349100303
 40
0.3811749104
 40
0.4132166804
 40
0.4452042987
 40
0.4771175008
 40
0.5089374741
 40
0.5406472387
 40
0.5722320012
 40
0.6036794751
 40
0.6349801612
 40
0.6661275796
 40
0.6971184487
 40
0.7279528012
 40
0.7586340346
 40
0.7891688873
 40
0.8195673392
 40
0.849842433
 40
0.8800100174
 40
0.9100884154
 40
0.9400980228
 40
0.9700608475
 40
1.0
 40
1.0
 40
1.0
 40
1.0
 10
11.8254390383
 20
8.0340952603
 30
0.0
 10
11.8198725216
 20
8.0344812996
 30
0.0
 10
11.8115290623
 20
8.0353664877
 30
0.0
 10
11.8004815703
 20
8.037145358
 30
0.0
 10
11.7894516221
 20
8.0393292689
 30
0.0
 10
11.7757746525
 20
8.0428073334
 30
0.0
 10
11.7596489771
 20
8.0481458992
 30
0.0
 10
11.7438746348
 20
8.0546259972
 30
0.0
 10
11.7285362012
 20
8.0622128852
 30
0.0
 10
11.7137152699
 20
8.0708660372
 30
0.0
 10
11.6994908466
 20
8.0805392476
 30
0.0
 10
11.6859387098
 20
8.0911809017
 30
0.0
 10
11.673131073
 20
8.1027342434
 30
0.0
 10
11.6611361874
 20
8.1151376768
 30
0.0
 10
11.6500179868
 20
8.1283250911
 30
0.0
 10
11.6398357486
 20
8.1422262099
 30
0.0
 10
11.6306437811
 20
8.156766961
 30
0.0
 10
11.6224911366
 20
8.1718698678
 30
0.0
 10
11.6154213494
 20
8.1874544557
 30
0.0
 10
11.6094722059
 20
8.2034376769
 30
0.0
 10
11.6046755432
 20
8.2197343474
 30
0.0
 10
11.6010570775
 20
8.2362575948
 30
0.0
 10
11.5986362654
 20
8.2529193149
 30
0.0
 10
11.5974261949
 20
8.2696306355
 30
0.0
 10
11.5974335106
 20
8.2863023843
 30
0.0
 10
11.5986583701
 20
8.3028455599
 30
0.0
 10
11.601094435
 20
8.3191718032
 30
0.0
 10
11.6047288931
 20
8.3351938666
 30
0.0
 10
11.6095425183
 20
8.3508260833
 30
0.0
 10
11.6155097538
 20
8.3659848202
 30
0.0
 10
11.6225988672
 20
8.3805889602
 30
0.0
 10
11.6307720041
 20
8.3945602391
 30
0.0
 10
11.6399857821
 20
8.40782407
 30
0.0
 10
11.650190034
 20
8.420308491
 30
0.0
 10
11.6576200674
 20
8.4280705323
 30
0.0
 10
11.6614780507
 20
8.4317970782
 30
0.0
  0
SPLINE
  5
3E5
100
AcDbEntity
  8
0
100
AcDbSpline
 62
7
  6
CONTINUOUS
 70
0
 71
3
 72
15
 73
11
 74
0
 42
0.0000001
 43
0.0000001
 44
0.0000000001
 40
0.0
 40
0.0
 40
0.0
 40
0.0
 40
0.1260749211
 40
0.2517739598
 40
0.3771269315
 40
0.502167657
 40
0.6269334691
 40
0.7514649033
 40
0.8758052429
 40
1.0
 40
1.0
 40
1.0
 40
1.0
 10
11.9220621975
 20
9.217655823
 30
0.0
 10
11.9258163963
 20
9.2184986947
 30
0.0
 10
11.9332703329
 20
9.2203819941
 30
0.0
 10
11.9442668134
 20
9.2237976879
 30
0.0
 10
11.9550337206
 20
9.2277909486
 30
0.0
 10
11.9655419675
 20
9.2323510971
 30
0.0
 10
11.9757636326
 20
9.2374660564
 30
0.0
 10
11.9856715622
 20
9.243122271
 30
0.0
 10
11.9952390179
 20
9.2493044029
 30
0.0
 10
12.0013770569
 20
9.2537682139
 30
0.0
 10
12.0043797232
 20
9.2560812572
 30
0.0
  0
SPLINE
  5
3E6
100
AcDbEntity
  8
0
100
AcDbSpline
 62
7
  6
CONTINUOUS
 70
0
 71
3
 72
15
 73
11
 74
0
 42
0.0000001
 43
0.0000001
 44
0.0000000001
 40
0.0
 40
0.0
 40
0.0
 40
0.0
 40
0.1260372505
 40
0.2517117287
 40
0.3770524612
 40
0.5020921117
 40
0.6268666141
 40
0.7514148229
 40
0.8757781331
 40
1.0
 40
1.0
 40
1.0
 40
1.0
 10
11.6375250133
 20
9.5148171623
 30
0.0
 10
11.6385091732
 20
9.5184407096
 30
0.0
 10
11.6406634774
 20
9.5256276469
 30
0.0
 10
11.6444503566
 20
9.5362082182
 30
0.0
 10
11.6487785036
 20
9.5465473141
 30
0.0
 10
11.6536368675
 20
9.5566183068
 30
0.0
 10
11.6590131808
 20
9.5663956853
 30
0.0
 10
11.6648938713
 20
9.5758546808
 30
0.0
 10
11.6712637274
 20
9.5849709698
 30
0.0
 10
11.675828359
 20
9.5908080137
 30
0.0
 10
11.6781858274
 20
9.5936606953
 30
0.0
  0
SPLINE
  5
3E7
100
AcDbEntity
  8
0
100
AcDbSpline
 62
7
  6
CONTINUOUS
 70
0
 71
3
 72
80
 73
76
 74
0
 42
0.0000001
 43
0.0000001
 44
0.0000000001
 40
0.0
 40
0.0
 40
0.0
 40
0.0
 40
0.003948739
 40
0.0077209385
 40
0.0113257954
 40
0.0147747438
 40
0.0212568707
 40
0.0243284373
 40
0.0273115616
 40
0.0302284566
 40
0.033103069
 40
0.0359604919
 40
0.038826317
 40
0.0417258829
 40
0.0446835997
 40
0.0477223173
 40
0.0508629526
 40
0.0541242387
 40
0.0575226011
 40
0.0610723121
 40
0.0647855199
 40
0.0686724684
 40
0.0727417594
 40
0.0770004022
 40
0.0814541402
 40
0.0861075669
 40
0.0909641952
 40
0.0960267421
 40
0.1012970878
 40
0.1124644785
 40
0.1244702697
 40
0.1373094503
 40
0.1509706482
 40
0.1654372067
 40
0.1806880208
 40
0.196698139
 40
0.2134391925
 40
0.2308797975
 40
0.2489859085
 40
0.2677210785
 40
0.2870466548
 40
0.306922012
 40
0.3273047689
 40
0.3481509576
 40
0.3694151636
 40
0.4130088415
 40
0.4577011952
 40
0.5030936792
 40
0.5487797309
 40
0.5943494256
 40
0.6393941624
 40
0.6835113662
 40
0.7050996379
 40
0.7263102038
 40
0.7470965657
 40
0.7674134972
 40
0.787217206
 40
0.8064655419
 40
0.8251181593
 40
0.8431366897
 40
0.8604849584
 40
0.8771292726
 40
0.8930386667
 40
0.9081852031
 40
0.9225443757
 40
0.9360956589
 40
0.9488230824
 40
0.9607160678
 40
0.9717705188
 40
0.9769846763
 40
0.9819914395
 40
0.986793061
 40
0.9913924872
 40
0.9957933215
 40
1.0
 40
1.0
 40
1.0
 40
1.0
 10
12.93253664
 20
8.7578750599
 30
0.0
 10
12.9331142999
 20
8.7584126523
 30
0.0
 10
12.9342691587
 20
8.7594370746
 30
0.0
 10
12.9360411044
 20
8.7608469624
 30
0.0
 10
12.9378114693
 20
8.7620932104
 30
0.0
 10
12.9401196321
 20
8.7635058078
 30
0.0
 10
12.9424745433
 20
8.7646323356
 30
0.0
 10
12.944854373
 20
8.7654237121
 30
0.0
 10
12.9466009806
 20
8.7658392622
 30
0.0
 10
12.9483395626
 20
8.7660865844
 30
0.0
 10
12.9500688753
 20
8.7661653936
 30
0.0
 10
12.9517874687
 20
8.7660753847
 30
0.0
 10
12.9534938754
 20
8.7658166595
 30
0.0
 10
12.9551866845
 20
8.7653895644
 30
0.0
 10
12.9568645569
 20
8.7647945592
 30
0.0
 10
12.9585263536
 20
8.7640324339
 30
0.0
 10
12.9601710395
 20
8.7631039476
 30
0.0
 10
12.9617976804
 20
8.7620099282
 30
0.0
 10
12.963405481
 20
8.7607513089
 30
0.0
 10
12.9649935919
 20
8.7593289313
 30
0.0
 10
12.9665612433
 20
8.7577437608
 30
0.0
 10
12.9681076639
 20
8.7559967951
 30
0.0
 10
12.9696320012
 20
8.7540890448
 30
0.0
 10
12.9711334969
 20
8.7520216746
 30
0.0
 10
12.9726113115
 20
8.7497958763
 30
0.0
 10
12.9740646037
 20
8.747412939
 30
0.0
 10
12.9754925917
 20
8.7448742781
 30
0.0
 10
12.9768944356
 20
8.7421813508
 30
0.0
 10
12.9787637871
 20
8.7383121375
 30
0.0
 10
12.9810201761
 20
8.7330920174
 30
0.0
 10
12.9835610811
 20
8.7263564862
 30
0.0
 10
12.9859790916
 20
8.7190491982
 30
0.0
 10
12.9882684421
 20
8.7111873941
 30
0.0
 10
12.9904236458
 20
8.7027894797
 30
0.0
 10
12.9924394935
 20
8.6938753057
 30
0.0
 10
12.9943110923
 20
8.6844659952
 30
0.0
 10
12.9960339054
 20
8.67458392
 30
0.0
 10
12.9976037583
 20
8.6642526219
 30
0.0
 10
12.9990168385
 20
8.6534967389
 30
0.0
 10
13.0002697058
 20
8.6423419435
 30
0.0
 10
13.0013593215
 20
8.630814885
 30
0.0
 10
13.0022830474
 20
8.6189431168
 30
0.0
 10
13.0030386317
 20
8.6067550296
 30
0.0
 10
13.0036242538
 20
8.594279747
 30
0.0
 10
13.004181048
 20
8.5771613138
 30
0.0
 10
13.0044347995
 20
8.5552674899
 30
0.0
 10
13.0040487445
 20
8.5285533359
 30
0.0
 10
13.0029777551
 20
8.501439399
 30
0.0
 10
13.001231921
 20
8.4741849465
 30
0.0
 10
12.998827926
 20
8.4470503489
 30
0.0
 10
12.9957887794
 20
8.4202950669
 30
0.0
 10
12.9927297772
 20
8.3983724733
 30
0.0
 10
12.989980126
 20
8.3812218321
 30
0.0
 10
12.9877939044
 20
8.3687040785
 30
0.0
 10
12.9854741928
 20
8.3564688631
 30
0.0
 10
12.9830265388
 20
8.3445454321
 30
0.0
 10
12.9804568246
 20
8.3329623069
 30
0.0
 10
12.9777712349
 20
8.3217471733
 30
0.0
 10
12.9749762348
 20
8.3109268255
 30
0.0
 10
12.9720785492
 20
8.3005271054
 30
0.0
 10
12.9690851433
 20
8.2905728343
 30
0.0
 10
12.9660032306
 20
8.2810877358
 30
0.0
 10
12.9628402327
 20
8.2720943796
 30
0.0
 10
12.9596037579
 20
8.263614131
 30
0.0
 10
12.9563015688
 20
8.2556670736
 30
0.0
 10
12.9529415876
 20
8.2482719637
 30
0.0
 10
12.9495318118
 20
8.2414460607
 30
0.0
 10
12.9460803397
 20
8.2352054452
 30
0.0
 10
12.9431209968
 20
8.2304151864
 30
0.0
 10
12.9407328294
 20
8.2268969716
 30
0.0
 10
12.938971337
 20
8.2244653517
 30
0.0
 10
12.9372055281
 20
8.2221904452
 30
0.0
 10
12.9354363257
 20
8.2200736073
 30
0.0
 10
12.9336649158
 20
8.2181161965
 30
0.0
 10
12.9324564138
 20
8.2168911569
 30
0.0
 10
12.931851767
 20
8.216307113
 30
0.0
  0
SPLINE
  5
3E8
100
AcDbEntity
  8
0
100
AcDbSpline
 62
7
  6
CONTINUOUS
 70
0
 71
3
 72
21
 73
17
 74
0
 42
0.0000001
 43
0.0000001
 44
0.0000000001
 40
0.0
 40
0.0
 40
0.0
 40
0.0
 40
0.06165322
 40
0.1233294719
 40
0.1850515326
 40
0.2468416528
 40
0.308721334
 40
0.3707110997
 40
0.4328302469
 40
0.4950966389
 40
0.5575265783
 40
0.620134583
 40
0.6829331586
 40
0.745933179
 40
0.8725262751
 40
1.0
 40
1.0
 40
1.0
 40
1.0
 10
9.6480121772
 20
9.4788687947
 30
0.0
 10
9.6456443325
 20
9.4765816463
 30
0.0
 10
9.6407836667
 20
9.4721329903
 30
0.0
 10
9.6331431389
 20
9.4658601687
 30
0.0
 10
9.6251708151
 20
9.4600019913
 30
0.0
 10
9.6168870664
 20
9.454573469
 30
0.0
 10
9.6083127204
 20
9.4495881615
 30
0.0
 10
9.5994693943
 20
9.445058647
 30
0.0
 10
9.5903793492
 20
9.4409963548
 30
0.0
 10
9.5810655195
 20
9.4374114515
 30
0.0
 10
9.5715513484
 20
9.4343129379
 30
0.0
 10
9.5618608634
 20
9.4317086488
 30
0.0
 10
9.5520182009
 20
9.4296050682
 30
0.0
 10
9.5387060853
 20
9.4274717501
 30
0.0
 10
9.5218018216
 20
9.4260857908
 30
0.0
 10
9.5082118132
 20
9.4263510157
 30
0.0
 10
9.5014214602
 20
9.4268219283
 30
0.0
  0
SPLINE
  5
3E9
100
AcDbEntity
  8
0
100
AcDbSpline
 62
7
  6
CONTINUOUS
 70
0
 71
3
 72
21
 73
17
 74
0
 42
0.0000001
 43
0.0000001
 44
0.0000000001
 40
0.0
 40
0.0
 40
0.0
 40
0.0
 40
0.06165322
 40
0.1233294719
 40
0.1850515326
 40
0.2468416528
 40
0.308721334
 40
0.3707110997
 40
0.4328302469
 40
0.4950966389
 40
0.5575265783
 40
0.620134583
 40
0.6829331586
 40
0.745933179
 40
0.8725262751
 40
1.0
 40
1.0
 40
1.0
 40
1.0
 10
9.6480121772
 20
6.822572615
 30
0.0
 10
9.6456443325
 20
6.8202854666
 30
0.0
 10
9.6407836667
 20
6.8158368106
 30
0.0
 10
9.6331431389
 20
6.809563989
 30
0.0
 10
9.6251708151
 20
6.8037058116
 30
0.0
 10
9.6168870664
 20
6.7982772893
 30
0.0
 10
9.6083127204
 20
6.7932919818
 30
0.0
 10
9.5994693943
 20
6.7887624673
 30
0.0
 10
9.5903793492
 20
6.7847001751
 30
0.0
 10
9.5810655195
 20
6.7811152718
 30
0.0
 10
9.5715513484
 20
6.7780167582
 30
0.0
 10
9.5618608634
 20
6.7754124691
 30
0.0
 10
9.5520182009
 20
6.7733088886
 30
0.0
 10
9.5387060853
 20
6.7711755704
 30
0.0
 10
9.5218018216
 20
6.7697896111
 30
0.0
 10
9.5082118132
 20
6.770054836
 30
0.0
 10
9.5014214602
 20
6.7705257486
 30
0.0
  0
SPLINE
  5
3EA
100
AcDbEntity
  8
0
100
AcDbSpline
 62
7
  6
CONTINUOUS
 70
0
 71
3
 72
40
 73
36
 74
0
 42
0.0000001
 43
0.0000001
 44
0.0000000001
 40
0.0
 40
0.0
 40
0.0
 40
0.0
 40
0.0311448352
 40
0.0467776712
 40
0.0624478163
 40
0.0938928931
 40
0.1254753683
 40
0.1571831038
 40
0.1890013145
 40
0.2209130644
 40
0.2528995674
 40
0.2849405815
 40
0.3170148072
 40
0.349100303
 40
0.3811749104
 40
0.4132166804
 40
0.4452042987
 40
0.4771175008
 40
0.5089374741
 40
0.5406472387
 40
0.5722320012
 40
0.6036794751
 40
0.6349801612
 40
0.6661275796
 40
0.6971184487
 40
0.7279528012
 40
0.7586340346
 40
0.7891688873
 40
0.8195673392
 40
0.849842433
 40
0.8800100174
 40
0.9100884154
 40
0.9400980228
 40
0.9700608475
 40
1.0
 40
1.0
 40
1.0
 40
1.0
 10
11.8254390383
 20
9.181615175
 30
0.0
 10
11.8198725216
 20
9.1820012142
 30
0.0
 10
11.8115290623
 20
9.1828864023
 30
0.0
 10
11.8004815703
 20
9.1846652726
 30
0.0
 10
11.7894516221
 20
9.1868491836
 30
0.0
 10
11.7757746525
 20
9.190327248
 30
0.0
 10
11.7596489771
 20
9.1956658138
 30
0.0
 10
11.7438746348
 20
9.2021459118
 30
0.0
 10
11.7285362012
 20
9.2097327999
 30
0.0
 10
11.7137152699
 20
9.2183859518
 30
0.0
 10
11.6994908466
 20
9.2280591623
 30
0.0
 10
11.6859387098
 20
9.2387008163
 30
0.0
 10
11.673131073
 20
9.250254158
 30
0.0
 10
11.6611361874
 20
9.2626575914
 30
0.0
 10
11.6500179868
 20
9.2758450057
 30
0.0
 10
11.6398357486
 20
9.2897461245
 30
0.0
 10
11.6306437811
 20
9.3042868756
 30
0.0
 10
11.6224911366
 20
9.3193897824
 30
0.0
 10
11.6154213494
 20
9.3349743703
 30
0.0
 10
11.6094722059
 20
9.3509575915
 30
0.0
 10
11.6046755432
 20
9.3672542621
 30
0.0
 10
11.6010570775
 20
9.3837775094
 30
0.0
 10
11.5986362654
 20
9.4004392295
 30
0.0
 10
11.5974261949
 20
9.4171505501
 30
0.0
 10
11.5974335106
 20
9.4338222989
 30
0.0
 10
11.5986583701
 20
9.4503654745
 30
0.0
 10
11.601094435
 20
9.4666917178
 30
0.0
 10
11.6047288931
 20
9.4827137813
 30
0.0
 10
11.6095425183
 20
9.4983459979
 30
0.0
 10
11.6155097538
 20
9.5135047348
 30
0.0
 10
11.6225988672
 20
9.5281088748
 30
0.0
 10
11.6307720041
 20
9.5420801538
 30
0.0
 10
11.6399857821
 20
9.5553439847
 30
0.0
 10
11.650190034
 20
9.5678284056
 30
0.0
 10
11.6576200674
 20
9.5755904469
 30
0.0
 10
11.6614780507
 20
9.5793169929
 30
0.0
  0
SPLINE
  5
3EB
100
AcDbEntity
  8
0
100
AcDbSpline
 62
7
  6
CONTINUOUS
 70
0
 71
3
 72
21
 73
17
 74
0
 42
0.0000001
 43
0.0000001
 44
0.0000000001
 40
0.0
 40
0.0
 40
0.0
 40
0.0
 40
0.0616532342
 40
0.1233294953
 40
0.1850515501
 40
0.2468416649
 40
0.3087213494
 40
0.3707111104
 40
0.4328302434
 40
0.4950966323
 40
0.5575265657
 40
0.6201345673
 40
0.682933156
 40
0.7459330948
 40
0.8725263949
 40
1.0
 40
1.0
 40
1.0
 40
1.0
 10
11.9894000258
 20
7.5794037978
 30
0.0
 10
11.9867516099
 20
7.5768456106
 30
0.0
 10
11.9813150586
 20
7.5718696924
 30
0.0
 10
11.9727691807
 20
7.5648535012
 30
0.0
 10
11.9638522138
 20
7.5583010578
 30
0.0
 10
11.9545869277
 20
7.5522291561
 30
0.0
 10
11.9449965815
 20
7.5466530215
 30
0.0
 10
11.9351053609
 20
7.5415867245
 30
0.0
 10
11.9249382027
 20
7.5370429717
 30
0.0
 10
11.9145207319
 20
7.5330331855
 30
0.0
 10
11.9038791603
 20
7.5295674693
 30
0.0
 10
11.893040383
 20
7.526654531
 30
0.0
 10
11.882031399
 20
7.5243016245
 30
0.0
 10
11.8671418213
 20
7.5219154616
 30
0.0
 10
11.8482344339
 20
7.520365245
 30
0.0
 10
11.8330340286
 20
7.5206618843
 30
0.0
 10
11.8254390383
 20
7.5211885987
 30
0.0
  0
SPLINE
  5
3EC
100
AcDbEntity
  8
0
100
AcDbSpline
 62
7
  6
CONTINUOUS
 70
0
 71
3
 72
80
 73
76
 74
0
 42
0.0000001
 43
0.0000001
 44
0.0000000001
 40
0.0
 40
0.0
 40
0.0
 40
0.0
 40
0.003948739
 40
0.0077209385
 40
0.0113257954
 40
0.0147747438
 40
0.0212568707
 40
0.0243284373
 40
0.0273115616
 40
0.0302284566
 40
0.033103069
 40
0.0359604919
 40
0.038826317
 40
0.0417258829
 40
0.0446835997
 40
0.0477223173
 40
0.0508629526
 40
0.0541242387
 40
0.0575226011
 40
0.0610723121
 40
0.0647855199
 40
0.0686724684
 40
0.0727417594
 40
0.0770004022
 40
0.0814541402
 40
0.0861075669
 40
0.0909641952
 40
0.0960267421
 40
0.1012970878
 40
0.1124644785
 40
0.1244702697
 40
0.1373094503
 40
0.1509706482
 40
0.1654372067
 40
0.1806880208
 40
0.196698139
 40
0.2134391925
 40
0.2308797975
 40
0.2489859085
 40
0.2677210785
 40
0.2870466548
 40
0.306922012
 40
0.3273047689
 40
0.3481509576
 40
0.3694151636
 40
0.4130088415
 40
0.4577011952
 40
0.5030936792
 40
0.5487797309
 40
0.5943494256
 40
0.6393941624
 40
0.6835113662
 40
0.7050996379
 40
0.7263102038
 40
0.7470965657
 40
0.7674134972
 40
0.787217206
 40
0.8064655419
 40
0.8251181593
 40
0.8431366897
 40
0.8604849584
 40
0.8771292726
 40
0.8930386667
 40
0.9081852031
 40
0.9225443757
 40
0.9360956589
 40
0.9488230824
 40
0.9607160678
 40
0.9717705188
 40
0.9769846763
 40
0.9819914395
 40
0.986793061
 40
0.9913924872
 40
0.9957933215
 40
1.0
 40
1.0
 40
1.0
 40
1.0
 10
12.93253664
 20
9.9053949745
 30
0.0
 10
12.9331142999
 20
9.905932567
 30
0.0
 10
12.9342691587
 20
9.9069569892
 30
0.0
 10
12.9360411044
 20
9.9083668771
 30
0.0
 10
12.9378114693
 20
9.909613125
 30
0.0
 10
12.9401196321
 20
9.9110257224
 30
0.0
 10
12.9424745433
 20
9.9121522502
 30
0.0
 10
12.944854373
 20
9.9129436268
 30
0.0
 10
12.9466009806
 20
9.9133591768
 30
0.0
 10
12.9483395626
 20
9.913606499
 30
0.0
 10
12.9500688753
 20
9.9136853082
 30
0.0
 10
12.9517874687
 20
9.9135952993
 30
0.0
 10
12.9534938754
 20
9.9133365741
 30
0.0
 10
12.9551866845
 20
9.912909479
 30
0.0
 10
12.9568645569
 20
9.9123144739
 30
0.0
 10
12.9585263536
 20
9.9115523485
 30
0.0
 10
12.9601710395
 20
9.9106238622
 30
0.0
 10
12.9617976804
 20
9.9095298428
 30
0.0
 10
12.963405481
 20
9.9082712235
 30
0.0
 10
12.9649935919
 20
9.9068488459
 30
0.0
 10
12.9665612433
 20
9.9052636754
 30
0.0
 10
12.9681076639
 20
9.9035167097
 30
0.0
 10
12.9696320012
 20
9.9016089594
 30
0.0
 10
12.9711334969
 20
9.8995415892
 30
0.0
 10
12.9726113115
 20
9.8973157909
 30
0.0
 10
12.9740646037
 20
9.8949328536
 30
0.0
 10
12.9754925917
 20
9.8923941927
 30
0.0
 10
12.9768944356
 20
9.8897012654
 30
0.0
 10
12.9787637871
 20
9.8858320522
 30
0.0
 10
12.9810201761
 20
9.880611932
 30
0.0
 10
12.9835610811
 20
9.8738764008
 30
0.0
 10
12.9859790916
 20
9.8665691128
 30
0.0
 10
12.9882684421
 20
9.8587073087
 30
0.0
 10
12.9904236458
 20
9.8503093943
 30
0.0
 10
12.9924394935
 20
9.8413952203
 30
0.0
 10
12.9943110923
 20
9.8319859098
 30
0.0
 10
12.9960339054
 20
9.8221038346
 30
0.0
 10
12.9976037583
 20
9.8117725365
 30
0.0
 10
12.9990168385
 20
9.8010166535
 30
0.0
 10
13.0002697058
 20
9.7898618581
 30
0.0
 10
13.0013593215
 20
9.7783347996
 30
0.0
 10
13.0022830474
 20
9.7664630315
 30
0.0
 10
13.0030386317
 20
9.7542749442
 30
0.0
 10
13.0036242538
 20
9.7417996617
 30
0.0
 10
13.004181048
 20
9.7246812285
 30
0.0
 10
13.0044347995
 20
9.7027874045
 30
0.0
 10
13.0040487445
 20
9.6760732505
 30
0.0
 10
13.0029777551
 20
9.6489593137
 30
0.0
 10
13.001231921
 20
9.6217048611
 30
0.0
 10
12.998827926
 20
9.5945702635
 30
0.0
 10
12.9957887794
 20
9.5678149816
 30
0.0
 10
12.9927297772
 20
9.5458923879
 30
0.0
 10
12.989980126
 20
9.5287417467
 30
0.0
 10
12.9877939044
 20
9.5162239931
 30
0.0
 10
12.9854741928
 20
9.5039887777
 30
0.0
 10
12.9830265388
 20
9.4920653467
 30
0.0
 10
12.9804568246
 20
9.4804822215
 30
0.0
 10
12.9777712349
 20
9.469267088
 30
0.0
 10
12.9749762348
 20
9.4584467401
 30
0.0
 10
12.9720785492
 20
9.44804702
 30
0.0
 10
12.9690851433
 20
9.4380927489
 30
0.0
 10
12.9660032306
 20
9.4286076505
 30
0.0
 10
12.9628402327
 20
9.4196142943
 30
0.0
 10
12.9596037579
 20
9.4111340456
 30
0.0
 10
12.9563015688
 20
9.4031869882
 30
0.0
 10
12.9529415876
 20
9.3957918783
 30
0.0
 10
12.9495318118
 20
9.3889659753
 30
0.0
 10
12.9460803397
 20
9.3827253599
 30
0.0
 10
12.9431209968
 20
9.3779351011
 30
0.0
 10
12.9407328294
 20
9.3744168862
 30
0.0
 10
12.938971337
 20
9.3719852663
 30
0.0
 10
12.9372055281
 20
9.3697103598
 30
0.0
 10
12.9354363257
 20
9.3675935219
 30
0.0
 10
12.9336649158
 20
9.3656361111
 30
0.0
 10
12.9324564138
 20
9.3644110716
 30
0.0
 10
12.931851767
 20
9.3638270276
 30
0.0
  0
SPLINE
  5
3ED
100
AcDbEntity
  8
0
100
AcDbSpline
 62
7
  6
CONTINUOUS
 70
0
 71
3
 72
50
 73
46
 74
0
 42
0.0000001
 43
0.0000001
 44
0.0000000001
 40
0.0
 40
0.0
 40
0.0
 40
0.0
 40
0.0481982083
 40
0.0958298701
 40
0.1428200524
 40
0.189098114
 40
0.2345932474
 40
0.2792369361
 40
0.3229623678
 40
0.3657048054
 40
0.4074017555
 40
0.4479931603
 40
0.4874216252
 40
0.5256326572
 40
0.5625749471
 40
0.5982006586
 40
0.6324657627
 40
0.6653304343
 40
0.6967595242
 40
0.7267231403
 40
0.7551973579
 40
0.7821650798
 40
0.795081438
 40
0.8076184763
 40
0.8197765388
 40
0.8315566783
 40
0.8429606516
 40
0.8539911544
 40
0.8646517245
 40
0.874947003
 40
0.8848827667
 40
0.8944660433
 40
0.903705364
 40
0.9126107643
 40
0.9211941226
 40
0.9294692285
 40
0.937452012
 40
0.9451607745
 40
0.9598349183
 40
0.966856766
 40
0.9737036278
 40
0.9804068575
 40
0.987000079
 40
0.9935188351
 40
1.0
 40
1.0
 40
1.0
 40
1.0
 10
11.2264664776
 20
10.7713423349
 30
0.0
 10
11.237929135
 20
10.7705473969
 30
0.0
 10
11.260711063
 20
10.7688389073
 30
0.0
 10
11.2946323511
 20
10.7659012225
 30
0.0
 10
11.3280610381
 20
10.7626072866
 30
0.0
 10
11.3609409334
 20
10.7589627131
 30
0.0
 10
11.3932172776
 20
10.7549735681
 30
0.0
 10
11.4248360228
 20
10.7506465771
 30
0.0
 10
11.4557443442
 20
10.7459890021
 30
0.0
 10
11.4858905854
 20
10.741008677
 30
0.0
 10
11.5152243804
 20
10.7357139753
 30
0.0
 10
11.5436967328
 20
10.7301137986
 30
0.0
 10
11.5712600986
 20
10.7242175632
 30
0.0
 10
11.5978684741
 20
10.7180351811
 30
0.0
 10
11.6234774807
 20
10.7115770528
 30
0.0
 10
11.6480444448
 20
10.7048540407
 30
0.0
 10
11.6715284687
 20
10.6978774472
 30
0.0
 10
11.6938905168
 20
10.6906589914
 30
0.0
 10
11.7150934579
 20
10.683210785
 30
0.0
 10
11.7351022754
 20
10.6755452853
 30
0.0
 10
11.7538837033
 20
10.6676753253
 30
0.0
 10
11.7686922159
 20
10.6608630794
 30
0.0
 10
11.7798883645
 20
10.6553099589
 30
0.0
 10
11.7878384315
 20
10.6511621459
 30
0.0
 10
11.795459229
 20
10.6469731518
 30
0.0
 10
11.8027476262
 20
10.6427447019
 30
0.0
 10
11.8097005791
 20
10.6384784923
 30
0.0
 10
11.8163152472
 20
10.6341763389
 30
0.0
 10
11.8225888739
 20
10.629839944
 30
0.0
 10
11.8285188859
 20
10.625471097
 30
0.0
 10
11.834102848
 20
10.6210715695
 30
0.0
 10
11.839338424
 20
10.6166430765
 30
0.0
 10
11.8442234995
 20
10.6121874371
 30
0.0
 10
11.8487559857
 20
10.6077063401
 30
0.0
 10
11.8529340387
 20
10.6032015343
 30
0.0
 10
11.8567557962
 20
10.5986748686
 30
0.0
 10
11.8602198157
 20
10.594127568
 30
0.0
 10
11.8642916486
 20
10.5881395998
 30
0.0
 10
11.8677365765
 20
10.5820100977
 30
0.0
 10
11.8704659844
 20
10.5757722716
 30
0.0
 10
11.8721185993
 20
10.5711503639
 30
0.0
 10
11.8734052221
 20
10.566519403
 30
0.0
 10
11.8743249358
 20
10.5618812047
 30
0.0
 10
11.8748771177
 20
10.5572385087
 30
0.0
 10
11.8749999863
 20
10.5541380156
 30
0.0
 10
11.8749999921
 20
10.5525929413
 30
0.0
  0
SPLINE
  5
3EE
100
AcDbEntity
  8
0
100
AcDbSpline
 62
7
  6
CONTINUOUS
 70
0
 71
3
 72
23
 73
19
 74
0
 42
0.0000001
 43
0.0000001
 44
0.0000000001
 40
0.0
 40
0.0
 40
0.0
 40
0.0
 40
0.0755954479
 40
0.1466391714
 40
0.2134657403
 40
0.2765145402
 40
0.3363265376
 40
0.3935471486
 40
0.4489234403
 40
0.5032885643
 40
0.5575265067
 40
0.6125277807
 40
0.6691438784
 40
0.7281492575
 40
0.7902198463
 40
0.8559237775
 40
0.9257267722
 40
1.0
 40
1.0
 40
1.0
 40
1.0
 10
12.931851767
 20
9.3638270276
 30
0.0
 10
12.9310735873
 20
9.3630753636
 30
0.0
 10
12.9295182356
 20
9.3616634968
 30
0.0
 10
12.9271111837
 20
9.3597773004
 30
0.0
 10
12.9247069301
 20
9.3581931654
 30
0.0
 10
12.9223077321
 20
9.3569134625
 30
0.0
 10
12.9199155614
 20
9.3559405532
 30
0.0
 10
12.9175329059
 20
9.3552767339
 30
0.0
 10
12.9151628592
 20
9.354924457
 30
0.0
 10
12.9128093953
 20
9.3548852743
 30
0.0
 10
12.9104770317
 20
9.3551598902
 30
0.0
 10
12.9081702744
 20
9.3557473527
 30
0.0
 10
12.9058930712
 20
9.3566458096
 30
0.0
 10
12.9036483986
 20
9.357852524
 30
0.0
 10
12.9014385828
 20
9.3593648359
 30
0.0
 10
12.8992653426
 20
9.3611800305
 30
0.0
 10
12.8971305071
 20
9.3632955078
 30
0.0
 10
12.8957774576
 20
9.3648541662
 30
0.0
 10
12.8951067341
 20
9.3656788494
 30
0.0
  0
SPLINE
  5
3EF
100
AcDbEntity
  8
0
100
AcDbSpline
 62
7
  6
CONTINUOUS
 70
0
 71
3
 72
21
 73
17
 74
0
 42
0.0000001
 43
0.0000001
 44
0.0000000001
 40
0.0
 40
0.0
 40
0.0
 40
0.0
 40
0.0616532342
 40
0.1233294953
 40
0.1850515501
 40
0.2468416649
 40
0.3087213494
 40
0.3707111104
 40
0.4328302434
 40
0.4950966323
 40
0.5575265657
 40
0.6201345673
 40
0.682933156
 40
0.7459330948
 40
0.8725263949
 40
1.0
 40
1.0
 40
1.0
 40
1.0
 10
11.9894000258
 20
9.2398303741
 30
0.0
 10
11.9867516099
 20
9.2372721869
 30
0.0
 10
11.9813150586
 20
9.2322962686
 30
0.0
 10
11.9727691807
 20
9.2252800775
 30
0.0
 10
11.9638522138
 20
9.218727634
 30
0.0
 10
11.9545869277
 20
9.2126557323
 30
0.0
 10
11.9449965815
 20
9.2070795978
 30
0.0
 10
11.9351053609
 20
9.2020133007
 30
0.0
 10
11.9249382027
 20
9.1974695479
 30
0.0
 10
11.9145207319
 20
9.1934597618
 30
0.0
 10
11.9038791603
 20
9.1899940456
 30
0.0
 10
11.893040383
 20
9.1870811072
 30
0.0
 10
11.882031399
 20
9.1847282008
 30
0.0
 10
11.8671418213
 20
9.1823420378
 30
0.0
 10
11.8482344339
 20
9.1807918213
 30
0.0
 10
11.8330340286
 20
9.1810884606
 30
0.0
 10
11.8254390383
 20
9.181615175
 30
0.0
  0
SPLINE
  5
3F0
100
AcDbEntity
  8
0
100
AcDbSpline
 62
7
  6
CONTINUOUS
 70
0
 71
3
 72
23
 73
19
 74
0
 42
0.0000001
 43
0.0000001
 44
0.0000000001
 40
0.0
 40
0.0
 40
0.0
 40
0.0
 40
0.0755954479
 40
0.1466391714
 40
0.2134657403
 40
0.2765145402
 40
0.3363265376
 40
0.3935471486
 40
0.4489234403
 40
0.5032885643
 40
0.5575265067
 40
0.6125277807
 40
0.6691438784
 40
0.7281492575
 40
0.7902198463
 40
0.8559237775
 40
0.9257267722
 40
1.0
 40
1.0
 40
1.0
 40
1.0
 10
12.931851767
 20
8.216307113
 30
0.0
 10
12.9310735873
 20
8.215555449
 30
0.0
 10
12.9295182356
 20
8.2141435822
 30
0.0
 10
12.9271111837
 20
8.2122573857
 30
0.0
 10
12.9247069301
 20
8.2106732508
 30
0.0
 10
12.9223077321
 20
8.2093935479
 30
0.0
 10
12.9199155614
 20
8.2084206386
 30
0.0
 10
12.9175329059
 20
8.2077568192
 30
0.0
 10
12.9151628592
 20
8.2074045424
 30
0.0
 10
12.9128093953
 20
8.2073653596
 30
0.0
 10
12.9104770317
 20
8.2076399756
 30
0.0
 10
12.9081702744
 20
8.2082274381
 30
0.0
 10
12.9058930712
 20
8.2091258949
 30
0.0
 10
12.9036483986
 20
8.2103326094
 30
0.0
 10
12.9014385828
 20
8.2118449213
 30
0.0
 10
12.8992653426
 20
8.2136601158
 30
0.0
 10
12.8971305071
 20
8.2157755932
 30
0.0
 10
12.8957774576
 20
8.2173342516
 30
0.0
 10
12.8951067341
 20
8.2181589348
 30
0.0
  0
SPLINE
  5
3F1
100
AcDbEntity
  8
0
100
AcDbSpline
 62
7
  6
CONTINUOUS
 70
0
 71
3
 72
21
 73
17
 74
0
 42
0.0000001
 43
0.0000001
 44
0.0000000001
 40
0.0
 40
0.0
 40
0.0
 40
0.0
 40
0.0616532342
 40
0.1233294953
 40
0.1850515501
 40
0.2468416649
 40
0.3087213494
 40
0.3707111104
 40
0.4328302434
 40
0.4950966323
 40
0.5575265657
 40
0.6201345673
 40
0.682933156
 40
0.7459330948
 40
0.8725263949
 40
1.0
 40
1.0
 40
1.0
 40
1.0
 10
11.9894000258
 20
8.0923104595
 30
0.0
 10
11.9867516099
 20
8.0897522723
 30
0.0
 10
11.9813150586
 20
8.084776354
 30
0.0
 10
11.9727691807
 20
8.0777601628
 30
0.0
 10
11.9638522138
 20
8.0712077194
 30
0.0
 10
11.9545869277
 20
8.0651358177
 30
0.0
 10
11.9449965815
 20
8.0595596832
 30
0.0
 10
11.9351053609
 20
8.0544933861
 30
0.0
 10
11.9249382027
 20
8.0499496333
 30
0.0
 10
11.9145207319
 20
8.0459398472
 30
0.0
 10
11.9038791603
 20
8.042474131
 30
0.0
 10
11.893040383
 20
8.0395611926
 30
0.0
 10
11.882031399
 20
8.0372082862
 30
0.0
 10
11.8671418213
 20
8.0348221232
 30
0.0
 10
11.8482344339
 20
8.0332719066
 30
0.0
 10
11.8330340286
 20
8.033568546
 30
0.0
 10
11.8254390383
 20
8.0340952603
 30
0.0
  0
SPLINE
  5
3F2
100
AcDbEntity
  8
0
100
AcDbSpline
 62
7
  6
CONTINUOUS
 70
0
 71
3
 72
51
 73
47
 74
0
 42
0.0000001
 43
0.0000001
 44
0.0000000001
 40
0.0
 40
0.0
 40
0.0
 40
0.0
 40
0.008390176
 40
0.017343939
 40
0.0268687814
 40
0.036967263
 40
0.0476385416
 40
0.0588786695
 40
0.0706813399
 40
0.0830378111
 40
0.09593754
 40
0.1093681302
 40
0.1233157205
 40
0.1377649806
 40
0.1680999756
 40
0.2002281105
 40
0.2339872071
 40
0.2692015501
 40
0.305683929
 40
0.3432374803
 40
0.381657406
 40
0.4207326178
 40
0.4602473374
 40
0.4999826705
 40
0.5397181672
 40
0.5792333762
 40
0.6183093993
 40
0.6567304513
 40
0.6942854351
 40
0.7307695413
 40
0.7659858932
 40
0.799747265
 40
0.831877923
 40
0.8622156679
 40
0.8766663996
 40
0.8906154698
 40
0.9040476375
 40
0.916948914
 40
0.9293070456
 40
0.9411113151
 40
0.952353174
 40
0.9630260777
 40
0.9731262712
 40
0.982652784
 40
0.991608401
 40
1.0
 40
1.0
 40
1.0
 40
1.0
 10
12.8689586786
 20
9.439208424
 30
0.0
 10
12.8696813778
 20
9.4400924153
 30
0.0
 10
12.8711211372
 20
9.4419645064
 30
0.0
 10
12.8732022985
 20
9.4449725385
 30
0.0
 10
12.8752716094
 20
9.4482667027
 30
0.0
 10
12.8773261254
 20
9.45184216
 30
0.0
 10
12.8793628025
 20
9.4556938388
 30
0.0
 10
12.8813787351
 20
9.4598161151
 30
0.0
 10
12.8833709004
 20
9.4642030157
 30
0.0
 10
12.8853364128
 20
9.468848117
 30
0.0
 10
12.8872723174
 20
9.4737446216
 30
0.0
 10
12.8891757725
 20
9.4788853284
 30
0.0
 10
12.8910439579
 20
9.4842626825
 30
0.0
 10
12.893524432
 20
9.4918612271
 30
0.0
 10
12.8965061702
 20
9.501896698
 30
0.0
 10
12.8998461271
 20
9.5145602364
 30
0.0
 10
12.9029834859
 20
9.5279582789
 30
0.0
 10
12.9058995068
 20
9.5420117512
 30
0.0
 10
12.9085767472
 20
9.5566378069
 30
0.0
 10
12.9109992268
 20
9.571750081
 30
0.0
 10
12.9131525002
 20
9.5872592993
 30
0.0
 10
12.9150237449
 20
9.6030737998
 30
0.0
 10
12.9166018328
 20
9.6191000926
 30
0.0
 10
12.9178773951
 20
9.6352434193
 30
0.0
 10
12.9188428767
 20
9.6514083214
 30
0.0
 10
12.9194925806
 20
9.6674992109
 30
0.0
 10
12.919822703
 20
9.683420942
 30
0.0
 10
12.9198313572
 20
9.6990793813
 30
0.0
 10
12.9195185876
 20
9.7143819713
 30
0.0
 10
12.9188863751
 20
9.7292382946
 30
0.0
 10
12.9179386233
 20
9.7435606026
 30
0.0
 10
12.916681168
 20
9.7572644289
 30
0.0
 10
12.9151216556
 20
9.7702688642
 30
0.0
 10
12.9135540792
 20
9.7806208373
 30
0.0
 10
12.9121465235
 20
9.7884898793
 30
0.0
 10
12.9110386814
 20
9.7940743001
 30
0.0
 10
12.9098632699
 20
9.7994292312
 30
0.0
 10
12.9086219609
 20
9.804546798
 30
0.0
 10
12.9073166745
 20
9.8094194803
 30
0.0
 10
12.9059492784
 20
9.8140401282
 30
0.0
 10
12.9045218793
 20
9.8184019933
 30
0.0
 10
12.9030364992
 20
9.8224987155
 30
0.0
 10
12.9014954059
 20
9.8263243634
 30
0.0
 10
12.8999007201
 20
9.8298734593
 30
0.0
 10
12.8982548794
 20
9.8331408162
 30
0.0
 10
12.8970873983
 20
9.8351942819
 30
0.0
 10
12.8964937187
 20
9.8361698441
 30
0.0
  0
SPLINE
  5
3F3
100
AcDbEntity
  8
0
100
AcDbSpline
 62
4
  6
CONTINUOUS
 70
0
 71
3
 72
455
 73
451
 74
0
 42
0.0000001
 43
0.0000001
 44
0.0000000001
 40
0.0
 40
0.0
 40
0.0
 40
0.0
 40
0.015625
 40
0.0234375
 40
0.03125
 40
0.0390625
 40
0.04296875
 40
0.046875
 40
0.05078125
 40
0.052734375
 40
0.0546875
 40
0.056640625
 40
0.05859375
 40
0.0595703125
 40
0.060546875
 40
0.0615234375
 40
0.0620117188
 40
0.0622558594
 40
0.0625
 40
0.0627441406
 40
0.0629882812
 40
0.0634765625
 40
0.064453125
 40
0.0654296875
 40
0.06640625
 40
0.068359375
 40
0.0703125
 40
0.072265625
 40
0.07421875
 40
0.078125
 40
0.08203125
 40
0.0859375
 40
0.09375
 40
0.1015625
 40
0.10546875
 40
0.109375
 40
0.11328125
 40
0.115234375
 40
0.1171875
 40
0.119140625
 40
0.12109375
 40
0.1220703125
 40
0.123046875
 40
0.1240234375
 40
0.1245117188
 40
0.1247558594
 40
0.125
 40
0.1252441406
 40
0.1254882812
 40
0.1259765625
 40
0.126953125
 40
0.1279296875
 40
0.12890625
 40
0.130859375
 40
0.1328125
 40
0.134765625
 40
0.13671875
 40
0.140625
 40
0.14453125
 40
0.1484375
 40
0.15625
 40
0.1640625
 40
0.16796875
 40
0.171875
 40
0.17578125
 40
0.177734375
 40
0.1796875
 40
0.181640625
 40
0.18359375
 40
0.1845703125
 40
0.185546875
 40
0.1860351562
 40
0.1865234375
 40
0.1870117188
 40
0.1872558594
 40
0.1875
 40
0.1877441406
 40
0.1879882812
 40
0.1884765625
 40
0.1889648438
 40
0.189453125
 40
0.1904296875
 40
0.19140625
 40
0.193359375
 40
0.1953125
 40
0.197265625
 40
0.19921875
 40
0.203125
 40
0.20703125
 40
0.2109375
 40
0.21875
 40
0.2265625
 40
0.23046875
 40
0.234375
 40
0.23828125
 40
0.240234375
 40
0.2421875
 40
0.244140625
 40
0.24609375
 40
0.2470703125
 40
0.248046875
 40
0.2490234375
 40
0.2495117188
 40
0.2497558594
 40
0.25
 40
0.2502441406
 40
0.2504882812
 40
0.2509765625
 40
0.251953125
 40
0.2529296875
 40
0.25390625
 40
0.255859375
 40
0.2578125
 40
0.259765625
 40
0.26171875
 40
0.265625
 40
0.26953125
 40
0.2734375
 40
0.28125
 40
0.2890625
 40
0.29296875
 40
0.296875
 40
0.30078125
 40
0.302734375
 40
0.3046875
 40
0.306640625
 40
0.30859375
 40
0.3095703125
 40
0.310546875
 40
0.3115234375
 40
0.3120117188
 40
0.3122558594
 40
0.3125
 40
0.3127441406
 40
0.3129882812
 40
0.3134765625
 40
0.314453125
 40
0.3154296875
 40
0.31640625
 40
0.318359375
 40
0.3203125
 40
0.322265625
 40
0.32421875
 40
0.328125
 40
0.33203125
 40
0.3359375
 40
0.34375
 40
0.3515625
 40
0.35546875
 40
0.359375
 40
0.36328125
 40
0.365234375
 40
0.3671875
 40
0.369140625
 40
0.37109375
 40
0.3720703125
 40
0.373046875
 40
0.3740234375
 40
0.3745117188
 40
0.3747558594
 40
0.375
 40
0.3752441406
 40
0.3754882812
 40
0.3759765625
 40
0.376953125
 40
0.3779296875
 40
0.37890625
 40
0.380859375
 40
0.3828125
 40
0.384765625
 40
0.38671875
 40
0.390625
 40
0.39453125
 40
0.3984375
 40
0.40625
 40
0.4140625
 40
0.41796875
 40
0.421875
 40
0.42578125
 40
0.427734375
 40
0.4296875
 40
0.431640625
 40
0.43359375
 40
0.4345703125
 40
0.435546875
 40
0.4360351562
 40
0.4365234375
 40
0.4370117188
 40
0.4372558594
 40
0.4375
 40
0.4377441406
 40
0.4379882812
 40
0.4384765625
 40
0.4389648438
 40
0.439453125
 40
0.4404296875
 40
0.44140625
 40
0.443359375
 40
0.4453125
 40
0.447265625
 40
0.44921875
 40
0.453125
 40
0.45703125
 40
0.4609375
 40
0.46875
 40
0.4765625
 40
0.48046875
 40
0.484375
 40
0.48828125
 40
0.490234375
 40
0.4921875
 40
0.494140625
 40
0.49609375
 40
0.4970703125
 40
0.498046875
 40
0.4985351562
 40
0.4990234375
 40
0.4995117188
 40
0.4997558594
 40
0.5
 40
0.5002441406
 40
0.5004882812
 40
0.5009765625
 40
0.5014648438
 40
0.501953125
 40
0.5029296875
 40
0.50390625
 40
0.505859375
 40
0.5078125
 40
0.509765625
 40
0.51171875
 40
0.515625
 40
0.51953125
 40
0.5234375
 40
0.53125
 40
0.5390625
 40
0.54296875
 40
0.546875
 40
0.55078125
 40
0.552734375
 40
0.5546875
 40
0.556640625
 40
0.55859375
 40
0.5595703125
 40
0.560546875
 40
0.5610351562
 40
0.5615234375
 40
0.5620117188
 40
0.5622558594
 40
0.5625
 40
0.5627441406
 40
0.5629882812
 40
0.5634765625
 40
0.5639648438
 40
0.564453125
 40
0.5654296875
 40
0.56640625
 40
0.568359375
 40
0.5703125
 40
0.572265625
 40
0.57421875
 40
0.578125
 40
0.58203125
 40
0.5859375
 40
0.59375
 40
0.6015625
 40
0.60546875
 40
0.609375
 40
0.61328125
 40
0.615234375
 40
0.6171875
 40
0.619140625
 40
0.62109375
 40
0.6220703125
 40
0.623046875
 40
0.6235351562
 40
0.6240234375
 40
0.6245117188
 40
0.6247558594
 40
0.625
 40
0.6252441406
 40
0.6254882812
 40
0.6259765625
 40
0.6264648438
 40
0.626953125
 40
0.6279296875
 40
0.62890625
 40
0.630859375
 40
0.6328125
 40
0.634765625
 40
0.63671875
 40
0.640625
 40
0.64453125
 40
0.6484375
 40
0.65625
 40
0.6640625
 40
0.66796875
 40
0.671875
 40
0.67578125
 40
0.677734375
 40
0.6796875
 40
0.681640625
 40
0.68359375
 40
0.6845703125
 40
0.685546875
 40
0.6860351562
 40
0.6865234375
 40
0.6870117188
 40
0.6872558594
 40
0.6875
 40
0.6877441406
 40
0.6879882812
 40
0.6884765625
 40
0.6889648438
 40
0.689453125
 40
0.6904296875
 40
0.69140625
 40
0.693359375
 40
0.6953125
 40
0.697265625
 40
0.69921875
 40
0.703125
 40
0.70703125
 40
0.7109375
 40
0.71875
 40
0.7265625
 40
0.73046875
 40
0.734375
 40
0.73828125
 40
0.740234375
 40
0.7421875
 40
0.744140625
 40
0.74609375
 40
0.7470703125
 40
0.748046875
 40
0.7485351562
 40
0.7490234375
 40
0.7495117188
 40
0.7497558594
 40
0.7498779297
 40
0.75
 40
0.7501220703
 40
0.7502441406
 40
0.7504882812
 40
0.7509765625
 40
0.7514648438
 40
0.751953125
 40
0.7529296875
 40
0.75390625
 40
0.755859375
 40
0.7578125
 40
0.759765625
 40
0.76171875
 40
0.765625
 40
0.76953125
 40
0.7734375
 40
0.78125
 40
0.7890625
 40
0.79296875
 40
0.796875
 40
0.80078125
 40
0.802734375
 40
0.8046875
 40
0.806640625
 40
0.80859375
 40
0.8095703125
 40
0.810546875
 40
0.8110351562
 40
0.8115234375
 40
0.8120117188
 40
0.8122558594
 40
0.8125
 40
0.8127441406
 40
0.8129882812
 40
0.8134765625
 40
0.8139648438
 40
0.814453125
 40
0.8154296875
 40
0.81640625
 40
0.818359375
 40
0.8203125
 40
0.822265625
 40
0.82421875
 40
0.828125
 40
0.83203125
 40
0.8359375
 40
0.84375
 40
0.8515625
 40
0.85546875
 40
0.859375
 40
0.86328125
 40
0.865234375
 40
0.8671875
 40
0.869140625
 40
0.87109375
 40
0.8720703125
 40
0.873046875
 40
0.8735351562
 40
0.8740234375
 40
0.8745117188
 40
0.8747558594
 40
0.875
 40
0.8752441406
 40
0.8754882812
 40
0.8759765625
 40
0.8764648438
 40
0.876953125
 40
0.8779296875
 40
0.87890625
 40
0.880859375
 40
0.8828125
 40
0.884765625
 40
0.88671875
 40
0.890625
 40
0.89453125
 40
0.8984375
 40
0.90625
 40
0.9140625
 40
0.91796875
 40
0.921875
 40
0.92578125
 40
0.927734375
 40
0.9296875
 40
0.931640625
 40
0.93359375
 40
0.9345703125
 40
0.935546875
 40
0.9360351562
 40
0.9365234375
 40
0.9370117188
 40
0.9372558594
 40
0.9375
 40
0.9377441406
 40
0.9379882812
 40
0.9384765625
 40
0.9389648438
 40
0.939453125
 40
0.9404296875
 40
0.94140625
 40
0.943359375
 40
0.9453125
 40
0.947265625
 40
0.94921875
 40
0.953125
 40
0.95703125
 40
0.9609375
 40
0.96875
 40
0.9765625
 40
0.984375
 40
1.0
 40
1.0
 40
1.0
 40
1.0
 10
10.0898635222
 20
9.3483422232
 30
0.0
 10
10.0901707339
 20
9.3451877311
 30
0.0
 10
10.0906315514
 20
9.3404559929
 30
0.0
 10
10.0912459747
 20
9.3341470087
 30
0.0
 10
10.0917067922
 20
9.3294152705
 30
0.0
 10
10.0920908068
 20
9.3254721554
 30
0.0
 10
10.0923980184
 20
9.3223176632
 30
0.0
 10
10.0926284274
 20
9.3199517942
 30
0.0
 10
10.0928204339
 20
9.3179802365
 30
0.0
 10
10.0929740414
 20
9.3164029907
 30
0.0
 10
10.0930892406
 20
9.3152200554
 30
0.0
 10
10.0932044643
 20
9.3140371234
 30
0.0
 10
10.093300408
 20
9.3130513369
 30
0.0
 10
10.0933773331
 20
9.3122627296
 30
0.0
 10
10.0934345623
 20
9.3116712143
 30
0.0
 10
10.093483731
 20
9.311178475
 30
0.0
 10
10.0935152492
 20
9.3108331845
 30
0.0
 10
10.0935377875
 20
9.3106364581
 30
0.0
 10
10.0935419361
 20
9.3104872723
 30
0.0
 10
10.0935948412
 20
9.3103443593
 30
0.0
 10
10.0936483744
 20
9.3101516206
 30
0.0
 10
10.0937499815
 20
9.3098153473
 30
0.0
 10
10.0938909917
 20
9.3093344239
 30
0.0
 10
10.0940619772
 20
9.308757544
 30
0.0
 10
10.0942893384
 20
9.3079882911
 30
0.0
 10
10.0945737524
 20
9.3070267522
 30
0.0
 10
10.0949149582
 20
9.3058728939
 30
0.0
 10
10.0952561884
 20
9.3047190387
 30
0.0
 10
10.0957111534
 20
9.3031805641
 30
0.0
 10
10.0962798626
 20
9.3012574711
 30
0.0
 10
10.0969623124
 20
9.2989497594
 30
0.0
 10
10.0978722458
 20
9.2958728105
 30
0.0
 10
10.0990096625
 20
9.2920266244
 30
0.0
 10
10.1001470793
 20
9.2881804383
 30
0.0
 10
10.1010570126
 20
9.2851034894
 30
0.0
 10
10.1017394629
 20
9.2827957778
 30
0.0
 10
10.1023081705
 20
9.2808726845
 30
0.0
 10
10.1027631388
 20
9.2793342106
 30
0.0
 10
10.103104359
 20
9.2781803531
 30
0.0
 10
10.1034456022
 20
9.2770265034
 30
0.0
 10
10.1037298999
 20
9.2760649376
 30
0.0
 10
10.1039574983
 20
9.2752957398
 30
0.0
 10
10.1041277593
 20
9.2747186914
 30
0.0
 10
10.1042710362
 20
9.2742382951
 30
0.0
 10
10.1043685969
 20
9.2739010808
 30
0.0
 10
10.1044286134
 20
9.2737098499
 30
0.0
 10
10.1044616041
 20
9.2735623054
 30
0.0
 10
10.1045405476
 20
9.2734305145
 30
0.0
 10
10.1046297767
 20
9.2732492983
 30
0.0
 10
10.1047933958
 20
9.2729347301
 30
0.0
 10
10.1050232329
 20
9.2724840084
 30
0.0
 10
10.1053007087
 20
9.2719437154
 30
0.0
 10
10.1056700926
 20
9.2712231245
 30
0.0
 10
10.1061320228
 20
9.2703224546
 30
0.0
 10
10.1066862531
 20
9.2692416212
 30
0.0
 10
10.1072405065
 20
9.2681607958
 30
0.0
 10
10.1079795029
 20
9.2667196924
 30
0.0
 10
10.1089032512
 20
9.2649183142
 30
0.0
 10
10.110011748
 20
9.2627566598
 30
0.0
 10
10.1114897441
 20
9.2598744542
 30
0.0
 10
10.1133372392
 20
9.2562716971
 30
0.0
 10
10.1151847342
 20
9.2526689401
 30
0.0
 10
10.1166627303
 20
9.2497867344
 30
0.0
 10
10.1177712272
 20
9.2476250802
 30
0.0
 10
10.118694975
 20
9.2458237017
 30
0.0
 10
10.1194339726
 20
9.2443825987
 30
0.0
 10
10.1199882224
 20
9.2433017722
 30
0.0
 10
10.1205424661
 20
9.2422209428
 30
0.0
 10
10.1210043547
 20
9.2413202606
 30
0.0
 10
10.1213738235
 20
9.2405996949
 30
0.0
 10
10.1216048372
 20
9.2401493867
 30
0.0
 10
10.1217894291
 20
9.2397890361
 30
0.0
 10
10.1219284727
 20
9.239519058
 30
0.0
 10
10.1220424347
 20
9.2392931704
 30
0.0
 10
10.1221378828
 20
9.2391144919
 30
0.0
 10
10.1221977782
 20
9.2389749317
 30
0.0
 10
10.1223022971
 20
9.2388565609
 30
0.0
 10
10.122426068
 20
9.2386913315
 30
0.0
 10
10.1225861297
 20
9.2384873342
 30
0.0
 10
10.1227759147
 20
9.2382414504
 30
0.0
 10
10.1230297608
 20
9.2379139851
 30
0.0
 10
10.1233467947
 20
9.2375045234
 30
0.0
 10
10.1238542019
 20
9.2368494573
 30
0.0
 10
10.1244884085
 20
9.2360305999
 30
0.0
 10
10.1252494788
 20
9.2350479816
 30
0.0
 10
10.1260105431
 20
9.2340653605
 30
0.0
 10
10.1270252977
 20
9.2327552
 30
0.0
 10
10.1282937401
 20
9.231117499
 30
0.0
 10
10.1298158714
 20
9.2291522579
 30
0.0
 10
10.1318453796
 20
9.2265319365
 30
0.0
 10
10.1343822649
 20
9.2232565347
 30
0.0
 10
10.1369191503
 20
9.219981133
 30
0.0
 10
10.1389486585
 20
9.2173608115
 30
0.0
 10
10.1404707898
 20
9.2153955706
 30
0.0
 10
10.1417392319
 20
9.2137578691
 30
0.0
 10
10.1427539872
 20
9.2124477096
 30
0.0
 10
10.1435150494
 20
9.2114650853
 30
0.0
 10
10.1442761278
 20
9.2104824792
 30
0.0
 10
10.1449103091
 20
9.2096635837
 30
0.0
 10
10.1454177679
 20
9.2090085952
 30
0.0
 10
10.1457980511
 20
9.2085170044
 30
0.0
 10
10.1461159424
 20
9.2081084569
 30
0.0
 10
10.1463365264
 20
9.2078202924
 30
0.0
 10
10.1464656034
 20
9.2076590327
 30
0.0
 10
10.1465538781
 20
9.207528494
 30
0.0
 10
10.1466747708
 20
9.2074346281
 30
0.0
 10
10.1468245836
 20
9.2072966817
 30
0.0
 10
10.1470920569
 20
9.2070612354
 30
0.0
 10
10.1474713902
 20
9.2067217677
 30
0.0
 10
10.1479277764
 20
9.2063157401
 30
0.0
 10
10.148535877
 20
9.2057739041
 30
0.0
 10
10.1492961449
 20
9.2050967689
 30
0.0
 10
10.1502084055
 20
9.2042841382
 30
0.0
 10
10.1511206824
 20
9.2034715258
 30
0.0
 10
10.1523370458
 20
9.2023880363
 30
0.0
 10
10.1538575021
 20
9.2010336765
 30
0.0
 10
10.1556820488
 20
9.1994084439
 30
0.0
 10
10.158114778
 20
9.1972414673
 30
0.0
 10
10.1611556894
 20
9.1945327465
 30
0.0
 10
10.1641966009
 20
9.1918240258
 30
0.0
 10
10.16662933
 20
9.1896570491
 30
0.0
 10
10.1684538771
 20
9.1880318169
 30
0.0
 10
10.1699743323
 20
9.1866774558
 30
0.0
 10
10.1711906979
 20
9.1855939689
 30
0.0
 10
10.1721029684
 20
9.1847813485
 30
0.0
 10
10.1730152528
 20
9.1839687478
 30
0.0
 10
10.1737754467
 20
9.1832915193
 30
0.0
 10
10.1743836982
 20
9.1827498738
 30
0.0
 10
10.1748396234
 20
9.1823432644
 30
0.0
 10
10.1752203991
 20
9.1820056169
 30
0.0
 10
10.1754852975
 20
9.1817669211
 30
0.0
 10
10.1756392358
 20
9.1816341812
 30
0.0
 10
10.1757474562
 20
9.1815243227
 30
0.0
 10
10.1758833261
 20
9.1814538492
 30
0.0
 10
10.1760548415
 20
9.1813461467
 30
0.0
 10
10.1763594871
 20
9.1811640679
 30
0.0
 10
10.1767923457
 20
9.180900609
 30
0.0
 10
10.1773127816
 20
9.1805858907
 30
0.0
 10
10.1780063449
 20
9.180165766
 30
0.0
 10
10.1788734195
 20
9.1796407818
 30
0.0
 10
10.1799138574
 20
9.1790107271
 30
0.0
 10
10.1809543091
 20
9.1783806921
 30
0.0
 10
10.1823415733
 20
9.1775406386
 30
0.0
 10
10.1840756551
 20
9.176490574
 30
0.0
 10
10.1861565526
 20
9.1752304955
 30
0.0
 10
10.1889310828
 20
9.1735503913
 30
0.0
 10
10.1923992455
 20
9.1714502608
 30
0.0
 10
10.1958674082
 20
9.1693501304
 30
0.0
 10
10.1986419383
 20
9.167670026
 30
0.0
 10
10.2007228361
 20
9.166409948
 30
0.0
 10
10.2024569171
 20
9.165359882
 30
0.0
 10
10.2038441828
 20
9.1645198314
 30
0.0
 10
10.2048846296
 20
9.1638897876
 30
0.0
 10
10.205925086
 20
9.163259766
 30
0.0
 10
10.2067921032
 20
9.1627346787
 30
0.0
 10
10.2074857836
 20
9.1623147642
 30
0.0
 10
10.2080058619
 20
9.1619994038
 30
0.0
 10
10.2084398394
 20
9.1617379539
 30
0.0
 10
10.2087424876
 20
9.1615522887
 30
0.0
 10
10.2089172032
 20
9.1614503326
 30
0.0
 10
10.2090432431
 20
9.1613622078
 30
0.0
 10
10.2091883835
 20
9.1613186447
 30
0.0
 10
10.2093752417
 20
9.1612450169
 30
0.0
 10
10.2097053476
 20
9.1611234104
 30
0.0
 10
10.2101753045
 20
9.1609459006
 30
0.0
 10
10.2107399475
 20
9.1607345095
 30
0.0
 10
10.2114925622
 20
9.1604520885
 30
0.0
 10
10.2124334139
 20
9.1600992565
 30
0.0
 10
10.2135624002
 20
9.1596757749
 30
0.0
 10
10.214691396
 20
9.1592523155
 30
0.0
 10
10.2161967204
 20
9.1586876953
 30
0.0
 10
10.2180783771
 20
9.1579819226
 30
0.0
 10
10.2203363646
 20
9.1571349943
 30
0.0
 10
10.2233470149
 20
9.156005757
 30
0.0
 10
10.2271103276
 20
9.1545942102
 30
0.0
 10
10.2308736403
 20
9.1531826634
 30
0.0
 10
10.2338842905
 20
9.152053426
 30
0.0
 10
10.2361422781
 20
9.1512064978
 30
0.0
 10
10.2380239345
 20
9.1505007246
 30
0.0
 10
10.2395292595
 20
9.1499361055
 30
0.0
 10
10.2406582537
 20
9.1495126428
 30
0.0
 10
10.241787246
 20
9.1490891737
 30
0.0
 10
10.2427280789
 20
9.1487363028
 30
0.0
 10
10.2434807318
 20
9.1484539612
 30
0.0
 10
10.2439511706
 20
9.1482776
 30
0.0
 10
10.2443274511
 20
9.1481362767
 30
0.0
 10
10.2446098547
 20
9.1480309257
 30
0.0
 10
10.2448445762
 20
9.1479410928
 30
0.0
 10
10.2450337324
 20
9.1478738026
 30
0.0
 10
10.2451718316
 20
9.147810831
 30
0.0
 10
10.245324313
 20
9.147795587
 30
0.0
 10
10.2455225977
 20
9.1477585898
 30
0.0
 10
10.2457721772
 20
9.1477180634
 30
0.0
 10
10.2460709348
 20
9.1476669833
 30
0.0
 10
10.246469536
 20
9.1475997317
 30
0.0
 10
10.2469676992
 20
9.1475153743
 30
0.0
 10
10.2477648097
 20
9.1473805662
 30
0.0
 10
10.2487611808
 20
9.147212
 30
0.0
 10
10.2499568335
 20
9.1470097445
 30
0.0
 10
10.2511524842
 20
9.1468074826
 30
0.0
 10
10.2527466859
 20
9.1465378023
 30
0.0
 10
10.2547394377
 20
9.1462007012
 30
0.0
 10
10.25713074
 20
9.1457961802
 30
0.0
 10
10.260319143
 20
9.1452568188
 30
0.0
 10
10.2643046468
 20
9.144582617
 30
0.0
 10
10.2682901506
 20
9.1439084152
 30
0.0
 10
10.2714785536
 20
9.1433690538
 30
0.0
 10
10.2738698559
 20
9.1429645326
 30
0.0
 10
10.2758626078
 20
9.142627432
 30
0.0
 10
10.2774568093
 20
9.1423577508
 30
0.0
 10
10.2786524603
 20
9.1421554917
 30
0.0
 10
10.2798481119
 20
9.1419532257
 30
0.0
 10
10.2808444864
 20
9.1417846922
 30
0.0
 10
10.2816415902
 20
9.1416498174
 30
0.0
 10
10.2821397705
 20
9.1415656298
 30
0.0
 10
10.2825383366
 20
9.1414980298
 30
0.0
 10
10.2828372012
 20
9.141448014
 30
0.0
 10
10.283086446
 20
9.1414041576
 30
0.0
 10
10.2832854135
 20
9.1413739542
 30
0.0
 10
10.2834358096
 20
9.1413379624
 30
0.0
 10
10.283581738
 20
9.1413528868
 30
0.0
 10
10.2837778699
 20
9.1413550004
 30
0.0
 10
10.2840224993
 20
9.1413637446
 30
0.0
 10
10.2843162838
 20
9.1413716256
 30
0.0
 10
10.2847079164
 20
9.141383046
 30
0.0
 10
10.2851974845
 20
9.1413970091
 30
0.0
 10
10.2859807782
 20
9.1414195246
 30
0.0
 10
10.2869599006
 20
9.1414476091
 30
0.0
 10
10.2881348452
 20
9.1414813362
 30
0.0
 10
10.2893097905
 20
9.1415150564
 30
0.0
 10
10.2908763839
 20
9.1415600191
 30
0.0
 10
10.2928346257
 20
9.1416162216
 30
0.0
 10
10.2951845159
 20
9.141683665
 30
0.0
 10
10.2983177028
 20
9.1417735894
 30
0.0
 10
10.3022341865
 20
9.1418859949
 30
0.0
 10
10.3061506701
 20
9.1419984004
 30
0.0
 10
10.309283857
 20
9.1420883248
 30
0.0
 10
10.3116337472
 20
9.1421557681
 30
0.0
 10
10.313591989
 20
9.142211971
 30
0.0
 10
10.3151585826
 20
9.1422569328
 30
0.0
 10
10.3163335274
 20
9.1422906559
 30
0.0
 10
10.3175084735
 20
9.1423243722
 30
0.0
 10
10.3184875912
 20
9.14235249
 30
0.0
 10
10.3192708945
 20
9.1423749377
 30
0.0
 10
10.3197604383
 20
9.1423890734
 30
0.0
 10
10.3201521208
 20
9.1424001394
 30
0.0
 10
10.3204457529
 20
9.1424091032
 30
0.0
 10
10.3206908591
 20
9.1424144597
 30
0.0
 10
10.3208860182
 20
9.1424234848
 30
0.0
 10
10.3210349173
 20
9.1424173019
 30
0.0
 10
10.3211741603
 20
9.1424605557
 30
0.0
 10
10.3213631907
 20
9.1425009586
 30
0.0
 10
10.3215983213
 20
9.142557387
 30
0.0
 10
10.3218809735
 20
9.1426225651
 30
0.0
 10
10.32225767
 20
9.142710355
 30
0.0
 10
10.3227285998
 20
9.1428197891
 30
0.0
 10
10.3234820545
 20
9.1429950532
 30
0.0
 10
10.3244238842
 20
9.1432140751
 30
0.0
 10
10.325554075
 20
9.1434769263
 30
0.0
 10
10.326684267
 20
9.1437397708
 30
0.0
 10
10.3281911894
 20
9.1440902326
 30
0.0
 10
10.3300748424
 20
9.1445283089
 30
0.0
 10
10.332335226
 20
9.1450540009
 30
0.0
 10
10.3353490708
 20
9.1457549234
 30
0.0
 10
10.3391163768
 20
9.1466310766
 30
0.0
 10
10.3428836828
 20
9.1475072298
 30
0.0
 10
10.3458975276
 20
9.1482081524
 30
0.0
 10
10.3481579112
 20
9.1487338442
 30
0.0
 10
10.3500415641
 20
9.149171921
 30
0.0
 10
10.3515484867
 20
9.1495223819
 30
0.0
 10
10.352678678
 20
9.1497852292
 30
0.0
 10
10.3538088718
 20
9.1500480701
 30
0.0
 10
10.354750692
 20
9.150267124
 30
0.0
 10
10.355504166
 20
9.1504423227
 30
0.0
 10
10.3559750467
 20
9.1505519232
 30
0.0
 10
10.3563518442
 20
9.1506393716
 30
0.0
 10
10.3566341877
 20
9.1507055931
 30
0.0
 10
10.3568702839
 20
9.1507587568
 30
0.0
 10
10.3570573444
 20
9.1508058205
 30
0.0
 10
10.357202603
 20
9.1508287325
 30
0.0
 10
10.3573289171
 20
9.150898921
 30
0.0
 10
10.3575039535
 20
9.1509759914
 30
0.0
 10
10.3577204786
 20
9.1510779954
 30
0.0
 10
10.3579812804
 20
9.1511979749
 30
0.0
 10
10.3583286768
 20
9.1513587947
 30
0.0
 10
10.3587630385
 20
9.1515595295
 30
0.0
 10
10.3594579523
 20
9.1518808671
 30
0.0
 10
10.3603266168
 20
9.1522824835
 30
0.0
 10
10.3613690046
 20
9.1527644471
 30
0.0
 10
10.362411395
 20
9.1532464043
 30
0.0
 10
10.3638012479
 20
9.1538890161
 30
0.0
 10
10.3655385644
 20
9.1546922801
 30
0.0
 10
10.3676233441
 20
9.1556561973
 30
0.0
 10
10.3704030504
 20
9.15694142
 30
0.0
 10
10.3738776832
 20
9.1585479485
 30
0.0
 10
10.3773523161
 20
9.1601544769
 30
0.0
 10
10.3801320224
 20
9.1614396997
 30
0.0
 10
10.3822168021
 20
9.1624036167
 30
0.0
 10
10.3839541184
 20
9.1632068811
 30
0.0
 10
10.3853439718
 20
9.1638494921
 30
0.0
 10
10.3863863609
 20
9.1643314519
 30
0.0
 10
10.3874287534
 20
9.1648134055
 30
0.0
 10
10.3882974035
 20
9.165215053
 30
0.0
 10
10.3889923465
 20
9.1655363274
 30
0.0
 10
10.3894266338
 20
9.1657372231
 30
0.0
 10
10.3897741829
 20
9.1658977124
 30
0.0
 10
10.3900345183
 20
9.1660187017
 30
0.0
 10
10.3902525027
 20
9.1661175465
 30
0.0
 10
10.3904245618
 20
9.1662010622
 30
0.0
 10
10.3905599682
 20
9.1662515671
 30
0.0
 10
10.3906710906
 20
9.1663483796
 30
0.0
 10
10.3908277365
 20
9.1664612871
 30
0.0
 10
10.3910206335
 20
9.1666079714
 30
0.0
 10
10.3912533556
 20
9.166781617
 30
0.0
 10
10.3915632167
 20
9.1670139742
 30
0.0
 10
10.391950692
 20
9.1673041366
 30
0.0
 10
10.3925705692
 20
9.1677685552
 30
0.0
 10
10.3933454443
 20
9.1683490239
 30
0.0
 10
10.3942752822
 20
9.1690456098
 30
0.0
 10
10.3952051233
 20
9.1697421894
 30
0.0
 10
10.3964449104
 20
9.1706709645
 30
0.0
 10
10.3979946446
 20
9.1718319325
 30
0.0
 10
10.3998543254
 20
9.1732250944
 30
0.0
 10
10.4023339
 20
9.1750826436
 30
0.0
 10
10.4054333682
 20
9.1774045801
 30
0.0
 10
10.4085328364
 20
9.1797265165
 30
0.0
 10
10.4110124109
 20
9.1815840657
 30
0.0
 10
10.4128720918
 20
9.1829772276
 30
0.0
 10
10.414421826
 20
9.1841381958
 30
0.0
 10
10.4156616131
 20
9.1850669705
 30
0.0
 10
10.416591454
 20
9.1857635511
 30
0.0
 10
10.4175212929
 20
9.1864601333
 30
0.0
 10
10.4182961646
 20
9.1870406133
 30
0.0
 10
10.4189160489
 20
9.187505009
 30
0.0
 10
10.4193035061
 20
9.1877952296
 30
0.0
 10
10.4196134042
 20
9.1880274674
 30
0.0
 10
10.4198460132
 20
9.1882014776
 30
0.0
 10
10.4200392641
 20
9.1883470212
 30
0.0
 10
10.4201756976
 20
9.1884478515
 30
0.0
 10
10.4202518516
 20
9.1885071087
 30
0.0
 10
10.42031406
 20
9.1885469319
 30
0.0
 10
10.420356801
 20
9.1886044142
 30
0.0
 10
10.4204205795
 20
9.1886748975
 30
0.0
 10
10.4205290279
 20
9.1888011132
 30
0.0
 10
10.4206856084
 20
9.188979921
 30
0.0
 10
10.4208727969
 20
9.1891951325
 30
0.0
 10
10.421122629
 20
9.1894818569
 30
0.0
 10
10.4214348343
 20
9.1898403392
 30
0.0
 10
10.4219344102
 20
9.190413868
 30
0.0
 10
10.4225588639
 20
9.1911307937
 30
0.0
 10
10.4233082152
 20
9.1919910982
 30
0.0
 10
10.4240575646
 20
9.1928514044
 30
0.0
 10
10.4250566979
 20
9.1939984788
 30
0.0
 10
10.4263056143
 20
9.1954323219
 30
0.0
 10
10.427804314
 20
9.1971529336
 30
0.0
 10
10.4298025802
 20
9.1994470825
 30
0.0
 10
10.4323004131
 20
9.2023147687
 30
0.0
 10
10.4347982459
 20
9.2051824548
 30
0.0
 10
10.4367965122
 20
9.2074766038
 30
0.0
 10
10.4382952119
 20
9.2091972154
 30
0.0
 10
10.4395441281
 20
9.2106310587
 30
0.0
 10
10.4405432617
 20
9.2117781328
 30
0.0
 10
10.4412926103
 20
9.2126384396
 30
0.0
 10
10.4420419646
 20
9.2134987421
 30
0.0
 10
10.4426664091
 20
9.2142156738
 30
0.0
 10
10.4431660036
 20
9.2147891904
 30
0.0
 10
10.4434781616
 20
9.2151477037
 30
0.0
 10
10.4437280908
 20
9.2154343645
 30
0.0
 10
10.4439149825
 20
9.2156497703
 30
0.0
 10
10.4440724917
 20
9.2158279704
 30
0.0
 10
10.4441945381
 20
9.2159734567
 30
0.0
 10
10.4442968959
 20
9.2160745755
 30
0.0
 10
10.4443579423
 20
9.2162062148
 30
0.0
 10
10.4444537681
 20
9.2163710727
 30
0.0
 10
10.4445685993
 20
9.2165808029
 30
0.0
 10
10.444708516
 20
9.2168309135
 30
0.0
 10
10.4448943314
 20
9.2171649411
 30
0.0
 10
10.445126854
 20
9.2175822883
 30
0.0
 10
10.4454987486
 20
9.2182501486
 30
0.0
 10
10.4459636654
 20
9.219084938
 30
0.0
 10
10.4465215448
 20
9.2200867007
 30
0.0
 10
10.4470794297
 20
9.2210884593
 30
0.0
 10
10.4478232743
 20
9.2224241388
 30
0.0
 10
10.4487530808
 20
9.2240937378
 30
0.0
 10
10.4498688482
 20
9.2260972567
 30
0.0
 10
10.4513565383
 20
9.2287686152
 30
0.0
 10
10.4532161508
 20
9.2321078134
 30
0.0
 10
10.4550757633
 20
9.2354470115
 30
0.0
 10
10.4565634533
 20
9.23811837
 30
0.0
 10
10.4576792209
 20
9.2401218889
 30
0.0
 10
10.458609027
 20
9.2417914881
 30
0.0
 10
10.4593528724
 20
9.2431271671
 30
0.0
 10
10.4599107549
 20
9.2441289272
 30
0.0
 10
10.4604686435
 20
9.2451306842
 30
0.0
 10
10.4609335315
 20
9.2459654912
 30
0.0
 10
10.461305485
 20
9.2466333157
 30
0.0
 10
10.4615378576
 20
9.2470507538
 30
0.0
 10
10.4617239809
 20
9.247384595
 30
0.0
 10
10.4618629567
 20
9.2476352753
 30
0.0
 10
10.4619807318
 20
9.2478432228
 30
0.0
 10
10.4620705515
 20
9.2480117177
 30
0.0
 10
10.4621499403
 20
9.2481322498
 30
0.0
 10
10.4621834329
 20
9.2482750697
 30
0.0
 10
10.4622441219
 20
9.2484577107
 30
0.0
 10
10.4623144826
 20
9.2486886832
 30
0.0
 10
10.4624012698
 20
9.2489647068
 30
0.0
 10
10.4625161637
 20
9.2493331376
 30
0.0
 10
10.4626600627
 20
9.2497935394
 30
0.0
 10
10.4628901437
 20
9.2505302587
 30
0.0
 10
10.463177799
 20
9.2514511316
 30
0.0
 10
10.4635229621
 20
9.2525561903
 30
0.0
 10
10.4638681315
 20
9.253661246
 30
0.0
 10
10.4643283551
 20
9.2551346546
 30
0.0
 10
10.4649036354
 20
9.2569764151
 30
0.0
 10
10.4655939714
 20
9.2591865278
 30
0.0
 10
10.4665144196
 20
9.2621333447
 30
0.0
 10
10.4676649797
 20
9.2658168658
 30
0.0
 10
10.4688155399
 20
9.2695003869
 30
0.0
 10
10.469735988
 20
9.2724472038
 30
0.0
 10
10.4704263242
 20
9.2746573164
 30
0.0
 10
10.4710016041
 20
9.276499077
 30
0.0
 10
10.4714618286
 20
9.2779724853
 30
0.0
 10
10.4718069952
 20
9.2790775422
 30
0.0
 10
10.4721521685
 20
9.2801825966
 30
0.0
 10
10.4724397924
 20
9.2811034828
 30
0.0
 10
10.4726699373
 20
9.281840175
 30
0.0
 10
10.4728136735
 20
9.2823006457
 30
0.0
 10
10.4729289016
 20
9.2826689351
 30
0.0
 10
10.4730146679
 20
9.2829453908
 30
0.0
 10
10.4730882228
 20
9.2831750113
 30
0.0
 10
10.473142395
 20
9.2833604106
 30
0.0
 10
10.4731957894
 20
9.2834948068
 30
0.0
 10
10.4732004587
 20
9.2836469645
 30
0.0
 10
10.4732237048
 20
9.2838436371
 30
0.0
 10
10.4732469229
 20
9.2840916066
 30
0.0
 10
10.473277284
 20
9.2843882588
 30
0.0
 10
10.4733168926
 20
9.2847841132
 30
0.0
 10
10.4733667022
 20
9.2852788224
 30
0.0
 10
10.4734462305
 20
9.2860704179
 30
0.0
 10
10.4735456982
 20
9.2870598914
 30
0.0
 10
10.4736650348
 20
9.2882472686
 30
0.0
 10
10.4737843781
 20
9.2894346434
 30
0.0
 10
10.4739435001
 20
9.2910178106
 30
0.0
 10
10.4741424034
 20
9.2929967693
 30
0.0
 10
10.474381087
 20
9.2953715199
 30
0.0
 10
10.474699332
 20
9.2985378539
 30
0.0
 10
10.4750971381
 20
9.3024957715
 30
0.0
 10
10.4755745055
 20
9.3072452726
 30
0.0
 10
10.4762109954
 20
9.3135779408
 30
0.0
 10
10.4766883628
 20
9.3183274419
 30
0.0
 10
10.4770066077
 20
9.321493776
 30
0.0
  0
SPLINE
  5
3F4
100
AcDbEntity
  8
0
100
AcDbSpline
 62
4
  6
CONTINUOUS
 70
0
 71
3
 72
455
 73
451
 74
0
 42
0.0000001
 43
0.0000001
 44
0.0000000001
 40
0.0
 40
0.0
 40
0.0
 40
0.0
 40
0.015625
 40
0.0234375
 40
0.03125
 40
0.0390625
 40
0.04296875
 40
0.046875
 40
0.05078125
 40
0.052734375
 40
0.0546875
 40
0.056640625
 40
0.05859375
 40
0.0595703125
 40
0.060546875
 40
0.0615234375
 40
0.0620117188
 40
0.0622558594
 40
0.0625
 40
0.0627441406
 40
0.0629882812
 40
0.0634765625
 40
0.064453125
 40
0.0654296875
 40
0.06640625
 40
0.068359375
 40
0.0703125
 40
0.072265625
 40
0.07421875
 40
0.078125
 40
0.08203125
 40
0.0859375
 40
0.09375
 40
0.1015625
 40
0.10546875
 40
0.109375
 40
0.11328125
 40
0.115234375
 40
0.1171875
 40
0.119140625
 40
0.12109375
 40
0.1220703125
 40
0.123046875
 40
0.1240234375
 40
0.1245117188
 40
0.1247558594
 40
0.125
 40
0.1252441406
 40
0.1254882812
 40
0.1259765625
 40
0.126953125
 40
0.1279296875
 40
0.12890625
 40
0.130859375
 40
0.1328125
 40
0.134765625
 40
0.13671875
 40
0.140625
 40
0.14453125
 40
0.1484375
 40
0.15625
 40
0.1640625
 40
0.16796875
 40
0.171875
 40
0.17578125
 40
0.177734375
 40
0.1796875
 40
0.181640625
 40
0.18359375
 40
0.1845703125
 40
0.185546875
 40
0.1860351562
 40
0.1865234375
 40
0.1870117188
 40
0.1872558594
 40
0.1875
 40
0.1877441406
 40
0.1879882812
 40
0.1884765625
 40
0.1889648438
 40
0.189453125
 40
0.1904296875
 40
0.19140625
 40
0.193359375
 40
0.1953125
 40
0.197265625
 40
0.19921875
 40
0.203125
 40
0.20703125
 40
0.2109375
 40
0.21875
 40
0.2265625
 40
0.23046875
 40
0.234375
 40
0.23828125
 40
0.240234375
 40
0.2421875
 40
0.244140625
 40
0.24609375
 40
0.2470703125
 40
0.248046875
 40
0.2490234375
 40
0.2495117188
 40
0.2497558594
 40
0.25
 40
0.2502441406
 40
0.2504882812
 40
0.2509765625
 40
0.251953125
 40
0.2529296875
 40
0.25390625
 40
0.255859375
 40
0.2578125
 40
0.259765625
 40
0.26171875
 40
0.265625
 40
0.26953125
 40
0.2734375
 40
0.28125
 40
0.2890625
 40
0.29296875
 40
0.296875
 40
0.30078125
 40
0.302734375
 40
0.3046875
 40
0.306640625
 40
0.30859375
 40
0.3095703125
 40
0.310546875
 40
0.3115234375
 40
0.3120117188
 40
0.3122558594
 40
0.3125
 40
0.3127441406
 40
0.3129882812
 40
0.3134765625
 40
0.314453125
 40
0.3154296875
 40
0.31640625
 40
0.318359375
 40
0.3203125
 40
0.322265625
 40
0.32421875
 40
0.328125
 40
0.33203125
 40
0.3359375
 40
0.34375
 40
0.3515625
 40
0.35546875
 40
0.359375
 40
0.36328125
 40
0.365234375
 40
0.3671875
 40
0.369140625
 40
0.37109375
 40
0.3720703125
 40
0.373046875
 40
0.3740234375
 40
0.3745117188
 40
0.3747558594
 40
0.375
 40
0.3752441406
 40
0.3754882812
 40
0.3759765625
 40
0.376953125
 40
0.3779296875
 40
0.37890625
 40
0.380859375
 40
0.3828125
 40
0.384765625
 40
0.38671875
 40
0.390625
 40
0.39453125
 40
0.3984375
 40
0.40625
 40
0.4140625
 40
0.41796875
 40
0.421875
 40
0.42578125
 40
0.427734375
 40
0.4296875
 40
0.431640625
 40
0.43359375
 40
0.4345703125
 40
0.435546875
 40
0.4360351562
 40
0.4365234375
 40
0.4370117188
 40
0.4372558594
 40
0.4375
 40
0.4377441406
 40
0.4379882812
 40
0.4384765625
 40
0.4389648438
 40
0.439453125
 40
0.4404296875
 40
0.44140625
 40
0.443359375
 40
0.4453125
 40
0.447265625
 40
0.44921875
 40
0.453125
 40
0.45703125
 40
0.4609375
 40
0.46875
 40
0.4765625
 40
0.48046875
 40
0.484375
 40
0.48828125
 40
0.490234375
 40
0.4921875
 40
0.494140625
 40
0.49609375
 40
0.4970703125
 40
0.498046875
 40
0.4985351562
 40
0.4990234375
 40
0.4995117188
 40
0.4997558594
 40
0.5
 40
0.5002441406
 40
0.5004882812
 40
0.5009765625
 40
0.5014648438
 40
0.501953125
 40
0.5029296875
 40
0.50390625
 40
0.505859375
 40
0.5078125
 40
0.509765625
 40
0.51171875
 40
0.515625
 40
0.51953125
 40
0.5234375
 40
0.53125
 40
0.5390625
 40
0.54296875
 40
0.546875
 40
0.55078125
 40
0.552734375
 40
0.5546875
 40
0.556640625
 40
0.55859375
 40
0.5595703125
 40
0.560546875
 40
0.5610351562
 40
0.5615234375
 40
0.5620117188
 40
0.5622558594
 40
0.5625
 40
0.5627441406
 40
0.5629882812
 40
0.5634765625
 40
0.5639648438
 40
0.564453125
 40
0.5654296875
 40
0.56640625
 40
0.568359375
 40
0.5703125
 40
0.572265625
 40
0.57421875
 40
0.578125
 40
0.58203125
 40
0.5859375
 40
0.59375
 40
0.6015625
 40
0.60546875
 40
0.609375
 40
0.61328125
 40
0.615234375
 40
0.6171875
 40
0.619140625
 40
0.62109375
 40
0.6220703125
 40
0.623046875
 40
0.6235351562
 40
0.6240234375
 40
0.6245117188
 40
0.6247558594
 40
0.625
 40
0.6252441406
 40
0.6254882812
 40
0.6259765625
 40
0.6264648438
 40
0.626953125
 40
0.6279296875
 40
0.62890625
 40
0.630859375
 40
0.6328125
 40
0.634765625
 40
0.63671875
 40
0.640625
 40
0.64453125
 40
0.6484375
 40
0.65625
 40
0.6640625
 40
0.66796875
 40
0.671875
 40
0.67578125
 40
0.677734375
 40
0.6796875
 40
0.681640625
 40
0.68359375
 40
0.6845703125
 40
0.685546875
 40
0.6860351562
 40
0.6865234375
 40
0.6870117188
 40
0.6872558594
 40
0.6875
 40
0.6877441406
 40
0.6879882812
 40
0.6884765625
 40
0.6889648438
 40
0.689453125
 40
0.6904296875
 40
0.69140625
 40
0.693359375
 40
0.6953125
 40
0.697265625
 40
0.69921875
 40
0.703125
 40
0.70703125
 40
0.7109375
 40
0.71875
 40
0.7265625
 40
0.73046875
 40
0.734375
 40
0.73828125
 40
0.740234375
 40
0.7421875
 40
0.744140625
 40
0.74609375
 40
0.7470703125
 40
0.748046875
 40
0.7485351562
 40
0.7490234375
 40
0.7495117188
 40
0.7497558594
 40
0.7498779297
 40
0.75
 40
0.7501220703
 40
0.7502441406
 40
0.7504882812
 40
0.7509765625
 40
0.7514648438
 40
0.751953125
 40
0.7529296875
 40
0.75390625
 40
0.755859375
 40
0.7578125
 40
0.759765625
 40
0.76171875
 40
0.765625
 40
0.76953125
 40
0.7734375
 40
0.78125
 40
0.7890625
 40
0.79296875
 40
0.796875
 40
0.80078125
 40
0.802734375
 40
0.8046875
 40
0.806640625
 40
0.80859375
 40
0.8095703125
 40
0.810546875
 40
0.8110351562
 40
0.8115234375
 40
0.8120117188
 40
0.8122558594
 40
0.8125
 40
0.8127441406
 40
0.8129882812
 40
0.8134765625
 40
0.8139648438
 40
0.814453125
 40
0.8154296875
 40
0.81640625
 40
0.818359375
 40
0.8203125
 40
0.822265625
 40
0.82421875
 40
0.828125
 40
0.83203125
 40
0.8359375
 40
0.84375
 40
0.8515625
 40
0.85546875
 40
0.859375
 40
0.86328125
 40
0.865234375
 40
0.8671875
 40
0.869140625
 40
0.87109375
 40
0.8720703125
 40
0.873046875
 40
0.8735351562
 40
0.8740234375
 40
0.8745117188
 40
0.8747558594
 40
0.875
 40
0.8752441406
 40
0.8754882812
 40
0.8759765625
 40
0.8764648438
 40
0.876953125
 40
0.8779296875
 40
0.87890625
 40
0.880859375
 40
0.8828125
 40
0.884765625
 40
0.88671875
 40
0.890625
 40
0.89453125
 40
0.8984375
 40
0.90625
 40
0.9140625
 40
0.91796875
 40
0.921875
 40
0.92578125
 40
0.927734375
 40
0.9296875
 40
0.931640625
 40
0.93359375
 40
0.9345703125
 40
0.935546875
 40
0.9360351562
 40
0.9365234375
 40
0.9370117188
 40
0.9372558594
 40
0.9375
 40
0.9377441406
 40
0.9379882812
 40
0.9384765625
 40
0.9389648438
 40
0.939453125
 40
0.9404296875
 40
0.94140625
 40
0.943359375
 40
0.9453125
 40
0.947265625
 40
0.94921875
 40
0.953125
 40
0.95703125
 40
0.9609375
 40
0.96875
 40
0.9765625
 40
0.984375
 40
1.0
 40
1.0
 40
1.0
 40
1.0
 10
10.4770066077
 20
9.3214937591
 30
0.0
 10
10.476699396
 20
9.3246482512
 30
0.0
 10
10.4762385785
 20
9.3293799894
 30
0.0
 10
10.4756241552
 20
9.3356889736
 30
0.0
 10
10.4751633377
 20
9.3404207118
 30
0.0
 10
10.4747793231
 20
9.3443638269
 30
0.0
 10
10.4744721115
 20
9.347518319
 30
0.0
 10
10.4742417025
 20
9.3498841881
 30
0.0
 10
10.474049696
 20
9.3518557458
 30
0.0
 10
10.4738960885
 20
9.3534329916
 30
0.0
 10
10.4737808893
 20
9.3546159268
 30
0.0
 10
10.4736656657
 20
9.3557988589
 30
0.0
 10
10.4735697219
 20
9.3567846454
 30
0.0
 10
10.4734927969
 20
9.3575732527
 30
0.0
 10
10.4734355676
 20
9.358164768
 30
0.0
 10
10.473386399
 20
9.3586575072
 30
0.0
 10
10.4733548807
 20
9.3590027978
 30
0.0
 10
10.4733323424
 20
9.3591995242
 30
0.0
 10
10.4733281938
 20
9.3593487099
 30
0.0
 10
10.4732752888
 20
9.359491623
 30
0.0
 10
10.4732217555
 20
9.3596843617
 30
0.0
 10
10.4731201485
 20
9.360020635
 30
0.0
 10
10.4729791382
 20
9.3605015583
 30
0.0
 10
10.4728081528
 20
9.3610784383
 30
0.0
 10
10.4725807916
 20
9.3618476912
 30
0.0
 10
10.4722963775
 20
9.36280923
 30
0.0
 10
10.4719551717
 20
9.3639630884
 30
0.0
 10
10.4716139416
 20
9.3651169435
 30
0.0
 10
10.4711589765
 20
9.3666554182
 30
0.0
 10
10.4705902673
 20
9.3685785112
 30
0.0
 10
10.4699078176
 20
9.3708862229
 30
0.0
 10
10.4689978841
 20
9.3739631717
 30
0.0
 10
10.4678604674
 20
9.3778093579
 30
0.0
 10
10.4667230506
 20
9.381655544
 30
0.0
 10
10.4658131173
 20
9.3847324929
 30
0.0
 10
10.465130667
 20
9.3870402045
 30
0.0
 10
10.4645619594
 20
9.3889632978
 30
0.0
 10
10.4641069911
 20
9.3905017717
 30
0.0
 10
10.4637657709
 20
9.3916556292
 30
0.0
 10
10.4634245278
 20
9.3928094788
 30
0.0
 10
10.46314023
 20
9.3937710447
 30
0.0
 10
10.4629126316
 20
9.3945402425
 30
0.0
 10
10.4627423706
 20
9.3951172909
 30
0.0
 10
10.4625990937
 20
9.3955976871
 30
0.0
 10
10.462501533
 20
9.3959349015
 30
0.0
 10
10.4624415165
 20
9.3961261324
 30
0.0
 10
10.4624085258
 20
9.3962736768
 30
0.0
 10
10.4623295823
 20
9.3964054678
 30
0.0
 10
10.4622403532
 20
9.396586684
 30
0.0
 10
10.4620767342
 20
9.3969012522
 30
0.0
 10
10.461846897
 20
9.3973519739
 30
0.0
 10
10.4615694213
 20
9.3978922669
 30
0.0
 10
10.4612000374
 20
9.3986128578
 30
0.0
 10
10.4607381072
 20
9.3995135277
 30
0.0
 10
10.4601838768
 20
9.400594361
 30
0.0
 10
10.4596296234
 20
9.4016751865
 30
0.0
 10
10.458890627
 20
9.4031162899
 30
0.0
 10
10.4579668787
 20
9.4049176681
 30
0.0
 10
10.4568583819
 20
9.4070793224
 30
0.0
 10
10.4553803858
 20
9.4099615281
 30
0.0
 10
10.4535328908
 20
9.4135642851
 30
0.0
 10
10.4516853957
 20
9.4171670422
 30
0.0
 10
10.4502073996
 20
9.4200492478
 30
0.0
 10
10.4490989027
 20
9.4222109021
 30
0.0
 10
10.4481751549
 20
9.4240122805
 30
0.0
 10
10.4474361573
 20
9.4254533836
 30
0.0
 10
10.4468819076
 20
9.4265342101
 30
0.0
 10
10.4463276638
 20
9.4276150394
 30
0.0
 10
10.4458657752
 20
9.4285157217
 30
0.0
 10
10.4454963064
 20
9.4292362874
 30
0.0
 10
10.4452652927
 20
9.4296865956
 30
0.0
 10
10.4450807008
 20
9.4300469461
 30
0.0
 10
10.4449416572
 20
9.4303169243
 30
0.0
 10
10.4448276952
 20
9.4305428119
 30
0.0
 10
10.4447322471
 20
9.4307214904
 30
0.0
 10
10.4446723518
 20
9.4308610506
 30
0.0
 10
10.4445678329
 20
9.4309794214
 30
0.0
 10
10.4444440619
 20
9.4311446508
 30
0.0
 10
10.4442840002
 20
9.4313486481
 30
0.0
 10
10.4440942152
 20
9.4315945319
 30
0.0
 10
10.4438403691
 20
9.4319219972
 30
0.0
 10
10.4435233352
 20
9.4323314589
 30
0.0
 10
10.443015928
 20
9.4329865249
 30
0.0
 10
10.4423817215
 20
9.4338053824
 30
0.0
 10
10.4416206511
 20
9.4347880007
 30
0.0
 10
10.4408595868
 20
9.4357706218
 30
0.0
 10
10.4398448322
 20
9.4370807823
 30
0.0
 10
10.4385763898
 20
9.4387184833
 30
0.0
 10
10.4370542585
 20
9.4406837244
 30
0.0
 10
10.4350247503
 20
9.4433040458
 30
0.0
 10
10.432487865
 20
9.4465794476
 30
0.0
 10
10.4299509796
 20
9.4498548493
 30
0.0
 10
10.4279214715
 20
9.4524751708
 30
0.0
 10
10.4263993401
 20
9.4544404117
 30
0.0
 10
10.425130898
 20
9.4560781132
 30
0.0
 10
10.4241161427
 20
9.4573882726
 30
0.0
 10
10.4233550806
 20
9.458370897
 30
0.0
 10
10.4225940021
 20
9.4593535031
 30
0.0
 10
10.4219598208
 20
9.4601723986
 30
0.0
 10
10.4214523621
 20
9.4608273871
 30
0.0
 10
10.4210720788
 20
9.4613189779
 30
0.0
 10
10.4207541875
 20
9.4617275254
 30
0.0
 10
10.4205336036
 20
9.4620156899
 30
0.0
 10
10.4204045265
 20
9.4621769496
 30
0.0
 10
10.4203162518
 20
9.4623074882
 30
0.0
 10
10.4201953591
 20
9.4624013542
 30
0.0
 10
10.4200455464
 20
9.4625393006
 30
0.0
 10
10.419778073
 20
9.4627747469
 30
0.0
 10
10.4193987397
 20
9.4631142146
 30
0.0
 10
10.4189423535
 20
9.4635202422
 30
0.0
 10
10.4183342529
 20
9.4640620782
 30
0.0
 10
10.417573985
 20
9.4647392134
 30
0.0
 10
10.4166617244
 20
9.4655518441
 30
0.0
 10
10.4157494476
 20
9.4663644565
 30
0.0
 10
10.4145330841
 20
9.467447946
 30
0.0
 10
10.4130126278
 20
9.4688023058
 30
0.0
 10
10.4111880811
 20
9.4704275384
 30
0.0
 10
10.4087553519
 20
9.472594515
 30
0.0
 10
10.4057144405
 20
9.4753032358
 30
0.0
 10
10.402673529
 20
9.4780119565
 30
0.0
 10
10.4002407999
 20
9.4801789332
 30
0.0
 10
10.3984162529
 20
9.4818041654
 30
0.0
 10
10.3968957976
 20
9.4831585265
 30
0.0
 10
10.3956794321
 20
9.4842420134
 30
0.0
 10
10.3947671615
 20
9.4850546338
 30
0.0
 10
10.3938548772
 20
9.4858672344
 30
0.0
 10
10.3930946833
 20
9.486544463
 30
0.0
 10
10.3924864317
 20
9.4870861085
 30
0.0
 10
10.3920305065
 20
9.4874927179
 30
0.0
 10
10.3916497308
 20
9.4878303654
 30
0.0
 10
10.3913848324
 20
9.4880690611
 30
0.0
 10
10.3912308941
 20
9.4882018011
 30
0.0
 10
10.3911226737
 20
9.4883116595
 30
0.0
 10
10.3909868038
 20
9.488382133
 30
0.0
 10
10.3908152884
 20
9.4884898356
 30
0.0
 10
10.3905106429
 20
9.4886719144
 30
0.0
 10
10.3900777843
 20
9.4889353733
 30
0.0
 10
10.3895573483
 20
9.4892500915
 30
0.0
 10
10.3888637851
 20
9.4896702163
 30
0.0
 10
10.3879967104
 20
9.4901952005
 30
0.0
 10
10.3869562725
 20
9.4908252552
 30
0.0
 10
10.3859158208
 20
9.4914552902
 30
0.0
 10
10.3845285567
 20
9.4922953437
 30
0.0
 10
10.3827944748
 20
9.4933454083
 30
0.0
 10
10.3807135774
 20
9.4946054867
 30
0.0
 10
10.3779390471
 20
9.496285591
 30
0.0
 10
10.3744708845
 20
9.4983857215
 30
0.0
 10
10.3710027217
 20
9.5004858519
 30
0.0
 10
10.3682281916
 20
9.5021659563
 30
0.0
 10
10.3661472939
 20
9.5034260343
 30
0.0
 10
10.3644132128
 20
9.5044761003
 30
0.0
 10
10.3630259471
 20
9.5053161509
 30
0.0
 10
10.3619855003
 20
9.5059461947
 30
0.0
 10
10.3609450439
 20
9.5065762163
 30
0.0
 10
10.3600780267
 20
9.5071013036
 30
0.0
 10
10.3593843463
 20
9.5075212181
 30
0.0
 10
10.358864268
 20
9.5078365785
 30
0.0
 10
10.3584302906
 20
9.5080980283
 30
0.0
 10
10.3581276424
 20
9.5082836936
 30
0.0
 10
10.3579529267
 20
9.5083856497
 30
0.0
 10
10.3578268869
 20
9.5084737745
 30
0.0
 10
10.3576817464
 20
9.5085173376
 30
0.0
 10
10.3574948883
 20
9.5085909653
 30
0.0
 10
10.3571647824
 20
9.5087125719
 30
0.0
 10
10.3566948254
 20
9.5088900817
 30
0.0
 10
10.3561301824
 20
9.5091014728
 30
0.0
 10
10.3553775677
 20
9.5093838938
 30
0.0
 10
10.354436716
 20
9.5097367258
 30
0.0
 10
10.3533077298
 20
9.5101602074
 30
0.0
 10
10.3521787339
 20
9.5105836667
 30
0.0
 10
10.3506734095
 20
9.511148287
 30
0.0
 10
10.3487917528
 20
9.5118540596
 30
0.0
 10
10.3465337653
 20
9.5127009879
 30
0.0
 10
10.3435231151
 20
9.5138302253
 30
0.0
 10
10.3397598024
 20
9.5152417721
 30
0.0
 10
10.3359964896
 20
9.5166533189
 30
0.0
 10
10.3329858394
 20
9.5177825563
 30
0.0
 10
10.3307278518
 20
9.5186294845
 30
0.0
 10
10.3288461954
 20
9.5193352576
 30
0.0
 10
10.3273408704
 20
9.5198998768
 30
0.0
 10
10.3262118762
 20
9.5203233395
 30
0.0
 10
10.3250828839
 20
9.5207468086
 30
0.0
 10
10.324142051
 20
9.5210996795
 30
0.0
 10
10.3233893982
 20
9.5213820211
 30
0.0
 10
10.3229189593
 20
9.5215583823
 30
0.0
 10
10.3225426788
 20
9.5216997056
 30
0.0
 10
10.3222602752
 20
9.5218050566
 30
0.0
 10
10.3220255537
 20
9.5218948895
 30
0.0
 10
10.3218363975
 20
9.5219621797
 30
0.0
 10
10.3216982983
 20
9.5220251513
 30
0.0
 10
10.3215458169
 20
9.5220403953
 30
0.0
 10
10.3213475322
 20
9.5220773925
 30
0.0
 10
10.3210979527
 20
9.5221179189
 30
0.0
 10
10.3207991951
 20
9.522168999
 30
0.0
 10
10.320400594
 20
9.5222362506
 30
0.0
 10
10.3199024307
 20
9.522320608
 30
0.0
 10
10.3191053203
 20
9.522455416
 30
0.0
 10
10.3181089491
 20
9.5226239823
 30
0.0
 10
10.3169132964
 20
9.5228262378
 30
0.0
 10
10.3157176457
 20
9.5230284997
 30
0.0
 10
10.314123444
 20
9.5232981799
 30
0.0
 10
10.3121306922
 20
9.523635281
 30
0.0
 10
10.3097393899
 20
9.5240398021
 30
0.0
 10
10.3065509869
 20
9.5245791635
 30
0.0
 10
10.3025654831
 20
9.5252533653
 30
0.0
 10
10.2985799793
 20
9.5259275671
 30
0.0
 10
10.2953915763
 20
9.5264669285
 30
0.0
 10
10.293000274
 20
9.5268714496
 30
0.0
 10
10.2910075222
 20
9.5272085503
 30
0.0
 10
10.2894133206
 20
9.5274782315
 30
0.0
 10
10.2882176696
 20
9.5276804906
 30
0.0
 10
10.287022018
 20
9.5278827565
 30
0.0
 10
10.2860256435
 20
9.5280512901
 30
0.0
 10
10.2852285397
 20
9.5281861649
 30
0.0
 10
10.2847303595
 20
9.5282703525
 30
0.0
 10
10.2843317933
 20
9.5283379525
 30
0.0
 10
10.2840329287
 20
9.5283879683
 30
0.0
 10
10.2837836839
 20
9.5284318247
 30
0.0
 10
10.2835847164
 20
9.5284620281
 30
0.0
 10
10.2834343204
 20
9.5284980199
 30
0.0
 10
10.2832883919
 20
9.5284830954
 30
0.0
 10
10.28309226
 20
9.5284809819
 30
0.0
 10
10.2828476306
 20
9.5284722377
 30
0.0
 10
10.2825538461
 20
9.5284643567
 30
0.0
 10
10.2821622135
 20
9.5284529363
 30
0.0
 10
10.2816726454
 20
9.5284389732
 30
0.0
 10
10.2808893517
 20
9.5284164577
 30
0.0
 10
10.2799102293
 20
9.5283883732
 30
0.0
 10
10.2787352847
 20
9.5283546461
 30
0.0
 10
10.2775603395
 20
9.5283209259
 30
0.0
 10
10.275993746
 20
9.5282759632
 30
0.0
 10
10.2740355042
 20
9.5282197607
 30
0.0
 10
10.271685614
 20
9.5281523173
 30
0.0
 10
10.2685524271
 20
9.5280623929
 30
0.0
 10
10.2646359435
 20
9.5279499874
 30
0.0
 10
10.2607194598
 20
9.5278375819
 30
0.0
 10
10.2575862729
 20
9.5277476575
 30
0.0
 10
10.2552363827
 20
9.5276802142
 30
0.0
 10
10.2532781409
 20
9.5276240112
 30
0.0
 10
10.2517115474
 20
9.5275790495
 30
0.0
 10
10.2505366025
 20
9.5275453264
 30
0.0
 10
10.2493616564
 20
9.52751161
 30
0.0
 10
10.2483825387
 20
9.5274834923
 30
0.0
 10
10.2475992354
 20
9.5274610446
 30
0.0
 10
10.2471096916
 20
9.5274469088
 30
0.0
 10
10.2467180091
 20
9.5274358429
 30
0.0
 10
10.246424377
 20
9.5274268791
 30
0.0
 10
10.2461792709
 20
9.5274215226
 30
0.0
 10
10.2459841117
 20
9.5274124975
 30
0.0
 10
10.2458352126
 20
9.5274186804
 30
0.0
 10
10.2456959696
 20
9.5273754266
 30
0.0
 10
10.2455069393
 20
9.5273350237
 30
0.0
 10
10.2452718086
 20
9.5272785953
 30
0.0
 10
10.2449891565
 20
9.5272134172
 30
0.0
 10
10.24461246
 20
9.5271256273
 30
0.0
 10
10.2441415301
 20
9.5270161932
 30
0.0
 10
10.2433880754
 20
9.5268409291
 30
0.0
 10
10.2424462457
 20
9.5266219072
 30
0.0
 10
10.241316055
 20
9.526359056
 30
0.0
 10
10.2401858629
 20
9.5260962114
 30
0.0
 10
10.2386789406
 20
9.5257457497
 30
0.0
 10
10.2367952875
 20
9.5253076733
 30
0.0
 10
10.2345349039
 20
9.5247819814
 30
0.0
 10
10.2315210591
 20
9.5240810588
 30
0.0
 10
10.2277537531
 20
9.5232049056
 30
0.0
 10
10.2239864471
 20
9.5223287525
 30
0.0
 10
10.2209726023
 20
9.5216278299
 30
0.0
 10
10.2187122187
 20
9.5211021381
 30
0.0
 10
10.2168285658
 20
9.5206640613
 30
0.0
 10
10.2153216432
 20
9.5203136004
 30
0.0
 10
10.214191452
 20
9.5200507531
 30
0.0
 10
10.2130612581
 20
9.5197879122
 30
0.0
 10
10.2121194379
 20
9.5195688582
 30
0.0
 10
10.2113659639
 20
9.5193936596
 30
0.0
 10
10.2108950832
 20
9.5192840591
 30
0.0
 10
10.2105182857
 20
9.5191966107
 30
0.0
 10
10.2102359422
 20
9.5191303891
 30
0.0
 10
10.209999846
 20
9.5190772255
 30
0.0
 10
10.2098127855
 20
9.5190301618
 30
0.0
 10
10.2096675269
 20
9.5190072498
 30
0.0
 10
10.2095412128
 20
9.5189370613
 30
0.0
 10
10.2093661764
 20
9.5188599909
 30
0.0
 10
10.2091496514
 20
9.5187579869
 30
0.0
 10
10.2088888495
 20
9.5186380073
 30
0.0
 10
10.2085414531
 20
9.5184771875
 30
0.0
 10
10.2081070914
 20
9.5182764528
 30
0.0
 10
10.2074121777
 20
9.5179551152
 30
0.0
 10
10.2065435132
 20
9.5175534987
 30
0.0
 10
10.2055011253
 20
9.5170715352
 30
0.0
 10
10.2044587349
 20
9.516589578
 30
0.0
 10
10.203068882
 20
9.5159469662
 30
0.0
 10
10.2013315655
 20
9.5151437021
 30
0.0
 10
10.1992467858
 20
9.514179785
 30
0.0
 10
10.1964670795
 20
9.5128945623
 30
0.0
 10
10.1929924467
 20
9.5112880338
 30
0.0
 10
10.1895178138
 20
9.5096815054
 30
0.0
 10
10.1867381076
 20
9.5083962826
 30
0.0
 10
10.1846533278
 20
9.5074323656
 30
0.0
 10
10.1829160115
 20
9.5066291012
 30
0.0
 10
10.1815261582
 20
9.5059864902
 30
0.0
 10
10.180483769
 20
9.5055045304
 30
0.0
 10
10.1794413766
 20
9.5050225768
 30
0.0
 10
10.1785727264
 20
9.5046209293
 30
0.0
 10
10.1778777834
 20
9.5042996549
 30
0.0
 10
10.1774434961
 20
9.5040987592
 30
0.0
 10
10.177095947
 20
9.5039382699
 30
0.0
 10
10.1768356116
 20
9.5038172806
 30
0.0
 10
10.1766176273
 20
9.5037184358
 30
0.0
 10
10.1764455681
 20
9.5036349201
 30
0.0
 10
10.1763101617
 20
9.5035844152
 30
0.0
 10
10.1761990393
 20
9.5034876027
 30
0.0
 10
10.1760423934
 20
9.5033746951
 30
0.0
 10
10.1758494964
 20
9.5032280109
 30
0.0
 10
10.1756167743
 20
9.5030543653
 30
0.0
 10
10.1753069133
 20
9.5028220081
 30
0.0
 10
10.1749194379
 20
9.5025318457
 30
0.0
 10
10.1742995607
 20
9.5020674271
 30
0.0
 10
10.1735246856
 20
9.5014869583
 30
0.0
 10
10.1725948478
 20
9.5007903725
 30
0.0
 10
10.1716650066
 20
9.5000937928
 30
0.0
 10
10.1704252196
 20
9.4991650178
 30
0.0
 10
10.1688754854
 20
9.4980040498
 30
0.0
 10
10.1670158045
 20
9.4966108879
 30
0.0
 10
10.1645362299
 20
9.4947533387
 30
0.0
 10
10.1614367617
 20
9.4924314022
 30
0.0
 10
10.1583372936
 20
9.4901094658
 30
0.0
 10
10.155857719
 20
9.4882519166
 30
0.0
 10
10.1539980381
 20
9.4868587547
 30
0.0
 10
10.152448304
 20
9.4856977865
 30
0.0
 10
10.1512085168
 20
9.4847690118
 30
0.0
 10
10.150278676
 20
9.4840724312
 30
0.0
 10
10.149348837
 20
9.483375849
 30
0.0
 10
10.1485739654
 20
9.482795369
 30
0.0
 10
10.1479540811
 20
9.4823309732
 30
0.0
 10
10.1475666238
 20
9.4820407527
 30
0.0
 10
10.1472567257
 20
9.4818085149
 30
0.0
 10
10.1470241167
 20
9.4816345047
 30
0.0
 10
10.1468308658
 20
9.481488961
 30
0.0
 10
10.1466944324
 20
9.4813881308
 30
0.0
 10
10.1466182783
 20
9.4813288735
 30
0.0
 10
10.1465560699
 20
9.4812890504
 30
0.0
 10
10.1465133289
 20
9.4812315681
 30
0.0
 10
10.1464495505
 20
9.4811610848
 30
0.0
 10
10.146341102
 20
9.4810348691
 30
0.0
 10
10.1461845215
 20
9.4808560613
 30
0.0
 10
10.145997333
 20
9.4806408498
 30
0.0
 10
10.145747501
 20
9.4803541254
 30
0.0
 10
10.1454352956
 20
9.4799956431
 30
0.0
 10
10.1449357197
 20
9.4794221143
 30
0.0
 10
10.1443112661
 20
9.4787051886
 30
0.0
 10
10.1435619147
 20
9.4778448841
 30
0.0
 10
10.1428125653
 20
9.4769845779
 30
0.0
 10
10.141813432
 20
9.4758375035
 30
0.0
 10
10.1405645157
 20
9.4744036604
 30
0.0
 10
10.139065816
 20
9.4726830487
 30
0.0
 10
10.1370675497
 20
9.4703888998
 30
0.0
 10
10.1345697169
 20
9.4675212136
 30
0.0
 10
10.132071884
 20
9.4646535274
 30
0.0
 10
10.1300736178
 20
9.4623593785
 30
0.0
 10
10.128574918
 20
9.4606387668
 30
0.0
 10
10.1273260018
 20
9.4592049236
 30
0.0
 10
10.1263268683
 20
9.4580578494
 30
0.0
 10
10.1255775196
 20
9.4571975427
 30
0.0
 10
10.1248281653
 20
9.4563372401
 30
0.0
 10
10.1242037208
 20
9.4556203085
 30
0.0
 10
10.1237041263
 20
9.4550467919
 30
0.0
 10
10.1233919683
 20
9.4546882786
 30
0.0
 10
10.1231420391
 20
9.4544016178
 30
0.0
 10
10.1229551474
 20
9.454186212
 30
0.0
 10
10.1227976383
 20
9.4540080119
 30
0.0
 10
10.1226755918
 20
9.4538625256
 30
0.0
 10
10.122573234
 20
9.4537614068
 30
0.0
 10
10.1225121876
 20
9.4536297674
 30
0.0
 10
10.1224163618
 20
9.4534649095
 30
0.0
 10
10.1223015306
 20
9.4532551794
 30
0.0
 10
10.1221616139
 20
9.4530050688
 30
0.0
 10
10.1219757986
 20
9.4526710412
 30
0.0
 10
10.1217432759
 20
9.4522536939
 30
0.0
 10
10.1213713813
 20
9.4515858337
 30
0.0
 10
10.1209064645
 20
9.4507510443
 30
0.0
 10
10.1203485852
 20
9.4497492816
 30
0.0
 10
10.1197907002
 20
9.448747523
 30
0.0
 10
10.1190468556
 20
9.4474118434
 30
0.0
 10
10.1181170491
 20
9.4457422445
 30
0.0
 10
10.1170012817
 20
9.4437387256
 30
0.0
 10
10.1155135916
 20
9.4410673671
 30
0.0
 10
10.1136539791
 20
9.4377281689
 30
0.0
 10
10.1117943666
 20
9.4343889708
 30
0.0
 10
10.1103066766
 20
9.4317176123
 30
0.0
 10
10.109190909
 20
9.4297140934
 30
0.0
 10
10.1082611029
 20
9.4280444942
 30
0.0
 10
10.1075172575
 20
9.4267088152
 30
0.0
 10
10.106959375
 20
9.4257070551
 30
0.0
 10
10.1064014864
 20
9.424705298
 30
0.0
 10
10.1059365985
 20
9.4238704911
 30
0.0
 10
10.1055646449
 20
9.4232026665
 30
0.0
 10
10.1053322723
 20
9.4227852284
 30
0.0
 10
10.105146149
 20
9.4224513873
 30
0.0
 10
10.1050071733
 20
9.422200707
 30
0.0
 10
10.1048893981
 20
9.4219927595
 30
0.0
 10
10.1047995785
 20
9.4218242646
 30
0.0
 10
10.1047201896
 20
9.4217037324
 30
0.0
 10
10.104686697
 20
9.4215609126
 30
0.0
 10
10.104626008
 20
9.4213782716
 30
0.0
 10
10.1045556473
 20
9.4211472991
 30
0.0
 10
10.1044688601
 20
9.4208712755
 30
0.0
 10
10.1043539662
 20
9.4205028447
 30
0.0
 10
10.1042100672
 20
9.4200424429
 30
0.0
 10
10.1039799862
 20
9.4193057236
 30
0.0
 10
10.103692331
 20
9.4183848507
 30
0.0
 10
10.1033471678
 20
9.417279792
 30
0.0
 10
10.1030019985
 20
9.4161747363
 30
0.0
 10
10.1025417748
 20
9.4147013277
 30
0.0
 10
10.1019664945
 20
9.4128595672
 30
0.0
 10
10.1012761585
 20
9.4106494545
 30
0.0
 10
10.1003557103
 20
9.4077026376
 30
0.0
 10
10.0992051502
 20
9.4040191165
 30
0.0
 10
10.09805459
 20
9.4003355954
 30
0.0
 10
10.0971341419
 20
9.3973887785
 30
0.0
 10
10.0964438057
 20
9.3951786659
 30
0.0
 10
10.0958685259
 20
9.3933369052
 30
0.0
 10
10.0954083014
 20
9.391863497
 30
0.0
 10
10.0950631347
 20
9.3907584401
 30
0.0
 10
10.0947179614
 20
9.3896533857
 30
0.0
 10
10.0944303376
 20
9.3887324995
 30
0.0
 10
10.0942001926
 20
9.3879958073
 30
0.0
 10
10.0940564564
 20
9.3875353366
 30
0.0
 10
10.0939412283
 20
9.3871670472
 30
0.0
 10
10.093855462
 20
9.3868905915
 30
0.0
 10
10.0937819072
 20
9.386660971
 30
0.0
 10
10.0937277349
 20
9.3864755717
 30
0.0
 10
10.0936743406
 20
9.3863411754
 30
0.0
 10
10.0936696712
 20
9.3861890178
 30
0.0
 10
10.0936464251
 20
9.3859923451
 30
0.0
 10
10.0936232071
 20
9.3857443757
 30
0.0
 10
10.0935928459
 20
9.3854477235
 30
0.0
 10
10.0935532373
 20
9.385051869
 30
0.0
 10
10.0935034277
 20
9.3845571599
 30
0.0
 10
10.0934238994
 20
9.3837655644
 30
0.0
 10
10.0933244318
 20
9.3827760909
 30
0.0
 10
10.0932050951
 20
9.3815887137
 30
0.0
 10
10.0930857519
 20
9.3804013389
 30
0.0
 10
10.0929266299
 20
9.3788181717
 30
0.0
 10
10.0927277265
 20
9.376839213
 30
0.0
 10
10.0924890429
 20
9.3744644624
 30
0.0
 10
10.092170798
 20
9.3712981283
 30
0.0
 10
10.0917729918
 20
9.3673402108
 30
0.0
 10
10.0912956244
 20
9.3625907096
 30
0.0
 10
10.0906591346
 20
9.3562580415
 30
0.0
 10
10.0901817672
 20
9.3515085404
 30
0.0
 10
10.0898635222
 20
9.3483422063
 30
0.0
  0
ENDSEC
  0
SECTION
  2
OBJECTS
  0
DICTIONARY
  5
C
100
AcDbDictionary
280
0
281
1
  3
ACAD_GROUP
350
D
  3
ACAD_MLINESTYLE
350
17
  3
ACAD_LAYOUT
350
1A
  3
ACAD_PLOTSETTINGS
350
19
  3
ACAD_PLOTSTYLENAME
350
E
  3
ACAD_IMAGE_DICT
350
       3F6
  3
ACAD_IMAGE_VARS
350
       3F7
  3
ACAD_TABLESTYLE
350
       3F8
  0
IMAGEDEF_REACTOR
  5
3F5
100
AcDbRasterImageDefReactor
 90
2
330
28D
  0
DICTIONARY
  5
D
102
{ACAD_REACTORS
330
C
102
}
100
AcDbDictionary
280
0
281
1
  0
ACDBDICTIONARYWDFLT
  5
E
102
{ACAD_REACTORS
330
C
102
}
100
AcDbDictionary
281
1
  3
Normal
350
F
100
AcDbDictionaryWithDefault
340
F
  0
DICTIONARY
  5
3F6
330
C
100
AcDbDictionary
281
1
  3
HGE_assy_2_img_1
350
       3FB
  0
RASTERVARIABLES
  5
3F7
330
C
100
AcDbRasterVariables
 90
0
 70
0
 71
1
 72
5
  0
DICTIONARY
  5
17
102
{ACAD_REACTORS
330
C
102
}
100
AcDbDictionary
280
0
281
1
  3
Standard
350
18
  0
DICTIONARY
  5
3F8
330
C
100
AcDbDictionary
281
1
  3
Standard
350
       3FC
  3
Standard1
350
       3FD
  0
DICTIONARY
  5
19
102
{ACAD_REACTORS
330
C
102
}
100
AcDbDictionary
281
1
  0
DICTIONARY
  5
1A
102
{ACAD_REACTORS
330
C
102
}
100
AcDbDictionary
281
1
  3
Model
350
3F9
  3
Layout1
350
3FA
  0
ACDBPLACEHOLDER
  5
F
102
{ACAD_REACTORS
330
E
102
}
  0
MLINESTYLE
  5
18
102
{ACAD_REACTORS
330
17
102
}
100
AcDbMlineStyle
  2
STANDARD
 70
0
  3

 62
256
 51
90.0
 52
90.0
 71
2
 49
0.5
 62
256
  6
BYLAYER
 49
-0.5
 62
256
  6
BYLAYER
  0
LAYOUT
  5
3F9
102
{ACAD_REACTORS
330
1A
102
}
100
AcDbPlotSettings
  1

  2
none_device
  4
ANSI_C_(22.00_x_17.00_Inches)
  6

 40
0.0
 41
0.0
 42
0.0
 43
0.0
 44
558.8
 45
431.8
 46
0.0
 47
0.0
 48
0.0
 49
0.0
140
0.0
141
0.0
142
1.0
143
1.0
 70
1024
 72
0
 73
0
 74
0
  7

 75
0
147
1.0
148
0.0
149
0.0
100
AcDbLayout
  1
Model
 70
0
 71
0
 10
0.0
 20
0.0
 11
22.0
 21
17.0
 12
0.0
 22
0.0
 32
0.0
 14
0.0
 24
0.0
 34
0.0
 15
0.0
 25
0.0
 35
0.0
146
0.0
 13
0.0
 23
0.0
 33
0.0
 16
1.0
 26
0.0
 36
0.0
 17
0.0
 27
1.0
 37
0.0
 76
0
330
20E
345
0
346
0
  0
LAYOUT
  5
3FA
102
{ACAD_REACTORS
330
1A
102
}
100
AcDbPlotSettings
  1

  2
none_device
  4
ANSI_C_(22.00_x_17.00_Inches)
  6

 40
0.0
 41
0.0
 42
0.0
 43
0.0
 44
558.8
 45
431.8
 46
0.0
 47
0.0
 48
0.0
 49
0.0
140
0.0
141
0.0
142
1.0
143
1.0
 70
0
 72
0
 73
0
 74
0
  7

 75
0
147
1.0
148
0.0
149
0.0
100
AcDbLayout
  1
Layout1
 70
0
 71
1
 10
0.0
 20
0.0
 11
22.0
 21
17.0
 12
0.0
 22
0.0
 32
0.0
 14
0.0
 24
0.0
 34
0.0
 15
0.0
 25
0.0
 35
0.0
146
0.0
 13
0.0
 23
0.0
 33
0.0
 16
1.0
 26
0.0
 36
0.0
 17
0.0
 27
1.0
 37
0.0
 76
0
330
20F
345
0
346
0
  0
IMAGEDEF
  5
3FB
102
{ACAD_REACTORS
330
3F6
330
3F5
102
}
100
AcDbRasterImageDef
 90
0
  1
HGE_assy_2_img_1.png
 10
369.0
 20
92.0
 11
0.0066666667
 21
0.0066666667
280
1
281
0
  0
TABLESTYLE
  5
3FC
102
{ACAD_REACTORS
330
3F8
330
290
330
291
102
}
330
3F8
100
AcDbTableStyle
  3
Standard
 70
0
 71
0
 40
0.06
 41
0.06
280
1
281
1
  7
Standard
140
0.18
170
1
 62
0
 63
7
283
0
  7
Standard
140
0.18
170
1
 62
0
 63
7
283
0
  7
Standard
140
0.18
170
1
 62
0
 63
7
283
0
  0
TABLESTYLE
  5
3FD
102
{ACAD_REACTORS
330
3F8
330
28F
102
}
330
3F8
100
AcDbTableStyle
  3
Standard1
 70
1
 71
0
 40
0.06
 41
0.06
280
1
281
1
  7
Standard
140
0.18
170
1
 62
0
 63
7
283
0
  7
Standard
140
0.18
170
1
 62
0
 63
7
283
0
  7
Standard
140
0.18
170
1
 62
0
 63
7
283
0
  0
ENDSEC
  0
EOF
