999
DXF file: H8X_assy_2.dxf
999
Pro/ENGINEER 2014200 by Parametric Technology Corporation
  0
SECTION
  2
HEADER
  9
$ACADVER
  1
AC1021
  9
$DWGCODEPAGE
  3
ANSI_1252
  9
$EXTMAX
 10
22.0
 20
17.0
 30
0.0
  9
$EXTMIN
 10
0.0
 20
0.0
 30
0.0
  9
$LIMMIN
 10
0.0
 20
0.0
  9
$LIMMAX
 10
22.0
 20
17.0
  9
$VIEWCTR
 10
11.0
 20
8.5
  9
$VIEWSIZE
 40
17.0
  9
$CLAYER
  8
0
  9
$LTSCALE
 40
1.21
  9
$CELTYPE
  6
BYLAYER
  9
$DIMSCALE
 40
1.0
  9
$DIMASZ
 40
0.1875
  9
$DIMEXO
 40
0.0625
  9
$DIMDLI
 40
0.836
  9
$DIMEXE
 40
0.125
  9
$DIMCEN
 40
0.198
  9
$DIMLFAC
 40
1.0
  9
$DIMBLK
  1
_FILLED
  9
$DIMTXT
 40
0.1
  9
$DIMTOL
 70
0
  9
$DIMLIM
 70
0
  9
$DIMTFAC
 40
1.0
  9
$DIMGAP
 40
0.09
  9
$DIMDSEP
 70
46
  9
$AUNITS
 70
0
  9
$PDMODE
 70
3
  9
$PDSIZE
 40
0.3125
  9
$HANDSEED
  5
3C0
  9
$TILEMODE
 70
1
  9
$MEASUREMENT
 70
0
  9
$INSUNITS
 70
1
  0
ENDSEC
  0
SECTION
  2
CLASSES
  0
CLASS
  1
ACDBDICTIONARYWDFLT
  2
AcDbDictionaryWithDefault
  3
AutoCAD 2000
 90
0
 91
1
280
0
281
0
  0
CLASS
  1
ACDBPLACEHOLDER
  2
AcDbPlaceHolder
  3
AutoCAD 2000
 90
0
 91
1
280
0
281
0
  0
CLASS
  1
LAYOUT
  2
AcDbLayout
  3
AutoCAD 2000
 90
0
 91
0
280
0
281
0
  0
CLASS
  1
RASTERVARIABLES
  2
AcDbRasterVariables
  3
ISM
 90
0
 91
1
280
0
281
0
  0
CLASS
  1
IMAGEDEF
  2
AcDbRasterImageDef
  3
ISM
 90
0
 91
1
280
0
281
0
  0
CLASS
  1
IMAGEDEF_REACTOR
  2
AcDbRasterImageDefReactor
  3
ISM
 90
0
 91
1
280
0
281
0
  0
CLASS
  1
IMAGE
  2
AcDbRasterImage
  3
ISM
 90
127
 91
1
280
0
281
1
  0
CLASS
  1
TABLESTYLE
  2
AcDbTableStyle
  3
ObjectDBX Classes
 90
2047
 91
1
280
0
281
0
  0
CLASS
  1
ACAD_TABLE
  2
AcDbTable
  3
ObjectDBX Classes
 90
1025
 91
3
280
0
281
1
  0
ENDSEC
  0
SECTION
  2
TABLES
  0
TABLE
  2
VPORT
  5
8
100
AcDbSymbolTable
 70
2
  0
VPORT
  5
1F4
100
AcDbSymbolTableRecord
100
AcDbViewportTableRecord
  2
*ACTIVE
 70
0
 10
0.0
 20
0.0
 11
1.0
 21
1.0
 12
11.0
 22
8.5
 13
0.0
 23
0.0
 14
1.0
 24
1.0
 15
0.0
 25
0.0
 16
0.0
 26
0.0
 36
1.0
 17
0.0
 27
0.0
 37
0.0
 40
17.0
 41
1.2941176471
 42
50.0
 43
0.0
 44
0.0
 50
0.0
 51
0.0
 71
0
 72
100
 73
1
 74
1
 75
0
 76
0
 77
0
 78
0
  0
ENDTAB
  0
TABLE
  2
LTYPE
  5
5
100
AcDbSymbolTable
 70
6
  0
LTYPE
  5
14
100
AcDbSymbolTableRecord
100
AcDbLinetypeTableRecord
  2
BYBLOCK
 70
0
  3

 72
65
 73
0
 40
0.0
  0
LTYPE
  5
15
100
AcDbSymbolTableRecord
100
AcDbLinetypeTableRecord
  2
BYLAYER
 70
0
  3

 72
65
 73
0
 40
0.0
  0
LTYPE
  5
16
100
AcDbSymbolTableRecord
100
AcDbLinetypeTableRecord
  2
CONTINUOUS
 70
64
  3
Solid line
 72
65
 73
0
 40
0.0
  0
LTYPE
  5
1F5
100
AcDbSymbolTableRecord
100
AcDbLinetypeTableRecord
  2
CENTER
 70
64
  3
____ _ ____ _ ____ _ ____ _ ____ _ ____ _ ____
 72
65
 73
4
 40
0.6
 49
0.375
 74
0
 49
-0.075
 74
0
 49
0.075
 74
0
 49
-0.075
 74
0
  0
LTYPE
  5
1F6
100
AcDbSymbolTableRecord
100
AcDbLinetypeTableRecord
  2
HIDDEN
 70
64
  3
- - - - - - - - - - - - - - - - - - - -
 72
65
 73
2
 40
0.2
 49
0.1
 74
0
 49
-0.1
 74
0
  0
LTYPE
  5
1F7
100
AcDbSymbolTableRecord
100
AcDbLinetypeTableRecord
  2
PHANTOM
 70
64
  3
_____ _ _ _____ _ _ _____ _ _ _____
 72
65
 73
6
 40
0.8
 49
0.45
 74
0
 49
-0.05
 74
0
 49
0.1
 74
0
 49
-0.05
 74
0
 49
0.1
 74
0
 49
-0.05
 74
0
  0
LTYPE
  5
1F8
100
AcDbSymbolTableRecord
100
AcDbLinetypeTableRecord
  2
DOT
 70
64
  3
. . . . . . . . . . . . . . . . . . . .
 72
65
 73
2
 40
0.2
 49
0.1
 74
0
 49
-0.1
 74
0
  0
LTYPE
  5
1F9
100
AcDbSymbolTableRecord
100
AcDbLinetypeTableRecord
  2
DASHED
 70
64
  3
- - - - - - - - - - - - - - - - - - - -
 72
65
 73
2
 40
0.2
 49
0.1
 74
0
 49
-0.1
 74
0
  0
ENDTAB
  0
TABLE
  2
LAYER
  5
2
100
AcDbSymbolTable
 70
36
  0
LAYER
  5
10
100
AcDbSymbolTableRecord
100
AcDbLayerTableRecord
  2
0
 70
0
 62
7
  6
CONTINUOUS
370
-3
390
F
  0
LAYER
  5
1FA
100
AcDbSymbolTableRecord
100
AcDbLayerTableRecord
  2
DEFAULT_1
 70
0
 62
7
  6
CENTER
370
-3
390
F
  0
LAYER
  5
1FB
100
AcDbSymbolTableRecord
100
AcDbLayerTableRecord
  2
DEFAULT_2
 70
0
 62
8
  6
HIDDEN
370
-3
390
F
  0
LAYER
  5
1FC
100
AcDbSymbolTableRecord
100
AcDbLayerTableRecord
  2
DEFAULT_3
 70
0
 62
7
  6
PHANTOM
370
-3
390
F
  0
LAYER
  5
1FD
100
AcDbSymbolTableRecord
100
AcDbLayerTableRecord
  2
DATUM_PLANES
 70
0
 62
7
  6
CONTINUOUS
370
-3
390
F
  0
LAYER
  5
1FE
100
AcDbSymbolTableRecord
100
AcDbLayerTableRecord
  2
PORT_AREAS
 70
0
 62
7
  6
CONTINUOUS
370
-3
390
F
  0
LAYER
  5
1FF
100
AcDbSymbolTableRecord
100
AcDbLayerTableRecord
  2
SUNNBOMCOSMETIC
 70
0
 62
7
  6
CONTINUOUS
370
-3
390
F
  0
LAYER
  5
200
100
AcDbSymbolTableRecord
100
AcDbLayerTableRecord
  2
SUNNBOMSTAMPING
 70
0
 62
7
  6
CONTINUOUS
370
-3
390
F
  0
LAYER
  5
201
100
AcDbSymbolTableRecord
100
AcDbLayerTableRecord
  2
THREADS
 70
0
 62
7
  6
CONTINUOUS
370
-3
390
F
  0
ENDTAB
  0
TABLE
  2
STYLE
  5
3
100
AcDbSymbolTable
 70
1
  0
STYLE
  5
11
100
AcDbSymbolTableRecord
100
AcDbTextStyleTableRecord
  2
STANDARD
 70
0
 40
0.0
 41
0.8
 50
0.0
 71
0
 42
0.2
  3
txt
  4

  0
STYLE
  5
202
100
AcDbSymbolTableRecord
100
AcDbTextStyleTableRecord
  2
TEXTSTYLE_1
 70
0
 40
0.0
 41
0.8
 50
0.0
 71
0
 42
0.2
  3
gdt
  4

  0
ENDTAB
  0
TABLE
  2
VIEW
  5
6
100
AcDbSymbolTable
 70
0
  0
ENDTAB
  0
TABLE
  2
UCS
  5
7
100
AcDbSymbolTable
 70
0
  0
ENDTAB
  0
TABLE
  2
APPID
  5
9
100
AcDbSymbolTable
 70
1
  0
APPID
  5
203
100
AcDbSymbolTableRecord
100
AcDbRegAppTableRecord
  2
ACAD
 70
0
  0
ENDTAB
  0
TABLE
  2
BLOCK_RECORD
  5
1
100
AcDbSymbolTable
 70
0
  0
BLOCK_RECORD
  5
204
100
AcDbSymbolTableRecord
100
AcDbBlockTableRecord
  2
*Model_Space
  0
BLOCK_RECORD
  5
205
100
AcDbSymbolTableRecord
100
AcDbBlockTableRecord
  2
*Paper_Space
  0
BLOCK_RECORD
  5
206
100
AcDbSymbolTableRecord
100
AcDbBlockTableRecord
  2
SUN_FIRST_THIRD_ANGLE_BL0
  0
BLOCK_RECORD
  5
207
100
AcDbSymbolTableRecord
100
AcDbBlockTableRecord
  2
*T1
  0
BLOCK_RECORD
  5
208
100
AcDbSymbolTableRecord
100
AcDbBlockTableRecord
  2
*T2
  0
BLOCK_RECORD
  5
209
100
AcDbSymbolTableRecord
100
AcDbBlockTableRecord
  2
*T3
  0
ENDTAB
  0
TABLE
  2
DIMSTYLE
  5
A
100
AcDbSymbolTable
 70
1
100
AcDbDimStyleTable
 71
0
  0
DIMSTYLE
105
20A
100
AcDbSymbolTableRecord
100
AcDbDimStyleTableRecord
  2
STANDARD
 70
0
  3

  4

 40
1.0
 41
0.1875
 42
0.0625
 43
0.38
 44
0.125
 45
0.0
 46
0.0
 47
0.001
 48
0.001
140
0.1
141
0.09
142
0.0
143
25.4
144
1.0
145
0.0
146
1.0
147
0.09
 71
0.0
 72
0.0
 73
1
 74
1
 75
0
 76
0
 77
0
 78
4
170
0
171
2
172
0
173
0
174
0
175
0
176
0
177
0
178
0
270
2
271
3
272
3
273
2
274
2
275
0
280
0
281
0
282
0
283
1
284
4
285
0
286
0
287
3
288
0
340
11
278
46
  0
ENDTAB
  0
ENDSEC
  0
SECTION
  2
BLOCKS
  0
BLOCK
  5
20
100
AcDbEntity
  8
0
100
AcDbBlockBegin
  2
*Model_Space
 70
0
 10
0.0
 20
0.0
 30
0.0
  3
*Model_Space
  1

  0
ENDBLK
  5
21
100
AcDbEntity
  8
0
100
AcDbBlockEnd
  0
BLOCK
  5
1C
100
AcDbEntity
  8
0
100
AcDbBlockBegin
  2
*Paper_Space
 70
0
 10
0.0
 20
0.0
 30
0.0
  3
*Paper_Space
  1

  0
ENDBLK
  5
1D
100
AcDbEntity
  8
0
100
AcDbBlockEnd
  0
BLOCK
  5
20B
100
AcDbEntity
  8
0
100
AcDbBlockBegin
 62
2
  6
CONTINUOUS
  2
SUN_FIRST_THIRD_ANGLE_BL0
 70
64
 10
20.4816717061
 20
1.2289683772
  3
SUN_FIRST_THIRD_ANGLE_BL0
  1

  0
TEXT
  5
20C
100
AcDbEntity
  8
0
100
AcDbText
 62
2
  6
CONTINUOUS
 10
19.4750896608
 20
1.4136269581
  7
STANDARD
 40
0.08
  1
FIRST ANGLE
 41
0.8
 72
0
100
AcDbText
  0
TEXT
  5
20D
100
AcDbEntity
  8
0
100
AcDbText
 62
2
  6
CONTINUOUS
 10
20.7842537513
 20
1.4047600029
  7
STANDARD
 40
0.08
  1
THIRD ANGLE
 41
0.8
 72
0
100
AcDbText
  0
LINE
  5
20E
100
AcDbEntity
  8
0
100
AcDbLine
 62
7
  6
CONTINUOUS
 10
19.4767170086
 20
1.1727031207
 11
19.6334271527
 21
1.1717972817
  0
LINE
  5
20F
100
AcDbEntity
  8
0
100
AcDbLine
 62
7
  6
CONTINUOUS
 10
19.6596964832
 20
1.1717972817
 11
19.6950230232
 21
1.171593082
  0
LINE
  5
210
100
AcDbEntity
  8
0
100
AcDbLine
 62
7
  6
CONTINUOUS
 10
19.7194818561
 20
1.1708914427
 11
19.8852396156
 21
1.1699333054
  0
LINE
  5
211
100
AcDbEntity
  8
0
100
AcDbLine
 62
7
  6
CONTINUOUS
 10
19.4758111696
 20
1.2723454088
 11
19.88525039
 21
1.3511534004
  0
LINE
  5
212
100
AcDbEntity
  8
0
100
AcDbLine
 62
7
  6
CONTINUOUS
 10
19.88525039
 20
1.3511534004
 11
19.8831348489
 21
0.9851647912
  0
LINE
  5
213
100
AcDbEntity
  8
0
100
AcDbLine
 62
7
  6
CONTINUOUS
 10
19.8831348489
 20
0.9851647912
 11
19.4767170086
 21
1.0658141206
  0
LINE
  5
214
100
AcDbEntity
  8
0
100
AcDbLine
 62
7
  6
CONTINUOUS
 10
19.4767170086
 20
1.0658141206
 11
19.4779056764
 21
1.2714536432
  0
CIRCLE
  5
215
100
AcDbEntity
  8
0
100
AcDbCircle
 62
7
  6
CONTINUOUS
 10
20.2068232291
 20
1.1717972817
 40
0.175742101
  0
CIRCLE
  5
216
100
AcDbEntity
  8
0
100
AcDbCircle
 62
7
  6
CONTINUOUS
 10
20.2068232291
 20
1.1717972817
 40
0.1005522074
  0
LINE
  5
217
100
AcDbEntity
  8
0
100
AcDbLine
 62
7
  6
CONTINUOUS
 10
20.2077290681
 20
1.3756110529
 11
20.2071171714
 21
1.2379342989
  0
LINE
  5
218
100
AcDbEntity
  8
0
100
AcDbLine
 62
7
  6
CONTINUOUS
 10
20.2077290681
 20
1.2016899681
 11
20.2074674401
 21
1.1428236749
  0
LINE
  5
219
100
AcDbEntity
  8
0
100
AcDbLine
 62
7
  6
CONTINUOUS
 10
20.208634907
 20
1.101141841
 11
20.2080230104
 21
0.963465087
  0
LINE
  5
21A
100
AcDbEntity
  8
0
100
AcDbLine
 62
7
  6
CONTINUOUS
 10
20.0066328138
 20
1.1745147986
 11
20.1443095678
 21
1.1739029019
  0
LINE
  5
21B
100
AcDbEntity
  8
0
100
AcDbLine
 62
7
  6
CONTINUOUS
 10
20.1832714155
 20
1.1727031207
 11
20.238153505
 21
1.172335442
  0
LINE
  5
21C
100
AcDbEntity
  8
0
100
AcDbLine
 62
7
  6
CONTINUOUS
 10
20.2756669918
 20
1.1717972817
 11
20.407916871
 21
1.1712095044
  0
CIRCLE
  5
21D
100
AcDbEntity
  8
0
100
AcDbCircle
 62
7
  6
CONTINUOUS
 10
20.7509457401
 20
1.1693297793
 40
0.1722024983
  0
CIRCLE
  5
21E
100
AcDbEntity
  8
0
100
AcDbCircle
 62
7
  6
CONTINUOUS
 10
20.7509457401
 20
1.1693297793
 40
0.0985164967
  0
LINE
  5
21F
100
AcDbEntity
  8
0
100
AcDbLine
 62
7
  6
CONTINUOUS
 10
20.7169767782
 20
1.170462078
 11
20.7825395137
 21
1.1682766535
  0
LINE
  5
220
100
AcDbEntity
  8
0
100
AcDbLine
 62
7
  6
CONTINUOUS
 10
20.8177513651
 20
1.1693297793
 11
20.947965719
 21
1.1693297793
  0
LINE
  5
221
100
AcDbEntity
  8
0
100
AcDbLine
 62
7
  6
CONTINUOUS
 10
20.6875370113
 20
1.170462078
 11
20.5573226574
 21
1.170462078
  0
LINE
  5
222
100
AcDbEntity
  8
0
100
AcDbLine
 62
7
  6
CONTINUOUS
 10
20.7486811426
 20
1.1987695462
 11
20.7486811426
 21
1.1432869085
  0
LINE
  5
223
100
AcDbEntity
  8
0
100
AcDbLine
 62
7
  6
CONTINUOUS
 10
20.7498134414
 20
1.1059210505
 11
20.7498134414
 21
0.9757066966
  0
LINE
  5
224
100
AcDbEntity
  8
0
100
AcDbLine
 62
7
  6
CONTINUOUS
 10
20.7486811426
 20
1.2338708068
 11
20.7486811426
 21
1.3640851607
  0
LINE
  5
225
100
AcDbEntity
  8
0
100
AcDbLine
 62
7
  6
CONTINUOUS
 10
21.0702539817
 20
1.2701043662
 11
21.4790138229
 21
1.3448360823
  0
LINE
  5
226
100
AcDbEntity
  8
0
100
AcDbLine
 62
7
  6
CONTINUOUS
 10
21.4790138229
 20
1.3448360823
 11
21.4790138229
 21
0.9779712941
  0
LINE
  5
227
100
AcDbEntity
  8
0
100
AcDbLine
 62
7
  6
CONTINUOUS
 10
21.4790138229
 20
0.9779712941
 11
21.069121683
 21
1.0617614
  0
LINE
  5
228
100
AcDbEntity
  8
0
100
AcDbLine
 62
7
  6
CONTINUOUS
 10
21.0702539817
 20
1.2701043662
 11
21.069121683
 21
1.0617614
  0
LINE
  5
229
100
AcDbEntity
  8
0
100
AcDbLine
 62
7
  6
CONTINUOUS
 10
21.4790138229
 20
1.1693297793
 11
21.3159628059
 21
1.1693297793
  0
LINE
  5
22A
100
AcDbEntity
  8
0
100
AcDbLine
 62
7
  6
CONTINUOUS
 10
21.2876553377
 20
1.1693297793
 11
21.2502894796
 21
1.1693297793
  0
LINE
  5
22B
100
AcDbEntity
  8
0
100
AcDbLine
 62
7
  6
CONTINUOUS
 10
21.2208497126
 20
1.1659328831
 11
21.0713862804
 21
1.1659328831
  0
LINE
  5
22C
100
AcDbEntity
  8
0
100
AcDbLine
 62
7
  6
CONTINUOUS
 10
20.4796138713
 20
1.5284908897
 11
20.4766766948
 21
0.9294458646
  0
ENDBLK
  5
22D
100
AcDbEntity
  8
0
  6
BYBLOCK
 62
0
100
AcDbBlockEnd
  0
BLOCK
  5
22E
100
AcDbEntity
  8
0
100
AcDbBlockBegin
  2
*T1
 70
1
 10
0.0
 20
0.0
  3
*T1
  1

  0
LINE
  5
22F
100
AcDbEntity
  8
0
100
AcDbLine
 62
2
  6
CONTINUOUS
 10
9.275
 20
0.0
 11
-0.0
 21
0.0
  0
LINE
  5
230
100
AcDbEntity
  8
0
100
AcDbLine
 62
2
  6
CONTINUOUS
 10
9.275
 20
0.0
 11
9.275
 21
1.25
  0
LINE
  5
231
100
AcDbEntity
  8
0
100
AcDbLine
 62
2
  6
CONTINUOUS
 10
9.275
 20
0.625
 11
-0.0
 21
0.625
  0
LINE
  5
232
100
AcDbEntity
  8
0
100
AcDbLine
 62
2
  6
CONTINUOUS
 10
9.275
 20
1.25
 11
-0.0
 21
1.25
  0
LINE
  5
233
100
AcDbEntity
  8
0
100
AcDbLine
 62
2
  6
CONTINUOUS
 10
6.8
 20
0.0
 11
6.8
 21
1.25
  0
LINE
  5
234
100
AcDbEntity
  8
0
100
AcDbLine
 62
2
  6
CONTINUOUS
 10
6.4
 20
0.0
 11
6.4
 21
0.625
  0
LINE
  5
235
100
AcDbEntity
  8
0
100
AcDbLine
 62
2
  6
CONTINUOUS
 10
5.9
 20
0.0
 11
5.9
 21
0.625
  0
LINE
  5
236
100
AcDbEntity
  8
0
100
AcDbLine
 62
2
  6
CONTINUOUS
 10
5.2
 20
0.0
 11
5.2
 21
0.625
  0
LINE
  5
237
100
AcDbEntity
  8
0
100
AcDbLine
 62
2
  6
CONTINUOUS
 10
4.1
 20
0.0
 11
4.1
 21
1.25
  0
LINE
  5
238
100
AcDbEntity
  8
0
100
AcDbLine
 62
2
  6
CONTINUOUS
 10
-0.0
 20
0.0
 11
-0.0
 21
1.25
  0
MTEXT
  5
239
100
AcDbEntity
  8
0
100
AcDbMText
 62
2
  6
CONTINUOUS
  7
STANDARD
 71
2
 72
1
 10
6.6
 20
0.325
 30
0.0
 11
1.0
 21
0.0
 31
0.0
 44
0.9
  1
2
 40
0.125
 41
0.2
  0
MTEXT
  5
23A
100
AcDbEntity
  8
0
100
AcDbMText
 62
2
  6
CONTINUOUS
  7
STANDARD
 71
2
 72
1
 10
6.15
 20
0.325
 30
0.0
 11
1.0
 21
0.0
 31
0.0
 44
0.9
  1
C
 40
0.125
 41
0.2
  0
MTEXT
  5
23B
100
AcDbEntity
  8
0
100
AcDbMText
 62
2
  6
CONTINUOUS
  7
STANDARD
 71
2
 72
1
 10
5.55
 20
0.325
 30
0.0
 11
1.0
 21
0.0
 31
0.0
 44
0.9
  1
1.000
 40
0.125
 41
1.0
  0
MTEXT
  5
23C
100
AcDbEntity
  8
0
100
AcDbMText
 62
2
  6
CONTINUOUS
  7
STANDARD
 71
2
 72
1
 10
4.65
 20
0.325
 30
0.0
 11
1.0
 21
0.0
 31
0.0
 44
0.9
  1
Jun-24-20
 40
0.125
 41
1.8
  0
MTEXT
  5
23D
100
AcDbEntity
  8
0
100
AcDbMText
 62
2
  6
CONTINUOUS
  7
STANDARD
 71
2
 72
1
 10
2.05
 20
0.4625
 30
0.0
 11
1.0
 21
0.0
 31
0.0
 44
0.9
  1
T-17A Line mount\P2 cylinder sequence, with reverse checks
 40
0.125
 41
8.0
  0
MTEXT
  5
23E
100
AcDbEntity
  8
0
100
AcDbMText
 62
2
  6
CONTINUOUS
  7
STANDARD
 71
1
 72
1
 10
6.45
 20
0.5625
 30
0.0
 11
1.0
 21
0.0
 31
0.0
 44
0.9
  1
SHEET
 40
0.06
 41
0.48
  0
MTEXT
  5
23F
100
AcDbEntity
  8
0
100
AcDbMText
 62
2
  6
CONTINUOUS
  7
STANDARD
 71
1
 72
1
 10
5.95
 20
0.5625
 30
0.0
 11
1.0
 21
0.0
 31
0.0
 44
0.9
  1
DWG SIZE
 40
0.06
 41
0.768
  0
MTEXT
  5
240
100
AcDbEntity
  8
0
100
AcDbMText
 62
2
  6
CONTINUOUS
  7
STANDARD
 71
1
 72
1
 10
5.25
 20
0.5625
 30
0.0
 11
1.0
 21
0.0
 31
0.0
 44
0.9
  1
SCALE
 40
0.06
 41
0.48
  0
MTEXT
  5
241
100
AcDbEntity
  8
0
100
AcDbMText
 62
2
  6
CONTINUOUS
  7
STANDARD
 71
1
 72
1
 10
4.15
 20
0.5625
 30
0.0
 11
1.0
 21
0.0
 31
0.0
 44
0.9
  1
DATE
 40
0.06
 41
0.384
  0
MTEXT
  5
242
100
AcDbEntity
  8
0
100
AcDbMText
 62
2
  6
CONTINUOUS
  7
STANDARD
 71
1
 72
1
 10
0.05
 20
0.5625
 30
0.0
 11
1.0
 21
0.0
 31
0.0
 44
0.9
  1
DESCRIPTION
 40
0.06
 41
1.056
  0
MTEXT
  5
243
100
AcDbEntity
  8
0
100
AcDbMText
 62
2
  6
CONTINUOUS
  7
STANDARD
 71
2
 72
1
 10
5.45
 20
1.0375
 30
0.0
 11
1.0
 21
0.0
 31
0.0
 44
0.9
  1
ALL DIMENSIONS IN INCH\PVIEWS ARE THIRD ANGLE
 40
0.12
 41
4.224
  0
MTEXT
  5
244
100
AcDbEntity
  8
0
100
AcDbMText
 62
2
  6
CONTINUOUS
  7
STANDARD
 71
2
 72
1
 10
2.05
 20
0.95
 30
0.0
 11
1.0
 21
0.0
 31
0.0
 44
0.9
  1
H8X
 40
0.125
 41
0.6
  0
MTEXT
  5
245
100
AcDbEntity
  8
0
100
AcDbMText
 62
2
  6
CONTINUOUS
  7
STANDARD
 71
1
 72
1
 10
0.05
 20
1.1875
 30
0.0
 11
1.0
 21
0.0
 31
0.0
 44
0.9
  1
MODEL
 40
0.06
 41
0.48
  0
ENDBLK
  5
246
100
AcDbEntity
  8
0
  6
BYBLOCK
 62
0
100
AcDbBlockEnd
  0
BLOCK
  5
247
100
AcDbEntity
  8
0
100
AcDbBlockBegin
  2
*T2
 70
1
 10
0.0
 20
0.0
  3
*T2
  1

  0
LINE
  5
248
100
AcDbEntity
  8
0
100
AcDbLine
 62
2
  6
CONTINUOUS
 10
0.0
 20
0.0
 11
9.055
 21
0.0
  0
LINE
  5
249
100
AcDbEntity
  8
0
100
AcDbLine
 62
2
  6
CONTINUOUS
 10
0.0
 20
0.0
 11
0.0
 21
-2.594
  0
LINE
  5
24A
100
AcDbEntity
  8
0
100
AcDbLine
 62
2
  6
CONTINUOUS
 10
0.0
 20
-0.344
 11
9.055
 21
-0.344
  0
LINE
  5
24B
100
AcDbEntity
  8
0
100
AcDbLine
 62
2
  6
CONTINUOUS
 10
0.0
 20
-0.594
 11
9.055
 21
-0.594
  0
LINE
  5
24C
100
AcDbEntity
  8
0
100
AcDbLine
 62
2
  6
CONTINUOUS
 10
0.0
 20
-0.844
 11
9.055
 21
-0.844
  0
LINE
  5
24D
100
AcDbEntity
  8
0
100
AcDbLine
 62
2
  6
CONTINUOUS
 10
0.0
 20
-1.094
 11
9.055
 21
-1.094
  0
LINE
  5
24E
100
AcDbEntity
  8
0
100
AcDbLine
 62
2
  6
CONTINUOUS
 10
0.0
 20
-1.344
 11
9.055
 21
-1.344
  0
LINE
  5
24F
100
AcDbEntity
  8
0
100
AcDbLine
 62
2
  6
CONTINUOUS
 10
0.0
 20
-1.594
 11
9.055
 21
-1.594
  0
LINE
  5
250
100
AcDbEntity
  8
0
100
AcDbLine
 62
2
  6
CONTINUOUS
 10
0.0
 20
-1.844
 11
9.055
 21
-1.844
  0
LINE
  5
251
100
AcDbEntity
  8
0
100
AcDbLine
 62
2
  6
CONTINUOUS
 10
0.0
 20
-2.094
 11
9.055
 21
-2.094
  0
LINE
  5
252
100
AcDbEntity
  8
0
100
AcDbLine
 62
2
  6
CONTINUOUS
 10
0.0
 20
-2.344
 11
9.055
 21
-2.344
  0
LINE
  5
253
100
AcDbEntity
  8
0
100
AcDbLine
 62
2
  6
CONTINUOUS
 10
0.0
 20
-2.594
 11
9.055
 21
-2.594
  0
LINE
  5
254
100
AcDbEntity
  8
0
100
AcDbLine
 62
2
  6
CONTINUOUS
 10
3.055
 20
0.0
 11
3.055
 21
-2.594
  0
LINE
  5
255
100
AcDbEntity
  8
0
100
AcDbLine
 62
2
  6
CONTINUOUS
 10
9.055
 20
0.0
 11
9.055
 21
-2.594
  0
MTEXT
  5
256
100
AcDbEntity
  8
0
100
AcDbMText
 62
2
  6
CONTINUOUS
  7
STANDARD
 71
2
 72
1
 10
1.5275
 20
-0.0995
 30
0.0
 11
1.0
 21
0.0
 31
0.0
 44
0.9
  1
Technical Data
 40
0.145
 41
3.248
  0
MTEXT
  5
257
100
AcDbEntity
  8
0
100
AcDbMText
 62
2
  6
CONTINUOUS
  7
STANDARD
 71
2
 72
1
 10
4.555
 20
-0.0995
 30
0.0
 11
1.0
 21
0.0
 31
0.0
 44
0.9
  1
U.S. Units
 40
0.145
 41
2.32
  0
MTEXT
  5
258
100
AcDbEntity
  8
0
100
AcDbMText
 62
2
  6
CONTINUOUS
  7
STANDARD
 71
2
 72
1
 10
7.555
 20
-0.0995
 30
0.0
 11
1.0
 21
0.0
 31
0.0
 44
0.9
  1
Metric Units
 40
0.145
 41
2.784
  0
MTEXT
  5
259
100
AcDbEntity
  8
0
100
AcDbMText
 62
2
  6
CONTINUOUS
  7
STANDARD
 71
2
 72
1
 10
1.5275
 20
-0.4065
 30
0.0
 11
1.0
 21
0.0
 31
0.0
 44
0.9
  1
Cavity
 40
0.125
 41
1.2
  0
MTEXT
  5
25A
100
AcDbEntity
  8
0
100
AcDbMText
 62
2
  6
CONTINUOUS
  7
STANDARD
 71
2
 72
1
 10
6.055
 20
-0.4065
 30
0.0
 11
1.0
 21
0.0
 31
0.0
 44
0.9
  1
T-17A
 40
0.125
 41
1.0
  0
MTEXT
  5
25B
100
AcDbEntity
  8
0
100
AcDbMText
 62
2
  6
CONTINUOUS
  7
STANDARD
 71
2
 72
1
 10
1.5275
 20
-0.6565
 30
0.0
 11
1.0
 21
0.0
 31
0.0
 44
0.9
  1
Body Features
 40
0.125
 41
2.6
  0
MTEXT
  5
25C
100
AcDbEntity
  8
0
100
AcDbMText
 62
2
  6
CONTINUOUS
  7
STANDARD
 71
2
 72
1
 10
6.055
 20
-0.6565
 30
0.0
 11
1.0
 21
0.0
 31
0.0
 44
0.9
  1
2 cylinder sequence, with reverse checks
 40
0.125
 41
8.0
  0
MTEXT
  5
25D
100
AcDbEntity
  8
0
100
AcDbMText
 62
2
  6
CONTINUOUS
  7
STANDARD
 71
2
 72
1
 10
1.5275
 20
-0.9065
 30
0.0
 11
1.0
 21
0.0
 31
0.0
 44
0.9
  1
Body Type
 40
0.125
 41
1.8
  0
MTEXT
  5
25E
100
AcDbEntity
  8
0
100
AcDbMText
 62
2
  6
CONTINUOUS
  7
STANDARD
 71
2
 72
1
 10
6.055
 20
-0.9065
 30
0.0
 11
1.0
 21
0.0
 31
0.0
 44
0.9
  1
Line mount
 40
0.125
 41
2.0
  0
MTEXT
  5
25F
100
AcDbEntity
  8
0
100
AcDbMText
 62
2
  6
CONTINUOUS
  7
STANDARD
 71
2
 72
1
 10
1.5275
 20
-1.1565
 30
0.0
 11
1.0
 21
0.0
 31
0.0
 44
0.9
  1
Interface
 40
0.125
 41
1.8
  0
MTEXT
  5
260
100
AcDbEntity
  8
0
100
AcDbMText
 62
2
  6
CONTINUOUS
  7
STANDARD
 71
2
 72
1
 10
6.055
 20
-1.1565
 30
0.0
 11
1.0
 21
0.0
 31
0.0
 44
0.9
  1
None
 40
0.125
 41
0.8
  0
MTEXT
  5
261
100
AcDbEntity
  8
0
100
AcDbMText
 62
2
  6
CONTINUOUS
  7
STANDARD
 71
2
 72
1
 10
1.5275
 20
-1.4065
 30
0.0
 11
1.0
 21
0.0
 31
0.0
 44
0.9
  1
Open Cavity Quantity
 40
0.125
 41
4.0
  0
MTEXT
  5
262
100
AcDbEntity
  8
0
100
AcDbMText
 62
2
  6
CONTINUOUS
  7
STANDARD
 71
2
 72
1
 10
6.055
 20
-1.4065
 30
0.0
 11
1.0
 21
0.0
 31
0.0
 44
0.9
  1
2
 40
0.125
 41
0.2
  0
MTEXT
  5
263
100
AcDbEntity
  8
0
100
AcDbMText
 62
2
  6
CONTINUOUS
  7
STANDARD
 71
2
 72
1
 10
1.5275
 20
-1.6565
 30
0.0
 11
1.0
 21
0.0
 31
0.0
 44
0.9
  1
Weight
 40
0.125
 41
1.2
  0
MTEXT
  5
264
100
AcDbEntity
  8
0
100
AcDbMText
 62
2
  6
CONTINUOUS
  7
STANDARD
 71
2
 72
1
 10
4.555
 20
-1.6565
 30
0.0
 11
1.0
 21
0.0
 31
0.0
 44
0.9
  1
13.301 lb.
 40
0.125
 41
2.0
  0
MTEXT
  5
265
100
AcDbEntity
  8
0
100
AcDbMText
 62
2
  6
CONTINUOUS
  7
STANDARD
 71
2
 72
1
 10
7.555
 20
-1.6565
 30
0.0
 11
1.0
 21
0.0
 31
0.0
 44
0.9
  1
6,033 kg.
 40
0.125
 41
1.8
  0
MTEXT
  5
266
100
AcDbEntity
  8
0
100
AcDbMText
 62
2
  6
CONTINUOUS
  7
STANDARD
 71
2
 72
1
 10
1.5275
 20
-1.9065
 30
0.0
 11
1.0
 21
0.0
 31
0.0
 44
0.9
  1
Mounting Hole Diameter
 40
0.125
 41
4.4
  0
MTEXT
  5
267
100
AcDbEntity
  8
0
100
AcDbMText
 62
2
  6
CONTINUOUS
  7
STANDARD
 71
2
 72
1
 10
4.555
 20
-1.9065
 30
0.0
 11
1.0
 21
0.0
 31
0.0
 44
0.9
  1
.42 in.
 40
0.125
 41
1.4
  0
MTEXT
  5
268
100
AcDbEntity
  8
0
100
AcDbMText
 62
2
  6
CONTINUOUS
  7
STANDARD
 71
2
 72
1
 10
7.555
 20
-1.9065
 30
0.0
 11
1.0
 21
0.0
 31
0.0
 44
0.9
  1
10,7 mm
 40
0.125
 41
1.4
  0
MTEXT
  5
269
100
AcDbEntity
  8
0
100
AcDbMText
 62
2
  6
CONTINUOUS
  7
STANDARD
 71
2
 72
1
 10
1.5275
 20
-2.1565
 30
0.0
 11
1.0
 21
0.0
 31
0.0
 44
0.9
  1
Mounting Hole Depth
 40
0.125
 41
3.8
  0
MTEXT
  5
26A
100
AcDbEntity
  8
0
100
AcDbMText
 62
2
  6
CONTINUOUS
  7
STANDARD
 71
2
 72
1
 10
6.055
 20
-2.1565
 30
0.0
 11
1.0
 21
0.0
 31
0.0
 44
0.9
  1
Through
 40
0.125
 41
1.4
  0
MTEXT
  5
26B
100
AcDbEntity
  8
0
100
AcDbMText
 62
2
  6
CONTINUOUS
  7
STANDARD
 71
2
 72
1
 10
1.5275
 20
-2.4065
 30
0.0
 11
1.0
 21
0.0
 31
0.0
 44
0.9
  1
Mounting Hole Quantity
 40
0.125
 41
4.4
  0
MTEXT
  5
26C
100
AcDbEntity
  8
0
100
AcDbMText
 62
2
  6
CONTINUOUS
  7
STANDARD
 71
2
 72
1
 10
6.055
 20
-2.4065
 30
0.0
 11
1.0
 21
0.0
 31
0.0
 44
0.9
  1
2
 40
0.125
 41
0.2
  0
ENDBLK
  5
26D
100
AcDbEntity
  8
0
  6
BYBLOCK
 62
0
100
AcDbBlockEnd
  0
BLOCK
  5
26E
100
AcDbEntity
  8
0
100
AcDbBlockBegin
  2
*T3
 70
1
 10
0.0
 20
0.0
  3
*T3
  1

  0
LINE
  5
26F
100
AcDbEntity
  8
0
100
AcDbLine
 62
2
  6
CONTINUOUS
 10
0.0
 20
0.0
 11
4.6
 21
0.0
  0
LINE
  5
270
100
AcDbEntity
  8
0
100
AcDbLine
 62
2
  6
CONTINUOUS
 10
0.0
 20
0.0
 11
0.0
 21
-0.93775
  0
LINE
  5
271
100
AcDbEntity
  8
0
100
AcDbLine
 62
2
  6
CONTINUOUS
 10
0.0
 20
-0.34375
 11
4.6
 21
-0.34375
  0
LINE
  5
272
100
AcDbEntity
  8
0
100
AcDbLine
 62
2
  6
CONTINUOUS
 10
0.0
 20
-0.68775
 11
4.6
 21
-0.68775
  0
LINE
  5
273
100
AcDbEntity
  8
0
100
AcDbLine
 62
2
  6
CONTINUOUS
 10
0.0
 20
-0.93775
 11
4.6
 21
-0.93775
  0
LINE
  5
274
100
AcDbEntity
  8
0
100
AcDbLine
 62
2
  6
CONTINUOUS
 10
1.3
 20
-0.34375
 11
1.3
 21
-0.93775
  0
LINE
  5
275
100
AcDbEntity
  8
0
100
AcDbLine
 62
2
  6
CONTINUOUS
 10
3.3
 20
-0.34375
 11
3.3
 21
-0.93775
  0
LINE
  5
276
100
AcDbEntity
  8
0
100
AcDbLine
 62
2
  6
CONTINUOUS
 10
4.6
 20
0.0
 11
4.6
 21
-0.93775
  0
MTEXT
  5
277
100
AcDbEntity
  8
0
100
AcDbMText
 62
2
  6
CONTINUOUS
  7
STANDARD
 71
2
 72
1
 10
2.3
 20
-0.099375
 30
0.0
 11
1.0
 21
0.0
 31
0.0
 44
0.9
  1
Port Headings
 40
0.145
 41
3.016
  0
MTEXT
  5
278
100
AcDbEntity
  8
0
100
AcDbMText
 62
2
  6
CONTINUOUS
  7
STANDARD
 71
2
 72
1
 10
0.65
 20
-0.44325
 30
0.0
 11
1.0
 21
0.0
 31
0.0
 44
0.9
  1
Product
 40
0.145
 41
1.624
  0
MTEXT
  5
279
100
AcDbEntity
  8
0
100
AcDbMText
 62
2
  6
CONTINUOUS
  7
STANDARD
 71
2
 72
1
 10
2.3
 20
-0.44325
 30
0.0
 11
1.0
 21
0.0
 31
0.0
 44
0.9
  1
Port
 40
0.145
 41
0.928
  0
MTEXT
  5
27A
100
AcDbEntity
  8
0
100
AcDbMText
 62
2
  6
CONTINUOUS
  7
STANDARD
 71
2
 72
1
 10
3.95
 20
-0.44325
 30
0.0
 11
1.0
 21
0.0
 31
0.0
 44
0.9
  1
Size
 40
0.145
 41
0.928
  0
MTEXT
  5
27B
100
AcDbEntity
  8
0
100
AcDbMText
 62
2
  6
CONTINUOUS
  7
STANDARD
 71
2
 72
1
 10
0.65
 20
-0.75025
 30
0.0
 11
1.0
 21
0.0
 31
0.0
 44
0.9
  1
H8X
 40
0.125
 41
0.6
  0
MTEXT
  5
27C
100
AcDbEntity
  8
0
100
AcDbMText
 62
2
  6
CONTINUOUS
  7
STANDARD
 71
2
 72
1
 10
2.3
 20
-0.75025
 30
0.0
 11
1.0
 21
0.0
 31
0.0
 44
0.9
  1
All Ports
 40
0.125
 41
1.8
  0
MTEXT
  5
27D
100
AcDbEntity
  8
0
100
AcDbMText
 62
2
  6
CONTINUOUS
  7
STANDARD
 71
2
 72
1
 10
3.95
 20
-0.75025
 30
0.0
 11
1.0
 21
0.0
 31
0.0
 44
0.9
  1
1" BSPP
 40
0.125
 41
1.4
  0
ENDBLK
  5
27E
100
AcDbEntity
  8
0
  6
BYBLOCK
 62
0
100
AcDbBlockEnd
  0
ENDSEC
  0
SECTION
  2
ENTITIES
  0
IMAGE
  5
27F
100
AcDbEntity
  8
0
100
AcDbRasterImage
 62
7
  6
CONTINUOUS
 10
19.2297077316
 20
0.3094318264
 30
0.0
 11
0.0066666667
 21
0.0
 31
0.0
 12
0.0
 22
0.0066666667
 32
0.0
 13
369.0
 23
92.0
340
       3BD
 70
9
280
0
281
50
282
50
283
0
360
       3B7
 71
1
 91
2
 14
-0.5
 24
-0.5
 14
368.5
 24
91.5
  0
INSERT
  5
280
100
AcDbEntity
  8
0
100
AcDbBlockReference
 62
2
  6
CONTINUOUS
  2
SUN_FIRST_THIRD_ANGLE_BL0
 10
20.4816717061
 20
1.2289683772
  0
ACAD_TABLE
  5
281
100
AcDbEntity
  8
0
 62
2
  6
CONTINUOUS
100
AcDbBlockReference
  2
*T1
 10
12.42375
 20
0.30125
 30
0.0
100
AcDbTable
342
       3BF
343
207
 11
1.0
 21
0.0
 31
0.0
 90
6
 91
4
 92
6
 93
20
 94
0
 95
0
 96
0
 70
1
 41
0.0
141
0.525
141
0.1
141
0.525
141
0.1
142
4.1
142
1.1
142
0.7
142
0.5
142
0.4
142
2.475
171
1
172
0
173
0
174
0
175
1
176
1
 91
33
178
0
145
0.0
301
CELL_VALUE
 90
4
  1
T-17A Line mount\P2 cylinder sequence, with reverse checks
304
ACVALUE_END
170
2
140
0.125
171
1
172
0
173
0
174
0
175
1
176
1
 91
33
178
0
145
0.0
301
CELL_VALUE
 90
4
  1
Jun-24-20
304
ACVALUE_END
170
5
140
0.125
171
1
172
0
173
0
174
0
175
1
176
1
 91
33
178
0
145
0.0
301
CELL_VALUE
 90
4
  1
1.000
304
ACVALUE_END
170
5
140
0.125
171
1
172
0
173
0
174
0
175
1
176
1
 91
33
178
0
145
0.0
301
CELL_VALUE
 90
4
  1
C
304
ACVALUE_END
170
5
140
0.125
171
1
172
0
173
0
174
0
175
1
176
1
 91
33
178
0
145
0.0
301
CELL_VALUE
 90
4
  1
2
304
ACVALUE_END
170
5
140
0.125
171
1
172
0
173
0
174
0
175
1
176
1
 91
33
178
0
145
0.0
301
CELL_VALUE
 90
4
  1
 
304
ACVALUE_END
170
1
140
0.125
171
1
172
0
173
0
174
0
175
1
176
1
 91
33
178
0
145
0.0
301
CELL_VALUE
 90
4
  1
DESCRIPTION
304
ACVALUE_END
170
1
140
0.06
171
1
172
0
173
0
174
0
175
1
176
1
 91
33
178
0
145
0.0
301
CELL_VALUE
 90
4
  1
DATE
304
ACVALUE_END
170
1
140
0.06
171
1
172
0
173
0
174
0
175
1
176
1
 91
33
178
0
145
0.0
301
CELL_VALUE
 90
4
  1
SCALE
304
ACVALUE_END
170
1
140
0.06
171
1
172
0
173
0
174
0
175
1
176
1
 91
33
178
0
145
0.0
301
CELL_VALUE
 90
4
  1
DWG SIZE
304
ACVALUE_END
170
1
140
0.06
171
1
172
0
173
0
174
0
175
1
176
1
 91
33
178
0
145
0.0
301
CELL_VALUE
 90
4
  1
SHEET
304
ACVALUE_END
170
1
140
0.06
171
1
172
0
173
0
174
0
175
1
176
1
 91
33
178
0
145
0.0
301
CELL_VALUE
 90
4
  1
 
304
ACVALUE_END
170
1
140
0.125
171
1
172
0
173
0
174
0
175
1
176
1
 91
33
178
0
145
0.0
301
CELL_VALUE
 90
4
  1
H8X
304
ACVALUE_END
170
5
140
0.125
171
1
172
0
173
0
174
0
175
4
176
1
 91
33
178
0
145
0.0
301
CELL_VALUE
 90
4
  1
ALL DIMENSIONS IN INCH\PVIEWS ARE THIRD ANGLE
304
ACVALUE_END
170
5
140
0.12
171
1
172
0
173
1
174
0
175
1
176
1
 91
1
178
0
145
0.0
170
1
171
1
172
0
173
1
174
0
175
1
176
1
 91
1
178
0
145
0.0
170
1
171
1
172
0
173
1
174
0
175
1
176
1
 91
1
178
0
145
0.0
170
5
171
1
172
0
173
0
174
0
175
1
176
1
 91
33
178
0
145
0.0
301
CELL_VALUE
 90
4
  1
 
304
ACVALUE_END
170
1
140
0.125
171
1
172
0
173
0
174
0
175
1
176
1
 91
33
178
0
145
0.0
301
CELL_VALUE
 90
4
  1
MODEL
304
ACVALUE_END
170
1
140
0.06
171
1
172
0
173
0
174
0
175
1
176
1
 91
33
178
0
145
0.0
301
CELL_VALUE
 90
4
  1
 
304
ACVALUE_END
170
1
140
0.125
171
1
172
0
173
0
174
0
175
1
176
1
 91
33
178
0
145
0.0
301
CELL_VALUE
 90
4
  1
 
304
ACVALUE_END
170
1
140
0.125
171
1
172
0
173
0
174
0
175
1
176
1
 91
33
178
0
145
0.0
301
CELL_VALUE
 90
4
  1
 
304
ACVALUE_END
170
1
140
0.125
171
1
172
0
173
0
174
0
175
1
176
1
 91
33
178
0
145
0.0
301
CELL_VALUE
 90
4
  1
 
304
ACVALUE_END
170
1
140
0.125
171
1
172
0
173
0
174
0
175
1
176
1
 91
33
178
0
145
0.0
301
CELL_VALUE
 90
4
  1
 
304
ACVALUE_END
170
1
140
0.125
  0
ACAD_TABLE
  5
282
100
AcDbEntity
  8
0
 62
2
  6
CONTINUOUS
100
AcDbBlockReference
  2
*T2
 10
12.4237499994
 20
16.47875
 30
0.0
100
AcDbTable
342
       3BE
343
208
 11
1.0
 21
0.0
 31
0.0
 90
22
 91
10
 92
3
 93
16
 94
0
 95
0
 96
0
 41
0.028
141
0.344
141
0.25
141
0.25
141
0.25
141
0.25
141
0.25
141
0.25
141
0.25
141
0.25
141
0.25
142
3.055
142
3.0
142
3.0
171
1
172
0
173
0
174
0
175
1
176
1
 91
33
178
0
145
0.0
301
CELL_VALUE
 90
4
  1
Technical Data
304
ACVALUE_END
170
5
140
0.145
171
1
172
0
173
0
174
0
175
1
176
1
 91
33
178
0
145
0.0
301
CELL_VALUE
 90
4
  1
U.S. Units
304
ACVALUE_END
170
5
140
0.145
171
1
172
0
173
0
174
0
175
1
176
1
 91
33
178
0
145
0.0
301
CELL_VALUE
 90
4
  1
Metric Units
304
ACVALUE_END
170
5
140
0.145
171
1
172
0
173
0
174
0
175
1
176
1
 91
33
178
0
145
0.0
301
CELL_VALUE
 90
4
  1
Cavity
304
ACVALUE_END
170
5
140
0.125
171
1
172
0
173
0
174
0
175
2
176
1
 91
33
178
0
145
0.0
301
CELL_VALUE
 90
4
  1
T-17A
304
ACVALUE_END
170
5
140
0.125
171
1
172
0
173
1
174
0
175
1
176
1
 91
1
178
0
145
0.0
170
1
171
1
172
0
173
0
174
0
175
1
176
1
 91
33
178
0
145
0.0
301
CELL_VALUE
 90
4
  1
Body Features
304
ACVALUE_END
170
5
140
0.125
171
1
172
0
173
0
174
0
175
2
176
1
 91
33
178
0
145
0.0
301
CELL_VALUE
 90
4
  1
2 cylinder sequence, with reverse checks
304
ACVALUE_END
170
5
140
0.125
171
1
172
0
173
1
174
0
175
1
176
1
 91
1
178
0
145
0.0
170
1
171
1
172
0
173
0
174
0
175
1
176
1
 91
33
178
0
145
0.0
301
CELL_VALUE
 90
4
  1
Body Type
304
ACVALUE_END
170
5
140
0.125
171
1
172
0
173
0
174
0
175
2
176
1
 91
33
178
0
145
0.0
301
CELL_VALUE
 90
4
  1
Line mount
304
ACVALUE_END
170
5
140
0.125
171
1
172
0
173
1
174
0
175
1
176
1
 91
1
178
0
145
0.0
170
1
171
1
172
0
173
0
174
0
175
1
176
1
 91
33
178
0
145
0.0
301
CELL_VALUE
 90
4
  1
Interface
304
ACVALUE_END
170
5
140
0.125
171
1
172
0
173
0
174
0
175
2
176
1
 91
33
178
0
145
0.0
301
CELL_VALUE
 90
4
  1
None
304
ACVALUE_END
170
5
140
0.125
171
1
172
0
173
1
174
0
175
1
176
1
 91
1
178
0
145
0.0
170
1
171
1
172
0
173
0
174
0
175
1
176
1
 91
33
178
0
145
0.0
301
CELL_VALUE
 90
4
  1
Open Cavity Quantity
304
ACVALUE_END
170
5
140
0.125
171
1
172
0
173
0
174
0
175
2
176
1
 91
33
178
0
145
0.0
301
CELL_VALUE
 90
4
  1
2
304
ACVALUE_END
170
5
140
0.125
171
1
172
0
173
1
174
0
175
1
176
1
 91
1
178
0
145
0.0
170
1
171
1
172
0
173
0
174
0
175
1
176
1
 91
33
178
0
145
0.0
301
CELL_VALUE
 90
4
  1
Weight
304
ACVALUE_END
170
5
140
0.125
171
1
172
0
173
0
174
0
175
1
176
1
 91
33
178
0
145
0.0
301
CELL_VALUE
 90
4
  1
13.301 lb.
304
ACVALUE_END
170
5
140
0.125
171
1
172
0
173
0
174
0
175
1
176
1
 91
33
178
0
145
0.0
301
CELL_VALUE
 90
4
  1
6,033 kg.
304
ACVALUE_END
170
5
140
0.125
171
1
172
0
173
0
174
0
175
1
176
1
 91
33
178
0
145
0.0
301
CELL_VALUE
 90
4
  1
Mounting Hole Diameter
304
ACVALUE_END
170
5
140
0.125
171
1
172
0
173
0
174
0
175
1
176
1
 91
33
178
0
145
0.0
301
CELL_VALUE
 90
4
  1
.42 in.
304
ACVALUE_END
170
5
140
0.125
171
1
172
0
173
0
174
0
175
1
176
1
 91
33
178
0
145
0.0
301
CELL_VALUE
 90
4
  1
10,7 mm
304
ACVALUE_END
170
5
140
0.125
171
1
172
0
173
0
174
0
175
1
176
1
 91
33
178
0
145
0.0
301
CELL_VALUE
 90
4
  1
Mounting Hole Depth
304
ACVALUE_END
170
5
140
0.125
171
1
172
0
173
0
174
0
175
2
176
1
 91
33
178
0
145
0.0
301
CELL_VALUE
 90
4
  1
Through
304
ACVALUE_END
170
5
140
0.125
171
1
172
0
173
1
174
0
175
1
176
1
 91
1
178
0
145
0.0
170
1
171
1
172
0
173
0
174
0
175
1
176
1
 91
33
178
0
145
0.0
301
CELL_VALUE
 90
4
  1
Mounting Hole Quantity
304
ACVALUE_END
170
5
140
0.125
171
1
172
0
173
0
174
0
175
2
176
1
 91
33
178
0
145
0.0
301
CELL_VALUE
 90
4
  1
2
304
ACVALUE_END
170
5
140
0.125
171
1
172
0
173
1
174
0
175
1
176
1
 91
1
178
0
145
0.0
170
1
  0
ACAD_TABLE
  5
283
100
AcDbEntity
  8
0
 62
2
  6
CONTINUOUS
100
AcDbBlockReference
  2
*T3
 10
0.52125
 20
1.459
 30
0.0
100
AcDbTable
342
       3BE
343
209
 11
1.0
 21
0.0
 31
0.0
 90
22
 91
3
 92
3
 93
16
 94
0
 95
0
 96
0
 41
0.05
141
0.34375
141
0.344
141
0.25
142
1.3
142
2.0
142
1.3
171
1
172
0
173
0
174
0
175
3
176
1
 91
33
178
0
145
0.0
301
CELL_VALUE
 90
4
  1
Port Headings
304
ACVALUE_END
170
5
140
0.145
171
1
172
0
173
1
174
0
175
1
176
1
 91
1
178
0
145
0.0
170
1
171
1
172
0
173
1
174
0
175
1
176
1
 91
1
178
0
145
0.0
170
1
171
1
172
0
173
0
174
0
175
1
176
1
 91
33
178
0
145
0.0
301
CELL_VALUE
 90
4
  1
Product
304
ACVALUE_END
170
5
140
0.145
171
1
172
0
173
0
174
0
175
1
176
1
 91
33
178
0
145
0.0
301
CELL_VALUE
 90
4
  1
Port
304
ACVALUE_END
170
5
140
0.145
171
1
172
0
173
0
174
0
175
1
176
1
 91
33
178
0
145
0.0
301
CELL_VALUE
 90
4
  1
Size
304
ACVALUE_END
170
5
140
0.145
171
1
172
0
173
0
174
0
175
1
176
1
 91
33
178
0
145
0.0
301
CELL_VALUE
 90
4
  1
H8X
304
ACVALUE_END
170
5
140
0.125
171
1
172
0
173
0
174
0
175
1
176
1
 91
33
178
0
145
0.0
301
CELL_VALUE
 90
4
  1
All Ports
304
ACVALUE_END
170
5
140
0.125
171
1
172
0
173
0
174
0
175
1
176
1
 91
33
178
0
145
0.0
301
CELL_VALUE
 90
4
  1
1" BSPP
304
ACVALUE_END
170
5
140
0.125
  0
MTEXT
  5
284
100
AcDbEntity
  8
0
100
AcDbMText
 62
2
  6
CONTINUOUS
  7
STANDARD
 71
1
 72
1
 10
0.52125
 20
5.75995
 30
0.0
 11
1.0
 21
0.0
 31
0.0
 44
0.6
  3
Notes\P \P1. Important: Carefully consider\P   the maximum system pressure. The\P   pressure rating of the manifold is\P   dependent on the manifold material,\P   with the port type/size a secondary\P   consideration. Manifolds\P   constructed of alu
  1
minum are not\P   rated for pressures higher than\P   3000 psi (210 bar), regardless of\P   the port type/size specified.
 40
0.1
 41
3.04
  0
LINE
  5
285
100
AcDbEntity
  8
0
100
AcDbLine
 62
7
  6
CONTINUOUS
 10
0.30125
 20
0.30125
 11
0.30125
 21
16.69875
  0
LINE
  5
286
100
AcDbEntity
  8
0
100
AcDbLine
 62
7
  6
CONTINUOUS
 10
0.30125
 20
0.30125
 11
21.69875
 21
0.30125
  0
LINE
  5
287
100
AcDbEntity
  8
0
100
AcDbLine
 62
7
  6
CONTINUOUS
 10
0.30125
 20
16.69875
 11
21.69875
 21
16.69875
  0
LINE
  5
288
100
AcDbEntity
  8
0
100
AcDbLine
 62
7
  6
CONTINUOUS
 10
21.69875
 20
0.30125
 11
21.69875
 21
16.69875
  0
LINE
  5
289
100
AcDbEntity
  8
0
100
AcDbLine
 62
7
  6
CONTINUOUS
 10
7.7925526197
 20
10.3166582641
 11
9.3778179627
 21
11.8479070912
  0
LINE
  5
28A
100
AcDbEntity
  8
0
100
AcDbLine
 62
7
  6
CONTINUOUS
 10
7.7925526197
 20
5.4870288465
 11
7.7925526197
 21
10.3166582641
  0
LINE
  5
28B
100
AcDbEntity
  8
0
100
AcDbLine
 62
7
  6
CONTINUOUS
 10
12.6221820373
 20
5.1520929088
 11
7.7925526197
 21
5.4870288465
  0
LINE
  5
28C
100
AcDbEntity
  8
0
100
AcDbLine
 62
4
  6
CONTINUOUS
 10
12.0039895648
 20
6.1000373173
 11
11.9653525304
 21
6.0930575461
  0
LINE
  5
28D
100
AcDbEntity
  8
0
100
AcDbLine
 62
4
  6
CONTINUOUS
 10
11.8880784614
 20
6.6200164864
 11
12.0426265993
 21
6.6575948297
  0
LINE
  5
28E
100
AcDbEntity
  8
0
100
AcDbLine
 62
4
  6
CONTINUOUS
 10
12.7226037431
 20
6.4371816708
 11
12.7329564961
 21
6.4375224043
  0
LINE
  5
28F
100
AcDbEntity
  8
0
100
AcDbLine
 62
4
  6
CONTINUOUS
 10
11.8880784614
 20
6.426831314
 11
12.0426265993
 21
6.4161133643
  0
LINE
  5
290
100
AcDbEntity
  8
0
100
AcDbLine
 62
4
  6
CONTINUOUS
 10
11.8880784614
 20
6.504105383
 11
12.0426265993
 21
6.4933874332
  0
LINE
  5
291
100
AcDbEntity
  8
0
100
AcDbLine
 62
4
  6
CONTINUOUS
 10
12.701898237
 20
6.0984261522
 11
12.7433092491
 21
6.0901298275
  0
LINE
  5
292
100
AcDbEntity
  8
0
100
AcDbLine
 62
4
  6
CONTINUOUS
 10
11.9653525304
 20
6.0930575461
 11
11.9267154959
 21
6.1053962921
  0
LINE
  5
293
100
AcDbEntity
  8
0
100
AcDbLine
 62
7
  6
CONTINUOUS
 10
11.1572463189
 20
6.967726054
 11
10.5106014449
 21
7.0125710284
  0
LINE
  5
294
100
AcDbEntity
  8
0
100
AcDbLine
 62
4
  6
CONTINUOUS
 10
12.0426265993
 20
6.5610022435
 11
11.8880784614
 21
6.6200164864
  0
LINE
  5
295
100
AcDbEntity
  8
0
100
AcDbLine
 62
4
  6
CONTINUOUS
 10
12.0426265993
 20
6.2615652263
 11
11.8880784614
 21
6.3495572451
  0
LINE
  5
296
100
AcDbEntity
  8
0
100
AcDbLine
 62
4
  6
CONTINUOUS
 10
11.9267154959
 20
6.1053962921
 11
11.9009574698
 21
6.1265011346
  0
LINE
  5
297
100
AcDbEntity
  8
0
100
AcDbLine
 62
4
  6
CONTINUOUS
 10
14.0327446293
 20
7.5191547501
 11
14.0223918763
 21
7.5188140166
  0
LINE
  5
298
100
AcDbEntity
  8
0
100
AcDbLine
 62
4
  6
CONTINUOUS
 10
14.0430973823
 20
7.712680656
 11
14.0534501354
 21
7.7130213895
  0
LINE
  5
299
100
AcDbEntity
  8
0
100
AcDbLine
 62
4
  6
CONTINUOUS
 10
12.0168685756
 20
6.1860774824
 11
12.0297475875
 21
6.1755250613
  0
LINE
  5
29A
100
AcDbEntity
  8
0
100
AcDbLine
 62
7
  6
CONTINUOUS
 10
11.518416633
 20
6.3608164375
 11
11.195094196
 21
6.9432498128
  0
LINE
  5
29B
100
AcDbEntity
  8
0
100
AcDbLine
 62
4
  6
CONTINUOUS
 10
14.0223918763
 20
7.3739251374
 11
14.0638028884
 21
7.3656288127
  0
LINE
  5
29C
100
AcDbEntity
  8
0
100
AcDbLine
 62
4
  6
CONTINUOUS
 10
11.9009574698
 20
6.1265011346
 11
11.8880784614
 21
6.1467128141
  0
LINE
  5
29D
100
AcDbEntity
  8
0
100
AcDbLine
 62
4
  6
CONTINUOUS
 10
12.0297475875
 20
6.1755250613
 11
12.0426265993
 21
6.1553133815
  0
LINE
  5
29E
100
AcDbEntity
  8
0
100
AcDbLine
 62
7
  6
CONTINUOUS
 10
12.6221820373
 20
9.9817223264
 11
14.2074473803
 21
11.5129711535
  0
LINE
  5
29F
100
AcDbEntity
  8
0
100
AcDbLine
 62
7
  6
CONTINUOUS
 10
10.3436833522
 20
6.9966595908
 11
10.3036008006
 21
6.9579428167
  0
LINE
  5
2A0
100
AcDbEntity
  8
0
100
AcDbLine
 62
4
  6
CONTINUOUS
 10
12.8111197777
 20
9.1789777795
 11
12.8214725307
 21
9.179318513
  0
LINE
  5
2A1
100
AcDbEntity
  8
0
100
AcDbLine
 62
4
  6
CONTINUOUS
 10
12.7088000726
 20
6.327255762
 11
12.7053491548
 21
6.3335816898
  0
LINE
  5
2A2
100
AcDbEntity
  8
0
100
AcDbLine
 62
4
  6
CONTINUOUS
 10
12.7329564961
 20
6.4375224043
 11
12.7398583323
 21
6.4248705493
  0
LINE
  5
2A3
100
AcDbEntity
  8
0
100
AcDbLine
 62
4
  6
CONTINUOUS
 10
11.8880784614
 20
6.1467128141
 11
11.8880784614
 21
6.1660313313
  0
LINE
  5
2A4
100
AcDbEntity
  8
0
100
AcDbLine
 62
4
  6
CONTINUOUS
 10
11.9653525304
 20
6.4214723391
 11
11.9653525304
 21
6.4987464081
  0
LINE
  5
2A5
100
AcDbEntity
  8
0
100
AcDbLine
 62
7
  6
CONTINUOUS
 10
10.4727535678
 20
6.9933443055
 11
10.2931559112
 21
6.8198662804
  0
LINE
  5
2A6
100
AcDbEntity
  8
0
100
AcDbLine
 62
7
  6
CONTINUOUS
 10
10.5106014449
 20
7.0125710284
 11
10.3310037883
 21
6.8390930032
  0
LINE
  5
2A7
100
AcDbEntity
  8
0
100
AcDbLine
 62
4
  6
CONTINUOUS
 10
12.8318252837
 20
8.9864740741
 11
12.7904142716
 21
8.9464741056
  0
LINE
  5
2A8
100
AcDbEntity
  8
0
100
AcDbLine
 62
4
  6
CONTINUOUS
 10
14.147487742
 20
10.218669462
 11
14.1405859083
 21
10.2120028022
  0
LINE
  5
2A9
100
AcDbEntity
  8
0
100
AcDbLine
 62
4
  6
CONTINUOUS
 10
11.9911105518
 20
6.5838934108
 11
11.9911105518
 21
6.6418489625
  0
LINE
  5
2AA
100
AcDbEntity
  8
0
100
AcDbLine
 62
4
  6
CONTINUOUS
 10
12.0426265993
 20
6.1553133815
 11
12.0426265993
 21
6.1359948643
  0
LINE
  5
2AB
100
AcDbEntity
  8
0
100
AcDbLine
 62
4
  6
CONTINUOUS
 10
14.1543895781
 20
10.1577213139
 11
14.112978566
 21
10.1177213454
  0
LINE
  5
2AC
100
AcDbEntity
  8
0
100
AcDbLine
 62
4
  6
CONTINUOUS
 10
12.8318252837
 20
8.8802222293
 11
12.7904142716
 21
8.8402222608
  0
LINE
  5
2AD
100
AcDbEntity
  8
0
100
AcDbLine
 62
4
  6
CONTINUOUS
 10
12.8180216139
 20
8.7896148383
 11
12.8283743669
 21
8.7996148304
  0
LINE
  5
2AE
100
AcDbEntity
  8
0
100
AcDbLine
 62
4
  6
CONTINUOUS
 10
14.1405859083
 20
10.0671139229
 11
14.1509386613
 21
10.077113915
  0
LINE
  5
2AF
100
AcDbEntity
  8
0
100
AcDbLine
 62
4
  6
CONTINUOUS
 10
12.7973161072
 20
8.7599555948
 11
12.8076688596
 21
8.7699555864
  0
LINE
  5
2B0
100
AcDbEntity
  8
0
100
AcDbLine
 62
4
  6
CONTINUOUS
 10
14.1198804016
 20
10.0374546794
 11
14.130233154
 21
10.0474546709
  0
LINE
  5
2B1
100
AcDbEntity
  8
0
100
AcDbLine
 62
7
  6
CONTINUOUS
 10
11.1572463189
 20
6.967726054
 11
10.9776486623
 21
6.7942480289
  0
LINE
  5
2B2
100
AcDbEntity
  8
0
100
AcDbLine
 62
7
  6
CONTINUOUS
 10
11.195094196
 20
6.9432498128
 11
11.0154965394
 21
6.7697717877
  0
LINE
  5
2B3
100
AcDbEntity
  8
0
100
AcDbLine
 62
4
  6
CONTINUOUS
 10
12.7053491548
 20
6.3335816898
 11
12.701898237
 21
6.3495668763
  0
LINE
  5
2B4
100
AcDbEntity
  8
0
100
AcDbLine
 62
4
  6
CONTINUOUS
 10
12.7398583323
 20
6.4248705493
 11
12.7433092491
 21
6.408885362
  0
LINE
  5
2B5
100
AcDbEntity
  8
0
100
AcDbLine
 62
4
  6
CONTINUOUS
 10
12.7938651894
 20
9.1333333502
 11
12.8007670247
 21
9.1593185287
  0
LINE
  5
2B6
100
AcDbEntity
  8
0
100
AcDbLine
 62
4
  6
CONTINUOUS
 10
12.8007670247
 20
9.1593185287
 11
12.8111197777
 21
9.1789777795
  0
LINE
  5
2B7
100
AcDbEntity
  8
0
100
AcDbLine
 62
7
  6
CONTINUOUS
 10
11.195094196
 20
5.7795250725
 11
11.518416633
 21
6.3171134735
  0
LINE
  5
2B8
100
AcDbEntity
  8
0
100
AcDbLine
 62
7
  6
CONTINUOUS
 10
12.6221820373
 20
9.9817223264
 11
12.6221820373
 21
5.1520929088
  0
LINE
  5
2B9
100
AcDbEntity
  8
0
100
AcDbLine
 62
4
  6
CONTINUOUS
 10
12.701898237
 20
6.3495668763
 11
12.701898237
 21
6.3688853935
  0
LINE
  5
2BA
100
AcDbEntity
  8
0
100
AcDbLine
 62
4
  6
CONTINUOUS
 10
12.7157019081
 20
6.0924409581
 11
12.7157019081
 21
6.0344854064
  0
LINE
  5
2BB
100
AcDbEntity
  8
0
100
AcDbLine
 62
4
  6
CONTINUOUS
 10
12.7433092491
 20
6.408885362
 11
12.7433092491
 21
6.3895668447
  0
LINE
  5
2BC
100
AcDbEntity
  8
0
100
AcDbLine
 62
4
  6
CONTINUOUS
 10
12.7904142716
 20
8.8402222608
 11
12.7904142716
 21
8.7726074505
  0
LINE
  5
2BD
100
AcDbEntity
  8
0
100
AcDbLine
 62
4
  6
CONTINUOUS
 10
12.7904142716
 20
9.0913629849
 11
12.7904142716
 21
9.1106815021
  0
LINE
  5
2BE
100
AcDbEntity
  8
0
100
AcDbLine
 62
4
  6
CONTINUOUS
 10
12.8145706945
 20
8.8635555749
 11
12.8145706945
 21
8.7959407646
  0
LINE
  5
2BF
100
AcDbEntity
  8
0
100
AcDbLine
 62
4
  6
CONTINUOUS
 10
12.8318252837
 20
9.1506814706
 11
12.8318252837
 21
9.1313629534
  0
LINE
  5
2C0
100
AcDbEntity
  8
0
100
AcDbLine
 62
4
  6
CONTINUOUS
 10
12.8318252837
 20
8.8126074189
 11
12.8318252837
 21
8.8802222293
  0
LINE
  5
2C1
100
AcDbEntity
  8
0
100
AcDbLine
 62
4
  6
CONTINUOUS
 10
12.7904142716
 20
9.1106815021
 11
12.7938651894
 21
9.1333333502
  0
LINE
  5
2C2
100
AcDbEntity
  8
0
100
AcDbLine
 62
4
  6
CONTINUOUS
 10
12.8318252837
 20
9.1313629534
 11
12.8283743669
 21
9.1087111062
  0
LINE
  5
2C3
100
AcDbEntity
  8
0
100
AcDbLine
 62
4
  6
CONTINUOUS
 10
12.8283743669
 20
9.1087111062
 11
12.8249234476
 21
9.0957185153
  0
LINE
  5
2C4
100
AcDbEntity
  8
0
100
AcDbLine
 62
4
  6
CONTINUOUS
 10
12.8076688596
 20
8.7699555864
 11
12.8145706945
 21
8.7959407646
  0
LINE
  5
2C5
100
AcDbEntity
  8
0
100
AcDbLine
 62
4
  6
CONTINUOUS
 10
12.8283743669
 20
8.7996148304
 11
12.8318252837
 21
8.8126074189
  0
LINE
  5
2C6
100
AcDbEntity
  8
0
100
AcDbLine
 62
4
  6
CONTINUOUS
 10
14.1233313191
 20
10.4368176133
 11
14.1336840721
 21
10.4564768641
  0
LINE
  5
2C7
100
AcDbEntity
  8
0
100
AcDbLine
 62
4
  6
CONTINUOUS
 10
14.1233313191
 20
10.2629509582
 11
14.112978566
 21
10.2626102247
  0
LINE
  5
2C8
100
AcDbEntity
  8
0
100
AcDbLine
 62
4
  6
CONTINUOUS
 10
14.1336840721
 20
10.4564768641
 11
14.1440368251
 21
10.4568175976
  0
LINE
  5
2C9
100
AcDbEntity
  8
0
100
AcDbLine
 62
7
  6
CONTINUOUS
 10
7.7925526197
 20
10.3166582641
 11
12.6221820373
 21
9.9817223264
  0
LINE
  5
2CA
100
AcDbEntity
  8
0
100
AcDbLine
 62
4
  6
CONTINUOUS
 10
12.7904142716
 20
8.7726074505
 11
12.7973161072
 21
8.7599555948
  0
LINE
  5
2CB
100
AcDbEntity
  8
0
100
AcDbLine
 62
4
  6
CONTINUOUS
 10
12.8145706945
 20
8.7959407646
 11
12.8180216139
 21
8.7896148383
  0
LINE
  5
2CC
100
AcDbEntity
  8
0
100
AcDbLine
 62
4
  6
CONTINUOUS
 10
12.7973161072
 20
9.0690518707
 11
12.7938651894
 21
9.0753777985
  0
LINE
  5
2CD
100
AcDbEntity
  8
0
100
AcDbLine
 62
4
  6
CONTINUOUS
 10
12.7938651894
 20
9.0753777985
 11
12.7904142716
 21
9.0913629849
  0
LINE
  5
2CE
100
AcDbEntity
  8
0
100
AcDbLine
 62
4
  6
CONTINUOUS
 10
12.701898237
 20
6.3688853935
 11
12.7053491548
 21
6.3915372415
  0
LINE
  5
2CF
100
AcDbEntity
  8
0
100
AcDbLine
 62
4
  6
CONTINUOUS
 10
12.7433092491
 20
6.3895668447
 11
12.7398583323
 21
6.3669149976
  0
LINE
  5
2D0
100
AcDbEntity
  8
0
100
AcDbLine
 62
4
  6
CONTINUOUS
 10
12.7053491548
 20
6.3915372415
 11
12.71225099
 21
6.4175224201
  0
LINE
  5
2D1
100
AcDbEntity
  8
0
100
AcDbLine
 62
4
  6
CONTINUOUS
 10
11.8880784614
 20
6.1660313313
 11
11.9009574698
 21
6.1844566863
  0
LINE
  5
2D2
100
AcDbEntity
  8
0
100
AcDbLine
 62
7
  6
CONTINUOUS
 10
11.518416633
 20
6.3608164375
 11
11.3388189764
 21
6.1873384124
  0
LINE
  5
2D3
100
AcDbEntity
  8
0
100
AcDbLine
 62
7
  6
CONTINUOUS
 10
11.518416633
 20
6.3171134735
 11
11.3388189764
 21
6.1436354483
  0
LINE
  5
2D4
100
AcDbEntity
  8
0
100
AcDbLine
 62
7
  6
CONTINUOUS
 10
11.195094196
 20
5.7795250725
 11
11.0154965394
 21
5.6060470474
  0
LINE
  5
2D5
100
AcDbEntity
  8
0
100
AcDbLine
 62
7
  6
CONTINUOUS
 10
11.427939668
 20
5.8764489937
 11
11.3867107686
 21
5.8366249325
  0
LINE
  5
2D6
100
AcDbEntity
  8
0
100
AcDbLine
 62
4
  6
CONTINUOUS
 10
12.8214725307
 20
9.179318513
 11
12.8283743669
 21
9.1666666579
  0
LINE
  5
2D7
100
AcDbEntity
  8
0
100
AcDbLine
 62
4
  6
CONTINUOUS
 10
14.0499992185
 20
7.4682065941
 11
14.0465482992
 21
7.4745325205
  0
LINE
  5
2D8
100
AcDbEntity
  8
0
100
AcDbLine
 62
4
  6
CONTINUOUS
 10
14.0396464642
 20
7.5065028939
 11
14.0327446293
 21
7.5191547501
  0
LINE
  5
2D9
100
AcDbEntity
  8
0
100
AcDbLine
 62
4
  6
CONTINUOUS
 10
12.8283743669
 20
9.1666666579
 11
12.8318252837
 21
9.1506814706
  0
LINE
  5
2DA
100
AcDbEntity
  8
0
100
AcDbLine
 62
4
  6
CONTINUOUS
 10
12.7398583323
 20
6.3669149976
 11
12.7364074129
 21
6.3539224067
  0
LINE
  5
2DB
100
AcDbEntity
  8
0
100
AcDbLine
 62
4
  6
CONTINUOUS
 10
12.71225099
 20
6.4175224201
 11
12.7226037431
 21
6.4371816708
  0
LINE
  5
2DC
100
AcDbEntity
  8
0
100
AcDbLine
 62
4
  6
CONTINUOUS
 10
12.0426265993
 20
6.1359948643
 11
12.0297475875
 21
6.1175695096
  0
LINE
  5
2DD
100
AcDbEntity
  8
0
100
AcDbLine
 62
4
  6
CONTINUOUS
 10
11.9009574698
 20
6.1844566863
 11
11.9138364875
 21
6.193222782
  0
LINE
  5
2DE
100
AcDbEntity
  8
0
100
AcDbLine
 62
4
  6
CONTINUOUS
 10
11.8880784614
 20
6.2722831761
 11
12.0426265993
 21
6.3388392953
  0
LINE
  5
2DF
100
AcDbEntity
  8
0
100
AcDbLine
 62
4
  6
CONTINUOUS
 10
14.0569010522
 20
7.5521473229
 11
14.0603519715
 21
7.5458213966
  0
LINE
  5
2E0
100
AcDbEntity
  8
0
100
AcDbLine
 62
4
  6
CONTINUOUS
 10
14.0292937118
 20
7.6027547472
 11
14.0258427941
 21
7.609080675
  0
LINE
  5
2E1
100
AcDbEntity
  8
0
100
AcDbLine
 62
4
  6
CONTINUOUS
 10
14.0534501354
 20
7.7130213895
 11
14.0603519715
 21
7.7003695345
  0
LINE
  5
2E2
100
AcDbEntity
  8
0
100
AcDbLine
 62
4
  6
CONTINUOUS
 10
14.112978566
 20
10.3881805867
 11
14.1164294838
 21
10.4108324348
  0
LINE
  5
2E3
100
AcDbEntity
  8
0
100
AcDbLine
 62
4
  6
CONTINUOUS
 10
14.1164294838
 20
10.4108324348
 11
14.1233313191
 21
10.4368176133
  0
LINE
  5
2E4
100
AcDbEntity
  8
0
100
AcDbLine
 62
4
  6
CONTINUOUS
 10
14.1509386613
 20
10.3862101908
 11
14.147487742
 21
10.3732175999
  0
LINE
  5
2E5
100
AcDbEntity
  8
0
100
AcDbLine
 62
4
  6
CONTINUOUS
 10
14.1509386613
 20
10.2316620529
 11
14.147487742
 21
10.218669462
  0
LINE
  5
2E6
100
AcDbEntity
  8
0
100
AcDbLine
 62
4
  6
CONTINUOUS
 10
14.130233154
 20
10.0474546709
 11
14.1371349889
 21
10.0734398492
  0
LINE
  5
2E7
100
AcDbEntity
  8
0
100
AcDbLine
 62
4
  6
CONTINUOUS
 10
14.1509386613
 20
10.077113915
 11
14.1543895781
 21
10.0901065035
  0
LINE
  5
2E8
100
AcDbEntity
  8
0
100
AcDbLine
 62
4
  6
CONTINUOUS
 10
12.7433092491
 20
6.0901298275
 11
12.701898237
 21
6.001833566
  0
LINE
  5
2E9
100
AcDbEntity
  8
0
100
AcDbLine
 62
4
  6
CONTINUOUS
 10
12.0297475875
 20
6.1175695096
 11
12.0039895648
 21
6.1000373173
  0
LINE
  5
2EA
100
AcDbEntity
  8
0
100
AcDbLine
 62
4
  6
CONTINUOUS
 10
14.0465482992
 20
7.4745325205
 11
14.0396464642
 21
7.5065028939
  0
LINE
  5
2EB
100
AcDbEntity
  8
0
100
AcDbLine
 62
4
  6
CONTINUOUS
 10
14.0258427941
 20
7.609080675
 11
14.0223918763
 21
7.6250658615
  0
LINE
  5
2EC
100
AcDbEntity
  8
0
100
AcDbLine
 62
4
  6
CONTINUOUS
 10
14.0603519715
 20
7.5458213966
 11
14.0638028884
 21
7.5298362093
  0
LINE
  5
2ED
100
AcDbEntity
  8
0
100
AcDbLine
 62
4
  6
CONTINUOUS
 10
14.0603519715
 20
7.7003695345
 11
14.0638028884
 21
7.6843843472
  0
LINE
  5
2EE
100
AcDbEntity
  8
0
100
AcDbLine
 62
4
  6
CONTINUOUS
 10
14.0223918763
 20
7.5188140166
 11
14.0223918763
 21
7.4415399477
  0
LINE
  5
2EF
100
AcDbEntity
  8
0
100
AcDbLine
 62
4
  6
CONTINUOUS
 10
14.0223918763
 20
7.6250658615
 11
14.0223918763
 21
7.6443843787
  0
LINE
  5
2F0
100
AcDbEntity
  8
0
100
AcDbLine
 62
4
  6
CONTINUOUS
 10
14.0361955474
 20
7.3679399433
 11
14.0361955474
 21
7.3099843916
  0
LINE
  5
2F1
100
AcDbEntity
  8
0
100
AcDbLine
 62
4
  6
CONTINUOUS
 10
14.0638028884
 20
7.6843843472
 11
14.0638028884
 21
7.6650658299
  0
LINE
  5
2F2
100
AcDbEntity
  8
0
100
AcDbLine
 62
4
  6
CONTINUOUS
 10
14.0638028884
 20
7.5298362093
 11
14.0638028884
 21
7.510517692
  0
LINE
  5
2F3
100
AcDbEntity
  8
0
100
AcDbLine
 62
4
  6
CONTINUOUS
 10
14.112978566
 20
10.2626102247
 11
14.112978566
 21
10.1853361557
  0
LINE
  5
2F4
100
AcDbEntity
  8
0
100
AcDbLine
 62
4
  6
CONTINUOUS
 10
14.112978566
 20
10.1177213454
 11
14.112978566
 21
10.0501065351
  0
LINE
  5
2F5
100
AcDbEntity
  8
0
100
AcDbLine
 62
4
  6
CONTINUOUS
 10
14.112978566
 20
10.3688620695
 11
14.112978566
 21
10.3881805867
  0
LINE
  5
2F6
100
AcDbEntity
  8
0
100
AcDbLine
 62
4
  6
CONTINUOUS
 10
14.1543895781
 20
10.408862038
 11
14.1509386613
 21
10.3862101908
  0
LINE
  5
2F7
100
AcDbEntity
  8
0
100
AcDbLine
 62
4
  6
CONTINUOUS
 10
14.1543895781
 20
10.2543139
 11
14.1509386613
 21
10.2316620529
  0
LINE
  5
2F8
100
AcDbEntity
  8
0
100
AcDbLine
 62
4
  6
CONTINUOUS
 10
14.0223918763
 20
7.6443843787
 11
14.0258427941
 21
7.6670362267
  0
LINE
  5
2F9
100
AcDbEntity
  8
0
100
AcDbLine
 62
4
  6
CONTINUOUS
 10
14.0327446293
 20
7.6930214053
 11
14.0430973823
 21
7.712680656
  0
LINE
  5
2FA
100
AcDbEntity
  8
0
100
AcDbLine
 62
4
  6
CONTINUOUS
 10
12.7433092491
 20
6.2446779654
 11
12.701898237
 21
6.204677997
  0
LINE
  5
2FB
100
AcDbEntity
  8
0
100
AcDbLine
 62
4
  6
CONTINUOUS
 10
14.0569010522
 20
7.474873254
 11
14.0499992185
 21
7.4682065941
  0
LINE
  5
2FC
100
AcDbEntity
  8
0
100
AcDbLine
 62
4
  6
CONTINUOUS
 10
14.1371349889
 20
10.1410546595
 11
14.1371349889
 21
10.0734398492
  0
LINE
  5
2FD
100
AcDbEntity
  8
0
100
AcDbLine
 62
4
  6
CONTINUOUS
 10
14.1543895781
 20
10.4281805552
 11
14.1543895781
 21
10.408862038
  0
LINE
  5
2FE
100
AcDbEntity
  8
0
100
AcDbLine
 62
4
  6
CONTINUOUS
 10
14.1543895781
 20
10.2736324173
 11
14.1543895781
 21
10.2543139
  0
LINE
  5
2FF
100
AcDbEntity
  8
0
100
AcDbLine
 62
4
  6
CONTINUOUS
 10
14.1543895781
 20
10.0901065035
 11
14.1543895781
 21
10.1577213139
  0
LINE
  5
300
100
AcDbEntity
  8
0
100
AcDbLine
 62
7
  6
CONTINUOUS
 10
14.2074473803
 20
11.5129711535
 11
14.2074473803
 21
6.6833417359
  0
LINE
  5
301
100
AcDbEntity
  8
0
100
AcDbLine
 62
4
  6
CONTINUOUS
 10
14.0638028884
 20
7.6650658299
 11
14.0603519715
 21
7.6424139828
  0
LINE
  5
302
100
AcDbEntity
  8
0
100
AcDbLine
 62
4
  6
CONTINUOUS
 10
14.0638028884
 20
7.510517692
 11
14.0603519715
 21
7.4878658449
  0
LINE
  5
303
100
AcDbEntity
  8
0
100
AcDbLine
 62
4
  6
CONTINUOUS
 10
14.0258427941
 20
7.6670362267
 11
14.0327446293
 21
7.6930214053
  0
LINE
  5
304
100
AcDbEntity
  8
0
100
AcDbLine
 62
4
  6
CONTINUOUS
 10
14.0603519715
 20
7.6424139828
 11
14.0569010522
 21
7.6294213919
  0
LINE
  5
305
100
AcDbEntity
  8
0
100
AcDbLine
 62
4
  6
CONTINUOUS
 10
14.0603519715
 20
7.4878658449
 11
14.0569010522
 21
7.474873254
  0
LINE
  5
306
100
AcDbEntity
  8
0
100
AcDbLine
 62
4
  6
CONTINUOUS
 10
14.0638028884
 20
7.3656288127
 11
14.0223918763
 21
7.2773325512
  0
LINE
  5
307
100
AcDbEntity
  8
0
100
AcDbLine
 62
7
  6
CONTINUOUS
 10
9.3778179627
 20
11.8479070912
 11
14.2074473803
 21
11.5129711535
  0
LINE
  5
308
100
AcDbEntity
  8
0
100
AcDbLine
 62
4
  6
CONTINUOUS
 10
14.1371349889
 20
10.2183287285
 11
14.130233154
 21
10.2502991019
  0
LINE
  5
309
100
AcDbEntity
  8
0
100
AcDbLine
 62
4
  6
CONTINUOUS
 10
14.1164294838
 20
10.3528768831
 11
14.112978566
 21
10.3688620695
  0
LINE
  5
30A
100
AcDbEntity
  8
0
100
AcDbLine
 62
7
  6
CONTINUOUS
 10
12.6221820373
 20
5.1520929088
 11
14.2074473803
 21
6.6833417359
  0
LINE
  5
30B
100
AcDbEntity
  8
0
100
AcDbLine
 62
4
  6
CONTINUOUS
 10
14.112978566
 20
10.0501065351
 11
14.1198804016
 21
10.0374546794
  0
LINE
  5
30C
100
AcDbEntity
  8
0
100
AcDbLine
 62
4
  6
CONTINUOUS
 10
14.1371349889
 20
10.0734398492
 11
14.1405859083
 21
10.0671139229
  0
LINE
  5
30D
100
AcDbEntity
  8
0
100
AcDbLine
 62
4
  6
CONTINUOUS
 10
14.1405859083
 20
10.2120028022
 11
14.1371349889
 21
10.2183287285
  0
LINE
  5
30E
100
AcDbEntity
  8
0
100
AcDbLine
 62
4
  6
CONTINUOUS
 10
14.130233154
 20
10.2502991019
 11
14.1233313191
 21
10.2629509582
  0
LINE
  5
30F
100
AcDbEntity
  8
0
100
AcDbLine
 62
4
  6
CONTINUOUS
 10
14.147487742
 20
10.2959435309
 11
14.1509386613
 21
10.2896176046
  0
LINE
  5
310
100
AcDbEntity
  8
0
100
AcDbLine
 62
4
  6
CONTINUOUS
 10
14.1198804016
 20
10.3465509552
 11
14.1164294838
 21
10.3528768831
  0
LINE
  5
311
100
AcDbEntity
  8
0
100
AcDbLine
 62
4
  6
CONTINUOUS
 10
14.1440368251
 20
10.4568175976
 11
14.1509386613
 21
10.4441657425
  0
LINE
  5
312
100
AcDbEntity
  8
0
100
AcDbLine
 62
4
  6
CONTINUOUS
 10
14.1509386613
 20
10.2896176046
 11
14.1543895781
 21
10.2736324173
  0
LINE
  5
313
100
AcDbEntity
  8
0
100
AcDbLine
 62
4
  6
CONTINUOUS
 10
14.1509386613
 20
10.4441657425
 11
14.1543895781
 21
10.4281805552
  0
ARC
  5
314
100
AcDbEntity
  8
0
100
AcDbCircle
 62
7
  6
CONTINUOUS
 10
10.8245336244
 20
6.4233172469
 40
0.8586478353
100
AcDbArc
 50
180.0228845628
 51
188.7149286648
  0
ARC
  5
315
100
AcDbEntity
  8
0
100
AcDbCircle
 62
7
  6
CONTINUOUS
 10
10.8433617131
 20
6.4427514139
 40
0.8572880297
100
AcDbArc
 50
180.0185218869
 51
187.8400943436
  0
ARC
  5
316
100
AcDbEntity
  8
0
100
AcDbCircle
 62
7
  6
CONTINUOUS
 10
10.8320214823
 20
6.3439148883
 40
0.7653881031
100
AcDbArc
 50
4.2516956797
 51
4.6469628101
  0
ARC
  5
317
100
AcDbEntity
  8
0
100
AcDbCircle
 62
7
  6
CONTINUOUS
 10
10.7526330968
 20
6.4652618719
 40
0.7618266755
100
AcDbArc
 50
135.2785364323
 51
136.1177010652
  0
ARC
  5
318
100
AcDbEntity
  8
0
100
AcDbCircle
 62
7
  6
CONTINUOUS
 10
10.9098925437
 20
6.3024576634
 40
0.7618202148
100
AcDbArc
 50
311.8975177978
 51
312.6927765978
  0
ARC
  5
319
100
AcDbEntity
  8
0
100
AcDbCircle
 62
7
  6
CONTINUOUS
 10
10.8394432595
 20
6.3443486303
 40
0.757954603
100
AcDbArc
 50
0.0034271217
 51
4.2605919762
  0
ARC
  5
31A
100
AcDbEntity
  8
0
100
AcDbCircle
 62
7
  6
CONTINUOUS
 10
10.7200525718
 20
6.2747560616
 40
0.7516147184
100
AcDbArc
 50
235.3910215755
 51
238.8274398194
  0
ARC
  5
31B
100
AcDbEntity
  8
0
100
AcDbCircle
 62
7
  6
CONTINUOUS
 10
10.7681975354
 20
6.3246352914
 40
0.7516147184
100
AcDbArc
 50
55.3910215755
 51
58.8274398194
  0
ARC
  5
31C
100
AcDbEntity
  8
0
100
AcDbCircle
 62
7
  6
CONTINUOUS
 10
10.5885998788
 20
6.1511572662
 40
0.7516147184
100
AcDbArc
 50
55.3910215755
 51
58.8274398194
  0
ARC
  5
31D
100
AcDbEntity
  8
0
100
AcDbCircle
 62
7
  6
CONTINUOUS
 10
10.6562224006
 20
6.260456636
 40
0.6867376267
100
AcDbArc
 50
180.0005052752
 51
181.8259411372
  0
ARC
  5
31E
100
AcDbEntity
  8
0
100
AcDbCircle
 62
7
  6
CONTINUOUS
 10
10.65243005
 20
6.1654566918
 40
0.6867376267
100
AcDbArc
 50
0.0005052752
 51
1.8259411372
  0
ARC
  5
31F
100
AcDbEntity
  8
0
100
AcDbCircle
 62
7
  6
CONTINUOUS
 10
10.8320277066
 20
6.3389347169
 40
0.6867376267
100
AcDbArc
 50
0.0005052751
 51
1.8259411373
  0
ARC
  5
320
100
AcDbEntity
  8
0
100
AcDbCircle
 62
7
  6
CONTINUOUS
 10
10.8358161029
 20
6.3389347399
 40
0.6829492304
100
AcDbArc
 50
358.1690010863
 51
0.0005061518
  0
ARC
  5
321
100
AcDbEntity
  8
0
100
AcDbCircle
 62
7
  6
CONTINUOUS
 10
10.6516783385
 20
6.2604686851
 40
0.6821935648
100
AcDbArc
 50
178.1679866209
 51
180.0015206171
  0
ARC
  5
322
100
AcDbEntity
  8
0
100
AcDbCircle
 62
7
  6
CONTINUOUS
 10
10.6569741121
 20
6.1654446427
 40
0.6821935648
100
AcDbArc
 50
358.1679866209
 51
0.0015206171
  0
ARC
  5
323
100
AcDbEntity
  8
0
100
AcDbCircle
 62
7
  6
CONTINUOUS
 10
10.961715232
 20
6.3700481774
 40
0.6814321068
100
AcDbArc
 50
309.3121181322
 51
311.2333712462
  0
ARC
  5
324
100
AcDbEntity
  8
0
100
AcDbCircle
 62
7
  6
CONTINUOUS
 10
10.8219611267
 20
6.5147297285
 40
0.6814128378
100
AcDbArc
 50
136.6978945576
 51
138.8356190388
  0
ARC
  5
325
100
AcDbEntity
  8
0
100
AcDbCircle
 62
7
  6
CONTINUOUS
 10
10.9152537952
 20
6.3247027666
 40
0.6810953294
100
AcDbArc
 50
314.0076315448
 51
319.4676333375
  0
ARC
  5
326
100
AcDbEntity
  8
0
100
AcDbCircle
 62
7
  6
CONTINUOUS
 10
10.7750435068
 20
6.4698595531
 40
0.6810893224
100
AcDbArc
 50
128.5592900449
 51
134.0064509724
  0
ARC
  5
327
100
AcDbEntity
  8
0
100
AcDbCircle
 62
7
  6
CONTINUOUS
 10
10.7122652705
 20
6.1560937481
 40
0.6280928079
100
AcDbArc
 50
294.9939510668
 51
298.867191063
  0
ARC
  5
328
100
AcDbEntity
  8
0
100
AcDbCircle
 62
7
  6
CONTINUOUS
 10
10.7759848367
 20
6.4432976048
 40
0.6280928079
100
AcDbArc
 50
114.9939510668
 51
118.867191063
  0
ARC
  5
329
100
AcDbEntity
  8
0
100
AcDbCircle
 62
7
  6
CONTINUOUS
 10
10.5963871801
 20
6.2698195797
 40
0.6280928079
100
AcDbArc
 50
114.9939510668
 51
118.867191063
  0
ARC
  5
32A
100
AcDbEntity
  8
0
100
AcDbCircle
 62
7
  6
CONTINUOUS
 10
9.8438298779
 20
9.8810820149
 40
0.6018119492
100
AcDbArc
 50
176.788244257
 51
180.0013624272
  0
ARC
  5
32B
100
AcDbEntity
  8
0
100
AcDbCircle
 62
7
  6
CONTINUOUS
 10
9.748562161
 20
9.8000189225
 40
0.6003537179
100
AcDbArc
 50
167.9168307351
 51
180.0465589605
  0
ARC
  5
32C
100
AcDbEntity
  8
0
100
AcDbCircle
 62
7
  6
CONTINUOUS
 10
9.7548619465
 20
9.8048512492
 40
0.5922101892
100
AcDbArc
 50
168.3441690807
 51
180.0433753538
  0
ARC
  5
32D
100
AcDbEntity
  8
0
100
AcDbCircle
 62
7
  6
CONTINUOUS
 10
9.8497084913
 20
9.884735821
 40
0.5831956682
100
AcDbArc
 50
177.5267967588
 51
180.0007725971
  0
ARC
  5
32E
100
AcDbEntity
  8
0
100
AcDbCircle
 62
7
  6
CONTINUOUS
 10
9.851350158
 20
9.8776274689
 40
0.4824491912
100
AcDbArc
 50
179.7113357377
 51
180.0000182682
  0
ARC
  5
32F
100
AcDbEntity
  8
0
100
AcDbCircle
 62
7
  6
CONTINUOUS
 10
13.1644545325
 20
10.195878242
 40
0.0578461108
100
AcDbArc
 50
71.1802291685
 51
78.2287541078
  0
ARC
  5
330
100
AcDbEntity
  8
0
100
AcDbCircle
 62
7
  6
CONTINUOUS
 10
13.8435951034
 20
10.851877698
 40
0.0578461108
100
AcDbArc
 50
71.1802291684
 51
78.2287541079
  0
ARC
  5
331
100
AcDbEntity
  8
0
100
AcDbCircle
 62
7
  6
CONTINUOUS
 10
13.7467969651
 20
8.102081691
 40
0.0578461108
100
AcDbArc
 50
71.1802291685
 51
78.2287541077
  0
ARC
  5
332
100
AcDbEntity
  8
0
100
AcDbCircle
 62
7
  6
CONTINUOUS
 10
13.0671386706
 20
7.4455821524
 40
0.0578461108
100
AcDbArc
 50
71.1802291686
 51
78.2287541078
  0
SPLINE
  5
333
100
AcDbEntity
  8
0
100
AcDbSpline
 62
7
  6
CONTINUOUS
 70
0
 71
3
 72
15
 73
11
 74
0
 42
0.0000001
 43
0.0000001
 44
0.0000000001
 40
0.0
 40
0.0
 40
0.0
 40
0.0
 40
0.1157071005
 40
0.2346197568
 40
0.3568087849
 40
0.4820230849
 40
0.6096882194
 40
0.7390418127
 40
0.8693387277
 40
1.0
 40
1.0
 40
1.0
 40
1.0
 10
10.3310037883
 20
5.6316652989
 30
0.0
 10
10.3557496171
 20
5.627930652
 30
0.0
 10
10.4059909139
 20
5.6207738824
 30
0.0
 10
10.4825891269
 20
5.6113283849
 30
0.0
 10
10.5614141953
 20
5.6032697449
 30
0.0
 10
10.6422841617
 20
5.5967872305
 30
0.0
 10
10.7248223645
 20
5.5919711825
 30
0.0
 10
10.8085385575
 20
5.5887832531
 30
0.0
 10
10.89294478
 20
5.5870770216
 30
0.0
 10
10.9493882127
 20
5.5867887948
 30
0.0
 10
10.9776486623
 20
5.5868203246
 30
0.0
  0
SPLINE
  5
334
100
AcDbEntity
  8
0
100
AcDbSpline
 62
7
  6
CONTINUOUS
 70
0
 71
3
 72
15
 73
11
 74
0
 42
0.0000001
 43
0.0000001
 44
0.0000000001
 40
0.0
 40
0.0
 40
0.0
 40
0.0
 40
0.1342296443
 40
0.2673100384
 40
0.3984874282
 40
0.5268627181
 40
0.6515802379
 40
0.7720606852
 40
0.8881322733
 40
1.0
 40
1.0
 40
1.0
 40
1.0
 10
10.2931559112
 20
6.8198662804
 30
0.0
 10
10.278101367
 20
6.7961720315
 30
0.0
 10
10.2482204067
 20
6.7489232187
 30
0.0
 10
10.2040408639
 20
6.6782583626
 30
0.0
 10
10.1609422733
 20
6.6083632941
 30
0.0
 10
10.1192501505
 20
6.5396579545
 30
0.0
 10
10.0792402687
 20
6.4725512797
 30
0.0
 10
10.0410699031
 20
6.4073465037
 30
0.0
 10
10.004748078
 20
6.3441762964
 30
0.0
 10
9.9812833289
 20
6.3026802632
 30
0.0
 10
9.9698334742
 20
6.2822778795
 30
0.0
  0
SPLINE
  5
335
100
AcDbEntity
  8
0
100
AcDbSpline
 62
7
  6
CONTINUOUS
 70
0
 71
3
 72
19
 73
15
 74
0
 42
0.0000001
 43
0.0000001
 44
0.0000000001
 40
0.0
 40
0.0
 40
0.0
 40
0.0
 40
0.1260771208
 40
0.2528347281
 40
0.3163648934
 40
0.3799117399
 40
0.4433981571
 40
0.5067397731
 40
0.5698503075
 40
0.6326482349
 40
0.6950627485
 40
0.7570377409
 40
0.8795267422
 40
1.0
 40
1.0
 40
1.0
 40
1.0
 10
9.9698334742
 20
6.2385749154
 30
0.0
 10
9.9811185341
 20
6.2129039168
 30
0.0
 10
10.0041901235
 20
6.1616153611
 30
0.0
 10
10.0343617859
 20
6.0980396701
 30
0.0
 10
10.0594680623
 20
6.0474700203
 30
0.0
 10
10.0787898989
 20
6.0097439809
 30
0.0
 10
10.098584127
 20
5.9723110114
 30
0.0
 10
10.1188350354
 20
5.9352335815
 30
0.0
 10
10.139516834
 20
5.8985704652
 30
0.0
 10
10.1605948186
 20
5.8623721435
 30
0.0
 10
10.1820285342
 20
5.8266776251
 30
0.0
 10
10.2109093534
 20
5.7799741853
 30
0.0
 10
10.2476572794
 20
5.7229601567
 30
0.0
 10
10.277933881
 20
5.6781935836
 30
0.0
 10
10.2931559112
 20
5.6561415401
 30
0.0
  0
SPLINE
  5
336
100
AcDbEntity
  8
0
100
AcDbSpline
 62
7
  6
CONTINUOUS
 70
0
 71
3
 72
15
 73
11
 74
0
 42
0.0000001
 43
0.0000001
 44
0.0000000001
 40
0.0
 40
0.0
 40
0.0
 40
0.0
 40
0.1243106927
 40
0.2486903654
 40
0.3732068813
 40
0.4979257782
 40
0.6229094027
 40
0.7482155572
 40
0.8738968336
 40
1.0
 40
1.0
 40
1.0
 40
1.0
 10
11.3860138031
 20
5.8359518043
 30
0.0
 10
11.3753452999
 20
5.8256466469
 30
0.0
 10
11.3533187587
 20
5.8057251237
 30
0.0
 10
11.3183825025
 20
5.7780629435
 30
0.0
 10
11.2816698275
 20
5.7527167666
 30
0.0
 10
11.2433209085
 20
5.7297824213
 30
0.0
 10
11.2034792056
 20
5.7093452778
 30
0.0
 10
11.1622932641
 20
5.6914827193
 30
0.0
 10
11.1199203787
 20
5.6762606526
 30
0.0
 10
11.0910317621
 20
5.6679251435
 30
0.0
 10
11.0764499686
 20
5.6642136552
 30
0.0
  0
SPLINE
  5
337
100
AcDbEntity
  8
0
100
AcDbSpline
 62
7
  6
CONTINUOUS
 70
0
 71
3
 72
19
 73
15
 74
0
 42
0.0000001
 43
0.0000001
 44
0.0000000001
 40
0.0
 40
0.0
 40
0.0
 40
0.0
 40
0.12364354
 40
0.2474283104
 40
0.3714908041
 40
0.4959579644
 40
0.5583958401
 40
0.6209760479
 40
0.6837103254
 40
0.746608766
 40
0.8096786341
 40
0.8729270685
 40
0.9363647018
 40
1.0
 40
1.0
 40
1.0
 40
1.0
 10
10.3029034668
 20
6.9572691551
 30
0.0
 10
10.2875693208
 20
6.9424572566
 30
0.0
 10
10.2582628516
 20
6.9113494377
 30
0.0
 10
10.218865646
 20
6.8607274298
 30
0.0
 10
10.1843086672
 20
6.8065140351
 30
0.0
 10
10.1597914611
 20
6.7587334029
 30
0.0
 10
10.1428491971
 20
6.7191782048
 30
0.0
 10
10.1314840899
 20
6.6888520169
 30
0.0
 10
10.1214979978
 20
6.6579615717
 30
0.0
 10
10.1129110638
 20
6.6265656765
 30
0.0
 10
10.1057380968
 20
6.5947261897
 30
0.0
 10
10.099994644
 20
6.5625035086
 30
0.0
 10
10.0956903137
 20
6.5299596527
 30
0.0
 10
10.093789682
 20
6.5081226539
 30
0.0
 10
10.0930805046
 20
6.4971730562
 30
0.0
  0
SPLINE
  5
338
100
AcDbEntity
  8
0
100
AcDbSpline
 62
7
  6
CONTINUOUS
 70
0
 71
3
 72
41
 73
37
 74
0
 42
0.0000001
 43
0.0000001
 44
0.0000000001
 40
0.0
 40
0.0
 40
0.0
 40
0.0
 40
0.0312401642
 40
0.062624511
 40
0.0941485884
 40
0.1258004811
 40
0.1575671414
 40
0.1894333607
 40
0.2213818509
 40
0.2373833744
 40
0.2533983241
 40
0.2854538256
 40
0.3175321106
 40
0.3335754148
 40
0.3496164547
 40
0.3816766711
 40
0.413696399
 40
0.4456555539
 40
0.4775351284
 40
0.5093176384
 40
0.5409874677
 40
0.5725311255
 40
0.6039375118
 40
0.6351982701
 40
0.6663079324
 40
0.6972640222
 40
0.7280671856
 40
0.758721285
 40
0.789233296
 40
0.8196131699
 40
0.8498737427
 40
0.8800304845
 40
0.9101011372
 40
0.9401053254
 40
0.9700642144
 40
1.0
 40
1.0
 40
1.0
 40
1.0
 10
11.5948936078
 20
6.405923504
 30
0.0
 10
11.5934266041
 20
6.4239717227
 30
0.0
 10
11.5891997885
 20
6.460059681
 30
0.0
 10
11.5790620379
 20
6.5137239198
 30
0.0
 10
11.5651642161
 20
6.5667884906
 30
0.0
 10
11.5475764013
 20
6.6189792783
 30
0.0
 10
11.5263895063
 20
6.6700303511
 30
0.0
 10
11.5017132574
 20
6.7196794037
 30
0.0
 10
11.4783558698
 20
6.7596581281
 30
0.0
 10
11.4580610193
 20
6.7906934637
 30
0.0
 10
11.4367015984
 20
6.821082029
 30
0.0
 10
11.4080894539
 20
6.8577287968
 30
0.0
 10
11.3770833363
 20
6.8923954914
 30
0.0
 10
11.3509286524
 20
6.9188440208
 30
0.0
 10
11.3239138681
 20
6.9443979602
 30
0.0
 10
11.2885908848
 20
6.9746057054
 30
0.0
 10
11.243926739
 20
7.0078995834
 30
0.0
 10
11.1972162289
 20
7.0380658876
 30
0.0
 10
11.1486990327
 20
7.0649487145
 30
0.0
 10
11.0986230475
 20
7.0884109418
 30
0.0
 10
11.0472443929
 20
7.1083324318
 30
0.0
 10
10.9948256144
 20
7.1246107274
 30
0.0
 10
10.9416347029
 20
7.1371617487
 30
0.0
 10
10.8879438717
 20
7.1459213088
 30
0.0
 10
10.8340277921
 20
7.1508441503
 30
0.0
 10
10.7801624059
 20
7.151904066
 30
0.0
 10
10.7266236034
 20
7.1490950062
 30
0.0
 10
10.6736856442
 20
7.1424312124
 30
0.0
 10
10.6216198289
 20
7.1319461897
 30
0.0
 10
10.5706933144
 20
7.117692556
 30
0.0
 10
10.5211673778
 20
7.0997432184
 30
0.0
 10
10.4732960521
 20
7.0781899753
 30
0.0
 10
10.4273254377
 20
7.0531430047
 30
0.0
 10
10.3834911284
 20
7.0247294452
 30
0.0
 10
10.3420210655
 20
6.993098088
 30
0.0
 10
10.3160815241
 20
6.9699638317
 30
0.0
 10
10.3035845461
 20
6.9579261208
 30
0.0
  0
LINE
  5
339
100
AcDbEntity
  8
0
100
AcDbLine
 62
7
  6
CONTINUOUS
 10
10.3035845461
 20
6.9579261208
 11
10.3029034668
 21
6.9572691551
  0
SPLINE
  5
33A
100
AcDbEntity
  8
0
100
AcDbSpline
 62
7
  6
CONTINUOUS
 70
0
 71
3
 72
19
 73
15
 74
0
 42
0.0000001
 43
0.0000001
 44
0.0000000001
 40
0.0
 40
0.0
 40
0.0
 40
0.0
 40
0.1273245906
 40
0.2538177158
 40
0.3795245695
 40
0.5045229123
 40
0.5668074949
 40
0.6289561876
 40
0.6909854975
 40
0.7529133791
 40
0.8147586749
 40
0.8765412287
 40
0.9382813716
 40
1.0
 40
1.0
 40
1.0
 40
1.0
 10
11.5973978612
 20
6.344393967
 30
0.0
 10
11.5973978612
 20
6.3204239529
 30
0.0
 10
11.5951126477
 20
6.2726076015
 30
0.0
 10
11.5847782538
 20
6.2017993793
 30
0.0
 10
11.5676426707
 20
6.132768786
 30
0.0
 10
11.5477928545
 20
6.0771756126
 30
0.0
 10
11.528701245
 20
6.034256037
 30
0.0
 10
11.5128257877
 20
6.0029301215
 30
0.0
 10
11.4954141113
 20
5.9725095727
 30
0.0
 10
11.4765072184
 20
5.9430625496
 30
0.0
 10
11.4561474947
 20
5.914657868
 30
0.0
 10
11.4343825235
 20
5.8873598306
 30
0.0
 10
11.411262327
 20
5.8612327329
 30
0.0
 10
11.3949780467
 20
5.844631953
 30
0.0
 10
11.3866312546
 20
5.8365489827
 30
0.0
  0
LINE
  5
33B
100
AcDbEntity
  8
0
100
AcDbLine
 62
7
  6
CONTINUOUS
 10
11.3866312546
 20
5.8365489827
 11
11.3860138031
 21
5.8359518043
  0
SPLINE
  5
33C
100
AcDbEntity
  8
0
100
AcDbSpline
 62
7
  6
CONTINUOUS
 70
0
 71
3
 72
19
 73
15
 74
0
 42
0.0000001
 43
0.0000001
 44
0.0000000001
 40
0.0
 40
0.0
 40
0.0
 40
0.0
 40
0.1249099526
 40
0.2495715146
 40
0.311863534
 40
0.3741457153
 40
0.4364342526
 40
0.4987459012
 40
0.5610982597
 40
0.6235087121
 40
0.6859938032
 40
0.748569392
 40
0.8740183137
 40
1.0
 40
1.0
 40
1.0
 40
1.0
 10
10.4727535678
 20
6.9933443055
 30
0.0
 10
10.4558471964
 20
6.9840227393
 30
0.0
 10
10.42291186
 20
6.9638207129
 30
0.0
 10
10.3842928311
 20
6.9348557505
 30
0.0
 10
10.355163354
 20
6.9096307485
 30
0.0
 10
10.3342305812
 20
6.8897165494
 30
0.0
 10
10.3142502721
 20
6.8688433728
 30
0.0
 10
10.2952612147
 20
6.8470499978
 30
0.0
 10
10.2772985174
 20
6.8243791889
 30
0.0
 10
10.2603977798
 20
6.8008731956
 30
0.0
 10
10.2445895265
 20
6.776577281
 30
0.0
 10
10.2249970112
 20
6.7431682487
 30
0.0
 10
10.2033790796
 20
6.6996363665
 30
0.0
 10
10.1893403139
 20
6.6633331626
 30
0.0
 10
10.1831487739
 20
6.6448722546
 30
0.0
  0
SPLINE
  5
33D
100
AcDbEntity
  8
0
100
AcDbSpline
 62
7
  6
CONTINUOUS
 70
0
 71
3
 72
15
 73
11
 74
0
 42
0.0000001
 43
0.0000001
 44
0.0000000001
 40
0.0
 40
0.0
 40
0.0
 40
0.0
 40
0.1118677267
 40
0.2279393148
 40
0.3484197622
 40
0.473137282
 40
0.6015125718
 40
0.7326899616
 40
0.8657703557
 40
1.0
 40
1.0
 40
1.0
 40
1.0
 10
11.0154965394
 20
5.6060470474
 30
0.0
 10
11.0269463941
 20
5.6264494312
 30
0.0
 10
11.0504111432
 20
5.6679454644
 30
0.0
 10
11.0867329683
 20
5.7311156716
 30
0.0
 10
11.1249033339
 20
5.7963204476
 30
0.0
 10
11.1649132157
 20
5.8634271225
 30
0.0
 10
11.2066053385
 20
5.9321324621
 30
0.0
 10
11.2497039291
 20
6.0020275306
 30
0.0
 10
11.2938834719
 20
6.0726923867
 30
0.0
 10
11.3237644322
 20
6.1199411994
 30
0.0
 10
11.3388189764
 20
6.1436354483
 30
0.0
  0
SPLINE
  5
33E
100
AcDbEntity
  8
0
100
AcDbSpline
 62
7
  6
CONTINUOUS
 70
0
 71
3
 72
19
 73
15
 74
0
 42
0.0000001
 43
0.0000001
 44
0.0000000001
 40
0.0
 40
0.0
 40
0.0
 40
0.0
 40
0.1204732578
 40
0.2429622592
 40
0.3049372515
 40
0.3673517652
 40
0.4301496926
 40
0.493260227
 40
0.5566018429
 40
0.6200882601
 40
0.6836351066
 40
0.7471652719
 40
0.8739228793
 40
1.0
 40
1.0
 40
1.0
 40
1.0
 10
11.3388189764
 20
6.1873384124
 30
0.0
 10
11.3235969462
 20
6.2093904559
 30
0.0
 10
11.2933203446
 20
6.254157029
 30
0.0
 10
11.2565724186
 20
6.3111710576
 30
0.0
 10
11.2276915994
 20
6.3578744975
 30
0.0
 10
11.2062578838
 20
6.3935690159
 30
0.0
 10
11.1851798992
 20
6.4297673376
 30
0.0
 10
11.1644981006
 20
6.4664304538
 30
0.0
 10
11.1442471922
 20
6.5035078838
 30
0.0
 10
11.1244529641
 20
6.5409408532
 30
0.0
 10
11.1051311275
 20
6.5786668926
 30
0.0
 10
11.0800248511
 20
6.6292365424
 30
0.0
 10
11.0498531887
 20
6.6928122334
 30
0.0
 10
11.0267815994
 20
6.7441007891
 30
0.0
 10
11.0154965394
 20
6.7697717877
 30
0.0
  0
SPLINE
  5
33F
100
AcDbEntity
  8
0
100
AcDbSpline
 62
7
  6
CONTINUOUS
 70
0
 71
3
 72
15
 73
11
 74
0
 42
0.0000001
 43
0.0000001
 44
0.0000000001
 40
0.0
 40
0.0
 40
0.0
 40
0.0
 40
0.1306612723
 40
0.2609581874
 40
0.3903117807
 40
0.5179769152
 40
0.6431912152
 40
0.7653802433
 40
0.8842928995
 40
1.0
 40
1.0
 40
1.0
 40
1.0
 10
10.9776486623
 20
6.7942480289
 30
0.0
 10
10.9493882127
 20
6.7942164992
 30
0.0
 10
10.89294478
 20
6.7945047259
 30
0.0
 10
10.8085385575
 20
6.7962109575
 30
0.0
 10
10.7248223645
 20
6.7993988868
 30
0.0
 10
10.6422841616
 20
6.8042149349
 30
0.0
 10
10.5614141953
 20
6.8106974493
 30
0.0
 10
10.4825891269
 20
6.8187560893
 30
0.0
 10
10.4059909139
 20
6.8282015868
 30
0.0
 10
10.3557496171
 20
6.8353583563
 30
0.0
 10
10.3310037883
 20
6.8390930032
 30
0.0
  0
SPLINE
  5
340
100
AcDbEntity
  8
0
100
AcDbSpline
 62
7
  6
CONTINUOUS
 70
0
 71
3
 72
23
 73
19
 74
0
 42
0.0000001
 43
0.0000001
 44
0.0000000001
 40
0.0
 40
0.0
 40
0.0
 40
0.0
 40
0.064183289
 40
0.1282169934
 40
0.1920567493
 40
0.2556896198
 40
0.3190982456
 40
0.3822653824
 40
0.4451796478
 40
0.5078332662
 40
0.5702218084
 40
0.6323449284
 40
0.6942066549
 40
0.7558151105
 40
0.8171802601
 40
0.8783186355
 40
0.939257435
 40
1.0
 40
1.0
 40
1.0
 40
1.0
 10
11.1572463189
 20
6.967726054
 30
0.0
 10
11.1448947358
 20
6.9751976008
 30
0.0
 10
11.1197822621
 20
6.9894126597
 30
0.0
 10
11.0809975712
 20
7.0084819552
 30
0.0
 10
11.0412767814
 20
7.025203617
 30
0.0
 10
11.0007739878
 20
7.0395131993
 30
0.0
 10
10.959640259
 20
7.0513586957
 30
0.0
 10
10.9180304745
 20
7.0606935106
 30
0.0
 10
10.8761020974
 20
7.0674828307
 30
0.0
 10
10.834013243
 20
7.0717013334
 30
0.0
 10
10.7919226724
 20
7.0733316239
 30
0.0
 10
10.7499893783
 20
7.07236853
 30
0.0
 10
10.7083715511
 20
7.0688149444
 30
0.0
 10
10.6672267851
 20
7.0626833117
 30
0.0
 10
10.6267105336
 20
7.05399835
 30
0.0
 10
10.586973991
 20
7.0427906554
 30
0.0
 10
10.5481720899
 20
7.0291031387
 30
0.0
 10
10.5229836424
 20
7.0183436774
 30
0.0
 10
10.5106014449
 20
7.0125710284
 30
0.0
  0
SPLINE
  5
341
100
AcDbEntity
  8
0
100
AcDbSpline
 62
7
  6
CONTINUOUS
 70
0
 71
3
 72
23
 73
19
 74
0
 42
0.0000001
 43
0.0000001
 44
0.0000000001
 40
0.0
 40
0.0
 40
0.0
 40
0.0
 40
0.0611903141
 40
0.1226472303
 40
0.1843437281
 40
0.2462765515
 40
0.3084319318
 40
0.3707901407
 40
0.43333071
 40
0.4960305412
 40
0.5588639325
 40
0.6218032785
 40
0.6848199854
 40
0.7478844781
 40
0.8109642578
 40
0.8740295744
 40
0.9370581234
 40
1.0
 40
1.0
 40
1.0
 40
1.0
 10
11.518416633
 20
6.3608164375
 30
0.0
 10
11.517968123
 20
6.374897015
 30
0.0
 10
11.5162026517
 20
6.4030993101
 30
0.0
 10
11.510986028
 20
6.4452432784
 30
0.0
 10
11.5032119251
 20
6.487166483
 30
0.0
 10
11.4929112574
 20
6.5287063486
 30
0.0
 10
11.4801239357
 20
6.5697087852
 30
0.0
 10
11.4648967905
 20
6.6100184113
 30
0.0
 10
11.4472881977
 20
6.6494831707
 30
0.0
 10
11.427365064
 20
6.6879546023
 30
0.0
 10
11.4052015862
 20
6.7252870634
 30
0.0
 10
11.3808824846
 20
6.7613403813
 30
0.0
 10
11.3544990386
 20
6.7959784904
 30
0.0
 10
11.326150431
 20
6.8290700929
 30
0.0
 10
11.2959450242
 20
6.8604913381
 30
0.0
 10
11.2639941046
 20
6.8901243995
 30
0.0
 10
11.2304210462
 20
6.9178540687
 30
0.0
 10
11.2070210714
 20
6.9350194987
 30
0.0
 10
11.195094196
 20
6.9432498128
 30
0.0
  0
SPLINE
  5
342
100
AcDbEntity
  8
0
100
AcDbSpline
 62
7
  6
CONTINUOUS
 70
0
 71
3
 72
23
 73
19
 74
0
 42
0.0000001
 43
0.0000001
 44
0.0000000001
 40
0.0
 40
0.0
 40
0.0
 40
0.0
 40
0.0621318309
 40
0.1241730097
 40
0.1861367829
 40
0.2480654415
 40
0.3099946977
 40
0.371957368
 40
0.4339879225
 40
0.4961196053
 40
0.5583835886
 40
0.6208088007
 40
0.6834219941
 40
0.7462469592
 40
0.8093017246
 40
0.8726037153
 40
0.936173771
 40
1.0
 40
1.0
 40
1.0
 40
1.0
 10
11.195094196
 20
5.7795250725
 30
0.0
 10
11.2069998294
 20
5.7860894114
 30
0.0
 10
11.2303726674
 20
5.799989639
 30
0.0
 10
11.2639641694
 20
5.8230716152
 30
0.0
 10
11.2959328486
 20
5.8482848072
 30
0.0
 10
11.3261543375
 20
5.8755305605
 30
0.0
 10
11.3545170493
 20
5.9047061981
 30
0.0
 10
11.3809122159
 20
5.9357024304
 30
0.0
 10
11.405240389
 20
5.968401208
 30
0.0
 10
11.4274101341
 20
6.0026786181
 30
0.0
 10
11.4473366141
 20
6.0384055906
 30
0.0
 10
11.4649457151
 20
6.0754462731
 30
0.0
 10
11.4801706443
 20
6.1136609111
 30
0.0
 10
11.492953237
 20
6.1529049139
 30
0.0
 10
11.5032470449
 20
6.1930291182
 30
0.0
 10
11.5110124996
 20
6.2338844512
 30
0.0
 10
11.5162191481
 20
6.2753121252
 30
0.0
 10
11.5179700222
 20
6.3031544653
 30
0.0
 10
11.518416633
 20
6.3171134735
 30
0.0
  0
SPLINE
  5
343
100
AcDbEntity
  8
0
100
AcDbSpline
 62
7
  6
CONTINUOUS
 70
0
 71
3
 72
39
 73
35
 74
0
 42
0.0000001
 43
0.0000001
 44
0.0000000001
 40
0.0
 40
0.0
 40
0.0
 40
0.0
 40
0.0313278581
 40
0.0628642024
 40
0.0945965767
 40
0.1265062279
 40
0.1585673883
 40
0.1907491328
 40
0.2230161417
 40
0.2553301578
 40
0.2876512954
 40
0.3199393837
 40
0.3521554252
 40
0.3842629547
 40
0.4162292954
 40
0.4480268268
 40
0.4796340374
 40
0.5110363791
 40
0.5422269961
 40
0.5732071123
 40
0.6039861227
 40
0.6345814383
 40
0.665017896
 40
0.6953268475
 40
0.7255450008
 40
0.7557128834
 40
0.7858731374
 40
0.8160687653
 40
0.8463412558
 40
0.876728795
 40
0.9072648719
 40
0.9379765655
 40
0.9688843731
 40
1.0
 40
1.0
 40
1.0
 40
1.0
 10
11.2399010812
 20
6.158578574
 30
0.0
 10
11.2399010812
 20
6.1782353205
 30
0.0
 10
11.2379560722
 20
6.2177058334
 30
0.0
 10
11.2293021639
 20
6.2765143893
 30
0.0
 10
11.2149868892
 20
6.334587075
 30
0.0
 10
11.1951499775
 20
6.3913584779
 30
0.0
 10
11.1699830703
 20
6.4462858039
 30
0.0
 10
11.13972912
 20
6.4988414404
 30
0.0
 10
11.1046792783
 20
6.5485213374
 30
0.0
 10
11.0651705103
 20
6.5948488354
 30
0.0
 10
11.0215822283
 20
6.6373793611
 30
0.0
 10
10.974332787
 20
6.6757045814
 30
0.0
 10
10.9238755017
 20
6.7094562433
 30
0.0
 10
10.8706944046
 20
6.7383096724
 30
0.0
 10
10.8152996953
 20
6.7619868581
 30
0.0
 10
10.7582229559
 20
6.7802590925
 30
0.0
 10
10.7000121809
 20
6.792949211
 30
0.0
 10
10.6412266399
 20
6.7999333377
 30
0.0
 10
10.5824316379
 20
6.8011421636
 30
0.0
 10
10.5241931887
 20
6.7965617866
 30
0.0
 10
10.4670726372
 20
6.7862340074
 30
0.0
 10
10.4116212764
 20
6.7702561599
 30
0.0
 10
10.3583749687
 20
6.7487804216
 30
0.0
 10
10.3078488421
 20
6.7220125345
 30
0.0
 10
10.2605321008
 20
6.6902100027
 30
0.0
 10
10.2168830262
 20
6.6536796798
 30
0.0
 10
10.1773242871
 20
6.6127747578
 30
0.0
 10
10.1422385623
 20
6.5678912343
 30
0.0
 10
10.1119647448
 20
6.5194638824
 30
0.0
 10
10.086794408
 20
6.4679615894
 30
0.0
 10
10.0669694236
 20
6.4138833736
 30
0.0
 10
10.0526789385
 20
6.357750094
 30
0.0
 10
10.0440591158
 20
6.3001112673
 30
0.0
 10
10.0421529856
 20
6.2611662681
 30
0.0
 10
10.0421529856
 20
6.2416426865
 30
0.0
  0
SPLINE
  5
344
100
AcDbEntity
  8
0
100
AcDbSpline
 62
7
  6
CONTINUOUS
 70
0
 71
3
 72
39
 73
35
 74
0
 42
0.0000001
 43
0.0000001
 44
0.0000000001
 40
0.0
 40
0.0
 40
0.0
 40
0.0
 40
0.0313278581
 40
0.0628642024
 40
0.0945965767
 40
0.1265062279
 40
0.1585673883
 40
0.1907491328
 40
0.2230161417
 40
0.2553301578
 40
0.2876512954
 40
0.3199393837
 40
0.3521554252
 40
0.3842629547
 40
0.4162292954
 40
0.4480268268
 40
0.4796340374
 40
0.5110363791
 40
0.5422269961
 40
0.5732071123
 40
0.6039861227
 40
0.6345814383
 40
0.665017896
 40
0.6953268475
 40
0.7255450008
 40
0.7557128834
 40
0.7858731374
 40
0.8160687653
 40
0.8463412558
 40
0.876728795
 40
0.9072648719
 40
0.9379765655
 40
0.9688843731
 40
1.0
 40
1.0
 40
1.0
 40
1.0
 10
10.0421529856
 20
6.2416426865
 30
0.0
 10
10.0421529856
 20
6.22198594
 30
0.0
 10
10.0440979947
 20
6.1825154271
 30
0.0
 10
10.052751903
 20
6.1237068712
 30
0.0
 10
10.0670671776
 20
6.0656341855
 30
0.0
 10
10.0869040893
 20
6.0088627826
 30
0.0
 10
10.1120709966
 20
5.9539354566
 30
0.0
 10
10.1423249468
 20
5.9013798201
 30
0.0
 10
10.1773747886
 20
5.8516999231
 30
0.0
 10
10.2168835565
 20
5.8053724251
 30
0.0
 10
10.2604718386
 20
5.7628418994
 30
0.0
 10
10.3077212799
 20
5.7245166791
 30
0.0
 10
10.3581785651
 20
5.6907650172
 30
0.0
 10
10.4113596623
 20
5.6619115881
 30
0.0
 10
10.4667543715
 20
5.6382344024
 30
0.0
 10
10.523831111
 20
5.619962168
 30
0.0
 10
10.5820418859
 20
5.6072720495
 30
0.0
 10
10.6408274269
 20
5.6002879228
 30
0.0
 10
10.699622429
 20
5.5990790969
 30
0.0
 10
10.7578608782
 20
5.6036594739
 30
0.0
 10
10.8149814297
 20
5.6139872531
 30
0.0
 10
10.8704327904
 20
5.6299651006
 30
0.0
 10
10.9236790981
 20
5.6514408389
 30
0.0
 10
10.9742052247
 20
5.678208726
 30
0.0
 10
11.021521966
 20
5.7100112579
 30
0.0
 10
11.0651710406
 20
5.7465415807
 30
0.0
 10
11.1047297798
 20
5.7874465027
 30
0.0
 10
11.1398155045
 20
5.8323300262
 30
0.0
 10
11.1700893221
 20
5.8807573781
 30
0.0
 10
11.1952596589
 20
5.9322596711
 30
0.0
 10
11.2150846433
 20
5.9863378869
 30
0.0
 10
11.2293751284
 20
6.0424711665
 30
0.0
 10
11.2379949511
 20
6.1001099932
 30
0.0
 10
11.2399010812
 20
6.1390549925
 30
0.0
 10
11.2399010812
 20
6.158578574
 30
0.0
  0
SPLINE
  5
345
100
AcDbEntity
  8
0
100
AcDbSpline
 62
7
  6
CONTINUOUS
 70
0
 71
3
 72
23
 73
19
 74
0
 42
0.0000001
 43
0.0000001
 44
0.0000000001
 40
0.0
 40
0.0
 40
0.0
 40
0.0
 40
0.0637776288
 40
0.1273446152
 40
0.1907020433
 40
0.2538561391
 40
0.3168131818
 40
0.3795820998
 40
0.442173387
 40
0.5045993408
 40
0.5668738683
 40
0.6290123813
 40
0.69103165
 40
0.7529496426
 40
0.8147853504
 40
0.8765585998
 40
0.9382898528
 40
1.0
 40
1.0
 40
1.0
 40
1.0
 10
9.9658858576
 20
9.0792704732
 30
0.0
 10
9.9658858576
 20
9.0657701751
 30
0.0
 10
9.9652397232
 20
9.0388095906
 30
0.0
 10
9.9623231478
 20
8.9985326299
 30
0.0
 10
9.9574672047
 20
8.9585750649
 30
0.0
 10
9.9506832425
 20
8.9190304083
 30
0.0
 10
9.9419866253
 20
8.8799893066
 30
0.0
 10
9.9313974039
 20
8.8415419219
 30
0.0
 10
9.9189398552
 20
8.8037768536
 30
0.0
 10
9.9046426264
 20
8.766781202
 30
0.0
 10
9.888538597
 20
8.7306402902
 30
0.0
 10
9.8706648394
 20
8.6954374766
 30
0.0
 10
9.8510625186
 20
8.6612539699
 30
0.0
 10
9.8297767727
 20
8.6281686116
 30
0.0
 10
9.8068567227
 20
8.5962578006
 30
0.0
 10
9.7823549338
 20
8.5655949097
 30
0.0
 10
9.7563288835
 20
8.5362516239
 30
0.0
 10
9.7379985176
 20
8.5176109083
 30
0.0
 10
9.7286031336
 20
8.5085356779
 30
0.0
  0
SPLINE
  5
346
100
AcDbEntity
  8
0
100
AcDbSpline
 62
7
  6
CONTINUOUS
 70
0
 71
3
 72
23
 73
19
 74
0
 42
0.0000001
 43
0.0000001
 44
0.0000000001
 40
0.0
 40
0.0
 40
0.0
 40
0.0
 40
0.0637776288
 40
0.1273446152
 40
0.1907020433
 40
0.2538561391
 40
0.3168131818
 40
0.3795820998
 40
0.442173387
 40
0.5045993408
 40
0.5668738683
 40
0.6290123813
 40
0.69103165
 40
0.7529496426
 40
0.8147853504
 40
0.8765585998
 40
0.9382898528
 40
1.0
 40
1.0
 40
1.0
 40
1.0
 10
11.6562561538
 20
6.3057467153
 30
0.0
 10
11.6562561538
 20
6.2922464172
 30
0.0
 10
11.6556100193
 20
6.2652858327
 30
0.0
 10
11.652693444
 20
6.225008872
 30
0.0
 10
11.6478375009
 20
6.185051307
 30
0.0
 10
11.6410535387
 20
6.1455066504
 30
0.0
 10
11.6323569214
 20
6.1064655487
 30
0.0
 10
11.6217677001
 20
6.068018164
 30
0.0
 10
11.6093101514
 20
6.0302530957
 30
0.0
 10
11.5950129226
 20
5.9932574441
 30
0.0
 10
11.5789088932
 20
5.9571165324
 30
0.0
 10
11.5610351355
 20
5.9219137187
 30
0.0
 10
11.5414328148
 20
5.887730212
 30
0.0
 10
11.5201470689
 20
5.8546448537
 30
0.0
 10
11.4972270189
 20
5.8227340427
 30
0.0
 10
11.47272523
 20
5.7920711518
 30
0.0
 10
11.4466991796
 20
5.7627278661
 30
0.0
 10
11.4283688138
 20
5.7440871504
 30
0.0
 10
11.4189734298
 20
5.7350119201
 30
0.0
  0
SPLINE
  5
347
100
AcDbEntity
  8
0
100
AcDbSpline
 62
7
  6
CONTINUOUS
 70
0
 71
3
 72
33
 73
29
 74
0
 42
0.0000001
 43
0.0000001
 44
0.0000000001
 40
0.0
 40
0.0
 40
0.0
 40
0.0
 40
0.0958348694
 40
0.1891075393
 40
0.2792507307
 40
0.3657221938
 40
0.4480135352
 40
0.5256551542
 40
0.5625998871
 40
0.5982279088
 40
0.6324952589
 40
0.6653619968
 40
0.6967931368
 40
0.7267585922
 40
0.7552346622
 40
0.7822039745
 40
0.8076576644
 40
0.8315956119
 40
0.8540295607
 40
0.8749841658
 40
0.8945014605
 40
0.9126434539
 40
0.9294983432
 40
0.9451850262
 40
0.9598600607
 40
0.9737213157
 40
0.9870092446
 40
1.0
 40
1.0
 40
1.0
 40
1.0
 10
12.1816653839
 20
10.0562158888
 30
0.0
 10
12.1761696549
 20
10.0565970189
 30
0.0
 10
12.1653330538
 20
10.0574699633
 30
0.0
 10
12.1493659301
 20
10.0591362912
 30
0.0
 10
12.1339791332
 20
10.0611331903
 30
0.0
 10
12.1192752455
 20
10.0634470722
 30
0.0
 10
12.1053523428
 20
10.0660622147
 30
0.0
 10
12.0943017691
 20
10.0685164902
 30
0.0
 10
12.0859285523
 20
10.0706279672
 30
0.0
 10
12.0800043839
 20
10.0722492141
 30
0.0
 10
12.0743413696
 20
10.0739315722
 30
0.0
 10
12.0689489177
 20
10.0756722798
 30
0.0
 10
12.0638359723
 20
10.0774683638
 30
0.0
 10
12.0590110045
 20
10.0793168762
 30
0.0
 10
12.0544819586
 20
10.0812146615
 30
0.0
 10
12.0502562908
 20
10.0831586549
 30
0.0
 10
12.0463408683
 20
10.0851455618
 30
0.0
 10
12.0427420675
 20
10.0871722695
 30
0.0
 10
12.0394656088
 20
10.0892354412
 30
0.0
 10
12.036516753
 20
10.091332042
 30
0.0
 10
12.0339000682
 20
10.0934588814
 30
0.0
 10
12.0316197997
 20
10.0956132252
 30
0.0
 10
12.0296796234
 20
10.0977923029
 30
0.0
 10
12.0280833122
 20
10.0999938687
 30
0.0
 10
12.0268345414
 20
10.1022154157
 30
0.0
 10
12.0259376853
 20
10.1044544762
 30
0.0
 10
12.0253970257
 20
10.1067062179
 30
0.0
 10
12.0252761653
 20
10.1082194204
 30
0.0
 10
12.0252761739
 20
10.1089661752
 30
0.0
  0
SPLINE
  5
348
100
AcDbEntity
  8
0
100
AcDbSpline
 62
7
  6
CONTINUOUS
 70
0
 71
3
 72
33
 73
29
 74
0
 42
0.0000001
 43
0.0000001
 44
0.0000000001
 40
0.0
 40
0.0
 40
0.0
 40
0.0
 40
0.0958348694
 40
0.1891075393
 40
0.2792507307
 40
0.3657221938
 40
0.4480135352
 40
0.5256551542
 40
0.5625998871
 40
0.5982279088
 40
0.6324952589
 40
0.6653619968
 40
0.6967931368
 40
0.7267585922
 40
0.7552346622
 40
0.7822039745
 40
0.8076576644
 40
0.8315956119
 40
0.8540295607
 40
0.8749841658
 40
0.8945014605
 40
0.9126434539
 40
0.9294983432
 40
0.9451850262
 40
0.9598600607
 40
0.9737213157
 40
0.9870092446
 40
1.0
 40
1.0
 40
1.0
 40
1.0
 10
13.5728166033
 20
11.3999648595
 30
0.0
 10
13.5673208743
 20
11.4003459896
 30
0.0
 10
13.5564842731
 20
11.401218934
 30
0.0
 10
13.5405171495
 20
11.4028852619
 30
0.0
 10
13.5251303525
 20
11.404882161
 30
0.0
 10
13.5104264648
 20
11.4071960429
 30
0.0
 10
13.4965035621
 20
11.4098111853
 30
0.0
 10
13.4854529884
 20
11.4122654608
 30
0.0
 10
13.4770797717
 20
11.4143769379
 30
0.0
 10
13.4711556033
 20
11.4159981847
 30
0.0
 10
13.4654925889
 20
11.4176805428
 30
0.0
 10
13.460100137
 20
11.4194212505
 30
0.0
 10
13.4549871917
 20
11.4212173344
 30
0.0
 10
13.4501622239
 20
11.4230658469
 30
0.0
 10
13.4456331779
 20
11.4249636321
 30
0.0
 10
13.4414075101
 20
11.4269076256
 30
0.0
 10
13.4374920876
 20
11.4288945325
 30
0.0
 10
13.4338932868
 20
11.4309212401
 30
0.0
 10
13.4306168282
 20
11.4329844118
 30
0.0
 10
13.4276679724
 20
11.4350810126
 30
0.0
 10
13.4250512875
 20
11.437207852
 30
0.0
 10
13.422771019
 20
11.4393621959
 30
0.0
 10
13.4208308428
 20
11.4415412736
 30
0.0
 10
13.4192345315
 20
11.4437428393
 30
0.0
 10
13.4179857607
 20
11.4459643863
 30
0.0
 10
13.4170889046
 20
11.4482034468
 30
0.0
 10
13.416548245
 20
11.4504551886
 30
0.0
 10
13.4164273846
 20
11.4519683911
 30
0.0
 10
13.4164273933
 20
11.4527151459
 30
0.0
  0
SPLINE
  5
349
100
AcDbEntity
  8
0
100
AcDbSpline
 62
7
  6
CONTINUOUS
 70
0
 71
3
 72
53
 73
49
 74
0
 42
0.0000001
 43
0.0000001
 44
0.0000000001
 40
0.0
 40
0.0
 40
0.0
 40
0.0
 40
0.0417740113
 40
0.0840369498
 40
0.1266584959
 40
0.1695064843
 40
0.2124480935
 40
0.2553500426
 40
0.298079237
 40
0.3405032536
 40
0.382490879
 40
0.4239126346
 40
0.4646413116
 40
0.5045525112
 40
0.543525196
 40
0.5814422576
 40
0.6181911067
 40
0.6536642972
 40
0.6877601986
 40
0.720383738
 40
0.7361160079
 40
0.7514479787
 40
0.7663699923
 40
0.7808730391
 40
0.7949486907
 40
0.8085892839
 40
0.8217878242
 40
0.8345382246
 40
0.8468351953
 40
0.858674535
 40
0.8700530305
 40
0.8809687964
 40
0.8914212207
 40
0.9014113515
 40
0.9109419335
 40
0.9200178526
 40
0.9286463131
 40
0.9368373658
 40
0.9446042772
 40
0.9519641672
 40
0.9589385932
 40
0.9655542738
 40
0.9718437889
 40
0.9778461802
 40
0.9836073652
 40
0.9891800467
 40
0.99462308
 40
1.0
 40
1.0
 40
1.0
 40
1.0
 10
12.8973064458
 20
9.1608054948
 30
0.0
 10
12.8973064458
 20
9.1771293783
 30
0.0
 10
12.8975611157
 20
9.2099687145
 30
0.0
 10
12.8986869651
 20
9.259451521
 30
0.0
 10
12.9005555985
 20
9.3093318969
 30
0.0
 10
12.9031608904
 20
9.3594447259
 30
0.0
 10
12.9064942313
 20
9.4096242094
 30
0.0
 10
12.9105446032
 20
9.4597043411
 30
0.0
 10
12.9152985885
 20
9.5095194338
 30
0.0
 10
12.920740428
 20
9.5589046879
 30
0.0
 10
12.9268520665
 20
9.6076967339
 30
0.0
 10
12.9336132145
 20
9.6557341793
 30
0.0
 10
12.9410014134
 20
9.7028581471
 30
0.0
 10
12.9489921084
 20
9.7489128084
 30
0.0
 10
12.9575587284
 20
9.7937459034
 30
0.0
 10
12.9666727709
 20
9.8372092639
 30
0.0
 10
12.9763038989
 20
9.8791592854
 30
0.0
 10
12.986420025
 20
9.9194575335
 30
0.0
 10
12.9969874692
 20
9.9579708242
 30
0.0
 10
13.0062488167
 20
9.9888342938
 30
0.0
 10
13.0138722504
 20
10.0125256624
 30
0.0
 10
13.0196113211
 20
10.0295551048
 30
0.0
 10
13.0254363406
 20
10.0460467941
 30
0.0
 10
13.0313424688
 20
10.0619871408
 30
0.0
 10
13.0373248624
 20
10.0773629812
 30
0.0
 10
13.0433784939
 20
10.092161654
 30
0.0
 10
13.049498433
 20
10.1063709529
 30
0.0
 10
13.0556795235
 20
10.1199792071
 30
0.0
 10
13.061916757
 20
10.1329752091
 30
0.0
 10
13.0682048811
 20
10.1453483261
 30
0.0
 10
13.0745388291
 20
10.157088393
 30
0.0
 10
13.0809132924
 20
10.1681858582
 30
0.0
 10
13.0873231742
 20
10.1786316414
 30
0.0
 10
13.0937631638
 20
10.1884173087
 30
0.0
 10
13.1002281784
 20
10.1975349005
 30
0.0
 10
13.1067129819
 20
10.2059771213
 30
0.0
 10
13.1132125767
 20
10.2137371466
 30
0.0
 10
13.1197219076
 20
10.2208087967
 30
0.0
 10
13.1262361654
 20
10.2271863365
 30
0.0
 10
13.1327506
 20
10.2328645766
 30
0.0
 10
13.1392606827
 20
10.2378386847
 30
0.0
 10
13.1457620054
 20
10.242104141
 30
0.0
 10
13.1522502015
 20
10.2456566177
 30
0.0
 10
13.1587208492
 20
10.2484917756
 30
0.0
 10
13.1651689482
 20
10.2506054402
 30
0.0
 10
13.1715891986
 20
10.2519934287
 30
0.0
 10
13.1779737914
 20
10.2526525117
 30
0.0
 10
13.1822126278
 20
10.2526041079
 30
0.0
 10
13.1843087138
 20
10.252458749
 30
0.0
  0
SPLINE
  5
34A
100
AcDbEntity
  8
0
100
AcDbSpline
 62
7
  6
CONTINUOUS
 70
0
 71
3
 72
53
 73
49
 74
0
 42
0.0000001
 43
0.0000001
 44
0.0000000001
 40
0.0
 40
0.0
 40
0.0
 40
0.0
 40
0.0417740113
 40
0.0840369498
 40
0.1266584959
 40
0.1695064843
 40
0.2124480935
 40
0.2553500426
 40
0.298079237
 40
0.3405032536
 40
0.382490879
 40
0.4239126346
 40
0.4646413116
 40
0.5045525112
 40
0.543525196
 40
0.5814422576
 40
0.6181911067
 40
0.6536642972
 40
0.6877601986
 40
0.720383738
 40
0.7361160079
 40
0.7514479787
 40
0.7663699923
 40
0.7808730391
 40
0.7949486907
 40
0.8085892839
 40
0.8217878242
 40
0.8345382246
 40
0.8468351953
 40
0.858674535
 40
0.8700530305
 40
0.8809687964
 40
0.8914212207
 40
0.9014113515
 40
0.9109419335
 40
0.9200178526
 40
0.9286463131
 40
0.9368373658
 40
0.9446042772
 40
0.9519641672
 40
0.9589385932
 40
0.9655542738
 40
0.9718437889
 40
0.9778461802
 40
0.9836073652
 40
0.9891800467
 40
0.99462308
 40
1.0
 40
1.0
 40
1.0
 40
1.0
 10
13.5764470168
 20
9.8168049508
 30
0.0
 10
13.5764470168
 20
9.8331288343
 30
0.0
 10
13.5767016867
 20
9.8659681705
 30
0.0
 10
13.577827536
 20
9.915450977
 30
0.0
 10
13.5796961694
 20
9.9653313529
 30
0.0
 10
13.5823014613
 20
10.015444182
 30
0.0
 10
13.5856348022
 20
10.0656236654
 30
0.0
 10
13.5896851741
 20
10.1157037971
 30
0.0
 10
13.5944391595
 20
10.1655188898
 30
0.0
 10
13.5998809989
 20
10.2149041439
 30
0.0
 10
13.6059926374
 20
10.2636961899
 30
0.0
 10
13.6127537855
 20
10.3117336353
 30
0.0
 10
13.6201419844
 20
10.3588576031
 30
0.0
 10
13.6281326793
 20
10.4049122644
 30
0.0
 10
13.6366992993
 20
10.4497453594
 30
0.0
 10
13.6458133418
 20
10.4932087199
 30
0.0
 10
13.6554444699
 20
10.5351587414
 30
0.0
 10
13.6655605959
 20
10.5754569896
 30
0.0
 10
13.6761280401
 20
10.6139702802
 30
0.0
 10
13.6853893876
 20
10.6448337498
 30
0.0
 10
13.6930128213
 20
10.6685251184
 30
0.0
 10
13.698751892
 20
10.6855545608
 30
0.0
 10
13.7045769116
 20
10.7020462501
 30
0.0
 10
13.7104830397
 20
10.7179865968
 30
0.0
 10
13.7164654334
 20
10.7333624372
 30
0.0
 10
13.7225190648
 20
10.74816111
 30
0.0
 10
13.7286390039
 20
10.7623704089
 30
0.0
 10
13.7348200944
 20
10.7759786631
 30
0.0
 10
13.7410573279
 20
10.7889746651
 30
0.0
 10
13.747345452
 20
10.8013477821
 30
0.0
 10
13.7536794
 20
10.813087849
 30
0.0
 10
13.7600538633
 20
10.8241853142
 30
0.0
 10
13.7664637451
 20
10.8346310974
 30
0.0
 10
13.7729037347
 20
10.8444167647
 30
0.0
 10
13.7793687493
 20
10.8535343565
 30
0.0
 10
13.7858535528
 20
10.8619765773
 30
0.0
 10
13.7923531476
 20
10.8697366026
 30
0.0
 10
13.7988624785
 20
10.8768082527
 30
0.0
 10
13.8053767363
 20
10.8831857925
 30
0.0
 10
13.8118911709
 20
10.8888640326
 30
0.0
 10
13.8184012536
 20
10.8938381407
 30
0.0
 10
13.8249025763
 20
10.898103597
 30
0.0
 10
13.8313907724
 20
10.9016560737
 30
0.0
 10
13.8378614201
 20
10.9044912316
 30
0.0
 10
13.8443095191
 20
10.9066048962
 30
0.0
 10
13.8507297695
 20
10.9079928847
 30
0.0
 10
13.8571143623
 20
10.9086519677
 30
0.0
 10
13.8613531987
 20
10.9086035639
 30
0.0
 10
13.8634492847
 20
10.908458205
 30
0.0
  0
SPLINE
  5
34B
100
AcDbEntity
  8
0
100
AcDbSpline
 62
7
  6
CONTINUOUS
 70
0
 71
3
 72
53
 73
49
 74
0
 42
0.0000001
 43
0.0000001
 44
0.0000000001
 40
0.0
 40
0.0
 40
0.0
 40
0.0
 40
0.0417740113
 40
0.0840369498
 40
0.1266584959
 40
0.1695064843
 40
0.2124480935
 40
0.2553500426
 40
0.298079237
 40
0.3405032536
 40
0.382490879
 40
0.4239126346
 40
0.4646413116
 40
0.5045525112
 40
0.543525196
 40
0.5814422576
 40
0.6181911067
 40
0.6536642972
 40
0.6877601986
 40
0.720383738
 40
0.7361160079
 40
0.7514479787
 40
0.7663699923
 40
0.7808730391
 40
0.7949486907
 40
0.8085892839
 40
0.8217878242
 40
0.8345382246
 40
0.8468351953
 40
0.858674535
 40
0.8700530305
 40
0.8809687964
 40
0.8914212207
 40
0.9014113515
 40
0.9109419335
 40
0.9200178526
 40
0.9286463131
 40
0.9368373658
 40
0.9446042772
 40
0.9519641672
 40
0.9589385932
 40
0.9655542738
 40
0.9718437889
 40
0.9778461802
 40
0.9836073652
 40
0.9891800467
 40
0.99462308
 40
1.0
 40
1.0
 40
1.0
 40
1.0
 10
13.4796488784
 20
7.0670089439
 30
0.0
 10
13.4796488784
 20
7.0833328273
 30
0.0
 10
13.4799035483
 20
7.1161721635
 30
0.0
 10
13.4810293976
 20
7.16565497
 30
0.0
 10
13.4828980311
 20
7.215535346
 30
0.0
 10
13.485503323
 20
7.265648175
 30
0.0
 10
13.4888366639
 20
7.3158276584
 30
0.0
 10
13.4928870358
 20
7.3659077901
 30
0.0
 10
13.4976410211
 20
7.4157228828
 30
0.0
 10
13.5030828606
 20
7.4651081369
 30
0.0
 10
13.5091944991
 20
7.5139001829
 30
0.0
 10
13.5159556471
 20
7.5619376283
 30
0.0
 10
13.523343846
 20
7.6090615961
 30
0.0
 10
13.531334541
 20
7.6551162575
 30
0.0
 10
13.539901161
 20
7.6999493524
 30
0.0
 10
13.5490152035
 20
7.7434127129
 30
0.0
 10
13.5586463315
 20
7.7853627345
 30
0.0
 10
13.5687624575
 20
7.8256609826
 30
0.0
 10
13.5793299018
 20
7.8641742732
 30
0.0
 10
13.5885912493
 20
7.8950377429
 30
0.0
 10
13.596214683
 20
7.9187291115
 30
0.0
 10
13.6019537537
 20
7.9357585538
 30
0.0
 10
13.6077787732
 20
7.9522502431
 30
0.0
 10
13.6136849014
 20
7.9681905898
 30
0.0
 10
13.619667295
 20
7.9835664302
 30
0.0
 10
13.6257209265
 20
7.998365103
 30
0.0
 10
13.6318408656
 20
8.0125744019
 30
0.0
 10
13.6380219561
 20
8.0261826561
 30
0.0
 10
13.6442591896
 20
8.0391786581
 30
0.0
 10
13.6505473137
 20
8.0515517751
 30
0.0
 10
13.6568812617
 20
8.0632918421
 30
0.0
 10
13.663255725
 20
8.0743893072
 30
0.0
 10
13.6696656068
 20
8.0848350904
 30
0.0
 10
13.6761055964
 20
8.0946207577
 30
0.0
 10
13.682570611
 20
8.1037383496
 30
0.0
 10
13.6890554145
 20
8.1121805703
 30
0.0
 10
13.6955550093
 20
8.1199405956
 30
0.0
 10
13.7020643402
 20
8.1270122458
 30
0.0
 10
13.708578598
 20
8.1333897855
 30
0.0
 10
13.7150930326
 20
8.1390680256
 30
0.0
 10
13.7216031153
 20
8.1440421337
 30
0.0
 10
13.728104438
 20
8.14830759
 30
0.0
 10
13.7345926341
 20
8.1518600667
 30
0.0
 10
13.7410632817
 20
8.1546952246
 30
0.0
 10
13.7475113808
 20
8.1568088893
 30
0.0
 10
13.7539316312
 20
8.1581968777
 30
0.0
 10
13.760316224
 20
8.1588559607
 30
0.0
 10
13.7645550604
 20
8.1588075569
 30
0.0
 10
13.7666511464
 20
8.158662198
 30
0.0
  0
SPLINE
  5
34C
100
AcDbEntity
  8
0
100
AcDbSpline
 62
7
  6
CONTINUOUS
 70
0
 71
3
 72
53
 73
49
 74
0
 42
0.0000001
 43
0.0000001
 44
0.0000000001
 40
0.0
 40
0.0
 40
0.0
 40
0.0
 40
0.0417740113
 40
0.0840369498
 40
0.1266584959
 40
0.1695064843
 40
0.2124480935
 40
0.2553500426
 40
0.298079237
 40
0.3405032536
 40
0.382490879
 40
0.4239126346
 40
0.4646413116
 40
0.5045525112
 40
0.543525196
 40
0.5814422576
 40
0.6181911067
 40
0.6536642972
 40
0.6877601986
 40
0.720383738
 40
0.7361160079
 40
0.7514479787
 40
0.7663699923
 40
0.7808730391
 40
0.7949486907
 40
0.8085892839
 40
0.8217878242
 40
0.8345382246
 40
0.8468351953
 40
0.858674535
 40
0.8700530305
 40
0.8809687964
 40
0.8914212207
 40
0.9014113515
 40
0.9109419335
 40
0.9200178526
 40
0.9286463131
 40
0.9368373658
 40
0.9446042772
 40
0.9519641672
 40
0.9589385932
 40
0.9655542738
 40
0.9718437889
 40
0.9778461802
 40
0.9836073652
 40
0.9891800467
 40
0.99462308
 40
1.0
 40
1.0
 40
1.0
 40
1.0
 10
12.7999905839
 20
6.4105094053
 30
0.0
 10
12.7999905839
 20
6.4268332887
 30
0.0
 10
12.8002452539
 20
6.4596726249
 30
0.0
 10
12.8013711032
 20
6.5091554314
 30
0.0
 10
12.8032397366
 20
6.5590358074
 30
0.0
 10
12.8058450285
 20
6.6091486364
 30
0.0
 10
12.8091783694
 20
6.6593281198
 30
0.0
 10
12.8132287413
 20
6.7094082515
 30
0.0
 10
12.8179827267
 20
6.7592233442
 30
0.0
 10
12.8234245661
 20
6.8086085983
 30
0.0
 10
12.8295362046
 20
6.8574006443
 30
0.0
 10
12.8362973526
 20
6.9054380897
 30
0.0
 10
12.8436855516
 20
6.9525620575
 30
0.0
 10
12.8516762465
 20
6.9986167189
 30
0.0
 10
12.8602428665
 20
7.0434498138
 30
0.0
 10
12.869356909
 20
7.0869131743
 30
0.0
 10
12.8789880371
 20
7.1288631959
 30
0.0
 10
12.8891041631
 20
7.169161444
 30
0.0
 10
12.8996716073
 20
7.2076747346
 30
0.0
 10
12.9089329548
 20
7.2385382043
 30
0.0
 10
12.9165563885
 20
7.2622295729
 30
0.0
 10
12.9222954592
 20
7.2792590152
 30
0.0
 10
12.9281204788
 20
7.2957507045
 30
0.0
 10
12.9340266069
 20
7.3116910512
 30
0.0
 10
12.9400090005
 20
7.3270668916
 30
0.0
 10
12.946062632
 20
7.3418655644
 30
0.0
 10
12.9521825711
 20
7.3560748633
 30
0.0
 10
12.9583636616
 20
7.3696831175
 30
0.0
 10
12.9646008951
 20
7.3826791196
 30
0.0
 10
12.9708890192
 20
7.3950522365
 30
0.0
 10
12.9772229672
 20
7.4067923035
 30
0.0
 10
12.9835974305
 20
7.4178897686
 30
0.0
 10
12.9900073123
 20
7.4283355518
 30
0.0
 10
12.9964473019
 20
7.4381212191
 30
0.0
 10
13.0029123165
 20
7.447238811
 30
0.0
 10
13.00939712
 20
7.4556810317
 30
0.0
 10
13.0158967148
 20
7.463441057
 30
0.0
 10
13.0224060457
 20
7.4705127072
 30
0.0
 10
13.0289203035
 20
7.4768902469
 30
0.0
 10
13.0354347381
 20
7.4825684871
 30
0.0
 10
13.0419448208
 20
7.4875425951
 30
0.0
 10
13.0484461435
 20
7.4918080514
 30
0.0
 10
13.0549343396
 20
7.4953605281
 30
0.0
 10
13.0614049873
 20
7.498195686
 30
0.0
 10
13.0678530863
 20
7.5003093507
 30
0.0
 10
13.0742733367
 20
7.5016973391
 30
0.0
 10
13.0806579295
 20
7.5023564221
 30
0.0
 10
13.0848967659
 20
7.5023080183
 30
0.0
 10
13.0869928519
 20
7.5021626594
 30
0.0
  0
SPLINE
  5
34D
100
AcDbEntity
  8
0
100
AcDbSpline
 62
7
  6
CONTINUOUS
 70
0
 71
3
 72
23
 73
19
 74
0
 42
0.0000001
 43
0.0000001
 44
0.0000000001
 40
0.0
 40
0.0
 40
0.0
 40
0.0
 40
0.0929030882
 40
0.1831527139
 40
0.2701734191
 40
0.3534594018
 40
0.4325850759
 40
0.507215015
 40
0.5771082966
 40
0.6421200577
 40
0.7022009077
 40
0.7573947057
 40
0.8078364221
 40
0.8537517135
 40
0.8954587339
 40
0.9333731015
 40
0.968012748
 40
1.0
 40
1.0
 40
1.0
 40
1.0
 10
9.2754452418
 20
8.5320019705
 30
0.0
 10
9.2723846771
 20
8.5322142214
 30
0.0
 10
9.2663579414
 20
8.5327432583
 30
0.0
 10
9.2575049031
 20
8.5338673033
 30
0.0
 10
9.2490177615
 20
8.5352975588
 30
0.0
 10
9.2409588878
 20
8.5370138812
 30
0.0
 10
9.2333821079
 20
8.5389916112
 30
0.0
 10
9.226332071
 20
8.5412026495
 30
0.0
 10
9.2198437697
 20
8.5436166883
 30
0.0
 10
9.2139426498
 20
8.5462023834
 30
0.0
 10
9.2086451218
 20
8.5489284737
 30
0.0
 10
9.2039594016
 20
8.5517647356
 30
0.0
 10
9.1998866156
 20
8.554682772
 30
0.0
 10
9.1964220417
 20
8.5576566823
 30
0.0
 10
9.1935565295
 20
8.5606632808
 30
0.0
 10
9.1912778742
 20
8.5636829133
 30
0.0
 10
9.1895729326
 20
8.5666969507
 30
0.0
 10
9.188783441
 20
8.5687622798
 30
0.0
 10
9.1884916871
 20
8.5697774963
 30
0.0
  0
SPLINE
  5
34E
100
AcDbEntity
  8
0
100
AcDbSpline
 62
7
  6
CONTINUOUS
 70
0
 71
3
 72
41
 73
37
 74
0
 42
0.0000001
 43
0.0000001
 44
0.0000000001
 40
0.0
 40
0.0
 40
0.0
 40
0.0
 40
0.0762758475
 40
0.1537852938
 40
0.2318222175
 40
0.3096735541
 40
0.348307971
 40
0.386630101
 40
0.4245528033
 40
0.4619901076
 40
0.4988574917
 40
0.5350721441
 40
0.5705532326
 40
0.6052221811
 40
0.6390029584
 40
0.6718223971
 40
0.7036105173
 40
0.7343008607
 40
0.7638308689
 40
0.7921423112
 40
0.8191817882
 40
0.8449013404
 40
0.869259143
 40
0.8922203945
 40
0.9031691512
 40
0.9137595756
 40
0.9239898232
 40
0.9338589025
 40
0.9433664967
 40
0.9525132983
 40
0.9613009718
 40
0.9697322899
 40
0.9778114232
 40
0.9855438898
 40
0.992937018
 40
1.0
 40
1.0
 40
1.0
 40
1.0
 10
12.9374976797
 20
9.2156272487
 30
0.0
 10
12.9374976797
 20
9.2368508876
 30
0.0
 10
12.9380686556
 20
9.2796432508
 30
0.0
 10
12.9405597035
 20
9.3441056803
 30
0.0
 10
12.9446711168
 20
9.4089244624
 30
0.0
 10
12.94942604
 20
9.4628469062
 30
0.0
 10
12.9540153338
 20
9.5056777441
 30
0.0
 10
12.9578240908
 20
9.537415913
 30
0.0
 10
12.9619987758
 20
9.5687720018
 30
0.0
 10
12.9665292382
 20
9.5996696617
 30
0.0
 10
12.9714043846
 20
9.6300336001
 30
0.0
 10
12.9766122936
 20
9.6597898547
 30
0.0
 10
12.9821402239
 20
9.6888659476
 30
0.0
 10
12.9879746493
 20
9.7171910686
 30
0.0
 10
12.9941012928
 20
9.7446962519
 30
0.0
 10
13.0005051502
 20
9.771314555
 30
0.0
 10
13.0071705288
 20
9.7969812291
 30
0.0
 10
13.0140810948
 20
9.821633878
 30
0.0
 10
13.0212199101
 20
9.8452126125
 30
0.0
 10
13.0285694781
 20
9.8676602205
 30
0.0
 10
13.0361117915
 20
9.8889222913
 30
0.0
 10
13.0438283732
 20
9.9089475157
 30
0.0
 10
13.0517003437
 20
9.927687366
 30
0.0
 10
13.0584769853
 20
9.9424203518
 30
0.0
 10
13.0639738115
 20
9.9535163307
 30
0.0
 10
13.0680578153
 20
9.9613569045
 30
0.0
 10
13.0721662859
 20
9.9688437983
 30
0.0
 10
13.0762966857
 20
9.9759725379
 30
0.0
 10
13.0804465962
 20
9.9827387946
 30
0.0
 10
13.084613477
 20
9.9891385226
 30
0.0
 10
13.0887948307
 20
9.9951678908
 30
0.0
 10
13.0929882366
 20
10.000823261
 30
0.0
 10
13.0971911179
 20
10.0061013053
 30
0.0
 10
13.1014011749
 20
10.0109988553
 30
0.0
 10
13.1056157626
 20
10.0155128985
 30
0.0
 10
13.1084914524
 20
10.0183279269
 30
0.0
 10
13.1099300568
 20
10.0196668368
 30
0.0
  0
SPLINE
  5
34F
100
AcDbEntity
  8
0
100
AcDbSpline
 62
7
  6
CONTINUOUS
 70
0
 71
3
 72
32
 73
28
 74
0
 42
0.0000001
 43
0.0000001
 44
0.0000000001
 40
0.0
 40
0.0
 40
0.0
 40
0.0
 40
0.0851786848
 40
0.1685803226
 40
0.2498827917
 40
0.3287735031
 40
0.4049538093
 40
0.4781399203
 40
0.5480655658
 40
0.5817287479
 40
0.6144861685
 40
0.6463107472
 40
0.67717687
 40
0.7070608521
 40
0.7359408389
 40
0.7637971302
 40
0.7906123426
 40
0.8163715726
 40
0.8410628756
 40
0.8646773075
 40
0.8872097451
 40
0.908658924
 40
0.9290286029
 40
0.948327806
 40
0.9665723337
 40
0.9837854943
 40
1.0
 40
1.0
 40
1.0
 40
1.0
 10
12.9374976797
 20
9.2156272487
 30
0.0
 10
12.9374976797
 20
9.2019523483
 30
0.0
 10
12.9377307005
 20
9.1748871814
 30
0.0
 10
12.9387994669
 20
9.1347821425
 30
0.0
 10
12.940579505
 20
9.0957125809
 30
0.0
 10
12.9430631228
 20
9.0578430016
 30
0.0
 10
12.9462395276
 20
9.0213326595
 30
0.0
 10
12.9500950726
 20
8.9863352273
 30
0.0
 10
12.9539065995
 20
8.9582085757
 30
0.0
 10
12.957299184
 20
8.9365828951
 30
0.0
 10
12.9599703267
 20
8.9210374658
 30
0.0
 10
12.9627974417
 20
8.9059762758
 30
0.0
 10
12.9657776339
 20
8.891415137
 30
0.0
 10
12.9689076834
 20
8.8773693527
 30
0.0
 10
12.9721843071
 20
8.8638536675
 30
0.0
 10
12.9756040245
 20
8.850882256
 30
0.0
 10
12.9791632035
 20
8.8384687029
 30
0.0
 10
12.9828581237
 20
8.8266259933
 30
0.0
 10
12.9866848271
 20
8.8153664759
 30
0.0
 10
12.9906393823
 20
8.8047018827
 30
0.0
 10
12.9947175503
 20
8.7946432512
 30
0.0
 10
12.9989152231
 20
8.7852009999
 30
0.0
 10
13.003227969
 20
8.7763847792
 30
0.0
 10
13.0076515398
 20
8.7682036643
 30
0.0
 10
13.0121815269
 20
8.7606657846
 30
0.0
 10
13.0168133993
 20
8.7537791805
 30
0.0
 10
13.0200612446
 20
8.7495019236
 30
0.0
 10
13.0217037343
 20
8.7474823822
 30
0.0
  0
SPLINE
  5
350
100
AcDbEntity
  8
0
100
AcDbSpline
 62
7
  6
CONTINUOUS
 70
0
 71
3
 72
41
 73
37
 74
0
 42
0.0000001
 43
0.0000001
 44
0.0000000001
 40
0.0
 40
0.0
 40
0.0
 40
0.0
 40
0.0762758475
 40
0.1537852938
 40
0.2318222175
 40
0.3096735541
 40
0.348307971
 40
0.386630101
 40
0.4245528033
 40
0.4619901076
 40
0.4988574917
 40
0.5350721441
 40
0.5705532326
 40
0.6052221811
 40
0.6390029584
 40
0.6718223971
 40
0.7036105173
 40
0.7343008607
 40
0.7638308689
 40
0.7921423112
 40
0.8191817882
 40
0.8449013404
 40
0.869259143
 40
0.8922203945
 40
0.9031691512
 40
0.9137595756
 40
0.9239898232
 40
0.9338589025
 40
0.9433664967
 40
0.9525132983
 40
0.9613009718
 40
0.9697322899
 40
0.9778114232
 40
0.9855438898
 40
0.992937018
 40
1.0
 40
1.0
 40
1.0
 40
1.0
 10
13.6166382507
 20
9.8716267047
 30
0.0
 10
13.6166382507
 20
9.8928503436
 30
0.0
 10
13.6172092265
 20
9.9356427068
 30
0.0
 10
13.6197002744
 20
10.0001051363
 30
0.0
 10
13.6238116877
 20
10.0649239184
 30
0.0
 10
13.6285666109
 20
10.1188463622
 30
0.0
 10
13.6331559047
 20
10.1616772001
 30
0.0
 10
13.6369646617
 20
10.193415369
 30
0.0
 10
13.6411393467
 20
10.2247714578
 30
0.0
 10
13.6456698091
 20
10.2556691177
 30
0.0
 10
13.6505449555
 20
10.2860330561
 30
0.0
 10
13.6557528645
 20
10.3157893107
 30
0.0
 10
13.6612807949
 20
10.3448654036
 30
0.0
 10
13.6671152203
 20
10.3731905246
 30
0.0
 10
13.6732418637
 20
10.4006957079
 30
0.0
 10
13.6796457211
 20
10.427314011
 30
0.0
 10
13.6863110997
 20
10.4529806851
 30
0.0
 10
13.6932216657
 20
10.477633334
 30
0.0
 10
13.700360481
 20
10.5012120685
 30
0.0
 10
13.707710049
 20
10.5236596765
 30
0.0
 10
13.7152523624
 20
10.5449217473
 30
0.0
 10
13.7229689441
 20
10.5649469717
 30
0.0
 10
13.7308409146
 20
10.583686822
 30
0.0
 10
13.7376175562
 20
10.5984198078
 30
0.0
 10
13.7431143824
 20
10.6095157867
 30
0.0
 10
13.7471983863
 20
10.6173563605
 30
0.0
 10
13.7513068568
 20
10.6248432543
 30
0.0
 10
13.7554372566
 20
10.6319719939
 30
0.0
 10
13.7595871671
 20
10.6387382506
 30
0.0
 10
13.7637540479
 20
10.6451379786
 30
0.0
 10
13.7679354016
 20
10.6511673468
 30
0.0
 10
13.7721288075
 20
10.656822717
 30
0.0
 10
13.7763316888
 20
10.6621007613
 30
0.0
 10
13.7805417459
 20
10.6669983113
 30
0.0
 10
13.7847563335
 20
10.6715123545
 30
0.0
 10
13.7876320233
 20
10.6743273829
 30
0.0
 10
13.7890706278
 20
10.6756662928
 30
0.0
  0
SPLINE
  5
351
100
AcDbEntity
  8
0
100
AcDbSpline
 62
7
  6
CONTINUOUS
 70
0
 71
3
 72
32
 73
28
 74
0
 42
0.0000001
 43
0.0000001
 44
0.0000000001
 40
0.0
 40
0.0
 40
0.0
 40
0.0
 40
0.0851786848
 40
0.1685803226
 40
0.2498827917
 40
0.3287735031
 40
0.4049538093
 40
0.4781399203
 40
0.5480655658
 40
0.5817287479
 40
0.6144861685
 40
0.6463107472
 40
0.67717687
 40
0.7070608521
 40
0.7359408389
 40
0.7637971302
 40
0.7906123426
 40
0.8163715726
 40
0.8410628756
 40
0.8646773075
 40
0.8872097451
 40
0.908658924
 40
0.9290286029
 40
0.948327806
 40
0.9665723337
 40
0.9837854943
 40
1.0
 40
1.0
 40
1.0
 40
1.0
 10
13.6166382507
 20
9.8716267047
 30
0.0
 10
13.6166382507
 20
9.8579518043
 30
0.0
 10
13.6168712714
 20
9.8308866374
 30
0.0
 10
13.6179400378
 20
9.7907815985
 30
0.0
 10
13.6197200759
 20
9.7517120369
 30
0.0
 10
13.6222036937
 20
9.7138424576
 30
0.0
 10
13.6253800985
 20
9.6773321155
 30
0.0
 10
13.6292356435
 20
9.6423346833
 30
0.0
 10
13.6330471704
 20
9.6142080317
 30
0.0
 10
13.6364397549
 20
9.5925823511
 30
0.0
 10
13.6391108976
 20
9.5770369218
 30
0.0
 10
13.6419380127
 20
9.5619757318
 30
0.0
 10
13.6449182048
 20
9.547414593
 30
0.0
 10
13.6480482543
 20
9.5333688087
 30
0.0
 10
13.651324878
 20
9.5198531235
 30
0.0
 10
13.6547445954
 20
9.506881712
 30
0.0
 10
13.6583037745
 20
9.4944681589
 30
0.0
 10
13.6619986946
 20
9.4826254493
 30
0.0
 10
13.665825398
 20
9.4713659319
 30
0.0
 10
13.6697799532
 20
9.4607013387
 30
0.0
 10
13.6738581212
 20
9.4506427072
 30
0.0
 10
13.6780557941
 20
9.4412004559
 30
0.0
 10
13.6823685399
 20
9.4323842352
 30
0.0
 10
13.6867921107
 20
9.4242031203
 30
0.0
 10
13.6913220978
 20
9.4166652406
 30
0.0
 10
13.6959539702
 20
9.4097786365
 30
0.0
 10
13.6992018156
 20
9.4055013796
 30
0.0
 10
13.7008443053
 20
9.4034818382
 30
0.0
  0
SPLINE
  5
352
100
AcDbEntity
  8
0
100
AcDbSpline
 62
7
  6
CONTINUOUS
 70
0
 71
3
 72
41
 73
37
 74
0
 42
0.0000001
 43
0.0000001
 44
0.0000000001
 40
0.0
 40
0.0
 40
0.0
 40
0.0
 40
0.0762758475
 40
0.1537852938
 40
0.2318222175
 40
0.3096735541
 40
0.348307971
 40
0.386630101
 40
0.4245528033
 40
0.4619901076
 40
0.4988574917
 40
0.5350721441
 40
0.5705532326
 40
0.6052221811
 40
0.6390029584
 40
0.6718223971
 40
0.7036105173
 40
0.7343008607
 40
0.7638308689
 40
0.7921423112
 40
0.8191817882
 40
0.8449013404
 40
0.869259143
 40
0.8922203945
 40
0.9031691512
 40
0.9137595756
 40
0.9239898232
 40
0.9338589025
 40
0.9433664967
 40
0.9525132983
 40
0.9613009718
 40
0.9697322899
 40
0.9778114232
 40
0.9855438898
 40
0.992937018
 40
1.0
 40
1.0
 40
1.0
 40
1.0
 10
13.5198401123
 20
7.1218306978
 30
0.0
 10
13.5198401123
 20
7.1430543366
 30
0.0
 10
13.5204110882
 20
7.1858466998
 30
0.0
 10
13.5229021361
 20
7.2503091293
 30
0.0
 10
13.5270135494
 20
7.3151279114
 30
0.0
 10
13.5317684726
 20
7.3690503552
 30
0.0
 10
13.5363577663
 20
7.4118811931
 30
0.0
 10
13.5401665234
 20
7.443619362
 30
0.0
 10
13.5443412084
 20
7.4749754508
 30
0.0
 10
13.5488716708
 20
7.5058731107
 30
0.0
 10
13.5537468172
 20
7.5362370492
 30
0.0
 10
13.5589547262
 20
7.5659933037
 30
0.0
 10
13.5644826565
 20
7.5950693966
 30
0.0
 10
13.5703170819
 20
7.6233945177
 30
0.0
 10
13.5764437254
 20
7.6508997009
 30
0.0
 10
13.5828475828
 20
7.6775180041
 30
0.0
 10
13.5895129614
 20
7.7031846781
 30
0.0
 10
13.5964235274
 20
7.727837327
 30
0.0
 10
13.6035623427
 20
7.7514160616
 30
0.0
 10
13.6109119107
 20
7.7738636695
 30
0.0
 10
13.6184542241
 20
7.7951257404
 30
0.0
 10
13.6261708058
 20
7.8151509647
 30
0.0
 10
13.6340427763
 20
7.833890815
 30
0.0
 10
13.6408194179
 20
7.8486238008
 30
0.0
 10
13.6463162441
 20
7.8597197797
 30
0.0
 10
13.6504002479
 20
7.8675603535
 30
0.0
 10
13.6545087185
 20
7.8750472473
 30
0.0
 10
13.6586391183
 20
7.8821759869
 30
0.0
 10
13.6627890288
 20
7.8889422436
 30
0.0
 10
13.6669559096
 20
7.8953419717
 30
0.0
 10
13.6711372633
 20
7.9013713398
 30
0.0
 10
13.6753306692
 20
7.90702671
 30
0.0
 10
13.6795335505
 20
7.9123047543
 30
0.0
 10
13.6837436075
 20
7.9172023044
 30
0.0
 10
13.6879581952
 20
7.9217163475
 30
0.0
 10
13.690833885
 20
7.9245313759
 30
0.0
 10
13.6922724894
 20
7.9258702859
 30
0.0
  0
SPLINE
  5
353
100
AcDbEntity
  8
0
100
AcDbSpline
 62
7
  6
CONTINUOUS
 70
0
 71
3
 72
32
 73
28
 74
0
 42
0.0000001
 43
0.0000001
 44
0.0000000001
 40
0.0
 40
0.0
 40
0.0
 40
0.0
 40
0.0851786848
 40
0.1685803226
 40
0.2498827917
 40
0.3287735031
 40
0.4049538093
 40
0.4781399203
 40
0.5480655658
 40
0.5817287479
 40
0.6144861685
 40
0.6463107472
 40
0.67717687
 40
0.7070608521
 40
0.7359408389
 40
0.7637971302
 40
0.7906123426
 40
0.8163715726
 40
0.8410628756
 40
0.8646773075
 40
0.8872097451
 40
0.908658924
 40
0.9290286029
 40
0.948327806
 40
0.9665723337
 40
0.9837854943
 40
1.0
 40
1.0
 40
1.0
 40
1.0
 10
13.5198401123
 20
7.1218306978
 30
0.0
 10
13.5198401123
 20
7.1081557973
 30
0.0
 10
13.5200731331
 20
7.0810906304
 30
0.0
 10
13.5211418994
 20
7.0409855915
 30
0.0
 10
13.5229219376
 20
7.0019160299
 30
0.0
 10
13.5254055554
 20
6.9640464507
 30
0.0
 10
13.5285819601
 20
6.9275361085
 30
0.0
 10
13.5324375052
 20
6.8925386763
 30
0.0
 10
13.5362490321
 20
6.8644120247
 30
0.0
 10
13.5396416166
 20
6.8427863441
 30
0.0
 10
13.5423127593
 20
6.8272409148
 30
0.0
 10
13.5451398743
 20
6.8121797249
 30
0.0
 10
13.5481200665
 20
6.797618586
 30
0.0
 10
13.551250116
 20
6.7835728017
 30
0.0
 10
13.5545267397
 20
6.7700571165
 30
0.0
 10
13.5579464571
 20
6.757085705
 30
0.0
 10
13.5615056361
 20
6.7446721519
 30
0.0
 10
13.5652005563
 20
6.7328294423
 30
0.0
 10
13.5690272597
 20
6.7215699249
 30
0.0
 10
13.5729818149
 20
6.7109053318
 30
0.0
 10
13.5770599829
 20
6.7008467002
 30
0.0
 10
13.5812576557
 20
6.691404449
 30
0.0
 10
13.5855704015
 20
6.6825882283
 30
0.0
 10
13.5899939724
 20
6.6744071133
 30
0.0
 10
13.5945239595
 20
6.6668692336
 30
0.0
 10
13.5991558319
 20
6.6599826295
 30
0.0
 10
13.6024036772
 20
6.6557053726
 30
0.0
 10
13.6040461669
 20
6.6536858312
 30
0.0
  0
SPLINE
  5
354
100
AcDbEntity
  8
0
100
AcDbSpline
 62
7
  6
CONTINUOUS
 70
0
 71
3
 72
41
 73
37
 74
0
 42
0.0000001
 43
0.0000001
 44
0.0000000001
 40
0.0
 40
0.0
 40
0.0
 40
0.0
 40
0.0762758475
 40
0.1537852938
 40
0.2318222175
 40
0.3096735541
 40
0.348307971
 40
0.386630101
 40
0.4245528033
 40
0.4619901076
 40
0.4988574917
 40
0.5350721441
 40
0.5705532326
 40
0.6052221811
 40
0.6390029584
 40
0.6718223971
 40
0.7036105173
 40
0.7343008607
 40
0.7638308689
 40
0.7921423112
 40
0.8191817882
 40
0.8449013404
 40
0.869259143
 40
0.8922203945
 40
0.9031691512
 40
0.9137595756
 40
0.9239898232
 40
0.9338589025
 40
0.9433664967
 40
0.9525132983
 40
0.9613009718
 40
0.9697322899
 40
0.9778114232
 40
0.9855438898
 40
0.992937018
 40
1.0
 40
1.0
 40
1.0
 40
1.0
 10
12.8401818178
 20
6.4653311592
 30
0.0
 10
12.8401818178
 20
6.4865547981
 30
0.0
 10
12.8407527937
 20
6.5293471612
 30
0.0
 10
12.8432438416
 20
6.5938095907
 30
0.0
 10
12.8473552549
 20
6.6586283728
 30
0.0
 10
12.8521101781
 20
6.7125508166
 30
0.0
 10
12.8566994719
 20
6.7553816545
 30
0.0
 10
12.8605082289
 20
6.7871198235
 30
0.0
 10
12.8646829139
 20
6.8184759123
 30
0.0
 10
12.8692133763
 20
6.8493735721
 30
0.0
 10
12.8740885227
 20
6.8797375106
 30
0.0
 10
12.8792964317
 20
6.9094937651
 30
0.0
 10
12.8848243621
 20
6.938569858
 30
0.0
 10
12.8906587874
 20
6.9668949791
 30
0.0
 10
12.8967854309
 20
6.9944001623
 30
0.0
 10
12.9031892883
 20
7.0210184655
 30
0.0
 10
12.9098546669
 20
7.0466851395
 30
0.0
 10
12.9167652329
 20
7.0713377884
 30
0.0
 10
12.9239040482
 20
7.094916523
 30
0.0
 10
12.9312536162
 20
7.1173641309
 30
0.0
 10
12.9387959296
 20
7.1386262018
 30
0.0
 10
12.9465125113
 20
7.1586514261
 30
0.0
 10
12.9543844818
 20
7.1773912764
 30
0.0
 10
12.9611611234
 20
7.1921242622
 30
0.0
 10
12.9666579496
 20
7.2032202411
 30
0.0
 10
12.9707419535
 20
7.2110608149
 30
0.0
 10
12.974850424
 20
7.2185477087
 30
0.0
 10
12.9789808238
 20
7.2256764483
 30
0.0
 10
12.9831307343
 20
7.232442705
 30
0.0
 10
12.9872976151
 20
7.2388424331
 30
0.0
 10
12.9914789688
 20
7.2448718012
 30
0.0
 10
12.9956723747
 20
7.2505271714
 30
0.0
 10
12.999875256
 20
7.2558052157
 30
0.0
 10
13.004085313
 20
7.2607027658
 30
0.0
 10
13.0082999007
 20
7.2652168089
 30
0.0
 10
13.0111755905
 20
7.2680318373
 30
0.0
 10
13.012614195
 20
7.2693707473
 30
0.0
  0
SPLINE
  5
355
100
AcDbEntity
  8
0
100
AcDbSpline
 62
7
  6
CONTINUOUS
 70
0
 71
3
 72
32
 73
28
 74
0
 42
0.0000001
 43
0.0000001
 44
0.0000000001
 40
0.0
 40
0.0
 40
0.0
 40
0.0
 40
0.0851786848
 40
0.1685803226
 40
0.2498827917
 40
0.3287735031
 40
0.4049538093
 40
0.4781399203
 40
0.5480655658
 40
0.5817287479
 40
0.6144861685
 40
0.6463107472
 40
0.67717687
 40
0.7070608521
 40
0.7359408389
 40
0.7637971302
 40
0.7906123426
 40
0.8163715726
 40
0.8410628756
 40
0.8646773075
 40
0.8872097451
 40
0.908658924
 40
0.9290286029
 40
0.948327806
 40
0.9665723337
 40
0.9837854943
 40
1.0
 40
1.0
 40
1.0
 40
1.0
 10
12.8401818178
 20
6.4653311592
 30
0.0
 10
12.8401818178
 20
6.4516562587
 30
0.0
 10
12.8404148386
 20
6.4245910918
 30
0.0
 10
12.841483605
 20
6.384486053
 30
0.0
 10
12.8432636431
 20
6.3454164913
 30
0.0
 10
12.8457472609
 20
6.3075469121
 30
0.0
 10
12.8489236657
 20
6.2710365699
 30
0.0
 10
12.8527792107
 20
6.2360391377
 30
0.0
 10
12.8565907376
 20
6.2079124861
 30
0.0
 10
12.8599833221
 20
6.1862868055
 30
0.0
 10
12.8626544648
 20
6.1707413763
 30
0.0
 10
12.8654815798
 20
6.1556801863
 30
0.0
 10
12.868461772
 20
6.1411190475
 30
0.0
 10
12.8715918215
 20
6.1270732632
 30
0.0
 10
12.8748684452
 20
6.1135575779
 30
0.0
 10
12.8782881626
 20
6.1005861664
 30
0.0
 10
12.8818473417
 20
6.0881726134
 30
0.0
 10
12.8855422618
 20
6.0763299038
 30
0.0
 10
12.8893689652
 20
6.0650703863
 30
0.0
 10
12.8933235204
 20
6.0544057932
 30
0.0
 10
12.8974016884
 20
6.0443471616
 30
0.0
 10
12.9015993613
 20
6.0349049104
 30
0.0
 10
12.9059121071
 20
6.0260886897
 30
0.0
 10
12.9103356779
 20
6.0179075747
 30
0.0
 10
12.914865665
 20
6.010369695
 30
0.0
 10
12.9194975374
 20
6.0034830909
 30
0.0
 10
12.9227453827
 20
5.9992058341
 30
0.0
 10
12.9243878724
 20
5.9971862926
 30
0.0
  0
SPLINE
  5
356
100
AcDbEntity
  8
0
100
AcDbSpline
 62
7
  6
CONTINUOUS
 70
0
 71
3
 72
47
 73
43
 74
0
 42
0.0000001
 43
0.0000001
 44
0.0000000001
 40
0.0
 40
0.0
 40
0.0
 40
0.0
 40
0.0149719699
 40
0.0299469986
 40
0.0449281275
 40
0.0599183593
 40
0.0749206409
 40
0.0899378479
 40
0.1049727642
 40
0.1200280654
 40
0.1351063071
 40
0.1502099062
 40
0.1653411266
 40
0.1805020712
 40
0.195694667
 40
0.2109206532
 40
0.226181577
 40
0.2414787841
 40
0.2721808909
 40
0.30303905
 40
0.3340562704
 40
0.3652320501
 40
0.3965624391
 40
0.4280401707
 40
0.4596548674
 40
0.4913932962
 40
0.5232396724
 40
0.5551760134
 40
0.5871825188
 40
0.61923798
 40
0.6513202127
 40
0.6834065006
 40
0.7154740464
 40
0.7475004247
 40
0.7794640313
 40
0.8113445177
 40
0.8431232087
 40
0.8747834982
 40
0.9063112124
 40
0.9376949433
 40
0.9689261019
 40
1.0
 40
1.0
 40
1.0
 40
1.0
 10
8.5127982855
 20
9.7672328467
 30
0.0
 10
8.5200569575
 20
9.7742441748
 30
0.0
 10
8.5348562764
 20
9.7879811866
 30
0.0
 10
8.557858942
 20
9.8076905383
 30
0.0
 10
8.5816361259
 20
9.8264788878
 30
0.0
 10
8.6061546883
 20
9.8443198924
 30
0.0
 10
8.6313809443
 20
9.8611892038
 30
0.0
 10
8.6572801559
 20
9.8770635721
 30
0.0
 10
8.6838167269
 20
9.8919210985
 30
0.0
 10
8.7109540814
 20
9.9057414354
 30
0.0
 10
8.7386548808
 20
9.9185055752
 30
0.0
 10
8.7668810375
 20
9.9301958881
 30
0.0
 10
8.7955936717
 20
9.9407963963
 30
0.0
 10
8.8247532668
 20
9.9502925365
 30
0.0
 10
8.8543197669
 20
9.9586711764
 30
0.0
 10
8.8842523133
 20
9.9659208902
 30
0.0
 10
8.9145102917
 20
9.9720317695
 30
0.0
 10
8.9552763873
 20
9.9786572681
 30
0.0
 10
9.0068559155
 20
9.9840448217
 30
0.0
 10
9.0692890161
 20
9.9858463973
 30
0.0
 10
9.1320031303
 20
9.9829853669
 30
0.0
 10
9.1946511595
 20
9.9754777277
 30
0.0
 10
9.2568895155
 20
9.9633655371
 30
0.0
 10
9.3183762225
 20
9.9467160924
 30
0.0
 10
9.3787737324
 20
9.925621392
 30
0.0
 10
9.4377504966
 20
9.9001977692
 30
0.0
 10
9.4949829077
 20
9.8705853557
 30
0.0
 10
9.5501568901
 20
9.8369470044
 30
0.0
 10
9.6029697045
 20
9.7994676411
 30
0.0
 10
9.6531316334
 20
9.7583532593
 30
0.0
 10
9.7003673685
 20
9.7138295702
 30
0.0
 10
9.7444176847
 20
9.666141019
 30
0.0
 10
9.7850408362
 20
9.6155493909
 30
0.0
 10
9.8220136745
 20
9.5623322425
 30
0.0
 10
9.8551331196
 20
9.5067816135
 30
0.0
 10
9.8842171731
 20
9.4492023254
 30
0.0
 10
9.9091057367
 20
9.3899103022
 30
0.0
 10
9.9296618046
 20
9.3292308701
 30
0.0
 10
9.9457720465
 20
9.2674974113
 30
0.0
 10
9.9573472236
 20
9.2050476987
 30
0.0
 10
9.9643233518
 20
9.1422291307
 30
0.0
 10
9.9658858576
 20
9.1002159861
 30
0.0
 10
9.9658858576
 20
9.0792704732
 30
0.0
  0
SPLINE
  5
357
100
AcDbEntity
  8
0
100
AcDbSpline
 62
7
  6
CONTINUOUS
 70
0
 71
3
 72
39
 73
35
 74
0
 42
0.0000001
 43
0.0000001
 44
0.0000000001
 40
0.0
 40
0.0
 40
0.0
 40
0.0
 40
0.0298270978
 40
0.0596806635
 40
0.0895873215
 40
0.1195716219
 40
0.1496564473
 40
0.1798621803
 40
0.2102062702
 40
0.2407028683
 40
0.2713625442
 40
0.3021921233
 40
0.333194595
 40
0.3643691279
 40
0.3957111612
 40
0.4272125798
 40
0.4588619363
 40
0.4906447545
 40
0.5225438622
 40
0.5545397715
 40
0.5866110868
 40
0.6187349442
 40
0.6508874601
 40
0.6830441985
 40
0.715180642
 40
0.7472726644
 40
0.7792969996
 40
0.8112316958
 40
0.843056563
 40
0.8747535868
 40
0.9063073246
 40
0.937705281
 40
0.9689379387
 40
1.0
 40
1.0
 40
1.0
 40
1.0
 10
8.6128257885
 20
9.7345514697
 30
0.0
 10
8.6257428463
 20
9.7470283901
 30
0.0
 10
8.6525952521
 20
9.7709745778
 30
0.0
 10
8.6956237122
 20
9.8035933862
 30
0.0
 10
8.7411855306
 20
9.8327504698
 30
0.0
 10
8.7890296651
 20
9.8582826667
 30
0.0
 10
8.8388961126
 20
9.8800501977
 30
0.0
 10
8.8905126165
 20
9.8979323594
 30
0.0
 10
8.9435972664
 20
9.9118294798
 30
0.0
 10
8.9978595211
 20
9.9216633775
 30
0.0
 10
9.0530018755
 20
9.9273780196
 30
0.0
 10
9.1087214616
 20
9.9289397439
 30
0.0
 10
9.1647116952
 20
9.9263377073
 30
0.0
 10
9.2206640186
 20
9.9195841745
 30
0.0
 10
9.2762696555
 20
9.908714315
 30
0.0
 10
9.3312213556
 20
9.8937861577
 30
0.0
 10
9.3852152329
 20
9.8748805211
 30
0.0
 10
9.43795247
 20
9.8521003716
 30
0.0
 10
9.4891410179
 20
9.8255702883
 30
0.0
 10
9.5384973856
 20
9.7954359994
 30
0.0
 10
9.5857481999
 20
9.7618633819
 30
0.0
 10
9.630631712
 20
9.7250374975
 30
0.0
 10
9.6728994378
 20
9.6851617413
 30
0.0
 10
9.7123175109
 20
9.6424565781
 30
0.0
 10
9.7486679098
 20
9.5971582187
 30
0.0
 10
9.7817498446
 20
9.549517425
 30
0.0
 10
9.8113808831
 20
9.4997980443
 30
0.0
 10
9.8373978232
 20
9.4482754
 30
0.0
 10
9.8596577382
 20
9.3952348513
 30
0.0
 10
9.8780388431
 20
9.3409700266
 30
0.0
 10
9.8924409725
 20
9.2857815173
 30
0.0
 10
9.9027860942
 20
9.229973556
 30
0.0
 10
9.9090192092
 20
9.1738584828
 30
0.0
 10
9.9104153823
 20
9.1363363326
 30
0.0
 10
9.9104153823
 20
9.1176338077
 30
0.0
  0
SPLINE
  5
358
100
AcDbEntity
  8
0
100
AcDbSpline
 62
7
  6
CONTINUOUS
 70
0
 71
3
 72
23
 73
19
 74
0
 42
0.0000001
 43
0.0000001
 44
0.0000000001
 40
0.0
 40
0.0
 40
0.0
 40
0.0
 40
0.0638960463
 40
0.1275625627
 40
0.1910007796
 40
0.2542170903
 40
0.3172182182
 40
0.3800137024
 40
0.442614847
 40
0.5050349522
 40
0.5672891169
 40
0.6293941178
 40
0.6913682762
 40
0.753231189
 40
0.8150038592
 40
0.8767074816
 40
0.9383658203
 40
1.0
 40
1.0
 40
1.0
 40
1.0
 10
9.9104153823
 20
9.1176338077
 30
0.0
 10
9.9104153823
 20
9.1055967891
 30
0.0
 10
9.9098399186
 20
9.0815619149
 30
0.0
 10
9.9072422539
 20
9.0456607931
 30
0.0
 10
9.9029181763
 20
9.0100544752
 30
0.0
 10
9.8968785542
 20
8.9748259665
 30
0.0
 10
9.88913781
 20
8.9400555927
 30
0.0
 10
9.8797144689
 20
8.905823094
 30
0.0
 10
9.8686307408
 20
8.8722066871
 30
0.0
 10
9.855912626
 20
8.8392831272
 30
0.0
 10
9.841589767
 20
8.8071274801
 30
0.0
 10
9.8256954068
 20
8.7758129655
 30
0.0
 10
9.8082662754
 20
8.7454108382
 30
0.0
 10
9.7893425022
 20
8.7159901428
 30
0.0
 10
9.7689675684
 20
8.6876178852
 30
0.0
 10
9.7471878867
 20
8.6603580507
 30
0.0
 10
9.7240540394
 20
8.6342736862
 30
0.0
 10
9.7077606957
 20
8.6177039588
 30
0.0
 10
9.6994094895
 20
8.6096373127
 30
0.0
  0
SPLINE
  5
359
100
AcDbEntity
  8
0
100
AcDbSpline
 62
7
  6
CONTINUOUS
 70
0
 71
3
 72
36
 73
32
 74
0
 42
0.0000001
 43
0.0000001
 44
0.0000000001
 40
0.0
 40
0.0
 40
0.0
 40
0.0
 40
0.0053488481
 40
0.0106669403
 40
0.0160047175
 40
0.0214108338
 40
0.0325979076
 40
0.0445636532
 40
0.0575671683
 40
0.0718080924
 40
0.0874386633
 40
0.104575349
 40
0.1233091511
 40
0.1437121437
 40
0.1658428656
 40
0.1897485359
 40
0.215467537
 40
0.2430292125
 40
0.2724538568
 40
0.3037525793
 40
0.3369244158
 40
0.3719555674
 40
0.4088174067
 40
0.4474628252
 40
0.4878241712
 40
0.5298110239
 40
0.6181617322
 40
0.7112569499
 40
0.8073784035
 40
0.904412847
 40
1.0
 40
1.0
 40
1.0
 40
1.0
 10
9.4432527329
 20
8.5883907665
 30
0.0
 10
9.4433452822
 20
8.5880690144
 30
0.0
 10
9.4434991845
 20
8.5874180432
 30
0.0
 10
9.4436334781
 20
8.5864237813
 30
0.0
 10
9.4436706945
 20
8.5854174967
 30
0.0
 10
9.4435911484
 20
8.5840453088
 30
0.0
 10
9.4432393334
 20
8.5822825416
 30
0.0
 10
9.4424403308
 20
8.5801564772
 30
0.0
 10
9.4412660925
 20
8.5779938722
 30
0.0
 10
9.4397197423
 20
8.5757945272
 30
0.0
 10
9.4378013566
 20
8.5735585528
 30
0.0
 10
9.4355097254
 20
8.5712872393
 30
0.0
 10
9.4328424069
 20
8.5689832104
 30
0.0
 10
9.429796395
 20
8.5666502181
 30
0.0
 10
9.4263684135
 20
8.564293041
 30
0.0
 10
9.4225549014
 20
8.5619178161
 30
0.0
 10
9.4183526223
 20
8.5595316379
 30
0.0
 10
9.4137586159
 20
8.5571431356
 30
0.0
 10
9.4087707384
 20
8.5547622464
 30
0.0
 10
9.4033880262
 20
8.5524004155
 30
0.0
 10
9.3976110798
 20
8.55007083
 30
0.0
 10
9.3914426845
 20
8.5477882981
 30
0.0
 10
9.3848883264
 20
8.5455693844
 30
0.0
 10
9.3779568592
 20
8.54343244
 30
0.0
 10
9.370661114
 20
8.5413973694
 30
0.0
 10
9.3602949404
 20
8.5388043787
 30
0.0
 10
9.3465924653
 20
8.535968842
 30
0.0
 10
9.3294027685
 20
8.5333870549
 30
0.0
 10
9.3115502746
 20
8.5317449454
 30
0.0
 10
9.2934747866
 20
8.5311824039
 30
0.0
 10
9.2814139524
 20
8.531588039
 30
0.0
 10
9.2754452418
 20
8.5320019705
 30
0.0
  0
LINE
  5
35A
100
AcDbEntity
  8
0
100
AcDbLine
 62
7
  6
CONTINUOUS
 10
10.350504083
 20
7.0024465815
 11
10.350624241
 21
7.0025423439
  0
SPLINE
  5
35B
100
AcDbEntity
  8
0
100
AcDbSpline
 62
7
  6
CONTINUOUS
 70
0
 71
3
 72
39
 73
35
 74
0
 42
0.0000001
 43
0.0000001
 44
0.0000000001
 40
0.0
 40
0.0
 40
0.0
 40
0.0
 40
0.0299251419
 40
0.0599001692
 40
0.0899458054
 40
0.1200811977
 40
0.1503235057
 40
0.1806875429
 40
0.2111854837
 40
0.2418266376
 40
0.272617291
 40
0.3035606166
 40
0.3346566566
 40
0.3659023681
 40
0.3972917272
 40
0.4288158859
 40
0.4604633828
 40
0.4922203943
 40
0.5240710211
 40
0.5559976041
 40
0.5879810696
 40
0.6200012903
 40
0.6520374608
 40
0.684068482
 40
0.7160733499
 40
0.7480315417
 40
0.7799233971
 40
0.8117304887
 40
0.8434359748
 40
0.8750249284
 40
0.9064846382
 40
0.9378049431
 40
0.9689780826
 40
1.0
 40
1.0
 40
1.0
 40
1.0
 10
10.350624241
 20
7.0025423439
 30
0.0
 10
10.3642166139
 20
7.0133725587
 30
0.0
 10
10.3922650887
 20
7.0340188132
 30
0.0
 10
10.4366119499
 20
7.0617156442
 30
0.0
 10
10.4830428042
 20
7.0860263129
 30
0.0
 10
10.5313173041
 20
7.1068245321
 30
0.0
 10
10.5811897347
 20
7.1240051989
 30
0.0
 10
10.6324052155
 20
7.1374810087
 30
0.0
 10
10.6847024357
 20
7.1471838375
 30
0.0
 10
10.7378146266
 20
7.1530647646
 30
0.0
 10
10.7914710157
 20
7.1550943695
 30
0.0
 10
10.8453981774
 20
7.1532629545
 30
0.0
 10
10.8993214446
 20
7.1475804433
 30
0.0
 10
10.9529662833
 20
7.1380763055
 30
0.0
 10
11.0060596652
 20
7.1247993899
 30
0.0
 10
11.0583314719
 20
7.1078177785
 30
0.0
 10
11.1095158317
 20
7.0872183047
 30
0.0
 10
11.1593524448
 20
7.0631061081
 30
0.0
 10
11.2075878806
 20
7.0356041019
 30
0.0
 10
11.2539769119
 20
7.0048524516
 30
0.0
 10
11.2982836946
 20
6.9710077526
 30
0.0
 10
11.3402829456
 20
6.9342422437
 30
0.0
 10
11.3797610685
 20
6.8947429448
 30
0.0
 10
11.4165173158
 20
6.8527107975
 30
0.0
 10
11.450364721
 20
6.8083595595
 30
0.0
 10
11.4811310349
 20
6.7619147354
 30
0.0
 10
11.5086595889
 20
6.713612452
 30
0.0
 10
11.5328101944
 20
6.663698321
 30
0.0
 10
11.5534597525
 20
6.612426167
 30
0.0
 10
11.570502868
 20
6.5600566488
 30
0.0
 10
11.5838524231
 20
6.506856359
 30
0.0
 10
11.5934399938
 20
6.4530950894
 30
0.0
 10
11.5992164995
 20
6.3990499101
 30
0.0
 10
11.6005098255
 20
6.3629163378
 30
0.0
 10
11.6005098255
 20
6.3448998939
 30
0.0
  0
SPLINE
  5
35C
100
AcDbEntity
  8
0
100
AcDbSpline
 62
7
  6
CONTINUOUS
 70
0
 71
3
 72
47
 73
43
 74
0
 42
0.0000001
 43
0.0000001
 44
0.0000000001
 40
0.0
 40
0.0
 40
0.0
 40
0.0
 40
0.0149719699
 40
0.0299469986
 40
0.0449281275
 40
0.0599183593
 40
0.0749206409
 40
0.0899378479
 40
0.1049727642
 40
0.1200280654
 40
0.1351063071
 40
0.1502099062
 40
0.1653411266
 40
0.1805020712
 40
0.195694667
 40
0.2109206532
 40
0.226181577
 40
0.2414787841
 40
0.2721808909
 40
0.30303905
 40
0.3340562704
 40
0.3652320501
 40
0.3965624391
 40
0.4280401707
 40
0.4596548674
 40
0.4913932962
 40
0.5232396724
 40
0.5551760134
 40
0.5871825188
 40
0.61923798
 40
0.6513202127
 40
0.6834065006
 40
0.7154740464
 40
0.7475004247
 40
0.7794640313
 40
0.8113445177
 40
0.8431232087
 40
0.8747834982
 40
0.9063112124
 40
0.9376949433
 40
0.9689261019
 40
1.0
 40
1.0
 40
1.0
 40
1.0
 10
10.2031685816
 20
6.9937090888
 30
0.0
 10
10.2104272536
 20
7.0007204169
 30
0.0
 10
10.2252265725
 20
7.0144574288
 30
0.0
 10
10.2482292382
 20
7.0341667804
 30
0.0
 10
10.2720064221
 20
7.05295513
 30
0.0
 10
10.2965249844
 20
7.0707961345
 30
0.0
 10
10.3217512405
 20
7.087665446
 30
0.0
 10
10.3476504521
 20
7.1035398142
 30
0.0
 10
10.3741870231
 20
7.1183973406
 30
0.0
 10
10.4013243775
 20
7.1322176775
 30
0.0
 10
10.429025177
 20
7.1449818173
 30
0.0
 10
10.4572513337
 20
7.1566721303
 30
0.0
 10
10.4859639679
 20
7.1672726384
 30
0.0
 10
10.515123563
 20
7.1767687786
 30
0.0
 10
10.5446900631
 20
7.1851474185
 30
0.0
 10
10.5746226094
 20
7.1923971323
 30
0.0
 10
10.6048805879
 20
7.1985080116
 30
0.0
 10
10.6456466835
 20
7.2051335102
 30
0.0
 10
10.6972262116
 20
7.2105210639
 30
0.0
 10
10.7596593122
 20
7.2123226394
 30
0.0
 10
10.8223734264
 20
7.209461609
 30
0.0
 10
10.8850214556
 20
7.2019539698
 30
0.0
 10
10.9472598117
 20
7.1898417792
 30
0.0
 10
11.0087465186
 20
7.1731923345
 30
0.0
 10
11.0691440286
 20
7.1520976341
 30
0.0
 10
11.1281207928
 20
7.1266740113
 30
0.0
 10
11.1853532039
 20
7.0970615978
 30
0.0
 10
11.2405271863
 20
7.0634232465
 30
0.0
 10
11.2933400006
 20
7.0259438832
 30
0.0
 10
11.3435019296
 20
6.9848295014
 30
0.0
 10
11.3907376647
 20
6.9403058123
 30
0.0
 10
11.4347879808
 20
6.8926172611
 30
0.0
 10
11.4754111323
 20
6.842025633
 30
0.0
 10
11.5123839707
 20
6.7888084846
 30
0.0
 10
11.5455034158
 20
6.7332578556
 30
0.0
 10
11.5745874693
 20
6.6756785676
 30
0.0
 10
11.5994760329
 20
6.6163865443
 30
0.0
 10
11.6200321007
 20
6.5557071122
 30
0.0
 10
11.6361423426
 20
6.4939736534
 30
0.0
 10
11.6477175198
 20
6.4315239408
 30
0.0
 10
11.6546936479
 20
6.3687053728
 30
0.0
 10
11.6562561538
 20
6.3266922282
 30
0.0
 10
11.6562561538
 20
6.3057467153
 30
0.0
  0
SPLINE
  5
35D
100
AcDbEntity
  8
0
100
AcDbSpline
 62
7
  6
CONTINUOUS
 70
0
 71
3
 72
23
 73
19
 74
0
 42
0.0000001
 43
0.0000001
 44
0.0000000001
 40
0.0
 40
0.0
 40
0.0
 40
0.0
 40
0.0616618916
 40
0.1233742189
 40
0.1851526356
 40
0.2470122736
 40
0.3089676204
 40
0.3710324028
 40
0.4332194938
 40
0.4955408137
 40
0.5580072432
 40
0.620628554
 40
0.6834132673
 40
0.7463688274
 40
0.8095013203
 40
0.8728146504
 40
0.9363150856
 40
1.0
 40
1.0
 40
1.0
 40
1.0
 10
11.4329127864
 20
5.8820742355
 30
0.0
 10
11.439627093
 20
5.8899264434
 30
0.0
 10
11.4527060511
 20
5.9059449994
 30
0.0
 10
11.4712217548
 20
5.9308484665
 30
0.0
 10
11.488609794
 20
5.9565927165
 30
0.0
 10
11.5048382788
 20
5.983130701
 30
0.0
 10
11.5198780788
 20
6.0104147624
 30
0.0
 10
11.5337020865
 20
6.0383956433
 30
0.0
 10
11.5462854571
 20
6.0670228895
 30
0.0
 10
11.5576055346
 20
6.0962448912
 30
0.0
 10
11.5676419036
 20
6.1260089893
 30
0.0
 10
11.5763765374
 20
6.156261513
 30
0.0
 10
11.5837937839
 20
6.1869479289
 30
0.0
 10
11.5898802976
 20
6.2180129711
 30
0.0
 10
11.5946250522
 20
6.2494005004
 30
0.0
 10
11.5980197805
 20
6.2810544831
 30
0.0
 10
11.6000580796
 20
6.3129167275
 30
0.0
 10
11.6005098255
 20
6.3342294754
 30
0.0
 10
11.6005098255
 20
6.3448998939
 30
0.0
  0
SPLINE
  5
35E
100
AcDbEntity
  8
0
100
AcDbSpline
 62
7
  6
CONTINUOUS
 70
0
 71
3
 72
39
 73
35
 74
0
 42
0.0000001
 43
0.0000001
 44
0.0000000001
 40
0.0
 40
0.0
 40
0.0
 40
0.0
 40
0.0055577178
 40
0.0111783515
 40
0.0169224939
 40
0.0228466025
 40
0.0290016501
 40
0.0354322917
 40
0.0492594105
 40
0.0567237334
 40
0.0645832027
 40
0.0728552336
 40
0.0815535905
 40
0.0906889511
 40
0.1002689297
 40
0.1207797723
 40
0.1431090779
 40
0.1672508467
 40
0.1931790703
 40
0.2208514629
 40
0.250212479
 40
0.2811953802
 40
0.3137236274
 40
0.3477121318
 40
0.3830684333
 40
0.4196935094
 40
0.4574823724
 40
0.4963248728
 40
0.5767054405
 40
0.6598768759
 40
0.7448320392
 40
0.8305351833
 40
0.9159380978
 40
1.0
 40
1.0
 40
1.0
 40
1.0
 10
12.4472761408
 20
10.1089655216
 30
0.0
 10
12.4472761348
 20
10.1084435502
 30
0.0
 10
12.4472176899
 20
10.1073927885
 30
0.0
 10
12.4469553257
 20
10.1058222681
 30
0.0
 10
12.4465188225
 20
10.1042552384
 30
0.0
 10
12.4459089723
 20
10.1026935414
 30
0.0
 10
12.4451267199
 20
10.1011383884
 30
0.0
 10
12.4438239893
 20
10.0990243999
 30
0.0
 10
12.4421951551
 20
10.0969795707
 30
0.0
 10
12.4402961184
 20
10.0950063471
 30
0.0
 10
12.4386684824
 20
10.0935004776
 30
0.0
 10
12.4368756549
 20
10.0920078007
 30
0.0
 10
12.4349188176
 20
10.0905292037
 30
0.0
 10
12.4327995665
 20
10.0890658901
 30
0.0
 10
12.4296883211
 20
10.0870915216
 30
0.0
 10
12.4253917172
 20
10.0846800118
 30
0.0
 10
12.4197317628
 20
10.0819276405
 30
0.0
 10
12.4134733311
 20
10.0792629296
 30
0.0
 10
12.4066364741
 20
10.076694514
 30
0.0
 10
12.3992429341
 20
10.0742307413
 30
0.0
 10
12.3913165479
 20
10.0718797265
 30
0.0
 10
12.3828829597
 20
10.0696492534
 30
0.0
 10
12.3739695796
 20
10.0675467055
 30
0.0
 10
12.3646054554
 20
10.0655790306
 30
0.0
 10
12.3548211426
 20
10.0637527457
 30
0.0
 10
12.3446486092
 20
10.0620739261
 30
0.0
 10
12.3341210981
 20
10.0605480726
 30
0.0
 10
12.3194899345
 20
10.0587034144
 30
0.0
 10
12.300570147
 20
10.0568277834
 30
0.0
 10
12.2772787923
 20
10.0552752679
 30
0.0
 10
12.2534513619
 20
10.0544173554
 30
0.0
 10
12.2293994695
 20
10.0542654592
 30
0.0
 10
12.2054376518
 20
10.0548216691
 30
0.0
 10
12.1895414179
 20
10.055669684
 30
0.0
 10
12.1816653839
 20
10.0562158888
 30
0.0
  0
SPLINE
  5
35F
100
AcDbEntity
  8
0
100
AcDbSpline
 62
7
  6
CONTINUOUS
 70
0
 71
3
 72
39
 73
35
 74
0
 42
0.0000001
 43
0.0000001
 44
0.0000000001
 40
0.0
 40
0.0
 40
0.0
 40
0.0
 40
0.0055577178
 40
0.0111783515
 40
0.0169224939
 40
0.0228466025
 40
0.0290016501
 40
0.0354322917
 40
0.0492594105
 40
0.0567237334
 40
0.0645832027
 40
0.0728552336
 40
0.0815535905
 40
0.0906889511
 40
0.1002689297
 40
0.1207797723
 40
0.1431090779
 40
0.1672508467
 40
0.1931790703
 40
0.2208514629
 40
0.250212479
 40
0.2811953802
 40
0.3137236274
 40
0.3477121318
 40
0.3830684333
 40
0.4196935094
 40
0.4574823724
 40
0.4963248728
 40
0.5767054405
 40
0.6598768759
 40
0.7448320392
 40
0.8305351833
 40
0.9159380978
 40
1.0
 40
1.0
 40
1.0
 40
1.0
 10
13.8384273602
 20
11.4527144922
 30
0.0
 10
13.8384273541
 20
11.4521925208
 30
0.0
 10
13.8383689093
 20
11.4511417591
 30
0.0
 10
13.838106545
 20
11.4495712388
 30
0.0
 10
13.8376700419
 20
11.4480042091
 30
0.0
 10
13.8370601917
 20
11.446442512
 30
0.0
 10
13.8362779392
 20
11.444887359
 30
0.0
 10
13.8349752086
 20
11.4427733706
 30
0.0
 10
13.8333463744
 20
11.4407285413
 30
0.0
 10
13.8314473378
 20
11.4387553177
 30
0.0
 10
13.8298197017
 20
11.4372494482
 30
0.0
 10
13.8280268742
 20
11.4357567713
 30
0.0
 10
13.8260700369
 20
11.4342781744
 30
0.0
 10
13.8239507859
 20
11.4328148608
 30
0.0
 10
13.8208395404
 20
11.4308404922
 30
0.0
 10
13.8165429365
 20
11.4284289824
 30
0.0
 10
13.8108829821
 20
11.4256766112
 30
0.0
 10
13.8046245505
 20
11.4230119003
 30
0.0
 10
13.7977876935
 20
11.4204434847
 30
0.0
 10
13.7903941535
 20
11.417979712
 30
0.0
 10
13.7824677673
 20
11.4156286972
 30
0.0
 10
13.774034179
 20
11.4133982241
 30
0.0
 10
13.765120799
 20
11.4112956762
 30
0.0
 10
13.7557566748
 20
11.4093280013
 30
0.0
 10
13.7459723619
 20
11.4075017164
 30
0.0
 10
13.7357998285
 20
11.4058228967
 30
0.0
 10
13.7252723174
 20
11.4042970432
 30
0.0
 10
13.7106411539
 20
11.402452385
 30
0.0
 10
13.6917213663
 20
11.4005767541
 30
0.0
 10
13.6684300116
 20
11.3990242385
 30
0.0
 10
13.6446025812
 20
11.398166326
 30
0.0
 10
13.6205506889
 20
11.3980144299
 30
0.0
 10
13.5965888711
 20
11.3985706397
 30
0.0
 10
13.5806926372
 20
11.3994186546
 30
0.0
 10
13.5728166033
 20
11.3999648595
 30
0.0
  0
SPLINE
  5
360
100
AcDbEntity
  8
0
100
AcDbSpline
 62
7
  6
CONTINUOUS
 70
0
 71
3
 72
11
 73
7
 74
0
 42
0.0000001
 43
0.0000001
 44
0.0000000001
 40
0.0
 40
0.0
 40
0.0
 40
0.0
 40
0.2568468472
 40
0.5078753314
 40
0.7549412516
 40
1.0
 40
1.0
 40
1.0
 40
1.0
 10
13.0827344996
 20
9.9861893868
 30
0.0
 10
13.0839226751
 20
9.9865447483
 30
0.0
 10
13.0863022383
 20
9.9871516464
 30
0.0
 10
13.0899042781
 20
9.9877410368
 30
0.0
 10
13.0934883865
 20
9.9879964478
 30
0.0
 10
13.0958681195
 20
9.9879436368
 30
0.0
 10
13.0970485448
 20
9.987861781
 30
0.0
  0
SPLINE
  5
361
100
AcDbEntity
  8
0
100
AcDbSpline
 62
7
  6
CONTINUOUS
 70
0
 71
3
 72
47
 73
43
 74
0
 42
0.0000001
 43
0.0000001
 44
0.0000000001
 40
0.0
 40
0.0
 40
0.0
 40
0.0
 40
0.0063158967
 40
0.0126706977
 40
0.0191025471
 40
0.0256480963
 40
0.0323419829
 40
0.0392163382
 40
0.053614168
 40
0.0611948929
 40
0.0690566412
 40
0.077217773
 40
0.0856941569
 40
0.0944995551
 40
0.1036456891
 40
0.1131424521
 40
0.122998232
 40
0.1332198706
 40
0.1438129644
 40
0.1547820179
 40
0.1661303832
 40
0.1899727563
 40
0.2153522396
 40
0.2422681077
 40
0.2707104459
 40
0.3006614883
 40
0.3320967939
 40
0.3649861265
 40
0.3992940928
 40
0.4349806571
 40
0.4720016811
 40
0.5103093127
 40
0.5498522596
 40
0.5905760756
 40
0.6324234754
 40
0.6753345639
 40
0.7192469999
 40
0.7640961586
 40
0.8098155359
 40
0.8563366993
 40
0.9035889296
 40
1.0
 40
1.0
 40
1.0
 40
1.0
 10
13.063237133
 20
8.5066519056
 30
0.0
 10
13.061758218
 20
8.5067544651
 30
0.0
 10
13.0587982656
 20
8.5070812531
 30
0.0
 10
13.0543915025
 20
8.5079330602
 30
0.0
 10
13.0500142078
 20
8.5091465033
 30
0.0
 10
13.0456689129
 20
8.5107205273
 30
0.0
 10
13.0413573515
 20
8.5126543125
 30
0.0
 10
13.0355680816
 20
8.5157576498
 30
0.0
 10
13.0299360171
 20
8.5195565968
 30
0.0
 10
13.0244856234
 20
8.5239589983
 30
0.0
 10
13.0203687245
 20
8.5276707361
 30
0.0
 10
13.0162958159
 20
8.5317332676
 30
0.0
 10
13.0122678587
 20
8.5361450929
 30
0.0
 10
13.0082865484
 20
8.5409043509
 30
0.0
 10
13.0043533411
 20
8.5460090968
 30
0.0
 10
13.0004697042
 20
8.5514572152
 30
0.0
 10
12.9966372247
 20
8.557246548
 30
0.0
 10
12.9928573461
 20
8.5633747102
 30
0.0
 10
12.9891315794
 20
8.5698392178
 30
0.0
 10
12.9854614253
 20
8.5766374882
 30
0.0
 10
12.9805631981
 20
8.586302814
 30
0.0
 10
12.9746067128
 20
8.599217951
 30
0.0
 10
12.9678171297
 20
8.615753894
 30
0.0
 10
12.9612836862
 20
8.6335471122
 30
0.0
 10
12.9550170978
 20
8.6525685855
 30
0.0
 10
12.9490276295
 20
8.6727875992
 30
0.0
 10
12.9433251868
 20
8.6941712033
 30
0.0
 10
12.9379192416
 20
8.7166844888
 30
0.0
 10
12.9328187941
 20
8.7402905898
 30
0.0
 10
12.9280323147
 20
8.7649507679
 30
0.0
 10
12.9235677762
 20
8.7906245065
 30
0.0
 10
12.9194326313
 20
8.8172695906
 30
0.0
 10
12.9156337737
 20
8.844842166
 30
0.0
 10
12.9121775184
 20
8.8732968168
 30
0.0
 10
12.9090696267
 20
8.9025866613
 30
0.0
 10
12.9063152929
 20
8.9326634333
 30
0.0
 10
12.9039191066
 20
8.9634775373
 30
0.0
 10
12.9018850429
 20
8.9949781739
 30
0.0
 10
12.9002165125
 20
9.0271133797
 30
0.0
 10
12.8989162895
 20
9.0598301249
 30
0.0
 10
12.897668423
 20
9.1044534803
 30
0.0
 10
12.8973064458
 20
9.1381758933
 30
0.0
 10
12.8973064458
 20
9.1608054948
 30
0.0
  0
SPLINE
  5
362
100
AcDbEntity
  8
0
100
AcDbSpline
 62
7
  6
CONTINUOUS
 70
0
 71
3
 72
11
 73
7
 74
0
 42
0.0000001
 43
0.0000001
 44
0.0000000001
 40
0.0
 40
0.0
 40
0.0
 40
0.0
 40
0.2568568136
 40
0.5078864349
 40
0.7549483871
 40
1.0
 40
1.0
 40
1.0
 40
1.0
 10
12.9993794108
 20
8.7843979925
 30
0.0
 10
13.0005079481
 20
8.7838813128
 30
0.0
 10
13.0027825635
 20
8.7829504829
 30
0.0
 10
13.0062713473
 20
8.7818681369
 30
0.0
 10
13.0097884913
 20
8.7811194462
 30
0.0
 10
13.0121545166
 20
8.7808429713
 30
0.0
 10
13.0133358251
 20
8.7807610543
 30
0.0
  0
SPLINE
  5
363
100
AcDbEntity
  8
0
100
AcDbSpline
 62
7
  6
CONTINUOUS
 70
0
 71
3
 72
11
 73
7
 74
0
 42
0.0000001
 43
0.0000001
 44
0.0000000001
 40
0.0
 40
0.0
 40
0.0
 40
0.0
 40
0.2568468472
 40
0.5078753314
 40
0.7549412516
 40
1.0
 40
1.0
 40
1.0
 40
1.0
 10
13.7618750705
 20
10.6421888428
 30
0.0
 10
13.763063246
 20
10.6425442043
 30
0.0
 10
13.7654428092
 20
10.6431511024
 30
0.0
 10
13.769044849
 20
10.6437404928
 30
0.0
 10
13.7726289574
 20
10.6439959038
 30
0.0
 10
13.7750086905
 20
10.6439430928
 30
0.0
 10
13.7761891157
 20
10.643861237
 30
0.0
  0
SPLINE
  5
364
100
AcDbEntity
  8
0
100
AcDbSpline
 62
7
  6
CONTINUOUS
 70
0
 71
3
 72
47
 73
43
 74
0
 42
0.0000001
 43
0.0000001
 44
0.0000000001
 40
0.0
 40
0.0
 40
0.0
 40
0.0
 40
0.0063158967
 40
0.0126706977
 40
0.0191025471
 40
0.0256480963
 40
0.0323419829
 40
0.0392163382
 40
0.053614168
 40
0.0611948929
 40
0.0690566412
 40
0.077217773
 40
0.0856941569
 40
0.0944995551
 40
0.1036456891
 40
0.1131424521
 40
0.122998232
 40
0.1332198706
 40
0.1438129644
 40
0.1547820179
 40
0.1661303832
 40
0.1899727563
 40
0.2153522396
 40
0.2422681077
 40
0.2707104459
 40
0.3006614883
 40
0.3320967939
 40
0.3649861265
 40
0.3992940928
 40
0.4349806571
 40
0.4720016811
 40
0.5103093127
 40
0.5498522596
 40
0.5905760756
 40
0.6324234754
 40
0.6753345639
 40
0.7192469999
 40
0.7640961586
 40
0.8098155359
 40
0.8563366993
 40
0.9035889296
 40
1.0
 40
1.0
 40
1.0
 40
1.0
 10
13.742377704
 20
9.1626513616
 30
0.0
 10
13.7408987889
 20
9.1627539211
 30
0.0
 10
13.7379388365
 20
9.1630807091
 30
0.0
 10
13.7335320735
 20
9.1639325162
 30
0.0
 10
13.7291547787
 20
9.1651459593
 30
0.0
 10
13.7248094838
 20
9.1667199833
 30
0.0
 10
13.7204979224
 20
9.1686537685
 30
0.0
 10
13.7147086525
 20
9.1717571058
 30
0.0
 10
13.709076588
 20
9.1755560528
 30
0.0
 10
13.7036261943
 20
9.1799584543
 30
0.0
 10
13.6995092954
 20
9.1836701921
 30
0.0
 10
13.6954363868
 20
9.1877327236
 30
0.0
 10
13.6914084296
 20
9.1921445489
 30
0.0
 10
13.6874271193
 20
9.1969038069
 30
0.0
 10
13.683493912
 20
9.2020085528
 30
0.0
 10
13.6796102751
 20
9.2074566712
 30
0.0
 10
13.6757777957
 20
9.213246004
 30
0.0
 10
13.671997917
 20
9.2193741662
 30
0.0
 10
13.6682721503
 20
9.2258386738
 30
0.0
 10
13.6646019962
 20
9.2326369442
 30
0.0
 10
13.659703769
 20
9.24230227
 30
0.0
 10
13.6537472837
 20
9.255217407
 30
0.0
 10
13.6469577006
 20
9.27175335
 30
0.0
 10
13.6404242571
 20
9.2895465682
 30
0.0
 10
13.6341576688
 20
9.3085680415
 30
0.0
 10
13.6281682004
 20
9.3287870552
 30
0.0
 10
13.6224657577
 20
9.3501706593
 30
0.0
 10
13.6170598125
 20
9.3726839448
 30
0.0
 10
13.611959365
 20
9.3962900458
 30
0.0
 10
13.6071728857
 20
9.4209502239
 30
0.0
 10
13.6027083471
 20
9.4466239625
 30
0.0
 10
13.5985732023
 20
9.4732690466
 30
0.0
 10
13.5947743446
 20
9.500841622
 30
0.0
 10
13.5913180894
 20
9.5292962728
 30
0.0
 10
13.5882101976
 20
9.5585861173
 30
0.0
 10
13.5854558638
 20
9.5886628893
 30
0.0
 10
13.5830596775
 20
9.6194769933
 30
0.0
 10
13.5810256139
 20
9.6509776299
 30
0.0
 10
13.5793570834
 20
9.6831128357
 30
0.0
 10
13.5780568605
 20
9.7158295809
 30
0.0
 10
13.5768089939
 20
9.7604529363
 30
0.0
 10
13.5764470168
 20
9.7941753493
 30
0.0
 10
13.5764470168
 20
9.8168049508
 30
0.0
  0
SPLINE
  5
365
100
AcDbEntity
  8
0
100
AcDbSpline
 62
7
  6
CONTINUOUS
 70
0
 71
3
 72
11
 73
7
 74
0
 42
0.0000001
 43
0.0000001
 44
0.0000000001
 40
0.0
 40
0.0
 40
0.0
 40
0.0
 40
0.2568568136
 40
0.5078864349
 40
0.7549483871
 40
1.0
 40
1.0
 40
1.0
 40
1.0
 10
13.6785199817
 20
9.4403974486
 30
0.0
 10
13.679648519
 20
9.4398807688
 30
0.0
 10
13.6819231344
 20
9.4389499389
 30
0.0
 10
13.6854119182
 20
9.4378675929
 30
0.0
 10
13.6889290622
 20
9.4371189022
 30
0.0
 10
13.6912950875
 20
9.4368424273
 30
0.0
 10
13.692476396
 20
9.4367605103
 30
0.0
  0
SPLINE
  5
366
100
AcDbEntity
  8
0
100
AcDbSpline
 62
7
  6
CONTINUOUS
 70
0
 71
3
 72
11
 73
7
 74
0
 42
0.0000001
 43
0.0000001
 44
0.0000000001
 40
0.0
 40
0.0
 40
0.0
 40
0.0
 40
0.2568468472
 40
0.5078753314
 40
0.7549412516
 40
1.0
 40
1.0
 40
1.0
 40
1.0
 10
13.6650769322
 20
7.8923928358
 30
0.0
 10
13.6662651077
 20
7.8927481973
 30
0.0
 10
13.6686446709
 20
7.8933550955
 30
0.0
 10
13.6722467107
 20
7.8939444858
 30
0.0
 10
13.6758308191
 20
7.8941998968
 30
0.0
 10
13.6782105521
 20
7.8941470859
 30
0.0
 10
13.6793909774
 20
7.89406523
 30
0.0
  0
SPLINE
  5
367
100
AcDbEntity
  8
0
100
AcDbSpline
 62
7
  6
CONTINUOUS
 70
0
 71
3
 72
47
 73
43
 74
0
 42
0.0000001
 43
0.0000001
 44
0.0000000001
 40
0.0
 40
0.0
 40
0.0
 40
0.0
 40
0.0063158967
 40
0.0126706977
 40
0.0191025471
 40
0.0256480963
 40
0.0323419829
 40
0.0392163382
 40
0.053614168
 40
0.0611948929
 40
0.0690566412
 40
0.077217773
 40
0.0856941569
 40
0.0944995551
 40
0.1036456891
 40
0.1131424521
 40
0.122998232
 40
0.1332198706
 40
0.1438129644
 40
0.1547820179
 40
0.1661303832
 40
0.1899727563
 40
0.2153522396
 40
0.2422681077
 40
0.2707104459
 40
0.3006614883
 40
0.3320967939
 40
0.3649861265
 40
0.3992940928
 40
0.4349806571
 40
0.4720016811
 40
0.5103093127
 40
0.5498522596
 40
0.5905760756
 40
0.6324234754
 40
0.6753345639
 40
0.7192469999
 40
0.7640961586
 40
0.8098155359
 40
0.8563366993
 40
0.9035889296
 40
1.0
 40
1.0
 40
1.0
 40
1.0
 10
13.6455795656
 20
6.4128553546
 30
0.0
 10
13.6441006505
 20
6.4129579141
 30
0.0
 10
13.6411406981
 20
6.4132847022
 30
0.0
 10
13.6367339351
 20
6.4141365092
 30
0.0
 10
13.6323566404
 20
6.4153499523
 30
0.0
 10
13.6280113455
 20
6.4169239763
 30
0.0
 10
13.6236997841
 20
6.4188577616
 30
0.0
 10
13.6179105142
 20
6.4219610988
 30
0.0
 10
13.6122784496
 20
6.4257600458
 30
0.0
 10
13.606828056
 20
6.4301624473
 30
0.0
 10
13.6027111571
 20
6.4338741851
 30
0.0
 10
13.5986382485
 20
6.4379367166
 30
0.0
 10
13.5946102913
 20
6.4423485419
 30
0.0
 10
13.590628981
 20
6.4471077999
 30
0.0
 10
13.5866957737
 20
6.4522125458
 30
0.0
 10
13.5828121368
 20
6.4576606642
 30
0.0
 10
13.5789796573
 20
6.463449997
 30
0.0
 10
13.5751997787
 20
6.4695781592
 30
0.0
 10
13.571474012
 20
6.4760426668
 30
0.0
 10
13.5678038579
 20
6.4828409372
 30
0.0
 10
13.5629056306
 20
6.492506263
 30
0.0
 10
13.5569491454
 20
6.5054214
 30
0.0
 10
13.5501595623
 20
6.521957343
 30
0.0
 10
13.5436261188
 20
6.5397505612
 30
0.0
 10
13.5373595304
 20
6.5587720345
 30
0.0
 10
13.5313700621
 20
6.5789910482
 30
0.0
 10
13.5256676194
 20
6.6003746523
 30
0.0
 10
13.5202616741
 20
6.6228879379
 30
0.0
 10
13.5151612267
 20
6.6464940388
 30
0.0
 10
13.5103747473
 20
6.6711542169
 30
0.0
 10
13.5059102088
 20
6.6968279555
 30
0.0
 10
13.5017750639
 20
6.7234730396
 30
0.0
 10
13.4979762063
 20
6.7510456151
 30
0.0
 10
13.494519951
 20
6.7795002658
 30
0.0
 10
13.4914120593
 20
6.8087901103
 30
0.0
 10
13.4886577255
 20
6.8388668823
 30
0.0
 10
13.4862615392
 20
6.8696809864
 30
0.0
 10
13.4842274755
 20
6.9011816229
 30
0.0
 10
13.4825589451
 20
6.9333168287
 30
0.0
 10
13.4812587221
 20
6.9660335739
 30
0.0
 10
13.4800108555
 20
7.0106569293
 30
0.0
 10
13.4796488784
 20
7.0443793423
 30
0.0
 10
13.4796488784
 20
7.0670089439
 30
0.0
  0
SPLINE
  5
368
100
AcDbEntity
  8
0
100
AcDbSpline
 62
7
  6
CONTINUOUS
 70
0
 71
3
 72
11
 73
7
 74
0
 42
0.0000001
 43
0.0000001
 44
0.0000000001
 40
0.0
 40
0.0
 40
0.0
 40
0.0
 40
0.2568568136
 40
0.5078864349
 40
0.7549483871
 40
1.0
 40
1.0
 40
1.0
 40
1.0
 10
13.5817218434
 20
6.6906014416
 30
0.0
 10
13.5828503807
 20
6.6900847618
 30
0.0
 10
13.5851249961
 20
6.6891539319
 30
0.0
 10
13.5886137799
 20
6.688071586
 30
0.0
 10
13.5921309239
 20
6.6873228953
 30
0.0
 10
13.5944969492
 20
6.6870464204
 30
0.0
 10
13.5956782577
 20
6.6869645033
 30
0.0
  0
SPLINE
  5
369
100
AcDbEntity
  8
0
100
AcDbSpline
 62
7
  6
CONTINUOUS
 70
0
 71
3
 72
11
 73
7
 74
0
 42
0.0000001
 43
0.0000001
 44
0.0000000001
 40
0.0
 40
0.0
 40
0.0
 40
0.0
 40
0.2568468472
 40
0.5078753314
 40
0.7549412516
 40
1.0
 40
1.0
 40
1.0
 40
1.0
 10
12.9854186377
 20
7.2358932972
 30
0.0
 10
12.9866068132
 20
7.2362486587
 30
0.0
 10
12.9889863764
 20
7.2368555569
 30
0.0
 10
12.9925884162
 20
7.2374449472
 30
0.0
 10
12.9961725246
 20
7.2377003582
 30
0.0
 10
12.9985522576
 20
7.2376475473
 30
0.0
 10
12.9997326829
 20
7.2375656914
 30
0.0
  0
SPLINE
  5
36A
100
AcDbEntity
  8
0
100
AcDbSpline
 62
7
  6
CONTINUOUS
 70
0
 71
3
 72
47
 73
43
 74
0
 42
0.0000001
 43
0.0000001
 44
0.0000000001
 40
0.0
 40
0.0
 40
0.0
 40
0.0
 40
0.0063158967
 40
0.0126706977
 40
0.0191025471
 40
0.0256480963
 40
0.0323419829
 40
0.0392163382
 40
0.053614168
 40
0.0611948929
 40
0.0690566412
 40
0.077217773
 40
0.0856941569
 40
0.0944995551
 40
0.1036456891
 40
0.1131424521
 40
0.122998232
 40
0.1332198706
 40
0.1438129644
 40
0.1547820179
 40
0.1661303832
 40
0.1899727563
 40
0.2153522396
 40
0.2422681077
 40
0.2707104459
 40
0.3006614883
 40
0.3320967939
 40
0.3649861265
 40
0.3992940928
 40
0.4349806571
 40
0.4720016811
 40
0.5103093127
 40
0.5498522596
 40
0.5905760756
 40
0.6324234754
 40
0.6753345639
 40
0.7192469999
 40
0.7640961586
 40
0.8098155359
 40
0.8563366993
 40
0.9035889296
 40
1.0
 40
1.0
 40
1.0
 40
1.0
 10
12.9659212711
 20
5.756355816
 30
0.0
 10
12.9644423561
 20
5.7564583755
 30
0.0
 10
12.9614824037
 20
5.7567851636
 30
0.0
 10
12.9570756407
 20
5.7576369706
 30
0.0
 10
12.9526983459
 20
5.7588504137
 30
0.0
 10
12.948353051
 20
5.7604244377
 30
0.0
 10
12.9440414896
 20
5.762358223
 30
0.0
 10
12.9382522197
 20
5.7654615602
 30
0.0
 10
12.9326201552
 20
5.7692605072
 30
0.0
 10
12.9271697615
 20
5.7736629088
 30
0.0
 10
12.9230528626
 20
5.7773746465
 30
0.0
 10
12.918979954
 20
5.781437178
 30
0.0
 10
12.9149519968
 20
5.7858490033
 30
0.0
 10
12.9109706865
 20
5.7906082613
 30
0.0
 10
12.9070374792
 20
5.7957130072
 30
0.0
 10
12.9031538423
 20
5.8011611256
 30
0.0
 10
12.8993213629
 20
5.8069504584
 30
0.0
 10
12.8955414842
 20
5.8130786206
 30
0.0
 10
12.8918157175
 20
5.8195431282
 30
0.0
 10
12.8881455634
 20
5.8263413986
 30
0.0
 10
12.8832473362
 20
5.8360067244
 30
0.0
 10
12.8772908509
 20
5.8489218614
 30
0.0
 10
12.8705012678
 20
5.8654578044
 30
0.0
 10
12.8639678243
 20
5.8832510227
 30
0.0
 10
12.857701236
 20
5.9022724959
 30
0.0
 10
12.8517117676
 20
5.9224915096
 30
0.0
 10
12.8460093249
 20
5.9438751137
 30
0.0
 10
12.8406033797
 20
5.9663883993
 30
0.0
 10
12.8355029322
 20
5.9899945002
 30
0.0
 10
12.8307164528
 20
6.0146546784
 30
0.0
 10
12.8262519143
 20
6.0403284169
 30
0.0
 10
12.8221167695
 20
6.0669735011
 30
0.0
 10
12.8183179118
 20
6.0945460765
 30
0.0
 10
12.8148616566
 20
6.1230007272
 30
0.0
 10
12.8117537648
 20
6.1522905717
 30
0.0
 10
12.808999431
 20
6.1823673437
 30
0.0
 10
12.8066032447
 20
6.2131814478
 30
0.0
 10
12.804569181
 20
6.2446820843
 30
0.0
 10
12.8029006506
 20
6.2768172902
 30
0.0
 10
12.8016004276
 20
6.3095340353
 30
0.0
 10
12.8003525611
 20
6.3541573908
 30
0.0
 10
12.7999905839
 20
6.3878798037
 30
0.0
 10
12.7999905839
 20
6.4105094053
 30
0.0
  0
SPLINE
  5
36B
100
AcDbEntity
  8
0
100
AcDbSpline
 62
7
  6
CONTINUOUS
 70
0
 71
3
 72
11
 73
7
 74
0
 42
0.0000001
 43
0.0000001
 44
0.0000000001
 40
0.0
 40
0.0
 40
0.0
 40
0.0
 40
0.2568568136
 40
0.5078864349
 40
0.7549483871
 40
1.0
 40
1.0
 40
1.0
 40
1.0
 10
12.9020635489
 20
6.034101903
 30
0.0
 10
12.9031920862
 20
6.0335852233
 30
0.0
 10
12.9054667016
 20
6.0326543934
 30
0.0
 10
12.9089554854
 20
6.0315720474
 30
0.0
 10
12.9124726294
 20
6.0308233567
 30
0.0
 10
12.9148386547
 20
6.0305468818
 30
0.0
 10
12.9160199632
 20
6.0304649647
 30
0.0
  0
SPLINE
  5
36C
100
AcDbEntity
  8
0
100
AcDbSpline
 62
7
  6
CONTINUOUS
 70
0
 71
3
 72
44
 73
40
 74
0
 42
0.0000001
 43
0.0000001
 44
0.0000000001
 40
0.0
 40
0.0
 40
0.0
 40
0.0
 40
0.0310744349
 40
0.0623061033
 40
0.0936903779
 40
0.1252186236
 40
0.1568794503
 40
0.1886586803
 40
0.2205397066
 40
0.2525038554
 40
0.2845307769
 40
0.3165988658
 40
0.3486856972
 40
0.3807684736
 40
0.4128244778
 40
0.4448315246
 40
0.4767684059
 40
0.5086153213
 40
0.5403542862
 40
0.5719695169
 40
0.6034477806
 40
0.6347786986
 40
0.6659550044
 40
0.696972748
 40
0.7278314278
 40
0.7585340529
 40
0.7890871347
 40
0.8195005891
 40
0.8497875544
 40
0.8648914079
 40
0.8799699038
 40
0.8950254603
 40
0.9100606302
 40
0.9250780906
 40
0.9400806268
 40
0.9550711117
 40
0.9700524936
 40
0.9850277766
 40
1.0
 40
1.0
 40
1.0
 40
1.0
 10
8.4007635981
 20
9.2244783719
 30
0.0
 10
8.4007635981
 20
9.2057590501
 30
0.0
 10
8.4021600274
 20
9.1682112843
 30
0.0
 10
8.4083947211
 20
9.1120693989
 30
0.0
 10
8.4187396222
 20
9.0562571701
 30
0.0
 10
8.4331375766
 20
9.0010850529
 30
0.0
 10
8.451508879
 20
8.9468549578
 30
0.0
 10
8.4737521704
 20
8.8938648034
 30
0.0
 10
8.4997449959
 20
8.8424053253
 30
0.0
 10
8.529344391
 20
8.7927589351
 30
0.0
 10
8.5623875877
 20
8.7451979977
 30
0.0
 10
8.5986930751
 20
8.6999834869
 30
0.0
 10
8.6380615502
 20
8.657363569
 30
0.0
 10
8.6802768553
 20
8.6175721204
 30
0.0
 10
8.7251073003
 20
8.580827569
 30
0.0
 10
8.7723069348
 20
8.5473317597
 30
0.0
 10
8.8216167681
 20
8.5172687153
 30
0.0
 10
8.8727662204
 20
8.4908036608
 30
0.0
 10
8.9254746515
 20
8.4680822438
 30
0.0
 10
8.9794528175
 20
8.4492296568
 30
0.0
 10
9.0344044105
 20
8.4343498276
 30
0.0
 10
9.090027734
 20
8.4235250306
 30
0.0
 10
9.1460173077
 20
8.4168154187
 30
0.0
 10
9.2020654792
 20
8.4142584554
 30
0.0
 10
9.2578642008
 20
8.4158688837
 30
0.0
 10
9.3131064438
 20
8.4216385715
 30
0.0
 10
9.3674887645
 20
8.431536739
 30
0.0
 10
9.4207097203
 20
8.4455086374
 30
0.0
 10
9.4638965058
 20
8.4605004973
 30
0.0
 10
9.4975580411
 20
8.4744422964
 30
0.0
 10
9.5223149647
 20
8.4858499029
 30
0.0
 10
9.5465679378
 20
8.4982013147
 30
0.0
 10
9.5702840353
 20
8.5114798043
 30
0.0
 10
9.593430532
 20
8.5256669674
 30
0.0
 10
9.6159756124
 20
8.5407433234
 30
0.0
 10
9.637888149
 20
8.5566881833
 30
0.0
 10
9.6591381667
 20
8.5734796122
 30
0.0
 10
9.6796959899
 20
8.5910941551
 30
0.0
 10
9.6929222942
 20
8.6033711978
 30
0.0
 10
9.6994094748
 20
8.609637328
 30
0.0
  0
SPLINE
  5
36D
100
AcDbEntity
  8
0
100
AcDbSpline
 62
7
  6
CONTINUOUS
 70
0
 71
3
 72
27
 73
23
 74
0
 42
0.0000001
 43
0.0000001
 44
0.0000000001
 40
0.0
 40
0.0
 40
0.0
 40
0.0
 40
0.1079734983
 40
0.2112445727
 40
0.3086897737
 40
0.3995198081
 40
0.4832942776
 40
0.5598683609
 40
0.6293232523
 40
0.6918971578
 40
0.7479321613
 40
0.7978397099
 40
0.8420855464
 40
0.8622518891
 40
0.8812044873
 40
0.8990203161
 40
0.915783536
 40
0.9315848385
 40
0.9465244936
 40
0.9742422259
 40
0.987300717
 40
1.0
 40
1.0
 40
1.0
 40
1.0
 10
9.3599112392
 20
8.6135898636
 30
0.0
 10
9.363144066
 20
8.6133656663
 30
0.0
 10
9.3694649516
 20
8.6128667037
 30
0.0
 10
9.3786844574
 20
8.6119461622
 30
0.0
 10
9.3873702775
 20
8.6108804239
 30
0.0
 10
9.3954480835
 20
8.6096840004
 30
0.0
 10
9.4028725824
 20
8.6083710542
 30
0.0
 10
9.4096239044
 20
8.6069542511
 30
0.0
 10
9.4157015289
 20
8.6054442592
 30
0.0
 10
9.4211179854
 20
8.6038496026
 30
0.0
 10
9.4258937622
 20
8.6021767289
 30
0.0
 10
9.4300526003
 20
8.6004303133
 30
0.0
 10
9.4331139053
 20
8.5988712528
 30
0.0
 10
9.4352593814
 20
8.5975822623
 30
0.0
 10
9.436678411
 20
8.5966288209
 30
0.0
 10
9.4379602704
 20
8.5956586795
 30
0.0
 10
9.4391074384
 20
8.5946720407
 30
0.0
 10
9.440122258
 20
8.5936685322
 30
0.0
 10
9.4412723194
 20
8.5923421802
 30
0.0
 10
9.4422097476
 20
8.5909437645
 30
0.0
 10
9.4428928649
 20
8.5894889069
 30
0.0
 10
9.4431473727
 20
8.5887570562
 30
0.0
 10
9.4432527329
 20
8.5883907665
 30
0.0
  0
SPLINE
  5
36E
100
AcDbEntity
  8
0
100
AcDbSpline
 62
7
  6
CONTINUOUS
 70
0
 71
3
 72
11
 73
7
 74
0
 42
0.0000001
 43
0.0000001
 44
0.0000000001
 40
0.0
 40
0.0
 40
0.0
 40
0.0
 40
0.25135619
 40
0.5017993357
 40
0.7513367369
 40
1.0
 40
1.0
 40
1.0
 40
1.0
 10
9.1011499382
 20
9.7924996662
 30
0.0
 10
9.1011499382
 20
9.8039372969
 30
0.0
 10
9.1017524097
 20
9.8267756704
 30
0.0
 10
9.1044726188
 20
9.8608716339
 30
0.0
 10
9.109000153
 20
9.8946514524
 30
0.0
 10
9.1132227799
 20
9.9169380086
 30
0.0
 10
9.1156311623
 20
9.9279938223
 30
0.0
  0
SPLINE
  5
36F
100
AcDbEntity
  8
0
100
AcDbSpline
 62
7
  6
CONTINUOUS
 70
0
 71
3
 72
39
 73
35
 74
0
 42
0.0000001
 43
0.0000001
 44
0.0000000001
 40
0.0
 40
0.0
 40
0.0
 40
0.0
 40
0.0310262934
 40
0.0622042826
 40
0.093529886
 40
0.1249952554
 40
0.1565901457
 40
0.1883017294
 40
0.2201149489
 40
0.2520128199
 40
0.2839767646
 40
0.3159869704
 40
0.3480227641
 40
0.3800629989
 40
0.4120864454
 40
0.4440721852
 40
0.4759999998
 40
0.5078507514
 40
0.539606747
 40
0.5712520844
 40
0.6027729741
 40
0.6341580282
 40
0.6653985103
 40
0.6964885434
 40
0.7274252693
 40
0.7582089521
 40
0.7888430164
 40
0.8193340226
 40
0.8496915737
 40
0.8799281515
 40
0.910058879
 40
0.9401012165
 40
0.9700745959
 40
1.0
 40
1.0
 40
1.0
 40
1.0
 10
8.6695640167
 20
9.4371196537
 30
0.0
 10
8.6695640167
 20
9.4201332562
 30
0.0
 10
8.6707872139
 20
9.3860652111
 30
0.0
 10
8.6762503507
 20
9.3351107597
 30
0.0
 10
8.685317583
 20
9.2844264443
 30
0.0
 10
8.6979422062
 20
9.2342750981
 30
0.0
 10
8.7140590965
 20
9.1849126323
 30
0.0
 10
8.7335853897
 20
9.1365919005
 30
0.0
 10
8.7564207879
 20
9.0895600808
 30
0.0
 10
8.7824481605
 20
9.0440578205
 30
0.0
 10
8.8115341297
 20
9.0003179214
 30
0.0
 10
8.8435297116
 20
8.9585641731
 30
0.0
 10
8.8782710472
 20
8.9190101808
 30
0.0
 10
8.9155803078
 20
8.8818583388
 30
0.0
 10
8.9552665796
 20
8.8472987995
 30
0.0
 10
8.9971268282
 20
8.815508517
 30
0.0
 10
9.0409468696
 20
8.7866502693
 30
0.0
 10
9.0865025205
 20
8.7608719055
 30
0.0
 10
9.1335607232
 20
8.7383055928
 30
0.0
 10
9.1818807244
 20
8.7190671615
 30
0.0
 10
9.2312152544
 20
8.7032554253
 30
0.0
 10
9.2813118037
 20
8.6909517098
 30
0.0
 10
9.3319139065
 20
8.6822194688
 30
0.0
 10
9.3827624282
 20
8.6771039531
 30
0.0
 10
9.4335968662
 20
8.6756319161
 30
0.0
 10
9.4841566802
 20
8.6778114173
 30
0.0
 10
9.5341826193
 20
8.6836318468
 30
0.0
 10
9.5834180439
 20
8.6930639411
 30
0.0
 10
9.63161021
 20
8.7060598845
 30
0.0
 10
9.6785116966
 20
8.7225534993
 30
0.0
 10
9.7238813282
 20
8.7424603826
 30
0.0
 10
9.7674867123
 20
8.7656793387
 30
0.0
 10
9.8091006785
 20
8.7920890537
 30
0.0
 10
9.8353950098
 20
8.8117492039
 30
0.0
 10
9.8481305159
 20
8.822056085
 30
0.0
  0
SPLINE
  5
370
100
AcDbEntity
  8
0
100
AcDbSpline
 62
7
  6
CONTINUOUS
 70
0
 71
3
 72
47
 73
43
 74
0
 42
0.0000001
 43
0.0000001
 44
0.0000000001
 40
0.0
 40
0.0
 40
0.0
 40
0.0
 40
0.0149719699
 40
0.0299469986
 40
0.0449281275
 40
0.0599183593
 40
0.0749206409
 40
0.0899378479
 40
0.1049727642
 40
0.1200280654
 40
0.1351063071
 40
0.1502099062
 40
0.1653411266
 40
0.1805020712
 40
0.195694667
 40
0.2109206532
 40
0.226181577
 40
0.2414787841
 40
0.2721808909
 40
0.30303905
 40
0.3340562704
 40
0.3652320501
 40
0.3965624391
 40
0.4280401707
 40
0.4596548674
 40
0.4913932962
 40
0.5232396724
 40
0.5551760134
 40
0.5871825188
 40
0.61923798
 40
0.6513202127
 40
0.6834065006
 40
0.7154740464
 40
0.7475004247
 40
0.7794640313
 40
0.8113445177
 40
0.8431232087
 40
0.8747834982
 40
0.9063112124
 40
0.9376949433
 40
0.9689261019
 40
1.0
 40
1.0
 40
1.0
 40
1.0
 10
9.7286031336
 20
8.5085356779
 30
0.0
 10
9.7213444617
 20
8.5015243498
 30
0.0
 10
9.7065451427
 20
8.487787338
 30
0.0
 10
9.6835424771
 20
8.4680779864
 30
0.0
 10
9.6597652932
 20
8.4492896368
 30
0.0
 10
9.6352467308
 20
8.4314486322
 30
0.0
 10
9.6100204748
 20
8.4145793208
 30
0.0
 10
9.5841212632
 20
8.3987049525
 30
0.0
 10
9.5575846922
 20
8.3838474262
 30
0.0
 10
9.5304473377
 20
8.3700270893
 30
0.0
 10
9.5027465383
 20
8.3572629495
 30
0.0
 10
9.4745203816
 20
8.3455726365
 30
0.0
 10
9.4458077474
 20
8.3349721284
 30
0.0
 10
9.4166481523
 20
8.3254759882
 30
0.0
 10
9.3870816522
 20
8.3170973482
 30
0.0
 10
9.3571491058
 20
8.3098476344
 30
0.0
 10
9.3268911274
 20
8.3037367552
 30
0.0
 10
9.2861250318
 20
8.2971112565
 30
0.0
 10
9.2345455036
 20
8.2917237029
 30
0.0
 10
9.1721124031
 20
8.2899221274
 30
0.0
 10
9.1093982888
 20
8.2927831577
 30
0.0
 10
9.0467502597
 20
8.3002907969
 30
0.0
 10
8.9845119036
 20
8.3124029875
 30
0.0
 10
8.9230251966
 20
8.3290524323
 30
0.0
 10
8.8626276867
 20
8.3501471327
 30
0.0
 10
8.8036509225
 20
8.3755707554
 30
0.0
 10
8.7464185114
 20
8.4051831689
 30
0.0
 10
8.691244529
 20
8.4388215202
 30
0.0
 10
8.6384317146
 20
8.4763008835
 30
0.0
 10
8.5882697857
 20
8.5174152653
 30
0.0
 10
8.5410340506
 20
8.5619389544
 30
0.0
 10
8.4969837345
 20
8.6096275056
 30
0.0
 10
8.4563605829
 20
8.6602191337
 30
0.0
 10
8.4193877446
 20
8.7134362822
 30
0.0
 10
8.3862682995
 20
8.7689869111
 30
0.0
 10
8.357184246
 20
8.8265661992
 30
0.0
 10
8.3322956824
 20
8.8858582225
 30
0.0
 10
8.3117396145
 20
8.9465376545
 30
0.0
 10
8.2956293727
 20
9.0082711134
 30
0.0
 10
8.2840541955
 20
9.070720826
 30
0.0
 10
8.2770780673
 20
9.1335393939
 30
0.0
 10
8.2755155615
 20
9.1755525385
 30
0.0
 10
8.2755155615
 20
9.1964980514
 30
0.0
  0
SPLINE
  5
371
100
AcDbEntity
  8
0
100
AcDbSpline
 62
7
  6
CONTINUOUS
 70
0
 71
3
 72
37
 73
33
 74
0
 42
0.0000001
 43
0.0000001
 44
0.0000000001
 40
0.0
 40
0.0
 40
0.0
 40
0.0
 40
0.0152620965
 40
0.0299463963
 40
0.0444446276
 40
0.0591286315
 40
0.0743261385
 40
0.0903060604
 40
0.107279022
 40
0.125403573
 40
0.1447964312
 40
0.165543891
 40
0.1877085705
 40
0.2113385094
 40
0.2364702603
 40
0.2631339854
 40
0.2913555182
 40
0.3211578073
 40
0.3525626523
 40
0.3855899797
 40
0.4202584759
 40
0.4565833873
 40
0.4945751052
 40
0.5342350932
 40
0.5755504954
 40
0.6184875501
 40
0.7089203065
 40
0.8044026137
 40
0.8533769415
 40
0.9026442599
 40
0.9517027359
 40
1.0
 40
1.0
 40
1.0
 40
1.0
 10
9.1884916871
 20
8.5697774963
 30
0.0
 10
9.1882231332
 20
8.5707119834
 30
0.0
 10
9.1878397534
 20
8.5725915984
 30
0.0
 10
9.1877594088
 20
8.5754358709
 30
0.0
 10
9.1881721474
 20
8.5782142128
 30
0.0
 10
9.1890579372
 20
8.5809124458
 30
0.0
 10
9.1903955276
 20
8.5835219924
 30
0.0
 10
9.192165238
 20
8.5860381394
 30
0.0
 10
9.1943502878
 20
8.5884586476
 30
0.0
 10
9.1969367051
 20
8.5907822036
 30
0.0
 10
9.1999126845
 20
8.5930078471
 30
0.0
 10
9.20326823
 20
8.5951344764
 30
0.0
 10
9.2069947157
 20
8.5971611642
 30
0.0
 10
9.2110848288
 20
8.5990868351
 30
0.0
 10
9.2155324275
 20
8.6009105605
 30
0.0
 10
9.2203324941
 20
8.6026313776
 30
0.0
 10
9.2254810864
 20
8.6042482653
 30
0.0
 10
9.2309752083
 20
8.6057602239
 30
0.0
 10
9.2368127165
 20
8.6071659682
 30
0.0
 10
9.242992104
 20
8.6084641436
 30
0.0
 10
9.2495122286
 20
8.6096530052
 30
0.0
 10
9.256371938
 20
8.6107304814
 30
0.0
 10
9.2635694693
 20
8.6116940839
 30
0.0
 10
9.271101658
 20
8.6125407469
 30
0.0
 10
9.2789628444
 20
8.6132669156
 30
0.0
 10
9.290062209
 20
8.6140828067
 30
0.0
 10
9.3046292824
 20
8.6147574772
 30
0.0
 10
9.3195948958
 20
8.6149578911
 30
0.0
 10
9.3319363288
 20
8.6148287578
 30
0.0
 10
9.3413175631
 20
8.614578608
 30
0.0
 10
9.35065027
 20
8.61417577
 30
0.0
 10
9.3568417127
 20
8.6138027359
 30
0.0
 10
9.3599112392
 20
8.6135898636
 30
0.0
  0
SPLINE
  5
372
100
AcDbEntity
  8
0
100
AcDbSpline
 62
7
  6
CONTINUOUS
 70
0
 71
3
 72
39
 73
35
 74
0
 42
0.0000001
 43
0.0000001
 44
0.0000000001
 40
0.0
 40
0.0
 40
0.0
 40
0.0
 40
0.031045078
 40
0.0622439285
 40
0.0935922995
 40
0.1250820221
 40
0.1567024445
 40
0.188440236
 40
0.2202797654
 40
0.2522034216
 40
0.2841919683
 40
0.3162249248
 40
0.3482809619
 40
0.3803383118
 40
0.4123751818
 40
0.4443701685
 40
0.4763026674
 40
0.5081532726
 40
0.5399041581
 40
0.5715394368
 40
0.6030454931
 40
0.6344112801
 40
0.6656285733
 40
0.6966921756
 40
0.7276000688
 40
0.7583535058
 40
0.7889570317
 40
0.819418434
 40
0.8497486182
 40
0.8799614094
 40
0.9100732777
 40
0.940102991
 40
0.9700712052
 40
1.0
 40
1.0
 40
1.0
 40
1.0
 10
8.6907772154
 20
9.4426100314
 30
0.0
 10
8.6907772154
 20
9.4257459454
 30
0.0
 10
8.6920080431
 20
9.3919218081
 30
0.0
 10
8.6975045724
 20
9.3413378675
 30
0.0
 10
8.7066262646
 20
9.2910328155
 30
0.0
 10
8.719324861
 20
9.2412745724
 30
0.0
 10
8.7355330736
 20
9.1923239032
 30
0.0
 10
8.7551653279
 20
9.1444383305
 30
0.0
 10
8.7781180511
 20
9.0978694227
 30
0.0
 10
8.8042703288
 20
9.0528618955
 30
0.0
 10
8.8334845142
 20
9.0096522345
 30
0.0
 10
8.8656069416
 20
8.9684675008
 30
0.0
 10
8.9004686625
 20
8.9295240867
 30
0.0
 10
8.9378864094
 20
8.8930266484
 30
0.0
 10
8.9776635374
 20
8.8591670384
 30
0.0
 10
9.0195910538
 20
8.8281233249
 30
0.0
 10
9.0634486514
 20
8.8000587975
 30
0.0
 10
9.1090058821
 20
8.7751211337
 30
0.0
 10
9.1560233765
 20
8.7534416683
 30
0.0
 10
9.2042540761
 20
8.7351347043
 30
0.0
 10
9.2534445026
 20
8.720296895
 30
0.0
 10
9.303336056
 20
8.709006659
 30
0.0
 10
9.3536663904
 20
8.7013238528
 30
0.0
 10
9.4041707624
 20
8.6972894301
 30
0.0
 10
9.4545834028
 20
8.6969252278
 30
0.0
 10
9.5046388981
 20
8.7002337318
 30
0.0
 10
9.5540735894
 20
8.7071980881
 30
0.0
 10
9.6026269562
 20
8.7177822018
 30
0.0
 10
9.6500429584
 20
8.7319308721
 30
0.0
 10
9.6960714935
 20
8.7495700952
 30
0.0
 10
9.7404694218
 20
8.7706070782
 30
0.0
 10
9.7830031207
 20
8.7949318902
 30
0.0
 10
9.823445008
 20
8.8224139462
 30
0.0
 10
9.8488868451
 20
8.8427580329
 30
0.0
 10
9.8611798125
 20
8.8533973927
 30
0.0
  0
SPLINE
  5
373
100
AcDbEntity
  8
0
100
AcDbSpline
 62
7
  6
CONTINUOUS
 70
0
 71
3
 72
39
 73
35
 74
0
 42
0.0000001
 43
0.0000001
 44
0.0000000001
 40
0.0
 40
0.0
 40
0.0
 40
0.0
 40
0.0310001463
 40
0.0621491444
 40
0.093443163
 40
0.124874741
 40
0.1564341983
 40
0.1881093664
 40
0.2198859538
 40
0.2517478108
 40
0.2836772405
 40
0.3156553282
 40
0.3476622869
 40
0.3796778132
 40
0.4116814511
 40
0.4436529567
 40
0.475572661
 40
0.5074218237
 40
0.5391829771
 40
0.5708402532
 40
0.6023796891
 40
0.6337895039
 40
0.6650603449
 40
0.6961854952
 40
0.7271610398
 40
0.7579859818
 40
0.7886623034
 40
0.8191949693
 40
0.8495918691
 40
0.8798636949
 40
0.9100237556
 40
0.9400877256
 40
0.9700733338
 40
1.0
 40
1.0
 40
1.0
 40
1.0
 10
8.7327108452
 20
9.4831148098
 30
0.0
 10
8.7327108452
 20
9.4667814488
 30
0.0
 10
8.7338652746
 20
9.4340249901
 30
0.0
 10
8.7390221742
 20
9.3850248363
 30
0.0
 10
8.747582347
 20
9.3362705789
 30
0.0
 10
8.7595033239
 20
9.2880058504
 30
0.0
 10
8.774725801
 20
9.2404679831
 30
0.0
 10
8.7931744095
 20
9.1938916431
 30
0.0
 10
8.8147578416
 20
9.1485064451
 30
0.0
 10
8.8393693912
 20
9.1045361713
 30
0.0
 10
8.8668874877
 20
9.0621975981
 30
0.0
 10
8.8971762887
 20
9.0216994657
 30
0.0
 10
8.9300863494
 20
8.9832414581
 30
0.0
 10
8.9654553374
 20
8.9470132216
 30
0.0
 10
9.0031088068
 20
8.9131934111
 30
0.0
 10
9.0428610912
 20
8.8819488523
 30
0.0
 10
9.084516202
 20
8.8534337232
 30
0.0
 10
9.1278687833
 20
8.8277888007
 30
0.0
 10
9.1727051132
 20
8.805140777
 30
0.0
 10
9.2188041206
 20
8.785601586
 30
0.0
 10
9.2659384877
 20
8.7692678885
 30
0.0
 10
9.3138757578
 20
8.7562206035
 30
0.0
 10
9.3623794624
 20
8.7465245011
 30
0.0
 10
9.4112102722
 20
8.7402278835
 30
0.0
 10
9.4601271567
 20
8.7373622969
 30
0.0
 10
9.508888569
 20
8.7379423565
 30
0.0
 10
9.5572536293
 20
8.7419656954
 30
0.0
 10
9.6049833095
 20
8.749412949
 30
0.0
 10
9.6518415856
 20
8.7602478119
 30
0.0
 10
9.6975966961
 20
8.7744172475
 30
0.0
 10
9.7420219861
 20
8.7918514336
 30
0.0
 10
9.7848982581
 20
8.812465051
 30
0.0
 10
9.8260103247
 20
8.836154302
 30
0.0
 10
9.8521331399
 20
8.8539381491
 30
0.0
 10
9.8648242888
 20
8.8632953482
 30
0.0
  0
SPLINE
  5
374
100
AcDbEntity
  8
0
100
AcDbSpline
 62
7
  6
CONTINUOUS
 70
0
 71
3
 72
23
 73
19
 74
0
 42
0.0000001
 43
0.0000001
 44
0.0000000001
 40
0.0
 40
0.0
 40
0.0
 40
0.0
 40
0.0637774724
 40
0.127344696
 40
0.1907020124
 40
0.2538561402
 40
0.3168131804
 40
0.3795820984
 40
0.4421733882
 40
0.5045993399
 40
0.5668738668
 40
0.6290123797
 40
0.6910316501
 40
0.7529496455
 40
0.8147853558
 40
0.8765586055
 40
0.9382898564
 40
1.0
 40
1.0
 40
1.0
 40
1.0
 10
8.4007635981
 20
9.2244783719
 30
0.0
 10
8.4007635981
 20
9.2365437288
 30
0.0
 10
8.4013410673
 20
9.2606387576
 30
0.0
 10
8.4039476229
 20
9.2966347809
 30
0.0
 10
8.4082874539
 20
9.3323453886
 30
0.0
 10
8.4143503373
 20
9.3676869353
 30
0.0
 10
8.4221225962
 20
9.4025784695
 30
0.0
 10
8.4315862948
 20
9.4369393877
 30
0.0
 10
8.4427197531
 20
9.4706905087
 30
0.0
 10
8.4554973571
 20
9.5037539921
 30
0.0
 10
8.4698897052
 20
9.536053591
 30
0.0
 10
8.485863671
 20
9.5675148078
 30
0.0
 10
8.5033824686
 20
9.5980650641
 30
0.0
 10
8.5224057646
 20
9.6276338953
 30
0.0
 10
8.5428896715
 20
9.6561530126
 30
0.0
 10
8.5647872064
 20
9.6835568432
 30
0.0
 10
8.5880469969
 20
9.7097813213
 30
0.0
 10
8.6044290335
 20
9.7264408044
 30
0.0
 10
8.6128258033
 20
9.7345514545
 30
0.0
  0
SPLINE
  5
375
100
AcDbEntity
  8
0
100
AcDbSpline
 62
7
  6
CONTINUOUS
 70
0
 71
3
 72
41
 73
37
 74
0
 42
0.0000001
 43
0.0000001
 44
0.0000000001
 40
0.0
 40
0.0
 40
0.0
 40
0.0
 40
0.0310519883
 40
0.0622585585
 40
0.0936153982
 40
0.1251141998
 40
0.1567441567
 40
0.1884917358
 40
0.2203410786
 40
0.2522743249
 40
0.2842719777
 40
0.3163132923
 40
0.3483766816
 40
0.3804401339
 40
0.4124816369
 40
0.4444796002
 40
0.4764132723
 40
0.5082631476
 40
0.5400113558
 40
0.5716420265
 40
0.6031416241
 40
0.6344992466
 40
0.6657068837
 40
0.6967596204
 40
0.7276557849
 40
0.7583970318
 40
0.7889883575
 40
0.8194380429
 40
0.8497575155
 40
0.8799611337
 40
0.9100658968
 40
0.9400910818
 40
0.9550832179
 40
0.9700635069
 40
0.9850348004
 40
1.0
 40
1.0
 40
1.0
 40
1.0
 10
8.7896614745
 20
9.4916248967
 30
0.0
 10
8.7896614745
 20
9.4757677404
 30
0.0
 10
8.7908248655
 20
9.4439626765
 30
0.0
 10
8.7960199936
 20
9.396400382
 30
0.0
 10
8.8046411373
 20
9.3491043131
 30
0.0
 10
8.8166422161
 20
9.3023289857
 30
0.0
 10
8.831958952
 20
9.2563220789
 30
0.0
 10
8.850509665
 20
9.2113281512
 30
0.0
 10
8.872195466
 20
9.1675860398
 30
0.0
 10
8.8969009204
 20
9.1253279934
 30
0.0
 10
8.924494632
 20
9.0847783523
 30
0.0
 10
8.9548299482
 20
9.046152411
 30
0.0
 10
8.9877456983
 20
9.0096552591
 30
0.0
 10
9.0230670291
 20
8.9754806827
 30
0.0
 10
9.0606063767
 20
8.943810189
 30
0.0
 10
9.1001644371
 20
8.9148120446
 30
0.0
 10
9.1415312194
 20
8.8886404047
 30
0.0
 10
9.1844871124
 20
8.8654344511
 30
0.0
 10
9.2288040506
 20
8.8453176581
 30
0.0
 10
9.274246732
 20
8.8283971839
 30
0.0
 10
9.3205738401
 20
8.8147632887
 30
0.0
 10
9.3675393077
 20
8.8044888672
 30
0.0
 10
9.4148935881
 20
8.7976289773
 30
0.0
 10
9.4623849833
 20
8.7942205738
 30
0.0
 10
9.509760964
 20
8.7942823237
 30
0.0
 10
9.5567694977
 20
8.7978144782
 30
0.0
 10
9.6031603611
 20
8.8047988427
 30
0.0
 10
9.6486865299
 20
8.8151987957
 30
0.0
 10
9.6931053214
 20
8.8289593956
 30
0.0
 10
9.7361803419
 20
8.8460081217
 30
0.0
 10
9.7776803443
 20
8.8662534723
 30
0.0
 10
9.8107895793
 20
8.8857129594
 30
0.0
 10
9.8362581416
 20
8.9027560849
 30
0.0
 10
9.8548257199
 20
8.9162573722
 30
0.0
 10
9.8728410558
 20
8.9304638414
 30
0.0
 10
9.8844697575
 20
8.9403947339
 30
0.0
 10
9.8901830767
 20
8.9454702837
 30
0.0
  0
SPLINE
  5
376
100
AcDbEntity
  8
0
100
AcDbSpline
 62
7
  6
CONTINUOUS
 70
0
 71
3
 72
39
 73
35
 74
0
 42
0.0000001
 43
0.0000001
 44
0.0000000001
 40
0.0
 40
0.0
 40
0.0
 40
0.0
 40
0.0307262854
 40
0.0615726856
 40
0.0925364964
 40
0.1236142241
 40
0.1548005438
 40
0.186088969
 40
0.2174717035
 40
0.2489398333
 40
0.2804834139
 40
0.312091606
 40
0.3437528058
 40
0.3754547865
 40
0.4071848444
 40
0.4389299477
 40
0.4706768898
 40
0.5024124422
 40
0.5341235095
 40
0.5657972813
 40
0.5974213834
 40
0.6289840248
 40
0.6604741395
 40
0.6918815228
 40
0.723196959
 40
0.754412341
 40
0.7855207786
 40
0.8165166951
 40
0.8473959102
 40
0.8781557079
 40
0.9087948874
 40
0.9393137965
 40
0.9697143455
 40
1.0
 40
1.0
 40
1.0
 40
1.0
 10
9.1011499382
 20
9.7924996662
 30
0.0
 10
9.1011499382
 20
9.7801654857
 30
0.0
 10
9.1018532366
 20
9.7554433064
 30
0.0
 10
9.1050000331
 20
9.7184121417
 30
0.0
 10
9.1102305656
 20
9.681473913
 30
0.0
 10
9.1175277273
 20
9.6447492398
 30
0.0
 10
9.1268679758
 20
9.6083558789
 30
0.0
 10
9.1382210636
 20
9.5724111415
 30
0.0
 10
9.1515503528
 20
9.5370306975
 30
0.0
 10
9.1668128228
 20
9.5023284404
 30
0.0
 10
9.1839592602
 20
9.46841606
 30
0.0
 10
9.2029343962
 20
9.4354027016
 30
0.0
 10
9.2236770926
 20
9.4033946143
 30
0.0
 10
9.246120535
 20
9.3724948118
 30
0.0
 10
9.270192448
 20
9.342802743
 30
0.0
 10
9.2958153267
 20
9.3144139747
 30
0.0
 10
9.3229066849
 20
9.2874198854
 30
0.0
 10
9.3513793188
 20
9.2619073732
 30
0.0
 10
9.3811415863
 20
9.2379585774
 30
0.0
 10
9.4120977
 20
9.2156506163
 30
0.0
 10
9.4441480331
 20
9.1950553386
 30
0.0
 10
9.4771894374
 20
9.1762390931
 30
0.0
 10
9.5111155745
 20
9.1592625169
 30
0.0
 10
9.5458172542
 20
9.1441803402
 30
0.0
 10
9.581182784
 20
9.1310412102
 30
0.0
 10
9.6170983255
 20
9.1198875345
 30
0.0
 10
9.6534482569
 20
9.1107553431
 30
0.0
 10
9.6901155455
 20
9.103674172
 30
0.0
 10
9.7269821081
 20
9.0986669634
 30
0.0
 10
9.7639292389
 20
9.0957499984
 30
0.0
 10
9.8008377997
 20
9.0949328088
 30
0.0
 10
9.8375893057
 20
9.0962182622
 30
0.0
 10
9.8740636894
 20
9.0996021051
 30
0.0
 10
9.8981651346
 20
9.103257164
 30
0.0
 10
9.9101265119
 20
9.1054309724
 30
0.0
  0
SPLINE
  5
377
100
AcDbEntity
  8
0
100
AcDbSpline
 62
7
  6
CONTINUOUS
 70
0
 71
3
 72
43
 73
39
 74
0
 42
0.0000001
 43
0.0000001
 44
0.0000000001
 40
0.0
 40
0.0
 40
0.0
 40
0.0
 40
0.0309419255
 40
0.0620265905
 40
0.0932506303
 40
0.1246074316
 40
0.1560884208
 40
0.1876827888
 40
0.2193778074
 40
0.2511590454
 40
0.283010627
 40
0.3149155066
 40
0.3468557566
 40
0.3788128662
 40
0.4107680474
 40
0.4427025443
 40
0.4745979411
 40
0.5064364668
 40
0.5382012915
 40
0.5698768138
 40
0.6014489312
 40
0.6329052926
 40
0.6642355266
 40
0.6954314433
 40
0.7264872047
 40
0.7573994604
 40
0.7881674405
 40
0.8187930057
 40
0.8340559563
 40
0.8492852085
 40
0.8644817243
 40
0.8796466276
 40
0.9098821506
 40
0.9400082935
 40
0.9550370349
 40
0.9700438539
 40
0.9850307946
 40
1.0
 40
1.0
 40
1.0
 40
1.0
 10
8.6241655001
 20
9.4402680515
 30
0.0
 10
8.6241655001
 20
9.4232435939
 30
0.0
 10
8.6253200743
 20
9.3891052706
 30
0.0
 10
8.6304794903
 20
9.3380220647
 30
0.0
 10
8.6390463779
 20
9.2871653038
 30
0.0
 10
8.6509815955
 20
9.2367691113
 30
0.0
 10
8.6662304492
 20
9.1870617972
 30
0.0
 10
8.6847233878
 20
9.138269423
 30
0.0
 10
8.7063760963
 20
9.0906136032
 30
0.0
 10
8.7310899486
 20
9.0443108266
 30
0.0
 10
8.7587524702
 20
8.9995714051
 30
0.0
 10
8.7892378441
 20
8.956598554
 30
0.0
 10
8.8224074794
 20
8.9155874735
 30
0.0
 10
8.8581106355
 20
8.8767244756
 30
0.0
 10
8.8961850683
 20
8.8401861113
 30
0.0
 10
8.9364577978
 20
8.8061384026
 30
0.0
 10
8.9787458861
 20
8.7747360976
 30
0.0
 10
9.0228572585
 20
8.7461219722
 30
0.0
 10
9.0685915688
 20
8.7204261926
 30
0.0
 10
9.115741084
 20
8.6977657018
 30
0.0
 10
9.1640916191
 20
8.6782436797
 30
0.0
 10
9.2134235196
 20
8.6619491081
 30
0.0
 10
9.2635126278
 20
8.648956357
 30
0.0
 10
9.3141313389
 20
8.6393248508
 30
0.0
 10
9.3650494336
 20
8.6330987656
 30
0.0
 10
9.4160358008
 20
8.6303068757
 30
0.0
 10
9.4668569259
 20
8.6309620554
 30
0.0
 10
9.5089311125
 20
8.6343832058
 30
0.0
 10
9.5422677273
 20
8.6388378803
 30
0.0
 10
9.5670596235
 20
8.6430277459
 30
0.0
 10
9.5916381964
 20
8.6480654554
 30
0.0
 10
9.6240522357
 20
8.655896112
 30
0.0
 10
9.6639127559
 20
8.6677706209
 30
0.0
 10
9.7027665182
 20
8.682402086
 30
0.0
 10
9.7330834471
 20
8.695705147
 30
0.0
 10
9.7554032193
 20
8.7064633791
 30
0.0
 10
9.7772947557
 20
8.7179968409
 30
0.0
 10
9.791595844
 20
8.72619904
 30
0.0
 10
9.7986655752
 20
8.7304243455
 30
0.0
  0
SPLINE
  5
378
100
AcDbEntity
  8
0
100
AcDbSpline
 62
7
  6
CONTINUOUS
 70
0
 71
3
 72
33
 73
29
 74
0
 42
0.0000001
 43
0.0000001
 44
0.0000000001
 40
0.0
 40
0.0
 40
0.0
 40
0.0
 40
0.0304445286
 40
0.0608955505
 40
0.0913595199
 40
0.1218428064
 40
0.1523516552
 40
0.1828921529
 40
0.2134701851
 40
0.2440913971
 40
0.2747611664
 40
0.3054845685
 40
0.3362663406
 40
0.3671108606
 40
0.3980221245
 40
0.4290037159
 40
0.4600587911
 40
0.4911900691
 40
0.52239981
 40
0.5536898046
 40
0.5850613771
 40
0.616515374
 40
0.679660373
 40
0.7431334766
 40
0.8069244996
 40
0.8710161769
 40
0.9353846364
 40
1.0
 40
1.0
 40
1.0
 40
1.0
 10
11.4189734298
 20
5.7350119201
 30
0.0
 10
11.4115567504
 20
5.7278479687
 30
0.0
 10
11.3964289329
 20
5.7138182159
 30
0.0
 10
11.3728988841
 20
5.6937098923
 30
0.0
 10
11.3485616804
 20
5.6745643108
 30
0.0
 10
11.3234527336
 20
5.6564094994
 30
0.0
 10
11.2976080449
 20
5.6392713452
 30
0.0
 10
11.2710647905
 20
5.6231744808
 30
0.0
 10
11.2438610572
 20
5.6081420884
 30
0.0
 10
11.216035969
 20
5.594195702
 30
0.0
 10
11.1876295206
 20
5.5813553021
 30
0.0
 10
11.1586824925
 20
5.5696393902
 30
0.0
 10
11.1292364858
 20
5.5590647558
 30
0.0
 10
11.0993338237
 20
5.5496465049
 30
0.0
 10
11.0690174411
 20
5.5413982018
 30
0.0
 10
11.0383308858
 20
5.5343316866
 30
0.0
 10
11.0073182494
 20
5.5284570025
 30
0.0
 10
10.9760240733
 20
5.5237825968
 30
0.0
 10
10.9444932541
 20
5.5203152136
 30
0.0
 10
10.9127712362
 20
5.5180596995
 30
0.0
 10
10.8809029866
 20
5.5170193409
 30
0.0
 10
10.8382287035
 20
5.5172544401
 30
0.0
 10
10.7847384283
 20
5.520601876
 30
0.0
 10
10.7207982237
 20
5.5294566835
 30
0.0
 10
10.657377832
 20
5.5431026519
 30
0.0
 10
10.5948422969
 20
5.5614614795
 30
0.0
 10
10.5335532843
 20
5.5844252414
 30
0.0
 10
10.4938181347
 20
5.6026895368
 30
0.0
 10
10.4742733019
 20
5.612536726
 30
0.0
  0
SPLINE
  5
379
100
AcDbEntity
  8
0
100
AcDbSpline
 62
7
  6
CONTINUOUS
 70
0
 71
3
 72
11
 73
7
 74
0
 42
0.0000001
 43
0.0000001
 44
0.0000000001
 40
0.0
 40
0.0
 40
0.0
 40
0.0
 40
0.2510785587
 40
0.5015636626
 40
0.7512620049
 40
1.0
 40
1.0
 40
1.0
 40
1.0
 10
10.1421182924
 20
5.894186758
 30
0.0
 10
10.1279108774
 20
5.9135706786
 30
0.0
 10
10.1010130182
 20
5.9534056155
 30
0.0
 10
10.0654766396
 20
6.016002074
 30
0.0
 10
10.0350191259
 20
6.0809740295
 30
0.0
 10
10.0182003775
 20
6.1256835688
 30
0.0
 10
10.0107081532
 20
6.1482830204
 30
0.0
  0
SPLINE
  5
37A
100
AcDbEntity
  8
0
100
AcDbSpline
 62
7
  6
CONTINUOUS
 70
0
 71
3
 72
39
 73
35
 74
0
 42
0.0000001
 43
0.0000001
 44
0.0000000001
 40
0.0
 40
0.0
 40
0.0
 40
0.0
 40
0.0055577178
 40
0.0111783515
 40
0.0169224939
 40
0.0228466025
 40
0.0290016501
 40
0.0354322917
 40
0.0492594105
 40
0.0567237334
 40
0.0645832027
 40
0.0728552336
 40
0.0815535905
 40
0.0906889511
 40
0.1002689297
 40
0.1207797723
 40
0.1431090779
 40
0.1672508467
 40
0.1931790703
 40
0.2208514629
 40
0.250212479
 40
0.2811953802
 40
0.3137236274
 40
0.3477121318
 40
0.3830684333
 40
0.4196935094
 40
0.4574823724
 40
0.4963248728
 40
0.5767054405
 40
0.6598768759
 40
0.7448320392
 40
0.8305351833
 40
0.9159380978
 40
1.0
 40
1.0
 40
1.0
 40
1.0
 10
12.0252761739
 20
10.1089661752
 30
0.0
 10
12.0252761799
 20
10.1094881466
 30
0.0
 10
12.0253346248
 20
10.1105389083
 30
0.0
 10
12.025596989
 20
10.1121094287
 30
0.0
 10
12.0260334922
 20
10.1136764584
 30
0.0
 10
12.0266433424
 20
10.1152381554
 30
0.0
 10
12.0274255949
 20
10.1167933084
 30
0.0
 10
12.0287283254
 20
10.1189072969
 30
0.0
 10
12.0303571597
 20
10.1209521261
 30
0.0
 10
12.0322561963
 20
10.1229253497
 30
0.0
 10
12.0338838324
 20
10.1244312192
 30
0.0
 10
12.0356766599
 20
10.1259238961
 30
0.0
 10
12.0376334972
 20
10.1274024931
 30
0.0
 10
12.0397527482
 20
10.1288658067
 30
0.0
 10
12.0428639937
 20
10.1308401752
 30
0.0
 10
12.0471605976
 20
10.133251685
 30
0.0
 10
12.052820552
 20
10.1360040562
 30
0.0
 10
12.0590789836
 20
10.1386687671
 30
0.0
 10
12.0659158406
 20
10.1412371828
 30
0.0
 10
12.0733093806
 20
10.1437009555
 30
0.0
 10
12.0812357668
 20
10.1460519703
 30
0.0
 10
12.0896693551
 20
10.1482824434
 30
0.0
 10
12.0985827351
 20
10.1503849912
 30
0.0
 10
12.1079468593
 20
10.1523526662
 30
0.0
 10
12.1177311722
 20
10.1541789511
 30
0.0
 10
12.1279037056
 20
10.1558577707
 30
0.0
 10
12.1384312167
 20
10.1573836242
 30
0.0
 10
12.1530623802
 20
10.1592282824
 30
0.0
 10
12.1719821678
 20
10.1611039134
 30
0.0
 10
12.1952735225
 20
10.1626564289
 30
0.0
 10
12.2191009529
 20
10.1635143414
 30
0.0
 10
12.2431528452
 20
10.1636662376
 30
0.0
 10
12.267114663
 20
10.1631100277
 30
0.0
 10
12.2830108968
 20
10.1622620128
 30
0.0
 10
12.2908869308
 20
10.161715808
 30
0.0
  0
SPLINE
  5
37B
100
AcDbEntity
  8
0
100
AcDbSpline
 62
7
  6
CONTINUOUS
 70
0
 71
3
 72
40
 73
36
 74
0
 42
0.0000001
 43
0.0000001
 44
0.0000000001
 40
0.0
 40
0.0
 40
0.0
 40
0.0
 40
0.0307246453
 40
0.0615692491
 40
0.0925310772
 40
0.1236066807
 40
0.1547907443
 40
0.1860768138
 40
0.2174571237
 40
0.2489227967
 40
0.2804639281
 40
0.3120697205
 40
0.3437286137
 40
0.3754284253
 40
0.4071564953
 40
0.4388998351
 40
0.4706452784
 40
0.5023796348
 40
0.5340898422
 40
0.5657631195
 40
0.597387116
 40
0.6289500579
 40
0.6604408895
 40
0.6918494089
 40
0.7231663949
 40
0.7543837266
 40
0.7854944912
 40
0.8164930804
 40
0.8473752735
 40
0.8781383056
 40
0.9087809186
 40
0.9393033952
 40
0.9545216707
 40
0.9697107329
 40
1.0
 40
1.0
 40
1.0
 40
1.0
 10
9.1482050101
 20
9.7995310679
 30
0.0
 10
9.1482050101
 20
9.7879173465
 30
0.0
 10
9.1488662674
 20
9.7646393007
 30
0.0
 10
9.1518249783
 20
9.7297710539
 30
0.0
 10
9.1567429222
 20
9.6949898598
 30
0.0
 10
9.1636040496
 20
9.6604089741
 30
0.0
 10
9.1723862973
 20
9.626138953
 30
0.0
 10
9.1830613019
 20
9.5922899474
 30
0.0
 10
9.1955947158
 20
9.558970568
 30
0.0
 10
9.2099462028
 20
9.5262877642
 30
0.0
 10
9.2260696209
 20
9.4943464227
 30
0.0
 10
9.2439131486
 20
9.4632490486
 30
0.0
 10
9.2634194597
 20
9.4330954359
 30
0.0
 10
9.2845259037
 20
9.40398235
 30
0.0
 10
9.3071647069
 20
9.3760032193
 30
0.0
 10
9.3312631888
 20
9.3492478375
 30
0.0
 10
9.3567439943
 20
9.323802077
 30
0.0
 10
9.3835253404
 20
9.2997476153
 30
0.0
 10
9.4115212774
 20
9.2771616743
 30
0.0
 10
9.4406419615
 20
9.2561167723
 30
0.0
 10
9.4707939427
 20
9.2366804933
 30
0.0
 10
9.5018804627
 20
9.2189152709
 30
0.0
 10
9.533801763
 20
9.2028781892
 30
0.0
 10
9.566455403
 20
9.1886207994
 30
0.0
 10
9.5997365854
 20
9.1761889549
 30
0.0
 10
9.6335384915
 20
9.1656226632
 30
0.0
 10
9.6677526153
 20
9.156955957
 30
0.0
 10
9.7022691307
 20
9.1502167848
 30
0.0
 10
9.7369771598
 20
9.1454269136
 30
0.0
 10
9.7717654283
 20
9.1426018785
 30
0.0
 10
9.8065214995
 20
9.1417508484
 30
0.0
 10
9.835395752
 20
9.1426901512
 30
0.0
 10
9.8583638447
 20
9.1444309788
 30
0.0
 10
9.8811839193
 20
9.1468237486
 30
0.0
 10
9.8981994777
 20
9.1493580694
 30
0.0
 10
9.9094696108
 20
9.151374791
 30
0.0
  0
SPLINE
  5
37C
100
AcDbEntity
  8
0
100
AcDbSpline
 62
7
  6
CONTINUOUS
 70
0
 71
3
 72
37
 73
33
 74
0
 42
0.0000001
 43
0.0000001
 44
0.0000000001
 40
0.0
 40
0.0
 40
0.0
 40
0.0
 40
0.0306365143
 40
0.061382443
 40
0.0922345686
 40
0.1231910988
 40
0.1542477143
 40
0.1853996298
 40
0.2166409381
 40
0.2479648689
 40
0.2793638325
 40
0.3108294983
 40
0.3423528855
 40
0.373924451
 40
0.4055341844
 40
0.4371717065
 40
0.5004690859
 40
0.5637483548
 40
0.5953634195
 40
0.6269420131
 40
0.658474058
 40
0.6899499273
 40
0.7213605402
 40
0.7526974529
 40
0.783952945
 40
0.815120103
 40
0.8461928965
 40
0.8771662462
 40
0.9080360836
 40
0.9387994017
 40
0.9694542965
 40
1.0
 40
1.0
 40
1.0
 40
1.0
 10
9.2665128231
 20
9.884727957
 30
0.0
 10
9.2665128231
 20
9.8746600533
 30
0.0
 10
9.2670335119
 20
9.8544845185
 30
0.0
 10
9.2693645074
 20
9.8242512537
 30
0.0
 10
9.2732408881
 20
9.7940703212
 30
0.0
 10
9.2786519761
 20
9.7640230683
 30
0.0
 10
9.2855835715
 20
9.7341886629
 30
0.0
 10
9.2940171236
 20
9.7046463655
 30
0.0
 10
9.303930268
 20
9.6754744478
 30
0.0
 10
9.3152966404
 20
9.6467502451
 30
0.0
 10
9.3280860529
 20
9.6185498813
 30
0.0
 10
9.3422645443
 20
9.5909481079
 30
0.0
 10
9.3577945371
 20
9.5640180326
 30
0.0
 10
9.3746346834
 20
9.5378311953
 30
0.0
 10
9.3927409249
 20
9.5124563885
 30
0.0
 10
9.4185055146
 20
9.4797965121
 30
0.0
 10
9.4536232869
 20
9.4413400641
 30
0.0
 10
9.492264217
 20
9.4064362128
 30
0.0
 10
9.5250471776
 20
9.3808666489
 30
0.0
 10
9.550497973
 20
9.3629203655
 30
0.0
 10
9.5767477319
 20
9.3462507159
 30
0.0
 10
9.6037275065
 20
9.3309013252
 30
0.0
 10
9.6313656301
 20
9.3169130741
 30
0.0
 10
9.6595889011
 20
9.304323049
 30
0.0
 10
9.6883225099
 20
9.2931647017
 30
0.0
 10
9.7174902977
 20
9.283467665
 30
0.0
 10
9.7470149364
 20
9.2752576966
 30
0.0
 10
9.7768181775
 20
9.2685566274
 30
0.0
 10
9.8068209281
 20
9.2633822971
 30
0.0
 10
9.8369439224
 20
9.2597485193
 30
0.0
 10
9.8671062072
 20
9.2576649984
 30
0.0
 10
9.8872257115
 20
9.257312682
 30
0.0
 10
9.8972634149
 20
9.2573974171
 30
0.0
  0
SPLINE
  5
37D
100
AcDbEntity
  8
0
100
AcDbSpline
 62
7
  6
CONTINUOUS
 70
0
 71
3
 72
39
 73
35
 74
0
 42
0.0000001
 43
0.0000001
 44
0.0000000001
 40
0.0
 40
0.0
 40
0.0
 40
0.0
 40
0.0055577178
 40
0.0111783515
 40
0.0169224939
 40
0.0228466025
 40
0.0290016501
 40
0.0354322917
 40
0.0492594105
 40
0.0567237334
 40
0.0645832027
 40
0.0728552336
 40
0.0815535905
 40
0.0906889511
 40
0.1002689297
 40
0.1207797723
 40
0.1431090779
 40
0.1672508467
 40
0.1931790703
 40
0.2208514629
 40
0.250212479
 40
0.2811953802
 40
0.3137236274
 40
0.3477121318
 40
0.3830684333
 40
0.4196935094
 40
0.4574823724
 40
0.4963248728
 40
0.5767054405
 40
0.6598768759
 40
0.7448320392
 40
0.8305351833
 40
0.9159380978
 40
1.0
 40
1.0
 40
1.0
 40
1.0
 10
13.4164273933
 20
11.4527151459
 30
0.0
 10
13.4164273993
 20
11.4532371173
 30
0.0
 10
13.4164858442
 20
11.454287879
 30
0.0
 10
13.4167482084
 20
11.4558583993
 30
0.0
 10
13.4171847116
 20
11.457425429
 30
0.0
 10
13.4177945618
 20
11.4589871261
 30
0.0
 10
13.4185768142
 20
11.4605422791
 30
0.0
 10
13.4198795448
 20
11.4626562675
 30
0.0
 10
13.421508379
 20
11.4647010968
 30
0.0
 10
13.4234074157
 20
11.4666743204
 30
0.0
 10
13.4250350517
 20
11.4681801899
 30
0.0
 10
13.4268278792
 20
11.4696728668
 30
0.0
 10
13.4287847165
 20
11.4711514637
 30
0.0
 10
13.4309039676
 20
11.4726147773
 30
0.0
 10
13.434015213
 20
11.4745891459
 30
0.0
 10
13.4383118169
 20
11.4770006557
 30
0.0
 10
13.4439717713
 20
11.4797530269
 30
0.0
 10
13.4502302029
 20
11.4824177378
 30
0.0
 10
13.45706706
 20
11.4849861534
 30
0.0
 10
13.4644605999
 20
11.4874499261
 30
0.0
 10
13.4723869862
 20
11.4898009409
 30
0.0
 10
13.4808205744
 20
11.492031414
 30
0.0
 10
13.4897339545
 20
11.4941339619
 30
0.0
 10
13.4990980787
 20
11.4961016368
 30
0.0
 10
13.5088823915
 20
11.4979279217
 30
0.0
 10
13.5190549249
 20
11.4996067414
 30
0.0
 10
13.529582436
 20
11.5011325949
 30
0.0
 10
13.5442135995
 20
11.5029772531
 30
0.0
 10
13.5631333871
 20
11.504852884
 30
0.0
 10
13.5864247418
 20
11.5064053996
 30
0.0
 10
13.6102521722
 20
11.5072633121
 30
0.0
 10
13.6343040645
 20
11.5074152082
 30
0.0
 10
13.6582658823
 20
11.5068589984
 30
0.0
 10
13.6741621162
 20
11.5060109835
 30
0.0
 10
13.6820381502
 20
11.5054647786
 30
0.0
  0
SPLINE
  5
37E
100
AcDbEntity
  8
0
100
AcDbSpline
 62
7
  6
CONTINUOUS
 70
0
 71
3
 72
40
 73
36
 74
0
 42
0.0000001
 43
0.0000001
 44
0.0000000001
 40
0.0
 40
0.0
 40
0.0
 40
0.0
 40
0.0307204968
 40
0.0615604897
 40
0.0925172405
 40
0.1235873664
 40
0.154765602
 40
0.186045571
 40
0.2174195939
 40
0.2488788918
 40
0.2804136665
 40
0.3120132341
 40
0.343666152
 40
0.3753603573
 40
0.4070833089
 40
0.4388221337
 40
0.4705637759
 40
0.5022951468
 40
0.5340032764
 40
0.5656754623
 40
0.5972994183
 40
0.6288634179
 40
0.660356434
 40
0.6917682728
 40
0.7230896998
 40
0.7543125578
 40
0.7854298742
 40
0.8164359572
 40
0.8473264785
 40
0.8780985424
 40
0.9087507373
 40
0.9392831717
 40
0.9545064918
 40
0.96970062
 40
1.0
 40
1.0
 40
1.0
 40
1.0
 10
9.1626487066
 20
9.8044029184
 30
0.0
 10
9.1626487066
 20
9.7930002279
 30
0.0
 10
9.1632953905
 20
9.7701453691
 30
0.0
 10
9.1661889657
 20
9.7359103773
 30
0.0
 10
9.1709987404
 20
9.7017596567
 30
0.0
 10
9.1777091316
 20
9.6678035468
 30
0.0
 10
9.186298737
 20
9.6341497519
 30
0.0
 10
9.1967400285
 20
9.6009055985
 30
0.0
 10
9.2089996754
 20
9.5681769219
 30
0.0
 10
9.2230385302
 20
9.5360679542
 30
0.0
 10
9.2388118095
 20
9.5046809348
 30
0.0
 10
9.2562692135
 20
9.4741158025
 30
0.0
 10
9.2753550949
 20
9.4444698765
 30
0.0
 10
9.2960086327
 20
9.415837549
 30
0.0
 10
9.318164026
 20
9.3883099873
 30
0.0
 10
9.341750702
 20
9.3619748447
 30
0.0
 10
9.3666935404
 20
9.336915984
 30
0.0
 10
9.3929131105
 20
9.3132132115
 30
0.0
 10
9.4203259222
 20
9.2909420233
 30
0.0
 10
9.4488446904
 20
9.2701733664
 30
0.0
 10
9.4783786123
 20
9.2509734146
 30
0.0
 10
9.508833654
 20
9.2334033584
 30
0.0
 10
9.5401128482
 20
9.2175192114
 30
0.0
 10
9.5721166
 20
9.2033716314
 30
0.0
 10
9.6047430018
 20
9.1910057601
 30
0.0
 10
9.6378881564
 20
9.1804610784
 30
0.0
 10
9.6714464993
 20
9.17177128
 30
0.0
 10
9.7053111536
 20
9.164964164
 30
0.0
 10
9.7393741883
 20
9.1600615401
 30
0.0
 10
9.7735272532
 20
9.1570791742
 30
0.0
 10
9.8076608311
 20
9.156026671
 30
0.0
 10
9.836028693
 20
9.1567615699
 30
0.0
 10
9.8586010303
 20
9.1583175008
 30
0.0
 10
9.8810327491
 20
9.1605116434
 30
0.0
 10
9.8977642651
 20
9.1628810728
 30
0.0
 10
9.9088490043
 20
9.1647809863
 30
0.0
  0
SPLINE
  5
37F
100
AcDbEntity
  8
0
100
AcDbSpline
 62
7
  6
CONTINUOUS
 70
0
 71
3
 72
47
 73
43
 74
0
 42
0.0000001
 43
0.0000001
 44
0.0000000001
 40
0.0
 40
0.0
 40
0.0
 40
0.0
 40
0.0063158967
 40
0.0126706977
 40
0.0191025471
 40
0.0256480963
 40
0.0323419829
 40
0.0392163382
 40
0.053614168
 40
0.0611948929
 40
0.0690566412
 40
0.077217773
 40
0.0856941569
 40
0.0944995551
 40
0.1036456891
 40
0.1131424521
 40
0.122998232
 40
0.1332198706
 40
0.1438129644
 40
0.1547820179
 40
0.1661303832
 40
0.1899727563
 40
0.2153522396
 40
0.2422681077
 40
0.2707104459
 40
0.3006614883
 40
0.3320967939
 40
0.3649861265
 40
0.3992940928
 40
0.4349806571
 40
0.4720016811
 40
0.5103093127
 40
0.5498522596
 40
0.5905760756
 40
0.6324234754
 40
0.6753345639
 40
0.7192469999
 40
0.7640961586
 40
0.8098155359
 40
0.8563366993
 40
0.9035889296
 40
1.0
 40
1.0
 40
1.0
 40
1.0
 10
13.1843087138
 20
10.252458749
 30
0.0
 10
13.1857876288
 20
10.2523561895
 30
0.0
 10
13.1887475812
 20
10.2520294014
 30
0.0
 10
13.1931543443
 20
10.2511775944
 30
0.0
 10
13.197531639
 20
10.2499641513
 30
0.0
 10
13.2018769339
 20
10.2483901273
 30
0.0
 10
13.2061884953
 20
10.246456342
 30
0.0
 10
13.2119777652
 20
10.2433530048
 30
0.0
 10
13.2176098297
 20
10.2395540578
 30
0.0
 10
13.2230602234
 20
10.2351516562
 30
0.0
 10
13.2271771223
 20
10.2314399185
 30
0.0
 10
13.2312500309
 20
10.227377387
 30
0.0
 10
13.2352779881
 20
10.2229655617
 30
0.0
 10
13.2392592984
 20
10.2182063037
 30
0.0
 10
13.2431925057
 20
10.2131015578
 30
0.0
 10
13.2470761426
 20
10.2076534394
 30
0.0
 10
13.2509086221
 20
10.2018641066
 30
0.0
 10
13.2546885007
 20
10.1957359444
 30
0.0
 10
13.2584142674
 20
10.1892714368
 30
0.0
 10
13.2620844215
 20
10.1824731664
 30
0.0
 10
13.2669826487
 20
10.1728078406
 30
0.0
 10
13.272939134
 20
10.1598927036
 30
0.0
 10
13.2797287171
 20
10.1433567606
 30
0.0
 10
13.2862621606
 20
10.1255635423
 30
0.0
 10
13.2925287489
 20
10.1065420691
 30
0.0
 10
13.2985182173
 20
10.0863230553
 30
0.0
 10
13.30422066
 20
10.0649394513
 30
0.0
 10
13.3096266052
 20
10.0424261657
 30
0.0
 10
13.3147270527
 20
10.0188200648
 30
0.0
 10
13.3195135321
 20
9.9941598866
 30
0.0
 10
13.3239780706
 20
9.9684861481
 30
0.0
 10
13.3281132155
 20
9.9418410639
 30
0.0
 10
13.3319120731
 20
9.9142684885
 30
0.0
 10
13.3353683284
 20
9.8858138378
 30
0.0
 10
13.3384762201
 20
9.8565239933
 30
0.0
 10
13.3412305539
 20
9.8264472213
 30
0.0
 10
13.3436267402
 20
9.7956331172
 30
0.0
 10
13.3456608039
 20
9.7641324807
 30
0.0
 10
13.3473293343
 20
9.7319972748
 30
0.0
 10
13.3486295573
 20
9.6992805297
 30
0.0
 10
13.3498774238
 20
9.6546571742
 30
0.0
 10
13.350239401
 20
9.6209347613
 30
0.0
 10
13.350239401
 20
9.5983051597
 30
0.0
  0
LINE
  5
380
100
AcDbEntity
  8
0
100
AcDbLine
 62
7
  6
CONTINUOUS
 10
13.1831152443
 20
10.2506317841
 11
13.1834118459
 21
10.2505300839
  0
SPLINE
  5
381
100
AcDbEntity
  8
0
100
AcDbSpline
 62
7
  6
CONTINUOUS
 70
0
 71
3
 72
38
 73
34
 74
0
 42
0.0000001
 43
0.0000001
 44
0.0000000001
 40
0.0
 40
0.0
 40
0.0
 40
0.0
 40
0.0063791219
 40
0.0129025488
 40
0.0264831844
 40
0.0409412543
 40
0.0564311928
 40
0.0730731829
 40
0.0909580536
 40
0.1101524398
 40
0.1307031965
 40
0.1526411628
 40
0.1759842663
 40
0.2007397447
 40
0.2269058933
 40
0.2544736091
 40
0.2834274114
 40
0.3137461889
 40
0.3454040349
 40
0.3783707728
 40
0.4126122675
 40
0.4480909336
 40
0.4847660664
 40
0.5225939789
 40
0.5615283276
 40
0.6015203732
 40
0.6425190561
 40
0.6844712216
 40
0.7273218223
 40
0.7710139885
 40
0.8154893687
 40
0.9065462167
 40
1.0
 40
1.0
 40
1.0
 40
1.0
 10
13.1834118459
 20
10.2505300839
 30
0.0
 10
13.18479696
 20
10.2500511191
 30
0.0
 10
13.1875641599
 20
10.2489797711
 30
0.0
 10
13.1930759369
 20
10.246393594
 30
0.0
 10
13.1999099559
 20
10.2423048383
 30
0.0
 10
13.2078449959
 20
10.2361866338
 30
0.0
 10
13.2156190076
 20
10.2288047097
 30
0.0
 10
13.2232237305
 20
10.2201724638
 30
0.0
 10
13.230652092
 20
10.2103026819
 30
0.0
 10
13.2378955943
 20
10.1992092707
 30
0.0
 10
13.2449453418
 20
10.1869076357
 30
0.0
 10
13.2517920493
 20
10.1734149833
 30
0.0
 10
13.2584262292
 20
10.1587503448
 30
0.0
 10
13.2648384319
 20
10.1429346559
 30
0.0
 10
13.2710194029
 20
10.1259907269
 30
0.0
 10
13.2769600521
 20
10.10794314
 30
0.0
 10
13.2826515681
 20
10.0888182242
 30
0.0
 10
13.288085532
 20
10.0686440175
 30
0.0
 10
13.2932538366
 20
10.0474501669
 30
0.0
 10
13.2981487308
 20
10.0252678817
 30
0.0
 10
13.3027629283
 20
10.0021299005
 30
0.0
 10
13.3070895299
 20
9.9780704072
 30
0.0
 10
13.3111220289
 20
9.9531249718
 30
0.0
 10
13.3148544098
 20
9.9273305132
 30
0.0
 10
13.3182810991
 20
9.9007252274
 30
0.0
 10
13.3213969405
 20
9.8733485191
 30
0.0
 10
13.3241972764
 20
9.8452409544
 30
0.0
 10
13.3266779368
 20
9.816444196
 30
0.0
 10
13.3288351771
 20
9.7870009469
 30
0.0
 10
13.3306658048
 20
9.7569548054
 30
0.0
 10
13.3326831145
 20
9.7158270527
 30
0.0
 10
13.3343525336
 20
9.6632399702
 30
0.0
 10
13.3347845861
 20
9.6208477388
 30
0.0
 10
13.3347845861
 20
9.5993769548
 30
0.0
  0
SPLINE
  5
382
100
AcDbEntity
  8
0
100
AcDbSpline
 62
7
  6
CONTINUOUS
 70
0
 71
3
 72
55
 73
51
 74
0
 42
0.0000001
 43
0.0000001
 44
0.0000000001
 40
0.0
 40
0.0
 40
0.0
 40
0.0
 40
0.0095826639
 40
0.0187373708
 40
0.0274872976
 40
0.0358601787
 40
0.0515987248
 40
0.0590566275
 40
0.0662994341
 40
0.0733806919
 40
0.0803580067
 40
0.0872918487
 40
0.0942439195
 40
0.1012754116
 40
0.1084452701
 40
0.1158088351
 40
0.1234167667
 40
0.1313144418
 40
0.1395418806
 40
0.1481336405
 40
0.1571193757
 40
0.1665240815
 40
0.1763686062
 40
0.1866702607
 40
0.1974429738
 40
0.2086980296
 40
0.2204441544
 40
0.2326879214
 40
0.2454341264
 40
0.2586857202
 40
0.2724443657
 40
0.2867102902
 40
0.3014825692
 40
0.3167593158
 40
0.3325375156
 40
0.3655813371
 40
0.4005759764
 40
0.4374710758
 40
0.4762069245
 40
0.5167156135
 40
0.5589219391
 40
0.6027441732
 40
0.6480947474
 40
0.6948808414
 40
0.7430048542
 40
0.7923648598
 40
0.8428552772
 40
0.8943660602
 40
0.9467869958
 40
1.0
 40
1.0
 40
1.0
 40
1.0
 10
13.1099300568
 20
10.0196668368
 30
0.0
 10
13.1112877098
 20
10.0209304052
 30
0.0
 10
13.114001816
 20
10.0233384867
 30
0.0
 10
13.1181659123
 20
10.0266535899
 30
0.0
 10
13.1223262779
 20
10.0295852715
 30
0.0
 10
13.12775086
 20
10.0329106819
 30
0.0
 10
13.1332850301
 20
10.0355659681
 30
0.0
 10
13.1388780151
 20
10.0374364473
 30
0.0
 10
13.1429829528
 20
10.038422018
 30
0.0
 10
13.1470691217
 20
10.0390136475
 30
0.0
 10
13.1511336827
 20
10.0392103619
 30
0.0
 10
13.1551732181
 20
10.039011617
 30
0.0
 10
13.15918434
 20
10.0384176494
 30
0.0
 10
13.1631636828
 20
10.0374289926
 30
0.0
 10
13.167108218
 20
10.0360470835
 30
0.0
 10
13.1710151767
 20
10.0342734269
 30
0.0
 10
13.1748821462
 20
10.0321099027
 30
0.0
 10
13.1787070353
 20
10.0295585485
 30
0.0
 10
13.1824877754
 20
10.0266212786
 30
0.0
 10
13.1862225949
 20
10.023300322
 30
0.0
 10
13.1899095644
 20
10.0195977671
 30
0.0
 10
13.1935468562
 20
10.0155159421
 30
0.0
 10
13.1971326437
 20
10.0110573133
 30
0.0
 10
13.2006649356
 20
10.0062244341
 30
0.0
 10
13.2041419368
 20
10.0010201869
 30
0.0
 10
13.2075616335
 20
9.9954475352
 30
0.0
 10
13.2109221414
 20
9.9895097365
 30
0.0
 10
13.2142215705
 20
9.983210249
 30
0.0
 10
13.2174579378
 20
9.9765527156
 30
0.0
 10
13.2206294643
 20
9.9695410643
 30
0.0
 10
13.2237342041
 20
9.9621793758
 30
0.0
 10
13.2267703782
 20
9.9544719906
 30
0.0
 10
13.2297361953
 20
9.9464234493
 30
0.0
 10
13.2326298751
 20
9.9380384743
 30
0.0
 10
13.2364485898
 20
9.9262341369
 30
0.0
 10
13.2410132024
 20
9.9106635605
 30
0.0
 10
13.246096145
 20
9.8909974514
 30
0.0
 10
13.2508532191
 20
9.8701187714
 30
0.0
 10
13.2552730045
 20
9.8480769699
 30
0.0
 10
13.2593448285
 20
9.8249240456
 30
0.0
 10
13.2630588694
 20
9.8007148295
 30
0.0
 10
13.266406172
 20
9.7755067104
 30
0.0
 10
13.2693786608
 20
9.749359507
 30
0.0
 10
13.2719691607
 20
9.7223353029
 30
0.0
 10
13.2741714131
 20
9.6944983002
 30
0.0
 10
13.2759801049
 20
9.6659146221
 30
0.0
 10
13.2773908432
 20
9.6366523478
 30
0.0
 10
13.278400281
 20
9.6067807574
 30
0.0
 10
13.2790058695
 20
9.5763713064
 30
0.0
 10
13.2791385373
 20
9.5559261086
 30
0.0
 10
13.2791385373
 20
9.5456269959
 30
0.0
  0
SPLINE
  5
383
100
AcDbEntity
  8
0
100
AcDbSpline
 62
7
  6
CONTINUOUS
 70
0
 71
3
 72
39
 73
35
 74
0
 42
0.0000001
 43
0.0000001
 44
0.0000000001
 40
0.0
 40
0.0
 40
0.0
 40
0.0
 40
0.0063160491
 40
0.0126710089
 40
0.019103006
 40
0.0256487279
 40
0.0323427881
 40
0.0392173003
 40
0.0536155166
 40
0.0690526872
 40
0.0856860716
 40
0.1036344498
 40
0.1229845769
 40
0.1437975301
 40
0.1661136406
 40
0.1899565753
 40
0.2153367087
 40
0.2422532797
 40
0.2706962806
 40
0.300648064
 40
0.3320841712
 40
0.3649742887
 40
0.3992830905
 40
0.4349705326
 40
0.4719924421
 40
0.5103010171
 40
0.5498449152
 40
0.5905696897
 40
0.632418122
 40
0.6753302534
 40
0.7192436955
 40
0.8098127278
 40
0.9035864748
 40
1.0
 40
1.0
 40
1.0
 40
1.0
 10
13.0970485448
 20
9.987861781
 30
0.0
 10
13.0980711085
 20
9.987790872
 30
0.0
 10
13.1001177013
 20
9.9875648871
 30
0.0
 10
13.1031646508
 20
9.986975883
 30
0.0
 10
13.1061912483
 20
9.9861369185
 30
0.0
 10
13.1091957
 20
9.9850485379
 30
0.0
 10
13.1121768021
 20
9.9837114606
 30
0.0
 10
13.1161798203
 20
9.98156567
 30
0.0
 10
13.1211331533
 20
9.978224359
 30
0.0
 10
13.1268625218
 20
9.9732991469
 30
0.0
 10
13.1324642331
 20
9.967407871
 30
0.0
 10
13.1379317925
 20
9.9605614487
 30
0.0
 10
13.1432593469
 20
9.9527706312
 30
0.0
 10
13.1484398307
 20
9.944047384
 30
0.0
 10
13.1534659141
 20
9.9344051228
 30
0.0
 10
13.1583300518
 20
9.9238588863
 30
0.0
 10
13.16302457
 20
9.9124252896
 30
0.0
 10
13.1675419484
 20
9.9001225863
 30
0.0
 10
13.1718748635
 20
9.886970589
 30
0.0
 10
13.1760161416
 20
9.8729905893
 30
0.0
 10
13.1799589537
 20
9.8582053498
 30
0.0
 10
13.1836967837
 20
9.8426390265
 30
0.0
 10
13.1872233715
 20
9.8263171008
 30
0.0
 10
13.1905328684
 20
9.8092663559
 30
0.0
 10
13.1936197811
 20
9.7915148076
 30
0.0
 10
13.1964789248
 20
9.7730916439
 30
0.0
 10
13.1991055586
 20
9.7540271915
 30
0.0
 10
13.2014953218
 20
9.7343528465
 30
0.0
 10
13.2036441833
 20
9.7141010272
 30
0.0
 10
13.2055486283
 20
9.6933050842
 30
0.0
 10
13.2077805499
 20
9.6646019597
 30
0.0
 10
13.2099188983
 20
9.6276160692
 30
0.0
 10
13.2114461439
 20
9.5820744353
 30
0.0
 10
13.211777578
 20
9.5512080654
 30
0.0
 10
13.211777578
 20
9.5355613018
 30
0.0
  0
SPLINE
  5
384
100
AcDbEntity
  8
0
100
AcDbSpline
 62
7
  6
CONTINUOUS
 70
0
 71
3
 72
15
 73
11
 74
0
 42
0.0000001
 43
0.0000001
 44
0.0000000001
 40
0.0
 40
0.0
 40
0.0
 40
0.0
 40
0.1268939865
 40
0.2531828769
 40
0.3788863967
 40
0.5040324877
 40
0.6286616275
 40
0.7528244117
 40
0.8765810151
 40
1.0
 40
1.0
 40
1.0
 40
1.0
 10
8.6241655001
 20
9.4402680515
 30
0.0
 10
8.6241655001
 20
9.4576397955
 30
0.0
 10
8.6253621054
 20
9.4923127823
 30
0.0
 10
8.6307690462
 20
9.5439404173
 30
0.0
 10
8.6397581172
 20
9.5948263951
 30
0.0
 10
8.6522870313
 20
9.6447240735
 30
0.0
 10
8.6682960711
 20
9.6933949919
 30
0.0
 10
8.6877096054
 20
9.7406065384
 30
0.0
 10
8.7104330149
 20
9.7861294336
 30
0.0
 10
8.7277411968
 20
9.8152480814
 30
0.0
 10
8.7369036656
 20
9.8294440165
 30
0.0
  0
SPLINE
  5
385
100
AcDbEntity
  8
0
100
AcDbSpline
 62
7
  6
CONTINUOUS
 70
0
 71
3
 72
39
 73
35
 74
0
 42
0.0000001
 43
0.0000001
 44
0.0000000001
 40
0.0
 40
0.0
 40
0.0
 40
0.0
 40
0.030641764
 40
0.0613936365
 40
0.0922526646
 40
0.1232167908
 40
0.1542816727
 40
0.1854424001
 40
0.2166929295
 40
0.2480263444
 40
0.2794348858
 40
0.3109100442
 40
0.3424426501
 40
0.3740229665
 40
0.4056407877
 40
0.4372855407
 40
0.4689463886
 40
0.5006123379
 40
0.5322723456
 40
0.5639154273
 40
0.5955307638
 40
0.6271078065
 40
0.6586363813
 40
0.6901067896
 40
0.7215099077
 40
0.7528372811
 40
0.7840812134
 40
0.8152348489
 40
0.8462922491
 40
0.8772484612
 40
0.9080995782
 40
0.9388427916
 40
0.9694764322
 40
1.0
 40
1.0
 40
1.0
 40
1.0
 10
9.2420179288
 20
9.8810677045
 30
0.0
 10
9.2420179288
 20
9.8705860669
 30
0.0
 10
9.24256426
 20
9.849581139
 30
0.0
 10
9.2450099942
 20
9.8181059358
 30
0.0
 10
9.2490770092
 20
9.7866869835
 30
0.0
 10
9.2547539929
 20
9.7554102373
 30
0.0
 10
9.2620257687
 20
9.7243594446
 30
0.0
 10
9.2708725801
 20
9.6936183711
 30
0.0
 10
9.2812705856
 20
9.6632697412
 30
0.0
 10
9.2931917196
 20
9.6333952759
 30
0.0
 10
9.3066038259
 20
9.6040753947
 30
0.0
 10
9.3214707388
 20
9.5753890222
 30
0.0
 10
9.3377523884
 20
9.5474133751
 30
0.0
 10
9.3554049074
 20
9.5202237568
 30
0.0
 10
9.3743807478
 20
9.4938933569
 30
0.0
 10
9.3946288082
 20
9.4684930553
 30
0.0
 10
9.4160945719
 20
9.4440912352
 30
0.0
 10
9.4387202369
 20
9.4207535851
 30
0.0
 10
9.4624448837
 20
9.3985429305
 30
0.0
 10
9.4872046427
 20
9.3775190704
 30
0.0
 10
9.5129328635
 20
9.3577386163
 30
0.0
 10
9.5395602932
 20
9.339254842
 30
0.0
 10
9.5670152603
 20
9.3221175398
 30
0.0
 10
9.5952238678
 20
9.306372891
 30
0.0
 10
9.624110181
 20
9.2920633231
 30
0.0
 10
9.6535964379
 20
9.279227403
 30
0.0
 10
9.6836032606
 20
9.2678997424
 30
0.0
 10
9.7140498682
 20
9.2581109028
 30
0.0
 10
9.744854283
 20
9.2498873135
 30
0.0
 10
9.7759335835
 20
9.2432512
 30
0.0
 10
9.8072039944
 20
9.238220524
 30
0.0
 10
9.8385815993
 20
9.2348089266
 30
0.0
 10
9.8699807427
 20
9.233025653
 30
0.0
 10
9.8909117905
 20
9.2329254976
 30
0.0
 10
9.9013506017
 20
9.2331491284
 30
0.0
  0
SPLINE
  5
386
100
AcDbEntity
  8
0
100
AcDbSpline
 62
7
  6
CONTINUOUS
 70
0
 71
3
 72
52
 73
48
 74
0
 42
0.0000001
 43
0.0000001
 44
0.0000000001
 40
0.0
 40
0.0
 40
0.0
 40
0.0
 40
0.0053945006
 40
0.0109244505
 40
0.0166450214
 40
0.0226055109
 40
0.0288488346
 40
0.0354115066
 40
0.0423240605
 40
0.0496115776
 40
0.057294392
 40
0.0653886617
 40
0.0739070243
 40
0.0828590283
 40
0.0922516554
 40
0.1020895954
 40
0.1123756478
 40
0.1231108737
 40
0.134294911
 40
0.1459260381
 40
0.1580014323
 40
0.1705171734
 40
0.1834684657
 40
0.196849601
 40
0.2106541569
 40
0.224874933
 40
0.2395041339
 40
0.2545332871
 40
0.2857542814
 40
0.318460395
 40
0.3525658213
 40
0.3879781005
 40
0.4245988613
 40
0.4623244803
 40
0.5010466849
 40
0.5406531163
 40
0.5810278651
 40
0.6220519882
 40
0.6636040116
 40
0.7055604246
 40
0.7477961692
 40
0.7901851227
 40
0.8326005834
 40
0.8749157426
 40
0.9170041901
 40
0.9587403328
 40
1.0
 40
1.0
 40
1.0
 40
1.0
 10
13.0552429304
 20
8.5077142484
 30
0.0
 10
13.0573329274
 20
8.507852628
 30
0.0
 10
13.0615529769
 20
8.5083711612
 30
0.0
 10
13.0678572847
 20
8.5098435684
 30
0.0
 10
13.0741888565
 20
8.5120143862
 30
0.0
 10
13.0805414478
 20
8.5148796908
 30
0.0
 10
13.0869107576
 20
8.5184355906
 30
0.0
 10
13.0932924992
 20
8.5226780105
 30
0.0
 10
13.0996825105
 20
8.5276029115
 30
0.0
 10
13.1060766227
 20
8.5332059689
 30
0.0
 10
13.112470452
 20
8.5394826658
 30
0.0
 10
13.1188595667
 20
8.5464280108
 30
0.0
 10
13.1252392944
 20
8.5540366497
 30
0.0
 10
13.1316049644
 20
8.5623026587
 30
0.0
 10
13.1379517072
 20
8.5712196729
 30
0.0
 10
13.144274714
 20
8.5807807358
 30
0.0
 10
13.1505690186
 20
8.590978424
 30
0.0
 10
13.1568297595
 20
8.6018047333
 30
0.0
 10
13.1630519474
 20
8.6132511909
 30
0.0
 10
13.1692307273
 20
8.6253087656
 30
0.0
 10
13.1753611365
 20
8.6379679654
 30
0.0
 10
13.1814383665
 20
8.6512187657
 30
0.0
 10
13.1874575158
 20
8.6650506932
 30
0.0
 10
13.1934138504
 20
8.6794527683
 30
0.0
 10
13.199302558
 20
8.6944135775
 30
0.0
 10
13.2051189915
 20
8.7099212236
 30
0.0
 10
13.2108584873
 20
8.725963408
 30
0.0
 10
13.2184995423
 20
8.7483332708
 30
0.0
 10
13.2278061084
 20
8.7775476737
 30
0.0
 10
13.2384594913
 20
8.8140939886
 30
0.0
 10
13.2487011147
 20
8.8524445839
 30
0.0
 10
13.2584981287
 20
8.8924773921
 30
0.0
 10
13.2678190832
 20
8.9340652093
 30
0.0
 10
13.2766340831
 20
8.9770756986
 30
0.0
 10
13.2849148671
 20
9.0213719532
 30
0.0
 10
13.2926349017
 20
9.0668129131
 30
0.0
 10
13.2997694621
 20
9.113253835
 30
0.0
 10
13.3062957103
 20
9.1605467597
 30
0.0
 10
13.3121927661
 20
9.2085409911
 30
0.0
 10
13.3174417729
 20
9.2570835812
 30
0.0
 10
13.3220259563
 20
9.3060198226
 30
0.0
 10
13.3259306775
 20
9.3551937445
 30
0.0
 10
13.3291434791
 20
9.4044486158
 30
0.0
 10
13.3316541265
 20
9.4536274367
 30
0.0
 10
13.3334546367
 20
9.5025734898
 30
0.0
 10
13.33453931
 20
9.5511306349
 30
0.0
 10
13.3347845861
 20
9.5833566786
 30
0.0
 10
13.3347845861
 20
9.5993769548
 30
0.0
  0
SPLINE
  5
387
100
AcDbEntity
  8
0
100
AcDbSpline
 62
7
  6
CONTINUOUS
 70
0
 71
3
 72
56
 73
52
 74
0
 42
0.0000001
 43
0.0000001
 44
0.0000000001
 40
0.0
 40
0.0
 40
0.0
 40
0.0
 40
0.0079608544
 40
0.0154478132
 40
0.0224996375
 40
0.0291647107
 40
0.0355021364
 40
0.0415820376
 40
0.0474849494
 40
0.053299511
 40
0.0591188064
 40
0.0650356762
 40
0.071138087
 40
0.0775055915
 40
0.0842072224
 40
0.0913009485
 40
0.0988341557
 40
0.1068446681
 40
0.1153621399
 40
0.1244091541
 40
0.1340025748
 40
0.1441542563
 40
0.1548721061
 40
0.1661604692
 40
0.1780208755
 40
0.1904522762
 40
0.2034514965
 40
0.2170134589
 40
0.2311313786
 40
0.2457970404
 40
0.2610007904
 40
0.2767318697
 40
0.2929782807
 40
0.3097271309
 40
0.3269644676
 40
0.3446755656
 40
0.3814551013
 40
0.419933218
 40
0.4599659324
 40
0.5014000718
 40
0.5440744868
 40
0.5878211746
 40
0.6324663426
 40
0.6778314309
 40
0.7237341115
 40
0.7699892647
 40
0.8164099682
 40
0.8628083992
 40
0.9089970192
 40
0.9547888796
 40
1.0
 40
1.0
 40
1.0
 40
1.0
 10
13.0217037343
 20
8.7474823822
 30
0.0
 10
13.0232671249
 20
8.7455600979
 30
0.0
 10
13.0264205876
 20
8.7419246319
 30
0.0
 10
13.0313932902
 20
8.7369839339
 30
0.0
 10
13.0364543033
 20
8.732734695
 30
0.0
 10
13.0415996465
 20
8.7291830528
 30
0.0
 10
13.0468251735
 20
8.7263348023
 30
0.0
 10
13.0521258678
 20
8.7241963262
 30
0.0
 10
13.0574949121
 20
8.7227733367
 30
0.0
 10
13.0629236712
 20
8.7220706734
 30
0.0
 10
13.0684019828
 20
8.7220901856
 30
0.0
 10
13.0739195847
 20
8.7228311176
 30
0.0
 10
13.0794674063
 20
8.7242897128
 30
0.0
 10
13.0850381102
 20
8.7264610707
 30
0.0
 10
13.0906259491
 20
8.7293396722
 30
0.0
 10
13.0962260706
 20
8.7329201977
 30
0.0
 10
13.1018339003
 20
8.7371974964
 30
0.0
 10
13.107444889
 20
8.7421662902
 30
0.0
 10
13.1130540929
 20
8.7478211705
 30
0.0
 10
13.118656508
 20
8.7541560763
 30
0.0
 10
13.124246643
 20
8.7611645259
 30
0.0
 10
13.1298190863
 20
8.7688391773
 30
0.0
 10
13.1353680371
 20
8.777172121
 30
0.0
 10
13.140887842
 20
8.7861545899
 30
0.0
 10
13.1463726146
 20
8.7957771732
 30
0.0
 10
13.151816584
 20
8.8060296777
 30
0.0
 10
13.157213915
 20
8.8169012281
 30
0.0
 10
13.1625588065
 20
8.8283802468
 30
0.0
 10
13.1678455457
 20
8.8404544649
 30
0.0
 10
13.1730683705
 20
8.8531109743
 30
0.0
 10
13.1782217226
 20
8.8663361909
 30
0.0
 10
13.1832999417
 20
8.8801159353
 30
0.0
 10
13.1882976353
 20
8.8944353869
 30
0.0
 10
13.1932092967
 20
8.9092791563
 30
0.0
 10
13.1980297348
 20
8.9246312764
 30
0.0
 10
13.20440853
 20
8.9460262233
 30
0.0
 10
13.2120977684
 20
8.9739257327
 30
0.0
 10
13.220769168
 20
9.008749114
 30
0.0
 10
13.2289592615
 20
9.0451750295
 30
0.0
 10
13.2366324651
 20
9.0830465448
 30
0.0
 10
13.2437554208
 20
9.1222006894
 30
0.0
 10
13.2502972018
 20
9.1624687877
 30
0.0
 10
13.256229423
 20
9.2036773234
 30
0.0
 10
13.261526366
 20
9.2456486725
 30
0.0
 10
13.2661650844
 20
9.2882018904
 30
0.0
 10
13.2701255047
 20
9.3311535014
 30
0.0
 10
13.2733905024
 20
9.3743182894
 30
0.0
 10
13.2759459973
 20
9.4175101352
 30
0.0
 10
13.2777809659
 20
9.4605427493
 30
0.0
 10
13.2788875757
 20
9.5032304949
 30
0.0
 10
13.2791385373
 20
9.5315552696
 30
0.0
 10
13.2791385373
 20
9.5456269959
 30
0.0
  0
SPLINE
  5
388
100
AcDbEntity
  8
0
100
AcDbSpline
 62
7
  6
CONTINUOUS
 70
0
 71
3
 72
51
 73
47
 74
0
 42
0.0000001
 43
0.0000001
 44
0.0000000001
 40
0.0
 40
0.0
 40
0.0
 40
0.0
 40
0.0053769317
 40
0.0108199656
 40
0.0163926618
 40
0.0221538371
 40
0.0281562445
 40
0.0344457463
 40
0.0410614403
 40
0.0480358567
 40
0.0553957533
 40
0.0631626643
 40
0.0713537144
 40
0.0799821867
 40
0.0890580936
 40
0.0985886999
 40
0.1085788107
 40
0.1190312701
 40
0.1299470115
 40
0.1413255495
 40
0.1531648654
 40
0.1654618808
 40
0.1782122635
 40
0.1914108456
 40
0.2050514313
 40
0.2191271185
 40
0.248551348
 40
0.279614893
 40
0.3122384767
 40
0.3463344289
 40
0.3818076772
 40
0.4185565907
 40
0.4564737218
 40
0.4954464801
 40
0.5353577563
 40
0.5760865123
 40
0.6175083489
 40
0.6594960566
 40
0.7019201577
 40
0.7446494351
 40
0.7875514768
 40
0.8304931524
 40
0.8733412865
 40
0.9159627719
 40
0.9582260942
 40
1.0
 40
1.0
 40
1.0
 40
1.0
 10
13.0133358251
 20
8.7807610543
 30
0.0
 10
13.0147851203
 20
8.7806605539
 30
0.0
 10
13.0177159693
 20
8.7806271132
 30
0.0
 10
13.0221304725
 20
8.7810827198
 30
0.0
 10
13.0265695992
 20
8.7820424769
 30
0.0
 10
13.031028028
 20
8.7835038305
 30
0.0
 10
13.0355019909
 20
8.7854641859
 30
0.0
 10
13.0399881477
 20
8.7879204011
 30
0.0
 10
13.044483324
 20
8.7908696809
 30
0.0
 10
13.0489846045
 20
8.7943088805
 30
0.0
 10
13.0534888611
 20
8.7982349766
 30
0.0
 10
13.0579930113
 20
8.8026445714
 30
0.0
 10
13.0624937583
 20
8.8075340951
 30
0.0
 10
13.0669877511
 20
8.812899595
 30
0.0
 10
13.0714715576
 20
8.8187367616
 30
0.0
 10
13.0759416243
 20
8.8250409301
 30
0.0
 10
13.0803944597
 20
8.8318069914
 30
0.0
 10
13.0848263947
 20
8.8390295126
 30
0.0
 10
13.0892339318
 20
8.8467025902
 30
0.0
 10
13.0936133595
 20
8.8548200161
 30
0.0
 10
13.0979612004
 20
8.8633751204
 30
0.0
 10
13.1022737592
 20
8.8723609337
 30
0.0
 10
13.1065475898
 20
8.8817700534
 30
0.0
 10
13.1107790505
 20
8.8915947706
 30
0.0
 10
13.1149647655
 20
8.9018269911
 30
0.0
 10
13.1205628877
 20
8.9162155738
 30
0.0
 10
13.1274042211
 20
8.9351681841
 30
0.0
 10
13.1352608937
 20
8.9590705035
 30
0.0
 10
13.1428551972
 20
8.9843780525
 30
0.0
 10
13.1501618267
 20
9.0110073329
 30
0.0
 10
13.1571564173
 20
9.0388706728
 30
0.0
 10
13.163815661
 20
9.0678761328
 30
0.0
 10
13.1701173777
 20
9.0979279527
 30
0.0
 10
13.1760405898
 20
9.1289268511
 30
0.0
 10
13.1815655904
 20
9.1607703764
 30
0.0
 10
13.1866740076
 20
9.1933532522
 30
0.0
 10
13.1913488635
 20
9.2265677333
 30
0.0
 10
13.1955746297
 20
9.2603039676
 30
0.0
 10
13.1993372771
 20
9.2944503632
 30
0.0
 10
13.2026243234
 20
9.3288939639
 30
0.0
 10
13.205424868
 20
9.3635208154
 30
0.0
 10
13.2077296433
 20
9.398216378
 30
0.0
 10
13.2095310108
 20
9.4328658132
 30
0.0
 10
13.2108230533
 20
9.467354609
 30
0.0
 10
13.2116014862
 20
9.5015684472
 30
0.0
 10
13.211777578
 20
9.5242745464
 30
0.0
 10
13.211777578
 20
9.5355613018
 30
0.0
  0
SPLINE
  5
389
100
AcDbEntity
  8
0
100
AcDbSpline
 62
7
  6
CONTINUOUS
 70
0
 71
3
 72
47
 73
43
 74
0
 42
0.0000001
 43
0.0000001
 44
0.0000000001
 40
0.0
 40
0.0
 40
0.0
 40
0.0
 40
0.0063158967
 40
0.0126706977
 40
0.0191025471
 40
0.0256480963
 40
0.0323419829
 40
0.0392163382
 40
0.053614168
 40
0.0611948929
 40
0.0690566412
 40
0.077217773
 40
0.0856941569
 40
0.0944995551
 40
0.1036456891
 40
0.1131424521
 40
0.122998232
 40
0.1332198706
 40
0.1438129644
 40
0.1547820179
 40
0.1661303832
 40
0.1899727563
 40
0.2153522396
 40
0.2422681077
 40
0.2707104459
 40
0.3006614883
 40
0.3320967939
 40
0.3649861265
 40
0.3992940928
 40
0.4349806571
 40
0.4720016811
 40
0.5103093127
 40
0.5498522596
 40
0.5905760756
 40
0.6324234754
 40
0.6753345639
 40
0.7192469999
 40
0.7640961586
 40
0.8098155359
 40
0.8563366993
 40
0.9035889296
 40
1.0
 40
1.0
 40
1.0
 40
1.0
 10
13.8634492847
 20
10.908458205
 30
0.0
 10
13.8649281998
 20
10.9083556455
 30
0.0
 10
13.8678881522
 20
10.9080288574
 30
0.0
 10
13.8722949152
 20
10.9071770504
 30
0.0
 10
13.8766722099
 20
10.9059636073
 30
0.0
 10
13.8810175048
 20
10.9043895833
 30
0.0
 10
13.8853290662
 20
10.902455798
 30
0.0
 10
13.8911183361
 20
10.8993524608
 30
0.0
 10
13.8967504007
 20
10.8955535138
 30
0.0
 10
13.9022007944
 20
10.8911511122
 30
0.0
 10
13.9063176932
 20
10.8874393745
 30
0.0
 10
13.9103906019
 20
10.883376843
 30
0.0
 10
13.914418559
 20
10.8789650177
 30
0.0
 10
13.9183998693
 20
10.8742057597
 30
0.0
 10
13.9223330766
 20
10.8691010138
 30
0.0
 10
13.9262167135
 20
10.8636528954
 30
0.0
 10
13.930049193
 20
10.8578635626
 30
0.0
 10
13.9338290716
 20
10.8517354004
 30
0.0
 10
13.9375548383
 20
10.8452708928
 30
0.0
 10
13.9412249924
 20
10.8384726224
 30
0.0
 10
13.9461232197
 20
10.8288072966
 30
0.0
 10
13.9520797049
 20
10.8158921596
 30
0.0
 10
13.9588692881
 20
10.7993562166
 30
0.0
 10
13.9654027315
 20
10.7815629983
 30
0.0
 10
13.9716693199
 20
10.7625415251
 30
0.0
 10
13.9776587882
 20
10.7423225113
 30
0.0
 10
13.9833612309
 20
10.7209389073
 30
0.0
 10
13.9887671762
 20
10.6984256217
 30
0.0
 10
13.9938676236
 20
10.6748195208
 30
0.0
 10
13.998654103
 20
10.6501593426
 30
0.0
 10
14.0031186415
 20
10.6244856041
 30
0.0
 10
14.0072537864
 20
10.5978405199
 30
0.0
 10
14.011052644
 20
10.5702679445
 30
0.0
 10
14.0145088993
 20
10.5418132938
 30
0.0
 10
14.017616791
 20
10.5125234493
 30
0.0
 10
14.0203711248
 20
10.4824466773
 30
0.0
 10
14.0227673112
 20
10.4516325732
 30
0.0
 10
14.0248013748
 20
10.4201319367
 30
0.0
 10
14.0264699052
 20
10.3879967308
 30
0.0
 10
14.0277701282
 20
10.3552799857
 30
0.0
 10
14.0290179948
 20
10.3106566302
 30
0.0
 10
14.0293799719
 20
10.2769342173
 30
0.0
 10
14.0293799719
 20
10.2543046157
 30
0.0
  0
LINE
  5
38A
100
AcDbEntity
  8
0
100
AcDbLine
 62
7
  6
CONTINUOUS
 10
13.8622558152
 20
10.9066312401
 11
13.8625524168
 21
10.9065295399
  0
SPLINE
  5
38B
100
AcDbEntity
  8
0
100
AcDbSpline
 62
7
  6
CONTINUOUS
 70
0
 71
3
 72
38
 73
34
 74
0
 42
0.0000001
 43
0.0000001
 44
0.0000000001
 40
0.0
 40
0.0
 40
0.0
 40
0.0
 40
0.0063791219
 40
0.0129025488
 40
0.0264831844
 40
0.0409412543
 40
0.0564311928
 40
0.0730731829
 40
0.0909580536
 40
0.1101524398
 40
0.1307031965
 40
0.1526411628
 40
0.1759842663
 40
0.2007397447
 40
0.2269058933
 40
0.2544736091
 40
0.2834274114
 40
0.3137461889
 40
0.3454040349
 40
0.3783707728
 40
0.4126122675
 40
0.4480909336
 40
0.4847660664
 40
0.5225939789
 40
0.5615283276
 40
0.6015203732
 40
0.6425190561
 40
0.6844712216
 40
0.7273218223
 40
0.7710139885
 40
0.8154893687
 40
0.9065462167
 40
1.0
 40
1.0
 40
1.0
 40
1.0
 10
13.8625524168
 20
10.9065295399
 30
0.0
 10
13.8639375309
 20
10.9060505751
 30
0.0
 10
13.8667047308
 20
10.9049792271
 30
0.0
 10
13.8722165079
 20
10.90239305
 30
0.0
 10
13.8790505268
 20
10.8983042943
 30
0.0
 10
13.8869855668
 20
10.8921860898
 30
0.0
 10
13.8947595785
 20
10.8848041657
 30
0.0
 10
13.9023643014
 20
10.8761719198
 30
0.0
 10
13.9097926629
 20
10.8663021379
 30
0.0
 10
13.9170361653
 20
10.8552087267
 30
0.0
 10
13.9240859127
 20
10.8429070917
 30
0.0
 10
13.9309326202
 20
10.8294144393
 30
0.0
 10
13.9375668001
 20
10.8147498008
 30
0.0
 10
13.9439790028
 20
10.7989341119
 30
0.0
 10
13.9501599738
 20
10.7819901829
 30
0.0
 10
13.956100623
 20
10.763942596
 30
0.0
 10
13.961792139
 20
10.7448176802
 30
0.0
 10
13.9672261029
 20
10.7246434735
 30
0.0
 10
13.9723944075
 20
10.7034496229
 30
0.0
 10
13.9772893017
 20
10.6812673377
 30
0.0
 10
13.9819034992
 20
10.6581293565
 30
0.0
 10
13.9862301008
 20
10.6340698632
 30
0.0
 10
13.9902625998
 20
10.6091244278
 30
0.0
 10
13.9939949807
 20
10.5833299692
 30
0.0
 10
13.9974216701
 20
10.5567246834
 30
0.0
 10
14.0005375114
 20
10.5293479751
 30
0.0
 10
14.0033378473
 20
10.5012404104
 30
0.0
 10
14.0058185077
 20
10.472443652
 30
0.0
 10
14.007975748
 20
10.4430004029
 30
0.0
 10
14.0098063757
 20
10.4129542614
 30
0.0
 10
14.0118236854
 20
10.3718265087
 30
0.0
 10
14.0134931045
 20
10.3192394262
 30
0.0
 10
14.013925157
 20
10.2768471948
 30
0.0
 10
14.013925157
 20
10.2553764108
 30
0.0
  0
SPLINE
  5
38C
100
AcDbEntity
  8
0
100
AcDbSpline
 62
7
  6
CONTINUOUS
 70
0
 71
3
 72
23
 73
19
 74
0
 42
0.0000001
 43
0.0000001
 44
0.0000000001
 40
0.0
 40
0.0
 40
0.0
 40
0.0
 40
0.0636927421
 40
0.1271992643
 40
0.1905166964
 40
0.2536515655
 40
0.3166079154
 40
0.3793919885
 40
0.4420114712
 40
0.5044751376
 40
0.5667930496
 40
0.6289764101
 40
0.6910374828
 40
0.7529895024
 40
0.8148465758
 40
0.8766235804
 40
0.9383360408
 40
1.0
 40
1.0
 40
1.0
 40
1.0
 10
8.6695640167
 20
9.4371196537
 30
0.0
 10
8.6695640167
 20
9.4472507764
 30
0.0
 10
8.6699972954
 20
9.4674861342
 30
0.0
 10
8.6719522894
 20
9.4977360769
 30
0.0
 10
8.6752082222
 20
9.5277851681
 30
0.0
 10
8.6797588261
 20
9.5575770181
 30
0.0
 10
8.6855960048
 20
9.587057364
 30
0.0
 10
8.6927089678
 20
9.6161718388
 30
0.0
 10
8.7010846535
 20
9.6448669306
 30
0.0
 10
8.7107077616
 20
9.6730898495
 30
0.0
 10
8.7215606354
 20
9.7007886652
 30
0.0
 10
8.7336233002
 20
9.7279124417
 30
0.0
 10
8.7468735997
 20
9.7544112747
 30
0.0
 10
8.7612872481
 20
9.7802363915
 30
0.0
 10
8.7768377029
 20
9.8053402299
 30
0.0
 10
8.7934964873
 20
9.829676779
 30
0.0
 10
8.8112324281
 20
9.8532006498
 30
0.0
 10
8.8237579579
 20
9.8683186559
 30
0.0
 10
8.8301874016
 20
9.8757259056
 30
0.0
  0
SPLINE
  5
38D
100
AcDbEntity
  8
0
100
AcDbSpline
 62
7
  6
CONTINUOUS
 70
0
 71
3
 72
55
 73
51
 74
0
 42
0.0000001
 43
0.0000001
 44
0.0000000001
 40
0.0
 40
0.0
 40
0.0
 40
0.0
 40
0.0095826639
 40
0.0187373708
 40
0.0274872976
 40
0.0358601787
 40
0.0515987248
 40
0.0590566275
 40
0.0662994341
 40
0.0733806919
 40
0.0803580067
 40
0.0872918487
 40
0.0942439195
 40
0.1012754116
 40
0.1084452701
 40
0.1158088351
 40
0.1234167667
 40
0.1313144418
 40
0.1395418806
 40
0.1481336405
 40
0.1571193757
 40
0.1665240815
 40
0.1763686062
 40
0.1866702607
 40
0.1974429738
 40
0.2086980296
 40
0.2204441544
 40
0.2326879214
 40
0.2454341264
 40
0.2586857202
 40
0.2724443657
 40
0.2867102902
 40
0.3014825692
 40
0.3167593158
 40
0.3325375156
 40
0.3655813371
 40
0.4005759764
 40
0.4374710758
 40
0.4762069245
 40
0.5167156135
 40
0.5589219391
 40
0.6027441732
 40
0.6480947474
 40
0.6948808414
 40
0.7430048542
 40
0.7923648598
 40
0.8428552772
 40
0.8943660602
 40
0.9467869958
 40
1.0
 40
1.0
 40
1.0
 40
1.0
 10
13.7890706278
 20
10.6756662928
 30
0.0
 10
13.7904282808
 20
10.6769298612
 30
0.0
 10
13.7931423869
 20
10.6793379427
 30
0.0
 10
13.7973064832
 20
10.6826530459
 30
0.0
 10
13.8014668488
 20
10.6855847275
 30
0.0
 10
13.8068914309
 20
10.6889101379
 30
0.0
 10
13.812425601
 20
10.6915654241
 30
0.0
 10
13.818018586
 20
10.6934359033
 30
0.0
 10
13.8221235238
 20
10.694421474
 30
0.0
 10
13.8262096926
 20
10.6950131035
 30
0.0
 10
13.8302742537
 20
10.6952098179
 30
0.0
 10
13.834313789
 20
10.695011073
 30
0.0
 10
13.838324911
 20
10.6944171054
 30
0.0
 10
13.8423042537
 20
10.6934284486
 30
0.0
 10
13.846248789
 20
10.6920465395
 30
0.0
 10
13.8501557477
 20
10.6902728829
 30
0.0
 10
13.8540227171
 20
10.6881093587
 30
0.0
 10
13.8578476062
 20
10.6855580045
 30
0.0
 10
13.8616283464
 20
10.6826207346
 30
0.0
 10
13.8653631658
 20
10.679299778
 30
0.0
 10
13.8690501354
 20
10.6755972231
 30
0.0
 10
13.8726874272
 20
10.6715153981
 30
0.0
 10
13.8762732146
 20
10.6670567693
 30
0.0
 10
13.8798055065
 20
10.6622238901
 30
0.0
 10
13.8832825078
 20
10.6570196429
 30
0.0
 10
13.8867022044
 20
10.6514469912
 30
0.0
 10
13.8900627123
 20
10.6455091925
 30
0.0
 10
13.8933621414
 20
10.639209705
 30
0.0
 10
13.8965985087
 20
10.6325521716
 30
0.0
 10
13.8997700352
 20
10.6255405203
 30
0.0
 10
13.902874775
 20
10.6181788318
 30
0.0
 10
13.9059109491
 20
10.6104714466
 30
0.0
 10
13.9088767663
 20
10.6024229053
 30
0.0
 10
13.9117704461
 20
10.5940379303
 30
0.0
 10
13.9155891608
 20
10.5822335929
 30
0.0
 10
13.9201537733
 20
10.5666630165
 30
0.0
 10
13.9252367159
 20
10.5469969074
 30
0.0
 10
13.9299937901
 20
10.5261182274
 30
0.0
 10
13.9344135754
 20
10.5040764259
 30
0.0
 10
13.9384853994
 20
10.4809235016
 30
0.0
 10
13.9421994403
 20
10.4567142855
 30
0.0
 10
13.9455467429
 20
10.4315061664
 30
0.0
 10
13.9485192318
 20
10.405358963
 30
0.0
 10
13.9511097316
 20
10.3783347589
 30
0.0
 10
13.953311984
 20
10.3504977563
 30
0.0
 10
13.9551206758
 20
10.3219140781
 30
0.0
 10
13.9565314141
 20
10.2926518038
 30
0.0
 10
13.9575408519
 20
10.2627802134
 30
0.0
 10
13.9581464404
 20
10.2323707624
 30
0.0
 10
13.9582791082
 20
10.2119255646
 30
0.0
 10
13.9582791082
 20
10.2016264519
 30
0.0
  0
SPLINE
  5
38E
100
AcDbEntity
  8
0
100
AcDbSpline
 62
7
  6
CONTINUOUS
 70
0
 71
3
 72
37
 73
33
 74
0
 42
0.0000001
 43
0.0000001
 44
0.0000000001
 40
0.0
 40
0.0
 40
0.0
 40
0.0
 40
0.0306184205
 40
0.0613441469
 40
0.0921733033
 40
0.1231047474
 40
0.1541343129
 40
0.1852575151
 40
0.2164688633
 40
0.2477620047
 40
0.2791298382
 40
0.3105645467
 40
0.3420576881
 40
0.3736002787
 40
0.4051828799
 40
0.4367956841
 40
0.5000539163
 40
0.5633100866
 40
0.5949203349
 40
0.6264993908
 40
0.6580374781
 40
0.6895251998
 40
0.7209536242
 40
0.7523143676
 40
0.7835996803
 40
0.8148025259
 40
0.8459166508
 40
0.8769366471
 40
0.9078580128
 40
0.938677209
 40
0.9693917028
 40
1.0
 40
1.0
 40
1.0
 40
1.0
 10
9.3689009668
 20
9.8776273151
 30
0.0
 10
9.3689009668
 20
9.8695121403
 30
0.0
 10
9.3693109804
 20
9.8532504481
 30
0.0
 10
9.3711466455
 20
9.8288800685
 30
0.0
 10
9.3741996626
 20
9.8045479378
 30
0.0
 10
9.3784618971
 20
9.7803167671
 30
0.0
 10
9.3839227536
 20
9.7562474087
 30
0.0
 10
9.3905682811
 20
9.7324009337
 30
0.0
 10
9.3983816005
 20
9.708837633
 30
0.0
 10
9.4073428966
 20
9.685617129
 30
0.0
 10
9.4174294585
 20
9.6627981655
 30
0.0
 10
9.4286157564
 20
9.6404384948
 30
0.0
 10
9.4408734738
 20
9.6185946431
 30
0.0
 10
9.4541714327
 20
9.5973219865
 30
0.0
 10
9.4684764148
 20
9.5766738524
 30
0.0
 10
9.4888444975
 20
9.550044427
 30
0.0
 10
9.5166317156
 20
9.5185823515
 30
0.0
 10
9.5472459007
 20
9.4898646352
 30
0.0
 10
9.5732510959
 20
9.4687087827
 30
0.0
 10
9.5934590111
 20
9.4537931168
 30
0.0
 10
9.6143208098
 20
9.4398658739
 30
0.0
 10
9.6357841884
 20
9.4269618462
 30
0.0
 10
9.6577947311
 20
9.4151138351
 30
0.0
 10
9.680296806
 20
9.4043518461
 30
0.0
 10
9.7032334678
 20
9.3947031376
 30
0.0
 10
9.7265466847
 20
9.3861921393
 30
0.0
 10
9.7501774698
 20
9.3788404308
 30
0.0
 10
9.7740660532
 20
9.3726666791
 30
0.0
 10
9.79815193
 20
9.3676865909
 30
0.0
 10
9.8223743559
 20
9.3639127824
 30
0.0
 10
9.8466712084
 20
9.3613548936
 30
0.0
 10
9.8629079389
 20
9.3604629582
 30
0.0
 10
9.8710168645
 20
9.360222447
 30
0.0
  0
SPLINE
  5
38F
100
AcDbEntity
  8
0
100
AcDbSpline
 62
7
  6
CONTINUOUS
 70
0
 71
3
 72
39
 73
35
 74
0
 42
0.0000001
 43
0.0000001
 44
0.0000000001
 40
0.0
 40
0.0
 40
0.0
 40
0.0
 40
0.0063160491
 40
0.0126710089
 40
0.019103006
 40
0.0256487279
 40
0.0323427881
 40
0.0392173003
 40
0.0536155166
 40
0.0690526872
 40
0.0856860716
 40
0.1036344498
 40
0.1229845769
 40
0.1437975301
 40
0.1661136406
 40
0.1899565753
 40
0.2153367087
 40
0.2422532797
 40
0.2706962806
 40
0.300648064
 40
0.3320841712
 40
0.3649742887
 40
0.3992830905
 40
0.4349705326
 40
0.4719924421
 40
0.5103010171
 40
0.5498449152
 40
0.5905696897
 40
0.632418122
 40
0.6753302534
 40
0.7192436955
 40
0.8098127278
 40
0.9035864748
 40
1.0
 40
1.0
 40
1.0
 40
1.0
 10
13.7761891157
 20
10.643861237
 30
0.0
 10
13.7772116794
 20
10.643790328
 30
0.0
 10
13.7792582722
 20
10.6435643431
 30
0.0
 10
13.7823052217
 20
10.642975339
 30
0.0
 10
13.7853318192
 20
10.6421363745
 30
0.0
 10
13.788336271
 20
10.6410479939
 30
0.0
 10
13.7913173731
 20
10.6397109166
 30
0.0
 10
13.7953203912
 20
10.637565126
 30
0.0
 10
13.8002737242
 20
10.634223815
 30
0.0
 10
13.8060030927
 20
10.6292986029
 30
0.0
 10
13.811604804
 20
10.623407327
 30
0.0
 10
13.8170723634
 20
10.6165609047
 30
0.0
 10
13.8223999178
 20
10.6087700873
 30
0.0
 10
13.8275804016
 20
10.60004684
 30
0.0
 10
13.832606485
 20
10.5904045788
 30
0.0
 10
13.8374706227
 20
10.5798583423
 30
0.0
 10
13.8421651409
 20
10.5684247456
 30
0.0
 10
13.8466825193
 20
10.5561220423
 30
0.0
 10
13.8510154344
 20
10.542970045
 30
0.0
 10
13.8551567125
 20
10.5289900453
 30
0.0
 10
13.8590995246
 20
10.5142048058
 30
0.0
 10
13.8628373547
 20
10.4986384825
 30
0.0
 10
13.8663639424
 20
10.4823165568
 30
0.0
 10
13.8696734394
 20
10.4652658119
 30
0.0
 10
13.872760352
 20
10.4475142636
 30
0.0
 10
13.8756194958
 20
10.4290910999
 30
0.0
 10
13.8782461295
 20
10.4100266475
 30
0.0
 10
13.8806358927
 20
10.3903523025
 30
0.0
 10
13.8827847542
 20
10.3701004832
 30
0.0
 10
13.8846891993
 20
10.3493045402
 30
0.0
 10
13.8869211208
 20
10.3206014157
 30
0.0
 10
13.8890594693
 20
10.2836155252
 30
0.0
 10
13.8905867149
 20
10.2380738913
 30
0.0
 10
13.8909181489
 20
10.2072075214
 30
0.0
 10
13.8909181489
 20
10.1915607578
 30
0.0
  0
SPLINE
  5
390
100
AcDbEntity
  8
0
100
AcDbSpline
 62
7
  6
CONTINUOUS
 70
0
 71
3
 72
53
 73
49
 74
0
 42
0.0000001
 43
0.0000001
 44
0.0000000001
 40
0.0
 40
0.0
 40
0.0
 40
0.0
 40
0.0417740113
 40
0.0840369498
 40
0.1266584959
 40
0.1695064843
 40
0.2124480935
 40
0.2553500426
 40
0.298079237
 40
0.3405032536
 40
0.382490879
 40
0.4239126346
 40
0.4646413116
 40
0.5045525112
 40
0.543525196
 40
0.5814422576
 40
0.6181911067
 40
0.6536642972
 40
0.6877601986
 40
0.720383738
 40
0.7361160079
 40
0.7514479787
 40
0.7663699923
 40
0.7808730391
 40
0.7949486907
 40
0.8085892839
 40
0.8217878242
 40
0.8345382246
 40
0.8468351953
 40
0.858674535
 40
0.8700530305
 40
0.8809687964
 40
0.8914212207
 40
0.9014113515
 40
0.9109419335
 40
0.9200178526
 40
0.9286463131
 40
0.9368373658
 40
0.9446042772
 40
0.9519641672
 40
0.9589385932
 40
0.9655542738
 40
0.9718437889
 40
0.9778461802
 40
0.9836073652
 40
0.9891800467
 40
0.99462308
 40
1.0
 40
1.0
 40
1.0
 40
1.0
 10
14.0293799719
 20
10.2543046157
 30
0.0
 10
14.0293799719
 20
10.2379807323
 30
0.0
 10
14.029125302
 20
10.2051413961
 30
0.0
 10
14.0279994527
 20
10.1556585896
 30
0.0
 10
14.0261308192
 20
10.1057782136
 30
0.0
 10
14.0235255273
 20
10.0556653846
 30
0.0
 10
14.0201921864
 20
10.0054859012
 30
0.0
 10
14.0161418145
 20
9.9554057695
 30
0.0
 10
14.0113878292
 20
9.9055906768
 30
0.0
 10
14.0059459897
 20
9.8562054227
 30
0.0
 10
13.9998343513
 20
9.8074133767
 30
0.0
 10
13.9930732032
 20
9.7593759313
 30
0.0
 10
13.9856850043
 20
9.7122519635
 30
0.0
 10
13.9776943093
 20
9.6661973021
 30
0.0
 10
13.9691276894
 20
9.6213642072
 30
0.0
 10
13.9600136468
 20
9.5779008467
 30
0.0
 10
13.9503825188
 20
9.5359508251
 30
0.0
 10
13.9402663928
 20
9.495652577
 30
0.0
 10
13.9296989485
 20
9.4571392864
 30
0.0
 10
13.9204376011
 20
9.4262758167
 30
0.0
 10
13.9128141673
 20
9.4025844481
 30
0.0
 10
13.9070750966
 20
9.3855550058
 30
0.0
 10
13.9012500771
 20
9.3690633165
 30
0.0
 10
13.895343949
 20
9.3531229698
 30
0.0
 10
13.8893615553
 20
9.3377471294
 30
0.0
 10
13.8833079238
 20
9.3229484566
 30
0.0
 10
13.8771879848
 20
9.3087391577
 30
0.0
 10
13.8710068942
 20
9.2951309035
 30
0.0
 10
13.8647696607
 20
9.2821349014
 30
0.0
 10
13.8584815366
 20
9.2697617845
 30
0.0
 10
13.8521475886
 20
9.2580217175
 30
0.0
 10
13.8457731253
 20
9.2469242524
 30
0.0
 10
13.8393632435
 20
9.2364784692
 30
0.0
 10
13.8329232539
 20
9.2266928019
 30
0.0
 10
13.8264582393
 20
9.21757521
 30
0.0
 10
13.8199734359
 20
9.2091329893
 30
0.0
 10
13.8134738411
 20
9.201372964
 30
0.0
 10
13.8069645101
 20
9.1943013138
 30
0.0
 10
13.8004502523
 20
9.1879237741
 30
0.0
 10
13.7939358177
 20
9.1822455339
 30
0.0
 10
13.787425735
 20
9.1772714259
 30
0.0
 10
13.7809244123
 20
9.1730059696
 30
0.0
 10
13.7744362163
 20
9.1694534929
 30
0.0
 10
13.7679655686
 20
9.166618335
 30
0.0
 10
13.7615174695
 20
9.1645046703
 30
0.0
 10
13.7550972192
 20
9.1631166819
 30
0.0
 10
13.7487126263
 20
9.1624575989
 30
0.0
 10
13.74447379
 20
9.1625060027
 30
0.0
 10
13.742377704
 20
9.1626513616
 30
0.0
  0
SPLINE
  5
391
100
AcDbEntity
  8
0
100
AcDbSpline
 62
7
  6
CONTINUOUS
 70
0
 71
3
 72
52
 73
48
 74
0
 42
0.0000001
 43
0.0000001
 44
0.0000000001
 40
0.0
 40
0.0
 40
0.0
 40
0.0
 40
0.0053945006
 40
0.0109244505
 40
0.0166450214
 40
0.0226055109
 40
0.0288488346
 40
0.0354115066
 40
0.0423240605
 40
0.0496115776
 40
0.057294392
 40
0.0653886617
 40
0.0739070243
 40
0.0828590283
 40
0.0922516554
 40
0.1020895954
 40
0.1123756478
 40
0.1231108737
 40
0.134294911
 40
0.1459260381
 40
0.1580014323
 40
0.1705171734
 40
0.1834684657
 40
0.196849601
 40
0.2106541569
 40
0.224874933
 40
0.2395041339
 40
0.2545332871
 40
0.2857542814
 40
0.318460395
 40
0.3525658213
 40
0.3879781005
 40
0.4245988613
 40
0.4623244803
 40
0.5010466849
 40
0.5406531163
 40
0.5810278651
 40
0.6220519882
 40
0.6636040116
 40
0.7055604246
 40
0.7477961692
 40
0.7901851227
 40
0.8326005834
 40
0.8749157426
 40
0.9170041901
 40
0.9587403328
 40
1.0
 40
1.0
 40
1.0
 40
1.0
 10
13.7343835013
 20
9.1637137044
 30
0.0
 10
13.7364734983
 20
9.163852084
 30
0.0
 10
13.7406935478
 20
9.1643706172
 30
0.0
 10
13.7469978556
 20
9.1658430245
 30
0.0
 10
13.7533294274
 20
9.1680138422
 30
0.0
 10
13.7596820187
 20
9.1708791468
 30
0.0
 10
13.7660513285
 20
9.1744350466
 30
0.0
 10
13.7724330701
 20
9.1786774665
 30
0.0
 10
13.7788230814
 20
9.1836023675
 30
0.0
 10
13.7852171936
 20
9.1892054249
 30
0.0
 10
13.7916110229
 20
9.1954821218
 30
0.0
 10
13.7980001376
 20
9.2024274669
 30
0.0
 10
13.8043798653
 20
9.2100361057
 30
0.0
 10
13.8107455353
 20
9.2183021147
 30
0.0
 10
13.8170922781
 20
9.2272191289
 30
0.0
 10
13.8234152849
 20
9.2367801918
 30
0.0
 10
13.8297095895
 20
9.24697788
 30
0.0
 10
13.8359703304
 20
9.2578041893
 30
0.0
 10
13.8421925183
 20
9.2692506469
 30
0.0
 10
13.8483712982
 20
9.2813082217
 30
0.0
 10
13.8545017074
 20
9.2939674214
 30
0.0
 10
13.8605789375
 20
9.3072182217
 30
0.0
 10
13.8665980867
 20
9.3210501492
 30
0.0
 10
13.8725544213
 20
9.3354522243
 30
0.0
 10
13.8784431289
 20
9.3504130335
 30
0.0
 10
13.8842595625
 20
9.3659206796
 30
0.0
 10
13.8899990582
 20
9.381962864
 30
0.0
 10
13.8976401132
 20
9.4043327269
 30
0.0
 10
13.9069466793
 20
9.4335471297
 30
0.0
 10
13.9176000622
 20
9.4700934446
 30
0.0
 10
13.9278416856
 20
9.5084440399
 30
0.0
 10
13.9376386996
 20
9.5484768481
 30
0.0
 10
13.9469596542
 20
9.5900646653
 30
0.0
 10
13.955774654
 20
9.6330751546
 30
0.0
 10
13.964055438
 20
9.6773714092
 30
0.0
 10
13.9717754726
 20
9.7228123691
 30
0.0
 10
13.978910033
 20
9.769253291
 30
0.0
 10
13.9854362812
 20
9.8165462157
 30
0.0
 10
13.9913333371
 20
9.8645404471
 30
0.0
 10
13.9965823439
 20
9.9130830372
 30
0.0
 10
14.0011665272
 20
9.9620192786
 30
0.0
 10
14.0050712485
 20
10.0111932005
 30
0.0
 10
14.00828405
 20
10.0604480718
 30
0.0
 10
14.0107946974
 20
10.1096268927
 30
0.0
 10
14.0125952076
 20
10.1585729458
 30
0.0
 10
14.0136798809
 20
10.2071300909
 30
0.0
 10
14.013925157
 20
10.2393561346
 30
0.0
 10
14.013925157
 20
10.2553764108
 30
0.0
  0
SPLINE
  5
392
100
AcDbEntity
  8
0
100
AcDbSpline
 62
7
  6
CONTINUOUS
 70
0
 71
3
 72
56
 73
52
 74
0
 42
0.0000001
 43
0.0000001
 44
0.0000000001
 40
0.0
 40
0.0
 40
0.0
 40
0.0
 40
0.0079608544
 40
0.0154478132
 40
0.0224996375
 40
0.0291647107
 40
0.0355021364
 40
0.0415820376
 40
0.0474849494
 40
0.053299511
 40
0.0591188064
 40
0.0650356762
 40
0.071138087
 40
0.0775055915
 40
0.0842072224
 40
0.0913009485
 40
0.0988341557
 40
0.1068446681
 40
0.1153621399
 40
0.1244091541
 40
0.1340025748
 40
0.1441542563
 40
0.1548721061
 40
0.1661604692
 40
0.1780208755
 40
0.1904522762
 40
0.2034514965
 40
0.2170134589
 40
0.2311313786
 40
0.2457970404
 40
0.2610007904
 40
0.2767318697
 40
0.2929782807
 40
0.3097271309
 40
0.3269644676
 40
0.3446755656
 40
0.3814551013
 40
0.419933218
 40
0.4599659324
 40
0.5014000718
 40
0.5440744868
 40
0.5878211746
 40
0.6324663426
 40
0.6778314309
 40
0.7237341115
 40
0.7699892647
 40
0.8164099682
 40
0.8628083992
 40
0.9089970192
 40
0.9547888796
 40
1.0
 40
1.0
 40
1.0
 40
1.0
 10
13.7008443053
 20
9.4034818382
 30
0.0
 10
13.7024076958
 20
9.4015595539
 30
0.0
 10
13.7055611585
 20
9.3979240879
 30
0.0
 10
13.7105338611
 20
9.3929833899
 30
0.0
 10
13.7155948742
 20
9.388734151
 30
0.0
 10
13.7207402174
 20
9.3851825088
 30
0.0
 10
13.7259657445
 20
9.3823342583
 30
0.0
 10
13.7312664388
 20
9.3801957822
 30
0.0
 10
13.736635483
 20
9.3787727927
 30
0.0
 10
13.7420642421
 20
9.3780701294
 30
0.0
 10
13.7475425538
 20
9.3780896416
 30
0.0
 10
13.7530601556
 20
9.3788305736
 30
0.0
 10
13.7586079772
 20
9.3802891688
 30
0.0
 10
13.7641786811
 20
9.3824605267
 30
0.0
 10
13.76976652
 20
9.3853391282
 30
0.0
 10
13.7753666415
 20
9.3889196537
 30
0.0
 10
13.7809744712
 20
9.3931969524
 30
0.0
 10
13.7865854599
 20
9.3981657462
 30
0.0
 10
13.7921946638
 20
9.4038206265
 30
0.0
 10
13.7977970789
 20
9.4101555323
 30
0.0
 10
13.803387214
 20
9.4171639819
 30
0.0
 10
13.8089596572
 20
9.4248386333
 30
0.0
 10
13.814508608
 20
9.433171577
 30
0.0
 10
13.8200284129
 20
9.4421540459
 30
0.0
 10
13.8255131855
 20
9.4517766292
 30
0.0
 10
13.830957155
 20
9.4620291337
 30
0.0
 10
13.836354486
 20
9.4729006842
 30
0.0
 10
13.8416993774
 20
9.4843797028
 30
0.0
 10
13.8469861166
 20
9.4964539209
 30
0.0
 10
13.8522089414
 20
9.5091104304
 30
0.0
 10
13.8573622935
 20
9.5223356469
 30
0.0
 10
13.8624405127
 20
9.5361153913
 30
0.0
 10
13.8674382062
 20
9.5504348429
 30
0.0
 10
13.8723498676
 20
9.5652786123
 30
0.0
 10
13.8771703057
 20
9.5806307324
 30
0.0
 10
13.8835491009
 20
9.6020256793
 30
0.0
 10
13.8912383394
 20
9.6299251887
 30
0.0
 10
13.8999097389
 20
9.66474857
 30
0.0
 10
13.9080998324
 20
9.7011744855
 30
0.0
 10
13.915773036
 20
9.7390460008
 30
0.0
 10
13.9228959917
 20
9.7782001454
 30
0.0
 10
13.9294377727
 20
9.8184682437
 30
0.0
 10
13.9353699939
 20
9.8596767794
 30
0.0
 10
13.9406669369
 20
9.9016481285
 30
0.0
 10
13.9453056553
 20
9.9442013464
 30
0.0
 10
13.9492660756
 20
9.9871529574
 30
0.0
 10
13.9525310734
 20
10.0303177454
 30
0.0
 10
13.9550865682
 20
10.0735095912
 30
0.0
 10
13.9569215369
 20
10.1165422053
 30
0.0
 10
13.9580281467
 20
10.1592299509
 30
0.0
 10
13.9582791082
 20
10.1875547256
 30
0.0
 10
13.9582791082
 20
10.2016264519
 30
0.0
  0
SPLINE
  5
393
100
AcDbEntity
  8
0
100
AcDbSpline
 62
7
  6
CONTINUOUS
 70
0
 71
3
 72
23
 73
19
 74
0
 42
0.0000001
 43
0.0000001
 44
0.0000000001
 40
0.0
 40
0.0
 40
0.0
 40
0.0
 40
0.0637776288
 40
0.1273446152
 40
0.1907020433
 40
0.2538561391
 40
0.3168131818
 40
0.3795820998
 40
0.442173387
 40
0.5045993408
 40
0.5668738683
 40
0.6290123813
 40
0.69103165
 40
0.7529496426
 40
0.8147853504
 40
0.8765585998
 40
0.9382898528
 40
1.0
 40
1.0
 40
1.0
 40
1.0
 10
9.9658858576
 20
6.4229742935
 30
0.0
 10
9.9658858576
 20
6.4364745916
 30
0.0
 10
9.9665319921
 20
6.4634351762
 30
0.0
 10
9.9694485674
 20
6.5037121368
 30
0.0
 10
9.9743045106
 20
6.5436697018
 30
0.0
 10
9.9810884728
 20
6.5832143584
 30
0.0
 10
9.98978509
 20
6.6222554601
 30
0.0
 10
10.0003743113
 20
6.6607028448
 30
0.0
 10
10.0128318601
 20
6.6984679131
 30
0.0
 10
10.0271290889
 20
6.7354635647
 30
0.0
 10
10.0432331183
 20
6.7716044765
 30
0.0
 10
10.0611068759
 20
6.8068072902
 30
0.0
 10
10.0807091967
 20
6.8409907969
 30
0.0
 10
10.1019949426
 20
6.8740761551
 30
0.0
 10
10.1249149926
 20
6.9059869662
 30
0.0
 10
10.1494167815
 20
6.9366498571
 30
0.0
 10
10.1754428318
 20
6.9659931428
 30
0.0
 10
10.1937731976
 20
6.9846338585
 30
0.0
 10
10.2031685816
 20
6.9937090888
 30
0.0
  0
SPLINE
  5
394
100
AcDbEntity
  8
0
100
AcDbSpline
 62
7
  6
CONTINUOUS
 70
0
 71
3
 72
51
 73
47
 74
0
 42
0.0000001
 43
0.0000001
 44
0.0000000001
 40
0.0
 40
0.0
 40
0.0
 40
0.0
 40
0.0053769317
 40
0.0108199656
 40
0.0163926618
 40
0.0221538371
 40
0.0281562445
 40
0.0344457463
 40
0.0410614403
 40
0.0480358567
 40
0.0553957533
 40
0.0631626643
 40
0.0713537144
 40
0.0799821867
 40
0.0890580936
 40
0.0985886999
 40
0.1085788107
 40
0.1190312701
 40
0.1299470115
 40
0.1413255495
 40
0.1531648654
 40
0.1654618808
 40
0.1782122635
 40
0.1914108456
 40
0.2050514313
 40
0.2191271185
 40
0.248551348
 40
0.279614893
 40
0.3122384767
 40
0.3463344289
 40
0.3818076772
 40
0.4185565907
 40
0.4564737218
 40
0.4954464801
 40
0.5353577563
 40
0.5760865123
 40
0.6175083489
 40
0.6594960566
 40
0.7019201577
 40
0.7446494351
 40
0.7875514768
 40
0.8304931524
 40
0.8733412865
 40
0.9159627719
 40
0.9582260942
 40
1.0
 40
1.0
 40
1.0
 40
1.0
 10
13.692476396
 20
9.4367605103
 30
0.0
 10
13.6939256913
 20
9.4366600099
 30
0.0
 10
13.6968565402
 20
9.4366265692
 30
0.0
 10
13.7012710434
 20
9.4370821758
 30
0.0
 10
13.7057101701
 20
9.4380419329
 30
0.0
 10
13.7101685989
 20
9.4395032865
 30
0.0
 10
13.7146425618
 20
9.4414636419
 30
0.0
 10
13.7191287187
 20
9.4439198571
 30
0.0
 10
13.7236238949
 20
9.4468691369
 30
0.0
 10
13.7281251754
 20
9.4503083365
 30
0.0
 10
13.7326294321
 20
9.4542344326
 30
0.0
 10
13.7371335822
 20
9.4586440274
 30
0.0
 10
13.7416343292
 20
9.4635335511
 30
0.0
 10
13.746128322
 20
9.468899051
 30
0.0
 10
13.7506121285
 20
9.4747362176
 30
0.0
 10
13.7550821952
 20
9.4810403861
 30
0.0
 10
13.7595350307
 20
9.4878064474
 30
0.0
 10
13.7639669656
 20
9.4950289686
 30
0.0
 10
13.7683745027
 20
9.5027020462
 30
0.0
 10
13.7727539304
 20
9.5108194721
 30
0.0
 10
13.7771017714
 20
9.5193745764
 30
0.0
 10
13.7814143301
 20
9.5283603897
 30
0.0
 10
13.7856881608
 20
9.5377695094
 30
0.0
 10
13.7899196214
 20
9.5475942266
 30
0.0
 10
13.7941053364
 20
9.5578264471
 30
0.0
 10
13.7997034586
 20
9.5722150298
 30
0.0
 10
13.806544792
 20
9.5911676401
 30
0.0
 10
13.8144014646
 20
9.6150699595
 30
0.0
 10
13.8219957681
 20
9.6403775085
 30
0.0
 10
13.8293023977
 20
9.6670067889
 30
0.0
 10
13.8362969882
 20
9.6948701288
 30
0.0
 10
13.842956232
 20
9.7238755889
 30
0.0
 10
13.8492579486
 20
9.7539274087
 30
0.0
 10
13.8551811607
 20
9.7849263071
 30
0.0
 10
13.8607061613
 20
9.8167698324
 30
0.0
 10
13.8658145785
 20
9.8493527082
 30
0.0
 10
13.8704894344
 20
9.8825671893
 30
0.0
 10
13.8747152007
 20
9.9163034237
 30
0.0
 10
13.878477848
 20
9.9504498192
 30
0.0
 10
13.8817648943
 20
9.9848934199
 30
0.0
 10
13.8845654389
 20
10.0195202714
 30
0.0
 10
13.8868702142
 20
10.054215834
 30
0.0
 10
13.8886715817
 20
10.0888652692
 30
0.0
 10
13.8899636242
 20
10.123354065
 30
0.0
 10
13.8907420571
 20
10.1575679032
 30
0.0
 10
13.8909181489
 20
10.1802740024
 30
0.0
 10
13.8909181489
 20
10.1915607578
 30
0.0
  0
SPLINE
  5
395
100
AcDbEntity
  8
0
100
AcDbSpline
 62
7
  6
CONTINUOUS
 70
0
 71
3
 72
53
 73
49
 74
0
 42
0.0000001
 43
0.0000001
 44
0.0000000001
 40
0.0
 40
0.0
 40
0.0
 40
0.0
 40
0.0417740113
 40
0.0840369498
 40
0.1266584959
 40
0.1695064843
 40
0.2124480935
 40
0.2553500426
 40
0.298079237
 40
0.3405032536
 40
0.382490879
 40
0.4239126346
 40
0.4646413116
 40
0.5045525112
 40
0.543525196
 40
0.5814422576
 40
0.6181911067
 40
0.6536642972
 40
0.6877601986
 40
0.720383738
 40
0.7361160079
 40
0.7514479787
 40
0.7663699923
 40
0.7808730391
 40
0.7949486907
 40
0.8085892839
 40
0.8217878242
 40
0.8345382246
 40
0.8468351953
 40
0.858674535
 40
0.8700530305
 40
0.8809687964
 40
0.8914212207
 40
0.9014113515
 40
0.9109419335
 40
0.9200178526
 40
0.9286463131
 40
0.9368373658
 40
0.9446042772
 40
0.9519641672
 40
0.9589385932
 40
0.9655542738
 40
0.9718437889
 40
0.9778461802
 40
0.9836073652
 40
0.9891800467
 40
0.99462308
 40
1.0
 40
1.0
 40
1.0
 40
1.0
 10
13.9325818336
 20
7.5045086087
 30
0.0
 10
13.9325818336
 20
7.4881847253
 30
0.0
 10
13.9323271637
 20
7.4553453891
 30
0.0
 10
13.9312013143
 20
7.4058625826
 30
0.0
 10
13.9293326809
 20
7.3559822066
 30
0.0
 10
13.926727389
 20
7.3058693776
 30
0.0
 10
13.9233940481
 20
7.2556898942
 30
0.0
 10
13.9193436762
 20
7.2056097625
 30
0.0
 10
13.9145896908
 20
7.1557946698
 30
0.0
 10
13.9091478514
 20
7.1064094157
 30
0.0
 10
13.9030362129
 20
7.0576173697
 30
0.0
 10
13.8962750649
 20
7.0095799243
 30
0.0
 10
13.8888868659
 20
6.9624559565
 30
0.0
 10
13.880896171
 20
6.9164012952
 30
0.0
 10
13.872329551
 20
6.8715682002
 30
0.0
 10
13.8632155085
 20
6.8281048397
 30
0.0
 10
13.8535843804
 20
6.7861548181
 30
0.0
 10
13.8434682544
 20
6.74585657
 30
0.0
 10
13.8329008102
 20
6.7073432794
 30
0.0
 10
13.8236394627
 20
6.6764798098
 30
0.0
 10
13.816016029
 20
6.6527884411
 30
0.0
 10
13.8102769583
 20
6.6357589988
 30
0.0
 10
13.8044519388
 20
6.6192673095
 30
0.0
 10
13.7985458106
 20
6.6033269628
 30
0.0
 10
13.792563417
 20
6.5879511224
 30
0.0
 10
13.7865097855
 20
6.5731524496
 30
0.0
 10
13.7803898464
 20
6.5589431507
 30
0.0
 10
13.7742087559
 20
6.5453348965
 30
0.0
 10
13.7679715224
 20
6.5323388945
 30
0.0
 10
13.7616833983
 20
6.5199657775
 30
0.0
 10
13.7553494503
 20
6.5082257106
 30
0.0
 10
13.748974987
 20
6.4971282454
 30
0.0
 10
13.7425651052
 20
6.4866824622
 30
0.0
 10
13.7361251156
 20
6.4768967949
 30
0.0
 10
13.729660101
 20
6.467779203
 30
0.0
 10
13.7231752975
 20
6.4593369823
 30
0.0
 10
13.7166757027
 20
6.451576957
 30
0.0
 10
13.7101663718
 20
6.4445053069
 30
0.0
 10
13.703652114
 20
6.4381277671
 30
0.0
 10
13.6971376794
 20
6.432449527
 30
0.0
 10
13.6906275967
 20
6.4274754189
 30
0.0
 10
13.684126274
 20
6.4232099626
 30
0.0
 10
13.6776380779
 20
6.4196574859
 30
0.0
 10
13.6711674302
 20
6.416822328
 30
0.0
 10
13.6647193312
 20
6.4147086633
 30
0.0
 10
13.6582990808
 20
6.4133206749
 30
0.0
 10
13.651914488
 20
6.4126615919
 30
0.0
 10
13.6476756516
 20
6.4127099957
 30
0.0
 10
13.6455795656
 20
6.4128553546
 30
0.0
  0
SPLINE
  5
396
100
AcDbEntity
  8
0
100
AcDbSpline
 62
7
  6
CONTINUOUS
 70
0
 71
3
 72
47
 73
43
 74
0
 42
0.0000001
 43
0.0000001
 44
0.0000000001
 40
0.0
 40
0.0
 40
0.0
 40
0.0
 40
0.0063158967
 40
0.0126706977
 40
0.0191025471
 40
0.0256480963
 40
0.0323419829
 40
0.0392163382
 40
0.053614168
 40
0.0611948929
 40
0.0690566412
 40
0.077217773
 40
0.0856941569
 40
0.0944995551
 40
0.1036456891
 40
0.1131424521
 40
0.122998232
 40
0.1332198706
 40
0.1438129644
 40
0.1547820179
 40
0.1661303832
 40
0.1899727563
 40
0.2153522396
 40
0.2422681077
 40
0.2707104459
 40
0.3006614883
 40
0.3320967939
 40
0.3649861265
 40
0.3992940928
 40
0.4349806571
 40
0.4720016811
 40
0.5103093127
 40
0.5498522596
 40
0.5905760756
 40
0.6324234754
 40
0.6753345639
 40
0.7192469999
 40
0.7640961586
 40
0.8098155359
 40
0.8563366993
 40
0.9035889296
 40
1.0
 40
1.0
 40
1.0
 40
1.0
 10
13.7666511464
 20
8.158662198
 30
0.0
 10
13.7681300614
 20
8.1585596385
 30
0.0
 10
13.7710900138
 20
8.1582328504
 30
0.0
 10
13.7754967769
 20
8.1573810434
 30
0.0
 10
13.7798740716
 20
8.1561676003
 30
0.0
 10
13.7842193665
 20
8.1545935763
 30
0.0
 10
13.7885309279
 20
8.152659791
 30
0.0
 10
13.7943201978
 20
8.1495564538
 30
0.0
 10
13.7999522623
 20
8.1457575068
 30
0.0
 10
13.805402656
 20
8.1413551053
 30
0.0
 10
13.8095195549
 20
8.1376433675
 30
0.0
 10
13.8135924635
 20
8.133580836
 30
0.0
 10
13.8176204207
 20
8.1291690107
 30
0.0
 10
13.821601731
 20
8.1244097527
 30
0.0
 10
13.8255349383
 20
8.1193050068
 30
0.0
 10
13.8294185752
 20
8.1138568884
 30
0.0
 10
13.8332510546
 20
8.1080675556
 30
0.0
 10
13.8370309333
 20
8.1019393934
 30
0.0
 10
13.8407567
 20
8.0954748858
 30
0.0
 10
13.8444268541
 20
8.0886766154
 30
0.0
 10
13.8493250813
 20
8.0790112896
 30
0.0
 10
13.8552815666
 20
8.0660961526
 30
0.0
 10
13.8620711497
 20
8.0495602096
 30
0.0
 10
13.8686045932
 20
8.0317669914
 30
0.0
 10
13.8748711815
 20
8.0127455181
 30
0.0
 10
13.8808606499
 20
7.9925265044
 30
0.0
 10
13.8865630926
 20
7.9711429003
 30
0.0
 10
13.8919690378
 20
7.9486296147
 30
0.0
 10
13.8970694853
 20
7.9250235138
 30
0.0
 10
13.9018559647
 20
7.9003633357
 30
0.0
 10
13.9063205032
 20
7.8746895971
 30
0.0
 10
13.9104556481
 20
7.848044513
 30
0.0
 10
13.9142545057
 20
7.8204719375
 30
0.0
 10
13.9177107609
 20
7.7920172868
 30
0.0
 10
13.9208186527
 20
7.7627274423
 30
0.0
 10
13.9235729865
 20
7.7326506703
 30
0.0
 10
13.9259691728
 20
7.7018365662
 30
0.0
 10
13.9280032365
 20
7.6703359297
 30
0.0
 10
13.9296717669
 20
7.6382007239
 30
0.0
 10
13.9309719899
 20
7.6054839787
 30
0.0
 10
13.9322198564
 20
7.5608606233
 30
0.0
 10
13.9325818336
 20
7.5271382103
 30
0.0
 10
13.9325818336
 20
7.5045086087
 30
0.0
  0
LINE
  5
397
100
AcDbEntity
  8
0
100
AcDbLine
 62
7
  6
CONTINUOUS
 10
13.7654576769
 20
8.1568352331
 11
13.7657542785
 21
8.156733533
  0
SPLINE
  5
398
100
AcDbEntity
  8
0
100
AcDbSpline
 62
7
  6
CONTINUOUS
 70
0
 71
3
 72
38
 73
34
 74
0
 42
0.0000001
 43
0.0000001
 44
0.0000000001
 40
0.0
 40
0.0
 40
0.0
 40
0.0
 40
0.0063791219
 40
0.0129025488
 40
0.0264831844
 40
0.0409412543
 40
0.0564311928
 40
0.0730731829
 40
0.0909580536
 40
0.1101524398
 40
0.1307031965
 40
0.1526411628
 40
0.1759842663
 40
0.2007397447
 40
0.2269058933
 40
0.2544736091
 40
0.2834274114
 40
0.3137461889
 40
0.3454040349
 40
0.3783707728
 40
0.4126122675
 40
0.4480909336
 40
0.4847660664
 40
0.5225939789
 40
0.5615283276
 40
0.6015203732
 40
0.6425190561
 40
0.6844712216
 40
0.7273218223
 40
0.7710139885
 40
0.8154893687
 40
0.9065462167
 40
1.0
 40
1.0
 40
1.0
 40
1.0
 10
13.7657542785
 20
8.156733533
 30
0.0
 10
13.7671393925
 20
8.1562545682
 30
0.0
 10
13.7699065925
 20
8.1551832201
 30
0.0
 10
13.7754183695
 20
8.152597043
 30
0.0
 10
13.7822523885
 20
8.1485082873
 30
0.0
 10
13.7901874285
 20
8.1423900828
 30
0.0
 10
13.7979614402
 20
8.1350081588
 30
0.0
 10
13.8055661631
 20
8.1263759128
 30
0.0
 10
13.8129945246
 20
8.1165061309
 30
0.0
 10
13.8202380269
 20
8.1054127197
 30
0.0
 10
13.8272877744
 20
8.0931110847
 30
0.0
 10
13.8341344818
 20
8.0796184323
 30
0.0
 10
13.8407686618
 20
8.0649537938
 30
0.0
 10
13.8471808645
 20
8.049138105
 30
0.0
 10
13.8533618355
 20
8.0321941759
 30
0.0
 10
13.8593024847
 20
8.014146589
 30
0.0
 10
13.8649940007
 20
7.9950216732
 30
0.0
 10
13.8704279646
 20
7.9748474665
 30
0.0
 10
13.8755962692
 20
7.9536536159
 30
0.0
 10
13.8804911634
 20
7.9314713307
 30
0.0
 10
13.8851053608
 20
7.9083333495
 30
0.0
 10
13.8894319625
 20
7.8842738562
 30
0.0
 10
13.8934644615
 20
7.8593284208
 30
0.0
 10
13.8971968424
 20
7.8335339622
 30
0.0
 10
13.9006235317
 20
7.8069286764
 30
0.0
 10
13.9037393731
 20
7.7795519681
 30
0.0
 10
13.906539709
 20
7.7514444034
 30
0.0
 10
13.9090203694
 20
7.722647645
 30
0.0
 10
13.9111776097
 20
7.6932043959
 30
0.0
 10
13.9130082374
 20
7.6631582544
 30
0.0
 10
13.915025547
 20
7.6220305018
 30
0.0
 10
13.9166949661
 20
7.5694434192
 30
0.0
 10
13.9171270187
 20
7.5270511878
 30
0.0
 10
13.9171270187
 20
7.5055804038
 30
0.0
  0
SPLINE
  5
399
100
AcDbEntity
  8
0
100
AcDbSpline
 62
7
  6
CONTINUOUS
 70
0
 71
3
 72
55
 73
51
 74
0
 42
0.0000001
 43
0.0000001
 44
0.0000000001
 40
0.0
 40
0.0
 40
0.0
 40
0.0
 40
0.0095826639
 40
0.0187373708
 40
0.0274872976
 40
0.0358601787
 40
0.0515987248
 40
0.0590566275
 40
0.0662994341
 40
0.0733806919
 40
0.0803580067
 40
0.0872918487
 40
0.0942439195
 40
0.1012754116
 40
0.1084452701
 40
0.1158088351
 40
0.1234167667
 40
0.1313144418
 40
0.1395418806
 40
0.1481336405
 40
0.1571193757
 40
0.1665240815
 40
0.1763686062
 40
0.1866702607
 40
0.1974429738
 40
0.2086980296
 40
0.2204441544
 40
0.2326879214
 40
0.2454341264
 40
0.2586857202
 40
0.2724443657
 40
0.2867102902
 40
0.3014825692
 40
0.3167593158
 40
0.3325375156
 40
0.3655813371
 40
0.4005759764
 40
0.4374710758
 40
0.4762069245
 40
0.5167156135
 40
0.5589219391
 40
0.6027441732
 40
0.6480947474
 40
0.6948808414
 40
0.7430048542
 40
0.7923648598
 40
0.8428552772
 40
0.8943660602
 40
0.9467869958
 40
1.0
 40
1.0
 40
1.0
 40
1.0
 10
13.6922724894
 20
7.9258702859
 30
0.0
 10
13.6936301424
 20
7.9271338542
 30
0.0
 10
13.6963442486
 20
7.9295419358
 30
0.0
 10
13.7005083449
 20
7.9328570389
 30
0.0
 10
13.7046687105
 20
7.9357887205
 30
0.0
 10
13.7100932926
 20
7.939114131
 30
0.0
 10
13.7156274627
 20
7.9417694172
 30
0.0
 10
13.7212204477
 20
7.9436398963
 30
0.0
 10
13.7253253854
 20
7.944625467
 30
0.0
 10
13.7294115543
 20
7.9452170966
 30
0.0
 10
13.7334761153
 20
7.9454138109
 30
0.0
 10
13.7375156507
 20
7.945215066
 30
0.0
 10
13.7415267726
 20
7.9446210984
 30
0.0
 10
13.7455061154
 20
7.9436324416
 30
0.0
 10
13.7494506506
 20
7.9422505325
 30
0.0
 10
13.7533576093
 20
7.9404768759
 30
0.0
 10
13.7572245788
 20
7.9383133518
 30
0.0
 10
13.7610494678
 20
7.9357619975
 30
0.0
 10
13.764830208
 20
7.9328247276
 30
0.0
 10
13.7685650275
 20
7.929503771
 30
0.0
 10
13.772251997
 20
7.9258012161
 30
0.0
 10
13.7758892888
 20
7.9217193911
 30
0.0
 10
13.7794750763
 20
7.9172607623
 30
0.0
 10
13.7830073682
 20
7.9124278832
 30
0.0
 10
13.7864843694
 20
7.9072236359
 30
0.0
 10
13.7899040661
 20
7.9016509842
 30
0.0
 10
13.793264574
 20
7.8957131855
 30
0.0
 10
13.7965640031
 20
7.889413698
 30
0.0
 10
13.7998003704
 20
7.8827561646
 30
0.0
 10
13.8029718968
 20
7.8757445133
 30
0.0
 10
13.8060766367
 20
7.8683828248
 30
0.0
 10
13.8091128107
 20
7.8606754396
 30
0.0
 10
13.8120786279
 20
7.8526268984
 30
0.0
 10
13.8149723077
 20
7.8442419233
 30
0.0
 10
13.8187910224
 20
7.8324375859
 30
0.0
 10
13.8233556349
 20
7.8168670095
 30
0.0
 10
13.8284385776
 20
7.7972009004
 30
0.0
 10
13.8331956517
 20
7.7763222204
 30
0.0
 10
13.8376154371
 20
7.754280419
 30
0.0
 10
13.841687261
 20
7.7311274946
 30
0.0
 10
13.845401302
 20
7.7069182785
 30
0.0
 10
13.8487486046
 20
7.6817101594
 30
0.0
 10
13.8517210934
 20
7.655562956
 30
0.0
 10
13.8543115933
 20
7.6285387519
 30
0.0
 10
13.8565138457
 20
7.6007017493
 30
0.0
 10
13.8583225375
 20
7.5721180711
 30
0.0
 10
13.8597332757
 20
7.5428557968
 30
0.0
 10
13.8607427136
 20
7.5129842064
 30
0.0
 10
13.8613483021
 20
7.4825747554
 30
0.0
 10
13.8614809699
 20
7.4621295576
 30
0.0
 10
13.8614809699
 20
7.451830445
 30
0.0
  0
SPLINE
  5
39A
100
AcDbEntity
  8
0
100
AcDbSpline
 62
7
  6
CONTINUOUS
 70
0
 71
3
 72
39
 73
35
 74
0
 42
0.0000001
 43
0.0000001
 44
0.0000000001
 40
0.0
 40
0.0
 40
0.0
 40
0.0
 40
0.0063160491
 40
0.0126710089
 40
0.019103006
 40
0.0256487279
 40
0.0323427881
 40
0.0392173003
 40
0.0536155166
 40
0.0690526872
 40
0.0856860716
 40
0.1036344498
 40
0.1229845769
 40
0.1437975301
 40
0.1661136406
 40
0.1899565753
 40
0.2153367087
 40
0.2422532797
 40
0.2706962806
 40
0.300648064
 40
0.3320841712
 40
0.3649742887
 40
0.3992830905
 40
0.4349705326
 40
0.4719924421
 40
0.5103010171
 40
0.5498449152
 40
0.5905696897
 40
0.632418122
 40
0.6753302534
 40
0.7192436955
 40
0.8098127278
 40
0.9035864748
 40
1.0
 40
1.0
 40
1.0
 40
1.0
 10
13.6793909774
 20
7.89406523
 30
0.0
 10
13.6804135411
 20
7.893994321
 30
0.0
 10
13.6824601339
 20
7.8937683361
 30
0.0
 10
13.6855070834
 20
7.8931793321
 30
0.0
 10
13.6885336809
 20
7.8923403675
 30
0.0
 10
13.6915381326
 20
7.8912519869
 30
0.0
 10
13.6945192347
 20
7.8899149096
 30
0.0
 10
13.6985222529
 20
7.8877691191
 30
0.0
 10
13.7034755859
 20
7.884427808
 30
0.0
 10
13.7092049544
 20
7.8795025959
 30
0.0
 10
13.7148066657
 20
7.87361132
 30
0.0
 10
13.720274225
 20
7.8667648977
 30
0.0
 10
13.7256017795
 20
7.8589740803
 30
0.0
 10
13.7307822633
 20
7.850250833
 30
0.0
 10
13.7358083467
 20
7.8406085719
 30
0.0
 10
13.7406724844
 20
7.8300623353
 30
0.0
 10
13.7453670026
 20
7.8186287386
 30
0.0
 10
13.749884381
 20
7.8063260354
 30
0.0
 10
13.7542172961
 20
7.7931740381
 30
0.0
 10
13.7583585742
 20
7.7791940383
 30
0.0
 10
13.7623013863
 20
7.7644087989
 30
0.0
 10
13.7660392163
 20
7.7488424755
 30
0.0
 10
13.7695658041
 20
7.7325205498
 30
0.0
 10
13.772875301
 20
7.7154698049
 30
0.0
 10
13.7759622137
 20
7.6977182566
 30
0.0
 10
13.7788213574
 20
7.679295093
 30
0.0
 10
13.7814479912
 20
7.6602306406
 30
0.0
 10
13.7838377543
 20
7.6405562955
 30
0.0
 10
13.7859866158
 20
7.6203044762
 30
0.0
 10
13.7878910609
 20
7.5995085333
 30
0.0
 10
13.7901229825
 20
7.5708054088
 30
0.0
 10
13.7922613309
 20
7.5338195182
 30
0.0
 10
13.7937885765
 20
7.4882778843
 30
0.0
 10
13.7941200106
 20
7.4574115144
 30
0.0
 10
13.7941200106
 20
7.4417647508
 30
0.0
  0
SPLINE
  5
39B
100
AcDbEntity
  8
0
100
AcDbSpline
 62
7
  6
CONTINUOUS
 70
0
 71
3
 72
52
 73
48
 74
0
 42
0.0000001
 43
0.0000001
 44
0.0000000001
 40
0.0
 40
0.0
 40
0.0
 40
0.0
 40
0.0053945006
 40
0.0109244505
 40
0.0166450214
 40
0.0226055109
 40
0.0288488346
 40
0.0354115066
 40
0.0423240605
 40
0.0496115776
 40
0.057294392
 40
0.0653886617
 40
0.0739070243
 40
0.0828590283
 40
0.0922516554
 40
0.1020895954
 40
0.1123756478
 40
0.1231108737
 40
0.134294911
 40
0.1459260381
 40
0.1580014323
 40
0.1705171734
 40
0.1834684657
 40
0.196849601
 40
0.2106541569
 40
0.224874933
 40
0.2395041339
 40
0.2545332871
 40
0.2857542814
 40
0.318460395
 40
0.3525658213
 40
0.3879781005
 40
0.4245988613
 40
0.4623244803
 40
0.5010466849
 40
0.5406531163
 40
0.5810278651
 40
0.6220519882
 40
0.6636040116
 40
0.7055604246
 40
0.7477961692
 40
0.7901851227
 40
0.8326005834
 40
0.8749157426
 40
0.9170041901
 40
0.9587403328
 40
1.0
 40
1.0
 40
1.0
 40
1.0
 10
13.637585363
 20
6.4139176974
 30
0.0
 10
13.63967536
 20
6.414056077
 30
0.0
 10
13.6438954095
 20
6.4145746103
 30
0.0
 10
13.6501997172
 20
6.4160470175
 30
0.0
 10
13.6565312891
 20
6.4182178353
 30
0.0
 10
13.6628838804
 20
6.4210831399
 30
0.0
 10
13.6692531902
 20
6.4246390396
 30
0.0
 10
13.6756349318
 20
6.4288814595
 30
0.0
 10
13.6820249431
 20
6.4338063605
 30
0.0
 10
13.6884190553
 20
6.4394094179
 30
0.0
 10
13.6948128846
 20
6.4456861148
 30
0.0
 10
13.7012019993
 20
6.4526314599
 30
0.0
 10
13.707581727
 20
6.4602400987
 30
0.0
 10
13.713947397
 20
6.4685061077
 30
0.0
 10
13.7202941398
 20
6.477423122
 30
0.0
 10
13.7266171466
 20
6.4869841848
 30
0.0
 10
13.7329114512
 20
6.497181873
 30
0.0
 10
13.7391721921
 20
6.5080081824
 30
0.0
 10
13.74539438
 20
6.5194546399
 30
0.0
 10
13.7515731599
 20
6.5315122147
 30
0.0
 10
13.7577035691
 20
6.5441714144
 30
0.0
 10
13.7637807991
 20
6.5574222148
 30
0.0
 10
13.7697999484
 20
6.5712541422
 30
0.0
 10
13.775756283
 20
6.5856562173
 30
0.0
 10
13.7816449906
 20
6.6006170265
 30
0.0
 10
13.7874614241
 20
6.6161246726
 30
0.0
 10
13.7932009199
 20
6.632166857
 30
0.0
 10
13.8008419749
 20
6.6545367199
 30
0.0
 10
13.810148541
 20
6.6837511227
 30
0.0
 10
13.8208019239
 20
6.7202974376
 30
0.0
 10
13.8310435473
 20
6.7586480329
 30
0.0
 10
13.8408405613
 20
6.7986808411
 30
0.0
 10
13.8501615158
 20
6.8402686583
 30
0.0
 10
13.8589765157
 20
6.8832791476
 30
0.0
 10
13.8672572997
 20
6.9275754023
 30
0.0
 10
13.8749773343
 20
6.9730163621
 30
0.0
 10
13.8821118947
 20
7.019457284
 30
0.0
 10
13.8886381429
 20
7.0667502087
 30
0.0
 10
13.8945351987
 20
7.1147444401
 30
0.0
 10
13.8997842055
 20
7.1632870302
 30
0.0
 10
13.9043683889
 20
7.2122232716
 30
0.0
 10
13.9082731101
 20
7.2613971936
 30
0.0
 10
13.9114859117
 20
7.3106520648
 30
0.0
 10
13.9139965591
 20
7.3598308857
 30
0.0
 10
13.9157970693
 20
7.4087769389
 30
0.0
 10
13.9168817426
 20
7.457334084
 30
0.0
 10
13.9171270187
 20
7.4895601277
 30
0.0
 10
13.9171270187
 20
7.5055804038
 30
0.0
  0
SPLINE
  5
39C
100
AcDbEntity
  8
0
100
AcDbSpline
 62
7
  6
CONTINUOUS
 70
0
 71
3
 72
56
 73
52
 74
0
 42
0.0000001
 43
0.0000001
 44
0.0000000001
 40
0.0
 40
0.0
 40
0.0
 40
0.0
 40
0.0079608544
 40
0.0154478132
 40
0.0224996375
 40
0.0291647107
 40
0.0355021364
 40
0.0415820376
 40
0.0474849494
 40
0.053299511
 40
0.0591188064
 40
0.0650356762
 40
0.071138087
 40
0.0775055915
 40
0.0842072224
 40
0.0913009485
 40
0.0988341557
 40
0.1068446681
 40
0.1153621399
 40
0.1244091541
 40
0.1340025748
 40
0.1441542563
 40
0.1548721061
 40
0.1661604692
 40
0.1780208755
 40
0.1904522762
 40
0.2034514965
 40
0.2170134589
 40
0.2311313786
 40
0.2457970404
 40
0.2610007904
 40
0.2767318697
 40
0.2929782807
 40
0.3097271309
 40
0.3269644676
 40
0.3446755656
 40
0.3814551013
 40
0.419933218
 40
0.4599659324
 40
0.5014000718
 40
0.5440744868
 40
0.5878211746
 40
0.6324663426
 40
0.6778314309
 40
0.7237341115
 40
0.7699892647
 40
0.8164099682
 40
0.8628083992
 40
0.9089970192
 40
0.9547888796
 40
1.0
 40
1.0
 40
1.0
 40
1.0
 10
13.6040461669
 20
6.6536858312
 30
0.0
 10
13.6056095575
 20
6.6517635469
 30
0.0
 10
13.6087630202
 20
6.6481280809
 30
0.0
 10
13.6137357228
 20
6.643187383
 30
0.0
 10
13.6187967359
 20
6.6389381441
 30
0.0
 10
13.623942079
 20
6.6353865019
 30
0.0
 10
13.6291676061
 20
6.6325382513
 30
0.0
 10
13.6344683004
 20
6.6303997752
 30
0.0
 10
13.6398373447
 20
6.6289767857
 30
0.0
 10
13.6452661038
 20
6.6282741224
 30
0.0
 10
13.6507444154
 20
6.6282936346
 30
0.0
 10
13.6562620173
 20
6.6290345666
 30
0.0
 10
13.6618098389
 20
6.6304931618
 30
0.0
 10
13.6673805428
 20
6.6326645197
 30
0.0
 10
13.6729683817
 20
6.6355431213
 30
0.0
 10
13.6785685031
 20
6.6391236467
 30
0.0
 10
13.6841763329
 20
6.6434009454
 30
0.0
 10
13.6897873216
 20
6.6483697392
 30
0.0
 10
13.6953965255
 20
6.6540246195
 30
0.0
 10
13.7009989406
 20
6.6603595253
 30
0.0
 10
13.7065890756
 20
6.667367975
 30
0.0
 10
13.7121615189
 20
6.6750426263
 30
0.0
 10
13.7177104697
 20
6.68337557
 30
0.0
 10
13.7232302746
 20
6.6923580389
 30
0.0
 10
13.7287150472
 20
6.7019806223
 30
0.0
 10
13.7341590166
 20
6.7122331267
 30
0.0
 10
13.7395563476
 20
6.7231046772
 30
0.0
 10
13.7449012391
 20
6.7345836958
 30
0.0
 10
13.7501879783
 20
6.746657914
 30
0.0
 10
13.755410803
 20
6.7593144234
 30
0.0
 10
13.7605641552
 20
6.7725396399
 30
0.0
 10
13.7656423743
 20
6.7863193844
 30
0.0
 10
13.7706400679
 20
6.800638836
 30
0.0
 10
13.7755517293
 20
6.8154826053
 30
0.0
 10
13.7803721674
 20
6.8308347255
 30
0.0
 10
13.7867509626
 20
6.8522296724
 30
0.0
 10
13.794440201
 20
6.8801291818
 30
0.0
 10
13.8031116006
 20
6.914952563
 30
0.0
 10
13.8113016941
 20
6.9513784785
 30
0.0
 10
13.8189748977
 20
6.9892499939
 30
0.0
 10
13.8260978534
 20
7.0284041384
 30
0.0
 10
13.8326396344
 20
7.0686722367
 30
0.0
 10
13.8385718556
 20
7.1098807724
 30
0.0
 10
13.8438687986
 20
7.1518521216
 30
0.0
 10
13.848507517
 20
7.1944053394
 30
0.0
 10
13.8524679373
 20
7.2373569504
 30
0.0
 10
13.855732935
 20
7.2805217384
 30
0.0
 10
13.8582884299
 20
7.3237135842
 30
0.0
 10
13.8601233985
 20
7.3667461983
 30
0.0
 10
13.8612300083
 20
7.409433944
 30
0.0
 10
13.8614809699
 20
7.4377587186
 30
0.0
 10
13.8614809699
 20
7.451830445
 30
0.0
  0
SPLINE
  5
39D
100
AcDbEntity
  8
0
100
AcDbSpline
 62
7
  6
CONTINUOUS
 70
0
 71
3
 72
48
 73
44
 74
0
 42
0.0000001
 43
0.0000001
 44
0.0000000001
 40
0.0
 40
0.0
 40
0.0
 40
0.0
 40
0.0310657504
 40
0.0622878203
 40
0.0936616453
 40
0.125178752
 40
0.1568279349
 40
0.1885952505
 40
0.2204643576
 40
0.2524168703
 40
0.2844327404
 40
0.3164906674
 40
0.3485685219
 40
0.3806437832
 40
0.4126939811
 40
0.4446971382
 40
0.4766322051
 40
0.5084794803
 40
0.5402210143
 40
0.5718409879
 40
0.6033260537
 40
0.6346656397
 40
0.6658522114
 40
0.6968814689
 40
0.7277524873
 40
0.7431320057
 40
0.7584732005
 40
0.7737769276
 40
0.7890442511
 40
0.8042764398
 40
0.8194749667
 40
0.8346414958
 40
0.849777875
 40
0.8648861311
 40
0.8799684529
 40
0.8950271814
 40
0.9100647999
 40
0.9250839148
 40
0.9400872429
 40
0.9550775973
 40
0.9700578676
 40
0.9850310036
 40
1.0
 40
1.0
 40
1.0
 40
1.0
 10
8.2835389452
 20
9.2042480455
 30
0.0
 10
8.2835389452
 20
9.1834233576
 30
0.0
 10
8.2850834341
 20
9.1416533511
 30
0.0
 10
8.2919795475
 20
9.0791950931
 30
0.0
 10
8.3034224677
 20
9.0170975136
 30
0.0
 10
8.3193496998
 20
8.9557020803
 30
0.0
 10
8.3396740605
 20
8.8953408975
 30
0.0
 10
8.3642847165
 20
8.8363417744
 30
0.0
 10
8.3930477638
 20
8.7790247264
 30
0.0
 10
8.4258067521
 20
8.7237006804
 30
0.0
 10
8.4623836207
 20
8.6706696803
 30
0.0
 10
8.5025797928
 20
8.6202194193
 30
0.0
 10
8.5461770732
 20
8.572623584
 30
0.0
 10
8.592938823
 20
8.5281403527
 30
0.0
 10
8.642611387
 20
8.4870111615
 30
0.0
 10
8.6949253429
 20
8.4494593231
 30
0.0
 10
8.7495968861
 20
8.4156887093
 30
0.0
 10
8.8063295002
 20
8.3858828555
 30
0.0
 10
8.8648154863
 20
8.3602039273
 30
0.0
 10
8.9247375118
 20
8.3387916404
 30
0.0
 10
8.9857704989
 20
8.3217627377
 30
0.0
 10
9.0475830554
 20
8.3092103296
 30
0.0
 10
9.1098402056
 20
8.3012032264
 30
0.0
 10
9.172201505
 20
8.2977853614
 30
0.0
 10
9.2240480352
 20
8.2987797389
 30
0.0
 10
9.2652266624
 20
8.3018843895
 30
0.0
 10
9.2958903741
 20
8.3053572435
 30
0.0
 10
9.3263266123
 20
8.3099724538
 30
0.0
 10
9.3564945275
 20
8.3157238344
 30
0.0
 10
9.3863529387
 20
8.3226036207
 30
0.0
 10
9.4158613043
 20
8.3306023715
 30
0.0
 10
9.4449794587
 20
8.339709324
 30
0.0
 10
9.4736677924
 20
8.3499121188
 30
0.0
 10
9.501887318
 20
8.3611968055
 30
0.0
 10
9.5295996103
 20
8.373548155
 30
0.0
 10
9.556766972
 20
8.3869493665
 30
0.0
 10
9.5833524862
 20
8.40138215
 30
0.0
 10
9.6093199265
 20
8.4168269884
 30
0.0
 10
9.6346339889
 20
8.4332628539
 30
0.0
 10
9.659260243
 20
8.4506673094
 30
0.0
 10
9.683165235
 20
8.4690168986
 30
0.0
 10
9.7063160187
 20
8.4882861966
 30
0.0
 10
9.7212282943
 20
8.5017300222
 30
0.0
 10
9.7285468672
 20
8.5085949121
 30
0.0
  0
SPLINE
  5
39E
100
AcDbEntity
  8
0
100
AcDbSpline
 62
7
  6
CONTINUOUS
 70
0
 71
3
 72
23
 73
19
 74
0
 42
0.0000001
 43
0.0000001
 44
0.0000000001
 40
0.0
 40
0.0
 40
0.0
 40
0.0
 40
0.0637268971
 40
0.1272587803
 40
0.1905933288
 40
0.2537375199
 40
0.3166959962
 40
0.3794759763
 40
0.4420861645
 40
0.5045365737
 40
0.5668386459
 40
0.6290050844
 40
0.6910497746
 40
0.7529876652
 40
0.8148346354
 40
0.8766073675
 40
0.9383232056
 40
1.0
 40
1.0
 40
1.0
 40
1.0
 10
8.6907772154
 20
9.4426100314
 30
0.0
 10
8.6907772154
 20
9.4529847325
 30
0.0
 10
8.6912410207
 20
9.473705448
 30
0.0
 10
8.6933339978
 20
9.5046733641
 30
0.0
 10
8.6968194054
 20
9.5354208889
 30
0.0
 10
8.7016899251
 20
9.5658850181
 30
0.0
 10
8.707936093
 20
9.5960050584
 30
0.0
 10
8.7155452995
 20
9.6257202975
 30
0.0
 10
8.7245022788
 20
9.6549710453
 30
0.0
 10
8.7347891
 20
9.6836984901
 30
0.0
 10
8.746385169
 20
9.7118448453
 30
0.0
 10
8.7592671877
 20
9.7393535206
 30
0.0
 10
8.7734092661
 20
9.7661692015
 30
0.0
 10
8.7887830201
 20
9.7922379664
 30
0.0
 10
8.8053575649
 20
9.8175073024
 30
0.0
 10
8.8230997361
 20
9.8419265713
 30
0.0
 10
8.841973235
 20
9.8654459935
 30
0.0
 10
8.8552889134
 20
9.8804991448
 30
0.0
 10
8.8621203502
 20
9.8878579532
 30
0.0
  0
SPLINE
  5
39F
100
AcDbEntity
  8
0
100
AcDbSpline
 62
7
  6
CONTINUOUS
 70
0
 71
3
 72
51
 73
47
 74
0
 42
0.0000001
 43
0.0000001
 44
0.0000000001
 40
0.0
 40
0.0
 40
0.0
 40
0.0
 40
0.0053769317
 40
0.0108199656
 40
0.0163926618
 40
0.0221538371
 40
0.0281562445
 40
0.0344457463
 40
0.0410614403
 40
0.0480358567
 40
0.0553957533
 40
0.0631626643
 40
0.0713537144
 40
0.0799821867
 40
0.0890580936
 40
0.0985886999
 40
0.1085788107
 40
0.1190312701
 40
0.1299470115
 40
0.1413255495
 40
0.1531648654
 40
0.1654618808
 40
0.1782122635
 40
0.1914108456
 40
0.2050514313
 40
0.2191271185
 40
0.248551348
 40
0.279614893
 40
0.3122384767
 40
0.3463344289
 40
0.3818076772
 40
0.4185565907
 40
0.4564737218
 40
0.4954464801
 40
0.5353577563
 40
0.5760865123
 40
0.6175083489
 40
0.6594960566
 40
0.7019201577
 40
0.7446494351
 40
0.7875514768
 40
0.8304931524
 40
0.8733412865
 40
0.9159627719
 40
0.9582260942
 40
1.0
 40
1.0
 40
1.0
 40
1.0
 10
13.5956782577
 20
6.6869645033
 30
0.0
 10
13.5971275529
 20
6.6868640029
 30
0.0
 10
13.6000584019
 20
6.6868305622
 30
0.0
 10
13.6044729051
 20
6.6872861688
 30
0.0
 10
13.6089120318
 20
6.6882459259
 30
0.0
 10
13.6133704606
 20
6.6897072795
 30
0.0
 10
13.6178444235
 20
6.6916676349
 30
0.0
 10
13.6223305803
 20
6.6941238502
 30
0.0
 10
13.6268257566
 20
6.6970731299
 30
0.0
 10
13.631327037
 20
6.7005123295
 30
0.0
 10
13.6358312937
 20
6.7044384257
 30
0.0
 10
13.6403354439
 20
6.7088480205
 30
0.0
 10
13.6448361909
 20
6.7137375441
 30
0.0
 10
13.6493301837
 20
6.719103044
 30
0.0
 10
13.6538139902
 20
6.7249402106
 30
0.0
 10
13.6582840569
 20
6.7312443791
 30
0.0
 10
13.6627368923
 20
6.7380104404
 30
0.0
 10
13.6671688273
 20
6.7452329616
 30
0.0
 10
13.6715763644
 20
6.7529060392
 30
0.0
 10
13.6759557921
 20
6.7610234652
 30
0.0
 10
13.680303633
 20
6.7695785694
 30
0.0
 10
13.6846161918
 20
6.7785643827
 30
0.0
 10
13.6888900224
 20
6.7879735024
 30
0.0
 10
13.6931214831
 20
6.7977982196
 30
0.0
 10
13.6973071981
 20
6.8080304402
 30
0.0
 10
13.7029053203
 20
6.8224190228
 30
0.0
 10
13.7097466537
 20
6.8413716331
 30
0.0
 10
13.7176033263
 20
6.8652739525
 30
0.0
 10
13.7251976298
 20
6.8905815015
 30
0.0
 10
13.7325042593
 20
6.9172107819
 30
0.0
 10
13.7394988499
 20
6.9450741218
 30
0.0
 10
13.7461580936
 20
6.9740795819
 30
0.0
 10
13.7524598103
 20
7.0041314018
 30
0.0
 10
13.7583830224
 20
7.0351303002
 30
0.0
 10
13.763908023
 20
7.0669738255
 30
0.0
 10
13.7690164402
 20
7.0995567012
 30
0.0
 10
13.7736912961
 20
7.1327711823
 30
0.0
 10
13.7779170623
 20
7.1665074167
 30
0.0
 10
13.7816797097
 20
7.2006538122
 30
0.0
 10
13.784966756
 20
7.2350974129
 30
0.0
 10
13.7877673006
 20
7.2697242644
 30
0.0
 10
13.7900720759
 20
7.304419827
 30
0.0
 10
13.7918734433
 20
7.3390692622
 30
0.0
 10
13.7931654859
 20
7.373558058
 30
0.0
 10
13.7939439188
 20
7.4077718962
 30
0.0
 10
13.7941200106
 20
7.4304779955
 30
0.0
 10
13.7941200106
 20
7.4417647508
 30
0.0
  0
SPLINE
  5
3A0
100
AcDbEntity
  8
0
100
AcDbSpline
 62
7
  6
CONTINUOUS
 70
0
 71
3
 72
33
 73
29
 74
0
 42
0.0000001
 43
0.0000001
 44
0.0000000001
 40
0.0
 40
0.0
 40
0.0
 40
0.0
 40
0.0958348694
 40
0.1891075393
 40
0.2792507307
 40
0.3657221938
 40
0.4480135352
 40
0.5256551542
 40
0.5625998871
 40
0.5982279088
 40
0.6324952589
 40
0.6653619968
 40
0.6967931368
 40
0.7267585922
 40
0.7552346622
 40
0.7822039745
 40
0.8076576644
 40
0.8315956119
 40
0.8540295607
 40
0.8749841658
 40
0.8945014605
 40
0.9126434539
 40
0.9294983432
 40
0.9451850262
 40
0.9598600607
 40
0.9737213157
 40
0.9870092446
 40
1.0
 40
1.0
 40
1.0
 40
1.0
 10
12.2908869308
 20
10.161715808
 30
0.0
 10
12.2963826598
 20
10.1613346779
 30
0.0
 10
12.307219261
 20
10.1604617335
 30
0.0
 10
12.3231863846
 20
10.1587954055
 30
0.0
 10
12.3385731816
 20
10.1567985065
 30
0.0
 10
12.3532770693
 20
10.1544846246
 30
0.0
 10
12.367199972
 20
10.1518694821
 30
0.0
 10
12.3782505457
 20
10.1494152066
 30
0.0
 10
12.3866237624
 20
10.1473037296
 30
0.0
 10
12.3925479308
 20
10.1456824827
 30
0.0
 10
12.3982109452
 20
10.1440001246
 30
0.0
 10
12.4036033971
 20
10.142259417
 30
0.0
 10
12.4087163424
 20
10.140463333
 30
0.0
 10
12.4135413102
 20
10.1386148206
 30
0.0
 10
12.4180703561
 20
10.1367170353
 30
0.0
 10
12.422296024
 20
10.1347730419
 30
0.0
 10
12.4262114465
 20
10.132786135
 30
0.0
 10
12.4298102473
 20
10.1307594273
 30
0.0
 10
12.4330867059
 20
10.1286962556
 30
0.0
 10
12.4360355617
 20
10.1265996548
 30
0.0
 10
12.4386522465
 20
10.1244728154
 30
0.0
 10
12.4409325151
 20
10.1223184716
 30
0.0
 10
12.4428726913
 20
10.1201393939
 30
0.0
 10
12.4444690026
 20
10.1179378281
 30
0.0
 10
12.4457177734
 20
10.1157162811
 30
0.0
 10
12.4466146295
 20
10.1134772206
 30
0.0
 10
12.4471552891
 20
10.1112254789
 30
0.0
 10
12.4472761495
 20
10.1097122764
 30
0.0
 10
12.4472761408
 20
10.1089655216
 30
0.0
  0
SPLINE
  5
3A1
100
AcDbEntity
  8
0
100
AcDbSpline
 62
7
  6
CONTINUOUS
 70
0
 71
3
 72
71
 73
67
 74
0
 42
0.0000001
 43
0.0000001
 44
0.0000000001
 40
0.0
 40
0.0
 40
0.0
 40
0.0
 40
0.0156373785
 40
0.031327908
 40
0.0470702843
 40
0.0628636379
 40
0.078706081
 40
0.0945954869
 40
0.110529229
 40
0.1265042947
 40
0.1425172947
 40
0.1585644997
 40
0.1746418765
 40
0.1907451247
 40
0.2068697161
 40
0.223010935
 40
0.23916392
 40
0.2553237071
 40
0.2714852732
 40
0.2876435801
 40
0.3037936179
 40
0.3199304487
 40
0.3360492498
 40
0.3521453559
 40
0.3682143008
 40
0.3842518587
 40
0.4002540819
 40
0.4162173382
 40
0.4321383455
 40
0.4480142037
 40
0.4638424245
 40
0.4796209578
 40
0.4953482155
 40
0.5110230902
 40
0.5266449705
 40
0.5422137516
 40
0.5577298414
 40
0.5731941618
 40
0.588608145
 40
0.6039737248
 40
0.6192933216
 40
0.6345698226
 40
0.6498065561
 40
0.6650072606
 40
0.6801760496
 40
0.6953173702
 40
0.7104359597
 40
0.7255367959
 40
0.7406250456
 40
0.7557060099
 40
0.7707850676
 40
0.7858676178
 40
0.800959022
 40
0.8160645473
 40
0.8311893104
 40
0.8463382237
 40
0.8615159442
 40
0.8767268262
 40
0.8919748769
 40
0.9072637173
 40
0.9225965518
 40
0.9379761174
 40
0.9534047476
 40
0.9688840681
 40
0.9844157435
 40
1.0
 40
1.0
 40
1.0
 40
1.0
 10
8.3863199017
 20
9.2196065214
 30
0.0
 10
8.3863199017
 20
9.2070836389
 30
0.0
 10
8.3869369165
 20
9.1819910443
 30
0.0
 10
8.3897000058
 20
9.1443830174
 30
0.0
 10
8.3942957458
 20
9.1068280767
 30
0.0
 10
8.4007127121
 20
9.0694180837
 30
0.0
 10
8.4089355705
 20
9.0322425968
 30
0.0
 10
8.4189443492
 20
8.9953912857
 30
0.0
 10
8.4307149342
 20
8.9589528159
 30
0.0
 10
8.4442189207
 20
8.9230149176
 30
0.0
 10
8.4594237409
 20
8.8876640898
 30
0.0
 10
8.4762927362
 20
8.852985417
 30
0.0
 10
8.4947852542
 20
8.8190623626
 30
0.0
 10
8.5148567447
 20
8.7859765709
 30
0.0
 10
8.5364588668
 20
8.7538076721
 30
0.0
 10
8.5595396036
 20
8.722633092
 30
0.0
 10
8.5840433891
 20
8.6925278696
 30
0.0
 10
8.6099112242
 20
8.6635644622
 30
0.0
 10
8.6370808314
 20
8.6358125797
 30
0.0
 10
8.6654868084
 20
8.6093390222
 30
0.0
 10
8.6950607835
 20
8.5842075188
 30
0.0
 10
8.7257315788
 20
8.5604785768
 30
0.0
 10
8.7574253797
 20
8.5382093356
 30
0.0
 10
8.7900659131
 20
8.5174534334
 30
0.0
 10
8.8235746188
 20
8.4982608608
 30
0.0
 10
8.8578708452
 20
8.4806778472
 30
0.0
 10
8.8928720469
 20
8.4647467587
 30
0.0
 10
8.9284939806
 20
8.4505059947
 30
0.0
 10
8.9646509059
 20
8.4379898966
 30
0.0
 10
9.0012557893
 20
8.4272286635
 30
0.0
 10
9.038220513
 20
8.4182482837
 30
0.0
 10
9.0754560813
 20
8.411070453
 30
0.0
 10
9.1128728368
 20
8.4057125246
 30
0.0
 10
9.1503806785
 20
8.4021874803
 30
0.0
 10
9.1878892751
 20
8.4005038949
 30
0.0
 10
9.2253082814
 20
8.4006659152
 30
0.0
 10
9.2625475538
 20
8.402673247
 30
0.0
 10
9.299517366
 20
8.4065211575
 30
0.0
 10
9.3361286265
 20
8.4122004693
 30
0.0
 10
9.3722930961
 20
8.4196975774
 30
0.0
 10
9.4079235985
 20
8.428994498
 30
0.0
 10
9.4429342311
 20
8.4400689054
 30
0.0
 10
9.4772405713
 20
8.4528941847
 30
0.0
 10
9.5107598819
 20
8.4674394929
 30
0.0
 10
9.5434113103
 20
8.483669833
 30
0.0
 10
9.5751160903
 20
8.5015461273
 30
0.0
 10
9.6057977416
 20
8.5210253029
 30
0.0
 10
9.6353822473
 20
8.5420604141
 30
0.0
 10
9.6637982359
 20
8.5646007527
 30
0.0
 10
9.6909771549
 20
8.5885919705
 30
0.0
 10
9.7168534387
 20
8.6139762107
 30
0.0
 10
9.7413646671
 20
8.6406922498
 30
0.0
 10
9.7644517228
 20
8.6686756419
 30
0.0
 10
9.7860589484
 20
8.6978588676
 30
0.0
 10
9.8061342647
 20
8.7281715163
 30
0.0
 10
9.8246292986
 20
8.7595404561
 30
0.0
 10
9.8414994982
 20
8.7918900124
 30
0.0
 10
9.8567042398
 20
8.8251421528
 30
0.0
 10
9.8702069227
 20
8.8592166763
 30
0.0
 10
9.881975065
 20
8.8940314104
 30
0.0
 10
9.8919803735
 20
8.9295023883
 30
0.0
 10
9.9001988693
 20
8.9655441367
 30
0.0
 10
9.9066107328
 20
9.0020696099
 30
0.0
 10
9.9112008036
 20
9.0389912823
 30
0.0
 10
9.9139578342
 20
9.0762187748
 30
0.0
 10
9.9145685983
 20
9.1011417735
 30
0.0
 10
9.9145685983
 20
9.1136221143
 30
0.0
  0
SPLINE
  5
3A2
100
AcDbEntity
  8
0
100
AcDbSpline
 62
7
  6
CONTINUOUS
 70
0
 71
3
 72
53
 73
49
 74
0
 42
0.0000001
 43
0.0000001
 44
0.0000000001
 40
0.0
 40
0.0
 40
0.0
 40
0.0
 40
0.0417740113
 40
0.0840369498
 40
0.1266584959
 40
0.1695064843
 40
0.2124480935
 40
0.2553500426
 40
0.298079237
 40
0.3405032536
 40
0.382490879
 40
0.4239126346
 40
0.4646413116
 40
0.5045525112
 40
0.543525196
 40
0.5814422576
 40
0.6181911067
 40
0.6536642972
 40
0.6877601986
 40
0.720383738
 40
0.7361160079
 40
0.7514479787
 40
0.7663699923
 40
0.7808730391
 40
0.7949486907
 40
0.8085892839
 40
0.8217878242
 40
0.8345382246
 40
0.8468351953
 40
0.858674535
 40
0.8700530305
 40
0.8809687964
 40
0.8914212207
 40
0.9014113515
 40
0.9109419335
 40
0.9200178526
 40
0.9286463131
 40
0.9368373658
 40
0.9446042772
 40
0.9519641672
 40
0.9589385932
 40
0.9655542738
 40
0.9718437889
 40
0.9778461802
 40
0.9836073652
 40
0.9891800467
 40
0.99462308
 40
1.0
 40
1.0
 40
1.0
 40
1.0
 10
13.2529235391
 20
6.8480090701
 30
0.0
 10
13.2529235391
 20
6.8316851867
 30
0.0
 10
13.2526688692
 20
6.7988458505
 30
0.0
 10
13.2515430199
 20
6.749363044
 30
0.0
 10
13.2496743864
 20
6.6994826681
 30
0.0
 10
13.2470690945
 20
6.649369839
 30
0.0
 10
13.2437357536
 20
6.5991903556
 30
0.0
 10
13.2396853817
 20
6.5491102239
 30
0.0
 10
13.2349313964
 20
6.4992951312
 30
0.0
 10
13.2294895569
 20
6.4499098771
 30
0.0
 10
13.2233779184
 20
6.4011178311
 30
0.0
 10
13.2166167704
 20
6.3530803857
 30
0.0
 10
13.2092285715
 20
6.3059564179
 30
0.0
 10
13.2012378765
 20
6.2599017566
 30
0.0
 10
13.1926712565
 20
6.2150686616
 30
0.0
 10
13.183557214
 20
6.1716053011
 30
0.0
 10
13.173926086
 20
6.1296552796
 30
0.0
 10
13.16380996
 20
6.0893570314
 30
0.0
 10
13.1532425157
 20
6.0508437408
 30
0.0
 10
13.1439811683
 20
6.0199802712
 30
0.0
 10
13.1363577345
 20
5.9962889026
 30
0.0
 10
13.1306186638
 20
5.9792594602
 30
0.0
 10
13.1247936443
 20
5.9627677709
 30
0.0
 10
13.1188875161
 20
5.9468274242
 30
0.0
 10
13.1129051225
 20
5.9314515838
 30
0.0
 10
13.106851491
 20
5.916652911
 30
0.0
 10
13.100731552
 20
5.9024436121
 30
0.0
 10
13.0945504614
 20
5.8888353579
 30
0.0
 10
13.0883132279
 20
5.8758393559
 30
0.0
 10
13.0820251038
 20
5.8634662389
 30
0.0
 10
13.0756911558
 20
5.851726172
 30
0.0
 10
13.0693166925
 20
5.8406287068
 30
0.0
 10
13.0629068107
 20
5.8301829236
 30
0.0
 10
13.0564668211
 20
5.8203972563
 30
0.0
 10
13.0500018065
 20
5.8112796645
 30
0.0
 10
13.0435170031
 20
5.8028374437
 30
0.0
 10
13.0370174082
 20
5.7950774184
 30
0.0
 10
13.0305080773
 20
5.7880057683
 30
0.0
 10
13.0239938195
 20
5.7816282285
 30
0.0
 10
13.0174793849
 20
5.7759499884
 30
0.0
 10
13.0109693022
 20
5.7709758803
 30
0.0
 10
13.0044679795
 20
5.766710424
 30
0.0
 10
12.9979797835
 20
5.7631579473
 30
0.0
 10
12.9915091358
 20
5.7603227894
 30
0.0
 10
12.9850610367
 20
5.7582091248
 30
0.0
 10
12.9786407864
 20
5.7568211363
 30
0.0
 10
12.9722561935
 20
5.7561620533
 30
0.0
 10
12.9680173571
 20
5.7562104571
 30
0.0
 10
12.9659212711
 20
5.756355816
 30
0.0
  0
SPLINE
  5
3A3
100
AcDbEntity
  8
0
100
AcDbSpline
 62
7
  6
CONTINUOUS
 70
0
 71
3
 72
47
 73
43
 74
0
 42
0.0000001
 43
0.0000001
 44
0.0000000001
 40
0.0
 40
0.0
 40
0.0
 40
0.0
 40
0.0063158967
 40
0.0126706977
 40
0.0191025471
 40
0.0256480963
 40
0.0323419829
 40
0.0392163382
 40
0.053614168
 40
0.0611948929
 40
0.0690566412
 40
0.077217773
 40
0.0856941569
 40
0.0944995551
 40
0.1036456891
 40
0.1131424521
 40
0.122998232
 40
0.1332198706
 40
0.1438129644
 40
0.1547820179
 40
0.1661303832
 40
0.1899727563
 40
0.2153522396
 40
0.2422681077
 40
0.2707104459
 40
0.3006614883
 40
0.3320967939
 40
0.3649861265
 40
0.3992940928
 40
0.4349806571
 40
0.4720016811
 40
0.5103093127
 40
0.5498522596
 40
0.5905760756
 40
0.6324234754
 40
0.6753345639
 40
0.7192469999
 40
0.7640961586
 40
0.8098155359
 40
0.8563366993
 40
0.9035889296
 40
1.0
 40
1.0
 40
1.0
 40
1.0
 10
13.0869928519
 20
7.5021626594
 30
0.0
 10
13.088471767
 20
7.5020600999
 30
0.0
 10
13.0914317194
 20
7.5017333118
 30
0.0
 10
13.0958384824
 20
7.5008815048
 30
0.0
 10
13.1002157771
 20
7.4996680617
 30
0.0
 10
13.104561072
 20
7.4980940377
 30
0.0
 10
13.1088726334
 20
7.4961602525
 30
0.0
 10
13.1146619033
 20
7.4930569152
 30
0.0
 10
13.1202939679
 20
7.4892579682
 30
0.0
 10
13.1257443615
 20
7.4848555667
 30
0.0
 10
13.1298612604
 20
7.4811438289
 30
0.0
 10
13.133934169
 20
7.4770812974
 30
0.0
 10
13.1379621262
 20
7.4726694721
 30
0.0
 10
13.1419434365
 20
7.4679102141
 30
0.0
 10
13.1458766438
 20
7.4628054682
 30
0.0
 10
13.1497602807
 20
7.4573573498
 30
0.0
 10
13.1535927602
 20
7.451568017
 30
0.0
 10
13.1573726388
 20
7.4454398548
 30
0.0
 10
13.1610984055
 20
7.4389753472
 30
0.0
 10
13.1647685596
 20
7.4321770768
 30
0.0
 10
13.1696667869
 20
7.422511751
 30
0.0
 10
13.1756232721
 20
7.409596614
 30
0.0
 10
13.1824128553
 20
7.393060671
 30
0.0
 10
13.1889462987
 20
7.3752674528
 30
0.0
 10
13.1952128871
 20
7.3562459795
 30
0.0
 10
13.2012023554
 20
7.3360269658
 30
0.0
 10
13.2069047981
 20
7.3146433617
 30
0.0
 10
13.2123107434
 20
7.2921300762
 30
0.0
 10
13.2174111908
 20
7.2685239752
 30
0.0
 10
13.2221976702
 20
7.2438637971
 30
0.0
 10
13.2266622087
 20
7.2181900585
 30
0.0
 10
13.2307973536
 20
7.1915449744
 30
0.0
 10
13.2345962112
 20
7.163972399
 30
0.0
 10
13.2380524665
 20
7.1355177482
 30
0.0
 10
13.2411603582
 20
7.1062279037
 30
0.0
 10
13.243914692
 20
7.0761511317
 30
0.0
 10
13.2463108783
 20
7.0453370277
 30
0.0
 10
13.248344942
 20
7.0138363911
 30
0.0
 10
13.2500134724
 20
6.9817011853
 30
0.0
 10
13.2513136954
 20
6.9489844401
 30
0.0
 10
13.252561562
 20
6.9043610847
 30
0.0
 10
13.2529235391
 20
6.8706386717
 30
0.0
 10
13.2529235391
 20
6.8480090701
 30
0.0
  0
LINE
  5
3A4
100
AcDbEntity
  8
0
100
AcDbLine
 62
7
  6
CONTINUOUS
 10
13.0857993824
 20
7.5003356945
 11
13.086095984
 21
7.5002339944
  0
SPLINE
  5
3A5
100
AcDbEntity
  8
0
100
AcDbSpline
 62
7
  6
CONTINUOUS
 70
0
 71
3
 72
38
 73
34
 74
0
 42
0.0000001
 43
0.0000001
 44
0.0000000001
 40
0.0
 40
0.0
 40
0.0
 40
0.0
 40
0.0063791219
 40
0.0129025488
 40
0.0264831844
 40
0.0409412543
 40
0.0564311928
 40
0.0730731829
 40
0.0909580536
 40
0.1101524398
 40
0.1307031965
 40
0.1526411628
 40
0.1759842663
 40
0.2007397447
 40
0.2269058933
 40
0.2544736091
 40
0.2834274114
 40
0.3137461889
 40
0.3454040349
 40
0.3783707728
 40
0.4126122675
 40
0.4480909336
 40
0.4847660664
 40
0.5225939789
 40
0.5615283276
 40
0.6015203732
 40
0.6425190561
 40
0.6844712216
 40
0.7273218223
 40
0.7710139885
 40
0.8154893687
 40
0.9065462167
 40
1.0
 40
1.0
 40
1.0
 40
1.0
 10
13.086095984
 20
7.5002339944
 30
0.0
 10
13.0874810981
 20
7.4997550296
 30
0.0
 10
13.090248298
 20
7.4986836815
 30
0.0
 10
13.0957600751
 20
7.4960975044
 30
0.0
 10
13.102594094
 20
7.4920087487
 30
0.0
 10
13.110529134
 20
7.4858905442
 30
0.0
 10
13.1183031457
 20
7.4785086202
 30
0.0
 10
13.1259078686
 20
7.4698763742
 30
0.0
 10
13.1333362301
 20
7.4600065923
 30
0.0
 10
13.1405797325
 20
7.4489131811
 30
0.0
 10
13.1476294799
 20
7.4366115461
 30
0.0
 10
13.1544761874
 20
7.4231188937
 30
0.0
 10
13.1611103673
 20
7.4084542552
 30
0.0
 10
13.16752257
 20
7.3926385664
 30
0.0
 10
13.173703541
 20
7.3756946373
 30
0.0
 10
13.1796441902
 20
7.3576470504
 30
0.0
 10
13.1853357062
 20
7.3385221346
 30
0.0
 10
13.1907696701
 20
7.318347928
 30
0.0
 10
13.1959379747
 20
7.2971540773
 30
0.0
 10
13.2008328689
 20
7.2749717921
 30
0.0
 10
13.2054470664
 20
7.2518338109
 30
0.0
 10
13.209773668
 20
7.2277743176
 30
0.0
 10
13.213806167
 20
7.2028288822
 30
0.0
 10
13.2175385479
 20
7.1770344236
 30
0.0
 10
13.2209652372
 20
7.1504291379
 30
0.0
 10
13.2240810786
 20
7.1230524295
 30
0.0
 10
13.2268814145
 20
7.0949448648
 30
0.0
 10
13.2293620749
 20
7.0661481064
 30
0.0
 10
13.2315193152
 20
7.0367048573
 30
0.0
 10
13.2333499429
 20
7.0066587159
 30
0.0
 10
13.2353672526
 20
6.9655309632
 30
0.0
 10
13.2370366717
 20
6.9129438807
 30
0.0
 10
13.2374687242
 20
6.8705516492
 30
0.0
 10
13.2374687242
 20
6.8490808652
 30
0.0
  0
SPLINE
  5
3A6
100
AcDbEntity
  8
0
100
AcDbSpline
 62
7
  6
CONTINUOUS
 70
0
 71
3
 72
55
 73
51
 74
0
 42
0.0000001
 43
0.0000001
 44
0.0000000001
 40
0.0
 40
0.0
 40
0.0
 40
0.0
 40
0.0095826639
 40
0.0187373708
 40
0.0274872976
 40
0.0358601787
 40
0.0515987248
 40
0.0590566275
 40
0.0662994341
 40
0.0733806919
 40
0.0803580067
 40
0.0872918487
 40
0.0942439195
 40
0.1012754116
 40
0.1084452701
 40
0.1158088351
 40
0.1234167667
 40
0.1313144418
 40
0.1395418806
 40
0.1481336405
 40
0.1571193757
 40
0.1665240815
 40
0.1763686062
 40
0.1866702607
 40
0.1974429738
 40
0.2086980296
 40
0.2204441544
 40
0.2326879214
 40
0.2454341264
 40
0.2586857202
 40
0.2724443657
 40
0.2867102902
 40
0.3014825692
 40
0.3167593158
 40
0.3325375156
 40
0.3655813371
 40
0.4005759764
 40
0.4374710758
 40
0.4762069245
 40
0.5167156135
 40
0.5589219391
 40
0.6027441732
 40
0.6480947474
 40
0.6948808414
 40
0.7430048542
 40
0.7923648598
 40
0.8428552772
 40
0.8943660602
 40
0.9467869958
 40
1.0
 40
1.0
 40
1.0
 40
1.0
 10
13.012614195
 20
7.2693707473
 30
0.0
 10
13.013971848
 20
7.2706343156
 30
0.0
 10
13.0166859541
 20
7.2730423972
 30
0.0
 10
13.0208500504
 20
7.2763575003
 30
0.0
 10
13.025010416
 20
7.2792891819
 30
0.0
 10
13.0304349981
 20
7.2826145924
 30
0.0
 10
13.0359691682
 20
7.2852698786
 30
0.0
 10
13.0415621532
 20
7.2871403577
 30
0.0
 10
13.0456670909
 20
7.2881259284
 30
0.0
 10
13.0497532598
 20
7.288717558
 30
0.0
 10
13.0538178209
 20
7.2889142723
 30
0.0
 10
13.0578573562
 20
7.2887155275
 30
0.0
 10
13.0618684782
 20
7.2881215598
 30
0.0
 10
13.0658478209
 20
7.287132903
 30
0.0
 10
13.0697923562
 20
7.2857509939
 30
0.0
 10
13.0736993148
 20
7.2839773373
 30
0.0
 10
13.0775662843
 20
7.2818138132
 30
0.0
 10
13.0813911734
 20
7.279262459
 30
0.0
 10
13.0851719136
 20
7.276325189
 30
0.0
 10
13.088906733
 20
7.2730042325
 30
0.0
 10
13.0925937025
 20
7.2693016775
 30
0.0
 10
13.0962309944
 20
7.2652198525
 30
0.0
 10
13.0998167818
 20
7.2607612237
 30
0.0
 10
13.1033490737
 20
7.2559283446
 30
0.0
 10
13.106826075
 20
7.2507240973
 30
0.0
 10
13.1102457716
 20
7.2451514456
 30
0.0
 10
13.1136062795
 20
7.2392136469
 30
0.0
 10
13.1169057086
 20
7.2329141595
 30
0.0
 10
13.1201420759
 20
7.2262566261
 30
0.0
 10
13.1233136024
 20
7.2192449747
 30
0.0
 10
13.1264183422
 20
7.2118832862
 30
0.0
 10
13.1294545163
 20
7.204175901
 30
0.0
 10
13.1324203334
 20
7.1961273598
 30
0.0
 10
13.1353140133
 20
7.1877423847
 30
0.0
 10
13.139132728
 20
7.1759380473
 30
0.0
 10
13.1436973405
 20
7.1603674709
 30
0.0
 10
13.1487802831
 20
7.1407013618
 30
0.0
 10
13.1535373572
 20
7.1198226818
 30
0.0
 10
13.1579571426
 20
7.0977808804
 30
0.0
 10
13.1620289666
 20
7.074627956
 30
0.0
 10
13.1657430075
 20
7.0504187399
 30
0.0
 10
13.1690903101
 20
7.0252106208
 30
0.0
 10
13.1720627989
 20
6.9990634174
 30
0.0
 10
13.1746532988
 20
6.9720392133
 30
0.0
 10
13.1768555512
 20
6.9442022107
 30
0.0
 10
13.178664243
 20
6.9156185325
 30
0.0
 10
13.1800749813
 20
6.8863562583
 30
0.0
 10
13.1810844191
 20
6.8564846679
 30
0.0
 10
13.1816900076
 20
6.8260752168
 30
0.0
 10
13.1818226754
 20
6.805630019
 30
0.0
 10
13.1818226754
 20
6.7953309064
 30
0.0
  0
SPLINE
  5
3A7
100
AcDbEntity
  8
0
100
AcDbSpline
 62
7
  6
CONTINUOUS
 70
0
 71
3
 72
21
 73
17
 74
0
 42
0.0000001
 43
0.0000001
 44
0.0000000001
 40
0.0
 40
0.0
 40
0.0
 40
0.0
 40
0.1270925002
 40
0.2534819167
 40
0.3164353195
 40
0.3792250371
 40
0.4418575724
 40
0.5043402358
 40
0.5666813898
 40
0.6288903986
 40
0.6909775281
 40
0.7529539102
 40
0.8148314486
 40
0.8766227418
 40
0.9383410126
 40
1.0
 40
1.0
 40
1.0
 40
1.0
 10
8.7327108452
 20
9.4831148098
 30
0.0
 10
8.7327108452
 20
9.5017270204
 30
0.0
 10
8.7342023064
 20
9.5388652265
 30
0.0
 10
8.7398303766
 20
9.5849174606
 30
0.0
 10
8.7465669619
 20
9.6212307115
 30
0.0
 10
8.7527183733
 20
9.648131459
 30
0.0
 10
8.7599649865
 20
9.6746862933
 30
0.0
 10
8.7682950791
 20
9.7008526599
 30
0.0
 10
8.7776951128
 20
9.7265879972
 30
0.0
 10
8.7881499608
 20
9.7518505579
 30
0.0
 10
8.7996426558
 20
9.7765993542
 30
0.0
 10
8.8121545258
 20
9.8007942758
 30
0.0
 10
8.8256653444
 20
9.8243959878
 30
0.0
 10
8.8401533175
 20
9.8473663275
 30
0.0
 10
8.8555944615
 20
9.8696675612
 30
0.0
 10
8.86651282
 20
9.8840719052
 30
0.0
 10
8.8721210806
 20
9.8911488613
 30
0.0
  0
SPLINE
  5
3A8
100
AcDbEntity
  8
0
100
AcDbSpline
 62
7
  6
CONTINUOUS
 70
0
 71
3
 72
39
 73
35
 74
0
 42
0.0000001
 43
0.0000001
 44
0.0000000001
 40
0.0
 40
0.0
 40
0.0
 40
0.0
 40
0.0063160491
 40
0.0126710089
 40
0.019103006
 40
0.0256487279
 40
0.0323427881
 40
0.0392173003
 40
0.0536155166
 40
0.0690526872
 40
0.0856860716
 40
0.1036344498
 40
0.1229845769
 40
0.1437975301
 40
0.1661136406
 40
0.1899565753
 40
0.2153367087
 40
0.2422532797
 40
0.2706962806
 40
0.300648064
 40
0.3320841712
 40
0.3649742887
 40
0.3992830905
 40
0.4349705326
 40
0.4719924421
 40
0.5103010171
 40
0.5498449152
 40
0.5905696897
 40
0.632418122
 40
0.6753302534
 40
0.7192436955
 40
0.8098127278
 40
0.9035864748
 40
1.0
 40
1.0
 40
1.0
 40
1.0
 10
12.9997326829
 20
7.2375656914
 30
0.0
 10
13.0007552466
 20
7.2374947824
 30
0.0
 10
13.0028018394
 20
7.2372687975
 30
0.0
 10
13.0058487889
 20
7.2366797935
 30
0.0
 10
13.0088753864
 20
7.2358408289
 30
0.0
 10
13.0118798382
 20
7.2347524483
 30
0.0
 10
13.0148609403
 20
7.233415371
 30
0.0
 10
13.0188639584
 20
7.2312695805
 30
0.0
 10
13.0238172914
 20
7.2279282694
 30
0.0
 10
13.0295466599
 20
7.2230030573
 30
0.0
 10
13.0351483712
 20
7.2171117814
 30
0.0
 10
13.0406159306
 20
7.2102653591
 30
0.0
 10
13.045943485
 20
7.2024745417
 30
0.0
 10
13.0511239688
 20
7.1937512944
 30
0.0
 10
13.0561500522
 20
7.1841090333
 30
0.0
 10
13.0610141899
 20
7.1735627967
 30
0.0
 10
13.0657087081
 20
7.1621292
 30
0.0
 10
13.0702260865
 20
7.1498264968
 30
0.0
 10
13.0745590016
 20
7.1366744995
 30
0.0
 10
13.0787002797
 20
7.1226944998
 30
0.0
 10
13.0826430918
 20
7.1079092603
 30
0.0
 10
13.0863809219
 20
7.092342937
 30
0.0
 10
13.0899075096
 20
7.0760210112
 30
0.0
 10
13.0932170065
 20
7.0589702663
 30
0.0
 10
13.0963039192
 20
7.041218718
 30
0.0
 10
13.099163063
 20
7.0227955544
 30
0.0
 10
13.1017896967
 20
7.003731102
 30
0.0
 10
13.1041794599
 20
6.9840567569
 30
0.0
 10
13.1063283214
 20
6.9638049376
 30
0.0
 10
13.1082327665
 20
6.9430089947
 30
0.0
 10
13.110464688
 20
6.9143058702
 30
0.0
 10
13.1126030365
 20
6.8773199796
 30
0.0
 10
13.1141302821
 20
6.8317783457
 30
0.0
 10
13.1144617161
 20
6.8009119758
 30
0.0
 10
13.1144617161
 20
6.7852652122
 30
0.0
  0
SPLINE
  5
3A9
100
AcDbEntity
  8
0
100
AcDbSpline
 62
7
  6
CONTINUOUS
 70
0
 71
3
 72
52
 73
48
 74
0
 42
0.0000001
 43
0.0000001
 44
0.0000000001
 40
0.0
 40
0.0
 40
0.0
 40
0.0
 40
0.0053945006
 40
0.0109244505
 40
0.0166450214
 40
0.0226055109
 40
0.0288488346
 40
0.0354115066
 40
0.0423240605
 40
0.0496115776
 40
0.057294392
 40
0.0653886617
 40
0.0739070243
 40
0.0828590283
 40
0.0922516554
 40
0.1020895954
 40
0.1123756478
 40
0.1231108737
 40
0.134294911
 40
0.1459260381
 40
0.1580014323
 40
0.1705171734
 40
0.1834684657
 40
0.196849601
 40
0.2106541569
 40
0.224874933
 40
0.2395041339
 40
0.2545332871
 40
0.2857542814
 40
0.318460395
 40
0.3525658213
 40
0.3879781005
 40
0.4245988613
 40
0.4623244803
 40
0.5010466849
 40
0.5406531163
 40
0.5810278651
 40
0.6220519882
 40
0.6636040116
 40
0.7055604246
 40
0.7477961692
 40
0.7901851227
 40
0.8326005834
 40
0.8749157426
 40
0.9170041901
 40
0.9587403328
 40
1.0
 40
1.0
 40
1.0
 40
1.0
 10
12.9579270685
 20
5.7574181588
 30
0.0
 10
12.9600170655
 20
5.7575565384
 30
0.0
 10
12.964237115
 20
5.7580750717
 30
0.0
 10
12.9705414228
 20
5.7595474789
 30
0.0
 10
12.9768729946
 20
5.7617182967
 30
0.0
 10
12.9832255859
 20
5.7645836013
 30
0.0
 10
12.9895948957
 20
5.768139501
 30
0.0
 10
12.9959766373
 20
5.7723819209
 30
0.0
 10
13.0023666486
 20
5.7773068219
 30
0.0
 10
13.0087607608
 20
5.7829098793
 30
0.0
 10
13.0151545901
 20
5.7891865762
 30
0.0
 10
13.0215437048
 20
5.7961319213
 30
0.0
 10
13.0279234325
 20
5.8037405601
 30
0.0
 10
13.0342891025
 20
5.8120065691
 30
0.0
 10
13.0406358453
 20
5.8209235834
 30
0.0
 10
13.0469588521
 20
5.8304846462
 30
0.0
 10
13.0532531567
 20
5.8406823344
 30
0.0
 10
13.0595138976
 20
5.8515086438
 30
0.0
 10
13.0657360855
 20
5.8629551014
 30
0.0
 10
13.0719148654
 20
5.8750126761
 30
0.0
 10
13.0780452746
 20
5.8876718758
 30
0.0
 10
13.0841225047
 20
5.9009226762
 30
0.0
 10
13.0901416539
 20
5.9147546036
 30
0.0
 10
13.0960979885
 20
5.9291566787
 30
0.0
 10
13.1019866961
 20
5.9441174879
 30
0.0
 10
13.1078031296
 20
5.959625134
 30
0.0
 10
13.1135426254
 20
5.9756673184
 30
0.0
 10
13.1211836804
 20
5.9980371813
 30
0.0
 10
13.1304902465
 20
6.0272515841
 30
0.0
 10
13.1411436294
 20
6.063797899
 30
0.0
 10
13.1513852528
 20
6.1021484943
 30
0.0
 10
13.1611822668
 20
6.1421813025
 30
0.0
 10
13.1705032213
 20
6.1837691197
 30
0.0
 10
13.1793182212
 20
6.226779609
 30
0.0
 10
13.1875990052
 20
6.2710758637
 30
0.0
 10
13.1953190398
 20
6.3165168235
 30
0.0
 10
13.2024536002
 20
6.3629577454
 30
0.0
 10
13.2089798484
 20
6.4102506702
 30
0.0
 10
13.2148769043
 20
6.4582449015
 30
0.0
 10
13.220125911
 20
6.5067874916
 30
0.0
 10
13.2247100944
 20
6.555723733
 30
0.0
 10
13.2286148157
 20
6.604897655
 30
0.0
 10
13.2318276172
 20
6.6541525262
 30
0.0
 10
13.2343382646
 20
6.7033313471
 30
0.0
 10
13.2361387748
 20
6.7522774003
 30
0.0
 10
13.2372234481
 20
6.8008345454
 30
0.0
 10
13.2374687242
 20
6.8330605891
 30
0.0
 10
13.2374687242
 20
6.8490808652
 30
0.0
  0
SPLINE
  5
3AA
100
AcDbEntity
  8
0
100
AcDbSpline
 62
7
  6
CONTINUOUS
 70
0
 71
3
 72
33
 73
29
 74
0
 42
0.0000001
 43
0.0000001
 44
0.0000000001
 40
0.0
 40
0.0
 40
0.0
 40
0.0
 40
0.0958348694
 40
0.1891075393
 40
0.2792507307
 40
0.3657221938
 40
0.4480135352
 40
0.5256551542
 40
0.5625998871
 40
0.5982279088
 40
0.6324952589
 40
0.6653619968
 40
0.6967931368
 40
0.7267585922
 40
0.7552346622
 40
0.7822039745
 40
0.8076576644
 40
0.8315956119
 40
0.8540295607
 40
0.8749841658
 40
0.8945014605
 40
0.9126434539
 40
0.9294983432
 40
0.9451850262
 40
0.9598600607
 40
0.9737213157
 40
0.9870092446
 40
1.0
 40
1.0
 40
1.0
 40
1.0
 10
13.6820381502
 20
11.5054647786
 30
0.0
 10
13.6875338791
 20
11.5050836485
 30
0.0
 10
13.6983704803
 20
11.5042107041
 30
0.0
 10
13.714337604
 20
11.5025443762
 30
0.0
 10
13.7297244009
 20
11.5005474771
 30
0.0
 10
13.7444282886
 20
11.4982335952
 30
0.0
 10
13.7583511913
 20
11.4956184528
 30
0.0
 10
13.769401765
 20
11.4931641773
 30
0.0
 10
13.7777749818
 20
11.4910527002
 30
0.0
 10
13.7836991501
 20
11.4894314534
 30
0.0
 10
13.7893621645
 20
11.4877490952
 30
0.0
 10
13.7947546164
 20
11.4860083876
 30
0.0
 10
13.7998675617
 20
11.4842123037
 30
0.0
 10
13.8046925296
 20
11.4823637912
 30
0.0
 10
13.8092215755
 20
11.480466006
 30
0.0
 10
13.8134472433
 20
11.4785220125
 30
0.0
 10
13.8173626658
 20
11.4765351056
 30
0.0
 10
13.8209614666
 20
11.474508398
 30
0.0
 10
13.8242379252
 20
11.4724452263
 30
0.0
 10
13.8271867811
 20
11.4703486255
 30
0.0
 10
13.8298034659
 20
11.4682217861
 30
0.0
 10
13.8320837344
 20
11.4660674422
 30
0.0
 10
13.8340239107
 20
11.4638883645
 30
0.0
 10
13.8356202219
 20
11.4616867988
 30
0.0
 10
13.8368689927
 20
11.4594652518
 30
0.0
 10
13.8377658488
 20
11.4572261913
 30
0.0
 10
13.8383065084
 20
11.4549744495
 30
0.0
 10
13.8384273688
 20
11.453461247
 30
0.0
 10
13.8384273602
 20
11.4527144922
 30
0.0
  0
SPLINE
  5
3AB
100
AcDbEntity
  8
0
100
AcDbSpline
 62
7
  6
CONTINUOUS
 70
0
 71
3
 72
56
 73
52
 74
0
 42
0.0000001
 43
0.0000001
 44
0.0000000001
 40
0.0
 40
0.0
 40
0.0
 40
0.0
 40
0.0079608544
 40
0.0154478132
 40
0.0224996375
 40
0.0291647107
 40
0.0355021364
 40
0.0415820376
 40
0.0474849494
 40
0.053299511
 40
0.0591188064
 40
0.0650356762
 40
0.071138087
 40
0.0775055915
 40
0.0842072224
 40
0.0913009485
 40
0.0988341557
 40
0.1068446681
 40
0.1153621399
 40
0.1244091541
 40
0.1340025748
 40
0.1441542563
 40
0.1548721061
 40
0.1661604692
 40
0.1780208755
 40
0.1904522762
 40
0.2034514965
 40
0.2170134589
 40
0.2311313786
 40
0.2457970404
 40
0.2610007904
 40
0.2767318697
 40
0.2929782807
 40
0.3097271309
 40
0.3269644676
 40
0.3446755656
 40
0.3814551013
 40
0.419933218
 40
0.4599659324
 40
0.5014000718
 40
0.5440744868
 40
0.5878211746
 40
0.6324663426
 40
0.6778314309
 40
0.7237341115
 40
0.7699892647
 40
0.8164099682
 40
0.8628083992
 40
0.9089970192
 40
0.9547888796
 40
1.0
 40
1.0
 40
1.0
 40
1.0
 10
12.9243878724
 20
5.9971862926
 30
0.0
 10
12.925951263
 20
5.9952640083
 30
0.0
 10
12.9291047257
 20
5.9916285423
 30
0.0
 10
12.9340774283
 20
5.9866878444
 30
0.0
 10
12.9391384414
 20
5.9824386055
 30
0.0
 10
12.9442837846
 20
5.9788869633
 30
0.0
 10
12.9495093117
 20
5.9760387127
 30
0.0
 10
12.9548100059
 20
5.9739002366
 30
0.0
 10
12.9601790502
 20
5.9724772471
 30
0.0
 10
12.9656078093
 20
5.9717745838
 30
0.0
 10
12.971086121
 20
5.971794096
 30
0.0
 10
12.9766037228
 20
5.972535028
 30
0.0
 10
12.9821515444
 20
5.9739936232
 30
0.0
 10
12.9877222483
 20
5.9761649811
 30
0.0
 10
12.9933100872
 20
5.9790435827
 30
0.0
 10
12.9989102087
 20
5.9826241082
 30
0.0
 10
13.0045180384
 20
5.9869014068
 30
0.0
 10
13.0101290271
 20
5.9918702006
 30
0.0
 10
13.015738231
 20
5.9975250809
 30
0.0
 10
13.0213406461
 20
6.0038599867
 30
0.0
 10
13.0269307812
 20
6.0108684364
 30
0.0
 10
13.0325032244
 20
6.0185430877
 30
0.0
 10
13.0380521752
 20
6.0268760315
 30
0.0
 10
13.0435719801
 20
6.0358585003
 30
0.0
 10
13.0490567527
 20
6.0454810837
 30
0.0
 10
13.0545007222
 20
6.0557335881
 30
0.0
 10
13.0598980532
 20
6.0666051386
 30
0.0
 10
13.0652429446
 20
6.0780841572
 30
0.0
 10
13.0705296838
 20
6.0901583754
 30
0.0
 10
13.0757525086
 20
6.1028148848
 30
0.0
 10
13.0809058607
 20
6.1160401013
 30
0.0
 10
13.0859840798
 20
6.1298198458
 30
0.0
 10
13.0909817734
 20
6.1441392974
 30
0.0
 10
13.0958934348
 20
6.1589830667
 30
0.0
 10
13.1007138729
 20
6.1743351869
 30
0.0
 10
13.1070926681
 20
6.1957301338
 30
0.0
 10
13.1147819066
 20
6.2236296432
 30
0.0
 10
13.1234533061
 20
6.2584530244
 30
0.0
 10
13.1316433996
 20
6.29487894
 30
0.0
 10
13.1393166032
 20
6.3327504553
 30
0.0
 10
13.1464395589
 20
6.3719045998
 30
0.0
 10
13.1529813399
 20
6.4121726981
 30
0.0
 10
13.1589135611
 20
6.4533812338
 30
0.0
 10
13.1642105041
 20
6.495352583
 30
0.0
 10
13.1688492225
 20
6.5379058008
 30
0.0
 10
13.1728096428
 20
6.5808574118
 30
0.0
 10
13.1760746405
 20
6.6240221998
 30
0.0
 10
13.1786301354
 20
6.6672140456
 30
0.0
 10
13.1804651041
 20
6.7102466597
 30
0.0
 10
13.1815717138
 20
6.7529344054
 30
0.0
 10
13.1818226754
 20
6.78125918
 30
0.0
 10
13.1818226754
 20
6.7953309064
 30
0.0
  0
SPLINE
  5
3AC
100
AcDbEntity
  8
0
100
AcDbSpline
 62
7
  6
CONTINUOUS
 70
0
 71
3
 72
51
 73
47
 74
0
 42
0.0000001
 43
0.0000001
 44
0.0000000001
 40
0.0
 40
0.0
 40
0.0
 40
0.0
 40
0.0053769317
 40
0.0108199656
 40
0.0163926618
 40
0.0221538371
 40
0.0281562445
 40
0.0344457463
 40
0.0410614403
 40
0.0480358567
 40
0.0553957533
 40
0.0631626643
 40
0.0713537144
 40
0.0799821867
 40
0.0890580936
 40
0.0985886999
 40
0.1085788107
 40
0.1190312701
 40
0.1299470115
 40
0.1413255495
 40
0.1531648654
 40
0.1654618808
 40
0.1782122635
 40
0.1914108456
 40
0.2050514313
 40
0.2191271185
 40
0.248551348
 40
0.279614893
 40
0.3122384767
 40
0.3463344289
 40
0.3818076772
 40
0.4185565907
 40
0.4564737218
 40
0.4954464801
 40
0.5353577563
 40
0.5760865123
 40
0.6175083489
 40
0.6594960566
 40
0.7019201577
 40
0.7446494351
 40
0.7875514768
 40
0.8304931524
 40
0.8733412865
 40
0.9159627719
 40
0.9582260942
 40
1.0
 40
1.0
 40
1.0
 40
1.0
 10
12.9160199632
 20
6.0304649647
 30
0.0
 10
12.9174692584
 20
6.0303644643
 30
0.0
 10
12.9204001074
 20
6.0303310237
 30
0.0
 10
12.9248146106
 20
6.0307866302
 30
0.0
 10
12.9292537373
 20
6.0317463873
 30
0.0
 10
12.9337121661
 20
6.0332077409
 30
0.0
 10
12.938186129
 20
6.0351680963
 30
0.0
 10
12.9426722859
 20
6.0376243116
 30
0.0
 10
12.9471674621
 20
6.0405735913
 30
0.0
 10
12.9516687426
 20
6.0440127909
 30
0.0
 10
12.9561729993
 20
6.0479388871
 30
0.0
 10
12.9606771494
 20
6.0523484819
 30
0.0
 10
12.9651778964
 20
6.0572380055
 30
0.0
 10
12.9696718892
 20
6.0626035054
 30
0.0
 10
12.9741556957
 20
6.0684406721
 30
0.0
 10
12.9786257624
 20
6.0747448405
 30
0.0
 10
12.9830785978
 20
6.0815109018
 30
0.0
 10
12.9875105328
 20
6.0887334231
 30
0.0
 10
12.9919180699
 20
6.0964065006
 30
0.0
 10
12.9962974976
 20
6.1045239266
 30
0.0
 10
13.0006453385
 20
6.1130790308
 30
0.0
 10
13.0049578973
 20
6.1220648441
 30
0.0
 10
13.009231728
 20
6.1314739638
 30
0.0
 10
13.0134631886
 20
6.141298681
 30
0.0
 10
13.0176489036
 20
6.1515309016
 30
0.0
 10
13.0232470258
 20
6.1659194842
 30
0.0
 10
13.0300883592
 20
6.1848720945
 30
0.0
 10
13.0379450318
 20
6.2087744139
 30
0.0
 10
13.0455393353
 20
6.2340819629
 30
0.0
 10
13.0528459648
 20
6.2607112433
 30
0.0
 10
13.0598405554
 20
6.2885745832
 30
0.0
 10
13.0664997992
 20
6.3175800433
 30
0.0
 10
13.0728015158
 20
6.3476318632
 30
0.0
 10
13.0787247279
 20
6.3786307616
 30
0.0
 10
13.0842497285
 20
6.4104742869
 30
0.0
 10
13.0893581457
 20
6.4430571626
 30
0.0
 10
13.0940330016
 20
6.4762716437
 30
0.0
 10
13.0982587679
 20
6.5100078781
 30
0.0
 10
13.1020214152
 20
6.5441542737
 30
0.0
 10
13.1053084615
 20
6.5785978743
 30
0.0
 10
13.1081090061
 20
6.6132247258
 30
0.0
 10
13.1104137814
 20
6.6479202884
 30
0.0
 10
13.1122151489
 20
6.6825697236
 30
0.0
 10
13.1135071914
 20
6.7170585194
 30
0.0
 10
13.1142856243
 20
6.7512723576
 30
0.0
 10
13.1144617161
 20
6.7739784569
 30
0.0
 10
13.1144617161
 20
6.7852652122
 30
0.0
  0
SPLINE
  5
3AD
100
AcDbEntity
  8
0
100
AcDbSpline
 62
7
  6
CONTINUOUS
 70
0
 71
3
 72
23
 73
19
 74
0
 42
0.0000001
 43
0.0000001
 44
0.0000000001
 40
0.0
 40
0.0
 40
0.0
 40
0.0
 40
0.063638969
 40
0.1270840637
 40
0.1903407442
 40
0.2534141889
 40
0.3163120085
 40
0.379042994
 40
0.4416173704
 40
0.504046699
 40
0.5663437563
 40
0.6285224513
 40
0.6905977128
 40
0.7525853667
 40
0.8145019995
 40
0.8763648141
 40
0.9381914835
 40
1.0
 40
1.0
 40
1.0
 40
1.0
 10
10.0910059056
 20
6.4922186702
 30
0.0
 10
10.0916369103
 20
6.5033370754
 30
0.0
 10
10.0933942339
 20
6.5255150873
 30
0.0
 10
10.0975209881
 20
6.5585774189
 30
0.0
 10
10.1031264267
 20
6.591321805
 30
0.0
 10
10.1101996102
 20
6.6236826853
 30
0.0
 10
10.1187265619
 20
6.6555961812
 30
0.0
 10
10.1286904889
 20
6.6869991031
 30
0.0
 10
10.1400716912
 20
6.7178293221
 30
0.0
 10
10.1528476913
 20
6.7480258152
 30
0.0
 10
10.1669932658
 20
6.7775288045
 30
0.0
 10
10.1824804883
 20
6.8062798663
 30
0.0
 10
10.1992787046
 20
6.8342220898
 30
0.0
 10
10.2173546965
 20
6.8613001729
 30
0.0
 10
10.236672661
 20
6.8874604526
 30
0.0
 10
10.2571945886
 20
6.9126512913
 30
0.0
 10
10.2788791721
 20
6.9368221313
 30
0.0
 10
10.2940845007
 20
6.9522265741
 30
0.0
 10
10.3018639488
 20
6.9597409378
 30
0.0
  0
SPLINE
  5
3AE
100
AcDbEntity
  8
0
100
AcDbSpline
 62
7
  6
CONTINUOUS
 70
0
 71
3
 72
23
 73
19
 74
0
 42
0.0000001
 43
0.0000001
 44
0.0000000001
 40
0.0
 40
0.0
 40
0.0
 40
0.0
 40
0.0637776288
 40
0.1273446152
 40
0.1907020433
 40
0.2538561391
 40
0.3168131818
 40
0.3795820998
 40
0.442173387
 40
0.5045993408
 40
0.5668738683
 40
0.6290123813
 40
0.69103165
 40
0.7529496426
 40
0.8147853504
 40
0.8765585998
 40
0.9382898528
 40
1.0
 40
1.0
 40
1.0
 40
1.0
 10
8.2755155615
 20
9.1964980514
 30
0.0
 10
8.2755155615
 20
9.2099983495
 30
0.0
 10
8.2761616959
 20
9.236958934
 30
0.0
 10
8.2790782713
 20
9.2772358947
 30
0.0
 10
8.2839342144
 20
9.3171934597
 30
0.0
 10
8.2907181766
 20
9.3567381163
 30
0.0
 10
8.2994147939
 20
9.395779218
 30
0.0
 10
8.3100040152
 20
9.4342266027
 30
0.0
 10
8.3224615639
 20
9.471991671
 30
0.0
 10
8.3367587927
 20
9.5089873226
 30
0.0
 10
8.3528628221
 20
9.5451282344
 30
0.0
 10
8.3707365797
 20
9.5803310481
 30
0.0
 10
8.3903389005
 20
9.6145145548
 30
0.0
 10
8.4116246464
 20
9.647599913
 30
0.0
 10
8.4345446964
 20
9.679510724
 30
0.0
 10
8.4590464853
 20
9.7101736149
 30
0.0
 10
8.4850725356
 20
9.7395169007
 30
0.0
 10
8.5034029015
 20
9.7581576164
 30
0.0
 10
8.5127982855
 20
9.7672328467
 30
0.0
  0
SPLINE
  5
3AF
100
AcDbEntity
  8
0
100
AcDbSpline
 62
7
  6
CONTINUOUS
 70
0
 71
3
 72
23
 73
19
 74
0
 42
0.0000001
 43
0.0000001
 44
0.0000000001
 40
0.0
 40
0.0
 40
0.0
 40
0.0
 40
0.0637383848
 40
0.1272788171
 40
0.1906188402
 40
0.2537657639
 40
0.3167244642
 40
0.3795024846
 40
0.4421089401
 40
0.5045543017
 40
0.5668505287
 40
0.6290108911
 40
0.69104988
 40
0.7529830802
 40
0.8148270276
 40
0.8765990728
 40
0.9383172282
 40
1.0
 40
1.0
 40
1.0
 40
1.0
 10
8.7896614745
 20
9.4916248967
 30
0.0
 10
8.7896614745
 20
9.501479771
 30
0.0
 10
8.7901088577
 20
9.5211619129
 30
0.0
 10
8.7921277812
 20
9.5505750071
 30
0.0
 10
8.7954897645
 20
9.5797736738
 30
0.0
 10
8.8001875256
 20
9.6086962049
 30
0.0
 10
8.8062116533
 20
9.6372831819
 30
0.0
 10
8.8135496038
 20
9.6654751809
 30
0.0
 10
8.8221861957
 20
9.6932138002
 30
0.0
 10
8.8321036037
 20
9.7204415227
 30
0.0
 10
8.8432813537
 20
9.7471018636
 30
0.0
 10
8.8556962767
 20
9.7731395471
 30
0.0
 10
8.8693226454
 20
9.7985005774
 30
0.0
 10
8.884132259
 20
9.8231323596
 30
0.0
 10
8.9000944368
 20
9.84698372
 30
0.0
 10
8.9171762281
 20
9.8700053735
 30
0.0
 10
8.935341594
 20
9.8921489246
 30
0.0
 10
8.9481530021
 20
9.9062995122
 30
0.0
 10
8.954724429
 20
9.9132112132
 30
0.0
  0
SPLINE
  5
3B0
100
AcDbEntity
  8
0
100
AcDbSpline
 62
7
  6
CONTINUOUS
 70
0
 71
3
 72
29
 73
25
 74
0
 42
0.0000001
 43
0.0000001
 44
0.0000000001
 40
0.0
 40
0.0
 40
0.0
 40
0.0
 40
0.0322746239
 40
0.0644896819
 40
0.0966422072
 40
0.1287295042
 40
0.1926901619
 40
0.2563650759
 40
0.2880965717
 40
0.3197532591
 40
0.3513347215
 40
0.3828408934
 40
0.4456194189
 40
0.5081048571
 40
0.5703095388
 40
0.6322513078
 40
0.6939532391
 40
0.7554432364
 40
0.8167535179
 40
0.8779199973
 40
0.908466528
 40
0.9389918934
 40
0.9695012913
 40
1.0
 40
1.0
 40
1.0
 40
1.0
 10
10.5553214097
 20
5.6041248356
 30
0.0
 10
10.5644745477
 20
5.6003284969
 30
0.0
 10
10.5828899085
 20
5.5930424527
 30
0.0
 10
10.6108303418
 20
5.5830400038
 30
0.0
 10
10.6390323707
 20
5.57398504
 30
0.0
 10
10.6768939575
 20
5.5632023557
 30
0.0
 10
10.7247081801
 20
5.552135214
 30
0.0
 10
10.7730516621
 20
5.5443274792
 30
0.0
 10
10.8118378424
 20
5.5400786129
 30
0.0
 10
10.8409200235
 20
5.5378937826
 30
0.0
 10
10.8699910061
 20
5.5367103128
 30
0.0
 10
10.9086408636
 20
5.5364693832
 30
0.0
 10
10.9567657262
 20
5.5386671783
 30
0.0
 10
11.0139858354
 20
5.5453086886
 30
0.0
 10
11.0703449128
 20
5.5559202398
 30
0.0
 10
11.1255741786
 20
5.5704521881
 30
0.0
 10
11.1794121939
 20
5.5888360535
 30
0.0
 10
11.2316039619
 20
5.6109854971
 30
0.0
 10
11.2819002948
 20
5.6367947231
 30
0.0
 10
11.3220600872
 20
5.6612662233
 30
0.0
 10
11.3529907076
 20
5.6825348754
 30
0.0
 10
11.3755637965
 20
5.6993114765
 30
0.0
 10
11.3974920069
 20
5.7168979301
 30
0.0
 10
11.4116663622
 20
5.7291507967
 30
0.0
 10
11.4186363188
 20
5.7354040407
 30
0.0
  0
SPLINE
  5
3B1
100
AcDbEntity
  8
0
100
AcDbSpline
 62
7
  6
CONTINUOUS
 70
0
 71
3
 72
53
 73
49
 74
0
 42
0.0000001
 43
0.0000001
 44
0.0000000001
 40
0.0
 40
0.0
 40
0.0
 40
0.0
 40
0.0417740113
 40
0.0840369498
 40
0.1266584959
 40
0.1695064843
 40
0.2124480935
 40
0.2553500426
 40
0.298079237
 40
0.3405032536
 40
0.382490879
 40
0.4239126346
 40
0.4646413116
 40
0.5045525112
 40
0.543525196
 40
0.5814422576
 40
0.6181911067
 40
0.6536642972
 40
0.6877601986
 40
0.720383738
 40
0.7361160079
 40
0.7514479787
 40
0.7663699923
 40
0.7808730391
 40
0.7949486907
 40
0.8085892839
 40
0.8217878242
 40
0.8345382246
 40
0.8468351953
 40
0.858674535
 40
0.8700530305
 40
0.8809687964
 40
0.8914212207
 40
0.9014113515
 40
0.9109419335
 40
0.9200178526
 40
0.9286463131
 40
0.9368373658
 40
0.9446042772
 40
0.9519641672
 40
0.9589385932
 40
0.9655542738
 40
0.9718437889
 40
0.9778461802
 40
0.9836073652
 40
0.9891800467
 40
0.99462308
 40
1.0
 40
1.0
 40
1.0
 40
1.0
 10
13.350239401
 20
9.5983051597
 30
0.0
 10
13.350239401
 20
9.5819812763
 30
0.0
 10
13.3499847311
 20
9.5491419401
 30
0.0
 10
13.3488588817
 20
9.4996591336
 30
0.0
 10
13.3469902483
 20
9.4497787576
 30
0.0
 10
13.3443849564
 20
9.3996659286
 30
0.0
 10
13.3410516155
 20
9.3494864452
 30
0.0
 10
13.3370012436
 20
9.2994063134
 30
0.0
 10
13.3322472583
 20
9.2495912207
 30
0.0
 10
13.3268054188
 20
9.2002059667
 30
0.0
 10
13.3206937803
 20
9.1514139207
 30
0.0
 10
13.3139326323
 20
9.1033764753
 30
0.0
 10
13.3065444334
 20
9.0562525075
 30
0.0
 10
13.2985537384
 20
9.0101978461
 30
0.0
 10
13.2899871184
 20
8.9653647512
 30
0.0
 10
13.2808730759
 20
8.9219013907
 30
0.0
 10
13.2712419479
 20
8.8799513691
 30
0.0
 10
13.2611258218
 20
8.839653121
 30
0.0
 10
13.2505583776
 20
8.8011398304
 30
0.0
 10
13.2412970301
 20
8.7702763607
 30
0.0
 10
13.2336735964
 20
8.7465849921
 30
0.0
 10
13.2279345257
 20
8.7295555498
 30
0.0
 10
13.2221095062
 20
8.7130638605
 30
0.0
 10
13.216203378
 20
8.6971235138
 30
0.0
 10
13.2102209844
 20
8.6817476734
 30
0.0
 10
13.2041673529
 20
8.6669490006
 30
0.0
 10
13.1980474138
 20
8.6527397017
 30
0.0
 10
13.1918663233
 20
8.6391314475
 30
0.0
 10
13.1856290898
 20
8.6261354454
 30
0.0
 10
13.1793409657
 20
8.6137623285
 30
0.0
 10
13.1730070177
 20
8.6020222615
 30
0.0
 10
13.1666325544
 20
8.5909247964
 30
0.0
 10
13.1602226726
 20
8.5804790132
 30
0.0
 10
13.153782683
 20
8.5706933459
 30
0.0
 10
13.1473176684
 20
8.561575754
 30
0.0
 10
13.1408328649
 20
8.5531335333
 30
0.0
 10
13.1343332701
 20
8.545373508
 30
0.0
 10
13.1278239392
 20
8.5383018578
 30
0.0
 10
13.1213096814
 20
8.5319243181
 30
0.0
 10
13.1147952468
 20
8.5262460779
 30
0.0
 10
13.1082851641
 20
8.5212719699
 30
0.0
 10
13.1017838414
 20
8.5170065136
 30
0.0
 10
13.0952956453
 20
8.5134540369
 30
0.0
 10
13.0888249976
 20
8.510618879
 30
0.0
 10
13.0823768986
 20
8.5085052143
 30
0.0
 10
13.0759566482
 20
8.5071172259
 30
0.0
 10
13.0695720554
 20
8.5064581429
 30
0.0
 10
13.065333219
 20
8.5065065466
 30
0.0
 10
13.063237133
 20
8.5066519056
 30
0.0
  0
SPLINE
  5
3B2
100
AcDbEntity
  8
0
100
AcDbSpline
 62
7
  6
CONTINUOUS
 70
0
 71
3
 72
23
 73
19
 74
0
 42
0.0000001
 43
0.0000001
 44
0.0000000001
 40
0.0
 40
0.0
 40
0.0
 40
0.0
 40
0.0637442733
 40
0.1272879991
 40
0.1906307738
 40
0.2537789012
 40
0.3167375554
 40
0.3795145776
 40
0.4421191511
 40
0.5045620247
 40
0.5668554076
 40
0.6290128467
 40
0.6910491273
 40
0.7529801395
 40
0.8148227434
 40
0.8765946171
 40
0.9383140955
 40
1.0
 40
1.0
 40
1.0
 40
1.0
 10
9.9860737282
 20
6.4424742802
 30
0.0
 10
9.9860737282
 20
6.4553713925
 30
0.0
 10
9.9866634617
 20
6.4811290265
 30
0.0
 10
9.989325043
 20
6.5196197612
 30
0.0
 10
9.9937570068
 20
6.5578265659
 30
0.0
 10
9.999949764
 20
6.5956677169
 30
0.0
 10
10.0078906022
 20
6.6330641769
 30
0.0
 10
10.0175628038
 20
6.6699370963
 30
0.0
 10
10.0289461304
 20
6.7062089539
 30
0.0
 10
10.0420166758
 20
6.741803429
 30
0.0
 10
10.0567469995
 20
6.7766456276
 30
0.0
 10
10.0731061738
 20
6.8106622269
 30
0.0
 10
10.0910598359
 20
6.8437816228
 30
0.0
 10
10.1105702857
 20
6.8759341092
 30
0.0
 10
10.1315964257
 20
6.9070519536
 30
0.0
 10
10.1540942479
 20
6.9370698909
 30
0.0
 10
10.1780156138
 20
6.9659238681
 30
0.0
 10
10.1948835399
 20
6.9843486455
 30
0.0
 10
10.2035348659
 20
6.9933442672
 30
0.0
  0
SPLINE
  5
3B3
100
AcDbEntity
  8
0
100
AcDbSpline
 62
7
  6
CONTINUOUS
 70
0
 71
3
 72
15
 73
11
 74
0
 42
0.0000001
 43
0.0000001
 44
0.0000000001
 40
0.0
 40
0.0
 40
0.0
 40
0.0
 40
0.1261301777
 40
0.2518293477
 40
0.377144529
 40
0.5021290747
 40
0.6268418396
 40
0.7513462337
 40
0.8757091808
 40
1.0
 40
1.0
 40
1.0
 40
1.0
 10
11.0728703721
 20
5.6612794938
 30
0.0
 10
11.0876985889
 20
5.6649394731
 30
0.0
 10
11.1170791788
 20
5.6731978867
 30
0.0
 10
11.1601828482
 20
5.6883801
 30
0.0
 10
11.2020828224
 20
5.7062787106
 30
0.0
 10
11.2426160159
 20
5.7268247247
 30
0.0
 10
11.2816274017
 20
5.7499395557
 30
0.0
 10
11.3189676068
 20
5.7755351254
 30
0.0
 10
11.3544914974
 20
5.8035115447
 30
0.0
 10
11.3768792486
 20
5.8236847489
 30
0.0
 10
11.3877199079
 20
5.8341249393
 30
0.0
  0
LINE
  5
3B4
100
AcDbEntity
  8
0
100
AcDbLine
 62
7
  6
CONTINUOUS
 10
11.3877199079
 20
5.8341249393
 11
11.3884476204
 21
5.8348268113
  0
SPLINE
  5
3B5
100
AcDbEntity
  8
0
100
AcDbSpline
 62
7
  6
CONTINUOUS
 70
0
 71
3
 72
23
 73
19
 74
0
 42
0.0000001
 43
0.0000001
 44
0.0000000001
 40
0.0
 40
0.0
 40
0.0
 40
0.0
 40
0.0637647102
 40
0.1273228969
 40
0.19067484
 40
0.2538269357
 40
0.3167849538
 40
0.3795573983
 40
0.4421542229
 40
0.5045870939
 40
0.5668692287
 40
0.6290152813
 40
0.6910412178
 40
0.7529641654
 40
0.8148022534
 40
0.8765744409
 40
0.9383003352
 40
1.0
 40
1.0
 40
1.0
 40
1.0
 10
8.2835389452
 20
9.2042480455
 30
0.0
 10
8.2835389452
 20
9.2175086359
 30
0.0
 10
8.2841623622
 20
9.2439912029
 30
0.0
 10
8.2869762017
 20
9.2835585277
 30
0.0
 10
8.2916613566
 20
9.3228208836
 30
0.0
 10
8.2982071781
 20
9.3616895479
 30
0.0
 10
8.3065994189
 20
9.4000786306
 30
0.0
 10
8.3168193944
 20
9.4379025764
 30
0.0
 10
8.3288445167
 20
9.4750772999
 30
0.0
 10
8.3426480955
 20
9.5115200903
 30
0.0
 10
8.3581994885
 20
9.5471498738
 30
0.0
 10
8.3754641644
 20
9.5818873728
 30
0.0
 10
8.3944037684
 20
9.6156552798
 30
0.0
 10
8.4149762353
 20
9.6483784582
 30
0.0
 10
8.4371357795
 20
9.6799840022
 30
0.0
 10
8.4608333708
 20
9.7104018089
 30
0.0
 10
8.4860153761
 20
9.7395632706
 30
0.0
 10
8.5037597282
 20
9.758127598
 30
0.0
 10
8.5128570976
 20
9.7671761365
 30
0.0
  0
SPLINE
  5
3B6
100
AcDbEntity
  8
0
100
AcDbSpline
 62
7
  6
CONTINUOUS
 70
0
 71
3
 72
71
 73
67
 74
0
 42
0.0000001
 43
0.0000001
 44
0.0000000001
 40
0.0
 40
0.0
 40
0.0
 40
0.0
 40
0.0155842565
 40
0.0311159319
 40
0.0465952524
 40
0.0620238826
 40
0.0774034482
 40
0.0927362827
 40
0.1080251231
 40
0.1232731738
 40
0.1384840558
 40
0.1536617763
 40
0.1688106896
 40
0.1839354527
 40
0.199040978
 40
0.2141323822
 40
0.2292149324
 40
0.2442939901
 40
0.2593749544
 40
0.2744632041
 40
0.2895640403
 40
0.3046826298
 40
0.3198239504
 40
0.3349927394
 40
0.3501934439
 40
0.3654301774
 40
0.3807066784
 40
0.3960262752
 40
0.411391855
 40
0.4268058382
 40
0.4422701586
 40
0.4577862484
 40
0.4733550295
 40
0.4889769098
 40
0.5046517845
 40
0.5203790422
 40
0.5361575755
 40
0.5519857963
 40
0.5678616545
 40
0.5837826618
 40
0.5997459181
 40
0.6157481413
 40
0.6317856992
 40
0.6478546441
 40
0.6639507502
 40
0.6800695513
 40
0.6962063821
 40
0.7123564199
 40
0.7285147268
 40
0.7446762929
 40
0.76083608
 40
0.776989065
 40
0.7931302839
 40
0.8092548753
 40
0.8253581235
 40
0.8414355003
 40
0.8574827053
 40
0.8734957053
 40
0.889470771
 40
0.9054045131
 40
0.921293919
 40
0.9371363621
 40
0.9529297157
 40
0.968672092
 40
0.9843626215
 40
1.0
 40
1.0
 40
1.0
 40
1.0
 10
8.3863199017
 20
9.2196065214
 30
0.0
 10
8.3863199017
 20
9.2320868622
 30
0.0
 10
8.3869306657
 20
9.2570098609
 30
0.0
 10
8.3896876963
 20
9.2942373534
 30
0.0
 10
8.3942777671
 20
9.3311590258
 30
0.0
 10
8.4006896306
 20
9.367684499
 30
0.0
 10
8.4089081264
 20
9.4037262474
 30
0.0
 10
8.4189134349
 20
9.4391972253
 30
0.0
 10
8.4306815772
 20
9.4740119594
 30
0.0
 10
8.4441842602
 20
9.5080864829
 30
0.0
 10
8.4593890017
 20
9.5413386234
 30
0.0
 10
8.4762592013
 20
9.5736881797
 30
0.0
 10
8.4947542352
 20
9.6050571194
 30
0.0
 10
8.5148295515
 20
9.6353697681
 30
0.0
 10
8.5364367771
 20
9.6645529938
 30
0.0
 10
8.5595238328
 20
9.6925363859
 30
0.0
 10
8.5840350612
 20
9.719252425
 30
0.0
 10
8.609911345
 20
9.7446366653
 30
0.0
 10
8.637090264
 20
9.768627883
 30
0.0
 10
8.6655062526
 20
9.7911682216
 30
0.0
 10
8.6950907583
 20
9.8122033329
 30
0.0
 10
8.7257724096
 20
9.8316825084
 30
0.0
 10
8.7574771896
 20
9.8495588027
 30
0.0
 10
8.790128618
 20
9.8657891429
 30
0.0
 10
8.8236479286
 20
9.880334451
 30
0.0
 10
8.8579542688
 20
9.8931597304
 30
0.0
 10
8.8929649014
 20
9.9042341377
 30
0.0
 10
8.9285954039
 20
9.9135310583
 30
0.0
 10
8.9647598734
 20
9.9210281664
 30
0.0
 10
9.0013711339
 20
9.9267074782
 30
0.0
 10
9.0383409462
 20
9.9305553887
 30
0.0
 10
9.0755802185
 20
9.9325627206
 30
0.0
 10
9.1129992248
 20
9.9327247408
 30
0.0
 10
9.1505078214
 20
9.9310411554
 30
0.0
 10
9.1880156631
 20
9.9275161111
 30
0.0
 10
9.2254324187
 20
9.9221581827
 30
0.0
 10
9.2626679869
 20
9.914980352
 30
0.0
 10
9.2996327106
 20
9.9059999722
 30
0.0
 10
9.336237594
 20
9.8952387391
 30
0.0
 10
9.3723945193
 20
9.882722641
 30
0.0
 10
9.408016453
 20
9.868481877
 30
0.0
 10
9.4430176548
 20
9.8525507886
 30
0.0
 10
9.4773138811
 20
9.8349677749
 30
0.0
 10
9.5108225869
 20
9.8157752023
 30
0.0
 10
9.5434631202
 20
9.7950193001
 30
0.0
 10
9.5751569211
 20
9.7727500589
 30
0.0
 10
9.6058277164
 20
9.7490211169
 30
0.0
 10
9.6354016915
 20
9.7238896136
 30
0.0
 10
9.6638076685
 20
9.697416056
 30
0.0
 10
9.6909772757
 20
9.6696641735
 30
0.0
 10
9.7168451108
 20
9.6407007661
 30
0.0
 10
9.7413488963
 20
9.6105955437
 30
0.0
 10
9.7644296331
 20
9.5794209637
 30
0.0
 10
9.7860317552
 20
9.5472520648
 30
0.0
 10
9.8061032457
 20
9.5141662731
 30
0.0
 10
9.8245957637
 20
9.4802432187
 30
0.0
 10
9.841464759
 20
9.4455645459
 30
0.0
 10
9.8566695792
 20
9.4102137181
 30
0.0
 10
9.8701735657
 20
9.3742758199
 30
0.0
 10
9.8819441507
 20
9.33783735
 30
0.0
 10
9.8919529294
 20
9.3009860389
 30
0.0
 10
9.9001757878
 20
9.263810552
 30
0.0
 10
9.9065927541
 20
9.226400559
 30
0.0
 10
9.9111884942
 20
9.1888456183
 30
0.0
 10
9.9139515834
 20
9.1512375914
 30
0.0
 10
9.9145685983
 20
9.1261449968
 30
0.0
 10
9.9145685983
 20
9.1136221143
 30
0.0
  0
ENDSEC
  0
SECTION
  2
OBJECTS
  0
DICTIONARY
  5
C
100
AcDbDictionary
280
0
281
1
  3
ACAD_GROUP
350
D
  3
ACAD_MLINESTYLE
350
17
  3
ACAD_LAYOUT
350
1A
  3
ACAD_PLOTSETTINGS
350
19
  3
ACAD_PLOTSTYLENAME
350
E
  3
ACAD_IMAGE_DICT
350
       3B8
  3
ACAD_IMAGE_VARS
350
       3B9
  3
ACAD_TABLESTYLE
350
       3BA
  0
IMAGEDEF_REACTOR
  5
3B7
100
AcDbRasterImageDefReactor
 90
2
330
27F
  0
DICTIONARY
  5
D
102
{ACAD_REACTORS
330
C
102
}
100
AcDbDictionary
280
0
281
1
  0
ACDBDICTIONARYWDFLT
  5
E
102
{ACAD_REACTORS
330
C
102
}
100
AcDbDictionary
281
1
  3
Normal
350
F
100
AcDbDictionaryWithDefault
340
F
  0
DICTIONARY
  5
3B8
330
C
100
AcDbDictionary
281
1
  3
H8X_assy_2_img_1
350
       3BD
  0
RASTERVARIABLES
  5
3B9
330
C
100
AcDbRasterVariables
 90
0
 70
0
 71
1
 72
5
  0
DICTIONARY
  5
17
102
{ACAD_REACTORS
330
C
102
}
100
AcDbDictionary
280
0
281
1
  3
Standard
350
18
  0
DICTIONARY
  5
3BA
330
C
100
AcDbDictionary
281
1
  3
Standard
350
       3BE
  3
Standard1
350
       3BF
  0
DICTIONARY
  5
19
102
{ACAD_REACTORS
330
C
102
}
100
AcDbDictionary
281
1
  0
DICTIONARY
  5
1A
102
{ACAD_REACTORS
330
C
102
}
100
AcDbDictionary
281
1
  3
Model
350
3BB
  3
Layout1
350
3BC
  0
ACDBPLACEHOLDER
  5
F
102
{ACAD_REACTORS
330
E
102
}
  0
MLINESTYLE
  5
18
102
{ACAD_REACTORS
330
17
102
}
100
AcDbMlineStyle
  2
STANDARD
 70
0
  3

 62
256
 51
90.0
 52
90.0
 71
2
 49
0.5
 62
256
  6
BYLAYER
 49
-0.5
 62
256
  6
BYLAYER
  0
LAYOUT
  5
3BB
102
{ACAD_REACTORS
330
1A
102
}
100
AcDbPlotSettings
  1

  2
none_device
  4
ANSI_C_(22.00_x_17.00_Inches)
  6

 40
0.0
 41
0.0
 42
0.0
 43
0.0
 44
558.8
 45
431.8
 46
0.0
 47
0.0
 48
0.0
 49
0.0
140
0.0
141
0.0
142
1.0
143
1.0
 70
1024
 72
0
 73
0
 74
0
  7

 75
0
147
1.0
148
0.0
149
0.0
100
AcDbLayout
  1
Model
 70
0
 71
0
 10
0.0
 20
0.0
 11
22.0
 21
17.0
 12
0.0
 22
0.0
 32
0.0
 14
0.0
 24
0.0
 34
0.0
 15
0.0
 25
0.0
 35
0.0
146
0.0
 13
0.0
 23
0.0
 33
0.0
 16
1.0
 26
0.0
 36
0.0
 17
0.0
 27
1.0
 37
0.0
 76
0
330
204
345
0
346
0
  0
LAYOUT
  5
3BC
102
{ACAD_REACTORS
330
1A
102
}
100
AcDbPlotSettings
  1

  2
none_device
  4
ANSI_C_(22.00_x_17.00_Inches)
  6

 40
0.0
 41
0.0
 42
0.0
 43
0.0
 44
558.8
 45
431.8
 46
0.0
 47
0.0
 48
0.0
 49
0.0
140
0.0
141
0.0
142
1.0
143
1.0
 70
0
 72
0
 73
0
 74
0
  7

 75
0
147
1.0
148
0.0
149
0.0
100
AcDbLayout
  1
Layout1
 70
0
 71
1
 10
0.0
 20
0.0
 11
22.0
 21
17.0
 12
0.0
 22
0.0
 32
0.0
 14
0.0
 24
0.0
 34
0.0
 15
0.0
 25
0.0
 35
0.0
146
0.0
 13
0.0
 23
0.0
 33
0.0
 16
1.0
 26
0.0
 36
0.0
 17
0.0
 27
1.0
 37
0.0
 76
0
330
205
345
0
346
0
  0
IMAGEDEF
  5
3BD
102
{ACAD_REACTORS
330
3B8
330
3B7
102
}
100
AcDbRasterImageDef
 90
0
  1
H8X_assy_2_img_1.png
 10
369.0
 20
92.0
 11
0.0066666667
 21
0.0066666667
280
1
281
0
  0
TABLESTYLE
  5
3BE
102
{ACAD_REACTORS
330
3BA
330
282
330
283
102
}
330
3BA
100
AcDbTableStyle
  3
Standard
 70
0
 71
0
 40
0.06
 41
0.06
280
1
281
1
  7
Standard
140
0.18
170
1
 62
0
 63
7
283
0
  7
Standard
140
0.18
170
1
 62
0
 63
7
283
0
  7
Standard
140
0.18
170
1
 62
0
 63
7
283
0
  0
TABLESTYLE
  5
3BF
102
{ACAD_REACTORS
330
3BA
330
281
102
}
330
3BA
100
AcDbTableStyle
  3
Standard1
 70
1
 71
0
 40
0.06
 41
0.06
280
1
281
1
  7
Standard
140
0.18
170
1
 62
0
 63
7
283
0
  7
Standard
140
0.18
170
1
 62
0
 63
7
283
0
  7
Standard
140
0.18
170
1
 62
0
 63
7
283
0
  0
ENDSEC
  0
EOF
