999
DXF file: H8M_assy_2.dxf
999
Pro/ENGINEER 2014200 by Parametric Technology Corporation
  0
SECTION
  2
HEADER
  9
$ACADVER
  1
AC1021
  9
$DWGCODEPAGE
  3
ANSI_1252
  9
$EXTMAX
 10
22.0
 20
17.0
 30
0.0
  9
$EXTMIN
 10
0.0
 20
0.0
 30
0.0
  9
$LIMMIN
 10
0.0
 20
0.0
  9
$LIMMAX
 10
22.0
 20
17.0
  9
$VIEWCTR
 10
11.0
 20
8.5
  9
$VIEWSIZE
 40
17.0
  9
$CLAYER
  8
0
  9
$LTSCALE
 40
1.21
  9
$CELTYPE
  6
BYLAYER
  9
$DIMSCALE
 40
1.0
  9
$DIMASZ
 40
0.1875
  9
$DIMEXO
 40
0.0625
  9
$DIMDLI
 40
0.836
  9
$DIMEXE
 40
0.125
  9
$DIMCEN
 40
0.198
  9
$DIMLFAC
 40
1.0
  9
$DIMBLK
  1
_FILLED
  9
$DIMTXT
 40
0.1
  9
$DIMTOL
 70
0
  9
$DIMLIM
 70
0
  9
$DIMTFAC
 40
1.0
  9
$DIMGAP
 40
0.09
  9
$DIMDSEP
 70
46
  9
$AUNITS
 70
0
  9
$PDMODE
 70
3
  9
$PDSIZE
 40
0.3125
  9
$HANDSEED
  5
3C8
  9
$TILEMODE
 70
1
  9
$MEASUREMENT
 70
0
  9
$INSUNITS
 70
1
  0
ENDSEC
  0
SECTION
  2
CLASSES
  0
CLASS
  1
ACDBDICTIONARYWDFLT
  2
AcDbDictionaryWithDefault
  3
AutoCAD 2000
 90
0
 91
1
280
0
281
0
  0
CLASS
  1
ACDBPLACEHOLDER
  2
AcDbPlaceHolder
  3
AutoCAD 2000
 90
0
 91
1
280
0
281
0
  0
CLASS
  1
LAYOUT
  2
AcDbLayout
  3
AutoCAD 2000
 90
0
 91
0
280
0
281
0
  0
CLASS
  1
RASTERVARIABLES
  2
AcDbRasterVariables
  3
ISM
 90
0
 91
1
280
0
281
0
  0
CLASS
  1
IMAGEDEF
  2
AcDbRasterImageDef
  3
ISM
 90
0
 91
1
280
0
281
0
  0
CLASS
  1
IMAGEDEF_REACTOR
  2
AcDbRasterImageDefReactor
  3
ISM
 90
0
 91
1
280
0
281
0
  0
CLASS
  1
IMAGE
  2
AcDbRasterImage
  3
ISM
 90
127
 91
1
280
0
281
1
  0
CLASS
  1
TABLESTYLE
  2
AcDbTableStyle
  3
ObjectDBX Classes
 90
2047
 91
1
280
0
281
0
  0
CLASS
  1
ACAD_TABLE
  2
AcDbTable
  3
ObjectDBX Classes
 90
1025
 91
3
280
0
281
1
  0
ENDSEC
  0
SECTION
  2
TABLES
  0
TABLE
  2
VPORT
  5
8
100
AcDbSymbolTable
 70
2
  0
VPORT
  5
1F4
100
AcDbSymbolTableRecord
100
AcDbViewportTableRecord
  2
*ACTIVE
 70
0
 10
0.0
 20
0.0
 11
1.0
 21
1.0
 12
11.0
 22
8.5
 13
0.0
 23
0.0
 14
1.0
 24
1.0
 15
0.0
 25
0.0
 16
0.0
 26
0.0
 36
1.0
 17
0.0
 27
0.0
 37
0.0
 40
17.0
 41
1.2941176471
 42
50.0
 43
0.0
 44
0.0
 50
0.0
 51
0.0
 71
0
 72
100
 73
1
 74
1
 75
0
 76
0
 77
0
 78
0
  0
ENDTAB
  0
TABLE
  2
LTYPE
  5
5
100
AcDbSymbolTable
 70
6
  0
LTYPE
  5
14
100
AcDbSymbolTableRecord
100
AcDbLinetypeTableRecord
  2
BYBLOCK
 70
0
  3

 72
65
 73
0
 40
0.0
  0
LTYPE
  5
15
100
AcDbSymbolTableRecord
100
AcDbLinetypeTableRecord
  2
BYLAYER
 70
0
  3

 72
65
 73
0
 40
0.0
  0
LTYPE
  5
16
100
AcDbSymbolTableRecord
100
AcDbLinetypeTableRecord
  2
CONTINUOUS
 70
64
  3
Solid line
 72
65
 73
0
 40
0.0
  0
LTYPE
  5
1F5
100
AcDbSymbolTableRecord
100
AcDbLinetypeTableRecord
  2
CENTER
 70
64
  3
____ _ ____ _ ____ _ ____ _ ____ _ ____ _ ____
 72
65
 73
4
 40
0.6
 49
0.375
 74
0
 49
-0.075
 74
0
 49
0.075
 74
0
 49
-0.075
 74
0
  0
LTYPE
  5
1F6
100
AcDbSymbolTableRecord
100
AcDbLinetypeTableRecord
  2
HIDDEN
 70
64
  3
- - - - - - - - - - - - - - - - - - - -
 72
65
 73
2
 40
0.2
 49
0.1
 74
0
 49
-0.1
 74
0
  0
LTYPE
  5
1F7
100
AcDbSymbolTableRecord
100
AcDbLinetypeTableRecord
  2
PHANTOM
 70
64
  3
_____ _ _ _____ _ _ _____ _ _ _____
 72
65
 73
6
 40
0.8
 49
0.45
 74
0
 49
-0.05
 74
0
 49
0.1
 74
0
 49
-0.05
 74
0
 49
0.1
 74
0
 49
-0.05
 74
0
  0
LTYPE
  5
1F8
100
AcDbSymbolTableRecord
100
AcDbLinetypeTableRecord
  2
DOT
 70
64
  3
. . . . . . . . . . . . . . . . . . . .
 72
65
 73
2
 40
0.2
 49
0.1
 74
0
 49
-0.1
 74
0
  0
LTYPE
  5
1F9
100
AcDbSymbolTableRecord
100
AcDbLinetypeTableRecord
  2
DASHED
 70
64
  3
- - - - - - - - - - - - - - - - - - - -
 72
65
 73
2
 40
0.2
 49
0.1
 74
0
 49
-0.1
 74
0
  0
ENDTAB
  0
TABLE
  2
LAYER
  5
2
100
AcDbSymbolTable
 70
36
  0
LAYER
  5
10
100
AcDbSymbolTableRecord
100
AcDbLayerTableRecord
  2
0
 70
0
 62
7
  6
CONTINUOUS
370
-3
390
F
  0
LAYER
  5
1FA
100
AcDbSymbolTableRecord
100
AcDbLayerTableRecord
  2
DEFAULT_1
 70
0
 62
7
  6
CENTER
370
-3
390
F
  0
LAYER
  5
1FB
100
AcDbSymbolTableRecord
100
AcDbLayerTableRecord
  2
DEFAULT_2
 70
0
 62
8
  6
HIDDEN
370
-3
390
F
  0
LAYER
  5
1FC
100
AcDbSymbolTableRecord
100
AcDbLayerTableRecord
  2
DEFAULT_3
 70
0
 62
7
  6
PHANTOM
370
-3
390
F
  0
LAYER
  5
1FD
100
AcDbSymbolTableRecord
100
AcDbLayerTableRecord
  2
DATUM_PLANES
 70
0
 62
7
  6
CONTINUOUS
370
-3
390
F
  0
LAYER
  5
1FE
100
AcDbSymbolTableRecord
100
AcDbLayerTableRecord
  2
PORT_AREAS
 70
0
 62
7
  6
CONTINUOUS
370
-3
390
F
  0
LAYER
  5
1FF
100
AcDbSymbolTableRecord
100
AcDbLayerTableRecord
  2
SUNNBOMCOSMETIC
 70
0
 62
7
  6
CONTINUOUS
370
-3
390
F
  0
LAYER
  5
200
100
AcDbSymbolTableRecord
100
AcDbLayerTableRecord
  2
SUNNBOMSTAMPING
 70
0
 62
7
  6
CONTINUOUS
370
-3
390
F
  0
LAYER
  5
201
100
AcDbSymbolTableRecord
100
AcDbLayerTableRecord
  2
THREADS
 70
0
 62
7
  6
CONTINUOUS
370
-3
390
F
  0
ENDTAB
  0
TABLE
  2
STYLE
  5
3
100
AcDbSymbolTable
 70
1
  0
STYLE
  5
11
100
AcDbSymbolTableRecord
100
AcDbTextStyleTableRecord
  2
STANDARD
 70
0
 40
0.0
 41
0.8
 50
0.0
 71
0
 42
0.2
  3
txt
  4

  0
STYLE
  5
202
100
AcDbSymbolTableRecord
100
AcDbTextStyleTableRecord
  2
TEXTSTYLE_1
 70
0
 40
0.0
 41
0.8
 50
0.0
 71
0
 42
0.2
  3
gdt
  4

  0
ENDTAB
  0
TABLE
  2
VIEW
  5
6
100
AcDbSymbolTable
 70
0
  0
ENDTAB
  0
TABLE
  2
UCS
  5
7
100
AcDbSymbolTable
 70
0
  0
ENDTAB
  0
TABLE
  2
APPID
  5
9
100
AcDbSymbolTable
 70
1
  0
APPID
  5
203
100
AcDbSymbolTableRecord
100
AcDbRegAppTableRecord
  2
ACAD
 70
0
  0
ENDTAB
  0
TABLE
  2
BLOCK_RECORD
  5
1
100
AcDbSymbolTable
 70
0
  0
BLOCK_RECORD
  5
204
100
AcDbSymbolTableRecord
100
AcDbBlockTableRecord
  2
*Model_Space
  0
BLOCK_RECORD
  5
205
100
AcDbSymbolTableRecord
100
AcDbBlockTableRecord
  2
*Paper_Space
  0
BLOCK_RECORD
  5
206
100
AcDbSymbolTableRecord
100
AcDbBlockTableRecord
  2
SUN_FIRST_THIRD_ANGLE_BL0
  0
BLOCK_RECORD
  5
207
100
AcDbSymbolTableRecord
100
AcDbBlockTableRecord
  2
*T1
  0
BLOCK_RECORD
  5
208
100
AcDbSymbolTableRecord
100
AcDbBlockTableRecord
  2
*T2
  0
BLOCK_RECORD
  5
209
100
AcDbSymbolTableRecord
100
AcDbBlockTableRecord
  2
*T3
  0
ENDTAB
  0
TABLE
  2
DIMSTYLE
  5
A
100
AcDbSymbolTable
 70
1
100
AcDbDimStyleTable
 71
0
  0
DIMSTYLE
105
20A
100
AcDbSymbolTableRecord
100
AcDbDimStyleTableRecord
  2
STANDARD
 70
0
  3

  4

 40
1.0
 41
0.1875
 42
0.0625
 43
0.38
 44
0.125
 45
0.0
 46
0.0
 47
0.001
 48
0.001
140
0.1
141
0.09
142
0.0
143
25.4
144
1.0
145
0.0
146
1.0
147
0.09
 71
0.0
 72
0.0
 73
1
 74
1
 75
0
 76
0
 77
0
 78
4
170
0
171
2
172
0
173
0
174
0
175
0
176
0
177
0
178
0
270
2
271
3
272
3
273
2
274
2
275
0
280
0
281
0
282
0
283
1
284
4
285
0
286
0
287
3
288
0
340
11
278
46
  0
ENDTAB
  0
ENDSEC
  0
SECTION
  2
BLOCKS
  0
BLOCK
  5
20
100
AcDbEntity
  8
0
100
AcDbBlockBegin
  2
*Model_Space
 70
0
 10
0.0
 20
0.0
 30
0.0
  3
*Model_Space
  1

  0
ENDBLK
  5
21
100
AcDbEntity
  8
0
100
AcDbBlockEnd
  0
BLOCK
  5
1C
100
AcDbEntity
  8
0
100
AcDbBlockBegin
  2
*Paper_Space
 70
0
 10
0.0
 20
0.0
 30
0.0
  3
*Paper_Space
  1

  0
ENDBLK
  5
1D
100
AcDbEntity
  8
0
100
AcDbBlockEnd
  0
BLOCK
  5
20B
100
AcDbEntity
  8
0
100
AcDbBlockBegin
 62
2
  6
CONTINUOUS
  2
SUN_FIRST_THIRD_ANGLE_BL0
 70
64
 10
20.4816717061
 20
1.2289683772
  3
SUN_FIRST_THIRD_ANGLE_BL0
  1

  0
TEXT
  5
20C
100
AcDbEntity
  8
0
100
AcDbText
 62
2
  6
CONTINUOUS
 10
19.4750896608
 20
1.4136269581
  7
STANDARD
 40
0.08
  1
FIRST ANGLE
 41
0.8
 72
0
100
AcDbText
  0
TEXT
  5
20D
100
AcDbEntity
  8
0
100
AcDbText
 62
2
  6
CONTINUOUS
 10
20.7842537513
 20
1.4047600029
  7
STANDARD
 40
0.08
  1
THIRD ANGLE
 41
0.8
 72
0
100
AcDbText
  0
LINE
  5
20E
100
AcDbEntity
  8
0
100
AcDbLine
 62
7
  6
CONTINUOUS
 10
19.4767170086
 20
1.1727031207
 11
19.6334271527
 21
1.1717972817
  0
LINE
  5
20F
100
AcDbEntity
  8
0
100
AcDbLine
 62
7
  6
CONTINUOUS
 10
19.6596964832
 20
1.1717972817
 11
19.6950230232
 21
1.171593082
  0
LINE
  5
210
100
AcDbEntity
  8
0
100
AcDbLine
 62
7
  6
CONTINUOUS
 10
19.7194818561
 20
1.1708914427
 11
19.8852396156
 21
1.1699333054
  0
LINE
  5
211
100
AcDbEntity
  8
0
100
AcDbLine
 62
7
  6
CONTINUOUS
 10
19.4758111696
 20
1.2723454088
 11
19.88525039
 21
1.3511534004
  0
LINE
  5
212
100
AcDbEntity
  8
0
100
AcDbLine
 62
7
  6
CONTINUOUS
 10
19.88525039
 20
1.3511534004
 11
19.8831348489
 21
0.9851647912
  0
LINE
  5
213
100
AcDbEntity
  8
0
100
AcDbLine
 62
7
  6
CONTINUOUS
 10
19.8831348489
 20
0.9851647912
 11
19.4767170086
 21
1.0658141206
  0
LINE
  5
214
100
AcDbEntity
  8
0
100
AcDbLine
 62
7
  6
CONTINUOUS
 10
19.4767170086
 20
1.0658141206
 11
19.4779056764
 21
1.2714536432
  0
CIRCLE
  5
215
100
AcDbEntity
  8
0
100
AcDbCircle
 62
7
  6
CONTINUOUS
 10
20.2068232291
 20
1.1717972817
 40
0.175742101
  0
CIRCLE
  5
216
100
AcDbEntity
  8
0
100
AcDbCircle
 62
7
  6
CONTINUOUS
 10
20.2068232291
 20
1.1717972817
 40
0.1005522074
  0
LINE
  5
217
100
AcDbEntity
  8
0
100
AcDbLine
 62
7
  6
CONTINUOUS
 10
20.2077290681
 20
1.3756110529
 11
20.2071171714
 21
1.2379342989
  0
LINE
  5
218
100
AcDbEntity
  8
0
100
AcDbLine
 62
7
  6
CONTINUOUS
 10
20.2077290681
 20
1.2016899681
 11
20.2074674401
 21
1.1428236749
  0
LINE
  5
219
100
AcDbEntity
  8
0
100
AcDbLine
 62
7
  6
CONTINUOUS
 10
20.208634907
 20
1.101141841
 11
20.2080230104
 21
0.963465087
  0
LINE
  5
21A
100
AcDbEntity
  8
0
100
AcDbLine
 62
7
  6
CONTINUOUS
 10
20.0066328138
 20
1.1745147986
 11
20.1443095678
 21
1.1739029019
  0
LINE
  5
21B
100
AcDbEntity
  8
0
100
AcDbLine
 62
7
  6
CONTINUOUS
 10
20.1832714155
 20
1.1727031207
 11
20.238153505
 21
1.172335442
  0
LINE
  5
21C
100
AcDbEntity
  8
0
100
AcDbLine
 62
7
  6
CONTINUOUS
 10
20.2756669918
 20
1.1717972817
 11
20.407916871
 21
1.1712095044
  0
CIRCLE
  5
21D
100
AcDbEntity
  8
0
100
AcDbCircle
 62
7
  6
CONTINUOUS
 10
20.7509457401
 20
1.1693297793
 40
0.1722024983
  0
CIRCLE
  5
21E
100
AcDbEntity
  8
0
100
AcDbCircle
 62
7
  6
CONTINUOUS
 10
20.7509457401
 20
1.1693297793
 40
0.0985164967
  0
LINE
  5
21F
100
AcDbEntity
  8
0
100
AcDbLine
 62
7
  6
CONTINUOUS
 10
20.7169767782
 20
1.170462078
 11
20.7825395137
 21
1.1682766535
  0
LINE
  5
220
100
AcDbEntity
  8
0
100
AcDbLine
 62
7
  6
CONTINUOUS
 10
20.8177513651
 20
1.1693297793
 11
20.947965719
 21
1.1693297793
  0
LINE
  5
221
100
AcDbEntity
  8
0
100
AcDbLine
 62
7
  6
CONTINUOUS
 10
20.6875370113
 20
1.170462078
 11
20.5573226574
 21
1.170462078
  0
LINE
  5
222
100
AcDbEntity
  8
0
100
AcDbLine
 62
7
  6
CONTINUOUS
 10
20.7486811426
 20
1.1987695462
 11
20.7486811426
 21
1.1432869085
  0
LINE
  5
223
100
AcDbEntity
  8
0
100
AcDbLine
 62
7
  6
CONTINUOUS
 10
20.7498134414
 20
1.1059210505
 11
20.7498134414
 21
0.9757066966
  0
LINE
  5
224
100
AcDbEntity
  8
0
100
AcDbLine
 62
7
  6
CONTINUOUS
 10
20.7486811426
 20
1.2338708068
 11
20.7486811426
 21
1.3640851607
  0
LINE
  5
225
100
AcDbEntity
  8
0
100
AcDbLine
 62
7
  6
CONTINUOUS
 10
21.0702539817
 20
1.2701043662
 11
21.4790138229
 21
1.3448360823
  0
LINE
  5
226
100
AcDbEntity
  8
0
100
AcDbLine
 62
7
  6
CONTINUOUS
 10
21.4790138229
 20
1.3448360823
 11
21.4790138229
 21
0.9779712941
  0
LINE
  5
227
100
AcDbEntity
  8
0
100
AcDbLine
 62
7
  6
CONTINUOUS
 10
21.4790138229
 20
0.9779712941
 11
21.069121683
 21
1.0617614
  0
LINE
  5
228
100
AcDbEntity
  8
0
100
AcDbLine
 62
7
  6
CONTINUOUS
 10
21.0702539817
 20
1.2701043662
 11
21.069121683
 21
1.0617614
  0
LINE
  5
229
100
AcDbEntity
  8
0
100
AcDbLine
 62
7
  6
CONTINUOUS
 10
21.4790138229
 20
1.1693297793
 11
21.3159628059
 21
1.1693297793
  0
LINE
  5
22A
100
AcDbEntity
  8
0
100
AcDbLine
 62
7
  6
CONTINUOUS
 10
21.2876553377
 20
1.1693297793
 11
21.2502894796
 21
1.1693297793
  0
LINE
  5
22B
100
AcDbEntity
  8
0
100
AcDbLine
 62
7
  6
CONTINUOUS
 10
21.2208497126
 20
1.1659328831
 11
21.0713862804
 21
1.1659328831
  0
LINE
  5
22C
100
AcDbEntity
  8
0
100
AcDbLine
 62
7
  6
CONTINUOUS
 10
20.4796138713
 20
1.5284908897
 11
20.4766766948
 21
0.9294458646
  0
ENDBLK
  5
22D
100
AcDbEntity
  8
0
  6
BYBLOCK
 62
0
100
AcDbBlockEnd
  0
BLOCK
  5
22E
100
AcDbEntity
  8
0
100
AcDbBlockBegin
  2
*T1
 70
1
 10
0.0
 20
0.0
  3
*T1
  1

  0
LINE
  5
22F
100
AcDbEntity
  8
0
100
AcDbLine
 62
2
  6
CONTINUOUS
 10
9.275
 20
0.0
 11
-0.0
 21
0.0
  0
LINE
  5
230
100
AcDbEntity
  8
0
100
AcDbLine
 62
2
  6
CONTINUOUS
 10
9.275
 20
0.0
 11
9.275
 21
1.25
  0
LINE
  5
231
100
AcDbEntity
  8
0
100
AcDbLine
 62
2
  6
CONTINUOUS
 10
9.275
 20
0.625
 11
-0.0
 21
0.625
  0
LINE
  5
232
100
AcDbEntity
  8
0
100
AcDbLine
 62
2
  6
CONTINUOUS
 10
9.275
 20
1.25
 11
-0.0
 21
1.25
  0
LINE
  5
233
100
AcDbEntity
  8
0
100
AcDbLine
 62
2
  6
CONTINUOUS
 10
6.8
 20
0.0
 11
6.8
 21
1.25
  0
LINE
  5
234
100
AcDbEntity
  8
0
100
AcDbLine
 62
2
  6
CONTINUOUS
 10
6.4
 20
0.0
 11
6.4
 21
0.625
  0
LINE
  5
235
100
AcDbEntity
  8
0
100
AcDbLine
 62
2
  6
CONTINUOUS
 10
5.9
 20
0.0
 11
5.9
 21
0.625
  0
LINE
  5
236
100
AcDbEntity
  8
0
100
AcDbLine
 62
2
  6
CONTINUOUS
 10
5.2
 20
0.0
 11
5.2
 21
0.625
  0
LINE
  5
237
100
AcDbEntity
  8
0
100
AcDbLine
 62
2
  6
CONTINUOUS
 10
4.1
 20
0.0
 11
4.1
 21
1.25
  0
LINE
  5
238
100
AcDbEntity
  8
0
100
AcDbLine
 62
2
  6
CONTINUOUS
 10
-0.0
 20
0.0
 11
-0.0
 21
1.25
  0
MTEXT
  5
239
100
AcDbEntity
  8
0
100
AcDbMText
 62
2
  6
CONTINUOUS
  7
STANDARD
 71
2
 72
1
 10
6.6
 20
0.325
 30
0.0
 11
1.0
 21
0.0
 31
0.0
 44
0.9
  1
2
 40
0.125
 41
0.2
  0
MTEXT
  5
23A
100
AcDbEntity
  8
0
100
AcDbMText
 62
2
  6
CONTINUOUS
  7
STANDARD
 71
2
 72
1
 10
6.15
 20
0.325
 30
0.0
 11
1.0
 21
0.0
 31
0.0
 44
0.9
  1
C
 40
0.125
 41
0.2
  0
MTEXT
  5
23B
100
AcDbEntity
  8
0
100
AcDbMText
 62
2
  6
CONTINUOUS
  7
STANDARD
 71
2
 72
1
 10
5.55
 20
0.325
 30
0.0
 11
1.0
 21
0.0
 31
0.0
 44
0.9
  1
1.000
 40
0.125
 41
1.0
  0
MTEXT
  5
23C
100
AcDbEntity
  8
0
100
AcDbMText
 62
2
  6
CONTINUOUS
  7
STANDARD
 71
2
 72
1
 10
4.65
 20
0.325
 30
0.0
 11
1.0
 21
0.0
 31
0.0
 44
0.9
  1
Sep-26-19
 40
0.125
 41
1.8
  0
MTEXT
  5
23D
100
AcDbEntity
  8
0
100
AcDbMText
 62
2
  6
CONTINUOUS
  7
STANDARD
 71
2
 72
1
 10
2.05
 20
0.4625
 30
0.0
 11
1.0
 21
0.0
 31
0.0
 44
0.9
  1
T-17A Line mount\P2 cylinder sequence, with reverse checks
 40
0.125
 41
8.0
  0
MTEXT
  5
23E
100
AcDbEntity
  8
0
100
AcDbMText
 62
2
  6
CONTINUOUS
  7
STANDARD
 71
1
 72
1
 10
6.45
 20
0.5625
 30
0.0
 11
1.0
 21
0.0
 31
0.0
 44
0.9
  1
SHEET
 40
0.06
 41
0.48
  0
MTEXT
  5
23F
100
AcDbEntity
  8
0
100
AcDbMText
 62
2
  6
CONTINUOUS
  7
STANDARD
 71
1
 72
1
 10
5.95
 20
0.5625
 30
0.0
 11
1.0
 21
0.0
 31
0.0
 44
0.9
  1
DWG SIZE
 40
0.06
 41
0.768
  0
MTEXT
  5
240
100
AcDbEntity
  8
0
100
AcDbMText
 62
2
  6
CONTINUOUS
  7
STANDARD
 71
1
 72
1
 10
5.25
 20
0.5625
 30
0.0
 11
1.0
 21
0.0
 31
0.0
 44
0.9
  1
SCALE
 40
0.06
 41
0.48
  0
MTEXT
  5
241
100
AcDbEntity
  8
0
100
AcDbMText
 62
2
  6
CONTINUOUS
  7
STANDARD
 71
1
 72
1
 10
4.15
 20
0.5625
 30
0.0
 11
1.0
 21
0.0
 31
0.0
 44
0.9
  1
DATE
 40
0.06
 41
0.384
  0
MTEXT
  5
242
100
AcDbEntity
  8
0
100
AcDbMText
 62
2
  6
CONTINUOUS
  7
STANDARD
 71
1
 72
1
 10
0.05
 20
0.5625
 30
0.0
 11
1.0
 21
0.0
 31
0.0
 44
0.9
  1
DESCRIPTION
 40
0.06
 41
1.056
  0
MTEXT
  5
243
100
AcDbEntity
  8
0
100
AcDbMText
 62
2
  6
CONTINUOUS
  7
STANDARD
 71
2
 72
1
 10
5.45
 20
1.0375
 30
0.0
 11
1.0
 21
0.0
 31
0.0
 44
0.9
  1
ALL DIMENSIONS IN INCH\PVIEWS ARE THIRD ANGLE
 40
0.12
 41
4.224
  0
MTEXT
  5
244
100
AcDbEntity
  8
0
100
AcDbMText
 62
2
  6
CONTINUOUS
  7
STANDARD
 71
2
 72
1
 10
2.05
 20
0.95
 30
0.0
 11
1.0
 21
0.0
 31
0.0
 44
0.9
  1
H8M
 40
0.125
 41
0.6
  0
MTEXT
  5
245
100
AcDbEntity
  8
0
100
AcDbMText
 62
2
  6
CONTINUOUS
  7
STANDARD
 71
1
 72
1
 10
0.05
 20
1.1875
 30
0.0
 11
1.0
 21
0.0
 31
0.0
 44
0.9
  1
MODEL
 40
0.06
 41
0.48
  0
ENDBLK
  5
246
100
AcDbEntity
  8
0
  6
BYBLOCK
 62
0
100
AcDbBlockEnd
  0
BLOCK
  5
247
100
AcDbEntity
  8
0
100
AcDbBlockBegin
  2
*T2
 70
1
 10
0.0
 20
0.0
  3
*T2
  1

  0
LINE
  5
248
100
AcDbEntity
  8
0
100
AcDbLine
 62
2
  6
CONTINUOUS
 10
0.0
 20
0.0
 11
9.055
 21
0.0
  0
LINE
  5
249
100
AcDbEntity
  8
0
100
AcDbLine
 62
2
  6
CONTINUOUS
 10
0.0
 20
0.0
 11
0.0
 21
-2.594
  0
LINE
  5
24A
100
AcDbEntity
  8
0
100
AcDbLine
 62
2
  6
CONTINUOUS
 10
0.0
 20
-0.344
 11
9.055
 21
-0.344
  0
LINE
  5
24B
100
AcDbEntity
  8
0
100
AcDbLine
 62
2
  6
CONTINUOUS
 10
0.0
 20
-0.594
 11
9.055
 21
-0.594
  0
LINE
  5
24C
100
AcDbEntity
  8
0
100
AcDbLine
 62
2
  6
CONTINUOUS
 10
0.0
 20
-0.844
 11
9.055
 21
-0.844
  0
LINE
  5
24D
100
AcDbEntity
  8
0
100
AcDbLine
 62
2
  6
CONTINUOUS
 10
0.0
 20
-1.094
 11
9.055
 21
-1.094
  0
LINE
  5
24E
100
AcDbEntity
  8
0
100
AcDbLine
 62
2
  6
CONTINUOUS
 10
0.0
 20
-1.344
 11
9.055
 21
-1.344
  0
LINE
  5
24F
100
AcDbEntity
  8
0
100
AcDbLine
 62
2
  6
CONTINUOUS
 10
0.0
 20
-1.594
 11
9.055
 21
-1.594
  0
LINE
  5
250
100
AcDbEntity
  8
0
100
AcDbLine
 62
2
  6
CONTINUOUS
 10
0.0
 20
-1.844
 11
9.055
 21
-1.844
  0
LINE
  5
251
100
AcDbEntity
  8
0
100
AcDbLine
 62
2
  6
CONTINUOUS
 10
0.0
 20
-2.094
 11
9.055
 21
-2.094
  0
LINE
  5
252
100
AcDbEntity
  8
0
100
AcDbLine
 62
2
  6
CONTINUOUS
 10
0.0
 20
-2.344
 11
9.055
 21
-2.344
  0
LINE
  5
253
100
AcDbEntity
  8
0
100
AcDbLine
 62
2
  6
CONTINUOUS
 10
0.0
 20
-2.594
 11
9.055
 21
-2.594
  0
LINE
  5
254
100
AcDbEntity
  8
0
100
AcDbLine
 62
2
  6
CONTINUOUS
 10
3.055
 20
0.0
 11
3.055
 21
-2.594
  0
LINE
  5
255
100
AcDbEntity
  8
0
100
AcDbLine
 62
2
  6
CONTINUOUS
 10
9.055
 20
0.0
 11
9.055
 21
-2.594
  0
MTEXT
  5
256
100
AcDbEntity
  8
0
100
AcDbMText
 62
2
  6
CONTINUOUS
  7
STANDARD
 71
2
 72
1
 10
1.5275
 20
-0.0995
 30
0.0
 11
1.0
 21
0.0
 31
0.0
 44
0.9
  1
Technical Data
 40
0.145
 41
3.248
  0
MTEXT
  5
257
100
AcDbEntity
  8
0
100
AcDbMText
 62
2
  6
CONTINUOUS
  7
STANDARD
 71
2
 72
1
 10
4.555
 20
-0.0995
 30
0.0
 11
1.0
 21
0.0
 31
0.0
 44
0.9
  1
U.S. Units
 40
0.145
 41
2.32
  0
MTEXT
  5
258
100
AcDbEntity
  8
0
100
AcDbMText
 62
2
  6
CONTINUOUS
  7
STANDARD
 71
2
 72
1
 10
7.555
 20
-0.0995
 30
0.0
 11
1.0
 21
0.0
 31
0.0
 44
0.9
  1
Metric Units
 40
0.145
 41
2.784
  0
MTEXT
  5
259
100
AcDbEntity
  8
0
100
AcDbMText
 62
2
  6
CONTINUOUS
  7
STANDARD
 71
2
 72
1
 10
1.5275
 20
-0.4065
 30
0.0
 11
1.0
 21
0.0
 31
0.0
 44
0.9
  1
Cavity
 40
0.125
 41
1.2
  0
MTEXT
  5
25A
100
AcDbEntity
  8
0
100
AcDbMText
 62
2
  6
CONTINUOUS
  7
STANDARD
 71
2
 72
1
 10
6.055
 20
-0.4065
 30
0.0
 11
1.0
 21
0.0
 31
0.0
 44
0.9
  1
T-17A
 40
0.125
 41
1.0
  0
MTEXT
  5
25B
100
AcDbEntity
  8
0
100
AcDbMText
 62
2
  6
CONTINUOUS
  7
STANDARD
 71
2
 72
1
 10
1.5275
 20
-0.6565
 30
0.0
 11
1.0
 21
0.0
 31
0.0
 44
0.9
  1
Body Features
 40
0.125
 41
2.6
  0
MTEXT
  5
25C
100
AcDbEntity
  8
0
100
AcDbMText
 62
2
  6
CONTINUOUS
  7
STANDARD
 71
2
 72
1
 10
6.055
 20
-0.6565
 30
0.0
 11
1.0
 21
0.0
 31
0.0
 44
0.9
  1
2 cylinder sequence, with reverse checks
 40
0.125
 41
8.0
  0
MTEXT
  5
25D
100
AcDbEntity
  8
0
100
AcDbMText
 62
2
  6
CONTINUOUS
  7
STANDARD
 71
2
 72
1
 10
1.5275
 20
-0.9065
 30
0.0
 11
1.0
 21
0.0
 31
0.0
 44
0.9
  1
Body Type
 40
0.125
 41
1.8
  0
MTEXT
  5
25E
100
AcDbEntity
  8
0
100
AcDbMText
 62
2
  6
CONTINUOUS
  7
STANDARD
 71
2
 72
1
 10
6.055
 20
-0.9065
 30
0.0
 11
1.0
 21
0.0
 31
0.0
 44
0.9
  1
Line mount
 40
0.125
 41
2.0
  0
MTEXT
  5
25F
100
AcDbEntity
  8
0
100
AcDbMText
 62
2
  6
CONTINUOUS
  7
STANDARD
 71
2
 72
1
 10
1.5275
 20
-1.1565
 30
0.0
 11
1.0
 21
0.0
 31
0.0
 44
0.9
  1
Interface
 40
0.125
 41
1.8
  0
MTEXT
  5
260
100
AcDbEntity
  8
0
100
AcDbMText
 62
2
  6
CONTINUOUS
  7
STANDARD
 71
2
 72
1
 10
6.055
 20
-1.1565
 30
0.0
 11
1.0
 21
0.0
 31
0.0
 44
0.9
  1
None
 40
0.125
 41
0.8
  0
MTEXT
  5
261
100
AcDbEntity
  8
0
100
AcDbMText
 62
2
  6
CONTINUOUS
  7
STANDARD
 71
2
 72
1
 10
1.5275
 20
-1.4065
 30
0.0
 11
1.0
 21
0.0
 31
0.0
 44
0.9
  1
Open Cavity Quantity
 40
0.125
 41
4.0
  0
MTEXT
  5
262
100
AcDbEntity
  8
0
100
AcDbMText
 62
2
  6
CONTINUOUS
  7
STANDARD
 71
2
 72
1
 10
6.055
 20
-1.4065
 30
0.0
 11
1.0
 21
0.0
 31
0.0
 44
0.9
  1
2
 40
0.125
 41
0.2
  0
MTEXT
  5
263
100
AcDbEntity
  8
0
100
AcDbMText
 62
2
  6
CONTINUOUS
  7
STANDARD
 71
2
 72
1
 10
1.5275
 20
-1.6565
 30
0.0
 11
1.0
 21
0.0
 31
0.0
 44
0.9
  1
Weight
 40
0.125
 41
1.2
  0
MTEXT
  5
264
100
AcDbEntity
  8
0
100
AcDbMText
 62
2
  6
CONTINUOUS
  7
STANDARD
 71
2
 72
1
 10
4.555
 20
-1.6565
 30
0.0
 11
1.0
 21
0.0
 31
0.0
 44
0.9
  1
13.232 lb.
 40
0.125
 41
2.0
  0
MTEXT
  5
265
100
AcDbEntity
  8
0
100
AcDbMText
 62
2
  6
CONTINUOUS
  7
STANDARD
 71
2
 72
1
 10
7.555
 20
-1.6565
 30
0.0
 11
1.0
 21
0.0
 31
0.0
 44
0.9
  1
6,002 kg.
 40
0.125
 41
1.8
  0
MTEXT
  5
266
100
AcDbEntity
  8
0
100
AcDbMText
 62
2
  6
CONTINUOUS
  7
STANDARD
 71
2
 72
1
 10
1.5275
 20
-1.9065
 30
0.0
 11
1.0
 21
0.0
 31
0.0
 44
0.9
  1
Mounting Hole Diameter
 40
0.125
 41
4.4
  0
MTEXT
  5
267
100
AcDbEntity
  8
0
100
AcDbMText
 62
2
  6
CONTINUOUS
  7
STANDARD
 71
2
 72
1
 10
4.555
 20
-1.9065
 30
0.0
 11
1.0
 21
0.0
 31
0.0
 44
0.9
  1
.42 in.
 40
0.125
 41
1.4
  0
MTEXT
  5
268
100
AcDbEntity
  8
0
100
AcDbMText
 62
2
  6
CONTINUOUS
  7
STANDARD
 71
2
 72
1
 10
7.555
 20
-1.9065
 30
0.0
 11
1.0
 21
0.0
 31
0.0
 44
0.9
  1
10,7 mm
 40
0.125
 41
1.4
  0
MTEXT
  5
269
100
AcDbEntity
  8
0
100
AcDbMText
 62
2
  6
CONTINUOUS
  7
STANDARD
 71
2
 72
1
 10
1.5275
 20
-2.1565
 30
0.0
 11
1.0
 21
0.0
 31
0.0
 44
0.9
  1
Mounting Hole Depth
 40
0.125
 41
3.8
  0
MTEXT
  5
26A
100
AcDbEntity
  8
0
100
AcDbMText
 62
2
  6
CONTINUOUS
  7
STANDARD
 71
2
 72
1
 10
6.055
 20
-2.1565
 30
0.0
 11
1.0
 21
0.0
 31
0.0
 44
0.9
  1
Through
 40
0.125
 41
1.4
  0
MTEXT
  5
26B
100
AcDbEntity
  8
0
100
AcDbMText
 62
2
  6
CONTINUOUS
  7
STANDARD
 71
2
 72
1
 10
1.5275
 20
-2.4065
 30
0.0
 11
1.0
 21
0.0
 31
0.0
 44
0.9
  1
Mounting Hole Quantity
 40
0.125
 41
4.4
  0
MTEXT
  5
26C
100
AcDbEntity
  8
0
100
AcDbMText
 62
2
  6
CONTINUOUS
  7
STANDARD
 71
2
 72
1
 10
6.055
 20
-2.4065
 30
0.0
 11
1.0
 21
0.0
 31
0.0
 44
0.9
  1
2
 40
0.125
 41
0.2
  0
ENDBLK
  5
26D
100
AcDbEntity
  8
0
  6
BYBLOCK
 62
0
100
AcDbBlockEnd
  0
BLOCK
  5
26E
100
AcDbEntity
  8
0
100
AcDbBlockBegin
  2
*T3
 70
1
 10
0.0
 20
0.0
  3
*T3
  1

  0
LINE
  5
26F
100
AcDbEntity
  8
0
100
AcDbLine
 62
2
  6
CONTINUOUS
 10
0.0
 20
0.0
 11
4.6
 21
0.0
  0
LINE
  5
270
100
AcDbEntity
  8
0
100
AcDbLine
 62
2
  6
CONTINUOUS
 10
0.0
 20
0.0
 11
0.0
 21
-0.93775
  0
LINE
  5
271
100
AcDbEntity
  8
0
100
AcDbLine
 62
2
  6
CONTINUOUS
 10
0.0
 20
-0.34375
 11
4.6
 21
-0.34375
  0
LINE
  5
272
100
AcDbEntity
  8
0
100
AcDbLine
 62
2
  6
CONTINUOUS
 10
0.0
 20
-0.68775
 11
4.6
 21
-0.68775
  0
LINE
  5
273
100
AcDbEntity
  8
0
100
AcDbLine
 62
2
  6
CONTINUOUS
 10
0.0
 20
-0.93775
 11
4.6
 21
-0.93775
  0
LINE
  5
274
100
AcDbEntity
  8
0
100
AcDbLine
 62
2
  6
CONTINUOUS
 10
1.3
 20
-0.34375
 11
1.3
 21
-0.93775
  0
LINE
  5
275
100
AcDbEntity
  8
0
100
AcDbLine
 62
2
  6
CONTINUOUS
 10
3.3
 20
-0.34375
 11
3.3
 21
-0.93775
  0
LINE
  5
276
100
AcDbEntity
  8
0
100
AcDbLine
 62
2
  6
CONTINUOUS
 10
4.6
 20
0.0
 11
4.6
 21
-0.93775
  0
MTEXT
  5
277
100
AcDbEntity
  8
0
100
AcDbMText
 62
2
  6
CONTINUOUS
  7
STANDARD
 71
2
 72
1
 10
2.3
 20
-0.099375
 30
0.0
 11
1.0
 21
0.0
 31
0.0
 44
0.9
  1
Port Headings
 40
0.145
 41
3.016
  0
MTEXT
  5
278
100
AcDbEntity
  8
0
100
AcDbMText
 62
2
  6
CONTINUOUS
  7
STANDARD
 71
2
 72
1
 10
0.65
 20
-0.44325
 30
0.0
 11
1.0
 21
0.0
 31
0.0
 44
0.9
  1
Product
 40
0.145
 41
1.624
  0
MTEXT
  5
279
100
AcDbEntity
  8
0
100
AcDbMText
 62
2
  6
CONTINUOUS
  7
STANDARD
 71
2
 72
1
 10
2.3
 20
-0.44325
 30
0.0
 11
1.0
 21
0.0
 31
0.0
 44
0.9
  1
Port
 40
0.145
 41
0.928
  0
MTEXT
  5
27A
100
AcDbEntity
  8
0
100
AcDbMText
 62
2
  6
CONTINUOUS
  7
STANDARD
 71
2
 72
1
 10
3.95
 20
-0.44325
 30
0.0
 11
1.0
 21
0.0
 31
0.0
 44
0.9
  1
Size
 40
0.145
 41
0.928
  0
MTEXT
  5
27B
100
AcDbEntity
  8
0
100
AcDbMText
 62
2
  6
CONTINUOUS
  7
STANDARD
 71
2
 72
1
 10
0.65
 20
-0.75025
 30
0.0
 11
1.0
 21
0.0
 31
0.0
 44
0.9
  1
H8M
 40
0.125
 41
0.6
  0
MTEXT
  5
27C
100
AcDbEntity
  8
0
100
AcDbMText
 62
2
  6
CONTINUOUS
  7
STANDARD
 71
2
 72
1
 10
2.3
 20
-0.75025
 30
0.0
 11
1.0
 21
0.0
 31
0.0
 44
0.9
  1
All Ports
 40
0.125
 41
1.8
  0
MTEXT
  5
27D
100
AcDbEntity
  8
0
100
AcDbMText
 62
2
  6
CONTINUOUS
  7
STANDARD
 71
2
 72
1
 10
3.95
 20
-0.75025
 30
0.0
 11
1.0
 21
0.0
 31
0.0
 44
0.9
  1
SAE 16
 40
0.125
 41
1.2
  0
ENDBLK
  5
27E
100
AcDbEntity
  8
0
  6
BYBLOCK
 62
0
100
AcDbBlockEnd
  0
ENDSEC
  0
SECTION
  2
ENTITIES
  0
IMAGE
  5
27F
100
AcDbEntity
  8
0
100
AcDbRasterImage
 62
7
  6
CONTINUOUS
 10
19.2297077316
 20
0.3094318264
 30
0.0
 11
0.0066666667
 21
0.0
 31
0.0
 12
0.0
 22
0.0066666667
 32
0.0
 13
369.0
 23
92.0
340
       3C5
 70
9
280
0
281
50
282
50
283
0
360
       3BF
 71
1
 91
2
 14
-0.5
 24
-0.5
 14
368.5
 24
91.5
  0
INSERT
  5
280
100
AcDbEntity
  8
0
100
AcDbBlockReference
 62
2
  6
CONTINUOUS
  2
SUN_FIRST_THIRD_ANGLE_BL0
 10
20.4816717061
 20
1.2289683772
  0
ACAD_TABLE
  5
281
100
AcDbEntity
  8
0
 62
2
  6
CONTINUOUS
100
AcDbBlockReference
  2
*T1
 10
12.42375
 20
0.30125
 30
0.0
100
AcDbTable
342
       3C7
343
207
 11
1.0
 21
0.0
 31
0.0
 90
6
 91
4
 92
6
 93
20
 94
0
 95
0
 96
0
 70
1
 41
0.0
141
0.525
141
0.1
141
0.525
141
0.1
142
4.1
142
1.1
142
0.7
142
0.5
142
0.4
142
2.475
171
1
172
0
173
0
174
0
175
1
176
1
 91
33
178
0
145
0.0
301
CELL_VALUE
 90
4
  1
T-17A Line mount\P2 cylinder sequence, with reverse checks
304
ACVALUE_END
170
2
140
0.125
171
1
172
0
173
0
174
0
175
1
176
1
 91
33
178
0
145
0.0
301
CELL_VALUE
 90
4
  1
Sep-26-19
304
ACVALUE_END
170
5
140
0.125
171
1
172
0
173
0
174
0
175
1
176
1
 91
33
178
0
145
0.0
301
CELL_VALUE
 90
4
  1
1.000
304
ACVALUE_END
170
5
140
0.125
171
1
172
0
173
0
174
0
175
1
176
1
 91
33
178
0
145
0.0
301
CELL_VALUE
 90
4
  1
C
304
ACVALUE_END
170
5
140
0.125
171
1
172
0
173
0
174
0
175
1
176
1
 91
33
178
0
145
0.0
301
CELL_VALUE
 90
4
  1
2
304
ACVALUE_END
170
5
140
0.125
171
1
172
0
173
0
174
0
175
1
176
1
 91
33
178
0
145
0.0
301
CELL_VALUE
 90
4
  1
 
304
ACVALUE_END
170
1
140
0.125
171
1
172
0
173
0
174
0
175
1
176
1
 91
33
178
0
145
0.0
301
CELL_VALUE
 90
4
  1
DESCRIPTION
304
ACVALUE_END
170
1
140
0.06
171
1
172
0
173
0
174
0
175
1
176
1
 91
33
178
0
145
0.0
301
CELL_VALUE
 90
4
  1
DATE
304
ACVALUE_END
170
1
140
0.06
171
1
172
0
173
0
174
0
175
1
176
1
 91
33
178
0
145
0.0
301
CELL_VALUE
 90
4
  1
SCALE
304
ACVALUE_END
170
1
140
0.06
171
1
172
0
173
0
174
0
175
1
176
1
 91
33
178
0
145
0.0
301
CELL_VALUE
 90
4
  1
DWG SIZE
304
ACVALUE_END
170
1
140
0.06
171
1
172
0
173
0
174
0
175
1
176
1
 91
33
178
0
145
0.0
301
CELL_VALUE
 90
4
  1
SHEET
304
ACVALUE_END
170
1
140
0.06
171
1
172
0
173
0
174
0
175
1
176
1
 91
33
178
0
145
0.0
301
CELL_VALUE
 90
4
  1
 
304
ACVALUE_END
170
1
140
0.125
171
1
172
0
173
0
174
0
175
1
176
1
 91
33
178
0
145
0.0
301
CELL_VALUE
 90
4
  1
H8M
304
ACVALUE_END
170
5
140
0.125
171
1
172
0
173
0
174
0
175
4
176
1
 91
33
178
0
145
0.0
301
CELL_VALUE
 90
4
  1
ALL DIMENSIONS IN INCH\PVIEWS ARE THIRD ANGLE
304
ACVALUE_END
170
5
140
0.12
171
1
172
0
173
1
174
0
175
1
176
1
 91
1
178
0
145
0.0
170
1
171
1
172
0
173
1
174
0
175
1
176
1
 91
1
178
0
145
0.0
170
1
171
1
172
0
173
1
174
0
175
1
176
1
 91
1
178
0
145
0.0
170
5
171
1
172
0
173
0
174
0
175
1
176
1
 91
33
178
0
145
0.0
301
CELL_VALUE
 90
4
  1
 
304
ACVALUE_END
170
1
140
0.125
171
1
172
0
173
0
174
0
175
1
176
1
 91
33
178
0
145
0.0
301
CELL_VALUE
 90
4
  1
MODEL
304
ACVALUE_END
170
1
140
0.06
171
1
172
0
173
0
174
0
175
1
176
1
 91
33
178
0
145
0.0
301
CELL_VALUE
 90
4
  1
 
304
ACVALUE_END
170
1
140
0.125
171
1
172
0
173
0
174
0
175
1
176
1
 91
33
178
0
145
0.0
301
CELL_VALUE
 90
4
  1
 
304
ACVALUE_END
170
1
140
0.125
171
1
172
0
173
0
174
0
175
1
176
1
 91
33
178
0
145
0.0
301
CELL_VALUE
 90
4
  1
 
304
ACVALUE_END
170
1
140
0.125
171
1
172
0
173
0
174
0
175
1
176
1
 91
33
178
0
145
0.0
301
CELL_VALUE
 90
4
  1
 
304
ACVALUE_END
170
1
140
0.125
171
1
172
0
173
0
174
0
175
1
176
1
 91
33
178
0
145
0.0
301
CELL_VALUE
 90
4
  1
 
304
ACVALUE_END
170
1
140
0.125
  0
ACAD_TABLE
  5
282
100
AcDbEntity
  8
0
 62
2
  6
CONTINUOUS
100
AcDbBlockReference
  2
*T2
 10
12.4237499994
 20
16.47875
 30
0.0
100
AcDbTable
342
       3C6
343
208
 11
1.0
 21
0.0
 31
0.0
 90
22
 91
10
 92
3
 93
16
 94
0
 95
0
 96
0
 41
0.028
141
0.344
141
0.25
141
0.25
141
0.25
141
0.25
141
0.25
141
0.25
141
0.25
141
0.25
141
0.25
142
3.055
142
3.0
142
3.0
171
1
172
0
173
0
174
0
175
1
176
1
 91
33
178
0
145
0.0
301
CELL_VALUE
 90
4
  1
Technical Data
304
ACVALUE_END
170
5
140
0.145
171
1
172
0
173
0
174
0
175
1
176
1
 91
33
178
0
145
0.0
301
CELL_VALUE
 90
4
  1
U.S. Units
304
ACVALUE_END
170
5
140
0.145
171
1
172
0
173
0
174
0
175
1
176
1
 91
33
178
0
145
0.0
301
CELL_VALUE
 90
4
  1
Metric Units
304
ACVALUE_END
170
5
140
0.145
171
1
172
0
173
0
174
0
175
1
176
1
 91
33
178
0
145
0.0
301
CELL_VALUE
 90
4
  1
Cavity
304
ACVALUE_END
170
5
140
0.125
171
1
172
0
173
0
174
0
175
2
176
1
 91
33
178
0
145
0.0
301
CELL_VALUE
 90
4
  1
T-17A
304
ACVALUE_END
170
5
140
0.125
171
1
172
0
173
1
174
0
175
1
176
1
 91
1
178
0
145
0.0
170
1
171
1
172
0
173
0
174
0
175
1
176
1
 91
33
178
0
145
0.0
301
CELL_VALUE
 90
4
  1
Body Features
304
ACVALUE_END
170
5
140
0.125
171
1
172
0
173
0
174
0
175
2
176
1
 91
33
178
0
145
0.0
301
CELL_VALUE
 90
4
  1
2 cylinder sequence, with reverse checks
304
ACVALUE_END
170
5
140
0.125
171
1
172
0
173
1
174
0
175
1
176
1
 91
1
178
0
145
0.0
170
1
171
1
172
0
173
0
174
0
175
1
176
1
 91
33
178
0
145
0.0
301
CELL_VALUE
 90
4
  1
Body Type
304
ACVALUE_END
170
5
140
0.125
171
1
172
0
173
0
174
0
175
2
176
1
 91
33
178
0
145
0.0
301
CELL_VALUE
 90
4
  1
Line mount
304
ACVALUE_END
170
5
140
0.125
171
1
172
0
173
1
174
0
175
1
176
1
 91
1
178
0
145
0.0
170
1
171
1
172
0
173
0
174
0
175
1
176
1
 91
33
178
0
145
0.0
301
CELL_VALUE
 90
4
  1
Interface
304
ACVALUE_END
170
5
140
0.125
171
1
172
0
173
0
174
0
175
2
176
1
 91
33
178
0
145
0.0
301
CELL_VALUE
 90
4
  1
None
304
ACVALUE_END
170
5
140
0.125
171
1
172
0
173
1
174
0
175
1
176
1
 91
1
178
0
145
0.0
170
1
171
1
172
0
173
0
174
0
175
1
176
1
 91
33
178
0
145
0.0
301
CELL_VALUE
 90
4
  1
Open Cavity Quantity
304
ACVALUE_END
170
5
140
0.125
171
1
172
0
173
0
174
0
175
2
176
1
 91
33
178
0
145
0.0
301
CELL_VALUE
 90
4
  1
2
304
ACVALUE_END
170
5
140
0.125
171
1
172
0
173
1
174
0
175
1
176
1
 91
1
178
0
145
0.0
170
1
171
1
172
0
173
0
174
0
175
1
176
1
 91
33
178
0
145
0.0
301
CELL_VALUE
 90
4
  1
Weight
304
ACVALUE_END
170
5
140
0.125
171
1
172
0
173
0
174
0
175
1
176
1
 91
33
178
0
145
0.0
301
CELL_VALUE
 90
4
  1
13.232 lb.
304
ACVALUE_END
170
5
140
0.125
171
1
172
0
173
0
174
0
175
1
176
1
 91
33
178
0
145
0.0
301
CELL_VALUE
 90
4
  1
6,002 kg.
304
ACVALUE_END
170
5
140
0.125
171
1
172
0
173
0
174
0
175
1
176
1
 91
33
178
0
145
0.0
301
CELL_VALUE
 90
4
  1
Mounting Hole Diameter
304
ACVALUE_END
170
5
140
0.125
171
1
172
0
173
0
174
0
175
1
176
1
 91
33
178
0
145
0.0
301
CELL_VALUE
 90
4
  1
.42 in.
304
ACVALUE_END
170
5
140
0.125
171
1
172
0
173
0
174
0
175
1
176
1
 91
33
178
0
145
0.0
301
CELL_VALUE
 90
4
  1
10,7 mm
304
ACVALUE_END
170
5
140
0.125
171
1
172
0
173
0
174
0
175
1
176
1
 91
33
178
0
145
0.0
301
CELL_VALUE
 90
4
  1
Mounting Hole Depth
304
ACVALUE_END
170
5
140
0.125
171
1
172
0
173
0
174
0
175
2
176
1
 91
33
178
0
145
0.0
301
CELL_VALUE
 90
4
  1
Through
304
ACVALUE_END
170
5
140
0.125
171
1
172
0
173
1
174
0
175
1
176
1
 91
1
178
0
145
0.0
170
1
171
1
172
0
173
0
174
0
175
1
176
1
 91
33
178
0
145
0.0
301
CELL_VALUE
 90
4
  1
Mounting Hole Quantity
304
ACVALUE_END
170
5
140
0.125
171
1
172
0
173
0
174
0
175
2
176
1
 91
33
178
0
145
0.0
301
CELL_VALUE
 90
4
  1
2
304
ACVALUE_END
170
5
140
0.125
171
1
172
0
173
1
174
0
175
1
176
1
 91
1
178
0
145
0.0
170
1
  0
ACAD_TABLE
  5
283
100
AcDbEntity
  8
0
 62
2
  6
CONTINUOUS
100
AcDbBlockReference
  2
*T3
 10
0.52125
 20
1.459
 30
0.0
100
AcDbTable
342
       3C6
343
209
 11
1.0
 21
0.0
 31
0.0
 90
22
 91
3
 92
3
 93
16
 94
0
 95
0
 96
0
 41
0.05
141
0.34375
141
0.344
141
0.25
142
1.3
142
2.0
142
1.3
171
1
172
0
173
0
174
0
175
3
176
1
 91
33
178
0
145
0.0
301
CELL_VALUE
 90
4
  1
Port Headings
304
ACVALUE_END
170
5
140
0.145
171
1
172
0
173
1
174
0
175
1
176
1
 91
1
178
0
145
0.0
170
1
171
1
172
0
173
1
174
0
175
1
176
1
 91
1
178
0
145
0.0
170
1
171
1
172
0
173
0
174
0
175
1
176
1
 91
33
178
0
145
0.0
301
CELL_VALUE
 90
4
  1
Product
304
ACVALUE_END
170
5
140
0.145
171
1
172
0
173
0
174
0
175
1
176
1
 91
33
178
0
145
0.0
301
CELL_VALUE
 90
4
  1
Port
304
ACVALUE_END
170
5
140
0.145
171
1
172
0
173
0
174
0
175
1
176
1
 91
33
178
0
145
0.0
301
CELL_VALUE
 90
4
  1
Size
304
ACVALUE_END
170
5
140
0.145
171
1
172
0
173
0
174
0
175
1
176
1
 91
33
178
0
145
0.0
301
CELL_VALUE
 90
4
  1
H8M
304
ACVALUE_END
170
5
140
0.125
171
1
172
0
173
0
174
0
175
1
176
1
 91
33
178
0
145
0.0
301
CELL_VALUE
 90
4
  1
All Ports
304
ACVALUE_END
170
5
140
0.125
171
1
172
0
173
0
174
0
175
1
176
1
 91
33
178
0
145
0.0
301
CELL_VALUE
 90
4
  1
SAE 16
304
ACVALUE_END
170
5
140
0.125
  0
MTEXT
  5
284
100
AcDbEntity
  8
0
100
AcDbMText
 62
2
  6
CONTINUOUS
  7
STANDARD
 71
1
 72
1
 10
0.52125
 20
5.75995
 30
0.0
 11
1.0
 21
0.0
 31
0.0
 44
0.6
  3
Notes\P \P1. Important: Carefully consider\P   the maximum system pressure. The\P   pressure rating of the manifold is\P   dependent on the manifold material,\P   with the port type/size a secondary\P   consideration. Manifolds\P   constructed of alu
  1
minum are not\P   rated for pressures higher than\P   3000 psi (210 bar), regardless of\P   the port type/size specified.
 40
0.1
 41
3.04
  0
LINE
  5
285
100
AcDbEntity
  8
0
100
AcDbLine
 62
7
  6
CONTINUOUS
 10
0.30125
 20
0.30125
 11
0.30125
 21
16.69875
  0
LINE
  5
286
100
AcDbEntity
  8
0
100
AcDbLine
 62
7
  6
CONTINUOUS
 10
0.30125
 20
0.30125
 11
21.69875
 21
0.30125
  0
LINE
  5
287
100
AcDbEntity
  8
0
100
AcDbLine
 62
7
  6
CONTINUOUS
 10
0.30125
 20
16.69875
 11
21.69875
 21
16.69875
  0
LINE
  5
288
100
AcDbEntity
  8
0
100
AcDbLine
 62
7
  6
CONTINUOUS
 10
21.69875
 20
0.30125
 11
21.69875
 21
16.69875
  0
LINE
  5
289
100
AcDbEntity
  8
0
100
AcDbLine
 62
7
  6
CONTINUOUS
 10
7.7925526197
 20
10.3166582641
 11
9.3778179627
 21
11.8479070912
  0
LINE
  5
28A
100
AcDbEntity
  8
0
100
AcDbLine
 62
7
  6
CONTINUOUS
 10
7.7925526197
 20
5.4870288465
 11
7.7925526197
 21
10.3166582641
  0
LINE
  5
28B
100
AcDbEntity
  8
0
100
AcDbLine
 62
7
  6
CONTINUOUS
 10
12.6221820373
 20
5.1520929088
 11
7.7925526197
 21
5.4870288465
  0
LINE
  5
28C
100
AcDbEntity
  8
0
100
AcDbLine
 62
4
  6
CONTINUOUS
 10
12.0619450626
 20
6.0409601597
 11
12.0233080281
 21
6.0339803885
  0
LINE
  5
28D
100
AcDbEntity
  8
0
100
AcDbLine
 62
4
  6
CONTINUOUS
 10
11.9460339592
 20
6.5609393289
 11
12.1005820971
 21
6.5985176722
  0
LINE
  5
28E
100
AcDbEntity
  8
0
100
AcDbLine
 62
4
  6
CONTINUOUS
 10
12.6972394963
 20
6.4513186869
 11
12.7075922493
 21
6.4516594204
  0
LINE
  5
28F
100
AcDbEntity
  8
0
100
AcDbLine
 62
4
  6
CONTINUOUS
 10
11.9460339592
 20
6.3677541565
 11
12.1005820971
 21
6.3570362067
  0
LINE
  5
290
100
AcDbEntity
  8
0
100
AcDbLine
 62
4
  6
CONTINUOUS
 10
11.9460339592
 20
6.4450282254
 11
12.1005820971
 21
6.4343102757
  0
LINE
  5
291
100
AcDbEntity
  8
0
100
AcDbLine
 62
4
  6
CONTINUOUS
 10
12.6765339902
 20
6.1125631682
 11
12.7179450024
 21
6.1042668436
  0
LINE
  5
292
100
AcDbEntity
  8
0
100
AcDbLine
 62
4
  6
CONTINUOUS
 10
12.0233080281
 20
6.0339803885
 11
11.9846709936
 21
6.0463191346
  0
LINE
  5
293
100
AcDbEntity
  8
0
100
AcDbLine
 62
7
  6
CONTINUOUS
 10
11.1572463189
 20
6.967726054
 11
10.5106014449
 21
7.0125710284
  0
LINE
  5
294
100
AcDbEntity
  8
0
100
AcDbLine
 62
4
  6
CONTINUOUS
 10
12.1005820971
 20
6.501925086
 11
11.9460339592
 21
6.5609393289
  0
LINE
  5
295
100
AcDbEntity
  8
0
100
AcDbLine
 62
4
  6
CONTINUOUS
 10
12.1005820971
 20
6.2024880688
 11
11.9460339592
 21
6.2904800875
  0
LINE
  5
296
100
AcDbEntity
  8
0
100
AcDbLine
 62
4
  6
CONTINUOUS
 10
11.9846709936
 20
6.0463191346
 11
11.9589129676
 21
6.067423977
  0
LINE
  5
297
100
AcDbEntity
  8
0
100
AcDbLine
 62
4
  6
CONTINUOUS
 10
14.0480149443
 20
7.5725417412
 11
14.0376621913
 21
7.5722010077
  0
LINE
  5
298
100
AcDbEntity
  8
0
100
AcDbLine
 62
4
  6
CONTINUOUS
 10
12.0748240733
 20
6.1270003249
 11
12.0877030852
 21
6.1164479037
  0
LINE
  5
299
100
AcDbEntity
  8
0
100
AcDbLine
 62
4
  6
CONTINUOUS
 10
14.0583676973
 20
7.766067647
 11
14.0687204504
 21
7.7664083805
  0
LINE
  5
29A
100
AcDbEntity
  8
0
100
AcDbLine
 62
7
  6
CONTINUOUS
 10
11.518416633
 20
6.3608164375
 11
11.195094196
 21
6.9432498128
  0
LINE
  5
29B
100
AcDbEntity
  8
0
100
AcDbLine
 62
4
  6
CONTINUOUS
 10
14.0376621913
 20
7.4273121284
 11
14.0790732034
 21
7.4190158037
  0
LINE
  5
29C
100
AcDbEntity
  8
0
100
AcDbLine
 62
4
  6
CONTINUOUS
 10
11.9589129676
 20
6.067423977
 11
11.9460339592
 21
6.0876356565
  0
LINE
  5
29D
100
AcDbEntity
  8
0
100
AcDbLine
 62
4
  6
CONTINUOUS
 10
12.0877030852
 20
6.1164479037
 11
12.1005820971
 21
6.096236224
  0
LINE
  5
29E
100
AcDbEntity
  8
0
100
AcDbLine
 62
7
  6
CONTINUOUS
 10
12.6221820373
 20
9.9817223264
 11
14.2074473803
 21
11.5129711535
  0
LINE
  5
29F
100
AcDbEntity
  8
0
100
AcDbLine
 62
7
  6
CONTINUOUS
 10
10.3436833522
 20
6.9966595908
 11
10.3036008006
 21
6.9579428167
  0
LINE
  5
2A0
100
AcDbEntity
  8
0
100
AcDbLine
 62
4
  6
CONTINUOUS
 10
12.7803203476
 20
9.2071833681
 11
12.7906731006
 21
9.2075241016
  0
LINE
  5
2A1
100
AcDbEntity
  8
0
100
AcDbLine
 62
4
  6
CONTINUOUS
 10
12.6834358258
 20
6.341392778
 11
12.679984908
 21
6.3477187059
  0
LINE
  5
2A2
100
AcDbEntity
  8
0
100
AcDbLine
 62
4
  6
CONTINUOUS
 10
12.7075922493
 20
6.4516594204
 11
12.7144940855
 21
6.4390075653
  0
LINE
  5
2A3
100
AcDbEntity
  8
0
100
AcDbLine
 62
4
  6
CONTINUOUS
 10
11.9460339592
 20
6.0876356565
 11
11.9460339592
 21
6.1069541738
  0
LINE
  5
2A4
100
AcDbEntity
  8
0
100
AcDbLine
 62
7
  6
CONTINUOUS
 10
10.4727535678
 20
6.9933443055
 11
10.2931559112
 21
6.8198662804
  0
LINE
  5
2A5
100
AcDbEntity
  8
0
100
AcDbLine
 62
7
  6
CONTINUOUS
 10
10.5106014449
 20
7.0125710284
 11
10.3310037883
 21
6.8390930032
  0
LINE
  5
2A6
100
AcDbEntity
  8
0
100
AcDbLine
 62
4
  6
CONTINUOUS
 10
12.8010258537
 20
9.0146796627
 11
12.7596148415
 21
8.9746796942
  0
LINE
  5
2A7
100
AcDbEntity
  8
0
100
AcDbLine
 62
4
  6
CONTINUOUS
 10
14.1609462096
 20
10.2703064003
 11
14.1540443759
 21
10.2636397405
  0
LINE
  5
2A8
100
AcDbEntity
  8
0
100
AcDbLine
 62
4
  6
CONTINUOUS
 10
12.8010258537
 20
8.9084278179
 11
12.7596148415
 21
8.8684278494
  0
LINE
  5
2A9
100
AcDbEntity
  8
0
100
AcDbLine
 62
4
  6
CONTINUOUS
 10
12.0233080281
 20
6.3623951816
 11
12.0233080281
 21
6.4396692506
  0
LINE
  5
2AA
100
AcDbEntity
  8
0
100
AcDbLine
 62
4
  6
CONTINUOUS
 10
12.0490660496
 20
6.5248162533
 11
12.0490660496
 21
6.582771805
  0
LINE
  5
2AB
100
AcDbEntity
  8
0
100
AcDbLine
 62
4
  6
CONTINUOUS
 10
12.1005820971
 20
6.096236224
 11
12.1005820971
 21
6.0769177068
  0
LINE
  5
2AC
100
AcDbEntity
  8
0
100
AcDbLine
 62
4
  6
CONTINUOUS
 10
12.7699675946
 20
9.1875241173
 11
12.7803203476
 21
9.2071833681
  0
LINE
  5
2AD
100
AcDbEntity
  8
0
100
AcDbLine
 62
4
  6
CONTINUOUS
 10
14.1678480458
 20
10.2093582522
 11
14.1264370337
 21
10.1693582837
  0
LINE
  5
2AE
100
AcDbEntity
  8
0
100
AcDbLine
 62
4
  6
CONTINUOUS
 10
12.7872221838
 20
8.8178204269
 11
12.7975749368
 21
8.827820419
  0
LINE
  5
2AF
100
AcDbEntity
  8
0
100
AcDbLine
 62
4
  6
CONTINUOUS
 10
12.7665166771
 20
8.7881611834
 11
12.7768694295
 21
8.798161175
  0
LINE
  5
2B0
100
AcDbEntity
  8
0
100
AcDbLine
 62
4
  6
CONTINUOUS
 10
14.1540443759
 20
10.1187508612
 11
14.164397129
 21
10.1287508533
  0
LINE
  5
2B1
100
AcDbEntity
  8
0
100
AcDbLine
 62
4
  6
CONTINUOUS
 10
14.1333388693
 20
10.0890916178
 11
14.1436916217
 21
10.0990916093
  0
LINE
  5
2B2
100
AcDbEntity
  8
0
100
AcDbLine
 62
7
  6
CONTINUOUS
 10
11.1572463189
 20
6.967726054
 11
10.9776486623
 21
6.7942480289
  0
LINE
  5
2B3
100
AcDbEntity
  8
0
100
AcDbLine
 62
7
  6
CONTINUOUS
 10
11.195094196
 20
6.9432498128
 11
11.0154965394
 21
6.7697717877
  0
LINE
  5
2B4
100
AcDbEntity
  8
0
100
AcDbLine
 62
4
  6
CONTINUOUS
 10
12.679984908
 20
6.3477187059
 11
12.6765339902
 21
6.3637038923
  0
LINE
  5
2B5
100
AcDbEntity
  8
0
100
AcDbLine
 62
4
  6
CONTINUOUS
 10
12.7144940855
 20
6.4390075653
 11
12.7179450024
 21
6.423022378
  0
LINE
  5
2B6
100
AcDbEntity
  8
0
100
AcDbLine
 62
4
  6
CONTINUOUS
 10
12.7630657593
 20
9.1615389388
 11
12.7699675946
 21
9.1875241173
  0
LINE
  5
2B7
100
AcDbEntity
  8
0
100
AcDbLine
 62
4
  6
CONTINUOUS
 10
12.7975749368
 20
9.1369166948
 11
12.7941240175
 21
9.1239241039
  0
LINE
  5
2B8
100
AcDbEntity
  8
0
100
AcDbLine
 62
7
  6
CONTINUOUS
 10
11.195094196
 20
5.7795250725
 11
11.518416633
 21
6.3171134735
  0
LINE
  5
2B9
100
AcDbEntity
  8
0
100
AcDbLine
 62
7
  6
CONTINUOUS
 10
12.6221820373
 20
9.9817223264
 11
12.6221820373
 21
5.1520929088
  0
LINE
  5
2BA
100
AcDbEntity
  8
0
100
AcDbLine
 62
4
  6
CONTINUOUS
 10
12.6765339902
 20
6.3637038923
 11
12.6765339902
 21
6.3830224095
  0
LINE
  5
2BB
100
AcDbEntity
  8
0
100
AcDbLine
 62
4
  6
CONTINUOUS
 10
12.6903376614
 20
6.1065779742
 11
12.6903376614
 21
6.0486224225
  0
LINE
  5
2BC
100
AcDbEntity
  8
0
100
AcDbLine
 62
4
  6
CONTINUOUS
 10
12.7179450024
 20
6.423022378
 11
12.7179450024
 21
6.4037038608
  0
LINE
  5
2BD
100
AcDbEntity
  8
0
100
AcDbLine
 62
4
  6
CONTINUOUS
 10
12.7596148415
 20
8.8684278494
 11
12.7596148415
 21
8.8008130391
  0
LINE
  5
2BE
100
AcDbEntity
  8
0
100
AcDbLine
 62
4
  6
CONTINUOUS
 10
12.7596148415
 20
9.1195685735
 11
12.7596148415
 21
9.1388870907
  0
LINE
  5
2BF
100
AcDbEntity
  8
0
100
AcDbLine
 62
4
  6
CONTINUOUS
 10
12.7837712645
 20
8.8917611635
 11
12.7837712645
 21
8.8241463532
  0
LINE
  5
2C0
100
AcDbEntity
  8
0
100
AcDbLine
 62
4
  6
CONTINUOUS
 10
12.8010258537
 20
9.1788870592
 11
12.8010258537
 21
9.159568542
  0
LINE
  5
2C1
100
AcDbEntity
  8
0
100
AcDbLine
 62
4
  6
CONTINUOUS
 10
12.8010258537
 20
8.8408130075
 11
12.8010258537
 21
8.9084278179
  0
LINE
  5
2C2
100
AcDbEntity
  8
0
100
AcDbLine
 62
4
  6
CONTINUOUS
 10
12.7596148415
 20
9.1388870907
 11
12.7630657593
 21
9.1615389388
  0
LINE
  5
2C3
100
AcDbEntity
  8
0
100
AcDbLine
 62
4
  6
CONTINUOUS
 10
12.8010258537
 20
9.159568542
 11
12.7975749368
 21
9.1369166948
  0
LINE
  5
2C4
100
AcDbEntity
  8
0
100
AcDbLine
 62
4
  6
CONTINUOUS
 10
12.7768694295
 20
8.798161175
 11
12.7837712645
 21
8.8241463532
  0
LINE
  5
2C5
100
AcDbEntity
  8
0
100
AcDbLine
 62
4
  6
CONTINUOUS
 10
12.7975749368
 20
8.827820419
 11
12.8010258537
 21
8.8408130075
  0
LINE
  5
2C6
100
AcDbEntity
  8
0
100
AcDbLine
 62
4
  6
CONTINUOUS
 10
14.1367897867
 20
10.4884545517
 11
14.1471425398
 21
10.5081138024
  0
LINE
  5
2C7
100
AcDbEntity
  8
0
100
AcDbLine
 62
4
  6
CONTINUOUS
 10
14.1367897867
 20
10.3145878965
 11
14.1264370337
 21
10.314247163
  0
LINE
  5
2C8
100
AcDbEntity
  8
0
100
AcDbLine
 62
7
  6
CONTINUOUS
 10
7.7925526197
 20
10.3166582641
 11
12.6221820373
 21
9.9817223264
  0
LINE
  5
2C9
100
AcDbEntity
  8
0
100
AcDbLine
 62
4
  6
CONTINUOUS
 10
12.7596148415
 20
8.8008130391
 11
12.7665166771
 21
8.7881611834
  0
LINE
  5
2CA
100
AcDbEntity
  8
0
100
AcDbLine
 62
4
  6
CONTINUOUS
 10
12.7837712645
 20
8.8241463532
 11
12.7872221838
 21
8.8178204269
  0
LINE
  5
2CB
100
AcDbEntity
  8
0
100
AcDbLine
 62
4
  6
CONTINUOUS
 10
12.7665166771
 20
9.0972574592
 11
12.7630657593
 21
9.1035833871
  0
LINE
  5
2CC
100
AcDbEntity
  8
0
100
AcDbLine
 62
4
  6
CONTINUOUS
 10
12.7630657593
 20
9.1035833871
 11
12.7596148415
 21
9.1195685735
  0
LINE
  5
2CD
100
AcDbEntity
  8
0
100
AcDbLine
 62
4
  6
CONTINUOUS
 10
12.6765339902
 20
6.3830224095
 11
12.679984908
 21
6.4056742576
  0
LINE
  5
2CE
100
AcDbEntity
  8
0
100
AcDbLine
 62
4
  6
CONTINUOUS
 10
12.7179450024
 20
6.4037038608
 11
12.7144940855
 21
6.3810520136
  0
LINE
  5
2CF
100
AcDbEntity
  8
0
100
AcDbLine
 62
4
  6
CONTINUOUS
 10
12.679984908
 20
6.4056742576
 11
12.6868867433
 21
6.4316594361
  0
LINE
  5
2D0
100
AcDbEntity
  8
0
100
AcDbLine
 62
4
  6
CONTINUOUS
 10
12.7144940855
 20
6.3810520136
 11
12.7110431662
 21
6.3680594227
  0
LINE
  5
2D1
100
AcDbEntity
  8
0
100
AcDbLine
 62
4
  6
CONTINUOUS
 10
11.9460339592
 20
6.1069541738
 11
11.9589129676
 21
6.1253795287
  0
LINE
  5
2D2
100
AcDbEntity
  8
0
100
AcDbLine
 62
7
  6
CONTINUOUS
 10
11.518416633
 20
6.3608164375
 11
11.3388189764
 21
6.1873384124
  0
LINE
  5
2D3
100
AcDbEntity
  8
0
100
AcDbLine
 62
7
  6
CONTINUOUS
 10
11.518416633
 20
6.3171134735
 11
11.3388189764
 21
6.1436354483
  0
LINE
  5
2D4
100
AcDbEntity
  8
0
100
AcDbLine
 62
7
  6
CONTINUOUS
 10
11.195094196
 20
5.7795250725
 11
11.0154965394
 21
5.6060470474
  0
LINE
  5
2D5
100
AcDbEntity
  8
0
100
AcDbLine
 62
7
  6
CONTINUOUS
 10
11.427939668
 20
5.8764489937
 11
11.3867107686
 21
5.8366249325
  0
LINE
  5
2D6
100
AcDbEntity
  8
0
100
AcDbLine
 62
4
  6
CONTINUOUS
 10
14.1471425398
 20
10.5081138024
 11
14.1574952928
 21
10.5084545359
  0
LINE
  5
2D7
100
AcDbEntity
  8
0
100
AcDbLine
 62
4
  6
CONTINUOUS
 10
12.7906731006
 20
9.2075241016
 11
12.7975749368
 21
9.1948722465
  0
LINE
  5
2D8
100
AcDbEntity
  8
0
100
AcDbLine
 62
4
  6
CONTINUOUS
 10
12.7975749368
 20
9.1948722465
 11
12.8010258537
 21
9.1788870592
  0
LINE
  5
2D9
100
AcDbEntity
  8
0
100
AcDbLine
 62
4
  6
CONTINUOUS
 10
12.6868867433
 20
6.4316594361
 11
12.6972394963
 21
6.4513186869
  0
LINE
  5
2DA
100
AcDbEntity
  8
0
100
AcDbLine
 62
4
  6
CONTINUOUS
 10
12.1005820971
 20
6.0769177068
 11
12.0877030852
 21
6.058492352
  0
LINE
  5
2DB
100
AcDbEntity
  8
0
100
AcDbLine
 62
4
  6
CONTINUOUS
 10
11.9589129676
 20
6.1253795287
 11
11.9717919852
 21
6.1341456244
  0
LINE
  5
2DC
100
AcDbEntity
  8
0
100
AcDbLine
 62
4
  6
CONTINUOUS
 10
11.9460339592
 20
6.2132060186
 11
12.1005820971
 21
6.2797621378
  0
LINE
  5
2DD
100
AcDbEntity
  8
0
100
AcDbLine
 62
4
  6
CONTINUOUS
 10
14.0652695335
 20
7.5215935851
 11
14.0618186142
 21
7.5279195115
  0
LINE
  5
2DE
100
AcDbEntity
  8
0
100
AcDbLine
 62
4
  6
CONTINUOUS
 10
14.0549167792
 20
7.5598898849
 11
14.0480149443
 21
7.5725417412
  0
LINE
  5
2DF
100
AcDbEntity
  8
0
100
AcDbLine
 62
4
  6
CONTINUOUS
 10
14.0721713672
 20
7.6055343139
 11
14.0756222865
 21
7.5992083876
  0
LINE
  5
2E0
100
AcDbEntity
  8
0
100
AcDbLine
 62
4
  6
CONTINUOUS
 10
14.0445640268
 20
7.6561417382
 11
14.0411131091
 21
7.662467666
  0
LINE
  5
2E1
100
AcDbEntity
  8
0
100
AcDbLine
 62
4
  6
CONTINUOUS
 10
14.0687204504
 20
7.7664083805
 11
14.0756222865
 21
7.7537565255
  0
LINE
  5
2E2
100
AcDbEntity
  8
0
100
AcDbLine
 62
4
  6
CONTINUOUS
 10
14.1264370337
 20
10.4398175251
 11
14.1298879515
 21
10.4624693731
  0
LINE
  5
2E3
100
AcDbEntity
  8
0
100
AcDbLine
 62
4
  6
CONTINUOUS
 10
14.1298879515
 20
10.4624693731
 11
14.1367897867
 21
10.4884545517
  0
LINE
  5
2E4
100
AcDbEntity
  8
0
100
AcDbLine
 62
4
  6
CONTINUOUS
 10
14.164397129
 20
10.4378471291
 11
14.1609462096
 21
10.4248545382
  0
LINE
  5
2E5
100
AcDbEntity
  8
0
100
AcDbLine
 62
4
  6
CONTINUOUS
 10
14.164397129
 20
10.2832989912
 11
14.1609462096
 21
10.2703064003
  0
LINE
  5
2E6
100
AcDbEntity
  8
0
100
AcDbLine
 62
4
  6
CONTINUOUS
 10
14.1436916217
 20
10.0990916093
 11
14.1505934566
 21
10.1250767875
  0
LINE
  5
2E7
100
AcDbEntity
  8
0
100
AcDbLine
 62
4
  6
CONTINUOUS
 10
14.164397129
 20
10.1287508533
 11
14.1678480458
 21
10.1417434419
  0
LINE
  5
2E8
100
AcDbEntity
  8
0
100
AcDbLine
 62
4
  6
CONTINUOUS
 10
12.7179450024
 20
6.1042668436
 11
12.6765339902
 21
6.015970582
  0
LINE
  5
2E9
100
AcDbEntity
  8
0
100
AcDbLine
 62
4
  6
CONTINUOUS
 10
12.7179450024
 20
6.2588149815
 11
12.6765339902
 21
6.218815013
  0
LINE
  5
2EA
100
AcDbEntity
  8
0
100
AcDbLine
 62
4
  6
CONTINUOUS
 10
12.0877030852
 20
6.058492352
 11
12.0619450626
 21
6.0409601597
  0
LINE
  5
2EB
100
AcDbEntity
  8
0
100
AcDbLine
 62
4
  6
CONTINUOUS
 10
14.0618186142
 20
7.5279195115
 11
14.0549167792
 21
7.5598898849
  0
LINE
  5
2EC
100
AcDbEntity
  8
0
100
AcDbLine
 62
4
  6
CONTINUOUS
 10
14.0411131091
 20
7.662467666
 11
14.0376621913
 21
7.6784528525
  0
LINE
  5
2ED
100
AcDbEntity
  8
0
100
AcDbLine
 62
4
  6
CONTINUOUS
 10
14.0756222865
 20
7.5992083876
 11
14.0790732034
 21
7.5832232003
  0
LINE
  5
2EE
100
AcDbEntity
  8
0
100
AcDbLine
 62
4
  6
CONTINUOUS
 10
14.0376621913
 20
7.5722010077
 11
14.0376621913
 21
7.4949269387
  0
LINE
  5
2EF
100
AcDbEntity
  8
0
100
AcDbLine
 62
4
  6
CONTINUOUS
 10
14.0376621913
 20
7.6784528525
 11
14.0376621913
 21
7.6977713697
  0
LINE
  5
2F0
100
AcDbEntity
  8
0
100
AcDbLine
 62
4
  6
CONTINUOUS
 10
14.0514658624
 20
7.4213269343
 11
14.0514658624
 21
7.3633713826
  0
LINE
  5
2F1
100
AcDbEntity
  8
0
100
AcDbLine
 62
4
  6
CONTINUOUS
 10
14.0790732034
 20
7.7377713382
 11
14.0790732034
 21
7.7184528209
  0
LINE
  5
2F2
100
AcDbEntity
  8
0
100
AcDbLine
 62
4
  6
CONTINUOUS
 10
14.0790732034
 20
7.5832232003
 11
14.0790732034
 21
7.563904683
  0
LINE
  5
2F3
100
AcDbEntity
  8
0
100
AcDbLine
 62
4
  6
CONTINUOUS
 10
14.1264370337
 20
10.314247163
 11
14.1264370337
 21
10.2369730941
  0
LINE
  5
2F4
100
AcDbEntity
  8
0
100
AcDbLine
 62
4
  6
CONTINUOUS
 10
14.1264370337
 20
10.1693582837
 11
14.1264370337
 21
10.1017434734
  0
LINE
  5
2F5
100
AcDbEntity
  8
0
100
AcDbLine
 62
4
  6
CONTINUOUS
 10
14.1264370337
 20
10.4204990078
 11
14.1264370337
 21
10.4398175251
  0
LINE
  5
2F6
100
AcDbEntity
  8
0
100
AcDbLine
 62
4
  6
CONTINUOUS
 10
14.1678480458
 20
10.4604989763
 11
14.164397129
 21
10.4378471291
  0
LINE
  5
2F7
100
AcDbEntity
  8
0
100
AcDbLine
 62
4
  6
CONTINUOUS
 10
14.1678480458
 20
10.3059508384
 11
14.164397129
 21
10.2832989912
  0
LINE
  5
2F8
100
AcDbEntity
  8
0
100
AcDbLine
 62
4
  6
CONTINUOUS
 10
14.0376621913
 20
7.6977713697
 11
14.0411131091
 21
7.7204232178
  0
LINE
  5
2F9
100
AcDbEntity
  8
0
100
AcDbLine
 62
4
  6
CONTINUOUS
 10
14.0480149443
 20
7.7464083963
 11
14.0583676973
 21
7.766067647
  0
LINE
  5
2FA
100
AcDbEntity
  8
0
100
AcDbLine
 62
4
  6
CONTINUOUS
 10
14.0721713672
 20
7.528260245
 11
14.0652695335
 21
7.5215935851
  0
LINE
  5
2FB
100
AcDbEntity
  8
0
100
AcDbLine
 62
4
  6
CONTINUOUS
 10
14.0756222865
 20
7.7537565255
 11
14.0790732034
 21
7.7377713382
  0
LINE
  5
2FC
100
AcDbEntity
  8
0
100
AcDbLine
 62
4
  6
CONTINUOUS
 10
14.1505934566
 20
10.1926915979
 11
14.1505934566
 21
10.1250767875
  0
LINE
  5
2FD
100
AcDbEntity
  8
0
100
AcDbLine
 62
4
  6
CONTINUOUS
 10
14.1678480458
 20
10.4798174935
 11
14.1678480458
 21
10.4604989763
  0
LINE
  5
2FE
100
AcDbEntity
  8
0
100
AcDbLine
 62
4
  6
CONTINUOUS
 10
14.1678480458
 20
10.3252693556
 11
14.1678480458
 21
10.3059508384
  0
LINE
  5
2FF
100
AcDbEntity
  8
0
100
AcDbLine
 62
4
  6
CONTINUOUS
 10
14.1678480458
 20
10.1417434419
 11
14.1678480458
 21
10.2093582522
  0
LINE
  5
300
100
AcDbEntity
  8
0
100
AcDbLine
 62
7
  6
CONTINUOUS
 10
14.2074473803
 20
11.5129711535
 11
14.2074473803
 21
6.6833417359
  0
LINE
  5
301
100
AcDbEntity
  8
0
100
AcDbLine
 62
4
  6
CONTINUOUS
 10
14.0790732034
 20
7.7184528209
 11
14.0756222865
 21
7.6958009738
  0
LINE
  5
302
100
AcDbEntity
  8
0
100
AcDbLine
 62
4
  6
CONTINUOUS
 10
14.0790732034
 20
7.563904683
 11
14.0756222865
 21
7.5412528359
  0
LINE
  5
303
100
AcDbEntity
  8
0
100
AcDbLine
 62
4
  6
CONTINUOUS
 10
14.0411131091
 20
7.7204232178
 11
14.0480149443
 21
7.7464083963
  0
LINE
  5
304
100
AcDbEntity
  8
0
100
AcDbLine
 62
4
  6
CONTINUOUS
 10
14.0756222865
 20
7.6958009738
 11
14.0721713672
 21
7.6828083829
  0
LINE
  5
305
100
AcDbEntity
  8
0
100
AcDbLine
 62
4
  6
CONTINUOUS
 10
14.0756222865
 20
7.5412528359
 11
14.0721713672
 21
7.528260245
  0
LINE
  5
306
100
AcDbEntity
  8
0
100
AcDbLine
 62
4
  6
CONTINUOUS
 10
14.0790732034
 20
7.4190158037
 11
14.0376621913
 21
7.3307195422
  0
LINE
  5
307
100
AcDbEntity
  8
0
100
AcDbLine
 62
7
  6
CONTINUOUS
 10
9.3778179627
 20
11.8479070912
 11
14.2074473803
 21
11.5129711535
  0
LINE
  5
308
100
AcDbEntity
  8
0
100
AcDbLine
 62
7
  6
CONTINUOUS
 10
12.6221820373
 20
5.1520929088
 11
14.2074473803
 21
6.6833417359
  0
LINE
  5
309
100
AcDbEntity
  8
0
100
AcDbLine
 62
4
  6
CONTINUOUS
 10
14.1264370337
 20
10.1017434734
 11
14.1333388693
 21
10.0890916178
  0
LINE
  5
30A
100
AcDbEntity
  8
0
100
AcDbLine
 62
4
  6
CONTINUOUS
 10
14.1505934566
 20
10.1250767875
 11
14.1540443759
 21
10.1187508612
  0
LINE
  5
30B
100
AcDbEntity
  8
0
100
AcDbLine
 62
4
  6
CONTINUOUS
 10
14.1540443759
 20
10.2636397405
 11
14.1505934566
 21
10.2699656668
  0
LINE
  5
30C
100
AcDbEntity
  8
0
100
AcDbLine
 62
4
  6
CONTINUOUS
 10
14.1436916217
 20
10.3019360403
 11
14.1367897867
 21
10.3145878965
  0
LINE
  5
30D
100
AcDbEntity
  8
0
100
AcDbLine
 62
4
  6
CONTINUOUS
 10
14.1609462096
 20
10.3475804693
 11
14.164397129
 21
10.341254543
  0
LINE
  5
30E
100
AcDbEntity
  8
0
100
AcDbLine
 62
4
  6
CONTINUOUS
 10
14.1333388693
 20
10.3981878936
 11
14.1298879515
 21
10.4045138214
  0
LINE
  5
30F
100
AcDbEntity
  8
0
100
AcDbLine
 62
4
  6
CONTINUOUS
 10
14.1574952928
 20
10.5084545359
 11
14.164397129
 21
10.4958026809
  0
LINE
  5
310
100
AcDbEntity
  8
0
100
AcDbLine
 62
4
  6
CONTINUOUS
 10
14.1505934566
 20
10.2699656668
 11
14.1436916217
 21
10.3019360403
  0
LINE
  5
311
100
AcDbEntity
  8
0
100
AcDbLine
 62
4
  6
CONTINUOUS
 10
14.1298879515
 20
10.4045138214
 11
14.1264370337
 21
10.4204990078
  0
LINE
  5
312
100
AcDbEntity
  8
0
100
AcDbLine
 62
4
  6
CONTINUOUS
 10
14.164397129
 20
10.341254543
 11
14.1678480458
 21
10.3252693556
  0
LINE
  5
313
100
AcDbEntity
  8
0
100
AcDbLine
 62
4
  6
CONTINUOUS
 10
14.164397129
 20
10.4958026809
 11
14.1678480458
 21
10.4798174935
  0
ARC
  5
314
100
AcDbEntity
  8
0
100
AcDbCircle
 62
7
  6
CONTINUOUS
 10
10.8245336244
 20
6.4233172469
 40
0.8586478353
100
AcDbArc
 50
180.0228845628
 51
188.7149286648
  0
ARC
  5
315
100
AcDbEntity
  8
0
100
AcDbCircle
 62
7
  6
CONTINUOUS
 10
10.8433617131
 20
6.4427514139
 40
0.8572880297
100
AcDbArc
 50
180.0185218869
 51
187.8400943436
  0
ARC
  5
316
100
AcDbEntity
  8
0
100
AcDbCircle
 62
7
  6
CONTINUOUS
 10
10.8320214823
 20
6.3439148883
 40
0.7653881031
100
AcDbArc
 50
4.2516956797
 51
4.6469628101
  0
ARC
  5
317
100
AcDbEntity
  8
0
100
AcDbCircle
 62
7
  6
CONTINUOUS
 10
10.7526330968
 20
6.4652618719
 40
0.7618266755
100
AcDbArc
 50
135.2785364323
 51
136.1177010652
  0
ARC
  5
318
100
AcDbEntity
  8
0
100
AcDbCircle
 62
7
  6
CONTINUOUS
 10
10.9098925437
 20
6.3024576634
 40
0.7618202148
100
AcDbArc
 50
311.8975177978
 51
312.6927765978
  0
ARC
  5
319
100
AcDbEntity
  8
0
100
AcDbCircle
 62
7
  6
CONTINUOUS
 10
10.8394432595
 20
6.3443486303
 40
0.757954603
100
AcDbArc
 50
0.0034271217
 51
4.2605919762
  0
ARC
  5
31A
100
AcDbEntity
  8
0
100
AcDbCircle
 62
7
  6
CONTINUOUS
 10
10.7200525718
 20
6.2747560616
 40
0.7516147184
100
AcDbArc
 50
235.3910215755
 51
238.8274398194
  0
ARC
  5
31B
100
AcDbEntity
  8
0
100
AcDbCircle
 62
7
  6
CONTINUOUS
 10
10.7681975354
 20
6.3246352914
 40
0.7516147184
100
AcDbArc
 50
55.3910215755
 51
58.8274398194
  0
ARC
  5
31C
100
AcDbEntity
  8
0
100
AcDbCircle
 62
7
  6
CONTINUOUS
 10
10.5885998788
 20
6.1511572662
 40
0.7516147184
100
AcDbArc
 50
55.3910215755
 51
58.8274398194
  0
ARC
  5
31D
100
AcDbEntity
  8
0
100
AcDbCircle
 62
7
  6
CONTINUOUS
 10
10.6562224006
 20
6.260456636
 40
0.6867376267
100
AcDbArc
 50
180.0005052752
 51
181.8259411372
  0
ARC
  5
31E
100
AcDbEntity
  8
0
100
AcDbCircle
 62
7
  6
CONTINUOUS
 10
10.65243005
 20
6.1654566918
 40
0.6867376267
100
AcDbArc
 50
0.0005052752
 51
1.8259411372
  0
ARC
  5
31F
100
AcDbEntity
  8
0
100
AcDbCircle
 62
7
  6
CONTINUOUS
 10
10.8320277066
 20
6.3389347169
 40
0.6867376267
100
AcDbArc
 50
0.0005052751
 51
1.8259411373
  0
ARC
  5
320
100
AcDbEntity
  8
0
100
AcDbCircle
 62
7
  6
CONTINUOUS
 10
10.8358161029
 20
6.3389347399
 40
0.6829492304
100
AcDbArc
 50
358.1690010863
 51
0.0005061518
  0
ARC
  5
321
100
AcDbEntity
  8
0
100
AcDbCircle
 62
7
  6
CONTINUOUS
 10
10.6516783385
 20
6.2604686851
 40
0.6821935648
100
AcDbArc
 50
178.1679866209
 51
180.0015206171
  0
ARC
  5
322
100
AcDbEntity
  8
0
100
AcDbCircle
 62
7
  6
CONTINUOUS
 10
10.6569741121
 20
6.1654446427
 40
0.6821935648
100
AcDbArc
 50
358.1679866209
 51
0.0015206171
  0
ARC
  5
323
100
AcDbEntity
  8
0
100
AcDbCircle
 62
7
  6
CONTINUOUS
 10
10.961715232
 20
6.3700481774
 40
0.6814321068
100
AcDbArc
 50
309.3121181322
 51
311.2333712462
  0
ARC
  5
324
100
AcDbEntity
  8
0
100
AcDbCircle
 62
7
  6
CONTINUOUS
 10
10.8219611267
 20
6.5147297285
 40
0.6814128378
100
AcDbArc
 50
136.6978945576
 51
138.8356190388
  0
ARC
  5
325
100
AcDbEntity
  8
0
100
AcDbCircle
 62
7
  6
CONTINUOUS
 10
10.9152537952
 20
6.3247027666
 40
0.6810953294
100
AcDbArc
 50
314.0076315448
 51
319.4676333375
  0
ARC
  5
326
100
AcDbEntity
  8
0
100
AcDbCircle
 62
7
  6
CONTINUOUS
 10
10.7750435068
 20
6.4698595531
 40
0.6810893224
100
AcDbArc
 50
128.5592900449
 51
134.0064509724
  0
ARC
  5
327
100
AcDbEntity
  8
0
100
AcDbCircle
 62
7
  6
CONTINUOUS
 10
10.7122652705
 20
6.1560937481
 40
0.6280928079
100
AcDbArc
 50
294.9939510668
 51
298.867191063
  0
ARC
  5
328
100
AcDbEntity
  8
0
100
AcDbCircle
 62
7
  6
CONTINUOUS
 10
10.7759848367
 20
6.4432976048
 40
0.6280928079
100
AcDbArc
 50
114.9939510668
 51
118.867191063
  0
ARC
  5
329
100
AcDbEntity
  8
0
100
AcDbCircle
 62
7
  6
CONTINUOUS
 10
10.5963871801
 20
6.2698195797
 40
0.6280928079
100
AcDbArc
 50
114.9939510668
 51
118.867191063
  0
ARC
  5
32A
100
AcDbEntity
  8
0
100
AcDbCircle
 62
7
  6
CONTINUOUS
 10
9.8438298779
 20
9.8810820149
 40
0.6018119492
100
AcDbArc
 50
176.788244257
 51
180.0013624272
  0
ARC
  5
32B
100
AcDbEntity
  8
0
100
AcDbCircle
 62
7
  6
CONTINUOUS
 10
9.748562161
 20
9.8000189225
 40
0.6003537179
100
AcDbArc
 50
167.9168307351
 51
180.0465589605
  0
ARC
  5
32C
100
AcDbEntity
  8
0
100
AcDbCircle
 62
7
  6
CONTINUOUS
 10
9.7548619465
 20
9.8048512492
 40
0.5922101892
100
AcDbArc
 50
168.3441690807
 51
180.0433753538
  0
ARC
  5
32D
100
AcDbEntity
  8
0
100
AcDbCircle
 62
7
  6
CONTINUOUS
 10
9.8497084913
 20
9.884735821
 40
0.5831956682
100
AcDbArc
 50
177.5267967588
 51
180.0007725971
  0
ARC
  5
32E
100
AcDbEntity
  8
0
100
AcDbCircle
 62
7
  6
CONTINUOUS
 10
9.851350158
 20
9.8776274689
 40
0.4824491912
100
AcDbArc
 50
179.7113357377
 51
180.0000182682
  0
SPLINE
  5
32F
100
AcDbEntity
  8
0
100
AcDbSpline
 62
7
  6
CONTINUOUS
 70
0
 71
3
 72
15
 73
11
 74
0
 42
0.0000001
 43
0.0000001
 44
0.0000000001
 40
0.0
 40
0.0
 40
0.0
 40
0.0
 40
0.1157071005
 40
0.2346197568
 40
0.3568087849
 40
0.4820230849
 40
0.6096882194
 40
0.7390418127
 40
0.8693387277
 40
1.0
 40
1.0
 40
1.0
 40
1.0
 10
10.3310037883
 20
5.6316652989
 30
0.0
 10
10.3557496171
 20
5.627930652
 30
0.0
 10
10.4059909139
 20
5.6207738824
 30
0.0
 10
10.4825891269
 20
5.6113283849
 30
0.0
 10
10.5614141953
 20
5.6032697449
 30
0.0
 10
10.6422841617
 20
5.5967872305
 30
0.0
 10
10.7248223645
 20
5.5919711825
 30
0.0
 10
10.8085385575
 20
5.5887832531
 30
0.0
 10
10.89294478
 20
5.5870770216
 30
0.0
 10
10.9493882127
 20
5.5867887948
 30
0.0
 10
10.9776486623
 20
5.5868203246
 30
0.0
  0
SPLINE
  5
330
100
AcDbEntity
  8
0
100
AcDbSpline
 62
7
  6
CONTINUOUS
 70
0
 71
3
 72
15
 73
11
 74
0
 42
0.0000001
 43
0.0000001
 44
0.0000000001
 40
0.0
 40
0.0
 40
0.0
 40
0.0
 40
0.1342296443
 40
0.2673100384
 40
0.3984874282
 40
0.5268627181
 40
0.6515802379
 40
0.7720606852
 40
0.8881322733
 40
1.0
 40
1.0
 40
1.0
 40
1.0
 10
10.2931559112
 20
6.8198662804
 30
0.0
 10
10.278101367
 20
6.7961720315
 30
0.0
 10
10.2482204067
 20
6.7489232187
 30
0.0
 10
10.2040408639
 20
6.6782583626
 30
0.0
 10
10.1609422733
 20
6.6083632941
 30
0.0
 10
10.1192501505
 20
6.5396579545
 30
0.0
 10
10.0792402687
 20
6.4725512797
 30
0.0
 10
10.0410699031
 20
6.4073465037
 30
0.0
 10
10.004748078
 20
6.3441762964
 30
0.0
 10
9.9812833289
 20
6.3026802632
 30
0.0
 10
9.9698334742
 20
6.2822778795
 30
0.0
  0
SPLINE
  5
331
100
AcDbEntity
  8
0
100
AcDbSpline
 62
7
  6
CONTINUOUS
 70
0
 71
3
 72
19
 73
15
 74
0
 42
0.0000001
 43
0.0000001
 44
0.0000000001
 40
0.0
 40
0.0
 40
0.0
 40
0.0
 40
0.1260771208
 40
0.2528347281
 40
0.3163648934
 40
0.3799117399
 40
0.4433981571
 40
0.5067397731
 40
0.5698503075
 40
0.6326482349
 40
0.6950627485
 40
0.7570377409
 40
0.8795267422
 40
1.0
 40
1.0
 40
1.0
 40
1.0
 10
9.9698334742
 20
6.2385749154
 30
0.0
 10
9.9811185341
 20
6.2129039168
 30
0.0
 10
10.0041901235
 20
6.1616153611
 30
0.0
 10
10.0343617859
 20
6.0980396701
 30
0.0
 10
10.0594680623
 20
6.0474700203
 30
0.0
 10
10.0787898989
 20
6.0097439809
 30
0.0
 10
10.098584127
 20
5.9723110114
 30
0.0
 10
10.1188350354
 20
5.9352335815
 30
0.0
 10
10.139516834
 20
5.8985704652
 30
0.0
 10
10.1605948186
 20
5.8623721435
 30
0.0
 10
10.1820285342
 20
5.8266776251
 30
0.0
 10
10.2109093534
 20
5.7799741853
 30
0.0
 10
10.2476572794
 20
5.7229601567
 30
0.0
 10
10.277933881
 20
5.6781935836
 30
0.0
 10
10.2931559112
 20
5.6561415401
 30
0.0
  0
SPLINE
  5
332
100
AcDbEntity
  8
0
100
AcDbSpline
 62
7
  6
CONTINUOUS
 70
0
 71
3
 72
15
 73
11
 74
0
 42
0.0000001
 43
0.0000001
 44
0.0000000001
 40
0.0
 40
0.0
 40
0.0
 40
0.0
 40
0.1243106927
 40
0.2486903654
 40
0.3732068813
 40
0.4979257782
 40
0.6229094027
 40
0.7482155572
 40
0.8738968336
 40
1.0
 40
1.0
 40
1.0
 40
1.0
 10
11.3860138031
 20
5.8359518043
 30
0.0
 10
11.3753452999
 20
5.8256466469
 30
0.0
 10
11.3533187587
 20
5.8057251237
 30
0.0
 10
11.3183825025
 20
5.7780629435
 30
0.0
 10
11.2816698275
 20
5.7527167666
 30
0.0
 10
11.2433209085
 20
5.7297824213
 30
0.0
 10
11.2034792056
 20
5.7093452778
 30
0.0
 10
11.1622932641
 20
5.6914827193
 30
0.0
 10
11.1199203787
 20
5.6762606526
 30
0.0
 10
11.0910317621
 20
5.6679251435
 30
0.0
 10
11.0764499686
 20
5.6642136552
 30
0.0
  0
SPLINE
  5
333
100
AcDbEntity
  8
0
100
AcDbSpline
 62
7
  6
CONTINUOUS
 70
0
 71
3
 72
19
 73
15
 74
0
 42
0.0000001
 43
0.0000001
 44
0.0000000001
 40
0.0
 40
0.0
 40
0.0
 40
0.0
 40
0.12364354
 40
0.2474283104
 40
0.3714908041
 40
0.4959579644
 40
0.5583958401
 40
0.6209760479
 40
0.6837103254
 40
0.746608766
 40
0.8096786341
 40
0.8729270685
 40
0.9363647018
 40
1.0
 40
1.0
 40
1.0
 40
1.0
 10
10.3029034668
 20
6.9572691551
 30
0.0
 10
10.2875693208
 20
6.9424572566
 30
0.0
 10
10.2582628516
 20
6.9113494377
 30
0.0
 10
10.218865646
 20
6.8607274298
 30
0.0
 10
10.1843086672
 20
6.8065140351
 30
0.0
 10
10.1597914611
 20
6.7587334029
 30
0.0
 10
10.1428491971
 20
6.7191782048
 30
0.0
 10
10.1314840899
 20
6.6888520169
 30
0.0
 10
10.1214979978
 20
6.6579615717
 30
0.0
 10
10.1129110638
 20
6.6265656765
 30
0.0
 10
10.1057380968
 20
6.5947261897
 30
0.0
 10
10.099994644
 20
6.5625035086
 30
0.0
 10
10.0956903137
 20
6.5299596527
 30
0.0
 10
10.093789682
 20
6.5081226539
 30
0.0
 10
10.0930805046
 20
6.4971730562
 30
0.0
  0
SPLINE
  5
334
100
AcDbEntity
  8
0
100
AcDbSpline
 62
7
  6
CONTINUOUS
 70
0
 71
3
 72
41
 73
37
 74
0
 42
0.0000001
 43
0.0000001
 44
0.0000000001
 40
0.0
 40
0.0
 40
0.0
 40
0.0
 40
0.0312401642
 40
0.062624511
 40
0.0941485884
 40
0.1258004811
 40
0.1575671414
 40
0.1894333607
 40
0.2213818509
 40
0.2373833744
 40
0.2533983241
 40
0.2854538256
 40
0.3175321106
 40
0.3335754148
 40
0.3496164547
 40
0.3816766711
 40
0.413696399
 40
0.4456555539
 40
0.4775351284
 40
0.5093176384
 40
0.5409874677
 40
0.5725311255
 40
0.6039375118
 40
0.6351982701
 40
0.6663079324
 40
0.6972640222
 40
0.7280671856
 40
0.758721285
 40
0.789233296
 40
0.8196131699
 40
0.8498737427
 40
0.8800304845
 40
0.9101011372
 40
0.9401053254
 40
0.9700642144
 40
1.0
 40
1.0
 40
1.0
 40
1.0
 10
11.5948936078
 20
6.405923504
 30
0.0
 10
11.5934266041
 20
6.4239717227
 30
0.0
 10
11.5891997885
 20
6.460059681
 30
0.0
 10
11.5790620379
 20
6.5137239198
 30
0.0
 10
11.5651642161
 20
6.5667884906
 30
0.0
 10
11.5475764013
 20
6.6189792783
 30
0.0
 10
11.5263895063
 20
6.6700303511
 30
0.0
 10
11.5017132574
 20
6.7196794037
 30
0.0
 10
11.4783558698
 20
6.7596581281
 30
0.0
 10
11.4580610193
 20
6.7906934637
 30
0.0
 10
11.4367015984
 20
6.821082029
 30
0.0
 10
11.4080894539
 20
6.8577287968
 30
0.0
 10
11.3770833363
 20
6.8923954914
 30
0.0
 10
11.3509286524
 20
6.9188440208
 30
0.0
 10
11.3239138681
 20
6.9443979602
 30
0.0
 10
11.2885908848
 20
6.9746057054
 30
0.0
 10
11.243926739
 20
7.0078995834
 30
0.0
 10
11.1972162289
 20
7.0380658876
 30
0.0
 10
11.1486990327
 20
7.0649487145
 30
0.0
 10
11.0986230475
 20
7.0884109418
 30
0.0
 10
11.0472443929
 20
7.1083324318
 30
0.0
 10
10.9948256144
 20
7.1246107274
 30
0.0
 10
10.9416347029
 20
7.1371617487
 30
0.0
 10
10.8879438717
 20
7.1459213088
 30
0.0
 10
10.8340277921
 20
7.1508441503
 30
0.0
 10
10.7801624059
 20
7.151904066
 30
0.0
 10
10.7266236034
 20
7.1490950062
 30
0.0
 10
10.6736856442
 20
7.1424312124
 30
0.0
 10
10.6216198289
 20
7.1319461897
 30
0.0
 10
10.5706933144
 20
7.117692556
 30
0.0
 10
10.5211673778
 20
7.0997432184
 30
0.0
 10
10.4732960521
 20
7.0781899753
 30
0.0
 10
10.4273254377
 20
7.0531430047
 30
0.0
 10
10.3834911284
 20
7.0247294452
 30
0.0
 10
10.3420210655
 20
6.993098088
 30
0.0
 10
10.3160815241
 20
6.9699638317
 30
0.0
 10
10.3035845461
 20
6.9579261208
 30
0.0
  0
LINE
  5
335
100
AcDbEntity
  8
0
100
AcDbLine
 62
7
  6
CONTINUOUS
 10
10.3035845461
 20
6.9579261208
 11
10.3029034668
 21
6.9572691551
  0
SPLINE
  5
336
100
AcDbEntity
  8
0
100
AcDbSpline
 62
7
  6
CONTINUOUS
 70
0
 71
3
 72
19
 73
15
 74
0
 42
0.0000001
 43
0.0000001
 44
0.0000000001
 40
0.0
 40
0.0
 40
0.0
 40
0.0
 40
0.1273245906
 40
0.2538177158
 40
0.3795245695
 40
0.5045229123
 40
0.5668074949
 40
0.6289561876
 40
0.6909854975
 40
0.7529133791
 40
0.8147586749
 40
0.8765412287
 40
0.9382813716
 40
1.0
 40
1.0
 40
1.0
 40
1.0
 10
11.5973978612
 20
6.344393967
 30
0.0
 10
11.5973978612
 20
6.3204239529
 30
0.0
 10
11.5951126477
 20
6.2726076015
 30
0.0
 10
11.5847782538
 20
6.2017993793
 30
0.0
 10
11.5676426707
 20
6.132768786
 30
0.0
 10
11.5477928545
 20
6.0771756126
 30
0.0
 10
11.528701245
 20
6.034256037
 30
0.0
 10
11.5128257877
 20
6.0029301215
 30
0.0
 10
11.4954141113
 20
5.9725095727
 30
0.0
 10
11.4765072184
 20
5.9430625496
 30
0.0
 10
11.4561474947
 20
5.914657868
 30
0.0
 10
11.4343825235
 20
5.8873598306
 30
0.0
 10
11.411262327
 20
5.8612327329
 30
0.0
 10
11.3949780467
 20
5.844631953
 30
0.0
 10
11.3866312546
 20
5.8365489827
 30
0.0
  0
LINE
  5
337
100
AcDbEntity
  8
0
100
AcDbLine
 62
7
  6
CONTINUOUS
 10
11.3866312546
 20
5.8365489827
 11
11.3860138031
 21
5.8359518043
  0
SPLINE
  5
338
100
AcDbEntity
  8
0
100
AcDbSpline
 62
7
  6
CONTINUOUS
 70
0
 71
3
 72
19
 73
15
 74
0
 42
0.0000001
 43
0.0000001
 44
0.0000000001
 40
0.0
 40
0.0
 40
0.0
 40
0.0
 40
0.1249099526
 40
0.2495715146
 40
0.311863534
 40
0.3741457153
 40
0.4364342526
 40
0.4987459012
 40
0.5610982597
 40
0.6235087121
 40
0.6859938032
 40
0.748569392
 40
0.8740183137
 40
1.0
 40
1.0
 40
1.0
 40
1.0
 10
10.4727535678
 20
6.9933443055
 30
0.0
 10
10.4558471964
 20
6.9840227393
 30
0.0
 10
10.42291186
 20
6.9638207129
 30
0.0
 10
10.3842928311
 20
6.9348557505
 30
0.0
 10
10.355163354
 20
6.9096307485
 30
0.0
 10
10.3342305812
 20
6.8897165494
 30
0.0
 10
10.3142502721
 20
6.8688433728
 30
0.0
 10
10.2952612147
 20
6.8470499978
 30
0.0
 10
10.2772985174
 20
6.8243791889
 30
0.0
 10
10.2603977798
 20
6.8008731956
 30
0.0
 10
10.2445895265
 20
6.776577281
 30
0.0
 10
10.2249970112
 20
6.7431682487
 30
0.0
 10
10.2033790796
 20
6.6996363665
 30
0.0
 10
10.1893403139
 20
6.6633331626
 30
0.0
 10
10.1831487739
 20
6.6448722546
 30
0.0
  0
SPLINE
  5
339
100
AcDbEntity
  8
0
100
AcDbSpline
 62
7
  6
CONTINUOUS
 70
0
 71
3
 72
15
 73
11
 74
0
 42
0.0000001
 43
0.0000001
 44
0.0000000001
 40
0.0
 40
0.0
 40
0.0
 40
0.0
 40
0.1118677267
 40
0.2279393148
 40
0.3484197622
 40
0.473137282
 40
0.6015125718
 40
0.7326899616
 40
0.8657703557
 40
1.0
 40
1.0
 40
1.0
 40
1.0
 10
11.0154965394
 20
5.6060470474
 30
0.0
 10
11.0269463941
 20
5.6264494312
 30
0.0
 10
11.0504111432
 20
5.6679454644
 30
0.0
 10
11.0867329683
 20
5.7311156716
 30
0.0
 10
11.1249033339
 20
5.7963204476
 30
0.0
 10
11.1649132157
 20
5.8634271225
 30
0.0
 10
11.2066053385
 20
5.9321324621
 30
0.0
 10
11.2497039291
 20
6.0020275306
 30
0.0
 10
11.2938834719
 20
6.0726923867
 30
0.0
 10
11.3237644322
 20
6.1199411994
 30
0.0
 10
11.3388189764
 20
6.1436354483
 30
0.0
  0
SPLINE
  5
33A
100
AcDbEntity
  8
0
100
AcDbSpline
 62
7
  6
CONTINUOUS
 70
0
 71
3
 72
19
 73
15
 74
0
 42
0.0000001
 43
0.0000001
 44
0.0000000001
 40
0.0
 40
0.0
 40
0.0
 40
0.0
 40
0.1204732578
 40
0.2429622592
 40
0.3049372515
 40
0.3673517652
 40
0.4301496926
 40
0.493260227
 40
0.5566018429
 40
0.6200882601
 40
0.6836351066
 40
0.7471652719
 40
0.8739228793
 40
1.0
 40
1.0
 40
1.0
 40
1.0
 10
11.3388189764
 20
6.1873384124
 30
0.0
 10
11.3235969462
 20
6.2093904559
 30
0.0
 10
11.2933203446
 20
6.254157029
 30
0.0
 10
11.2565724186
 20
6.3111710576
 30
0.0
 10
11.2276915994
 20
6.3578744975
 30
0.0
 10
11.2062578838
 20
6.3935690159
 30
0.0
 10
11.1851798992
 20
6.4297673376
 30
0.0
 10
11.1644981006
 20
6.4664304538
 30
0.0
 10
11.1442471922
 20
6.5035078838
 30
0.0
 10
11.1244529641
 20
6.5409408532
 30
0.0
 10
11.1051311275
 20
6.5786668926
 30
0.0
 10
11.0800248511
 20
6.6292365424
 30
0.0
 10
11.0498531887
 20
6.6928122334
 30
0.0
 10
11.0267815994
 20
6.7441007891
 30
0.0
 10
11.0154965394
 20
6.7697717877
 30
0.0
  0
SPLINE
  5
33B
100
AcDbEntity
  8
0
100
AcDbSpline
 62
7
  6
CONTINUOUS
 70
0
 71
3
 72
15
 73
11
 74
0
 42
0.0000001
 43
0.0000001
 44
0.0000000001
 40
0.0
 40
0.0
 40
0.0
 40
0.0
 40
0.1306612723
 40
0.2609581874
 40
0.3903117807
 40
0.5179769152
 40
0.6431912152
 40
0.7653802433
 40
0.8842928995
 40
1.0
 40
1.0
 40
1.0
 40
1.0
 10
10.9776486623
 20
6.7942480289
 30
0.0
 10
10.9493882127
 20
6.7942164992
 30
0.0
 10
10.89294478
 20
6.7945047259
 30
0.0
 10
10.8085385575
 20
6.7962109575
 30
0.0
 10
10.7248223645
 20
6.7993988868
 30
0.0
 10
10.6422841616
 20
6.8042149349
 30
0.0
 10
10.5614141953
 20
6.8106974493
 30
0.0
 10
10.4825891269
 20
6.8187560893
 30
0.0
 10
10.4059909139
 20
6.8282015868
 30
0.0
 10
10.3557496171
 20
6.8353583563
 30
0.0
 10
10.3310037883
 20
6.8390930032
 30
0.0
  0
SPLINE
  5
33C
100
AcDbEntity
  8
0
100
AcDbSpline
 62
7
  6
CONTINUOUS
 70
0
 71
3
 72
23
 73
19
 74
0
 42
0.0000001
 43
0.0000001
 44
0.0000000001
 40
0.0
 40
0.0
 40
0.0
 40
0.0
 40
0.064183289
 40
0.1282169934
 40
0.1920567493
 40
0.2556896198
 40
0.3190982456
 40
0.3822653824
 40
0.4451796478
 40
0.5078332662
 40
0.5702218084
 40
0.6323449284
 40
0.6942066549
 40
0.7558151105
 40
0.8171802601
 40
0.8783186355
 40
0.939257435
 40
1.0
 40
1.0
 40
1.0
 40
1.0
 10
11.1572463189
 20
6.967726054
 30
0.0
 10
11.1448947358
 20
6.9751976008
 30
0.0
 10
11.1197822621
 20
6.9894126597
 30
0.0
 10
11.0809975712
 20
7.0084819552
 30
0.0
 10
11.0412767814
 20
7.025203617
 30
0.0
 10
11.0007739878
 20
7.0395131993
 30
0.0
 10
10.959640259
 20
7.0513586957
 30
0.0
 10
10.9180304745
 20
7.0606935106
 30
0.0
 10
10.8761020974
 20
7.0674828307
 30
0.0
 10
10.834013243
 20
7.0717013334
 30
0.0
 10
10.7919226724
 20
7.0733316239
 30
0.0
 10
10.7499893783
 20
7.07236853
 30
0.0
 10
10.7083715511
 20
7.0688149444
 30
0.0
 10
10.6672267851
 20
7.0626833117
 30
0.0
 10
10.6267105336
 20
7.05399835
 30
0.0
 10
10.586973991
 20
7.0427906554
 30
0.0
 10
10.5481720899
 20
7.0291031387
 30
0.0
 10
10.5229836424
 20
7.0183436774
 30
0.0
 10
10.5106014449
 20
7.0125710284
 30
0.0
  0
SPLINE
  5
33D
100
AcDbEntity
  8
0
100
AcDbSpline
 62
7
  6
CONTINUOUS
 70
0
 71
3
 72
23
 73
19
 74
0
 42
0.0000001
 43
0.0000001
 44
0.0000000001
 40
0.0
 40
0.0
 40
0.0
 40
0.0
 40
0.0611903141
 40
0.1226472303
 40
0.1843437281
 40
0.2462765515
 40
0.3084319318
 40
0.3707901407
 40
0.43333071
 40
0.4960305412
 40
0.5588639325
 40
0.6218032785
 40
0.6848199854
 40
0.7478844781
 40
0.8109642578
 40
0.8740295744
 40
0.9370581234
 40
1.0
 40
1.0
 40
1.0
 40
1.0
 10
11.518416633
 20
6.3608164375
 30
0.0
 10
11.517968123
 20
6.374897015
 30
0.0
 10
11.5162026517
 20
6.4030993101
 30
0.0
 10
11.510986028
 20
6.4452432784
 30
0.0
 10
11.5032119251
 20
6.487166483
 30
0.0
 10
11.4929112574
 20
6.5287063486
 30
0.0
 10
11.4801239357
 20
6.5697087852
 30
0.0
 10
11.4648967905
 20
6.6100184113
 30
0.0
 10
11.4472881977
 20
6.6494831707
 30
0.0
 10
11.427365064
 20
6.6879546023
 30
0.0
 10
11.4052015862
 20
6.7252870634
 30
0.0
 10
11.3808824846
 20
6.7613403813
 30
0.0
 10
11.3544990386
 20
6.7959784904
 30
0.0
 10
11.326150431
 20
6.8290700929
 30
0.0
 10
11.2959450242
 20
6.8604913381
 30
0.0
 10
11.2639941046
 20
6.8901243995
 30
0.0
 10
11.2304210462
 20
6.9178540687
 30
0.0
 10
11.2070210714
 20
6.9350194987
 30
0.0
 10
11.195094196
 20
6.9432498128
 30
0.0
  0
SPLINE
  5
33E
100
AcDbEntity
  8
0
100
AcDbSpline
 62
7
  6
CONTINUOUS
 70
0
 71
3
 72
23
 73
19
 74
0
 42
0.0000001
 43
0.0000001
 44
0.0000000001
 40
0.0
 40
0.0
 40
0.0
 40
0.0
 40
0.0621318309
 40
0.1241730097
 40
0.1861367829
 40
0.2480654415
 40
0.3099946977
 40
0.371957368
 40
0.4339879225
 40
0.4961196053
 40
0.5583835886
 40
0.6208088007
 40
0.6834219941
 40
0.7462469592
 40
0.8093017246
 40
0.8726037153
 40
0.936173771
 40
1.0
 40
1.0
 40
1.0
 40
1.0
 10
11.195094196
 20
5.7795250725
 30
0.0
 10
11.2069998294
 20
5.7860894114
 30
0.0
 10
11.2303726674
 20
5.799989639
 30
0.0
 10
11.2639641694
 20
5.8230716152
 30
0.0
 10
11.2959328486
 20
5.8482848072
 30
0.0
 10
11.3261543375
 20
5.8755305605
 30
0.0
 10
11.3545170493
 20
5.9047061981
 30
0.0
 10
11.3809122159
 20
5.9357024304
 30
0.0
 10
11.405240389
 20
5.968401208
 30
0.0
 10
11.4274101341
 20
6.0026786181
 30
0.0
 10
11.4473366141
 20
6.0384055906
 30
0.0
 10
11.4649457151
 20
6.0754462731
 30
0.0
 10
11.4801706443
 20
6.1136609111
 30
0.0
 10
11.492953237
 20
6.1529049139
 30
0.0
 10
11.5032470449
 20
6.1930291182
 30
0.0
 10
11.5110124996
 20
6.2338844512
 30
0.0
 10
11.5162191481
 20
6.2753121252
 30
0.0
 10
11.5179700222
 20
6.3031544653
 30
0.0
 10
11.518416633
 20
6.3171134735
 30
0.0
  0
SPLINE
  5
33F
100
AcDbEntity
  8
0
100
AcDbSpline
 62
7
  6
CONTINUOUS
 70
0
 71
3
 72
39
 73
35
 74
0
 42
0.0000001
 43
0.0000001
 44
0.0000000001
 40
0.0
 40
0.0
 40
0.0
 40
0.0
 40
0.0313278581
 40
0.0628642024
 40
0.0945965767
 40
0.1265062279
 40
0.1585673883
 40
0.1907491328
 40
0.2230161417
 40
0.2553301578
 40
0.2876512954
 40
0.3199393837
 40
0.3521554252
 40
0.3842629547
 40
0.4162292954
 40
0.4480268268
 40
0.4796340374
 40
0.5110363791
 40
0.5422269961
 40
0.5732071123
 40
0.6039861227
 40
0.6345814383
 40
0.665017896
 40
0.6953268475
 40
0.7255450008
 40
0.7557128834
 40
0.7858731374
 40
0.8160687653
 40
0.8463412558
 40
0.876728795
 40
0.9072648719
 40
0.9379765655
 40
0.9688843731
 40
1.0
 40
1.0
 40
1.0
 40
1.0
 10
11.2399010812
 20
6.158578574
 30
0.0
 10
11.2399010812
 20
6.1782353205
 30
0.0
 10
11.2379560722
 20
6.2177058334
 30
0.0
 10
11.2293021639
 20
6.2765143893
 30
0.0
 10
11.2149868892
 20
6.334587075
 30
0.0
 10
11.1951499775
 20
6.3913584779
 30
0.0
 10
11.1699830703
 20
6.4462858039
 30
0.0
 10
11.13972912
 20
6.4988414404
 30
0.0
 10
11.1046792783
 20
6.5485213374
 30
0.0
 10
11.0651705103
 20
6.5948488354
 30
0.0
 10
11.0215822283
 20
6.6373793611
 30
0.0
 10
10.974332787
 20
6.6757045814
 30
0.0
 10
10.9238755017
 20
6.7094562433
 30
0.0
 10
10.8706944046
 20
6.7383096724
 30
0.0
 10
10.8152996953
 20
6.7619868581
 30
0.0
 10
10.7582229559
 20
6.7802590925
 30
0.0
 10
10.7000121809
 20
6.792949211
 30
0.0
 10
10.6412266399
 20
6.7999333377
 30
0.0
 10
10.5824316379
 20
6.8011421636
 30
0.0
 10
10.5241931887
 20
6.7965617866
 30
0.0
 10
10.4670726372
 20
6.7862340074
 30
0.0
 10
10.4116212764
 20
6.7702561599
 30
0.0
 10
10.3583749687
 20
6.7487804216
 30
0.0
 10
10.3078488421
 20
6.7220125345
 30
0.0
 10
10.2605321008
 20
6.6902100027
 30
0.0
 10
10.2168830262
 20
6.6536796798
 30
0.0
 10
10.1773242871
 20
6.6127747578
 30
0.0
 10
10.1422385623
 20
6.5678912343
 30
0.0
 10
10.1119647448
 20
6.5194638824
 30
0.0
 10
10.086794408
 20
6.4679615894
 30
0.0
 10
10.0669694236
 20
6.4138833736
 30
0.0
 10
10.0526789385
 20
6.357750094
 30
0.0
 10
10.0440591158
 20
6.3001112673
 30
0.0
 10
10.0421529856
 20
6.2611662681
 30
0.0
 10
10.0421529856
 20
6.2416426865
 30
0.0
  0
SPLINE
  5
340
100
AcDbEntity
  8
0
100
AcDbSpline
 62
7
  6
CONTINUOUS
 70
0
 71
3
 72
39
 73
35
 74
0
 42
0.0000001
 43
0.0000001
 44
0.0000000001
 40
0.0
 40
0.0
 40
0.0
 40
0.0
 40
0.0313278581
 40
0.0628642024
 40
0.0945965767
 40
0.1265062279
 40
0.1585673883
 40
0.1907491328
 40
0.2230161417
 40
0.2553301578
 40
0.2876512954
 40
0.3199393837
 40
0.3521554252
 40
0.3842629547
 40
0.4162292954
 40
0.4480268268
 40
0.4796340374
 40
0.5110363791
 40
0.5422269961
 40
0.5732071123
 40
0.6039861227
 40
0.6345814383
 40
0.665017896
 40
0.6953268475
 40
0.7255450008
 40
0.7557128834
 40
0.7858731374
 40
0.8160687653
 40
0.8463412558
 40
0.876728795
 40
0.9072648719
 40
0.9379765655
 40
0.9688843731
 40
1.0
 40
1.0
 40
1.0
 40
1.0
 10
10.0421529856
 20
6.2416426865
 30
0.0
 10
10.0421529856
 20
6.22198594
 30
0.0
 10
10.0440979947
 20
6.1825154271
 30
0.0
 10
10.052751903
 20
6.1237068712
 30
0.0
 10
10.0670671776
 20
6.0656341855
 30
0.0
 10
10.0869040893
 20
6.0088627826
 30
0.0
 10
10.1120709966
 20
5.9539354566
 30
0.0
 10
10.1423249468
 20
5.9013798201
 30
0.0
 10
10.1773747886
 20
5.8516999231
 30
0.0
 10
10.2168835565
 20
5.8053724251
 30
0.0
 10
10.2604718386
 20
5.7628418994
 30
0.0
 10
10.3077212799
 20
5.7245166791
 30
0.0
 10
10.3581785651
 20
5.6907650172
 30
0.0
 10
10.4113596623
 20
5.6619115881
 30
0.0
 10
10.4667543715
 20
5.6382344024
 30
0.0
 10
10.523831111
 20
5.619962168
 30
0.0
 10
10.5820418859
 20
5.6072720495
 30
0.0
 10
10.6408274269
 20
5.6002879228
 30
0.0
 10
10.699622429
 20
5.5990790969
 30
0.0
 10
10.7578608782
 20
5.6036594739
 30
0.0
 10
10.8149814297
 20
5.6139872531
 30
0.0
 10
10.8704327904
 20
5.6299651006
 30
0.0
 10
10.9236790981
 20
5.6514408389
 30
0.0
 10
10.9742052247
 20
5.678208726
 30
0.0
 10
11.021521966
 20
5.7100112579
 30
0.0
 10
11.0651710406
 20
5.7465415807
 30
0.0
 10
11.1047297798
 20
5.7874465027
 30
0.0
 10
11.1398155045
 20
5.8323300262
 30
0.0
 10
11.1700893221
 20
5.8807573781
 30
0.0
 10
11.1952596589
 20
5.9322596711
 30
0.0
 10
11.2150846433
 20
5.9863378869
 30
0.0
 10
11.2293751284
 20
6.0424711665
 30
0.0
 10
11.2379949511
 20
6.1001099932
 30
0.0
 10
11.2399010812
 20
6.1390549925
 30
0.0
 10
11.2399010812
 20
6.158578574
 30
0.0
  0
SPLINE
  5
341
100
AcDbEntity
  8
0
100
AcDbSpline
 62
7
  6
CONTINUOUS
 70
0
 71
3
 72
23
 73
19
 74
0
 42
0.0000001
 43
0.0000001
 44
0.0000000001
 40
0.0
 40
0.0
 40
0.0
 40
0.0
 40
0.0637776288
 40
0.1273446152
 40
0.1907020433
 40
0.2538561391
 40
0.3168131818
 40
0.3795820998
 40
0.442173387
 40
0.5045993408
 40
0.5668738683
 40
0.6290123813
 40
0.69103165
 40
0.7529496426
 40
0.8147853504
 40
0.8765585998
 40
0.9382898528
 40
1.0
 40
1.0
 40
1.0
 40
1.0
 10
9.9658858576
 20
9.0792704732
 30
0.0
 10
9.9658858576
 20
9.0657701751
 30
0.0
 10
9.9652397232
 20
9.0388095906
 30
0.0
 10
9.9623231478
 20
8.9985326299
 30
0.0
 10
9.9574672047
 20
8.9585750649
 30
0.0
 10
9.9506832425
 20
8.9190304083
 30
0.0
 10
9.9419866253
 20
8.8799893066
 30
0.0
 10
9.9313974039
 20
8.8415419219
 30
0.0
 10
9.9189398552
 20
8.8037768536
 30
0.0
 10
9.9046426264
 20
8.766781202
 30
0.0
 10
9.888538597
 20
8.7306402902
 30
0.0
 10
9.8706648394
 20
8.6954374766
 30
0.0
 10
9.8510625186
 20
8.6612539699
 30
0.0
 10
9.8297767727
 20
8.6281686116
 30
0.0
 10
9.8068567227
 20
8.5962578006
 30
0.0
 10
9.7823549338
 20
8.5655949097
 30
0.0
 10
9.7563288835
 20
8.5362516239
 30
0.0
 10
9.7379985176
 20
8.5176109083
 30
0.0
 10
9.7286031336
 20
8.5085356779
 30
0.0
  0
SPLINE
  5
342
100
AcDbEntity
  8
0
100
AcDbSpline
 62
7
  6
CONTINUOUS
 70
0
 71
3
 72
23
 73
19
 74
0
 42
0.0000001
 43
0.0000001
 44
0.0000000001
 40
0.0
 40
0.0
 40
0.0
 40
0.0
 40
0.0637776288
 40
0.1273446152
 40
0.1907020433
 40
0.2538561391
 40
0.3168131818
 40
0.3795820998
 40
0.442173387
 40
0.5045993408
 40
0.5668738683
 40
0.6290123813
 40
0.69103165
 40
0.7529496426
 40
0.8147853504
 40
0.8765585998
 40
0.9382898528
 40
1.0
 40
1.0
 40
1.0
 40
1.0
 10
11.6562561538
 20
6.3057467153
 30
0.0
 10
11.6562561538
 20
6.2922464172
 30
0.0
 10
11.6556100193
 20
6.2652858327
 30
0.0
 10
11.652693444
 20
6.225008872
 30
0.0
 10
11.6478375009
 20
6.185051307
 30
0.0
 10
11.6410535387
 20
6.1455066504
 30
0.0
 10
11.6323569214
 20
6.1064655487
 30
0.0
 10
11.6217677001
 20
6.068018164
 30
0.0
 10
11.6093101514
 20
6.0302530957
 30
0.0
 10
11.5950129226
 20
5.9932574441
 30
0.0
 10
11.5789088932
 20
5.9571165324
 30
0.0
 10
11.5610351355
 20
5.9219137187
 30
0.0
 10
11.5414328148
 20
5.887730212
 30
0.0
 10
11.5201470689
 20
5.8546448537
 30
0.0
 10
11.4972270189
 20
5.8227340427
 30
0.0
 10
11.47272523
 20
5.7920711518
 30
0.0
 10
11.4466991796
 20
5.7627278661
 30
0.0
 10
11.4283688138
 20
5.7440871504
 30
0.0
 10
11.4189734298
 20
5.7350119201
 30
0.0
  0
SPLINE
  5
343
100
AcDbEntity
  8
0
100
AcDbSpline
 62
7
  6
CONTINUOUS
 70
0
 71
3
 72
33
 73
29
 74
0
 42
0.0000001
 43
0.0000001
 44
0.0000000001
 40
0.0
 40
0.0
 40
0.0
 40
0.0
 40
0.0958348694
 40
0.1891075393
 40
0.2792507307
 40
0.3657221938
 40
0.4480135352
 40
0.5256551542
 40
0.5625998871
 40
0.5982279088
 40
0.6324952589
 40
0.6653619968
 40
0.6967931368
 40
0.7267585922
 40
0.7552346622
 40
0.7822039745
 40
0.8076576644
 40
0.8315956119
 40
0.8540295607
 40
0.8749841658
 40
0.8945014605
 40
0.9126434539
 40
0.9294983432
 40
0.9451850262
 40
0.9598600607
 40
0.9737213157
 40
0.9870092446
 40
1.0
 40
1.0
 40
1.0
 40
1.0
 10
12.1816653839
 20
10.0562158888
 30
0.0
 10
12.1761696549
 20
10.0565970189
 30
0.0
 10
12.1653330538
 20
10.0574699633
 30
0.0
 10
12.1493659301
 20
10.0591362912
 30
0.0
 10
12.1339791332
 20
10.0611331903
 30
0.0
 10
12.1192752455
 20
10.0634470722
 30
0.0
 10
12.1053523428
 20
10.0660622147
 30
0.0
 10
12.0943017691
 20
10.0685164902
 30
0.0
 10
12.0859285523
 20
10.0706279672
 30
0.0
 10
12.0800043839
 20
10.0722492141
 30
0.0
 10
12.0743413696
 20
10.0739315722
 30
0.0
 10
12.0689489177
 20
10.0756722798
 30
0.0
 10
12.0638359723
 20
10.0774683638
 30
0.0
 10
12.0590110045
 20
10.0793168762
 30
0.0
 10
12.0544819586
 20
10.0812146615
 30
0.0
 10
12.0502562908
 20
10.0831586549
 30
0.0
 10
12.0463408683
 20
10.0851455618
 30
0.0
 10
12.0427420675
 20
10.0871722695
 30
0.0
 10
12.0394656088
 20
10.0892354412
 30
0.0
 10
12.036516753
 20
10.091332042
 30
0.0
 10
12.0339000682
 20
10.0934588814
 30
0.0
 10
12.0316197997
 20
10.0956132252
 30
0.0
 10
12.0296796234
 20
10.0977923029
 30
0.0
 10
12.0280833122
 20
10.0999938687
 30
0.0
 10
12.0268345414
 20
10.1022154157
 30
0.0
 10
12.0259376853
 20
10.1044544762
 30
0.0
 10
12.0253970257
 20
10.1067062179
 30
0.0
 10
12.0252761653
 20
10.1082194204
 30
0.0
 10
12.0252761739
 20
10.1089661752
 30
0.0
  0
SPLINE
  5
344
100
AcDbEntity
  8
0
100
AcDbSpline
 62
7
  6
CONTINUOUS
 70
0
 71
3
 72
33
 73
29
 74
0
 42
0.0000001
 43
0.0000001
 44
0.0000000001
 40
0.0
 40
0.0
 40
0.0
 40
0.0
 40
0.0958348694
 40
0.1891075393
 40
0.2792507307
 40
0.3657221938
 40
0.4480135352
 40
0.5256551542
 40
0.5625998871
 40
0.5982279088
 40
0.6324952589
 40
0.6653619968
 40
0.6967931368
 40
0.7267585922
 40
0.7552346622
 40
0.7822039745
 40
0.8076576644
 40
0.8315956119
 40
0.8540295607
 40
0.8749841658
 40
0.8945014605
 40
0.9126434539
 40
0.9294983432
 40
0.9451850262
 40
0.9598600607
 40
0.9737213157
 40
0.9870092446
 40
1.0
 40
1.0
 40
1.0
 40
1.0
 10
13.5728166033
 20
11.3999648595
 30
0.0
 10
13.5673208743
 20
11.4003459896
 30
0.0
 10
13.5564842731
 20
11.401218934
 30
0.0
 10
13.5405171495
 20
11.4028852619
 30
0.0
 10
13.5251303525
 20
11.404882161
 30
0.0
 10
13.5104264648
 20
11.4071960429
 30
0.0
 10
13.4965035621
 20
11.4098111853
 30
0.0
 10
13.4854529884
 20
11.4122654608
 30
0.0
 10
13.4770797717
 20
11.4143769379
 30
0.0
 10
13.4711556033
 20
11.4159981847
 30
0.0
 10
13.4654925889
 20
11.4176805428
 30
0.0
 10
13.460100137
 20
11.4194212505
 30
0.0
 10
13.4549871917
 20
11.4212173344
 30
0.0
 10
13.4501622239
 20
11.4230658469
 30
0.0
 10
13.4456331779
 20
11.4249636321
 30
0.0
 10
13.4414075101
 20
11.4269076256
 30
0.0
 10
13.4374920876
 20
11.4288945325
 30
0.0
 10
13.4338932868
 20
11.4309212401
 30
0.0
 10
13.4306168282
 20
11.4329844118
 30
0.0
 10
13.4276679724
 20
11.4350810126
 30
0.0
 10
13.4250512875
 20
11.437207852
 30
0.0
 10
13.422771019
 20
11.4393621959
 30
0.0
 10
13.4208308428
 20
11.4415412736
 30
0.0
 10
13.4192345315
 20
11.4437428393
 30
0.0
 10
13.4179857607
 20
11.4459643863
 30
0.0
 10
13.4170889046
 20
11.4482034468
 30
0.0
 10
13.416548245
 20
11.4504551886
 30
0.0
 10
13.4164273846
 20
11.4519683911
 30
0.0
 10
13.4164273933
 20
11.4527151459
 30
0.0
  0
SPLINE
  5
345
100
AcDbEntity
  8
0
100
AcDbSpline
 62
7
  6
CONTINUOUS
 70
0
 71
3
 72
25
 73
21
 74
0
 42
0.0000001
 43
0.0000001
 44
0.0000000001
 40
0.0
 40
0.0
 40
0.0
 40
0.0
 40
0.065172877
 40
0.1311695727
 40
0.1977372302
 40
0.2646186876
 40
0.3315559267
 40
0.3982904786
 40
0.4645648989
 40
0.5301240043
 40
0.5947161482
 40
0.6580945046
 40
0.72001837
 40
0.7802545029
 40
0.8385785146
 40
0.8947763081
 40
0.9220146648
 40
0.9486466627
 40
0.9746491594
 40
1.0
 40
1.0
 40
1.0
 40
1.0
 10
12.8744009792
 20
9.1386805118
 30
0.0
 10
12.8744009792
 20
9.1587457658
 30
0.0
 10
12.8747505009
 20
9.1991306858
 30
0.0
 10
12.8762924528
 20
9.259992583
 30
0.0
 10
12.8788497554
 20
9.3213468908
 30
0.0
 10
12.8824119944
 20
9.3829410307
 30
0.0
 10
12.8869645113
 20
9.4445214343
 30
0.0
 10
12.8924885741
 20
9.5058346708
 30
0.0
 10
12.8989613939
 20
9.5666283964
 30
0.0
 10
12.9063562384
 20
9.6266524281
 30
0.0
 10
12.9146425437
 20
9.6856597773
 30
0.0
 10
12.9237860347
 20
9.7434076842
 30
0.0
 10
12.9337488698
 20
9.7996585984
 30
0.0
 10
12.9444897713
 20
9.8541812988
 30
0.0
 10
12.9559642473
 20
9.9067514493
 30
0.0
 10
12.9662014039
 20
9.949182917
 30
0.0
 10
12.9747388401
 20
9.9819780815
 30
0.0
 10
12.9812284763
 20
10.0056980721
 30
0.0
 10
12.9878645015
 20
10.0287734069
 30
0.0
 10
12.9924409345
 20
10.0439077583
 30
0.0
 10
12.994754297
 20
10.0513619921
 30
0.0
  0
LINE
  5
346
100
AcDbEntity
  8
0
100
AcDbLine
 62
7
  6
CONTINUOUS
 10
12.994754297
 20
10.0513619921
 11
12.9952082557
 21
10.0528223028
  0
SPLINE
  5
347
100
AcDbEntity
  8
0
100
AcDbSpline
 62
7
  6
CONTINUOUS
 70
0
 71
3
 72
36
 73
32
 74
0
 42
0.0000001
 43
0.0000001
 44
0.0000000001
 40
0.0
 40
0.0
 40
0.0
 40
0.0
 40
0.0975994256
 40
0.1907435278
 40
0.2792562335
 40
0.3217281685
 40
0.3629867457
 40
0.4030168406
 40
0.4418052166
 40
0.4793407416
 40
0.5156144004
 40
0.5506198203
 40
0.5843531147
 40
0.6168137077
 40
0.6480040978
 40
0.6779309412
 40
0.7066048779
 40
0.7340418102
 40
0.7602629703
 40
0.7852963347
 40
0.8091770971
 40
0.8319491714
 40
0.8536661439
 40
0.8743927674
 40
0.8942062367
 40
0.9131973533
 40
0.9314715154
 40
0.9491487924
 40
0.9663634679
 40
0.9832619863
 40
1.0
 40
1.0
 40
1.0
 40
1.0
 10
12.9952082557
 20
10.0528223028
 30
0.0
 10
12.9987455576
 20
10.0641820945
 30
0.0
 10
13.0059060111
 20
10.0863073169
 30
0.0
 10
13.0171909878
 20
10.1184287085
 30
0.0
 10
13.0269511422
 20
10.1439528031
 30
0.0
 10
13.0349036213
 20
10.163386584
 30
0.0
 10
13.040842847
 20
10.1772560914
 30
0.0
 10
13.0468352731
 20
10.1906120385
 30
0.0
 10
13.0528771028
 20
10.2034458766
 30
0.0
 10
13.0589644069
 20
10.215749397
 30
0.0
 10
13.0650933321
 20
10.2275147181
 30
0.0
 10
13.071259878
 20
10.2387343534
 30
0.0
 10
13.0774601917
 20
10.2494011208
 30
0.0
 10
13.083690218
 20
10.2595082783
 30
0.0
 10
13.0899461206
 20
10.2690493639
 30
0.0
 10
13.0962238308
 20
10.2780183982
 30
0.0
 10
13.1025195442
 20
10.2864096573
 30
0.0
 10
13.1088292381
 20
10.2942179268
 30
0.0
 10
13.1151491641
 20
10.3014382293
 30
0.0
 10
13.1214754188
 20
10.3080660877
 30
0.0
 10
13.1278043461
 20
10.31409725
 30
0.0
 10
13.1341322337
 20
10.3195278927
 30
0.0
 10
13.1404555471
 20
10.3243544047
 30
0.0
 10
13.146770781
 20
10.3285734439
 30
0.0
 10
13.1530744654
 20
10.3321818683
 30
0.0
 10
13.1593631285
 20
10.3351765762
 30
0.0
 10
13.1656330833
 20
10.3375547238
 30
0.0
 10
13.1718803404
 20
10.3393133763
 30
0.0
 10
13.1781006343
 20
10.340450169
 30
0.0
 10
13.1842881696
 20
10.3409629395
 30
0.0
 10
13.1883962513
 20
10.3408878606
 30
0.0
 10
13.1904317979
 20
10.3407466945
 30
0.0
  0
SPLINE
  5
348
100
AcDbEntity
  8
0
100
AcDbSpline
 62
7
  6
CONTINUOUS
 70
0
 71
3
 72
25
 73
21
 74
0
 42
0.0000001
 43
0.0000001
 44
0.0000000001
 40
0.0
 40
0.0
 40
0.0
 40
0.0
 40
0.065172877
 40
0.1311695727
 40
0.1977372302
 40
0.2646186876
 40
0.3315559267
 40
0.3982904786
 40
0.4645648989
 40
0.5301240043
 40
0.5947161482
 40
0.6580945046
 40
0.72001837
 40
0.7802545029
 40
0.8385785146
 40
0.8947763081
 40
0.9220146648
 40
0.9486466627
 40
0.9746491594
 40
1.0
 40
1.0
 40
1.0
 40
1.0
 10
13.5535415502
 20
9.7946799678
 30
0.0
 10
13.5535415502
 20
9.8147452218
 30
0.0
 10
13.5538910718
 20
9.8551301419
 30
0.0
 10
13.5554330237
 20
9.915992039
 30
0.0
 10
13.5579903263
 20
9.9773463468
 30
0.0
 10
13.5615525653
 20
10.0389404867
 30
0.0
 10
13.5661050822
 20
10.1005208903
 30
0.0
 10
13.571629145
 20
10.1618341268
 30
0.0
 10
13.5781019648
 20
10.2226278525
 30
0.0
 10
13.5854968094
 20
10.2826518841
 30
0.0
 10
13.5937831146
 20
10.3416592333
 30
0.0
 10
13.6029266056
 20
10.3994071402
 30
0.0
 10
13.6128894407
 20
10.4556580544
 30
0.0
 10
13.6236303422
 20
10.5101807548
 30
0.0
 10
13.6351048182
 20
10.5627509053
 30
0.0
 10
13.6453419748
 20
10.605182373
 30
0.0
 10
13.653879411
 20
10.6379775375
 30
0.0
 10
13.6603690472
 20
10.6616975281
 30
0.0
 10
13.6670050725
 20
10.6847728629
 30
0.0
 10
13.6715815055
 20
10.6999072143
 30
0.0
 10
13.6738948679
 20
10.7073614481
 30
0.0
  0
LINE
  5
349
100
AcDbEntity
  8
0
100
AcDbLine
 62
7
  6
CONTINUOUS
 10
13.6738948679
 20
10.7073614481
 11
13.6743488266
 21
10.7088217588
  0
SPLINE
  5
34A
100
AcDbEntity
  8
0
100
AcDbSpline
 62
7
  6
CONTINUOUS
 70
0
 71
3
 72
36
 73
32
 74
0
 42
0.0000001
 43
0.0000001
 44
0.0000000001
 40
0.0
 40
0.0
 40
0.0
 40
0.0
 40
0.0975994256
 40
0.1907435278
 40
0.2792562335
 40
0.3217281685
 40
0.3629867457
 40
0.4030168406
 40
0.4418052166
 40
0.4793407416
 40
0.5156144004
 40
0.5506198203
 40
0.5843531147
 40
0.6168137077
 40
0.6480040978
 40
0.6779309412
 40
0.7066048779
 40
0.7340418102
 40
0.7602629703
 40
0.7852963347
 40
0.8091770971
 40
0.8319491714
 40
0.8536661439
 40
0.8743927674
 40
0.8942062367
 40
0.9131973533
 40
0.9314715154
 40
0.9491487924
 40
0.9663634679
 40
0.9832619863
 40
1.0
 40
1.0
 40
1.0
 40
1.0
 10
13.6743488266
 20
10.7088217588
 30
0.0
 10
13.6778861286
 20
10.7201815505
 30
0.0
 10
13.685046582
 20
10.7423067729
 30
0.0
 10
13.6963315587
 20
10.7744281645
 30
0.0
 10
13.7060917131
 20
10.7999522591
 30
0.0
 10
13.7140441922
 20
10.81938604
 30
0.0
 10
13.7199834179
 20
10.8332555474
 30
0.0
 10
13.7259758441
 20
10.8466114945
 30
0.0
 10
13.7320176737
 20
10.8594453326
 30
0.0
 10
13.7381049778
 20
10.871748853
 30
0.0
 10
13.744233903
 20
10.8835141741
 30
0.0
 10
13.7504004489
 20
10.8947338095
 30
0.0
 10
13.7566007626
 20
10.9054005768
 30
0.0
 10
13.762830789
 20
10.9155077343
 30
0.0
 10
13.7690866915
 20
10.9250488199
 30
0.0
 10
13.7753644017
 20
10.9340178542
 30
0.0
 10
13.7816601151
 20
10.9424091133
 30
0.0
 10
13.7879698091
 20
10.9502173828
 30
0.0
 10
13.794289735
 20
10.9574376853
 30
0.0
 10
13.8006159897
 20
10.9640655437
 30
0.0
 10
13.806944917
 20
10.970096706
 30
0.0
 10
13.8132728046
 20
10.9755273487
 30
0.0
 10
13.819596118
 20
10.9803538607
 30
0.0
 10
13.8259113519
 20
10.9845729
 30
0.0
 10
13.8322150363
 20
10.9881813243
 30
0.0
 10
13.8385036995
 20
10.9911760322
 30
0.0
 10
13.8447736542
 20
10.9935541798
 30
0.0
 10
13.8510209113
 20
10.9953128323
 30
0.0
 10
13.8572412052
 20
10.996449625
 30
0.0
 10
13.8634287405
 20
10.9969623955
 30
0.0
 10
13.8675368223
 20
10.9968873166
 30
0.0
 10
13.8695723688
 20
10.9967461505
 30
0.0
  0
SPLINE
  5
34B
100
AcDbEntity
  8
0
100
AcDbSpline
 62
7
  6
CONTINUOUS
 70
0
 71
3
 72
25
 73
21
 74
0
 42
0.0000001
 43
0.0000001
 44
0.0000000001
 40
0.0
 40
0.0
 40
0.0
 40
0.0
 40
0.065172877
 40
0.1311695727
 40
0.1977372302
 40
0.2646186876
 40
0.3315559267
 40
0.3982904786
 40
0.4645648989
 40
0.5301240043
 40
0.5947161482
 40
0.6580945046
 40
0.72001837
 40
0.7802545029
 40
0.8385785146
 40
0.8947763081
 40
0.9220146648
 40
0.9486466627
 40
0.9746491594
 40
1.0
 40
1.0
 40
1.0
 40
1.0
 10
13.4567434118
 20
7.0448839608
 30
0.0
 10
13.4567434118
 20
7.0649492148
 30
0.0
 10
13.4570929335
 20
7.1053341349
 30
0.0
 10
13.4586348853
 20
7.1661960321
 30
0.0
 10
13.461192188
 20
7.2275503398
 30
0.0
 10
13.464754427
 20
7.2891444797
 30
0.0
 10
13.4693069439
 20
7.3507248833
 30
0.0
 10
13.4748310067
 20
7.4120381199
 30
0.0
 10
13.4813038265
 20
7.4728318455
 30
0.0
 10
13.488698671
 20
7.5328558771
 30
0.0
 10
13.4969849763
 20
7.5918632264
 30
0.0
 10
13.5061284673
 20
7.6496111332
 30
0.0
 10
13.5160913023
 20
7.7058620475
 30
0.0
 10
13.5268322039
 20
7.7603847479
 30
0.0
 10
13.5383066799
 20
7.8129548983
 30
0.0
 10
13.5485438365
 20
7.855386366
 30
0.0
 10
13.5570812727
 20
7.8881815305
 30
0.0
 10
13.5635709089
 20
7.9119015212
 30
0.0
 10
13.5702069341
 20
7.9349768559
 30
0.0
 10
13.5747833671
 20
7.9501112074
 30
0.0
 10
13.5770967296
 20
7.9575654411
 30
0.0
  0
LINE
  5
34C
100
AcDbEntity
  8
0
100
AcDbLine
 62
7
  6
CONTINUOUS
 10
13.5770967296
 20
7.9575654411
 11
13.5775506883
 21
7.9590257519
  0
SPLINE
  5
34D
100
AcDbEntity
  8
0
100
AcDbSpline
 62
7
  6
CONTINUOUS
 70
0
 71
3
 72
36
 73
32
 74
0
 42
0.0000001
 43
0.0000001
 44
0.0000000001
 40
0.0
 40
0.0
 40
0.0
 40
0.0
 40
0.0975994256
 40
0.1907435278
 40
0.2792562335
 40
0.3217281685
 40
0.3629867457
 40
0.4030168406
 40
0.4418052166
 40
0.4793407416
 40
0.5156144004
 40
0.5506198203
 40
0.5843531147
 40
0.6168137077
 40
0.6480040978
 40
0.6779309412
 40
0.7066048779
 40
0.7340418102
 40
0.7602629703
 40
0.7852963347
 40
0.8091770971
 40
0.8319491714
 40
0.8536661439
 40
0.8743927674
 40
0.8942062367
 40
0.9131973533
 40
0.9314715154
 40
0.9491487924
 40
0.9663634679
 40
0.9832619863
 40
1.0
 40
1.0
 40
1.0
 40
1.0
 10
13.5775506883
 20
7.9590257519
 30
0.0
 10
13.5810879902
 20
7.9703855435
 30
0.0
 10
13.5882484436
 20
7.9925107659
 30
0.0
 10
13.5995334204
 20
8.0246321575
 30
0.0
 10
13.6092935748
 20
8.0501562521
 30
0.0
 10
13.6172460539
 20
8.069590033
 30
0.0
 10
13.6231852796
 20
8.0834595405
 30
0.0
 10
13.6291777057
 20
8.0968154875
 30
0.0
 10
13.6352195354
 20
8.1096493256
 30
0.0
 10
13.6413068395
 20
8.121952846
 30
0.0
 10
13.6474357647
 20
8.1337181672
 30
0.0
 10
13.6536023106
 20
8.1449378025
 30
0.0
 10
13.6598026243
 20
8.1556045699
 30
0.0
 10
13.6660326506
 20
8.1657117274
 30
0.0
 10
13.6722885532
 20
8.175252813
 30
0.0
 10
13.6785662634
 20
8.1842218472
 30
0.0
 10
13.6848619768
 20
8.1926131064
 30
0.0
 10
13.6911716707
 20
8.2004213758
 30
0.0
 10
13.6974915967
 20
8.2076416784
 30
0.0
 10
13.7038178514
 20
8.2142695368
 30
0.0
 10
13.7101467787
 20
8.220300699
 30
0.0
 10
13.7164746663
 20
8.2257313417
 30
0.0
 10
13.7227979796
 20
8.2305578537
 30
0.0
 10
13.7291132135
 20
8.234776893
 30
0.0
 10
13.7354168979
 20
8.2383853174
 30
0.0
 10
13.7417055611
 20
8.2413800252
 30
0.0
 10
13.7479755159
 20
8.2437581728
 30
0.0
 10
13.754222773
 20
8.2455168253
 30
0.0
 10
13.7604430669
 20
8.246653618
 30
0.0
 10
13.7666306022
 20
8.2471663885
 30
0.0
 10
13.7707386839
 20
8.2470913096
 30
0.0
 10
13.7727742305
 20
8.2469501435
 30
0.0
  0
SPLINE
  5
34E
100
AcDbEntity
  8
0
100
AcDbSpline
 62
7
  6
CONTINUOUS
 70
0
 71
3
 72
25
 73
21
 74
0
 42
0.0000001
 43
0.0000001
 44
0.0000000001
 40
0.0
 40
0.0
 40
0.0
 40
0.0
 40
0.065172877
 40
0.1311695727
 40
0.1977372302
 40
0.2646186876
 40
0.3315559267
 40
0.3982904786
 40
0.4645648989
 40
0.5301240043
 40
0.5947161482
 40
0.6580945046
 40
0.72001837
 40
0.7802545029
 40
0.8385785146
 40
0.8947763081
 40
0.9220146648
 40
0.9486466627
 40
0.9746491594
 40
1.0
 40
1.0
 40
1.0
 40
1.0
 10
12.7770851174
 20
6.3883844222
 30
0.0
 10
12.7770851174
 20
6.4084496762
 30
0.0
 10
12.777434639
 20
6.4488345963
 30
0.0
 10
12.7789765909
 20
6.5096964935
 30
0.0
 10
12.7815338935
 20
6.5710508012
 30
0.0
 10
12.7850961325
 20
6.6326449411
 30
0.0
 10
12.7896486494
 20
6.6942253447
 30
0.0
 10
12.7951727122
 20
6.7555385813
 30
0.0
 10
12.801645532
 20
6.8163323069
 30
0.0
 10
12.8090403766
 20
6.8763563386
 30
0.0
 10
12.8173266818
 20
6.9353636878
 30
0.0
 10
12.8264701728
 20
6.9931115947
 30
0.0
 10
12.8364330079
 20
7.0493625089
 30
0.0
 10
12.8471739094
 20
7.1038852093
 30
0.0
 10
12.8586483854
 20
7.1564553597
 30
0.0
 10
12.868885542
 20
7.1988868274
 30
0.0
 10
12.8774229782
 20
7.2316819919
 30
0.0
 10
12.8839126144
 20
7.2554019826
 30
0.0
 10
12.8905486397
 20
7.2784773173
 30
0.0
 10
12.8951250726
 20
7.2936116688
 30
0.0
 10
12.8974384351
 20
7.3010659025
 30
0.0
  0
LINE
  5
34F
100
AcDbEntity
  8
0
100
AcDbLine
 62
7
  6
CONTINUOUS
 10
12.8974384351
 20
7.3010659025
 11
12.8978923938
 21
7.3025262133
  0
SPLINE
  5
350
100
AcDbEntity
  8
0
100
AcDbSpline
 62
7
  6
CONTINUOUS
 70
0
 71
3
 72
36
 73
32
 74
0
 42
0.0000001
 43
0.0000001
 44
0.0000000001
 40
0.0
 40
0.0
 40
0.0
 40
0.0
 40
0.0975994256
 40
0.1907435278
 40
0.2792562335
 40
0.3217281685
 40
0.3629867457
 40
0.4030168406
 40
0.4418052166
 40
0.4793407416
 40
0.5156144004
 40
0.5506198203
 40
0.5843531147
 40
0.6168137077
 40
0.6480040978
 40
0.6779309412
 40
0.7066048779
 40
0.7340418102
 40
0.7602629703
 40
0.7852963347
 40
0.8091770971
 40
0.8319491714
 40
0.8536661439
 40
0.8743927674
 40
0.8942062367
 40
0.9131973533
 40
0.9314715154
 40
0.9491487924
 40
0.9663634679
 40
0.9832619863
 40
1.0
 40
1.0
 40
1.0
 40
1.0
 10
12.8978923938
 20
7.3025262133
 30
0.0
 10
12.9014296958
 20
7.3138860049
 30
0.0
 10
12.9085901492
 20
7.3360112273
 30
0.0
 10
12.9198751259
 20
7.3681326189
 30
0.0
 10
12.9296352803
 20
7.3936567135
 30
0.0
 10
12.9375877594
 20
7.4130904944
 30
0.0
 10
12.9435269851
 20
7.4269600019
 30
0.0
 10
12.9495194113
 20
7.4403159489
 30
0.0
 10
12.9555612409
 20
7.453149787
 30
0.0
 10
12.961648545
 20
7.4654533074
 30
0.0
 10
12.9677774702
 20
7.4772186286
 30
0.0
 10
12.9739440161
 20
7.4884382639
 30
0.0
 10
12.9801443298
 20
7.4991050313
 30
0.0
 10
12.9863743562
 20
7.5092121888
 30
0.0
 10
12.9926302587
 20
7.5187532744
 30
0.0
 10
12.9989079689
 20
7.5277223086
 30
0.0
 10
13.0052036823
 20
7.5361135678
 30
0.0
 10
13.0115133762
 20
7.5439218372
 30
0.0
 10
13.0178333022
 20
7.5511421398
 30
0.0
 10
13.0241595569
 20
7.5577699982
 30
0.0
 10
13.0304884842
 20
7.5638011604
 30
0.0
 10
13.0368163718
 20
7.5692318031
 30
0.0
 10
13.0431396852
 20
7.5740583151
 30
0.0
 10
13.0494549191
 20
7.5782773544
 30
0.0
 10
13.0557586035
 20
7.5818857788
 30
0.0
 10
13.0620472666
 20
7.5848804866
 30
0.0
 10
13.0683172214
 20
7.5872586342
 30
0.0
 10
13.0745644785
 20
7.5890172867
 30
0.0
 10
13.0807847724
 20
7.5901540794
 30
0.0
 10
13.0869723077
 20
7.59066685
 30
0.0
 10
13.0910803895
 20
7.590591771
 30
0.0
 10
13.093115936
 20
7.5904506049
 30
0.0
  0
SPLINE
  5
351
100
AcDbEntity
  8
0
100
AcDbSpline
 62
7
  6
CONTINUOUS
 70
0
 71
3
 72
23
 73
19
 74
0
 42
0.0000001
 43
0.0000001
 44
0.0000000001
 40
0.0
 40
0.0
 40
0.0
 40
0.0
 40
0.0929030882
 40
0.1831527139
 40
0.2701734191
 40
0.3534594018
 40
0.4325850759
 40
0.507215015
 40
0.5771082966
 40
0.6421200577
 40
0.7022009077
 40
0.7573947057
 40
0.8078364221
 40
0.8537517135
 40
0.8954587339
 40
0.9333731015
 40
0.968012748
 40
1.0
 40
1.0
 40
1.0
 40
1.0
 10
9.2754452418
 20
8.5320019705
 30
0.0
 10
9.2723846771
 20
8.5322142214
 30
0.0
 10
9.2663579414
 20
8.5327432583
 30
0.0
 10
9.2575049031
 20
8.5338673033
 30
0.0
 10
9.2490177615
 20
8.5352975588
 30
0.0
 10
9.2409588878
 20
8.5370138812
 30
0.0
 10
9.2333821079
 20
8.5389916112
 30
0.0
 10
9.226332071
 20
8.5412026495
 30
0.0
 10
9.2198437697
 20
8.5436166883
 30
0.0
 10
9.2139426498
 20
8.5462023834
 30
0.0
 10
9.2086451218
 20
8.5489284737
 30
0.0
 10
9.2039594016
 20
8.5517647356
 30
0.0
 10
9.1998866156
 20
8.554682772
 30
0.0
 10
9.1964220417
 20
8.5576566823
 30
0.0
 10
9.1935565295
 20
8.5606632808
 30
0.0
 10
9.1912778742
 20
8.5636829133
 30
0.0
 10
9.1895729326
 20
8.5666969507
 30
0.0
 10
9.188783441
 20
8.5687622798
 30
0.0
 10
9.1884916871
 20
8.5697774963
 30
0.0
  0
SPLINE
  5
352
100
AcDbEntity
  8
0
100
AcDbSpline
 62
7
  6
CONTINUOUS
 70
0
 71
3
 72
50
 73
46
 74
0
 42
0.0000001
 43
0.0000001
 44
0.0000000001
 40
0.0
 40
0.0
 40
0.0
 40
0.0
 40
0.0407256026
 40
0.0819150817
 40
0.1234499751
 40
0.1652115958
 40
0.2070797986
 40
0.24893432
 40
0.2906548464
 40
0.3321215867
 40
0.3732156677
 40
0.4138195895
 40
0.4538176663
 40
0.4930964772
 40
0.5315453235
 40
0.5690566965
 40
0.6055267615
 40
0.6408558643
 40
0.6749490701
 40
0.7077167477
 40
0.7390752181
 40
0.7689474975
 40
0.7972641734
 40
0.8108202733
 40
0.8239654444
 40
0.8366937295
 40
0.8489997772
 40
0.8608791729
 40
0.8723282431
 40
0.8833444249
 40
0.8939261162
 40
0.904073044
 40
0.9137862258
 40
0.9230683144
 40
0.9319237263
 40
0.9403589669
 40
0.9483829695
 40
0.9560074292
 40
0.9632473717
 40
0.9701215302
 40
0.9766531019
 40
0.9828701437
 40
0.9888063182
 40
0.9945010926
 40
1.0
 40
1.0
 40
1.0
 40
1.0
 10
12.9116901123
 20
9.2066990514
 30
0.0
 10
12.9116901123
 20
9.2192640753
 30
0.0
 10
12.9118787134
 20
9.2445376092
 30
0.0
 10
12.9127130159
 20
9.282617579
 30
0.0
 10
12.9140981121
 20
9.321001402
 30
0.0
 10
12.9160297477
 20
9.35957123
 30
0.0
 10
12.9185020466
 20
9.3982089927
 30
0.0
 10
12.921507421
 20
9.4367962321
 30
0.0
 10
12.9250366616
 20
9.4752147183
 30
0.0
 10
12.9290789313
 20
9.513346716
 30
0.0
 10
12.9336218138
 20
9.5510753816
 30
0.0
 10
12.9386513451
 20
9.5882851131
 30
0.0
 10
12.9441520578
 20
9.6248619103
 30
0.0
 10
12.9501070271
 20
9.6606937268
 30
0.0
 10
12.956497922
 20
9.6956708182
 30
0.0
 10
12.9633050599
 20
9.7296860832
 30
0.0
 10
12.9705074665
 20
9.7626354002
 30
0.0
 10
12.9780829385
 20
9.7944179532
 30
0.0
 10
12.9860081105
 20
9.8249365636
 30
0.0
 10
12.9942585291
 20
9.854097969
 30
0.0
 10
13.0028087243
 20
9.8818132581
 30
0.0
 10
13.0116323157
 20
9.9079977351
 30
0.0
 10
13.0192976837
 20
9.9287675653
 30
0.0
 10
13.0255605559
 20
9.9445453188
 30
0.0
 10
13.0302407729
 20
9.9557748407
 30
0.0
 10
13.0349687243
 20
9.9665645891
 30
0.0
 10
13.0397409327
 20
9.9769063271
 30
0.0
 10
13.0445536262
 20
9.9867922077
 30
0.0
 10
13.0494032404
 20
9.9962146865
 30
0.0
 10
13.0542859716
 20
10.0051666476
 30
0.0
 10
13.0591982054
 20
10.0136412821
 30
0.0
 10
13.0641361418
 20
10.021632222
 30
0.0
 10
13.0690961289
 20
10.0291334278
 30
0.0
 10
13.0740744211
 20
10.0361392906
 30
0.0
 10
13.0790673576
 20
10.0426445675
 30
0.0
 10
13.0840713091
 20
10.0486444017
 30
0.0
 10
13.0890826598
 20
10.0541343532
 30
0.0
 10
13.0940979673
 20
10.0591102702
 30
0.0
 10
13.0991137388
 20
10.0635684639
 30
0.0
 10
13.1041267675
 20
10.0675053585
 30
0.0
 10
13.109133745
 20
10.0709178503
 30
0.0
 10
13.1141315758
 20
10.0738026844
 30
0.0
 10
13.1191171605
 20
10.0761570788
 30
0.0
 10
13.1240864572
 20
10.0779777521
 30
0.0
 10
13.1274360541
 20
10.0788468187
 30
0.0
 10
13.1290983496
 20
10.0791861253
 30
0.0
  0
SPLINE
  5
353
100
AcDbEntity
  8
0
100
AcDbSpline
 62
7
  6
CONTINUOUS
 70
0
 71
3
 72
37
 73
33
 74
0
 42
0.0000001
 43
0.0000001
 44
0.0000000001
 40
0.0
 40
0.0
 40
0.0
 40
0.0
 40
0.0933722333
 40
0.1843538351
 40
0.2724531136
 40
0.3152739684
 40
0.3571991751
 40
0.3981737897
 40
0.4381448545
 40
0.477061548
 40
0.5148751839
 40
0.5515395866
 40
0.5870112643
 40
0.621249488
 40
0.6542167932
 40
0.6858791704
 40
0.7162063301
 40
0.7451724053
 40
0.7727562859
 40
0.7989422655
 40
0.8237211244
 40
0.8470909383
 40
0.8690585177
 40
0.889641357
 40
0.9088696513
 40
0.9267893793
 40
0.9434660809
 40
0.9589891094
 40
0.9734768514
 40
0.9870815546
 40
0.9936140923
 40
1.0
 40
1.0
 40
1.0
 40
1.0
 10
12.9116901123
 20
9.2066990514
 30
0.0
 10
12.9116901123
 20
9.1895478297
 30
0.0
 10
12.9120346887
 20
9.1556832967
 30
0.0
 10
12.9136205685
 20
9.1056587102
 30
0.0
 10
12.9158400785
 20
9.0649545728
 30
0.0
 10
12.9181561725
 20
9.0332890908
 30
0.0
 10
12.9201348634
 20
9.0102801417
 30
0.0
 10
12.9223685594
 20
8.9878205208
 30
0.0
 10
12.9248539691
 20
8.9659433885
 30
0.0
 10
12.9275873389
 20
8.9446810702
 30
0.0
 10
12.9305646288
 20
8.9240649678
 30
0.0
 10
12.9337813872
 20
8.9041255156
 30
0.0
 10
12.9372327843
 20
8.8848921295
 30
0.0
 10
12.940913716
 20
8.866393172
 30
0.0
 10
12.9448186682
 20
8.8486558883
 30
0.0
 10
12.9489417992
 20
8.8317063687
 30
0.0
 10
12.9532770212
 20
8.8155695171
 30
0.0
 10
12.9578178502
 20
8.800268973
 30
0.0
 10
12.96255755
 20
8.7858270887
 30
0.0
 10
12.9674891835
 20
8.7722648966
 30
0.0
 10
12.972605477
 20
8.7596020108
 30
0.0
 10
12.9778990425
 20
8.7478566309
 30
0.0
 10
12.9833624109
 20
8.7370455069
 30
0.0
 10
12.988987982
 20
8.7271838379
 30
0.0
 10
12.9947683562
 20
8.7182853783
 30
0.0
 10
13.0006964516
 20
8.7103624665
 30
0.0
 10
13.0067654377
 20
8.7034262007
 30
0.0
 10
13.0129696795
 20
8.6974868061
 30
0.0
 10
13.0193025609
 20
8.6925549292
 30
0.0
 10
13.0247574399
 20
8.6892489724
 30
0.0
 10
13.029157626
 20
8.6871503285
 30
0.0
 10
13.0313669293
 20
8.6862778572
 30
0.0
 10
13.0324728518
 20
8.6858868624
 30
0.0
  0
SPLINE
  5
354
100
AcDbEntity
  8
0
100
AcDbSpline
 62
7
  6
CONTINUOUS
 70
0
 71
3
 72
50
 73
46
 74
0
 42
0.0000001
 43
0.0000001
 44
0.0000000001
 40
0.0
 40
0.0
 40
0.0
 40
0.0
 40
0.0407256026
 40
0.0819150817
 40
0.1234499751
 40
0.1652115958
 40
0.2070797986
 40
0.24893432
 40
0.2906548464
 40
0.3321215867
 40
0.3732156677
 40
0.4138195895
 40
0.4538176663
 40
0.4930964772
 40
0.5315453235
 40
0.5690566965
 40
0.6055267615
 40
0.6408558643
 40
0.6749490701
 40
0.7077167477
 40
0.7390752181
 40
0.7689474975
 40
0.7972641734
 40
0.8108202733
 40
0.8239654444
 40
0.8366937295
 40
0.8489997772
 40
0.8608791729
 40
0.8723282431
 40
0.8833444249
 40
0.8939261162
 40
0.904073044
 40
0.9137862258
 40
0.9230683144
 40
0.9319237263
 40
0.9403589669
 40
0.9483829695
 40
0.9560074292
 40
0.9632473717
 40
0.9701215302
 40
0.9766531019
 40
0.9828701437
 40
0.9888063182
 40
0.9945010926
 40
1.0
 40
1.0
 40
1.0
 40
1.0
 10
13.5908306833
 20
9.8626985074
 30
0.0
 10
13.5908306833
 20
9.8752635313
 30
0.0
 10
13.5910192843
 20
9.9005370652
 30
0.0
 10
13.5918535868
 20
9.938617035
 30
0.0
 10
13.593238683
 20
9.977000858
 30
0.0
 10
13.5951703186
 20
10.015570686
 30
0.0
 10
13.5976426175
 20
10.0542084487
 30
0.0
 10
13.6006479919
 20
10.0927956881
 30
0.0
 10
13.6041772326
 20
10.1312141743
 30
0.0
 10
13.6082195022
 20
10.169346172
 30
0.0
 10
13.6127623848
 20
10.2070748376
 30
0.0
 10
13.617791916
 20
10.2442845691
 30
0.0
 10
13.6232926287
 20
10.2808613663
 30
0.0
 10
13.6292475981
 20
10.3166931828
 30
0.0
 10
13.6356384929
 20
10.3516702742
 30
0.0
 10
13.6424456309
 20
10.3856855392
 30
0.0
 10
13.6496480374
 20
10.4186348562
 30
0.0
 10
13.6572235094
 20
10.4504174092
 30
0.0
 10
13.6651486814
 20
10.4809360196
 30
0.0
 10
13.6733991
 20
10.510097425
 30
0.0
 10
13.6819492952
 20
10.5378127142
 30
0.0
 10
13.6907728867
 20
10.5639971911
 30
0.0
 10
13.6984382546
 20
10.5847670213
 30
0.0
 10
13.7047011268
 20
10.6005447748
 30
0.0
 10
13.7093813438
 20
10.6117742967
 30
0.0
 10
13.7141092952
 20
10.6225640451
 30
0.0
 10
13.7188815036
 20
10.6329057831
 30
0.0
 10
13.7236941971
 20
10.6427916637
 30
0.0
 10
13.7285438113
 20
10.6522141425
 30
0.0
 10
13.7334265425
 20
10.6611661036
 30
0.0
 10
13.7383387764
 20
10.6696407381
 30
0.0
 10
13.7432767127
 20
10.677631678
 30
0.0
 10
13.7482366998
 20
10.6851328838
 30
0.0
 10
13.753214992
 20
10.6921387466
 30
0.0
 10
13.7582079285
 20
10.6986440235
 30
0.0
 10
13.76321188
 20
10.7046438577
 30
0.0
 10
13.7682232308
 20
10.7101338092
 30
0.0
 10
13.7732385383
 20
10.7151097262
 30
0.0
 10
13.7782543097
 20
10.7195679199
 30
0.0
 10
13.7832673384
 20
10.7235048145
 30
0.0
 10
13.7882743159
 20
10.7269173063
 30
0.0
 10
13.7932721467
 20
10.7298021404
 30
0.0
 10
13.7982577314
 20
10.7321565348
 30
0.0
 10
13.8032270281
 20
10.7339772081
 30
0.0
 10
13.806576625
 20
10.7348462747
 30
0.0
 10
13.8082389205
 20
10.7351855813
 30
0.0
  0
SPLINE
  5
355
100
AcDbEntity
  8
0
100
AcDbSpline
 62
7
  6
CONTINUOUS
 70
0
 71
3
 72
37
 73
33
 74
0
 42
0.0000001
 43
0.0000001
 44
0.0000000001
 40
0.0
 40
0.0
 40
0.0
 40
0.0
 40
0.0933722333
 40
0.1843538351
 40
0.2724531136
 40
0.3152739684
 40
0.3571991751
 40
0.3981737897
 40
0.4381448545
 40
0.477061548
 40
0.5148751839
 40
0.5515395866
 40
0.5870112643
 40
0.621249488
 40
0.6542167932
 40
0.6858791704
 40
0.7162063301
 40
0.7451724053
 40
0.7727562859
 40
0.7989422655
 40
0.8237211244
 40
0.8470909383
 40
0.8690585177
 40
0.889641357
 40
0.9088696513
 40
0.9267893793
 40
0.9434660809
 40
0.9589891094
 40
0.9734768514
 40
0.9870815546
 40
0.9936140923
 40
1.0
 40
1.0
 40
1.0
 40
1.0
 10
13.5908306833
 20
9.8626985074
 30
0.0
 10
13.5908306833
 20
9.8455472857
 30
0.0
 10
13.5911752596
 20
9.8116827527
 30
0.0
 10
13.5927611394
 20
9.7616581662
 30
0.0
 10
13.5949806495
 20
9.7209540288
 30
0.0
 10
13.5972967435
 20
9.6892885468
 30
0.0
 10
13.5992754343
 20
9.6662795977
 30
0.0
 10
13.6015091304
 20
9.6438199768
 30
0.0
 10
13.6039945401
 20
9.6219428445
 30
0.0
 10
13.6067279098
 20
9.6006805262
 30
0.0
 10
13.6097051997
 20
9.5800644238
 30
0.0
 10
13.6129219581
 20
9.5601249716
 30
0.0
 10
13.6163733553
 20
9.5408915855
 30
0.0
 10
13.620054287
 20
9.522392628
 30
0.0
 10
13.6239592391
 20
9.5046553443
 30
0.0
 10
13.6280823702
 20
9.4877058247
 30
0.0
 10
13.6324175921
 20
9.4715689731
 30
0.0
 10
13.6369584211
 20
9.456268429
 30
0.0
 10
13.6416981209
 20
9.4418265447
 30
0.0
 10
13.6466297544
 20
9.4282643526
 30
0.0
 10
13.6517460479
 20
9.4156014668
 30
0.0
 10
13.6570396134
 20
9.4038560869
 30
0.0
 10
13.6625029818
 20
9.3930449629
 30
0.0
 10
13.668128553
 20
9.3831832939
 30
0.0
 10
13.6739089271
 20
9.3742848343
 30
0.0
 10
13.6798370225
 20
9.3663619225
 30
0.0
 10
13.6859060087
 20
9.3594256567
 30
0.0
 10
13.6921102504
 20
9.3534862621
 30
0.0
 10
13.6984431318
 20
9.3485543852
 30
0.0
 10
13.7038980108
 20
9.3452484284
 30
0.0
 10
13.7082981969
 20
9.3431497845
 30
0.0
 10
13.7105075003
 20
9.3422773132
 30
0.0
 10
13.7116134227
 20
9.3418863184
 30
0.0
  0
SPLINE
  5
356
100
AcDbEntity
  8
0
100
AcDbSpline
 62
7
  6
CONTINUOUS
 70
0
 71
3
 72
50
 73
46
 74
0
 42
0.0000001
 43
0.0000001
 44
0.0000000001
 40
0.0
 40
0.0
 40
0.0
 40
0.0
 40
0.0407256026
 40
0.0819150817
 40
0.1234499751
 40
0.1652115958
 40
0.2070797986
 40
0.24893432
 40
0.2906548464
 40
0.3321215867
 40
0.3732156677
 40
0.4138195895
 40
0.4538176663
 40
0.4930964772
 40
0.5315453235
 40
0.5690566965
 40
0.6055267615
 40
0.6408558643
 40
0.6749490701
 40
0.7077167477
 40
0.7390752181
 40
0.7689474975
 40
0.7972641734
 40
0.8108202733
 40
0.8239654444
 40
0.8366937295
 40
0.8489997772
 40
0.8608791729
 40
0.8723282431
 40
0.8833444249
 40
0.8939261162
 40
0.904073044
 40
0.9137862258
 40
0.9230683144
 40
0.9319237263
 40
0.9403589669
 40
0.9483829695
 40
0.9560074292
 40
0.9632473717
 40
0.9701215302
 40
0.9766531019
 40
0.9828701437
 40
0.9888063182
 40
0.9945010926
 40
1.0
 40
1.0
 40
1.0
 40
1.0
 10
13.4940325449
 20
7.1129025004
 30
0.0
 10
13.4940325449
 20
7.1254675243
 30
0.0
 10
13.494221146
 20
7.1507410582
 30
0.0
 10
13.4950554485
 20
7.188821028
 30
0.0
 10
13.4964405447
 20
7.227204851
 30
0.0
 10
13.4983721803
 20
7.265774679
 30
0.0
 10
13.5008444792
 20
7.3044124417
 30
0.0
 10
13.5038498536
 20
7.3429996812
 30
0.0
 10
13.5073790942
 20
7.3814181674
 30
0.0
 10
13.5114213639
 20
7.419550165
 30
0.0
 10
13.5159642464
 20
7.4572788306
 30
0.0
 10
13.5209937777
 20
7.4944885621
 30
0.0
 10
13.5264944904
 20
7.5310653593
 30
0.0
 10
13.5324494597
 20
7.5668971759
 30
0.0
 10
13.5388403546
 20
7.6018742672
 30
0.0
 10
13.5456474925
 20
7.6358895322
 30
0.0
 10
13.5528498991
 20
7.6688388492
 30
0.0
 10
13.5604253711
 20
7.7006214022
 30
0.0
 10
13.5683505431
 20
7.7311400126
 30
0.0
 10
13.5766009617
 20
7.7603014181
 30
0.0
 10
13.5851511569
 20
7.7880167072
 30
0.0
 10
13.5939747483
 20
7.8142011841
 30
0.0
 10
13.6016401163
 20
7.8349710143
 30
0.0
 10
13.6079029885
 20
7.8507487678
 30
0.0
 10
13.6125832055
 20
7.8619782897
 30
0.0
 10
13.6173111569
 20
7.8727680381
 30
0.0
 10
13.6220833653
 20
7.8831097761
 30
0.0
 10
13.6268960588
 20
7.8929956567
 30
0.0
 10
13.631745673
 20
7.9024181356
 30
0.0
 10
13.6366284042
 20
7.9113700966
 30
0.0
 10
13.641540638
 20
7.9198447311
 30
0.0
 10
13.6464785744
 20
7.927835671
 30
0.0
 10
13.6514385615
 20
7.9353368769
 30
0.0
 10
13.6564168537
 20
7.9423427396
 30
0.0
 10
13.6614097902
 20
7.9488480165
 30
0.0
 10
13.6664137417
 20
7.9548478508
 30
0.0
 10
13.6714250924
 20
7.9603378023
 30
0.0
 10
13.6764403999
 20
7.9653137193
 30
0.0
 10
13.6814561714
 20
7.9697719129
 30
0.0
 10
13.6864692001
 20
7.9737088075
 30
0.0
 10
13.6914761776
 20
7.9771212994
 30
0.0
 10
13.6964740083
 20
7.9800061334
 30
0.0
 10
13.7014595931
 20
7.9823605278
 30
0.0
 10
13.7064288898
 20
7.9841812012
 30
0.0
 10
13.7097784867
 20
7.9850502677
 30
0.0
 10
13.7114407822
 20
7.9853895743
 30
0.0
  0
SPLINE
  5
357
100
AcDbEntity
  8
0
100
AcDbSpline
 62
7
  6
CONTINUOUS
 70
0
 71
3
 72
37
 73
33
 74
0
 42
0.0000001
 43
0.0000001
 44
0.0000000001
 40
0.0
 40
0.0
 40
0.0
 40
0.0
 40
0.0933722333
 40
0.1843538351
 40
0.2724531136
 40
0.3152739684
 40
0.3571991751
 40
0.3981737897
 40
0.4381448545
 40
0.477061548
 40
0.5148751839
 40
0.5515395866
 40
0.5870112643
 40
0.621249488
 40
0.6542167932
 40
0.6858791704
 40
0.7162063301
 40
0.7451724053
 40
0.7727562859
 40
0.7989422655
 40
0.8237211244
 40
0.8470909383
 40
0.8690585177
 40
0.889641357
 40
0.9088696513
 40
0.9267893793
 40
0.9434660809
 40
0.9589891094
 40
0.9734768514
 40
0.9870815546
 40
0.9936140923
 40
1.0
 40
1.0
 40
1.0
 40
1.0
 10
13.4940325449
 20
7.1129025004
 30
0.0
 10
13.4940325449
 20
7.0957512787
 30
0.0
 10
13.4943771213
 20
7.0618867457
 30
0.0
 10
13.4959630011
 20
7.0118621592
 30
0.0
 10
13.4981825111
 20
6.9711580219
 30
0.0
 10
13.5004986051
 20
6.9394925398
 30
0.0
 10
13.502477296
 20
6.9164835907
 30
0.0
 10
13.504710992
 20
6.8940239698
 30
0.0
 10
13.5071964017
 20
6.8721468376
 30
0.0
 10
13.5099297715
 20
6.8508845193
 30
0.0
 10
13.5129070614
 20
6.8302684169
 30
0.0
 10
13.5161238197
 20
6.8103289646
 30
0.0
 10
13.5195752169
 20
6.7910955785
 30
0.0
 10
13.5232561486
 20
6.7725966211
 30
0.0
 10
13.5271611008
 20
6.7548593373
 30
0.0
 10
13.5312842318
 20
6.7379098178
 30
0.0
 10
13.5356194538
 20
6.7217729661
 30
0.0
 10
13.5401602827
 20
6.7064724221
 30
0.0
 10
13.5448999826
 20
6.6920305378
 30
0.0
 10
13.5498316161
 20
6.6784683456
 30
0.0
 10
13.5549479095
 20
6.6658054598
 30
0.0
 10
13.560241475
 20
6.6540600799
 30
0.0
 10
13.5657048435
 20
6.643248956
 30
0.0
 10
13.5713304146
 20
6.6333872869
 30
0.0
 10
13.5771107888
 20
6.6244888273
 30
0.0
 10
13.5830388842
 20
6.6165659156
 30
0.0
 10
13.5891078703
 20
6.6096296498
 30
0.0
 10
13.5953121121
 20
6.6036902551
 30
0.0
 10
13.6016449935
 20
6.5987583782
 30
0.0
 10
13.6070998725
 20
6.5954524214
 30
0.0
 10
13.6115000586
 20
6.5933537775
 30
0.0
 10
13.6137093619
 20
6.5924813062
 30
0.0
 10
13.6148152844
 20
6.5920903115
 30
0.0
  0
SPLINE
  5
358
100
AcDbEntity
  8
0
100
AcDbSpline
 62
7
  6
CONTINUOUS
 70
0
 71
3
 72
50
 73
46
 74
0
 42
0.0000001
 43
0.0000001
 44
0.0000000001
 40
0.0
 40
0.0
 40
0.0
 40
0.0
 40
0.0407256026
 40
0.0819150817
 40
0.1234499751
 40
0.1652115958
 40
0.2070797986
 40
0.24893432
 40
0.2906548464
 40
0.3321215867
 40
0.3732156677
 40
0.4138195895
 40
0.4538176663
 40
0.4930964772
 40
0.5315453235
 40
0.5690566965
 40
0.6055267615
 40
0.6408558643
 40
0.6749490701
 40
0.7077167477
 40
0.7390752181
 40
0.7689474975
 40
0.7972641734
 40
0.8108202733
 40
0.8239654444
 40
0.8366937295
 40
0.8489997772
 40
0.8608791729
 40
0.8723282431
 40
0.8833444249
 40
0.8939261162
 40
0.904073044
 40
0.9137862258
 40
0.9230683144
 40
0.9319237263
 40
0.9403589669
 40
0.9483829695
 40
0.9560074292
 40
0.9632473717
 40
0.9701215302
 40
0.9766531019
 40
0.9828701437
 40
0.9888063182
 40
0.9945010926
 40
1.0
 40
1.0
 40
1.0
 40
1.0
 10
12.8143742505
 20
6.4564029618
 30
0.0
 10
12.8143742505
 20
6.4689679857
 30
0.0
 10
12.8145628515
 20
6.4942415196
 30
0.0
 10
12.815397154
 20
6.5323214894
 30
0.0
 10
12.8167822502
 20
6.5707053124
 30
0.0
 10
12.8187138858
 20
6.6092751404
 30
0.0
 10
12.8211861847
 20
6.6479129031
 30
0.0
 10
12.8241915591
 20
6.6865001426
 30
0.0
 10
12.8277207998
 20
6.7249186288
 30
0.0
 10
12.8317630694
 20
6.7630506264
 30
0.0
 10
12.836305952
 20
6.800779292
 30
0.0
 10
12.8413354832
 20
6.8379890235
 30
0.0
 10
12.8468361959
 20
6.8745658207
 30
0.0
 10
12.8527911653
 20
6.9103976373
 30
0.0
 10
12.8591820601
 20
6.9453747286
 30
0.0
 10
12.8659891981
 20
6.9793899936
 30
0.0
 10
12.8731916046
 20
7.0123393106
 30
0.0
 10
12.8807670766
 20
7.0441218637
 30
0.0
 10
12.8886922486
 20
7.074640474
 30
0.0
 10
12.8969426672
 20
7.1038018795
 30
0.0
 10
12.9054928624
 20
7.1315171686
 30
0.0
 10
12.9143164539
 20
7.1577016455
 30
0.0
 10
12.9219818218
 20
7.1784714757
 30
0.0
 10
12.928244694
 20
7.1942492292
 30
0.0
 10
12.932924911
 20
7.2054787511
 30
0.0
 10
12.9376528624
 20
7.2162684995
 30
0.0
 10
12.9424250708
 20
7.2266102375
 30
0.0
 10
12.9472377643
 20
7.2364961181
 30
0.0
 10
12.9520873785
 20
7.245918597
 30
0.0
 10
12.9569701097
 20
7.2548705581
 30
0.0
 10
12.9618823435
 20
7.2633451925
 30
0.0
 10
12.9668202799
 20
7.2713361324
 30
0.0
 10
12.971780267
 20
7.2788373383
 30
0.0
 10
12.9767585592
 20
7.285843201
 30
0.0
 10
12.9817514957
 20
7.292348478
 30
0.0
 10
12.9867554472
 20
7.2983483122
 30
0.0
 10
12.9917667979
 20
7.3038382637
 30
0.0
 10
12.9967821055
 20
7.3088141807
 30
0.0
 10
13.0017978769
 20
7.3132723743
 30
0.0
 10
13.0068109056
 20
7.3172092689
 30
0.0
 10
13.0118178831
 20
7.3206217608
 30
0.0
 10
13.0168157139
 20
7.3235065948
 30
0.0
 10
13.0218012986
 20
7.3258609892
 30
0.0
 10
13.0267705953
 20
7.3276816626
 30
0.0
 10
13.0301201922
 20
7.3285507291
 30
0.0
 10
13.0317824877
 20
7.3288900357
 30
0.0
  0
SPLINE
  5
359
100
AcDbEntity
  8
0
100
AcDbSpline
 62
7
  6
CONTINUOUS
 70
0
 71
3
 72
37
 73
33
 74
0
 42
0.0000001
 43
0.0000001
 44
0.0000000001
 40
0.0
 40
0.0
 40
0.0
 40
0.0
 40
0.0933722333
 40
0.1843538351
 40
0.2724531136
 40
0.3152739684
 40
0.3571991751
 40
0.3981737897
 40
0.4381448545
 40
0.477061548
 40
0.5148751839
 40
0.5515395866
 40
0.5870112643
 40
0.621249488
 40
0.6542167932
 40
0.6858791704
 40
0.7162063301
 40
0.7451724053
 40
0.7727562859
 40
0.7989422655
 40
0.8237211244
 40
0.8470909383
 40
0.8690585177
 40
0.889641357
 40
0.9088696513
 40
0.9267893793
 40
0.9434660809
 40
0.9589891094
 40
0.9734768514
 40
0.9870815546
 40
0.9936140923
 40
1.0
 40
1.0
 40
1.0
 40
1.0
 10
12.8143742505
 20
6.4564029618
 30
0.0
 10
12.8143742505
 20
6.4392517401
 30
0.0
 10
12.8147188268
 20
6.4053872071
 30
0.0
 10
12.8163047066
 20
6.3553626206
 30
0.0
 10
12.8185242166
 20
6.3146584833
 30
0.0
 10
12.8208403107
 20
6.2829930013
 30
0.0
 10
12.8228190015
 20
6.2599840521
 30
0.0
 10
12.8250526975
 20
6.2375244312
 30
0.0
 10
12.8275381072
 20
6.215647299
 30
0.0
 10
12.830271477
 20
6.1943849807
 30
0.0
 10
12.8332487669
 20
6.1737688783
 30
0.0
 10
12.8364655253
 20
6.153829426
 30
0.0
 10
12.8399169224
 20
6.1345960399
 30
0.0
 10
12.8435978542
 20
6.1160970825
 30
0.0
 10
12.8475028063
 20
6.0983597988
 30
0.0
 10
12.8516259373
 20
6.0814102792
 30
0.0
 10
12.8559611593
 20
6.0652734275
 30
0.0
 10
12.8605019883
 20
6.0499728835
 30
0.0
 10
12.8652416881
 20
6.0355309992
 30
0.0
 10
12.8701733216
 20
6.021968807
 30
0.0
 10
12.8752896151
 20
6.0093059212
 30
0.0
 10
12.8805831806
 20
5.9975605413
 30
0.0
 10
12.886046549
 20
5.9867494174
 30
0.0
 10
12.8916721201
 20
5.9768877483
 30
0.0
 10
12.8974524943
 20
5.9679892887
 30
0.0
 10
12.9033805897
 20
5.960066377
 30
0.0
 10
12.9094495758
 20
5.9531301112
 30
0.0
 10
12.9156538176
 20
5.9471907166
 30
0.0
 10
12.921986699
 20
5.9422588396
 30
0.0
 10
12.927441578
 20
5.9389528828
 30
0.0
 10
12.9318417641
 20
5.9368542389
 30
0.0
 10
12.9340510675
 20
5.9359817676
 30
0.0
 10
12.9351569899
 20
5.9355907729
 30
0.0
  0
SPLINE
  5
35A
100
AcDbEntity
  8
0
100
AcDbSpline
 62
7
  6
CONTINUOUS
 70
0
 71
3
 72
47
 73
43
 74
0
 42
0.0000001
 43
0.0000001
 44
0.0000000001
 40
0.0
 40
0.0
 40
0.0
 40
0.0
 40
0.0149719699
 40
0.0299469986
 40
0.0449281275
 40
0.0599183593
 40
0.0749206409
 40
0.0899378479
 40
0.1049727642
 40
0.1200280654
 40
0.1351063071
 40
0.1502099062
 40
0.1653411266
 40
0.1805020712
 40
0.195694667
 40
0.2109206532
 40
0.226181577
 40
0.2414787841
 40
0.2721808909
 40
0.30303905
 40
0.3340562704
 40
0.3652320501
 40
0.3965624391
 40
0.4280401707
 40
0.4596548674
 40
0.4913932962
 40
0.5232396724
 40
0.5551760134
 40
0.5871825188
 40
0.61923798
 40
0.6513202127
 40
0.6834065006
 40
0.7154740464
 40
0.7475004247
 40
0.7794640313
 40
0.8113445177
 40
0.8431232087
 40
0.8747834982
 40
0.9063112124
 40
0.9376949433
 40
0.9689261019
 40
1.0
 40
1.0
 40
1.0
 40
1.0
 10
8.5127982855
 20
9.7672328467
 30
0.0
 10
8.5200569575
 20
9.7742441748
 30
0.0
 10
8.5348562764
 20
9.7879811866
 30
0.0
 10
8.557858942
 20
9.8076905383
 30
0.0
 10
8.5816361259
 20
9.8264788878
 30
0.0
 10
8.6061546883
 20
9.8443198924
 30
0.0
 10
8.6313809443
 20
9.8611892038
 30
0.0
 10
8.6572801559
 20
9.8770635721
 30
0.0
 10
8.6838167269
 20
9.8919210985
 30
0.0
 10
8.7109540814
 20
9.9057414354
 30
0.0
 10
8.7386548808
 20
9.9185055752
 30
0.0
 10
8.7668810375
 20
9.9301958881
 30
0.0
 10
8.7955936717
 20
9.9407963963
 30
0.0
 10
8.8247532668
 20
9.9502925365
 30
0.0
 10
8.8543197669
 20
9.9586711764
 30
0.0
 10
8.8842523133
 20
9.9659208902
 30
0.0
 10
8.9145102917
 20
9.9720317695
 30
0.0
 10
8.9552763873
 20
9.9786572681
 30
0.0
 10
9.0068559155
 20
9.9840448217
 30
0.0
 10
9.0692890161
 20
9.9858463973
 30
0.0
 10
9.1320031303
 20
9.9829853669
 30
0.0
 10
9.1946511595
 20
9.9754777277
 30
0.0
 10
9.2568895155
 20
9.9633655371
 30
0.0
 10
9.3183762225
 20
9.9467160924
 30
0.0
 10
9.3787737324
 20
9.925621392
 30
0.0
 10
9.4377504966
 20
9.9001977692
 30
0.0
 10
9.4949829077
 20
9.8705853557
 30
0.0
 10
9.5501568901
 20
9.8369470044
 30
0.0
 10
9.6029697045
 20
9.7994676411
 30
0.0
 10
9.6531316334
 20
9.7583532593
 30
0.0
 10
9.7003673685
 20
9.7138295702
 30
0.0
 10
9.7444176847
 20
9.666141019
 30
0.0
 10
9.7850408362
 20
9.6155493909
 30
0.0
 10
9.8220136745
 20
9.5623322425
 30
0.0
 10
9.8551331196
 20
9.5067816135
 30
0.0
 10
9.8842171731
 20
9.4492023254
 30
0.0
 10
9.9091057367
 20
9.3899103022
 30
0.0
 10
9.9296618046
 20
9.3292308701
 30
0.0
 10
9.9457720465
 20
9.2674974113
 30
0.0
 10
9.9573472236
 20
9.2050476987
 30
0.0
 10
9.9643233518
 20
9.1422291307
 30
0.0
 10
9.9658858576
 20
9.1002159861
 30
0.0
 10
9.9658858576
 20
9.0792704732
 30
0.0
  0
SPLINE
  5
35B
100
AcDbEntity
  8
0
100
AcDbSpline
 62
7
  6
CONTINUOUS
 70
0
 71
3
 72
39
 73
35
 74
0
 42
0.0000001
 43
0.0000001
 44
0.0000000001
 40
0.0
 40
0.0
 40
0.0
 40
0.0
 40
0.0298270978
 40
0.0596806635
 40
0.0895873215
 40
0.1195716219
 40
0.1496564473
 40
0.1798621803
 40
0.2102062702
 40
0.2407028683
 40
0.2713625442
 40
0.3021921233
 40
0.333194595
 40
0.3643691279
 40
0.3957111612
 40
0.4272125798
 40
0.4588619363
 40
0.4906447545
 40
0.5225438622
 40
0.5545397715
 40
0.5866110868
 40
0.6187349442
 40
0.6508874601
 40
0.6830441985
 40
0.715180642
 40
0.7472726644
 40
0.7792969996
 40
0.8112316958
 40
0.843056563
 40
0.8747535868
 40
0.9063073246
 40
0.937705281
 40
0.9689379387
 40
1.0
 40
1.0
 40
1.0
 40
1.0
 10
8.6128257885
 20
9.7345514697
 30
0.0
 10
8.6257428463
 20
9.7470283901
 30
0.0
 10
8.6525952521
 20
9.7709745778
 30
0.0
 10
8.6956237122
 20
9.8035933862
 30
0.0
 10
8.7411855306
 20
9.8327504698
 30
0.0
 10
8.7890296651
 20
9.8582826667
 30
0.0
 10
8.8388961126
 20
9.8800501977
 30
0.0
 10
8.8905126165
 20
9.8979323594
 30
0.0
 10
8.9435972664
 20
9.9118294798
 30
0.0
 10
8.9978595211
 20
9.9216633775
 30
0.0
 10
9.0530018755
 20
9.9273780196
 30
0.0
 10
9.1087214616
 20
9.9289397439
 30
0.0
 10
9.1647116952
 20
9.9263377073
 30
0.0
 10
9.2206640186
 20
9.9195841745
 30
0.0
 10
9.2762696555
 20
9.908714315
 30
0.0
 10
9.3312213556
 20
9.8937861577
 30
0.0
 10
9.3852152329
 20
9.8748805211
 30
0.0
 10
9.43795247
 20
9.8521003716
 30
0.0
 10
9.4891410179
 20
9.8255702883
 30
0.0
 10
9.5384973856
 20
9.7954359994
 30
0.0
 10
9.5857481999
 20
9.7618633819
 30
0.0
 10
9.630631712
 20
9.7250374975
 30
0.0
 10
9.6728994378
 20
9.6851617413
 30
0.0
 10
9.7123175109
 20
9.6424565781
 30
0.0
 10
9.7486679098
 20
9.5971582187
 30
0.0
 10
9.7817498446
 20
9.549517425
 30
0.0
 10
9.8113808831
 20
9.4997980443
 30
0.0
 10
9.8373978232
 20
9.4482754
 30
0.0
 10
9.8596577382
 20
9.3952348513
 30
0.0
 10
9.8780388431
 20
9.3409700266
 30
0.0
 10
9.8924409725
 20
9.2857815173
 30
0.0
 10
9.9027860942
 20
9.229973556
 30
0.0
 10
9.9090192092
 20
9.1738584828
 30
0.0
 10
9.9104153823
 20
9.1363363326
 30
0.0
 10
9.9104153823
 20
9.1176338077
 30
0.0
  0
SPLINE
  5
35C
100
AcDbEntity
  8
0
100
AcDbSpline
 62
7
  6
CONTINUOUS
 70
0
 71
3
 72
23
 73
19
 74
0
 42
0.0000001
 43
0.0000001
 44
0.0000000001
 40
0.0
 40
0.0
 40
0.0
 40
0.0
 40
0.0638960463
 40
0.1275625627
 40
0.1910007796
 40
0.2542170903
 40
0.3172182182
 40
0.3800137024
 40
0.442614847
 40
0.5050349522
 40
0.5672891169
 40
0.6293941178
 40
0.6913682762
 40
0.753231189
 40
0.8150038592
 40
0.8767074816
 40
0.9383658203
 40
1.0
 40
1.0
 40
1.0
 40
1.0
 10
9.9104153823
 20
9.1176338077
 30
0.0
 10
9.9104153823
 20
9.1055967891
 30
0.0
 10
9.9098399186
 20
9.0815619149
 30
0.0
 10
9.9072422539
 20
9.0456607931
 30
0.0
 10
9.9029181763
 20
9.0100544752
 30
0.0
 10
9.8968785542
 20
8.9748259665
 30
0.0
 10
9.88913781
 20
8.9400555927
 30
0.0
 10
9.8797144689
 20
8.905823094
 30
0.0
 10
9.8686307408
 20
8.8722066871
 30
0.0
 10
9.855912626
 20
8.8392831272
 30
0.0
 10
9.841589767
 20
8.8071274801
 30
0.0
 10
9.8256954068
 20
8.7758129655
 30
0.0
 10
9.8082662754
 20
8.7454108382
 30
0.0
 10
9.7893425022
 20
8.7159901428
 30
0.0
 10
9.7689675684
 20
8.6876178852
 30
0.0
 10
9.7471878867
 20
8.6603580507
 30
0.0
 10
9.7240540394
 20
8.6342736862
 30
0.0
 10
9.7077606957
 20
8.6177039588
 30
0.0
 10
9.6994094895
 20
8.6096373127
 30
0.0
  0
SPLINE
  5
35D
100
AcDbEntity
  8
0
100
AcDbSpline
 62
7
  6
CONTINUOUS
 70
0
 71
3
 72
36
 73
32
 74
0
 42
0.0000001
 43
0.0000001
 44
0.0000000001
 40
0.0
 40
0.0
 40
0.0
 40
0.0
 40
0.0053488481
 40
0.0106669403
 40
0.0160047175
 40
0.0214108338
 40
0.0325979076
 40
0.0445636532
 40
0.0575671683
 40
0.0718080924
 40
0.0874386633
 40
0.104575349
 40
0.1233091511
 40
0.1437121437
 40
0.1658428656
 40
0.1897485359
 40
0.215467537
 40
0.2430292125
 40
0.2724538568
 40
0.3037525793
 40
0.3369244158
 40
0.3719555674
 40
0.4088174067
 40
0.4474628252
 40
0.4878241712
 40
0.5298110239
 40
0.6181617322
 40
0.7112569499
 40
0.8073784035
 40
0.904412847
 40
1.0
 40
1.0
 40
1.0
 40
1.0
 10
9.4432527329
 20
8.5883907665
 30
0.0
 10
9.4433452822
 20
8.5880690144
 30
0.0
 10
9.4434991845
 20
8.5874180432
 30
0.0
 10
9.4436334781
 20
8.5864237813
 30
0.0
 10
9.4436706945
 20
8.5854174967
 30
0.0
 10
9.4435911484
 20
8.5840453088
 30
0.0
 10
9.4432393334
 20
8.5822825416
 30
0.0
 10
9.4424403308
 20
8.5801564772
 30
0.0
 10
9.4412660925
 20
8.5779938722
 30
0.0
 10
9.4397197423
 20
8.5757945272
 30
0.0
 10
9.4378013566
 20
8.5735585528
 30
0.0
 10
9.4355097254
 20
8.5712872393
 30
0.0
 10
9.4328424069
 20
8.5689832104
 30
0.0
 10
9.429796395
 20
8.5666502181
 30
0.0
 10
9.4263684135
 20
8.564293041
 30
0.0
 10
9.4225549014
 20
8.5619178161
 30
0.0
 10
9.4183526223
 20
8.5595316379
 30
0.0
 10
9.4137586159
 20
8.5571431356
 30
0.0
 10
9.4087707384
 20
8.5547622464
 30
0.0
 10
9.4033880262
 20
8.5524004155
 30
0.0
 10
9.3976110798
 20
8.55007083
 30
0.0
 10
9.3914426845
 20
8.5477882981
 30
0.0
 10
9.3848883264
 20
8.5455693844
 30
0.0
 10
9.3779568592
 20
8.54343244
 30
0.0
 10
9.370661114
 20
8.5413973694
 30
0.0
 10
9.3602949404
 20
8.5388043787
 30
0.0
 10
9.3465924653
 20
8.535968842
 30
0.0
 10
9.3294027685
 20
8.5333870549
 30
0.0
 10
9.3115502746
 20
8.5317449454
 30
0.0
 10
9.2934747866
 20
8.5311824039
 30
0.0
 10
9.2814139524
 20
8.531588039
 30
0.0
 10
9.2754452418
 20
8.5320019705
 30
0.0
  0
LINE
  5
35E
100
AcDbEntity
  8
0
100
AcDbLine
 62
7
  6
CONTINUOUS
 10
10.350504083
 20
7.0024465815
 11
10.350624241
 21
7.0025423439
  0
SPLINE
  5
35F
100
AcDbEntity
  8
0
100
AcDbSpline
 62
7
  6
CONTINUOUS
 70
0
 71
3
 72
39
 73
35
 74
0
 42
0.0000001
 43
0.0000001
 44
0.0000000001
 40
0.0
 40
0.0
 40
0.0
 40
0.0
 40
0.0299251419
 40
0.0599001692
 40
0.0899458054
 40
0.1200811977
 40
0.1503235057
 40
0.1806875429
 40
0.2111854837
 40
0.2418266376
 40
0.272617291
 40
0.3035606166
 40
0.3346566566
 40
0.3659023681
 40
0.3972917272
 40
0.4288158859
 40
0.4604633828
 40
0.4922203943
 40
0.5240710211
 40
0.5559976041
 40
0.5879810696
 40
0.6200012903
 40
0.6520374608
 40
0.684068482
 40
0.7160733499
 40
0.7480315417
 40
0.7799233971
 40
0.8117304887
 40
0.8434359748
 40
0.8750249284
 40
0.9064846382
 40
0.9378049431
 40
0.9689780826
 40
1.0
 40
1.0
 40
1.0
 40
1.0
 10
10.350624241
 20
7.0025423439
 30
0.0
 10
10.3642166139
 20
7.0133725587
 30
0.0
 10
10.3922650887
 20
7.0340188132
 30
0.0
 10
10.4366119499
 20
7.0617156442
 30
0.0
 10
10.4830428042
 20
7.0860263129
 30
0.0
 10
10.5313173041
 20
7.1068245321
 30
0.0
 10
10.5811897347
 20
7.1240051989
 30
0.0
 10
10.6324052155
 20
7.1374810087
 30
0.0
 10
10.6847024357
 20
7.1471838375
 30
0.0
 10
10.7378146266
 20
7.1530647646
 30
0.0
 10
10.7914710157
 20
7.1550943695
 30
0.0
 10
10.8453981774
 20
7.1532629545
 30
0.0
 10
10.8993214446
 20
7.1475804433
 30
0.0
 10
10.9529662833
 20
7.1380763055
 30
0.0
 10
11.0060596652
 20
7.1247993899
 30
0.0
 10
11.0583314719
 20
7.1078177785
 30
0.0
 10
11.1095158317
 20
7.0872183047
 30
0.0
 10
11.1593524448
 20
7.0631061081
 30
0.0
 10
11.2075878806
 20
7.0356041019
 30
0.0
 10
11.2539769119
 20
7.0048524516
 30
0.0
 10
11.2982836946
 20
6.9710077526
 30
0.0
 10
11.3402829456
 20
6.9342422437
 30
0.0
 10
11.3797610685
 20
6.8947429448
 30
0.0
 10
11.4165173158
 20
6.8527107975
 30
0.0
 10
11.450364721
 20
6.8083595595
 30
0.0
 10
11.4811310349
 20
6.7619147354
 30
0.0
 10
11.5086595889
 20
6.713612452
 30
0.0
 10
11.5328101944
 20
6.663698321
 30
0.0
 10
11.5534597525
 20
6.612426167
 30
0.0
 10
11.570502868
 20
6.5600566488
 30
0.0
 10
11.5838524231
 20
6.506856359
 30
0.0
 10
11.5934399938
 20
6.4530950894
 30
0.0
 10
11.5992164995
 20
6.3990499101
 30
0.0
 10
11.6005098255
 20
6.3629163378
 30
0.0
 10
11.6005098255
 20
6.3448998939
 30
0.0
  0
SPLINE
  5
360
100
AcDbEntity
  8
0
100
AcDbSpline
 62
7
  6
CONTINUOUS
 70
0
 71
3
 72
47
 73
43
 74
0
 42
0.0000001
 43
0.0000001
 44
0.0000000001
 40
0.0
 40
0.0
 40
0.0
 40
0.0
 40
0.0149719699
 40
0.0299469986
 40
0.0449281275
 40
0.0599183593
 40
0.0749206409
 40
0.0899378479
 40
0.1049727642
 40
0.1200280654
 40
0.1351063071
 40
0.1502099062
 40
0.1653411266
 40
0.1805020712
 40
0.195694667
 40
0.2109206532
 40
0.226181577
 40
0.2414787841
 40
0.2721808909
 40
0.30303905
 40
0.3340562704
 40
0.3652320501
 40
0.3965624391
 40
0.4280401707
 40
0.4596548674
 40
0.4913932962
 40
0.5232396724
 40
0.5551760134
 40
0.5871825188
 40
0.61923798
 40
0.6513202127
 40
0.6834065006
 40
0.7154740464
 40
0.7475004247
 40
0.7794640313
 40
0.8113445177
 40
0.8431232087
 40
0.8747834982
 40
0.9063112124
 40
0.9376949433
 40
0.9689261019
 40
1.0
 40
1.0
 40
1.0
 40
1.0
 10
10.2031685816
 20
6.9937090888
 30
0.0
 10
10.2104272536
 20
7.0007204169
 30
0.0
 10
10.2252265725
 20
7.0144574288
 30
0.0
 10
10.2482292382
 20
7.0341667804
 30
0.0
 10
10.2720064221
 20
7.05295513
 30
0.0
 10
10.2965249844
 20
7.0707961345
 30
0.0
 10
10.3217512405
 20
7.087665446
 30
0.0
 10
10.3476504521
 20
7.1035398142
 30
0.0
 10
10.3741870231
 20
7.1183973406
 30
0.0
 10
10.4013243775
 20
7.1322176775
 30
0.0
 10
10.429025177
 20
7.1449818173
 30
0.0
 10
10.4572513337
 20
7.1566721303
 30
0.0
 10
10.4859639679
 20
7.1672726384
 30
0.0
 10
10.515123563
 20
7.1767687786
 30
0.0
 10
10.5446900631
 20
7.1851474185
 30
0.0
 10
10.5746226094
 20
7.1923971323
 30
0.0
 10
10.6048805879
 20
7.1985080116
 30
0.0
 10
10.6456466835
 20
7.2051335102
 30
0.0
 10
10.6972262116
 20
7.2105210639
 30
0.0
 10
10.7596593122
 20
7.2123226394
 30
0.0
 10
10.8223734264
 20
7.209461609
 30
0.0
 10
10.8850214556
 20
7.2019539698
 30
0.0
 10
10.9472598117
 20
7.1898417792
 30
0.0
 10
11.0087465186
 20
7.1731923345
 30
0.0
 10
11.0691440286
 20
7.1520976341
 30
0.0
 10
11.1281207928
 20
7.1266740113
 30
0.0
 10
11.1853532039
 20
7.0970615978
 30
0.0
 10
11.2405271863
 20
7.0634232465
 30
0.0
 10
11.2933400006
 20
7.0259438832
 30
0.0
 10
11.3435019296
 20
6.9848295014
 30
0.0
 10
11.3907376647
 20
6.9403058123
 30
0.0
 10
11.4347879808
 20
6.8926172611
 30
0.0
 10
11.4754111323
 20
6.842025633
 30
0.0
 10
11.5123839707
 20
6.7888084846
 30
0.0
 10
11.5455034158
 20
6.7332578556
 30
0.0
 10
11.5745874693
 20
6.6756785676
 30
0.0
 10
11.5994760329
 20
6.6163865443
 30
0.0
 10
11.6200321007
 20
6.5557071122
 30
0.0
 10
11.6361423426
 20
6.4939736534
 30
0.0
 10
11.6477175198
 20
6.4315239408
 30
0.0
 10
11.6546936479
 20
6.3687053728
 30
0.0
 10
11.6562561538
 20
6.3266922282
 30
0.0
 10
11.6562561538
 20
6.3057467153
 30
0.0
  0
SPLINE
  5
361
100
AcDbEntity
  8
0
100
AcDbSpline
 62
7
  6
CONTINUOUS
 70
0
 71
3
 72
23
 73
19
 74
0
 42
0.0000001
 43
0.0000001
 44
0.0000000001
 40
0.0
 40
0.0
 40
0.0
 40
0.0
 40
0.0616618916
 40
0.1233742189
 40
0.1851526356
 40
0.2470122736
 40
0.3089676204
 40
0.3710324028
 40
0.4332194938
 40
0.4955408137
 40
0.5580072432
 40
0.620628554
 40
0.6834132673
 40
0.7463688274
 40
0.8095013203
 40
0.8728146504
 40
0.9363150856
 40
1.0
 40
1.0
 40
1.0
 40
1.0
 10
11.4329127864
 20
5.8820742355
 30
0.0
 10
11.439627093
 20
5.8899264434
 30
0.0
 10
11.4527060511
 20
5.9059449994
 30
0.0
 10
11.4712217548
 20
5.9308484665
 30
0.0
 10
11.488609794
 20
5.9565927165
 30
0.0
 10
11.5048382788
 20
5.983130701
 30
0.0
 10
11.5198780788
 20
6.0104147624
 30
0.0
 10
11.5337020865
 20
6.0383956433
 30
0.0
 10
11.5462854571
 20
6.0670228895
 30
0.0
 10
11.5576055346
 20
6.0962448912
 30
0.0
 10
11.5676419036
 20
6.1260089893
 30
0.0
 10
11.5763765374
 20
6.156261513
 30
0.0
 10
11.5837937839
 20
6.1869479289
 30
0.0
 10
11.5898802976
 20
6.2180129711
 30
0.0
 10
11.5946250522
 20
6.2494005004
 30
0.0
 10
11.5980197805
 20
6.2810544831
 30
0.0
 10
11.6000580796
 20
6.3129167275
 30
0.0
 10
11.6005098255
 20
6.3342294754
 30
0.0
 10
11.6005098255
 20
6.3448998939
 30
0.0
  0
SPLINE
  5
362
100
AcDbEntity
  8
0
100
AcDbSpline
 62
7
  6
CONTINUOUS
 70
0
 71
3
 72
39
 73
35
 74
0
 42
0.0000001
 43
0.0000001
 44
0.0000000001
 40
0.0
 40
0.0
 40
0.0
 40
0.0
 40
0.0055577178
 40
0.0111783515
 40
0.0169224939
 40
0.0228466025
 40
0.0290016501
 40
0.0354322917
 40
0.0492594105
 40
0.0567237334
 40
0.0645832027
 40
0.0728552336
 40
0.0815535905
 40
0.0906889511
 40
0.1002689297
 40
0.1207797723
 40
0.1431090779
 40
0.1672508467
 40
0.1931790703
 40
0.2208514629
 40
0.250212479
 40
0.2811953802
 40
0.3137236274
 40
0.3477121318
 40
0.3830684333
 40
0.4196935094
 40
0.4574823724
 40
0.4963248728
 40
0.5767054405
 40
0.6598768759
 40
0.7448320392
 40
0.8305351833
 40
0.9159380978
 40
1.0
 40
1.0
 40
1.0
 40
1.0
 10
12.4472761408
 20
10.1089655216
 30
0.0
 10
12.4472761348
 20
10.1084435502
 30
0.0
 10
12.4472176899
 20
10.1073927885
 30
0.0
 10
12.4469553257
 20
10.1058222681
 30
0.0
 10
12.4465188225
 20
10.1042552384
 30
0.0
 10
12.4459089723
 20
10.1026935414
 30
0.0
 10
12.4451267199
 20
10.1011383884
 30
0.0
 10
12.4438239893
 20
10.0990243999
 30
0.0
 10
12.4421951551
 20
10.0969795707
 30
0.0
 10
12.4402961184
 20
10.0950063471
 30
0.0
 10
12.4386684824
 20
10.0935004776
 30
0.0
 10
12.4368756549
 20
10.0920078007
 30
0.0
 10
12.4349188176
 20
10.0905292037
 30
0.0
 10
12.4327995665
 20
10.0890658901
 30
0.0
 10
12.4296883211
 20
10.0870915216
 30
0.0
 10
12.4253917172
 20
10.0846800118
 30
0.0
 10
12.4197317628
 20
10.0819276405
 30
0.0
 10
12.4134733311
 20
10.0792629296
 30
0.0
 10
12.4066364741
 20
10.076694514
 30
0.0
 10
12.3992429341
 20
10.0742307413
 30
0.0
 10
12.3913165479
 20
10.0718797265
 30
0.0
 10
12.3828829597
 20
10.0696492534
 30
0.0
 10
12.3739695796
 20
10.0675467055
 30
0.0
 10
12.3646054554
 20
10.0655790306
 30
0.0
 10
12.3548211426
 20
10.0637527457
 30
0.0
 10
12.3446486092
 20
10.0620739261
 30
0.0
 10
12.3341210981
 20
10.0605480726
 30
0.0
 10
12.3194899345
 20
10.0587034144
 30
0.0
 10
12.300570147
 20
10.0568277834
 30
0.0
 10
12.2772787923
 20
10.0552752679
 30
0.0
 10
12.2534513619
 20
10.0544173554
 30
0.0
 10
12.2293994695
 20
10.0542654592
 30
0.0
 10
12.2054376518
 20
10.0548216691
 30
0.0
 10
12.1895414179
 20
10.055669684
 30
0.0
 10
12.1816653839
 20
10.0562158888
 30
0.0
  0
SPLINE
  5
363
100
AcDbEntity
  8
0
100
AcDbSpline
 62
7
  6
CONTINUOUS
 70
0
 71
3
 72
39
 73
35
 74
0
 42
0.0000001
 43
0.0000001
 44
0.0000000001
 40
0.0
 40
0.0
 40
0.0
 40
0.0
 40
0.0055577178
 40
0.0111783515
 40
0.0169224939
 40
0.0228466025
 40
0.0290016501
 40
0.0354322917
 40
0.0492594105
 40
0.0567237334
 40
0.0645832027
 40
0.0728552336
 40
0.0815535905
 40
0.0906889511
 40
0.1002689297
 40
0.1207797723
 40
0.1431090779
 40
0.1672508467
 40
0.1931790703
 40
0.2208514629
 40
0.250212479
 40
0.2811953802
 40
0.3137236274
 40
0.3477121318
 40
0.3830684333
 40
0.4196935094
 40
0.4574823724
 40
0.4963248728
 40
0.5767054405
 40
0.6598768759
 40
0.7448320392
 40
0.8305351833
 40
0.9159380978
 40
1.0
 40
1.0
 40
1.0
 40
1.0
 10
13.8384273602
 20
11.4527144922
 30
0.0
 10
13.8384273541
 20
11.4521925208
 30
0.0
 10
13.8383689093
 20
11.4511417591
 30
0.0
 10
13.838106545
 20
11.4495712388
 30
0.0
 10
13.8376700419
 20
11.4480042091
 30
0.0
 10
13.8370601917
 20
11.446442512
 30
0.0
 10
13.8362779392
 20
11.444887359
 30
0.0
 10
13.8349752086
 20
11.4427733706
 30
0.0
 10
13.8333463744
 20
11.4407285413
 30
0.0
 10
13.8314473378
 20
11.4387553177
 30
0.0
 10
13.8298197017
 20
11.4372494482
 30
0.0
 10
13.8280268742
 20
11.4357567713
 30
0.0
 10
13.8260700369
 20
11.4342781744
 30
0.0
 10
13.8239507859
 20
11.4328148608
 30
0.0
 10
13.8208395404
 20
11.4308404922
 30
0.0
 10
13.8165429365
 20
11.4284289824
 30
0.0
 10
13.8108829821
 20
11.4256766112
 30
0.0
 10
13.8046245505
 20
11.4230119003
 30
0.0
 10
13.7977876935
 20
11.4204434847
 30
0.0
 10
13.7903941535
 20
11.417979712
 30
0.0
 10
13.7824677673
 20
11.4156286972
 30
0.0
 10
13.774034179
 20
11.4133982241
 30
0.0
 10
13.765120799
 20
11.4112956762
 30
0.0
 10
13.7557566748
 20
11.4093280013
 30
0.0
 10
13.7459723619
 20
11.4075017164
 30
0.0
 10
13.7357998285
 20
11.4058228967
 30
0.0
 10
13.7252723174
 20
11.4042970432
 30
0.0
 10
13.7106411539
 20
11.402452385
 30
0.0
 10
13.6917213663
 20
11.4005767541
 30
0.0
 10
13.6684300116
 20
11.3990242385
 30
0.0
 10
13.6446025812
 20
11.398166326
 30
0.0
 10
13.6205506889
 20
11.3980144299
 30
0.0
 10
13.5965888711
 20
11.3985706397
 30
0.0
 10
13.5806926372
 20
11.3994186546
 30
0.0
 10
13.5728166033
 20
11.3999648595
 30
0.0
  0
SPLINE
  5
364
100
AcDbEntity
  8
0
100
AcDbSpline
 62
7
  6
CONTINUOUS
 70
0
 71
3
 72
36
 73
32
 74
0
 42
0.0000001
 43
0.0000001
 44
0.0000000001
 40
0.0
 40
0.0
 40
0.0
 40
0.0
 40
0.0167323916
 40
0.0336254157
 40
0.0508348411
 40
0.0685072139
 40
0.0867768949
 40
0.1057640151
 40
0.1255740059
 40
0.1462976935
 40
0.1680122733
 40
0.1907824981
 40
0.2146619356
 40
0.239694485
 40
0.265915312
 40
0.2933523695
 40
0.3220268581
 40
0.3519546511
 40
0.3831463561
 40
0.415608596
 40
0.4493438373
 40
0.4843514679
 40
0.5206275693
 40
0.5581657308
 40
0.5969569044
 40
0.6369899193
 40
0.6782515048
 40
0.7207264971
 40
0.8092453194
 40
0.9023952823
 40
1.0
 40
1.0
 40
1.0
 40
1.0
 10
13.0571140489
 20
8.41836396
 30
0.0
 10
13.0550773484
 20
8.4185052062
 30
0.0
 10
13.0509959001
 20
8.4189983178
 30
0.0
 10
13.0449349669
 20
8.4203616034
 30
0.0
 10
13.0389277959
 20
8.4223481644
 30
0.0
 10
13.03297984
 20
8.4249550564
 30
0.0
 10
13.027095
 20
8.428179335
 30
0.0
 10
13.0212768306
 20
8.4320175421
 30
0.0
 10
13.0155285905
 20
8.4364663385
 30
0.0
 10
13.0098532995
 20
8.4415221721
 30
0.0
 10
13.0042539592
 20
8.4471814392
 30
0.0
 10
12.9987335901
 20
8.453440343
 30
0.0
 10
12.9932951942
 20
8.4602948067
 30
0.0
 10
12.98794193
 20
8.467740525
 30
0.0
 10
12.9826768329
 20
8.4757727696
 30
0.0
 10
12.9775031591
 20
8.484386558
 30
0.0
 10
12.9724239369
 20
8.4935764302
 30
0.0
 10
12.9674424373
 20
8.5033366542
 30
0.0
 10
12.9625616423
 20
8.5136610219
 30
0.0
 10
12.9577847609
 20
8.5245430352
 30
0.0
 10
12.9531147062
 20
8.5359757492
 30
0.0
 10
12.9485545669
 20
8.5479519104
 30
0.0
 10
12.9441071737
 20
8.5604638571
 30
0.0
 10
12.9397754574
 20
8.5735036044
 30
0.0
 10
12.9355621522
 20
8.5870627962
 30
0.0
 10
12.9314700184
 20
8.6011327408
 30
0.0
 10
12.9275016416
 20
8.6157044278
 30
0.0
 10
12.9223074247
 20
8.6360708969
 30
0.0
 10
12.9161638913
 20
8.6627251011
 30
0.0
 10
12.9094215239
 20
8.6961303854
 30
0.0
 10
12.9053846075
 20
8.7190550745
 30
0.0
 10
12.9034498072
 20
8.7308060357
 30
0.0
  0
LINE
  5
365
100
AcDbEntity
  8
0
100
AcDbLine
 62
7
  6
CONTINUOUS
 10
12.9034498072
 20
8.7308060357
 11
12.9032543901
 21
8.7319956863
  0
SPLINE
  5
366
100
AcDbEntity
  8
0
100
AcDbSpline
 62
7
  6
CONTINUOUS
 70
0
 71
3
 72
15
 73
11
 74
0
 42
0.0000001
 43
0.0000001
 44
0.0000000001
 40
0.0
 40
0.0
 40
0.0
 40
0.0
 40
0.1097987142
 40
0.2247160577
 40
0.34439263
 40
0.4684441284
 40
0.5964641835
 40
0.7280276296
 40
0.8626911847
 40
1.0
 40
1.0
 40
1.0
 40
1.0
 10
12.9032543901
 20
8.7319956863
 30
0.0
 10
12.9008386997
 20
8.7467364072
 30
0.0
 10
12.8963133255
 20
8.7769747861
 30
0.0
 10
12.8905198347
 20
8.8234714816
 30
0.0
 10
12.885581264
 20
8.8720160413
 30
0.0
 10
12.8815162676
 20
8.9224295804
 30
0.0
 10
12.8783401376
 20
8.9745268528
 30
0.0
 10
12.8760648952
 20
9.0281160562
 30
0.0
 10
12.8746991135
 20
9.0829998772
 30
0.0
 10
12.8744009792
 20
9.1200006047
 30
0.0
 10
12.8744009792
 20
9.1386805118
 30
0.0
  0
SPLINE
  5
367
100
AcDbEntity
  8
0
100
AcDbSpline
 62
7
  6
CONTINUOUS
 70
0
 71
3
 72
36
 73
32
 74
0
 42
0.0000001
 43
0.0000001
 44
0.0000000001
 40
0.0
 40
0.0
 40
0.0
 40
0.0
 40
0.0167323916
 40
0.0336254157
 40
0.0508348411
 40
0.0685072139
 40
0.0867768949
 40
0.1057640151
 40
0.1255740059
 40
0.1462976935
 40
0.1680122733
 40
0.1907824981
 40
0.2146619356
 40
0.239694485
 40
0.265915312
 40
0.2933523695
 40
0.3220268581
 40
0.3519546511
 40
0.3831463561
 40
0.415608596
 40
0.4493438373
 40
0.4843514679
 40
0.5206275693
 40
0.5581657308
 40
0.5969569044
 40
0.6369899193
 40
0.6782515048
 40
0.7207264971
 40
0.8092453194
 40
0.9023952823
 40
1.0
 40
1.0
 40
1.0
 40
1.0
 10
13.7362546198
 20
9.0743634161
 30
0.0
 10
13.7342179193
 20
9.0745046622
 30
0.0
 10
13.730136471
 20
9.0749977738
 30
0.0
 10
13.7240755378
 20
9.0763610594
 30
0.0
 10
13.7180683668
 20
9.0783476204
 30
0.0
 10
13.712120411
 20
9.0809545124
 30
0.0
 10
13.7062355709
 20
9.084178791
 30
0.0
 10
13.7004174016
 20
9.0880169981
 30
0.0
 10
13.6946691615
 20
9.0924657945
 30
0.0
 10
13.6889938704
 20
9.0975216282
 30
0.0
 10
13.6833945302
 20
9.1031808952
 30
0.0
 10
13.6778741611
 20
9.109439799
 30
0.0
 10
13.6724357651
 20
9.1162942627
 30
0.0
 10
13.6670825009
 20
9.123739981
 30
0.0
 10
13.6618174038
 20
9.1317722256
 30
0.0
 10
13.65664373
 20
9.140386014
 30
0.0
 10
13.6515645078
 20
9.1495758862
 30
0.0
 10
13.6465830082
 20
9.1593361102
 30
0.0
 10
13.6417022133
 20
9.1696604779
 30
0.0
 10
13.6369253319
 20
9.1805424912
 30
0.0
 10
13.6322552771
 20
9.1919752052
 30
0.0
 10
13.6276951379
 20
9.2039513664
 30
0.0
 10
13.6232477446
 20
9.2164633131
 30
0.0
 10
13.6189160284
 20
9.2295030604
 30
0.0
 10
13.6147027231
 20
9.2430622522
 30
0.0
 10
13.6106105894
 20
9.2571321968
 30
0.0
 10
13.6066422125
 20
9.2717038838
 30
0.0
 10
13.6014479956
 20
9.2920703529
 30
0.0
 10
13.5953044623
 20
9.3187245571
 30
0.0
 10
13.5885620949
 20
9.3521298414
 30
0.0
 10
13.5845251784
 20
9.3750545305
 30
0.0
 10
13.5825903781
 20
9.3868054917
 30
0.0
  0
LINE
  5
368
100
AcDbEntity
  8
0
100
AcDbLine
 62
7
  6
CONTINUOUS
 10
13.5825903781
 20
9.3868054917
 11
13.582394961
 21
9.3879951423
  0
SPLINE
  5
369
100
AcDbEntity
  8
0
100
AcDbSpline
 62
7
  6
CONTINUOUS
 70
0
 71
3
 72
15
 73
11
 74
0
 42
0.0000001
 43
0.0000001
 44
0.0000000001
 40
0.0
 40
0.0
 40
0.0
 40
0.0
 40
0.1097987142
 40
0.2247160577
 40
0.34439263
 40
0.4684441284
 40
0.5964641835
 40
0.7280276296
 40
0.8626911847
 40
1.0
 40
1.0
 40
1.0
 40
1.0
 10
13.582394961
 20
9.3879951423
 30
0.0
 10
13.5799792707
 20
9.4027358632
 30
0.0
 10
13.5754538964
 20
9.4329742421
 30
0.0
 10
13.5696604056
 20
9.4794709376
 30
0.0
 10
13.564721835
 20
9.5280154973
 30
0.0
 10
13.5606568385
 20
9.5784290364
 30
0.0
 10
13.5574807085
 20
9.6305263088
 30
0.0
 10
13.5552054661
 20
9.6841155122
 30
0.0
 10
13.5538396844
 20
9.7389993332
 30
0.0
 10
13.5535415502
 20
9.7760000607
 30
0.0
 10
13.5535415502
 20
9.7946799678
 30
0.0
  0
SPLINE
  5
36A
100
AcDbEntity
  8
0
100
AcDbSpline
 62
7
  6
CONTINUOUS
 70
0
 71
3
 72
36
 73
32
 74
0
 42
0.0000001
 43
0.0000001
 44
0.0000000001
 40
0.0
 40
0.0
 40
0.0
 40
0.0
 40
0.0167323916
 40
0.0336254157
 40
0.0508348411
 40
0.0685072139
 40
0.0867768949
 40
0.1057640151
 40
0.1255740059
 40
0.1462976935
 40
0.1680122733
 40
0.1907824981
 40
0.2146619356
 40
0.239694485
 40
0.265915312
 40
0.2933523695
 40
0.3220268581
 40
0.3519546511
 40
0.3831463561
 40
0.415608596
 40
0.4493438373
 40
0.4843514679
 40
0.5206275693
 40
0.5581657308
 40
0.5969569044
 40
0.6369899193
 40
0.6782515048
 40
0.7207264971
 40
0.8092453194
 40
0.9023952823
 40
1.0
 40
1.0
 40
1.0
 40
1.0
 10
13.6394564815
 20
6.3245674091
 30
0.0
 10
13.637419781
 20
6.3247086552
 30
0.0
 10
13.6333383327
 20
6.3252017668
 30
0.0
 10
13.6272773995
 20
6.3265650524
 30
0.0
 10
13.6212702285
 20
6.3285516134
 30
0.0
 10
13.6153222726
 20
6.3311585054
 30
0.0
 10
13.6094374326
 20
6.334382784
 30
0.0
 10
13.6036192632
 20
6.3382209912
 30
0.0
 10
13.5978710231
 20
6.3426697875
 30
0.0
 10
13.5921957321
 20
6.3477256212
 30
0.0
 10
13.5865963918
 20
6.3533848883
 30
0.0
 10
13.5810760227
 20
6.3596437921
 30
0.0
 10
13.5756376268
 20
6.3664982557
 30
0.0
 10
13.5702843626
 20
6.3739439741
 30
0.0
 10
13.5650192655
 20
6.3819762187
 30
0.0
 10
13.5598455917
 20
6.390590007
 30
0.0
 10
13.5547663695
 20
6.3997798792
 30
0.0
 10
13.5497848699
 20
6.4095401032
 30
0.0
 10
13.5449040749
 20
6.419864471
 30
0.0
 10
13.5401271935
 20
6.4307464842
 30
0.0
 10
13.5354571388
 20
6.4421791982
 30
0.0
 10
13.5308969995
 20
6.4541553594
 30
0.0
 10
13.5264496063
 20
6.4666673062
 30
0.0
 10
13.52211789
 20
6.4797070534
 30
0.0
 10
13.5179045848
 20
6.4932662452
 30
0.0
 10
13.513812451
 20
6.5073361898
 30
0.0
 10
13.5098440742
 20
6.5219078769
 30
0.0
 10
13.5046498573
 20
6.5422743459
 30
0.0
 10
13.4985063239
 20
6.5689285502
 30
0.0
 10
13.4917639565
 20
6.6023338344
 30
0.0
 10
13.4877270401
 20
6.6252585236
 30
0.0
 10
13.4857922398
 20
6.6370094847
 30
0.0
  0
LINE
  5
36B
100
AcDbEntity
  8
0
100
AcDbLine
 62
7
  6
CONTINUOUS
 10
13.4857922398
 20
6.6370094847
 11
13.4855968227
 21
6.6381991353
  0
SPLINE
  5
36C
100
AcDbEntity
  8
0
100
AcDbSpline
 62
7
  6
CONTINUOUS
 70
0
 71
3
 72
15
 73
11
 74
0
 42
0.0000001
 43
0.0000001
 44
0.0000000001
 40
0.0
 40
0.0
 40
0.0
 40
0.0
 40
0.1097987142
 40
0.2247160577
 40
0.34439263
 40
0.4684441284
 40
0.5964641835
 40
0.7280276296
 40
0.8626911847
 40
1.0
 40
1.0
 40
1.0
 40
1.0
 10
13.4855968227
 20
6.6381991353
 30
0.0
 10
13.4831811323
 20
6.6529398562
 30
0.0
 10
13.4786557581
 20
6.6831782351
 30
0.0
 10
13.4728622673
 20
6.7296749307
 30
0.0
 10
13.4679236966
 20
6.7782194903
 30
0.0
 10
13.4638587002
 20
6.8286330294
 30
0.0
 10
13.4606825702
 20
6.8807303019
 30
0.0
 10
13.4584073278
 20
6.9343195052
 30
0.0
 10
13.457041546
 20
6.9892033262
 30
0.0
 10
13.4567434118
 20
7.0262040538
 30
0.0
 10
13.4567434118
 20
7.0448839608
 30
0.0
  0
SPLINE
  5
36D
100
AcDbEntity
  8
0
100
AcDbSpline
 62
7
  6
CONTINUOUS
 70
0
 71
3
 72
36
 73
32
 74
0
 42
0.0000001
 43
0.0000001
 44
0.0000000001
 40
0.0
 40
0.0
 40
0.0
 40
0.0
 40
0.0167323916
 40
0.0336254157
 40
0.0508348411
 40
0.0685072139
 40
0.0867768949
 40
0.1057640151
 40
0.1255740059
 40
0.1462976935
 40
0.1680122733
 40
0.1907824981
 40
0.2146619356
 40
0.239694485
 40
0.265915312
 40
0.2933523695
 40
0.3220268581
 40
0.3519546511
 40
0.3831463561
 40
0.415608596
 40
0.4493438373
 40
0.4843514679
 40
0.5206275693
 40
0.5581657308
 40
0.5969569044
 40
0.6369899193
 40
0.6782515048
 40
0.7207264971
 40
0.8092453194
 40
0.9023952823
 40
1.0
 40
1.0
 40
1.0
 40
1.0
 10
12.959798187
 20
5.6680678705
 30
0.0
 10
12.9577614865
 20
5.6682091166
 30
0.0
 10
12.9536800382
 20
5.6687022282
 30
0.0
 10
12.947619105
 20
5.6700655138
 30
0.0
 10
12.941611934
 20
5.6720520748
 30
0.0
 10
12.9356639782
 20
5.6746589668
 30
0.0
 10
12.9297791381
 20
5.6778832454
 30
0.0
 10
12.9239609687
 20
5.6817214526
 30
0.0
 10
12.9182127287
 20
5.6861702489
 30
0.0
 10
12.9125374376
 20
5.6912260826
 30
0.0
 10
12.9069380973
 20
5.6968853497
 30
0.0
 10
12.9014177283
 20
5.7031442535
 30
0.0
 10
12.8959793323
 20
5.7099987172
 30
0.0
 10
12.8906260681
 20
5.7174444355
 30
0.0
 10
12.885360971
 20
5.7254766801
 30
0.0
 10
12.8801872972
 20
5.7340904684
 30
0.0
 10
12.875108075
 20
5.7432803406
 30
0.0
 10
12.8701265754
 20
5.7530405646
 30
0.0
 10
12.8652457805
 20
5.7633649324
 30
0.0
 10
12.860468899
 20
5.7742469456
 30
0.0
 10
12.8557988443
 20
5.7856796596
 30
0.0
 10
12.8512387051
 20
5.7976558208
 30
0.0
 10
12.8467913118
 20
5.8101677676
 30
0.0
 10
12.8424595955
 20
5.8232075148
 30
0.0
 10
12.8382462903
 20
5.8367667066
 30
0.0
 10
12.8341541565
 20
5.8508366512
 30
0.0
 10
12.8301857797
 20
5.8654083383
 30
0.0
 10
12.8249915628
 20
5.8857748073
 30
0.0
 10
12.8188480295
 20
5.9124290116
 30
0.0
 10
12.812105662
 20
5.9458342958
 30
0.0
 10
12.8080687456
 20
5.968758985
 30
0.0
 10
12.8061339453
 20
5.9805099462
 30
0.0
  0
LINE
  5
36E
100
AcDbEntity
  8
0
100
AcDbLine
 62
7
  6
CONTINUOUS
 10
12.8061339453
 20
5.9805099462
 11
12.8059385282
 21
5.9816995967
  0
SPLINE
  5
36F
100
AcDbEntity
  8
0
100
AcDbSpline
 62
7
  6
CONTINUOUS
 70
0
 71
3
 72
15
 73
11
 74
0
 42
0.0000001
 43
0.0000001
 44
0.0000000001
 40
0.0
 40
0.0
 40
0.0
 40
0.0
 40
0.1097987142
 40
0.2247160577
 40
0.34439263
 40
0.4684441284
 40
0.5964641835
 40
0.7280276296
 40
0.8626911847
 40
1.0
 40
1.0
 40
1.0
 40
1.0
 10
12.8059385282
 20
5.9816995967
 30
0.0
 10
12.8035228378
 20
5.9964403176
 30
0.0
 10
12.7989974636
 20
6.0266786966
 30
0.0
 10
12.7932039728
 20
6.0731753921
 30
0.0
 10
12.7882654021
 20
6.1217199517
 30
0.0
 10
12.7842004057
 20
6.1721334908
 30
0.0
 10
12.7810242757
 20
6.2242307633
 30
0.0
 10
12.7787490333
 20
6.2778199666
 30
0.0
 10
12.7773832516
 20
6.3327037876
 30
0.0
 10
12.7770851174
 20
6.3697045152
 30
0.0
 10
12.7770851174
 20
6.3883844222
 30
0.0
  0
SPLINE
  5
370
100
AcDbEntity
  8
0
100
AcDbSpline
 62
7
  6
CONTINUOUS
 70
0
 71
3
 72
23
 73
19
 74
0
 42
0.0000001
 43
0.0000001
 44
0.0000000001
 40
0.0
 40
0.0
 40
0.0
 40
0.0
 40
0.0637647102
 40
0.1273228969
 40
0.19067484
 40
0.2538269357
 40
0.3167849538
 40
0.3795573983
 40
0.4421542229
 40
0.5045870939
 40
0.5668692287
 40
0.6290152813
 40
0.6910412178
 40
0.7529641654
 40
0.8148022534
 40
0.8765744409
 40
0.9383003352
 40
1.0
 40
1.0
 40
1.0
 40
1.0
 10
8.2835389452
 20
9.2042480455
 30
0.0
 10
8.2835389452
 20
9.2175086359
 30
0.0
 10
8.2841623622
 20
9.2439912029
 30
0.0
 10
8.2869762017
 20
9.2835585277
 30
0.0
 10
8.2916613566
 20
9.3228208836
 30
0.0
 10
8.2982071781
 20
9.3616895479
 30
0.0
 10
8.3065994189
 20
9.4000786306
 30
0.0
 10
8.3168193944
 20
9.4379025764
 30
0.0
 10
8.3288445167
 20
9.4750772999
 30
0.0
 10
8.3426480955
 20
9.5115200903
 30
0.0
 10
8.3581994885
 20
9.5471498738
 30
0.0
 10
8.3754641644
 20
9.5818873728
 30
0.0
 10
8.3944037684
 20
9.6156552798
 30
0.0
 10
8.4149762353
 20
9.6483784582
 30
0.0
 10
8.4371357795
 20
9.6799840022
 30
0.0
 10
8.4608333708
 20
9.7104018089
 30
0.0
 10
8.4860153761
 20
9.7395632706
 30
0.0
 10
8.5037597282
 20
9.758127598
 30
0.0
 10
8.5128570976
 20
9.7671761365
 30
0.0
  0
SPLINE
  5
371
100
AcDbEntity
  8
0
100
AcDbSpline
 62
7
  6
CONTINUOUS
 70
0
 71
3
 72
11
 73
7
 74
0
 42
0.0000001
 43
0.0000001
 44
0.0000000001
 40
0.0
 40
0.0
 40
0.0
 40
0.0
 40
0.25135619
 40
0.5017993357
 40
0.7513367369
 40
1.0
 40
1.0
 40
1.0
 40
1.0
 10
9.1011499382
 20
9.7924996662
 30
0.0
 10
9.1011499382
 20
9.8039372969
 30
0.0
 10
9.1017524097
 20
9.8267756704
 30
0.0
 10
9.1044726188
 20
9.8608716339
 30
0.0
 10
9.109000153
 20
9.8946514524
 30
0.0
 10
9.1132227799
 20
9.9169380086
 30
0.0
 10
9.1156311623
 20
9.9279938223
 30
0.0
  0
SPLINE
  5
372
100
AcDbEntity
  8
0
100
AcDbSpline
 62
7
  6
CONTINUOUS
 70
0
 71
3
 72
71
 73
67
 74
0
 42
0.0000001
 43
0.0000001
 44
0.0000000001
 40
0.0
 40
0.0
 40
0.0
 40
0.0
 40
0.0155842565
 40
0.0311159319
 40
0.0465952524
 40
0.0620238826
 40
0.0774034482
 40
0.0927362827
 40
0.1080251231
 40
0.1232731738
 40
0.1384840558
 40
0.1536617763
 40
0.1688106896
 40
0.1839354527
 40
0.199040978
 40
0.2141323822
 40
0.2292149324
 40
0.2442939901
 40
0.2593749544
 40
0.2744632041
 40
0.2895640403
 40
0.3046826298
 40
0.3198239504
 40
0.3349927394
 40
0.3501934439
 40
0.3654301774
 40
0.3807066784
 40
0.3960262752
 40
0.411391855
 40
0.4268058382
 40
0.4422701586
 40
0.4577862484
 40
0.4733550295
 40
0.4889769098
 40
0.5046517845
 40
0.5203790422
 40
0.5361575755
 40
0.5519857963
 40
0.5678616545
 40
0.5837826618
 40
0.5997459181
 40
0.6157481413
 40
0.6317856992
 40
0.6478546441
 40
0.6639507502
 40
0.6800695513
 40
0.6962063821
 40
0.7123564199
 40
0.7285147268
 40
0.7446762929
 40
0.76083608
 40
0.776989065
 40
0.7931302839
 40
0.8092548753
 40
0.8253581235
 40
0.8414355003
 40
0.8574827053
 40
0.8734957053
 40
0.889470771
 40
0.9054045131
 40
0.921293919
 40
0.9371363621
 40
0.9529297157
 40
0.968672092
 40
0.9843626215
 40
1.0
 40
1.0
 40
1.0
 40
1.0
 10
8.3863199017
 20
9.2196065214
 30
0.0
 10
8.3863199017
 20
9.2320868622
 30
0.0
 10
8.3869306657
 20
9.2570098609
 30
0.0
 10
8.3896876963
 20
9.2942373534
 30
0.0
 10
8.3942777671
 20
9.3311590258
 30
0.0
 10
8.4006896306
 20
9.367684499
 30
0.0
 10
8.4089081264
 20
9.4037262474
 30
0.0
 10
8.4189134349
 20
9.4391972253
 30
0.0
 10
8.4306815772
 20
9.4740119594
 30
0.0
 10
8.4441842602
 20
9.5080864829
 30
0.0
 10
8.4593890017
 20
9.5413386234
 30
0.0
 10
8.4762592013
 20
9.5736881797
 30
0.0
 10
8.4947542352
 20
9.6050571194
 30
0.0
 10
8.5148295515
 20
9.6353697681
 30
0.0
 10
8.5364367771
 20
9.6645529938
 30
0.0
 10
8.5595238328
 20
9.6925363859
 30
0.0
 10
8.5840350612
 20
9.719252425
 30
0.0
 10
8.609911345
 20
9.7446366653
 30
0.0
 10
8.637090264
 20
9.768627883
 30
0.0
 10
8.6655062526
 20
9.7911682216
 30
0.0
 10
8.6950907583
 20
9.8122033329
 30
0.0
 10
8.7257724096
 20
9.8316825084
 30
0.0
 10
8.7574771896
 20
9.8495588027
 30
0.0
 10
8.790128618
 20
9.8657891429
 30
0.0
 10
8.8236479286
 20
9.880334451
 30
0.0
 10
8.8579542688
 20
9.8931597304
 30
0.0
 10
8.8929649014
 20
9.9042341377
 30
0.0
 10
8.9285954039
 20
9.9135310583
 30
0.0
 10
8.9647598734
 20
9.9210281664
 30
0.0
 10
9.0013711339
 20
9.9267074782
 30
0.0
 10
9.0383409462
 20
9.9305553887
 30
0.0
 10
9.0755802185
 20
9.9325627206
 30
0.0
 10
9.1129992248
 20
9.9327247408
 30
0.0
 10
9.1505078214
 20
9.9310411554
 30
0.0
 10
9.1880156631
 20
9.9275161111
 30
0.0
 10
9.2254324187
 20
9.9221581827
 30
0.0
 10
9.2626679869
 20
9.914980352
 30
0.0
 10
9.2996327106
 20
9.9059999722
 30
0.0
 10
9.336237594
 20
9.8952387391
 30
0.0
 10
9.3723945193
 20
9.882722641
 30
0.0
 10
9.408016453
 20
9.868481877
 30
0.0
 10
9.4430176548
 20
9.8525507886
 30
0.0
 10
9.4773138811
 20
9.8349677749
 30
0.0
 10
9.5108225869
 20
9.8157752023
 30
0.0
 10
9.5434631202
 20
9.7950193001
 30
0.0
 10
9.5751569211
 20
9.7727500589
 30
0.0
 10
9.6058277164
 20
9.7490211169
 30
0.0
 10
9.6354016915
 20
9.7238896136
 30
0.0
 10
9.6638076685
 20
9.697416056
 30
0.0
 10
9.6909772757
 20
9.6696641735
 30
0.0
 10
9.7168451108
 20
9.6407007661
 30
0.0
 10
9.7413488963
 20
9.6105955437
 30
0.0
 10
9.7644296331
 20
9.5794209637
 30
0.0
 10
9.7860317552
 20
9.5472520648
 30
0.0
 10
9.8061032457
 20
9.5141662731
 30
0.0
 10
9.8245957637
 20
9.4802432187
 30
0.0
 10
9.841464759
 20
9.4455645459
 30
0.0
 10
9.8566695792
 20
9.4102137181
 30
0.0
 10
9.8701735657
 20
9.3742758199
 30
0.0
 10
9.8819441507
 20
9.33783735
 30
0.0
 10
9.8919529294
 20
9.3009860389
 30
0.0
 10
9.9001757878
 20
9.263810552
 30
0.0
 10
9.9065927541
 20
9.226400559
 30
0.0
 10
9.9111884942
 20
9.1888456183
 30
0.0
 10
9.9139515834
 20
9.1512375914
 30
0.0
 10
9.9145685983
 20
9.1261449968
 30
0.0
 10
9.9145685983
 20
9.1136221143
 30
0.0
  0
SPLINE
  5
373
100
AcDbEntity
  8
0
100
AcDbSpline
 62
7
  6
CONTINUOUS
 70
0
 71
3
 72
44
 73
40
 74
0
 42
0.0000001
 43
0.0000001
 44
0.0000000001
 40
0.0
 40
0.0
 40
0.0
 40
0.0
 40
0.0310744349
 40
0.0623061033
 40
0.0936903779
 40
0.1252186236
 40
0.1568794503
 40
0.1886586803
 40
0.2205397066
 40
0.2525038554
 40
0.2845307769
 40
0.3165988658
 40
0.3486856972
 40
0.3807684736
 40
0.4128244778
 40
0.4448315246
 40
0.4767684059
 40
0.5086153213
 40
0.5403542862
 40
0.5719695169
 40
0.6034477806
 40
0.6347786986
 40
0.6659550044
 40
0.696972748
 40
0.7278314278
 40
0.7585340529
 40
0.7890871347
 40
0.8195005891
 40
0.8497875544
 40
0.8648914079
 40
0.8799699038
 40
0.8950254603
 40
0.9100606302
 40
0.9250780906
 40
0.9400806268
 40
0.9550711117
 40
0.9700524936
 40
0.9850277766
 40
1.0
 40
1.0
 40
1.0
 40
1.0
 10
8.4007635981
 20
9.2244783719
 30
0.0
 10
8.4007635981
 20
9.2057590501
 30
0.0
 10
8.4021600274
 20
9.1682112843
 30
0.0
 10
8.4083947211
 20
9.1120693989
 30
0.0
 10
8.4187396222
 20
9.0562571701
 30
0.0
 10
8.4331375766
 20
9.0010850529
 30
0.0
 10
8.451508879
 20
8.9468549578
 30
0.0
 10
8.4737521704
 20
8.8938648034
 30
0.0
 10
8.4997449959
 20
8.8424053253
 30
0.0
 10
8.529344391
 20
8.7927589351
 30
0.0
 10
8.5623875877
 20
8.7451979977
 30
0.0
 10
8.5986930751
 20
8.6999834869
 30
0.0
 10
8.6380615502
 20
8.657363569
 30
0.0
 10
8.6802768553
 20
8.6175721204
 30
0.0
 10
8.7251073003
 20
8.580827569
 30
0.0
 10
8.7723069348
 20
8.5473317597
 30
0.0
 10
8.8216167681
 20
8.5172687153
 30
0.0
 10
8.8727662204
 20
8.4908036608
 30
0.0
 10
8.9254746515
 20
8.4680822438
 30
0.0
 10
8.9794528175
 20
8.4492296568
 30
0.0
 10
9.0344044105
 20
8.4343498276
 30
0.0
 10
9.090027734
 20
8.4235250306
 30
0.0
 10
9.1460173077
 20
8.4168154187
 30
0.0
 10
9.2020654792
 20
8.4142584554
 30
0.0
 10
9.2578642008
 20
8.4158688837
 30
0.0
 10
9.3131064438
 20
8.4216385715
 30
0.0
 10
9.3674887645
 20
8.431536739
 30
0.0
 10
9.4207097203
 20
8.4455086374
 30
0.0
 10
9.4638965058
 20
8.4605004973
 30
0.0
 10
9.4975580411
 20
8.4744422964
 30
0.0
 10
9.5223149647
 20
8.4858499029
 30
0.0
 10
9.5465679378
 20
8.4982013147
 30
0.0
 10
9.5702840353
 20
8.5114798043
 30
0.0
 10
9.593430532
 20
8.5256669674
 30
0.0
 10
9.6159756124
 20
8.5407433234
 30
0.0
 10
9.637888149
 20
8.5566881833
 30
0.0
 10
9.6591381667
 20
8.5734796122
 30
0.0
 10
9.6796959899
 20
8.5910941551
 30
0.0
 10
9.6929222942
 20
8.6033711978
 30
0.0
 10
9.6994094748
 20
8.609637328
 30
0.0
  0
SPLINE
  5
374
100
AcDbEntity
  8
0
100
AcDbSpline
 62
7
  6
CONTINUOUS
 70
0
 71
3
 72
27
 73
23
 74
0
 42
0.0000001
 43
0.0000001
 44
0.0000000001
 40
0.0
 40
0.0
 40
0.0
 40
0.0
 40
0.1079734983
 40
0.2112445727
 40
0.3086897737
 40
0.3995198081
 40
0.4832942776
 40
0.5598683609
 40
0.6293232523
 40
0.6918971578
 40
0.7479321613
 40
0.7978397099
 40
0.8420855464
 40
0.8622518891
 40
0.8812044873
 40
0.8990203161
 40
0.915783536
 40
0.9315848385
 40
0.9465244936
 40
0.9742422259
 40
0.987300717
 40
1.0
 40
1.0
 40
1.0
 40
1.0
 10
9.3599112392
 20
8.6135898636
 30
0.0
 10
9.363144066
 20
8.6133656663
 30
0.0
 10
9.3694649516
 20
8.6128667037
 30
0.0
 10
9.3786844574
 20
8.6119461622
 30
0.0
 10
9.3873702775
 20
8.6108804239
 30
0.0
 10
9.3954480835
 20
8.6096840004
 30
0.0
 10
9.4028725824
 20
8.6083710542
 30
0.0
 10
9.4096239044
 20
8.6069542511
 30
0.0
 10
9.4157015289
 20
8.6054442592
 30
0.0
 10
9.4211179854
 20
8.6038496026
 30
0.0
 10
9.4258937622
 20
8.6021767289
 30
0.0
 10
9.4300526003
 20
8.6004303133
 30
0.0
 10
9.4331139053
 20
8.5988712528
 30
0.0
 10
9.4352593814
 20
8.5975822623
 30
0.0
 10
9.436678411
 20
8.5966288209
 30
0.0
 10
9.4379602704
 20
8.5956586795
 30
0.0
 10
9.4391074384
 20
8.5946720407
 30
0.0
 10
9.440122258
 20
8.5936685322
 30
0.0
 10
9.4412723194
 20
8.5923421802
 30
0.0
 10
9.4422097476
 20
8.5909437645
 30
0.0
 10
9.4428928649
 20
8.5894889069
 30
0.0
 10
9.4431473727
 20
8.5887570562
 30
0.0
 10
9.4432527329
 20
8.5883907665
 30
0.0
  0
SPLINE
  5
375
100
AcDbEntity
  8
0
100
AcDbSpline
 62
7
  6
CONTINUOUS
 70
0
 71
3
 72
39
 73
35
 74
0
 42
0.0000001
 43
0.0000001
 44
0.0000000001
 40
0.0
 40
0.0
 40
0.0
 40
0.0
 40
0.0310262934
 40
0.0622042826
 40
0.093529886
 40
0.1249952554
 40
0.1565901457
 40
0.1883017294
 40
0.2201149489
 40
0.2520128199
 40
0.2839767646
 40
0.3159869704
 40
0.3480227641
 40
0.3800629989
 40
0.4120864454
 40
0.4440721852
 40
0.4759999998
 40
0.5078507514
 40
0.539606747
 40
0.5712520844
 40
0.6027729741
 40
0.6341580282
 40
0.6653985103
 40
0.6964885434
 40
0.7274252693
 40
0.7582089521
 40
0.7888430164
 40
0.8193340226
 40
0.8496915737
 40
0.8799281515
 40
0.910058879
 40
0.9401012165
 40
0.9700745959
 40
1.0
 40
1.0
 40
1.0
 40
1.0
 10
8.6695640167
 20
9.4371196537
 30
0.0
 10
8.6695640167
 20
9.4201332562
 30
0.0
 10
8.6707872139
 20
9.3860652111
 30
0.0
 10
8.6762503507
 20
9.3351107597
 30
0.0
 10
8.685317583
 20
9.2844264443
 30
0.0
 10
8.6979422062
 20
9.2342750981
 30
0.0
 10
8.7140590965
 20
9.1849126323
 30
0.0
 10
8.7335853897
 20
9.1365919005
 30
0.0
 10
8.7564207879
 20
9.0895600808
 30
0.0
 10
8.7824481605
 20
9.0440578205
 30
0.0
 10
8.8115341297
 20
9.0003179214
 30
0.0
 10
8.8435297116
 20
8.9585641731
 30
0.0
 10
8.8782710472
 20
8.9190101808
 30
0.0
 10
8.9155803078
 20
8.8818583388
 30
0.0
 10
8.9552665796
 20
8.8472987995
 30
0.0
 10
8.9971268282
 20
8.815508517
 30
0.0
 10
9.0409468696
 20
8.7866502693
 30
0.0
 10
9.0865025205
 20
8.7608719055
 30
0.0
 10
9.1335607232
 20
8.7383055928
 30
0.0
 10
9.1818807244
 20
8.7190671615
 30
0.0
 10
9.2312152544
 20
8.7032554253
 30
0.0
 10
9.2813118037
 20
8.6909517098
 30
0.0
 10
9.3319139065
 20
8.6822194688
 30
0.0
 10
9.3827624282
 20
8.6771039531
 30
0.0
 10
9.4335968662
 20
8.6756319161
 30
0.0
 10
9.4841566802
 20
8.6778114173
 30
0.0
 10
9.5341826193
 20
8.6836318468
 30
0.0
 10
9.5834180439
 20
8.6930639411
 30
0.0
 10
9.63161021
 20
8.7060598845
 30
0.0
 10
9.6785116966
 20
8.7225534993
 30
0.0
 10
9.7238813282
 20
8.7424603826
 30
0.0
 10
9.7674867123
 20
8.7656793387
 30
0.0
 10
9.8091006785
 20
8.7920890537
 30
0.0
 10
9.8353950098
 20
8.8117492039
 30
0.0
 10
9.8481305159
 20
8.822056085
 30
0.0
  0
SPLINE
  5
376
100
AcDbEntity
  8
0
100
AcDbSpline
 62
7
  6
CONTINUOUS
 70
0
 71
3
 72
47
 73
43
 74
0
 42
0.0000001
 43
0.0000001
 44
0.0000000001
 40
0.0
 40
0.0
 40
0.0
 40
0.0
 40
0.0149719699
 40
0.0299469986
 40
0.0449281275
 40
0.0599183593
 40
0.0749206409
 40
0.0899378479
 40
0.1049727642
 40
0.1200280654
 40
0.1351063071
 40
0.1502099062
 40
0.1653411266
 40
0.1805020712
 40
0.195694667
 40
0.2109206532
 40
0.226181577
 40
0.2414787841
 40
0.2721808909
 40
0.30303905
 40
0.3340562704
 40
0.3652320501
 40
0.3965624391
 40
0.4280401707
 40
0.4596548674
 40
0.4913932962
 40
0.5232396724
 40
0.5551760134
 40
0.5871825188
 40
0.61923798
 40
0.6513202127
 40
0.6834065006
 40
0.7154740464
 40
0.7475004247
 40
0.7794640313
 40
0.8113445177
 40
0.8431232087
 40
0.8747834982
 40
0.9063112124
 40
0.9376949433
 40
0.9689261019
 40
1.0
 40
1.0
 40
1.0
 40
1.0
 10
9.7286031336
 20
8.5085356779
 30
0.0
 10
9.7213444617
 20
8.5015243498
 30
0.0
 10
9.7065451427
 20
8.487787338
 30
0.0
 10
9.6835424771
 20
8.4680779864
 30
0.0
 10
9.6597652932
 20
8.4492896368
 30
0.0
 10
9.6352467308
 20
8.4314486322
 30
0.0
 10
9.6100204748
 20
8.4145793208
 30
0.0
 10
9.5841212632
 20
8.3987049525
 30
0.0
 10
9.5575846922
 20
8.3838474262
 30
0.0
 10
9.5304473377
 20
8.3700270893
 30
0.0
 10
9.5027465383
 20
8.3572629495
 30
0.0
 10
9.4745203816
 20
8.3455726365
 30
0.0
 10
9.4458077474
 20
8.3349721284
 30
0.0
 10
9.4166481523
 20
8.3254759882
 30
0.0
 10
9.3870816522
 20
8.3170973482
 30
0.0
 10
9.3571491058
 20
8.3098476344
 30
0.0
 10
9.3268911274
 20
8.3037367552
 30
0.0
 10
9.2861250318
 20
8.2971112565
 30
0.0
 10
9.2345455036
 20
8.2917237029
 30
0.0
 10
9.1721124031
 20
8.2899221274
 30
0.0
 10
9.1093982888
 20
8.2927831577
 30
0.0
 10
9.0467502597
 20
8.3002907969
 30
0.0
 10
8.9845119036
 20
8.3124029875
 30
0.0
 10
8.9230251966
 20
8.3290524323
 30
0.0
 10
8.8626276867
 20
8.3501471327
 30
0.0
 10
8.8036509225
 20
8.3755707554
 30
0.0
 10
8.7464185114
 20
8.4051831689
 30
0.0
 10
8.691244529
 20
8.4388215202
 30
0.0
 10
8.6384317146
 20
8.4763008835
 30
0.0
 10
8.5882697857
 20
8.5174152653
 30
0.0
 10
8.5410340506
 20
8.5619389544
 30
0.0
 10
8.4969837345
 20
8.6096275056
 30
0.0
 10
8.4563605829
 20
8.6602191337
 30
0.0
 10
8.4193877446
 20
8.7134362822
 30
0.0
 10
8.3862682995
 20
8.7689869111
 30
0.0
 10
8.357184246
 20
8.8265661992
 30
0.0
 10
8.3322956824
 20
8.8858582225
 30
0.0
 10
8.3117396145
 20
8.9465376545
 30
0.0
 10
8.2956293727
 20
9.0082711134
 30
0.0
 10
8.2840541955
 20
9.070720826
 30
0.0
 10
8.2770780673
 20
9.1335393939
 30
0.0
 10
8.2755155615
 20
9.1755525385
 30
0.0
 10
8.2755155615
 20
9.1964980514
 30
0.0
  0
SPLINE
  5
377
100
AcDbEntity
  8
0
100
AcDbSpline
 62
7
  6
CONTINUOUS
 70
0
 71
3
 72
39
 73
35
 74
0
 42
0.0000001
 43
0.0000001
 44
0.0000000001
 40
0.0
 40
0.0
 40
0.0
 40
0.0
 40
0.031045078
 40
0.0622439285
 40
0.0935922995
 40
0.1250820221
 40
0.1567024445
 40
0.188440236
 40
0.2202797654
 40
0.2522034216
 40
0.2841919683
 40
0.3162249248
 40
0.3482809619
 40
0.3803383118
 40
0.4123751818
 40
0.4443701685
 40
0.4763026674
 40
0.5081532726
 40
0.5399041581
 40
0.5715394368
 40
0.6030454931
 40
0.6344112801
 40
0.6656285733
 40
0.6966921756
 40
0.7276000688
 40
0.7583535058
 40
0.7889570317
 40
0.819418434
 40
0.8497486182
 40
0.8799614094
 40
0.9100732777
 40
0.940102991
 40
0.9700712052
 40
1.0
 40
1.0
 40
1.0
 40
1.0
 10
8.6907772154
 20
9.4426100314
 30
0.0
 10
8.6907772154
 20
9.4257459454
 30
0.0
 10
8.6920080431
 20
9.3919218081
 30
0.0
 10
8.6975045724
 20
9.3413378675
 30
0.0
 10
8.7066262646
 20
9.2910328155
 30
0.0
 10
8.719324861
 20
9.2412745724
 30
0.0
 10
8.7355330736
 20
9.1923239032
 30
0.0
 10
8.7551653279
 20
9.1444383305
 30
0.0
 10
8.7781180511
 20
9.0978694227
 30
0.0
 10
8.8042703288
 20
9.0528618955
 30
0.0
 10
8.8334845142
 20
9.0096522345
 30
0.0
 10
8.8656069416
 20
8.9684675008
 30
0.0
 10
8.9004686625
 20
8.9295240867
 30
0.0
 10
8.9378864094
 20
8.8930266484
 30
0.0
 10
8.9776635374
 20
8.8591670384
 30
0.0
 10
9.0195910538
 20
8.8281233249
 30
0.0
 10
9.0634486514
 20
8.8000587975
 30
0.0
 10
9.1090058821
 20
8.7751211337
 30
0.0
 10
9.1560233765
 20
8.7534416683
 30
0.0
 10
9.2042540761
 20
8.7351347043
 30
0.0
 10
9.2534445026
 20
8.720296895
 30
0.0
 10
9.303336056
 20
8.709006659
 30
0.0
 10
9.3536663904
 20
8.7013238528
 30
0.0
 10
9.4041707624
 20
8.6972894301
 30
0.0
 10
9.4545834028
 20
8.6969252278
 30
0.0
 10
9.5046388981
 20
8.7002337318
 30
0.0
 10
9.5540735894
 20
8.7071980881
 30
0.0
 10
9.6026269562
 20
8.7177822018
 30
0.0
 10
9.6500429584
 20
8.7319308721
 30
0.0
 10
9.6960714935
 20
8.7495700952
 30
0.0
 10
9.7404694218
 20
8.7706070782
 30
0.0
 10
9.7830031207
 20
8.7949318902
 30
0.0
 10
9.823445008
 20
8.8224139462
 30
0.0
 10
9.8488868451
 20
8.8427580329
 30
0.0
 10
9.8611798125
 20
8.8533973927
 30
0.0
  0
SPLINE
  5
378
100
AcDbEntity
  8
0
100
AcDbSpline
 62
7
  6
CONTINUOUS
 70
0
 71
3
 72
37
 73
33
 74
0
 42
0.0000001
 43
0.0000001
 44
0.0000000001
 40
0.0
 40
0.0
 40
0.0
 40
0.0
 40
0.0152620965
 40
0.0299463963
 40
0.0444446276
 40
0.0591286315
 40
0.0743261385
 40
0.0903060604
 40
0.107279022
 40
0.125403573
 40
0.1447964312
 40
0.165543891
 40
0.1877085705
 40
0.2113385094
 40
0.2364702603
 40
0.2631339854
 40
0.2913555182
 40
0.3211578073
 40
0.3525626523
 40
0.3855899797
 40
0.4202584759
 40
0.4565833873
 40
0.4945751052
 40
0.5342350932
 40
0.5755504954
 40
0.6184875501
 40
0.7089203065
 40
0.8044026137
 40
0.8533769415
 40
0.9026442599
 40
0.9517027359
 40
1.0
 40
1.0
 40
1.0
 40
1.0
 10
9.1884916871
 20
8.5697774963
 30
0.0
 10
9.1882231332
 20
8.5707119834
 30
0.0
 10
9.1878397534
 20
8.5725915984
 30
0.0
 10
9.1877594088
 20
8.5754358709
 30
0.0
 10
9.1881721474
 20
8.5782142128
 30
0.0
 10
9.1890579372
 20
8.5809124458
 30
0.0
 10
9.1903955276
 20
8.5835219924
 30
0.0
 10
9.192165238
 20
8.5860381394
 30
0.0
 10
9.1943502878
 20
8.5884586476
 30
0.0
 10
9.1969367051
 20
8.5907822036
 30
0.0
 10
9.1999126845
 20
8.5930078471
 30
0.0
 10
9.20326823
 20
8.5951344764
 30
0.0
 10
9.2069947157
 20
8.5971611642
 30
0.0
 10
9.2110848288
 20
8.5990868351
 30
0.0
 10
9.2155324275
 20
8.6009105605
 30
0.0
 10
9.2203324941
 20
8.6026313776
 30
0.0
 10
9.2254810864
 20
8.6042482653
 30
0.0
 10
9.2309752083
 20
8.6057602239
 30
0.0
 10
9.2368127165
 20
8.6071659682
 30
0.0
 10
9.242992104
 20
8.6084641436
 30
0.0
 10
9.2495122286
 20
8.6096530052
 30
0.0
 10
9.256371938
 20
8.6107304814
 30
0.0
 10
9.2635694693
 20
8.6116940839
 30
0.0
 10
9.271101658
 20
8.6125407469
 30
0.0
 10
9.2789628444
 20
8.6132669156
 30
0.0
 10
9.290062209
 20
8.6140828067
 30
0.0
 10
9.3046292824
 20
8.6147574772
 30
0.0
 10
9.3195948958
 20
8.6149578911
 30
0.0
 10
9.3319363288
 20
8.6148287578
 30
0.0
 10
9.3413175631
 20
8.614578608
 30
0.0
 10
9.35065027
 20
8.61417577
 30
0.0
 10
9.3568417127
 20
8.6138027359
 30
0.0
 10
9.3599112392
 20
8.6135898636
 30
0.0
  0
SPLINE
  5
379
100
AcDbEntity
  8
0
100
AcDbSpline
 62
7
  6
CONTINUOUS
 70
0
 71
3
 72
39
 73
35
 74
0
 42
0.0000001
 43
0.0000001
 44
0.0000000001
 40
0.0
 40
0.0
 40
0.0
 40
0.0
 40
0.0310001463
 40
0.0621491444
 40
0.093443163
 40
0.124874741
 40
0.1564341983
 40
0.1881093664
 40
0.2198859538
 40
0.2517478108
 40
0.2836772405
 40
0.3156553282
 40
0.3476622869
 40
0.3796778132
 40
0.4116814511
 40
0.4436529567
 40
0.475572661
 40
0.5074218237
 40
0.5391829771
 40
0.5708402532
 40
0.6023796891
 40
0.6337895039
 40
0.6650603449
 40
0.6961854952
 40
0.7271610398
 40
0.7579859818
 40
0.7886623034
 40
0.8191949693
 40
0.8495918691
 40
0.8798636949
 40
0.9100237556
 40
0.9400877256
 40
0.9700733338
 40
1.0
 40
1.0
 40
1.0
 40
1.0
 10
8.7327108452
 20
9.4831148098
 30
0.0
 10
8.7327108452
 20
9.4667814488
 30
0.0
 10
8.7338652746
 20
9.4340249901
 30
0.0
 10
8.7390221742
 20
9.3850248363
 30
0.0
 10
8.747582347
 20
9.3362705789
 30
0.0
 10
8.7595033239
 20
9.2880058504
 30
0.0
 10
8.774725801
 20
9.2404679831
 30
0.0
 10
8.7931744095
 20
9.1938916431
 30
0.0
 10
8.8147578416
 20
9.1485064451
 30
0.0
 10
8.8393693912
 20
9.1045361713
 30
0.0
 10
8.8668874877
 20
9.0621975981
 30
0.0
 10
8.8971762887
 20
9.0216994657
 30
0.0
 10
8.9300863494
 20
8.9832414581
 30
0.0
 10
8.9654553374
 20
8.9470132216
 30
0.0
 10
9.0031088068
 20
8.9131934111
 30
0.0
 10
9.0428610912
 20
8.8819488523
 30
0.0
 10
9.084516202
 20
8.8534337232
 30
0.0
 10
9.1278687833
 20
8.8277888007
 30
0.0
 10
9.1727051132
 20
8.805140777
 30
0.0
 10
9.2188041206
 20
8.785601586
 30
0.0
 10
9.2659384877
 20
8.7692678885
 30
0.0
 10
9.3138757578
 20
8.7562206035
 30
0.0
 10
9.3623794624
 20
8.7465245011
 30
0.0
 10
9.4112102722
 20
8.7402278835
 30
0.0
 10
9.4601271567
 20
8.7373622969
 30
0.0
 10
9.508888569
 20
8.7379423565
 30
0.0
 10
9.5572536293
 20
8.7419656954
 30
0.0
 10
9.6049833095
 20
8.749412949
 30
0.0
 10
9.6518415856
 20
8.7602478119
 30
0.0
 10
9.6975966961
 20
8.7744172475
 30
0.0
 10
9.7420219861
 20
8.7918514336
 30
0.0
 10
9.7848982581
 20
8.812465051
 30
0.0
 10
9.8260103247
 20
8.836154302
 30
0.0
 10
9.8521331399
 20
8.8539381491
 30
0.0
 10
9.8648242888
 20
8.8632953482
 30
0.0
  0
SPLINE
  5
37A
100
AcDbEntity
  8
0
100
AcDbSpline
 62
7
  6
CONTINUOUS
 70
0
 71
3
 72
23
 73
19
 74
0
 42
0.0000001
 43
0.0000001
 44
0.0000000001
 40
0.0
 40
0.0
 40
0.0
 40
0.0
 40
0.0637774724
 40
0.127344696
 40
0.1907020124
 40
0.2538561402
 40
0.3168131804
 40
0.3795820984
 40
0.4421733882
 40
0.5045993399
 40
0.5668738668
 40
0.6290123797
 40
0.6910316501
 40
0.7529496455
 40
0.8147853558
 40
0.8765586055
 40
0.9382898564
 40
1.0
 40
1.0
 40
1.0
 40
1.0
 10
8.4007635981
 20
9.2244783719
 30
0.0
 10
8.4007635981
 20
9.2365437288
 30
0.0
 10
8.4013410673
 20
9.2606387576
 30
0.0
 10
8.4039476229
 20
9.2966347809
 30
0.0
 10
8.4082874539
 20
9.3323453886
 30
0.0
 10
8.4143503373
 20
9.3676869353
 30
0.0
 10
8.4221225962
 20
9.4025784695
 30
0.0
 10
8.4315862948
 20
9.4369393877
 30
0.0
 10
8.4427197531
 20
9.4706905087
 30
0.0
 10
8.4554973571
 20
9.5037539921
 30
0.0
 10
8.4698897052
 20
9.536053591
 30
0.0
 10
8.485863671
 20
9.5675148078
 30
0.0
 10
8.5033824686
 20
9.5980650641
 30
0.0
 10
8.5224057646
 20
9.6276338953
 30
0.0
 10
8.5428896715
 20
9.6561530126
 30
0.0
 10
8.5647872064
 20
9.6835568432
 30
0.0
 10
8.5880469969
 20
9.7097813213
 30
0.0
 10
8.6044290335
 20
9.7264408044
 30
0.0
 10
8.6128258033
 20
9.7345514545
 30
0.0
  0
SPLINE
  5
37B
100
AcDbEntity
  8
0
100
AcDbSpline
 62
7
  6
CONTINUOUS
 70
0
 71
3
 72
41
 73
37
 74
0
 42
0.0000001
 43
0.0000001
 44
0.0000000001
 40
0.0
 40
0.0
 40
0.0
 40
0.0
 40
0.0310519883
 40
0.0622585585
 40
0.0936153982
 40
0.1251141998
 40
0.1567441567
 40
0.1884917358
 40
0.2203410786
 40
0.2522743249
 40
0.2842719777
 40
0.3163132923
 40
0.3483766816
 40
0.3804401339
 40
0.4124816369
 40
0.4444796002
 40
0.4764132723
 40
0.5082631476
 40
0.5400113558
 40
0.5716420265
 40
0.6031416241
 40
0.6344992466
 40
0.6657068837
 40
0.6967596204
 40
0.7276557849
 40
0.7583970318
 40
0.7889883575
 40
0.8194380429
 40
0.8497575155
 40
0.8799611337
 40
0.9100658968
 40
0.9400910818
 40
0.9550832179
 40
0.9700635069
 40
0.9850348004
 40
1.0
 40
1.0
 40
1.0
 40
1.0
 10
8.7896614745
 20
9.4916248967
 30
0.0
 10
8.7896614745
 20
9.4757677404
 30
0.0
 10
8.7908248655
 20
9.4439626765
 30
0.0
 10
8.7960199936
 20
9.396400382
 30
0.0
 10
8.8046411373
 20
9.3491043131
 30
0.0
 10
8.8166422161
 20
9.3023289857
 30
0.0
 10
8.831958952
 20
9.2563220789
 30
0.0
 10
8.850509665
 20
9.2113281512
 30
0.0
 10
8.872195466
 20
9.1675860398
 30
0.0
 10
8.8969009204
 20
9.1253279934
 30
0.0
 10
8.924494632
 20
9.0847783523
 30
0.0
 10
8.9548299482
 20
9.046152411
 30
0.0
 10
8.9877456983
 20
9.0096552591
 30
0.0
 10
9.0230670291
 20
8.9754806827
 30
0.0
 10
9.0606063767
 20
8.943810189
 30
0.0
 10
9.1001644371
 20
8.9148120446
 30
0.0
 10
9.1415312194
 20
8.8886404047
 30
0.0
 10
9.1844871124
 20
8.8654344511
 30
0.0
 10
9.2288040506
 20
8.8453176581
 30
0.0
 10
9.274246732
 20
8.8283971839
 30
0.0
 10
9.3205738401
 20
8.8147632887
 30
0.0
 10
9.3675393077
 20
8.8044888672
 30
0.0
 10
9.4148935881
 20
8.7976289773
 30
0.0
 10
9.4623849833
 20
8.7942205738
 30
0.0
 10
9.509760964
 20
8.7942823237
 30
0.0
 10
9.5567694977
 20
8.7978144782
 30
0.0
 10
9.6031603611
 20
8.8047988427
 30
0.0
 10
9.6486865299
 20
8.8151987957
 30
0.0
 10
9.6931053214
 20
8.8289593956
 30
0.0
 10
9.7361803419
 20
8.8460081217
 30
0.0
 10
9.7776803443
 20
8.8662534723
 30
0.0
 10
9.8107895793
 20
8.8857129594
 30
0.0
 10
9.8362581416
 20
8.9027560849
 30
0.0
 10
9.8548257199
 20
8.9162573722
 30
0.0
 10
9.8728410558
 20
8.9304638414
 30
0.0
 10
9.8844697575
 20
8.9403947339
 30
0.0
 10
9.8901830767
 20
8.9454702837
 30
0.0
  0
SPLINE
  5
37C
100
AcDbEntity
  8
0
100
AcDbSpline
 62
7
  6
CONTINUOUS
 70
0
 71
3
 72
39
 73
35
 74
0
 42
0.0000001
 43
0.0000001
 44
0.0000000001
 40
0.0
 40
0.0
 40
0.0
 40
0.0
 40
0.0307262854
 40
0.0615726856
 40
0.0925364964
 40
0.1236142241
 40
0.1548005438
 40
0.186088969
 40
0.2174717035
 40
0.2489398333
 40
0.2804834139
 40
0.312091606
 40
0.3437528058
 40
0.3754547865
 40
0.4071848444
 40
0.4389299477
 40
0.4706768898
 40
0.5024124422
 40
0.5341235095
 40
0.5657972813
 40
0.5974213834
 40
0.6289840248
 40
0.6604741395
 40
0.6918815228
 40
0.723196959
 40
0.754412341
 40
0.7855207786
 40
0.8165166951
 40
0.8473959102
 40
0.8781557079
 40
0.9087948874
 40
0.9393137965
 40
0.9697143455
 40
1.0
 40
1.0
 40
1.0
 40
1.0
 10
9.1011499382
 20
9.7924996662
 30
0.0
 10
9.1011499382
 20
9.7801654857
 30
0.0
 10
9.1018532366
 20
9.7554433064
 30
0.0
 10
9.1050000331
 20
9.7184121417
 30
0.0
 10
9.1102305656
 20
9.681473913
 30
0.0
 10
9.1175277273
 20
9.6447492398
 30
0.0
 10
9.1268679758
 20
9.6083558789
 30
0.0
 10
9.1382210636
 20
9.5724111415
 30
0.0
 10
9.1515503528
 20
9.5370306975
 30
0.0
 10
9.1668128228
 20
9.5023284404
 30
0.0
 10
9.1839592602
 20
9.46841606
 30
0.0
 10
9.2029343962
 20
9.4354027016
 30
0.0
 10
9.2236770926
 20
9.4033946143
 30
0.0
 10
9.246120535
 20
9.3724948118
 30
0.0
 10
9.270192448
 20
9.342802743
 30
0.0
 10
9.2958153267
 20
9.3144139747
 30
0.0
 10
9.3229066849
 20
9.2874198854
 30
0.0
 10
9.3513793188
 20
9.2619073732
 30
0.0
 10
9.3811415863
 20
9.2379585774
 30
0.0
 10
9.4120977
 20
9.2156506163
 30
0.0
 10
9.4441480331
 20
9.1950553386
 30
0.0
 10
9.4771894374
 20
9.1762390931
 30
0.0
 10
9.5111155745
 20
9.1592625169
 30
0.0
 10
9.5458172542
 20
9.1441803402
 30
0.0
 10
9.581182784
 20
9.1310412102
 30
0.0
 10
9.6170983255
 20
9.1198875345
 30
0.0
 10
9.6534482569
 20
9.1107553431
 30
0.0
 10
9.6901155455
 20
9.103674172
 30
0.0
 10
9.7269821081
 20
9.0986669634
 30
0.0
 10
9.7639292389
 20
9.0957499984
 30
0.0
 10
9.8008377997
 20
9.0949328088
 30
0.0
 10
9.8375893057
 20
9.0962182622
 30
0.0
 10
9.8740636894
 20
9.0996021051
 30
0.0
 10
9.8981651346
 20
9.103257164
 30
0.0
 10
9.9101265119
 20
9.1054309724
 30
0.0
  0
SPLINE
  5
37D
100
AcDbEntity
  8
0
100
AcDbSpline
 62
7
  6
CONTINUOUS
 70
0
 71
3
 72
37
 73
33
 74
0
 42
0.0000001
 43
0.0000001
 44
0.0000000001
 40
0.0
 40
0.0
 40
0.0
 40
0.0
 40
0.0306365143
 40
0.061382443
 40
0.0922345686
 40
0.1231910988
 40
0.1542477143
 40
0.1853996298
 40
0.2166409381
 40
0.2479648689
 40
0.2793638325
 40
0.3108294983
 40
0.3423528855
 40
0.373924451
 40
0.4055341844
 40
0.4371717065
 40
0.5004690859
 40
0.5637483548
 40
0.5953634195
 40
0.6269420131
 40
0.658474058
 40
0.6899499273
 40
0.7213605402
 40
0.7526974529
 40
0.783952945
 40
0.815120103
 40
0.8461928965
 40
0.8771662462
 40
0.9080360836
 40
0.9387994017
 40
0.9694542965
 40
1.0
 40
1.0
 40
1.0
 40
1.0
 10
9.2665128231
 20
9.884727957
 30
0.0
 10
9.2665128231
 20
9.8746600533
 30
0.0
 10
9.2670335119
 20
9.8544845185
 30
0.0
 10
9.2693645074
 20
9.8242512537
 30
0.0
 10
9.2732408881
 20
9.7940703212
 30
0.0
 10
9.2786519761
 20
9.7640230683
 30
0.0
 10
9.2855835715
 20
9.7341886629
 30
0.0
 10
9.2940171236
 20
9.7046463655
 30
0.0
 10
9.303930268
 20
9.6754744478
 30
0.0
 10
9.3152966404
 20
9.6467502451
 30
0.0
 10
9.3280860529
 20
9.6185498813
 30
0.0
 10
9.3422645443
 20
9.5909481079
 30
0.0
 10
9.3577945371
 20
9.5640180326
 30
0.0
 10
9.3746346834
 20
9.5378311953
 30
0.0
 10
9.3927409249
 20
9.5124563885
 30
0.0
 10
9.4185055146
 20
9.4797965121
 30
0.0
 10
9.4536232869
 20
9.4413400641
 30
0.0
 10
9.492264217
 20
9.4064362128
 30
0.0
 10
9.5250471776
 20
9.3808666489
 30
0.0
 10
9.550497973
 20
9.3629203655
 30
0.0
 10
9.5767477319
 20
9.3462507159
 30
0.0
 10
9.6037275065
 20
9.3309013252
 30
0.0
 10
9.6313656301
 20
9.3169130741
 30
0.0
 10
9.6595889011
 20
9.304323049
 30
0.0
 10
9.6883225099
 20
9.2931647017
 30
0.0
 10
9.7174902977
 20
9.283467665
 30
0.0
 10
9.7470149364
 20
9.2752576966
 30
0.0
 10
9.7768181775
 20
9.2685566274
 30
0.0
 10
9.8068209281
 20
9.2633822971
 30
0.0
 10
9.8369439224
 20
9.2597485193
 30
0.0
 10
9.8671062072
 20
9.2576649984
 30
0.0
 10
9.8872257115
 20
9.257312682
 30
0.0
 10
9.8972634149
 20
9.2573974171
 30
0.0
  0
SPLINE
  5
37E
100
AcDbEntity
  8
0
100
AcDbSpline
 62
7
  6
CONTINUOUS
 70
0
 71
3
 72
43
 73
39
 74
0
 42
0.0000001
 43
0.0000001
 44
0.0000000001
 40
0.0
 40
0.0
 40
0.0
 40
0.0
 40
0.0309419255
 40
0.0620265905
 40
0.0932506303
 40
0.1246074316
 40
0.1560884208
 40
0.1876827888
 40
0.2193778074
 40
0.2511590454
 40
0.283010627
 40
0.3149155066
 40
0.3468557566
 40
0.3788128662
 40
0.4107680474
 40
0.4427025443
 40
0.4745979411
 40
0.5064364668
 40
0.5382012915
 40
0.5698768138
 40
0.6014489312
 40
0.6329052926
 40
0.6642355266
 40
0.6954314433
 40
0.7264872047
 40
0.7573994604
 40
0.7881674405
 40
0.8187930057
 40
0.8340559563
 40
0.8492852085
 40
0.8644817243
 40
0.8796466276
 40
0.9098821506
 40
0.9400082935
 40
0.9550370349
 40
0.9700438539
 40
0.9850307946
 40
1.0
 40
1.0
 40
1.0
 40
1.0
 10
8.6241655001
 20
9.4402680515
 30
0.0
 10
8.6241655001
 20
9.4232435939
 30
0.0
 10
8.6253200743
 20
9.3891052706
 30
0.0
 10
8.6304794903
 20
9.3380220647
 30
0.0
 10
8.6390463779
 20
9.2871653038
 30
0.0
 10
8.6509815955
 20
9.2367691113
 30
0.0
 10
8.6662304492
 20
9.1870617972
 30
0.0
 10
8.6847233878
 20
9.138269423
 30
0.0
 10
8.7063760963
 20
9.0906136032
 30
0.0
 10
8.7310899486
 20
9.0443108266
 30
0.0
 10
8.7587524702
 20
8.9995714051
 30
0.0
 10
8.7892378441
 20
8.956598554
 30
0.0
 10
8.8224074794
 20
8.9155874735
 30
0.0
 10
8.8581106355
 20
8.8767244756
 30
0.0
 10
8.8961850683
 20
8.8401861113
 30
0.0
 10
8.9364577978
 20
8.8061384026
 30
0.0
 10
8.9787458861
 20
8.7747360976
 30
0.0
 10
9.0228572585
 20
8.7461219722
 30
0.0
 10
9.0685915688
 20
8.7204261926
 30
0.0
 10
9.115741084
 20
8.6977657018
 30
0.0
 10
9.1640916191
 20
8.6782436797
 30
0.0
 10
9.2134235196
 20
8.6619491081
 30
0.0
 10
9.2635126278
 20
8.648956357
 30
0.0
 10
9.3141313389
 20
8.6393248508
 30
0.0
 10
9.3650494336
 20
8.6330987656
 30
0.0
 10
9.4160358008
 20
8.6303068757
 30
0.0
 10
9.4668569259
 20
8.6309620554
 30
0.0
 10
9.5089311125
 20
8.6343832058
 30
0.0
 10
9.5422677273
 20
8.6388378803
 30
0.0
 10
9.5670596235
 20
8.6430277459
 30
0.0
 10
9.5916381964
 20
8.6480654554
 30
0.0
 10
9.6240522357
 20
8.655896112
 30
0.0
 10
9.6639127559
 20
8.6677706209
 30
0.0
 10
9.7027665182
 20
8.682402086
 30
0.0
 10
9.7330834471
 20
8.695705147
 30
0.0
 10
9.7554032193
 20
8.7064633791
 30
0.0
 10
9.7772947557
 20
8.7179968409
 30
0.0
 10
9.791595844
 20
8.72619904
 30
0.0
 10
9.7986655752
 20
8.7304243455
 30
0.0
  0
SPLINE
  5
37F
100
AcDbEntity
  8
0
100
AcDbSpline
 62
7
  6
CONTINUOUS
 70
0
 71
3
 72
33
 73
29
 74
0
 42
0.0000001
 43
0.0000001
 44
0.0000000001
 40
0.0
 40
0.0
 40
0.0
 40
0.0
 40
0.0304445286
 40
0.0608955505
 40
0.0913595199
 40
0.1218428064
 40
0.1523516552
 40
0.1828921529
 40
0.2134701851
 40
0.2440913971
 40
0.2747611664
 40
0.3054845685
 40
0.3362663406
 40
0.3671108606
 40
0.3980221245
 40
0.4290037159
 40
0.4600587911
 40
0.4911900691
 40
0.52239981
 40
0.5536898046
 40
0.5850613771
 40
0.616515374
 40
0.679660373
 40
0.7431334766
 40
0.8069244996
 40
0.8710161769
 40
0.9353846364
 40
1.0
 40
1.0
 40
1.0
 40
1.0
 10
11.4189734298
 20
5.7350119201
 30
0.0
 10
11.4115567504
 20
5.7278479687
 30
0.0
 10
11.3964289329
 20
5.7138182159
 30
0.0
 10
11.3728988841
 20
5.6937098923
 30
0.0
 10
11.3485616804
 20
5.6745643108
 30
0.0
 10
11.3234527336
 20
5.6564094994
 30
0.0
 10
11.2976080449
 20
5.6392713452
 30
0.0
 10
11.2710647905
 20
5.6231744808
 30
0.0
 10
11.2438610572
 20
5.6081420884
 30
0.0
 10
11.216035969
 20
5.594195702
 30
0.0
 10
11.1876295206
 20
5.5813553021
 30
0.0
 10
11.1586824925
 20
5.5696393902
 30
0.0
 10
11.1292364858
 20
5.5590647558
 30
0.0
 10
11.0993338237
 20
5.5496465049
 30
0.0
 10
11.0690174411
 20
5.5413982018
 30
0.0
 10
11.0383308858
 20
5.5343316866
 30
0.0
 10
11.0073182494
 20
5.5284570025
 30
0.0
 10
10.9760240733
 20
5.5237825968
 30
0.0
 10
10.9444932541
 20
5.5203152136
 30
0.0
 10
10.9127712362
 20
5.5180596995
 30
0.0
 10
10.8809029866
 20
5.5170193409
 30
0.0
 10
10.8382287035
 20
5.5172544401
 30
0.0
 10
10.7847384283
 20
5.520601876
 30
0.0
 10
10.7207982237
 20
5.5294566835
 30
0.0
 10
10.657377832
 20
5.5431026519
 30
0.0
 10
10.5948422969
 20
5.5614614795
 30
0.0
 10
10.5335532843
 20
5.5844252414
 30
0.0
 10
10.4938181347
 20
5.6026895368
 30
0.0
 10
10.4742733019
 20
5.612536726
 30
0.0
  0
SPLINE
  5
380
100
AcDbEntity
  8
0
100
AcDbSpline
 62
7
  6
CONTINUOUS
 70
0
 71
3
 72
11
 73
7
 74
0
 42
0.0000001
 43
0.0000001
 44
0.0000000001
 40
0.0
 40
0.0
 40
0.0
 40
0.0
 40
0.2510785587
 40
0.5015636626
 40
0.7512620049
 40
1.0
 40
1.0
 40
1.0
 40
1.0
 10
10.1421182924
 20
5.894186758
 30
0.0
 10
10.1279108774
 20
5.9135706786
 30
0.0
 10
10.1010130182
 20
5.9534056155
 30
0.0
 10
10.0654766396
 20
6.016002074
 30
0.0
 10
10.0350191259
 20
6.0809740295
 30
0.0
 10
10.0182003775
 20
6.1256835688
 30
0.0
 10
10.0107081532
 20
6.1482830204
 30
0.0
  0
SPLINE
  5
381
100
AcDbEntity
  8
0
100
AcDbSpline
 62
7
  6
CONTINUOUS
 70
0
 71
3
 72
40
 73
36
 74
0
 42
0.0000001
 43
0.0000001
 44
0.0000000001
 40
0.0
 40
0.0
 40
0.0
 40
0.0
 40
0.0307246453
 40
0.0615692491
 40
0.0925310772
 40
0.1236066807
 40
0.1547907443
 40
0.1860768138
 40
0.2174571237
 40
0.2489227967
 40
0.2804639281
 40
0.3120697205
 40
0.3437286137
 40
0.3754284253
 40
0.4071564953
 40
0.4388998351
 40
0.4706452784
 40
0.5023796348
 40
0.5340898422
 40
0.5657631195
 40
0.597387116
 40
0.6289500579
 40
0.6604408895
 40
0.6918494089
 40
0.7231663949
 40
0.7543837266
 40
0.7854944912
 40
0.8164930804
 40
0.8473752735
 40
0.8781383056
 40
0.9087809186
 40
0.9393033952
 40
0.9545216707
 40
0.9697107329
 40
1.0
 40
1.0
 40
1.0
 40
1.0
 10
9.1482050101
 20
9.7995310679
 30
0.0
 10
9.1482050101
 20
9.7879173465
 30
0.0
 10
9.1488662674
 20
9.7646393007
 30
0.0
 10
9.1518249783
 20
9.7297710539
 30
0.0
 10
9.1567429222
 20
9.6949898598
 30
0.0
 10
9.1636040496
 20
9.6604089741
 30
0.0
 10
9.1723862973
 20
9.626138953
 30
0.0
 10
9.1830613019
 20
9.5922899474
 30
0.0
 10
9.1955947158
 20
9.558970568
 30
0.0
 10
9.2099462028
 20
9.5262877642
 30
0.0
 10
9.2260696209
 20
9.4943464227
 30
0.0
 10
9.2439131486
 20
9.4632490486
 30
0.0
 10
9.2634194597
 20
9.4330954359
 30
0.0
 10
9.2845259037
 20
9.40398235
 30
0.0
 10
9.3071647069
 20
9.3760032193
 30
0.0
 10
9.3312631888
 20
9.3492478375
 30
0.0
 10
9.3567439943
 20
9.323802077
 30
0.0
 10
9.3835253404
 20
9.2997476153
 30
0.0
 10
9.4115212774
 20
9.2771616743
 30
0.0
 10
9.4406419615
 20
9.2561167723
 30
0.0
 10
9.4707939427
 20
9.2366804933
 30
0.0
 10
9.5018804627
 20
9.2189152709
 30
0.0
 10
9.533801763
 20
9.2028781892
 30
0.0
 10
9.566455403
 20
9.1886207994
 30
0.0
 10
9.5997365854
 20
9.1761889549
 30
0.0
 10
9.6335384915
 20
9.1656226632
 30
0.0
 10
9.6677526153
 20
9.156955957
 30
0.0
 10
9.7022691307
 20
9.1502167848
 30
0.0
 10
9.7369771598
 20
9.1454269136
 30
0.0
 10
9.7717654283
 20
9.1426018785
 30
0.0
 10
9.8065214995
 20
9.1417508484
 30
0.0
 10
9.835395752
 20
9.1426901512
 30
0.0
 10
9.8583638447
 20
9.1444309788
 30
0.0
 10
9.8811839193
 20
9.1468237486
 30
0.0
 10
9.8981994777
 20
9.1493580694
 30
0.0
 10
9.9094696108
 20
9.151374791
 30
0.0
  0
SPLINE
  5
382
100
AcDbEntity
  8
0
100
AcDbSpline
 62
7
  6
CONTINUOUS
 70
0
 71
3
 72
39
 73
35
 74
0
 42
0.0000001
 43
0.0000001
 44
0.0000000001
 40
0.0
 40
0.0
 40
0.0
 40
0.0
 40
0.0055577178
 40
0.0111783515
 40
0.0169224939
 40
0.0228466025
 40
0.0290016501
 40
0.0354322917
 40
0.0492594105
 40
0.0567237334
 40
0.0645832027
 40
0.0728552336
 40
0.0815535905
 40
0.0906889511
 40
0.1002689297
 40
0.1207797723
 40
0.1431090779
 40
0.1672508467
 40
0.1931790703
 40
0.2208514629
 40
0.250212479
 40
0.2811953802
 40
0.3137236274
 40
0.3477121318
 40
0.3830684333
 40
0.4196935094
 40
0.4574823724
 40
0.4963248728
 40
0.5767054405
 40
0.6598768759
 40
0.7448320392
 40
0.8305351833
 40
0.9159380978
 40
1.0
 40
1.0
 40
1.0
 40
1.0
 10
12.0252761739
 20
10.1089661752
 30
0.0
 10
12.0252761799
 20
10.1094881466
 30
0.0
 10
12.0253346248
 20
10.1105389083
 30
0.0
 10
12.025596989
 20
10.1121094287
 30
0.0
 10
12.0260334922
 20
10.1136764584
 30
0.0
 10
12.0266433424
 20
10.1152381554
 30
0.0
 10
12.0274255949
 20
10.1167933084
 30
0.0
 10
12.0287283254
 20
10.1189072969
 30
0.0
 10
12.0303571597
 20
10.1209521261
 30
0.0
 10
12.0322561963
 20
10.1229253497
 30
0.0
 10
12.0338838324
 20
10.1244312192
 30
0.0
 10
12.0356766599
 20
10.1259238961
 30
0.0
 10
12.0376334972
 20
10.1274024931
 30
0.0
 10
12.0397527482
 20
10.1288658067
 30
0.0
 10
12.0428639937
 20
10.1308401752
 30
0.0
 10
12.0471605976
 20
10.133251685
 30
0.0
 10
12.052820552
 20
10.1360040562
 30
0.0
 10
12.0590789836
 20
10.1386687671
 30
0.0
 10
12.0659158406
 20
10.1412371828
 30
0.0
 10
12.0733093806
 20
10.1437009555
 30
0.0
 10
12.0812357668
 20
10.1460519703
 30
0.0
 10
12.0896693551
 20
10.1482824434
 30
0.0
 10
12.0985827351
 20
10.1503849912
 30
0.0
 10
12.1079468593
 20
10.1523526662
 30
0.0
 10
12.1177311722
 20
10.1541789511
 30
0.0
 10
12.1279037056
 20
10.1558577707
 30
0.0
 10
12.1384312167
 20
10.1573836242
 30
0.0
 10
12.1530623802
 20
10.1592282824
 30
0.0
 10
12.1719821678
 20
10.1611039134
 30
0.0
 10
12.1952735225
 20
10.1626564289
 30
0.0
 10
12.2191009529
 20
10.1635143414
 30
0.0
 10
12.2431528452
 20
10.1636662376
 30
0.0
 10
12.267114663
 20
10.1631100277
 30
0.0
 10
12.2830108968
 20
10.1622620128
 30
0.0
 10
12.2908869308
 20
10.161715808
 30
0.0
  0
SPLINE
  5
383
100
AcDbEntity
  8
0
100
AcDbSpline
 62
7
  6
CONTINUOUS
 70
0
 71
3
 72
40
 73
36
 74
0
 42
0.0000001
 43
0.0000001
 44
0.0000000001
 40
0.0
 40
0.0
 40
0.0
 40
0.0
 40
0.0307204968
 40
0.0615604897
 40
0.0925172405
 40
0.1235873664
 40
0.154765602
 40
0.186045571
 40
0.2174195939
 40
0.2488788918
 40
0.2804136665
 40
0.3120132341
 40
0.343666152
 40
0.3753603573
 40
0.4070833089
 40
0.4388221337
 40
0.4705637759
 40
0.5022951468
 40
0.5340032764
 40
0.5656754623
 40
0.5972994183
 40
0.6288634179
 40
0.660356434
 40
0.6917682728
 40
0.7230896998
 40
0.7543125578
 40
0.7854298742
 40
0.8164359572
 40
0.8473264785
 40
0.8780985424
 40
0.9087507373
 40
0.9392831717
 40
0.9545064918
 40
0.96970062
 40
1.0
 40
1.0
 40
1.0
 40
1.0
 10
9.1626487066
 20
9.8044029184
 30
0.0
 10
9.1626487066
 20
9.7930002279
 30
0.0
 10
9.1632953905
 20
9.7701453691
 30
0.0
 10
9.1661889657
 20
9.7359103773
 30
0.0
 10
9.1709987404
 20
9.7017596567
 30
0.0
 10
9.1777091316
 20
9.6678035468
 30
0.0
 10
9.186298737
 20
9.6341497519
 30
0.0
 10
9.1967400285
 20
9.6009055985
 30
0.0
 10
9.2089996754
 20
9.5681769219
 30
0.0
 10
9.2230385302
 20
9.5360679542
 30
0.0
 10
9.2388118095
 20
9.5046809348
 30
0.0
 10
9.2562692135
 20
9.4741158025
 30
0.0
 10
9.2753550949
 20
9.4444698765
 30
0.0
 10
9.2960086327
 20
9.415837549
 30
0.0
 10
9.318164026
 20
9.3883099873
 30
0.0
 10
9.341750702
 20
9.3619748447
 30
0.0
 10
9.3666935404
 20
9.336915984
 30
0.0
 10
9.3929131105
 20
9.3132132115
 30
0.0
 10
9.4203259222
 20
9.2909420233
 30
0.0
 10
9.4488446904
 20
9.2701733664
 30
0.0
 10
9.4783786123
 20
9.2509734146
 30
0.0
 10
9.508833654
 20
9.2334033584
 30
0.0
 10
9.5401128482
 20
9.2175192114
 30
0.0
 10
9.5721166
 20
9.2033716314
 30
0.0
 10
9.6047430018
 20
9.1910057601
 30
0.0
 10
9.6378881564
 20
9.1804610784
 30
0.0
 10
9.6714464993
 20
9.17177128
 30
0.0
 10
9.7053111536
 20
9.164964164
 30
0.0
 10
9.7393741883
 20
9.1600615401
 30
0.0
 10
9.7735272532
 20
9.1570791742
 30
0.0
 10
9.8076608311
 20
9.156026671
 30
0.0
 10
9.836028693
 20
9.1567615699
 30
0.0
 10
9.8586010303
 20
9.1583175008
 30
0.0
 10
9.8810327491
 20
9.1605116434
 30
0.0
 10
9.8977642651
 20
9.1628810728
 30
0.0
 10
9.9088490043
 20
9.1647809863
 30
0.0
  0
SPLINE
  5
384
100
AcDbEntity
  8
0
100
AcDbSpline
 62
7
  6
CONTINUOUS
 70
0
 71
3
 72
15
 73
11
 74
0
 42
0.0000001
 43
0.0000001
 44
0.0000000001
 40
0.0
 40
0.0
 40
0.0
 40
0.0
 40
0.1268939865
 40
0.2531828769
 40
0.3788863967
 40
0.5040324877
 40
0.6286616275
 40
0.7528244117
 40
0.8765810151
 40
1.0
 40
1.0
 40
1.0
 40
1.0
 10
8.6241655001
 20
9.4402680515
 30
0.0
 10
8.6241655001
 20
9.4576397955
 30
0.0
 10
8.6253621054
 20
9.4923127823
 30
0.0
 10
8.6307690462
 20
9.5439404173
 30
0.0
 10
8.6397581172
 20
9.5948263951
 30
0.0
 10
8.6522870313
 20
9.6447240735
 30
0.0
 10
8.6682960711
 20
9.6933949919
 30
0.0
 10
8.6877096054
 20
9.7406065384
 30
0.0
 10
8.7104330149
 20
9.7861294336
 30
0.0
 10
8.7277411968
 20
9.8152480814
 30
0.0
 10
8.7369036656
 20
9.8294440165
 30
0.0
  0
SPLINE
  5
385
100
AcDbEntity
  8
0
100
AcDbSpline
 62
7
  6
CONTINUOUS
 70
0
 71
3
 72
39
 73
35
 74
0
 42
0.0000001
 43
0.0000001
 44
0.0000000001
 40
0.0
 40
0.0
 40
0.0
 40
0.0
 40
0.0055577178
 40
0.0111783515
 40
0.0169224939
 40
0.0228466025
 40
0.0290016501
 40
0.0354322917
 40
0.0492594105
 40
0.0567237334
 40
0.0645832027
 40
0.0728552336
 40
0.0815535905
 40
0.0906889511
 40
0.1002689297
 40
0.1207797723
 40
0.1431090779
 40
0.1672508467
 40
0.1931790703
 40
0.2208514629
 40
0.250212479
 40
0.2811953802
 40
0.3137236274
 40
0.3477121318
 40
0.3830684333
 40
0.4196935094
 40
0.4574823724
 40
0.4963248728
 40
0.5767054405
 40
0.6598768759
 40
0.7448320392
 40
0.8305351833
 40
0.9159380978
 40
1.0
 40
1.0
 40
1.0
 40
1.0
 10
13.4164273933
 20
11.4527151459
 30
0.0
 10
13.4164273993
 20
11.4532371173
 30
0.0
 10
13.4164858442
 20
11.454287879
 30
0.0
 10
13.4167482084
 20
11.4558583993
 30
0.0
 10
13.4171847116
 20
11.457425429
 30
0.0
 10
13.4177945618
 20
11.4589871261
 30
0.0
 10
13.4185768142
 20
11.4605422791
 30
0.0
 10
13.4198795448
 20
11.4626562675
 30
0.0
 10
13.421508379
 20
11.4647010968
 30
0.0
 10
13.4234074157
 20
11.4666743204
 30
0.0
 10
13.4250350517
 20
11.4681801899
 30
0.0
 10
13.4268278792
 20
11.4696728668
 30
0.0
 10
13.4287847165
 20
11.4711514637
 30
0.0
 10
13.4309039676
 20
11.4726147773
 30
0.0
 10
13.434015213
 20
11.4745891459
 30
0.0
 10
13.4383118169
 20
11.4770006557
 30
0.0
 10
13.4439717713
 20
11.4797530269
 30
0.0
 10
13.4502302029
 20
11.4824177378
 30
0.0
 10
13.45706706
 20
11.4849861534
 30
0.0
 10
13.4644605999
 20
11.4874499261
 30
0.0
 10
13.4723869862
 20
11.4898009409
 30
0.0
 10
13.4808205744
 20
11.492031414
 30
0.0
 10
13.4897339545
 20
11.4941339619
 30
0.0
 10
13.4990980787
 20
11.4961016368
 30
0.0
 10
13.5088823915
 20
11.4979279217
 30
0.0
 10
13.5190549249
 20
11.4996067414
 30
0.0
 10
13.529582436
 20
11.5011325949
 30
0.0
 10
13.5442135995
 20
11.5029772531
 30
0.0
 10
13.5631333871
 20
11.504852884
 30
0.0
 10
13.5864247418
 20
11.5064053996
 30
0.0
 10
13.6102521722
 20
11.5072633121
 30
0.0
 10
13.6343040645
 20
11.5074152082
 30
0.0
 10
13.6582658823
 20
11.5068589984
 30
0.0
 10
13.6741621162
 20
11.5060109835
 30
0.0
 10
13.6820381502
 20
11.5054647786
 30
0.0
  0
SPLINE
  5
386
100
AcDbEntity
  8
0
100
AcDbSpline
 62
7
  6
CONTINUOUS
 70
0
 71
3
 72
47
 73
43
 74
0
 42
0.0000001
 43
0.0000001
 44
0.0000000001
 40
0.0
 40
0.0
 40
0.0
 40
0.0
 40
0.0063158953
 40
0.0126706964
 40
0.0191025413
 40
0.0256481068
 40
0.0323419887
 40
0.0392163511
 40
0.0536141938
 40
0.0611949453
 40
0.0690567093
 40
0.0772178306
 40
0.0856942536
 40
0.094499648
 40
0.1036457893
 40
0.1131425899
 40
0.1229983503
 40
0.1332200167
 40
0.1438131323
 40
0.1547821683
 40
0.1661305713
 40
0.1899729423
 40
0.2153524409
 40
0.2422683478
 40
0.2707106917
 40
0.3006617255
 40
0.3320970385
 40
0.3649863926
 40
0.3992943516
 40
0.4349809011
 40
0.4720019229
 40
0.5103095575
 40
0.5498524869
 40
0.5905762826
 40
0.6324236706
 40
0.6753347453
 40
0.7192471563
 40
0.7640962954
 40
0.8098156376
 40
0.856336788
 40
0.9035890146
 40
1.0
 40
1.0
 40
1.0
 40
1.0
 10
13.1904317979
 20
10.3407466945
 30
0.0
 10
13.1920602933
 20
10.3406337576
 30
0.0
 10
13.195319616
 20
10.340273854
 30
0.0
 10
13.2001720809
 20
10.3393358744
 30
0.0
 10
13.2049921198
 20
10.3379997303
 30
0.0
 10
13.2097768732
 20
10.3362664043
 30
0.0
 10
13.2145245361
 20
10.3341370674
 30
0.0
 10
13.2208993249
 20
10.3307197991
 30
0.0
 10
13.2271010447
 20
10.3265366198
 30
0.0
 10
13.2331026761
 20
10.3216888891
 30
0.0
 10
13.2376359544
 20
10.3176017121
 30
0.0
 10
13.2421208387
 20
10.313128301
 30
0.0
 10
13.2465561424
 20
10.3082701977
 30
0.0
 10
13.2509401542
 20
10.3030295825
 30
0.0
 10
13.2552711758
 20
10.2974085157
 30
0.0
 10
13.2595475718
 20
10.2914093248
 30
0.0
 10
13.2637677158
 20
10.2850344564
 30
0.0
 10
13.2679298714
 20
10.2782864491
 30
0.0
 10
13.2720324558
 20
10.2711680881
 30
0.0
 10
13.276073846
 20
10.2636822268
 30
0.0
 10
13.2814674404
 20
10.2530392951
 30
0.0
 10
13.2880264063
 20
10.2388178895
 30
0.0
 10
13.2955026877
 20
10.2206094389
 30
0.0
 10
13.3026969143
 20
10.2010165465
 30
0.0
 10
13.3095973164
 20
10.1800711847
 30
0.0
 10
13.3161925724
 20
10.1578071696
 30
0.0
 10
13.3224717646
 20
10.1342607683
 30
0.0
 10
13.328424459
 20
10.1094704241
 30
0.0
 10
13.3340407756
 20
10.0834767451
 30
0.0
 10
13.3393113681
 20
10.056322383
 30
0.0
 10
13.3442274519
 20
10.0280519428
 30
0.0
 10
13.3487808205
 20
9.9987119128
 30
0.0
 10
13.3529639019
 20
9.9683505897
 30
0.0
 10
13.3567697284
 20
9.9370179796
 30
0.0
 10
13.3601919523
 20
9.9047657009
 30
0.0
 10
13.3632248573
 20
9.8716469041
 30
0.0
 10
13.3658633989
 20
9.8377162026
 30
0.0
 10
13.3681031897
 20
9.8030295363
 30
0.0
 10
13.3699404756
 20
9.7676441157
 30
0.0
 10
13.3713722025
 20
9.7316183334
 30
0.0
 10
13.3727462804
 20
9.6824816908
 30
0.0
 10
13.3731448676
 20
9.6453485347
 30
0.0
 10
13.3731448676
 20
9.6204301428
 30
0.0
  0
SPLINE
  5
387
100
AcDbEntity
  8
0
100
AcDbSpline
 62
7
  6
CONTINUOUS
 70
0
 71
3
 72
43
 73
39
 74
0
 42
0.0000001
 43
0.0000001
 44
0.0000000001
 40
0.0
 40
0.0
 40
0.0
 40
0.0
 40
0.0063651293
 40
0.0128694011
 40
0.0263987229
 40
0.0407929051
 40
0.0562111452
 40
0.0643463011
 40
0.0727813721
 40
0.0815272753
 40
0.0905932736
 40
0.0999873089
 40
0.1097160541
 40
0.1197849625
 40
0.1301985669
 40
0.1409604375
 40
0.1520732603
 40
0.1753578395
 40
0.2000618709
 40
0.2261842873
 40
0.2537163882
 40
0.2826428595
 40
0.3129427794
 40
0.3445903236
 40
0.3775552077
 40
0.4118032168
 40
0.4472966483
 40
0.4839945459
 40
0.5218529592
 40
0.560825285
 40
0.600862441
 40
0.6419129795
 40
0.6839233749
 40
0.7268381688
 40
0.7706000185
 40
0.8151501007
 40
0.9063695692
 40
1.0
 40
1.0
 40
1.0
 40
1.0
 10
13.1746065056
 20
10.3399053919
 30
0.0
 10
13.1761381718
 20
10.3394015176
 30
0.0
 10
13.179198569
 20
10.3382682395
 30
0.0
 10
13.1852953818
 20
10.3355099617
 30
0.0
 10
13.1928575433
 20
10.3311129533
 30
0.0
 10
13.201640298
 20
10.3244885412
 30
0.0
 10
13.2086819718
 20
10.3179206921
 30
0.0
 10
13.2142271407
 20
10.312009365
 30
0.0
 10
13.2184146028
 20
10.3071495378
 30
0.0
 10
13.2225545592
 20
10.301944826
 30
0.0
 10
13.2266458268
 20
10.2963969831
 30
0.0
 10
13.2306868742
 20
10.2905080837
 30
0.0
 10
13.2346762535
 20
10.2842802616
 30
0.0
 10
13.2386126019
 20
10.2777158496
 30
0.0
 10
13.2424944289
 20
10.2708172298
 30
0.0
 10
13.2463203674
 20
10.2635869306
 30
0.0
 10
13.2514247869
 20
10.2533480519
 30
0.0
 10
13.2576397716
 20
10.2397217645
 30
0.0
 10
13.2647409239
 20
10.2223381268
 30
0.0
 10
13.2715865149
 20
10.2037019748
 30
0.0
 10
13.2781663649
 20
10.1838408599
 30
0.0
 10
13.2844707341
 20
10.1627838574
 30
0.0
 10
13.2904901903
 20
10.1405620432
 30
0.0
 10
13.2962156719
 20
10.1172082618
 30
0.0
 10
13.3016385914
 20
10.092757142
 30
0.0
 10
13.3067508031
 20
10.0672449984
 30
0.0
 10
13.3115445866
 20
10.0407097553
 30
0.0
 10
13.3160127151
 20
10.0131909041
 30
0.0
 10
13.3201484828
 20
9.9847294399
 30
0.0
 10
13.3239456494
 20
9.955367774
 30
0.0
 10
13.327398471
 20
9.9251496777
 30
0.0
 10
13.330501771
 20
9.8941202236
 30
0.0
 10
13.3332508781
 20
9.8623257009
 30
0.0
 10
13.3356416123
 20
9.8298135638
 30
0.0
 10
13.3376704316
 20
9.7966322763
 30
0.0
 10
13.3399062566
 20
9.7512073713
 30
0.0
 10
13.3417564476
 20
9.6931200133
 30
0.0
 10
13.3422352385
 20
9.6462922399
 30
0.0
 10
13.3422352385
 20
9.6225737328
 30
0.0
  0
SPLINE
  5
388
100
AcDbEntity
  8
0
100
AcDbSpline
 62
7
  6
CONTINUOUS
 70
0
 71
3
 72
39
 73
35
 74
0
 42
0.0000001
 43
0.0000001
 44
0.0000000001
 40
0.0
 40
0.0
 40
0.0
 40
0.0
 40
0.030641764
 40
0.0613936365
 40
0.0922526646
 40
0.1232167908
 40
0.1542816727
 40
0.1854424001
 40
0.2166929295
 40
0.2480263444
 40
0.2794348858
 40
0.3109100442
 40
0.3424426501
 40
0.3740229665
 40
0.4056407877
 40
0.4372855407
 40
0.4689463886
 40
0.5006123379
 40
0.5322723456
 40
0.5639154273
 40
0.5955307638
 40
0.6271078065
 40
0.6586363813
 40
0.6901067896
 40
0.7215099077
 40
0.7528372811
 40
0.7840812134
 40
0.8152348489
 40
0.8462922491
 40
0.8772484612
 40
0.9080995782
 40
0.9388427916
 40
0.9694764322
 40
1.0
 40
1.0
 40
1.0
 40
1.0
 10
9.2420179288
 20
9.8810677045
 30
0.0
 10
9.2420179288
 20
9.8705860669
 30
0.0
 10
9.24256426
 20
9.849581139
 30
0.0
 10
9.2450099942
 20
9.8181059358
 30
0.0
 10
9.2490770092
 20
9.7866869835
 30
0.0
 10
9.2547539929
 20
9.7554102373
 30
0.0
 10
9.2620257687
 20
9.7243594446
 30
0.0
 10
9.2708725801
 20
9.6936183711
 30
0.0
 10
9.2812705856
 20
9.6632697412
 30
0.0
 10
9.2931917196
 20
9.6333952759
 30
0.0
 10
9.3066038259
 20
9.6040753947
 30
0.0
 10
9.3214707388
 20
9.5753890222
 30
0.0
 10
9.3377523884
 20
9.5474133751
 30
0.0
 10
9.3554049074
 20
9.5202237568
 30
0.0
 10
9.3743807478
 20
9.4938933569
 30
0.0
 10
9.3946288082
 20
9.4684930553
 30
0.0
 10
9.4160945719
 20
9.4440912352
 30
0.0
 10
9.4387202369
 20
9.4207535851
 30
0.0
 10
9.4624448837
 20
9.3985429305
 30
0.0
 10
9.4872046427
 20
9.3775190704
 30
0.0
 10
9.5129328635
 20
9.3577386163
 30
0.0
 10
9.5395602932
 20
9.339254842
 30
0.0
 10
9.5670152603
 20
9.3221175398
 30
0.0
 10
9.5952238678
 20
9.306372891
 30
0.0
 10
9.624110181
 20
9.2920633231
 30
0.0
 10
9.6535964379
 20
9.279227403
 30
0.0
 10
9.6836032606
 20
9.2678997424
 30
0.0
 10
9.7140498682
 20
9.2581109028
 30
0.0
 10
9.744854283
 20
9.2498873135
 30
0.0
 10
9.7759335835
 20
9.2432512
 30
0.0
 10
9.8072039944
 20
9.238220524
 30
0.0
 10
9.8385815993
 20
9.2348089266
 30
0.0
 10
9.8699807427
 20
9.233025653
 30
0.0
 10
9.8909117905
 20
9.2329254976
 30
0.0
 10
9.9013506017
 20
9.2331491284
 30
0.0
  0
SPLINE
  5
389
100
AcDbEntity
  8
0
100
AcDbSpline
 62
7
  6
CONTINUOUS
 70
0
 71
3
 72
52
 73
48
 74
0
 42
0.0000001
 43
0.0000001
 44
0.0000000001
 40
0.0
 40
0.0
 40
0.0
 40
0.0
 40
0.0054779976
 40
0.0111435779
 40
0.0170437058
 40
0.0232193186
 40
0.0297053529
 40
0.0365310873
 40
0.0437206899
 40
0.0512937975
 40
0.0592661322
 40
0.0676500129
 40
0.0764548713
 40
0.0856876193
 40
0.0953530434
 40
0.1054540403
 40
0.1159919165
 40
0.1269665241
 40
0.1383764959
 40
0.1502193107
 40
0.1624914871
 40
0.1751885996
 40
0.1883054464
 40
0.2018360323
 40
0.21577372
 40
0.2301111894
 40
0.2448405795
 40
0.2599534307
 40
0.2912926881
 40
0.3240524662
 40
0.3581487538
 40
0.393491487
 40
0.4299852106
 40
0.4675296737
 40
0.5060203766
 40
0.545349086
 40
0.5854043257
 40
0.626071852
 40
0.6672351181
 40
0.7087757294
 40
0.7505738962
 40
0.7925088797
 40
0.8344594415
 40
0.8763042791
 40
0.9179224975
 40
0.9591939862
 40
1.0
 40
1.0
 40
1.0
 40
1.0
 10
13.0416942399
 20
8.4214067998
 30
0.0
 10
13.043984741
 20
8.4218270733
 30
0.0
 10
13.0486016864
 20
8.4229306469
 30
0.0
 10
13.0554575048
 20
8.4253062669
 30
0.0
 10
13.0623368394
 20
8.4284215426
 30
0.0
 10
13.0692338489
 20
8.4322721812
 30
0.0
 10
13.0761443581
 20
8.4368540872
 30
0.0
 10
13.0830639204
 20
8.4421629666
 30
0.0
 10
13.0899881091
 20
8.4481943884
 30
0.0
 10
13.0969123781
 20
8.4549435707
 30
0.0
 10
13.1038319961
 20
8.4624053815
 30
0.0
 10
13.1107421491
 20
8.4705741837
 30
0.0
 10
13.1176378504
 20
8.4794438801
 30
0.0
 10
13.1245140953
 20
8.4890078032
 30
0.0
 10
13.1313657463
 20
8.4992587866
 30
0.0
 10
13.1381877047
 20
8.5101890813
 30
0.0
 10
13.1449747703
 20
8.5217904349
 30
0.0
 10
13.1517218238
 20
8.5340540236
 30
0.0
 10
13.158423664
 20
8.5469705287
 30
0.0
 10
13.1650752002
 20
8.5605300806
 30
0.0
 10
13.171671273
 20
8.5747223284
 30
0.0
 10
13.1782068548
 20
8.5895363934
 30
0.0
 10
13.1846768584
 20
8.6049609315
 30
0.0
 10
13.1910763443
 20
8.6209840948
 30
0.0
 10
13.1974003238
 20
8.6375935882
 30
0.0
 10
13.2036439562
 20
8.6547766327
 30
0.0
 10
13.2098024086
 20
8.6725200388
 30
0.0
 10
13.2179929432
 20
8.6972061545
 30
0.0
 10
13.2279643683
 20
8.729373545
 30
0.0
 10
13.239376821
 20
8.7695303635
 30
0.0
 10
13.2503406661
 20
8.8115730218
 30
0.0
 10
13.2608218987
 20
8.8553720564
 30
0.0
 10
13.2707879879
 20
8.9007928158
 30
0.0
 10
13.280208027
 20
8.9476954801
 30
0.0
 10
13.2890528145
 20
8.9959356291
 30
0.0
 10
13.2972949461
 20
9.045364667
 30
0.0
 10
13.3049088971
 20
9.0958303004
 30
0.0
 10
13.3118710994
 20
9.147177013
 30
0.0
 10
13.3181600128
 20
9.1992465517
 30
0.0
 10
13.3237561904
 20
9.2518784197
 30
0.0
 10
13.3286423378
 20
9.3049103751
 30
0.0
 10
13.3328033659
 20
9.3581789349
 30
0.0
 10
13.3362264364
 20
9.4115198835
 30
0.0
 10
13.3389010037
 20
9.4647687728
 30
0.0
 10
13.3408188429
 20
9.5177614779
 30
0.0
 10
13.3419740823
 20
9.5703344947
 30
0.0
 10
13.3422352385
 20
9.6052267823
 30
0.0
 10
13.3422352385
 20
9.6225737328
 30
0.0
  0
SPLINE
  5
38A
100
AcDbEntity
  8
0
100
AcDbSpline
 62
7
  6
CONTINUOUS
 70
0
 71
3
 72
49
 73
45
 74
0
 42
0.0000001
 43
0.0000001
 44
0.0000000001
 40
0.0
 40
0.0
 40
0.0
 40
0.0
 40
0.0066704173
 40
0.0132428534
 40
0.0197604443
 40
0.0262675126
 40
0.0328086194
 40
0.0394275724
 40
0.0461665439
 40
0.0530652474
 40
0.0601604775
 40
0.0674857224
 40
0.0750709668
 40
0.0829428634
 40
0.0911247083
 40
0.0996366965
 40
0.1084962988
 40
0.117718294
 40
0.1273152045
 40
0.1372975668
 40
0.1476739389
 40
0.1584513626
 40
0.1696354343
 40
0.1812303451
 40
0.2056625186
 40
0.2317631378
 40
0.2595318338
 40
0.2889571533
 40
0.3200182242
 40
0.3526862465
 40
0.3869255856
 40
0.4226945153
 40
0.4599458729
 40
0.4986277252
 40
0.5386838121
 40
0.5800538384
 40
0.6226738961
 40
0.66647683
 40
0.7113924558
 40
0.757347711
 40
0.8042672336
 40
0.8520731969
 40
0.9006851209
 40
1.0
 40
1.0
 40
1.0
 40
1.0
 10
13.1290983496
 20
10.0791861253
 30
0.0
 10
13.1303522925
 20
10.0794420792
 30
0.0
 10
13.1328631936
 20
10.0798518026
 30
0.0
 10
13.1366469627
 20
10.080150564
 30
0.0
 10
13.140411462
 20
10.0801275492
 30
0.0
 10
13.1441541053
 20
10.07978247
 30
0.0
 10
13.1478727088
 20
10.0791157173
 30
0.0
 10
13.151565075
 20
10.0781278301
 30
0.0
 10
13.1552291259
 20
10.0768195558
 30
0.0
 10
13.158863028
 20
10.075192072
 30
0.0
 10
13.162465037
 20
10.0732464829
 30
0.0
 10
13.1660335487
 20
10.0709840561
 30
0.0
 10
13.1695671421
 20
10.0684062292
 30
0.0
 10
13.173064325
 20
10.06551432
 30
0.0
 10
13.1765237281
 20
10.0623098467
 30
0.0
 10
13.1799440121
 20
10.0587943982
 30
0.0
 10
13.1833237123
 20
10.0549695504
 30
0.0
 10
13.1866615054
 20
10.0508371179
 30
0.0
 10
13.1899559982
 20
10.0463989662
 30
0.0
 10
13.1932057255
 20
10.0416570522
 30
0.0
 10
13.1964093714
 20
10.0366135555
 30
0.0
 10
13.1995654878
 20
10.0312707167
 30
0.0
 10
13.2026727035
 20
10.0256309136
 30
0.0
 10
13.2068211504
 20
10.0175775944
 30
0.0
 10
13.2118588467
 20
10.0067687327
 30
0.0
 10
13.2175861222
 20
9.9928756237
 30
0.0
 10
13.2230862834
 20
9.9778668421
 30
0.0
 10
13.2283493297
 20
9.9617694878
 30
0.0
 10
13.2333657032
 20
9.9446123434
 30
0.0
 10
13.2381261956
 20
9.9264263964
 30
0.0
 10
13.2426220177
 20
9.9072445586
 30
0.0
 10
13.2468448623
 20
9.8871016654
 30
0.0
 10
13.2507869446
 20
9.8660343796
 30
0.0
 10
13.2544409682
 20
9.8440810907
 30
0.0
 10
13.2578001497
 20
9.8212818407
 30
0.0
 10
13.2608582874
 20
9.7976782612
 30
0.0
 10
13.263609732
 20
9.7733134796
 30
0.0
 10
13.2660493808
 20
9.748232021
 30
0.0
 10
13.2681727024
 20
9.722479751
 30
0.0
 10
13.2699757959
 20
9.6961037518
 30
0.0
 10
13.2714553042
 20
9.6691522933
 30
0.0
 10
13.2726084986
 20
9.6416747077
 30
0.0
 10
13.2737158987
 20
9.6041367074
 30
0.0
 10
13.2740364764
 20
9.575753524
 30
0.0
 10
13.2740364764
 20
9.5566987833
 30
0.0
  0
SPLINE
  5
38B
100
AcDbEntity
  8
0
100
AcDbSpline
 62
7
  6
CONTINUOUS
 70
0
 71
3
 72
30
 73
26
 74
0
 42
0.0000001
 43
0.0000001
 44
0.0000000001
 40
0.0
 40
0.0
 40
0.0
 40
0.0
 40
0.0179470849
 40
0.0368404614
 40
0.0566916236
 40
0.0775070215
 40
0.0992892437
 40
0.1220370323
 40
0.1457462604
 40
0.1704097619
 40
0.1960181715
 40
0.2225596393
 40
0.250020578
 40
0.2783853095
 40
0.3076367452
 40
0.3377559963
 40
0.4005145805
 40
0.4664859532
 40
0.5354746493
 40
0.6072689307
 40
0.6816427039
 40
0.7583572383
 40
0.8371626644
 40
0.917799542
 40
1.0
 40
1.0
 40
1.0
 40
1.0
 10
13.0577656886
 20
10.0110003134
 30
0.0
 10
13.0592128498
 20
10.008629401
 30
0.0
 10
13.062071005
 20
10.0036932519
 30
0.0
 10
13.0661564492
 20
9.995925943
 30
0.0
 10
13.0701457447
 20
9.9876136217
 30
0.0
 10
13.0740354006
 20
9.97876385
 30
0.0
 10
13.0778218964
 20
9.9693843513
 30
0.0
 10
13.0815019688
 20
9.9594834915
 30
0.0
 10
13.0850722072
 20
9.9490700571
 30
0.0
 10
13.0885295128
 20
9.9381533628
 30
0.0
 10
13.091870656
 20
9.9267431609
 30
0.0
 10
13.0950927236
 20
9.9148496882
 30
0.0
 10
13.0981926963
 20
9.9024836101
 30
0.0
 10
13.101167857
 20
9.8896560464
 30
0.0
 10
13.1040154499
 20
9.8763785124
 30
0.0
 10
13.1076891227
 20
9.8578362807
 30
0.0
 10
13.1119249184
 20
9.8336151033
 30
0.0
 10
13.1163946501
 20
9.8033391315
 30
0.0
 10
13.1203016345
 20
9.7715761501
 30
0.0
 10
13.1236315421
 20
9.7384406073
 30
0.0
 10
13.1263720754
 20
9.7040516989
 30
0.0
 10
13.1285131285
 20
9.6685333303
 30
0.0
 10
13.1300467894
 20
9.6320134671
 30
0.0
 10
13.1309673697
 20
9.5946239143
 30
0.0
 10
13.1311683635
 20
9.5694209797
 30
0.0
 10
13.1311683635
 20
9.5566987751
 30
0.0
  0
SPLINE
  5
38C
100
AcDbEntity
  8
0
100
AcDbSpline
 62
7
  6
CONTINUOUS
 70
0
 71
3
 72
23
 73
19
 74
0
 42
0.0000001
 43
0.0000001
 44
0.0000000001
 40
0.0
 40
0.0
 40
0.0
 40
0.0
 40
0.0427132103
 40
0.088523928
 40
0.137384527
 40
0.1892262727
 40
0.2439625764
 40
0.3014914597
 40
0.3616975322
 40
0.4244535559
 40
0.4896217244
 40
0.5570547736
 40
0.6265969276
 40
0.6980846647
 40
0.7713480498
 40
0.846209639
 40
0.9224903697
 40
1.0
 40
1.0
 40
1.0
 40
1.0
 10
13.0218549726
 20
9.9350071918
 30
0.0
 10
13.023938439
 20
9.9298248069
 30
0.0
 10
13.0279819122
 20
9.9189726226
 30
0.0
 10
13.0335326278
 20
9.9018815811
 30
0.0
 10
13.0387680984
 20
9.883447416
 30
0.0
 10
13.0436741639
 20
9.8637186655
 30
0.0
 10
13.0482377255
 20
9.8427467481
 30
0.0
 10
13.0524465034
 20
9.8205868013
 30
0.0
 10
13.0562891748
 20
9.797297176
 30
0.0
 10
13.0597553893
 20
9.7729393327
 30
0.0
 10
13.06283581
 20
9.7475776271
 30
0.0
 10
13.0655221363
 20
9.721279131
 30
0.0
 10
13.0678071238
 20
9.6941134551
 30
0.0
 10
13.0696846323
 20
9.6661525007
 30
0.0
 10
13.0711495674
 20
9.6374704506
 30
0.0
 10
13.072198036
 20
9.6081430382
 30
0.0
 10
13.0728271055
 20
9.5782483544
 30
0.0
 10
13.0729648064
 20
9.5581372273
 30
0.0
 10
13.0729648064
 20
9.5480014642
 30
0.0
  0
SPLINE
  5
38D
100
AcDbEntity
  8
0
100
AcDbSpline
 62
7
  6
CONTINUOUS
 70
0
 71
3
 72
53
 73
49
 74
0
 42
0.0000001
 43
0.0000001
 44
0.0000000001
 40
0.0
 40
0.0
 40
0.0
 40
0.0
 40
0.00561882
 40
0.0111420428
 40
0.0166418616
 40
0.0221914682
 40
0.0278619549
 40
0.0337195974
 40
0.0398239585
 40
0.0462268852
 40
0.0529723767
 40
0.0600969397
 40
0.0676303569
 40
0.075596455
 40
0.0840140046
 40
0.0928973914
 40
0.1022573641
 40
0.1121014886
 40
0.1224347163
 40
0.1332596478
 40
0.1445769649
 40
0.1563855586
 40
0.1686828695
 40
0.1814649241
 40
0.1947266187
 40
0.2084616942
 40
0.2226629851
 40
0.2373223538
 40
0.2524309172
 40
0.2679789554
 40
0.300350572
 40
0.3343473976
 40
0.3698695492
 40
0.4068090749
 40
0.4450509009
 40
0.4844736716
 40
0.524950517
 40
0.5663497708
 40
0.6085356546
 40
0.6513689391
 40
0.6947075901
 40
0.7384074048
 40
0.7823226395
 40
0.8263066389
 40
0.8702124484
 40
0.913893467
 40
0.9572039929
 40
1.0
 40
1.0
 40
1.0
 40
1.0
 10
13.0324728518
 20
8.6858868624
 30
0.0
 10
13.0341505474
 20
8.6852937194
 30
0.0
 10
13.0375458579
 20
8.6843000493
 30
0.0
 10
13.0427543433
 20
8.6834198504
 30
0.0
 10
13.0480096454
 20
8.683169986
 30
0.0
 10
13.053303316
 20
8.6835508396
 30
0.0
 10
13.0586283176
 20
8.684560719
 30
0.0
 10
13.0639782969
 20
8.6861965777
 30
0.0
 10
13.0693480043
 20
8.6884547484
 30
0.0
 10
13.0747330321
 20
8.6913312531
 30
0.0
 10
13.0801293836
 20
8.6948222122
 30
0.0
 10
13.0855332769
 20
8.6989236363
 30
0.0
 10
13.090940805
 20
8.7036315143
 30
0.0
 10
13.0963480075
 20
8.708941492
 30
0.0
 10
13.1017506663
 20
8.7148489406
 30
0.0
 10
13.1071445151
 20
8.7213487113
 30
0.0
 10
13.1125250599
 20
8.7284352419
 30
0.0
 10
13.1178878278
 20
8.7361023867
 30
0.0
 10
13.12322817
 20
8.7443435368
 30
0.0
 10
13.1285415175
 20
8.7531514969
 30
0.0
 10
13.1338231645
 20
8.7625185992
 30
0.0
 10
13.1390685244
 20
8.7724366097
 30
0.0
 10
13.1442728993
 20
8.782896828
 30
0.0
 10
13.1494317356
 20
8.7938900145
 30
0.0
 10
13.1545403863
 20
8.8054064755
 30
0.0
 10
13.1595943652
 20
8.8174360062
 30
0.0
 10
13.1645891084
 20
8.8299679634
 30
0.0
 10
13.1695202129
 20
8.8429912177
 30
0.0
 10
13.1743832593
 20
8.8564942324
 30
0.0
 10
13.1808579497
 20
8.8753764673
 30
0.0
 10
13.1887315719
 20
8.9000992838
 30
0.0
 10
13.1977192712
 20
8.931094065
 30
0.0
 10
13.2063365271
 20
8.9636923246
 30
0.0
 10
13.2145524354
 20
8.9977781443
 30
0.0
 10
13.2223375023
 20
9.0332305167
 30
0.0
 10
13.2296638098
 20
9.0699233878
 30
0.0
 10
13.2365050978
 20
9.1077262472
 30
0.0
 10
13.2428368605
 20
9.1465045745
 30
0.0
 10
13.2486364305
 20
9.1861203401
 30
0.0
 10
13.2538830578
 20
9.226432503
 30
0.0
 10
13.2585579827
 20
9.2672975211
 30
0.0
 10
13.2626445006
 20
9.3085698677
 30
0.0
 10
13.2661280218
 20
9.3501025544
 30
0.0
 10
13.2689961212
 20
9.3917476604
 30
0.0
 10
13.2712385855
 20
9.433356854
 30
0.0
 10
13.2728474446
 20
9.4747819677
 30
0.0
 10
13.273817007
 20
9.5158753347
 30
0.0
 10
13.2740364764
 20
9.5431454349
 30
0.0
 10
13.2740364764
 20
9.5566987833
 30
0.0
  0
SPLINE
  5
38E
100
AcDbEntity
  8
0
100
AcDbSpline
 62
7
  6
CONTINUOUS
 70
0
 71
3
 72
37
 73
33
 74
0
 42
0.0000001
 43
0.0000001
 44
0.0000000001
 40
0.0
 40
0.0
 40
0.0
 40
0.0
 40
0.0079016652
 40
0.0161298579
 40
0.0246881945
 40
0.033579108
 40
0.0428040983
 40
0.0523638704
 40
0.0724853532
 40
0.0939360497
 40
0.1166979527
 40
0.1407453368
 40
0.1660459151
 40
0.1925617138
 40
0.2202497469
 40
0.2490625336
 40
0.2789485602
 40
0.3098527074
 40
0.3417165896
 40
0.3744788461
 40
0.4080753935
 40
0.4424397184
 40
0.4775031281
 40
0.5131949765
 40
0.5494428699
 40
0.586172894
 40
0.6233098462
 40
0.6984971613
 40
0.7743866005
 40
0.8503511138
 40
0.9257626431
 40
1.0
 40
1.0
 40
1.0
 40
1.0
 10
12.9711838045
 20
8.7632039857
 30
0.0
 10
12.972552032
 20
8.7648721141
 30
0.0
 10
12.9752837669
 20
8.7683279332
 30
0.0
 10
12.9792902364
 20
8.7737502464
 30
0.0
 10
12.9832857638
 20
8.7795125057
 30
0.0
 10
12.9872681626
 20
8.7856114633
 30
0.0
 10
12.9912353479
 20
8.792043839
 30
0.0
 10
12.9965933492
 20
8.8012175908
 30
0.0
 10
13.0032220068
 20
8.8135098967
 30
0.0
 10
13.0109512303
 20
8.8292879873
 30
0.0
 10
13.0185685987
 20
8.8463016895
 30
0.0
 10
13.0260573253
 20
8.8645138258
 30
0.0
 10
13.0334008978
 20
8.8838848533
 30
0.0
 10
13.0405830631
 20
8.9043724438
 30
0.0
 10
13.0475879032
 20
8.9259317593
 30
0.0
 10
13.0543998928
 20
8.9485155076
 30
0.0
 10
13.0610039429
 20
8.9720740778
 30
0.0
 10
13.0673854161
 20
8.9965556744
 30
0.0
 10
13.0735301684
 20
9.021906444
 30
0.0
 10
13.079424577
 20
9.0480705884
 30
0.0
 10
13.0850555979
 20
9.0749904856
 30
0.0
 10
13.0904107673
 20
9.1026068312
 30
0.0
 10
13.0954782313
 20
9.1308587793
 30
0.0
 10
13.1002467711
 20
9.1596840789
 30
0.0
 10
13.1047058272
 20
9.1890191848
 30
0.0
 10
13.10884559
 20
9.2187994772
 30
0.0
 10
13.1139479546
 20
9.2591770957
 30
0.0
 10
13.1194564869
 20
9.310276428
 30
0.0
 10
13.1246422728
 20
9.3720561477
 30
0.0
 10
13.1283843486
 20
9.4340017331
 30
0.0
 10
13.1306498903
 20
9.4955671386
 30
0.0
 10
13.1311683635
 20
9.5364289656
 30
0.0
 10
13.1311683635
 20
9.5566987751
 30
0.0
  0
SPLINE
  5
38F
100
AcDbEntity
  8
0
100
AcDbSpline
 62
7
  6
CONTINUOUS
 70
0
 71
3
 72
31
 73
27
 74
0
 42
0.0000001
 43
0.0000001
 44
0.0000000001
 40
0.0
 40
0.0
 40
0.0
 40
0.0
 40
0.0191182984
 40
0.0393940726
 40
0.0608144647
 40
0.0833608689
 40
0.1070096512
 40
0.1317329051
 40
0.1574989046
 40
0.184272396
 40
0.2120150622
 40
0.2406858137
 40
0.2702409212
 40
0.3006343162
 40
0.3318178334
 40
0.3637413015
 40
0.396352735
 40
0.4295985633
 40
0.4977705378
 40
0.5678029151
 40
0.6392233324
 40
0.7115472019
 40
0.7842820471
 40
0.8569318584
 40
0.9290008534
 40
1.0
 40
1.0
 40
1.0
 40
1.0
 10
12.9461827647
 20
8.8435324184
 30
0.0
 10
12.9484698957
 20
8.8475216093
 30
0.0
 10
12.953009501
 20
8.855841592
 30
0.0
 10
12.9595469072
 20
8.8689293965
 30
0.0
 10
12.9660018284
 20
8.8829708552
 30
0.0
 10
12.9723624011
 20
8.8979405291
 30
0.0
 10
12.9786171332
 20
8.9138115928
 30
0.0
 10
12.9847545992
 20
8.930555416
 30
0.0
 10
12.9907635729
 20
8.9481417667
 30
0.0
 10
12.9966331074
 20
8.9665388031
 30
0.0
 10
13.0023524805
 20
8.9857131895
 30
0.0
 10
13.0079112136
 20
9.0056301609
 30
0.0
 10
13.013299169
 20
9.0262535632
 30
0.0
 10
13.0185065156
 20
9.0475459403
 30
0.0
 10
13.0235237226
 20
9.0694686216
 30
0.0
 10
13.0283416199
 20
9.0919817603
 30
0.0
 10
13.0329514759
 20
9.1150444586
 30
0.0
 10
13.0388584332
 20
9.1467360847
 30
0.0
 10
13.0456463093
 20
9.1874152684
 30
0.0
 10
13.052773502
 20
9.2373321769
 30
0.0
 10
13.0588964805
 20
9.2883880443
 30
0.0
 10
13.0639704642
 20
9.3402117516
 30
0.0
 10
13.0679584336
 20
9.3924268093
 30
0.0
 10
13.0708313223
 20
9.4446537672
 30
0.0
 10
13.0725683854
 20
9.496512936
 30
0.0
 10
13.0729648064
 20
9.5309247721
 30
0.0
 10
13.0729648064
 20
9.5480014642
 30
0.0
  0
SPLINE
  5
390
100
AcDbEntity
  8
0
100
AcDbSpline
 62
7
  6
CONTINUOUS
 70
0
 71
3
 72
37
 73
33
 74
0
 42
0.0000001
 43
0.0000001
 44
0.0000000001
 40
0.0
 40
0.0
 40
0.0
 40
0.0
 40
0.0306184205
 40
0.0613441469
 40
0.0921733033
 40
0.1231047474
 40
0.1541343129
 40
0.1852575151
 40
0.2164688633
 40
0.2477620047
 40
0.2791298382
 40
0.3105645467
 40
0.3420576881
 40
0.3736002787
 40
0.4051828799
 40
0.4367956841
 40
0.5000539163
 40
0.5633100866
 40
0.5949203349
 40
0.6264993908
 40
0.6580374781
 40
0.6895251998
 40
0.7209536242
 40
0.7523143676
 40
0.7835996803
 40
0.8148025259
 40
0.8459166508
 40
0.8769366471
 40
0.9078580128
 40
0.938677209
 40
0.9693917028
 40
1.0
 40
1.0
 40
1.0
 40
1.0
 10
9.3689009668
 20
9.8776273151
 30
0.0
 10
9.3689009668
 20
9.8695121403
 30
0.0
 10
9.3693109804
 20
9.8532504481
 30
0.0
 10
9.3711466455
 20
9.8288800685
 30
0.0
 10
9.3741996626
 20
9.8045479378
 30
0.0
 10
9.3784618971
 20
9.7803167671
 30
0.0
 10
9.3839227536
 20
9.7562474087
 30
0.0
 10
9.3905682811
 20
9.7324009337
 30
0.0
 10
9.3983816005
 20
9.708837633
 30
0.0
 10
9.4073428966
 20
9.685617129
 30
0.0
 10
9.4174294585
 20
9.6627981655
 30
0.0
 10
9.4286157564
 20
9.6404384948
 30
0.0
 10
9.4408734738
 20
9.6185946431
 30
0.0
 10
9.4541714327
 20
9.5973219865
 30
0.0
 10
9.4684764148
 20
9.5766738524
 30
0.0
 10
9.4888444975
 20
9.550044427
 30
0.0
 10
9.5166317156
 20
9.5185823515
 30
0.0
 10
9.5472459007
 20
9.4898646352
 30
0.0
 10
9.5732510959
 20
9.4687087827
 30
0.0
 10
9.5934590111
 20
9.4537931168
 30
0.0
 10
9.6143208098
 20
9.4398658739
 30
0.0
 10
9.6357841884
 20
9.4269618462
 30
0.0
 10
9.6577947311
 20
9.4151138351
 30
0.0
 10
9.680296806
 20
9.4043518461
 30
0.0
 10
9.7032334678
 20
9.3947031376
 30
0.0
 10
9.7265466847
 20
9.3861921393
 30
0.0
 10
9.7501774698
 20
9.3788404308
 30
0.0
 10
9.7740660532
 20
9.3726666791
 30
0.0
 10
9.79815193
 20
9.3676865909
 30
0.0
 10
9.8223743559
 20
9.3639127824
 30
0.0
 10
9.8466712084
 20
9.3613548936
 30
0.0
 10
9.8629079389
 20
9.3604629582
 30
0.0
 10
9.8710168645
 20
9.360222447
 30
0.0
  0
SPLINE
  5
391
100
AcDbEntity
  8
0
100
AcDbSpline
 62
7
  6
CONTINUOUS
 70
0
 71
3
 72
29
 73
25
 74
0
 42
0.0000001
 43
0.0000001
 44
0.0000000001
 40
0.0
 40
0.0
 40
0.0
 40
0.0
 40
0.0322746239
 40
0.0644896819
 40
0.0966422072
 40
0.1287295042
 40
0.1926901619
 40
0.2563650759
 40
0.2880965717
 40
0.3197532591
 40
0.3513347215
 40
0.3828408934
 40
0.4456194189
 40
0.5081048571
 40
0.5703095388
 40
0.6322513078
 40
0.6939532391
 40
0.7554432364
 40
0.8167535179
 40
0.8779199973
 40
0.908466528
 40
0.9389918934
 40
0.9695012913
 40
1.0
 40
1.0
 40
1.0
 40
1.0
 10
10.5553214097
 20
5.6041248356
 30
0.0
 10
10.5644745477
 20
5.6003284969
 30
0.0
 10
10.5828899085
 20
5.5930424527
 30
0.0
 10
10.6108303418
 20
5.5830400038
 30
0.0
 10
10.6390323707
 20
5.57398504
 30
0.0
 10
10.6768939575
 20
5.5632023557
 30
0.0
 10
10.7247081801
 20
5.552135214
 30
0.0
 10
10.7730516621
 20
5.5443274792
 30
0.0
 10
10.8118378424
 20
5.5400786129
 30
0.0
 10
10.8409200235
 20
5.5378937826
 30
0.0
 10
10.8699910061
 20
5.5367103128
 30
0.0
 10
10.9086408636
 20
5.5364693832
 30
0.0
 10
10.9567657262
 20
5.5386671783
 30
0.0
 10
11.0139858354
 20
5.5453086886
 30
0.0
 10
11.0703449128
 20
5.5559202398
 30
0.0
 10
11.1255741786
 20
5.5704521881
 30
0.0
 10
11.1794121939
 20
5.5888360535
 30
0.0
 10
11.2316039619
 20
5.6109854971
 30
0.0
 10
11.2819002948
 20
5.6367947231
 30
0.0
 10
11.3220600872
 20
5.6612662233
 30
0.0
 10
11.3529907076
 20
5.6825348754
 30
0.0
 10
11.3755637965
 20
5.6993114765
 30
0.0
 10
11.3974920069
 20
5.7168979301
 30
0.0
 10
11.4116663622
 20
5.7291507967
 30
0.0
 10
11.4186363188
 20
5.7354040407
 30
0.0
  0
SPLINE
  5
392
100
AcDbEntity
  8
0
100
AcDbSpline
 62
7
  6
CONTINUOUS
 70
0
 71
3
 72
23
 73
19
 74
0
 42
0.0000001
 43
0.0000001
 44
0.0000000001
 40
0.0
 40
0.0
 40
0.0
 40
0.0
 40
0.0636927421
 40
0.1271992643
 40
0.1905166964
 40
0.2536515655
 40
0.3166079154
 40
0.3793919885
 40
0.4420114712
 40
0.5044751376
 40
0.5667930496
 40
0.6289764101
 40
0.6910374828
 40
0.7529895024
 40
0.8148465758
 40
0.8766235804
 40
0.9383360408
 40
1.0
 40
1.0
 40
1.0
 40
1.0
 10
8.6695640167
 20
9.4371196537
 30
0.0
 10
8.6695640167
 20
9.4472507764
 30
0.0
 10
8.6699972954
 20
9.4674861342
 30
0.0
 10
8.6719522894
 20
9.4977360769
 30
0.0
 10
8.6752082222
 20
9.5277851681
 30
0.0
 10
8.6797588261
 20
9.5575770181
 30
0.0
 10
8.6855960048
 20
9.587057364
 30
0.0
 10
8.6927089678
 20
9.6161718388
 30
0.0
 10
8.7010846535
 20
9.6448669306
 30
0.0
 10
8.7107077616
 20
9.6730898495
 30
0.0
 10
8.7215606354
 20
9.7007886652
 30
0.0
 10
8.7336233002
 20
9.7279124417
 30
0.0
 10
8.7468735997
 20
9.7544112747
 30
0.0
 10
8.7612872481
 20
9.7802363915
 30
0.0
 10
8.7768377029
 20
9.8053402299
 30
0.0
 10
8.7934964873
 20
9.829676779
 30
0.0
 10
8.8112324281
 20
9.8532006498
 30
0.0
 10
8.8237579579
 20
9.8683186559
 30
0.0
 10
8.8301874016
 20
9.8757259056
 30
0.0
  0
SPLINE
  5
393
100
AcDbEntity
  8
0
100
AcDbSpline
 62
7
  6
CONTINUOUS
 70
0
 71
3
 72
47
 73
43
 74
0
 42
0.0000001
 43
0.0000001
 44
0.0000000001
 40
0.0
 40
0.0
 40
0.0
 40
0.0
 40
0.0063158953
 40
0.0126706964
 40
0.0191025413
 40
0.0256481068
 40
0.0323419887
 40
0.0392163511
 40
0.0536141938
 40
0.0611949453
 40
0.0690567093
 40
0.0772178306
 40
0.0856942536
 40
0.094499648
 40
0.1036457893
 40
0.1131425899
 40
0.1229983503
 40
0.1332200167
 40
0.1438131323
 40
0.1547821683
 40
0.1661305713
 40
0.1899729423
 40
0.2153524409
 40
0.2422683478
 40
0.2707106917
 40
0.3006617255
 40
0.3320970385
 40
0.3649863926
 40
0.3992943516
 40
0.4349809011
 40
0.4720019229
 40
0.5103095575
 40
0.5498524869
 40
0.5905762826
 40
0.6324236706
 40
0.6753347453
 40
0.7192471563
 40
0.7640962954
 40
0.8098156376
 40
0.856336788
 40
0.9035890146
 40
1.0
 40
1.0
 40
1.0
 40
1.0
 10
13.8695723688
 20
10.9967461505
 30
0.0
 10
13.8712008643
 20
10.9966332136
 30
0.0
 10
13.8744601869
 20
10.99627331
 30
0.0
 10
13.8793126518
 20
10.9953353304
 30
0.0
 10
13.8841326908
 20
10.9939991863
 30
0.0
 10
13.8889174441
 20
10.9922658603
 30
0.0
 10
13.893665107
 20
10.9901365234
 30
0.0
 10
13.9000398958
 20
10.9867192551
 30
0.0
 10
13.9062416156
 20
10.9825360758
 30
0.0
 10
13.9122432471
 20
10.9776883451
 30
0.0
 10
13.9167765253
 20
10.9736011681
 30
0.0
 10
13.9212614096
 20
10.969127757
 30
0.0
 10
13.9256967133
 20
10.9642696537
 30
0.0
 10
13.9300807251
 20
10.9590290385
 30
0.0
 10
13.9344117467
 20
10.9534079717
 30
0.0
 10
13.9386881428
 20
10.9474087808
 30
0.0
 10
13.9429082867
 20
10.9410339124
 30
0.0
 10
13.9470704423
 20
10.9342859051
 30
0.0
 10
13.9511730267
 20
10.9271675441
 30
0.0
 10
13.955214417
 20
10.9196816828
 30
0.0
 10
13.9606080114
 20
10.9090387511
 30
0.0
 10
13.9671669773
 20
10.8948173455
 30
0.0
 10
13.9746432586
 20
10.8766088949
 30
0.0
 10
13.9818374852
 20
10.8570160025
 30
0.0
 10
13.9887378873
 20
10.8360706407
 30
0.0
 10
13.9953331433
 20
10.8138066256
 30
0.0
 10
14.0016123355
 20
10.7902602243
 30
0.0
 10
14.00756503
 20
10.7654698801
 30
0.0
 10
14.0131813465
 20
10.7394762011
 30
0.0
 10
14.0184519391
 20
10.712321839
 30
0.0
 10
14.0233680228
 20
10.6840513988
 30
0.0
 10
14.0279213914
 20
10.6547113688
 30
0.0
 10
14.0321044729
 20
10.6243500457
 30
0.0
 10
14.0359102993
 20
10.5930174356
 30
0.0
 10
14.0393325232
 20
10.5607651569
 30
0.0
 10
14.0423654282
 20
10.5276463601
 30
0.0
 10
14.0450039698
 20
10.4937156586
 30
0.0
 10
14.0472437606
 20
10.4590289923
 30
0.0
 10
14.0490810465
 20
10.4236435717
 30
0.0
 10
14.0505127734
 20
10.3876177895
 30
0.0
 10
14.0518868514
 20
10.3384811468
 30
0.0
 10
14.0522854385
 20
10.3013479907
 30
0.0
 10
14.0522854385
 20
10.2764295988
 30
0.0
  0
SPLINE
  5
394
100
AcDbEntity
  8
0
100
AcDbSpline
 62
7
  6
CONTINUOUS
 70
0
 71
3
 72
43
 73
39
 74
0
 42
0.0000001
 43
0.0000001
 44
0.0000000001
 40
0.0
 40
0.0
 40
0.0
 40
0.0
 40
0.0063651293
 40
0.0128694011
 40
0.0263987229
 40
0.0407929051
 40
0.0562111452
 40
0.0643463011
 40
0.0727813721
 40
0.0815272753
 40
0.0905932736
 40
0.0999873089
 40
0.1097160541
 40
0.1197849625
 40
0.1301985669
 40
0.1409604375
 40
0.1520732603
 40
0.1753578395
 40
0.2000618709
 40
0.2261842873
 40
0.2537163882
 40
0.2826428595
 40
0.3129427794
 40
0.3445903236
 40
0.3775552077
 40
0.4118032168
 40
0.4472966483
 40
0.4839945459
 40
0.5218529592
 40
0.560825285
 40
0.600862441
 40
0.6419129795
 40
0.6839233749
 40
0.7268381688
 40
0.7706000185
 40
0.8151501007
 40
0.9063695692
 40
1.0
 40
1.0
 40
1.0
 40
1.0
 10
13.8537470765
 20
10.9959048479
 30
0.0
 10
13.8552787427
 20
10.9954009736
 30
0.0
 10
13.8583391399
 20
10.9942676956
 30
0.0
 10
13.8644359527
 20
10.9915094177
 30
0.0
 10
13.8719981142
 20
10.9871124094
 30
0.0
 10
13.880780869
 20
10.9804879972
 30
0.0
 10
13.8878225427
 20
10.9739201481
 30
0.0
 10
13.8933677116
 20
10.968008821
 30
0.0
 10
13.8975551737
 20
10.9631489938
 30
0.0
 10
13.9016951301
 20
10.957944282
 30
0.0
 10
13.9057863977
 20
10.9523964391
 30
0.0
 10
13.9098274451
 20
10.9465075397
 30
0.0
 10
13.9138168244
 20
10.9402797176
 30
0.0
 10
13.9177531728
 20
10.9337153056
 30
0.0
 10
13.9216349998
 20
10.9268166858
 30
0.0
 10
13.9254609383
 20
10.9195863866
 30
0.0
 10
13.9305653578
 20
10.9093475079
 30
0.0
 10
13.9367803425
 20
10.8957212205
 30
0.0
 10
13.9438814949
 20
10.8783375828
 30
0.0
 10
13.9507270858
 20
10.8597014308
 30
0.0
 10
13.9573069358
 20
10.8398403159
 30
0.0
 10
13.963611305
 20
10.8187833134
 30
0.0
 10
13.9696307612
 20
10.7965614992
 30
0.0
 10
13.9753562428
 20
10.7732077178
 30
0.0
 10
13.9807791623
 20
10.748756598
 30
0.0
 10
13.9858913741
 20
10.7232444544
 30
0.0
 10
13.9906851575
 20
10.6967092113
 30
0.0
 10
13.995153286
 20
10.6691903601
 30
0.0
 10
13.9992890538
 20
10.6407288959
 30
0.0
 10
14.0030862204
 20
10.61136723
 30
0.0
 10
14.006539042
 20
10.5811491337
 30
0.0
 10
14.009642342
 20
10.5501196796
 30
0.0
 10
14.012391449
 20
10.5183251569
 30
0.0
 10
14.0147821832
 20
10.4858130198
 30
0.0
 10
14.0168110026
 20
10.4526317323
 30
0.0
 10
14.0190468275
 20
10.4072068273
 30
0.0
 10
14.0208970185
 20
10.3491194693
 30
0.0
 10
14.0213758095
 20
10.3022916959
 30
0.0
 10
14.0213758095
 20
10.2785731888
 30
0.0
  0
SPLINE
  5
395
100
AcDbEntity
  8
0
100
AcDbSpline
 62
7
  6
CONTINUOUS
 70
0
 71
3
 72
53
 73
49
 74
0
 42
0.0000001
 43
0.0000001
 44
0.0000000001
 40
0.0
 40
0.0
 40
0.0
 40
0.0
 40
0.0417740478
 40
0.0840369835
 40
0.1266585592
 40
0.1695065657
 40
0.2124481957
 40
0.2553501644
 40
0.2980793779
 40
0.3405034127
 40
0.3824910553
 40
0.4239128269
 40
0.4646415185
 40
0.5045527309
 40
0.5435254266
 40
0.5814424966
 40
0.6181913512
 40
0.6536645436
 40
0.6877604426
 40
0.7203839756
 40
0.7361162401
 40
0.7514482063
 40
0.7663702194
 40
0.7808732533
 40
0.7949489098
 40
0.808589482
 40
0.8217880323
 40
0.8345384043
 40
0.8468353889
 40
0.8586746951
 40
0.8700532057
 40
0.8809689358
 40
0.8914213732
 40
0.9014114696
 40
0.9109420597
 40
0.9200179488
 40
0.9286464106
 40
0.9368374402
 40
0.9446043453
 40
0.9519642202
 40
0.9589386335
 40
0.9655543067
 40
0.9718438059
 40
0.9778461959
 40
0.9836073668
 40
0.9891800504
 40
0.9946230772
 40
1.0
 40
1.0
 40
1.0
 40
1.0
 10
14.0522854385
 20
10.2764295988
 30
0.0
 10
14.0522854385
 20
10.258454651
 30
0.0
 10
14.0520050107
 20
10.2222938269
 30
0.0
 10
14.0507652861
 20
10.1678061472
 30
0.0
 10
14.0487076518
 20
10.1128806945
 30
0.0
 10
14.0458388481
 20
10.0576992677
 30
0.0
 10
14.0421683584
 20
10.0024444493
 30
0.0
 10
14.0377083139
 20
9.9472990309
 30
0.0
 10
14.0324734898
 20
9.8924454597
 30
0.0
 10
14.0264812392
 20
9.8380652035
 30
0.0
 10
14.0197514434
 20
9.7843381558
 30
0.0
 10
14.012306444
 20
9.7314420331
 30
0.0
 10
14.0041709713
 20
9.6795517819
 30
0.0
 10
13.9953720636
 20
9.6288389926
 30
0.0
 10
13.9859389794
 20
9.5794713258
 30
0.0
 10
13.9759031041
 20
9.5316119361
 30
0.0
 10
13.9652978429
 20
9.4854189535
 30
0.0
 10
13.954158529
 20
9.4410448149
 30
0.0
 10
13.9425222481
 20
9.3986361758
 30
0.0
 10
13.9323241694
 20
9.3646510873
 30
0.0
 10
13.9239296673
 20
9.3385635103
 30
0.0
 10
13.9176101218
 20
9.3198116641
 30
0.0
 10
13.9111959439
 20
9.3016519611
 30
0.0
 10
13.9046924307
 20
9.2840993695
 30
0.0
 10
13.8981049761
 20
9.2671683749
 30
0.0
 10
13.891439026
 20
9.2508729356
 30
0.0
 10
13.884700129
 20
9.2352264681
 30
0.0
 10
13.8778938144
 20
9.2202418572
 30
0.0
 10
13.8710257724
 20
9.2059314
 30
0.0
 10
13.8641015879
 20
9.1923068601
 30
0.0
 10
13.8571270579
 20
9.1793793634
 30
0.0
 10
13.8501077967
 20
9.1671595071
 30
0.0
 10
13.8430496547
 20
9.1556571992
 30
0.0
 10
13.8359582422
 20
9.1448818269
 30
0.0
 10
13.8288393851
 20
9.1348420477
 30
0.0
 10
13.8216986366
 20
9.1255460052
 30
0.0
 10
13.8145416883
 20
9.1170011057
 30
0.0
 10
13.8073739491
 20
9.1092142543
 30
0.0
 10
13.8002008355
 20
9.1021916813
 30
0.0
 10
13.793027498
 20
9.0959391615
 30
0.0
 10
13.7858589605
 20
9.0904619894
 30
0.0
 10
13.778700082
 20
9.0857651241
 30
0.0
 10
13.7715556279
 20
9.081853404
 30
0.0
 10
13.7644305395
 20
9.0787314698
 30
0.0
 10
13.7573302336
 20
9.0764041266
 30
0.0
 10
13.7502606369
 20
9.0748756997
 30
0.0
 10
13.7432302728
 20
9.0741500908
 30
0.0
 10
13.7385627113
 20
9.0742033488
 30
0.0
 10
13.7362546198
 20
9.0743634161
 30
0.0
  0
SPLINE
  5
396
100
AcDbEntity
  8
0
100
AcDbSpline
 62
7
  6
CONTINUOUS
 70
0
 71
3
 72
33
 73
29
 74
0
 42
0.0000001
 43
0.0000001
 44
0.0000000001
 40
0.0
 40
0.0
 40
0.0
 40
0.0
 40
0.0958348694
 40
0.1891075393
 40
0.2792507307
 40
0.3657221938
 40
0.4480135352
 40
0.5256551542
 40
0.5625998871
 40
0.5982279088
 40
0.6324952589
 40
0.6653619968
 40
0.6967931368
 40
0.7267585922
 40
0.7552346622
 40
0.7822039745
 40
0.8076576644
 40
0.8315956119
 40
0.8540295607
 40
0.8749841658
 40
0.8945014605
 40
0.9126434539
 40
0.9294983432
 40
0.9451850262
 40
0.9598600607
 40
0.9737213157
 40
0.9870092446
 40
1.0
 40
1.0
 40
1.0
 40
1.0
 10
12.2908869308
 20
10.161715808
 30
0.0
 10
12.2963826598
 20
10.1613346779
 30
0.0
 10
12.307219261
 20
10.1604617335
 30
0.0
 10
12.3231863846
 20
10.1587954055
 30
0.0
 10
12.3385731816
 20
10.1567985065
 30
0.0
 10
12.3532770693
 20
10.1544846246
 30
0.0
 10
12.367199972
 20
10.1518694821
 30
0.0
 10
12.3782505457
 20
10.1494152066
 30
0.0
 10
12.3866237624
 20
10.1473037296
 30
0.0
 10
12.3925479308
 20
10.1456824827
 30
0.0
 10
12.3982109452
 20
10.1440001246
 30
0.0
 10
12.4036033971
 20
10.142259417
 30
0.0
 10
12.4087163424
 20
10.140463333
 30
0.0
 10
12.4135413102
 20
10.1386148206
 30
0.0
 10
12.4180703561
 20
10.1367170353
 30
0.0
 10
12.422296024
 20
10.1347730419
 30
0.0
 10
12.4262114465
 20
10.132786135
 30
0.0
 10
12.4298102473
 20
10.1307594273
 30
0.0
 10
12.4330867059
 20
10.1286962556
 30
0.0
 10
12.4360355617
 20
10.1265996548
 30
0.0
 10
12.4386522465
 20
10.1244728154
 30
0.0
 10
12.4409325151
 20
10.1223184716
 30
0.0
 10
12.4428726913
 20
10.1201393939
 30
0.0
 10
12.4444690026
 20
10.1179378281
 30
0.0
 10
12.4457177734
 20
10.1157162811
 30
0.0
 10
12.4466146295
 20
10.1134772206
 30
0.0
 10
12.4471552891
 20
10.1112254789
 30
0.0
 10
12.4472761495
 20
10.1097122764
 30
0.0
 10
12.4472761408
 20
10.1089655216
 30
0.0
  0
SPLINE
  5
397
100
AcDbEntity
  8
0
100
AcDbSpline
 62
7
  6
CONTINUOUS
 70
0
 71
3
 72
23
 73
19
 74
0
 42
0.0000001
 43
0.0000001
 44
0.0000000001
 40
0.0
 40
0.0
 40
0.0
 40
0.0
 40
0.0637776288
 40
0.1273446152
 40
0.1907020433
 40
0.2538561391
 40
0.3168131818
 40
0.3795820998
 40
0.442173387
 40
0.5045993408
 40
0.5668738683
 40
0.6290123813
 40
0.69103165
 40
0.7529496426
 40
0.8147853504
 40
0.8765585998
 40
0.9382898528
 40
1.0
 40
1.0
 40
1.0
 40
1.0
 10
9.9658858576
 20
6.4229742935
 30
0.0
 10
9.9658858576
 20
6.4364745916
 30
0.0
 10
9.9665319921
 20
6.4634351762
 30
0.0
 10
9.9694485674
 20
6.5037121368
 30
0.0
 10
9.9743045106
 20
6.5436697018
 30
0.0
 10
9.9810884728
 20
6.5832143584
 30
0.0
 10
9.98978509
 20
6.6222554601
 30
0.0
 10
10.0003743113
 20
6.6607028448
 30
0.0
 10
10.0128318601
 20
6.6984679131
 30
0.0
 10
10.0271290889
 20
6.7354635647
 30
0.0
 10
10.0432331183
 20
6.7716044765
 30
0.0
 10
10.0611068759
 20
6.8068072902
 30
0.0
 10
10.0807091967
 20
6.8409907969
 30
0.0
 10
10.1019949426
 20
6.8740761551
 30
0.0
 10
10.1249149926
 20
6.9059869662
 30
0.0
 10
10.1494167815
 20
6.9366498571
 30
0.0
 10
10.1754428318
 20
6.9659931428
 30
0.0
 10
10.1937731976
 20
6.9846338585
 30
0.0
 10
10.2031685816
 20
6.9937090888
 30
0.0
  0
SPLINE
  5
398
100
AcDbEntity
  8
0
100
AcDbSpline
 62
7
  6
CONTINUOUS
 70
0
 71
3
 72
52
 73
48
 74
0
 42
0.0000001
 43
0.0000001
 44
0.0000000001
 40
0.0
 40
0.0
 40
0.0
 40
0.0
 40
0.0054779976
 40
0.0111435779
 40
0.0170437058
 40
0.0232193186
 40
0.0297053529
 40
0.0365310873
 40
0.0437206899
 40
0.0512937975
 40
0.0592661322
 40
0.0676500129
 40
0.0764548713
 40
0.0856876193
 40
0.0953530434
 40
0.1054540403
 40
0.1159919165
 40
0.1269665241
 40
0.1383764959
 40
0.1502193107
 40
0.1624914871
 40
0.1751885996
 40
0.1883054464
 40
0.2018360323
 40
0.21577372
 40
0.2301111894
 40
0.2448405795
 40
0.2599534307
 40
0.2912926881
 40
0.3240524662
 40
0.3581487538
 40
0.393491487
 40
0.4299852106
 40
0.4675296737
 40
0.5060203766
 40
0.545349086
 40
0.5854043257
 40
0.626071852
 40
0.6672351181
 40
0.7087757294
 40
0.7505738962
 40
0.7925088797
 40
0.8344594415
 40
0.8763042791
 40
0.9179224975
 40
0.9591939862
 40
1.0
 40
1.0
 40
1.0
 40
1.0
 10
13.7208348109
 20
9.0774062558
 30
0.0
 10
13.7231253119
 20
9.0778265293
 30
0.0
 10
13.7277422573
 20
9.0789301029
 30
0.0
 10
13.7345980757
 20
9.0813057229
 30
0.0
 10
13.7414774103
 20
9.0844209986
 30
0.0
 10
13.7483744199
 20
9.0882716372
 30
0.0
 10
13.7552849291
 20
9.0928535432
 30
0.0
 10
13.7622044913
 20
9.0981624226
 30
0.0
 10
13.7691286801
 20
9.1041938444
 30
0.0
 10
13.776052949
 20
9.1109430267
 30
0.0
 10
13.782972567
 20
9.1184048375
 30
0.0
 10
13.78988272
 20
9.1265736397
 30
0.0
 10
13.7967784213
 20
9.1354433361
 30
0.0
 10
13.8036546662
 20
9.1450072592
 30
0.0
 10
13.8105063172
 20
9.1552582426
 30
0.0
 10
13.8173282756
 20
9.1661885373
 30
0.0
 10
13.8241153413
 20
9.1777898909
 30
0.0
 10
13.8308623947
 20
9.1900534796
 30
0.0
 10
13.8375642349
 20
9.2029699847
 30
0.0
 10
13.8442157711
 20
9.2165295366
 30
0.0
 10
13.8508118439
 20
9.2307217844
 30
0.0
 10
13.8573474257
 20
9.2455358494
 30
0.0
 10
13.8638174294
 20
9.2609603875
 30
0.0
 10
13.8702169152
 20
9.2769835508
 30
0.0
 10
13.8765408947
 20
9.2935930442
 30
0.0
 10
13.8827845271
 20
9.3107760887
 30
0.0
 10
13.8889429795
 20
9.3285194948
 30
0.0
 10
13.8971335141
 20
9.3532056105
 30
0.0
 10
13.9071049393
 20
9.3853730011
 30
0.0
 10
13.918517392
 20
9.4255298195
 30
0.0
 10
13.929481237
 20
9.4675724778
 30
0.0
 10
13.9399624697
 20
9.5113715124
 30
0.0
 10
13.9499285588
 20
9.5567922718
 30
0.0
 10
13.9593485979
 20
9.6036949361
 30
0.0
 10
13.9681933854
 20
9.6519350851
 30
0.0
 10
13.976435517
 20
9.701364123
 30
0.0
 10
13.9840494681
 20
9.7518297564
 30
0.0
 10
13.9910116703
 20
9.803176469
 30
0.0
 10
13.9973005837
 20
9.8552460077
 30
0.0
 10
14.0028967613
 20
9.9078778757
 30
0.0
 10
14.0077829087
 20
9.9609098311
 30
0.0
 10
14.0119439369
 20
10.0141783909
 30
0.0
 10
14.0153670073
 20
10.0675193395
 30
0.0
 10
14.0180415747
 20
10.1207682288
 30
0.0
 10
14.0199594138
 20
10.1737609339
 30
0.0
 10
14.0211146532
 20
10.2263339507
 30
0.0
 10
14.0213758095
 20
10.2612262383
 30
0.0
 10
14.0213758095
 20
10.2785731888
 30
0.0
  0
SPLINE
  5
399
100
AcDbEntity
  8
0
100
AcDbSpline
 62
7
  6
CONTINUOUS
 70
0
 71
3
 72
49
 73
45
 74
0
 42
0.0000001
 43
0.0000001
 44
0.0000000001
 40
0.0
 40
0.0
 40
0.0
 40
0.0
 40
0.0066704173
 40
0.0132428534
 40
0.0197604443
 40
0.0262675126
 40
0.0328086194
 40
0.0394275724
 40
0.0461665439
 40
0.0530652474
 40
0.0601604775
 40
0.0674857224
 40
0.0750709668
 40
0.0829428634
 40
0.0911247083
 40
0.0996366965
 40
0.1084962988
 40
0.117718294
 40
0.1273152045
 40
0.1372975668
 40
0.1476739389
 40
0.1584513626
 40
0.1696354343
 40
0.1812303451
 40
0.2056625186
 40
0.2317631378
 40
0.2595318338
 40
0.2889571533
 40
0.3200182242
 40
0.3526862465
 40
0.3869255856
 40
0.4226945153
 40
0.4599458729
 40
0.4986277252
 40
0.5386838121
 40
0.5800538384
 40
0.6226738961
 40
0.66647683
 40
0.7113924558
 40
0.757347711
 40
0.8042672336
 40
0.8520731969
 40
0.9006851209
 40
1.0
 40
1.0
 40
1.0
 40
1.0
 10
13.8082389205
 20
10.7351855813
 30
0.0
 10
13.8094928634
 20
10.7354415352
 30
0.0
 10
13.8120037645
 20
10.7358512586
 30
0.0
 10
13.8157875336
 20
10.73615002
 30
0.0
 10
13.8195520329
 20
10.7361270052
 30
0.0
 10
13.8232946762
 20
10.735781926
 30
0.0
 10
13.8270132797
 20
10.7351151733
 30
0.0
 10
13.8307056459
 20
10.7341272861
 30
0.0
 10
13.8343696968
 20
10.7328190118
 30
0.0
 10
13.838003599
 20
10.731191528
 30
0.0
 10
13.8416056079
 20
10.7292459389
 30
0.0
 10
13.8451741197
 20
10.7269835121
 30
0.0
 10
13.8487077131
 20
10.7244056852
 30
0.0
 10
13.8522048959
 20
10.721513776
 30
0.0
 10
13.855664299
 20
10.7183093027
 30
0.0
 10
13.8590845831
 20
10.7147938542
 30
0.0
 10
13.8624642832
 20
10.7109690064
 30
0.0
 10
13.8658020764
 20
10.7068365739
 30
0.0
 10
13.8690965691
 20
10.7023984222
 30
0.0
 10
13.8723462964
 20
10.6976565082
 30
0.0
 10
13.8755499424
 20
10.6926130115
 30
0.0
 10
13.8787060587
 20
10.6872701727
 30
0.0
 10
13.8818132744
 20
10.6816303696
 30
0.0
 10
13.8859617214
 20
10.6735770504
 30
0.0
 10
13.8909994177
 20
10.6627681887
 30
0.0
 10
13.8967266931
 20
10.6488750797
 30
0.0
 10
13.9022268543
 20
10.6338662981
 30
0.0
 10
13.9074899006
 20
10.6177689438
 30
0.0
 10
13.9125062742
 20
10.6006117994
 30
0.0
 10
13.9172667666
 20
10.5824258524
 30
0.0
 10
13.9217625886
 20
10.5632440146
 30
0.0
 10
13.9259854333
 20
10.5431011214
 30
0.0
 10
13.9299275155
 20
10.5220338356
 30
0.0
 10
13.9335815392
 20
10.5000805467
 30
0.0
 10
13.9369407206
 20
10.4772812967
 30
0.0
 10
13.9399988583
 20
10.4536777172
 30
0.0
 10
13.942750303
 20
10.4293129356
 30
0.0
 10
13.9451899517
 20
10.404231477
 30
0.0
 10
13.9473132733
 20
10.378479207
 30
0.0
 10
13.9491163668
 20
10.3521032078
 30
0.0
 10
13.9505958751
 20
10.3251517493
 30
0.0
 10
13.9517490695
 20
10.2976741637
 30
0.0
 10
13.9528564696
 20
10.2601361634
 30
0.0
 10
13.9531770474
 20
10.23175298
 30
0.0
 10
13.9531770474
 20
10.2126982393
 30
0.0
  0
SPLINE
  5
39A
100
AcDbEntity
  8
0
100
AcDbSpline
 62
7
  6
CONTINUOUS
 70
0
 71
3
 72
30
 73
26
 74
0
 42
0.0000001
 43
0.0000001
 44
0.0000000001
 40
0.0
 40
0.0
 40
0.0
 40
0.0
 40
0.0179470849
 40
0.0368404614
 40
0.0566916236
 40
0.0775070215
 40
0.0992892437
 40
0.1220370323
 40
0.1457462604
 40
0.1704097619
 40
0.1960181715
 40
0.2225596393
 40
0.250020578
 40
0.2783853095
 40
0.3076367452
 40
0.3377559963
 40
0.4005145805
 40
0.4664859532
 40
0.5354746493
 40
0.6072689307
 40
0.6816427039
 40
0.7583572383
 40
0.8371626644
 40
0.917799542
 40
1.0
 40
1.0
 40
1.0
 40
1.0
 10
13.7369062596
 20
10.6669997694
 30
0.0
 10
13.7383534207
 20
10.664628857
 30
0.0
 10
13.7412115759
 20
10.6596927079
 30
0.0
 10
13.7452970201
 20
10.651925399
 30
0.0
 10
13.7492863156
 20
10.6436130777
 30
0.0
 10
13.7531759715
 20
10.634763306
 30
0.0
 10
13.7569624673
 20
10.6253838073
 30
0.0
 10
13.7606425397
 20
10.6154829475
 30
0.0
 10
13.7642127781
 20
10.6050695131
 30
0.0
 10
13.7676700837
 20
10.5941528188
 30
0.0
 10
13.7710112269
 20
10.5827426169
 30
0.0
 10
13.7742332945
 20
10.5708491442
 30
0.0
 10
13.7773332673
 20
10.5584830661
 30
0.0
 10
13.7803084279
 20
10.5456555024
 30
0.0
 10
13.7831560208
 20
10.5323779684
 30
0.0
 10
13.7868296937
 20
10.5138357367
 30
0.0
 10
13.7910654893
 20
10.4896145593
 30
0.0
 10
13.795535221
 20
10.4593385875
 30
0.0
 10
13.7994422054
 20
10.4275756061
 30
0.0
 10
13.802772113
 20
10.3944400633
 30
0.0
 10
13.8055126463
 20
10.3600511549
 30
0.0
 10
13.8076536994
 20
10.3245327863
 30
0.0
 10
13.8091873603
 20
10.2880129231
 30
0.0
 10
13.8101079406
 20
10.2506233703
 30
0.0
 10
13.8103089345
 20
10.2254204357
 30
0.0
 10
13.8103089345
 20
10.2126982311
 30
0.0
  0
SPLINE
  5
39B
100
AcDbEntity
  8
0
100
AcDbSpline
 62
7
  6
CONTINUOUS
 70
0
 71
3
 72
53
 73
49
 74
0
 42
0.0000001
 43
0.0000001
 44
0.0000000001
 40
0.0
 40
0.0
 40
0.0
 40
0.0
 40
0.0417740478
 40
0.0840369835
 40
0.1266585592
 40
0.1695065657
 40
0.2124481957
 40
0.2553501644
 40
0.2980793779
 40
0.3405034127
 40
0.3824910553
 40
0.4239128269
 40
0.4646415185
 40
0.5045527309
 40
0.5435254266
 40
0.5814424966
 40
0.6181913512
 40
0.6536645436
 40
0.6877604426
 40
0.7203839756
 40
0.7361162401
 40
0.7514482063
 40
0.7663702194
 40
0.7808732533
 40
0.7949489098
 40
0.808589482
 40
0.8217880323
 40
0.8345384043
 40
0.8468353889
 40
0.8586746951
 40
0.8700532057
 40
0.8809689358
 40
0.8914213732
 40
0.9014114696
 40
0.9109420597
 40
0.9200179488
 40
0.9286464106
 40
0.9368374402
 40
0.9446043453
 40
0.9519642202
 40
0.9589386335
 40
0.9655543067
 40
0.9718438059
 40
0.9778461959
 40
0.9836073668
 40
0.9891800504
 40
0.9946230772
 40
1.0
 40
1.0
 40
1.0
 40
1.0
 10
13.9554873001
 20
7.5266335918
 30
0.0
 10
13.9554873001
 20
7.508658644
 30
0.0
 10
13.9552068723
 20
7.4724978199
 30
0.0
 10
13.9539671478
 20
7.4180101403
 30
0.0
 10
13.9519095135
 20
7.3630846875
 30
0.0
 10
13.9490407097
 20
7.3079032608
 30
0.0
 10
13.9453702201
 20
7.2526484423
 30
0.0
 10
13.9409101756
 20
7.1975030239
 30
0.0
 10
13.9356753515
 20
7.1426494527
 30
0.0
 10
13.9296831009
 20
7.0882691965
 30
0.0
 10
13.9229533051
 20
7.0345421489
 30
0.0
 10
13.9155083057
 20
6.9816460261
 30
0.0
 10
13.907372833
 20
6.9297557749
 30
0.0
 10
13.8985739253
 20
6.8790429857
 30
0.0
 10
13.8891408411
 20
6.8296753188
 30
0.0
 10
13.8791049657
 20
6.7818159291
 30
0.0
 10
13.8684997045
 20
6.7356229465
 30
0.0
 10
13.8573603907
 20
6.6912488079
 30
0.0
 10
13.8457241098
 20
6.6488401688
 30
0.0
 10
13.8355260311
 20
6.6148550804
 30
0.0
 10
13.827131529
 20
6.5887675033
 30
0.0
 10
13.8208119834
 20
6.5700156571
 30
0.0
 10
13.8143978056
 20
6.5518559541
 30
0.0
 10
13.8078942924
 20
6.5343033625
 30
0.0
 10
13.8013068378
 20
6.517372368
 30
0.0
 10
13.7946408876
 20
6.5010769286
 30
0.0
 10
13.7879019907
 20
6.4854304612
 30
0.0
 10
13.7810956761
 20
6.4704458503
 30
0.0
 10
13.774227634
 20
6.456135393
 30
0.0
 10
13.7673034496
 20
6.4425108531
 30
0.0
 10
13.7603289196
 20
6.4295833564
 30
0.0
 10
13.7533096584
 20
6.4173635001
 30
0.0
 10
13.7462515164
 20
6.4058611922
 30
0.0
 10
13.7391601039
 20
6.3950858199
 30
0.0
 10
13.7320412468
 20
6.3850460407
 30
0.0
 10
13.7249004983
 20
6.3757499982
 30
0.0
 10
13.71774355
 20
6.3672050987
 30
0.0
 10
13.7105758108
 20
6.3594182473
 30
0.0
 10
13.7034026971
 20
6.3523956743
 30
0.0
 10
13.6962293597
 20
6.3461431545
 30
0.0
 10
13.6890608222
 20
6.3406659824
 30
0.0
 10
13.6819019437
 20
6.3359691171
 30
0.0
 10
13.6747574896
 20
6.332057397
 30
0.0
 10
13.6676324012
 20
6.3289354628
 30
0.0
 10
13.6605320952
 20
6.3266081197
 30
0.0
 10
13.6534624986
 20
6.3250796928
 30
0.0
 10
13.6464321344
 20
6.3243540838
 30
0.0
 10
13.641764573
 20
6.3244073419
 30
0.0
 10
13.6394564815
 20
6.3245674091
 30
0.0
  0
SPLINE
  5
39C
100
AcDbEntity
  8
0
100
AcDbSpline
 62
7
  6
CONTINUOUS
 70
0
 71
3
 72
23
 73
19
 74
0
 42
0.0000001
 43
0.0000001
 44
0.0000000001
 40
0.0
 40
0.0
 40
0.0
 40
0.0
 40
0.0427132103
 40
0.088523928
 40
0.137384527
 40
0.1892262727
 40
0.2439625764
 40
0.3014914597
 40
0.3616975322
 40
0.4244535559
 40
0.4896217244
 40
0.5570547736
 40
0.6265969276
 40
0.6980846647
 40
0.7713480498
 40
0.846209639
 40
0.9224903697
 40
1.0
 40
1.0
 40
1.0
 40
1.0
 10
13.7009955435
 20
10.5910066478
 30
0.0
 10
13.7030790099
 20
10.5858242629
 30
0.0
 10
13.7071224831
 20
10.5749720786
 30
0.0
 10
13.7126731987
 20
10.5578810371
 30
0.0
 10
13.7179086693
 20
10.539446872
 30
0.0
 10
13.7228147348
 20
10.5197181215
 30
0.0
 10
13.7273782964
 20
10.4987462041
 30
0.0
 10
13.7315870744
 20
10.4765862573
 30
0.0
 10
13.7354297457
 20
10.453296632
 30
0.0
 10
13.7388959602
 20
10.4289387887
 30
0.0
 10
13.7419763809
 20
10.4035770831
 30
0.0
 10
13.7446627072
 20
10.377278587
 30
0.0
 10
13.7469476948
 20
10.3501129111
 30
0.0
 10
13.7488252032
 20
10.3221519567
 30
0.0
 10
13.7502901383
 20
10.2934699066
 30
0.0
 10
13.751338607
 20
10.2641424942
 30
0.0
 10
13.7519676765
 20
10.2342478104
 30
0.0
 10
13.7521053774
 20
10.2141366834
 30
0.0
 10
13.7521053774
 20
10.2040009202
 30
0.0
  0
SPLINE
  5
39D
100
AcDbEntity
  8
0
100
AcDbSpline
 62
7
  6
CONTINUOUS
 70
0
 71
3
 72
53
 73
49
 74
0
 42
0.0000001
 43
0.0000001
 44
0.0000000001
 40
0.0
 40
0.0
 40
0.0
 40
0.0
 40
0.00561882
 40
0.0111420428
 40
0.0166418616
 40
0.0221914682
 40
0.0278619549
 40
0.0337195974
 40
0.0398239585
 40
0.0462268852
 40
0.0529723767
 40
0.0600969397
 40
0.0676303569
 40
0.075596455
 40
0.0840140046
 40
0.0928973914
 40
0.1022573641
 40
0.1121014886
 40
0.1224347163
 40
0.1332596478
 40
0.1445769649
 40
0.1563855586
 40
0.1686828695
 40
0.1814649241
 40
0.1947266187
 40
0.2084616942
 40
0.2226629851
 40
0.2373223538
 40
0.2524309172
 40
0.2679789554
 40
0.300350572
 40
0.3343473976
 40
0.3698695492
 40
0.4068090749
 40
0.4450509009
 40
0.4844736716
 40
0.524950517
 40
0.5663497708
 40
0.6085356546
 40
0.6513689391
 40
0.6947075901
 40
0.7384074048
 40
0.7823226395
 40
0.8263066389
 40
0.8702124484
 40
0.913893467
 40
0.9572039929
 40
1.0
 40
1.0
 40
1.0
 40
1.0
 10
13.7116134227
 20
9.3418863184
 30
0.0
 10
13.7132911183
 20
9.3412931754
 30
0.0
 10
13.7166864288
 20
9.3402995053
 30
0.0
 10
13.7218949142
 20
9.3394193064
 30
0.0
 10
13.7271502163
 20
9.339169442
 30
0.0
 10
13.7324438869
 20
9.3395502956
 30
0.0
 10
13.7377688885
 20
9.340560175
 30
0.0
 10
13.7431188678
 20
9.3421960337
 30
0.0
 10
13.7484885753
 20
9.3444542044
 30
0.0
 10
13.753873603
 20
9.3473307091
 30
0.0
 10
13.7592699545
 20
9.3508216682
 30
0.0
 10
13.7646738479
 20
9.3549230923
 30
0.0
 10
13.7700813759
 20
9.3596309703
 30
0.0
 10
13.7754885785
 20
9.364940948
 30
0.0
 10
13.7808912372
 20
9.3708483966
 30
0.0
 10
13.7862850861
 20
9.3773481673
 30
0.0
 10
13.7916656309
 20
9.3844346979
 30
0.0
 10
13.7970283987
 20
9.3921018427
 30
0.0
 10
13.8023687409
 20
9.4003429928
 30
0.0
 10
13.8076820884
 20
9.4091509529
 30
0.0
 10
13.8129637354
 20
9.4185180552
 30
0.0
 10
13.8182090954
 20
9.4284360657
 30
0.0
 10
13.8234134702
 20
9.438896284
 30
0.0
 10
13.8285723065
 20
9.4498894705
 30
0.0
 10
13.8336809572
 20
9.4614059315
 30
0.0
 10
13.8387349361
 20
9.4734354622
 30
0.0
 10
13.8437296794
 20
9.4859674194
 30
0.0
 10
13.8486607838
 20
9.4989906737
 30
0.0
 10
13.8535238302
 20
9.5124936884
 30
0.0
 10
13.8599985206
 20
9.5313759233
 30
0.0
 10
13.8678721428
 20
9.5560987398
 30
0.0
 10
13.8768598421
 20
9.587093521
 30
0.0
 10
13.885477098
 20
9.6196917806
 30
0.0
 10
13.8936930063
 20
9.6537776003
 30
0.0
 10
13.9014780732
 20
9.6892299727
 30
0.0
 10
13.9088043807
 20
9.7259228438
 30
0.0
 10
13.9156456687
 20
9.7637257032
 30
0.0
 10
13.9219774315
 20
9.8025040305
 30
0.0
 10
13.9277770014
 20
9.8421197961
 30
0.0
 10
13.9330236287
 20
9.882431959
 30
0.0
 10
13.9376985536
 20
9.9232969771
 30
0.0
 10
13.9417850715
 20
9.9645693237
 30
0.0
 10
13.9452685927
 20
10.0061020104
 30
0.0
 10
13.9481366921
 20
10.0477471164
 30
0.0
 10
13.9503791564
 20
10.08935631
 30
0.0
 10
13.9519880155
 20
10.1307814237
 30
0.0
 10
13.952957578
 20
10.1718747908
 30
0.0
 10
13.9531770474
 20
10.1991448909
 30
0.0
 10
13.9531770474
 20
10.2126982393
 30
0.0
  0
SPLINE
  5
39E
100
AcDbEntity
  8
0
100
AcDbSpline
 62
7
  6
CONTINUOUS
 70
0
 71
3
 72
37
 73
33
 74
0
 42
0.0000001
 43
0.0000001
 44
0.0000000001
 40
0.0
 40
0.0
 40
0.0
 40
0.0
 40
0.0079016652
 40
0.0161298579
 40
0.0246881945
 40
0.033579108
 40
0.0428040983
 40
0.0523638704
 40
0.0724853532
 40
0.0939360497
 40
0.1166979527
 40
0.1407453368
 40
0.1660459151
 40
0.1925617138
 40
0.2202497469
 40
0.2490625336
 40
0.2789485602
 40
0.3098527074
 40
0.3417165896
 40
0.3744788461
 40
0.4080753935
 40
0.4424397184
 40
0.4775031281
 40
0.5131949765
 40
0.5494428699
 40
0.586172894
 40
0.6233098462
 40
0.6984971613
 40
0.7743866005
 40
0.8503511138
 40
0.9257626431
 40
1.0
 40
1.0
 40
1.0
 40
1.0
 10
13.6503243754
 20
9.4192034417
 30
0.0
 10
13.6516926029
 20
9.4208715701
 30
0.0
 10
13.6544243378
 20
9.4243273892
 30
0.0
 10
13.6584308074
 20
9.4297497024
 30
0.0
 10
13.6624263347
 20
9.4355119617
 30
0.0
 10
13.6664087335
 20
9.4416109193
 30
0.0
 10
13.6703759188
 20
9.448043295
 30
0.0
 10
13.6757339201
 20
9.4572170468
 30
0.0
 10
13.6823625778
 20
9.4695093527
 30
0.0
 10
13.6900918012
 20
9.4852874433
 30
0.0
 10
13.6977091697
 20
9.5023011455
 30
0.0
 10
13.7051978963
 20
9.5205132818
 30
0.0
 10
13.7125414687
 20
9.5398843093
 30
0.0
 10
13.719723634
 20
9.5603718998
 30
0.0
 10
13.7267284741
 20
9.5819312153
 30
0.0
 10
13.7335404637
 20
9.6045149636
 30
0.0
 10
13.7401445138
 20
9.6280735338
 30
0.0
 10
13.746525987
 20
9.6525551305
 30
0.0
 10
13.7526707393
 20
9.6779059
 30
0.0
 10
13.7585651479
 20
9.7040700444
 30
0.0
 10
13.7641961688
 20
9.7309899416
 30
0.0
 10
13.7695513382
 20
9.7586062872
 30
0.0
 10
13.7746188022
 20
9.7868582353
 30
0.0
 10
13.779387342
 20
9.8156835349
 30
0.0
 10
13.7838463981
 20
9.8450186408
 30
0.0
 10
13.7879861609
 20
9.8747989332
 30
0.0
 10
13.7930885256
 20
9.9151765517
 30
0.0
 10
13.7985970578
 20
9.966275884
 30
0.0
 10
13.8037828438
 20
10.0280556037
 30
0.0
 10
13.8075249195
 20
10.0900011891
 30
0.0
 10
13.8097904612
 20
10.1515665946
 30
0.0
 10
13.8103089345
 20
10.1924284216
 30
0.0
 10
13.8103089345
 20
10.2126982311
 30
0.0
  0
SPLINE
  5
39F
100
AcDbEntity
  8
0
100
AcDbSpline
 62
7
  6
CONTINUOUS
 70
0
 71
3
 72
23
 73
19
 74
0
 42
0.0000001
 43
0.0000001
 44
0.0000000001
 40
0.0
 40
0.0
 40
0.0
 40
0.0
 40
0.0637268971
 40
0.1272587803
 40
0.1905933288
 40
0.2537375199
 40
0.3166959962
 40
0.3794759763
 40
0.4420861645
 40
0.5045365737
 40
0.5668386459
 40
0.6290050844
 40
0.6910497746
 40
0.7529876652
 40
0.8148346354
 40
0.8766073675
 40
0.9383232056
 40
1.0
 40
1.0
 40
1.0
 40
1.0
 10
8.6907772154
 20
9.4426100314
 30
0.0
 10
8.6907772154
 20
9.4529847325
 30
0.0
 10
8.6912410207
 20
9.473705448
 30
0.0
 10
8.6933339978
 20
9.5046733641
 30
0.0
 10
8.6968194054
 20
9.5354208889
 30
0.0
 10
8.7016899251
 20
9.5658850181
 30
0.0
 10
8.707936093
 20
9.5960050584
 30
0.0
 10
8.7155452995
 20
9.6257202975
 30
0.0
 10
8.7245022788
 20
9.6549710453
 30
0.0
 10
8.7347891
 20
9.6836984901
 30
0.0
 10
8.746385169
 20
9.7118448453
 30
0.0
 10
8.7592671877
 20
9.7393535206
 30
0.0
 10
8.7734092661
 20
9.7661692015
 30
0.0
 10
8.7887830201
 20
9.7922379664
 30
0.0
 10
8.8053575649
 20
9.8175073024
 30
0.0
 10
8.8230997361
 20
9.8419265713
 30
0.0
 10
8.841973235
 20
9.8654459935
 30
0.0
 10
8.8552889134
 20
9.8804991448
 30
0.0
 10
8.8621203502
 20
9.8878579532
 30
0.0
  0
SPLINE
  5
3A0
100
AcDbEntity
  8
0
100
AcDbSpline
 62
7
  6
CONTINUOUS
 70
0
 71
3
 72
31
 73
27
 74
0
 42
0.0000001
 43
0.0000001
 44
0.0000000001
 40
0.0
 40
0.0
 40
0.0
 40
0.0
 40
0.0191182984
 40
0.0393940726
 40
0.0608144647
 40
0.0833608689
 40
0.1070096512
 40
0.1317329051
 40
0.1574989046
 40
0.184272396
 40
0.2120150622
 40
0.2406858137
 40
0.2702409212
 40
0.3006343162
 40
0.3318178334
 40
0.3637413015
 40
0.396352735
 40
0.4295985633
 40
0.4977705378
 40
0.5678029151
 40
0.6392233324
 40
0.7115472019
 40
0.7842820471
 40
0.8569318584
 40
0.9290008534
 40
1.0
 40
1.0
 40
1.0
 40
1.0
 10
13.6253233356
 20
9.4995318744
 30
0.0
 10
13.6276104666
 20
9.5035210653
 30
0.0
 10
13.632150072
 20
9.511841048
 30
0.0
 10
13.6386874781
 20
9.5249288526
 30
0.0
 10
13.6451423993
 20
9.5389703112
 30
0.0
 10
13.651502972
 20
9.5539399851
 30
0.0
 10
13.6577577041
 20
9.5698110488
 30
0.0
 10
13.6638951701
 20
9.586554872
 30
0.0
 10
13.6699041438
 20
9.6041412227
 30
0.0
 10
13.6757736783
 20
9.6225382591
 30
0.0
 10
13.6814930515
 20
9.6417126455
 30
0.0
 10
13.6870517846
 20
9.6616296169
 30
0.0
 10
13.6924397399
 20
9.6822530192
 30
0.0
 10
13.6976470865
 20
9.7035453963
 30
0.0
 10
13.7026642936
 20
9.7254680776
 30
0.0
 10
13.7074821908
 20
9.7479812163
 30
0.0
 10
13.7120920469
 20
9.7710439146
 30
0.0
 10
13.7179990041
 20
9.8027355407
 30
0.0
 10
13.7247868803
 20
9.8434147244
 30
0.0
 10
13.7319140729
 20
9.8933316329
 30
0.0
 10
13.7380370514
 20
9.9443875003
 30
0.0
 10
13.7431110351
 20
9.9962112076
 30
0.0
 10
13.7470990045
 20
10.0484262653
 30
0.0
 10
13.7499718932
 20
10.1006532232
 30
0.0
 10
13.7517089564
 20
10.152512392
 30
0.0
 10
13.7521053774
 20
10.1869242281
 30
0.0
 10
13.7521053774
 20
10.2040009202
 30
0.0
  0
SPLINE
  5
3A1
100
AcDbEntity
  8
0
100
AcDbSpline
 62
7
  6
CONTINUOUS
 70
0
 71
3
 72
53
 73
49
 74
0
 42
0.0000001
 43
0.0000001
 44
0.0000000001
 40
0.0
 40
0.0
 40
0.0
 40
0.0
 40
0.0417740478
 40
0.0840369835
 40
0.1266585592
 40
0.1695065657
 40
0.2124481957
 40
0.2553501644
 40
0.2980793779
 40
0.3405034127
 40
0.3824910553
 40
0.4239128269
 40
0.4646415185
 40
0.5045527309
 40
0.5435254266
 40
0.5814424966
 40
0.6181913512
 40
0.6536645436
 40
0.6877604426
 40
0.7203839756
 40
0.7361162401
 40
0.7514482063
 40
0.7663702194
 40
0.7808732533
 40
0.7949489098
 40
0.808589482
 40
0.8217880323
 40
0.8345384043
 40
0.8468353889
 40
0.8586746951
 40
0.8700532057
 40
0.8809689358
 40
0.8914213732
 40
0.9014114696
 40
0.9109420597
 40
0.9200179488
 40
0.9286464106
 40
0.9368374402
 40
0.9446043453
 40
0.9519642202
 40
0.9589386335
 40
0.9655543067
 40
0.9718438059
 40
0.9778461959
 40
0.9836073668
 40
0.9891800504
 40
0.9946230772
 40
1.0
 40
1.0
 40
1.0
 40
1.0
 10
13.3731448676
 20
9.6204301428
 30
0.0
 10
13.3731448676
 20
9.602455195
 30
0.0
 10
13.3728644397
 20
9.5662943709
 30
0.0
 10
13.3716247152
 20
9.5118066912
 30
0.0
 10
13.3695670809
 20
9.4568812385
 30
0.0
 10
13.3666982771
 20
9.4016998117
 30
0.0
 10
13.3630277875
 20
9.3464449933
 30
0.0
 10
13.358567743
 20
9.2912995749
 30
0.0
 10
13.3533329189
 20
9.2364460037
 30
0.0
 10
13.3473406683
 20
9.1820657475
 30
0.0
 10
13.3406108725
 20
9.1283386998
 30
0.0
 10
13.3331658731
 20
9.0754425771
 30
0.0
 10
13.3250304004
 20
9.0235523259
 30
0.0
 10
13.3162314927
 20
8.9728395366
 30
0.0
 10
13.3067984085
 20
8.9234718698
 30
0.0
 10
13.2967625331
 20
8.8756124801
 30
0.0
 10
13.2861572719
 20
8.8294194975
 30
0.0
 10
13.2750179581
 20
8.7850453589
 30
0.0
 10
13.2633816772
 20
8.7426367198
 30
0.0
 10
13.2531835985
 20
8.7086516313
 30
0.0
 10
13.2447890964
 20
8.6825640543
 30
0.0
 10
13.2384695508
 20
8.6638122081
 30
0.0
 10
13.232055373
 20
8.6456525051
 30
0.0
 10
13.2255518598
 20
8.6280999134
 30
0.0
 10
13.2189644052
 20
8.6111689189
 30
0.0
 10
13.212298455
 20
8.5948734796
 30
0.0
 10
13.2055595581
 20
8.5792270121
 30
0.0
 10
13.1987532435
 20
8.5642424012
 30
0.0
 10
13.1918852014
 20
8.549931944
 30
0.0
 10
13.184961017
 20
8.5363074041
 30
0.0
 10
13.177986487
 20
8.5233799074
 30
0.0
 10
13.1709672258
 20
8.5111600511
 30
0.0
 10
13.1639090838
 20
8.4996577432
 30
0.0
 10
13.1568176713
 20
8.4888823709
 30
0.0
 10
13.1496988142
 20
8.4788425917
 30
0.0
 10
13.1425580657
 20
8.4695465492
 30
0.0
 10
13.1354011174
 20
8.4610016497
 30
0.0
 10
13.1282333782
 20
8.4532147983
 30
0.0
 10
13.1210602646
 20
8.4461922252
 30
0.0
 10
13.1138869271
 20
8.4399397055
 30
0.0
 10
13.1067183896
 20
8.4344625334
 30
0.0
 10
13.0995595111
 20
8.4297656681
 30
0.0
 10
13.092415057
 20
8.425853948
 30
0.0
 10
13.0852899686
 20
8.4227320138
 30
0.0
 10
13.0781896627
 20
8.4204046706
 30
0.0
 10
13.071120066
 20
8.4188762437
 30
0.0
 10
13.0640897018
 20
8.4181506348
 30
0.0
 10
13.0594221404
 20
8.4182038928
 30
0.0
 10
13.0571140489
 20
8.41836396
 30
0.0
  0
SPLINE
  5
3A2
100
AcDbEntity
  8
0
100
AcDbSpline
 62
7
  6
CONTINUOUS
 70
0
 71
3
 72
47
 73
43
 74
0
 42
0.0000001
 43
0.0000001
 44
0.0000000001
 40
0.0
 40
0.0
 40
0.0
 40
0.0
 40
0.0063158953
 40
0.0126706964
 40
0.0191025413
 40
0.0256481068
 40
0.0323419887
 40
0.0392163511
 40
0.0536141938
 40
0.0611949453
 40
0.0690567093
 40
0.0772178306
 40
0.0856942536
 40
0.094499648
 40
0.1036457893
 40
0.1131425899
 40
0.1229983503
 40
0.1332200167
 40
0.1438131323
 40
0.1547821683
 40
0.1661305713
 40
0.1899729423
 40
0.2153524409
 40
0.2422683478
 40
0.2707106917
 40
0.3006617255
 40
0.3320970385
 40
0.3649863926
 40
0.3992943516
 40
0.4349809011
 40
0.4720019229
 40
0.5103095575
 40
0.5498524869
 40
0.5905762826
 40
0.6324236706
 40
0.6753347453
 40
0.7192471563
 40
0.7640962954
 40
0.8098156376
 40
0.856336788
 40
0.9035890146
 40
1.0
 40
1.0
 40
1.0
 40
1.0
 10
13.7727742305
 20
8.2469501435
 30
0.0
 10
13.7744027259
 20
8.2468372066
 30
0.0
 10
13.7776620486
 20
8.246477303
 30
0.0
 10
13.7825145135
 20
8.2455393234
 30
0.0
 10
13.7873345524
 20
8.2442031793
 30
0.0
 10
13.7921193058
 20
8.2424698533
 30
0.0
 10
13.7968669687
 20
8.2403405165
 30
0.0
 10
13.8032417575
 20
8.2369232481
 30
0.0
 10
13.8094434773
 20
8.2327400688
 30
0.0
 10
13.8154451087
 20
8.2278923382
 30
0.0
 10
13.819978387
 20
8.2238051611
 30
0.0
 10
13.8244632713
 20
8.21933175
 30
0.0
 10
13.828898575
 20
8.2144736467
 30
0.0
 10
13.8332825867
 20
8.2092330315
 30
0.0
 10
13.8376136084
 20
8.2036119647
 30
0.0
 10
13.8418900044
 20
8.1976127738
 30
0.0
 10
13.8461101484
 20
8.1912379054
 30
0.0
 10
13.850272304
 20
8.1844898981
 30
0.0
 10
13.8543748884
 20
8.1773715371
 30
0.0
 10
13.8584162786
 20
8.1698856758
 30
0.0
 10
13.863809873
 20
8.1592427442
 30
0.0
 10
13.8703688389
 20
8.1450213386
 30
0.0
 10
13.8778451203
 20
8.1268128879
 30
0.0
 10
13.8850393469
 20
8.1072199955
 30
0.0
 10
13.8919397489
 20
8.0862746338
 30
0.0
 10
13.898535005
 20
8.0640106186
 30
0.0
 10
13.9048141972
 20
8.0404642173
 30
0.0
 10
13.9107668916
 20
8.0156738731
 30
0.0
 10
13.9163832082
 20
7.9896801941
 30
0.0
 10
13.9216538007
 20
7.962525832
 30
0.0
 10
13.9265698845
 20
7.9342553919
 30
0.0
 10
13.9311232531
 20
7.9049153619
 30
0.0
 10
13.9353063345
 20
7.8745540387
 30
0.0
 10
13.939112161
 20
7.8432214287
 30
0.0
 10
13.9425343849
 20
7.8109691499
 30
0.0
 10
13.9455672899
 20
7.7778503532
 30
0.0
 10
13.9482058315
 20
7.7439196516
 30
0.0
 10
13.9504456223
 20
7.7092329853
 30
0.0
 10
13.9522829082
 20
7.6738475647
 30
0.0
 10
13.953714635
 20
7.6378217825
 30
0.0
 10
13.955088713
 20
7.5886851398
 30
0.0
 10
13.9554873001
 20
7.5515519838
 30
0.0
 10
13.9554873001
 20
7.5266335918
 30
0.0
  0
SPLINE
  5
3A3
100
AcDbEntity
  8
0
100
AcDbSpline
 62
7
  6
CONTINUOUS
 70
0
 71
3
 72
43
 73
39
 74
0
 42
0.0000001
 43
0.0000001
 44
0.0000000001
 40
0.0
 40
0.0
 40
0.0
 40
0.0
 40
0.0063651293
 40
0.0128694011
 40
0.0263987229
 40
0.0407929051
 40
0.0562111452
 40
0.0643463011
 40
0.0727813721
 40
0.0815272753
 40
0.0905932736
 40
0.0999873089
 40
0.1097160541
 40
0.1197849625
 40
0.1301985669
 40
0.1409604375
 40
0.1520732603
 40
0.1753578395
 40
0.2000618709
 40
0.2261842873
 40
0.2537163882
 40
0.2826428595
 40
0.3129427794
 40
0.3445903236
 40
0.3775552077
 40
0.4118032168
 40
0.4472966483
 40
0.4839945459
 40
0.5218529592
 40
0.560825285
 40
0.600862441
 40
0.6419129795
 40
0.6839233749
 40
0.7268381688
 40
0.7706000185
 40
0.8151501007
 40
0.9063695692
 40
1.0
 40
1.0
 40
1.0
 40
1.0
 10
13.7569489382
 20
8.2461088409
 30
0.0
 10
13.7584806044
 20
8.2456049666
 30
0.0
 10
13.7615410016
 20
8.2444716886
 30
0.0
 10
13.7676378144
 20
8.2417134107
 30
0.0
 10
13.7751999758
 20
8.2373164024
 30
0.0
 10
13.7839827306
 20
8.2306919902
 30
0.0
 10
13.7910244044
 20
8.2241241412
 30
0.0
 10
13.7965695733
 20
8.218212814
 30
0.0
 10
13.8007570354
 20
8.2133529869
 30
0.0
 10
13.8048969918
 20
8.208148275
 30
0.0
 10
13.8089882593
 20
8.2026004322
 30
0.0
 10
13.8130293068
 20
8.1967115327
 30
0.0
 10
13.8170186861
 20
8.1904837107
 30
0.0
 10
13.8209550345
 20
8.1839192986
 30
0.0
 10
13.8248368615
 20
8.1770206788
 30
0.0
 10
13.8286628
 20
8.1697903796
 30
0.0
 10
13.8337672195
 20
8.1595515009
 30
0.0
 10
13.8399822042
 20
8.1459252136
 30
0.0
 10
13.8470833565
 20
8.1285415758
 30
0.0
 10
13.8539289475
 20
8.1099054239
 30
0.0
 10
13.8605087974
 20
8.090044309
 30
0.0
 10
13.8668131667
 20
8.0689873064
 30
0.0
 10
13.8728326229
 20
8.0467654922
 30
0.0
 10
13.8785581045
 20
8.0234117108
 30
0.0
 10
13.883981024
 20
7.998960591
 30
0.0
 10
13.8890932357
 20
7.9734484474
 30
0.0
 10
13.8938870192
 20
7.9469132043
 30
0.0
 10
13.8983551477
 20
7.9193943531
 30
0.0
 10
13.9024909154
 20
7.8909328889
 30
0.0
 10
13.906288082
 20
7.8615712231
 30
0.0
 10
13.9097409036
 20
7.8313531267
 30
0.0
 10
13.9128442036
 20
7.8003236727
 30
0.0
 10
13.9155933107
 20
7.7685291499
 30
0.0
 10
13.9179840449
 20
7.7360170128
 30
0.0
 10
13.9200128642
 20
7.7028357253
 30
0.0
 10
13.9222486892
 20
7.6574108203
 30
0.0
 10
13.9240988802
 20
7.5993234623
 30
0.0
 10
13.9245776711
 20
7.5524956889
 30
0.0
 10
13.9245776711
 20
7.5287771818
 30
0.0
  0
SPLINE
  5
3A4
100
AcDbEntity
  8
0
100
AcDbSpline
 62
7
  6
CONTINUOUS
 70
0
 71
3
 72
48
 73
44
 74
0
 42
0.0000001
 43
0.0000001
 44
0.0000000001
 40
0.0
 40
0.0
 40
0.0
 40
0.0
 40
0.0310657504
 40
0.0622878203
 40
0.0936616453
 40
0.125178752
 40
0.1568279349
 40
0.1885952505
 40
0.2204643576
 40
0.2524168703
 40
0.2844327404
 40
0.3164906674
 40
0.3485685219
 40
0.3806437832
 40
0.4126939811
 40
0.4446971382
 40
0.4766322051
 40
0.5084794803
 40
0.5402210143
 40
0.5718409879
 40
0.6033260537
 40
0.6346656397
 40
0.6658522114
 40
0.6968814689
 40
0.7277524873
 40
0.7431320057
 40
0.7584732005
 40
0.7737769276
 40
0.7890442511
 40
0.8042764398
 40
0.8194749667
 40
0.8346414958
 40
0.849777875
 40
0.8648861311
 40
0.8799684529
 40
0.8950271814
 40
0.9100647999
 40
0.9250839148
 40
0.9400872429
 40
0.9550775973
 40
0.9700578676
 40
0.9850310036
 40
1.0
 40
1.0
 40
1.0
 40
1.0
 10
8.2835389452
 20
9.2042480455
 30
0.0
 10
8.2835389452
 20
9.1834233576
 30
0.0
 10
8.2850834341
 20
9.1416533511
 30
0.0
 10
8.2919795475
 20
9.0791950931
 30
0.0
 10
8.3034224677
 20
9.0170975136
 30
0.0
 10
8.3193496998
 20
8.9557020803
 30
0.0
 10
8.3396740605
 20
8.8953408975
 30
0.0
 10
8.3642847165
 20
8.8363417744
 30
0.0
 10
8.3930477638
 20
8.7790247264
 30
0.0
 10
8.4258067521
 20
8.7237006804
 30
0.0
 10
8.4623836207
 20
8.6706696803
 30
0.0
 10
8.5025797928
 20
8.6202194193
 30
0.0
 10
8.5461770732
 20
8.572623584
 30
0.0
 10
8.592938823
 20
8.5281403527
 30
0.0
 10
8.642611387
 20
8.4870111615
 30
0.0
 10
8.6949253429
 20
8.4494593231
 30
0.0
 10
8.7495968861
 20
8.4156887093
 30
0.0
 10
8.8063295002
 20
8.3858828555
 30
0.0
 10
8.8648154863
 20
8.3602039273
 30
0.0
 10
8.9247375118
 20
8.3387916404
 30
0.0
 10
8.9857704989
 20
8.3217627377
 30
0.0
 10
9.0475830554
 20
8.3092103296
 30
0.0
 10
9.1098402056
 20
8.3012032264
 30
0.0
 10
9.172201505
 20
8.2977853614
 30
0.0
 10
9.2240480352
 20
8.2987797389
 30
0.0
 10
9.2652266624
 20
8.3018843895
 30
0.0
 10
9.2958903741
 20
8.3053572435
 30
0.0
 10
9.3263266123
 20
8.3099724538
 30
0.0
 10
9.3564945275
 20
8.3157238344
 30
0.0
 10
9.3863529387
 20
8.3226036207
 30
0.0
 10
9.4158613043
 20
8.3306023715
 30
0.0
 10
9.4449794587
 20
8.339709324
 30
0.0
 10
9.4736677924
 20
8.3499121188
 30
0.0
 10
9.501887318
 20
8.3611968055
 30
0.0
 10
9.5295996103
 20
8.373548155
 30
0.0
 10
9.556766972
 20
8.3869493665
 30
0.0
 10
9.5833524862
 20
8.40138215
 30
0.0
 10
9.6093199265
 20
8.4168269884
 30
0.0
 10
9.6346339889
 20
8.4332628539
 30
0.0
 10
9.659260243
 20
8.4506673094
 30
0.0
 10
9.683165235
 20
8.4690168986
 30
0.0
 10
9.7063160187
 20
8.4882861966
 30
0.0
 10
9.7212282943
 20
8.5017300222
 30
0.0
 10
9.7285468672
 20
8.5085949121
 30
0.0
  0
SPLINE
  5
3A5
100
AcDbEntity
  8
0
100
AcDbSpline
 62
7
  6
CONTINUOUS
 70
0
 71
3
 72
52
 73
48
 74
0
 42
0.0000001
 43
0.0000001
 44
0.0000000001
 40
0.0
 40
0.0
 40
0.0
 40
0.0
 40
0.0054779976
 40
0.0111435779
 40
0.0170437058
 40
0.0232193186
 40
0.0297053529
 40
0.0365310873
 40
0.0437206899
 40
0.0512937975
 40
0.0592661322
 40
0.0676500129
 40
0.0764548713
 40
0.0856876193
 40
0.0953530434
 40
0.1054540403
 40
0.1159919165
 40
0.1269665241
 40
0.1383764959
 40
0.1502193107
 40
0.1624914871
 40
0.1751885996
 40
0.1883054464
 40
0.2018360323
 40
0.21577372
 40
0.2301111894
 40
0.2448405795
 40
0.2599534307
 40
0.2912926881
 40
0.3240524662
 40
0.3581487538
 40
0.393491487
 40
0.4299852106
 40
0.4675296737
 40
0.5060203766
 40
0.545349086
 40
0.5854043257
 40
0.626071852
 40
0.6672351181
 40
0.7087757294
 40
0.7505738962
 40
0.7925088797
 40
0.8344594415
 40
0.8763042791
 40
0.9179224975
 40
0.9591939862
 40
1.0
 40
1.0
 40
1.0
 40
1.0
 10
13.6240366725
 20
6.3276102488
 30
0.0
 10
13.6263271736
 20
6.3280305224
 30
0.0
 10
13.630944119
 20
6.329134096
 30
0.0
 10
13.6377999374
 20
6.331509716
 30
0.0
 10
13.644679272
 20
6.3346249916
 30
0.0
 10
13.6515762815
 20
6.3384756303
 30
0.0
 10
13.6584867907
 20
6.3430575362
 30
0.0
 10
13.665406353
 20
6.3483664156
 30
0.0
 10
13.6723305417
 20
6.3543978375
 30
0.0
 10
13.6792548107
 20
6.3611470198
 30
0.0
 10
13.6861744287
 20
6.3686088306
 30
0.0
 10
13.6930845817
 20
6.3767776327
 30
0.0
 10
13.699980283
 20
6.3856473291
 30
0.0
 10
13.7068565279
 20
6.3952112522
 30
0.0
 10
13.7137081789
 20
6.4054622356
 30
0.0
 10
13.7205301373
 20
6.4163925304
 30
0.0
 10
13.7273172029
 20
6.427993884
 30
0.0
 10
13.7340642564
 20
6.4402574726
 30
0.0
 10
13.7407660966
 20
6.4531739777
 30
0.0
 10
13.7474176328
 20
6.4667335296
 30
0.0
 10
13.7540137056
 20
6.4809257775
 30
0.0
 10
13.7605492874
 20
6.4957398424
 30
0.0
 10
13.767019291
 20
6.5111643806
 30
0.0
 10
13.7734187769
 20
6.5271875438
 30
0.0
 10
13.7797427564
 20
6.5437970372
 30
0.0
 10
13.7859863888
 20
6.5609800817
 30
0.0
 10
13.7921448412
 20
6.5787234878
 30
0.0
 10
13.8003353758
 20
6.6034096035
 30
0.0
 10
13.8103068009
 20
6.6355769941
 30
0.0
 10
13.8217192536
 20
6.6757338125
 30
0.0
 10
13.8326830987
 20
6.7177764708
 30
0.0
 10
13.8431643313
 20
6.7615755054
 30
0.0
 10
13.8531304205
 20
6.8069962648
 30
0.0
 10
13.8625504596
 20
6.8538989291
 30
0.0
 10
13.8713952471
 20
6.9021390781
 30
0.0
 10
13.8796373787
 20
6.951568116
 30
0.0
 10
13.8872513297
 20
7.0020337495
 30
0.0
 10
13.894213532
 20
7.053380462
 30
0.0
 10
13.9005024453
 20
7.1054500008
 30
0.0
 10
13.906098623
 20
7.1580818687
 30
0.0
 10
13.9109847704
 20
7.2111138242
 30
0.0
 10
13.9151457985
 20
7.264382384
 30
0.0
 10
13.918568869
 20
7.3177233326
 30
0.0
 10
13.9212434363
 20
7.3709722218
 30
0.0
 10
13.9231612754
 20
7.423964927
 30
0.0
 10
13.9243165149
 20
7.4765379437
 30
0.0
 10
13.9245776711
 20
7.5114302313
 30
0.0
 10
13.9245776711
 20
7.5287771818
 30
0.0
  0
SPLINE
  5
3A6
100
AcDbEntity
  8
0
100
AcDbSpline
 62
7
  6
CONTINUOUS
 70
0
 71
3
 72
21
 73
17
 74
0
 42
0.0000001
 43
0.0000001
 44
0.0000000001
 40
0.0
 40
0.0
 40
0.0
 40
0.0
 40
0.1270925002
 40
0.2534819167
 40
0.3164353195
 40
0.3792250371
 40
0.4418575724
 40
0.5043402358
 40
0.5666813898
 40
0.6288903986
 40
0.6909775281
 40
0.7529539102
 40
0.8148314486
 40
0.8766227418
 40
0.9383410126
 40
1.0
 40
1.0
 40
1.0
 40
1.0
 10
8.7327108452
 20
9.4831148098
 30
0.0
 10
8.7327108452
 20
9.5017270204
 30
0.0
 10
8.7342023064
 20
9.5388652265
 30
0.0
 10
8.7398303766
 20
9.5849174606
 30
0.0
 10
8.7465669619
 20
9.6212307115
 30
0.0
 10
8.7527183733
 20
9.648131459
 30
0.0
 10
8.7599649865
 20
9.6746862933
 30
0.0
 10
8.7682950791
 20
9.7008526599
 30
0.0
 10
8.7776951128
 20
9.7265879972
 30
0.0
 10
8.7881499608
 20
9.7518505579
 30
0.0
 10
8.7996426558
 20
9.7765993542
 30
0.0
 10
8.8121545258
 20
9.8007942758
 30
0.0
 10
8.8256653444
 20
9.8243959878
 30
0.0
 10
8.8401533175
 20
9.8473663275
 30
0.0
 10
8.8555944615
 20
9.8696675612
 30
0.0
 10
8.86651282
 20
9.8840719052
 30
0.0
 10
8.8721210806
 20
9.8911488613
 30
0.0
  0
SPLINE
  5
3A7
100
AcDbEntity
  8
0
100
AcDbSpline
 62
7
  6
CONTINUOUS
 70
0
 71
3
 72
49
 73
45
 74
0
 42
0.0000001
 43
0.0000001
 44
0.0000000001
 40
0.0
 40
0.0
 40
0.0
 40
0.0
 40
0.0066704173
 40
0.0132428534
 40
0.0197604443
 40
0.0262675126
 40
0.0328086194
 40
0.0394275724
 40
0.0461665439
 40
0.0530652474
 40
0.0601604775
 40
0.0674857224
 40
0.0750709668
 40
0.0829428634
 40
0.0911247083
 40
0.0996366965
 40
0.1084962988
 40
0.117718294
 40
0.1273152045
 40
0.1372975668
 40
0.1476739389
 40
0.1584513626
 40
0.1696354343
 40
0.1812303451
 40
0.2056625186
 40
0.2317631378
 40
0.2595318338
 40
0.2889571533
 40
0.3200182242
 40
0.3526862465
 40
0.3869255856
 40
0.4226945153
 40
0.4599458729
 40
0.4986277252
 40
0.5386838121
 40
0.5800538384
 40
0.6226738961
 40
0.66647683
 40
0.7113924558
 40
0.757347711
 40
0.8042672336
 40
0.8520731969
 40
0.9006851209
 40
1.0
 40
1.0
 40
1.0
 40
1.0
 10
13.7114407822
 20
7.9853895743
 30
0.0
 10
13.7126947251
 20
7.9856455283
 30
0.0
 10
13.7152056262
 20
7.9860552516
 30
0.0
 10
13.7189893953
 20
7.9863540131
 30
0.0
 10
13.7227538946
 20
7.9863309982
 30
0.0
 10
13.7264965379
 20
7.985985919
 30
0.0
 10
13.7302151414
 20
7.9853191664
 30
0.0
 10
13.7339075076
 20
7.9843312791
 30
0.0
 10
13.7375715585
 20
7.9830230048
 30
0.0
 10
13.7412054606
 20
7.9813955211
 30
0.0
 10
13.7448074696
 20
7.9794499319
 30
0.0
 10
13.7483759813
 20
7.9771875051
 30
0.0
 10
13.7519095747
 20
7.9746096782
 30
0.0
 10
13.7554067576
 20
7.971717769
 30
0.0
 10
13.7588661607
 20
7.9685132957
 30
0.0
 10
13.7622864447
 20
7.9649978472
 30
0.0
 10
13.7656661449
 20
7.9611729994
 30
0.0
 10
13.769003938
 20
7.957040567
 30
0.0
 10
13.7722984308
 20
7.9526024152
 30
0.0
 10
13.7755481581
 20
7.9478605012
 30
0.0
 10
13.778751804
 20
7.9428170045
 30
0.0
 10
13.7819079204
 20
7.9374741657
 30
0.0
 10
13.7850151361
 20
7.9318343626
 30
0.0
 10
13.789163583
 20
7.9237810434
 30
0.0
 10
13.7942012793
 20
7.9129721817
 30
0.0
 10
13.7999285548
 20
7.8990790728
 30
0.0
 10
13.805428716
 20
7.8840702912
 30
0.0
 10
13.8106917623
 20
7.8679729368
 30
0.0
 10
13.8157081358
 20
7.8508157925
 30
0.0
 10
13.8204686282
 20
7.8326298454
 30
0.0
 10
13.8249644503
 20
7.8134480076
 30
0.0
 10
13.8291872949
 20
7.7933051144
 30
0.0
 10
13.8331293772
 20
7.7722378286
 30
0.0
 10
13.8367834008
 20
7.7502845397
 30
0.0
 10
13.8401425823
 20
7.7274852897
 30
0.0
 10
13.84320072
 20
7.7038817102
 30
0.0
 10
13.8459521646
 20
7.6795169286
 30
0.0
 10
13.8483918134
 20
7.65443547
 30
0.0
 10
13.850515135
 20
7.6286832
 30
0.0
 10
13.8523182285
 20
7.6023072008
 30
0.0
 10
13.8537977368
 20
7.5753557424
 30
0.0
 10
13.8549509312
 20
7.5478781567
 30
0.0
 10
13.8560583313
 20
7.5103401564
 30
0.0
 10
13.856378909
 20
7.481956973
 30
0.0
 10
13.856378909
 20
7.4629022323
 30
0.0
  0
SPLINE
  5
3A8
100
AcDbEntity
  8
0
100
AcDbSpline
 62
7
  6
CONTINUOUS
 70
0
 71
3
 72
30
 73
26
 74
0
 42
0.0000001
 43
0.0000001
 44
0.0000000001
 40
0.0
 40
0.0
 40
0.0
 40
0.0
 40
0.0179470849
 40
0.0368404614
 40
0.0566916236
 40
0.0775070215
 40
0.0992892437
 40
0.1220370323
 40
0.1457462604
 40
0.1704097619
 40
0.1960181715
 40
0.2225596393
 40
0.250020578
 40
0.2783853095
 40
0.3076367452
 40
0.3377559963
 40
0.4005145805
 40
0.4664859532
 40
0.5354746493
 40
0.6072689307
 40
0.6816427039
 40
0.7583572383
 40
0.8371626644
 40
0.917799542
 40
1.0
 40
1.0
 40
1.0
 40
1.0
 10
13.6401081212
 20
7.9172037624
 30
0.0
 10
13.6415552823
 20
7.91483285
 30
0.0
 10
13.6444134376
 20
7.9098967009
 30
0.0
 10
13.6484988818
 20
7.902129392
 30
0.0
 10
13.6524881773
 20
7.8938170708
 30
0.0
 10
13.6563778332
 20
7.884967299
 30
0.0
 10
13.660164329
 20
7.8755878003
 30
0.0
 10
13.6638444014
 20
7.8656869405
 30
0.0
 10
13.6674146398
 20
7.8552735061
 30
0.0
 10
13.6708719453
 20
7.8443568119
 30
0.0
 10
13.6742130886
 20
7.8329466099
 30
0.0
 10
13.6774351562
 20
7.8210531373
 30
0.0
 10
13.6805351289
 20
7.8086870591
 30
0.0
 10
13.6835102896
 20
7.7958594955
 30
0.0
 10
13.6863578825
 20
7.7825819614
 30
0.0
 10
13.6900315553
 20
7.7640397298
 30
0.0
 10
13.694267351
 20
7.7398185524
 30
0.0
 10
13.6987370827
 20
7.7095425806
 30
0.0
 10
13.7026440671
 20
7.6777795991
 30
0.0
 10
13.7059739747
 20
7.6446440563
 30
0.0
 10
13.708714508
 20
7.6102551479
 30
0.0
 10
13.7108555611
 20
7.5747367793
 30
0.0
 10
13.712389222
 20
7.5382169161
 30
0.0
 10
13.7133098023
 20
7.5008273634
 30
0.0
 10
13.7135107961
 20
7.4756244287
 30
0.0
 10
13.7135107961
 20
7.4629022241
 30
0.0
  0
SPLINE
  5
3A9
100
AcDbEntity
  8
0
100
AcDbSpline
 62
7
  6
CONTINUOUS
 70
0
 71
3
 72
33
 73
29
 74
0
 42
0.0000001
 43
0.0000001
 44
0.0000000001
 40
0.0
 40
0.0
 40
0.0
 40
0.0
 40
0.0958348694
 40
0.1891075393
 40
0.2792507307
 40
0.3657221938
 40
0.4480135352
 40
0.5256551542
 40
0.5625998871
 40
0.5982279088
 40
0.6324952589
 40
0.6653619968
 40
0.6967931368
 40
0.7267585922
 40
0.7552346622
 40
0.7822039745
 40
0.8076576644
 40
0.8315956119
 40
0.8540295607
 40
0.8749841658
 40
0.8945014605
 40
0.9126434539
 40
0.9294983432
 40
0.9451850262
 40
0.9598600607
 40
0.9737213157
 40
0.9870092446
 40
1.0
 40
1.0
 40
1.0
 40
1.0
 10
13.6820381502
 20
11.5054647786
 30
0.0
 10
13.6875338791
 20
11.5050836485
 30
0.0
 10
13.6983704803
 20
11.5042107041
 30
0.0
 10
13.714337604
 20
11.5025443762
 30
0.0
 10
13.7297244009
 20
11.5005474771
 30
0.0
 10
13.7444282886
 20
11.4982335952
 30
0.0
 10
13.7583511913
 20
11.4956184528
 30
0.0
 10
13.769401765
 20
11.4931641773
 30
0.0
 10
13.7777749818
 20
11.4910527002
 30
0.0
 10
13.7836991501
 20
11.4894314534
 30
0.0
 10
13.7893621645
 20
11.4877490952
 30
0.0
 10
13.7947546164
 20
11.4860083876
 30
0.0
 10
13.7998675617
 20
11.4842123037
 30
0.0
 10
13.8046925296
 20
11.4823637912
 30
0.0
 10
13.8092215755
 20
11.480466006
 30
0.0
 10
13.8134472433
 20
11.4785220125
 30
0.0
 10
13.8173626658
 20
11.4765351056
 30
0.0
 10
13.8209614666
 20
11.474508398
 30
0.0
 10
13.8242379252
 20
11.4724452263
 30
0.0
 10
13.8271867811
 20
11.4703486255
 30
0.0
 10
13.8298034659
 20
11.4682217861
 30
0.0
 10
13.8320837344
 20
11.4660674422
 30
0.0
 10
13.8340239107
 20
11.4638883645
 30
0.0
 10
13.8356202219
 20
11.4616867988
 30
0.0
 10
13.8368689927
 20
11.4594652518
 30
0.0
 10
13.8377658488
 20
11.4572261913
 30
0.0
 10
13.8383065084
 20
11.4549744495
 30
0.0
 10
13.8384273688
 20
11.453461247
 30
0.0
 10
13.8384273602
 20
11.4527144922
 30
0.0
  0
SPLINE
  5
3AA
100
AcDbEntity
  8
0
100
AcDbSpline
 62
7
  6
CONTINUOUS
 70
0
 71
3
 72
23
 73
19
 74
0
 42
0.0000001
 43
0.0000001
 44
0.0000000001
 40
0.0
 40
0.0
 40
0.0
 40
0.0
 40
0.0427132103
 40
0.088523928
 40
0.137384527
 40
0.1892262727
 40
0.2439625764
 40
0.3014914597
 40
0.3616975322
 40
0.4244535559
 40
0.4896217244
 40
0.5570547736
 40
0.6265969276
 40
0.6980846647
 40
0.7713480498
 40
0.846209639
 40
0.9224903697
 40
1.0
 40
1.0
 40
1.0
 40
1.0
 10
13.6041974052
 20
7.8412106409
 30
0.0
 10
13.6062808716
 20
7.8360282559
 30
0.0
 10
13.6103243448
 20
7.8251760717
 30
0.0
 10
13.6158750604
 20
7.8080850302
 30
0.0
 10
13.621110531
 20
7.789650865
 30
0.0
 10
13.6260165965
 20
7.7699221145
 30
0.0
 10
13.630580158
 20
7.7489501971
 30
0.0
 10
13.634788936
 20
7.7267902503
 30
0.0
 10
13.6386316074
 20
7.7035006251
 30
0.0
 10
13.6420978219
 20
7.6791427818
 30
0.0
 10
13.6451782426
 20
7.6537810761
 30
0.0
 10
13.6478645689
 20
7.62748258
 30
0.0
 10
13.6501495564
 20
7.6003169041
 30
0.0
 10
13.6520270649
 20
7.5723559497
 30
0.0
 10
13.653492
 20
7.5436738996
 30
0.0
 10
13.6545404686
 20
7.5143464872
 30
0.0
 10
13.6551695381
 20
7.4844518034
 30
0.0
 10
13.655307239
 20
7.4643406764
 30
0.0
 10
13.655307239
 20
7.4542049132
 30
0.0
  0
SPLINE
  5
3AB
100
AcDbEntity
  8
0
100
AcDbSpline
 62
7
  6
CONTINUOUS
 70
0
 71
3
 72
53
 73
49
 74
0
 42
0.0000001
 43
0.0000001
 44
0.0000000001
 40
0.0
 40
0.0
 40
0.0
 40
0.0
 40
0.00561882
 40
0.0111420428
 40
0.0166418616
 40
0.0221914682
 40
0.0278619549
 40
0.0337195974
 40
0.0398239585
 40
0.0462268852
 40
0.0529723767
 40
0.0600969397
 40
0.0676303569
 40
0.075596455
 40
0.0840140046
 40
0.0928973914
 40
0.1022573641
 40
0.1121014886
 40
0.1224347163
 40
0.1332596478
 40
0.1445769649
 40
0.1563855586
 40
0.1686828695
 40
0.1814649241
 40
0.1947266187
 40
0.2084616942
 40
0.2226629851
 40
0.2373223538
 40
0.2524309172
 40
0.2679789554
 40
0.300350572
 40
0.3343473976
 40
0.3698695492
 40
0.4068090749
 40
0.4450509009
 40
0.4844736716
 40
0.524950517
 40
0.5663497708
 40
0.6085356546
 40
0.6513689391
 40
0.6947075901
 40
0.7384074048
 40
0.7823226395
 40
0.8263066389
 40
0.8702124484
 40
0.913893467
 40
0.9572039929
 40
1.0
 40
1.0
 40
1.0
 40
1.0
 10
13.6148152844
 20
6.5920903115
 30
0.0
 10
13.61649298
 20
6.5914971684
 30
0.0
 10
13.6198882905
 20
6.5905034984
 30
0.0
 10
13.6250967759
 20
6.5896232994
 30
0.0
 10
13.630352078
 20
6.589373435
 30
0.0
 10
13.6356457486
 20
6.5897542886
 30
0.0
 10
13.6409707502
 20
6.590764168
 30
0.0
 10
13.6463207295
 20
6.5924000267
 30
0.0
 10
13.6516904369
 20
6.5946581974
 30
0.0
 10
13.6570754647
 20
6.5975347021
 30
0.0
 10
13.6624718162
 20
6.6010256612
 30
0.0
 10
13.6678757095
 20
6.6051270853
 30
0.0
 10
13.6732832376
 20
6.6098349633
 30
0.0
 10
13.6786904401
 20
6.615144941
 30
0.0
 10
13.6840930989
 20
6.6210523896
 30
0.0
 10
13.6894869477
 20
6.6275521604
 30
0.0
 10
13.6948674925
 20
6.634638691
 30
0.0
 10
13.7002302604
 20
6.6423058358
 30
0.0
 10
13.7055706025
 20
6.6505469858
 30
0.0
 10
13.7108839501
 20
6.659354946
 30
0.0
 10
13.7161655971
 20
6.6687220483
 30
0.0
 10
13.721410957
 20
6.6786400588
 30
0.0
 10
13.7266153319
 20
6.6891002771
 30
0.0
 10
13.7317741682
 20
6.7000934635
 30
0.0
 10
13.7368828189
 20
6.7116099245
 30
0.0
 10
13.7419367978
 20
6.7236394552
 30
0.0
 10
13.746931541
 20
6.7361714125
 30
0.0
 10
13.7518626455
 20
6.7491946667
 30
0.0
 10
13.7567256918
 20
6.7626976814
 30
0.0
 10
13.7632003823
 20
6.7815799164
 30
0.0
 10
13.7710740045
 20
6.8063027328
 30
0.0
 10
13.7800617038
 20
6.837297514
 30
0.0
 10
13.7886789597
 20
6.8698957736
 30
0.0
 10
13.796894868
 20
6.9039815934
 30
0.0
 10
13.8046799349
 20
6.9394339657
 30
0.0
 10
13.8120062424
 20
6.9761268369
 30
0.0
 10
13.8188475304
 20
7.0139296962
 30
0.0
 10
13.8251792931
 20
7.0527080235
 30
0.0
 10
13.8309788631
 20
7.0923237891
 30
0.0
 10
13.8362254904
 20
7.132635952
 30
0.0
 10
13.8409004153
 20
7.1735009701
 30
0.0
 10
13.8449869332
 20
7.2147733167
 30
0.0
 10
13.8484704544
 20
7.2563060034
 30
0.0
 10
13.8513385538
 20
7.2979511094
 30
0.0
 10
13.8535810181
 20
7.3395603031
 30
0.0
 10
13.8551898772
 20
7.3809854167
 30
0.0
 10
13.8561594396
 20
7.4220787838
 30
0.0
 10
13.856378909
 20
7.4493488839
 30
0.0
 10
13.856378909
 20
7.4629022323
 30
0.0
  0
SPLINE
  5
3AC
100
AcDbEntity
  8
0
100
AcDbSpline
 62
7
  6
CONTINUOUS
 70
0
 71
3
 72
37
 73
33
 74
0
 42
0.0000001
 43
0.0000001
 44
0.0000000001
 40
0.0
 40
0.0
 40
0.0
 40
0.0
 40
0.0079016652
 40
0.0161298579
 40
0.0246881945
 40
0.033579108
 40
0.0428040983
 40
0.0523638704
 40
0.0724853532
 40
0.0939360497
 40
0.1166979527
 40
0.1407453368
 40
0.1660459151
 40
0.1925617138
 40
0.2202497469
 40
0.2490625336
 40
0.2789485602
 40
0.3098527074
 40
0.3417165896
 40
0.3744788461
 40
0.4080753935
 40
0.4424397184
 40
0.4775031281
 40
0.5131949765
 40
0.5494428699
 40
0.586172894
 40
0.6233098462
 40
0.6984971613
 40
0.7743866005
 40
0.8503511138
 40
0.9257626431
 40
1.0
 40
1.0
 40
1.0
 40
1.0
 10
13.5535262371
 20
6.6694074347
 30
0.0
 10
13.5548944646
 20
6.6710755631
 30
0.0
 10
13.5576261994
 20
6.6745313822
 30
0.0
 10
13.561632669
 20
6.6799536954
 30
0.0
 10
13.5656281964
 20
6.6857159547
 30
0.0
 10
13.5696105952
 20
6.6918149123
 30
0.0
 10
13.5735777805
 20
6.6982472881
 30
0.0
 10
13.5789357818
 20
6.7074210399
 30
0.0
 10
13.5855644394
 20
6.7197133457
 30
0.0
 10
13.5932936629
 20
6.7354914363
 30
0.0
 10
13.6009110313
 20
6.7525051385
 30
0.0
 10
13.6083997579
 20
6.7707172748
 30
0.0
 10
13.6157433304
 20
6.7900883023
 30
0.0
 10
13.6229254957
 20
6.8105758928
 30
0.0
 10
13.6299303358
 20
6.8321352083
 30
0.0
 10
13.6367423254
 20
6.8547189566
 30
0.0
 10
13.6433463755
 20
6.8782775268
 30
0.0
 10
13.6497278486
 20
6.9027591235
 30
0.0
 10
13.655872601
 20
6.928109893
 30
0.0
 10
13.6617670096
 20
6.9542740375
 30
0.0
 10
13.6673980304
 20
6.9811939346
 30
0.0
 10
13.6727531999
 20
7.0088102802
 30
0.0
 10
13.6778206639
 20
7.0370622283
 30
0.0
 10
13.6825892037
 20
7.0658875279
 30
0.0
 10
13.6870482598
 20
7.0952226338
 30
0.0
 10
13.6911880226
 20
7.1250029262
 30
0.0
 10
13.6962903872
 20
7.1653805447
 30
0.0
 10
13.7017989194
 20
7.216479877
 30
0.0
 10
13.7069847054
 20
7.2782595968
 30
0.0
 10
13.7107267812
 20
7.3402051821
 30
0.0
 10
13.7129923229
 20
7.4017705876
 30
0.0
 10
13.7135107961
 20
7.4426324147
 30
0.0
 10
13.7135107961
 20
7.4629022241
 30
0.0
  0
SPLINE
  5
3AD
100
AcDbEntity
  8
0
100
AcDbSpline
 62
7
  6
CONTINUOUS
 70
0
 71
3
 72
31
 73
27
 74
0
 42
0.0000001
 43
0.0000001
 44
0.0000000001
 40
0.0
 40
0.0
 40
0.0
 40
0.0
 40
0.0191182984
 40
0.0393940726
 40
0.0608144647
 40
0.0833608689
 40
0.1070096512
 40
0.1317329051
 40
0.1574989046
 40
0.184272396
 40
0.2120150622
 40
0.2406858137
 40
0.2702409212
 40
0.3006343162
 40
0.3318178334
 40
0.3637413015
 40
0.396352735
 40
0.4295985633
 40
0.4977705378
 40
0.5678029151
 40
0.6392233324
 40
0.7115472019
 40
0.7842820471
 40
0.8569318584
 40
0.9290008534
 40
1.0
 40
1.0
 40
1.0
 40
1.0
 10
13.5285251973
 20
6.7497358675
 30
0.0
 10
13.5308123283
 20
6.7537250583
 30
0.0
 10
13.5353519336
 20
6.7620450411
 30
0.0
 10
13.5418893398
 20
6.7751328456
 30
0.0
 10
13.548344261
 20
6.7891743042
 30
0.0
 10
13.5547048337
 20
6.8041439782
 30
0.0
 10
13.5609595658
 20
6.8200150418
 30
0.0
 10
13.5670970318
 20
6.836758865
 30
0.0
 10
13.5731060055
 20
6.8543452158
 30
0.0
 10
13.57897554
 20
6.8727422522
 30
0.0
 10
13.5846949131
 20
6.8919166386
 30
0.0
 10
13.5902536462
 20
6.9118336099
 30
0.0
 10
13.5956416016
 20
6.9324570122
 30
0.0
 10
13.6008489482
 20
6.9537493893
 30
0.0
 10
13.6058661552
 20
6.9756720706
 30
0.0
 10
13.6106840525
 20
6.9981852094
 30
0.0
 10
13.6152939085
 20
7.0212479076
 30
0.0
 10
13.6212008658
 20
7.0529395338
 30
0.0
 10
13.6279887419
 20
7.0936187175
 30
0.0
 10
13.6351159346
 20
7.1435356259
 30
0.0
 10
13.6412389131
 20
7.1945914934
 30
0.0
 10
13.6463128968
 20
7.2464152006
 30
0.0
 10
13.6503008662
 20
7.2986302583
 30
0.0
 10
13.6531737549
 20
7.3508572162
 30
0.0
 10
13.654910818
 20
7.402716385
 30
0.0
 10
13.655307239
 20
7.4371282212
 30
0.0
 10
13.655307239
 20
7.4542049132
 30
0.0
  0
SPLINE
  5
3AE
100
AcDbEntity
  8
0
100
AcDbSpline
 62
7
  6
CONTINUOUS
 70
0
 71
3
 72
71
 73
67
 74
0
 42
0.0000001
 43
0.0000001
 44
0.0000000001
 40
0.0
 40
0.0
 40
0.0
 40
0.0
 40
0.0156373785
 40
0.031327908
 40
0.0470702843
 40
0.0628636379
 40
0.078706081
 40
0.0945954869
 40
0.110529229
 40
0.1265042947
 40
0.1425172947
 40
0.1585644997
 40
0.1746418765
 40
0.1907451247
 40
0.2068697161
 40
0.223010935
 40
0.23916392
 40
0.2553237071
 40
0.2714852732
 40
0.2876435801
 40
0.3037936179
 40
0.3199304487
 40
0.3360492498
 40
0.3521453559
 40
0.3682143008
 40
0.3842518587
 40
0.4002540819
 40
0.4162173382
 40
0.4321383455
 40
0.4480142037
 40
0.4638424245
 40
0.4796209578
 40
0.4953482155
 40
0.5110230902
 40
0.5266449705
 40
0.5422137516
 40
0.5577298414
 40
0.5731941618
 40
0.588608145
 40
0.6039737248
 40
0.6192933216
 40
0.6345698226
 40
0.6498065561
 40
0.6650072606
 40
0.6801760496
 40
0.6953173702
 40
0.7104359597
 40
0.7255367959
 40
0.7406250456
 40
0.7557060099
 40
0.7707850676
 40
0.7858676178
 40
0.800959022
 40
0.8160645473
 40
0.8311893104
 40
0.8463382237
 40
0.8615159442
 40
0.8767268262
 40
0.8919748769
 40
0.9072637173
 40
0.9225965518
 40
0.9379761174
 40
0.9534047476
 40
0.9688840681
 40
0.9844157435
 40
1.0
 40
1.0
 40
1.0
 40
1.0
 10
8.3863199017
 20
9.2196065214
 30
0.0
 10
8.3863199017
 20
9.2070836389
 30
0.0
 10
8.3869369165
 20
9.1819910443
 30
0.0
 10
8.3897000058
 20
9.1443830174
 30
0.0
 10
8.3942957458
 20
9.1068280767
 30
0.0
 10
8.4007127121
 20
9.0694180837
 30
0.0
 10
8.4089355705
 20
9.0322425968
 30
0.0
 10
8.4189443492
 20
8.9953912857
 30
0.0
 10
8.4307149342
 20
8.9589528159
 30
0.0
 10
8.4442189207
 20
8.9230149176
 30
0.0
 10
8.4594237409
 20
8.8876640898
 30
0.0
 10
8.4762927362
 20
8.852985417
 30
0.0
 10
8.4947852542
 20
8.8190623626
 30
0.0
 10
8.5148567447
 20
8.7859765709
 30
0.0
 10
8.5364588668
 20
8.7538076721
 30
0.0
 10
8.5595396036
 20
8.722633092
 30
0.0
 10
8.5840433891
 20
8.6925278696
 30
0.0
 10
8.6099112242
 20
8.6635644622
 30
0.0
 10
8.6370808314
 20
8.6358125797
 30
0.0
 10
8.6654868084
 20
8.6093390222
 30
0.0
 10
8.6950607835
 20
8.5842075188
 30
0.0
 10
8.7257315788
 20
8.5604785768
 30
0.0
 10
8.7574253797
 20
8.5382093356
 30
0.0
 10
8.7900659131
 20
8.5174534334
 30
0.0
 10
8.8235746188
 20
8.4982608608
 30
0.0
 10
8.8578708452
 20
8.4806778472
 30
0.0
 10
8.8928720469
 20
8.4647467587
 30
0.0
 10
8.9284939806
 20
8.4505059947
 30
0.0
 10
8.9646509059
 20
8.4379898966
 30
0.0
 10
9.0012557893
 20
8.4272286635
 30
0.0
 10
9.038220513
 20
8.4182482837
 30
0.0
 10
9.0754560813
 20
8.411070453
 30
0.0
 10
9.1128728368
 20
8.4057125246
 30
0.0
 10
9.1503806785
 20
8.4021874803
 30
0.0
 10
9.1878892751
 20
8.4005038949
 30
0.0
 10
9.2253082814
 20
8.4006659152
 30
0.0
 10
9.2625475538
 20
8.402673247
 30
0.0
 10
9.299517366
 20
8.4065211575
 30
0.0
 10
9.3361286265
 20
8.4122004693
 30
0.0
 10
9.3722930961
 20
8.4196975774
 30
0.0
 10
9.4079235985
 20
8.428994498
 30
0.0
 10
9.4429342311
 20
8.4400689054
 30
0.0
 10
9.4772405713
 20
8.4528941847
 30
0.0
 10
9.5107598819
 20
8.4674394929
 30
0.0
 10
9.5434113103
 20
8.483669833
 30
0.0
 10
9.5751160903
 20
8.5015461273
 30
0.0
 10
9.6057977416
 20
8.5210253029
 30
0.0
 10
9.6353822473
 20
8.5420604141
 30
0.0
 10
9.6637982359
 20
8.5646007527
 30
0.0
 10
9.6909771549
 20
8.5885919705
 30
0.0
 10
9.7168534387
 20
8.6139762107
 30
0.0
 10
9.7413646671
 20
8.6406922498
 30
0.0
 10
9.7644517228
 20
8.6686756419
 30
0.0
 10
9.7860589484
 20
8.6978588676
 30
0.0
 10
9.8061342647
 20
8.7281715163
 30
0.0
 10
9.8246292986
 20
8.7595404561
 30
0.0
 10
9.8414994982
 20
8.7918900124
 30
0.0
 10
9.8567042398
 20
8.8251421528
 30
0.0
 10
9.8702069227
 20
8.8592166763
 30
0.0
 10
9.881975065
 20
8.8940314104
 30
0.0
 10
9.8919803735
 20
8.9295023883
 30
0.0
 10
9.9001988693
 20
8.9655441367
 30
0.0
 10
9.9066107328
 20
9.0020696099
 30
0.0
 10
9.9112008036
 20
9.0389912823
 30
0.0
 10
9.9139578342
 20
9.0762187748
 30
0.0
 10
9.9145685983
 20
9.1011417735
 30
0.0
 10
9.9145685983
 20
9.1136221143
 30
0.0
  0
SPLINE
  5
3AF
100
AcDbEntity
  8
0
100
AcDbSpline
 62
7
  6
CONTINUOUS
 70
0
 71
3
 72
53
 73
49
 74
0
 42
0.0000001
 43
0.0000001
 44
0.0000000001
 40
0.0
 40
0.0
 40
0.0
 40
0.0
 40
0.0417740478
 40
0.0840369835
 40
0.1266585592
 40
0.1695065657
 40
0.2124481957
 40
0.2553501644
 40
0.2980793779
 40
0.3405034127
 40
0.3824910553
 40
0.4239128269
 40
0.4646415185
 40
0.5045527309
 40
0.5435254266
 40
0.5814424966
 40
0.6181913512
 40
0.6536645436
 40
0.6877604426
 40
0.7203839756
 40
0.7361162401
 40
0.7514482063
 40
0.7663702194
 40
0.7808732533
 40
0.7949489098
 40
0.808589482
 40
0.8217880323
 40
0.8345384043
 40
0.8468353889
 40
0.8586746951
 40
0.8700532057
 40
0.8809689358
 40
0.8914213732
 40
0.9014114696
 40
0.9109420597
 40
0.9200179488
 40
0.9286464106
 40
0.9368374402
 40
0.9446043453
 40
0.9519642202
 40
0.9589386335
 40
0.9655543067
 40
0.9718438059
 40
0.9778461959
 40
0.9836073668
 40
0.9891800504
 40
0.9946230772
 40
1.0
 40
1.0
 40
1.0
 40
1.0
 10
13.2758290057
 20
6.8701340532
 30
0.0
 10
13.2758290057
 20
6.8521591054
 30
0.0
 10
13.2755485779
 20
6.8159982813
 30
0.0
 10
13.2743088533
 20
6.7615106017
 30
0.0
 10
13.272251219
 20
6.706585149
 30
0.0
 10
13.2693824152
 20
6.6514037222
 30
0.0
 10
13.2657119256
 20
6.5961489037
 30
0.0
 10
13.2612518811
 20
6.5410034853
 30
0.0
 10
13.256017057
 20
6.4861499141
 30
0.0
 10
13.2500248064
 20
6.4317696579
 30
0.0
 10
13.2432950106
 20
6.3780426103
 30
0.0
 10
13.2358500112
 20
6.3251464875
 30
0.0
 10
13.2277145385
 20
6.2732562363
 30
0.0
 10
13.2189156308
 20
6.2225434471
 30
0.0
 10
13.2094825466
 20
6.1731757802
 30
0.0
 10
13.1994466712
 20
6.1253163905
 30
0.0
 10
13.1888414101
 20
6.0791234079
 30
0.0
 10
13.1777020962
 20
6.0347492693
 30
0.0
 10
13.1660658153
 20
5.9923406302
 30
0.0
 10
13.1558677366
 20
5.9583555418
 30
0.0
 10
13.1474732345
 20
5.9322679647
 30
0.0
 10
13.141153689
 20
5.9135161186
 30
0.0
 10
13.1347395111
 20
5.8953564155
 30
0.0
 10
13.1282359979
 20
5.8778038239
 30
0.0
 10
13.1216485433
 20
5.8608728294
 30
0.0
 10
13.1149825931
 20
5.84457739
 30
0.0
 10
13.1082436962
 20
5.8289309226
 30
0.0
 10
13.1014373816
 20
5.8139463117
 30
0.0
 10
13.0945693396
 20
5.7996358544
 30
0.0
 10
13.0876451551
 20
5.7860113146
 30
0.0
 10
13.0806706251
 20
5.7730838178
 30
0.0
 10
13.0736513639
 20
5.7608639615
 30
0.0
 10
13.0665932219
 20
5.7493616537
 30
0.0
 10
13.0595018094
 20
5.7385862813
 30
0.0
 10
13.0523829523
 20
5.7285465021
 30
0.0
 10
13.0452422038
 20
5.7192504596
 30
0.0
 10
13.0380852555
 20
5.7107055601
 30
0.0
 10
13.0309175163
 20
5.7029187087
 30
0.0
 10
13.0237444027
 20
5.6958961357
 30
0.0
 10
13.0165710652
 20
5.6896436159
 30
0.0
 10
13.0094025277
 20
5.6841664438
 30
0.0
 10
13.0022436492
 20
5.6794695785
 30
0.0
 10
12.9950991951
 20
5.6755578584
 30
0.0
 10
12.9879741067
 20
5.6724359242
 30
0.0
 10
12.9808738008
 20
5.6701085811
 30
0.0
 10
12.9738042041
 20
5.6685801542
 30
0.0
 10
12.96677384
 20
5.6678545452
 30
0.0
 10
12.9621062785
 20
5.6679078033
 30
0.0
 10
12.959798187
 20
5.6680678705
 30
0.0
  0
SPLINE
  5
3B0
100
AcDbEntity
  8
0
100
AcDbSpline
 62
7
  6
CONTINUOUS
 70
0
 71
3
 72
47
 73
43
 74
0
 42
0.0000001
 43
0.0000001
 44
0.0000000001
 40
0.0
 40
0.0
 40
0.0
 40
0.0
 40
0.0063158953
 40
0.0126706964
 40
0.0191025413
 40
0.0256481068
 40
0.0323419887
 40
0.0392163511
 40
0.0536141938
 40
0.0611949453
 40
0.0690567093
 40
0.0772178306
 40
0.0856942536
 40
0.094499648
 40
0.1036457893
 40
0.1131425899
 40
0.1229983503
 40
0.1332200167
 40
0.1438131323
 40
0.1547821683
 40
0.1661305713
 40
0.1899729423
 40
0.2153524409
 40
0.2422683478
 40
0.2707106917
 40
0.3006617255
 40
0.3320970385
 40
0.3649863926
 40
0.3992943516
 40
0.4349809011
 40
0.4720019229
 40
0.5103095575
 40
0.5498524869
 40
0.5905762826
 40
0.6324236706
 40
0.6753347453
 40
0.7192471563
 40
0.7640962954
 40
0.8098156376
 40
0.856336788
 40
0.9035890146
 40
1.0
 40
1.0
 40
1.0
 40
1.0
 10
13.093115936
 20
7.5904506049
 30
0.0
 10
13.0947444315
 20
7.590337668
 30
0.0
 10
13.0980037541
 20
7.5899777644
 30
0.0
 10
13.102856219
 20
7.5890397849
 30
0.0
 10
13.107676258
 20
7.5877036407
 30
0.0
 10
13.1124610113
 20
7.5859703147
 30
0.0
 10
13.1172086742
 20
7.5838409779
 30
0.0
 10
13.123583463
 20
7.5804237095
 30
0.0
 10
13.1297851828
 20
7.5762405303
 30
0.0
 10
13.1357868143
 20
7.5713927996
 30
0.0
 10
13.1403200925
 20
7.5673056225
 30
0.0
 10
13.1448049768
 20
7.5628322114
 30
0.0
 10
13.1492402805
 20
7.5579741081
 30
0.0
 10
13.1536242923
 20
7.5527334929
 30
0.0
 10
13.1579553139
 20
7.5471124261
 30
0.0
 10
13.16223171
 20
7.5411132352
 30
0.0
 10
13.1664518539
 20
7.5347383668
 30
0.0
 10
13.1706140095
 20
7.5279903595
 30
0.0
 10
13.1747165939
 20
7.5208719985
 30
0.0
 10
13.1787579842
 20
7.5133861372
 30
0.0
 10
13.1841515786
 20
7.5027432056
 30
0.0
 10
13.1907105444
 20
7.4885218
 30
0.0
 10
13.1981868258
 20
7.4703133493
 30
0.0
 10
13.2053810524
 20
7.450720457
 30
0.0
 10
13.2122814545
 20
7.4297750952
 30
0.0
 10
13.2188767105
 20
7.40751108
 30
0.0
 10
13.2251559027
 20
7.3839646787
 30
0.0
 10
13.2311085971
 20
7.3591743345
 30
0.0
 10
13.2367249137
 20
7.3331806555
 30
0.0
 10
13.2419955063
 20
7.3060262934
 30
0.0
 10
13.24691159
 20
7.2777558533
 30
0.0
 10
13.2514649586
 20
7.2484158233
 30
0.0
 10
13.2556480401
 20
7.2180545001
 30
0.0
 10
13.2594538665
 20
7.1867218901
 30
0.0
 10
13.2628760904
 20
7.1544696113
 30
0.0
 10
13.2659089954
 20
7.1213508146
 30
0.0
 10
13.268547537
 20
7.087420113
 30
0.0
 10
13.2707873278
 20
7.0527334467
 30
0.0
 10
13.2726246137
 20
7.0173480261
 30
0.0
 10
13.2740563406
 20
6.9813222439
 30
0.0
 10
13.2754304185
 20
6.9321856012
 30
0.0
 10
13.2758290057
 20
6.8950524452
 30
0.0
 10
13.2758290057
 20
6.8701340532
 30
0.0
  0
SPLINE
  5
3B1
100
AcDbEntity
  8
0
100
AcDbSpline
 62
7
  6
CONTINUOUS
 70
0
 71
3
 72
43
 73
39
 74
0
 42
0.0000001
 43
0.0000001
 44
0.0000000001
 40
0.0
 40
0.0
 40
0.0
 40
0.0
 40
0.0063651293
 40
0.0128694011
 40
0.0263987229
 40
0.0407929051
 40
0.0562111452
 40
0.0643463011
 40
0.0727813721
 40
0.0815272753
 40
0.0905932736
 40
0.0999873089
 40
0.1097160541
 40
0.1197849625
 40
0.1301985669
 40
0.1409604375
 40
0.1520732603
 40
0.1753578395
 40
0.2000618709
 40
0.2261842873
 40
0.2537163882
 40
0.2826428595
 40
0.3129427794
 40
0.3445903236
 40
0.3775552077
 40
0.4118032168
 40
0.4472966483
 40
0.4839945459
 40
0.5218529592
 40
0.560825285
 40
0.600862441
 40
0.6419129795
 40
0.6839233749
 40
0.7268381688
 40
0.7706000185
 40
0.8151501007
 40
0.9063695692
 40
1.0
 40
1.0
 40
1.0
 40
1.0
 10
13.0772906437
 20
7.5896093023
 30
0.0
 10
13.0788223099
 20
7.589105428
 30
0.0
 10
13.0818827071
 20
7.58797215
 30
0.0
 10
13.0879795199
 20
7.5852138721
 30
0.0
 10
13.0955416814
 20
7.5808168638
 30
0.0
 10
13.1043244361
 20
7.5741924517
 30
0.0
 10
13.1113661099
 20
7.5676246026
 30
0.0
 10
13.1169112788
 20
7.5617132754
 30
0.0
 10
13.1210987409
 20
7.5568534483
 30
0.0
 10
13.1252386973
 20
7.5516487364
 30
0.0
 10
13.1293299649
 20
7.5461008936
 30
0.0
 10
13.1333710123
 20
7.5402119941
 30
0.0
 10
13.1373603916
 20
7.5339841721
 30
0.0
 10
13.14129674
 20
7.52741976
 30
0.0
 10
13.145178567
 20
7.5205211402
 30
0.0
 10
13.1490045055
 20
7.513290841
 30
0.0
 10
13.154108925
 20
7.5030519623
 30
0.0
 10
13.1603239097
 20
7.489425675
 30
0.0
 10
13.1674250621
 20
7.4720420372
 30
0.0
 10
13.174270653
 20
7.4534058853
 30
0.0
 10
13.180850503
 20
7.4335447704
 30
0.0
 10
13.1871548722
 20
7.4124877678
 30
0.0
 10
13.1931743284
 20
7.3902659536
 30
0.0
 10
13.19889981
 20
7.3669121723
 30
0.0
 10
13.2043227295
 20
7.3424610524
 30
0.0
 10
13.2094349413
 20
7.3169489088
 30
0.0
 10
13.2142287247
 20
7.2904136657
 30
0.0
 10
13.2186968532
 20
7.2628948145
 30
0.0
 10
13.222832621
 20
7.2344333503
 30
0.0
 10
13.2266297876
 20
7.2050716845
 30
0.0
 10
13.2300826091
 20
7.1748535881
 30
0.0
 10
13.2331859092
 20
7.1438241341
 30
0.0
 10
13.2359350162
 20
7.1120296113
 30
0.0
 10
13.2383257504
 20
7.0795174742
 30
0.0
 10
13.2403545697
 20
7.0463361868
 30
0.0
 10
13.2425903947
 20
7.0009112817
 30
0.0
 10
13.2444405857
 20
6.9428239237
 30
0.0
 10
13.2449193767
 20
6.8959961503
 30
0.0
 10
13.2449193767
 20
6.8722776433
 30
0.0
  0
SPLINE
  5
3B2
100
AcDbEntity
  8
0
100
AcDbSpline
 62
7
  6
CONTINUOUS
 70
0
 71
3
 72
49
 73
45
 74
0
 42
0.0000001
 43
0.0000001
 44
0.0000000001
 40
0.0
 40
0.0
 40
0.0
 40
0.0
 40
0.0066704173
 40
0.0132428534
 40
0.0197604443
 40
0.0262675126
 40
0.0328086194
 40
0.0394275724
 40
0.0461665439
 40
0.0530652474
 40
0.0601604775
 40
0.0674857224
 40
0.0750709668
 40
0.0829428634
 40
0.0911247083
 40
0.0996366965
 40
0.1084962988
 40
0.117718294
 40
0.1273152045
 40
0.1372975668
 40
0.1476739389
 40
0.1584513626
 40
0.1696354343
 40
0.1812303451
 40
0.2056625186
 40
0.2317631378
 40
0.2595318338
 40
0.2889571533
 40
0.3200182242
 40
0.3526862465
 40
0.3869255856
 40
0.4226945153
 40
0.4599458729
 40
0.4986277252
 40
0.5386838121
 40
0.5800538384
 40
0.6226738961
 40
0.66647683
 40
0.7113924558
 40
0.757347711
 40
0.8042672336
 40
0.8520731969
 40
0.9006851209
 40
1.0
 40
1.0
 40
1.0
 40
1.0
 10
13.0317824877
 20
7.3288900357
 30
0.0
 10
13.0330364306
 20
7.3291459897
 30
0.0
 10
13.0355473317
 20
7.329555713
 30
0.0
 10
13.0393311008
 20
7.3298544745
 30
0.0
 10
13.0430956001
 20
7.3298314596
 30
0.0
 10
13.0468382434
 20
7.3294863804
 30
0.0
 10
13.0505568469
 20
7.3288196278
 30
0.0
 10
13.0542492131
 20
7.3278317405
 30
0.0
 10
13.057913264
 20
7.3265234662
 30
0.0
 10
13.0615471661
 20
7.3248959825
 30
0.0
 10
13.0651491751
 20
7.3229503933
 30
0.0
 10
13.0687176868
 20
7.3206879665
 30
0.0
 10
13.0722512802
 20
7.3181101396
 30
0.0
 10
13.0757484631
 20
7.3152182304
 30
0.0
 10
13.0792078662
 20
7.3120137571
 30
0.0
 10
13.0826281502
 20
7.3084983086
 30
0.0
 10
13.0860078504
 20
7.3046734608
 30
0.0
 10
13.0893456435
 20
7.3005410284
 30
0.0
 10
13.0926401363
 20
7.2961028767
 30
0.0
 10
13.0958898636
 20
7.2913609626
 30
0.0
 10
13.0990935096
 20
7.2863174659
 30
0.0
 10
13.1022496259
 20
7.2809746272
 30
0.0
 10
13.1053568416
 20
7.275334824
 30
0.0
 10
13.1095052885
 20
7.2672815048
 30
0.0
 10
13.1145429848
 20
7.2564726431
 30
0.0
 10
13.1202702603
 20
7.2425795342
 30
0.0
 10
13.1257704215
 20
7.2275707526
 30
0.0
 10
13.1310334678
 20
7.2114733982
 30
0.0
 10
13.1360498414
 20
7.1943162539
 30
0.0
 10
13.1408103338
 20
7.1761303068
 30
0.0
 10
13.1453061558
 20
7.156948469
 30
0.0
 10
13.1495290005
 20
7.1368055758
 30
0.0
 10
13.1534710827
 20
7.11573829
 30
0.0
 10
13.1571251064
 20
7.0937850011
 30
0.0
 10
13.1604842878
 20
7.0709857511
 30
0.0
 10
13.1635424255
 20
7.0473821716
 30
0.0
 10
13.1662938701
 20
7.02301739
 30
0.0
 10
13.1687335189
 20
6.9979359315
 30
0.0
 10
13.1708568405
 20
6.9721836614
 30
0.0
 10
13.172659934
 20
6.9458076622
 30
0.0
 10
13.1741394423
 20
6.9188562038
 30
0.0
 10
13.1752926367
 20
6.8913786181
 30
0.0
 10
13.1764000368
 20
6.8538406179
 30
0.0
 10
13.1767206146
 20
6.8254574344
 30
0.0
 10
13.1767206146
 20
6.8064026937
 30
0.0
  0
SPLINE
  5
3B3
100
AcDbEntity
  8
0
100
AcDbSpline
 62
7
  6
CONTINUOUS
 70
0
 71
3
 72
30
 73
26
 74
0
 42
0.0000001
 43
0.0000001
 44
0.0000000001
 40
0.0
 40
0.0
 40
0.0
 40
0.0
 40
0.0179470849
 40
0.0368404614
 40
0.0566916236
 40
0.0775070215
 40
0.0992892437
 40
0.1220370323
 40
0.1457462604
 40
0.1704097619
 40
0.1960181715
 40
0.2225596393
 40
0.250020578
 40
0.2783853095
 40
0.3076367452
 40
0.3377559963
 40
0.4005145805
 40
0.4664859532
 40
0.5354746493
 40
0.6072689307
 40
0.6816427039
 40
0.7583572383
 40
0.8371626644
 40
0.917799542
 40
1.0
 40
1.0
 40
1.0
 40
1.0
 10
12.9604498268
 20
7.2607042238
 30
0.0
 10
12.9618969879
 20
7.2583333114
 30
0.0
 10
12.9647551431
 20
7.2533971623
 30
0.0
 10
12.9688405873
 20
7.2456298534
 30
0.0
 10
12.9728298828
 20
7.2373175322
 30
0.0
 10
12.9767195387
 20
7.2284677604
 30
0.0
 10
12.9805060345
 20
7.2190882617
 30
0.0
 10
12.9841861069
 20
7.2091874019
 30
0.0
 10
12.9877563453
 20
7.1987739675
 30
0.0
 10
12.9912136509
 20
7.1878572733
 30
0.0
 10
12.9945547941
 20
7.1764470714
 30
0.0
 10
12.9977768617
 20
7.1645535987
 30
0.0
 10
13.0008768344
 20
7.1521875205
 30
0.0
 10
13.0038519951
 20
7.1393599569
 30
0.0
 10
13.006699588
 20
7.1260824228
 30
0.0
 10
13.0103732608
 20
7.1075401912
 30
0.0
 10
13.0146090565
 20
7.0833190138
 30
0.0
 10
13.0190787882
 20
7.053043042
 30
0.0
 10
13.0229857726
 20
7.0212800605
 30
0.0
 10
13.0263156802
 20
6.9881445177
 30
0.0
 10
13.0290562135
 20
6.9537556093
 30
0.0
 10
13.0311972666
 20
6.9182372407
 30
0.0
 10
13.0327309275
 20
6.8817173776
 30
0.0
 10
13.0336515078
 20
6.8443278248
 30
0.0
 10
13.0338525017
 20
6.8191248901
 30
0.0
 10
13.0338525017
 20
6.8064026855
 30
0.0
  0
SPLINE
  5
3B4
100
AcDbEntity
  8
0
100
AcDbSpline
 62
7
  6
CONTINUOUS
 70
0
 71
3
 72
23
 73
19
 74
0
 42
0.0000001
 43
0.0000001
 44
0.0000000001
 40
0.0
 40
0.0
 40
0.0
 40
0.0
 40
0.0427132103
 40
0.088523928
 40
0.137384527
 40
0.1892262727
 40
0.2439625764
 40
0.3014914597
 40
0.3616975322
 40
0.4244535559
 40
0.4896217244
 40
0.5570547736
 40
0.6265969276
 40
0.6980846647
 40
0.7713480498
 40
0.846209639
 40
0.9224903697
 40
1.0
 40
1.0
 40
1.0
 40
1.0
 10
12.9245391107
 20
7.1847111023
 30
0.0
 10
12.9266225771
 20
7.1795287173
 30
0.0
 10
12.9306660503
 20
7.1686765331
 30
0.0
 10
12.9362167659
 20
7.1515854916
 30
0.0
 10
12.9414522365
 20
7.1331513264
 30
0.0
 10
12.946358302
 20
7.1134225759
 30
0.0
 10
12.9509218636
 20
7.0924506586
 30
0.0
 10
12.9551306416
 20
7.0702907117
 30
0.0
 10
12.9589733129
 20
7.0470010865
 30
0.0
 10
12.9624395274
 20
7.0226432432
 30
0.0
 10
12.9655199481
 20
6.9972815375
 30
0.0
 10
12.9682062744
 20
6.9709830414
 30
0.0
 10
12.970491262
 20
6.9438173655
 30
0.0
 10
12.9723687704
 20
6.9158564111
 30
0.0
 10
12.9738337055
 20
6.887174361
 30
0.0
 10
12.9748821741
 20
6.8578469487
 30
0.0
 10
12.9755112436
 20
6.8279522648
 30
0.0
 10
12.9756489446
 20
6.8078411378
 30
0.0
 10
12.9756489446
 20
6.7977053747
 30
0.0
  0
SPLINE
  5
3B5
100
AcDbEntity
  8
0
100
AcDbSpline
 62
7
  6
CONTINUOUS
 70
0
 71
3
 72
23
 73
19
 74
0
 42
0.0000001
 43
0.0000001
 44
0.0000000001
 40
0.0
 40
0.0
 40
0.0
 40
0.0
 40
0.0637383848
 40
0.1272788171
 40
0.1906188402
 40
0.2537657639
 40
0.3167244642
 40
0.3795024846
 40
0.4421089401
 40
0.5045543017
 40
0.5668505287
 40
0.6290108911
 40
0.69104988
 40
0.7529830802
 40
0.8148270276
 40
0.8765990728
 40
0.9383172282
 40
1.0
 40
1.0
 40
1.0
 40
1.0
 10
8.7896614745
 20
9.4916248967
 30
0.0
 10
8.7896614745
 20
9.501479771
 30
0.0
 10
8.7901088577
 20
9.5211619129
 30
0.0
 10
8.7921277812
 20
9.5505750071
 30
0.0
 10
8.7954897645
 20
9.5797736738
 30
0.0
 10
8.8001875256
 20
9.6086962049
 30
0.0
 10
8.8062116533
 20
9.6372831819
 30
0.0
 10
8.8135496038
 20
9.6654751809
 30
0.0
 10
8.8221861957
 20
9.6932138002
 30
0.0
 10
8.8321036037
 20
9.7204415227
 30
0.0
 10
8.8432813537
 20
9.7471018636
 30
0.0
 10
8.8556962767
 20
9.7731395471
 30
0.0
 10
8.8693226454
 20
9.7985005774
 30
0.0
 10
8.884132259
 20
9.8231323596
 30
0.0
 10
8.9000944368
 20
9.84698372
 30
0.0
 10
8.9171762281
 20
9.8700053735
 30
0.0
 10
8.935341594
 20
9.8921489246
 30
0.0
 10
8.9481530021
 20
9.9062995122
 30
0.0
 10
8.954724429
 20
9.9132112132
 30
0.0
  0
SPLINE
  5
3B6
100
AcDbEntity
  8
0
100
AcDbSpline
 62
7
  6
CONTINUOUS
 70
0
 71
3
 72
52
 73
48
 74
0
 42
0.0000001
 43
0.0000001
 44
0.0000000001
 40
0.0
 40
0.0
 40
0.0
 40
0.0
 40
0.0054779976
 40
0.0111435779
 40
0.0170437058
 40
0.0232193186
 40
0.0297053529
 40
0.0365310873
 40
0.0437206899
 40
0.0512937975
 40
0.0592661322
 40
0.0676500129
 40
0.0764548713
 40
0.0856876193
 40
0.0953530434
 40
0.1054540403
 40
0.1159919165
 40
0.1269665241
 40
0.1383764959
 40
0.1502193107
 40
0.1624914871
 40
0.1751885996
 40
0.1883054464
 40
0.2018360323
 40
0.21577372
 40
0.2301111894
 40
0.2448405795
 40
0.2599534307
 40
0.2912926881
 40
0.3240524662
 40
0.3581487538
 40
0.393491487
 40
0.4299852106
 40
0.4675296737
 40
0.5060203766
 40
0.545349086
 40
0.5854043257
 40
0.626071852
 40
0.6672351181
 40
0.7087757294
 40
0.7505738962
 40
0.7925088797
 40
0.8344594415
 40
0.8763042791
 40
0.9179224975
 40
0.9591939862
 40
1.0
 40
1.0
 40
1.0
 40
1.0
 10
12.9443783781
 20
5.6711107102
 30
0.0
 10
12.9466688791
 20
5.6715309838
 30
0.0
 10
12.9512858245
 20
5.6726345574
 30
0.0
 10
12.9581416429
 20
5.6750101774
 30
0.0
 10
12.9650209775
 20
5.678125453
 30
0.0
 10
12.9719179871
 20
5.6819760917
 30
0.0
 10
12.9788284963
 20
5.6865579977
 30
0.0
 10
12.9857480585
 20
5.691866877
 30
0.0
 10
12.9926722472
 20
5.6978982989
 30
0.0
 10
12.9995965162
 20
5.7046474812
 30
0.0
 10
13.0065161342
 20
5.712109292
 30
0.0
 10
13.0134262872
 20
5.7202780941
 30
0.0
 10
13.0203219885
 20
5.7291477906
 30
0.0
 10
13.0271982334
 20
5.7387117136
 30
0.0
 10
13.0340498844
 20
5.7489626971
 30
0.0
 10
13.0408718428
 20
5.7598929918
 30
0.0
 10
13.0476589084
 20
5.7714943454
 30
0.0
 10
13.0544059619
 20
5.783757934
 30
0.0
 10
13.0611078021
 20
5.7966744392
 30
0.0
 10
13.0677593383
 20
5.810233991
 30
0.0
 10
13.0743554111
 20
5.8244262389
 30
0.0
 10
13.0808909929
 20
5.8392403038
 30
0.0
 10
13.0873609965
 20
5.854664842
 30
0.0
 10
13.0937604824
 20
5.8706880052
 30
0.0
 10
13.1000844619
 20
5.8872974986
 30
0.0
 10
13.1063280943
 20
5.9044805431
 30
0.0
 10
13.1124865467
 20
5.9222239493
 30
0.0
 10
13.1206770813
 20
5.9469100649
 30
0.0
 10
13.1306485065
 20
5.9790774555
 30
0.0
 10
13.1420609592
 20
6.0192342739
 30
0.0
 10
13.1530248042
 20
6.0612769322
 30
0.0
 10
13.1635060368
 20
6.1050759669
 30
0.0
 10
13.173472126
 20
6.1504967262
 30
0.0
 10
13.1828921651
 20
6.1973993905
 30
0.0
 10
13.1917369526
 20
6.2456395395
 30
0.0
 10
13.1999790842
 20
6.2950685774
 30
0.0
 10
13.2075930353
 20
6.3455342109
 30
0.0
 10
13.2145552375
 20
6.3968809234
 30
0.0
 10
13.2208441509
 20
6.4489504622
 30
0.0
 10
13.2264403285
 20
6.5015823301
 30
0.0
 10
13.2313264759
 20
6.5546142856
 30
0.0
 10
13.2354875041
 20
6.6078828454
 30
0.0
 10
13.2389105745
 20
6.661223794
 30
0.0
 10
13.2415851418
 20
6.7144726832
 30
0.0
 10
13.243502981
 20
6.7674653884
 30
0.0
 10
13.2446582204
 20
6.8200384051
 30
0.0
 10
13.2449193767
 20
6.8549306927
 30
0.0
 10
13.2449193767
 20
6.8722776433
 30
0.0
  0
SPLINE
  5
3B7
100
AcDbEntity
  8
0
100
AcDbSpline
 62
7
  6
CONTINUOUS
 70
0
 71
3
 72
53
 73
49
 74
0
 42
0.0000001
 43
0.0000001
 44
0.0000000001
 40
0.0
 40
0.0
 40
0.0
 40
0.0
 40
0.00561882
 40
0.0111420428
 40
0.0166418616
 40
0.0221914682
 40
0.0278619549
 40
0.0337195974
 40
0.0398239585
 40
0.0462268852
 40
0.0529723767
 40
0.0600969397
 40
0.0676303569
 40
0.075596455
 40
0.0840140046
 40
0.0928973914
 40
0.1022573641
 40
0.1121014886
 40
0.1224347163
 40
0.1332596478
 40
0.1445769649
 40
0.1563855586
 40
0.1686828695
 40
0.1814649241
 40
0.1947266187
 40
0.2084616942
 40
0.2226629851
 40
0.2373223538
 40
0.2524309172
 40
0.2679789554
 40
0.300350572
 40
0.3343473976
 40
0.3698695492
 40
0.4068090749
 40
0.4450509009
 40
0.4844736716
 40
0.524950517
 40
0.5663497708
 40
0.6085356546
 40
0.6513689391
 40
0.6947075901
 40
0.7384074048
 40
0.7823226395
 40
0.8263066389
 40
0.8702124484
 40
0.913893467
 40
0.9572039929
 40
1.0
 40
1.0
 40
1.0
 40
1.0
 10
12.9351569899
 20
5.9355907729
 30
0.0
 10
12.9368346855
 20
5.9349976298
 30
0.0
 10
12.940229996
 20
5.9340039598
 30
0.0
 10
12.9454384814
 20
5.9331237608
 30
0.0
 10
12.9506937835
 20
5.9328738964
 30
0.0
 10
12.9559874541
 20
5.93325475
 30
0.0
 10
12.9613124557
 20
5.9342646294
 30
0.0
 10
12.966662435
 20
5.9359004881
 30
0.0
 10
12.9720321425
 20
5.9381586588
 30
0.0
 10
12.9774171702
 20
5.9410351635
 30
0.0
 10
12.9828135217
 20
5.9445261226
 30
0.0
 10
12.9882174151
 20
5.9486275467
 30
0.0
 10
12.9936249431
 20
5.9533354247
 30
0.0
 10
12.9990321457
 20
5.9586454024
 30
0.0
 10
13.0044348044
 20
5.9645528511
 30
0.0
 10
13.0098286532
 20
5.9710526218
 30
0.0
 10
13.015209198
 20
5.9781391524
 30
0.0
 10
13.0205719659
 20
5.9858062972
 30
0.0
 10
13.0259123081
 20
5.9940474472
 30
0.0
 10
13.0312256556
 20
6.0028554074
 30
0.0
 10
13.0365073026
 20
6.0122225097
 30
0.0
 10
13.0417526625
 20
6.0221405202
 30
0.0
 10
13.0469570374
 20
6.0326007385
 30
0.0
 10
13.0521158737
 20
6.043593925
 30
0.0
 10
13.0572245244
 20
6.0551103859
 30
0.0
 10
13.0622785033
 20
6.0671399166
 30
0.0
 10
13.0672732465
 20
6.0796718739
 30
0.0
 10
13.072204351
 20
6.0926951281
 30
0.0
 10
13.0770673974
 20
6.1061981428
 30
0.0
 10
13.0835420878
 20
6.1250803778
 30
0.0
 10
13.09141571
 20
6.1498031942
 30
0.0
 10
13.1004034093
 20
6.1807979754
 30
0.0
 10
13.1090206652
 20
6.213396235
 30
0.0
 10
13.1172365735
 20
6.2474820548
 30
0.0
 10
13.1250216404
 20
6.2829344271
 30
0.0
 10
13.1323479479
 20
6.3196272983
 30
0.0
 10
13.1391892359
 20
6.3574301576
 30
0.0
 10
13.1455209987
 20
6.3962084849
 30
0.0
 10
13.1513205686
 20
6.4358242505
 30
0.0
 10
13.1565671959
 20
6.4761364134
 30
0.0
 10
13.1612421208
 20
6.5170014315
 30
0.0
 10
13.1653286387
 20
6.5582737781
 30
0.0
 10
13.1688121599
 20
6.5998064648
 30
0.0
 10
13.1716802593
 20
6.6414515708
 30
0.0
 10
13.1739227236
 20
6.6830607645
 30
0.0
 10
13.1755315827
 20
6.7244858781
 30
0.0
 10
13.1765011452
 20
6.7655792452
 30
0.0
 10
13.1767206146
 20
6.7928493454
 30
0.0
 10
13.1767206146
 20
6.8064026937
 30
0.0
  0
SPLINE
  5
3B8
100
AcDbEntity
  8
0
100
AcDbSpline
 62
7
  6
CONTINUOUS
 70
0
 71
3
 72
37
 73
33
 74
0
 42
0.0000001
 43
0.0000001
 44
0.0000000001
 40
0.0
 40
0.0
 40
0.0
 40
0.0
 40
0.0079016652
 40
0.0161298579
 40
0.0246881945
 40
0.033579108
 40
0.0428040983
 40
0.0523638704
 40
0.0724853532
 40
0.0939360497
 40
0.1166979527
 40
0.1407453368
 40
0.1660459151
 40
0.1925617138
 40
0.2202497469
 40
0.2490625336
 40
0.2789485602
 40
0.3098527074
 40
0.3417165896
 40
0.3744788461
 40
0.4080753935
 40
0.4424397184
 40
0.4775031281
 40
0.5131949765
 40
0.5494428699
 40
0.586172894
 40
0.6233098462
 40
0.6984971613
 40
0.7743866005
 40
0.8503511138
 40
0.9257626431
 40
1.0
 40
1.0
 40
1.0
 40
1.0
 10
12.8738679426
 20
6.0129078961
 30
0.0
 10
12.8752361701
 20
6.0145760245
 30
0.0
 10
12.877967905
 20
6.0180318436
 30
0.0
 10
12.8819743746
 20
6.0234541568
 30
0.0
 10
12.8859699019
 20
6.0292164161
 30
0.0
 10
12.8899523007
 20
6.0353153737
 30
0.0
 10
12.893919486
 20
6.0417477495
 30
0.0
 10
12.8992774873
 20
6.0509215013
 30
0.0
 10
12.9059061449
 20
6.0632138071
 30
0.0
 10
12.9136353684
 20
6.0789918977
 30
0.0
 10
12.9212527368
 20
6.0960055999
 30
0.0
 10
12.9287414634
 20
6.1142177362
 30
0.0
 10
12.9360850359
 20
6.1335887637
 30
0.0
 10
12.9432672012
 20
6.1540763542
 30
0.0
 10
12.9502720413
 20
6.1756356697
 30
0.0
 10
12.9570840309
 20
6.198219418
 30
0.0
 10
12.963688081
 20
6.2217779882
 30
0.0
 10
12.9700695542
 20
6.2462595849
 30
0.0
 10
12.9762143065
 20
6.2716103544
 30
0.0
 10
12.9821087151
 20
6.2977744989
 30
0.0
 10
12.987739736
 20
6.324694396
 30
0.0
 10
12.9930949054
 20
6.3523107416
 30
0.0
 10
12.9981623694
 20
6.3805626897
 30
0.0
 10
13.0029309092
 20
6.4093879894
 30
0.0
 10
13.0073899653
 20
6.4387230952
 30
0.0
 10
13.0115297281
 20
6.4685033876
 30
0.0
 10
13.0166320928
 20
6.5088810061
 30
0.0
 10
13.022140625
 20
6.5599803384
 30
0.0
 10
13.027326411
 20
6.6217600582
 30
0.0
 10
13.0310684867
 20
6.6837056435
 30
0.0
 10
13.0333340284
 20
6.745271049
 30
0.0
 10
13.0338525017
 20
6.7861328761
 30
0.0
 10
13.0338525017
 20
6.8064026855
 30
0.0
  0
SPLINE
  5
3B9
100
AcDbEntity
  8
0
100
AcDbSpline
 62
7
  6
CONTINUOUS
 70
0
 71
3
 72
23
 73
19
 74
0
 42
0.0000001
 43
0.0000001
 44
0.0000000001
 40
0.0
 40
0.0
 40
0.0
 40
0.0
 40
0.063638969
 40
0.1270840637
 40
0.1903407442
 40
0.2534141889
 40
0.3163120085
 40
0.379042994
 40
0.4416173704
 40
0.504046699
 40
0.5663437563
 40
0.6285224513
 40
0.6905977128
 40
0.7525853667
 40
0.8145019995
 40
0.8763648141
 40
0.9381914835
 40
1.0
 40
1.0
 40
1.0
 40
1.0
 10
10.0910059056
 20
6.4922186702
 30
0.0
 10
10.0916369103
 20
6.5033370754
 30
0.0
 10
10.0933942339
 20
6.5255150873
 30
0.0
 10
10.0975209881
 20
6.5585774189
 30
0.0
 10
10.1031264267
 20
6.591321805
 30
0.0
 10
10.1101996102
 20
6.6236826853
 30
0.0
 10
10.1187265619
 20
6.6555961812
 30
0.0
 10
10.1286904889
 20
6.6869991031
 30
0.0
 10
10.1400716912
 20
6.7178293221
 30
0.0
 10
10.1528476913
 20
6.7480258152
 30
0.0
 10
10.1669932658
 20
6.7775288045
 30
0.0
 10
10.1824804883
 20
6.8062798663
 30
0.0
 10
10.1992787046
 20
6.8342220898
 30
0.0
 10
10.2173546965
 20
6.8613001729
 30
0.0
 10
10.236672661
 20
6.8874604526
 30
0.0
 10
10.2571945886
 20
6.9126512913
 30
0.0
 10
10.2788791721
 20
6.9368221313
 30
0.0
 10
10.2940845007
 20
6.9522265741
 30
0.0
 10
10.3018639488
 20
6.9597409378
 30
0.0
  0
SPLINE
  5
3BA
100
AcDbEntity
  8
0
100
AcDbSpline
 62
7
  6
CONTINUOUS
 70
0
 71
3
 72
31
 73
27
 74
0
 42
0.0000001
 43
0.0000001
 44
0.0000000001
 40
0.0
 40
0.0
 40
0.0
 40
0.0
 40
0.0191182984
 40
0.0393940726
 40
0.0608144647
 40
0.0833608689
 40
0.1070096512
 40
0.1317329051
 40
0.1574989046
 40
0.184272396
 40
0.2120150622
 40
0.2406858137
 40
0.2702409212
 40
0.3006343162
 40
0.3318178334
 40
0.3637413015
 40
0.396352735
 40
0.4295985633
 40
0.4977705378
 40
0.5678029151
 40
0.6392233324
 40
0.7115472019
 40
0.7842820471
 40
0.8569318584
 40
0.9290008534
 40
1.0
 40
1.0
 40
1.0
 40
1.0
 10
12.8488669028
 20
6.0932363289
 30
0.0
 10
12.8511540338
 20
6.0972255197
 30
0.0
 10
12.8556936392
 20
6.1055455025
 30
0.0
 10
12.8622310453
 20
6.118633307
 30
0.0
 10
12.8686859665
 20
6.1326747656
 30
0.0
 10
12.8750465392
 20
6.1476444396
 30
0.0
 10
12.8813012713
 20
6.1635155032
 30
0.0
 10
12.8874387373
 20
6.1802593264
 30
0.0
 10
12.893447711
 20
6.1978456772
 30
0.0
 10
12.8993172455
 20
6.2162427136
 30
0.0
 10
12.9050366187
 20
6.2354171
 30
0.0
 10
12.9105953518
 20
6.2553340714
 30
0.0
 10
12.9159833071
 20
6.2759574736
 30
0.0
 10
12.9211906537
 20
6.2972498507
 30
0.0
 10
12.9262078608
 20
6.319172532
 30
0.0
 10
12.931025758
 20
6.3416856708
 30
0.0
 10
12.935635614
 20
6.364748369
 30
0.0
 10
12.9415425713
 20
6.3964399952
 30
0.0
 10
12.9483304475
 20
6.4371191789
 30
0.0
 10
12.9554576401
 20
6.4870360873
 30
0.0
 10
12.9615806186
 20
6.5380919548
 30
0.0
 10
12.9666546023
 20
6.589915662
 30
0.0
 10
12.9706425717
 20
6.6421307197
 30
0.0
 10
12.9735154604
 20
6.6943576777
 30
0.0
 10
12.9752525236
 20
6.7462168465
 30
0.0
 10
12.9756489446
 20
6.7806286826
 30
0.0
 10
12.9756489446
 20
6.7977053747
 30
0.0
  0
SPLINE
  5
3BB
100
AcDbEntity
  8
0
100
AcDbSpline
 62
7
  6
CONTINUOUS
 70
0
 71
3
 72
23
 73
19
 74
0
 42
0.0000001
 43
0.0000001
 44
0.0000000001
 40
0.0
 40
0.0
 40
0.0
 40
0.0
 40
0.0637776288
 40
0.1273446152
 40
0.1907020433
 40
0.2538561391
 40
0.3168131818
 40
0.3795820998
 40
0.442173387
 40
0.5045993408
 40
0.5668738683
 40
0.6290123813
 40
0.69103165
 40
0.7529496426
 40
0.8147853504
 40
0.8765585998
 40
0.9382898528
 40
1.0
 40
1.0
 40
1.0
 40
1.0
 10
8.2755155615
 20
9.1964980514
 30
0.0
 10
8.2755155615
 20
9.2099983495
 30
0.0
 10
8.2761616959
 20
9.236958934
 30
0.0
 10
8.2790782713
 20
9.2772358947
 30
0.0
 10
8.2839342144
 20
9.3171934597
 30
0.0
 10
8.2907181766
 20
9.3567381163
 30
0.0
 10
8.2994147939
 20
9.395779218
 30
0.0
 10
8.3100040152
 20
9.4342266027
 30
0.0
 10
8.3224615639
 20
9.471991671
 30
0.0
 10
8.3367587927
 20
9.5089873226
 30
0.0
 10
8.3528628221
 20
9.5451282344
 30
0.0
 10
8.3707365797
 20
9.5803310481
 30
0.0
 10
8.3903389005
 20
9.6145145548
 30
0.0
 10
8.4116246464
 20
9.647599913
 30
0.0
 10
8.4345446964
 20
9.679510724
 30
0.0
 10
8.4590464853
 20
9.7101736149
 30
0.0
 10
8.4850725356
 20
9.7395169007
 30
0.0
 10
8.5034029015
 20
9.7581576164
 30
0.0
 10
8.5127982855
 20
9.7672328467
 30
0.0
  0
SPLINE
  5
3BC
100
AcDbEntity
  8
0
100
AcDbSpline
 62
7
  6
CONTINUOUS
 70
0
 71
3
 72
23
 73
19
 74
0
 42
0.0000001
 43
0.0000001
 44
0.0000000001
 40
0.0
 40
0.0
 40
0.0
 40
0.0
 40
0.0637442733
 40
0.1272879991
 40
0.1906307738
 40
0.2537789012
 40
0.3167375554
 40
0.3795145776
 40
0.4421191511
 40
0.5045620247
 40
0.5668554076
 40
0.6290128467
 40
0.6910491273
 40
0.7529801395
 40
0.8148227434
 40
0.8765946171
 40
0.9383140955
 40
1.0
 40
1.0
 40
1.0
 40
1.0
 10
9.9860737282
 20
6.4424742802
 30
0.0
 10
9.9860737282
 20
6.4553713925
 30
0.0
 10
9.9866634617
 20
6.4811290265
 30
0.0
 10
9.989325043
 20
6.5196197612
 30
0.0
 10
9.9937570068
 20
6.5578265659
 30
0.0
 10
9.999949764
 20
6.5956677169
 30
0.0
 10
10.0078906022
 20
6.6330641769
 30
0.0
 10
10.0175628038
 20
6.6699370963
 30
0.0
 10
10.0289461304
 20
6.7062089539
 30
0.0
 10
10.0420166758
 20
6.741803429
 30
0.0
 10
10.0567469995
 20
6.7766456276
 30
0.0
 10
10.0731061738
 20
6.8106622269
 30
0.0
 10
10.0910598359
 20
6.8437816228
 30
0.0
 10
10.1105702857
 20
6.8759341092
 30
0.0
 10
10.1315964257
 20
6.9070519536
 30
0.0
 10
10.1540942479
 20
6.9370698909
 30
0.0
 10
10.1780156138
 20
6.9659238681
 30
0.0
 10
10.1948835399
 20
6.9843486455
 30
0.0
 10
10.2035348659
 20
6.9933442672
 30
0.0
  0
SPLINE
  5
3BD
100
AcDbEntity
  8
0
100
AcDbSpline
 62
7
  6
CONTINUOUS
 70
0
 71
3
 72
15
 73
11
 74
0
 42
0.0000001
 43
0.0000001
 44
0.0000000001
 40
0.0
 40
0.0
 40
0.0
 40
0.0
 40
0.1261301777
 40
0.2518293477
 40
0.377144529
 40
0.5021290747
 40
0.6268418396
 40
0.7513462337
 40
0.8757091808
 40
1.0
 40
1.0
 40
1.0
 40
1.0
 10
11.0728703721
 20
5.6612794938
 30
0.0
 10
11.0876985889
 20
5.6649394731
 30
0.0
 10
11.1170791788
 20
5.6731978867
 30
0.0
 10
11.1601828482
 20
5.6883801
 30
0.0
 10
11.2020828224
 20
5.7062787106
 30
0.0
 10
11.2426160159
 20
5.7268247247
 30
0.0
 10
11.2816274017
 20
5.7499395557
 30
0.0
 10
11.3189676068
 20
5.7755351254
 30
0.0
 10
11.3544914974
 20
5.8035115447
 30
0.0
 10
11.3768792486
 20
5.8236847489
 30
0.0
 10
11.3877199079
 20
5.8341249393
 30
0.0
  0
LINE
  5
3BE
100
AcDbEntity
  8
0
100
AcDbLine
 62
7
  6
CONTINUOUS
 10
11.3877199079
 20
5.8341249393
 11
11.3884476204
 21
5.8348268113
  0
ENDSEC
  0
SECTION
  2
OBJECTS
  0
DICTIONARY
  5
C
100
AcDbDictionary
280
0
281
1
  3
ACAD_GROUP
350
D
  3
ACAD_MLINESTYLE
350
17
  3
ACAD_LAYOUT
350
1A
  3
ACAD_PLOTSETTINGS
350
19
  3
ACAD_PLOTSTYLENAME
350
E
  3
ACAD_IMAGE_DICT
350
       3C0
  3
ACAD_IMAGE_VARS
350
       3C1
  3
ACAD_TABLESTYLE
350
       3C2
  0
IMAGEDEF_REACTOR
  5
3BF
100
AcDbRasterImageDefReactor
 90
2
330
27F
  0
DICTIONARY
  5
D
102
{ACAD_REACTORS
330
C
102
}
100
AcDbDictionary
280
0
281
1
  0
ACDBDICTIONARYWDFLT
  5
E
102
{ACAD_REACTORS
330
C
102
}
100
AcDbDictionary
281
1
  3
Normal
350
F
100
AcDbDictionaryWithDefault
340
F
  0
DICTIONARY
  5
3C0
330
C
100
AcDbDictionary
281
1
  3
H8M_assy_2_img_1
350
       3C5
  0
RASTERVARIABLES
  5
3C1
330
C
100
AcDbRasterVariables
 90
0
 70
0
 71
1
 72
5
  0
DICTIONARY
  5
17
102
{ACAD_REACTORS
330
C
102
}
100
AcDbDictionary
280
0
281
1
  3
Standard
350
18
  0
DICTIONARY
  5
3C2
330
C
100
AcDbDictionary
281
1
  3
Standard
350
       3C6
  3
Standard1
350
       3C7
  0
DICTIONARY
  5
19
102
{ACAD_REACTORS
330
C
102
}
100
AcDbDictionary
281
1
  0
DICTIONARY
  5
1A
102
{ACAD_REACTORS
330
C
102
}
100
AcDbDictionary
281
1
  3
Model
350
3C3
  3
Layout1
350
3C4
  0
ACDBPLACEHOLDER
  5
F
102
{ACAD_REACTORS
330
E
102
}
  0
MLINESTYLE
  5
18
102
{ACAD_REACTORS
330
17
102
}
100
AcDbMlineStyle
  2
STANDARD
 70
0
  3

 62
256
 51
90.0
 52
90.0
 71
2
 49
0.5
 62
256
  6
BYLAYER
 49
-0.5
 62
256
  6
BYLAYER
  0
LAYOUT
  5
3C3
102
{ACAD_REACTORS
330
1A
102
}
100
AcDbPlotSettings
  1

  2
none_device
  4
ANSI_C_(22.00_x_17.00_Inches)
  6

 40
0.0
 41
0.0
 42
0.0
 43
0.0
 44
558.8
 45
431.8
 46
0.0
 47
0.0
 48
0.0
 49
0.0
140
0.0
141
0.0
142
1.0
143
1.0
 70
1024
 72
0
 73
0
 74
0
  7

 75
0
147
1.0
148
0.0
149
0.0
100
AcDbLayout
  1
Model
 70
0
 71
0
 10
0.0
 20
0.0
 11
22.0
 21
17.0
 12
0.0
 22
0.0
 32
0.0
 14
0.0
 24
0.0
 34
0.0
 15
0.0
 25
0.0
 35
0.0
146
0.0
 13
0.0
 23
0.0
 33
0.0
 16
1.0
 26
0.0
 36
0.0
 17
0.0
 27
1.0
 37
0.0
 76
0
330
204
345
0
346
0
  0
LAYOUT
  5
3C4
102
{ACAD_REACTORS
330
1A
102
}
100
AcDbPlotSettings
  1

  2
none_device
  4
ANSI_C_(22.00_x_17.00_Inches)
  6

 40
0.0
 41
0.0
 42
0.0
 43
0.0
 44
558.8
 45
431.8
 46
0.0
 47
0.0
 48
0.0
 49
0.0
140
0.0
141
0.0
142
1.0
143
1.0
 70
0
 72
0
 73
0
 74
0
  7

 75
0
147
1.0
148
0.0
149
0.0
100
AcDbLayout
  1
Layout1
 70
0
 71
1
 10
0.0
 20
0.0
 11
22.0
 21
17.0
 12
0.0
 22
0.0
 32
0.0
 14
0.0
 24
0.0
 34
0.0
 15
0.0
 25
0.0
 35
0.0
146
0.0
 13
0.0
 23
0.0
 33
0.0
 16
1.0
 26
0.0
 36
0.0
 17
0.0
 27
1.0
 37
0.0
 76
0
330
205
345
0
346
0
  0
IMAGEDEF
  5
3C5
102
{ACAD_REACTORS
330
3C0
330
3BF
102
}
100
AcDbRasterImageDef
 90
0
  1
H8M_assy_2_img_1.png
 10
369.0
 20
92.0
 11
0.0066666667
 21
0.0066666667
280
1
281
0
  0
TABLESTYLE
  5
3C6
102
{ACAD_REACTORS
330
3C2
330
282
330
283
102
}
330
3C2
100
AcDbTableStyle
  3
Standard
 70
0
 71
0
 40
0.06
 41
0.06
280
1
281
1
  7
Standard
140
0.18
170
1
 62
0
 63
7
283
0
  7
Standard
140
0.18
170
1
 62
0
 63
7
283
0
  7
Standard
140
0.18
170
1
 62
0
 63
7
283
0
  0
TABLESTYLE
  5
3C7
102
{ACAD_REACTORS
330
3C2
330
281
102
}
330
3C2
100
AcDbTableStyle
  3
Standard1
 70
1
 71
0
 40
0.06
 41
0.06
280
1
281
1
  7
Standard
140
0.18
170
1
 62
0
 63
7
283
0
  7
Standard
140
0.18
170
1
 62
0
 63
7
283
0
  7
Standard
140
0.18
170
1
 62
0
 63
7
283
0
  0
ENDSEC
  0
EOF
