999
DXF file: H8L_assy_2.dxf
999
Pro/ENGINEER 2014200 by Parametric Technology Corporation
  0
SECTION
  2
HEADER
  9
$ACADVER
  1
AC1021
  9
$DWGCODEPAGE
  3
ANSI_1252
  9
$EXTMAX
 10
22.0
 20
17.0
 30
0.0
  9
$EXTMIN
 10
0.0
 20
0.0
 30
0.0
  9
$LIMMIN
 10
0.0
 20
0.0
  9
$LIMMAX
 10
22.0
 20
17.0
  9
$VIEWCTR
 10
11.0
 20
8.5
  9
$VIEWSIZE
 40
17.0
  9
$CLAYER
  8
0
  9
$LTSCALE
 40
1.21
  9
$CELTYPE
  6
BYLAYER
  9
$DIMSCALE
 40
1.0
  9
$DIMASZ
 40
0.1875
  9
$DIMEXO
 40
0.0625
  9
$DIMDLI
 40
0.836
  9
$DIMEXE
 40
0.125
  9
$DIMCEN
 40
0.198
  9
$DIMLFAC
 40
1.0
  9
$DIMBLK
  1
_FILLED
  9
$DIMTXT
 40
0.1
  9
$DIMTOL
 70
0
  9
$DIMLIM
 70
0
  9
$DIMTFAC
 40
1.0
  9
$DIMGAP
 40
0.09
  9
$DIMDSEP
 70
46
  9
$AUNITS
 70
0
  9
$PDMODE
 70
3
  9
$PDSIZE
 40
0.3125
  9
$HANDSEED
  5
3B8
  9
$TILEMODE
 70
1
  9
$MEASUREMENT
 70
0
  9
$INSUNITS
 70
1
  0
ENDSEC
  0
SECTION
  2
CLASSES
  0
CLASS
  1
ACDBDICTIONARYWDFLT
  2
AcDbDictionaryWithDefault
  3
AutoCAD 2000
 90
0
 91
1
280
0
281
0
  0
CLASS
  1
ACDBPLACEHOLDER
  2
AcDbPlaceHolder
  3
AutoCAD 2000
 90
0
 91
1
280
0
281
0
  0
CLASS
  1
LAYOUT
  2
AcDbLayout
  3
AutoCAD 2000
 90
0
 91
0
280
0
281
0
  0
CLASS
  1
RASTERVARIABLES
  2
AcDbRasterVariables
  3
ISM
 90
0
 91
1
280
0
281
0
  0
CLASS
  1
IMAGEDEF
  2
AcDbRasterImageDef
  3
ISM
 90
0
 91
1
280
0
281
0
  0
CLASS
  1
IMAGEDEF_REACTOR
  2
AcDbRasterImageDefReactor
  3
ISM
 90
0
 91
1
280
0
281
0
  0
CLASS
  1
IMAGE
  2
AcDbRasterImage
  3
ISM
 90
127
 91
1
280
0
281
1
  0
CLASS
  1
TABLESTYLE
  2
AcDbTableStyle
  3
ObjectDBX Classes
 90
2047
 91
1
280
0
281
0
  0
CLASS
  1
ACAD_TABLE
  2
AcDbTable
  3
ObjectDBX Classes
 90
1025
 91
3
280
0
281
1
  0
ENDSEC
  0
SECTION
  2
TABLES
  0
TABLE
  2
VPORT
  5
8
100
AcDbSymbolTable
 70
2
  0
VPORT
  5
1F4
100
AcDbSymbolTableRecord
100
AcDbViewportTableRecord
  2
*ACTIVE
 70
0
 10
0.0
 20
0.0
 11
1.0
 21
1.0
 12
11.0
 22
8.5
 13
0.0
 23
0.0
 14
1.0
 24
1.0
 15
0.0
 25
0.0
 16
0.0
 26
0.0
 36
1.0
 17
0.0
 27
0.0
 37
0.0
 40
17.0
 41
1.2941176471
 42
50.0
 43
0.0
 44
0.0
 50
0.0
 51
0.0
 71
0
 72
100
 73
1
 74
1
 75
0
 76
0
 77
0
 78
0
  0
ENDTAB
  0
TABLE
  2
LTYPE
  5
5
100
AcDbSymbolTable
 70
6
  0
LTYPE
  5
14
100
AcDbSymbolTableRecord
100
AcDbLinetypeTableRecord
  2
BYBLOCK
 70
0
  3

 72
65
 73
0
 40
0.0
  0
LTYPE
  5
15
100
AcDbSymbolTableRecord
100
AcDbLinetypeTableRecord
  2
BYLAYER
 70
0
  3

 72
65
 73
0
 40
0.0
  0
LTYPE
  5
16
100
AcDbSymbolTableRecord
100
AcDbLinetypeTableRecord
  2
CONTINUOUS
 70
64
  3
Solid line
 72
65
 73
0
 40
0.0
  0
LTYPE
  5
1F5
100
AcDbSymbolTableRecord
100
AcDbLinetypeTableRecord
  2
CENTER
 70
64
  3
____ _ ____ _ ____ _ ____ _ ____ _ ____ _ ____
 72
65
 73
4
 40
0.6
 49
0.375
 74
0
 49
-0.075
 74
0
 49
0.075
 74
0
 49
-0.075
 74
0
  0
LTYPE
  5
1F6
100
AcDbSymbolTableRecord
100
AcDbLinetypeTableRecord
  2
HIDDEN
 70
64
  3
- - - - - - - - - - - - - - - - - - - -
 72
65
 73
2
 40
0.2
 49
0.1
 74
0
 49
-0.1
 74
0
  0
LTYPE
  5
1F7
100
AcDbSymbolTableRecord
100
AcDbLinetypeTableRecord
  2
PHANTOM
 70
64
  3
_____ _ _ _____ _ _ _____ _ _ _____
 72
65
 73
6
 40
0.8
 49
0.45
 74
0
 49
-0.05
 74
0
 49
0.1
 74
0
 49
-0.05
 74
0
 49
0.1
 74
0
 49
-0.05
 74
0
  0
LTYPE
  5
1F8
100
AcDbSymbolTableRecord
100
AcDbLinetypeTableRecord
  2
DOT
 70
64
  3
. . . . . . . . . . . . . . . . . . . .
 72
65
 73
2
 40
0.2
 49
0.1
 74
0
 49
-0.1
 74
0
  0
LTYPE
  5
1F9
100
AcDbSymbolTableRecord
100
AcDbLinetypeTableRecord
  2
DASHED
 70
64
  3
- - - - - - - - - - - - - - - - - - - -
 72
65
 73
2
 40
0.2
 49
0.1
 74
0
 49
-0.1
 74
0
  0
ENDTAB
  0
TABLE
  2
LAYER
  5
2
100
AcDbSymbolTable
 70
36
  0
LAYER
  5
10
100
AcDbSymbolTableRecord
100
AcDbLayerTableRecord
  2
0
 70
0
 62
7
  6
CONTINUOUS
370
-3
390
F
  0
LAYER
  5
1FA
100
AcDbSymbolTableRecord
100
AcDbLayerTableRecord
  2
DEFAULT_1
 70
0
 62
7
  6
CENTER
370
-3
390
F
  0
LAYER
  5
1FB
100
AcDbSymbolTableRecord
100
AcDbLayerTableRecord
  2
DEFAULT_2
 70
0
 62
8
  6
HIDDEN
370
-3
390
F
  0
LAYER
  5
1FC
100
AcDbSymbolTableRecord
100
AcDbLayerTableRecord
  2
DEFAULT_3
 70
0
 62
7
  6
PHANTOM
370
-3
390
F
  0
LAYER
  5
1FD
100
AcDbSymbolTableRecord
100
AcDbLayerTableRecord
  2
DATUM_PLANES
 70
0
 62
7
  6
CONTINUOUS
370
-3
390
F
  0
LAYER
  5
1FE
100
AcDbSymbolTableRecord
100
AcDbLayerTableRecord
  2
PORT_AREAS
 70
0
 62
7
  6
CONTINUOUS
370
-3
390
F
  0
LAYER
  5
1FF
100
AcDbSymbolTableRecord
100
AcDbLayerTableRecord
  2
SUNNBOMCOSMETIC
 70
0
 62
7
  6
CONTINUOUS
370
-3
390
F
  0
LAYER
  5
200
100
AcDbSymbolTableRecord
100
AcDbLayerTableRecord
  2
SUNNBOMSTAMPING
 70
0
 62
7
  6
CONTINUOUS
370
-3
390
F
  0
LAYER
  5
201
100
AcDbSymbolTableRecord
100
AcDbLayerTableRecord
  2
THREADS
 70
0
 62
7
  6
CONTINUOUS
370
-3
390
F
  0
ENDTAB
  0
TABLE
  2
STYLE
  5
3
100
AcDbSymbolTable
 70
1
  0
STYLE
  5
11
100
AcDbSymbolTableRecord
100
AcDbTextStyleTableRecord
  2
STANDARD
 70
0
 40
0.0
 41
0.8
 50
0.0
 71
0
 42
0.2
  3
txt
  4

  0
STYLE
  5
202
100
AcDbSymbolTableRecord
100
AcDbTextStyleTableRecord
  2
TEXTSTYLE_1
 70
0
 40
0.0
 41
0.8
 50
0.0
 71
0
 42
0.2
  3
gdt
  4

  0
ENDTAB
  0
TABLE
  2
VIEW
  5
6
100
AcDbSymbolTable
 70
0
  0
ENDTAB
  0
TABLE
  2
UCS
  5
7
100
AcDbSymbolTable
 70
0
  0
ENDTAB
  0
TABLE
  2
APPID
  5
9
100
AcDbSymbolTable
 70
1
  0
APPID
  5
203
100
AcDbSymbolTableRecord
100
AcDbRegAppTableRecord
  2
ACAD
 70
0
  0
ENDTAB
  0
TABLE
  2
BLOCK_RECORD
  5
1
100
AcDbSymbolTable
 70
0
  0
BLOCK_RECORD
  5
204
100
AcDbSymbolTableRecord
100
AcDbBlockTableRecord
  2
*Model_Space
  0
BLOCK_RECORD
  5
205
100
AcDbSymbolTableRecord
100
AcDbBlockTableRecord
  2
*Paper_Space
  0
BLOCK_RECORD
  5
206
100
AcDbSymbolTableRecord
100
AcDbBlockTableRecord
  2
SUN_FIRST_THIRD_ANGLE_BL0
  0
BLOCK_RECORD
  5
207
100
AcDbSymbolTableRecord
100
AcDbBlockTableRecord
  2
*T1
  0
BLOCK_RECORD
  5
208
100
AcDbSymbolTableRecord
100
AcDbBlockTableRecord
  2
*T2
  0
BLOCK_RECORD
  5
209
100
AcDbSymbolTableRecord
100
AcDbBlockTableRecord
  2
*T3
  0
ENDTAB
  0
TABLE
  2
DIMSTYLE
  5
A
100
AcDbSymbolTable
 70
1
100
AcDbDimStyleTable
 71
0
  0
DIMSTYLE
105
20A
100
AcDbSymbolTableRecord
100
AcDbDimStyleTableRecord
  2
STANDARD
 70
0
  3

  4

 40
1.0
 41
0.1875
 42
0.0625
 43
0.38
 44
0.125
 45
0.0
 46
0.0
 47
0.001
 48
0.001
140
0.1
141
0.09
142
0.0
143
25.4
144
1.0
145
0.0
146
1.0
147
0.09
 71
0.0
 72
0.0
 73
1
 74
1
 75
0
 76
0
 77
0
 78
4
170
0
171
2
172
0
173
0
174
0
175
0
176
0
177
0
178
0
270
2
271
3
272
3
273
2
274
2
275
0
280
0
281
0
282
0
283
1
284
4
285
0
286
0
287
3
288
0
340
11
278
46
  0
ENDTAB
  0
ENDSEC
  0
SECTION
  2
BLOCKS
  0
BLOCK
  5
20
100
AcDbEntity
  8
0
100
AcDbBlockBegin
  2
*Model_Space
 70
0
 10
0.0
 20
0.0
 30
0.0
  3
*Model_Space
  1

  0
ENDBLK
  5
21
100
AcDbEntity
  8
0
100
AcDbBlockEnd
  0
BLOCK
  5
1C
100
AcDbEntity
  8
0
100
AcDbBlockBegin
  2
*Paper_Space
 70
0
 10
0.0
 20
0.0
 30
0.0
  3
*Paper_Space
  1

  0
ENDBLK
  5
1D
100
AcDbEntity
  8
0
100
AcDbBlockEnd
  0
BLOCK
  5
20B
100
AcDbEntity
  8
0
100
AcDbBlockBegin
 62
2
  6
CONTINUOUS
  2
SUN_FIRST_THIRD_ANGLE_BL0
 70
64
 10
20.4816717061
 20
1.2289683772
  3
SUN_FIRST_THIRD_ANGLE_BL0
  1

  0
TEXT
  5
20C
100
AcDbEntity
  8
0
100
AcDbText
 62
2
  6
CONTINUOUS
 10
19.4750896608
 20
1.4136269581
  7
STANDARD
 40
0.08
  1
FIRST ANGLE
 41
0.8
 72
0
100
AcDbText
  0
TEXT
  5
20D
100
AcDbEntity
  8
0
100
AcDbText
 62
2
  6
CONTINUOUS
 10
20.7842537513
 20
1.4047600029
  7
STANDARD
 40
0.08
  1
THIRD ANGLE
 41
0.8
 72
0
100
AcDbText
  0
LINE
  5
20E
100
AcDbEntity
  8
0
100
AcDbLine
 62
7
  6
CONTINUOUS
 10
19.4767170086
 20
1.1727031207
 11
19.6334271527
 21
1.1717972817
  0
LINE
  5
20F
100
AcDbEntity
  8
0
100
AcDbLine
 62
7
  6
CONTINUOUS
 10
19.6596964832
 20
1.1717972817
 11
19.6950230232
 21
1.171593082
  0
LINE
  5
210
100
AcDbEntity
  8
0
100
AcDbLine
 62
7
  6
CONTINUOUS
 10
19.7194818561
 20
1.1708914427
 11
19.8852396156
 21
1.1699333054
  0
LINE
  5
211
100
AcDbEntity
  8
0
100
AcDbLine
 62
7
  6
CONTINUOUS
 10
19.4758111696
 20
1.2723454088
 11
19.88525039
 21
1.3511534004
  0
LINE
  5
212
100
AcDbEntity
  8
0
100
AcDbLine
 62
7
  6
CONTINUOUS
 10
19.88525039
 20
1.3511534004
 11
19.8831348489
 21
0.9851647912
  0
LINE
  5
213
100
AcDbEntity
  8
0
100
AcDbLine
 62
7
  6
CONTINUOUS
 10
19.8831348489
 20
0.9851647912
 11
19.4767170086
 21
1.0658141206
  0
LINE
  5
214
100
AcDbEntity
  8
0
100
AcDbLine
 62
7
  6
CONTINUOUS
 10
19.4767170086
 20
1.0658141206
 11
19.4779056764
 21
1.2714536432
  0
CIRCLE
  5
215
100
AcDbEntity
  8
0
100
AcDbCircle
 62
7
  6
CONTINUOUS
 10
20.2068232291
 20
1.1717972817
 40
0.175742101
  0
CIRCLE
  5
216
100
AcDbEntity
  8
0
100
AcDbCircle
 62
7
  6
CONTINUOUS
 10
20.2068232291
 20
1.1717972817
 40
0.1005522074
  0
LINE
  5
217
100
AcDbEntity
  8
0
100
AcDbLine
 62
7
  6
CONTINUOUS
 10
20.2077290681
 20
1.3756110529
 11
20.2071171714
 21
1.2379342989
  0
LINE
  5
218
100
AcDbEntity
  8
0
100
AcDbLine
 62
7
  6
CONTINUOUS
 10
20.2077290681
 20
1.2016899681
 11
20.2074674401
 21
1.1428236749
  0
LINE
  5
219
100
AcDbEntity
  8
0
100
AcDbLine
 62
7
  6
CONTINUOUS
 10
20.208634907
 20
1.101141841
 11
20.2080230104
 21
0.963465087
  0
LINE
  5
21A
100
AcDbEntity
  8
0
100
AcDbLine
 62
7
  6
CONTINUOUS
 10
20.0066328138
 20
1.1745147986
 11
20.1443095678
 21
1.1739029019
  0
LINE
  5
21B
100
AcDbEntity
  8
0
100
AcDbLine
 62
7
  6
CONTINUOUS
 10
20.1832714155
 20
1.1727031207
 11
20.238153505
 21
1.172335442
  0
LINE
  5
21C
100
AcDbEntity
  8
0
100
AcDbLine
 62
7
  6
CONTINUOUS
 10
20.2756669918
 20
1.1717972817
 11
20.407916871
 21
1.1712095044
  0
CIRCLE
  5
21D
100
AcDbEntity
  8
0
100
AcDbCircle
 62
7
  6
CONTINUOUS
 10
20.7509457401
 20
1.1693297793
 40
0.1722024983
  0
CIRCLE
  5
21E
100
AcDbEntity
  8
0
100
AcDbCircle
 62
7
  6
CONTINUOUS
 10
20.7509457401
 20
1.1693297793
 40
0.0985164967
  0
LINE
  5
21F
100
AcDbEntity
  8
0
100
AcDbLine
 62
7
  6
CONTINUOUS
 10
20.7169767782
 20
1.170462078
 11
20.7825395137
 21
1.1682766535
  0
LINE
  5
220
100
AcDbEntity
  8
0
100
AcDbLine
 62
7
  6
CONTINUOUS
 10
20.8177513651
 20
1.1693297793
 11
20.947965719
 21
1.1693297793
  0
LINE
  5
221
100
AcDbEntity
  8
0
100
AcDbLine
 62
7
  6
CONTINUOUS
 10
20.6875370113
 20
1.170462078
 11
20.5573226574
 21
1.170462078
  0
LINE
  5
222
100
AcDbEntity
  8
0
100
AcDbLine
 62
7
  6
CONTINUOUS
 10
20.7486811426
 20
1.1987695462
 11
20.7486811426
 21
1.1432869085
  0
LINE
  5
223
100
AcDbEntity
  8
0
100
AcDbLine
 62
7
  6
CONTINUOUS
 10
20.7498134414
 20
1.1059210505
 11
20.7498134414
 21
0.9757066966
  0
LINE
  5
224
100
AcDbEntity
  8
0
100
AcDbLine
 62
7
  6
CONTINUOUS
 10
20.7486811426
 20
1.2338708068
 11
20.7486811426
 21
1.3640851607
  0
LINE
  5
225
100
AcDbEntity
  8
0
100
AcDbLine
 62
7
  6
CONTINUOUS
 10
21.0702539817
 20
1.2701043662
 11
21.4790138229
 21
1.3448360823
  0
LINE
  5
226
100
AcDbEntity
  8
0
100
AcDbLine
 62
7
  6
CONTINUOUS
 10
21.4790138229
 20
1.3448360823
 11
21.4790138229
 21
0.9779712941
  0
LINE
  5
227
100
AcDbEntity
  8
0
100
AcDbLine
 62
7
  6
CONTINUOUS
 10
21.4790138229
 20
0.9779712941
 11
21.069121683
 21
1.0617614
  0
LINE
  5
228
100
AcDbEntity
  8
0
100
AcDbLine
 62
7
  6
CONTINUOUS
 10
21.0702539817
 20
1.2701043662
 11
21.069121683
 21
1.0617614
  0
LINE
  5
229
100
AcDbEntity
  8
0
100
AcDbLine
 62
7
  6
CONTINUOUS
 10
21.4790138229
 20
1.1693297793
 11
21.3159628059
 21
1.1693297793
  0
LINE
  5
22A
100
AcDbEntity
  8
0
100
AcDbLine
 62
7
  6
CONTINUOUS
 10
21.2876553377
 20
1.1693297793
 11
21.2502894796
 21
1.1693297793
  0
LINE
  5
22B
100
AcDbEntity
  8
0
100
AcDbLine
 62
7
  6
CONTINUOUS
 10
21.2208497126
 20
1.1659328831
 11
21.0713862804
 21
1.1659328831
  0
LINE
  5
22C
100
AcDbEntity
  8
0
100
AcDbLine
 62
7
  6
CONTINUOUS
 10
20.4796138713
 20
1.5284908897
 11
20.4766766948
 21
0.9294458646
  0
ENDBLK
  5
22D
100
AcDbEntity
  8
0
  6
BYBLOCK
 62
0
100
AcDbBlockEnd
  0
BLOCK
  5
22E
100
AcDbEntity
  8
0
100
AcDbBlockBegin
  2
*T1
 70
1
 10
0.0
 20
0.0
  3
*T1
  1

  0
LINE
  5
22F
100
AcDbEntity
  8
0
100
AcDbLine
 62
2
  6
CONTINUOUS
 10
9.275
 20
0.0
 11
-0.0
 21
0.0
  0
LINE
  5
230
100
AcDbEntity
  8
0
100
AcDbLine
 62
2
  6
CONTINUOUS
 10
9.275
 20
0.0
 11
9.275
 21
1.25
  0
LINE
  5
231
100
AcDbEntity
  8
0
100
AcDbLine
 62
2
  6
CONTINUOUS
 10
9.275
 20
0.625
 11
-0.0
 21
0.625
  0
LINE
  5
232
100
AcDbEntity
  8
0
100
AcDbLine
 62
2
  6
CONTINUOUS
 10
9.275
 20
1.25
 11
-0.0
 21
1.25
  0
LINE
  5
233
100
AcDbEntity
  8
0
100
AcDbLine
 62
2
  6
CONTINUOUS
 10
6.8
 20
0.0
 11
6.8
 21
1.25
  0
LINE
  5
234
100
AcDbEntity
  8
0
100
AcDbLine
 62
2
  6
CONTINUOUS
 10
6.4
 20
0.0
 11
6.4
 21
0.625
  0
LINE
  5
235
100
AcDbEntity
  8
0
100
AcDbLine
 62
2
  6
CONTINUOUS
 10
5.9
 20
0.0
 11
5.9
 21
0.625
  0
LINE
  5
236
100
AcDbEntity
  8
0
100
AcDbLine
 62
2
  6
CONTINUOUS
 10
5.2
 20
0.0
 11
5.2
 21
0.625
  0
LINE
  5
237
100
AcDbEntity
  8
0
100
AcDbLine
 62
2
  6
CONTINUOUS
 10
4.1
 20
0.0
 11
4.1
 21
1.25
  0
LINE
  5
238
100
AcDbEntity
  8
0
100
AcDbLine
 62
2
  6
CONTINUOUS
 10
-0.0
 20
0.0
 11
-0.0
 21
1.25
  0
MTEXT
  5
239
100
AcDbEntity
  8
0
100
AcDbMText
 62
2
  6
CONTINUOUS
  7
STANDARD
 71
2
 72
1
 10
6.6
 20
0.325
 30
0.0
 11
1.0
 21
0.0
 31
0.0
 44
0.9
  1
2
 40
0.125
 41
0.2
  0
MTEXT
  5
23A
100
AcDbEntity
  8
0
100
AcDbMText
 62
2
  6
CONTINUOUS
  7
STANDARD
 71
2
 72
1
 10
6.15
 20
0.325
 30
0.0
 11
1.0
 21
0.0
 31
0.0
 44
0.9
  1
C
 40
0.125
 41
0.2
  0
MTEXT
  5
23B
100
AcDbEntity
  8
0
100
AcDbMText
 62
2
  6
CONTINUOUS
  7
STANDARD
 71
2
 72
1
 10
5.55
 20
0.325
 30
0.0
 11
1.0
 21
0.0
 31
0.0
 44
0.9
  1
1.000
 40
0.125
 41
1.0
  0
MTEXT
  5
23C
100
AcDbEntity
  8
0
100
AcDbMText
 62
2
  6
CONTINUOUS
  7
STANDARD
 71
2
 72
1
 10
4.65
 20
0.325
 30
0.0
 11
1.0
 21
0.0
 31
0.0
 44
0.9
  1
Nov-13-19
 40
0.125
 41
1.8
  0
MTEXT
  5
23D
100
AcDbEntity
  8
0
100
AcDbMText
 62
2
  6
CONTINUOUS
  7
STANDARD
 71
2
 72
1
 10
2.05
 20
0.4625
 30
0.0
 11
1.0
 21
0.0
 31
0.0
 44
0.9
  1
T-17A Line mount\P2 cylinder sequence, with reverse checks
 40
0.125
 41
8.0
  0
MTEXT
  5
23E
100
AcDbEntity
  8
0
100
AcDbMText
 62
2
  6
CONTINUOUS
  7
STANDARD
 71
1
 72
1
 10
6.45
 20
0.5625
 30
0.0
 11
1.0
 21
0.0
 31
0.0
 44
0.9
  1
SHEET
 40
0.06
 41
0.48
  0
MTEXT
  5
23F
100
AcDbEntity
  8
0
100
AcDbMText
 62
2
  6
CONTINUOUS
  7
STANDARD
 71
1
 72
1
 10
5.95
 20
0.5625
 30
0.0
 11
1.0
 21
0.0
 31
0.0
 44
0.9
  1
DWG SIZE
 40
0.06
 41
0.768
  0
MTEXT
  5
240
100
AcDbEntity
  8
0
100
AcDbMText
 62
2
  6
CONTINUOUS
  7
STANDARD
 71
1
 72
1
 10
5.25
 20
0.5625
 30
0.0
 11
1.0
 21
0.0
 31
0.0
 44
0.9
  1
SCALE
 40
0.06
 41
0.48
  0
MTEXT
  5
241
100
AcDbEntity
  8
0
100
AcDbMText
 62
2
  6
CONTINUOUS
  7
STANDARD
 71
1
 72
1
 10
4.15
 20
0.5625
 30
0.0
 11
1.0
 21
0.0
 31
0.0
 44
0.9
  1
DATE
 40
0.06
 41
0.384
  0
MTEXT
  5
242
100
AcDbEntity
  8
0
100
AcDbMText
 62
2
  6
CONTINUOUS
  7
STANDARD
 71
1
 72
1
 10
0.05
 20
0.5625
 30
0.0
 11
1.0
 21
0.0
 31
0.0
 44
0.9
  1
DESCRIPTION
 40
0.06
 41
1.056
  0
MTEXT
  5
243
100
AcDbEntity
  8
0
100
AcDbMText
 62
2
  6
CONTINUOUS
  7
STANDARD
 71
2
 72
1
 10
5.45
 20
1.0375
 30
0.0
 11
1.0
 21
0.0
 31
0.0
 44
0.9
  1
ALL DIMENSIONS IN INCH\PVIEWS ARE THIRD ANGLE
 40
0.12
 41
4.224
  0
MTEXT
  5
244
100
AcDbEntity
  8
0
100
AcDbMText
 62
2
  6
CONTINUOUS
  7
STANDARD
 71
2
 72
1
 10
2.05
 20
0.95
 30
0.0
 11
1.0
 21
0.0
 31
0.0
 44
0.9
  1
H8L
 40
0.125
 41
0.6
  0
MTEXT
  5
245
100
AcDbEntity
  8
0
100
AcDbMText
 62
2
  6
CONTINUOUS
  7
STANDARD
 71
1
 72
1
 10
0.05
 20
1.1875
 30
0.0
 11
1.0
 21
0.0
 31
0.0
 44
0.9
  1
MODEL
 40
0.06
 41
0.48
  0
ENDBLK
  5
246
100
AcDbEntity
  8
0
  6
BYBLOCK
 62
0
100
AcDbBlockEnd
  0
BLOCK
  5
247
100
AcDbEntity
  8
0
100
AcDbBlockBegin
  2
*T2
 70
1
 10
0.0
 20
0.0
  3
*T2
  1

  0
LINE
  5
248
100
AcDbEntity
  8
0
100
AcDbLine
 62
2
  6
CONTINUOUS
 10
0.0
 20
0.0
 11
9.055
 21
0.0
  0
LINE
  5
249
100
AcDbEntity
  8
0
100
AcDbLine
 62
2
  6
CONTINUOUS
 10
0.0
 20
0.0
 11
0.0
 21
-2.594
  0
LINE
  5
24A
100
AcDbEntity
  8
0
100
AcDbLine
 62
2
  6
CONTINUOUS
 10
0.0
 20
-0.344
 11
9.055
 21
-0.344
  0
LINE
  5
24B
100
AcDbEntity
  8
0
100
AcDbLine
 62
2
  6
CONTINUOUS
 10
0.0
 20
-0.594
 11
9.055
 21
-0.594
  0
LINE
  5
24C
100
AcDbEntity
  8
0
100
AcDbLine
 62
2
  6
CONTINUOUS
 10
0.0
 20
-0.844
 11
9.055
 21
-0.844
  0
LINE
  5
24D
100
AcDbEntity
  8
0
100
AcDbLine
 62
2
  6
CONTINUOUS
 10
0.0
 20
-1.094
 11
9.055
 21
-1.094
  0
LINE
  5
24E
100
AcDbEntity
  8
0
100
AcDbLine
 62
2
  6
CONTINUOUS
 10
0.0
 20
-1.344
 11
9.055
 21
-1.344
  0
LINE
  5
24F
100
AcDbEntity
  8
0
100
AcDbLine
 62
2
  6
CONTINUOUS
 10
0.0
 20
-1.594
 11
9.055
 21
-1.594
  0
LINE
  5
250
100
AcDbEntity
  8
0
100
AcDbLine
 62
2
  6
CONTINUOUS
 10
0.0
 20
-1.844
 11
9.055
 21
-1.844
  0
LINE
  5
251
100
AcDbEntity
  8
0
100
AcDbLine
 62
2
  6
CONTINUOUS
 10
0.0
 20
-2.094
 11
9.055
 21
-2.094
  0
LINE
  5
252
100
AcDbEntity
  8
0
100
AcDbLine
 62
2
  6
CONTINUOUS
 10
0.0
 20
-2.344
 11
9.055
 21
-2.344
  0
LINE
  5
253
100
AcDbEntity
  8
0
100
AcDbLine
 62
2
  6
CONTINUOUS
 10
0.0
 20
-2.594
 11
9.055
 21
-2.594
  0
LINE
  5
254
100
AcDbEntity
  8
0
100
AcDbLine
 62
2
  6
CONTINUOUS
 10
3.055
 20
0.0
 11
3.055
 21
-2.594
  0
LINE
  5
255
100
AcDbEntity
  8
0
100
AcDbLine
 62
2
  6
CONTINUOUS
 10
9.055
 20
0.0
 11
9.055
 21
-2.594
  0
MTEXT
  5
256
100
AcDbEntity
  8
0
100
AcDbMText
 62
2
  6
CONTINUOUS
  7
STANDARD
 71
2
 72
1
 10
1.5275
 20
-0.0995
 30
0.0
 11
1.0
 21
0.0
 31
0.0
 44
0.9
  1
Technical Data
 40
0.145
 41
3.248
  0
MTEXT
  5
257
100
AcDbEntity
  8
0
100
AcDbMText
 62
2
  6
CONTINUOUS
  7
STANDARD
 71
2
 72
1
 10
4.555
 20
-0.0995
 30
0.0
 11
1.0
 21
0.0
 31
0.0
 44
0.9
  1
U.S. Units
 40
0.145
 41
2.32
  0
MTEXT
  5
258
100
AcDbEntity
  8
0
100
AcDbMText
 62
2
  6
CONTINUOUS
  7
STANDARD
 71
2
 72
1
 10
7.555
 20
-0.0995
 30
0.0
 11
1.0
 21
0.0
 31
0.0
 44
0.9
  1
Metric Units
 40
0.145
 41
2.784
  0
MTEXT
  5
259
100
AcDbEntity
  8
0
100
AcDbMText
 62
2
  6
CONTINUOUS
  7
STANDARD
 71
2
 72
1
 10
1.5275
 20
-0.4065
 30
0.0
 11
1.0
 21
0.0
 31
0.0
 44
0.9
  1
Cavity
 40
0.125
 41
1.2
  0
MTEXT
  5
25A
100
AcDbEntity
  8
0
100
AcDbMText
 62
2
  6
CONTINUOUS
  7
STANDARD
 71
2
 72
1
 10
6.055
 20
-0.4065
 30
0.0
 11
1.0
 21
0.0
 31
0.0
 44
0.9
  1
T-17A
 40
0.125
 41
1.0
  0
MTEXT
  5
25B
100
AcDbEntity
  8
0
100
AcDbMText
 62
2
  6
CONTINUOUS
  7
STANDARD
 71
2
 72
1
 10
1.5275
 20
-0.6565
 30
0.0
 11
1.0
 21
0.0
 31
0.0
 44
0.9
  1
Body Features
 40
0.125
 41
2.6
  0
MTEXT
  5
25C
100
AcDbEntity
  8
0
100
AcDbMText
 62
2
  6
CONTINUOUS
  7
STANDARD
 71
2
 72
1
 10
6.055
 20
-0.6565
 30
0.0
 11
1.0
 21
0.0
 31
0.0
 44
0.9
  1
2 cylinder sequence, with reverse checks
 40
0.125
 41
8.0
  0
MTEXT
  5
25D
100
AcDbEntity
  8
0
100
AcDbMText
 62
2
  6
CONTINUOUS
  7
STANDARD
 71
2
 72
1
 10
1.5275
 20
-0.9065
 30
0.0
 11
1.0
 21
0.0
 31
0.0
 44
0.9
  1
Body Type
 40
0.125
 41
1.8
  0
MTEXT
  5
25E
100
AcDbEntity
  8
0
100
AcDbMText
 62
2
  6
CONTINUOUS
  7
STANDARD
 71
2
 72
1
 10
6.055
 20
-0.9065
 30
0.0
 11
1.0
 21
0.0
 31
0.0
 44
0.9
  1
Line mount
 40
0.125
 41
2.0
  0
MTEXT
  5
25F
100
AcDbEntity
  8
0
100
AcDbMText
 62
2
  6
CONTINUOUS
  7
STANDARD
 71
2
 72
1
 10
1.5275
 20
-1.1565
 30
0.0
 11
1.0
 21
0.0
 31
0.0
 44
0.9
  1
Interface
 40
0.125
 41
1.8
  0
MTEXT
  5
260
100
AcDbEntity
  8
0
100
AcDbMText
 62
2
  6
CONTINUOUS
  7
STANDARD
 71
2
 72
1
 10
6.055
 20
-1.1565
 30
0.0
 11
1.0
 21
0.0
 31
0.0
 44
0.9
  1
None
 40
0.125
 41
0.8
  0
MTEXT
  5
261
100
AcDbEntity
  8
0
100
AcDbMText
 62
2
  6
CONTINUOUS
  7
STANDARD
 71
2
 72
1
 10
1.5275
 20
-1.4065
 30
0.0
 11
1.0
 21
0.0
 31
0.0
 44
0.9
  1
Open Cavity Quantity
 40
0.125
 41
4.0
  0
MTEXT
  5
262
100
AcDbEntity
  8
0
100
AcDbMText
 62
2
  6
CONTINUOUS
  7
STANDARD
 71
2
 72
1
 10
6.055
 20
-1.4065
 30
0.0
 11
1.0
 21
0.0
 31
0.0
 44
0.9
  1
2
 40
0.125
 41
0.2
  0
MTEXT
  5
263
100
AcDbEntity
  8
0
100
AcDbMText
 62
2
  6
CONTINUOUS
  7
STANDARD
 71
2
 72
1
 10
1.5275
 20
-1.6565
 30
0.0
 11
1.0
 21
0.0
 31
0.0
 44
0.9
  1
Weight
 40
0.125
 41
1.2
  0
MTEXT
  5
264
100
AcDbEntity
  8
0
100
AcDbMText
 62
2
  6
CONTINUOUS
  7
STANDARD
 71
2
 72
1
 10
4.555
 20
-1.6565
 30
0.0
 11
1.0
 21
0.0
 31
0.0
 44
0.9
  1
13.639 lb.
 40
0.125
 41
2.0
  0
MTEXT
  5
265
100
AcDbEntity
  8
0
100
AcDbMText
 62
2
  6
CONTINUOUS
  7
STANDARD
 71
2
 72
1
 10
7.555
 20
-1.6565
 30
0.0
 11
1.0
 21
0.0
 31
0.0
 44
0.9
  1
6,186 kg.
 40
0.125
 41
1.8
  0
MTEXT
  5
266
100
AcDbEntity
  8
0
100
AcDbMText
 62
2
  6
CONTINUOUS
  7
STANDARD
 71
2
 72
1
 10
1.5275
 20
-1.9065
 30
0.0
 11
1.0
 21
0.0
 31
0.0
 44
0.9
  1
Mounting Hole Diameter
 40
0.125
 41
4.4
  0
MTEXT
  5
267
100
AcDbEntity
  8
0
100
AcDbMText
 62
2
  6
CONTINUOUS
  7
STANDARD
 71
2
 72
1
 10
4.555
 20
-1.9065
 30
0.0
 11
1.0
 21
0.0
 31
0.0
 44
0.9
  1
.42 in.
 40
0.125
 41
1.4
  0
MTEXT
  5
268
100
AcDbEntity
  8
0
100
AcDbMText
 62
2
  6
CONTINUOUS
  7
STANDARD
 71
2
 72
1
 10
7.555
 20
-1.9065
 30
0.0
 11
1.0
 21
0.0
 31
0.0
 44
0.9
  1
10,7 mm
 40
0.125
 41
1.4
  0
MTEXT
  5
269
100
AcDbEntity
  8
0
100
AcDbMText
 62
2
  6
CONTINUOUS
  7
STANDARD
 71
2
 72
1
 10
1.5275
 20
-2.1565
 30
0.0
 11
1.0
 21
0.0
 31
0.0
 44
0.9
  1
Mounting Hole Depth
 40
0.125
 41
3.8
  0
MTEXT
  5
26A
100
AcDbEntity
  8
0
100
AcDbMText
 62
2
  6
CONTINUOUS
  7
STANDARD
 71
2
 72
1
 10
6.055
 20
-2.1565
 30
0.0
 11
1.0
 21
0.0
 31
0.0
 44
0.9
  1
Through
 40
0.125
 41
1.4
  0
MTEXT
  5
26B
100
AcDbEntity
  8
0
100
AcDbMText
 62
2
  6
CONTINUOUS
  7
STANDARD
 71
2
 72
1
 10
1.5275
 20
-2.4065
 30
0.0
 11
1.0
 21
0.0
 31
0.0
 44
0.9
  1
Mounting Hole Quantity
 40
0.125
 41
4.4
  0
MTEXT
  5
26C
100
AcDbEntity
  8
0
100
AcDbMText
 62
2
  6
CONTINUOUS
  7
STANDARD
 71
2
 72
1
 10
6.055
 20
-2.4065
 30
0.0
 11
1.0
 21
0.0
 31
0.0
 44
0.9
  1
2
 40
0.125
 41
0.2
  0
ENDBLK
  5
26D
100
AcDbEntity
  8
0
  6
BYBLOCK
 62
0
100
AcDbBlockEnd
  0
BLOCK
  5
26E
100
AcDbEntity
  8
0
100
AcDbBlockBegin
  2
*T3
 70
1
 10
0.0
 20
0.0
  3
*T3
  1

  0
LINE
  5
26F
100
AcDbEntity
  8
0
100
AcDbLine
 62
2
  6
CONTINUOUS
 10
0.0
 20
0.0
 11
4.6
 21
0.0
  0
LINE
  5
270
100
AcDbEntity
  8
0
100
AcDbLine
 62
2
  6
CONTINUOUS
 10
0.0
 20
0.0
 11
0.0
 21
-0.93775
  0
LINE
  5
271
100
AcDbEntity
  8
0
100
AcDbLine
 62
2
  6
CONTINUOUS
 10
0.0
 20
-0.34375
 11
4.6
 21
-0.34375
  0
LINE
  5
272
100
AcDbEntity
  8
0
100
AcDbLine
 62
2
  6
CONTINUOUS
 10
0.0
 20
-0.68775
 11
4.6
 21
-0.68775
  0
LINE
  5
273
100
AcDbEntity
  8
0
100
AcDbLine
 62
2
  6
CONTINUOUS
 10
0.0
 20
-0.93775
 11
4.6
 21
-0.93775
  0
LINE
  5
274
100
AcDbEntity
  8
0
100
AcDbLine
 62
2
  6
CONTINUOUS
 10
1.3
 20
-0.34375
 11
1.3
 21
-0.93775
  0
LINE
  5
275
100
AcDbEntity
  8
0
100
AcDbLine
 62
2
  6
CONTINUOUS
 10
3.3
 20
-0.34375
 11
3.3
 21
-0.93775
  0
LINE
  5
276
100
AcDbEntity
  8
0
100
AcDbLine
 62
2
  6
CONTINUOUS
 10
4.6
 20
0.0
 11
4.6
 21
-0.93775
  0
MTEXT
  5
277
100
AcDbEntity
  8
0
100
AcDbMText
 62
2
  6
CONTINUOUS
  7
STANDARD
 71
2
 72
1
 10
2.3
 20
-0.099375
 30
0.0
 11
1.0
 21
0.0
 31
0.0
 44
0.9
  1
Port Headings
 40
0.145
 41
3.016
  0
MTEXT
  5
278
100
AcDbEntity
  8
0
100
AcDbMText
 62
2
  6
CONTINUOUS
  7
STANDARD
 71
2
 72
1
 10
0.65
 20
-0.44325
 30
0.0
 11
1.0
 21
0.0
 31
0.0
 44
0.9
  1
Product
 40
0.145
 41
1.624
  0
MTEXT
  5
279
100
AcDbEntity
  8
0
100
AcDbMText
 62
2
  6
CONTINUOUS
  7
STANDARD
 71
2
 72
1
 10
2.3
 20
-0.44325
 30
0.0
 11
1.0
 21
0.0
 31
0.0
 44
0.9
  1
Port
 40
0.145
 41
0.928
  0
MTEXT
  5
27A
100
AcDbEntity
  8
0
100
AcDbMText
 62
2
  6
CONTINUOUS
  7
STANDARD
 71
2
 72
1
 10
3.95
 20
-0.44325
 30
0.0
 11
1.0
 21
0.0
 31
0.0
 44
0.9
  1
Size
 40
0.145
 41
0.928
  0
MTEXT
  5
27B
100
AcDbEntity
  8
0
100
AcDbMText
 62
2
  6
CONTINUOUS
  7
STANDARD
 71
2
 72
1
 10
0.65
 20
-0.75025
 30
0.0
 11
1.0
 21
0.0
 31
0.0
 44
0.9
  1
H8L
 40
0.125
 41
0.6
  0
MTEXT
  5
27C
100
AcDbEntity
  8
0
100
AcDbMText
 62
2
  6
CONTINUOUS
  7
STANDARD
 71
2
 72
1
 10
2.3
 20
-0.75025
 30
0.0
 11
1.0
 21
0.0
 31
0.0
 44
0.9
  1
All Ports
 40
0.125
 41
1.8
  0
MTEXT
  5
27D
100
AcDbEntity
  8
0
100
AcDbMText
 62
2
  6
CONTINUOUS
  7
STANDARD
 71
2
 72
1
 10
3.95
 20
-0.75025
 30
0.0
 11
1.0
 21
0.0
 31
0.0
 44
0.9
  1
SAE 12
 40
0.125
 41
1.2
  0
ENDBLK
  5
27E
100
AcDbEntity
  8
0
  6
BYBLOCK
 62
0
100
AcDbBlockEnd
  0
ENDSEC
  0
SECTION
  2
ENTITIES
  0
IMAGE
  5
27F
100
AcDbEntity
  8
0
100
AcDbRasterImage
 62
7
  6
CONTINUOUS
 10
19.2297077316
 20
0.3094318264
 30
0.0
 11
0.0066666667
 21
0.0
 31
0.0
 12
0.0
 22
0.0066666667
 32
0.0
 13
369.0
 23
92.0
340
       3B5
 70
9
280
0
281
50
282
50
283
0
360
       3AF
 71
1
 91
2
 14
-0.5
 24
-0.5
 14
368.5
 24
91.5
  0
INSERT
  5
280
100
AcDbEntity
  8
0
100
AcDbBlockReference
 62
2
  6
CONTINUOUS
  2
SUN_FIRST_THIRD_ANGLE_BL0
 10
20.4816717061
 20
1.2289683772
  0
ACAD_TABLE
  5
281
100
AcDbEntity
  8
0
 62
2
  6
CONTINUOUS
100
AcDbBlockReference
  2
*T1
 10
12.42375
 20
0.30125
 30
0.0
100
AcDbTable
342
       3B7
343
207
 11
1.0
 21
0.0
 31
0.0
 90
6
 91
4
 92
6
 93
20
 94
0
 95
0
 96
0
 70
1
 41
0.0
141
0.525
141
0.1
141
0.525
141
0.1
142
4.1
142
1.1
142
0.7
142
0.5
142
0.4
142
2.475
171
1
172
0
173
0
174
0
175
1
176
1
 91
33
178
0
145
0.0
301
CELL_VALUE
 90
4
  1
T-17A Line mount\P2 cylinder sequence, with reverse checks
304
ACVALUE_END
170
2
140
0.125
171
1
172
0
173
0
174
0
175
1
176
1
 91
33
178
0
145
0.0
301
CELL_VALUE
 90
4
  1
Nov-13-19
304
ACVALUE_END
170
5
140
0.125
171
1
172
0
173
0
174
0
175
1
176
1
 91
33
178
0
145
0.0
301
CELL_VALUE
 90
4
  1
1.000
304
ACVALUE_END
170
5
140
0.125
171
1
172
0
173
0
174
0
175
1
176
1
 91
33
178
0
145
0.0
301
CELL_VALUE
 90
4
  1
C
304
ACVALUE_END
170
5
140
0.125
171
1
172
0
173
0
174
0
175
1
176
1
 91
33
178
0
145
0.0
301
CELL_VALUE
 90
4
  1
2
304
ACVALUE_END
170
5
140
0.125
171
1
172
0
173
0
174
0
175
1
176
1
 91
33
178
0
145
0.0
301
CELL_VALUE
 90
4
  1
 
304
ACVALUE_END
170
1
140
0.125
171
1
172
0
173
0
174
0
175
1
176
1
 91
33
178
0
145
0.0
301
CELL_VALUE
 90
4
  1
DESCRIPTION
304
ACVALUE_END
170
1
140
0.06
171
1
172
0
173
0
174
0
175
1
176
1
 91
33
178
0
145
0.0
301
CELL_VALUE
 90
4
  1
DATE
304
ACVALUE_END
170
1
140
0.06
171
1
172
0
173
0
174
0
175
1
176
1
 91
33
178
0
145
0.0
301
CELL_VALUE
 90
4
  1
SCALE
304
ACVALUE_END
170
1
140
0.06
171
1
172
0
173
0
174
0
175
1
176
1
 91
33
178
0
145
0.0
301
CELL_VALUE
 90
4
  1
DWG SIZE
304
ACVALUE_END
170
1
140
0.06
171
1
172
0
173
0
174
0
175
1
176
1
 91
33
178
0
145
0.0
301
CELL_VALUE
 90
4
  1
SHEET
304
ACVALUE_END
170
1
140
0.06
171
1
172
0
173
0
174
0
175
1
176
1
 91
33
178
0
145
0.0
301
CELL_VALUE
 90
4
  1
 
304
ACVALUE_END
170
1
140
0.125
171
1
172
0
173
0
174
0
175
1
176
1
 91
33
178
0
145
0.0
301
CELL_VALUE
 90
4
  1
H8L
304
ACVALUE_END
170
5
140
0.125
171
1
172
0
173
0
174
0
175
4
176
1
 91
33
178
0
145
0.0
301
CELL_VALUE
 90
4
  1
ALL DIMENSIONS IN INCH\PVIEWS ARE THIRD ANGLE
304
ACVALUE_END
170
5
140
0.12
171
1
172
0
173
1
174
0
175
1
176
1
 91
1
178
0
145
0.0
170
1
171
1
172
0
173
1
174
0
175
1
176
1
 91
1
178
0
145
0.0
170
1
171
1
172
0
173
1
174
0
175
1
176
1
 91
1
178
0
145
0.0
170
5
171
1
172
0
173
0
174
0
175
1
176
1
 91
33
178
0
145
0.0
301
CELL_VALUE
 90
4
  1
 
304
ACVALUE_END
170
1
140
0.125
171
1
172
0
173
0
174
0
175
1
176
1
 91
33
178
0
145
0.0
301
CELL_VALUE
 90
4
  1
MODEL
304
ACVALUE_END
170
1
140
0.06
171
1
172
0
173
0
174
0
175
1
176
1
 91
33
178
0
145
0.0
301
CELL_VALUE
 90
4
  1
 
304
ACVALUE_END
170
1
140
0.125
171
1
172
0
173
0
174
0
175
1
176
1
 91
33
178
0
145
0.0
301
CELL_VALUE
 90
4
  1
 
304
ACVALUE_END
170
1
140
0.125
171
1
172
0
173
0
174
0
175
1
176
1
 91
33
178
0
145
0.0
301
CELL_VALUE
 90
4
  1
 
304
ACVALUE_END
170
1
140
0.125
171
1
172
0
173
0
174
0
175
1
176
1
 91
33
178
0
145
0.0
301
CELL_VALUE
 90
4
  1
 
304
ACVALUE_END
170
1
140
0.125
171
1
172
0
173
0
174
0
175
1
176
1
 91
33
178
0
145
0.0
301
CELL_VALUE
 90
4
  1
 
304
ACVALUE_END
170
1
140
0.125
  0
ACAD_TABLE
  5
282
100
AcDbEntity
  8
0
 62
2
  6
CONTINUOUS
100
AcDbBlockReference
  2
*T2
 10
12.4237499994
 20
16.47875
 30
0.0
100
AcDbTable
342
       3B6
343
208
 11
1.0
 21
0.0
 31
0.0
 90
22
 91
10
 92
3
 93
16
 94
0
 95
0
 96
0
 41
0.028
141
0.344
141
0.25
141
0.25
141
0.25
141
0.25
141
0.25
141
0.25
141
0.25
141
0.25
141
0.25
142
3.055
142
3.0
142
3.0
171
1
172
0
173
0
174
0
175
1
176
1
 91
33
178
0
145
0.0
301
CELL_VALUE
 90
4
  1
Technical Data
304
ACVALUE_END
170
5
140
0.145
171
1
172
0
173
0
174
0
175
1
176
1
 91
33
178
0
145
0.0
301
CELL_VALUE
 90
4
  1
U.S. Units
304
ACVALUE_END
170
5
140
0.145
171
1
172
0
173
0
174
0
175
1
176
1
 91
33
178
0
145
0.0
301
CELL_VALUE
 90
4
  1
Metric Units
304
ACVALUE_END
170
5
140
0.145
171
1
172
0
173
0
174
0
175
1
176
1
 91
33
178
0
145
0.0
301
CELL_VALUE
 90
4
  1
Cavity
304
ACVALUE_END
170
5
140
0.125
171
1
172
0
173
0
174
0
175
2
176
1
 91
33
178
0
145
0.0
301
CELL_VALUE
 90
4
  1
T-17A
304
ACVALUE_END
170
5
140
0.125
171
1
172
0
173
1
174
0
175
1
176
1
 91
1
178
0
145
0.0
170
1
171
1
172
0
173
0
174
0
175
1
176
1
 91
33
178
0
145
0.0
301
CELL_VALUE
 90
4
  1
Body Features
304
ACVALUE_END
170
5
140
0.125
171
1
172
0
173
0
174
0
175
2
176
1
 91
33
178
0
145
0.0
301
CELL_VALUE
 90
4
  1
2 cylinder sequence, with reverse checks
304
ACVALUE_END
170
5
140
0.125
171
1
172
0
173
1
174
0
175
1
176
1
 91
1
178
0
145
0.0
170
1
171
1
172
0
173
0
174
0
175
1
176
1
 91
33
178
0
145
0.0
301
CELL_VALUE
 90
4
  1
Body Type
304
ACVALUE_END
170
5
140
0.125
171
1
172
0
173
0
174
0
175
2
176
1
 91
33
178
0
145
0.0
301
CELL_VALUE
 90
4
  1
Line mount
304
ACVALUE_END
170
5
140
0.125
171
1
172
0
173
1
174
0
175
1
176
1
 91
1
178
0
145
0.0
170
1
171
1
172
0
173
0
174
0
175
1
176
1
 91
33
178
0
145
0.0
301
CELL_VALUE
 90
4
  1
Interface
304
ACVALUE_END
170
5
140
0.125
171
1
172
0
173
0
174
0
175
2
176
1
 91
33
178
0
145
0.0
301
CELL_VALUE
 90
4
  1
None
304
ACVALUE_END
170
5
140
0.125
171
1
172
0
173
1
174
0
175
1
176
1
 91
1
178
0
145
0.0
170
1
171
1
172
0
173
0
174
0
175
1
176
1
 91
33
178
0
145
0.0
301
CELL_VALUE
 90
4
  1
Open Cavity Quantity
304
ACVALUE_END
170
5
140
0.125
171
1
172
0
173
0
174
0
175
2
176
1
 91
33
178
0
145
0.0
301
CELL_VALUE
 90
4
  1
2
304
ACVALUE_END
170
5
140
0.125
171
1
172
0
173
1
174
0
175
1
176
1
 91
1
178
0
145
0.0
170
1
171
1
172
0
173
0
174
0
175
1
176
1
 91
33
178
0
145
0.0
301
CELL_VALUE
 90
4
  1
Weight
304
ACVALUE_END
170
5
140
0.125
171
1
172
0
173
0
174
0
175
1
176
1
 91
33
178
0
145
0.0
301
CELL_VALUE
 90
4
  1
13.639 lb.
304
ACVALUE_END
170
5
140
0.125
171
1
172
0
173
0
174
0
175
1
176
1
 91
33
178
0
145
0.0
301
CELL_VALUE
 90
4
  1
6,186 kg.
304
ACVALUE_END
170
5
140
0.125
171
1
172
0
173
0
174
0
175
1
176
1
 91
33
178
0
145
0.0
301
CELL_VALUE
 90
4
  1
Mounting Hole Diameter
304
ACVALUE_END
170
5
140
0.125
171
1
172
0
173
0
174
0
175
1
176
1
 91
33
178
0
145
0.0
301
CELL_VALUE
 90
4
  1
.42 in.
304
ACVALUE_END
170
5
140
0.125
171
1
172
0
173
0
174
0
175
1
176
1
 91
33
178
0
145
0.0
301
CELL_VALUE
 90
4
  1
10,7 mm
304
ACVALUE_END
170
5
140
0.125
171
1
172
0
173
0
174
0
175
1
176
1
 91
33
178
0
145
0.0
301
CELL_VALUE
 90
4
  1
Mounting Hole Depth
304
ACVALUE_END
170
5
140
0.125
171
1
172
0
173
0
174
0
175
2
176
1
 91
33
178
0
145
0.0
301
CELL_VALUE
 90
4
  1
Through
304
ACVALUE_END
170
5
140
0.125
171
1
172
0
173
1
174
0
175
1
176
1
 91
1
178
0
145
0.0
170
1
171
1
172
0
173
0
174
0
175
1
176
1
 91
33
178
0
145
0.0
301
CELL_VALUE
 90
4
  1
Mounting Hole Quantity
304
ACVALUE_END
170
5
140
0.125
171
1
172
0
173
0
174
0
175
2
176
1
 91
33
178
0
145
0.0
301
CELL_VALUE
 90
4
  1
2
304
ACVALUE_END
170
5
140
0.125
171
1
172
0
173
1
174
0
175
1
176
1
 91
1
178
0
145
0.0
170
1
  0
ACAD_TABLE
  5
283
100
AcDbEntity
  8
0
 62
2
  6
CONTINUOUS
100
AcDbBlockReference
  2
*T3
 10
0.52125
 20
1.459
 30
0.0
100
AcDbTable
342
       3B6
343
209
 11
1.0
 21
0.0
 31
0.0
 90
22
 91
3
 92
3
 93
16
 94
0
 95
0
 96
0
 41
0.05
141
0.34375
141
0.344
141
0.25
142
1.3
142
2.0
142
1.3
171
1
172
0
173
0
174
0
175
3
176
1
 91
33
178
0
145
0.0
301
CELL_VALUE
 90
4
  1
Port Headings
304
ACVALUE_END
170
5
140
0.145
171
1
172
0
173
1
174
0
175
1
176
1
 91
1
178
0
145
0.0
170
1
171
1
172
0
173
1
174
0
175
1
176
1
 91
1
178
0
145
0.0
170
1
171
1
172
0
173
0
174
0
175
1
176
1
 91
33
178
0
145
0.0
301
CELL_VALUE
 90
4
  1
Product
304
ACVALUE_END
170
5
140
0.145
171
1
172
0
173
0
174
0
175
1
176
1
 91
33
178
0
145
0.0
301
CELL_VALUE
 90
4
  1
Port
304
ACVALUE_END
170
5
140
0.145
171
1
172
0
173
0
174
0
175
1
176
1
 91
33
178
0
145
0.0
301
CELL_VALUE
 90
4
  1
Size
304
ACVALUE_END
170
5
140
0.145
171
1
172
0
173
0
174
0
175
1
176
1
 91
33
178
0
145
0.0
301
CELL_VALUE
 90
4
  1
H8L
304
ACVALUE_END
170
5
140
0.125
171
1
172
0
173
0
174
0
175
1
176
1
 91
33
178
0
145
0.0
301
CELL_VALUE
 90
4
  1
All Ports
304
ACVALUE_END
170
5
140
0.125
171
1
172
0
173
0
174
0
175
1
176
1
 91
33
178
0
145
0.0
301
CELL_VALUE
 90
4
  1
SAE 12
304
ACVALUE_END
170
5
140
0.125
  0
MTEXT
  5
284
100
AcDbEntity
  8
0
100
AcDbMText
 62
2
  6
CONTINUOUS
  7
STANDARD
 71
1
 72
1
 10
0.52125
 20
5.75995
 30
0.0
 11
1.0
 21
0.0
 31
0.0
 44
0.6
  3
Notes\P \P1. Important: Carefully consider\P   the maximum system pressure. The\P   pressure rating of the manifold is\P   dependent on the manifold material,\P   with the port type/size a secondary\P   consideration. Manifolds\P   constructed of alu
  1
minum are not\P   rated for pressures higher than\P   3000 psi (210 bar), regardless of\P   the port type/size specified.
 40
0.1
 41
3.04
  0
LINE
  5
285
100
AcDbEntity
  8
0
100
AcDbLine
 62
7
  6
CONTINUOUS
 10
0.30125
 20
0.30125
 11
0.30125
 21
16.69875
  0
LINE
  5
286
100
AcDbEntity
  8
0
100
AcDbLine
 62
7
  6
CONTINUOUS
 10
0.30125
 20
0.30125
 11
21.69875
 21
0.30125
  0
LINE
  5
287
100
AcDbEntity
  8
0
100
AcDbLine
 62
7
  6
CONTINUOUS
 10
0.30125
 20
16.69875
 11
21.69875
 21
16.69875
  0
LINE
  5
288
100
AcDbEntity
  8
0
100
AcDbLine
 62
7
  6
CONTINUOUS
 10
21.69875
 20
0.30125
 11
21.69875
 21
16.69875
  0
LINE
  5
289
100
AcDbEntity
  8
0
100
AcDbLine
 62
7
  6
CONTINUOUS
 10
7.7925526197
 20
10.3166582641
 11
9.3778179627
 21
11.8479070912
  0
LINE
  5
28A
100
AcDbEntity
  8
0
100
AcDbLine
 62
7
  6
CONTINUOUS
 10
7.7925526197
 20
5.4870288465
 11
7.7925526197
 21
10.3166582641
  0
LINE
  5
28B
100
AcDbEntity
  8
0
100
AcDbLine
 62
7
  6
CONTINUOUS
 10
12.6221820373
 20
5.1520929088
 11
7.7925526197
 21
5.4870288465
  0
LINE
  5
28C
100
AcDbEntity
  8
0
100
AcDbLine
 62
4
  6
CONTINUOUS
 10
12.0039895648
 20
6.0449793871
 11
11.9653525304
 21
6.037999616
  0
LINE
  5
28D
100
AcDbEntity
  8
0
100
AcDbLine
 62
4
  6
CONTINUOUS
 10
11.8880784614
 20
6.5649585563
 11
12.0426265993
 21
6.6025368996
  0
LINE
  5
28E
100
AcDbEntity
  8
0
100
AcDbLine
 62
4
  6
CONTINUOUS
 10
12.7334741329
 20
6.4863186602
 11
12.7438268859
 21
6.4866593937
  0
LINE
  5
28F
100
AcDbEntity
  8
0
100
AcDbLine
 62
4
  6
CONTINUOUS
 10
11.8880784614
 20
6.3717733839
 11
12.0426265993
 21
6.3610554341
  0
LINE
  5
290
100
AcDbEntity
  8
0
100
AcDbLine
 62
4
  6
CONTINUOUS
 10
11.8880784614
 20
6.4490474529
 11
12.0426265993
 21
6.4383295031
  0
LINE
  5
291
100
AcDbEntity
  8
0
100
AcDbLine
 62
4
  6
CONTINUOUS
 10
12.7127686268
 20
6.1475631415
 11
12.7541796389
 21
6.1392668169
  0
LINE
  5
292
100
AcDbEntity
  8
0
100
AcDbLine
 62
4
  6
CONTINUOUS
 10
11.9653525304
 20
6.037999616
 11
11.9267154959
 21
6.050338362
  0
LINE
  5
293
100
AcDbEntity
  8
0
100
AcDbLine
 62
7
  6
CONTINUOUS
 10
11.1572463189
 20
6.967726054
 11
10.5106014449
 21
7.0125710284
  0
LINE
  5
294
100
AcDbEntity
  8
0
100
AcDbLine
 62
4
  6
CONTINUOUS
 10
12.0426265993
 20
6.5059443134
 11
11.8880784614
 21
6.5649585563
  0
LINE
  5
295
100
AcDbEntity
  8
0
100
AcDbLine
 62
4
  6
CONTINUOUS
 10
12.0426265993
 20
6.2065072962
 11
11.8880784614
 21
6.2944993149
  0
LINE
  5
296
100
AcDbEntity
  8
0
100
AcDbLine
 62
4
  6
CONTINUOUS
 10
11.9267154959
 20
6.050338362
 11
11.9009574698
 21
6.0714432044
  0
LINE
  5
297
100
AcDbEntity
  8
0
100
AcDbLine
 62
4
  6
CONTINUOUS
 10
13.9783926648
 20
7.5052917793
 11
13.9680399118
 21
7.5049510458
  0
LINE
  5
298
100
AcDbEntity
  8
0
100
AcDbLine
 62
4
  6
CONTINUOUS
 10
13.9887454178
 20
7.6988176852
 11
13.9990981709
 21
7.6991584187
  0
LINE
  5
299
100
AcDbEntity
  8
0
100
AcDbLine
 62
4
  6
CONTINUOUS
 10
12.0168685756
 20
6.1310195523
 11
12.0297475875
 21
6.1204671312
  0
LINE
  5
29A
100
AcDbEntity
  8
0
100
AcDbLine
 62
7
  6
CONTINUOUS
 10
11.518416633
 20
6.3608164375
 11
11.195094196
 21
6.9432498128
  0
LINE
  5
29B
100
AcDbEntity
  8
0
100
AcDbLine
 62
4
  6
CONTINUOUS
 10
13.9680399118
 20
7.3600621665
 11
14.0094509239
 21
7.3517658419
  0
LINE
  5
29C
100
AcDbEntity
  8
0
100
AcDbLine
 62
4
  6
CONTINUOUS
 10
11.9009574698
 20
6.0714432044
 11
11.8880784614
 21
6.0916548839
  0
LINE
  5
29D
100
AcDbEntity
  8
0
100
AcDbLine
 62
4
  6
CONTINUOUS
 10
12.0297475875
 20
6.1204671312
 11
12.0426265993
 21
6.1002554514
  0
LINE
  5
29E
100
AcDbEntity
  8
0
100
AcDbLine
 62
7
  6
CONTINUOUS
 10
12.6221820373
 20
9.9817223264
 11
14.2074473803
 21
11.5129711535
  0
LINE
  5
29F
100
AcDbEntity
  8
0
100
AcDbLine
 62
7
  6
CONTINUOUS
 10
10.3436833522
 20
6.9966595908
 11
10.3036008006
 21
6.9579428167
  0
LINE
  5
2A0
100
AcDbEntity
  8
0
100
AcDbLine
 62
4
  6
CONTINUOUS
 10
12.7196704624
 20
6.3763927514
 11
12.7162195446
 21
6.3827186792
  0
LINE
  5
2A1
100
AcDbEntity
  8
0
100
AcDbLine
 62
4
  6
CONTINUOUS
 10
12.7438268859
 20
6.4866593937
 11
12.7507287221
 21
6.4740075387
  0
LINE
  5
2A2
100
AcDbEntity
  8
0
100
AcDbLine
 62
4
  6
CONTINUOUS
 10
11.8880784614
 20
6.0916548839
 11
11.8880784614
 21
6.1109734012
  0
LINE
  5
2A3
100
AcDbEntity
  8
0
100
AcDbLine
 62
4
  6
CONTINUOUS
 10
11.9653525304
 20
6.366414409
 11
11.9653525304
 21
6.443688478
  0
LINE
  5
2A4
100
AcDbEntity
  8
0
100
AcDbLine
 62
7
  6
CONTINUOUS
 10
10.4727535678
 20
6.9933443055
 11
10.2931559112
 21
6.8198662804
  0
LINE
  5
2A5
100
AcDbEntity
  8
0
100
AcDbLine
 62
7
  6
CONTINUOUS
 10
10.5106014449
 20
7.0125710284
 11
10.3310037883
 21
6.8390930032
  0
LINE
  5
2A6
100
AcDbEntity
  8
0
100
AcDbLine
 62
4
  6
CONTINUOUS
 10
12.8395898567
 20
9.0422703818
 11
12.7981788446
 21
9.0022704133
  0
LINE
  5
2A7
100
AcDbEntity
  8
0
100
AcDbLine
 62
4
  6
CONTINUOUS
 10
14.1112530167
 20
10.222306459
 11
14.104351183
 21
10.2156397992
  0
LINE
  5
2A8
100
AcDbEntity
  8
0
100
AcDbLine
 62
4
  6
CONTINUOUS
 10
12.8395898567
 20
8.936018537
 11
12.7981788446
 21
8.8960185685
  0
LINE
  5
2A9
100
AcDbEntity
  8
0
100
AcDbLine
 62
4
  6
CONTINUOUS
 10
12.8188843507
 20
9.2347740872
 11
12.8292371037
 21
9.2351148207
  0
LINE
  5
2AA
100
AcDbEntity
  8
0
100
AcDbLine
 62
4
  6
CONTINUOUS
 10
11.9911105518
 20
6.5288354807
 11
11.9911105518
 21
6.5867910324
  0
LINE
  5
2AB
100
AcDbEntity
  8
0
100
AcDbLine
 62
4
  6
CONTINUOUS
 10
12.0426265993
 20
6.1002554514
 11
12.0426265993
 21
6.0809369342
  0
LINE
  5
2AC
100
AcDbEntity
  8
0
100
AcDbLine
 62
4
  6
CONTINUOUS
 10
12.8085315976
 20
9.2151148364
 11
12.8188843507
 21
9.2347740872
  0
LINE
  5
2AD
100
AcDbEntity
  8
0
100
AcDbLine
 62
4
  6
CONTINUOUS
 10
14.1181548529
 20
10.1613583109
 11
14.0767438408
 21
10.1213583424
  0
LINE
  5
2AE
100
AcDbEntity
  8
0
100
AcDbLine
 62
4
  6
CONTINUOUS
 10
12.8257861868
 20
8.845411146
 11
12.8361389399
 21
8.8554111381
  0
LINE
  5
2AF
100
AcDbEntity
  8
0
100
AcDbLine
 62
4
  6
CONTINUOUS
 10
14.104351183
 20
10.0707509199
 11
14.114703936
 21
10.080750912
  0
LINE
  5
2B0
100
AcDbEntity
  8
0
100
AcDbLine
 62
4
  6
CONTINUOUS
 10
12.8050806802
 20
8.8157519025
 11
12.8154334326
 21
8.8257518941
  0
LINE
  5
2B1
100
AcDbEntity
  8
0
100
AcDbLine
 62
4
  6
CONTINUOUS
 10
14.0836456763
 20
10.0410916765
 11
14.0939984287
 21
10.051091668
  0
LINE
  5
2B2
100
AcDbEntity
  8
0
100
AcDbLine
 62
7
  6
CONTINUOUS
 10
11.1572463189
 20
6.967726054
 11
10.9776486623
 21
6.7942480289
  0
LINE
  5
2B3
100
AcDbEntity
  8
0
100
AcDbLine
 62
7
  6
CONTINUOUS
 10
11.195094196
 20
6.9432498128
 11
11.0154965394
 21
6.7697717877
  0
LINE
  5
2B4
100
AcDbEntity
  8
0
100
AcDbLine
 62
4
  6
CONTINUOUS
 10
12.7162195446
 20
6.3827186792
 11
12.7127686268
 21
6.3987038656
  0
LINE
  5
2B5
100
AcDbEntity
  8
0
100
AcDbLine
 62
4
  6
CONTINUOUS
 10
12.8016297624
 20
9.1891296579
 11
12.8085315976
 21
9.2151148364
  0
LINE
  5
2B6
100
AcDbEntity
  8
0
100
AcDbLine
 62
7
  6
CONTINUOUS
 10
11.195094196
 20
5.7795250725
 11
11.518416633
 21
6.3171134735
  0
LINE
  5
2B7
100
AcDbEntity
  8
0
100
AcDbLine
 62
4
  6
CONTINUOUS
 10
12.7507287221
 20
6.4740075387
 11
12.7541796389
 21
6.4580223513
  0
LINE
  5
2B8
100
AcDbEntity
  8
0
100
AcDbLine
 62
7
  6
CONTINUOUS
 10
12.6221820373
 20
9.9817223264
 11
12.6221820373
 21
5.1520929088
  0
LINE
  5
2B9
100
AcDbEntity
  8
0
100
AcDbLine
 62
4
  6
CONTINUOUS
 10
12.7127686268
 20
6.3987038656
 11
12.7127686268
 21
6.4180223829
  0
LINE
  5
2BA
100
AcDbEntity
  8
0
100
AcDbLine
 62
4
  6
CONTINUOUS
 10
12.7265722979
 20
6.1415779475
 11
12.7265722979
 21
6.0836223958
  0
LINE
  5
2BB
100
AcDbEntity
  8
0
100
AcDbLine
 62
4
  6
CONTINUOUS
 10
12.7541796389
 20
6.4580223513
 11
12.7541796389
 21
6.4387038341
  0
LINE
  5
2BC
100
AcDbEntity
  8
0
100
AcDbLine
 62
4
  6
CONTINUOUS
 10
12.7981788446
 20
8.8960185685
 11
12.7981788446
 21
8.8284037582
  0
LINE
  5
2BD
100
AcDbEntity
  8
0
100
AcDbLine
 62
4
  6
CONTINUOUS
 10
12.7981788446
 20
9.1471592926
 11
12.7981788446
 21
9.1664778098
  0
LINE
  5
2BE
100
AcDbEntity
  8
0
100
AcDbLine
 62
4
  6
CONTINUOUS
 10
12.8223352675
 20
8.9193518826
 11
12.8223352675
 21
8.8517370723
  0
LINE
  5
2BF
100
AcDbEntity
  8
0
100
AcDbLine
 62
4
  6
CONTINUOUS
 10
12.8395898567
 20
9.2064777783
 11
12.8395898567
 21
9.1871592611
  0
LINE
  5
2C0
100
AcDbEntity
  8
0
100
AcDbLine
 62
4
  6
CONTINUOUS
 10
12.8395898567
 20
8.8684037266
 11
12.8395898567
 21
8.936018537
  0
LINE
  5
2C1
100
AcDbEntity
  8
0
100
AcDbLine
 62
4
  6
CONTINUOUS
 10
12.7981788446
 20
9.1664778098
 11
12.8016297624
 21
9.1891296579
  0
LINE
  5
2C2
100
AcDbEntity
  8
0
100
AcDbLine
 62
4
  6
CONTINUOUS
 10
12.8395898567
 20
9.1871592611
 11
12.8361389399
 21
9.1645074139
  0
LINE
  5
2C3
100
AcDbEntity
  8
0
100
AcDbLine
 62
4
  6
CONTINUOUS
 10
12.8361389399
 20
9.1645074139
 11
12.8326880205
 21
9.151514823
  0
LINE
  5
2C4
100
AcDbEntity
  8
0
100
AcDbLine
 62
4
  6
CONTINUOUS
 10
12.8154334326
 20
8.8257518941
 11
12.8223352675
 21
8.8517370723
  0
LINE
  5
2C5
100
AcDbEntity
  8
0
100
AcDbLine
 62
4
  6
CONTINUOUS
 10
12.8361389399
 20
8.8554111381
 11
12.8395898567
 21
8.8684037266
  0
LINE
  5
2C6
100
AcDbEntity
  8
0
100
AcDbLine
 62
4
  6
CONTINUOUS
 10
14.0870965938
 20
10.4404546104
 11
14.0974493468
 21
10.4601138611
  0
LINE
  5
2C7
100
AcDbEntity
  8
0
100
AcDbLine
 62
4
  6
CONTINUOUS
 10
14.0870965938
 20
10.2665879552
 11
14.0767438408
 21
10.2662472217
  0
LINE
  5
2C8
100
AcDbEntity
  8
0
100
AcDbLine
 62
4
  6
CONTINUOUS
 10
14.0974493468
 20
10.4601138611
 11
14.1078020998
 21
10.4604545946
  0
LINE
  5
2C9
100
AcDbEntity
  8
0
100
AcDbLine
 62
7
  6
CONTINUOUS
 10
7.7925526197
 20
10.3166582641
 11
12.6221820373
 21
9.9817223264
  0
LINE
  5
2CA
100
AcDbEntity
  8
0
100
AcDbLine
 62
4
  6
CONTINUOUS
 10
12.7981788446
 20
8.8284037582
 11
12.8050806802
 21
8.8157519025
  0
LINE
  5
2CB
100
AcDbEntity
  8
0
100
AcDbLine
 62
4
  6
CONTINUOUS
 10
12.8223352675
 20
8.8517370723
 11
12.8257861868
 21
8.845411146
  0
LINE
  5
2CC
100
AcDbEntity
  8
0
100
AcDbLine
 62
4
  6
CONTINUOUS
 10
12.8050806802
 20
9.1248481784
 11
12.8016297624
 21
9.1311741062
  0
LINE
  5
2CD
100
AcDbEntity
  8
0
100
AcDbLine
 62
4
  6
CONTINUOUS
 10
12.8016297624
 20
9.1311741062
 11
12.7981788446
 21
9.1471592926
  0
LINE
  5
2CE
100
AcDbEntity
  8
0
100
AcDbLine
 62
4
  6
CONTINUOUS
 10
12.7127686268
 20
6.4180223829
 11
12.7162195446
 21
6.4406742309
  0
LINE
  5
2CF
100
AcDbEntity
  8
0
100
AcDbLine
 62
4
  6
CONTINUOUS
 10
12.7541796389
 20
6.4387038341
 11
12.7507287221
 21
6.4160519869
  0
LINE
  5
2D0
100
AcDbEntity
  8
0
100
AcDbLine
 62
4
  6
CONTINUOUS
 10
12.7162195446
 20
6.4406742309
 11
12.7231213798
 21
6.4666594095
  0
LINE
  5
2D1
100
AcDbEntity
  8
0
100
AcDbLine
 62
4
  6
CONTINUOUS
 10
11.8880784614
 20
6.1109734012
 11
11.9009574698
 21
6.1293987562
  0
LINE
  5
2D2
100
AcDbEntity
  8
0
100
AcDbLine
 62
7
  6
CONTINUOUS
 10
11.518416633
 20
6.3608164375
 11
11.3388189764
 21
6.1873384124
  0
LINE
  5
2D3
100
AcDbEntity
  8
0
100
AcDbLine
 62
7
  6
CONTINUOUS
 10
11.518416633
 20
6.3171134735
 11
11.3388189764
 21
6.1436354483
  0
LINE
  5
2D4
100
AcDbEntity
  8
0
100
AcDbLine
 62
7
  6
CONTINUOUS
 10
11.195094196
 20
5.7795250725
 11
11.0154965394
 21
5.6060470474
  0
LINE
  5
2D5
100
AcDbEntity
  8
0
100
AcDbLine
 62
7
  6
CONTINUOUS
 10
11.427939668
 20
5.8764489937
 11
11.3867107686
 21
5.8366249325
  0
LINE
  5
2D6
100
AcDbEntity
  8
0
100
AcDbLine
 62
4
  6
CONTINUOUS
 10
12.8292371037
 20
9.2351148207
 11
12.8361389399
 21
9.2224629656
  0
LINE
  5
2D7
100
AcDbEntity
  8
0
100
AcDbLine
 62
4
  6
CONTINUOUS
 10
13.995647254
 20
7.4543436233
 11
13.9921963347
 21
7.4606695496
  0
LINE
  5
2D8
100
AcDbEntity
  8
0
100
AcDbLine
 62
4
  6
CONTINUOUS
 10
13.9852944998
 20
7.4926399231
 11
13.9783926648
 21
7.5052917793
  0
LINE
  5
2D9
100
AcDbEntity
  8
0
100
AcDbLine
 62
4
  6
CONTINUOUS
 10
14.0025490877
 20
7.5382843521
 11
14.006000007
 21
7.5319584258
  0
LINE
  5
2DA
100
AcDbEntity
  8
0
100
AcDbLine
 62
4
  6
CONTINUOUS
 10
13.9749417473
 20
7.5888917764
 11
13.9714908296
 21
7.5952177042
  0
LINE
  5
2DB
100
AcDbEntity
  8
0
100
AcDbLine
 62
4
  6
CONTINUOUS
 10
12.8361389399
 20
9.2224629656
 11
12.8395898567
 21
9.2064777783
  0
LINE
  5
2DC
100
AcDbEntity
  8
0
100
AcDbLine
 62
4
  6
CONTINUOUS
 10
12.7507287221
 20
6.4160519869
 11
12.7472778027
 21
6.403059396
  0
LINE
  5
2DD
100
AcDbEntity
  8
0
100
AcDbLine
 62
4
  6
CONTINUOUS
 10
14.0801947585
 20
10.4144694318
 11
14.0870965938
 21
10.4404546104
  0
LINE
  5
2DE
100
AcDbEntity
  8
0
100
AcDbLine
 62
4
  6
CONTINUOUS
 10
12.7231213798
 20
6.4666594095
 11
12.7334741329
 21
6.4863186602
  0
LINE
  5
2DF
100
AcDbEntity
  8
0
100
AcDbLine
 62
4
  6
CONTINUOUS
 10
12.0426265993
 20
6.0809369342
 11
12.0297475875
 21
6.0625115794
  0
LINE
  5
2E0
100
AcDbEntity
  8
0
100
AcDbLine
 62
4
  6
CONTINUOUS
 10
11.9009574698
 20
6.1293987562
 11
11.9138364875
 21
6.1381648519
  0
LINE
  5
2E1
100
AcDbEntity
  8
0
100
AcDbLine
 62
4
  6
CONTINUOUS
 10
11.8880784614
 20
6.217225246
 11
12.0426265993
 21
6.2837813652
  0
LINE
  5
2E2
100
AcDbEntity
  8
0
100
AcDbLine
 62
4
  6
CONTINUOUS
 10
13.9990981709
 20
7.6991584187
 11
14.006000007
 21
7.6865065637
  0
LINE
  5
2E3
100
AcDbEntity
  8
0
100
AcDbLine
 62
4
  6
CONTINUOUS
 10
14.0767438408
 20
10.3918175838
 11
14.0801947585
 21
10.4144694318
  0
LINE
  5
2E4
100
AcDbEntity
  8
0
100
AcDbLine
 62
4
  6
CONTINUOUS
 10
14.1181548529
 20
10.412499035
 11
14.114703936
 21
10.3898471879
  0
LINE
  5
2E5
100
AcDbEntity
  8
0
100
AcDbLine
 62
4
  6
CONTINUOUS
 10
14.1181548529
 20
10.2579508971
 11
14.114703936
 21
10.2352990499
  0
LINE
  5
2E6
100
AcDbEntity
  8
0
100
AcDbLine
 62
4
  6
CONTINUOUS
 10
14.114703936
 20
10.3898471879
 11
14.1112530167
 21
10.3768545969
  0
LINE
  5
2E7
100
AcDbEntity
  8
0
100
AcDbLine
 62
4
  6
CONTINUOUS
 10
14.114703936
 20
10.2352990499
 11
14.1112530167
 21
10.222306459
  0
LINE
  5
2E8
100
AcDbEntity
  8
0
100
AcDbLine
 62
4
  6
CONTINUOUS
 10
14.0939984287
 20
10.051091668
 11
14.1009002637
 21
10.0770768462
  0
LINE
  5
2E9
100
AcDbEntity
  8
0
100
AcDbLine
 62
4
  6
CONTINUOUS
 10
14.114703936
 20
10.080750912
 11
14.1181548529
 21
10.0937435006
  0
LINE
  5
2EA
100
AcDbEntity
  8
0
100
AcDbLine
 62
4
  6
CONTINUOUS
 10
12.7541796389
 20
6.1392668169
 11
12.7127686268
 21
6.0509705553
  0
LINE
  5
2EB
100
AcDbEntity
  8
0
100
AcDbLine
 62
4
  6
CONTINUOUS
 10
12.7541796389
 20
6.2938149548
 11
12.7127686268
 21
6.2538149863
  0
LINE
  5
2EC
100
AcDbEntity
  8
0
100
AcDbLine
 62
4
  6
CONTINUOUS
 10
12.0297475875
 20
6.0625115794
 11
12.0039895648
 21
6.0449793871
  0
LINE
  5
2ED
100
AcDbEntity
  8
0
100
AcDbLine
 62
4
  6
CONTINUOUS
 10
13.9921963347
 20
7.4606695496
 11
13.9852944998
 21
7.4926399231
  0
LINE
  5
2EE
100
AcDbEntity
  8
0
100
AcDbLine
 62
4
  6
CONTINUOUS
 10
13.9714908296
 20
7.5952177042
 11
13.9680399118
 21
7.6112028906
  0
LINE
  5
2EF
100
AcDbEntity
  8
0
100
AcDbLine
 62
4
  6
CONTINUOUS
 10
14.006000007
 20
7.5319584258
 11
14.0094509239
 21
7.5159732384
  0
LINE
  5
2F0
100
AcDbEntity
  8
0
100
AcDbLine
 62
4
  6
CONTINUOUS
 10
14.006000007
 20
7.6865065637
 11
14.0094509239
 21
7.6705213763
  0
LINE
  5
2F1
100
AcDbEntity
  8
0
100
AcDbLine
 62
4
  6
CONTINUOUS
 10
13.9680399118
 20
7.5049510458
 11
13.9680399118
 21
7.4276769769
  0
LINE
  5
2F2
100
AcDbEntity
  8
0
100
AcDbLine
 62
4
  6
CONTINUOUS
 10
13.9680399118
 20
7.6112028906
 11
13.9680399118
 21
7.6305214079
  0
LINE
  5
2F3
100
AcDbEntity
  8
0
100
AcDbLine
 62
4
  6
CONTINUOUS
 10
13.9818435829
 20
7.3540769725
 11
13.9818435829
 21
7.2961214208
  0
LINE
  5
2F4
100
AcDbEntity
  8
0
100
AcDbLine
 62
4
  6
CONTINUOUS
 10
14.0094509239
 20
7.6705213763
 11
14.0094509239
 21
7.6512028591
  0
LINE
  5
2F5
100
AcDbEntity
  8
0
100
AcDbLine
 62
4
  6
CONTINUOUS
 10
14.0094509239
 20
7.5159732384
 11
14.0094509239
 21
7.4966547212
  0
LINE
  5
2F6
100
AcDbEntity
  8
0
100
AcDbLine
 62
4
  6
CONTINUOUS
 10
14.0767438408
 20
10.2662472217
 11
14.0767438408
 21
10.1889731528
  0
LINE
  5
2F7
100
AcDbEntity
  8
0
100
AcDbLine
 62
4
  6
CONTINUOUS
 10
14.0767438408
 20
10.1213583424
 11
14.0767438408
 21
10.0537435321
  0
LINE
  5
2F8
100
AcDbEntity
  8
0
100
AcDbLine
 62
4
  6
CONTINUOUS
 10
14.0767438408
 20
10.3724990665
 11
14.0767438408
 21
10.3918175838
  0
LINE
  5
2F9
100
AcDbEntity
  8
0
100
AcDbLine
 62
4
  6
CONTINUOUS
 10
14.1009002637
 20
10.1446916566
 11
14.1009002637
 21
10.0770768462
  0
LINE
  5
2FA
100
AcDbEntity
  8
0
100
AcDbLine
 62
4
  6
CONTINUOUS
 10
14.1181548529
 20
10.4318175522
 11
14.1181548529
 21
10.412499035
  0
LINE
  5
2FB
100
AcDbEntity
  8
0
100
AcDbLine
 62
4
  6
CONTINUOUS
 10
14.1181548529
 20
10.2772694143
 11
14.1181548529
 21
10.2579508971
  0
LINE
  5
2FC
100
AcDbEntity
  8
0
100
AcDbLine
 62
4
  6
CONTINUOUS
 10
14.1181548529
 20
10.0937435006
 11
14.1181548529
 21
10.1613583109
  0
LINE
  5
2FD
100
AcDbEntity
  8
0
100
AcDbLine
 62
4
  6
CONTINUOUS
 10
13.9680399118
 20
7.6305214079
 11
13.9714908296
 21
7.6531732559
  0
LINE
  5
2FE
100
AcDbEntity
  8
0
100
AcDbLine
 62
4
  6
CONTINUOUS
 10
14.0094509239
 20
7.6512028591
 11
14.006000007
 21
7.6285510119
  0
LINE
  5
2FF
100
AcDbEntity
  8
0
100
AcDbLine
 62
4
  6
CONTINUOUS
 10
14.0094509239
 20
7.4966547212
 11
14.006000007
 21
7.474002874
  0
LINE
  5
300
100
AcDbEntity
  8
0
100
AcDbLine
 62
4
  6
CONTINUOUS
 10
13.9714908296
 20
7.6531732559
 11
13.9783926648
 21
7.6791584345
  0
LINE
  5
301
100
AcDbEntity
  8
0
100
AcDbLine
 62
4
  6
CONTINUOUS
 10
14.006000007
 20
7.6285510119
 11
14.0025490877
 21
7.615558421
  0
LINE
  5
302
100
AcDbEntity
  8
0
100
AcDbLine
 62
4
  6
CONTINUOUS
 10
13.9783926648
 20
7.6791584345
 11
13.9887454178
 21
7.6988176852
  0
LINE
  5
303
100
AcDbEntity
  8
0
100
AcDbLine
 62
4
  6
CONTINUOUS
 10
14.0025490877
 20
7.4610102831
 11
13.995647254
 21
7.4543436233
  0
LINE
  5
304
100
AcDbEntity
  8
0
100
AcDbLine
 62
7
  6
CONTINUOUS
 10
14.2074473803
 20
11.5129711535
 11
14.2074473803
 21
6.6833417359
  0
LINE
  5
305
100
AcDbEntity
  8
0
100
AcDbLine
 62
4
  6
CONTINUOUS
 10
14.006000007
 20
7.474002874
 11
14.0025490877
 21
7.4610102831
  0
LINE
  5
306
100
AcDbEntity
  8
0
100
AcDbLine
 62
4
  6
CONTINUOUS
 10
14.0094509239
 20
7.3517658419
 11
13.9680399118
 21
7.2634695803
  0
LINE
  5
307
100
AcDbEntity
  8
0
100
AcDbLine
 62
7
  6
CONTINUOUS
 10
9.3778179627
 20
11.8479070912
 11
14.2074473803
 21
11.5129711535
  0
LINE
  5
308
100
AcDbEntity
  8
0
100
AcDbLine
 62
4
  6
CONTINUOUS
 10
14.1009002637
 20
10.2219657255
 11
14.0939984287
 21
10.253936099
  0
LINE
  5
309
100
AcDbEntity
  8
0
100
AcDbLine
 62
4
  6
CONTINUOUS
 10
14.0801947585
 20
10.3565138801
 11
14.0767438408
 21
10.3724990665
  0
LINE
  5
30A
100
AcDbEntity
  8
0
100
AcDbLine
 62
4
  6
CONTINUOUS
 10
14.114703936
 20
10.2932546017
 11
14.1181548529
 21
10.2772694143
  0
LINE
  5
30B
100
AcDbEntity
  8
0
100
AcDbLine
 62
7
  6
CONTINUOUS
 10
12.6221820373
 20
5.1520929088
 11
14.2074473803
 21
6.6833417359
  0
LINE
  5
30C
100
AcDbEntity
  8
0
100
AcDbLine
 62
4
  6
CONTINUOUS
 10
14.0767438408
 20
10.0537435321
 11
14.0836456763
 21
10.0410916765
  0
LINE
  5
30D
100
AcDbEntity
  8
0
100
AcDbLine
 62
4
  6
CONTINUOUS
 10
14.1009002637
 20
10.0770768462
 11
14.104351183
 21
10.0707509199
  0
LINE
  5
30E
100
AcDbEntity
  8
0
100
AcDbLine
 62
4
  6
CONTINUOUS
 10
14.104351183
 20
10.2156397992
 11
14.1009002637
 21
10.2219657255
  0
LINE
  5
30F
100
AcDbEntity
  8
0
100
AcDbLine
 62
4
  6
CONTINUOUS
 10
14.0939984287
 20
10.253936099
 11
14.0870965938
 21
10.2665879552
  0
LINE
  5
310
100
AcDbEntity
  8
0
100
AcDbLine
 62
4
  6
CONTINUOUS
 10
14.1112530167
 20
10.299580528
 11
14.114703936
 21
10.2932546017
  0
LINE
  5
311
100
AcDbEntity
  8
0
100
AcDbLine
 62
4
  6
CONTINUOUS
 10
14.0836456763
 20
10.3501879523
 11
14.0801947585
 21
10.3565138801
  0
LINE
  5
312
100
AcDbEntity
  8
0
100
AcDbLine
 62
4
  6
CONTINUOUS
 10
14.1078020998
 20
10.4604545946
 11
14.114703936
 21
10.4478027396
  0
LINE
  5
313
100
AcDbEntity
  8
0
100
AcDbLine
 62
4
  6
CONTINUOUS
 10
14.114703936
 20
10.4478027396
 11
14.1181548529
 21
10.4318175522
  0
ARC
  5
314
100
AcDbEntity
  8
0
100
AcDbCircle
 62
7
  6
CONTINUOUS
 10
10.8245336244
 20
6.4233172469
 40
0.8586478353
100
AcDbArc
 50
180.0228845628
 51
188.7149286648
  0
ARC
  5
315
100
AcDbEntity
  8
0
100
AcDbCircle
 62
7
  6
CONTINUOUS
 10
10.8433617131
 20
6.4427514139
 40
0.8572880297
100
AcDbArc
 50
180.0185218869
 51
187.8400943436
  0
ARC
  5
316
100
AcDbEntity
  8
0
100
AcDbCircle
 62
7
  6
CONTINUOUS
 10
10.8320214823
 20
6.3439148883
 40
0.7653881031
100
AcDbArc
 50
4.2516956797
 51
4.6469628101
  0
ARC
  5
317
100
AcDbEntity
  8
0
100
AcDbCircle
 62
7
  6
CONTINUOUS
 10
10.7526330968
 20
6.4652618719
 40
0.7618266755
100
AcDbArc
 50
135.2785364323
 51
136.1177010652
  0
ARC
  5
318
100
AcDbEntity
  8
0
100
AcDbCircle
 62
7
  6
CONTINUOUS
 10
10.9098925437
 20
6.3024576634
 40
0.7618202148
100
AcDbArc
 50
311.8975177978
 51
312.6927765978
  0
ARC
  5
319
100
AcDbEntity
  8
0
100
AcDbCircle
 62
7
  6
CONTINUOUS
 10
10.8394432595
 20
6.3443486303
 40
0.757954603
100
AcDbArc
 50
0.0034271217
 51
4.2605919762
  0
ARC
  5
31A
100
AcDbEntity
  8
0
100
AcDbCircle
 62
7
  6
CONTINUOUS
 10
10.7200525718
 20
6.2747560616
 40
0.7516147184
100
AcDbArc
 50
235.3910215755
 51
238.8274398194
  0
ARC
  5
31B
100
AcDbEntity
  8
0
100
AcDbCircle
 62
7
  6
CONTINUOUS
 10
10.7681975354
 20
6.3246352914
 40
0.7516147184
100
AcDbArc
 50
55.3910215755
 51
58.8274398194
  0
ARC
  5
31C
100
AcDbEntity
  8
0
100
AcDbCircle
 62
7
  6
CONTINUOUS
 10
10.5885998788
 20
6.1511572662
 40
0.7516147184
100
AcDbArc
 50
55.3910215755
 51
58.8274398194
  0
ARC
  5
31D
100
AcDbEntity
  8
0
100
AcDbCircle
 62
7
  6
CONTINUOUS
 10
10.6562224006
 20
6.260456636
 40
0.6867376267
100
AcDbArc
 50
180.0005052752
 51
181.8259411372
  0
ARC
  5
31E
100
AcDbEntity
  8
0
100
AcDbCircle
 62
7
  6
CONTINUOUS
 10
10.65243005
 20
6.1654566918
 40
0.6867376267
100
AcDbArc
 50
0.0005052752
 51
1.8259411372
  0
ARC
  5
31F
100
AcDbEntity
  8
0
100
AcDbCircle
 62
7
  6
CONTINUOUS
 10
10.8320277066
 20
6.3389347169
 40
0.6867376267
100
AcDbArc
 50
0.0005052751
 51
1.8259411373
  0
ARC
  5
320
100
AcDbEntity
  8
0
100
AcDbCircle
 62
7
  6
CONTINUOUS
 10
10.8358161029
 20
6.3389347399
 40
0.6829492304
100
AcDbArc
 50
358.1690010863
 51
0.0005061518
  0
ARC
  5
321
100
AcDbEntity
  8
0
100
AcDbCircle
 62
7
  6
CONTINUOUS
 10
10.6516783385
 20
6.2604686851
 40
0.6821935648
100
AcDbArc
 50
178.1679866209
 51
180.0015206171
  0
ARC
  5
322
100
AcDbEntity
  8
0
100
AcDbCircle
 62
7
  6
CONTINUOUS
 10
10.6569741121
 20
6.1654446427
 40
0.6821935648
100
AcDbArc
 50
358.1679866209
 51
0.0015206171
  0
ARC
  5
323
100
AcDbEntity
  8
0
100
AcDbCircle
 62
7
  6
CONTINUOUS
 10
10.961715232
 20
6.3700481774
 40
0.6814321068
100
AcDbArc
 50
309.3121181322
 51
311.2333712462
  0
ARC
  5
324
100
AcDbEntity
  8
0
100
AcDbCircle
 62
7
  6
CONTINUOUS
 10
10.8219611267
 20
6.5147297285
 40
0.6814128378
100
AcDbArc
 50
136.6978945576
 51
138.8356190388
  0
ARC
  5
325
100
AcDbEntity
  8
0
100
AcDbCircle
 62
7
  6
CONTINUOUS
 10
10.9152537952
 20
6.3247027666
 40
0.6810953294
100
AcDbArc
 50
314.0076315448
 51
319.4676333375
  0
ARC
  5
326
100
AcDbEntity
  8
0
100
AcDbCircle
 62
7
  6
CONTINUOUS
 10
10.7750435068
 20
6.4698595531
 40
0.6810893224
100
AcDbArc
 50
128.5592900449
 51
134.0064509724
  0
ARC
  5
327
100
AcDbEntity
  8
0
100
AcDbCircle
 62
7
  6
CONTINUOUS
 10
10.7122652705
 20
6.1560937481
 40
0.6280928079
100
AcDbArc
 50
294.9939510668
 51
298.867191063
  0
ARC
  5
328
100
AcDbEntity
  8
0
100
AcDbCircle
 62
7
  6
CONTINUOUS
 10
10.7759848367
 20
6.4432976048
 40
0.6280928079
100
AcDbArc
 50
114.9939510668
 51
118.867191063
  0
ARC
  5
329
100
AcDbEntity
  8
0
100
AcDbCircle
 62
7
  6
CONTINUOUS
 10
10.5963871801
 20
6.2698195797
 40
0.6280928079
100
AcDbArc
 50
114.9939510668
 51
118.867191063
  0
ARC
  5
32A
100
AcDbEntity
  8
0
100
AcDbCircle
 62
7
  6
CONTINUOUS
 10
9.8438298779
 20
9.8810820149
 40
0.6018119492
100
AcDbArc
 50
176.788244257
 51
180.0013624272
  0
ARC
  5
32B
100
AcDbEntity
  8
0
100
AcDbCircle
 62
7
  6
CONTINUOUS
 10
9.748562161
 20
9.8000189225
 40
0.6003537179
100
AcDbArc
 50
167.9168307351
 51
180.0465589605
  0
ARC
  5
32C
100
AcDbEntity
  8
0
100
AcDbCircle
 62
7
  6
CONTINUOUS
 10
9.7548619465
 20
9.8048512492
 40
0.5922101892
100
AcDbArc
 50
168.3441690807
 51
180.0433753538
  0
ARC
  5
32D
100
AcDbEntity
  8
0
100
AcDbCircle
 62
7
  6
CONTINUOUS
 10
9.8497084913
 20
9.884735821
 40
0.5831956682
100
AcDbArc
 50
177.5267967588
 51
180.0007725971
  0
ARC
  5
32E
100
AcDbEntity
  8
0
100
AcDbCircle
 62
7
  6
CONTINUOUS
 10
9.851350158
 20
9.8776274689
 40
0.4824491912
100
AcDbArc
 50
179.7113357377
 51
180.0000182682
  0
SPLINE
  5
32F
100
AcDbEntity
  8
0
100
AcDbSpline
 62
7
  6
CONTINUOUS
 70
0
 71
3
 72
15
 73
11
 74
0
 42
0.0000001
 43
0.0000001
 44
0.0000000001
 40
0.0
 40
0.0
 40
0.0
 40
0.0
 40
0.1157071005
 40
0.2346197568
 40
0.3568087849
 40
0.4820230849
 40
0.6096882194
 40
0.7390418127
 40
0.8693387277
 40
1.0
 40
1.0
 40
1.0
 40
1.0
 10
10.3310037883
 20
5.6316652989
 30
0.0
 10
10.3557496171
 20
5.627930652
 30
0.0
 10
10.4059909139
 20
5.6207738824
 30
0.0
 10
10.4825891269
 20
5.6113283849
 30
0.0
 10
10.5614141953
 20
5.6032697449
 30
0.0
 10
10.6422841617
 20
5.5967872305
 30
0.0
 10
10.7248223645
 20
5.5919711825
 30
0.0
 10
10.8085385575
 20
5.5887832531
 30
0.0
 10
10.89294478
 20
5.5870770216
 30
0.0
 10
10.9493882127
 20
5.5867887948
 30
0.0
 10
10.9776486623
 20
5.5868203246
 30
0.0
  0
SPLINE
  5
330
100
AcDbEntity
  8
0
100
AcDbSpline
 62
7
  6
CONTINUOUS
 70
0
 71
3
 72
15
 73
11
 74
0
 42
0.0000001
 43
0.0000001
 44
0.0000000001
 40
0.0
 40
0.0
 40
0.0
 40
0.0
 40
0.1342296443
 40
0.2673100384
 40
0.3984874282
 40
0.5268627181
 40
0.6515802379
 40
0.7720606852
 40
0.8881322733
 40
1.0
 40
1.0
 40
1.0
 40
1.0
 10
10.2931559112
 20
6.8198662804
 30
0.0
 10
10.278101367
 20
6.7961720315
 30
0.0
 10
10.2482204067
 20
6.7489232187
 30
0.0
 10
10.2040408639
 20
6.6782583626
 30
0.0
 10
10.1609422733
 20
6.6083632941
 30
0.0
 10
10.1192501505
 20
6.5396579545
 30
0.0
 10
10.0792402687
 20
6.4725512797
 30
0.0
 10
10.0410699031
 20
6.4073465037
 30
0.0
 10
10.004748078
 20
6.3441762964
 30
0.0
 10
9.9812833289
 20
6.3026802632
 30
0.0
 10
9.9698334742
 20
6.2822778795
 30
0.0
  0
SPLINE
  5
331
100
AcDbEntity
  8
0
100
AcDbSpline
 62
7
  6
CONTINUOUS
 70
0
 71
3
 72
19
 73
15
 74
0
 42
0.0000001
 43
0.0000001
 44
0.0000000001
 40
0.0
 40
0.0
 40
0.0
 40
0.0
 40
0.1260771208
 40
0.2528347281
 40
0.3163648934
 40
0.3799117399
 40
0.4433981571
 40
0.5067397731
 40
0.5698503075
 40
0.6326482349
 40
0.6950627485
 40
0.7570377409
 40
0.8795267422
 40
1.0
 40
1.0
 40
1.0
 40
1.0
 10
9.9698334742
 20
6.2385749154
 30
0.0
 10
9.9811185341
 20
6.2129039168
 30
0.0
 10
10.0041901235
 20
6.1616153611
 30
0.0
 10
10.0343617859
 20
6.0980396701
 30
0.0
 10
10.0594680623
 20
6.0474700203
 30
0.0
 10
10.0787898989
 20
6.0097439809
 30
0.0
 10
10.098584127
 20
5.9723110114
 30
0.0
 10
10.1188350354
 20
5.9352335815
 30
0.0
 10
10.139516834
 20
5.8985704652
 30
0.0
 10
10.1605948186
 20
5.8623721435
 30
0.0
 10
10.1820285342
 20
5.8266776251
 30
0.0
 10
10.2109093534
 20
5.7799741853
 30
0.0
 10
10.2476572794
 20
5.7229601567
 30
0.0
 10
10.277933881
 20
5.6781935836
 30
0.0
 10
10.2931559112
 20
5.6561415401
 30
0.0
  0
SPLINE
  5
332
100
AcDbEntity
  8
0
100
AcDbSpline
 62
7
  6
CONTINUOUS
 70
0
 71
3
 72
15
 73
11
 74
0
 42
0.0000001
 43
0.0000001
 44
0.0000000001
 40
0.0
 40
0.0
 40
0.0
 40
0.0
 40
0.1243106927
 40
0.2486903654
 40
0.3732068813
 40
0.4979257782
 40
0.6229094027
 40
0.7482155572
 40
0.8738968336
 40
1.0
 40
1.0
 40
1.0
 40
1.0
 10
11.3860138031
 20
5.8359518043
 30
0.0
 10
11.3753452999
 20
5.8256466469
 30
0.0
 10
11.3533187587
 20
5.8057251237
 30
0.0
 10
11.3183825025
 20
5.7780629435
 30
0.0
 10
11.2816698275
 20
5.7527167666
 30
0.0
 10
11.2433209085
 20
5.7297824213
 30
0.0
 10
11.2034792056
 20
5.7093452778
 30
0.0
 10
11.1622932641
 20
5.6914827193
 30
0.0
 10
11.1199203787
 20
5.6762606526
 30
0.0
 10
11.0910317621
 20
5.6679251435
 30
0.0
 10
11.0764499686
 20
5.6642136552
 30
0.0
  0
SPLINE
  5
333
100
AcDbEntity
  8
0
100
AcDbSpline
 62
7
  6
CONTINUOUS
 70
0
 71
3
 72
19
 73
15
 74
0
 42
0.0000001
 43
0.0000001
 44
0.0000000001
 40
0.0
 40
0.0
 40
0.0
 40
0.0
 40
0.12364354
 40
0.2474283104
 40
0.3714908041
 40
0.4959579644
 40
0.5583958401
 40
0.6209760479
 40
0.6837103254
 40
0.746608766
 40
0.8096786341
 40
0.8729270685
 40
0.9363647018
 40
1.0
 40
1.0
 40
1.0
 40
1.0
 10
10.3029034668
 20
6.9572691551
 30
0.0
 10
10.2875693208
 20
6.9424572566
 30
0.0
 10
10.2582628516
 20
6.9113494377
 30
0.0
 10
10.218865646
 20
6.8607274298
 30
0.0
 10
10.1843086672
 20
6.8065140351
 30
0.0
 10
10.1597914611
 20
6.7587334029
 30
0.0
 10
10.1428491971
 20
6.7191782048
 30
0.0
 10
10.1314840899
 20
6.6888520169
 30
0.0
 10
10.1214979978
 20
6.6579615717
 30
0.0
 10
10.1129110638
 20
6.6265656765
 30
0.0
 10
10.1057380968
 20
6.5947261897
 30
0.0
 10
10.099994644
 20
6.5625035086
 30
0.0
 10
10.0956903137
 20
6.5299596527
 30
0.0
 10
10.093789682
 20
6.5081226539
 30
0.0
 10
10.0930805046
 20
6.4971730562
 30
0.0
  0
SPLINE
  5
334
100
AcDbEntity
  8
0
100
AcDbSpline
 62
7
  6
CONTINUOUS
 70
0
 71
3
 72
41
 73
37
 74
0
 42
0.0000001
 43
0.0000001
 44
0.0000000001
 40
0.0
 40
0.0
 40
0.0
 40
0.0
 40
0.0312401642
 40
0.062624511
 40
0.0941485884
 40
0.1258004811
 40
0.1575671414
 40
0.1894333607
 40
0.2213818509
 40
0.2373833744
 40
0.2533983241
 40
0.2854538256
 40
0.3175321106
 40
0.3335754148
 40
0.3496164547
 40
0.3816766711
 40
0.413696399
 40
0.4456555539
 40
0.4775351284
 40
0.5093176384
 40
0.5409874677
 40
0.5725311255
 40
0.6039375118
 40
0.6351982701
 40
0.6663079324
 40
0.6972640222
 40
0.7280671856
 40
0.758721285
 40
0.789233296
 40
0.8196131699
 40
0.8498737427
 40
0.8800304845
 40
0.9101011372
 40
0.9401053254
 40
0.9700642144
 40
1.0
 40
1.0
 40
1.0
 40
1.0
 10
11.5948936078
 20
6.405923504
 30
0.0
 10
11.5934266041
 20
6.4239717227
 30
0.0
 10
11.5891997885
 20
6.460059681
 30
0.0
 10
11.5790620379
 20
6.5137239198
 30
0.0
 10
11.5651642161
 20
6.5667884906
 30
0.0
 10
11.5475764013
 20
6.6189792783
 30
0.0
 10
11.5263895063
 20
6.6700303511
 30
0.0
 10
11.5017132574
 20
6.7196794037
 30
0.0
 10
11.4783558698
 20
6.7596581281
 30
0.0
 10
11.4580610193
 20
6.7906934637
 30
0.0
 10
11.4367015984
 20
6.821082029
 30
0.0
 10
11.4080894539
 20
6.8577287968
 30
0.0
 10
11.3770833363
 20
6.8923954914
 30
0.0
 10
11.3509286524
 20
6.9188440208
 30
0.0
 10
11.3239138681
 20
6.9443979602
 30
0.0
 10
11.2885908848
 20
6.9746057054
 30
0.0
 10
11.243926739
 20
7.0078995834
 30
0.0
 10
11.1972162289
 20
7.0380658876
 30
0.0
 10
11.1486990327
 20
7.0649487145
 30
0.0
 10
11.0986230475
 20
7.0884109418
 30
0.0
 10
11.0472443929
 20
7.1083324318
 30
0.0
 10
10.9948256144
 20
7.1246107274
 30
0.0
 10
10.9416347029
 20
7.1371617487
 30
0.0
 10
10.8879438717
 20
7.1459213088
 30
0.0
 10
10.8340277921
 20
7.1508441503
 30
0.0
 10
10.7801624059
 20
7.151904066
 30
0.0
 10
10.7266236034
 20
7.1490950062
 30
0.0
 10
10.6736856442
 20
7.1424312124
 30
0.0
 10
10.6216198289
 20
7.1319461897
 30
0.0
 10
10.5706933144
 20
7.117692556
 30
0.0
 10
10.5211673778
 20
7.0997432184
 30
0.0
 10
10.4732960521
 20
7.0781899753
 30
0.0
 10
10.4273254377
 20
7.0531430047
 30
0.0
 10
10.3834911284
 20
7.0247294452
 30
0.0
 10
10.3420210655
 20
6.993098088
 30
0.0
 10
10.3160815241
 20
6.9699638317
 30
0.0
 10
10.3035845461
 20
6.9579261208
 30
0.0
  0
LINE
  5
335
100
AcDbEntity
  8
0
100
AcDbLine
 62
7
  6
CONTINUOUS
 10
10.3035845461
 20
6.9579261208
 11
10.3029034668
 21
6.9572691551
  0
SPLINE
  5
336
100
AcDbEntity
  8
0
100
AcDbSpline
 62
7
  6
CONTINUOUS
 70
0
 71
3
 72
19
 73
15
 74
0
 42
0.0000001
 43
0.0000001
 44
0.0000000001
 40
0.0
 40
0.0
 40
0.0
 40
0.0
 40
0.1273245906
 40
0.2538177158
 40
0.3795245695
 40
0.5045229123
 40
0.5668074949
 40
0.6289561876
 40
0.6909854975
 40
0.7529133791
 40
0.8147586749
 40
0.8765412287
 40
0.9382813716
 40
1.0
 40
1.0
 40
1.0
 40
1.0
 10
11.5973978612
 20
6.344393967
 30
0.0
 10
11.5973978612
 20
6.3204239529
 30
0.0
 10
11.5951126477
 20
6.2726076015
 30
0.0
 10
11.5847782538
 20
6.2017993793
 30
0.0
 10
11.5676426707
 20
6.132768786
 30
0.0
 10
11.5477928545
 20
6.0771756126
 30
0.0
 10
11.528701245
 20
6.034256037
 30
0.0
 10
11.5128257877
 20
6.0029301215
 30
0.0
 10
11.4954141113
 20
5.9725095727
 30
0.0
 10
11.4765072184
 20
5.9430625496
 30
0.0
 10
11.4561474947
 20
5.914657868
 30
0.0
 10
11.4343825235
 20
5.8873598306
 30
0.0
 10
11.411262327
 20
5.8612327329
 30
0.0
 10
11.3949780467
 20
5.844631953
 30
0.0
 10
11.3866312546
 20
5.8365489827
 30
0.0
  0
LINE
  5
337
100
AcDbEntity
  8
0
100
AcDbLine
 62
7
  6
CONTINUOUS
 10
11.3866312546
 20
5.8365489827
 11
11.3860138031
 21
5.8359518043
  0
SPLINE
  5
338
100
AcDbEntity
  8
0
100
AcDbSpline
 62
7
  6
CONTINUOUS
 70
0
 71
3
 72
19
 73
15
 74
0
 42
0.0000001
 43
0.0000001
 44
0.0000000001
 40
0.0
 40
0.0
 40
0.0
 40
0.0
 40
0.1249099526
 40
0.2495715146
 40
0.311863534
 40
0.3741457153
 40
0.4364342526
 40
0.4987459012
 40
0.5610982597
 40
0.6235087121
 40
0.6859938032
 40
0.748569392
 40
0.8740183137
 40
1.0
 40
1.0
 40
1.0
 40
1.0
 10
10.4727535678
 20
6.9933443055
 30
0.0
 10
10.4558471964
 20
6.9840227393
 30
0.0
 10
10.42291186
 20
6.9638207129
 30
0.0
 10
10.3842928311
 20
6.9348557505
 30
0.0
 10
10.355163354
 20
6.9096307485
 30
0.0
 10
10.3342305812
 20
6.8897165494
 30
0.0
 10
10.3142502721
 20
6.8688433728
 30
0.0
 10
10.2952612147
 20
6.8470499978
 30
0.0
 10
10.2772985174
 20
6.8243791889
 30
0.0
 10
10.2603977798
 20
6.8008731956
 30
0.0
 10
10.2445895265
 20
6.776577281
 30
0.0
 10
10.2249970112
 20
6.7431682487
 30
0.0
 10
10.2033790796
 20
6.6996363665
 30
0.0
 10
10.1893403139
 20
6.6633331626
 30
0.0
 10
10.1831487739
 20
6.6448722546
 30
0.0
  0
SPLINE
  5
339
100
AcDbEntity
  8
0
100
AcDbSpline
 62
7
  6
CONTINUOUS
 70
0
 71
3
 72
15
 73
11
 74
0
 42
0.0000001
 43
0.0000001
 44
0.0000000001
 40
0.0
 40
0.0
 40
0.0
 40
0.0
 40
0.1118677267
 40
0.2279393148
 40
0.3484197622
 40
0.473137282
 40
0.6015125718
 40
0.7326899616
 40
0.8657703557
 40
1.0
 40
1.0
 40
1.0
 40
1.0
 10
11.0154965394
 20
5.6060470474
 30
0.0
 10
11.0269463941
 20
5.6264494312
 30
0.0
 10
11.0504111432
 20
5.6679454644
 30
0.0
 10
11.0867329683
 20
5.7311156716
 30
0.0
 10
11.1249033339
 20
5.7963204476
 30
0.0
 10
11.1649132157
 20
5.8634271225
 30
0.0
 10
11.2066053385
 20
5.9321324621
 30
0.0
 10
11.2497039291
 20
6.0020275306
 30
0.0
 10
11.2938834719
 20
6.0726923867
 30
0.0
 10
11.3237644322
 20
6.1199411994
 30
0.0
 10
11.3388189764
 20
6.1436354483
 30
0.0
  0
SPLINE
  5
33A
100
AcDbEntity
  8
0
100
AcDbSpline
 62
7
  6
CONTINUOUS
 70
0
 71
3
 72
19
 73
15
 74
0
 42
0.0000001
 43
0.0000001
 44
0.0000000001
 40
0.0
 40
0.0
 40
0.0
 40
0.0
 40
0.1204732578
 40
0.2429622592
 40
0.3049372515
 40
0.3673517652
 40
0.4301496926
 40
0.493260227
 40
0.5566018429
 40
0.6200882601
 40
0.6836351066
 40
0.7471652719
 40
0.8739228793
 40
1.0
 40
1.0
 40
1.0
 40
1.0
 10
11.3388189764
 20
6.1873384124
 30
0.0
 10
11.3235969462
 20
6.2093904559
 30
0.0
 10
11.2933203446
 20
6.254157029
 30
0.0
 10
11.2565724186
 20
6.3111710576
 30
0.0
 10
11.2276915994
 20
6.3578744975
 30
0.0
 10
11.2062578838
 20
6.3935690159
 30
0.0
 10
11.1851798992
 20
6.4297673376
 30
0.0
 10
11.1644981006
 20
6.4664304538
 30
0.0
 10
11.1442471922
 20
6.5035078838
 30
0.0
 10
11.1244529641
 20
6.5409408532
 30
0.0
 10
11.1051311275
 20
6.5786668926
 30
0.0
 10
11.0800248511
 20
6.6292365424
 30
0.0
 10
11.0498531887
 20
6.6928122334
 30
0.0
 10
11.0267815994
 20
6.7441007891
 30
0.0
 10
11.0154965394
 20
6.7697717877
 30
0.0
  0
SPLINE
  5
33B
100
AcDbEntity
  8
0
100
AcDbSpline
 62
7
  6
CONTINUOUS
 70
0
 71
3
 72
15
 73
11
 74
0
 42
0.0000001
 43
0.0000001
 44
0.0000000001
 40
0.0
 40
0.0
 40
0.0
 40
0.0
 40
0.1306612723
 40
0.2609581874
 40
0.3903117807
 40
0.5179769152
 40
0.6431912152
 40
0.7653802433
 40
0.8842928995
 40
1.0
 40
1.0
 40
1.0
 40
1.0
 10
10.9776486623
 20
6.7942480289
 30
0.0
 10
10.9493882127
 20
6.7942164992
 30
0.0
 10
10.89294478
 20
6.7945047259
 30
0.0
 10
10.8085385575
 20
6.7962109575
 30
0.0
 10
10.7248223645
 20
6.7993988868
 30
0.0
 10
10.6422841616
 20
6.8042149349
 30
0.0
 10
10.5614141953
 20
6.8106974493
 30
0.0
 10
10.4825891269
 20
6.8187560893
 30
0.0
 10
10.4059909139
 20
6.8282015868
 30
0.0
 10
10.3557496171
 20
6.8353583563
 30
0.0
 10
10.3310037883
 20
6.8390930032
 30
0.0
  0
SPLINE
  5
33C
100
AcDbEntity
  8
0
100
AcDbSpline
 62
7
  6
CONTINUOUS
 70
0
 71
3
 72
23
 73
19
 74
0
 42
0.0000001
 43
0.0000001
 44
0.0000000001
 40
0.0
 40
0.0
 40
0.0
 40
0.0
 40
0.064183289
 40
0.1282169934
 40
0.1920567493
 40
0.2556896198
 40
0.3190982456
 40
0.3822653824
 40
0.4451796478
 40
0.5078332662
 40
0.5702218084
 40
0.6323449284
 40
0.6942066549
 40
0.7558151105
 40
0.8171802601
 40
0.8783186355
 40
0.939257435
 40
1.0
 40
1.0
 40
1.0
 40
1.0
 10
11.1572463189
 20
6.967726054
 30
0.0
 10
11.1448947358
 20
6.9751976008
 30
0.0
 10
11.1197822621
 20
6.9894126597
 30
0.0
 10
11.0809975712
 20
7.0084819552
 30
0.0
 10
11.0412767814
 20
7.025203617
 30
0.0
 10
11.0007739878
 20
7.0395131993
 30
0.0
 10
10.959640259
 20
7.0513586957
 30
0.0
 10
10.9180304745
 20
7.0606935106
 30
0.0
 10
10.8761020974
 20
7.0674828307
 30
0.0
 10
10.834013243
 20
7.0717013334
 30
0.0
 10
10.7919226724
 20
7.0733316239
 30
0.0
 10
10.7499893783
 20
7.07236853
 30
0.0
 10
10.7083715511
 20
7.0688149444
 30
0.0
 10
10.6672267851
 20
7.0626833117
 30
0.0
 10
10.6267105336
 20
7.05399835
 30
0.0
 10
10.586973991
 20
7.0427906554
 30
0.0
 10
10.5481720899
 20
7.0291031387
 30
0.0
 10
10.5229836424
 20
7.0183436774
 30
0.0
 10
10.5106014449
 20
7.0125710284
 30
0.0
  0
SPLINE
  5
33D
100
AcDbEntity
  8
0
100
AcDbSpline
 62
7
  6
CONTINUOUS
 70
0
 71
3
 72
23
 73
19
 74
0
 42
0.0000001
 43
0.0000001
 44
0.0000000001
 40
0.0
 40
0.0
 40
0.0
 40
0.0
 40
0.0611903141
 40
0.1226472303
 40
0.1843437281
 40
0.2462765515
 40
0.3084319318
 40
0.3707901407
 40
0.43333071
 40
0.4960305412
 40
0.5588639325
 40
0.6218032785
 40
0.6848199854
 40
0.7478844781
 40
0.8109642578
 40
0.8740295744
 40
0.9370581234
 40
1.0
 40
1.0
 40
1.0
 40
1.0
 10
11.518416633
 20
6.3608164375
 30
0.0
 10
11.517968123
 20
6.374897015
 30
0.0
 10
11.5162026517
 20
6.4030993101
 30
0.0
 10
11.510986028
 20
6.4452432784
 30
0.0
 10
11.5032119251
 20
6.487166483
 30
0.0
 10
11.4929112574
 20
6.5287063486
 30
0.0
 10
11.4801239357
 20
6.5697087852
 30
0.0
 10
11.4648967905
 20
6.6100184113
 30
0.0
 10
11.4472881977
 20
6.6494831707
 30
0.0
 10
11.427365064
 20
6.6879546023
 30
0.0
 10
11.4052015862
 20
6.7252870634
 30
0.0
 10
11.3808824846
 20
6.7613403813
 30
0.0
 10
11.3544990386
 20
6.7959784904
 30
0.0
 10
11.326150431
 20
6.8290700929
 30
0.0
 10
11.2959450242
 20
6.8604913381
 30
0.0
 10
11.2639941046
 20
6.8901243995
 30
0.0
 10
11.2304210462
 20
6.9178540687
 30
0.0
 10
11.2070210714
 20
6.9350194987
 30
0.0
 10
11.195094196
 20
6.9432498128
 30
0.0
  0
SPLINE
  5
33E
100
AcDbEntity
  8
0
100
AcDbSpline
 62
7
  6
CONTINUOUS
 70
0
 71
3
 72
23
 73
19
 74
0
 42
0.0000001
 43
0.0000001
 44
0.0000000001
 40
0.0
 40
0.0
 40
0.0
 40
0.0
 40
0.0621318309
 40
0.1241730097
 40
0.1861367829
 40
0.2480654415
 40
0.3099946977
 40
0.371957368
 40
0.4339879225
 40
0.4961196053
 40
0.5583835886
 40
0.6208088007
 40
0.6834219941
 40
0.7462469592
 40
0.8093017246
 40
0.8726037153
 40
0.936173771
 40
1.0
 40
1.0
 40
1.0
 40
1.0
 10
11.195094196
 20
5.7795250725
 30
0.0
 10
11.2069998294
 20
5.7860894114
 30
0.0
 10
11.2303726674
 20
5.799989639
 30
0.0
 10
11.2639641694
 20
5.8230716152
 30
0.0
 10
11.2959328486
 20
5.8482848072
 30
0.0
 10
11.3261543375
 20
5.8755305605
 30
0.0
 10
11.3545170493
 20
5.9047061981
 30
0.0
 10
11.3809122159
 20
5.9357024304
 30
0.0
 10
11.405240389
 20
5.968401208
 30
0.0
 10
11.4274101341
 20
6.0026786181
 30
0.0
 10
11.4473366141
 20
6.0384055906
 30
0.0
 10
11.4649457151
 20
6.0754462731
 30
0.0
 10
11.4801706443
 20
6.1136609111
 30
0.0
 10
11.492953237
 20
6.1529049139
 30
0.0
 10
11.5032470449
 20
6.1930291182
 30
0.0
 10
11.5110124996
 20
6.2338844512
 30
0.0
 10
11.5162191481
 20
6.2753121252
 30
0.0
 10
11.5179700222
 20
6.3031544653
 30
0.0
 10
11.518416633
 20
6.3171134735
 30
0.0
  0
SPLINE
  5
33F
100
AcDbEntity
  8
0
100
AcDbSpline
 62
7
  6
CONTINUOUS
 70
0
 71
3
 72
39
 73
35
 74
0
 42
0.0000001
 43
0.0000001
 44
0.0000000001
 40
0.0
 40
0.0
 40
0.0
 40
0.0
 40
0.0313278581
 40
0.0628642024
 40
0.0945965767
 40
0.1265062279
 40
0.1585673883
 40
0.1907491328
 40
0.2230161417
 40
0.2553301578
 40
0.2876512954
 40
0.3199393837
 40
0.3521554252
 40
0.3842629547
 40
0.4162292954
 40
0.4480268268
 40
0.4796340374
 40
0.5110363791
 40
0.5422269961
 40
0.5732071123
 40
0.6039861227
 40
0.6345814383
 40
0.665017896
 40
0.6953268475
 40
0.7255450008
 40
0.7557128834
 40
0.7858731374
 40
0.8160687653
 40
0.8463412558
 40
0.876728795
 40
0.9072648719
 40
0.9379765655
 40
0.9688843731
 40
1.0
 40
1.0
 40
1.0
 40
1.0
 10
11.2399010812
 20
6.158578574
 30
0.0
 10
11.2399010812
 20
6.1782353205
 30
0.0
 10
11.2379560722
 20
6.2177058334
 30
0.0
 10
11.2293021639
 20
6.2765143893
 30
0.0
 10
11.2149868892
 20
6.334587075
 30
0.0
 10
11.1951499775
 20
6.3913584779
 30
0.0
 10
11.1699830703
 20
6.4462858039
 30
0.0
 10
11.13972912
 20
6.4988414404
 30
0.0
 10
11.1046792783
 20
6.5485213374
 30
0.0
 10
11.0651705103
 20
6.5948488354
 30
0.0
 10
11.0215822283
 20
6.6373793611
 30
0.0
 10
10.974332787
 20
6.6757045814
 30
0.0
 10
10.9238755017
 20
6.7094562433
 30
0.0
 10
10.8706944046
 20
6.7383096724
 30
0.0
 10
10.8152996953
 20
6.7619868581
 30
0.0
 10
10.7582229559
 20
6.7802590925
 30
0.0
 10
10.7000121809
 20
6.792949211
 30
0.0
 10
10.6412266399
 20
6.7999333377
 30
0.0
 10
10.5824316379
 20
6.8011421636
 30
0.0
 10
10.5241931887
 20
6.7965617866
 30
0.0
 10
10.4670726372
 20
6.7862340074
 30
0.0
 10
10.4116212764
 20
6.7702561599
 30
0.0
 10
10.3583749687
 20
6.7487804216
 30
0.0
 10
10.3078488421
 20
6.7220125345
 30
0.0
 10
10.2605321008
 20
6.6902100027
 30
0.0
 10
10.2168830262
 20
6.6536796798
 30
0.0
 10
10.1773242871
 20
6.6127747578
 30
0.0
 10
10.1422385623
 20
6.5678912343
 30
0.0
 10
10.1119647448
 20
6.5194638824
 30
0.0
 10
10.086794408
 20
6.4679615894
 30
0.0
 10
10.0669694236
 20
6.4138833736
 30
0.0
 10
10.0526789385
 20
6.357750094
 30
0.0
 10
10.0440591158
 20
6.3001112673
 30
0.0
 10
10.0421529856
 20
6.2611662681
 30
0.0
 10
10.0421529856
 20
6.2416426865
 30
0.0
  0
SPLINE
  5
340
100
AcDbEntity
  8
0
100
AcDbSpline
 62
7
  6
CONTINUOUS
 70
0
 71
3
 72
39
 73
35
 74
0
 42
0.0000001
 43
0.0000001
 44
0.0000000001
 40
0.0
 40
0.0
 40
0.0
 40
0.0
 40
0.0313278581
 40
0.0628642024
 40
0.0945965767
 40
0.1265062279
 40
0.1585673883
 40
0.1907491328
 40
0.2230161417
 40
0.2553301578
 40
0.2876512954
 40
0.3199393837
 40
0.3521554252
 40
0.3842629547
 40
0.4162292954
 40
0.4480268268
 40
0.4796340374
 40
0.5110363791
 40
0.5422269961
 40
0.5732071123
 40
0.6039861227
 40
0.6345814383
 40
0.665017896
 40
0.6953268475
 40
0.7255450008
 40
0.7557128834
 40
0.7858731374
 40
0.8160687653
 40
0.8463412558
 40
0.876728795
 40
0.9072648719
 40
0.9379765655
 40
0.9688843731
 40
1.0
 40
1.0
 40
1.0
 40
1.0
 10
10.0421529856
 20
6.2416426865
 30
0.0
 10
10.0421529856
 20
6.22198594
 30
0.0
 10
10.0440979947
 20
6.1825154271
 30
0.0
 10
10.052751903
 20
6.1237068712
 30
0.0
 10
10.0670671776
 20
6.0656341855
 30
0.0
 10
10.0869040893
 20
6.0088627826
 30
0.0
 10
10.1120709966
 20
5.9539354566
 30
0.0
 10
10.1423249468
 20
5.9013798201
 30
0.0
 10
10.1773747886
 20
5.8516999231
 30
0.0
 10
10.2168835565
 20
5.8053724251
 30
0.0
 10
10.2604718386
 20
5.7628418994
 30
0.0
 10
10.3077212799
 20
5.7245166791
 30
0.0
 10
10.3581785651
 20
5.6907650172
 30
0.0
 10
10.4113596623
 20
5.6619115881
 30
0.0
 10
10.4667543715
 20
5.6382344024
 30
0.0
 10
10.523831111
 20
5.619962168
 30
0.0
 10
10.5820418859
 20
5.6072720495
 30
0.0
 10
10.6408274269
 20
5.6002879228
 30
0.0
 10
10.699622429
 20
5.5990790969
 30
0.0
 10
10.7578608782
 20
5.6036594739
 30
0.0
 10
10.8149814297
 20
5.6139872531
 30
0.0
 10
10.8704327904
 20
5.6299651006
 30
0.0
 10
10.9236790981
 20
5.6514408389
 30
0.0
 10
10.9742052247
 20
5.678208726
 30
0.0
 10
11.021521966
 20
5.7100112579
 30
0.0
 10
11.0651710406
 20
5.7465415807
 30
0.0
 10
11.1047297798
 20
5.7874465027
 30
0.0
 10
11.1398155045
 20
5.8323300262
 30
0.0
 10
11.1700893221
 20
5.8807573781
 30
0.0
 10
11.1952596589
 20
5.9322596711
 30
0.0
 10
11.2150846433
 20
5.9863378869
 30
0.0
 10
11.2293751284
 20
6.0424711665
 30
0.0
 10
11.2379949511
 20
6.1001099932
 30
0.0
 10
11.2399010812
 20
6.1390549925
 30
0.0
 10
11.2399010812
 20
6.158578574
 30
0.0
  0
SPLINE
  5
341
100
AcDbEntity
  8
0
100
AcDbSpline
 62
7
  6
CONTINUOUS
 70
0
 71
3
 72
23
 73
19
 74
0
 42
0.0000001
 43
0.0000001
 44
0.0000000001
 40
0.0
 40
0.0
 40
0.0
 40
0.0
 40
0.0637776288
 40
0.1273446152
 40
0.1907020433
 40
0.2538561391
 40
0.3168131818
 40
0.3795820998
 40
0.442173387
 40
0.5045993408
 40
0.5668738683
 40
0.6290123813
 40
0.69103165
 40
0.7529496426
 40
0.8147853504
 40
0.8765585998
 40
0.9382898528
 40
1.0
 40
1.0
 40
1.0
 40
1.0
 10
9.9658858576
 20
9.0792704732
 30
0.0
 10
9.9658858576
 20
9.0657701751
 30
0.0
 10
9.9652397232
 20
9.0388095906
 30
0.0
 10
9.9623231478
 20
8.9985326299
 30
0.0
 10
9.9574672047
 20
8.9585750649
 30
0.0
 10
9.9506832425
 20
8.9190304083
 30
0.0
 10
9.9419866253
 20
8.8799893066
 30
0.0
 10
9.9313974039
 20
8.8415419219
 30
0.0
 10
9.9189398552
 20
8.8037768536
 30
0.0
 10
9.9046426264
 20
8.766781202
 30
0.0
 10
9.888538597
 20
8.7306402902
 30
0.0
 10
9.8706648394
 20
8.6954374766
 30
0.0
 10
9.8510625186
 20
8.6612539699
 30
0.0
 10
9.8297767727
 20
8.6281686116
 30
0.0
 10
9.8068567227
 20
8.5962578006
 30
0.0
 10
9.7823549338
 20
8.5655949097
 30
0.0
 10
9.7563288835
 20
8.5362516239
 30
0.0
 10
9.7379985176
 20
8.5176109083
 30
0.0
 10
9.7286031336
 20
8.5085356779
 30
0.0
  0
SPLINE
  5
342
100
AcDbEntity
  8
0
100
AcDbSpline
 62
7
  6
CONTINUOUS
 70
0
 71
3
 72
23
 73
19
 74
0
 42
0.0000001
 43
0.0000001
 44
0.0000000001
 40
0.0
 40
0.0
 40
0.0
 40
0.0
 40
0.0637776288
 40
0.1273446152
 40
0.1907020433
 40
0.2538561391
 40
0.3168131818
 40
0.3795820998
 40
0.442173387
 40
0.5045993408
 40
0.5668738683
 40
0.6290123813
 40
0.69103165
 40
0.7529496426
 40
0.8147853504
 40
0.8765585998
 40
0.9382898528
 40
1.0
 40
1.0
 40
1.0
 40
1.0
 10
11.6562561538
 20
6.3057467153
 30
0.0
 10
11.6562561538
 20
6.2922464172
 30
0.0
 10
11.6556100193
 20
6.2652858327
 30
0.0
 10
11.652693444
 20
6.225008872
 30
0.0
 10
11.6478375009
 20
6.185051307
 30
0.0
 10
11.6410535387
 20
6.1455066504
 30
0.0
 10
11.6323569214
 20
6.1064655487
 30
0.0
 10
11.6217677001
 20
6.068018164
 30
0.0
 10
11.6093101514
 20
6.0302530957
 30
0.0
 10
11.5950129226
 20
5.9932574441
 30
0.0
 10
11.5789088932
 20
5.9571165324
 30
0.0
 10
11.5610351355
 20
5.9219137187
 30
0.0
 10
11.5414328148
 20
5.887730212
 30
0.0
 10
11.5201470689
 20
5.8546448537
 30
0.0
 10
11.4972270189
 20
5.8227340427
 30
0.0
 10
11.47272523
 20
5.7920711518
 30
0.0
 10
11.4466991796
 20
5.7627278661
 30
0.0
 10
11.4283688138
 20
5.7440871504
 30
0.0
 10
11.4189734298
 20
5.7350119201
 30
0.0
  0
SPLINE
  5
343
100
AcDbEntity
  8
0
100
AcDbSpline
 62
7
  6
CONTINUOUS
 70
0
 71
3
 72
33
 73
29
 74
0
 42
0.0000001
 43
0.0000001
 44
0.0000000001
 40
0.0
 40
0.0
 40
0.0
 40
0.0
 40
0.0958348694
 40
0.1891075393
 40
0.2792507307
 40
0.3657221938
 40
0.4480135352
 40
0.5256551542
 40
0.5625998871
 40
0.5982279088
 40
0.6324952589
 40
0.6653619968
 40
0.6967931368
 40
0.7267585922
 40
0.7552346622
 40
0.7822039745
 40
0.8076576644
 40
0.8315956119
 40
0.8540295607
 40
0.8749841658
 40
0.8945014605
 40
0.9126434539
 40
0.9294983432
 40
0.9451850262
 40
0.9598600607
 40
0.9737213157
 40
0.9870092446
 40
1.0
 40
1.0
 40
1.0
 40
1.0
 10
12.1816653839
 20
10.0562158888
 30
0.0
 10
12.1761696549
 20
10.0565970189
 30
0.0
 10
12.1653330538
 20
10.0574699633
 30
0.0
 10
12.1493659301
 20
10.0591362912
 30
0.0
 10
12.1339791332
 20
10.0611331903
 30
0.0
 10
12.1192752455
 20
10.0634470722
 30
0.0
 10
12.1053523428
 20
10.0660622147
 30
0.0
 10
12.0943017691
 20
10.0685164902
 30
0.0
 10
12.0859285523
 20
10.0706279672
 30
0.0
 10
12.0800043839
 20
10.0722492141
 30
0.0
 10
12.0743413696
 20
10.0739315722
 30
0.0
 10
12.0689489177
 20
10.0756722798
 30
0.0
 10
12.0638359723
 20
10.0774683638
 30
0.0
 10
12.0590110045
 20
10.0793168762
 30
0.0
 10
12.0544819586
 20
10.0812146615
 30
0.0
 10
12.0502562908
 20
10.0831586549
 30
0.0
 10
12.0463408683
 20
10.0851455618
 30
0.0
 10
12.0427420675
 20
10.0871722695
 30
0.0
 10
12.0394656088
 20
10.0892354412
 30
0.0
 10
12.036516753
 20
10.091332042
 30
0.0
 10
12.0339000682
 20
10.0934588814
 30
0.0
 10
12.0316197997
 20
10.0956132252
 30
0.0
 10
12.0296796234
 20
10.0977923029
 30
0.0
 10
12.0280833122
 20
10.0999938687
 30
0.0
 10
12.0268345414
 20
10.1022154157
 30
0.0
 10
12.0259376853
 20
10.1044544762
 30
0.0
 10
12.0253970257
 20
10.1067062179
 30
0.0
 10
12.0252761653
 20
10.1082194204
 30
0.0
 10
12.0252761739
 20
10.1089661752
 30
0.0
  0
SPLINE
  5
344
100
AcDbEntity
  8
0
100
AcDbSpline
 62
7
  6
CONTINUOUS
 70
0
 71
3
 72
33
 73
29
 74
0
 42
0.0000001
 43
0.0000001
 44
0.0000000001
 40
0.0
 40
0.0
 40
0.0
 40
0.0
 40
0.0958348694
 40
0.1891075393
 40
0.2792507307
 40
0.3657221938
 40
0.4480135352
 40
0.5256551542
 40
0.5625998871
 40
0.5982279088
 40
0.6324952589
 40
0.6653619968
 40
0.6967931368
 40
0.7267585922
 40
0.7552346622
 40
0.7822039745
 40
0.8076576644
 40
0.8315956119
 40
0.8540295607
 40
0.8749841658
 40
0.8945014605
 40
0.9126434539
 40
0.9294983432
 40
0.9451850262
 40
0.9598600607
 40
0.9737213157
 40
0.9870092446
 40
1.0
 40
1.0
 40
1.0
 40
1.0
 10
13.5728166033
 20
11.3999648595
 30
0.0
 10
13.5673208743
 20
11.4003459896
 30
0.0
 10
13.5564842731
 20
11.401218934
 30
0.0
 10
13.5405171495
 20
11.4028852619
 30
0.0
 10
13.5251303525
 20
11.404882161
 30
0.0
 10
13.5104264648
 20
11.4071960429
 30
0.0
 10
13.4965035621
 20
11.4098111853
 30
0.0
 10
13.4854529884
 20
11.4122654608
 30
0.0
 10
13.4770797717
 20
11.4143769379
 30
0.0
 10
13.4711556033
 20
11.4159981847
 30
0.0
 10
13.4654925889
 20
11.4176805428
 30
0.0
 10
13.460100137
 20
11.4194212505
 30
0.0
 10
13.4549871917
 20
11.4212173344
 30
0.0
 10
13.4501622239
 20
11.4230658469
 30
0.0
 10
13.4456331779
 20
11.4249636321
 30
0.0
 10
13.4414075101
 20
11.4269076256
 30
0.0
 10
13.4374920876
 20
11.4288945325
 30
0.0
 10
13.4338932868
 20
11.4309212401
 30
0.0
 10
13.4306168282
 20
11.4329844118
 30
0.0
 10
13.4276679724
 20
11.4350810126
 30
0.0
 10
13.4250512875
 20
11.437207852
 30
0.0
 10
13.422771019
 20
11.4393621959
 30
0.0
 10
13.4208308428
 20
11.4415412736
 30
0.0
 10
13.4192345315
 20
11.4437428393
 30
0.0
 10
13.4179857607
 20
11.4459643863
 30
0.0
 10
13.4170889046
 20
11.4482034468
 30
0.0
 10
13.416548245
 20
11.4504551886
 30
0.0
 10
13.4164273846
 20
11.4519683911
 30
0.0
 10
13.4164273933
 20
11.4527151459
 30
0.0
  0
SPLINE
  5
345
100
AcDbEntity
  8
0
100
AcDbSpline
 62
7
  6
CONTINUOUS
 70
0
 71
3
 72
51
 73
47
 74
0
 42
0.0000001
 43
0.0000001
 44
0.0000000001
 40
0.0
 40
0.0
 40
0.0
 40
0.0
 40
0.0417745783
 40
0.0840381405
 40
0.1266602741
 40
0.1695088693
 40
0.2124510806
 40
0.2553536312
 40
0.2980834223
 40
0.3405080289
 40
0.3824962347
 40
0.423918559
 40
0.4646477904
 40
0.504559528
 40
0.5435327322
 40
0.5814502925
 40
0.6181996178
 40
0.65367326
 40
0.6877695871
 40
0.7203935248
 40
0.7514574013
 40
0.7663796097
 40
0.7808828022
 40
0.7949586364
 40
0.8085993574
 40
0.8217980667
 40
0.8345485781
 40
0.846845703
 40
0.8586851383
 40
0.8700637714
 40
0.8809796196
 40
0.8914321637
 40
0.9014223656
 40
0.9109530489
 40
0.92002903
 40
0.9286575737
 40
0.9368486818
 40
0.94461566
 40
0.9519756015
 40
0.9589500813
 40
0.9655658127
 40
0.9778459388
 40
0.983607172
 40
0.9891799146
 40
0.9946230077
 40
1.0
 40
1.0
 40
1.0
 40
1.0
 10
12.9149061264
 20
9.1778054818
 30
0.0
 10
12.9149061264
 20
9.1928607919
 30
0.0
 10
12.9151410064
 20
9.2231481121
 30
0.0
 10
12.9161793638
 20
9.2687854965
 30
0.0
 10
12.9179027864
 20
9.3147895632
 30
0.0
 10
12.920305619
 20
9.3610080071
 30
0.0
 10
12.9233799249
 20
9.407287929
 30
0.0
 10
12.9271155406
 20
9.4534762168
 30
0.0
 10
12.9315000917
 20
9.4994200604
 30
0.0
 10
12.9365190434
 20
9.5449674659
 30
0.0
 10
12.9421557437
 20
9.5899677589
 30
0.0
 10
12.9483914797
 20
9.6342720885
 30
0.0
 10
12.9552055378
 20
9.677733924
 30
0.0
 10
12.9625752714
 20
9.7202095449
 30
0.0
 10
12.970476174
 20
9.7615585252
 30
0.0
 10
12.9788819586
 20
9.8016442041
 30
0.0
 10
12.9877646428
 20
9.8403341606
 30
0.0
 10
12.9970946425
 20
9.8775006322
 30
0.0
 10
13.0068408592
 20
9.9130210869
 30
0.0
 10
13.0169708238
 20
9.9467782132
 30
0.0
 10
13.0258184297
 20
9.9736959949
 30
0.0
 10
13.0330789159
 20
9.9942521441
 30
0.0
 10
13.0385261349
 20
10.0089536886
 30
0.0
 10
13.0440435818
 20
10.0231345959
 30
0.0
 10
13.0496268223
 20
10.0367831734
 30
0.0
 10
13.0552711265
 20
10.0498881944
 30
0.0
 10
13.0609719226
 20
10.0624388556
 30
0.0
 10
13.0667244029
 20
10.0744248668
 30
0.0
 10
13.0725239155
 20
10.0858363685
 30
0.0
 10
13.0783655936
 20
10.0966640451
 30
0.0
 10
13.0842447336
 20
10.1068990216
 30
0.0
 10
13.0901564465
 20
10.1165329947
 30
0.0
 10
13.0960960151
 20
10.1255581098
 30
0.0
 10
13.1020585821
 20
10.1339671057
 30
0.0
 10
13.1080394716
 20
10.1417531712
 30
0.0
 10
13.1140339456
 20
10.148910098
 30
0.0
 10
13.1200374247
 20
10.1554320918
 30
0.0
 10
13.1260455023
 20
10.1613139949
 30
0.0
 10
13.1320534364
 20
10.1665507481
 30
0.0
 10
13.1380584965
 20
10.1711386791
 30
0.0
 10
13.1458574166
 20
10.1762560096
 30
0.0
 10
13.1538533762
 20
10.1802580265
 30
0.0
 10
13.1619524686
 20
10.1829124962
 30
0.0
 10
13.1678740323
 20
10.1841927008
 30
0.0
 10
13.1737623978
 20
10.1848003925
 30
0.0
 10
13.1776718293
 20
10.1847557166
 30
0.0
 10
13.1796050214
 20
10.1846216385
 30
0.0
  0
SPLINE
  5
346
100
AcDbEntity
  8
0
100
AcDbSpline
 62
7
  6
CONTINUOUS
 70
0
 71
3
 72
51
 73
47
 74
0
 42
0.0000001
 43
0.0000001
 44
0.0000000001
 40
0.0
 40
0.0
 40
0.0
 40
0.0
 40
0.0417745783
 40
0.0840381405
 40
0.1266602741
 40
0.1695088693
 40
0.2124510806
 40
0.2553536312
 40
0.2980834223
 40
0.3405080289
 40
0.3824962347
 40
0.423918559
 40
0.4646477904
 40
0.504559528
 40
0.5435327322
 40
0.5814502925
 40
0.6181996178
 40
0.65367326
 40
0.6877695871
 40
0.7203935248
 40
0.7514574013
 40
0.7663796097
 40
0.7808828022
 40
0.7949586364
 40
0.8085993574
 40
0.8217980667
 40
0.8345485781
 40
0.846845703
 40
0.8586851383
 40
0.8700637714
 40
0.8809796196
 40
0.8914321637
 40
0.9014223656
 40
0.9109530489
 40
0.92002903
 40
0.9286575737
 40
0.9368486818
 40
0.94461566
 40
0.9519756015
 40
0.9589500813
 40
0.9655658127
 40
0.9778459388
 40
0.983607172
 40
0.9891799146
 40
0.9946230077
 40
1.0
 40
1.0
 40
1.0
 40
1.0
 10
13.5940466973
 20
9.8338049378
 30
0.0
 10
13.5940466973
 20
9.8488602479
 30
0.0
 10
13.5942815774
 20
9.8791475681
 30
0.0
 10
13.5953199347
 20
9.9247849525
 30
0.0
 10
13.5970433573
 20
9.9707890192
 30
0.0
 10
13.5994461899
 20
10.0170074631
 30
0.0
 10
13.6025204959
 20
10.063287385
 30
0.0
 10
13.6062561115
 20
10.1094756728
 30
0.0
 10
13.6106406626
 20
10.1554195164
 30
0.0
 10
13.6156596143
 20
10.2009669219
 30
0.0
 10
13.6212963146
 20
10.2459672149
 30
0.0
 10
13.6275320506
 20
10.2902715445
 30
0.0
 10
13.6343461087
 20
10.33373338
 30
0.0
 10
13.6417158423
 20
10.3762090009
 30
0.0
 10
13.6496167449
 20
10.4175579812
 30
0.0
 10
13.6580225295
 20
10.4576436601
 30
0.0
 10
13.6669052137
 20
10.4963336166
 30
0.0
 10
13.6762352134
 20
10.5335000882
 30
0.0
 10
13.6859814301
 20
10.5690205429
 30
0.0
 10
13.6961113947
 20
10.6027776692
 30
0.0
 10
13.7049590006
 20
10.6296954509
 30
0.0
 10
13.7122194868
 20
10.6502516001
 30
0.0
 10
13.7176667058
 20
10.6649531446
 30
0.0
 10
13.7231841527
 20
10.6791340519
 30
0.0
 10
13.7287673932
 20
10.6927826294
 30
0.0
 10
13.7344116974
 20
10.7058876504
 30
0.0
 10
13.7401124935
 20
10.7184383116
 30
0.0
 10
13.7458649738
 20
10.7304243228
 30
0.0
 10
13.7516644864
 20
10.7418358245
 30
0.0
 10
13.7575061645
 20
10.7526635011
 30
0.0
 10
13.7633853045
 20
10.7628984776
 30
0.0
 10
13.7692970174
 20
10.7725324507
 30
0.0
 10
13.775236586
 20
10.7815575658
 30
0.0
 10
13.781199153
 20
10.7899665617
 30
0.0
 10
13.7871800425
 20
10.7977526273
 30
0.0
 10
13.7931745165
 20
10.804909554
 30
0.0
 10
13.7991779956
 20
10.8114315478
 30
0.0
 10
13.8051860732
 20
10.8173134509
 30
0.0
 10
13.8111940073
 20
10.8225502041
 30
0.0
 10
13.8171990674
 20
10.8271381351
 30
0.0
 10
13.8249979875
 20
10.8322554656
 30
0.0
 10
13.8329939471
 20
10.8362574825
 30
0.0
 10
13.8410930395
 20
10.8389119522
 30
0.0
 10
13.8470146032
 20
10.8401921568
 30
0.0
 10
13.8529029688
 20
10.8407998485
 30
0.0
 10
13.8568124002
 20
10.8407551726
 30
0.0
 10
13.8587455923
 20
10.8406210945
 30
0.0
  0
SPLINE
  5
347
100
AcDbEntity
  8
0
100
AcDbSpline
 62
7
  6
CONTINUOUS
 70
0
 71
3
 72
51
 73
47
 74
0
 42
0.0000001
 43
0.0000001
 44
0.0000000001
 40
0.0
 40
0.0
 40
0.0
 40
0.0
 40
0.0417745783
 40
0.0840381405
 40
0.1266602741
 40
0.1695088693
 40
0.2124510806
 40
0.2553536312
 40
0.2980834223
 40
0.3405080289
 40
0.3824962347
 40
0.423918559
 40
0.4646477904
 40
0.504559528
 40
0.5435327322
 40
0.5814502925
 40
0.6181996178
 40
0.65367326
 40
0.6877695871
 40
0.7203935248
 40
0.7514574013
 40
0.7663796097
 40
0.7808828022
 40
0.7949586364
 40
0.8085993574
 40
0.8217980667
 40
0.8345485781
 40
0.846845703
 40
0.8586851383
 40
0.8700637714
 40
0.8809796196
 40
0.8914321637
 40
0.9014223656
 40
0.9109530489
 40
0.92002903
 40
0.9286575737
 40
0.9368486818
 40
0.94461566
 40
0.9519756015
 40
0.9589500813
 40
0.9655658127
 40
0.9778459388
 40
0.983607172
 40
0.9891799146
 40
0.9946230077
 40
1.0
 40
1.0
 40
1.0
 40
1.0
 10
13.497248559
 20
7.0840089309
 30
0.0
 10
13.497248559
 20
7.0990642409
 30
0.0
 10
13.497483439
 20
7.1293515612
 30
0.0
 10
13.4985217964
 20
7.1749889456
 30
0.0
 10
13.500245219
 20
7.2209930122
 30
0.0
 10
13.5026480516
 20
7.2672114561
 30
0.0
 10
13.5057223575
 20
7.313491378
 30
0.0
 10
13.5094579732
 20
7.3596796659
 30
0.0
 10
13.5138425243
 20
7.4056235094
 30
0.0
 10
13.518861476
 20
7.4511709149
 30
0.0
 10
13.5244981763
 20
7.4961712079
 30
0.0
 10
13.5307339123
 20
7.5404755376
 30
0.0
 10
13.5375479704
 20
7.583937373
 30
0.0
 10
13.544917704
 20
7.6264129939
 30
0.0
 10
13.5528186065
 20
7.6677619743
 30
0.0
 10
13.5612243912
 20
7.7078476532
 30
0.0
 10
13.5701070753
 20
7.7465376097
 30
0.0
 10
13.5794370751
 20
7.7837040812
 30
0.0
 10
13.5891832918
 20
7.8192245359
 30
0.0
 10
13.5993132564
 20
7.8529816622
 30
0.0
 10
13.6081608623
 20
7.879899444
 30
0.0
 10
13.6154213485
 20
7.9004555931
 30
0.0
 10
13.6208685675
 20
7.9151571377
 30
0.0
 10
13.6263860144
 20
7.9293380449
 30
0.0
 10
13.6319692549
 20
7.9429866225
 30
0.0
 10
13.6376135591
 20
7.9560916434
 30
0.0
 10
13.6433143552
 20
7.9686423046
 30
0.0
 10
13.6490668355
 20
7.9806283158
 30
0.0
 10
13.6548663481
 20
7.9920398175
 30
0.0
 10
13.6607080262
 20
8.0028674941
 30
0.0
 10
13.6665871662
 20
8.0131024706
 30
0.0
 10
13.6724988791
 20
8.0227364437
 30
0.0
 10
13.6784384477
 20
8.0317615588
 30
0.0
 10
13.6844010147
 20
8.0401705547
 30
0.0
 10
13.6903819042
 20
8.0479566203
 30
0.0
 10
13.6963763782
 20
8.0551135471
 30
0.0
 10
13.7023798573
 20
8.0616355408
 30
0.0
 10
13.7083879349
 20
8.067517444
 30
0.0
 10
13.714395869
 20
8.0727541971
 30
0.0
 10
13.7204009291
 20
8.0773421281
 30
0.0
 10
13.7281998492
 20
8.0824594586
 30
0.0
 10
13.7361958088
 20
8.0864614755
 30
0.0
 10
13.7442949012
 20
8.0891159452
 30
0.0
 10
13.7502164649
 20
8.0903961498
 30
0.0
 10
13.7561048304
 20
8.0910038416
 30
0.0
 10
13.7600142619
 20
8.0909591656
 30
0.0
 10
13.761947454
 20
8.0908250875
 30
0.0
  0
SPLINE
  5
348
100
AcDbEntity
  8
0
100
AcDbSpline
 62
7
  6
CONTINUOUS
 70
0
 71
3
 72
51
 73
47
 74
0
 42
0.0000001
 43
0.0000001
 44
0.0000000001
 40
0.0
 40
0.0
 40
0.0
 40
0.0
 40
0.0417745783
 40
0.0840381405
 40
0.1266602741
 40
0.1695088693
 40
0.2124510806
 40
0.2553536312
 40
0.2980834223
 40
0.3405080289
 40
0.3824962347
 40
0.423918559
 40
0.4646477904
 40
0.504559528
 40
0.5435327322
 40
0.5814502925
 40
0.6181996178
 40
0.65367326
 40
0.6877695871
 40
0.7203935248
 40
0.7514574013
 40
0.7663796097
 40
0.7808828022
 40
0.7949586364
 40
0.8085993574
 40
0.8217980667
 40
0.8345485781
 40
0.846845703
 40
0.8586851383
 40
0.8700637714
 40
0.8809796196
 40
0.8914321637
 40
0.9014223656
 40
0.9109530489
 40
0.92002903
 40
0.9286575737
 40
0.9368486818
 40
0.94461566
 40
0.9519756015
 40
0.9589500813
 40
0.9655658127
 40
0.9778459388
 40
0.983607172
 40
0.9891799146
 40
0.9946230077
 40
1.0
 40
1.0
 40
1.0
 40
1.0
 10
12.8175902645
 20
6.4275093923
 30
0.0
 10
12.8175902645
 20
6.4425647023
 30
0.0
 10
12.8178251446
 20
6.4728520226
 30
0.0
 10
12.8188635019
 20
6.518489407
 30
0.0
 10
12.8205869245
 20
6.5644934736
 30
0.0
 10
12.8229897571
 20
6.6107119175
 30
0.0
 10
12.8260640631
 20
6.6569918394
 30
0.0
 10
12.8297996787
 20
6.7031801273
 30
0.0
 10
12.8341842298
 20
6.7491239709
 30
0.0
 10
12.8392031815
 20
6.7946713763
 30
0.0
 10
12.8448398818
 20
6.8396716693
 30
0.0
 10
12.8510756178
 20
6.883975999
 30
0.0
 10
12.8578896759
 20
6.9274378344
 30
0.0
 10
12.8652594095
 20
6.9699134553
 30
0.0
 10
12.8731603121
 20
7.0112624357
 30
0.0
 10
12.8815660967
 20
7.0513481146
 30
0.0
 10
12.8904487809
 20
7.0900380711
 30
0.0
 10
12.8997787806
 20
7.1272045426
 30
0.0
 10
12.9095249973
 20
7.1627249973
 30
0.0
 10
12.9196549619
 20
7.1964821236
 30
0.0
 10
12.9285025678
 20
7.2233999054
 30
0.0
 10
12.935763054
 20
7.2439560545
 30
0.0
 10
12.941210273
 20
7.2586575991
 30
0.0
 10
12.9467277199
 20
7.2728385063
 30
0.0
 10
12.9523109604
 20
7.2864870839
 30
0.0
 10
12.9579552646
 20
7.2995921049
 30
0.0
 10
12.9636560607
 20
7.312142766
 30
0.0
 10
12.969408541
 20
7.3241287772
 30
0.0
 10
12.9752080536
 20
7.3355402789
 30
0.0
 10
12.9810497317
 20
7.3463679555
 30
0.0
 10
12.9869288717
 20
7.3566029321
 30
0.0
 10
12.9928405846
 20
7.3662369051
 30
0.0
 10
12.9987801532
 20
7.3752620202
 30
0.0
 10
13.0047427202
 20
7.3836710161
 30
0.0
 10
13.0107236097
 20
7.3914570817
 30
0.0
 10
13.0167180837
 20
7.3986140085
 30
0.0
 10
13.0227215628
 20
7.4051360022
 30
0.0
 10
13.0287296404
 20
7.4110179054
 30
0.0
 10
13.0347375745
 20
7.4162546585
 30
0.0
 10
13.0407426346
 20
7.4208425895
 30
0.0
 10
13.0485415547
 20
7.4259599201
 30
0.0
 10
13.0565375143
 20
7.4299619369
 30
0.0
 10
13.0646366067
 20
7.4326164066
 30
0.0
 10
13.0705581704
 20
7.4338966112
 30
0.0
 10
13.0764465359
 20
7.434504303
 30
0.0
 10
13.0803559674
 20
7.434459627
 30
0.0
 10
13.0822891595
 20
7.4343255489
 30
0.0
  0
SPLINE
  5
349
100
AcDbEntity
  8
0
100
AcDbSpline
 62
7
  6
CONTINUOUS
 70
0
 71
3
 72
23
 73
19
 74
0
 42
0.0000001
 43
0.0000001
 44
0.0000000001
 40
0.0
 40
0.0
 40
0.0
 40
0.0
 40
0.0929030882
 40
0.1831527139
 40
0.2701734191
 40
0.3534594018
 40
0.4325850759
 40
0.507215015
 40
0.5771082966
 40
0.6421200577
 40
0.7022009077
 40
0.7573947057
 40
0.8078364221
 40
0.8537517135
 40
0.8954587339
 40
0.9333731015
 40
0.968012748
 40
1.0
 40
1.0
 40
1.0
 40
1.0
 10
9.2754452418
 20
8.5320019705
 30
0.0
 10
9.2723846771
 20
8.5322142214
 30
0.0
 10
9.2663579414
 20
8.5327432583
 30
0.0
 10
9.2575049031
 20
8.5338673033
 30
0.0
 10
9.2490177615
 20
8.5352975588
 30
0.0
 10
9.2409588878
 20
8.5370138812
 30
0.0
 10
9.2333821079
 20
8.5389916112
 30
0.0
 10
9.226332071
 20
8.5412026495
 30
0.0
 10
9.2198437697
 20
8.5436166883
 30
0.0
 10
9.2139426498
 20
8.5462023834
 30
0.0
 10
9.2086451218
 20
8.5489284737
 30
0.0
 10
9.2039594016
 20
8.5517647356
 30
0.0
 10
9.1998866156
 20
8.554682772
 30
0.0
 10
9.1964220417
 20
8.5576566823
 30
0.0
 10
9.1935565295
 20
8.5606632808
 30
0.0
 10
9.1912778742
 20
8.5636829133
 30
0.0
 10
9.1895729326
 20
8.5666969507
 30
0.0
 10
9.188783441
 20
8.5687622798
 30
0.0
 10
9.1884916871
 20
8.5697774963
 30
0.0
  0
SPLINE
  5
34A
100
AcDbEntity
  8
0
100
AcDbSpline
 62
7
  6
CONTINUOUS
 70
0
 71
3
 72
49
 73
45
 74
0
 42
0.0000001
 43
0.0000001
 44
0.0000000001
 40
0.0
 40
0.0
 40
0.0
 40
0.0
 40
0.0407253876
 40
0.0819150543
 40
0.1234497584
 40
0.1652113633
 40
0.2070794901
 40
0.2489339566
 40
0.2906544291
 40
0.3321211214
 40
0.3732151587
 40
0.4138190399
 40
0.453817081
 40
0.4930958636
 40
0.5315446919
 40
0.5690560596
 40
0.6055261334
 40
0.640855259
 40
0.6749484981
 40
0.7077162161
 40
0.7390747367
 40
0.7689470791
 40
0.7972638336
 40
0.8239642313
 40
0.8366925636
 40
0.8489986746
 40
0.8608781087
 40
0.8723272635
 40
0.8833434774
 40
0.8939252664
 40
0.9040722284
 40
0.9137855057
 40
0.9230676436
 40
0.9319231356
 40
0.9403584485
 40
0.9483825108
 40
0.9560070624
 40
0.9632470466
 40
0.9701213025
 40
0.9766529068
 40
0.9828700314
 40
0.9888062373
 40
0.9945010659
 40
1.0
 40
1.0
 40
1.0
 40
1.0
 10
12.9440424663
 20
9.2379490274
 30
0.0
 10
12.9440424663
 20
9.2482702193
 30
0.0
 10
12.9441973921
 20
9.2690305685
 30
0.0
 10
12.9448826986
 20
9.3003104187
 30
0.0
 10
12.9460204591
 20
9.331839912
 30
0.0
 10
12.9476071416
 20
9.3635221288
 30
0.0
 10
12.9496379457
 20
9.3952601829
 30
0.0
 10
12.9521066248
 20
9.4269567268
 30
0.0
 10
12.955005621
 20
9.4585146596
 30
0.0
 10
12.9583260312
 20
9.4898372663
 30
0.0
 10
12.9620576589
 20
9.5208285689
 30
0.0
 10
12.9661890332
 20
9.5513936083
 30
0.0
 10
12.9707074472
 20
9.5814387429
 30
0.0
 10
12.9755989977
 20
9.6108719369
 30
0.0
 10
12.9808486268
 20
9.6396030452
 30
0.0
 10
12.986440167
 20
9.6675440942
 30
0.0
 10
12.9923563896
 20
9.694609556
 30
0.0
 10
12.9985790569
 20
9.7207166191
 30
0.0
 10
13.0050889777
 20
9.7457854494
 30
0.0
 10
13.011866066
 20
9.7697394617
 30
0.0
 10
13.0188894022
 20
9.7925055376
 30
0.0
 10
13.0261373033
 20
9.8140144052
 30
0.0
 10
13.0335874141
 20
9.8342004321
 30
0.0
 10
13.0400440096
 20
9.8501131361
 30
0.0
 10
13.0453063805
 20
9.8621228457
 30
0.0
 10
13.0492263982
 20
9.8706178845
 30
0.0
 10
13.0531796808
 20
9.8787384553
 30
0.0
 10
13.0571632403
 20
9.886478399
 30
0.0
 10
13.0611740764
 20
9.8938318239
 30
0.0
 10
13.0652090618
 20
9.9007931951
 30
0.0
 10
13.0692652493
 20
9.9073572129
 30
0.0
 10
13.0733394683
 20
9.9135189891
 30
0.0
 10
13.0774287894
 20
9.9192738489
 30
0.0
 10
13.0815301004
 20
9.9246175365
 30
0.0
 10
13.085640468
 20
9.9295460417
 30
0.0
 10
13.0897569406
 20
9.9340556958
 30
0.0
 10
13.093876604
 20
9.938143163
 30
0.0
 10
13.0979967371
 20
9.9418052781
 30
0.0
 10
13.1021145109
 20
9.9450392998
 30
0.0
 10
13.1062274279
 20
9.9478424293
 30
0.0
 10
13.1103327262
 20
9.950212276
 30
0.0
 10
13.1144280531
 20
9.9521462676
 30
0.0
 10
13.1185099403
 20
9.9536419626
 30
0.0
 10
13.1212613954
 20
9.9543559032
 30
0.0
 10
13.1226268526
 20
9.9546346367
 30
0.0
  0
SPLINE
  5
34B
100
AcDbEntity
  8
0
100
AcDbSpline
 62
7
  6
CONTINUOUS
 70
0
 71
3
 72
36
 73
32
 74
0
 42
0.0000001
 43
0.0000001
 44
0.0000000001
 40
0.0
 40
0.0
 40
0.0
 40
0.0
 40
0.0933723586
 40
0.1843539769
 40
0.2724534133
 40
0.357197841
 40
0.3981724861
 40
0.4381436406
 40
0.4770603582
 40
0.5148740447
 40
0.5515385432
 40
0.5870102228
 40
0.6212485358
 40
0.654215907
 40
0.6858782975
 40
0.7162055723
 40
0.7451716778
 40
0.7727556062
 40
0.7989416863
 40
0.8237205711
 40
0.8470904637
 40
0.8690581083
 40
0.8896409949
 40
0.9088693646
 40
0.9267891424
 40
0.9434659082
 40
0.9589889817
 40
0.9734767777
 40
0.9870815291
 40
0.9936140847
 40
1.0
 40
1.0
 40
1.0
 40
1.0
 10
12.9440424663
 20
9.2379490274
 30
0.0
 10
12.9440424663
 20
9.2238605364
 30
0.0
 10
12.9443255231
 20
9.1960433204
 30
0.0
 10
12.9456281477
 20
9.1549515754
 30
0.0
 10
12.947795985
 20
9.1151997505
 30
0.0
 10
12.9503398944
 20
9.0830342907
 30
0.0
 10
12.9528140192
 20
9.0581561599
 30
0.0
 10
12.9548556026
 20
9.0401856588
 30
0.0
 10
12.9571008752
 20
9.0227202028
 30
0.0
 10
12.9595465047
 20
9.0057855586
 30
0.0
 10
12.9621888127
 20
8.9894067331
 30
0.0
 10
12.9650239124
 20
8.973607892
 30
0.0
 10
12.9680475095
 20
8.9584123261
 30
0.0
 10
12.9712551368
 20
8.9438424195
 30
0.0
 10
12.9746420128
 20
8.9299196073
 30
0.0
 10
12.9782030481
 20
8.9166643325
 30
0.0
 10
12.9819330243
 20
8.904096031
 30
0.0
 10
12.9858263473
 20
8.8922330555
 30
0.0
 10
12.9898772994
 20
8.8810926714
 30
0.0
 10
12.994079985
 20
8.8706910152
 30
0.0
 10
12.9984282482
 20
8.8610430126
 30
0.0
 10
13.002916005
 20
8.8521624334
 30
0.0
 10
13.0075370113
 20
8.8440617693
 30
0.0
 10
13.0122851526
 20
8.8367522972
 30
0.0
 10
13.0171546616
 20
8.8302441798
 30
0.0
 10
13.0221398802
 20
8.8245465059
 30
0.0
 10
13.0272362211
 20
8.8196677041
 30
0.0
 10
13.0324382157
 20
8.8156164884
 30
0.0
 10
13.0369190013
 20
8.8129008565
 30
0.0
 10
13.0405334306
 20
8.8111769447
 30
0.0
 10
13.0423482174
 20
8.8104602776
 30
0.0
 10
13.0432566518
 20
8.8101391012
 30
0.0
  0
SPLINE
  5
34C
100
AcDbEntity
  8
0
100
AcDbSpline
 62
7
  6
CONTINUOUS
 70
0
 71
3
 72
49
 73
45
 74
0
 42
0.0000001
 43
0.0000001
 44
0.0000000001
 40
0.0
 40
0.0
 40
0.0
 40
0.0
 40
0.0407253876
 40
0.0819150543
 40
0.1234497584
 40
0.1652113633
 40
0.2070794901
 40
0.2489339566
 40
0.2906544291
 40
0.3321211214
 40
0.3732151587
 40
0.4138190399
 40
0.453817081
 40
0.4930958636
 40
0.5315446919
 40
0.5690560596
 40
0.6055261334
 40
0.640855259
 40
0.6749484981
 40
0.7077162161
 40
0.7390747367
 40
0.7689470791
 40
0.7972638336
 40
0.8239642313
 40
0.8366925636
 40
0.8489986746
 40
0.8608781087
 40
0.8723272635
 40
0.8833434774
 40
0.8939252664
 40
0.9040722284
 40
0.9137855057
 40
0.9230676436
 40
0.9319231356
 40
0.9403584485
 40
0.9483825108
 40
0.9560070624
 40
0.9632470466
 40
0.9701213025
 40
0.9766529068
 40
0.9828700314
 40
0.9888062373
 40
0.9945010659
 40
1.0
 40
1.0
 40
1.0
 40
1.0
 10
13.6231830372
 20
9.8939484834
 30
0.0
 10
13.6231830372
 20
9.9042696753
 30
0.0
 10
13.623337963
 20
9.9250300245
 30
0.0
 10
13.6240232695
 20
9.9563098747
 30
0.0
 10
13.6251610301
 20
9.987839368
 30
0.0
 10
13.6267477126
 20
10.0195215848
 30
0.0
 10
13.6287785166
 20
10.0512596389
 30
0.0
 10
13.6312471958
 20
10.0829561828
 30
0.0
 10
13.6341461919
 20
10.1145141156
 30
0.0
 10
13.6374666021
 20
10.1458367223
 30
0.0
 10
13.6411982298
 20
10.1768280249
 30
0.0
 10
13.6453296041
 20
10.2073930643
 30
0.0
 10
13.6498480181
 20
10.2374381989
 30
0.0
 10
13.6547395687
 20
10.2668713929
 30
0.0
 10
13.6599891978
 20
10.2956025012
 30
0.0
 10
13.6655807379
 20
10.3235435502
 30
0.0
 10
13.6714969605
 20
10.350609012
 30
0.0
 10
13.6777196278
 20
10.3767160751
 30
0.0
 10
13.6842295486
 20
10.4017849054
 30
0.0
 10
13.6910066369
 20
10.4257389177
 30
0.0
 10
13.6980299731
 20
10.4485049936
 30
0.0
 10
13.7052778742
 20
10.4700138612
 30
0.0
 10
13.712727985
 20
10.4901998881
 30
0.0
 10
13.7191845805
 20
10.5061125921
 30
0.0
 10
13.7244469514
 20
10.5181223017
 30
0.0
 10
13.7283669691
 20
10.5266173405
 30
0.0
 10
13.7323202517
 20
10.5347379113
 30
0.0
 10
13.7363038112
 20
10.542477855
 30
0.0
 10
13.7403146473
 20
10.5498312799
 30
0.0
 10
13.7443496328
 20
10.5567926511
 30
0.0
 10
13.7484058202
 20
10.5633566689
 30
0.0
 10
13.7524800392
 20
10.5695184451
 30
0.0
 10
13.7565693603
 20
10.5752733049
 30
0.0
 10
13.7606706714
 20
10.5806169925
 30
0.0
 10
13.764781039
 20
10.5855454977
 30
0.0
 10
13.7688975115
 20
10.5900551518
 30
0.0
 10
13.7730171749
 20
10.594142619
 30
0.0
 10
13.777137308
 20
10.5978047341
 30
0.0
 10
13.7812550818
 20
10.6010387558
 30
0.0
 10
13.7853679989
 20
10.6038418854
 30
0.0
 10
13.7894732972
 20
10.606211732
 30
0.0
 10
13.7935686241
 20
10.6081457236
 30
0.0
 10
13.7976505112
 20
10.6096414186
 30
0.0
 10
13.8004019663
 20
10.6103553592
 30
0.0
 10
13.8017674235
 20
10.6106340927
 30
0.0
  0
SPLINE
  5
34D
100
AcDbEntity
  8
0
100
AcDbSpline
 62
7
  6
CONTINUOUS
 70
0
 71
3
 72
36
 73
32
 74
0
 42
0.0000001
 43
0.0000001
 44
0.0000000001
 40
0.0
 40
0.0
 40
0.0
 40
0.0
 40
0.0933723586
 40
0.1843539769
 40
0.2724534133
 40
0.357197841
 40
0.3981724861
 40
0.4381436406
 40
0.4770603582
 40
0.5148740447
 40
0.5515385432
 40
0.5870102228
 40
0.6212485358
 40
0.654215907
 40
0.6858782975
 40
0.7162055723
 40
0.7451716778
 40
0.7727556062
 40
0.7989416863
 40
0.8237205711
 40
0.8470904637
 40
0.8690581083
 40
0.8896409949
 40
0.9088693646
 40
0.9267891424
 40
0.9434659082
 40
0.9589889817
 40
0.9734767777
 40
0.9870815291
 40
0.9936140847
 40
1.0
 40
1.0
 40
1.0
 40
1.0
 10
13.6231830372
 20
9.8939484834
 30
0.0
 10
13.6231830372
 20
9.8798599924
 30
0.0
 10
13.6234660941
 20
9.8520427764
 30
0.0
 10
13.6247687186
 20
9.8109510314
 30
0.0
 10
13.6269365559
 20
9.7711992065
 30
0.0
 10
13.6294804653
 20
9.7390337467
 30
0.0
 10
13.6319545902
 20
9.7141556159
 30
0.0
 10
13.6339961735
 20
9.6961851148
 30
0.0
 10
13.6362414461
 20
9.6787196588
 30
0.0
 10
13.6386870756
 20
9.6617850146
 30
0.0
 10
13.6413293836
 20
9.6454061891
 30
0.0
 10
13.6441644833
 20
9.629607348
 30
0.0
 10
13.6471880805
 20
9.6144117821
 30
0.0
 10
13.6503957077
 20
9.5998418755
 30
0.0
 10
13.6537825837
 20
9.5859190633
 30
0.0
 10
13.657343619
 20
9.5726637885
 30
0.0
 10
13.6610735952
 20
9.560095487
 30
0.0
 10
13.6649669182
 20
9.5482325115
 30
0.0
 10
13.6690178703
 20
9.5370921274
 30
0.0
 10
13.6732205559
 20
9.5266904712
 30
0.0
 10
13.6775688191
 20
9.5170424686
 30
0.0
 10
13.6820565759
 20
9.5081618894
 30
0.0
 10
13.6866775822
 20
9.5000612253
 30
0.0
 10
13.6914257236
 20
9.4927517532
 30
0.0
 10
13.6962952325
 20
9.4862436358
 30
0.0
 10
13.7012804512
 20
9.4805459619
 30
0.0
 10
13.706376792
 20
9.4756671601
 30
0.0
 10
13.7115787866
 20
9.4716159444
 30
0.0
 10
13.7160595722
 20
9.4689003125
 30
0.0
 10
13.7196740015
 20
9.4671764007
 30
0.0
 10
13.7214887883
 20
9.4664597336
 30
0.0
 10
13.7223972227
 20
9.4661385572
 30
0.0
  0
SPLINE
  5
34E
100
AcDbEntity
  8
0
100
AcDbSpline
 62
7
  6
CONTINUOUS
 70
0
 71
3
 72
49
 73
45
 74
0
 42
0.0000001
 43
0.0000001
 44
0.0000000001
 40
0.0
 40
0.0
 40
0.0
 40
0.0
 40
0.0407253876
 40
0.0819150543
 40
0.1234497584
 40
0.1652113633
 40
0.2070794901
 40
0.2489339566
 40
0.2906544291
 40
0.3321211214
 40
0.3732151587
 40
0.4138190399
 40
0.453817081
 40
0.4930958636
 40
0.5315446919
 40
0.5690560596
 40
0.6055261334
 40
0.640855259
 40
0.6749484981
 40
0.7077162161
 40
0.7390747367
 40
0.7689470791
 40
0.7972638336
 40
0.8239642313
 40
0.8366925636
 40
0.8489986746
 40
0.8608781087
 40
0.8723272635
 40
0.8833434774
 40
0.8939252664
 40
0.9040722284
 40
0.9137855057
 40
0.9230676436
 40
0.9319231356
 40
0.9403584485
 40
0.9483825108
 40
0.9560070624
 40
0.9632470466
 40
0.9701213025
 40
0.9766529068
 40
0.9828700314
 40
0.9888062373
 40
0.9945010659
 40
1.0
 40
1.0
 40
1.0
 40
1.0
 10
13.5263848989
 20
7.1441524765
 30
0.0
 10
13.5263848989
 20
7.1544736684
 30
0.0
 10
13.5265398247
 20
7.1752340175
 30
0.0
 10
13.5272251312
 20
7.2065138677
 30
0.0
 10
13.5283628917
 20
7.238043361
 30
0.0
 10
13.5299495742
 20
7.2697255778
 30
0.0
 10
13.5319803783
 20
7.3014636319
 30
0.0
 10
13.5344490574
 20
7.3331601758
 30
0.0
 10
13.5373480536
 20
7.3647181087
 30
0.0
 10
13.5406684638
 20
7.3960407154
 30
0.0
 10
13.5444000915
 20
7.4270320179
 30
0.0
 10
13.5485314658
 20
7.4575970573
 30
0.0
 10
13.5530498798
 20
7.4876421919
 30
0.0
 10
13.5579414303
 20
7.5170753859
 30
0.0
 10
13.5631910594
 20
7.5458064942
 30
0.0
 10
13.5687825995
 20
7.5737475432
 30
0.0
 10
13.5746988222
 20
7.600813005
 30
0.0
 10
13.5809214895
 20
7.6269200681
 30
0.0
 10
13.5874314103
 20
7.6519888984
 30
0.0
 10
13.5942084985
 20
7.6759429107
 30
0.0
 10
13.6012318347
 20
7.6987089866
 30
0.0
 10
13.6084797359
 20
7.7202178543
 30
0.0
 10
13.6159298467
 20
7.7404038811
 30
0.0
 10
13.6223864422
 20
7.7563165851
 30
0.0
 10
13.6276488131
 20
7.7683262947
 30
0.0
 10
13.6315688308
 20
7.7768213335
 30
0.0
 10
13.6355221134
 20
7.7849419043
 30
0.0
 10
13.6395056729
 20
7.7926818481
 30
0.0
 10
13.643516509
 20
7.8000352729
 30
0.0
 10
13.6475514944
 20
7.8069966441
 30
0.0
 10
13.6516076819
 20
7.813560662
 30
0.0
 10
13.6556819009
 20
7.8197224381
 30
0.0
 10
13.659771222
 20
7.825477298
 30
0.0
 10
13.663872533
 20
7.8308209855
 30
0.0
 10
13.6679829006
 20
7.8357494907
 30
0.0
 10
13.6720993732
 20
7.8402591448
 30
0.0
 10
13.6762190366
 20
7.844346612
 30
0.0
 10
13.6803391697
 20
7.8480087272
 30
0.0
 10
13.6844569435
 20
7.8512427489
 30
0.0
 10
13.6885698605
 20
7.8540458784
 30
0.0
 10
13.6926751588
 20
7.8564157251
 30
0.0
 10
13.6967704857
 20
7.8583497167
 30
0.0
 10
13.7008523729
 20
7.8598454116
 30
0.0
 10
13.703603828
 20
7.8605593522
 30
0.0
 10
13.7049692852
 20
7.8608380857
 30
0.0
  0
SPLINE
  5
34F
100
AcDbEntity
  8
0
100
AcDbSpline
 62
7
  6
CONTINUOUS
 70
0
 71
3
 72
36
 73
32
 74
0
 42
0.0000001
 43
0.0000001
 44
0.0000000001
 40
0.0
 40
0.0
 40
0.0
 40
0.0
 40
0.0933723586
 40
0.1843539769
 40
0.2724534133
 40
0.357197841
 40
0.3981724861
 40
0.4381436406
 40
0.4770603582
 40
0.5148740447
 40
0.5515385432
 40
0.5870102228
 40
0.6212485358
 40
0.654215907
 40
0.6858782975
 40
0.7162055723
 40
0.7451716778
 40
0.7727556062
 40
0.7989416863
 40
0.8237205711
 40
0.8470904637
 40
0.8690581083
 40
0.8896409949
 40
0.9088693646
 40
0.9267891424
 40
0.9434659082
 40
0.9589889817
 40
0.9734767777
 40
0.9870815291
 40
0.9936140847
 40
1.0
 40
1.0
 40
1.0
 40
1.0
 10
13.5263848989
 20
7.1441524765
 30
0.0
 10
13.5263848989
 20
7.1300639855
 30
0.0
 10
13.5266679557
 20
7.1022467694
 30
0.0
 10
13.5279705803
 20
7.0611550244
 30
0.0
 10
13.5301384176
 20
7.0214031995
 30
0.0
 10
13.532682327
 20
6.9892377397
 30
0.0
 10
13.5351564518
 20
6.9643596089
 30
0.0
 10
13.5371980351
 20
6.9463891078
 30
0.0
 10
13.5394433078
 20
6.9289236518
 30
0.0
 10
13.5418889373
 20
6.9119890076
 30
0.0
 10
13.5445312453
 20
6.8956101821
 30
0.0
 10
13.547366345
 20
6.8798113411
 30
0.0
 10
13.5503899421
 20
6.8646157751
 30
0.0
 10
13.5535975694
 20
6.8500458685
 30
0.0
 10
13.5569844454
 20
6.8361230563
 30
0.0
 10
13.5605454807
 20
6.8228677816
 30
0.0
 10
13.5642754569
 20
6.81029948
 30
0.0
 10
13.5681687799
 20
6.7984365046
 30
0.0
 10
13.572219732
 20
6.7872961204
 30
0.0
 10
13.5764224176
 20
6.7768944642
 30
0.0
 10
13.5807706808
 20
6.7672464616
 30
0.0
 10
13.5852584376
 20
6.7583658824
 30
0.0
 10
13.5898794439
 20
6.7502652183
 30
0.0
 10
13.5946275852
 20
6.7429557462
 30
0.0
 10
13.5994970942
 20
6.7364476289
 30
0.0
 10
13.6044823128
 20
6.7307499549
 30
0.0
 10
13.6095786537
 20
6.7258711532
 30
0.0
 10
13.6147806483
 20
6.7218199374
 30
0.0
 10
13.6192614339
 20
6.7191043055
 30
0.0
 10
13.6228758632
 20
6.7173803937
 30
0.0
 10
13.62469065
 20
6.7166637266
 30
0.0
 10
13.6255990844
 20
6.7163425502
 30
0.0
  0
SPLINE
  5
350
100
AcDbEntity
  8
0
100
AcDbSpline
 62
7
  6
CONTINUOUS
 70
0
 71
3
 72
49
 73
45
 74
0
 42
0.0000001
 43
0.0000001
 44
0.0000000001
 40
0.0
 40
0.0
 40
0.0
 40
0.0
 40
0.0407253876
 40
0.0819150543
 40
0.1234497584
 40
0.1652113633
 40
0.2070794901
 40
0.2489339566
 40
0.2906544291
 40
0.3321211214
 40
0.3732151587
 40
0.4138190399
 40
0.453817081
 40
0.4930958636
 40
0.5315446919
 40
0.5690560596
 40
0.6055261334
 40
0.640855259
 40
0.6749484981
 40
0.7077162161
 40
0.7390747367
 40
0.7689470791
 40
0.7972638336
 40
0.8239642313
 40
0.8366925636
 40
0.8489986746
 40
0.8608781087
 40
0.8723272635
 40
0.8833434774
 40
0.8939252664
 40
0.9040722284
 40
0.9137855057
 40
0.9230676436
 40
0.9319231356
 40
0.9403584485
 40
0.9483825108
 40
0.9560070624
 40
0.9632470466
 40
0.9701213025
 40
0.9766529068
 40
0.9828700314
 40
0.9888062373
 40
0.9945010659
 40
1.0
 40
1.0
 40
1.0
 40
1.0
 10
12.8467266044
 20
6.4876529379
 30
0.0
 10
12.8467266044
 20
6.4979741298
 30
0.0
 10
12.8468815302
 20
6.5187344789
 30
0.0
 10
12.8475668367
 20
6.5500143291
 30
0.0
 10
12.8487045973
 20
6.5815438224
 30
0.0
 10
12.8502912798
 20
6.6132260392
 30
0.0
 10
12.8523220838
 20
6.6449640933
 30
0.0
 10
12.854790763
 20
6.6766606372
 30
0.0
 10
12.8576897591
 20
6.7082185701
 30
0.0
 10
12.8610101693
 20
6.7395411768
 30
0.0
 10
12.864741797
 20
6.7705324793
 30
0.0
 10
12.8688731713
 20
6.8010975187
 30
0.0
 10
12.8733915853
 20
6.8311426534
 30
0.0
 10
12.8782831359
 20
6.8605758473
 30
0.0
 10
12.8835327649
 20
6.8893069557
 30
0.0
 10
12.8891243051
 20
6.9172480046
 30
0.0
 10
12.8950405277
 20
6.9443134664
 30
0.0
 10
12.901263195
 20
6.9704205295
 30
0.0
 10
12.9077731158
 20
6.9954893598
 30
0.0
 10
12.9145502041
 20
7.0194433721
 30
0.0
 10
12.9215735403
 20
7.042209448
 30
0.0
 10
12.9288214414
 20
7.0637183157
 30
0.0
 10
12.9362715522
 20
7.0839043425
 30
0.0
 10
12.9427281477
 20
7.0998170466
 30
0.0
 10
12.9479905186
 20
7.1118267561
 30
0.0
 10
12.9519105363
 20
7.1203217949
 30
0.0
 10
12.9558638189
 20
7.1284423657
 30
0.0
 10
12.9598473784
 20
7.1361823095
 30
0.0
 10
12.9638582145
 20
7.1435357343
 30
0.0
 10
12.9678932
 20
7.1504971055
 30
0.0
 10
12.9719493874
 20
7.1570611234
 30
0.0
 10
12.9760236064
 20
7.1632228995
 30
0.0
 10
12.9801129275
 20
7.1689777594
 30
0.0
 10
12.9842142385
 20
7.1743214469
 30
0.0
 10
12.9883246061
 20
7.1792499521
 30
0.0
 10
12.9924410787
 20
7.1837596062
 30
0.0
 10
12.9965607421
 20
7.1878470735
 30
0.0
 10
13.0006808752
 20
7.1915091886
 30
0.0
 10
13.004798649
 20
7.1947432103
 30
0.0
 10
13.0089115661
 20
7.1975463398
 30
0.0
 10
13.0130168644
 20
7.1999161865
 30
0.0
 10
13.0171121913
 20
7.2018501781
 30
0.0
 10
13.0211940784
 20
7.2033458731
 30
0.0
 10
13.0239455335
 20
7.2040598136
 30
0.0
 10
13.0253109907
 20
7.2043385471
 30
0.0
  0
SPLINE
  5
351
100
AcDbEntity
  8
0
100
AcDbSpline
 62
7
  6
CONTINUOUS
 70
0
 71
3
 72
36
 73
32
 74
0
 42
0.0000001
 43
0.0000001
 44
0.0000000001
 40
0.0
 40
0.0
 40
0.0
 40
0.0
 40
0.0933723586
 40
0.1843539769
 40
0.2724534133
 40
0.357197841
 40
0.3981724861
 40
0.4381436406
 40
0.4770603582
 40
0.5148740447
 40
0.5515385432
 40
0.5870102228
 40
0.6212485358
 40
0.654215907
 40
0.6858782975
 40
0.7162055723
 40
0.7451716778
 40
0.7727556062
 40
0.7989416863
 40
0.8237205711
 40
0.8470904637
 40
0.8690581083
 40
0.8896409949
 40
0.9088693646
 40
0.9267891424
 40
0.9434659082
 40
0.9589889817
 40
0.9734767777
 40
0.9870815291
 40
0.9936140847
 40
1.0
 40
1.0
 40
1.0
 40
1.0
 10
12.8467266044
 20
6.4876529379
 30
0.0
 10
12.8467266044
 20
6.4735644469
 30
0.0
 10
12.8470096612
 20
6.4457472308
 30
0.0
 10
12.8483122858
 20
6.4046554858
 30
0.0
 10
12.8504801231
 20
6.364903661
 30
0.0
 10
12.8530240325
 20
6.3327382012
 30
0.0
 10
12.8554981574
 20
6.3078600703
 30
0.0
 10
12.8575397407
 20
6.2898895692
 30
0.0
 10
12.8597850133
 20
6.2724241132
 30
0.0
 10
12.8622306428
 20
6.2554894691
 30
0.0
 10
12.8648729508
 20
6.2391106435
 30
0.0
 10
12.8677080505
 20
6.2233118025
 30
0.0
 10
12.8707316476
 20
6.2081162366
 30
0.0
 10
12.8739392749
 20
6.1935463299
 30
0.0
 10
12.8773261509
 20
6.1796235177
 30
0.0
 10
12.8808871862
 20
6.166368243
 30
0.0
 10
12.8846171624
 20
6.1537999415
 30
0.0
 10
12.8885104854
 20
6.141936966
 30
0.0
 10
12.8925614375
 20
6.1307965819
 30
0.0
 10
12.8967641231
 20
6.1203949256
 30
0.0
 10
12.9011123863
 20
6.110746923
 30
0.0
 10
12.9056001431
 20
6.1018663438
 30
0.0
 10
12.9102211494
 20
6.0937656797
 30
0.0
 10
12.9149692908
 20
6.0864562076
 30
0.0
 10
12.9198387997
 20
6.0799480903
 30
0.0
 10
12.9248240183
 20
6.0742504163
 30
0.0
 10
12.9299203592
 20
6.0693716146
 30
0.0
 10
12.9351223538
 20
6.0653203989
 30
0.0
 10
12.9396031394
 20
6.062604767
 30
0.0
 10
12.9432175687
 20
6.0608808551
 30
0.0
 10
12.9450323555
 20
6.0601641881
 30
0.0
 10
12.9459407899
 20
6.0598430116
 30
0.0
  0
SPLINE
  5
352
100
AcDbEntity
  8
0
100
AcDbSpline
 62
7
  6
CONTINUOUS
 70
0
 71
3
 72
47
 73
43
 74
0
 42
0.0000001
 43
0.0000001
 44
0.0000000001
 40
0.0
 40
0.0
 40
0.0
 40
0.0
 40
0.0149719699
 40
0.0299469986
 40
0.0449281275
 40
0.0599183593
 40
0.0749206409
 40
0.0899378479
 40
0.1049727642
 40
0.1200280654
 40
0.1351063071
 40
0.1502099062
 40
0.1653411266
 40
0.1805020712
 40
0.195694667
 40
0.2109206532
 40
0.226181577
 40
0.2414787841
 40
0.2721808909
 40
0.30303905
 40
0.3340562704
 40
0.3652320501
 40
0.3965624391
 40
0.4280401707
 40
0.4596548674
 40
0.4913932962
 40
0.5232396724
 40
0.5551760134
 40
0.5871825188
 40
0.61923798
 40
0.6513202127
 40
0.6834065006
 40
0.7154740464
 40
0.7475004247
 40
0.7794640313
 40
0.8113445177
 40
0.8431232087
 40
0.8747834982
 40
0.9063112124
 40
0.9376949433
 40
0.9689261019
 40
1.0
 40
1.0
 40
1.0
 40
1.0
 10
8.5127982855
 20
9.7672328467
 30
0.0
 10
8.5200569575
 20
9.7742441748
 30
0.0
 10
8.5348562764
 20
9.7879811866
 30
0.0
 10
8.557858942
 20
9.8076905383
 30
0.0
 10
8.5816361259
 20
9.8264788878
 30
0.0
 10
8.6061546883
 20
9.8443198924
 30
0.0
 10
8.6313809443
 20
9.8611892038
 30
0.0
 10
8.6572801559
 20
9.8770635721
 30
0.0
 10
8.6838167269
 20
9.8919210985
 30
0.0
 10
8.7109540814
 20
9.9057414354
 30
0.0
 10
8.7386548808
 20
9.9185055752
 30
0.0
 10
8.7668810375
 20
9.9301958881
 30
0.0
 10
8.7955936717
 20
9.9407963963
 30
0.0
 10
8.8247532668
 20
9.9502925365
 30
0.0
 10
8.8543197669
 20
9.9586711764
 30
0.0
 10
8.8842523133
 20
9.9659208902
 30
0.0
 10
8.9145102917
 20
9.9720317695
 30
0.0
 10
8.9552763873
 20
9.9786572681
 30
0.0
 10
9.0068559155
 20
9.9840448217
 30
0.0
 10
9.0692890161
 20
9.9858463973
 30
0.0
 10
9.1320031303
 20
9.9829853669
 30
0.0
 10
9.1946511595
 20
9.9754777277
 30
0.0
 10
9.2568895155
 20
9.9633655371
 30
0.0
 10
9.3183762225
 20
9.9467160924
 30
0.0
 10
9.3787737324
 20
9.925621392
 30
0.0
 10
9.4377504966
 20
9.9001977692
 30
0.0
 10
9.4949829077
 20
9.8705853557
 30
0.0
 10
9.5501568901
 20
9.8369470044
 30
0.0
 10
9.6029697045
 20
9.7994676411
 30
0.0
 10
9.6531316334
 20
9.7583532593
 30
0.0
 10
9.7003673685
 20
9.7138295702
 30
0.0
 10
9.7444176847
 20
9.666141019
 30
0.0
 10
9.7850408362
 20
9.6155493909
 30
0.0
 10
9.8220136745
 20
9.5623322425
 30
0.0
 10
9.8551331196
 20
9.5067816135
 30
0.0
 10
9.8842171731
 20
9.4492023254
 30
0.0
 10
9.9091057367
 20
9.3899103022
 30
0.0
 10
9.9296618046
 20
9.3292308701
 30
0.0
 10
9.9457720465
 20
9.2674974113
 30
0.0
 10
9.9573472236
 20
9.2050476987
 30
0.0
 10
9.9643233518
 20
9.1422291307
 30
0.0
 10
9.9658858576
 20
9.1002159861
 30
0.0
 10
9.9658858576
 20
9.0792704732
 30
0.0
  0
SPLINE
  5
353
100
AcDbEntity
  8
0
100
AcDbSpline
 62
7
  6
CONTINUOUS
 70
0
 71
3
 72
39
 73
35
 74
0
 42
0.0000001
 43
0.0000001
 44
0.0000000001
 40
0.0
 40
0.0
 40
0.0
 40
0.0
 40
0.0298270978
 40
0.0596806635
 40
0.0895873215
 40
0.1195716219
 40
0.1496564473
 40
0.1798621803
 40
0.2102062702
 40
0.2407028683
 40
0.2713625442
 40
0.3021921233
 40
0.333194595
 40
0.3643691279
 40
0.3957111612
 40
0.4272125798
 40
0.4588619363
 40
0.4906447545
 40
0.5225438622
 40
0.5545397715
 40
0.5866110868
 40
0.6187349442
 40
0.6508874601
 40
0.6830441985
 40
0.715180642
 40
0.7472726644
 40
0.7792969996
 40
0.8112316958
 40
0.843056563
 40
0.8747535868
 40
0.9063073246
 40
0.937705281
 40
0.9689379387
 40
1.0
 40
1.0
 40
1.0
 40
1.0
 10
8.6128257885
 20
9.7345514697
 30
0.0
 10
8.6257428463
 20
9.7470283901
 30
0.0
 10
8.6525952521
 20
9.7709745778
 30
0.0
 10
8.6956237122
 20
9.8035933862
 30
0.0
 10
8.7411855306
 20
9.8327504698
 30
0.0
 10
8.7890296651
 20
9.8582826667
 30
0.0
 10
8.8388961126
 20
9.8800501977
 30
0.0
 10
8.8905126165
 20
9.8979323594
 30
0.0
 10
8.9435972664
 20
9.9118294798
 30
0.0
 10
8.9978595211
 20
9.9216633775
 30
0.0
 10
9.0530018755
 20
9.9273780196
 30
0.0
 10
9.1087214616
 20
9.9289397439
 30
0.0
 10
9.1647116952
 20
9.9263377073
 30
0.0
 10
9.2206640186
 20
9.9195841745
 30
0.0
 10
9.2762696555
 20
9.908714315
 30
0.0
 10
9.3312213556
 20
9.8937861577
 30
0.0
 10
9.3852152329
 20
9.8748805211
 30
0.0
 10
9.43795247
 20
9.8521003716
 30
0.0
 10
9.4891410179
 20
9.8255702883
 30
0.0
 10
9.5384973856
 20
9.7954359994
 30
0.0
 10
9.5857481999
 20
9.7618633819
 30
0.0
 10
9.630631712
 20
9.7250374975
 30
0.0
 10
9.6728994378
 20
9.6851617413
 30
0.0
 10
9.7123175109
 20
9.6424565781
 30
0.0
 10
9.7486679098
 20
9.5971582187
 30
0.0
 10
9.7817498446
 20
9.549517425
 30
0.0
 10
9.8113808831
 20
9.4997980443
 30
0.0
 10
9.8373978232
 20
9.4482754
 30
0.0
 10
9.8596577382
 20
9.3952348513
 30
0.0
 10
9.8780388431
 20
9.3409700266
 30
0.0
 10
9.8924409725
 20
9.2857815173
 30
0.0
 10
9.9027860942
 20
9.229973556
 30
0.0
 10
9.9090192092
 20
9.1738584828
 30
0.0
 10
9.9104153823
 20
9.1363363326
 30
0.0
 10
9.9104153823
 20
9.1176338077
 30
0.0
  0
SPLINE
  5
354
100
AcDbEntity
  8
0
100
AcDbSpline
 62
7
  6
CONTINUOUS
 70
0
 71
3
 72
23
 73
19
 74
0
 42
0.0000001
 43
0.0000001
 44
0.0000000001
 40
0.0
 40
0.0
 40
0.0
 40
0.0
 40
0.0638960463
 40
0.1275625627
 40
0.1910007796
 40
0.2542170903
 40
0.3172182182
 40
0.3800137024
 40
0.442614847
 40
0.5050349522
 40
0.5672891169
 40
0.6293941178
 40
0.6913682762
 40
0.753231189
 40
0.8150038592
 40
0.8767074816
 40
0.9383658203
 40
1.0
 40
1.0
 40
1.0
 40
1.0
 10
9.9104153823
 20
9.1176338077
 30
0.0
 10
9.9104153823
 20
9.1055967891
 30
0.0
 10
9.9098399186
 20
9.0815619149
 30
0.0
 10
9.9072422539
 20
9.0456607931
 30
0.0
 10
9.9029181763
 20
9.0100544752
 30
0.0
 10
9.8968785542
 20
8.9748259665
 30
0.0
 10
9.88913781
 20
8.9400555927
 30
0.0
 10
9.8797144689
 20
8.905823094
 30
0.0
 10
9.8686307408
 20
8.8722066871
 30
0.0
 10
9.855912626
 20
8.8392831272
 30
0.0
 10
9.841589767
 20
8.8071274801
 30
0.0
 10
9.8256954068
 20
8.7758129655
 30
0.0
 10
9.8082662754
 20
8.7454108382
 30
0.0
 10
9.7893425022
 20
8.7159901428
 30
0.0
 10
9.7689675684
 20
8.6876178852
 30
0.0
 10
9.7471878867
 20
8.6603580507
 30
0.0
 10
9.7240540394
 20
8.6342736862
 30
0.0
 10
9.7077606957
 20
8.6177039588
 30
0.0
 10
9.6994094895
 20
8.6096373127
 30
0.0
  0
SPLINE
  5
355
100
AcDbEntity
  8
0
100
AcDbSpline
 62
7
  6
CONTINUOUS
 70
0
 71
3
 72
36
 73
32
 74
0
 42
0.0000001
 43
0.0000001
 44
0.0000000001
 40
0.0
 40
0.0
 40
0.0
 40
0.0
 40
0.0053488481
 40
0.0106669403
 40
0.0160047175
 40
0.0214108338
 40
0.0325979076
 40
0.0445636532
 40
0.0575671683
 40
0.0718080924
 40
0.0874386633
 40
0.104575349
 40
0.1233091511
 40
0.1437121437
 40
0.1658428656
 40
0.1897485359
 40
0.215467537
 40
0.2430292125
 40
0.2724538568
 40
0.3037525793
 40
0.3369244158
 40
0.3719555674
 40
0.4088174067
 40
0.4474628252
 40
0.4878241712
 40
0.5298110239
 40
0.6181617322
 40
0.7112569499
 40
0.8073784035
 40
0.904412847
 40
1.0
 40
1.0
 40
1.0
 40
1.0
 10
9.4432527329
 20
8.5883907665
 30
0.0
 10
9.4433452822
 20
8.5880690144
 30
0.0
 10
9.4434991845
 20
8.5874180432
 30
0.0
 10
9.4436334781
 20
8.5864237813
 30
0.0
 10
9.4436706945
 20
8.5854174967
 30
0.0
 10
9.4435911484
 20
8.5840453088
 30
0.0
 10
9.4432393334
 20
8.5822825416
 30
0.0
 10
9.4424403308
 20
8.5801564772
 30
0.0
 10
9.4412660925
 20
8.5779938722
 30
0.0
 10
9.4397197423
 20
8.5757945272
 30
0.0
 10
9.4378013566
 20
8.5735585528
 30
0.0
 10
9.4355097254
 20
8.5712872393
 30
0.0
 10
9.4328424069
 20
8.5689832104
 30
0.0
 10
9.429796395
 20
8.5666502181
 30
0.0
 10
9.4263684135
 20
8.564293041
 30
0.0
 10
9.4225549014
 20
8.5619178161
 30
0.0
 10
9.4183526223
 20
8.5595316379
 30
0.0
 10
9.4137586159
 20
8.5571431356
 30
0.0
 10
9.4087707384
 20
8.5547622464
 30
0.0
 10
9.4033880262
 20
8.5524004155
 30
0.0
 10
9.3976110798
 20
8.55007083
 30
0.0
 10
9.3914426845
 20
8.5477882981
 30
0.0
 10
9.3848883264
 20
8.5455693844
 30
0.0
 10
9.3779568592
 20
8.54343244
 30
0.0
 10
9.370661114
 20
8.5413973694
 30
0.0
 10
9.3602949404
 20
8.5388043787
 30
0.0
 10
9.3465924653
 20
8.535968842
 30
0.0
 10
9.3294027685
 20
8.5333870549
 30
0.0
 10
9.3115502746
 20
8.5317449454
 30
0.0
 10
9.2934747866
 20
8.5311824039
 30
0.0
 10
9.2814139524
 20
8.531588039
 30
0.0
 10
9.2754452418
 20
8.5320019705
 30
0.0
  0
LINE
  5
356
100
AcDbEntity
  8
0
100
AcDbLine
 62
7
  6
CONTINUOUS
 10
10.350504083
 20
7.0024465815
 11
10.350624241
 21
7.0025423439
  0
SPLINE
  5
357
100
AcDbEntity
  8
0
100
AcDbSpline
 62
7
  6
CONTINUOUS
 70
0
 71
3
 72
39
 73
35
 74
0
 42
0.0000001
 43
0.0000001
 44
0.0000000001
 40
0.0
 40
0.0
 40
0.0
 40
0.0
 40
0.0299251419
 40
0.0599001692
 40
0.0899458054
 40
0.1200811977
 40
0.1503235057
 40
0.1806875429
 40
0.2111854837
 40
0.2418266376
 40
0.272617291
 40
0.3035606166
 40
0.3346566566
 40
0.3659023681
 40
0.3972917272
 40
0.4288158859
 40
0.4604633828
 40
0.4922203943
 40
0.5240710211
 40
0.5559976041
 40
0.5879810696
 40
0.6200012903
 40
0.6520374608
 40
0.684068482
 40
0.7160733499
 40
0.7480315417
 40
0.7799233971
 40
0.8117304887
 40
0.8434359748
 40
0.8750249284
 40
0.9064846382
 40
0.9378049431
 40
0.9689780826
 40
1.0
 40
1.0
 40
1.0
 40
1.0
 10
10.350624241
 20
7.0025423439
 30
0.0
 10
10.3642166139
 20
7.0133725587
 30
0.0
 10
10.3922650887
 20
7.0340188132
 30
0.0
 10
10.4366119499
 20
7.0617156442
 30
0.0
 10
10.4830428042
 20
7.0860263129
 30
0.0
 10
10.5313173041
 20
7.1068245321
 30
0.0
 10
10.5811897347
 20
7.1240051989
 30
0.0
 10
10.6324052155
 20
7.1374810087
 30
0.0
 10
10.6847024357
 20
7.1471838375
 30
0.0
 10
10.7378146266
 20
7.1530647646
 30
0.0
 10
10.7914710157
 20
7.1550943695
 30
0.0
 10
10.8453981774
 20
7.1532629545
 30
0.0
 10
10.8993214446
 20
7.1475804433
 30
0.0
 10
10.9529662833
 20
7.1380763055
 30
0.0
 10
11.0060596652
 20
7.1247993899
 30
0.0
 10
11.0583314719
 20
7.1078177785
 30
0.0
 10
11.1095158317
 20
7.0872183047
 30
0.0
 10
11.1593524448
 20
7.0631061081
 30
0.0
 10
11.2075878806
 20
7.0356041019
 30
0.0
 10
11.2539769119
 20
7.0048524516
 30
0.0
 10
11.2982836946
 20
6.9710077526
 30
0.0
 10
11.3402829456
 20
6.9342422437
 30
0.0
 10
11.3797610685
 20
6.8947429448
 30
0.0
 10
11.4165173158
 20
6.8527107975
 30
0.0
 10
11.450364721
 20
6.8083595595
 30
0.0
 10
11.4811310349
 20
6.7619147354
 30
0.0
 10
11.5086595889
 20
6.713612452
 30
0.0
 10
11.5328101944
 20
6.663698321
 30
0.0
 10
11.5534597525
 20
6.612426167
 30
0.0
 10
11.570502868
 20
6.5600566488
 30
0.0
 10
11.5838524231
 20
6.506856359
 30
0.0
 10
11.5934399938
 20
6.4530950894
 30
0.0
 10
11.5992164995
 20
6.3990499101
 30
0.0
 10
11.6005098255
 20
6.3629163378
 30
0.0
 10
11.6005098255
 20
6.3448998939
 30
0.0
  0
SPLINE
  5
358
100
AcDbEntity
  8
0
100
AcDbSpline
 62
7
  6
CONTINUOUS
 70
0
 71
3
 72
47
 73
43
 74
0
 42
0.0000001
 43
0.0000001
 44
0.0000000001
 40
0.0
 40
0.0
 40
0.0
 40
0.0
 40
0.0149719699
 40
0.0299469986
 40
0.0449281275
 40
0.0599183593
 40
0.0749206409
 40
0.0899378479
 40
0.1049727642
 40
0.1200280654
 40
0.1351063071
 40
0.1502099062
 40
0.1653411266
 40
0.1805020712
 40
0.195694667
 40
0.2109206532
 40
0.226181577
 40
0.2414787841
 40
0.2721808909
 40
0.30303905
 40
0.3340562704
 40
0.3652320501
 40
0.3965624391
 40
0.4280401707
 40
0.4596548674
 40
0.4913932962
 40
0.5232396724
 40
0.5551760134
 40
0.5871825188
 40
0.61923798
 40
0.6513202127
 40
0.6834065006
 40
0.7154740464
 40
0.7475004247
 40
0.7794640313
 40
0.8113445177
 40
0.8431232087
 40
0.8747834982
 40
0.9063112124
 40
0.9376949433
 40
0.9689261019
 40
1.0
 40
1.0
 40
1.0
 40
1.0
 10
10.2031685816
 20
6.9937090888
 30
0.0
 10
10.2104272536
 20
7.0007204169
 30
0.0
 10
10.2252265725
 20
7.0144574288
 30
0.0
 10
10.2482292382
 20
7.0341667804
 30
0.0
 10
10.2720064221
 20
7.05295513
 30
0.0
 10
10.2965249844
 20
7.0707961345
 30
0.0
 10
10.3217512405
 20
7.087665446
 30
0.0
 10
10.3476504521
 20
7.1035398142
 30
0.0
 10
10.3741870231
 20
7.1183973406
 30
0.0
 10
10.4013243775
 20
7.1322176775
 30
0.0
 10
10.429025177
 20
7.1449818173
 30
0.0
 10
10.4572513337
 20
7.1566721303
 30
0.0
 10
10.4859639679
 20
7.1672726384
 30
0.0
 10
10.515123563
 20
7.1767687786
 30
0.0
 10
10.5446900631
 20
7.1851474185
 30
0.0
 10
10.5746226094
 20
7.1923971323
 30
0.0
 10
10.6048805879
 20
7.1985080116
 30
0.0
 10
10.6456466835
 20
7.2051335102
 30
0.0
 10
10.6972262116
 20
7.2105210639
 30
0.0
 10
10.7596593122
 20
7.2123226394
 30
0.0
 10
10.8223734264
 20
7.209461609
 30
0.0
 10
10.8850214556
 20
7.2019539698
 30
0.0
 10
10.9472598117
 20
7.1898417792
 30
0.0
 10
11.0087465186
 20
7.1731923345
 30
0.0
 10
11.0691440286
 20
7.1520976341
 30
0.0
 10
11.1281207928
 20
7.1266740113
 30
0.0
 10
11.1853532039
 20
7.0970615978
 30
0.0
 10
11.2405271863
 20
7.0634232465
 30
0.0
 10
11.2933400006
 20
7.0259438832
 30
0.0
 10
11.3435019296
 20
6.9848295014
 30
0.0
 10
11.3907376647
 20
6.9403058123
 30
0.0
 10
11.4347879808
 20
6.8926172611
 30
0.0
 10
11.4754111323
 20
6.842025633
 30
0.0
 10
11.5123839707
 20
6.7888084846
 30
0.0
 10
11.5455034158
 20
6.7332578556
 30
0.0
 10
11.5745874693
 20
6.6756785676
 30
0.0
 10
11.5994760329
 20
6.6163865443
 30
0.0
 10
11.6200321007
 20
6.5557071122
 30
0.0
 10
11.6361423426
 20
6.4939736534
 30
0.0
 10
11.6477175198
 20
6.4315239408
 30
0.0
 10
11.6546936479
 20
6.3687053728
 30
0.0
 10
11.6562561538
 20
6.3266922282
 30
0.0
 10
11.6562561538
 20
6.3057467153
 30
0.0
  0
SPLINE
  5
359
100
AcDbEntity
  8
0
100
AcDbSpline
 62
7
  6
CONTINUOUS
 70
0
 71
3
 72
23
 73
19
 74
0
 42
0.0000001
 43
0.0000001
 44
0.0000000001
 40
0.0
 40
0.0
 40
0.0
 40
0.0
 40
0.0616618916
 40
0.1233742189
 40
0.1851526356
 40
0.2470122736
 40
0.3089676204
 40
0.3710324028
 40
0.4332194938
 40
0.4955408137
 40
0.5580072432
 40
0.620628554
 40
0.6834132673
 40
0.7463688274
 40
0.8095013203
 40
0.8728146504
 40
0.9363150856
 40
1.0
 40
1.0
 40
1.0
 40
1.0
 10
11.4329127864
 20
5.8820742355
 30
0.0
 10
11.439627093
 20
5.8899264434
 30
0.0
 10
11.4527060511
 20
5.9059449994
 30
0.0
 10
11.4712217548
 20
5.9308484665
 30
0.0
 10
11.488609794
 20
5.9565927165
 30
0.0
 10
11.5048382788
 20
5.983130701
 30
0.0
 10
11.5198780788
 20
6.0104147624
 30
0.0
 10
11.5337020865
 20
6.0383956433
 30
0.0
 10
11.5462854571
 20
6.0670228895
 30
0.0
 10
11.5576055346
 20
6.0962448912
 30
0.0
 10
11.5676419036
 20
6.1260089893
 30
0.0
 10
11.5763765374
 20
6.156261513
 30
0.0
 10
11.5837937839
 20
6.1869479289
 30
0.0
 10
11.5898802976
 20
6.2180129711
 30
0.0
 10
11.5946250522
 20
6.2494005004
 30
0.0
 10
11.5980197805
 20
6.2810544831
 30
0.0
 10
11.6000580796
 20
6.3129167275
 30
0.0
 10
11.6005098255
 20
6.3342294754
 30
0.0
 10
11.6005098255
 20
6.3448998939
 30
0.0
  0
SPLINE
  5
35A
100
AcDbEntity
  8
0
100
AcDbSpline
 62
7
  6
CONTINUOUS
 70
0
 71
3
 72
39
 73
35
 74
0
 42
0.0000001
 43
0.0000001
 44
0.0000000001
 40
0.0
 40
0.0
 40
0.0
 40
0.0
 40
0.0055577178
 40
0.0111783515
 40
0.0169224939
 40
0.0228466025
 40
0.0290016501
 40
0.0354322917
 40
0.0492594105
 40
0.0567237334
 40
0.0645832027
 40
0.0728552336
 40
0.0815535905
 40
0.0906889511
 40
0.1002689297
 40
0.1207797723
 40
0.1431090779
 40
0.1672508467
 40
0.1931790703
 40
0.2208514629
 40
0.250212479
 40
0.2811953802
 40
0.3137236274
 40
0.3477121318
 40
0.3830684333
 40
0.4196935094
 40
0.4574823724
 40
0.4963248728
 40
0.5767054405
 40
0.6598768759
 40
0.7448320392
 40
0.8305351833
 40
0.9159380978
 40
1.0
 40
1.0
 40
1.0
 40
1.0
 10
12.4472761408
 20
10.1089655216
 30
0.0
 10
12.4472761348
 20
10.1084435502
 30
0.0
 10
12.4472176899
 20
10.1073927885
 30
0.0
 10
12.4469553257
 20
10.1058222681
 30
0.0
 10
12.4465188225
 20
10.1042552384
 30
0.0
 10
12.4459089723
 20
10.1026935414
 30
0.0
 10
12.4451267199
 20
10.1011383884
 30
0.0
 10
12.4438239893
 20
10.0990243999
 30
0.0
 10
12.4421951551
 20
10.0969795707
 30
0.0
 10
12.4402961184
 20
10.0950063471
 30
0.0
 10
12.4386684824
 20
10.0935004776
 30
0.0
 10
12.4368756549
 20
10.0920078007
 30
0.0
 10
12.4349188176
 20
10.0905292037
 30
0.0
 10
12.4327995665
 20
10.0890658901
 30
0.0
 10
12.4296883211
 20
10.0870915216
 30
0.0
 10
12.4253917172
 20
10.0846800118
 30
0.0
 10
12.4197317628
 20
10.0819276405
 30
0.0
 10
12.4134733311
 20
10.0792629296
 30
0.0
 10
12.4066364741
 20
10.076694514
 30
0.0
 10
12.3992429341
 20
10.0742307413
 30
0.0
 10
12.3913165479
 20
10.0718797265
 30
0.0
 10
12.3828829597
 20
10.0696492534
 30
0.0
 10
12.3739695796
 20
10.0675467055
 30
0.0
 10
12.3646054554
 20
10.0655790306
 30
0.0
 10
12.3548211426
 20
10.0637527457
 30
0.0
 10
12.3446486092
 20
10.0620739261
 30
0.0
 10
12.3341210981
 20
10.0605480726
 30
0.0
 10
12.3194899345
 20
10.0587034144
 30
0.0
 10
12.300570147
 20
10.0568277834
 30
0.0
 10
12.2772787923
 20
10.0552752679
 30
0.0
 10
12.2534513619
 20
10.0544173554
 30
0.0
 10
12.2293994695
 20
10.0542654592
 30
0.0
 10
12.2054376518
 20
10.0548216691
 30
0.0
 10
12.1895414179
 20
10.055669684
 30
0.0
 10
12.1816653839
 20
10.0562158888
 30
0.0
  0
SPLINE
  5
35B
100
AcDbEntity
  8
0
100
AcDbSpline
 62
7
  6
CONTINUOUS
 70
0
 71
3
 72
39
 73
35
 74
0
 42
0.0000001
 43
0.0000001
 44
0.0000000001
 40
0.0
 40
0.0
 40
0.0
 40
0.0
 40
0.0055577178
 40
0.0111783515
 40
0.0169224939
 40
0.0228466025
 40
0.0290016501
 40
0.0354322917
 40
0.0492594105
 40
0.0567237334
 40
0.0645832027
 40
0.0728552336
 40
0.0815535905
 40
0.0906889511
 40
0.1002689297
 40
0.1207797723
 40
0.1431090779
 40
0.1672508467
 40
0.1931790703
 40
0.2208514629
 40
0.250212479
 40
0.2811953802
 40
0.3137236274
 40
0.3477121318
 40
0.3830684333
 40
0.4196935094
 40
0.4574823724
 40
0.4963248728
 40
0.5767054405
 40
0.6598768759
 40
0.7448320392
 40
0.8305351833
 40
0.9159380978
 40
1.0
 40
1.0
 40
1.0
 40
1.0
 10
13.8384273602
 20
11.4527144922
 30
0.0
 10
13.8384273541
 20
11.4521925208
 30
0.0
 10
13.8383689093
 20
11.4511417591
 30
0.0
 10
13.838106545
 20
11.4495712388
 30
0.0
 10
13.8376700419
 20
11.4480042091
 30
0.0
 10
13.8370601917
 20
11.446442512
 30
0.0
 10
13.8362779392
 20
11.444887359
 30
0.0
 10
13.8349752086
 20
11.4427733706
 30
0.0
 10
13.8333463744
 20
11.4407285413
 30
0.0
 10
13.8314473378
 20
11.4387553177
 30
0.0
 10
13.8298197017
 20
11.4372494482
 30
0.0
 10
13.8280268742
 20
11.4357567713
 30
0.0
 10
13.8260700369
 20
11.4342781744
 30
0.0
 10
13.8239507859
 20
11.4328148608
 30
0.0
 10
13.8208395404
 20
11.4308404922
 30
0.0
 10
13.8165429365
 20
11.4284289824
 30
0.0
 10
13.8108829821
 20
11.4256766112
 30
0.0
 10
13.8046245505
 20
11.4230119003
 30
0.0
 10
13.7977876935
 20
11.4204434847
 30
0.0
 10
13.7903941535
 20
11.417979712
 30
0.0
 10
13.7824677673
 20
11.4156286972
 30
0.0
 10
13.774034179
 20
11.4133982241
 30
0.0
 10
13.765120799
 20
11.4112956762
 30
0.0
 10
13.7557566748
 20
11.4093280013
 30
0.0
 10
13.7459723619
 20
11.4075017164
 30
0.0
 10
13.7357998285
 20
11.4058228967
 30
0.0
 10
13.7252723174
 20
11.4042970432
 30
0.0
 10
13.7106411539
 20
11.402452385
 30
0.0
 10
13.6917213663
 20
11.4005767541
 30
0.0
 10
13.6684300116
 20
11.3990242385
 30
0.0
 10
13.6446025812
 20
11.398166326
 30
0.0
 10
13.6205506889
 20
11.3980144299
 30
0.0
 10
13.5965888711
 20
11.3985706397
 30
0.0
 10
13.5806926372
 20
11.3994186546
 30
0.0
 10
13.5728166033
 20
11.3999648595
 30
0.0
  0
SPLINE
  5
35C
100
AcDbEntity
  8
0
100
AcDbSpline
 62
7
  6
CONTINUOUS
 70
0
 71
3
 72
47
 73
43
 74
0
 42
0.0000001
 43
0.0000001
 44
0.0000000001
 40
0.0
 40
0.0
 40
0.0
 40
0.0
 40
0.0063158891
 40
0.012670693
 40
0.0191025391
 40
0.0256481111
 40
0.0323420145
 40
0.0392163779
 40
0.0536142747
 40
0.0611950254
 40
0.0690568328
 40
0.0772179734
 40
0.0856944045
 40
0.0944998522
 40
0.1036459935
 40
0.1131428211
 40
0.1229986303
 40
0.1332202822
 40
0.1438134448
 40
0.1547825085
 40
0.1661308998
 40
0.1899733285
 40
0.2153528849
 40
0.2422687961
 40
0.2707111428
 40
0.3006622203
 40
0.3320975591
 40
0.3649868908
 40
0.3992948428
 40
0.43498141
 40
0.4720024243
 40
0.5103100179
 40
0.5498529293
 40
0.590576713
 40
0.6324240653
 40
0.675335092
 40
0.7192474692
 40
0.7640965597
 40
0.8098158789
 40
0.8563369465
 40
0.9035890751
 40
1.0
 40
1.0
 40
1.0
 40
1.0
 10
13.0679408254
 20
8.5744890161
 30
0.0
 10
13.0665768472
 20
8.5745836158
 30
0.0
 10
13.0638469349
 20
8.5748850701
 30
0.0
 10
13.0597826688
 20
8.5756707756
 30
0.0
 10
13.0557455494
 20
8.5767899072
 30
0.0
 10
13.0517379831
 20
8.5782417216
 30
0.0
 10
13.0477615079
 20
8.5800252665
 30
0.0
 10
13.0424221491
 20
8.5828874635
 30
0.0
 10
13.0372278292
 20
8.5863912808
 30
0.0
 10
13.032201007
 20
8.5904515902
 30
0.0
 10
13.0284041054
 20
8.5938749551
 30
0.0
 10
13.0246476996
 20
8.5976217742
 30
0.0
 10
13.0209328073
 20
8.6016907931
 30
0.0
 10
13.0172609343
 20
8.6060802347
 30
0.0
 10
13.0136333755
 20
8.6107882794
 30
0.0
 10
13.0100516047
 20
8.6158130563
 30
0.0
 10
13.0065169726
 20
8.6211524985
 30
0.0
 10
13.0030308404
 20
8.6268044318
 30
0.0
 10
12.9995946735
 20
8.6327665994
 30
0.0
 10
12.9962097339
 20
8.6390365576
 30
0.0
 10
12.9916922017
 20
8.647950775
 30
0.0
 10
12.9861986411
 20
8.6598622495
 30
0.0
 10
12.9799367534
 20
8.6751131516
 30
0.0
 10
12.9739110849
 20
8.6915236
 30
0.0
 10
12.9681315169
 20
8.7090668344
 30
0.0
 10
12.9626075539
 20
8.7277145456
 30
0.0
 10
12.9573483091
 20
8.7474363368
 30
0.0
 10
12.9523625072
 20
8.768200001
 30
0.0
 10
12.9476584572
 20
8.789971544
 30
0.0
 10
12.943243988
 20
8.8127152466
 30
0.0
 10
12.9391264358
 20
8.8363937336
 30
0.0
 10
12.9353126664
 20
8.8609680672
 30
0.0
 10
12.9318090545
 20
8.8863978073
 30
0.0
 10
12.928621423
 20
8.9126410699
 30
0.0
 10
12.925755077
 20
8.9396546124
 30
0.0
 10
12.9232148044
 20
8.9673939193
 30
0.0
 10
12.9210048516
 20
8.9958132522
 30
0.0
 10
12.9191288763
 20
9.0248657638
 30
0.0
 10
12.9175900243
 20
9.0545035207
 30
0.0
 10
12.9163908521
 20
9.0846776148
 30
0.0
 10
12.9152399714
 20
9.1258329731
 30
0.0
 10
12.9149061264
 20
9.1569345809
 30
0.0
 10
12.9149061264
 20
9.1778054818
 30
0.0
  0
SPLINE
  5
35D
100
AcDbEntity
  8
0
100
AcDbSpline
 62
7
  6
CONTINUOUS
 70
0
 71
3
 72
47
 73
43
 74
0
 42
0.0000001
 43
0.0000001
 44
0.0000000001
 40
0.0
 40
0.0
 40
0.0
 40
0.0
 40
0.0063158891
 40
0.012670693
 40
0.0191025391
 40
0.0256481111
 40
0.0323420145
 40
0.0392163779
 40
0.0536142747
 40
0.0611950254
 40
0.0690568328
 40
0.0772179734
 40
0.0856944045
 40
0.0944998522
 40
0.1036459935
 40
0.1131428211
 40
0.1229986303
 40
0.1332202822
 40
0.1438134448
 40
0.1547825085
 40
0.1661308998
 40
0.1899733285
 40
0.2153528849
 40
0.2422687961
 40
0.2707111428
 40
0.3006622203
 40
0.3320975591
 40
0.3649868908
 40
0.3992948428
 40
0.43498141
 40
0.4720024243
 40
0.5103100179
 40
0.5498529293
 40
0.590576713
 40
0.6324240653
 40
0.675335092
 40
0.7192474692
 40
0.7640965597
 40
0.8098158789
 40
0.8563369465
 40
0.9035890751
 40
1.0
 40
1.0
 40
1.0
 40
1.0
 10
13.7470813963
 20
9.2304884721
 30
0.0
 10
13.7457174181
 20
9.2305830718
 30
0.0
 10
13.7429875058
 20
9.2308845261
 30
0.0
 10
13.7389232397
 20
9.2316702316
 30
0.0
 10
13.7348861203
 20
9.2327893632
 30
0.0
 10
13.730878554
 20
9.2342411776
 30
0.0
 10
13.7269020789
 20
9.2360247225
 30
0.0
 10
13.72156272
 20
9.2388869195
 30
0.0
 10
13.7163684001
 20
9.2423907368
 30
0.0
 10
13.7113415779
 20
9.2464510462
 30
0.0
 10
13.7075446764
 20
9.2498744111
 30
0.0
 10
13.7037882705
 20
9.2536212302
 30
0.0
 10
13.7000733782
 20
9.2576902491
 30
0.0
 10
13.6964015053
 20
9.2620796907
 30
0.0
 10
13.6927739465
 20
9.2667877354
 30
0.0
 10
13.6891921756
 20
9.2718125123
 30
0.0
 10
13.6856575435
 20
9.2771519545
 30
0.0
 10
13.6821714113
 20
9.2828038878
 30
0.0
 10
13.6787352444
 20
9.2887660554
 30
0.0
 10
13.6753503049
 20
9.2950360136
 30
0.0
 10
13.6708327726
 20
9.303950231
 30
0.0
 10
13.665339212
 20
9.3158617055
 30
0.0
 10
13.6590773244
 20
9.3311126077
 30
0.0
 10
13.6530516559
 20
9.347523056
 30
0.0
 10
13.6472720879
 20
9.3650662904
 30
0.0
 10
13.6417481249
 20
9.3837140016
 30
0.0
 10
13.6364888801
 20
9.4034357928
 30
0.0
 10
13.6315030781
 20
9.424199457
 30
0.0
 10
13.6267990281
 20
9.445971
 30
0.0
 10
13.6223845589
 20
9.4687147026
 30
0.0
 10
13.6182670068
 20
9.4923931896
 30
0.0
 10
13.6144532373
 20
9.5169675232
 30
0.0
 10
13.6109496255
 20
9.5423972633
 30
0.0
 10
13.6077619939
 20
9.5686405259
 30
0.0
 10
13.6048956479
 20
9.5956540684
 30
0.0
 10
13.6023553753
 20
9.6233933753
 30
0.0
 10
13.6001454225
 20
9.6518127082
 30
0.0
 10
13.5982694473
 20
9.6808652198
 30
0.0
 10
13.5967305952
 20
9.7105029767
 30
0.0
 10
13.595531423
 20
9.7406770708
 30
0.0
 10
13.5943805423
 20
9.7818324291
 30
0.0
 10
13.5940466973
 20
9.8129340369
 30
0.0
 10
13.5940466973
 20
9.8338049378
 30
0.0
  0
SPLINE
  5
35E
100
AcDbEntity
  8
0
100
AcDbSpline
 62
7
  6
CONTINUOUS
 70
0
 71
3
 72
47
 73
43
 74
0
 42
0.0000001
 43
0.0000001
 44
0.0000000001
 40
0.0
 40
0.0
 40
0.0
 40
0.0
 40
0.0063158891
 40
0.012670693
 40
0.0191025391
 40
0.0256481111
 40
0.0323420145
 40
0.0392163779
 40
0.0536142747
 40
0.0611950254
 40
0.0690568328
 40
0.0772179734
 40
0.0856944045
 40
0.0944998522
 40
0.1036459935
 40
0.1131428211
 40
0.1229986303
 40
0.1332202822
 40
0.1438134448
 40
0.1547825085
 40
0.1661308998
 40
0.1899733285
 40
0.2153528849
 40
0.2422687961
 40
0.2707111428
 40
0.3006622203
 40
0.3320975591
 40
0.3649868908
 40
0.3992948428
 40
0.43498141
 40
0.4720024243
 40
0.5103100179
 40
0.5498529293
 40
0.590576713
 40
0.6324240653
 40
0.675335092
 40
0.7192474692
 40
0.7640965597
 40
0.8098158789
 40
0.8563369465
 40
0.9035890751
 40
1.0
 40
1.0
 40
1.0
 40
1.0
 10
13.650283258
 20
6.4806924651
 30
0.0
 10
13.6489192798
 20
6.4807870649
 30
0.0
 10
13.6461893675
 20
6.4810885191
 30
0.0
 10
13.6421251014
 20
6.4818742247
 30
0.0
 10
13.638087982
 20
6.4829933563
 30
0.0
 10
13.6340804157
 20
6.4844451706
 30
0.0
 10
13.6301039405
 20
6.4862287156
 30
0.0
 10
13.6247645816
 20
6.4890909125
 30
0.0
 10
13.6195702618
 20
6.4925947299
 30
0.0
 10
13.6145434395
 20
6.4966550392
 30
0.0
 10
13.610746538
 20
6.5000784041
 30
0.0
 10
13.6069901322
 20
6.5038252233
 30
0.0
 10
13.6032752399
 20
6.5078942421
 30
0.0
 10
13.5996033669
 20
6.5122836838
 30
0.0
 10
13.5959758081
 20
6.5169917284
 30
0.0
 10
13.5923940373
 20
6.5220165053
 30
0.0
 10
13.5888594052
 20
6.5273559475
 30
0.0
 10
13.585373273
 20
6.5330078808
 30
0.0
 10
13.5819371061
 20
6.5389700484
 30
0.0
 10
13.5785521665
 20
6.5452400067
 30
0.0
 10
13.5740346343
 20
6.554154224
 30
0.0
 10
13.5685410737
 20
6.5660656986
 30
0.0
 10
13.562279186
 20
6.5813166007
 30
0.0
 10
13.5562535175
 20
6.597727049
 30
0.0
 10
13.5504739495
 20
6.6152702834
 30
0.0
 10
13.5449499865
 20
6.6339179947
 30
0.0
 10
13.5396907417
 20
6.6536397858
 30
0.0
 10
13.5347049397
 20
6.67440345
 30
0.0
 10
13.5300008898
 20
6.6961749931
 30
0.0
 10
13.5255864205
 20
6.7189186956
 30
0.0
 10
13.5214688684
 20
6.7425971826
 30
0.0
 10
13.517655099
 20
6.7671715162
 30
0.0
 10
13.5141514871
 20
6.7926012563
 30
0.0
 10
13.5109638556
 20
6.8188445189
 30
0.0
 10
13.5080975096
 20
6.8458580614
 30
0.0
 10
13.505557237
 20
6.8735973683
 30
0.0
 10
13.5033472842
 20
6.9020167012
 30
0.0
 10
13.5014713089
 20
6.9310692128
 30
0.0
 10
13.4999324569
 20
6.9607069697
 30
0.0
 10
13.4987332847
 20
6.9908810639
 30
0.0
 10
13.497582404
 20
7.0320364222
 30
0.0
 10
13.497248559
 20
7.0631380299
 30
0.0
 10
13.497248559
 20
7.0840089309
 30
0.0
  0
SPLINE
  5
35F
100
AcDbEntity
  8
0
100
AcDbSpline
 62
7
  6
CONTINUOUS
 70
0
 71
3
 72
47
 73
43
 74
0
 42
0.0000001
 43
0.0000001
 44
0.0000000001
 40
0.0
 40
0.0
 40
0.0
 40
0.0
 40
0.0063158891
 40
0.012670693
 40
0.0191025391
 40
0.0256481111
 40
0.0323420145
 40
0.0392163779
 40
0.0536142747
 40
0.0611950254
 40
0.0690568328
 40
0.0772179734
 40
0.0856944045
 40
0.0944998522
 40
0.1036459935
 40
0.1131428211
 40
0.1229986303
 40
0.1332202822
 40
0.1438134448
 40
0.1547825085
 40
0.1661308998
 40
0.1899733285
 40
0.2153528849
 40
0.2422687961
 40
0.2707111428
 40
0.3006622203
 40
0.3320975591
 40
0.3649868908
 40
0.3992948428
 40
0.43498141
 40
0.4720024243
 40
0.5103100179
 40
0.5498529293
 40
0.590576713
 40
0.6324240653
 40
0.675335092
 40
0.7192474692
 40
0.7640965597
 40
0.8098158789
 40
0.8563369465
 40
0.9035890751
 40
1.0
 40
1.0
 40
1.0
 40
1.0
 10
12.9706249635
 20
5.8241929265
 30
0.0
 10
12.9692609853
 20
5.8242875263
 30
0.0
 10
12.966531073
 20
5.8245889805
 30
0.0
 10
12.9624668069
 20
5.8253746861
 30
0.0
 10
12.9584296875
 20
5.8264938177
 30
0.0
 10
12.9544221212
 20
5.827945632
 30
0.0
 10
12.9504456461
 20
5.829729177
 30
0.0
 10
12.9451062872
 20
5.8325913739
 30
0.0
 10
12.9399119673
 20
5.8360951913
 30
0.0
 10
12.9348851451
 20
5.8401555006
 30
0.0
 10
12.9310882435
 20
5.8435788655
 30
0.0
 10
12.9273318377
 20
5.8473256847
 30
0.0
 10
12.9236169454
 20
5.8513947035
 30
0.0
 10
12.9199450725
 20
5.8557841452
 30
0.0
 10
12.9163175137
 20
5.8604921899
 30
0.0
 10
12.9127357428
 20
5.8655169667
 30
0.0
 10
12.9092011107
 20
5.8708564089
 30
0.0
 10
12.9057149785
 20
5.8765083422
 30
0.0
 10
12.9022788116
 20
5.8824705098
 30
0.0
 10
12.898893872
 20
5.8887404681
 30
0.0
 10
12.8943763398
 20
5.8976546854
 30
0.0
 10
12.8888827792
 20
5.90956616
 30
0.0
 10
12.8826208916
 20
5.9248170621
 30
0.0
 10
12.8765952231
 20
5.9412275104
 30
0.0
 10
12.870815655
 20
5.9587707448
 30
0.0
 10
12.8652916921
 20
5.9774184561
 30
0.0
 10
12.8600324473
 20
5.9971402473
 30
0.0
 10
12.8550466453
 20
6.0179039114
 30
0.0
 10
12.8503425953
 20
6.0396754545
 30
0.0
 10
12.8459281261
 20
6.062419157
 30
0.0
 10
12.8418105739
 20
6.0860976441
 30
0.0
 10
12.8379968045
 20
6.1106719776
 30
0.0
 10
12.8344931926
 20
6.1361017177
 30
0.0
 10
12.8313055611
 20
6.1623449804
 30
0.0
 10
12.8284392151
 20
6.1893585228
 30
0.0
 10
12.8258989425
 20
6.2170978297
 30
0.0
 10
12.8236889897
 20
6.2455171626
 30
0.0
 10
12.8218130145
 20
6.2745696742
 30
0.0
 10
12.8202741624
 20
6.3042074312
 30
0.0
 10
12.8190749902
 20
6.3343815253
 30
0.0
 10
12.8179241095
 20
6.3755368836
 30
0.0
 10
12.8175902645
 20
6.4066384913
 30
0.0
 10
12.8175902645
 20
6.4275093923
 30
0.0
  0
SPLINE
  5
360
100
AcDbEntity
  8
0
100
AcDbSpline
 62
7
  6
CONTINUOUS
 70
0
 71
3
 72
23
 73
19
 74
0
 42
0.0000001
 43
0.0000001
 44
0.0000000001
 40
0.0
 40
0.0
 40
0.0
 40
0.0
 40
0.0637383848
 40
0.1272788171
 40
0.1906188402
 40
0.2537657639
 40
0.3167244642
 40
0.3795024846
 40
0.4421089401
 40
0.5045543017
 40
0.5668505287
 40
0.6290108911
 40
0.69104988
 40
0.7529830802
 40
0.8148270276
 40
0.8765990728
 40
0.9383172282
 40
1.0
 40
1.0
 40
1.0
 40
1.0
 10
8.7896614745
 20
9.4916248967
 30
0.0
 10
8.7896614745
 20
9.501479771
 30
0.0
 10
8.7901088577
 20
9.5211619129
 30
0.0
 10
8.7921277812
 20
9.5505750071
 30
0.0
 10
8.7954897645
 20
9.5797736738
 30
0.0
 10
8.8001875256
 20
9.6086962049
 30
0.0
 10
8.8062116533
 20
9.6372831819
 30
0.0
 10
8.8135496038
 20
9.6654751809
 30
0.0
 10
8.8221861957
 20
9.6932138002
 30
0.0
 10
8.8321036037
 20
9.7204415227
 30
0.0
 10
8.8432813537
 20
9.7471018636
 30
0.0
 10
8.8556962767
 20
9.7731395471
 30
0.0
 10
8.8693226454
 20
9.7985005774
 30
0.0
 10
8.884132259
 20
9.8231323596
 30
0.0
 10
8.9000944368
 20
9.84698372
 30
0.0
 10
8.9171762281
 20
9.8700053735
 30
0.0
 10
8.935341594
 20
9.8921489246
 30
0.0
 10
8.9481530021
 20
9.9062995122
 30
0.0
 10
8.954724429
 20
9.9132112132
 30
0.0
  0
SPLINE
  5
361
100
AcDbEntity
  8
0
100
AcDbSpline
 62
7
  6
CONTINUOUS
 70
0
 71
3
 72
33
 73
29
 74
0
 42
0.0000001
 43
0.0000001
 44
0.0000000001
 40
0.0
 40
0.0
 40
0.0
 40
0.0
 40
0.0958348694
 40
0.1891075393
 40
0.2792507307
 40
0.3657221938
 40
0.4480135352
 40
0.5256551542
 40
0.5625998871
 40
0.5982279088
 40
0.6324952589
 40
0.6653619968
 40
0.6967931368
 40
0.7267585922
 40
0.7552346622
 40
0.7822039745
 40
0.8076576644
 40
0.8315956119
 40
0.8540295607
 40
0.8749841658
 40
0.8945014605
 40
0.9126434539
 40
0.9294983432
 40
0.9451850262
 40
0.9598600607
 40
0.9737213157
 40
0.9870092446
 40
1.0
 40
1.0
 40
1.0
 40
1.0
 10
12.2908869308
 20
10.161715808
 30
0.0
 10
12.2963826598
 20
10.1613346779
 30
0.0
 10
12.307219261
 20
10.1604617335
 30
0.0
 10
12.3231863846
 20
10.1587954055
 30
0.0
 10
12.3385731816
 20
10.1567985065
 30
0.0
 10
12.3532770693
 20
10.1544846246
 30
0.0
 10
12.367199972
 20
10.1518694821
 30
0.0
 10
12.3782505457
 20
10.1494152066
 30
0.0
 10
12.3866237624
 20
10.1473037296
 30
0.0
 10
12.3925479308
 20
10.1456824827
 30
0.0
 10
12.3982109452
 20
10.1440001246
 30
0.0
 10
12.4036033971
 20
10.142259417
 30
0.0
 10
12.4087163424
 20
10.140463333
 30
0.0
 10
12.4135413102
 20
10.1386148206
 30
0.0
 10
12.4180703561
 20
10.1367170353
 30
0.0
 10
12.422296024
 20
10.1347730419
 30
0.0
 10
12.4262114465
 20
10.132786135
 30
0.0
 10
12.4298102473
 20
10.1307594273
 30
0.0
 10
12.4330867059
 20
10.1286962556
 30
0.0
 10
12.4360355617
 20
10.1265996548
 30
0.0
 10
12.4386522465
 20
10.1244728154
 30
0.0
 10
12.4409325151
 20
10.1223184716
 30
0.0
 10
12.4428726913
 20
10.1201393939
 30
0.0
 10
12.4444690026
 20
10.1179378281
 30
0.0
 10
12.4457177734
 20
10.1157162811
 30
0.0
 10
12.4466146295
 20
10.1134772206
 30
0.0
 10
12.4471552891
 20
10.1112254789
 30
0.0
 10
12.4472761495
 20
10.1097122764
 30
0.0
 10
12.4472761408
 20
10.1089655216
 30
0.0
  0
SPLINE
  5
362
100
AcDbEntity
  8
0
100
AcDbSpline
 62
7
  6
CONTINUOUS
 70
0
 71
3
 72
51
 73
47
 74
0
 42
0.0000001
 43
0.0000001
 44
0.0000000001
 40
0.0
 40
0.0
 40
0.0
 40
0.0
 40
0.0417745783
 40
0.0840381405
 40
0.1266602741
 40
0.1695088693
 40
0.2124510806
 40
0.2553536312
 40
0.2980834223
 40
0.3405080289
 40
0.3824962347
 40
0.423918559
 40
0.4646477904
 40
0.504559528
 40
0.5435327322
 40
0.5814502925
 40
0.6181996178
 40
0.65367326
 40
0.6877695871
 40
0.7203935248
 40
0.7514574013
 40
0.7663796097
 40
0.7808828022
 40
0.7949586364
 40
0.8085993574
 40
0.8217980667
 40
0.8345485781
 40
0.846845703
 40
0.8586851383
 40
0.8700637714
 40
0.8809796196
 40
0.8914321637
 40
0.9014223656
 40
0.9109530489
 40
0.92002903
 40
0.9286575737
 40
0.9368486818
 40
0.94461566
 40
0.9519756015
 40
0.9589500813
 40
0.9655658127
 40
0.9778459388
 40
0.983607172
 40
0.9891799146
 40
0.9946230077
 40
1.0
 40
1.0
 40
1.0
 40
1.0
 10
13.3326397204
 20
9.5813051727
 30
0.0
 10
13.3326397204
 20
9.5662498627
 30
0.0
 10
13.3324048404
 20
9.5359625424
 30
0.0
 10
13.331366483
 20
9.490325158
 30
0.0
 10
13.3296430604
 20
9.4443210914
 30
0.0
 10
13.3272402278
 20
9.3981026475
 30
0.0
 10
13.3241659219
 20
9.3518227256
 30
0.0
 10
13.3204303062
 20
9.3056344377
 30
0.0
 10
13.3160457551
 20
9.2596905941
 30
0.0
 10
13.3110268034
 20
9.2141431887
 30
0.0
 10
13.3053901031
 20
9.1691428957
 30
0.0
 10
13.2991543671
 20
9.124838566
 30
0.0
 10
13.292340309
 20
9.0813767306
 30
0.0
 10
13.2849705754
 20
9.0389011097
 30
0.0
 10
13.2770696728
 20
8.9975521293
 30
0.0
 10
13.2686638882
 20
8.9574664504
 30
0.0
 10
13.259781204
 20
8.9187764939
 30
0.0
 10
13.2504512043
 20
8.8816100224
 30
0.0
 10
13.2407049876
 20
8.8460895677
 30
0.0
 10
13.230575023
 20
8.8123324413
 30
0.0
 10
13.2217274171
 20
8.7854146596
 30
0.0
 10
13.2144669309
 20
8.7648585105
 30
0.0
 10
13.2090197119
 20
8.7501569659
 30
0.0
 10
13.203502265
 20
8.7359760587
 30
0.0
 10
13.1979190245
 20
8.7223274811
 30
0.0
 10
13.1922747203
 20
8.7092224601
 30
0.0
 10
13.1865739242
 20
8.696671799
 30
0.0
 10
13.1808214439
 20
8.6846857878
 30
0.0
 10
13.1750219313
 20
8.6732742861
 30
0.0
 10
13.1691802532
 20
8.6624466095
 30
0.0
 10
13.1633011132
 20
8.6522116329
 30
0.0
 10
13.1573894003
 20
8.6425776599
 30
0.0
 10
13.1514498317
 20
8.6335525448
 30
0.0
 10
13.1454872647
 20
8.6251435489
 30
0.0
 10
13.1395063752
 20
8.6173574833
 30
0.0
 10
13.1335119012
 20
8.6102005565
 30
0.0
 10
13.1275084221
 20
8.6036785628
 30
0.0
 10
13.1215003445
 20
8.5977966596
 30
0.0
 10
13.1154924104
 20
8.5925599065
 30
0.0
 10
13.1094873503
 20
8.5879719755
 30
0.0
 10
13.1016884302
 20
8.5828546449
 30
0.0
 10
13.0936924706
 20
8.5788526281
 30
0.0
 10
13.0855933782
 20
8.5761981584
 30
0.0
 10
13.0796718145
 20
8.5749179537
 30
0.0
 10
13.073783449
 20
8.574310262
 30
0.0
 10
13.0698740175
 20
8.574354938
 30
0.0
 10
13.0679408254
 20
8.5744890161
 30
0.0
  0
SPLINE
  5
363
100
AcDbEntity
  8
0
100
AcDbSpline
 62
7
  6
CONTINUOUS
 70
0
 71
3
 72
23
 73
19
 74
0
 42
0.0000001
 43
0.0000001
 44
0.0000000001
 40
0.0
 40
0.0
 40
0.0
 40
0.0
 40
0.0637647102
 40
0.1273228969
 40
0.19067484
 40
0.2538269357
 40
0.3167849538
 40
0.3795573983
 40
0.4421542229
 40
0.5045870939
 40
0.5668692287
 40
0.6290152813
 40
0.6910412178
 40
0.7529641654
 40
0.8148022534
 40
0.8765744409
 40
0.9383003352
 40
1.0
 40
1.0
 40
1.0
 40
1.0
 10
8.2835389452
 20
9.2042480455
 30
0.0
 10
8.2835389452
 20
9.2175086359
 30
0.0
 10
8.2841623622
 20
9.2439912029
 30
0.0
 10
8.2869762017
 20
9.2835585277
 30
0.0
 10
8.2916613566
 20
9.3228208836
 30
0.0
 10
8.2982071781
 20
9.3616895479
 30
0.0
 10
8.3065994189
 20
9.4000786306
 30
0.0
 10
8.3168193944
 20
9.4379025764
 30
0.0
 10
8.3288445167
 20
9.4750772999
 30
0.0
 10
8.3426480955
 20
9.5115200903
 30
0.0
 10
8.3581994885
 20
9.5471498738
 30
0.0
 10
8.3754641644
 20
9.5818873728
 30
0.0
 10
8.3944037684
 20
9.6156552798
 30
0.0
 10
8.4149762353
 20
9.6483784582
 30
0.0
 10
8.4371357795
 20
9.6799840022
 30
0.0
 10
8.4608333708
 20
9.7104018089
 30
0.0
 10
8.4860153761
 20
9.7395632706
 30
0.0
 10
8.5037597282
 20
9.758127598
 30
0.0
 10
8.5128570976
 20
9.7671761365
 30
0.0
  0
SPLINE
  5
364
100
AcDbEntity
  8
0
100
AcDbSpline
 62
7
  6
CONTINUOUS
 70
0
 71
3
 72
11
 73
7
 74
0
 42
0.0000001
 43
0.0000001
 44
0.0000000001
 40
0.0
 40
0.0
 40
0.0
 40
0.0
 40
0.251356133
 40
0.5017993752
 40
0.7513367271
 40
1.0
 40
1.0
 40
1.0
 40
1.0
 10
9.1011499382
 20
9.7924996662
 30
0.0
 10
9.1011499382
 20
9.8039373386
 30
0.0
 10
9.1017524156
 20
9.8267758022
 30
0.0
 10
9.1044726436
 20
9.8608718967
 30
0.0
 10
9.1090002164
 20
9.8946518458
 30
0.0
 10
9.1132228728
 20
9.9169384841
 30
0.0
 10
9.115631275
 20
9.9279943387
 30
0.0
  0
SPLINE
  5
365
100
AcDbEntity
  8
0
100
AcDbSpline
 62
7
  6
CONTINUOUS
 70
0
 71
3
 72
71
 73
67
 74
0
 42
0.0000001
 43
0.0000001
 44
0.0000000001
 40
0.0
 40
0.0
 40
0.0
 40
0.0
 40
0.0155842565
 40
0.0311159319
 40
0.0465952524
 40
0.0620238826
 40
0.0774034482
 40
0.0927362827
 40
0.1080251231
 40
0.1232731738
 40
0.1384840558
 40
0.1536617763
 40
0.1688106896
 40
0.1839354527
 40
0.199040978
 40
0.2141323822
 40
0.2292149324
 40
0.2442939901
 40
0.2593749544
 40
0.2744632041
 40
0.2895640403
 40
0.3046826298
 40
0.3198239504
 40
0.3349927394
 40
0.3501934439
 40
0.3654301774
 40
0.3807066784
 40
0.3960262752
 40
0.411391855
 40
0.4268058382
 40
0.4422701586
 40
0.4577862484
 40
0.4733550295
 40
0.4889769098
 40
0.5046517845
 40
0.5203790422
 40
0.5361575755
 40
0.5519857963
 40
0.5678616545
 40
0.5837826618
 40
0.5997459181
 40
0.6157481413
 40
0.6317856992
 40
0.6478546441
 40
0.6639507502
 40
0.6800695513
 40
0.6962063821
 40
0.7123564199
 40
0.7285147268
 40
0.7446762929
 40
0.76083608
 40
0.776989065
 40
0.7931302839
 40
0.8092548753
 40
0.8253581235
 40
0.8414355003
 40
0.8574827053
 40
0.8734957053
 40
0.889470771
 40
0.9054045131
 40
0.921293919
 40
0.9371363621
 40
0.9529297157
 40
0.968672092
 40
0.9843626215
 40
1.0
 40
1.0
 40
1.0
 40
1.0
 10
8.3863199017
 20
9.2196065214
 30
0.0
 10
8.3863199017
 20
9.2320868622
 30
0.0
 10
8.3869306657
 20
9.2570098609
 30
0.0
 10
8.3896876963
 20
9.2942373534
 30
0.0
 10
8.3942777671
 20
9.3311590258
 30
0.0
 10
8.4006896306
 20
9.367684499
 30
0.0
 10
8.4089081264
 20
9.4037262474
 30
0.0
 10
8.4189134349
 20
9.4391972253
 30
0.0
 10
8.4306815772
 20
9.4740119594
 30
0.0
 10
8.4441842602
 20
9.5080864829
 30
0.0
 10
8.4593890017
 20
9.5413386234
 30
0.0
 10
8.4762592013
 20
9.5736881797
 30
0.0
 10
8.4947542352
 20
9.6050571194
 30
0.0
 10
8.5148295515
 20
9.6353697681
 30
0.0
 10
8.5364367771
 20
9.6645529938
 30
0.0
 10
8.5595238328
 20
9.6925363859
 30
0.0
 10
8.5840350612
 20
9.719252425
 30
0.0
 10
8.609911345
 20
9.7446366653
 30
0.0
 10
8.637090264
 20
9.768627883
 30
0.0
 10
8.6655062526
 20
9.7911682216
 30
0.0
 10
8.6950907583
 20
9.8122033329
 30
0.0
 10
8.7257724096
 20
9.8316825084
 30
0.0
 10
8.7574771896
 20
9.8495588027
 30
0.0
 10
8.790128618
 20
9.8657891429
 30
0.0
 10
8.8236479286
 20
9.880334451
 30
0.0
 10
8.8579542688
 20
9.8931597304
 30
0.0
 10
8.8929649014
 20
9.9042341377
 30
0.0
 10
8.9285954039
 20
9.9135310583
 30
0.0
 10
8.9647598734
 20
9.9210281664
 30
0.0
 10
9.0013711339
 20
9.9267074782
 30
0.0
 10
9.0383409462
 20
9.9305553887
 30
0.0
 10
9.0755802185
 20
9.9325627206
 30
0.0
 10
9.1129992248
 20
9.9327247408
 30
0.0
 10
9.1505078214
 20
9.9310411554
 30
0.0
 10
9.1880156631
 20
9.9275161111
 30
0.0
 10
9.2254324187
 20
9.9221581827
 30
0.0
 10
9.2626679869
 20
9.914980352
 30
0.0
 10
9.2996327106
 20
9.9059999722
 30
0.0
 10
9.336237594
 20
9.8952387391
 30
0.0
 10
9.3723945193
 20
9.882722641
 30
0.0
 10
9.408016453
 20
9.868481877
 30
0.0
 10
9.4430176548
 20
9.8525507886
 30
0.0
 10
9.4773138811
 20
9.8349677749
 30
0.0
 10
9.5108225869
 20
9.8157752023
 30
0.0
 10
9.5434631202
 20
9.7950193001
 30
0.0
 10
9.5751569211
 20
9.7727500589
 30
0.0
 10
9.6058277164
 20
9.7490211169
 30
0.0
 10
9.6354016915
 20
9.7238896136
 30
0.0
 10
9.6638076685
 20
9.697416056
 30
0.0
 10
9.6909772757
 20
9.6696641735
 30
0.0
 10
9.7168451108
 20
9.6407007661
 30
0.0
 10
9.7413488963
 20
9.6105955437
 30
0.0
 10
9.7644296331
 20
9.5794209637
 30
0.0
 10
9.7860317552
 20
9.5472520648
 30
0.0
 10
9.8061032457
 20
9.5141662731
 30
0.0
 10
9.8245957637
 20
9.4802432187
 30
0.0
 10
9.841464759
 20
9.4455645459
 30
0.0
 10
9.8566695792
 20
9.4102137181
 30
0.0
 10
9.8701735657
 20
9.3742758199
 30
0.0
 10
9.8819441507
 20
9.33783735
 30
0.0
 10
9.8919529294
 20
9.3009860389
 30
0.0
 10
9.9001757878
 20
9.263810552
 30
0.0
 10
9.9065927541
 20
9.226400559
 30
0.0
 10
9.9111884942
 20
9.1888456183
 30
0.0
 10
9.9139515834
 20
9.1512375914
 30
0.0
 10
9.9145685983
 20
9.1261449968
 30
0.0
 10
9.9145685983
 20
9.1136221143
 30
0.0
  0
SPLINE
  5
366
100
AcDbEntity
  8
0
100
AcDbSpline
 62
7
  6
CONTINUOUS
 70
0
 71
3
 72
44
 73
40
 74
0
 42
0.0000001
 43
0.0000001
 44
0.0000000001
 40
0.0
 40
0.0
 40
0.0
 40
0.0
 40
0.0310744349
 40
0.0623061033
 40
0.0936903779
 40
0.1252186236
 40
0.1568794503
 40
0.1886586803
 40
0.2205397066
 40
0.2525038554
 40
0.2845307769
 40
0.3165988658
 40
0.3486856972
 40
0.3807684736
 40
0.4128244778
 40
0.4448315246
 40
0.4767684059
 40
0.5086153213
 40
0.5403542862
 40
0.5719695169
 40
0.6034477806
 40
0.6347786986
 40
0.6659550044
 40
0.696972748
 40
0.7278314278
 40
0.7585340529
 40
0.7890871347
 40
0.8195005891
 40
0.8497875544
 40
0.8648914079
 40
0.8799699038
 40
0.8950254603
 40
0.9100606302
 40
0.9250780906
 40
0.9400806268
 40
0.9550711117
 40
0.9700524936
 40
0.9850277766
 40
1.0
 40
1.0
 40
1.0
 40
1.0
 10
8.4007635981
 20
9.2244783719
 30
0.0
 10
8.4007635981
 20
9.2057590501
 30
0.0
 10
8.4021600274
 20
9.1682112843
 30
0.0
 10
8.4083947211
 20
9.1120693989
 30
0.0
 10
8.4187396222
 20
9.0562571701
 30
0.0
 10
8.4331375766
 20
9.0010850529
 30
0.0
 10
8.451508879
 20
8.9468549578
 30
0.0
 10
8.4737521704
 20
8.8938648034
 30
0.0
 10
8.4997449959
 20
8.8424053253
 30
0.0
 10
8.529344391
 20
8.7927589351
 30
0.0
 10
8.5623875877
 20
8.7451979977
 30
0.0
 10
8.5986930751
 20
8.6999834869
 30
0.0
 10
8.6380615502
 20
8.657363569
 30
0.0
 10
8.6802768553
 20
8.6175721204
 30
0.0
 10
8.7251073003
 20
8.580827569
 30
0.0
 10
8.7723069348
 20
8.5473317597
 30
0.0
 10
8.8216167681
 20
8.5172687153
 30
0.0
 10
8.8727662204
 20
8.4908036608
 30
0.0
 10
8.9254746515
 20
8.4680822438
 30
0.0
 10
8.9794528175
 20
8.4492296568
 30
0.0
 10
9.0344044105
 20
8.4343498276
 30
0.0
 10
9.090027734
 20
8.4235250306
 30
0.0
 10
9.1460173077
 20
8.4168154187
 30
0.0
 10
9.2020654792
 20
8.4142584554
 30
0.0
 10
9.2578642008
 20
8.4158688837
 30
0.0
 10
9.3131064438
 20
8.4216385715
 30
0.0
 10
9.3674887645
 20
8.431536739
 30
0.0
 10
9.4207097203
 20
8.4455086374
 30
0.0
 10
9.4638965058
 20
8.4605004973
 30
0.0
 10
9.4975580411
 20
8.4744422964
 30
0.0
 10
9.5223149647
 20
8.4858499029
 30
0.0
 10
9.5465679378
 20
8.4982013147
 30
0.0
 10
9.5702840353
 20
8.5114798043
 30
0.0
 10
9.593430532
 20
8.5256669674
 30
0.0
 10
9.6159756124
 20
8.5407433234
 30
0.0
 10
9.637888149
 20
8.5566881833
 30
0.0
 10
9.6591381667
 20
8.5734796122
 30
0.0
 10
9.6796959899
 20
8.5910941551
 30
0.0
 10
9.6929222942
 20
8.6033711978
 30
0.0
 10
9.6994094748
 20
8.609637328
 30
0.0
  0
SPLINE
  5
367
100
AcDbEntity
  8
0
100
AcDbSpline
 62
7
  6
CONTINUOUS
 70
0
 71
3
 72
27
 73
23
 74
0
 42
0.0000001
 43
0.0000001
 44
0.0000000001
 40
0.0
 40
0.0
 40
0.0
 40
0.0
 40
0.1079734983
 40
0.2112445727
 40
0.3086897737
 40
0.3995198081
 40
0.4832942776
 40
0.5598683609
 40
0.6293232523
 40
0.6918971578
 40
0.7479321613
 40
0.7978397099
 40
0.8420855464
 40
0.8622518891
 40
0.8812044873
 40
0.8990203161
 40
0.915783536
 40
0.9315848385
 40
0.9465244936
 40
0.9742422259
 40
0.987300717
 40
1.0
 40
1.0
 40
1.0
 40
1.0
 10
9.3599112392
 20
8.6135898636
 30
0.0
 10
9.363144066
 20
8.6133656663
 30
0.0
 10
9.3694649516
 20
8.6128667037
 30
0.0
 10
9.3786844574
 20
8.6119461622
 30
0.0
 10
9.3873702775
 20
8.6108804239
 30
0.0
 10
9.3954480835
 20
8.6096840004
 30
0.0
 10
9.4028725824
 20
8.6083710542
 30
0.0
 10
9.4096239044
 20
8.6069542511
 30
0.0
 10
9.4157015289
 20
8.6054442592
 30
0.0
 10
9.4211179854
 20
8.6038496026
 30
0.0
 10
9.4258937622
 20
8.6021767289
 30
0.0
 10
9.4300526003
 20
8.6004303133
 30
0.0
 10
9.4331139053
 20
8.5988712528
 30
0.0
 10
9.4352593814
 20
8.5975822623
 30
0.0
 10
9.436678411
 20
8.5966288209
 30
0.0
 10
9.4379602704
 20
8.5956586795
 30
0.0
 10
9.4391074384
 20
8.5946720407
 30
0.0
 10
9.440122258
 20
8.5936685322
 30
0.0
 10
9.4412723194
 20
8.5923421802
 30
0.0
 10
9.4422097476
 20
8.5909437645
 30
0.0
 10
9.4428928649
 20
8.5894889069
 30
0.0
 10
9.4431473727
 20
8.5887570562
 30
0.0
 10
9.4432527329
 20
8.5883907665
 30
0.0
  0
SPLINE
  5
368
100
AcDbEntity
  8
0
100
AcDbSpline
 62
7
  6
CONTINUOUS
 70
0
 71
3
 72
47
 73
43
 74
0
 42
0.0000001
 43
0.0000001
 44
0.0000000001
 40
0.0
 40
0.0
 40
0.0
 40
0.0
 40
0.0149719699
 40
0.0299469986
 40
0.0449281275
 40
0.0599183593
 40
0.0749206409
 40
0.0899378479
 40
0.1049727642
 40
0.1200280654
 40
0.1351063071
 40
0.1502099062
 40
0.1653411266
 40
0.1805020712
 40
0.195694667
 40
0.2109206532
 40
0.226181577
 40
0.2414787841
 40
0.2721808909
 40
0.30303905
 40
0.3340562704
 40
0.3652320501
 40
0.3965624391
 40
0.4280401707
 40
0.4596548674
 40
0.4913932962
 40
0.5232396724
 40
0.5551760134
 40
0.5871825188
 40
0.61923798
 40
0.6513202127
 40
0.6834065006
 40
0.7154740464
 40
0.7475004247
 40
0.7794640313
 40
0.8113445177
 40
0.8431232087
 40
0.8747834982
 40
0.9063112124
 40
0.9376949433
 40
0.9689261019
 40
1.0
 40
1.0
 40
1.0
 40
1.0
 10
9.7286031336
 20
8.5085356779
 30
0.0
 10
9.7213444617
 20
8.5015243498
 30
0.0
 10
9.7065451427
 20
8.487787338
 30
0.0
 10
9.6835424771
 20
8.4680779864
 30
0.0
 10
9.6597652932
 20
8.4492896368
 30
0.0
 10
9.6352467308
 20
8.4314486322
 30
0.0
 10
9.6100204748
 20
8.4145793208
 30
0.0
 10
9.5841212632
 20
8.3987049525
 30
0.0
 10
9.5575846922
 20
8.3838474262
 30
0.0
 10
9.5304473377
 20
8.3700270893
 30
0.0
 10
9.5027465383
 20
8.3572629495
 30
0.0
 10
9.4745203816
 20
8.3455726365
 30
0.0
 10
9.4458077474
 20
8.3349721284
 30
0.0
 10
9.4166481523
 20
8.3254759882
 30
0.0
 10
9.3870816522
 20
8.3170973482
 30
0.0
 10
9.3571491058
 20
8.3098476344
 30
0.0
 10
9.3268911274
 20
8.3037367552
 30
0.0
 10
9.2861250318
 20
8.2971112565
 30
0.0
 10
9.2345455036
 20
8.2917237029
 30
0.0
 10
9.1721124031
 20
8.2899221274
 30
0.0
 10
9.1093982888
 20
8.2927831577
 30
0.0
 10
9.0467502597
 20
8.3002907969
 30
0.0
 10
8.9845119036
 20
8.3124029875
 30
0.0
 10
8.9230251966
 20
8.3290524323
 30
0.0
 10
8.8626276867
 20
8.3501471327
 30
0.0
 10
8.8036509225
 20
8.3755707554
 30
0.0
 10
8.7464185114
 20
8.4051831689
 30
0.0
 10
8.691244529
 20
8.4388215202
 30
0.0
 10
8.6384317146
 20
8.4763008835
 30
0.0
 10
8.5882697857
 20
8.5174152653
 30
0.0
 10
8.5410340506
 20
8.5619389544
 30
0.0
 10
8.4969837345
 20
8.6096275056
 30
0.0
 10
8.4563605829
 20
8.6602191337
 30
0.0
 10
8.4193877446
 20
8.7134362822
 30
0.0
 10
8.3862682995
 20
8.7689869111
 30
0.0
 10
8.357184246
 20
8.8265661992
 30
0.0
 10
8.3322956824
 20
8.8858582225
 30
0.0
 10
8.3117396145
 20
8.9465376545
 30
0.0
 10
8.2956293727
 20
9.0082711134
 30
0.0
 10
8.2840541955
 20
9.070720826
 30
0.0
 10
8.2770780673
 20
9.1335393939
 30
0.0
 10
8.2755155615
 20
9.1755525385
 30
0.0
 10
8.2755155615
 20
9.1964980514
 30
0.0
  0
SPLINE
  5
369
100
AcDbEntity
  8
0
100
AcDbSpline
 62
7
  6
CONTINUOUS
 70
0
 71
3
 72
37
 73
33
 74
0
 42
0.0000001
 43
0.0000001
 44
0.0000000001
 40
0.0
 40
0.0
 40
0.0
 40
0.0
 40
0.0152620965
 40
0.0299463963
 40
0.0444446276
 40
0.0591286315
 40
0.0743261385
 40
0.0903060604
 40
0.107279022
 40
0.125403573
 40
0.1447964312
 40
0.165543891
 40
0.1877085705
 40
0.2113385094
 40
0.2364702603
 40
0.2631339854
 40
0.2913555182
 40
0.3211578073
 40
0.3525626523
 40
0.3855899797
 40
0.4202584759
 40
0.4565833873
 40
0.4945751052
 40
0.5342350932
 40
0.5755504954
 40
0.6184875501
 40
0.7089203065
 40
0.8044026137
 40
0.8533769415
 40
0.9026442599
 40
0.9517027359
 40
1.0
 40
1.0
 40
1.0
 40
1.0
 10
9.1884916871
 20
8.5697774963
 30
0.0
 10
9.1882231332
 20
8.5707119834
 30
0.0
 10
9.1878397534
 20
8.5725915984
 30
0.0
 10
9.1877594088
 20
8.5754358709
 30
0.0
 10
9.1881721474
 20
8.5782142128
 30
0.0
 10
9.1890579372
 20
8.5809124458
 30
0.0
 10
9.1903955276
 20
8.5835219924
 30
0.0
 10
9.192165238
 20
8.5860381394
 30
0.0
 10
9.1943502878
 20
8.5884586476
 30
0.0
 10
9.1969367051
 20
8.5907822036
 30
0.0
 10
9.1999126845
 20
8.5930078471
 30
0.0
 10
9.20326823
 20
8.5951344764
 30
0.0
 10
9.2069947157
 20
8.5971611642
 30
0.0
 10
9.2110848288
 20
8.5990868351
 30
0.0
 10
9.2155324275
 20
8.6009105605
 30
0.0
 10
9.2203324941
 20
8.6026313776
 30
0.0
 10
9.2254810864
 20
8.6042482653
 30
0.0
 10
9.2309752083
 20
8.6057602239
 30
0.0
 10
9.2368127165
 20
8.6071659682
 30
0.0
 10
9.242992104
 20
8.6084641436
 30
0.0
 10
9.2495122286
 20
8.6096530052
 30
0.0
 10
9.256371938
 20
8.6107304814
 30
0.0
 10
9.2635694693
 20
8.6116940839
 30
0.0
 10
9.271101658
 20
8.6125407469
 30
0.0
 10
9.2789628444
 20
8.6132669156
 30
0.0
 10
9.290062209
 20
8.6140828067
 30
0.0
 10
9.3046292824
 20
8.6147574772
 30
0.0
 10
9.3195948958
 20
8.6149578911
 30
0.0
 10
9.3319363288
 20
8.6148287578
 30
0.0
 10
9.3413175631
 20
8.614578608
 30
0.0
 10
9.35065027
 20
8.61417577
 30
0.0
 10
9.3568417127
 20
8.6138027359
 30
0.0
 10
9.3599112392
 20
8.6135898636
 30
0.0
  0
SPLINE
  5
36A
100
AcDbEntity
  8
0
100
AcDbSpline
 62
7
  6
CONTINUOUS
 70
0
 71
3
 72
39
 73
35
 74
0
 42
0.0000001
 43
0.0000001
 44
0.0000000001
 40
0.0
 40
0.0
 40
0.0
 40
0.0
 40
0.0310262934
 40
0.0622042826
 40
0.093529886
 40
0.1249952554
 40
0.1565901457
 40
0.1883017294
 40
0.2201149489
 40
0.2520128199
 40
0.2839767646
 40
0.3159869704
 40
0.3480227641
 40
0.3800629989
 40
0.4120864454
 40
0.4440721852
 40
0.4759999998
 40
0.5078507514
 40
0.539606747
 40
0.5712520844
 40
0.6027729741
 40
0.6341580282
 40
0.6653985103
 40
0.6964885434
 40
0.7274252693
 40
0.7582089521
 40
0.7888430164
 40
0.8193340226
 40
0.8496915737
 40
0.8799281515
 40
0.910058879
 40
0.9401012165
 40
0.9700745959
 40
1.0
 40
1.0
 40
1.0
 40
1.0
 10
8.6695640167
 20
9.4371196537
 30
0.0
 10
8.6695640167
 20
9.4201332562
 30
0.0
 10
8.6707872139
 20
9.3860652111
 30
0.0
 10
8.6762503507
 20
9.3351107597
 30
0.0
 10
8.685317583
 20
9.2844264443
 30
0.0
 10
8.6979422062
 20
9.2342750981
 30
0.0
 10
8.7140590965
 20
9.1849126323
 30
0.0
 10
8.7335853897
 20
9.1365919005
 30
0.0
 10
8.7564207879
 20
9.0895600808
 30
0.0
 10
8.7824481605
 20
9.0440578205
 30
0.0
 10
8.8115341297
 20
9.0003179214
 30
0.0
 10
8.8435297116
 20
8.9585641731
 30
0.0
 10
8.8782710472
 20
8.9190101808
 30
0.0
 10
8.9155803078
 20
8.8818583388
 30
0.0
 10
8.9552665796
 20
8.8472987995
 30
0.0
 10
8.9971268282
 20
8.815508517
 30
0.0
 10
9.0409468696
 20
8.7866502693
 30
0.0
 10
9.0865025205
 20
8.7608719055
 30
0.0
 10
9.1335607232
 20
8.7383055928
 30
0.0
 10
9.1818807244
 20
8.7190671615
 30
0.0
 10
9.2312152544
 20
8.7032554253
 30
0.0
 10
9.2813118037
 20
8.6909517098
 30
0.0
 10
9.3319139065
 20
8.6822194688
 30
0.0
 10
9.3827624282
 20
8.6771039531
 30
0.0
 10
9.4335968662
 20
8.6756319161
 30
0.0
 10
9.4841566802
 20
8.6778114173
 30
0.0
 10
9.5341826193
 20
8.6836318468
 30
0.0
 10
9.5834180439
 20
8.6930639411
 30
0.0
 10
9.63161021
 20
8.7060598845
 30
0.0
 10
9.6785116966
 20
8.7225534993
 30
0.0
 10
9.7238813282
 20
8.7424603826
 30
0.0
 10
9.7674867123
 20
8.7656793387
 30
0.0
 10
9.8091006785
 20
8.7920890537
 30
0.0
 10
9.8353950098
 20
8.8117492039
 30
0.0
 10
9.8481305159
 20
8.822056085
 30
0.0
  0
SPLINE
  5
36B
100
AcDbEntity
  8
0
100
AcDbSpline
 62
7
  6
CONTINUOUS
 70
0
 71
3
 72
39
 73
35
 74
0
 42
0.0000001
 43
0.0000001
 44
0.0000000001
 40
0.0
 40
0.0
 40
0.0
 40
0.0
 40
0.031045078
 40
0.0622439285
 40
0.0935922995
 40
0.1250820221
 40
0.1567024445
 40
0.188440236
 40
0.2202797654
 40
0.2522034216
 40
0.2841919683
 40
0.3162249248
 40
0.3482809619
 40
0.3803383118
 40
0.4123751818
 40
0.4443701685
 40
0.4763026674
 40
0.5081532726
 40
0.5399041581
 40
0.5715394368
 40
0.6030454931
 40
0.6344112801
 40
0.6656285733
 40
0.6966921756
 40
0.7276000688
 40
0.7583535058
 40
0.7889570317
 40
0.819418434
 40
0.8497486182
 40
0.8799614094
 40
0.9100732777
 40
0.940102991
 40
0.9700712052
 40
1.0
 40
1.0
 40
1.0
 40
1.0
 10
8.6907772154
 20
9.4426100314
 30
0.0
 10
8.6907772154
 20
9.4257459454
 30
0.0
 10
8.6920080431
 20
9.3919218081
 30
0.0
 10
8.6975045724
 20
9.3413378675
 30
0.0
 10
8.7066262646
 20
9.2910328155
 30
0.0
 10
8.719324861
 20
9.2412745724
 30
0.0
 10
8.7355330736
 20
9.1923239032
 30
0.0
 10
8.7551653279
 20
9.1444383305
 30
0.0
 10
8.7781180511
 20
9.0978694227
 30
0.0
 10
8.8042703288
 20
9.0528618955
 30
0.0
 10
8.8334845142
 20
9.0096522345
 30
0.0
 10
8.8656069416
 20
8.9684675008
 30
0.0
 10
8.9004686625
 20
8.9295240867
 30
0.0
 10
8.9378864094
 20
8.8930266484
 30
0.0
 10
8.9776635374
 20
8.8591670384
 30
0.0
 10
9.0195910538
 20
8.8281233249
 30
0.0
 10
9.0634486514
 20
8.8000587975
 30
0.0
 10
9.1090058821
 20
8.7751211337
 30
0.0
 10
9.1560233765
 20
8.7534416683
 30
0.0
 10
9.2042540761
 20
8.7351347043
 30
0.0
 10
9.2534445026
 20
8.720296895
 30
0.0
 10
9.303336056
 20
8.709006659
 30
0.0
 10
9.3536663904
 20
8.7013238528
 30
0.0
 10
9.4041707624
 20
8.6972894301
 30
0.0
 10
9.4545834028
 20
8.6969252278
 30
0.0
 10
9.5046388981
 20
8.7002337318
 30
0.0
 10
9.5540735894
 20
8.7071980881
 30
0.0
 10
9.6026269562
 20
8.7177822018
 30
0.0
 10
9.6500429584
 20
8.7319308721
 30
0.0
 10
9.6960714935
 20
8.7495700952
 30
0.0
 10
9.7404694218
 20
8.7706070782
 30
0.0
 10
9.7830031207
 20
8.7949318902
 30
0.0
 10
9.823445008
 20
8.8224139462
 30
0.0
 10
9.8488868451
 20
8.8427580329
 30
0.0
 10
9.8611798125
 20
8.8533973927
 30
0.0
  0
SPLINE
  5
36C
100
AcDbEntity
  8
0
100
AcDbSpline
 62
7
  6
CONTINUOUS
 70
0
 71
3
 72
39
 73
35
 74
0
 42
0.0000001
 43
0.0000001
 44
0.0000000001
 40
0.0
 40
0.0
 40
0.0
 40
0.0
 40
0.0310001463
 40
0.0621491444
 40
0.093443163
 40
0.124874741
 40
0.1564341983
 40
0.1881093664
 40
0.2198859538
 40
0.2517478108
 40
0.2836772405
 40
0.3156553282
 40
0.3476622869
 40
0.3796778132
 40
0.4116814511
 40
0.4436529567
 40
0.475572661
 40
0.5074218237
 40
0.5391829771
 40
0.5708402532
 40
0.6023796891
 40
0.6337895039
 40
0.6650603449
 40
0.6961854952
 40
0.7271610398
 40
0.7579859818
 40
0.7886623034
 40
0.8191949693
 40
0.8495918691
 40
0.8798636949
 40
0.9100237556
 40
0.9400877256
 40
0.9700733338
 40
1.0
 40
1.0
 40
1.0
 40
1.0
 10
8.7327108452
 20
9.4831148098
 30
0.0
 10
8.7327108452
 20
9.4667814488
 30
0.0
 10
8.7338652746
 20
9.4340249901
 30
0.0
 10
8.7390221742
 20
9.3850248363
 30
0.0
 10
8.747582347
 20
9.3362705789
 30
0.0
 10
8.7595033239
 20
9.2880058504
 30
0.0
 10
8.774725801
 20
9.2404679831
 30
0.0
 10
8.7931744095
 20
9.1938916431
 30
0.0
 10
8.8147578416
 20
9.1485064451
 30
0.0
 10
8.8393693912
 20
9.1045361713
 30
0.0
 10
8.8668874877
 20
9.0621975981
 30
0.0
 10
8.8971762887
 20
9.0216994657
 30
0.0
 10
8.9300863494
 20
8.9832414581
 30
0.0
 10
8.9654553374
 20
8.9470132216
 30
0.0
 10
9.0031088068
 20
8.9131934111
 30
0.0
 10
9.0428610912
 20
8.8819488523
 30
0.0
 10
9.084516202
 20
8.8534337232
 30
0.0
 10
9.1278687833
 20
8.8277888007
 30
0.0
 10
9.1727051132
 20
8.805140777
 30
0.0
 10
9.2188041206
 20
8.785601586
 30
0.0
 10
9.2659384877
 20
8.7692678885
 30
0.0
 10
9.3138757578
 20
8.7562206035
 30
0.0
 10
9.3623794624
 20
8.7465245011
 30
0.0
 10
9.4112102722
 20
8.7402278835
 30
0.0
 10
9.4601271567
 20
8.7373622969
 30
0.0
 10
9.508888569
 20
8.7379423565
 30
0.0
 10
9.5572536293
 20
8.7419656954
 30
0.0
 10
9.6049833095
 20
8.749412949
 30
0.0
 10
9.6518415856
 20
8.7602478119
 30
0.0
 10
9.6975966961
 20
8.7744172475
 30
0.0
 10
9.7420219861
 20
8.7918514336
 30
0.0
 10
9.7848982581
 20
8.812465051
 30
0.0
 10
9.8260103247
 20
8.836154302
 30
0.0
 10
9.8521331399
 20
8.8539381491
 30
0.0
 10
9.8648242888
 20
8.8632953482
 30
0.0
  0
SPLINE
  5
36D
100
AcDbEntity
  8
0
100
AcDbSpline
 62
7
  6
CONTINUOUS
 70
0
 71
3
 72
23
 73
19
 74
0
 42
0.0000001
 43
0.0000001
 44
0.0000000001
 40
0.0
 40
0.0
 40
0.0
 40
0.0
 40
0.0637774724
 40
0.127344696
 40
0.1907020124
 40
0.2538561402
 40
0.3168131804
 40
0.3795820984
 40
0.4421733882
 40
0.5045993399
 40
0.5668738668
 40
0.6290123797
 40
0.6910316501
 40
0.7529496455
 40
0.8147853558
 40
0.8765586055
 40
0.9382898564
 40
1.0
 40
1.0
 40
1.0
 40
1.0
 10
8.4007635981
 20
9.2244783719
 30
0.0
 10
8.4007635981
 20
9.2365437288
 30
0.0
 10
8.4013410673
 20
9.2606387576
 30
0.0
 10
8.4039476229
 20
9.2966347809
 30
0.0
 10
8.4082874539
 20
9.3323453886
 30
0.0
 10
8.4143503373
 20
9.3676869353
 30
0.0
 10
8.4221225962
 20
9.4025784695
 30
0.0
 10
8.4315862948
 20
9.4369393877
 30
0.0
 10
8.4427197531
 20
9.4706905087
 30
0.0
 10
8.4554973571
 20
9.5037539921
 30
0.0
 10
8.4698897052
 20
9.536053591
 30
0.0
 10
8.485863671
 20
9.5675148078
 30
0.0
 10
8.5033824686
 20
9.5980650641
 30
0.0
 10
8.5224057646
 20
9.6276338953
 30
0.0
 10
8.5428896715
 20
9.6561530126
 30
0.0
 10
8.5647872064
 20
9.6835568432
 30
0.0
 10
8.5880469969
 20
9.7097813213
 30
0.0
 10
8.6044290335
 20
9.7264408044
 30
0.0
 10
8.6128258033
 20
9.7345514545
 30
0.0
  0
SPLINE
  5
36E
100
AcDbEntity
  8
0
100
AcDbSpline
 62
7
  6
CONTINUOUS
 70
0
 71
3
 72
41
 73
37
 74
0
 42
0.0000001
 43
0.0000001
 44
0.0000000001
 40
0.0
 40
0.0
 40
0.0
 40
0.0
 40
0.0310519883
 40
0.0622585585
 40
0.0936153982
 40
0.1251141998
 40
0.1567441567
 40
0.1884917358
 40
0.2203410786
 40
0.2522743249
 40
0.2842719777
 40
0.3163132923
 40
0.3483766816
 40
0.3804401339
 40
0.4124816369
 40
0.4444796002
 40
0.4764132723
 40
0.5082631476
 40
0.5400113558
 40
0.5716420265
 40
0.6031416241
 40
0.6344992466
 40
0.6657068837
 40
0.6967596204
 40
0.7276557849
 40
0.7583970318
 40
0.7889883575
 40
0.8194380429
 40
0.8497575155
 40
0.8799611337
 40
0.9100658968
 40
0.9400910818
 40
0.9550832179
 40
0.9700635069
 40
0.9850348004
 40
1.0
 40
1.0
 40
1.0
 40
1.0
 10
8.7896614745
 20
9.4916248967
 30
0.0
 10
8.7896614745
 20
9.4757677404
 30
0.0
 10
8.7908248655
 20
9.4439626765
 30
0.0
 10
8.7960199936
 20
9.396400382
 30
0.0
 10
8.8046411373
 20
9.3491043131
 30
0.0
 10
8.8166422161
 20
9.3023289857
 30
0.0
 10
8.831958952
 20
9.2563220789
 30
0.0
 10
8.850509665
 20
9.2113281512
 30
0.0
 10
8.872195466
 20
9.1675860398
 30
0.0
 10
8.8969009204
 20
9.1253279934
 30
0.0
 10
8.924494632
 20
9.0847783523
 30
0.0
 10
8.9548299482
 20
9.046152411
 30
0.0
 10
8.9877456983
 20
9.0096552591
 30
0.0
 10
9.0230670291
 20
8.9754806827
 30
0.0
 10
9.0606063767
 20
8.943810189
 30
0.0
 10
9.1001644371
 20
8.9148120446
 30
0.0
 10
9.1415312194
 20
8.8886404047
 30
0.0
 10
9.1844871124
 20
8.8654344511
 30
0.0
 10
9.2288040506
 20
8.8453176581
 30
0.0
 10
9.274246732
 20
8.8283971839
 30
0.0
 10
9.3205738401
 20
8.8147632887
 30
0.0
 10
9.3675393077
 20
8.8044888672
 30
0.0
 10
9.4148935881
 20
8.7976289773
 30
0.0
 10
9.4623849833
 20
8.7942205738
 30
0.0
 10
9.509760964
 20
8.7942823237
 30
0.0
 10
9.5567694977
 20
8.7978144782
 30
0.0
 10
9.6031603611
 20
8.8047988427
 30
0.0
 10
9.6486865299
 20
8.8151987957
 30
0.0
 10
9.6931053214
 20
8.8289593956
 30
0.0
 10
9.7361803419
 20
8.8460081217
 30
0.0
 10
9.7776803443
 20
8.8662534723
 30
0.0
 10
9.8107895793
 20
8.8857129594
 30
0.0
 10
9.8362581416
 20
8.9027560849
 30
0.0
 10
9.8548257199
 20
8.9162573722
 30
0.0
 10
9.8728410558
 20
8.9304638414
 30
0.0
 10
9.8844697575
 20
8.9403947339
 30
0.0
 10
9.8901830767
 20
8.9454702837
 30
0.0
  0
SPLINE
  5
36F
100
AcDbEntity
  8
0
100
AcDbSpline
 62
7
  6
CONTINUOUS
 70
0
 71
3
 72
33
 73
29
 74
0
 42
0.0000001
 43
0.0000001
 44
0.0000000001
 40
0.0
 40
0.0
 40
0.0
 40
0.0
 40
0.0304445286
 40
0.0608955505
 40
0.0913595199
 40
0.1218428064
 40
0.1523516552
 40
0.1828921529
 40
0.2134701851
 40
0.2440913971
 40
0.2747611664
 40
0.3054845685
 40
0.3362663406
 40
0.3671108606
 40
0.3980221245
 40
0.4290037159
 40
0.4600587911
 40
0.4911900691
 40
0.52239981
 40
0.5536898046
 40
0.5850613771
 40
0.616515374
 40
0.679660373
 40
0.7431334766
 40
0.8069244996
 40
0.8710161769
 40
0.9353846364
 40
1.0
 40
1.0
 40
1.0
 40
1.0
 10
11.4189734298
 20
5.7350119201
 30
0.0
 10
11.4115567504
 20
5.7278479687
 30
0.0
 10
11.3964289329
 20
5.7138182159
 30
0.0
 10
11.3728988841
 20
5.6937098923
 30
0.0
 10
11.3485616804
 20
5.6745643108
 30
0.0
 10
11.3234527336
 20
5.6564094994
 30
0.0
 10
11.2976080449
 20
5.6392713452
 30
0.0
 10
11.2710647905
 20
5.6231744808
 30
0.0
 10
11.2438610572
 20
5.6081420884
 30
0.0
 10
11.216035969
 20
5.594195702
 30
0.0
 10
11.1876295206
 20
5.5813553021
 30
0.0
 10
11.1586824925
 20
5.5696393902
 30
0.0
 10
11.1292364858
 20
5.5590647558
 30
0.0
 10
11.0993338237
 20
5.5496465049
 30
0.0
 10
11.0690174411
 20
5.5413982018
 30
0.0
 10
11.0383308858
 20
5.5343316866
 30
0.0
 10
11.0073182494
 20
5.5284570025
 30
0.0
 10
10.9760240733
 20
5.5237825968
 30
0.0
 10
10.9444932541
 20
5.5203152136
 30
0.0
 10
10.9127712362
 20
5.5180596995
 30
0.0
 10
10.8809029866
 20
5.5170193409
 30
0.0
 10
10.8382287035
 20
5.5172544401
 30
0.0
 10
10.7847384283
 20
5.520601876
 30
0.0
 10
10.7207982237
 20
5.5294566835
 30
0.0
 10
10.657377832
 20
5.5431026519
 30
0.0
 10
10.5948422969
 20
5.5614614795
 30
0.0
 10
10.5335532843
 20
5.5844252414
 30
0.0
 10
10.4938181347
 20
5.6026895368
 30
0.0
 10
10.4742733019
 20
5.612536726
 30
0.0
  0
SPLINE
  5
370
100
AcDbEntity
  8
0
100
AcDbSpline
 62
7
  6
CONTINUOUS
 70
0
 71
3
 72
11
 73
7
 74
0
 42
0.0000001
 43
0.0000001
 44
0.0000000001
 40
0.0
 40
0.0
 40
0.0
 40
0.0
 40
0.2510785587
 40
0.5015636626
 40
0.7512620049
 40
1.0
 40
1.0
 40
1.0
 40
1.0
 10
10.1421182924
 20
5.894186758
 30
0.0
 10
10.1279108774
 20
5.9135706786
 30
0.0
 10
10.1010130182
 20
5.9534056155
 30
0.0
 10
10.0654766396
 20
6.016002074
 30
0.0
 10
10.0350191259
 20
6.0809740295
 30
0.0
 10
10.0182003775
 20
6.1256835688
 30
0.0
 10
10.0107081532
 20
6.1482830204
 30
0.0
  0
SPLINE
  5
371
100
AcDbEntity
  8
0
100
AcDbSpline
 62
7
  6
CONTINUOUS
 70
0
 71
3
 72
39
 73
35
 74
0
 42
0.0000001
 43
0.0000001
 44
0.0000000001
 40
0.0
 40
0.0
 40
0.0
 40
0.0
 40
0.0055577178
 40
0.0111783515
 40
0.0169224939
 40
0.0228466025
 40
0.0290016501
 40
0.0354322917
 40
0.0492594105
 40
0.0567237334
 40
0.0645832027
 40
0.0728552336
 40
0.0815535905
 40
0.0906889511
 40
0.1002689297
 40
0.1207797723
 40
0.1431090779
 40
0.1672508467
 40
0.1931790703
 40
0.2208514629
 40
0.250212479
 40
0.2811953802
 40
0.3137236274
 40
0.3477121318
 40
0.3830684333
 40
0.4196935094
 40
0.4574823724
 40
0.4963248728
 40
0.5767054405
 40
0.6598768759
 40
0.7448320392
 40
0.8305351833
 40
0.9159380978
 40
1.0
 40
1.0
 40
1.0
 40
1.0
 10
12.0252761739
 20
10.1089661752
 30
0.0
 10
12.0252761799
 20
10.1094881466
 30
0.0
 10
12.0253346248
 20
10.1105389083
 30
0.0
 10
12.025596989
 20
10.1121094287
 30
0.0
 10
12.0260334922
 20
10.1136764584
 30
0.0
 10
12.0266433424
 20
10.1152381554
 30
0.0
 10
12.0274255949
 20
10.1167933084
 30
0.0
 10
12.0287283254
 20
10.1189072969
 30
0.0
 10
12.0303571597
 20
10.1209521261
 30
0.0
 10
12.0322561963
 20
10.1229253497
 30
0.0
 10
12.0338838324
 20
10.1244312192
 30
0.0
 10
12.0356766599
 20
10.1259238961
 30
0.0
 10
12.0376334972
 20
10.1274024931
 30
0.0
 10
12.0397527482
 20
10.1288658067
 30
0.0
 10
12.0428639937
 20
10.1308401752
 30
0.0
 10
12.0471605976
 20
10.133251685
 30
0.0
 10
12.052820552
 20
10.1360040562
 30
0.0
 10
12.0590789836
 20
10.1386687671
 30
0.0
 10
12.0659158406
 20
10.1412371828
 30
0.0
 10
12.0733093806
 20
10.1437009555
 30
0.0
 10
12.0812357668
 20
10.1460519703
 30
0.0
 10
12.0896693551
 20
10.1482824434
 30
0.0
 10
12.0985827351
 20
10.1503849912
 30
0.0
 10
12.1079468593
 20
10.1523526662
 30
0.0
 10
12.1177311722
 20
10.1541789511
 30
0.0
 10
12.1279037056
 20
10.1558577707
 30
0.0
 10
12.1384312167
 20
10.1573836242
 30
0.0
 10
12.1530623802
 20
10.1592282824
 30
0.0
 10
12.1719821678
 20
10.1611039134
 30
0.0
 10
12.1952735225
 20
10.1626564289
 30
0.0
 10
12.2191009529
 20
10.1635143414
 30
0.0
 10
12.2431528452
 20
10.1636662376
 30
0.0
 10
12.267114663
 20
10.1631100277
 30
0.0
 10
12.2830108968
 20
10.1622620128
 30
0.0
 10
12.2908869308
 20
10.161715808
 30
0.0
  0
SPLINE
  5
372
100
AcDbEntity
  8
0
100
AcDbSpline
 62
7
  6
CONTINUOUS
 70
0
 71
3
 72
40
 73
36
 74
0
 42
0.0000001
 43
0.0000001
 44
0.0000000001
 40
0.0
 40
0.0
 40
0.0
 40
0.0
 40
0.0307261595
 40
0.0615724458
 40
0.0925361258
 40
0.1236137269
 40
0.1547999151
 40
0.1860882079
 40
0.2174708084
 40
0.2489388035
 40
0.2804822494
 40
0.3120903072
 40
0.343751374
 40
0.3754532238
 40
0.4071831533
 40
0.4389281316
 40
0.4706749525
 40
0.5024103884
 40
0.5341213439
 40
0.5657950094
 40
0.597419011
 40
0.628981558
 40
0.6604715847
 40
0.6918788863
 40
0.7231942474
 40
0.7544095606
 40
0.7855179353
 40
0.8165137944
 40
0.8473929572
 40
0.8781527067
 40
0.9087918415
 40
0.9393107083
 40
0.9545271574
 40
0.9697143866
 40
1.0
 40
1.0
 40
1.0
 40
1.0
 10
9.1011499382
 20
9.7924996662
 30
0.0
 10
9.1011499382
 20
9.7801657517
 30
0.0
 10
9.1018532075
 20
9.7554441008
 30
0.0
 10
9.1049998677
 20
9.7184137261
 30
0.0
 10
9.1102301803
 20
9.6814762759
 30
0.0
 10
9.1175270312
 20
9.6447523677
 30
0.0
 10
9.1268668863
 20
9.6083597461
 30
0.0
 10
9.1382194969
 20
9.5724157168
 30
0.0
 10
9.15154823
 20
9.537035942
 30
0.0
 10
9.166810068
 20
9.5023343082
 30
0.0
 10
9.1839558019
 20
9.4684224982
 30
0.0
 10
9.2029301674
 20
9.4354096512
 30
0.0
 10
9.2236720315
 20
9.4034020098
 30
0.0
 10
9.2461145855
 20
9.3725025821
 30
0.0
 10
9.27018556
 20
9.3428108116
 30
0.0
 10
9.2958074565
 20
9.3144222602
 30
0.0
 10
9.3228977955
 20
9.287428302
 30
0.0
 10
9.3513693803
 20
9.261915831
 30
0.0
 10
9.3811305761
 20
9.2379669834
 30
0.0
 10
9.4120856027
 20
9.2156588739
 30
0.0
 10
9.4441348402
 20
9.1950633477
 30
0.0
 10
9.4771751489
 20
9.1762467516
 30
0.0
 10
9.5111001981
 20
9.1592697212
 30
0.0
 10
9.5458008063
 20
9.1441869858
 30
0.0
 10
9.5811652889
 20
9.1310471923
 30
0.0
 10
9.6170798166
 20
9.1198927487
 30
0.0
 10
9.6534287727
 20
9.1107596858
 30
0.0
 10
9.690095145
 20
9.1036775419
 30
0.0
 10
9.726960813
 20
9.0986692588
 30
0.0
 10
9.7639072468
 20
9.0957511309
 30
0.0
 10
9.800814693
 20
9.0949326548
 30
0.0
 10
9.8314719859
 20
9.0960038764
 30
0.0
 10
9.8558556148
 20
9.0979129083
 30
0.0
 10
9.8800801884
 20
9.1005150541
 30
0.0
 10
9.8981408103
 20
9.1032532395
 30
0.0
 10
9.9101020507
 20
9.1054265216
 30
0.0
  0
SPLINE
  5
373
100
AcDbEntity
  8
0
100
AcDbSpline
 62
7
  6
CONTINUOUS
 70
0
 71
3
 72
39
 73
35
 74
0
 42
0.0000001
 43
0.0000001
 44
0.0000000001
 40
0.0
 40
0.0
 40
0.0
 40
0.0
 40
0.0055577178
 40
0.0111783515
 40
0.0169224939
 40
0.0228466025
 40
0.0290016501
 40
0.0354322917
 40
0.0492594105
 40
0.0567237334
 40
0.0645832027
 40
0.0728552336
 40
0.0815535905
 40
0.0906889511
 40
0.1002689297
 40
0.1207797723
 40
0.1431090779
 40
0.1672508467
 40
0.1931790703
 40
0.2208514629
 40
0.250212479
 40
0.2811953802
 40
0.3137236274
 40
0.3477121318
 40
0.3830684333
 40
0.4196935094
 40
0.4574823724
 40
0.4963248728
 40
0.5767054405
 40
0.6598768759
 40
0.7448320392
 40
0.8305351833
 40
0.9159380978
 40
1.0
 40
1.0
 40
1.0
 40
1.0
 10
13.4164273933
 20
11.4527151459
 30
0.0
 10
13.4164273993
 20
11.4532371173
 30
0.0
 10
13.4164858442
 20
11.454287879
 30
0.0
 10
13.4167482084
 20
11.4558583993
 30
0.0
 10
13.4171847116
 20
11.457425429
 30
0.0
 10
13.4177945618
 20
11.4589871261
 30
0.0
 10
13.4185768142
 20
11.4605422791
 30
0.0
 10
13.4198795448
 20
11.4626562675
 30
0.0
 10
13.421508379
 20
11.4647010968
 30
0.0
 10
13.4234074157
 20
11.4666743204
 30
0.0
 10
13.4250350517
 20
11.4681801899
 30
0.0
 10
13.4268278792
 20
11.4696728668
 30
0.0
 10
13.4287847165
 20
11.4711514637
 30
0.0
 10
13.4309039676
 20
11.4726147773
 30
0.0
 10
13.434015213
 20
11.4745891459
 30
0.0
 10
13.4383118169
 20
11.4770006557
 30
0.0
 10
13.4439717713
 20
11.4797530269
 30
0.0
 10
13.4502302029
 20
11.4824177378
 30
0.0
 10
13.45706706
 20
11.4849861534
 30
0.0
 10
13.4644605999
 20
11.4874499261
 30
0.0
 10
13.4723869862
 20
11.4898009409
 30
0.0
 10
13.4808205744
 20
11.492031414
 30
0.0
 10
13.4897339545
 20
11.4941339619
 30
0.0
 10
13.4990980787
 20
11.4961016368
 30
0.0
 10
13.5088823915
 20
11.4979279217
 30
0.0
 10
13.5190549249
 20
11.4996067414
 30
0.0
 10
13.529582436
 20
11.5011325949
 30
0.0
 10
13.5442135995
 20
11.5029772531
 30
0.0
 10
13.5631333871
 20
11.504852884
 30
0.0
 10
13.5864247418
 20
11.5064053996
 30
0.0
 10
13.6102521722
 20
11.5072633121
 30
0.0
 10
13.6343040645
 20
11.5074152082
 30
0.0
 10
13.6582658823
 20
11.5068589984
 30
0.0
 10
13.6741621162
 20
11.5060109835
 30
0.0
 10
13.6820381502
 20
11.5054647786
 30
0.0
  0
SPLINE
  5
374
100
AcDbEntity
  8
0
100
AcDbSpline
 62
7
  6
CONTINUOUS
 70
0
 71
3
 72
40
 73
36
 74
0
 42
0.0000001
 43
0.0000001
 44
0.0000000001
 40
0.0
 40
0.0
 40
0.0
 40
0.0
 40
0.0307246453
 40
0.0615692491
 40
0.0925310772
 40
0.1236066807
 40
0.1547907443
 40
0.1860768138
 40
0.2174571237
 40
0.2489227967
 40
0.2804639281
 40
0.3120697205
 40
0.3437286137
 40
0.3754284253
 40
0.4071564953
 40
0.4388998351
 40
0.4706452784
 40
0.5023796348
 40
0.5340898422
 40
0.5657631195
 40
0.597387116
 40
0.6289500579
 40
0.6604408895
 40
0.6918494089
 40
0.7231663949
 40
0.7543837266
 40
0.7854944912
 40
0.8164930804
 40
0.8473752735
 40
0.8781383056
 40
0.9087809186
 40
0.9393033952
 40
0.9545216707
 40
0.9697107329
 40
1.0
 40
1.0
 40
1.0
 40
1.0
 10
9.1482050101
 20
9.7995310679
 30
0.0
 10
9.1482050101
 20
9.7879173465
 30
0.0
 10
9.1488662674
 20
9.7646393007
 30
0.0
 10
9.1518249783
 20
9.7297710539
 30
0.0
 10
9.1567429222
 20
9.6949898598
 30
0.0
 10
9.1636040496
 20
9.6604089741
 30
0.0
 10
9.1723862973
 20
9.626138953
 30
0.0
 10
9.1830613019
 20
9.5922899474
 30
0.0
 10
9.1955947158
 20
9.558970568
 30
0.0
 10
9.2099462028
 20
9.5262877642
 30
0.0
 10
9.2260696209
 20
9.4943464227
 30
0.0
 10
9.2439131486
 20
9.4632490486
 30
0.0
 10
9.2634194597
 20
9.4330954359
 30
0.0
 10
9.2845259037
 20
9.40398235
 30
0.0
 10
9.3071647069
 20
9.3760032193
 30
0.0
 10
9.3312631888
 20
9.3492478375
 30
0.0
 10
9.3567439943
 20
9.323802077
 30
0.0
 10
9.3835253404
 20
9.2997476153
 30
0.0
 10
9.4115212774
 20
9.2771616743
 30
0.0
 10
9.4406419615
 20
9.2561167723
 30
0.0
 10
9.4707939427
 20
9.2366804933
 30
0.0
 10
9.5018804627
 20
9.2189152709
 30
0.0
 10
9.533801763
 20
9.2028781892
 30
0.0
 10
9.566455403
 20
9.1886207994
 30
0.0
 10
9.5997365854
 20
9.1761889549
 30
0.0
 10
9.6335384915
 20
9.1656226632
 30
0.0
 10
9.6677526153
 20
9.156955957
 30
0.0
 10
9.7022691307
 20
9.1502167848
 30
0.0
 10
9.7369771598
 20
9.1454269136
 30
0.0
 10
9.7717654283
 20
9.1426018785
 30
0.0
 10
9.8065214995
 20
9.1417508484
 30
0.0
 10
9.835395752
 20
9.1426901512
 30
0.0
 10
9.8583638447
 20
9.1444309788
 30
0.0
 10
9.8811839193
 20
9.1468237486
 30
0.0
 10
9.8981994777
 20
9.1493580694
 30
0.0
 10
9.9094696108
 20
9.151374791
 30
0.0
  0
SPLINE
  5
375
100
AcDbEntity
  8
0
100
AcDbSpline
 62
7
  6
CONTINUOUS
 70
0
 71
3
 72
47
 73
43
 74
0
 42
0.0000001
 43
0.0000001
 44
0.0000000001
 40
0.0
 40
0.0
 40
0.0
 40
0.0
 40
0.0063158891
 40
0.012670693
 40
0.0191025391
 40
0.0256481111
 40
0.0323420145
 40
0.0392163779
 40
0.0536142747
 40
0.0611950254
 40
0.0690568328
 40
0.0772179734
 40
0.0856944045
 40
0.0944998522
 40
0.1036459935
 40
0.1131428211
 40
0.1229986303
 40
0.1332202822
 40
0.1438134448
 40
0.1547825085
 40
0.1661308998
 40
0.1899733285
 40
0.2153528849
 40
0.2422687961
 40
0.2707111428
 40
0.3006622203
 40
0.3320975591
 40
0.3649868908
 40
0.3992948428
 40
0.43498141
 40
0.4720024243
 40
0.5103100179
 40
0.5498529293
 40
0.590576713
 40
0.6324240653
 40
0.675335092
 40
0.7192474692
 40
0.7640965597
 40
0.8098158789
 40
0.8563369465
 40
0.9035890751
 40
1.0
 40
1.0
 40
1.0
 40
1.0
 10
13.1796050214
 20
10.1846216385
 30
0.0
 10
13.1809689996
 20
10.1845270387
 30
0.0
 10
13.1836989119
 20
10.1842255845
 30
0.0
 10
13.187763178
 20
10.1834398789
 30
0.0
 10
13.1918002974
 20
10.1823207473
 30
0.0
 10
13.1958078637
 20
10.180868933
 30
0.0
 10
13.1997843388
 20
10.179085388
 30
0.0
 10
13.2051236977
 20
10.1762231911
 30
0.0
 10
13.2103180176
 20
10.1727193737
 30
0.0
 10
13.2153448398
 20
10.1686590644
 30
0.0
 10
13.2191417414
 20
10.1652356995
 30
0.0
 10
13.2228981472
 20
10.1614888803
 30
0.0
 10
13.2266130395
 20
10.1574198615
 30
0.0
 10
13.2302849125
 20
10.1530304198
 30
0.0
 10
13.2339124713
 20
10.1483223751
 30
0.0
 10
13.2374942421
 20
10.1432975983
 30
0.0
 10
13.2410288742
 20
10.1379581561
 30
0.0
 10
13.2445150064
 20
10.1323062228
 30
0.0
 10
13.2479511733
 20
10.1263440552
 30
0.0
 10
13.2513361129
 20
10.1200740969
 30
0.0
 10
13.2558536451
 20
10.1111598796
 30
0.0
 10
13.2613472057
 20
10.099248405
 30
0.0
 10
13.2676090934
 20
10.0839975029
 30
0.0
 10
13.2736347619
 20
10.0675870546
 30
0.0
 10
13.2794143299
 20
10.0500438202
 30
0.0
 10
13.2849382928
 20
10.0313961089
 30
0.0
 10
13.2901975377
 20
10.0116743177
 30
0.0
 10
13.2951833396
 20
9.9909106536
 30
0.0
 10
13.2998873896
 20
9.9691391105
 30
0.0
 10
13.3043018588
 20
9.946395408
 30
0.0
 10
13.308419411
 20
9.9227169209
 30
0.0
 10
13.3122331804
 20
9.8981425874
 30
0.0
 10
13.3157367923
 20
9.8727128473
 30
0.0
 10
13.3189244238
 20
9.8464695846
 30
0.0
 10
13.3217907698
 20
9.8194560422
 30
0.0
 10
13.3243310424
 20
9.7917167352
 30
0.0
 10
13.3265409952
 20
9.7632974024
 30
0.0
 10
13.3284169705
 20
9.7342448907
 30
0.0
 10
13.3299558225
 20
9.7046071338
 30
0.0
 10
13.3311549947
 20
9.6744330397
 30
0.0
 10
13.3323058754
 20
9.6332776814
 30
0.0
 10
13.3326397204
 20
9.6021760737
 30
0.0
 10
13.3326397204
 20
9.5813051727
 30
0.0
  0
SPLINE
  5
376
100
AcDbEntity
  8
0
100
AcDbSpline
 62
7
  6
CONTINUOUS
 70
0
 71
3
 72
37
 73
33
 74
0
 42
0.0000001
 43
0.0000001
 44
0.0000000001
 40
0.0
 40
0.0
 40
0.0
 40
0.0
 40
0.0064163849
 40
0.0129887143
 40
0.0266959591
 40
0.041308292
 40
0.0569690587
 40
0.0737893752
 40
0.0918529083
 40
0.1112205941
 40
0.1319350554
 40
0.1540240068
 40
0.1775028764
 40
0.2023771478
 40
0.2286439529
 40
0.2562932269
 40
0.2853089181
 40
0.3156697194
 40
0.3473495673
 40
0.3803183506
 40
0.4145422753
 40
0.4499840857
 40
0.4866035436
 40
0.5243576375
 40
0.563200686
 40
0.6030846998
 40
0.6439595249
 40
0.6857729123
 40
0.7284707696
 40
0.8162937725
 40
0.9069649175
 40
1.0
 40
1.0
 40
1.0
 40
1.0
 10
13.1639819753
 20
10.1833175542
 30
0.0
 10
13.1652465742
 20
10.1828299413
 30
0.0
 10
13.1677722704
 20
10.181751543
 30
0.0
 10
13.1728008167
 20
10.1791920342
 30
0.0
 10
13.1790308381
 20
10.1752165164
 30
0.0
 10
13.18625978
 20
10.1693551529
 30
0.0
 10
13.1933413202
 20
10.1623486829
 30
0.0
 10
13.2002678525
 20
10.1542090451
 30
0.0
 10
13.2070327245
 20
10.1449478506
 30
0.0
 10
13.2136282203
 20
10.1345779729
 30
0.0
 10
13.2200461816
 20
10.1231135751
 30
0.0
 10
13.2262781214
 20
10.1105704586
 30
0.0
 10
13.2323155599
 20
10.0969661428
 30
0.0
 10
13.238149979
 20
10.0823197866
 30
0.0
 10
13.2437729955
 20
10.0666521991
 30
0.0
 10
13.2491765207
 20
10.0499858206
 30
0.0
 10
13.2543526607
 20
10.0323446162
 30
0.0
 10
13.2592938065
 20
10.0137540494
 30
0.0
 10
13.2639927477
 20
9.9942410505
 30
0.0
 10
13.2684425597
 20
9.9738339289
 30
0.0
 10
13.2726366623
 20
9.9525623362
 30
0.0
 10
13.2765689171
 20
9.9304572313
 30
0.0
 10
13.2802335196
 20
9.9075508049
 30
0.0
 10
13.2836250415
 20
9.8838764348
 30
0.0
 10
13.2867385196
 20
9.8594686473
 30
0.0
 10
13.2895693609
 20
9.8343630437
 30
0.0
 10
13.2921133554
 20
9.8085962625
 30
0.0
 10
13.2943668275
 20
9.7822058799
 30
0.0
 10
13.2970041883
 20
9.7458980881
 30
0.0
 10
13.2995316489
 20
9.6992386828
 30
0.0
 10
13.3013376344
 20
9.6419069897
 30
0.0
 10
13.3017300914
 20
9.603100827
 30
0.0
 10
13.3017300914
 20
9.5834487628
 30
0.0
  0
SPLINE
  5
377
100
AcDbEntity
  8
0
100
AcDbSpline
 62
7
  6
CONTINUOUS
 70
0
 71
3
 72
43
 73
39
 74
0
 42
0.0000001
 43
0.0000001
 44
0.0000000001
 40
0.0
 40
0.0
 40
0.0
 40
0.0
 40
0.0309419255
 40
0.0620265905
 40
0.0932506303
 40
0.1246074316
 40
0.1560884208
 40
0.1876827888
 40
0.2193778074
 40
0.2511590454
 40
0.283010627
 40
0.3149155066
 40
0.3468557566
 40
0.3788128662
 40
0.4107680474
 40
0.4427025443
 40
0.4745979411
 40
0.5064364668
 40
0.5382012915
 40
0.5698768138
 40
0.6014489312
 40
0.6329052926
 40
0.6642355266
 40
0.6954314433
 40
0.7264872047
 40
0.7573994604
 40
0.7881674405
 40
0.8187930057
 40
0.8340559563
 40
0.8492852085
 40
0.8644817243
 40
0.8796466276
 40
0.9098821506
 40
0.9400082935
 40
0.9550370349
 40
0.9700438539
 40
0.9850307946
 40
1.0
 40
1.0
 40
1.0
 40
1.0
 10
8.6241655001
 20
9.4402680515
 30
0.0
 10
8.6241655001
 20
9.4232435939
 30
0.0
 10
8.6253200743
 20
9.3891052706
 30
0.0
 10
8.6304794903
 20
9.3380220647
 30
0.0
 10
8.6390463779
 20
9.2871653038
 30
0.0
 10
8.6509815955
 20
9.2367691113
 30
0.0
 10
8.6662304492
 20
9.1870617972
 30
0.0
 10
8.6847233878
 20
9.138269423
 30
0.0
 10
8.7063760963
 20
9.0906136032
 30
0.0
 10
8.7310899486
 20
9.0443108266
 30
0.0
 10
8.7587524702
 20
8.9995714051
 30
0.0
 10
8.7892378441
 20
8.956598554
 30
0.0
 10
8.8224074794
 20
8.9155874735
 30
0.0
 10
8.8581106355
 20
8.8767244756
 30
0.0
 10
8.8961850683
 20
8.8401861113
 30
0.0
 10
8.9364577978
 20
8.8061384026
 30
0.0
 10
8.9787458861
 20
8.7747360976
 30
0.0
 10
9.0228572585
 20
8.7461219722
 30
0.0
 10
9.0685915688
 20
8.7204261926
 30
0.0
 10
9.115741084
 20
8.6977657018
 30
0.0
 10
9.1640916191
 20
8.6782436797
 30
0.0
 10
9.2134235196
 20
8.6619491081
 30
0.0
 10
9.2635126278
 20
8.648956357
 30
0.0
 10
9.3141313389
 20
8.6393248508
 30
0.0
 10
9.3650494336
 20
8.6330987656
 30
0.0
 10
9.4160358008
 20
8.6303068757
 30
0.0
 10
9.4668569259
 20
8.6309620554
 30
0.0
 10
9.5089311125
 20
8.6343832058
 30
0.0
 10
9.5422677273
 20
8.6388378803
 30
0.0
 10
9.5670596235
 20
8.6430277459
 30
0.0
 10
9.5916381964
 20
8.6480654554
 30
0.0
 10
9.6240522357
 20
8.655896112
 30
0.0
 10
9.6639127559
 20
8.6677706209
 30
0.0
 10
9.7027665182
 20
8.682402086
 30
0.0
 10
9.7330834471
 20
8.695705147
 30
0.0
 10
9.7554032193
 20
8.7064633791
 30
0.0
 10
9.7772947557
 20
8.7179968409
 30
0.0
 10
9.791595844
 20
8.72619904
 30
0.0
 10
9.7986655752
 20
8.7304243455
 30
0.0
  0
SPLINE
  5
378
100
AcDbEntity
  8
0
100
AcDbSpline
 62
7
  6
CONTINUOUS
 70
0
 71
3
 72
51
 73
47
 74
0
 42
0.0000001
 43
0.0000001
 44
0.0000000001
 40
0.0
 40
0.0
 40
0.0
 40
0.0
 40
0.0055341477
 40
0.0112762866
 40
0.0172697191
 40
0.0235517808
 40
0.0301541704
 40
0.0371032198
 40
0.0444206364
 40
0.0521238798
 40
0.0602269332
 40
0.068740577
 40
0.0776730507
 40
0.0870301981
 40
0.096815996
 40
0.1070326071
 40
0.1176807885
 40
0.1287598968
 40
0.1402681926
 40
0.1522028336
 40
0.1645600881
 40
0.1773353412
 40
0.1905232271
 40
0.2041176633
 40
0.2181119119
 40
0.2324986471
 40
0.2624167643
 40
0.2938035224
 40
0.3265822755
 40
0.3606698582
 40
0.3959773041
 40
0.4324104759
 40
0.4698706334
 40
0.5082549576
 40
0.5474570454
 40
0.5873673816
 40
0.6278737969
 40
0.6688619148
 40
0.7102155924
 40
0.7518173537
 40
0.7935488285
 40
0.8352911623
 40
0.8769255063
 40
0.9183332814
 40
0.959397011
 40
1.0
 40
1.0
 40
1.0
 40
1.0
 10
13.0527478599
 20
8.5779603931
 30
0.0
 10
13.0546608193
 20
8.5784109831
 30
0.0
 10
13.0585136182
 20
8.5795304989
 30
0.0
 10
13.0642217629
 20
8.5817948935
 30
0.0
 10
13.0699474148
 20
8.5846680141
 30
0.0
 10
13.0756860597
 20
8.588146153
 30
0.0
 10
13.0814342064
 20
8.5922261013
 30
0.0
 10
13.0871883107
 20
8.596904146
 30
0.0
 10
13.0929445734
 20
8.602176691
 30
0.0
 10
13.0986993341
 20
8.6080395771
 30
0.0
 10
13.104448543
 20
8.6144885425
 30
0.0
 10
13.1101883263
 20
8.6215187193
 30
0.0
 10
13.1159144597
 20
8.6291250046
 30
0.0
 10
13.1216229159
 20
8.6373017047
 30
0.0
 10
13.1273093876
 20
8.6460428171
 30
0.0
 10
13.132969762
 20
8.6553417893
 30
0.0
 10
13.1385997192
 20
8.6651917198
 30
0.0
 10
13.1441951123
 20
8.6755852028
 30
0.0
 10
13.1497516563
 20
8.6865144615
 30
0.0
 10
13.155265206
 20
8.6979712576
 30
0.0
 10
13.1607315434
 20
8.7099469716
 30
0.0
 10
13.1661465513
 20
8.7224325586
 30
0.0
 10
13.1715061027
 20
8.7354185927
 30
0.0
 10
13.176806121
 20
8.7488952489
 30
0.0
 10
13.1820426203
 20
8.7628523425
 30
0.0
 10
13.1890257528
 20
8.7823432193
 30
0.0
 10
13.1975493281
 20
8.8078397367
 30
0.0
 10
13.2073337737
 20
8.8397896268
 30
0.0
 10
13.2167732973
 20
8.8733836081
 30
0.0
 10
13.2258390513
 20
8.9085198426
 30
0.0
 10
13.2345033135
 20
8.9450920181
 30
0.0
 10
13.2427396085
 20
8.9829892957
 30
0.0
 10
13.2505227785
 20
9.0220967792
 30
0.0
 10
13.2578290619
 20
9.0622958446
 30
0.0
 10
13.2646361637
 20
9.1034645209
 30
0.0
 10
13.2709233216
 20
9.1454778646
 30
0.0
 10
13.2766713685
 20
9.1882083468
 30
0.0
 10
13.2818627889
 20
9.2315262449
 30
0.0
 10
13.2864817718
 20
9.2753000397
 30
0.0
 10
13.2905142584
 20
9.3193968207
 30
0.0
 10
13.2939479818
 20
9.3636826853
 30
0.0
 10
13.2967725114
 20
9.4080231683
 30
0.0
 10
13.2989792675
 20
9.4522835941
 30
0.0
 10
13.3005615817
 20
9.4963296476
 30
0.0
 10
13.3015146608
 20
9.5400273981
 30
0.0
 10
13.3017300914
 20
9.5690296537
 30
0.0
 10
13.3017300914
 20
9.5834487628
 30
0.0
  0
SPLINE
  5
379
100
AcDbEntity
  8
0
100
AcDbSpline
 62
7
  6
CONTINUOUS
 70
0
 71
3
 72
41
 73
37
 74
0
 42
0.0000001
 43
0.0000001
 44
0.0000000001
 40
0.0
 40
0.0
 40
0.0
 40
0.0
 40
0.0066707121
 40
0.0132434347
 40
0.0197612865
 40
0.0262686057
 40
0.032809948
 40
0.0394291401
 40
0.0461683326
 40
0.0530672496
 40
0.067479409
 40
0.0829298963
 40
0.099618566
 40
0.117696265
 40
0.1372726252
 40
0.1584242946
 40
0.1812017998
 40
0.2056347505
 40
0.2317362129
 40
0.2595058864
 40
0.2889322107
 40
0.3199943284
 40
0.3526635406
 40
0.3869041303
 40
0.4226743147
 40
0.459927048
 40
0.4986103719
 40
0.5386679255
 40
0.5800394944
 40
0.6226611979
 40
0.6664658028
 40
0.7113831167
 40
0.7573401484
 40
0.8042615575
 40
0.9006811535
 40
1.0
 40
1.0
 40
1.0
 40
1.0
 10
13.1226268526
 20
9.9546346367
 30
0.0
 10
13.1236568848
 20
9.9548448992
 30
0.0
 10
13.1257194203
 20
9.9551815111
 30
0.0
 10
13.1288275336
 20
9.955427052
 30
0.0
 10
13.1319198224
 20
9.9554081734
 30
0.0
 10
13.1349941527
 20
9.955124801
 30
0.0
 10
13.1380487536
 20
9.9545772146
 30
0.0
 10
13.1410817604
 20
9.9537657743
 30
0.0
 10
13.1440916088
 20
9.9526911514
 30
0.0
 10
13.1481296661
 20
9.9508829151
 30
0.0
 10
13.153134657
 20
9.9479234089
 30
0.0
 10
13.1589229236
 20
9.9433882063
 30
0.0
 10
13.1645774284
 20
9.9378309088
 30
0.0
 10
13.1700915173
 20
9.9312637395
 30
0.0
 10
13.1754593762
 20
9.9236984246
 30
0.0
 10
13.1806736247
 20
9.9151478199
 30
0.0
 10
13.1857263094
 20
9.9056263349
 30
0.0
 10
13.190609166
 20
9.8951503079
 30
0.0
 10
13.1953137893
 20
9.8837379582
 30
0.0
 10
13.19983179
 20
9.8714093832
 30
0.0
 10
13.2041550492
 20
9.8581865534
 30
0.0
 10
13.2082756938
 20
9.844093197
 30
0.0
 10
13.2121861192
 20
9.8291547234
 30
0.0
 10
13.2158791394
 20
9.8133981917
 30
0.0
 10
13.2193479551
 20
9.7968522215
 30
0.0
 10
13.22258612
 20
9.7795469121
 30
0.0
 10
13.2255876501
 20
9.7615138015
 30
0.0
 10
13.2283470167
 20
9.7427857942
 30
0.0
 10
13.2308590876
 20
9.7233970794
 30
0.0
 10
13.2331192093
 20
9.703383077
 30
0.0
 10
13.2351232283
 20
9.6827803721
 30
0.0
 10
13.2368674077
 20
9.6616266459
 30
0.0
 10
13.2383485495
 20
9.6399605335
 30
0.0
 10
13.239983677
 20
9.610172108
 30
0.0
 10
13.2413354886
 20
9.571949717
 30
0.0
 10
13.2416841225
 20
9.5411010042
 30
0.0
 10
13.2416841225
 20
9.5254488072
 30
0.0
  0
SPLINE
  5
37A
100
AcDbEntity
  8
0
100
AcDbSpline
 62
7
  6
CONTINUOUS
 70
0
 71
3
 72
26
 73
22
 74
0
 42
0.0000001
 43
0.0000001
 44
0.0000000001
 40
0.0
 40
0.0
 40
0.0
 40
0.0
 40
0.0201857864
 40
0.0411992638
 40
0.0630391299
 40
0.0857017841
 40
0.1091820222
 40
0.1334726062
 40
0.1844473103
 40
0.238542915
 40
0.2956548841
 40
0.3556621286
 40
0.4184290846
 40
0.4838073905
 40
0.55163729
 40
0.6217488503
 40
0.6939629338
 40
0.7680927382
 40
0.843942902
 40
0.9213151877
 40
1.0
 40
1.0
 40
1.0
 40
1.0
 10
13.0503376156
 20
9.8727230099
 30
0.0
 10
13.051304215
 20
9.8705557645
 30
0.0
 10
13.0532118818
 20
9.8661031063
 30
0.0
 10
13.0559482283
 20
9.8592151315
 30
0.0
 10
13.0586149961
 20
9.8519887341
 30
0.0
 10
13.0612102919
 20
9.8444291785
 30
0.0
 10
13.0637321997
 20
9.8365418348
 30
0.0
 10
13.0670479208
 20
9.8254163152
 30
0.0
 10
13.0709797785
 20
9.8107222383
 30
0.0
 10
13.075305542
 20
9.7921504501
 30
0.0
 10
13.0792987695
 20
9.7724199744
 30
0.0
 10
13.0829477743
 20
9.7515876329
 30
0.0
 10
13.08624181
 20
9.7297132315
 30
0.0
 10
13.0891711877
 20
9.7068597771
 30
0.0
 10
13.0917272857
 20
9.6830931502
 30
0.0
 10
13.0939025819
 20
9.6584819453
 30
0.0
 10
13.0956906883
 20
9.6330971962
 30
0.0
 10
13.0970863088
 20
9.6070123289
 30
0.0
 10
13.0980853818
 20
9.5803024991
 30
0.0
 10
13.0986848716
 20
9.5530452199
 30
0.0
 10
13.0988160096
 20
9.534698939
 30
0.0
 10
13.0988160096
 20
9.525448799
 30
0.0
  0
SPLINE
  5
37B
100
AcDbEntity
  8
0
100
AcDbSpline
 62
7
  6
CONTINUOUS
 70
0
 71
3
 72
40
 73
36
 74
0
 42
0.0000001
 43
0.0000001
 44
0.0000000001
 40
0.0
 40
0.0
 40
0.0
 40
0.0
 40
0.0307204968
 40
0.0615604897
 40
0.0925172405
 40
0.1235873664
 40
0.154765602
 40
0.186045571
 40
0.2174195939
 40
0.2488788918
 40
0.2804136665
 40
0.3120132341
 40
0.343666152
 40
0.3753603573
 40
0.4070833089
 40
0.4388221337
 40
0.4705637759
 40
0.5022951468
 40
0.5340032764
 40
0.5656754623
 40
0.5972994183
 40
0.6288634179
 40
0.660356434
 40
0.6917682728
 40
0.7230896998
 40
0.7543125578
 40
0.7854298742
 40
0.8164359572
 40
0.8473264785
 40
0.8780985424
 40
0.9087507373
 40
0.9392831717
 40
0.9545064918
 40
0.96970062
 40
1.0
 40
1.0
 40
1.0
 40
1.0
 10
9.1626487066
 20
9.8044029184
 30
0.0
 10
9.1626487066
 20
9.7930002279
 30
0.0
 10
9.1632953905
 20
9.7701453691
 30
0.0
 10
9.1661889657
 20
9.7359103773
 30
0.0
 10
9.1709987404
 20
9.7017596567
 30
0.0
 10
9.1777091316
 20
9.6678035468
 30
0.0
 10
9.186298737
 20
9.6341497519
 30
0.0
 10
9.1967400285
 20
9.6009055985
 30
0.0
 10
9.2089996754
 20
9.5681769219
 30
0.0
 10
9.2230385302
 20
9.5360679542
 30
0.0
 10
9.2388118095
 20
9.5046809348
 30
0.0
 10
9.2562692135
 20
9.4741158025
 30
0.0
 10
9.2753550949
 20
9.4444698765
 30
0.0
 10
9.2960086327
 20
9.415837549
 30
0.0
 10
9.318164026
 20
9.3883099873
 30
0.0
 10
9.341750702
 20
9.3619748447
 30
0.0
 10
9.3666935404
 20
9.336915984
 30
0.0
 10
9.3929131105
 20
9.3132132115
 30
0.0
 10
9.4203259222
 20
9.2909420233
 30
0.0
 10
9.4488446904
 20
9.2701733664
 30
0.0
 10
9.4783786123
 20
9.2509734146
 30
0.0
 10
9.508833654
 20
9.2334033584
 30
0.0
 10
9.5401128482
 20
9.2175192114
 30
0.0
 10
9.5721166
 20
9.2033716314
 30
0.0
 10
9.6047430018
 20
9.1910057601
 30
0.0
 10
9.6378881564
 20
9.1804610784
 30
0.0
 10
9.6714464993
 20
9.17177128
 30
0.0
 10
9.7053111536
 20
9.164964164
 30
0.0
 10
9.7393741883
 20
9.1600615401
 30
0.0
 10
9.7735272532
 20
9.1570791742
 30
0.0
 10
9.8076608311
 20
9.156026671
 30
0.0
 10
9.836028693
 20
9.1567615699
 30
0.0
 10
9.8586010303
 20
9.1583175008
 30
0.0
 10
9.8810327491
 20
9.1605116434
 30
0.0
 10
9.8977642651
 20
9.1628810728
 30
0.0
 10
9.9088490043
 20
9.1647809863
 30
0.0
  0
SPLINE
  5
37C
100
AcDbEntity
  8
0
100
AcDbSpline
 62
7
  6
CONTINUOUS
 70
0
 71
3
 72
20
 73
16
 74
0
 42
0.0000001
 43
0.0000001
 44
0.0000000001
 40
0.0
 40
0.0
 40
0.0
 40
0.0
 40
0.0492313465
 40
0.1005884546
 40
0.1540114309
 40
0.2094342779
 40
0.2667850843
 40
0.3259871275
 40
0.3869588162
 40
0.4496142372
 40
0.513863735
 40
0.5796136568
 40
0.7152227386
 40
0.8556336099
 40
1.0
 40
1.0
 40
1.0
 40
1.0
 10
13.0146911397
 20
9.7786095992
 30
0.0
 10
13.0157562055
 20
9.7744144591
 30
0.0
 10
13.0178228963
 20
9.7658149562
 30
0.0
 10
13.0206848766
 20
9.7525797561
 30
0.0
 10
13.0233707327
 20
9.7387527948
 30
0.0
 10
13.0258759185
 20
9.724356924
 30
0.0
 10
13.0281963224
 20
9.7094158144
 30
0.0
 10
13.030328024
 20
9.6939540923
 30
0.0
 10
13.0322674812
 20
9.6779972427
 30
0.0
 10
13.0340114778
 20
9.6615715903
 30
0.0
 10
13.0355570838
 20
9.6447042148
 30
0.0
 10
13.0373684998
 20
9.6214227047
 30
0.0
 10
13.0391039665
 20
9.5914222093
 30
0.0
 10
13.0403434699
 20
9.5544811448
 30
0.0
 10
13.0406124525
 20
9.5294436207
 30
0.0
 10
13.0406124525
 20
9.5167514882
 30
0.0
  0
SPLINE
  5
37D
100
AcDbEntity
  8
0
100
AcDbSpline
 62
7
  6
CONTINUOUS
 70
0
 71
3
 72
52
 73
48
 74
0
 42
0.0000001
 43
0.0000001
 44
0.0000000001
 40
0.0
 40
0.0
 40
0.0
 40
0.0
 40
0.0056188401
 40
0.0111420706
 40
0.0166418959
 40
0.0221915105
 40
0.0278619902
 40
0.0337196418
 40
0.0398239862
 40
0.0462269223
 40
0.0529723929
 40
0.0600969636
 40
0.0676303607
 40
0.0755964634
 40
0.0840139973
 40
0.0928973845
 40
0.1022573479
 40
0.1121014686
 40
0.1224346943
 40
0.1332596184
 40
0.1445769407
 40
0.1563855248
 40
0.1686828466
 40
0.1814648914
 40
0.1947266011
 40
0.2084616691
 40
0.2226629768
 40
0.2373223427
 40
0.2679780596
 40
0.3003497016
 40
0.3343465573
 40
0.3698687431
 40
0.4068083067
 40
0.445050174
 40
0.484472989
 40
0.5249498814
 40
0.5663491847
 40
0.6085351204
 40
0.6513684588
 40
0.6947071664
 40
0.7384070376
 40
0.7823223364
 40
0.826306383
 40
0.8702122919
 40
0.9138932785
 40
0.95720405
 40
1.0
 40
1.0
 40
1.0
 40
1.0
 10
13.0432566518
 20
8.8101391012
 30
0.0
 10
13.0446347616
 20
8.8096518712
 30
0.0
 10
13.0474237547
 20
8.8088355754
 30
0.0
 10
13.0517021668
 20
8.8081126017
 30
0.0
 10
13.0560190206
 20
8.8079072554
 30
0.0
 10
13.0603673889
 20
8.8082201517
 30
0.0
 10
13.0647415148
 20
8.8090495982
 30
0.0
 10
13.0691361207
 20
8.8103933861
 30
0.0
 10
13.0735469825
 20
8.8122482294
 30
0.0
 10
13.0779703705
 20
8.8146111052
 30
0.0
 10
13.0824031219
 20
8.8174786158
 30
0.0
 10
13.086842008
 20
8.8208476593
 30
0.0
 10
13.091283936
 20
8.8247148004
 30
0.0
 10
13.0957255477
 20
8.8290765711
 30
0.0
 10
13.1001634674
 20
8.8339290885
 30
0.0
 10
13.1045941199
 20
8.8392681801
 30
0.0
 10
13.1090138649
 20
8.8450892396
 30
0.0
 10
13.1134189965
 20
8.8513872405
 30
0.0
 10
13.1178057091
 20
8.8581567445
 30
0.0
 10
13.1221702539
 20
8.8653918416
 30
0.0
 10
13.1265087456
 20
8.8730862395
 30
0.0
 10
13.1308174496
 20
8.8812331639
 30
0.0
 10
13.1350924633
 20
8.8898254813
 30
0.0
 10
13.1393300974
 20
8.8988555876
 30
0.0
 10
13.1435264805
 20
8.9083155349
 30
0.0
 10
13.1476779758
 20
8.9181969253
 30
0.0
 10
13.1517808182
 20
8.9284910362
 30
0.0
 10
13.1572634884
 20
8.9429712767
 30
0.0
 10
13.1639516377
 20
8.9620459626
 30
0.0
 10
13.1716121558
 20
8.9860987606
 30
0.0
 10
13.1789948935
 20
9.0115589347
 30
0.0
 10
13.1860733691
 20
9.0383360351
 30
0.0
 10
13.1928221573
 20
9.0663351252
 30
0.0
 10
13.1992170423
 20
9.095456725
 30
0.0
 10
13.2052350882
 20
9.1255973129
 30
0.0
 10
13.2108547252
 20
9.1566496773
 30
0.0
 10
13.2160558232
 20
9.188503321
 30
0.0
 10
13.2208197625
 20
9.2210448619
 30
0.0
 10
13.2251294987
 20
9.2541584451
 30
0.0
 10
13.2289696214
 20
9.2877261605
 30
0.0
 10
13.2323264102
 20
9.3216284696
 30
0.0
 10
13.2351878777
 20
9.3557446272
 30
0.0
 10
13.237543824
 20
9.3899531403
 30
0.0
 10
13.2393858462
 20
9.4241321294
 30
0.0
 10
13.2407074204
 20
9.4581599612
 30
0.0
 10
13.2415038403
 20
9.4919152469
 30
0.0
 10
13.2416841225
 20
9.5143157214
 30
0.0
 10
13.2416841225
 20
9.5254488072
 30
0.0
  0
SPLINE
  5
37E
100
AcDbEntity
  8
0
100
AcDbSpline
 62
7
  6
CONTINUOUS
 70
0
 71
3
 72
31
 73
27
 74
0
 42
0.0000001
 43
0.0000001
 44
0.0000000001
 40
0.0
 40
0.0
 40
0.0
 40
0.0
 40
0.0183316733
 40
0.0378713458
 40
0.058611169
 40
0.0805360484
 40
0.1036248068
 40
0.1278510914
 40
0.1531839134
 40
0.1795881621
 40
0.2070251516
 40
0.2354529163
 40
0.2648264341
 40
0.2950980177
 40
0.326217539
 40
0.3581325425
 40
0.3907885282
 40
0.4241291658
 40
0.4926292322
 40
0.5631524325
 40
0.6351977139
 40
0.7082498669
 40
0.7817843906
 40
0.8552723988
 40
0.928184918
 40
1.0
 40
1.0
 40
1.0
 40
1.0
 10
12.9829448007
 20
8.9012124115
 30
0.0
 10
12.9850179112
 20
8.9045325608
 30
0.0
 10
12.9891345848
 20
8.9114963004
 30
0.0
 10
12.995056019
 20
8.9225248482
 30
0.0
 10
13.000910241
 20
8.9344501055
 30
0.0
 10
13.0066859529
 20
8.9472493234
 30
0.0
 10
13.0123721755
 20
8.9608984346
 30
0.0
 10
13.0179579517
 20
8.9753715456
 30
0.0
 10
13.0234325369
 20
8.9906411406
 30
0.0
 10
13.0287854089
 20
9.0066780994
 30
0.0
 10
13.0340062397
 20
9.0234518115
 30
0.0
 10
13.0390849463
 20
9.0409302203
 30
0.0
 10
13.0440117655
 20
9.0590798749
 30
0.0
 10
13.0487771992
 20
9.0778660264
 30
0.0
 10
13.0533720432
 20
9.0972526995
 30
0.0
 10
13.0577874514
 20
9.117202731
 30
0.0
 10
13.062014972
 20
9.137677903
 30
0.0
 10
13.0674389028
 20
9.1658798862
 30
0.0
 10
13.0736752819
 20
9.2021556514
 30
0.0
 10
13.0802258505
 20
9.2467491051
 30
0.0
 10
13.0858582283
 20
9.2924472275
 30
0.0
 10
13.0905289326
 20
9.3388996955
 30
0.0
 10
13.0942020027
 20
9.385750602
 30
0.0
 10
13.0968491958
 20
9.4326408684
 30
0.0
 10
13.098450336
 20
9.4792109592
 30
0.0
 10
13.0988160096
 20
9.5101146513
 30
0.0
 10
13.0988160096
 20
9.525448799
 30
0.0
  0
SPLINE
  5
37F
100
AcDbEntity
  8
0
100
AcDbSpline
 62
7
  6
CONTINUOUS
 70
0
 71
3
 72
15
 73
11
 74
0
 42
0.0000001
 43
0.0000001
 44
0.0000000001
 40
0.0
 40
0.0
 40
0.0
 40
0.0
 40
0.1268939865
 40
0.2531828769
 40
0.3788863967
 40
0.5040324877
 40
0.6286616275
 40
0.7528244117
 40
0.8765810151
 40
1.0
 40
1.0
 40
1.0
 40
1.0
 10
8.6241655001
 20
9.4402680515
 30
0.0
 10
8.6241655001
 20
9.4576397955
 30
0.0
 10
8.6253621054
 20
9.4923127823
 30
0.0
 10
8.6307690462
 20
9.5439404173
 30
0.0
 10
8.6397581172
 20
9.5948263951
 30
0.0
 10
8.6522870313
 20
9.6447240735
 30
0.0
 10
8.6682960711
 20
9.6933949919
 30
0.0
 10
8.6877096054
 20
9.7406065384
 30
0.0
 10
8.7104330149
 20
9.7861294336
 30
0.0
 10
8.7277411968
 20
9.8152480814
 30
0.0
 10
8.7369036656
 20
9.8294440165
 30
0.0
  0
SPLINE
  5
380
100
AcDbEntity
  8
0
100
AcDbSpline
 62
7
  6
CONTINUOUS
 70
0
 71
3
 72
27
 73
23
 74
0
 42
0.0000001
 43
0.0000001
 44
0.0000000001
 40
0.0
 40
0.0
 40
0.0
 40
0.0
 40
0.022567109
 40
0.0460300346
 40
0.0703660934
 40
0.0955501845
 40
0.1215553876
 40
0.1483527307
 40
0.1759116612
 40
0.2041999826
 40
0.2628275661
 40
0.3239520019
 40
0.3872698045
 40
0.4524617766
 40
0.5191956634
 40
0.587128683
 40
0.655909986
 40
0.7251830989
 40
0.7945882235
 40
0.8637650032
 40
0.9323535672
 40
1.0
 40
1.0
 40
1.0
 40
1.0
 10
12.9606728302
 20
8.9994313197
 30
0.0
 10
12.962166485
 20
9.0030963002
 30
0.0
 10
12.9651258387
 20
9.010607549
 30
0.0
 10
12.9694062291
 20
9.0221825736
 30
0.0
 10
12.9736097515
 20
9.034272709
 30
0.0
 10
12.9777306206
 20
9.0468611724
 30
0.0
 10
12.9817630354
 20
9.0599306137
 30
0.0
 10
12.9857014431
 20
9.0734629508
 30
0.0
 10
12.9895403659
 20
9.0874394918
 30
0.0
 10
12.9945791372
 20
9.1068732619
 30
0.0
 10
13.0005747653
 20
9.132137113
 30
0.0
 10
13.0072096027
 20
9.163552569
 30
0.0
 10
13.0133302882
 20
9.1962440393
 30
0.0
 10
13.0189026637
 20
9.230030584
 30
0.0
 10
13.0238956097
 20
9.2647253686
 30
0.0
 10
13.0282812904
 20
9.3001363767
 30
0.0
 10
13.0320352865
 20
9.3360675961
 30
0.0
 10
13.0351367202
 20
9.3723200885
 30
0.0
 10
13.0375683902
 20
9.4086931452
 30
0.0
 10
13.0393168111
 20
9.4449853126
 30
0.0
 10
13.0403723969
 20
9.4809955794
 30
0.0
 10
13.0406124525
 20
9.5048881297
 30
0.0
 10
13.0406124525
 20
9.5167514882
 30
0.0
  0
SPLINE
  5
381
100
AcDbEntity
  8
0
100
AcDbSpline
 62
7
  6
CONTINUOUS
 70
0
 71
3
 72
39
 73
35
 74
0
 42
0.0000001
 43
0.0000001
 44
0.0000000001
 40
0.0
 40
0.0
 40
0.0
 40
0.0
 40
0.030641764
 40
0.0613936365
 40
0.0922526646
 40
0.1232167908
 40
0.1542816727
 40
0.1854424001
 40
0.2166929295
 40
0.2480263444
 40
0.2794348858
 40
0.3109100442
 40
0.3424426501
 40
0.3740229665
 40
0.4056407877
 40
0.4372855407
 40
0.4689463886
 40
0.5006123379
 40
0.5322723456
 40
0.5639154273
 40
0.5955307638
 40
0.6271078065
 40
0.6586363813
 40
0.6901067896
 40
0.7215099077
 40
0.7528372811
 40
0.7840812134
 40
0.8152348489
 40
0.8462922491
 40
0.8772484612
 40
0.9080995782
 40
0.9388427916
 40
0.9694764322
 40
1.0
 40
1.0
 40
1.0
 40
1.0
 10
9.2420179288
 20
9.8810677045
 30
0.0
 10
9.2420179288
 20
9.8705860669
 30
0.0
 10
9.24256426
 20
9.849581139
 30
0.0
 10
9.2450099942
 20
9.8181059358
 30
0.0
 10
9.2490770092
 20
9.7866869835
 30
0.0
 10
9.2547539929
 20
9.7554102373
 30
0.0
 10
9.2620257687
 20
9.7243594446
 30
0.0
 10
9.2708725801
 20
9.6936183711
 30
0.0
 10
9.2812705856
 20
9.6632697412
 30
0.0
 10
9.2931917196
 20
9.6333952759
 30
0.0
 10
9.3066038259
 20
9.6040753947
 30
0.0
 10
9.3214707388
 20
9.5753890222
 30
0.0
 10
9.3377523884
 20
9.5474133751
 30
0.0
 10
9.3554049074
 20
9.5202237568
 30
0.0
 10
9.3743807478
 20
9.4938933569
 30
0.0
 10
9.3946288082
 20
9.4684930553
 30
0.0
 10
9.4160945719
 20
9.4440912352
 30
0.0
 10
9.4387202369
 20
9.4207535851
 30
0.0
 10
9.4624448837
 20
9.3985429305
 30
0.0
 10
9.4872046427
 20
9.3775190704
 30
0.0
 10
9.5129328635
 20
9.3577386163
 30
0.0
 10
9.5395602932
 20
9.339254842
 30
0.0
 10
9.5670152603
 20
9.3221175398
 30
0.0
 10
9.5952238678
 20
9.306372891
 30
0.0
 10
9.624110181
 20
9.2920633231
 30
0.0
 10
9.6535964379
 20
9.279227403
 30
0.0
 10
9.6836032606
 20
9.2678997424
 30
0.0
 10
9.7140498682
 20
9.2581109028
 30
0.0
 10
9.744854283
 20
9.2498873135
 30
0.0
 10
9.7759335835
 20
9.2432512
 30
0.0
 10
9.8072039944
 20
9.238220524
 30
0.0
 10
9.8385815993
 20
9.2348089266
 30
0.0
 10
9.8699807427
 20
9.233025653
 30
0.0
 10
9.8909117905
 20
9.2329254976
 30
0.0
 10
9.9013506017
 20
9.2331491284
 30
0.0
  0
SPLINE
  5
382
100
AcDbEntity
  8
0
100
AcDbSpline
 62
7
  6
CONTINUOUS
 70
0
 71
3
 72
47
 73
43
 74
0
 42
0.0000001
 43
0.0000001
 44
0.0000000001
 40
0.0
 40
0.0
 40
0.0
 40
0.0
 40
0.0063158891
 40
0.012670693
 40
0.0191025391
 40
0.0256481111
 40
0.0323420145
 40
0.0392163779
 40
0.0536142747
 40
0.0611950254
 40
0.0690568328
 40
0.0772179734
 40
0.0856944045
 40
0.0944998522
 40
0.1036459935
 40
0.1131428211
 40
0.1229986303
 40
0.1332202822
 40
0.1438134448
 40
0.1547825085
 40
0.1661308998
 40
0.1899733285
 40
0.2153528849
 40
0.2422687961
 40
0.2707111428
 40
0.3006622203
 40
0.3320975591
 40
0.3649868908
 40
0.3992948428
 40
0.43498141
 40
0.4720024243
 40
0.5103100179
 40
0.5498529293
 40
0.590576713
 40
0.6324240653
 40
0.675335092
 40
0.7192474692
 40
0.7640965597
 40
0.8098158789
 40
0.8563369465
 40
0.9035890751
 40
1.0
 40
1.0
 40
1.0
 40
1.0
 10
13.8587455923
 20
10.8406210945
 30
0.0
 10
13.8601095705
 20
10.8405264947
 30
0.0
 10
13.8628394828
 20
10.8402250405
 30
0.0
 10
13.8669037489
 20
10.8394393349
 30
0.0
 10
13.8709408683
 20
10.8383202033
 30
0.0
 10
13.8749484347
 20
10.836868389
 30
0.0
 10
13.8789249098
 20
10.835084844
 30
0.0
 10
13.8842642687
 20
10.8322226471
 30
0.0
 10
13.8894585885
 20
10.8287188297
 30
0.0
 10
13.8944854108
 20
10.8246585204
 30
0.0
 10
13.8982823123
 20
10.8212351555
 30
0.0
 10
13.9020387181
 20
10.8174883363
 30
0.0
 10
13.9057536104
 20
10.8134193175
 30
0.0
 10
13.9094254834
 20
10.8090298758
 30
0.0
 10
13.9130530422
 20
10.8043218311
 30
0.0
 10
13.916634813
 20
10.7992970543
 30
0.0
 10
13.9201694451
 20
10.7939576121
 30
0.0
 10
13.9236555774
 20
10.7883056788
 30
0.0
 10
13.9270917442
 20
10.7823435112
 30
0.0
 10
13.9304766838
 20
10.7760735529
 30
0.0
 10
13.934994216
 20
10.7671593356
 30
0.0
 10
13.9404877767
 20
10.755247861
 30
0.0
 10
13.9467496643
 20
10.7399969589
 30
0.0
 10
13.9527753328
 20
10.7235865106
 30
0.0
 10
13.9585549008
 20
10.7060432762
 30
0.0
 10
13.9640788638
 20
10.6873955649
 30
0.0
 10
13.9693381086
 20
10.6676737737
 30
0.0
 10
13.9743239106
 20
10.6469101096
 30
0.0
 10
13.9790279606
 20
10.6251385665
 30
0.0
 10
13.9834424298
 20
10.602394864
 30
0.0
 10
13.9875599819
 20
10.5787163769
 30
0.0
 10
13.9913737513
 20
10.5541420434
 30
0.0
 10
13.9948773632
 20
10.5287123033
 30
0.0
 10
13.9980649947
 20
10.5024690406
 30
0.0
 10
14.0009313407
 20
10.4754554982
 30
0.0
 10
14.0034716134
 20
10.4477161913
 30
0.0
 10
14.0056815661
 20
10.4192968584
 30
0.0
 10
14.0075575414
 20
10.3902443468
 30
0.0
 10
14.0090963934
 20
10.3606065898
 30
0.0
 10
14.0102955657
 20
10.3304324957
 30
0.0
 10
14.0114464463
 20
10.2892771374
 30
0.0
 10
14.0117802913
 20
10.2581755297
 30
0.0
 10
14.0117802913
 20
10.2373046287
 30
0.0
  0
SPLINE
  5
383
100
AcDbEntity
  8
0
100
AcDbSpline
 62
7
  6
CONTINUOUS
 70
0
 71
3
 72
37
 73
33
 74
0
 42
0.0000001
 43
0.0000001
 44
0.0000000001
 40
0.0
 40
0.0
 40
0.0
 40
0.0
 40
0.0064163849
 40
0.0129887143
 40
0.0266959591
 40
0.041308292
 40
0.0569690587
 40
0.0737893752
 40
0.0918529083
 40
0.1112205941
 40
0.1319350554
 40
0.1540240068
 40
0.1775028764
 40
0.2023771478
 40
0.2286439529
 40
0.2562932269
 40
0.2853089181
 40
0.3156697194
 40
0.3473495673
 40
0.3803183506
 40
0.4145422753
 40
0.4499840857
 40
0.4866035436
 40
0.5243576375
 40
0.563200686
 40
0.6030846998
 40
0.6439595249
 40
0.6857729123
 40
0.7284707696
 40
0.8162937725
 40
0.9069649175
 40
1.0
 40
1.0
 40
1.0
 40
1.0
 10
13.8431225462
 20
10.8393170102
 30
0.0
 10
13.8443871451
 20
10.8388293973
 30
0.0
 10
13.8469128413
 20
10.837750999
 30
0.0
 10
13.8519413876
 20
10.8351914902
 30
0.0
 10
13.858171409
 20
10.8312159724
 30
0.0
 10
13.8654003509
 20
10.8253546089
 30
0.0
 10
13.8724818912
 20
10.8183481389
 30
0.0
 10
13.8794084234
 20
10.8102085011
 30
0.0
 10
13.8861732954
 20
10.8009473066
 30
0.0
 10
13.8927687912
 20
10.7905774289
 30
0.0
 10
13.8991867525
 20
10.7791130311
 30
0.0
 10
13.9054186923
 20
10.7665699146
 30
0.0
 10
13.9114561308
 20
10.7529655988
 30
0.0
 10
13.9172905499
 20
10.7383192426
 30
0.0
 10
13.9229135664
 20
10.7226516551
 30
0.0
 10
13.9283170916
 20
10.7059852766
 30
0.0
 10
13.9334932316
 20
10.6883440722
 30
0.0
 10
13.9384343774
 20
10.6697535054
 30
0.0
 10
13.9431333186
 20
10.6502405065
 30
0.0
 10
13.9475831306
 20
10.6298333849
 30
0.0
 10
13.9517772333
 20
10.6085617922
 30
0.0
 10
13.955709488
 20
10.5864566873
 30
0.0
 10
13.9593740905
 20
10.5635502609
 30
0.0
 10
13.9627656124
 20
10.5398758908
 30
0.0
 10
13.9658790906
 20
10.5154681033
 30
0.0
 10
13.9687099318
 20
10.4903624997
 30
0.0
 10
13.9712539263
 20
10.4645957185
 30
0.0
 10
13.9735073984
 20
10.4382053359
 30
0.0
 10
13.9761447593
 20
10.4018975441
 30
0.0
 10
13.9786722198
 20
10.3552381388
 30
0.0
 10
13.9804782053
 20
10.2979064457
 30
0.0
 10
13.9808706623
 20
10.259100283
 30
0.0
 10
13.9808706623
 20
10.2394482188
 30
0.0
  0
SPLINE
  5
384
100
AcDbEntity
  8
0
100
AcDbSpline
 62
7
  6
CONTINUOUS
 70
0
 71
3
 72
37
 73
33
 74
0
 42
0.0000001
 43
0.0000001
 44
0.0000000001
 40
0.0
 40
0.0
 40
0.0
 40
0.0
 40
0.0306184205
 40
0.0613441469
 40
0.0921733033
 40
0.1231047474
 40
0.1541343129
 40
0.1852575151
 40
0.2164688633
 40
0.2477620047
 40
0.2791298382
 40
0.3105645467
 40
0.3420576881
 40
0.3736002787
 40
0.4051828799
 40
0.4367956841
 40
0.5000539163
 40
0.5633100866
 40
0.5949203349
 40
0.6264993908
 40
0.6580374781
 40
0.6895251998
 40
0.7209536242
 40
0.7523143676
 40
0.7835996803
 40
0.8148025259
 40
0.8459166508
 40
0.8769366471
 40
0.9078580128
 40
0.938677209
 40
0.9693917028
 40
1.0
 40
1.0
 40
1.0
 40
1.0
 10
9.3689009668
 20
9.8776273151
 30
0.0
 10
9.3689009668
 20
9.8695121403
 30
0.0
 10
9.3693109804
 20
9.8532504481
 30
0.0
 10
9.3711466455
 20
9.8288800685
 30
0.0
 10
9.3741996626
 20
9.8045479378
 30
0.0
 10
9.3784618971
 20
9.7803167671
 30
0.0
 10
9.3839227536
 20
9.7562474087
 30
0.0
 10
9.3905682811
 20
9.7324009337
 30
0.0
 10
9.3983816005
 20
9.708837633
 30
0.0
 10
9.4073428966
 20
9.685617129
 30
0.0
 10
9.4174294585
 20
9.6627981655
 30
0.0
 10
9.4286157564
 20
9.6404384948
 30
0.0
 10
9.4408734738
 20
9.6185946431
 30
0.0
 10
9.4541714327
 20
9.5973219865
 30
0.0
 10
9.4684764148
 20
9.5766738524
 30
0.0
 10
9.4888444975
 20
9.550044427
 30
0.0
 10
9.5166317156
 20
9.5185823515
 30
0.0
 10
9.5472459007
 20
9.4898646352
 30
0.0
 10
9.5732510959
 20
9.4687087827
 30
0.0
 10
9.5934590111
 20
9.4537931168
 30
0.0
 10
9.6143208098
 20
9.4398658739
 30
0.0
 10
9.6357841884
 20
9.4269618462
 30
0.0
 10
9.6577947311
 20
9.4151138351
 30
0.0
 10
9.680296806
 20
9.4043518461
 30
0.0
 10
9.7032334678
 20
9.3947031376
 30
0.0
 10
9.7265466847
 20
9.3861921393
 30
0.0
 10
9.7501774698
 20
9.3788404308
 30
0.0
 10
9.7740660532
 20
9.3726666791
 30
0.0
 10
9.79815193
 20
9.3676865909
 30
0.0
 10
9.8223743559
 20
9.3639127824
 30
0.0
 10
9.8466712084
 20
9.3613548936
 30
0.0
 10
9.8629079389
 20
9.3604629582
 30
0.0
 10
9.8710168645
 20
9.360222447
 30
0.0
  0
SPLINE
  5
385
100
AcDbEntity
  8
0
100
AcDbSpline
 62
7
  6
CONTINUOUS
 70
0
 71
3
 72
51
 73
47
 74
0
 42
0.0000001
 43
0.0000001
 44
0.0000000001
 40
0.0
 40
0.0
 40
0.0
 40
0.0
 40
0.0055341477
 40
0.0112762866
 40
0.0172697191
 40
0.0235517808
 40
0.0301541704
 40
0.0371032198
 40
0.0444206364
 40
0.0521238798
 40
0.0602269332
 40
0.068740577
 40
0.0776730507
 40
0.0870301981
 40
0.096815996
 40
0.1070326071
 40
0.1176807885
 40
0.1287598968
 40
0.1402681926
 40
0.1522028336
 40
0.1645600881
 40
0.1773353412
 40
0.1905232271
 40
0.2041176633
 40
0.2181119119
 40
0.2324986471
 40
0.2624167643
 40
0.2938035224
 40
0.3265822755
 40
0.3606698582
 40
0.3959773041
 40
0.4324104759
 40
0.4698706334
 40
0.5082549576
 40
0.5474570454
 40
0.5873673816
 40
0.6278737969
 40
0.6688619148
 40
0.7102155924
 40
0.7518173537
 40
0.7935488285
 40
0.8352911623
 40
0.8769255063
 40
0.9183332814
 40
0.959397011
 40
1.0
 40
1.0
 40
1.0
 40
1.0
 10
13.7318884308
 20
9.2339598491
 30
0.0
 10
13.7338013903
 20
9.2344104391
 30
0.0
 10
13.7376541891
 20
9.2355299549
 30
0.0
 10
13.7433623338
 20
9.2377943495
 30
0.0
 10
13.7490879858
 20
9.2406674701
 30
0.0
 10
13.7548266306
 20
9.244145609
 30
0.0
 10
13.7605747773
 20
9.2482255573
 30
0.0
 10
13.7663288816
 20
9.252903602
 30
0.0
 10
13.7720851443
 20
9.258176147
 30
0.0
 10
13.777839905
 20
9.2640390331
 30
0.0
 10
13.7835891139
 20
9.2704879985
 30
0.0
 10
13.7893288972
 20
9.2775181753
 30
0.0
 10
13.7950550306
 20
9.2851244606
 30
0.0
 10
13.8007634868
 20
9.2933011607
 30
0.0
 10
13.8064499585
 20
9.3020422731
 30
0.0
 10
13.8121103329
 20
9.3113412453
 30
0.0
 10
13.8177402902
 20
9.3211911758
 30
0.0
 10
13.8233356832
 20
9.3315846588
 30
0.0
 10
13.8288922272
 20
9.3425139175
 30
0.0
 10
13.8344057769
 20
9.3539707136
 30
0.0
 10
13.8398721143
 20
9.3659464276
 30
0.0
 10
13.8452871223
 20
9.3784320146
 30
0.0
 10
13.8506466736
 20
9.3914180487
 30
0.0
 10
13.8559466919
 20
9.4048947049
 30
0.0
 10
13.8611831913
 20
9.4188517985
 30
0.0
 10
13.8681663238
 20
9.4383426753
 30
0.0
 10
13.8766898991
 20
9.4638391927
 30
0.0
 10
13.8864743446
 20
9.4957890828
 30
0.0
 10
13.8959138682
 20
9.5293830641
 30
0.0
 10
13.9049796222
 20
9.5645192986
 30
0.0
 10
13.9136438844
 20
9.6010914741
 30
0.0
 10
13.9218801794
 20
9.6389887517
 30
0.0
 10
13.9296633494
 20
9.6780962352
 30
0.0
 10
13.9369696328
 20
9.7182953006
 30
0.0
 10
13.9437767346
 20
9.7594639769
 30
0.0
 10
13.9500638926
 20
9.8014773206
 30
0.0
 10
13.9558119394
 20
9.8442078028
 30
0.0
 10
13.9610033599
 20
9.8875257009
 30
0.0
 10
13.9656223427
 20
9.9312994957
 30
0.0
 10
13.9696548294
 20
9.9753962767
 30
0.0
 10
13.9730885527
 20
10.0196821413
 30
0.0
 10
13.9759130823
 20
10.0640226243
 30
0.0
 10
13.9781198384
 20
10.1082830501
 30
0.0
 10
13.9797021526
 20
10.1523291036
 30
0.0
 10
13.9806552317
 20
10.1960268541
 30
0.0
 10
13.9808706623
 20
10.2250291098
 30
0.0
 10
13.9808706623
 20
10.2394482188
 30
0.0
  0
SPLINE
  5
386
100
AcDbEntity
  8
0
100
AcDbSpline
 62
7
  6
CONTINUOUS
 70
0
 71
3
 72
37
 73
33
 74
0
 42
0.0000001
 43
0.0000001
 44
0.0000000001
 40
0.0
 40
0.0
 40
0.0
 40
0.0
 40
0.0306365143
 40
0.061382443
 40
0.0922345686
 40
0.1231910988
 40
0.1542477143
 40
0.1853996298
 40
0.2166409381
 40
0.2479648689
 40
0.2793638325
 40
0.3108294983
 40
0.3423528855
 40
0.373924451
 40
0.4055341844
 40
0.4371717065
 40
0.5004690859
 40
0.5637483548
 40
0.5953634195
 40
0.6269420131
 40
0.658474058
 40
0.6899499273
 40
0.7213605402
 40
0.7526974529
 40
0.783952945
 40
0.815120103
 40
0.8461928965
 40
0.8771662462
 40
0.9080360836
 40
0.9387994017
 40
0.9694542965
 40
1.0
 40
1.0
 40
1.0
 40
1.0
 10
9.2665128231
 20
9.884727957
 30
0.0
 10
9.2665128231
 20
9.8746600533
 30
0.0
 10
9.2670335119
 20
9.8544845185
 30
0.0
 10
9.2693645074
 20
9.8242512537
 30
0.0
 10
9.2732408881
 20
9.7940703212
 30
0.0
 10
9.2786519761
 20
9.7640230683
 30
0.0
 10
9.2855835715
 20
9.7341886629
 30
0.0
 10
9.2940171236
 20
9.7046463655
 30
0.0
 10
9.303930268
 20
9.6754744478
 30
0.0
 10
9.3152966404
 20
9.6467502451
 30
0.0
 10
9.3280860529
 20
9.6185498813
 30
0.0
 10
9.3422645443
 20
9.5909481079
 30
0.0
 10
9.3577945371
 20
9.5640180326
 30
0.0
 10
9.3746346834
 20
9.5378311953
 30
0.0
 10
9.3927409249
 20
9.5124563885
 30
0.0
 10
9.4185055146
 20
9.4797965121
 30
0.0
 10
9.4536232869
 20
9.4413400641
 30
0.0
 10
9.492264217
 20
9.4064362128
 30
0.0
 10
9.5250471776
 20
9.3808666489
 30
0.0
 10
9.550497973
 20
9.3629203655
 30
0.0
 10
9.5767477319
 20
9.3462507159
 30
0.0
 10
9.6037275065
 20
9.3309013252
 30
0.0
 10
9.6313656301
 20
9.3169130741
 30
0.0
 10
9.6595889011
 20
9.304323049
 30
0.0
 10
9.6883225099
 20
9.2931647017
 30
0.0
 10
9.7174902977
 20
9.283467665
 30
0.0
 10
9.7470149364
 20
9.2752576966
 30
0.0
 10
9.7768181775
 20
9.2685566274
 30
0.0
 10
9.8068209281
 20
9.2633822971
 30
0.0
 10
9.8369439224
 20
9.2597485193
 30
0.0
 10
9.8671062072
 20
9.2576649984
 30
0.0
 10
9.8872257115
 20
9.257312682
 30
0.0
 10
9.8972634149
 20
9.2573974171
 30
0.0
  0
SPLINE
  5
387
100
AcDbEntity
  8
0
100
AcDbSpline
 62
7
  6
CONTINUOUS
 70
0
 71
3
 72
41
 73
37
 74
0
 42
0.0000001
 43
0.0000001
 44
0.0000000001
 40
0.0
 40
0.0
 40
0.0
 40
0.0
 40
0.0066707121
 40
0.0132434347
 40
0.0197612865
 40
0.0262686057
 40
0.032809948
 40
0.0394291401
 40
0.0461683326
 40
0.0530672496
 40
0.067479409
 40
0.0829298963
 40
0.099618566
 40
0.117696265
 40
0.1372726252
 40
0.1584242946
 40
0.1812017998
 40
0.2056347505
 40
0.2317362129
 40
0.2595058864
 40
0.2889322107
 40
0.3199943284
 40
0.3526635406
 40
0.3869041303
 40
0.4226743147
 40
0.459927048
 40
0.4986103719
 40
0.5386679255
 40
0.5800394944
 40
0.6226611979
 40
0.6664658028
 40
0.7113831167
 40
0.7573401484
 40
0.8042615575
 40
0.9006811535
 40
1.0
 40
1.0
 40
1.0
 40
1.0
 10
13.8017674235
 20
10.6106340927
 30
0.0
 10
13.8027974557
 20
10.6108443552
 30
0.0
 10
13.8048599912
 20
10.6111809671
 30
0.0
 10
13.8079681045
 20
10.611426508
 30
0.0
 10
13.8110603933
 20
10.6114076294
 30
0.0
 10
13.8141347236
 20
10.611124257
 30
0.0
 10
13.8171893245
 20
10.6105766706
 30
0.0
 10
13.8202223313
 20
10.6097652303
 30
0.0
 10
13.8232321797
 20
10.6086906074
 30
0.0
 10
13.8272702371
 20
10.6068823711
 30
0.0
 10
13.832275228
 20
10.6039228649
 30
0.0
 10
13.8380634945
 20
10.5993876623
 30
0.0
 10
13.8437179993
 20
10.5938303648
 30
0.0
 10
13.8492320882
 20
10.5872631955
 30
0.0
 10
13.8545999471
 20
10.5796978806
 30
0.0
 10
13.8598141956
 20
10.5711472759
 30
0.0
 10
13.8648668803
 20
10.5616257909
 30
0.0
 10
13.8697497369
 20
10.5511497639
 30
0.0
 10
13.8744543602
 20
10.5397374142
 30
0.0
 10
13.8789723609
 20
10.5274088393
 30
0.0
 10
13.8832956201
 20
10.5141860094
 30
0.0
 10
13.8874162647
 20
10.500092653
 30
0.0
 10
13.8913266901
 20
10.4851541794
 30
0.0
 10
13.8950197103
 20
10.4693976477
 30
0.0
 10
13.898488526
 20
10.4528516775
 30
0.0
 10
13.901726691
 20
10.4355463681
 30
0.0
 10
13.9047282211
 20
10.4175132575
 30
0.0
 10
13.9074875876
 20
10.3987852502
 30
0.0
 10
13.9099996586
 20
10.3793965354
 30
0.0
 10
13.9122597802
 20
10.359382533
 30
0.0
 10
13.9142637993
 20
10.3387798281
 30
0.0
 10
13.9160079786
 20
10.3176261019
 30
0.0
 10
13.9174891204
 20
10.2959599895
 30
0.0
 10
13.9191242479
 20
10.266171564
 30
0.0
 10
13.9204760595
 20
10.227949173
 30
0.0
 10
13.9208246934
 20
10.1971004602
 30
0.0
 10
13.9208246934
 20
10.1814482632
 30
0.0
  0
SPLINE
  5
388
100
AcDbEntity
  8
0
100
AcDbSpline
 62
7
  6
CONTINUOUS
 70
0
 71
3
 72
26
 73
22
 74
0
 42
0.0000001
 43
0.0000001
 44
0.0000000001
 40
0.0
 40
0.0
 40
0.0
 40
0.0
 40
0.0201857864
 40
0.0411992638
 40
0.0630391299
 40
0.0857017841
 40
0.1091820222
 40
0.1334726062
 40
0.1844473103
 40
0.238542915
 40
0.2956548841
 40
0.3556621286
 40
0.4184290846
 40
0.4838073905
 40
0.55163729
 40
0.6217488503
 40
0.6939629338
 40
0.7680927382
 40
0.843942902
 40
0.9213151877
 40
1.0
 40
1.0
 40
1.0
 40
1.0
 10
13.7294781865
 20
10.5287224659
 30
0.0
 10
13.7304447859
 20
10.5265552205
 30
0.0
 10
13.7323524527
 20
10.5221025623
 30
0.0
 10
13.7350887992
 20
10.5152145875
 30
0.0
 10
13.737755567
 20
10.5079881901
 30
0.0
 10
13.7403508628
 20
10.5004286345
 30
0.0
 10
13.7428727706
 20
10.4925412908
 30
0.0
 10
13.7461884917
 20
10.4814157712
 30
0.0
 10
13.7501203494
 20
10.4667216943
 30
0.0
 10
13.7544461129
 20
10.4481499061
 30
0.0
 10
13.7584393404
 20
10.4284194304
 30
0.0
 10
13.7620883452
 20
10.4075870889
 30
0.0
 10
13.7653823809
 20
10.3857126875
 30
0.0
 10
13.7683117586
 20
10.3628592331
 30
0.0
 10
13.7708678566
 20
10.3390926062
 30
0.0
 10
13.7730431529
 20
10.3144814013
 30
0.0
 10
13.7748312593
 20
10.2890966522
 30
0.0
 10
13.7762268797
 20
10.2630117849
 30
0.0
 10
13.7772259528
 20
10.2363019551
 30
0.0
 10
13.7778254425
 20
10.2090446759
 30
0.0
 10
13.7779565805
 20
10.190698395
 30
0.0
 10
13.7779565805
 20
10.181448255
 30
0.0
  0
SPLINE
  5
389
100
AcDbEntity
  8
0
100
AcDbSpline
 62
7
  6
CONTINUOUS
 70
0
 71
3
 72
23
 73
19
 74
0
 42
0.0000001
 43
0.0000001
 44
0.0000000001
 40
0.0
 40
0.0
 40
0.0
 40
0.0
 40
0.0636927421
 40
0.1271992643
 40
0.1905166964
 40
0.2536515655
 40
0.3166079154
 40
0.3793919885
 40
0.4420114712
 40
0.5044751376
 40
0.5667930496
 40
0.6289764101
 40
0.6910374828
 40
0.7529895024
 40
0.8148465758
 40
0.8766235804
 40
0.9383360408
 40
1.0
 40
1.0
 40
1.0
 40
1.0
 10
8.6695640167
 20
9.4371196537
 30
0.0
 10
8.6695640167
 20
9.4472507764
 30
0.0
 10
8.6699972954
 20
9.4674861342
 30
0.0
 10
8.6719522894
 20
9.4977360769
 30
0.0
 10
8.6752082222
 20
9.5277851681
 30
0.0
 10
8.6797588261
 20
9.5575770181
 30
0.0
 10
8.6855960048
 20
9.587057364
 30
0.0
 10
8.6927089678
 20
9.6161718388
 30
0.0
 10
8.7010846535
 20
9.6448669306
 30
0.0
 10
8.7107077616
 20
9.6730898495
 30
0.0
 10
8.7215606354
 20
9.7007886652
 30
0.0
 10
8.7336233002
 20
9.7279124417
 30
0.0
 10
8.7468735997
 20
9.7544112747
 30
0.0
 10
8.7612872481
 20
9.7802363915
 30
0.0
 10
8.7768377029
 20
9.8053402299
 30
0.0
 10
8.7934964873
 20
9.829676779
 30
0.0
 10
8.8112324281
 20
9.8532006498
 30
0.0
 10
8.8237579579
 20
9.8683186559
 30
0.0
 10
8.8301874016
 20
9.8757259056
 30
0.0
  0
SPLINE
  5
38A
100
AcDbEntity
  8
0
100
AcDbSpline
 62
7
  6
CONTINUOUS
 70
0
 71
3
 72
20
 73
16
 74
0
 42
0.0000001
 43
0.0000001
 44
0.0000000001
 40
0.0
 40
0.0
 40
0.0
 40
0.0
 40
0.0492313465
 40
0.1005884546
 40
0.1540114309
 40
0.2094342779
 40
0.2667850843
 40
0.3259871275
 40
0.3869588162
 40
0.4496142372
 40
0.513863735
 40
0.5796136568
 40
0.7152227386
 40
0.8556336099
 40
1.0
 40
1.0
 40
1.0
 40
1.0
 10
13.6938317106
 20
10.4346090552
 30
0.0
 10
13.6948967764
 20
10.4304139151
 30
0.0
 10
13.6969634672
 20
10.4218144122
 30
0.0
 10
13.6998254475
 20
10.4085792121
 30
0.0
 10
13.7025113036
 20
10.3947522508
 30
0.0
 10
13.7050164894
 20
10.38035638
 30
0.0
 10
13.7073368933
 20
10.3654152704
 30
0.0
 10
13.7094685949
 20
10.3499535483
 30
0.0
 10
13.7114080521
 20
10.3339966987
 30
0.0
 10
13.7131520487
 20
10.3175710463
 30
0.0
 10
13.7146976548
 20
10.3007036708
 30
0.0
 10
13.7165090707
 20
10.2774221607
 30
0.0
 10
13.7182445374
 20
10.2474216653
 30
0.0
 10
13.7194840408
 20
10.2104806008
 30
0.0
 10
13.7197530234
 20
10.1854430767
 30
0.0
 10
13.7197530234
 20
10.1727509442
 30
0.0
  0
SPLINE
  5
38B
100
AcDbEntity
  8
0
100
AcDbSpline
 62
7
  6
CONTINUOUS
 70
0
 71
3
 72
52
 73
48
 74
0
 42
0.0000001
 43
0.0000001
 44
0.0000000001
 40
0.0
 40
0.0
 40
0.0
 40
0.0
 40
0.0056188401
 40
0.0111420706
 40
0.0166418959
 40
0.0221915105
 40
0.0278619902
 40
0.0337196418
 40
0.0398239862
 40
0.0462269223
 40
0.0529723929
 40
0.0600969636
 40
0.0676303607
 40
0.0755964634
 40
0.0840139973
 40
0.0928973845
 40
0.1022573479
 40
0.1121014686
 40
0.1224346943
 40
0.1332596184
 40
0.1445769407
 40
0.1563855248
 40
0.1686828466
 40
0.1814648914
 40
0.1947266011
 40
0.2084616691
 40
0.2226629768
 40
0.2373223427
 40
0.2679780596
 40
0.3003497016
 40
0.3343465573
 40
0.3698687431
 40
0.4068083067
 40
0.445050174
 40
0.484472989
 40
0.5249498814
 40
0.5663491847
 40
0.6085351204
 40
0.6513684588
 40
0.6947071664
 40
0.7384070376
 40
0.7823223364
 40
0.826306383
 40
0.8702122919
 40
0.9138932785
 40
0.95720405
 40
1.0
 40
1.0
 40
1.0
 40
1.0
 10
13.7223972227
 20
9.4661385572
 30
0.0
 10
13.7237753326
 20
9.4656513272
 30
0.0
 10
13.7265643256
 20
9.4648350314
 30
0.0
 10
13.7308427378
 20
9.4641120577
 30
0.0
 10
13.7351595916
 20
9.4639067114
 30
0.0
 10
13.7395079598
 20
9.4642196077
 30
0.0
 10
13.7438820857
 20
9.4650490542
 30
0.0
 10
13.7482766916
 20
9.4663928421
 30
0.0
 10
13.7526875534
 20
9.4682476854
 30
0.0
 10
13.7571109414
 20
9.4706105612
 30
0.0
 10
13.7615436929
 20
9.4734780718
 30
0.0
 10
13.7659825789
 20
9.4768471153
 30
0.0
 10
13.7704245069
 20
9.4807142564
 30
0.0
 10
13.7748661186
 20
9.4850760271
 30
0.0
 10
13.7793040383
 20
9.4899285445
 30
0.0
 10
13.7837346908
 20
9.4952676361
 30
0.0
 10
13.7881544358
 20
9.5010886956
 30
0.0
 10
13.7925595674
 20
9.5073866965
 30
0.0
 10
13.79694628
 20
9.5141562005
 30
0.0
 10
13.8013108248
 20
9.5213912977
 30
0.0
 10
13.8056493165
 20
9.5290856955
 30
0.0
 10
13.8099580206
 20
9.5372326199
 30
0.0
 10
13.8142330343
 20
9.5458249373
 30
0.0
 10
13.8184706684
 20
9.5548550436
 30
0.0
 10
13.8226670515
 20
9.5643149909
 30
0.0
 10
13.8268185467
 20
9.5741963813
 30
0.0
 10
13.8309213892
 20
9.5844904922
 30
0.0
 10
13.8364040593
 20
9.5989707327
 30
0.0
 10
13.8430922086
 20
9.6180454186
 30
0.0
 10
13.8507527267
 20
9.6420982166
 30
0.0
 10
13.8581354644
 20
9.6675583907
 30
0.0
 10
13.86521394
 20
9.6943354911
 30
0.0
 10
13.8719627282
 20
9.7223345812
 30
0.0
 10
13.8783576132
 20
9.751456181
 30
0.0
 10
13.8843756591
 20
9.7815967689
 30
0.0
 10
13.8899952961
 20
9.8126491333
 30
0.0
 10
13.8951963941
 20
9.844502777
 30
0.0
 10
13.8999603334
 20
9.8770443179
 30
0.0
 10
13.9042700696
 20
9.9101579011
 30
0.0
 10
13.9081101923
 20
9.9437256165
 30
0.0
 10
13.9114669811
 20
9.9776279256
 30
0.0
 10
13.9143284486
 20
10.0117440832
 30
0.0
 10
13.9166843949
 20
10.0459525963
 30
0.0
 10
13.9185264171
 20
10.0801315854
 30
0.0
 10
13.9198479913
 20
10.1141594172
 30
0.0
 10
13.9206444113
 20
10.1479147029
 30
0.0
 10
13.9208246934
 20
10.1703151774
 30
0.0
 10
13.9208246934
 20
10.1814482632
 30
0.0
  0
SPLINE
  5
38C
100
AcDbEntity
  8
0
100
AcDbSpline
 62
7
  6
CONTINUOUS
 70
0
 71
3
 72
31
 73
27
 74
0
 42
0.0000001
 43
0.0000001
 44
0.0000000001
 40
0.0
 40
0.0
 40
0.0
 40
0.0
 40
0.0183316733
 40
0.0378713458
 40
0.058611169
 40
0.0805360484
 40
0.1036248068
 40
0.1278510914
 40
0.1531839134
 40
0.1795881621
 40
0.2070251516
 40
0.2354529163
 40
0.2648264341
 40
0.2950980177
 40
0.326217539
 40
0.3581325425
 40
0.3907885282
 40
0.4241291658
 40
0.4926292322
 40
0.5631524325
 40
0.6351977139
 40
0.7082498669
 40
0.7817843906
 40
0.8552723988
 40
0.928184918
 40
1.0
 40
1.0
 40
1.0
 40
1.0
 10
13.6620853716
 20
9.5572118675
 30
0.0
 10
13.6641584821
 20
9.5605320168
 30
0.0
 10
13.6682751557
 20
9.5674957564
 30
0.0
 10
13.6741965899
 20
9.5785243042
 30
0.0
 10
13.6800508119
 20
9.5904495615
 30
0.0
 10
13.6858265238
 20
9.6032487794
 30
0.0
 10
13.6915127464
 20
9.6168978906
 30
0.0
 10
13.6970985226
 20
9.6313710016
 30
0.0
 10
13.7025731078
 20
9.6466405966
 30
0.0
 10
13.7079259798
 20
9.6626775554
 30
0.0
 10
13.7131468106
 20
9.6794512675
 30
0.0
 10
13.7182255172
 20
9.6969296763
 30
0.0
 10
13.7231523364
 20
9.7150793309
 30
0.0
 10
13.7279177701
 20
9.7338654824
 30
0.0
 10
13.7325126141
 20
9.7532521555
 30
0.0
 10
13.7369280223
 20
9.773202187
 30
0.0
 10
13.7411555429
 20
9.793677359
 30
0.0
 10
13.7465794737
 20
9.8218793422
 30
0.0
 10
13.7528158528
 20
9.8581551074
 30
0.0
 10
13.7593664214
 20
9.9027485611
 30
0.0
 10
13.7649987992
 20
9.9484466835
 30
0.0
 10
13.7696695035
 20
9.9948991515
 30
0.0
 10
13.7733425736
 20
10.041750058
 30
0.0
 10
13.7759897667
 20
10.0886403244
 30
0.0
 10
13.7775909069
 20
10.1352104152
 30
0.0
 10
13.7779565805
 20
10.1661141073
 30
0.0
 10
13.7779565805
 20
10.181448255
 30
0.0
  0
SPLINE
  5
38D
100
AcDbEntity
  8
0
100
AcDbSpline
 62
7
  6
CONTINUOUS
 70
0
 71
3
 72
51
 73
47
 74
0
 42
0.0000001
 43
0.0000001
 44
0.0000000001
 40
0.0
 40
0.0
 40
0.0
 40
0.0
 40
0.0417745783
 40
0.0840381405
 40
0.1266602741
 40
0.1695088693
 40
0.2124510806
 40
0.2553536312
 40
0.2980834223
 40
0.3405080289
 40
0.3824962347
 40
0.423918559
 40
0.4646477904
 40
0.504559528
 40
0.5435327322
 40
0.5814502925
 40
0.6181996178
 40
0.65367326
 40
0.6877695871
 40
0.7203935248
 40
0.7514574013
 40
0.7663796097
 40
0.7808828022
 40
0.7949586364
 40
0.8085993574
 40
0.8217980667
 40
0.8345485781
 40
0.846845703
 40
0.8586851383
 40
0.8700637714
 40
0.8809796196
 40
0.8914321637
 40
0.9014223656
 40
0.9109530489
 40
0.92002903
 40
0.9286575737
 40
0.9368486818
 40
0.94461566
 40
0.9519756015
 40
0.9589500813
 40
0.9655658127
 40
0.9778459388
 40
0.983607172
 40
0.9891799146
 40
0.9946230077
 40
1.0
 40
1.0
 40
1.0
 40
1.0
 10
14.0117802913
 20
10.2373046287
 30
0.0
 10
14.0117802913
 20
10.2222493187
 30
0.0
 10
14.0115454113
 20
10.1919619984
 30
0.0
 10
14.0105070539
 20
10.146324614
 30
0.0
 10
14.0087836313
 20
10.1003205474
 30
0.0
 10
14.0063807987
 20
10.0541021035
 30
0.0
 10
14.0033064928
 20
10.0078221816
 30
0.0
 10
13.9995708772
 20
9.9616338937
 30
0.0
 10
13.995186326
 20
9.9156900501
 30
0.0
 10
13.9901673743
 20
9.8701426447
 30
0.0
 10
13.984530674
 20
9.8251423517
 30
0.0
 10
13.9782949381
 20
9.780838022
 30
0.0
 10
13.9714808799
 20
9.7373761866
 30
0.0
 10
13.9641111463
 20
9.6949005657
 30
0.0
 10
13.9562102438
 20
9.6535515853
 30
0.0
 10
13.9478044591
 20
9.6134659064
 30
0.0
 10
13.938921775
 20
9.5747759499
 30
0.0
 10
13.9295917752
 20
9.5376094784
 30
0.0
 10
13.9198455585
 20
9.5020890237
 30
0.0
 10
13.9097155939
 20
9.4683318973
 30
0.0
 10
13.900867988
 20
9.4414141156
 30
0.0
 10
13.8936075018
 20
9.4208579665
 30
0.0
 10
13.8881602828
 20
9.4061564219
 30
0.0
 10
13.882642836
 20
9.3919755147
 30
0.0
 10
13.8770595954
 20
9.3783269371
 30
0.0
 10
13.8714152913
 20
9.3652219161
 30
0.0
 10
13.8657144951
 20
9.352671255
 30
0.0
 10
13.8599620148
 20
9.3406852438
 30
0.0
 10
13.8541625022
 20
9.3292737421
 30
0.0
 10
13.8483208242
 20
9.3184460655
 30
0.0
 10
13.8424416841
 20
9.3082110889
 30
0.0
 10
13.8365299712
 20
9.2985771159
 30
0.0
 10
13.8305904026
 20
9.2895520008
 30
0.0
 10
13.8246278356
 20
9.2811430049
 30
0.0
 10
13.8186469462
 20
9.2733569393
 30
0.0
 10
13.8126524721
 20
9.2662000125
 30
0.0
 10
13.8066489931
 20
9.2596780188
 30
0.0
 10
13.8006409154
 20
9.2537961156
 30
0.0
 10
13.7946329813
 20
9.2485593625
 30
0.0
 10
13.7886279212
 20
9.2439714315
 30
0.0
 10
13.7808290011
 20
9.2388541009
 30
0.0
 10
13.7728330415
 20
9.2348520841
 30
0.0
 10
13.7647339491
 20
9.2321976144
 30
0.0
 10
13.7588123854
 20
9.2309174098
 30
0.0
 10
13.7529240199
 20
9.230309718
 30
0.0
 10
13.7490145885
 20
9.230354394
 30
0.0
 10
13.7470813963
 20
9.2304884721
 30
0.0
  0
SPLINE
  5
38E
100
AcDbEntity
  8
0
100
AcDbSpline
 62
7
  6
CONTINUOUS
 70
0
 71
3
 72
27
 73
23
 74
0
 42
0.0000001
 43
0.0000001
 44
0.0000000001
 40
0.0
 40
0.0
 40
0.0
 40
0.0
 40
0.022567109
 40
0.0460300346
 40
0.0703660934
 40
0.0955501845
 40
0.1215553876
 40
0.1483527307
 40
0.1759116612
 40
0.2041999826
 40
0.2628275661
 40
0.3239520019
 40
0.3872698045
 40
0.4524617766
 40
0.5191956634
 40
0.587128683
 40
0.655909986
 40
0.7251830989
 40
0.7945882235
 40
0.8637650032
 40
0.9323535672
 40
1.0
 40
1.0
 40
1.0
 40
1.0
 10
13.6398134011
 20
9.6554307757
 30
0.0
 10
13.6413070559
 20
9.6590957562
 30
0.0
 10
13.6442664096
 20
9.666607005
 30
0.0
 10
13.6485468
 20
9.6781820296
 30
0.0
 10
13.6527503224
 20
9.6902721651
 30
0.0
 10
13.6568711915
 20
9.7028606284
 30
0.0
 10
13.6609036063
 20
9.7159300697
 30
0.0
 10
13.664842014
 20
9.7294624068
 30
0.0
 10
13.6686809368
 20
9.7434389478
 30
0.0
 10
13.6737197082
 20
9.7628727179
 30
0.0
 10
13.6797153362
 20
9.788136569
 30
0.0
 10
13.6863501736
 20
9.819552025
 30
0.0
 10
13.6924708592
 20
9.8522434953
 30
0.0
 10
13.6980432346
 20
9.88603004
 30
0.0
 10
13.7030361807
 20
9.9207248246
 30
0.0
 10
13.7074218613
 20
9.9561358327
 30
0.0
 10
13.7111758574
 20
9.9920670521
 30
0.0
 10
13.7142772911
 20
10.0283195445
 30
0.0
 10
13.7167089611
 20
10.0646926012
 30
0.0
 10
13.7184573821
 20
10.1009847686
 30
0.0
 10
13.7195129679
 20
10.1369950354
 30
0.0
 10
13.7197530234
 20
10.1608875857
 30
0.0
 10
13.7197530234
 20
10.1727509442
 30
0.0
  0
SPLINE
  5
38F
100
AcDbEntity
  8
0
100
AcDbSpline
 62
7
  6
CONTINUOUS
 70
0
 71
3
 72
23
 73
19
 74
0
 42
0.0000001
 43
0.0000001
 44
0.0000000001
 40
0.0
 40
0.0
 40
0.0
 40
0.0
 40
0.0637268971
 40
0.1272587803
 40
0.1905933288
 40
0.2537375199
 40
0.3166959962
 40
0.3794759763
 40
0.4420861645
 40
0.5045365737
 40
0.5668386459
 40
0.6290050844
 40
0.6910497746
 40
0.7529876652
 40
0.8148346354
 40
0.8766073675
 40
0.9383232056
 40
1.0
 40
1.0
 40
1.0
 40
1.0
 10
8.6907772154
 20
9.4426100314
 30
0.0
 10
8.6907772154
 20
9.4529847325
 30
0.0
 10
8.6912410207
 20
9.473705448
 30
0.0
 10
8.6933339978
 20
9.5046733641
 30
0.0
 10
8.6968194054
 20
9.5354208889
 30
0.0
 10
8.7016899251
 20
9.5658850181
 30
0.0
 10
8.707936093
 20
9.5960050584
 30
0.0
 10
8.7155452995
 20
9.6257202975
 30
0.0
 10
8.7245022788
 20
9.6549710453
 30
0.0
 10
8.7347891
 20
9.6836984901
 30
0.0
 10
8.746385169
 20
9.7118448453
 30
0.0
 10
8.7592671877
 20
9.7393535206
 30
0.0
 10
8.7734092661
 20
9.7661692015
 30
0.0
 10
8.7887830201
 20
9.7922379664
 30
0.0
 10
8.8053575649
 20
9.8175073024
 30
0.0
 10
8.8230997361
 20
9.8419265713
 30
0.0
 10
8.841973235
 20
9.8654459935
 30
0.0
 10
8.8552889134
 20
9.8804991448
 30
0.0
 10
8.8621203502
 20
9.8878579532
 30
0.0
  0
SPLINE
  5
390
100
AcDbEntity
  8
0
100
AcDbSpline
 62
7
  6
CONTINUOUS
 70
0
 71
3
 72
23
 73
19
 74
0
 42
0.0000001
 43
0.0000001
 44
0.0000000001
 40
0.0
 40
0.0
 40
0.0
 40
0.0
 40
0.0637776288
 40
0.1273446152
 40
0.1907020433
 40
0.2538561391
 40
0.3168131818
 40
0.3795820998
 40
0.442173387
 40
0.5045993408
 40
0.5668738683
 40
0.6290123813
 40
0.69103165
 40
0.7529496426
 40
0.8147853504
 40
0.8765585998
 40
0.9382898528
 40
1.0
 40
1.0
 40
1.0
 40
1.0
 10
9.9658858576
 20
6.4229742935
 30
0.0
 10
9.9658858576
 20
6.4364745916
 30
0.0
 10
9.9665319921
 20
6.4634351762
 30
0.0
 10
9.9694485674
 20
6.5037121368
 30
0.0
 10
9.9743045106
 20
6.5436697018
 30
0.0
 10
9.9810884728
 20
6.5832143584
 30
0.0
 10
9.98978509
 20
6.6222554601
 30
0.0
 10
10.0003743113
 20
6.6607028448
 30
0.0
 10
10.0128318601
 20
6.6984679131
 30
0.0
 10
10.0271290889
 20
6.7354635647
 30
0.0
 10
10.0432331183
 20
6.7716044765
 30
0.0
 10
10.0611068759
 20
6.8068072902
 30
0.0
 10
10.0807091967
 20
6.8409907969
 30
0.0
 10
10.1019949426
 20
6.8740761551
 30
0.0
 10
10.1249149926
 20
6.9059869662
 30
0.0
 10
10.1494167815
 20
6.9366498571
 30
0.0
 10
10.1754428318
 20
6.9659931428
 30
0.0
 10
10.1937731976
 20
6.9846338585
 30
0.0
 10
10.2031685816
 20
6.9937090888
 30
0.0
  0
SPLINE
  5
391
100
AcDbEntity
  8
0
100
AcDbSpline
 62
7
  6
CONTINUOUS
 70
0
 71
3
 72
47
 73
43
 74
0
 42
0.0000001
 43
0.0000001
 44
0.0000000001
 40
0.0
 40
0.0
 40
0.0
 40
0.0
 40
0.0063158891
 40
0.012670693
 40
0.0191025391
 40
0.0256481111
 40
0.0323420145
 40
0.0392163779
 40
0.0536142747
 40
0.0611950254
 40
0.0690568328
 40
0.0772179734
 40
0.0856944045
 40
0.0944998522
 40
0.1036459935
 40
0.1131428211
 40
0.1229986303
 40
0.1332202822
 40
0.1438134448
 40
0.1547825085
 40
0.1661308998
 40
0.1899733285
 40
0.2153528849
 40
0.2422687961
 40
0.2707111428
 40
0.3006622203
 40
0.3320975591
 40
0.3649868908
 40
0.3992948428
 40
0.43498141
 40
0.4720024243
 40
0.5103100179
 40
0.5498529293
 40
0.590576713
 40
0.6324240653
 40
0.675335092
 40
0.7192474692
 40
0.7640965597
 40
0.8098158789
 40
0.8563369465
 40
0.9035890751
 40
1.0
 40
1.0
 40
1.0
 40
1.0
 10
13.761947454
 20
8.0908250875
 30
0.0
 10
13.7633114322
 20
8.0907304877
 30
0.0
 10
13.7660413445
 20
8.0904290335
 30
0.0
 10
13.7701056106
 20
8.089643328
 30
0.0
 10
13.77414273
 20
8.0885241963
 30
0.0
 10
13.7781502963
 20
8.087072382
 30
0.0
 10
13.7821267714
 20
8.085288837
 30
0.0
 10
13.7874661303
 20
8.0824266401
 30
0.0
 10
13.7926604502
 20
8.0789228228
 30
0.0
 10
13.7976872724
 20
8.0748625134
 30
0.0
 10
13.801484174
 20
8.0714391485
 30
0.0
 10
13.8052405798
 20
8.0676923293
 30
0.0
 10
13.8089554721
 20
8.0636233105
 30
0.0
 10
13.8126273451
 20
8.0592338689
 30
0.0
 10
13.8162549038
 20
8.0545258242
 30
0.0
 10
13.8198366747
 20
8.0495010473
 30
0.0
 10
13.8233713068
 20
8.0441616051
 30
0.0
 10
13.826857439
 20
8.0385096718
 30
0.0
 10
13.8302936059
 20
8.0325475042
 30
0.0
 10
13.8336785455
 20
8.0262775459
 30
0.0
 10
13.8381960777
 20
8.0173633286
 30
0.0
 10
13.8436896383
 20
8.005451854
 30
0.0
 10
13.8499515259
 20
7.9902009519
 30
0.0
 10
13.8559771944
 20
7.9737905036
 30
0.0
 10
13.8617567625
 20
7.9562472692
 30
0.0
 10
13.8672807254
 20
7.937599558
 30
0.0
 10
13.8725399702
 20
7.9178777668
 30
0.0
 10
13.8775257722
 20
7.8971141026
 30
0.0
 10
13.8822298222
 20
7.8753425595
 30
0.0
 10
13.8866442914
 20
7.852598857
 30
0.0
 10
13.8907618436
 20
7.82892037
 30
0.0
 10
13.894575613
 20
7.8043460364
 30
0.0
 10
13.8980792249
 20
7.7789162963
 30
0.0
 10
13.9012668564
 20
7.7526730337
 30
0.0
 10
13.9041332024
 20
7.7256594912
 30
0.0
 10
13.906673475
 20
7.6979201843
 30
0.0
 10
13.9088834278
 20
7.6695008514
 30
0.0
 10
13.910759403
 20
7.6404483398
 30
0.0
 10
13.9122982551
 20
7.6108105829
 30
0.0
 10
13.9134974273
 20
7.5806364887
 30
0.0
 10
13.914648308
 20
7.5394811304
 30
0.0
 10
13.914982153
 20
7.5083795227
 30
0.0
 10
13.914982153
 20
7.4875086218
 30
0.0
  0
SPLINE
  5
392
100
AcDbEntity
  8
0
100
AcDbSpline
 62
7
  6
CONTINUOUS
 70
0
 71
3
 72
37
 73
33
 74
0
 42
0.0000001
 43
0.0000001
 44
0.0000000001
 40
0.0
 40
0.0
 40
0.0
 40
0.0
 40
0.0064163849
 40
0.0129887143
 40
0.0266959591
 40
0.041308292
 40
0.0569690587
 40
0.0737893752
 40
0.0918529083
 40
0.1112205941
 40
0.1319350554
 40
0.1540240068
 40
0.1775028764
 40
0.2023771478
 40
0.2286439529
 40
0.2562932269
 40
0.2853089181
 40
0.3156697194
 40
0.3473495673
 40
0.3803183506
 40
0.4145422753
 40
0.4499840857
 40
0.4866035436
 40
0.5243576375
 40
0.563200686
 40
0.6030846998
 40
0.6439595249
 40
0.6857729123
 40
0.7284707696
 40
0.8162937725
 40
0.9069649175
 40
1.0
 40
1.0
 40
1.0
 40
1.0
 10
13.7463244079
 20
8.0895210032
 30
0.0
 10
13.7475890068
 20
8.0890333903
 30
0.0
 10
13.750114703
 20
8.087954992
 30
0.0
 10
13.7551432493
 20
8.0853954832
 30
0.0
 10
13.7613732707
 20
8.0814199655
 30
0.0
 10
13.7686022126
 20
8.0755586019
 30
0.0
 10
13.7756837528
 20
8.068552132
 30
0.0
 10
13.7826102851
 20
8.0604124942
 30
0.0
 10
13.7893751571
 20
8.0511512996
 30
0.0
 10
13.7959706529
 20
8.0407814219
 30
0.0
 10
13.8023886142
 20
8.0293170241
 30
0.0
 10
13.808620554
 20
8.0167739076
 30
0.0
 10
13.8146579925
 20
8.0031695918
 30
0.0
 10
13.8204924116
 20
7.9885232356
 30
0.0
 10
13.8261154281
 20
7.9728556482
 30
0.0
 10
13.8315189533
 20
7.9561892696
 30
0.0
 10
13.8366950933
 20
7.9385480653
 30
0.0
 10
13.8416362391
 20
7.9199574985
 30
0.0
 10
13.8463351803
 20
7.9004444995
 30
0.0
 10
13.8507849923
 20
7.880037378
 30
0.0
 10
13.8549790949
 20
7.8587657853
 30
0.0
 10
13.8589113497
 20
7.8366606804
 30
0.0
 10
13.8625759522
 20
7.813754254
 30
0.0
 10
13.8659674741
 20
7.7900798839
 30
0.0
 10
13.8690809522
 20
7.7656720963
 30
0.0
 10
13.8719117935
 20
7.7405664928
 30
0.0
 10
13.8744557879
 20
7.7147997115
 30
0.0
 10
13.8767092601
 20
7.6884093289
 30
0.0
 10
13.8793466209
 20
7.6521015371
 30
0.0
 10
13.8818740815
 20
7.6054421318
 30
0.0
 10
13.883680067
 20
7.5481104387
 30
0.0
 10
13.884072524
 20
7.5093042761
 30
0.0
 10
13.884072524
 20
7.4896522118
 30
0.0
  0
SPLINE
  5
393
100
AcDbEntity
  8
0
100
AcDbSpline
 62
7
  6
CONTINUOUS
 70
0
 71
3
 72
51
 73
47
 74
0
 42
0.0000001
 43
0.0000001
 44
0.0000000001
 40
0.0
 40
0.0
 40
0.0
 40
0.0
 40
0.0417745783
 40
0.0840381405
 40
0.1266602741
 40
0.1695088693
 40
0.2124510806
 40
0.2553536312
 40
0.2980834223
 40
0.3405080289
 40
0.3824962347
 40
0.423918559
 40
0.4646477904
 40
0.504559528
 40
0.5435327322
 40
0.5814502925
 40
0.6181996178
 40
0.65367326
 40
0.6877695871
 40
0.7203935248
 40
0.7514574013
 40
0.7663796097
 40
0.7808828022
 40
0.7949586364
 40
0.8085993574
 40
0.8217980667
 40
0.8345485781
 40
0.846845703
 40
0.8586851383
 40
0.8700637714
 40
0.8809796196
 40
0.8914321637
 40
0.9014223656
 40
0.9109530489
 40
0.92002903
 40
0.9286575737
 40
0.9368486818
 40
0.94461566
 40
0.9519756015
 40
0.9589500813
 40
0.9655658127
 40
0.9778459388
 40
0.983607172
 40
0.9891799146
 40
0.9946230077
 40
1.0
 40
1.0
 40
1.0
 40
1.0
 10
13.914982153
 20
7.4875086218
 30
0.0
 10
13.914982153
 20
7.4724533117
 30
0.0
 10
13.914747273
 20
7.4421659914
 30
0.0
 10
13.9137089156
 20
7.3965286071
 30
0.0
 10
13.911985493
 20
7.3505245404
 30
0.0
 10
13.9095826604
 20
7.3043060965
 30
0.0
 10
13.9065083544
 20
7.2580261746
 30
0.0
 10
13.9027727388
 20
7.2118378867
 30
0.0
 10
13.8983881877
 20
7.1658940432
 30
0.0
 10
13.893369236
 20
7.1203466377
 30
0.0
 10
13.8877325357
 20
7.0753463447
 30
0.0
 10
13.8814967997
 20
7.031042015
 30
0.0
 10
13.8746827416
 20
6.9875801796
 30
0.0
 10
13.867313008
 20
6.9451045587
 30
0.0
 10
13.8594121054
 20
6.9037555784
 30
0.0
 10
13.8510063208
 20
6.8636698994
 30
0.0
 10
13.8421236366
 20
6.824979943
 30
0.0
 10
13.8327936369
 20
6.7878134714
 30
0.0
 10
13.8230474202
 20
6.7522930167
 30
0.0
 10
13.8129174556
 20
6.7185358904
 30
0.0
 10
13.8040698497
 20
6.6916181087
 30
0.0
 10
13.7968093635
 20
6.6710619595
 30
0.0
 10
13.7913621445
 20
6.6563604149
 30
0.0
 10
13.7858446976
 20
6.6421795077
 30
0.0
 10
13.7802614571
 20
6.6285309302
 30
0.0
 10
13.7746171529
 20
6.6154259092
 30
0.0
 10
13.7689163568
 20
6.602875248
 30
0.0
 10
13.7631638765
 20
6.5908892368
 30
0.0
 10
13.7573643639
 20
6.5794777351
 30
0.0
 10
13.7515226858
 20
6.5686500585
 30
0.0
 10
13.7456435458
 20
6.558415082
 30
0.0
 10
13.7397318329
 20
6.5487811089
 30
0.0
 10
13.7337922643
 20
6.5397559938
 30
0.0
 10
13.7278296973
 20
6.5313469979
 30
0.0
 10
13.7218488078
 20
6.5235609323
 30
0.0
 10
13.7158543338
 20
6.5164040056
 30
0.0
 10
13.7098508547
 20
6.5098820118
 30
0.0
 10
13.7038427771
 20
6.5040001087
 30
0.0
 10
13.697834843
 20
6.4987633555
 30
0.0
 10
13.6918297829
 20
6.4941754245
 30
0.0
 10
13.6840308628
 20
6.489058094
 30
0.0
 10
13.6760349032
 20
6.4850560771
 30
0.0
 10
13.6679358108
 20
6.4824016074
 30
0.0
 10
13.6620142471
 20
6.4811214028
 30
0.0
 10
13.6561258816
 20
6.4805137111
 30
0.0
 10
13.6522164501
 20
6.480558387
 30
0.0
 10
13.650283258
 20
6.4806924651
 30
0.0
  0
SPLINE
  5
394
100
AcDbEntity
  8
0
100
AcDbSpline
 62
7
  6
CONTINUOUS
 70
0
 71
3
 72
51
 73
47
 74
0
 42
0.0000001
 43
0.0000001
 44
0.0000000001
 40
0.0
 40
0.0
 40
0.0
 40
0.0
 40
0.0055341477
 40
0.0112762866
 40
0.0172697191
 40
0.0235517808
 40
0.0301541704
 40
0.0371032198
 40
0.0444206364
 40
0.0521238798
 40
0.0602269332
 40
0.068740577
 40
0.0776730507
 40
0.0870301981
 40
0.096815996
 40
0.1070326071
 40
0.1176807885
 40
0.1287598968
 40
0.1402681926
 40
0.1522028336
 40
0.1645600881
 40
0.1773353412
 40
0.1905232271
 40
0.2041176633
 40
0.2181119119
 40
0.2324986471
 40
0.2624167643
 40
0.2938035224
 40
0.3265822755
 40
0.3606698582
 40
0.3959773041
 40
0.4324104759
 40
0.4698706334
 40
0.5082549576
 40
0.5474570454
 40
0.5873673816
 40
0.6278737969
 40
0.6688619148
 40
0.7102155924
 40
0.7518173537
 40
0.7935488285
 40
0.8352911623
 40
0.8769255063
 40
0.9183332814
 40
0.959397011
 40
1.0
 40
1.0
 40
1.0
 40
1.0
 10
13.6350902925
 20
6.4841638421
 30
0.0
 10
13.6370032519
 20
6.4846144321
 30
0.0
 10
13.6408560508
 20
6.485733948
 30
0.0
 10
13.6465641955
 20
6.4879983425
 30
0.0
 10
13.6522898474
 20
6.4908714631
 30
0.0
 10
13.6580284923
 20
6.494349602
 30
0.0
 10
13.663776639
 20
6.4984295503
 30
0.0
 10
13.6695307433
 20
6.5031075951
 30
0.0
 10
13.6752870059
 20
6.50838014
 30
0.0
 10
13.6810417667
 20
6.5142430261
 30
0.0
 10
13.6867909756
 20
6.5206919916
 30
0.0
 10
13.6925307589
 20
6.5277221683
 30
0.0
 10
13.6982568923
 20
6.5353284537
 30
0.0
 10
13.7039653485
 20
6.5435051537
 30
0.0
 10
13.7096518202
 20
6.5522462661
 30
0.0
 10
13.7153121946
 20
6.5615452384
 30
0.0
 10
13.7209421518
 20
6.5713951688
 30
0.0
 10
13.7265375449
 20
6.5817886518
 30
0.0
 10
13.7320940889
 20
6.5927179106
 30
0.0
 10
13.7376076386
 20
6.6041747066
 30
0.0
 10
13.743073976
 20
6.6161504206
 30
0.0
 10
13.7484889839
 20
6.6286360076
 30
0.0
 10
13.7538485353
 20
6.6416220417
 30
0.0
 10
13.7591485536
 20
6.6550986979
 30
0.0
 10
13.7643850529
 20
6.6690557916
 30
0.0
 10
13.7713681854
 20
6.6885466683
 30
0.0
 10
13.7798917607
 20
6.7140431857
 30
0.0
 10
13.7896762063
 20
6.7459930758
 30
0.0
 10
13.7991157298
 20
6.7795870571
 30
0.0
 10
13.8081814839
 20
6.8147232916
 30
0.0
 10
13.8168457461
 20
6.8512954671
 30
0.0
 10
13.8250820411
 20
6.8891927448
 30
0.0
 10
13.8328652111
 20
6.9283002282
 30
0.0
 10
13.8401714945
 20
6.9684992937
 30
0.0
 10
13.8469785963
 20
7.0096679699
 30
0.0
 10
13.8532657542
 20
7.0516813136
 30
0.0
 10
13.8590138011
 20
7.0944117958
 30
0.0
 10
13.8642052215
 20
7.1377296939
 30
0.0
 10
13.8688242044
 20
7.1815034888
 30
0.0
 10
13.872856691
 20
7.2256002698
 30
0.0
 10
13.8762904144
 20
7.2698861343
 30
0.0
 10
13.879114944
 20
7.3142266173
 30
0.0
 10
13.8813217001
 20
7.3584870432
 30
0.0
 10
13.8829040143
 20
7.4025330967
 30
0.0
 10
13.8838570934
 20
7.4462308471
 30
0.0
 10
13.884072524
 20
7.4752331028
 30
0.0
 10
13.884072524
 20
7.4896522118
 30
0.0
  0
SPLINE
  5
395
100
AcDbEntity
  8
0
100
AcDbSpline
 62
7
  6
CONTINUOUS
 70
0
 71
3
 72
21
 73
17
 74
0
 42
0.0000001
 43
0.0000001
 44
0.0000000001
 40
0.0
 40
0.0
 40
0.0
 40
0.0
 40
0.1270925002
 40
0.2534819167
 40
0.3164353195
 40
0.3792250371
 40
0.4418575724
 40
0.5043402358
 40
0.5666813898
 40
0.6288903986
 40
0.6909775281
 40
0.7529539102
 40
0.8148314486
 40
0.8766227418
 40
0.9383410126
 40
1.0
 40
1.0
 40
1.0
 40
1.0
 10
8.7327108452
 20
9.4831148098
 30
0.0
 10
8.7327108452
 20
9.5017270204
 30
0.0
 10
8.7342023064
 20
9.5388652265
 30
0.0
 10
8.7398303766
 20
9.5849174606
 30
0.0
 10
8.7465669619
 20
9.6212307115
 30
0.0
 10
8.7527183733
 20
9.648131459
 30
0.0
 10
8.7599649865
 20
9.6746862933
 30
0.0
 10
8.7682950791
 20
9.7008526599
 30
0.0
 10
8.7776951128
 20
9.7265879972
 30
0.0
 10
8.7881499608
 20
9.7518505579
 30
0.0
 10
8.7996426558
 20
9.7765993542
 30
0.0
 10
8.8121545258
 20
9.8007942758
 30
0.0
 10
8.8256653444
 20
9.8243959878
 30
0.0
 10
8.8401533175
 20
9.8473663275
 30
0.0
 10
8.8555944615
 20
9.8696675612
 30
0.0
 10
8.86651282
 20
9.8840719052
 30
0.0
 10
8.8721210806
 20
9.8911488613
 30
0.0
  0
SPLINE
  5
396
100
AcDbEntity
  8
0
100
AcDbSpline
 62
7
  6
CONTINUOUS
 70
0
 71
3
 72
41
 73
37
 74
0
 42
0.0000001
 43
0.0000001
 44
0.0000000001
 40
0.0
 40
0.0
 40
0.0
 40
0.0
 40
0.0066707121
 40
0.0132434347
 40
0.0197612865
 40
0.0262686057
 40
0.032809948
 40
0.0394291401
 40
0.0461683326
 40
0.0530672496
 40
0.067479409
 40
0.0829298963
 40
0.099618566
 40
0.117696265
 40
0.1372726252
 40
0.1584242946
 40
0.1812017998
 40
0.2056347505
 40
0.2317362129
 40
0.2595058864
 40
0.2889322107
 40
0.3199943284
 40
0.3526635406
 40
0.3869041303
 40
0.4226743147
 40
0.459927048
 40
0.4986103719
 40
0.5386679255
 40
0.5800394944
 40
0.6226611979
 40
0.6664658028
 40
0.7113831167
 40
0.7573401484
 40
0.8042615575
 40
0.9006811535
 40
1.0
 40
1.0
 40
1.0
 40
1.0
 10
13.7049692852
 20
7.8608380857
 30
0.0
 10
13.7059993174
 20
7.8610483482
 30
0.0
 10
13.7080618529
 20
7.8613849601
 30
0.0
 10
13.7111699662
 20
7.861630501
 30
0.0
 10
13.714262255
 20
7.8616116224
 30
0.0
 10
13.7173365853
 20
7.86132825
 30
0.0
 10
13.7203911862
 20
7.8607806636
 30
0.0
 10
13.723424193
 20
7.8599692233
 30
0.0
 10
13.7264340414
 20
7.8588946004
 30
0.0
 10
13.7304720987
 20
7.8570863641
 30
0.0
 10
13.7354770896
 20
7.854126858
 30
0.0
 10
13.7412653562
 20
7.8495916553
 30
0.0
 10
13.746919861
 20
7.8440343578
 30
0.0
 10
13.7524339499
 20
7.8374671886
 30
0.0
 10
13.7578018087
 20
7.8299018736
 30
0.0
 10
13.7630160573
 20
7.821351269
 30
0.0
 10
13.7680687419
 20
7.8118297839
 30
0.0
 10
13.7729515986
 20
7.801353757
 30
0.0
 10
13.7776562219
 20
7.7899414072
 30
0.0
 10
13.7821742226
 20
7.7776128323
 30
0.0
 10
13.7864974818
 20
7.7643900024
 30
0.0
 10
13.7906181263
 20
7.750296646
 30
0.0
 10
13.7945285517
 20
7.7353581724
 30
0.0
 10
13.798221572
 20
7.7196016407
 30
0.0
 10
13.8016903877
 20
7.7030556706
 30
0.0
 10
13.8049285526
 20
7.6857503612
 30
0.0
 10
13.8079300827
 20
7.6677172505
 30
0.0
 10
13.8106894492
 20
7.6489892433
 30
0.0
 10
13.8132015202
 20
7.6296005285
 30
0.0
 10
13.8154616419
 20
7.609586526
 30
0.0
 10
13.8174656609
 20
7.5889838211
 30
0.0
 10
13.8192098403
 20
7.5678300949
 30
0.0
 10
13.8206909821
 20
7.5461639825
 30
0.0
 10
13.8223261096
 20
7.516375557
 30
0.0
 10
13.8236779212
 20
7.4781531661
 30
0.0
 10
13.8240265551
 20
7.4473044532
 30
0.0
 10
13.8240265551
 20
7.4316522562
 30
0.0
  0
SPLINE
  5
397
100
AcDbEntity
  8
0
100
AcDbSpline
 62
7
  6
CONTINUOUS
 70
0
 71
3
 72
26
 73
22
 74
0
 42
0.0000001
 43
0.0000001
 44
0.0000000001
 40
0.0
 40
0.0
 40
0.0
 40
0.0
 40
0.0201857864
 40
0.0411992638
 40
0.0630391299
 40
0.0857017841
 40
0.1091820222
 40
0.1334726062
 40
0.1844473103
 40
0.238542915
 40
0.2956548841
 40
0.3556621286
 40
0.4184290846
 40
0.4838073905
 40
0.55163729
 40
0.6217488503
 40
0.6939629338
 40
0.7680927382
 40
0.843942902
 40
0.9213151877
 40
1.0
 40
1.0
 40
1.0
 40
1.0
 10
13.6326800482
 20
7.7789264589
 30
0.0
 10
13.6336466476
 20
7.7767592135
 30
0.0
 10
13.6355543144
 20
7.7723065554
 30
0.0
 10
13.6382906609
 20
7.7654185805
 30
0.0
 10
13.6409574287
 20
7.7581921831
 30
0.0
 10
13.6435527245
 20
7.7506326275
 30
0.0
 10
13.6460746323
 20
7.7427452839
 30
0.0
 10
13.6493903533
 20
7.7316197642
 30
0.0
 10
13.6533222111
 20
7.7169256873
 30
0.0
 10
13.6576479746
 20
7.6983538991
 30
0.0
 10
13.6616412021
 20
7.6786234234
 30
0.0
 10
13.6652902069
 20
7.6577910819
 30
0.0
 10
13.6685842425
 20
7.6359166805
 30
0.0
 10
13.6715136203
 20
7.6130632262
 30
0.0
 10
13.6740697183
 20
7.5892965992
 30
0.0
 10
13.6762450145
 20
7.5646853943
 30
0.0
 10
13.6780331209
 20
7.5393006452
 30
0.0
 10
13.6794287414
 20
7.5132157779
 30
0.0
 10
13.6804278144
 20
7.4865059481
 30
0.0
 10
13.6810273042
 20
7.4592486689
 30
0.0
 10
13.6811584422
 20
7.440902388
 30
0.0
 10
13.6811584422
 20
7.4316522481
 30
0.0
  0
SPLINE
  5
398
100
AcDbEntity
  8
0
100
AcDbSpline
 62
7
  6
CONTINUOUS
 70
0
 71
3
 72
20
 73
16
 74
0
 42
0.0000001
 43
0.0000001
 44
0.0000000001
 40
0.0
 40
0.0
 40
0.0
 40
0.0
 40
0.0492313465
 40
0.1005884546
 40
0.1540114309
 40
0.2094342779
 40
0.2667850843
 40
0.3259871275
 40
0.3869588162
 40
0.4496142372
 40
0.513863735
 40
0.5796136568
 40
0.7152227386
 40
0.8556336099
 40
1.0
 40
1.0
 40
1.0
 40
1.0
 10
13.5970335723
 20
7.6848130482
 30
0.0
 10
13.5980986381
 20
7.6806179082
 30
0.0
 10
13.6001653289
 20
7.6720184052
 30
0.0
 10
13.6030273092
 20
7.6587832052
 30
0.0
 10
13.6057131653
 20
7.6449562439
 30
0.0
 10
13.6082183511
 20
7.630560373
 30
0.0
 10
13.610538755
 20
7.6156192634
 30
0.0
 10
13.6126704566
 20
7.6001575413
 30
0.0
 10
13.6146099138
 20
7.5842006917
 30
0.0
 10
13.6163539104
 20
7.5677750393
 30
0.0
 10
13.6178995164
 20
7.5509076638
 30
0.0
 10
13.6197109324
 20
7.5276261537
 30
0.0
 10
13.6214463991
 20
7.4976256584
 30
0.0
 10
13.6226859025
 20
7.4606845938
 30
0.0
 10
13.6229548851
 20
7.4356470697
 30
0.0
 10
13.6229548851
 20
7.4229549372
 30
0.0
  0
SPLINE
  5
399
100
AcDbEntity
  8
0
100
AcDbSpline
 62
7
  6
CONTINUOUS
 70
0
 71
3
 72
52
 73
48
 74
0
 42
0.0000001
 43
0.0000001
 44
0.0000000001
 40
0.0
 40
0.0
 40
0.0
 40
0.0
 40
0.0056188401
 40
0.0111420706
 40
0.0166418959
 40
0.0221915105
 40
0.0278619902
 40
0.0337196418
 40
0.0398239862
 40
0.0462269223
 40
0.0529723929
 40
0.0600969636
 40
0.0676303607
 40
0.0755964634
 40
0.0840139973
 40
0.0928973845
 40
0.1022573479
 40
0.1121014686
 40
0.1224346943
 40
0.1332596184
 40
0.1445769407
 40
0.1563855248
 40
0.1686828466
 40
0.1814648914
 40
0.1947266011
 40
0.2084616691
 40
0.2226629768
 40
0.2373223427
 40
0.2679780596
 40
0.3003497016
 40
0.3343465573
 40
0.3698687431
 40
0.4068083067
 40
0.445050174
 40
0.484472989
 40
0.5249498814
 40
0.5663491847
 40
0.6085351204
 40
0.6513684588
 40
0.6947071664
 40
0.7384070376
 40
0.7823223364
 40
0.826306383
 40
0.8702122919
 40
0.9138932785
 40
0.95720405
 40
1.0
 40
1.0
 40
1.0
 40
1.0
 10
13.6255990844
 20
6.7163425502
 30
0.0
 10
13.6269771942
 20
6.7158553203
 30
0.0
 10
13.6297661873
 20
6.7150390244
 30
0.0
 10
13.6340445994
 20
6.7143160507
 30
0.0
 10
13.6383614532
 20
6.7141107044
 30
0.0
 10
13.6427098215
 20
6.7144236007
 30
0.0
 10
13.6470839474
 20
6.7152530473
 30
0.0
 10
13.6514785533
 20
6.7165968352
 30
0.0
 10
13.6558894151
 20
6.7184516785
 30
0.0
 10
13.6603128031
 20
6.7208145543
 30
0.0
 10
13.6647455545
 20
6.7236820648
 30
0.0
 10
13.6691844406
 20
6.7270511084
 30
0.0
 10
13.6736263686
 20
6.7309182494
 30
0.0
 10
13.6780679803
 20
6.7352800202
 30
0.0
 10
13.6825059
 20
6.7401325375
 30
0.0
 10
13.6869365524
 20
6.7454716291
 30
0.0
 10
13.6913562975
 20
6.7512926886
 30
0.0
 10
13.6957614291
 20
6.7575906895
 30
0.0
 10
13.7001481416
 20
6.7643601935
 30
0.0
 10
13.7045126865
 20
6.7715952907
 30
0.0
 10
13.7088511782
 20
6.7792896885
 30
0.0
 10
13.7131598822
 20
6.7874366129
 30
0.0
 10
13.7174348959
 20
6.7960289303
 30
0.0
 10
13.72167253
 20
6.8050590366
 30
0.0
 10
13.7258689131
 20
6.8145189839
 30
0.0
 10
13.7300204084
 20
6.8244003743
 30
0.0
 10
13.7341232508
 20
6.8346944853
 30
0.0
 10
13.739605921
 20
6.8491747257
 30
0.0
 10
13.7462940702
 20
6.8682494117
 30
0.0
 10
13.7539545884
 20
6.8923022097
 30
0.0
 10
13.761337326
 20
6.9177623838
 30
0.0
 10
13.7684158017
 20
6.9445394842
 30
0.0
 10
13.7751645899
 20
6.9725385742
 30
0.0
 10
13.7815594749
 20
7.001660174
 30
0.0
 10
13.7875775208
 20
7.031800762
 30
0.0
 10
13.7931971578
 20
7.0628531263
 30
0.0
 10
13.7983982558
 20
7.09470677
 30
0.0
 10
13.8031621951
 20
7.1272483109
 30
0.0
 10
13.8074719313
 20
7.1603618942
 30
0.0
 10
13.811312054
 20
7.1939296095
 30
0.0
 10
13.8146688428
 20
7.2278319187
 30
0.0
 10
13.8175303103
 20
7.2619480763
 30
0.0
 10
13.8198862566
 20
7.2961565893
 30
0.0
 10
13.8217282788
 20
7.3303355785
 30
0.0
 10
13.823049853
 20
7.3643634102
 30
0.0
 10
13.8238462729
 20
7.3981186959
 30
0.0
 10
13.8240265551
 20
7.4205191704
 30
0.0
 10
13.8240265551
 20
7.4316522562
 30
0.0
  0
SPLINE
  5
39A
100
AcDbEntity
  8
0
100
AcDbSpline
 62
7
  6
CONTINUOUS
 70
0
 71
3
 72
31
 73
27
 74
0
 42
0.0000001
 43
0.0000001
 44
0.0000000001
 40
0.0
 40
0.0
 40
0.0
 40
0.0
 40
0.0183316733
 40
0.0378713458
 40
0.058611169
 40
0.0805360484
 40
0.1036248068
 40
0.1278510914
 40
0.1531839134
 40
0.1795881621
 40
0.2070251516
 40
0.2354529163
 40
0.2648264341
 40
0.2950980177
 40
0.326217539
 40
0.3581325425
 40
0.3907885282
 40
0.4241291658
 40
0.4926292322
 40
0.5631524325
 40
0.6351977139
 40
0.7082498669
 40
0.7817843906
 40
0.8552723988
 40
0.928184918
 40
1.0
 40
1.0
 40
1.0
 40
1.0
 10
13.5652872333
 20
6.8074158605
 30
0.0
 10
13.5673603438
 20
6.8107360098
 30
0.0
 10
13.5714770174
 20
6.8176997494
 30
0.0
 10
13.5773984516
 20
6.8287282972
 30
0.0
 10
13.5832526735
 20
6.8406535545
 30
0.0
 10
13.5890283855
 20
6.8534527724
 30
0.0
 10
13.5947146081
 20
6.8671018836
 30
0.0
 10
13.6003003843
 20
6.8815749946
 30
0.0
 10
13.6057749694
 20
6.8968445896
 30
0.0
 10
13.6111278415
 20
6.9128815484
 30
0.0
 10
13.6163486723
 20
6.9296552605
 30
0.0
 10
13.6214273789
 20
6.9471336693
 30
0.0
 10
13.6263541981
 20
6.9652833239
 30
0.0
 10
13.6311196318
 20
6.9840694754
 30
0.0
 10
13.6357144757
 20
7.0034561485
 30
0.0
 10
13.640129884
 20
7.02340618
 30
0.0
 10
13.6443574046
 20
7.043881352
 30
0.0
 10
13.6497813354
 20
7.0720833352
 30
0.0
 10
13.6560177145
 20
7.1083591005
 30
0.0
 10
13.6625682831
 20
7.1529525541
 30
0.0
 10
13.6682006609
 20
7.1986506765
 30
0.0
 10
13.6728713652
 20
7.2451031445
 30
0.0
 10
13.6765444353
 20
7.2919540511
 30
0.0
 10
13.6791916283
 20
7.3388443174
 30
0.0
 10
13.6807927686
 20
7.3854144082
 30
0.0
 10
13.6811584422
 20
7.4163181003
 30
0.0
 10
13.6811584422
 20
7.4316522481
 30
0.0
  0
SPLINE
  5
39B
100
AcDbEntity
  8
0
100
AcDbSpline
 62
7
  6
CONTINUOUS
 70
0
 71
3
 72
29
 73
25
 74
0
 42
0.0000001
 43
0.0000001
 44
0.0000000001
 40
0.0
 40
0.0
 40
0.0
 40
0.0
 40
0.0322746239
 40
0.0644896819
 40
0.0966422072
 40
0.1287295042
 40
0.1926901619
 40
0.2563650759
 40
0.2880965717
 40
0.3197532591
 40
0.3513347215
 40
0.3828408934
 40
0.4456194189
 40
0.5081048571
 40
0.5703095388
 40
0.6322513078
 40
0.6939532391
 40
0.7554432364
 40
0.8167535179
 40
0.8779199973
 40
0.908466528
 40
0.9389918934
 40
0.9695012913
 40
1.0
 40
1.0
 40
1.0
 40
1.0
 10
10.5553214097
 20
5.6041248356
 30
0.0
 10
10.5644745477
 20
5.6003284969
 30
0.0
 10
10.5828899085
 20
5.5930424527
 30
0.0
 10
10.6108303418
 20
5.5830400038
 30
0.0
 10
10.6390323707
 20
5.57398504
 30
0.0
 10
10.6768939575
 20
5.5632023557
 30
0.0
 10
10.7247081801
 20
5.552135214
 30
0.0
 10
10.7730516621
 20
5.5443274792
 30
0.0
 10
10.8118378424
 20
5.5400786129
 30
0.0
 10
10.8409200235
 20
5.5378937826
 30
0.0
 10
10.8699910061
 20
5.5367103128
 30
0.0
 10
10.9086408636
 20
5.5364693832
 30
0.0
 10
10.9567657262
 20
5.5386671783
 30
0.0
 10
11.0139858354
 20
5.5453086886
 30
0.0
 10
11.0703449128
 20
5.5559202398
 30
0.0
 10
11.1255741786
 20
5.5704521881
 30
0.0
 10
11.1794121939
 20
5.5888360535
 30
0.0
 10
11.2316039619
 20
5.6109854971
 30
0.0
 10
11.2819002948
 20
5.6367947231
 30
0.0
 10
11.3220600872
 20
5.6612662233
 30
0.0
 10
11.3529907076
 20
5.6825348754
 30
0.0
 10
11.3755637965
 20
5.6993114765
 30
0.0
 10
11.3974920069
 20
5.7168979301
 30
0.0
 10
11.4116663622
 20
5.7291507967
 30
0.0
 10
11.4186363188
 20
5.7354040407
 30
0.0
  0
SPLINE
  5
39C
100
AcDbEntity
  8
0
100
AcDbSpline
 62
7
  6
CONTINUOUS
 70
0
 71
3
 72
27
 73
23
 74
0
 42
0.0000001
 43
0.0000001
 44
0.0000000001
 40
0.0
 40
0.0
 40
0.0
 40
0.0
 40
0.022567109
 40
0.0460300346
 40
0.0703660934
 40
0.0955501845
 40
0.1215553876
 40
0.1483527307
 40
0.1759116612
 40
0.2041999826
 40
0.2628275661
 40
0.3239520019
 40
0.3872698045
 40
0.4524617766
 40
0.5191956634
 40
0.587128683
 40
0.655909986
 40
0.7251830989
 40
0.7945882235
 40
0.8637650032
 40
0.9323535672
 40
1.0
 40
1.0
 40
1.0
 40
1.0
 10
13.5430152628
 20
6.9056347687
 30
0.0
 10
13.5445089176
 20
6.9092997492
 30
0.0
 10
13.5474682713
 20
6.916810998
 30
0.0
 10
13.5517486617
 20
6.9283860226
 30
0.0
 10
13.5559521841
 20
6.9404761581
 30
0.0
 10
13.5600730532
 20
6.9530646214
 30
0.0
 10
13.564105468
 20
6.9661340627
 30
0.0
 10
13.5680438757
 20
6.9796663998
 30
0.0
 10
13.5718827985
 20
6.9936429408
 30
0.0
 10
13.5769215698
 20
7.0130767109
 30
0.0
 10
13.5829171979
 20
7.0383405621
 30
0.0
 10
13.5895520353
 20
7.0697560181
 30
0.0
 10
13.5956727208
 20
7.1024474883
 30
0.0
 10
13.6012450963
 20
7.136234033
 30
0.0
 10
13.6062380423
 20
7.1709288176
 30
0.0
 10
13.610623723
 20
7.2063398258
 30
0.0
 10
13.6143777191
 20
7.2422710451
 30
0.0
 10
13.6174791528
 20
7.2785235376
 30
0.0
 10
13.6199108228
 20
7.3148965942
 30
0.0
 10
13.6216592437
 20
7.3511887616
 30
0.0
 10
13.6227148295
 20
7.3871990284
 30
0.0
 10
13.6229548851
 20
7.4110915787
 30
0.0
 10
13.6229548851
 20
7.4229549372
 30
0.0
  0
SPLINE
  5
39D
100
AcDbEntity
  8
0
100
AcDbSpline
 62
7
  6
CONTINUOUS
 70
0
 71
3
 72
48
 73
44
 74
0
 42
0.0000001
 43
0.0000001
 44
0.0000000001
 40
0.0
 40
0.0
 40
0.0
 40
0.0
 40
0.0310657504
 40
0.0622878203
 40
0.0936616453
 40
0.125178752
 40
0.1568279349
 40
0.1885952505
 40
0.2204643576
 40
0.2524168703
 40
0.2844327404
 40
0.3164906674
 40
0.3485685219
 40
0.3806437832
 40
0.4126939811
 40
0.4446971382
 40
0.4766322051
 40
0.5084794803
 40
0.5402210143
 40
0.5718409879
 40
0.6033260537
 40
0.6346656397
 40
0.6658522114
 40
0.6968814689
 40
0.7277524873
 40
0.7431320057
 40
0.7584732005
 40
0.7737769276
 40
0.7890442511
 40
0.8042764398
 40
0.8194749667
 40
0.8346414958
 40
0.849777875
 40
0.8648861311
 40
0.8799684529
 40
0.8950271814
 40
0.9100647999
 40
0.9250839148
 40
0.9400872429
 40
0.9550775973
 40
0.9700578676
 40
0.9850310036
 40
1.0
 40
1.0
 40
1.0
 40
1.0
 10
8.2835389452
 20
9.2042480455
 30
0.0
 10
8.2835389452
 20
9.1834233576
 30
0.0
 10
8.2850834341
 20
9.1416533511
 30
0.0
 10
8.2919795475
 20
9.0791950931
 30
0.0
 10
8.3034224677
 20
9.0170975136
 30
0.0
 10
8.3193496998
 20
8.9557020803
 30
0.0
 10
8.3396740605
 20
8.8953408975
 30
0.0
 10
8.3642847165
 20
8.8363417744
 30
0.0
 10
8.3930477638
 20
8.7790247264
 30
0.0
 10
8.4258067521
 20
8.7237006804
 30
0.0
 10
8.4623836207
 20
8.6706696803
 30
0.0
 10
8.5025797928
 20
8.6202194193
 30
0.0
 10
8.5461770732
 20
8.572623584
 30
0.0
 10
8.592938823
 20
8.5281403527
 30
0.0
 10
8.642611387
 20
8.4870111615
 30
0.0
 10
8.6949253429
 20
8.4494593231
 30
0.0
 10
8.7495968861
 20
8.4156887093
 30
0.0
 10
8.8063295002
 20
8.3858828555
 30
0.0
 10
8.8648154863
 20
8.3602039273
 30
0.0
 10
8.9247375118
 20
8.3387916404
 30
0.0
 10
8.9857704989
 20
8.3217627377
 30
0.0
 10
9.0475830554
 20
8.3092103296
 30
0.0
 10
9.1098402056
 20
8.3012032264
 30
0.0
 10
9.172201505
 20
8.2977853614
 30
0.0
 10
9.2240480352
 20
8.2987797389
 30
0.0
 10
9.2652266624
 20
8.3018843895
 30
0.0
 10
9.2958903741
 20
8.3053572435
 30
0.0
 10
9.3263266123
 20
8.3099724538
 30
0.0
 10
9.3564945275
 20
8.3157238344
 30
0.0
 10
9.3863529387
 20
8.3226036207
 30
0.0
 10
9.4158613043
 20
8.3306023715
 30
0.0
 10
9.4449794587
 20
8.339709324
 30
0.0
 10
9.4736677924
 20
8.3499121188
 30
0.0
 10
9.501887318
 20
8.3611968055
 30
0.0
 10
9.5295996103
 20
8.373548155
 30
0.0
 10
9.556766972
 20
8.3869493665
 30
0.0
 10
9.5833524862
 20
8.40138215
 30
0.0
 10
9.6093199265
 20
8.4168269884
 30
0.0
 10
9.6346339889
 20
8.4332628539
 30
0.0
 10
9.659260243
 20
8.4506673094
 30
0.0
 10
9.683165235
 20
8.4690168986
 30
0.0
 10
9.7063160187
 20
8.4882861966
 30
0.0
 10
9.7212282943
 20
8.5017300222
 30
0.0
 10
9.7285468672
 20
8.5085949121
 30
0.0
  0
SPLINE
  5
39E
100
AcDbEntity
  8
0
100
AcDbSpline
 62
7
  6
CONTINUOUS
 70
0
 71
3
 72
47
 73
43
 74
0
 42
0.0000001
 43
0.0000001
 44
0.0000000001
 40
0.0
 40
0.0
 40
0.0
 40
0.0
 40
0.0063158891
 40
0.012670693
 40
0.0191025391
 40
0.0256481111
 40
0.0323420145
 40
0.0392163779
 40
0.0536142747
 40
0.0611950254
 40
0.0690568328
 40
0.0772179734
 40
0.0856944045
 40
0.0944998522
 40
0.1036459935
 40
0.1131428211
 40
0.1229986303
 40
0.1332202822
 40
0.1438134448
 40
0.1547825085
 40
0.1661308998
 40
0.1899733285
 40
0.2153528849
 40
0.2422687961
 40
0.2707111428
 40
0.3006622203
 40
0.3320975591
 40
0.3649868908
 40
0.3992948428
 40
0.43498141
 40
0.4720024243
 40
0.5103100179
 40
0.5498529293
 40
0.590576713
 40
0.6324240653
 40
0.675335092
 40
0.7192474692
 40
0.7640965597
 40
0.8098158789
 40
0.8563369465
 40
0.9035890751
 40
1.0
 40
1.0
 40
1.0
 40
1.0
 10
13.0822891595
 20
7.4343255489
 30
0.0
 10
13.0836531377
 20
7.4342309492
 30
0.0
 10
13.08638305
 20
7.4339294949
 30
0.0
 10
13.0904473161
 20
7.4331437894
 30
0.0
 10
13.0944844355
 20
7.4320246578
 30
0.0
 10
13.0984920018
 20
7.4305728434
 30
0.0
 10
13.102468477
 20
7.4287892985
 30
0.0
 10
13.1078078359
 20
7.4259271015
 30
0.0
 10
13.1130021557
 20
7.4224232842
 30
0.0
 10
13.118028978
 20
7.4183629748
 30
0.0
 10
13.1218258795
 20
7.4149396099
 30
0.0
 10
13.1255822853
 20
7.4111927908
 30
0.0
 10
13.1292971776
 20
7.4071237719
 30
0.0
 10
13.1329690506
 20
7.4027343303
 30
0.0
 10
13.1365966094
 20
7.3980262856
 30
0.0
 10
13.1401783802
 20
7.3930015087
 30
0.0
 10
13.1437130123
 20
7.3876620665
 30
0.0
 10
13.1471991446
 20
7.3820101332
 30
0.0
 10
13.1506353114
 20
7.3760479656
 30
0.0
 10
13.154020251
 20
7.3697780074
 30
0.0
 10
13.1585377832
 20
7.36086379
 30
0.0
 10
13.1640313439
 20
7.3489523155
 30
0.0
 10
13.1702932315
 20
7.3337014133
 30
0.0
 10
13.1763189
 20
7.317290965
 30
0.0
 10
13.182098468
 20
7.2997477306
 30
0.0
 10
13.187622431
 20
7.2811000194
 30
0.0
 10
13.1928816758
 20
7.2613782282
 30
0.0
 10
13.1978674778
 20
7.240614564
 30
0.0
 10
13.2025715277
 20
7.218843021
 30
0.0
 10
13.206985997
 20
7.1960993184
 30
0.0
 10
13.2111035491
 20
7.1724208314
 30
0.0
 10
13.2149173185
 20
7.1478464978
 30
0.0
 10
13.2184209304
 20
7.1224167577
 30
0.0
 10
13.2216085619
 20
7.0961734951
 30
0.0
 10
13.2244749079
 20
7.0691599526
 30
0.0
 10
13.2270151806
 20
7.0414206457
 30
0.0
 10
13.2292251333
 20
7.0130013128
 30
0.0
 10
13.2311011086
 20
6.9839488012
 30
0.0
 10
13.2326399606
 20
6.9543110443
 30
0.0
 10
13.2338391329
 20
6.9241369502
 30
0.0
 10
13.2349900135
 20
6.8829815919
 30
0.0
 10
13.2353238585
 20
6.8518799841
 30
0.0
 10
13.2353238585
 20
6.8310090832
 30
0.0
  0
SPLINE
  5
39F
100
AcDbEntity
  8
0
100
AcDbSpline
 62
7
  6
CONTINUOUS
 70
0
 71
3
 72
37
 73
33
 74
0
 42
0.0000001
 43
0.0000001
 44
0.0000000001
 40
0.0
 40
0.0
 40
0.0
 40
0.0
 40
0.0064163849
 40
0.0129887143
 40
0.0266959591
 40
0.041308292
 40
0.0569690587
 40
0.0737893752
 40
0.0918529083
 40
0.1112205941
 40
0.1319350554
 40
0.1540240068
 40
0.1775028764
 40
0.2023771478
 40
0.2286439529
 40
0.2562932269
 40
0.2853089181
 40
0.3156697194
 40
0.3473495673
 40
0.3803183506
 40
0.4145422753
 40
0.4499840857
 40
0.4866035436
 40
0.5243576375
 40
0.563200686
 40
0.6030846998
 40
0.6439595249
 40
0.6857729123
 40
0.7284707696
 40
0.8162937725
 40
0.9069649175
 40
1.0
 40
1.0
 40
1.0
 40
1.0
 10
13.0666661134
 20
7.4330214646
 30
0.0
 10
13.0679307123
 20
7.4325338517
 30
0.0
 10
13.0704564085
 20
7.4314554534
 30
0.0
 10
13.0754849548
 20
7.4288959446
 30
0.0
 10
13.0817149762
 20
7.4249204269
 30
0.0
 10
13.0889439181
 20
7.4190590633
 30
0.0
 10
13.0960254583
 20
7.4120525934
 30
0.0
 10
13.1029519906
 20
7.4039129556
 30
0.0
 10
13.1097168626
 20
7.394651761
 30
0.0
 10
13.1163123584
 20
7.3842818833
 30
0.0
 10
13.1227303197
 20
7.3728174855
 30
0.0
 10
13.1289622595
 20
7.360274369
 30
0.0
 10
13.134999698
 20
7.3466700532
 30
0.0
 10
13.1408341171
 20
7.332023697
 30
0.0
 10
13.1464571336
 20
7.3163561096
 30
0.0
 10
13.1518606588
 20
7.299689731
 30
0.0
 10
13.1570367988
 20
7.2820485267
 30
0.0
 10
13.1619779446
 20
7.2634579599
 30
0.0
 10
13.1666768858
 20
7.243944961
 30
0.0
 10
13.1711266978
 20
7.2235378394
 30
0.0
 10
13.1753208005
 20
7.2022662467
 30
0.0
 10
13.1792530552
 20
7.1801611418
 30
0.0
 10
13.1829176577
 20
7.1572547154
 30
0.0
 10
13.1863091796
 20
7.1335803453
 30
0.0
 10
13.1894226578
 20
7.1091725577
 30
0.0
 10
13.192253499
 20
7.0840669542
 30
0.0
 10
13.1947974935
 20
7.058300173
 30
0.0
 10
13.1970509656
 20
7.0319097903
 30
0.0
 10
13.1996883264
 20
6.9956019985
 30
0.0
 10
13.202215787
 20
6.9489425932
 30
0.0
 10
13.2040217725
 20
6.8916109002
 30
0.0
 10
13.2044142295
 20
6.8528047375
 30
0.0
 10
13.2044142295
 20
6.8331526732
 30
0.0
  0
SPLINE
  5
3A0
100
AcDbEntity
  8
0
100
AcDbSpline
 62
7
  6
CONTINUOUS
 70
0
 71
3
 72
41
 73
37
 74
0
 42
0.0000001
 43
0.0000001
 44
0.0000000001
 40
0.0
 40
0.0
 40
0.0
 40
0.0
 40
0.0066707121
 40
0.0132434347
 40
0.0197612865
 40
0.0262686057
 40
0.032809948
 40
0.0394291401
 40
0.0461683326
 40
0.0530672496
 40
0.067479409
 40
0.0829298963
 40
0.099618566
 40
0.117696265
 40
0.1372726252
 40
0.1584242946
 40
0.1812017998
 40
0.2056347505
 40
0.2317362129
 40
0.2595058864
 40
0.2889322107
 40
0.3199943284
 40
0.3526635406
 40
0.3869041303
 40
0.4226743147
 40
0.459927048
 40
0.4986103719
 40
0.5386679255
 40
0.5800394944
 40
0.6226611979
 40
0.6664658028
 40
0.7113831167
 40
0.7573401484
 40
0.8042615575
 40
0.9006811535
 40
1.0
 40
1.0
 40
1.0
 40
1.0
 10
13.0253109907
 20
7.2043385471
 30
0.0
 10
13.0263410229
 20
7.2045488096
 30
0.0
 10
13.0284035584
 20
7.2048854215
 30
0.0
 10
13.0315116717
 20
7.2051309624
 30
0.0
 10
13.0346039605
 20
7.2051120839
 30
0.0
 10
13.0376782908
 20
7.2048287114
 30
0.0
 10
13.0407328917
 20
7.204281125
 30
0.0
 10
13.0437658985
 20
7.2034696847
 30
0.0
 10
13.0467757469
 20
7.2023950618
 30
0.0
 10
13.0508138042
 20
7.2005868255
 30
0.0
 10
13.0558187952
 20
7.1976273194
 30
0.0
 10
13.0616070617
 20
7.1930921168
 30
0.0
 10
13.0672615665
 20
7.1875348192
 30
0.0
 10
13.0727756554
 20
7.18096765
 30
0.0
 10
13.0781435143
 20
7.1734023351
 30
0.0
 10
13.0833577628
 20
7.1648517304
 30
0.0
 10
13.0884104475
 20
7.1553302453
 30
0.0
 10
13.0932933041
 20
7.1448542184
 30
0.0
 10
13.0979979274
 20
7.1334418686
 30
0.0
 10
13.1025159281
 20
7.1211132937
 30
0.0
 10
13.1068391873
 20
7.1078904638
 30
0.0
 10
13.1109598319
 20
7.0937971074
 30
0.0
 10
13.1148702573
 20
7.0788586338
 30
0.0
 10
13.1185632775
 20
7.0631021022
 30
0.0
 10
13.1220320932
 20
7.046556132
 30
0.0
 10
13.1252702582
 20
7.0292508226
 30
0.0
 10
13.1282717883
 20
7.0112177119
 30
0.0
 10
13.1310311548
 20
6.9924897047
 30
0.0
 10
13.1335432257
 20
6.9731009899
 30
0.0
 10
13.1358033474
 20
6.9530869875
 30
0.0
 10
13.1378073665
 20
6.9324842825
 30
0.0
 10
13.1395515458
 20
6.9113305564
 30
0.0
 10
13.1410326876
 20
6.8896644439
 30
0.0
 10
13.1426678151
 20
6.8598760184
 30
0.0
 10
13.1440196267
 20
6.8216536275
 30
0.0
 10
13.1443682606
 20
6.7908049146
 30
0.0
 10
13.1443682606
 20
6.7751527177
 30
0.0
  0
SPLINE
  5
3A1
100
AcDbEntity
  8
0
100
AcDbSpline
 62
7
  6
CONTINUOUS
 70
0
 71
3
 72
26
 73
22
 74
0
 42
0.0000001
 43
0.0000001
 44
0.0000000001
 40
0.0
 40
0.0
 40
0.0
 40
0.0
 40
0.0201857864
 40
0.0411992638
 40
0.0630391299
 40
0.0857017841
 40
0.1091820222
 40
0.1334726062
 40
0.1844473103
 40
0.238542915
 40
0.2956548841
 40
0.3556621286
 40
0.4184290846
 40
0.4838073905
 40
0.55163729
 40
0.6217488503
 40
0.6939629338
 40
0.7680927382
 40
0.843942902
 40
0.9213151877
 40
1.0
 40
1.0
 40
1.0
 40
1.0
 10
12.9530217537
 20
7.1224269203
 30
0.0
 10
12.9539883531
 20
7.1202596749
 30
0.0
 10
12.9558960199
 20
7.1158070168
 30
0.0
 10
12.9586323664
 20
7.1089190419
 30
0.0
 10
12.9612991342
 20
7.1016926445
 30
0.0
 10
12.96389443
 20
7.0941330889
 30
0.0
 10
12.9664163378
 20
7.0862457453
 30
0.0
 10
12.9697320589
 20
7.0751202256
 30
0.0
 10
12.9736639166
 20
7.0604261487
 30
0.0
 10
12.9779896801
 20
7.0418543605
 30
0.0
 10
12.9819829076
 20
7.0221238848
 30
0.0
 10
12.9856319124
 20
7.0012915433
 30
0.0
 10
12.9889259481
 20
6.9794171419
 30
0.0
 10
12.9918553258
 20
6.9565636876
 30
0.0
 10
12.9944114238
 20
6.9327970606
 30
0.0
 10
12.9965867201
 20
6.9081858557
 30
0.0
 10
12.9983748265
 20
6.8828011066
 30
0.0
 10
12.9997704469
 20
6.8567162393
 30
0.0
 10
13.00076952
 20
6.8300064095
 30
0.0
 10
13.0013690097
 20
6.8027491304
 30
0.0
 10
13.0015001477
 20
6.7844028494
 30
0.0
 10
13.0015001477
 20
6.7751527095
 30
0.0
  0
SPLINE
  5
3A2
100
AcDbEntity
  8
0
100
AcDbSpline
 62
7
  6
CONTINUOUS
 70
0
 71
3
 72
20
 73
16
 74
0
 42
0.0000001
 43
0.0000001
 44
0.0000000001
 40
0.0
 40
0.0
 40
0.0
 40
0.0
 40
0.0492313465
 40
0.1005884546
 40
0.1540114309
 40
0.2094342779
 40
0.2667850843
 40
0.3259871275
 40
0.3869588162
 40
0.4496142372
 40
0.513863735
 40
0.5796136568
 40
0.7152227386
 40
0.8556336099
 40
1.0
 40
1.0
 40
1.0
 40
1.0
 10
12.9173752778
 20
7.0283135096
 30
0.0
 10
12.9184403436
 20
7.0241183696
 30
0.0
 10
12.9205070344
 20
7.0155188666
 30
0.0
 10
12.9233690147
 20
7.0022836666
 30
0.0
 10
12.9260548708
 20
6.9884567053
 30
0.0
 10
12.9285600566
 20
6.9740608344
 30
0.0
 10
12.9308804605
 20
6.9591197249
 30
0.0
 10
12.9330121621
 20
6.9436580027
 30
0.0
 10
12.9349516193
 20
6.9277011531
 30
0.0
 10
12.9366956159
 20
6.9112755007
 30
0.0
 10
12.938241222
 20
6.8944081252
 30
0.0
 10
12.9400526379
 20
6.8711266152
 30
0.0
 10
12.9417881046
 20
6.8411261198
 30
0.0
 10
12.943027608
 20
6.8041850552
 30
0.0
 10
12.9432965906
 20
6.7791475311
 30
0.0
 10
12.9432965906
 20
6.7664553986
 30
0.0
  0
SPLINE
  5
3A3
100
AcDbEntity
  8
0
100
AcDbSpline
 62
7
  6
CONTINUOUS
 70
0
 71
3
 72
71
 73
67
 74
0
 42
0.0000001
 43
0.0000001
 44
0.0000000001
 40
0.0
 40
0.0
 40
0.0
 40
0.0
 40
0.0156373785
 40
0.031327908
 40
0.0470702843
 40
0.0628636379
 40
0.078706081
 40
0.0945954869
 40
0.110529229
 40
0.1265042947
 40
0.1425172947
 40
0.1585644997
 40
0.1746418765
 40
0.1907451247
 40
0.2068697161
 40
0.223010935
 40
0.23916392
 40
0.2553237071
 40
0.2714852732
 40
0.2876435801
 40
0.3037936179
 40
0.3199304487
 40
0.3360492498
 40
0.3521453559
 40
0.3682143008
 40
0.3842518587
 40
0.4002540819
 40
0.4162173382
 40
0.4321383455
 40
0.4480142037
 40
0.4638424245
 40
0.4796209578
 40
0.4953482155
 40
0.5110230902
 40
0.5266449705
 40
0.5422137516
 40
0.5577298414
 40
0.5731941618
 40
0.588608145
 40
0.6039737248
 40
0.6192933216
 40
0.6345698226
 40
0.6498065561
 40
0.6650072606
 40
0.6801760496
 40
0.6953173702
 40
0.7104359597
 40
0.7255367959
 40
0.7406250456
 40
0.7557060099
 40
0.7707850676
 40
0.7858676178
 40
0.800959022
 40
0.8160645473
 40
0.8311893104
 40
0.8463382237
 40
0.8615159442
 40
0.8767268262
 40
0.8919748769
 40
0.9072637173
 40
0.9225965518
 40
0.9379761174
 40
0.9534047476
 40
0.9688840681
 40
0.9844157435
 40
1.0
 40
1.0
 40
1.0
 40
1.0
 10
8.3863199017
 20
9.2196065214
 30
0.0
 10
8.3863199017
 20
9.2070836389
 30
0.0
 10
8.3869369165
 20
9.1819910443
 30
0.0
 10
8.3897000058
 20
9.1443830174
 30
0.0
 10
8.3942957458
 20
9.1068280767
 30
0.0
 10
8.4007127121
 20
9.0694180837
 30
0.0
 10
8.4089355705
 20
9.0322425968
 30
0.0
 10
8.4189443492
 20
8.9953912857
 30
0.0
 10
8.4307149342
 20
8.9589528159
 30
0.0
 10
8.4442189207
 20
8.9230149176
 30
0.0
 10
8.4594237409
 20
8.8876640898
 30
0.0
 10
8.4762927362
 20
8.852985417
 30
0.0
 10
8.4947852542
 20
8.8190623626
 30
0.0
 10
8.5148567447
 20
8.7859765709
 30
0.0
 10
8.5364588668
 20
8.7538076721
 30
0.0
 10
8.5595396036
 20
8.722633092
 30
0.0
 10
8.5840433891
 20
8.6925278696
 30
0.0
 10
8.6099112242
 20
8.6635644622
 30
0.0
 10
8.6370808314
 20
8.6358125797
 30
0.0
 10
8.6654868084
 20
8.6093390222
 30
0.0
 10
8.6950607835
 20
8.5842075188
 30
0.0
 10
8.7257315788
 20
8.5604785768
 30
0.0
 10
8.7574253797
 20
8.5382093356
 30
0.0
 10
8.7900659131
 20
8.5174534334
 30
0.0
 10
8.8235746188
 20
8.4982608608
 30
0.0
 10
8.8578708452
 20
8.4806778472
 30
0.0
 10
8.8928720469
 20
8.4647467587
 30
0.0
 10
8.9284939806
 20
8.4505059947
 30
0.0
 10
8.9646509059
 20
8.4379898966
 30
0.0
 10
9.0012557893
 20
8.4272286635
 30
0.0
 10
9.038220513
 20
8.4182482837
 30
0.0
 10
9.0754560813
 20
8.411070453
 30
0.0
 10
9.1128728368
 20
8.4057125246
 30
0.0
 10
9.1503806785
 20
8.4021874803
 30
0.0
 10
9.1878892751
 20
8.4005038949
 30
0.0
 10
9.2253082814
 20
8.4006659152
 30
0.0
 10
9.2625475538
 20
8.402673247
 30
0.0
 10
9.299517366
 20
8.4065211575
 30
0.0
 10
9.3361286265
 20
8.4122004693
 30
0.0
 10
9.3722930961
 20
8.4196975774
 30
0.0
 10
9.4079235985
 20
8.428994498
 30
0.0
 10
9.4429342311
 20
8.4400689054
 30
0.0
 10
9.4772405713
 20
8.4528941847
 30
0.0
 10
9.5107598819
 20
8.4674394929
 30
0.0
 10
9.5434113103
 20
8.483669833
 30
0.0
 10
9.5751160903
 20
8.5015461273
 30
0.0
 10
9.6057977416
 20
8.5210253029
 30
0.0
 10
9.6353822473
 20
8.5420604141
 30
0.0
 10
9.6637982359
 20
8.5646007527
 30
0.0
 10
9.6909771549
 20
8.5885919705
 30
0.0
 10
9.7168534387
 20
8.6139762107
 30
0.0
 10
9.7413646671
 20
8.6406922498
 30
0.0
 10
9.7644517228
 20
8.6686756419
 30
0.0
 10
9.7860589484
 20
8.6978588676
 30
0.0
 10
9.8061342647
 20
8.7281715163
 30
0.0
 10
9.8246292986
 20
8.7595404561
 30
0.0
 10
9.8414994982
 20
8.7918900124
 30
0.0
 10
9.8567042398
 20
8.8251421528
 30
0.0
 10
9.8702069227
 20
8.8592166763
 30
0.0
 10
9.881975065
 20
8.8940314104
 30
0.0
 10
9.8919803735
 20
8.9295023883
 30
0.0
 10
9.9001988693
 20
8.9655441367
 30
0.0
 10
9.9066107328
 20
9.0020696099
 30
0.0
 10
9.9112008036
 20
9.0389912823
 30
0.0
 10
9.9139578342
 20
9.0762187748
 30
0.0
 10
9.9145685983
 20
9.1011417735
 30
0.0
 10
9.9145685983
 20
9.1136221143
 30
0.0
  0
SPLINE
  5
3A4
100
AcDbEntity
  8
0
100
AcDbSpline
 62
7
  6
CONTINUOUS
 70
0
 71
3
 72
51
 73
47
 74
0
 42
0.0000001
 43
0.0000001
 44
0.0000000001
 40
0.0
 40
0.0
 40
0.0
 40
0.0
 40
0.0055341477
 40
0.0112762866
 40
0.0172697191
 40
0.0235517808
 40
0.0301541704
 40
0.0371032198
 40
0.0444206364
 40
0.0521238798
 40
0.0602269332
 40
0.068740577
 40
0.0776730507
 40
0.0870301981
 40
0.096815996
 40
0.1070326071
 40
0.1176807885
 40
0.1287598968
 40
0.1402681926
 40
0.1522028336
 40
0.1645600881
 40
0.1773353412
 40
0.1905232271
 40
0.2041176633
 40
0.2181119119
 40
0.2324986471
 40
0.2624167643
 40
0.2938035224
 40
0.3265822755
 40
0.3606698582
 40
0.3959773041
 40
0.4324104759
 40
0.4698706334
 40
0.5082549576
 40
0.5474570454
 40
0.5873673816
 40
0.6278737969
 40
0.6688619148
 40
0.7102155924
 40
0.7518173537
 40
0.7935488285
 40
0.8352911623
 40
0.8769255063
 40
0.9183332814
 40
0.959397011
 40
1.0
 40
1.0
 40
1.0
 40
1.0
 10
12.955431998
 20
5.8276643035
 30
0.0
 10
12.9573449574
 20
5.8281148935
 30
0.0
 10
12.9611977563
 20
5.8292344094
 30
0.0
 10
12.966905901
 20
5.8314988039
 30
0.0
 10
12.9726315529
 20
5.8343719245
 30
0.0
 10
12.9783701978
 20
5.8378500634
 30
0.0
 10
12.9841183445
 20
5.8419300118
 30
0.0
 10
12.9898724488
 20
5.8466080565
 30
0.0
 10
12.9956287115
 20
5.8518806014
 30
0.0
 10
13.0013834722
 20
5.8577434875
 30
0.0
 10
13.0071326811
 20
5.864192453
 30
0.0
 10
13.0128724644
 20
5.8712226297
 30
0.0
 10
13.0185985978
 20
5.8788289151
 30
0.0
 10
13.024307054
 20
5.8870056151
 30
0.0
 10
13.0299935257
 20
5.8957467275
 30
0.0
 10
13.0356539001
 20
5.9050456998
 30
0.0
 10
13.0412838573
 20
5.9148956302
 30
0.0
 10
13.0468792504
 20
5.9252891133
 30
0.0
 10
13.0524357944
 20
5.936218372
 30
0.0
 10
13.0579493441
 20
5.947675168
 30
0.0
 10
13.0634156815
 20
5.959650882
 30
0.0
 10
13.0688306895
 20
5.972136469
 30
0.0
 10
13.0741902408
 20
5.9851225031
 30
0.0
 10
13.0794902591
 20
5.9985991593
 30
0.0
 10
13.0847267585
 20
6.012556253
 30
0.0
 10
13.091709891
 20
6.0320471297
 30
0.0
 10
13.1002334663
 20
6.0575436471
 30
0.0
 10
13.1100179118
 20
6.0894935372
 30
0.0
 10
13.1194574354
 20
6.1230875185
 30
0.0
 10
13.1285231894
 20
6.158223753
 30
0.0
 10
13.1371874516
 20
6.1947959285
 30
0.0
 10
13.1454237466
 20
6.2326932062
 30
0.0
 10
13.1532069166
 20
6.2718006896
 30
0.0
 10
13.1605132
 20
6.3119997551
 30
0.0
 10
13.1673203018
 20
6.3531684313
 30
0.0
 10
13.1736074598
 20
6.395181775
 30
0.0
 10
13.1793555066
 20
6.4379122572
 30
0.0
 10
13.184546927
 20
6.4812301553
 30
0.0
 10
13.1891659099
 20
6.5250039502
 30
0.0
 10
13.1931983966
 20
6.5691007312
 30
0.0
 10
13.1966321199
 20
6.6133865957
 30
0.0
 10
13.1994566495
 20
6.6577270787
 30
0.0
 10
13.2016634056
 20
6.7019875046
 30
0.0
 10
13.2032457198
 20
6.7460335581
 30
0.0
 10
13.2041987989
 20
6.7897313085
 30
0.0
 10
13.2044142295
 20
6.8187335642
 30
0.0
 10
13.2044142295
 20
6.8331526732
 30
0.0
  0
SPLINE
  5
3A5
100
AcDbEntity
  8
0
100
AcDbSpline
 62
7
  6
CONTINUOUS
 70
0
 71
3
 72
52
 73
48
 74
0
 42
0.0000001
 43
0.0000001
 44
0.0000000001
 40
0.0
 40
0.0
 40
0.0
 40
0.0
 40
0.0056188401
 40
0.0111420706
 40
0.0166418959
 40
0.0221915105
 40
0.0278619902
 40
0.0337196418
 40
0.0398239862
 40
0.0462269223
 40
0.0529723929
 40
0.0600969636
 40
0.0676303607
 40
0.0755964634
 40
0.0840139973
 40
0.0928973845
 40
0.1022573479
 40
0.1121014686
 40
0.1224346943
 40
0.1332596184
 40
0.1445769407
 40
0.1563855248
 40
0.1686828466
 40
0.1814648914
 40
0.1947266011
 40
0.2084616691
 40
0.2226629768
 40
0.2373223427
 40
0.2679780596
 40
0.3003497016
 40
0.3343465573
 40
0.3698687431
 40
0.4068083067
 40
0.445050174
 40
0.484472989
 40
0.5249498814
 40
0.5663491847
 40
0.6085351204
 40
0.6513684588
 40
0.6947071664
 40
0.7384070376
 40
0.7823223364
 40
0.826306383
 40
0.8702122919
 40
0.9138932785
 40
0.95720405
 40
1.0
 40
1.0
 40
1.0
 40
1.0
 10
12.9459407899
 20
6.0598430116
 30
0.0
 10
12.9473188997
 20
6.0593557817
 30
0.0
 10
12.9501078928
 20
6.0585394858
 30
0.0
 10
12.954386305
 20
6.0578165121
 30
0.0
 10
12.9587031588
 20
6.0576111659
 30
0.0
 10
12.963051527
 20
6.0579240621
 30
0.0
 10
12.9674256529
 20
6.0587535087
 30
0.0
 10
12.9718202588
 20
6.0600972966
 30
0.0
 10
12.9762311206
 20
6.0619521399
 30
0.0
 10
12.9806545086
 20
6.0643150157
 30
0.0
 10
12.9850872601
 20
6.0671825262
 30
0.0
 10
12.9895261461
 20
6.0705515698
 30
0.0
 10
12.9939680741
 20
6.0744187108
 30
0.0
 10
12.9984096858
 20
6.0787804816
 30
0.0
 10
13.0028476055
 20
6.0836329989
 30
0.0
 10
13.007278258
 20
6.0889720905
 30
0.0
 10
13.011698003
 20
6.09479315
 30
0.0
 10
13.0161031346
 20
6.1010911509
 30
0.0
 10
13.0204898472
 20
6.1078606549
 30
0.0
 10
13.024854392
 20
6.1150957521
 30
0.0
 10
13.0291928837
 20
6.1227901499
 30
0.0
 10
13.0335015877
 20
6.1309370744
 30
0.0
 10
13.0377766015
 20
6.1395293917
 30
0.0
 10
13.0420142356
 20
6.148559498
 30
0.0
 10
13.0462106186
 20
6.1580194453
 30
0.0
 10
13.0503621139
 20
6.1679008357
 30
0.0
 10
13.0544649563
 20
6.1781949467
 30
0.0
 10
13.0599476265
 20
6.1926751871
 30
0.0
 10
13.0666357758
 20
6.2117498731
 30
0.0
 10
13.0742962939
 20
6.2358026711
 30
0.0
 10
13.0816790316
 20
6.2612628452
 30
0.0
 10
13.0887575072
 20
6.2880399456
 30
0.0
 10
13.0955062954
 20
6.3160390356
 30
0.0
 10
13.1019011804
 20
6.3451606354
 30
0.0
 10
13.1079192263
 20
6.3753012234
 30
0.0
 10
13.1135388633
 20
6.4063535878
 30
0.0
 10
13.1187399613
 20
6.4382072314
 30
0.0
 10
13.1235039006
 20
6.4707487723
 30
0.0
 10
13.1278136368
 20
6.5038623556
 30
0.0
 10
13.1316537595
 20
6.5374300709
 30
0.0
 10
13.1350105483
 20
6.5713323801
 30
0.0
 10
13.1378720158
 20
6.6054485377
 30
0.0
 10
13.1402279621
 20
6.6396570507
 30
0.0
 10
13.1420699843
 20
6.6738360399
 30
0.0
 10
13.1433915585
 20
6.7078638716
 30
0.0
 10
13.1441879785
 20
6.7416191574
 30
0.0
 10
13.1443682606
 20
6.7640196318
 30
0.0
 10
13.1443682606
 20
6.7751527177
 30
0.0
  0
SPLINE
  5
3A6
100
AcDbEntity
  8
0
100
AcDbSpline
 62
7
  6
CONTINUOUS
 70
0
 71
3
 72
31
 73
27
 74
0
 42
0.0000001
 43
0.0000001
 44
0.0000000001
 40
0.0
 40
0.0
 40
0.0
 40
0.0
 40
0.0183316733
 40
0.0378713458
 40
0.058611169
 40
0.0805360484
 40
0.1036248068
 40
0.1278510914
 40
0.1531839134
 40
0.1795881621
 40
0.2070251516
 40
0.2354529163
 40
0.2648264341
 40
0.2950980177
 40
0.326217539
 40
0.3581325425
 40
0.3907885282
 40
0.4241291658
 40
0.4926292322
 40
0.5631524325
 40
0.6351977139
 40
0.7082498669
 40
0.7817843906
 40
0.8552723988
 40
0.928184918
 40
1.0
 40
1.0
 40
1.0
 40
1.0
 10
12.8856289388
 20
6.1509163219
 30
0.0
 10
12.8877020493
 20
6.1542364713
 30
0.0
 10
12.8918187229
 20
6.1612002108
 30
0.0
 10
12.8977401571
 20
6.1722287586
 30
0.0
 10
12.9035943791
 20
6.1841540159
 30
0.0
 10
12.909370091
 20
6.1969532338
 30
0.0
 10
12.9150563136
 20
6.2106023451
 30
0.0
 10
12.9206420898
 20
6.2250754561
 30
0.0
 10
12.926116675
 20
6.240345051
 30
0.0
 10
12.931469547
 20
6.2563820098
 30
0.0
 10
12.9366903778
 20
6.2731557219
 30
0.0
 10
12.9417690844
 20
6.2906341307
 30
0.0
 10
12.9466959036
 20
6.3087837854
 30
0.0
 10
12.9514613373
 20
6.3275699368
 30
0.0
 10
12.9560561813
 20
6.3469566099
 30
0.0
 10
12.9604715895
 20
6.3669066414
 30
0.0
 10
12.9646991101
 20
6.3873818134
 30
0.0
 10
12.9701230409
 20
6.4155837966
 30
0.0
 10
12.97635942
 20
6.4518595619
 30
0.0
 10
12.9829099886
 20
6.4964530156
 30
0.0
 10
12.9885423664
 20
6.542151138
 30
0.0
 10
12.9932130707
 20
6.5886036059
 30
0.0
 10
12.9968861408
 20
6.6354545125
 30
0.0
 10
12.9995333339
 20
6.6823447788
 30
0.0
 10
13.0011344741
 20
6.7289148696
 30
0.0
 10
13.0015001477
 20
6.7598185617
 30
0.0
 10
13.0015001477
 20
6.7751527095
 30
0.0
  0
SPLINE
  5
3A7
100
AcDbEntity
  8
0
100
AcDbSpline
 62
7
  6
CONTINUOUS
 70
0
 71
3
 72
27
 73
23
 74
0
 42
0.0000001
 43
0.0000001
 44
0.0000000001
 40
0.0
 40
0.0
 40
0.0
 40
0.0
 40
0.022567109
 40
0.0460300346
 40
0.0703660934
 40
0.0955501845
 40
0.1215553876
 40
0.1483527307
 40
0.1759116612
 40
0.2041999826
 40
0.2628275661
 40
0.3239520019
 40
0.3872698045
 40
0.4524617766
 40
0.5191956634
 40
0.587128683
 40
0.655909986
 40
0.7251830989
 40
0.7945882235
 40
0.8637650032
 40
0.9323535672
 40
1.0
 40
1.0
 40
1.0
 40
1.0
 10
12.8633569683
 20
6.2491352301
 30
0.0
 10
12.8648506231
 20
6.2528002106
 30
0.0
 10
12.8678099768
 20
6.2603114594
 30
0.0
 10
12.8720903672
 20
6.271886484
 30
0.0
 10
12.8762938896
 20
6.2839766195
 30
0.0
 10
12.8804147587
 20
6.2965650828
 30
0.0
 10
12.8844471735
 20
6.3096345241
 30
0.0
 10
12.8883855812
 20
6.3231668612
 30
0.0
 10
12.892224504
 20
6.3371434022
 30
0.0
 10
12.8972632753
 20
6.3565771723
 30
0.0
 10
12.9032589034
 20
6.3818410235
 30
0.0
 10
12.9098937408
 20
6.4132564795
 30
0.0
 10
12.9160144263
 20
6.4459479497
 30
0.0
 10
12.9215868018
 20
6.4797344945
 30
0.0
 10
12.9265797478
 20
6.514429279
 30
0.0
 10
12.9309654285
 20
6.5498402872
 30
0.0
 10
12.9347194246
 20
6.5857715065
 30
0.0
 10
12.9378208583
 20
6.622023999
 30
0.0
 10
12.9402525283
 20
6.6583970556
 30
0.0
 10
12.9420009493
 20
6.694689223
 30
0.0
 10
12.943056535
 20
6.7306994898
 30
0.0
 10
12.9432965906
 20
6.7545920401
 30
0.0
 10
12.9432965906
 20
6.7664553986
 30
0.0
  0
SPLINE
  5
3A8
100
AcDbEntity
  8
0
100
AcDbSpline
 62
7
  6
CONTINUOUS
 70
0
 71
3
 72
51
 73
47
 74
0
 42
0.0000001
 43
0.0000001
 44
0.0000000001
 40
0.0
 40
0.0
 40
0.0
 40
0.0
 40
0.0417745783
 40
0.0840381405
 40
0.1266602741
 40
0.1695088693
 40
0.2124510806
 40
0.2553536312
 40
0.2980834223
 40
0.3405080289
 40
0.3824962347
 40
0.423918559
 40
0.4646477904
 40
0.504559528
 40
0.5435327322
 40
0.5814502925
 40
0.6181996178
 40
0.65367326
 40
0.6877695871
 40
0.7203935248
 40
0.7514574013
 40
0.7663796097
 40
0.7808828022
 40
0.7949586364
 40
0.8085993574
 40
0.8217980667
 40
0.8345485781
 40
0.846845703
 40
0.8586851383
 40
0.8700637714
 40
0.8809796196
 40
0.8914321637
 40
0.9014223656
 40
0.9109530489
 40
0.92002903
 40
0.9286575737
 40
0.9368486818
 40
0.94461566
 40
0.9519756015
 40
0.9589500813
 40
0.9655658127
 40
0.9778459388
 40
0.983607172
 40
0.9891799146
 40
0.9946230077
 40
1.0
 40
1.0
 40
1.0
 40
1.0
 10
13.2353238585
 20
6.8310090832
 30
0.0
 10
13.2353238585
 20
6.8159537731
 30
0.0
 10
13.2350889785
 20
6.7856664529
 30
0.0
 10
13.2340506211
 20
6.7400290685
 30
0.0
 10
13.2323271985
 20
6.6940250018
 30
0.0
 10
13.2299243659
 20
6.6478065579
 30
0.0
 10
13.22685006
 20
6.601526636
 30
0.0
 10
13.2231144443
 20
6.5553383482
 30
0.0
 10
13.2187298932
 20
6.5093945046
 30
0.0
 10
13.2137109415
 20
6.4638470991
 30
0.0
 10
13.2080742412
 20
6.4188468061
 30
0.0
 10
13.2018385053
 20
6.3745424765
 30
0.0
 10
13.1950244471
 20
6.331080641
 30
0.0
 10
13.1876547135
 20
6.2886050201
 30
0.0
 10
13.179753811
 20
6.2472560398
 30
0.0
 10
13.1713480263
 20
6.2071703609
 30
0.0
 10
13.1624653422
 20
6.1684804044
 30
0.0
 10
13.1531353424
 20
6.1313139328
 30
0.0
 10
13.1433891257
 20
6.0957934781
 30
0.0
 10
13.1332591611
 20
6.0620363518
 30
0.0
 10
13.1244115552
 20
6.0351185701
 30
0.0
 10
13.117151069
 20
6.0145624209
 30
0.0
 10
13.11170385
 20
5.9998608764
 30
0.0
 10
13.1061864031
 20
5.9856799691
 30
0.0
 10
13.1006031626
 20
5.9720313916
 30
0.0
 10
13.0949588585
 20
5.9589263706
 30
0.0
 10
13.0892580623
 20
5.9463757094
 30
0.0
 10
13.083505582
 20
5.9343896982
 30
0.0
 10
13.0777060694
 20
5.9229781965
 30
0.0
 10
13.0718643913
 20
5.9121505199
 30
0.0
 10
13.0659852513
 20
5.9019155434
 30
0.0
 10
13.0600735384
 20
5.8922815703
 30
0.0
 10
13.0541339698
 20
5.8832564552
 30
0.0
 10
13.0481714028
 20
5.8748474593
 30
0.0
 10
13.0421905134
 20
5.8670613937
 30
0.0
 10
13.0361960393
 20
5.859904467
 30
0.0
 10
13.0301925602
 20
5.8533824732
 30
0.0
 10
13.0241844826
 20
5.8475005701
 30
0.0
 10
13.0181765485
 20
5.8422638169
 30
0.0
 10
13.0121714884
 20
5.8376758859
 30
0.0
 10
13.0043725683
 20
5.8325585554
 30
0.0
 10
12.9963766087
 20
5.8285565385
 30
0.0
 10
12.9882775163
 20
5.8259020688
 30
0.0
 10
12.9823559526
 20
5.8246218642
 30
0.0
 10
12.9764675871
 20
5.8240141725
 30
0.0
 10
12.9725581556
 20
5.8240588484
 30
0.0
 10
12.9706249635
 20
5.8241929265
 30
0.0
  0
SPLINE
  5
3A9
100
AcDbEntity
  8
0
100
AcDbSpline
 62
7
  6
CONTINUOUS
 70
0
 71
3
 72
23
 73
19
 74
0
 42
0.0000001
 43
0.0000001
 44
0.0000000001
 40
0.0
 40
0.0
 40
0.0
 40
0.0
 40
0.063638969
 40
0.1270840637
 40
0.1903407442
 40
0.2534141889
 40
0.3163120085
 40
0.379042994
 40
0.4416173704
 40
0.504046699
 40
0.5663437563
 40
0.6285224513
 40
0.6905977128
 40
0.7525853667
 40
0.8145019995
 40
0.8763648141
 40
0.9381914835
 40
1.0
 40
1.0
 40
1.0
 40
1.0
 10
10.0910059056
 20
6.4922186702
 30
0.0
 10
10.0916369103
 20
6.5033370754
 30
0.0
 10
10.0933942339
 20
6.5255150873
 30
0.0
 10
10.0975209881
 20
6.5585774189
 30
0.0
 10
10.1031264267
 20
6.591321805
 30
0.0
 10
10.1101996102
 20
6.6236826853
 30
0.0
 10
10.1187265619
 20
6.6555961812
 30
0.0
 10
10.1286904889
 20
6.6869991031
 30
0.0
 10
10.1400716912
 20
6.7178293221
 30
0.0
 10
10.1528476913
 20
6.7480258152
 30
0.0
 10
10.1669932658
 20
6.7775288045
 30
0.0
 10
10.1824804883
 20
6.8062798663
 30
0.0
 10
10.1992787046
 20
6.8342220898
 30
0.0
 10
10.2173546965
 20
6.8613001729
 30
0.0
 10
10.236672661
 20
6.8874604526
 30
0.0
 10
10.2571945886
 20
6.9126512913
 30
0.0
 10
10.2788791721
 20
6.9368221313
 30
0.0
 10
10.2940845007
 20
6.9522265741
 30
0.0
 10
10.3018639488
 20
6.9597409378
 30
0.0
  0
SPLINE
  5
3AA
100
AcDbEntity
  8
0
100
AcDbSpline
 62
7
  6
CONTINUOUS
 70
0
 71
3
 72
33
 73
29
 74
0
 42
0.0000001
 43
0.0000001
 44
0.0000000001
 40
0.0
 40
0.0
 40
0.0
 40
0.0
 40
0.0958348694
 40
0.1891075393
 40
0.2792507307
 40
0.3657221938
 40
0.4480135352
 40
0.5256551542
 40
0.5625998871
 40
0.5982279088
 40
0.6324952589
 40
0.6653619968
 40
0.6967931368
 40
0.7267585922
 40
0.7552346622
 40
0.7822039745
 40
0.8076576644
 40
0.8315956119
 40
0.8540295607
 40
0.8749841658
 40
0.8945014605
 40
0.9126434539
 40
0.9294983432
 40
0.9451850262
 40
0.9598600607
 40
0.9737213157
 40
0.9870092446
 40
1.0
 40
1.0
 40
1.0
 40
1.0
 10
13.6820381502
 20
11.5054647786
 30
0.0
 10
13.6875338791
 20
11.5050836485
 30
0.0
 10
13.6983704803
 20
11.5042107041
 30
0.0
 10
13.714337604
 20
11.5025443762
 30
0.0
 10
13.7297244009
 20
11.5005474771
 30
0.0
 10
13.7444282886
 20
11.4982335952
 30
0.0
 10
13.7583511913
 20
11.4956184528
 30
0.0
 10
13.769401765
 20
11.4931641773
 30
0.0
 10
13.7777749818
 20
11.4910527002
 30
0.0
 10
13.7836991501
 20
11.4894314534
 30
0.0
 10
13.7893621645
 20
11.4877490952
 30
0.0
 10
13.7947546164
 20
11.4860083876
 30
0.0
 10
13.7998675617
 20
11.4842123037
 30
0.0
 10
13.8046925296
 20
11.4823637912
 30
0.0
 10
13.8092215755
 20
11.480466006
 30
0.0
 10
13.8134472433
 20
11.4785220125
 30
0.0
 10
13.8173626658
 20
11.4765351056
 30
0.0
 10
13.8209614666
 20
11.474508398
 30
0.0
 10
13.8242379252
 20
11.4724452263
 30
0.0
 10
13.8271867811
 20
11.4703486255
 30
0.0
 10
13.8298034659
 20
11.4682217861
 30
0.0
 10
13.8320837344
 20
11.4660674422
 30
0.0
 10
13.8340239107
 20
11.4638883645
 30
0.0
 10
13.8356202219
 20
11.4616867988
 30
0.0
 10
13.8368689927
 20
11.4594652518
 30
0.0
 10
13.8377658488
 20
11.4572261913
 30
0.0
 10
13.8383065084
 20
11.4549744495
 30
0.0
 10
13.8384273688
 20
11.453461247
 30
0.0
 10
13.8384273602
 20
11.4527144922
 30
0.0
  0
SPLINE
  5
3AB
100
AcDbEntity
  8
0
100
AcDbSpline
 62
7
  6
CONTINUOUS
 70
0
 71
3
 72
23
 73
19
 74
0
 42
0.0000001
 43
0.0000001
 44
0.0000000001
 40
0.0
 40
0.0
 40
0.0
 40
0.0
 40
0.0637776288
 40
0.1273446152
 40
0.1907020433
 40
0.2538561391
 40
0.3168131818
 40
0.3795820998
 40
0.442173387
 40
0.5045993408
 40
0.5668738683
 40
0.6290123813
 40
0.69103165
 40
0.7529496426
 40
0.8147853504
 40
0.8765585998
 40
0.9382898528
 40
1.0
 40
1.0
 40
1.0
 40
1.0
 10
8.2755155615
 20
9.1964980514
 30
0.0
 10
8.2755155615
 20
9.2099983495
 30
0.0
 10
8.2761616959
 20
9.236958934
 30
0.0
 10
8.2790782713
 20
9.2772358947
 30
0.0
 10
8.2839342144
 20
9.3171934597
 30
0.0
 10
8.2907181766
 20
9.3567381163
 30
0.0
 10
8.2994147939
 20
9.395779218
 30
0.0
 10
8.3100040152
 20
9.4342266027
 30
0.0
 10
8.3224615639
 20
9.471991671
 30
0.0
 10
8.3367587927
 20
9.5089873226
 30
0.0
 10
8.3528628221
 20
9.5451282344
 30
0.0
 10
8.3707365797
 20
9.5803310481
 30
0.0
 10
8.3903389005
 20
9.6145145548
 30
0.0
 10
8.4116246464
 20
9.647599913
 30
0.0
 10
8.4345446964
 20
9.679510724
 30
0.0
 10
8.4590464853
 20
9.7101736149
 30
0.0
 10
8.4850725356
 20
9.7395169007
 30
0.0
 10
8.5034029015
 20
9.7581576164
 30
0.0
 10
8.5127982855
 20
9.7672328467
 30
0.0
  0
SPLINE
  5
3AC
100
AcDbEntity
  8
0
100
AcDbSpline
 62
7
  6
CONTINUOUS
 70
0
 71
3
 72
23
 73
19
 74
0
 42
0.0000001
 43
0.0000001
 44
0.0000000001
 40
0.0
 40
0.0
 40
0.0
 40
0.0
 40
0.0637442733
 40
0.1272879991
 40
0.1906307738
 40
0.2537789012
 40
0.3167375554
 40
0.3795145776
 40
0.4421191511
 40
0.5045620247
 40
0.5668554076
 40
0.6290128467
 40
0.6910491273
 40
0.7529801395
 40
0.8148227434
 40
0.8765946171
 40
0.9383140955
 40
1.0
 40
1.0
 40
1.0
 40
1.0
 10
9.9860737282
 20
6.4424742802
 30
0.0
 10
9.9860737282
 20
6.4553713925
 30
0.0
 10
9.9866634617
 20
6.4811290265
 30
0.0
 10
9.989325043
 20
6.5196197612
 30
0.0
 10
9.9937570068
 20
6.5578265659
 30
0.0
 10
9.999949764
 20
6.5956677169
 30
0.0
 10
10.0078906022
 20
6.6330641769
 30
0.0
 10
10.0175628038
 20
6.6699370963
 30
0.0
 10
10.0289461304
 20
6.7062089539
 30
0.0
 10
10.0420166758
 20
6.741803429
 30
0.0
 10
10.0567469995
 20
6.7766456276
 30
0.0
 10
10.0731061738
 20
6.8106622269
 30
0.0
 10
10.0910598359
 20
6.8437816228
 30
0.0
 10
10.1105702857
 20
6.8759341092
 30
0.0
 10
10.1315964257
 20
6.9070519536
 30
0.0
 10
10.1540942479
 20
6.9370698909
 30
0.0
 10
10.1780156138
 20
6.9659238681
 30
0.0
 10
10.1948835399
 20
6.9843486455
 30
0.0
 10
10.2035348659
 20
6.9933442672
 30
0.0
  0
SPLINE
  5
3AD
100
AcDbEntity
  8
0
100
AcDbSpline
 62
7
  6
CONTINUOUS
 70
0
 71
3
 72
15
 73
11
 74
0
 42
0.0000001
 43
0.0000001
 44
0.0000000001
 40
0.0
 40
0.0
 40
0.0
 40
0.0
 40
0.1261301777
 40
0.2518293477
 40
0.377144529
 40
0.5021290747
 40
0.6268418396
 40
0.7513462337
 40
0.8757091808
 40
1.0
 40
1.0
 40
1.0
 40
1.0
 10
11.0728703721
 20
5.6612794938
 30
0.0
 10
11.0876985889
 20
5.6649394731
 30
0.0
 10
11.1170791788
 20
5.6731978867
 30
0.0
 10
11.1601828482
 20
5.6883801
 30
0.0
 10
11.2020828224
 20
5.7062787106
 30
0.0
 10
11.2426160159
 20
5.7268247247
 30
0.0
 10
11.2816274017
 20
5.7499395557
 30
0.0
 10
11.3189676068
 20
5.7755351254
 30
0.0
 10
11.3544914974
 20
5.8035115447
 30
0.0
 10
11.3768792486
 20
5.8236847489
 30
0.0
 10
11.3877199079
 20
5.8341249393
 30
0.0
  0
LINE
  5
3AE
100
AcDbEntity
  8
0
100
AcDbLine
 62
7
  6
CONTINUOUS
 10
11.3877199079
 20
5.8341249393
 11
11.3884476204
 21
5.8348268113
  0
ENDSEC
  0
SECTION
  2
OBJECTS
  0
DICTIONARY
  5
C
100
AcDbDictionary
280
0
281
1
  3
ACAD_GROUP
350
D
  3
ACAD_MLINESTYLE
350
17
  3
ACAD_LAYOUT
350
1A
  3
ACAD_PLOTSETTINGS
350
19
  3
ACAD_PLOTSTYLENAME
350
E
  3
ACAD_IMAGE_DICT
350
       3B0
  3
ACAD_IMAGE_VARS
350
       3B1
  3
ACAD_TABLESTYLE
350
       3B2
  0
IMAGEDEF_REACTOR
  5
3AF
100
AcDbRasterImageDefReactor
 90
2
330
27F
  0
DICTIONARY
  5
D
102
{ACAD_REACTORS
330
C
102
}
100
AcDbDictionary
280
0
281
1
  0
ACDBDICTIONARYWDFLT
  5
E
102
{ACAD_REACTORS
330
C
102
}
100
AcDbDictionary
281
1
  3
Normal
350
F
100
AcDbDictionaryWithDefault
340
F
  0
DICTIONARY
  5
3B0
330
C
100
AcDbDictionary
281
1
  3
H8L_assy_2_img_1
350
       3B5
  0
RASTERVARIABLES
  5
3B1
330
C
100
AcDbRasterVariables
 90
0
 70
0
 71
1
 72
5
  0
DICTIONARY
  5
17
102
{ACAD_REACTORS
330
C
102
}
100
AcDbDictionary
280
0
281
1
  3
Standard
350
18
  0
DICTIONARY
  5
3B2
330
C
100
AcDbDictionary
281
1
  3
Standard
350
       3B6
  3
Standard1
350
       3B7
  0
DICTIONARY
  5
19
102
{ACAD_REACTORS
330
C
102
}
100
AcDbDictionary
281
1
  0
DICTIONARY
  5
1A
102
{ACAD_REACTORS
330
C
102
}
100
AcDbDictionary
281
1
  3
Model
350
3B3
  3
Layout1
350
3B4
  0
ACDBPLACEHOLDER
  5
F
102
{ACAD_REACTORS
330
E
102
}
  0
MLINESTYLE
  5
18
102
{ACAD_REACTORS
330
17
102
}
100
AcDbMlineStyle
  2
STANDARD
 70
0
  3

 62
256
 51
90.0
 52
90.0
 71
2
 49
0.5
 62
256
  6
BYLAYER
 49
-0.5
 62
256
  6
BYLAYER
  0
LAYOUT
  5
3B3
102
{ACAD_REACTORS
330
1A
102
}
100
AcDbPlotSettings
  1

  2
none_device
  4
ANSI_C_(22.00_x_17.00_Inches)
  6

 40
0.0
 41
0.0
 42
0.0
 43
0.0
 44
558.8
 45
431.8
 46
0.0
 47
0.0
 48
0.0
 49
0.0
140
0.0
141
0.0
142
1.0
143
1.0
 70
1024
 72
0
 73
0
 74
0
  7

 75
0
147
1.0
148
0.0
149
0.0
100
AcDbLayout
  1
Model
 70
0
 71
0
 10
0.0
 20
0.0
 11
22.0
 21
17.0
 12
0.0
 22
0.0
 32
0.0
 14
0.0
 24
0.0
 34
0.0
 15
0.0
 25
0.0
 35
0.0
146
0.0
 13
0.0
 23
0.0
 33
0.0
 16
1.0
 26
0.0
 36
0.0
 17
0.0
 27
1.0
 37
0.0
 76
0
330
204
345
0
346
0
  0
LAYOUT
  5
3B4
102
{ACAD_REACTORS
330
1A
102
}
100
AcDbPlotSettings
  1

  2
none_device
  4
ANSI_C_(22.00_x_17.00_Inches)
  6

 40
0.0
 41
0.0
 42
0.0
 43
0.0
 44
558.8
 45
431.8
 46
0.0
 47
0.0
 48
0.0
 49
0.0
140
0.0
141
0.0
142
1.0
143
1.0
 70
0
 72
0
 73
0
 74
0
  7

 75
0
147
1.0
148
0.0
149
0.0
100
AcDbLayout
  1
Layout1
 70
0
 71
1
 10
0.0
 20
0.0
 11
22.0
 21
17.0
 12
0.0
 22
0.0
 32
0.0
 14
0.0
 24
0.0
 34
0.0
 15
0.0
 25
0.0
 35
0.0
146
0.0
 13
0.0
 23
0.0
 33
0.0
 16
1.0
 26
0.0
 36
0.0
 17
0.0
 27
1.0
 37
0.0
 76
0
330
205
345
0
346
0
  0
IMAGEDEF
  5
3B5
102
{ACAD_REACTORS
330
3B0
330
3AF
102
}
100
AcDbRasterImageDef
 90
0
  1
H8L_assy_2_img_1.png
 10
369.0
 20
92.0
 11
0.0066666667
 21
0.0066666667
280
1
281
0
  0
TABLESTYLE
  5
3B6
102
{ACAD_REACTORS
330
3B2
330
282
330
283
102
}
330
3B2
100
AcDbTableStyle
  3
Standard
 70
0
 71
0
 40
0.06
 41
0.06
280
1
281
1
  7
Standard
140
0.18
170
1
 62
0
 63
7
283
0
  7
Standard
140
0.18
170
1
 62
0
 63
7
283
0
  7
Standard
140
0.18
170
1
 62
0
 63
7
283
0
  0
TABLESTYLE
  5
3B7
102
{ACAD_REACTORS
330
3B2
330
281
102
}
330
3B2
100
AcDbTableStyle
  3
Standard1
 70
1
 71
0
 40
0.06
 41
0.06
280
1
281
1
  7
Standard
140
0.18
170
1
 62
0
 63
7
283
0
  7
Standard
140
0.18
170
1
 62
0
 63
7
283
0
  7
Standard
140
0.18
170
1
 62
0
 63
7
283
0
  0
ENDSEC
  0
EOF
