999
DXF file: H7M_assy_2.dxf
999
Pro/ENGINEER 2014200 by Parametric Technology Corporation
  0
SECTION
  2
HEADER
  9
$ACADVER
  1
AC1021
  9
$DWGCODEPAGE
  3
ANSI_1252
  9
$EXTMAX
 10
22.0
 20
17.0
 30
0.0
  9
$EXTMIN
 10
0.0
 20
0.0
 30
0.0
  9
$LIMMIN
 10
0.0
 20
0.0
  9
$LIMMAX
 10
22.0
 20
17.0
  9
$VIEWCTR
 10
11.0
 20
8.5
  9
$VIEWSIZE
 40
17.0
  9
$CLAYER
  8
0
  9
$LTSCALE
 40
1.21
  9
$CELTYPE
  6
BYLAYER
  9
$DIMSCALE
 40
1.0
  9
$DIMASZ
 40
0.1875
  9
$DIMEXO
 40
0.0625
  9
$DIMDLI
 40
0.836
  9
$DIMEXE
 40
0.125
  9
$DIMCEN
 40
0.198
  9
$DIMLFAC
 40
1.0
  9
$DIMBLK
  1
_FILLED
  9
$DIMTXT
 40
0.1
  9
$DIMTOL
 70
0
  9
$DIMLIM
 70
0
  9
$DIMTFAC
 40
1.0
  9
$DIMGAP
 40
0.09
  9
$DIMDSEP
 70
46
  9
$AUNITS
 70
0
  9
$PDMODE
 70
3
  9
$PDSIZE
 40
0.3125
  9
$HANDSEED
  5
3BA
  9
$TILEMODE
 70
1
  9
$MEASUREMENT
 70
0
  9
$INSUNITS
 70
1
  0
ENDSEC
  0
SECTION
  2
CLASSES
  0
CLASS
  1
ACDBDICTIONARYWDFLT
  2
AcDbDictionaryWithDefault
  3
AutoCAD 2000
 90
0
 91
1
280
0
281
0
  0
CLASS
  1
ACDBPLACEHOLDER
  2
AcDbPlaceHolder
  3
AutoCAD 2000
 90
0
 91
1
280
0
281
0
  0
CLASS
  1
LAYOUT
  2
AcDbLayout
  3
AutoCAD 2000
 90
0
 91
0
280
0
281
0
  0
CLASS
  1
RASTERVARIABLES
  2
AcDbRasterVariables
  3
ISM
 90
0
 91
1
280
0
281
0
  0
CLASS
  1
IMAGEDEF
  2
AcDbRasterImageDef
  3
ISM
 90
0
 91
1
280
0
281
0
  0
CLASS
  1
IMAGEDEF_REACTOR
  2
AcDbRasterImageDefReactor
  3
ISM
 90
0
 91
1
280
0
281
0
  0
CLASS
  1
IMAGE
  2
AcDbRasterImage
  3
ISM
 90
127
 91
1
280
0
281
1
  0
CLASS
  1
TABLESTYLE
  2
AcDbTableStyle
  3
ObjectDBX Classes
 90
2047
 91
1
280
0
281
0
  0
CLASS
  1
ACAD_TABLE
  2
AcDbTable
  3
ObjectDBX Classes
 90
1025
 91
3
280
0
281
1
  0
ENDSEC
  0
SECTION
  2
TABLES
  0
TABLE
  2
VPORT
  5
8
100
AcDbSymbolTable
 70
2
  0
VPORT
  5
1F4
100
AcDbSymbolTableRecord
100
AcDbViewportTableRecord
  2
*ACTIVE
 70
0
 10
0.0
 20
0.0
 11
1.0
 21
1.0
 12
11.0
 22
8.5
 13
0.0
 23
0.0
 14
1.0
 24
1.0
 15
0.0
 25
0.0
 16
0.0
 26
0.0
 36
1.0
 17
0.0
 27
0.0
 37
0.0
 40
17.0
 41
1.2941176471
 42
50.0
 43
0.0
 44
0.0
 50
0.0
 51
0.0
 71
0
 72
100
 73
1
 74
1
 75
0
 76
0
 77
0
 78
0
  0
ENDTAB
  0
TABLE
  2
LTYPE
  5
5
100
AcDbSymbolTable
 70
6
  0
LTYPE
  5
14
100
AcDbSymbolTableRecord
100
AcDbLinetypeTableRecord
  2
BYBLOCK
 70
0
  3

 72
65
 73
0
 40
0.0
  0
LTYPE
  5
15
100
AcDbSymbolTableRecord
100
AcDbLinetypeTableRecord
  2
BYLAYER
 70
0
  3

 72
65
 73
0
 40
0.0
  0
LTYPE
  5
16
100
AcDbSymbolTableRecord
100
AcDbLinetypeTableRecord
  2
CONTINUOUS
 70
64
  3
Solid line
 72
65
 73
0
 40
0.0
  0
LTYPE
  5
1F5
100
AcDbSymbolTableRecord
100
AcDbLinetypeTableRecord
  2
CENTER
 70
64
  3
____ _ ____ _ ____ _ ____ _ ____ _ ____ _ ____
 72
65
 73
4
 40
0.6
 49
0.375
 74
0
 49
-0.075
 74
0
 49
0.075
 74
0
 49
-0.075
 74
0
  0
LTYPE
  5
1F6
100
AcDbSymbolTableRecord
100
AcDbLinetypeTableRecord
  2
HIDDEN
 70
64
  3
- - - - - - - - - - - - - - - - - - - -
 72
65
 73
2
 40
0.2
 49
0.1
 74
0
 49
-0.1
 74
0
  0
LTYPE
  5
1F7
100
AcDbSymbolTableRecord
100
AcDbLinetypeTableRecord
  2
PHANTOM
 70
64
  3
_____ _ _ _____ _ _ _____ _ _ _____
 72
65
 73
6
 40
0.8
 49
0.45
 74
0
 49
-0.05
 74
0
 49
0.1
 74
0
 49
-0.05
 74
0
 49
0.1
 74
0
 49
-0.05
 74
0
  0
LTYPE
  5
1F8
100
AcDbSymbolTableRecord
100
AcDbLinetypeTableRecord
  2
DOT
 70
64
  3
. . . . . . . . . . . . . . . . . . . .
 72
65
 73
2
 40
0.2
 49
0.1
 74
0
 49
-0.1
 74
0
  0
LTYPE
  5
1F9
100
AcDbSymbolTableRecord
100
AcDbLinetypeTableRecord
  2
DASHED
 70
64
  3
- - - - - - - - - - - - - - - - - - - -
 72
65
 73
2
 40
0.2
 49
0.1
 74
0
 49
-0.1
 74
0
  0
ENDTAB
  0
TABLE
  2
LAYER
  5
2
100
AcDbSymbolTable
 70
36
  0
LAYER
  5
10
100
AcDbSymbolTableRecord
100
AcDbLayerTableRecord
  2
0
 70
0
 62
7
  6
CONTINUOUS
370
-3
390
F
  0
LAYER
  5
1FA
100
AcDbSymbolTableRecord
100
AcDbLayerTableRecord
  2
DEFAULT_1
 70
0
 62
7
  6
CENTER
370
-3
390
F
  0
LAYER
  5
1FB
100
AcDbSymbolTableRecord
100
AcDbLayerTableRecord
  2
DEFAULT_2
 70
0
 62
8
  6
HIDDEN
370
-3
390
F
  0
LAYER
  5
1FC
100
AcDbSymbolTableRecord
100
AcDbLayerTableRecord
  2
DEFAULT_3
 70
0
 62
7
  6
PHANTOM
370
-3
390
F
  0
LAYER
  5
1FD
100
AcDbSymbolTableRecord
100
AcDbLayerTableRecord
  2
DATUM_PLANES
 70
0
 62
7
  6
CONTINUOUS
370
-3
390
F
  0
LAYER
  5
1FE
100
AcDbSymbolTableRecord
100
AcDbLayerTableRecord
  2
PORT_AREAS
 70
0
 62
7
  6
CONTINUOUS
370
-3
390
F
  0
LAYER
  5
1FF
100
AcDbSymbolTableRecord
100
AcDbLayerTableRecord
  2
SUNNBOMCOSMETIC
 70
0
 62
7
  6
CONTINUOUS
370
-3
390
F
  0
LAYER
  5
200
100
AcDbSymbolTableRecord
100
AcDbLayerTableRecord
  2
SUNNBOMSTAMPING
 70
0
 62
7
  6
CONTINUOUS
370
-3
390
F
  0
LAYER
  5
201
100
AcDbSymbolTableRecord
100
AcDbLayerTableRecord
  2
THREADS
 70
0
 62
7
  6
CONTINUOUS
370
-3
390
F
  0
ENDTAB
  0
TABLE
  2
STYLE
  5
3
100
AcDbSymbolTable
 70
1
  0
STYLE
  5
11
100
AcDbSymbolTableRecord
100
AcDbTextStyleTableRecord
  2
STANDARD
 70
0
 40
0.0
 41
0.8
 50
0.0
 71
0
 42
0.2
  3
txt
  4

  0
STYLE
  5
202
100
AcDbSymbolTableRecord
100
AcDbTextStyleTableRecord
  2
TEXTSTYLE_1
 70
0
 40
0.0
 41
0.8
 50
0.0
 71
0
 42
0.2
  3
gdt
  4

  0
ENDTAB
  0
TABLE
  2
VIEW
  5
6
100
AcDbSymbolTable
 70
0
  0
ENDTAB
  0
TABLE
  2
UCS
  5
7
100
AcDbSymbolTable
 70
0
  0
ENDTAB
  0
TABLE
  2
APPID
  5
9
100
AcDbSymbolTable
 70
1
  0
APPID
  5
203
100
AcDbSymbolTableRecord
100
AcDbRegAppTableRecord
  2
ACAD
 70
0
  0
ENDTAB
  0
TABLE
  2
BLOCK_RECORD
  5
1
100
AcDbSymbolTable
 70
0
  0
BLOCK_RECORD
  5
204
100
AcDbSymbolTableRecord
100
AcDbBlockTableRecord
  2
*Model_Space
  0
BLOCK_RECORD
  5
205
100
AcDbSymbolTableRecord
100
AcDbBlockTableRecord
  2
*Paper_Space
  0
BLOCK_RECORD
  5
206
100
AcDbSymbolTableRecord
100
AcDbBlockTableRecord
  2
SUN_FIRST_THIRD_ANGLE_BL0
  0
BLOCK_RECORD
  5
207
100
AcDbSymbolTableRecord
100
AcDbBlockTableRecord
  2
*T1
  0
BLOCK_RECORD
  5
208
100
AcDbSymbolTableRecord
100
AcDbBlockTableRecord
  2
*T2
  0
BLOCK_RECORD
  5
209
100
AcDbSymbolTableRecord
100
AcDbBlockTableRecord
  2
*T3
  0
ENDTAB
  0
TABLE
  2
DIMSTYLE
  5
A
100
AcDbSymbolTable
 70
1
100
AcDbDimStyleTable
 71
0
  0
DIMSTYLE
105
20A
100
AcDbSymbolTableRecord
100
AcDbDimStyleTableRecord
  2
STANDARD
 70
0
  3

  4

 40
1.0
 41
0.1875
 42
0.0625
 43
0.38
 44
0.125
 45
0.0
 46
0.0
 47
0.001
 48
0.001
140
0.1
141
0.09
142
0.0
143
25.4
144
1.0
145
0.0
146
1.0
147
0.09
 71
0.0
 72
0.0
 73
1
 74
1
 75
0
 76
0
 77
0
 78
4
170
0
171
2
172
0
173
0
174
0
175
0
176
0
177
0
178
0
270
2
271
3
272
3
273
2
274
2
275
0
280
0
281
0
282
0
283
1
284
4
285
0
286
0
287
3
288
0
340
11
278
46
  0
ENDTAB
  0
ENDSEC
  0
SECTION
  2
BLOCKS
  0
BLOCK
  5
20
100
AcDbEntity
  8
0
100
AcDbBlockBegin
  2
*Model_Space
 70
0
 10
0.0
 20
0.0
 30
0.0
  3
*Model_Space
  1

  0
ENDBLK
  5
21
100
AcDbEntity
  8
0
100
AcDbBlockEnd
  0
BLOCK
  5
1C
100
AcDbEntity
  8
0
100
AcDbBlockBegin
  2
*Paper_Space
 70
0
 10
0.0
 20
0.0
 30
0.0
  3
*Paper_Space
  1

  0
ENDBLK
  5
1D
100
AcDbEntity
  8
0
100
AcDbBlockEnd
  0
BLOCK
  5
20B
100
AcDbEntity
  8
0
100
AcDbBlockBegin
 62
2
  6
CONTINUOUS
  2
SUN_FIRST_THIRD_ANGLE_BL0
 70
64
 10
20.4816717061
 20
1.2289683772
  3
SUN_FIRST_THIRD_ANGLE_BL0
  1

  0
TEXT
  5
20C
100
AcDbEntity
  8
0
100
AcDbText
 62
2
  6
CONTINUOUS
 10
19.4750896608
 20
1.4136269581
  7
STANDARD
 40
0.08
  1
FIRST ANGLE
 41
0.8
 72
0
100
AcDbText
  0
TEXT
  5
20D
100
AcDbEntity
  8
0
100
AcDbText
 62
2
  6
CONTINUOUS
 10
20.7842537513
 20
1.4047600029
  7
STANDARD
 40
0.08
  1
THIRD ANGLE
 41
0.8
 72
0
100
AcDbText
  0
LINE
  5
20E
100
AcDbEntity
  8
0
100
AcDbLine
 62
7
  6
CONTINUOUS
 10
19.4767170086
 20
1.1727031207
 11
19.6334271527
 21
1.1717972817
  0
LINE
  5
20F
100
AcDbEntity
  8
0
100
AcDbLine
 62
7
  6
CONTINUOUS
 10
19.6596964832
 20
1.1717972817
 11
19.6950230232
 21
1.171593082
  0
LINE
  5
210
100
AcDbEntity
  8
0
100
AcDbLine
 62
7
  6
CONTINUOUS
 10
19.7194818561
 20
1.1708914427
 11
19.8852396156
 21
1.1699333054
  0
LINE
  5
211
100
AcDbEntity
  8
0
100
AcDbLine
 62
7
  6
CONTINUOUS
 10
19.4758111696
 20
1.2723454088
 11
19.88525039
 21
1.3511534004
  0
LINE
  5
212
100
AcDbEntity
  8
0
100
AcDbLine
 62
7
  6
CONTINUOUS
 10
19.88525039
 20
1.3511534004
 11
19.8831348489
 21
0.9851647912
  0
LINE
  5
213
100
AcDbEntity
  8
0
100
AcDbLine
 62
7
  6
CONTINUOUS
 10
19.8831348489
 20
0.9851647912
 11
19.4767170086
 21
1.0658141206
  0
LINE
  5
214
100
AcDbEntity
  8
0
100
AcDbLine
 62
7
  6
CONTINUOUS
 10
19.4767170086
 20
1.0658141206
 11
19.4779056764
 21
1.2714536432
  0
CIRCLE
  5
215
100
AcDbEntity
  8
0
100
AcDbCircle
 62
7
  6
CONTINUOUS
 10
20.2068232291
 20
1.1717972817
 40
0.175742101
  0
CIRCLE
  5
216
100
AcDbEntity
  8
0
100
AcDbCircle
 62
7
  6
CONTINUOUS
 10
20.2068232291
 20
1.1717972817
 40
0.1005522074
  0
LINE
  5
217
100
AcDbEntity
  8
0
100
AcDbLine
 62
7
  6
CONTINUOUS
 10
20.2077290681
 20
1.3756110529
 11
20.2071171714
 21
1.2379342989
  0
LINE
  5
218
100
AcDbEntity
  8
0
100
AcDbLine
 62
7
  6
CONTINUOUS
 10
20.2077290681
 20
1.2016899681
 11
20.2074674401
 21
1.1428236749
  0
LINE
  5
219
100
AcDbEntity
  8
0
100
AcDbLine
 62
7
  6
CONTINUOUS
 10
20.208634907
 20
1.101141841
 11
20.2080230104
 21
0.963465087
  0
LINE
  5
21A
100
AcDbEntity
  8
0
100
AcDbLine
 62
7
  6
CONTINUOUS
 10
20.0066328138
 20
1.1745147986
 11
20.1443095678
 21
1.1739029019
  0
LINE
  5
21B
100
AcDbEntity
  8
0
100
AcDbLine
 62
7
  6
CONTINUOUS
 10
20.1832714155
 20
1.1727031207
 11
20.238153505
 21
1.172335442
  0
LINE
  5
21C
100
AcDbEntity
  8
0
100
AcDbLine
 62
7
  6
CONTINUOUS
 10
20.2756669918
 20
1.1717972817
 11
20.407916871
 21
1.1712095044
  0
CIRCLE
  5
21D
100
AcDbEntity
  8
0
100
AcDbCircle
 62
7
  6
CONTINUOUS
 10
20.7509457401
 20
1.1693297793
 40
0.1722024983
  0
CIRCLE
  5
21E
100
AcDbEntity
  8
0
100
AcDbCircle
 62
7
  6
CONTINUOUS
 10
20.7509457401
 20
1.1693297793
 40
0.0985164967
  0
LINE
  5
21F
100
AcDbEntity
  8
0
100
AcDbLine
 62
7
  6
CONTINUOUS
 10
20.7169767782
 20
1.170462078
 11
20.7825395137
 21
1.1682766535
  0
LINE
  5
220
100
AcDbEntity
  8
0
100
AcDbLine
 62
7
  6
CONTINUOUS
 10
20.8177513651
 20
1.1693297793
 11
20.947965719
 21
1.1693297793
  0
LINE
  5
221
100
AcDbEntity
  8
0
100
AcDbLine
 62
7
  6
CONTINUOUS
 10
20.6875370113
 20
1.170462078
 11
20.5573226574
 21
1.170462078
  0
LINE
  5
222
100
AcDbEntity
  8
0
100
AcDbLine
 62
7
  6
CONTINUOUS
 10
20.7486811426
 20
1.1987695462
 11
20.7486811426
 21
1.1432869085
  0
LINE
  5
223
100
AcDbEntity
  8
0
100
AcDbLine
 62
7
  6
CONTINUOUS
 10
20.7498134414
 20
1.1059210505
 11
20.7498134414
 21
0.9757066966
  0
LINE
  5
224
100
AcDbEntity
  8
0
100
AcDbLine
 62
7
  6
CONTINUOUS
 10
20.7486811426
 20
1.2338708068
 11
20.7486811426
 21
1.3640851607
  0
LINE
  5
225
100
AcDbEntity
  8
0
100
AcDbLine
 62
7
  6
CONTINUOUS
 10
21.0702539817
 20
1.2701043662
 11
21.4790138229
 21
1.3448360823
  0
LINE
  5
226
100
AcDbEntity
  8
0
100
AcDbLine
 62
7
  6
CONTINUOUS
 10
21.4790138229
 20
1.3448360823
 11
21.4790138229
 21
0.9779712941
  0
LINE
  5
227
100
AcDbEntity
  8
0
100
AcDbLine
 62
7
  6
CONTINUOUS
 10
21.4790138229
 20
0.9779712941
 11
21.069121683
 21
1.0617614
  0
LINE
  5
228
100
AcDbEntity
  8
0
100
AcDbLine
 62
7
  6
CONTINUOUS
 10
21.0702539817
 20
1.2701043662
 11
21.069121683
 21
1.0617614
  0
LINE
  5
229
100
AcDbEntity
  8
0
100
AcDbLine
 62
7
  6
CONTINUOUS
 10
21.4790138229
 20
1.1693297793
 11
21.3159628059
 21
1.1693297793
  0
LINE
  5
22A
100
AcDbEntity
  8
0
100
AcDbLine
 62
7
  6
CONTINUOUS
 10
21.2876553377
 20
1.1693297793
 11
21.2502894796
 21
1.1693297793
  0
LINE
  5
22B
100
AcDbEntity
  8
0
100
AcDbLine
 62
7
  6
CONTINUOUS
 10
21.2208497126
 20
1.1659328831
 11
21.0713862804
 21
1.1659328831
  0
LINE
  5
22C
100
AcDbEntity
  8
0
100
AcDbLine
 62
7
  6
CONTINUOUS
 10
20.4796138713
 20
1.5284908897
 11
20.4766766948
 21
0.9294458646
  0
ENDBLK
  5
22D
100
AcDbEntity
  8
0
  6
BYBLOCK
 62
0
100
AcDbBlockEnd
  0
BLOCK
  5
22E
100
AcDbEntity
  8
0
100
AcDbBlockBegin
  2
*T1
 70
1
 10
0.0
 20
0.0
  3
*T1
  1

  0
LINE
  5
22F
100
AcDbEntity
  8
0
100
AcDbLine
 62
2
  6
CONTINUOUS
 10
9.275
 20
0.0
 11
-0.0
 21
0.0
  0
LINE
  5
230
100
AcDbEntity
  8
0
100
AcDbLine
 62
2
  6
CONTINUOUS
 10
9.275
 20
0.0
 11
9.275
 21
1.25
  0
LINE
  5
231
100
AcDbEntity
  8
0
100
AcDbLine
 62
2
  6
CONTINUOUS
 10
9.275
 20
0.625
 11
-0.0
 21
0.625
  0
LINE
  5
232
100
AcDbEntity
  8
0
100
AcDbLine
 62
2
  6
CONTINUOUS
 10
9.275
 20
1.25
 11
-0.0
 21
1.25
  0
LINE
  5
233
100
AcDbEntity
  8
0
100
AcDbLine
 62
2
  6
CONTINUOUS
 10
6.8
 20
0.0
 11
6.8
 21
1.25
  0
LINE
  5
234
100
AcDbEntity
  8
0
100
AcDbLine
 62
2
  6
CONTINUOUS
 10
6.4
 20
0.0
 11
6.4
 21
0.625
  0
LINE
  5
235
100
AcDbEntity
  8
0
100
AcDbLine
 62
2
  6
CONTINUOUS
 10
5.9
 20
0.0
 11
5.9
 21
0.625
  0
LINE
  5
236
100
AcDbEntity
  8
0
100
AcDbLine
 62
2
  6
CONTINUOUS
 10
5.2
 20
0.0
 11
5.2
 21
0.625
  0
LINE
  5
237
100
AcDbEntity
  8
0
100
AcDbLine
 62
2
  6
CONTINUOUS
 10
4.1
 20
0.0
 11
4.1
 21
1.25
  0
LINE
  5
238
100
AcDbEntity
  8
0
100
AcDbLine
 62
2
  6
CONTINUOUS
 10
-0.0
 20
0.0
 11
-0.0
 21
1.25
  0
MTEXT
  5
239
100
AcDbEntity
  8
0
100
AcDbMText
 62
2
  6
CONTINUOUS
  7
STANDARD
 71
2
 72
1
 10
6.6
 20
0.325
 30
0.0
 11
1.0
 21
0.0
 31
0.0
 44
0.9
  1
2
 40
0.125
 41
0.2
  0
MTEXT
  5
23A
100
AcDbEntity
  8
0
100
AcDbMText
 62
2
  6
CONTINUOUS
  7
STANDARD
 71
2
 72
1
 10
6.15
 20
0.325
 30
0.0
 11
1.0
 21
0.0
 31
0.0
 44
0.9
  1
C
 40
0.125
 41
0.2
  0
MTEXT
  5
23B
100
AcDbEntity
  8
0
100
AcDbMText
 62
2
  6
CONTINUOUS
  7
STANDARD
 71
2
 72
1
 10
5.55
 20
0.325
 30
0.0
 11
1.0
 21
0.0
 31
0.0
 44
0.9
  1
1.000
 40
0.125
 41
1.0
  0
MTEXT
  5
23C
100
AcDbEntity
  8
0
100
AcDbMText
 62
2
  6
CONTINUOUS
  7
STANDARD
 71
2
 72
1
 10
4.65
 20
0.325
 30
0.0
 11
1.0
 21
0.0
 31
0.0
 44
0.9
  1
Aug-01-22
 40
0.125
 41
1.8
  0
MTEXT
  5
23D
100
AcDbEntity
  8
0
100
AcDbMText
 62
2
  6
CONTINUOUS
  7
STANDARD
 71
2
 72
1
 10
2.05
 20
0.4625
 30
0.0
 11
1.0
 21
0.0
 31
0.0
 44
0.9
  1
T-17A Line mount\PThrough port 1 with reverse flow check
 40
0.125
 41
7.6
  0
MTEXT
  5
23E
100
AcDbEntity
  8
0
100
AcDbMText
 62
2
  6
CONTINUOUS
  7
STANDARD
 71
1
 72
1
 10
6.45
 20
0.5625
 30
0.0
 11
1.0
 21
0.0
 31
0.0
 44
0.9
  1
SHEET
 40
0.06
 41
0.48
  0
MTEXT
  5
23F
100
AcDbEntity
  8
0
100
AcDbMText
 62
2
  6
CONTINUOUS
  7
STANDARD
 71
1
 72
1
 10
5.95
 20
0.5625
 30
0.0
 11
1.0
 21
0.0
 31
0.0
 44
0.9
  1
DWG SIZE
 40
0.06
 41
0.768
  0
MTEXT
  5
240
100
AcDbEntity
  8
0
100
AcDbMText
 62
2
  6
CONTINUOUS
  7
STANDARD
 71
1
 72
1
 10
5.25
 20
0.5625
 30
0.0
 11
1.0
 21
0.0
 31
0.0
 44
0.9
  1
SCALE
 40
0.06
 41
0.48
  0
MTEXT
  5
241
100
AcDbEntity
  8
0
100
AcDbMText
 62
2
  6
CONTINUOUS
  7
STANDARD
 71
1
 72
1
 10
4.15
 20
0.5625
 30
0.0
 11
1.0
 21
0.0
 31
0.0
 44
0.9
  1
DATE
 40
0.06
 41
0.384
  0
MTEXT
  5
242
100
AcDbEntity
  8
0
100
AcDbMText
 62
2
  6
CONTINUOUS
  7
STANDARD
 71
1
 72
1
 10
0.05
 20
0.5625
 30
0.0
 11
1.0
 21
0.0
 31
0.0
 44
0.9
  1
DESCRIPTION
 40
0.06
 41
1.056
  0
MTEXT
  5
243
100
AcDbEntity
  8
0
100
AcDbMText
 62
2
  6
CONTINUOUS
  7
STANDARD
 71
2
 72
1
 10
5.45
 20
1.0375
 30
0.0
 11
1.0
 21
0.0
 31
0.0
 44
0.9
  1
ALL DIMENSIONS IN INCH\PVIEWS ARE THIRD ANGLE
 40
0.12
 41
4.224
  0
MTEXT
  5
244
100
AcDbEntity
  8
0
100
AcDbMText
 62
2
  6
CONTINUOUS
  7
STANDARD
 71
2
 72
1
 10
2.05
 20
0.95
 30
0.0
 11
1.0
 21
0.0
 31
0.0
 44
0.9
  1
H7M
 40
0.125
 41
0.6
  0
MTEXT
  5
245
100
AcDbEntity
  8
0
100
AcDbMText
 62
2
  6
CONTINUOUS
  7
STANDARD
 71
1
 72
1
 10
0.05
 20
1.1875
 30
0.0
 11
1.0
 21
0.0
 31
0.0
 44
0.9
  1
MODEL
 40
0.06
 41
0.48
  0
ENDBLK
  5
246
100
AcDbEntity
  8
0
  6
BYBLOCK
 62
0
100
AcDbBlockEnd
  0
BLOCK
  5
247
100
AcDbEntity
  8
0
100
AcDbBlockBegin
  2
*T2
 70
1
 10
0.0
 20
0.0
  3
*T2
  1

  0
LINE
  5
248
100
AcDbEntity
  8
0
100
AcDbLine
 62
2
  6
CONTINUOUS
 10
0.0
 20
0.0
 11
9.055
 21
0.0
  0
LINE
  5
249
100
AcDbEntity
  8
0
100
AcDbLine
 62
2
  6
CONTINUOUS
 10
0.0
 20
0.0
 11
0.0
 21
-2.844
  0
LINE
  5
24A
100
AcDbEntity
  8
0
100
AcDbLine
 62
2
  6
CONTINUOUS
 10
0.0
 20
-0.344
 11
9.055
 21
-0.344
  0
LINE
  5
24B
100
AcDbEntity
  8
0
100
AcDbLine
 62
2
  6
CONTINUOUS
 10
0.0
 20
-0.594
 11
9.055
 21
-0.594
  0
LINE
  5
24C
100
AcDbEntity
  8
0
100
AcDbLine
 62
2
  6
CONTINUOUS
 10
0.0
 20
-0.844
 11
9.055
 21
-0.844
  0
LINE
  5
24D
100
AcDbEntity
  8
0
100
AcDbLine
 62
2
  6
CONTINUOUS
 10
0.0
 20
-1.094
 11
9.055
 21
-1.094
  0
LINE
  5
24E
100
AcDbEntity
  8
0
100
AcDbLine
 62
2
  6
CONTINUOUS
 10
0.0
 20
-1.344
 11
9.055
 21
-1.344
  0
LINE
  5
24F
100
AcDbEntity
  8
0
100
AcDbLine
 62
2
  6
CONTINUOUS
 10
0.0
 20
-1.594
 11
9.055
 21
-1.594
  0
LINE
  5
250
100
AcDbEntity
  8
0
100
AcDbLine
 62
2
  6
CONTINUOUS
 10
0.0
 20
-1.844
 11
9.055
 21
-1.844
  0
LINE
  5
251
100
AcDbEntity
  8
0
100
AcDbLine
 62
2
  6
CONTINUOUS
 10
0.0
 20
-2.094
 11
9.055
 21
-2.094
  0
LINE
  5
252
100
AcDbEntity
  8
0
100
AcDbLine
 62
2
  6
CONTINUOUS
 10
0.0
 20
-2.344
 11
9.055
 21
-2.344
  0
LINE
  5
253
100
AcDbEntity
  8
0
100
AcDbLine
 62
2
  6
CONTINUOUS
 10
0.0
 20
-2.594
 11
9.055
 21
-2.594
  0
LINE
  5
254
100
AcDbEntity
  8
0
100
AcDbLine
 62
2
  6
CONTINUOUS
 10
0.0
 20
-2.844
 11
9.055
 21
-2.844
  0
LINE
  5
255
100
AcDbEntity
  8
0
100
AcDbLine
 62
2
  6
CONTINUOUS
 10
3.055
 20
0.0
 11
3.055
 21
-2.844
  0
LINE
  5
256
100
AcDbEntity
  8
0
100
AcDbLine
 62
2
  6
CONTINUOUS
 10
9.055
 20
0.0
 11
9.055
 21
-2.844
  0
MTEXT
  5
257
100
AcDbEntity
  8
0
100
AcDbMText
 62
2
  6
CONTINUOUS
  7
STANDARD
 71
2
 72
1
 10
1.5275
 20
-0.0995
 30
0.0
 11
1.0
 21
0.0
 31
0.0
 44
0.9
  1
Technical Data
 40
0.145
 41
3.248
  0
MTEXT
  5
258
100
AcDbEntity
  8
0
100
AcDbMText
 62
2
  6
CONTINUOUS
  7
STANDARD
 71
2
 72
1
 10
4.555
 20
-0.0995
 30
0.0
 11
1.0
 21
0.0
 31
0.0
 44
0.9
  1
U.S. Units
 40
0.145
 41
2.32
  0
MTEXT
  5
259
100
AcDbEntity
  8
0
100
AcDbMText
 62
2
  6
CONTINUOUS
  7
STANDARD
 71
2
 72
1
 10
7.555
 20
-0.0995
 30
0.0
 11
1.0
 21
0.0
 31
0.0
 44
0.9
  1
Metric Units
 40
0.145
 41
2.784
  0
MTEXT
  5
25A
100
AcDbEntity
  8
0
100
AcDbMText
 62
2
  6
CONTINUOUS
  7
STANDARD
 71
2
 72
1
 10
1.5275
 20
-0.4065
 30
0.0
 11
1.0
 21
0.0
 31
0.0
 44
0.9
  1
Cavity
 40
0.125
 41
1.2
  0
MTEXT
  5
25B
100
AcDbEntity
  8
0
100
AcDbMText
 62
2
  6
CONTINUOUS
  7
STANDARD
 71
2
 72
1
 10
6.055
 20
-0.4065
 30
0.0
 11
1.0
 21
0.0
 31
0.0
 44
0.9
  1
T-17A
 40
0.125
 41
1.0
  0
MTEXT
  5
25C
100
AcDbEntity
  8
0
100
AcDbMText
 62
2
  6
CONTINUOUS
  7
STANDARD
 71
2
 72
1
 10
1.5275
 20
-0.6565
 30
0.0
 11
1.0
 21
0.0
 31
0.0
 44
0.9
  1
Body Features
 40
0.125
 41
2.6
  0
MTEXT
  5
25D
100
AcDbEntity
  8
0
100
AcDbMText
 62
2
  6
CONTINUOUS
  7
STANDARD
 71
2
 72
1
 10
6.055
 20
-0.6565
 30
0.0
 11
1.0
 21
0.0
 31
0.0
 44
0.9
  1
Through port 1 with reverse flow check
 40
0.125
 41
7.6
  0
MTEXT
  5
25E
100
AcDbEntity
  8
0
100
AcDbMText
 62
2
  6
CONTINUOUS
  7
STANDARD
 71
2
 72
1
 10
1.5275
 20
-0.9065
 30
0.0
 11
1.0
 21
0.0
 31
0.0
 44
0.9
  1
Body Type
 40
0.125
 41
1.8
  0
MTEXT
  5
25F
100
AcDbEntity
  8
0
100
AcDbMText
 62
2
  6
CONTINUOUS
  7
STANDARD
 71
2
 72
1
 10
6.055
 20
-0.9065
 30
0.0
 11
1.0
 21
0.0
 31
0.0
 44
0.9
  1
Line mount
 40
0.125
 41
2.0
  0
MTEXT
  5
260
100
AcDbEntity
  8
0
100
AcDbMText
 62
2
  6
CONTINUOUS
  7
STANDARD
 71
2
 72
1
 10
1.5275
 20
-1.1565
 30
0.0
 11
1.0
 21
0.0
 31
0.0
 44
0.9
  1
Interface
 40
0.125
 41
1.8
  0
MTEXT
  5
261
100
AcDbEntity
  8
0
100
AcDbMText
 62
2
  6
CONTINUOUS
  7
STANDARD
 71
2
 72
1
 10
6.055
 20
-1.1565
 30
0.0
 11
1.0
 21
0.0
 31
0.0
 44
0.9
  1
None
 40
0.125
 41
0.8
  0
MTEXT
  5
262
100
AcDbEntity
  8
0
100
AcDbMText
 62
2
  6
CONTINUOUS
  7
STANDARD
 71
2
 72
1
 10
1.5275
 20
-1.4065
 30
0.0
 11
1.0
 21
0.0
 31
0.0
 44
0.9
  1
Open Cavity Quantity
 40
0.125
 41
4.0
  0
MTEXT
  5
263
100
AcDbEntity
  8
0
100
AcDbMText
 62
2
  6
CONTINUOUS
  7
STANDARD
 71
2
 72
1
 10
6.055
 20
-1.4065
 30
0.0
 11
1.0
 21
0.0
 31
0.0
 44
0.9
  1
1
 40
0.125
 41
0.2
  0
MTEXT
  5
264
100
AcDbEntity
  8
0
100
AcDbMText
 62
2
  6
CONTINUOUS
  7
STANDARD
 71
2
 72
1
 10
1.5275
 20
-1.6565
 30
0.0
 11
1.0
 21
0.0
 31
0.0
 44
0.9
  1
Weight
 40
0.125
 41
1.2
  0
MTEXT
  5
265
100
AcDbEntity
  8
0
100
AcDbMText
 62
2
  6
CONTINUOUS
  7
STANDARD
 71
2
 72
1
 10
4.555
 20
-1.6565
 30
0.0
 11
1.0
 21
0.0
 31
0.0
 44
0.9
  1
5.874 lb.
 40
0.125
 41
1.8
  0
MTEXT
  5
266
100
AcDbEntity
  8
0
100
AcDbMText
 62
2
  6
CONTINUOUS
  7
STANDARD
 71
2
 72
1
 10
7.555
 20
-1.6565
 30
0.0
 11
1.0
 21
0.0
 31
0.0
 44
0.9
  1
2,664 kg.
 40
0.125
 41
1.8
  0
MTEXT
  5
267
100
AcDbEntity
  8
0
100
AcDbMText
 62
2
  6
CONTINUOUS
  7
STANDARD
 71
2
 72
1
 10
1.5275
 20
-1.9065
 30
0.0
 11
1.0
 21
0.0
 31
0.0
 44
0.9
  1
Mounting Hole Thread
 40
0.125
 41
4.0
  0
MTEXT
  5
268
100
AcDbEntity
  8
0
100
AcDbMText
 62
2
  6
CONTINUOUS
  7
STANDARD
 71
2
 72
1
 10
4.555
 20
-1.9065
 30
0.0
 11
1.0
 21
0.0
 31
0.0
 44
0.9
  1
.375-16 UNC - 2B in.
 40
0.125
 41
4.0
  0
MTEXT
  5
269
100
AcDbEntity
  8
0
100
AcDbMText
 62
2
  6
CONTINUOUS
  7
STANDARD
 71
2
 72
1
 10
1.5275
 20
-2.1565
 30
0.0
 11
1.0
 21
0.0
 31
0.0
 44
0.9
  1
Mounting Hole Depth
 40
0.125
 41
3.8
  0
MTEXT
  5
26A
100
AcDbEntity
  8
0
100
AcDbMText
 62
2
  6
CONTINUOUS
  7
STANDARD
 71
2
 72
1
 10
4.555
 20
-2.1565
 30
0.0
 11
1.0
 21
0.0
 31
0.0
 44
0.9
  1
.62 in.
 40
0.125
 41
1.4
  0
MTEXT
  5
26B
100
AcDbEntity
  8
0
100
AcDbMText
 62
2
  6
CONTINUOUS
  7
STANDARD
 71
2
 72
1
 10
7.555
 20
-2.1565
 30
0.0
 11
1.0
 21
0.0
 31
0.0
 44
0.9
  1
15,7 mm
 40
0.125
 41
1.4
  0
MTEXT
  5
26C
100
AcDbEntity
  8
0
100
AcDbMText
 62
2
  6
CONTINUOUS
  7
STANDARD
 71
2
 72
1
 10
1.5275
 20
-2.4065
 30
0.0
 11
1.0
 21
0.0
 31
0.0
 44
0.9
  1
Mounting Hole Quantity
 40
0.125
 41
4.4
  0
MTEXT
  5
26D
100
AcDbEntity
  8
0
100
AcDbMText
 62
2
  6
CONTINUOUS
  7
STANDARD
 71
2
 72
1
 10
6.055
 20
-2.4065
 30
0.0
 11
1.0
 21
0.0
 31
0.0
 44
0.9
  1
2
 40
0.125
 41
0.2
  0
MTEXT
  5
26E
100
AcDbEntity
  8
0
100
AcDbMText
 62
2
  6
CONTINUOUS
  7
STANDARD
 71
2
 72
1
 10
1.5275
 20
-2.6565
 30
0.0
 11
1.0
 21
0.0
 31
0.0
 44
0.9
  1
Includes integral cartridge(s)
 40
0.125
 41
6.0
  0
MTEXT
  5
26F
100
AcDbEntity
  8
0
100
AcDbMText
 62
2
  6
CONTINUOUS
  7
STANDARD
 71
2
 72
1
 10
6.055
 20
-2.6565
 30
0.0
 11
1.0
 21
0.0
 31
0.0
 44
0.9
  1
Yes (see Included Components)
 40
0.125
 41
5.8
  0
ENDBLK
  5
270
100
AcDbEntity
  8
0
  6
BYBLOCK
 62
0
100
AcDbBlockEnd
  0
BLOCK
  5
271
100
AcDbEntity
  8
0
100
AcDbBlockBegin
  2
*T3
 70
1
 10
0.0
 20
0.0
  3
*T3
  1

  0
LINE
  5
272
100
AcDbEntity
  8
0
100
AcDbLine
 62
2
  6
CONTINUOUS
 10
0.0
 20
0.0
 11
4.6
 21
0.0
  0
LINE
  5
273
100
AcDbEntity
  8
0
100
AcDbLine
 62
2
  6
CONTINUOUS
 10
0.0
 20
0.0
 11
0.0
 21
-1.43775
  0
LINE
  5
274
100
AcDbEntity
  8
0
100
AcDbLine
 62
2
  6
CONTINUOUS
 10
0.0
 20
-0.34375
 11
4.6
 21
-0.34375
  0
LINE
  5
275
100
AcDbEntity
  8
0
100
AcDbLine
 62
2
  6
CONTINUOUS
 10
0.0
 20
-0.68775
 11
4.6
 21
-0.68775
  0
LINE
  5
276
100
AcDbEntity
  8
0
100
AcDbLine
 62
2
  6
CONTINUOUS
 10
0.0
 20
-0.93775
 11
4.6
 21
-0.93775
  0
LINE
  5
277
100
AcDbEntity
  8
0
100
AcDbLine
 62
2
  6
CONTINUOUS
 10
0.0
 20
-1.18775
 11
4.6
 21
-1.18775
  0
LINE
  5
278
100
AcDbEntity
  8
0
100
AcDbLine
 62
2
  6
CONTINUOUS
 10
0.0
 20
-1.43775
 11
4.6
 21
-1.43775
  0
LINE
  5
279
100
AcDbEntity
  8
0
100
AcDbLine
 62
2
  6
CONTINUOUS
 10
1.3
 20
-0.34375
 11
1.3
 21
-1.43775
  0
LINE
  5
27A
100
AcDbEntity
  8
0
100
AcDbLine
 62
2
  6
CONTINUOUS
 10
3.3
 20
-0.34375
 11
3.3
 21
-1.43775
  0
LINE
  5
27B
100
AcDbEntity
  8
0
100
AcDbLine
 62
2
  6
CONTINUOUS
 10
4.6
 20
0.0
 11
4.6
 21
-1.43775
  0
MTEXT
  5
27C
100
AcDbEntity
  8
0
100
AcDbMText
 62
2
  6
CONTINUOUS
  7
STANDARD
 71
2
 72
1
 10
2.3
 20
-0.099375
 30
0.0
 11
1.0
 21
0.0
 31
0.0
 44
0.9
  1
Port Headings
 40
0.145
 41
3.016
  0
MTEXT
  5
27D
100
AcDbEntity
  8
0
100
AcDbMText
 62
2
  6
CONTINUOUS
  7
STANDARD
 71
2
 72
1
 10
0.65
 20
-0.44325
 30
0.0
 11
1.0
 21
0.0
 31
0.0
 44
0.9
  1
Product
 40
0.145
 41
1.624
  0
MTEXT
  5
27E
100
AcDbEntity
  8
0
100
AcDbMText
 62
2
  6
CONTINUOUS
  7
STANDARD
 71
2
 72
1
 10
2.3
 20
-0.44325
 30
0.0
 11
1.0
 21
0.0
 31
0.0
 44
0.9
  1
Port
 40
0.145
 41
0.928
  0
MTEXT
  5
27F
100
AcDbEntity
  8
0
100
AcDbMText
 62
2
  6
CONTINUOUS
  7
STANDARD
 71
2
 72
1
 10
3.95
 20
-0.44325
 30
0.0
 11
1.0
 21
0.0
 31
0.0
 44
0.9
  1
Size
 40
0.145
 41
0.928
  0
MTEXT
  5
280
100
AcDbEntity
  8
0
100
AcDbMText
 62
2
  6
CONTINUOUS
  7
STANDARD
 71
2
 72
1
 10
0.65
 20
-0.75025
 30
0.0
 11
1.0
 21
0.0
 31
0.0
 44
0.9
  1
H7M
 40
0.125
 41
0.6
  0
MTEXT
  5
281
100
AcDbEntity
  8
0
100
AcDbMText
 62
2
  6
CONTINUOUS
  7
STANDARD
 71
2
 72
1
 10
2.3
 20
-0.75025
 30
0.0
 11
1.0
 21
0.0
 31
0.0
 44
0.9
  1
Ports 1 &  2
 40
0.125
 41
2.4
  0
MTEXT
  5
282
100
AcDbEntity
  8
0
100
AcDbMText
 62
2
  6
CONTINUOUS
  7
STANDARD
 71
2
 72
1
 10
3.95
 20
-0.75025
 30
0.0
 11
1.0
 21
0.0
 31
0.0
 44
0.9
  1
SAE 16
 40
0.125
 41
1.2
  0
MTEXT
  5
283
100
AcDbEntity
  8
0
100
AcDbMText
 62
2
  6
CONTINUOUS
  7
STANDARD
 71
2
 72
1
 10
0.65
 20
-1.00025
 30
0.0
 11
1.0
 21
0.0
 31
0.0
 44
0.9
  1
H7M
 40
0.125
 41
0.6
  0
MTEXT
  5
284
100
AcDbEntity
  8
0
100
AcDbMText
 62
2
  6
CONTINUOUS
  7
STANDARD
 71
2
 72
1
 10
2.3
 20
-1.00025
 30
0.0
 11
1.0
 21
0.0
 31
0.0
 44
0.9
  1
Port 3
 40
0.125
 41
1.2
  0
MTEXT
  5
285
100
AcDbEntity
  8
0
100
AcDbMText
 62
2
  6
CONTINUOUS
  7
STANDARD
 71
2
 72
1
 10
3.95
 20
-1.00025
 30
0.0
 11
1.0
 21
0.0
 31
0.0
 44
0.9
  1
SAE 6
 40
0.125
 41
1.0
  0
MTEXT
  5
286
100
AcDbEntity
  8
0
100
AcDbMText
 62
2
  6
CONTINUOUS
  7
STANDARD
 71
2
 72
1
 10
0.65
 20
-1.25025
 30
0.0
 11
1.0
 21
0.0
 31
0.0
 44
0.9
  1
H7M
 40
0.125
 41
0.6
  0
MTEXT
  5
287
100
AcDbEntity
  8
0
100
AcDbMText
 62
2
  6
CONTINUOUS
  7
STANDARD
 71
2
 72
1
 10
2.3
 20
-1.25025
 30
0.0
 11
1.0
 21
0.0
 31
0.0
 44
0.9
  1
Gage Port
 40
0.125
 41
1.8
  0
MTEXT
  5
288
100
AcDbEntity
  8
0
100
AcDbMText
 62
2
  6
CONTINUOUS
  7
STANDARD
 71
2
 72
1
 10
3.95
 20
-1.25025
 30
0.0
 11
1.0
 21
0.0
 31
0.0
 44
0.9
  1
1/4" NPTF
 40
0.125
 41
1.8
  0
ENDBLK
  5
289
100
AcDbEntity
  8
0
  6
BYBLOCK
 62
0
100
AcDbBlockEnd
  0
ENDSEC
  0
SECTION
  2
ENTITIES
  0
IMAGE
  5
28A
100
AcDbEntity
  8
0
100
AcDbRasterImage
 62
7
  6
CONTINUOUS
 10
19.2297077316
 20
0.3094318264
 30
0.0
 11
0.0066666667
 21
0.0
 31
0.0
 12
0.0
 22
0.0066666667
 32
0.0
 13
369.0
 23
92.0
340
       3B7
 70
9
280
0
281
50
282
50
283
0
360
       3B1
 71
1
 91
2
 14
-0.5
 24
-0.5
 14
368.5
 24
91.5
  0
INSERT
  5
28B
100
AcDbEntity
  8
0
100
AcDbBlockReference
 62
2
  6
CONTINUOUS
  2
SUN_FIRST_THIRD_ANGLE_BL0
 10
20.4816717061
 20
1.2289683772
  0
ACAD_TABLE
  5
28C
100
AcDbEntity
  8
0
 62
2
  6
CONTINUOUS
100
AcDbBlockReference
  2
*T1
 10
12.42375
 20
0.30125
 30
0.0
100
AcDbTable
342
       3B9
343
207
 11
1.0
 21
0.0
 31
0.0
 90
6
 91
4
 92
6
 93
20
 94
0
 95
0
 96
0
 70
1
 41
0.0
141
0.525
141
0.1
141
0.525
141
0.1
142
4.1
142
1.1
142
0.7
142
0.5
142
0.4
142
2.475
171
1
172
0
173
0
174
0
175
1
176
1
 91
33
178
0
145
0.0
301
CELL_VALUE
 90
4
  1
T-17A Line mount\PThrough port 1 with reverse flow check
304
ACVALUE_END
170
2
140
0.125
171
1
172
0
173
0
174
0
175
1
176
1
 91
33
178
0
145
0.0
301
CELL_VALUE
 90
4
  1
Aug-01-22
304
ACVALUE_END
170
5
140
0.125
171
1
172
0
173
0
174
0
175
1
176
1
 91
33
178
0
145
0.0
301
CELL_VALUE
 90
4
  1
1.000
304
ACVALUE_END
170
5
140
0.125
171
1
172
0
173
0
174
0
175
1
176
1
 91
33
178
0
145
0.0
301
CELL_VALUE
 90
4
  1
C
304
ACVALUE_END
170
5
140
0.125
171
1
172
0
173
0
174
0
175
1
176
1
 91
33
178
0
145
0.0
301
CELL_VALUE
 90
4
  1
2
304
ACVALUE_END
170
5
140
0.125
171
1
172
0
173
0
174
0
175
1
176
1
 91
33
178
0
145
0.0
301
CELL_VALUE
 90
4
  1
 
304
ACVALUE_END
170
1
140
0.125
171
1
172
0
173
0
174
0
175
1
176
1
 91
33
178
0
145
0.0
301
CELL_VALUE
 90
4
  1
DESCRIPTION
304
ACVALUE_END
170
1
140
0.06
171
1
172
0
173
0
174
0
175
1
176
1
 91
33
178
0
145
0.0
301
CELL_VALUE
 90
4
  1
DATE
304
ACVALUE_END
170
1
140
0.06
171
1
172
0
173
0
174
0
175
1
176
1
 91
33
178
0
145
0.0
301
CELL_VALUE
 90
4
  1
SCALE
304
ACVALUE_END
170
1
140
0.06
171
1
172
0
173
0
174
0
175
1
176
1
 91
33
178
0
145
0.0
301
CELL_VALUE
 90
4
  1
DWG SIZE
304
ACVALUE_END
170
1
140
0.06
171
1
172
0
173
0
174
0
175
1
176
1
 91
33
178
0
145
0.0
301
CELL_VALUE
 90
4
  1
SHEET
304
ACVALUE_END
170
1
140
0.06
171
1
172
0
173
0
174
0
175
1
176
1
 91
33
178
0
145
0.0
301
CELL_VALUE
 90
4
  1
 
304
ACVALUE_END
170
1
140
0.125
171
1
172
0
173
0
174
0
175
1
176
1
 91
33
178
0
145
0.0
301
CELL_VALUE
 90
4
  1
H7M
304
ACVALUE_END
170
5
140
0.125
171
1
172
0
173
0
174
0
175
4
176
1
 91
33
178
0
145
0.0
301
CELL_VALUE
 90
4
  1
ALL DIMENSIONS IN INCH\PVIEWS ARE THIRD ANGLE
304
ACVALUE_END
170
5
140
0.12
171
1
172
0
173
1
174
0
175
1
176
1
 91
1
178
0
145
0.0
170
1
171
1
172
0
173
1
174
0
175
1
176
1
 91
1
178
0
145
0.0
170
1
171
1
172
0
173
1
174
0
175
1
176
1
 91
1
178
0
145
0.0
170
5
171
1
172
0
173
0
174
0
175
1
176
1
 91
33
178
0
145
0.0
301
CELL_VALUE
 90
4
  1
 
304
ACVALUE_END
170
1
140
0.125
171
1
172
0
173
0
174
0
175
1
176
1
 91
33
178
0
145
0.0
301
CELL_VALUE
 90
4
  1
MODEL
304
ACVALUE_END
170
1
140
0.06
171
1
172
0
173
0
174
0
175
1
176
1
 91
33
178
0
145
0.0
301
CELL_VALUE
 90
4
  1
 
304
ACVALUE_END
170
1
140
0.125
171
1
172
0
173
0
174
0
175
1
176
1
 91
33
178
0
145
0.0
301
CELL_VALUE
 90
4
  1
 
304
ACVALUE_END
170
1
140
0.125
171
1
172
0
173
0
174
0
175
1
176
1
 91
33
178
0
145
0.0
301
CELL_VALUE
 90
4
  1
 
304
ACVALUE_END
170
1
140
0.125
171
1
172
0
173
0
174
0
175
1
176
1
 91
33
178
0
145
0.0
301
CELL_VALUE
 90
4
  1
 
304
ACVALUE_END
170
1
140
0.125
171
1
172
0
173
0
174
0
175
1
176
1
 91
33
178
0
145
0.0
301
CELL_VALUE
 90
4
  1
 
304
ACVALUE_END
170
1
140
0.125
  0
ACAD_TABLE
  5
28D
100
AcDbEntity
  8
0
 62
2
  6
CONTINUOUS
100
AcDbBlockReference
  2
*T2
 10
12.4237499994
 20
16.47875
 30
0.0
100
AcDbTable
342
       3B8
343
208
 11
1.0
 21
0.0
 31
0.0
 90
22
 91
11
 92
3
 93
16
 94
0
 95
0
 96
0
 41
0.028
141
0.344
141
0.25
141
0.25
141
0.25
141
0.25
141
0.25
141
0.25
141
0.25
141
0.25
141
0.25
141
0.25
142
3.055
142
3.0
142
3.0
171
1
172
0
173
0
174
0
175
1
176
1
 91
33
178
0
145
0.0
301
CELL_VALUE
 90
4
  1
Technical Data
304
ACVALUE_END
170
5
140
0.145
171
1
172
0
173
0
174
0
175
1
176
1
 91
33
178
0
145
0.0
301
CELL_VALUE
 90
4
  1
U.S. Units
304
ACVALUE_END
170
5
140
0.145
171
1
172
0
173
0
174
0
175
1
176
1
 91
33
178
0
145
0.0
301
CELL_VALUE
 90
4
  1
Metric Units
304
ACVALUE_END
170
5
140
0.145
171
1
172
0
173
0
174
0
175
1
176
1
 91
33
178
0
145
0.0
301
CELL_VALUE
 90
4
  1
Cavity
304
ACVALUE_END
170
5
140
0.125
171
1
172
0
173
0
174
0
175
2
176
1
 91
33
178
0
145
0.0
301
CELL_VALUE
 90
4
  1
T-17A
304
ACVALUE_END
170
5
140
0.125
171
1
172
0
173
1
174
0
175
1
176
1
 91
1
178
0
145
0.0
170
1
171
1
172
0
173
0
174
0
175
1
176
1
 91
33
178
0
145
0.0
301
CELL_VALUE
 90
4
  1
Body Features
304
ACVALUE_END
170
5
140
0.125
171
1
172
0
173
0
174
0
175
2
176
1
 91
33
178
0
145
0.0
301
CELL_VALUE
 90
4
  1
Through port 1 with reverse flow check
304
ACVALUE_END
170
5
140
0.125
171
1
172
0
173
1
174
0
175
1
176
1
 91
1
178
0
145
0.0
170
1
171
1
172
0
173
0
174
0
175
1
176
1
 91
33
178
0
145
0.0
301
CELL_VALUE
 90
4
  1
Body Type
304
ACVALUE_END
170
5
140
0.125
171
1
172
0
173
0
174
0
175
2
176
1
 91
33
178
0
145
0.0
301
CELL_VALUE
 90
4
  1
Line mount
304
ACVALUE_END
170
5
140
0.125
171
1
172
0
173
1
174
0
175
1
176
1
 91
1
178
0
145
0.0
170
1
171
1
172
0
173
0
174
0
175
1
176
1
 91
33
178
0
145
0.0
301
CELL_VALUE
 90
4
  1
Interface
304
ACVALUE_END
170
5
140
0.125
171
1
172
0
173
0
174
0
175
2
176
1
 91
33
178
0
145
0.0
301
CELL_VALUE
 90
4
  1
None
304
ACVALUE_END
170
5
140
0.125
171
1
172
0
173
1
174
0
175
1
176
1
 91
1
178
0
145
0.0
170
1
171
1
172
0
173
0
174
0
175
1
176
1
 91
33
178
0
145
0.0
301
CELL_VALUE
 90
4
  1
Open Cavity Quantity
304
ACVALUE_END
170
5
140
0.125
171
1
172
0
173
0
174
0
175
2
176
1
 91
33
178
0
145
0.0
301
CELL_VALUE
 90
4
  1
1
304
ACVALUE_END
170
5
140
0.125
171
1
172
0
173
1
174
0
175
1
176
1
 91
1
178
0
145
0.0
170
1
171
1
172
0
173
0
174
0
175
1
176
1
 91
33
178
0
145
0.0
301
CELL_VALUE
 90
4
  1
Weight
304
ACVALUE_END
170
5
140
0.125
171
1
172
0
173
0
174
0
175
1
176
1
 91
33
178
0
145
0.0
301
CELL_VALUE
 90
4
  1
5.874 lb.
304
ACVALUE_END
170
5
140
0.125
171
1
172
0
173
0
174
0
175
1
176
1
 91
33
178
0
145
0.0
301
CELL_VALUE
 90
4
  1
2,664 kg.
304
ACVALUE_END
170
5
140
0.125
171
1
172
0
173
0
174
0
175
1
176
1
 91
33
178
0
145
0.0
301
CELL_VALUE
 90
4
  1
Mounting Hole Thread
304
ACVALUE_END
170
5
140
0.125
171
1
172
0
173
0
174
0
175
1
176
1
 91
33
178
0
145
0.0
301
CELL_VALUE
 90
4
  1
.375-16 UNC - 2B in.
304
ACVALUE_END
170
5
140
0.125
171
1
172
0
173
0
174
0
175
1
176
1
 91
33
178
0
145
0.0
301
CELL_VALUE
 90
4
  1
 
304
ACVALUE_END
170
5
140
0.125
171
1
172
0
173
0
174
0
175
1
176
1
 91
33
178
0
145
0.0
301
CELL_VALUE
 90
4
  1
Mounting Hole Depth
304
ACVALUE_END
170
5
140
0.125
171
1
172
0
173
0
174
0
175
1
176
1
 91
33
178
0
145
0.0
301
CELL_VALUE
 90
4
  1
.62 in.
304
ACVALUE_END
170
5
140
0.125
171
1
172
0
173
0
174
0
175
1
176
1
 91
33
178
0
145
0.0
301
CELL_VALUE
 90
4
  1
15,7 mm
304
ACVALUE_END
170
5
140
0.125
171
1
172
0
173
0
174
0
175
1
176
1
 91
33
178
0
145
0.0
301
CELL_VALUE
 90
4
  1
Mounting Hole Quantity
304
ACVALUE_END
170
5
140
0.125
171
1
172
0
173
0
174
0
175
2
176
1
 91
33
178
0
145
0.0
301
CELL_VALUE
 90
4
  1
2
304
ACVALUE_END
170
5
140
0.125
171
1
172
0
173
1
174
0
175
1
176
1
 91
1
178
0
145
0.0
170
1
171
1
172
0
173
0
174
0
175
1
176
1
 91
33
178
0
145
0.0
301
CELL_VALUE
 90
4
  1
Includes integral cartridge(s)
304
ACVALUE_END
170
5
140
0.125
171
1
172
0
173
0
174
0
175
2
176
1
 91
33
178
0
145
0.0
301
CELL_VALUE
 90
4
  1
Yes (see Included Components)
304
ACVALUE_END
170
5
140
0.125
171
1
172
0
173
1
174
0
175
1
176
1
 91
1
178
0
145
0.0
170
1
  0
ACAD_TABLE
  5
28E
100
AcDbEntity
  8
0
 62
2
  6
CONTINUOUS
100
AcDbBlockReference
  2
*T3
 10
0.52125
 20
1.959
 30
0.0
100
AcDbTable
342
       3B8
343
209
 11
1.0
 21
0.0
 31
0.0
 90
22
 91
5
 92
3
 93
16
 94
0
 95
0
 96
0
 41
0.05
141
0.34375
141
0.344
141
0.25
141
0.25
141
0.25
142
1.3
142
2.0
142
1.3
171
1
172
0
173
0
174
0
175
3
176
1
 91
33
178
0
145
0.0
301
CELL_VALUE
 90
4
  1
Port Headings
304
ACVALUE_END
170
5
140
0.145
171
1
172
0
173
1
174
0
175
1
176
1
 91
1
178
0
145
0.0
170
1
171
1
172
0
173
1
174
0
175
1
176
1
 91
1
178
0
145
0.0
170
1
171
1
172
0
173
0
174
0
175
1
176
1
 91
33
178
0
145
0.0
301
CELL_VALUE
 90
4
  1
Product
304
ACVALUE_END
170
5
140
0.145
171
1
172
0
173
0
174
0
175
1
176
1
 91
33
178
0
145
0.0
301
CELL_VALUE
 90
4
  1
Port
304
ACVALUE_END
170
5
140
0.145
171
1
172
0
173
0
174
0
175
1
176
1
 91
33
178
0
145
0.0
301
CELL_VALUE
 90
4
  1
Size
304
ACVALUE_END
170
5
140
0.145
171
1
172
0
173
0
174
0
175
1
176
1
 91
33
178
0
145
0.0
301
CELL_VALUE
 90
4
  1
H7M
304
ACVALUE_END
170
5
140
0.125
171
1
172
0
173
0
174
0
175
1
176
1
 91
33
178
0
145
0.0
301
CELL_VALUE
 90
4
  1
Ports 1 &  2
304
ACVALUE_END
170
5
140
0.125
171
1
172
0
173
0
174
0
175
1
176
1
 91
33
178
0
145
0.0
301
CELL_VALUE
 90
4
  1
SAE 16
304
ACVALUE_END
170
5
140
0.125
171
1
172
0
173
0
174
0
175
1
176
1
 91
33
178
0
145
0.0
301
CELL_VALUE
 90
4
  1
H7M
304
ACVALUE_END
170
5
140
0.125
171
1
172
0
173
0
174
0
175
1
176
1
 91
33
178
0
145
0.0
301
CELL_VALUE
 90
4
  1
Port 3
304
ACVALUE_END
170
5
140
0.125
171
1
172
0
173
0
174
0
175
1
176
1
 91
33
178
0
145
0.0
301
CELL_VALUE
 90
4
  1
SAE 6
304
ACVALUE_END
170
5
140
0.125
171
1
172
0
173
0
174
0
175
1
176
1
 91
33
178
0
145
0.0
301
CELL_VALUE
 90
4
  1
H7M
304
ACVALUE_END
170
5
140
0.125
171
1
172
0
173
0
174
0
175
1
176
1
 91
33
178
0
145
0.0
301
CELL_VALUE
 90
4
  1
Gage Port
304
ACVALUE_END
170
5
140
0.125
171
1
172
0
173
0
174
0
175
1
176
1
 91
33
178
0
145
0.0
301
CELL_VALUE
 90
4
  1
1/4" NPTF
304
ACVALUE_END
170
5
140
0.125
  0
MTEXT
  5
28F
100
AcDbEntity
  8
0
100
AcDbMText
 62
2
  6
CONTINUOUS
  7
STANDARD
 71
1
 72
1
 10
0.52125
 20
5.75995
 30
0.0
 11
1.0
 21
0.0
 31
0.0
 44
0.6
  3
Notes\P \P1. Important: Carefully consider\P   the maximum system pressure. The\P   pressure rating of the manifold is\P   dependent on the manifold material,\P   with the port type/size a secondary\P   consideration. Manifolds\P   constructed of alu
  1
minum are not\P   rated for pressures higher than\P   3000 psi (210 bar), regardless of\P   the port type/size specified.
 40
0.1
 41
3.04
  0
LINE
  5
290
100
AcDbEntity
  8
0
100
AcDbLine
 62
7
  6
CONTINUOUS
 10
0.30125
 20
0.30125
 11
0.30125
 21
16.69875
  0
LINE
  5
291
100
AcDbEntity
  8
0
100
AcDbLine
 62
7
  6
CONTINUOUS
 10
0.30125
 20
0.30125
 11
21.69875
 21
0.30125
  0
LINE
  5
292
100
AcDbEntity
  8
0
100
AcDbLine
 62
7
  6
CONTINUOUS
 10
0.30125
 20
16.69875
 11
21.69875
 21
16.69875
  0
LINE
  5
293
100
AcDbEntity
  8
0
100
AcDbLine
 62
7
  6
CONTINUOUS
 10
21.69875
 20
0.30125
 11
21.69875
 21
16.69875
  0
LINE
  5
294
100
AcDbEntity
  8
0
100
AcDbLine
 62
7
  6
CONTINUOUS
 10
9.4563764802
 20
11.9541817898
 11
8.6799199857
 21
11.2041823643
  0
LINE
  5
295
100
AcDbEntity
  8
0
100
AcDbLine
 62
4
  6
CONTINUOUS
 10
9.3188799693
 20
11.0729371936
 11
9.3333688572
 21
11.0815916421
  0
LINE
  5
296
100
AcDbEntity
  8
0
100
AcDbLine
 62
4
  6
CONTINUOUS
 10
9.3623466331
 20
11.0409449943
 11
9.3478577451
 21
11.0322905389
  0
LINE
  5
297
100
AcDbEntity
  8
0
100
AcDbLine
 62
4
  6
CONTINUOUS
 10
9.369591077
 20
11.0501018467
 11
9.3623466331
 21
11.0409449943
  0
LINE
  5
298
100
AcDbEntity
  8
0
100
AcDbLine
 62
4
  6
CONTINUOUS
 10
9.376835521
 20
10.9916438911
 11
9.3623466331
 21
10.973330182
  0
LINE
  5
299
100
AcDbEntity
  8
0
100
AcDbLine
 62
4
  6
CONTINUOUS
 10
9.3623466331
 20
10.973330182
 11
9.3478577451
 21
10.9646757309
  0
LINE
  5
29A
100
AcDbEntity
  8
0
100
AcDbLine
 62
7
  6
CONTINUOUS
 10
8.6799199857
 20
5.8915900049
 11
12.5436235198
 21
5.6236412547
  0
LINE
  5
29B
100
AcDbEntity
  8
0
100
AcDbLine
 62
7
  6
CONTINUOUS
 10
11.1565003752
 20
5.141073563
 11
11.1752594605
 21
5.131806934
  0
LINE
  5
29C
100
AcDbEntity
  8
0
100
AcDbLine
 62
7
  6
CONTINUOUS
 10
8.6799199857
 20
5.8915900049
 11
8.6799199857
 21
11.2041823643
  0
LINE
  5
29D
100
AcDbEntity
  8
0
100
AcDbLine
 62
4
  6
CONTINUOUS
 10
9.369591077
 20
11.0597611031
 11
9.369591077
 21
11.0501018467
  0
LINE
  5
29E
100
AcDbEntity
  8
0
100
AcDbLine
 62
4
  6
CONTINUOUS
 10
12.4011494048
 20
6.6574032494
 11
12.3866605168
 21
6.6584080572
  0
LINE
  5
29F
100
AcDbEntity
  8
0
100
AcDbLine
 62
4
  6
CONTINUOUS
 10
12.3939049608
 20
6.715861205
 11
12.4228827367
 21
6.7138515895
  0
LINE
  5
2A0
100
AcDbEntity
  8
0
100
AcDbLine
 62
4
  6
CONTINUOUS
 10
9.376835521
 20
11.0013031509
 11
9.376835521
 21
10.9916438911
  0
LINE
  5
2A1
100
AcDbEntity
  8
0
100
AcDbLine
 62
4
  6
CONTINUOUS
 10
12.3866605168
 20
6.7743191607
 11
12.4011494048
 21
6.7733143529
  0
LINE
  5
2A2
100
AcDbEntity
  8
0
100
AcDbLine
 62
4
  6
CONTINUOUS
 10
10.0694733875
 20
9.2753170629
 11
10.0860321173
 21
9.2907274392
  0
LINE
  5
2A3
100
AcDbEntity
  8
0
100
AcDbLine
 62
4
  6
CONTINUOUS
 10
10.1108702112
 20
9.1730938081
 11
10.1274289393
 21
9.1885041862
  0
LINE
  5
2A4
100
AcDbEntity
  8
0
100
AcDbLine
 62
4
  6
CONTINUOUS
 10
10.0694733875
 20
9.2587583348
 11
10.0694733875
 21
9.2753170629
  0
LINE
  5
2A5
100
AcDbEntity
  8
0
100
AcDbLine
 62
4
  6
CONTINUOUS
 10
10.1274289393
 20
9.1885041862
 11
10.1274289393
 21
9.205062916
  0
LINE
  5
2A6
100
AcDbEntity
  8
0
100
AcDbLine
 62
4
  6
CONTINUOUS
 10
10.1605463954
 20
9.2855598564
 11
10.1605463954
 21
9.1862074828
  0
LINE
  5
2A7
100
AcDbEntity
  8
0
100
AcDbLine
 62
4
  6
CONTINUOUS
 10
10.1964236559
 20
8.576014029
 11
10.1964236559
 21
8.6919251324
  0
LINE
  5
2A8
100
AcDbEntity
  8
0
100
AcDbLine
 62
4
  6
CONTINUOUS
 10
10.201943226
 20
9.166777873
 11
10.2185019471
 21
9.1821882516
  0
LINE
  5
2A9
100
AcDbEntity
  8
0
100
AcDbLine
 62
4
  6
CONTINUOUS
 10
10.5883135753
 20
9.2144972781
 11
10.6048722965
 21
9.2216282944
  0
LINE
  5
2AA
100
AcDbEntity
  8
0
100
AcDbLine
 62
4
  6
CONTINUOUS
 10
10.2185019471
 20
9.1821882516
 11
10.2185019471
 21
9.2815406253
  0
LINE
  5
2AB
100
AcDbEntity
  8
0
100
AcDbLine
 62
4
  6
CONTINUOUS
 10
10.2516194033
 20
9.1633328184
 11
10.2516194033
 21
9.2792439219
  0
LINE
  5
2AC
100
AcDbEntity
  8
0
100
AcDbLine
 62
4
  6
CONTINUOUS
 10
10.2543792007
 20
8.6713471737
 11
10.2543792007
 21
8.5885535281
  0
LINE
  5
2AD
100
AcDbEntity
  8
0
100
AcDbLine
 62
4
  6
CONTINUOUS
 10
10.309574955
 20
9.1593135873
 11
10.309574955
 21
9.2752246907
  0
LINE
  5
2AE
100
AcDbEntity
  8
0
100
AcDbLine
 62
4
  6
CONTINUOUS
 10
10.433765419
 20
9.1507009493
 11
10.433765419
 21
9.2666120528
  0
LINE
  5
2AF
100
AcDbEntity
  8
0
100
AcDbLine
 62
4
  6
CONTINUOUS
 10
10.4337654388
 20
8.5595543205
 11
10.4337654388
 21
8.6754654239
  0
LINE
  5
2B0
100
AcDbEntity
  8
0
100
AcDbLine
 62
4
  6
CONTINUOUS
 10
10.3012956004
 20
8.568741135
 11
10.3344130565
 21
8.682355535
  0
LINE
  5
2B1
100
AcDbEntity
  8
0
100
AcDbLine
 62
4
  6
CONTINUOUS
 10
10.5331178013
 20
9.1162129564
 11
10.5662352436
 21
9.2243077831
  0
LINE
  5
2B2
100
AcDbEntity
  8
0
100
AcDbLine
 62
7
  6
CONTINUOUS
 10
12.5436235198
 20
10.9362336141
 11
13.3200800143
 21
11.6862330396
  0
LINE
  5
2B3
100
AcDbEntity
  8
0
100
AcDbLine
 62
4
  6
CONTINUOUS
 10
10.2543792007
 20
8.5885535281
 11
10.2378204726
 21
8.57314315
  0
LINE
  5
2B4
100
AcDbEntity
  8
0
100
AcDbLine
 62
4
  6
CONTINUOUS
 10
10.7456215093
 20
9.1621911156
 11
10.7621802305
 21
9.1693221285
  0
LINE
  5
2B5
100
AcDbEntity
  8
0
100
AcDbLine
 62
7
  6
CONTINUOUS
 10
10.3551351449
 20
7.787877583
 11
10.3785724847
 21
7.7866586291
  0
LINE
  5
2B6
100
AcDbEntity
  8
0
100
AcDbLine
 62
4
  6
CONTINUOUS
 10
12.3866605168
 20
6.6584080572
 11
12.3721716289
 21
6.6690721239
  0
LINE
  5
2B7
100
AcDbEntity
  8
0
100
AcDbLine
 62
4
  6
CONTINUOUS
 10
12.4011494048
 20
6.7733143529
 11
12.4156382927
 21
6.7626502888
  0
LINE
  5
2B8
100
AcDbEntity
  8
0
100
AcDbLine
 62
4
  6
CONTINUOUS
 10
10.3344130565
 20
8.682355535
 11
10.3675305265
 21
8.5641477272
  0
LINE
  5
2B9
100
AcDbEntity
  8
0
100
AcDbLine
 62
4
  6
CONTINUOUS
 10
10.4834416101
 20
9.2217701736
 11
10.4834416101
 21
9.1472558938
  0
LINE
  5
2BA
100
AcDbEntity
  8
0
100
AcDbLine
 62
4
  6
CONTINUOUS
 10
10.4875813182
 20
8.8108266041
 11
10.4875813182
 21
8.9267377075
  0
LINE
  5
2BB
100
AcDbEntity
  8
0
100
AcDbLine
 62
4
  6
CONTINUOUS
 10
10.5000003511
 20
8.5549609137
 11
10.5000003511
 21
8.6708720171
  0
LINE
  5
2BC
100
AcDbEntity
  8
0
100
AcDbLine
 62
4
  6
CONTINUOUS
 10
10.5455368699
 20
8.9227184764
 11
10.5455368699
 21
8.8068073729
  0
LINE
  5
2BD
100
AcDbEntity
  8
0
100
AcDbLine
 62
4
  6
CONTINUOUS
 10
10.5786543261
 20
8.8955836774
 11
10.5786543261
 21
8.920421773
  0
LINE
  5
2BE
100
AcDbEntity
  8
0
100
AcDbLine
 62
4
  6
CONTINUOUS
 10
10.5883135753
 20
9.1482623632
 11
10.5883135753
 21
9.2144972781
  0
LINE
  5
2BF
100
AcDbEntity
  8
0
100
AcDbLine
 62
4
  6
CONTINUOUS
 10
10.6379897388
 20
9.2524490481
 11
10.6379897388
 21
9.1365379447
  0
LINE
  5
2C0
100
AcDbEntity
  8
0
100
AcDbLine
 62
4
  6
CONTINUOUS
 10
10.6697273045
 20
6.0820111953
 11
10.6697273045
 21
5.9661000919
  0
LINE
  5
2C1
100
AcDbEntity
  8
0
100
AcDbLine
 62
4
  6
CONTINUOUS
 10
10.6697273339
 20
8.798194735
 11
10.6697273339
 21
8.9141058384
  0
LINE
  5
2C2
100
AcDbEntity
  8
0
100
AcDbLine
 62
4
  6
CONTINUOUS
 10
10.6711072364
 20
9.1342412384
 11
10.6711072364
 21
9.2170348857
  0
LINE
  5
2C3
100
AcDbEntity
  8
0
100
AcDbLine
 62
4
  6
CONTINUOUS
 10
10.6738670339
 20
8.5594619481
 11
10.6738670339
 21
8.6422555937
  0
LINE
  5
2C4
100
AcDbEntity
  8
0
100
AcDbLine
 62
4
  6
CONTINUOUS
 10
10.7097442341
 20
9.2060760333
 11
10.7097442341
 21
9.1895173052
  0
LINE
  5
2C5
100
AcDbEntity
  8
0
100
AcDbLine
 62
4
  6
CONTINUOUS
 10
10.7359622462
 20
8.9095124317
 11
10.7359622462
 21
8.7936013282
  0
LINE
  5
2C6
100
AcDbEntity
  8
0
100
AcDbLine
 62
4
  6
CONTINUOUS
 10
10.7456215093
 20
9.1373530209
 11
10.7456215093
 21
9.1621911156
  0
LINE
  5
2C7
100
AcDbEntity
  8
0
100
AcDbLine
 62
4
  6
CONTINUOUS
 10
10.6366098778
 20
8.9164025418
 11
10.6034924216
 21
8.8027881418
  0
LINE
  5
2C8
100
AcDbEntity
  8
0
100
AcDbLine
 62
4
  6
CONTINUOUS
 10
10.9884828268
 20
9.2281422699
 11
10.9857230491
 21
9.2200542936
  0
LINE
  5
2C9
100
AcDbEntity
  8
0
100
AcDbLine
 62
4
  6
CONTINUOUS
 10
10.7028447901
 20
8.8455742193
 11
10.7359622462
 21
8.9095124317
  0
LINE
  5
2CA
100
AcDbEntity
  8
0
100
AcDbLine
 62
4
  6
CONTINUOUS
 10
11.0298796573
 20
9.1838745663
 11
11.0381589903
 21
9.1915797601
  0
LINE
  5
2CB
100
AcDbEntity
  8
0
100
AcDbLine
 62
4
  6
CONTINUOUS
 10
11.1043939855
 20
9.1787069801
 11
11.1126733184
 21
9.1864121739
  0
LINE
  5
2CC
100
AcDbEntity
  8
0
100
AcDbLine
 62
4
  6
CONTINUOUS
 10
11.1457907608
 20
9.1013218242
 11
11.1540700937
 21
9.1090270154
  0
LINE
  5
2CD
100
AcDbEntity
  8
0
100
AcDbLine
 62
4
  6
CONTINUOUS
 10
10.6738670339
 20
8.6422555937
 11
10.690425755
 21
8.6576659705
  0
LINE
  5
2CE
100
AcDbEntity
  8
0
100
AcDbLine
 62
4
  6
CONTINUOUS
 10
10.7704595832
 20
8.6355568776
 11
10.7870183044
 21
8.6509672545
  0
LINE
  5
2CF
100
AcDbEntity
  8
0
100
AcDbLine
 62
4
  6
CONTINUOUS
 10
10.1743453483
 20
8.6492996601
 11
10.1301887367
 21
8.6302836239
  0
LINE
  5
2D0
100
AcDbEntity
  8
0
100
AcDbLine
 62
4
  6
CONTINUOUS
 10
10.1301887367
 20
8.6302836239
 11
10.1743453483
 21
8.6051430467
  0
LINE
  5
2D1
100
AcDbEntity
  8
0
100
AcDbLine
 62
4
  6
CONTINUOUS
 10
10.2378204726
 20
8.6890542535
 11
10.2543792007
 21
8.6713471737
  0
LINE
  5
2D2
100
AcDbEntity
  8
0
100
AcDbLine
 62
4
  6
CONTINUOUS
 10
10.2516194033
 20
9.2792439219
 11
10.309574955
 21
9.1593135873
  0
LINE
  5
2D3
100
AcDbEntity
  8
0
100
AcDbLine
 62
4
  6
CONTINUOUS
 10
10.5165590801
 20
9.2277528367
 11
10.5413971895
 21
9.1432366607
  0
LINE
  5
2D4
100
AcDbEntity
  8
0
100
AcDbLine
 62
4
  6
CONTINUOUS
 10
10.7704595832
 20
8.552763232
 11
10.7704595832
 21
8.6355568776
  0
LINE
  5
2D5
100
AcDbEntity
  8
0
100
AcDbLine
 62
4
  6
CONTINUOUS
 10
10.7952976728
 20
9.1256286024
 11
10.7952976728
 21
9.1918635216
  0
LINE
  5
2D6
100
AcDbEntity
  8
0
100
AcDbLine
 62
4
  6
CONTINUOUS
 10
10.8284151151
 20
9.2061255472
 11
10.8284151151
 21
9.1316112649
  0
LINE
  5
2D7
100
AcDbEntity
  8
0
100
AcDbLine
 62
4
  6
CONTINUOUS
 10
10.8284151349
 20
8.6315376464
 11
10.8284151349
 21
8.5487440009
  0
LINE
  5
2D8
100
AcDbEntity
  8
0
100
AcDbLine
 62
4
  6
CONTINUOUS
 10
10.8615325773
 20
8.5298885687
 11
10.8615325773
 21
8.6457996721
  0
LINE
  5
2D9
100
AcDbEntity
  8
0
100
AcDbLine
 62
4
  6
CONTINUOUS
 10
10.8780913339
 20
9.1198868425
 11
10.8780913339
 21
9.2026804898
  0
LINE
  5
2DA
100
AcDbEntity
  8
0
100
AcDbLine
 62
4
  6
CONTINUOUS
 10
10.9112087762
 20
9.125869505
 11
10.9112087762
 21
9.2335012435
  0
LINE
  5
2DB
100
AcDbEntity
  8
0
100
AcDbLine
 62
4
  6
CONTINUOUS
 10
10.919488129
 20
8.6252217129
 11
10.919488129
 21
8.5424280673
  0
LINE
  5
2DC
100
AcDbEntity
  8
0
100
AcDbLine
 62
4
  6
CONTINUOUS
 10
10.9664045701
 20
8.5226156713
 11
10.9664045701
 21
8.6385267747
  0
LINE
  5
2DD
100
AcDbEntity
  8
0
100
AcDbLine
 62
4
  6
CONTINUOUS
 10
10.9857230491
 20
9.1124225577
 11
10.9857230491
 21
9.195216205
  0
LINE
  5
2DE
100
AcDbEntity
  8
0
100
AcDbLine
 62
4
  6
CONTINUOUS
 10
10.9857230491
 20
9.2200542936
 11
10.9857230491
 21
9.2283336611
  0
LINE
  5
2DF
100
AcDbEntity
  8
0
100
AcDbLine
 62
4
  6
CONTINUOUS
 10
11.0298796573
 20
9.1176396514
 11
11.0298796573
 21
9.1838745663
  0
LINE
  5
2E0
100
AcDbEntity
  8
0
100
AcDbLine
 62
7
  6
CONTINUOUS
 10
11.0340965798
 20
5.7283273036
 11
11.0340965798
 21
5.2977276376
  0
LINE
  5
2E1
100
AcDbEntity
  8
0
100
AcDbLine
 62
4
  6
CONTINUOUS
 10
10.8284151349
 20
8.5487440009
 11
10.8118564138
 21
8.5333336223
  0
LINE
  5
2E2
100
AcDbEntity
  8
0
100
AcDbLine
 62
4
  6
CONTINUOUS
 10
10.919488129
 20
8.5424280673
 11
10.9029294078
 21
8.5270176887
  0
LINE
  5
2E3
100
AcDbEntity
  8
0
100
AcDbLine
 62
4
  6
CONTINUOUS
 10
11.0933547841
 20
8.5634878317
 11
11.0491981759
 21
8.544471797
  0
LINE
  5
2E4
100
AcDbEntity
  8
0
100
AcDbLine
 62
4
  6
CONTINUOUS
 10
10.9029294078
 20
8.5270176887
 11
10.8615325773
 21
8.5298885687
  0
LINE
  5
2E5
100
AcDbEntity
  8
0
100
AcDbLine
 62
4
  6
CONTINUOUS
 10
10.8118564138
 20
8.5333336223
 11
10.7870183044
 21
8.535056151
  0
LINE
  5
2E6
100
AcDbEntity
  8
0
100
AcDbLine
 62
4
  6
CONTINUOUS
 10
10.7235431974
 20
8.5394581647
 11
10.690425755
 21
8.5417548671
  0
LINE
  5
2E7
100
AcDbEntity
  8
0
100
AcDbLine
 62
4
  6
CONTINUOUS
 10
10.2378204726
 20
8.57314315
 11
10.1964236559
 21
8.576014029
  0
LINE
  5
2E8
100
AcDbEntity
  8
0
100
AcDbLine
 62
4
  6
CONTINUOUS
 10
10.5000003511
 20
8.5549609137
 11
10.5496765422
 21
8.5515158581
  0
LINE
  5
2E9
100
AcDbEntity
  8
0
100
AcDbLine
 62
4
  6
CONTINUOUS
 10
10.9664045701
 20
8.5226156713
 11
11.0160807336
 21
8.5191706176
  0
LINE
  5
2EA
100
AcDbEntity
  8
0
100
AcDbLine
 62
4
  6
CONTINUOUS
 10
10.1274289393
 20
9.205062916
 11
10.0694733875
 21
9.2587583348
  0
LINE
  5
2EB
100
AcDbEntity
  8
0
100
AcDbLine
 62
4
  6
CONTINUOUS
 10
10.0694733875
 20
9.1842440524
 11
10.0777527524
 21
9.1753905116
  0
LINE
  5
2EC
100
AcDbEntity
  8
0
100
AcDbLine
 62
4
  6
CONTINUOUS
 10
10.690425755
 20
8.5417548671
 11
10.6738670339
 21
8.5594619481
  0
LINE
  5
2ED
100
AcDbEntity
  8
0
100
AcDbLine
 62
4
  6
CONTINUOUS
 10
10.1605463954
 20
9.1862074828
 11
10.1771051235
 21
9.1685004013
  0
LINE
  5
2EE
100
AcDbEntity
  8
0
100
AcDbLine
 62
4
  6
CONTINUOUS
 10
10.7870183044
 20
8.535056151
 11
10.7704595832
 21
8.552763232
  0
LINE
  5
2EF
100
AcDbEntity
  8
0
100
AcDbLine
 62
4
  6
CONTINUOUS
 10
10.1191495752
 20
9.2884307356
 11
10.1274289393
 21
9.2795771923
  0
LINE
  5
2F0
100
AcDbEntity
  8
0
100
AcDbLine
 62
4
  6
CONTINUOUS
 10
10.8118564138
 20
8.6492447257
 11
10.8284151349
 21
8.6315376464
  0
LINE
  5
2F1
100
AcDbEntity
  8
0
100
AcDbLine
 62
4
  6
CONTINUOUS
 10
10.9029294078
 20
8.6429287921
 11
10.919488129
 21
8.6252217129
  0
LINE
  5
2F2
100
AcDbEntity
  8
0
100
AcDbLine
 62
4
  6
CONTINUOUS
 10
10.6697273339
 20
8.9141058384
 11
10.7028447901
 21
8.8455742193
  0
LINE
  5
2F3
100
AcDbEntity
  8
0
100
AcDbLine
 62
4
  6
CONTINUOUS
 10
11.1043939855
 20
9.153868888
 11
11.1043939855
 21
9.1787069801
  0
LINE
  5
2F4
100
AcDbEntity
  8
0
100
AcDbLine
 62
4
  6
CONTINUOUS
 10
11.1540700937
 20
9.1090270154
 11
11.1540700937
 21
9.1338651101
  0
LINE
  5
2F5
100
AcDbEntity
  8
0
100
AcDbLine
 62
7
  6
CONTINUOUS
 10
11.2073646843
 20
5.7163111197
 11
11.2073646843
 21
5.1303637868
  0
LINE
  5
2F6
100
AcDbEntity
  8
0
100
AcDbLine
 62
7
  6
CONTINUOUS
 10
11.2393574796
 20
5.7140924118
 11
11.2393574796
 21
5.1220834526
  0
LINE
  5
2F7
100
AcDbEntity
  8
0
100
AcDbLine
 62
4
  6
CONTINUOUS
 10
12.357682741
 20
9.123528731
 11
12.3721716289
 21
9.1321831795
  0
LINE
  5
2F8
100
AcDbEntity
  8
0
100
AcDbLine
 62
4
  6
CONTINUOUS
 10
12.4011494048
 20
9.0818772685
 11
12.3721716289
 21
9.064568368
  0
LINE
  5
2F9
100
AcDbEntity
  8
0
100
AcDbLine
 62
4
  6
CONTINUOUS
 10
10.3123347524
 20
8.6010930268
 11
10.3564913606
 21
8.5980307556
  0
LINE
  5
2FA
100
AcDbEntity
  8
0
100
AcDbLine
 62
4
  6
CONTINUOUS
 10
10.9995220124
 20
8.586553888
 11
10.9664045701
 21
8.5888505905
  0
LINE
  5
2FB
100
AcDbEntity
  8
0
100
AcDbLine
 62
4
  6
CONTINUOUS
 10
10.533117821
 20
8.6188991286
 11
10.5000003511
 21
8.6211958329
  0
LINE
  5
2FC
100
AcDbEntity
  8
0
100
AcDbLine
 62
4
  6
CONTINUOUS
 10
10.1964236559
 20
8.6919251324
 11
10.2378204726
 21
8.6890542535
  0
LINE
  5
2FD
100
AcDbEntity
  8
0
100
AcDbLine
 62
4
  6
CONTINUOUS
 10
10.4006479688
 20
8.6777621282
 11
10.4668828811
 21
8.6731687215
  0
LINE
  5
2FE
100
AcDbEntity
  8
0
100
AcDbLine
 62
4
  6
CONTINUOUS
 10
10.5000003511
 20
8.6708720171
 11
10.5496765422
 21
8.6674269616
  0
LINE
  5
2FF
100
AcDbEntity
  8
0
100
AcDbLine
 62
4
  6
CONTINUOUS
 10
10.690425755
 20
8.6576659705
 11
10.7235431974
 21
8.6553692681
  0
LINE
  5
300
100
AcDbEntity
  8
0
100
AcDbLine
 62
4
  6
CONTINUOUS
 10
10.7870183044
 20
8.6509672545
 11
10.8118564138
 21
8.6492447257
  0
LINE
  5
301
100
AcDbEntity
  8
0
100
AcDbLine
 62
4
  6
CONTINUOUS
 10
10.8615325773
 20
8.6457996721
 11
10.9029294078
 21
8.6429287921
  0
LINE
  5
302
100
AcDbEntity
  8
0
100
AcDbLine
 62
4
  6
CONTINUOUS
 10
10.9664045701
 20
8.6385267747
 11
11.0160807336
 21
8.635081721
  0
LINE
  5
303
100
AcDbEntity
  8
0
100
AcDbLine
 62
4
  6
CONTINUOUS
 10
11.0491981759
 20
8.5886284104
 11
11.0933547841
 21
8.5634878317
  0
LINE
  5
304
100
AcDbEntity
  8
0
100
AcDbLine
 62
4
  6
CONTINUOUS
 10
10.4751622495
 20
9.2306237167
 11
10.4834416101
 21
9.2217701736
  0
LINE
  5
305
100
AcDbEntity
  8
0
100
AcDbLine
 62
4
  6
CONTINUOUS
 10
10.8284151151
 20
9.1316112649
 11
10.8366945034
 21
9.1227577224
  0
LINE
  5
306
100
AcDbEntity
  8
0
100
AcDbLine
 62
4
  6
CONTINUOUS
 10
12.3721716289
 20
6.6690721239
 11
12.357682741
 21
6.6893954487
  0
LINE
  5
307
100
AcDbEntity
  8
0
100
AcDbLine
 62
4
  6
CONTINUOUS
 10
9.3188799693
 20
10.9763446053
 11
9.3116355253
 21
10.9865062681
  0
LINE
  5
308
100
AcDbEntity
  8
0
100
AcDbLine
 62
4
  6
CONTINUOUS
 10
9.3623466331
 20
11.0216264748
 11
9.376835521
 21
11.0013031509
  0
LINE
  5
309
100
AcDbEntity
  8
0
100
AcDbLine
 62
4
  6
CONTINUOUS
 10
12.4156382927
 20
6.7626502888
 11
12.4228827367
 21
6.7524886216
  0
LINE
  5
30A
100
AcDbEntity
  8
0
100
AcDbLine
 62
4
  6
CONTINUOUS
 10
9.3623466331
 20
11.0699227702
 11
9.369591077
 21
11.0597611031
  0
LINE
  5
30B
100
AcDbEntity
  8
0
100
AcDbLine
 62
4
  6
CONTINUOUS
 10
10.7042246788
 20
9.2147381833
 11
10.7097442341
 21
9.2060760333
  0
LINE
  5
30C
100
AcDbEntity
  8
0
100
AcDbLine
 62
4
  6
CONTINUOUS
 10
10.7952976728
 20
9.1918635216
 11
10.7870183399
 21
9.2089964234
  0
LINE
  5
30D
100
AcDbEntity
  8
0
100
AcDbLine
 62
4
  6
CONTINUOUS
 10
10.4875813182
 20
8.8770615233
 11
10.5455368699
 21
8.8730422922
  0
LINE
  5
30E
100
AcDbEntity
  8
0
100
AcDbLine
 62
4
  6
CONTINUOUS
 10
10.5786543261
 20
8.920421773
 11
10.6366098778
 21
8.9164025418
  0
LINE
  5
30F
100
AcDbEntity
  8
0
100
AcDbLine
 62
4
  6
CONTINUOUS
 10
10.5165590801
 20
9.1173613076
 11
10.5331178013
 21
9.1162129564
  0
LINE
  5
310
100
AcDbEntity
  8
0
100
AcDbLine
 62
4
  6
CONTINUOUS
 10
10.6048722965
 20
9.1388346471
 11
10.5883135753
 21
9.1482623632
  0
LINE
  5
311
100
AcDbEntity
  8
0
100
AcDbLine
 62
4
  6
CONTINUOUS
 10
10.7621802305
 20
9.1279253048
 11
10.7456215093
 21
9.1373530209
  0
LINE
  5
312
100
AcDbEntity
  8
0
100
AcDbLine
 62
4
  6
CONTINUOUS
 10
11.1126733184
 20
9.1477751383
 11
11.1043939855
 21
9.153868888
  0
LINE
  5
313
100
AcDbEntity
  8
0
100
AcDbLine
 62
4
  6
CONTINUOUS
 10
10.9194881645
 20
9.1170159625
 11
10.9112087762
 21
9.125869505
  0
LINE
  5
314
100
AcDbEntity
  8
0
100
AcDbLine
 62
4
  6
CONTINUOUS
 10
11.0381589903
 20
9.1087861128
 11
11.0298796573
 21
9.1176396514
  0
LINE
  5
315
100
AcDbEntity
  8
0
100
AcDbLine
 62
4
  6
CONTINUOUS
 10
11.1043939855
 20
9.1124720652
 11
11.1126733184
 21
9.1036185266
  0
LINE
  5
316
100
AcDbEntity
  8
0
100
AcDbLine
 62
4
  6
CONTINUOUS
 10
11.1457907608
 20
9.1841154715
 11
11.1540700937
 21
9.1752619303
  0
LINE
  5
317
100
AcDbEntity
  8
0
100
AcDbLine
 62
4
  6
CONTINUOUS
 10
12.350438297
 20
9.1143718717
 11
12.357682741
 21
9.123528731
  0
LINE
  5
318
100
AcDbEntity
  8
0
100
AcDbLine
 62
4
  6
CONTINUOUS
 10
12.3721716289
 20
9.064568368
 11
12.357682741
 21
9.0462546597
  0
LINE
  5
319
100
AcDbEntity
  8
0
100
AcDbLine
 62
4
  6
CONTINUOUS
 10
12.4083938487
 20
9.0910341279
 11
12.4011494048
 21
9.0818772685
  0
LINE
  5
31A
100
AcDbEntity
  8
0
100
AcDbLine
 62
4
  6
CONTINUOUS
 10
11.0712765431
 20
9.1064894027
 11
11.0381589903
 21
9.1087861128
  0
LINE
  5
31B
100
AcDbEntity
  8
0
100
AcDbLine
 62
4
  6
CONTINUOUS
 10
10.9360468856
 20
9.1158676113
 11
10.9194881645
 21
9.1170159625
  0
LINE
  5
31C
100
AcDbEntity
  8
0
100
AcDbLine
 62
4
  6
CONTINUOUS
 10
10.7952976728
 20
9.1256286024
 11
10.7621802305
 21
9.1279253048
  0
LINE
  5
31D
100
AcDbEntity
  8
0
100
AcDbLine
 62
4
  6
CONTINUOUS
 10
10.6379897388
 20
9.1365379447
 11
10.6048722965
 21
9.1388346471
  0
LINE
  5
31E
100
AcDbEntity
  8
0
100
AcDbLine
 62
4
  6
CONTINUOUS
 10
10.0777527524
 20
9.1753905116
 11
10.1108702112
 21
9.1730938081
  0
LINE
  5
31F
100
AcDbEntity
  8
0
100
AcDbLine
 62
4
  6
CONTINUOUS
 10
10.1771051235
 20
9.1685004013
 11
10.201943226
 21
9.166777873
  0
LINE
  5
320
100
AcDbEntity
  8
0
100
AcDbLine
 62
4
  6
CONTINUOUS
 10
10.8366945034
 20
9.1227577224
 11
10.8780913339
 21
9.1198868425
  0
LINE
  5
321
100
AcDbEntity
  8
0
100
AcDbLine
 62
4
  6
CONTINUOUS
 10
11.1126733184
 20
9.1036185266
 11
11.1457907608
 21
9.1013218242
  0
LINE
  5
322
100
AcDbEntity
  8
0
100
AcDbLine
 62
4
  6
CONTINUOUS
 10
12.350438297
 20
9.0177792878
 11
12.4083938487
 21
9.0137600566
  0
LINE
  5
323
100
AcDbEntity
  8
0
100
AcDbLine
 62
4
  6
CONTINUOUS
 10
10.7621802305
 20
9.1693221285
 11
10.7952976728
 21
9.167025426
  0
LINE
  5
324
100
AcDbEntity
  8
0
100
AcDbLine
 62
4
  6
CONTINUOUS
 10
10.7870183399
 20
9.2089964234
 11
10.7456215093
 21
9.2118673033
  0
LINE
  5
325
100
AcDbEntity
  8
0
100
AcDbLine
 62
4
  6
CONTINUOUS
 10
10.433765419
 20
9.2334945966
 11
10.4751622495
 21
9.2306237167
  0
LINE
  5
326
100
AcDbEntity
  8
0
100
AcDbLine
 62
4
  6
CONTINUOUS
 10
10.6048722965
 20
9.2216282944
 11
10.6379897388
 21
9.2193315919
  0
LINE
  5
327
100
AcDbEntity
  8
0
100
AcDbLine
 62
4
  6
CONTINUOUS
 10
10.6711072364
 20
9.2170348857
 11
10.7042246788
 21
9.2147381833
  0
LINE
  5
328
100
AcDbEntity
  8
0
100
AcDbLine
 62
4
  6
CONTINUOUS
 10
11.0381589903
 20
9.1915797601
 11
11.0712765431
 21
9.18928305
  0
LINE
  5
329
100
AcDbEntity
  8
0
100
AcDbLine
 62
4
  6
CONTINUOUS
 10
11.1126733184
 20
9.1864121739
 11
11.1457907608
 21
9.1841154715
  0
LINE
  5
32A
100
AcDbEntity
  8
0
100
AcDbLine
 62
4
  6
CONTINUOUS
 10
10.0860321173
 20
9.2907274392
 11
10.1191495752
 21
9.2884307356
  0
LINE
  5
32B
100
AcDbEntity
  8
0
100
AcDbLine
 62
4
  6
CONTINUOUS
 10
10.9857230491
 20
9.2283336611
 11
10.9884828268
 21
9.2281422699
  0
LINE
  5
32C
100
AcDbEntity
  8
0
100
AcDbLine
 62
4
  6
CONTINUOUS
 10
12.3721716289
 20
9.1321831795
 11
12.3866605168
 21
9.1311783717
  0
LINE
  5
32D
100
AcDbEntity
  8
0
100
AcDbLine
 62
4
  6
CONTINUOUS
 10
11.1457907608
 20
9.1399588598
 11
11.1126733184
 21
9.1477751383
  0
LINE
  5
32E
100
AcDbEntity
  8
0
100
AcDbLine
 62
4
  6
CONTINUOUS
 10
11.1540700937
 20
9.1338651101
 11
11.1457907608
 21
9.1399588598
  0
LINE
  5
32F
100
AcDbEntity
  8
0
100
AcDbLine
 62
7
  6
CONTINUOUS
 10
11.8860023536
 20
5.6692474375
 11
11.8860023536
 21
5.0772384782
  0
LINE
  5
330
100
AcDbEntity
  8
0
100
AcDbLine
 62
7
  6
CONTINUOUS
 10
11.9297053125
 20
5.666216627
 11
11.9297053125
 21
5.0802692941
  0
LINE
  5
331
100
AcDbEntity
  8
0
100
AcDbLine
 62
4
  6
CONTINUOUS
 10
9.3333688572
 20
10.9656805386
 11
9.3188799693
 21
10.9763446053
  0
LINE
  5
332
100
AcDbEntity
  8
0
100
AcDbLine
 62
4
  6
CONTINUOUS
 10
9.3478577451
 20
11.0322905389
 11
9.3623466331
 21
11.0216264748
  0
LINE
  5
333
100
AcDbEntity
  8
0
100
AcDbLine
 62
4
  6
CONTINUOUS
 10
9.3478577451
 20
11.0805868343
 11
9.3623466331
 21
11.0699227702
  0
LINE
  5
334
100
AcDbEntity
  8
0
100
AcDbLine
 62
4
  6
CONTINUOUS
 10
12.357682741
 20
6.6893954487
 11
12.350438297
 21
6.7188756284
  0
LINE
  5
335
100
AcDbEntity
  8
0
100
AcDbLine
 62
7
  6
CONTINUOUS
 10
12.403082082
 20
5.6333878366
 11
12.403082082
 21
5.2027881706
  0
LINE
  5
336
100
AcDbEntity
  8
0
100
AcDbLine
 62
4
  6
CONTINUOUS
 10
12.4083938487
 20
9.1103526405
 11
12.4083938487
 21
9.0910341279
  0
LINE
  5
337
100
AcDbEntity
  8
0
100
AcDbLine
 62
7
  6
CONTINUOUS
 10
12.4147922455
 20
5.6325757339
 11
12.4147922455
 21
5.2140993207
  0
LINE
  5
338
100
AcDbEntity
  8
0
100
AcDbLine
 62
4
  6
CONTINUOUS
 10
12.4228827367
 20
6.7138515895
 11
12.4228827367
 21
6.6752145556
  0
LINE
  5
339
100
AcDbEntity
  8
0
100
AcDbLine
 62
4
  6
CONTINUOUS
 10
12.357682741
 20
9.0462546597
 11
12.350438297
 21
9.0177792878
  0
LINE
  5
33A
100
AcDbEntity
  8
0
100
AcDbLine
 62
4
  6
CONTINUOUS
 10
12.3866605168
 20
9.1311783717
 11
12.4011494048
 21
9.1205143076
  0
LINE
  5
33B
100
AcDbEntity
  8
0
100
AcDbLine
 62
7
  6
CONTINUOUS
 10
12.5436235198
 20
5.6236412547
 11
12.5436235198
 21
10.9362336141
  0
LINE
  5
33C
100
AcDbEntity
  8
0
100
AcDbLine
 62
4
  6
CONTINUOUS
 10
12.4011494048
 20
9.1205143076
 11
12.4083938487
 21
9.1103526405
  0
LINE
  5
33D
100
AcDbEntity
  8
0
100
AcDbLine
 62
4
  6
CONTINUOUS
 10
12.350438297
 20
6.7188756284
 11
12.357682741
 21
6.7473510004
  0
LINE
  5
33E
100
AcDbEntity
  8
0
100
AcDbLine
 62
4
  6
CONTINUOUS
 10
12.357682741
 20
6.7473510004
 11
12.3721716289
 21
6.7656647121
  0
LINE
  5
33F
100
AcDbEntity
  8
0
100
AcDbLine
 62
4
  6
CONTINUOUS
 10
12.4228827367
 20
6.6752145556
 11
12.4156382927
 21
6.6660577005
  0
LINE
  5
340
100
AcDbEntity
  8
0
100
AcDbLine
 62
7
  6
CONTINUOUS
 10
12.931851767
 20
7.3557668338
 11
12.9325367171
 21
7.3564162237
  0
LINE
  5
341
100
AcDbEntity
  8
0
100
AcDbLine
 62
4
  6
CONTINUOUS
 10
12.3721716289
 20
6.7656647121
 11
12.3866605168
 21
6.7743191607
  0
LINE
  5
342
100
AcDbEntity
  8
0
100
AcDbLine
 62
7
  6
CONTINUOUS
 10
13.3200800143
 20
6.3736406802
 11
13.3200800143
 21
11.6862330396
  0
LINE
  5
343
100
AcDbEntity
  8
0
100
AcDbLine
 62
4
  6
CONTINUOUS
 10
12.4156382927
 20
6.6660577005
 11
12.4011494048
 21
6.6574032494
  0
LINE
  5
344
100
AcDbEntity
  8
0
100
AcDbLine
 62
4
  6
CONTINUOUS
 10
9.3478577451
 20
10.9646757309
 11
9.3333688572
 21
10.9656805386
  0
LINE
  5
345
100
AcDbEntity
  8
0
100
AcDbLine
 62
4
  6
CONTINUOUS
 10
9.3333688572
 20
11.0332953467
 11
9.3478577451
 21
11.0322905389
  0
LINE
  5
346
100
AcDbEntity
  8
0
100
AcDbLine
 62
4
  6
CONTINUOUS
 10
9.3333688572
 20
11.0815916421
 11
9.3478577451
 21
11.0805868343
  0
LINE
  5
347
100
AcDbEntity
  8
0
100
AcDbLine
 62
7
  6
CONTINUOUS
 10
8.6799199857
 20
11.2041823643
 11
12.5436235198
 21
10.9362336141
  0
LINE
  5
348
100
AcDbEntity
  8
0
100
AcDbLine
 62
7
  6
CONTINUOUS
 10
12.5436235198
 20
5.6236412547
 11
13.3200800143
 21
6.3736406802
  0
LINE
  5
349
100
AcDbEntity
  8
0
100
AcDbLine
 62
7
  6
CONTINUOUS
 10
13.3200800143
 20
11.6862330396
 11
9.4563764802
 21
11.9541817898
  0
LINE
  5
34A
100
AcDbEntity
  8
0
100
AcDbLine
 62
7
  6
CONTINUOUS
 10
12.3050121151
 20
5.1473094118
 11
12.2736293648
 21
5.131806934
  0
ARC
  5
34B
100
AcDbEntity
  8
0
100
AcDbCircle
 62
7
  6
CONTINUOUS
 10
11.7365616999
 20
7.5487069973
 40
2.4759824616
100
AcDbArc
 50
273.460253038
 51
274.4740090323
  0
ARC
  5
34C
100
AcDbEntity
  8
0
100
AcDbCircle
 62
7
  6
CONTINUOUS
 10
11.4944183383
 20
6.1735097645
 40
1.0819211298
100
AcDbArc
 50
254.6141230724
 51
256.3642747627
  0
ARC
  5
34D
100
AcDbEntity
  8
0
100
AcDbCircle
 62
7
  6
CONTINUOUS
 10
11.9267805327
 20
5.9112224891
 40
0.8524210625
100
AcDbArc
 50
293.9860710649
 51
296.3129872661
  0
ARC
  5
34E
100
AcDbEntity
  8
0
100
AcDbCircle
 62
7
  6
CONTINUOUS
 10
10.4205549176
 20
7.1004524328
 40
0.634163512
100
AcDbArc
 50
356.6742867401
 51
358.0834185344
  0
ARC
  5
34F
100
AcDbEntity
  8
0
100
AcDbCircle
 62
7
  6
CONTINUOUS
 10
10.890861986
 20
7.6537944031
 40
0.5408078866
100
AcDbArc
 50
169.5118302664
 51
180.0352283494
  0
ARC
  5
350
100
AcDbEntity
  8
0
100
AcDbCircle
 62
7
  6
CONTINUOUS
 10
9.7306528936
 20
10.578896047
 40
0.4283551478
100
AcDbArc
 50
134.419000331
 51
135.5465391715
  0
ARC
  5
351
100
AcDbEntity
  8
0
100
AcDbCircle
 62
7
  6
CONTINUOUS
 10
9.8190937655
 20
10.4873352834
 40
0.4283453733
100
AcDbArc
 50
312.4672294925
 51
313.3840328633
  0
ARC
  5
352
100
AcDbEntity
  8
0
100
AcDbCircle
 62
7
  6
CONTINUOUS
 10
9.7542741717
 20
10.5384310648
 40
0.2938785765
100
AcDbArc
 50
85.9815192836
 51
98.6608031965
  0
ARC
  5
353
100
AcDbEntity
  8
0
100
AcDbCircle
 62
7
  6
CONTINUOUS
 10
12.3140574611
 20
5.3070943589
 40
0.137131922
100
AcDbArc
 50
310.4805308012
 51
313.9817446454
  0
ARC
  5
354
100
AcDbEntity
  8
0
100
AcDbCircle
 62
7
  6
CONTINUOUS
 10
11.2015125281
 20
5.2283371934
 40
0.0981089067
100
AcDbArc
 50
254.8737411391
 51
256.015771027
  0
LINE
  5
355
100
AcDbEntity
  8
0
100
AcDbLine
 62
7
  6
CONTINUOUS
 10
12.4147922455
 20
5.2140993207
 11
12.4092858641
 21
5.2084195632
  0
SPLINE
  5
356
100
AcDbEntity
  8
0
100
AcDbSpline
 62
7
  6
CONTINUOUS
 70
0
 71
3
 72
9
 73
5
 74
0
 42
0.0000001
 43
0.0000001
 44
0.0000000001
 40
0.0
 40
0.0
 40
0.0
 40
0.0
 40
0.5046579896
 40
1.0
 40
1.0
 40
1.0
 40
1.0
 10
12.403082082
 20
5.2027881706
 30
0.0
 10
12.3869887694
 20
5.192630672
 30
0.0
 10
12.3546709686
 20
5.1731703783
 30
0.0
 10
12.3213825685
 20
5.1554010433
 30
0.0
 10
12.3046369563
 20
5.1471242029
 30
0.0
  0
SPLINE
  5
357
100
AcDbEntity
  8
0
100
AcDbSpline
 62
7
  6
CONTINUOUS
 70
0
 71
3
 72
23
 73
19
 74
0
 42
0.0000001
 43
0.0000001
 44
0.0000000001
 40
0.0
 40
0.0
 40
0.0
 40
0.0
 40
0.0433457487
 40
0.0887141091
 40
0.1363573647
 40
0.1864949178
 40
0.2392956118
 40
0.2948831072
 40
0.3533267235
 40
0.4146494686
 40
0.4788289665
 40
0.5458050177
 40
0.6154867711
 40
0.6877590178
 40
0.7624900115
 40
0.8395391943
 40
0.9187591375
 40
1.0
 40
1.0
 40
1.0
 40
1.0
 10
11.1571010087
 20
5.1407770283
 30
0.0
 10
11.1544775835
 20
5.1420711019
 30
0.0
 10
11.149210192
 20
5.1449308845
 30
0.0
 10
11.1414592489
 20
5.1499044844
 30
0.0
 10
11.133697006
 20
5.1556673327
 30
0.0
 10
11.1259305911
 20
5.1622305482
 30
0.0
 10
11.1181640128
 20
5.1695957778
 30
0.0
 10
11.1104034654
 20
5.1777588833
 30
0.0
 10
11.1026533467
 20
5.1867068973
 30
0.0
 10
11.0949187958
 20
5.1964206181
 30
0.0
 10
11.0872041167
 20
5.2068743333
 30
0.0
 10
11.0795130584
 20
5.2180371161
 30
0.0
 10
11.0718491512
 20
5.2298742915
 30
0.0
 10
11.0642147899
 20
5.2423480728
 30
0.0
 10
11.0566121744
 20
5.2554194438
 30
0.0
 10
11.0490425435
 20
5.2690486282
 30
0.0
 10
11.0415067832
 20
5.2831961041
 30
0.0
 10
11.0365650725
 20
5.2928321595
 30
0.0
 10
11.0340965798
 20
5.2977276376
 30
0.0
  0
SPLINE
  5
358
100
AcDbEntity
  8
0
100
AcDbSpline
 62
7
  6
CONTINUOUS
 70
0
 71
3
 72
46
 73
42
 74
0
 42
0.0000001
 43
0.0000001
 44
0.0000000001
 40
0.0
 40
0.0
 40
0.0
 40
0.0
 40
0.009987442
 40
0.0204476137
 40
0.0313771087
 40
0.042770719
 40
0.0546216827
 40
0.0669224299
 40
0.0796639586
 40
0.092836054
 40
0.1204269473
 40
0.1495982457
 40
0.1802404493
 40
0.2122336402
 40
0.2454488195
 40
0.2797495924
 40
0.3149928343
 40
0.3510297406
 40
0.3877071311
 40
0.4248680709
 40
0.4623528245
 40
0.4999999707
 40
0.5376471181
 40
0.5751319032
 40
0.6122928703
 40
0.6489702712
 40
0.6850072643
 40
0.7202505753
 40
0.7545513746
 40
0.7877666801
 40
0.8197599616
 40
0.8504022183
 40
0.879573693
 40
0.9071646914
 40
0.9330772419
 40
0.9453781444
 40
0.9572291907
 40
0.9686227884
 40
0.9795523871
 40
0.9900125566
 40
1.0
 40
1.0
 40
1.0
 40
1.0
 10
12.2736347012
 20
5.1318096333
 30
0.0
 10
12.2702939383
 20
5.1301593313
 30
0.0
 10
12.2633972355
 20
5.1268951664
 30
0.0
 10
12.2526705009
 20
5.1222038311
 30
0.0
 10
12.2413338037
 20
5.117609392
 30
0.0
 10
12.2294003268
 20
5.1131171792
 30
0.0
 10
12.2168837812
 20
5.1087320883
 30
0.0
 10
12.2037984259
 20
5.1044595092
 30
0.0
 10
12.1901593019
 20
5.100304241
 30
0.0
 10
12.1709585323
 20
5.0948419849
 30
0.0
 10
12.1456778137
 20
5.0883677858
 30
0.0
 10
12.1138497334
 20
5.0812532368
 30
0.0
 10
12.0802244892
 20
5.0747117682
 30
0.0
 10
12.0449570857
 20
5.0687739758
 30
0.0
 10
12.0082098783
 20
5.0634674854
 30
0.0
 10
11.970152304
 20
5.0588172868
 30
0.0
 10
11.9309599293
 20
5.0548452113
 30
0.0
 10
11.8908136901
 20
5.0515696094
 30
0.0
 10
11.8498989457
 20
5.0490059138
 30
0.0
 10
11.8084046459
 20
5.0471661946
 30
0.0
 10
11.7665224778
 20
5.0460588251
 30
0.0
 10
11.7244459279
 20
5.0456890822
 30
0.0
 10
11.6823693667
 20
5.0460588062
 30
0.0
 10
11.640487173
 20
5.0471660568
 30
0.0
 10
11.5989928456
 20
5.0490057503
 30
0.0
 10
11.5580780547
 20
5.051569436
 30
0.0
 10
11.5179317438
 20
5.0548449214
 30
0.0
 10
11.4787392973
 20
5.0588169654
 30
0.0
 10
11.4406816389
 20
5.063467169
 30
0.0
 10
11.4039343307
 20
5.0687735441
 30
0.0
 10
11.3686667918
 20
5.074711295
 30
0.0
 10
11.3350415238
 20
5.0812528129
 30
0.0
 10
11.3032129719
 20
5.0883671657
 30
0.0
 10
11.2733276469
 20
5.0960210525
 30
0.0
 10
11.2497638356
 20
5.1029338863
 30
0.0
 10
11.2320068749
 20
5.1087314069
 30
0.0
 10
11.2194902251
 20
5.1131165332
 30
0.0
 10
11.207556715
 20
5.1176088207
 30
0.0
 10
11.1962199207
 20
5.1222031095
 30
0.0
 10
11.1854931159
 20
5.1268943838
 30
0.0
 10
11.1785964292
 20
5.1301585826
 30
0.0
 10
11.1752556664
 20
5.1318088859
 30
0.0
  0
SPLINE
  5
359
100
AcDbEntity
  8
0
100
AcDbSpline
 62
7
  6
CONTINUOUS
 70
0
 71
3
 72
21
 73
17
 74
0
 42
0.0000001
 43
0.0000001
 44
0.0000000001
 40
0.0
 40
0.0
 40
0.0
 40
0.0
 40
0.1229782982
 40
0.1846437121
 40
0.2464406137
 40
0.308381136
 40
0.3704758731
 40
0.4327332085
 40
0.4951582589
 40
0.5577520389
 40
0.6205114325
 40
0.6834297978
 40
0.7464974582
 40
0.8097023547
 40
0.8730312648
 40
1.0
 40
1.0
 40
1.0
 40
1.0
 10
11.8860023536
 20
5.0772384782
 30
0.0
 10
11.8596167794
 20
5.0718762901
 30
0.0
 10
11.8197859562
 20
5.0648091514
 30
0.0
 10
11.766284305
 20
5.0577703534
 30
0.0
 10
11.7258807554
 20
5.0537795487
 30
0.0
 10
11.6852688328
 20
5.0511850169
 30
0.0
 10
11.6444874027
 20
5.0500752865
 30
0.0
 10
11.6035866009
 20
5.0505187741
 30
0.0
 10
11.5626245418
 20
5.0525578176
 30
0.0
 10
11.5216639335
 20
5.0562044378
 30
0.0
 10
11.4807672377
 20
5.0614375437
 30
0.0
 10
11.4399920914
 20
5.0682064661
 30
0.0
 10
11.3993879824
 20
5.0764357303
 30
0.0
 10
11.3589931783
 20
5.0860313496
 30
0.0
 10
11.3054082006
 20
5.1005168476
 30
0.0
 10
11.2656609614
 20
5.1130896423
 30
0.0
 10
11.2393574796
 20
5.1220834526
 30
0.0
  0
SPLINE
  5
35A
100
AcDbEntity
  8
0
100
AcDbSpline
 62
7
  6
CONTINUOUS
 70
0
 71
3
 72
11
 73
7
 74
0
 42
0.0000001
 43
0.0000001
 44
0.0000000001
 40
0.0
 40
0.0
 40
0.0
 40
0.0
 40
0.2464179584
 40
0.4942839735
 40
0.7449565552
 40
1.0
 40
1.0
 40
1.0
 40
1.0
 10
11.2073646843
 20
5.1303637868
 30
0.0
 10
11.2049207305
 20
5.130238322
 30
0.0
 10
11.2000082616
 20
5.1301503331
 30
0.0
 10
11.1926141887
 20
5.1305441077
 30
0.0
 10
11.185184615
 20
5.1314994388
 30
0.0
 10
11.1802618061
 20
5.1325239504
 30
0.0
 10
11.1778040393
 20
5.1331360111
 30
0.0
  0
SPLINE
  5
35B
100
AcDbEntity
  8
0
100
AcDbSpline
 62
7
  6
CONTINUOUS
 70
0
 71
3
 72
9
 73
5
 74
0
 42
0.0000001
 43
0.0000001
 44
0.0000000001
 40
0.0
 40
0.0
 40
0.0
 40
0.0
 40
0.4896161665
 40
1.0
 40
1.0
 40
1.0
 40
1.0
 10
11.1759113071
 20
5.1336274524
 30
0.0
 10
11.1727371014
 20
5.1344854342
 30
0.0
 10
11.1663384619
 20
5.1365648179
 30
0.0
 10
11.1601749581
 20
5.1392607216
 30
0.0
 10
11.1571010087
 20
5.1407770283
 30
0.0
  0
SPLINE
  5
35C
100
AcDbEntity
  8
0
100
AcDbSpline
 62
7
  6
CONTINUOUS
 70
0
 71
3
 72
21
 73
17
 74
0
 42
0.0000001
 43
0.0000001
 44
0.0000000001
 40
0.0
 40
0.0
 40
0.0
 40
0.0
 40
0.066508053
 40
0.1323638847
 40
0.1975675177
 40
0.2621277743
 40
0.3260642674
 40
0.3894049724
 40
0.4521874815
 40
0.5144551981
 40
0.5762571041
 40
0.6376446408
 40
0.698669726
 40
0.7593834445
 40
0.8800506697
 40
1.0
 40
1.0
 40
1.0
 40
1.0
 10
12.2733020913
 20
5.1324128351
 30
0.0
 10
12.2661709488
 20
5.1292448816
 30
0.0
 10
12.2518853971
 20
5.1231470369
 30
0.0
 10
12.2302889304
 20
5.1147163757
 30
0.0
 10
12.2086421867
 20
5.1070754344
 30
0.0
 10
12.1869601198
 20
5.100250746
 30
0.0
 10
12.165260195
 20
5.0942570926
 30
0.0
 10
12.1435592585
 20
5.0891055657
 30
0.0
 10
12.1218755601
 20
5.0847937438
 30
0.0
 10
12.1002256747
 20
5.081314685
 30
0.0
 10
12.0786256155
 20
5.0786499755
 30
0.0
 10
12.0570892596
 20
5.0767760478
 30
0.0
 10
12.0356282522
 20
5.0756622865
 30
0.0
 10
12.007187789
 20
5.0751448032
 30
0.0
 10
11.9718260625
 20
5.0762069828
 30
0.0
 10
11.9436887118
 20
5.0786818313
 30
0.0
 10
11.9297053125
 20
5.0802692941
 30
0.0
  0
SPLINE
  5
35D
100
AcDbEntity
  8
0
100
AcDbSpline
 62
7
  6
CONTINUOUS
 70
0
 71
3
 72
34
 73
30
 74
0
 42
0.0000001
 43
0.0000001
 44
0.0000000001
 40
0.0
 40
0.0
 40
0.0
 40
0.0
 40
0.0845017631
 40
0.1673004612
 40
0.2480789935
 40
0.3265291774
 40
0.4023563354
 40
0.4391988087
 40
0.4752818393
 40
0.5105731496
 40
0.5450416022
 40
0.5786574517
 40
0.6113923142
 40
0.6432192789
 40
0.6741131428
 40
0.7040503539
 40
0.733009313
 40
0.7609705008
 40
0.7879165715
 40
0.8138327837
 40
0.8387070832
 40
0.8625305056
 40
0.8852976526
 40
0.9070069835
 40
0.9276616105
 40
0.9472699157
 40
0.9658463994
 40
0.9834129555
 40
1.0
 40
1.0
 40
1.0
 40
1.0
 10
9.9363717521
 20
11.2928216468
 30
0.0
 10
9.918900377
 20
11.2940332908
 30
0.0
 10
9.8843301186
 20
11.2967388029
 30
0.0
 10
9.8331516898
 20
11.3016998423
 30
0.0
 10
9.783324341
 20
11.3075065491
 30
0.0
 10
9.7350575016
 20
11.3141343371
 30
0.0
 10
9.6959382701
 20
11.3203764038
 30
0.0
 10
9.6655841797
 20
11.3257738879
 30
0.0
 10
9.6435512382
 20
11.3299701621
 30
0.0
 10
9.6220557084
 20
11.3343488527
 30
0.0
 10
9.601120142
 20
11.3389054153
 30
0.0
 10
9.5807665209
 20
11.3436350029
 30
0.0
 10
9.5610162052
 20
11.348532631
 30
0.0
 10
9.5418899194
 20
11.3535931596
 30
0.0
 10
9.5234077131
 20
11.3588112072
 30
0.0
 10
9.5055889601
 20
11.3641813073
 30
0.0
 10
9.4884523182
 20
11.3696977894
 30
0.0
 10
9.47201571
 20
11.3753548166
 30
0.0
 10
9.4562963214
 20
11.3811464838
 30
0.0
 10
9.4413105413
 20
11.3870666575
 30
0.0
 10
9.4270739772
 20
11.3931091463
 30
0.0
 10
9.4136014261
 20
11.3992676542
 30
0.0
 10
9.4009068213
 20
11.4055357201
 30
0.0
 10
9.3890032827
 20
11.4119069121
 30
0.0
 10
9.377903016
 20
11.4183746812
 30
0.0
 10
9.3676173905
 20
11.4249324289
 30
0.0
 10
9.3581567687
 20
11.4315738135
 30
0.0
 10
9.3495311365
 20
11.4382919047
 30
0.0
 10
9.3441933688
 20
11.4429484055
 30
0.0
 10
9.3416767786
 20
11.4452903671
 30
0.0
  0
SPLINE
  5
35E
100
AcDbEntity
  8
0
100
AcDbSpline
 62
7
  6
CONTINUOUS
 70
0
 71
3
 72
52
 73
48
 74
0
 42
0.0000001
 43
0.0000001
 44
0.0000000001
 40
0.0
 40
0.0
 40
0.0
 40
0.0
 40
0.0311427988
 40
0.0624387274
 40
0.0938816846
 40
0.1254621074
 40
0.1571677549
 40
0.1889838786
 40
0.2208935331
 40
0.2528779367
 40
0.2849168473
 40
0.316988967
 40
0.3490723557
 40
0.3811448555
 40
0.41318452
 40
0.4451700353
 40
0.4770811391
 40
0.5088990202
 40
0.5406066992
 40
0.5721893849
 40
0.6036347899
 40
0.6193054315
 40
0.6349384403
 40
0.6505331025
 40
0.6660889062
 40
0.6816055432
 40
0.6970829112
 40
0.7125211194
 40
0.7279204883
 40
0.7432815473
 40
0.7586050352
 40
0.7738918989
 40
0.7891432881
 40
0.8043605493
 40
0.8195452217
 40
0.8346990299
 40
0.8498238734
 40
0.8649218171
 40
0.8799950819
 40
0.8950460323
 40
0.9100771614
 40
0.9250910782
 40
0.9400904939
 40
0.9550782048
 40
0.9700570753
 40
0.9850300227
 40
1.0
 40
1.0
 40
1.0
 40
1.0
 10
10.3702902819
 20
8.0331801053
 30
0.0
 10
10.3930163305
 20
8.0316040485
 30
0.0
 10
10.4384817178
 20
8.0267807039
 30
0.0
 10
10.5061285695
 20
8.0146307015
 30
0.0
 10
10.5730508592
 20
7.9976120443
 30
0.0
 10
10.6388871447
 20
7.9758164547
 30
0.0
 10
10.7032876942
 20
7.9493606216
 30
0.0
 10
10.7659089417
 20
7.9183860962
 30
0.0
 10
10.8264173345
 20
7.8830584495
 30
0.0
 10
10.8844903866
 20
7.8435662132
 30
0.0
 10
10.9398187713
 20
7.8001202367
 30
0.0
 10
10.9921075745
 20
7.7529521069
 30
0.0
 10
11.0410782527
 20
7.7023134169
 30
0.0
 10
11.0864696994
 20
7.6484739838
 30
0.0
 10
11.1280399698
 20
7.5917207786
 30
0.0
 10
11.1655673224
 20
7.5323562015
 30
0.0
 10
11.1988514789
 20
7.4706965083
 30
0.0
 10
11.227714754
 20
7.4070704501
 30
0.0
 10
11.2520028486
 20
7.341816399
 30
0.0
 10
11.2715855991
 20
7.2752845249
 30
0.0
 10
11.2839114199
 20
7.2189981158
 30
0.0
 10
11.2913178945
 20
7.1736911719
 30
0.0
 10
11.2956373374
 20
7.1396507824
 30
0.0
 10
11.2987210553
 20
7.1055610094
 30
0.0
 10
11.3005650864
 20
7.071466832
 30
0.0
 10
11.3011668958
 20
7.0374139124
 30
0.0
 10
11.3005256161
 20
7.0034476826
 30
0.0
 10
11.2986421201
 20
6.9696135098
 30
0.0
 10
11.2955189147
 20
6.9359565705
 30
0.0
 10
11.2911601088
 20
6.9025218171
 30
0.0
 10
11.2855714828
 20
6.8693539091
 30
0.0
 10
11.2787605224
 20
6.8364971405
 30
0.0
 10
11.2707362956
 20
6.8039953981
 30
0.0
 10
11.2615094454
 20
6.7718921137
 30
0.0
 10
11.2510923038
 20
6.7402301693
 30
0.0
 10
11.2394987885
 20
6.709051856
 30
0.0
 10
11.2267443409
 20
6.6783988392
 30
0.0
 10
11.2128459493
 20
6.6483120931
 30
0.0
 10
11.1978222109
 20
6.6188318003
 30
0.0
 10
11.1816931844
 20
6.5899973513
 30
0.0
 10
11.1644803621
 20
6.5618473032
 30
0.0
 10
11.1462067443
 20
6.5344192741
 30
0.0
 10
11.1268967592
 20
6.5077498886
 30
0.0
 10
11.1065762193
 20
6.4818748299
 30
0.0
 10
11.0852721099
 20
6.4568285835
 30
0.0
 10
11.0630133991
 20
6.4326450613
 30
0.0
 10
11.0475560197
 20
6.4171177176
 30
0.0
 10
11.039679915
 20
6.4095099682
 30
0.0
  0
SPLINE
  5
35F
100
AcDbEntity
  8
0
100
AcDbSpline
 62
7
  6
CONTINUOUS
 70
0
 71
3
 72
39
 73
35
 74
0
 42
0.0000001
 43
0.0000001
 44
0.0000000001
 40
0.0
 40
0.0
 40
0.0
 40
0.0
 40
0.0311450496
 40
0.0624431124
 40
0.0938883501
 40
0.1254709987
 40
0.1571788953
 40
0.1889972749
 40
0.2209091922
 40
0.2528958629
 40
0.2849370446
 40
0.3170114373
 40
0.3490970993
 40
0.3811718714
 40
0.4132138048
 40
0.4452015851
 40
0.4771149473
 40
0.508935079
 40
0.5406450006
 40
0.572229919
 40
0.6036775474
 40
0.6349783854
 40
0.6661259539
 40
0.697116972
 40
0.7279514727
 40
0.758632853
 40
0.7891678509
 40
0.8195664476
 40
0.8498416867
 40
0.8800094173
 40
0.9100879625
 40
0.9400977185
 40
0.9700606941
 40
1.0
 40
1.0
 40
1.0
 40
1.0
 10
9.7665866047
 20
11.0003536358
 30
0.0
 10
9.7781914374
 20
10.9995488379
 30
0.0
 10
9.8014078445
 20
10.9970858638
 30
0.0
 10
9.8359509873
 20
10.9908815316
 30
0.0
 10
9.8701241368
 20
10.9821911632
 30
0.0
 10
9.9037427478
 20
10.9710614464
 30
0.0
 10
9.9366281982
 20
10.9575520417
 30
0.0
 10
9.9686050629
 20
10.9417351946
 30
0.0
 10
9.9995030052
 20
10.923695455
 30
0.0
 10
10.0291573862
 20
10.9035291472
 30
0.0
 10
10.0574102075
 20
10.8813438753
 30
0.0
 10
10.0841109125
 20
10.8572579459
 30
0.0
 10
10.109117209
 20
10.8313997736
 30
0.0
 10
10.1322958275
 20
10.8039072011
 30
0.0
 10
10.1535231932
 20
10.7749267404
 30
0.0
 10
10.1726860842
 20
10.7446128109
 30
0.0
 10
10.1896822191
 20
10.7131269222
 30
0.0
 10
10.2044208469
 20
10.6806368515
 30
0.0
 10
10.2168232079
 20
10.6473157399
 30
0.0
 10
10.2268229307
 20
10.6133411747
 30
0.0
 10
10.2343663941
 20
10.5788942613
 30
0.0
 10
10.2394130119
 20
10.5441586733
 30
0.0
 10
10.241935519
 20
10.5093196941
 30
0.0
 10
10.2419200764
 20
10.4745632268
 30
0.0
 10
10.239366356
 20
10.440074817
 30
0.0
 10
10.2342875588
 20
10.406038674
 30
0.0
 10
10.2267103795
 20
10.3726366937
 30
0.0
 10
10.216674928
 20
10.3400474672
 30
0.0
 10
10.204234493
 20
10.3084453446
 30
0.0
 10
10.1894552286
 20
10.2779994342
 30
0.0
 10
10.1724160382
 20
10.2488729042
 30
0.0
 10
10.1532073531
 20
10.2212212633
 30
0.0
 10
10.1319338102
 20
10.1951944915
 30
0.0
 10
10.1164438478
 20
10.1790127279
 30
0.0
 10
10.1084008713
 20
10.1712438355
 30
0.0
  0
SPLINE
  5
360
100
AcDbEntity
  8
0
100
AcDbSpline
 62
7
  6
CONTINUOUS
 70
0
 71
3
 72
18
 73
14
 74
0
 42
0.0000001
 43
0.0000001
 44
0.0000000001
 40
0.0
 40
0.0
 40
0.0
 40
0.0
 40
0.1504678859
 40
0.2917100145
 40
0.4244359174
 40
0.549562529
 40
0.668213991
 40
0.7255497453
 40
0.7817912733
 40
0.8371402265
 40
0.8918093735
 40
0.9460201098
 40
1.0
 40
1.0
 40
1.0
 40
1.0
 10
12.931851767
 20
10.3699385884
 30
0.0
 10
12.9345756788
 20
10.3725696852
 30
0.0
 10
12.9400196227
 20
10.3775062936
 30
0.0
 10
12.9484495337
 20
10.3840851573
 30
0.0
 10
12.9568695375
 20
10.3895873837
 30
0.0
 10
12.9652709219
 20
10.3940039566
 30
0.0
 10
12.9723322023
 20
10.39680454
 30
0.0
 10
12.9779385377
 20
10.3984684922
 30
0.0
 10
12.9820835752
 20
10.3994275606
 30
0.0
 10
12.986214861
 20
10.4001111066
 30
0.0
 10
12.9903312358
 20
10.4005189092
 30
0.0
 10
12.9944310658
 20
10.4006507239
 30
0.0
 10
12.9971548736
 20
10.4005543723
 30
0.0
 10
12.9985102403
 20
10.4004603816
 30
0.0
  0
SPLINE
  5
361
100
AcDbEntity
  8
0
100
AcDbSpline
 62
7
  6
CONTINUOUS
 70
0
 71
3
 72
15
 73
11
 74
0
 42
0.0000001
 43
0.0000001
 44
0.0000000001
 40
0.0
 40
0.0
 40
0.0
 40
0.0
 40
0.1246610492
 40
0.249402078
 40
0.3742264556
 40
0.4991555641
 40
0.6241951231
 40
0.7493493221
 40
0.8746187513
 40
1.0
 40
1.0
 40
1.0
 40
1.0
 10
9.9524185257
 20
10.4708638998
 30
0.0
 10
9.9564301557
 20
10.4705856923
 30
0.0
 10
9.9644732704
 20
10.4702524464
 30
0.0
 10
9.9765495979
 20
10.4704231528
 30
0.0
 10
9.9886069291
 20
10.4712626301
 30
0.0
 10
10.0006091168
 20
10.472766142
 30
0.0
 10
10.0125213335
 20
10.4749267065
 30
0.0
 10
10.0243090434
 20
10.4777347154
 30
0.0
 10
10.0359380602
 20
10.4811782148
 30
0.0
 10
10.0435607828
 20
10.4838876587
 30
0.0
 10
10.047334344
 20
10.4853430601
 30
0.0
  0
SPLINE
  5
362
100
AcDbEntity
  8
0
100
AcDbSpline
 62
7
  6
CONTINUOUS
 70
0
 71
3
 72
21
 73
17
 74
0
 42
0.0000001
 43
0.0000001
 44
0.0000000001
 40
0.0
 40
0.0
 40
0.0
 40
0.0
 40
0.1414290746
 40
0.2794112231
 40
0.3469038294
 40
0.4132828654
 40
0.4784665194
 40
0.5423753467
 40
0.6049333541
 40
0.666069678
 40
0.7257185525
 40
0.7838225601
 40
0.8403335061
 40
0.8952131187
 40
0.9484387689
 40
1.0
 40
1.0
 40
1.0
 40
1.0
 10
10.4008796016
 20
6.9237326522
 30
0.0
 10
10.4077670711
 20
6.9236503905
 30
0.0
 10
10.4213791881
 20
6.9237621013
 30
0.0
 10
10.4382578729
 20
6.9246345238
 30
0.0
 10
10.4514489424
 20
6.9257843882
 30
0.0
 10
10.461084518
 20
6.9268609547
 30
0.0
 10
10.4705168028
 20
6.928157839
 30
0.0
 10
10.4797279085
 20
6.9296737857
 30
0.0
 10
10.4886998976
 20
6.9314076482
 30
0.0
 10
10.4974151227
 20
6.9333572239
 30
0.0
 10
10.5058562104
 20
6.9355202499
 30
0.0
 10
10.5140062454
 20
6.9378940141
 30
0.0
 10
10.521848966
 20
6.9404751963
 30
0.0
 10
10.5293687992
 20
6.9432608113
 30
0.0
 10
10.5365509601
 20
6.9462468741
 30
0.0
 10
10.5411784718
 20
6.9484033632
 30
0.0
 10
10.5434297152
 20
6.9495159513
 30
0.0
  0
SPLINE
  5
363
100
AcDbEntity
  8
0
100
AcDbSpline
 62
7
  6
CONTINUOUS
 70
0
 71
3
 72
24
 73
20
 74
0
 42
0.0000001
 43
0.0000001
 44
0.0000000001
 40
0.0
 40
0.0
 40
0.0
 40
0.0
 40
0.0617064855
 40
0.1237097815
 40
0.1859818168
 40
0.2484881295
 40
0.3111887288
 40
0.3740390982
 40
0.4369912613
 40
0.499994898
 40
0.5629985102
 40
0.6259506018
 40
0.6888008558
 40
0.7515012944
 40
0.8140074078
 40
0.8762792128
 40
0.9382822386
 40
0.969179686
 40
1.0
 40
1.0
 40
1.0
 40
1.0
 10
10.5040609084
 20
7.7407478572
 30
0.0
 10
10.506669534
 20
7.724965491
 30
0.0
 10
10.5131374853
 20
7.6935157473
 30
0.0
 10
10.526470337
 20
7.6471361299
 30
0.0
 10
10.5433758877
 20
7.6017123065
 30
0.0
 10
10.5637461542
 20
7.5575353936
 30
0.0
 10
10.5874519721
 20
7.5148836727
 30
0.0
 10
10.6143430564
 20
7.474027087
 30
0.0
 10
10.6442491929
 20
7.4352239338
 30
0.0
 10
10.6769810106
 20
7.3987195189
 30
0.0
 10
10.7123315076
 20
7.3647447448
 30
0.0
 10
10.7500771129
 20
7.3335145568
 30
0.0
 10
10.7899791462
 20
7.305226517
 30
0.0
 10
10.8317852565
 20
7.2800598783
 30
0.0
 10
10.875231624
 20
7.2581739487
 30
0.0
 10
10.9200415603
 20
7.239707994
 30
0.0
 10
10.9583358911
 20
7.2272509998
 30
0.0
 10
10.989364375
 20
7.2191088392
 30
0.0
 10
11.004990382
 20
7.2156491887
 30
0.0
 10
11.0128233644
 20
7.2140744151
 30
0.0
  0
SPLINE
  5
364
100
AcDbEntity
  8
0
100
AcDbSpline
 62
7
  6
CONTINUOUS
 70
0
 71
3
 72
40
 73
36
 74
0
 42
0.0000001
 43
0.0000001
 44
0.0000000001
 40
0.0
 40
0.0
 40
0.0
 40
0.0
 40
0.0307087397
 40
0.0615354834
 40
0.0924777898
 40
0.1235322437
 40
0.1546938202
 40
0.1859563279
 40
0.2173123434
 40
0.2487533637
 40
0.2802698953
 40
0.3118515769
 40
0.3434873016
 40
0.3751653479
 40
0.4068735148
 40
0.4385992614
 40
0.4703298489
 40
0.5020524839
 40
0.5337544624
 40
0.5654233134
 40
0.5970469399
 40
0.6286137577
 40
0.6601128296
 40
0.6915339943
 40
0.7228679891
 40
0.754106564
 40
0.7852425877
 40
0.8162701417
 40
0.8471846037
 40
0.8779827169
 40
0.9086626448
 40
0.9392240104
 40
0.9544620373
 40
0.9696709638
 40
1.0
 40
1.0
 40
1.0
 40
1.0
 10
10.3500520512
 20
7.6534618857
 30
0.0
 10
10.3500520512
 20
7.6431882863
 30
0.0
 10
10.3506280493
 20
7.6225970956
 30
0.0
 10
10.3532055801
 20
7.5917512618
 30
0.0
 10
10.3574902168
 20
7.5609782964
 30
0.0
 10
10.3634684437
 20
7.5303753473
 30
0.0
 10
10.3711215867
 20
7.5000373245
 30
0.0
 10
10.3804256948
 20
7.4700587867
 30
0.0
 10
10.3913517267
 20
7.4405330256
 30
0.0
 10
10.403865585
 20
7.411551953
 30
0.0
 10
10.4179282486
 20
7.3832057689
 30
0.0
 10
10.433495884
 20
7.3555826959
 30
0.0
 10
10.4505199851
 20
7.328768703
 30
0.0
 10
10.4689475233
 20
7.3028472411
 30
0.0
 10
10.4887211116
 20
7.2778989846
 30
0.0
 10
10.5097791828
 20
7.2540015821
 30
0.0
 10
10.5320561802
 20
7.2312294161
 30
0.0
 10
10.5554827606
 20
7.2096533733
 30
0.0
 10
10.5799860085
 20
7.1893406245
 30
0.0
 10
10.6054896623
 20
7.1703544172
 30
0.0
 10
10.6319143497
 20
7.1527538793
 30
0.0
 10
10.6591778332
 20
7.1365938361
 30
0.0
 10
10.6871952644
 20
7.12192464
 30
0.0
 10
10.7158794461
 20
7.1087920143
 30
0.0
 10
10.7451411012
 20
7.0972369109
 30
0.0
 10
10.7748891499
 20
7.0872953825
 30
0.0
 10
10.8050309858
 20
7.0789984699
 30
0.0
 10
10.8354727807
 20
7.0723721054
 30
0.0
 10
10.8661197046
 20
7.0674370261
 30
0.0
 10
10.896876477
 20
7.0642087234
 30
0.0
 10
10.9276467044
 20
7.0626973368
 30
0.0
 10
10.9532468248
 20
7.0628729155
 30
0.0
 10
10.973634923
 20
7.063876352
 30
0.0
 10
10.9939084498
 20
7.0654499387
 30
0.0
 10
11.0090443355
 20
7.0672754715
 30
0.0
 10
11.0190789416
 20
7.0687786529
 30
0.0
  0
SPLINE
  5
365
100
AcDbEntity
  8
0
100
AcDbSpline
 62
7
  6
CONTINUOUS
 70
0
 71
3
 72
13
 73
9
 74
0
 42
0.0000001
 43
0.0000001
 44
0.0000000001
 40
0.0
 40
0.0
 40
0.0
 40
0.0
 40
0.2880915178
 40
0.4201649942
 40
0.5456421961
 40
0.6654782552
 40
0.7805784519
 40
1.0
 40
1.0
 40
1.0
 40
1.0
 10
9.3754154532
 20
11.4201939314
 30
0.0
 10
9.3749614261
 20
11.4212230883
 30
0.0
 10
9.3743644888
 20
11.4227549386
 30
0.0
 10
9.3737479152
 20
11.4247949679
 30
0.0
 10
9.3733935977
 20
11.4262259357
 30
0.0
 10
9.373127292
 20
11.4276084817
 30
0.0
 10
9.3728863981
 20
11.429366699
 30
0.0
 10
9.3728148519
 20
11.4306742414
 30
0.0
 10
9.3728148519
 20
11.431530976
 30
0.0
  0
SPLINE
  5
366
100
AcDbEntity
  8
0
100
AcDbSpline
 62
7
  6
CONTINUOUS
 70
0
 71
3
 72
47
 73
43
 74
0
 42
0.0000001
 43
0.0000001
 44
0.0000000001
 40
0.0
 40
0.0
 40
0.0
 40
0.0
 40
0.0072739452
 40
0.0148703987
 40
0.0227978846
 40
0.031063102
 40
0.0396712776
 40
0.0486261889
 40
0.057930496
 40
0.0675857004
 40
0.077592433
 40
0.0879503969
 40
0.0986585869
 40
0.1097152564
 40
0.1211180537
 40
0.1328640385
 40
0.1449497302
 40
0.1573711835
 40
0.1832025769
 40
0.2103187156
 40
0.2386733848
 40
0.2682151186
 40
0.298887767
 40
0.3306309759
 40
0.3633806034
 40
0.3970690902
 40
0.4316257961
 40
0.4669773119
 40
0.5030477519
 40
0.5397590347
 40
0.577031153
 40
0.6147824366
 40
0.6529298098
 40
0.6913890446
 40
0.7300750129
 40
0.7689019324
 40
0.8077836248
 40
0.8466337296
 40
0.8853660521
 40
0.9238945305
 40
0.9621341655
 40
1.0
 40
1.0
 40
1.0
 40
1.0
 10
10.9679529252
 20
11.4452903671
 30
0.0
 10
10.9660732599
 20
11.4435411335
 30
0.0
 10
10.9621441572
 20
11.4400570905
 30
0.0
 10
10.9558967048
 20
11.4349809653
 30
0.0
 10
10.9491733815
 20
11.4299461744
 30
0.0
 10
10.9419783314
 20
11.4249556407
 30
0.0
 10
10.9343156486
 20
11.4200122553
 30
0.0
 10
10.926189868
 20
11.4151187804
 30
0.0
 10
10.9176056963
 20
11.4102781525
 30
0.0
 10
10.9085682047
 20
11.4054931071
 30
0.0
 10
10.8990826718
 20
11.4007665379
 30
0.0
 10
10.889154705
 20
11.3961011593
 30
0.0
 10
10.8787901405
 20
11.3914997848
 30
0.0
 10
10.8679951094
 20
11.3869651017
 30
0.0
 10
10.8567759862
 20
11.38249982
 30
0.0
 10
10.8451394158
 20
11.378106598
 30
0.0
 10
10.8330922767
 20
11.3737880011
 30
0.0
 10
10.816271503
 20
11.3680580409
 30
0.0
 10
10.7942615595
 20
11.3611168426
 30
0.0
 10
10.7666640344
 20
11.3532297117
 30
0.0
 10
10.7376123063
 20
11.3456988148
 30
0.0
 10
10.7071753373
 20
11.3385421926
 30
0.0
 10
10.6754251743
 20
11.3317770083
 30
0.0
 10
10.6424371412
 20
11.325419482
 30
0.0
 10
10.6082895347
 20
11.3194848547
 30
0.0
 10
10.5730634578
 20
11.3139873499
 30
0.0
 10
10.5368426092
 20
11.3089401394
 30
0.0
 10
10.4997130801
 20
11.3043553132
 30
0.0
 10
10.4617631436
 20
11.30024385
 30
0.0
 10
10.4230830404
 20
11.2966155924
 30
0.0
 10
10.383764761
 20
11.2934792244
 30
0.0
 10
10.3439018235
 20
11.2908422514
 30
0.0
 10
10.30358905
 20
11.2887109826
 30
0.0
 10
10.2629223378
 20
11.2870905163
 30
0.0
 10
10.2219984317
 20
11.2859847293
 30
0.0
 10
10.180914689
 20
11.2853962654
 30
0.0
 10
10.1397688566
 20
11.2853265344
 30
0.0
 10
10.098658807
 20
11.2857756983
 30
0.0
 10
10.057682391
 20
11.2867426921
 30
0.0
 10
10.0169369828
 20
11.288225189
 30
0.0
 10
9.9765197127
 20
11.2902196589
 30
0.0
 10
9.9497062256
 20
11.2918968979
 30
0.0
 10
9.9363717521
 20
11.2928216468
 30
0.0
  0
SPLINE
  5
367
100
AcDbEntity
  8
0
100
AcDbSpline
 62
7
  6
CONTINUOUS
 70
0
 71
3
 72
13
 73
9
 74
0
 42
0.0000001
 43
0.0000001
 44
0.0000000001
 40
0.0
 40
0.0
 40
0.0
 40
0.0
 40
0.2194212808
 40
0.3345213811
 40
0.4543574127
 40
0.5798346904
 40
0.7119083159
 40
1.0
 40
1.0
 40
1.0
 40
1.0
 10
10.9368148519
 20
11.431530976
 30
0.0
 10
10.9368148519
 20
11.4306742419
 30
0.0
 10
10.9367433062
 20
11.4293667001
 30
0.0
 10
10.9365024126
 20
11.4276084832
 30
0.0
 10
10.9362361066
 20
11.4262259365
 30
0.0
 10
10.9358817881
 20
11.4247949673
 30
0.0
 10
10.9352652135
 20
11.4227549353
 30
0.0
 10
10.9346682758
 20
11.4212230826
 30
0.0
 10
10.9342142482
 20
11.4201939245
 30
0.0
  0
SPLINE
  5
368
100
AcDbEntity
  8
0
100
AcDbSpline
 62
7
  6
CONTINUOUS
 70
0
 71
3
 72
27
 73
23
 74
0
 42
0.0000001
 43
0.0000001
 44
0.0000000001
 40
0.0
 40
0.0
 40
0.0
 40
0.0
 40
0.0616468932
 40
0.0924803257
 40
0.1233223752
 40
0.1850380892
 40
0.2468218571
 40
0.2777487751
 40
0.3087006891
 40
0.3706840788
 40
0.4327968318
 40
0.4950568279
 40
0.5574803451
 40
0.6200818952
 40
0.6828740849
 40
0.7143476807
 40
0.7458727128
 40
0.809075817
 40
0.8724948743
 40
0.9042890081
 40
0.9361390688
 40
1.0
 40
1.0
 40
1.0
 40
1.0
 10
9.7009006488
 20
7.7955110649
 30
0.0
 10
9.7117131195
 20
7.8059551324
 30
0.0
 10
9.7283595126
 20
7.821190831
 30
0.0
 10
9.751345742
 20
7.8405856497
 30
0.0
 10
9.7748582027
 20
7.8593671553
 30
0.0
 10
9.8052026001
 20
7.8816650861
 30
0.0
 10
9.8367154721
 20
7.9023164041
 30
0.0
 10
9.8625825294
 20
7.9178229549
 30
0.0
 10
9.888896431
 20
7.9326577704
 30
0.0
 10
9.9225654471
 20
7.9499031472
 30
0.0
 10
9.9640736104
 20
7.9684532036
 30
0.0
 10
10.0066042537
 20
7.9848235402
 30
0.0
 10
10.0500497146
 20
7.9989726517
 30
0.0
 10
10.0942999942
 20
8.0108649944
 30
0.0
 10
10.1317262216
 20
8.0188639396
 30
0.0
 10
10.1619520088
 20
8.0241096786
 30
0.0
 10
10.192402025
 20
8.0285903375
 30
0.0
 10
10.2307619009
 20
8.0327328041
 30
0.0
 10
10.2693481954
 20
8.034918635
 30
0.0
 10
10.300330807
 20
8.0354964919
 30
0.0
 10
10.3314252485
 20
8.03529208
 30
0.0
 10
10.354754792
 20
8.0342574952
 30
0.0
 10
10.3702902819
 20
8.0331801053
 30
0.0
  0
SPLINE
  5
369
100
AcDbEntity
  8
0
100
AcDbSpline
 62
7
  6
CONTINUOUS
 70
0
 71
3
 72
24
 73
20
 74
0
 42
0.0000001
 43
0.0000001
 44
0.0000000001
 40
0.0
 40
0.0
 40
0.0
 40
0.0
 40
0.0616478661
 40
0.0924817852
 40
0.1233243222
 40
0.1850410118
 40
0.2468257558
 40
0.3087000564
 40
0.3706844246
 40
0.4327981584
 40
0.495059139
 40
0.5574836442
 40
0.6200861838
 40
0.6828793762
 40
0.7458737397
 40
0.8090779696
 40
0.8724976767
 40
0.9361385005
 40
1.0
 40
1.0
 40
1.0
 40
1.0
 10
9.9989727994
 20
7.599592414
 30
0.0
 10
10.0058799889
 20
7.6062642246
 30
0.0
 10
10.0165139582
 20
7.6159970171
 30
0.0
 10
10.0311979653
 20
7.6283866742
 30
0.0
 10
10.0462180561
 20
7.6403845629
 30
0.0
 10
10.0656028039
 20
7.6546289117
 30
0.0
 10
10.089766871
 20
7.6704643528
 30
0.0
 10
10.1147789491
 20
7.6850070347
 30
0.0
 10
10.1405756087
 20
7.6982200514
 30
0.0
 10
10.167091948
 20
7.7100702481
 30
0.0
 10
10.1942611254
 20
7.720527806
 30
0.0
 10
10.2220146986
 20
7.7295664479
 30
0.0
 10
10.2502827545
 20
7.7371634779
 30
0.0
 10
10.2789940812
 20
7.7432998362
 30
0.0
 10
10.3080764166
 20
7.7479601894
 30
0.0
 10
10.3374563977
 20
7.7511328096
 30
0.0
 10
10.367060488
 20
7.7528099262
 30
0.0
 10
10.3968130087
 20
7.7529872488
 30
0.0
 10
10.4166650942
 20
7.7521068576
 30
0.0
 10
10.4265893337
 20
7.7514186092
 30
0.0
  0
SPLINE
  5
36A
100
AcDbEntity
  8
0
100
AcDbSpline
 62
7
  6
CONTINUOUS
 70
0
 71
3
 72
39
 73
35
 74
0
 42
0.0000001
 43
0.0000001
 44
0.0000000001
 40
0.0
 40
0.0
 40
0.0
 40
0.0
 40
0.0306003585
 40
0.06130417
 40
0.0921099494
 40
0.1230152494
 40
0.1540166928
 40
0.1851100117
 40
0.2162900952
 40
0.2475510424
 40
0.2788862219
 40
0.3102883362
 40
0.3417494923
 40
0.3732612746
 40
0.4048148217
 40
0.436400906
 40
0.468010015
 40
0.4996324355
 40
0.5312583379
 40
0.5628778622
 40
0.5944812044
 40
0.6260587016
 40
0.6576009166
 40
0.689098721
 40
0.720543376
 40
0.7519266117
 40
0.7832407026
 40
0.8144785387
 40
0.8456337043
 40
0.8767004966
 40
0.9076741421
 40
0.9385503578
 40
0.9693266637
 40
1.0
 40
1.0
 40
1.0
 40
1.0
 10
11.0547206031
 20
7.0636200567
 30
0.0
 10
11.0547205937
 20
7.0747012102
 30
0.0
 10
11.0541746267
 20
7.0969047549
 30
0.0
 10
11.0517295723
 20
7.1301828361
 30
0.0
 10
11.0476629988
 20
7.1634138531
 30
0.0
 10
11.0419847732
 20
7.1965167261
 30
0.0
 10
11.034708638
 20
7.2294120366
 30
0.0
 10
11.0258521755
 20
7.2620205117
 30
0.0
 10
11.0154367653
 20
7.2942636726
 30
0.0
 10
11.0034875326
 20
7.326063898
 30
0.0
 10
10.9900332873
 20
7.3573446428
 30
0.0
 10
10.9751064663
 20
7.3880306182
 30
0.0
 10
10.9587430426
 20
7.4180479698
 30
0.0
 10
10.9409824391
 20
7.4473244539
 30
0.0
 10
10.9218674341
 20
7.4757896101
 30
0.0
 10
10.9014440583
 20
7.5033749293
 30
0.0
 10
10.8797614852
 20
7.5300140176
 30
0.0
 10
10.8568719129
 20
7.5556427551
 30
0.0
 10
10.8328304397
 20
7.5801994489
 30
0.0
 10
10.8076949403
 20
7.6036249908
 30
0.0
 10
10.7815259177
 20
7.6258629904
 30
0.0
 10
10.7543863577
 20
7.6468599102
 30
0.0
 10
10.7263415791
 20
7.666565194
 30
0.0
 10
10.697459077
 20
7.6849313872
 30
0.0
 10
10.6678083621
 20
7.7019142509
 30
0.0
 10
10.6374607943
 20
7.7174728683
 30
0.0
 10
10.6064894126
 20
7.7315697408
 30
0.0
 10
10.5749687626
 20
7.7441708981
 30
0.0
 10
10.5429747255
 20
7.7552459435
 30
0.0
 10
10.510584278
 20
7.7647681997
 30
0.0
 10
10.4778755256
 20
7.7727145911
 30
0.0
 10
10.4449267997
 20
7.779066095
 30
0.0
 10
10.4118186391
 20
7.7838070583
 30
0.0
 10
10.3896534505
 20
7.7858901615
 30
0.0
 10
10.3785724847
 20
7.7866586291
 30
0.0
  0
SPLINE
  5
36B
100
AcDbEntity
  8
0
100
AcDbSpline
 62
7
  6
CONTINUOUS
 70
0
 71
3
 72
39
 73
35
 74
0
 42
0.0000001
 43
0.0000001
 44
0.0000000001
 40
0.0
 40
0.0
 40
0.0
 40
0.0
 40
0.0299393047
 40
0.0599022803
 40
0.0899120372
 40
0.1199905833
 40
0.1501583154
 40
0.1804335574
 40
0.2108321574
 40
0.2413671582
 40
0.272048541
 40
0.3028830448
 40
0.3338740658
 40
0.3650216369
 40
0.3963224774
 40
0.4277701077
 40
0.459355027
 40
0.4910649491
 40
0.5228850815
 40
0.554798444
 40
0.5867862233
 40
0.6188281554
 40
0.6509029261
 40
0.6829885862
 40
0.7150629768
 40
0.7471041564
 40
0.7790908246
 40
0.8110027389
 40
0.8428211158
 40
0.8745290092
 40
0.9061116607
 40
0.9375568836
 40
0.9688549545
 40
1.0
 40
1.0
 40
1.0
 40
1.0
 10
10.854205868
 20
6.7141900418
 30
0.0
 10
10.8642677485
 20
6.7239090398
 30
0.0
 10
10.8836458195
 20
6.7441527602
 30
0.0
 10
10.9102592208
 20
6.776712721
 30
0.0
 10
10.9342894343
 20
6.8113054213
 30
0.0
 10
10.9556056187
 20
6.8477431901
 30
0.0
 10
10.9740946075
 20
6.885831515
 30
0.0
 10
10.98965765
 20
6.9253662855
 30
0.0
 10
11.0022120263
 20
6.9661359254
 30
0.0
 10
11.0116910849
 20
7.0079223182
 30
0.0
 10
11.0180446467
 20
7.050502048
 30
0.0
 10
11.0212392854
 20
7.0936475647
 30
0.0
 10
11.0212585107
 20
7.1371284171
 30
0.0
 10
11.0181027338
 20
7.1807124872
 30
0.0
 10
11.0117892449
 20
7.2241672051
 30
0.0
 10
11.0023521805
 20
7.2672607817
 30
0.0
 10
10.9898423214
 20
7.3097634431
 30
0.0
 10
10.9743267356
 20
7.3514486235
 30
0.0
 10
10.9558884182
 20
7.3920941429
 30
0.0
 10
10.9346259311
 20
7.4314834093
 30
0.0
 10
10.910652844
 20
7.469406557
 30
0.0
 10
10.88409708
 20
7.5056615214
 30
0.0
 10
10.8551002423
 20
7.5400550904
 30
0.0
 10
10.8238169471
 20
7.572403987
 30
0.0
 10
10.7904139553
 20
7.6025358092
 30
0.0
 10
10.7550692651
 20
7.6302899069
 30
0.0
 10
10.7179711816
 20
7.6555182199
 30
0.0
 10
10.6793173821
 20
7.6780861527
 30
0.0
 10
10.6393138468
 20
7.6978732277
 30
0.0
 10
10.5981736725
 20
7.7147736989
 30
0.0
 10
10.5561162987
 20
7.7286971169
 30
0.0
 10
10.5133651876
 20
7.7395688812
 30
0.0
 10
10.4701512135
 20
7.7473305765
 30
0.0
 10
10.4411071473
 20
7.7504117955
 30
0.0
 10
10.4265893337
 20
7.7514186092
 30
0.0
  0
SPLINE
  5
36C
100
AcDbEntity
  8
0
100
AcDbSpline
 62
7
  6
CONTINUOUS
 70
0
 71
3
 72
37
 73
33
 74
0
 42
0.0000001
 43
0.0000001
 44
0.0000000001
 40
0.0
 40
0.0
 40
0.0
 40
0.0
 40
0.0321616127
 40
0.0641303603
 40
0.0959181118
 40
0.1275492704
 40
0.1590561261
 40
0.1904747596
 40
0.2218415759
 40
0.2531906664
 40
0.2845518447
 40
0.3159493957
 40
0.3474014283
 40
0.3789197302
 40
0.4105100568
 40
0.4421726745
 40
0.5056670664
 40
0.5693471591
 40
0.6012321776
 40
0.6331121612
 40
0.6649634813
 40
0.6967582304
 40
0.7284629999
 40
0.7600374178
 40
0.7914326416
 40
0.822589991
 40
0.8534401754
 40
0.8839033019
 40
0.9138898415
 40
0.9433028114
 40
0.9720403003
 40
1.0
 40
1.0
 40
1.0
 40
1.0
 10
10.1955944609
 20
7.7207367738
 30
0.0
 10
10.1891013895
 20
7.7126877591
 30
0.0
 10
10.1765932779
 20
7.6962774857
 30
0.0
 10
10.159310227
 20
7.6707130391
 30
0.0
 10
10.143622837
 20
7.6443361466
 30
0.0
 10
10.1295779546
 20
7.6172163728
 30
0.0
 10
10.1172075211
 20
7.5894227308
 30
0.0
 10
10.1065332808
 20
7.5610254519
 30
0.0
 10
10.0975693523
 20
7.532096094
 30
0.0
 10
10.0903245995
 20
7.5027083331
 30
0.0
 10
10.0848043067
 20
7.4729386141
 30
0.0
 10
10.0810114064
 20
7.4428668231
 30
0.0
 10
10.0789473193
 20
7.4125766637
 30
0.0
 10
10.0786123956
 20
7.3821565239
 30
0.0
 10
10.0800064747
 20
7.3516978909
 30
0.0
 10
10.0841717212
 20
7.3111377175
 30
0.0
 10
10.093703621
 20
7.2608424552
 30
0.0
 10
10.108945732
 20
7.2118925172
 30
0.0
 10
10.1245346461
 20
7.1739716301
 30
0.0
 10
10.1379145643
 20
7.1462688036
 30
0.0
 10
10.1529481569
 20
7.1194608476
 30
0.0
 10
10.1695967608
 20
7.0936905691
 30
0.0
 10
10.1878052104
 20
7.0691074364
 30
0.0
 10
10.2074982039
 20
7.0458636451
 30
0.0
 10
10.2285758895
 20
7.0241111418
 30
0.0
 10
10.2509102786
 20
7.0039964991
 30
0.0
 10
10.2743429616
 20
6.9856545318
 30
0.0
 10
10.298685071
 20
6.9692008946
 30
0.0
 10
10.3237196287
 20
6.9547244222
 30
0.0
 10
10.3492078214
 20
6.9422804731
 30
0.0
 10
10.3748945105
 20
6.9318870267
 30
0.0
 10
10.3922416406
 20
6.926225165
 30
0.0
 10
10.4008796016
 20
6.9237326522
 30
0.0
  0
SPLINE
  5
36D
100
AcDbEntity
  8
0
100
AcDbSpline
 62
7
  6
CONTINUOUS
 70
0
 71
3
 72
23
 73
19
 74
0
 42
0.0000001
 43
0.0000001
 44
0.0000000001
 40
0.0
 40
0.0
 40
0.0
 40
0.0
 40
0.0616482046
 40
0.1233194369
 40
0.1850364679
 40
0.2468215571
 40
0.3086962063
 40
0.3706809237
 40
0.4327950053
 40
0.495056333
 40
0.5574811833
 40
0.6200840745
 40
0.6828776148
 40
0.745872329
 40
0.8090769454
 40
0.8724968733
 40
0.9361383371
 40
1.0
 40
1.0
 40
1.0
 40
1.0
 10
9.424772338
 20
10.8789923667
 30
0.0
 10
9.4302935788
 20
10.8843254578
 30
0.0
 10
9.4416274373
 20
10.8946987172
 30
0.0
 10
9.4594433158
 20
10.9093254451
 30
0.0
 10
9.4780328316
 20
10.9229853604
 30
0.0
 10
9.4973484981
 20
10.9356434607
 30
0.0
 10
9.517341813
 20
10.9472680252
 30
0.0
 10
9.537962337
 20
10.9578297631
 30
0.0
 10
9.5591581133
 20
10.9673021274
 30
0.0
 10
9.5808757301
 20
10.9756613026
 30
0.0
 10
9.6030604735
 20
10.9828862857
 30
0.0
 10
9.6256564631
 20
10.9889589311
 30
0.0
 10
9.6486067809
 20
10.9938639849
 30
0.0
 10
9.6718536659
 20
10.9975891993
 30
0.0
 10
9.6953384556
 20
11.0001251932
 30
0.0
 10
9.7190024188
 20
11.0014657947
 30
0.0
 10
9.7427850016
 20
11.0016075139
 30
0.0
 10
9.7586537177
 20
11.0009037834
 30
0.0
 10
9.7665866047
 20
11.0003536358
 30
0.0
  0
SPLINE
  5
36E
100
AcDbEntity
  8
0
100
AcDbSpline
 62
7
  6
CONTINUOUS
 70
0
 71
3
 72
21
 73
17
 74
0
 42
0.0000001
 43
0.0000001
 44
0.0000000001
 40
0.0
 40
0.0
 40
0.0
 40
0.0
 40
0.0616532248
 40
0.1233294793
 40
0.1850515406
 40
0.2468416599
 40
0.308721339
 40
0.3707111018
 40
0.4328302458
 40
0.4950966345
 40
0.5575265709
 40
0.6201345732
 40
0.6829331473
 40
0.7459331674
 40
0.8725262663
 40
1.0
 40
1.0
 40
1.0
 40
1.0
 10
9.6337647777
 20
10.7506606028
 30
0.0
 10
9.6366207834
 20
10.7534193096
 30
0.0
 10
9.6424835394
 20
10.7587851786
 30
0.0
 10
9.6516992703
 20
10.7663513173
 30
0.0
 10
9.6613152088
 20
10.773417323
 30
0.0
 10
9.6713067837
 20
10.7799650895
 30
0.0
 10
9.6816488727
 20
10.7859782614
 30
0.0
 10
9.692315402
 20
10.7914416666
 30
0.0
 10
9.7032795204
 20
10.7963415193
 30
0.0
 10
9.7145135646
 20
10.8006655567
 30
0.0
 10
9.7259892581
 20
10.8044029218
 30
0.0
 10
9.7376776189
 20
10.8075441645
 30
0.0
 10
9.7495495342
 20
10.8100814636
 30
0.0
 10
9.7656061998
 20
10.8126546338
 30
0.0
 10
9.7859956089
 20
10.8143263582
 30
0.0
 10
9.8023874657
 20
10.8140064577
 30
0.0
 10
9.810577784
 20
10.8134384572
 30
0.0
  0
SPLINE
  5
36F
100
AcDbEntity
  8
0
100
AcDbSpline
 62
7
  6
CONTINUOUS
 70
0
 71
3
 72
37
 73
33
 74
0
 42
0.0000001
 43
0.0000001
 44
0.0000000001
 40
0.0
 40
0.0
 40
0.0
 40
0.0
 40
0.0303137482
 40
0.0607400717
 40
0.0912815871
 40
0.1219395042
 40
0.152713631
 40
0.1836023897
 40
0.2146028491
 40
0.2457107702
 40
0.2769206719
 40
0.3082259099
 40
0.3396187605
 40
0.3710905145
 40
0.4026315796
 40
0.4342315958
 40
0.4658795571
 40
0.4975639334
 40
0.5609731643
 40
0.6243822245
 40
0.6560663944
 40
0.6877140724
 40
0.7193137266
 40
0.750854354
 40
0.7823256005
 40
0.8137178905
 40
0.8450225094
 40
0.8762317219
 40
0.9073390373
 40
0.9383383987
 40
0.9692271367
 40
1.0
 40
1.0
 40
1.0
 40
1.0
 10
10.0682818265
 20
10.4580543007
 30
0.0
 10
10.0692838612
 20
10.4633583052
 30
0.0
 10
10.0709926073
 20
10.4740449617
 30
0.0
 10
10.0726599011
 20
10.4902213166
 30
0.0
 10
10.0734315761
 20
10.5065268378
 30
0.0
 10
10.0733052538
 20
10.5229118173
 30
0.0
 10
10.0722814171
 20
10.5393271628
 30
0.0
 10
10.07036319
 20
10.5557234741
 30
0.0
 10
10.0675563797
 20
10.5720514743
 30
0.0
 10
10.0638694706
 20
10.5882620816
 30
0.0
 10
10.0593136139
 20
10.6043065848
 30
0.0
 10
10.05390255
 20
10.6201367748
 30
0.0
 10
10.0476525752
 20
10.6357050922
 30
0.0
 10
10.0405824966
 20
10.6509647516
 30
0.0
 10
10.0327135566
 20
10.6658699329
 30
0.0
 10
10.0240695386
 20
10.6803757654
 30
0.0
 10
10.0146760836
 20
10.6944390649
 30
0.0
 10
10.0011895223
 20
10.7125446797
 30
0.0
 10
9.9826067673
 20
10.7338574813
 30
0.0
 10
9.9619440615
 20
10.7531604527
 30
0.0
 10
9.9443119015
 20
10.7672601777
 30
0.0
 10
9.9305792624
 20
10.7771304821
 30
0.0
 10
9.9163786542
 20
10.7862669179
 30
0.0
 10
9.9017523717
 20
10.7946423976
 30
0.0
 10
9.8867444549
 20
10.8022316415
 30
0.0
 10
9.8713999588
 20
10.8090118396
 30
0.0
 10
9.8557649907
 20
10.8149625634
 30
0.0
 10
9.8398864894
 20
10.8200659007
 30
0.0
 10
9.8238122834
 20
10.824306402
 30
0.0
 10
9.8075903419
 20
10.8276714834
 30
0.0
 10
9.7912702554
 20
10.8301506503
 30
0.0
 10
9.7803352574
 20
10.8312100936
 30
0.0
 10
9.7748688075
 20
10.8315891932
 30
0.0
  0
SPLINE
  5
370
100
AcDbEntity
  8
0
100
AcDbSpline
 62
7
  6
CONTINUOUS
 70
0
 71
3
 72
42
 73
38
 74
0
 42
0.0000001
 43
0.0000001
 44
0.0000000001
 40
0.0
 40
0.0
 40
0.0
 40
0.0
 40
0.029938815
 40
0.0449185018
 40
0.0599070267
 40
0.0899162924
 40
0.1199943465
 40
0.1350684316
 40
0.150167196
 40
0.1804419417
 40
0.2108400438
 40
0.241374545
 40
0.2720554253
 40
0.3028894234
 40
0.3338799366
 40
0.3650269979
 40
0.3963273256
 40
0.4277744401
 40
0.459358842
 40
0.4910682452
 40
0.5228878564
 40
0.554800696
 40
0.5867879517
 40
0.6188293596
 40
0.6509036054
 40
0.6829887407
 40
0.7150626068
 40
0.7471032625
 40
0.779089408
 40
0.8110008015
 40
0.8428186574
 40
0.8745260361
 40
0.9061081673
 40
0.9375528611
 40
0.9532227941
 40
0.9688555687
 40
1.0
 40
1.0
 40
1.0
 40
1.0
 10
9.9873907902
 20
10.3845600369
 30
0.0
 10
9.9915512074
 20
10.3885787163
 30
0.0
 10
9.997560392
 20
10.3948564224
 30
0.0
 10
10.0050608341
 20
10.4036745086
 30
0.0
 10
10.0122197749
 20
10.4127901238
 30
0.0
 10
10.0205041754
 20
10.4247157041
 30
0.0
 10
10.0278444891
 20
10.4372635298
 30
0.0
 10
10.0331312191
 20
10.447637469
 30
0.0
 10
10.0380299885
 20
10.4582419912
 30
0.0
 10
10.0433982105
 20
10.4718785288
 30
0.0
 10
10.04858907
 20
10.4887357936
 30
0.0
 10
10.0525085608
 20
10.5060139394
 30
0.0
 10
10.0551356475
 20
10.5236199901
 30
0.0
 10
10.0564565941
 20
10.5414600185
 30
0.0
 10
10.0564645427
 20
10.559438695
 30
0.0
 10
10.055159669
 20
10.5774600522
 30
0.0
 10
10.0525491367
 20
10.5954279237
 30
0.0
 10
10.0486470604
 20
10.6132464708
 30
0.0
 10
10.0434744218
 20
10.6308206819
 30
0.0
 10
10.0370589537
 20
10.6480568743
 30
0.0
 10
10.0294349892
 20
10.6648631858
 30
0.0
 10
10.0206432776
 20
10.6811500585
 30
0.0
 10
10.0107307662
 20
10.6968307096
 30
0.0
 10
9.9997503516
 20
10.7118215878
 30
0.0
 10
9.9877605988
 20
10.726042814
 30
0.0
 10
9.9748254319
 20
10.7394186015
 30
0.0
 10
9.9610137963
 20
10.7518776563
 30
0.0
 10
9.9463992937
 20
10.763353553
 30
0.0
 10
9.9310597988
 20
10.7737850858
 30
0.0
 10
9.9150770312
 20
10.7831165934
 30
0.0
 10
9.8985361904
 20
10.7912982464
 30
0.0
 10
9.8815252661
 20
10.798286346
 30
0.0
 10
9.864135469
 20
10.8040434145
 30
0.0
 10
9.8493863459
 20
10.8077941415
 30
0.0
 10
9.8374917264
 20
10.8101492512
 30
0.0
 10
9.8255781936
 20
10.8120675729
 30
0.0
 10
9.8165806614
 20
10.8130221562
 30
0.0
 10
9.810577784
 20
10.8134384572
 30
0.0
  0
SPLINE
  5
371
100
AcDbEntity
  8
0
100
AcDbSpline
 62
7
  6
CONTINUOUS
 70
0
 71
3
 72
37
 73
33
 74
0
 42
0.0000001
 43
0.0000001
 44
0.0000000001
 40
0.0
 40
0.0
 40
0.0
 40
0.0
 40
0.029200947
 40
0.0587426628
 40
0.0886315623
 40
0.1188641421
 40
0.1802760991
 40
0.21142943
 40
0.2428291216
 40
0.3061905878
 40
0.3380930964
 40
0.3700827823
 40
0.4021222707
 40
0.4341775384
 40
0.4662186758
 40
0.4982202835
 40
0.5301616766
 40
0.5620269493
 40
0.5938048332
 40
0.6254884196
 40
0.657074823
 40
0.688564835
 40
0.7199624803
 40
0.7512745132
 40
0.7825099296
 40
0.8136794744
 40
0.844795068
 40
0.8758692811
 40
0.9069150153
 40
0.9379442356
 40
0.9689695591
 40
1.0
 40
1.0
 40
1.0
 40
1.0
 10
9.7415688825
 20
10.8084196194
 30
0.0
 10
9.7400879829
 20
10.8042401641
 30
0.0
 10
9.7373723424
 20
10.7957366331
 30
0.0
 10
9.7340669826
 20
10.7826825519
 30
0.0
 10
9.7315175408
 20
10.7692997203
 30
0.0
 10
9.7291267382
 20
10.7509926934
 30
0.0
 10
9.7283084857
 20
10.7323176151
 30
0.0
 10
9.7290254395
 20
10.7135005493
 30
0.0
 10
9.7307825838
 20
10.6944540576
 30
0.0
 10
9.7340805641
 20
10.6754624904
 30
0.0
 10
9.738861383
 20
10.6567336404
 30
0.0
 10
9.7431937047
 20
10.6428185645
 30
0.0
 10
9.7482491646
 20
10.6291254868
 30
0.0
 10
9.7540118978
 20
10.6157059787
 30
0.0
 10
9.7604646103
 20
10.6026106325
 30
0.0
 10
9.767588985
 20
10.5898878923
 30
0.0
 10
9.7753657192
 20
10.5775844982
 30
0.0
 10
9.7837745392
 20
10.5657455625
 30
0.0
 10
9.7927941071
 20
10.5544147759
 30
0.0
 10
9.8024018267
 20
10.5436345585
 30
0.0
 10
9.8125736022
 20
10.5334461761
 30
0.0
 10
9.8232835409
 20
10.5238897763
 30
0.0
 10
9.8345036172
 20
10.5150043319
 30
0.0
 10
9.8462033323
 20
10.5068274885
 30
0.0
 10
9.8583493973
 20
10.4993953024
 30
0.0
 10
9.870905457
 20
10.4927418497
 30
0.0
 10
9.8838319111
 20
10.4868987869
 30
0.0
 10
9.8970858806
 20
10.4818947856
 30
0.0
 10
9.9106211302
 20
10.4777551234
 30
0.0
 10
9.9243887506
 20
10.4745008152
 30
0.0
 10
9.9383359603
 20
10.4721487316
 30
0.0
 10
9.9477179509
 20
10.4711898857
 30
0.0
 10
9.9524185257
 20
10.4708638998
 30
0.0
  0
SPLINE
  5
372
100
AcDbEntity
  8
0
100
AcDbSpline
 62
7
  6
CONTINUOUS
 70
0
 71
3
 72
37
 73
33
 74
0
 42
0.0000001
 43
0.0000001
 44
0.0000000001
 40
0.0
 40
0.0
 40
0.0
 40
0.0
 40
0.0167144845
 40
0.0335900084
 40
0.0507826729
 40
0.0684394104
 40
0.0866947558
 40
0.1056691154
 40
0.1254679528
 40
0.1461822392
 40
0.1678891239
 40
0.1906533893
 40
0.214528538
 40
0.239558406
 40
0.2657781089
 40
0.2932154672
 40
0.3218916539
 40
0.3518223676
 40
0.3830181973
 40
0.4154855809
 40
0.4492269502
 40
0.4842415294
 40
0.5205253231
 40
0.558071802
 40
0.5968717819
 40
0.6369140313
 40
0.6781850765
 40
0.7206697536
 40
0.7643509657
 40
0.8092101934
 40
0.9023786309
 40
1.0
 40
1.0
 40
1.0
 40
1.0
 10
12.8651932938
 20
8.4780776176
 30
0.0
 10
12.8631529126
 20
8.4782191121
 30
0.0
 10
12.8590640217
 20
8.4787134108
 30
0.0
 10
12.8529922188
 20
8.4800809302
 30
0.0
 10
12.8469743558
 20
8.4820738208
 30
0.0
 10
12.8410160162
 20
8.4846894169
 30
0.0
 10
12.8351210046
 20
8.4879244933
 30
0.0
 10
12.8292930096
 20
8.4917757796
 30
0.0
 10
12.82353519
 20
8.4962397476
 30
0.0
 10
12.8178506773
 20
8.5013129463
 30
0.0
 10
12.8122424082
 20
8.5069916638
 30
0.0
 10
12.8067134727
 20
8.5132721316
 30
0.0
 10
12.8012668581
 20
8.5201502192
 30
0.0
 10
12.7959057447
 20
8.5276215994
 30
0.0
 10
12.7906332008
 20
8.5356815183
 30
0.0
 10
12.7854524638
 20
8.5443249424
 30
0.0
 10
12.7803666275
 20
8.5535463948
 30
0.0
 10
12.775378921
 20
8.5633400801
 30
0.0
 10
12.7704924029
 20
8.5736997681
 30
0.0
 10
12.765710239
 20
8.5846188961
 30
0.0
 10
12.7610354079
 20
8.5960904848
 30
0.0
 10
12.7564709736
 20
8.6081072194
 30
0.0
 10
12.7520198039
 20
8.6206613902
 30
0.0
 10
12.7476848363
 20
8.6337449542
 30
0.0
 10
12.7434688067
 20
8.6473494949
 30
0.0
 10
12.7393745091
 20
8.6614662676
 30
0.0
 10
12.7354045311
 20
8.6760861756
 30
0.0
 10
12.7315615187
 20
8.6911997971
 30
0.0
 10
12.7278478697
 20
8.706797395
 30
0.0
 10
12.7230111044
 20
8.7285005813
 30
0.0
 10
12.717324927
 20
8.7567733617
 30
0.0
 10
12.7132908639
 20
8.7797708321
 30
0.0
 10
12.7113578997
 20
8.7915589214
 30
0.0
  0
SPLINE
  5
373
100
AcDbEntity
  8
0
100
AcDbSpline
 62
7
  6
CONTINUOUS
 70
0
 71
3
 72
39
 73
35
 74
0
 42
0.0000001
 43
0.0000001
 44
0.0000000001
 40
0.0
 40
0.0
 40
0.0
 40
0.0
 40
0.0260536706
 40
0.0530727646
 40
0.0810065858
 40
0.1098014685
 40
0.1394010559
 40
0.1697465545
 40
0.2007769715
 40
0.2324293381
 40
0.2646389243
 40
0.2973394461
 40
0.330463268
 40
0.3639416006
 40
0.3977046962
 40
0.4316820428
 40
0.4658025555
 40
0.4999947683
 40
0.5341870247
 40
0.568307668
 40
0.6022852315
 40
0.6360486297
 40
0.6695273494
 40
0.7026516417
 40
0.7353527157
 40
0.7675629344
 40
0.7992160126
 40
0.8302472186
 40
0.8605935821
 40
0.8901941076
 40
0.918989999
 40
0.9469248962
 40
0.97394513
 40
1.0
 40
1.0
 40
1.0
 40
1.0
 10
12.7113578997
 20
8.7915589214
 30
0.0
 10
12.7094860159
 20
8.8029745153
 30
0.0
 10
12.7059232663
 20
8.8262703522
 30
0.0
 10
12.7011826848
 20
8.8619261995
 30
0.0
 10
12.6969558803
 20
8.8988718987
 30
0.0
 10
12.693252456
 20
8.9370248213
 30
0.0
 10
12.6900807923
 20
8.9762998873
 30
0.0
 10
12.6874480783
 20
9.0166094018
 30
0.0
 10
12.6853602832
 20
9.0578633581
 30
0.0
 10
12.6838221469
 20
9.0999696146
 30
0.0
 10
12.6828371704
 20
9.1428341134
 30
0.0
 10
12.6824076088
 20
9.1863610905
 30
0.0
 10
12.6825344671
 20
9.2304532931
 30
0.0
 10
12.6832174987
 20
9.2750121987
 30
0.0
 10
12.6844552068
 20
9.3199382367
 30
0.0
 10
12.6862448476
 20
9.3651310126
 30
0.0
 10
12.6885824376
 20
9.4104895329
 30
0.0
 10
12.691462762
 20
9.4559124323
 30
0.0
 10
12.6948793872
 20
9.501298201
 30
0.0
 10
12.6988246748
 20
9.5465454126
 30
0.0
 10
12.7032897989
 20
9.5915529518
 30
0.0
 10
12.7082647659
 20
9.6362202408
 30
0.0
 10
12.7137384366
 20
9.6804474659
 30
0.0
 10
12.7196985505
 20
9.7241358013
 30
0.0
 10
12.7261317532
 20
9.767187632
 30
0.0
 10
12.7330236257
 20
9.8095067734
 30
0.0
 10
12.7403587165
 20
9.8509986877
 30
0.0
 10
12.7481205758
 20
9.8915706989
 30
0.0
 10
12.7562917909
 20
9.9311321999
 30
0.0
 10
12.7648540269
 20
9.9695948669
 30
0.0
 10
12.7737880601
 20
10.0068728333
 30
0.0
 10
12.7830738451
 20
10.0428829879
 30
0.0
 10
12.7926904739
 20
10.0775448123
 30
0.0
 10
12.7994345256
 20
10.1001270158
 30
0.0
 10
12.8028641419
 20
10.1111755355
 30
0.0
  0
SPLINE
  5
374
100
AcDbEntity
  8
0
100
AcDbSpline
 62
7
  6
CONTINUOUS
 70
0
 71
3
 72
23
 73
19
 74
0
 42
0.0000001
 43
0.0000001
 44
0.0000000001
 40
0.0
 40
0.0
 40
0.0
 40
0.0
 40
0.0826674546
 40
0.1628711199
 40
0.240540736
 40
0.3156111032
 40
0.3880226025
 40
0.457721963
 40
0.5246625966
 40
0.5888054035
 40
0.6501199459
 40
0.7085852233
 40
0.7641911017
 40
0.8169404033
 40
0.8668502916
 40
0.913955338
 40
0.9583127604
 40
1.0
 40
1.0
 40
1.0
 40
1.0
 10
12.8028641419
 20
10.1111755355
 30
0.0
 10
12.8052464803
 20
10.118850246
 30
0.0
 10
12.8100534656
 20
10.1339360887
 30
0.0
 10
12.817510823
 20
10.1560986723
 30
0.0
 10
12.8250996069
 20
10.1774345075
 30
0.0
 10
12.8328110293
 20
10.1979189957
 30
0.0
 10
12.8406361995
 20
10.2175286187
 30
0.0
 10
12.8485660463
 20
10.2362408894
 30
0.0
 10
12.8565914218
 20
10.2540343772
 30
0.0
 10
12.8647031063
 20
10.2708887332
 30
0.0
 10
12.8728917497
 20
10.2867847581
 30
0.0
 10
12.8811479828
 20
10.3017043926
 30
0.0
 10
12.8894624397
 20
10.3156307465
 30
0.0
 10
12.8978257356
 20
10.3285481627
 30
0.0
 10
12.9062284841
 20
10.3404421384
 30
0.0
 10
12.9146617553
 20
10.3512997094
 30
0.0
 10
12.9231159694
 20
10.361108139
 30
0.0
 10
12.9289370984
 20
10.3671232345
 30
0.0
 10
12.931851767
 20
10.3699385884
 30
0.0
  0
SPLINE
  5
375
100
AcDbEntity
  8
0
100
AcDbSpline
 62
7
  6
CONTINUOUS
 70
0
 71
3
 72
79
 73
75
 74
0
 42
0.0000001
 43
0.0000001
 44
0.0000000001
 40
0.0
 40
0.0
 40
0.0
 40
0.0
 40
0.0027966379
 40
0.005668168
 40
0.0086296961
 40
0.0116948219
 40
0.0181798611
 40
0.021622456
 40
0.0252084811
 40
0.0289446934
 40
0.032836775
 40
0.0368895163
 40
0.0411068217
 40
0.0454918871
 40
0.0500472582
 40
0.054774859
 40
0.0596761513
 40
0.0647520862
 40
0.0700032173
 40
0.075429748
 40
0.0810314923
 40
0.0927580784
 40
0.105176616
 40
0.1182763859
 40
0.1320434317
 40
0.1464609719
 40
0.1615097204
 40
0.1771681766
 40
0.1934128536
 40
0.2102184651
 40
0.2275580744
 40
0.2454032433
 40
0.263724175
 40
0.2824898325
 40
0.3016680432
 40
0.321225595
 40
0.3411283494
 40
0.36134134
 40
0.3818288643
 40
0.4234808514
 40
0.4657880735
 40
0.5084475313
 40
0.5511529964
 40
0.5935978253
 40
0.6354777522
 40
0.6561124935
 40
0.6764944266
 40
0.6965874473
 40
0.7163561375
 40
0.7357658522
 40
0.7547828119
 40
0.7733742056
 40
0.7915083035
 40
0.8091545527
 40
0.8262836872
 40
0.8428678503
 40
0.8588807471
 40
0.8742977924
 40
0.8890962719
 40
0.9032555427
 40
0.9167572812
 40
0.929585794
 40
0.941728368
 40
0.9531757216
 40
0.9586371635
 40
0.9639232462
 40
0.9690340583
 40
0.9739700796
 40
0.9787321761
 40
0.9833216622
 40
0.9877404875
 40
0.991991119
 40
0.9960764711
 40
1.0
 40
1.0
 40
1.0
 40
1.0
 10
12.8405513704
 20
8.7456006388
 30
0.0
 10
12.8392909824
 20
8.7460462493
 30
0.0
 10
12.8367727833
 20
8.7470555185
 30
0.0
 10
12.8330716247
 20
8.7488854903
 30
0.0
 10
12.8294044161
 20
8.7510478494
 30
0.0
 10
12.8244707661
 20
8.7544352902
 30
0.0
 10
12.8197048911
 20
8.7584451882
 30
0.0
 10
12.815111155
 20
8.762989111
 30
0.0
 10
12.8116387048
 20
8.7667897558
 30
0.0
 10
12.8082099408
 20
8.7709126495
 30
0.0
 10
12.804825946
 20
8.7753561376
 30
0.0
 10
12.8014883918
 20
8.7801180818
 30
0.0
 10
12.7981986736
 20
8.7851962286
 30
0.0
 10
12.7949583185
 20
8.7905882056
 30
0.0
 10
12.791768841
 20
8.7962914941
 30
0.0
 10
12.7886316535
 20
8.8023033833
 30
0.0
 10
12.7855482971
 20
8.8086210711
 30
0.0
 10
12.7825201704
 20
8.8152415541
 30
0.0
 10
12.7795487142
 20
8.8221617003
 30
0.0
 10
12.7766353476
 20
8.8293782538
 30
0.0
 10
12.7727710743
 20
8.8395465997
 30
0.0
 10
12.7681100349
 20
8.8529841939
 30
0.0
 10
12.7628517727
 20
8.8699967642
 30
0.0
 10
12.7578565812
 20
8.8881020801
 30
0.0
 10
12.7531340758
 20
8.9072656707
 30
0.0
 10
12.7486933886
 20
8.927451253
 30
0.0
 10
12.7445430993
 20
8.9486204069
 30
0.0
 10
12.7406912428
 20
8.970732796
 30
0.0
 10
12.7371452814
 20
8.9937462326
 30
0.0
 10
12.7339120938
 20
9.0176167719
 30
0.0
 10
12.7309979432
 20
9.0422987919
 30
0.0
 10
12.7284084684
 20
9.0677450901
 30
0.0
 10
12.7261486869
 20
9.0939069865
 30
0.0
 10
12.7242229815
 20
9.1207344229
 30
0.0
 10
12.7226350945
 20
9.1481760516
 30
0.0
 10
12.721388097
 20
9.1761793387
 30
0.0
 10
12.7204844175
 20
9.204690652
 30
0.0
 10
12.719925784
 20
9.2336554415
 30
0.0
 10
12.719641082
 20
9.2730211383
 30
0.0
 10
12.720163668
 20
9.3229506228
 30
0.0
 10
12.722161989
 20
9.383448422
 30
0.0
 10
12.7255202967
 20
9.4443903943
 30
0.0
 10
12.7302128713
 20
9.5053101256
 30
0.0
 10
12.736203855
 20
9.5657413682
 30
0.0
 10
12.7422691945
 20
9.6155506787
 30
0.0
 10
12.7477451704
 20
9.6547972916
 30
0.0
 10
12.7521250274
 20
9.6836793231
 30
0.0
 10
12.7567893444
 20
9.7120973299
 30
0.0
 10
12.7617291946
 20
9.739996939
 30
0.0
 10
12.7669350773
 20
9.7673247223
 30
0.0
 10
12.7723969948
 20
9.7940283624
 30
0.0
 10
12.7781044528
 20
9.8200567439
 30
0.0
 10
12.7840464695
 20
9.8453600631
 30
0.0
 10
12.7902116162
 20
9.869889918
 30
0.0
 10
12.7965880337
 20
9.8935993967
 30
0.0
 10
12.8031634623
 20
9.916443175
 30
0.0
 10
12.8099252465
 20
9.9383776193
 30
0.0
 10
12.8168603686
 20
9.9593608758
 30
0.0
 10
12.823955485
 20
9.9793529449
 30
0.0
 10
12.8311969551
 20
9.9983157758
 30
0.0
 10
12.8385708734
 20
10.0162133255
 30
0.0
 10
12.8460631011
 20
10.0330117886
 30
0.0
 10
12.8536592871
 20
10.048679224
 30
0.0
 10
12.8601620373
 20
10.0609539618
 30
0.0
 10
12.8654154057
 20
10.0701723748
 30
0.0
 10
12.8693104908
 20
10.0766764529
 30
0.0
 10
12.873220713
 20
10.0828764896
 30
0.0
 10
12.877144221
 20
10.0887695587
 30
0.0
 10
12.881079121
 20
10.0943528776
 30
0.0
 10
12.8850236486
 20
10.0996238015
 30
0.0
 10
12.8889759498
 20
10.1045799298
 30
0.0
 10
12.8929342969
 20
10.1092189196
 30
0.0
 10
12.8968966119
 20
10.1135383711
 30
0.0
 10
12.8995931648
 20
10.1162576999
 30
0.0
 10
12.900942138
 20
10.1175607081
 30
0.0
  0
SPLINE
  5
376
100
AcDbEntity
  8
0
100
AcDbSpline
 62
7
  6
CONTINUOUS
 70
0
 71
3
 72
15
 73
11
 74
0
 42
0.0000001
 43
0.0000001
 44
0.0000000001
 40
0.0
 40
0.0
 40
0.0
 40
0.0
 40
0.10844093
 40
0.2203198905
 40
0.3363916014
 40
0.4573220686
 40
0.5836913784
 40
0.7159978661
 40
0.8546571412
 40
1.0
 40
1.0
 40
1.0
 40
1.0
 10
12.9371769664
 20
10.1388997403
 30
0.0
 10
12.9356680758
 20
10.1385917436
 30
0.0
 10
12.9326306785
 20
10.137819438
 30
0.0
 10
12.9281185786
 20
10.1362333294
 30
0.0
 10
12.9235918469
 20
10.1342061125
 30
0.0
 10
12.9190536926
 20
10.1317399148
 30
0.0
 10
12.914506441
 20
10.1288367702
 30
0.0
 10
12.9099525068
 20
10.1254988402
 30
0.0
 10
12.9053946689
 20
10.1217286447
 30
0.0
 10
12.9024267228
 20
10.118994707
 30
0.0
 10
12.900942138
 20
10.1175607081
 30
0.0
  0
SPLINE
  5
377
100
AcDbEntity
  8
0
100
AcDbSpline
 62
7
  6
CONTINUOUS
 70
0
 71
3
 72
55
 73
51
 74
0
 42
0.0000001
 43
0.0000001
 44
0.0000000001
 40
0.0
 40
0.0
 40
0.0
 40
0.0
 40
0.0075208779
 40
0.0156242627
 40
0.0243312555
 40
0.0336551233
 40
0.0436030591
 40
0.0541771463
 40
0.0653752896
 40
0.07719199
 40
0.0896186372
 40
0.1026441739
 40
0.1162552111
 40
0.1304363626
 40
0.1451705228
 40
0.1604388534
 40
0.1762211627
 40
0.1924958409
 40
0.2264289939
 40
0.2620438627
 40
0.29912964
 40
0.3374627617
 40
0.3768091792
 40
0.4169265335
 40
0.4575662562
 40
0.4984756157
 40
0.5393997412
 40
0.5800836423
 40
0.6202742353
 40
0.6597223685
 40
0.6981848647
 40
0.7354266023
 40
0.7712226774
 40
0.8053606869
 40
0.8217460903
 40
0.8376442647
 40
0.8530333782
 40
0.8678928482
 40
0.8822035297
 40
0.8959479262
 40
0.9091101711
 40
0.9216764757
 40
0.9336351494
 40
0.9449770057
 40
0.955695826
 40
0.9657886149
 40
0.9752563841
 40
0.984105112
 40
0.9923469969
 40
1.0
 40
1.0
 40
1.0
 40
1.0
 10
12.8951061765
 20
6.8167008517
 30
0.0
 10
12.8942242988
 20
6.8177851777
 30
0.0
 10
12.8924867389
 20
6.8201156285
 30
0.0
 10
12.8900415097
 20
6.8239225275
 30
0.0
 10
12.8876661336
 20
6.8281617367
 30
0.0
 10
12.8853643026
 20
6.8328262747
 30
0.0
 10
12.8831395539
 20
6.8379089109
 30
0.0
 10
12.8809954465
 20
6.8434014871
 30
0.0
 10
12.8789354425
 20
6.8492951461
 30
0.0
 10
12.876962992
 20
6.855580311
 30
0.0
 10
12.8750813104
 20
6.8622466932
 30
0.0
 10
12.873293584
 20
6.8692833509
 30
0.0
 10
12.8716027861
 20
6.8766786899
 30
0.0
 10
12.8700117366
 20
6.8844205006
 30
0.0
 10
12.8685231421
 20
6.8924959836
 30
0.0
 10
12.86713946
 20
6.9008917633
 30
0.0
 10
12.8658630228
 20
6.9095939411
 30
0.0
 10
12.8642850442
 20
6.9217559573
 30
0.0
 10
12.8626087657
 20
6.9376193798
 30
0.0
 10
12.861080073
 20
6.9573792386
 30
0.0
 10
12.8600180308
 20
6.9779883421
 30
0.0
 10
12.8594299535
 20
6.9993099143
 30
0.0
 10
12.8593200177
 20
7.0212025708
 30
0.0
 10
12.8596891289
 20
7.0435210043
 30
0.0
 10
12.8605349642
 20
7.0661170568
 30
0.0
 10
12.8618519821
 20
7.0888406984
 30
0.0
 10
12.8636314681
 20
7.111541042
 30
0.0
 10
12.865861586
 20
7.1340673572
 30
0.0
 10
12.8685274564
 20
7.1562700848
 30
0.0
 10
12.8716112607
 20
7.1780018496
 30
0.0
 10
12.8750923591
 20
7.1991184318
 30
0.0
 10
12.8789474047
 20
7.2194798296
 30
0.0
 10
12.8831505589
 20
7.2389509346
 30
0.0
 10
12.8869699945
 20
7.2545336931
 30
0.0
 10
12.8901887564
 20
7.2664507834
 30
0.0
 10
12.8926388255
 20
7.2749651193
 30
0.0
 10
12.8951537514
 20
7.2831643819
 30
0.0
 10
12.8977293824
 20
7.2910349938
 30
0.0
 10
12.9003614266
 20
7.2985639203
 30
0.0
 10
12.9030454569
 20
7.3057387196
 30
0.0
 10
12.9057770499
 20
7.3125475367
 30
0.0
 10
12.9085516138
 20
7.3189791654
 30
0.0
 10
12.9113645601
 20
7.325023036
 30
0.0
 10
12.9142112439
 20
7.3306692591
 30
0.0
 10
12.9170869428
 20
7.3359086613
 30
0.0
 10
12.9199870382
 20
7.3407327395
 30
0.0
 10
12.9229067677
 20
7.3451337871
 30
0.0
 10
12.9258417435
 20
7.3491049662
 30
0.0
 10
12.9287872304
 20
7.3526396163
 30
0.0
 10
12.9308288286
 20
7.3547787511
 30
0.0
 10
12.931851767
 20
7.3557668338
 30
0.0
  0
SPLINE
  5
378
100
AcDbEntity
  8
0
100
AcDbSpline
 62
7
  6
CONTINUOUS
 70
0
 71
3
 72
54
 73
50
 74
0
 42
0.0000001
 43
0.0000001
 44
0.0000000001
 40
0.0
 40
0.0
 40
0.0
 40
0.0
 40
0.0055575318
 40
0.01117795
 40
0.0169218791
 40
0.0228457611
 40
0.0290005294
 40
0.0354309319
 40
0.0421753706
 40
0.0492662232
 40
0.0567302636
 40
0.064589378
 40
0.072861049
 40
0.081559096
 40
0.090694021
 40
0.1002736436
 40
0.1103032968
 40
0.1207863289
 40
0.1317242036
 40
0.1431168718
 40
0.1549628322
 40
0.167259384
 40
0.1800026896
 40
0.1931879189
 40
0.2068093403
 40
0.2208603691
 40
0.235333697
 40
0.2502212623
 40
0.265514414
 40
0.2812038251
 40
0.2972796802
 40
0.3137315552
 40
0.3477188713
 40
0.3830739693
 40
0.4196977636
 40
0.4574853154
 40
0.4963265102
 40
0.5361066853
 40
0.5767072196
 40
0.6180060993
 40
0.6598784659
 40
0.7021971518
 40
0.7448332092
 40
0.787656429
 40
0.8305358734
 40
0.8733403487
 40
0.9159390613
 40
0.9582017516
 40
1.0
 40
1.0
 40
1.0
 40
1.0
 10
9.3728148573
 20
11.431530976
 30
0.0
 10
9.3728148665
 20
11.4334654917
 30
0.0
 10
9.3730314648
 20
11.4373597794
 30
0.0
 10
9.3740035439
 20
11.4431804308
 30
0.0
 10
9.3756212417
 20
11.4489880946
 30
0.0
 10
9.3778813835
 20
11.4547760404
 30
0.0
 10
9.3807802525
 20
11.4605395799
 30
0.0
 10
9.3843139695
 20
11.4662742788
 30
0.0
 10
9.3884784715
 20
11.4719762344
 30
0.0
 10
9.3932697316
 20
11.4776415532
 30
0.0
 10
9.3986833965
 20
11.4832664906
 30
0.0
 10
9.4047150034
 20
11.4888470515
 30
0.0
 10
9.4113595717
 20
11.4943793462
 30
0.0
 10
9.4186118584
 20
11.4998591801
 30
0.0
 10
9.4264660197
 20
11.505282516
 30
0.0
 10
9.4349158566
 20
11.5106450502
 30
0.0
 10
9.4439545699
 20
11.5159426721
 30
0.0
 10
9.453574953
 20
11.521171076
 30
0.0
 10
9.4637692368
 20
11.5263261448
 30
0.0
 10
9.4745292161
 20
11.5314036491
 30
0.0
 10
9.4858461689
 20
11.5363995146
 30
0.0
 10
9.4977109246
 20
11.5413096383
 30
0.0
 10
9.5101138373
 20
11.5461300242
 30
0.0
 10
9.523044812
 20
11.550856727
 30
0.0
 10
9.5364933128
 20
11.5554858569
 30
0.0
 10
9.5504483639
 20
11.5600136451
 30
0.0
 10
9.5648985763
 20
11.5644363331
 30
0.0
 10
9.5798321372
 20
11.5687503393
 30
0.0
 10
9.5952368449
 20
11.5729520612
 30
0.0
 10
9.6111000905
 20
11.5770381038
 30
0.0
 10
9.6274089162
 20
11.5810050703
 30
0.0
 10
9.6499751829
 20
11.5861874285
 30
0.0
 10
9.6792040061
 20
11.5923291492
 30
0.0
 10
9.7154661831
 20
11.5990976926
 30
0.0
 10
9.7531673352
 20
11.6053197509
 30
0.0
 10
9.7921839848
 20
11.6109747699
 30
0.0
 10
9.8323885219
 20
11.6160440329
 30
0.0
 10
9.873649324
 20
11.6205107822
 30
0.0
 10
9.9158312878
 20
11.6243602539
 30
0.0
 10
9.9587962567
 20
11.6275797302
 30
0.0
 10
10.0024034873
 20
11.6301585773
 30
0.0
 10
10.0465101147
 20
11.6320882797
 30
0.0
 10
10.0909716251
 20
11.6333624662
 30
0.0
 10
10.1356423355
 20
11.6339769314
 30
0.0
 10
10.180375867
 20
11.6339296444
 30
0.0
 10
10.2250256484
 20
11.6332207673
 30
0.0
 10
10.2694453618
 20
11.6318526278
 30
0.0
 10
10.3134893786
 20
11.6298297655
 30
0.0
 10
10.3426965299
 20
11.6280374206
 30
0.0
 10
10.3572111782
 20
11.6270308263
 30
0.0
  0
SPLINE
  5
379
100
AcDbEntity
  8
0
100
AcDbSpline
 62
7
  6
CONTINUOUS
 70
0
 71
3
 72
11
 73
7
 74
0
 42
0.0000001
 43
0.0000001
 44
0.0000000001
 40
0.0
 40
0.0
 40
0.0
 40
0.0
 40
0.2394497584
 40
0.4864827351
 40
0.7402824559
 40
1.0
 40
1.0
 40
1.0
 40
1.0
 10
9.7313334548
 20
10.7679329937
 30
0.0
 10
9.7448798565
 20
10.7701914863
 30
0.0
 10
9.7724528158
 20
10.774477666
 30
0.0
 10
9.8145327979
 20
10.7801508087
 30
0.0
 10
9.857867939
 20
10.7851538536
 30
0.0
 10
9.8871840949
 20
10.7880005078
 30
0.0
 10
9.902022033
 20
10.7893123854
 30
0.0
  0
SPLINE
  5
37A
100
AcDbEntity
  8
0
100
AcDbSpline
 62
7
  6
CONTINUOUS
 70
0
 71
3
 72
56
 73
52
 74
0
 42
0.0000001
 43
0.0000001
 44
0.0000000001
 40
0.0
 40
0.0
 40
0.0
 40
0.0
 40
0.0528988178
 40
0.1050249547
 40
0.1562613383
 40
0.2064945323
 40
0.2556136803
 40
0.3035116986
 40
0.3500853851
 40
0.3952359925
 40
0.4388696809
 40
0.4808980694
 40
0.5212388384
 40
0.5598164258
 40
0.5965628475
 40
0.6142309653
 40
0.6314197927
 40
0.6481234407
 40
0.6643367593
 40
0.6800553156
 40
0.6952755833
 40
0.7099948626
 40
0.724211563
 40
0.7379250905
 40
0.7511362104
 40
0.7638469421
 40
0.776060981
 40
0.7877836529
 40
0.7990223741
 40
0.8097867189
 40
0.8200889029
 40
0.8299440013
 40
0.8393704435
 40
0.848390382
 40
0.8570301577
 40
0.8732871703
 40
0.8809923201
 40
0.8884716055
 40
0.8957762193
 40
0.9029614893
 40
0.910085848
 40
0.9172093616
 40
0.92439212
 40
0.9316926219
 40
0.9391662991
 40
0.9468644709
 40
0.9631039601
 40
0.9717335158
 40
0.9807424301
 40
0.9901571718
 40
1.0
 40
1.0
 40
1.0
 40
1.0
 10
10.3732579518
 20
11.7148213352
 30
0.0
 10
10.3865900699
 20
11.7138967497
 30
0.0
 10
10.4130475291
 20
11.7118819307
 30
0.0
 10
10.4523662534
 20
11.708333823
 30
0.0
 10
10.4909600188
 20
11.7042884488
 30
0.0
 10
10.5287346409
 20
11.6997557659
 30
0.0
 10
10.565598213
 20
11.6947468691
 30
0.0
 10
10.6014609403
 20
11.6892740634
 30
0.0
 10
10.6362355442
 20
11.6833507762
 30
0.0
 10
10.6698374106
 20
11.676991554
 30
0.0
 10
10.702184838
 20
11.6702120146
 30
0.0
 10
10.7331992093
 20
11.6630288113
 30
0.0
 10
10.7628053132
 20
11.6554595957
 30
0.0
 10
10.7909311553
 20
11.647522942
 30
0.0
 10
10.8133633861
 20
11.6405307524
 30
0.0
 10
10.8305066291
 20
11.6347544983
 30
0.0
 10
10.8427837082
 20
11.6303993885
 30
0.0
 10
10.8546416392
 20
11.6259672898
 30
0.0
 10
10.8660732486
 20
11.6214608971
 30
0.0
 10
10.8770715929
 20
11.6168829186
 30
0.0
 10
10.8876300263
 20
11.612236193
 30
0.0
 10
10.8977421438
 20
11.6075234713
 30
0.0
 10
10.9074018616
 20
11.6027476881
 30
0.0
 10
10.9166033266
 20
11.597911638
 30
0.0
 10
10.9253410348
 20
11.5930183257
 30
0.0
 10
10.9336097017
 20
11.5880705824
 30
0.0
 10
10.9414044139
 20
11.5830714486
 30
0.0
 10
10.9487204687
 20
11.5780237807
 30
0.0
 10
10.9555535419
 20
11.572930613
 30
0.0
 10
10.9618995188
 20
11.5677948026
 30
0.0
 10
10.9677546306
 20
11.5626193447
 30
0.0
 10
10.9731153638
 20
11.5574070117
 30
0.0
 10
10.9779783237
 20
11.5521609203
 30
0.0
 10
10.9823409418
 20
11.5468830331
 30
0.0
 10
10.9873829107
 20
11.5399508245
 30
0.0
 10
10.9915622231
 20
11.5328125279
 30
0.0
 10
10.9947276062
 20
11.5255189009
 30
0.0
 10
10.9965462182
 20
11.5201285846
 30
0.0
 10
10.9978490091
 20
11.5147256648
 30
0.0
 10
10.998634296
 20
11.5093137758
 30
0.0
 10
10.9989010926
 20
11.5038973295
 30
0.0
 10
10.9986488251
 20
11.4984808192
 30
0.0
 10
10.9978780445
 20
11.4930687422
 30
0.0
 10
10.9965897227
 20
11.4876655173
 30
0.0
 10
10.9947855216
 20
11.4822747905
 30
0.0
 10
10.9916398171
 20
11.4749809179
 30
0.0
 10
10.9874795081
 20
11.4678415435
 30
0.0
 10
10.9824558503
 20
11.4609081383
 30
0.0
 10
10.978107273
 20
11.4556293912
 30
0.0
 10
10.9732583869
 20
11.4503824876
 30
0.0
 10
10.9697732768
 20
11.4469844028
 30
0.0
 10
10.9679529252
 20
11.4452903671
 30
0.0
  0
SPLINE
  5
37B
100
AcDbEntity
  8
0
100
AcDbSpline
 62
7
  6
CONTINUOUS
 70
0
 71
3
 72
13
 73
9
 74
0
 42
0.0000001
 43
0.0000001
 44
0.0000000001
 40
0.0
 40
0.0
 40
0.0
 40
0.0
 40
0.1169446525
 40
0.2364885192
 40
0.358488218
 40
0.4827959349
 40
0.7377186651
 40
1.0
 40
1.0
 40
1.0
 40
1.0
 10
9.7296086762
 20
10.7529501584
 30
0.0
 10
9.7370886405
 20
10.7543232212
 30
0.0
 10
9.7522345376
 20
10.7569934672
 30
0.0
 10
9.7752454201
 20
10.7607357628
 30
0.0
 10
9.7987756849
 20
10.7642555161
 30
0.0
 10
9.831069527
 20
10.7686822361
 30
0.0
 10
9.8724991105
 20
10.7736095278
 30
0.0
 10
9.9059803844
 20
10.7768413098
 30
0.0
 10
9.922973842
 20
10.778303275
 30
0.0
  0
SPLINE
  5
37C
100
AcDbEntity
  8
0
100
AcDbSpline
 62
7
  6
CONTINUOUS
 70
0
 71
3
 72
15
 73
11
 74
0
 42
0.0000001
 43
0.0000001
 44
0.0000000001
 40
0.0
 40
0.0
 40
0.0
 40
0.0
 40
0.1153965833
 40
0.2339756685
 40
0.3555273714
 40
0.4798336496
 40
0.6066690675
 40
0.7358015052
 40
0.8669929101
 40
1.0
 40
1.0
 40
1.0
 40
1.0
 10
9.7286048294
 20
10.7228793787
 30
0.0
 10
9.7374336777
 20
10.7245576965
 30
0.0
 10
9.7553650039
 20
10.7278037847
 30
0.0
 10
9.7826881461
 20
10.7322910145
 30
0.0
 10
9.810763891
 20
10.7364562709
 30
0.0
 10
9.8395353943
 20
10.7402910645
 30
0.0
 10
9.8689445288
 20
10.7437875922
 30
0.0
 10
9.8989318448
 20
10.7469387476
 30
0.0
 10
9.9294366474
 20
10.7497381182
 30
0.0
 10
9.9499490647
 20
10.7513559613
 30
0.0
 10
9.9602802893
 20
10.7521063224
 30
0.0
  0
SPLINE
  5
37D
100
AcDbEntity
  8
0
100
AcDbSpline
 62
7
  6
CONTINUOUS
 70
0
 71
3
 72
15
 73
11
 74
0
 42
0.0000001
 43
0.0000001
 44
0.0000000001
 40
0.0
 40
0.0
 40
0.0
 40
0.0
 40
0.1164881877
 40
0.2359843479
 40
0.3582108461
 40
0.4828808641
 40
0.6096995164
 40
0.7383649346
 40
0.8685693242
 40
1.0
 40
1.0
 40
1.0
 40
1.0
 10
9.7774364112
 20
10.5748905655
 30
0.0
 10
9.7879875039
 20
10.5765712398
 30
0.0
 10
9.8093930772
 20
10.5797843455
 30
0.0
 10
9.8419621428
 20
10.584116373
 30
0.0
 10
9.8753416272
 20
10.5880146217
 30
0.0
 10
9.9094449775
 20
10.5914688987
 30
0.0
 10
9.9441839187
 20
10.5944702018
 30
0.0
 10
9.9794684959
 20
10.597010704
 30
0.0
 10
10.0152072384
 20
10.5990837833
 30
0.0
 10
10.0391813116
 20
10.6001464948
 30
0.0
 10
10.0512273985
 20
10.600599769
 30
0.0
  0
SPLINE
  5
37E
100
AcDbEntity
  8
0
100
AcDbSpline
 62
7
  6
CONTINUOUS
 70
0
 71
3
 72
14
 73
10
 74
0
 42
0.0000001
 43
0.0000001
 44
0.0000000001
 40
0.0
 40
0.0
 40
0.0
 40
0.0
 40
0.1178293874
 40
0.238174784
 40
0.360809598
 40
0.4855011151
 40
0.6120112142
 40
0.740097048
 40
1.0
 40
1.0
 40
1.0
 40
1.0
 10
9.8245319826
 20
10.5231882218
 30
0.0
 10
9.8335725706
 20
10.5245048793
 30
0.0
 10
9.8518675465
 20
10.5270256292
 30
0.0
 10
9.8796348287
 20
10.5304403031
 30
0.0
 10
9.9079761279
 20
10.5335236952
 30
0.0
 10
9.9368322361
 20
10.5362693149
 30
0.0
 10
9.9661430999
 20
10.5386714466
 30
0.0
 10
10.0059407921
 20
10.5414226819
 30
0.0
 10
10.0359897042
 20
10.5429342994
 30
0.0
 10
10.0561266209
 20
10.5437063284
 30
0.0
  0
SPLINE
  5
37F
100
AcDbEntity
  8
0
100
AcDbSpline
 62
7
  6
CONTINUOUS
 70
0
 71
3
 72
39
 73
35
 74
0
 42
0.0000001
 43
0.0000001
 44
0.0000000001
 40
0.0
 40
0.0
 40
0.0
 40
0.0
 40
0.0309436923
 40
0.0620205985
 40
0.093225104
 40
0.1245518135
 40
0.1559921548
 40
0.1875363743
 40
0.2191729763
 40
0.250889148
 40
0.2826708889
 40
0.3145032412
 40
0.3463705094
 40
0.3782564921
 40
0.410144718
 40
0.4420186835
 40
0.4738620912
 40
0.5056590867
 40
0.5373944898
 40
0.5690540202
 40
0.6006245129
 40
0.6320941234
 40
0.6634525162
 40
0.6946910351
 40
0.7258028538
 40
0.756783102
 40
0.7876289659
 40
0.8183397587
 40
0.8489169591
 40
0.8793642176
 40
0.9096873241
 40
0.9398941389
 40
0.9699944845
 40
1.0
 40
1.0
 40
1.0
 40
1.0
 10
9.9336151734
 20
10.4527012551
 30
0.0
 10
9.9286738962
 20
10.4530439338
 30
0.0
 10
9.9187890045
 20
10.4540437021
 30
0.0
 10
9.9040558646
 20
10.4564703386
 30
0.0
 10
9.8894408676
 20
10.4598177635
 30
0.0
 10
9.8750033426
 20
10.464072273
 30
0.0
 10
9.8608007451
 20
10.4692169151
 30
0.0
 10
9.8468899527
 20
10.4752309729
 30
0.0
 10
9.8333265617
 20
10.4820903699
 30
0.0
 10
9.8201648038
 20
10.4897676156
 30
0.0
 10
9.8074572975
 20
10.498231977
 30
0.0
 10
9.7952548463
 20
10.5074495767
 30
0.0
 10
9.7836062313
 20
10.517383531
 30
0.0
 10
9.772558023
 20
10.5279941016
 30
0.0
 10
9.762154396
 20
10.5392388535
 30
0.0
 10
9.7524369539
 20
10.551072823
 30
0.0
 10
9.7434445651
 20
10.5634486962
 30
0.0
 10
9.7352132077
 20
10.5763169962
 30
0.0
 10
9.7277758273
 20
10.5896262788
 30
0.0
 10
9.7211622063
 20
10.603323337
 30
0.0
 10
9.7153988408
 20
10.617353409
 30
0.0
 10
9.7105088321
 20
10.6316603957
 30
0.0
 10
9.7065118008
 20
10.6461870862
 30
0.0
 10
9.7034238065
 20
10.6608753827
 30
0.0
 10
9.7012572827
 20
10.6756665313
 30
0.0
 10
9.700020986
 20
10.6905013533
 30
0.0
 10
9.6997199584
 20
10.7053204799
 30
0.0
 10
9.700355505
 20
10.7200645888
 30
0.0
 10
9.7019251837
 20
10.7346746333
 30
0.0
 10
9.7044228156
 20
10.7490921028
 30
0.0
 10
9.7078384639
 20
10.7632591689
 30
0.0
 10
9.7121586378
 20
10.777119248
 30
0.0
 10
9.7173657363
 20
10.790615999
 30
0.0
 10
9.7214212875
 20
10.799349907
 30
0.0
 10
9.7235888351
 20
10.8036359629
 30
0.0
  0
SPLINE
  5
380
100
AcDbEntity
  8
0
100
AcDbSpline
 62
7
  6
CONTINUOUS
 70
0
 71
3
 72
39
 73
35
 74
0
 42
0.0000001
 43
0.0000001
 44
0.0000000001
 40
0.0
 40
0.0
 40
0.0
 40
0.0
 40
0.0309093424
 40
0.0619486225
 40
0.0931121986
 40
0.1243953368
 40
0.1557899563
 40
0.1872870156
 40
0.2188758051
 40
0.2505443743
 40
0.2822796424
 40
0.3140676021
 40
0.3458935187
 40
0.3777421342
 40
0.4095978791
 40
0.4414450852
 40
0.4732682007
 40
0.5050520038
 40
0.5367818157
 40
0.5684437067
 40
0.6000246929
 40
0.6315129252
 40
0.6628978643
 40
0.6941704433
 40
0.7253232125
 40
0.7563504683
 40
0.7872483577
 40
0.8180149573
 40
0.8486503265
 40
0.8791565315
 40
0.9095376385
 40
0.9397996752
 40
0.9699505606
 40
1.0
 40
1.0
 40
1.0
 40
1.0
 10
9.9327482947
 20
10.439789841
 30
0.0
 10
9.9276851906
 20
10.4401409684
 30
0.0
 10
9.9175566693
 20
10.4411570945
 30
0.0
 10
9.9024563557
 20
10.4436070363
 30
0.0
 10
9.8874709698
 20
10.4469769477
 30
0.0
 10
9.8726582997
 20
10.4512536818
 30
0.0
 10
9.8580742917
 20
10.4564210947
 30
0.0
 10
9.843774412
 20
10.4624594162
 30
0.0
 10
9.8298129244
 20
10.4693457015
 30
0.0
 10
9.8162428383
 20
10.4770537501
 30
0.0
 10
9.803115663
 20
10.4855542575
 30
0.0
 10
9.7904812246
 20
10.4948149121
 30
0.0
 10
9.7783874799
 20
10.5048005295
 30
0.0
 10
9.7668803363
 20
10.5154731826
 30
0.0
 10
9.7560034797
 20
10.5267923445
 30
0.0
 10
9.74579821
 20
10.5387150408
 30
0.0
 10
9.7363032867
 20
10.5511960118
 30
0.0
 10
9.7275547781
 20
10.5641878789
 30
0.0
 10
9.719585917
 20
10.5776413203
 30
0.0
 10
9.7124269877
 20
10.5915052658
 30
0.0
 10
9.7061052096
 20
10.6057270875
 30
0.0
 10
9.7006446349
 20
10.6202527966
 30
0.0
 10
9.6960660574
 20
10.6350272467
 30
0.0
 10
9.6923869332
 20
10.6499943398
 30
0.0
 10
9.689621314
 20
10.6650972367
 30
0.0
 10
9.6877797761
 20
10.6802785697
 30
0.0
 10
9.6868693939
 20
10.695480662
 30
0.0
 10
9.6868937121
 20
10.7106457459
 30
0.0
 10
9.6878527269
 20
10.7257161741
 30
0.0
 10
9.6897428941
 20
10.74063466
 30
0.0
 10
9.6925570983
 20
10.7553444067
 30
0.0
 10
9.6962848271
 20
10.7697896469
 30
0.0
 10
9.7009116427
 20
10.7839146531
 30
0.0
 10
9.704590472
 20
10.7930981589
 30
0.0
 10
9.7065730306
 20
10.7976164008
 30
0.0
  0
SPLINE
  5
381
100
AcDbEntity
  8
0
100
AcDbSpline
 62
7
  6
CONTINUOUS
 70
0
 71
3
 72
15
 73
11
 74
0
 42
0.0000001
 43
0.0000001
 44
0.0000000001
 40
0.0
 40
0.0
 40
0.0
 40
0.0
 40
0.1265863132
 40
0.2527016585
 40
0.3783378943
 40
0.5035140243
 40
0.6282436216
 40
0.752548849
 40
0.8764569815
 40
1.0
 40
1.0
 40
1.0
 40
1.0
 10
9.9327482947
 20
10.439789841
 30
0.0
 10
9.937208797
 20
10.4394805041
 30
0.0
 10
9.9461318809
 20
10.4391042023
 30
0.0
 10
9.9595006789
 20
10.4392718889
 30
0.0
 10
9.9727907193
 20
10.4401724756
 30
0.0
 10
9.9859617106
 20
10.4418031139
 30
0.0
 10
9.9989747528
 20
10.4441591678
 30
0.0
 10
10.0117911474
 20
10.4472336596
 30
0.0
 10
10.0243722376
 20
10.451017269
 30
0.0
 10
10.0325904176
 20
10.4540095596
 30
0.0
 10
10.0366462199
 20
10.4556196954
 30
0.0
  0
SPLINE
  5
382
100
AcDbEntity
  8
0
100
AcDbSpline
 62
7
  6
CONTINUOUS
 70
0
 71
3
 72
11
 73
7
 74
0
 42
0.0000001
 43
0.0000001
 44
0.0000000001
 40
0.0
 40
0.0
 40
0.0
 40
0.0
 40
0.2521739175
 40
0.5038574179
 40
0.7536069429
 40
1.0
 40
1.0
 40
1.0
 40
1.0
 10
10.1289365023
 20
7.1656502495
 30
0.0
 10
10.1419968078
 20
7.1658254409
 30
0.0
 10
10.1680963365
 20
7.1659101959
 30
0.0
 10
10.2071267544
 20
7.1652463055
 30
0.0
 10
10.2458362632
 20
7.1637956881
 30
0.0
 10
10.2714927889
 20
7.162297115
 30
0.0
 10
10.2842242677
 20
7.161414184
 30
0.0
  0
SPLINE
  5
383
100
AcDbEntity
  8
0
100
AcDbSpline
 62
7
  6
CONTINUOUS
 70
0
 71
3
 72
64
 73
60
 74
0
 42
0.0000001
 43
0.0000001
 44
0.0000000001
 40
0.0
 40
0.0
 40
0.0
 40
0.0
 40
0.0082489002
 40
0.0160245789
 40
0.0233634177
 40
0.0303107653
 40
0.0369218447
 40
0.0401226201
 40
0.0432647895
 40
0.0463580889
 40
0.0494127661
 40
0.0524395148
 40
0.0554493543
 40
0.0584535051
 40
0.061463261
 40
0.0644898433
 40
0.0675442735
 40
0.070637248
 40
0.0737790184
 40
0.0802448985
 40
0.0870153095
 40
0.0941506924
 40
0.1017012425
 40
0.1097077351
 40
0.11820258
 40
0.127210955
 40
0.1367519858
 40
0.1468396186
 40
0.157483474
 40
0.1686895566
 40
0.1804607007
 40
0.1927971146
 40
0.2056967011
 40
0.2191553043
 40
0.2331670462
 40
0.2477244302
 40
0.2628185367
 40
0.2784392058
 40
0.2945750541
 40
0.3112136623
 40
0.3283416349
 40
0.3459446259
 40
0.3640074928
 40
0.3825142826
 40
0.4014483037
 40
0.4207922194
 40
0.4606364401
 40
0.5018968388
 40
0.5444143008
 40
0.5880226233
 40
0.6325496135
 40
0.6778181242
 40
0.7236470562
 40
0.7698523647
 40
0.8162480403
 40
0.8626470781
 40
0.9088625236
 40
0.954707991
 40
1.0
 40
1.0
 40
1.0
 40
1.0
 10
9.3416767786
 20
11.4452903671
 30
0.0
 10
9.3392711255
 20
11.4475290897
 30
0.0
 10
9.3347296188
 20
11.4520235284
 30
0.0
 10
9.3285915895
 20
11.4590315595
 30
0.0
 10
9.3233429015
 20
11.4660946168
 30
0.0
 10
9.318991148
 20
11.4732057638
 30
0.0
 10
9.3160866748
 20
11.479232555
 30
0.0
 10
9.3142395242
 20
11.4840537962
 30
0.0
 10
9.3130962943
 20
11.4876372315
 30
0.0
 10
9.3121809773
 20
11.4912255321
 30
0.0
 10
9.3114939536
 20
11.494817753
 30
0.0
 10
9.3110355002
 20
11.4984127774
 30
0.0
 10
9.3108057677
 20
11.5020095002
 30
0.0
 10
9.3108049188
 20
11.5056067978
 30
0.0
 10
9.3110329531
 20
11.5092035278
 30
0.0
 10
9.3114897139
 20
11.5127985741
 30
0.0
 10
9.3121750297
 20
11.5163908
 30
0.0
 10
9.3130887039
 20
11.5199792093
 30
0.0
 10
9.3146250915
 20
11.5248025743
 30
0.0
 10
9.3171408679
 20
11.5308384925
 30
0.0
 10
9.3210382819
 20
11.5379719212
 30
0.0
 10
9.3258361515
 20
11.545060197
 30
0.0
 10
9.3315271428
 20
11.5520966708
 30
0.0
 10
9.3381042433
 20
11.5590757498
 30
0.0
 10
9.345560033
 20
11.5659913833
 30
0.0
 10
9.3538865065
 20
11.5728374299
 30
0.0
 10
9.3630750036
 20
11.5796073711
 30
0.0
 10
9.373115949
 20
11.5862946037
 30
0.0
 10
9.3839988775
 20
11.5928923976
 30
0.0
 10
9.3957124243
 20
11.5993938958
 30
0.0
 10
9.4082442358
 20
11.6057923449
 30
0.0
 10
9.4215810698
 20
11.6120809489
 30
0.0
 10
9.4357087676
 20
11.6182529788
 30
0.0
 10
9.4506122574
 20
11.6243018626
 30
0.0
 10
9.4662756252
 20
11.6302210444
 30
0.0
 10
9.4826820887
 20
11.636004153
 30
0.0
 10
9.4998140411
 20
11.6416449571
 30
0.0
 10
9.5176530854
 20
11.6471373078
 30
0.0
 10
9.5361800262
 20
11.6524752961
 30
0.0
 10
9.555374922
 20
11.6576531265
 30
0.0
 10
9.5752170996
 20
11.6626651648
 30
0.0
 10
9.5956851675
 20
11.667506016
 30
0.0
 10
9.6167570616
 20
11.6721704021
 30
0.0
 10
9.6384100458
 20
11.6766532635
 30
0.0
 10
9.6606207815
 20
11.6809497985
 30
0.0
 10
9.6912487613
 20
11.6864781544
 30
0.0
 10
9.7307553474
 20
11.692871401
 30
0.0
 10
9.7795376344
 20
11.6996580635
 30
0.0
 10
9.8299397141
 20
11.7056032728
 30
0.0
 10
9.8817439897
 20
11.7106811158
 30
0.0
 10
9.9347270328
 20
11.7148694111
 30
0.0
 10
9.9886601816
 20
11.7181498773
 30
0.0
 10
10.0433106489
 20
11.7205082133
 30
0.0
 10
10.0984425116
 20
11.7219341417
 30
0.0
 10
10.1538177565
 20
11.7224214425
 30
0.0
 10
10.209197313
 20
11.7219679855
 30
0.0
 10
10.2643420451
 20
11.7205757414
 30
0.0
 10
10.3190137966
 20
11.7182508249
 30
0.0
 10
10.3552577915
 20
11.7160696506
 30
0.0
 10
10.3732579518
 20
11.7148213352
 30
0.0
  0
SPLINE
  5
384
100
AcDbEntity
  8
0
100
AcDbSpline
 62
7
  6
CONTINUOUS
 70
0
 71
3
 72
61
 73
57
 74
0
 42
0.0000001
 43
0.0000001
 44
0.0000000001
 40
0.0
 40
0.0
 40
0.0
 40
0.0
 40
0.006544941
 40
0.0128139647
 40
0.018868361
 40
0.0218375577
 40
0.0247794418
 40
0.0277034834
 40
0.0306193433
 40
0.0335367752
 40
0.0364655121
 40
0.039415167
 40
0.0423951333
 40
0.0484796061
 40
0.0547891291
 40
0.0613836364
 40
0.0648050198
 40
0.0683162545
 40
0.0756270775
 40
0.0833531906
 40
0.0915232266
 40
0.1001598143
 40
0.1092805054
 40
0.118898414
 40
0.1290230284
 40
0.1396606053
 40
0.1508147452
 40
0.1624867052
 40
0.1746756922
 40
0.1873791976
 40
0.2005930659
 40
0.2143118298
 40
0.2285286977
 40
0.2432357891
 40
0.258424183
 40
0.2740839878
 40
0.290204498
 40
0.3067741312
 40
0.3237806327
 40
0.341210993
 40
0.3590515893
 40
0.3959052998
 40
0.4342219918
 40
0.4738731532
 40
0.5147232858
 40
0.5566308185
 40
0.5994489593
 40
0.6430265094
 40
0.6872086513
 40
0.7318377189
 40
0.7767539573
 40
0.8217962849
 40
0.8668030057
 40
0.911612725
 40
0.9560645017
 40
1.0
 40
1.0
 40
1.0
 40
1.0
 10
9.3729277498
 20
11.4215818915
 30
0.0
 10
9.371713858
 20
11.4236247777
 30
0.0
 10
9.3695124521
 20
11.4277328703
 30
0.0
 10
9.3668887984
 20
11.434073652
 30
0.0
 10
9.3653273808
 20
11.4394153035
 30
0.0
 10
9.364472699
 20
11.4436769085
 30
0.0
 10
9.3640262249
 20
11.446855468
 30
0.0
 10
9.3637705784
 20
11.4500355556
 30
0.0
 10
9.3637058563
 20
11.4532164036
 30
0.0
 10
9.3638320707
 20
11.456397107
 30
0.0
 10
9.3641491201
 20
11.459576774
 30
0.0
 10
9.3646569774
 20
11.4627546323
 30
0.0
 10
9.3655944499
 20
11.4670168587
 30
0.0
 10
9.3672597392
 20
11.4723577382
 30
0.0
 10
9.3700058908
 20
11.4786940503
 30
0.0
 10
9.372889123
 20
11.4838836429
 30
0.0
 10
9.3755534273
 20
11.4880109764
 30
0.0
 10
9.3785405535
 20
11.4922342311
 30
0.0
 10
9.382762304
 20
11.4974903402
 30
0.0
 10
9.3885019541
 20
11.5036675626
 30
0.0
 10
9.3949762601
 20
11.5097931097
 30
0.0
 10
9.4021787261
 20
11.5158617211
 30
0.0
 10
9.4101027361
 20
11.5218682805
 30
0.0
 10
9.418740841
 20
11.527807599
 30
0.0
 10
9.4280850619
 20
11.5336742551
 30
0.0
 10
9.4381266368
 20
11.5394629368
 30
0.0
 10
9.4488561666
 20
11.5451682226
 30
0.0
 10
9.4602635439
 20
11.5507847409
 30
0.0
 10
9.4723379705
 20
11.5563072087
 30
0.0
 10
9.4850680107
 20
11.5617302944
 30
0.0
 10
9.4984415349
 20
11.5670488873
 30
0.0
 10
9.512445811
 20
11.5722578109
 30
0.0
 10
9.5270674541
 20
11.5773521107
 30
0.0
 10
9.5422924866
 20
11.5823268586
 30
0.0
 10
9.5581063334
 20
11.587177253
 30
0.0
 10
9.574493838
 20
11.5918986542
 30
0.0
 10
9.5914392927
 20
11.5964864508
 30
0.0
 10
9.608926435
 20
11.6009362833
 30
0.0
 10
9.6269384788
 20
11.6052437906
 30
0.0
 10
9.6454581466
 20
11.6094048929
 30
0.0
 10
9.6710815998
 20
11.6148108188
 30
0.0
 10
9.7042540508
 20
11.6211559681
 30
0.0
 10
9.7453731917
 20
11.6280463429
 30
0.0
 10
9.7880658313
 20
11.6342659513
 30
0.0
 10
9.8321678914
 20
11.6397906608
 30
0.0
 10
9.8775100775
 20
11.6445989947
 30
0.0
 10
9.9239181869
 20
11.6486722844
 30
0.0
 10
9.9712138953
 20
11.6519947173
 30
0.0
 10
10.0192154258
 20
11.6545534007
 30
0.0
 10
10.0677382639
 20
11.6563384063
 30
0.0
 10
10.1165958731
 20
11.657342814
 30
0.0
 10
10.1656004148
 20
11.6575627276
 30
0.0
 10
10.2145635046
 20
11.6569973035
 30
0.0
 10
10.2632968551
 20
11.6556487154
 30
0.0
 10
10.311613054
 20
11.6535222313
 30
0.0
 10
10.3436473807
 20
11.6515777672
 30
0.0
 10
10.3595611729
 20
11.650474142
 30
0.0
  0
SPLINE
  5
385
100
AcDbEntity
  8
0
100
AcDbSpline
 62
7
  6
CONTINUOUS
 70
0
 71
3
 72
23
 73
19
 74
0
 42
0.0000001
 43
0.0000001
 44
0.0000000001
 40
0.0
 40
0.0
 40
0.0
 40
0.0
 40
0.0638366963
 40
0.1274608181
 40
0.1908696788
 40
0.2540697554
 40
0.3170656913
 40
0.379865362
 40
0.4424783646
 40
0.5049161218
 40
0.5671918575
 40
0.629320409
 40
0.6913181197
 40
0.753202679
 40
0.8149929458
 40
0.8767087557
 40
0.9383707167
 40
1.0
 40
1.0
 40
1.0
 40
1.0
 10
9.7748688075
 20
10.0578825605
 30
0.0
 10
9.7825543733
 20
10.0573495647
 30
0.0
 10
9.7979282622
 20
10.0566558232
 30
0.0
 10
9.8209716315
 20
10.056738783
 30
0.0
 10
9.8439071659
 20
10.0579470227
 30
0.0
 10
9.8666796976
 20
10.060277516
 30
0.0
 10
9.8892358462
 20
10.0637249922
 30
0.0
 10
9.9115221685
 20
10.0682813063
 30
0.0
 10
9.9334860374
 20
10.0739357326
 30
0.0
 10
9.9550755359
 20
10.0806749577
 30
0.0
 10
9.9762396275
 20
10.0884831005
 30
0.0
 10
9.9969282652
 20
10.0973417778
 30
0.0
 10
10.0170925236
 20
10.1072300827
 30
0.0
 10
10.03668474
 20
10.1181246613
 30
0.0
 10
10.0556585402
 20
10.1299997447
 30
0.0
 10
10.0739692019
 20
10.1428274319
 30
0.0
 10
10.09157282
 20
10.1565768866
 30
0.0
 10
10.1028125641
 20
10.1663388309
 30
0.0
 10
10.1082990296
 20
10.1713604838
 30
0.0
  0
SPLINE
  5
386
100
AcDbEntity
  8
0
100
AcDbSpline
 62
7
  6
CONTINUOUS
 70
0
 71
3
 72
39
 73
35
 74
0
 42
0.0000001
 43
0.0000001
 44
0.0000000001
 40
0.0
 40
0.0
 40
0.0
 40
0.0
 40
0.0311300282
 40
0.0624114199
 40
0.0938385199
 40
0.1254018319
 40
0.1570895724
 40
0.1888874018
 40
0.2207788628
 40
0.2527456924
 40
0.284768188
 40
0.3168255904
 40
0.3488964803
 40
0.3809591832
 40
0.412992179
 40
0.4449745094
 40
0.4768861776
 40
0.5087085343
 40
0.5404246458
 40
0.5720196372
 40
0.6034810068
 40
0.6347989019
 40
0.66596635
 40
0.6969794412
 40
0.7278374531
 40
0.7585429141
 40
0.7891015995
 40
0.8195224542
 40
0.8498174407
 40
0.8800013137
 40
0.9100913225
 40
0.9401068459
 40
0.9700689673
 40
1.0
 40
1.0
 40
1.0
 40
1.0
 10
9.7748688075
 20
10.0578825605
 30
0.0
 10
9.7633886337
 20
10.0586787132
 30
0.0
 10
9.7404217483
 20
10.0611061207
 30
0.0
 10
9.7062448337
 20
10.0672038924
 30
0.0
 10
9.6724261509
 20
10.0757355246
 30
0.0
 10
9.6391444447
 20
10.0866561679
 30
0.0
 10
9.6065727828
 20
10.0999085073
 30
0.0
 10
9.5748812159
 20
10.115423189
 30
0.0
 10
9.5442349866
 20
10.1331190681
 30
0.0
 10
9.5147939166
 20
10.1529036563
 30
0.0
 10
9.4867115274
 20
10.1746736228
 30
0.0
 10
9.4601342686
 20
10.1983153273
 30
0.0
 10
9.4352007581
 20
10.2237054067
 30
0.0
 10
9.4120410732
 20
10.2507114157
 30
0.0
 10
9.3907760604
 20
10.2791924937
 30
0.0
 10
9.3715167061
 20
10.3090000954
 30
0.0
 10
9.354363583
 20
10.3399787734
 30
0.0
 10
9.3394063256
 20
10.3719669745
 30
0.0
 10
9.3267231647
 20
10.4047978707
 30
0.0
 10
9.3163805253
 20
10.4383002186
 30
0.0
 10
9.3084326438
 20
10.4722992302
 30
0.0
 10
9.3029212989
 20
10.5066174838
 30
0.0
 10
9.2998755985
 20
10.5410758393
 30
0.0
 10
9.299311815
 20
10.5754943582
 30
0.0
 10
9.3012332871
 20
10.6096932325
 30
0.0
 10
9.3056303864
 20
10.6434937135
 30
0.0
 10
9.3124805105
 20
10.676719047
 30
0.0
 10
9.3217482195
 20
10.709195401
 30
0.0
 10
9.3333853853
 20
10.7407527611
 30
0.0
 10
9.3473314779
 20
10.771225887
 30
0.0
 10
9.3635136521
 20
10.8004549739
 30
0.0
 10
9.381847899
 20
10.8282873207
 30
0.0
 10
9.4022365003
 20
10.854575168
 30
0.0
 10
9.4171358075
 20
10.8709878072
 30
0.0
 10
9.424884621
 20
10.8788858736
 30
0.0
  0
SPLINE
  5
387
100
AcDbEntity
  8
0
100
AcDbSpline
 62
7
  6
CONTINUOUS
 70
0
 71
3
 72
53
 73
49
 74
0
 42
0.0000001
 43
0.0000001
 44
0.0000000001
 40
0.0
 40
0.0
 40
0.0
 40
0.0
 40
0.0313771994
 40
0.0629451462
 40
0.0946926531
 40
0.1266017937
 40
0.1586499
 40
0.1908099757
 40
0.223051593
 40
0.2553418479
 40
0.2876463694
 40
0.3199303577
 40
0.3521596316
 40
0.3843016608
 40
0.4163265664
 40
0.4482080655
 40
0.4799243224
 40
0.5114587024
 40
0.5428003931
 40
0.5739448481
 40
0.5894476266
 40
0.6049023985
 40
0.6203104472
 40
0.6356734521
 40
0.650993487
 40
0.6662730071
 40
0.6815148199
 40
0.6967220709
 40
0.7118982204
 40
0.7270470045
 40
0.7421724093
 40
0.7572786385
 40
0.7723700682
 40
0.7874512102
 40
0.8025266751
 40
0.8176011242
 40
0.8326792257
 40
0.8477656179
 40
0.862864862
 40
0.8779813966
 40
0.8931195053
 40
0.9082832746
 40
0.9234765527
 40
0.9387029222
 40
0.9539656713
 40
0.9692677612
 40
0.9846117864
 40
1.0
 40
1.0
 40
1.0
 40
1.0
 10
9.7748688075
 20
10.2346469971
 30
0.0
 10
9.7657568928
 20
10.2352789106
 30
0.0
 10
9.7475250642
 20
10.2373814091
 30
0.0
 10
9.7205012236
 20
10.2429887706
 30
0.0
 10
9.6939303195
 20
10.2510127393
 30
0.0
 10
9.6680361907
 20
10.2613860017
 30
0.0
 10
9.6430332614
 20
10.2740217277
 30
0.0
 10
9.6191294697
 20
10.2888144931
 30
0.0
 10
9.596523375
 20
10.3056411179
 30
0.0
 10
9.5754027475
 20
10.3243614943
 30
0.0
 10
9.5559430831
 20
10.34481996
 30
0.0
 10
9.5383061935
 20
10.3668465131
 30
0.0
 10
9.5226387051
 20
10.3902580769
 30
0.0
 10
9.5090710549
 20
10.4148601718
 30
0.0
 10
9.4977163862
 20
10.4404484243
 30
0.0
 10
9.4886694329
 20
10.4668102092
 30
0.0
 10
9.4820059448
 20
10.4937263148
 30
0.0
 10
9.477782074
 20
10.5209733449
 30
0.0
 10
9.4760333731
 20
10.548323006
 30
0.0
 10
9.4766531702
 20
10.5710516944
 30
0.0
 10
9.4783966401
 20
10.5890504756
 30
0.0
 10
9.4803205097
 20
10.6024146822
 30
0.0
 10
9.4828585507
 20
10.6156342978
 30
0.0
 10
9.4860055704
 20
10.6286820924
 30
0.0
 10
9.4897549822
 20
10.6415307581
 30
0.0
 10
9.4940989528
 20
10.6541535278
 30
0.0
 10
9.4990285244
 20
10.6665240265
 30
0.0
 10
9.504533387
 20
10.6786164536
 30
0.0
 10
9.5106020384
 20
10.6904055912
 30
0.0
 10
9.5172219093
 20
10.7018667917
 30
0.0
 10
9.5243791585
 20
10.7129761492
 30
0.0
 10
9.5320588272
 20
10.7237104994
 30
0.0
 10
9.5402449676
 20
10.734047383
 30
0.0
 10
9.5489204652
 20
10.7439652435
 30
0.0
 10
9.5580671856
 20
10.7534434108
 30
0.0
 10
9.5676661017
 20
10.7624620411
 30
0.0
 10
9.5776971484
 20
10.7710023367
 30
0.0
 10
9.5881393589
 20
10.7790465147
 30
0.0
 10
9.5989709873
 20
10.7865777243
 30
0.0
 10
9.6101693982
 20
10.793580282
 30
0.0
 10
9.6217111912
 20
10.8000396292
 30
0.0
 10
9.6335723157
 20
10.8059422266
 30
0.0
 10
9.6457279935
 20
10.8112757989
 30
0.0
 10
9.6581528433
 20
10.816029286
 30
0.0
 10
9.6708209393
 20
10.8201927109
 30
0.0
 10
9.6837059344
 20
10.8237574419
 30
0.0
 10
9.6967805479
 20
10.8267160832
 30
0.0
 10
9.7055931282
 20
10.8282780999
 30
0.0
 10
9.7100209034
 20
10.8289565948
 30
0.0
  0
SPLINE
  5
388
100
AcDbEntity
  8
0
100
AcDbSpline
 62
7
  6
CONTINUOUS
 70
0
 71
3
 72
39
 73
35
 74
0
 42
0.0000001
 43
0.0000001
 44
0.0000000001
 40
0.0
 40
0.0
 40
0.0
 40
0.0
 40
0.0313679992
 40
0.0629227441
 40
0.0946538169
 40
0.1265442552
 40
0.1585727387
 40
0.1907137835
 40
0.2229386054
 40
0.2552159856
 40
0.2875131845
 40
0.3197968915
 40
0.3520341846
 40
0.3841934824
 40
0.4162454704
 40
0.4481639763
 40
0.4799267774
 40
0.5115163261
 40
0.5429203519
 40
0.574132327
 40
0.6051517777
 40
0.6359844155
 40
0.6666420581
 40
0.6971423435
 40
0.7275082361
 40
0.7577673125
 40
0.7879508574
 40
0.818092804
 40
0.8482285534
 40
0.8783937245
 40
0.9086228982
 40
0.9389484072
 40
0.9693992216
 40
1.0
 40
1.0
 40
1.0
 40
1.0
 10
9.8023036036
 20
10.2829102486
 30
0.0
 10
9.7940387698
 20
10.2834834168
 30
0.0
 10
9.7775021413
 20
10.2853739064
 30
0.0
 10
9.7529800689
 20
10.2903880541
 30
0.0
 10
9.7288513667
 20
10.2975491423
 30
0.0
 10
9.705310632
 20
10.3067996701
 30
0.0
 10
9.682544557
 20
10.3180655557
 30
0.0
 10
9.6607344064
 20
10.3312567569
 30
0.0
 10
9.6400536093
 20
10.3462680539
 30
0.0
 10
9.6206667134
 20
10.3629798643
 30
0.0
 10
9.602727926
 20
10.3812590812
 30
0.0
 10
9.5863799884
 20
10.400960211
 30
0.0
 10
9.5717530893
 20
10.4219265314
 30
0.0
 10
9.5589638024
 20
10.4439912714
 30
0.0
 10
9.5481140997
 20
10.466978889
 30
0.0
 10
9.5392906543
 20
10.4907065131
 30
0.0
 10
9.5325641626
 20
10.51498535
 30
0.0
 10
9.5279886484
 20
10.5396221152
 30
0.0
 10
9.5256010807
 20
10.5644205783
 30
0.0
 10
9.5254211213
 20
10.5891830963
 30
0.0
 10
9.5274508961
 20
10.6137121423
 30
0.0
 10
9.5316748195
 20
10.6378118794
 30
0.0
 10
9.5380598114
 20
10.6612897162
 30
0.0
 10
9.5465555127
 20
10.6839578251
 30
0.0
 10
9.5570945195
 20
10.7056347006
 30
0.0
 10
9.569592907
 20
10.726146666
 30
0.0
 10
9.5839509505
 20
10.7453292728
 30
0.0
 10
9.6000538876
 20
10.7630286748
 30
0.0
 10
9.6177727239
 20
10.7791030209
 30
0.0
 10
9.6369654998
 20
10.7934235836
 30
0.0
 10
9.6574781787
 20
10.8058757311
 30
0.0
 10
9.6791470063
 20
10.8163601815
 30
0.0
 10
9.7017956848
 20
10.8247929086
 30
0.0
 10
9.7173920618
 20
10.8289925142
 30
0.0
 10
9.7252846179
 20
10.8307323767
 30
0.0
  0
SPLINE
  5
389
100
AcDbEntity
  8
0
100
AcDbSpline
 62
7
  6
CONTINUOUS
 70
0
 71
3
 72
48
 73
44
 74
0
 42
0.0000001
 43
0.0000001
 44
0.0000000001
 40
0.0
 40
0.0
 40
0.0
 40
0.0
 40
0.006481188
 40
0.0129999638
 40
0.0195932007
 40
0.0262964454
 40
0.0331433209
 40
0.0401651732
 40
0.0548393394
 40
0.0625481032
 40
0.0705309081
 40
0.0788060032
 40
0.0873893816
 40
0.0962947948
 40
0.1055341057
 40
0.1151174203
 40
0.1250531725
 40
0.1353484729
 40
0.1460090706
 40
0.1570395616
 40
0.1684435852
 40
0.180223726
 40
0.1923818097
 40
0.2178339163
 40
0.2448017111
 40
0.2732760037
 40
0.3032396889
 40
0.3346688569
 40
0.3675336267
 40
0.4017988305
 40
0.4374246424
 40
0.4743670507
 40
0.5125782209
 40
0.552006815
 40
0.5925983444
 40
0.6342954336
 40
0.6770380347
 40
0.7207636374
 40
0.7654074614
 40
0.8109027832
 40
0.8571810215
 40
0.9041712395
 40
1.0
 40
1.0
 40
1.0
 40
1.0
 10
10.9368148465
 20
11.431530976
 30
0.0
 10
10.9368148531
 20
11.4329118327
 30
0.0
 10
10.9367050542
 20
11.435682791
 30
0.0
 10
10.9362115929
 20
11.4398320407
 30
0.0
 10
10.9353896667
 20
11.4439772728
 30
0.0
 10
10.9342398175
 20
11.4481160352
 30
0.0
 10
10.9327628714
 20
11.4522467034
 30
0.0
 10
10.9303236162
 20
11.4578215565
 30
0.0
 10
10.9272448436
 20
11.4632995755
 30
0.0
 10
10.923605837
 20
11.4686511349
 30
0.0
 10
10.9205099892
 20
11.4727151075
 30
0.0
 10
10.9170944784
 20
11.4767606864
 30
0.0
 10
10.9133604945
 20
11.4807866876
 30
0.0
 10
10.9093097624
 20
11.4847915107
 30
0.0
 10
10.9049439363
 20
11.4887736119
 30
0.0
 10
10.9002648183
 20
11.4927313923
 30
0.0
 10
10.8952743872
 20
11.4966633501
 30
0.0
 10
10.8899746565
 20
11.500567848
 30
0.0
 10
10.8843678332
 20
11.5044433403
 30
0.0
 10
10.8784562372
 20
11.5082882769
 30
0.0
 10
10.8722422786
 20
11.5121010162
 30
0.0
 10
10.8657285482
 20
11.5158800969
 30
0.0
 10
10.8565062288
 20
11.520949316
 30
0.0
 10
10.8442329865
 20
11.5271773391
 30
0.0
 10
10.8285720925
 20
11.534381914
 30
0.0
 10
10.8117866685
 20
11.5414154533
 30
0.0
 10
10.7939045626
 20
11.5482662291
 30
0.0
 10
10.7749551751
 20
11.5549228175
 30
0.0
 10
10.7549698905
 20
11.5613740642
 30
0.0
 10
10.7339818725
 20
11.5676091597
 30
0.0
 10
10.7120260151
 20
11.5736176288
 30
0.0
 10
10.6891388613
 20
11.5793893638
 30
0.0
 10
10.6653585511
 20
11.5849146524
 30
0.0
 10
10.6407247544
 20
11.5901842149
 30
0.0
 10
10.6152785855
 20
11.5951891893
 30
0.0
 10
10.5890625267
 20
11.5999211537
 30
0.0
 10
10.5621203626
 20
11.6043721451
 30
0.0
 10
10.53449712
 20
11.6085346896
 30
0.0
 10
10.5062389544
 20
11.612401799
 30
0.0
 10
10.4773931005
 20
11.6159669599
 30
0.0
 10
10.4480077972
 20
11.619224192
 30
0.0
 10
10.4079129625
 20
11.6231748883
 30
0.0
 10
10.3775791592
 20
11.625618302
 30
0.0
 10
10.3572111782
 20
11.6270308263
 30
0.0
  0
SPLINE
  5
38A
100
AcDbEntity
  8
0
100
AcDbSpline
 62
7
  6
CONTINUOUS
 70
0
 71
3
 72
42
 73
38
 74
0
 42
0.0000001
 43
0.0000001
 44
0.0000000001
 40
0.0
 40
0.0
 40
0.0
 40
0.0
 40
0.0311444313
 40
0.0467772059
 40
0.0624471389
 40
0.0938918327
 40
0.1254739639
 40
0.1571813426
 40
0.1889991985
 40
0.220910592
 40
0.2528967375
 40
0.2849373932
 40
0.3170112593
 40
0.3490963946
 40
0.3811706404
 40
0.4132120483
 40
0.445199304
 40
0.4771121436
 40
0.5089317548
 40
0.540641158
 40
0.5722255599
 40
0.6036726744
 40
0.6349730021
 40
0.6661200634
 40
0.6971105766
 40
0.7279445747
 40
0.758625455
 40
0.7891599562
 40
0.8195580583
 40
0.849832804
 40
0.8649315684
 40
0.8800056535
 40
0.9100837076
 40
0.9400929733
 40
0.9550814982
 40
0.970061185
 40
1.0
 40
1.0
 40
1.0
 40
1.0
 10
9.810577784
 20
10.3217821825
 30
0.0
 10
9.8045749066
 20
10.3221984834
 30
0.0
 10
9.7955773743
 20
10.3231530668
 30
0.0
 10
9.7836638415
 20
10.3250713885
 30
0.0
 10
9.771769222
 20
10.3274264981
 30
0.0
 10
9.7570200989
 20
10.3311772252
 30
0.0
 10
9.7396303019
 20
10.3369342936
 30
0.0
 10
9.7226193776
 20
10.3439223933
 30
0.0
 10
9.7060785368
 20
10.3521040463
 30
0.0
 10
9.6900957691
 20
10.3614355539
 30
0.0
 10
9.6747562743
 20
10.3718670867
 30
0.0
 10
9.6601417717
 20
10.3833429834
 30
0.0
 10
9.6463301361
 20
10.3958020382
 30
0.0
 10
9.6333949692
 20
10.4091778257
 30
0.0
 10
9.6214052164
 20
10.4233990518
 30
0.0
 10
9.6104248018
 20
10.4383899301
 30
0.0
 10
9.6005122904
 20
10.4540705812
 30
0.0
 10
9.5917205787
 20
10.4703574539
 30
0.0
 10
9.5840966143
 20
10.4871637654
 30
0.0
 10
9.5776811462
 20
10.5043999578
 30
0.0
 10
9.5725085075
 20
10.5219741689
 30
0.0
 10
9.5686064312
 20
10.539792716
 30
0.0
 10
9.5659958989
 20
10.5577605875
 30
0.0
 10
9.5646910253
 20
10.5757819447
 30
0.0
 10
9.5646989739
 20
10.5937606212
 30
0.0
 10
9.5660199205
 20
10.6116006496
 30
0.0
 10
9.5686470072
 20
10.6292067003
 30
0.0
 10
9.572566498
 20
10.6464848461
 30
0.0
 10
9.5777573575
 20
10.6633421109
 30
0.0
 10
9.5831255794
 20
10.6769786484
 30
0.0
 10
9.5880243489
 20
10.6875831707
 30
0.0
 10
9.5933110788
 20
10.6979571098
 30
0.0
 10
9.6006513926
 20
10.7105049356
 30
0.0
 10
9.6089357931
 20
10.7224305159
 30
0.0
 10
9.6160947339
 20
10.7315461311
 30
0.0
 10
9.623595176
 20
10.7403642173
 30
0.0
 10
9.6296043606
 20
10.7466419234
 30
0.0
 10
9.6337647777
 20
10.7506606028
 30
0.0
  0
SPLINE
  5
38B
100
AcDbEntity
  8
0
100
AcDbSpline
 62
7
  6
CONTINUOUS
 70
0
 71
3
 72
23
 73
19
 74
0
 42
0.0000001
 43
0.0000001
 44
0.0000000001
 40
0.0
 40
0.0
 40
0.0
 40
0.0
 40
0.0639437058
 40
0.1275045596
 40
0.1906968641
 40
0.2535439717
 40
0.3160809498
 40
0.3783526048
 40
0.440412312
 40
0.5023203731
 40
0.5641420918
 40
0.6259456337
 40
0.6877997677
 40
0.7497715843
 40
0.8119242793
 40
0.8743151067
 40
0.936993584
 40
1.0
 40
1.0
 40
1.0
 40
1.0
 10
9.7748688075
 20
10.2346469971
 30
0.0
 10
9.783461403
 20
10.2340510986
 30
0.0
 10
9.8006558217
 20
10.2335994182
 30
0.0
 10
9.8263263268
 20
10.2351682114
 30
0.0
 10
9.8516148731
 20
10.2389733622
 30
0.0
 10
9.8763290592
 20
10.2449872486
 30
0.0
 10
9.9002835814
 20
10.253165165
 30
0.0
 10
9.9232979806
 20
10.2634461104
 30
0.0
 10
9.9451989536
 20
10.2757531468
 30
0.0
 10
9.9658214189
 20
10.2899939865
 30
0.0
 10
9.9850099405
 20
10.3060615769
 30
0.0
 10
10.0026199427
 20
10.3238349497
 30
0.0
 10
10.0185187971
 20
10.3431801987
 30
0.0
 10
10.0325868612
 20
10.3639515913
 30
0.0
 10
10.044718452
 20
10.3859923542
 30
0.0
 10
10.054822784
 20
10.4091370762
 30
0.0
 10
10.0628237915
 20
10.4332089056
 30
0.0
 10
10.0667063315
 20
10.4497148372
 30
0.0
 10
10.0682818265
 20
10.4580543007
 30
0.0
  0
SPLINE
  5
38C
100
AcDbEntity
  8
0
100
AcDbSpline
 62
7
  6
CONTINUOUS
 70
0
 71
3
 72
23
 73
19
 74
0
 42
0.0000001
 43
0.0000001
 44
0.0000000001
 40
0.0
 40
0.0
 40
0.0
 40
0.0
 40
0.0639778694
 40
0.1275890633
 40
0.1908461306
 40
0.2537691612
 40
0.3163889059
 40
0.3787446545
 40
0.4408835275
 40
0.5028591082
 40
0.5647298933
 40
0.6265575544
 40
0.6884050742
 40
0.7503348318
 40
0.8124067091
 40
0.8746762992
 40
0.9371932784
 40
1.0
 40
1.0
 40
1.0
 40
1.0
 10
9.8023036036
 20
10.2829102486
 30
0.0
 10
9.8099243374
 20
10.2823817489
 30
0.0
 10
9.8251732436
 20
10.2819527403
 30
0.0
 10
9.847951104
 20
10.2832143538
 30
0.0
 10
9.8704188797
 20
10.2863740446
 30
0.0
 10
9.8924202145
 20
10.2914108414
 30
0.0
 10
9.9138042242
 20
10.2982904431
 30
0.0
 10
9.9344235642
 20
10.3069659804
 30
0.0
 10
9.9541362301
 20
10.3173780638
 30
0.0
 10
9.9728063624
 20
10.3294552554
 30
0.0
 10
9.9903052645
 20
10.3431145495
 30
0.0
 10
10.0065123135
 20
10.3582619471
 30
0.0
 10
10.0213158225
 20
10.3747931023
 30
0.0
 10
10.0346138681
 20
10.3925941141
 30
0.0
 10
10.0463149723
 20
10.4115421005
 30
0.0
 10
10.056338935
 20
10.4315070005
 30
0.0
 10
10.0646165316
 20
10.4523491666
 30
0.0
 10
10.0689235562
 20
10.4667025363
 30
0.0
 10
10.0707702289
 20
10.473970811
 30
0.0
  0
SPLINE
  5
38D
100
AcDbEntity
  8
0
100
AcDbSpline
 62
7
  6
CONTINUOUS
 70
0
 71
3
 72
21
 73
17
 74
0
 42
0.0000001
 43
0.0000001
 44
0.0000000001
 40
0.0
 40
0.0
 40
0.0
 40
0.0
 40
0.1274737337
 40
0.2540668326
 40
0.3170668527
 40
0.3798654268
 40
0.4424734291
 40
0.5049033655
 40
0.5671697542
 40
0.6292888982
 40
0.691278661
 40
0.7531583401
 40
0.8149484594
 40
0.8766705207
 40
0.9383467752
 40
1.0
 40
1.0
 40
1.0
 40
1.0
 10
9.810577784
 20
10.3217821825
 30
0.0
 10
9.8187681022
 20
10.321214182
 30
0.0
 10
9.8351599591
 20
10.3208942815
 30
0.0
 10
9.8555493682
 20
10.3225660059
 30
0.0
 10
9.8716060338
 20
10.3251391761
 30
0.0
 10
9.8834779491
 20
10.3276764752
 30
0.0
 10
9.8951663099
 20
10.3308177179
 30
0.0
 10
9.9066420033
 20
10.334555083
 30
0.0
 10
9.9178760476
 20
10.3388791204
 30
0.0
 10
9.9288401659
 20
10.3437789731
 30
0.0
 10
9.9395066952
 20
10.3492423783
 30
0.0
 10
9.9498487843
 20
10.3552555501
 30
0.0
 10
9.9598403592
 20
10.3618033167
 30
0.0
 10
9.9694562977
 20
10.3688693224
 30
0.0
 10
9.9786720286
 20
10.3764354611
 30
0.0
 10
9.9845347846
 20
10.3818013301
 30
0.0
 10
9.9873907902
 20
10.3845600369
 30
0.0
  0
SPLINE
  5
38E
100
AcDbEntity
  8
0
100
AcDbSpline
 62
7
  6
CONTINUOUS
 70
0
 71
3
 72
88
 73
84
 74
0
 42
0.0000001
 43
0.0000001
 44
0.0000000001
 40
0.0
 40
0.0
 40
0.0
 40
0.0
 40
0.003930264
 40
0.0080229893
 40
0.0122816699
 40
0.0167092906
 40
0.0213083592
 40
0.0260807859
 40
0.0310278711
 40
0.0361505024
 40
0.0414491309
 40
0.0469238842
 40
0.0525745293
 40
0.0584005294
 40
0.0644010908
 40
0.0705751319
 40
0.0834379405
 40
0.0969765212
 40
0.1111750027
 40
0.1260148841
 40
0.1414753297
 40
0.1575334123
 40
0.1741643165
 40
0.1913415102
 40
0.2090368982
 40
0.2272209622
 40
0.2458628849
 40
0.2649306654
 40
0.2843912269
 40
0.3042105194
 40
0.3243536166
 40
0.3447848143
 40
0.3654677248
 40
0.3863653695
 40
0.4074402693
 40
0.4286545342
 40
0.4499699521
 40
0.4927496792
 40
0.5354713451
 40
0.5567143152
 40
0.5778273863
 40
0.598772579
 40
0.6195123032
 40
0.6400094479
 40
0.660227471
 40
0.6801304911
 40
0.6996833802
 40
0.7188518594
 40
0.7376025987
 40
0.7559033206
 40
0.7737229044
 40
0.7910314996
 40
0.8078006469
 40
0.824003412
 40
0.8396145336
 40
0.8546105961
 40
0.8689702249
 40
0.8826743155
 40
0.8957063142
 40
0.9019660885
 40
0.9080529866
 40
0.9139658231
 40
0.9197036781
 40
0.9252658576
 40
0.9306520039
 40
0.9358620324
 40
0.9408962414
 40
0.9457553027
 40
0.9504403131
 40
0.9549528783
 40
0.9592951042
 40
0.9634697515
 40
0.967480226
 40
0.9713307349
 40
0.975026349
 40
0.978573111
 40
0.9819781882
 40
0.9852499319
 40
0.9883980657
 40
0.9914337221
 40
0.99436956
 40
0.9972197652
 40
1.0
 40
1.0
 40
1.0
 40
1.0
 10
12.900942138
 20
8.5107430009
 30
0.0
 10
12.9028037869
 20
8.5125412156
 30
0.0
 10
12.9065251287
 20
8.5162944002
 30
0.0
 10
12.9119929418
 20
8.5222568031
 30
0.0
 10
12.9174551904
 20
8.5286612504
 30
0.0
 10
12.9229090979
 20
8.5355044118
 30
0.0
 10
12.9283522227
 20
8.5427831052
 30
0.0
 10
12.9337820292
 20
8.5504939442
 30
0.0
 10
12.9391960304
 20
8.5586332535
 30
0.0
 10
12.9445915548
 20
8.5671971941
 30
0.0
 10
12.9499661148
 20
8.5761816466
 30
0.0
 10
12.9553170943
 20
8.5855823583
 30
0.0
 10
12.9606419664
 20
8.5953948348
 30
0.0
 10
12.9659381788
 20
8.6056143836
 30
0.0
 10
12.9712031859
 20
8.6162361384
 30
0.0
 10
12.9782749612
 20
8.6311319243
 30
0.0
 10
12.9870032066
 20
8.6507328716
 30
0.0
 10
12.9971750221
 20
8.6754631965
 30
0.0
 10
13.0071631705
 20
8.7016663584
 30
0.0
 10
13.0169483542
 20
8.7292920848
 30
0.0
 10
13.0265116613
 20
8.7582875986
 30
0.0
 10
13.0358345958
 20
8.7885973246
 30
0.0
 10
13.0448991227
 20
8.8201631285
 30
0.0
 10
13.0536877096
 20
8.8529244031
 30
0.0
 10
13.0621833624
 20
8.8868182042
 30
0.0
 10
13.0703696555
 20
8.9217793802
 30
0.0
 10
13.0782307645
 20
8.9577407045
 30
0.0
 10
13.0857514969
 20
8.9946330089
 30
0.0
 10
13.0929173209
 20
9.0323853192
 30
0.0
 10
13.0997143922
 20
9.0709249929
 30
0.0
 10
13.1061295856
 20
9.1101778593
 30
0.0
 10
13.1121505173
 20
9.1500683663
 30
0.0
 10
13.1177655654
 20
9.1905197276
 30
0.0
 10
13.1229638971
 20
9.231454078
 30
0.0
 10
13.1277354722
 20
9.2727926007
 30
0.0
 10
13.1320711254
 20
9.3144557666
 30
0.0
 10
13.1372654481
 20
9.3703972045
 30
0.0
 10
13.142611372
 20
9.4405447629
 30
0.0
 10
13.146418792
 20
9.5107448865
 30
0.0
 10
13.1485226478
 20
9.5667348724
 30
0.0
 10
13.1496215544
 20
9.6084087781
 30
0.0
 10
13.1502424059
 20
9.6497610687
 30
0.0
 10
13.1503839975
 20
9.6907121914
 30
0.0
 10
13.1500460919
 20
9.7311832956
 30
0.0
 10
13.1492293685
 20
9.771096479
 30
0.0
 10
13.1479354361
 20
9.8103749125
 30
0.0
 10
13.1461668272
 20
9.8489429957
 30
0.0
 10
13.1439269931
 20
9.8867265028
 30
0.0
 10
13.1412203017
 20
9.9236527303
 30
0.0
 10
13.1380520307
 20
9.9596506401
 30
0.0
 10
13.1344283535
 20
9.9946509983
 30
0.0
 10
13.1303563285
 20
10.02858651
 30
0.0
 10
13.1258438862
 20
10.0613919544
 30
0.0
 10
13.1208998139
 20
10.0930043135
 30
0.0
 10
13.1155337376
 20
10.1233629133
 30
0.0
 10
13.1097561049
 20
10.1524095236
 30
0.0
 10
13.103578169
 20
10.1800885964
 30
0.0
 10
13.0970119232
 20
10.206346999
 30
0.0
 10
13.0911512513
 20
10.2272750673
 30
0.0
 10
13.0862647002
 20
10.2432587214
 30
0.0
 10
13.0825598868
 20
10.2546993275
 30
0.0
 10
13.0787677529
 20
10.2657485374
 30
0.0
 10
13.0748901436
 20
10.2764010888
 30
0.0
 10
13.0709288511
 20
10.2866518677
 30
0.0
 10
13.0668858528
 20
10.2964959981
 30
0.0
 10
13.0627630115
 20
10.3059287689
 30
0.0
 10
13.0585623315
 20
10.3149456986
 30
0.0
 10
13.0542858023
 20
10.3235425037
 30
0.0
 10
13.0499354031
 20
10.3317150906
 30
0.0
 10
13.0455132459
 20
10.339459621
 30
0.0
 10
13.0410212917
 20
10.3467723948
 30
0.0
 10
13.0364617021
 20
10.3536500069
 30
0.0
 10
13.0318364741
 20
10.3600891782
 30
0.0
 10
13.0271477165
 20
10.3660868855
 30
0.0
 10
13.0223975001
 20
10.3716402913
 30
0.0
 10
13.0175878262
 20
10.3767466867
 30
0.0
 10
13.0127208203
 20
10.3814036443
 30
0.0
 10
13.0077984198
 20
10.3856087128
 30
0.0
 10
13.0028227527
 20
10.3893597549
 30
0.0
 10
12.9977958753
 20
10.3926545507
 30
0.0
 10
12.9927198463
 20
10.3954911226
 30
0.0
 10
12.9875974812
 20
10.3978673917
 30
0.0
 10
12.9841158923
 20
10.3991572223
 30
0.0
 10
12.9823738103
 20
10.3997206963
 30
0.0
  0
SPLINE
  5
38F
100
AcDbEntity
  8
0
100
AcDbSpline
 62
7
  6
CONTINUOUS
 70
0
 71
3
 72
15
 73
11
 74
0
 42
0.0000001
 43
0.0000001
 44
0.0000000001
 40
0.0
 40
0.0
 40
0.0
 40
0.0
 40
0.1455865197
 40
0.284385181
 40
0.4167401163
 40
0.5430848489
 40
0.6639357201
 40
0.7798945427
 40
0.8916537614
 40
1.0
 40
1.0
 40
1.0
 40
1.0
 10
12.900942138
 20
8.5107430009
 30
0.0
 10
12.8988711066
 20
8.508742538
 30
0.0
 10
12.8947308412
 20
8.5049311289
 30
0.0
 10
12.8883706079
 20
8.4996820333
 30
0.0
 10
12.8820159525
 20
8.4950445834
 30
0.0
 10
12.8756708131
 20
8.4910222963
 30
0.0
 10
12.8693385869
 20
8.4876183438
 30
0.0
 10
12.863022692
 20
8.484835578
 30
0.0
 10
12.8567276731
 20
8.4826772954
 30
0.0
 10
12.8524913498
 20
8.4816428648
 30
0.0
 10
12.8503874178
 20
8.4812361946
 30
0.0
  0
SPLINE
  5
390
100
AcDbEntity
  8
0
100
AcDbSpline
 62
7
  6
CONTINUOUS
 70
0
 71
3
 72
23
 73
19
 74
0
 42
0.0000001
 43
0.0000001
 44
0.0000000001
 40
0.0
 40
0.0
 40
0.0
 40
0.0
 40
0.0781368527
 40
0.1532317188
 40
0.225404452
 40
0.2947998426
 40
0.3615916891
 40
0.4259789642
 40
0.4881874855
 40
0.5484707583
 40
0.6071107438
 40
0.6644176967
 40
0.7207260077
 40
0.7763899872
 40
0.8317774567
 40
0.887262179
 40
0.9432158246
 40
1.0
 40
1.0
 40
1.0
 40
1.0
 10
12.900942138
 20
8.7652644712
 30
0.0
 10
12.8996847522
 20
8.7640499297
 30
0.0
 10
12.8971707259
 20
8.7617172841
 30
0.0
 10
12.8933242135
 20
8.7584532494
 30
0.0
 10
12.8894802502
 20
8.755496634
 30
0.0
 10
12.8856405715
 20
8.7528491045
 30
0.0
 10
12.8818067793
 20
8.7505118699
 30
0.0
 10
12.877980327
 20
8.7484861895
 30
0.0
 10
12.874162796
 20
8.7467731625
 30
0.0
 10
12.8703558247
 20
8.7453738664
 30
0.0
 10
12.8665611015
 20
8.7442894404
 30
0.0
 10
12.8627804997
 20
8.7435206692
 30
0.0
 10
12.8590159585
 20
8.7430683537
 30
0.0
 10
12.8552695736
 20
8.7429330377
 30
0.0
 10
12.8515435523
 20
8.7431148523
 30
0.0
 10
12.8478400468
 20
8.7436138813
 30
0.0
 10
12.8441615258
 20
8.744429543
 30
0.0
 10
12.8417491626
 20
8.7451771589
 30
0.0
 10
12.8405513704
 20
8.7456006388
 30
0.0
  0
SPLINE
  5
391
100
AcDbEntity
  8
0
100
AcDbSpline
 62
7
  6
CONTINUOUS
 70
0
 71
3
 72
52
 73
48
 74
0
 42
0.0000001
 43
0.0000001
 44
0.0000000001
 40
0.0
 40
0.0
 40
0.0
 40
0.0
 40
0.0311427988
 40
0.0624387274
 40
0.0938816846
 40
0.1254621074
 40
0.1571677549
 40
0.1889838786
 40
0.2208935331
 40
0.2528779367
 40
0.2849168473
 40
0.316988967
 40
0.3490723557
 40
0.3811448555
 40
0.41318452
 40
0.4451700353
 40
0.4770811391
 40
0.5088990202
 40
0.5406066992
 40
0.5721893849
 40
0.6036347899
 40
0.6193054315
 40
0.6349384403
 40
0.6505331025
 40
0.6660889062
 40
0.6816055432
 40
0.6970829112
 40
0.7125211194
 40
0.7279204883
 40
0.7432815473
 40
0.7586050352
 40
0.7738918989
 40
0.7891432881
 40
0.8043605493
 40
0.8195452217
 40
0.8346990299
 40
0.8498238734
 40
0.8649218171
 40
0.8799950819
 40
0.8950460323
 40
0.9100771614
 40
0.9250910782
 40
0.9400904939
 40
0.9550782048
 40
0.9700570753
 40
0.9850300227
 40
1.0
 40
1.0
 40
1.0
 40
1.0
 10
10.3702902819
 20
6.1718409278
 30
0.0
 10
10.3475642332
 20
6.1734169846
 30
0.0
 10
10.3020988459
 20
6.1782403292
 30
0.0
 10
10.2344519942
 20
6.1903903316
 30
0.0
 10
10.1675297045
 20
6.2074089888
 30
0.0
 10
10.1016934191
 20
6.2292045784
 30
0.0
 10
10.0372928695
 20
6.2556604115
 30
0.0
 10
9.974671622
 20
6.2866349369
 30
0.0
 10
9.9141632292
 20
6.3219625836
 30
0.0
 10
9.8560901771
 20
6.3614548199
 30
0.0
 10
9.8007617925
 20
6.4049007964
 30
0.0
 10
9.7484729892
 20
6.4520689262
 30
0.0
 10
9.6995023111
 20
6.5027076162
 30
0.0
 10
9.6541108643
 20
6.5565470493
 30
0.0
 10
9.6125405939
 20
6.6133002545
 30
0.0
 10
9.5750132413
 20
6.6726648316
 30
0.0
 10
9.5417290848
 20
6.7343245248
 30
0.0
 10
9.5128658097
 20
6.797950583
 30
0.0
 10
9.4885777151
 20
6.8632046341
 30
0.0
 10
9.4689949647
 20
6.9297365082
 30
0.0
 10
9.4566691439
 20
6.9860229173
 30
0.0
 10
9.4492626693
 20
7.0313298611
 30
0.0
 10
9.4449432264
 20
7.0653702507
 30
0.0
 10
9.4418595084
 20
7.0994600237
 30
0.0
 10
9.4400154774
 20
7.1335542011
 30
0.0
 10
9.439413668
 20
7.1676071207
 30
0.0
 10
9.4400549476
 20
7.2015733505
 30
0.0
 10
9.4419384436
 20
7.2354075233
 30
0.0
 10
9.4450616491
 20
7.2690644626
 30
0.0
 10
9.4494204549
 20
7.302499216
 30
0.0
 10
9.4550090809
 20
7.335667124
 30
0.0
 10
9.4618200413
 20
7.3685238926
 30
0.0
 10
9.4698442682
 20
7.401025635
 30
0.0
 10
9.4790711183
 20
7.4331289194
 30
0.0
 10
9.48948826
 20
7.4647908638
 30
0.0
 10
9.5010817752
 20
7.4959691771
 30
0.0
 10
9.5138362228
 20
7.5266221938
 30
0.0
 10
9.5277346144
 20
7.55670894
 30
0.0
 10
9.5427583528
 20
7.5861892328
 30
0.0
 10
9.5588873793
 20
7.6150236818
 30
0.0
 10
9.5761002017
 20
7.6431737299
 30
0.0
 10
9.5943738194
 20
7.670601759
 30
0.0
 10
9.6136838046
 20
7.6972711445
 30
0.0
 10
9.6340043444
 20
7.7231462032
 30
0.0
 10
9.6553084538
 20
7.7481924496
 30
0.0
 10
9.6775671646
 20
7.7723759718
 30
0.0
 10
9.6930245441
 20
7.7879033155
 30
0.0
 10
9.7009006488
 20
7.7955110649
 30
0.0
  0
SPLINE
  5
392
100
AcDbEntity
  8
0
100
AcDbSpline
 62
7
  6
CONTINUOUS
 70
0
 71
3
 72
54
 73
50
 74
0
 42
0.0000001
 43
0.0000001
 44
0.0000000001
 40
0.0
 40
0.0
 40
0.0
 40
0.0
 40
0.0077567088
 40
0.0152627141
 40
0.0225552299
 40
0.0296753336
 40
0.0366674886
 40
0.0435789006
 40
0.0504586169
 40
0.0573564215
 40
0.0643216682
 40
0.0714021759
 40
0.0786432376
 40
0.0860868885
 40
0.1017221981
 40
0.1099877179
 40
0.1185854304
 40
0.1275382954
 40
0.1368659434
 40
0.1465849625
 40
0.1567093349
 40
0.1672505227
 40
0.178217977
 40
0.1896191649
 40
0.2014599175
 40
0.2137445968
 40
0.2264761544
 40
0.2396564756
 40
0.2532862427
 40
0.267365288
 40
0.2818925077
 40
0.296866005
 40
0.3122832199
 40
0.344433922
 40
0.3783125216
 40
0.4138771947
 40
0.4510787045
 40
0.489861253
 40
0.5301631964
 40
0.5719176441
 40
0.6150529654
 40
0.6594932273
 40
0.705158593
 40
0.7519656763
 40
0.7998278213
 40
0.8486556882
 40
0.8983566267
 40
0.9488375059
 40
1.0
 40
1.0
 40
1.0
 40
1.0
 10
10.9368391007
 20
11.4218135554
 30
0.0
 10
10.9377310585
 20
11.4233261697
 30
0.0
 10
10.9393889243
 20
11.4263614359
 30
0.0
 10
10.9415108753
 20
11.4310107882
 30
0.0
 10
10.9432223126
 20
11.4356738782
 30
0.0
 10
10.9445216608
 20
11.4403478661
 30
0.0
 10
10.9454076773
 20
11.4450300623
 30
0.0
 10
10.9458793256
 20
11.4497174677
 30
0.0
 10
10.9459361999
 20
11.4544069266
 30
0.0
 10
10.9455780662
 20
11.4590952064
 30
0.0
 10
10.9448054931
 20
11.4637791475
 30
0.0
 10
10.9436192514
 20
11.468455638
 30
0.0
 10
10.9420204511
 20
11.4731220851
 30
0.0
 10
10.9392968977
 20
11.4794287781
 30
0.0
 10
10.9357637014
 20
11.4856131583
 30
0.0
 10
10.9315325325
 20
11.4916351627
 30
0.0
 10
10.9278958857
 20
11.496214806
 30
0.0
 10
10.9238576682
 20
11.500770062
 30
0.0
 10
10.919419719
 20
11.5052994202
 30
0.0
 10
10.9145845097
 20
11.5098006229
 30
0.0
 10
10.9093544548
 20
11.514271484
 30
0.0
 10
10.9037323165
 20
11.518709914
 30
0.0
 10
10.8977209127
 20
11.5231136479
 30
0.0
 10
10.8913233526
 20
11.5274805465
 30
0.0
 10
10.8845428977
 20
11.5318084026
 30
0.0
 10
10.8773830086
 20
11.536094992
 30
0.0
 10
10.8698473857
 20
11.540338195
 30
0.0
 10
10.861939868
 20
11.5445357527
 30
0.0
 10
10.8536645582
 20
11.5486855865
 30
0.0
 10
10.8450257012
 20
11.5527854973
 30
0.0
 10
10.8360277706
 20
11.5568333797
 30
0.0
 10
10.8266754071
 20
11.5608271831
 30
0.0
 10
10.8135555412
 20
11.5661518119
 30
0.0
 10
10.7962935737
 20
11.5726426486
 30
0.0
 10
10.7745260447
 20
11.5800786459
 30
0.0
 10
10.7514701494
 20
11.587251111
 30
0.0
 10
10.7271736994
 20
11.5941450303
 30
0.0
 10
10.7016868766
 20
11.6007459705
 30
0.0
 10
10.6750625035
 20
11.6070401007
 30
0.0
 10
10.6473557985
 20
11.6130142291
 30
0.0
 10
10.6186242811
 20
11.6186558333
 30
0.0
 10
10.5889276334
 20
11.6239530894
 30
0.0
 10
10.5583275734
 20
11.6288948957
 30
0.0
 10
10.5268877326
 20
11.6334708953
 30
0.0
 10
10.4946734721
 20
11.6376715203
 30
0.0
 10
10.4617519035
 20
11.641487944
 30
0.0
 10
10.4281913023
 20
11.6449122424
 30
0.0
 10
10.3940618189
 20
11.6479371568
 30
0.0
 10
10.3711159279
 20
11.649672817
 30
0.0
 10
10.3595611729
 20
11.650474142
 30
0.0
  0
SPLINE
  5
393
100
AcDbEntity
  8
0
100
AcDbSpline
 62
7
  6
CONTINUOUS
 70
0
 71
3
 72
32
 73
28
 74
0
 42
0.0000001
 43
0.0000001
 44
0.0000000001
 40
0.0
 40
0.0
 40
0.0
 40
0.0
 40
0.0689580691
 40
0.1020125467
 40
0.134153982
 40
0.1958595286
 40
0.225565724
 40
0.2545996134
 40
0.2830504735
 40
0.311014853
 40
0.3386004563
 40
0.365919722
 40
0.3930893859
 40
0.4202290632
 40
0.4474552958
 40
0.4748825429
 40
0.5026186523
 40
0.5307629413
 40
0.559406317
 40
0.5886286973
 40
0.618499331
 40
0.649076915
 40
0.7125260589
 40
0.7792592317
 40
0.8494115732
 40
0.9230106556
 40
1.0
 40
1.0
 40
1.0
 40
1.0
 10
10.5434297152
 20
6.9495159513
 30
0.0
 10
10.5470897043
 20
6.9513247564
 30
0.0
 10
10.5524087924
 20
6.9542040199
 30
0.0
 10
10.559131854
 20
6.9584370799
 30
0.0
 10
10.5653006155
 20
6.9627289271
 30
0.0
 10
10.5710003128
 20
6.967338403
 30
0.0
 10
10.5761581557
 20
6.9722668341
 30
0.0
 10
10.5796826536
 20
6.9760425024
 30
0.0
 10
10.5829105205
 20
6.9799417816
 30
0.0
 10
10.5858411624
 20
6.9839637125
 30
0.0
 10
10.5884755024
 20
6.9881065805
 30
0.0
 10
10.5908150205
 20
6.9923692743
 30
0.0
 10
10.5928620709
 20
6.9967507367
 30
0.0
 10
10.5946207296
 20
7.0012497132
 30
0.0
 10
10.5960949437
 20
7.0058656277
 30
0.0
 10
10.5972905838
 20
7.0105976394
 30
0.0
 10
10.5982140943
 20
7.0154453182
 30
0.0
 10
10.5988721257
 20
7.0204084905
 30
0.0
 10
10.5992732048
 20
7.0254870029
 30
0.0
 10
10.5994255656
 20
7.0306810286
 30
0.0
 10
10.599338166
 20
7.0359908537
 30
0.0
 10
10.5989099444
 20
7.043315306
 30
0.0
 10
10.5978038848
 20
7.0527770225
 30
0.0
 10
10.5956997911
 20
7.0644550727
 30
0.0
 10
10.5928919669
 20
7.07660007
 30
0.0
 10
10.5894713874
 20
7.0892153669
 30
0.0
 10
10.5868997094
 20
7.0977527335
 30
0.0
 10
10.5855435643
 20
7.1021043535
 30
0.0
  0
SPLINE
  5
394
100
AcDbEntity
  8
0
100
AcDbSpline
 62
7
  6
CONTINUOUS
 70
0
 71
3
 72
87
 73
83
 74
0
 42
0.0000001
 43
0.0000001
 44
0.0000000001
 40
0.0
 40
0.0
 40
0.0
 40
0.0
 40
0.0040523192
 40
0.0082800573
 40
0.0126870888
 40
0.0172766657
 40
0.0220514935
 40
0.0270136318
 40
0.0321644092
 40
0.0375046779
 40
0.0430348034
 40
0.0487547532
 40
0.0546641404
 40
0.0607621776
 40
0.0735192418
 40
0.0870146434
 40
0.1012326197
 40
0.1161540399
 40
0.131756823
 40
0.1480162689
 40
0.1649053244
 40
0.1823948249
 40
0.2004536966
 40
0.2190491315
 40
0.2381467448
 40
0.2577107139
 40
0.2777039154
 40
0.2980880602
 40
0.3188238161
 40
0.3398709254
 40
0.3611883197
 40
0.3827342303
 40
0.4044663062
 40
0.4263417259
 40
0.4703488816
 40
0.5144085915
 40
0.5581724732
 40
0.5798357098
 40
0.6012958946
 40
0.6225108964
 40
0.6434392141
 40
0.6640400873
 40
0.6842736095
 40
0.704100845
 40
0.7234839528
 40
0.7423863167
 40
0.76077267
 40
0.778609233
 40
0.7958638626
 40
0.8125062173
 40
0.8285079524
 40
0.8438429254
 40
0.8584874384
 40
0.8724205334
 40
0.8856243563
 40
0.8919484065
 40
0.8980851256
 40
0.9040333728
 40
0.9097923207
 40
0.9153615048
 40
0.9207407779
 40
0.9259304654
 40
0.9309312979
 40
0.9357445402
 40
0.9403720396
 40
0.9448162496
 40
0.949080413
 40
0.9531685454
 40
0.9570856409
 40
0.9608377515
 40
0.9644321118
 40
0.9678773505
 40
0.9711835478
 40
0.9774235657
 40
0.9803901672
 40
0.9832753475
 40
0.98609783
 40
0.9888777622
 40
0.9916363038
 40
0.9943951555
 40
0.9971760058
 40
1.0
 40
1.0
 40
1.0
 40
1.0
 10
12.900942138
 20
8.7652644712
 30
0.0
 10
12.9023592064
 20
8.7666332542
 30
0.0
 10
12.9051917073
 20
8.7694958739
 30
0.0
 10
12.9093494766
 20
8.774054276
 30
0.0
 10
12.9135026227
 20
8.7789642883
 30
0.0
 10
12.9176488009
 20
8.7842231178
 30
0.0
 10
12.9217860044
 20
8.7898280643
 30
0.0
 10
12.9259121016
 20
8.7957762986
 30
0.0
 10
12.9300250526
 20
8.8020647112
 30
0.0
 10
12.9341226344
 20
8.8086900546
 30
0.0
 10
12.938202743
 20
8.8156488501
 30
0.0
 10
12.9422632477
 20
8.8229374644
 30
0.0
 10
12.9463020174
 20
8.830552114
 30
0.0
 10
12.9517371532
 20
8.8412964581
 30
0.0
 10
12.9584479904
 20
8.8555251835
 30
0.0
 10
12.9662646239
 20
8.8735853542
 30
0.0
 10
12.9739448915
 20
8.8928414106
 30
0.0
 10
12.9814725449
 20
8.9132529431
 30
0.0
 10
12.988831647
 20
8.9347773238
 30
0.0
 10
12.9960065958
 20
8.9573694075
 30
0.0
 10
13.0029821854
 20
8.9809817563
 30
0.0
 10
13.0097436287
 20
9.0055647254
 30
0.0
 10
13.0162765928
 20
9.031066593
 30
0.0
 10
13.0225672313
 20
9.057433674
 30
0.0
 10
13.0286022112
 20
9.0846104367
 30
0.0
 10
13.0343687485
 20
9.1125396189
 30
0.0
 10
13.0398546361
 20
9.1411623536
 30
0.0
 10
13.0450482608
 20
9.1704183009
 30
0.0
 10
13.0499386306
 20
9.2002457794
 30
0.0
 10
13.0545153955
 20
9.230581895
 30
0.0
 10
13.0587688723
 20
9.2613626776
 30
0.0
 10
13.0626900598
 20
9.292523194
 30
0.0
 10
13.0662707079
 20
9.3239977709
 30
0.0
 10
13.0705889824
 20
9.3663763391
 30
0.0
 10
13.0750817166
 20
9.4196450718
 30
0.0
 10
13.0790050373
 20
9.483624766
 30
0.0
 10
13.08103938
 20
9.5368224063
 30
0.0
 10
13.081905393
 20
9.579057944
 30
0.0
 10
13.0821715271
 20
9.6103381994
 30
0.0
 10
13.0820560499
 20
9.6412620462
 30
0.0
 10
13.0815592012
 20
9.6717643192
 30
0.0
 10
13.0806820694
 20
9.7017806783
 30
0.0
 10
13.0794265385
 20
9.73124783
 30
0.0
 10
13.0777952965
 20
9.7601036398
 30
0.0
 10
13.075791832
 20
9.7882872752
 30
0.0
 10
13.0734204332
 20
9.8157393363
 30
0.0
 10
13.0706861691
 20
9.8424019825
 30
0.0
 10
13.0675948809
 20
9.8682190537
 30
0.0
 10
13.0641531706
 20
9.8931361933
 30
0.0
 10
13.0603683842
 20
9.9171009716
 30
0.0
 10
13.0562486099
 20
9.940063018
 30
0.0
 10
13.0518026473
 20
9.9619741088
 30
0.0
 10
13.0470399918
 20
9.9827883804
 30
0.0
 10
13.0419707734
 20
10.0024620875
 30
0.0
 10
13.0374372229
 20
10.0180891905
 30
0.0
 10
13.0336536232
 20
10.0299801309
 30
0.0
 10
13.0307868736
 20
10.0384594044
 30
0.0
 10
13.0278517534
 20
10.0466239055
 30
0.0
 10
13.0248497556
 20
10.0544693649
 30
0.0
 10
13.0217825188
 20
10.0619916905
 30
0.0
 10
13.018651568
 20
10.0691869343
 30
0.0
 10
13.0154586119
 20
10.0760513676
 30
0.0
 10
13.0122052586
 20
10.0825814074
 30
0.0
 10
13.0088931911
 20
10.088773664
 30
0.0
 10
13.0055241471
 20
10.0946249516
 30
0.0
 10
13.0020997548
 20
10.1001322104
 30
0.0
 10
12.9986218214
 20
10.1052926446
 30
0.0
 10
12.9950919846
 20
10.1101035581
 30
0.0
 10
12.9915120025
 20
10.1145624707
 30
0.0
 10
12.9878835477
 20
10.1186671078
 30
0.0
 10
12.9842084041
 20
10.122415138
 30
0.0
 10
12.980487767
 20
10.1258049639
 30
0.0
 10
12.9755653916
 20
10.1297668171
 30
0.0
 10
12.9704555471
 20
10.1331142465
 30
0.0
 10
12.9651898375
 20
10.1357403729
 30
0.0
 10
12.9612700161
 20
10.1373100773
 30
0.0
 10
12.957316475
 20
10.1385107276
 30
0.0
 10
12.9533315549
 20
10.139341359
 30
0.0
 10
12.9493180511
 20
10.1398009999
 30
0.0
 10
12.9452787525
 20
10.1398891803
 30
0.0
 10
12.9412169594
 20
10.1396061222
 30
0.0
 10
12.93852222
 20
10.1391743352
 30
0.0
 10
12.9371769664
 20
10.1388997403
 30
0.0
  0
SPLINE
  5
395
100
AcDbEntity
  8
0
100
AcDbSpline
 62
7
  6
CONTINUOUS
 70
0
 71
3
 72
59
 73
55
 74
0
 42
0.0000001
 43
0.0000001
 44
0.0000000001
 40
0.0
 40
0.0
 40
0.0
 40
0.0
 40
0.0083782343
 40
0.0173208535
 40
0.0268349956
 40
0.0369234094
 40
0.0475853465
 40
0.0588169846
 40
0.07061195
 40
0.0829616314
 40
0.0958554136
 40
0.1092809732
 40
0.123224424
 40
0.1376704287
 40
0.1526023967
 40
0.168002566
 40
0.1838520576
 40
0.2001310248
 40
0.2168187108
 40
0.2338934781
 40
0.2513329291
 40
0.2691139563
 40
0.3056043621
 40
0.3431681596
 40
0.3816001581
 40
0.4206888688
 40
0.4602180961
 40
0.4999685072
 40
0.5397192135
 40
0.5792493213
 40
0.6183395005
 40
0.6567735361
 40
0.6943399195
 40
0.7308334647
 40
0.7486162418
 40
0.7660575861
 40
0.7831343628
 40
0.7998241607
 40
0.8161053738
 40
0.8319572164
 40
0.8473598203
 40
0.8622943437
 40
0.8767429948
 40
0.8906891536
 40
0.9041175228
 40
0.9170141875
 40
0.9293667855
 40
0.9411647422
 40
0.9523994171
 40
0.963064392
 40
0.9731558781
 40
0.9826730765
 40
0.9916187469
 40
1.0
 40
1.0
 40
1.0
 40
1.0
 10
12.7792678596
 20
8.8229240026
 30
0.0
 10
12.7815408444
 20
8.8256954495
 30
0.0
 10
12.7860693619
 20
8.8315662948
 30
0.0
 10
12.7926150175
 20
8.8410026214
 30
0.0
 10
12.799123808
 20
8.8513398556
 30
0.0
 10
12.8055860523
 20
8.8625628491
 30
0.0
 10
12.8119925027
 20
8.8746555446
 30
0.0
 10
12.818333796
 20
8.8876003654
 30
0.0
 10
12.8246005816
 20
8.9013784686
 30
0.0
 10
12.8307835799
 20
8.915969692
 30
0.0
 10
12.8368736575
 20
8.9313526053
 30
0.0
 10
12.842861755
 20
8.9475045844
 30
0.0
 10
12.8487389559
 20
8.9644018314
 30
0.0
 10
12.8544965494
 20
8.9820194006
 30
0.0
 10
12.8601259597
 20
9.0003312726
 30
0.0
 10
12.8656187931
 20
9.0193103836
 30
0.0
 10
12.8709669058
 20
9.0389286524
 30
0.0
 10
12.8761623347
 20
9.0591570491
 30
0.0
 10
12.8811973343
 20
9.0799656361
 30
0.0
 10
12.8860644328
 20
9.1013235874
 30
0.0
 10
12.8907564263
 20
9.1231992952
 30
0.0
 10
12.8968217429
 20
9.1532733061
 30
0.0
 10
12.9039007492
 20
9.1919225177
 30
0.0
 10
12.911522503
 20
9.2394418941
 30
0.0
 10
12.9182971159
 20
9.2882118568
 30
0.0
 10
12.9241842122
 20
9.3379434855
 30
0.0
 10
12.9291486966
 20
9.388342371
 30
0.0
 10
12.9331610781
 20
9.4391100209
 30
0.0
 10
12.9361975385
 20
9.489945754
 30
0.0
 10
12.938240123
 20
9.5405484828
 30
0.0
 10
12.9392768737
 20
9.5906184921
 30
0.0
 10
12.9393018601
 20
9.6398593352
 30
0.0
 10
12.9383151543
 20
9.6879792712
 30
0.0
 10
12.9366411954
 20
9.727238958
 30
0.0
 10
12.9347870249
 20
9.7578653239
 30
0.0
 10
12.933160923
 20
9.7801818064
 30
0.0
 10
12.9312898991
 20
9.8020098328
 30
0.0
 10
12.9291767123
 20
9.8233170988
 30
0.0
 10
12.9268245562
 20
9.844072044
 30
0.0
 10
12.9242369324
 20
9.8642439384
 30
0.0
 10
12.9214176989
 20
9.8838029233
 30
0.0
 10
12.9183710993
 20
9.9027200665
 30
0.0
 10
12.915101678
 20
9.9209673937
 30
0.0
 10
12.9116143056
 20
9.9385179389
 30
0.0
 10
12.9079142256
 20
9.9553458008
 30
0.0
 10
12.9040069567
 20
9.9714261669
 30
0.0
 10
12.8998983056
 20
9.986735361
 30
0.0
 10
12.8955944253
 20
10.0012509096
 30
0.0
 10
12.8911017047
 20
10.0149515531
 30
0.0
 10
12.8864267458
 20
10.0278173106
 30
0.0
 10
12.8815764655
 20
10.0398294902
 30
0.0
 10
12.8765578139
 20
10.0509709353
 30
0.0
 10
12.8713781625
 20
10.0612252358
 30
0.0
 10
12.8677039711
 20
10.0676682984
 30
0.0
 10
12.8658355738
 20
10.0707286463
 30
0.0
  0
SPLINE
  5
396
100
AcDbEntity
  8
0
100
AcDbSpline
 62
7
  6
CONTINUOUS
 70
0
 71
3
 72
53
 73
49
 74
0
 42
0.0000001
 43
0.0000001
 44
0.0000000001
 40
0.0
 40
0.0
 40
0.0
 40
0.0
 40
0.0098670915
 40
0.020217269
 40
0.0310468334
 40
0.042350478
 40
0.0541214738
 40
0.0663517444
 40
0.0790321285
 40
0.092152338
 40
0.1057011724
 40
0.1196665371
 40
0.134035496
 40
0.1487944149
 40
0.163928892
 40
0.1794239323
 40
0.2114320343
 40
0.244687814
 40
0.2790518805
 40
0.3143781233
 40
0.3505147552
 40
0.387305302
 40
0.4245895633
 40
0.4622045537
 40
0.4999854347
 40
0.5377664454
 40
0.5753818252
 40
0.6126667358
 40
0.6494581861
 40
0.6855959664
 40
0.7209235968
 40
0.7552892854
 40
0.788546917
 40
0.8205570898
 40
0.8360532264
 40
0.8511888726
 40
0.8659489786
 40
0.880319192
 40
0.8942858434
 40
0.9078359968
 40
0.9209575839
 40
0.9336393465
 40
0.9458710592
 40
0.957643502
 40
0.9689486234
 40
0.9797796952
 40
0.9901313655
 40
1.0
 40
1.0
 40
1.0
 40
1.0
 10
12.7542087732
 20
8.903153979
 30
0.0
 10
12.7560322039
 20
8.9063319947
 30
0.0
 10
12.7596587349
 20
8.912906977
 30
0.0
 10
12.7649239069
 20
8.9231647613
 30
0.0
 10
12.7701389649
 20
8.9340427991
 30
0.0
 10
12.7752977432
 20
8.9455283618
 30
0.0
 10
12.7803942066
 20
8.957608189
 30
0.0
 10
12.7854224403
 20
8.9702682255
 30
0.0
 10
12.790376489
 20
8.9834937625
 30
0.0
 10
12.7952505952
 20
8.9972693838
 30
0.0
 10
12.8000390156
 20
9.0115790343
 30
0.0
 10
12.8047361232
 20
9.0264060191
 30
0.0
 10
12.8093364434
 20
9.0417330254
 30
0.0
 10
12.8138345153
 20
9.0575421541
 30
0.0
 10
12.8182251474
 20
9.0738149439
 30
0.0
 10
12.823991418
 20
9.0963487905
 30
0.0
 10
12.8308783061
 20
9.1255389333
 30
0.0
 10
12.8385492176
 20
9.161732945
 30
0.0
 10
12.8456772677
 20
9.199292514
 30
0.0
 10
12.8522288926
 20
9.2380420196
 30
0.0
 10
12.858173226
 20
9.2778004482
 30
0.0
 10
12.8634822982
 20
9.3183819384
 30
0.0
 10
12.8681311468
 20
9.3595967561
 30
0.0
 10
12.8720979348
 20
9.401252168
 30
0.0
 10
12.8753640592
 20
9.4431533603
 30
0.0
 10
12.8779142287
 20
9.4851043587
 30
0.0
 10
12.8797365342
 20
9.5269089548
 30
0.0
 10
12.8808225067
 20
9.5683716305
 30
0.0
 10
12.8811671571
 20
9.6092984787
 30
0.0
 10
12.8807690087
 20
9.6494981291
 30
0.0
 10
12.8796301058
 20
9.6887826326
 30
0.0
 10
12.8777560315
 20
9.7269684437
 30
0.0
 10
12.8751557782
 20
9.7638769842
 30
0.0
 10
12.8723650821
 20
9.7937402971
 30
0.0
 10
12.8697652279
 20
9.8168560876
 30
0.0
 10
12.8676634285
 20
9.8335805306
 30
0.0
 10
12.8653911625
 20
9.8498606437
 30
0.0
 10
12.8629511051
 20
9.8656774225
 30
0.0
 10
12.86034614
 20
9.881012384
 30
0.0
 10
12.8575793047
 20
9.8958476231
 30
0.0
 10
12.8546539131
 20
9.9101658269
 30
0.0
 10
12.8515733496
 20
9.9239502957
 30
0.0
 10
12.8483412926
 20
9.9371849711
 30
0.0
 10
12.84496152
 20
9.9498544545
 30
0.0
 10
12.8414379945
 20
9.9619440091
 30
0.0
 10
12.8377748805
 20
9.9734396709
 30
0.0
 10
12.8339764434
 20
9.9843279644
 30
0.0
 10
12.8312925296
 20
9.9913419252
 30
0.0
 10
12.8299253704
 20
9.9947418896
 30
0.0
  0
SPLINE
  5
397
100
AcDbEntity
  8
0
100
AcDbSpline
 62
7
  6
CONTINUOUS
 70
0
 71
3
 72
18
 73
14
 74
0
 42
0.0000001
 43
0.0000001
 44
0.0000000001
 40
0.0
 40
0.0
 40
0.0
 40
0.0
 40
0.1504678859
 40
0.2917100145
 40
0.4244359174
 40
0.549562529
 40
0.668213991
 40
0.7255497453
 40
0.7817912733
 40
0.8371402265
 40
0.8918093735
 40
0.9460201098
 40
1.0
 40
1.0
 40
1.0
 40
1.0
 10
12.931851767
 20
8.5085994108
 30
0.0
 10
12.9291278553
 20
8.5059683139
 30
0.0
 10
12.9236839113
 20
8.5010317056
 30
0.0
 10
12.9152540004
 20
8.4944528419
 30
0.0
 10
12.9068339966
 20
8.4889506155
 30
0.0
 10
12.8984326122
 20
8.4845340426
 30
0.0
 10
12.8913713318
 20
8.4817334592
 30
0.0
 10
12.8857649964
 20
8.4800695069
 30
0.0
 10
12.8816199589
 20
8.4791104386
 30
0.0
 10
12.8774886731
 20
8.4784268926
 30
0.0
 10
12.8733722983
 20
8.47801909
 30
0.0
 10
12.8692724682
 20
8.4778872753
 30
0.0
 10
12.8665486605
 20
8.4779836268
 30
0.0
 10
12.8651932938
 20
8.4780776176
 30
0.0
  0
SPLINE
  5
398
100
AcDbEntity
  8
0
100
AcDbSpline
 62
7
  6
CONTINUOUS
 70
0
 71
3
 72
51
 73
47
 74
0
 42
0.0000001
 43
0.0000001
 44
0.0000000001
 40
0.0
 40
0.0
 40
0.0
 40
0.0
 40
0.0083967399
 40
0.0173567292
 40
0.0268874271
 40
0.0369913992
 40
0.0476677428
 40
0.0589124452
 40
0.0707192039
 40
0.0830792399
 40
0.095982041
 40
0.1094151484
 40
0.1233647729
 40
0.1378155053
 40
0.1681519768
 40
0.2002796507
 40
0.2340364826
 40
0.2692469214
 40
0.3057239467
 40
0.3432709062
 40
0.3816832299
 40
0.4207500716
 40
0.4602559047
 40
0.4999820939
 40
0.5397084513
 40
0.579214788
 40
0.6182824651
 40
0.65669595
 40
0.6942443882
 40
0.730723199
 40
0.7659357164
 40
0.7996949042
 40
0.8318251923
 40
0.8621645139
 40
0.8766167473
 40
0.8905679302
 40
0.9040026323
 40
0.9169070756
 40
0.9292687782
 40
0.9410772497
 40
0.9523236826
 40
0.9630017573
 40
0.9731074396
 40
0.982639957
 40
0.9916018042
 40
1.0
 40
1.0
 40
1.0
 40
1.0
 10
12.8689907818
 20
6.8902690449
 30
0.0
 10
12.8697130858
 20
6.8911541444
 30
0.0
 10
12.8711520313
 20
6.8930283055
 30
0.0
 10
12.8732320479
 20
6.896039098
 30
0.0
 10
12.8753001718
 20
6.8993356795
 30
0.0
 10
12.877353482
 20
6.9029132142
 30
0.0
 10
12.8793889303
 20
6.9067666385
 30
0.0
 10
12.8814036195
 20
6.9108903253
 30
0.0
 10
12.8833945163
 20
6.9152783069
 30
0.0
 10
12.8853587659
 20
6.9199241593
 30
0.0
 10
12.8872933845
 20
6.9248210979
 30
0.0
 10
12.8891955759
 20
6.9299619194
 30
0.0
 10
12.8910624755
 20
6.9353390838
 30
0.0
 10
12.8935412064
 20
6.9429368122
 30
0.0
 10
12.8965208064
 20
6.9529705431
 30
0.0
 10
12.8998583952
 20
6.9656311484
 30
0.0
 10
12.9029935013
 20
6.9790252642
 30
0.0
 10
12.9059074207
 20
6.993073913
 30
0.0
 10
12.9085827392
 20
7.0076943561
 30
0.0
 10
12.9110035037
 20
7.0228003438
 30
0.0
 10
12.9131552931
 20
7.0383027243
 30
0.0
 10
12.915025306
 20
7.0541099638
 30
0.0
 10
12.9166024326
 20
7.0701287047
 30
0.0
 10
12.9178773187
 20
7.0862643239
 30
0.0
 10
12.9188424205
 20
7.1024214999
 30
0.0
 10
12.9194920488
 20
7.1185047822
 30
0.0
 10
12.919822404
 20
7.1344191613
 30
0.0
 10
12.9198315999
 20
7.1500706377
 30
0.0
 10
12.9195196772
 20
7.1653667839
 30
0.0
 10
12.9188886099
 20
7.1802173072
 30
0.0
 10
12.9179422899
 20
7.194534577
 30
0.0
 10
12.9166865409
 20
7.2082342376
 30
0.0
 10
12.9151289826
 20
7.2212354794
 30
0.0
 10
12.9135633048
 20
7.2315854674
 30
0.0
 10
12.9121573594
 20
7.2394534882
 30
0.0
 10
12.9110507879
 20
7.2450375654
 30
0.0
 10
12.9098766283
 20
7.2503924583
 30
0.0
 10
12.9086366875
 20
7.2555103024
 30
0.0
 10
12.9073327289
 20
7.2603835768
 30
0.0
 10
12.9059667815
 20
7.26500515
 30
0.0
 10
12.9045407725
 20
7.2693682594
 30
0.0
 10
12.9030569041
 20
7.2734665752
 30
0.0
 10
12.9015172494
 20
7.2772941334
 30
0.0
 10
12.8999241208
 20
7.2808455037
 30
0.0
 10
12.8982797524
 20
7.2841154425
 30
0.0
 10
12.8971134091
 20
7.2861708768
 30
0.0
 10
12.8965202754
 20
7.287147488
 30
0.0
  0
SPLINE
  5
399
100
AcDbEntity
  8
0
100
AcDbSpline
 62
7
  6
CONTINUOUS
 70
0
 71
3
 72
27
 73
23
 74
0
 42
0.0000001
 43
0.0000001
 44
0.0000000001
 40
0.0
 40
0.0
 40
0.0
 40
0.0
 40
0.0616468932
 40
0.0924803257
 40
0.1233223752
 40
0.1850380892
 40
0.2468218571
 40
0.2777487751
 40
0.3087006891
 40
0.3706840788
 40
0.4327968318
 40
0.4950568279
 40
0.5574803451
 40
0.6200818952
 40
0.6828740849
 40
0.7143476807
 40
0.7458727128
 40
0.809075817
 40
0.8724948743
 40
0.9042890081
 40
0.9361390688
 40
1.0
 40
1.0
 40
1.0
 40
1.0
 10
11.039679915
 20
6.4095099682
 30
0.0
 10
11.0288674442
 20
6.3990659007
 30
0.0
 10
11.0122210511
 20
6.3838302021
 30
0.0
 10
10.9892348217
 20
6.3644353834
 30
0.0
 10
10.965722361
 20
6.3456538778
 30
0.0
 10
10.9353779636
 20
6.323355947
 30
0.0
 10
10.9038650917
 20
6.302704629
 30
0.0
 10
10.8779980344
 20
6.2871980782
 30
0.0
 10
10.8516841327
 20
6.2723632627
 30
0.0
 10
10.8180151166
 20
6.2551178859
 30
0.0
 10
10.7765069533
 20
6.2365678295
 30
0.0
 10
10.73397631
 20
6.2201974929
 30
0.0
 10
10.6905308491
 20
6.2060483814
 30
0.0
 10
10.6462805696
 20
6.1941560387
 30
0.0
 10
10.6088543421
 20
6.1861570935
 30
0.0
 10
10.5786285549
 20
6.1809113544
 30
0.0
 10
10.5481785388
 20
6.1764306956
 30
0.0
 10
10.5098186629
 20
6.172288229
 30
0.0
 10
10.4712323683
 20
6.1701023981
 30
0.0
 10
10.4402497568
 20
6.1695245412
 30
0.0
 10
10.4091553153
 20
6.1697289531
 30
0.0
 10
10.3858257717
 20
6.1707635379
 30
0.0
 10
10.3702902819
 20
6.1718409278
 30
0.0
  0
SPLINE
  5
39A
100
AcDbEntity
  8
0
100
AcDbSpline
 62
7
  6
CONTINUOUS
 70
0
 71
3
 72
27
 73
23
 74
0
 42
0.0000001
 43
0.0000001
 44
0.0000000001
 40
0.0
 40
0.0
 40
0.0
 40
0.0
 40
0.0638484917
 40
0.095693731
 40
0.1274838346
 40
0.1908975044
 40
0.2540985474
 40
0.2856235694
 40
0.317097843
 40
0.3798933904
 40
0.4425002905
 40
0.5049305552
 40
0.5671980184
 40
0.6293182173
 40
0.6913082381
 40
0.7222628154
 40
0.753191876
 40
0.8149781304
 40
0.8766929739
 40
0.9075329755
 40
0.9383632028
 40
1.0
 40
1.0
 40
1.0
 40
1.0
 10
10.3785724847
 20
6.1798409218
 30
0.0
 10
10.393860562
 20
6.1787806901
 30
0.0
 10
10.4168180916
 20
6.1777534772
 30
0.0
 10
10.4474178934
 20
6.1775215896
 30
0.0
 10
10.4779102876
 20
6.1780472873
 30
0.0
 10
10.5158904366
 20
6.1801217044
 30
0.0
 10
10.5536558912
 20
6.1840909992
 30
0.0
 10
10.5836415722
 20
6.1883966137
 30
0.0
 10
10.6134125934
 20
6.1934437066
 30
0.0
 10
10.6502869776
 20
6.201149651
 30
0.0
 10
10.6939065964
 20
6.2126201364
 30
0.0
 10
10.7367588113
 20
6.226279406
 30
0.0
 10
10.7787385637
 20
6.2420942453
 30
0.0
 10
10.8197429625
 20
6.2600258088
 30
0.0
 10
10.8530351176
 20
6.2767055606
 30
0.0
 10
10.8790758973
 20
6.2910596555
 30
0.0
 10
10.9046888679
 20
6.3060674799
 30
0.0
 10
10.9359213719
 20
6.3260617694
 30
0.0
 10
10.9660393159
 20
6.3476619292
 30
0.0
 10
10.9894046247
 20
6.3658629557
 30
0.0
 10
11.0122658338
 20
6.384662646
 30
0.0
 10
11.0288456034
 20
6.3994369491
 30
0.0
 10
11.0396262703
 20
6.4095679994
 30
0.0
  0
SPLINE
  5
39B
100
AcDbEntity
  8
0
100
AcDbSpline
 62
7
  6
CONTINUOUS
 70
0
 71
3
 72
51
 73
47
 74
0
 42
0.0000001
 43
0.0000001
 44
0.0000000001
 40
0.0
 40
0.0
 40
0.0
 40
0.0
 40
0.0311353527
 40
0.0624229702
 40
0.093856882
 40
0.1254276508
 40
0.1571232253
 40
0.1889290798
 40
0.2208285176
 40
0.2528030236
 40
0.2848326337
 40
0.3168963255
 40
0.3489724265
 40
0.3810390265
 40
0.4130743966
 40
0.4450574056
 40
0.4769679247
 40
0.5087872243
 40
0.5404983473
 40
0.5720864556
 40
0.6035391516
 40
0.6348467502
 40
0.6504464202
 40
0.666007549
 40
0.6815297861
 40
0.6970129845
 40
0.7124572008
 40
0.7278627003
 40
0.7432299565
 40
0.7585596475
 40
0.7738526551
 40
0.7891100639
 40
0.8043331542
 40
0.8195233949
 40
0.8346824404
 40
0.849812121
 40
0.8649144315
 40
0.8799915229
 40
0.8950456917
 40
0.9100793655
 40
0.9250950894
 40
0.9400955138
 40
0.9550833782
 40
0.9700614945
 40
0.9850327317
 40
1.0
 40
1.0
 40
1.0
 40
1.0
 10
10.3785724847
 20
6.1798409218
 30
0.0
 10
10.3559711426
 20
6.1814083302
 30
0.0
 10
10.3107553902
 20
6.186196041
 30
0.0
 10
10.243474898
 20
6.1982392407
 30
0.0
 10
10.1769071354
 20
6.2150987261
 30
0.0
 10
10.1114077201
 20
6.2366847136
 30
0.0
 10
10.0473207801
 20
6.262882792
 30
0.0
 10
9.9849845234
 20
6.293554426
 30
0.0
 10
9.9247273343
 20
6.3285373699
 30
0.0
 10
9.8668668653
 20
6.3676469878
 30
0.0
 10
9.8117079993
 20
6.4106767974
 30
0.0
 10
9.7595414344
 20
6.4573998044
 30
0.0
 10
9.7106421945
 20
6.5075696741
 30
0.0
 10
9.6652679724
 20
6.5609218168
 30
0.0
 10
9.6236581538
 20
6.6171751051
 30
0.0
 10
9.5860321498
 20
6.6760329859
 30
0.0
 10
9.5525885841
 20
6.7371852846
 30
0.0
 10
9.5235041127
 20
6.8003097648
 30
0.0
 10
9.4989323902
 20
6.8650735054
 30
0.0
 10
9.479003552
 20
6.9311357941
 30
0.0
 10
9.4638232873
 20
6.998145924
 30
0.0
 10
9.4551863555
 20
7.0545598792
 30
0.0
 10
9.4507285505
 20
7.0998039325
 30
0.0
 10
9.4486141181
 20
7.1337146605
 30
0.0
 10
9.4477279795
 20
7.1675945311
 30
0.0
 10
9.4480712268
 20
7.201399346
 30
0.0
 10
9.4496435213
 20
7.2350843114
 30
0.0
 10
9.4524427612
 20
7.2686049742
 30
0.0
 10
9.4564652478
 20
7.3019170518
 30
0.0
 10
9.4617057401
 20
7.3349765375
 30
0.0
 10
9.4681573509
 20
7.3677397521
 30
0.0
 10
9.4758115267
 20
7.400163422
 30
0.0
 10
9.4846581973
 20
7.4322047063
 30
0.0
 10
9.4946857524
 20
7.4638212505
 30
0.0
 10
9.5058809083
 20
7.4949712926
 30
0.0
 10
9.5182288837
 20
7.5256136753
 30
0.0
 10
9.5317134387
 20
7.5557078796
 30
0.0
 10
9.5463167548
 20
7.585214137
 30
0.0
 10
9.5620195124
 20
7.6140934701
 30
0.0
 10
9.5788010076
 20
7.6423076936
 30
0.0
 10
9.5966391044
 20
7.6698194904
 30
0.0
 10
9.6155101945
 20
7.6965925377
 30
0.0
 10
9.635389319
 20
7.7225914138
 30
0.0
 10
9.6562503838
 20
7.7477818381
 30
0.0
 10
9.6780653348
 20
7.7721300703
 30
0.0
 10
9.69322747
 20
7.7877815436
 30
0.0
 10
9.7009562033
 20
7.7954548066
 30
0.0
  0
SPLINE
  5
39C
100
AcDbEntity
  8
0
100
AcDbSpline
 62
7
  6
CONTINUOUS
 70
0
 71
3
 72
71
 73
67
 74
0
 42
0.0000001
 43
0.0000001
 44
0.0000000001
 40
0.0
 40
0.0
 40
0.0
 40
0.0
 40
0.0156745307
 40
0.0314011363
 40
0.0471782414
 40
0.0630046557
 40
0.0788782415
 40
0.0947966374
 40
0.1107570162
 40
0.1267561967
 40
0.1427906525
 40
0.1588565494
 40
0.174949781
 40
0.1910660048
 40
0.2072006809
 40
0.2233491111
 40
0.2395064798
 40
0.255667895
 40
0.2718284301
 40
0.2879831666
 40
0.3041272351
 40
0.3202558575
 40
0.3363643875
 40
0.3524483509
 40
0.3685034846
 40
0.384525775
 40
0.4005114946
 40
0.4164572358
 40
0.4323599436
 40
0.448216945
 40
0.4640259763
 40
0.4797852067
 40
0.4954932593
 40
0.5111492287
 40
0.5267526932
 40
0.5423037244
 40
0.5578028908
 40
0.5732512573
 40
0.5886503803
 40
0.6040022968
 40
0.6193095095
 40
0.6345749662
 40
0.649802034
 40
0.6649944681
 40
0.6801563769
 40
0.6952921818
 40
0.7104065733
 40
0.7255044639
 40
0.7405909382
 40
0.7556711997
 40
0.7707505174
 40
0.7858341698
 40
0.8009273903
 40
0.816035312
 40
0.8311629148
 40
0.8463149742
 40
0.861496013
 40
0.8767102559
 40
0.8919615891
 40
0.9072535214
 40
0.9225891548
 40
0.9379711532
 40
0.9534017142
 40
0.9688826169
 40
0.9844148954
 40
1.0
 40
1.0
 40
1.0
 40
1.0
 10
10.3785724847
 20
6.4343623921
 30
0.0
 10
10.3676139892
 20
6.4351223664
 30
0.0
 10
10.3456938258
 20
6.4371764651
 30
0.0
 10
10.3129492399
 20
6.4418385525
 30
0.0
 10
10.2803588596
 20
6.4480761271
 30
0.0
 10
10.2480006194
 20
6.455874131
 30
0.0
 10
10.215950296
 20
6.4652143226
 30
0.0
 10
10.1842834868
 20
6.4760745587
 30
0.0
 10
10.1530747095
 20
6.4884292565
 30
0.0
 10
10.1223974498
 20
6.5022492707
 30
0.0
 10
10.092323924
 20
6.5175020222
 30
0.0
 10
10.0629249241
 20
6.5341515544
 30
0.0
 10
10.0342696529
 20
6.5521586335
 30
0.0
 10
10.0064255624
 20
6.5714808374
 30
0.0
 10
9.9794581964
 20
6.5920726554
 30
0.0
 10
9.9534310372
 20
6.6138855947
 30
0.0
 10
9.9284053581
 20
6.6368682943
 30
0.0
 10
9.9044400779
 20
6.6609666428
 30
0.0
 10
9.8815916131
 20
6.6861238972
 30
0.0
 10
9.8599137565
 20
6.7122808283
 30
0.0
 10
9.83945755
 20
6.7393758582
 30
0.0
 10
9.8202711661
 20
6.7673452041
 30
0.0
 10
9.802399795
 20
6.7961230275
 30
0.0
 10
9.7858855383
 20
6.8256415876
 30
0.0
 10
9.7707673124
 20
6.8558314008
 30
0.0
 10
9.7570807433
 20
6.8866213961
 30
0.0
 10
9.7448580893
 20
6.9179390878
 30
0.0
 10
9.7341281708
 20
6.9497107469
 30
0.0
 10
9.7249163014
 20
6.9818615726
 30
0.0
 10
9.7172442287
 20
7.0143158673
 30
0.0
 10
9.7111300817
 20
7.0469972125
 30
0.0
 10
9.7065883299
 20
7.0798286478
 30
0.0
 10
9.7036297413
 20
7.1127328502
 30
0.0
 10
9.7022613476
 20
7.1456323155
 30
0.0
 10
9.7024864423
 20
7.1784495427
 30
0.0
 10
9.7043045685
 20
7.2111072145
 30
0.0
 10
9.70771152
 20
7.243528378
 30
0.0
 10
9.7126993488
 20
7.2756366255
 30
0.0
 10
9.7192563815
 20
7.3073562737
 30
0.0
 10
9.7273672469
 20
7.3386125415
 30
0.0
 10
9.7370128928
 20
7.3693317316
 30
0.0
 10
9.7481706436
 20
7.3994414034
 30
0.0
 10
9.7608142541
 20
7.4288705429
 30
0.0
 10
9.7749139688
 20
7.4575497321
 30
0.0
 10
9.7904365912
 20
7.4854113128
 30
0.0
 10
9.8073455599
 20
7.5123895483
 30
0.0
 10
9.8256010361
 20
7.5384207791
 30
0.0
 10
9.8451599878
 20
7.5634435811
 30
0.0
 10
9.8659762908
 20
7.587398916
 30
0.0
 10
9.8880008496
 20
7.6102302649
 30
0.0
 10
9.9111817111
 20
7.6318837645
 30
0.0
 10
9.9354641891
 20
7.6523083357
 30
0.0
 10
9.9607909945
 20
7.6714558045
 30
0.0
 10
9.987102372
 20
7.689281017
 30
0.0
 10
10.0143362425
 20
7.7057419466
 30
0.0
 10
10.0424283435
 20
7.7207998074
 30
0.0
 10
10.0713123939
 20
7.7344191325
 30
0.0
 10
10.1009202514
 20
7.7465678566
 30
0.0
 10
10.1311820747
 20
7.7572173894
 30
0.0
 10
10.1620264913
 20
7.7663426838
 30
0.0
 10
10.1933807591
 20
7.7739222913
 30
0.0
 10
10.2251709635
 20
7.7799384019
 30
0.0
 10
10.2573221117
 20
7.7843769424
 30
0.0
 10
10.2897585754
 20
7.787227445
 30
0.0
 10
10.322403275
 20
7.7884834892
 30
0.0
 10
10.3442195544
 20
7.788256067
 30
0.0
 10
10.3551351426
 20
7.7878776497
 30
0.0
  0
SPLINE
  5
39D
100
AcDbEntity
  8
0
100
AcDbSpline
 62
7
  6
CONTINUOUS
 70
0
 71
3
 72
71
 73
67
 74
0
 42
0.0000001
 43
0.0000001
 44
0.0000000001
 40
0.0
 40
0.0
 40
0.0
 40
0.0
 40
0.0156740143
 40
0.0313997174
 40
0.0471754289
 40
0.0630000817
 40
0.0788715564
 40
0.0947875568
 40
0.110745325
 40
0.1267417547
 40
0.1427734045
 40
0.1588365301
 40
0.1749271196
 40
0.191040928
 40
0.2071735138
 40
0.2233202772
 40
0.2394764996
 40
0.2556373835
 40
0.2717980928
 40
0.2879537925
 40
0.3040996897
 40
0.3202310728
 40
0.3363433521
 40
0.3524320994
 40
0.368493085
 40
0.3845223152
 40
0.4005160668
 40
0.4164709207
 40
0.4323837943
 40
0.4482519707
 40
0.464073126
 40
0.4798453521
 40
0.495567178
 40
0.5112375864
 40
0.5268560282
 40
0.5424224326
 40
0.5579372119
 40
0.5734012628
 40
0.5888159623
 40
0.6041831588
 40
0.6195051596
 40
0.6347847124
 40
0.6500249826
 40
0.665229525
 40
0.6804022511
 40
0.6955473919
 40
0.7106694574
 40
0.7257731919
 40
0.7408635274
 40
0.7559455331
 40
0.7710243639
 40
0.7861052072
 40
0.8011932296
 40
0.8162935235
 40
0.8314110559
 40
0.8465506176
 40
0.8617167757
 40
0.8769138277
 40
0.8921457602
 40
0.9074162109
 40
0.9227284336
 40
0.9380852757
 40
0.9534891315
 40
0.9689419927
 40
0.9844452697
 40
1.0
 40
1.0
 40
1.0
 40
1.0
 10
10.4142894834
 20
6.5045793961
 30
0.0
 10
10.4040025818
 20
6.5052927951
 30
0.0
 10
10.3834258035
 20
6.507216529
 30
0.0
 10
10.3526861902
 20
6.5115730307
 30
0.0
 10
10.3220887445
 20
6.5173955359
 30
0.0
 10
10.2917053807
 20
6.5246701842
 30
0.0
 10
10.2616059511
 20
6.5333802981
 30
0.0
 10
10.2318602078
 20
6.5435055836
 30
0.0
 10
10.2025369064
 20
6.5550226238
 30
0.0
 10
10.173703866
 20
6.5679047221
 30
0.0
 10
10.1454277534
 20
6.5821220392
 30
0.0
 10
10.1177739494
 20
6.5976416582
 30
0.0
 10
10.0908063949
 20
6.6144276589
 30
0.0
 10
10.0645874458
 20
6.6324412017
 30
0.0
 10
10.0391777314
 20
6.6516406177
 30
0.0
 10
10.0146360091
 20
6.6719814952
 30
0.0
 10
9.9910190197
 20
6.6934167746
 30
0.0
 10
9.968381371
 20
6.7158968766
 30
0.0
 10
9.9467754111
 20
6.7393698121
 30
0.0
 10
9.9262511086
 20
6.7637813024
 30
0.0
 10
9.9068559384
 20
6.7890749029
 30
0.0
 10
9.8886347732
 20
6.8151921326
 30
0.0
 10
9.8716297579
 20
6.8420725945
 30
0.0
 10
9.8558802318
 20
6.8696541308
 30
0.0
 10
9.841422639
 20
6.8978729658
 30
0.0
 10
9.8282904453
 20
6.926663851
 30
0.0
 10
9.8165140601
 20
6.9559602145
 30
0.0
 10
9.8061207706
 20
6.9856943141
 30
0.0
 10
9.7971346561
 20
7.015797386
 30
0.0
 10
9.7895765396
 20
7.0461998083
 30
0.0
 10
9.7834639525
 20
7.0768312647
 30
0.0
 10
9.7788110908
 20
7.1076209041
 30
0.0
 10
9.7756287822
 20
7.1384975027
 30
0.0
 10
9.7739244626
 20
7.1693896271
 30
0.0
 10
9.7737021473
 20
7.2002257976
 30
0.0
 10
9.7749624062
 20
7.230934655
 30
0.0
 10
9.7777023871
 20
7.2614451269
 30
0.0
 10
9.7819158169
 20
7.2916865898
 30
0.0
 10
9.7875930156
 20
7.3215890313
 30
0.0
 10
9.794720916
 20
7.3510832115
 30
0.0
 10
9.8032830934
 20
7.3801008221
 30
0.0
 10
9.8132597754
 20
7.4085746543
 30
0.0
 10
9.824627911
 20
7.4364387507
 30
0.0
 10
9.837361224
 20
7.4636285568
 30
0.0
 10
9.8514302722
 20
7.4900810712
 30
0.0
 10
9.8668025126
 20
7.5157349927
 30
0.0
 10
9.8834423802
 20
7.5405308609
 30
0.0
 10
9.901311349
 20
7.5644112091
 30
0.0
 10
9.9203680301
 20
7.5873206982
 30
0.0
 10
9.9405682799
 20
7.6092062371
 30
0.0
 10
9.9618653003
 20
7.6300171093
 30
0.0
 10
9.9842097473
 20
7.6497050903
 30
0.0
 10
10.0075498475
 20
7.6682245592
 30
0.0
 10
10.0318315128
 20
7.6855326124
 30
0.0
 10
10.0569984601
 20
7.7015891782
 30
0.0
 10
10.0829923608
 20
7.7163570891
 30
0.0
 10
10.1097529749
 20
7.72980217
 30
0.0
 10
10.1372182922
 20
7.7418933156
 30
0.0
 10
10.1653246759
 20
7.7526025626
 30
0.0
 10
10.1940070129
 20
7.761905149
 30
0.0
 10
10.2231988515
 20
7.7697796052
 30
0.0
 10
10.2528325885
 20
7.7762077566
 30
0.0
 10
10.2828395448
 20
7.7811748176
 30
0.0
 10
10.3131504645
 20
7.784669308
 30
0.0
 10
10.3436942326
 20
7.7866832657
 30
0.0
 10
10.3641330752
 20
7.7870351989
 30
0.0
 10
10.3743659669
 20
7.7869646846
 30
0.0
  0
SPLINE
  5
39E
100
AcDbEntity
  8
0
100
AcDbSpline
 62
7
  6
CONTINUOUS
 70
0
 71
3
 72
39
 73
35
 74
0
 42
0.0000001
 43
0.0000001
 44
0.0000000001
 40
0.0
 40
0.0
 40
0.0
 40
0.0
 40
0.0311450455
 40
0.0624431164
 40
0.0938883393
 40
0.1254709908
 40
0.1571788842
 40
0.1889972611
 40
0.2209091754
 40
0.2528958436
 40
0.2849370232
 40
0.3170114138
 40
0.3490970739
 40
0.3811718446
 40
0.4132137767
 40
0.445201556
 40
0.4771149185
 40
0.5089350509
 40
0.540644973
 40
0.5722298923
 40
0.6036775226
 40
0.6349783631
 40
0.6661259342
 40
0.6971169552
 40
0.727951459
 40
0.7586328418
 40
0.7891678426
 40
0.8195664426
 40
0.8498416846
 40
0.8800094167
 40
0.9100879628
 40
0.9400977197
 40
0.9700606953
 40
1.0
 40
1.0
 40
1.0
 40
1.0
 10
10.4265893337
 20
6.5623638466
 30
0.0
 10
10.4120715201
 20
6.5633706604
 30
0.0
 10
10.3830274539
 20
6.5664518794
 30
0.0
 10
10.3398134798
 20
6.5742135747
 30
0.0
 10
10.2970623687
 20
6.585085339
 30
0.0
 10
10.2550049949
 20
6.599008757
 30
0.0
 10
10.2138648206
 20
6.6159092282
 30
0.0
 10
10.1738612854
 20
6.6356963032
 30
0.0
 10
10.1352074858
 20
6.658264236
 30
0.0
 10
10.0981094024
 20
6.683492549
 30
0.0
 10
10.0627647121
 20
6.7112466467
 30
0.0
 10
10.0293617203
 20
6.7413784689
 30
0.0
 10
9.9980784251
 20
6.7737273655
 30
0.0
 10
9.9690815875
 20
6.8081209345
 30
0.0
 10
9.9425258234
 20
6.8443758989
 30
0.0
 10
9.9185527363
 20
6.8822990466
 30
0.0
 10
9.8972902492
 20
6.921688313
 30
0.0
 10
9.8788519318
 20
6.9623338324
 30
0.0
 10
9.8633363461
 20
7.0040190128
 30
0.0
 10
9.8508264869
 20
7.0465216742
 30
0.0
 10
9.8413894225
 20
7.0896152508
 30
0.0
 10
9.8350759336
 20
7.1330699687
 30
0.0
 10
9.8319201567
 20
7.1766540388
 30
0.0
 10
9.831939382
 20
7.2201348912
 30
0.0
 10
9.8351340207
 20
7.2632804079
 30
0.0
 10
9.8414875825
 20
7.3058601377
 30
0.0
 10
9.8509666411
 20
7.3476465305
 30
0.0
 10
9.8635210174
 20
7.3884161704
 30
0.0
 10
9.8790840599
 20
7.4279509408
 30
0.0
 10
9.8975730487
 20
7.4660392658
 30
0.0
 10
9.9188892332
 20
7.5024770346
 30
0.0
 10
9.9429194466
 20
7.5370697349
 30
0.0
 10
9.9695328479
 20
7.5696296957
 30
0.0
 10
9.9889109189
 20
7.5898734161
 30
0.0
 10
9.9989727994
 20
7.599592414
 30
0.0
  0
SPLINE
  5
39F
100
AcDbEntity
  8
0
100
AcDbSpline
 62
7
  6
CONTINUOUS
 70
0
 71
3
 72
23
 73
19
 74
0
 42
0.0000001
 43
0.0000001
 44
0.0000000001
 40
0.0
 40
0.0
 40
0.0
 40
0.0
 40
0.0616003857
 40
0.1232524581
 40
0.1849738825
 40
0.2467816992
 40
0.3086921777
 40
0.3707206791
 40
0.4328815244
 40
0.4951878703
 40
0.5576515964
 40
0.6202832436
 40
0.6830918611
 40
0.746085061
 40
0.8092690189
 40
0.8726472392
 40
0.9362252201
 40
1.0
 40
1.0
 40
1.0
 40
1.0
 10
10.9796788502
 20
6.9006032336
 30
0.0
 10
10.9734600837
 20
6.8955697512
 30
0.0
 10
10.9607721169
 20
6.8857972668
 30
0.0
 10
10.9410478175
 20
6.8720664795
 30
0.0
 10
10.9206629805
 20
6.8592851294
 30
0.0
 10
10.8996596085
 20
6.8474796367
 30
0.0
 10
10.8780802498
 20
6.8366738158
 30
0.0
 10
10.8559688011
 20
6.8268896216
 30
0.0
 10
10.8333701784
 20
6.8181468981
 30
0.0
 10
10.8103302931
 20
6.810463404
 30
0.0
 10
10.7868959634
 20
6.803854684
 30
0.0
 10
10.7631147997
 20
6.7983341121
 30
0.0
 10
10.7390351079
 20
6.7939128521
 30
0.0
 10
10.7147057545
 20
6.7905998583
 30
0.0
 10
10.6901762845
 20
6.7884018729
 30
0.0
 10
10.6654960903
 20
6.7873231438
 30
0.0
 10
10.6407162278
 20
6.7873660273
 30
0.0
 10
10.6241874134
 20
6.7881409973
 30
0.0
 10
10.6159242905
 20
6.7887140469
 30
0.0
  0
SPLINE
  5
3A0
100
AcDbEntity
  8
0
100
AcDbSpline
 62
7
  6
CONTINUOUS
 70
0
 71
3
 72
39
 73
35
 74
0
 42
0.0000001
 43
0.0000001
 44
0.0000000001
 40
0.0
 40
0.0
 40
0.0
 40
0.0
 40
0.0310954769
 40
0.0623386129
 40
0.0937241256
 40
0.125243168
 40
0.1568847237
 40
0.1886354015
 40
0.2204797989
 40
0.2524007939
 40
0.2843798696
 40
0.316397458
 40
0.3484332964
 40
0.3804667943
 40
0.4124774034
 40
0.4444449871
 40
0.4763501841
 40
0.5081747644
 40
0.5399019686
 40
0.5715168279
 40
0.6030064583
 40
0.6343603268
 40
0.665570481
 40
0.6966317349
 40
0.7275418086
 40
0.7583014149
 40
0.7889142908
 40
0.8193871652
 40
0.849729661
 40
0.8799541325
 40
0.9100754375
 40
0.9401106482
 40
0.9700787015
 40
1.0
 40
1.0
 40
1.0
 40
1.0
 10
10.6159242905
 20
6.7887140469
 30
0.0
 10
10.6029360269
 20
6.789614786
 30
0.0
 10
10.5769524347
 20
6.7923380062
 30
0.0
 10
10.5382738269
 20
6.799135669
 30
0.0
 10
10.4999811242
 20
6.8086222948
 30
0.0
 10
10.4622670319
 20
6.820750395
 30
0.0
 10
10.4253182951
 20
6.835459397
 30
0.0
 10
10.389318597
 20
6.8526759965
 30
0.0
 10
10.354446653
 20
6.8723144281
 30
0.0
 10
10.3208756312
 20
6.8942769685
 30
0.0
 10
10.2887722228
 20
6.9184544032
 30
0.0
 10
10.2582958557
 20
6.9447265741
 30
0.0
 10
10.2295978741
 20
6.9729629326
 30
0.0
 10
10.2028207996
 20
7.0030231983
 30
0.0
 10
10.1780976545
 20
7.0347580741
 30
0.0
 10
10.1555513028
 20
7.0680099713
 30
0.0
 10
10.1352938529
 20
7.102613785
 30
0.0
 10
10.1174260501
 20
7.1383976744
 30
0.0
 10
10.1020368198
 20
7.1751839385
 30
0.0
 10
10.0892028345
 20
7.2127898868
 30
0.0
 10
10.078988135
 20
7.2510287332
 30
0.0
 10
10.0714437959
 20
7.2897105049
 30
0.0
 10
10.0666076212
 20
7.3286429697
 30
0.0
 10
10.0645040085
 20
7.3676325952
 30
0.0
 10
10.0651438061
 20
7.4064854932
 30
0.0
 10
10.0685242573
 20
7.4450083718
 30
0.0
 10
10.07462895
 20
7.4830094905
 30
0.0
 10
10.0834278824
 20
7.520299625
 30
0.0
 10
10.0948776205
 20
7.5566929857
 30
0.0
 10
10.1089215391
 20
7.5920082137
 30
0.0
 10
10.1254898763
 20
7.6260690419
 30
0.0
 10
10.1445008121
 20
7.6587061356
 30
0.0
 10
10.165857906
 20
7.6897545371
 30
0.0
 10
10.1816023398
 20
7.7093069039
 30
0.0
 10
10.1898226246
 20
7.7187606687
 30
0.0
  0
SPLINE
  5
3A1
100
AcDbEntity
  8
0
100
AcDbSpline
 62
7
  6
CONTINUOUS
 70
0
 71
3
 72
43
 73
39
 74
0
 42
0.0000001
 43
0.0000001
 44
0.0000000001
 40
0.0
 40
0.0
 40
0.0
 40
0.0
 40
0.0310007841
 40
0.0621395995
 40
0.0934120634
 40
0.1248108061
 40
0.1563267237
 40
0.1879486758
 40
0.2196638248
 40
0.2514578254
 40
0.2833150723
 40
0.3152189552
 40
0.3471521272
 40
0.37909678
 40
0.4110349248
 40
0.4429486751
 40
0.4748205282
 40
0.5066336426
 40
0.5383721088
 40
0.5700212087
 40
0.6015676612
 40
0.6329998498
 40
0.6643080303
 40
0.6954845124
 40
0.7265238139
 40
0.7574227825
 40
0.788180681
 40
0.818799233
 40
0.8340596392
 40
0.8492869828
 40
0.8644821669
 40
0.879646239
 40
0.9098814784
 40
0.9400082554
 40
0.9550372825
 40
0.9700442852
 40
0.9850311856
 40
1.0
 40
1.0
 40
1.0
 40
1.0
 10
10.6128035272
 20
6.742232956
 30
0.0
 10
10.5996976824
 20
6.7431418494
 30
0.0
 10
10.5734796935
 20
6.7458292908
 30
0.0
 10
10.5344204512
 20
6.7524231673
 30
0.0
 10
10.4957020096
 20
6.7615602856
 30
0.0
 10
10.457494899
 20
6.7732006352
 30
0.0
 10
10.4199646996
 20
6.7872933174
 30
0.0
 10
10.3832747001
 20
6.8037768793
 30
0.0
 10
10.3475843352
 20
6.8225794719
 30
0.0
 10
10.3130487365
 20
6.8436192155
 30
0.0
 10
10.2798179922
 20
6.8668045267
 30
0.0
 10
10.2480365199
 20
6.8920345235
 30
0.0
 10
10.2178424452
 20
6.9191994686
 30
0.0
 10
10.1893670069
 20
6.9481812417
 30
0.0
 10
10.1627339928
 20
6.9788538494
 30
0.0
 10
10.1380592054
 20
7.0110839677
 30
0.0
 10
10.1154499637
 20
7.0447315167
 30
0.0
 10
10.0950046376
 20
7.0796502619
 30
0.0
 10
10.0768122104
 20
7.1156884387
 30
0.0
 10
10.0609519069
 20
7.1526894144
 30
0.0
 10
10.0474928486
 20
7.1904923607
 30
0.0
 10
10.0364937536
 20
7.2289329472
 30
0.0
 10
10.0280026779
 20
7.2678440374
 30
0.0
 10
10.0220568091
 20
7.3070564434
 30
0.0
 10
10.0186822756
 20
7.3463995174
 30
0.0
 10
10.0178941101
 20
7.3857023897
 30
0.0
 10
10.01969581
 20
7.424792838
 30
0.0
 10
10.0233540362
 20
7.4570896029
 30
0.0
 10
10.0275654969
 20
7.4826442156
 30
0.0
 10
10.0313581116
 20
7.5016322227
 30
0.0
 10
10.0357838141
 20
7.5204408128
 30
0.0
 10
10.0425150843
 20
7.5452255274
 30
0.0
 10
10.0524847781
 20
7.5756673324
 30
0.0
 10
10.0645086965
 20
7.6052965821
 30
0.0
 10
10.0753156625
 20
7.6283930133
 30
0.0
 10
10.0840004384
 20
7.6453859416
 30
0.0
 10
10.0932608816
 20
7.6620424474
 30
0.0
 10
10.0998156302
 20
7.6729173152
 30
0.0
 10
10.1031851381
 20
7.6782917964
 30
0.0
  0
SPLINE
  5
3A2
100
AcDbEntity
  8
0
100
AcDbSpline
 62
7
  6
CONTINUOUS
 70
0
 71
3
 72
39
 73
35
 74
0
 42
0.0000001
 43
0.0000001
 44
0.0000000001
 40
0.0
 40
0.0
 40
0.0
 40
0.0
 40
0.0311450496
 40
0.0624431124
 40
0.0938883501
 40
0.1254709987
 40
0.1571788953
 40
0.1889972749
 40
0.2209091922
 40
0.2528958629
 40
0.2849370446
 40
0.3170114373
 40
0.3490970993
 40
0.3811718714
 40
0.4132138048
 40
0.4452015851
 40
0.4771149473
 40
0.508935079
 40
0.5406450006
 40
0.572229919
 40
0.6036775474
 40
0.6349783854
 40
0.6661259539
 40
0.697116972
 40
0.7279514727
 40
0.758632853
 40
0.7891678509
 40
0.8195664476
 40
0.8498416867
 40
0.8800094173
 40
0.9100879625
 40
0.9400977185
 40
0.9700606941
 40
1.0
 40
1.0
 40
1.0
 40
1.0
 10
9.7665866047
 20
10.0498825664
 30
0.0
 10
9.7549817719
 20
10.0506873643
 30
0.0
 10
9.7317653648
 20
10.0531503384
 30
0.0
 10
9.697222222
 20
10.0593546705
 30
0.0
 10
9.6630490725
 20
10.0680450389
 30
0.0
 10
9.6294304615
 20
10.0791747558
 30
0.0
 10
9.5965450111
 20
10.0926841605
 30
0.0
 10
9.5645681465
 20
10.1085010076
 30
0.0
 10
9.5336702041
 20
10.1265407472
 30
0.0
 10
9.5040158231
 20
10.146707055
 30
0.0
 10
9.4757630018
 20
10.1688923269
 30
0.0
 10
9.4490622969
 20
10.1929782563
 30
0.0
 10
9.4240560004
 20
10.2188364286
 30
0.0
 10
9.4008773818
 20
10.246329001
 30
0.0
 10
9.3796500162
 20
10.2753094618
 30
0.0
 10
9.3604871251
 20
10.3056233913
 30
0.0
 10
9.3434909902
 20
10.3371092799
 30
0.0
 10
9.3287523624
 20
10.3695993507
 30
0.0
 10
9.3163500014
 20
10.4029204622
 30
0.0
 10
9.3063502786
 20
10.4368950274
 30
0.0
 10
9.2988068152
 20
10.4713419409
 30
0.0
 10
9.2937601974
 20
10.5060775289
 30
0.0
 10
9.2912376903
 20
10.540916508
 30
0.0
 10
9.2912531329
 20
10.5756729754
 30
0.0
 10
9.2938068534
 20
10.6101613851
 30
0.0
 10
9.2988856506
 20
10.6441975282
 30
0.0
 10
9.3064628298
 20
10.6775995085
 30
0.0
 10
9.3164982813
 20
10.7101887349
 30
0.0
 10
9.3289387163
 20
10.7417908576
 30
0.0
 10
9.3437179807
 20
10.772236768
 30
0.0
 10
9.3607571711
 20
10.801363298
 30
0.0
 10
9.3799658562
 20
10.8290149389
 30
0.0
 10
9.4012393992
 20
10.8550417106
 30
0.0
 10
9.4167293616
 20
10.8712234743
 30
0.0
 10
9.424772338
 20
10.8789923667
 30
0.0
  0
SPLINE
  5
3A3
100
AcDbEntity
  8
0
100
AcDbSpline
 62
7
  6
CONTINUOUS
 70
0
 71
3
 72
23
 73
19
 74
0
 42
0.0000001
 43
0.0000001
 44
0.0000000001
 40
0.0
 40
0.0
 40
0.0
 40
0.0
 40
0.0616482046
 40
0.1233194369
 40
0.1850364679
 40
0.2468215571
 40
0.3086962063
 40
0.3706809237
 40
0.4327950053
 40
0.495056333
 40
0.5574811833
 40
0.6200840745
 40
0.6828776148
 40
0.745872329
 40
0.8090769454
 40
0.8724968733
 40
0.9361383371
 40
1.0
 40
1.0
 40
1.0
 40
1.0
 10
10.1084008713
 20
10.1712438355
 30
0.0
 10
10.1028796305
 20
10.1659107444
 30
0.0
 10
10.0915457721
 20
10.1555374849
 30
0.0
 10
10.0737298935
 20
10.140910757
 30
0.0
 10
10.0551403778
 20
10.1272508418
 30
0.0
 10
10.0358247113
 20
10.1145927415
 30
0.0
 10
10.0158313963
 20
10.102968177
 30
0.0
 10
9.9952108723
 20
10.0924064391
 30
0.0
 10
9.974015096
 20
10.0829340748
 30
0.0
 10
9.9522974792
 20
10.0745748996
 30
0.0
 10
9.9301127359
 20
10.0673499164
 30
0.0
 10
9.9075167462
 20
10.0612772711
 30
0.0
 10
9.8845664284
 20
10.0563722173
 30
0.0
 10
9.8613195434
 20
10.0526470028
 30
0.0
 10
9.8378347538
 20
10.050111009
 30
0.0
 10
9.8141707905
 20
10.0487704075
 30
0.0
 10
9.7903882077
 20
10.0486286883
 30
0.0
 10
9.7745194916
 20
10.0493324188
 30
0.0
 10
9.7665866047
 20
10.0498825664
 30
0.0
  0
SPLINE
  5
3A4
100
AcDbEntity
  8
0
100
AcDbSpline
 62
7
  6
CONTINUOUS
 70
0
 71
3
 72
39
 73
35
 74
0
 42
0.0000001
 43
0.0000001
 44
0.0000000001
 40
0.0
 40
0.0
 40
0.0
 40
0.0
 40
0.031947906
 40
0.063787703
 40
0.0955192932
 40
0.1271452193
 40
0.1586681265
 40
0.1900920688
 40
0.2214219665
 40
0.2526637308
 40
0.2838241659
 40
0.3149109179
 40
0.3459323991
 40
0.3768977056
 40
0.4078165256
 40
0.4386990394
 40
0.4695558132
 40
0.5003976877
 40
0.5312356627
 40
0.5620807794
 40
0.5929440033
 40
0.6238361062
 40
0.6547675525
 40
0.6857483886
 40
0.7167881386
 40
0.7478957067
 40
0.7790792879
 40
0.8103462882
 40
0.8417032542
 40
0.8731558146
 40
0.9047086305
 40
0.9363653581
 40
0.9681286222
 40
1.0
 40
1.0
 40
1.0
 40
1.0
 10
10.3785724847
 20
6.4343623921
 30
0.0
 10
10.389615999
 20
6.4335965218
 30
0.0
 10
10.411706836
 20
6.4326049556
 30
0.0
 10
10.4448170251
 20
6.4327483284
 30
0.0
 10
10.4777690684
 20
6.4345246079
 30
0.0
 10
10.5104823546
 20
6.4379294716
 30
0.0
 10
10.5428784797
 20
6.4429549178
 30
0.0
 10
10.5748792236
 20
6.4495888457
 30
0.0
 10
10.6064074865
 20
6.4578153825
 30
0.0
 10
10.637387242
 20
6.4676147652
 30
0.0
 10
10.6677437866
 20
6.4789634514
 30
0.0
 10
10.6974039105
 20
6.4918341386
 30
0.0
 10
10.7262960755
 20
6.5061958477
 30
0.0
 10
10.7543505885
 20
6.5220139956
 30
0.0
 10
10.7814997712
 20
6.539250477
 30
0.0
 10
10.8076781258
 20
6.5578637562
 30
0.0
 10
10.8328224947
 20
6.5778089664
 30
0.0
 10
10.8568722149
 20
6.5990380187
 30
0.0
 10
10.8797692669
 20
6.6214997183
 30
0.0
 10
10.901458426
 20
6.6451398801
 30
0.0
 10
10.9218873895
 20
6.6699014722
 30
0.0
 10
10.941006903
 20
6.6957247546
 30
0.0
 10
10.9587708805
 20
6.7225474263
 30
0.0
 10
10.9751365152
 20
6.7503047769
 30
0.0
 10
10.9900643825
 20
6.778929845
 30
0.0
 10
11.0035185347
 20
6.808353582
 30
0.0
 10
11.0154665863
 20
6.8385050192
 30
0.0
 10
11.0258798035
 20
6.8693114392
 30
0.0
 10
11.0347331599
 20
6.9006985506
 30
0.0
 10
11.0420053948
 20
6.9325906996
 30
0.0
 10
11.0476790622
 20
6.9649109343
 30
0.0
 10
11.0517405708
 20
6.9975816359
 30
0.0
 10
11.0541802137
 20
7.0305230348
 30
0.0
 10
11.0547206126
 20
7.0525765349
 30
0.0
 10
11.0547206031
 20
7.0636200567
 30
0.0
  0
SPLINE
  5
3A5
100
AcDbEntity
  8
0
100
AcDbSpline
 62
7
  6
CONTINUOUS
 70
0
 71
3
 72
39
 73
35
 74
0
 42
0.0000001
 43
0.0000001
 44
0.0000000001
 40
0.0
 40
0.0
 40
0.0
 40
0.0
 40
0.031973696
 40
0.0638434585
 40
0.0956085694
 40
0.1272716768
 40
0.1588349797
 40
0.1903021107
 40
0.2216774565
 40
0.2529662915
 40
0.2841747123
 40
0.3153095804
 40
0.3463784667
 40
0.3773895802
 40
0.4083516933
 40
0.4392740599
 40
0.4701663256
 40
0.5010384335
 40
0.5319005262
 40
0.5627628452
 40
0.5936356293
 40
0.6245290137
 40
0.6554529303
 40
0.6864170097
 40
0.7174304866
 40
0.7485021111
 40
0.7796400656
 40
0.8108518898
 40
0.8421444135
 40
0.873523696
 40
0.9049949747
 40
0.9365626219
 40
0.9682301122
 40
1.0
 40
1.0
 40
1.0
 40
1.0
 10
10.4142894834
 20
6.5045793961
 30
0.0
 10
10.4243652835
 20
6.5038806369
 30
0.0
 10
10.4445201951
 20
6.5029578858
 30
0.0
 10
10.474732262
 20
6.5030065582
 30
0.0
 10
10.5048104866
 20
6.5044902706
 30
0.0
 10
10.5346865047
 20
6.5074055784
 30
0.0
 10
10.5642939708
 20
6.5117461872
 30
0.0
 10
10.5935665323
 20
6.5175023872
 30
0.0
 10
10.6224387671
 20
6.5246614112
 30
0.0
 10
10.6508460926
 20
6.5332072872
 30
0.0
 10
10.6787249694
 20
6.5431209545
 30
0.0
 10
10.7060130286
 20
6.5543802938
 30
0.0
 10
10.7326492137
 20
6.5669601717
 30
0.0
 10
10.7585739153
 20
6.5808325027
 30
0.0
 10
10.7837291142
 20
6.5959662911
 30
0.0
 10
10.8080585219
 20
6.6123276935
 30
0.0
 10
10.8315076929
 20
6.6298801217
 30
0.0
 10
10.8540241491
 20
6.6485843188
 30
0.0
 10
10.8755574986
 20
6.6683984467
 30
0.0
 10
10.8960595443
 20
6.6892781838
 30
0.0
 10
10.9154844147
 20
6.7111768033
 30
0.0
 10
10.9337886655
 20
6.7340452878
 30
0.0
 10
10.9509313606
 20
6.7578324549
 30
0.0
 10
10.9668741674
 20
6.7824850692
 30
0.0
 10
10.9815814416
 20
6.8079479624
 30
0.0
 10
10.9950203018
 20
6.8341641585
 30
0.0
 10
11.0071607355
 20
6.8610749863
 30
0.0
 10
11.0179756453
 20
6.8886202287
 30
0.0
 10
11.027440899
 20
6.9167382553
 30
0.0
 10
11.0355353847
 20
6.945366186
 30
0.0
 10
11.0422410505
 20
6.9744399297
 30
0.0
 10
11.0475429651
 20
7.0038947078
 30
0.0
 10
11.0514292995
 20
7.0336637642
 30
0.0
 10
11.0530681863
 20
7.0536445857
 30
0.0
 10
11.0536504237
 20
7.0636633024
 30
0.0
  0
SPLINE
  5
3A6
100
AcDbEntity
  8
0
100
AcDbSpline
 62
7
  6
CONTINUOUS
 70
0
 71
3
 72
15
 73
11
 74
0
 42
0.0000001
 43
0.0000001
 44
0.0000000001
 40
0.0
 40
0.0
 40
0.0
 40
0.0
 40
0.1234352966
 40
0.247245718
 40
0.3714760527
 40
0.4961642084
 40
0.6213417858
 40
0.7470299903
 40
0.8732493084
 40
1.0
 40
1.0
 40
1.0
 40
1.0
 10
10.0432427291
 20
10.4723998208
 30
0.0
 10
10.0390385177
 20
10.47045894
 30
0.0
 10
10.030489269
 20
10.4668421293
 30
0.0
 10
10.0173247324
 20
10.4622432325
 30
0.0
 10
10.0038483714
 20
10.4584789981
 30
0.0
 10
9.9901110702
 20
10.4555636697
 30
0.0
 10
9.976163923
 20
10.4535080043
 30
0.0
 10
9.9620586234
 20
10.4523194671
 30
0.0
 10
9.9478485062
 20
10.4520025487
 30
0.0
 10
9.9383587502
 20
10.4523722869
 30
0.0
 10
9.9336151734
 20
10.4527012551
 30
0.0
  0
SPLINE
  5
3A7
100
AcDbEntity
  8
0
100
AcDbSpline
 62
7
  6
CONTINUOUS
 70
0
 71
3
 72
24
 73
20
 74
0
 42
0.0000001
 43
0.0000001
 44
0.0000000001
 40
0.0
 40
0.0
 40
0.0
 40
0.0
 40
0.0638614995
 40
0.1275023233
 40
0.1909220304
 40
0.2541262603
 40
0.3171206238
 40
0.3799138162
 40
0.4425163558
 40
0.504940861
 40
0.5672018416
 40
0.6293155754
 40
0.6912999436
 40
0.7531742442
 40
0.8149589882
 40
0.8766756778
 40
0.9075182148
 40
0.9383521339
 40
1.0
 40
1.0
 40
1.0
 40
1.0
 10
10.4265893337
 20
6.5623638466
 30
0.0
 10
10.4365135732
 20
6.5616755983
 30
0.0
 10
10.4563656587
 20
6.5607952071
 30
0.0
 10
10.4861181794
 20
6.5609725297
 30
0.0
 10
10.5157222697
 20
6.5626496463
 30
0.0
 10
10.5451022508
 20
6.5658222665
 30
0.0
 10
10.5741845862
 20
6.5704826197
 30
0.0
 10
10.6028959129
 20
6.576618978
 30
0.0
 10
10.6311639688
 20
6.584216008
 30
0.0
 10
10.658917542
 20
6.5932546499
 30
0.0
 10
10.6860867194
 20
6.6037122078
 30
0.0
 10
10.7126030587
 20
6.6155624045
 30
0.0
 10
10.7383997183
 20
6.6287754212
 30
0.0
 10
10.7634117964
 20
6.643318103
 30
0.0
 10
10.7875758636
 20
6.6591535442
 30
0.0
 10
10.8069606113
 20
6.673397893
 30
0.0
 10
10.8219807021
 20
6.6853957816
 30
0.0
 10
10.8366647092
 20
6.6977854387
 30
0.0
 10
10.8472986785
 20
6.7075182313
 30
0.0
 10
10.854205868
 20
6.7141900418
 30
0.0
  0
SPLINE
  5
3A8
100
AcDbEntity
  8
0
100
AcDbSpline
 62
7
  6
CONTINUOUS
 70
0
 71
3
 72
93
 73
89
 74
0
 42
0.0000001
 43
0.0000001
 44
0.0000000001
 40
0.0
 40
0.0
 40
0.0
 40
0.0
 40
0.0027164122
 40
0.0054531986
 40
0.0082302464
 40
0.0110665143
 40
0.0139796987
 40
0.0169859749
 40
0.0200999116
 40
0.0233343924
 40
0.0267007144
 40
0.0302086301
 40
0.0338665055
 40
0.0376814345
 40
0.0416593638
 40
0.0458052537
 40
0.0501231341
 40
0.0546162866
 40
0.0592872492
 40
0.0641379798
 40
0.0691698571
 40
0.0743837847
 40
0.0797802281
 40
0.0853592419
 40
0.0911205549
 40
0.097063532
 40
0.1031872889
 40
0.1094906267
 40
0.1159721353
 40
0.1226301497
 40
0.136467702
 40
0.1509863985
 40
0.166166177
 40
0.1819844989
 40
0.1984166092
 40
0.2154357535
 40
0.2330133648
 40
0.2511192265
 40
0.2697216198
 40
0.2887874599
 40
0.3082824199
 40
0.3281710492
 40
0.3484168852
 40
0.3689825618
 40
0.3898299142
 40
0.4109200821
 40
0.4322136103
 40
0.45367055
 40
0.4752505584
 40
0.496912997
 40
0.5186170297
 40
0.5403217213
 40
0.5619861345
 40
0.5835694282
 40
0.6050309555
 40
0.6263303623
 40
0.6474276864
 40
0.6682834561
 40
0.6888587905
 40
0.7091155008
 40
0.729016193
 40
0.7485243728
 40
0.7676045542
 40
0.7862223725
 40
0.8043447018
 40
0.8219397795
 40
0.8389773394
 40
0.8554287585
 40
0.8712672205
 40
0.8864679016
 40
0.901008187
 40
0.914867929
 40
0.921537231
 40
0.9280301459
 40
0.9343449921
 40
0.9404803324
 40
0.9464349771
 40
0.9522079882
 40
0.9577987496
 40
0.9632069274
 40
0.9684325931
 40
0.9734761642
 40
0.9783385117
 40
0.9830209603
 40
0.9875254509
 40
0.9918545996
 40
0.9960115539
 40
1.0
 40
1.0
 40
1.0
 40
1.0
 10
12.9985102403
 20
10.4004603816
 30
0.0
 10
13.0003084949
 20
10.4003356779
 30
0.0
 10
13.0039092865
 20
10.3999226005
 30
0.0
 10
13.0092646333
 20
10.3988171467
 30
0.0
 10
13.0145794966
 20
10.3972260462
 30
0.0
 10
13.0198501227
 20
10.395150905
 30
0.0
 10
13.0250737277
 20
10.3925934494
 30
0.0
 10
13.0302477164
 20
10.3895558267
 30
0.0
 10
13.0353696092
 20
10.3860400518
 30
0.0
 10
13.040437225
 20
10.3820484836
 30
0.0
 10
13.0454482916
 20
10.377583353
 30
0.0
 10
13.0504007072
 20
10.3726471651
 30
0.0
 10
13.0552922823
 20
10.3672424646
 30
0.0
 10
13.0601208393
 20
10.3613719925
 30
0.0
 10
13.0648842325
 20
10.355038699
 30
0.0
 10
13.0695801916
 20
10.3482456729
 30
0.0
 10
13.0742066031
 20
10.3409963078
 30
0.0
 10
13.0787611619
 20
10.333294122
 30
0.0
 10
13.0832417658
 20
10.3251429532
 30
0.0
 10
13.0876461552
 20
10.3165467928
 30
0.0
 10
13.0919722181
 20
10.3075099134
 30
0.0
 10
13.0962177982
 20
10.2980367868
 30
0.0
 10
13.100380775
 20
10.2881321174
 30
0.0
 10
13.1044591157
 20
10.2778008435
 30
0.0
 10
13.1084507178
 20
10.2670481014
 30
0.0
 10
13.1123536588
 20
10.2558792736
 30
0.0
 10
13.1161659016
 20
10.2442999266
 30
0.0
 10
13.119885595
 20
10.2323158686
 30
0.0
 10
13.1235108437
 20
10.2199330758
 30
0.0
 10
13.1282774305
 20
10.2026771148
 30
0.0
 10
13.1339704531
 20
10.1801469974
 30
0.0
 10
13.1403128274
 20
10.1519589334
 30
0.0
 10
13.1462377996
 20
10.122338735
 30
0.0
 10
13.1517333441
 20
10.0913458475
 30
0.0
 10
13.1567882693
 20
10.0590422747
 30
0.0
 10
13.1613922875
 20
10.0254927946
 30
0.0
 10
13.1655360249
 20
9.9907647149
 30
0.0
 10
13.1692110469
 20
9.9549277573
 30
0.0
 10
13.172409873
 20
9.9180539011
 30
0.0
 10
13.1751259902
 20
9.8802172338
 30
0.0
 10
13.1773538659
 20
9.8414937956
 30
0.0
 10
13.1790889579
 20
9.8019614242
 30
0.0
 10
13.180327723
 20
9.7616995949
 30
0.0
 10
13.1810676234
 20
9.720789259
 30
0.0
 10
13.1813071311
 20
9.6793126798
 30
0.0
 10
13.1810457305
 20
9.6373532659
 30
0.0
 10
13.1802839215
 20
9.5949954019
 30
0.0
 10
13.1790232156
 20
9.5523242776
 30
0.0
 10
13.1772661328
 20
9.5094257151
 30
0.0
 10
13.1750161957
 20
9.4663859949
 30
0.0
 10
13.1722779229
 20
9.4232916826
 30
0.0
 10
13.1690568193
 20
9.3802294539
 30
0.0
 10
13.1653593651
 20
9.3372859199
 30
0.0
 10
13.1611930027
 20
9.2945474529
 30
0.0
 10
13.1565661223
 20
9.2521000108
 30
0.0
 10
13.1514880468
 20
9.2100289633
 30
0.0
 10
13.1459690109
 20
9.1684189195
 30
0.0
 10
13.1400201406
 20
9.1273535566
 30
0.0
 10
13.1336534314
 20
9.0869154513
 30
0.0
 10
13.1268817244
 20
9.0471859123
 30
0.0
 10
13.1197186806
 20
9.0082448159
 30
0.0
 10
13.1121787542
 20
8.9701704433
 30
0.0
 10
13.1042771635
 20
8.9330393206
 30
0.0
 10
13.0960298615
 20
8.8969260607
 30
0.0
 10
13.0874535051
 20
8.8619032094
 30
0.0
 10
13.0785654195
 20
8.828041095
 30
0.0
 10
13.0693835633
 20
8.7954076842
 30
0.0
 10
13.0599264918
 20
8.76406843
 30
0.0
 10
13.0502133179
 20
8.7340861594
 30
0.0
 10
13.0402636693
 20
8.7055208326
 30
0.0
 10
13.0300976457
 20
8.6784297641
 30
0.0
 10
13.0213544234
 20
8.6568596074
 30
0.0
 10
13.0142554286
 20
8.6403926712
 30
0.0
 10
13.0089581727
 20
8.628602795
 30
0.0
 10
13.0036222571
 20
8.6172204959
 30
0.0
 10
12.9982503356
 20
8.6062514598
 30
0.0
 10
12.9928451301
 20
8.5957011693
 30
0.0
 10
12.9874093055
 20
8.5855749113
 30
0.0
 10
12.9819456494
 20
8.5758777175
 30
0.0
 10
12.9764568117
 20
8.5666144491
 30
0.0
 10
12.9709456035
 20
8.5577896795
 30
0.0
 10
12.9654146852
 20
8.5494078307
 30
0.0
 10
12.9598668712
 20
8.5414730487
 30
0.0
 10
12.9543048656
 20
8.5339892656
 30
0.0
 10
12.9487313452
 20
8.5269601467
 30
0.0
 10
12.9431489381
 20
8.5203890798
 30
0.0
 10
12.9375605651
 20
8.5142796277
 30
0.0
 10
12.9337554017
 20
8.5104381808
 30
0.0
 10
12.931851767
 20
8.5085994108
 30
0.0
  0
SPLINE
  5
3A9
100
AcDbEntity
  8
0
100
AcDbSpline
 62
7
  6
CONTINUOUS
 70
0
 71
3
 72
15
 73
11
 74
0
 42
0.0000001
 43
0.0000001
 44
0.0000000001
 40
0.0
 40
0.0
 40
0.0
 40
0.0
 40
0.1270043078
 40
0.2533765797
 40
0.3791324396
 40
0.5042970966
 40
0.6289098207
 40
0.753021582
 40
0.8766943871
 40
1.0
 40
1.0
 40
1.0
 40
1.0
 10
10.6128035272
 20
6.742232956
 30
0.0
 10
10.6270068366
 20
6.7412479531
 30
0.0
 10
10.6554237042
 20
6.7402934731
 30
0.0
 10
10.6979289526
 20
6.7419380246
 30
0.0
 10
10.7399991065
 20
6.746653468
 30
0.0
 10
10.7814142053
 20
6.7544163205
 30
0.0
 10
10.821960645
 20
6.765186742
 30
0.0
 10
10.8614293253
 20
6.778909965
 30
0.0
 10
10.8996133595
 20
6.7955137935
 30
0.0
 10
10.9241191659
 20
6.8084668634
 30
0.0
 10
10.9360837475
 20
6.8153891744
 30
0.0
  0
SPLINE
  5
3AA
100
AcDbEntity
  8
0
100
AcDbSpline
 62
7
  6
CONTINUOUS
 70
0
 71
3
 72
28
 73
24
 74
0
 42
0.0000001
 43
0.0000001
 44
0.0000000001
 40
0.0
 40
0.0
 40
0.0
 40
0.0
 40
0.0246700768
 40
0.0503731511
 40
0.0770495958
 40
0.1046353579
 40
0.1330589607
 40
0.1622450784
 40
0.1921157442
 40
0.2225922269
 40
0.2535966617
 40
0.2850534288
 40
0.3490375287
 40
0.4140292266
 40
0.4796013787
 40
0.5454208902
 40
0.6112424739
 40
0.6768956596
 40
0.7422694464
 40
0.8072967962
 40
0.8719404634
 40
0.9361793525
 40
1.0
 40
1.0
 40
1.0
 40
1.0
 10
10.5855435643
 20
7.1021043535
 30
0.0
 10
10.5823243436
 20
7.1059175297
 30
0.0
 10
10.5757344043
 20
7.1136894381
 30
0.0
 10
10.5656444301
 20
7.125568511
 30
0.0
 10
10.5551987779
 20
7.1379193146
 30
0.0
 10
10.5444591292
 20
7.150742056
 30
0.0
 10
10.5334891388
 20
7.1640336246
 30
0.0
 10
10.5223539268
 20
7.1777872571
 30
0.0
 10
10.5111188491
 20
7.1919930056
 30
0.0
 10
10.4998486636
 20
7.2066380338
 30
0.0
 10
10.4886066121
 20
7.2217072192
 30
0.0
 10
10.4736518515
 20
7.2424588407
 30
0.0
 10
10.4553930726
 20
7.2692984975
 30
0.0
 10
10.4346061083
 20
7.3027289338
 30
0.0
 10
10.4151818908
 20
7.3373986936
 30
0.0
 10
10.3974259784
 20
7.3731421036
 30
0.0
 10
10.3815891077
 20
7.4097966965
 30
0.0
 10
10.3678745828
 20
7.4472033853
 30
0.0
 10
10.3564448773
 20
7.4852046309
 30
0.0
 10
10.3474270325
 20
7.523641226
 30
0.0
 10
10.3409167206
 20
7.5623502383
 30
0.0
 10
10.3369806518
 20
7.6011590177
 30
0.0
 10
10.3360961746
 20
7.6270716517
 30
0.0
 10
10.3360961746
 20
7.6399815433
 30
0.0
  0
SPLINE
  5
3AB
100
AcDbEntity
  8
0
100
AcDbSpline
 62
7
  6
CONTINUOUS
 70
0
 71
3
 72
24
 73
20
 74
0
 42
0.0000001
 43
0.0000001
 44
0.0000000001
 40
0.0
 40
0.0
 40
0.0
 40
0.0
 40
0.0755929441
 40
0.1466353292
 40
0.2134607542
 40
0.2454342717
 40
0.2765268668
 40
0.3363370143
 40
0.3935561274
 40
0.4489310748
 40
0.5032948935
 40
0.557531619
 40
0.612531838
 40
0.6691469901
 40
0.7281515817
 40
0.7902214221
 40
0.8559247918
 40
0.9257271707
 40
1.0
 40
1.0
 40
1.0
 40
1.0
 10
12.931851767
 20
6.8148483391
 30
0.0
 10
12.9310735823
 20
6.8140966702
 30
0.0
 10
12.9295181796
 20
6.8126847729
 30
0.0
 10
12.9271111969
 20
6.8107986144
 30
0.0
 10
12.9250784381
 20
6.8094592685
 30
0.0
 10
12.9234572611
 20
6.8085479463
 30
0.0
 10
12.9218832682
 20
6.8077621345
 30
0.0
 10
12.9199152981
 20
6.8069617737
 30
0.0
 10
12.917532685
 20
6.8062980021
 30
0.0
 10
12.9151625783
 20
6.8059457427
 30
0.0
 10
12.9128090809
 20
6.8059066009
 30
0.0
 10
12.9104766797
 20
6.8061812662
 30
0.0
 10
12.9081698891
 20
6.8067687915
 30
0.0
 10
12.9058926502
 20
6.8076673136
 30
0.0
 10
12.9036479496
 20
6.8088741136
 30
0.0
 10
12.9014380989
 20
6.8103865091
 30
0.0
 10
12.8992648382
 20
6.8122018105
 30
0.0
 10
12.897129964
 20
6.8143173863
 30
0.0
 10
12.8957769156
 20
6.8158761342
 30
0.0
 10
12.8951061765
 20
6.8167008517
 30
0.0
  0
SPLINE
  5
3AC
100
AcDbEntity
  8
0
100
AcDbSpline
 62
7
  6
CONTINUOUS
 70
0
 71
3
 72
11
 73
7
 74
0
 42
0.0000001
 43
0.0000001
 44
0.0000000001
 40
0.0
 40
0.0
 40
0.0
 40
0.0
 40
0.2520883767
 40
0.5028477739
 40
0.7521897082
 40
1.0
 40
1.0
 40
1.0
 40
1.0
 10
10.3360961746
 20
7.6399815433
 30
0.0
 10
10.3360961746
 20
7.6494128388
 30
0.0
 10
10.3365652193
 20
7.6682291677
 30
0.0
 10
10.3386845434
 20
7.6963023128
 30
0.0
 10
10.3422060791
 20
7.724072943
 30
0.0
 10
10.3454869341
 20
7.7423908325
 30
0.0
 10
10.3473559664
 20
7.751471726
 30
0.0
  0
SPLINE
  5
3AD
100
AcDbEntity
  8
0
100
AcDbSpline
 62
7
  6
CONTINUOUS
 70
0
 71
3
 72
72
 73
68
 74
0
 42
0.0000001
 43
0.0000001
 44
0.0000000001
 40
0.0
 40
0.0
 40
0.0
 40
0.0
 40
0.0077182432
 40
0.0113231882
 40
0.014772195
 40
0.0212543892
 40
0.0243259873
 40
0.0273091604
 40
0.0302260995
 40
0.0331007531
 40
0.0359582176
 40
0.0388240867
 40
0.0417236988
 40
0.0446814571
 40
0.0477202328
 40
0.0508609149
 40
0.0575163543
 40
0.0610661071
 40
0.0647793834
 40
0.0686664116
 40
0.072735744
 40
0.0769944783
 40
0.0814482923
 40
0.0861017736
 40
0.0909585119
 40
0.1012903924
 40
0.1124579645
 40
0.1244639772
 40
0.1373033585
 40
0.1509647502
 40
0.1654315512
 40
0.1806826243
 40
0.1966929797
 40
0.2134342821
 40
0.2308751732
 40
0.2489815712
 40
0.2677170163
 40
0.2870428896
 40
0.306918559
 40
0.3273016263
 40
0.369411565
 40
0.4130059014
 40
0.4576989285
 40
0.503092093
 40
0.5487788264
 40
0.5943492002
 40
0.639394608
 40
0.6835124596
 40
0.7263109016
 40
0.7470975676
 40
0.7674147845
 40
0.7872187942
 40
0.8064674292
 40
0.8251203082
 40
0.8431390921
 40
0.8604876348
 40
0.877132201
 40
0.8930418126
 40
0.9081885684
 40
0.9225479733
 40
0.9360994519
 40
0.9488270493
 40
0.9607202235
 40
0.9717748375
 40
0.9819946945
 40
0.991394406
 40
1.0
 40
1.0
 40
1.0
 40
1.0
 10
12.9325367175
 20
7.3564163573
 30
0.0
 10
12.9336658028
 20
7.3574671211
 30
0.0
 10
12.9353962117
 20
7.3589341228
 30
0.0
 10
12.9378114973
 20
7.360634472
 30
0.0
 10
12.9401197484
 20
7.3620470887
 30
0.0
 10
12.9424746196
 20
7.3631736043
 30
0.0
 10
12.9448544563
 20
7.363964947
 30
0.0
 10
12.946601057
 20
7.3643805081
 30
0.0
 10
12.9483396419
 20
7.364627821
 30
0.0
 10
12.9500689534
 20
7.3647066045
 30
0.0
 10
12.9517875474
 20
7.3646166183
 30
0.0
 10
12.9534939499
 20
7.3643578638
 30
0.0
 10
12.9551867571
 20
7.3639307539
 30
0.0
 10
12.9568646261
 20
7.3633357789
 30
0.0
 10
12.9585264622
 20
7.3625735819
 30
0.0
 10
12.9607621507
 20
7.3613114813
 30
0.0
 10
12.962920936
 20
7.3597265371
 30
0.0
 10
12.9649935511
 20
7.3578701955
 30
0.0
 10
12.9665613432
 20
7.3562848913
 30
0.0
 10
12.9681077031
 20
7.3545379419
 30
0.0
 10
12.9696320812
 20
7.3526301983
 30
0.0
 10
12.9711335499
 20
7.3505628089
 30
0.0
 10
12.9726113593
 20
7.3483370063
 30
0.0
 10
12.974064691
 20
7.3459540727
 30
0.0
 10
12.9760088668
 20
7.3424974649
 30
0.0
 10
12.9783623798
 20
7.337781689
 30
0.0
 10
12.9810202164
 20
7.331633264
 30
0.0
 10
12.9835611232
 20
7.3248975361
 30
0.0
 10
12.9859791283
 20
7.3175902961
 30
0.0
 10
12.9882684894
 20
7.3097284769
 30
0.0
 10
12.9904236825
 20
7.301330558
 30
0.0
 10
12.9924395192
 20
7.2924163724
 30
0.0
 10
12.9943111216
 20
7.2830070611
 30
0.0
 10
12.9960339374
 20
7.2731249855
 30
0.0
 10
12.9976037801
 20
7.2627936814
 30
0.0
 10
12.9990168536
 20
7.2520377945
 30
0.0
 10
13.0002697268
 20
7.240882999
 30
0.0
 10
13.001359334
 20
7.2293559443
 30
0.0
 10
13.0022830729
 20
7.2174841604
 30
0.0
 10
13.0033014788
 20
7.2010549274
 30
0.0
 10
13.0041326092
 20
7.1798679354
 30
0.0
 10
13.0044348439
 20
7.1538086571
 30
0.0
 10
13.0040487268
 20
7.1270943781
 30
0.0
 10
13.0029777503
 20
7.0999804888
 30
0.0
 10
13.0012319122
 20
7.0727260274
 30
0.0
 10
12.9988279028
 20
7.0455914792
 30
0.0
 10
12.9957887964
 20
7.0188360812
 30
0.0
 10
12.9921438366
 20
6.9927156158
 30
0.0
 10
12.9885974191
 20
6.9714837796
 30
0.0
 10
12.985474195
 20
6.9550100194
 30
0.0
 10
12.9830265132
 20
6.9430865874
 30
0.0
 10
12.9804568094
 20
6.9315034689
 30
0.0
 10
12.9777712259
 20
6.9202883373
 30
0.0
 10
12.9749762198
 20
6.9094679999
 30
0.0
 10
12.9720785292
 20
6.8990682893
 30
0.0
 10
12.9690851328
 20
6.8891140189
 30
0.0
 10
12.9660032228
 20
6.8796289238
 30
0.0
 10
12.962840219
 20
6.8706355788
 30
0.0
 10
12.9596037428
 20
6.8621553354
 30
0.0
 10
12.9563015654
 20
6.8542082797
 30
0.0
 10
12.9529415779
 20
6.8468131634
 30
0.0
 10
12.9495318121
 20
6.8399873087
 30
0.0
 10
12.9460803004
 20
6.8337465584
 30
0.0
 10
12.9425950939
 20
6.8281053237
 30
0.0
 10
12.9390838818
 20
6.8230760738
 30
0.0
 10
12.9355546833
 20
6.81867062
 30
0.0
 10
12.9330886728
 20
6.8160430984
 30
0.0
 10
12.931851767
 20
6.8148483391
 30
0.0
  0
SPLINE
  5
3AE
100
AcDbEntity
  8
0
100
AcDbSpline
 62
7
  6
CONTINUOUS
 70
0
 71
3
 72
28
 73
24
 74
0
 42
0.0000001
 43
0.0000001
 44
0.0000000001
 40
0.0
 40
0.0
 40
0.0
 40
0.0
 40
0.0450266309
 40
0.092822938
 40
0.1433295029
 40
0.1964760573
 40
0.2521772189
 40
0.3103370892
 40
0.3708494853
 40
0.4335992471
 40
0.4984631247
 40
0.5653106533
 40
0.6340046924
 40
0.7044020443
 40
0.7401939753
 40
0.7763558283
 40
0.8128673915
 40
0.8497089257
 40
0.8868629474
 40
0.9055518126
 40
0.9243121407
 40
0.9620337303
 40
1.0
 40
1.0
 40
1.0
 40
1.0
 10
10.5855435643
 20
7.1021043535
 30
0.0
 10
10.5813054924
 20
7.1039650684
 30
0.0
 10
10.5724875839
 20
7.1076180468
 30
0.0
 10
10.5586797184
 20
7.1127659493
 30
0.0
 10
10.5439232379
 20
7.1177355509
 30
0.0
 10
10.5282529119
 20
7.122515043
 30
0.0
 10
10.5117050328
 20
7.1270931308
 30
0.0
 10
10.4943183488
 20
7.131458966
 30
0.0
 10
10.4761335365
 20
7.1356021882
 30
0.0
 10
10.4571932409
 20
7.1395130104
 30
0.0
 10
10.4375418858
 20
7.1431820919
 30
0.0
 10
10.41722562
 20
7.1466008031
 30
0.0
 10
10.396292231
 20
7.149761247
 30
0.0
 10
10.3784747359
 20
7.1521588275
 30
0.0
 10
10.3639510548
 20
7.1539459773
 30
0.0
 10
10.3528747566
 20
7.1552250385
 30
0.0
 10
10.3416819235
 20
7.1564327147
 30
0.0
 10
10.3303788386
 20
7.1575662437
 30
0.0
 10
10.3208924361
 20
7.1584518648
 30
0.0
 10
10.3132535065
 20
7.1591293743
 30
0.0
 10
10.3055545053
 20
7.1597896208
 30
0.0
 10
10.295877224
 20
7.1605733208
 30
0.0
 10
10.2881176941
 20
7.1611441739
 30
0.0
 10
10.2842242677
 20
7.161414184
 30
0.0
  0
SPLINE
  5
3AF
100
AcDbEntity
  8
0
100
AcDbSpline
 62
4
  6
CONTINUOUS
 70
0
 71
3
 72
313
 73
309
 74
0
 42
0.0000001
 43
0.0000001
 44
0.0000000001
 40
0.0
 40
0.0
 40
0.0
 40
0.0
 40
0.015625
 40
0.0234375
 40
0.03125
 40
0.0390625
 40
0.046875
 40
0.05078125
 40
0.0546875
 40
0.056640625
 40
0.05859375
 40
0.060546875
 40
0.0615234375
 40
0.0620117188
 40
0.0625
 40
0.0629882812
 40
0.0634765625
 40
0.064453125
 40
0.06640625
 40
0.068359375
 40
0.0703125
 40
0.07421875
 40
0.078125
 40
0.0859375
 40
0.09375
 40
0.1015625
 40
0.109375
 40
0.11328125
 40
0.1171875
 40
0.119140625
 40
0.12109375
 40
0.123046875
 40
0.1240234375
 40
0.1245117188
 40
0.125
 40
0.1254882812
 40
0.1259765625
 40
0.126953125
 40
0.12890625
 40
0.130859375
 40
0.1328125
 40
0.13671875
 40
0.140625
 40
0.1484375
 40
0.15625
 40
0.1640625
 40
0.171875
 40
0.17578125
 40
0.1796875
 40
0.181640625
 40
0.18359375
 40
0.185546875
 40
0.1865234375
 40
0.1870117188
 40
0.1875
 40
0.1879882812
 40
0.1884765625
 40
0.189453125
 40
0.19140625
 40
0.193359375
 40
0.1953125
 40
0.19921875
 40
0.203125
 40
0.2109375
 40
0.21875
 40
0.2265625
 40
0.234375
 40
0.23828125
 40
0.2421875
 40
0.244140625
 40
0.24609375
 40
0.248046875
 40
0.2490234375
 40
0.2495117188
 40
0.25
 40
0.2504882812
 40
0.2509765625
 40
0.251953125
 40
0.25390625
 40
0.255859375
 40
0.2578125
 40
0.26171875
 40
0.265625
 40
0.2734375
 40
0.28125
 40
0.2890625
 40
0.296875
 40
0.30078125
 40
0.3046875
 40
0.306640625
 40
0.30859375
 40
0.310546875
 40
0.3115234375
 40
0.3120117188
 40
0.3125
 40
0.3129882812
 40
0.3134765625
 40
0.314453125
 40
0.31640625
 40
0.318359375
 40
0.3203125
 40
0.32421875
 40
0.328125
 40
0.3359375
 40
0.34375
 40
0.3515625
 40
0.359375
 40
0.36328125
 40
0.3671875
 40
0.369140625
 40
0.37109375
 40
0.373046875
 40
0.3740234375
 40
0.3745117188
 40
0.375
 40
0.3754882812
 40
0.3759765625
 40
0.376953125
 40
0.37890625
 40
0.380859375
 40
0.3828125
 40
0.38671875
 40
0.390625
 40
0.3984375
 40
0.40625
 40
0.4140625
 40
0.421875
 40
0.42578125
 40
0.4296875
 40
0.431640625
 40
0.43359375
 40
0.435546875
 40
0.4365234375
 40
0.4370117188
 40
0.4375
 40
0.4379882812
 40
0.4384765625
 40
0.439453125
 40
0.44140625
 40
0.443359375
 40
0.4453125
 40
0.44921875
 40
0.453125
 40
0.4609375
 40
0.46875
 40
0.4765625
 40
0.484375
 40
0.48828125
 40
0.4921875
 40
0.494140625
 40
0.49609375
 40
0.498046875
 40
0.4990234375
 40
0.4995117188
 40
0.5
 40
0.5004882812
 40
0.5009765625
 40
0.501953125
 40
0.50390625
 40
0.505859375
 40
0.5078125
 40
0.51171875
 40
0.515625
 40
0.5234375
 40
0.53125
 40
0.5390625
 40
0.546875
 40
0.55078125
 40
0.5546875
 40
0.556640625
 40
0.55859375
 40
0.560546875
 40
0.5615234375
 40
0.5620117188
 40
0.5625
 40
0.5629882812
 40
0.5634765625
 40
0.564453125
 40
0.56640625
 40
0.568359375
 40
0.5703125
 40
0.57421875
 40
0.578125
 40
0.5859375
 40
0.59375
 40
0.6015625
 40
0.609375
 40
0.61328125
 40
0.6171875
 40
0.619140625
 40
0.62109375
 40
0.623046875
 40
0.6240234375
 40
0.6245117188
 40
0.625
 40
0.6254882812
 40
0.6259765625
 40
0.626953125
 40
0.62890625
 40
0.630859375
 40
0.6328125
 40
0.63671875
 40
0.640625
 40
0.6484375
 40
0.65625
 40
0.6640625
 40
0.671875
 40
0.67578125
 40
0.6796875
 40
0.681640625
 40
0.68359375
 40
0.685546875
 40
0.6865234375
 40
0.6870117188
 40
0.6875
 40
0.6879882812
 40
0.6884765625
 40
0.689453125
 40
0.69140625
 40
0.693359375
 40
0.6953125
 40
0.69921875
 40
0.703125
 40
0.7109375
 40
0.71875
 40
0.7265625
 40
0.734375
 40
0.73828125
 40
0.7421875
 40
0.744140625
 40
0.74609375
 40
0.748046875
 40
0.7490234375
 40
0.7495117188
 40
0.75
 40
0.7504882812
 40
0.7509765625
 40
0.751953125
 40
0.75390625
 40
0.755859375
 40
0.7578125
 40
0.76171875
 40
0.765625
 40
0.7734375
 40
0.78125
 40
0.7890625
 40
0.796875
 40
0.80078125
 40
0.8046875
 40
0.806640625
 40
0.80859375
 40
0.810546875
 40
0.8115234375
 40
0.8120117188
 40
0.8125
 40
0.8129882812
 40
0.8134765625
 40
0.814453125
 40
0.81640625
 40
0.818359375
 40
0.8203125
 40
0.82421875
 40
0.828125
 40
0.8359375
 40
0.84375
 40
0.8515625
 40
0.859375
 40
0.86328125
 40
0.8671875
 40
0.869140625
 40
0.87109375
 40
0.873046875
 40
0.8740234375
 40
0.8745117188
 40
0.875
 40
0.8754882812
 40
0.8759765625
 40
0.876953125
 40
0.87890625
 40
0.880859375
 40
0.8828125
 40
0.88671875
 40
0.890625
 40
0.8984375
 40
0.90625
 40
0.9140625
 40
0.921875
 40
0.92578125
 40
0.9296875
 40
0.931640625
 40
0.93359375
 40
0.935546875
 40
0.9365234375
 40
0.9370117188
 40
0.9375
 40
0.9379882812
 40
0.9384765625
 40
0.939453125
 40
0.94140625
 40
0.943359375
 40
0.9453125
 40
0.94921875
 40
0.953125
 40
0.9609375
 40
0.96875
 40
0.9765625
 40
0.984375
 40
1.0
 40
1.0
 40
1.0
 40
1.0
 10
9.9928064604
 20
9.2392371087
 30
0.0
 10
9.9931136721
 20
9.2360826166
 30
0.0
 10
9.9935744893
 20
9.2313508784
 30
0.0
 10
9.9941889133
 20
9.2250418942
 30
0.0
 10
9.9946497288
 20
9.2203101558
 30
0.0
 10
9.9951105537
 20
9.2155784186
 30
0.0
 10
9.9954945454
 20
9.2116353005
 30
0.0
 10
9.9958018038
 20
9.2084808144
 30
0.0
 10
9.9959936921
 20
9.2065092415
 30
0.0
 10
9.9961475421
 20
9.2049320268
 30
0.0
 10
9.9962620006
 20
9.2037489963
 30
0.0
 10
9.9963603379
 20
9.2027635178
 30
0.0
 10
9.9964233744
 20
9.2020729366
 30
0.0
 10
9.996468451
 20
9.2016794839
 30
0.0
 10
9.9964767482
 20
9.2013811124
 30
0.0
 10
9.9965825583
 20
9.2010952863
 30
0.0
 10
9.9966896249
 20
9.2007098089
 30
0.0
 10
9.9968928389
 20
9.2000372623
 30
0.0
 10
9.9971748594
 20
9.1990754156
 30
0.0
 10
9.9975168303
 20
9.1979216557
 30
0.0
 10
9.9979715528
 20
9.1963831498
 30
0.0
 10
9.9985403802
 20
9.1944600721
 30
0.0
 10
9.9994502667
 20
9.1913831171
 30
0.0
 10
10.0005877069
 20
9.1875369341
 30
0.0
 10
10.0019525977
 20
9.1829215092
 30
0.0
 10
10.0033175067
 20
9.1783060885
 30
0.0
 10
10.0044549014
 20
9.1744598949
 30
0.0
 10
10.0053648789
 20
9.1713829611
 30
0.0
 10
10.0059334752
 20
9.1694598296
 30
0.0
 10
10.006388672
 20
9.167921434
 30
0.0
 10
10.006729194
 20
9.1667673372
 30
0.0
 10
10.0070157477
 20
9.1658065447
 30
0.0
 10
10.0072108691
 20
9.1651321161
 30
0.0
 10
10.007330902
 20
9.1647496542
 30
0.0
 10
10.0073968835
 20
9.1644545653
 30
0.0
 10
10.0075547704
 20
9.1641909835
 30
0.0
 10
10.0077332287
 20
9.163828551
 30
0.0
 10
10.0080604668
 20
9.1631994146
 30
0.0
 10
10.0085201411
 20
9.1622979713
 30
0.0
 10
10.0090750926
 20
9.1612173852
 30
0.0
 10
10.0098138605
 20
9.1597762035
 30
0.0
 10
10.0107377201
 20
9.1579748634
 30
0.0
 10
10.0122156721
 20
9.1550926426
 30
0.0
 10
10.0140631892
 20
9.1514898932
 30
0.0
 10
10.0162801745
 20
9.1471665814
 30
0.0
 10
10.0184971771
 20
9.1428432768
 30
0.0
 10
10.0203446508
 20
9.1392405096
 30
0.0
 10
10.0218226896
 20
9.1363583243
 30
0.0
 10
10.0227463283
 20
9.1345568941
 30
0.0
 10
10.0234855497
 20
9.1331158974
 30
0.0
 10
10.0240391157
 20
9.1320347462
 30
0.0
 10
10.0245031249
 20
9.1311350709
 30
0.0
 10
10.0248226245
 20
9.1305027782
 30
0.0
 10
10.0250134819
 20
9.1301454029
 30
0.0
 10
10.0251332823
 20
9.1298662871
 30
0.0
 10
10.0253423105
 20
9.129629541
 30
0.0
 10
10.025589891
 20
9.1292991004
 30
0.0
 10
10.0260376581
 20
9.1287277153
 30
0.0
 10
10.026669744
 20
9.1279078509
 30
0.0
 10
10.0274314921
 20
9.1269255544
 30
0.0
 10
10.0284460228
 20
9.1256152876
 30
0.0
 10
10.0297145743
 20
9.1239776384
 30
0.0
 10
10.0317440397
 20
9.1213572966
 30
0.0
 10
10.0342809464
 20
9.1180819052
 30
0.0
 10
10.0373252007
 20
9.1141514183
 30
0.0
 10
10.0403694698
 20
9.1102209426
 30
0.0
 10
10.0429063393
 20
9.1069455234
 30
0.0
 10
10.0449358789
 20
9.1043252371
 30
0.0
 10
10.046204242
 20
9.1026874468
 30
0.0
 10
10.0472191594
 20
9.1013774697
 30
0.0
 10
10.047979726
 20
9.1003942881
 30
0.0
 10
10.0486155086
 20
9.099577193
 30
0.0
 10
10.0490566764
 20
9.0990008641
 30
0.0
 10
10.0493148306
 20
9.0986783447
 30
0.0
 10
10.04949138
 20
9.0984172674
 30
0.0
 10
10.0497331654
 20
9.0982295356
 30
0.0
 10
10.0500327909
 20
9.0979536427
 30
0.0
 10
10.0505677375
 20
9.0974827501
 30
0.0
 10
10.0513264041
 20
9.0968038146
 30
0.0
 10
10.0522391765
 20
9.0959917594
 30
0.0
 10
10.0534553778
 20
9.0949080875
 30
0.0
 10
10.0549759131
 20
9.0935538166
 30
0.0
 10
10.057408611
 20
9.0913868048
 30
0.0
 10
10.060449538
 20
9.0886781016
 30
0.0
 10
10.0640986257
 20
9.0854276296
 30
0.0
 10
10.067747725
 20
9.0821771721
 30
0.0
 10
10.0707886231
 20
9.0794684325
 30
0.0
 10
10.0732213788
 20
9.0773014937
 30
0.0
 10
10.0747417671
 20
9.0759470372
 30
0.0
 10
10.0759582701
 20
9.0748637461
 30
0.0
 10
10.0768701206
 20
9.0740505274
 30
0.0
 10
10.0776316719
 20
9.0733752323
 30
0.0
 10
10.0781614688
 20
9.0728978409
 30
0.0
 10
10.0784693454
 20
9.0726323609
 30
0.0
 10
10.0786857861
 20
9.0724126441
 30
0.0
 10
10.078957526
 20
9.0722716971
 30
0.0
 10
10.0793005568
 20
9.0720562919
 30
0.0
 10
10.0799098478
 20
9.0716921344
 30
0.0
 10
10.0807755651
 20
9.0711652167
 30
0.0
 10
10.0818164369
 20
9.0705357801
 30
0.0
 10
10.0832035635
 20
9.0696955307
 30
0.0
 10
10.0849377123
 20
9.0686455615
 30
0.0
 10
10.087712216
 20
9.0669654194
 30
0.0
 10
10.0911803919
 20
9.0648653079
 30
0.0
 10
10.0953421822
 20
9.0623451436
 30
0.0
 10
10.0995039814
 20
9.0598249954
 30
0.0
 10
10.1029721349
 20
9.0577248437
 30
0.0
 10
10.1057466834
 20
9.0560447821
 30
0.0
 10
10.1074807182
 20
9.0549946082
 30
0.0
 10
10.1088680789
 20
9.0541547791
 30
0.0
 10
10.1099082355
 20
9.0535240583
 30
0.0
 10
10.1107761904
 20
9.0530011586
 30
0.0
 10
10.1113814868
 20
9.0526298281
 30
0.0
 10
10.1117309181
 20
9.0524259159
 30
0.0
 10
10.1119829978
 20
9.0522496663
 30
0.0
 10
10.1122732788
 20
9.0521625401
 30
0.0
 10
10.112646995
 20
9.0520152846
 30
0.0
 10
10.1133072068
 20
9.0517720716
 30
0.0
 10
10.1142471208
 20
9.0514170519
 30
0.0
 10
10.1153764068
 20
9.0509942696
 30
0.0
 10
10.1168816362
 20
9.0504294278
 30
0.0
 10
10.1187633392
 20
9.0497237631
 30
0.0
 10
10.121773971
 20
9.0485944829
 30
0.0
 10
10.1255372929
 20
9.0471829575
 30
0.0
 10
10.1300532647
 20
9.0454890927
 30
0.0
 10
10.1345692429
 20
9.0437952456
 30
0.0
 10
10.1383325487
 20
9.0423836759
 30
0.0
 10
10.1413432127
 20
9.0412544843
 30
0.0
 10
10.143224834
 20
9.0405485945
 30
0.0
 10
10.144730231
 20
9.0399842147
 30
0.0
 10
10.1458590049
 20
9.0395600207
 30
0.0
 10
10.1468005213
 20
9.039209418
 30
0.0
 10
10.1474578724
 20
9.03895832
 30
0.0
 10
10.1478361723
 20
9.0388236982
 30
0.0
 10
10.1481123738
 20
9.0386977653
 30
0.0
 10
10.1484173335
 20
9.038667267
 30
0.0
 10
10.1488139153
 20
9.038593314
 30
0.0
 10
10.1495126071
 20
9.038479406
 30
0.0
 10
10.1505082948
 20
9.0383085715
 30
0.0
 10
10.1517041659
 20
9.038107041
 30
0.0
 10
10.1532982954
 20
9.0378371213
 30
0.0
 10
10.1552910824
 20
9.0375001369
 30
0.0
 10
10.1584794716
 20
9.0369607296
 30
0.0
 10
10.1624649821
 20
9.0362865508
 30
0.0
 10
10.1672475847
 20
9.0354774993
 30
0.0
 10
10.1720301891
 20
9.0346684668
 30
0.0
 10
10.1760156949
 20
9.0339942406
 30
0.0
 10
10.1792040936
 20
9.0334549281
 30
0.0
 10
10.1811968564
 20
9.033117703
 30
0.0
 10
10.1827910356
 20
9.0328482772
 30
0.0
 10
10.183986755
 20
9.0326452379
 30
0.0
 10
10.1849829172
 20
9.032479124
 30
0.0
 10
10.185680762
 20
9.032356789
 30
0.0
 10
10.1860787009
 20
9.0322963381
 30
0.0
 10
10.186379492
 20
9.0322243655
 30
0.0
 10
10.1866713499
 20
9.0322542034
 30
0.0
 10
10.1870636098
 20
9.0322584746
 30
0.0
 10
10.1877486128
 20
9.0322824953
 30
0.0
 10
10.1887279475
 20
9.0323081601
 30
0.0
 10
10.1899028242
 20
9.0323426605
 30
0.0
 10
10.1914694401
 20
9.0323873678
 30
0.0
 10
10.193427671
 20
9.0324436948
 30
0.0
 10
10.1965608622
 20
9.0325335703
 30
0.0
 10
10.2004773437
 20
9.0326460002
 30
0.0
 10
10.2051771251
 20
9.0327808772
 30
0.0
 10
10.2098769038
 20
9.0329157733
 30
0.0
 10
10.2137933921
 20
9.0330281551
 30
0.0
 10
10.2169265697
 20
9.033118127
 30
0.0
 10
10.2188848351
 20
9.0331742091
 30
0.0
 10
10.2204513802
 20
9.0332194188
 30
0.0
 10
10.221626473
 20
9.0332523844
 30
0.0
 10
10.2226051318
 20
9.0332828515
 30
0.0
 10
10.2232913414
 20
9.0332982992
 30
0.0
 10
10.223681668
 20
9.0333163065
 30
0.0
 10
10.2239794642
 20
9.0333039515
 30
0.0
 10
10.2242579523
 20
9.0333904484
 30
0.0
 10
10.2246360046
 20
9.0334712969
 30
0.0
 10
10.2252944582
 20
9.033628847
 30
0.0
 10
10.2262367468
 20
9.0338455196
 30
0.0
 10
10.2273667909
 20
9.0341091217
 30
0.0
 10
10.2288737617
 20
9.0344593354
 30
0.0
 10
10.2307573911
 20
9.0348975326
 30
0.0
 10
10.2337712452
 20
9.0355984077
 30
0.0
 10
10.2375385465
 20
9.0364745846
 30
0.0
 10
10.2420593159
 20
9.037525959
 30
0.0
 10
10.2465800798
 20
9.038577352
 30
0.0
 10
10.2503473948
 20
9.0394534825
 30
0.0
 10
10.2533612215
 20
9.0401544504
 30
0.0
 10
10.2552449207
 20
9.0405924117
 30
0.0
 10
10.2567517482
 20
9.0409431096
 30
0.0
 10
10.2578822298
 20
9.0412052325
 30
0.0
 10
10.2588231497
 20
9.0414265332
 30
0.0
 10
10.2594840467
 20
9.0415758212
 30
0.0
 10
10.2598581842
 20
9.0416699077
 30
0.0
 10
10.2601486972
 20
9.041715742
 30
0.0
 10
10.2604013296
 20
9.0418561088
 30
0.0
 10
10.260751386
 20
9.0420102905
 30
0.0
 10
10.2613578283
 20
9.0422954718
 30
0.0
 10
10.2622273931
 20
9.0426948415
 30
0.0
 10
10.2632694932
 20
9.0431775231
 30
0.0
 10
10.2646594412
 20
9.0438198978
 30
0.0
 10
10.2663967114
 20
9.0446232773
 30
0.0
 10
10.2691764358
 20
9.0459084547
 30
0.0
 10
10.2726510595
 20
9.0475150058
 30
0.0
 10
10.2768206228
 20
9.049442831
 30
0.0
 10
10.2809901778
 20
9.051370674
 30
0.0
 10
10.2844648222
 20
9.0529771802
 30
0.0
 10
10.2872445052
 20
9.0542624474
 30
0.0
 10
10.2889818808
 20
9.0550655987
 30
0.0
 10
10.2903716124
 20
9.0557084419
 30
0.0
 10
10.2914143737
 20
9.0561896922
 30
0.0
 10
10.2922818698
 20
9.0565935403
 30
0.0
 10
10.2928920051
 20
9.0568707268
 30
0.0
 10
10.2932361444
 20
9.0570377181
 30
0.0
 10
10.293506952
 20
9.057138738
 30
0.0
 10
10.293729202
 20
9.057332353
 30
0.0
 10
10.2940424728
 20
9.0575582082
 30
0.0
 10
10.2945828052
 20
9.057968503
 30
0.0
 10
10.2953588343
 20
9.0585467711
 30
0.0
 10
10.2962883033
 20
9.0592440603
 30
0.0
 10
10.2975282122
 20
9.0601726031
 30
0.0
 10
10.299077887
 20
9.0613336843
 30
0.0
 10
10.3015574849
 20
9.063191189
 30
0.0
 10
10.3046569413
 20
9.0655131476
 30
0.0
 10
10.3083763084
 20
9.0682994629
 30
0.0
 10
10.3120956633
 20
9.0710857939
 30
0.0
 10
10.3151951501
 20
9.0734077133
 30
0.0
 10
10.3176746873
 20
9.0752652964
 30
0.0
 10
10.3192245163
 20
9.0764261785
 30
0.0
 10
10.3204641086
 20
9.0773551299
 30
0.0
 10
10.3213945447
 20
9.0780511705
 30
0.0
 10
10.3221675482
 20
9.0786333452
 30
0.0
 10
10.322713282
 20
9.0790366662
 30
0.0
 10
10.3230178983
 20
9.0792736952
 30
0.0
 10
10.3232667319
 20
9.0794329878
 30
0.0
 10
10.3234376959
 20
9.0796629169
 30
0.0
 10
10.3236928096
 20
9.0799448502
 30
0.0
 10
10.3241266035
 20
9.0804497131
 30
0.0
 10
10.3247529254
 20
9.0811649441
 30
0.0
 10
10.3255016796
 20
9.0820257903
 30
0.0
 10
10.3265010077
 20
9.0831726879
 30
0.0
 10
10.3277498291
 20
9.0846066171
 30
0.0
 10
10.3297481327
 20
9.0869007322
 30
0.0
 10
10.3322459469
 20
9.0897684352
 30
0.0
 10
10.3352433538
 20
9.093209652
 30
0.0
 10
10.3382407454
 20
9.0966508815
 30
0.0
 10
10.340738598
 20
9.099518553
 30
0.0
 10
10.3427368246
 20
9.1018127312
 30
0.0
 10
10.3439858418
 20
9.1032464998
 30
0.0
 10
10.3449847681
 20
9.1043937271
 30
0.0
 10
10.3457347498
 20
9.1052535661
 30
0.0
 10
10.3463572311
 20
9.1059719482
 30
0.0
 10
10.346797881
 20
9.106471186
 30
0.0
 10
10.3470420097
 20
9.1067621322
 30
0.0
 10
10.3472467163
 20
9.1069643764
 30
0.0
 10
10.3473688181
 20
9.1072276485
 30
0.0
 10
10.347560434
 20
9.1075573907
 30
0.0
 10
10.347882337
 20
9.1081443577
 30
0.0
 10
10.3483492171
 20
9.1089776967
 30
0.0
 10
10.348906469
 20
9.109979923
 30
0.0
 10
10.3496505208
 20
9.1113154494
 30
0.0
 10
10.3505802263
 20
9.1129851229
 30
0.0
 10
10.352067956
 20
9.1156564522
 30
0.0
 10
10.3539275486
 20
9.1189956649
 30
0.0
 10
10.3561590918
 20
9.1230026971
 30
0.0
 10
10.3583906182
 20
9.1270097395
 30
0.0
 10
10.3602502527
 20
9.1303489269
 30
0.0
 10
10.3617378987
 20
9.1330203068
 30
0.0
 10
10.3626678169
 20
9.1346898515
 30
0.0
 10
10.3634114321
 20
9.1360256424
 30
0.0
 10
10.3639700179
 20
9.1370270609
 30
0.0
 10
10.3644327247
 20
9.137862927
 30
0.0
 10
10.3647620777
 20
9.1384453827
 30
0.0
 10
10.3649417568
 20
9.1387823532
 30
0.0
 10
10.3651005246
 20
9.1390234223
 30
0.0
 10
10.3651675197
 20
9.1393090571
 30
0.0
 10
10.3652888579
 20
9.1396743586
 30
0.0
 10
10.3654862851
 20
9.1403208788
 30
0.0
 10
10.3657761215
 20
9.1412406925
 30
0.0
 10
10.3661205876
 20
9.1423460897
 30
0.0
 10
10.3665810414
 20
9.1438193866
 30
0.0
 10
10.3671562095
 20
9.1456612015
 30
0.0
 10
10.3680767017
 20
9.148607997
 30
0.0
 10
10.3692272398
 20
9.1522915287
 30
0.0
 10
10.370607921
 20
9.15671175
 30
0.0
 10
10.3719885839
 20
9.1611319789
 30
0.0
 10
10.3731391674
 20
9.1648154914
 30
0.0
 10
10.3740595688
 20
9.1677623254
 30
0.0
 10
10.3746349677
 20
9.1696040426
 30
0.0
 10
10.3750949479
 20
9.17107754
 30
0.0
 10
10.3754408612
 20
9.1721823246
 30
0.0
 10
10.3757261695
 20
9.1731040549
 30
0.0
 10
10.37593168
 20
9.1737471537
 30
0.0
 10
10.3760400667
 20
9.174117937
 30
0.0
 10
10.3761468449
 20
9.1743867334
 30
0.0
 10
10.3761561941
 20
9.1746910449
 30
0.0
 10
10.3762026441
 20
9.1750844055
 30
0.0
 10
10.3762680977
 20
9.1757785584
 30
0.0
 10
10.376369881
 20
9.1767671878
 30
0.0
 10
10.3764884776
 20
9.1779548348
 30
0.0
 10
10.376647844
 20
9.1795379129
 30
0.0
 10
10.3768466282
 20
9.181516915
 30
0.0
 10
10.3771649198
 20
9.1846832321
 30
0.0
 10
10.3775627031
 20
9.188641158
 30
0.0
 10
10.3780400779
 20
9.1933906564
 30
0.0
 10
10.3785174433
 20
9.1981401583
 30
0.0
 10
10.3791539338
 20
9.2044728262
 30
0.0
 10
10.3796313009
 20
9.2092223274
 30
0.0
 10
10.3799495459
 20
9.2123886615
 30
0.0
  0
SPLINE
  5
3B0
100
AcDbEntity
  8
0
100
AcDbSpline
 62
4
  6
CONTINUOUS
 70
0
 71
3
 72
313
 73
309
 74
0
 42
0.0000001
 43
0.0000001
 44
0.0000000001
 40
0.0
 40
0.0
 40
0.0
 40
0.0
 40
0.015625
 40
0.0234375
 40
0.03125
 40
0.0390625
 40
0.046875
 40
0.05078125
 40
0.0546875
 40
0.056640625
 40
0.05859375
 40
0.060546875
 40
0.0615234375
 40
0.0620117188
 40
0.0625
 40
0.0629882812
 40
0.0634765625
 40
0.064453125
 40
0.06640625
 40
0.068359375
 40
0.0703125
 40
0.07421875
 40
0.078125
 40
0.0859375
 40
0.09375
 40
0.1015625
 40
0.109375
 40
0.11328125
 40
0.1171875
 40
0.119140625
 40
0.12109375
 40
0.123046875
 40
0.1240234375
 40
0.1245117188
 40
0.125
 40
0.1254882812
 40
0.1259765625
 40
0.126953125
 40
0.12890625
 40
0.130859375
 40
0.1328125
 40
0.13671875
 40
0.140625
 40
0.1484375
 40
0.15625
 40
0.1640625
 40
0.171875
 40
0.17578125
 40
0.1796875
 40
0.181640625
 40
0.18359375
 40
0.185546875
 40
0.1865234375
 40
0.1870117188
 40
0.1875
 40
0.1879882812
 40
0.1884765625
 40
0.189453125
 40
0.19140625
 40
0.193359375
 40
0.1953125
 40
0.19921875
 40
0.203125
 40
0.2109375
 40
0.21875
 40
0.2265625
 40
0.234375
 40
0.23828125
 40
0.2421875
 40
0.244140625
 40
0.24609375
 40
0.248046875
 40
0.2490234375
 40
0.2495117188
 40
0.25
 40
0.2504882812
 40
0.2509765625
 40
0.251953125
 40
0.25390625
 40
0.255859375
 40
0.2578125
 40
0.26171875
 40
0.265625
 40
0.2734375
 40
0.28125
 40
0.2890625
 40
0.296875
 40
0.30078125
 40
0.3046875
 40
0.306640625
 40
0.30859375
 40
0.310546875
 40
0.3115234375
 40
0.3120117188
 40
0.3125
 40
0.3129882812
 40
0.3134765625
 40
0.314453125
 40
0.31640625
 40
0.318359375
 40
0.3203125
 40
0.32421875
 40
0.328125
 40
0.3359375
 40
0.34375
 40
0.3515625
 40
0.359375
 40
0.36328125
 40
0.3671875
 40
0.369140625
 40
0.37109375
 40
0.373046875
 40
0.3740234375
 40
0.3745117188
 40
0.375
 40
0.3754882812
 40
0.3759765625
 40
0.376953125
 40
0.37890625
 40
0.380859375
 40
0.3828125
 40
0.38671875
 40
0.390625
 40
0.3984375
 40
0.40625
 40
0.4140625
 40
0.421875
 40
0.42578125
 40
0.4296875
 40
0.431640625
 40
0.43359375
 40
0.435546875
 40
0.4365234375
 40
0.4370117188
 40
0.4375
 40
0.4379882812
 40
0.4384765625
 40
0.439453125
 40
0.44140625
 40
0.443359375
 40
0.4453125
 40
0.44921875
 40
0.453125
 40
0.4609375
 40
0.46875
 40
0.4765625
 40
0.484375
 40
0.48828125
 40
0.4921875
 40
0.494140625
 40
0.49609375
 40
0.498046875
 40
0.4990234375
 40
0.4995117188
 40
0.5
 40
0.5004882812
 40
0.5009765625
 40
0.501953125
 40
0.50390625
 40
0.505859375
 40
0.5078125
 40
0.51171875
 40
0.515625
 40
0.5234375
 40
0.53125
 40
0.5390625
 40
0.546875
 40
0.55078125
 40
0.5546875
 40
0.556640625
 40
0.55859375
 40
0.560546875
 40
0.5615234375
 40
0.5620117188
 40
0.5625
 40
0.5629882812
 40
0.5634765625
 40
0.564453125
 40
0.56640625
 40
0.568359375
 40
0.5703125
 40
0.57421875
 40
0.578125
 40
0.5859375
 40
0.59375
 40
0.6015625
 40
0.609375
 40
0.61328125
 40
0.6171875
 40
0.619140625
 40
0.62109375
 40
0.623046875
 40
0.6240234375
 40
0.6245117188
 40
0.625
 40
0.6254882812
 40
0.6259765625
 40
0.626953125
 40
0.62890625
 40
0.630859375
 40
0.6328125
 40
0.63671875
 40
0.640625
 40
0.6484375
 40
0.65625
 40
0.6640625
 40
0.671875
 40
0.67578125
 40
0.6796875
 40
0.681640625
 40
0.68359375
 40
0.685546875
 40
0.6865234375
 40
0.6870117188
 40
0.6875
 40
0.6879882812
 40
0.6884765625
 40
0.689453125
 40
0.69140625
 40
0.693359375
 40
0.6953125
 40
0.69921875
 40
0.703125
 40
0.7109375
 40
0.71875
 40
0.7265625
 40
0.734375
 40
0.73828125
 40
0.7421875
 40
0.744140625
 40
0.74609375
 40
0.748046875
 40
0.7490234375
 40
0.7495117188
 40
0.75
 40
0.7504882812
 40
0.7509765625
 40
0.751953125
 40
0.75390625
 40
0.755859375
 40
0.7578125
 40
0.76171875
 40
0.765625
 40
0.7734375
 40
0.78125
 40
0.7890625
 40
0.796875
 40
0.80078125
 40
0.8046875
 40
0.806640625
 40
0.80859375
 40
0.810546875
 40
0.8115234375
 40
0.8120117188
 40
0.8125
 40
0.8129882812
 40
0.8134765625
 40
0.814453125
 40
0.81640625
 40
0.818359375
 40
0.8203125
 40
0.82421875
 40
0.828125
 40
0.8359375
 40
0.84375
 40
0.8515625
 40
0.859375
 40
0.86328125
 40
0.8671875
 40
0.869140625
 40
0.87109375
 40
0.873046875
 40
0.8740234375
 40
0.8745117188
 40
0.875
 40
0.8754882812
 40
0.8759765625
 40
0.876953125
 40
0.87890625
 40
0.880859375
 40
0.8828125
 40
0.88671875
 40
0.890625
 40
0.8984375
 40
0.90625
 40
0.9140625
 40
0.921875
 40
0.92578125
 40
0.9296875
 40
0.931640625
 40
0.93359375
 40
0.935546875
 40
0.9365234375
 40
0.9370117188
 40
0.9375
 40
0.9379882812
 40
0.9384765625
 40
0.939453125
 40
0.94140625
 40
0.943359375
 40
0.9453125
 40
0.94921875
 40
0.953125
 40
0.9609375
 40
0.96875
 40
0.9765625
 40
0.984375
 40
1.0
 40
1.0
 40
1.0
 40
1.0
 10
10.3799495459
 20
9.2123886445
 30
0.0
 10
10.3796423342
 20
9.2155431367
 30
0.0
 10
10.379181517
 20
9.2202748749
 30
0.0
 10
10.378567093
 20
9.226583859
 30
0.0
 10
10.3781062775
 20
9.2313155975
 30
0.0
 10
10.3776454526
 20
9.2360473347
 30
0.0
 10
10.3772614609
 20
9.2399904528
 30
0.0
 10
10.3769542025
 20
9.2431449389
 30
0.0
 10
10.3767623142
 20
9.2451165118
 30
0.0
 10
10.3766084642
 20
9.2466937264
 30
0.0
 10
10.3764940057
 20
9.2478767569
 30
0.0
 10
10.3763956684
 20
9.2488622355
 30
0.0
 10
10.3763326319
 20
9.2495528166
 30
0.0
 10
10.3762875553
 20
9.2499462693
 30
0.0
 10
10.3762792581
 20
9.2502446409
 30
0.0
 10
10.376173448
 20
9.2505304669
 30
0.0
 10
10.3760663814
 20
9.2509159443
 30
0.0
 10
10.3758631674
 20
9.2515884909
 30
0.0
 10
10.3755811469
 20
9.2525503377
 30
0.0
 10
10.375239176
 20
9.2537040976
 30
0.0
 10
10.3747844535
 20
9.2552426034
 30
0.0
 10
10.3742156261
 20
9.2571656812
 30
0.0
 10
10.3733057395
 20
9.2602426361
 30
0.0
 10
10.3721682994
 20
9.2640888191
 30
0.0
 10
10.3708034086
 20
9.2687042441
 30
0.0
 10
10.3694384996
 20
9.2733196648
 30
0.0
 10
10.3683011049
 20
9.2771658584
 30
0.0
 10
10.3673911274
 20
9.2802427921
 30
0.0
 10
10.3668225311
 20
9.2821659236
 30
0.0
 10
10.3663673343
 20
9.2837043192
 30
0.0
 10
10.3660268123
 20
9.284858416
 30
0.0
 10
10.3657402586
 20
9.2858192085
 30
0.0
 10
10.3655451372
 20
9.2864936372
 30
0.0
 10
10.3654251043
 20
9.286876099
 30
0.0
 10
10.3653591228
 20
9.2871711879
 30
0.0
 10
10.3652012359
 20
9.2874347698
 30
0.0
 10
10.3650227776
 20
9.2877972022
 30
0.0
 10
10.3646955395
 20
9.2884263386
 30
0.0
 10
10.3642358652
 20
9.2893277819
 30
0.0
 10
10.3636809137
 20
9.2904083681
 30
0.0
 10
10.3629421458
 20
9.2918495498
 30
0.0
 10
10.3620182862
 20
9.2936508899
 30
0.0
 10
10.3605403342
 20
9.2965331106
 30
0.0
 10
10.3586928171
 20
9.3001358601
 30
0.0
 10
10.3564758318
 20
9.3044591718
 30
0.0
 10
10.3542588292
 20
9.3087824764
 30
0.0
 10
10.3524113555
 20
9.3123852436
 30
0.0
 10
10.3509333167
 20
9.3152674289
 30
0.0
 10
10.350009678
 20
9.3170688591
 30
0.0
 10
10.3492704566
 20
9.3185098559
 30
0.0
 10
10.3487168906
 20
9.3195910071
 30
0.0
 10
10.3482528814
 20
9.3204906823
 30
0.0
 10
10.3479333818
 20
9.321122975
 30
0.0
 10
10.3477425244
 20
9.3214803503
 30
0.0
 10
10.347622724
 20
9.3217594661
 30
0.0
 10
10.3474136958
 20
9.3219962123
 30
0.0
 10
10.3471661153
 20
9.3223266528
 30
0.0
 10
10.3467183482
 20
9.3228980379
 30
0.0
 10
10.3460862623
 20
9.3237179024
 30
0.0
 10
10.3453245142
 20
9.3247001988
 30
0.0
 10
10.3443099835
 20
9.3260104656
 30
0.0
 10
10.343041432
 20
9.3276481148
 30
0.0
 10
10.3410119666
 20
9.3302684566
 30
0.0
 10
10.3384750599
 20
9.3335438481
 30
0.0
 10
10.3354308056
 20
9.3374743349
 30
0.0
 10
10.3323865365
 20
9.3414048106
 30
0.0
 10
10.329849667
 20
9.3446802299
 30
0.0
 10
10.3278201274
 20
9.3473005161
 30
0.0
 10
10.3265517643
 20
9.3489383065
 30
0.0
 10
10.3255368469
 20
9.3502482835
 30
0.0
 10
10.3247762803
 20
9.3512314651
 30
0.0
 10
10.3241404977
 20
9.3520485602
 30
0.0
 10
10.3236993299
 20
9.3526248891
 30
0.0
 10
10.3234411757
 20
9.3529474085
 30
0.0
 10
10.3232646263
 20
9.3532084858
 30
0.0
 10
10.3230228409
 20
9.3533962177
 30
0.0
 10
10.3227232154
 20
9.3536721105
 30
0.0
 10
10.3221882688
 20
9.3541430031
 30
0.0
 10
10.3214296022
 20
9.3548219386
 30
0.0
 10
10.3205168298
 20
9.3556339938
 30
0.0
 10
10.3193006285
 20
9.3567176658
 30
0.0
 10
10.3177800932
 20
9.3580719367
 30
0.0
 10
10.3153473953
 20
9.3602389485
 30
0.0
 10
10.3123064683
 20
9.3629476516
 30
0.0
 10
10.3086573806
 20
9.3661981237
 30
0.0
 10
10.3050082813
 20
9.3694485811
 30
0.0
 10
10.3019673832
 20
9.3721573208
 30
0.0
 10
10.2995346275
 20
9.3743242596
 30
0.0
 10
10.2980142392
 20
9.375678716
 30
0.0
 10
10.2967977362
 20
9.3767620071
 30
0.0
 10
10.2958858857
 20
9.3775752259
 30
0.0
 10
10.2951243344
 20
9.3782505209
 30
0.0
 10
10.2945945375
 20
9.3787279124
 30
0.0
 10
10.2942866609
 20
9.3789933923
 30
0.0
 10
10.2940702202
 20
9.3792131092
 30
0.0
 10
10.2937984803
 20
9.3793540562
 30
0.0
 10
10.2934554495
 20
9.3795694613
 30
0.0
 10
10.2928461584
 20
9.3799336188
 30
0.0
 10
10.2919804412
 20
9.3804605366
 30
0.0
 10
10.2909395694
 20
9.3810899732
 30
0.0
 10
10.2895524428
 20
9.3819302226
 30
0.0
 10
10.287818294
 20
9.3829801917
 30
0.0
 10
10.2850437903
 20
9.3846603339
 30
0.0
 10
10.2815756144
 20
9.3867604453
 30
0.0
 10
10.2774138241
 20
9.3892806096
 30
0.0
 10
10.2732520249
 20
9.3918007578
 30
0.0
 10
10.2697838714
 20
9.3939009096
 30
0.0
 10
10.2670093229
 20
9.3955809711
 30
0.0
 10
10.2652752881
 20
9.3966311451
 30
0.0
 10
10.2638879274
 20
9.3974709741
 30
0.0
 10
10.2628477708
 20
9.398101695
 30
0.0
 10
10.2619798159
 20
9.3986245946
 30
0.0
 10
10.2613745195
 20
9.3989959251
 30
0.0
 10
10.2610250882
 20
9.3991998373
 30
0.0
 10
10.2607730085
 20
9.3993760869
 30
0.0
 10
10.2604827275
 20
9.3994632131
 30
0.0
 10
10.2601090113
 20
9.3996104686
 30
0.0
 10
10.2594487995
 20
9.3998536817
 30
0.0
 10
10.2585088855
 20
9.4002087013
 30
0.0
 10
10.2573795995
 20
9.4006314836
 30
0.0
 10
10.2558743701
 20
9.4011963255
 30
0.0
 10
10.2539926671
 20
9.4019019901
 30
0.0
 10
10.2509820353
 20
9.4030312703
 30
0.0
 10
10.2472187134
 20
9.4044427957
 30
0.0
 10
10.2427027416
 20
9.4061366605
 30
0.0
 10
10.2381867634
 20
9.4078305077
 30
0.0
 10
10.2344234576
 20
9.4092420773
 30
0.0
 10
10.2314127936
 20
9.4103712689
 30
0.0
 10
10.2295311723
 20
9.4110771588
 30
0.0
 10
10.2280257752
 20
9.4116415385
 30
0.0
 10
10.2268970014
 20
9.4120657326
 30
0.0
 10
10.225955485
 20
9.4124163353
 30
0.0
 10
10.2252981339
 20
9.4126674333
 30
0.0
 10
10.224919834
 20
9.4128020551
 30
0.0
 10
10.2246436325
 20
9.4129279879
 30
0.0
 10
10.2243386728
 20
9.4129584862
 30
0.0
 10
10.223942091
 20
9.4130324393
 30
0.0
 10
10.2232433992
 20
9.4131463473
 30
0.0
 10
10.2222477115
 20
9.4133171817
 30
0.0
 10
10.2210518404
 20
9.4135187123
 30
0.0
 10
10.2194577109
 20
9.4137886319
 30
0.0
 10
10.2174649239
 20
9.4141256164
 30
0.0
 10
10.2142765347
 20
9.4146650236
 30
0.0
 10
10.2102910242
 20
9.4153392025
 30
0.0
 10
10.2055084216
 20
9.4161482539
 30
0.0
 10
10.2007258172
 20
9.4169572864
 30
0.0
 10
10.1967403114
 20
9.4176315126
 30
0.0
 10
10.1935519127
 20
9.4181708252
 30
0.0
 10
10.1915591499
 20
9.4185080503
 30
0.0
 10
10.1899649707
 20
9.4187774761
 30
0.0
 10
10.1887692513
 20
9.4189805154
 30
0.0
 10
10.1877730891
 20
9.4191466293
 30
0.0
 10
10.1870752443
 20
9.4192689643
 30
0.0
 10
10.1866773054
 20
9.4193294151
 30
0.0
 10
10.1863765143
 20
9.4194013878
 30
0.0
 10
10.1860846564
 20
9.4193715499
 30
0.0
 10
10.1856923965
 20
9.4193672786
 30
0.0
 10
10.1850073935
 20
9.419343258
 30
0.0
 10
10.1840280588
 20
9.4193175932
 30
0.0
 10
10.182853182
 20
9.4192830927
 30
0.0
 10
10.1812865662
 20
9.4192383854
 30
0.0
 10
10.1793283353
 20
9.4191820585
 30
0.0
 10
10.1761951441
 20
9.4190921829
 30
0.0
 10
10.1722786626
 20
9.418979753
 30
0.0
 10
10.1675788812
 20
9.4188448761
 30
0.0
 10
10.1628791025
 20
9.4187099799
 30
0.0
 10
10.1589626142
 20
9.4185975981
 30
0.0
 10
10.1558294366
 20
9.4185076263
 30
0.0
 10
10.1538711712
 20
9.4184515441
 30
0.0
 10
10.1523046261
 20
9.4184063344
 30
0.0
 10
10.1511295333
 20
9.4183733689
 30
0.0
 10
10.1501508745
 20
9.4183429017
 30
0.0
 10
10.1494646649
 20
9.4183274541
 30
0.0
 10
10.1490743383
 20
9.4183094467
 30
0.0
 10
10.1487765421
 20
9.4183218017
 30
0.0
 10
10.148498054
 20
9.4182353048
 30
0.0
 10
10.1481200017
 20
9.4181544563
 30
0.0
 10
10.1474615481
 20
9.4179969062
 30
0.0
 10
10.1465192595
 20
9.4177802337
 30
0.0
 10
10.1453892154
 20
9.4175166316
 30
0.0
 10
10.1438822446
 20
9.4171664178
 30
0.0
 10
10.1419986152
 20
9.4167282206
 30
0.0
 10
10.1389847611
 20
9.4160273455
 30
0.0
 10
10.1352174598
 20
9.4151511686
 30
0.0
 10
10.1306966904
 20
9.4140997942
 30
0.0
 10
10.1261759265
 20
9.4130484012
 30
0.0
 10
10.1224086115
 20
9.4121722708
 30
0.0
 10
10.1193947848
 20
9.4114713028
 30
0.0
 10
10.1175110856
 20
9.4110333416
 30
0.0
 10
10.1160042581
 20
9.4106826436
 30
0.0
 10
10.1148737765
 20
9.4104205207
 30
0.0
 10
10.1139328566
 20
9.4101992201
 30
0.0
 10
10.1132719596
 20
9.410049932
 30
0.0
 10
10.1128978221
 20
9.4099558456
 30
0.0
 10
10.1126073091
 20
9.4099100113
 30
0.0
 10
10.1123546767
 20
9.4097696445
 30
0.0
 10
10.1120046203
 20
9.4096154627
 30
0.0
 10
10.111398178
 20
9.4093302815
 30
0.0
 10
10.1105286132
 20
9.4089309118
 30
0.0
 10
10.1094865131
 20
9.4084482301
 30
0.0
 10
10.1080965651
 20
9.4078058554
 30
0.0
 10
10.1063592949
 20
9.4070024759
 30
0.0
 10
10.1035795704
 20
9.4057172985
 30
0.0
 10
10.1001049467
 20
9.4041107474
 30
0.0
 10
10.0959353835
 20
9.4021829223
 30
0.0
 10
10.0917658285
 20
9.4002550792
 30
0.0
 10
10.0882911841
 20
9.398648573
 30
0.0
 10
10.0855115011
 20
9.3973633058
 30
0.0
 10
10.0837741254
 20
9.3965601545
 30
0.0
 10
10.0823843939
 20
9.3959173113
 30
0.0
 10
10.0813416326
 20
9.3954360611
 30
0.0
 10
10.0804741365
 20
9.3950322129
 30
0.0
 10
10.0798640012
 20
9.3947550264
 30
0.0
 10
10.0795198619
 20
9.3945880351
 30
0.0
 10
10.0792490543
 20
9.3944870153
 30
0.0
 10
10.0790268043
 20
9.3942934002
 30
0.0
 10
10.0787135335
 20
9.3940675451
 30
0.0
 10
10.0781732011
 20
9.3936572502
 30
0.0
 10
10.077397172
 20
9.3930789821
 30
0.0
 10
10.076467703
 20
9.3923816929
 30
0.0
 10
10.0752277941
 20
9.3914531501
 30
0.0
 10
10.0736781193
 20
9.390292069
 30
0.0
 10
10.0711985214
 20
9.3884345642
 30
0.0
 10
10.068099065
 20
9.3861126056
 30
0.0
 10
10.0643796979
 20
9.3833262903
 30
0.0
 10
10.060660343
 20
9.3805399593
 30
0.0
 10
10.0575608562
 20
9.3782180399
 30
0.0
 10
10.055081319
 20
9.3763604568
 30
0.0
 10
10.05353149
 20
9.3751995748
 30
0.0
 10
10.0522918976
 20
9.3742706233
 30
0.0
 10
10.0513614616
 20
9.3735745827
 30
0.0
 10
10.0505884581
 20
9.3729924081
 30
0.0
 10
10.0500427243
 20
9.372589087
 30
0.0
 10
10.049738108
 20
9.3723520581
 30
0.0
 10
10.0494892744
 20
9.3721927654
 30
0.0
 10
10.0493183104
 20
9.3719628364
 30
0.0
 10
10.0490631966
 20
9.3716809031
 30
0.0
 10
10.0486294028
 20
9.3711760402
 30
0.0
 10
10.0480030809
 20
9.3704608091
 30
0.0
 10
10.0472543267
 20
9.369599963
 30
0.0
 10
10.0462549986
 20
9.3684530654
 30
0.0
 10
10.0450061772
 20
9.3670191361
 30
0.0
 10
10.0430078736
 20
9.3647250211
 30
0.0
 10
10.0405100594
 20
9.361857318
 30
0.0
 10
10.0375126525
 20
9.3584161012
 30
0.0
 10
10.0345152609
 20
9.3549748717
 30
0.0
 10
10.0320174083
 20
9.3521072003
 30
0.0
 10
10.0300191817
 20
9.349813022
 30
0.0
 10
10.0287701645
 20
9.3483792534
 30
0.0
 10
10.0277712382
 20
9.3472320261
 30
0.0
 10
10.0270212564
 20
9.3463721871
 30
0.0
 10
10.0263987752
 20
9.345653805
 30
0.0
 10
10.0259581253
 20
9.3451545673
 30
0.0
 10
10.0257139966
 20
9.3448636211
 30
0.0
 10
10.02550929
 20
9.3446613768
 30
0.0
 10
10.0253871882
 20
9.3443981047
 30
0.0
 10
10.0251955723
 20
9.3440683625
 30
0.0
 10
10.0248736693
 20
9.3434813955
 30
0.0
 10
10.0244067892
 20
9.3426480565
 30
0.0
 10
10.0238495373
 20
9.3416458303
 30
0.0
 10
10.0231054855
 20
9.3403103038
 30
0.0
 10
10.02217578
 20
9.3386406303
 30
0.0
 10
10.0206880503
 20
9.3359693011
 30
0.0
 10
10.0188284577
 20
9.3326300883
 30
0.0
 10
10.0165969145
 20
9.3286230561
 30
0.0
 10
10.0143653881
 20
9.3246160137
 30
0.0
 10
10.0125057536
 20
9.3212768263
 30
0.0
 10
10.0110181076
 20
9.3186054464
 30
0.0
 10
10.0100881894
 20
9.3169359017
 30
0.0
 10
10.0093445742
 20
9.3156001109
 30
0.0
 10
10.0087859884
 20
9.3145986923
 30
0.0
 10
10.0083232816
 20
9.3137628262
 30
0.0
 10
10.0079939286
 20
9.3131803705
 30
0.0
 10
10.0078142495
 20
9.3128434
 30
0.0
 10
10.0076554817
 20
9.3126023309
 30
0.0
 10
10.0075884866
 20
9.3123166961
 30
0.0
 10
10.0074671484
 20
9.3119513947
 30
0.0
 10
10.0072697212
 20
9.3113048745
 30
0.0
 10
10.0069798848
 20
9.3103850608
 30
0.0
 10
10.0066354187
 20
9.3092796635
 30
0.0
 10
10.0061749649
 20
9.3078063667
 30
0.0
 10
10.0055997968
 20
9.3059645518
 30
0.0
 10
10.0046793046
 20
9.3030177563
 30
0.0
 10
10.0035287665
 20
9.2993342245
 30
0.0
 10
10.0021480853
 20
9.2949140033
 30
0.0
 10
10.0007674224
 20
9.2904937744
 30
0.0
 10
9.9996168389
 20
9.2868102618
 30
0.0
 10
9.9986964375
 20
9.2838634279
 30
0.0
 10
9.9981210386
 20
9.2820217106
 30
0.0
 10
9.9976610584
 20
9.2805482133
 30
0.0
 10
9.9973151451
 20
9.2794434286
 30
0.0
 10
9.9970298368
 20
9.2785216984
 30
0.0
 10
9.9968243263
 20
9.2778785995
 30
0.0
 10
9.9967159396
 20
9.2775078163
 30
0.0
 10
9.9966091614
 20
9.2772390199
 30
0.0
 10
9.9965998122
 20
9.2769347084
 30
0.0
 10
9.9965533622
 20
9.2765413477
 30
0.0
 10
9.9964879086
 20
9.2758471948
 30
0.0
 10
9.9963861253
 20
9.2748585654
 30
0.0
 10
9.9962675287
 20
9.2736709185
 30
0.0
 10
9.9961081623
 20
9.2720878403
 30
0.0
 10
9.9959093781
 20
9.2701088382
 30
0.0
 10
9.9955910865
 20
9.2669425212
 30
0.0
 10
9.9951933032
 20
9.2629845952
 30
0.0
 10
9.9947159284
 20
9.2582350968
 30
0.0
 10
9.994238563
 20
9.253485595
 30
0.0
 10
9.9936020725
 20
9.2471529271
 30
0.0
 10
9.9931247053
 20
9.2424034259
 30
0.0
 10
9.9928064604
 20
9.2392370918
 30
0.0
  0
ENDSEC
  0
SECTION
  2
OBJECTS
  0
DICTIONARY
  5
C
100
AcDbDictionary
280
0
281
1
  3
ACAD_GROUP
350
D
  3
ACAD_MLINESTYLE
350
17
  3
ACAD_LAYOUT
350
1A
  3
ACAD_PLOTSETTINGS
350
19
  3
ACAD_PLOTSTYLENAME
350
E
  3
ACAD_IMAGE_DICT
350
       3B2
  3
ACAD_IMAGE_VARS
350
       3B3
  3
ACAD_TABLESTYLE
350
       3B4
  0
IMAGEDEF_REACTOR
  5
3B1
100
AcDbRasterImageDefReactor
 90
2
330
28A
  0
DICTIONARY
  5
D
102
{ACAD_REACTORS
330
C
102
}
100
AcDbDictionary
280
0
281
1
  0
ACDBDICTIONARYWDFLT
  5
E
102
{ACAD_REACTORS
330
C
102
}
100
AcDbDictionary
281
1
  3
Normal
350
F
100
AcDbDictionaryWithDefault
340
F
  0
DICTIONARY
  5
3B2
330
C
100
AcDbDictionary
281
1
  3
H7M_assy_2_img_1
350
       3B7
  0
RASTERVARIABLES
  5
3B3
330
C
100
AcDbRasterVariables
 90
0
 70
0
 71
1
 72
5
  0
DICTIONARY
  5
17
102
{ACAD_REACTORS
330
C
102
}
100
AcDbDictionary
280
0
281
1
  3
Standard
350
18
  0
DICTIONARY
  5
3B4
330
C
100
AcDbDictionary
281
1
  3
Standard
350
       3B8
  3
Standard1
350
       3B9
  0
DICTIONARY
  5
19
102
{ACAD_REACTORS
330
C
102
}
100
AcDbDictionary
281
1
  0
DICTIONARY
  5
1A
102
{ACAD_REACTORS
330
C
102
}
100
AcDbDictionary
281
1
  3
Model
350
3B5
  3
Layout1
350
3B6
  0
ACDBPLACEHOLDER
  5
F
102
{ACAD_REACTORS
330
E
102
}
  0
MLINESTYLE
  5
18
102
{ACAD_REACTORS
330
17
102
}
100
AcDbMlineStyle
  2
STANDARD
 70
0
  3

 62
256
 51
90.0
 52
90.0
 71
2
 49
0.5
 62
256
  6
BYLAYER
 49
-0.5
 62
256
  6
BYLAYER
  0
LAYOUT
  5
3B5
102
{ACAD_REACTORS
330
1A
102
}
100
AcDbPlotSettings
  1

  2
none_device
  4
ANSI_C_(22.00_x_17.00_Inches)
  6

 40
0.0
 41
0.0
 42
0.0
 43
0.0
 44
558.8
 45
431.8
 46
0.0
 47
0.0
 48
0.0
 49
0.0
140
0.0
141
0.0
142
1.0
143
1.0
 70
1024
 72
0
 73
0
 74
0
  7

 75
0
147
1.0
148
0.0
149
0.0
100
AcDbLayout
  1
Model
 70
0
 71
0
 10
0.0
 20
0.0
 11
22.0
 21
17.0
 12
0.0
 22
0.0
 32
0.0
 14
0.0
 24
0.0
 34
0.0
 15
0.0
 25
0.0
 35
0.0
146
0.0
 13
0.0
 23
0.0
 33
0.0
 16
1.0
 26
0.0
 36
0.0
 17
0.0
 27
1.0
 37
0.0
 76
0
330
204
345
0
346
0
  0
LAYOUT
  5
3B6
102
{ACAD_REACTORS
330
1A
102
}
100
AcDbPlotSettings
  1

  2
none_device
  4
ANSI_C_(22.00_x_17.00_Inches)
  6

 40
0.0
 41
0.0
 42
0.0
 43
0.0
 44
558.8
 45
431.8
 46
0.0
 47
0.0
 48
0.0
 49
0.0
140
0.0
141
0.0
142
1.0
143
1.0
 70
0
 72
0
 73
0
 74
0
  7

 75
0
147
1.0
148
0.0
149
0.0
100
AcDbLayout
  1
Layout1
 70
0
 71
1
 10
0.0
 20
0.0
 11
22.0
 21
17.0
 12
0.0
 22
0.0
 32
0.0
 14
0.0
 24
0.0
 34
0.0
 15
0.0
 25
0.0
 35
0.0
146
0.0
 13
0.0
 23
0.0
 33
0.0
 16
1.0
 26
0.0
 36
0.0
 17
0.0
 27
1.0
 37
0.0
 76
0
330
205
345
0
346
0
  0
IMAGEDEF
  5
3B7
102
{ACAD_REACTORS
330
3B2
330
3B1
102
}
100
AcDbRasterImageDef
 90
0
  1
H7M_assy_2_img_1.png
 10
369.0
 20
92.0
 11
0.0066666667
 21
0.0066666667
280
1
281
0
  0
TABLESTYLE
  5
3B8
102
{ACAD_REACTORS
330
3B4
330
28D
330
28E
102
}
330
3B4
100
AcDbTableStyle
  3
Standard
 70
0
 71
0
 40
0.06
 41
0.06
280
1
281
1
  7
Standard
140
0.18
170
1
 62
0
 63
7
283
0
  7
Standard
140
0.18
170
1
 62
0
 63
7
283
0
  7
Standard
140
0.18
170
1
 62
0
 63
7
283
0
  0
TABLESTYLE
  5
3B9
102
{ACAD_REACTORS
330
3B4
330
28C
102
}
330
3B4
100
AcDbTableStyle
  3
Standard1
 70
1
 71
0
 40
0.06
 41
0.06
280
1
281
1
  7
Standard
140
0.18
170
1
 62
0
 63
7
283
0
  7
Standard
140
0.18
170
1
 62
0
 63
7
283
0
  7
Standard
140
0.18
170
1
 62
0
 63
7
283
0
  0
ENDSEC
  0
EOF
