999
DXF file: H7D_assy_2.dxf
999
Pro/ENGINEER 2014200 by Parametric Technology Corporation
  0
SECTION
  2
HEADER
  9
$ACADVER
  1
AC1021
  9
$DWGCODEPAGE
  3
ANSI_1252
  9
$EXTMAX
 10
22.0
 20
17.0
 30
0.0
  9
$EXTMIN
 10
0.0
 20
0.0
 30
0.0
  9
$LIMMIN
 10
0.0
 20
0.0
  9
$LIMMAX
 10
22.0
 20
17.0
  9
$VIEWCTR
 10
11.0
 20
8.5
  9
$VIEWSIZE
 40
17.0
  9
$CLAYER
  8
0
  9
$LTSCALE
 40
1.21
  9
$CELTYPE
  6
BYLAYER
  9
$DIMSCALE
 40
1.0
  9
$DIMASZ
 40
0.1875
  9
$DIMEXO
 40
0.0625
  9
$DIMDLI
 40
0.836
  9
$DIMEXE
 40
0.125
  9
$DIMCEN
 40
0.198
  9
$DIMLFAC
 40
1.0
  9
$DIMBLK
  1
_FILLED
  9
$DIMTXT
 40
0.1
  9
$DIMTOL
 70
0
  9
$DIMLIM
 70
0
  9
$DIMTFAC
 40
1.0
  9
$DIMGAP
 40
0.09
  9
$DIMDSEP
 70
46
  9
$AUNITS
 70
0
  9
$PDMODE
 70
3
  9
$PDSIZE
 40
0.3125
  9
$HANDSEED
  5
374
  9
$TILEMODE
 70
1
  9
$MEASUREMENT
 70
0
  9
$INSUNITS
 70
1
  0
ENDSEC
  0
SECTION
  2
CLASSES
  0
CLASS
  1
ACDBDICTIONARYWDFLT
  2
AcDbDictionaryWithDefault
  3
AutoCAD 2000
 90
0
 91
1
280
0
281
0
  0
CLASS
  1
ACDBPLACEHOLDER
  2
AcDbPlaceHolder
  3
AutoCAD 2000
 90
0
 91
1
280
0
281
0
  0
CLASS
  1
LAYOUT
  2
AcDbLayout
  3
AutoCAD 2000
 90
0
 91
0
280
0
281
0
  0
CLASS
  1
RASTERVARIABLES
  2
AcDbRasterVariables
  3
ISM
 90
0
 91
1
280
0
281
0
  0
CLASS
  1
IMAGEDEF
  2
AcDbRasterImageDef
  3
ISM
 90
0
 91
1
280
0
281
0
  0
CLASS
  1
IMAGEDEF_REACTOR
  2
AcDbRasterImageDefReactor
  3
ISM
 90
0
 91
1
280
0
281
0
  0
CLASS
  1
IMAGE
  2
AcDbRasterImage
  3
ISM
 90
127
 91
1
280
0
281
1
  0
CLASS
  1
TABLESTYLE
  2
AcDbTableStyle
  3
ObjectDBX Classes
 90
2047
 91
1
280
0
281
0
  0
CLASS
  1
ACAD_TABLE
  2
AcDbTable
  3
ObjectDBX Classes
 90
1025
 91
3
280
0
281
1
  0
ENDSEC
  0
SECTION
  2
TABLES
  0
TABLE
  2
VPORT
  5
8
100
AcDbSymbolTable
 70
2
  0
VPORT
  5
1F4
100
AcDbSymbolTableRecord
100
AcDbViewportTableRecord
  2
*ACTIVE
 70
0
 10
0.0
 20
0.0
 11
1.0
 21
1.0
 12
11.0
 22
8.5
 13
0.0
 23
0.0
 14
1.0
 24
1.0
 15
0.0
 25
0.0
 16
0.0
 26
0.0
 36
1.0
 17
0.0
 27
0.0
 37
0.0
 40
17.0
 41
1.2941176471
 42
50.0
 43
0.0
 44
0.0
 50
0.0
 51
0.0
 71
0
 72
100
 73
1
 74
1
 75
0
 76
0
 77
0
 78
0
  0
ENDTAB
  0
TABLE
  2
LTYPE
  5
5
100
AcDbSymbolTable
 70
6
  0
LTYPE
  5
14
100
AcDbSymbolTableRecord
100
AcDbLinetypeTableRecord
  2
BYBLOCK
 70
0
  3

 72
65
 73
0
 40
0.0
  0
LTYPE
  5
15
100
AcDbSymbolTableRecord
100
AcDbLinetypeTableRecord
  2
BYLAYER
 70
0
  3

 72
65
 73
0
 40
0.0
  0
LTYPE
  5
16
100
AcDbSymbolTableRecord
100
AcDbLinetypeTableRecord
  2
CONTINUOUS
 70
64
  3
Solid line
 72
65
 73
0
 40
0.0
  0
LTYPE
  5
1F5
100
AcDbSymbolTableRecord
100
AcDbLinetypeTableRecord
  2
CENTER
 70
64
  3
____ _ ____ _ ____ _ ____ _ ____ _ ____ _ ____
 72
65
 73
4
 40
0.6
 49
0.375
 74
0
 49
-0.075
 74
0
 49
0.075
 74
0
 49
-0.075
 74
0
  0
LTYPE
  5
1F6
100
AcDbSymbolTableRecord
100
AcDbLinetypeTableRecord
  2
HIDDEN
 70
64
  3
- - - - - - - - - - - - - - - - - - - -
 72
65
 73
2
 40
0.2
 49
0.1
 74
0
 49
-0.1
 74
0
  0
LTYPE
  5
1F7
100
AcDbSymbolTableRecord
100
AcDbLinetypeTableRecord
  2
PHANTOM
 70
64
  3
_____ _ _ _____ _ _ _____ _ _ _____
 72
65
 73
6
 40
0.8
 49
0.45
 74
0
 49
-0.05
 74
0
 49
0.1
 74
0
 49
-0.05
 74
0
 49
0.1
 74
0
 49
-0.05
 74
0
  0
LTYPE
  5
1F8
100
AcDbSymbolTableRecord
100
AcDbLinetypeTableRecord
  2
DOT
 70
64
  3
. . . . . . . . . . . . . . . . . . . .
 72
65
 73
2
 40
0.2
 49
0.1
 74
0
 49
-0.1
 74
0
  0
LTYPE
  5
1F9
100
AcDbSymbolTableRecord
100
AcDbLinetypeTableRecord
  2
DASHED
 70
64
  3
- - - - - - - - - - - - - - - - - - - -
 72
65
 73
2
 40
0.2
 49
0.1
 74
0
 49
-0.1
 74
0
  0
ENDTAB
  0
TABLE
  2
LAYER
  5
2
100
AcDbSymbolTable
 70
36
  0
LAYER
  5
10
100
AcDbSymbolTableRecord
100
AcDbLayerTableRecord
  2
0
 70
0
 62
7
  6
CONTINUOUS
370
-3
390
F
  0
LAYER
  5
1FA
100
AcDbSymbolTableRecord
100
AcDbLayerTableRecord
  2
DEFAULT_1
 70
0
 62
7
  6
CENTER
370
-3
390
F
  0
LAYER
  5
1FB
100
AcDbSymbolTableRecord
100
AcDbLayerTableRecord
  2
DEFAULT_2
 70
0
 62
8
  6
HIDDEN
370
-3
390
F
  0
LAYER
  5
1FC
100
AcDbSymbolTableRecord
100
AcDbLayerTableRecord
  2
DEFAULT_3
 70
0
 62
7
  6
PHANTOM
370
-3
390
F
  0
LAYER
  5
1FD
100
AcDbSymbolTableRecord
100
AcDbLayerTableRecord
  2
DATUM_PLANES
 70
0
 62
7
  6
CONTINUOUS
370
-3
390
F
  0
LAYER
  5
1FE
100
AcDbSymbolTableRecord
100
AcDbLayerTableRecord
  2
PORT_AREAS
 70
0
 62
7
  6
CONTINUOUS
370
-3
390
F
  0
LAYER
  5
1FF
100
AcDbSymbolTableRecord
100
AcDbLayerTableRecord
  2
SUNNBOMCOSMETIC
 70
0
 62
7
  6
CONTINUOUS
370
-3
390
F
  0
LAYER
  5
200
100
AcDbSymbolTableRecord
100
AcDbLayerTableRecord
  2
SUNNBOMSTAMPING
 70
0
 62
7
  6
CONTINUOUS
370
-3
390
F
  0
LAYER
  5
201
100
AcDbSymbolTableRecord
100
AcDbLayerTableRecord
  2
THREADS
 70
0
 62
7
  6
CONTINUOUS
370
-3
390
F
  0
ENDTAB
  0
TABLE
  2
STYLE
  5
3
100
AcDbSymbolTable
 70
1
  0
STYLE
  5
11
100
AcDbSymbolTableRecord
100
AcDbTextStyleTableRecord
  2
STANDARD
 70
0
 40
0.0
 41
0.8
 50
0.0
 71
0
 42
0.2
  3
txt
  4

  0
STYLE
  5
202
100
AcDbSymbolTableRecord
100
AcDbTextStyleTableRecord
  2
TEXTSTYLE_1
 70
0
 40
0.0
 41
0.8
 50
0.0
 71
0
 42
0.2
  3
gdt
  4

  0
ENDTAB
  0
TABLE
  2
VIEW
  5
6
100
AcDbSymbolTable
 70
0
  0
ENDTAB
  0
TABLE
  2
UCS
  5
7
100
AcDbSymbolTable
 70
0
  0
ENDTAB
  0
TABLE
  2
APPID
  5
9
100
AcDbSymbolTable
 70
1
  0
APPID
  5
203
100
AcDbSymbolTableRecord
100
AcDbRegAppTableRecord
  2
ACAD
 70
0
  0
ENDTAB
  0
TABLE
  2
BLOCK_RECORD
  5
1
100
AcDbSymbolTable
 70
0
  0
BLOCK_RECORD
  5
204
100
AcDbSymbolTableRecord
100
AcDbBlockTableRecord
  2
*Model_Space
  0
BLOCK_RECORD
  5
205
100
AcDbSymbolTableRecord
100
AcDbBlockTableRecord
  2
*Paper_Space
  0
BLOCK_RECORD
  5
206
100
AcDbSymbolTableRecord
100
AcDbBlockTableRecord
  2
SUN_FIRST_THIRD_ANGLE_BL0
  0
BLOCK_RECORD
  5
207
100
AcDbSymbolTableRecord
100
AcDbBlockTableRecord
  2
*T1
  0
BLOCK_RECORD
  5
208
100
AcDbSymbolTableRecord
100
AcDbBlockTableRecord
  2
*T2
  0
BLOCK_RECORD
  5
209
100
AcDbSymbolTableRecord
100
AcDbBlockTableRecord
  2
*T3
  0
ENDTAB
  0
TABLE
  2
DIMSTYLE
  5
A
100
AcDbSymbolTable
 70
1
100
AcDbDimStyleTable
 71
0
  0
DIMSTYLE
105
20A
100
AcDbSymbolTableRecord
100
AcDbDimStyleTableRecord
  2
STANDARD
 70
0
  3

  4

 40
1.0
 41
0.1875
 42
0.0625
 43
0.38
 44
0.125
 45
0.0
 46
0.0
 47
0.001
 48
0.001
140
0.1
141
0.09
142
0.0
143
25.4
144
1.0
145
0.0
146
1.0
147
0.09
 71
0.0
 72
0.0
 73
1
 74
1
 75
0
 76
0
 77
0
 78
4
170
0
171
2
172
0
173
0
174
0
175
0
176
0
177
0
178
0
270
2
271
3
272
3
273
2
274
2
275
0
280
0
281
0
282
0
283
1
284
4
285
0
286
0
287
3
288
0
340
11
278
46
  0
ENDTAB
  0
ENDSEC
  0
SECTION
  2
BLOCKS
  0
BLOCK
  5
20
100
AcDbEntity
  8
0
100
AcDbBlockBegin
  2
*Model_Space
 70
0
 10
0.0
 20
0.0
 30
0.0
  3
*Model_Space
  1

  0
ENDBLK
  5
21
100
AcDbEntity
  8
0
100
AcDbBlockEnd
  0
BLOCK
  5
1C
100
AcDbEntity
  8
0
100
AcDbBlockBegin
  2
*Paper_Space
 70
0
 10
0.0
 20
0.0
 30
0.0
  3
*Paper_Space
  1

  0
ENDBLK
  5
1D
100
AcDbEntity
  8
0
100
AcDbBlockEnd
  0
BLOCK
  5
20B
100
AcDbEntity
  8
0
100
AcDbBlockBegin
 62
2
  6
CONTINUOUS
  2
SUN_FIRST_THIRD_ANGLE_BL0
 70
64
 10
20.4816717061
 20
1.2289683772
  3
SUN_FIRST_THIRD_ANGLE_BL0
  1

  0
TEXT
  5
20C
100
AcDbEntity
  8
0
100
AcDbText
 62
2
  6
CONTINUOUS
 10
19.4750896608
 20
1.4136269581
  7
STANDARD
 40
0.08
  1
FIRST ANGLE
 41
0.8
 72
0
100
AcDbText
  0
TEXT
  5
20D
100
AcDbEntity
  8
0
100
AcDbText
 62
2
  6
CONTINUOUS
 10
20.7842537513
 20
1.4047600029
  7
STANDARD
 40
0.08
  1
THIRD ANGLE
 41
0.8
 72
0
100
AcDbText
  0
LINE
  5
20E
100
AcDbEntity
  8
0
100
AcDbLine
 62
7
  6
CONTINUOUS
 10
19.4767170086
 20
1.1727031207
 11
19.6334271527
 21
1.1717972817
  0
LINE
  5
20F
100
AcDbEntity
  8
0
100
AcDbLine
 62
7
  6
CONTINUOUS
 10
19.6596964832
 20
1.1717972817
 11
19.6950230232
 21
1.171593082
  0
LINE
  5
210
100
AcDbEntity
  8
0
100
AcDbLine
 62
7
  6
CONTINUOUS
 10
19.7194818561
 20
1.1708914427
 11
19.8852396156
 21
1.1699333054
  0
LINE
  5
211
100
AcDbEntity
  8
0
100
AcDbLine
 62
7
  6
CONTINUOUS
 10
19.4758111696
 20
1.2723454088
 11
19.88525039
 21
1.3511534004
  0
LINE
  5
212
100
AcDbEntity
  8
0
100
AcDbLine
 62
7
  6
CONTINUOUS
 10
19.88525039
 20
1.3511534004
 11
19.8831348489
 21
0.9851647912
  0
LINE
  5
213
100
AcDbEntity
  8
0
100
AcDbLine
 62
7
  6
CONTINUOUS
 10
19.8831348489
 20
0.9851647912
 11
19.4767170086
 21
1.0658141206
  0
LINE
  5
214
100
AcDbEntity
  8
0
100
AcDbLine
 62
7
  6
CONTINUOUS
 10
19.4767170086
 20
1.0658141206
 11
19.4779056764
 21
1.2714536432
  0
CIRCLE
  5
215
100
AcDbEntity
  8
0
100
AcDbCircle
 62
7
  6
CONTINUOUS
 10
20.2068232291
 20
1.1717972817
 40
0.175742101
  0
CIRCLE
  5
216
100
AcDbEntity
  8
0
100
AcDbCircle
 62
7
  6
CONTINUOUS
 10
20.2068232291
 20
1.1717972817
 40
0.1005522074
  0
LINE
  5
217
100
AcDbEntity
  8
0
100
AcDbLine
 62
7
  6
CONTINUOUS
 10
20.2077290681
 20
1.3756110529
 11
20.2071171714
 21
1.2379342989
  0
LINE
  5
218
100
AcDbEntity
  8
0
100
AcDbLine
 62
7
  6
CONTINUOUS
 10
20.2077290681
 20
1.2016899681
 11
20.2074674401
 21
1.1428236749
  0
LINE
  5
219
100
AcDbEntity
  8
0
100
AcDbLine
 62
7
  6
CONTINUOUS
 10
20.208634907
 20
1.101141841
 11
20.2080230104
 21
0.963465087
  0
LINE
  5
21A
100
AcDbEntity
  8
0
100
AcDbLine
 62
7
  6
CONTINUOUS
 10
20.0066328138
 20
1.1745147986
 11
20.1443095678
 21
1.1739029019
  0
LINE
  5
21B
100
AcDbEntity
  8
0
100
AcDbLine
 62
7
  6
CONTINUOUS
 10
20.1832714155
 20
1.1727031207
 11
20.238153505
 21
1.172335442
  0
LINE
  5
21C
100
AcDbEntity
  8
0
100
AcDbLine
 62
7
  6
CONTINUOUS
 10
20.2756669918
 20
1.1717972817
 11
20.407916871
 21
1.1712095044
  0
CIRCLE
  5
21D
100
AcDbEntity
  8
0
100
AcDbCircle
 62
7
  6
CONTINUOUS
 10
20.7509457401
 20
1.1693297793
 40
0.1722024983
  0
CIRCLE
  5
21E
100
AcDbEntity
  8
0
100
AcDbCircle
 62
7
  6
CONTINUOUS
 10
20.7509457401
 20
1.1693297793
 40
0.0985164967
  0
LINE
  5
21F
100
AcDbEntity
  8
0
100
AcDbLine
 62
7
  6
CONTINUOUS
 10
20.7169767782
 20
1.170462078
 11
20.7825395137
 21
1.1682766535
  0
LINE
  5
220
100
AcDbEntity
  8
0
100
AcDbLine
 62
7
  6
CONTINUOUS
 10
20.8177513651
 20
1.1693297793
 11
20.947965719
 21
1.1693297793
  0
LINE
  5
221
100
AcDbEntity
  8
0
100
AcDbLine
 62
7
  6
CONTINUOUS
 10
20.6875370113
 20
1.170462078
 11
20.5573226574
 21
1.170462078
  0
LINE
  5
222
100
AcDbEntity
  8
0
100
AcDbLine
 62
7
  6
CONTINUOUS
 10
20.7486811426
 20
1.1987695462
 11
20.7486811426
 21
1.1432869085
  0
LINE
  5
223
100
AcDbEntity
  8
0
100
AcDbLine
 62
7
  6
CONTINUOUS
 10
20.7498134414
 20
1.1059210505
 11
20.7498134414
 21
0.9757066966
  0
LINE
  5
224
100
AcDbEntity
  8
0
100
AcDbLine
 62
7
  6
CONTINUOUS
 10
20.7486811426
 20
1.2338708068
 11
20.7486811426
 21
1.3640851607
  0
LINE
  5
225
100
AcDbEntity
  8
0
100
AcDbLine
 62
7
  6
CONTINUOUS
 10
21.0702539817
 20
1.2701043662
 11
21.4790138229
 21
1.3448360823
  0
LINE
  5
226
100
AcDbEntity
  8
0
100
AcDbLine
 62
7
  6
CONTINUOUS
 10
21.4790138229
 20
1.3448360823
 11
21.4790138229
 21
0.9779712941
  0
LINE
  5
227
100
AcDbEntity
  8
0
100
AcDbLine
 62
7
  6
CONTINUOUS
 10
21.4790138229
 20
0.9779712941
 11
21.069121683
 21
1.0617614
  0
LINE
  5
228
100
AcDbEntity
  8
0
100
AcDbLine
 62
7
  6
CONTINUOUS
 10
21.0702539817
 20
1.2701043662
 11
21.069121683
 21
1.0617614
  0
LINE
  5
229
100
AcDbEntity
  8
0
100
AcDbLine
 62
7
  6
CONTINUOUS
 10
21.4790138229
 20
1.1693297793
 11
21.3159628059
 21
1.1693297793
  0
LINE
  5
22A
100
AcDbEntity
  8
0
100
AcDbLine
 62
7
  6
CONTINUOUS
 10
21.2876553377
 20
1.1693297793
 11
21.2502894796
 21
1.1693297793
  0
LINE
  5
22B
100
AcDbEntity
  8
0
100
AcDbLine
 62
7
  6
CONTINUOUS
 10
21.2208497126
 20
1.1659328831
 11
21.0713862804
 21
1.1659328831
  0
LINE
  5
22C
100
AcDbEntity
  8
0
100
AcDbLine
 62
7
  6
CONTINUOUS
 10
20.4796138713
 20
1.5284908897
 11
20.4766766948
 21
0.9294458646
  0
ENDBLK
  5
22D
100
AcDbEntity
  8
0
  6
BYBLOCK
 62
0
100
AcDbBlockEnd
  0
BLOCK
  5
22E
100
AcDbEntity
  8
0
100
AcDbBlockBegin
  2
*T1
 70
1
 10
0.0
 20
0.0
  3
*T1
  1

  0
LINE
  5
22F
100
AcDbEntity
  8
0
100
AcDbLine
 62
2
  6
CONTINUOUS
 10
9.275
 20
0.0
 11
-0.0
 21
0.0
  0
LINE
  5
230
100
AcDbEntity
  8
0
100
AcDbLine
 62
2
  6
CONTINUOUS
 10
9.275
 20
0.0
 11
9.275
 21
1.25
  0
LINE
  5
231
100
AcDbEntity
  8
0
100
AcDbLine
 62
2
  6
CONTINUOUS
 10
9.275
 20
0.625
 11
-0.0
 21
0.625
  0
LINE
  5
232
100
AcDbEntity
  8
0
100
AcDbLine
 62
2
  6
CONTINUOUS
 10
9.275
 20
1.25
 11
-0.0
 21
1.25
  0
LINE
  5
233
100
AcDbEntity
  8
0
100
AcDbLine
 62
2
  6
CONTINUOUS
 10
6.8
 20
0.0
 11
6.8
 21
1.25
  0
LINE
  5
234
100
AcDbEntity
  8
0
100
AcDbLine
 62
2
  6
CONTINUOUS
 10
6.4
 20
0.0
 11
6.4
 21
0.625
  0
LINE
  5
235
100
AcDbEntity
  8
0
100
AcDbLine
 62
2
  6
CONTINUOUS
 10
5.9
 20
0.0
 11
5.9
 21
0.625
  0
LINE
  5
236
100
AcDbEntity
  8
0
100
AcDbLine
 62
2
  6
CONTINUOUS
 10
5.2
 20
0.0
 11
5.2
 21
0.625
  0
LINE
  5
237
100
AcDbEntity
  8
0
100
AcDbLine
 62
2
  6
CONTINUOUS
 10
4.1
 20
0.0
 11
4.1
 21
1.25
  0
LINE
  5
238
100
AcDbEntity
  8
0
100
AcDbLine
 62
2
  6
CONTINUOUS
 10
-0.0
 20
0.0
 11
-0.0
 21
1.25
  0
MTEXT
  5
239
100
AcDbEntity
  8
0
100
AcDbMText
 62
2
  6
CONTINUOUS
  7
STANDARD
 71
2
 72
1
 10
6.6
 20
0.325
 30
0.0
 11
1.0
 21
0.0
 31
0.0
 44
0.9
  1
2
 40
0.125
 41
0.2
  0
MTEXT
  5
23A
100
AcDbEntity
  8
0
100
AcDbMText
 62
2
  6
CONTINUOUS
  7
STANDARD
 71
2
 72
1
 10
6.15
 20
0.325
 30
0.0
 11
1.0
 21
0.0
 31
0.0
 44
0.9
  1
C
 40
0.125
 41
0.2
  0
MTEXT
  5
23B
100
AcDbEntity
  8
0
100
AcDbMText
 62
2
  6
CONTINUOUS
  7
STANDARD
 71
2
 72
1
 10
5.55
 20
0.325
 30
0.0
 11
1.0
 21
0.0
 31
0.0
 44
0.9
  1
1.000
 40
0.125
 41
1.0
  0
MTEXT
  5
23C
100
AcDbEntity
  8
0
100
AcDbMText
 62
2
  6
CONTINUOUS
  7
STANDARD
 71
2
 72
1
 10
4.65
 20
0.325
 30
0.0
 11
1.0
 21
0.0
 31
0.0
 44
0.9
  1
Jun-19-24
 40
0.125
 41
1.8
  0
MTEXT
  5
23D
100
AcDbEntity
  8
0
100
AcDbMText
 62
2
  6
CONTINUOUS
  7
STANDARD
 71
2
 72
1
 10
2.05
 20
0.4625
 30
0.0
 11
1.0
 21
0.0
 31
0.0
 44
0.9
  1
T-17A Line mount\PThrough port 1 with reverse flow check
 40
0.125
 41
7.6
  0
MTEXT
  5
23E
100
AcDbEntity
  8
0
100
AcDbMText
 62
2
  6
CONTINUOUS
  7
STANDARD
 71
1
 72
1
 10
6.45
 20
0.5625
 30
0.0
 11
1.0
 21
0.0
 31
0.0
 44
0.9
  1
SHEET
 40
0.06
 41
0.48
  0
MTEXT
  5
23F
100
AcDbEntity
  8
0
100
AcDbMText
 62
2
  6
CONTINUOUS
  7
STANDARD
 71
1
 72
1
 10
5.95
 20
0.5625
 30
0.0
 11
1.0
 21
0.0
 31
0.0
 44
0.9
  1
DWG SIZE
 40
0.06
 41
0.768
  0
MTEXT
  5
240
100
AcDbEntity
  8
0
100
AcDbMText
 62
2
  6
CONTINUOUS
  7
STANDARD
 71
1
 72
1
 10
5.25
 20
0.5625
 30
0.0
 11
1.0
 21
0.0
 31
0.0
 44
0.9
  1
SCALE
 40
0.06
 41
0.48
  0
MTEXT
  5
241
100
AcDbEntity
  8
0
100
AcDbMText
 62
2
  6
CONTINUOUS
  7
STANDARD
 71
1
 72
1
 10
4.15
 20
0.5625
 30
0.0
 11
1.0
 21
0.0
 31
0.0
 44
0.9
  1
DATE
 40
0.06
 41
0.384
  0
MTEXT
  5
242
100
AcDbEntity
  8
0
100
AcDbMText
 62
2
  6
CONTINUOUS
  7
STANDARD
 71
1
 72
1
 10
0.05
 20
0.5625
 30
0.0
 11
1.0
 21
0.0
 31
0.0
 44
0.9
  1
DESCRIPTION
 40
0.06
 41
1.056
  0
MTEXT
  5
243
100
AcDbEntity
  8
0
100
AcDbMText
 62
2
  6
CONTINUOUS
  7
STANDARD
 71
2
 72
1
 10
5.45
 20
1.0375
 30
0.0
 11
1.0
 21
0.0
 31
0.0
 44
0.9
  1
ALL DIMENSIONS IN INCH\PVIEWS ARE THIRD ANGLE
 40
0.12
 41
4.224
  0
MTEXT
  5
244
100
AcDbEntity
  8
0
100
AcDbMText
 62
2
  6
CONTINUOUS
  7
STANDARD
 71
2
 72
1
 10
2.05
 20
0.95
 30
0.0
 11
1.0
 21
0.0
 31
0.0
 44
0.9
  1
H7D
 40
0.125
 41
0.6
  0
MTEXT
  5
245
100
AcDbEntity
  8
0
100
AcDbMText
 62
2
  6
CONTINUOUS
  7
STANDARD
 71
1
 72
1
 10
0.05
 20
1.1875
 30
0.0
 11
1.0
 21
0.0
 31
0.0
 44
0.9
  1
MODEL
 40
0.06
 41
0.48
  0
ENDBLK
  5
246
100
AcDbEntity
  8
0
  6
BYBLOCK
 62
0
100
AcDbBlockEnd
  0
BLOCK
  5
247
100
AcDbEntity
  8
0
100
AcDbBlockBegin
  2
*T2
 70
1
 10
0.0
 20
0.0
  3
*T2
  1

  0
LINE
  5
248
100
AcDbEntity
  8
0
100
AcDbLine
 62
2
  6
CONTINUOUS
 10
0.0
 20
0.0
 11
9.055
 21
0.0
  0
LINE
  5
249
100
AcDbEntity
  8
0
100
AcDbLine
 62
2
  6
CONTINUOUS
 10
0.0
 20
0.0
 11
0.0
 21
-2.844
  0
LINE
  5
24A
100
AcDbEntity
  8
0
100
AcDbLine
 62
2
  6
CONTINUOUS
 10
0.0
 20
-0.344
 11
9.055
 21
-0.344
  0
LINE
  5
24B
100
AcDbEntity
  8
0
100
AcDbLine
 62
2
  6
CONTINUOUS
 10
0.0
 20
-0.594
 11
9.055
 21
-0.594
  0
LINE
  5
24C
100
AcDbEntity
  8
0
100
AcDbLine
 62
2
  6
CONTINUOUS
 10
0.0
 20
-0.844
 11
9.055
 21
-0.844
  0
LINE
  5
24D
100
AcDbEntity
  8
0
100
AcDbLine
 62
2
  6
CONTINUOUS
 10
0.0
 20
-1.094
 11
9.055
 21
-1.094
  0
LINE
  5
24E
100
AcDbEntity
  8
0
100
AcDbLine
 62
2
  6
CONTINUOUS
 10
0.0
 20
-1.344
 11
9.055
 21
-1.344
  0
LINE
  5
24F
100
AcDbEntity
  8
0
100
AcDbLine
 62
2
  6
CONTINUOUS
 10
0.0
 20
-1.594
 11
9.055
 21
-1.594
  0
LINE
  5
250
100
AcDbEntity
  8
0
100
AcDbLine
 62
2
  6
CONTINUOUS
 10
0.0
 20
-1.844
 11
9.055
 21
-1.844
  0
LINE
  5
251
100
AcDbEntity
  8
0
100
AcDbLine
 62
2
  6
CONTINUOUS
 10
0.0
 20
-2.094
 11
9.055
 21
-2.094
  0
LINE
  5
252
100
AcDbEntity
  8
0
100
AcDbLine
 62
2
  6
CONTINUOUS
 10
0.0
 20
-2.344
 11
9.055
 21
-2.344
  0
LINE
  5
253
100
AcDbEntity
  8
0
100
AcDbLine
 62
2
  6
CONTINUOUS
 10
0.0
 20
-2.594
 11
9.055
 21
-2.594
  0
LINE
  5
254
100
AcDbEntity
  8
0
100
AcDbLine
 62
2
  6
CONTINUOUS
 10
0.0
 20
-2.844
 11
9.055
 21
-2.844
  0
LINE
  5
255
100
AcDbEntity
  8
0
100
AcDbLine
 62
2
  6
CONTINUOUS
 10
3.055
 20
0.0
 11
3.055
 21
-2.844
  0
LINE
  5
256
100
AcDbEntity
  8
0
100
AcDbLine
 62
2
  6
CONTINUOUS
 10
9.055
 20
0.0
 11
9.055
 21
-2.844
  0
MTEXT
  5
257
100
AcDbEntity
  8
0
100
AcDbMText
 62
2
  6
CONTINUOUS
  7
STANDARD
 71
2
 72
1
 10
1.5275
 20
-0.0995
 30
0.0
 11
1.0
 21
0.0
 31
0.0
 44
0.9
  1
Technical Data
 40
0.145
 41
3.248
  0
MTEXT
  5
258
100
AcDbEntity
  8
0
100
AcDbMText
 62
2
  6
CONTINUOUS
  7
STANDARD
 71
2
 72
1
 10
4.555
 20
-0.0995
 30
0.0
 11
1.0
 21
0.0
 31
0.0
 44
0.9
  1
U.S. Units
 40
0.145
 41
2.32
  0
MTEXT
  5
259
100
AcDbEntity
  8
0
100
AcDbMText
 62
2
  6
CONTINUOUS
  7
STANDARD
 71
2
 72
1
 10
7.555
 20
-0.0995
 30
0.0
 11
1.0
 21
0.0
 31
0.0
 44
0.9
  1
Metric Units
 40
0.145
 41
2.784
  0
MTEXT
  5
25A
100
AcDbEntity
  8
0
100
AcDbMText
 62
2
  6
CONTINUOUS
  7
STANDARD
 71
2
 72
1
 10
1.5275
 20
-0.4065
 30
0.0
 11
1.0
 21
0.0
 31
0.0
 44
0.9
  1
Cavity
 40
0.125
 41
1.2
  0
MTEXT
  5
25B
100
AcDbEntity
  8
0
100
AcDbMText
 62
2
  6
CONTINUOUS
  7
STANDARD
 71
2
 72
1
 10
6.055
 20
-0.4065
 30
0.0
 11
1.0
 21
0.0
 31
0.0
 44
0.9
  1
T-17A
 40
0.125
 41
1.0
  0
MTEXT
  5
25C
100
AcDbEntity
  8
0
100
AcDbMText
 62
2
  6
CONTINUOUS
  7
STANDARD
 71
2
 72
1
 10
1.5275
 20
-0.6565
 30
0.0
 11
1.0
 21
0.0
 31
0.0
 44
0.9
  1
Body Features
 40
0.125
 41
2.6
  0
MTEXT
  5
25D
100
AcDbEntity
  8
0
100
AcDbMText
 62
2
  6
CONTINUOUS
  7
STANDARD
 71
2
 72
1
 10
6.055
 20
-0.6565
 30
0.0
 11
1.0
 21
0.0
 31
0.0
 44
0.9
  1
Through port 1 with reverse flow check
 40
0.125
 41
7.6
  0
MTEXT
  5
25E
100
AcDbEntity
  8
0
100
AcDbMText
 62
2
  6
CONTINUOUS
  7
STANDARD
 71
2
 72
1
 10
1.5275
 20
-0.9065
 30
0.0
 11
1.0
 21
0.0
 31
0.0
 44
0.9
  1
Body Type
 40
0.125
 41
1.8
  0
MTEXT
  5
25F
100
AcDbEntity
  8
0
100
AcDbMText
 62
2
  6
CONTINUOUS
  7
STANDARD
 71
2
 72
1
 10
6.055
 20
-0.9065
 30
0.0
 11
1.0
 21
0.0
 31
0.0
 44
0.9
  1
Line mount
 40
0.125
 41
2.0
  0
MTEXT
  5
260
100
AcDbEntity
  8
0
100
AcDbMText
 62
2
  6
CONTINUOUS
  7
STANDARD
 71
2
 72
1
 10
1.5275
 20
-1.1565
 30
0.0
 11
1.0
 21
0.0
 31
0.0
 44
0.9
  1
Interface
 40
0.125
 41
1.8
  0
MTEXT
  5
261
100
AcDbEntity
  8
0
100
AcDbMText
 62
2
  6
CONTINUOUS
  7
STANDARD
 71
2
 72
1
 10
6.055
 20
-1.1565
 30
0.0
 11
1.0
 21
0.0
 31
0.0
 44
0.9
  1
None
 40
0.125
 41
0.8
  0
MTEXT
  5
262
100
AcDbEntity
  8
0
100
AcDbMText
 62
2
  6
CONTINUOUS
  7
STANDARD
 71
2
 72
1
 10
1.5275
 20
-1.4065
 30
0.0
 11
1.0
 21
0.0
 31
0.0
 44
0.9
  1
Open Cavity Quantity
 40
0.125
 41
4.0
  0
MTEXT
  5
263
100
AcDbEntity
  8
0
100
AcDbMText
 62
2
  6
CONTINUOUS
  7
STANDARD
 71
2
 72
1
 10
6.055
 20
-1.4065
 30
0.0
 11
1.0
 21
0.0
 31
0.0
 44
0.9
  1
1
 40
0.125
 41
0.2
  0
MTEXT
  5
264
100
AcDbEntity
  8
0
100
AcDbMText
 62
2
  6
CONTINUOUS
  7
STANDARD
 71
2
 72
1
 10
1.5275
 20
-1.6565
 30
0.0
 11
1.0
 21
0.0
 31
0.0
 44
0.9
  1
Weight
 40
0.125
 41
1.2
  0
MTEXT
  5
265
100
AcDbEntity
  8
0
100
AcDbMText
 62
2
  6
CONTINUOUS
  7
STANDARD
 71
2
 72
1
 10
4.555
 20
-1.6565
 30
0.0
 11
1.0
 21
0.0
 31
0.0
 44
0.9
  1
6.063 lb.
 40
0.125
 41
1.8
  0
MTEXT
  5
266
100
AcDbEntity
  8
0
100
AcDbMText
 62
2
  6
CONTINUOUS
  7
STANDARD
 71
2
 72
1
 10
7.555
 20
-1.6565
 30
0.0
 11
1.0
 21
0.0
 31
0.0
 44
0.9
  1
2,750 kg.
 40
0.125
 41
1.8
  0
MTEXT
  5
267
100
AcDbEntity
  8
0
100
AcDbMText
 62
2
  6
CONTINUOUS
  7
STANDARD
 71
2
 72
1
 10
1.5275
 20
-1.9065
 30
0.0
 11
1.0
 21
0.0
 31
0.0
 44
0.9
  1
Mounting Hole Thread
 40
0.125
 41
4.0
  0
MTEXT
  5
268
100
AcDbEntity
  8
0
100
AcDbMText
 62
2
  6
CONTINUOUS
  7
STANDARD
 71
2
 72
1
 10
4.555
 20
-1.9065
 30
0.0
 11
1.0
 21
0.0
 31
0.0
 44
0.9
  1
.375-16 UNC - 2B in.
 40
0.125
 41
4.0
  0
MTEXT
  5
269
100
AcDbEntity
  8
0
100
AcDbMText
 62
2
  6
CONTINUOUS
  7
STANDARD
 71
2
 72
1
 10
1.5275
 20
-2.1565
 30
0.0
 11
1.0
 21
0.0
 31
0.0
 44
0.9
  1
Mounting Hole Depth
 40
0.125
 41
3.8
  0
MTEXT
  5
26A
100
AcDbEntity
  8
0
100
AcDbMText
 62
2
  6
CONTINUOUS
  7
STANDARD
 71
2
 72
1
 10
4.555
 20
-2.1565
 30
0.0
 11
1.0
 21
0.0
 31
0.0
 44
0.9
  1
.62 in.
 40
0.125
 41
1.4
  0
MTEXT
  5
26B
100
AcDbEntity
  8
0
100
AcDbMText
 62
2
  6
CONTINUOUS
  7
STANDARD
 71
2
 72
1
 10
7.555
 20
-2.1565
 30
0.0
 11
1.0
 21
0.0
 31
0.0
 44
0.9
  1
15,7 mm
 40
0.125
 41
1.4
  0
MTEXT
  5
26C
100
AcDbEntity
  8
0
100
AcDbMText
 62
2
  6
CONTINUOUS
  7
STANDARD
 71
2
 72
1
 10
1.5275
 20
-2.4065
 30
0.0
 11
1.0
 21
0.0
 31
0.0
 44
0.9
  1
Mounting Hole Quantity
 40
0.125
 41
4.4
  0
MTEXT
  5
26D
100
AcDbEntity
  8
0
100
AcDbMText
 62
2
  6
CONTINUOUS
  7
STANDARD
 71
2
 72
1
 10
6.055
 20
-2.4065
 30
0.0
 11
1.0
 21
0.0
 31
0.0
 44
0.9
  1
2
 40
0.125
 41
0.2
  0
MTEXT
  5
26E
100
AcDbEntity
  8
0
100
AcDbMText
 62
2
  6
CONTINUOUS
  7
STANDARD
 71
2
 72
1
 10
1.5275
 20
-2.6565
 30
0.0
 11
1.0
 21
0.0
 31
0.0
 44
0.9
  1
Includes integral cartridge(s)
 40
0.125
 41
6.0
  0
MTEXT
  5
26F
100
AcDbEntity
  8
0
100
AcDbMText
 62
2
  6
CONTINUOUS
  7
STANDARD
 71
2
 72
1
 10
6.055
 20
-2.6565
 30
0.0
 11
1.0
 21
0.0
 31
0.0
 44
0.9
  1
Yes (see Included Components)
 40
0.125
 41
5.8
  0
ENDBLK
  5
270
100
AcDbEntity
  8
0
  6
BYBLOCK
 62
0
100
AcDbBlockEnd
  0
BLOCK
  5
271
100
AcDbEntity
  8
0
100
AcDbBlockBegin
  2
*T3
 70
1
 10
0.0
 20
0.0
  3
*T3
  1

  0
LINE
  5
272
100
AcDbEntity
  8
0
100
AcDbLine
 62
2
  6
CONTINUOUS
 10
0.0
 20
0.0
 11
4.6
 21
0.0
  0
LINE
  5
273
100
AcDbEntity
  8
0
100
AcDbLine
 62
2
  6
CONTINUOUS
 10
0.0
 20
0.0
 11
0.0
 21
-1.43775
  0
LINE
  5
274
100
AcDbEntity
  8
0
100
AcDbLine
 62
2
  6
CONTINUOUS
 10
0.0
 20
-0.34375
 11
4.6
 21
-0.34375
  0
LINE
  5
275
100
AcDbEntity
  8
0
100
AcDbLine
 62
2
  6
CONTINUOUS
 10
0.0
 20
-0.68775
 11
4.6
 21
-0.68775
  0
LINE
  5
276
100
AcDbEntity
  8
0
100
AcDbLine
 62
2
  6
CONTINUOUS
 10
0.0
 20
-0.93775
 11
4.6
 21
-0.93775
  0
LINE
  5
277
100
AcDbEntity
  8
0
100
AcDbLine
 62
2
  6
CONTINUOUS
 10
0.0
 20
-1.18775
 11
4.6
 21
-1.18775
  0
LINE
  5
278
100
AcDbEntity
  8
0
100
AcDbLine
 62
2
  6
CONTINUOUS
 10
0.0
 20
-1.43775
 11
4.6
 21
-1.43775
  0
LINE
  5
279
100
AcDbEntity
  8
0
100
AcDbLine
 62
2
  6
CONTINUOUS
 10
1.3
 20
-0.34375
 11
1.3
 21
-1.43775
  0
LINE
  5
27A
100
AcDbEntity
  8
0
100
AcDbLine
 62
2
  6
CONTINUOUS
 10
3.3
 20
-0.34375
 11
3.3
 21
-1.43775
  0
LINE
  5
27B
100
AcDbEntity
  8
0
100
AcDbLine
 62
2
  6
CONTINUOUS
 10
4.6
 20
0.0
 11
4.6
 21
-1.43775
  0
MTEXT
  5
27C
100
AcDbEntity
  8
0
100
AcDbMText
 62
2
  6
CONTINUOUS
  7
STANDARD
 71
2
 72
1
 10
2.3
 20
-0.099375
 30
0.0
 11
1.0
 21
0.0
 31
0.0
 44
0.9
  1
Port Headings
 40
0.145
 41
3.016
  0
MTEXT
  5
27D
100
AcDbEntity
  8
0
100
AcDbMText
 62
2
  6
CONTINUOUS
  7
STANDARD
 71
2
 72
1
 10
0.65
 20
-0.44325
 30
0.0
 11
1.0
 21
0.0
 31
0.0
 44
0.9
  1
Product
 40
0.145
 41
1.624
  0
MTEXT
  5
27E
100
AcDbEntity
  8
0
100
AcDbMText
 62
2
  6
CONTINUOUS
  7
STANDARD
 71
2
 72
1
 10
2.3
 20
-0.44325
 30
0.0
 11
1.0
 21
0.0
 31
0.0
 44
0.9
  1
Port
 40
0.145
 41
0.928
  0
MTEXT
  5
27F
100
AcDbEntity
  8
0
100
AcDbMText
 62
2
  6
CONTINUOUS
  7
STANDARD
 71
2
 72
1
 10
3.95
 20
-0.44325
 30
0.0
 11
1.0
 21
0.0
 31
0.0
 44
0.9
  1
Size
 40
0.145
 41
0.928
  0
MTEXT
  5
280
100
AcDbEntity
  8
0
100
AcDbMText
 62
2
  6
CONTINUOUS
  7
STANDARD
 71
2
 72
1
 10
0.65
 20
-0.75025
 30
0.0
 11
1.0
 21
0.0
 31
0.0
 44
0.9
  1
H7D
 40
0.125
 41
0.6
  0
MTEXT
  5
281
100
AcDbEntity
  8
0
100
AcDbMText
 62
2
  6
CONTINUOUS
  7
STANDARD
 71
2
 72
1
 10
2.3
 20
-0.75025
 30
0.0
 11
1.0
 21
0.0
 31
0.0
 44
0.9
  1
Ports 1 &  2
 40
0.125
 41
2.4
  0
MTEXT
  5
282
100
AcDbEntity
  8
0
100
AcDbMText
 62
2
  6
CONTINUOUS
  7
STANDARD
 71
2
 72
1
 10
3.95
 20
-0.75025
 30
0.0
 11
1.0
 21
0.0
 31
0.0
 44
0.9
  1
3/4" NPTF
 40
0.125
 41
1.8
  0
MTEXT
  5
283
100
AcDbEntity
  8
0
100
AcDbMText
 62
2
  6
CONTINUOUS
  7
STANDARD
 71
2
 72
1
 10
0.65
 20
-1.00025
 30
0.0
 11
1.0
 21
0.0
 31
0.0
 44
0.9
  1
H7D
 40
0.125
 41
0.6
  0
MTEXT
  5
284
100
AcDbEntity
  8
0
100
AcDbMText
 62
2
  6
CONTINUOUS
  7
STANDARD
 71
2
 72
1
 10
2.3
 20
-1.00025
 30
0.0
 11
1.0
 21
0.0
 31
0.0
 44
0.9
  1
Port 3
 40
0.125
 41
1.2
  0
MTEXT
  5
285
100
AcDbEntity
  8
0
100
AcDbMText
 62
2
  6
CONTINUOUS
  7
STANDARD
 71
2
 72
1
 10
3.95
 20
-1.00025
 30
0.0
 11
1.0
 21
0.0
 31
0.0
 44
0.9
  1
1/4" NPTF
 40
0.125
 41
1.8
  0
MTEXT
  5
286
100
AcDbEntity
  8
0
100
AcDbMText
 62
2
  6
CONTINUOUS
  7
STANDARD
 71
2
 72
1
 10
0.65
 20
-1.25025
 30
0.0
 11
1.0
 21
0.0
 31
0.0
 44
0.9
  1
H7D
 40
0.125
 41
0.6
  0
MTEXT
  5
287
100
AcDbEntity
  8
0
100
AcDbMText
 62
2
  6
CONTINUOUS
  7
STANDARD
 71
2
 72
1
 10
2.3
 20
-1.25025
 30
0.0
 11
1.0
 21
0.0
 31
0.0
 44
0.9
  1
Gage Port
 40
0.125
 41
1.8
  0
MTEXT
  5
288
100
AcDbEntity
  8
0
100
AcDbMText
 62
2
  6
CONTINUOUS
  7
STANDARD
 71
2
 72
1
 10
3.95
 20
-1.25025
 30
0.0
 11
1.0
 21
0.0
 31
0.0
 44
0.9
  1
1/4" NPTF
 40
0.125
 41
1.8
  0
ENDBLK
  5
289
100
AcDbEntity
  8
0
  6
BYBLOCK
 62
0
100
AcDbBlockEnd
  0
ENDSEC
  0
SECTION
  2
ENTITIES
  0
IMAGE
  5
28A
100
AcDbEntity
  8
0
100
AcDbRasterImage
 62
7
  6
CONTINUOUS
 10
19.2297077316
 20
0.3094318264
 30
0.0
 11
0.0066666667
 21
0.0
 31
0.0
 12
0.0
 22
0.0066666667
 32
0.0
 13
369.0
 23
92.0
340
       371
 70
9
280
0
281
50
282
50
283
0
360
       36B
 71
1
 91
2
 14
-0.5
 24
-0.5
 14
368.5
 24
91.5
  0
INSERT
  5
28B
100
AcDbEntity
  8
0
100
AcDbBlockReference
 62
2
  6
CONTINUOUS
  2
SUN_FIRST_THIRD_ANGLE_BL0
 10
20.4816717061
 20
1.2289683772
  0
ACAD_TABLE
  5
28C
100
AcDbEntity
  8
0
 62
2
  6
CONTINUOUS
100
AcDbBlockReference
  2
*T1
 10
12.42375
 20
0.30125
 30
0.0
100
AcDbTable
342
       373
343
207
 11
1.0
 21
0.0
 31
0.0
 90
6
 91
4
 92
6
 93
20
 94
0
 95
0
 96
0
 70
1
 41
0.0
141
0.525
141
0.1
141
0.525
141
0.1
142
4.1
142
1.1
142
0.7
142
0.5
142
0.4
142
2.475
171
1
172
0
173
0
174
0
175
1
176
1
 91
33
178
0
145
0.0
301
CELL_VALUE
 90
4
  1
T-17A Line mount\PThrough port 1 with reverse flow check
304
ACVALUE_END
170
2
140
0.125
171
1
172
0
173
0
174
0
175
1
176
1
 91
33
178
0
145
0.0
301
CELL_VALUE
 90
4
  1
Jun-19-24
304
ACVALUE_END
170
5
140
0.125
171
1
172
0
173
0
174
0
175
1
176
1
 91
33
178
0
145
0.0
301
CELL_VALUE
 90
4
  1
1.000
304
ACVALUE_END
170
5
140
0.125
171
1
172
0
173
0
174
0
175
1
176
1
 91
33
178
0
145
0.0
301
CELL_VALUE
 90
4
  1
C
304
ACVALUE_END
170
5
140
0.125
171
1
172
0
173
0
174
0
175
1
176
1
 91
33
178
0
145
0.0
301
CELL_VALUE
 90
4
  1
2
304
ACVALUE_END
170
5
140
0.125
171
1
172
0
173
0
174
0
175
1
176
1
 91
33
178
0
145
0.0
301
CELL_VALUE
 90
4
  1
 
304
ACVALUE_END
170
1
140
0.125
171
1
172
0
173
0
174
0
175
1
176
1
 91
33
178
0
145
0.0
301
CELL_VALUE
 90
4
  1
DESCRIPTION
304
ACVALUE_END
170
1
140
0.06
171
1
172
0
173
0
174
0
175
1
176
1
 91
33
178
0
145
0.0
301
CELL_VALUE
 90
4
  1
DATE
304
ACVALUE_END
170
1
140
0.06
171
1
172
0
173
0
174
0
175
1
176
1
 91
33
178
0
145
0.0
301
CELL_VALUE
 90
4
  1
SCALE
304
ACVALUE_END
170
1
140
0.06
171
1
172
0
173
0
174
0
175
1
176
1
 91
33
178
0
145
0.0
301
CELL_VALUE
 90
4
  1
DWG SIZE
304
ACVALUE_END
170
1
140
0.06
171
1
172
0
173
0
174
0
175
1
176
1
 91
33
178
0
145
0.0
301
CELL_VALUE
 90
4
  1
SHEET
304
ACVALUE_END
170
1
140
0.06
171
1
172
0
173
0
174
0
175
1
176
1
 91
33
178
0
145
0.0
301
CELL_VALUE
 90
4
  1
 
304
ACVALUE_END
170
1
140
0.125
171
1
172
0
173
0
174
0
175
1
176
1
 91
33
178
0
145
0.0
301
CELL_VALUE
 90
4
  1
H7D
304
ACVALUE_END
170
5
140
0.125
171
1
172
0
173
0
174
0
175
4
176
1
 91
33
178
0
145
0.0
301
CELL_VALUE
 90
4
  1
ALL DIMENSIONS IN INCH\PVIEWS ARE THIRD ANGLE
304
ACVALUE_END
170
5
140
0.12
171
1
172
0
173
1
174
0
175
1
176
1
 91
1
178
0
145
0.0
170
1
171
1
172
0
173
1
174
0
175
1
176
1
 91
1
178
0
145
0.0
170
1
171
1
172
0
173
1
174
0
175
1
176
1
 91
1
178
0
145
0.0
170
5
171
1
172
0
173
0
174
0
175
1
176
1
 91
33
178
0
145
0.0
301
CELL_VALUE
 90
4
  1
 
304
ACVALUE_END
170
1
140
0.125
171
1
172
0
173
0
174
0
175
1
176
1
 91
33
178
0
145
0.0
301
CELL_VALUE
 90
4
  1
MODEL
304
ACVALUE_END
170
1
140
0.06
171
1
172
0
173
0
174
0
175
1
176
1
 91
33
178
0
145
0.0
301
CELL_VALUE
 90
4
  1
 
304
ACVALUE_END
170
1
140
0.125
171
1
172
0
173
0
174
0
175
1
176
1
 91
33
178
0
145
0.0
301
CELL_VALUE
 90
4
  1
 
304
ACVALUE_END
170
1
140
0.125
171
1
172
0
173
0
174
0
175
1
176
1
 91
33
178
0
145
0.0
301
CELL_VALUE
 90
4
  1
 
304
ACVALUE_END
170
1
140
0.125
171
1
172
0
173
0
174
0
175
1
176
1
 91
33
178
0
145
0.0
301
CELL_VALUE
 90
4
  1
 
304
ACVALUE_END
170
1
140
0.125
171
1
172
0
173
0
174
0
175
1
176
1
 91
33
178
0
145
0.0
301
CELL_VALUE
 90
4
  1
 
304
ACVALUE_END
170
1
140
0.125
  0
ACAD_TABLE
  5
28D
100
AcDbEntity
  8
0
 62
2
  6
CONTINUOUS
100
AcDbBlockReference
  2
*T2
 10
12.4237499994
 20
16.47875
 30
0.0
100
AcDbTable
342
       372
343
208
 11
1.0
 21
0.0
 31
0.0
 90
22
 91
11
 92
3
 93
16
 94
0
 95
0
 96
0
 41
0.028
141
0.344
141
0.25
141
0.25
141
0.25
141
0.25
141
0.25
141
0.25
141
0.25
141
0.25
141
0.25
141
0.25
142
3.055
142
3.0
142
3.0
171
1
172
0
173
0
174
0
175
1
176
1
 91
33
178
0
145
0.0
301
CELL_VALUE
 90
4
  1
Technical Data
304
ACVALUE_END
170
5
140
0.145
171
1
172
0
173
0
174
0
175
1
176
1
 91
33
178
0
145
0.0
301
CELL_VALUE
 90
4
  1
U.S. Units
304
ACVALUE_END
170
5
140
0.145
171
1
172
0
173
0
174
0
175
1
176
1
 91
33
178
0
145
0.0
301
CELL_VALUE
 90
4
  1
Metric Units
304
ACVALUE_END
170
5
140
0.145
171
1
172
0
173
0
174
0
175
1
176
1
 91
33
178
0
145
0.0
301
CELL_VALUE
 90
4
  1
Cavity
304
ACVALUE_END
170
5
140
0.125
171
1
172
0
173
0
174
0
175
2
176
1
 91
33
178
0
145
0.0
301
CELL_VALUE
 90
4
  1
T-17A
304
ACVALUE_END
170
5
140
0.125
171
1
172
0
173
1
174
0
175
1
176
1
 91
1
178
0
145
0.0
170
1
171
1
172
0
173
0
174
0
175
1
176
1
 91
33
178
0
145
0.0
301
CELL_VALUE
 90
4
  1
Body Features
304
ACVALUE_END
170
5
140
0.125
171
1
172
0
173
0
174
0
175
2
176
1
 91
33
178
0
145
0.0
301
CELL_VALUE
 90
4
  1
Through port 1 with reverse flow check
304
ACVALUE_END
170
5
140
0.125
171
1
172
0
173
1
174
0
175
1
176
1
 91
1
178
0
145
0.0
170
1
171
1
172
0
173
0
174
0
175
1
176
1
 91
33
178
0
145
0.0
301
CELL_VALUE
 90
4
  1
Body Type
304
ACVALUE_END
170
5
140
0.125
171
1
172
0
173
0
174
0
175
2
176
1
 91
33
178
0
145
0.0
301
CELL_VALUE
 90
4
  1
Line mount
304
ACVALUE_END
170
5
140
0.125
171
1
172
0
173
1
174
0
175
1
176
1
 91
1
178
0
145
0.0
170
1
171
1
172
0
173
0
174
0
175
1
176
1
 91
33
178
0
145
0.0
301
CELL_VALUE
 90
4
  1
Interface
304
ACVALUE_END
170
5
140
0.125
171
1
172
0
173
0
174
0
175
2
176
1
 91
33
178
0
145
0.0
301
CELL_VALUE
 90
4
  1
None
304
ACVALUE_END
170
5
140
0.125
171
1
172
0
173
1
174
0
175
1
176
1
 91
1
178
0
145
0.0
170
1
171
1
172
0
173
0
174
0
175
1
176
1
 91
33
178
0
145
0.0
301
CELL_VALUE
 90
4
  1
Open Cavity Quantity
304
ACVALUE_END
170
5
140
0.125
171
1
172
0
173
0
174
0
175
2
176
1
 91
33
178
0
145
0.0
301
CELL_VALUE
 90
4
  1
1
304
ACVALUE_END
170
5
140
0.125
171
1
172
0
173
1
174
0
175
1
176
1
 91
1
178
0
145
0.0
170
1
171
1
172
0
173
0
174
0
175
1
176
1
 91
33
178
0
145
0.0
301
CELL_VALUE
 90
4
  1
Weight
304
ACVALUE_END
170
5
140
0.125
171
1
172
0
173
0
174
0
175
1
176
1
 91
33
178
0
145
0.0
301
CELL_VALUE
 90
4
  1
6.063 lb.
304
ACVALUE_END
170
5
140
0.125
171
1
172
0
173
0
174
0
175
1
176
1
 91
33
178
0
145
0.0
301
CELL_VALUE
 90
4
  1
2,750 kg.
304
ACVALUE_END
170
5
140
0.125
171
1
172
0
173
0
174
0
175
1
176
1
 91
33
178
0
145
0.0
301
CELL_VALUE
 90
4
  1
Mounting Hole Thread
304
ACVALUE_END
170
5
140
0.125
171
1
172
0
173
0
174
0
175
1
176
1
 91
33
178
0
145
0.0
301
CELL_VALUE
 90
4
  1
.375-16 UNC - 2B in.
304
ACVALUE_END
170
5
140
0.125
171
1
172
0
173
0
174
0
175
1
176
1
 91
33
178
0
145
0.0
301
CELL_VALUE
 90
4
  1
 
304
ACVALUE_END
170
5
140
0.125
171
1
172
0
173
0
174
0
175
1
176
1
 91
33
178
0
145
0.0
301
CELL_VALUE
 90
4
  1
Mounting Hole Depth
304
ACVALUE_END
170
5
140
0.125
171
1
172
0
173
0
174
0
175
1
176
1
 91
33
178
0
145
0.0
301
CELL_VALUE
 90
4
  1
.62 in.
304
ACVALUE_END
170
5
140
0.125
171
1
172
0
173
0
174
0
175
1
176
1
 91
33
178
0
145
0.0
301
CELL_VALUE
 90
4
  1
15,7 mm
304
ACVALUE_END
170
5
140
0.125
171
1
172
0
173
0
174
0
175
1
176
1
 91
33
178
0
145
0.0
301
CELL_VALUE
 90
4
  1
Mounting Hole Quantity
304
ACVALUE_END
170
5
140
0.125
171
1
172
0
173
0
174
0
175
2
176
1
 91
33
178
0
145
0.0
301
CELL_VALUE
 90
4
  1
2
304
ACVALUE_END
170
5
140
0.125
171
1
172
0
173
1
174
0
175
1
176
1
 91
1
178
0
145
0.0
170
1
171
1
172
0
173
0
174
0
175
1
176
1
 91
33
178
0
145
0.0
301
CELL_VALUE
 90
4
  1
Includes integral cartridge(s)
304
ACVALUE_END
170
5
140
0.125
171
1
172
0
173
0
174
0
175
2
176
1
 91
33
178
0
145
0.0
301
CELL_VALUE
 90
4
  1
Yes (see Included Components)
304
ACVALUE_END
170
5
140
0.125
171
1
172
0
173
1
174
0
175
1
176
1
 91
1
178
0
145
0.0
170
1
  0
ACAD_TABLE
  5
28E
100
AcDbEntity
  8
0
 62
2
  6
CONTINUOUS
100
AcDbBlockReference
  2
*T3
 10
0.52125
 20
1.959
 30
0.0
100
AcDbTable
342
       372
343
209
 11
1.0
 21
0.0
 31
0.0
 90
22
 91
5
 92
3
 93
16
 94
0
 95
0
 96
0
 41
0.05
141
0.34375
141
0.344
141
0.25
141
0.25
141
0.25
142
1.3
142
2.0
142
1.3
171
1
172
0
173
0
174
0
175
3
176
1
 91
33
178
0
145
0.0
301
CELL_VALUE
 90
4
  1
Port Headings
304
ACVALUE_END
170
5
140
0.145
171
1
172
0
173
1
174
0
175
1
176
1
 91
1
178
0
145
0.0
170
1
171
1
172
0
173
1
174
0
175
1
176
1
 91
1
178
0
145
0.0
170
1
171
1
172
0
173
0
174
0
175
1
176
1
 91
33
178
0
145
0.0
301
CELL_VALUE
 90
4
  1
Product
304
ACVALUE_END
170
5
140
0.145
171
1
172
0
173
0
174
0
175
1
176
1
 91
33
178
0
145
0.0
301
CELL_VALUE
 90
4
  1
Port
304
ACVALUE_END
170
5
140
0.145
171
1
172
0
173
0
174
0
175
1
176
1
 91
33
178
0
145
0.0
301
CELL_VALUE
 90
4
  1
Size
304
ACVALUE_END
170
5
140
0.145
171
1
172
0
173
0
174
0
175
1
176
1
 91
33
178
0
145
0.0
301
CELL_VALUE
 90
4
  1
H7D
304
ACVALUE_END
170
5
140
0.125
171
1
172
0
173
0
174
0
175
1
176
1
 91
33
178
0
145
0.0
301
CELL_VALUE
 90
4
  1
Ports 1 &  2
304
ACVALUE_END
170
5
140
0.125
171
1
172
0
173
0
174
0
175
1
176
1
 91
33
178
0
145
0.0
301
CELL_VALUE
 90
4
  1
3/4" NPTF
304
ACVALUE_END
170
5
140
0.125
171
1
172
0
173
0
174
0
175
1
176
1
 91
33
178
0
145
0.0
301
CELL_VALUE
 90
4
  1
H7D
304
ACVALUE_END
170
5
140
0.125
171
1
172
0
173
0
174
0
175
1
176
1
 91
33
178
0
145
0.0
301
CELL_VALUE
 90
4
  1
Port 3
304
ACVALUE_END
170
5
140
0.125
171
1
172
0
173
0
174
0
175
1
176
1
 91
33
178
0
145
0.0
301
CELL_VALUE
 90
4
  1
1/4" NPTF
304
ACVALUE_END
170
5
140
0.125
171
1
172
0
173
0
174
0
175
1
176
1
 91
33
178
0
145
0.0
301
CELL_VALUE
 90
4
  1
H7D
304
ACVALUE_END
170
5
140
0.125
171
1
172
0
173
0
174
0
175
1
176
1
 91
33
178
0
145
0.0
301
CELL_VALUE
 90
4
  1
Gage Port
304
ACVALUE_END
170
5
140
0.125
171
1
172
0
173
0
174
0
175
1
176
1
 91
33
178
0
145
0.0
301
CELL_VALUE
 90
4
  1
1/4" NPTF
304
ACVALUE_END
170
5
140
0.125
  0
MTEXT
  5
28F
100
AcDbEntity
  8
0
100
AcDbMText
 62
2
  6
CONTINUOUS
  7
STANDARD
 71
1
 72
1
 10
0.52125
 20
5.75995
 30
0.0
 11
1.0
 21
0.0
 31
0.0
 44
0.6
  3
Notes\P \P1. Important: Carefully consider\P   the maximum system pressure. The\P   pressure rating of the manifold is\P   dependent on the manifold material,\P   with the port type/size a secondary\P   consideration. Manifolds\P   constructed of alu
  3
minum are not\P   rated for pressures higher than\P   3000 psi (210 bar), regardless of\P   the port type/size specified.\P2. This drawing is for reference\P   only. It is generated by an\P   automated process and does not fall\P   under Sun's docume
  1
nt control\P   process.
 40
0.1
 41
3.04
  0
LINE
  5
290
100
AcDbEntity
  8
0
100
AcDbLine
 62
7
  6
CONTINUOUS
 10
0.30125
 20
0.30125
 11
0.30125
 21
16.69875
  0
LINE
  5
291
100
AcDbEntity
  8
0
100
AcDbLine
 62
7
  6
CONTINUOUS
 10
0.30125
 20
0.30125
 11
21.69875
 21
0.30125
  0
LINE
  5
292
100
AcDbEntity
  8
0
100
AcDbLine
 62
7
  6
CONTINUOUS
 10
0.30125
 20
16.69875
 11
21.69875
 21
16.69875
  0
LINE
  5
293
100
AcDbEntity
  8
0
100
AcDbLine
 62
7
  6
CONTINUOUS
 10
21.69875
 20
0.30125
 11
21.69875
 21
16.69875
  0
LINE
  5
294
100
AcDbEntity
  8
0
100
AcDbLine
 62
7
  6
CONTINUOUS
 10
9.4563764802
 20
11.9541817898
 11
8.6799199857
 21
11.2041823643
  0
LINE
  5
295
100
AcDbEntity
  8
0
100
AcDbLine
 62
4
  6
CONTINUOUS
 10
9.4043644217
 20
10.9510973503
 11
9.3971199778
 21
10.9419404979
  0
LINE
  5
296
100
AcDbEntity
  8
0
100
AcDbLine
 62
4
  6
CONTINUOUS
 10
9.353653314
 20
10.9739326971
 11
9.3681422019
 21
10.9825871456
  0
LINE
  5
297
100
AcDbEntity
  8
0
100
AcDbLine
 62
4
  6
CONTINUOUS
 10
9.3971199778
 20
10.9419404979
 11
9.3826310898
 21
10.9332860424
  0
LINE
  5
298
100
AcDbEntity
  8
0
100
AcDbLine
 62
4
  6
CONTINUOUS
 10
9.3971199778
 20
10.8743256855
 11
9.3826310898
 21
10.8656712344
  0
LINE
  5
299
100
AcDbEntity
  8
0
100
AcDbLine
 62
7
  6
CONTINUOUS
 10
8.6799199857
 20
5.8915900049
 11
12.5436235198
 21
5.6236412547
  0
LINE
  5
29A
100
AcDbEntity
  8
0
100
AcDbLine
 62
7
  6
CONTINUOUS
 10
11.1565003752
 20
5.141073563
 11
11.1752594605
 21
5.131806934
  0
LINE
  5
29B
100
AcDbEntity
  8
0
100
AcDbLine
 62
4
  6
CONTINUOUS
 10
9.4116088657
 20
10.8926393947
 11
9.3971199778
 21
10.8743256855
  0
LINE
  5
29C
100
AcDbEntity
  8
0
100
AcDbLine
 62
7
  6
CONTINUOUS
 10
8.6799199857
 20
5.8915900049
 11
8.6799199857
 21
11.2041823643
  0
LINE
  5
29D
100
AcDbEntity
  8
0
100
AcDbLine
 62
4
  6
CONTINUOUS
 10
12.3625124063
 20
6.6600827344
 11
12.3480235184
 21
6.6610875422
  0
LINE
  5
29E
100
AcDbEntity
  8
0
100
AcDbLine
 62
4
  6
CONTINUOUS
 10
12.3552679623
 20
6.71854069
 11
12.3842457382
 21
6.7165310744
  0
LINE
  5
29F
100
AcDbEntity
  8
0
100
AcDbLine
 62
4
  6
CONTINUOUS
 10
9.4043644217
 20
10.9607566066
 11
9.4043644217
 21
10.9510973503
  0
LINE
  5
2A0
100
AcDbEntity
  8
0
100
AcDbLine
 62
4
  6
CONTINUOUS
 10
9.4116088657
 20
10.9022986544
 11
9.4116088657
 21
10.8926393947
  0
LINE
  5
2A1
100
AcDbEntity
  8
0
100
AcDbLine
 62
4
  6
CONTINUOUS
 10
12.3480235184
 20
6.7769986456
 11
12.3625124063
 21
6.7759938378
  0
LINE
  5
2A2
100
AcDbEntity
  8
0
100
AcDbLine
 62
4
  6
CONTINUOUS
 10
10.0621599362
 20
9.2923829805
 11
10.0621599362
 21
9.2344274288
  0
LINE
  5
2A3
100
AcDbEntity
  8
0
100
AcDbLine
 62
4
  6
CONTINUOUS
 10
10.120115488
 20
9.2304081977
 11
10.120115488
 21
9.1724526459
  0
LINE
  5
2A4
100
AcDbEntity
  8
0
100
AcDbLine
 62
4
  6
CONTINUOUS
 10
10.1490932638
 20
9.1704430304
 11
10.1490932638
 21
9.2863541338
  0
LINE
  5
2A5
100
AcDbEntity
  8
0
100
AcDbLine
 62
4
  6
CONTINUOUS
 10
10.1964236271
 20
8.576014031
 11
10.1964236271
 21
8.6919251344
  0
LINE
  5
2A6
100
AcDbEntity
  8
0
100
AcDbLine
 62
4
  6
CONTINUOUS
 10
10.2070488155
 20
9.2823349026
 11
10.2070488155
 21
9.1664237992
  0
LINE
  5
2A7
100
AcDbEntity
  8
0
100
AcDbLine
 62
4
  6
CONTINUOUS
 10
10.2360265914
 20
9.280325287
 11
10.2360265914
 21
9.1644141836
  0
LINE
  5
2A8
100
AcDbEntity
  8
0
100
AcDbLine
 62
4
  6
CONTINUOUS
 10
10.2543791719
 20
8.6713471757
 11
10.2543791719
 21
8.5885535301
  0
LINE
  5
2A9
100
AcDbEntity
  8
0
100
AcDbLine
 62
4
  6
CONTINUOUS
 10
10.2939821431
 20
9.2763060559
 11
10.2939821431
 21
9.1603949525
  0
LINE
  5
2AA
100
AcDbEntity
  8
0
100
AcDbLine
 62
4
  6
CONTINUOUS
 10
10.4098932465
 20
9.1523564901
 11
10.4098932465
 21
9.2682675936
  0
LINE
  5
2AB
100
AcDbEntity
  8
0
100
AcDbLine
 62
4
  6
CONTINUOUS
 10
10.43376541
 20
8.5595543225
 11
10.43376541
 21
8.6754654259
  0
LINE
  5
2AC
100
AcDbEntity
  8
0
100
AcDbLine
 62
4
  6
CONTINUOUS
 10
10.4678487983
 20
9.148337259
 11
10.4678487983
 21
9.2062928107
  0
LINE
  5
2AD
100
AcDbEntity
  8
0
100
AcDbLine
 62
4
  6
CONTINUOUS
 10
10.3012955716
 20
8.568741137
 11
10.3344130277
 21
8.682355537
  0
LINE
  5
2AE
100
AcDbEntity
  8
0
100
AcDbLine
 62
7
  6
CONTINUOUS
 10
12.5436235198
 20
10.9362336141
 11
13.3200800143
 21
11.6862330396
  0
LINE
  5
2AF
100
AcDbEntity
  8
0
100
AcDbLine
 62
4
  6
CONTINUOUS
 10
10.2543791719
 20
8.5885535301
 11
10.2378204438
 21
8.573143152
  0
LINE
  5
2B0
100
AcDbEntity
  8
0
100
AcDbLine
 62
4
  6
CONTINUOUS
 10
12.3480235184
 20
6.6610875422
 11
12.3335346304
 21
6.6717516089
  0
LINE
  5
2B1
100
AcDbEntity
  8
0
100
AcDbLine
 62
4
  6
CONTINUOUS
 10
12.3625124063
 20
6.7759938378
 11
12.3770012942
 21
6.7653297737
  0
LINE
  5
2B2
100
AcDbEntity
  8
0
100
AcDbLine
 62
4
  6
CONTINUOUS
 10
10.3344130277
 20
8.682355537
 11
10.3675304977
 21
8.5641477292
  0
LINE
  5
2B3
100
AcDbEntity
  8
0
100
AcDbLine
 62
4
  6
CONTINUOUS
 10
10.4917209658
 20
8.8105395186
 11
10.4917209658
 21
8.926450622
  0
LINE
  5
2B4
100
AcDbEntity
  8
0
100
AcDbLine
 62
4
  6
CONTINUOUS
 10
10.5000003223
 20
8.5549609157
 11
10.5000003223
 21
8.6708720191
  0
LINE
  5
2B5
100
AcDbEntity
  8
0
100
AcDbLine
 62
4
  6
CONTINUOUS
 10
10.5151791665
 20
9.1450548868
 11
10.5151791665
 21
9.2030104385
  0
LINE
  5
2B6
100
AcDbEntity
  8
0
100
AcDbLine
 62
4
  6
CONTINUOUS
 10
10.5496765175
 20
8.9224313908
 11
10.5496765175
 21
8.8065202874
  0
LINE
  5
2B7
100
AcDbEntity
  8
0
100
AcDbLine
 62
4
  6
CONTINUOUS
 10
10.5731347183
 20
9.1989912073
 11
10.5731347183
 21
9.0830801039
  0
LINE
  5
2B8
100
AcDbEntity
  8
0
100
AcDbLine
 62
4
  6
CONTINUOUS
 10
10.5827939736
 20
8.8952965919
 11
10.5827939736
 21
8.9201346875
  0
LINE
  5
2B9
100
AcDbEntity
  8
0
100
AcDbLine
 62
4
  6
CONTINUOUS
 10
10.6117717527
 20
9.1383561682
 11
10.6117717527
 21
9.1963117199
  0
LINE
  5
2BA
100
AcDbEntity
  8
0
100
AcDbLine
 62
4
  6
CONTINUOUS
 10
10.6697273045
 20
9.2502480404
 11
10.6697273045
 21
9.134336937
  0
LINE
  5
2BB
100
AcDbEntity
  8
0
100
AcDbLine
 62
4
  6
CONTINUOUS
 10
10.6697273045
 20
6.4992911878
 11
10.6697273045
 21
6.3833800844
  0
LINE
  5
2BC
100
AcDbEntity
  8
0
100
AcDbLine
 62
4
  6
CONTINUOUS
 10
10.6738669815
 20
8.7979076495
 11
10.6738669815
 21
8.9138187529
  0
LINE
  5
2BD
100
AcDbEntity
  8
0
100
AcDbLine
 62
4
  6
CONTINUOUS
 10
10.6738670051
 20
8.5594619501
 11
10.6738670051
 21
8.6422555956
  0
LINE
  5
2BE
100
AcDbEntity
  8
0
100
AcDbLine
 62
4
  6
CONTINUOUS
 10
10.7083643389
 20
9.1896130013
 11
10.7083643389
 21
9.1316574496
  0
LINE
  5
2BF
100
AcDbEntity
  8
0
100
AcDbLine
 62
4
  6
CONTINUOUS
 10
10.7318225332
 20
8.8932407937
 11
10.7318225332
 21
8.8104471481
  0
LINE
  5
2C0
100
AcDbEntity
  8
0
100
AcDbLine
 62
4
  6
CONTINUOUS
 10
10.6407495253
 20
8.9161154563
 11
10.6076320692
 21
8.8025010562
  0
LINE
  5
2C1
100
AcDbEntity
  8
0
100
AcDbLine
 62
4
  6
CONTINUOUS
 10
10.7318225332
 20
8.8104471481
 11
10.715263812
 21
8.7950367695
  0
LINE
  5
2C2
100
AcDbEntity
  8
0
100
AcDbLine
 62
4
  6
CONTINUOUS
 10
10.6738670051
 20
8.6422555956
 11
10.6904257262
 21
8.6576659725
  0
LINE
  5
2C3
100
AcDbEntity
  8
0
100
AcDbLine
 62
4
  6
CONTINUOUS
 10
10.7704595544
 20
8.6355568796
 11
10.7870182756
 21
8.6509672565
  0
LINE
  5
2C4
100
AcDbEntity
  8
0
100
AcDbLine
 62
4
  6
CONTINUOUS
 10
10.1743453196
 20
8.6492996621
 11
10.1301887079
 21
8.6302836259
  0
LINE
  5
2C5
100
AcDbEntity
  8
0
100
AcDbLine
 62
4
  6
CONTINUOUS
 10
10.1301887079
 20
8.6302836259
 11
10.1743453196
 21
8.6051430487
  0
LINE
  5
2C6
100
AcDbEntity
  8
0
100
AcDbLine
 62
4
  6
CONTINUOUS
 10
10.2378204438
 20
8.6890542555
 11
10.2543791719
 21
8.6713471757
  0
LINE
  5
2C7
100
AcDbEntity
  8
0
100
AcDbLine
 62
4
  6
CONTINUOUS
 10
10.7704595544
 20
8.552763234
 11
10.7704595544
 21
8.6355568796
  0
LINE
  5
2C8
100
AcDbEntity
  8
0
100
AcDbLine
 62
4
  6
CONTINUOUS
 10
10.8049569251
 20
9.124958731
 11
10.8049569251
 21
9.1635957654
  0
LINE
  5
2C9
100
AcDbEntity
  8
0
100
AcDbLine
 62
4
  6
CONTINUOUS
 10
10.8284151061
 20
8.6315376484
 11
10.8284151061
 21
8.5487440029
  0
LINE
  5
2CA
100
AcDbEntity
  8
0
100
AcDbLine
 62
4
  6
CONTINUOUS
 10
10.8615325485
 20
8.5298885707
 11
10.8615325485
 21
8.6457996741
  0
LINE
  5
2CB
100
AcDbEntity
  8
0
100
AcDbLine
 62
4
  6
CONTINUOUS
 10
10.8629124768
 20
9.1788950515
 11
10.8629124768
 21
9.1209394998
  0
LINE
  5
2CC
100
AcDbEntity
  8
0
100
AcDbLine
 62
4
  6
CONTINUOUS
 10
10.9015495113
 20
9.1762155641
 11
10.9015495113
 21
9.1182600124
  0
LINE
  5
2CD
100
AcDbEntity
  8
0
100
AcDbLine
 62
4
  6
CONTINUOUS
 10
10.9194881002
 20
8.6252217148
 11
10.9194881002
 21
8.5424280693
  0
LINE
  5
2CE
100
AcDbEntity
  8
0
100
AcDbLine
 62
4
  6
CONTINUOUS
 10
10.959505063
 20
9.1142407812
 11
10.959505063
 21
9.1721963329
  0
LINE
  5
2CF
100
AcDbEntity
  8
0
100
AcDbLine
 62
4
  6
CONTINUOUS
 10
10.9664045413
 20
8.5226156732
 11
10.9664045413
 21
8.6385267767
  0
LINE
  5
2D0
100
AcDbEntity
  8
0
100
AcDbLine
 62
4
  6
CONTINUOUS
 10
10.9981420975
 20
9.1115612938
 11
10.9981420975
 21
9.2274723972
  0
LINE
  5
2D1
100
AcDbEntity
  8
0
100
AcDbLine
 62
7
  6
CONTINUOUS
 10
11.0340965798
 20
5.7283273036
 11
11.0340965798
 21
5.2977276376
  0
LINE
  5
2D2
100
AcDbEntity
  8
0
100
AcDbLine
 62
4
  6
CONTINUOUS
 10
11.036779132
 20
9.1088818063
 11
11.036779132
 21
9.166837358
  0
LINE
  5
2D3
100
AcDbEntity
  8
0
100
AcDbLine
 62
4
  6
CONTINUOUS
 10
10.8284151061
 20
8.5487440029
 11
10.811856385
 21
8.5333336243
  0
LINE
  5
2D4
100
AcDbEntity
  8
0
100
AcDbLine
 62
4
  6
CONTINUOUS
 10
10.9194881002
 20
8.5424280693
 11
10.902929379
 21
8.5270176907
  0
LINE
  5
2D5
100
AcDbEntity
  8
0
100
AcDbLine
 62
4
  6
CONTINUOUS
 10
11.0933547553
 20
8.5634878337
 11
11.0491981471
 21
8.544471799
  0
LINE
  5
2D6
100
AcDbEntity
  8
0
100
AcDbLine
 62
4
  6
CONTINUOUS
 10
10.902929379
 20
8.5270176907
 11
10.8615325485
 21
8.5298885707
  0
LINE
  5
2D7
100
AcDbEntity
  8
0
100
AcDbLine
 62
4
  6
CONTINUOUS
 10
10.811856385
 20
8.5333336243
 11
10.7870182756
 21
8.535056153
  0
LINE
  5
2D8
100
AcDbEntity
  8
0
100
AcDbLine
 62
4
  6
CONTINUOUS
 10
10.7235431686
 20
8.5394581667
 11
10.6904257262
 21
8.5417548691
  0
LINE
  5
2D9
100
AcDbEntity
  8
0
100
AcDbLine
 62
4
  6
CONTINUOUS
 10
10.2378204438
 20
8.573143152
 11
10.1964236271
 21
8.576014031
  0
LINE
  5
2DA
100
AcDbEntity
  8
0
100
AcDbLine
 62
4
  6
CONTINUOUS
 10
10.5000003223
 20
8.5549609157
 11
10.5496765134
 21
8.5515158601
  0
LINE
  5
2DB
100
AcDbEntity
  8
0
100
AcDbLine
 62
4
  6
CONTINUOUS
 10
10.9664045413
 20
8.5226156732
 11
11.0160807048
 21
8.5191706196
  0
LINE
  5
2DC
100
AcDbEntity
  8
0
100
AcDbLine
 62
4
  6
CONTINUOUS
 10
10.6904257262
 20
8.5417548691
 11
10.6738670051
 21
8.5594619501
  0
LINE
  5
2DD
100
AcDbEntity
  8
0
100
AcDbLine
 62
4
  6
CONTINUOUS
 10
10.7870182756
 20
8.535056153
 11
10.7704595544
 21
8.552763234
  0
LINE
  5
2DE
100
AcDbEntity
  8
0
100
AcDbLine
 62
4
  6
CONTINUOUS
 10
10.811856385
 20
8.6492447277
 11
10.8284151061
 21
8.6315376484
  0
LINE
  5
2DF
100
AcDbEntity
  8
0
100
AcDbLine
 62
4
  6
CONTINUOUS
 10
10.902929379
 20
8.6429287941
 11
10.9194881002
 21
8.6252217148
  0
LINE
  5
2E0
100
AcDbEntity
  8
0
100
AcDbLine
 62
4
  6
CONTINUOUS
 10
12.3335346304
 20
6.6717516089
 11
12.3190457425
 21
6.6920749336
  0
LINE
  5
2E1
100
AcDbEntity
  8
0
100
AcDbLine
 62
4
  6
CONTINUOUS
 10
11.0754161665
 20
9.1641578706
 11
11.0754161665
 21
9.1062023189
  0
LINE
  5
2E2
100
AcDbEntity
  8
0
100
AcDbLine
 62
4
  6
CONTINUOUS
 10
11.1720087527
 20
9.157459152
 11
11.1720087527
 21
9.1284813761
  0
LINE
  5
2E3
100
AcDbEntity
  8
0
100
AcDbLine
 62
7
  6
CONTINUOUS
 10
11.2073646843
 20
5.7163111197
 11
11.2073646843
 21
5.1303637868
  0
LINE
  5
2E4
100
AcDbEntity
  8
0
100
AcDbLine
 62
4
  6
CONTINUOUS
 10
11.2299643044
 20
9.124462145
 11
11.2299643044
 21
9.0954843691
  0
LINE
  5
2E5
100
AcDbEntity
  8
0
100
AcDbLine
 62
7
  6
CONTINUOUS
 10
11.2393574796
 20
5.7140924118
 11
11.2393574796
 21
5.1220834526
  0
LINE
  5
2E6
100
AcDbEntity
  8
0
100
AcDbLine
 62
7
  6
CONTINUOUS
 10
12.931851767
 20
9.9560393473
 11
12.9331600665
 21
9.9572798353
  0
LINE
  5
2E7
100
AcDbEntity
  8
0
100
AcDbLine
 62
4
  6
CONTINUOUS
 10
12.3190457425
 20
9.1262082159
 11
12.3335346304
 21
9.1348626645
  0
LINE
  5
2E8
100
AcDbEntity
  8
0
100
AcDbLine
 62
4
  6
CONTINUOUS
 10
12.3625124063
 20
9.0845567535
 11
12.3335346304
 21
9.067247853
  0
LINE
  5
2E9
100
AcDbEntity
  8
0
100
AcDbLine
 62
4
  6
CONTINUOUS
 10
10.3123347236
 20
8.6010930288
 11
10.3564913318
 21
8.5980307576
  0
LINE
  5
2EA
100
AcDbEntity
  8
0
100
AcDbLine
 62
4
  6
CONTINUOUS
 10
10.9995219836
 20
8.58655389
 11
10.9664045413
 21
8.5888505925
  0
LINE
  5
2EB
100
AcDbEntity
  8
0
100
AcDbLine
 62
4
  6
CONTINUOUS
 10
10.5331177923
 20
8.6188991306
 11
10.5000003223
 21
8.6211958349
  0
LINE
  5
2EC
100
AcDbEntity
  8
0
100
AcDbLine
 62
4
  6
CONTINUOUS
 10
10.1964236271
 20
8.6919251344
 11
10.2378204438
 21
8.6890542555
  0
LINE
  5
2ED
100
AcDbEntity
  8
0
100
AcDbLine
 62
4
  6
CONTINUOUS
 10
10.40064794
 20
8.6777621302
 11
10.4668828523
 21
8.6731687235
  0
LINE
  5
2EE
100
AcDbEntity
  8
0
100
AcDbLine
 62
4
  6
CONTINUOUS
 10
10.5000003223
 20
8.6708720191
 11
10.5496765134
 21
8.6674269636
  0
LINE
  5
2EF
100
AcDbEntity
  8
0
100
AcDbLine
 62
4
  6
CONTINUOUS
 10
10.6904257262
 20
8.6576659725
 11
10.7235431686
 21
8.6553692701
  0
LINE
  5
2F0
100
AcDbEntity
  8
0
100
AcDbLine
 62
4
  6
CONTINUOUS
 10
10.7870182756
 20
8.6509672565
 11
10.811856385
 21
8.6492447277
  0
LINE
  5
2F1
100
AcDbEntity
  8
0
100
AcDbLine
 62
4
  6
CONTINUOUS
 10
10.8615325485
 20
8.6457996741
 11
10.902929379
 21
8.6429287941
  0
LINE
  5
2F2
100
AcDbEntity
  8
0
100
AcDbLine
 62
4
  6
CONTINUOUS
 10
10.9664045413
 20
8.6385267767
 11
11.0160807048
 21
8.635081723
  0
LINE
  5
2F3
100
AcDbEntity
  8
0
100
AcDbLine
 62
4
  6
CONTINUOUS
 10
10.715263812
 20
8.7950367695
 11
10.6738669815
 21
8.7979076495
  0
LINE
  5
2F4
100
AcDbEntity
  8
0
100
AcDbLine
 62
4
  6
CONTINUOUS
 10
11.0491981471
 20
8.5886284124
 11
11.0933547553
 21
8.5634878337
  0
LINE
  5
2F5
100
AcDbEntity
  8
0
100
AcDbLine
 62
4
  6
CONTINUOUS
 10
10.715263812
 20
8.910947873
 11
10.7318225332
 21
8.8932407937
  0
LINE
  5
2F6
100
AcDbEntity
  8
0
100
AcDbLine
 62
4
  6
CONTINUOUS
 10
9.353653314
 20
10.8773401089
 11
9.34640887
 21
10.8875017717
  0
LINE
  5
2F7
100
AcDbEntity
  8
0
100
AcDbLine
 62
4
  6
CONTINUOUS
 10
9.3971199778
 20
10.9226219783
 11
9.4116088657
 21
10.9022986544
  0
LINE
  5
2F8
100
AcDbEntity
  8
0
100
AcDbLine
 62
4
  6
CONTINUOUS
 10
12.3770012942
 20
6.7653297737
 11
12.3842457382
 21
6.7551681066
  0
LINE
  5
2F9
100
AcDbEntity
  8
0
100
AcDbLine
 62
4
  6
CONTINUOUS
 10
9.3971199778
 20
10.9709182737
 11
9.4043644217
 21
10.9607566066
  0
LINE
  5
2FA
100
AcDbEntity
  8
0
100
AcDbLine
 62
4
  6
CONTINUOUS
 10
10.4917209658
 20
8.8767744378
 11
10.5496765175
 21
8.8727552066
  0
LINE
  5
2FB
100
AcDbEntity
  8
0
100
AcDbLine
 62
4
  6
CONTINUOUS
 10
10.5827939736
 20
8.9201346875
 11
10.6407495253
 21
8.9161154563
  0
LINE
  5
2FC
100
AcDbEntity
  8
0
100
AcDbLine
 62
4
  6
CONTINUOUS
 10
10.6738669815
 20
8.9138187529
 11
10.715263812
 21
8.910947873
  0
LINE
  5
2FD
100
AcDbEntity
  8
0
100
AcDbLine
 62
4
  6
CONTINUOUS
 10
10.5731347183
 20
9.0830801039
 11
10.5344976838
 21
9.0857595913
  0
LINE
  5
2FE
100
AcDbEntity
  8
0
100
AcDbLine
 62
4
  6
CONTINUOUS
 10
12.3118012985
 20
9.1170513566
 11
12.3190457425
 21
9.1262082159
  0
LINE
  5
2FF
100
AcDbEntity
  8
0
100
AcDbLine
 62
4
  6
CONTINUOUS
 10
12.3335346304
 20
9.067247853
 11
12.3190457425
 21
9.0489341447
  0
LINE
  5
300
100
AcDbEntity
  8
0
100
AcDbLine
 62
4
  6
CONTINUOUS
 10
12.3697568502
 20
9.0937136128
 11
12.3625124063
 21
9.0845567535
  0
LINE
  5
301
100
AcDbEntity
  8
0
100
AcDbLine
 62
4
  6
CONTINUOUS
 10
11.2299643044
 20
9.0954843691
 11
11.1720087527
 21
9.0995036003
  0
LINE
  5
302
100
AcDbEntity
  8
0
100
AcDbLine
 62
4
  6
CONTINUOUS
 10
10.8629124768
 20
9.1209394998
 11
10.8049569251
 21
9.124958731
  0
LINE
  5
303
100
AcDbEntity
  8
0
100
AcDbLine
 62
4
  6
CONTINUOUS
 10
10.6697273045
 20
9.134336937
 11
10.6117717527
 21
9.1383561682
  0
LINE
  5
304
100
AcDbEntity
  8
0
100
AcDbLine
 62
4
  6
CONTINUOUS
 10
10.5731347183
 20
9.1410356556
 11
10.5151791665
 21
9.1450548868
  0
LINE
  5
305
100
AcDbEntity
  8
0
100
AcDbLine
 62
4
  6
CONTINUOUS
 10
10.2070488155
 20
9.1664237992
 11
10.1490932638
 21
9.1704430304
  0
LINE
  5
306
100
AcDbEntity
  8
0
100
AcDbLine
 62
4
  6
CONTINUOUS
 10
10.120115488
 20
9.1724526459
 11
10.0621599362
 21
9.1764718771
  0
LINE
  5
307
100
AcDbEntity
  8
0
100
AcDbLine
 62
4
  6
CONTINUOUS
 10
10.9015495113
 20
9.1182600124
 11
10.959505063
 21
9.1142407812
  0
LINE
  5
308
100
AcDbEntity
  8
0
100
AcDbLine
 62
4
  6
CONTINUOUS
 10
11.0754161665
 20
9.1062023189
 11
11.1333717182
 21
9.1021830877
  0
LINE
  5
309
100
AcDbEntity
  8
0
100
AcDbLine
 62
4
  6
CONTINUOUS
 10
12.3118012985
 20
9.0204587727
 11
12.3697568502
 21
9.0164395415
  0
LINE
  5
30A
100
AcDbEntity
  8
0
100
AcDbLine
 62
4
  6
CONTINUOUS
 10
11.1720087527
 20
9.1284813761
 11
11.2299643044
 21
9.124462145
  0
LINE
  5
30B
100
AcDbEntity
  8
0
100
AcDbLine
 62
4
  6
CONTINUOUS
 10
10.8049569251
 20
9.1635957654
 11
10.8629124768
 21
9.1595765343
  0
LINE
  5
30C
100
AcDbEntity
  8
0
100
AcDbLine
 62
4
  6
CONTINUOUS
 10
10.8629124768
 20
9.1788950515
 11
10.8242754424
 21
9.181574539
  0
LINE
  5
30D
100
AcDbEntity
  8
0
100
AcDbLine
 62
4
  6
CONTINUOUS
 10
10.4678487983
 20
9.2062928107
 11
10.4098932465
 21
9.2103120418
  0
LINE
  5
30E
100
AcDbEntity
  8
0
100
AcDbLine
 62
4
  6
CONTINUOUS
 10
10.0621599362
 20
9.2344274288
 11
10.120115488
 21
9.2304081977
  0
LINE
  5
30F
100
AcDbEntity
  8
0
100
AcDbLine
 62
4
  6
CONTINUOUS
 10
10.6117717527
 20
9.1963117199
 11
10.6697273045
 21
9.1922924887
  0
LINE
  5
310
100
AcDbEntity
  8
0
100
AcDbLine
 62
4
  6
CONTINUOUS
 10
10.7083643389
 20
9.1896130013
 11
10.7663198907
 21
9.1855937701
  0
LINE
  5
311
100
AcDbEntity
  8
0
100
AcDbLine
 62
4
  6
CONTINUOUS
 10
11.0754161665
 20
9.1641578706
 11
11.1333717182
 21
9.1601386394
  0
LINE
  5
312
100
AcDbEntity
  8
0
100
AcDbLine
 62
4
  6
CONTINUOUS
 10
11.1720087527
 20
9.157459152
 11
11.2299643044
 21
9.1534399208
  0
LINE
  5
313
100
AcDbEntity
  8
0
100
AcDbLine
 62
4
  6
CONTINUOUS
 10
11.029534688
 20
9.1963175378
 11
11.044023576
 21
9.19531273
  0
LINE
  5
314
100
AcDbEntity
  8
0
100
AcDbLine
 62
4
  6
CONTINUOUS
 10
10.120115488
 20
9.2883637494
 11
10.0621599362
 21
9.2923829805
  0
LINE
  5
315
100
AcDbEntity
  8
0
100
AcDbLine
 62
4
  6
CONTINUOUS
 10
10.2360265914
 20
9.280325287
 11
10.2939821431
 21
9.2763060559
  0
LINE
  5
316
100
AcDbEntity
  8
0
100
AcDbLine
 62
4
  6
CONTINUOUS
 10
12.3335346304
 20
9.1348626645
 11
12.3480235184
 21
9.1338578567
  0
LINE
  5
317
100
AcDbEntity
  8
0
100
AcDbLine
 62
4
  6
CONTINUOUS
 10
12.3190457425
 20
6.6920749336
 11
12.3118012985
 21
6.7215551134
  0
LINE
  5
318
100
AcDbEntity
  8
0
100
AcDbLine
 62
7
  6
CONTINUOUS
 10
11.8860023536
 20
5.6692474375
 11
11.8860023536
 21
5.0772384782
  0
LINE
  5
319
100
AcDbEntity
  8
0
100
AcDbLine
 62
7
  6
CONTINUOUS
 10
11.9297053125
 20
5.666216627
 11
11.9297053125
 21
5.0802692941
  0
LINE
  5
31A
100
AcDbEntity
  8
0
100
AcDbLine
 62
4
  6
CONTINUOUS
 10
12.3190457425
 20
9.0489341447
 11
12.3118012985
 21
9.0204587727
  0
LINE
  5
31B
100
AcDbEntity
  8
0
100
AcDbLine
 62
4
  6
CONTINUOUS
 10
9.3681422019
 20
10.8666760422
 11
9.353653314
 21
10.8773401089
  0
LINE
  5
31C
100
AcDbEntity
  8
0
100
AcDbLine
 62
4
  6
CONTINUOUS
 10
9.3826310898
 20
10.9332860424
 11
9.3971199778
 21
10.9226219783
  0
LINE
  5
31D
100
AcDbEntity
  8
0
100
AcDbLine
 62
4
  6
CONTINUOUS
 10
9.3826310898
 20
10.9815823378
 11
9.3971199778
 21
10.9709182737
  0
LINE
  5
31E
100
AcDbEntity
  8
0
100
AcDbLine
 62
4
  6
CONTINUOUS
 10
12.3697568502
 20
9.1130321254
 11
12.3697568502
 21
9.0937136128
  0
LINE
  5
31F
100
AcDbEntity
  8
0
100
AcDbLine
 62
4
  6
CONTINUOUS
 10
12.3842457382
 20
6.7165310744
 11
12.3842457382
 21
6.6778940405
  0
LINE
  5
320
100
AcDbEntity
  8
0
100
AcDbLine
 62
7
  6
CONTINUOUS
 10
12.403082082
 20
5.6333878366
 11
12.403082082
 21
5.2027881706
  0
LINE
  5
321
100
AcDbEntity
  8
0
100
AcDbLine
 62
7
  6
CONTINUOUS
 10
12.4147922455
 20
5.6325757339
 11
12.4147922455
 21
5.2140993207
  0
LINE
  5
322
100
AcDbEntity
  8
0
100
AcDbLine
 62
4
  6
CONTINUOUS
 10
12.3480235184
 20
9.1338578567
 11
12.3625124063
 21
9.1231937926
  0
LINE
  5
323
100
AcDbEntity
  8
0
100
AcDbLine
 62
7
  6
CONTINUOUS
 10
12.5436235198
 20
5.6236412547
 11
12.5436235198
 21
10.9362336141
  0
LINE
  5
324
100
AcDbEntity
  8
0
100
AcDbLine
 62
4
  6
CONTINUOUS
 10
12.3625124063
 20
9.1231937926
 11
12.3697568502
 21
9.1130321254
  0
LINE
  5
325
100
AcDbEntity
  8
0
100
AcDbLine
 62
4
  6
CONTINUOUS
 10
12.3118012985
 20
6.7215551134
 11
12.3190457425
 21
6.7500304853
  0
LINE
  5
326
100
AcDbEntity
  8
0
100
AcDbLine
 62
4
  6
CONTINUOUS
 10
12.3190457425
 20
6.7500304853
 11
12.3335346304
 21
6.7683441971
  0
LINE
  5
327
100
AcDbEntity
  8
0
100
AcDbLine
 62
4
  6
CONTINUOUS
 10
12.3842457382
 20
6.6778940405
 11
12.3770012942
 21
6.6687371855
  0
LINE
  5
328
100
AcDbEntity
  8
0
100
AcDbLine
 62
7
  6
CONTINUOUS
 10
12.931851767
 20
7.3557668338
 11
12.9325367171
 21
7.3564162237
  0
LINE
  5
329
100
AcDbEntity
  8
0
100
AcDbLine
 62
4
  6
CONTINUOUS
 10
12.3335346304
 20
6.7683441971
 11
12.3480235184
 21
6.7769986456
  0
LINE
  5
32A
100
AcDbEntity
  8
0
100
AcDbLine
 62
4
  6
CONTINUOUS
 10
9.3826310898
 20
10.8656712344
 11
9.3681422019
 21
10.8666760422
  0
LINE
  5
32B
100
AcDbEntity
  8
0
100
AcDbLine
 62
7
  6
CONTINUOUS
 10
13.3200800143
 20
6.3736406802
 11
13.3200800143
 21
11.6862330396
  0
LINE
  5
32C
100
AcDbEntity
  8
0
100
AcDbLine
 62
4
  6
CONTINUOUS
 10
12.3770012942
 20
6.6687371855
 11
12.3625124063
 21
6.6600827344
  0
LINE
  5
32D
100
AcDbEntity
  8
0
100
AcDbLine
 62
4
  6
CONTINUOUS
 10
9.3681422019
 20
10.9342908502
 11
9.3826310898
 21
10.9332860424
  0
LINE
  5
32E
100
AcDbEntity
  8
0
100
AcDbLine
 62
4
  6
CONTINUOUS
 10
9.3681422019
 20
10.9825871456
 11
9.3826310898
 21
10.9815823378
  0
LINE
  5
32F
100
AcDbEntity
  8
0
100
AcDbLine
 62
7
  6
CONTINUOUS
 10
8.6799199857
 20
11.2041823643
 11
12.5436235198
 21
10.9362336141
  0
LINE
  5
330
100
AcDbEntity
  8
0
100
AcDbLine
 62
7
  6
CONTINUOUS
 10
12.5436235198
 20
5.6236412547
 11
13.3200800143
 21
6.3736406802
  0
LINE
  5
331
100
AcDbEntity
  8
0
100
AcDbLine
 62
7
  6
CONTINUOUS
 10
13.3200800143
 20
11.6862330396
 11
9.4563764802
 21
11.9541817898
  0
LINE
  5
332
100
AcDbEntity
  8
0
100
AcDbLine
 62
7
  6
CONTINUOUS
 10
12.3050121151
 20
5.1473094118
 11
12.2736293648
 21
5.131806934
  0
ARC
  5
333
100
AcDbEntity
  8
0
100
AcDbCircle
 62
7
  6
CONTINUOUS
 10
11.7365616999
 20
7.5487069973
 40
2.4759824616
100
AcDbArc
 50
273.460253038
 51
274.4740090323
  0
ARC
  5
334
100
AcDbEntity
  8
0
100
AcDbCircle
 62
7
  6
CONTINUOUS
 10
10.0684281438
 20
8.9065739493
 40
1.8478673305
100
AcDbArc
 50
97.5038035059
 51
99.7311632482
  0
ARC
  5
335
100
AcDbEntity
  8
0
100
AcDbCircle
 62
7
  6
CONTINUOUS
 10
10.1618536505
 20
5.3964179737
 40
1.7692465861
100
AcDbArc
 50
86.0335289322
 51
86.3618742119
  0
ARC
  5
336
100
AcDbEntity
  8
0
100
AcDbCircle
 62
7
  6
CONTINUOUS
 10
11.4944183383
 20
6.1735097645
 40
1.0819211298
100
AcDbArc
 50
254.6141230724
 51
256.3642747627
  0
ARC
  5
337
100
AcDbEntity
  8
0
100
AcDbCircle
 62
7
  6
CONTINUOUS
 10
11.9267805327
 20
5.9112224891
 40
0.8524210625
100
AcDbArc
 50
293.9860710649
 51
296.3129872661
  0
ARC
  5
338
100
AcDbEntity
  8
0
100
AcDbCircle
 62
7
  6
CONTINUOUS
 10
9.9656424329
 20
10.6916985479
 40
0.1913484384
100
AcDbArc
 50
266.0371848606
 51
276.2275849369
  0
ARC
  5
339
100
AcDbEntity
  8
0
100
AcDbCircle
 62
7
  6
CONTINUOUS
 10
12.3140574611
 20
5.3070943589
 40
0.137131922
100
AcDbArc
 50
310.4805308012
 51
313.9817446454
  0
ARC
  5
33A
100
AcDbEntity
  8
0
100
AcDbCircle
 62
7
  6
CONTINUOUS
 10
11.2015125281
 20
5.2283371934
 40
0.0981089067
100
AcDbArc
 50
254.8737411391
 51
256.015771027
  0
LINE
  5
33B
100
AcDbEntity
  8
0
100
AcDbLine
 62
7
  6
CONTINUOUS
 10
12.4147922455
 20
5.2140993207
 11
12.4092858641
 21
5.2084195632
  0
SPLINE
  5
33C
100
AcDbEntity
  8
0
100
AcDbSpline
 62
7
  6
CONTINUOUS
 70
0
 71
3
 72
9
 73
5
 74
0
 42
0.0000001
 43
0.0000001
 44
0.0000000001
 40
0.0
 40
0.0
 40
0.0
 40
0.0
 40
0.5046579896
 40
1.0
 40
1.0
 40
1.0
 40
1.0
 10
12.403082082
 20
5.2027881706
 30
0.0
 10
12.3869887694
 20
5.192630672
 30
0.0
 10
12.3546709686
 20
5.1731703783
 30
0.0
 10
12.3213825685
 20
5.1554010433
 30
0.0
 10
12.3046369563
 20
5.1471242029
 30
0.0
  0
SPLINE
  5
33D
100
AcDbEntity
  8
0
100
AcDbSpline
 62
7
  6
CONTINUOUS
 70
0
 71
3
 72
23
 73
19
 74
0
 42
0.0000001
 43
0.0000001
 44
0.0000000001
 40
0.0
 40
0.0
 40
0.0
 40
0.0
 40
0.0433457487
 40
0.0887141091
 40
0.1363573647
 40
0.1864949178
 40
0.2392956118
 40
0.2948831072
 40
0.3533267235
 40
0.4146494686
 40
0.4788289665
 40
0.5458050177
 40
0.6154867711
 40
0.6877590178
 40
0.7624900115
 40
0.8395391943
 40
0.9187591375
 40
1.0
 40
1.0
 40
1.0
 40
1.0
 10
11.1571010087
 20
5.1407770283
 30
0.0
 10
11.1544775835
 20
5.1420711019
 30
0.0
 10
11.149210192
 20
5.1449308845
 30
0.0
 10
11.1414592489
 20
5.1499044844
 30
0.0
 10
11.133697006
 20
5.1556673327
 30
0.0
 10
11.1259305911
 20
5.1622305482
 30
0.0
 10
11.1181640128
 20
5.1695957778
 30
0.0
 10
11.1104034654
 20
5.1777588833
 30
0.0
 10
11.1026533467
 20
5.1867068973
 30
0.0
 10
11.0949187958
 20
5.1964206181
 30
0.0
 10
11.0872041167
 20
5.2068743333
 30
0.0
 10
11.0795130584
 20
5.2180371161
 30
0.0
 10
11.0718491512
 20
5.2298742915
 30
0.0
 10
11.0642147899
 20
5.2423480728
 30
0.0
 10
11.0566121744
 20
5.2554194438
 30
0.0
 10
11.0490425435
 20
5.2690486282
 30
0.0
 10
11.0415067832
 20
5.2831961041
 30
0.0
 10
11.0365650725
 20
5.2928321595
 30
0.0
 10
11.0340965798
 20
5.2977276376
 30
0.0
  0
SPLINE
  5
33E
100
AcDbEntity
  8
0
100
AcDbSpline
 62
7
  6
CONTINUOUS
 70
0
 71
3
 72
46
 73
42
 74
0
 42
0.0000001
 43
0.0000001
 44
0.0000000001
 40
0.0
 40
0.0
 40
0.0
 40
0.0
 40
0.009987442
 40
0.0204476137
 40
0.0313771087
 40
0.042770719
 40
0.0546216827
 40
0.0669224299
 40
0.0796639586
 40
0.092836054
 40
0.1204269473
 40
0.1495982457
 40
0.1802404493
 40
0.2122336402
 40
0.2454488195
 40
0.2797495924
 40
0.3149928343
 40
0.3510297406
 40
0.3877071311
 40
0.4248680709
 40
0.4623528245
 40
0.4999999707
 40
0.5376471181
 40
0.5751319032
 40
0.6122928703
 40
0.6489702712
 40
0.6850072643
 40
0.7202505753
 40
0.7545513746
 40
0.7877666801
 40
0.8197599616
 40
0.8504022183
 40
0.879573693
 40
0.9071646914
 40
0.9330772419
 40
0.9453781444
 40
0.9572291907
 40
0.9686227884
 40
0.9795523871
 40
0.9900125566
 40
1.0
 40
1.0
 40
1.0
 40
1.0
 10
12.2736347012
 20
5.1318096333
 30
0.0
 10
12.2702939383
 20
5.1301593313
 30
0.0
 10
12.2633972355
 20
5.1268951664
 30
0.0
 10
12.2526705009
 20
5.1222038311
 30
0.0
 10
12.2413338037
 20
5.117609392
 30
0.0
 10
12.2294003268
 20
5.1131171792
 30
0.0
 10
12.2168837812
 20
5.1087320883
 30
0.0
 10
12.2037984259
 20
5.1044595092
 30
0.0
 10
12.1901593019
 20
5.100304241
 30
0.0
 10
12.1709585323
 20
5.0948419849
 30
0.0
 10
12.1456778137
 20
5.0883677858
 30
0.0
 10
12.1138497334
 20
5.0812532368
 30
0.0
 10
12.0802244892
 20
5.0747117682
 30
0.0
 10
12.0449570857
 20
5.0687739758
 30
0.0
 10
12.0082098783
 20
5.0634674854
 30
0.0
 10
11.970152304
 20
5.0588172868
 30
0.0
 10
11.9309599293
 20
5.0548452113
 30
0.0
 10
11.8908136901
 20
5.0515696094
 30
0.0
 10
11.8498989457
 20
5.0490059138
 30
0.0
 10
11.8084046459
 20
5.0471661946
 30
0.0
 10
11.7665224778
 20
5.0460588251
 30
0.0
 10
11.7244459279
 20
5.0456890822
 30
0.0
 10
11.6823693667
 20
5.0460588062
 30
0.0
 10
11.640487173
 20
5.0471660568
 30
0.0
 10
11.5989928456
 20
5.0490057503
 30
0.0
 10
11.5580780547
 20
5.051569436
 30
0.0
 10
11.5179317438
 20
5.0548449214
 30
0.0
 10
11.4787392973
 20
5.0588169654
 30
0.0
 10
11.4406816389
 20
5.063467169
 30
0.0
 10
11.4039343307
 20
5.0687735441
 30
0.0
 10
11.3686667918
 20
5.074711295
 30
0.0
 10
11.3350415238
 20
5.0812528129
 30
0.0
 10
11.3032129719
 20
5.0883671657
 30
0.0
 10
11.2733276469
 20
5.0960210525
 30
0.0
 10
11.2497638356
 20
5.1029338863
 30
0.0
 10
11.2320068749
 20
5.1087314069
 30
0.0
 10
11.2194902251
 20
5.1131165332
 30
0.0
 10
11.207556715
 20
5.1176088207
 30
0.0
 10
11.1962199207
 20
5.1222031095
 30
0.0
 10
11.1854931159
 20
5.1268943838
 30
0.0
 10
11.1785964292
 20
5.1301585826
 30
0.0
 10
11.1752556664
 20
5.1318088859
 30
0.0
  0
SPLINE
  5
33F
100
AcDbEntity
  8
0
100
AcDbSpline
 62
7
  6
CONTINUOUS
 70
0
 71
3
 72
21
 73
17
 74
0
 42
0.0000001
 43
0.0000001
 44
0.0000000001
 40
0.0
 40
0.0
 40
0.0
 40
0.0
 40
0.1229782982
 40
0.1846437121
 40
0.2464406137
 40
0.308381136
 40
0.3704758731
 40
0.4327332085
 40
0.4951582589
 40
0.5577520389
 40
0.6205114325
 40
0.6834297978
 40
0.7464974582
 40
0.8097023547
 40
0.8730312648
 40
1.0
 40
1.0
 40
1.0
 40
1.0
 10
11.8860023536
 20
5.0772384782
 30
0.0
 10
11.8596167794
 20
5.0718762901
 30
0.0
 10
11.8197859562
 20
5.0648091514
 30
0.0
 10
11.766284305
 20
5.0577703534
 30
0.0
 10
11.7258807554
 20
5.0537795487
 30
0.0
 10
11.6852688328
 20
5.0511850169
 30
0.0
 10
11.6444874027
 20
5.0500752865
 30
0.0
 10
11.6035866009
 20
5.0505187741
 30
0.0
 10
11.5626245418
 20
5.0525578176
 30
0.0
 10
11.5216639335
 20
5.0562044378
 30
0.0
 10
11.4807672377
 20
5.0614375437
 30
0.0
 10
11.4399920914
 20
5.0682064661
 30
0.0
 10
11.3993879824
 20
5.0764357303
 30
0.0
 10
11.3589931783
 20
5.0860313496
 30
0.0
 10
11.3054082006
 20
5.1005168476
 30
0.0
 10
11.2656609614
 20
5.1130896423
 30
0.0
 10
11.2393574796
 20
5.1220834526
 30
0.0
  0
SPLINE
  5
340
100
AcDbEntity
  8
0
100
AcDbSpline
 62
7
  6
CONTINUOUS
 70
0
 71
3
 72
11
 73
7
 74
0
 42
0.0000001
 43
0.0000001
 44
0.0000000001
 40
0.0
 40
0.0
 40
0.0
 40
0.0
 40
0.2464179584
 40
0.4942839735
 40
0.7449565552
 40
1.0
 40
1.0
 40
1.0
 40
1.0
 10
11.2073646843
 20
5.1303637868
 30
0.0
 10
11.2049207305
 20
5.130238322
 30
0.0
 10
11.2000082616
 20
5.1301503331
 30
0.0
 10
11.1926141887
 20
5.1305441077
 30
0.0
 10
11.185184615
 20
5.1314994388
 30
0.0
 10
11.1802618061
 20
5.1325239504
 30
0.0
 10
11.1778040393
 20
5.1331360111
 30
0.0
  0
SPLINE
  5
341
100
AcDbEntity
  8
0
100
AcDbSpline
 62
7
  6
CONTINUOUS
 70
0
 71
3
 72
9
 73
5
 74
0
 42
0.0000001
 43
0.0000001
 44
0.0000000001
 40
0.0
 40
0.0
 40
0.0
 40
0.0
 40
0.4896161665
 40
1.0
 40
1.0
 40
1.0
 40
1.0
 10
11.1759113071
 20
5.1336274524
 30
0.0
 10
11.1727371014
 20
5.1344854342
 30
0.0
 10
11.1663384619
 20
5.1365648179
 30
0.0
 10
11.1601749581
 20
5.1392607216
 30
0.0
 10
11.1571010087
 20
5.1407770283
 30
0.0
  0
SPLINE
  5
342
100
AcDbEntity
  8
0
100
AcDbSpline
 62
7
  6
CONTINUOUS
 70
0
 71
3
 72
21
 73
17
 74
0
 42
0.0000001
 43
0.0000001
 44
0.0000000001
 40
0.0
 40
0.0
 40
0.0
 40
0.0
 40
0.066508053
 40
0.1323638847
 40
0.1975675177
 40
0.2621277743
 40
0.3260642674
 40
0.3894049724
 40
0.4521874815
 40
0.5144551981
 40
0.5762571041
 40
0.6376446408
 40
0.698669726
 40
0.7593834445
 40
0.8800506697
 40
1.0
 40
1.0
 40
1.0
 40
1.0
 10
12.2733020913
 20
5.1324128351
 30
0.0
 10
12.2661709488
 20
5.1292448816
 30
0.0
 10
12.2518853971
 20
5.1231470369
 30
0.0
 10
12.2302889304
 20
5.1147163757
 30
0.0
 10
12.2086421867
 20
5.1070754344
 30
0.0
 10
12.1869601198
 20
5.100250746
 30
0.0
 10
12.165260195
 20
5.0942570926
 30
0.0
 10
12.1435592585
 20
5.0891055657
 30
0.0
 10
12.1218755601
 20
5.0847937438
 30
0.0
 10
12.1002256747
 20
5.081314685
 30
0.0
 10
12.0786256155
 20
5.0786499755
 30
0.0
 10
12.0570892596
 20
5.0767760478
 30
0.0
 10
12.0356282522
 20
5.0756622865
 30
0.0
 10
12.007187789
 20
5.0751448032
 30
0.0
 10
11.9718260625
 20
5.0762069828
 30
0.0
 10
11.9436887118
 20
5.0786818313
 30
0.0
 10
11.9297053125
 20
5.0802692941
 30
0.0
  0
SPLINE
  5
343
100
AcDbEntity
  8
0
100
AcDbSpline
 62
7
  6
CONTINUOUS
 70
0
 71
3
 72
34
 73
30
 74
0
 42
0.0000001
 43
0.0000001
 44
0.0000000001
 40
0.0
 40
0.0
 40
0.0
 40
0.0
 40
0.0845017631
 40
0.1673004612
 40
0.2480789935
 40
0.3265291774
 40
0.4023563354
 40
0.4391988087
 40
0.4752818393
 40
0.5105731496
 40
0.5450416022
 40
0.5786574517
 40
0.6113923142
 40
0.6432192789
 40
0.6741131428
 40
0.7040503539
 40
0.733009313
 40
0.7609705008
 40
0.7879165715
 40
0.8138327837
 40
0.8387070832
 40
0.8625305056
 40
0.8852976526
 40
0.9070069835
 40
0.9276616105
 40
0.9472699157
 40
0.9658463994
 40
0.9834129555
 40
1.0
 40
1.0
 40
1.0
 40
1.0
 10
9.9363717521
 20
11.2928216468
 30
0.0
 10
9.918900377
 20
11.2940332908
 30
0.0
 10
9.8843301186
 20
11.2967388029
 30
0.0
 10
9.8331516898
 20
11.3016998423
 30
0.0
 10
9.783324341
 20
11.3075065491
 30
0.0
 10
9.7350575016
 20
11.3141343371
 30
0.0
 10
9.6959382701
 20
11.3203764038
 30
0.0
 10
9.6655841797
 20
11.3257738879
 30
0.0
 10
9.6435512382
 20
11.3299701621
 30
0.0
 10
9.6220557084
 20
11.3343488527
 30
0.0
 10
9.601120142
 20
11.3389054153
 30
0.0
 10
9.5807665209
 20
11.3436350029
 30
0.0
 10
9.5610162052
 20
11.348532631
 30
0.0
 10
9.5418899194
 20
11.3535931596
 30
0.0
 10
9.5234077131
 20
11.3588112072
 30
0.0
 10
9.5055889601
 20
11.3641813073
 30
0.0
 10
9.4884523182
 20
11.3696977894
 30
0.0
 10
9.47201571
 20
11.3753548166
 30
0.0
 10
9.4562963214
 20
11.3811464838
 30
0.0
 10
9.4413105413
 20
11.3870666575
 30
0.0
 10
9.4270739772
 20
11.3931091463
 30
0.0
 10
9.4136014261
 20
11.3992676542
 30
0.0
 10
9.4009068213
 20
11.4055357201
 30
0.0
 10
9.3890032827
 20
11.4119069121
 30
0.0
 10
9.377903016
 20
11.4183746812
 30
0.0
 10
9.3676173905
 20
11.4249324289
 30
0.0
 10
9.3581567687
 20
11.4315738135
 30
0.0
 10
9.3495311365
 20
11.4382919047
 30
0.0
 10
9.3441933688
 20
11.4429484055
 30
0.0
 10
9.3416767786
 20
11.4452903671
 30
0.0
  0
SPLINE
  5
344
100
AcDbEntity
  8
0
100
AcDbSpline
 62
7
  6
CONTINUOUS
 70
0
 71
3
 72
13
 73
9
 74
0
 42
0.0000001
 43
0.0000001
 44
0.0000000001
 40
0.0
 40
0.0
 40
0.0
 40
0.0
 40
0.2880915178
 40
0.4201649942
 40
0.5456421961
 40
0.6654782552
 40
0.7805784519
 40
1.0
 40
1.0
 40
1.0
 40
1.0
 10
9.3754154532
 20
11.4201939314
 30
0.0
 10
9.3749614261
 20
11.4212230883
 30
0.0
 10
9.3743644888
 20
11.4227549386
 30
0.0
 10
9.3737479152
 20
11.4247949679
 30
0.0
 10
9.3733935977
 20
11.4262259357
 30
0.0
 10
9.373127292
 20
11.4276084817
 30
0.0
 10
9.3728863981
 20
11.429366699
 30
0.0
 10
9.3728148519
 20
11.4306742414
 30
0.0
 10
9.3728148519
 20
11.431530976
 30
0.0
  0
SPLINE
  5
345
100
AcDbEntity
  8
0
100
AcDbSpline
 62
7
  6
CONTINUOUS
 70
0
 71
3
 72
47
 73
43
 74
0
 42
0.0000001
 43
0.0000001
 44
0.0000000001
 40
0.0
 40
0.0
 40
0.0
 40
0.0
 40
0.0072739452
 40
0.0148703987
 40
0.0227978846
 40
0.031063102
 40
0.0396712776
 40
0.0486261889
 40
0.057930496
 40
0.0675857004
 40
0.077592433
 40
0.0879503969
 40
0.0986585869
 40
0.1097152564
 40
0.1211180537
 40
0.1328640385
 40
0.1449497302
 40
0.1573711835
 40
0.1832025769
 40
0.2103187156
 40
0.2386733848
 40
0.2682151186
 40
0.298887767
 40
0.3306309759
 40
0.3633806034
 40
0.3970690902
 40
0.4316257961
 40
0.4669773119
 40
0.5030477519
 40
0.5397590347
 40
0.577031153
 40
0.6147824366
 40
0.6529298098
 40
0.6913890446
 40
0.7300750129
 40
0.7689019324
 40
0.8077836248
 40
0.8466337296
 40
0.8853660521
 40
0.9238945305
 40
0.9621341655
 40
1.0
 40
1.0
 40
1.0
 40
1.0
 10
10.9679529252
 20
11.4452903671
 30
0.0
 10
10.9660732599
 20
11.4435411335
 30
0.0
 10
10.9621441572
 20
11.4400570905
 30
0.0
 10
10.9558967048
 20
11.4349809653
 30
0.0
 10
10.9491733815
 20
11.4299461744
 30
0.0
 10
10.9419783314
 20
11.4249556407
 30
0.0
 10
10.9343156486
 20
11.4200122553
 30
0.0
 10
10.926189868
 20
11.4151187804
 30
0.0
 10
10.9176056963
 20
11.4102781525
 30
0.0
 10
10.9085682047
 20
11.4054931071
 30
0.0
 10
10.8990826718
 20
11.4007665379
 30
0.0
 10
10.889154705
 20
11.3961011593
 30
0.0
 10
10.8787901405
 20
11.3914997848
 30
0.0
 10
10.8679951094
 20
11.3869651017
 30
0.0
 10
10.8567759862
 20
11.38249982
 30
0.0
 10
10.8451394158
 20
11.378106598
 30
0.0
 10
10.8330922767
 20
11.3737880011
 30
0.0
 10
10.816271503
 20
11.3680580409
 30
0.0
 10
10.7942615595
 20
11.3611168426
 30
0.0
 10
10.7666640344
 20
11.3532297117
 30
0.0
 10
10.7376123063
 20
11.3456988148
 30
0.0
 10
10.7071753373
 20
11.3385421926
 30
0.0
 10
10.6754251743
 20
11.3317770083
 30
0.0
 10
10.6424371412
 20
11.325419482
 30
0.0
 10
10.6082895347
 20
11.3194848547
 30
0.0
 10
10.5730634578
 20
11.3139873499
 30
0.0
 10
10.5368426092
 20
11.3089401394
 30
0.0
 10
10.4997130801
 20
11.3043553132
 30
0.0
 10
10.4617631436
 20
11.30024385
 30
0.0
 10
10.4230830404
 20
11.2966155924
 30
0.0
 10
10.383764761
 20
11.2934792244
 30
0.0
 10
10.3439018235
 20
11.2908422514
 30
0.0
 10
10.30358905
 20
11.2887109826
 30
0.0
 10
10.2629223378
 20
11.2870905163
 30
0.0
 10
10.2219984317
 20
11.2859847293
 30
0.0
 10
10.180914689
 20
11.2853962654
 30
0.0
 10
10.1397688566
 20
11.2853265344
 30
0.0
 10
10.098658807
 20
11.2857756983
 30
0.0
 10
10.057682391
 20
11.2867426921
 30
0.0
 10
10.0169369828
 20
11.288225189
 30
0.0
 10
9.9765197127
 20
11.2902196589
 30
0.0
 10
9.9497062256
 20
11.2918968979
 30
0.0
 10
9.9363717521
 20
11.2928216468
 30
0.0
  0
SPLINE
  5
346
100
AcDbEntity
  8
0
100
AcDbSpline
 62
7
  6
CONTINUOUS
 70
0
 71
3
 72
13
 73
9
 74
0
 42
0.0000001
 43
0.0000001
 44
0.0000000001
 40
0.0
 40
0.0
 40
0.0
 40
0.0
 40
0.2194212808
 40
0.3345213811
 40
0.4543574127
 40
0.5798346904
 40
0.7119083159
 40
1.0
 40
1.0
 40
1.0
 40
1.0
 10
10.9368148519
 20
11.431530976
 30
0.0
 10
10.9368148519
 20
11.4306742419
 30
0.0
 10
10.9367433062
 20
11.4293667001
 30
0.0
 10
10.9365024126
 20
11.4276084832
 30
0.0
 10
10.9362361066
 20
11.4262259365
 30
0.0
 10
10.9358817881
 20
11.4247949673
 30
0.0
 10
10.9352652135
 20
11.4227549353
 30
0.0
 10
10.9346682758
 20
11.4212230826
 30
0.0
 10
10.9342142482
 20
11.4201939245
 30
0.0
  0
SPLINE
  5
347
100
AcDbEntity
  8
0
100
AcDbSpline
 62
7
  6
CONTINUOUS
 70
0
 71
3
 72
23
 73
19
 74
0
 42
0.0000001
 43
0.0000001
 44
0.0000000001
 40
0.0
 40
0.0
 40
0.0
 40
0.0
 40
0.0616482097
 40
0.123319447
 40
0.1850364789
 40
0.2468215645
 40
0.3086962086
 40
0.3706809238
 40
0.4327950069
 40
0.4950563354
 40
0.5574811816
 40
0.620084074
 40
0.6828775998
 40
0.7458723259
 40
0.8090769666
 40
0.8724967557
 40
0.9361385685
 40
1.0
 40
1.0
 40
1.0
 40
1.0
 10
10.076793217
 20
7.4488328174
 30
0.0
 10
10.0818768209
 20
7.4537431811
 30
0.0
 10
10.0923122317
 20
7.4632942878
 30
0.0
 10
10.108715921
 20
7.4767616621
 30
0.0
 10
10.1258319172
 20
7.4893388657
 30
0.0
 10
10.1436165081
 20
7.5009936635
 30
0.0
 10
10.1620250241
 20
7.5116968684
 30
0.0
 10
10.1810110373
 20
7.5214214952
 30
0.0
 10
10.2005267225
 20
7.5301430703
 30
0.0
 10
10.220522891
 20
7.5378396801
 30
0.0
 10
10.2409491599
 20
7.5444920015
 30
0.0
 10
10.2617540759
 20
7.5500833294
 30
0.0
 10
10.282885235
 20
7.5545996292
 30
0.0
 10
10.3042894636
 20
7.5580295837
 30
0.0
 10
10.3259127269
 20
7.5603645645
 30
0.0
 10
10.3477009998
 20
7.5615989274
 30
0.0
 10
10.3695984617
 20
7.5617294021
 30
0.0
 10
10.3842093632
 20
7.5610814646
 30
0.0
 10
10.391513426
 20
7.5605749261
 30
0.0
  0
SPLINE
  5
348
100
AcDbEntity
  8
0
100
AcDbSpline
 62
7
  6
CONTINUOUS
 70
0
 71
3
 72
49
 73
45
 74
0
 42
0.0000001
 43
0.0000001
 44
0.0000000001
 40
0.0
 40
0.0
 40
0.0
 40
0.0
 40
0.0376933894
 40
0.0752232783
 40
0.1126175073
 40
0.1499039806
 40
0.1871065867
 40
0.2242424619
 40
0.2613203142
 40
0.2983394665
 40
0.3352892622
 40
0.3721485842
 40
0.4088852308
 40
0.4454550354
 40
0.4818007659
 40
0.5178509904
 40
0.5535195171
 40
0.5887057628
 40
0.6232964845
 40
0.6571692246
 40
0.6901970259
 40
0.7063579057
 40
0.7222605139
 40
0.7532258769
 40
0.7829892786
 40
0.7973915372
 40
0.8114572362
 40
0.8385331797
 40
0.8515302329
 40
0.8641542521
 40
0.8763983246
 40
0.8882561649
 40
0.8997227972
 40
0.9107938973
 40
0.9214666749
 40
0.9317393838
 40
0.9416120403
 40
0.9510863884
 40
0.9601663501
 40
0.968858523
 40
0.9771724086
 40
0.9851214278
 40
0.9927230038
 40
1.0
 40
1.0
 40
1.0
 40
1.0
 10
10.2283783926
 20
7.540358741
 30
0.0
 10
10.2246240597
 20
7.5309275293
 30
0.0
 10
10.2178161437
 20
7.5118248041
 30
0.0
 10
10.209769374
 20
7.4825557367
 30
0.0
 10
10.2039466324
 20
7.4528741492
 30
0.0
 10
10.2003722147
 20
7.4229278546
 30
0.0
 10
10.1990586402
 20
7.392867051
 30
0.0
 10
10.2000098633
 20
7.3628487074
 30
0.0
 10
10.2032217536
 20
7.3330369843
 30
0.0
 10
10.2086818081
 20
7.3036046515
 30
0.0
 10
10.2163675209
 20
7.2747339826
 30
0.0
 10
10.2262435704
 20
7.2466172762
 30
0.0
 10
10.2382577392
 20
7.219456576
 30
0.0
 10
10.25233569
 20
7.1934621598
 30
0.0
 10
10.26837498
 20
7.1688492781
 30
0.0
 10
10.286238747
 20
7.1458323812
 30
0.0
 10
10.3057507452
 20
7.1246167576
 30
0.0
 10
10.3266927754
 20
7.1053879242
 30
0.0
 10
10.3488065098
 20
7.0882991975
 30
0.0
 10
10.3717977571
 20
7.0734604912
 30
0.0
 10
10.3915704652
 20
7.0629402288
 30
0.0
 10
10.4075356305
 20
7.0556915107
 30
0.0
 10
10.4232706309
 20
7.0493145355
 30
0.0
 10
10.4428538355
 20
7.0427284945
 30
0.0
 10
10.462506044
 20
7.0378222356
 30
0.0
 10
10.4779225827
 20
7.0349297238
 30
0.0
 10
10.4927227035
 20
7.0327411659
 30
0.0
 10
10.5072601913
 20
7.031427953
 30
0.0
 10
10.5214468426
 20
7.0309668278
 30
0.0
 10
10.5316465404
 20
7.0310216414
 30
0.0
 10
10.541530055
 20
7.0314503976
 30
0.0
 10
10.5510793211
 20
7.0322312554
 30
0.0
 10
10.5602775693
 20
7.0333433479
 30
0.0
 10
10.569109791
 20
7.0347662767
 30
0.0
 10
10.5775622502
 20
7.0364809485
 30
0.0
 10
10.5856226302
 20
7.0384691005
 30
0.0
 10
10.5932797112
 20
7.0407138317
 30
0.0
 10
10.6005233723
 20
7.0431995003
 30
0.0
 10
10.6073445063
 20
7.0459117227
 30
0.0
 10
10.6137347769
 20
7.048837787
 30
0.0
 10
10.619686815
 20
7.0519660992
 30
0.0
 10
10.6251938081
 20
7.0552871295
 30
0.0
 10
10.6302494663
 20
7.0587920659
 30
0.0
 10
10.6333803031
 20
7.0612992538
 30
0.0
 10
10.634862059
 20
7.0625818027
 30
0.0
  0
SPLINE
  5
349
100
AcDbEntity
  8
0
100
AcDbSpline
 62
7
  6
CONTINUOUS
 70
0
 71
3
 72
39
 73
35
 74
0
 42
0.0000001
 43
0.0000001
 44
0.0000000001
 40
0.0
 40
0.0
 40
0.0
 40
0.0
 40
0.0299393048
 40
0.0599022805
 40
0.0899120376
 40
0.1199905841
 40
0.1501583161
 40
0.1804335571
 40
0.2108321567
 40
0.2413671582
 40
0.2720485418
 40
0.3028830453
 40
0.333874066
 40
0.3650216372
 40
0.3963224773
 40
0.427770107
 40
0.459355027
 40
0.4910649499
 40
0.5228850821
 40
0.5547984438
 40
0.586786223
 40
0.6188281554
 40
0.6509029263
 40
0.6829885863
 40
0.7150629767
 40
0.747104156
 40
0.7790908247
 40
0.8110027395
 40
0.8428211156
 40
0.8745290113
 40
0.906111652
 40
0.937556897
 40
0.9688549576
 40
1.0
 40
1.0
 40
1.0
 40
1.0
 10
10.706233635
 20
6.7971881843
 30
0.0
 10
10.7136390514
 20
6.8043412372
 30
0.0
 10
10.7279010557
 20
6.8192403562
 30
0.0
 10
10.7474881852
 20
6.843204054
 30
0.0
 10
10.7651741042
 20
6.8686638367
 30
0.0
 10
10.7808625225
 20
6.8954815705
 30
0.0
 10
10.7944701727
 20
6.923514084
 30
0.0
 10
10.8059243907
 20
6.9526111518
 30
0.0
 10
10.8151642606
 20
6.9826170734
 30
0.0
 10
10.8221407118
 20
7.0133713189
 30
0.0
 10
10.8268168377
 20
7.0447094483
 30
0.0
 10
10.8291680572
 20
7.076463987
 30
0.0
 10
10.8291822068
 20
7.1084653293
 30
0.0
 10
10.8268595892
 20
7.1405426374
 30
0.0
 10
10.822212954
 20
7.1725247455
 30
0.0
 10
10.8152674124
 20
7.2042410612
 30
0.0
 10
10.8060603082
 20
7.2355224652
 30
0.0
 10
10.794641018
 20
7.2662022085
 30
0.0
 10
10.7810706579
 20
7.2961167824
 30
0.0
 10
10.7654217603
 20
7.3251067787
 30
0.0
 10
10.747777886
 20
7.3530177267
 30
0.0
 10
10.7282331804
 20
7.3797009032
 30
0.0
 10
10.7068918825
 20
7.4050141206
 30
0.0
 10
10.683867786
 20
7.4288224899
 30
0.0
 10
10.659283614
 20
7.4509991146
 30
0.0
 10
10.6332703762
 20
7.4714257623
 30
0.0
 10
10.6059666795
 20
7.4899934876
 30
0.0
 10
10.5775179929
 20
7.5066032061
 30
0.0
 10
10.5480759043
 20
7.5211662257
 30
0.0
 10
10.5177972643
 20
7.5336047269
 30
0.0
 10
10.4868435845
 20
7.5438521966
 30
0.0
 10
10.455379323
 20
7.5518536777
 30
0.0
 10
10.4235743981
 20
7.5575661921
 30
0.0
 10
10.402198347
 20
7.5598339243
 30
0.0
 10
10.391513426
 20
7.5605749261
 30
0.0
  0
SPLINE
  5
34A
100
AcDbEntity
  8
0
100
AcDbSpline
 62
7
  6
CONTINUOUS
 70
0
 71
3
 72
21
 73
17
 74
0
 42
0.0000001
 43
0.0000001
 44
0.0000000001
 40
0.0
 40
0.0
 40
0.0
 40
0.0
 40
0.0616532241
 40
0.1233294867
 40
0.1850515422
 40
0.2468416559
 40
0.3087213462
 40
0.3707111072
 40
0.432830238
 40
0.4950966386
 40
0.5575265907
 40
0.620134545
 40
0.6829331365
 40
0.7459333042
 40
0.8725260869
 40
1.0
 40
1.0
 40
1.0
 40
1.0
 10
9.637853582
 20
10.6941307898
 30
0.0
 10
9.6402214355
 20
10.696417963
 30
0.0
 10
9.6450820813
 20
10.70086671
 30
0.0
 10
9.6527226439
 20
10.7071396024
 30
0.0
 10
9.6606950088
 20
10.7129978392
 30
0.0
 10
9.6689787633
 20
10.7184264795
 30
0.0
 10
9.6775531563
 20
10.7234118477
 30
0.0
 10
9.6863965427
 20
10.7279413941
 30
0.0
 10
9.6954866146
 20
10.7320037953
 30
0.0
 10
9.7048005044
 20
10.7355887433
 30
0.0
 10
9.7143147435
 20
10.7386872676
 30
0.0
 10
9.7240052765
 20
10.7412916442
 30
0.0
 10
9.7338480132
 20
10.7433952512
 30
0.0
 10
9.7471602162
 20
10.7455285683
 30
0.0
 10
9.7640645941
 20
10.7469146023
 30
0.0
 10
9.7776546932
 20
10.7466493659
 30
0.0
 10
9.784445104
 20
10.7461784493
 30
0.0
  0
SPLINE
  5
34B
100
AcDbEntity
  8
0
100
AcDbSpline
 62
7
  6
CONTINUOUS
 70
0
 71
3
 72
31
 73
27
 74
0
 42
0.0000001
 43
0.0000001
 44
0.0000000001
 40
0.0
 40
0.0
 40
0.0
 40
0.0
 40
0.0609679362
 40
0.1228386657
 40
0.1854374411
 40
0.2169548894
 40
0.2485767855
 40
0.312013943
 40
0.3755716763
 40
0.4073515479
 40
0.4391030448
 40
0.5024478436
 40
0.5655381509
 40
0.628328508
 40
0.6596169266
 40
0.690829359
 40
0.7219690949
 40
0.7530408397
 40
0.7840505101
 40
0.8150048912
 40
0.8459113465
 40
0.8767778279
 40
0.907612278
 40
0.9384219559
 40
0.9692168641
 40
1.0
 40
1.0
 40
1.0
 40
1.0
 10
9.7570501598
 20
10.746134345
 30
0.0
 10
9.7563895468
 20
10.7390938783
 30
0.0
 10
9.7557730328
 20
10.7248322754
 30
0.0
 10
9.7569256128
 20
10.7033249429
 30
0.0
 10
9.7595928448
 20
10.6854012318
 30
0.0
 10
9.7627328237
 20
10.6711550638
 30
0.0
 10
9.7665496788
 20
10.6569741364
 30
0.0
 10
9.7725490413
 20
10.6395537833
 30
0.0
 10
9.7801219073
 20
10.6227371989
 30
0.0
 10
9.7870906912
 20
10.6097427528
 30
0.0
 10
9.7946420867
 20
10.5971069859
 30
0.0
 10
9.8051521417
 20
10.5820318305
 30
0.0
 10
9.8193867647
 20
10.5652837629
 30
0.0
 10
9.8325206517
 20
10.5525943638
 30
0.0
 10
9.8437101309
 20
10.5433140466
 30
0.0
 10
9.8524177204
 20
10.5368142728
 30
0.0
 10
9.8614297927
 20
10.530789071
 30
0.0
 10
9.8707260766
 20
10.5252578552
 30
0.0
 10
9.8802846707
 20
10.520239296
 30
0.0
 10
9.8900823323
 20
10.5157507233
 30
0.0
 10
9.9000943177
 20
10.5118078988
 30
0.0
 10
9.9102945346
 20
10.5084249892
 30
0.0
 10
9.9206554636
 20
10.5056143994
 30
0.0
 10
9.9311487227
 20
10.5033862323
 30
0.0
 10
9.9417439008
 20
10.5017488417
 30
0.0
 10
9.9488566857
 20
10.5010546166
 30
0.0
 10
9.9524185257
 20
10.5008076022
 30
0.0
  0
SPLINE
  5
34C
100
AcDbEntity
  8
0
100
AcDbSpline
 62
7
  6
CONTINUOUS
 70
0
 71
3
 72
41
 73
37
 74
0
 42
0.0000001
 43
0.0000001
 44
0.0000000001
 40
0.0
 40
0.0
 40
0.0
 40
0.0
 40
0.0299389638
 40
0.044918725
 40
0.0599073257
 40
0.0899167412
 40
0.1199949456
 40
0.1350691073
 40
0.150167946
 40
0.180442844
 40
0.2108410996
 40
0.2413757554
 40
0.2720567917
 40
0.3028909468
 40
0.333881618
 40
0.3650288383
 40
0.3963293255
 40
0.4277765999
 40
0.4593611619
 40
0.4910707252
 40
0.5228904965
 40
0.5548034961
 40
0.5867909116
 40
0.6188324791
 40
0.6509068845
 40
0.6829921792
 40
0.7150662046
 40
0.7471070194
 40
0.7790933245
 40
0.8110048756
 40
0.8428228953
 40
0.8745304177
 40
0.9061127509
 40
0.9375574918
 40
0.9688555565
 40
1.0
 40
1.0
 40
1.0
 40
1.0
 10
9.931036626
 20
10.3906053859
 30
0.0
 10
9.9344859391
 20
10.3939371698
 30
0.0
 10
9.9394679937
 20
10.3991418872
 30
0.0
 10
9.9456864645
 20
10.4064527306
 30
0.0
 10
9.951621749
 20
10.4140102947
 30
0.0
 10
9.958490165
 20
10.4238975032
 30
0.0
 10
9.9645758525
 20
10.4343006104
 30
0.0
 10
9.9689589453
 20
10.4429014061
 30
0.0
 10
9.9730204163
 20
10.4516933601
 30
0.0
 10
9.9774710793
 20
10.4629990966
 30
0.0
 10
9.9817747049
 20
10.476975059
 30
0.0
 10
9.9850242654
 20
10.491299966
 30
0.0
 10
9.9872023238
 20
10.5058967314
 30
0.0
 10
9.988297491
 20
10.5206874828
 30
0.0
 10
9.9883040808
 20
10.5355931843
 30
0.0
 10
9.9872222391
 20
10.5505342712
 30
0.0
 10
9.9850579055
 20
10.5654310141
 30
0.0
 10
9.9818227825
 20
10.5802039552
 30
0.0
 10
9.9775342657
 20
10.5947743225
 30
0.0
 10
9.972215348
 20
10.6090644458
 30
0.0
 10
9.9658944946
 20
10.6229981646
 30
0.0
 10
9.9586054898
 20
10.6365012286
 30
0.0
 10
9.9503872566
 20
10.6495016881
 30
0.0
 10
9.9412836505
 20
10.6619302732
 30
0.0
 10
9.9313432263
 20
10.6737207579
 30
0.0
 10
9.920618982
 20
10.6848103094
 30
0.0
 10
9.9091680783
 20
10.6951398197
 30
0.0
 10
9.8970515372
 20
10.7046542174
 30
0.0
 10
9.8843339204
 20
10.7133027572
 30
0.0
 10
9.8710829876
 20
10.7210392937
 30
0.0
 10
9.8573693471
 20
10.7278225114
 30
0.0
 10
9.843266051
 20
10.7336161793
 30
0.0
 10
9.8288483456
 20
10.7383892632
 30
0.0
 10
9.8141927741
 20
10.7421162654
 30
0.0
 10
9.7993785569
 20
10.7447770156
 30
0.0
 10
9.7894219263
 20
10.7458333055
 30
0.0
 10
9.784445104
 20
10.7461784493
 30
0.0
  0
SPLINE
  5
34D
100
AcDbEntity
  8
0
100
AcDbSpline
 62
7
  6
CONTINUOUS
 70
0
 71
3
 72
61
 73
57
 74
0
 42
0.0000001
 43
0.0000001
 44
0.0000000001
 40
0.0
 40
0.0
 40
0.0
 40
0.0
 40
0.0075207904
 40
0.0156241007
 40
0.0243309689
 40
0.0336547603
 40
0.0436025954
 40
0.0541765643
 40
0.0653746271
 40
0.0771912105
 40
0.08961776
 40
0.1026431866
 40
0.1162541224
 40
0.1304351787
 40
0.1451692134
 40
0.1604374622
 40
0.1762196584
 40
0.1924942253
 40
0.2092383649
 40
0.2264281143
 40
0.2440384956
 40
0.2620435953
 40
0.2804165963
 40
0.2991298957
 40
0.3374628296
 40
0.3768090534
 40
0.4169262264
 40
0.4575657766
 40
0.4984749676
 40
0.5393989304
 40
0.5800826787
 40
0.6202731264
 40
0.6597211135
 40
0.6981834743
 40
0.7169715328
 40
0.7354257875
 40
0.7535184594
 40
0.7712225432
 40
0.7885119167
 40
0.8053613716
 40
0.8217466988
 40
0.8376448326
 40
0.8530338991
 40
0.8678933099
 40
0.8822039526
 40
0.8959482935
 40
0.9091105101
 40
0.9216767558
 40
0.9336353927
 40
0.9449772332
 40
0.9556959738
 40
0.9657887367
 40
0.9752565375
 40
0.9841051853
 40
0.9923468797
 40
1.0
 40
1.0
 40
1.0
 40
1.0
 10
12.8616419401
 20
8.9260376469
 30
0.0
 10
12.8599569252
 20
8.9281094647
 30
0.0
 10
12.8566369063
 20
8.9325622293
 30
0.0
 10
12.8519647948
 20
8.9398360775
 30
0.0
 10
12.8474260545
 20
8.9479358999
 30
0.0
 10
12.8430279313
 20
8.956848453
 30
0.0
 10
12.838777045
 20
8.9665598563
 30
0.0
 10
12.8346802238
 20
8.9770545374
 30
0.0
 10
12.8307441565
 20
8.9883155923
 30
0.0
 10
12.82697532
 20
9.0003246963
 30
0.0
 10
12.8233799576
 20
9.0130622041
 30
0.0
 10
12.8199640928
 20
9.026507206
 30
0.0
 10
12.8167334403
 20
9.0406375535
 30
0.0
 10
12.813693393
 20
9.0554299109
 30
0.0
 10
12.8108490662
 20
9.070859822
 30
0.0
 10
12.8082052442
 20
9.0869017419
 30
0.0
 10
12.805766341
 20
9.1035290805
 30
0.0
 10
12.8035364587
 20
9.120714266
 30
0.0
 10
12.8015193587
 20
9.1384287883
 30
0.0
 10
12.7997184057
 20
9.1566432395
 30
0.0
 10
12.798136622
 20
9.1753273783
 30
0.0
 10
12.7967766915
 20
9.1944501703
 30
0.0
 10
12.7956408545
 20
9.2139798768
 30
0.0
 10
12.7944180879
 20
9.2407328082
 30
0.0
 10
12.7934744362
 20
9.274950788
 30
0.0
 10
12.7932642924
 20
9.3167813162
 30
0.0
 10
12.7939695457
 20
9.3594255454
 30
0.0
 10
12.7955856755
 20
9.4026001956
 30
0.0
 10
12.7981020987
 20
9.446018652
 30
0.0
 10
12.8015021798
 20
9.4893925989
 30
0.0
 10
12.8057632792
 20
9.5324340248
 30
0.0
 10
12.8108569714
 20
9.5748572132
 30
0.0
 10
12.8167492718
 20
9.6163803699
 30
0.0
 10
12.8223346586
 20
9.6502626807
 30
0.0
 10
12.8271828473
 20
9.6767040917
 30
0.0
 10
12.8309643259
 20
9.6959859818
 30
0.0
 10
12.8349130861
 20
9.7148412335
 30
0.0
 10
12.8390225871
 20
9.7332385497
 30
0.0
 10
12.8432859476
 20
9.7511473786
 30
0.0
 10
12.8476960608
 20
9.7685379876
 30
0.0
 10
12.8522455885
 20
9.7853815071
 30
0.0
 10
12.8569269199
 20
9.8016499999
 30
0.0
 10
12.8617322389
 20
9.8173164923
 30
0.0
 10
12.8666535493
 20
9.832355016
 30
0.0
 10
12.8716826249
 20
9.8467406802
 30
0.0
 10
12.8768110652
 20
9.8604497038
 30
0.0
 10
12.8820303441
 20
9.8734594443
 30
0.0
 10
12.887331768
 20
9.8857484729
 30
0.0
 10
12.8927065114
 20
9.8972966146
 30
0.0
 10
12.8981456981
 20
9.9080849647
 30
0.0
 10
12.9036403812
 20
9.9180959647
 30
0.0
 10
12.9091816057
 20
9.9273134572
 30
0.0
 10
12.9147604205
 20
9.9357226094
 30
0.0
 10
12.920368308
 20
9.9433103654
 30
0.0
 10
12.9259962405
 20
9.9500641097
 30
0.0
 10
12.929897183
 20
9.9541513639
 30
0.0
 10
12.931851767
 20
9.9560393473
 30
0.0
  0
SPLINE
  5
34E
100
AcDbEntity
  8
0
100
AcDbSpline
 62
7
  6
CONTINUOUS
 70
0
 71
3
 72
55
 73
51
 74
0
 42
0.0000001
 43
0.0000001
 44
0.0000000001
 40
0.0
 40
0.0
 40
0.0
 40
0.0
 40
0.0075208779
 40
0.0156242627
 40
0.0243312555
 40
0.0336551233
 40
0.0436030591
 40
0.0541771463
 40
0.0653752896
 40
0.07719199
 40
0.0896186372
 40
0.1026441739
 40
0.1162552111
 40
0.1304363626
 40
0.1451705228
 40
0.1604388534
 40
0.1762211627
 40
0.1924958409
 40
0.2264289939
 40
0.2620438627
 40
0.29912964
 40
0.3374627617
 40
0.3768091792
 40
0.4169265335
 40
0.4575662562
 40
0.4984756157
 40
0.5393997412
 40
0.5800836423
 40
0.6202742353
 40
0.6597223685
 40
0.6981848647
 40
0.7354266023
 40
0.7712226774
 40
0.8053606869
 40
0.8217460903
 40
0.8376442647
 40
0.8530333782
 40
0.8678928482
 40
0.8822035297
 40
0.8959479262
 40
0.9091101711
 40
0.9216764757
 40
0.9336351494
 40
0.9449770057
 40
0.955695826
 40
0.9657886149
 40
0.9752563841
 40
0.984105112
 40
0.9923469969
 40
1.0
 40
1.0
 40
1.0
 40
1.0
 10
12.8951061765
 20
6.8167008517
 30
0.0
 10
12.8942242988
 20
6.8177851777
 30
0.0
 10
12.8924867389
 20
6.8201156285
 30
0.0
 10
12.8900415097
 20
6.8239225275
 30
0.0
 10
12.8876661336
 20
6.8281617367
 30
0.0
 10
12.8853643026
 20
6.8328262747
 30
0.0
 10
12.8831395539
 20
6.8379089109
 30
0.0
 10
12.8809954465
 20
6.8434014871
 30
0.0
 10
12.8789354425
 20
6.8492951461
 30
0.0
 10
12.876962992
 20
6.855580311
 30
0.0
 10
12.8750813104
 20
6.8622466932
 30
0.0
 10
12.873293584
 20
6.8692833509
 30
0.0
 10
12.8716027861
 20
6.8766786899
 30
0.0
 10
12.8700117366
 20
6.8844205006
 30
0.0
 10
12.8685231421
 20
6.8924959836
 30
0.0
 10
12.86713946
 20
6.9008917633
 30
0.0
 10
12.8658630228
 20
6.9095939411
 30
0.0
 10
12.8642850442
 20
6.9217559573
 30
0.0
 10
12.8626087657
 20
6.9376193798
 30
0.0
 10
12.861080073
 20
6.9573792386
 30
0.0
 10
12.8600180308
 20
6.9779883421
 30
0.0
 10
12.8594299535
 20
6.9993099143
 30
0.0
 10
12.8593200177
 20
7.0212025708
 30
0.0
 10
12.8596891289
 20
7.0435210043
 30
0.0
 10
12.8605349642
 20
7.0661170568
 30
0.0
 10
12.8618519821
 20
7.0888406984
 30
0.0
 10
12.8636314681
 20
7.111541042
 30
0.0
 10
12.865861586
 20
7.1340673572
 30
0.0
 10
12.8685274564
 20
7.1562700848
 30
0.0
 10
12.8716112607
 20
7.1780018496
 30
0.0
 10
12.8750923591
 20
7.1991184318
 30
0.0
 10
12.8789474047
 20
7.2194798296
 30
0.0
 10
12.8831505589
 20
7.2389509346
 30
0.0
 10
12.8869699945
 20
7.2545336931
 30
0.0
 10
12.8901887564
 20
7.2664507834
 30
0.0
 10
12.8926388255
 20
7.2749651193
 30
0.0
 10
12.8951537514
 20
7.2831643819
 30
0.0
 10
12.8977293824
 20
7.2910349938
 30
0.0
 10
12.9003614266
 20
7.2985639203
 30
0.0
 10
12.9030454569
 20
7.3057387196
 30
0.0
 10
12.9057770499
 20
7.3125475367
 30
0.0
 10
12.9085516138
 20
7.3189791654
 30
0.0
 10
12.9113645601
 20
7.325023036
 30
0.0
 10
12.9142112439
 20
7.3306692591
 30
0.0
 10
12.9170869428
 20
7.3359086613
 30
0.0
 10
12.9199870382
 20
7.3407327395
 30
0.0
 10
12.9229067677
 20
7.3451337871
 30
0.0
 10
12.9258417435
 20
7.3491049662
 30
0.0
 10
12.9287872304
 20
7.3526396163
 30
0.0
 10
12.9308288286
 20
7.3547787511
 30
0.0
 10
12.931851767
 20
7.3557668338
 30
0.0
  0
SPLINE
  5
34F
100
AcDbEntity
  8
0
100
AcDbSpline
 62
7
  6
CONTINUOUS
 70
0
 71
3
 72
18
 73
14
 74
0
 42
0.0000001
 43
0.0000001
 44
0.0000000001
 40
0.0
 40
0.0
 40
0.0
 40
0.0
 40
0.1355198536
 40
0.2653564495
 40
0.3906151594
 40
0.5126108436
 40
0.5728748175
 40
0.6329010077
 40
0.6928980609
 40
0.7530834492
 40
0.8136750698
 40
0.8748888577
 40
1.0
 40
1.0
 40
1.0
 40
1.0
 10
10.634862059
 20
7.0625818027
 30
0.0
 10
10.6364813546
 20
7.0639834005
 30
0.0
 10
10.6395394327
 20
7.0668623177
 30
0.0
 10
10.6436240164
 20
7.0715033904
 30
0.0
 10
10.6470917008
 20
7.0763631304
 30
0.0
 10
10.6494713797
 20
7.08061317
 30
0.0
 10
10.6510482568
 20
7.0841042193
 30
0.0
 10
10.6520695381
 20
7.0867657673
 30
0.0
 10
10.6529335091
 20
7.0894810925
 30
0.0
 10
10.6536400581
 20
7.0922507657
 30
0.0
 10
10.6541890482
 20
7.0950756188
 30
0.0
 10
10.6547146993
 20
7.0989436206
 30
0.0
 10
10.6548650512
 20
7.1018918662
 30
0.0
 10
10.6548648482
 20
7.1038690099
 30
0.0
  0
SPLINE
  5
350
100
AcDbEntity
  8
0
100
AcDbSpline
 62
7
  6
CONTINUOUS
 70
0
 71
3
 72
23
 73
19
 74
0
 42
0.0000001
 43
0.0000001
 44
0.0000000001
 40
0.0
 40
0.0
 40
0.0
 40
0.0
 40
0.0638614315
 40
0.1275032443
 40
0.1909230334
 40
0.2541276741
 40
0.3171224002
 40
0.379915926
 40
0.4425188184
 40
0.5049436646
 40
0.5672049931
 40
0.6293190762
 40
0.6913037914
 40
0.7531784355
 40
0.8149635211
 40
0.876680553
 40
0.9383517903
 40
1.0
 40
1.0
 40
1.0
 40
1.0
 10
10.391513426
 20
6.6854460756
 30
0.0
 10
10.3988174889
 20
6.6849395371
 30
0.0
 10
10.4134283904
 20
6.6842915996
 30
0.0
 10
10.4353258523
 20
6.6844220743
 30
0.0
 10
10.4571141252
 20
6.6856564372
 30
0.0
 10
10.4787373885
 20
6.687991418
 30
0.0
 10
10.5001416171
 20
6.6914213725
 30
0.0
 10
10.5212727762
 20
6.6959376723
 30
0.0
 10
10.5420776922
 20
6.7015290002
 30
0.0
 10
10.562503961
 20
6.7081813216
 30
0.0
 10
10.5825001295
 20
6.7158779314
 30
0.0
 10
10.6020158148
 20
6.7245995065
 30
0.0
 10
10.621001828
 20
6.7343241333
 30
0.0
 10
10.639410344
 20
6.7450273382
 30
0.0
 10
10.6571949349
 20
6.756682136
 30
0.0
 10
10.6743109311
 20
6.7692593396
 30
0.0
 10
10.6907146204
 20
6.7827267139
 30
0.0
 10
10.7011500312
 20
6.7922778206
 30
0.0
 10
10.706233635
 20
6.7971881843
 30
0.0
  0
SPLINE
  5
351
100
AcDbEntity
  8
0
100
AcDbSpline
 62
7
  6
CONTINUOUS
 70
0
 71
3
 72
64
 73
60
 74
0
 42
0.0000001
 43
0.0000001
 44
0.0000000001
 40
0.0
 40
0.0
 40
0.0
 40
0.0
 40
0.0082489002
 40
0.0160245789
 40
0.0233634177
 40
0.0303107653
 40
0.0369218447
 40
0.0401226201
 40
0.0432647895
 40
0.0463580889
 40
0.0494127661
 40
0.0524395148
 40
0.0554493543
 40
0.0584535051
 40
0.061463261
 40
0.0644898433
 40
0.0675442735
 40
0.070637248
 40
0.0737790184
 40
0.0802448985
 40
0.0870153095
 40
0.0941506924
 40
0.1017012425
 40
0.1097077351
 40
0.11820258
 40
0.127210955
 40
0.1367519858
 40
0.1468396186
 40
0.157483474
 40
0.1686895566
 40
0.1804607007
 40
0.1927971146
 40
0.2056967011
 40
0.2191553043
 40
0.2331670462
 40
0.2477244302
 40
0.2628185367
 40
0.2784392058
 40
0.2945750541
 40
0.3112136623
 40
0.3283416349
 40
0.3459446259
 40
0.3640074928
 40
0.3825142826
 40
0.4014483037
 40
0.4207922194
 40
0.4606364401
 40
0.5018968388
 40
0.5444143008
 40
0.5880226233
 40
0.6325496135
 40
0.6778181242
 40
0.7236470562
 40
0.7698523647
 40
0.8162480403
 40
0.8626470781
 40
0.9088625236
 40
0.954707991
 40
1.0
 40
1.0
 40
1.0
 40
1.0
 10
9.3416767786
 20
11.4452903671
 30
0.0
 10
9.3392711255
 20
11.4475290897
 30
0.0
 10
9.3347296188
 20
11.4520235284
 30
0.0
 10
9.3285915895
 20
11.4590315595
 30
0.0
 10
9.3233429015
 20
11.4660946168
 30
0.0
 10
9.318991148
 20
11.4732057638
 30
0.0
 10
9.3160866748
 20
11.479232555
 30
0.0
 10
9.3142395242
 20
11.4840537962
 30
0.0
 10
9.3130962943
 20
11.4876372315
 30
0.0
 10
9.3121809773
 20
11.4912255321
 30
0.0
 10
9.3114939536
 20
11.494817753
 30
0.0
 10
9.3110355002
 20
11.4984127774
 30
0.0
 10
9.3108057677
 20
11.5020095002
 30
0.0
 10
9.3108049188
 20
11.5056067978
 30
0.0
 10
9.3110329531
 20
11.5092035278
 30
0.0
 10
9.3114897139
 20
11.5127985741
 30
0.0
 10
9.3121750297
 20
11.5163908
 30
0.0
 10
9.3130887039
 20
11.5199792093
 30
0.0
 10
9.3146250915
 20
11.5248025743
 30
0.0
 10
9.3171408679
 20
11.5308384925
 30
0.0
 10
9.3210382819
 20
11.5379719212
 30
0.0
 10
9.3258361515
 20
11.545060197
 30
0.0
 10
9.3315271428
 20
11.5520966708
 30
0.0
 10
9.3381042433
 20
11.5590757498
 30
0.0
 10
9.345560033
 20
11.5659913833
 30
0.0
 10
9.3538865065
 20
11.5728374299
 30
0.0
 10
9.3630750036
 20
11.5796073711
 30
0.0
 10
9.373115949
 20
11.5862946037
 30
0.0
 10
9.3839988775
 20
11.5928923976
 30
0.0
 10
9.3957124243
 20
11.5993938958
 30
0.0
 10
9.4082442358
 20
11.6057923449
 30
0.0
 10
9.4215810698
 20
11.6120809489
 30
0.0
 10
9.4357087676
 20
11.6182529788
 30
0.0
 10
9.4506122574
 20
11.6243018626
 30
0.0
 10
9.4662756252
 20
11.6302210444
 30
0.0
 10
9.4826820887
 20
11.636004153
 30
0.0
 10
9.4998140411
 20
11.6416449571
 30
0.0
 10
9.5176530854
 20
11.6471373078
 30
0.0
 10
9.5361800262
 20
11.6524752961
 30
0.0
 10
9.555374922
 20
11.6576531265
 30
0.0
 10
9.5752170996
 20
11.6626651648
 30
0.0
 10
9.5956851675
 20
11.667506016
 30
0.0
 10
9.6167570616
 20
11.6721704021
 30
0.0
 10
9.6384100458
 20
11.6766532635
 30
0.0
 10
9.6606207815
 20
11.6809497985
 30
0.0
 10
9.6912487613
 20
11.6864781544
 30
0.0
 10
9.7307553474
 20
11.692871401
 30
0.0
 10
9.7795376344
 20
11.6996580635
 30
0.0
 10
9.8299397141
 20
11.7056032728
 30
0.0
 10
9.8817439897
 20
11.7106811158
 30
0.0
 10
9.9347270328
 20
11.7148694111
 30
0.0
 10
9.9886601816
 20
11.7181498773
 30
0.0
 10
10.0433106489
 20
11.7205082133
 30
0.0
 10
10.0984425116
 20
11.7219341417
 30
0.0
 10
10.1538177565
 20
11.7224214425
 30
0.0
 10
10.209197313
 20
11.7219679855
 30
0.0
 10
10.2643420451
 20
11.7205757414
 30
0.0
 10
10.3190137966
 20
11.7182508249
 30
0.0
 10
10.3552577915
 20
11.7160696506
 30
0.0
 10
10.3732579518
 20
11.7148213352
 30
0.0
  0
SPLINE
  5
352
100
AcDbEntity
  8
0
100
AcDbSpline
 62
7
  6
CONTINUOUS
 70
0
 71
3
 72
61
 73
57
 74
0
 42
0.0000001
 43
0.0000001
 44
0.0000000001
 40
0.0
 40
0.0
 40
0.0
 40
0.0
 40
0.006544941
 40
0.0128139647
 40
0.018868361
 40
0.0218375577
 40
0.0247794418
 40
0.0277034834
 40
0.0306193433
 40
0.0335367752
 40
0.0364655121
 40
0.039415167
 40
0.0423951333
 40
0.0484796061
 40
0.0547891291
 40
0.0613836364
 40
0.0648050198
 40
0.0683162545
 40
0.0756270775
 40
0.0833531906
 40
0.0915232266
 40
0.1001598143
 40
0.1092805054
 40
0.118898414
 40
0.1290230284
 40
0.1396606053
 40
0.1508147452
 40
0.1624867052
 40
0.1746756922
 40
0.1873791976
 40
0.2005930659
 40
0.2143118298
 40
0.2285286977
 40
0.2432357891
 40
0.258424183
 40
0.2740839878
 40
0.290204498
 40
0.3067741312
 40
0.3237806327
 40
0.341210993
 40
0.3590515893
 40
0.3959052998
 40
0.4342219918
 40
0.4738731532
 40
0.5147232858
 40
0.5566308185
 40
0.5994489593
 40
0.6430265094
 40
0.6872086513
 40
0.7318377189
 40
0.7767539573
 40
0.8217962849
 40
0.8668030057
 40
0.911612725
 40
0.9560645017
 40
1.0
 40
1.0
 40
1.0
 40
1.0
 10
9.3729277498
 20
11.4215818915
 30
0.0
 10
9.371713858
 20
11.4236247777
 30
0.0
 10
9.3695124521
 20
11.4277328703
 30
0.0
 10
9.3668887984
 20
11.434073652
 30
0.0
 10
9.3653273808
 20
11.4394153035
 30
0.0
 10
9.364472699
 20
11.4436769085
 30
0.0
 10
9.3640262249
 20
11.446855468
 30
0.0
 10
9.3637705784
 20
11.4500355556
 30
0.0
 10
9.3637058563
 20
11.4532164036
 30
0.0
 10
9.3638320707
 20
11.456397107
 30
0.0
 10
9.3641491201
 20
11.459576774
 30
0.0
 10
9.3646569774
 20
11.4627546323
 30
0.0
 10
9.3655944499
 20
11.4670168587
 30
0.0
 10
9.3672597392
 20
11.4723577382
 30
0.0
 10
9.3700058908
 20
11.4786940503
 30
0.0
 10
9.372889123
 20
11.4838836429
 30
0.0
 10
9.3755534273
 20
11.4880109764
 30
0.0
 10
9.3785405535
 20
11.4922342311
 30
0.0
 10
9.382762304
 20
11.4974903402
 30
0.0
 10
9.3885019541
 20
11.5036675626
 30
0.0
 10
9.3949762601
 20
11.5097931097
 30
0.0
 10
9.4021787261
 20
11.5158617211
 30
0.0
 10
9.4101027361
 20
11.5218682805
 30
0.0
 10
9.418740841
 20
11.527807599
 30
0.0
 10
9.4280850619
 20
11.5336742551
 30
0.0
 10
9.4381266368
 20
11.5394629368
 30
0.0
 10
9.4488561666
 20
11.5451682226
 30
0.0
 10
9.4602635439
 20
11.5507847409
 30
0.0
 10
9.4723379705
 20
11.5563072087
 30
0.0
 10
9.4850680107
 20
11.5617302944
 30
0.0
 10
9.4984415349
 20
11.5670488873
 30
0.0
 10
9.512445811
 20
11.5722578109
 30
0.0
 10
9.5270674541
 20
11.5773521107
 30
0.0
 10
9.5422924866
 20
11.5823268586
 30
0.0
 10
9.5581063334
 20
11.587177253
 30
0.0
 10
9.574493838
 20
11.5918986542
 30
0.0
 10
9.5914392927
 20
11.5964864508
 30
0.0
 10
9.608926435
 20
11.6009362833
 30
0.0
 10
9.6269384788
 20
11.6052437906
 30
0.0
 10
9.6454581466
 20
11.6094048929
 30
0.0
 10
9.6710815998
 20
11.6148108188
 30
0.0
 10
9.7042540508
 20
11.6211559681
 30
0.0
 10
9.7453731917
 20
11.6280463429
 30
0.0
 10
9.7880658313
 20
11.6342659513
 30
0.0
 10
9.8321678914
 20
11.6397906608
 30
0.0
 10
9.8775100775
 20
11.6445989947
 30
0.0
 10
9.9239181869
 20
11.6486722844
 30
0.0
 10
9.9712138953
 20
11.6519947173
 30
0.0
 10
10.0192154258
 20
11.6545534007
 30
0.0
 10
10.0677382639
 20
11.6563384063
 30
0.0
 10
10.1165958731
 20
11.657342814
 30
0.0
 10
10.1656004148
 20
11.6575627276
 30
0.0
 10
10.2145635046
 20
11.6569973035
 30
0.0
 10
10.2632968551
 20
11.6556487154
 30
0.0
 10
10.311613054
 20
11.6535222313
 30
0.0
 10
10.3436473807
 20
11.6515777672
 30
0.0
 10
10.3595611729
 20
11.650474142
 30
0.0
  0
SPLINE
  5
353
100
AcDbEntity
  8
0
100
AcDbSpline
 62
7
  6
CONTINUOUS
 70
0
 71
3
 72
41
 73
37
 74
0
 42
0.0000001
 43
0.0000001
 44
0.0000000001
 40
0.0
 40
0.0
 40
0.0
 40
0.0
 40
0.0311444435
 40
0.0624425082
 40
0.0938872491
 40
0.1254695823
 40
0.1571771047
 40
0.1889951244
 40
0.2209066755
 40
0.2528929806
 40
0.2849337954
 40
0.3170078208
 40
0.3490931155
 40
0.3811675209
 40
0.4132090884
 40
0.4451965039
 40
0.4771095035
 40
0.5089292748
 40
0.5406388381
 40
0.5722234001
 40
0.6036706745
 40
0.6349711617
 40
0.666118382
 40
0.6971090532
 40
0.7279432083
 40
0.7586242446
 40
0.7891589004
 40
0.819557156
 40
0.849832054
 40
0.8649308927
 40
0.8800050544
 40
0.9100832588
 40
0.9400926743
 40
0.955081275
 40
0.9700610362
 40
1.0
 40
1.0
 40
1.0
 40
1.0
 10
9.784445104
 20
10.3385577265
 30
0.0
 10
9.7794682818
 20
10.3389028702
 30
0.0
 10
9.7695116512
 20
10.3399591601
 30
0.0
 10
9.7546974339
 20
10.3426199104
 30
0.0
 10
9.7400418624
 20
10.3463469126
 30
0.0
 10
9.7256241571
 20
10.3511199964
 30
0.0
 10
9.711520861
 20
10.3569136644
 30
0.0
 10
9.6978072205
 20
10.3636968821
 30
0.0
 10
9.6845562876
 20
10.3714334186
 30
0.0
 10
9.6718386708
 20
10.3800819584
 30
0.0
 10
9.6597221298
 20
10.3895963561
 30
0.0
 10
9.6482712261
 20
10.3999258663
 30
0.0
 10
9.6375469818
 20
10.4110154179
 30
0.0
 10
9.6276065576
 20
10.4228059025
 30
0.0
 10
9.6185029514
 20
10.4352344876
 30
0.0
 10
9.6102847183
 20
10.4482349472
 30
0.0
 10
9.6029957134
 20
10.4617380111
 30
0.0
 10
9.5966748601
 20
10.4756717299
 30
0.0
 10
9.5913559424
 20
10.4899618533
 30
0.0
 10
9.5870674256
 20
10.5045322206
 30
0.0
 10
9.5838323025
 20
10.5193051616
 30
0.0
 10
9.581667969
 20
10.5342019046
 30
0.0
 10
9.5805861273
 20
10.5491429915
 30
0.0
 10
9.5805927171
 20
10.5640486929
 30
0.0
 10
9.5816878842
 20
10.5788394443
 30
0.0
 10
9.5838659427
 20
10.5934362098
 30
0.0
 10
9.5871155032
 20
10.6077611167
 30
0.0
 10
9.5914191288
 20
10.6217370792
 30
0.0
 10
9.5958697918
 20
10.6330428157
 30
0.0
 10
9.5999312628
 20
10.6418347697
 30
0.0
 10
9.6043143556
 20
10.6504355653
 30
0.0
 10
9.6104000431
 20
10.6608386726
 30
0.0
 10
9.6172684591
 20
10.6707258811
 30
0.0
 10
9.6232037436
 20
10.6782834451
 30
0.0
 10
9.6294222144
 20
10.6855942885
 30
0.0
 10
9.634404269
 20
10.6907990059
 30
0.0
 10
9.637853582
 20
10.6941307898
 30
0.0
  0
SPLINE
  5
354
100
AcDbEntity
  8
0
100
AcDbSpline
 62
7
  6
CONTINUOUS
 70
0
 71
3
 72
48
 73
44
 74
0
 42
0.0000001
 43
0.0000001
 44
0.0000000001
 40
0.0
 40
0.0
 40
0.0
 40
0.0
 40
0.006481188
 40
0.0129999638
 40
0.0195932007
 40
0.0262964454
 40
0.0331433209
 40
0.0401651732
 40
0.0548393394
 40
0.0625481032
 40
0.0705309081
 40
0.0788060032
 40
0.0873893816
 40
0.0962947948
 40
0.1055341057
 40
0.1151174203
 40
0.1250531725
 40
0.1353484729
 40
0.1460090706
 40
0.1570395616
 40
0.1684435852
 40
0.180223726
 40
0.1923818097
 40
0.2178339163
 40
0.2448017111
 40
0.2732760037
 40
0.3032396889
 40
0.3346688569
 40
0.3675336267
 40
0.4017988305
 40
0.4374246424
 40
0.4743670507
 40
0.5125782209
 40
0.552006815
 40
0.5925983444
 40
0.6342954336
 40
0.6770380347
 40
0.7207636374
 40
0.7654074614
 40
0.8109027832
 40
0.8571810215
 40
0.9041712395
 40
1.0
 40
1.0
 40
1.0
 40
1.0
 10
10.9368148465
 20
11.431530976
 30
0.0
 10
10.9368148531
 20
11.4329118327
 30
0.0
 10
10.9367050542
 20
11.435682791
 30
0.0
 10
10.9362115929
 20
11.4398320407
 30
0.0
 10
10.9353896667
 20
11.4439772728
 30
0.0
 10
10.9342398175
 20
11.4481160352
 30
0.0
 10
10.9327628714
 20
11.4522467034
 30
0.0
 10
10.9303236162
 20
11.4578215565
 30
0.0
 10
10.9272448436
 20
11.4632995755
 30
0.0
 10
10.923605837
 20
11.4686511349
 30
0.0
 10
10.9205099892
 20
11.4727151075
 30
0.0
 10
10.9170944784
 20
11.4767606864
 30
0.0
 10
10.9133604945
 20
11.4807866876
 30
0.0
 10
10.9093097624
 20
11.4847915107
 30
0.0
 10
10.9049439363
 20
11.4887736119
 30
0.0
 10
10.9002648183
 20
11.4927313923
 30
0.0
 10
10.8952743872
 20
11.4966633501
 30
0.0
 10
10.8899746565
 20
11.500567848
 30
0.0
 10
10.8843678332
 20
11.5044433403
 30
0.0
 10
10.8784562372
 20
11.5082882769
 30
0.0
 10
10.8722422786
 20
11.5121010162
 30
0.0
 10
10.8657285482
 20
11.5158800969
 30
0.0
 10
10.8565062288
 20
11.520949316
 30
0.0
 10
10.8442329865
 20
11.5271773391
 30
0.0
 10
10.8285720925
 20
11.534381914
 30
0.0
 10
10.8117866685
 20
11.5414154533
 30
0.0
 10
10.7939045626
 20
11.5482662291
 30
0.0
 10
10.7749551751
 20
11.5549228175
 30
0.0
 10
10.7549698905
 20
11.5613740642
 30
0.0
 10
10.7339818725
 20
11.5676091597
 30
0.0
 10
10.7120260151
 20
11.5736176288
 30
0.0
 10
10.6891388613
 20
11.5793893638
 30
0.0
 10
10.6653585511
 20
11.5849146524
 30
0.0
 10
10.6407247544
 20
11.5901842149
 30
0.0
 10
10.6152785855
 20
11.5951891893
 30
0.0
 10
10.5890625267
 20
11.5999211537
 30
0.0
 10
10.5621203626
 20
11.6043721451
 30
0.0
 10
10.53449712
 20
11.6085346896
 30
0.0
 10
10.5062389544
 20
11.612401799
 30
0.0
 10
10.4773931005
 20
11.6159669599
 30
0.0
 10
10.4480077972
 20
11.619224192
 30
0.0
 10
10.4079129625
 20
11.6231748883
 30
0.0
 10
10.3775791592
 20
11.625618302
 30
0.0
 10
10.3572111782
 20
11.6270308263
 30
0.0
  0
SPLINE
  5
355
100
AcDbEntity
  8
0
100
AcDbSpline
 62
7
  6
CONTINUOUS
 70
0
 71
3
 72
21
 73
17
 74
0
 42
0.0000001
 43
0.0000001
 44
0.0000000001
 40
0.0
 40
0.0
 40
0.0
 40
0.0
 40
0.1274739131
 40
0.2540666958
 40
0.3170668635
 40
0.379865455
 40
0.4424734093
 40
0.5049033614
 40
0.567169762
 40
0.6292888928
 40
0.6912786538
 40
0.7531583441
 40
0.8149484578
 40
0.8766705133
 40
0.9383467759
 40
1.0
 40
1.0
 40
1.0
 40
1.0
 10
9.784445104
 20
10.3385577265
 30
0.0
 10
9.7912355149
 20
10.3380868099
 30
0.0
 10
9.804825614
 20
10.3378215734
 30
0.0
 10
9.8217299919
 20
10.3392076075
 30
0.0
 10
9.8350421949
 20
10.3413409246
 30
0.0
 10
9.8448849316
 20
10.3434445315
 30
0.0
 10
9.8545754646
 20
10.3460489081
 30
0.0
 10
9.8640897036
 20
10.3491474324
 30
0.0
 10
9.8734035934
 20
10.3527323804
 30
0.0
 10
9.8824936654
 20
10.3567947816
 30
0.0
 10
9.8913370518
 20
10.3613243281
 30
0.0
 10
9.8999114448
 20
10.3663096963
 30
0.0
 10
9.9081951992
 20
10.3717383366
 30
0.0
 10
9.9161675642
 20
10.3775965733
 30
0.0
 10
9.9238081267
 20
10.3838694657
 30
0.0
 10
9.9286687726
 20
10.3883182128
 30
0.0
 10
9.931036626
 20
10.3906053859
 30
0.0
  0
SPLINE
  5
356
100
AcDbEntity
  8
0
100
AcDbSpline
 62
7
  6
CONTINUOUS
 70
0
 71
3
 72
15
 73
11
 74
0
 42
0.0000001
 43
0.0000001
 44
0.0000000001
 40
0.0
 40
0.0
 40
0.0
 40
0.0
 40
0.1453704723
 40
0.2840482116
 40
0.4163642545
 40
0.5427313609
 40
0.663651093
 40
0.7797073106
 40
0.8915710365
 40
1.0
 40
1.0
 40
1.0
 40
1.0
 10
12.8526458446
 20
9.0071975237
 30
0.0
 10
12.8516834781
 20
9.006267949
 30
0.0
 10
12.8497595111
 20
9.0044958313
 30
0.0
 10
12.8468047491
 20
9.0020524013
 30
0.0
 10
12.8438525158
 20
8.9998896426
 30
0.0
 10
12.8409046022
 20
8.998009302
 30
0.0
 10
12.8379626598
 20
8.9964127074
 30
0.0
 10
12.8350281181
 20
8.9951012736
 30
0.0
 10
12.8321031047
 20
8.9940762747
 30
0.0
 10
12.8301341476
 20
8.9935781368
 30
0.0
 10
12.829156054
 20
8.9933798423
 30
0.0
  0
SPLINE
  5
357
100
AcDbEntity
  8
0
100
AcDbSpline
 62
7
  6
CONTINUOUS
 70
0
 71
3
 72
65
 73
61
 74
0
 42
0.0000001
 43
0.0000001
 44
0.0000000001
 40
0.0
 40
0.0
 40
0.0
 40
0.0
 40
0.0080089104
 40
0.0166792426
 40
0.0260321138
 40
0.0360807834
 40
0.0468306446
 40
0.0582812416
 40
0.0704273881
 40
0.0832597929
 40
0.0967656891
 40
0.1109293719
 40
0.1257325263
 40
0.1411544649
 40
0.1571724492
 40
0.1737618881
 40
0.1908964416
 40
0.2085482244
 40
0.2266879658
 40
0.2452850774
 40
0.2643077785
 40
0.2837232452
 40
0.323595602
 40
0.3646226545
 40
0.4065131153
 40
0.44896767
 40
0.4916818076
 40
0.5343486544
 40
0.5766617686
 40
0.6183179416
 40
0.6590200112
 40
0.6789231607
 40
0.6984805721
 40
0.7176580871
 40
0.7364225034
 40
0.7547416277
 40
0.7725843902
 40
0.7899210091
 40
0.8067230543
 40
0.8229635644
 40
0.8386172626
 40
0.8536606821
 40
0.8680723149
 40
0.8818328996
 40
0.8949256996
 40
0.9073367683
 40
0.919055409
 40
0.9300747764
 40
0.9403925009
 40
0.9500116313
 40
0.9589419749
 40
0.9631548033
 40
0.9672030935
 40
0.971090789
 40
0.9748227189
 40
0.9818409483
 40
0.9883187509
 40
0.9943359198
 40
0.9972051505
 40
1.0
 40
1.0
 40
1.0
 40
1.0
 10
12.8526458446
 20
9.0071975237
 30
0.0
 10
12.8544279564
 20
9.0089189117
 30
0.0
 10
12.8579834
 20
9.0126672439
 30
0.0
 10
12.8630977075
 20
9.0188953744
 30
0.0
 10
12.8681910512
 20
9.0259355171
 30
0.0
 10
12.873254034
 20
9.0337742715
 30
0.0
 10
12.878277739
 20
9.0423976681
 30
0.0
 10
12.8832528027
 20
9.0517897314
 30
0.0
 10
12.8881698647
 20
9.0619329968
 30
0.0
 10
12.8930195656
 20
9.0728084375
 30
0.0
 10
12.8977926582
 20
9.0843955174
 30
0.0
 10
12.9024799755
 20
9.0966722897
 30
0.0
 10
12.9070724894
 20
9.1096154343
 30
0.0
 10
12.9115613879
 20
9.1232002918
 30
0.0
 10
12.9159380289
 20
9.1374009518
 30
0.0
 10
12.9201939641
 20
9.1521903069
 30
0.0
 10
12.924321015
 20
9.1675400866
 30
0.0
 10
12.9283112446
 20
9.1834209308
 30
0.0
 10
12.9321569583
 20
9.1998024622
 30
0.0
 10
12.9358507477
 20
9.2166533185
 30
0.0
 10
12.9393855593
 20
9.2339412541
 30
0.0
 10
12.9439175542
 20
9.2577411798
 30
0.0
 10
12.9491236378
 20
9.2883395253
 30
0.0
 10
12.9545844481
 20
9.3259359936
 30
0.0
 10
12.9592704037
 20
9.3644417007
 30
0.0
 10
12.9631453946
 20
9.4035618012
 30
0.0
 10
12.9661796247
 20
9.4429969402
 30
0.0
 10
12.9683497907
 20
9.4824452275
 30
0.0
 10
12.9696393967
 20
9.5216047502
 30
0.0
 10
12.9700387024
 20
9.5601756006
 30
0.0
 10
12.9696244274
 20
9.591812929
 30
0.0
 10
12.9688355561
 20
9.6166008934
 30
0.0
 10
12.9680259406
 20
9.6347242433
 30
0.0
 10
12.9669956309
 20
9.6524835232
 30
0.0
 10
12.9657466189
 20
9.6698447475
 30
0.0
 10
12.9642813286
 20
9.6867746589
 30
0.0
 10
12.9626025824
 20
9.7032408421
 30
0.0
 10
12.9607136557
 20
9.7192117838
 30
0.0
 10
12.9586182134
 20
9.7346569285
 30
0.0
 10
12.9563202947
 20
9.7495467365
 30
0.0
 10
12.9538243679
 20
9.7638527588
 30
0.0
 10
12.9511352831
 20
9.7775476903
 30
0.0
 10
12.9482582303
 20
9.7906054155
 30
0.0
 10
12.9451987769
 20
9.8030010844
 30
0.0
 10
12.9419628573
 20
9.8147111771
 30
0.0
 10
12.938556696
 20
9.8257135353
 30
0.0
 10
12.9349867972
 20
9.8359874502
 30
0.0
 10
12.9312599798
 20
9.8455136953
 30
0.0
 10
12.9273831846
 20
9.8542747451
 30
0.0
 10
12.9233635636
 20
9.8622541908
 30
0.0
 10
12.9198351167
 20
9.8683543928
 30
0.0
 10
12.916937994
 20
9.8728157997
 30
0.0
 10
12.9147765301
 20
9.8758916744
 30
0.0
 10
12.9125850043
 20
9.87876141
 30
0.0
 10
12.9096835965
 20
9.8822396857
 30
0.0
 10
12.9059909237
 20
9.8860965126
 30
0.0
 10
12.9013541193
 20
9.889982858
 30
0.0
 10
12.8973353799
 20
9.8925530021
 30
0.0
 10
12.8940890116
 20
9.894147441
 30
0.0
 10
12.8924585482
 20
9.8947956215
 30
0.0
 10
12.8916425316
 20
9.8950814993
 30
0.0
  0
SPLINE
  5
358
100
AcDbEntity
  8
0
100
AcDbSpline
 62
7
  6
CONTINUOUS
 70
0
 71
3
 72
54
 73
50
 74
0
 42
0.0000001
 43
0.0000001
 44
0.0000000001
 40
0.0
 40
0.0
 40
0.0
 40
0.0
 40
0.0077567088
 40
0.0152627141
 40
0.0225552299
 40
0.0296753336
 40
0.0366674886
 40
0.0435789006
 40
0.0504586169
 40
0.0573564215
 40
0.0643216682
 40
0.0714021759
 40
0.0786432376
 40
0.0860868885
 40
0.1017221981
 40
0.1099877179
 40
0.1185854304
 40
0.1275382954
 40
0.1368659434
 40
0.1465849625
 40
0.1567093349
 40
0.1672505227
 40
0.178217977
 40
0.1896191649
 40
0.2014599175
 40
0.2137445968
 40
0.2264761544
 40
0.2396564756
 40
0.2532862427
 40
0.267365288
 40
0.2818925077
 40
0.296866005
 40
0.3122832199
 40
0.344433922
 40
0.3783125216
 40
0.4138771947
 40
0.4510787045
 40
0.489861253
 40
0.5301631964
 40
0.5719176441
 40
0.6150529654
 40
0.6594932273
 40
0.705158593
 40
0.7519656763
 40
0.7998278213
 40
0.8486556882
 40
0.8983566267
 40
0.9488375059
 40
1.0
 40
1.0
 40
1.0
 40
1.0
 10
10.9368391007
 20
11.4218135554
 30
0.0
 10
10.9377310585
 20
11.4233261697
 30
0.0
 10
10.9393889243
 20
11.4263614359
 30
0.0
 10
10.9415108753
 20
11.4310107882
 30
0.0
 10
10.9432223126
 20
11.4356738782
 30
0.0
 10
10.9445216608
 20
11.4403478661
 30
0.0
 10
10.9454076773
 20
11.4450300623
 30
0.0
 10
10.9458793256
 20
11.4497174677
 30
0.0
 10
10.9459361999
 20
11.4544069266
 30
0.0
 10
10.9455780662
 20
11.4590952064
 30
0.0
 10
10.9448054931
 20
11.4637791475
 30
0.0
 10
10.9436192514
 20
11.468455638
 30
0.0
 10
10.9420204511
 20
11.4731220851
 30
0.0
 10
10.9392968977
 20
11.4794287781
 30
0.0
 10
10.9357637014
 20
11.4856131583
 30
0.0
 10
10.9315325325
 20
11.4916351627
 30
0.0
 10
10.9278958857
 20
11.496214806
 30
0.0
 10
10.9238576682
 20
11.500770062
 30
0.0
 10
10.919419719
 20
11.5052994202
 30
0.0
 10
10.9145845097
 20
11.5098006229
 30
0.0
 10
10.9093544548
 20
11.514271484
 30
0.0
 10
10.9037323165
 20
11.518709914
 30
0.0
 10
10.8977209127
 20
11.5231136479
 30
0.0
 10
10.8913233526
 20
11.5274805465
 30
0.0
 10
10.8845428977
 20
11.5318084026
 30
0.0
 10
10.8773830086
 20
11.536094992
 30
0.0
 10
10.8698473857
 20
11.540338195
 30
0.0
 10
10.861939868
 20
11.5445357527
 30
0.0
 10
10.8536645582
 20
11.5486855865
 30
0.0
 10
10.8450257012
 20
11.5527854973
 30
0.0
 10
10.8360277706
 20
11.5568333797
 30
0.0
 10
10.8266754071
 20
11.5608271831
 30
0.0
 10
10.8135555412
 20
11.5661518119
 30
0.0
 10
10.7962935737
 20
11.5726426486
 30
0.0
 10
10.7745260447
 20
11.5800786459
 30
0.0
 10
10.7514701494
 20
11.587251111
 30
0.0
 10
10.7271736994
 20
11.5941450303
 30
0.0
 10
10.7016868766
 20
11.6007459705
 30
0.0
 10
10.6750625035
 20
11.6070401007
 30
0.0
 10
10.6473557985
 20
11.6130142291
 30
0.0
 10
10.6186242811
 20
11.6186558333
 30
0.0
 10
10.5889276334
 20
11.6239530894
 30
0.0
 10
10.5583275734
 20
11.6288948957
 30
0.0
 10
10.5268877326
 20
11.6334708953
 30
0.0
 10
10.4946734721
 20
11.6376715203
 30
0.0
 10
10.4617519035
 20
11.641487944
 30
0.0
 10
10.4281913023
 20
11.6449122424
 30
0.0
 10
10.3940618189
 20
11.6479371568
 30
0.0
 10
10.3711159279
 20
11.649672817
 30
0.0
 10
10.3595611729
 20
11.650474142
 30
0.0
  0
SPLINE
  5
359
100
AcDbEntity
  8
0
100
AcDbSpline
 62
7
  6
CONTINUOUS
 70
0
 71
3
 72
35
 73
31
 74
0
 42
0.0000001
 43
0.0000001
 44
0.0000000001
 40
0.0
 40
0.0
 40
0.0
 40
0.0
 40
0.0140014072
 40
0.0288185247
 40
0.0446324749
 40
0.0615958757
 40
0.0798334371
 40
0.0994435813
 40
0.1205006479
 40
0.1430567029
 40
0.1671426009
 40
0.1927689641
 40
0.2199268527
 40
0.2485882526
 40
0.278706616
 40
0.3102178007
 40
0.3430416917
 40
0.377084262
 40
0.412240165
 40
0.4483957729
 40
0.4854324794
 40
0.5232300596
 40
0.5616698865
 40
0.6006376957
 40
0.640025791
 40
0.6797346388
 40
0.7597538023
 40
0.8400944792
 40
0.9202920361
 40
1.0
 40
1.0
 40
1.0
 40
1.0
 10
10.6548648482
 20
7.1038690099
 30
0.0
 10
10.6548646087
 20
7.1062014494
 30
0.0
 10
10.6545747909
 20
7.1110054176
 30
0.0
 10
10.6533472285
 20
7.1183498291
 30
0.0
 10
10.6513285279
 20
7.1260270836
 30
0.0
 10
10.6485323859
 20
7.1340597799
 30
0.0
 10
10.6449753365
 20
7.1424749127
 30
0.0
 10
10.640677182
 20
7.1513003455
 30
0.0
 10
10.6356619277
 20
7.1605645965
 30
0.0
 10
10.6299587294
 20
7.1702958648
 30
0.0
 10
10.6236027816
 20
7.1805213641
 30
0.0
 10
10.6166357148
 20
7.1912663317
 30
0.0
 10
10.6091060561
 20
7.2025531935
 30
0.0
 10
10.6010694313
 20
7.2144006672
 30
0.0
 10
10.5925885108
 20
7.2268229038
 30
0.0
 10
10.5837325691
 20
7.239828728
 30
0.0
 10
10.5745766838
 20
7.2534210643
 30
0.0
 10
10.5652006563
 20
7.2675966369
 30
0.0
 10
10.5556876588
 20
7.2823459053
 30
0.0
 10
10.5461226948
 20
7.29765327
 30
0.0
 10
10.5365909809
 20
7.3134975332
 30
0.0
 10
10.527176321
 20
7.3298525353
 30
0.0
 10
10.5179596578
 20
7.3466879842
 30
0.0
 10
10.5090178922
 20
7.3639702064
 30
0.0
 10
10.500422846
 20
7.3816633494
 30
0.0
 10
10.4894861886
 20
7.4058113202
 30
0.0
 10
10.4770425458
 20
7.4367528317
 30
0.0
 10
10.4644366659
 20
7.4748218813
 30
0.0
 10
10.4544347919
 20
7.5136051888
 30
0.0
 10
10.4496365811
 20
7.5398363831
 30
0.0
 10
10.4477406154
 20
7.5529785632
 30
0.0
  0
SPLINE
  5
35A
100
AcDbEntity
  8
0
100
AcDbSpline
 62
7
  6
CONTINUOUS
 70
0
 71
3
 72
32
 73
28
 74
0
 42
0.0000001
 43
0.0000001
 44
0.0000000001
 40
0.0
 40
0.0
 40
0.0
 40
0.0
 40
0.0160030837
 40
0.0329908462
 40
0.0510044071
 40
0.0700742983
 40
0.0902217151
 40
0.1114604309
 40
0.1337975493
 40
0.1572347635
 40
0.1817689484
 40
0.2073927984
 40
0.2340954701
 40
0.2618627147
 40
0.2906776128
 40
0.3205203938
 40
0.35136916
 40
0.3831996394
 40
0.4159857354
 40
0.4496994168
 40
0.5197875057
 40
0.5932099869
 40
0.6696890482
 40
0.7489277398
 40
0.8306129663
 40
0.9144164709
 40
1.0
 40
1.0
 40
1.0
 40
1.0
 10
10.6400956163
 20
7.0676366364
 30
0.0
 10
10.6387161889
 20
7.0690728395
 30
0.0
 10
10.6357637593
 20
7.0719305196
 30
0.0
 10
10.6309325631
 20
7.0760517444
 30
0.0
 10
10.625575689
 20
7.0801282496
 30
0.0
 10
10.6196990927
 20
7.0841555549
 30
0.0
 10
10.6133090035
 20
7.0881297294
 30
0.0
 10
10.6064122517
 20
7.0920464856
 30
0.0
 10
10.5990162844
 20
7.0959017048
 30
0.0
 10
10.5911290989
 20
7.099691178
 30
0.0
 10
10.5827592771
 20
7.1034107718
 30
0.0
 10
10.5739159633
 20
7.107056423
 30
0.0
 10
10.5646088331
 20
7.110624063
 30
0.0
 10
10.5548481167
 20
7.1141098092
 30
0.0
 10
10.5446445377
 20
7.117509723
 30
0.0
 10
10.5340093477
 20
7.1208201069
 30
0.0
 10
10.5229542661
 20
7.1240372156
 30
0.0
 10
10.5114915064
 20
7.1271575219
 30
0.0
 10
10.4996337126
 20
7.1301775513
 30
0.0
 10
10.4830995745
 20
7.1341170551
 30
0.0
 10
10.4615356464
 20
7.1387510298
 30
0.0
 10
10.4346264672
 20
7.1437925588
 30
0.0
 10
10.4064790255
 20
7.1483616093
 30
0.0
 10
10.3772178285
 20
7.152437738
 30
0.0
 10
10.3469721903
 20
7.1560026296
 30
0.0
 10
10.315875954
 20
7.1590403445
 30
0.0
 10
10.2948613441
 20
7.1606898977
 30
0.0
 10
10.2842372086
 20
7.161426684
 30
0.0
  0
SPLINE
  5
35B
100
AcDbEntity
  8
0
100
AcDbSpline
 62
7
  6
CONTINUOUS
 70
0
 71
3
 72
51
 73
47
 74
0
 42
0.0000001
 43
0.0000001
 44
0.0000000001
 40
0.0
 40
0.0
 40
0.0
 40
0.0
 40
0.0083967399
 40
0.0173567292
 40
0.0268874271
 40
0.0369913992
 40
0.0476677428
 40
0.0589124452
 40
0.0707192039
 40
0.0830792399
 40
0.095982041
 40
0.1094151484
 40
0.1233647729
 40
0.1378155053
 40
0.1681519768
 40
0.2002796507
 40
0.2340364826
 40
0.2692469214
 40
0.3057239467
 40
0.3432709062
 40
0.3816832299
 40
0.4207500716
 40
0.4602559047
 40
0.4999820939
 40
0.5397084513
 40
0.579214788
 40
0.6182824651
 40
0.65669595
 40
0.6942443882
 40
0.730723199
 40
0.7659357164
 40
0.7996949042
 40
0.8318251923
 40
0.8621645139
 40
0.8766167473
 40
0.8905679302
 40
0.9040026323
 40
0.9169070756
 40
0.9292687782
 40
0.9410772497
 40
0.9523236826
 40
0.9630017573
 40
0.9731074396
 40
0.982639957
 40
0.9916018042
 40
1.0
 40
1.0
 40
1.0
 40
1.0
 10
12.8689907818
 20
6.8902690449
 30
0.0
 10
12.8697130858
 20
6.8911541444
 30
0.0
 10
12.8711520313
 20
6.8930283055
 30
0.0
 10
12.8732320479
 20
6.896039098
 30
0.0
 10
12.8753001718
 20
6.8993356795
 30
0.0
 10
12.877353482
 20
6.9029132142
 30
0.0
 10
12.8793889303
 20
6.9067666385
 30
0.0
 10
12.8814036195
 20
6.9108903253
 30
0.0
 10
12.8833945163
 20
6.9152783069
 30
0.0
 10
12.8853587659
 20
6.9199241593
 30
0.0
 10
12.8872933845
 20
6.9248210979
 30
0.0
 10
12.8891955759
 20
6.9299619194
 30
0.0
 10
12.8910624755
 20
6.9353390838
 30
0.0
 10
12.8935412064
 20
6.9429368122
 30
0.0
 10
12.8965208064
 20
6.9529705431
 30
0.0
 10
12.8998583952
 20
6.9656311484
 30
0.0
 10
12.9029935013
 20
6.9790252642
 30
0.0
 10
12.9059074207
 20
6.993073913
 30
0.0
 10
12.9085827392
 20
7.0076943561
 30
0.0
 10
12.9110035037
 20
7.0228003438
 30
0.0
 10
12.9131552931
 20
7.0383027243
 30
0.0
 10
12.915025306
 20
7.0541099638
 30
0.0
 10
12.9166024326
 20
7.0701287047
 30
0.0
 10
12.9178773187
 20
7.0862643239
 30
0.0
 10
12.9188424205
 20
7.1024214999
 30
0.0
 10
12.9194920488
 20
7.1185047822
 30
0.0
 10
12.919822404
 20
7.1344191613
 30
0.0
 10
12.9198315999
 20
7.1500706377
 30
0.0
 10
12.9195196772
 20
7.1653667839
 30
0.0
 10
12.9188886099
 20
7.1802173072
 30
0.0
 10
12.9179422899
 20
7.194534577
 30
0.0
 10
12.9166865409
 20
7.2082342376
 30
0.0
 10
12.9151289826
 20
7.2212354794
 30
0.0
 10
12.9135633048
 20
7.2315854674
 30
0.0
 10
12.9121573594
 20
7.2394534882
 30
0.0
 10
12.9110507879
 20
7.2450375654
 30
0.0
 10
12.9098766283
 20
7.2503924583
 30
0.0
 10
12.9086366875
 20
7.2555103024
 30
0.0
 10
12.9073327289
 20
7.2603835768
 30
0.0
 10
12.9059667815
 20
7.26500515
 30
0.0
 10
12.9045407725
 20
7.2693682594
 30
0.0
 10
12.9030569041
 20
7.2734665752
 30
0.0
 10
12.9015172494
 20
7.2772941334
 30
0.0
 10
12.8999241208
 20
7.2808455037
 30
0.0
 10
12.8982797524
 20
7.2841154425
 30
0.0
 10
12.8971134091
 20
7.2861708768
 30
0.0
 10
12.8965202754
 20
7.287147488
 30
0.0
  0
SPLINE
  5
35C
100
AcDbEntity
  8
0
100
AcDbSpline
 62
7
  6
CONTINUOUS
 70
0
 71
3
 72
69
 73
65
 74
0
 42
0.0000001
 43
0.0000001
 44
0.0000000001
 40
0.0
 40
0.0
 40
0.0
 40
0.0
 40
0.0156749889
 40
0.0314027574
 40
0.0471814424
 40
0.0630099733
 40
0.0788860924
 40
0.0948073735
 40
0.110770904
 40
0.126773401
 40
0.1428112333
 40
0.1588804527
 40
0.1749768337
 40
0.1910959106
 40
0.2072330178
 40
0.223383332
 40
0.2395419152
 40
0.2557037577
 40
0.2718638213
 40
0.2880170827
 40
0.3202749253
 40
0.352447514
 40
0.3684949941
 40
0.3845082679
 40
0.4004836063
 40
0.4164176207
 40
0.432307296
 40
0.4481500205
 40
0.4639436128
 40
0.4796863462
 40
0.4953769699
 40
0.5110147256
 40
0.5265993589
 40
0.542131127
 40
0.5576108009
 40
0.573039663
 40
0.5884195012
 40
0.6037525948
 40
0.6190416967
 40
0.6342900084
 40
0.6495011511
 40
0.6646791316
 40
0.679828304
 40
0.6949533256
 40
0.7100591091
 40
0.7251507714
 40
0.7402335797
 40
0.7553128954
 40
0.7703941176
 40
0.7854826253
 40
0.8005837199
 40
0.8157025682
 40
0.8308441482
 40
0.8460131966
 40
0.8612141607
 40
0.8764511545
 40
0.8917279163
 40
0.907047776
 40
0.9224136208
 40
0.9378278579
 40
0.9532924826
 40
0.968808719
 40
0.9843780071
 40
1.0
 40
1.0
 40
1.0
 40
1.0
 10
10.3702902819
 20
6.5857401689
 30
0.0
 10
10.3618212872
 20
6.5863274956
 30
0.0
 10
10.3448807245
 20
6.5879195978
 30
0.0
 10
10.319576619
 20
6.5915430284
 30
0.0
 10
10.2943943349
 20
6.5963974229
 30
0.0
 10
10.2693955037
 20
6.6024707208
 30
0.0
 10
10.2446399277
 20
6.6097484488
 30
0.0
 10
10.2201873297
 20
6.6182129555
 30
0.0
 10
10.1960965402
 20
6.6278438619
 30
0.0
 10
10.1724255498
 20
6.6386179219
 30
0.0
 10
10.1492313272
 20
6.6505091604
 30
0.0
 10
10.1265696952
 20
6.663488923
 30
0.0
 10
10.1044951952
 20
6.6775259435
 30
0.0
 10
10.0830609614
 20
6.6925864217
 30
0.0
 10
10.0623185822
 20
6.7086340942
 30
0.0
 10
10.042317979
 20
6.725630298
 30
0.0
 10
10.0231072596
 20
6.7435341501
 30
0.0
 10
10.0047327625
 20
6.7623024023
 30
0.0
 10
9.9872383458
 20
6.781890433
 30
0.0
 10
9.9651559804
 20
6.8090204291
 30
0.0
 10
9.9399583174
 20
6.8447344575
 30
0.0
 10
9.9181811987
 20
6.8825661995
 30
0.0
 10
9.9029595531
 20
6.9138587365
 30
0.0
 10
9.8926764695
 20
6.9377665306
 30
0.0
 10
9.8835439153
 20
6.9620709162
 30
0.0
 10
9.8755835632
 20
6.9867139444
 30
0.0
 10
9.8688147063
 20
7.0116361474
 30
0.0
 10
9.8632536636
 20
7.03677757
 30
0.0
 10
9.8589138871
 20
7.0620776744
 30
0.0
 10
9.8558058918
 20
7.0874755473
 30
0.0
 10
9.8539372068
 20
7.112910026
 30
0.0
 10
9.8533123816
 20
7.1383198558
 30
0.0
 10
9.8539329787
 20
7.1636438341
 30
0.0
 10
9.8557975676
 20
7.1888209559
 30
0.0
 10
9.8589017276
 20
7.2137905592
 30
0.0
 10
9.8632380541
 20
7.2384924696
 30
0.0
 10
9.8687961452
 20
7.2628671527
 30
0.0
 10
9.8755626595
 20
7.2868558543
 30
0.0
 10
9.8835213445
 20
7.3104007404
 30
0.0
 10
9.8926530734
 20
7.3334450361
 30
0.0
 10
9.9029358922
 20
7.3559331615
 30
0.0
 10
9.9143450593
 20
7.3778108706
 30
0.0
 10
9.9268530891
 20
7.3990253953
 30
0.0
 10
9.9404298471
 20
7.4195255609
 30
0.0
 10
9.9550426169
 20
7.4392619107
 30
0.0
 10
9.9706561787
 20
7.4581868272
 30
0.0
 10
9.9872328971
 20
7.4762546441
 30
0.0
 10
10.0047327951
 20
7.4934217723
 30
0.0
 10
10.023113652
 20
7.5096468131
 30
0.0
 10
10.0423311253
 20
7.5248906404
 30
0.0
 10
10.0623388549
 20
7.5391164986
 30
0.0
 10
10.0830885749
 20
7.5522900913
 30
0.0
 10
10.1045302339
 20
7.5643796592
 30
0.0
 10
10.1266121017
 20
7.5753560823
 30
0.0
 10
10.1492809057
 20
7.5851929425
 30
0.0
 10
10.1724819683
 20
7.5938665691
 30
0.0
 10
10.196159337
 20
7.6013561005
 30
0.0
 10
10.2202559223
 20
7.6076435307
 30
0.0
 10
10.2447136212
 20
7.6127137401
 30
0.0
 10
10.269473511
 20
7.6165546074
 30
0.0
 10
10.294475779
 20
7.619156873
 30
0.0
 10
10.319660575
 20
7.6205144782
 30
0.0
 10
10.3449662
 20
7.6206240323
 30
0.0
 10
10.3618499202
 20
7.6198662053
 30
0.0
 10
10.3702902819
 20
7.6192808642
 30
0.0
  0
SPLINE
  5
35D
100
AcDbEntity
  8
0
100
AcDbSpline
 62
7
  6
CONTINUOUS
 70
0
 71
3
 72
56
 73
52
 74
0
 42
0.0000001
 43
0.0000001
 44
0.0000000001
 40
0.0
 40
0.0
 40
0.0
 40
0.0
 40
0.0528988178
 40
0.1050249547
 40
0.1562613383
 40
0.2064945323
 40
0.2556136803
 40
0.3035116986
 40
0.3500853851
 40
0.3952359925
 40
0.4388696809
 40
0.4808980694
 40
0.5212388384
 40
0.5598164258
 40
0.5965628475
 40
0.6142309653
 40
0.6314197927
 40
0.6481234407
 40
0.6643367593
 40
0.6800553156
 40
0.6952755833
 40
0.7099948626
 40
0.724211563
 40
0.7379250905
 40
0.7511362104
 40
0.7638469421
 40
0.776060981
 40
0.7877836529
 40
0.7990223741
 40
0.8097867189
 40
0.8200889029
 40
0.8299440013
 40
0.8393704435
 40
0.848390382
 40
0.8570301577
 40
0.8732871703
 40
0.8809923201
 40
0.8884716055
 40
0.8957762193
 40
0.9029614893
 40
0.910085848
 40
0.9172093616
 40
0.92439212
 40
0.9316926219
 40
0.9391662991
 40
0.9468644709
 40
0.9631039601
 40
0.9717335158
 40
0.9807424301
 40
0.9901571718
 40
1.0
 40
1.0
 40
1.0
 40
1.0
 10
10.3732579518
 20
11.7148213352
 30
0.0
 10
10.3865900699
 20
11.7138967497
 30
0.0
 10
10.4130475291
 20
11.7118819307
 30
0.0
 10
10.4523662534
 20
11.708333823
 30
0.0
 10
10.4909600188
 20
11.7042884488
 30
0.0
 10
10.5287346409
 20
11.6997557659
 30
0.0
 10
10.565598213
 20
11.6947468691
 30
0.0
 10
10.6014609403
 20
11.6892740634
 30
0.0
 10
10.6362355442
 20
11.6833507762
 30
0.0
 10
10.6698374106
 20
11.676991554
 30
0.0
 10
10.702184838
 20
11.6702120146
 30
0.0
 10
10.7331992093
 20
11.6630288113
 30
0.0
 10
10.7628053132
 20
11.6554595957
 30
0.0
 10
10.7909311553
 20
11.647522942
 30
0.0
 10
10.8133633861
 20
11.6405307524
 30
0.0
 10
10.8305066291
 20
11.6347544983
 30
0.0
 10
10.8427837082
 20
11.6303993885
 30
0.0
 10
10.8546416392
 20
11.6259672898
 30
0.0
 10
10.8660732486
 20
11.6214608971
 30
0.0
 10
10.8770715929
 20
11.6168829186
 30
0.0
 10
10.8876300263
 20
11.612236193
 30
0.0
 10
10.8977421438
 20
11.6075234713
 30
0.0
 10
10.9074018616
 20
11.6027476881
 30
0.0
 10
10.9166033266
 20
11.597911638
 30
0.0
 10
10.9253410348
 20
11.5930183257
 30
0.0
 10
10.9336097017
 20
11.5880705824
 30
0.0
 10
10.9414044139
 20
11.5830714486
 30
0.0
 10
10.9487204687
 20
11.5780237807
 30
0.0
 10
10.9555535419
 20
11.572930613
 30
0.0
 10
10.9618995188
 20
11.5677948026
 30
0.0
 10
10.9677546306
 20
11.5626193447
 30
0.0
 10
10.9731153638
 20
11.5574070117
 30
0.0
 10
10.9779783237
 20
11.5521609203
 30
0.0
 10
10.9823409418
 20
11.5468830331
 30
0.0
 10
10.9873829107
 20
11.5399508245
 30
0.0
 10
10.9915622231
 20
11.5328125279
 30
0.0
 10
10.9947276062
 20
11.5255189009
 30
0.0
 10
10.9965462182
 20
11.5201285846
 30
0.0
 10
10.9978490091
 20
11.5147256648
 30
0.0
 10
10.998634296
 20
11.5093137758
 30
0.0
 10
10.9989010926
 20
11.5038973295
 30
0.0
 10
10.9986488251
 20
11.4984808192
 30
0.0
 10
10.9978780445
 20
11.4930687422
 30
0.0
 10
10.9965897227
 20
11.4876655173
 30
0.0
 10
10.9947855216
 20
11.4822747905
 30
0.0
 10
10.9916398171
 20
11.4749809179
 30
0.0
 10
10.9874795081
 20
11.4678415435
 30
0.0
 10
10.9824558503
 20
11.4609081383
 30
0.0
 10
10.978107273
 20
11.4556293912
 30
0.0
 10
10.9732583869
 20
11.4503824876
 30
0.0
 10
10.9697732768
 20
11.4469844028
 30
0.0
 10
10.9679529252
 20
11.4452903671
 30
0.0
  0
SPLINE
  5
35E
100
AcDbEntity
  8
0
100
AcDbSpline
 62
7
  6
CONTINUOUS
 70
0
 71
3
 72
69
 73
65
 74
0
 42
0.0000001
 43
0.0000001
 44
0.0000000001
 40
0.0
 40
0.0
 40
0.0
 40
0.0
 40
0.0156749889
 40
0.0314027574
 40
0.0471814424
 40
0.0630099733
 40
0.0788860924
 40
0.0948073735
 40
0.110770904
 40
0.126773401
 40
0.1428112333
 40
0.1588804527
 40
0.1749768337
 40
0.1910959106
 40
0.2072330178
 40
0.223383332
 40
0.2395419152
 40
0.2557037577
 40
0.2718638213
 40
0.2880170827
 40
0.3202749253
 40
0.352447514
 40
0.3684949941
 40
0.3845082679
 40
0.4004836063
 40
0.4164176207
 40
0.432307296
 40
0.4481500205
 40
0.4639436128
 40
0.4796863462
 40
0.4953769699
 40
0.5110147256
 40
0.5265993589
 40
0.542131127
 40
0.5576108009
 40
0.573039663
 40
0.5884195012
 40
0.6037525948
 40
0.6190416967
 40
0.6342900084
 40
0.6495011511
 40
0.6646791316
 40
0.679828304
 40
0.6949533256
 40
0.7100591091
 40
0.7251507714
 40
0.7402335797
 40
0.7553128954
 40
0.7703941176
 40
0.7854826253
 40
0.8005837199
 40
0.8157025682
 40
0.8308441482
 40
0.8460131966
 40
0.8612141607
 40
0.8764511545
 40
0.8917279163
 40
0.907047776
 40
0.9224136208
 40
0.9378278579
 40
0.9532924826
 40
0.968808719
 40
0.9843780071
 40
1.0
 40
1.0
 40
1.0
 40
1.0
 10
10.3702902819
 20
7.6192808642
 30
0.0
 10
10.3787592765
 20
7.6186935375
 30
0.0
 10
10.3956998393
 20
7.6171014353
 30
0.0
 10
10.4210039447
 20
7.6134780047
 30
0.0
 10
10.4461862288
 20
7.6086236102
 30
0.0
 10
10.47118506
 20
7.6025503123
 30
0.0
 10
10.4959406361
 20
7.5952725843
 30
0.0
 10
10.520393234
 20
7.5868080776
 30
0.0
 10
10.5444840235
 20
7.5771771712
 30
0.0
 10
10.5681550139
 20
7.5664031112
 30
0.0
 10
10.5913492365
 20
7.5545118727
 30
0.0
 10
10.6140108685
 20
7.54153211
 30
0.0
 10
10.6360853686
 20
7.5274950896
 30
0.0
 10
10.6575196023
 20
7.5124346114
 30
0.0
 10
10.6782619815
 20
7.4963869389
 30
0.0
 10
10.6982625847
 20
7.479390735
 30
0.0
 10
10.7174733041
 20
7.461486883
 30
0.0
 10
10.7358478012
 20
7.4427186308
 30
0.0
 10
10.753342218
 20
7.4231306001
 30
0.0
 10
10.7754245833
 20
7.396000604
 30
0.0
 10
10.8006222464
 20
7.3602865756
 30
0.0
 10
10.822399365
 20
7.3224548336
 30
0.0
 10
10.8376210106
 20
7.2911622966
 30
0.0
 10
10.8479040942
 20
7.2672545025
 30
0.0
 10
10.8570366485
 20
7.2429501169
 30
0.0
 10
10.8649970005
 20
7.2183070886
 30
0.0
 10
10.8717658575
 20
7.1933848857
 30
0.0
 10
10.8773269001
 20
7.1682434631
 30
0.0
 10
10.8816666767
 20
7.1429433587
 30
0.0
 10
10.884774672
 20
7.1175454857
 30
0.0
 10
10.8866433569
 20
7.0921110071
 30
0.0
 10
10.8872681821
 20
7.0667011773
 30
0.0
 10
10.886647585
 20
7.041377199
 30
0.0
 10
10.8847829962
 20
7.0162000772
 30
0.0
 10
10.8816788361
 20
6.9912304739
 30
0.0
 10
10.8773425096
 20
6.9665285635
 30
0.0
 10
10.8717844185
 20
6.9421538804
 30
0.0
 10
10.8650179042
 20
6.9181651788
 30
0.0
 10
10.8570592192
 20
6.8946202927
 30
0.0
 10
10.8479274903
 20
6.871575997
 30
0.0
 10
10.8376446716
 20
6.8490878716
 30
0.0
 10
10.8262355044
 20
6.8272101625
 30
0.0
 10
10.8137274746
 20
6.8059956378
 30
0.0
 10
10.8001507166
 20
6.7854954722
 30
0.0
 10
10.7855379468
 20
6.7657591224
 30
0.0
 10
10.769924385
 20
6.7468342059
 30
0.0
 10
10.7533476667
 20
6.728766389
 30
0.0
 10
10.7358477686
 20
6.7115992608
 30
0.0
 10
10.7174669118
 20
6.69537422
 30
0.0
 10
10.6982494384
 20
6.6801303927
 30
0.0
 10
10.6782417089
 20
6.6659045345
 30
0.0
 10
10.6574919889
 20
6.6527309418
 30
0.0
 10
10.6360503299
 20
6.6406413739
 30
0.0
 10
10.613968462
 20
6.6296649508
 30
0.0
 10
10.591299658
 20
6.6198280906
 30
0.0
 10
10.5680985955
 20
6.611154464
 30
0.0
 10
10.5444212267
 20
6.6036649326
 30
0.0
 10
10.5203246415
 20
6.5973775024
 30
0.0
 10
10.4958669425
 20
6.592307293
 30
0.0
 10
10.4711070527
 20
6.5884664257
 30
0.0
 10
10.4461047848
 20
6.5858641601
 30
0.0
 10
10.4209199888
 20
6.5845065549
 30
0.0
 10
10.3956143637
 20
6.5843970008
 30
0.0
 10
10.3787306435
 20
6.5851548278
 30
0.0
 10
10.3702902819
 20
6.5857401689
 30
0.0
  0
SPLINE
  5
35F
100
AcDbEntity
  8
0
100
AcDbSpline
 62
7
  6
CONTINUOUS
 70
0
 71
3
 72
39
 73
35
 74
0
 42
0.0000001
 43
0.0000001
 44
0.0000000001
 40
0.0
 40
0.0
 40
0.0
 40
0.0
 40
0.031402539
 40
0.0630095484
 40
0.0948070963
 40
0.1267734464
 40
0.1588809717
 40
0.191097022
 40
0.2233851123
 40
0.2557062441
 40
0.2880202663
 40
0.3202872747
 40
0.3524690066
 40
0.3845301824
 40
0.4164397923
 40
0.4481722496
 40
0.4797084073
 40
0.5110363798
 40
0.542152119
 40
0.5730597425
 40
0.6037715186
 40
0.6343075558
 40
0.664695111
 40
0.6949675894
 40
0.7251632179
 40
0.7553234775
 40
0.7854913542
 40
0.8157095096
 40
0.8460184684
 40
0.8764549219
 40
0.9070502465
 40
0.9378292715
 40
0.9688091882
 40
1.0
 40
1.0
 40
1.0
 40
1.0
 10
9.7665866047
 20
10.2546588537
 30
0.0
 10
9.7577095226
 20
10.2552744814
 30
0.0
 10
9.7399464438
 20
10.2573845911
 30
0.0
 10
9.7136597987
 20
10.2631154895
 30
0.0
 10
9.6878826887
 20
10.2713675027
 30
0.0
 10
9.6628658668
 20
10.2820604153
 30
0.0
 10
9.6388485474
 20
10.2950910011
 30
0.0
 10
9.6160614092
 20
10.3103337113
 30
0.0
 10
9.5947229269
 20
10.3276418572
 30
0.0
 10
9.5750379276
 20
10.3468492276
 30
0.0
 10
9.5571952302
 20
10.3677713047
 30
0.0
 10
9.5413663043
 20
10.3902074109
 30
0.0
 10
9.5277032092
 20
10.4139422177
 30
0.0
 10
9.5163375401
 20
10.4387480713
 30
0.0
 10
9.5073789115
 20
10.4643869359
 30
0.0
 10
9.5009139869
 20
10.4906127097
 30
0.0
 10
9.4970057562
 20
10.5171735287
 30
0.0
 10
9.4956925646
 20
10.5438140826
 30
0.0
 10
9.4969881895
 20
10.5702780634
 30
0.0
 10
9.500881038
 20
10.5963105666
 30
0.0
 10
9.5073347634
 20
10.6216605052
 30
0.0
 10
9.5162880072
 20
10.6460830823
 30
0.0
 10
9.527655224
 20
10.6693421519
 30
0.0
 10
9.5413272924
 20
10.6912125701
 30
0.0
 10
9.5571724227
 20
10.711482576
 30
0.0
 10
9.575037688
 20
10.7299557444
 30
0.0
 10
9.5947501426
 20
10.7464533503
 30
0.0
 10
9.6161190171
 20
10.7608157619
 30
0.0
 10
9.6389372469
 20
10.7729045131
 30
0.0
 10
9.662984013
 20
10.7826032317
 30
0.0
 10
9.6880264276
 20
10.7898190422
 30
0.0
 10
9.7138232996
 20
10.7944831696
 30
0.0
 10
9.7401224942
 20
10.796551881
 30
0.0
 10
9.7577693751
 20
10.7961888254
 30
0.0
 10
9.7665866047
 20
10.7955773485
 30
0.0
  0
SPLINE
  5
360
100
AcDbEntity
  8
0
100
AcDbSpline
 62
7
  6
CONTINUOUS
 70
0
 71
3
 72
89
 73
85
 74
0
 42
0.0000001
 43
0.0000001
 44
0.0000000001
 40
0.0
 40
0.0
 40
0.0
 40
0.0
 40
0.0039487845
 40
0.0077209333
 40
0.0113257028
 40
0.0147746243
 40
0.0212567735
 40
0.0243283296
 40
0.0273114233
 40
0.0302283033
 40
0.0331028961
 40
0.0359603013
 40
0.0388261026
 40
0.041725648
 40
0.0446833283
 40
0.0477220217
 40
0.0508626262
 40
0.0541238676
 40
0.0575222068
 40
0.0610718663
 40
0.0647850368
 40
0.0686719491
 40
0.0727411842
 40
0.0769997876
 40
0.0814534757
 40
0.0861068491
 40
0.0909634292
 40
0.0960259243
 40
0.1012962084
 40
0.1067754948
 40
0.1124644073
 40
0.1183629776
 40
0.1244708277
 40
0.1373098767
 40
0.1509709309
 40
0.165437361
 40
0.1806880533
 40
0.1966980287
 40
0.2134389245
 40
0.230879378
 40
0.2489853439
 40
0.2677203589
 40
0.2870457735
 40
0.3069209729
 40
0.3273035713
 40
0.3481495898
 40
0.3694136256
 40
0.3910490091
 40
0.4130079636
 40
0.4352417641
 40
0.4577008878
 40
0.5030930374
 40
0.5487787535
 40
0.5943481172
 40
0.616961744
 40
0.6393934284
 40
0.6615930752
 40
0.6835112612
 40
0.7050993833
 40
0.7263098077
 40
0.7470960235
 40
0.7674128035
 40
0.7872163744
 40
0.8064645816
 40
0.8251170683
 40
0.8431354691
 40
0.8604836237
 40
0.8771278254
 40
0.8930370995
 40
0.9081835206
 40
0.9225426052
 40
0.9360938052
 40
0.9425615383
 40
0.9488217559
 40
0.9548732789
 40
0.9607153916
 40
0.9663478109
 40
0.9717707152
 40
0.9769848722
 40
0.9819916133
 40
0.9867931461
 40
0.9913924707
 40
0.9957932688
 40
1.0
 40
1.0
 40
1.0
 40
1.0
 10
12.9331600669
 20
9.9572799911
 30
0.0
 10
12.934263825
 20
9.9583072037
 30
0.0
 10
12.93647043
 20
9.9602646153
 30
0.0
 10
12.9398561021
 20
9.9629585209
 30
0.0
 10
12.9432387406
 20
9.9653397247
 30
0.0
 10
12.9476489582
 20
9.9680388436
 30
0.0
 10
12.9521485371
 20
9.9701913567
 30
0.0
 10
12.9566957214
 20
9.9717035306
 30
0.0
 10
12.9600330036
 20
9.9724974872
 30
0.0
 10
12.9633549242
 20
9.9729701558
 30
0.0
 10
12.9666591574
 20
9.9731207002
 30
0.0
 10
12.9699429003
 20
9.9729487739
 30
0.0
 10
12.9732033734
 20
9.9724544918
 30
0.0
 10
12.9764378277
 20
9.9716383784
 30
0.0
 10
12.9796437976
 20
9.9705016068
 30
0.0
 10
12.9828190015
 20
9.9690453791
 30
0.0
 10
12.9859615276
 20
9.9672713341
 30
0.0
 10
12.9890696085
 20
9.9651810372
 30
0.0
 10
12.9921416198
 20
9.9627761519
 30
0.0
 10
12.995176087
 20
9.9600584572
 30
0.0
 10
12.9981714133
 20
9.9570296581
 30
0.0
 10
13.0011261754
 20
9.9536917199
 30
0.0
 10
13.0040387775
 20
9.950046593
 30
0.0
 10
13.006907694
 20
9.9460964495
 30
0.0
 10
13.0097313881
 20
9.9418436093
 30
0.0
 10
13.0125082215
 20
9.9372905198
 30
0.0
 10
13.0152367085
 20
9.9324398791
 30
0.0
 10
13.0179152022
 20
9.9272944886
 30
0.0
 10
13.0205421994
 20
9.9218573891
 30
0.0
 10
13.0231161548
 20
9.9161317716
 30
0.0
 10
13.0256355099
 20
9.9101210078
 30
0.0
 10
13.0280988723
 20
9.9038286564
 30
0.0
 10
13.0313609798
 20
9.8949195026
 30
0.0
 10
13.03527345
 20
9.8830955603
 30
0.0
 10
13.0396477754
 20
9.8680740659
 30
0.0
 10
13.0437657603
 20
9.8520280316
 30
0.0
 10
13.0476174701
 20
9.8349956123
 30
0.0
 10
13.0511935742
 20
9.8170171213
 30
0.0
 10
13.0544853986
 20
9.7981353216
 30
0.0
 10
13.0574849522
 20
9.7783951764
 30
0.0
 10
13.0601849496
 20
9.7578437628
 30
0.0
 10
13.0625788322
 20
9.7365301403
 30
0.0
 10
13.0646607922
 20
9.7145052283
 30
0.0
 10
13.066425775
 20
9.6918216724
 30
0.0
 10
13.0678694928
 20
9.6685337099
 30
0.0
 10
13.0689884342
 20
9.6446970365
 30
0.0
 10
13.0697798694
 20
9.6203686737
 30
0.0
 10
13.0702418654
 20
9.5956068274
 30
0.0
 10
13.0703732784
 20
9.5704707659
 30
0.0
 10
13.0701737993
 20
9.5450205947
 30
0.0
 10
13.069464599
 20
9.5106292479
 30
0.0
 10
13.0677532015
 20
9.4673054147
 30
0.0
 10
13.0644174528
 20
9.4152301625
 30
0.0
 10
13.0605801019
 20
9.3719155943
 30
0.0
 10
13.0568852688
 20
9.3375125763
 30
0.0
 10
13.0538223189
 20
9.312018519
 30
0.0
 10
13.0504680733
 20
9.2868290331
 30
0.0
 10
13.0468305479
 20
9.2620043533
 30
0.0
 10
13.0429184862
 20
9.2376038948
 30
0.0
 10
13.0387412807
 20
9.2136860377
 30
0.0
 10
13.0343089654
 20
9.1903080055
 30
0.0
 10
13.0296321898
 20
9.1675257171
 30
0.0
 10
13.0247222015
 20
9.1453936494
 30
0.0
 10
13.0195908099
 20
9.1239647057
 30
0.0
 10
13.0142503601
 20
9.1032900883
 30
0.0
 10
13.0087137031
 20
9.0834191719
 30
0.0
 10
13.0029941628
 20
9.0643993783
 30
0.0
 10
12.9971055071
 20
9.0462760395
 30
0.0
 10
12.9910619145
 20
9.029092304
 30
0.0
 10
12.9848779224
 20
9.0128889193
 30
0.0
 10
12.9785683897
 20
8.9977044721
 30
0.0
 10
12.9731373158
 20
8.9857506118
 30
0.0
 10
12.9687314934
 20
8.9767346085
 30
0.0
 10
12.9654566323
 20
8.9703548189
 30
0.0
 10
12.9621617272
 20
8.9642555232
 30
0.0
 10
12.958848732
 20
8.9584403205
 30
0.0
 10
12.9555196232
 20
8.9529126487
 30
0.0
 10
12.9521763285
 20
8.9476758026
 30
0.0
 10
12.9488209059
 20
8.9427328462
 30
0.0
 10
12.9454552364
 20
8.9380867076
 30
0.0
 10
12.9420812842
 20
8.9337400478
 30
0.0
 10
12.9387008984
 20
8.929695389
 30
0.0
 10
12.9353162285
 20
8.9259553345
 30
0.0
 10
12.9330070981
 20
8.9236146161
 30
0.0
 10
12.931851767
 20
8.9224986519
 30
0.0
  0
SPLINE
  5
361
100
AcDbEntity
  8
0
100
AcDbSpline
 62
7
  6
CONTINUOUS
 70
0
 71
3
 72
54
 73
50
 74
0
 42
0.0000001
 43
0.0000001
 44
0.0000000001
 40
0.0
 40
0.0
 40
0.0
 40
0.0
 40
0.0055575318
 40
0.01117795
 40
0.0169218791
 40
0.0228457611
 40
0.0290005294
 40
0.0354309319
 40
0.0421753706
 40
0.0492662232
 40
0.0567302636
 40
0.064589378
 40
0.072861049
 40
0.081559096
 40
0.090694021
 40
0.1002736436
 40
0.1103032968
 40
0.1207863289
 40
0.1317242036
 40
0.1431168718
 40
0.1549628322
 40
0.167259384
 40
0.1800026896
 40
0.1931879189
 40
0.2068093403
 40
0.2208603691
 40
0.235333697
 40
0.2502212623
 40
0.265514414
 40
0.2812038251
 40
0.2972796802
 40
0.3137315552
 40
0.3477188713
 40
0.3830739693
 40
0.4196977636
 40
0.4574853154
 40
0.4963265102
 40
0.5361066853
 40
0.5767072196
 40
0.6180060993
 40
0.6598784659
 40
0.7021971518
 40
0.7448332092
 40
0.787656429
 40
0.8305358734
 40
0.8733403487
 40
0.9159390613
 40
0.9582017516
 40
1.0
 40
1.0
 40
1.0
 40
1.0
 10
9.3728148573
 20
11.431530976
 30
0.0
 10
9.3728148665
 20
11.4334654917
 30
0.0
 10
9.3730314648
 20
11.4373597794
 30
0.0
 10
9.3740035439
 20
11.4431804308
 30
0.0
 10
9.3756212417
 20
11.4489880946
 30
0.0
 10
9.3778813835
 20
11.4547760404
 30
0.0
 10
9.3807802525
 20
11.4605395799
 30
0.0
 10
9.3843139695
 20
11.4662742788
 30
0.0
 10
9.3884784715
 20
11.4719762344
 30
0.0
 10
9.3932697316
 20
11.4776415532
 30
0.0
 10
9.3986833965
 20
11.4832664906
 30
0.0
 10
9.4047150034
 20
11.4888470515
 30
0.0
 10
9.4113595717
 20
11.4943793462
 30
0.0
 10
9.4186118584
 20
11.4998591801
 30
0.0
 10
9.4264660197
 20
11.505282516
 30
0.0
 10
9.4349158566
 20
11.5106450502
 30
0.0
 10
9.4439545699
 20
11.5159426721
 30
0.0
 10
9.453574953
 20
11.521171076
 30
0.0
 10
9.4637692368
 20
11.5263261448
 30
0.0
 10
9.4745292161
 20
11.5314036491
 30
0.0
 10
9.4858461689
 20
11.5363995146
 30
0.0
 10
9.4977109246
 20
11.5413096383
 30
0.0
 10
9.5101138373
 20
11.5461300242
 30
0.0
 10
9.523044812
 20
11.550856727
 30
0.0
 10
9.5364933128
 20
11.5554858569
 30
0.0
 10
9.5504483639
 20
11.5600136451
 30
0.0
 10
9.5648985763
 20
11.5644363331
 30
0.0
 10
9.5798321372
 20
11.5687503393
 30
0.0
 10
9.5952368449
 20
11.5729520612
 30
0.0
 10
9.6111000905
 20
11.5770381038
 30
0.0
 10
9.6274089162
 20
11.5810050703
 30
0.0
 10
9.6499751829
 20
11.5861874285
 30
0.0
 10
9.6792040061
 20
11.5923291492
 30
0.0
 10
9.7154661831
 20
11.5990976926
 30
0.0
 10
9.7531673352
 20
11.6053197509
 30
0.0
 10
9.7921839848
 20
11.6109747699
 30
0.0
 10
9.8323885219
 20
11.6160440329
 30
0.0
 10
9.873649324
 20
11.6205107822
 30
0.0
 10
9.9158312878
 20
11.6243602539
 30
0.0
 10
9.9587962567
 20
11.6275797302
 30
0.0
 10
10.0024034873
 20
11.6301585773
 30
0.0
 10
10.0465101147
 20
11.6320882797
 30
0.0
 10
10.0909716251
 20
11.6333624662
 30
0.0
 10
10.1356423355
 20
11.6339769314
 30
0.0
 10
10.180375867
 20
11.6339296444
 30
0.0
 10
10.2250256484
 20
11.6332207673
 30
0.0
 10
10.2694453618
 20
11.6318526278
 30
0.0
 10
10.3134893786
 20
11.6298297655
 30
0.0
 10
10.3426965299
 20
11.6280374206
 30
0.0
 10
10.3572111782
 20
11.6270308263
 30
0.0
  0
SPLINE
  5
362
100
AcDbEntity
  8
0
100
AcDbSpline
 62
7
  6
CONTINUOUS
 70
0
 71
3
 72
39
 73
35
 74
0
 42
0.0000001
 43
0.0000001
 44
0.0000000001
 40
0.0
 40
0.0
 40
0.0
 40
0.0
 40
0.0311450424
 40
0.062443103
 40
0.093888348
 40
0.1254709887
 40
0.1571788844
 40
0.1889972605
 40
0.2209091753
 40
0.252895844
 40
0.2849370233
 40
0.3170114137
 40
0.3490970737
 40
0.3811718446
 40
0.413213777
 40
0.4452015562
 40
0.4771149179
 40
0.5089350501
 40
0.540644973
 40
0.572229893
 40
0.6036775227
 40
0.6349783628
 40
0.666125934
 40
0.6971169547
 40
0.7279514582
 40
0.7586328418
 40
0.7891678433
 40
0.8195664429
 40
0.8498416839
 40
0.8800094159
 40
0.9100879624
 40
0.9400977195
 40
0.9700606952
 40
1.0
 40
1.0
 40
1.0
 40
1.0
 10
10.391513426
 20
6.6854460756
 30
0.0
 10
10.3808285051
 20
6.6861870774
 30
0.0
 10
10.3594524539
 20
6.6884548095
 30
0.0
 10
10.3276475291
 20
6.6941673239
 30
0.0
 10
10.2961832675
 20
6.702168805
 30
0.0
 10
10.2652295878
 20
6.7124162748
 30
0.0
 10
10.2349509478
 20
6.724854776
 30
0.0
 10
10.2055088592
 20
6.7394177955
 30
0.0
 10
10.1770601726
 20
6.7560275141
 30
0.0
 10
10.1497564758
 20
6.7745952394
 30
0.0
 10
10.1237432381
 20
6.7950218871
 30
0.0
 10
10.0991590661
 20
6.8171985118
 30
0.0
 10
10.0761349696
 20
6.8410068811
 30
0.0
 10
10.0547936717
 20
6.8663200985
 30
0.0
 10
10.0352489661
 20
6.893003275
 30
0.0
 10
10.0176050918
 20
6.920914223
 30
0.0
 10
10.0019561942
 20
6.9499042193
 30
0.0
 10
9.9883858341
 20
6.9798187932
 30
0.0
 10
9.9769665439
 20
7.0104985365
 30
0.0
 10
9.9677594397
 20
7.0417799405
 30
0.0
 10
9.9608138981
 20
7.0734962561
 30
0.0
 10
9.9561672629
 20
7.1054783643
 30
0.0
 10
9.9538446453
 20
7.1375556724
 30
0.0
 10
9.9538587949
 20
7.1695570147
 30
0.0
 10
9.9562100144
 20
7.2013115534
 30
0.0
 10
9.9608861403
 20
7.2326496828
 30
0.0
 10
9.9678625915
 20
7.2634039283
 30
0.0
 10
9.9771024614
 20
7.2934098498
 30
0.0
 10
9.9885566794
 20
7.3225069177
 30
0.0
 10
10.0021643296
 20
7.3505394312
 30
0.0
 10
10.0178527479
 20
7.3773571649
 30
0.0
 10
10.0355386669
 20
7.4028169477
 30
0.0
 10
10.0551257964
 20
7.4267806455
 30
0.0
 10
10.0693878007
 20
7.4416797645
 30
0.0
 10
10.076793217
 20
7.4488328174
 30
0.0
  0
SPLINE
  5
363
100
AcDbEntity
  8
0
100
AcDbSpline
 62
7
  6
CONTINUOUS
 70
0
 71
3
 72
11
 73
7
 74
0
 42
0.0000001
 43
0.0000001
 44
0.0000000001
 40
0.0
 40
0.0
 40
0.0
 40
0.0
 40
0.2408807345
 40
0.4884448077
 40
0.7417937881
 40
1.0
 40
1.0
 40
1.0
 40
1.0
 10
9.8076869736
 20
10.5794505278
 30
0.0
 10
9.8211870742
 20
10.581373323
 30
0.0
 10
9.8486038157
 20
10.5849825087
 30
0.0
 10
9.8903399072
 20
10.5896443744
 30
0.0
 10
9.9331323305
 20
10.5936160719
 30
0.0
 10
9.9620128058
 20
10.5957752415
 30
0.0
 10
9.9765981014
 20
10.5967396443
 30
0.0
  0
SPLINE
  5
364
100
AcDbEntity
  8
0
100
AcDbSpline
 62
7
  6
CONTINUOUS
 70
0
 71
3
 72
72
 73
68
 74
0
 42
0.0000001
 43
0.0000001
 44
0.0000000001
 40
0.0
 40
0.0
 40
0.0
 40
0.0
 40
0.0077182432
 40
0.0113231882
 40
0.014772195
 40
0.0212543892
 40
0.0243259873
 40
0.0273091604
 40
0.0302260995
 40
0.0331007531
 40
0.0359582176
 40
0.0388240867
 40
0.0417236988
 40
0.0446814571
 40
0.0477202328
 40
0.0508609149
 40
0.0575163543
 40
0.0610661071
 40
0.0647793834
 40
0.0686664116
 40
0.072735744
 40
0.0769944783
 40
0.0814482923
 40
0.0861017736
 40
0.0909585119
 40
0.1012903924
 40
0.1124579645
 40
0.1244639772
 40
0.1373033585
 40
0.1509647502
 40
0.1654315512
 40
0.1806826243
 40
0.1966929797
 40
0.2134342821
 40
0.2308751732
 40
0.2489815712
 40
0.2677170163
 40
0.2870428896
 40
0.306918559
 40
0.3273016263
 40
0.369411565
 40
0.4130059014
 40
0.4576989285
 40
0.503092093
 40
0.5487788264
 40
0.5943492002
 40
0.639394608
 40
0.6835124596
 40
0.7263109016
 40
0.7470975676
 40
0.7674147845
 40
0.7872187942
 40
0.8064674292
 40
0.8251203082
 40
0.8431390921
 40
0.8604876348
 40
0.877132201
 40
0.8930418126
 40
0.9081885684
 40
0.9225479733
 40
0.9360994519
 40
0.9488270493
 40
0.9607202235
 40
0.9717748375
 40
0.9819946945
 40
0.991394406
 40
1.0
 40
1.0
 40
1.0
 40
1.0
 10
12.9325367175
 20
7.3564163573
 30
0.0
 10
12.9336658028
 20
7.3574671211
 30
0.0
 10
12.9353962117
 20
7.3589341228
 30
0.0
 10
12.9378114973
 20
7.360634472
 30
0.0
 10
12.9401197484
 20
7.3620470887
 30
0.0
 10
12.9424746196
 20
7.3631736043
 30
0.0
 10
12.9448544563
 20
7.363964947
 30
0.0
 10
12.946601057
 20
7.3643805081
 30
0.0
 10
12.9483396419
 20
7.364627821
 30
0.0
 10
12.9500689534
 20
7.3647066045
 30
0.0
 10
12.9517875474
 20
7.3646166183
 30
0.0
 10
12.9534939499
 20
7.3643578638
 30
0.0
 10
12.9551867571
 20
7.3639307539
 30
0.0
 10
12.9568646261
 20
7.3633357789
 30
0.0
 10
12.9585264622
 20
7.3625735819
 30
0.0
 10
12.9607621507
 20
7.3613114813
 30
0.0
 10
12.962920936
 20
7.3597265371
 30
0.0
 10
12.9649935511
 20
7.3578701955
 30
0.0
 10
12.9665613432
 20
7.3562848913
 30
0.0
 10
12.9681077031
 20
7.3545379419
 30
0.0
 10
12.9696320812
 20
7.3526301983
 30
0.0
 10
12.9711335499
 20
7.3505628089
 30
0.0
 10
12.9726113593
 20
7.3483370063
 30
0.0
 10
12.974064691
 20
7.3459540727
 30
0.0
 10
12.9760088668
 20
7.3424974649
 30
0.0
 10
12.9783623798
 20
7.337781689
 30
0.0
 10
12.9810202164
 20
7.331633264
 30
0.0
 10
12.9835611232
 20
7.3248975361
 30
0.0
 10
12.9859791283
 20
7.3175902961
 30
0.0
 10
12.9882684894
 20
7.3097284769
 30
0.0
 10
12.9904236825
 20
7.301330558
 30
0.0
 10
12.9924395192
 20
7.2924163724
 30
0.0
 10
12.9943111216
 20
7.2830070611
 30
0.0
 10
12.9960339374
 20
7.2731249855
 30
0.0
 10
12.9976037801
 20
7.2627936814
 30
0.0
 10
12.9990168536
 20
7.2520377945
 30
0.0
 10
13.0002697268
 20
7.240882999
 30
0.0
 10
13.001359334
 20
7.2293559443
 30
0.0
 10
13.0022830729
 20
7.2174841604
 30
0.0
 10
13.0033014788
 20
7.2010549274
 30
0.0
 10
13.0041326092
 20
7.1798679354
 30
0.0
 10
13.0044348439
 20
7.1538086571
 30
0.0
 10
13.0040487268
 20
7.1270943781
 30
0.0
 10
13.0029777503
 20
7.0999804888
 30
0.0
 10
13.0012319122
 20
7.0727260274
 30
0.0
 10
12.9988279028
 20
7.0455914792
 30
0.0
 10
12.9957887964
 20
7.0188360812
 30
0.0
 10
12.9921438366
 20
6.9927156158
 30
0.0
 10
12.9885974191
 20
6.9714837796
 30
0.0
 10
12.985474195
 20
6.9550100194
 30
0.0
 10
12.9830265132
 20
6.9430865874
 30
0.0
 10
12.9804568094
 20
6.9315034689
 30
0.0
 10
12.9777712259
 20
6.9202883373
 30
0.0
 10
12.9749762198
 20
6.9094679999
 30
0.0
 10
12.9720785292
 20
6.8990682893
 30
0.0
 10
12.9690851328
 20
6.8891140189
 30
0.0
 10
12.9660032228
 20
6.8796289238
 30
0.0
 10
12.962840219
 20
6.8706355788
 30
0.0
 10
12.9596037428
 20
6.8621553354
 30
0.0
 10
12.9563015654
 20
6.8542082797
 30
0.0
 10
12.9529415779
 20
6.8468131634
 30
0.0
 10
12.9495318121
 20
6.8399873087
 30
0.0
 10
12.9460803004
 20
6.8337465584
 30
0.0
 10
12.9425950939
 20
6.8281053237
 30
0.0
 10
12.9390838818
 20
6.8230760738
 30
0.0
 10
12.9355546833
 20
6.81867062
 30
0.0
 10
12.9330886728
 20
6.8160430984
 30
0.0
 10
12.931851767
 20
6.8148483391
 30
0.0
  0
SPLINE
  5
365
100
AcDbEntity
  8
0
100
AcDbSpline
 62
7
  6
CONTINUOUS
 70
0
 71
3
 72
23
 73
19
 74
0
 42
0.0000001
 43
0.0000001
 44
0.0000000001
 40
0.0
 40
0.0
 40
0.0
 40
0.0
 40
0.0755966894
 40
0.1466391965
 40
0.2134647074
 40
0.2765134986
 40
0.3363257304
 40
0.3935458535
 40
0.4489219493
 40
0.5032869296
 40
0.5575247817
 40
0.6125261135
 40
0.6691421681
 40
0.7281478382
 40
0.7902185594
 40
0.8559229117
 40
0.9257262624
 40
1.0
 40
1.0
 40
1.0
 40
1.0
 10
12.931851767
 20
8.9224986519
 30
0.0
 10
12.9303648472
 20
8.9210623975
 30
0.0
 10
12.9273929957
 20
8.9183646761
 30
0.0
 10
12.922793753
 20
8.9147607052
 30
0.0
 10
12.9181999149
 20
8.9117338714
 30
0.0
 10
12.9136156775
 20
8.9092887633
 30
0.0
 10
12.9090449022
 20
8.9074297273
 30
0.0
 10
12.9044922572
 20
8.9061614726
 30
0.0
 10
12.8999637555
 20
8.9054883045
 30
0.0
 10
12.8954669192
 20
8.9054135832
 30
0.0
 10
12.8910103867
 20
8.9059382318
 30
0.0
 10
12.8866028232
 20
8.9070608709
 30
0.0
 10
12.8822516722
 20
8.908777552
 30
0.0
 10
12.8779627461
 20
8.9110833835
 30
0.0
 10
12.8737403588
 20
8.9139730263
 30
0.0
 10
12.8695879128
 20
8.9174414729
 30
0.0
 10
12.8655088067
 20
8.9214836382
 30
0.0
 10
12.8629235166
 20
8.9244618787
 30
0.0
 10
12.8616419401
 20
8.9260376469
 30
0.0
  0
SPLINE
  5
366
100
AcDbEntity
  8
0
100
AcDbSpline
 62
7
  6
CONTINUOUS
 70
0
 71
3
 72
11
 73
7
 74
0
 42
0.0000001
 43
0.0000001
 44
0.0000000001
 40
0.0
 40
0.0
 40
0.0
 40
0.0
 40
0.2436422743
 40
0.4918795586
 40
0.7441800547
 40
1.0
 40
1.0
 40
1.0
 40
1.0
 10
9.86523572
 20
10.5286527047
 30
0.0
 10
9.8751566528
 20
10.5298755263
 30
0.0
 10
9.8952047861
 20
10.5321911206
 30
0.0
 10
9.9255836396
 20
10.5352529806
 30
0.0
 10
9.9565002207
 20
10.5379310114
 30
0.0
 10
9.9772926373
 20
10.5394468596
 30
0.0
 10
9.9877652959
 20
10.5401408449
 30
0.0
  0
SPLINE
  5
367
100
AcDbEntity
  8
0
100
AcDbSpline
 62
7
  6
CONTINUOUS
 70
0
 71
3
 72
24
 73
20
 74
0
 42
0.0000001
 43
0.0000001
 44
0.0000000001
 40
0.0
 40
0.0
 40
0.0
 40
0.0
 40
0.0755929441
 40
0.1466353292
 40
0.2134607542
 40
0.2454342717
 40
0.2765268668
 40
0.3363370143
 40
0.3935561274
 40
0.4489310748
 40
0.5032948935
 40
0.557531619
 40
0.612531838
 40
0.6691469901
 40
0.7281515817
 40
0.7902214221
 40
0.8559247918
 40
0.9257271707
 40
1.0
 40
1.0
 40
1.0
 40
1.0
 10
12.931851767
 20
6.8148483391
 30
0.0
 10
12.9310735823
 20
6.8140966702
 30
0.0
 10
12.9295181796
 20
6.8126847729
 30
0.0
 10
12.9271111969
 20
6.8107986144
 30
0.0
 10
12.9250784381
 20
6.8094592685
 30
0.0
 10
12.9234572611
 20
6.8085479463
 30
0.0
 10
12.9218832682
 20
6.8077621345
 30
0.0
 10
12.9199152981
 20
6.8069617737
 30
0.0
 10
12.917532685
 20
6.8062980021
 30
0.0
 10
12.9151625783
 20
6.8059457427
 30
0.0
 10
12.9128090809
 20
6.8059066009
 30
0.0
 10
12.9104766797
 20
6.8061812662
 30
0.0
 10
12.9081698891
 20
6.8067687915
 30
0.0
 10
12.9058926502
 20
6.8076673136
 30
0.0
 10
12.9036479496
 20
6.8088741136
 30
0.0
 10
12.9014380989
 20
6.8103865091
 30
0.0
 10
12.8992648382
 20
6.8122018105
 30
0.0
 10
12.897129964
 20
6.8143173863
 30
0.0
 10
12.8957769156
 20
6.8158761342
 30
0.0
 10
12.8951061765
 20
6.8167008517
 30
0.0
  0
SPLINE
  5
368
100
AcDbEntity
  8
0
100
AcDbSpline
 62
7
  6
CONTINUOUS
 70
0
 71
3
 72
39
 73
35
 74
0
 42
0.0000001
 43
0.0000001
 44
0.0000000001
 40
0.0
 40
0.0
 40
0.0
 40
0.0
 40
0.031402539
 40
0.0630095484
 40
0.0948070963
 40
0.1267734464
 40
0.1588809717
 40
0.191097022
 40
0.2233851123
 40
0.2557062441
 40
0.2880202663
 40
0.3202872747
 40
0.3524690066
 40
0.3845301824
 40
0.4164397923
 40
0.4481722496
 40
0.4797084073
 40
0.5110363798
 40
0.542152119
 40
0.5730597425
 40
0.6037715186
 40
0.6343075558
 40
0.664695111
 40
0.6949675894
 40
0.7251632179
 40
0.7553234775
 40
0.7854913542
 40
0.8157095096
 40
0.8460184684
 40
0.8764549219
 40
0.9070502465
 40
0.9378292715
 40
0.9688091882
 40
1.0
 40
1.0
 40
1.0
 40
1.0
 10
9.7665866047
 20
10.7955773485
 30
0.0
 10
9.7754636867
 20
10.7949617207
 30
0.0
 10
9.7932267655
 20
10.7928516111
 30
0.0
 10
9.8195134107
 20
10.7871207127
 30
0.0
 10
9.8452905206
 20
10.7788686994
 30
0.0
 10
9.8703073426
 20
10.7681757869
 30
0.0
 10
9.8943246619
 20
10.7551452011
 30
0.0
 10
9.9171118001
 20
10.7399024909
 30
0.0
 10
9.9384502824
 20
10.7225943449
 30
0.0
 10
9.9581352817
 20
10.7033869746
 30
0.0
 10
9.9759779791
 20
10.6824648975
 30
0.0
 10
9.9918069051
 20
10.6600287913
 30
0.0
 10
10.0054700001
 20
10.6362939844
 30
0.0
 10
10.0168356692
 20
10.6114881309
 30
0.0
 10
10.0257942979
 20
10.5858492662
 30
0.0
 10
10.0322592224
 20
10.5596234925
 30
0.0
 10
10.0361674531
 20
10.5330626734
 30
0.0
 10
10.0374806448
 20
10.5064221196
 30
0.0
 10
10.0361850198
 20
10.4799581388
 30
0.0
 10
10.0322921713
 20
10.4539256356
 30
0.0
 10
10.025838446
 20
10.428575697
 30
0.0
 10
10.0168852021
 20
10.4041531199
 30
0.0
 10
10.0055179853
 20
10.3808940502
 30
0.0
 10
9.9918459169
 20
10.3590236321
 30
0.0
 10
9.9760007866
 20
10.3387536261
 30
0.0
 10
9.9581355214
 20
10.3202804577
 30
0.0
 10
9.9384230668
 20
10.3037828519
 30
0.0
 10
9.9170541922
 20
10.2894204402
 30
0.0
 10
9.8942359624
 20
10.2773316891
 30
0.0
 10
9.8701891963
 20
10.2676329705
 30
0.0
 10
9.8451467818
 20
10.2604171599
 30
0.0
 10
9.8193499097
 20
10.2557530326
 30
0.0
 10
9.7930507151
 20
10.2536843211
 30
0.0
 10
9.7754038343
 20
10.2540473768
 30
0.0
 10
9.7665866047
 20
10.2546588537
 30
0.0
  0
SPLINE
  5
369
100
AcDbEntity
  8
0
100
AcDbSpline
 62
4
  6
CONTINUOUS
 70
0
 71
3
 72
313
 73
309
 74
0
 42
0.0000001
 43
0.0000001
 44
0.0000000001
 40
0.0
 40
0.0
 40
0.0
 40
0.0
 40
0.015625
 40
0.0234375
 40
0.03125
 40
0.0390625
 40
0.046875
 40
0.05078125
 40
0.0546875
 40
0.056640625
 40
0.05859375
 40
0.060546875
 40
0.0615234375
 40
0.0620117188
 40
0.0625
 40
0.0629882812
 40
0.0634765625
 40
0.064453125
 40
0.06640625
 40
0.068359375
 40
0.0703125
 40
0.07421875
 40
0.078125
 40
0.0859375
 40
0.09375
 40
0.1015625
 40
0.109375
 40
0.11328125
 40
0.1171875
 40
0.119140625
 40
0.12109375
 40
0.123046875
 40
0.1240234375
 40
0.1245117188
 40
0.125
 40
0.1254882812
 40
0.1259765625
 40
0.126953125
 40
0.12890625
 40
0.130859375
 40
0.1328125
 40
0.13671875
 40
0.140625
 40
0.1484375
 40
0.15625
 40
0.1640625
 40
0.171875
 40
0.17578125
 40
0.1796875
 40
0.181640625
 40
0.18359375
 40
0.185546875
 40
0.1865234375
 40
0.1870117188
 40
0.1875
 40
0.1879882812
 40
0.1884765625
 40
0.189453125
 40
0.19140625
 40
0.193359375
 40
0.1953125
 40
0.19921875
 40
0.203125
 40
0.2109375
 40
0.21875
 40
0.2265625
 40
0.234375
 40
0.23828125
 40
0.2421875
 40
0.244140625
 40
0.24609375
 40
0.248046875
 40
0.2490234375
 40
0.2495117188
 40
0.25
 40
0.2504882812
 40
0.2509765625
 40
0.251953125
 40
0.25390625
 40
0.255859375
 40
0.2578125
 40
0.26171875
 40
0.265625
 40
0.2734375
 40
0.28125
 40
0.2890625
 40
0.296875
 40
0.30078125
 40
0.3046875
 40
0.306640625
 40
0.30859375
 40
0.310546875
 40
0.3115234375
 40
0.3120117188
 40
0.3125
 40
0.3129882812
 40
0.3134765625
 40
0.314453125
 40
0.31640625
 40
0.318359375
 40
0.3203125
 40
0.32421875
 40
0.328125
 40
0.3359375
 40
0.34375
 40
0.3515625
 40
0.359375
 40
0.36328125
 40
0.3671875
 40
0.369140625
 40
0.37109375
 40
0.373046875
 40
0.3740234375
 40
0.3745117188
 40
0.375
 40
0.3754882812
 40
0.3759765625
 40
0.376953125
 40
0.37890625
 40
0.380859375
 40
0.3828125
 40
0.38671875
 40
0.390625
 40
0.3984375
 40
0.40625
 40
0.4140625
 40
0.421875
 40
0.42578125
 40
0.4296875
 40
0.431640625
 40
0.43359375
 40
0.435546875
 40
0.4365234375
 40
0.4370117188
 40
0.4375
 40
0.4379882812
 40
0.4384765625
 40
0.439453125
 40
0.44140625
 40
0.443359375
 40
0.4453125
 40
0.44921875
 40
0.453125
 40
0.4609375
 40
0.46875
 40
0.4765625
 40
0.484375
 40
0.48828125
 40
0.4921875
 40
0.494140625
 40
0.49609375
 40
0.498046875
 40
0.4990234375
 40
0.4995117188
 40
0.5
 40
0.5004882812
 40
0.5009765625
 40
0.501953125
 40
0.50390625
 40
0.505859375
 40
0.5078125
 40
0.51171875
 40
0.515625
 40
0.5234375
 40
0.53125
 40
0.5390625
 40
0.546875
 40
0.55078125
 40
0.5546875
 40
0.556640625
 40
0.55859375
 40
0.560546875
 40
0.5615234375
 40
0.5620117188
 40
0.5625
 40
0.5629882812
 40
0.5634765625
 40
0.564453125
 40
0.56640625
 40
0.568359375
 40
0.5703125
 40
0.57421875
 40
0.578125
 40
0.5859375
 40
0.59375
 40
0.6015625
 40
0.609375
 40
0.61328125
 40
0.6171875
 40
0.619140625
 40
0.62109375
 40
0.623046875
 40
0.6240234375
 40
0.6245117188
 40
0.625
 40
0.6254882812
 40
0.6259765625
 40
0.626953125
 40
0.62890625
 40
0.630859375
 40
0.6328125
 40
0.63671875
 40
0.640625
 40
0.6484375
 40
0.65625
 40
0.6640625
 40
0.671875
 40
0.67578125
 40
0.6796875
 40
0.681640625
 40
0.68359375
 40
0.685546875
 40
0.6865234375
 40
0.6870117188
 40
0.6875
 40
0.6879882812
 40
0.6884765625
 40
0.689453125
 40
0.69140625
 40
0.693359375
 40
0.6953125
 40
0.69921875
 40
0.703125
 40
0.7109375
 40
0.71875
 40
0.7265625
 40
0.734375
 40
0.73828125
 40
0.7421875
 40
0.744140625
 40
0.74609375
 40
0.748046875
 40
0.7490234375
 40
0.7495117188
 40
0.75
 40
0.7504882812
 40
0.7509765625
 40
0.751953125
 40
0.75390625
 40
0.755859375
 40
0.7578125
 40
0.76171875
 40
0.765625
 40
0.7734375
 40
0.78125
 40
0.7890625
 40
0.796875
 40
0.80078125
 40
0.8046875
 40
0.806640625
 40
0.80859375
 40
0.810546875
 40
0.8115234375
 40
0.8120117188
 40
0.8125
 40
0.8129882812
 40
0.8134765625
 40
0.814453125
 40
0.81640625
 40
0.818359375
 40
0.8203125
 40
0.82421875
 40
0.828125
 40
0.8359375
 40
0.84375
 40
0.8515625
 40
0.859375
 40
0.86328125
 40
0.8671875
 40
0.869140625
 40
0.87109375
 40
0.873046875
 40
0.8740234375
 40
0.8745117188
 40
0.875
 40
0.8754882812
 40
0.8759765625
 40
0.876953125
 40
0.87890625
 40
0.880859375
 40
0.8828125
 40
0.88671875
 40
0.890625
 40
0.8984375
 40
0.90625
 40
0.9140625
 40
0.921875
 40
0.92578125
 40
0.9296875
 40
0.931640625
 40
0.93359375
 40
0.935546875
 40
0.9365234375
 40
0.9370117188
 40
0.9375
 40
0.9379882812
 40
0.9384765625
 40
0.939453125
 40
0.94140625
 40
0.943359375
 40
0.9453125
 40
0.94921875
 40
0.953125
 40
0.9609375
 40
0.96875
 40
0.9765625
 40
0.984375
 40
1.0
 40
1.0
 40
1.0
 40
1.0
 10
10.0042043845
 20
9.23844666
 30
0.0
 10
10.0044803231
 20
9.2356132838
 30
0.0
 10
10.0048942309
 20
9.2313632196
 30
0.0
 10
10.0054461087
 20
9.2256964673
 30
0.0
 10
10.0058600149
 20
9.2214464029
 30
0.0
 10
10.0062739294
 20
9.2171963395
 30
0.0
 10
10.0066188321
 20
9.2136546166
 30
0.0
 10
10.0068948127
 20
9.2108212459
 30
0.0
 10
10.0070671675
 20
9.2090503721
 30
0.0
 10
10.0072053561
 20
9.2076337122
 30
0.0
 10
10.0073081631
 20
9.2065711099
 30
0.0
 10
10.0073964901
 20
9.2056859496
 30
0.0
 10
10.0074531097
 20
9.2050656671
 30
0.0
 10
10.0074935976
 20
9.2047122665
 30
0.0
 10
10.0075010502
 20
9.204444268
 30
0.0
 10
10.0075960892
 20
9.2041875381
 30
0.0
 10
10.0076922568
 20
9.2038413009
 30
0.0
 10
10.0078747844
 20
9.2032372171
 30
0.0
 10
10.0081280962
 20
9.2023732829
 30
0.0
 10
10.0084352557
 20
9.2013369716
 30
0.0
 10
10.0088436891
 20
9.1999550801
 30
0.0
 10
10.0093546118
 20
9.1982277648
 30
0.0
 10
10.0101718752
 20
9.1954640328
 30
0.0
 10
10.011193528
 20
9.1920093774
 30
0.0
 10
10.0124194779
 20
9.1878637862
 30
0.0
 10
10.0136454441
 20
9.1837181987
 30
0.0
 10
10.0146670561
 20
9.1802635338
 30
0.0
 10
10.0154844011
 20
9.1774998208
 30
0.0
 10
10.0159951163
 20
9.1757724572
 30
0.0
 10
10.0164039757
 20
9.1743906648
 30
0.0
 10
10.0167098338
 20
9.1733540509
 30
0.0
 10
10.0169672174
 20
9.1724910636
 30
0.0
 10
10.0171424762
 20
9.1718852893
 30
0.0
 10
10.0172502902
 20
9.1715417607
 30
0.0
 10
10.017309555
 20
9.1712767109
 30
0.0
 10
10.0174513696
 20
9.1710399607
 30
0.0
 10
10.0176116614
 20
9.1707144225
 30
0.0
 10
10.0179055879
 20
9.17014933
 30
0.0
 10
10.0183184689
 20
9.1693396503
 30
0.0
 10
10.0188169284
 20
9.168369064
 30
0.0
 10
10.0194804924
 20
9.1670745894
 30
0.0
 10
10.0203103064
 20
9.1654566193
 30
0.0
 10
10.0216378082
 20
9.1628677982
 30
0.0
 10
10.0232972547
 20
9.1596317957
 30
0.0
 10
10.0252885588
 20
9.1557485816
 30
0.0
 10
10.0272798786
 20
9.1518653739
 30
0.0
 10
10.028939286
 20
9.1486293554
 30
0.0
 10
10.0302668659
 20
9.1460405662
 30
0.0
 10
10.0310964814
 20
9.1444225151
 30
0.0
 10
10.0317604528
 20
9.1431282067
 30
0.0
 10
10.0322576678
 20
9.1421571128
 30
0.0
 10
10.0326744425
 20
9.1413490212
 30
0.0
 10
10.0329614181
 20
9.1407810937
 30
0.0
 10
10.033132847
 20
9.1404600979
 30
0.0
 10
10.0332404521
 20
9.1402093951
 30
0.0
 10
10.0334282019
 20
9.1399967489
 30
0.0
 10
10.0336505797
 20
9.139699946
 30
0.0
 10
10.0340527657
 20
9.1391867258
 30
0.0
 10
10.0346205075
 20
9.1384503206
 30
0.0
 10
10.0353047124
 20
9.1375680184
 30
0.0
 10
10.0362159675
 20
9.1363911321
 30
0.0
 10
10.037355385
 20
9.1349201897
 30
0.0
 10
10.0391782582
 20
9.1325665893
 30
0.0
 10
10.0414569168
 20
9.1296246209
 30
0.0
 10
10.044191277
 20
9.1260942435
 30
0.0
 10
10.0469256504
 20
9.1225638761
 30
0.0
 10
10.0492042758
 20
9.1196218828
 30
0.0
 10
10.0510272155
 20
9.1172683322
 30
0.0
 10
10.0521664638
 20
9.115797263
 30
0.0
 10
10.0530780663
 20
9.1146206369
 30
0.0
 10
10.0537612099
 20
9.1137375397
 30
0.0
 10
10.0543322721
 20
9.113003622
 30
0.0
 10
10.0547285307
 20
9.1124859613
 30
0.0
 10
10.0549604057
 20
9.1121962732
 30
0.0
 10
10.0551189829
 20
9.1119617726
 30
0.0
 10
10.0553361555
 20
9.1117931512
 30
0.0
 10
10.0556052801
 20
9.1115453432
 30
0.0
 10
10.0560857711
 20
9.1111223858
 30
0.0
 10
10.0567672082
 20
9.1105125635
 30
0.0
 10
10.0575870637
 20
9.1097831726
 30
0.0
 10
10.05867946
 20
9.1088098146
 30
0.0
 10
10.0600452103
 20
9.1075934036
 30
0.0
 10
10.0622302682
 20
9.1056469858
 30
0.0
 10
10.0649616399
 20
9.1032140189
 30
0.0
 10
10.0682392635
 20
9.1002944332
 30
0.0
 10
10.0715168976
 20
9.0973748606
 30
0.0
 10
10.0742482432
 20
9.094941861
 30
0.0
 10
10.0764333532
 20
9.0929955088
 30
0.0
 10
10.0777989714
 20
9.0917789311
 30
0.0
 10
10.0788916388
 20
9.0908059151
 30
0.0
 10
10.0797106661
 20
9.0900754791
 30
0.0
 10
10.0803946942
 20
9.0894689267
 30
0.0
 10
10.0808705597
 20
9.089040132
 30
0.0
 10
10.0811470956
 20
9.0888016769
 30
0.0
 10
10.0813415034
 20
9.0886043265
 30
0.0
 10
10.0815855811
 20
9.0884777274
 30
0.0
 10
10.0818936927
 20
9.0882842497
 30
0.0
 10
10.0824409601
 20
9.0879571621
 30
0.0
 10
10.0832185504
 20
9.0874838827
 30
0.0
 10
10.0841534652
 20
9.0869185205
 30
0.0
 10
10.0853993873
 20
9.0861638055
 30
0.0
 10
10.086957006
 20
9.0852207194
 30
0.0
 10
10.0894490751
 20
9.0837116097
 30
0.0
 10
10.0925642032
 20
9.081825282
 30
0.0
 10
10.0963023382
 20
9.0795616614
 30
0.0
 10
10.1000404813
 20
9.0772980553
 30
0.0
 10
10.1031555891
 20
9.0754116914
 30
0.0
 10
10.1056476986
 20
9.073902654
 30
0.0
 10
10.1072052148
 20
9.072959384
 30
0.0
 10
10.1084513472
 20
9.0722050466
 30
0.0
 10
10.1093856196
 20
9.0716385309
 30
0.0
 10
10.1101652199
 20
9.0711688605
 30
0.0
 10
10.1107088993
 20
9.0708353301
 30
0.0
 10
10.1110227597
 20
9.0706521754
 30
0.0
 10
10.1112491786
 20
9.0704938674
 30
0.0
 10
10.11150991
 20
9.0704156104
 30
0.0
 10
10.1118455833
 20
9.0702833449
 30
0.0
 10
10.1124385879
 20
9.0700648901
 30
0.0
 10
10.113282822
 20
9.0697460102
 30
0.0
 10
10.1142971507
 20
9.0693662656
 30
0.0
 10
10.1156491532
 20
9.0688589226
 30
0.0
 10
10.1173393056
 20
9.0682250921
 30
0.0
 10
10.1200434659
 20
9.0672107685
 30
0.0
 10
10.1234236951
 20
9.0659429314
 30
0.0
 10
10.1274799572
 20
9.0644214959
 30
0.0
 10
10.1315362251
 20
9.0629000763
 30
0.0
 10
10.1349164399
 20
9.0616321994
 30
0.0
 10
10.1376206291
 20
9.0606179554
 30
0.0
 10
10.1393107081
 20
9.0599839227
 30
0.0
 10
10.1406628611
 20
9.0594769947
 30
0.0
 10
10.1416767299
 20
9.0590959821
 30
0.0
 10
10.1425224033
 20
9.0587810695
 30
0.0
 10
10.1431128384
 20
9.0585555324
 30
0.0
 10
10.1434526287
 20
9.0584346146
 30
0.0
 10
10.1437007139
 20
9.0583215012
 30
0.0
 10
10.1439746298
 20
9.0582941076
 30
0.0
 10
10.144330841
 20
9.0582276827
 30
0.0
 10
10.1449584085
 20
9.0581253701
 30
0.0
 10
10.1458527388
 20
9.057971926
 30
0.0
 10
10.1469268745
 20
9.0577909105
 30
0.0
 10
10.1483587273
 20
9.0575484677
 30
0.0
 10
10.1501486558
 20
9.0572457871
 30
0.0
 10
10.1530124784
 20
9.0567612895
 30
0.0
 10
10.1565922783
 20
9.0561557397
 30
0.0
 10
10.1608880291
 20
9.0554290468
 30
0.0
 10
10.1651837816
 20
9.0547023709
 30
0.0
 10
10.1687635771
 20
9.0540967785
 30
0.0
 10
10.1716274084
 20
9.053612366
 30
0.0
 10
10.1734173151
 20
9.0533094692
 30
0.0
 10
10.1748492125
 20
9.05306747
 30
0.0
 10
10.175923212
 20
9.0528850993
 30
0.0
 10
10.1768179684
 20
9.0527358953
 30
0.0
 10
10.1774447752
 20
9.0526260135
 30
0.0
 10
10.1778022053
 20
9.0525717163
 30
0.0
 10
10.178072377
 20
9.0525070702
 30
0.0
 10
10.1783345248
 20
9.0525338708
 30
0.0
 10
10.178686854
 20
9.0525377072
 30
0.0
 10
10.1793021262
 20
9.0525592827
 30
0.0
 10
10.1801817681
 20
9.0525823349
 30
0.0
 10
10.1812370467
 20
9.0526133233
 30
0.0
 10
10.1826441866
 20
9.0526534795
 30
0.0
 10
10.1844030767
 20
9.0527040726
 30
0.0
 10
10.1872173203
 20
9.0527847992
 30
0.0
 10
10.190735118
 20
9.0528857841
 30
0.0
 10
10.1949564786
 20
9.053006931
 30
0.0
 10
10.1991778367
 20
9.0531280953
 30
0.0
 10
10.2026956405
 20
9.053229037
 30
0.0
 10
10.2055098719
 20
9.05330985
 30
0.0
 10
10.2072687929
 20
9.0533602232
 30
0.0
 10
10.2086758694
 20
9.0534008308
 30
0.0
 10
10.2097313419
 20
9.0534304405
 30
0.0
 10
10.2106103768
 20
9.0534578062
 30
0.0
 10
10.2112267327
 20
9.0534716814
 30
0.0
 10
10.2115773255
 20
9.0534878556
 30
0.0
 10
10.2118448071
 20
9.0534767583
 30
0.0
 10
10.2120949461
 20
9.0535544501
 30
0.0
 10
10.212434514
 20
9.0536270686
 30
0.0
 10
10.2130259394
 20
9.0537685806
 30
0.0
 10
10.2138723064
 20
9.0539631967
 30
0.0
 10
10.2148873161
 20
9.054199965
 30
0.0
 10
10.2162408826
 20
9.0545145283
 30
0.0
 10
10.2179327654
 20
9.0549081186
 30
0.0
 10
10.2206398199
 20
9.0555376471
 30
0.0
 10
10.2240236235
 20
9.0563246323
 30
0.0
 10
10.2280841948
 20
9.0572689806
 30
0.0
 10
10.2321447613
 20
9.0582133456
 30
0.0
 10
10.2355285771
 20
9.0590002891
 30
0.0
 10
10.238235607
 20
9.059629901
 30
0.0
 10
10.2399275524
 20
9.0600232794
 30
0.0
 10
10.2412809904
 20
9.0603382776
 30
0.0
 10
10.242296393
 20
9.0605737173
 30
0.0
 10
10.2431415306
 20
9.0607724904
 30
0.0
 10
10.2437351506
 20
9.0609065814
 30
0.0
 10
10.2440712023
 20
9.0609910902
 30
0.0
 10
10.2443321421
 20
9.0610322587
 30
0.0
 10
10.2445590574
 20
9.0611583367
 30
0.0
 10
10.2448734793
 20
9.0612968233
 30
0.0
 10
10.245418188
 20
9.0615529741
 30
0.0
 10
10.2461992342
 20
9.0619116894
 30
0.0
 10
10.2471352523
 20
9.0623452358
 30
0.0
 10
10.2483837086
 20
9.062922219
 30
0.0
 10
10.2499441309
 20
9.0636438174
 30
0.0
 10
10.2524408894
 20
9.0647981684
 30
0.0
 10
10.2555618089
 20
9.0662411784
 30
0.0
 10
10.2593069256
 20
9.0679727578
 30
0.0
 10
10.2630520349
 20
9.0697043534
 30
0.0
 10
10.266172973
 20
9.071147323
 30
0.0
 10
10.2686696942
 20
9.0723017546
 30
0.0
 10
10.2702302113
 20
9.073023148
 30
0.0
 10
10.2714784731
 20
9.0736005521
 30
0.0
 10
10.2724150851
 20
9.0740328128
 30
0.0
 10
10.2731942732
 20
9.0743955507
 30
0.0
 10
10.2737422989
 20
9.0746445205
 30
0.0
 10
10.2740514061
 20
9.0747945128
 30
0.0
 10
10.2742946464
 20
9.0748852491
 30
0.0
 10
10.2744942722
 20
9.0750591549
 30
0.0
 10
10.2747756531
 20
9.0752620188
 30
0.0
 10
10.2752609816
 20
9.0756305471
 30
0.0
 10
10.2759580138
 20
9.0761499496
 30
0.0
 10
10.2767928662
 20
9.0767762573
 30
0.0
 10
10.2779065568
 20
9.0776102777
 30
0.0
 10
10.2792984803
 20
9.078653165
 30
0.0
 10
10.281525664
 20
9.0803215824
 30
0.0
 10
10.2843096069
 20
9.082407174
 30
0.0
 10
10.2876503558
 20
9.0849098524
 30
0.0
 10
10.2909910937
 20
9.0874125449
 30
0.0
 10
10.2937750639
 20
9.0894981013
 30
0.0
 10
10.2960021931
 20
9.0911665891
 30
0.0
 10
10.2973942551
 20
9.0922092975
 30
0.0
 10
10.2985076614
 20
9.093043685
 30
0.0
 10
10.2993433824
 20
9.0936688712
 30
0.0
 10
10.3000376969
 20
9.0941917825
 30
0.0
 10
10.3005278769
 20
9.094554047
 30
0.0
 10
10.3008014844
 20
9.0947669472
 30
0.0
 10
10.3010249877
 20
9.0949100245
 30
0.0
 10
10.3011785481
 20
9.0951165476
 30
0.0
 10
10.3014076922
 20
9.0953697811
 30
0.0
 10
10.3017973274
 20
9.0958232507
 30
0.0
 10
10.302359892
 20
9.0964656738
 30
0.0
 10
10.3030324257
 20
9.0972388889
 30
0.0
 10
10.3039300258
 20
9.0982690365
 30
0.0
 10
10.3050517217
 20
9.0995569969
 30
0.0
 10
10.3068466052
 20
9.1016175793
 30
0.0
 10
10.3090901508
 20
9.1041933605
 30
0.0
 10
10.3117824325
 20
9.1072842738
 30
0.0
 10
10.3144747004
 20
9.1103751984
 30
0.0
 10
10.3167182806
 20
9.1129509512
 30
0.0
 10
10.3185130949
 20
9.1150115904
 30
0.0
 10
10.3196349666
 20
9.1162994065
 30
0.0
 10
10.3205322058
 20
9.1173298502
 30
0.0
 10
10.3212058421
 20
9.1181021607
 30
0.0
 10
10.321764957
 20
9.118747414
 30
0.0
 10
10.3221607504
 20
9.1191958312
 30
0.0
 10
10.3223800276
 20
9.1194571601
 30
0.0
 10
10.3225638958
 20
9.1196388166
 30
0.0
 10
10.3226735681
 20
9.1198752885
 30
0.0
 10
10.3228456781
 20
9.1201714642
 30
0.0
 10
10.3231348126
 20
9.1206986801
 30
0.0
 10
10.323554166
 20
9.1214471881
 30
0.0
 10
10.3240546916
 20
9.1223473914
 30
0.0
 10
10.3247230016
 20
9.123546966
 30
0.0
 10
10.3255580665
 20
9.1250466728
 30
0.0
 10
10.3268943506
 20
9.1274460703
 30
0.0
 10
10.3285646434
 20
9.1304453631
 30
0.0
 10
10.3305690235
 20
9.1340444939
 30
0.0
 10
10.3325733885
 20
9.1376436338
 30
0.0
 10
10.3342437189
 20
9.1406429039
 30
0.0
 10
10.3355799279
 20
9.1430423469
 30
0.0
 10
10.3364151838
 20
9.144541938
 30
0.0
 10
10.3370831016
 20
9.1457417501
 30
0.0
 10
10.3375848254
 20
9.1466412278
 30
0.0
 10
10.3380004303
 20
9.1473920058
 30
0.0
 10
10.3382962564
 20
9.1479151696
 30
0.0
 10
10.3384576447
 20
9.1482178377
 30
0.0
 10
10.3386002505
 20
9.1484343668
 30
0.0
 10
10.3386604258
 20
9.148690925
 30
0.0
 10
10.3387694122
 20
9.1490190401
 30
0.0
 10
10.338946742
 20
9.1495997469
 30
0.0
 10
10.3392070741
 20
9.1504259268
 30
0.0
 10
10.3395164748
 20
9.1514187986
 30
0.0
 10
10.3399300561
 20
9.1527421191
 30
0.0
 10
10.3404466742
 20
9.1543964439
 30
0.0
 10
10.3412734635
 20
9.1570432662
 30
0.0
 10
10.342306881
 20
9.1603518277
 30
0.0
 10
10.3435470138
 20
9.1643220863
 30
0.0
 10
10.3447871302
 20
9.1682923518
 30
0.0
 10
10.3458205884
 20
9.171600896
 30
0.0
 10
10.3466472963
 20
9.1742477528
 30
0.0
 10
10.3471641216
 20
9.1759019898
 30
0.0
 10
10.3475772774
 20
9.1772254904
 30
0.0
 10
10.347887978
 20
9.178217812
 30
0.0
 10
10.348144243
 20
9.1790457134
 30
0.0
 10
10.3483288333
 20
9.1796233471
 30
0.0
 10
10.3484261865
 20
9.179956386
 30
0.0
 10
10.3485220951
 20
9.1801978199
 30
0.0
 10
10.3485304927
 20
9.1804711536
 30
0.0
 10
10.3485722142
 20
9.1808244715
 30
0.0
 10
10.3486310049
 20
9.1814479621
 30
0.0
 10
10.3487224269
 20
9.1823359526
 30
0.0
 10
10.3488289508
 20
9.1834027014
 30
0.0
 10
10.3489720943
 20
9.1848246278
 30
0.0
 10
10.349150643
 20
9.1866021746
 30
0.0
 10
10.3494365337
 20
9.189446172
 30
0.0
 10
10.3497938241
 20
9.1930011953
 30
0.0
 10
10.3502226038
 20
9.1972672118
 30
0.0
 10
10.3506513751
 20
9.2015332314
 30
0.0
 10
10.3512230732
 20
9.2072212565
 30
0.0
 10
10.3516518461
 20
9.2114872756
 30
0.0
 10
10.3519376948
 20
9.2143312882
 30
0.0
  0
SPLINE
  5
36A
100
AcDbEntity
  8
0
100
AcDbSpline
 62
4
  6
CONTINUOUS
 70
0
 71
3
 72
313
 73
309
 74
0
 42
0.0000001
 43
0.0000001
 44
0.0000000001
 40
0.0
 40
0.0
 40
0.0
 40
0.0
 40
0.015625
 40
0.0234375
 40
0.03125
 40
0.0390625
 40
0.046875
 40
0.05078125
 40
0.0546875
 40
0.056640625
 40
0.05859375
 40
0.060546875
 40
0.0615234375
 40
0.0620117188
 40
0.0625
 40
0.0629882812
 40
0.0634765625
 40
0.064453125
 40
0.06640625
 40
0.068359375
 40
0.0703125
 40
0.07421875
 40
0.078125
 40
0.0859375
 40
0.09375
 40
0.1015625
 40
0.109375
 40
0.11328125
 40
0.1171875
 40
0.119140625
 40
0.12109375
 40
0.123046875
 40
0.1240234375
 40
0.1245117188
 40
0.125
 40
0.1254882812
 40
0.1259765625
 40
0.126953125
 40
0.12890625
 40
0.130859375
 40
0.1328125
 40
0.13671875
 40
0.140625
 40
0.1484375
 40
0.15625
 40
0.1640625
 40
0.171875
 40
0.17578125
 40
0.1796875
 40
0.181640625
 40
0.18359375
 40
0.185546875
 40
0.1865234375
 40
0.1870117188
 40
0.1875
 40
0.1879882812
 40
0.1884765625
 40
0.189453125
 40
0.19140625
 40
0.193359375
 40
0.1953125
 40
0.19921875
 40
0.203125
 40
0.2109375
 40
0.21875
 40
0.2265625
 40
0.234375
 40
0.23828125
 40
0.2421875
 40
0.244140625
 40
0.24609375
 40
0.248046875
 40
0.2490234375
 40
0.2495117188
 40
0.25
 40
0.2504882812
 40
0.2509765625
 40
0.251953125
 40
0.25390625
 40
0.255859375
 40
0.2578125
 40
0.26171875
 40
0.265625
 40
0.2734375
 40
0.28125
 40
0.2890625
 40
0.296875
 40
0.30078125
 40
0.3046875
 40
0.306640625
 40
0.30859375
 40
0.310546875
 40
0.3115234375
 40
0.3120117188
 40
0.3125
 40
0.3129882812
 40
0.3134765625
 40
0.314453125
 40
0.31640625
 40
0.318359375
 40
0.3203125
 40
0.32421875
 40
0.328125
 40
0.3359375
 40
0.34375
 40
0.3515625
 40
0.359375
 40
0.36328125
 40
0.3671875
 40
0.369140625
 40
0.37109375
 40
0.373046875
 40
0.3740234375
 40
0.3745117188
 40
0.375
 40
0.3754882812
 40
0.3759765625
 40
0.376953125
 40
0.37890625
 40
0.380859375
 40
0.3828125
 40
0.38671875
 40
0.390625
 40
0.3984375
 40
0.40625
 40
0.4140625
 40
0.421875
 40
0.42578125
 40
0.4296875
 40
0.431640625
 40
0.43359375
 40
0.435546875
 40
0.4365234375
 40
0.4370117188
 40
0.4375
 40
0.4379882812
 40
0.4384765625
 40
0.439453125
 40
0.44140625
 40
0.443359375
 40
0.4453125
 40
0.44921875
 40
0.453125
 40
0.4609375
 40
0.46875
 40
0.4765625
 40
0.484375
 40
0.48828125
 40
0.4921875
 40
0.494140625
 40
0.49609375
 40
0.498046875
 40
0.4990234375
 40
0.4995117188
 40
0.5
 40
0.5004882812
 40
0.5009765625
 40
0.501953125
 40
0.50390625
 40
0.505859375
 40
0.5078125
 40
0.51171875
 40
0.515625
 40
0.5234375
 40
0.53125
 40
0.5390625
 40
0.546875
 40
0.55078125
 40
0.5546875
 40
0.556640625
 40
0.55859375
 40
0.560546875
 40
0.5615234375
 40
0.5620117188
 40
0.5625
 40
0.5629882812
 40
0.5634765625
 40
0.564453125
 40
0.56640625
 40
0.568359375
 40
0.5703125
 40
0.57421875
 40
0.578125
 40
0.5859375
 40
0.59375
 40
0.6015625
 40
0.609375
 40
0.61328125
 40
0.6171875
 40
0.619140625
 40
0.62109375
 40
0.623046875
 40
0.6240234375
 40
0.6245117188
 40
0.625
 40
0.6254882812
 40
0.6259765625
 40
0.626953125
 40
0.62890625
 40
0.630859375
 40
0.6328125
 40
0.63671875
 40
0.640625
 40
0.6484375
 40
0.65625
 40
0.6640625
 40
0.671875
 40
0.67578125
 40
0.6796875
 40
0.681640625
 40
0.68359375
 40
0.685546875
 40
0.6865234375
 40
0.6870117188
 40
0.6875
 40
0.6879882812
 40
0.6884765625
 40
0.689453125
 40
0.69140625
 40
0.693359375
 40
0.6953125
 40
0.69921875
 40
0.703125
 40
0.7109375
 40
0.71875
 40
0.7265625
 40
0.734375
 40
0.73828125
 40
0.7421875
 40
0.744140625
 40
0.74609375
 40
0.748046875
 40
0.7490234375
 40
0.7495117188
 40
0.75
 40
0.7504882812
 40
0.7509765625
 40
0.751953125
 40
0.75390625
 40
0.755859375
 40
0.7578125
 40
0.76171875
 40
0.765625
 40
0.7734375
 40
0.78125
 40
0.7890625
 40
0.796875
 40
0.80078125
 40
0.8046875
 40
0.806640625
 40
0.80859375
 40
0.810546875
 40
0.8115234375
 40
0.8120117188
 40
0.8125
 40
0.8129882812
 40
0.8134765625
 40
0.814453125
 40
0.81640625
 40
0.818359375
 40
0.8203125
 40
0.82421875
 40
0.828125
 40
0.8359375
 40
0.84375
 40
0.8515625
 40
0.859375
 40
0.86328125
 40
0.8671875
 40
0.869140625
 40
0.87109375
 40
0.873046875
 40
0.8740234375
 40
0.8745117188
 40
0.875
 40
0.8754882812
 40
0.8759765625
 40
0.876953125
 40
0.87890625
 40
0.880859375
 40
0.8828125
 40
0.88671875
 40
0.890625
 40
0.8984375
 40
0.90625
 40
0.9140625
 40
0.921875
 40
0.92578125
 40
0.9296875
 40
0.931640625
 40
0.93359375
 40
0.935546875
 40
0.9365234375
 40
0.9370117188
 40
0.9375
 40
0.9379882812
 40
0.9384765625
 40
0.939453125
 40
0.94140625
 40
0.943359375
 40
0.9453125
 40
0.94921875
 40
0.953125
 40
0.9609375
 40
0.96875
 40
0.9765625
 40
0.984375
 40
1.0
 40
1.0
 40
1.0
 40
1.0
 10
10.3519376948
 20
9.214331273
 30
0.0
 10
10.3516617562
 20
9.2171646492
 30
0.0
 10
10.3512478485
 20
9.2214147134
 30
0.0
 10
10.3506959707
 20
9.2270814657
 30
0.0
 10
10.3502820645
 20
9.2313315301
 30
0.0
 10
10.34986815
 20
9.2355815935
 30
0.0
 10
10.3495232473
 20
9.2391233163
 30
0.0
 10
10.3492472667
 20
9.2419566871
 30
0.0
 10
10.3490749119
 20
9.2437275609
 30
0.0
 10
10.3489367233
 20
9.2451442208
 30
0.0
 10
10.3488339162
 20
9.2462068231
 30
0.0
 10
10.3487455893
 20
9.2470919834
 30
0.0
 10
10.3486889697
 20
9.2477122659
 30
0.0
 10
10.3486484817
 20
9.2480656665
 30
0.0
 10
10.3486410291
 20
9.2483336649
 30
0.0
 10
10.3485459901
 20
9.2485903949
 30
0.0
 10
10.3484498226
 20
9.2489366321
 30
0.0
 10
10.348267295
 20
9.2495407159
 30
0.0
 10
10.3480139832
 20
9.2504046501
 30
0.0
 10
10.3477068237
 20
9.2514409613
 30
0.0
 10
10.3472983903
 20
9.2528228528
 30
0.0
 10
10.3467874675
 20
9.2545501682
 30
0.0
 10
10.3459702041
 20
9.2573139002
 30
0.0
 10
10.3449485513
 20
9.2607685556
 30
0.0
 10
10.3437226015
 20
9.2649141468
 30
0.0
 10
10.3424966353
 20
9.2690597343
 30
0.0
 10
10.3414750233
 20
9.2725143992
 30
0.0
 10
10.3406576782
 20
9.2752781122
 30
0.0
 10
10.340146963
 20
9.2770054758
 30
0.0
 10
10.3397381036
 20
9.2783872682
 30
0.0
 10
10.3394322455
 20
9.2794238821
 30
0.0
 10
10.3391748619
 20
9.2802868694
 30
0.0
 10
10.3389996032
 20
9.2808926436
 30
0.0
 10
10.3388917892
 20
9.2812361722
 30
0.0
 10
10.3388325244
 20
9.2815012221
 30
0.0
 10
10.3386907098
 20
9.2817379723
 30
0.0
 10
10.338530418
 20
9.2820635105
 30
0.0
 10
10.3382364915
 20
9.282628603
 30
0.0
 10
10.3378236104
 20
9.2834382827
 30
0.0
 10
10.337325151
 20
9.284408869
 30
0.0
 10
10.336661587
 20
9.2857033436
 30
0.0
 10
10.3358317729
 20
9.2873213137
 30
0.0
 10
10.3345042712
 20
9.2899101348
 30
0.0
 10
10.3328448247
 20
9.2931461373
 30
0.0
 10
10.3308535205
 20
9.2970293514
 30
0.0
 10
10.3288622008
 20
9.3009125591
 30
0.0
 10
10.3272027933
 20
9.3041485775
 30
0.0
 10
10.3258752135
 20
9.3067373668
 30
0.0
 10
10.3250455979
 20
9.3083554178
 30
0.0
 10
10.3243816266
 20
9.3096497263
 30
0.0
 10
10.3238844116
 20
9.3106208202
 30
0.0
 10
10.3234676369
 20
9.3114289117
 30
0.0
 10
10.3231806613
 20
9.3119968393
 30
0.0
 10
10.3230092324
 20
9.3123178351
 30
0.0
 10
10.3229016273
 20
9.3125685379
 30
0.0
 10
10.3227138774
 20
9.3127811841
 30
0.0
 10
10.3224914997
 20
9.313077987
 30
0.0
 10
10.3220893137
 20
9.3135912072
 30
0.0
 10
10.3215215719
 20
9.3143276124
 30
0.0
 10
10.320837367
 20
9.3152099146
 30
0.0
 10
10.3199261118
 20
9.3163868009
 30
0.0
 10
10.3187866943
 20
9.3178577433
 30
0.0
 10
10.3169638212
 20
9.3202113437
 30
0.0
 10
10.3146851625
 20
9.3231533121
 30
0.0
 10
10.3119508024
 20
9.3266836895
 30
0.0
 10
10.3092164289
 20
9.3302140569
 30
0.0
 10
10.3069378036
 20
9.3331560502
 30
0.0
 10
10.3051148638
 20
9.3355096008
 30
0.0
 10
10.3039756156
 20
9.3369806699
 30
0.0
 10
10.3030640131
 20
9.3381572961
 30
0.0
 10
10.3023808694
 20
9.3390403933
 30
0.0
 10
10.3018098072
 20
9.339774311
 30
0.0
 10
10.3014135487
 20
9.3402919717
 30
0.0
 10
10.3011816737
 20
9.3405816598
 30
0.0
 10
10.3010230964
 20
9.3408161604
 30
0.0
 10
10.3008059239
 20
9.3409847818
 30
0.0
 10
10.3005367992
 20
9.3412325898
 30
0.0
 10
10.3000563082
 20
9.3416555472
 30
0.0
 10
10.2993748712
 20
9.3422653695
 30
0.0
 10
10.2985550157
 20
9.3429947604
 30
0.0
 10
10.2974626193
 20
9.3439681184
 30
0.0
 10
10.2960968691
 20
9.3451845294
 30
0.0
 10
10.2939118111
 20
9.3471309472
 30
0.0
 10
10.2911804395
 20
9.3495639141
 30
0.0
 10
10.2879028158
 20
9.3524834998
 30
0.0
 10
10.2846251818
 20
9.3554030723
 30
0.0
 10
10.2818938361
 20
9.357836072
 30
0.0
 10
10.2797087262
 20
9.3597824242
 30
0.0
 10
10.278343108
 20
9.3609990019
 30
0.0
 10
10.2772504406
 20
9.3619720178
 30
0.0
 10
10.2764314132
 20
9.3627024538
 30
0.0
 10
10.2757473851
 20
9.3633090063
 30
0.0
 10
10.2752715196
 20
9.363737801
 30
0.0
 10
10.2749949838
 20
9.3639762561
 30
0.0
 10
10.2748005759
 20
9.3641736065
 30
0.0
 10
10.2745564982
 20
9.3643002056
 30
0.0
 10
10.2742483867
 20
9.3644936833
 30
0.0
 10
10.2737011193
 20
9.3648207709
 30
0.0
 10
10.272923529
 20
9.3652940503
 30
0.0
 10
10.2719886142
 20
9.3658594125
 30
0.0
 10
10.270742692
 20
9.3666141275
 30
0.0
 10
10.2691850733
 20
9.3675572136
 30
0.0
 10
10.2666930042
 20
9.3690663233
 30
0.0
 10
10.2635778762
 20
9.370952651
 30
0.0
 10
10.2598397412
 20
9.3732162716
 30
0.0
 10
10.2561015981
 20
9.3754798777
 30
0.0
 10
10.2529864902
 20
9.3773662416
 30
0.0
 10
10.2504943808
 20
9.3788752789
 30
0.0
 10
10.2489368645
 20
9.3798185489
 30
0.0
 10
10.2476907321
 20
9.3805728864
 30
0.0
 10
10.2467564597
 20
9.3811394021
 30
0.0
 10
10.2459768595
 20
9.3816090725
 30
0.0
 10
10.2454331801
 20
9.3819426029
 30
0.0
 10
10.2451193197
 20
9.3821257575
 30
0.0
 10
10.2448929008
 20
9.3822840656
 30
0.0
 10
10.2446321694
 20
9.3823623226
 30
0.0
 10
10.2442964961
 20
9.3824945881
 30
0.0
 10
10.2437034915
 20
9.3827130429
 30
0.0
 10
10.2428592574
 20
9.3830319228
 30
0.0
 10
10.2418449286
 20
9.3834116674
 30
0.0
 10
10.2404929261
 20
9.3839190104
 30
0.0
 10
10.2388027738
 20
9.3845528409
 30
0.0
 10
10.2360986134
 20
9.3855671645
 30
0.0
 10
10.2327183842
 20
9.3868350016
 30
0.0
 10
10.2286621221
 20
9.3883564371
 30
0.0
 10
10.2246058543
 20
9.3898778566
 30
0.0
 10
10.2212256395
 20
9.3911457336
 30
0.0
 10
10.2185214503
 20
9.3921599776
 30
0.0
 10
10.2168313713
 20
9.3927940103
 30
0.0
 10
10.2154792182
 20
9.3933009383
 30
0.0
 10
10.2144653495
 20
9.3936819509
 30
0.0
 10
10.213619676
 20
9.3939968635
 30
0.0
 10
10.2130292409
 20
9.3942224006
 30
0.0
 10
10.2126894506
 20
9.3943433184
 30
0.0
 10
10.2124413654
 20
9.3944564317
 30
0.0
 10
10.2121674495
 20
9.3944838254
 30
0.0
 10
10.2118112384
 20
9.3945502503
 30
0.0
 10
10.2111836709
 20
9.3946525629
 30
0.0
 10
10.2102893406
 20
9.394806007
 30
0.0
 10
10.2092152049
 20
9.3949870225
 30
0.0
 10
10.207783352
 20
9.3952294653
 30
0.0
 10
10.2059934236
 20
9.3955321459
 30
0.0
 10
10.2031296009
 20
9.3960166434
 30
0.0
 10
10.1995498011
 20
9.3966221933
 30
0.0
 10
10.1952540503
 20
9.3973488862
 30
0.0
 10
10.1909582978
 20
9.3980755621
 30
0.0
 10
10.1873785022
 20
9.3986811545
 30
0.0
 10
10.184514671
 20
9.399165567
 30
0.0
 10
10.1827247643
 20
9.3994684638
 30
0.0
 10
10.1812928669
 20
9.399710463
 30
0.0
 10
10.1802188673
 20
9.3998928337
 30
0.0
 10
10.1793241109
 20
9.4000420377
 30
0.0
 10
10.1786973042
 20
9.4001519195
 30
0.0
 10
10.1783398741
 20
9.4002062167
 30
0.0
 10
10.1780697024
 20
9.4002708627
 30
0.0
 10
10.1778075546
 20
9.4002440622
 30
0.0
 10
10.1774552253
 20
9.4002402258
 30
0.0
 10
10.1768399532
 20
9.4002186503
 30
0.0
 10
10.1759603112
 20
9.4001955981
 30
0.0
 10
10.1749050327
 20
9.4001646097
 30
0.0
 10
10.1734978927
 20
9.4001244534
 30
0.0
 10
10.1717390027
 20
9.4000738604
 30
0.0
 10
10.1689247591
 20
9.3999931338
 30
0.0
 10
10.1654069614
 20
9.3998921489
 30
0.0
 10
10.1611856008
 20
9.3997710019
 30
0.0
 10
10.1569642426
 20
9.3996498377
 30
0.0
 10
10.1534464388
 20
9.399548896
 30
0.0
 10
10.1506322074
 20
9.399468083
 30
0.0
 10
10.1488732864
 20
9.3994177097
 30
0.0
 10
10.14746621
 20
9.3993771022
 30
0.0
 10
10.1464107374
 20
9.3993474925
 30
0.0
 10
10.1455317025
 20
9.3993201268
 30
0.0
 10
10.1449153467
 20
9.3993062516
 30
0.0
 10
10.1445647539
 20
9.3992900774
 30
0.0
 10
10.1442972723
 20
9.3993011747
 30
0.0
 10
10.1440471333
 20
9.3992234829
 30
0.0
 10
10.1437075653
 20
9.3991508644
 30
0.0
 10
10.1431161399
 20
9.3990093523
 30
0.0
 10
10.1422697729
 20
9.3988147363
 30
0.0
 10
10.1412547632
 20
9.398577968
 30
0.0
 10
10.1399011967
 20
9.3982634047
 30
0.0
 10
10.138209314
 20
9.3978698144
 30
0.0
 10
10.1355022594
 20
9.3972402859
 30
0.0
 10
10.1321184559
 20
9.3964533006
 30
0.0
 10
10.1280578845
 20
9.3955089524
 30
0.0
 10
10.1239973181
 20
9.3945645874
 30
0.0
 10
10.1206135022
 20
9.3937776439
 30
0.0
 10
10.1179064723
 20
9.393148032
 30
0.0
 10
10.1162145269
 20
9.3927546536
 30
0.0
 10
10.114861089
 20
9.3924396554
 30
0.0
 10
10.1138456864
 20
9.3922042157
 30
0.0
 10
10.1130005487
 20
9.3920054426
 30
0.0
 10
10.1124069287
 20
9.3918713516
 30
0.0
 10
10.1120708771
 20
9.3917868428
 30
0.0
 10
10.1118099372
 20
9.3917456742
 30
0.0
 10
10.1115830219
 20
9.3916195963
 30
0.0
 10
10.1112686
 20
9.3914811097
 30
0.0
 10
10.1107238913
 20
9.3912249589
 30
0.0
 10
10.1099428451
 20
9.3908662436
 30
0.0
 10
10.1090068271
 20
9.3904326972
 30
0.0
 10
10.1077583708
 20
9.3898557139
 30
0.0
 10
10.1061979484
 20
9.3891341156
 30
0.0
 10
10.1037011899
 20
9.3879797646
 30
0.0
 10
10.1005802705
 20
9.3865367546
 30
0.0
 10
10.0968351538
 20
9.3848051752
 30
0.0
 10
10.0930900445
 20
9.3830735796
 30
0.0
 10
10.0899691064
 20
9.38163061
 30
0.0
 10
10.0874723851
 20
9.3804761783
 30
0.0
 10
10.0859118681
 20
9.379754785
 30
0.0
 10
10.0846636062
 20
9.3791773809
 30
0.0
 10
10.0837269943
 20
9.3787451202
 30
0.0
 10
10.0829478062
 20
9.3783823823
 30
0.0
 10
10.0823997804
 20
9.3781334124
 30
0.0
 10
10.0820906733
 20
9.3779834202
 30
0.0
 10
10.0818474329
 20
9.3778926839
 30
0.0
 10
10.0816478072
 20
9.3777187781
 30
0.0
 10
10.0813664262
 20
9.3775159142
 30
0.0
 10
10.0808810978
 20
9.3771473859
 30
0.0
 10
10.0801840656
 20
9.3766279834
 30
0.0
 10
10.0793492132
 20
9.3760016757
 30
0.0
 10
10.0782355226
 20
9.3751676553
 30
0.0
 10
10.0768435991
 20
9.374124768
 30
0.0
 10
10.0746164153
 20
9.3724563506
 30
0.0
 10
10.0718324725
 20
9.370370759
 30
0.0
 10
10.0684917236
 20
9.3678680806
 30
0.0
 10
10.0651509856
 20
9.3653653881
 30
0.0
 10
10.0623670155
 20
9.3632798317
 30
0.0
 10
10.0601398863
 20
9.3616113439
 30
0.0
 10
10.0587478242
 20
9.3605686355
 30
0.0
 10
10.057634418
 20
9.359734248
 30
0.0
 10
10.0567986969
 20
9.3591090618
 30
0.0
 10
10.0561043825
 20
9.3585861504
 30
0.0
 10
10.0556142024
 20
9.358223886
 30
0.0
 10
10.0553405949
 20
9.3580109857
 30
0.0
 10
10.0551170917
 20
9.3578679085
 30
0.0
 10
10.0549635312
 20
9.3576613854
 30
0.0
 10
10.0547343871
 20
9.3574081519
 30
0.0
 10
10.0543447519
 20
9.3569546822
 30
0.0
 10
10.0537821874
 20
9.3563122592
 30
0.0
 10
10.0531096537
 20
9.355539044
 30
0.0
 10
10.0522120536
 20
9.3545088965
 30
0.0
 10
10.0510903577
 20
9.3532209361
 30
0.0
 10
10.0492954742
 20
9.3511603537
 30
0.0
 10
10.0470519286
 20
9.3485845725
 30
0.0
 10
10.0443596469
 20
9.3454936592
 30
0.0
 10
10.041667379
 20
9.3424027346
 30
0.0
 10
10.0394237988
 20
9.3398269817
 30
0.0
 10
10.0376289844
 20
9.3377663426
 30
0.0
 10
10.0365071127
 20
9.3364785265
 30
0.0
 10
10.0356098735
 20
9.3354480828
 30
0.0
 10
10.0349362373
 20
9.3346757723
 30
0.0
 10
10.0343771223
 20
9.334030519
 30
0.0
 10
10.033981329
 20
9.3335821018
 30
0.0
 10
10.0337620518
 20
9.3333207729
 30
0.0
 10
10.0335781835
 20
9.3331391164
 30
0.0
 10
10.0334685113
 20
9.3329026444
 30
0.0
 10
10.0332964012
 20
9.3326064688
 30
0.0
 10
10.0330072668
 20
9.3320792529
 30
0.0
 10
10.0325879134
 20
9.3313307449
 30
0.0
 10
10.0320873877
 20
9.3304305416
 30
0.0
 10
10.0314190777
 20
9.329230967
 30
0.0
 10
10.0305840129
 20
9.3277312602
 30
0.0
 10
10.0292477288
 20
9.3253318627
 30
0.0
 10
10.0275774359
 20
9.3223325698
 30
0.0
 10
10.0255730559
 20
9.3187334391
 30
0.0
 10
10.0235686908
 20
9.3151342992
 30
0.0
 10
10.0218983604
 20
9.3121350291
 30
0.0
 10
10.0205621515
 20
9.3097355861
 30
0.0
 10
10.0197268956
 20
9.308235995
 30
0.0
 10
10.0190589777
 20
9.3070361829
 30
0.0
 10
10.018557254
 20
9.3061367051
 30
0.0
 10
10.0181416491
 20
9.3053859272
 30
0.0
 10
10.017845823
 20
9.3048627634
 30
0.0
 10
10.0176844346
 20
9.3045600953
 30
0.0
 10
10.0175418288
 20
9.3043435662
 30
0.0
 10
10.0174816535
 20
9.3040870079
 30
0.0
 10
10.0173726671
 20
9.3037588929
 30
0.0
 10
10.0171953373
 20
9.3031781861
 30
0.0
 10
10.0169350052
 20
9.3023520062
 30
0.0
 10
10.0166256046
 20
9.3013591344
 30
0.0
 10
10.0162120233
 20
9.3000358139
 30
0.0
 10
10.0156954052
 20
9.2983814891
 30
0.0
 10
10.0148686158
 20
9.2957346668
 30
0.0
 10
10.0138351983
 20
9.2924261053
 30
0.0
 10
10.0125950656
 20
9.2884558467
 30
0.0
 10
10.0113549492
 20
9.2844855812
 30
0.0
 10
10.0103214909
 20
9.281177037
 30
0.0
 10
10.0094947831
 20
9.2785301802
 30
0.0
 10
10.0089779577
 20
9.2768759432
 30
0.0
 10
10.0085648019
 20
9.2755524425
 30
0.0
 10
10.0082541013
 20
9.274560121
 30
0.0
 10
10.0079978364
 20
9.2737322196
 30
0.0
 10
10.0078132461
 20
9.2731545859
 30
0.0
 10
10.0077158928
 20
9.272821547
 30
0.0
 10
10.0076199842
 20
9.2725801131
 30
0.0
 10
10.0076115867
 20
9.2723067794
 30
0.0
 10
10.0075698651
 20
9.2719534615
 30
0.0
 10
10.0075110745
 20
9.2713299709
 30
0.0
 10
10.0074196524
 20
9.2704419804
 30
0.0
 10
10.0073131285
 20
9.2693752316
 30
0.0
 10
10.0071699851
 20
9.2679533052
 30
0.0
 10
10.0069914363
 20
9.2661757584
 30
0.0
 10
10.0067055457
 20
9.263331761
 30
0.0
 10
10.0063482553
 20
9.2597767377
 30
0.0
 10
10.0059194756
 20
9.2555107211
 30
0.0
 10
10.0054907042
 20
9.2512447015
 30
0.0
 10
10.0049190062
 20
9.2455566765
 30
0.0
 10
10.0044902333
 20
9.2412906574
 30
0.0
 10
10.0042043845
 20
9.2384466448
 30
0.0
  0
ENDSEC
  0
SECTION
  2
OBJECTS
  0
DICTIONARY
  5
C
100
AcDbDictionary
280
0
281
1
  3
ACAD_GROUP
350
D
  3
ACAD_MLINESTYLE
350
17
  3
ACAD_LAYOUT
350
1A
  3
ACAD_PLOTSETTINGS
350
19
  3
ACAD_PLOTSTYLENAME
350
E
  3
ACAD_IMAGE_DICT
350
       36C
  3
ACAD_IMAGE_VARS
350
       36D
  3
ACAD_TABLESTYLE
350
       36E
  0
IMAGEDEF_REACTOR
  5
36B
100
AcDbRasterImageDefReactor
 90
2
330
28A
  0
DICTIONARY
  5
D
102
{ACAD_REACTORS
330
C
102
}
100
AcDbDictionary
280
0
281
1
  0
ACDBDICTIONARYWDFLT
  5
E
102
{ACAD_REACTORS
330
C
102
}
100
AcDbDictionary
281
1
  3
Normal
350
F
100
AcDbDictionaryWithDefault
340
F
  0
DICTIONARY
  5
36C
330
C
100
AcDbDictionary
281
1
  3
H7D_assy_2_img_1
350
       371
  0
RASTERVARIABLES
  5
36D
330
C
100
AcDbRasterVariables
 90
0
 70
0
 71
1
 72
5
  0
DICTIONARY
  5
17
102
{ACAD_REACTORS
330
C
102
}
100
AcDbDictionary
280
0
281
1
  3
Standard
350
18
  0
DICTIONARY
  5
36E
330
C
100
AcDbDictionary
281
1
  3
Standard
350
       372
  3
Standard1
350
       373
  0
DICTIONARY
  5
19
102
{ACAD_REACTORS
330
C
102
}
100
AcDbDictionary
281
1
  0
DICTIONARY
  5
1A
102
{ACAD_REACTORS
330
C
102
}
100
AcDbDictionary
281
1
  3
Model
350
36F
  3
Layout1
350
370
  0
ACDBPLACEHOLDER
  5
F
102
{ACAD_REACTORS
330
E
102
}
  0
MLINESTYLE
  5
18
102
{ACAD_REACTORS
330
17
102
}
100
AcDbMlineStyle
  2
STANDARD
 70
0
  3

 62
256
 51
90.0
 52
90.0
 71
2
 49
0.5
 62
256
  6
BYLAYER
 49
-0.5
 62
256
  6
BYLAYER
  0
LAYOUT
  5
36F
102
{ACAD_REACTORS
330
1A
102
}
100
AcDbPlotSettings
  1

  2
none_device
  4
ANSI_C_(22.00_x_17.00_Inches)
  6

 40
0.0
 41
0.0
 42
0.0
 43
0.0
 44
558.8
 45
431.8
 46
0.0
 47
0.0
 48
0.0
 49
0.0
140
0.0
141
0.0
142
1.0
143
1.0
 70
1024
 72
0
 73
0
 74
0
  7

 75
0
147
1.0
148
0.0
149
0.0
100
AcDbLayout
  1
Model
 70
0
 71
0
 10
0.0
 20
0.0
 11
22.0
 21
17.0
 12
0.0
 22
0.0
 32
0.0
 14
0.0
 24
0.0
 34
0.0
 15
0.0
 25
0.0
 35
0.0
146
0.0
 13
0.0
 23
0.0
 33
0.0
 16
1.0
 26
0.0
 36
0.0
 17
0.0
 27
1.0
 37
0.0
 76
0
330
204
345
0
346
0
  0
LAYOUT
  5
370
102
{ACAD_REACTORS
330
1A
102
}
100
AcDbPlotSettings
  1

  2
none_device
  4
ANSI_C_(22.00_x_17.00_Inches)
  6

 40
0.0
 41
0.0
 42
0.0
 43
0.0
 44
558.8
 45
431.8
 46
0.0
 47
0.0
 48
0.0
 49
0.0
140
0.0
141
0.0
142
1.0
143
1.0
 70
0
 72
0
 73
0
 74
0
  7

 75
0
147
1.0
148
0.0
149
0.0
100
AcDbLayout
  1
Layout1
 70
0
 71
1
 10
0.0
 20
0.0
 11
22.0
 21
17.0
 12
0.0
 22
0.0
 32
0.0
 14
0.0
 24
0.0
 34
0.0
 15
0.0
 25
0.0
 35
0.0
146
0.0
 13
0.0
 23
0.0
 33
0.0
 16
1.0
 26
0.0
 36
0.0
 17
0.0
 27
1.0
 37
0.0
 76
0
330
205
345
0
346
0
  0
IMAGEDEF
  5
371
102
{ACAD_REACTORS
330
36C
330
36B
102
}
100
AcDbRasterImageDef
 90
0
  1
H7D_assy_2_img_1.png
 10
369.0
 20
92.0
 11
0.0066666667
 21
0.0066666667
280
1
281
0
  0
TABLESTYLE
  5
372
102
{ACAD_REACTORS
330
36E
330
28D
330
28E
102
}
330
36E
100
AcDbTableStyle
  3
Standard
 70
0
 71
0
 40
0.06
 41
0.06
280
1
281
1
  7
Standard
140
0.18
170
1
 62
0
 63
7
283
0
  7
Standard
140
0.18
170
1
 62
0
 63
7
283
0
  7
Standard
140
0.18
170
1
 62
0
 63
7
283
0
  0
TABLESTYLE
  5
373
102
{ACAD_REACTORS
330
36E
330
28C
102
}
330
36E
100
AcDbTableStyle
  3
Standard1
 70
1
 71
0
 40
0.06
 41
0.06
280
1
281
1
  7
Standard
140
0.18
170
1
 62
0
 63
7
283
0
  7
Standard
140
0.18
170
1
 62
0
 63
7
283
0
  7
Standard
140
0.18
170
1
 62
0
 63
7
283
0
  0
ENDSEC
  0
EOF
