999
DXF file: H6Y_assy_2.dxf
999
Pro/ENGINEER 2014200 by Parametric Technology Corporation
  0
SECTION
  2
HEADER
  9
$ACADVER
  1
AC1021
  9
$DWGCODEPAGE
  3
ANSI_1252
  9
$EXTMAX
 10
22.0
 20
17.0
 30
0.0
  9
$EXTMIN
 10
0.0
 20
0.0
 30
0.0
  9
$LIMMIN
 10
0.0
 20
0.0
  9
$LIMMAX
 10
22.0
 20
17.0
  9
$VIEWCTR
 10
11.0
 20
8.5
  9
$VIEWSIZE
 40
17.0
  9
$CLAYER
  8
0
  9
$LTSCALE
 40
1.21
  9
$CELTYPE
  6
BYLAYER
  9
$DIMSCALE
 40
1.0
  9
$DIMASZ
 40
0.1875
  9
$DIMEXO
 40
0.0625
  9
$DIMDLI
 40
0.836
  9
$DIMEXE
 40
0.125
  9
$DIMCEN
 40
0.198
  9
$DIMLFAC
 40
1.0
  9
$DIMBLK
  1
_FILLED
  9
$DIMTXT
 40
0.1
  9
$DIMTOL
 70
0
  9
$DIMLIM
 70
0
  9
$DIMTFAC
 40
1.0
  9
$DIMGAP
 40
0.09
  9
$DIMDSEP
 70
46
  9
$AUNITS
 70
0
  9
$PDMODE
 70
3
  9
$PDSIZE
 40
0.3125
  9
$HANDSEED
  5
3A5
  9
$TILEMODE
 70
1
  9
$MEASUREMENT
 70
0
  9
$INSUNITS
 70
1
  0
ENDSEC
  0
SECTION
  2
CLASSES
  0
CLASS
  1
ACDBDICTIONARYWDFLT
  2
AcDbDictionaryWithDefault
  3
AutoCAD 2000
 90
0
 91
1
280
0
281
0
  0
CLASS
  1
ACDBPLACEHOLDER
  2
AcDbPlaceHolder
  3
AutoCAD 2000
 90
0
 91
1
280
0
281
0
  0
CLASS
  1
LAYOUT
  2
AcDbLayout
  3
AutoCAD 2000
 90
0
 91
0
280
0
281
0
  0
CLASS
  1
RASTERVARIABLES
  2
AcDbRasterVariables
  3
ISM
 90
0
 91
1
280
0
281
0
  0
CLASS
  1
IMAGEDEF
  2
AcDbRasterImageDef
  3
ISM
 90
0
 91
1
280
0
281
0
  0
CLASS
  1
IMAGEDEF_REACTOR
  2
AcDbRasterImageDefReactor
  3
ISM
 90
0
 91
1
280
0
281
0
  0
CLASS
  1
IMAGE
  2
AcDbRasterImage
  3
ISM
 90
127
 91
1
280
0
281
1
  0
CLASS
  1
TABLESTYLE
  2
AcDbTableStyle
  3
ObjectDBX Classes
 90
2047
 91
1
280
0
281
0
  0
CLASS
  1
ACAD_TABLE
  2
AcDbTable
  3
ObjectDBX Classes
 90
1025
 91
3
280
0
281
1
  0
ENDSEC
  0
SECTION
  2
TABLES
  0
TABLE
  2
VPORT
  5
8
100
AcDbSymbolTable
 70
2
  0
VPORT
  5
1F4
100
AcDbSymbolTableRecord
100
AcDbViewportTableRecord
  2
*ACTIVE
 70
0
 10
0.0
 20
0.0
 11
1.0
 21
1.0
 12
11.0
 22
8.5
 13
0.0
 23
0.0
 14
1.0
 24
1.0
 15
0.0
 25
0.0
 16
0.0
 26
0.0
 36
1.0
 17
0.0
 27
0.0
 37
0.0
 40
17.0
 41
1.2941176471
 42
50.0
 43
0.0
 44
0.0
 50
0.0
 51
0.0
 71
0
 72
100
 73
1
 74
1
 75
0
 76
0
 77
0
 78
0
  0
ENDTAB
  0
TABLE
  2
LTYPE
  5
5
100
AcDbSymbolTable
 70
6
  0
LTYPE
  5
14
100
AcDbSymbolTableRecord
100
AcDbLinetypeTableRecord
  2
BYBLOCK
 70
0
  3

 72
65
 73
0
 40
0.0
  0
LTYPE
  5
15
100
AcDbSymbolTableRecord
100
AcDbLinetypeTableRecord
  2
BYLAYER
 70
0
  3

 72
65
 73
0
 40
0.0
  0
LTYPE
  5
16
100
AcDbSymbolTableRecord
100
AcDbLinetypeTableRecord
  2
CONTINUOUS
 70
64
  3
Solid line
 72
65
 73
0
 40
0.0
  0
LTYPE
  5
1F5
100
AcDbSymbolTableRecord
100
AcDbLinetypeTableRecord
  2
CENTER
 70
64
  3
____ _ ____ _ ____ _ ____ _ ____ _ ____ _ ____
 72
65
 73
4
 40
0.6
 49
0.375
 74
0
 49
-0.075
 74
0
 49
0.075
 74
0
 49
-0.075
 74
0
  0
LTYPE
  5
1F6
100
AcDbSymbolTableRecord
100
AcDbLinetypeTableRecord
  2
HIDDEN
 70
64
  3
- - - - - - - - - - - - - - - - - - - -
 72
65
 73
2
 40
0.2
 49
0.1
 74
0
 49
-0.1
 74
0
  0
LTYPE
  5
1F7
100
AcDbSymbolTableRecord
100
AcDbLinetypeTableRecord
  2
PHANTOM
 70
64
  3
_____ _ _ _____ _ _ _____ _ _ _____
 72
65
 73
6
 40
0.8
 49
0.45
 74
0
 49
-0.05
 74
0
 49
0.1
 74
0
 49
-0.05
 74
0
 49
0.1
 74
0
 49
-0.05
 74
0
  0
LTYPE
  5
1F8
100
AcDbSymbolTableRecord
100
AcDbLinetypeTableRecord
  2
DOT
 70
64
  3
. . . . . . . . . . . . . . . . . . . .
 72
65
 73
2
 40
0.2
 49
0.1
 74
0
 49
-0.1
 74
0
  0
LTYPE
  5
1F9
100
AcDbSymbolTableRecord
100
AcDbLinetypeTableRecord
  2
DASHED
 70
64
  3
- - - - - - - - - - - - - - - - - - - -
 72
65
 73
2
 40
0.2
 49
0.1
 74
0
 49
-0.1
 74
0
  0
ENDTAB
  0
TABLE
  2
LAYER
  5
2
100
AcDbSymbolTable
 70
36
  0
LAYER
  5
10
100
AcDbSymbolTableRecord
100
AcDbLayerTableRecord
  2
0
 70
0
 62
7
  6
CONTINUOUS
370
-3
390
F
  0
LAYER
  5
1FA
100
AcDbSymbolTableRecord
100
AcDbLayerTableRecord
  2
DEFAULT_1
 70
0
 62
7
  6
CENTER
370
-3
390
F
  0
LAYER
  5
1FB
100
AcDbSymbolTableRecord
100
AcDbLayerTableRecord
  2
DEFAULT_2
 70
0
 62
8
  6
HIDDEN
370
-3
390
F
  0
LAYER
  5
1FC
100
AcDbSymbolTableRecord
100
AcDbLayerTableRecord
  2
DEFAULT_3
 70
0
 62
7
  6
PHANTOM
370
-3
390
F
  0
LAYER
  5
1FD
100
AcDbSymbolTableRecord
100
AcDbLayerTableRecord
  2
DATUM_PLANES
 70
0
 62
7
  6
CONTINUOUS
370
-3
390
F
  0
LAYER
  5
1FE
100
AcDbSymbolTableRecord
100
AcDbLayerTableRecord
  2
PORT_AREAS
 70
0
 62
7
  6
CONTINUOUS
370
-3
390
F
  0
LAYER
  5
1FF
100
AcDbSymbolTableRecord
100
AcDbLayerTableRecord
  2
SUNNBOMCOSMETIC
 70
0
 62
7
  6
CONTINUOUS
370
-3
390
F
  0
LAYER
  5
200
100
AcDbSymbolTableRecord
100
AcDbLayerTableRecord
  2
SUNNBOMSTAMPING
 70
0
 62
7
  6
CONTINUOUS
370
-3
390
F
  0
LAYER
  5
201
100
AcDbSymbolTableRecord
100
AcDbLayerTableRecord
  2
THREADS
 70
0
 62
7
  6
CONTINUOUS
370
-3
390
F
  0
ENDTAB
  0
TABLE
  2
STYLE
  5
3
100
AcDbSymbolTable
 70
1
  0
STYLE
  5
11
100
AcDbSymbolTableRecord
100
AcDbTextStyleTableRecord
  2
STANDARD
 70
0
 40
0.0
 41
0.8
 50
0.0
 71
0
 42
0.2
  3
txt
  4

  0
STYLE
  5
202
100
AcDbSymbolTableRecord
100
AcDbTextStyleTableRecord
  2
TEXTSTYLE_1
 70
0
 40
0.0
 41
0.8
 50
0.0
 71
0
 42
0.2
  3
gdt
  4

  0
ENDTAB
  0
TABLE
  2
VIEW
  5
6
100
AcDbSymbolTable
 70
0
  0
ENDTAB
  0
TABLE
  2
UCS
  5
7
100
AcDbSymbolTable
 70
0
  0
ENDTAB
  0
TABLE
  2
APPID
  5
9
100
AcDbSymbolTable
 70
1
  0
APPID
  5
203
100
AcDbSymbolTableRecord
100
AcDbRegAppTableRecord
  2
ACAD
 70
0
  0
ENDTAB
  0
TABLE
  2
BLOCK_RECORD
  5
1
100
AcDbSymbolTable
 70
0
  0
BLOCK_RECORD
  5
204
100
AcDbSymbolTableRecord
100
AcDbBlockTableRecord
  2
*Model_Space
  0
BLOCK_RECORD
  5
205
100
AcDbSymbolTableRecord
100
AcDbBlockTableRecord
  2
*Paper_Space
  0
BLOCK_RECORD
  5
206
100
AcDbSymbolTableRecord
100
AcDbBlockTableRecord
  2
SUN_FIRST_THIRD_ANGLE_BL0
  0
BLOCK_RECORD
  5
207
100
AcDbSymbolTableRecord
100
AcDbBlockTableRecord
  2
*T1
  0
BLOCK_RECORD
  5
208
100
AcDbSymbolTableRecord
100
AcDbBlockTableRecord
  2
*T2
  0
BLOCK_RECORD
  5
209
100
AcDbSymbolTableRecord
100
AcDbBlockTableRecord
  2
*T3
  0
ENDTAB
  0
TABLE
  2
DIMSTYLE
  5
A
100
AcDbSymbolTable
 70
1
100
AcDbDimStyleTable
 71
0
  0
DIMSTYLE
105
20A
100
AcDbSymbolTableRecord
100
AcDbDimStyleTableRecord
  2
STANDARD
 70
0
  3

  4

 40
1.0
 41
0.1875
 42
0.0625
 43
0.38
 44
0.125
 45
0.0
 46
0.0
 47
0.001
 48
0.001
140
0.1
141
0.09
142
0.0
143
25.4
144
1.0
145
0.0
146
1.0
147
0.09
 71
0.0
 72
0.0
 73
1
 74
1
 75
0
 76
0
 77
0
 78
4
170
0
171
2
172
0
173
0
174
0
175
0
176
0
177
0
178
0
270
2
271
3
272
3
273
2
274
2
275
0
280
0
281
0
282
0
283
1
284
4
285
0
286
0
287
3
288
0
340
11
278
46
  0
ENDTAB
  0
ENDSEC
  0
SECTION
  2
BLOCKS
  0
BLOCK
  5
20
100
AcDbEntity
  8
0
100
AcDbBlockBegin
  2
*Model_Space
 70
0
 10
0.0
 20
0.0
 30
0.0
  3
*Model_Space
  1

  0
ENDBLK
  5
21
100
AcDbEntity
  8
0
100
AcDbBlockEnd
  0
BLOCK
  5
1C
100
AcDbEntity
  8
0
100
AcDbBlockBegin
  2
*Paper_Space
 70
0
 10
0.0
 20
0.0
 30
0.0
  3
*Paper_Space
  1

  0
ENDBLK
  5
1D
100
AcDbEntity
  8
0
100
AcDbBlockEnd
  0
BLOCK
  5
20B
100
AcDbEntity
  8
0
100
AcDbBlockBegin
 62
2
  6
CONTINUOUS
  2
SUN_FIRST_THIRD_ANGLE_BL0
 70
64
 10
20.4816717061
 20
1.2289683772
  3
SUN_FIRST_THIRD_ANGLE_BL0
  1

  0
TEXT
  5
20C
100
AcDbEntity
  8
0
100
AcDbText
 62
2
  6
CONTINUOUS
 10
19.4750896608
 20
1.4136269581
  7
STANDARD
 40
0.08
  1
FIRST ANGLE
 41
0.8
 72
0
100
AcDbText
  0
TEXT
  5
20D
100
AcDbEntity
  8
0
100
AcDbText
 62
2
  6
CONTINUOUS
 10
20.7842537513
 20
1.4047600029
  7
STANDARD
 40
0.08
  1
THIRD ANGLE
 41
0.8
 72
0
100
AcDbText
  0
LINE
  5
20E
100
AcDbEntity
  8
0
100
AcDbLine
 62
7
  6
CONTINUOUS
 10
19.4767170086
 20
1.1727031207
 11
19.6334271527
 21
1.1717972817
  0
LINE
  5
20F
100
AcDbEntity
  8
0
100
AcDbLine
 62
7
  6
CONTINUOUS
 10
19.6596964832
 20
1.1717972817
 11
19.6950230232
 21
1.171593082
  0
LINE
  5
210
100
AcDbEntity
  8
0
100
AcDbLine
 62
7
  6
CONTINUOUS
 10
19.7194818561
 20
1.1708914427
 11
19.8852396156
 21
1.1699333054
  0
LINE
  5
211
100
AcDbEntity
  8
0
100
AcDbLine
 62
7
  6
CONTINUOUS
 10
19.4758111696
 20
1.2723454088
 11
19.88525039
 21
1.3511534004
  0
LINE
  5
212
100
AcDbEntity
  8
0
100
AcDbLine
 62
7
  6
CONTINUOUS
 10
19.88525039
 20
1.3511534004
 11
19.8831348489
 21
0.9851647912
  0
LINE
  5
213
100
AcDbEntity
  8
0
100
AcDbLine
 62
7
  6
CONTINUOUS
 10
19.8831348489
 20
0.9851647912
 11
19.4767170086
 21
1.0658141206
  0
LINE
  5
214
100
AcDbEntity
  8
0
100
AcDbLine
 62
7
  6
CONTINUOUS
 10
19.4767170086
 20
1.0658141206
 11
19.4779056764
 21
1.2714536432
  0
CIRCLE
  5
215
100
AcDbEntity
  8
0
100
AcDbCircle
 62
7
  6
CONTINUOUS
 10
20.2068232291
 20
1.1717972817
 40
0.175742101
  0
CIRCLE
  5
216
100
AcDbEntity
  8
0
100
AcDbCircle
 62
7
  6
CONTINUOUS
 10
20.2068232291
 20
1.1717972817
 40
0.1005522074
  0
LINE
  5
217
100
AcDbEntity
  8
0
100
AcDbLine
 62
7
  6
CONTINUOUS
 10
20.2077290681
 20
1.3756110529
 11
20.2071171714
 21
1.2379342989
  0
LINE
  5
218
100
AcDbEntity
  8
0
100
AcDbLine
 62
7
  6
CONTINUOUS
 10
20.2077290681
 20
1.2016899681
 11
20.2074674401
 21
1.1428236749
  0
LINE
  5
219
100
AcDbEntity
  8
0
100
AcDbLine
 62
7
  6
CONTINUOUS
 10
20.208634907
 20
1.101141841
 11
20.2080230104
 21
0.963465087
  0
LINE
  5
21A
100
AcDbEntity
  8
0
100
AcDbLine
 62
7
  6
CONTINUOUS
 10
20.0066328138
 20
1.1745147986
 11
20.1443095678
 21
1.1739029019
  0
LINE
  5
21B
100
AcDbEntity
  8
0
100
AcDbLine
 62
7
  6
CONTINUOUS
 10
20.1832714155
 20
1.1727031207
 11
20.238153505
 21
1.172335442
  0
LINE
  5
21C
100
AcDbEntity
  8
0
100
AcDbLine
 62
7
  6
CONTINUOUS
 10
20.2756669918
 20
1.1717972817
 11
20.407916871
 21
1.1712095044
  0
CIRCLE
  5
21D
100
AcDbEntity
  8
0
100
AcDbCircle
 62
7
  6
CONTINUOUS
 10
20.7509457401
 20
1.1693297793
 40
0.1722024983
  0
CIRCLE
  5
21E
100
AcDbEntity
  8
0
100
AcDbCircle
 62
7
  6
CONTINUOUS
 10
20.7509457401
 20
1.1693297793
 40
0.0985164967
  0
LINE
  5
21F
100
AcDbEntity
  8
0
100
AcDbLine
 62
7
  6
CONTINUOUS
 10
20.7169767782
 20
1.170462078
 11
20.7825395137
 21
1.1682766535
  0
LINE
  5
220
100
AcDbEntity
  8
0
100
AcDbLine
 62
7
  6
CONTINUOUS
 10
20.8177513651
 20
1.1693297793
 11
20.947965719
 21
1.1693297793
  0
LINE
  5
221
100
AcDbEntity
  8
0
100
AcDbLine
 62
7
  6
CONTINUOUS
 10
20.6875370113
 20
1.170462078
 11
20.5573226574
 21
1.170462078
  0
LINE
  5
222
100
AcDbEntity
  8
0
100
AcDbLine
 62
7
  6
CONTINUOUS
 10
20.7486811426
 20
1.1987695462
 11
20.7486811426
 21
1.1432869085
  0
LINE
  5
223
100
AcDbEntity
  8
0
100
AcDbLine
 62
7
  6
CONTINUOUS
 10
20.7498134414
 20
1.1059210505
 11
20.7498134414
 21
0.9757066966
  0
LINE
  5
224
100
AcDbEntity
  8
0
100
AcDbLine
 62
7
  6
CONTINUOUS
 10
20.7486811426
 20
1.2338708068
 11
20.7486811426
 21
1.3640851607
  0
LINE
  5
225
100
AcDbEntity
  8
0
100
AcDbLine
 62
7
  6
CONTINUOUS
 10
21.0702539817
 20
1.2701043662
 11
21.4790138229
 21
1.3448360823
  0
LINE
  5
226
100
AcDbEntity
  8
0
100
AcDbLine
 62
7
  6
CONTINUOUS
 10
21.4790138229
 20
1.3448360823
 11
21.4790138229
 21
0.9779712941
  0
LINE
  5
227
100
AcDbEntity
  8
0
100
AcDbLine
 62
7
  6
CONTINUOUS
 10
21.4790138229
 20
0.9779712941
 11
21.069121683
 21
1.0617614
  0
LINE
  5
228
100
AcDbEntity
  8
0
100
AcDbLine
 62
7
  6
CONTINUOUS
 10
21.0702539817
 20
1.2701043662
 11
21.069121683
 21
1.0617614
  0
LINE
  5
229
100
AcDbEntity
  8
0
100
AcDbLine
 62
7
  6
CONTINUOUS
 10
21.4790138229
 20
1.1693297793
 11
21.3159628059
 21
1.1693297793
  0
LINE
  5
22A
100
AcDbEntity
  8
0
100
AcDbLine
 62
7
  6
CONTINUOUS
 10
21.2876553377
 20
1.1693297793
 11
21.2502894796
 21
1.1693297793
  0
LINE
  5
22B
100
AcDbEntity
  8
0
100
AcDbLine
 62
7
  6
CONTINUOUS
 10
21.2208497126
 20
1.1659328831
 11
21.0713862804
 21
1.1659328831
  0
LINE
  5
22C
100
AcDbEntity
  8
0
100
AcDbLine
 62
7
  6
CONTINUOUS
 10
20.4796138713
 20
1.5284908897
 11
20.4766766948
 21
0.9294458646
  0
ENDBLK
  5
22D
100
AcDbEntity
  8
0
  6
BYBLOCK
 62
0
100
AcDbBlockEnd
  0
BLOCK
  5
22E
100
AcDbEntity
  8
0
100
AcDbBlockBegin
  2
*T1
 70
1
 10
0.0
 20
0.0
  3
*T1
  1

  0
LINE
  5
22F
100
AcDbEntity
  8
0
100
AcDbLine
 62
2
  6
CONTINUOUS
 10
9.275
 20
0.0
 11
-0.0
 21
0.0
  0
LINE
  5
230
100
AcDbEntity
  8
0
100
AcDbLine
 62
2
  6
CONTINUOUS
 10
9.275
 20
0.0
 11
9.275
 21
1.25
  0
LINE
  5
231
100
AcDbEntity
  8
0
100
AcDbLine
 62
2
  6
CONTINUOUS
 10
9.275
 20
0.625
 11
-0.0
 21
0.625
  0
LINE
  5
232
100
AcDbEntity
  8
0
100
AcDbLine
 62
2
  6
CONTINUOUS
 10
9.275
 20
1.25
 11
-0.0
 21
1.25
  0
LINE
  5
233
100
AcDbEntity
  8
0
100
AcDbLine
 62
2
  6
CONTINUOUS
 10
6.8
 20
0.0
 11
6.8
 21
1.25
  0
LINE
  5
234
100
AcDbEntity
  8
0
100
AcDbLine
 62
2
  6
CONTINUOUS
 10
6.4
 20
0.0
 11
6.4
 21
0.625
  0
LINE
  5
235
100
AcDbEntity
  8
0
100
AcDbLine
 62
2
  6
CONTINUOUS
 10
5.9
 20
0.0
 11
5.9
 21
0.625
  0
LINE
  5
236
100
AcDbEntity
  8
0
100
AcDbLine
 62
2
  6
CONTINUOUS
 10
5.2
 20
0.0
 11
5.2
 21
0.625
  0
LINE
  5
237
100
AcDbEntity
  8
0
100
AcDbLine
 62
2
  6
CONTINUOUS
 10
4.1
 20
0.0
 11
4.1
 21
1.25
  0
LINE
  5
238
100
AcDbEntity
  8
0
100
AcDbLine
 62
2
  6
CONTINUOUS
 10
-0.0
 20
0.0
 11
-0.0
 21
1.25
  0
MTEXT
  5
239
100
AcDbEntity
  8
0
100
AcDbMText
 62
2
  6
CONTINUOUS
  7
STANDARD
 71
2
 72
1
 10
6.6
 20
0.325
 30
0.0
 11
1.0
 21
0.0
 31
0.0
 44
0.9
  1
2
 40
0.125
 41
0.2
  0
MTEXT
  5
23A
100
AcDbEntity
  8
0
100
AcDbMText
 62
2
  6
CONTINUOUS
  7
STANDARD
 71
2
 72
1
 10
6.15
 20
0.325
 30
0.0
 11
1.0
 21
0.0
 31
0.0
 44
0.9
  1
C
 40
0.125
 41
0.2
  0
MTEXT
  5
23B
100
AcDbEntity
  8
0
100
AcDbMText
 62
2
  6
CONTINUOUS
  7
STANDARD
 71
2
 72
1
 10
5.55
 20
0.325
 30
0.0
 11
1.0
 21
0.0
 31
0.0
 44
0.9
  1
1.000
 40
0.125
 41
1.0
  0
MTEXT
  5
23C
100
AcDbEntity
  8
0
100
AcDbMText
 62
2
  6
CONTINUOUS
  7
STANDARD
 71
2
 72
1
 10
4.65
 20
0.325
 30
0.0
 11
1.0
 21
0.0
 31
0.0
 44
0.9
  1
Jan-10-24
 40
0.125
 41
1.8
  0
MTEXT
  5
23D
100
AcDbEntity
  8
0
100
AcDbMText
 62
2
  6
CONTINUOUS
  7
STANDARD
 71
2
 72
1
 10
2.05
 20
0.4625
 30
0.0
 11
1.0
 21
0.0
 31
0.0
 44
0.9
  1
T-17A Line mount\P(See Technical Data for Body Features)
 40
0.125
 41
7.6
  0
MTEXT
  5
23E
100
AcDbEntity
  8
0
100
AcDbMText
 62
2
  6
CONTINUOUS
  7
STANDARD
 71
1
 72
1
 10
6.45
 20
0.5625
 30
0.0
 11
1.0
 21
0.0
 31
0.0
 44
0.9
  1
SHEET
 40
0.06
 41
0.48
  0
MTEXT
  5
23F
100
AcDbEntity
  8
0
100
AcDbMText
 62
2
  6
CONTINUOUS
  7
STANDARD
 71
1
 72
1
 10
5.95
 20
0.5625
 30
0.0
 11
1.0
 21
0.0
 31
0.0
 44
0.9
  1
DWG SIZE
 40
0.06
 41
0.768
  0
MTEXT
  5
240
100
AcDbEntity
  8
0
100
AcDbMText
 62
2
  6
CONTINUOUS
  7
STANDARD
 71
1
 72
1
 10
5.25
 20
0.5625
 30
0.0
 11
1.0
 21
0.0
 31
0.0
 44
0.9
  1
SCALE
 40
0.06
 41
0.48
  0
MTEXT
  5
241
100
AcDbEntity
  8
0
100
AcDbMText
 62
2
  6
CONTINUOUS
  7
STANDARD
 71
1
 72
1
 10
4.15
 20
0.5625
 30
0.0
 11
1.0
 21
0.0
 31
0.0
 44
0.9
  1
DATE
 40
0.06
 41
0.384
  0
MTEXT
  5
242
100
AcDbEntity
  8
0
100
AcDbMText
 62
2
  6
CONTINUOUS
  7
STANDARD
 71
1
 72
1
 10
0.05
 20
0.5625
 30
0.0
 11
1.0
 21
0.0
 31
0.0
 44
0.9
  1
DESCRIPTION
 40
0.06
 41
1.056
  0
MTEXT
  5
243
100
AcDbEntity
  8
0
100
AcDbMText
 62
2
  6
CONTINUOUS
  7
STANDARD
 71
2
 72
1
 10
5.45
 20
1.0375
 30
0.0
 11
1.0
 21
0.0
 31
0.0
 44
0.9
  1
ALL DIMENSIONS IN INCH\PVIEWS ARE THIRD ANGLE
 40
0.12
 41
4.224
  0
MTEXT
  5
244
100
AcDbEntity
  8
0
100
AcDbMText
 62
2
  6
CONTINUOUS
  7
STANDARD
 71
2
 72
1
 10
2.05
 20
0.95
 30
0.0
 11
1.0
 21
0.0
 31
0.0
 44
0.9
  1
H6Y
 40
0.125
 41
0.6
  0
MTEXT
  5
245
100
AcDbEntity
  8
0
100
AcDbMText
 62
2
  6
CONTINUOUS
  7
STANDARD
 71
1
 72
1
 10
0.05
 20
1.1875
 30
0.0
 11
1.0
 21
0.0
 31
0.0
 44
0.9
  1
MODEL
 40
0.06
 41
0.48
  0
ENDBLK
  5
246
100
AcDbEntity
  8
0
  6
BYBLOCK
 62
0
100
AcDbBlockEnd
  0
BLOCK
  5
247
100
AcDbEntity
  8
0
100
AcDbBlockBegin
  2
*T2
 70
1
 10
0.0
 20
0.0
  3
*T2
  1

  0
LINE
  5
248
100
AcDbEntity
  8
0
100
AcDbLine
 62
2
  6
CONTINUOUS
 10
0.0
 20
0.0
 11
9.055
 21
0.0
  0
LINE
  5
249
100
AcDbEntity
  8
0
100
AcDbLine
 62
2
  6
CONTINUOUS
 10
0.0
 20
0.0
 11
0.0
 21
-2.844
  0
LINE
  5
24A
100
AcDbEntity
  8
0
100
AcDbLine
 62
2
  6
CONTINUOUS
 10
0.0
 20
-0.344
 11
9.055
 21
-0.344
  0
LINE
  5
24B
100
AcDbEntity
  8
0
100
AcDbLine
 62
2
  6
CONTINUOUS
 10
0.0
 20
-0.594
 11
9.055
 21
-0.594
  0
LINE
  5
24C
100
AcDbEntity
  8
0
100
AcDbLine
 62
2
  6
CONTINUOUS
 10
0.0
 20
-0.844
 11
9.055
 21
-0.844
  0
LINE
  5
24D
100
AcDbEntity
  8
0
100
AcDbLine
 62
2
  6
CONTINUOUS
 10
0.0
 20
-1.094
 11
9.055
 21
-1.094
  0
LINE
  5
24E
100
AcDbEntity
  8
0
100
AcDbLine
 62
2
  6
CONTINUOUS
 10
0.0
 20
-1.344
 11
9.055
 21
-1.344
  0
LINE
  5
24F
100
AcDbEntity
  8
0
100
AcDbLine
 62
2
  6
CONTINUOUS
 10
0.0
 20
-1.594
 11
9.055
 21
-1.594
  0
LINE
  5
250
100
AcDbEntity
  8
0
100
AcDbLine
 62
2
  6
CONTINUOUS
 10
0.0
 20
-1.844
 11
9.055
 21
-1.844
  0
LINE
  5
251
100
AcDbEntity
  8
0
100
AcDbLine
 62
2
  6
CONTINUOUS
 10
0.0
 20
-2.094
 11
9.055
 21
-2.094
  0
LINE
  5
252
100
AcDbEntity
  8
0
100
AcDbLine
 62
2
  6
CONTINUOUS
 10
0.0
 20
-2.344
 11
9.055
 21
-2.344
  0
LINE
  5
253
100
AcDbEntity
  8
0
100
AcDbLine
 62
2
  6
CONTINUOUS
 10
0.0
 20
-2.594
 11
9.055
 21
-2.594
  0
LINE
  5
254
100
AcDbEntity
  8
0
100
AcDbLine
 62
2
  6
CONTINUOUS
 10
0.0
 20
-2.844
 11
9.055
 21
-2.844
  0
LINE
  5
255
100
AcDbEntity
  8
0
100
AcDbLine
 62
2
  6
CONTINUOUS
 10
3.055
 20
0.0
 11
3.055
 21
-2.844
  0
LINE
  5
256
100
AcDbEntity
  8
0
100
AcDbLine
 62
2
  6
CONTINUOUS
 10
9.055
 20
0.0
 11
9.055
 21
-2.844
  0
MTEXT
  5
257
100
AcDbEntity
  8
0
100
AcDbMText
 62
2
  6
CONTINUOUS
  7
STANDARD
 71
2
 72
1
 10
1.5275
 20
-0.0995
 30
0.0
 11
1.0
 21
0.0
 31
0.0
 44
0.9
  1
Technical Data
 40
0.145
 41
3.248
  0
MTEXT
  5
258
100
AcDbEntity
  8
0
100
AcDbMText
 62
2
  6
CONTINUOUS
  7
STANDARD
 71
2
 72
1
 10
4.555
 20
-0.0995
 30
0.0
 11
1.0
 21
0.0
 31
0.0
 44
0.9
  1
U.S. Units
 40
0.145
 41
2.32
  0
MTEXT
  5
259
100
AcDbEntity
  8
0
100
AcDbMText
 62
2
  6
CONTINUOUS
  7
STANDARD
 71
2
 72
1
 10
7.555
 20
-0.0995
 30
0.0
 11
1.0
 21
0.0
 31
0.0
 44
0.9
  1
Metric Units
 40
0.145
 41
2.784
  0
MTEXT
  5
25A
100
AcDbEntity
  8
0
100
AcDbMText
 62
2
  6
CONTINUOUS
  7
STANDARD
 71
2
 72
1
 10
1.5275
 20
-0.4065
 30
0.0
 11
1.0
 21
0.0
 31
0.0
 44
0.9
  1
Cavity
 40
0.125
 41
1.2
  0
MTEXT
  5
25B
100
AcDbEntity
  8
0
100
AcDbMText
 62
2
  6
CONTINUOUS
  7
STANDARD
 71
2
 72
1
 10
6.055
 20
-0.4065
 30
0.0
 11
1.0
 21
0.0
 31
0.0
 44
0.9
  1
T-17A
 40
0.125
 41
1.0
  0
MTEXT
  5
25C
100
AcDbEntity
  8
0
100
AcDbMText
 62
2
  6
CONTINUOUS
  7
STANDARD
 71
2
 72
1
 10
1.5275
 20
-0.6565
 30
0.0
 11
1.0
 21
0.0
 31
0.0
 44
0.9
  1
Body Features
 40
0.125
 41
2.6
  0
MTEXT
  5
25D
100
AcDbEntity
  8
0
100
AcDbMText
 62
2
  6
CONTINUOUS
  7
STANDARD
 71
2
 72
1
 10
6.055
 20
-0.6565
 30
0.0
 11
1.0
 21
0.0
 31
0.0
 44
0.9
  1
Ninety degree with reverse flow check - sequence
 40
0.125
 41
9.6
  0
MTEXT
  5
25E
100
AcDbEntity
  8
0
100
AcDbMText
 62
2
  6
CONTINUOUS
  7
STANDARD
 71
2
 72
1
 10
1.5275
 20
-0.9065
 30
0.0
 11
1.0
 21
0.0
 31
0.0
 44
0.9
  1
Body Type
 40
0.125
 41
1.8
  0
MTEXT
  5
25F
100
AcDbEntity
  8
0
100
AcDbMText
 62
2
  6
CONTINUOUS
  7
STANDARD
 71
2
 72
1
 10
6.055
 20
-0.9065
 30
0.0
 11
1.0
 21
0.0
 31
0.0
 44
0.9
  1
Line mount
 40
0.125
 41
2.0
  0
MTEXT
  5
260
100
AcDbEntity
  8
0
100
AcDbMText
 62
2
  6
CONTINUOUS
  7
STANDARD
 71
2
 72
1
 10
1.5275
 20
-1.1565
 30
0.0
 11
1.0
 21
0.0
 31
0.0
 44
0.9
  1
Interface
 40
0.125
 41
1.8
  0
MTEXT
  5
261
100
AcDbEntity
  8
0
100
AcDbMText
 62
2
  6
CONTINUOUS
  7
STANDARD
 71
2
 72
1
 10
6.055
 20
-1.1565
 30
0.0
 11
1.0
 21
0.0
 31
0.0
 44
0.9
  1
None
 40
0.125
 41
0.8
  0
MTEXT
  5
262
100
AcDbEntity
  8
0
100
AcDbMText
 62
2
  6
CONTINUOUS
  7
STANDARD
 71
2
 72
1
 10
1.5275
 20
-1.4065
 30
0.0
 11
1.0
 21
0.0
 31
0.0
 44
0.9
  1
Open Cavity Quantity
 40
0.125
 41
4.0
  0
MTEXT
  5
263
100
AcDbEntity
  8
0
100
AcDbMText
 62
2
  6
CONTINUOUS
  7
STANDARD
 71
2
 72
1
 10
6.055
 20
-1.4065
 30
0.0
 11
1.0
 21
0.0
 31
0.0
 44
0.9
  1
1
 40
0.125
 41
0.2
  0
MTEXT
  5
264
100
AcDbEntity
  8
0
100
AcDbMText
 62
2
  6
CONTINUOUS
  7
STANDARD
 71
2
 72
1
 10
1.5275
 20
-1.6565
 30
0.0
 11
1.0
 21
0.0
 31
0.0
 44
0.9
  1
Weight
 40
0.125
 41
1.2
  0
MTEXT
  5
265
100
AcDbEntity
  8
0
100
AcDbMText
 62
2
  6
CONTINUOUS
  7
STANDARD
 71
2
 72
1
 10
4.555
 20
-1.6565
 30
0.0
 11
1.0
 21
0.0
 31
0.0
 44
0.9
  1
5.823 lb.
 40
0.125
 41
1.8
  0
MTEXT
  5
266
100
AcDbEntity
  8
0
100
AcDbMText
 62
2
  6
CONTINUOUS
  7
STANDARD
 71
2
 72
1
 10
7.555
 20
-1.6565
 30
0.0
 11
1.0
 21
0.0
 31
0.0
 44
0.9
  1
2,641 kg.
 40
0.125
 41
1.8
  0
MTEXT
  5
267
100
AcDbEntity
  8
0
100
AcDbMText
 62
2
  6
CONTINUOUS
  7
STANDARD
 71
2
 72
1
 10
1.5275
 20
-1.9065
 30
0.0
 11
1.0
 21
0.0
 31
0.0
 44
0.9
  1
Mounting Hole Diameter
 40
0.125
 41
4.4
  0
MTEXT
  5
268
100
AcDbEntity
  8
0
100
AcDbMText
 62
2
  6
CONTINUOUS
  7
STANDARD
 71
2
 72
1
 10
4.555
 20
-1.9065
 30
0.0
 11
1.0
 21
0.0
 31
0.0
 44
0.9
  1
.41 in.
 40
0.125
 41
1.4
  0
MTEXT
  5
269
100
AcDbEntity
  8
0
100
AcDbMText
 62
2
  6
CONTINUOUS
  7
STANDARD
 71
2
 72
1
 10
7.555
 20
-1.9065
 30
0.0
 11
1.0
 21
0.0
 31
0.0
 44
0.9
  1
10,4 mm
 40
0.125
 41
1.4
  0
MTEXT
  5
26A
100
AcDbEntity
  8
0
100
AcDbMText
 62
2
  6
CONTINUOUS
  7
STANDARD
 71
2
 72
1
 10
1.5275
 20
-2.1565
 30
0.0
 11
1.0
 21
0.0
 31
0.0
 44
0.9
  1
Mounting Hole Depth
 40
0.125
 41
3.8
  0
MTEXT
  5
26B
100
AcDbEntity
  8
0
100
AcDbMText
 62
2
  6
CONTINUOUS
  7
STANDARD
 71
2
 72
1
 10
6.055
 20
-2.1565
 30
0.0
 11
1.0
 21
0.0
 31
0.0
 44
0.9
  1
Through
 40
0.125
 41
1.4
  0
MTEXT
  5
26C
100
AcDbEntity
  8
0
100
AcDbMText
 62
2
  6
CONTINUOUS
  7
STANDARD
 71
2
 72
1
 10
1.5275
 20
-2.4065
 30
0.0
 11
1.0
 21
0.0
 31
0.0
 44
0.9
  1
Mounting Hole Quantity
 40
0.125
 41
4.4
  0
MTEXT
  5
26D
100
AcDbEntity
  8
0
100
AcDbMText
 62
2
  6
CONTINUOUS
  7
STANDARD
 71
2
 72
1
 10
6.055
 20
-2.4065
 30
0.0
 11
1.0
 21
0.0
 31
0.0
 44
0.9
  1
2
 40
0.125
 41
0.2
  0
MTEXT
  5
26E
100
AcDbEntity
  8
0
100
AcDbMText
 62
2
  6
CONTINUOUS
  7
STANDARD
 71
2
 72
1
 10
1.5275
 20
-2.6565
 30
0.0
 11
1.0
 21
0.0
 31
0.0
 44
0.9
  1
Includes integral cartridge(s)
 40
0.125
 41
6.0
  0
MTEXT
  5
26F
100
AcDbEntity
  8
0
100
AcDbMText
 62
2
  6
CONTINUOUS
  7
STANDARD
 71
2
 72
1
 10
6.055
 20
-2.6565
 30
0.0
 11
1.0
 21
0.0
 31
0.0
 44
0.9
  1
Yes (see Included Components)
 40
0.125
 41
5.8
  0
ENDBLK
  5
270
100
AcDbEntity
  8
0
  6
BYBLOCK
 62
0
100
AcDbBlockEnd
  0
BLOCK
  5
271
100
AcDbEntity
  8
0
100
AcDbBlockBegin
  2
*T3
 70
1
 10
0.0
 20
0.0
  3
*T3
  1

  0
LINE
  5
272
100
AcDbEntity
  8
0
100
AcDbLine
 62
2
  6
CONTINUOUS
 10
0.0
 20
0.0
 11
4.6
 21
0.0
  0
LINE
  5
273
100
AcDbEntity
  8
0
100
AcDbLine
 62
2
  6
CONTINUOUS
 10
0.0
 20
0.0
 11
0.0
 21
-1.43775
  0
LINE
  5
274
100
AcDbEntity
  8
0
100
AcDbLine
 62
2
  6
CONTINUOUS
 10
0.0
 20
-0.34375
 11
4.6
 21
-0.34375
  0
LINE
  5
275
100
AcDbEntity
  8
0
100
AcDbLine
 62
2
  6
CONTINUOUS
 10
0.0
 20
-0.68775
 11
4.6
 21
-0.68775
  0
LINE
  5
276
100
AcDbEntity
  8
0
100
AcDbLine
 62
2
  6
CONTINUOUS
 10
0.0
 20
-0.93775
 11
4.6
 21
-0.93775
  0
LINE
  5
277
100
AcDbEntity
  8
0
100
AcDbLine
 62
2
  6
CONTINUOUS
 10
0.0
 20
-1.18775
 11
4.6
 21
-1.18775
  0
LINE
  5
278
100
AcDbEntity
  8
0
100
AcDbLine
 62
2
  6
CONTINUOUS
 10
0.0
 20
-1.43775
 11
4.6
 21
-1.43775
  0
LINE
  5
279
100
AcDbEntity
  8
0
100
AcDbLine
 62
2
  6
CONTINUOUS
 10
1.3
 20
-0.34375
 11
1.3
 21
-1.43775
  0
LINE
  5
27A
100
AcDbEntity
  8
0
100
AcDbLine
 62
2
  6
CONTINUOUS
 10
3.3
 20
-0.34375
 11
3.3
 21
-1.43775
  0
LINE
  5
27B
100
AcDbEntity
  8
0
100
AcDbLine
 62
2
  6
CONTINUOUS
 10
4.6
 20
0.0
 11
4.6
 21
-1.43775
  0
MTEXT
  5
27C
100
AcDbEntity
  8
0
100
AcDbMText
 62
2
  6
CONTINUOUS
  7
STANDARD
 71
2
 72
1
 10
2.3
 20
-0.099375
 30
0.0
 11
1.0
 21
0.0
 31
0.0
 44
0.9
  1
Port Headings
 40
0.145
 41
3.016
  0
MTEXT
  5
27D
100
AcDbEntity
  8
0
100
AcDbMText
 62
2
  6
CONTINUOUS
  7
STANDARD
 71
2
 72
1
 10
0.65
 20
-0.44325
 30
0.0
 11
1.0
 21
0.0
 31
0.0
 44
0.9
  1
Product
 40
0.145
 41
1.624
  0
MTEXT
  5
27E
100
AcDbEntity
  8
0
100
AcDbMText
 62
2
  6
CONTINUOUS
  7
STANDARD
 71
2
 72
1
 10
2.3
 20
-0.44325
 30
0.0
 11
1.0
 21
0.0
 31
0.0
 44
0.9
  1
Port
 40
0.145
 41
0.928
  0
MTEXT
  5
27F
100
AcDbEntity
  8
0
100
AcDbMText
 62
2
  6
CONTINUOUS
  7
STANDARD
 71
2
 72
1
 10
3.95
 20
-0.44325
 30
0.0
 11
1.0
 21
0.0
 31
0.0
 44
0.9
  1
Size
 40
0.145
 41
0.928
  0
MTEXT
  5
280
100
AcDbEntity
  8
0
100
AcDbMText
 62
2
  6
CONTINUOUS
  7
STANDARD
 71
2
 72
1
 10
0.65
 20
-0.75025
 30
0.0
 11
1.0
 21
0.0
 31
0.0
 44
0.9
  1
H6Y
 40
0.125
 41
0.6
  0
MTEXT
  5
281
100
AcDbEntity
  8
0
100
AcDbMText
 62
2
  6
CONTINUOUS
  7
STANDARD
 71
2
 72
1
 10
2.3
 20
-0.75025
 30
0.0
 11
1.0
 21
0.0
 31
0.0
 44
0.9
  1
Ports 1 &  2
 40
0.125
 41
2.4
  0
MTEXT
  5
282
100
AcDbEntity
  8
0
100
AcDbMText
 62
2
  6
CONTINUOUS
  7
STANDARD
 71
2
 72
1
 10
3.95
 20
-0.75025
 30
0.0
 11
1.0
 21
0.0
 31
0.0
 44
0.9
  1
1 1/4" BSPP
 40
0.125
 41
2.2
  0
MTEXT
  5
283
100
AcDbEntity
  8
0
100
AcDbMText
 62
2
  6
CONTINUOUS
  7
STANDARD
 71
2
 72
1
 10
0.65
 20
-1.00025
 30
0.0
 11
1.0
 21
0.0
 31
0.0
 44
0.9
  1
H6Y
 40
0.125
 41
0.6
  0
MTEXT
  5
284
100
AcDbEntity
  8
0
100
AcDbMText
 62
2
  6
CONTINUOUS
  7
STANDARD
 71
2
 72
1
 10
2.3
 20
-1.00025
 30
0.0
 11
1.0
 21
0.0
 31
0.0
 44
0.9
  1
Port 3
 40
0.125
 41
1.2
  0
MTEXT
  5
285
100
AcDbEntity
  8
0
100
AcDbMText
 62
2
  6
CONTINUOUS
  7
STANDARD
 71
2
 72
1
 10
3.95
 20
-1.00025
 30
0.0
 11
1.0
 21
0.0
 31
0.0
 44
0.9
  1
1/4" BSPP
 40
0.125
 41
1.8
  0
MTEXT
  5
286
100
AcDbEntity
  8
0
100
AcDbMText
 62
2
  6
CONTINUOUS
  7
STANDARD
 71
2
 72
1
 10
0.65
 20
-1.25025
 30
0.0
 11
1.0
 21
0.0
 31
0.0
 44
0.9
  1
H6Y
 40
0.125
 41
0.6
  0
MTEXT
  5
287
100
AcDbEntity
  8
0
100
AcDbMText
 62
2
  6
CONTINUOUS
  7
STANDARD
 71
2
 72
1
 10
2.3
 20
-1.25025
 30
0.0
 11
1.0
 21
0.0
 31
0.0
 44
0.9
  1
Gage Port
 40
0.125
 41
1.8
  0
MTEXT
  5
288
100
AcDbEntity
  8
0
100
AcDbMText
 62
2
  6
CONTINUOUS
  7
STANDARD
 71
2
 72
1
 10
3.95
 20
-1.25025
 30
0.0
 11
1.0
 21
0.0
 31
0.0
 44
0.9
  1
1/4" BSPP
 40
0.125
 41
1.8
  0
ENDBLK
  5
289
100
AcDbEntity
  8
0
  6
BYBLOCK
 62
0
100
AcDbBlockEnd
  0
ENDSEC
  0
SECTION
  2
ENTITIES
  0
IMAGE
  5
28A
100
AcDbEntity
  8
0
100
AcDbRasterImage
 62
7
  6
CONTINUOUS
 10
19.2297077316
 20
0.3094318264
 30
0.0
 11
0.0066666667
 21
0.0
 31
0.0
 12
0.0
 22
0.0066666667
 32
0.0
 13
369.0
 23
92.0
340
       3A2
 70
9
280
0
281
50
282
50
283
0
360
       39C
 71
1
 91
2
 14
-0.5
 24
-0.5
 14
368.5
 24
91.5
  0
INSERT
  5
28B
100
AcDbEntity
  8
0
100
AcDbBlockReference
 62
2
  6
CONTINUOUS
  2
SUN_FIRST_THIRD_ANGLE_BL0
 10
20.4816717061
 20
1.2289683772
  0
ACAD_TABLE
  5
28C
100
AcDbEntity
  8
0
 62
2
  6
CONTINUOUS
100
AcDbBlockReference
  2
*T1
 10
12.42375
 20
0.30125
 30
0.0
100
AcDbTable
342
       3A4
343
207
 11
1.0
 21
0.0
 31
0.0
 90
6
 91
4
 92
6
 93
20
 94
0
 95
0
 96
0
 70
1
 41
0.0
141
0.525
141
0.1
141
0.525
141
0.1
142
4.1
142
1.1
142
0.7
142
0.5
142
0.4
142
2.475
171
1
172
0
173
0
174
0
175
1
176
1
 91
33
178
0
145
0.0
301
CELL_VALUE
 90
4
  1
T-17A Line mount\P(See Technical Data for Body Features)
304
ACVALUE_END
170
2
140
0.125
171
1
172
0
173
0
174
0
175
1
176
1
 91
33
178
0
145
0.0
301
CELL_VALUE
 90
4
  1
Jan-10-24
304
ACVALUE_END
170
5
140
0.125
171
1
172
0
173
0
174
0
175
1
176
1
 91
33
178
0
145
0.0
301
CELL_VALUE
 90
4
  1
1.000
304
ACVALUE_END
170
5
140
0.125
171
1
172
0
173
0
174
0
175
1
176
1
 91
33
178
0
145
0.0
301
CELL_VALUE
 90
4
  1
C
304
ACVALUE_END
170
5
140
0.125
171
1
172
0
173
0
174
0
175
1
176
1
 91
33
178
0
145
0.0
301
CELL_VALUE
 90
4
  1
2
304
ACVALUE_END
170
5
140
0.125
171
1
172
0
173
0
174
0
175
1
176
1
 91
33
178
0
145
0.0
301
CELL_VALUE
 90
4
  1
 
304
ACVALUE_END
170
1
140
0.125
171
1
172
0
173
0
174
0
175
1
176
1
 91
33
178
0
145
0.0
301
CELL_VALUE
 90
4
  1
DESCRIPTION
304
ACVALUE_END
170
1
140
0.06
171
1
172
0
173
0
174
0
175
1
176
1
 91
33
178
0
145
0.0
301
CELL_VALUE
 90
4
  1
DATE
304
ACVALUE_END
170
1
140
0.06
171
1
172
0
173
0
174
0
175
1
176
1
 91
33
178
0
145
0.0
301
CELL_VALUE
 90
4
  1
SCALE
304
ACVALUE_END
170
1
140
0.06
171
1
172
0
173
0
174
0
175
1
176
1
 91
33
178
0
145
0.0
301
CELL_VALUE
 90
4
  1
DWG SIZE
304
ACVALUE_END
170
1
140
0.06
171
1
172
0
173
0
174
0
175
1
176
1
 91
33
178
0
145
0.0
301
CELL_VALUE
 90
4
  1
SHEET
304
ACVALUE_END
170
1
140
0.06
171
1
172
0
173
0
174
0
175
1
176
1
 91
33
178
0
145
0.0
301
CELL_VALUE
 90
4
  1
 
304
ACVALUE_END
170
1
140
0.125
171
1
172
0
173
0
174
0
175
1
176
1
 91
33
178
0
145
0.0
301
CELL_VALUE
 90
4
  1
H6Y
304
ACVALUE_END
170
5
140
0.125
171
1
172
0
173
0
174
0
175
4
176
1
 91
33
178
0
145
0.0
301
CELL_VALUE
 90
4
  1
ALL DIMENSIONS IN INCH\PVIEWS ARE THIRD ANGLE
304
ACVALUE_END
170
5
140
0.12
171
1
172
0
173
1
174
0
175
1
176
1
 91
1
178
0
145
0.0
170
1
171
1
172
0
173
1
174
0
175
1
176
1
 91
1
178
0
145
0.0
170
1
171
1
172
0
173
1
174
0
175
1
176
1
 91
1
178
0
145
0.0
170
5
171
1
172
0
173
0
174
0
175
1
176
1
 91
33
178
0
145
0.0
301
CELL_VALUE
 90
4
  1
 
304
ACVALUE_END
170
1
140
0.125
171
1
172
0
173
0
174
0
175
1
176
1
 91
33
178
0
145
0.0
301
CELL_VALUE
 90
4
  1
MODEL
304
ACVALUE_END
170
1
140
0.06
171
1
172
0
173
0
174
0
175
1
176
1
 91
33
178
0
145
0.0
301
CELL_VALUE
 90
4
  1
 
304
ACVALUE_END
170
1
140
0.125
171
1
172
0
173
0
174
0
175
1
176
1
 91
33
178
0
145
0.0
301
CELL_VALUE
 90
4
  1
 
304
ACVALUE_END
170
1
140
0.125
171
1
172
0
173
0
174
0
175
1
176
1
 91
33
178
0
145
0.0
301
CELL_VALUE
 90
4
  1
 
304
ACVALUE_END
170
1
140
0.125
171
1
172
0
173
0
174
0
175
1
176
1
 91
33
178
0
145
0.0
301
CELL_VALUE
 90
4
  1
 
304
ACVALUE_END
170
1
140
0.125
171
1
172
0
173
0
174
0
175
1
176
1
 91
33
178
0
145
0.0
301
CELL_VALUE
 90
4
  1
 
304
ACVALUE_END
170
1
140
0.125
  0
ACAD_TABLE
  5
28D
100
AcDbEntity
  8
0
 62
2
  6
CONTINUOUS
100
AcDbBlockReference
  2
*T2
 10
12.4237499994
 20
16.47875
 30
0.0
100
AcDbTable
342
       3A3
343
208
 11
1.0
 21
0.0
 31
0.0
 90
22
 91
11
 92
3
 93
16
 94
0
 95
0
 96
0
 41
0.028
141
0.344
141
0.25
141
0.25
141
0.25
141
0.25
141
0.25
141
0.25
141
0.25
141
0.25
141
0.25
141
0.25
142
3.055
142
3.0
142
3.0
171
1
172
0
173
0
174
0
175
1
176
1
 91
33
178
0
145
0.0
301
CELL_VALUE
 90
4
  1
Technical Data
304
ACVALUE_END
170
5
140
0.145
171
1
172
0
173
0
174
0
175
1
176
1
 91
33
178
0
145
0.0
301
CELL_VALUE
 90
4
  1
U.S. Units
304
ACVALUE_END
170
5
140
0.145
171
1
172
0
173
0
174
0
175
1
176
1
 91
33
178
0
145
0.0
301
CELL_VALUE
 90
4
  1
Metric Units
304
ACVALUE_END
170
5
140
0.145
171
1
172
0
173
0
174
0
175
1
176
1
 91
33
178
0
145
0.0
301
CELL_VALUE
 90
4
  1
Cavity
304
ACVALUE_END
170
5
140
0.125
171
1
172
0
173
0
174
0
175
2
176
1
 91
33
178
0
145
0.0
301
CELL_VALUE
 90
4
  1
T-17A
304
ACVALUE_END
170
5
140
0.125
171
1
172
0
173
1
174
0
175
1
176
1
 91
1
178
0
145
0.0
170
1
171
1
172
0
173
0
174
0
175
1
176
1
 91
33
178
0
145
0.0
301
CELL_VALUE
 90
4
  1
Body Features
304
ACVALUE_END
170
5
140
0.125
171
1
172
0
173
0
174
0
175
2
176
1
 91
33
178
0
145
0.0
301
CELL_VALUE
 90
4
  1
Ninety degree with reverse flow check - sequence
304
ACVALUE_END
170
5
140
0.125
171
1
172
0
173
1
174
0
175
1
176
1
 91
1
178
0
145
0.0
170
1
171
1
172
0
173
0
174
0
175
1
176
1
 91
33
178
0
145
0.0
301
CELL_VALUE
 90
4
  1
Body Type
304
ACVALUE_END
170
5
140
0.125
171
1
172
0
173
0
174
0
175
2
176
1
 91
33
178
0
145
0.0
301
CELL_VALUE
 90
4
  1
Line mount
304
ACVALUE_END
170
5
140
0.125
171
1
172
0
173
1
174
0
175
1
176
1
 91
1
178
0
145
0.0
170
1
171
1
172
0
173
0
174
0
175
1
176
1
 91
33
178
0
145
0.0
301
CELL_VALUE
 90
4
  1
Interface
304
ACVALUE_END
170
5
140
0.125
171
1
172
0
173
0
174
0
175
2
176
1
 91
33
178
0
145
0.0
301
CELL_VALUE
 90
4
  1
None
304
ACVALUE_END
170
5
140
0.125
171
1
172
0
173
1
174
0
175
1
176
1
 91
1
178
0
145
0.0
170
1
171
1
172
0
173
0
174
0
175
1
176
1
 91
33
178
0
145
0.0
301
CELL_VALUE
 90
4
  1
Open Cavity Quantity
304
ACVALUE_END
170
5
140
0.125
171
1
172
0
173
0
174
0
175
2
176
1
 91
33
178
0
145
0.0
301
CELL_VALUE
 90
4
  1
1
304
ACVALUE_END
170
5
140
0.125
171
1
172
0
173
1
174
0
175
1
176
1
 91
1
178
0
145
0.0
170
1
171
1
172
0
173
0
174
0
175
1
176
1
 91
33
178
0
145
0.0
301
CELL_VALUE
 90
4
  1
Weight
304
ACVALUE_END
170
5
140
0.125
171
1
172
0
173
0
174
0
175
1
176
1
 91
33
178
0
145
0.0
301
CELL_VALUE
 90
4
  1
5.823 lb.
304
ACVALUE_END
170
5
140
0.125
171
1
172
0
173
0
174
0
175
1
176
1
 91
33
178
0
145
0.0
301
CELL_VALUE
 90
4
  1
2,641 kg.
304
ACVALUE_END
170
5
140
0.125
171
1
172
0
173
0
174
0
175
1
176
1
 91
33
178
0
145
0.0
301
CELL_VALUE
 90
4
  1
Mounting Hole Diameter
304
ACVALUE_END
170
5
140
0.125
171
1
172
0
173
0
174
0
175
1
176
1
 91
33
178
0
145
0.0
301
CELL_VALUE
 90
4
  1
.41 in.
304
ACVALUE_END
170
5
140
0.125
171
1
172
0
173
0
174
0
175
1
176
1
 91
33
178
0
145
0.0
301
CELL_VALUE
 90
4
  1
10,4 mm
304
ACVALUE_END
170
5
140
0.125
171
1
172
0
173
0
174
0
175
1
176
1
 91
33
178
0
145
0.0
301
CELL_VALUE
 90
4
  1
Mounting Hole Depth
304
ACVALUE_END
170
5
140
0.125
171
1
172
0
173
0
174
0
175
2
176
1
 91
33
178
0
145
0.0
301
CELL_VALUE
 90
4
  1
Through
304
ACVALUE_END
170
5
140
0.125
171
1
172
0
173
1
174
0
175
1
176
1
 91
1
178
0
145
0.0
170
1
171
1
172
0
173
0
174
0
175
1
176
1
 91
33
178
0
145
0.0
301
CELL_VALUE
 90
4
  1
Mounting Hole Quantity
304
ACVALUE_END
170
5
140
0.125
171
1
172
0
173
0
174
0
175
2
176
1
 91
33
178
0
145
0.0
301
CELL_VALUE
 90
4
  1
2
304
ACVALUE_END
170
5
140
0.125
171
1
172
0
173
1
174
0
175
1
176
1
 91
1
178
0
145
0.0
170
1
171
1
172
0
173
0
174
0
175
1
176
1
 91
33
178
0
145
0.0
301
CELL_VALUE
 90
4
  1
Includes integral cartridge(s)
304
ACVALUE_END
170
5
140
0.125
171
1
172
0
173
0
174
0
175
2
176
1
 91
33
178
0
145
0.0
301
CELL_VALUE
 90
4
  1
Yes (see Included Components)
304
ACVALUE_END
170
5
140
0.125
171
1
172
0
173
1
174
0
175
1
176
1
 91
1
178
0
145
0.0
170
1
  0
ACAD_TABLE
  5
28E
100
AcDbEntity
  8
0
 62
2
  6
CONTINUOUS
100
AcDbBlockReference
  2
*T3
 10
0.52125
 20
1.959
 30
0.0
100
AcDbTable
342
       3A3
343
209
 11
1.0
 21
0.0
 31
0.0
 90
22
 91
5
 92
3
 93
16
 94
0
 95
0
 96
0
 41
0.05
141
0.34375
141
0.344
141
0.25
141
0.25
141
0.25
142
1.3
142
2.0
142
1.3
171
1
172
0
173
0
174
0
175
3
176
1
 91
33
178
0
145
0.0
301
CELL_VALUE
 90
4
  1
Port Headings
304
ACVALUE_END
170
5
140
0.145
171
1
172
0
173
1
174
0
175
1
176
1
 91
1
178
0
145
0.0
170
1
171
1
172
0
173
1
174
0
175
1
176
1
 91
1
178
0
145
0.0
170
1
171
1
172
0
173
0
174
0
175
1
176
1
 91
33
178
0
145
0.0
301
CELL_VALUE
 90
4
  1
Product
304
ACVALUE_END
170
5
140
0.145
171
1
172
0
173
0
174
0
175
1
176
1
 91
33
178
0
145
0.0
301
CELL_VALUE
 90
4
  1
Port
304
ACVALUE_END
170
5
140
0.145
171
1
172
0
173
0
174
0
175
1
176
1
 91
33
178
0
145
0.0
301
CELL_VALUE
 90
4
  1
Size
304
ACVALUE_END
170
5
140
0.145
171
1
172
0
173
0
174
0
175
1
176
1
 91
33
178
0
145
0.0
301
CELL_VALUE
 90
4
  1
H6Y
304
ACVALUE_END
170
5
140
0.125
171
1
172
0
173
0
174
0
175
1
176
1
 91
33
178
0
145
0.0
301
CELL_VALUE
 90
4
  1
Ports 1 &  2
304
ACVALUE_END
170
5
140
0.125
171
1
172
0
173
0
174
0
175
1
176
1
 91
33
178
0
145
0.0
301
CELL_VALUE
 90
4
  1
1 1/4" BSPP
304
ACVALUE_END
170
5
140
0.125
171
1
172
0
173
0
174
0
175
1
176
1
 91
33
178
0
145
0.0
301
CELL_VALUE
 90
4
  1
H6Y
304
ACVALUE_END
170
5
140
0.125
171
1
172
0
173
0
174
0
175
1
176
1
 91
33
178
0
145
0.0
301
CELL_VALUE
 90
4
  1
Port 3
304
ACVALUE_END
170
5
140
0.125
171
1
172
0
173
0
174
0
175
1
176
1
 91
33
178
0
145
0.0
301
CELL_VALUE
 90
4
  1
1/4" BSPP
304
ACVALUE_END
170
5
140
0.125
171
1
172
0
173
0
174
0
175
1
176
1
 91
33
178
0
145
0.0
301
CELL_VALUE
 90
4
  1
H6Y
304
ACVALUE_END
170
5
140
0.125
171
1
172
0
173
0
174
0
175
1
176
1
 91
33
178
0
145
0.0
301
CELL_VALUE
 90
4
  1
Gage Port
304
ACVALUE_END
170
5
140
0.125
171
1
172
0
173
0
174
0
175
1
176
1
 91
33
178
0
145
0.0
301
CELL_VALUE
 90
4
  1
1/4" BSPP
304
ACVALUE_END
170
5
140
0.125
  0
MTEXT
  5
28F
100
AcDbEntity
  8
0
100
AcDbMText
 62
2
  6
CONTINUOUS
  7
STANDARD
 71
1
 72
1
 10
0.52125
 20
5.75995
 30
0.0
 11
1.0
 21
0.0
 31
0.0
 44
0.6
  3
Notes\P \P1. Important: Carefully consider\P   the maximum system pressure. The\P   pressure rating of the manifold is\P   dependent on the manifold material,\P   with the port type/size a secondary\P   consideration. Manifolds\P   constructed of alu
  3
minum are not\P   rated for pressures higher than\P   3000 psi (210 bar), regardless of\P   the port type/size specified.\P2. This drawing is for reference\P   only. It is generated by an\P   automated process and does not fall\P   under Sun's docume
  1
nt control\P   process.
 40
0.1
 41
3.04
  0
LINE
  5
290
100
AcDbEntity
  8
0
100
AcDbLine
 62
7
  6
CONTINUOUS
 10
0.30125
 20
0.30125
 11
0.30125
 21
16.69875
  0
LINE
  5
291
100
AcDbEntity
  8
0
100
AcDbLine
 62
7
  6
CONTINUOUS
 10
0.30125
 20
0.30125
 11
21.69875
 21
0.30125
  0
LINE
  5
292
100
AcDbEntity
  8
0
100
AcDbLine
 62
7
  6
CONTINUOUS
 10
0.30125
 20
16.69875
 11
21.69875
 21
16.69875
  0
LINE
  5
293
100
AcDbEntity
  8
0
100
AcDbLine
 62
7
  6
CONTINUOUS
 10
21.69875
 20
0.30125
 11
21.69875
 21
16.69875
  0
LINE
  5
294
100
AcDbEntity
  8
0
100
AcDbLine
 62
7
  6
CONTINUOUS
 10
7.6636608247
 20
10.7865297139
 11
8.3107079034
 21
11.4115292352
  0
LINE
  5
295
100
AcDbEntity
  8
0
100
AcDbLine
 62
7
  6
CONTINUOUS
 10
7.6636608247
 20
5.9569002963
 11
7.6636608247
 21
10.7865297139
  0
LINE
  5
296
100
AcDbEntity
  8
0
100
AcDbLine
 62
4
  6
CONTINUOUS
 10
8.3610591192
 20
6.2079725829
 11
8.3707183756
 21
6.2000582673
  0
LINE
  5
297
100
AcDbEntity
  8
0
100
AcDbLine
 62
4
  6
CONTINUOUS
 10
8.419014671
 20
6.2111977957
 11
8.4383331879
 21
6.1953691641
  0
LINE
  5
298
100
AcDbEntity
  8
0
100
AcDbLine
 62
4
  6
CONTINUOUS
 10
8.3417405997
 20
6.158601219
 11
8.3320813434
 21
6.1737599787
  0
LINE
  5
299
100
AcDbEntity
  8
0
100
AcDbLine
 62
4
  6
CONTINUOUS
 10
8.3707183756
 20
6.2000582673
 11
8.3803776388
 21
6.1848995071
  0
LINE
  5
29A
100
AcDbEntity
  8
0
100
AcDbLine
 62
4
  6
CONTINUOUS
 10
8.4383331879
 20
6.1953691641
 11
8.4479924468
 21
6.1802104043
  0
LINE
  5
29B
100
AcDbEntity
  8
0
100
AcDbLine
 62
4
  6
CONTINUOUS
 10
8.3320813434
 20
6.1737599787
 11
8.3320813434
 21
6.1882488666
  0
LINE
  5
29C
100
AcDbEntity
  8
0
100
AcDbLine
 62
4
  6
CONTINUOUS
 10
8.3803776388
 20
6.1704106192
 11
8.3803776388
 21
6.1848995071
  0
LINE
  5
29D
100
AcDbEntity
  8
0
100
AcDbLine
 62
7
  6
CONTINUOUS
 10
12.9762531841
 20
5.5884707648
 11
7.6636608247
 21
5.9569002963
  0
LINE
  5
29E
100
AcDbEntity
  8
0
100
AcDbLine
 62
4
  6
CONTINUOUS
 10
8.4479924468
 20
6.1802104043
 11
8.4479924468
 21
6.1657215164
  0
LINE
  5
29F
100
AcDbEntity
  8
0
100
AcDbLine
 62
4
  6
CONTINUOUS
 10
9.61000148
 20
10.4008927569
 11
9.6196607433
 21
10.4074673287
  0
LINE
  5
2A0
100
AcDbEntity
  8
0
100
AcDbLine
 62
4
  6
CONTINUOUS
 10
8.3513998629
 20
6.2086424546
 11
8.3610591192
 21
6.2079725829
  0
LINE
  5
2A1
100
AcDbEntity
  8
0
100
AcDbLine
 62
4
  6
CONTINUOUS
 10
11.5321939908
 20
5.9880536326
 11
11.6481050942
 21
5.9800151703
  0
LINE
  5
2A2
100
AcDbEntity
  8
0
100
AcDbLine
 62
4
  6
CONTINUOUS
 10
8.4093554112
 20
6.2118676677
 11
8.419014671
 21
6.2111977957
  0
LINE
  5
2A3
100
AcDbEntity
  8
0
100
AcDbLine
 62
4
  6
CONTINUOUS
 10
9.6003422237
 20
10.3870737407
 11
9.61000148
 21
10.4008927569
  0
LINE
  5
2A4
100
AcDbEntity
  8
0
100
AcDbLine
 62
7
  6
CONTINUOUS
 10
10.7806420542
 20
10.8898477109
 11
10.7785713161
 21
10.8878849528
  0
LINE
  5
2A5
100
AcDbEntity
  8
0
100
AcDbLine
 62
4
  6
CONTINUOUS
 10
9.2960755678
 20
7.7668503835
 11
9.2960755678
 21
7.7088948305
  0
LINE
  5
2A6
100
AcDbEntity
  8
0
100
AcDbLine
 62
4
  6
CONTINUOUS
 10
9.2960755678
 20
7.8827614895
 11
9.2960755678
 21
7.9407170425
  0
LINE
  5
2A7
100
AcDbEntity
  8
0
100
AcDbLine
 62
4
  6
CONTINUOUS
 10
9.3250533443
 20
8.6742599872
 11
9.3250533443
 21
8.6887488754
  0
LINE
  5
2A8
100
AcDbEntity
  8
0
100
AcDbLine
 62
4
  6
CONTINUOUS
 10
9.3540311208
 20
8.5056281566
 11
9.3540311208
 21
8.4669911213
  0
LINE
  5
2A9
100
AcDbEntity
  8
0
100
AcDbLine
 62
4
  6
CONTINUOUS
 10
9.3540311208
 20
8.1105644703
 11
9.3540311208
 21
8.0526089173
  0
LINE
  5
2AA
100
AcDbEntity
  8
0
100
AcDbLine
 62
4
  6
CONTINUOUS
 10
9.3540311208
 20
7.7048755992
 11
9.3540311208
 21
7.7628311522
  0
LINE
  5
2AB
100
AcDbEntity
  8
0
100
AcDbLine
 62
4
  6
CONTINUOUS
 10
9.3540311208
 20
8.2544874269
 11
9.3540311208
 21
8.3124429799
  0
LINE
  5
2AC
100
AcDbEntity
  8
0
100
AcDbLine
 62
4
  6
CONTINUOUS
 10
9.3540311208
 20
8.3510800153
 11
9.3540311208
 21
8.4090355683
  0
LINE
  5
2AD
100
AcDbEntity
  8
0
100
AcDbLine
 62
4
  6
CONTINUOUS
 10
9.3540311208
 20
8.718131851
 11
9.3540311208
 21
8.776087404
  0
LINE
  5
2AE
100
AcDbEntity
  8
0
100
AcDbLine
 62
4
  6
CONTINUOUS
 10
9.3540311208
 20
8.8147244394
 11
9.3540311208
 21
8.8726799924
  0
LINE
  5
2AF
100
AcDbEntity
  8
0
100
AcDbLine
 62
4
  6
CONTINUOUS
 10
9.3733496385
 20
8.4463328599
 11
9.3733496385
 21
8.5042884129
  0
LINE
  5
2B0
100
AcDbEntity
  8
0
100
AcDbLine
 62
4
  6
CONTINUOUS
 10
9.3830088973
 20
8.8127148237
 11
9.3830088973
 21
8.8706703768
  0
LINE
  5
2B1
100
AcDbEntity
  8
0
100
AcDbLine
 62
4
  6
CONTINUOUS
 10
9.4119866739
 20
8.8686607611
 11
9.4119866739
 21
8.8107052081
  0
LINE
  5
2B2
100
AcDbEntity
  8
0
100
AcDbLine
 62
4
  6
CONTINUOUS
 10
9.4119866739
 20
8.5016089254
 11
9.4119866739
 21
8.4436533724
  0
LINE
  5
2B3
100
AcDbEntity
  8
0
100
AcDbLine
 62
4
  6
CONTINUOUS
 10
9.4119866739
 20
8.3084237487
 11
9.4119866739
 21
8.2504681957
  0
LINE
  5
2B4
100
AcDbEntity
  8
0
100
AcDbLine
 62
4
  6
CONTINUOUS
 10
9.4119866739
 20
8.2118311603
 11
9.4119866739
 21
8.1538756073
  0
LINE
  5
2B5
100
AcDbEntity
  8
0
100
AcDbLine
 62
4
  6
CONTINUOUS
 10
9.4119866739
 20
7.8457452505
 11
9.4119866739
 21
7.7877896975
  0
LINE
  5
2B6
100
AcDbEntity
  8
0
100
AcDbLine
 62
4
  6
CONTINUOUS
 10
9.4119866739
 20
7.758811921
 11
9.4119866739
 21
7.7008563679
  0
LINE
  5
2B7
100
AcDbEntity
  8
0
100
AcDbLine
 62
4
  6
CONTINUOUS
 10
9.4119866739
 20
8.5402459607
 11
9.4119866739
 21
8.5982015137
  0
LINE
  5
2B8
100
AcDbEntity
  8
0
100
AcDbLine
 62
4
  6
CONTINUOUS
 10
9.4119866739
 20
8.7141126198
 11
9.4119866739
 21
8.7720681728
  0
LINE
  5
2B9
100
AcDbEntity
  8
0
100
AcDbLine
 62
4
  6
CONTINUOUS
 10
9.4699422269
 20
8.2078119291
 11
9.4699422269
 21
8.1691748937
  0
LINE
  5
2BA
100
AcDbEntity
  8
0
100
AcDbLine
 62
4
  6
CONTINUOUS
 10
9.6003422237
 20
10.3725848527
 11
9.6003422237
 21
10.3870737407
  0
LINE
  5
2BB
100
AcDbEntity
  8
0
100
AcDbLine
 62
4
  6
CONTINUOUS
 10
9.6818939606
 20
8.2400294254
 11
9.6818939606
 21
8.2041521701
  0
LINE
  5
2BC
100
AcDbEntity
  8
0
100
AcDbLine
 62
4
  6
CONTINUOUS
 10
9.6818939606
 20
8.107559584
 11
9.6818939606
 21
8.165515137
  0
LINE
  5
2BD
100
AcDbEntity
  8
0
100
AcDbLine
 62
4
  6
CONTINUOUS
 10
9.7162533272
 20
10.3428130585
 11
9.7162533272
 21
10.4007686102
  0
LINE
  5
2BE
100
AcDbEntity
  8
0
100
AcDbLine
 62
4
  6
CONTINUOUS
 10
9.7481288813
 20
8.210597915
 11
9.7481288813
 21
8.2354360181
  0
LINE
  5
2BF
100
AcDbEntity
  8
0
100
AcDbLine
 62
4
  6
CONTINUOUS
 10
9.9865745844
 20
7.8532278107
 11
10.0031333146
 21
7.8355207304
  0
LINE
  5
2C0
100
AcDbEntity
  8
0
100
AcDbLine
 62
4
  6
CONTINUOUS
 10
9.6322177753
 20
8.2434744806
 11
9.6570558714
 21
8.2169138497
  0
LINE
  5
2C1
100
AcDbEntity
  8
0
100
AcDbLine
 62
4
  6
CONTINUOUS
 10
9.9313788177
 20
7.7770217959
 11
9.9534571258
 21
7.7313340474
  0
LINE
  5
2C2
100
AcDbEntity
  8
0
100
AcDbLine
 62
4
  6
CONTINUOUS
 10
9.8872222085
 20
7.8021623752
 11
9.8872222085
 21
7.8435591929
  0
LINE
  5
2C3
100
AcDbEntity
  8
0
100
AcDbLine
 62
4
  6
CONTINUOUS
 10
9.8872222085
 20
8.0063866927
 11
9.8872222085
 21
8.0726216065
  0
LINE
  5
2C4
100
AcDbEntity
  8
0
100
AcDbLine
 62
4
  6
CONTINUOUS
 10
9.8872222085
 20
8.1057390772
 11
9.8872222085
 21
8.1554152695
  0
LINE
  5
2C5
100
AcDbEntity
  8
0
100
AcDbLine
 62
4
  6
CONTINUOUS
 10
9.8872222085
 20
8.2961644854
 11
9.8872222085
 21
8.3292819285
  0
LINE
  5
2C6
100
AcDbEntity
  8
0
100
AcDbLine
 62
4
  6
CONTINUOUS
 10
9.8872222085
 20
8.3927570369
 11
9.8872222085
 21
8.4175951469
  0
LINE
  5
2C7
100
AcDbEntity
  8
0
100
AcDbLine
 62
4
  6
CONTINUOUS
 10
9.8872222085
 20
8.4672713115
 11
9.8872222085
 21
8.508668143
  0
LINE
  5
2C8
100
AcDbEntity
  8
0
100
AcDbLine
 62
4
  6
CONTINUOUS
 10
9.8872222085
 20
8.5721433067
 11
9.8872222085
 21
8.6218194713
  0
LINE
  5
2C9
100
AcDbEntity
  8
0
100
AcDbLine
 62
4
  6
CONTINUOUS
 10
9.9368983939
 20
8.6018156946
 11
9.9368983939
 21
8.5686982515
  0
LINE
  5
2CA
100
AcDbEntity
  8
0
100
AcDbLine
 62
4
  6
CONTINUOUS
 10
9.9368983939
 20
8.1354114928
 11
9.9368983939
 21
8.1022940221
  0
LINE
  5
2CB
100
AcDbEntity
  8
0
100
AcDbLine
 62
4
  6
CONTINUOUS
 10
9.9700158542
 20
7.9123317155
 11
9.9700158542
 21
7.9564883247
  0
LINE
  5
2CC
100
AcDbEntity
  8
0
100
AcDbLine
 62
4
  6
CONTINUOUS
 10
10.0031333146
 20
8.5006296804
 11
10.0031333146
 21
8.459232849
  0
LINE
  5
2CD
100
AcDbEntity
  8
0
100
AcDbLine
 62
4
  6
CONTINUOUS
 10
10.0031333146
 20
8.4095566844
 11
10.0031333146
 21
8.3847185744
  0
LINE
  5
2CE
100
AcDbEntity
  8
0
100
AcDbLine
 62
4
  6
CONTINUOUS
 10
10.0031333146
 20
8.321243466
 11
10.0031333146
 21
8.2881260229
  0
LINE
  5
2CF
100
AcDbEntity
  8
0
100
AcDbLine
 62
4
  6
CONTINUOUS
 10
10.0031333146
 20
7.8355207304
 11
10.0031333146
 21
7.7941239127
  0
LINE
  5
2D0
100
AcDbEntity
  8
0
100
AcDbLine
 62
4
  6
CONTINUOUS
 10
10.0031333146
 20
8.0977006147
 11
10.0031333146
 21
8.147376807
  0
LINE
  5
2D1
100
AcDbEntity
  8
0
100
AcDbLine
 62
4
  6
CONTINUOUS
 10
10.0031333146
 20
8.5641048441
 11
10.0031333146
 21
8.6137810088
  0
LINE
  5
2D2
100
AcDbEntity
  8
0
100
AcDbLine
 62
4
  6
CONTINUOUS
 10
9.9313788177
 20
8.6518746431
 11
9.9534571258
 21
8.6945001164
  0
LINE
  5
2D3
100
AcDbEntity
  8
0
100
AcDbLine
 62
4
  6
CONTINUOUS
 10
8.3320813434
 20
6.1882488666
 11
8.3417405997
 21
6.2020678828
  0
LINE
  5
2D4
100
AcDbEntity
  8
0
100
AcDbLine
 62
4
  6
CONTINUOUS
 10
11.679980614
 20
7.4812683317
 11
11.6510028381
 21
7.4760335033
  0
LINE
  5
2D5
100
AcDbEntity
  8
0
100
AcDbLine
 62
4
  6
CONTINUOUS
 10
9.2960755678
 20
7.7088948305
 11
9.3540311208
 21
7.7048755992
  0
LINE
  5
2D6
100
AcDbEntity
  8
0
100
AcDbLine
 62
4
  6
CONTINUOUS
 10
11.6510028381
 20
7.5484779429
 11
11.6896398721
 21
7.5457984555
  0
LINE
  5
2D7
100
AcDbEntity
  8
0
100
AcDbLine
 62
4
  6
CONTINUOUS
 10
9.3540311208
 20
7.7628311522
 11
9.4119866739
 21
7.758811921
  0
LINE
  5
2D8
100
AcDbEntity
  8
0
100
AcDbLine
 62
4
  6
CONTINUOUS
 10
10.0031333146
 20
7.8989958596
 11
9.8872222085
 21
7.940151779
  0
LINE
  5
2D9
100
AcDbEntity
  8
0
100
AcDbLine
 62
4
  6
CONTINUOUS
 10
9.6570558714
 20
8.2169138497
 11
9.6901733283
 21
8.1980584178
  0
LINE
  5
2DA
100
AcDbEntity
  8
0
100
AcDbLine
 62
4
  6
CONTINUOUS
 10
9.6818939606
 20
8.3228230607
 11
9.6322177753
 21
8.3593855728
  0
LINE
  5
2DB
100
AcDbEntity
  8
0
100
AcDbLine
 62
4
  6
CONTINUOUS
 10
9.7481288813
 20
8.2354360181
 11
9.7315701511
 21
8.2531430914
  0
LINE
  5
2DC
100
AcDbEntity
  8
0
100
AcDbLine
 62
4
  6
CONTINUOUS
 10
9.903780937
 20
8.2784574122
 11
9.8872222085
 21
8.2961644854
  0
LINE
  5
2DD
100
AcDbEntity
  8
0
100
AcDbLine
 62
4
  6
CONTINUOUS
 10
9.903780937
 20
8.3750499637
 11
9.8872222085
 21
8.3927570369
  0
LINE
  5
2DE
100
AcDbEntity
  8
0
100
AcDbLine
 62
4
  6
CONTINUOUS
 10
9.9534571258
 20
8.6945001164
 11
9.9755354321
 21
8.6488123715
  0
LINE
  5
2DF
100
AcDbEntity
  8
0
100
AcDbLine
 62
4
  6
CONTINUOUS
 10
9.9534571258
 20
7.7313340474
 11
9.9755354321
 21
7.7739595243
  0
LINE
  5
2E0
100
AcDbEntity
  8
0
100
AcDbLine
 62
4
  6
CONTINUOUS
 10
8.3803776388
 20
6.1848995071
 11
8.3900368951
 21
6.1987185234
  0
LINE
  5
2E1
100
AcDbEntity
  8
0
100
AcDbLine
 62
4
  6
CONTINUOUS
 10
8.4479924468
 20
6.1657215164
 11
8.4383331879
 21
6.1519025003
  0
LINE
  5
2E2
100
AcDbEntity
  8
0
100
AcDbLine
 62
4
  6
CONTINUOUS
 10
9.8872222085
 20
8.508668143
 11
9.903780937
 21
8.5240785128
  0
LINE
  5
2E3
100
AcDbEntity
  8
0
100
AcDbLine
 62
4
  6
CONTINUOUS
 10
9.6984526925
 20
8.255439795
 11
9.6818939606
 21
8.2400294254
  0
LINE
  5
2E4
100
AcDbEntity
  8
0
100
AcDbLine
 62
4
  6
CONTINUOUS
 10
9.8872222085
 20
8.4175951469
 11
9.903780937
 21
8.4330055167
  0
LINE
  5
2E5
100
AcDbEntity
  8
0
100
AcDbLine
 62
4
  6
CONTINUOUS
 10
9.7315701511
 20
8.1951875384
 11
9.7481288813
 21
8.210597915
  0
LINE
  5
2E6
100
AcDbEntity
  8
0
100
AcDbLine
 62
4
  6
CONTINUOUS
 10
10.0031333146
 20
8.3847185744
 11
9.9865745844
 21
8.3693082047
  0
LINE
  5
2E7
100
AcDbEntity
  8
0
100
AcDbLine
 62
4
  6
CONTINUOUS
 10
9.4119866739
 20
7.7877896975
 11
9.2960755678
 21
7.79582816
  0
LINE
  5
2E8
100
AcDbEntity
  8
0
100
AcDbLine
 62
4
  6
CONTINUOUS
 10
10.0031333146
 20
7.7941239127
 11
9.8872222085
 21
7.8021623752
  0
LINE
  5
2E9
100
AcDbEntity
  8
0
100
AcDbLine
 62
4
  6
CONTINUOUS
 10
9.2960755678
 20
7.853783713
 11
9.4119866739
 21
7.8457452505
  0
LINE
  5
2EA
100
AcDbEntity
  8
0
100
AcDbLine
 62
4
  6
CONTINUOUS
 10
9.2960755678
 20
7.8827614895
 11
9.4119866739
 21
7.874723027
  0
LINE
  5
2EB
100
AcDbEntity
  8
0
100
AcDbLine
 62
4
  6
CONTINUOUS
 10
9.903780937
 20
7.8589695696
 11
9.9865745844
 21
7.8532278107
  0
LINE
  5
2EC
100
AcDbEntity
  8
0
100
AcDbLine
 62
4
  6
CONTINUOUS
 10
9.2960755678
 20
7.9407170425
 11
9.4119866739
 21
7.93267858
  0
LINE
  5
2ED
100
AcDbEntity
  8
0
100
AcDbLine
 62
4
  6
CONTINUOUS
 10
9.4119866739
 20
8.048589686
 11
9.2960755678
 21
8.0566281485
  0
LINE
  5
2EE
100
AcDbEntity
  8
0
100
AcDbLine
 62
4
  6
CONTINUOUS
 10
11.6510028381
 20
7.4760335033
 11
11.6220250623
 21
7.4852875628
  0
LINE
  5
2EF
100
AcDbEntity
  8
0
100
AcDbLine
 62
4
  6
CONTINUOUS
 10
9.9865745844
 20
8.4272637577
 11
10.0031333146
 21
8.4095566844
  0
LINE
  5
2F0
100
AcDbEntity
  8
0
100
AcDbLine
 62
4
  6
CONTINUOUS
 10
9.9865745844
 20
8.5183367538
 11
10.0031333146
 21
8.5006296804
  0
LINE
  5
2F1
100
AcDbEntity
  8
0
100
AcDbLine
 62
4
  6
CONTINUOUS
 10
10.0031333146
 20
8.2881260229
 11
9.9865745844
 21
8.2727156532
  0
LINE
  5
2F2
100
AcDbEntity
  8
0
100
AcDbLine
 62
4
  6
CONTINUOUS
 10
9.8872222085
 20
7.8435591929
 11
9.903780937
 21
7.8589695696
  0
LINE
  5
2F3
100
AcDbEntity
  8
0
100
AcDbLine
 62
4
  6
CONTINUOUS
 10
9.6322177753
 20
8.293150659
 11
9.6818939606
 21
8.3228230607
  0
LINE
  5
2F4
100
AcDbEntity
  8
0
100
AcDbLine
 62
4
  6
CONTINUOUS
 10
9.8872222085
 20
7.940151779
 11
10.0031333146
 21
7.9652307872
  0
LINE
  5
2F5
100
AcDbEntity
  8
0
100
AcDbLine
 62
4
  6
CONTINUOUS
 10
10.0031333146
 20
8.0314657009
 11
9.8872222085
 21
8.0395041634
  0
LINE
  5
2F6
100
AcDbEntity
  8
0
100
AcDbLine
 62
4
  6
CONTINUOUS
 10
9.4119866739
 20
8.106545239
 11
9.3540311208
 21
8.1105644703
  0
LINE
  5
2F7
100
AcDbEntity
  8
0
100
AcDbLine
 62
4
  6
CONTINUOUS
 10
9.7481288813
 20
8.1029661767
 11
9.6322177753
 21
8.1110046392
  0
LINE
  5
2F8
100
AcDbEntity
  8
0
100
AcDbLine
 62
4
  6
CONTINUOUS
 10
10.0031333146
 20
8.0977006147
 11
9.8872222085
 21
8.1057390772
  0
LINE
  5
2F9
100
AcDbEntity
  8
0
100
AcDbLine
 62
4
  6
CONTINUOUS
 10
9.4119866739
 20
8.1538756073
 11
9.3540311208
 21
8.1578948386
  0
LINE
  5
2FA
100
AcDbEntity
  8
0
100
AcDbLine
 62
4
  6
CONTINUOUS
 10
9.6322177753
 20
8.1689601922
 11
9.7481288813
 21
8.1609217297
  0
LINE
  5
2FB
100
AcDbEntity
  8
0
100
AcDbLine
 62
4
  6
CONTINUOUS
 10
9.3540311208
 20
8.2158503916
 11
9.4699422269
 21
8.2078119291
  0
LINE
  5
2FC
100
AcDbEntity
  8
0
100
AcDbLine
 62
4
  6
CONTINUOUS
 10
9.6901733283
 20
8.1980584178
 11
9.7315701511
 21
8.1951875384
  0
LINE
  5
2FD
100
AcDbEntity
  8
0
100
AcDbLine
 62
4
  6
CONTINUOUS
 10
9.4119866739
 20
8.2504681957
 11
9.3540311208
 21
8.2544874269
  0
LINE
  5
2FE
100
AcDbEntity
  8
0
100
AcDbLine
 62
4
  6
CONTINUOUS
 10
9.7315701511
 20
8.2531430914
 11
9.6984526925
 21
8.255439795
  0
LINE
  5
2FF
100
AcDbEntity
  8
0
100
AcDbLine
 62
4
  6
CONTINUOUS
 10
9.2960755678
 20
8.3164622112
 11
9.4119866739
 21
8.3084237487
  0
LINE
  5
300
100
AcDbEntity
  8
0
100
AcDbLine
 62
4
  6
CONTINUOUS
 10
9.9865745844
 20
8.2727156532
 11
9.903780937
 21
8.2784574122
  0
LINE
  5
301
100
AcDbEntity
  8
0
100
AcDbLine
 62
4
  6
CONTINUOUS
 10
9.6818939606
 20
8.3228230607
 11
9.7481288813
 21
8.3182296534
  0
LINE
  5
302
100
AcDbEntity
  8
0
100
AcDbLine
 62
4
  6
CONTINUOUS
 10
9.3540311208
 20
8.3510800153
 11
9.4119866739
 21
8.347060784
  0
LINE
  5
303
100
AcDbEntity
  8
0
100
AcDbLine
 62
4
  6
CONTINUOUS
 10
11.6220250623
 20
7.4852875628
 11
11.6027065428
 21
7.5011161946
  0
LINE
  5
304
100
AcDbEntity
  8
0
100
AcDbLine
 62
4
  6
CONTINUOUS
 10
11.6896398721
 20
7.5457984555
 11
11.699299131
 21
7.5378841397
  0
LINE
  5
305
100
AcDbEntity
  8
0
100
AcDbLine
 62
7
  6
CONTINUOUS
 10
12.9762531841
 20
10.4181001824
 11
13.6233002628
 21
11.0430997037
  0
LINE
  5
306
100
AcDbEntity
  8
0
100
AcDbLine
 62
4
  6
CONTINUOUS
 10
9.9865745844
 20
8.3693082047
 11
9.903780937
 21
8.3750499637
  0
LINE
  5
307
100
AcDbEntity
  8
0
100
AcDbLine
 62
4
  6
CONTINUOUS
 10
9.4119866739
 20
8.4436533724
 11
9.3733496385
 21
8.4463328599
  0
LINE
  5
308
100
AcDbEntity
  8
0
100
AcDbLine
 62
4
  6
CONTINUOUS
 10
9.903780937
 20
8.4330055167
 11
9.9865745844
 21
8.4272637577
  0
LINE
  5
309
100
AcDbEntity
  8
0
100
AcDbLine
 62
4
  6
CONTINUOUS
 10
10.0031333146
 20
8.459232849
 11
9.8872222085
 21
8.4672713115
  0
LINE
  5
30A
100
AcDbEntity
  8
0
100
AcDbLine
 62
4
  6
CONTINUOUS
 10
9.3540311208
 20
8.5056281566
 11
9.4119866739
 21
8.5016089254
  0
LINE
  5
30B
100
AcDbEntity
  8
0
100
AcDbLine
 62
4
  6
CONTINUOUS
 10
9.3540311208
 20
8.544265192
 11
9.4119866739
 21
8.5402459607
  0
LINE
  5
30C
100
AcDbEntity
  8
0
100
AcDbLine
 62
4
  6
CONTINUOUS
 10
9.903780937
 20
8.5240785128
 11
9.9865745844
 21
8.5183367538
  0
LINE
  5
30D
100
AcDbEntity
  8
0
100
AcDbLine
 62
4
  6
CONTINUOUS
 10
9.4119866739
 20
8.5982015137
 11
9.3540311208
 21
8.602220745
  0
LINE
  5
30E
100
AcDbEntity
  8
0
100
AcDbLine
 62
4
  6
CONTINUOUS
 10
10.0031333146
 20
8.5641048441
 11
9.8872222085
 21
8.5721433067
  0
LINE
  5
30F
100
AcDbEntity
  8
0
100
AcDbLine
 62
4
  6
CONTINUOUS
 10
9.4119866739
 20
8.6368385491
 11
9.2960755678
 21
8.6448770116
  0
LINE
  5
310
100
AcDbEntity
  8
0
100
AcDbLine
 62
4
  6
CONTINUOUS
 10
9.61000148
 20
10.3574260931
 11
9.6003422237
 21
10.3725848527
  0
LINE
  5
311
100
AcDbEntity
  8
0
100
AcDbLine
 62
4
  6
CONTINUOUS
 10
9.6486385191
 20
10.3982132691
 11
9.6679570352
 21
10.3678957496
  0
LINE
  5
312
100
AcDbEntity
  8
0
100
AcDbLine
 62
4
  6
CONTINUOUS
 10
11.6027065428
 20
7.5011161946
 11
11.5930472864
 21
7.5162749543
  0
LINE
  5
313
100
AcDbEntity
  8
0
100
AcDbLine
 62
4
  6
CONTINUOUS
 10
9.4119866739
 20
8.6754755844
 11
9.3540311208
 21
8.6794948157
  0
LINE
  5
314
100
AcDbEntity
  8
0
100
AcDbLine
 62
4
  6
CONTINUOUS
 10
9.3540311208
 20
8.718131851
 11
9.4119866739
 21
8.7141126198
  0
LINE
  5
315
100
AcDbEntity
  8
0
100
AcDbLine
 62
4
  6
CONTINUOUS
 10
9.3540311208
 20
8.8147244394
 11
9.3830088973
 21
8.8127148237
  0
LINE
  5
316
100
AcDbEntity
  8
0
100
AcDbLine
 62
4
  6
CONTINUOUS
 10
9.3830088973
 20
8.8706703768
 11
9.4119866739
 21
8.8686607611
  0
LINE
  5
317
100
AcDbEntity
  8
0
100
AcDbLine
 62
7
  6
CONTINUOUS
 10
13.2311412708
 20
8.6258395013
 11
13.3627247757
 21
8.6167141542
  0
LINE
  5
318
100
AcDbEntity
  8
0
100
AcDbLine
 62
4
  6
CONTINUOUS
 10
11.699299131
 20
7.5378841397
 11
11.7089583899
 21
7.5227253799
  0
LINE
  5
319
100
AcDbEntity
  8
0
100
AcDbLine
 62
4
  6
CONTINUOUS
 10
11.5930472864
 20
7.5162749543
 11
11.5930472864
 21
7.5307638422
  0
LINE
  5
31A
100
AcDbEntity
  8
0
100
AcDbLine
 62
4
  6
CONTINUOUS
 10
8.3417405997
 20
6.2020678828
 11
8.3513998629
 21
6.2086424546
  0
LINE
  5
31B
100
AcDbEntity
  8
0
100
AcDbLine
 62
4
  6
CONTINUOUS
 10
8.3900368951
 20
6.1987185234
 11
8.4093554112
 21
6.2118676677
  0
LINE
  5
31C
100
AcDbEntity
  8
0
100
AcDbLine
 62
4
  6
CONTINUOUS
 10
8.4383331879
 20
6.1519025003
 11
8.428673929
 21
6.1453279282
  0
LINE
  5
31D
100
AcDbEntity
  8
0
100
AcDbLine
 62
7
  6
CONTINUOUS
 10
13.3693361147
 20
8.7042240235
 11
14.0396042869
 21
8.6577407679
  0
LINE
  5
31E
100
AcDbEntity
  8
0
100
AcDbLine
 62
7
  6
CONTINUOUS
 10
13.3591948156
 20
8.7162797622
 11
14.0294629878
 21
8.6697965066
  0
LINE
  5
31F
100
AcDbEntity
  8
0
100
AcDbLine
 62
4
  6
CONTINUOUS
 10
9.6196607433
 20
10.349511777
 11
9.61000148
 21
10.3574260931
  0
LINE
  5
320
100
AcDbEntity
  8
0
100
AcDbLine
 62
4
  6
CONTINUOUS
 10
9.6679570352
 20
10.3678957496
 11
9.6872755513
 21
10.3520671181
  0
LINE
  5
321
100
AcDbEntity
  8
0
100
AcDbLine
 62
4
  6
CONTINUOUS
 10
9.6389792559
 20
10.4061275853
 11
9.6486385191
 21
10.3982132691
  0
LINE
  5
322
100
AcDbEntity
  8
0
100
AcDbLine
 62
4
  6
CONTINUOUS
 10
11.6510028381
 20
7.5195001671
 11
11.6510028381
 21
7.5484779429
  0
LINE
  5
323
100
AcDbEntity
  8
0
100
AcDbLine
 62
4
  6
CONTINUOUS
 10
11.7089583899
 20
7.5227253799
 11
11.7089583899
 21
7.5082364919
  0
LINE
  5
324
100
AcDbEntity
  8
0
100
AcDbLine
 62
7
  6
CONTINUOUS
 10
13.5426039332
 20
10.0790155986
 11
13.3693361147
 21
9.9116517279
  0
LINE
  5
325
100
AcDbEntity
  8
0
100
AcDbLine
 62
7
  6
CONTINUOUS
 10
13.2725609063
 20
9.192608715
 11
13.9428290785
 21
9.1461254594
  0
LINE
  5
326
100
AcDbEntity
  8
0
100
AcDbLine
 62
7
  6
CONTINUOUS
 10
13.2725609063
 20
9.2363116791
 11
13.9428290785
 21
9.1898284234
  0
LINE
  5
327
100
AcDbEntity
  8
0
100
AcDbLine
 62
4
  6
CONTINUOUS
 10
11.5930472864
 20
7.5307638422
 11
11.6027065428
 21
7.5445828584
  0
LINE
  5
328
100
AcDbEntity
  8
0
100
AcDbLine
 62
4
  6
CONTINUOUS
 10
11.7089583899
 20
7.5082364919
 11
11.699299131
 21
7.4944174759
  0
LINE
  5
329
100
AcDbEntity
  8
0
100
AcDbLine
 62
4
  6
CONTINUOUS
 10
11.6027065428
 20
7.5445828584
 11
11.612365806
 21
7.5511574302
  0
LINE
  5
32A
100
AcDbEntity
  8
0
100
AcDbLine
 62
4
  6
CONTINUOUS
 10
11.699299131
 20
7.4944174759
 11
11.679980614
 21
7.4812683317
  0
LINE
  5
32B
100
AcDbEntity
  8
0
100
AcDbLine
 62
4
  6
CONTINUOUS
 10
9.6872755513
 20
10.3520671181
 11
9.7162533272
 21
10.3428130585
  0
LINE
  5
32C
100
AcDbEntity
  8
0
100
AcDbLine
 62
4
  6
CONTINUOUS
 10
13.2590127473
 20
8.4406176061
 11
13.2628950297
 21
8.4443676032
  0
LINE
  5
32D
100
AcDbEntity
  8
0
100
AcDbLine
 62
4
  6
CONTINUOUS
 10
13.3153058419
 20
8.4370370116
 11
13.3308349714
 21
8.4520369997
  0
LINE
  5
32E
100
AcDbEntity
  8
0
100
AcDbLine
 62
4
  6
CONTINUOUS
 10
13.3483052422
 20
8.4495934703
 11
13.3599520893
 21
8.4608434615
  0
LINE
  5
32F
100
AcDbEntity
  8
0
100
AcDbLine
 62
4
  6
CONTINUOUS
 10
13.2628950297
 20
8.3284564998
 11
13.2590127473
 21
8.3247065027
  0
LINE
  5
330
100
AcDbEntity
  8
0
100
AcDbLine
 62
7
  6
CONTINUOUS
 10
13.3591948156
 20
9.8800045025
 11
14.0294629878
 21
9.8335212469
  0
LINE
  5
331
100
AcDbEntity
  8
0
100
AcDbLine
 62
7
  6
CONTINUOUS
 10
13.3693361147
 20
9.9116517279
 11
14.0396042869
 21
9.8651684723
  0
LINE
  5
332
100
AcDbEntity
  8
0
100
AcDbLine
 62
7
  6
CONTINUOUS
 10
13.5426039332
 20
10.0790155986
 11
14.2128721054
 21
10.0325323429
  0
LINE
  5
333
100
AcDbEntity
  8
0
100
AcDbLine
 62
4
  6
CONTINUOUS
 10
9.6196607433
 20
10.4074673287
 11
9.6389792559
 21
10.4061275853
  0
LINE
  5
334
100
AcDbEntity
  8
0
100
AcDbLine
 62
4
  6
CONTINUOUS
 10
13.2590127473
 20
8.3247065027
 11
13.2551304649
 21
8.3306157646
  0
LINE
  5
335
100
AcDbEntity
  8
0
100
AcDbLine
 62
7
  6
CONTINUOUS
 10
12.9762531841
 20
10.4181001824
 11
12.9762531841
 21
5.5884707648
  0
LINE
  5
336
100
AcDbEntity
  8
0
100
AcDbLine
 62
7
  6
CONTINUOUS
 10
13.4553599906
 20
8.6927813994
 11
13.4584633108
 21
8.6980430315
  0
LINE
  5
337
100
AcDbEntity
  8
0
100
AcDbLine
 62
7
  6
CONTINUOUS
 10
13.3390055897
 20
10.1811035588
 11
13.470582735
 21
10.1719786528
  0
LINE
  5
338
100
AcDbEntity
  8
0
100
AcDbLine
 62
7
  6
CONTINUOUS
 10
7.6636608247
 20
10.7865297139
 11
12.9762531841
 21
10.4181001824
  0
LINE
  5
339
100
AcDbEntity
  8
0
100
AcDbLine
 62
4
  6
CONTINUOUS
 10
13.2628950297
 20
8.4443676032
 11
13.2667773121
 21
8.4384583439
  0
LINE
  5
33A
100
AcDbEntity
  8
0
100
AcDbLine
 62
4
  6
CONTINUOUS
 10
13.3541286657
 20
8.5324925337
 11
13.3638343717
 21
8.4259564229
  0
LINE
  5
33B
100
AcDbEntity
  8
0
100
AcDbLine
 62
4
  6
CONTINUOUS
 10
13.2512481825
 20
8.3461842845
 11
13.2493070413
 21
8.3732870618
  0
LINE
  5
33C
100
AcDbEntity
  8
0
100
AcDbLine
 62
4
  6
CONTINUOUS
 10
13.3153058419
 20
8.4949925633
 11
13.3153058419
 21
8.3790814598
  0
LINE
  5
33D
100
AcDbEntity
  8
0
100
AcDbLine
 62
4
  6
CONTINUOUS
 10
13.3308349714
 20
8.5099925514
 11
13.3308349714
 21
8.394081448
  0
LINE
  5
33E
100
AcDbEntity
  8
0
100
AcDbLine
 62
4
  6
CONTINUOUS
 10
13.2493070413
 20
8.3732870618
 11
13.2512481825
 21
8.4041398362
  0
LINE
  5
33F
100
AcDbEntity
  8
0
100
AcDbLine
 62
4
  6
CONTINUOUS
 10
13.3444229598
 20
8.4072064377
 11
13.3541286657
 21
8.5324925337
  0
LINE
  5
340
100
AcDbEntity
  8
0
100
AcDbLine
 62
4
  6
CONTINUOUS
 10
13.2842475828
 20
8.3490814835
 11
13.2997767123
 21
8.4799925751
  0
LINE
  5
341
100
AcDbEntity
  8
0
100
AcDbLine
 62
7
  6
CONTINUOUS
 10
13.3591948156
 20
9.8800045025
 11
13.2725609063
 21
9.2363116791
  0
LINE
  5
342
100
AcDbEntity
  8
0
100
AcDbLine
 62
4
  6
CONTINUOUS
 10
13.2512481825
 20
8.4041398362
 11
13.2551304649
 21
8.4272083528
  0
LINE
  5
343
100
AcDbEntity
  8
0
100
AcDbLine
 62
4
  6
CONTINUOUS
 10
13.2687184533
 20
8.3534000131
 11
13.2667773121
 21
8.3418657557
  0
LINE
  5
344
100
AcDbEntity
  8
0
100
AcDbLine
 62
4
  6
CONTINUOUS
 10
13.2551304649
 20
8.4272083528
 11
13.2590127473
 21
8.4406176061
  0
LINE
  5
345
100
AcDbEntity
  8
0
100
AcDbLine
 62
4
  6
CONTINUOUS
 10
13.2667773121
 20
8.3418657557
 11
13.2628950297
 21
8.3284564998
  0
LINE
  5
346
100
AcDbEntity
  8
0
100
AcDbLine
 62
4
  6
CONTINUOUS
 10
13.2551304649
 20
8.3306157646
 11
13.2512481825
 21
8.3461842845
  0
LINE
  5
347
100
AcDbEntity
  8
0
100
AcDbLine
 62
4
  6
CONTINUOUS
 10
13.2667773121
 20
8.4384583439
 11
13.2687184533
 21
8.4306740792
  0
LINE
  5
348
100
AcDbEntity
  8
0
100
AcDbLine
 62
7
  6
CONTINUOUS
 10
13.2725609063
 20
9.192608715
 11
13.3591948156
 21
8.7162797622
  0
LINE
  5
349
100
AcDbEntity
  8
0
100
AcDbLine
 62
4
  6
CONTINUOUS
 10
13.2842475828
 20
8.4649925869
 11
13.2997767123
 21
8.3640814717
  0
LINE
  5
34A
100
AcDbEntity
  8
0
100
AcDbLine
 62
7
  6
CONTINUOUS
 10
13.6233002628
 20
11.0430997037
 11
13.6233002628
 21
10.0734192891
  0
LINE
  5
34B
100
AcDbEntity
  8
0
100
AcDbLine
 62
7
  6
CONTINUOUS
 10
13.6233002628
 20
8.68661155
 11
13.6233002628
 21
6.2134702861
  0
LINE
  5
34C
100
AcDbEntity
  8
0
100
AcDbLine
 62
7
  6
CONTINUOUS
 10
14.1978842807
 20
8.7688072916
 11
14.2066577292
 21
8.7836825401
  0
LINE
  5
34D
100
AcDbEntity
  8
0
100
AcDbLine
 62
7
  6
CONTINUOUS
 10
8.3107079034
 20
11.4115292352
 11
13.6233002628
 21
11.0430997037
  0
LINE
  5
34E
100
AcDbEntity
  8
0
100
AcDbLine
 62
7
  6
CONTINUOUS
 10
13.5518311019
 20
10.0838525403
 11
13.5541784166
 21
10.0782129054
  0
LINE
  5
34F
100
AcDbEntity
  8
0
100
AcDbLine
 62
7
  6
CONTINUOUS
 10
12.9762531841
 20
5.5884707648
 11
13.6233002628
 21
6.2134702861
  0
LINE
  5
350
100
AcDbEntity
  8
0
100
AcDbLine
 62
7
  6
CONTINUOUS
 10
14.2689864542
 20
9.9247186143
 11
14.2833890814
 21
9.8901150063
  0
ARC
  5
351
100
AcDbEntity
  8
0
100
AcDbCircle
 62
7
  6
CONTINUOUS
 10
16.5343005318
 20
9.1678221656
 40
2.591564888
100
AcDbArc
 50
179.5134673813
 51
179.9985734312
  0
ARC
  5
352
100
AcDbEntity
  8
0
100
AcDbCircle
 62
7
  6
CONTINUOUS
 10
15.854002939
 20
9.2143481292
 40
2.5815354666
100
AcDbArc
 50
179.5125250425
 51
179.99951577
  0
ARC
  5
353
100
AcDbEntity
  8
0
100
AcDbCircle
 62
7
  6
CONTINUOUS
 10
16.4715069196
 20
9.1678633908
 40
2.5287712751
100
AcDbArc
 50
179.9994720696
 51
180.492534488
  0
ARC
  5
354
100
AcDbEntity
  8
0
100
AcDbCircle
 62
7
  6
CONTINUOUS
 10
15.8012387471
 20
9.2143466464
 40
2.5287712748
100
AcDbArc
 50
179.9994720696
 51
180.492534488
  0
ARC
  5
355
100
AcDbEntity
  8
0
100
AcDbCircle
 62
7
  6
CONTINUOUS
 10
14.4487628434
 20
9.5483027888
 40
1.1389400837
100
AcDbArc
 50
161.3961041614
 51
163.0679604749
  0
ARC
  5
356
100
AcDbEntity
  8
0
100
AcDbCircle
 62
7
  6
CONTINUOUS
 10
15.0893624761
 20
9.5113267658
 40
1.1077888829
100
AcDbArc
 50
161.3725959887
 51
163.0914686476
  0
ARC
  5
357
100
AcDbEntity
  8
0
100
AcDbCircle
 62
7
  6
CONTINUOUS
 10
11.2663928457
 20
7.7525944008
 40
0.2242298643
100
AcDbArc
 50
265.961976363
 51
274.3240354128
  0
ARC
  5
358
100
AcDbEntity
  8
0
100
AcDbCircle
 62
7
  6
CONTINUOUS
 10
9.006349828
 20
10.9452112308
 40
0.0724383479
100
AcDbArc
 50
167.791814356
 51
174.5372712036
  0
ARC
  5
359
100
AcDbEntity
  8
0
100
AcDbCircle
 62
7
  6
CONTINUOUS
 10
10.9515274332
 20
10.9452117095
 40
0.0724087251
100
AcDbArc
 50
6.4698803976
 51
12.1087750797
  0
SPLINE
  5
35A
100
AcDbEntity
  8
0
100
AcDbSpline
 62
7
  6
CONTINUOUS
 70
0
 71
3
 72
23
 73
19
 74
0
 42
0.0000001
 43
0.0000001
 44
0.0000000001
 40
0.0
 40
0.0
 40
0.0
 40
0.0
 40
0.0778915856
 40
0.1545454438
 40
0.2297388202
 40
0.3032879841
 40
0.3750174017
 40
0.4447505127
 40
0.512316206
 40
0.5775550501
 40
0.6403154135
 40
0.7004563918
 40
0.75784725
 40
0.8123710763
 40
0.8639245062
 40
0.9124214177
 40
0.9577945528
 40
1.0
 40
1.0
 40
1.0
 40
1.0
 10
14.3363391753
 20
9.4966943554
 30
0.0
 10
14.3363391753
 20
9.5070549475
 30
0.0
 10
14.3361961684
 20
9.5276118137
 30
0.0
 10
14.3355437102
 20
9.5581641386
 30
0.0
 10
14.3344557606
 20
9.5881262125
 30
0.0
 10
14.3329359511
 20
9.6174136723
 30
0.0
 10
14.3309881747
 20
9.645947951
 30
0.0
 10
14.3286182775
 20
9.6736516877
 30
0.0
 10
14.3258322769
 20
9.7004489828
 30
0.0
 10
14.322638433
 20
9.7262666205
 30
0.0
 10
14.3190451759
 20
9.7510343979
 30
0.0
 10
14.3150628881
 20
9.7746849284
 30
0.0
 10
14.3107022315
 20
9.7971539162
 30
0.0
 10
14.3059756504
 20
9.8183804483
 30
0.0
 10
14.3008959586
 20
9.8383070751
 30
0.0
 10
14.2954773591
 20
9.8568804089
 30
0.0
 10
14.2897347321
 20
9.8740500849
 30
0.0
 10
14.2855483838
 20
9.884926811
 30
0.0
 10
14.2833912383
 20
9.8901096951
 30
0.0
  0
SPLINE
  5
35B
100
AcDbEntity
  8
0
100
AcDbSpline
 62
7
  6
CONTINUOUS
 70
0
 71
3
 72
9
 73
5
 74
0
 42
0.0000001
 43
0.0000001
 44
0.0000000001
 40
0.0
 40
0.0
 40
0.0
 40
0.0
 40
0.5149357862
 40
1.0
 40
1.0
 40
1.0
 40
1.0
 10
14.2230134046
 20
10.0204766042
 30
0.0
 10
14.2214034563
 20
10.0226510223
 30
0.0
 10
14.2181567544
 20
10.0267865907
 30
0.0
 10
14.2146449347
 20
10.0307013697
 30
0.0
 10
14.2128721054
 20
10.0325323429
 30
0.0
  0
SPLINE
  5
35C
100
AcDbEntity
  8
0
100
AcDbSpline
 62
7
  6
CONTINUOUS
 70
0
 71
3
 72
22
 73
18
 74
0
 42
0.0000001
 43
0.0000001
 44
0.0000000001
 40
0.0
 40
0.0
 40
0.0
 40
0.0
 40
0.1581228667
 40
0.2341982852
 40
0.3081049186
 40
0.379717385
 40
0.4489184745
 40
0.5156040998
 40
0.5796927374
 40
0.6411263993
 40
0.6998833948
 40
0.755975683
 40
0.8094620448
 40
0.8604412683
 40
0.9090606462
 40
0.9555055836
 40
1.0
 40
1.0
 40
1.0
 40
1.0
 10
14.0396042869
 20
8.6577407679
 30
0.0
 10
14.049073948
 20
8.6619439542
 30
0.0
 10
14.0630173516
 20
8.6683596313
 30
0.0
 10
14.0811273355
 20
8.6772821336
 30
0.0
 10
14.094023675
 20
8.6839550812
 30
0.0
 10
14.1063736671
 20
8.6906966663
 30
0.0
 10
14.1181424827
 20
8.697507262
 30
0.0
 10
14.129295827
 20
8.7043875018
 30
0.0
 10
14.1398022768
 20
8.7113358782
 30
0.0
 10
14.1496325498
 20
8.7183519408
 30
0.0
 10
14.1587626984
 20
8.7254323366
 30
0.0
 10
14.1671723199
 20
8.7325753051
 30
0.0
 10
14.1748484508
 20
8.7397759503
 30
0.0
 10
14.181782577
 20
8.7470310627
 30
0.0
 10
14.1879746888
 20
8.7543348539
 30
0.0
 10
14.1934290042
 20
8.7616822487
 30
0.0
 10
14.1966456925
 20
8.7667050137
 30
0.0
 10
14.1981257198
 20
8.7692167702
 30
0.0
  0
SPLINE
  5
35D
100
AcDbEntity
  8
0
100
AcDbSpline
 62
7
  6
CONTINUOUS
 70
0
 71
3
 72
9
 73
5
 74
0
 42
0.0000001
 43
0.0000001
 44
0.0000000001
 40
0.0
 40
0.0
 40
0.0
 40
0.0
 40
0.4955326499
 40
1.0
 40
1.0
 40
1.0
 40
1.0
 10
14.2691335786
 20
9.9243649126
 30
0.0
 10
14.2623619344
 20
9.9406252882
 30
0.0
 10
14.2477234076
 20
9.973039119
 30
0.0
 10
14.2315104358
 20
10.0046859613
 30
0.0
 10
14.2230134046
 20
10.0204766042
 30
0.0
  0
SPLINE
  5
35E
100
AcDbEntity
  8
0
100
AcDbSpline
 62
7
  6
CONTINUOUS
 70
0
 71
3
 72
28
 73
24
 74
0
 42
0.0000001
 43
0.0000001
 44
0.0000000001
 40
0.0
 40
0.0
 40
0.0
 40
0.0
 40
0.0188524871
 40
0.0388801737
 40
0.0600715651
 40
0.0824089768
 40
0.1058699668
 40
0.1304265019
 40
0.1560475994
 40
0.1826975814
 40
0.2103382308
 40
0.2389280827
 40
0.2987741688
 40
0.3618564495
 40
0.4277601831
 40
0.4960432585
 40
0.5662412158
 40
0.6378720029
 40
0.7104405345
 40
0.7834444448
 40
0.8563742018
 40
0.9287292883
 40
1.0
 40
1.0
 40
1.0
 40
1.0
 10
14.2066568259
 20
8.7836811647
 30
0.0
 10
14.2089897665
 20
8.7876366147
 30
0.0
 10
14.2136211629
 20
8.7959010978
 30
0.0
 10
14.2202879329
 20
8.8089298858
 30
0.0
 10
14.2268734713
 20
8.8229437399
 30
0.0
 10
14.2333655624
 20
8.8379168238
 30
0.0
 10
14.239751851
 20
8.8538219496
 30
0.0
 10
14.2460210434
 20
8.8706297966
 30
0.0
 10
14.2521608698
 20
8.8883095833
 30
0.0
 10
14.2581604212
 20
8.9068286307
 30
0.0
 10
14.2640082828
 20
8.9261528582
 30
0.0
 10
14.2717061452
 20
8.9533606863
 30
0.0
 10
14.2808365667
 20
8.989128369
 30
0.0
 10
14.2908662189
 20
9.0340244492
 30
0.0
 10
14.3000538073
 20
9.0811955103
 30
0.0
 10
14.3083306081
 20
9.1302928395
 30
0.0
 10
14.3156346303
 20
9.1809537777
 30
0.0
 10
14.3219113119
 20
9.232803602
 30
0.0
 10
14.3271139666
 20
9.2854588889
 30
0.0
 10
14.3312036918
 20
9.3385295437
 30
0.0
 10
14.3341505912
 20
9.39162393
 30
0.0
 10
14.3359323427
 20
9.4443475552
 30
0.0
 10
14.3363391753
 20
9.4793338577
 30
0.0
 10
14.3363391753
 20
9.4966943554
 30
0.0
  0
SPLINE
  5
35F
100
AcDbEntity
  8
0
100
AcDbSpline
 62
7
  6
CONTINUOUS
 70
0
 71
3
 72
23
 73
19
 74
0
 42
0.0000001
 43
0.0000001
 44
0.0000000001
 40
0.0
 40
0.0
 40
0.0
 40
0.0
 40
0.0450326416
 40
0.090627084
 40
0.1373223842
 40
0.1856173007
 40
0.2359593962
 40
0.2887361703
 40
0.344276113
 40
0.402854817
 40
0.4646973153
 40
0.5299824183
 40
0.5988535695
 40
0.671423373
 40
0.747772967
 40
0.8279612293
 40
0.9120297453
 40
1.0
 40
1.0
 40
1.0
 40
1.0
 10
13.4705830605
 20
10.1719785266
 30
0.0
 10
13.472463782
 20
10.1718481419
 30
0.0
 10
13.4762369709
 20
10.1713646024
 30
0.0
 10
13.4818287783
 20
10.1699807165
 30
0.0
 10
13.4873614292
 20
10.1679401848
 30
0.0
 10
13.4928284395
 20
10.1652469966
 30
0.0
 10
13.4982252346
 20
10.1619049677
 30
0.0
 10
13.5035480604
 20
10.157918986
 30
0.0
 10
13.508793656
 20
10.1532936772
 30
0.0
 10
13.5139584053
 20
10.1480331605
 30
0.0
 10
13.5190388353
 20
10.1421420632
 30
0.0
 10
13.5240317851
 20
10.1356256456
 30
0.0
 10
13.5289335606
 20
10.1284890839
 30
0.0
 10
13.5337401852
 20
10.120737941
 30
0.0
 10
13.5384482884
 20
10.1123787565
 30
0.0
 10
13.5430541973
 20
10.1034183108
 30
0.0
 10
13.5475538621
 20
10.0938638239
 30
0.0
 10
13.5504155859
 20
10.0872531859
 30
0.0
 10
13.5518307376
 20
10.0838531699
 30
0.0
  0
SPLINE
  5
360
100
AcDbEntity
  8
0
100
AcDbSpline
 62
7
  6
CONTINUOUS
 70
0
 71
3
 72
23
 73
19
 74
0
 42
0.0000001
 43
0.0000001
 44
0.0000000001
 40
0.0
 40
0.0
 40
0.0
 40
0.0
 40
0.0450328014
 40
0.090626912
 40
0.1373220992
 40
0.1856177797
 40
0.2359593495
 40
0.2887351894
 40
0.3442762352
 40
0.4028552774
 40
0.4646962747
 40
0.5299819163
 40
0.5988545543
 40
0.6714232004
 40
0.7477722896
 40
0.8279625255
 40
0.9120310258
 40
1.0
 40
1.0
 40
1.0
 40
1.0
 10
13.3627244502
 20
8.6167142804
 30
0.0
 10
13.3646051944
 20
8.6165838941
 30
0.0
 10
13.3684090174
 20
8.6165421108
 30
0.0
 10
13.3741384063
 20
8.6171403345
 30
0.0
 10
13.3798998703
 20
8.6183975648
 30
0.0
 10
13.3856862192
 20
8.6203107411
 30
0.0
 10
13.3914927957
 20
8.6228755568
 30
0.0
 10
13.3973150868
 20
8.626088378
 30
0.0
 10
13.4031488034
 20
8.6299456744
 30
0.0
 10
13.40899027
 20
8.6344429626
 30
0.0
 10
13.414835537
 20
8.6395761201
 30
0.0
 10
13.4206801706
 20
8.6453411156
 30
0.0
 10
13.4265200081
 20
8.651732986
 30
0.0
 10
13.432350809
 20
8.6587463173
 30
0.0
 10
13.4381678468
 20
8.666375617
 30
0.0
 10
13.4439663726
 20
8.6746147934
 30
0.0
 10
13.4497419461
 20
8.6834567583
 30
0.0
 10
13.4534889046
 20
8.6896090275
 30
0.0
 10
13.4553598302
 20
8.6927811304
 30
0.0
  0
SPLINE
  5
361
100
AcDbEntity
  8
0
100
AcDbSpline
 62
7
  6
CONTINUOUS
 70
0
 71
3
 72
23
 73
19
 74
0
 42
0.0000001
 43
0.0000001
 44
0.0000000001
 40
0.0
 40
0.0
 40
0.0
 40
0.0
 40
0.0430432041
 40
0.0864276157
 40
0.130656649
 40
0.1763288731
 40
0.2240992276
 40
0.2746265429
 40
0.3285147701
 40
0.3862610475
 40
0.4482190742
 40
0.5145822216
 40
0.585391119
 40
0.6605550141
 40
0.7398801137
 40
0.8231012882
 40
0.9099156628
 40
1.0
 40
1.0
 40
1.0
 40
1.0
 10
14.2128721054
 20
10.0325323429
 30
0.0
 10
14.212933054
 20
10.0288729125
 30
0.0
 10
14.2127123503
 20
10.0215136182
 30
0.0
 10
14.2112406669
 20
10.0104814696
 30
0.0
 10
14.2085157443
 20
9.9994560973
 30
0.0
 10
14.2044310905
 20
9.9884588984
 30
0.0
 10
14.1988933301
 20
9.9775132831
 30
0.0
 10
14.1918296596
 20
9.9666431378
 30
0.0
 10
14.1831914948
 20
9.9558694701
 30
0.0
 10
14.1729568637
 20
9.9452096682
 30
0.0
 10
14.1611321755
 20
9.934677577
 30
0.0
 10
14.1477527168
 20
9.9242830993
 30
0.0
 10
14.1328794571
 20
9.9140332358
 30
0.0
 10
14.1165947194
 20
9.9039320585
 30
0.0
 10
14.0989965741
 20
9.8939806131
 30
0.0
 10
14.0801923608
 20
9.8841768245
 30
0.0
 10
14.0602929153
 20
9.8745166226
 30
0.0
 10
14.046605439
 20
9.8682759907
 30
0.0
 10
14.0396042869
 20
9.8651684723
 30
0.0
  0
SPLINE
  5
362
100
AcDbEntity
  8
0
100
AcDbSpline
 62
7
  6
CONTINUOUS
 70
0
 71
3
 72
21
 73
17
 74
0
 42
0.0000001
 43
0.0000001
 44
0.0000000001
 40
0.0
 40
0.0
 40
0.0
 40
0.0
 40
0.1231153359
 40
0.184837322
 40
0.2466817013
 40
0.3086598058
 40
0.3707815459
 40
0.4330548007
 40
0.4954844141
 40
0.558071395
 40
0.6208128987
 40
0.6837027994
 40
0.7467321283
 40
0.809889664
 40
0.8731630859
 40
1.0
 40
1.0
 40
1.0
 40
1.0
 10
14.0294629878
 20
9.8335212469
 30
0.0
 10
14.0331196
 20
9.8067604918
 30
0.0
 10
14.0376126402
 20
9.7664328878
 30
0.0
 10
14.0411942707
 20
9.7124268611
 30
0.0
 10
14.0425741224
 20
9.6717369449
 30
0.0
 10
14.0425442618
 20
9.63093539
 30
0.0
 10
14.0410186638
 20
9.5900671919
 30
0.0
 10
14.0379321425
 20
9.549187225
 30
0.0
 10
14.0332461026
 20
9.5083565433
 30
0.0
 10
14.0269525616
 20
9.4676387024
 30
0.0
 10
14.0190766368
 20
9.4270947316
 30
0.0
 10
14.0096727157
 20
9.3867787886
 30
0.0
 10
13.9988194713
 20
9.3467351633
 30
0.0
 10
13.986613364
 20
9.306995635
 30
0.0
 10
13.968665924
 20
9.2544045922
 30
0.0
 10
13.9535237321
 20
9.2155170115
 30
0.0
 10
13.9428290785
 20
9.1898284234
 30
0.0
  0
SPLINE
  5
363
100
AcDbEntity
  8
0
100
AcDbSpline
 62
7
  6
CONTINUOUS
 70
0
 71
3
 72
23
 73
19
 74
0
 42
0.0000001
 43
0.0000001
 44
0.0000000001
 40
0.0
 40
0.0
 40
0.0
 40
0.0
 40
0.0681436223
 40
0.1355717925
 40
0.2022246133
 40
0.2680530577
 40
0.3330188589
 40
0.3971018651
 40
0.4603047619
 40
0.5226553367
 40
0.5842062484
 40
0.6450322154
 40
0.7052236803
 40
0.7648789131
 40
0.8240963959
 40
0.8829688942
 40
0.9415804852
 40
1.0
 40
1.0
 40
1.0
 40
1.0
 10
13.9428290785
 20
9.1461254594
 30
0.0
 10
13.9481577748
 20
9.1362227605
 30
0.0
 10
13.958509498
 20
9.1163853867
 30
0.0
 10
13.9730928487
 20
9.0863628772
 30
0.0
 10
13.986545135
 20
9.0562331899
 30
0.0
 10
13.9987548669
 20
9.0260153286
 30
0.0
 10
14.0096144248
 20
8.9957349848
 30
0.0
 10
14.0190269442
 20
8.9654259583
 30
0.0
 10
14.0269131471
 20
8.9351288622
 30
0.0
 10
14.0332176452
 20
8.9048892881
 30
0.0
 10
14.0379141683
 20
8.8747550225
 30
0.0
 10
14.041009627
 20
8.8447726597
 30
0.0
 10
14.042541957
 20
8.8149836798
 30
0.0
 10
14.0425761232
 20
8.7854217275
 30
0.0
 10
14.0411984516
 20
8.7561110664
 30
0.0
 10
14.0385100028
 20
8.7270657331
 30
0.0
 10
14.0346187632
 20
8.6982916271
 30
0.0
 10
14.0312909551
 20
8.6792622772
 30
0.0
 10
14.0294629878
 20
8.6697965066
 30
0.0
  0
SPLINE
  5
364
100
AcDbEntity
  8
0
100
AcDbSpline
 62
7
  6
CONTINUOUS
 70
0
 71
3
 72
21
 73
17
 74
0
 42
0.0000001
 43
0.0000001
 44
0.0000000001
 40
0.0
 40
0.0
 40
0.0
 40
0.0
 40
0.0721750434
 40
0.1408704233
 40
0.2690156223
 40
0.3293895806
 40
0.3879136836
 40
0.4451490293
 40
0.5016982119
 40
0.5581866935
 40
0.6152406903
 40
0.6734670847
 40
0.733434797
 40
0.8604758414
 40
0.9285177531
 40
1.0
 40
1.0
 40
1.0
 40
1.0
 10
13.3693361147
 20
8.7042240235
 30
0.0
 10
13.3707709442
 20
8.7027421356
 30
0.0
 10
13.3736624422
 20
8.6999349234
 30
0.0
 10
13.3795420458
 20
8.6949761343
 30
0.0
 10
13.3856961573
 20
8.6908785183
 30
0.0
 10
13.3920732158
 20
8.687826469
 30
0.0
 10
13.3968143781
 20
8.6861089777
 30
0.0
 10
13.4016030158
 20
8.684921394
 30
0.0
 10
13.4064347195
 20
8.6842659906
 30
0.0
 10
13.4113039677
 20
8.6841435805
 30
0.0
 10
13.4162051879
 20
8.6845537557
 30
0.0
 10
13.4211334824
 20
8.6854958139
 30
0.0
 10
13.4278607069
 20
8.6874959575
 30
0.0
 10
13.4345198459
 20
8.690565836
 30
0.0
 10
13.4410271628
 20
8.6945337695
 30
0.0
 10
13.4442783304
 20
8.696849658
 30
0.0
 10
13.4459041002
 20
8.6980867154
 30
0.0
  0
SPLINE
  5
365
100
AcDbEntity
  8
0
100
AcDbSpline
 62
7
  6
CONTINUOUS
 70
0
 71
3
 72
37
 73
33
 74
0
 42
0.0000001
 43
0.0000001
 44
0.0000000001
 40
0.0
 40
0.0
 40
0.0
 40
0.0
 40
0.0242160064
 40
0.0471276776
 40
0.0688728694
 40
0.0896181497
 40
0.1095643177
 40
0.1289412712
 40
0.1480010561
 40
0.1670091283
 40
0.1862325832
 40
0.2059292153
 40
0.2263374353
 40
0.2476687588
 40
0.2701059695
 40
0.2938027283
 40
0.3188839929
 40
0.3454511185
 40
0.3735850406
 40
0.4033469108
 40
0.4347832022
 40
0.4679286948
 40
0.5028057521
 40
0.5394275751
 40
0.5778008267
 40
0.6179236654
 40
0.6597872747
 40
0.7033790872
 40
0.7486826578
 40
0.7956778314
 40
0.8946424786
 40
1.0
 40
1.0
 40
1.0
 40
1.0
 10
13.5426039332
 20
10.0790155986
 30
0.0
 10
13.540993916
 20
10.0806784198
 30
0.0
 10
13.5377468144
 20
10.0838075002
 30
0.0
 10
13.5326518178
 20
10.087987609
 30
0.0
 10
13.5274781895
 20
10.0915125193
 30
0.0
 10
13.5222301352
 20
10.0943755897
 30
0.0
 10
13.5169125848
 20
10.0965718422
 30
0.0
 10
13.5115312378
 20
10.0980969547
 30
0.0
 10
13.5060928729
 20
10.0989466244
 30
0.0
 10
13.5006058155
 20
10.0991189383
 30
0.0
 10
13.4950786395
 20
10.0986144788
 30
0.0
 10
13.4895194071
 20
10.0974348421
 30
0.0
 10
13.4839351171
 20
10.0955835675
 30
0.0
 10
13.478331141
 20
10.0930656297
 30
0.0
 10
13.4727122242
 20
10.0898851522
 30
0.0
 10
13.4670828268
 20
10.0860462958
 30
0.0
 10
13.4614467799
 20
10.0815539968
 30
0.0
 10
13.4558083917
 20
10.076412667
 30
0.0
 10
13.450172426
 20
10.0706268852
 30
0.0
 10
13.4445431874
 20
10.0642023702
 30
0.0
 10
13.4389254547
 20
10.0571449762
 30
0.0
 10
13.4333244831
 20
10.0494608572
 30
0.0
 10
13.4277450617
 20
10.0411572092
 30
0.0
 10
13.4221921463
 20
10.0322416935
 30
0.0
 10
13.4166711561
 20
10.0227223189
 30
0.0
 10
13.4111871458
 20
10.0126080563
 30
0.0
 10
13.4057450797
 20
10.0019085851
 30
0.0
 10
13.4003502946
 20
9.9906338114
 30
0.0
 10
13.3950077831
 20
9.9787940247
 30
0.0
 10
13.3878364549
 20
9.9619773354
 30
0.0
 10
13.3790668617
 20
9.9396085421
 30
0.0
 10
13.3725546387
 20
9.921193522
 30
0.0
 10
13.3693361147
 20
9.9116517279
 30
0.0
  0
SPLINE
  5
366
100
AcDbEntity
  8
0
100
AcDbSpline
 62
7
  6
CONTINUOUS
 70
0
 71
3
 72
29
 73
25
 74
0
 42
0.0000001
 43
0.0000001
 44
0.0000000001
 40
0.0
 40
0.0
 40
0.0
 40
0.0
 40
0.0844109308
 40
0.167021196
 40
0.2475180268
 40
0.3256369966
 40
0.401116176
 40
0.4737019132
 40
0.5431596849
 40
0.6092721542
 40
0.6718401978
 40
0.7306888572
 40
0.7586717622
 40
0.7856716262
 40
0.8116742211
 40
0.8366682477
 40
0.8606452028
 40
0.8835986256
 40
0.9055261083
 40
0.9264302219
 40
0.9463170845
 40
0.9651968369
 40
0.9830842384
 40
1.0
 40
1.0
 40
1.0
 40
1.0
 10
13.2725609063
 20
9.192608715
 30
0.0
 10
13.272679706
 20
9.178835096
 30
0.0
 10
13.2731408594
 20
9.1515830118
 30
0.0
 10
13.2745263987
 20
9.1112148824
 30
0.0
 10
13.2765945085
 20
9.0719037743
 30
0.0
 10
13.2793368532
 20
9.0338003264
 30
0.0
 10
13.2827425209
 20
8.9970464216
 30
0.0
 10
13.2867988677
 20
8.961780564
 30
0.0
 10
13.2914900292
 20
8.9281357102
 30
0.0
 10
13.2967976703
 20
8.8962379772
 30
0.0
 10
13.3027019108
 20
8.8662073464
 30
0.0
 10
13.3081877576
 20
8.8424478828
 30
0.0
 10
13.312881155
 20
8.8244745789
 30
0.0
 10
13.316476616
 20
8.8117569271
 30
0.0
 10
13.3202035146
 20
8.7995862792
 30
0.0
 10
13.3240583134
 20
8.7879740283
 30
0.0
 10
13.3280370805
 20
8.7769309856
 30
0.0
 10
13.3321362522
 20
8.7664675422
 30
0.0
 10
13.3363521743
 20
8.7565933675
 30
0.0
 10
13.3406808388
 20
8.7473172162
 30
0.0
 10
13.3451185444
 20
8.7386475688
 30
0.0
 10
13.3496614253
 20
8.7305927062
 30
0.0
 10
13.3543042204
 20
8.723160731
 30
0.0
 10
13.357552288
 20
8.7184981823
 30
0.0
 10
13.3591948156
 20
8.7162797622
 30
0.0
  0
SPLINE
  5
367
100
AcDbEntity
  8
0
100
AcDbSpline
 62
7
  6
CONTINUOUS
 70
0
 71
3
 72
23
 73
19
 74
0
 42
0.0000001
 43
0.0000001
 44
0.0000000001
 40
0.0
 40
0.0
 40
0.0
 40
0.0
 40
0.0517124017
 40
0.105817437
 40
0.1621248898
 40
0.2204554779
 40
0.2806133097
 40
0.342391697
 40
0.4055775525
 40
0.4699511935
 40
0.5352873143
 40
0.6013557937
 40
0.6679239017
 40
0.7347566859
 40
0.801615562
 40
0.8682649978
 40
0.9344779167
 40
1.0
 40
1.0
 40
1.0
 40
1.0
 10
13.3591948156
 20
9.8800045025
 30
0.0
 10
13.3559221756
 20
9.8692621752
 30
0.0
 10
13.3495282581
 20
9.8471873766
 30
0.0
 10
13.340561103
 20
9.8131386533
 30
0.0
 10
13.3320264412
 20
9.7774994688
 30
0.0
 10
13.3239569349
 20
9.7404061672
 30
0.0
 10
13.3163825896
 20
9.7019971245
 30
0.0
 10
13.3093326933
 20
9.6624171413
 30
0.0
 10
13.3028338271
 20
9.6218156784
 30
0.0
 10
13.2969105133
 20
9.5803457917
 30
0.0
 10
13.2915855366
 20
9.5381638923
 30
0.0
 10
13.2868787411
 20
9.4954291488
 30
0.0
 10
13.2828080709
 20
9.4523026969
 30
0.0
 10
13.2793891296
 20
9.4089475334
 30
0.0
 10
13.2766344002
 20
9.3655274198
 30
0.0
 10
13.2745545126
 20
9.3222044644
 30
0.0
 10
13.2731576305
 20
9.2791446453
 30
0.0
 10
13.2726816151
 20
9.250539824
 30
0.0
 10
13.2725609063
 20
9.2363116791
 30
0.0
  0
SPLINE
  5
368
100
AcDbEntity
  8
0
100
AcDbSpline
 62
7
  6
CONTINUOUS
 70
0
 71
3
 72
55
 73
51
 74
0
 42
0.0000001
 43
0.0000001
 44
0.0000000001
 40
0.0
 40
0.0
 40
0.0
 40
0.0
 40
0.0544796836
 40
0.1080730038
 40
0.1606188057
 40
0.2119841062
 40
0.2620411187
 40
0.3106614428
 40
0.3577215751
 40
0.4031061635
 40
0.4467061545
 40
0.4884199557
 40
0.5281545703
 40
0.5658265035
 40
0.6013637281
 40
0.6347062423
 40
0.6658099984
 40
0.694647824
 40
0.7082163713
 40
0.7212192512
 40
0.7336600645
 40
0.7455452452
 40
0.7568838525
 40
0.7676875652
 40
0.7779714304
 40
0.7877550967
 40
0.7970627058
 40
0.8059233995
 40
0.8143724103
 40
0.8224520268
 40
0.8302114288
 40
0.8377068764
 40
0.8450017153
 40
0.8521653036
 40
0.8592710663
 40
0.8663944188
 40
0.8736102248
 40
0.8809901605
 40
0.888600879
 40
0.8965027645
 40
0.9047487914
 40
0.9133845833
 40
0.92244909
 40
0.9319750597
 40
0.9419890353
 40
0.9525126212
 40
0.9635634308
 40
0.9751553269
 40
0.9872983602
 40
1.0
 40
1.0
 40
1.0
 40
1.0
 10
14.0154038243
 20
9.1866945929
 30
0.0
 10
14.0154038243
 20
9.176129628
 30
0.0
 10
14.0155524888
 20
9.1551712508
 30
0.0
 10
14.0162309932
 20
9.1240295522
 30
0.0
 10
14.0173623113
 20
9.0935052401
 30
0.0
 10
14.0189425742
 20
9.063687526
 30
0.0
 10
14.0209674723
 20
9.0346596442
 30
0.0
 10
14.023430842
 20
9.0065035277
 30
0.0
 10
14.0263259656
 20
8.979299416
 30
0.0
 10
14.0296441503
 20
8.9531245433
 30
0.0
 10
14.0333759873
 20
8.9280529453
 30
0.0
 10
14.0375106184
 20
8.904155542
 30
0.0
 10
14.042036089
 20
8.8814998769
 30
0.0
 10
14.0469394596
 20
8.8601497795
 30
0.0
 10
14.0522063483
 20
8.8401652354
 30
0.0
 10
14.0578220351
 20
8.8216019118
 30
0.0
 10
14.0637700231
 20
8.8045117592
 30
0.0
 10
14.0690929471
 20
8.7912796823
 30
0.0
 10
14.0735252229
 20
8.7814896538
 30
0.0
 10
14.0768542987
 20
8.7746945973
 30
0.0
 10
14.080253824
 20
8.7683018516
 30
0.0
 10
14.0837214231
 20
8.7623157594
 30
0.0
 10
14.0872546409
 20
8.7567403262
 30
0.0
 10
14.0908511903
 20
8.7515794464
 30
0.0
 10
14.0945089888
 20
8.7468368892
 30
0.0
 10
14.0982255472
 20
8.7425157746
 30
0.0
 10
14.1019985661
 20
8.7386190366
 30
0.0
 10
14.1058259475
 20
8.7351496737
 30
0.0
 10
14.1097056709
 20
8.7321106622
 30
0.0
 10
14.1136352903
 20
8.7295043576
 30
0.0
 10
14.1176124494
 20
8.7273332704
 30
0.0
 10
14.1216346501
 20
8.7256002518
 30
0.0
 10
14.1256988176
 20
8.7243078768
 30
0.0
 10
14.1298012116
 20
8.7234577855
 30
0.0
 10
14.1339377941
 20
8.7230513649
 30
0.0
 10
14.1381041929
 20
8.7230896149
 30
0.0
 10
14.1422959422
 20
8.7235720565
 30
0.0
 10
14.146508991
 20
8.7244971394
 30
0.0
 10
14.1507397557
 20
8.7258631908
 30
0.0
 10
14.1549849207
 20
8.7276685288
 30
0.0
 10
14.1592417285
 20
8.7299106267
 30
0.0
 10
14.1635076503
 20
8.7325870067
 30
0.0
 10
14.1677801243
 20
8.7356954574
 30
0.0
 10
14.1720564153
 20
8.739233775
 30
0.0
 10
14.1763341074
 20
8.7431990466
 30
0.0
 10
14.1806105684
 20
8.7475883816
 30
0.0
 10
14.1848829693
 20
8.7523988703
 30
0.0
 10
14.1891483825
 20
8.757627321
 30
0.0
 10
14.1934041068
 20
8.763269812
 30
0.0
 10
14.1961703968
 20
8.7672157956
 30
0.0
 10
14.1975527432
 20
8.7692544947
 30
0.0
  0
SPLINE
  5
369
100
AcDbEntity
  8
0
100
AcDbSpline
 62
7
  6
CONTINUOUS
 70
0
 71
3
 72
9
 73
5
 74
0
 42
0.0000001
 43
0.0000001
 44
0.0000000001
 40
0.0
 40
0.0
 40
0.0
 40
0.0
 40
0.2415810799
 40
1.0
 40
1.0
 40
1.0
 40
1.0
 10
14.1975527432
 20
8.7692544947
 30
0.0
 10
14.1983237579
 20
8.7703915954
 30
0.0
 10
14.2014742395
 20
8.7751262951
 30
0.0
 10
14.2044656901
 20
8.7799661416
 30
0.0
 10
14.2066568259
 20
8.7836811647
 30
0.0
  0
SPLINE
  5
36A
100
AcDbEntity
  8
0
100
AcDbSpline
 62
7
  6
CONTINUOUS
 70
0
 71
3
 72
11
 73
7
 74
0
 42
0.0000001
 43
0.0000001
 44
0.0000000001
 40
0.0
 40
0.0
 40
0.0
 40
0.0
 40
0.2707423955
 40
0.5275743428
 40
0.7705940619
 40
1.0
 40
1.0
 40
1.0
 40
1.0
 10
14.2833912383
 20
9.8901096951
 30
0.0
 10
14.2820949324
 20
9.8932242756
 30
0.0
 10
14.279469912
 20
9.8992529542
 30
0.0
 10
14.2753127554
 20
9.9079110085
 30
0.0
 10
14.2710440283
 20
9.9159358627
 30
0.0
 10
14.2680413188
 20
9.9210023796
 30
0.0
 10
14.2665187953
 20
9.9234216717
 30
0.0
  0
SPLINE
  5
36B
100
AcDbEntity
  8
0
100
AcDbSpline
 62
7
  6
CONTINUOUS
 70
0
 71
3
 72
55
 73
51
 74
0
 42
0.0000001
 43
0.0000001
 44
0.0000000001
 40
0.0
 40
0.0
 40
0.0
 40
0.0
 40
0.0091577868
 40
0.0177618445
 40
0.0258372884
 40
0.0334170679
 40
0.0405430748
 40
0.0472684852
 40
0.0536583613
 40
0.0597898466
 40
0.0657516837
 40
0.0716409717
 40
0.0775587123
 40
0.0836043685
 40
0.0898706698
 40
0.0964402932
 40
0.0998623988
 40
0.1033856202
 40
0.1107605558
 40
0.1186142058
 40
0.126983132
 40
0.1358954139
 40
0.14537248
 40
0.1554292655
 40
0.1660758699
 40
0.1773187873
 40
0.1891604404
 40
0.2016004246
 40
0.2146363091
 40
0.2282628502
 40
0.2424730097
 40
0.257258518
 40
0.2726089663
 40
0.3049559727
 40
0.3394089097
 40
0.3758441812
 40
0.4141231893
 40
0.4540951793
 40
0.4955985596
 40
0.5384619526
 40
0.5825062071
 40
0.6275453385
 40
0.6733874576
 40
0.7198363195
 40
0.7666923239
 40
0.8137540635
 40
0.8608176619
 40
0.9076794905
 40
0.9541447315
 40
1.0
 40
1.0
 40
1.0
 40
1.0
 10
14.2665187953
 20
9.9234216717
 30
0.0
 10
14.2650666087
 20
9.9257291983
 30
0.0
 10
14.2621352872
 20
9.9301342706
 30
0.0
 10
14.2574977593
 20
9.9362775811
 30
0.0
 10
14.2527637062
 20
9.9417404162
 30
0.0
 10
14.2479375952
 20
9.9465165493
 30
0.0
 10
14.2430227595
 20
9.9505995362
 30
0.0
 10
14.2380232981
 20
9.9539834971
 30
0.0
 10
14.2329436101
 20
9.9566624741
 30
0.0
 10
14.2277887254
 20
9.9586290861
 30
0.0
 10
14.2225662994
 20
9.9598774594
 30
0.0
 10
14.2172858548
 20
9.960403483
 30
0.0
 10
14.2119582766
 20
9.9602047319
 30
0.0
 10
14.2065943062
 20
9.9592836236
 30
0.0
 10
14.201203098
 20
9.9576450318
 30
0.0
 10
14.1967543711
 20
9.9557120001
 30
0.0
 10
14.1931960119
 20
9.9538310011
 30
0.0
 10
14.189527035
 20
9.951656494
 30
0.0
 10
14.1849284357
 20
9.9484774276
 30
0.0
 10
14.1794869461
 20
9.9440234704
 30
0.0
 10
14.17404445
 20
9.9388794616
 30
0.0
 10
14.1686062799
 20
9.9330516292
 30
0.0
 10
14.1631781234
 20
9.9265459846
 30
0.0
 10
14.1577653272
 20
9.9193700024
 30
0.0
 10
14.1523735678
 20
9.9115316341
 30
0.0
 10
14.1470091576
 20
9.903039319
 30
0.0
 10
14.1416777816
 20
9.8939027463
 30
0.0
 10
14.1363853637
 20
9.8841322139
 30
0.0
 10
14.1311382807
 20
9.8737385662
 30
0.0
 10
14.1259422482
 20
9.8627337312
 30
0.0
 10
14.1208031665
 20
9.8511302496
 30
0.0
 10
14.115727204
 20
9.8389411954
 30
0.0
 10
14.1089319395
 20
9.8216231713
 30
0.0
 10
14.1006655849
 20
9.7985984677
 30
0.0
 10
14.0912517613
 20
9.7693354762
 30
0.0
 10
14.0822223122
 20
9.73810921
 30
0.0
 10
14.0736188464
 20
9.7050627905
 30
0.0
 10
14.0654814313
 20
9.6703473043
 30
0.0
 10
14.0578480099
 20
9.6341218685
 30
0.0
 10
14.0507537449
 20
9.5965527306
 30
0.0
 10
14.0442315565
 20
9.5578123803
 30
0.0
 10
14.0383118128
 20
9.5180787311
 30
0.0
 10
14.0330216846
 20
9.4775344095
 30
0.0
 10
14.0283856485
 20
9.4363657985
 30
0.0
 10
14.0244252512
 20
9.3947620015
 30
0.0
 10
14.0211586465
 20
9.3529144351
 30
0.0
 10
14.0186008076
 20
9.3110158477
 30
0.0
 10
14.0167634906
 20
9.2692571792
 30
0.0
 10
14.0156554812
 20
9.2278327629
 30
0.0
 10
14.0154038243
 20
9.2003465876
 30
0.0
 10
14.0154038243
 20
9.1866945929
 30
0.0
  0
SPLINE
  5
36C
100
AcDbEntity
  8
0
100
AcDbSpline
 62
7
  6
CONTINUOUS
 70
0
 71
3
 72
9
 73
5
 74
0
 42
0.0000001
 43
0.0000001
 44
0.0000000001
 40
0.0
 40
0.0
 40
0.0
 40
0.0
 40
0.5149357862
 40
1.0
 40
1.0
 40
1.0
 40
1.0
 10
13.3591948156
 20
8.7162797622
 30
0.0
 10
13.3608047638
 20
8.7141053442
 30
0.0
 10
13.3640514657
 20
8.7099697757
 30
0.0
 10
13.3675632854
 20
8.7060549967
 30
0.0
 10
13.3693361147
 20
8.7042240235
 30
0.0
  0
SPLINE
  5
36D
100
AcDbEntity
  8
0
100
AcDbSpline
 62
7
  6
CONTINUOUS
 70
0
 71
3
 72
37
 73
33
 74
0
 42
0.0000001
 43
0.0000001
 44
0.0000000001
 40
0.0
 40
0.0
 40
0.0
 40
0.0
 40
0.0964112922
 40
0.1901906492
 40
0.2807583835
 40
0.3675835225
 40
0.4094323166
 40
0.450157461
 40
0.4897016084
 40
0.5280107694
 40
0.5650329334
 40
0.600720838
 40
0.6350299683
 40
0.6679203677
 40
0.6993569715
 40
0.7293088589
 40
0.7577523785
 40
0.7846691308
 40
0.8100495366
 40
0.8338928968
 40
0.8562090528
 40
0.8770224534
 40
0.8963726747
 40
0.9143213188
 40
0.9309549459
 40
0.9463922245
 40
0.9607907246
 40
0.9743509572
 40
0.9808967563
 40
0.9873288622
 40
0.9936838942
 40
1.0
 40
1.0
 40
1.0
 40
1.0
 10
13.2149044762
 20
9.1994715528
 30
0.0
 10
13.2149044762
 20
9.1793124881
 30
0.0
 10
13.2153316384
 20
9.1395431417
 30
0.0
 10
13.2172990512
 20
9.0808658753
 30
0.0
 10
13.2205727486
 20
9.0242540654
 30
0.0
 10
13.224415091
 20
8.9785667576
 30
0.0
 10
13.2281524227
 20
8.9433429387
 30
0.0
 10
13.2312314145
 20
8.9179939712
 30
0.0
 10
13.2346157593
 20
8.8934308108
 30
0.0
 10
13.2382994058
 20
8.8696938715
 30
0.0
 10
13.2422767924
 20
8.8468222541
 30
0.0
 10
13.2465407664
 20
8.8248535832
 30
0.0
 10
13.2510845177
 20
8.80382394
 30
0.0
 10
13.255900516
 20
8.7837678418
 30
0.0
 10
13.2609803749
 20
8.764718086
 30
0.0
 10
13.2663163152
 20
8.7467058704
 30
0.0
 10
13.2718987728
 20
8.7297604133
 30
0.0
 10
13.277719182
 20
8.7139092549
 30
0.0
 10
13.2837677667
 20
8.6991778788
 30
0.0
 10
13.2900346724
 20
8.6855897095
 30
0.0
 10
13.2965106649
 20
8.6731664226
 30
0.0
 10
13.3031850929
 20
8.6619269939
 30
0.0
 10
13.3100494063
 20
8.651889148
 30
0.0
 10
13.3170940009
 20
8.6430679345
 30
0.0
 10
13.3243110077
 20
8.6354774514
 30
0.0
 10
13.3316941165
 20
8.6291313849
 30
0.0
 10
13.3392345794
 20
8.6240434018
 30
0.0
 10
13.3457230392
 20
8.6208282379
 30
0.0
 10
13.3509446913
 20
8.6189368725
 30
0.0
 10
13.3548442925
 20
8.6178556498
 30
0.0
 10
13.3587700439
 20
8.6170966904
 30
0.0
 10
13.36140695
 20
8.6168056187
 30
0.0
 10
13.3627244502
 20
8.6167142804
 30
0.0
  0
SPLINE
  5
36E
100
AcDbEntity
  8
0
100
AcDbSpline
 62
7
  6
CONTINUOUS
 70
0
 71
3
 72
48
 73
44
 74
0
 42
0.0000001
 43
0.0000001
 44
0.0000000001
 40
0.0
 40
0.0
 40
0.0
 40
0.0
 40
0.0417704112
 40
0.0840386256
 40
0.1266601605
 40
0.1695075437
 40
0.255350012
 40
0.3405015213
 40
0.3824895014
 40
0.4239116219
 40
0.464640564
 40
0.5045521279
 40
0.5435250537
 40
0.5814424351
 40
0.6181915682
 40
0.6536649563
 40
0.6877611854
 40
0.7203848469
 40
0.7514486498
 40
0.7808729855
 40
0.8085883399
 40
0.8217869473
 40
0.8345375105
 40
0.846834529
 40
0.8586738401
 40
0.8700524822
 40
0.8809683455
 40
0.8914207229
 40
0.9014108926
 40
0.9109416263
 40
0.9200175061
 40
0.9286459499
 40
0.936837114
 40
0.944604074
 40
0.9519639
 40
0.958938379
 40
0.9655541515
 40
0.9718436235
 40
0.9778460214
 40
0.9836072767
 40
0.9891799827
 40
0.9946230313
 40
1.0
 40
1.0
 40
1.0
 40
1.0
 10
13.2149044762
 20
9.1994715528
 30
0.0
 10
13.2149044762
 20
9.2140124505
 30
0.0
 10
13.2151315375
 20
9.2432679972
 30
0.0
 10
13.2161342241
 20
9.287350381
 30
0.0
 10
13.2177989976
 20
9.3317880619
 30
0.0
 10
13.2208956523
 20
9.3913453645
 30
0.0
 10
13.2263628548
 20
9.4655965438
 30
0.0
 10
13.2339324505
 20
9.5393626369
 30
0.0
 10
13.2412254674
 20
9.5975883517
 30
0.0
 10
13.2472487092
 20
9.6403829686
 30
0.0
 10
13.2538306451
 20
9.6823637207
 30
0.0
 10
13.2609491073
 20
9.7233918924
 30
0.0
 10
13.2685808774
 20
9.7633318006
 30
0.0
 10
13.2767001474
 20
9.8020514807
 30
0.0
 10
13.2852801234
 20
9.8394229884
 30
0.0
 10
13.2942922523
 20
9.87532294
 30
0.0
 10
13.3037062034
 20
9.9096329375
 30
0.0
 10
13.313491108
 20
9.9422398414
 30
0.0
 10
13.3236137377
 20
9.9730365877
 30
0.0
 10
13.3340408887
 20
10.0019216237
 30
0.0
 10
13.3430960882
 20
10.0246773734
 30
0.0
 10
13.3504861802
 20
10.041836026
 30
0.0
 10
13.3559926274
 20
10.0539590793
 30
0.0
 10
13.361549116
 20
10.0655366283
 30
0.0
 10
13.3671510502
 20
10.076559223
 30
0.0
 10
13.3727936267
 20
10.0870179745
 30
0.0
 10
13.3784723341
 20
10.0969042401
 30
0.0
 10
13.3841827131
 20
10.1062098375
 30
0.0
 10
13.3899198598
 20
10.1149274183
 30
0.0
 10
13.395679139
 20
10.1230499632
 30
0.0
 10
13.4014562689
 20
10.1305706675
 30
0.0
 10
13.4072465368
 20
10.1374836364
 30
0.0
 10
13.4130453549
 20
10.1437835143
 30
0.0
 10
13.4188486003
 20
10.1494649963
 30
0.0
 10
13.4246521528
 20
10.1545233005
 30
0.0
 10
13.4304516863
 20
10.1589544991
 30
0.0
 10
13.436243344
 20
10.1627545421
 30
0.0
 10
13.4420235042
 20
10.165919063
 30
0.0
 10
13.4477879386
 20
10.1684446558
 30
0.0
 10
13.4535322212
 20
10.1703277669
 30
0.0
 10
13.4592517741
 20
10.1715642035
 30
0.0
 10
13.4649395544
 20
10.1721510422
 30
0.0
 10
13.4687157402
 20
10.1721079823
 30
0.0
 10
13.4705830605
 20
10.1719785266
 30
0.0
  0
SPLINE
  5
36F
100
AcDbEntity
  8
0
100
AcDbSpline
 62
7
  6
CONTINUOUS
 70
0
 71
3
 72
9
 73
5
 74
0
 42
0.0000001
 43
0.0000001
 44
0.0000000001
 40
0.0
 40
0.0
 40
0.0
 40
0.0
 40
0.5149357862
 40
1.0
 40
1.0
 40
1.0
 40
1.0
 10
14.0294629878
 20
8.6697965066
 30
0.0
 10
14.031072936
 20
8.6676220886
 30
0.0
 10
14.0343196379
 20
8.6634865201
 30
0.0
 10
14.0378314576
 20
8.6595717411
 30
0.0
 10
14.0396042869
 20
8.6577407679
 30
0.0
  0
SPLINE
  5
370
100
AcDbEntity
  8
0
100
AcDbSpline
 62
7
  6
CONTINUOUS
 70
0
 71
3
 72
41
 73
37
 74
0
 42
0.0000001
 43
0.0000001
 44
0.0000000001
 40
0.0
 40
0.0
 40
0.0
 40
0.0
 40
0.0310748272
 40
0.0623072483
 40
0.0936920359
 40
0.1252208484
 40
0.156882237
 40
0.188662033
 40
0.2205436266
 40
0.2525083437
 40
0.2845358343
 40
0.3166044929
 40
0.3486918936
 40
0.3807752384
 40
0.4128318095
 40
0.4448394218
 40
0.4767768664
 40
0.5086243418
 40
0.5403638639
 40
0.5719796493
 40
0.6034584635
 40
0.6347899281
 40
0.6659667781
 40
0.6969850622
 40
0.7278442783
 40
0.7585474376
 40
0.7891010512
 40
0.8195150346
 40
0.8498025274
 40
0.8649066426
 40
0.8799854039
 40
0.9100708284
 40
0.9400854823
 40
0.9550762294
 40
0.970057877
 40
1.0
 40
1.0
 40
1.0
 40
1.0
 10
8.2219659854
 20
9.2989222942
 30
0.0
 10
8.2219659854
 20
9.303781646
 30
0.0
 10
8.2216034779
 20
9.313528732
 30
0.0
 10
8.2199850234
 20
9.3281026896
 30
0.0
 10
8.2172995446
 20
9.3425910898
 30
0.0
 10
8.2135619565
 20
9.3569132952
 30
0.0
 10
8.2087929138
 20
9.3709909654
 30
0.0
 10
8.2030187257
 20
9.3847467515
 30
0.0
 10
8.1962711896
 20
9.3981051848
 30
0.0
 10
8.1885874265
 20
9.4109929587
 30
0.0
 10
8.1800096725
 20
9.4233393595
 30
0.0
 10
8.1705850504
 20
9.4350766407
 30
0.0
 10
8.1603653123
 20
9.4461403929
 30
0.0
 10
8.1494065579
 20
9.4564698925
 30
0.0
 10
8.1377689296
 20
9.4660084322
 30
0.0
 10
8.1255162862
 20
9.4747036288
 30
0.0
 10
8.1127158561
 20
9.4825077086
 30
0.0
 10
8.099437873
 20
9.4893777677
 30
0.0
 10
8.0857551954
 20
9.4952760063
 30
0.0
 10
8.0717429118
 20
9.5001699365
 30
0.0
 10
8.057477935
 20
9.5040325608
 30
0.0
 10
8.0430385855
 20
9.5068425229
 30
0.0
 10
8.0285041668
 20
9.5085842276
 30
0.0
 10
8.0139545399
 20
9.5092479341
 30
0.0
 10
7.9994696738
 20
9.5088298081
 30
0.0
 10
7.9851292688
 20
9.5073319785
 30
0.0
 10
7.9710121013
 20
9.5047624371
 30
0.0
 10
7.9571964045
 20
9.5011353664
 30
0.0
 10
7.9459855531
 20
9.4972435698
 30
0.0
 10
7.9372472385
 20
9.4936242962
 30
0.0
 10
7.9286858047
 20
9.4896793187
 30
0.0
 10
7.9183050374
 20
9.4841340174
 30
0.0
 10
7.9084056139
 20
9.4777944269
 30
0.0
 10
7.9008188895
 20
9.4722737217
 30
0.0
 10
7.8934663255
 20
9.4664638984
 30
0.0
 10
7.8882163113
 20
9.4617815005
 30
0.0
 10
7.8848486111
 20
9.4585285296
 30
0.0
  0
SPLINE
  5
371
100
AcDbEntity
  8
0
100
AcDbSpline
 62
7
  6
CONTINUOUS
 70
0
 71
3
 72
41
 73
37
 74
0
 42
0.0000001
 43
0.0000001
 44
0.0000000001
 40
0.0
 40
0.0
 40
0.0
 40
0.0
 40
0.0310748272
 40
0.0623072483
 40
0.0936920359
 40
0.1252208484
 40
0.156882237
 40
0.188662033
 40
0.2205436266
 40
0.2525083437
 40
0.2845358343
 40
0.3166044929
 40
0.3486918936
 40
0.3807752384
 40
0.4128318095
 40
0.4448394218
 40
0.4767768664
 40
0.5086243418
 40
0.5403638639
 40
0.5719796493
 40
0.6034584635
 40
0.6347899281
 40
0.6659667781
 40
0.6969850622
 40
0.7278442783
 40
0.7585474376
 40
0.7891010512
 40
0.8195150346
 40
0.8498025274
 40
0.8649066426
 40
0.8799854039
 40
0.9100708284
 40
0.9400854823
 40
0.9550762294
 40
0.970057877
 40
1.0
 40
1.0
 40
1.0
 40
1.0
 10
12.8101139321
 20
7.0488813864
 30
0.0
 10
12.8101139321
 20
7.0537407382
 30
0.0
 10
12.8097514246
 20
7.0634878242
 30
0.0
 10
12.8081329701
 20
7.0780617818
 30
0.0
 10
12.8054474914
 20
7.092550182
 30
0.0
 10
12.8017099032
 20
7.1068723873
 30
0.0
 10
12.7969408606
 20
7.1209500575
 30
0.0
 10
12.7911666724
 20
7.1347058436
 30
0.0
 10
12.7844191364
 20
7.1480642769
 30
0.0
 10
12.7767353732
 20
7.1609520508
 30
0.0
 10
12.7681576192
 20
7.1732984517
 30
0.0
 10
12.7587329972
 20
7.1850357329
 30
0.0
 10
12.7485132591
 20
7.196099485
 30
0.0
 10
12.7375545046
 20
7.2064289847
 30
0.0
 10
12.7259168763
 20
7.2159675244
 30
0.0
 10
12.7136642329
 20
7.224662721
 30
0.0
 10
12.7008638029
 20
7.2324668008
 30
0.0
 10
12.6875858198
 20
7.2393368598
 30
0.0
 10
12.6739031421
 20
7.2452350985
 30
0.0
 10
12.6598908585
 20
7.2501290287
 30
0.0
 10
12.6456258817
 20
7.253991653
 30
0.0
 10
12.6311865322
 20
7.256801615
 30
0.0
 10
12.6166521135
 20
7.2585433198
 30
0.0
 10
12.6021024867
 20
7.2592070262
 30
0.0
 10
12.5876176205
 20
7.2587889003
 30
0.0
 10
12.5732772155
 20
7.2572910706
 30
0.0
 10
12.559160048
 20
7.2547215292
 30
0.0
 10
12.5453443513
 20
7.2510944585
 30
0.0
 10
12.5341334998
 20
7.2472026619
 30
0.0
 10
12.5253951852
 20
7.2435833884
 30
0.0
 10
12.5168337514
 20
7.2396384109
 30
0.0
 10
12.5064529842
 20
7.2340931095
 30
0.0
 10
12.4965535606
 20
7.227753519
 30
0.0
 10
12.4889668362
 20
7.2222328139
 30
0.0
 10
12.4816142722
 20
7.2164229905
 30
0.0
 10
12.476364258
 20
7.2117405926
 30
0.0
 10
12.4729965579
 20
7.2084876218
 30
0.0
  0
SPLINE
  5
372
100
AcDbEntity
  8
0
100
AcDbSpline
 62
7
  6
CONTINUOUS
 70
0
 71
3
 72
39
 73
35
 74
0
 42
0.0000001
 43
0.0000001
 44
0.0000000001
 40
0.0
 40
0.0
 40
0.0
 40
0.0
 40
0.0311450401
 40
0.062443098
 40
0.0938883402
 40
0.1254709779
 40
0.1571788704
 40
0.1889972432
 40
0.2209091549
 40
0.2528958204
 40
0.2849369968
 40
0.3170113846
 40
0.3490970423
 40
0.3811718113
 40
0.4132137424
 40
0.4452015207
 40
0.4771148823
 40
0.5089350149
 40
0.5406449388
 40
0.5722298604
 40
0.6036774924
 40
0.6349783353
 40
0.6661259096
 40
0.6971169338
 40
0.7279514411
 40
0.7586328285
 40
0.7891678337
 40
0.8195664367
 40
0.8498416808
 40
0.8800094153
 40
0.9100879635
 40
0.9400977213
 40
0.9700606967
 40
1.0
 40
1.0
 40
1.0
 40
1.0
 10
11.044401417
 20
7.9585635603
 30
0.0
 10
11.0547796891
 20
7.9578438247
 30
0.0
 10
11.0755422641
 20
7.955641176
 30
0.0
 10
11.106434413
 20
7.950092612
 30
0.0
 10
11.1369956765
 20
7.9423207765
 30
0.0
 10
11.1670610132
 20
7.932367414
 30
0.0
 10
11.1964706854
 20
7.9202859041
 30
0.0
 10
11.2250678174
 20
7.9061408508
 30
0.0
 10
11.2527000604
 20
7.8900078397
 30
0.0
 10
11.2792201773
 20
7.8719730173
 30
0.0
 10
11.3044868745
 20
7.8521326237
 30
0.0
 10
11.3283655233
 20
7.8305924773
 30
0.0
 10
11.3507288743
 20
7.8074674169
 30
0.0
 10
11.3714577266
 20
7.7828806963
 30
0.0
 10
11.3904415525
 20
7.7569633329
 30
0.0
 10
11.4075791046
 20
7.7298534331
 30
0.0
 10
11.4227789398
 20
7.701695451
 30
0.0
 10
11.4359598951
 20
7.6726394236
 30
0.0
 10
11.44705152
 20
7.6428401837
 30
0.0
 10
11.455994452
 20
7.6124565465
 30
0.0
 10
11.4627407315
 20
7.5816504751
 30
0.0
 10
11.4672540862
 20
7.5505862344
 30
0.0
 10
11.4695101253
 20
7.5194295204
 30
0.0
 10
11.4694964646
 20
7.488346586
 30
0.0
 10
11.4672128097
 20
7.4575033655
 30
0.0
 10
11.4626709746
 20
7.4270645967
 30
0.0
 10
11.4558948343
 20
7.3971929472
 30
0.0
 10
11.4469202356
 20
7.3680481374
 30
0.0
 10
11.4357948402
 20
7.3397860896
 30
0.0
 10
11.4225778149
 20
7.3125580358
 30
0.0
 10
11.4073397379
 20
7.2865098897
 30
0.0
 10
11.3901614858
 20
7.2617807135
 30
0.0
 10
11.3711365848
 20
7.2385046769
 30
0.0
 10
11.357283949
 20
7.2240330924
 30
0.0
 10
11.3500910917
 20
7.2170852958
 30
0.0
  0
SPLINE
  5
373
100
AcDbEntity
  8
0
100
AcDbSpline
 62
7
  6
CONTINUOUS
 70
0
 71
3
 72
53
 73
49
 74
0
 42
0.0000001
 43
0.0000001
 44
0.0000000001
 40
0.0
 40
0.0
 40
0.0
 40
0.0
 40
0.0417740478
 40
0.0840369835
 40
0.1266585592
 40
0.1695065657
 40
0.2124481957
 40
0.2553501644
 40
0.2980793779
 40
0.3405034127
 40
0.3824910553
 40
0.4239128269
 40
0.4646415185
 40
0.5045527309
 40
0.5435254266
 40
0.5814424966
 40
0.6181913512
 40
0.6536645436
 40
0.6877604426
 40
0.7203839756
 40
0.7361162401
 40
0.7514482063
 40
0.7663702194
 40
0.7808732533
 40
0.7949489098
 40
0.808589482
 40
0.8217880323
 40
0.8345384043
 40
0.8468353889
 40
0.8586746951
 40
0.8700532057
 40
0.8809689358
 40
0.8914213732
 40
0.9014114696
 40
0.9109420597
 40
0.9200179488
 40
0.9286464106
 40
0.9368374402
 40
0.9446043453
 40
0.9519642202
 40
0.9589386335
 40
0.9655543067
 40
0.9718438059
 40
0.9778461959
 40
0.9836073668
 40
0.9891800504
 40
0.9946230772
 40
1.0
 40
1.0
 40
1.0
 40
1.0
 10
13.0973803972
 20
9.206952003
 30
0.0
 10
13.0973803972
 20
9.2215409072
 30
0.0
 10
13.0976079992
 20
9.2508899102
 30
0.0
 10
13.0986141898
 20
9.2951134343
 30
0.0
 10
13.1002842158
 20
9.3396922657
 30
0.0
 10
13.1026126065
 20
9.3844788518
 30
0.0
 10
13.1055916651
 20
9.4293250044
 30
0.0
 10
13.1092115455
 20
9.4740823653
 30
0.0
 10
13.1134602559
 20
9.5186028559
 30
0.0
 10
13.118323712
 20
9.5627391925
 30
0.0
 10
13.1237857777
 20
9.6063453692
 30
0.0
 10
13.12982832
 20
9.6492771471
 30
0.0
 10
13.1364312673
 20
9.6913925352
 30
0.0
 10
13.1435726745
 20
9.7325522666
 30
0.0
 10
13.1512287947
 20
9.772620264
 30
0.0
 10
13.1593741549
 20
9.811464107
 30
0.0
 10
13.1679816424
 20
9.8489554535
 30
0.0
 10
13.1770225801
 20
9.8849705821
 30
0.0
 10
13.1864668683
 20
9.9193904635
 30
0.0
 10
13.1947438766
 20
9.9469735867
 30
0.0
 10
13.2015570583
 20
9.9681468978
 30
0.0
 10
13.206686155
 20
9.9833663516
 30
0.0
 10
13.2118920576
 20
9.9981052076
 30
0.0
 10
13.2171704668
 20
10.0123513173
 30
0.0
 10
13.2225170049
 20
10.0260929236
 30
0.0
 10
13.227927252
 20
10.0393186979
 30
0.0
 10
13.2333967044
 20
10.0520177509
 30
0.0
 10
13.2389208746
 20
10.0641796251
 30
0.0
 10
13.2444951444
 20
10.0757943397
 30
0.0
 10
13.2501149806
 20
10.0868523472
 30
0.0
 10
13.2557756786
 20
10.0973446175
 30
0.0
 10
13.2614726814
 20
10.1072625496
 30
0.0
 10
13.2672012409
 20
10.116598102
 30
0.0
 10
13.2729568035
 20
10.1253436559
 30
0.0
 10
13.2787346408
 20
10.1334921846
 30
0.0
 10
13.2845302457
 20
10.1410370784
 30
0.0
 10
13.2903389988
 20
10.1479723264
 30
0.0
 10
13.29615651
 20
10.1542923241
 30
0.0
 10
13.3019783832
 20
10.1599920149
 30
0.0
 10
13.3078004381
 20
10.1650667118
 30
0.0
 10
13.3136185973
 20
10.1695121177
 30
0.0
 10
13.3194289169
 20
10.1733242077
 30
0.0
 10
13.3252275294
 20
10.1764990547
 30
0.0
 10
13.3310104242
 20
10.1790328923
 30
0.0
 10
13.3367732049
 20
10.1809218205
 30
0.0
 10
13.3425110613
 20
10.1821623289
 30
0.0
 10
13.3482170755
 20
10.1827512508
 30
0.0
 10
13.3520053818
 20
10.1827080252
 30
0.0
 10
13.3538786849
 20
10.1825781108
 30
0.0
  0
SPLINE
  5
374
100
AcDbEntity
  8
0
100
AcDbSpline
 62
7
  6
CONTINUOUS
 70
0
 71
3
 72
93
 73
89
 74
0
 42
0.0000001
 43
0.0000001
 44
0.0000000001
 40
0.0
 40
0.0
 40
0.0
 40
0.0
 40
0.003980186
 40
0.0081240985
 40
0.0124359165
 40
0.0169192431
 40
0.0215771095
 40
0.0264118321
 40
0.03142508
 40
0.0366180353
 40
0.0419914005
 40
0.0475455047
 40
0.0532802486
 40
0.0591952316
 40
0.06528971
 40
0.0715626757
 40
0.0780128531
 40
0.0846387141
 40
0.0984099732
 40
0.1128604928
 40
0.1279709678
 40
0.1437195073
 40
0.160081912
 40
0.1770319065
 40
0.1945413371
 40
0.2125803451
 40
0.2311175218
 40
0.2501200482
 40
0.2695538252
 40
0.2893835946
 40
0.3095730568
 40
0.3300849824
 40
0.35088132
 40
0.3719233022
 40
0.3931715487
 40
0.4145861688
 40
0.4361268626
 40
0.4577530211
 40
0.479423827
 40
0.5010983543
 40
0.5227356683
 40
0.5442949252
 40
0.565735471
 40
0.5870169424
 40
0.6080993662
 40
0.6289432611
 40
0.6495097397
 40
0.6697606129
 40
0.6896584944
 40
0.7091669086
 40
0.7282504005
 40
0.7468746515
 40
0.7650066
 40
0.7826145693
 40
0.7996684066
 40
0.8161396351
 40
0.832001625
 40
0.8472297848
 40
0.8618017864
 40
0.8756978329
 40
0.882387156
 40
0.8889013914
 40
0.8952389461
 40
0.9013984509
 40
0.9073787871
 40
0.9131791314
 40
0.9187989301
 40
0.9242380012
 40
0.9294964809
 40
0.9345749515
 40
0.9394744048
 40
0.9441963552
 40
0.9487428629
 40
0.9531166081
 40
0.9573209919
 40
0.9613601753
 40
0.9652392467
 40
0.9689642524
 40
0.972542391
 40
0.9759820675
 40
0.979293059
 40
0.982486592
 40
0.9855754214
 40
0.9885738725
 40
0.991497773
 40
0.9943643594
 40
0.9971920205
 40
1.0
 40
1.0
 40
1.0
 40
1.0
 10
10.9883161192
 20
10.8909002804
 30
0.0
 10
10.9862464174
 20
10.8889011019
 30
0.0
 10
10.9819278883
 20
10.8849168925
 30
0.0
 10
10.9750714008
 20
10.8790976687
 30
0.0
 10
10.9677114233
 20
10.873320205
 30
0.0
 10
10.9598519883
 20
10.8675875322
 30
0.0
 10
10.9514969058
 20
10.8619023523
 30
0.0
 10
10.9426502974
 20
10.8562674017
 30
0.0
 10
10.9333165718
 20
10.8506854344
 30
0.0
 10
10.9235003778
 20
10.845159304
 30
0.0
 10
10.9132066588
 20
10.8396916788
 30
0.0
 10
10.9024405301
 20
10.8342853817
 30
0.0
 10
10.8912074174
 20
10.8289430328
 30
0.0
 10
10.8795129368
 20
10.8236674007
 30
0.0
 10
10.8673629825
 20
10.8184610857
 30
0.0
 10
10.8547636627
 20
10.8133267534
 30
0.0
 10
10.8417213074
 20
10.8082669586
 30
0.0
 10
10.8235148884
 20
10.8015367525
 30
0.0
 10
10.7996855283
 20
10.7933459382
 30
0.0
 10
10.7697879353
 20
10.7839761542
 30
0.0
 10
10.738291636
 20
10.7749624567
 30
0.0
 10
10.7052602097
 20
10.7663231846
 30
0.0
 10
10.6707601002
 20
10.7580759337
 30
0.0
 10
10.6348608855
 20
10.7502375036
 30
0.0
 10
10.5976350019
 20
10.7428238624
 30
0.0
 10
10.5591576194
 20
10.735850111
 30
0.0
 10
10.5195064723
 20
10.7293304519
 30
0.0
 10
10.4787616977
 20
10.7232781606
 30
0.0
 10
10.4370056683
 20
10.7177055578
 30
0.0
 10
10.394322822
 20
10.7126239834
 30
0.0
 10
10.350799486
 20
10.7080437762
 30
0.0
 10
10.3065236993
 20
10.7039742533
 30
0.0
 10
10.2615850317
 20
10.7004236917
 30
0.0
 10
10.2160744016
 20
10.697399312
 30
0.0
 10
10.1700838904
 20
10.6949072643
 30
0.0
 10
10.1237065553
 20
10.6929526161
 30
0.0
 10
10.0770362401
 20
10.6915393422
 30
0.0
 10
10.0301673849
 20
10.6906703164
 30
0.0
 10
9.9831948329
 20
10.6903473039
 30
0.0
 10
9.9362136381
 20
10.6905709606
 30
0.0
 10
9.8893188714
 20
10.6913408314
 30
0.0
 10
9.8426054279
 20
10.6926553511
 30
0.0
 10
9.7961678342
 20
10.6945118475
 30
0.0
 10
9.7501000568
 20
10.6969065468
 30
0.0
 10
9.7044953109
 20
10.6998345807
 30
0.0
 10
9.659445871
 20
10.7032899965
 30
0.0
 10
9.6150428817
 20
10.7072657678
 30
0.0
 10
9.5713761717
 20
10.7117538069
 30
0.0
 10
9.5285340703
 20
10.7167449834
 30
0.0
 10
9.4866032272
 20
10.7222291417
 30
0.0
 10
9.4456684347
 20
10.728195121
 30
0.0
 10
9.4058124534
 20
10.7346307777
 30
0.0
 10
9.367115841
 20
10.7415230094
 30
0.0
 10
9.3296567832
 20
10.7488577809
 30
0.0
 10
9.2935109319
 20
10.7566201536
 30
0.0
 10
9.258751232
 20
10.7647943153
 30
0.0
 10
9.2254477955
 20
10.7733636127
 30
0.0
 10
9.1936676302
 20
10.782310592
 30
0.0
 10
9.1634748938
 20
10.7916170416
 30
0.0
 10
9.1393914178
 20
10.7997560672
 30
0.0
 10
9.1209761221
 20
10.8064463699
 30
0.0
 10
9.1077743179
 20
10.811478433
 30
0.0
 10
9.0950131845
 20
10.8165859552
 30
0.0
 10
9.0826991326
 20
10.8217663937
 30
0.0
 10
9.0708383711
 20
10.8270171496
 30
0.0
 10
9.0594368474
 20
10.8323355243
 30
0.0
 10
9.0485003113
 20
10.8377189163
 30
0.0
 10
9.0380342192
 20
10.8431645313
 30
0.0
 10
9.0280438461
 20
10.8486697352
 30
0.0
 10
9.0185341563
 20
10.8542316952
 30
0.0
 10
9.0095099228
 20
10.8598477124
 30
0.0
 10
9.000975629
 20
10.8655149752
 30
0.0
 10
8.9929355202
 20
10.8712307045
 30
0.0
 10
8.9853936154
 20
10.8769921524
 30
0.0
 10
8.9783536221
 20
10.8827964782
 30
0.0
 10
8.9718191133
 20
10.8886410116
 30
0.0
 10
8.9657932854
 20
10.8945229041
 30
0.0
 10
8.9602792818
 20
10.9004395423
 30
0.0
 10
8.9552798733
 20
10.9063881354
 30
0.0
 10
8.9507977979
 20
10.9123660708
 30
0.0
 10
8.9468355357
 20
10.9183706274
 30
0.0
 10
8.9433954606
 20
10.9243990929
 30
0.0
 10
8.9404798804
 20
10.9304486914
 30
0.0
 10
8.9380908144
 20
10.9365164484
 30
0.0
 10
8.936230353
 20
10.9425992279
 30
0.0
 10
8.9349000213
 20
10.9486937374
 30
0.0
 10
8.9341013284
 20
10.9547957355
 30
0.0
 10
8.9339235682
 20
10.9588723425
 30
0.0
 10
8.9339235762
 20
10.9609024345
 30
0.0
  0
SPLINE
  5
375
100
AcDbEntity
  8
0
100
AcDbSpline
 62
7
  6
CONTINUOUS
 70
0
 71
3
 72
14
 73
10
 74
0
 42
0.0000001
 43
0.0000001
 44
0.0000000001
 40
0.0
 40
0.0
 40
0.0
 40
0.0
 40
0.2641449397
 40
0.3915662146
 40
0.5164240966
 40
0.6391890499
 40
0.7603580751
 40
0.8804502044
 40
1.0
 40
1.0
 40
1.0
 40
1.0
 10
10.7458289539
 20
10.8634061882
 30
0.0
 10
10.7471399082
 20
10.8657353732
 30
0.0
 10
10.7489036378
 20
10.869296146
 30
0.0
 10
10.7507874512
 20
10.8741729308
 30
0.0
 10
10.7519308984
 20
10.8777943593
 30
0.0
 10
10.752820841
 20
10.8814210963
 30
0.0
 10
10.7534568917
 20
10.8850521261
 30
0.0
 10
10.7538386268
 20
10.888685797
 30
0.0
 10
10.7539235534
 20
10.8911114791
 30
0.0
 10
10.7539235598
 20
10.8923211529
 30
0.0
  0
SPLINE
  5
376
100
AcDbEntity
  8
0
100
AcDbSpline
 62
7
  6
CONTINUOUS
 70
0
 71
3
 72
41
 73
37
 74
0
 42
0.0000001
 43
0.0000001
 44
0.0000000001
 40
0.0
 40
0.0
 40
0.0
 40
0.0
 40
0.0311445021
 40
0.0624424749
 40
0.0938872635
 40
0.1254695783
 40
0.1571771084
 40
0.1889951272
 40
0.2209066806
 40
0.2528929874
 40
0.2849338043
 40
0.3170078318
 40
0.3490931284
 40
0.3811675354
 40
0.4132091043
 40
0.4451965207
 40
0.4771095205
 40
0.5089292914
 40
0.5406388537
 40
0.5722234141
 40
0.6036706863
 40
0.634971171
 40
0.6661183885
 40
0.697109057
 40
0.7279432097
 40
0.7586242438
 40
0.7891588981
 40
0.8195571526
 40
0.8498320501
 40
0.8649308928
 40
0.8800050512
 40
0.9100832561
 40
0.9400926724
 40
0.9550812755
 40
0.9700610347
 40
1.0
 40
1.0
 40
1.0
 40
1.0
 10
11.0563070835
 20
7.7720487455
 30
0.0
 10
11.0618500001
 20
7.771664343
 30
0.0
 10
11.0729391334
 20
7.7704879123
 30
0.0
 10
11.0894383803
 20
7.7675245058
 30
0.0
 10
11.1057609285
 20
7.7633735949
 30
0.0
 10
11.121818567
 20
7.7580575935
 30
0.0
 10
11.1375260296
 20
7.7516049366
 30
0.0
 10
11.1527995168
 20
7.7440501671
 30
0.0
 10
11.1675576662
 20
7.7354336471
 30
0.0
 10
11.1817218377
 20
7.7258013869
 30
0.0
 10
11.1952165644
 20
7.7152047826
 30
0.0
 10
11.207969941
 20
7.7037003507
 30
0.0
 10
11.2199140045
 20
7.6913494269
 30
0.0
 10
11.2309850923
 20
7.6782178428
 30
0.0
 10
11.2411241782
 20
7.664375578
 30
0.0
 10
11.2502771845
 20
7.6498963913
 30
0.0
 10
11.2583952676
 20
7.6348574323
 30
0.0
 10
11.2654350772
 20
7.6193388343
 30
0.0
 10
11.2713589866
 20
7.6034232934
 30
0.0
 10
11.2761352931
 20
7.587195633
 30
0.0
 10
11.2797383888
 20
7.570742358
 30
0.0
 10
11.2821488998
 20
7.5541511999
 30
0.0
 10
11.2833537927
 20
7.5375106542
 30
0.0
 10
11.283346453
 20
7.5209095191
 30
0.0
 10
11.2821267183
 20
7.5044364088
 30
0.0
 10
11.2797009212
 20
7.4881793484
 30
0.0
 10
11.2760817446
 20
7.4722250689
 30
0.0
 10
11.2712886146
 20
7.4566594213
 30
0.0
 10
11.2663317057
 20
7.4440677285
 30
0.0
 10
11.2618082931
 20
7.4342757293
 30
0.0
 10
11.2569266277
 20
7.4246966547
 30
0.0
 10
11.2501487408
 20
7.413110251
 30
0.0
 10
11.2424990924
 20
7.4020984223
 30
0.0
 10
11.2358886841
 20
7.3936812461
 30
0.0
 10
11.228962919
 20
7.3855388212
 30
0.0
 10
11.2234141956
 20
7.3797420859
 30
0.0
 10
11.219572529
 20
7.376031346
 30
0.0
  0
SPLINE
  5
377
100
AcDbEntity
  8
0
100
AcDbSpline
 62
7
  6
CONTINUOUS
 70
0
 71
3
 72
21
 73
17
 74
0
 42
0.0000001
 43
0.0000001
 44
0.0000000001
 40
0.0
 40
0.0
 40
0.0
 40
0.0
 40
0.1274738588
 40
0.254066744
 40
0.3170668616
 40
0.3798654398
 40
0.4424734153
 40
0.5049033591
 40
0.5671697562
 40
0.6292888943
 40
0.6912786507
 40
0.753158338
 40
0.8149484586
 40
0.8766705102
 40
0.9383467683
 40
1.0
 40
1.0
 40
1.0
 40
1.0
 10
11.0563070835
 20
7.7720487455
 30
0.0
 10
11.0487443068
 20
7.7725732259
 30
0.0
 10
11.0336084121
 20
7.7728686247
 30
0.0
 10
11.0147812589
 20
7.7713249587
 30
0.0
 10
10.9999548724
 20
7.7689489687
 30
0.0
 10
10.9889925844
 20
7.7666060948
 30
0.0
 10
10.9781998066
 20
7.7637054988
 30
0.0
 10
10.9676033863
 20
7.7602545119
 30
0.0
 10
10.9572300922
 20
7.7562618117
 30
0.0
 10
10.9471060727
 20
7.751737347
 30
0.0
 10
10.9372568185
 20
7.7466925625
 30
0.0
 10
10.9277071276
 20
7.7411401595
 30
0.0
 10
10.9184811379
 20
7.7350940521
 30
0.0
 10
10.9096019901
 20
7.7285694412
 30
0.0
 10
10.9010923295
 20
7.7215830798
 30
0.0
 10
10.8956788308
 20
7.7166282954
 30
0.0
 10
10.8930416379
 20
7.7140809798
 30
0.0
  0
SPLINE
  5
378
100
AcDbEntity
  8
0
100
AcDbSpline
 62
7
  6
CONTINUOUS
 70
0
 71
3
 72
15
 73
11
 74
0
 42
0.0000001
 43
0.0000001
 44
0.0000000001
 40
0.0
 40
0.0
 40
0.0
 40
0.0
 40
0.1234394136
 40
0.2470466177
 40
0.370982561
 40
0.4953948844
 40
0.6204121622
 40
0.7461393429
 40
0.8726517211
 40
1.0
 40
1.0
 40
1.0
 40
1.0
 10
8.1669174509
 20
9.166512857
 30
0.0
 10
8.171276151
 20
9.1707230669
 30
0.0
 10
8.1795717313
 20
9.1796053346
 30
0.0
 10
8.1905891689
 20
9.1941459787
 30
0.0
 10
8.2000885348
 20
9.2097787437
 30
0.0
 10
8.2079805395
 20
9.2263571491
 30
0.0
 10
8.2141931888
 20
9.2437281298
 30
0.0
 10
8.2186695038
 20
9.2617314914
 30
0.0
 10
8.2213690493
 20
9.2801988594
 30
0.0
 10
8.2219659854
 20
9.2926703512
 30
0.0
 10
8.2219659854
 20
9.2989222942
 30
0.0
  0
SPLINE
  5
379
100
AcDbEntity
  8
0
100
AcDbSpline
 62
7
  6
CONTINUOUS
 70
0
 71
3
 72
15
 73
11
 74
0
 42
0.0000001
 43
0.0000001
 44
0.0000000001
 40
0.0
 40
0.0
 40
0.0
 40
0.0
 40
0.1234394136
 40
0.2470466177
 40
0.370982561
 40
0.4953948844
 40
0.6204121622
 40
0.7461393429
 40
0.8726517211
 40
1.0
 40
1.0
 40
1.0
 40
1.0
 10
12.7550653976
 20
6.9164719491
 30
0.0
 10
12.7594240977
 20
6.920682159
 30
0.0
 10
12.7677196781
 20
6.9295644267
 30
0.0
 10
12.7787371156
 20
6.9441050709
 30
0.0
 10
12.7882364815
 20
6.9597378358
 30
0.0
 10
12.7961284862
 20
6.9763162413
 30
0.0
 10
12.8023411355
 20
6.9936872219
 30
0.0
 10
12.8068174506
 20
7.0116905835
 30
0.0
 10
12.809516996
 20
7.0301579516
 30
0.0
 10
12.8101139321
 20
7.0426294433
 30
0.0
 10
12.8101139321
 20
7.0488813864
 30
0.0
  0
SPLINE
  5
37A
100
AcDbEntity
  8
0
100
AcDbSpline
 62
7
  6
CONTINUOUS
 70
0
 71
3
 72
72
 73
68
 74
0
 42
0.0000001
 43
0.0000001
 44
0.0000000001
 40
0.0
 40
0.0
 40
0.0
 40
0.0
 40
0.0038007327
 40
0.0077417151
 40
0.0118259821
 40
0.0160561951
 40
0.0204346285
 40
0.0249631081
 40
0.0296429494
 40
0.0344751346
 40
0.0394603147
 40
0.0445988313
 40
0.0553355498
 40
0.0666836315
 40
0.0786374663
 40
0.0911885654
 40
0.1043259188
 40
0.1180362933
 40
0.1323045048
 40
0.1471136211
 40
0.1624451154
 40
0.1782790033
 40
0.1945939915
 40
0.2113675882
 40
0.2285761875
 40
0.2461951556
 40
0.2641989338
 40
0.2825611163
 40
0.3012545126
 40
0.320251217
 40
0.3395226922
 40
0.3787724009
 40
0.4187657643
 40
0.4592582238
 40
0.5000012199
 40
0.5407442084
 40
0.5812366423
 40
0.6212299651
 40
0.6604796159
 40
0.6797510601
 40
0.6987477233
 40
0.7174410734
 40
0.7358032137
 40
0.7538069473
 40
0.7714258584
 40
0.7886343963
 40
0.8054079387
 40
0.8217228703
 40
0.8375566875
 40
0.8528881076
 40
0.8676971594
 40
0.8819653045
 40
0.8956755976
 40
0.9088128672
 40
0.9213638945
 40
0.9333176568
 40
0.9446656497
 40
0.955402281
 40
0.9655253304
 40
0.9703574618
 40
0.9750372659
 40
0.9795657038
 40
0.9839441416
 40
0.9881743378
 40
0.9922584754
 40
0.9961992813
 40
1.0
 40
1.0
 40
1.0
 40
1.0
 10
10.7785714906
 20
10.8878849402
 30
0.0
 10
10.7770385268
 20
10.8864584094
 30
0.0
 10
10.7738577941
 20
10.8836147556
 30
0.0
 10
10.7688445358
 20
10.8794510568
 30
0.0
 10
10.7635059914
 20
10.8753147806
 30
0.0
 10
10.7578445474
 20
10.8712076861
 30
0.0
 10
10.7518624424
 20
10.8671313315
 30
0.0
 10
10.7455620465
 20
10.8630873601
 30
0.0
 10
10.7389459443
 20
10.8590773266
 30
0.0
 10
10.732016823
 20
10.8551029285
 30
0.0
 10
10.7247775075
 20
10.8511657565
 30
0.0
 10
10.7145656252
 20
10.8458906715
 30
0.0
 10
10.7010325123
 20
10.8394145994
 30
0.0
 10
10.6838347638
 20
10.8319267342
 30
0.0
 10
10.6654771382
 20
10.824624935
 30
0.0
 10
10.645989694
 20
10.8175212306
 30
0.0
 10
10.6254040997
 20
10.810627325
 30
0.0
 10
10.6037540235
 20
10.8039545962
 30
0.0
 10
10.5810749094
 20
10.7975140861
 30
0.0
 10
10.5574039424
 20
10.7913164716
 30
0.0
 10
10.532779985
 20
10.7853720279
 30
0.0
 10
10.5072435113
 20
10.7796905934
 30
0.0
 10
10.4808365171
 20
10.7742815846
 30
0.0
 10
10.453602444
 20
10.7691539748
 30
0.0
 10
10.4255861185
 20
10.764316266
 30
0.0
 10
10.3968336767
 20
10.7597764607
 30
0.0
 10
10.3673924745
 20
10.7555420797
 30
0.0
 10
10.3373110018
 20
10.7516201423
 30
0.0
 10
10.3066388292
 20
10.7480171577
 30
0.0
 10
10.2754264581
 20
10.7447390425
 30
0.0
 10
10.2329002238
 20
10.7407847904
 30
0.0
 10
10.1787715718
 20
10.7367051669
 30
0.0
 10
10.1128905381
 20
10.7332056818
 30
0.0
 10
10.0461271769
 20
10.7310966585
 30
0.0
 10
9.9789213401
 20
10.7303920956
 30
0.0
 10
9.9117155184
 20
10.7310967519
 30
0.0
 10
9.8449522008
 20
10.7332058683
 30
0.0
 10
9.7790712402
 20
10.7367054433
 30
0.0
 10
9.724942666
 20
10.7407851478
 30
0.0
 10
9.6824165083
 20
10.7447394488
 30
0.0
 10
9.651204208
 20
10.7480176142
 30
0.0
 10
9.6205321132
 20
10.7516206479
 30
0.0
 10
9.590450719
 20
10.7555426208
 30
0.0
 10
9.5610096017
 20
10.7597770361
 30
0.0
 10
9.532257258
 20
10.7643168879
 30
0.0
 10
9.5042410371
 20
10.7691546426
 30
0.0
 10
9.4770070665
 20
10.7742822835
 30
0.0
 10
9.4506001805
 20
10.779691322
 30
0.0
 10
9.4250638298
 20
10.7853727989
 30
0.0
 10
9.4004400013
 20
10.7913172843
 30
0.0
 10
9.3767691578
 20
10.7975149244
 30
0.0
 10
9.3540901724
 20
10.8039554584
 30
0.0
 10
9.3324402396
 20
10.8106282248
 30
0.0
 10
9.3118548006
 20
10.8175221666
 30
0.0
 10
9.2923674788
 20
10.8246258926
 30
0.0
 10
9.274010062
 20
10.8319276997
 30
0.0
 10
9.2568122555
 20
10.8394156291
 30
0.0
 10
9.2408021465
 20
10.8470773926
 30
0.0
 10
9.2282841286
 20
10.8536955204
 30
0.0
 10
9.2188994198
 20
10.8590783719
 30
0.0
 10
9.2122833789
 20
10.8630884028
 30
0.0
 10
9.2059830682
 20
10.8671324225
 30
0.0
 10
9.2000010194
 20
10.871208808
 30
0.0
 10
9.194339663
 20
10.8753158905
 30
0.0
 10
9.1890013109
 20
10.8794521238
 30
0.0
 10
9.1839881877
 20
10.8836157089
 30
0.0
 10
9.1808075666
 20
10.8864593315
 30
0.0
 10
9.1792746315
 20
10.8878858819
 30
0.0
  0
SPLINE
  5
37B
100
AcDbEntity
  8
0
100
AcDbSpline
 62
7
  6
CONTINUOUS
 70
0
 71
3
 72
14
 73
10
 74
0
 42
0.0000001
 43
0.0000001
 44
0.0000000001
 40
0.0
 40
0.0
 40
0.0
 40
0.0
 40
0.2644538852
 40
0.3919300686
 40
0.5167872707
 40
0.6395043146
 40
0.7605890572
 40
0.8805720938
 40
1.0
 40
1.0
 40
1.0
 40
1.0
 10
9.2122157577
 20
10.8630573347
 30
0.0
 10
9.2108735381
 20
10.8654129932
 30
0.0
 10
9.2090669829
 20
10.8690154095
 30
0.0
 10
9.2071366393
 20
10.8739521885
 30
0.0
 10
9.2059651185
 20
10.8776174144
 30
0.0
 10
9.205053379
 20
10.8812881956
 30
0.0
 10
9.2044017421
 20
10.8849634336
 30
0.0
 10
9.2040105704
 20
10.8886414125
 30
0.0
 10
9.2039235755
 20
10.8910967633
 30
0.0
 10
9.203923582
 20
10.8923211529
 30
0.0
  0
SPLINE
  5
37C
100
AcDbEntity
  8
0
100
AcDbSpline
 62
7
  6
CONTINUOUS
 70
0
 71
3
 72
18
 73
14
 74
0
 42
0.0000001
 43
0.0000001
 44
0.0000000001
 40
0.0
 40
0.0
 40
0.0
 40
0.0
 40
0.0548620089
 40
0.1099280234
 40
0.1653994749
 40
0.2214730839
 40
0.2783387283
 40
0.3361775267
 40
0.4554063418
 40
0.5804420291
 40
0.7123345284
 40
0.851957322
 40
1.0
 40
1.0
 40
1.0
 40
1.0
 10
11.0239235656
 20
10.9609013483
 30
0.0
 10
11.0239235598
 20
10.959425528
 30
0.0
 10
11.0238298683
 20
10.9564675519
 30
0.0
 10
11.0234086359
 20
10.9520354031
 30
0.0
 10
11.0227068649
 20
10.9476058105
 30
0.0
 10
11.0217248161
 20
10.9431803815
 30
0.0
 10
11.0204627955
 20
10.9387602511
 30
0.0
 10
11.0183870777
 20
10.9328163614
 30
0.0
 10
11.0150618577
 20
10.9253821293
 30
0.0
 10
11.010000646
 20
10.9166022918
 30
0.0
 10
11.0038364034
 20
10.9078792884
 30
0.0
 10
10.9965784933
 20
10.8992218523
 30
0.0
 10
10.9911805039
 20
10.8936670638
 30
0.0
 10
10.9883161192
 20
10.8909002804
 30
0.0
  0
SPLINE
  5
37D
100
AcDbEntity
  8
0
100
AcDbSpline
 62
7
  6
CONTINUOUS
 70
0
 71
3
 72
47
 73
43
 74
0
 42
0.0000001
 43
0.0000001
 44
0.0000000001
 40
0.0
 40
0.0
 40
0.0
 40
0.0
 40
0.0063158953
 40
0.0126706964
 40
0.0191025413
 40
0.0256481068
 40
0.0323419887
 40
0.0392163511
 40
0.0536141938
 40
0.0611949453
 40
0.0690567093
 40
0.0772178306
 40
0.0856942536
 40
0.094499648
 40
0.1036457893
 40
0.1131425899
 40
0.1229983503
 40
0.1332200167
 40
0.1438131323
 40
0.1547821683
 40
0.1661305713
 40
0.1899729423
 40
0.2153524409
 40
0.2422683478
 40
0.2707106917
 40
0.3006617255
 40
0.3320970385
 40
0.3649863926
 40
0.3992943516
 40
0.4349809011
 40
0.4720019229
 40
0.5103095575
 40
0.5498524869
 40
0.5905762826
 40
0.6324236706
 40
0.6753347453
 40
0.7192471563
 40
0.7640962954
 40
0.8098156376
 40
0.856336788
 40
0.9035890146
 40
1.0
 40
1.0
 40
1.0
 40
1.0
 10
13.245674762
 20
8.6223255956
 30
0.0
 10
13.2443530355
 20
8.622417258
 30
0.0
 10
13.2417076901
 20
8.6227093645
 30
0.0
 10
13.2377693117
 20
8.6234706515
 30
0.0
 10
13.2338572511
 20
8.6245550985
 30
0.0
 10
13.2299738291
 20
8.625961908
 30
0.0
 10
13.2261205105
 20
8.6276901295
 30
0.0
 10
13.2209465771
 20
8.6304636675
 30
0.0
 10
13.2159131107
 20
8.6338588374
 30
0.0
 10
13.2110420409
 20
8.6377933733
 30
0.0
 10
13.2073627221
 20
8.6411106255
 30
0.0
 10
13.2037226811
 20
8.6447413546
 30
0.0
 10
13.2001228809
 20
8.6486843092
 30
0.0
 10
13.1965647105
 20
8.6529377198
 30
0.0
 10
13.1930495482
 20
8.6574999141
 30
0.0
 10
13.1895787213
 20
8.6623690032
 30
0.0
 10
13.1861535499
 20
8.6675430012
 30
0.0
 10
13.1827754434
 20
8.6730198478
 30
0.0
 10
13.1794456862
 20
8.6787972824
 30
0.0
 10
13.1761655958
 20
8.6848729893
 30
0.0
 10
13.1717880236
 20
8.6935110511
 30
0.0
 10
13.1664646076
 20
8.7050534892
 30
0.0
 10
13.160396676
 20
8.71983191
 30
0.0
 10
13.154557667
 20
8.7357339773
 30
0.0
 10
13.1489571331
 20
8.7527337416
 30
0.0
 10
13.1436042631
 20
8.770803757
 30
0.0
 10
13.1385079182
 20
8.7899145882
 30
0.0
 10
13.1336765669
 20
8.8100350336
 30
0.0
 10
13.129118228
 20
8.8311321348
 30
0.0
 10
13.124840487
 20
8.8531712745
 30
0.0
 10
13.120850474
 20
8.8761162504
 30
0.0
 10
13.1171548495
 20
8.8999293313
 30
0.0
 10
13.113759759
 20
8.9245713185
 30
0.0
 10
13.1106708578
 20
8.9500016258
 30
0.0
 10
13.1078932978
 20
8.9761783585
 30
0.0
 10
13.1054317185
 20
9.0030583783
 30
0.0
 10
13.103290214
 20
9.0305973597
 30
0.0
 10
13.1014723454
 20
9.0587499005
 30
0.0
 10
13.0999811595
 20
9.0874695672
 30
0.0
 10
13.0988191352
 20
9.1167089671
 30
0.0
 10
13.0977039002
 20
9.1565894596
 30
0.0
 10
13.0973803972
 20
9.1867276309
 30
0.0
 10
13.0973803972
 20
9.206952003
 30
0.0
  0
SPLINE
  5
37E
100
AcDbEntity
  8
0
100
AcDbSpline
 62
7
  6
CONTINUOUS
 70
0
 71
3
 72
23
 73
19
 74
0
 42
0.0000001
 43
0.0000001
 44
0.0000000001
 40
0.0
 40
0.0
 40
0.0
 40
0.0
 40
0.061648213
 40
0.123319452
 40
0.1850364843
 40
0.2468215692
 40
0.3086962118
 40
0.370680925
 40
0.4327950058
 40
0.495056332
 40
0.557481176
 40
0.6200840667
 40
0.6828775914
 40
0.7458723173
 40
0.8090769586
 40
0.8724967492
 40
0.9361385647
 40
1.0
 40
1.0
 40
1.0
 40
1.0
 10
10.7387117423
 20
7.8500270473
 30
0.0
 10
10.7436494632
 20
7.8547965399
 30
0.0
 10
10.7537854147
 20
7.8640736404
 30
0.0
 10
10.7697183857
 20
7.8771546593
 30
0.0
 10
10.7863432319
 20
7.8893710469
 30
0.0
 10
10.8036174949
 20
7.9006914926
 30
0.0
 10
10.8214977865
 20
7.9110876462
 30
0.0
 10
10.8399390105
 20
7.9205332966
 30
0.0
 10
10.8588947137
 20
7.9290046718
 30
0.0
 10
10.8783171182
 20
7.9364804867
 30
0.0
 10
10.8981572864
 20
7.9429419726
 30
0.0
 10
10.9183652407
 20
7.9483729031
 30
0.0
 10
10.9388900805
 20
7.9527596463
 30
0.0
 10
10.9596801572
 20
7.9560912095
 30
0.0
 10
10.980682986
 20
7.9583592117
 30
0.0
 10
11.0018460913
 20
7.9595581705
 30
0.0
 10
11.0231152539
 20
7.9596849094
 30
0.0
 10
11.037306928
 20
7.9590555648
 30
0.0
 10
11.044401417
 20
7.9585635603
 30
0.0
  0
SPLINE
  5
37F
100
AcDbEntity
  8
0
100
AcDbSpline
 62
7
  6
CONTINUOUS
 70
0
 71
3
 72
35
 73
31
 74
0
 42
0.0000001
 43
0.0000001
 44
0.0000000001
 40
0.0
 40
0.0
 40
0.0
 40
0.0
 40
0.0311166805
 40
0.0621584167
 40
0.0931265534
 40
0.1240248323
 40
0.154859519
 40
0.1856393706
 40
0.2163756214
 40
0.2470816665
 40
0.2777726295
 40
0.3084649964
 40
0.3391762411
 40
0.3699240889
 40
0.4007259245
 40
0.431598433
 40
0.4625569894
 40
0.4936150067
 40
0.5560499296
 40
0.6189750786
 40
0.6506289161
 40
0.6823935138
 40
0.7142542442
 40
0.7461906528
 40
0.7781759565
 40
0.8101771055
 40
0.8740495015
 40
0.9058443642
 40
0.9374712863
 40
1.0
 40
1.0
 40
1.0
 40
1.0
 10
11.0385214999
 20
7.7725642031
 30
0.0
 10
11.0377599134
 20
7.7688511377
 30
0.0
 10
11.0364605932
 20
7.7613863435
 30
0.0
 10
11.0351957206
 20
7.7501064736
 30
0.0
 10
11.034624511
 20
7.7387964098
 30
0.0
 10
11.0347505938
 20
7.7274979057
 30
0.0
 10
11.035573321
 20
7.7162516357
 30
0.0
 10
11.0370878118
 20
7.7050974253
 30
0.0
 10
11.0392851842
 20
7.6940734627
 30
0.0
 10
11.0421528906
 20
7.6832158919
 30
0.0
 10
11.0456751353
 20
7.6725584426
 30
0.0
 10
11.0498332732
 20
7.6621321467
 30
0.0
 10
11.0546063383
 20
7.6519652018
 30
0.0
 10
11.0599716368
 20
7.6420830353
 30
0.0
 10
11.0659052309
 20
7.6325084085
 30
0.0
 10
11.0723821632
 20
7.6232616605
 30
0.0
 10
11.0793772185
 20
7.6143606368
 30
0.0
 10
11.0893756802
 20
7.6029575631
 30
0.0
 10
11.1030546893
 20
7.589642076
 30
0.0
 10
11.1180548828
 20
7.5777238765
 30
0.0
 10
11.1307674166
 20
7.5690409569
 30
0.0
 10
11.1406543348
 20
7.562953742
 30
0.0
 10
11.150844096
 20
7.5573175975
 30
0.0
 10
11.1613064233
 20
7.5521444418
 30
0.0
 10
11.1720095006
 20
7.5474463983
 30
0.0
 10
11.1865431809
 20
7.5418369791
 30
0.0
 10
11.201420759
 20
7.5372226551
 30
0.0
 10
11.2165134591
 20
7.5336472278
 30
0.0
 10
11.2315923358
 20
7.530796679
 30
0.0
 10
11.2430044621
 20
7.5294481335
 30
0.0
 10
11.2506029196
 20
7.5289211787
 30
0.0
  0
SPLINE
  5
380
100
AcDbEntity
  8
0
100
AcDbSpline
 62
7
  6
CONTINUOUS
 70
0
 71
3
 72
18
 73
14
 74
0
 42
0.0000001
 43
0.0000001
 44
0.0000000001
 40
0.0
 40
0.0
 40
0.0
 40
0.0
 40
0.0548620089
 40
0.1099280234
 40
0.1653994749
 40
0.2214730839
 40
0.2783387283
 40
0.3361775267
 40
0.4554063418
 40
0.5804420291
 40
0.7123345284
 40
0.851957322
 40
1.0
 40
1.0
 40
1.0
 40
1.0
 10
8.9339235762
 20
10.9609024345
 30
0.0
 10
8.933923582
 20
10.9623782548
 30
0.0
 10
8.9340172735
 20
10.9653362309
 30
0.0
 10
8.9344385059
 20
10.9697683797
 30
0.0
 10
8.9351402768
 20
10.9741979723
 30
0.0
 10
8.9361223257
 20
10.9786234013
 30
0.0
 10
8.9373843463
 20
10.9830435317
 30
0.0
 10
8.939460064
 20
10.9889874214
 30
0.0
 10
8.9427852841
 20
10.9964216535
 30
0.0
 10
8.9478464958
 20
11.005201491
 30
0.0
 10
8.9540107384
 20
11.0139244944
 30
0.0
 10
8.9612686485
 20
11.0225819306
 30
0.0
 10
8.9666666379
 20
11.0281367191
 30
0.0
 10
8.9695310226
 20
11.0309035024
 30
0.0
  0
SPLINE
  5
381
100
AcDbEntity
  8
0
100
AcDbSpline
 62
7
  6
CONTINUOUS
 70
0
 71
3
 72
15
 73
11
 74
0
 42
0.0000001
 43
0.0000001
 44
0.0000000001
 40
0.0
 40
0.0
 40
0.0
 40
0.0
 40
0.1097416239
 40
0.2224417848
 40
0.3389087178
 40
0.459863898
 40
0.5859420563
 40
0.7176940852
 40
0.8555878296
 40
1.0
 40
1.0
 40
1.0
 40
1.0
 10
8.9355496231
 20
10.9605293651
 30
0.0
 10
8.9360551123
 20
10.9628718525
 30
0.0
 10
8.937309806
 20
10.9675731381
 30
0.0
 10
8.9398652738
 20
10.9745283745
 30
0.0
 10
8.9431118759
 20
10.9814602168
 30
0.0
 10
8.9470457562
 20
10.9883634628
 30
0.0
 10
8.9516635281
 20
10.9952342094
 30
0.0
 10
8.9569614394
 20
11.0020686734
 30
0.0
 10
8.9629353266
 20
11.0088625271
 30
0.0
 10
8.9672628525
 20
11.0132578033
 30
0.0
 10
8.9695310226
 20
11.0154486875
 30
0.0
  0
SPLINE
  5
382
100
AcDbEntity
  8
0
100
AcDbSpline
 62
7
  6
CONTINUOUS
 70
0
 71
3
 72
28
 73
24
 74
0
 42
0.0000001
 43
0.0000001
 44
0.0000000001
 40
0.0
 40
0.0
 40
0.0
 40
0.0
 40
0.0749524859
 40
0.1455492802
 40
0.2121320353
 40
0.2751267841
 40
0.3350538581
 40
0.392531217
 40
0.4205832565
 40
0.4482964977
 40
0.4757714291
 40
0.5031113638
 40
0.5304213313
 40
0.5578067258
 40
0.5853719828
 40
0.6132193785
 40
0.6414477519
 40
0.6701516201
 40
0.7293157367
 40
0.7913812992
 40
0.8568968395
 40
0.9263174188
 40
1.0
 40
1.0
 40
1.0
 40
1.0
 10
9.1792746315
 20
10.8878858819
 30
0.0
 10
9.1768778737
 20
10.8901163062
 30
0.0
 10
9.17235652
 20
10.8945942231
 30
0.0
 10
9.1662557716
 20
10.9015803843
 30
0.0
 10
9.1610534641
 20
10.9086218499
 30
0.0
 10
9.1567572968
 20
10.9157127211
 30
0.0
 10
9.1533745541
 20
10.9228458855
 30
0.0
 10
9.1513061483
 20
10.9288703131
 30
0.0
 10
9.1501315801
 20
10.9336781693
 30
0.0
 10
9.1494881767
 20
10.9372593264
 30
0.0
 10
9.1490757347
 20
10.9408430244
 30
0.0
 10
9.148894412
 20
10.944428244
 30
0.0
 10
9.1489443527
 20
10.9480137885
 30
0.0
 10
9.1492254499
 20
10.9515984971
 30
0.0
 10
9.1497375947
 20
10.9551812238
 30
0.0
 10
9.1504806082
 20
10.9587607967
 30
0.0
 10
9.1514541645
 20
10.9623362211
 30
0.0
 10
9.1530749948
 20
10.9671441224
 30
0.0
 10
9.1557029943
 20
10.9731589895
 30
0.0
 10
9.1597402114
 20
10.9802620848
 30
0.0
 10
9.1646858652
 20
10.9873184306
 30
0.0
 10
9.1705320408
 20
10.9943207188
 30
0.0
 10
9.1748901278
 20
10.9988103627
 30
0.0
 10
9.1772050876
 20
11.0010464422
 30
0.0
  0
SPLINE
  5
383
100
AcDbEntity
  8
0
100
AcDbSpline
 62
7
  6
CONTINUOUS
 70
0
 71
3
 72
18
 73
14
 74
0
 42
0.0000001
 43
0.0000001
 44
0.0000000001
 40
0.0
 40
0.0
 40
0.0
 40
0.0
 40
0.0548620599
 40
0.1099280451
 40
0.1653994776
 40
0.2214731111
 40
0.2783387003
 40
0.3361775499
 40
0.4554064184
 40
0.5804414564
 40
0.712334317
 40
0.8519586594
 40
1.0
 40
1.0
 40
1.0
 40
1.0
 10
9.203923582
 20
10.8923211529
 30
0.0
 10
9.2039235878
 20
10.8934156692
 30
0.0
 10
9.2039930626
 20
10.895609398
 30
0.0
 10
9.2043053985
 20
10.8988964264
 30
0.0
 10
9.2048258446
 20
10.9021815553
 30
0.0
 10
9.2055541707
 20
10.9054635905
 30
0.0
 10
9.2064900785
 20
10.908741713
 30
0.0
 10
9.2080294827
 20
10.9131498973
 30
0.0
 10
9.2104955595
 20
10.9186633528
 30
0.0
 10
9.2142490835
 20
10.9251747711
 30
0.0
 10
9.2188206808
 20
10.9316440606
 30
0.0
 10
9.2242034029
 20
10.9380646834
 30
0.0
 10
9.2282067117
 20
10.9421843074
 30
0.0
 10
9.2303310112
 20
10.9442362233
 30
0.0
  0
SPLINE
  5
384
100
AcDbEntity
  8
0
100
AcDbSpline
 62
7
  6
CONTINUOUS
 70
0
 71
3
 72
91
 73
87
 74
0
 42
0.0000001
 43
0.0000001
 44
0.0000000001
 40
0.0
 40
0.0
 40
0.0
 40
0.0
 40
0.0028544282
 40
0.0057718673
 40
0.0087681477
 40
0.0118577206
 40
0.0150536208
 40
0.0183674149
 40
0.0218092717
 40
0.0253880393
 40
0.0291113181
 40
0.0329856255
 40
0.0370164307
 40
0.0412083393
 40
0.0455651235
 40
0.0500898511
 40
0.0547849586
 40
0.0596522875
 40
0.0646932112
 40
0.0699086
 40
0.0752989576
 40
0.0808643864
 40
0.0866046657
 40
0.0925192773
 40
0.0986073961
 40
0.1048679815
 40
0.1179006903
 40
0.1316049003
 40
0.1459646052
 40
0.1609611224
 40
0.1765733911
 40
0.1927782234
 40
0.2095505144
 40
0.226863421
 40
0.2446885191
 40
0.262995944
 40
0.2817545178
 40
0.3009318661
 40
0.3204945322
 40
0.3404080847
 40
0.3606372188
 40
0.3811458554
 40
0.4018972373
 40
0.4228540236
 40
0.4439783829
 40
0.4652320872
 40
0.4865766047
 40
0.5079731904
 40
0.5293829776
 40
0.550767068
 40
0.5720866232
 40
0.5933029562
 40
0.6143776231
 40
0.6352725146
 40
0.6559499477
 40
0.6763727583
 40
0.696504395
 40
0.716309015
 40
0.7357515836
 40
0.7547979729
 40
0.7734150645
 40
0.7915708571
 40
0.8092345796
 40
0.8263768129
 40
0.8429696222
 40
0.8589867059
 40
0.8744035573
 40
0.8891976507
 40
0.903348661
 40
0.9168387273
 40
0.923331266
 40
0.9296531809
 40
0.9358030679
 40
0.9417798002
 40
0.9475824576
 40
0.9532104199
 40
0.9586633506
 40
0.9639412313
 40
0.9690444339
 40
0.973973679
 40
0.978730153
 40
0.9833154887
 40
0.9877319614
 40
0.9919824884
 40
0.9960705064
 40
1.0
 40
1.0
 40
1.0
 40
1.0
 10
11.0223251453
 20
10.9604007655
 30
0.0
 10
11.0218963909
 20
10.9624047543
 30
0.0
 10
11.02086152
 20
10.9664228567
 30
0.0
 10
11.018814201
 20
10.9723819619
 30
0.0
 10
11.0162591141
 20
10.9783258067
 30
0.0
 10
11.0131984114
 20
10.9842510309
 30
0.0
 10
11.0096339653
 20
10.9901550007
 30
0.0
 10
11.0055680173
 20
10.9960351013
 30
0.0
 10
11.0010028202
 20
11.0018887785
 30
0.0
 10
10.995940756
 20
11.0077134515
 30
0.0
 10
10.9903844621
 20
11.0135066521
 30
0.0
 10
10.9843365953
 20
11.0192657175
 30
0.0
 10
10.977800182
 20
11.0249881733
 30
0.0
 10
10.9707783014
 20
11.0306713295
 30
0.0
 10
10.963274361
 20
11.0363126266
 30
0.0
 10
10.9552919409
 20
11.0419094286
 30
0.0
 10
10.946834847
 20
11.047459073
 30
0.0
 10
10.9379071646
 20
11.0529590052
 30
0.0
 10
10.9285131347
 20
11.058406511
 30
0.0
 10
10.9186573141
 20
11.0637990805
 30
0.0
 10
10.9083444147
 20
11.0691340412
 30
0.0
 10
10.8975794282
 20
11.0744088694
 30
0.0
 10
10.8863675448
 20
11.0796210078
 30
0.0
 10
10.8747141805
 20
11.0847678921
 30
0.0
 10
10.8626249722
 20
11.0898471263
 30
0.0
 10
10.8457055616
 20
11.0966165422
 30
0.0
 10
10.8234961131
 20
11.1048738774
 30
0.0
 10
10.7955486844
 20
11.1143461307
 30
0.0
 10
10.766013521
 20
11.123491476
 30
0.0
 10
10.7349479253
 20
11.1322920153
 30
0.0
 10
10.7024119279
 20
11.1407305269
 30
0.0
 10
10.6684686012
 20
11.1487904823
 30
0.0
 10
10.6331837865
 20
11.1564560918
 30
0.0
 10
10.5966259902
 20
11.1637123373
 30
0.0
 10
10.55886623
 20
11.1705450038
 30
0.0
 10
10.5199778935
 20
11.1769407074
 30
0.0
 10
10.4800365906
 20
11.1828869216
 30
0.0
 10
10.4391200031
 20
11.1883720077
 30
0.0
 10
10.3973077276
 20
11.1933852309
 30
0.0
 10
10.3546811155
 20
11.1979167814
 30
0.0
 10
10.3113231119
 20
11.2019577931
 30
0.0
 10
10.2673180934
 20
11.2055003598
 30
0.0
 10
10.2227517025
 20
11.2085375509
 30
0.0
 10
10.1777106813
 20
11.2110634238
 30
0.0
 10
10.1322827013
 20
11.2130730414
 30
0.0
 10
10.0865561904
 20
11.2145624757
 30
0.0
 10
10.0406201591
 20
11.2155288154
 30
0.0
 10
9.9945640268
 20
11.215970171
 30
0.0
 10
9.9484774476
 20
11.2158856789
 30
0.0
 10
9.9024501358
 20
11.2152755029
 30
0.0
 10
9.8565716907
 20
11.2141408334
 30
0.0
 10
9.8109314199
 20
11.2124838911
 30
0.0
 10
9.7656181649
 20
11.2103079175
 30
0.0
 10
9.7207201273
 20
11.2076171684
 30
0.0
 10
9.6763246973
 20
11.2044169059
 30
0.0
 10
9.632518283
 20
11.2007133884
 30
0.0
 10
9.5893861416
 20
11.1965138586
 30
0.0
 10
9.5470122102
 20
11.19182653
 30
0.0
 10
9.5054789393
 20
11.1866605765
 30
0.0
 10
9.4648671304
 20
11.1810261099
 30
0.0
 10
9.4252557777
 20
11.1749341601
 30
0.0
 10
9.3867219126
 20
11.1683966544
 30
0.0
 10
9.3493404503
 20
11.1614263947
 30
0.0
 10
9.3131840384
 20
11.1540370323
 30
0.0
 10
9.2783229088
 20
11.1462430403
 30
0.0
 10
9.2448247205
 20
11.1380596914
 30
0.0
 10
9.2127544519
 20
11.1295030184
 30
0.0
 10
9.1821741464
 20
11.1205897813
 30
0.0
 10
9.1531431847
 20
11.1113374178
 30
0.0
 10
9.1300023698
 20
11.1032599657
 30
0.0
 10
9.1123187585
 20
11.0966287891
 30
0.0
 10
9.0996473419
 20
11.0916454616
 30
0.0
 10
9.0874037898
 20
11.0865910602
 30
0.0
 10
9.0755939975
 20
11.081468086
 30
0.0
 10
9.0642237009
 20
11.0762789682
 30
0.0
 10
9.0532983888
 20
11.0710262572
 30
0.0
 10
9.0428233351
 20
11.0657124988
 30
0.0
 10
9.0328036054
 20
11.0603402129
 30
0.0
 10
9.0232439928
 20
11.0549120533
 30
0.0
 10
9.0141491426
 20
11.049430529
 30
0.0
 10
9.0055233962
 20
11.0438983771
 30
0.0
 10
8.9973709067
 20
11.0383181471
 30
0.0
 10
8.9896955162
 20
11.0326924544
 30
0.0
 10
8.9825008287
 20
11.0270238269
 30
0.0
 10
8.9757906441
 20
11.021315168
 30
0.0
 10
8.9715601742
 20
11.0174086975
 30
0.0
 10
8.9695310226
 20
11.0154486875
 30
0.0
  0
SPLINE
  5
385
100
AcDbEntity
  8
0
100
AcDbSpline
 62
7
  6
CONTINUOUS
 70
0
 71
3
 72
86
 73
82
 74
0
 42
0.0000001
 43
0.0000001
 44
0.0000000001
 40
0.0
 40
0.0
 40
0.0
 40
0.0
 40
0.0028079904
 40
0.0056356662
 40
0.0085022632
 40
0.0114261848
 40
0.0144246496
 40
0.0175135001
 40
0.0207070556
 40
0.0240180638
 40
0.0274577715
 40
0.0310359274
 40
0.0347609647
 40
0.0386400599
 40
0.0426792699
 40
0.0468836849
 40
0.0512574562
 40
0.0558039959
 40
0.0605259773
 40
0.065425459
 40
0.0705039651
 40
0.075762475
 40
0.0812015787
 40
0.0868214156
 40
0.0926217854
 40
0.0986021659
 40
0.1110988126
 40
0.1243020305
 40
0.1381981474
 40
0.1527702277
 40
0.1679984687
 40
0.1838605377
 40
0.2003318422
 40
0.2173857543
 40
0.2349938022
 40
0.2531258324
 40
0.2717501645
 40
0.2908337358
 40
0.310342229
 40
0.3302401918
 40
0.350491149
 40
0.3710577106
 40
0.3919016856
 40
0.412984188
 40
0.4342657383
 40
0.4557063645
 40
0.4989023515
 40
0.542247104
 40
0.5854133628
 40
0.6068280561
 40
0.6280763755
 40
0.6491184308
 40
0.6699148406
 40
0.6904268343
 40
0.7106163609
 40
0.7304461935
 40
0.7498800348
 40
0.7688826268
 40
0.7874198664
 40
0.805458932
 40
0.8229684178
 40
0.8399184678
 40
0.8562809284
 40
0.8720295209
 40
0.8871400413
 40
0.9015906027
 40
0.915361906
 40
0.9284375728
 40
0.94080457
 40
0.9467195621
 40
0.9524543368
 40
0.9580084456
 40
0.963381838
 40
0.9685748151
 40
0.973588079
 40
0.9784228114
 40
0.9830806721
 40
0.9875640357
 40
0.991875911
 40
0.9960198463
 40
1.0
 40
1.0
 40
1.0
 40
1.0
 10
10.7539235598
 20
10.8923211529
 30
0.0
 10
10.7539235677
 20
10.8938267229
 30
0.0
 10
10.7537917258
 20
10.8968500467
 30
0.0
 10
10.7531993006
 20
10.9013754375
 30
0.0
 10
10.7522127327
 20
10.9058953039
 30
0.0
 10
10.7508328601
 20
10.9104064296
 30
0.0
 10
10.7490610813
 20
10.9149064551
 30
0.0
 10
10.7468987573
 20
10.9193929873
 30
0.0
 10
10.7443474675
 20
10.9238638471
 30
0.0
 10
10.7414089451
 20
10.9283170045
 30
0.0
 10
10.738084852
 20
10.932750366
 30
0.0
 10
10.7343771596
 20
10.9371620277
 30
0.0
 10
10.7302877749
 20
10.9415499361
 30
0.0
 10
10.7258188434
 20
10.9459121123
 30
0.0
 10
10.7209726494
 20
10.9502465694
 30
0.0
 10
10.7157515706
 20
10.9545511999
 30
0.0
 10
10.7101582724
 20
10.9588240477
 30
0.0
 10
10.7041954837
 20
10.9630629742
 30
0.0
 10
10.6978661987
 20
10.9672659614
 30
0.0
 10
10.6911735657
 20
10.9714309514
 30
0.0
 10
10.6841208981
 20
10.9755558349
 30
0.0
 10
10.6767117508
 20
10.9796386408
 30
0.0
 10
10.6689497948
 20
10.9836772523
 30
0.0
 10
10.6608389447
 20
10.9876696948
 30
0.0
 10
10.6523832488
 20
10.9916139829
 30
0.0
 10
10.6404798608
 20
10.9968834475
 30
0.0
 10
10.6247565549
 20
11.0033206205
 30
0.0
 10
10.6048513464
 20
11.0107131156
 30
0.0
 10
10.5836814968
 20
11.0178675794
 30
0.0
 10
10.5612896277
 20
11.0247694733
 30
0.0
 10
10.5377206042
 20
11.0314047761
 30
0.0
 10
10.5130218533
 20
11.0377599813
 30
0.0
 10
10.4872431175
 20
11.043822146
 30
0.0
 10
10.4604363769
 20
11.0495789196
 30
0.0
 10
10.4326557285
 20
11.0550185695
 30
0.0
 10
10.4039572761
 20
11.0601300174
 30
0.0
 10
10.3743990083
 20
11.0649028587
 30
0.0
 10
10.3440406704
 20
11.069327377
 30
0.0
 10
10.312943638
 20
11.0733945655
 30
0.0
 10
10.2811707922
 20
11.0770961442
 30
0.0
 10
10.2487863943
 20
11.080424578
 30
0.0
 10
10.2158559559
 20
11.0833731007
 30
0.0
 10
10.1824460944
 20
11.0859357199
 30
0.0
 10
10.1486244197
 20
11.0881072147
 30
0.0
 10
10.114459303
 20
11.0898832045
 30
0.0
 10
10.068428133
 20
11.0917233325
 30
0.0
 10
10.0105398129
 20
11.0930085283
 30
0.0
 10
9.9409884888
 20
11.0929351739
 30
0.0
 10
9.8831328517
 20
11.0915276641
 30
0.0
 10
9.8371533886
 20
11.0895898813
 30
0.0
 10
9.8030455851
 20
11.0877416847
 30
0.0
 10
9.76929372
 20
11.0854987281
 30
0.0
 10
9.7359660261
 20
11.0828655339
 30
0.0
 10
9.7031299489
 20
11.0798474613
 30
0.0
 10
9.6708519114
 20
11.0764506496
 30
0.0
 10
9.6391972031
 20
11.0726820131
 30
0.0
 10
9.6082298434
 20
11.0685492205
 30
0.0
 10
9.578012454
 20
11.0640606817
 30
0.0
 10
9.5486061286
 20
11.0592255295
 30
0.0
 10
9.5200703014
 20
11.0540536063
 30
0.0
 10
9.4924626197
 20
11.0485554504
 30
0.0
 10
9.465838827
 20
11.0427422621
 30
0.0
 10
9.4402526479
 20
11.0366258834
 30
0.0
 10
9.415755674
 20
11.0302187726
 30
0.0
 10
9.3923972335
 20
11.0235339715
 30
0.0
 10
9.370224307
 20
11.0165850911
 30
0.0
 10
9.3492812845
 20
11.0093862551
 30
0.0
 10
9.3296103215
 20
11.0019520716
 30
0.0
 10
9.3140880833
 20
10.9954808652
 30
0.0
 10
9.302349374
 20
10.9901853498
 30
0.0
 10
9.2940185882
 20
10.9862233342
 30
0.0
 10
9.2860341597
 20
10.9822138578
 30
0.0
 10
9.2784000591
 20
10.9781589409
 30
0.0
 10
9.2711201127
 20
10.9740606055
 30
0.0
 10
9.2641979848
 20
10.969920865
 30
0.0
 10
9.2576371089
 20
10.9657418669
 30
0.0
 10
9.2514407745
 20
10.9615255756
 30
0.0
 10
9.2456119855
 20
10.9572740729
 30
0.0
 10
9.2401536158
 20
10.9529893138
 30
0.0
 10
9.2350686623
 20
10.948673625
 30
0.0
 10
9.2318659384
 20
10.9457188493
 30
0.0
 10
9.2303310112
 20
10.9442362233
 30
0.0
  0
SPLINE
  5
386
100
AcDbEntity
  8
0
100
AcDbSpline
 62
7
  6
CONTINUOUS
 70
0
 71
3
 72
39
 73
35
 74
0
 42
0.0000001
 43
0.0000001
 44
0.0000000001
 40
0.0
 40
0.0
 40
0.0
 40
0.0
 40
0.0314025836
 40
0.0630095222
 40
0.0948070985
 40
0.1267734472
 40
0.1588809725
 40
0.1910970216
 40
0.2233851128
 40
0.2557062446
 40
0.2880202662
 40
0.3202872749
 40
0.3524690068
 40
0.3845301831
 40
0.4164397919
 40
0.4481722502
 40
0.4797084082
 40
0.5110363786
 40
0.5421521204
 40
0.573059742
 40
0.6037715186
 40
0.6343075563
 40
0.6646951112
 40
0.6949675893
 40
0.7251632183
 40
0.7553234774
 40
0.7854913545
 40
0.8157095095
 40
0.8460184685
 40
0.8764549221
 40
0.9070502429
 40
0.9378292995
 40
0.9688091439
 40
1.0
 40
1.0
 40
1.0
 40
1.0
 10
11.0485425185
 20
7.7935265278
 30
0.0
 10
11.0569440545
 20
7.7929438793
 30
0.0
 10
11.0737555354
 20
7.7909468236
 30
0.0
 10
11.0986339561
 20
7.7855228919
 30
0.0
 10
11.123030157
 20
7.7777130145
 30
0.0
 10
11.1467067831
 20
7.7675928917
 30
0.0
 10
11.1694374578
 20
7.755260377
 30
0.0
 10
11.1910038821
 20
7.7408342751
 30
0.0
 10
11.2111991898
 20
7.7244533013
 30
0.0
 10
11.2298296704
 20
7.7062749349
 30
0.0
 10
11.2467164946
 20
7.6864736693
 30
0.0
 10
11.2616974409
 20
7.6652394977
 30
0.0
 10
11.2746285833
 20
7.6427761981
 30
0.0
 10
11.2853853936
 20
7.6192992371
 30
0.0
 10
11.2938640736
 20
7.5950338746
 30
0.0
 10
11.2999826648
 20
7.570213056
 30
0.0
 10
11.3036815616
 20
7.5450751411
 30
0.0
 10
11.3049243364
 20
7.5198617577
 30
0.0
 10
11.3036981873
 20
7.4948154885
 30
0.0
 10
11.3000138488
 20
7.4701775863
 30
0.0
 10
11.2939058561
 20
7.4461856837
 30
0.0
 10
11.2854322735
 20
7.4230714496
 30
0.0
 10
11.2746739978
 20
7.4010584095
 30
0.0
 10
11.2617343628
 20
7.380359621
 30
0.0
 10
11.2467380803
 20
7.3611755085
 30
0.0
 10
11.2298298969
 20
7.3436919578
 30
0.0
 10
11.2111734331
 20
7.3280781955
 30
0.0
 10
11.190949359
 20
7.3144851416
 30
0.0
 10
11.1693535104
 20
7.3030440416
 30
0.0
 10
11.1465949678
 20
7.2938649005
 30
0.0
 10
11.1228941146
 20
7.2870356043
 30
0.0
 10
11.0984792184
 20
7.282621407
 30
0.0
 10
11.0735889142
 20
7.2806634711
 30
0.0
 10
11.0568874083
 20
7.2810070894
 30
0.0
 10
11.0485425185
 20
7.2815858095
 30
0.0
  0
SPLINE
  5
387
100
AcDbEntity
  8
0
100
AcDbSpline
 62
7
  6
CONTINUOUS
 70
0
 71
3
 72
11
 73
7
 74
0
 42
0.0000001
 43
0.0000001
 44
0.0000000001
 40
0.0
 40
0.0
 40
0.0
 40
0.0
 40
0.2467504967
 40
0.4948140803
 40
0.7454812724
 40
1.0
 40
1.0
 40
1.0
 40
1.0
 10
13.3538786849
 20
10.1825781108
 30
0.0
 10
13.3551066172
 20
10.1824929531
 30
0.0
 10
13.3575635441
 20
10.1822288629
 30
0.0
 10
13.3612238987
 20
10.1815539082
 30
0.0
 10
13.3648616965
 20
10.1806001823
 30
0.0
 10
13.3672492635
 20
10.179786133
 30
0.0
 10
13.3684361282
 20
10.1793352243
 30
0.0
  0
SPLINE
  5
388
100
AcDbEntity
  8
0
100
AcDbSpline
 62
7
  6
CONTINUOUS
 70
0
 71
3
 72
39
 73
35
 74
0
 42
0.0000001
 43
0.0000001
 44
0.0000000001
 40
0.0
 40
0.0
 40
0.0
 40
0.0
 40
0.0311908561
 40
0.0621707005
 40
0.0929497571
 40
0.1235450779
 40
0.1539815315
 40
0.1842904905
 40
0.2145086455
 40
0.2446765226
 40
0.2748367817
 40
0.3050324107
 40
0.3353048888
 40
0.3656924437
 40
0.3962284814
 40
0.426940258
 40
0.4578478796
 40
0.4889636214
 40
0.5202915918
 40
0.5518277498
 40
0.5835602081
 40
0.6154698169
 40
0.6475309932
 40
0.6797127251
 40
0.7119797338
 40
0.7442937554
 40
0.7766148872
 40
0.8089029784
 40
0.8411190275
 40
0.8732265528
 40
0.9051929015
 40
0.9369904778
 40
0.9685974164
 40
1.0
 40
1.0
 40
1.0
 40
1.0
 10
11.0485425185
 20
7.7935265278
 30
0.0
 10
11.0401976287
 20
7.7941052479
 30
0.0
 10
11.0234961229
 20
7.7944488662
 30
0.0
 10
10.9986058186
 20
7.7924909303
 30
0.0
 10
10.9741909224
 20
7.788076733
 30
0.0
 10
10.9504900692
 20
7.7812474368
 30
0.0
 10
10.9277315266
 20
7.7720682957
 30
0.0
 10
10.906135678
 20
7.7606271957
 30
0.0
 10
10.8859116039
 20
7.7470341418
 30
0.0
 10
10.8672551401
 20
7.7314203795
 30
0.0
 10
10.8503469567
 20
7.7139368288
 30
0.0
 10
10.8353506742
 20
7.6947527163
 30
0.0
 10
10.8224110393
 20
7.6740539278
 30
0.0
 10
10.8116527636
 20
7.6520408877
 30
0.0
 10
10.803179181
 20
7.6289266536
 30
0.0
 10
10.7970711882
 20
7.604934751
 30
0.0
 10
10.7933868497
 20
7.5802968488
 30
0.0
 10
10.7921607006
 20
7.5552505796
 30
0.0
 10
10.7934034754
 20
7.5300371962
 30
0.0
 10
10.7971023722
 20
7.5048992813
 30
0.0
 10
10.8032209634
 20
7.4800784627
 30
0.0
 10
10.8116996434
 20
7.4558131002
 30
0.0
 10
10.8224564537
 20
7.4323361392
 30
0.0
 10
10.8353875961
 20
7.4098728396
 30
0.0
 10
10.8503685424
 20
7.388638668
 30
0.0
 10
10.8672553667
 20
7.3688374024
 30
0.0
 10
10.8858858472
 20
7.350659036
 30
0.0
 10
10.906081155
 20
7.3342780622
 30
0.0
 10
10.9276475793
 20
7.3198519603
 30
0.0
 10
10.9503782539
 20
7.3075194456
 30
0.0
 10
10.97405488
 20
7.2973993228
 30
0.0
 10
10.9984510809
 20
7.2895894454
 30
0.0
 10
11.0233295016
 20
7.2841655137
 30
0.0
 10
11.0401409825
 20
7.282168458
 30
0.0
 10
11.0485425185
 20
7.2815858095
 30
0.0
  0
SPLINE
  5
389
100
AcDbEntity
  8
0
100
AcDbSpline
 62
7
  6
CONTINUOUS
 70
0
 71
3
 72
41
 73
37
 74
0
 42
0.0000001
 43
0.0000001
 44
0.0000000001
 40
0.0
 40
0.0
 40
0.0
 40
0.0
 40
0.0310748272
 40
0.0623072483
 40
0.0936920359
 40
0.1252208484
 40
0.156882237
 40
0.188662033
 40
0.2205436266
 40
0.2525083437
 40
0.2845358343
 40
0.3166044929
 40
0.3486918936
 40
0.3807752384
 40
0.4128318095
 40
0.4448394218
 40
0.4767768664
 40
0.5086243418
 40
0.5403638639
 40
0.5719796493
 40
0.6034584635
 40
0.6347899281
 40
0.6659667781
 40
0.6969850622
 40
0.7278442783
 40
0.7585474376
 40
0.7891010512
 40
0.8195150346
 40
0.8498025274
 40
0.8649066426
 40
0.8799854039
 40
0.9100708284
 40
0.9400854823
 40
0.9550762294
 40
0.970057877
 40
1.0
 40
1.0
 40
1.0
 40
1.0
 10
12.4179480234
 20
7.0760781845
 30
0.0
 10
12.4179480234
 20
7.0712188327
 30
0.0
 10
12.4183105308
 20
7.0614717467
 30
0.0
 10
12.4199289853
 20
7.0468977891
 30
0.0
 10
12.4226144641
 20
7.0324093889
 30
0.0
 10
12.4263520522
 20
7.0180871836
 30
0.0
 10
12.4311210949
 20
7.0040095134
 30
0.0
 10
12.436895283
 20
6.9902537273
 30
0.0
 10
12.4436428191
 20
6.976895294
 30
0.0
 10
12.4513265823
 20
6.9640075201
 30
0.0
 10
12.4599043363
 20
6.9516611192
 30
0.0
 10
12.4693289583
 20
6.939923838
 30
0.0
 10
12.4795486964
 20
6.9288600859
 30
0.0
 10
12.4905074508
 20
6.9185305862
 30
0.0
 10
12.5021450791
 20
6.9089920465
 30
0.0
 10
12.5143977225
 20
6.9002968499
 30
0.0
 10
12.5271981526
 20
6.8924927701
 30
0.0
 10
12.5404761357
 20
6.8856227111
 30
0.0
 10
12.5541588134
 20
6.8797244724
 30
0.0
 10
12.5681710969
 20
6.8748305422
 30
0.0
 10
12.5824360738
 20
6.8709679179
 30
0.0
 10
12.5968754233
 20
6.8681579559
 30
0.0
 10
12.6114098419
 20
6.8664162511
 30
0.0
 10
12.6259594688
 20
6.8657525447
 30
0.0
 10
12.6404443349
 20
6.8661706706
 30
0.0
 10
12.6547847399
 20
6.8676685003
 30
0.0
 10
12.6689019074
 20
6.8702380417
 30
0.0
 10
12.6827176042
 20
6.8738651124
 30
0.0
 10
12.6939284557
 20
6.877756909
 30
0.0
 10
12.7026667702
 20
6.8813761825
 30
0.0
 10
12.7112282041
 20
6.88532116
 30
0.0
 10
12.7216089713
 20
6.8908664614
 30
0.0
 10
12.7315083948
 20
6.8972060519
 30
0.0
 10
12.7390951193
 20
6.902726757
 30
0.0
 10
12.7464476832
 20
6.9085365804
 30
0.0
 10
12.7516976974
 20
6.9132189783
 30
0.0
 10
12.7550653976
 20
6.9164719491
 30
0.0
  0
SPLINE
  5
38A
100
AcDbEntity
  8
0
100
AcDbSpline
 62
7
  6
CONTINUOUS
 70
0
 71
3
 72
37
 73
33
 74
0
 42
0.0000001
 43
0.0000001
 44
0.0000000001
 40
0.0
 40
0.0
 40
0.0
 40
0.0
 40
0.0308973652
 40
0.0619238356
 40
0.0930729232
 40
0.1243406761
 40
0.1557190341
 40
0.1871992416
 40
0.2187709008
 40
0.2504223738
 40
0.2821409415
 40
0.3139129618
 40
0.3457240697
 40
0.3775593674
 40
0.4412157083
 40
0.5047857293
 40
0.536514344
 40
0.5681781158
 40
0.5997641504
 40
0.6312606215
 40
0.6626569397
 40
0.6939439085
 40
0.7251138687
 40
0.75616083
 40
0.7870805745
 40
0.8178707364
 40
0.8485308583
 40
0.8790624209
 40
0.9094688512
 40
0.9397554953
 40
0.969929556
 40
1.0
 40
1.0
 40
1.0
 40
1.0
 10
11.1970673631
 20
7.4772097989
 30
0.0
 10
11.1929130814
 20
7.4774978994
 30
0.0
 10
11.1846025875
 20
7.4783289806
 30
0.0
 10
11.1722114483
 20
7.4803273906
 30
0.0
 10
11.1599126499
 20
7.4830730979
 30
0.0
 10
11.1477527058
 20
7.4865555176
 30
0.0
 10
11.1357765518
 20
7.4907618365
 30
0.0
 10
11.1240288283
 20
7.4956762863
 30
0.0
 10
11.1125531946
 20
7.5012805716
 30
0.0
 10
11.1013923269
 20
7.5075537847
 30
0.0
 10
11.0905876948
 20
7.5144725876
 30
0.0
 10
11.0801795584
 20
7.5220111292
 30
0.0
 10
11.0702062937
 20
7.5301417388
 30
0.0
 10
11.0575413335
 20
7.5417281388
 30
0.0
 10
11.0429818257
 20
7.5575307435
 30
0.0
 10
11.0303222401
 20
7.5748752798
 30
0.0
 10
11.0214527839
 20
7.5895180227
 30
0.0
 10
11.0154568615
 20
7.6008362167
 30
0.0
 10
11.0101370778
 20
7.6124527386
 30
0.0
 10
11.0055129504
 20
7.6243247831
 30
0.0
 10
11.0016018036
 20
7.6364081
 30
0.0
 10
10.9984182257
 20
7.648657782
 30
0.0
 10
10.9959741294
 20
7.6610282571
 30
0.0
 10
10.9942786488
 20
7.6734735017
 30
0.0
 10
10.9933381515
 20
7.6859472068
 30
0.0
 10
10.9931562063
 20
7.6984029494
 30
0.0
 10
10.9937335671
 20
7.710794356
 30
0.0
 10
10.99506818
 20
7.7230752915
 30
0.0
 10
10.997155118
 20
7.7351999633
 30
0.0
 10
10.9999867332
 20
7.7471233606
 30
0.0
 10
11.0035523029
 20
7.7588004285
 30
0.0
 10
11.0064150232
 20
7.7664056027
 30
0.0
 10
11.0079637268
 20
7.7701508373
 30
0.0
  0
SPLINE
  5
38B
100
AcDbEntity
  8
0
100
AcDbSpline
 62
7
  6
CONTINUOUS
 70
0
 71
3
 72
97
 73
93
 74
0
 42
0.0000001
 43
0.0000001
 44
0.0000000001
 40
0.0
 40
0.0
 40
0.0
 40
0.0
 40
0.0040125946
 40
0.0078523622
 40
0.0115286224
 40
0.0150528714
 40
0.0184386748
 40
0.0217015999
 40
0.0248592729
 40
0.0279314122
 40
0.0309396632
 40
0.0339072141
 40
0.0368583145
 40
0.0398176542
 40
0.0428096986
 40
0.0458580568
 40
0.0489849206
 40
0.0522106911
 40
0.055553727
 40
0.0590302613
 40
0.062654443
 40
0.0664384089
 40
0.0703924975
 40
0.0745253454
 40
0.078844161
 40
0.0833547935
 40
0.0880619878
 40
0.0929694385
 40
0.0980799756
 40
0.1033956349
 40
0.1089177521
 40
0.1146470703
 40
0.1205837458
 40
0.1267274919
 40
0.1330775214
 40
0.1396327038
 40
0.1463914869
 40
0.1533520304
 40
0.1678689545
 40
0.1831633344
 40
0.1992105504
 40
0.2159825243
 40
0.2334481147
 40
0.2515734463
 40
0.2703221893
 40
0.2896558036
 40
0.3095337556
 40
0.3299137168
 40
0.3507517481
 40
0.3720024733
 40
0.3936192464
 40
0.4155543117
 40
0.4377589606
 40
0.4601836858
 40
0.4827783335
 40
0.5054922541
 40
0.5282744515
 40
0.5510737315
 40
0.5738388509
 40
0.5965186651
 40
0.6190622769
 40
0.6414191853
 40
0.6635394351
 40
0.6853737683
 40
0.7068737769
 40
0.7279920574
 40
0.7486823689
 40
0.7688997955
 40
0.7886009152
 40
0.8077439767
 40
0.8262890881
 40
0.8441984209
 40
0.8614364347
 40
0.8779701323
 40
0.8937693541
 40
0.9088071268
 40
0.9160332415
 40
0.923060558
 40
0.9298868204
 40
0.9365100436
 40
0.9429286116
 40
0.9491412106
 40
0.9551469724
 40
0.960945401
 40
0.9665365344
 40
0.9719208993
 40
0.9770996209
 40
0.9820744635
 40
0.9868480032
 40
0.9914237695
 40
0.9958060704
 40
1.0
 40
1.0
 40
1.0
 40
1.0
 10
10.7806420542
 20
10.8898477109
 30
0.0
 10
10.7823609769
 20
10.8915080628
 30
0.0
 10
10.7856476767
 20
10.8948385893
 30
0.0
 10
10.7902047046
 20
10.8999793541
 30
0.0
 10
10.7942741855
 20
10.9051495099
 30
0.0
 10
10.7978531911
 20
10.9103460025
 30
0.0
 10
10.8009392133
 20
10.9155662174
 30
0.0
 10
10.8035298833
 20
10.9208073579
 30
0.0
 10
10.8056228639
 20
10.9260664528
 30
0.0
 10
10.8072159037
 20
10.9313402579
 30
0.0
 10
10.8083072419
 20
10.9366251469
 30
0.0
 10
10.8088952846
 20
10.9419172027
 30
0.0
 10
10.8089793751
 20
10.9472121675
 30
0.0
 10
10.808559183
 20
10.9525056689
 30
0.0
 10
10.8076355171
 20
10.9577934143
 30
0.0
 10
10.8062094708
 20
10.963071317
 30
0.0
 10
10.8042829292
 20
10.9683356951
 30
0.0
 10
10.8018578945
 20
10.9735831682
 30
0.0
 10
10.7989366818
 20
10.978810684
 30
0.0
 10
10.7955217181
 20
10.9840154034
 30
0.0
 10
10.7916154756
 20
10.9891945388
 30
0.0
 10
10.7872206818
 20
10.9943454629
 30
0.0
 10
10.7823400495
 20
10.9994653765
 30
0.0
 10
10.7769766758
 20
11.004551661
 30
0.0
 10
10.7711336897
 20
11.009601436
 30
0.0
 10
10.7648146382
 20
11.0146120128
 30
0.0
 10
10.7580231907
 20
11.019580475
 30
0.0
 10
10.7507633934
 20
11.0245040491
 30
0.0
 10
10.7430395069
 20
11.0293798464
 30
0.0
 10
10.7348561035
 20
11.0342050255
 30
0.0
 10
10.726218038
 20
11.038976768
 30
0.0
 10
10.7171304219
 20
11.0436921972
 30
0.0
 10
10.7075986852
 20
11.0483485804
 30
0.0
 10
10.6976284829
 20
11.0529430483
 30
0.0
 10
10.6872257927
 20
11.057472948
 30
0.0
 10
10.6763968136
 20
11.0619354579
 30
0.0
 10
10.6651480321
 20
11.0663280205
 30
0.0
 10
10.6493772326
 20
11.0721698174
 30
0.0
 10
10.628651609
 20
11.0792604514
 30
0.0
 10
10.6025556906
 20
11.0873343328
 30
0.0
 10
10.5749598851
 20
11.0950687109
 30
0.0
 10
10.5459304318
 20
11.1024448351
 30
0.0
 10
10.5155367844
 20
11.1094448047
 30
0.0
 10
10.4838518676
 20
11.1160516307
 30
0.0
 10
10.4509517516
 20
11.1222492788
 30
0.0
 10
10.4169154905
 20
11.1280227104
 30
0.0
 10
10.3818249109
 20
11.1333579206
 30
0.0
 10
10.345764409
 20
11.1382419708
 30
0.0
 10
10.3088207404
 20
11.1426630201
 30
0.0
 10
10.2710828064
 20
11.1466103528
 30
0.0
 10
10.232641436
 20
11.1500744035
 30
0.0
 10
10.1935891644
 20
11.1530467797
 30
0.0
 10
10.1540200079
 20
11.1555202811
 30
0.0
 10
10.114029235
 20
11.1574889181
 30
0.0
 10
10.0737131354
 20
11.1589479244
 30
0.0
 10
10.0331687855
 20
11.1598937675
 30
0.0
 10
9.9924938141
 20
11.160324158
 30
0.0
 10
9.9517861658
 20
11.160238054
 30
0.0
 10
9.9111438639
 20
11.1596356638
 30
0.0
 10
9.8706647742
 20
11.1585184458
 30
0.0
 10
9.8304463674
 20
11.1568891044
 30
0.0
 10
9.7905854837
 20
11.1547515844
 30
0.0
 10
9.7511780984
 20
11.1521110613
 30
0.0
 10
9.7123190881
 20
11.1489739298
 30
0.0
 10
9.6741020007
 20
11.1453477899
 30
0.0
 10
9.6366188274
 20
11.1412414273
 30
0.0
 10
9.5999597791
 20
11.1366647935
 30
0.0
 10
9.5642130659
 20
11.1316289821
 30
0.0
 10
9.5294646805
 20
11.1261462031
 30
0.0
 10
9.4957981852
 20
11.1202297543
 30
0.0
 10
9.4632945064
 20
11.113893989
 30
0.0
 10
9.4320317212
 20
11.1071542819
 30
0.0
 10
9.4020848895
 20
11.10002699
 30
0.0
 10
9.3735257431
 20
11.0925294141
 30
0.0
 10
9.3464228868
 20
11.0846797339
 30
0.0
 10
9.3248270421
 20
11.0777722186
 30
0.0
 10
9.3083385983
 20
11.0720711532
 30
0.0
 10
9.2965406176
 20
11.0677760596
 30
0.0
 10
9.2851534003
 20
11.0634074882
 30
0.0
 10
9.2741837691
 20
11.058967971
 30
0.0
 10
9.2636382774
 20
11.0544602642
 30
0.0
 10
9.2535232548
 20
11.0498869804
 30
0.0
 10
9.2438447183
 20
11.045250958
 30
0.0
 10
9.2346084647
 20
11.0405548769
 30
0.0
 10
9.2258199633
 20
11.0358016076
 30
0.0
 10
9.2174844592
 20
11.0309939071
 30
0.0
 10
9.2096069003
 20
11.0261346647
 30
0.0
 10
9.2021919367
 20
11.0212267384
 30
0.0
 10
9.1952439275
 20
11.0162729126
 30
0.0
 10
9.1887668564
 20
11.0112759678
 30
0.0
 10
9.1827649283
 20
11.0062389787
 30
0.0
 10
9.1790016909
 20
11.0027818278
 30
0.0
 10
9.1772050876
 20
11.0010464422
 30
0.0
  0
SPLINE
  5
38C
100
AcDbEntity
  8
0
100
AcDbSpline
 62
7
  6
CONTINUOUS
 70
0
 71
3
 72
93
 73
89
 74
0
 42
0.0000001
 43
0.0000001
 44
0.0000000001
 40
0.0
 40
0.0
 40
0.0
 40
0.0
 40
0.003980186
 40
0.0081240985
 40
0.0124359165
 40
0.0169192431
 40
0.0215771095
 40
0.0264118321
 40
0.03142508
 40
0.0366180353
 40
0.0419914005
 40
0.0475455047
 40
0.0532802486
 40
0.0591952316
 40
0.06528971
 40
0.0715626757
 40
0.0780128531
 40
0.0846387141
 40
0.0984099732
 40
0.1128604928
 40
0.1279709678
 40
0.1437195073
 40
0.160081912
 40
0.1770319065
 40
0.1945413371
 40
0.2125803451
 40
0.2311175218
 40
0.2501200482
 40
0.2695538252
 40
0.2893835946
 40
0.3095730568
 40
0.3300849824
 40
0.35088132
 40
0.3719233022
 40
0.3931715487
 40
0.4145861688
 40
0.4361268626
 40
0.4577530211
 40
0.479423827
 40
0.5010983543
 40
0.5227356683
 40
0.5442949252
 40
0.565735471
 40
0.5870169424
 40
0.6080993662
 40
0.6289432611
 40
0.6495097397
 40
0.6697606129
 40
0.6896584944
 40
0.7091669086
 40
0.7282504005
 40
0.7468746515
 40
0.7650066
 40
0.7826145693
 40
0.7996684066
 40
0.8161396351
 40
0.832001625
 40
0.8472297848
 40
0.8618017864
 40
0.8756978329
 40
0.882387156
 40
0.8889013914
 40
0.8952389461
 40
0.9013984509
 40
0.9073787871
 40
0.9131791314
 40
0.9187989301
 40
0.9242380012
 40
0.9294964809
 40
0.9345749515
 40
0.9394744048
 40
0.9441963552
 40
0.9487428629
 40
0.9531166081
 40
0.9573209919
 40
0.9613601753
 40
0.9652392467
 40
0.9689642524
 40
0.972542391
 40
0.9759820675
 40
0.979293059
 40
0.982486592
 40
0.9855754214
 40
0.9885738725
 40
0.991497773
 40
0.9943643594
 40
0.9971920205
 40
1.0
 40
1.0
 40
1.0
 40
1.0
 10
8.9695310226
 20
11.0309035024
 30
0.0
 10
8.9716007244
 20
11.0329026809
 30
0.0
 10
8.9759192535
 20
11.0368868903
 30
0.0
 10
8.982775741
 20
11.0427061141
 30
0.0
 10
8.9901357185
 20
11.0484835778
 30
0.0
 10
8.9979951535
 20
11.0542162507
 30
0.0
 10
9.0063502359
 20
11.0599014305
 30
0.0
 10
9.0151968443
 20
11.0655363812
 30
0.0
 10
9.02453057
 20
11.0711183484
 30
0.0
 10
9.034346764
 20
11.0766444788
 30
0.0
 10
9.044640483
 20
11.082112104
 30
0.0
 10
9.0554066117
 20
11.0875184011
 30
0.0
 10
9.0666397243
 20
11.09286075
 30
0.0
 10
9.078334205
 20
11.0981363821
 30
0.0
 10
9.0904841593
 20
11.1033426971
 30
0.0
 10
9.103083479
 20
11.1084770294
 30
0.0
 10
9.1161258344
 20
11.1135368242
 30
0.0
 10
9.1343322534
 20
11.1202670304
 30
0.0
 10
9.1581616135
 20
11.1284578446
 30
0.0
 10
9.1880592065
 20
11.1378276286
 30
0.0
 10
9.2195555058
 20
11.1468413261
 30
0.0
 10
9.2525869321
 20
11.1554805982
 30
0.0
 10
9.2870870416
 20
11.1637278491
 30
0.0
 10
9.3229862562
 20
11.1715662792
 30
0.0
 10
9.3602121399
 20
11.1789799204
 30
0.0
 10
9.3986895224
 20
11.1859536718
 30
0.0
 10
9.4383406695
 20
11.1924733309
 30
0.0
 10
9.4790854441
 20
11.1985256222
 30
0.0
 10
9.5208414735
 20
11.204098225
 30
0.0
 10
9.5635243198
 20
11.2091797994
 30
0.0
 10
9.6070476558
 20
11.2137600066
 30
0.0
 10
9.6513234425
 20
11.2178295295
 30
0.0
 10
9.69626211
 20
11.2213800912
 30
0.0
 10
9.7417727401
 20
11.2244044708
 30
0.0
 10
9.7877632514
 20
11.2268965185
 30
0.0
 10
9.8341405865
 20
11.2288511667
 30
0.0
 10
9.8808109016
 20
11.2302644406
 30
0.0
 10
9.9276797569
 20
11.2311334664
 30
0.0
 10
9.9746523089
 20
11.231456479
 30
0.0
 10
10.0216335037
 20
11.2312328222
 30
0.0
 10
10.0685282704
 20
11.2304629514
 30
0.0
 10
10.1152417139
 20
11.2291484317
 30
0.0
 10
10.1616793076
 20
11.2272919353
 30
0.0
 10
10.207747085
 20
11.224897236
 30
0.0
 10
10.2533518308
 20
11.2219692021
 30
0.0
 10
10.2984012708
 20
11.2185137863
 30
0.0
 10
10.3428042601
 20
11.214538015
 30
0.0
 10
10.3864709701
 20
11.2100499759
 30
0.0
 10
10.4293130715
 20
11.2050587994
 30
0.0
 10
10.4712439146
 20
11.1995746412
 30
0.0
 10
10.5121787071
 20
11.1936086618
 30
0.0
 10
10.5520346883
 20
11.1871730051
 30
0.0
 10
10.5907313008
 20
11.1802807735
 30
0.0
 10
10.6281903585
 20
11.172946002
 30
0.0
 10
10.6643362098
 20
11.1651836292
 30
0.0
 10
10.6990959097
 20
11.1570094676
 30
0.0
 10
10.7323993463
 20
11.1484401701
 30
0.0
 10
10.7641795116
 20
11.1394931908
 30
0.0
 10
10.794372248
 20
11.1301867412
 30
0.0
 10
10.818455724
 20
11.1220477156
 30
0.0
 10
10.8368710197
 20
11.1153574129
 30
0.0
 10
10.8500728239
 20
11.1103253498
 30
0.0
 10
10.8628339572
 20
11.1052178276
 30
0.0
 10
10.8751480092
 20
11.1000373891
 30
0.0
 10
10.8870087706
 20
11.0947866332
 30
0.0
 10
10.8984102943
 20
11.0894682585
 30
0.0
 10
10.9093468305
 20
11.0840848665
 30
0.0
 10
10.9198129225
 20
11.0786392516
 30
0.0
 10
10.9298032957
 20
11.0731340477
 30
0.0
 10
10.9393129854
 20
11.0675720876
 30
0.0
 10
10.948337219
 20
11.0619560705
 30
0.0
 10
10.9568715127
 20
11.0562888077
 30
0.0
 10
10.9649116216
 20
11.0505730784
 30
0.0
 10
10.9724535264
 20
11.0448116304
 30
0.0
 10
10.9794935196
 20
11.0390073047
 30
0.0
 10
10.9860280285
 20
11.0331627712
 30
0.0
 10
10.9920538564
 20
11.0272808787
 30
0.0
 10
10.99756786
 20
11.0213642405
 30
0.0
 10
11.0025672684
 20
11.0154156474
 30
0.0
 10
11.0070493439
 20
11.0094377121
 30
0.0
 10
11.0110116061
 20
11.0034331554
 30
0.0
 10
11.0144516812
 20
10.9974046899
 30
0.0
 10
11.0173672614
 20
10.9913550914
 30
0.0
 10
11.0197563274
 20
10.9852873344
 30
0.0
 10
11.0216167888
 20
10.9792045549
 30
0.0
 10
11.0229471205
 20
10.9731100454
 30
0.0
 10
11.0237458134
 20
10.9670080473
 30
0.0
 10
11.0239235736
 20
10.9629314403
 30
0.0
 10
11.0239235656
 20
10.9609013483
 30
0.0
  0
SPLINE
  5
38D
100
AcDbEntity
  8
0
100
AcDbSpline
 62
7
  6
CONTINUOUS
 70
0
 71
3
 72
39
 73
35
 74
0
 42
0.0000001
 43
0.0000001
 44
0.0000000001
 40
0.0
 40
0.0
 40
0.0
 40
0.0
 40
0.0311450401
 40
0.062443098
 40
0.0938883402
 40
0.1254709779
 40
0.1571788704
 40
0.1889972432
 40
0.2209091549
 40
0.2528958204
 40
0.2849369968
 40
0.3170113846
 40
0.3490970423
 40
0.3811718113
 40
0.4132137424
 40
0.4452015207
 40
0.4771148823
 40
0.5089350149
 40
0.5406449388
 40
0.5722298604
 40
0.6036774924
 40
0.6349783353
 40
0.6661259096
 40
0.6971169338
 40
0.7279514411
 40
0.7586328285
 40
0.7891678337
 40
0.8195664367
 40
0.8498416808
 40
0.8800094153
 40
0.9100879635
 40
0.9400977213
 40
0.9700606967
 40
1.0
 40
1.0
 40
1.0
 40
1.0
 10
11.044401417
 20
7.1085487828
 30
0.0
 10
11.034023145
 20
7.1092685184
 30
0.0
 10
11.0132605699
 20
7.1114711671
 30
0.0
 10
10.982368421
 20
7.1170197311
 30
0.0
 10
10.9518071575
 20
7.1247915665
 30
0.0
 10
10.9217418208
 20
7.1347449291
 30
0.0
 10
10.8923321486
 20
7.1468264389
 30
0.0
 10
10.8637350167
 20
7.1609714922
 30
0.0
 10
10.8361027737
 20
7.1771045033
 30
0.0
 10
10.8095826567
 20
7.1951393258
 30
0.0
 10
10.7843159595
 20
7.2149797194
 30
0.0
 10
10.7604373107
 20
7.2365198657
 30
0.0
 10
10.7380739597
 20
7.2596449262
 30
0.0
 10
10.7173451075
 20
7.2842316468
 30
0.0
 10
10.6983612815
 20
7.3101490101
 30
0.0
 10
10.6812237294
 20
7.3372589099
 30
0.0
 10
10.6660238942
 20
7.365416892
 30
0.0
 10
10.6528429389
 20
7.3944729194
 30
0.0
 10
10.6417513141
 20
7.4242721593
 30
0.0
 10
10.632808382
 20
7.4546557965
 30
0.0
 10
10.6260621025
 20
7.4854618679
 30
0.0
 10
10.6215487478
 20
7.5165261087
 30
0.0
 10
10.6192927087
 20
7.5476828227
 30
0.0
 10
10.6193063694
 20
7.5787657571
 30
0.0
 10
10.6215900243
 20
7.6096089775
 30
0.0
 10
10.6261318594
 20
7.6400477464
 30
0.0
 10
10.6329079997
 20
7.6699193959
 30
0.0
 10
10.6418825984
 20
7.6990642057
 30
0.0
 10
10.6530079938
 20
7.7273262534
 30
0.0
 10
10.6662250191
 20
7.7545543072
 30
0.0
 10
10.6814630961
 20
7.7806024533
 30
0.0
 10
10.6986413482
 20
7.8053316295
 30
0.0
 10
10.7176662492
 20
7.8286076662
 30
0.0
 10
10.731518885
 20
7.8430792507
 30
0.0
 10
10.7387117423
 20
7.8500270473
 30
0.0
  0
SPLINE
  5
38E
100
AcDbEntity
  8
0
100
AcDbSpline
 62
7
  6
CONTINUOUS
 70
0
 71
3
 72
11
 73
7
 74
0
 42
0.0000001
 43
0.0000001
 44
0.0000000001
 40
0.0
 40
0.0
 40
0.0
 40
0.0
 40
0.2545149704
 40
0.5051815903
 40
0.7532467758
 40
1.0
 40
1.0
 40
1.0
 40
1.0
 10
13.2605340707
 20
8.6235265008
 30
0.0
 10
13.2592968541
 20
8.6232440164
 30
0.0
 10
13.2568208348
 20
8.6227678119
 30
0.0
 10
13.2530878345
 20
8.6223258575
 30
0.0
 10
13.2493709618
 20
8.622162882
 30
0.0
 10
13.2469021682
 20
8.6222404745
 30
0.0
 10
13.245674762
 20
8.6223255956
 30
0.0
  0
SPLINE
  5
38F
100
AcDbEntity
  8
0
100
AcDbSpline
 62
7
  6
CONTINUOUS
 70
0
 71
3
 72
41
 73
37
 74
0
 42
0.0000001
 43
0.0000001
 44
0.0000000001
 40
0.0
 40
0.0
 40
0.0
 40
0.0
 40
0.0310748272
 40
0.0623072483
 40
0.0936920359
 40
0.1252208484
 40
0.156882237
 40
0.188662033
 40
0.2205436266
 40
0.2525083437
 40
0.2845358343
 40
0.3166044929
 40
0.3486918936
 40
0.3807752384
 40
0.4128318095
 40
0.4448394218
 40
0.4767768664
 40
0.5086243418
 40
0.5403638639
 40
0.5719796493
 40
0.6034584635
 40
0.6347899281
 40
0.6659667781
 40
0.6969850622
 40
0.7278442783
 40
0.7585474376
 40
0.7891010512
 40
0.8195150346
 40
0.8498025274
 40
0.8649066426
 40
0.8799854039
 40
0.9100708284
 40
0.9400854823
 40
0.9550762294
 40
0.970057877
 40
1.0
 40
1.0
 40
1.0
 40
1.0
 10
7.8298000766
 20
9.3261190924
 30
0.0
 10
7.8298000766
 20
9.3212597406
 30
0.0
 10
7.8301625841
 20
9.3115126546
 30
0.0
 10
7.8317810386
 20
9.296938697
 30
0.0
 10
7.8344665174
 20
9.2824502968
 30
0.0
 10
7.8382041055
 20
9.2681280915
 30
0.0
 10
7.8429731482
 20
9.2540504213
 30
0.0
 10
7.8487473363
 20
9.2402946352
 30
0.0
 10
7.8554948724
 20
9.2269362019
 30
0.0
 10
7.8631786355
 20
9.2140484279
 30
0.0
 10
7.8717563895
 20
9.2017020271
 30
0.0
 10
7.8811810116
 20
9.1899647459
 30
0.0
 10
7.8914007497
 20
9.1789009937
 30
0.0
 10
7.9023595041
 20
9.1685714941
 30
0.0
 10
7.9139971324
 20
9.1590329544
 30
0.0
 10
7.9262497758
 20
9.1503377578
 30
0.0
 10
7.9390502059
 20
9.142533678
 30
0.0
 10
7.952328189
 20
9.135663619
 30
0.0
 10
7.9660108666
 20
9.1297653803
 30
0.0
 10
7.9800231502
 20
9.1248714501
 30
0.0
 10
7.994288127
 20
9.1210088258
 30
0.0
 10
8.0087274765
 20
9.1181988638
 30
0.0
 10
8.0232618952
 20
9.116457159
 30
0.0
 10
8.0378115221
 20
9.1157934526
 30
0.0
 10
8.0522963882
 20
9.1162115785
 30
0.0
 10
8.0666367932
 20
9.1177094081
 30
0.0
 10
8.0807539607
 20
9.1202789496
 30
0.0
 10
8.0945696575
 20
9.1239060203
 30
0.0
 10
8.1057805089
 20
9.1277978169
 30
0.0
 10
8.1145188235
 20
9.1314170904
 30
0.0
 10
8.1230802573
 20
9.1353620679
 30
0.0
 10
8.1334610246
 20
9.1409073692
 30
0.0
 10
8.1433604481
 20
9.1472469598
 30
0.0
 10
8.1509471725
 20
9.1527676649
 30
0.0
 10
8.1582997365
 20
9.1585774882
 30
0.0
 10
8.1635497507
 20
9.1632598861
 30
0.0
 10
8.1669174509
 20
9.166512857
 30
0.0
  0
SPLINE
  5
390
100
AcDbEntity
  8
0
100
AcDbSpline
 62
7
  6
CONTINUOUS
 70
0
 71
3
 72
15
 73
11
 74
0
 42
0.0000001
 43
0.0000001
 44
0.0000000001
 40
0.0
 40
0.0
 40
0.0
 40
0.0
 40
0.1234394136
 40
0.2470466177
 40
0.370982561
 40
0.4953948844
 40
0.6204121622
 40
0.7461393429
 40
0.8726517211
 40
1.0
 40
1.0
 40
1.0
 40
1.0
 10
7.8848486111
 20
9.4585285296
 30
0.0
 10
7.880489911
 20
9.4543183197
 30
0.0
 10
7.8721943307
 20
9.4454360521
 30
0.0
 10
7.8611768931
 20
9.4308954079
 30
0.0
 10
7.8516775272
 20
9.4152626429
 30
0.0
 10
7.8437855225
 20
9.3986842375
 30
0.0
 10
7.8375728732
 20
9.3813132569
 30
0.0
 10
7.8330965582
 20
9.3633098953
 30
0.0
 10
7.8303970127
 20
9.3448425272
 30
0.0
 10
7.8298000766
 20
9.3323710354
 30
0.0
 10
7.8298000766
 20
9.3261190924
 30
0.0
  0
SPLINE
  5
391
100
AcDbEntity
  8
0
100
AcDbSpline
 62
7
  6
CONTINUOUS
 70
0
 71
3
 72
15
 73
11
 74
0
 42
0.0000001
 43
0.0000001
 44
0.0000000001
 40
0.0
 40
0.0
 40
0.0
 40
0.0
 40
0.1234394136
 40
0.2470466177
 40
0.370982561
 40
0.4953948844
 40
0.6204121622
 40
0.7461393429
 40
0.8726517211
 40
1.0
 40
1.0
 40
1.0
 40
1.0
 10
12.4729965579
 20
7.2084876218
 30
0.0
 10
12.4686378577
 20
7.2042774119
 30
0.0
 10
12.4603422774
 20
7.1953951442
 30
0.0
 10
12.4493248398
 20
7.1808545
 30
0.0
 10
12.439825474
 20
7.1652217351
 30
0.0
 10
12.4319334693
 20
7.1486433296
 30
0.0
 10
12.4257208199
 20
7.131272349
 30
0.0
 10
12.4212445049
 20
7.1132689874
 30
0.0
 10
12.4185449595
 20
7.0948016193
 30
0.0
 10
12.4179480234
 20
7.0823301276
 30
0.0
 10
12.4179480234
 20
7.0760781845
 30
0.0
  0
SPLINE
  5
392
100
AcDbEntity
  8
0
100
AcDbSpline
 62
7
  6
CONTINUOUS
 70
0
 71
3
 72
23
 73
19
 74
0
 42
0.0000001
 43
0.0000001
 44
0.0000000001
 40
0.0
 40
0.0
 40
0.0
 40
0.0
 40
0.061648213
 40
0.123319452
 40
0.1850364843
 40
0.2468215692
 40
0.3086962118
 40
0.370680925
 40
0.4327950058
 40
0.495056332
 40
0.557481176
 40
0.6200840667
 40
0.6828775914
 40
0.7458723173
 40
0.8090769586
 40
0.8724967492
 40
0.9361385647
 40
1.0
 40
1.0
 40
1.0
 40
1.0
 10
11.3500910917
 20
7.2170852958
 30
0.0
 10
11.3451533708
 20
7.2123158031
 30
0.0
 10
11.3350174193
 20
7.2030387026
 30
0.0
 10
11.3190844483
 20
7.1899576837
 30
0.0
 10
11.3024596021
 20
7.1777412961
 30
0.0
 10
11.2851853391
 20
7.1664208504
 30
0.0
 10
11.2673050475
 20
7.1560246968
 30
0.0
 10
11.2488638236
 20
7.1465790465
 30
0.0
 10
11.2299081203
 20
7.1381076713
 30
0.0
 10
11.2104857158
 20
7.1306318563
 30
0.0
 10
11.1906455477
 20
7.1241703705
 30
0.0
 10
11.1704375933
 20
7.11873944
 30
0.0
 10
11.1499127535
 20
7.1143526968
 30
0.0
 10
11.1291226768
 20
7.1110211336
 30
0.0
 10
11.108119848
 20
7.1087531314
 30
0.0
 10
11.0869567427
 20
7.1075541726
 30
0.0
 10
11.0656875801
 20
7.1074274336
 30
0.0
 10
11.051495906
 20
7.1080567783
 30
0.0
 10
11.044401417
 20
7.1085487828
 30
0.0
  0
SPLINE
  5
393
100
AcDbEntity
  8
0
100
AcDbSpline
 62
7
  6
CONTINUOUS
 70
0
 71
3
 72
23
 73
19
 74
0
 42
0.0000001
 43
0.0000001
 44
0.0000000001
 40
0.0
 40
0.0
 40
0.0
 40
0.0
 40
0.0616371603
 40
0.1233028343
 40
0.1850188996
 40
0.2468066874
 40
0.3086867568
 40
0.3706786858
 40
0.432800868
 40
0.4950703181
 40
0.5575024939
 40
0.6201111861
 40
0.682908298
 40
0.7459039087
 40
0.8091061937
 40
0.8725199723
 40
0.9361524069
 40
1.0
 40
1.0
 40
1.0
 40
1.0
 10
11.3500618119
 20
7.2171171301
 30
0.0
 10
11.3451401515
 20
7.2125040601
 30
0.0
 10
11.3350486275
 20
7.2035341965
 30
0.0
 10
11.3192184055
 20
7.1908941558
 30
0.0
 10
11.3027300048
 20
7.1790962695
 30
0.0
 10
11.2856240746
 20
7.1681697446
 30
0.0
 10
11.2679421052
 20
7.1581409746
 30
0.0
 10
11.2497271593
 20
7.1490343449
 30
0.0
 10
11.2310235322
 20
7.1408719618
 30
0.0
 10
11.2118767074
 20
7.1336736734
 30
0.0
 10
11.1923332583
 20
7.1274569246
 30
0.0
 10
11.1724407193
 20
7.1222367641
 30
0.0
 10
11.1522474576
 20
7.1180258224
 30
0.0
 10
11.1318025233
 20
7.1148343049
 30
0.0
 10
11.1111557505
 20
7.1126699887
 30
0.0
 10
11.0903568924
 20
7.111537881
 30
0.0
 10
11.069457454
 20
7.1114409258
 30
0.0
 10
11.0555132894
 20
7.1120653553
 30
0.0
 10
11.0485425185
 20
7.1125487799
 30
0.0
  0
SPLINE
  5
394
100
AcDbEntity
  8
0
100
AcDbSpline
 62
7
  6
CONTINUOUS
 70
0
 71
3
 72
21
 73
17
 74
0
 42
0.0000001
 43
0.0000001
 44
0.0000000001
 40
0.0
 40
0.0
 40
0.0
 40
0.0
 40
0.0616532317
 40
0.1233294898
 40
0.1850515414
 40
0.246841662
 40
0.3087213493
 40
0.3707111057
 40
0.4328302438
 40
0.4950966409
 40
0.5575265847
 40
0.6201345602
 40
0.6829331384
 40
0.745933256
 40
0.8725261412
 40
1.0
 40
1.0
 40
1.0
 40
1.0
 10
11.219572529
 20
7.376031346
 30
0.0
 10
11.2169353361
 20
7.3734840304
 30
0.0
 10
11.2115218374
 20
7.368529246
 30
0.0
 10
11.2030121768
 20
7.3615428847
 30
0.0
 10
11.194133029
 20
7.3550182737
 30
0.0
 10
11.1849070393
 20
7.3489721663
 30
0.0
 10
11.1753573484
 20
7.3434197633
 30
0.0
 10
11.1655080942
 20
7.3383749788
 30
0.0
 10
11.1553840747
 20
7.3338505141
 30
0.0
 10
11.1450107806
 20
7.3298578139
 30
0.0
 10
11.1344143603
 20
7.326406827
 30
0.0
 10
11.1236215825
 20
7.323506231
 30
0.0
 10
11.1126592945
 20
7.3211633571
 30
0.0
 10
11.097832908
 20
7.3187873671
 30
0.0
 10
11.0790057548
 20
7.3172437011
 30
0.0
 10
11.0638698601
 20
7.3175390999
 30
0.0
 10
11.0563070835
 20
7.3180635803
 30
0.0
  0
SPLINE
  5
395
100
AcDbEntity
  8
0
100
AcDbSpline
 62
7
  6
CONTINUOUS
 70
0
 71
3
 72
11
 73
7
 74
0
 42
0.0000001
 43
0.0000001
 44
0.0000000001
 40
0.0
 40
0.0
 40
0.0
 40
0.0
 40
0.2478436574
 40
0.4970666087
 40
0.7477653091
 40
1.0
 40
1.0
 40
1.0
 40
1.0
 10
11.2718644624
 20
7.4590904157
 30
0.0
 10
11.2655913275
 20
7.4572173081
 30
0.0
 10
11.2528295966
 20
7.4540385636
 30
0.0
 10
11.2332829036
 20
7.4510213185
 30
0.0
 10
11.2134288934
 20
7.4497628879
 30
0.0
 10
11.2001279015
 20
7.450102519
 30
0.0
 10
11.1934810642
 20
7.4505634788
 30
0.0
  0
SPLINE
  5
396
100
AcDbEntity
  8
0
100
AcDbSpline
 62
7
  6
CONTINUOUS
 70
0
 71
3
 72
39
 73
35
 74
0
 42
0.0000001
 43
0.0000001
 44
0.0000000001
 40
0.0
 40
0.0
 40
0.0
 40
0.0
 40
0.0299343776
 40
0.0598966069
 40
0.089909357
 40
0.1199941213
 40
0.1501707283
 40
0.1804569003
 40
0.210867873
 40
0.2414160824
 40
0.272110926
 40
0.3029585996
 40
0.3339620102
 40
0.3651207633
 40
0.3964312211
 40
0.4278866236
 40
0.4594772699
 40
0.4911907497
 40
0.5230122218
 40
0.5549247295
 40
0.5869095491
 40
0.6189465643
 40
0.6510146589
 40
0.6830921242
 40
0.7151570725
 40
0.7471878548
 40
0.7791634736
 40
0.8110639893
 40
0.8428709095
 40
0.8745675677
 40
0.9061394264
 40
0.9375745575
 40
0.9688633342
 40
1.0
 40
1.0
 40
1.0
 40
1.0
 10
10.7387424545
 20
7.849996528
 30
0.0
 10
10.7316966768
 20
7.842983071
 30
0.0
 10
10.7181394532
 20
7.8283939515
 30
0.0
 10
10.6995574435
 20
7.8049843919
 30
0.0
 10
10.6828170608
 20
7.7801620586
 30
0.0
 10
10.6680083519
 20
7.7540600194
 30
0.0
 10
10.6552089543
 20
7.7268159462
 30
0.0
 10
10.6444863811
 20
7.6985740837
 30
0.0
 10
10.6358969546
 20
7.6694837368
 30
0.0
 10
10.62948572
 20
7.639698663
 30
0.0
 10
10.6252861738
 20
7.6093761983
 30
0.0
 10
10.6233201241
 20
7.5786764355
 30
0.0
 10
10.6235975783
 20
7.547761377
 30
0.0
 10
10.6261167111
 20
7.5167940811
 30
0.0
 10
10.6308639008
 20
7.4859378087
 30
0.0
 10
10.6378138124
 20
7.4553551725
 30
0.0
 10
10.646929541
 20
7.4252072913
 30
0.0
 10
10.6581628136
 20
7.3956529528
 30
0.0
 10
10.6714542474
 20
7.3668477896
 30
0.0
 10
10.686733664
 20
7.338943471
 30
0.0
 10
10.7039204452
 20
7.3120869056
 30
0.0
 10
10.7229239724
 20
7.2864194838
 30
0.0
 10
10.7436440999
 20
7.2620763426
 30
0.0
 10
10.7659716784
 20
7.2391856617
 30
0.0
 10
10.7897891238
 20
7.217867997
 30
0.0
 10
10.8149710305
 20
7.1982356512
 30
0.0
 10
10.8413848238
 20
7.1803920899
 30
0.0
 10
10.8688914487
 20
7.1644313926
 30
0.0
 10
10.8973460775
 20
7.1504377527
 30
0.0
 10
10.9265989333
 20
7.1384850654
 30
0.0
 10
10.9564958393
 20
7.1286364816
 30
0.0
 10
10.9868798499
 20
7.1209441952
 30
0.0
 10
11.0175888335
 20
7.1154490286
 30
0.0
 10
11.0382266014
 20
7.1132641912
 30
0.0
 10
11.0485425185
 20
7.1125487799
 30
0.0
  0
SPLINE
  5
397
100
AcDbEntity
  8
0
100
AcDbSpline
 62
7
  6
CONTINUOUS
 70
0
 71
3
 72
41
 73
37
 74
0
 42
0.0000001
 43
0.0000001
 44
0.0000000001
 40
0.0
 40
0.0
 40
0.0
 40
0.0
 40
0.0299389653
 40
0.0449187245
 40
0.0599073276
 40
0.0899167439
 40
0.1199949488
 40
0.1350691072
 40
0.1501679499
 40
0.1804428474
 40
0.2108411019
 40
0.2413757562
 40
0.2720567903
 40
0.302890943
 40
0.3338816115
 40
0.365028829
 40
0.3963293137
 40
0.4277765859
 40
0.4593611463
 40
0.4910707086
 40
0.5228904795
 40
0.5548034793
 40
0.5867908957
 40
0.6188324646
 40
0.6509068716
 40
0.6829921682
 40
0.7150661957
 40
0.7471070126
 40
0.7790933194
 40
0.8110048728
 40
0.8428228916
 40
0.8745304217
 40
0.9061127365
 40
0.9375575251
 40
0.9688554979
 40
1.0
 40
1.0
 40
1.0
 40
1.0
 10
10.8930416379
 20
7.7140809798
 30
0.0
 10
10.8891999713
 20
7.7103702399
 30
0.0
 10
10.8836512479
 20
7.7045735046
 30
0.0
 10
10.8767254828
 20
7.6964310797
 30
0.0
 10
10.8701150745
 20
7.6880139035
 30
0.0
 10
10.8624654261
 20
7.6770020748
 30
0.0
 10
10.8556875392
 20
7.6654156711
 30
0.0
 10
10.8508058738
 20
7.6558365965
 30
0.0
 10
10.8462824612
 20
7.6460445974
 30
0.0
 10
10.8413255523
 20
7.6334529045
 30
0.0
 10
10.8365324223
 20
7.6178872569
 30
0.0
 10
10.8329132457
 20
7.6019329774
 30
0.0
 10
10.8304874486
 20
7.5856759171
 30
0.0
 10
10.8292677139
 20
7.5692028067
 30
0.0
 10
10.8292603742
 20
7.5526016716
 30
0.0
 10
10.8304652671
 20
7.535961126
 30
0.0
 10
10.8328757781
 20
7.5193699678
 30
0.0
 10
10.8364788738
 20
7.5029166928
 30
0.0
 10
10.8412551803
 20
7.4866890324
 30
0.0
 10
10.8471790897
 20
7.4707734915
 30
0.0
 10
10.8542188993
 20
7.4552548935
 30
0.0
 10
10.8623369825
 20
7.4402159345
 30
0.0
 10
10.8714899887
 20
7.4257367479
 30
0.0
 10
10.8816290746
 20
7.411894483
 30
0.0
 10
10.8927001624
 20
7.3987628989
 30
0.0
 10
10.9046442259
 20
7.3864119751
 30
0.0
 10
10.9173976025
 20
7.3749075433
 30
0.0
 10
10.9308923292
 20
7.3643109389
 30
0.0
 10
10.9450565007
 20
7.3546786787
 30
0.0
 10
10.9598146501
 20
7.3460621587
 30
0.0
 10
10.9750881373
 20
7.3385073892
 30
0.0
 10
10.9907955999
 20
7.3320547323
 30
0.0
 10
11.0068532384
 20
7.3267387309
 30
0.0
 10
11.0231757866
 20
7.32258782
 30
0.0
 10
11.0396750335
 20
7.3196244135
 30
0.0
 10
11.0507641668
 20
7.3184479829
 30
0.0
 10
11.0563070835
 20
7.3180635803
 30
0.0
  0
SPLINE
  5
398
100
AcDbEntity
  8
0
100
AcDbSpline
 62
7
  6
CONTINUOUS
 70
0
 71
3
 72
37
 73
33
 74
0
 42
0.0000001
 43
0.0000001
 44
0.0000000001
 40
0.0
 40
0.0
 40
0.0
 40
0.0
 40
0.0301394314
 40
0.0603877712
 40
0.0907517382
 40
0.121236374
 40
0.151844986
 40
0.1825791264
 40
0.2134385972
 40
0.2444214715
 40
0.2755241353
 40
0.306741353
 40
0.338066363
 40
0.3694909853
 40
0.4010057381
 40
0.4325999665
 40
0.4642619908
 40
0.4959792698
 40
0.559501928
 40
0.623080906
 40
0.654867842
 40
0.6866261525
 40
0.7183420742
 40
0.7500023774
 40
0.7815945398
 40
0.8131069268
 40
0.8445288966
 40
0.8758509965
 40
0.9070652351
 40
0.9381641738
 40
0.9691446334
 40
1.0
 40
1.0
 40
1.0
 40
1.0
 10
10.9778557681
 20
7.7634418036
 30
0.0
 10
10.9764581263
 20
7.7592901082
 30
0.0
 10
10.973913568
 20
7.7508831382
 30
0.0
 10
10.9708686741
 20
7.738041063
 30
0.0
 10
10.9685990185
 20
7.7249882057
 30
0.0
 10
10.9671126567
 20
7.7117706725
 30
0.0
 10
10.9664146482
 20
7.6984343395
 30
0.0
 10
10.9665073415
 20
7.685025699
 30
0.0
 10
10.9673903392
 20
7.67159142
 30
0.0
 10
10.9690605105
 20
7.6581782652
 30
0.0
 10
10.97151201
 20
7.6448329162
 30
0.0
 10
10.9747362369
 20
7.6316018078
 30
0.0
 10
10.9787219024
 20
7.6185309614
 30
0.0
 10
10.9834550871
 20
7.6056658465
 30
0.0
 10
10.9889193173
 20
7.5930511817
 30
0.0
 10
10.9950954898
 20
7.5807309517
 30
0.0
 10
11.0019623828
 20
7.5687476071
 30
0.0
 10
11.0120097392
 20
7.5532703034
 30
0.0
 10
11.0261696411
 20
7.5349765778
 30
0.0
 10
11.0422617998
 20
7.5183433536
 30
0.0
 10
11.0561667293
 20
7.5061638745
 30
0.0
 10
11.0670748085
 20
7.4976243532
 30
0.0
 10
11.0784227007
 20
7.4897113646
 30
0.0
 10
11.090171283
 20
7.4824520855
 30
0.0
 10
11.1022795976
 20
7.4758718629
 30
0.0
 10
11.1147055652
 20
7.4699935891
 30
0.0
 10
11.1274059653
 20
7.4648377573
 30
0.0
 10
11.1403366675
 20
7.4604223496
 30
0.0
 10
11.1534525803
 20
7.4567628491
 30
0.0
 10
11.1667084059
 20
7.4538718059
 30
0.0
 10
11.1800572165
 20
7.4517596934
 30
0.0
 10
11.1890071151
 20
7.4508737482
 30
0.0
 10
11.1934810642
 20
7.4505634788
 30
0.0
  0
SPLINE
  5
399
100
AcDbEntity
  8
0
100
AcDbSpline
 62
7
  6
CONTINUOUS
 70
0
 71
3
 72
13
 73
9
 74
0
 42
0.0000001
 43
0.0000001
 44
0.0000000001
 40
0.0
 40
0.0
 40
0.0
 40
0.0
 40
0.1236108645
 40
0.2475804167
 40
0.3719364103
 40
0.4967030293
 40
0.7474466579
 40
1.0
 40
1.0
 40
1.0
 40
1.0
 10
11.2795557138
 20
7.4889280926
 30
0.0
 10
11.2763159317
 20
7.4877188434
 30
0.0
 10
11.2697592639
 20
7.4854739932
 30
0.0
 10
11.2597418079
 20
7.4826423322
 30
0.0
 10
11.2495539663
 20
7.4803487605
 30
0.0
 10
11.2357605145
 20
7.478012975
 30
0.0
 10
11.2182231197
 20
7.4764723228
 30
0.0
 10
11.204115794
 20
7.4767209886
 30
0.0
 10
11.1970673631
 20
7.4772097989
 30
0.0
  0
SPLINE
  5
39A
100
AcDbEntity
  8
0
100
AcDbSpline
 62
4
  6
CONTINUOUS
 70
0
 71
3
 72
313
 73
309
 74
0
 42
0.0000001
 43
0.0000001
 44
0.0000000001
 40
0.0
 40
0.0
 40
0.0
 40
0.0
 40
0.015625
 40
0.0234375
 40
0.03125
 40
0.0390625
 40
0.046875
 40
0.05078125
 40
0.0546875
 40
0.056640625
 40
0.05859375
 40
0.060546875
 40
0.0615234375
 40
0.0620117188
 40
0.0625
 40
0.0629882812
 40
0.0634765625
 40
0.064453125
 40
0.06640625
 40
0.068359375
 40
0.0703125
 40
0.07421875
 40
0.078125
 40
0.0859375
 40
0.09375
 40
0.1015625
 40
0.109375
 40
0.11328125
 40
0.1171875
 40
0.119140625
 40
0.12109375
 40
0.123046875
 40
0.1240234375
 40
0.1245117188
 40
0.125
 40
0.1254882812
 40
0.1259765625
 40
0.126953125
 40
0.12890625
 40
0.130859375
 40
0.1328125
 40
0.13671875
 40
0.140625
 40
0.1484375
 40
0.15625
 40
0.1640625
 40
0.171875
 40
0.17578125
 40
0.1796875
 40
0.181640625
 40
0.18359375
 40
0.185546875
 40
0.1865234375
 40
0.1870117188
 40
0.1875
 40
0.1879882812
 40
0.1884765625
 40
0.189453125
 40
0.19140625
 40
0.193359375
 40
0.1953125
 40
0.19921875
 40
0.203125
 40
0.2109375
 40
0.21875
 40
0.2265625
 40
0.234375
 40
0.23828125
 40
0.2421875
 40
0.244140625
 40
0.24609375
 40
0.248046875
 40
0.2490234375
 40
0.2495117188
 40
0.25
 40
0.2504882812
 40
0.2509765625
 40
0.251953125
 40
0.25390625
 40
0.255859375
 40
0.2578125
 40
0.26171875
 40
0.265625
 40
0.2734375
 40
0.28125
 40
0.2890625
 40
0.296875
 40
0.30078125
 40
0.3046875
 40
0.306640625
 40
0.30859375
 40
0.310546875
 40
0.3115234375
 40
0.3120117188
 40
0.3125
 40
0.3129882812
 40
0.3134765625
 40
0.314453125
 40
0.31640625
 40
0.318359375
 40
0.3203125
 40
0.32421875
 40
0.328125
 40
0.3359375
 40
0.34375
 40
0.3515625
 40
0.359375
 40
0.36328125
 40
0.3671875
 40
0.369140625
 40
0.37109375
 40
0.373046875
 40
0.3740234375
 40
0.3745117188
 40
0.375
 40
0.3754882812
 40
0.3759765625
 40
0.376953125
 40
0.37890625
 40
0.380859375
 40
0.3828125
 40
0.38671875
 40
0.390625
 40
0.3984375
 40
0.40625
 40
0.4140625
 40
0.421875
 40
0.42578125
 40
0.4296875
 40
0.431640625
 40
0.43359375
 40
0.435546875
 40
0.4365234375
 40
0.4370117188
 40
0.4375
 40
0.4379882812
 40
0.4384765625
 40
0.439453125
 40
0.44140625
 40
0.443359375
 40
0.4453125
 40
0.44921875
 40
0.453125
 40
0.4609375
 40
0.46875
 40
0.4765625
 40
0.484375
 40
0.48828125
 40
0.4921875
 40
0.494140625
 40
0.49609375
 40
0.498046875
 40
0.4990234375
 40
0.4995117188
 40
0.5
 40
0.5004882812
 40
0.5009765625
 40
0.501953125
 40
0.50390625
 40
0.505859375
 40
0.5078125
 40
0.51171875
 40
0.515625
 40
0.5234375
 40
0.53125
 40
0.5390625
 40
0.546875
 40
0.55078125
 40
0.5546875
 40
0.556640625
 40
0.55859375
 40
0.560546875
 40
0.5615234375
 40
0.5620117188
 40
0.5625
 40
0.5629882812
 40
0.5634765625
 40
0.564453125
 40
0.56640625
 40
0.568359375
 40
0.5703125
 40
0.57421875
 40
0.578125
 40
0.5859375
 40
0.59375
 40
0.6015625
 40
0.609375
 40
0.61328125
 40
0.6171875
 40
0.619140625
 40
0.62109375
 40
0.623046875
 40
0.6240234375
 40
0.6245117188
 40
0.625
 40
0.6254882812
 40
0.6259765625
 40
0.626953125
 40
0.62890625
 40
0.630859375
 40
0.6328125
 40
0.63671875
 40
0.640625
 40
0.6484375
 40
0.65625
 40
0.6640625
 40
0.671875
 40
0.67578125
 40
0.6796875
 40
0.681640625
 40
0.68359375
 40
0.685546875
 40
0.6865234375
 40
0.6870117188
 40
0.6875
 40
0.6879882812
 40
0.6884765625
 40
0.689453125
 40
0.69140625
 40
0.693359375
 40
0.6953125
 40
0.69921875
 40
0.703125
 40
0.7109375
 40
0.71875
 40
0.7265625
 40
0.734375
 40
0.73828125
 40
0.7421875
 40
0.744140625
 40
0.74609375
 40
0.748046875
 40
0.7490234375
 40
0.7495117188
 40
0.75
 40
0.7504882812
 40
0.7509765625
 40
0.751953125
 40
0.75390625
 40
0.755859375
 40
0.7578125
 40
0.76171875
 40
0.765625
 40
0.7734375
 40
0.78125
 40
0.7890625
 40
0.796875
 40
0.80078125
 40
0.8046875
 40
0.806640625
 40
0.80859375
 40
0.810546875
 40
0.8115234375
 40
0.8120117188
 40
0.8125
 40
0.8129882812
 40
0.8134765625
 40
0.814453125
 40
0.81640625
 40
0.818359375
 40
0.8203125
 40
0.82421875
 40
0.828125
 40
0.8359375
 40
0.84375
 40
0.8515625
 40
0.859375
 40
0.86328125
 40
0.8671875
 40
0.869140625
 40
0.87109375
 40
0.873046875
 40
0.8740234375
 40
0.8745117188
 40
0.875
 40
0.8754882812
 40
0.8759765625
 40
0.876953125
 40
0.87890625
 40
0.880859375
 40
0.8828125
 40
0.88671875
 40
0.890625
 40
0.8984375
 40
0.90625
 40
0.9140625
 40
0.921875
 40
0.92578125
 40
0.9296875
 40
0.931640625
 40
0.93359375
 40
0.935546875
 40
0.9365234375
 40
0.9370117188
 40
0.9375
 40
0.9379882812
 40
0.9384765625
 40
0.939453125
 40
0.94140625
 40
0.943359375
 40
0.9453125
 40
0.94921875
 40
0.953125
 40
0.9609375
 40
0.96875
 40
0.9765625
 40
0.984375
 40
1.0
 40
1.0
 40
1.0
 40
1.0
 10
9.5278977799
 20
7.8087290115
 30
0.0
 10
9.5276218413
 20
7.8115623877
 30
0.0
 10
9.5272079335
 20
7.815812452
 30
0.0
 10
9.5266560557
 20
7.8214792044
 30
0.0
 10
9.5262421495
 20
7.825729269
 30
0.0
 10
9.525828235
 20
7.8299793324
 30
0.0
 10
9.5254833323
 20
7.8335210554
 30
0.0
 10
9.5252073517
 20
7.8363544262
 30
0.0
 10
9.5250349969
 20
7.8381253001
 30
0.0
 10
9.5248968082
 20
7.8395419599
 30
0.0
 10
9.5247940012
 20
7.8406045622
 30
0.0
 10
9.5247056742
 20
7.8414897226
 30
0.0
 10
9.5246490547
 20
7.8421100051
 30
0.0
 10
9.5246085667
 20
7.8424634057
 30
0.0
 10
9.5246011141
 20
7.8427314042
 30
0.0
 10
9.5245060751
 20
7.8429881341
 30
0.0
 10
9.5244099075
 20
7.8433343713
 30
0.0
 10
9.52422738
 20
7.8439384551
 30
0.0
 10
9.5239740682
 20
7.8448023894
 30
0.0
 10
9.5236669086
 20
7.8458387006
 30
0.0
 10
9.5232584752
 20
7.8472205922
 30
0.0
 10
9.5227475525
 20
7.8489479075
 30
0.0
 10
9.521930289
 20
7.8517116396
 30
0.0
 10
9.5209086362
 20
7.8551662951
 30
0.0
 10
9.5196826863
 20
7.8593118864
 30
0.0
 10
9.5184567201
 20
7.863457474
 30
0.0
 10
9.5174351081
 20
7.8669121389
 30
0.0
 10
9.516617763
 20
7.869675852
 30
0.0
 10
9.5161070478
 20
7.8714032156
 30
0.0
 10
9.5156981884
 20
7.8727850081
 30
0.0
 10
9.5153923303
 20
7.8738216221
 30
0.0
 10
9.5151349467
 20
7.8746846093
 30
0.0
 10
9.514959688
 20
7.8752903836
 30
0.0
 10
9.5148518739
 20
7.8756339122
 30
0.0
 10
9.5147926091
 20
7.8758989621
 30
0.0
 10
9.5146507945
 20
7.8761357123
 30
0.0
 10
9.5144905027
 20
7.8764612504
 30
0.0
 10
9.5141965762
 20
7.877026343
 30
0.0
 10
9.5137836952
 20
7.8778360227
 30
0.0
 10
9.5132852357
 20
7.878806609
 30
0.0
 10
9.5126216717
 20
7.8801010836
 30
0.0
 10
9.5117918576
 20
7.8817190538
 30
0.0
 10
9.5104643559
 20
7.8843078749
 30
0.0
 10
9.5088049093
 20
7.8875438775
 30
0.0
 10
9.5068136051
 20
7.8914270917
 30
0.0
 10
9.5048222853
 20
7.8953102995
 30
0.0
 10
9.5031628778
 20
7.898546318
 30
0.0
 10
9.501835298
 20
7.9011351073
 30
0.0
 10
9.5010056824
 20
7.9027531584
 30
0.0
 10
9.500341711
 20
7.9040474669
 30
0.0
 10
9.499844496
 20
7.9050185608
 30
0.0
 10
9.4994277213
 20
7.9058266524
 30
0.0
 10
9.4991407457
 20
7.9063945799
 30
0.0
 10
9.4989693168
 20
7.9067155758
 30
0.0
 10
9.4988617117
 20
7.9069662785
 30
0.0
 10
9.4986739618
 20
7.9071789248
 30
0.0
 10
9.4984515841
 20
7.9074757277
 30
0.0
 10
9.4980493981
 20
7.9079889479
 30
0.0
 10
9.4974816563
 20
7.9087253531
 30
0.0
 10
9.4967974513
 20
7.9096076553
 30
0.0
 10
9.4958861962
 20
7.9107845417
 30
0.0
 10
9.4947467786
 20
7.9122554841
 30
0.0
 10
9.4929239055
 20
7.9146090845
 30
0.0
 10
9.4906452468
 20
7.917551053
 30
0.0
 10
9.4879108866
 20
7.9210814305
 30
0.0
 10
9.485176513
 20
7.924611798
 30
0.0
 10
9.4828978876
 20
7.9275537914
 30
0.0
 10
9.4810749479
 20
7.9299073419
 30
0.0
 10
9.4799356996
 20
7.9313784111
 30
0.0
 10
9.479024097
 20
7.9325550373
 30
0.0
 10
9.4783409534
 20
7.9334381345
 30
0.0
 10
9.4777698911
 20
7.9341720523
 30
0.0
 10
9.4773736326
 20
7.934689713
 30
0.0
 10
9.4771417576
 20
7.9349794011
 30
0.0
 10
9.4769831804
 20
7.9352139017
 30
0.0
 10
9.4767660078
 20
7.9353825231
 30
0.0
 10
9.4764968831
 20
7.9356303311
 30
0.0
 10
9.4760163921
 20
7.9360532885
 30
0.0
 10
9.475334955
 20
7.9366631108
 30
0.0
 10
9.4745150995
 20
7.9373925017
 30
0.0
 10
9.4734227032
 20
7.9383658598
 30
0.0
 10
9.4720569529
 20
7.9395822708
 30
0.0
 10
9.4698718949
 20
7.9415286886
 30
0.0
 10
9.4671405232
 20
7.9439616556
 30
0.0
 10
9.4638628994
 20
7.9468812413
 30
0.0
 10
9.4605852653
 20
7.949800814
 30
0.0
 10
9.4578539196
 20
7.9522338137
 30
0.0
 10
9.4556688096
 20
7.9541801659
 30
0.0
 10
9.4543031914
 20
7.9553967436
 30
0.0
 10
9.453210524
 20
7.9563697596
 30
0.0
 10
9.4523914966
 20
7.9571001956
 30
0.0
 10
9.4517074685
 20
7.9577067481
 30
0.0
 10
9.451231603
 20
7.9581355428
 30
0.0
 10
9.4509550671
 20
7.9583739979
 30
0.0
 10
9.4507606593
 20
7.9585713483
 30
0.0
 10
9.4505165815
 20
7.9586979474
 30
0.0
 10
9.45020847
 20
7.9588914251
 30
0.0
 10
9.4496612026
 20
7.9592185127
 30
0.0
 10
9.4488836122
 20
7.9596917921
 30
0.0
 10
9.4479486974
 20
7.9602571544
 30
0.0
 10
9.4467027753
 20
7.9610118694
 30
0.0
 10
9.4451451565
 20
7.9619549555
 30
0.0
 10
9.4426530874
 20
7.9634640652
 30
0.0
 10
9.4395379592
 20
7.9653503929
 30
0.0
 10
9.4357998242
 20
7.9676140136
 30
0.0
 10
9.432061681
 20
7.9698776198
 30
0.0
 10
9.428946573
 20
7.9717639837
 30
0.0
 10
9.4264544635
 20
7.9732730211
 30
0.0
 10
9.4248969473
 20
7.9742162911
 30
0.0
 10
9.4236508148
 20
7.9749706286
 30
0.0
 10
9.4227165424
 20
7.9755371443
 30
0.0
 10
9.4219369422
 20
7.9760068147
 30
0.0
 10
9.4213932628
 20
7.9763403451
 30
0.0
 10
9.4210794023
 20
7.9765234998
 30
0.0
 10
9.4208529834
 20
7.9766818078
 30
0.0
 10
9.420592252
 20
7.9767600648
 30
0.0
 10
9.4202565787
 20
7.9768923303
 30
0.0
 10
9.4196635741
 20
7.9771107851
 30
0.0
 10
9.41881934
 20
7.977429665
 30
0.0
 10
9.4178050112
 20
7.9778094096
 30
0.0
 10
9.4164530087
 20
7.9783167526
 30
0.0
 10
9.4147628563
 20
7.9789505832
 30
0.0
 10
9.4120586959
 20
7.9799649067
 30
0.0
 10
9.4086784666
 20
7.9812327439
 30
0.0
 10
9.4046222044
 20
7.9827541794
 30
0.0
 10
9.4005659365
 20
7.984275599
 30
0.0
 10
9.3971857216
 20
7.985543476
 30
0.0
 10
9.3944815324
 20
7.98655772
 30
0.0
 10
9.3927914533
 20
7.9871917528
 30
0.0
 10
9.3914393002
 20
7.9876986807
 30
0.0
 10
9.3904254315
 20
7.9880796933
 30
0.0
 10
9.389579758
 20
7.988394606
 30
0.0
 10
9.3889893229
 20
7.9886201431
 30
0.0
 10
9.3886495326
 20
7.9887410609
 30
0.0
 10
9.3884014474
 20
7.9888541742
 30
0.0
 10
9.3881275315
 20
7.9888815679
 30
0.0
 10
9.3877713203
 20
7.9889479928
 30
0.0
 10
9.3871437528
 20
7.9890503054
 30
0.0
 10
9.3862494225
 20
7.9892037495
 30
0.0
 10
9.3851752867
 20
7.9893847649
 30
0.0
 10
9.3837434338
 20
7.9896272078
 30
0.0
 10
9.3819535054
 20
7.9899298884
 30
0.0
 10
9.3790896826
 20
7.990414386
 30
0.0
 10
9.3755098827
 20
7.9910199358
 30
0.0
 10
9.3712141318
 20
7.9917466288
 30
0.0
 10
9.3669183792
 20
7.9924733047
 30
0.0
 10
9.3633385836
 20
7.9930788971
 30
0.0
 10
9.3604747523
 20
7.9935633096
 30
0.0
 10
9.3586848456
 20
7.9938662064
 30
0.0
 10
9.3572529481
 20
7.9941082056
 30
0.0
 10
9.3561789485
 20
7.9942905763
 30
0.0
 10
9.3552841921
 20
7.9944397803
 30
0.0
 10
9.3546573854
 20
7.9945496621
 30
0.0
 10
9.3542999552
 20
7.9946039593
 30
0.0
 10
9.3540297835
 20
7.9946686054
 30
0.0
 10
9.3537676357
 20
7.9946418048
 30
0.0
 10
9.3534153065
 20
7.9946379684
 30
0.0
 10
9.3528000343
 20
7.9946163929
 30
0.0
 10
9.3519203924
 20
7.9945933407
 30
0.0
 10
9.3508651138
 20
7.9945623523
 30
0.0
 10
9.3494579738
 20
7.9945221961
 30
0.0
 10
9.3476990837
 20
7.994471603
 30
0.0
 10
9.34488484
 20
7.9943908764
 30
0.0
 10
9.3413670423
 20
7.9942898915
 30
0.0
 10
9.3371456816
 20
7.9941687445
 30
0.0
 10
9.3329243233
 20
7.9940475803
 30
0.0
 10
9.3294065195
 20
7.9939466386
 30
0.0
 10
9.326592288
 20
7.9938658256
 30
0.0
 10
9.3248333669
 20
7.9938154523
 30
0.0
 10
9.3234262904
 20
7.9937748448
 30
0.0
 10
9.3223708179
 20
7.9937452351
 30
0.0
 10
9.321491783
 20
7.9937178694
 30
0.0
 10
9.3208754271
 20
7.9937039942
 30
0.0
 10
9.3205248343
 20
7.99368782
 30
0.0
 10
9.3202573527
 20
7.9936989173
 30
0.0
 10
9.3200072137
 20
7.9936212254
 30
0.0
 10
9.3196676457
 20
7.993548607
 30
0.0
 10
9.3190762203
 20
7.9934070949
 30
0.0
 10
9.3182298533
 20
7.9932124789
 30
0.0
 10
9.3172148436
 20
7.9929757105
 30
0.0
 10
9.315861277
 20
7.9926611473
 30
0.0
 10
9.3141693942
 20
7.992267557
 30
0.0
 10
9.3114623396
 20
7.9916380284
 30
0.0
 10
9.308078536
 20
7.9908510432
 30
0.0
 10
9.3040179646
 20
7.9899066949
 30
0.0
 10
9.2999573981
 20
7.9889623299
 30
0.0
 10
9.2965735821
 20
7.9881753863
 30
0.0
 10
9.2938665521
 20
7.9875457744
 30
0.0
 10
9.2921746067
 20
7.987152396
 30
0.0
 10
9.2908211688
 20
7.9868373978
 30
0.0
 10
9.2898057661
 20
7.9866019581
 30
0.0
 10
9.2889606285
 20
7.9864031851
 30
0.0
 10
9.2883670084
 20
7.986269094
 30
0.0
 10
9.2880309568
 20
7.9861845852
 30
0.0
 10
9.2877700169
 20
7.9861434167
 30
0.0
 10
9.2875431016
 20
7.9860173387
 30
0.0
 10
9.2872286797
 20
7.9858788521
 30
0.0
 10
9.286683971
 20
7.9856227013
 30
0.0
 10
9.2859029248
 20
7.985263986
 30
0.0
 10
9.2849669067
 20
7.9848304396
 30
0.0
 10
9.2837184504
 20
7.9842534563
 30
0.0
 10
9.282158028
 20
7.9835318579
 30
0.0
 10
9.2796612695
 20
7.9823775069
 30
0.0
 10
9.2765403499
 20
7.9809344969
 30
0.0
 10
9.2727952331
 20
7.9792029174
 30
0.0
 10
9.2690501238
 20
7.9774713218
 30
0.0
 10
9.2659291856
 20
7.9760283522
 30
0.0
 10
9.2634324643
 20
7.9748739205
 30
0.0
 10
9.2618719472
 20
7.9741525271
 30
0.0
 10
9.2606236853
 20
7.973575123
 30
0.0
 10
9.2596870733
 20
7.9731428623
 30
0.0
 10
9.2589078852
 20
7.9727801245
 30
0.0
 10
9.2583598595
 20
7.9725311546
 30
0.0
 10
9.2580507523
 20
7.9723811623
 30
0.0
 10
9.2578075119
 20
7.972290426
 30
0.0
 10
9.2576078862
 20
7.9721165202
 30
0.0
 10
9.2573265052
 20
7.9719136563
 30
0.0
 10
9.2568411767
 20
7.971545128
 30
0.0
 10
9.2561441446
 20
7.9710257255
 30
0.0
 10
9.2553092921
 20
7.9703994178
 30
0.0
 10
9.2541956015
 20
7.9695653973
 30
0.0
 10
9.252803678
 20
7.96852251
 30
0.0
 10
9.2505764942
 20
7.9668540926
 30
0.0
 10
9.2477925513
 20
7.964768501
 30
0.0
 10
9.2444518023
 20
7.9622658225
 30
0.0
 10
9.2411110643
 20
7.9597631299
 30
0.0
 10
9.2383270941
 20
7.9576775735
 30
0.0
 10
9.2360999648
 20
7.9560090857
 30
0.0
 10
9.2347079027
 20
7.9549663772
 30
0.0
 10
9.2335944964
 20
7.9541319897
 30
0.0
 10
9.2327587754
 20
7.9535068035
 30
0.0
 10
9.2320644609
 20
7.9529838921
 30
0.0
 10
9.2315742808
 20
7.9526216277
 30
0.0
 10
9.2313006733
 20
7.9524087274
 30
0.0
 10
9.2310771701
 20
7.9522656502
 30
0.0
 10
9.2309236096
 20
7.9520591271
 30
0.0
 10
9.2306944655
 20
7.9518058936
 30
0.0
 10
9.2303048303
 20
7.9513524239
 30
0.0
 10
9.2297422658
 20
7.9507100008
 30
0.0
 10
9.229069732
 20
7.9499367857
 30
0.0
 10
9.2281721319
 20
7.9489066381
 30
0.0
 10
9.227050436
 20
7.9476186777
 30
0.0
 10
9.2252555525
 20
7.9455580952
 30
0.0
 10
9.2230120068
 20
7.942982314
 30
0.0
 10
9.220319725
 20
7.9398914006
 30
0.0
 10
9.2176274571
 20
7.9368004759
 30
0.0
 10
9.2153838768
 20
7.934224723
 30
0.0
 10
9.2135890625
 20
7.9321640838
 30
0.0
 10
9.2124671907
 20
7.9308762677
 30
0.0
 10
9.2115699515
 20
7.929845824
 30
0.0
 10
9.2108963152
 20
7.9290735135
 30
0.0
 10
9.2103372003
 20
7.9284282601
 30
0.0
 10
9.2099414069
 20
7.9279798429
 30
0.0
 10
9.2097221297
 20
7.927718514
 30
0.0
 10
9.2095382615
 20
7.9275368575
 30
0.0
 10
9.2094285892
 20
7.9273003856
 30
0.0
 10
9.2092564791
 20
7.9270042099
 30
0.0
 10
9.2089673447
 20
7.926476994
 30
0.0
 10
9.2085479913
 20
7.9257284859
 30
0.0
 10
9.2080474656
 20
7.9248282827
 30
0.0
 10
9.2073791556
 20
7.923628708
 30
0.0
 10
9.2065440908
 20
7.9221290012
 30
0.0
 10
9.2052078066
 20
7.9197296036
 30
0.0
 10
9.2035375138
 20
7.9167303107
 30
0.0
 10
9.2015331336
 20
7.9131311799
 30
0.0
 10
9.1995287685
 20
7.9095320399
 30
0.0
 10
9.1978584381
 20
7.9065327698
 30
0.0
 10
9.1965222291
 20
7.9041333267
 30
0.0
 10
9.1956869732
 20
7.9026337356
 30
0.0
 10
9.1950190553
 20
7.9014339234
 30
0.0
 10
9.1945173316
 20
7.9005344457
 30
0.0
 10
9.1941017267
 20
7.8997836677
 30
0.0
 10
9.1938059006
 20
7.8992605039
 30
0.0
 10
9.1936445122
 20
7.8989578358
 30
0.0
 10
9.1935019064
 20
7.8987413066
 30
0.0
 10
9.1934417311
 20
7.8984847484
 30
0.0
 10
9.1933327447
 20
7.8981566334
 30
0.0
 10
9.1931554149
 20
7.8975759266
 30
0.0
 10
9.1928950828
 20
7.8967497466
 30
0.0
 10
9.1925856821
 20
7.8957568748
 30
0.0
 10
9.1921721008
 20
7.8944335542
 30
0.0
 10
9.1916554827
 20
7.8927792294
 30
0.0
 10
9.1908286933
 20
7.8901324071
 30
0.0
 10
9.1897952758
 20
7.8868238455
 30
0.0
 10
9.1885551431
 20
7.8828535868
 30
0.0
 10
9.1873150266
 20
7.8788833213
 30
0.0
 10
9.1862815683
 20
7.875574777
 30
0.0
 10
9.1854548605
 20
7.8729279201
 30
0.0
 10
9.1849380351
 20
7.871273683
 30
0.0
 10
9.1845248793
 20
7.8699501824
 30
0.0
 10
9.1842141787
 20
7.8689578608
 30
0.0
 10
9.1839579137
 20
7.8681299594
 30
0.0
 10
9.1837733234
 20
7.8675523256
 30
0.0
 10
9.1836759702
 20
7.8672192868
 30
0.0
 10
9.1835800616
 20
7.8669778529
 30
0.0
 10
9.183571664
 20
7.8667045192
 30
0.0
 10
9.1835299425
 20
7.8663512013
 30
0.0
 10
9.1834711519
 20
7.8657277106
 30
0.0
 10
9.1833797298
 20
7.8648397201
 30
0.0
 10
9.1832732059
 20
7.8637729713
 30
0.0
 10
9.1831300624
 20
7.8623510448
 30
0.0
 10
9.1829515137
 20
7.860573498
 30
0.0
 10
9.182665623
 20
7.8577295006
 30
0.0
 10
9.1823083326
 20
7.8541744772
 30
0.0
 10
9.1818795529
 20
7.8499084605
 30
0.0
 10
9.1814507815
 20
7.8456424408
 30
0.0
 10
9.1808790835
 20
7.8399544156
 30
0.0
 10
9.1804503106
 20
7.8356883965
 30
0.0
 10
9.1801644618
 20
7.8328443838
 30
0.0
  0
SPLINE
  5
39B
100
AcDbEntity
  8
0
100
AcDbSpline
 62
4
  6
CONTINUOUS
 70
0
 71
3
 72
313
 73
309
 74
0
 42
0.0000001
 43
0.0000001
 44
0.0000000001
 40
0.0
 40
0.0
 40
0.0
 40
0.0
 40
0.015625
 40
0.0234375
 40
0.03125
 40
0.0390625
 40
0.046875
 40
0.05078125
 40
0.0546875
 40
0.056640625
 40
0.05859375
 40
0.060546875
 40
0.0615234375
 40
0.0620117188
 40
0.0625
 40
0.0629882812
 40
0.0634765625
 40
0.064453125
 40
0.06640625
 40
0.068359375
 40
0.0703125
 40
0.07421875
 40
0.078125
 40
0.0859375
 40
0.09375
 40
0.1015625
 40
0.109375
 40
0.11328125
 40
0.1171875
 40
0.119140625
 40
0.12109375
 40
0.123046875
 40
0.1240234375
 40
0.1245117188
 40
0.125
 40
0.1254882812
 40
0.1259765625
 40
0.126953125
 40
0.12890625
 40
0.130859375
 40
0.1328125
 40
0.13671875
 40
0.140625
 40
0.1484375
 40
0.15625
 40
0.1640625
 40
0.171875
 40
0.17578125
 40
0.1796875
 40
0.181640625
 40
0.18359375
 40
0.185546875
 40
0.1865234375
 40
0.1870117188
 40
0.1875
 40
0.1879882812
 40
0.1884765625
 40
0.189453125
 40
0.19140625
 40
0.193359375
 40
0.1953125
 40
0.19921875
 40
0.203125
 40
0.2109375
 40
0.21875
 40
0.2265625
 40
0.234375
 40
0.23828125
 40
0.2421875
 40
0.244140625
 40
0.24609375
 40
0.248046875
 40
0.2490234375
 40
0.2495117188
 40
0.25
 40
0.2504882812
 40
0.2509765625
 40
0.251953125
 40
0.25390625
 40
0.255859375
 40
0.2578125
 40
0.26171875
 40
0.265625
 40
0.2734375
 40
0.28125
 40
0.2890625
 40
0.296875
 40
0.30078125
 40
0.3046875
 40
0.306640625
 40
0.30859375
 40
0.310546875
 40
0.3115234375
 40
0.3120117188
 40
0.3125
 40
0.3129882812
 40
0.3134765625
 40
0.314453125
 40
0.31640625
 40
0.318359375
 40
0.3203125
 40
0.32421875
 40
0.328125
 40
0.3359375
 40
0.34375
 40
0.3515625
 40
0.359375
 40
0.36328125
 40
0.3671875
 40
0.369140625
 40
0.37109375
 40
0.373046875
 40
0.3740234375
 40
0.3745117188
 40
0.375
 40
0.3754882812
 40
0.3759765625
 40
0.376953125
 40
0.37890625
 40
0.380859375
 40
0.3828125
 40
0.38671875
 40
0.390625
 40
0.3984375
 40
0.40625
 40
0.4140625
 40
0.421875
 40
0.42578125
 40
0.4296875
 40
0.431640625
 40
0.43359375
 40
0.435546875
 40
0.4365234375
 40
0.4370117188
 40
0.4375
 40
0.4379882812
 40
0.4384765625
 40
0.439453125
 40
0.44140625
 40
0.443359375
 40
0.4453125
 40
0.44921875
 40
0.453125
 40
0.4609375
 40
0.46875
 40
0.4765625
 40
0.484375
 40
0.48828125
 40
0.4921875
 40
0.494140625
 40
0.49609375
 40
0.498046875
 40
0.4990234375
 40
0.4995117188
 40
0.5
 40
0.5004882812
 40
0.5009765625
 40
0.501953125
 40
0.50390625
 40
0.505859375
 40
0.5078125
 40
0.51171875
 40
0.515625
 40
0.5234375
 40
0.53125
 40
0.5390625
 40
0.546875
 40
0.55078125
 40
0.5546875
 40
0.556640625
 40
0.55859375
 40
0.560546875
 40
0.5615234375
 40
0.5620117188
 40
0.5625
 40
0.5629882812
 40
0.5634765625
 40
0.564453125
 40
0.56640625
 40
0.568359375
 40
0.5703125
 40
0.57421875
 40
0.578125
 40
0.5859375
 40
0.59375
 40
0.6015625
 40
0.609375
 40
0.61328125
 40
0.6171875
 40
0.619140625
 40
0.62109375
 40
0.623046875
 40
0.6240234375
 40
0.6245117188
 40
0.625
 40
0.6254882812
 40
0.6259765625
 40
0.626953125
 40
0.62890625
 40
0.630859375
 40
0.6328125
 40
0.63671875
 40
0.640625
 40
0.6484375
 40
0.65625
 40
0.6640625
 40
0.671875
 40
0.67578125
 40
0.6796875
 40
0.681640625
 40
0.68359375
 40
0.685546875
 40
0.6865234375
 40
0.6870117188
 40
0.6875
 40
0.6879882812
 40
0.6884765625
 40
0.689453125
 40
0.69140625
 40
0.693359375
 40
0.6953125
 40
0.69921875
 40
0.703125
 40
0.7109375
 40
0.71875
 40
0.7265625
 40
0.734375
 40
0.73828125
 40
0.7421875
 40
0.744140625
 40
0.74609375
 40
0.748046875
 40
0.7490234375
 40
0.7495117188
 40
0.75
 40
0.7504882812
 40
0.7509765625
 40
0.751953125
 40
0.75390625
 40
0.755859375
 40
0.7578125
 40
0.76171875
 40
0.765625
 40
0.7734375
 40
0.78125
 40
0.7890625
 40
0.796875
 40
0.80078125
 40
0.8046875
 40
0.806640625
 40
0.80859375
 40
0.810546875
 40
0.8115234375
 40
0.8120117188
 40
0.8125
 40
0.8129882812
 40
0.8134765625
 40
0.814453125
 40
0.81640625
 40
0.818359375
 40
0.8203125
 40
0.82421875
 40
0.828125
 40
0.8359375
 40
0.84375
 40
0.8515625
 40
0.859375
 40
0.86328125
 40
0.8671875
 40
0.869140625
 40
0.87109375
 40
0.873046875
 40
0.8740234375
 40
0.8745117188
 40
0.875
 40
0.8754882812
 40
0.8759765625
 40
0.876953125
 40
0.87890625
 40
0.880859375
 40
0.8828125
 40
0.88671875
 40
0.890625
 40
0.8984375
 40
0.90625
 40
0.9140625
 40
0.921875
 40
0.92578125
 40
0.9296875
 40
0.931640625
 40
0.93359375
 40
0.935546875
 40
0.9365234375
 40
0.9370117188
 40
0.9375
 40
0.9379882812
 40
0.9384765625
 40
0.939453125
 40
0.94140625
 40
0.943359375
 40
0.9453125
 40
0.94921875
 40
0.953125
 40
0.9609375
 40
0.96875
 40
0.9765625
 40
0.984375
 40
1.0
 40
1.0
 40
1.0
 40
1.0
 10
9.1801644618
 20
7.832844399
 30
0.0
 10
9.1804404004
 20
7.8300110228
 30
0.0
 10
9.1808543082
 20
7.8257609584
 30
0.0
 10
9.181406186
 20
7.820094206
 30
0.0
 10
9.1818200922
 20
7.8158441415
 30
0.0
 10
9.1822340067
 20
7.811594078
 30
0.0
 10
9.1825789094
 20
7.8080523551
 30
0.0
 10
9.18285489
 20
7.8052189843
 30
0.0
 10
9.1830272448
 20
7.8034481104
 30
0.0
 10
9.1831654334
 20
7.8020314505
 30
0.0
 10
9.1832682405
 20
7.8009688482
 30
0.0
 10
9.1833565674
 20
7.8000836878
 30
0.0
 10
9.183413187
 20
7.7994634054
 30
0.0
 10
9.183453675
 20
7.7991100047
 30
0.0
 10
9.1834611276
 20
7.7988420063
 30
0.0
 10
9.1835561666
 20
7.7985852763
 30
0.0
 10
9.1836523342
 20
7.7982390391
 30
0.0
 10
9.1838348617
 20
7.7976349553
 30
0.0
 10
9.1840881735
 20
7.7967710211
 30
0.0
 10
9.184395333
 20
7.7957347098
 30
0.0
 10
9.1848037665
 20
7.7943528183
 30
0.0
 10
9.1853146892
 20
7.7926255029
 30
0.0
 10
9.1861319527
 20
7.7898617709
 30
0.0
 10
9.1871536055
 20
7.7864071154
 30
0.0
 10
9.1883795554
 20
7.782261524
 30
0.0
 10
9.1896055216
 20
7.7781159365
 30
0.0
 10
9.1906271336
 20
7.7746612715
 30
0.0
 10
9.1914444787
 20
7.7718975585
 30
0.0
 10
9.1919551939
 20
7.7701701948
 30
0.0
 10
9.1923640533
 20
7.7687884023
 30
0.0
 10
9.1926699114
 20
7.7677517884
 30
0.0
 10
9.192927295
 20
7.7668888011
 30
0.0
 10
9.1931025537
 20
7.7662830269
 30
0.0
 10
9.1932103678
 20
7.7659394982
 30
0.0
 10
9.1932696326
 20
7.7656744483
 30
0.0
 10
9.1934114471
 20
7.7654376982
 30
0.0
 10
9.193571739
 20
7.76511216
 30
0.0
 10
9.1938656655
 20
7.7645470674
 30
0.0
 10
9.1942785465
 20
7.7637373878
 30
0.0
 10
9.194777006
 20
7.7627668014
 30
0.0
 10
9.19544057
 20
7.7614723268
 30
0.0
 10
9.1962703841
 20
7.7598543566
 30
0.0
 10
9.1975978858
 20
7.7572655355
 30
0.0
 10
9.1992573324
 20
7.754029533
 30
0.0
 10
9.2012486366
 20
7.7501463188
 30
0.0
 10
9.2032399564
 20
7.7462631109
 30
0.0
 10
9.2048993639
 20
7.7430270924
 30
0.0
 10
9.2062269437
 20
7.7404383032
 30
0.0
 10
9.2070565593
 20
7.738820252
 30
0.0
 10
9.2077205307
 20
7.7375259436
 30
0.0
 10
9.2082177457
 20
7.7365548496
 30
0.0
 10
9.2086345204
 20
7.7357467581
 30
0.0
 10
9.208921496
 20
7.7351788305
 30
0.0
 10
9.2090929249
 20
7.7348578347
 30
0.0
 10
9.20920053
 20
7.7346071319
 30
0.0
 10
9.2093882799
 20
7.7343944857
 30
0.0
 10
9.2096106576
 20
7.7340976828
 30
0.0
 10
9.2100128436
 20
7.7335844626
 30
0.0
 10
9.2105805854
 20
7.7328480574
 30
0.0
 10
9.2112647903
 20
7.7319657551
 30
0.0
 10
9.2121760455
 20
7.7307888688
 30
0.0
 10
9.213315463
 20
7.7293179264
 30
0.0
 10
9.2151383362
 20
7.7269643259
 30
0.0
 10
9.2174169949
 20
7.7240223575
 30
0.0
 10
9.2201513551
 20
7.72049198
 30
0.0
 10
9.2228857287
 20
7.7169616125
 30
0.0
 10
9.225164354
 20
7.7140196191
 30
0.0
 10
9.2269872938
 20
7.7116660685
 30
0.0
 10
9.2281265421
 20
7.7101949993
 30
0.0
 10
9.2290381447
 20
7.7090183732
 30
0.0
 10
9.2297212883
 20
7.7081352759
 30
0.0
 10
9.2302923505
 20
7.7074013582
 30
0.0
 10
9.2306886091
 20
7.7068836975
 30
0.0
 10
9.2309204841
 20
7.7065940094
 30
0.0
 10
9.2310790613
 20
7.7063595088
 30
0.0
 10
9.2312962339
 20
7.7061908873
 30
0.0
 10
9.2315653586
 20
7.7059430794
 30
0.0
 10
9.2320458496
 20
7.705520122
 30
0.0
 10
9.2327272866
 20
7.7049102996
 30
0.0
 10
9.2335471422
 20
7.7041809087
 30
0.0
 10
9.2346395385
 20
7.7032075507
 30
0.0
 10
9.2360052888
 20
7.7019911397
 30
0.0
 10
9.2381903468
 20
7.7000447218
 30
0.0
 10
9.2409217185
 20
7.6976117549
 30
0.0
 10
9.2441993422
 20
7.6946921691
 30
0.0
 10
9.2474769764
 20
7.6917725965
 30
0.0
 10
9.2502083221
 20
7.6893395968
 30
0.0
 10
9.2523934321
 20
7.6873932445
 30
0.0
 10
9.2537590503
 20
7.6861766668
 30
0.0
 10
9.2548517177
 20
7.6852036508
 30
0.0
 10
9.2556707451
 20
7.6844732148
 30
0.0
 10
9.2563547732
 20
7.6838666624
 30
0.0
 10
9.2568306387
 20
7.6834378677
 30
0.0
 10
9.2571071746
 20
7.6831994126
 30
0.0
 10
9.2573015824
 20
7.6830020621
 30
0.0
 10
9.2575456601
 20
7.682875463
 30
0.0
 10
9.2578537717
 20
7.6826819853
 30
0.0
 10
9.2584010391
 20
7.6823548978
 30
0.0
 10
9.2591786294
 20
7.6818816183
 30
0.0
 10
9.2601135443
 20
7.6813162561
 30
0.0
 10
9.2613594664
 20
7.680561541
 30
0.0
 10
9.2629170851
 20
7.679618455
 30
0.0
 10
9.2654091543
 20
7.6781093452
 30
0.0
 10
9.2685242825
 20
7.6762230175
 30
0.0
 10
9.2722624175
 20
7.6739593968
 30
0.0
 10
9.2760005607
 20
7.6716957906
 30
0.0
 10
9.2791156686
 20
7.6698094267
 30
0.0
 10
9.2816077781
 20
7.6683003894
 30
0.0
 10
9.2831652944
 20
7.6673571193
 30
0.0
 10
9.2844114268
 20
7.6666027819
 30
0.0
 10
9.2853456993
 20
7.6660362661
 30
0.0
 10
9.2861252995
 20
7.6655665958
 30
0.0
 10
9.2866689789
 20
7.6652330654
 30
0.0
 10
9.2869828394
 20
7.6650499107
 30
0.0
 10
9.2872092583
 20
7.6648916027
 30
0.0
 10
9.2874699897
 20
7.6648133456
 30
0.0
 10
9.287805663
 20
7.6646810802
 30
0.0
 10
9.2883986676
 20
7.6644626254
 30
0.0
 10
9.2892429017
 20
7.6641437454
 30
0.0
 10
9.2902572305
 20
7.6637640008
 30
0.0
 10
9.291609233
 20
7.6632566578
 30
0.0
 10
9.2932993854
 20
7.6626228273
 30
0.0
 10
9.2960035458
 20
7.6616085037
 30
0.0
 10
9.2993837751
 20
7.6603406665
 30
0.0
 10
9.3034400373
 20
7.658819231
 30
0.0
 10
9.3074963052
 20
7.6572978114
 30
0.0
 10
9.3108765201
 20
7.6560299344
 30
0.0
 10
9.3135807093
 20
7.6550156904
 30
0.0
 10
9.3152707884
 20
7.6543816577
 30
0.0
 10
9.3166229415
 20
7.6538747297
 30
0.0
 10
9.3176368102
 20
7.6534937171
 30
0.0
 10
9.3184824837
 20
7.6531788045
 30
0.0
 10
9.3190729188
 20
7.6529532674
 30
0.0
 10
9.3194127091
 20
7.6528323496
 30
0.0
 10
9.3196607943
 20
7.6527192362
 30
0.0
 10
9.3199347102
 20
7.6526918425
 30
0.0
 10
9.3202909214
 20
7.6526254177
 30
0.0
 10
9.3209184889
 20
7.6525231051
 30
0.0
 10
9.3218128192
 20
7.652369661
 30
0.0
 10
9.322886955
 20
7.6521886455
 30
0.0
 10
9.3243188078
 20
7.6519462027
 30
0.0
 10
9.3261087363
 20
7.651643522
 30
0.0
 10
9.328972559
 20
7.6511590245
 30
0.0
 10
9.332552359
 20
7.6505534746
 30
0.0
 10
9.3368481099
 20
7.6498267817
 30
0.0
 10
9.3411438625
 20
7.6491001058
 30
0.0
 10
9.3447236581
 20
7.6484945134
 30
0.0
 10
9.3475874894
 20
7.6480101009
 30
0.0
 10
9.3493773961
 20
7.6477072041
 30
0.0
 10
9.3508092936
 20
7.6474652048
 30
0.0
 10
9.3518832931
 20
7.6472828342
 30
0.0
 10
9.3527780496
 20
7.6471336301
 30
0.0
 10
9.3534048563
 20
7.6470237484
 30
0.0
 10
9.3537622864
 20
7.6469694512
 30
0.0
 10
9.3540324582
 20
7.6469048051
 30
0.0
 10
9.354294606
 20
7.6469316056
 30
0.0
 10
9.3546469352
 20
7.6469354421
 30
0.0
 10
9.3552622074
 20
7.6469570175
 30
0.0
 10
9.3561418493
 20
7.6469800697
 30
0.0
 10
9.3571971279
 20
7.6470110581
 30
0.0
 10
9.3586042679
 20
7.6470512144
 30
0.0
 10
9.360363158
 20
7.6471018075
 30
0.0
 10
9.3631774016
 20
7.647182534
 30
0.0
 10
9.3666951994
 20
7.647283519
 30
0.0
 10
9.3709165601
 20
7.6474046659
 30
0.0
 10
9.3751379183
 20
7.6475258301
 30
0.0
 10
9.3786557222
 20
7.6476267718
 30
0.0
 10
9.3814699537
 20
7.6477075849
 30
0.0
 10
9.3832288748
 20
7.6477579581
 30
0.0
 10
9.3846359512
 20
7.6477985656
 30
0.0
 10
9.3856914238
 20
7.6478281754
 30
0.0
 10
9.3865704587
 20
7.6478555411
 30
0.0
 10
9.3871868146
 20
7.6478694162
 30
0.0
 10
9.3875374074
 20
7.6478855905
 30
0.0
 10
9.387804889
 20
7.6478744932
 30
0.0
 10
9.388055028
 20
7.647952185
 30
0.0
 10
9.3883945959
 20
7.6480248034
 30
0.0
 10
9.3889860214
 20
7.6481663155
 30
0.0
 10
9.3898323884
 20
7.6483609316
 30
0.0
 10
9.3908473981
 20
7.6485976999
 30
0.0
 10
9.3922009647
 20
7.6489122632
 30
0.0
 10
9.3938928474
 20
7.6493058535
 30
0.0
 10
9.3965999021
 20
7.649935382
 30
0.0
 10
9.3999837057
 20
7.6507223673
 30
0.0
 10
9.4040442771
 20
7.6516667156
 30
0.0
 10
9.4081048436
 20
7.6526110806
 30
0.0
 10
9.4114886596
 20
7.6533980241
 30
0.0
 10
9.4141956895
 20
7.654027636
 30
0.0
 10
9.415887635
 20
7.6544210144
 30
0.0
 10
9.4172410729
 20
7.6547360126
 30
0.0
 10
9.4182564756
 20
7.6549714523
 30
0.0
 10
9.4191016132
 20
7.6551702254
 30
0.0
 10
9.4196952333
 20
7.6553043164
 30
0.0
 10
9.4200312849
 20
7.6553888252
 30
0.0
 10
9.4202922248
 20
7.6554299938
 30
0.0
 10
9.4205191401
 20
7.6555560717
 30
0.0
 10
9.420833562
 20
7.6556945583
 30
0.0
 10
9.4213782707
 20
7.6559507091
 30
0.0
 10
9.4221593169
 20
7.6563094245
 30
0.0
 10
9.423095335
 20
7.6567429708
 30
0.0
 10
9.4243437913
 20
7.6573199541
 30
0.0
 10
9.4259042137
 20
7.6580415525
 30
0.0
 10
9.4284009722
 20
7.6591959035
 30
0.0
 10
9.4315218918
 20
7.6606389135
 30
0.0
 10
9.4352670086
 20
7.662370493
 30
0.0
 10
9.4390121179
 20
7.6641020886
 30
0.0
 10
9.4421330561
 20
7.6655450583
 30
0.0
 10
9.4446297774
 20
7.6666994899
 30
0.0
 10
9.4461902945
 20
7.6674208833
 30
0.0
 10
9.4474385564
 20
7.6679982874
 30
0.0
 10
9.4483751683
 20
7.6684305481
 30
0.0
 10
9.4491543565
 20
7.668793286
 30
0.0
 10
9.4497023822
 20
7.6690422559
 30
0.0
 10
9.4500114894
 20
7.6691922481
 30
0.0
 10
9.4502547297
 20
7.6692829845
 30
0.0
 10
9.4504543555
 20
7.6694568902
 30
0.0
 10
9.4507357364
 20
7.6696597541
 30
0.0
 10
9.4512210649
 20
7.6700282825
 30
0.0
 10
9.4519180971
 20
7.6705476849
 30
0.0
 10
9.4527529496
 20
7.6711739926
 30
0.0
 10
9.4538666402
 20
7.6720080131
 30
0.0
 10
9.4552585637
 20
7.6730509004
 30
0.0
 10
9.4574857475
 20
7.6747193179
 30
0.0
 10
9.4602696904
 20
7.6768049095
 30
0.0
 10
9.4636104394
 20
7.679307588
 30
0.0
 10
9.4669511774
 20
7.6818102805
 30
0.0
 10
9.4697351476
 20
7.6838958369
 30
0.0
 10
9.4719622769
 20
7.6855643248
 30
0.0
 10
9.4733543389
 20
7.6866070332
 30
0.0
 10
9.4744677452
 20
7.6874414208
 30
0.0
 10
9.4753034663
 20
7.688066607
 30
0.0
 10
9.4759977808
 20
7.6885895183
 30
0.0
 10
9.4764879608
 20
7.6889517827
 30
0.0
 10
9.4767615683
 20
7.689164683
 30
0.0
 10
9.4769850716
 20
7.6893077603
 30
0.0
 10
9.477138632
 20
7.6895142834
 30
0.0
 10
9.4773677761
 20
7.6897675169
 30
0.0
 10
9.4777574114
 20
7.6902209865
 30
0.0
 10
9.4783199759
 20
7.6908634097
 30
0.0
 10
9.4789925096
 20
7.6916366248
 30
0.0
 10
9.4798901097
 20
7.6926667724
 30
0.0
 10
9.4810118057
 20
7.6939547328
 30
0.0
 10
9.4828066892
 20
7.6960153152
 30
0.0
 10
9.4850502349
 20
7.6985910965
 30
0.0
 10
9.4877425167
 20
7.7016820098
 30
0.0
 10
9.4904347846
 20
7.7047729346
 30
0.0
 10
9.4926783648
 20
7.7073486874
 30
0.0
 10
9.4944731792
 20
7.7094093266
 30
0.0
 10
9.495595051
 20
7.7106971428
 30
0.0
 10
9.4964922902
 20
7.7117275864
 30
0.0
 10
9.4971659265
 20
7.712499897
 30
0.0
 10
9.4977250414
 20
7.7131451504
 30
0.0
 10
9.4981208347
 20
7.7135935675
 30
0.0
 10
9.498340112
 20
7.7138548964
 30
0.0
 10
9.4985239802
 20
7.714036553
 30
0.0
 10
9.4986336525
 20
7.7142730249
 30
0.0
 10
9.4988057625
 20
7.7145692006
 30
0.0
 10
9.499094897
 20
7.7150964164
 30
0.0
 10
9.4995142504
 20
7.7158449245
 30
0.0
 10
9.500014776
 20
7.7167451278
 30
0.0
 10
9.5006830861
 20
7.7179447025
 30
0.0
 10
9.5015181509
 20
7.7194444092
 30
0.0
 10
9.5028544351
 20
7.7218438068
 30
0.0
 10
9.5045247279
 20
7.7248430997
 30
0.0
 10
9.5065291081
 20
7.7284422306
 30
0.0
 10
9.5085334731
 20
7.7320413705
 30
0.0
 10
9.5102038036
 20
7.7350406407
 30
0.0
 10
9.5115400126
 20
7.7374400838
 30
0.0
 10
9.5123752685
 20
7.7389396749
 30
0.0
 10
9.5130431864
 20
7.740139487
 30
0.0
 10
9.5135449101
 20
7.7410389648
 30
0.0
 10
9.513960515
 20
7.7417897427
 30
0.0
 10
9.5142563411
 20
7.7423129065
 30
0.0
 10
9.5144177295
 20
7.7426155747
 30
0.0
 10
9.5145603353
 20
7.7428321038
 30
0.0
 10
9.5146205106
 20
7.743088662
 30
0.0
 10
9.514729497
 20
7.7434167771
 30
0.0
 10
9.5149068268
 20
7.7439974839
 30
0.0
 10
9.5151671589
 20
7.7448236639
 30
0.0
 10
9.5154765596
 20
7.7458165356
 30
0.0
 10
9.5158901409
 20
7.7471398562
 30
0.0
 10
9.516406759
 20
7.748794181
 30
0.0
 10
9.5172335484
 20
7.7514410034
 30
0.0
 10
9.5182669658
 20
7.7547495649
 30
0.0
 10
9.5195070986
 20
7.7587198236
 30
0.0
 10
9.5207472151
 20
7.7626900892
 30
0.0
 10
9.5217806733
 20
7.7659986335
 30
0.0
 10
9.5226073812
 20
7.7686454904
 30
0.0
 10
9.5231242066
 20
7.7702997274
 30
0.0
 10
9.5235373624
 20
7.7716232281
 30
0.0
 10
9.523848063
 20
7.7726155497
 30
0.0
 10
9.5241043279
 20
7.7734434511
 30
0.0
 10
9.5242889183
 20
7.7740210848
 30
0.0
 10
9.5243862715
 20
7.7743541237
 30
0.0
 10
9.5244821801
 20
7.7745955576
 30
0.0
 10
9.5244905776
 20
7.7748688913
 30
0.0
 10
9.5245322992
 20
7.7752222092
 30
0.0
 10
9.5245910898
 20
7.7758456998
 30
0.0
 10
9.5246825119
 20
7.7767336904
 30
0.0
 10
9.5247890358
 20
7.7778004391
 30
0.0
 10
9.5249321793
 20
7.7792223656
 30
0.0
 10
9.525110728
 20
7.7809999125
 30
0.0
 10
9.5253966187
 20
7.7838439099
 30
0.0
 10
9.5257539091
 20
7.7873989333
 30
0.0
 10
9.5261826888
 20
7.7916649499
 30
0.0
 10
9.5266114602
 20
7.7959309696
 30
0.0
 10
9.5271831582
 20
7.8016189948
 30
0.0
 10
9.5276119311
 20
7.805885014
 30
0.0
 10
9.5278977799
 20
7.8087290267
 30
0.0
  0
ENDSEC
  0
SECTION
  2
OBJECTS
  0
DICTIONARY
  5
C
100
AcDbDictionary
280
0
281
1
  3
ACAD_GROUP
350
D
  3
ACAD_MLINESTYLE
350
17
  3
ACAD_LAYOUT
350
1A
  3
ACAD_PLOTSETTINGS
350
19
  3
ACAD_PLOTSTYLENAME
350
E
  3
ACAD_IMAGE_DICT
350
       39D
  3
ACAD_IMAGE_VARS
350
       39E
  3
ACAD_TABLESTYLE
350
       39F
  0
IMAGEDEF_REACTOR
  5
39C
100
AcDbRasterImageDefReactor
 90
2
330
28A
  0
DICTIONARY
  5
D
102
{ACAD_REACTORS
330
C
102
}
100
AcDbDictionary
280
0
281
1
  0
ACDBDICTIONARYWDFLT
  5
E
102
{ACAD_REACTORS
330
C
102
}
100
AcDbDictionary
281
1
  3
Normal
350
F
100
AcDbDictionaryWithDefault
340
F
  0
DICTIONARY
  5
39D
330
C
100
AcDbDictionary
281
1
  3
H6Y_assy_2_img_1
350
       3A2
  0
RASTERVARIABLES
  5
39E
330
C
100
AcDbRasterVariables
 90
0
 70
0
 71
1
 72
5
  0
DICTIONARY
  5
17
102
{ACAD_REACTORS
330
C
102
}
100
AcDbDictionary
280
0
281
1
  3
Standard
350
18
  0
DICTIONARY
  5
39F
330
C
100
AcDbDictionary
281
1
  3
Standard
350
       3A3
  3
Standard1
350
       3A4
  0
DICTIONARY
  5
19
102
{ACAD_REACTORS
330
C
102
}
100
AcDbDictionary
281
1
  0
DICTIONARY
  5
1A
102
{ACAD_REACTORS
330
C
102
}
100
AcDbDictionary
281
1
  3
Model
350
3A0
  3
Layout1
350
3A1
  0
ACDBPLACEHOLDER
  5
F
102
{ACAD_REACTORS
330
E
102
}
  0
MLINESTYLE
  5
18
102
{ACAD_REACTORS
330
17
102
}
100
AcDbMlineStyle
  2
STANDARD
 70
0
  3

 62
256
 51
90.0
 52
90.0
 71
2
 49
0.5
 62
256
  6
BYLAYER
 49
-0.5
 62
256
  6
BYLAYER
  0
LAYOUT
  5
3A0
102
{ACAD_REACTORS
330
1A
102
}
100
AcDbPlotSettings
  1

  2
none_device
  4
ANSI_C_(22.00_x_17.00_Inches)
  6

 40
0.0
 41
0.0
 42
0.0
 43
0.0
 44
558.8
 45
431.8
 46
0.0
 47
0.0
 48
0.0
 49
0.0
140
0.0
141
0.0
142
1.0
143
1.0
 70
1024
 72
0
 73
0
 74
0
  7

 75
0
147
1.0
148
0.0
149
0.0
100
AcDbLayout
  1
Model
 70
0
 71
0
 10
0.0
 20
0.0
 11
22.0
 21
17.0
 12
0.0
 22
0.0
 32
0.0
 14
0.0
 24
0.0
 34
0.0
 15
0.0
 25
0.0
 35
0.0
146
0.0
 13
0.0
 23
0.0
 33
0.0
 16
1.0
 26
0.0
 36
0.0
 17
0.0
 27
1.0
 37
0.0
 76
0
330
204
345
0
346
0
  0
LAYOUT
  5
3A1
102
{ACAD_REACTORS
330
1A
102
}
100
AcDbPlotSettings
  1

  2
none_device
  4
ANSI_C_(22.00_x_17.00_Inches)
  6

 40
0.0
 41
0.0
 42
0.0
 43
0.0
 44
558.8
 45
431.8
 46
0.0
 47
0.0
 48
0.0
 49
0.0
140
0.0
141
0.0
142
1.0
143
1.0
 70
0
 72
0
 73
0
 74
0
  7

 75
0
147
1.0
148
0.0
149
0.0
100
AcDbLayout
  1
Layout1
 70
0
 71
1
 10
0.0
 20
0.0
 11
22.0
 21
17.0
 12
0.0
 22
0.0
 32
0.0
 14
0.0
 24
0.0
 34
0.0
 15
0.0
 25
0.0
 35
0.0
146
0.0
 13
0.0
 23
0.0
 33
0.0
 16
1.0
 26
0.0
 36
0.0
 17
0.0
 27
1.0
 37
0.0
 76
0
330
205
345
0
346
0
  0
IMAGEDEF
  5
3A2
102
{ACAD_REACTORS
330
39D
330
39C
102
}
100
AcDbRasterImageDef
 90
0
  1
H6Y_assy_2_img_1.png
 10
369.0
 20
92.0
 11
0.0066666667
 21
0.0066666667
280
1
281
0
  0
TABLESTYLE
  5
3A3
102
{ACAD_REACTORS
330
39F
330
28D
330
28E
102
}
330
39F
100
AcDbTableStyle
  3
Standard
 70
0
 71
0
 40
0.06
 41
0.06
280
1
281
1
  7
Standard
140
0.18
170
1
 62
0
 63
7
283
0
  7
Standard
140
0.18
170
1
 62
0
 63
7
283
0
  7
Standard
140
0.18
170
1
 62
0
 63
7
283
0
  0
TABLESTYLE
  5
3A4
102
{ACAD_REACTORS
330
39F
330
28C
102
}
330
39F
100
AcDbTableStyle
  3
Standard1
 70
1
 71
0
 40
0.06
 41
0.06
280
1
281
1
  7
Standard
140
0.18
170
1
 62
0
 63
7
283
0
  7
Standard
140
0.18
170
1
 62
0
 63
7
283
0
  7
Standard
140
0.18
170
1
 62
0
 63
7
283
0
  0
ENDSEC
  0
EOF
