999
DXF file: H6X_assy_2.dxf
999
Pro/ENGINEER 2014200 by Parametric Technology Corporation
  0
SECTION
  2
HEADER
  9
$ACADVER
  1
AC1021
  9
$DWGCODEPAGE
  3
ANSI_1252
  9
$EXTMAX
 10
22.0
 20
17.0
 30
0.0
  9
$EXTMIN
 10
0.0
 20
0.0
 30
0.0
  9
$LIMMIN
 10
0.0
 20
0.0
  9
$LIMMAX
 10
22.0
 20
17.0
  9
$VIEWCTR
 10
11.0
 20
8.5
  9
$VIEWSIZE
 40
17.0
  9
$CLAYER
  8
0
  9
$LTSCALE
 40
1.21
  9
$CELTYPE
  6
BYLAYER
  9
$DIMSCALE
 40
1.0
  9
$DIMASZ
 40
0.1875
  9
$DIMEXO
 40
0.0625
  9
$DIMDLI
 40
0.836
  9
$DIMEXE
 40
0.125
  9
$DIMCEN
 40
0.198
  9
$DIMLFAC
 40
1.0
  9
$DIMBLK
  1
_FILLED
  9
$DIMTXT
 40
0.1
  9
$DIMTOL
 70
0
  9
$DIMLIM
 70
0
  9
$DIMTFAC
 40
1.0
  9
$DIMGAP
 40
0.09
  9
$DIMDSEP
 70
46
  9
$AUNITS
 70
0
  9
$PDMODE
 70
3
  9
$PDSIZE
 40
0.3125
  9
$HANDSEED
  5
3BC
  9
$TILEMODE
 70
1
  9
$MEASUREMENT
 70
0
  9
$INSUNITS
 70
1
  0
ENDSEC
  0
SECTION
  2
CLASSES
  0
CLASS
  1
ACDBDICTIONARYWDFLT
  2
AcDbDictionaryWithDefault
  3
AutoCAD 2000
 90
0
 91
1
280
0
281
0
  0
CLASS
  1
ACDBPLACEHOLDER
  2
AcDbPlaceHolder
  3
AutoCAD 2000
 90
0
 91
1
280
0
281
0
  0
CLASS
  1
LAYOUT
  2
AcDbLayout
  3
AutoCAD 2000
 90
0
 91
0
280
0
281
0
  0
CLASS
  1
RASTERVARIABLES
  2
AcDbRasterVariables
  3
ISM
 90
0
 91
1
280
0
281
0
  0
CLASS
  1
IMAGEDEF
  2
AcDbRasterImageDef
  3
ISM
 90
0
 91
1
280
0
281
0
  0
CLASS
  1
IMAGEDEF_REACTOR
  2
AcDbRasterImageDefReactor
  3
ISM
 90
0
 91
1
280
0
281
0
  0
CLASS
  1
IMAGE
  2
AcDbRasterImage
  3
ISM
 90
127
 91
1
280
0
281
1
  0
CLASS
  1
TABLESTYLE
  2
AcDbTableStyle
  3
ObjectDBX Classes
 90
2047
 91
1
280
0
281
0
  0
CLASS
  1
ACAD_TABLE
  2
AcDbTable
  3
ObjectDBX Classes
 90
1025
 91
3
280
0
281
1
  0
ENDSEC
  0
SECTION
  2
TABLES
  0
TABLE
  2
VPORT
  5
8
100
AcDbSymbolTable
 70
2
  0
VPORT
  5
1F4
100
AcDbSymbolTableRecord
100
AcDbViewportTableRecord
  2
*ACTIVE
 70
0
 10
0.0
 20
0.0
 11
1.0
 21
1.0
 12
11.0
 22
8.5
 13
0.0
 23
0.0
 14
1.0
 24
1.0
 15
0.0
 25
0.0
 16
0.0
 26
0.0
 36
1.0
 17
0.0
 27
0.0
 37
0.0
 40
17.0
 41
1.2941176471
 42
50.0
 43
0.0
 44
0.0
 50
0.0
 51
0.0
 71
0
 72
100
 73
1
 74
1
 75
0
 76
0
 77
0
 78
0
  0
ENDTAB
  0
TABLE
  2
LTYPE
  5
5
100
AcDbSymbolTable
 70
6
  0
LTYPE
  5
14
100
AcDbSymbolTableRecord
100
AcDbLinetypeTableRecord
  2
BYBLOCK
 70
0
  3

 72
65
 73
0
 40
0.0
  0
LTYPE
  5
15
100
AcDbSymbolTableRecord
100
AcDbLinetypeTableRecord
  2
BYLAYER
 70
0
  3

 72
65
 73
0
 40
0.0
  0
LTYPE
  5
16
100
AcDbSymbolTableRecord
100
AcDbLinetypeTableRecord
  2
CONTINUOUS
 70
64
  3
Solid line
 72
65
 73
0
 40
0.0
  0
LTYPE
  5
1F5
100
AcDbSymbolTableRecord
100
AcDbLinetypeTableRecord
  2
CENTER
 70
64
  3
____ _ ____ _ ____ _ ____ _ ____ _ ____ _ ____
 72
65
 73
4
 40
0.6
 49
0.375
 74
0
 49
-0.075
 74
0
 49
0.075
 74
0
 49
-0.075
 74
0
  0
LTYPE
  5
1F6
100
AcDbSymbolTableRecord
100
AcDbLinetypeTableRecord
  2
HIDDEN
 70
64
  3
- - - - - - - - - - - - - - - - - - - -
 72
65
 73
2
 40
0.2
 49
0.1
 74
0
 49
-0.1
 74
0
  0
LTYPE
  5
1F7
100
AcDbSymbolTableRecord
100
AcDbLinetypeTableRecord
  2
PHANTOM
 70
64
  3
_____ _ _ _____ _ _ _____ _ _ _____
 72
65
 73
6
 40
0.8
 49
0.45
 74
0
 49
-0.05
 74
0
 49
0.1
 74
0
 49
-0.05
 74
0
 49
0.1
 74
0
 49
-0.05
 74
0
  0
LTYPE
  5
1F8
100
AcDbSymbolTableRecord
100
AcDbLinetypeTableRecord
  2
DOT
 70
64
  3
. . . . . . . . . . . . . . . . . . . .
 72
65
 73
2
 40
0.2
 49
0.1
 74
0
 49
-0.1
 74
0
  0
LTYPE
  5
1F9
100
AcDbSymbolTableRecord
100
AcDbLinetypeTableRecord
  2
DASHED
 70
64
  3
- - - - - - - - - - - - - - - - - - - -
 72
65
 73
2
 40
0.2
 49
0.1
 74
0
 49
-0.1
 74
0
  0
ENDTAB
  0
TABLE
  2
LAYER
  5
2
100
AcDbSymbolTable
 70
36
  0
LAYER
  5
10
100
AcDbSymbolTableRecord
100
AcDbLayerTableRecord
  2
0
 70
0
 62
7
  6
CONTINUOUS
370
-3
390
F
  0
LAYER
  5
1FA
100
AcDbSymbolTableRecord
100
AcDbLayerTableRecord
  2
DEFAULT_1
 70
0
 62
7
  6
CENTER
370
-3
390
F
  0
LAYER
  5
1FB
100
AcDbSymbolTableRecord
100
AcDbLayerTableRecord
  2
DEFAULT_2
 70
0
 62
8
  6
HIDDEN
370
-3
390
F
  0
LAYER
  5
1FC
100
AcDbSymbolTableRecord
100
AcDbLayerTableRecord
  2
DEFAULT_3
 70
0
 62
7
  6
PHANTOM
370
-3
390
F
  0
LAYER
  5
1FD
100
AcDbSymbolTableRecord
100
AcDbLayerTableRecord
  2
DATUM_PLANES
 70
0
 62
7
  6
CONTINUOUS
370
-3
390
F
  0
LAYER
  5
1FE
100
AcDbSymbolTableRecord
100
AcDbLayerTableRecord
  2
PORT_AREAS
 70
0
 62
7
  6
CONTINUOUS
370
-3
390
F
  0
LAYER
  5
1FF
100
AcDbSymbolTableRecord
100
AcDbLayerTableRecord
  2
SUNNBOMCOSMETIC
 70
0
 62
7
  6
CONTINUOUS
370
-3
390
F
  0
LAYER
  5
200
100
AcDbSymbolTableRecord
100
AcDbLayerTableRecord
  2
SUNNBOMSTAMPING
 70
0
 62
7
  6
CONTINUOUS
370
-3
390
F
  0
LAYER
  5
201
100
AcDbSymbolTableRecord
100
AcDbLayerTableRecord
  2
THREADS
 70
0
 62
7
  6
CONTINUOUS
370
-3
390
F
  0
ENDTAB
  0
TABLE
  2
STYLE
  5
3
100
AcDbSymbolTable
 70
1
  0
STYLE
  5
11
100
AcDbSymbolTableRecord
100
AcDbTextStyleTableRecord
  2
STANDARD
 70
0
 40
0.0
 41
0.8
 50
0.0
 71
0
 42
0.2
  3
txt
  4

  0
STYLE
  5
202
100
AcDbSymbolTableRecord
100
AcDbTextStyleTableRecord
  2
TEXTSTYLE_1
 70
0
 40
0.0
 41
0.8
 50
0.0
 71
0
 42
0.2
  3
gdt
  4

  0
ENDTAB
  0
TABLE
  2
VIEW
  5
6
100
AcDbSymbolTable
 70
0
  0
ENDTAB
  0
TABLE
  2
UCS
  5
7
100
AcDbSymbolTable
 70
0
  0
ENDTAB
  0
TABLE
  2
APPID
  5
9
100
AcDbSymbolTable
 70
1
  0
APPID
  5
203
100
AcDbSymbolTableRecord
100
AcDbRegAppTableRecord
  2
ACAD
 70
0
  0
ENDTAB
  0
TABLE
  2
BLOCK_RECORD
  5
1
100
AcDbSymbolTable
 70
0
  0
BLOCK_RECORD
  5
204
100
AcDbSymbolTableRecord
100
AcDbBlockTableRecord
  2
*Model_Space
  0
BLOCK_RECORD
  5
205
100
AcDbSymbolTableRecord
100
AcDbBlockTableRecord
  2
*Paper_Space
  0
BLOCK_RECORD
  5
206
100
AcDbSymbolTableRecord
100
AcDbBlockTableRecord
  2
SUN_FIRST_THIRD_ANGLE_BL0
  0
BLOCK_RECORD
  5
207
100
AcDbSymbolTableRecord
100
AcDbBlockTableRecord
  2
*T1
  0
BLOCK_RECORD
  5
208
100
AcDbSymbolTableRecord
100
AcDbBlockTableRecord
  2
*T2
  0
BLOCK_RECORD
  5
209
100
AcDbSymbolTableRecord
100
AcDbBlockTableRecord
  2
*T3
  0
ENDTAB
  0
TABLE
  2
DIMSTYLE
  5
A
100
AcDbSymbolTable
 70
1
100
AcDbDimStyleTable
 71
0
  0
DIMSTYLE
105
20A
100
AcDbSymbolTableRecord
100
AcDbDimStyleTableRecord
  2
STANDARD
 70
0
  3

  4

 40
1.0
 41
0.1875
 42
0.0625
 43
0.38
 44
0.125
 45
0.0
 46
0.0
 47
0.001
 48
0.001
140
0.1
141
0.09
142
0.0
143
25.4
144
1.0
145
0.0
146
1.0
147
0.09
 71
0.0
 72
0.0
 73
1
 74
1
 75
0
 76
0
 77
0
 78
4
170
0
171
2
172
0
173
0
174
0
175
0
176
0
177
0
178
0
270
2
271
3
272
3
273
2
274
2
275
0
280
0
281
0
282
0
283
1
284
4
285
0
286
0
287
3
288
0
340
11
278
46
  0
ENDTAB
  0
ENDSEC
  0
SECTION
  2
BLOCKS
  0
BLOCK
  5
20
100
AcDbEntity
  8
0
100
AcDbBlockBegin
  2
*Model_Space
 70
0
 10
0.0
 20
0.0
 30
0.0
  3
*Model_Space
  1

  0
ENDBLK
  5
21
100
AcDbEntity
  8
0
100
AcDbBlockEnd
  0
BLOCK
  5
1C
100
AcDbEntity
  8
0
100
AcDbBlockBegin
  2
*Paper_Space
 70
0
 10
0.0
 20
0.0
 30
0.0
  3
*Paper_Space
  1

  0
ENDBLK
  5
1D
100
AcDbEntity
  8
0
100
AcDbBlockEnd
  0
BLOCK
  5
20B
100
AcDbEntity
  8
0
100
AcDbBlockBegin
 62
2
  6
CONTINUOUS
  2
SUN_FIRST_THIRD_ANGLE_BL0
 70
64
 10
20.4816717061
 20
1.2289683772
  3
SUN_FIRST_THIRD_ANGLE_BL0
  1

  0
TEXT
  5
20C
100
AcDbEntity
  8
0
100
AcDbText
 62
2
  6
CONTINUOUS
 10
19.4750896608
 20
1.4136269581
  7
STANDARD
 40
0.08
  1
FIRST ANGLE
 41
0.8
 72
0
100
AcDbText
  0
TEXT
  5
20D
100
AcDbEntity
  8
0
100
AcDbText
 62
2
  6
CONTINUOUS
 10
20.7842537513
 20
1.4047600029
  7
STANDARD
 40
0.08
  1
THIRD ANGLE
 41
0.8
 72
0
100
AcDbText
  0
LINE
  5
20E
100
AcDbEntity
  8
0
100
AcDbLine
 62
7
  6
CONTINUOUS
 10
19.4767170086
 20
1.1727031207
 11
19.6334271527
 21
1.1717972817
  0
LINE
  5
20F
100
AcDbEntity
  8
0
100
AcDbLine
 62
7
  6
CONTINUOUS
 10
19.6596964832
 20
1.1717972817
 11
19.6950230232
 21
1.171593082
  0
LINE
  5
210
100
AcDbEntity
  8
0
100
AcDbLine
 62
7
  6
CONTINUOUS
 10
19.7194818561
 20
1.1708914427
 11
19.8852396156
 21
1.1699333054
  0
LINE
  5
211
100
AcDbEntity
  8
0
100
AcDbLine
 62
7
  6
CONTINUOUS
 10
19.4758111696
 20
1.2723454088
 11
19.88525039
 21
1.3511534004
  0
LINE
  5
212
100
AcDbEntity
  8
0
100
AcDbLine
 62
7
  6
CONTINUOUS
 10
19.88525039
 20
1.3511534004
 11
19.8831348489
 21
0.9851647912
  0
LINE
  5
213
100
AcDbEntity
  8
0
100
AcDbLine
 62
7
  6
CONTINUOUS
 10
19.8831348489
 20
0.9851647912
 11
19.4767170086
 21
1.0658141206
  0
LINE
  5
214
100
AcDbEntity
  8
0
100
AcDbLine
 62
7
  6
CONTINUOUS
 10
19.4767170086
 20
1.0658141206
 11
19.4779056764
 21
1.2714536432
  0
CIRCLE
  5
215
100
AcDbEntity
  8
0
100
AcDbCircle
 62
7
  6
CONTINUOUS
 10
20.2068232291
 20
1.1717972817
 40
0.175742101
  0
CIRCLE
  5
216
100
AcDbEntity
  8
0
100
AcDbCircle
 62
7
  6
CONTINUOUS
 10
20.2068232291
 20
1.1717972817
 40
0.1005522074
  0
LINE
  5
217
100
AcDbEntity
  8
0
100
AcDbLine
 62
7
  6
CONTINUOUS
 10
20.2077290681
 20
1.3756110529
 11
20.2071171714
 21
1.2379342989
  0
LINE
  5
218
100
AcDbEntity
  8
0
100
AcDbLine
 62
7
  6
CONTINUOUS
 10
20.2077290681
 20
1.2016899681
 11
20.2074674401
 21
1.1428236749
  0
LINE
  5
219
100
AcDbEntity
  8
0
100
AcDbLine
 62
7
  6
CONTINUOUS
 10
20.208634907
 20
1.101141841
 11
20.2080230104
 21
0.963465087
  0
LINE
  5
21A
100
AcDbEntity
  8
0
100
AcDbLine
 62
7
  6
CONTINUOUS
 10
20.0066328138
 20
1.1745147986
 11
20.1443095678
 21
1.1739029019
  0
LINE
  5
21B
100
AcDbEntity
  8
0
100
AcDbLine
 62
7
  6
CONTINUOUS
 10
20.1832714155
 20
1.1727031207
 11
20.238153505
 21
1.172335442
  0
LINE
  5
21C
100
AcDbEntity
  8
0
100
AcDbLine
 62
7
  6
CONTINUOUS
 10
20.2756669918
 20
1.1717972817
 11
20.407916871
 21
1.1712095044
  0
CIRCLE
  5
21D
100
AcDbEntity
  8
0
100
AcDbCircle
 62
7
  6
CONTINUOUS
 10
20.7509457401
 20
1.1693297793
 40
0.1722024983
  0
CIRCLE
  5
21E
100
AcDbEntity
  8
0
100
AcDbCircle
 62
7
  6
CONTINUOUS
 10
20.7509457401
 20
1.1693297793
 40
0.0985164967
  0
LINE
  5
21F
100
AcDbEntity
  8
0
100
AcDbLine
 62
7
  6
CONTINUOUS
 10
20.7169767782
 20
1.170462078
 11
20.7825395137
 21
1.1682766535
  0
LINE
  5
220
100
AcDbEntity
  8
0
100
AcDbLine
 62
7
  6
CONTINUOUS
 10
20.8177513651
 20
1.1693297793
 11
20.947965719
 21
1.1693297793
  0
LINE
  5
221
100
AcDbEntity
  8
0
100
AcDbLine
 62
7
  6
CONTINUOUS
 10
20.6875370113
 20
1.170462078
 11
20.5573226574
 21
1.170462078
  0
LINE
  5
222
100
AcDbEntity
  8
0
100
AcDbLine
 62
7
  6
CONTINUOUS
 10
20.7486811426
 20
1.1987695462
 11
20.7486811426
 21
1.1432869085
  0
LINE
  5
223
100
AcDbEntity
  8
0
100
AcDbLine
 62
7
  6
CONTINUOUS
 10
20.7498134414
 20
1.1059210505
 11
20.7498134414
 21
0.9757066966
  0
LINE
  5
224
100
AcDbEntity
  8
0
100
AcDbLine
 62
7
  6
CONTINUOUS
 10
20.7486811426
 20
1.2338708068
 11
20.7486811426
 21
1.3640851607
  0
LINE
  5
225
100
AcDbEntity
  8
0
100
AcDbLine
 62
7
  6
CONTINUOUS
 10
21.0702539817
 20
1.2701043662
 11
21.4790138229
 21
1.3448360823
  0
LINE
  5
226
100
AcDbEntity
  8
0
100
AcDbLine
 62
7
  6
CONTINUOUS
 10
21.4790138229
 20
1.3448360823
 11
21.4790138229
 21
0.9779712941
  0
LINE
  5
227
100
AcDbEntity
  8
0
100
AcDbLine
 62
7
  6
CONTINUOUS
 10
21.4790138229
 20
0.9779712941
 11
21.069121683
 21
1.0617614
  0
LINE
  5
228
100
AcDbEntity
  8
0
100
AcDbLine
 62
7
  6
CONTINUOUS
 10
21.0702539817
 20
1.2701043662
 11
21.069121683
 21
1.0617614
  0
LINE
  5
229
100
AcDbEntity
  8
0
100
AcDbLine
 62
7
  6
CONTINUOUS
 10
21.4790138229
 20
1.1693297793
 11
21.3159628059
 21
1.1693297793
  0
LINE
  5
22A
100
AcDbEntity
  8
0
100
AcDbLine
 62
7
  6
CONTINUOUS
 10
21.2876553377
 20
1.1693297793
 11
21.2502894796
 21
1.1693297793
  0
LINE
  5
22B
100
AcDbEntity
  8
0
100
AcDbLine
 62
7
  6
CONTINUOUS
 10
21.2208497126
 20
1.1659328831
 11
21.0713862804
 21
1.1659328831
  0
LINE
  5
22C
100
AcDbEntity
  8
0
100
AcDbLine
 62
7
  6
CONTINUOUS
 10
20.4796138713
 20
1.5284908897
 11
20.4766766948
 21
0.9294458646
  0
ENDBLK
  5
22D
100
AcDbEntity
  8
0
  6
BYBLOCK
 62
0
100
AcDbBlockEnd
  0
BLOCK
  5
22E
100
AcDbEntity
  8
0
100
AcDbBlockBegin
  2
*T1
 70
1
 10
0.0
 20
0.0
  3
*T1
  1

  0
LINE
  5
22F
100
AcDbEntity
  8
0
100
AcDbLine
 62
2
  6
CONTINUOUS
 10
9.275
 20
0.0
 11
-0.0
 21
0.0
  0
LINE
  5
230
100
AcDbEntity
  8
0
100
AcDbLine
 62
2
  6
CONTINUOUS
 10
9.275
 20
0.0
 11
9.275
 21
1.25
  0
LINE
  5
231
100
AcDbEntity
  8
0
100
AcDbLine
 62
2
  6
CONTINUOUS
 10
9.275
 20
0.625
 11
-0.0
 21
0.625
  0
LINE
  5
232
100
AcDbEntity
  8
0
100
AcDbLine
 62
2
  6
CONTINUOUS
 10
9.275
 20
1.25
 11
-0.0
 21
1.25
  0
LINE
  5
233
100
AcDbEntity
  8
0
100
AcDbLine
 62
2
  6
CONTINUOUS
 10
6.8
 20
0.0
 11
6.8
 21
1.25
  0
LINE
  5
234
100
AcDbEntity
  8
0
100
AcDbLine
 62
2
  6
CONTINUOUS
 10
6.4
 20
0.0
 11
6.4
 21
0.625
  0
LINE
  5
235
100
AcDbEntity
  8
0
100
AcDbLine
 62
2
  6
CONTINUOUS
 10
5.9
 20
0.0
 11
5.9
 21
0.625
  0
LINE
  5
236
100
AcDbEntity
  8
0
100
AcDbLine
 62
2
  6
CONTINUOUS
 10
5.2
 20
0.0
 11
5.2
 21
0.625
  0
LINE
  5
237
100
AcDbEntity
  8
0
100
AcDbLine
 62
2
  6
CONTINUOUS
 10
4.1
 20
0.0
 11
4.1
 21
1.25
  0
LINE
  5
238
100
AcDbEntity
  8
0
100
AcDbLine
 62
2
  6
CONTINUOUS
 10
-0.0
 20
0.0
 11
-0.0
 21
1.25
  0
MTEXT
  5
239
100
AcDbEntity
  8
0
100
AcDbMText
 62
2
  6
CONTINUOUS
  7
STANDARD
 71
2
 72
1
 10
6.6
 20
0.325
 30
0.0
 11
1.0
 21
0.0
 31
0.0
 44
0.9
  1
2
 40
0.125
 41
0.2
  0
MTEXT
  5
23A
100
AcDbEntity
  8
0
100
AcDbMText
 62
2
  6
CONTINUOUS
  7
STANDARD
 71
2
 72
1
 10
6.15
 20
0.325
 30
0.0
 11
1.0
 21
0.0
 31
0.0
 44
0.9
  1
C
 40
0.125
 41
0.2
  0
MTEXT
  5
23B
100
AcDbEntity
  8
0
100
AcDbMText
 62
2
  6
CONTINUOUS
  7
STANDARD
 71
2
 72
1
 10
5.55
 20
0.325
 30
0.0
 11
1.0
 21
0.0
 31
0.0
 44
0.9
  1
1.000
 40
0.125
 41
1.0
  0
MTEXT
  5
23C
100
AcDbEntity
  8
0
100
AcDbMText
 62
2
  6
CONTINUOUS
  7
STANDARD
 71
2
 72
1
 10
4.65
 20
0.325
 30
0.0
 11
1.0
 21
0.0
 31
0.0
 44
0.9
  1
Feb-10-22
 40
0.125
 41
1.8
  0
MTEXT
  5
23D
100
AcDbEntity
  8
0
100
AcDbMText
 62
2
  6
CONTINUOUS
  7
STANDARD
 71
2
 72
1
 10
2.05
 20
0.4625
 30
0.0
 11
1.0
 21
0.0
 31
0.0
 44
0.9
  1
T-17A Line mount\P(See Technical Data for Body Features)
 40
0.125
 41
7.6
  0
MTEXT
  5
23E
100
AcDbEntity
  8
0
100
AcDbMText
 62
2
  6
CONTINUOUS
  7
STANDARD
 71
1
 72
1
 10
6.45
 20
0.5625
 30
0.0
 11
1.0
 21
0.0
 31
0.0
 44
0.9
  1
SHEET
 40
0.06
 41
0.48
  0
MTEXT
  5
23F
100
AcDbEntity
  8
0
100
AcDbMText
 62
2
  6
CONTINUOUS
  7
STANDARD
 71
1
 72
1
 10
5.95
 20
0.5625
 30
0.0
 11
1.0
 21
0.0
 31
0.0
 44
0.9
  1
DWG SIZE
 40
0.06
 41
0.768
  0
MTEXT
  5
240
100
AcDbEntity
  8
0
100
AcDbMText
 62
2
  6
CONTINUOUS
  7
STANDARD
 71
1
 72
1
 10
5.25
 20
0.5625
 30
0.0
 11
1.0
 21
0.0
 31
0.0
 44
0.9
  1
SCALE
 40
0.06
 41
0.48
  0
MTEXT
  5
241
100
AcDbEntity
  8
0
100
AcDbMText
 62
2
  6
CONTINUOUS
  7
STANDARD
 71
1
 72
1
 10
4.15
 20
0.5625
 30
0.0
 11
1.0
 21
0.0
 31
0.0
 44
0.9
  1
DATE
 40
0.06
 41
0.384
  0
MTEXT
  5
242
100
AcDbEntity
  8
0
100
AcDbMText
 62
2
  6
CONTINUOUS
  7
STANDARD
 71
1
 72
1
 10
0.05
 20
0.5625
 30
0.0
 11
1.0
 21
0.0
 31
0.0
 44
0.9
  1
DESCRIPTION
 40
0.06
 41
1.056
  0
MTEXT
  5
243
100
AcDbEntity
  8
0
100
AcDbMText
 62
2
  6
CONTINUOUS
  7
STANDARD
 71
2
 72
1
 10
5.45
 20
1.0375
 30
0.0
 11
1.0
 21
0.0
 31
0.0
 44
0.9
  1
ALL DIMENSIONS IN INCH\PVIEWS ARE THIRD ANGLE
 40
0.12
 41
4.224
  0
MTEXT
  5
244
100
AcDbEntity
  8
0
100
AcDbMText
 62
2
  6
CONTINUOUS
  7
STANDARD
 71
2
 72
1
 10
2.05
 20
0.95
 30
0.0
 11
1.0
 21
0.0
 31
0.0
 44
0.9
  1
H6X
 40
0.125
 41
0.6
  0
MTEXT
  5
245
100
AcDbEntity
  8
0
100
AcDbMText
 62
2
  6
CONTINUOUS
  7
STANDARD
 71
1
 72
1
 10
0.05
 20
1.1875
 30
0.0
 11
1.0
 21
0.0
 31
0.0
 44
0.9
  1
MODEL
 40
0.06
 41
0.48
  0
ENDBLK
  5
246
100
AcDbEntity
  8
0
  6
BYBLOCK
 62
0
100
AcDbBlockEnd
  0
BLOCK
  5
247
100
AcDbEntity
  8
0
100
AcDbBlockBegin
  2
*T2
 70
1
 10
0.0
 20
0.0
  3
*T2
  1

  0
LINE
  5
248
100
AcDbEntity
  8
0
100
AcDbLine
 62
2
  6
CONTINUOUS
 10
0.0
 20
0.0
 11
9.055
 21
0.0
  0
LINE
  5
249
100
AcDbEntity
  8
0
100
AcDbLine
 62
2
  6
CONTINUOUS
 10
0.0
 20
0.0
 11
0.0
 21
-2.844
  0
LINE
  5
24A
100
AcDbEntity
  8
0
100
AcDbLine
 62
2
  6
CONTINUOUS
 10
0.0
 20
-0.344
 11
9.055
 21
-0.344
  0
LINE
  5
24B
100
AcDbEntity
  8
0
100
AcDbLine
 62
2
  6
CONTINUOUS
 10
0.0
 20
-0.594
 11
9.055
 21
-0.594
  0
LINE
  5
24C
100
AcDbEntity
  8
0
100
AcDbLine
 62
2
  6
CONTINUOUS
 10
0.0
 20
-0.844
 11
9.055
 21
-0.844
  0
LINE
  5
24D
100
AcDbEntity
  8
0
100
AcDbLine
 62
2
  6
CONTINUOUS
 10
0.0
 20
-1.094
 11
9.055
 21
-1.094
  0
LINE
  5
24E
100
AcDbEntity
  8
0
100
AcDbLine
 62
2
  6
CONTINUOUS
 10
0.0
 20
-1.344
 11
9.055
 21
-1.344
  0
LINE
  5
24F
100
AcDbEntity
  8
0
100
AcDbLine
 62
2
  6
CONTINUOUS
 10
0.0
 20
-1.594
 11
9.055
 21
-1.594
  0
LINE
  5
250
100
AcDbEntity
  8
0
100
AcDbLine
 62
2
  6
CONTINUOUS
 10
0.0
 20
-1.844
 11
9.055
 21
-1.844
  0
LINE
  5
251
100
AcDbEntity
  8
0
100
AcDbLine
 62
2
  6
CONTINUOUS
 10
0.0
 20
-2.094
 11
9.055
 21
-2.094
  0
LINE
  5
252
100
AcDbEntity
  8
0
100
AcDbLine
 62
2
  6
CONTINUOUS
 10
0.0
 20
-2.344
 11
9.055
 21
-2.344
  0
LINE
  5
253
100
AcDbEntity
  8
0
100
AcDbLine
 62
2
  6
CONTINUOUS
 10
0.0
 20
-2.594
 11
9.055
 21
-2.594
  0
LINE
  5
254
100
AcDbEntity
  8
0
100
AcDbLine
 62
2
  6
CONTINUOUS
 10
0.0
 20
-2.844
 11
9.055
 21
-2.844
  0
LINE
  5
255
100
AcDbEntity
  8
0
100
AcDbLine
 62
2
  6
CONTINUOUS
 10
3.055
 20
0.0
 11
3.055
 21
-2.844
  0
LINE
  5
256
100
AcDbEntity
  8
0
100
AcDbLine
 62
2
  6
CONTINUOUS
 10
9.055
 20
0.0
 11
9.055
 21
-2.844
  0
MTEXT
  5
257
100
AcDbEntity
  8
0
100
AcDbMText
 62
2
  6
CONTINUOUS
  7
STANDARD
 71
2
 72
1
 10
1.5275
 20
-0.0995
 30
0.0
 11
1.0
 21
0.0
 31
0.0
 44
0.9
  1
Technical Data
 40
0.145
 41
3.248
  0
MTEXT
  5
258
100
AcDbEntity
  8
0
100
AcDbMText
 62
2
  6
CONTINUOUS
  7
STANDARD
 71
2
 72
1
 10
4.555
 20
-0.0995
 30
0.0
 11
1.0
 21
0.0
 31
0.0
 44
0.9
  1
U.S. Units
 40
0.145
 41
2.32
  0
MTEXT
  5
259
100
AcDbEntity
  8
0
100
AcDbMText
 62
2
  6
CONTINUOUS
  7
STANDARD
 71
2
 72
1
 10
7.555
 20
-0.0995
 30
0.0
 11
1.0
 21
0.0
 31
0.0
 44
0.9
  1
Metric Units
 40
0.145
 41
2.784
  0
MTEXT
  5
25A
100
AcDbEntity
  8
0
100
AcDbMText
 62
2
  6
CONTINUOUS
  7
STANDARD
 71
2
 72
1
 10
1.5275
 20
-0.4065
 30
0.0
 11
1.0
 21
0.0
 31
0.0
 44
0.9
  1
Cavity
 40
0.125
 41
1.2
  0
MTEXT
  5
25B
100
AcDbEntity
  8
0
100
AcDbMText
 62
2
  6
CONTINUOUS
  7
STANDARD
 71
2
 72
1
 10
6.055
 20
-0.4065
 30
0.0
 11
1.0
 21
0.0
 31
0.0
 44
0.9
  1
T-17A
 40
0.125
 41
1.0
  0
MTEXT
  5
25C
100
AcDbEntity
  8
0
100
AcDbMText
 62
2
  6
CONTINUOUS
  7
STANDARD
 71
2
 72
1
 10
1.5275
 20
-0.6565
 30
0.0
 11
1.0
 21
0.0
 31
0.0
 44
0.9
  1
Body Features
 40
0.125
 41
2.6
  0
MTEXT
  5
25D
100
AcDbEntity
  8
0
100
AcDbMText
 62
2
  6
CONTINUOUS
  7
STANDARD
 71
2
 72
1
 10
6.055
 20
-0.6565
 30
0.0
 11
1.0
 21
0.0
 31
0.0
 44
0.9
  1
Ninety degree with reverse flow check - sequence
 40
0.125
 41
9.6
  0
MTEXT
  5
25E
100
AcDbEntity
  8
0
100
AcDbMText
 62
2
  6
CONTINUOUS
  7
STANDARD
 71
2
 72
1
 10
1.5275
 20
-0.9065
 30
0.0
 11
1.0
 21
0.0
 31
0.0
 44
0.9
  1
Body Type
 40
0.125
 41
1.8
  0
MTEXT
  5
25F
100
AcDbEntity
  8
0
100
AcDbMText
 62
2
  6
CONTINUOUS
  7
STANDARD
 71
2
 72
1
 10
6.055
 20
-0.9065
 30
0.0
 11
1.0
 21
0.0
 31
0.0
 44
0.9
  1
Line mount
 40
0.125
 41
2.0
  0
MTEXT
  5
260
100
AcDbEntity
  8
0
100
AcDbMText
 62
2
  6
CONTINUOUS
  7
STANDARD
 71
2
 72
1
 10
1.5275
 20
-1.1565
 30
0.0
 11
1.0
 21
0.0
 31
0.0
 44
0.9
  1
Interface
 40
0.125
 41
1.8
  0
MTEXT
  5
261
100
AcDbEntity
  8
0
100
AcDbMText
 62
2
  6
CONTINUOUS
  7
STANDARD
 71
2
 72
1
 10
6.055
 20
-1.1565
 30
0.0
 11
1.0
 21
0.0
 31
0.0
 44
0.9
  1
None
 40
0.125
 41
0.8
  0
MTEXT
  5
262
100
AcDbEntity
  8
0
100
AcDbMText
 62
2
  6
CONTINUOUS
  7
STANDARD
 71
2
 72
1
 10
1.5275
 20
-1.4065
 30
0.0
 11
1.0
 21
0.0
 31
0.0
 44
0.9
  1
Open Cavity Quantity
 40
0.125
 41
4.0
  0
MTEXT
  5
263
100
AcDbEntity
  8
0
100
AcDbMText
 62
2
  6
CONTINUOUS
  7
STANDARD
 71
2
 72
1
 10
6.055
 20
-1.4065
 30
0.0
 11
1.0
 21
0.0
 31
0.0
 44
0.9
  1
1
 40
0.125
 41
0.2
  0
MTEXT
  5
264
100
AcDbEntity
  8
0
100
AcDbMText
 62
2
  6
CONTINUOUS
  7
STANDARD
 71
2
 72
1
 10
1.5275
 20
-1.6565
 30
0.0
 11
1.0
 21
0.0
 31
0.0
 44
0.9
  1
Weight
 40
0.125
 41
1.2
  0
MTEXT
  5
265
100
AcDbEntity
  8
0
100
AcDbMText
 62
2
  6
CONTINUOUS
  7
STANDARD
 71
2
 72
1
 10
4.555
 20
-1.6565
 30
0.0
 11
1.0
 21
0.0
 31
0.0
 44
0.9
  1
6.115 lb.
 40
0.125
 41
1.8
  0
MTEXT
  5
266
100
AcDbEntity
  8
0
100
AcDbMText
 62
2
  6
CONTINUOUS
  7
STANDARD
 71
2
 72
1
 10
7.555
 20
-1.6565
 30
0.0
 11
1.0
 21
0.0
 31
0.0
 44
0.9
  1
2,774 kg.
 40
0.125
 41
1.8
  0
MTEXT
  5
267
100
AcDbEntity
  8
0
100
AcDbMText
 62
2
  6
CONTINUOUS
  7
STANDARD
 71
2
 72
1
 10
1.5275
 20
-1.9065
 30
0.0
 11
1.0
 21
0.0
 31
0.0
 44
0.9
  1
Mounting Hole Diameter
 40
0.125
 41
4.4
  0
MTEXT
  5
268
100
AcDbEntity
  8
0
100
AcDbMText
 62
2
  6
CONTINUOUS
  7
STANDARD
 71
2
 72
1
 10
4.555
 20
-1.9065
 30
0.0
 11
1.0
 21
0.0
 31
0.0
 44
0.9
  1
.41 in.
 40
0.125
 41
1.4
  0
MTEXT
  5
269
100
AcDbEntity
  8
0
100
AcDbMText
 62
2
  6
CONTINUOUS
  7
STANDARD
 71
2
 72
1
 10
7.555
 20
-1.9065
 30
0.0
 11
1.0
 21
0.0
 31
0.0
 44
0.9
  1
10,4 mm
 40
0.125
 41
1.4
  0
MTEXT
  5
26A
100
AcDbEntity
  8
0
100
AcDbMText
 62
2
  6
CONTINUOUS
  7
STANDARD
 71
2
 72
1
 10
1.5275
 20
-2.1565
 30
0.0
 11
1.0
 21
0.0
 31
0.0
 44
0.9
  1
Mounting Hole Depth
 40
0.125
 41
3.8
  0
MTEXT
  5
26B
100
AcDbEntity
  8
0
100
AcDbMText
 62
2
  6
CONTINUOUS
  7
STANDARD
 71
2
 72
1
 10
6.055
 20
-2.1565
 30
0.0
 11
1.0
 21
0.0
 31
0.0
 44
0.9
  1
Through
 40
0.125
 41
1.4
  0
MTEXT
  5
26C
100
AcDbEntity
  8
0
100
AcDbMText
 62
2
  6
CONTINUOUS
  7
STANDARD
 71
2
 72
1
 10
1.5275
 20
-2.4065
 30
0.0
 11
1.0
 21
0.0
 31
0.0
 44
0.9
  1
Mounting Hole Quantity
 40
0.125
 41
4.4
  0
MTEXT
  5
26D
100
AcDbEntity
  8
0
100
AcDbMText
 62
2
  6
CONTINUOUS
  7
STANDARD
 71
2
 72
1
 10
6.055
 20
-2.4065
 30
0.0
 11
1.0
 21
0.0
 31
0.0
 44
0.9
  1
2
 40
0.125
 41
0.2
  0
MTEXT
  5
26E
100
AcDbEntity
  8
0
100
AcDbMText
 62
2
  6
CONTINUOUS
  7
STANDARD
 71
2
 72
1
 10
1.5275
 20
-2.6565
 30
0.0
 11
1.0
 21
0.0
 31
0.0
 44
0.9
  1
Includes integral cartridge(s)
 40
0.125
 41
6.0
  0
MTEXT
  5
26F
100
AcDbEntity
  8
0
100
AcDbMText
 62
2
  6
CONTINUOUS
  7
STANDARD
 71
2
 72
1
 10
6.055
 20
-2.6565
 30
0.0
 11
1.0
 21
0.0
 31
0.0
 44
0.9
  1
Yes (see Included Components)
 40
0.125
 41
5.8
  0
ENDBLK
  5
270
100
AcDbEntity
  8
0
  6
BYBLOCK
 62
0
100
AcDbBlockEnd
  0
BLOCK
  5
271
100
AcDbEntity
  8
0
100
AcDbBlockBegin
  2
*T3
 70
1
 10
0.0
 20
0.0
  3
*T3
  1

  0
LINE
  5
272
100
AcDbEntity
  8
0
100
AcDbLine
 62
2
  6
CONTINUOUS
 10
0.0
 20
0.0
 11
4.6
 21
0.0
  0
LINE
  5
273
100
AcDbEntity
  8
0
100
AcDbLine
 62
2
  6
CONTINUOUS
 10
0.0
 20
0.0
 11
0.0
 21
-1.43775
  0
LINE
  5
274
100
AcDbEntity
  8
0
100
AcDbLine
 62
2
  6
CONTINUOUS
 10
0.0
 20
-0.34375
 11
4.6
 21
-0.34375
  0
LINE
  5
275
100
AcDbEntity
  8
0
100
AcDbLine
 62
2
  6
CONTINUOUS
 10
0.0
 20
-0.68775
 11
4.6
 21
-0.68775
  0
LINE
  5
276
100
AcDbEntity
  8
0
100
AcDbLine
 62
2
  6
CONTINUOUS
 10
0.0
 20
-0.93775
 11
4.6
 21
-0.93775
  0
LINE
  5
277
100
AcDbEntity
  8
0
100
AcDbLine
 62
2
  6
CONTINUOUS
 10
0.0
 20
-1.18775
 11
4.6
 21
-1.18775
  0
LINE
  5
278
100
AcDbEntity
  8
0
100
AcDbLine
 62
2
  6
CONTINUOUS
 10
0.0
 20
-1.43775
 11
4.6
 21
-1.43775
  0
LINE
  5
279
100
AcDbEntity
  8
0
100
AcDbLine
 62
2
  6
CONTINUOUS
 10
1.3
 20
-0.34375
 11
1.3
 21
-1.43775
  0
LINE
  5
27A
100
AcDbEntity
  8
0
100
AcDbLine
 62
2
  6
CONTINUOUS
 10
3.3
 20
-0.34375
 11
3.3
 21
-1.43775
  0
LINE
  5
27B
100
AcDbEntity
  8
0
100
AcDbLine
 62
2
  6
CONTINUOUS
 10
4.6
 20
0.0
 11
4.6
 21
-1.43775
  0
MTEXT
  5
27C
100
AcDbEntity
  8
0
100
AcDbMText
 62
2
  6
CONTINUOUS
  7
STANDARD
 71
2
 72
1
 10
2.3
 20
-0.099375
 30
0.0
 11
1.0
 21
0.0
 31
0.0
 44
0.9
  1
Port Headings
 40
0.145
 41
3.016
  0
MTEXT
  5
27D
100
AcDbEntity
  8
0
100
AcDbMText
 62
2
  6
CONTINUOUS
  7
STANDARD
 71
2
 72
1
 10
0.65
 20
-0.44325
 30
0.0
 11
1.0
 21
0.0
 31
0.0
 44
0.9
  1
Product
 40
0.145
 41
1.624
  0
MTEXT
  5
27E
100
AcDbEntity
  8
0
100
AcDbMText
 62
2
  6
CONTINUOUS
  7
STANDARD
 71
2
 72
1
 10
2.3
 20
-0.44325
 30
0.0
 11
1.0
 21
0.0
 31
0.0
 44
0.9
  1
Port
 40
0.145
 41
0.928
  0
MTEXT
  5
27F
100
AcDbEntity
  8
0
100
AcDbMText
 62
2
  6
CONTINUOUS
  7
STANDARD
 71
2
 72
1
 10
3.95
 20
-0.44325
 30
0.0
 11
1.0
 21
0.0
 31
0.0
 44
0.9
  1
Size
 40
0.145
 41
0.928
  0
MTEXT
  5
280
100
AcDbEntity
  8
0
100
AcDbMText
 62
2
  6
CONTINUOUS
  7
STANDARD
 71
2
 72
1
 10
0.65
 20
-0.75025
 30
0.0
 11
1.0
 21
0.0
 31
0.0
 44
0.9
  1
H6X
 40
0.125
 41
0.6
  0
MTEXT
  5
281
100
AcDbEntity
  8
0
100
AcDbMText
 62
2
  6
CONTINUOUS
  7
STANDARD
 71
2
 72
1
 10
2.3
 20
-0.75025
 30
0.0
 11
1.0
 21
0.0
 31
0.0
 44
0.9
  1
Ports 1 &  2
 40
0.125
 41
2.4
  0
MTEXT
  5
282
100
AcDbEntity
  8
0
100
AcDbMText
 62
2
  6
CONTINUOUS
  7
STANDARD
 71
2
 72
1
 10
3.95
 20
-0.75025
 30
0.0
 11
1.0
 21
0.0
 31
0.0
 44
0.9
  1
1" BSPP
 40
0.125
 41
1.4
  0
MTEXT
  5
283
100
AcDbEntity
  8
0
100
AcDbMText
 62
2
  6
CONTINUOUS
  7
STANDARD
 71
2
 72
1
 10
0.65
 20
-1.00025
 30
0.0
 11
1.0
 21
0.0
 31
0.0
 44
0.9
  1
H6X
 40
0.125
 41
0.6
  0
MTEXT
  5
284
100
AcDbEntity
  8
0
100
AcDbMText
 62
2
  6
CONTINUOUS
  7
STANDARD
 71
2
 72
1
 10
2.3
 20
-1.00025
 30
0.0
 11
1.0
 21
0.0
 31
0.0
 44
0.9
  1
Port 3
 40
0.125
 41
1.2
  0
MTEXT
  5
285
100
AcDbEntity
  8
0
100
AcDbMText
 62
2
  6
CONTINUOUS
  7
STANDARD
 71
2
 72
1
 10
3.95
 20
-1.00025
 30
0.0
 11
1.0
 21
0.0
 31
0.0
 44
0.9
  1
1/4" BSPP
 40
0.125
 41
1.8
  0
MTEXT
  5
286
100
AcDbEntity
  8
0
100
AcDbMText
 62
2
  6
CONTINUOUS
  7
STANDARD
 71
2
 72
1
 10
0.65
 20
-1.25025
 30
0.0
 11
1.0
 21
0.0
 31
0.0
 44
0.9
  1
H6X
 40
0.125
 41
0.6
  0
MTEXT
  5
287
100
AcDbEntity
  8
0
100
AcDbMText
 62
2
  6
CONTINUOUS
  7
STANDARD
 71
2
 72
1
 10
2.3
 20
-1.25025
 30
0.0
 11
1.0
 21
0.0
 31
0.0
 44
0.9
  1
Gage Port
 40
0.125
 41
1.8
  0
MTEXT
  5
288
100
AcDbEntity
  8
0
100
AcDbMText
 62
2
  6
CONTINUOUS
  7
STANDARD
 71
2
 72
1
 10
3.95
 20
-1.25025
 30
0.0
 11
1.0
 21
0.0
 31
0.0
 44
0.9
  1
1/4" BSPP
 40
0.125
 41
1.8
  0
ENDBLK
  5
289
100
AcDbEntity
  8
0
  6
BYBLOCK
 62
0
100
AcDbBlockEnd
  0
ENDSEC
  0
SECTION
  2
ENTITIES
  0
IMAGE
  5
28A
100
AcDbEntity
  8
0
100
AcDbRasterImage
 62
7
  6
CONTINUOUS
 10
19.2297077316
 20
0.3094318264
 30
0.0
 11
0.0066666667
 21
0.0
 31
0.0
 12
0.0
 22
0.0066666667
 32
0.0
 13
369.0
 23
92.0
340
       3B9
 70
9
280
0
281
50
282
50
283
0
360
       3B3
 71
1
 91
2
 14
-0.5
 24
-0.5
 14
368.5
 24
91.5
  0
INSERT
  5
28B
100
AcDbEntity
  8
0
100
AcDbBlockReference
 62
2
  6
CONTINUOUS
  2
SUN_FIRST_THIRD_ANGLE_BL0
 10
20.4816717061
 20
1.2289683772
  0
ACAD_TABLE
  5
28C
100
AcDbEntity
  8
0
 62
2
  6
CONTINUOUS
100
AcDbBlockReference
  2
*T1
 10
12.42375
 20
0.30125
 30
0.0
100
AcDbTable
342
       3BB
343
207
 11
1.0
 21
0.0
 31
0.0
 90
6
 91
4
 92
6
 93
20
 94
0
 95
0
 96
0
 70
1
 41
0.0
141
0.525
141
0.1
141
0.525
141
0.1
142
4.1
142
1.1
142
0.7
142
0.5
142
0.4
142
2.475
171
1
172
0
173
0
174
0
175
1
176
1
 91
33
178
0
145
0.0
301
CELL_VALUE
 90
4
  1
T-17A Line mount\P(See Technical Data for Body Features)
304
ACVALUE_END
170
2
140
0.125
171
1
172
0
173
0
174
0
175
1
176
1
 91
33
178
0
145
0.0
301
CELL_VALUE
 90
4
  1
Feb-10-22
304
ACVALUE_END
170
5
140
0.125
171
1
172
0
173
0
174
0
175
1
176
1
 91
33
178
0
145
0.0
301
CELL_VALUE
 90
4
  1
1.000
304
ACVALUE_END
170
5
140
0.125
171
1
172
0
173
0
174
0
175
1
176
1
 91
33
178
0
145
0.0
301
CELL_VALUE
 90
4
  1
C
304
ACVALUE_END
170
5
140
0.125
171
1
172
0
173
0
174
0
175
1
176
1
 91
33
178
0
145
0.0
301
CELL_VALUE
 90
4
  1
2
304
ACVALUE_END
170
5
140
0.125
171
1
172
0
173
0
174
0
175
1
176
1
 91
33
178
0
145
0.0
301
CELL_VALUE
 90
4
  1
 
304
ACVALUE_END
170
1
140
0.125
171
1
172
0
173
0
174
0
175
1
176
1
 91
33
178
0
145
0.0
301
CELL_VALUE
 90
4
  1
DESCRIPTION
304
ACVALUE_END
170
1
140
0.06
171
1
172
0
173
0
174
0
175
1
176
1
 91
33
178
0
145
0.0
301
CELL_VALUE
 90
4
  1
DATE
304
ACVALUE_END
170
1
140
0.06
171
1
172
0
173
0
174
0
175
1
176
1
 91
33
178
0
145
0.0
301
CELL_VALUE
 90
4
  1
SCALE
304
ACVALUE_END
170
1
140
0.06
171
1
172
0
173
0
174
0
175
1
176
1
 91
33
178
0
145
0.0
301
CELL_VALUE
 90
4
  1
DWG SIZE
304
ACVALUE_END
170
1
140
0.06
171
1
172
0
173
0
174
0
175
1
176
1
 91
33
178
0
145
0.0
301
CELL_VALUE
 90
4
  1
SHEET
304
ACVALUE_END
170
1
140
0.06
171
1
172
0
173
0
174
0
175
1
176
1
 91
33
178
0
145
0.0
301
CELL_VALUE
 90
4
  1
 
304
ACVALUE_END
170
1
140
0.125
171
1
172
0
173
0
174
0
175
1
176
1
 91
33
178
0
145
0.0
301
CELL_VALUE
 90
4
  1
H6X
304
ACVALUE_END
170
5
140
0.125
171
1
172
0
173
0
174
0
175
4
176
1
 91
33
178
0
145
0.0
301
CELL_VALUE
 90
4
  1
ALL DIMENSIONS IN INCH\PVIEWS ARE THIRD ANGLE
304
ACVALUE_END
170
5
140
0.12
171
1
172
0
173
1
174
0
175
1
176
1
 91
1
178
0
145
0.0
170
1
171
1
172
0
173
1
174
0
175
1
176
1
 91
1
178
0
145
0.0
170
1
171
1
172
0
173
1
174
0
175
1
176
1
 91
1
178
0
145
0.0
170
5
171
1
172
0
173
0
174
0
175
1
176
1
 91
33
178
0
145
0.0
301
CELL_VALUE
 90
4
  1
 
304
ACVALUE_END
170
1
140
0.125
171
1
172
0
173
0
174
0
175
1
176
1
 91
33
178
0
145
0.0
301
CELL_VALUE
 90
4
  1
MODEL
304
ACVALUE_END
170
1
140
0.06
171
1
172
0
173
0
174
0
175
1
176
1
 91
33
178
0
145
0.0
301
CELL_VALUE
 90
4
  1
 
304
ACVALUE_END
170
1
140
0.125
171
1
172
0
173
0
174
0
175
1
176
1
 91
33
178
0
145
0.0
301
CELL_VALUE
 90
4
  1
 
304
ACVALUE_END
170
1
140
0.125
171
1
172
0
173
0
174
0
175
1
176
1
 91
33
178
0
145
0.0
301
CELL_VALUE
 90
4
  1
 
304
ACVALUE_END
170
1
140
0.125
171
1
172
0
173
0
174
0
175
1
176
1
 91
33
178
0
145
0.0
301
CELL_VALUE
 90
4
  1
 
304
ACVALUE_END
170
1
140
0.125
171
1
172
0
173
0
174
0
175
1
176
1
 91
33
178
0
145
0.0
301
CELL_VALUE
 90
4
  1
 
304
ACVALUE_END
170
1
140
0.125
  0
ACAD_TABLE
  5
28D
100
AcDbEntity
  8
0
 62
2
  6
CONTINUOUS
100
AcDbBlockReference
  2
*T2
 10
12.4237499994
 20
16.47875
 30
0.0
100
AcDbTable
342
       3BA
343
208
 11
1.0
 21
0.0
 31
0.0
 90
22
 91
11
 92
3
 93
16
 94
0
 95
0
 96
0
 41
0.028
141
0.344
141
0.25
141
0.25
141
0.25
141
0.25
141
0.25
141
0.25
141
0.25
141
0.25
141
0.25
141
0.25
142
3.055
142
3.0
142
3.0
171
1
172
0
173
0
174
0
175
1
176
1
 91
33
178
0
145
0.0
301
CELL_VALUE
 90
4
  1
Technical Data
304
ACVALUE_END
170
5
140
0.145
171
1
172
0
173
0
174
0
175
1
176
1
 91
33
178
0
145
0.0
301
CELL_VALUE
 90
4
  1
U.S. Units
304
ACVALUE_END
170
5
140
0.145
171
1
172
0
173
0
174
0
175
1
176
1
 91
33
178
0
145
0.0
301
CELL_VALUE
 90
4
  1
Metric Units
304
ACVALUE_END
170
5
140
0.145
171
1
172
0
173
0
174
0
175
1
176
1
 91
33
178
0
145
0.0
301
CELL_VALUE
 90
4
  1
Cavity
304
ACVALUE_END
170
5
140
0.125
171
1
172
0
173
0
174
0
175
2
176
1
 91
33
178
0
145
0.0
301
CELL_VALUE
 90
4
  1
T-17A
304
ACVALUE_END
170
5
140
0.125
171
1
172
0
173
1
174
0
175
1
176
1
 91
1
178
0
145
0.0
170
1
171
1
172
0
173
0
174
0
175
1
176
1
 91
33
178
0
145
0.0
301
CELL_VALUE
 90
4
  1
Body Features
304
ACVALUE_END
170
5
140
0.125
171
1
172
0
173
0
174
0
175
2
176
1
 91
33
178
0
145
0.0
301
CELL_VALUE
 90
4
  1
Ninety degree with reverse flow check - sequence
304
ACVALUE_END
170
5
140
0.125
171
1
172
0
173
1
174
0
175
1
176
1
 91
1
178
0
145
0.0
170
1
171
1
172
0
173
0
174
0
175
1
176
1
 91
33
178
0
145
0.0
301
CELL_VALUE
 90
4
  1
Body Type
304
ACVALUE_END
170
5
140
0.125
171
1
172
0
173
0
174
0
175
2
176
1
 91
33
178
0
145
0.0
301
CELL_VALUE
 90
4
  1
Line mount
304
ACVALUE_END
170
5
140
0.125
171
1
172
0
173
1
174
0
175
1
176
1
 91
1
178
0
145
0.0
170
1
171
1
172
0
173
0
174
0
175
1
176
1
 91
33
178
0
145
0.0
301
CELL_VALUE
 90
4
  1
Interface
304
ACVALUE_END
170
5
140
0.125
171
1
172
0
173
0
174
0
175
2
176
1
 91
33
178
0
145
0.0
301
CELL_VALUE
 90
4
  1
None
304
ACVALUE_END
170
5
140
0.125
171
1
172
0
173
1
174
0
175
1
176
1
 91
1
178
0
145
0.0
170
1
171
1
172
0
173
0
174
0
175
1
176
1
 91
33
178
0
145
0.0
301
CELL_VALUE
 90
4
  1
Open Cavity Quantity
304
ACVALUE_END
170
5
140
0.125
171
1
172
0
173
0
174
0
175
2
176
1
 91
33
178
0
145
0.0
301
CELL_VALUE
 90
4
  1
1
304
ACVALUE_END
170
5
140
0.125
171
1
172
0
173
1
174
0
175
1
176
1
 91
1
178
0
145
0.0
170
1
171
1
172
0
173
0
174
0
175
1
176
1
 91
33
178
0
145
0.0
301
CELL_VALUE
 90
4
  1
Weight
304
ACVALUE_END
170
5
140
0.125
171
1
172
0
173
0
174
0
175
1
176
1
 91
33
178
0
145
0.0
301
CELL_VALUE
 90
4
  1
6.115 lb.
304
ACVALUE_END
170
5
140
0.125
171
1
172
0
173
0
174
0
175
1
176
1
 91
33
178
0
145
0.0
301
CELL_VALUE
 90
4
  1
2,774 kg.
304
ACVALUE_END
170
5
140
0.125
171
1
172
0
173
0
174
0
175
1
176
1
 91
33
178
0
145
0.0
301
CELL_VALUE
 90
4
  1
Mounting Hole Diameter
304
ACVALUE_END
170
5
140
0.125
171
1
172
0
173
0
174
0
175
1
176
1
 91
33
178
0
145
0.0
301
CELL_VALUE
 90
4
  1
.41 in.
304
ACVALUE_END
170
5
140
0.125
171
1
172
0
173
0
174
0
175
1
176
1
 91
33
178
0
145
0.0
301
CELL_VALUE
 90
4
  1
10,4 mm
304
ACVALUE_END
170
5
140
0.125
171
1
172
0
173
0
174
0
175
1
176
1
 91
33
178
0
145
0.0
301
CELL_VALUE
 90
4
  1
Mounting Hole Depth
304
ACVALUE_END
170
5
140
0.125
171
1
172
0
173
0
174
0
175
2
176
1
 91
33
178
0
145
0.0
301
CELL_VALUE
 90
4
  1
Through
304
ACVALUE_END
170
5
140
0.125
171
1
172
0
173
1
174
0
175
1
176
1
 91
1
178
0
145
0.0
170
1
171
1
172
0
173
0
174
0
175
1
176
1
 91
33
178
0
145
0.0
301
CELL_VALUE
 90
4
  1
Mounting Hole Quantity
304
ACVALUE_END
170
5
140
0.125
171
1
172
0
173
0
174
0
175
2
176
1
 91
33
178
0
145
0.0
301
CELL_VALUE
 90
4
  1
2
304
ACVALUE_END
170
5
140
0.125
171
1
172
0
173
1
174
0
175
1
176
1
 91
1
178
0
145
0.0
170
1
171
1
172
0
173
0
174
0
175
1
176
1
 91
33
178
0
145
0.0
301
CELL_VALUE
 90
4
  1
Includes integral cartridge(s)
304
ACVALUE_END
170
5
140
0.125
171
1
172
0
173
0
174
0
175
2
176
1
 91
33
178
0
145
0.0
301
CELL_VALUE
 90
4
  1
Yes (see Included Components)
304
ACVALUE_END
170
5
140
0.125
171
1
172
0
173
1
174
0
175
1
176
1
 91
1
178
0
145
0.0
170
1
  0
ACAD_TABLE
  5
28E
100
AcDbEntity
  8
0
 62
2
  6
CONTINUOUS
100
AcDbBlockReference
  2
*T3
 10
0.52125
 20
1.959
 30
0.0
100
AcDbTable
342
       3BA
343
209
 11
1.0
 21
0.0
 31
0.0
 90
22
 91
5
 92
3
 93
16
 94
0
 95
0
 96
0
 41
0.05
141
0.34375
141
0.344
141
0.25
141
0.25
141
0.25
142
1.3
142
2.0
142
1.3
171
1
172
0
173
0
174
0
175
3
176
1
 91
33
178
0
145
0.0
301
CELL_VALUE
 90
4
  1
Port Headings
304
ACVALUE_END
170
5
140
0.145
171
1
172
0
173
1
174
0
175
1
176
1
 91
1
178
0
145
0.0
170
1
171
1
172
0
173
1
174
0
175
1
176
1
 91
1
178
0
145
0.0
170
1
171
1
172
0
173
0
174
0
175
1
176
1
 91
33
178
0
145
0.0
301
CELL_VALUE
 90
4
  1
Product
304
ACVALUE_END
170
5
140
0.145
171
1
172
0
173
0
174
0
175
1
176
1
 91
33
178
0
145
0.0
301
CELL_VALUE
 90
4
  1
Port
304
ACVALUE_END
170
5
140
0.145
171
1
172
0
173
0
174
0
175
1
176
1
 91
33
178
0
145
0.0
301
CELL_VALUE
 90
4
  1
Size
304
ACVALUE_END
170
5
140
0.145
171
1
172
0
173
0
174
0
175
1
176
1
 91
33
178
0
145
0.0
301
CELL_VALUE
 90
4
  1
H6X
304
ACVALUE_END
170
5
140
0.125
171
1
172
0
173
0
174
0
175
1
176
1
 91
33
178
0
145
0.0
301
CELL_VALUE
 90
4
  1
Ports 1 &  2
304
ACVALUE_END
170
5
140
0.125
171
1
172
0
173
0
174
0
175
1
176
1
 91
33
178
0
145
0.0
301
CELL_VALUE
 90
4
  1
1" BSPP
304
ACVALUE_END
170
5
140
0.125
171
1
172
0
173
0
174
0
175
1
176
1
 91
33
178
0
145
0.0
301
CELL_VALUE
 90
4
  1
H6X
304
ACVALUE_END
170
5
140
0.125
171
1
172
0
173
0
174
0
175
1
176
1
 91
33
178
0
145
0.0
301
CELL_VALUE
 90
4
  1
Port 3
304
ACVALUE_END
170
5
140
0.125
171
1
172
0
173
0
174
0
175
1
176
1
 91
33
178
0
145
0.0
301
CELL_VALUE
 90
4
  1
1/4" BSPP
304
ACVALUE_END
170
5
140
0.125
171
1
172
0
173
0
174
0
175
1
176
1
 91
33
178
0
145
0.0
301
CELL_VALUE
 90
4
  1
H6X
304
ACVALUE_END
170
5
140
0.125
171
1
172
0
173
0
174
0
175
1
176
1
 91
33
178
0
145
0.0
301
CELL_VALUE
 90
4
  1
Gage Port
304
ACVALUE_END
170
5
140
0.125
171
1
172
0
173
0
174
0
175
1
176
1
 91
33
178
0
145
0.0
301
CELL_VALUE
 90
4
  1
1/4" BSPP
304
ACVALUE_END
170
5
140
0.125
  0
MTEXT
  5
28F
100
AcDbEntity
  8
0
100
AcDbMText
 62
2
  6
CONTINUOUS
  7
STANDARD
 71
1
 72
1
 10
0.52125
 20
5.75995
 30
0.0
 11
1.0
 21
0.0
 31
0.0
 44
0.6
  3
Notes\P \P1. Important: Carefully consider\P   the maximum system pressure. The\P   pressure rating of the manifold is\P   dependent on the manifold material,\P   with the port type/size a secondary\P   consideration. Manifolds\P   constructed of alu
  1
minum are not\P   rated for pressures higher than\P   3000 psi (210 bar), regardless of\P   the port type/size specified.
 40
0.1
 41
3.04
  0
LINE
  5
290
100
AcDbEntity
  8
0
100
AcDbLine
 62
7
  6
CONTINUOUS
 10
0.30125
 20
0.30125
 11
0.30125
 21
16.69875
  0
LINE
  5
291
100
AcDbEntity
  8
0
100
AcDbLine
 62
7
  6
CONTINUOUS
 10
0.30125
 20
0.30125
 11
21.69875
 21
0.30125
  0
LINE
  5
292
100
AcDbEntity
  8
0
100
AcDbLine
 62
7
  6
CONTINUOUS
 10
0.30125
 20
16.69875
 11
21.69875
 21
16.69875
  0
LINE
  5
293
100
AcDbEntity
  8
0
100
AcDbLine
 62
7
  6
CONTINUOUS
 10
21.69875
 20
0.30125
 11
21.69875
 21
16.69875
  0
LINE
  5
294
100
AcDbEntity
  8
0
100
AcDbLine
 62
7
  6
CONTINUOUS
 10
7.6636608247
 20
10.7865297139
 11
8.3107079034
 21
11.4115292352
  0
LINE
  5
295
100
AcDbEntity
  8
0
100
AcDbLine
 62
7
  6
CONTINUOUS
 10
7.6636608247
 20
5.9569002963
 11
7.6636608247
 21
10.7865297139
  0
LINE
  5
296
100
AcDbEntity
  8
0
100
AcDbLine
 62
4
  6
CONTINUOUS
 10
8.3610591192
 20
6.2079725829
 11
8.3707183756
 21
6.2000582673
  0
LINE
  5
297
100
AcDbEntity
  8
0
100
AcDbLine
 62
4
  6
CONTINUOUS
 10
8.419014671
 20
6.2111977957
 11
8.4383331879
 21
6.1953691641
  0
LINE
  5
298
100
AcDbEntity
  8
0
100
AcDbLine
 62
4
  6
CONTINUOUS
 10
8.3417405997
 20
6.158601219
 11
8.3320813434
 21
6.1737599787
  0
LINE
  5
299
100
AcDbEntity
  8
0
100
AcDbLine
 62
4
  6
CONTINUOUS
 10
8.3707183756
 20
6.2000582673
 11
8.3803776388
 21
6.1848995071
  0
LINE
  5
29A
100
AcDbEntity
  8
0
100
AcDbLine
 62
4
  6
CONTINUOUS
 10
8.4383331879
 20
6.1953691641
 11
8.4479924468
 21
6.1802104043
  0
LINE
  5
29B
100
AcDbEntity
  8
0
100
AcDbLine
 62
4
  6
CONTINUOUS
 10
8.3320813434
 20
6.1737599787
 11
8.3320813434
 21
6.1882488666
  0
LINE
  5
29C
100
AcDbEntity
  8
0
100
AcDbLine
 62
4
  6
CONTINUOUS
 10
8.3803776388
 20
6.1704106192
 11
8.3803776388
 21
6.1848995071
  0
LINE
  5
29D
100
AcDbEntity
  8
0
100
AcDbLine
 62
7
  6
CONTINUOUS
 10
12.9762531841
 20
5.5884707648
 11
7.6636608247
 21
5.9569002963
  0
LINE
  5
29E
100
AcDbEntity
  8
0
100
AcDbLine
 62
4
  6
CONTINUOUS
 10
8.4479924468
 20
6.1802104043
 11
8.4479924468
 21
6.1657215164
  0
LINE
  5
29F
100
AcDbEntity
  8
0
100
AcDbLine
 62
4
  6
CONTINUOUS
 10
9.61000148
 20
10.4008927569
 11
9.6196607433
 21
10.4074673287
  0
LINE
  5
2A0
100
AcDbEntity
  8
0
100
AcDbLine
 62
4
  6
CONTINUOUS
 10
11.5321939908
 20
5.9397571542
 11
11.6481050942
 21
5.9317186919
  0
LINE
  5
2A1
100
AcDbEntity
  8
0
100
AcDbLine
 62
4
  6
CONTINUOUS
 10
8.3513998629
 20
6.2086424546
 11
8.3610591192
 21
6.2079725829
  0
LINE
  5
2A2
100
AcDbEntity
  8
0
100
AcDbLine
 62
4
  6
CONTINUOUS
 10
8.4093554112
 20
6.2118676677
 11
8.419014671
 21
6.2111977957
  0
LINE
  5
2A3
100
AcDbEntity
  8
0
100
AcDbLine
 62
4
  6
CONTINUOUS
 10
9.6003422237
 20
10.3870737407
 11
9.61000148
 21
10.4008927569
  0
LINE
  5
2A4
100
AcDbEntity
  8
0
100
AcDbLine
 62
7
  6
CONTINUOUS
 10
10.616434654
 20
10.9012355328
 11
10.6147878528
 21
10.8996746388
  0
LINE
  5
2A5
100
AcDbEntity
  8
0
100
AcDbLine
 62
4
  6
CONTINUOUS
 10
9.3126342972
 20
7.7150599412
 11
9.2960755691
 21
7.7327670227
  0
LINE
  5
2A6
100
AcDbEntity
  8
0
100
AcDbLine
 62
4
  6
CONTINUOUS
 10
9.2960755691
 20
7.7327670227
 11
9.2960755691
 21
7.7658844806
  0
LINE
  5
2A7
100
AcDbEntity
  8
0
100
AcDbLine
 62
4
  6
CONTINUOUS
 10
9.2960755691
 20
8.6324579545
 11
9.2960755691
 21
8.6352177321
  0
LINE
  5
2A8
100
AcDbEntity
  8
0
100
AcDbLine
 62
4
  6
CONTINUOUS
 10
9.3291930253
 20
8.4314565418
 11
9.3291930253
 21
8.3900597113
  0
LINE
  5
2A9
100
AcDbEntity
  8
0
100
AcDbLine
 62
4
  6
CONTINUOUS
 10
9.3291930253
 20
8.078203621
 11
9.3291930253
 21
8.1196004515
  0
LINE
  5
2AA
100
AcDbEntity
  8
0
100
AcDbLine
 62
4
  6
CONTINUOUS
 10
9.3291930253
 20
8.2493104985
 11
9.3291930253
 21
8.2824279408
  0
LINE
  5
2AB
100
AcDbEntity
  8
0
100
AcDbLine
 62
4
  6
CONTINUOUS
 10
9.3291930253
 20
8.3155454384
 11
9.3291930253
 21
8.3486628807
  0
LINE
  5
2AC
100
AcDbEntity
  8
0
100
AcDbLine
 62
4
  6
CONTINUOUS
 10
9.3291930253
 20
8.6825971922
 11
9.3291930253
 21
8.7157147451
  0
LINE
  5
2AD
100
AcDbEntity
  8
0
100
AcDbLine
 62
4
  6
CONTINUOUS
 10
9.3291930253
 20
8.7571115204
 11
9.3291930253
 21
8.7902289627
  0
LINE
  5
2AE
100
AcDbEntity
  8
0
100
AcDbLine
 62
4
  6
CONTINUOUS
 10
9.3705898489
 20
8.403747553
 11
9.3705898489
 21
8.4368649953
  0
LINE
  5
2AF
100
AcDbEntity
  8
0
100
AcDbLine
 62
4
  6
CONTINUOUS
 10
9.4119866726
 20
8.7099729862
 11
9.4119866726
 21
8.6768554333
  0
LINE
  5
2B0
100
AcDbEntity
  8
0
100
AcDbLine
 62
4
  6
CONTINUOUS
 10
9.4119866726
 20
8.5747433286
 11
9.4119866726
 21
8.5581846075
  0
LINE
  5
2B1
100
AcDbEntity
  8
0
100
AcDbLine
 62
4
  6
CONTINUOUS
 10
9.4119866726
 20
8.4339941158
 11
9.4119866726
 21
8.4008766735
  0
LINE
  5
2B2
100
AcDbEntity
  8
0
100
AcDbLine
 62
4
  6
CONTINUOUS
 10
9.4119866726
 20
8.2766861818
 11
9.4119866726
 21
8.2435687395
  0
LINE
  5
2B3
100
AcDbEntity
  8
0
100
AcDbLine
 62
4
  6
CONTINUOUS
 10
9.4119866726
 20
7.7164491955
 11
9.4119866726
 21
7.7495666542
  0
LINE
  5
2B4
100
AcDbEntity
  8
0
100
AcDbLine
 62
4
  6
CONTINUOUS
 10
9.4119866726
 20
7.8158015665
 11
9.4119866726
 21
7.840639669
  0
LINE
  5
2B5
100
AcDbEntity
  8
0
100
AcDbLine
 62
4
  6
CONTINUOUS
 10
9.4119866726
 20
8.4753909464
 11
9.4119866726
 21
8.5167877769
  0
LINE
  5
2B6
100
AcDbEntity
  8
0
100
AcDbLine
 62
4
  6
CONTINUOUS
 10
9.4119866726
 20
8.7513697614
 11
9.4119866726
 21
8.7844872038
  0
LINE
  5
2B7
100
AcDbEntity
  8
0
100
AcDbLine
 62
4
  6
CONTINUOUS
 10
9.4395845544
 20
8.1533416035
 11
9.4395845544
 21
8.1699003247
  0
LINE
  5
2B8
100
AcDbEntity
  8
0
100
AcDbLine
 62
4
  6
CONTINUOUS
 10
9.3733496369
 20
8.7871666913
 11
9.3678300609
 21
8.7544320329
  0
LINE
  5
2B9
100
AcDbEntity
  8
0
100
AcDbLine
 62
4
  6
CONTINUOUS
 10
9.378869213
 20
8.7950632403
 11
9.3733496369
 21
8.7871666913
  0
LINE
  5
2BA
100
AcDbEntity
  8
0
100
AcDbLine
 62
4
  6
CONTINUOUS
 10
9.3678300609
 20
8.7544320329
 11
9.3623104849
 21
8.7465354838
  0
LINE
  5
2BB
100
AcDbEntity
  8
0
100
AcDbLine
 62
4
  6
CONTINUOUS
 10
9.4119866726
 20
7.7495666542
 11
9.3954279428
 21
7.7672737341
  0
LINE
  5
2BC
100
AcDbEntity
  8
0
100
AcDbLine
 62
4
  6
CONTINUOUS
 10
9.4119866726
 20
7.840639669
 11
9.3954279428
 21
7.858346742
  0
LINE
  5
2BD
100
AcDbEntity
  8
0
100
AcDbLine
 62
4
  6
CONTINUOUS
 10
9.3374723928
 20
8.2321776012
 11
9.3291930253
 21
8.2493104985
  0
LINE
  5
2BE
100
AcDbEntity
  8
0
100
AcDbLine
 62
4
  6
CONTINUOUS
 10
9.378869213
 20
8.386614656
 11
9.3705898489
 21
8.403747553
  0
LINE
  5
2BF
100
AcDbEntity
  8
0
100
AcDbLine
 62
4
  6
CONTINUOUS
 10
9.6003422237
 20
10.3725848527
 11
9.6003422237
 21
10.3870737407
  0
LINE
  5
2C0
100
AcDbEntity
  8
0
100
AcDbLine
 62
4
  6
CONTINUOUS
 10
9.6818939533
 20
8.2400294661
 11
9.6818939533
 21
8.2041522116
  0
LINE
  5
2C1
100
AcDbEntity
  8
0
100
AcDbLine
 62
4
  6
CONTINUOUS
 10
9.6818939533
 20
8.1075596277
 11
9.6818939533
 21
8.1655151794
  0
LINE
  5
2C2
100
AcDbEntity
  8
0
100
AcDbLine
 62
4
  6
CONTINUOUS
 10
9.7162533272
 20
10.3428130585
 11
9.7162533272
 21
10.4007686102
  0
LINE
  5
2C3
100
AcDbEntity
  8
0
100
AcDbLine
 62
4
  6
CONTINUOUS
 10
9.7481288725
 20
8.2105979564
 11
9.7481288725
 21
8.2354360589
  0
LINE
  5
2C4
100
AcDbEntity
  8
0
100
AcDbLine
 62
4
  6
CONTINUOUS
 10
9.4119866726
 20
8.4008766735
 11
9.4037073077
 21
8.3848921282
  0
LINE
  5
2C5
100
AcDbEntity
  8
0
100
AcDbLine
 62
4
  6
CONTINUOUS
 10
9.4119866726
 20
8.2435687395
 11
9.4037073077
 21
8.2275841943
  0
LINE
  5
2C6
100
AcDbEntity
  8
0
100
AcDbLine
 62
4
  6
CONTINUOUS
 10
9.3291930253
 20
8.7902289627
 11
9.3374723928
 21
8.7979341196
  0
LINE
  5
2C7
100
AcDbEntity
  8
0
100
AcDbLine
 62
4
  6
CONTINUOUS
 10
9.4037073077
 20
8.7436646044
 11
9.4119866726
 21
8.7513697614
  0
LINE
  5
2C8
100
AcDbEntity
  8
0
100
AcDbLine
 62
4
  6
CONTINUOUS
 10
9.4119866726
 20
8.6768554333
 11
9.4037073077
 21
8.6691502763
  0
LINE
  5
2C9
100
AcDbEntity
  8
0
100
AcDbLine
 62
4
  6
CONTINUOUS
 10
9.9865745703
 20
7.8532278377
 11
10.0031333001
 21
7.8355207578
  0
LINE
  5
2CA
100
AcDbEntity
  8
0
100
AcDbLine
 62
4
  6
CONTINUOUS
 10
9.6322177691
 20
8.2434745212
 11
9.6570558646
 21
8.216913891
  0
LINE
  5
2CB
100
AcDbEntity
  8
0
100
AcDbLine
 62
4
  6
CONTINUOUS
 10
9.9313788048
 20
7.7770218246
 11
9.9534571124
 21
7.7313340772
  0
LINE
  5
2CC
100
AcDbEntity
  8
0
100
AcDbLine
 62
4
  6
CONTINUOUS
 10
9.8872221966
 20
7.8021624034
 11
9.8872221966
 21
7.8435592201
  0
LINE
  5
2CD
100
AcDbEntity
  8
0
100
AcDbLine
 62
4
  6
CONTINUOUS
 10
9.8872221966
 20
8.0063867163
 11
9.8872221966
 21
8.0726216286
  0
LINE
  5
2CE
100
AcDbEntity
  8
0
100
AcDbLine
 62
4
  6
CONTINUOUS
 10
9.8872221966
 20
8.1057390986
 11
9.8872221966
 21
8.1554152897
  0
LINE
  5
2CF
100
AcDbEntity
  8
0
100
AcDbLine
 62
4
  6
CONTINUOUS
 10
9.8872221966
 20
8.2961645025
 11
9.8872221966
 21
8.3292819448
  0
LINE
  5
2D0
100
AcDbEntity
  8
0
100
AcDbLine
 62
4
  6
CONTINUOUS
 10
9.8872221966
 20
8.3927570519
 11
9.8872221966
 21
8.4175951612
  0
LINE
  5
2D1
100
AcDbEntity
  8
0
100
AcDbLine
 62
4
  6
CONTINUOUS
 10
9.8872221966
 20
8.4672713247
 11
9.8872221966
 21
8.5086681553
  0
LINE
  5
2D2
100
AcDbEntity
  8
0
100
AcDbLine
 62
4
  6
CONTINUOUS
 10
9.8872221966
 20
8.5721433176
 11
9.8872221966
 21
8.6218194811
  0
LINE
  5
2D3
100
AcDbEntity
  8
0
100
AcDbLine
 62
4
  6
CONTINUOUS
 10
9.9368983809
 20
8.6018157048
 11
9.9368983809
 21
8.5686982625
  0
LINE
  5
2D4
100
AcDbEntity
  8
0
100
AcDbLine
 62
4
  6
CONTINUOUS
 10
9.9368983809
 20
8.1354115135
 11
9.9368983809
 21
8.1022940435
  0
LINE
  5
2D5
100
AcDbEntity
  8
0
100
AcDbLine
 62
4
  6
CONTINUOUS
 10
9.9700158405
 20
7.9123317412
 11
9.9700158405
 21
7.9564883494
  0
LINE
  5
2D6
100
AcDbEntity
  8
0
100
AcDbLine
 62
4
  6
CONTINUOUS
 10
10.0031333001
 20
8.500629693
 11
10.0031333001
 21
8.4592328624
  0
LINE
  5
2D7
100
AcDbEntity
  8
0
100
AcDbLine
 62
4
  6
CONTINUOUS
 10
10.0031333001
 20
8.4095566989
 11
10.0031333001
 21
8.3847185895
  0
LINE
  5
2D8
100
AcDbEntity
  8
0
100
AcDbLine
 62
4
  6
CONTINUOUS
 10
10.0031333001
 20
8.3212434825
 11
10.0031333001
 21
8.2881260402
  0
LINE
  5
2D9
100
AcDbEntity
  8
0
100
AcDbLine
 62
4
  6
CONTINUOUS
 10
10.0031333001
 20
7.8355207578
 11
10.0031333001
 21
7.7941239411
  0
LINE
  5
2DA
100
AcDbEntity
  8
0
100
AcDbLine
 62
4
  6
CONTINUOUS
 10
10.0031333001
 20
8.0977006362
 11
10.0031333001
 21
8.1473768274
  0
LINE
  5
2DB
100
AcDbEntity
  8
0
100
AcDbLine
 62
4
  6
CONTINUOUS
 10
10.0031333001
 20
8.5641048553
 11
10.0031333001
 21
8.6137810187
  0
LINE
  5
2DC
100
AcDbEntity
  8
0
100
AcDbLine
 62
4
  6
CONTINUOUS
 10
9.9313788048
 20
8.6518746522
 11
9.9534571124
 21
8.6945001246
  0
LINE
  5
2DD
100
AcDbEntity
  8
0
100
AcDbLine
 62
4
  6
CONTINUOUS
 10
8.3320813434
 20
6.1882488666
 11
8.3417405997
 21
6.2020678828
  0
LINE
  5
2DE
100
AcDbEntity
  8
0
100
AcDbLine
 62
4
  6
CONTINUOUS
 10
9.4119866726
 20
8.5581846075
 11
9.4037073077
 21
8.5504793952
  0
LINE
  5
2DF
100
AcDbEntity
  8
0
100
AcDbLine
 62
4
  6
CONTINUOUS
 10
9.4037073077
 20
8.4676857341
 11
9.4119866726
 21
8.4753909464
  0
LINE
  5
2E0
100
AcDbEntity
  8
0
100
AcDbLine
 62
4
  6
CONTINUOUS
 10
9.3291930253
 20
8.1196004515
 11
9.3374723928
 21
8.127305636
  0
LINE
  5
2E1
100
AcDbEntity
  8
0
100
AcDbLine
 62
4
  6
CONTINUOUS
 10
11.679980614
 20
7.4812683317
 11
11.6510028381
 21
7.4760335033
  0
LINE
  5
2E2
100
AcDbEntity
  8
0
100
AcDbLine
 62
4
  6
CONTINUOUS
 10
11.6510028381
 20
7.5484779429
 11
11.6896398721
 21
7.5457984555
  0
LINE
  5
2E3
100
AcDbEntity
  8
0
100
AcDbLine
 62
4
  6
CONTINUOUS
 10
9.3291930253
 20
7.7139115895
 11
9.3126342972
 21
7.7150599412
  0
LINE
  5
2E4
100
AcDbEntity
  8
0
100
AcDbLine
 62
4
  6
CONTINUOUS
 10
10.0031333001
 20
7.8989958855
 11
9.8872221966
 21
7.940151804
  0
LINE
  5
2E5
100
AcDbEntity
  8
0
100
AcDbLine
 62
4
  6
CONTINUOUS
 10
9.4395845544
 20
8.1699003247
 11
9.3291930253
 21
8.2106734456
  0
LINE
  5
2E6
100
AcDbEntity
  8
0
100
AcDbLine
 62
4
  6
CONTINUOUS
 10
9.6570558646
 20
8.216913891
 11
9.6901733208
 21
8.1980584595
  0
LINE
  5
2E7
100
AcDbEntity
  8
0
100
AcDbLine
 62
4
  6
CONTINUOUS
 10
9.7481288725
 20
8.2851122362
 11
9.6322177691
 21
8.3593856108
  0
LINE
  5
2E8
100
AcDbEntity
  8
0
100
AcDbLine
 62
4
  6
CONTINUOUS
 10
9.3374723928
 20
8.6737436832
 11
9.3291930253
 21
8.6825971922
  0
LINE
  5
2E9
100
AcDbEntity
  8
0
100
AcDbLine
 62
4
  6
CONTINUOUS
 10
9.7481288725
 20
8.2354360589
 11
9.7315701427
 21
8.2531431319
  0
LINE
  5
2EA
100
AcDbEntity
  8
0
100
AcDbLine
 62
4
  6
CONTINUOUS
 10
9.3374723928
 20
8.7482580114
 11
9.3291930253
 21
8.7571115204
  0
LINE
  5
2EB
100
AcDbEntity
  8
0
100
AcDbLine
 62
4
  6
CONTINUOUS
 10
9.4119866726
 20
8.7844872038
 11
9.4037073077
 21
8.7933407126
  0
LINE
  5
2EC
100
AcDbEntity
  8
0
100
AcDbLine
 62
4
  6
CONTINUOUS
 10
9.9037809247
 20
8.2784574297
 11
9.8872221966
 21
8.2961645025
  0
LINE
  5
2ED
100
AcDbEntity
  8
0
100
AcDbLine
 62
4
  6
CONTINUOUS
 10
9.9037809247
 20
8.375049979
 11
9.8872221966
 21
8.3927570519
  0
LINE
  5
2EE
100
AcDbEntity
  8
0
100
AcDbLine
 62
4
  6
CONTINUOUS
 10
9.9534571124
 20
8.6945001246
 11
9.9755354182
 21
8.6488123807
  0
LINE
  5
2EF
100
AcDbEntity
  8
0
100
AcDbLine
 62
4
  6
CONTINUOUS
 10
9.9534571124
 20
7.7313340772
 11
9.9755354182
 21
7.7739595531
  0
LINE
  5
2F0
100
AcDbEntity
  8
0
100
AcDbLine
 62
4
  6
CONTINUOUS
 10
8.3803776388
 20
6.1848995071
 11
8.3900368951
 21
6.1987185234
  0
LINE
  5
2F1
100
AcDbEntity
  8
0
100
AcDbLine
 62
4
  6
CONTINUOUS
 10
8.4479924468
 20
6.1657215164
 11
8.4383331879
 21
6.1519025003
  0
LINE
  5
2F2
100
AcDbEntity
  8
0
100
AcDbLine
 62
4
  6
CONTINUOUS
 10
9.378869213
 20
7.7684220859
 11
9.3291930253
 21
7.7139115895
  0
LINE
  5
2F3
100
AcDbEntity
  8
0
100
AcDbLine
 62
4
  6
CONTINUOUS
 10
9.8872221966
 20
8.5086681553
 11
9.9037809247
 21
8.5240785248
  0
LINE
  5
2F4
100
AcDbEntity
  8
0
100
AcDbLine
 62
4
  6
CONTINUOUS
 10
9.6984526848
 20
8.2554398354
 11
9.6818939533
 21
8.2400294661
  0
LINE
  5
2F5
100
AcDbEntity
  8
0
100
AcDbLine
 62
4
  6
CONTINUOUS
 10
9.8872221966
 20
8.4175951612
 11
9.9037809247
 21
8.4330055307
  0
LINE
  5
2F6
100
AcDbEntity
  8
0
100
AcDbLine
 62
4
  6
CONTINUOUS
 10
9.7315701427
 20
8.1951875801
 11
9.7481288725
 21
8.2105979564
  0
LINE
  5
2F7
100
AcDbEntity
  8
0
100
AcDbLine
 62
4
  6
CONTINUOUS
 10
9.2960755691
 20
7.7658844806
 11
9.3043549366
 21
7.7735896685
  0
LINE
  5
2F8
100
AcDbEntity
  8
0
100
AcDbLine
 62
4
  6
CONTINUOUS
 10
10.0031333001
 20
8.3847185895
 11
9.9865745703
 21
8.3693082202
  0
LINE
  5
2F9
100
AcDbEntity
  8
0
100
AcDbLine
 62
4
  6
CONTINUOUS
 10
9.3954279428
 20
7.8003911902
 11
9.4119866726
 21
7.8158015665
  0
LINE
  5
2FA
100
AcDbEntity
  8
0
100
AcDbLine
 62
4
  6
CONTINUOUS
 10
9.3291930253
 20
8.3486628807
 11
9.3374723928
 21
8.3536082599
  0
LINE
  5
2FB
100
AcDbEntity
  8
0
100
AcDbLine
 62
4
  6
CONTINUOUS
 10
9.3457517534
 20
8.4385875231
 11
9.3291930253
 21
8.4314565418
  0
LINE
  5
2FC
100
AcDbEntity
  8
0
100
AcDbLine
 62
4
  6
CONTINUOUS
 10
9.3954279428
 20
7.7672737341
 11
9.378869213
 21
7.7684220859
  0
LINE
  5
2FD
100
AcDbEntity
  8
0
100
AcDbLine
 62
4
  6
CONTINUOUS
 10
9.2960755691
 20
7.8072813007
 11
9.3954279428
 21
7.8003911902
  0
LINE
  5
2FE
100
AcDbEntity
  8
0
100
AcDbLine
 62
4
  6
CONTINUOUS
 10
10.0031333001
 20
7.7941239411
 11
9.8872221966
 21
7.8021624034
  0
LINE
  5
2FF
100
AcDbEntity
  8
0
100
AcDbLine
 62
4
  6
CONTINUOUS
 10
9.3954279428
 20
7.858346742
 11
9.2960755691
 21
7.8652368525
  0
LINE
  5
300
100
AcDbEntity
  8
0
100
AcDbLine
 62
4
  6
CONTINUOUS
 10
9.4119866726
 20
7.8903158463
 11
9.2960755691
 21
7.8983543086
  0
LINE
  5
301
100
AcDbEntity
  8
0
100
AcDbLine
 62
4
  6
CONTINUOUS
 10
9.9037809247
 20
7.8589695965
 11
9.9865745703
 21
7.8532278377
  0
LINE
  5
302
100
AcDbEntity
  8
0
100
AcDbLine
 62
4
  6
CONTINUOUS
 10
9.4119866726
 20
7.948271398
 11
9.2960755691
 21
7.9563098603
  0
LINE
  5
303
100
AcDbEntity
  8
0
100
AcDbLine
 62
4
  6
CONTINUOUS
 10
11.6510028381
 20
7.4760335033
 11
11.6220250623
 21
7.4852875628
  0
LINE
  5
304
100
AcDbEntity
  8
0
100
AcDbLine
 62
4
  6
CONTINUOUS
 10
9.9865745703
 20
8.4272637719
 11
10.0031333001
 21
8.4095566989
  0
LINE
  5
305
100
AcDbEntity
  8
0
100
AcDbLine
 62
4
  6
CONTINUOUS
 10
9.9865745703
 20
8.5183367659
 11
10.0031333001
 21
8.500629693
  0
LINE
  5
306
100
AcDbEntity
  8
0
100
AcDbLine
 62
4
  6
CONTINUOUS
 10
10.0031333001
 20
8.2881260402
 11
9.9865745703
 21
8.2727156708
  0
LINE
  5
307
100
AcDbEntity
  8
0
100
AcDbLine
 62
4
  6
CONTINUOUS
 10
9.4037073077
 20
7.7087440065
 11
9.4119866726
 21
7.7164491955
  0
LINE
  5
308
100
AcDbEntity
  8
0
100
AcDbLine
 62
4
  6
CONTINUOUS
 10
9.8872221966
 20
7.8435592201
 11
9.9037809247
 21
7.8589695965
  0
LINE
  5
309
100
AcDbEntity
  8
0
100
AcDbLine
 62
4
  6
CONTINUOUS
 10
9.6322177691
 20
8.2931506985
 11
9.7481288725
 21
8.3513471485
  0
LINE
  5
30A
100
AcDbEntity
  8
0
100
AcDbLine
 62
4
  6
CONTINUOUS
 10
9.8872221966
 20
7.940151804
 11
10.0031333001
 21
7.9652308116
  0
LINE
  5
30B
100
AcDbEntity
  8
0
100
AcDbLine
 62
4
  6
CONTINUOUS
 10
9.4119866726
 20
8.072461862
 11
9.2960755691
 21
8.0805003243
  0
LINE
  5
30C
100
AcDbEntity
  8
0
100
AcDbLine
 62
4
  6
CONTINUOUS
 10
10.0031333001
 20
8.0314657239
 11
9.8872221966
 21
8.0395041863
  0
LINE
  5
30D
100
AcDbEntity
  8
0
100
AcDbLine
 62
4
  6
CONTINUOUS
 10
9.3374723928
 20
8.127305636
 11
9.4119866726
 21
8.1221380532
  0
LINE
  5
30E
100
AcDbEntity
  8
0
100
AcDbLine
 62
4
  6
CONTINUOUS
 10
9.7481288725
 20
8.1029662205
 11
9.6322177691
 21
8.1110046828
  0
LINE
  5
30F
100
AcDbEntity
  8
0
100
AcDbLine
 62
4
  6
CONTINUOUS
 10
10.0031333001
 20
8.0977006362
 11
9.8872221966
 21
8.1057390986
  0
LINE
  5
310
100
AcDbEntity
  8
0
100
AcDbLine
 62
4
  6
CONTINUOUS
 10
9.6322177691
 20
8.1689602345
 11
9.7481288725
 21
8.1609217722
  0
LINE
  5
311
100
AcDbEntity
  8
0
100
AcDbLine
 62
4
  6
CONTINUOUS
 10
9.6901733208
 20
8.1980584595
 11
9.7315701427
 21
8.1951875801
  0
LINE
  5
312
100
AcDbEntity
  8
0
100
AcDbLine
 62
4
  6
CONTINUOUS
 10
9.4037073077
 20
8.2275841943
 11
9.3374723928
 21
8.2321776012
  0
LINE
  5
313
100
AcDbEntity
  8
0
100
AcDbLine
 62
4
  6
CONTINUOUS
 10
9.7315701427
 20
8.2531431319
 11
9.6984526848
 21
8.2554398354
  0
LINE
  5
314
100
AcDbEntity
  8
0
100
AcDbLine
 62
4
  6
CONTINUOUS
 10
9.2960755691
 20
8.2847246442
 11
9.4119866726
 21
8.2766861818
  0
LINE
  5
315
100
AcDbEntity
  8
0
100
AcDbLine
 62
4
  6
CONTINUOUS
 10
9.4119866726
 20
8.3098036795
 11
9.3291930253
 21
8.3155454384
  0
LINE
  5
316
100
AcDbEntity
  8
0
100
AcDbLine
 62
4
  6
CONTINUOUS
 10
9.9865745703
 20
8.2727156708
 11
9.9037809247
 21
8.2784574297
  0
LINE
  5
317
100
AcDbEntity
  8
0
100
AcDbLine
 62
4
  6
CONTINUOUS
 10
9.3374723928
 20
8.3536082599
 11
9.3540311208
 21
8.3524599082
  0
LINE
  5
318
100
AcDbEntity
  8
0
100
AcDbLine
 62
4
  6
CONTINUOUS
 10
9.2960755691
 20
8.6352177321
 11
9.3043549366
 21
8.6318837784
  0
LINE
  5
319
100
AcDbEntity
  8
0
100
AcDbLine
 62
4
  6
CONTINUOUS
 10
11.6220250623
 20
7.4852875628
 11
11.6027065428
 21
7.5011161946
  0
LINE
  5
31A
100
AcDbEntity
  8
0
100
AcDbLine
 62
4
  6
CONTINUOUS
 10
11.6896398721
 20
7.5457984555
 11
11.699299131
 21
7.5378841397
  0
LINE
  5
31B
100
AcDbEntity
  8
0
100
AcDbLine
 62
7
  6
CONTINUOUS
 10
12.9762531841
 20
10.4181001824
 11
13.6233002628
 21
11.0430997037
  0
LINE
  5
31C
100
AcDbEntity
  8
0
100
AcDbLine
 62
4
  6
CONTINUOUS
 10
9.2960755691
 20
7.8983543086
 11
9.4119866726
 21
7.948271398
  0
LINE
  5
31D
100
AcDbEntity
  8
0
100
AcDbLine
 62
4
  6
CONTINUOUS
 10
9.4037073077
 20
8.3848921282
 11
9.378869213
 21
8.386614656
  0
LINE
  5
31E
100
AcDbEntity
  8
0
100
AcDbLine
 62
4
  6
CONTINUOUS
 10
9.9865745703
 20
8.3693082202
 11
9.9037809247
 21
8.375049979
  0
LINE
  5
31F
100
AcDbEntity
  8
0
100
AcDbLine
 62
4
  6
CONTINUOUS
 10
9.4119866726
 20
8.4339941158
 11
9.3457517534
 21
8.4385875231
  0
LINE
  5
320
100
AcDbEntity
  8
0
100
AcDbLine
 62
4
  6
CONTINUOUS
 10
9.3291930253
 20
8.4728533171
 11
9.4037073077
 21
8.4676857341
  0
LINE
  5
321
100
AcDbEntity
  8
0
100
AcDbLine
 62
4
  6
CONTINUOUS
 10
9.9037809247
 20
8.4330055307
 11
9.9865745703
 21
8.4272637719
  0
LINE
  5
322
100
AcDbEntity
  8
0
100
AcDbLine
 62
4
  6
CONTINUOUS
 10
10.0031333001
 20
8.4592328624
 11
9.8872221966
 21
8.4672713247
  0
LINE
  5
323
100
AcDbEntity
  8
0
100
AcDbLine
 62
4
  6
CONTINUOUS
 10
9.4119866726
 20
8.5167877769
 11
9.3291930253
 21
8.5225295359
  0
LINE
  5
324
100
AcDbEntity
  8
0
100
AcDbLine
 62
4
  6
CONTINUOUS
 10
9.4037073077
 20
8.5504793952
 11
9.2960755691
 21
8.5579436816
  0
LINE
  5
325
100
AcDbEntity
  8
0
100
AcDbLine
 62
4
  6
CONTINUOUS
 10
9.9037809247
 20
8.5240785248
 11
9.9865745703
 21
8.5183367659
  0
LINE
  5
326
100
AcDbEntity
  8
0
100
AcDbLine
 62
4
  6
CONTINUOUS
 10
10.0031333001
 20
8.5641048553
 11
9.8872221966
 21
8.5721433176
  0
LINE
  5
327
100
AcDbEntity
  8
0
100
AcDbLine
 62
4
  6
CONTINUOUS
 10
9.4119866726
 20
8.6244194921
 11
9.3291930253
 21
8.6301612511
  0
LINE
  5
328
100
AcDbEntity
  8
0
100
AcDbLine
 62
4
  6
CONTINUOUS
 10
9.3043549366
 20
8.6318837784
 11
9.2960755691
 21
8.6324579545
  0
LINE
  5
329
100
AcDbEntity
  8
0
100
AcDbLine
 62
4
  6
CONTINUOUS
 10
9.61000148
 20
10.3574260931
 11
9.6003422237
 21
10.3725848527
  0
LINE
  5
32A
100
AcDbEntity
  8
0
100
AcDbLine
 62
4
  6
CONTINUOUS
 10
9.6486385191
 20
10.3982132691
 11
9.6679570352
 21
10.3678957496
  0
LINE
  5
32B
100
AcDbEntity
  8
0
100
AcDbLine
 62
4
  6
CONTINUOUS
 10
11.6027065428
 20
7.5011161946
 11
11.5930472864
 21
7.5162749543
  0
LINE
  5
32C
100
AcDbEntity
  8
0
100
AcDbLine
 62
4
  6
CONTINUOUS
 10
9.3291930253
 20
8.1609972821
 11
9.4119866726
 21
8.1800936325
  0
LINE
  5
32D
100
AcDbEntity
  8
0
100
AcDbLine
 62
4
  6
CONTINUOUS
 10
9.4037073077
 20
8.6691502763
 11
9.3374723928
 21
8.6737436832
  0
LINE
  5
32E
100
AcDbEntity
  8
0
100
AcDbLine
 62
4
  6
CONTINUOUS
 10
9.3623104849
 20
8.7465354838
 11
9.3374723928
 21
8.7482580114
  0
LINE
  5
32F
100
AcDbEntity
  8
0
100
AcDbLine
 62
4
  6
CONTINUOUS
 10
9.4037073077
 20
8.7933407126
 11
9.378869213
 21
8.7950632403
  0
LINE
  5
330
100
AcDbEntity
  8
0
100
AcDbLine
 62
7
  6
CONTINUOUS
 10
13.2311412708
 20
8.6258395013
 11
13.3627247757
 21
8.6167141542
  0
LINE
  5
331
100
AcDbEntity
  8
0
100
AcDbLine
 62
4
  6
CONTINUOUS
 10
11.699299131
 20
7.5378841397
 11
11.7089583899
 21
7.5227253799
  0
LINE
  5
332
100
AcDbEntity
  8
0
100
AcDbLine
 62
4
  6
CONTINUOUS
 10
11.5930472864
 20
7.5162749543
 11
11.5930472864
 21
7.5307638422
  0
LINE
  5
333
100
AcDbEntity
  8
0
100
AcDbLine
 62
4
  6
CONTINUOUS
 10
8.3417405997
 20
6.2020678828
 11
8.3513998629
 21
6.2086424546
  0
LINE
  5
334
100
AcDbEntity
  8
0
100
AcDbLine
 62
4
  6
CONTINUOUS
 10
8.3900368951
 20
6.1987185234
 11
8.4093554112
 21
6.2118676677
  0
LINE
  5
335
100
AcDbEntity
  8
0
100
AcDbLine
 62
4
  6
CONTINUOUS
 10
8.4383331879
 20
6.1519025003
 11
8.428673929
 21
6.1453279282
  0
LINE
  5
336
100
AcDbEntity
  8
0
100
AcDbLine
 62
7
  6
CONTINUOUS
 10
13.3693361147
 20
8.7042240235
 11
14.0396042869
 21
8.6577407679
  0
LINE
  5
337
100
AcDbEntity
  8
0
100
AcDbLine
 62
7
  6
CONTINUOUS
 10
13.3591948156
 20
8.7162797622
 11
14.0294629878
 21
8.6697965066
  0
LINE
  5
338
100
AcDbEntity
  8
0
100
AcDbLine
 62
4
  6
CONTINUOUS
 10
9.6196607433
 20
10.349511777
 11
9.61000148
 21
10.3574260931
  0
LINE
  5
339
100
AcDbEntity
  8
0
100
AcDbLine
 62
4
  6
CONTINUOUS
 10
9.6679570352
 20
10.3678957496
 11
9.6872755513
 21
10.3520671181
  0
LINE
  5
33A
100
AcDbEntity
  8
0
100
AcDbLine
 62
4
  6
CONTINUOUS
 10
9.6389792559
 20
10.4061275853
 11
9.6486385191
 21
10.3982132691
  0
LINE
  5
33B
100
AcDbEntity
  8
0
100
AcDbLine
 62
4
  6
CONTINUOUS
 10
11.6510028381
 20
7.5195001671
 11
11.6510028381
 21
7.5484779429
  0
LINE
  5
33C
100
AcDbEntity
  8
0
100
AcDbLine
 62
4
  6
CONTINUOUS
 10
11.7089583899
 20
7.5227253799
 11
11.7089583899
 21
7.5082364919
  0
LINE
  5
33D
100
AcDbEntity
  8
0
100
AcDbLine
 62
7
  6
CONTINUOUS
 10
13.5426039332
 20
10.0790155986
 11
13.3693361147
 21
9.9116517279
  0
LINE
  5
33E
100
AcDbEntity
  8
0
100
AcDbLine
 62
7
  6
CONTINUOUS
 10
13.2725609063
 20
9.192608715
 11
13.9428290785
 21
9.1461254594
  0
LINE
  5
33F
100
AcDbEntity
  8
0
100
AcDbLine
 62
7
  6
CONTINUOUS
 10
13.2725609063
 20
9.2363116791
 11
13.9428290785
 21
9.1898284234
  0
LINE
  5
340
100
AcDbEntity
  8
0
100
AcDbLine
 62
4
  6
CONTINUOUS
 10
11.5930472864
 20
7.5307638422
 11
11.6027065428
 21
7.5445828584
  0
LINE
  5
341
100
AcDbEntity
  8
0
100
AcDbLine
 62
4
  6
CONTINUOUS
 10
11.7089583899
 20
7.5082364919
 11
11.699299131
 21
7.4944174759
  0
LINE
  5
342
100
AcDbEntity
  8
0
100
AcDbLine
 62
4
  6
CONTINUOUS
 10
11.6027065428
 20
7.5445828584
 11
11.612365806
 21
7.5511574302
  0
LINE
  5
343
100
AcDbEntity
  8
0
100
AcDbLine
 62
4
  6
CONTINUOUS
 10
11.699299131
 20
7.4944174759
 11
11.679980614
 21
7.4812683317
  0
LINE
  5
344
100
AcDbEntity
  8
0
100
AcDbLine
 62
4
  6
CONTINUOUS
 10
9.6872755513
 20
10.3520671181
 11
9.7162533272
 21
10.3428130585
  0
LINE
  5
345
100
AcDbEntity
  8
0
100
AcDbLine
 62
4
  6
CONTINUOUS
 10
13.2486600039
 20
8.4306176233
 11
13.2525422863
 21
8.4343676204
  0
LINE
  5
346
100
AcDbEntity
  8
0
100
AcDbLine
 62
4
  6
CONTINUOUS
 10
13.3049530985
 20
8.4270370288
 11
13.320482228
 21
8.4420370169
  0
LINE
  5
347
100
AcDbEntity
  8
0
100
AcDbLine
 62
4
  6
CONTINUOUS
 10
13.3379524988
 20
8.4395934875
 11
13.3495993459
 21
8.4508434787
  0
LINE
  5
348
100
AcDbEntity
  8
0
100
AcDbLine
 62
4
  6
CONTINUOUS
 10
13.2525422863
 20
8.318456517
 11
13.2486600039
 21
8.3147065199
  0
LINE
  5
349
100
AcDbEntity
  8
0
100
AcDbLine
 62
7
  6
CONTINUOUS
 10
13.3591948156
 20
9.8800045025
 11
14.0294629878
 21
9.8335212469
  0
LINE
  5
34A
100
AcDbEntity
  8
0
100
AcDbLine
 62
7
  6
CONTINUOUS
 10
13.3693361147
 20
9.9116517279
 11
14.0396042869
 21
9.8651684723
  0
LINE
  5
34B
100
AcDbEntity
  8
0
100
AcDbLine
 62
7
  6
CONTINUOUS
 10
13.5426039332
 20
10.0790155986
 11
14.2128721054
 21
10.0325323429
  0
LINE
  5
34C
100
AcDbEntity
  8
0
100
AcDbLine
 62
4
  6
CONTINUOUS
 10
9.6196607433
 20
10.4074673287
 11
9.6389792559
 21
10.4061275853
  0
LINE
  5
34D
100
AcDbEntity
  8
0
100
AcDbLine
 62
4
  6
CONTINUOUS
 10
13.2486600039
 20
8.3147065199
 11
13.2447777215
 21
8.3206157818
  0
LINE
  5
34E
100
AcDbEntity
  8
0
100
AcDbLine
 62
7
  6
CONTINUOUS
 10
12.9762531841
 20
10.4181001824
 11
12.9762531841
 21
5.5884707648
  0
LINE
  5
34F
100
AcDbEntity
  8
0
100
AcDbLine
 62
7
  6
CONTINUOUS
 10
13.4553599906
 20
8.6927813994
 11
13.4584633108
 21
8.6980430315
  0
LINE
  5
350
100
AcDbEntity
  8
0
100
AcDbLine
 62
7
  6
CONTINUOUS
 10
13.3390055897
 20
10.1811035588
 11
13.470582735
 21
10.1719786528
  0
LINE
  5
351
100
AcDbEntity
  8
0
100
AcDbLine
 62
7
  6
CONTINUOUS
 10
7.6636608247
 20
10.7865297139
 11
12.9762531841
 21
10.4181001824
  0
LINE
  5
352
100
AcDbEntity
  8
0
100
AcDbLine
 62
4
  6
CONTINUOUS
 10
13.2525422863
 20
8.4343676204
 11
13.2564245687
 21
8.4284583611
  0
LINE
  5
353
100
AcDbEntity
  8
0
100
AcDbLine
 62
4
  6
CONTINUOUS
 10
13.3437759224
 20
8.5224925509
 11
13.3534816283
 21
8.4159564401
  0
LINE
  5
354
100
AcDbEntity
  8
0
100
AcDbLine
 62
4
  6
CONTINUOUS
 10
13.2408954391
 20
8.3361843017
 11
13.2389542979
 21
8.363287079
  0
LINE
  5
355
100
AcDbEntity
  8
0
100
AcDbLine
 62
4
  6
CONTINUOUS
 10
13.3049530985
 20
8.4849925805
 11
13.3049530985
 21
8.369081477
  0
LINE
  5
356
100
AcDbEntity
  8
0
100
AcDbLine
 62
4
  6
CONTINUOUS
 10
13.320482228
 20
8.4999925686
 11
13.320482228
 21
8.3840814652
  0
LINE
  5
357
100
AcDbEntity
  8
0
100
AcDbLine
 62
4
  6
CONTINUOUS
 10
13.2389542979
 20
8.363287079
 11
13.2408954391
 21
8.3941398534
  0
LINE
  5
358
100
AcDbEntity
  8
0
100
AcDbLine
 62
4
  6
CONTINUOUS
 10
13.3340702164
 20
8.3972064549
 11
13.3437759224
 21
8.5224925509
  0
LINE
  5
359
100
AcDbEntity
  8
0
100
AcDbLine
 62
4
  6
CONTINUOUS
 10
13.2738948394
 20
8.3390815007
 11
13.289423969
 21
8.4699925923
  0
LINE
  5
35A
100
AcDbEntity
  8
0
100
AcDbLine
 62
7
  6
CONTINUOUS
 10
13.3591948156
 20
9.8800045025
 11
13.2725609063
 21
9.2363116791
  0
LINE
  5
35B
100
AcDbEntity
  8
0
100
AcDbLine
 62
4
  6
CONTINUOUS
 10
13.2408954391
 20
8.3941398534
 11
13.2447777215
 21
8.41720837
  0
LINE
  5
35C
100
AcDbEntity
  8
0
100
AcDbLine
 62
4
  6
CONTINUOUS
 10
13.2583657099
 20
8.3434000303
 11
13.2564245687
 21
8.3318657729
  0
LINE
  5
35D
100
AcDbEntity
  8
0
100
AcDbLine
 62
4
  6
CONTINUOUS
 10
13.2447777215
 20
8.41720837
 11
13.2486600039
 21
8.4306176233
  0
LINE
  5
35E
100
AcDbEntity
  8
0
100
AcDbLine
 62
4
  6
CONTINUOUS
 10
13.2564245687
 20
8.3318657729
 11
13.2525422863
 21
8.318456517
  0
LINE
  5
35F
100
AcDbEntity
  8
0
100
AcDbLine
 62
4
  6
CONTINUOUS
 10
13.2447777215
 20
8.3206157818
 11
13.2408954391
 21
8.3361843017
  0
LINE
  5
360
100
AcDbEntity
  8
0
100
AcDbLine
 62
4
  6
CONTINUOUS
 10
13.2564245687
 20
8.4284583611
 11
13.2583657099
 21
8.4206740964
  0
LINE
  5
361
100
AcDbEntity
  8
0
100
AcDbLine
 62
7
  6
CONTINUOUS
 10
13.2725609063
 20
9.192608715
 11
13.3591948156
 21
8.7162797622
  0
LINE
  5
362
100
AcDbEntity
  8
0
100
AcDbLine
 62
4
  6
CONTINUOUS
 10
13.2738948394
 20
8.4549926041
 11
13.289423969
 21
8.3540814889
  0
LINE
  5
363
100
AcDbEntity
  8
0
100
AcDbLine
 62
7
  6
CONTINUOUS
 10
13.6233002628
 20
11.0430997037
 11
13.6233002628
 21
10.0734192891
  0
LINE
  5
364
100
AcDbEntity
  8
0
100
AcDbLine
 62
7
  6
CONTINUOUS
 10
13.6233002628
 20
8.68661155
 11
13.6233002628
 21
6.2134702861
  0
LINE
  5
365
100
AcDbEntity
  8
0
100
AcDbLine
 62
7
  6
CONTINUOUS
 10
14.1978842807
 20
8.7688072916
 11
14.2066577292
 21
8.7836825401
  0
LINE
  5
366
100
AcDbEntity
  8
0
100
AcDbLine
 62
7
  6
CONTINUOUS
 10
8.3107079034
 20
11.4115292352
 11
13.6233002628
 21
11.0430997037
  0
LINE
  5
367
100
AcDbEntity
  8
0
100
AcDbLine
 62
7
  6
CONTINUOUS
 10
13.5518311019
 20
10.0838525403
 11
13.5541784166
 21
10.0782129054
  0
LINE
  5
368
100
AcDbEntity
  8
0
100
AcDbLine
 62
7
  6
CONTINUOUS
 10
12.9762531841
 20
5.5884707648
 11
13.6233002628
 21
6.2134702861
  0
LINE
  5
369
100
AcDbEntity
  8
0
100
AcDbLine
 62
7
  6
CONTINUOUS
 10
14.2689864542
 20
9.9247186143
 11
14.2833890814
 21
9.8901150063
  0
ARC
  5
36A
100
AcDbEntity
  8
0
100
AcDbCircle
 62
7
  6
CONTINUOUS
 10
16.5343005318
 20
9.1678221656
 40
2.591564888
100
AcDbArc
 50
179.5134673813
 51
179.9985734312
  0
ARC
  5
36B
100
AcDbEntity
  8
0
100
AcDbCircle
 62
7
  6
CONTINUOUS
 10
15.854002939
 20
9.2143481292
 40
2.5815354666
100
AcDbArc
 50
179.5125250425
 51
179.99951577
  0
ARC
  5
36C
100
AcDbEntity
  8
0
100
AcDbCircle
 62
7
  6
CONTINUOUS
 10
16.4715069196
 20
9.1678633908
 40
2.5287712751
100
AcDbArc
 50
179.9994720696
 51
180.492534488
  0
ARC
  5
36D
100
AcDbEntity
  8
0
100
AcDbCircle
 62
7
  6
CONTINUOUS
 10
15.8012387471
 20
9.2143466464
 40
2.5287712748
100
AcDbArc
 50
179.9994720696
 51
180.492534488
  0
ARC
  5
36E
100
AcDbEntity
  8
0
100
AcDbCircle
 62
7
  6
CONTINUOUS
 10
14.4487628434
 20
9.5483027888
 40
1.1389400837
100
AcDbArc
 50
161.3961041614
 51
163.0679604749
  0
ARC
  5
36F
100
AcDbEntity
  8
0
100
AcDbCircle
 62
7
  6
CONTINUOUS
 10
15.0893624761
 20
9.5113267658
 40
1.1077888829
100
AcDbArc
 50
161.3725959887
 51
163.0914686476
  0
ARC
  5
370
100
AcDbEntity
  8
0
100
AcDbCircle
 62
7
  6
CONTINUOUS
 10
11.2663925166
 20
7.7525783885
 40
0.2242138686
100
AcDbArc
 50
265.9617721186
 51
274.3313167805
  0
SPLINE
  5
371
100
AcDbEntity
  8
0
100
AcDbSpline
 62
7
  6
CONTINUOUS
 70
0
 71
3
 72
23
 73
19
 74
0
 42
0.0000001
 43
0.0000001
 44
0.0000000001
 40
0.0
 40
0.0
 40
0.0
 40
0.0
 40
0.0778915856
 40
0.1545454438
 40
0.2297388202
 40
0.3032879841
 40
0.3750174017
 40
0.4447505127
 40
0.512316206
 40
0.5775550501
 40
0.6403154135
 40
0.7004563918
 40
0.75784725
 40
0.8123710763
 40
0.8639245062
 40
0.9124214177
 40
0.9577945528
 40
1.0
 40
1.0
 40
1.0
 40
1.0
 10
14.3363391753
 20
9.4966943554
 30
0.0
 10
14.3363391753
 20
9.5070549475
 30
0.0
 10
14.3361961684
 20
9.5276118137
 30
0.0
 10
14.3355437102
 20
9.5581641386
 30
0.0
 10
14.3344557606
 20
9.5881262125
 30
0.0
 10
14.3329359511
 20
9.6174136723
 30
0.0
 10
14.3309881747
 20
9.645947951
 30
0.0
 10
14.3286182775
 20
9.6736516877
 30
0.0
 10
14.3258322769
 20
9.7004489828
 30
0.0
 10
14.322638433
 20
9.7262666205
 30
0.0
 10
14.3190451759
 20
9.7510343979
 30
0.0
 10
14.3150628881
 20
9.7746849284
 30
0.0
 10
14.3107022315
 20
9.7971539162
 30
0.0
 10
14.3059756504
 20
9.8183804483
 30
0.0
 10
14.3008959586
 20
9.8383070751
 30
0.0
 10
14.2954773591
 20
9.8568804089
 30
0.0
 10
14.2897347321
 20
9.8740500849
 30
0.0
 10
14.2855483838
 20
9.884926811
 30
0.0
 10
14.2833912383
 20
9.8901096951
 30
0.0
  0
SPLINE
  5
372
100
AcDbEntity
  8
0
100
AcDbSpline
 62
7
  6
CONTINUOUS
 70
0
 71
3
 72
9
 73
5
 74
0
 42
0.0000001
 43
0.0000001
 44
0.0000000001
 40
0.0
 40
0.0
 40
0.0
 40
0.0
 40
0.5149357862
 40
1.0
 40
1.0
 40
1.0
 40
1.0
 10
14.2230134046
 20
10.0204766042
 30
0.0
 10
14.2214034563
 20
10.0226510223
 30
0.0
 10
14.2181567544
 20
10.0267865907
 30
0.0
 10
14.2146449347
 20
10.0307013697
 30
0.0
 10
14.2128721054
 20
10.0325323429
 30
0.0
  0
SPLINE
  5
373
100
AcDbEntity
  8
0
100
AcDbSpline
 62
7
  6
CONTINUOUS
 70
0
 71
3
 72
22
 73
18
 74
0
 42
0.0000001
 43
0.0000001
 44
0.0000000001
 40
0.0
 40
0.0
 40
0.0
 40
0.0
 40
0.1581228667
 40
0.2341982852
 40
0.3081049186
 40
0.379717385
 40
0.4489184745
 40
0.5156040998
 40
0.5796927374
 40
0.6411263993
 40
0.6998833948
 40
0.755975683
 40
0.8094620448
 40
0.8604412683
 40
0.9090606462
 40
0.9555055836
 40
1.0
 40
1.0
 40
1.0
 40
1.0
 10
14.0396042869
 20
8.6577407679
 30
0.0
 10
14.049073948
 20
8.6619439542
 30
0.0
 10
14.0630173516
 20
8.6683596313
 30
0.0
 10
14.0811273355
 20
8.6772821336
 30
0.0
 10
14.094023675
 20
8.6839550812
 30
0.0
 10
14.1063736671
 20
8.6906966663
 30
0.0
 10
14.1181424827
 20
8.697507262
 30
0.0
 10
14.129295827
 20
8.7043875018
 30
0.0
 10
14.1398022768
 20
8.7113358782
 30
0.0
 10
14.1496325498
 20
8.7183519408
 30
0.0
 10
14.1587626984
 20
8.7254323366
 30
0.0
 10
14.1671723199
 20
8.7325753051
 30
0.0
 10
14.1748484508
 20
8.7397759503
 30
0.0
 10
14.181782577
 20
8.7470310627
 30
0.0
 10
14.1879746888
 20
8.7543348539
 30
0.0
 10
14.1934290042
 20
8.7616822487
 30
0.0
 10
14.1966456925
 20
8.7667050137
 30
0.0
 10
14.1981257198
 20
8.7692167702
 30
0.0
  0
SPLINE
  5
374
100
AcDbEntity
  8
0
100
AcDbSpline
 62
7
  6
CONTINUOUS
 70
0
 71
3
 72
9
 73
5
 74
0
 42
0.0000001
 43
0.0000001
 44
0.0000000001
 40
0.0
 40
0.0
 40
0.0
 40
0.0
 40
0.4955326499
 40
1.0
 40
1.0
 40
1.0
 40
1.0
 10
14.2691335786
 20
9.9243649126
 30
0.0
 10
14.2623619344
 20
9.9406252882
 30
0.0
 10
14.2477234076
 20
9.973039119
 30
0.0
 10
14.2315104358
 20
10.0046859613
 30
0.0
 10
14.2230134046
 20
10.0204766042
 30
0.0
  0
SPLINE
  5
375
100
AcDbEntity
  8
0
100
AcDbSpline
 62
7
  6
CONTINUOUS
 70
0
 71
3
 72
28
 73
24
 74
0
 42
0.0000001
 43
0.0000001
 44
0.0000000001
 40
0.0
 40
0.0
 40
0.0
 40
0.0
 40
0.0188524871
 40
0.0388801737
 40
0.0600715651
 40
0.0824089768
 40
0.1058699668
 40
0.1304265019
 40
0.1560475994
 40
0.1826975814
 40
0.2103382308
 40
0.2389280827
 40
0.2987741688
 40
0.3618564495
 40
0.4277601831
 40
0.4960432585
 40
0.5662412158
 40
0.6378720029
 40
0.7104405345
 40
0.7834444448
 40
0.8563742018
 40
0.9287292883
 40
1.0
 40
1.0
 40
1.0
 40
1.0
 10
14.2066568259
 20
8.7836811647
 30
0.0
 10
14.2089897665
 20
8.7876366147
 30
0.0
 10
14.2136211629
 20
8.7959010978
 30
0.0
 10
14.2202879329
 20
8.8089298858
 30
0.0
 10
14.2268734713
 20
8.8229437399
 30
0.0
 10
14.2333655624
 20
8.8379168238
 30
0.0
 10
14.239751851
 20
8.8538219496
 30
0.0
 10
14.2460210434
 20
8.8706297966
 30
0.0
 10
14.2521608698
 20
8.8883095833
 30
0.0
 10
14.2581604212
 20
8.9068286307
 30
0.0
 10
14.2640082828
 20
8.9261528582
 30
0.0
 10
14.2717061452
 20
8.9533606863
 30
0.0
 10
14.2808365667
 20
8.989128369
 30
0.0
 10
14.2908662189
 20
9.0340244492
 30
0.0
 10
14.3000538073
 20
9.0811955103
 30
0.0
 10
14.3083306081
 20
9.1302928395
 30
0.0
 10
14.3156346303
 20
9.1809537777
 30
0.0
 10
14.3219113119
 20
9.232803602
 30
0.0
 10
14.3271139666
 20
9.2854588889
 30
0.0
 10
14.3312036918
 20
9.3385295437
 30
0.0
 10
14.3341505912
 20
9.39162393
 30
0.0
 10
14.3359323427
 20
9.4443475552
 30
0.0
 10
14.3363391753
 20
9.4793338577
 30
0.0
 10
14.3363391753
 20
9.4966943554
 30
0.0
  0
SPLINE
  5
376
100
AcDbEntity
  8
0
100
AcDbSpline
 62
7
  6
CONTINUOUS
 70
0
 71
3
 72
23
 73
19
 74
0
 42
0.0000001
 43
0.0000001
 44
0.0000000001
 40
0.0
 40
0.0
 40
0.0
 40
0.0
 40
0.0450326416
 40
0.090627084
 40
0.1373223842
 40
0.1856173007
 40
0.2359593962
 40
0.2887361703
 40
0.344276113
 40
0.402854817
 40
0.4646973153
 40
0.5299824183
 40
0.5988535695
 40
0.671423373
 40
0.747772967
 40
0.8279612293
 40
0.9120297453
 40
1.0
 40
1.0
 40
1.0
 40
1.0
 10
13.4705830605
 20
10.1719785266
 30
0.0
 10
13.472463782
 20
10.1718481419
 30
0.0
 10
13.4762369709
 20
10.1713646024
 30
0.0
 10
13.4818287783
 20
10.1699807165
 30
0.0
 10
13.4873614292
 20
10.1679401848
 30
0.0
 10
13.4928284395
 20
10.1652469966
 30
0.0
 10
13.4982252346
 20
10.1619049677
 30
0.0
 10
13.5035480604
 20
10.157918986
 30
0.0
 10
13.508793656
 20
10.1532936772
 30
0.0
 10
13.5139584053
 20
10.1480331605
 30
0.0
 10
13.5190388353
 20
10.1421420632
 30
0.0
 10
13.5240317851
 20
10.1356256456
 30
0.0
 10
13.5289335606
 20
10.1284890839
 30
0.0
 10
13.5337401852
 20
10.120737941
 30
0.0
 10
13.5384482884
 20
10.1123787565
 30
0.0
 10
13.5430541973
 20
10.1034183108
 30
0.0
 10
13.5475538621
 20
10.0938638239
 30
0.0
 10
13.5504155859
 20
10.0872531859
 30
0.0
 10
13.5518307376
 20
10.0838531699
 30
0.0
  0
SPLINE
  5
377
100
AcDbEntity
  8
0
100
AcDbSpline
 62
7
  6
CONTINUOUS
 70
0
 71
3
 72
23
 73
19
 74
0
 42
0.0000001
 43
0.0000001
 44
0.0000000001
 40
0.0
 40
0.0
 40
0.0
 40
0.0
 40
0.0450328014
 40
0.090626912
 40
0.1373220992
 40
0.1856177797
 40
0.2359593495
 40
0.2887351894
 40
0.3442762352
 40
0.4028552774
 40
0.4646962747
 40
0.5299819163
 40
0.5988545543
 40
0.6714232004
 40
0.7477722896
 40
0.8279625255
 40
0.9120310258
 40
1.0
 40
1.0
 40
1.0
 40
1.0
 10
13.3627244502
 20
8.6167142804
 30
0.0
 10
13.3646051944
 20
8.6165838941
 30
0.0
 10
13.3684090174
 20
8.6165421108
 30
0.0
 10
13.3741384063
 20
8.6171403345
 30
0.0
 10
13.3798998703
 20
8.6183975648
 30
0.0
 10
13.3856862192
 20
8.6203107411
 30
0.0
 10
13.3914927957
 20
8.6228755568
 30
0.0
 10
13.3973150868
 20
8.626088378
 30
0.0
 10
13.4031488034
 20
8.6299456744
 30
0.0
 10
13.40899027
 20
8.6344429626
 30
0.0
 10
13.414835537
 20
8.6395761201
 30
0.0
 10
13.4206801706
 20
8.6453411156
 30
0.0
 10
13.4265200081
 20
8.651732986
 30
0.0
 10
13.432350809
 20
8.6587463173
 30
0.0
 10
13.4381678468
 20
8.666375617
 30
0.0
 10
13.4439663726
 20
8.6746147934
 30
0.0
 10
13.4497419461
 20
8.6834567583
 30
0.0
 10
13.4534889046
 20
8.6896090275
 30
0.0
 10
13.4553598302
 20
8.6927811304
 30
0.0
  0
SPLINE
  5
378
100
AcDbEntity
  8
0
100
AcDbSpline
 62
7
  6
CONTINUOUS
 70
0
 71
3
 72
23
 73
19
 74
0
 42
0.0000001
 43
0.0000001
 44
0.0000000001
 40
0.0
 40
0.0
 40
0.0
 40
0.0
 40
0.0430432041
 40
0.0864276157
 40
0.130656649
 40
0.1763288731
 40
0.2240992276
 40
0.2746265429
 40
0.3285147701
 40
0.3862610475
 40
0.4482190742
 40
0.5145822216
 40
0.585391119
 40
0.6605550141
 40
0.7398801137
 40
0.8231012882
 40
0.9099156628
 40
1.0
 40
1.0
 40
1.0
 40
1.0
 10
14.2128721054
 20
10.0325323429
 30
0.0
 10
14.212933054
 20
10.0288729125
 30
0.0
 10
14.2127123503
 20
10.0215136182
 30
0.0
 10
14.2112406669
 20
10.0104814696
 30
0.0
 10
14.2085157443
 20
9.9994560973
 30
0.0
 10
14.2044310905
 20
9.9884588984
 30
0.0
 10
14.1988933301
 20
9.9775132831
 30
0.0
 10
14.1918296596
 20
9.9666431378
 30
0.0
 10
14.1831914948
 20
9.9558694701
 30
0.0
 10
14.1729568637
 20
9.9452096682
 30
0.0
 10
14.1611321755
 20
9.934677577
 30
0.0
 10
14.1477527168
 20
9.9242830993
 30
0.0
 10
14.1328794571
 20
9.9140332358
 30
0.0
 10
14.1165947194
 20
9.9039320585
 30
0.0
 10
14.0989965741
 20
9.8939806131
 30
0.0
 10
14.0801923608
 20
9.8841768245
 30
0.0
 10
14.0602929153
 20
9.8745166226
 30
0.0
 10
14.046605439
 20
9.8682759907
 30
0.0
 10
14.0396042869
 20
9.8651684723
 30
0.0
  0
SPLINE
  5
379
100
AcDbEntity
  8
0
100
AcDbSpline
 62
7
  6
CONTINUOUS
 70
0
 71
3
 72
21
 73
17
 74
0
 42
0.0000001
 43
0.0000001
 44
0.0000000001
 40
0.0
 40
0.0
 40
0.0
 40
0.0
 40
0.1231153359
 40
0.184837322
 40
0.2466817013
 40
0.3086598058
 40
0.3707815459
 40
0.4330548007
 40
0.4954844141
 40
0.558071395
 40
0.6208128987
 40
0.6837027994
 40
0.7467321283
 40
0.809889664
 40
0.8731630859
 40
1.0
 40
1.0
 40
1.0
 40
1.0
 10
14.0294629878
 20
9.8335212469
 30
0.0
 10
14.0331196
 20
9.8067604918
 30
0.0
 10
14.0376126402
 20
9.7664328878
 30
0.0
 10
14.0411942707
 20
9.7124268611
 30
0.0
 10
14.0425741224
 20
9.6717369449
 30
0.0
 10
14.0425442618
 20
9.63093539
 30
0.0
 10
14.0410186638
 20
9.5900671919
 30
0.0
 10
14.0379321425
 20
9.549187225
 30
0.0
 10
14.0332461026
 20
9.5083565433
 30
0.0
 10
14.0269525616
 20
9.4676387024
 30
0.0
 10
14.0190766368
 20
9.4270947316
 30
0.0
 10
14.0096727157
 20
9.3867787886
 30
0.0
 10
13.9988194713
 20
9.3467351633
 30
0.0
 10
13.986613364
 20
9.306995635
 30
0.0
 10
13.968665924
 20
9.2544045922
 30
0.0
 10
13.9535237321
 20
9.2155170115
 30
0.0
 10
13.9428290785
 20
9.1898284234
 30
0.0
  0
SPLINE
  5
37A
100
AcDbEntity
  8
0
100
AcDbSpline
 62
7
  6
CONTINUOUS
 70
0
 71
3
 72
23
 73
19
 74
0
 42
0.0000001
 43
0.0000001
 44
0.0000000001
 40
0.0
 40
0.0
 40
0.0
 40
0.0
 40
0.0681436223
 40
0.1355717925
 40
0.2022246133
 40
0.2680530577
 40
0.3330188589
 40
0.3971018651
 40
0.4603047619
 40
0.5226553367
 40
0.5842062484
 40
0.6450322154
 40
0.7052236803
 40
0.7648789131
 40
0.8240963959
 40
0.8829688942
 40
0.9415804852
 40
1.0
 40
1.0
 40
1.0
 40
1.0
 10
13.9428290785
 20
9.1461254594
 30
0.0
 10
13.9481577748
 20
9.1362227605
 30
0.0
 10
13.958509498
 20
9.1163853867
 30
0.0
 10
13.9730928487
 20
9.0863628772
 30
0.0
 10
13.986545135
 20
9.0562331899
 30
0.0
 10
13.9987548669
 20
9.0260153286
 30
0.0
 10
14.0096144248
 20
8.9957349848
 30
0.0
 10
14.0190269442
 20
8.9654259583
 30
0.0
 10
14.0269131471
 20
8.9351288622
 30
0.0
 10
14.0332176452
 20
8.9048892881
 30
0.0
 10
14.0379141683
 20
8.8747550225
 30
0.0
 10
14.041009627
 20
8.8447726597
 30
0.0
 10
14.042541957
 20
8.8149836798
 30
0.0
 10
14.0425761232
 20
8.7854217275
 30
0.0
 10
14.0411984516
 20
8.7561110664
 30
0.0
 10
14.0385100028
 20
8.7270657331
 30
0.0
 10
14.0346187632
 20
8.6982916271
 30
0.0
 10
14.0312909551
 20
8.6792622772
 30
0.0
 10
14.0294629878
 20
8.6697965066
 30
0.0
  0
SPLINE
  5
37B
100
AcDbEntity
  8
0
100
AcDbSpline
 62
7
  6
CONTINUOUS
 70
0
 71
3
 72
21
 73
17
 74
0
 42
0.0000001
 43
0.0000001
 44
0.0000000001
 40
0.0
 40
0.0
 40
0.0
 40
0.0
 40
0.0721750434
 40
0.1408704233
 40
0.2690156223
 40
0.3293895806
 40
0.3879136836
 40
0.4451490293
 40
0.5016982119
 40
0.5581866935
 40
0.6152406903
 40
0.6734670847
 40
0.733434797
 40
0.8604758414
 40
0.9285177531
 40
1.0
 40
1.0
 40
1.0
 40
1.0
 10
13.3693361147
 20
8.7042240235
 30
0.0
 10
13.3707709442
 20
8.7027421356
 30
0.0
 10
13.3736624422
 20
8.6999349234
 30
0.0
 10
13.3795420458
 20
8.6949761343
 30
0.0
 10
13.3856961573
 20
8.6908785183
 30
0.0
 10
13.3920732158
 20
8.687826469
 30
0.0
 10
13.3968143781
 20
8.6861089777
 30
0.0
 10
13.4016030158
 20
8.684921394
 30
0.0
 10
13.4064347195
 20
8.6842659906
 30
0.0
 10
13.4113039677
 20
8.6841435805
 30
0.0
 10
13.4162051879
 20
8.6845537557
 30
0.0
 10
13.4211334824
 20
8.6854958139
 30
0.0
 10
13.4278607069
 20
8.6874959575
 30
0.0
 10
13.4345198459
 20
8.690565836
 30
0.0
 10
13.4410271628
 20
8.6945337695
 30
0.0
 10
13.4442783304
 20
8.696849658
 30
0.0
 10
13.4459041002
 20
8.6980867154
 30
0.0
  0
SPLINE
  5
37C
100
AcDbEntity
  8
0
100
AcDbSpline
 62
7
  6
CONTINUOUS
 70
0
 71
3
 72
37
 73
33
 74
0
 42
0.0000001
 43
0.0000001
 44
0.0000000001
 40
0.0
 40
0.0
 40
0.0
 40
0.0
 40
0.0242160064
 40
0.0471276776
 40
0.0688728694
 40
0.0896181497
 40
0.1095643177
 40
0.1289412712
 40
0.1480010561
 40
0.1670091283
 40
0.1862325832
 40
0.2059292153
 40
0.2263374353
 40
0.2476687588
 40
0.2701059695
 40
0.2938027283
 40
0.3188839929
 40
0.3454511185
 40
0.3735850406
 40
0.4033469108
 40
0.4347832022
 40
0.4679286948
 40
0.5028057521
 40
0.5394275751
 40
0.5778008267
 40
0.6179236654
 40
0.6597872747
 40
0.7033790872
 40
0.7486826578
 40
0.7956778314
 40
0.8946424786
 40
1.0
 40
1.0
 40
1.0
 40
1.0
 10
13.5426039332
 20
10.0790155986
 30
0.0
 10
13.540993916
 20
10.0806784198
 30
0.0
 10
13.5377468144
 20
10.0838075002
 30
0.0
 10
13.5326518178
 20
10.087987609
 30
0.0
 10
13.5274781895
 20
10.0915125193
 30
0.0
 10
13.5222301352
 20
10.0943755897
 30
0.0
 10
13.5169125848
 20
10.0965718422
 30
0.0
 10
13.5115312378
 20
10.0980969547
 30
0.0
 10
13.5060928729
 20
10.0989466244
 30
0.0
 10
13.5006058155
 20
10.0991189383
 30
0.0
 10
13.4950786395
 20
10.0986144788
 30
0.0
 10
13.4895194071
 20
10.0974348421
 30
0.0
 10
13.4839351171
 20
10.0955835675
 30
0.0
 10
13.478331141
 20
10.0930656297
 30
0.0
 10
13.4727122242
 20
10.0898851522
 30
0.0
 10
13.4670828268
 20
10.0860462958
 30
0.0
 10
13.4614467799
 20
10.0815539968
 30
0.0
 10
13.4558083917
 20
10.076412667
 30
0.0
 10
13.450172426
 20
10.0706268852
 30
0.0
 10
13.4445431874
 20
10.0642023702
 30
0.0
 10
13.4389254547
 20
10.0571449762
 30
0.0
 10
13.4333244831
 20
10.0494608572
 30
0.0
 10
13.4277450617
 20
10.0411572092
 30
0.0
 10
13.4221921463
 20
10.0322416935
 30
0.0
 10
13.4166711561
 20
10.0227223189
 30
0.0
 10
13.4111871458
 20
10.0126080563
 30
0.0
 10
13.4057450797
 20
10.0019085851
 30
0.0
 10
13.4003502946
 20
9.9906338114
 30
0.0
 10
13.3950077831
 20
9.9787940247
 30
0.0
 10
13.3878364549
 20
9.9619773354
 30
0.0
 10
13.3790668617
 20
9.9396085421
 30
0.0
 10
13.3725546387
 20
9.921193522
 30
0.0
 10
13.3693361147
 20
9.9116517279
 30
0.0
  0
SPLINE
  5
37D
100
AcDbEntity
  8
0
100
AcDbSpline
 62
7
  6
CONTINUOUS
 70
0
 71
3
 72
29
 73
25
 74
0
 42
0.0000001
 43
0.0000001
 44
0.0000000001
 40
0.0
 40
0.0
 40
0.0
 40
0.0
 40
0.0844109308
 40
0.167021196
 40
0.2475180268
 40
0.3256369966
 40
0.401116176
 40
0.4737019132
 40
0.5431596849
 40
0.6092721542
 40
0.6718401978
 40
0.7306888572
 40
0.7586717622
 40
0.7856716262
 40
0.8116742211
 40
0.8366682477
 40
0.8606452028
 40
0.8835986256
 40
0.9055261083
 40
0.9264302219
 40
0.9463170845
 40
0.9651968369
 40
0.9830842384
 40
1.0
 40
1.0
 40
1.0
 40
1.0
 10
13.2725609063
 20
9.192608715
 30
0.0
 10
13.272679706
 20
9.178835096
 30
0.0
 10
13.2731408594
 20
9.1515830118
 30
0.0
 10
13.2745263987
 20
9.1112148824
 30
0.0
 10
13.2765945085
 20
9.0719037743
 30
0.0
 10
13.2793368532
 20
9.0338003264
 30
0.0
 10
13.2827425209
 20
8.9970464216
 30
0.0
 10
13.2867988677
 20
8.961780564
 30
0.0
 10
13.2914900292
 20
8.9281357102
 30
0.0
 10
13.2967976703
 20
8.8962379772
 30
0.0
 10
13.3027019108
 20
8.8662073464
 30
0.0
 10
13.3081877576
 20
8.8424478828
 30
0.0
 10
13.312881155
 20
8.8244745789
 30
0.0
 10
13.316476616
 20
8.8117569271
 30
0.0
 10
13.3202035146
 20
8.7995862792
 30
0.0
 10
13.3240583134
 20
8.7879740283
 30
0.0
 10
13.3280370805
 20
8.7769309856
 30
0.0
 10
13.3321362522
 20
8.7664675422
 30
0.0
 10
13.3363521743
 20
8.7565933675
 30
0.0
 10
13.3406808388
 20
8.7473172162
 30
0.0
 10
13.3451185444
 20
8.7386475688
 30
0.0
 10
13.3496614253
 20
8.7305927062
 30
0.0
 10
13.3543042204
 20
8.723160731
 30
0.0
 10
13.357552288
 20
8.7184981823
 30
0.0
 10
13.3591948156
 20
8.7162797622
 30
0.0
  0
SPLINE
  5
37E
100
AcDbEntity
  8
0
100
AcDbSpline
 62
7
  6
CONTINUOUS
 70
0
 71
3
 72
23
 73
19
 74
0
 42
0.0000001
 43
0.0000001
 44
0.0000000001
 40
0.0
 40
0.0
 40
0.0
 40
0.0
 40
0.0517124017
 40
0.105817437
 40
0.1621248898
 40
0.2204554779
 40
0.2806133097
 40
0.342391697
 40
0.4055775525
 40
0.4699511935
 40
0.5352873143
 40
0.6013557937
 40
0.6679239017
 40
0.7347566859
 40
0.801615562
 40
0.8682649978
 40
0.9344779167
 40
1.0
 40
1.0
 40
1.0
 40
1.0
 10
13.3591948156
 20
9.8800045025
 30
0.0
 10
13.3559221756
 20
9.8692621752
 30
0.0
 10
13.3495282581
 20
9.8471873766
 30
0.0
 10
13.340561103
 20
9.8131386533
 30
0.0
 10
13.3320264412
 20
9.7774994688
 30
0.0
 10
13.3239569349
 20
9.7404061672
 30
0.0
 10
13.3163825896
 20
9.7019971245
 30
0.0
 10
13.3093326933
 20
9.6624171413
 30
0.0
 10
13.3028338271
 20
9.6218156784
 30
0.0
 10
13.2969105133
 20
9.5803457917
 30
0.0
 10
13.2915855366
 20
9.5381638923
 30
0.0
 10
13.2868787411
 20
9.4954291488
 30
0.0
 10
13.2828080709
 20
9.4523026969
 30
0.0
 10
13.2793891296
 20
9.4089475334
 30
0.0
 10
13.2766344002
 20
9.3655274198
 30
0.0
 10
13.2745545126
 20
9.3222044644
 30
0.0
 10
13.2731576305
 20
9.2791446453
 30
0.0
 10
13.2726816151
 20
9.250539824
 30
0.0
 10
13.2725609063
 20
9.2363116791
 30
0.0
  0
SPLINE
  5
37F
100
AcDbEntity
  8
0
100
AcDbSpline
 62
7
  6
CONTINUOUS
 70
0
 71
3
 72
55
 73
51
 74
0
 42
0.0000001
 43
0.0000001
 44
0.0000000001
 40
0.0
 40
0.0
 40
0.0
 40
0.0
 40
0.0544796836
 40
0.1080730038
 40
0.1606188057
 40
0.2119841062
 40
0.2620411187
 40
0.3106614428
 40
0.3577215751
 40
0.4031061635
 40
0.4467061545
 40
0.4884199557
 40
0.5281545703
 40
0.5658265035
 40
0.6013637281
 40
0.6347062423
 40
0.6658099984
 40
0.694647824
 40
0.7082163713
 40
0.7212192512
 40
0.7336600645
 40
0.7455452452
 40
0.7568838525
 40
0.7676875652
 40
0.7779714304
 40
0.7877550967
 40
0.7970627058
 40
0.8059233995
 40
0.8143724103
 40
0.8224520268
 40
0.8302114288
 40
0.8377068764
 40
0.8450017153
 40
0.8521653036
 40
0.8592710663
 40
0.8663944188
 40
0.8736102248
 40
0.8809901605
 40
0.888600879
 40
0.8965027645
 40
0.9047487914
 40
0.9133845833
 40
0.92244909
 40
0.9319750597
 40
0.9419890353
 40
0.9525126212
 40
0.9635634308
 40
0.9751553269
 40
0.9872983602
 40
1.0
 40
1.0
 40
1.0
 40
1.0
 10
14.0154038243
 20
9.1866945929
 30
0.0
 10
14.0154038243
 20
9.176129628
 30
0.0
 10
14.0155524888
 20
9.1551712508
 30
0.0
 10
14.0162309932
 20
9.1240295522
 30
0.0
 10
14.0173623113
 20
9.0935052401
 30
0.0
 10
14.0189425742
 20
9.063687526
 30
0.0
 10
14.0209674723
 20
9.0346596442
 30
0.0
 10
14.023430842
 20
9.0065035277
 30
0.0
 10
14.0263259656
 20
8.979299416
 30
0.0
 10
14.0296441503
 20
8.9531245433
 30
0.0
 10
14.0333759873
 20
8.9280529453
 30
0.0
 10
14.0375106184
 20
8.904155542
 30
0.0
 10
14.042036089
 20
8.8814998769
 30
0.0
 10
14.0469394596
 20
8.8601497795
 30
0.0
 10
14.0522063483
 20
8.8401652354
 30
0.0
 10
14.0578220351
 20
8.8216019118
 30
0.0
 10
14.0637700231
 20
8.8045117592
 30
0.0
 10
14.0690929471
 20
8.7912796823
 30
0.0
 10
14.0735252229
 20
8.7814896538
 30
0.0
 10
14.0768542987
 20
8.7746945973
 30
0.0
 10
14.080253824
 20
8.7683018516
 30
0.0
 10
14.0837214231
 20
8.7623157594
 30
0.0
 10
14.0872546409
 20
8.7567403262
 30
0.0
 10
14.0908511903
 20
8.7515794464
 30
0.0
 10
14.0945089888
 20
8.7468368892
 30
0.0
 10
14.0982255472
 20
8.7425157746
 30
0.0
 10
14.1019985661
 20
8.7386190366
 30
0.0
 10
14.1058259475
 20
8.7351496737
 30
0.0
 10
14.1097056709
 20
8.7321106622
 30
0.0
 10
14.1136352903
 20
8.7295043576
 30
0.0
 10
14.1176124494
 20
8.7273332704
 30
0.0
 10
14.1216346501
 20
8.7256002518
 30
0.0
 10
14.1256988176
 20
8.7243078768
 30
0.0
 10
14.1298012116
 20
8.7234577855
 30
0.0
 10
14.1339377941
 20
8.7230513649
 30
0.0
 10
14.1381041929
 20
8.7230896149
 30
0.0
 10
14.1422959422
 20
8.7235720565
 30
0.0
 10
14.146508991
 20
8.7244971394
 30
0.0
 10
14.1507397557
 20
8.7258631908
 30
0.0
 10
14.1549849207
 20
8.7276685288
 30
0.0
 10
14.1592417285
 20
8.7299106267
 30
0.0
 10
14.1635076503
 20
8.7325870067
 30
0.0
 10
14.1677801243
 20
8.7356954574
 30
0.0
 10
14.1720564153
 20
8.739233775
 30
0.0
 10
14.1763341074
 20
8.7431990466
 30
0.0
 10
14.1806105684
 20
8.7475883816
 30
0.0
 10
14.1848829693
 20
8.7523988703
 30
0.0
 10
14.1891483825
 20
8.757627321
 30
0.0
 10
14.1934041068
 20
8.763269812
 30
0.0
 10
14.1961703968
 20
8.7672157956
 30
0.0
 10
14.1975527432
 20
8.7692544947
 30
0.0
  0
SPLINE
  5
380
100
AcDbEntity
  8
0
100
AcDbSpline
 62
7
  6
CONTINUOUS
 70
0
 71
3
 72
9
 73
5
 74
0
 42
0.0000001
 43
0.0000001
 44
0.0000000001
 40
0.0
 40
0.0
 40
0.0
 40
0.0
 40
0.2415810799
 40
1.0
 40
1.0
 40
1.0
 40
1.0
 10
14.1975527432
 20
8.7692544947
 30
0.0
 10
14.1983237579
 20
8.7703915954
 30
0.0
 10
14.2014742395
 20
8.7751262951
 30
0.0
 10
14.2044656901
 20
8.7799661416
 30
0.0
 10
14.2066568259
 20
8.7836811647
 30
0.0
  0
SPLINE
  5
381
100
AcDbEntity
  8
0
100
AcDbSpline
 62
7
  6
CONTINUOUS
 70
0
 71
3
 72
11
 73
7
 74
0
 42
0.0000001
 43
0.0000001
 44
0.0000000001
 40
0.0
 40
0.0
 40
0.0
 40
0.0
 40
0.2707423955
 40
0.5275743428
 40
0.7705940619
 40
1.0
 40
1.0
 40
1.0
 40
1.0
 10
14.2833912383
 20
9.8901096951
 30
0.0
 10
14.2820949324
 20
9.8932242756
 30
0.0
 10
14.279469912
 20
9.8992529542
 30
0.0
 10
14.2753127554
 20
9.9079110085
 30
0.0
 10
14.2710440283
 20
9.9159358627
 30
0.0
 10
14.2680413188
 20
9.9210023796
 30
0.0
 10
14.2665187953
 20
9.9234216717
 30
0.0
  0
SPLINE
  5
382
100
AcDbEntity
  8
0
100
AcDbSpline
 62
7
  6
CONTINUOUS
 70
0
 71
3
 72
55
 73
51
 74
0
 42
0.0000001
 43
0.0000001
 44
0.0000000001
 40
0.0
 40
0.0
 40
0.0
 40
0.0
 40
0.0091577868
 40
0.0177618445
 40
0.0258372884
 40
0.0334170679
 40
0.0405430748
 40
0.0472684852
 40
0.0536583613
 40
0.0597898466
 40
0.0657516837
 40
0.0716409717
 40
0.0775587123
 40
0.0836043685
 40
0.0898706698
 40
0.0964402932
 40
0.0998623988
 40
0.1033856202
 40
0.1107605558
 40
0.1186142058
 40
0.126983132
 40
0.1358954139
 40
0.14537248
 40
0.1554292655
 40
0.1660758699
 40
0.1773187873
 40
0.1891604404
 40
0.2016004246
 40
0.2146363091
 40
0.2282628502
 40
0.2424730097
 40
0.257258518
 40
0.2726089663
 40
0.3049559727
 40
0.3394089097
 40
0.3758441812
 40
0.4141231893
 40
0.4540951793
 40
0.4955985596
 40
0.5384619526
 40
0.5825062071
 40
0.6275453385
 40
0.6733874576
 40
0.7198363195
 40
0.7666923239
 40
0.8137540635
 40
0.8608176619
 40
0.9076794905
 40
0.9541447315
 40
1.0
 40
1.0
 40
1.0
 40
1.0
 10
14.2665187953
 20
9.9234216717
 30
0.0
 10
14.2650666087
 20
9.9257291983
 30
0.0
 10
14.2621352872
 20
9.9301342706
 30
0.0
 10
14.2574977593
 20
9.9362775811
 30
0.0
 10
14.2527637062
 20
9.9417404162
 30
0.0
 10
14.2479375952
 20
9.9465165493
 30
0.0
 10
14.2430227595
 20
9.9505995362
 30
0.0
 10
14.2380232981
 20
9.9539834971
 30
0.0
 10
14.2329436101
 20
9.9566624741
 30
0.0
 10
14.2277887254
 20
9.9586290861
 30
0.0
 10
14.2225662994
 20
9.9598774594
 30
0.0
 10
14.2172858548
 20
9.960403483
 30
0.0
 10
14.2119582766
 20
9.9602047319
 30
0.0
 10
14.2065943062
 20
9.9592836236
 30
0.0
 10
14.201203098
 20
9.9576450318
 30
0.0
 10
14.1967543711
 20
9.9557120001
 30
0.0
 10
14.1931960119
 20
9.9538310011
 30
0.0
 10
14.189527035
 20
9.951656494
 30
0.0
 10
14.1849284357
 20
9.9484774276
 30
0.0
 10
14.1794869461
 20
9.9440234704
 30
0.0
 10
14.17404445
 20
9.9388794616
 30
0.0
 10
14.1686062799
 20
9.9330516292
 30
0.0
 10
14.1631781234
 20
9.9265459846
 30
0.0
 10
14.1577653272
 20
9.9193700024
 30
0.0
 10
14.1523735678
 20
9.9115316341
 30
0.0
 10
14.1470091576
 20
9.903039319
 30
0.0
 10
14.1416777816
 20
9.8939027463
 30
0.0
 10
14.1363853637
 20
9.8841322139
 30
0.0
 10
14.1311382807
 20
9.8737385662
 30
0.0
 10
14.1259422482
 20
9.8627337312
 30
0.0
 10
14.1208031665
 20
9.8511302496
 30
0.0
 10
14.115727204
 20
9.8389411954
 30
0.0
 10
14.1089319395
 20
9.8216231713
 30
0.0
 10
14.1006655849
 20
9.7985984677
 30
0.0
 10
14.0912517613
 20
9.7693354762
 30
0.0
 10
14.0822223122
 20
9.73810921
 30
0.0
 10
14.0736188464
 20
9.7050627905
 30
0.0
 10
14.0654814313
 20
9.6703473043
 30
0.0
 10
14.0578480099
 20
9.6341218685
 30
0.0
 10
14.0507537449
 20
9.5965527306
 30
0.0
 10
14.0442315565
 20
9.5578123803
 30
0.0
 10
14.0383118128
 20
9.5180787311
 30
0.0
 10
14.0330216846
 20
9.4775344095
 30
0.0
 10
14.0283856485
 20
9.4363657985
 30
0.0
 10
14.0244252512
 20
9.3947620015
 30
0.0
 10
14.0211586465
 20
9.3529144351
 30
0.0
 10
14.0186008076
 20
9.3110158477
 30
0.0
 10
14.0167634906
 20
9.2692571792
 30
0.0
 10
14.0156554812
 20
9.2278327629
 30
0.0
 10
14.0154038243
 20
9.2003465876
 30
0.0
 10
14.0154038243
 20
9.1866945929
 30
0.0
  0
SPLINE
  5
383
100
AcDbEntity
  8
0
100
AcDbSpline
 62
7
  6
CONTINUOUS
 70
0
 71
3
 72
9
 73
5
 74
0
 42
0.0000001
 43
0.0000001
 44
0.0000000001
 40
0.0
 40
0.0
 40
0.0
 40
0.0
 40
0.5149357862
 40
1.0
 40
1.0
 40
1.0
 40
1.0
 10
13.3591948156
 20
8.7162797622
 30
0.0
 10
13.3608047638
 20
8.7141053442
 30
0.0
 10
13.3640514657
 20
8.7099697757
 30
0.0
 10
13.3675632854
 20
8.7060549967
 30
0.0
 10
13.3693361147
 20
8.7042240235
 30
0.0
  0
SPLINE
  5
384
100
AcDbEntity
  8
0
100
AcDbSpline
 62
7
  6
CONTINUOUS
 70
0
 71
3
 72
37
 73
33
 74
0
 42
0.0000001
 43
0.0000001
 44
0.0000000001
 40
0.0
 40
0.0
 40
0.0
 40
0.0
 40
0.0964112922
 40
0.1901906492
 40
0.2807583835
 40
0.3675835225
 40
0.4094323166
 40
0.450157461
 40
0.4897016084
 40
0.5280107694
 40
0.5650329334
 40
0.600720838
 40
0.6350299683
 40
0.6679203677
 40
0.6993569715
 40
0.7293088589
 40
0.7577523785
 40
0.7846691308
 40
0.8100495366
 40
0.8338928968
 40
0.8562090528
 40
0.8770224534
 40
0.8963726747
 40
0.9143213188
 40
0.9309549459
 40
0.9463922245
 40
0.9607907246
 40
0.9743509572
 40
0.9808967563
 40
0.9873288622
 40
0.9936838942
 40
1.0
 40
1.0
 40
1.0
 40
1.0
 10
13.2149044762
 20
9.1994715528
 30
0.0
 10
13.2149044762
 20
9.1793124881
 30
0.0
 10
13.2153316384
 20
9.1395431417
 30
0.0
 10
13.2172990512
 20
9.0808658753
 30
0.0
 10
13.2205727486
 20
9.0242540654
 30
0.0
 10
13.224415091
 20
8.9785667576
 30
0.0
 10
13.2281524227
 20
8.9433429387
 30
0.0
 10
13.2312314145
 20
8.9179939712
 30
0.0
 10
13.2346157593
 20
8.8934308108
 30
0.0
 10
13.2382994058
 20
8.8696938715
 30
0.0
 10
13.2422767924
 20
8.8468222541
 30
0.0
 10
13.2465407664
 20
8.8248535832
 30
0.0
 10
13.2510845177
 20
8.80382394
 30
0.0
 10
13.255900516
 20
8.7837678418
 30
0.0
 10
13.2609803749
 20
8.764718086
 30
0.0
 10
13.2663163152
 20
8.7467058704
 30
0.0
 10
13.2718987728
 20
8.7297604133
 30
0.0
 10
13.277719182
 20
8.7139092549
 30
0.0
 10
13.2837677667
 20
8.6991778788
 30
0.0
 10
13.2900346724
 20
8.6855897095
 30
0.0
 10
13.2965106649
 20
8.6731664226
 30
0.0
 10
13.3031850929
 20
8.6619269939
 30
0.0
 10
13.3100494063
 20
8.651889148
 30
0.0
 10
13.3170940009
 20
8.6430679345
 30
0.0
 10
13.3243110077
 20
8.6354774514
 30
0.0
 10
13.3316941165
 20
8.6291313849
 30
0.0
 10
13.3392345794
 20
8.6240434018
 30
0.0
 10
13.3457230392
 20
8.6208282379
 30
0.0
 10
13.3509446913
 20
8.6189368725
 30
0.0
 10
13.3548442925
 20
8.6178556498
 30
0.0
 10
13.3587700439
 20
8.6170966904
 30
0.0
 10
13.36140695
 20
8.6168056187
 30
0.0
 10
13.3627244502
 20
8.6167142804
 30
0.0
  0
SPLINE
  5
385
100
AcDbEntity
  8
0
100
AcDbSpline
 62
7
  6
CONTINUOUS
 70
0
 71
3
 72
48
 73
44
 74
0
 42
0.0000001
 43
0.0000001
 44
0.0000000001
 40
0.0
 40
0.0
 40
0.0
 40
0.0
 40
0.0417704112
 40
0.0840386256
 40
0.1266601605
 40
0.1695075437
 40
0.255350012
 40
0.3405015213
 40
0.3824895014
 40
0.4239116219
 40
0.464640564
 40
0.5045521279
 40
0.5435250537
 40
0.5814424351
 40
0.6181915682
 40
0.6536649563
 40
0.6877611854
 40
0.7203848469
 40
0.7514486498
 40
0.7808729855
 40
0.8085883399
 40
0.8217869473
 40
0.8345375105
 40
0.846834529
 40
0.8586738401
 40
0.8700524822
 40
0.8809683455
 40
0.8914207229
 40
0.9014108926
 40
0.9109416263
 40
0.9200175061
 40
0.9286459499
 40
0.936837114
 40
0.944604074
 40
0.9519639
 40
0.958938379
 40
0.9655541515
 40
0.9718436235
 40
0.9778460214
 40
0.9836072767
 40
0.9891799827
 40
0.9946230313
 40
1.0
 40
1.0
 40
1.0
 40
1.0
 10
13.2149044762
 20
9.1994715528
 30
0.0
 10
13.2149044762
 20
9.2140124505
 30
0.0
 10
13.2151315375
 20
9.2432679972
 30
0.0
 10
13.2161342241
 20
9.287350381
 30
0.0
 10
13.2177989976
 20
9.3317880619
 30
0.0
 10
13.2208956523
 20
9.3913453645
 30
0.0
 10
13.2263628548
 20
9.4655965438
 30
0.0
 10
13.2339324505
 20
9.5393626369
 30
0.0
 10
13.2412254674
 20
9.5975883517
 30
0.0
 10
13.2472487092
 20
9.6403829686
 30
0.0
 10
13.2538306451
 20
9.6823637207
 30
0.0
 10
13.2609491073
 20
9.7233918924
 30
0.0
 10
13.2685808774
 20
9.7633318006
 30
0.0
 10
13.2767001474
 20
9.8020514807
 30
0.0
 10
13.2852801234
 20
9.8394229884
 30
0.0
 10
13.2942922523
 20
9.87532294
 30
0.0
 10
13.3037062034
 20
9.9096329375
 30
0.0
 10
13.313491108
 20
9.9422398414
 30
0.0
 10
13.3236137377
 20
9.9730365877
 30
0.0
 10
13.3340408887
 20
10.0019216237
 30
0.0
 10
13.3430960882
 20
10.0246773734
 30
0.0
 10
13.3504861802
 20
10.041836026
 30
0.0
 10
13.3559926274
 20
10.0539590793
 30
0.0
 10
13.361549116
 20
10.0655366283
 30
0.0
 10
13.3671510502
 20
10.076559223
 30
0.0
 10
13.3727936267
 20
10.0870179745
 30
0.0
 10
13.3784723341
 20
10.0969042401
 30
0.0
 10
13.3841827131
 20
10.1062098375
 30
0.0
 10
13.3899198598
 20
10.1149274183
 30
0.0
 10
13.395679139
 20
10.1230499632
 30
0.0
 10
13.4014562689
 20
10.1305706675
 30
0.0
 10
13.4072465368
 20
10.1374836364
 30
0.0
 10
13.4130453549
 20
10.1437835143
 30
0.0
 10
13.4188486003
 20
10.1494649963
 30
0.0
 10
13.4246521528
 20
10.1545233005
 30
0.0
 10
13.4304516863
 20
10.1589544991
 30
0.0
 10
13.436243344
 20
10.1627545421
 30
0.0
 10
13.4420235042
 20
10.165919063
 30
0.0
 10
13.4477879386
 20
10.1684446558
 30
0.0
 10
13.4535322212
 20
10.1703277669
 30
0.0
 10
13.4592517741
 20
10.1715642035
 30
0.0
 10
13.4649395544
 20
10.1721510422
 30
0.0
 10
13.4687157402
 20
10.1721079823
 30
0.0
 10
13.4705830605
 20
10.1719785266
 30
0.0
  0
SPLINE
  5
386
100
AcDbEntity
  8
0
100
AcDbSpline
 62
7
  6
CONTINUOUS
 70
0
 71
3
 72
9
 73
5
 74
0
 42
0.0000001
 43
0.0000001
 44
0.0000000001
 40
0.0
 40
0.0
 40
0.0
 40
0.0
 40
0.5149357862
 40
1.0
 40
1.0
 40
1.0
 40
1.0
 10
14.0294629878
 20
8.6697965066
 30
0.0
 10
14.031072936
 20
8.6676220886
 30
0.0
 10
14.0343196379
 20
8.6634865201
 30
0.0
 10
14.0378314576
 20
8.6595717411
 30
0.0
 10
14.0396042869
 20
8.6577407679
 30
0.0
  0
SPLINE
  5
387
100
AcDbEntity
  8
0
100
AcDbSpline
 62
7
  6
CONTINUOUS
 70
0
 71
3
 72
41
 73
37
 74
0
 42
0.0000001
 43
0.0000001
 44
0.0000000001
 40
0.0
 40
0.0
 40
0.0
 40
0.0
 40
0.0310748272
 40
0.0623072483
 40
0.0936920359
 40
0.1252208484
 40
0.156882237
 40
0.188662033
 40
0.2205436266
 40
0.2525083437
 40
0.2845358343
 40
0.3166044929
 40
0.3486918936
 40
0.3807752384
 40
0.4128318095
 40
0.4448394218
 40
0.4767768664
 40
0.5086243418
 40
0.5403638639
 40
0.5719796493
 40
0.6034584635
 40
0.6347899281
 40
0.6659667781
 40
0.6969850622
 40
0.7278442783
 40
0.7585474376
 40
0.7891010512
 40
0.8195150346
 40
0.8498025274
 40
0.8649066426
 40
0.8799854039
 40
0.9100708284
 40
0.9400854823
 40
0.9550762294
 40
0.970057877
 40
1.0
 40
1.0
 40
1.0
 40
1.0
 10
8.2219659854
 20
9.2989222942
 30
0.0
 10
8.2219659854
 20
9.303781646
 30
0.0
 10
8.2216034779
 20
9.313528732
 30
0.0
 10
8.2199850234
 20
9.3281026896
 30
0.0
 10
8.2172995446
 20
9.3425910898
 30
0.0
 10
8.2135619565
 20
9.3569132952
 30
0.0
 10
8.2087929138
 20
9.3709909654
 30
0.0
 10
8.2030187257
 20
9.3847467515
 30
0.0
 10
8.1962711896
 20
9.3981051848
 30
0.0
 10
8.1885874265
 20
9.4109929587
 30
0.0
 10
8.1800096725
 20
9.4233393595
 30
0.0
 10
8.1705850504
 20
9.4350766407
 30
0.0
 10
8.1603653123
 20
9.4461403929
 30
0.0
 10
8.1494065579
 20
9.4564698925
 30
0.0
 10
8.1377689296
 20
9.4660084322
 30
0.0
 10
8.1255162862
 20
9.4747036288
 30
0.0
 10
8.1127158561
 20
9.4825077086
 30
0.0
 10
8.099437873
 20
9.4893777677
 30
0.0
 10
8.0857551954
 20
9.4952760063
 30
0.0
 10
8.0717429118
 20
9.5001699365
 30
0.0
 10
8.057477935
 20
9.5040325608
 30
0.0
 10
8.0430385855
 20
9.5068425229
 30
0.0
 10
8.0285041668
 20
9.5085842276
 30
0.0
 10
8.0139545399
 20
9.5092479341
 30
0.0
 10
7.9994696738
 20
9.5088298081
 30
0.0
 10
7.9851292688
 20
9.5073319785
 30
0.0
 10
7.9710121013
 20
9.5047624371
 30
0.0
 10
7.9571964045
 20
9.5011353664
 30
0.0
 10
7.9459855531
 20
9.4972435698
 30
0.0
 10
7.9372472385
 20
9.4936242962
 30
0.0
 10
7.9286858047
 20
9.4896793187
 30
0.0
 10
7.9183050374
 20
9.4841340174
 30
0.0
 10
7.9084056139
 20
9.4777944269
 30
0.0
 10
7.9008188895
 20
9.4722737217
 30
0.0
 10
7.8934663255
 20
9.4664638984
 30
0.0
 10
7.8882163113
 20
9.4617815005
 30
0.0
 10
7.8848486111
 20
9.4585285296
 30
0.0
  0
SPLINE
  5
388
100
AcDbEntity
  8
0
100
AcDbSpline
 62
7
  6
CONTINUOUS
 70
0
 71
3
 72
41
 73
37
 74
0
 42
0.0000001
 43
0.0000001
 44
0.0000000001
 40
0.0
 40
0.0
 40
0.0
 40
0.0
 40
0.0310748272
 40
0.0623072483
 40
0.0936920359
 40
0.1252208484
 40
0.156882237
 40
0.188662033
 40
0.2205436266
 40
0.2525083437
 40
0.2845358343
 40
0.3166044929
 40
0.3486918936
 40
0.3807752384
 40
0.4128318095
 40
0.4448394218
 40
0.4767768664
 40
0.5086243418
 40
0.5403638639
 40
0.5719796493
 40
0.6034584635
 40
0.6347899281
 40
0.6659667781
 40
0.6969850622
 40
0.7278442783
 40
0.7585474376
 40
0.7891010512
 40
0.8195150346
 40
0.8498025274
 40
0.8649066426
 40
0.8799854039
 40
0.9100708284
 40
0.9400854823
 40
0.9550762294
 40
0.970057877
 40
1.0
 40
1.0
 40
1.0
 40
1.0
 10
12.8101139321
 20
7.0488813864
 30
0.0
 10
12.8101139321
 20
7.0537407382
 30
0.0
 10
12.8097514246
 20
7.0634878242
 30
0.0
 10
12.8081329701
 20
7.0780617818
 30
0.0
 10
12.8054474914
 20
7.092550182
 30
0.0
 10
12.8017099032
 20
7.1068723873
 30
0.0
 10
12.7969408606
 20
7.1209500575
 30
0.0
 10
12.7911666724
 20
7.1347058436
 30
0.0
 10
12.7844191364
 20
7.1480642769
 30
0.0
 10
12.7767353732
 20
7.1609520508
 30
0.0
 10
12.7681576192
 20
7.1732984517
 30
0.0
 10
12.7587329972
 20
7.1850357329
 30
0.0
 10
12.7485132591
 20
7.196099485
 30
0.0
 10
12.7375545046
 20
7.2064289847
 30
0.0
 10
12.7259168763
 20
7.2159675244
 30
0.0
 10
12.7136642329
 20
7.224662721
 30
0.0
 10
12.7008638029
 20
7.2324668008
 30
0.0
 10
12.6875858198
 20
7.2393368598
 30
0.0
 10
12.6739031421
 20
7.2452350985
 30
0.0
 10
12.6598908585
 20
7.2501290287
 30
0.0
 10
12.6456258817
 20
7.253991653
 30
0.0
 10
12.6311865322
 20
7.256801615
 30
0.0
 10
12.6166521135
 20
7.2585433198
 30
0.0
 10
12.6021024867
 20
7.2592070262
 30
0.0
 10
12.5876176205
 20
7.2587889003
 30
0.0
 10
12.5732772155
 20
7.2572910706
 30
0.0
 10
12.559160048
 20
7.2547215292
 30
0.0
 10
12.5453443513
 20
7.2510944585
 30
0.0
 10
12.5341334998
 20
7.2472026619
 30
0.0
 10
12.5253951852
 20
7.2435833884
 30
0.0
 10
12.5168337514
 20
7.2396384109
 30
0.0
 10
12.5064529842
 20
7.2340931095
 30
0.0
 10
12.4965535606
 20
7.227753519
 30
0.0
 10
12.4889668362
 20
7.2222328139
 30
0.0
 10
12.4816142722
 20
7.2164229905
 30
0.0
 10
12.476364258
 20
7.2117405926
 30
0.0
 10
12.4729965579
 20
7.2084876218
 30
0.0
  0
SPLINE
  5
389
100
AcDbEntity
  8
0
100
AcDbSpline
 62
7
  6
CONTINUOUS
 70
0
 71
3
 72
39
 73
35
 74
0
 42
0.0000001
 43
0.0000001
 44
0.0000000001
 40
0.0
 40
0.0
 40
0.0
 40
0.0
 40
0.0311450401
 40
0.062443098
 40
0.0938883402
 40
0.1254709779
 40
0.1571788704
 40
0.1889972432
 40
0.2209091549
 40
0.2528958204
 40
0.2849369968
 40
0.3170113846
 40
0.3490970423
 40
0.3811718113
 40
0.4132137424
 40
0.4452015207
 40
0.4771148823
 40
0.5089350149
 40
0.5406449388
 40
0.5722298604
 40
0.6036774924
 40
0.6349783353
 40
0.6661259096
 40
0.6971169338
 40
0.7279514411
 40
0.7586328285
 40
0.7891678337
 40
0.8195664367
 40
0.8498416808
 40
0.8800094153
 40
0.9100879635
 40
0.9400977213
 40
0.9700606967
 40
1.0
 40
1.0
 40
1.0
 40
1.0
 10
11.044401417
 20
7.9585635603
 30
0.0
 10
11.0547796891
 20
7.9578438247
 30
0.0
 10
11.0755422641
 20
7.955641176
 30
0.0
 10
11.106434413
 20
7.950092612
 30
0.0
 10
11.1369956765
 20
7.9423207765
 30
0.0
 10
11.1670610132
 20
7.932367414
 30
0.0
 10
11.1964706854
 20
7.9202859041
 30
0.0
 10
11.2250678174
 20
7.9061408508
 30
0.0
 10
11.2527000604
 20
7.8900078397
 30
0.0
 10
11.2792201773
 20
7.8719730173
 30
0.0
 10
11.3044868745
 20
7.8521326237
 30
0.0
 10
11.3283655233
 20
7.8305924773
 30
0.0
 10
11.3507288743
 20
7.8074674169
 30
0.0
 10
11.3714577266
 20
7.7828806963
 30
0.0
 10
11.3904415525
 20
7.7569633329
 30
0.0
 10
11.4075791046
 20
7.7298534331
 30
0.0
 10
11.4227789398
 20
7.701695451
 30
0.0
 10
11.4359598951
 20
7.6726394236
 30
0.0
 10
11.44705152
 20
7.6428401837
 30
0.0
 10
11.455994452
 20
7.6124565465
 30
0.0
 10
11.4627407315
 20
7.5816504751
 30
0.0
 10
11.4672540862
 20
7.5505862344
 30
0.0
 10
11.4695101253
 20
7.5194295204
 30
0.0
 10
11.4694964646
 20
7.488346586
 30
0.0
 10
11.4672128097
 20
7.4575033655
 30
0.0
 10
11.4626709746
 20
7.4270645967
 30
0.0
 10
11.4558948343
 20
7.3971929472
 30
0.0
 10
11.4469202356
 20
7.3680481374
 30
0.0
 10
11.4357948402
 20
7.3397860896
 30
0.0
 10
11.4225778149
 20
7.3125580358
 30
0.0
 10
11.4073397379
 20
7.2865098897
 30
0.0
 10
11.3901614858
 20
7.2617807135
 30
0.0
 10
11.3711365848
 20
7.2385046769
 30
0.0
 10
11.357283949
 20
7.2240330924
 30
0.0
 10
11.3500910917
 20
7.2170852958
 30
0.0
  0
SPLINE
  5
38A
100
AcDbEntity
  8
0
100
AcDbSpline
 62
7
  6
CONTINUOUS
 70
0
 71
3
 72
53
 73
49
 74
0
 42
0.0000001
 43
0.0000001
 44
0.0000000001
 40
0.0
 40
0.0
 40
0.0
 40
0.0
 40
0.0417740478
 40
0.0840369835
 40
0.1266585592
 40
0.1695065657
 40
0.2124481957
 40
0.2553501644
 40
0.2980793779
 40
0.3405034127
 40
0.3824910553
 40
0.4239128269
 40
0.4646415185
 40
0.5045527309
 40
0.5435254266
 40
0.5814424966
 40
0.6181913512
 40
0.6536645436
 40
0.6877604426
 40
0.7203839756
 40
0.7361162401
 40
0.7514482063
 40
0.7663702194
 40
0.7808732533
 40
0.7949489098
 40
0.808589482
 40
0.8217880323
 40
0.8345384043
 40
0.8468353889
 40
0.8586746951
 40
0.8700532057
 40
0.8809689358
 40
0.8914213732
 40
0.9014114696
 40
0.9109420597
 40
0.9200179488
 40
0.9286464106
 40
0.9368374402
 40
0.9446043453
 40
0.9519642202
 40
0.9589386335
 40
0.9655543067
 40
0.9718438059
 40
0.9778461959
 40
0.9836073668
 40
0.9891800504
 40
0.9946230772
 40
1.0
 40
1.0
 40
1.0
 40
1.0
 10
13.0973803972
 20
9.206952003
 30
0.0
 10
13.0973803972
 20
9.2215409072
 30
0.0
 10
13.0976079992
 20
9.2508899102
 30
0.0
 10
13.0986141898
 20
9.2951134343
 30
0.0
 10
13.1002842158
 20
9.3396922657
 30
0.0
 10
13.1026126065
 20
9.3844788518
 30
0.0
 10
13.1055916651
 20
9.4293250044
 30
0.0
 10
13.1092115455
 20
9.4740823653
 30
0.0
 10
13.1134602559
 20
9.5186028559
 30
0.0
 10
13.118323712
 20
9.5627391925
 30
0.0
 10
13.1237857777
 20
9.6063453692
 30
0.0
 10
13.12982832
 20
9.6492771471
 30
0.0
 10
13.1364312673
 20
9.6913925352
 30
0.0
 10
13.1435726745
 20
9.7325522666
 30
0.0
 10
13.1512287947
 20
9.772620264
 30
0.0
 10
13.1593741549
 20
9.811464107
 30
0.0
 10
13.1679816424
 20
9.8489554535
 30
0.0
 10
13.1770225801
 20
9.8849705821
 30
0.0
 10
13.1864668683
 20
9.9193904635
 30
0.0
 10
13.1947438766
 20
9.9469735867
 30
0.0
 10
13.2015570583
 20
9.9681468978
 30
0.0
 10
13.206686155
 20
9.9833663516
 30
0.0
 10
13.2118920576
 20
9.9981052076
 30
0.0
 10
13.2171704668
 20
10.0123513173
 30
0.0
 10
13.2225170049
 20
10.0260929236
 30
0.0
 10
13.227927252
 20
10.0393186979
 30
0.0
 10
13.2333967044
 20
10.0520177509
 30
0.0
 10
13.2389208746
 20
10.0641796251
 30
0.0
 10
13.2444951444
 20
10.0757943397
 30
0.0
 10
13.2501149806
 20
10.0868523472
 30
0.0
 10
13.2557756786
 20
10.0973446175
 30
0.0
 10
13.2614726814
 20
10.1072625496
 30
0.0
 10
13.2672012409
 20
10.116598102
 30
0.0
 10
13.2729568035
 20
10.1253436559
 30
0.0
 10
13.2787346408
 20
10.1334921846
 30
0.0
 10
13.2845302457
 20
10.1410370784
 30
0.0
 10
13.2903389988
 20
10.1479723264
 30
0.0
 10
13.29615651
 20
10.1542923241
 30
0.0
 10
13.3019783832
 20
10.1599920149
 30
0.0
 10
13.3078004381
 20
10.1650667118
 30
0.0
 10
13.3136185973
 20
10.1695121177
 30
0.0
 10
13.3194289169
 20
10.1733242077
 30
0.0
 10
13.3252275294
 20
10.1764990547
 30
0.0
 10
13.3310104242
 20
10.1790328923
 30
0.0
 10
13.3367732049
 20
10.1809218205
 30
0.0
 10
13.3425110613
 20
10.1821623289
 30
0.0
 10
13.3482170755
 20
10.1827512508
 30
0.0
 10
13.3520053818
 20
10.1827080252
 30
0.0
 10
13.3538786849
 20
10.1825781108
 30
0.0
  0
SPLINE
  5
38B
100
AcDbEntity
  8
0
100
AcDbSpline
 62
7
  6
CONTINUOUS
 70
0
 71
3
 72
88
 73
84
 74
0
 42
0.0000001
 43
0.0000001
 44
0.0000000001
 40
0.0
 40
0.0
 40
0.0
 40
0.0
 40
0.00398019
 40
0.0081241279
 40
0.012435984
 40
0.0169193403
 40
0.0215772217
 40
0.026411968
 40
0.03142524
 40
0.0366182254
 40
0.0419916187
 40
0.0475457474
 40
0.0532805245
 40
0.0591955312
 40
0.0652900466
 40
0.0715630374
 40
0.0846387255
 40
0.0984100564
 40
0.1128606485
 40
0.1279711965
 40
0.1437198106
 40
0.1600822931
 40
0.1770323702
 40
0.1945418895
 40
0.2125809905
 40
0.2311182618
 40
0.2501208831
 40
0.2695547551
 40
0.289384621
 40
0.309574183
 40
0.3300862123
 40
0.3508826567
 40
0.3719247472
 40
0.3931731028
 40
0.4145878328
 40
0.4361286373
 40
0.4577549081
 40
0.5010997345
 40
0.5442957932
 40
0.5657364549
 40
0.5870180425
 40
0.6081005829
 40
0.6289445938
 40
0.6495111877
 40
0.6697621758
 40
0.6896601722
 40
0.7091687011
 40
0.7282523074
 40
0.7468766714
 40
0.7650087296
 40
0.7826168049
 40
0.7996707468
 40
0.8161420806
 40
0.8320041762
 40
0.8472324412
 40
0.8618045456
 40
0.8757006897
 40
0.8889039322
 40
0.8952415306
 40
0.9014010782
 40
0.9073814661
 40
0.9131818436
 40
0.9188016978
 40
0.9242407986
 40
0.9294993296
 40
0.9345778344
 40
0.939477329
 40
0.9441993212
 40
0.9487458596
 40
0.953119651
 40
0.9573240595
 40
0.9613632868
 40
0.9652423839
 40
0.9689674258
 40
0.9725455946
 40
0.9759852982
 40
0.9824864684
 40
0.985575327
 40
0.9885737973
 40
0.9914977211
 40
0.9943643259
 40
0.9971920046
 40
1.0
 40
1.0
 40
1.0
 40
1.0
 10
10.824108719
 20
10.9022881023
 30
0.0
 10
10.8223757237
 20
10.9006141573
 30
0.0
 10
10.818759737
 20
10.8972781066
 30
0.0
 10
10.8130186623
 20
10.8924055535
 30
0.0
 10
10.8068559991
 20
10.8875679516
 30
0.0
 10
10.8002751282
 20
10.8827678699
 30
0.0
 10
10.793279258
 20
10.8780075498
 30
0.0
 10
10.7858718164
 20
10.8732893075
 30
0.0
 10
10.7780565082
 20
10.868615405
 30
0.0
 10
10.769837211
 20
10.863988268
 30
0.0
 10
10.7612180752
 20
10.8594101173
 30
0.0
 10
10.7522033858
 20
10.8548833088
 30
0.0
 10
10.7427976748
 20
10.8504100665
 30
0.0
 10
10.7330056629
 20
10.8459926605
 30
0.0
 10
10.7228322543
 20
10.8416333048
 30
0.0
 10
10.7085682437
 20
10.8358206747
 30
0.0
 10
10.6898098707
 20
10.828731608
 30
0.0
 10
10.6661647265
 20
10.8206038954
 30
0.0
 10
10.6411307068
 20
10.8127583893
 30
0.0
 10
10.6147582884
 20
10.8052110362
 30
0.0
 10
10.5871004163
 20
10.7979771966
 30
0.0
 10
10.5582128048
 20
10.7910716031
 30
0.0
 10
10.5281536861
 20
10.7845083239
 30
0.0
 10
10.4969837177
 20
10.7783007318
 30
0.0
 10
10.4647658414
 20
10.7724614695
 30
0.0
 10
10.4315651498
 20
10.767002427
 30
0.0
 10
10.3974487456
 20
10.7619347186
 30
0.0
 10
10.3624856009
 20
10.7572686598
 30
0.0
 10
10.3267464148
 20
10.7530137471
 30
0.0
 10
10.2903034678
 20
10.7491786389
 30
0.0
 10
10.2532304754
 20
10.7457711394
 30
0.0
 10
10.2156024366
 20
10.7427981784
 30
0.0
 10
10.177495482
 20
10.7402658006
 30
0.0
 10
10.1389867102
 20
10.7381791519
 30
0.0
 10
10.1001540559
 20
10.7365424843
 30
0.0
 10
10.0610760346
 20
10.7353590896
 30
0.0
 10
10.0087135228
 20
10.734388295
 30
0.0
 10
9.9432276293
 20
10.734319413
 30
0.0
 10
9.8778700557
 20
10.7357703963
 30
0.0
 10
9.8258993535
 20
10.7378479679
 30
0.0
 10
9.7873258377
 20
10.7398531108
 30
0.0
 10
9.7491400715
 20
10.7423047943
 30
0.0
 10
9.7114192601
 20
10.745198074
 30
0.0
 10
9.6742397361
 20
10.7485270563
 30
0.0
 10
9.6376767103
 20
10.7522849706
 30
0.0
 10
9.6018041426
 20
10.756464171
 30
0.0
 10
9.5666945858
 20
10.7610561541
 30
0.0
 10
9.5324190389
 20
10.7660515752
 30
0.0
 10
9.4990468007
 20
10.7714402668
 30
0.0
 10
9.4666453254
 20
10.7772112597
 30
0.0
 10
9.4352800801
 20
10.7833528025
 30
0.0
 10
9.4050144043
 20
10.7898523835
 30
0.0
 10
9.3759093795
 20
10.7966967616
 30
0.0
 10
9.3480236885
 20
10.8038719937
 30
0.0
 10
9.3214135193
 20
10.8113634657
 30
0.0
 10
9.2961323181
 20
10.8191559299
 30
0.0
 10
9.272231072
 20
10.8272335405
 30
0.0
 10
9.2532525735
 20
10.8342816652
 30
0.0
 10
9.2388079794
 20
10.8400628607
 30
0.0
 10
9.2284971455
 20
10.8444005732
 30
0.0
 10
9.2185658602
 20
10.8487971023
 30
0.0
 10
9.2090191181
 20
10.8532503162
 30
0.0
 10
9.1998616954
 20
10.8577578923
 30
0.0
 10
9.191098212
 20
10.8623176517
 30
0.0
 10
9.1827330303
 20
10.8669272318
 30
0.0
 10
9.1747703539
 20
10.8715843893
 30
0.0
 10
9.16721415
 20
10.8762867849
 30
0.0
 10
9.1600681754
 20
10.8810320811
 30
0.0
 10
9.1533360152
 20
10.8858180007
 30
0.0
 10
9.1470209705
 20
10.8906421335
 30
0.0
 10
9.1411262381
 20
10.8955022548
 30
0.0
 10
9.1356547052
 20
10.9003959479
 30
0.0
 10
9.1306091306
 20
10.9053210326
 30
0.0
 10
9.1259921608
 20
10.9102750286
 30
0.0
 10
9.1218057888
 20
10.9152562669
 30
0.0
 10
9.1168947791
 20
10.9218060208
 30
0.0
 10
9.1127245322
 20
10.9285323177
 30
0.0
 10
9.1094135376
 20
10.935402238
 30
0.0
 10
9.1074130494
 20
10.9404830567
 30
0.0
 10
9.1058551964
 20
10.945576238
 30
0.0
 10
9.1047412558
 20
10.9506793077
 30
0.0
 10
9.1040724588
 20
10.955788628
 30
0.0
 10
9.1039235706
 20
10.9592020541
 30
0.0
 10
9.1039235709
 20
10.9609018914
 30
0.0
  0
SPLINE
  5
38C
100
AcDbEntity
  8
0
100
AcDbSpline
 62
7
  6
CONTINUOUS
 70
0
 71
3
 72
11
 73
7
 74
0
 42
0.0000001
 43
0.0000001
 44
0.0000000001
 40
0.0
 40
0.0
 40
0.0
 40
0.0
 40
0.2588311319
 40
0.5101766924
 40
0.7563929594
 40
1.0
 40
1.0
 40
1.0
 40
1.0
 10
10.5801730869
 20
10.8749128477
 30
0.0
 10
10.5807866956
 20
10.8763324908
 30
0.0
 10
10.5818706432
 20
10.8791874396
 30
0.0
 10
10.5830539998
 20
10.8835571762
 30
0.0
 10
10.583765173
 20
10.8879363464
 30
0.0
 10
10.5839235552
 20
10.8908655429
 30
0.0
 10
10.5839235513
 20
10.8923211529
 30
0.0
  0
SPLINE
  5
38D
100
AcDbEntity
  8
0
100
AcDbSpline
 62
7
  6
CONTINUOUS
 70
0
 71
3
 72
41
 73
37
 74
0
 42
0.0000001
 43
0.0000001
 44
0.0000000001
 40
0.0
 40
0.0
 40
0.0
 40
0.0
 40
0.0311445021
 40
0.0624424749
 40
0.0938872635
 40
0.1254695783
 40
0.1571771084
 40
0.1889951272
 40
0.2209066806
 40
0.2528929874
 40
0.2849338043
 40
0.3170078318
 40
0.3490931284
 40
0.3811675354
 40
0.4132091043
 40
0.4451965207
 40
0.4771095205
 40
0.5089292914
 40
0.5406388537
 40
0.5722234141
 40
0.6036706863
 40
0.634971171
 40
0.6661183885
 40
0.697109057
 40
0.7279432097
 40
0.7586242438
 40
0.7891588981
 40
0.8195571526
 40
0.8498320501
 40
0.8649308928
 40
0.8800050512
 40
0.9100832561
 40
0.9400926724
 40
0.9550812755
 40
0.9700610347
 40
1.0
 40
1.0
 40
1.0
 40
1.0
 10
11.0563070835
 20
7.7720487455
 30
0.0
 10
11.0618500001
 20
7.771664343
 30
0.0
 10
11.0729391334
 20
7.7704879123
 30
0.0
 10
11.0894383803
 20
7.7675245058
 30
0.0
 10
11.1057609285
 20
7.7633735949
 30
0.0
 10
11.121818567
 20
7.7580575935
 30
0.0
 10
11.1375260296
 20
7.7516049366
 30
0.0
 10
11.1527995168
 20
7.7440501671
 30
0.0
 10
11.1675576662
 20
7.7354336471
 30
0.0
 10
11.1817218377
 20
7.7258013869
 30
0.0
 10
11.1952165644
 20
7.7152047826
 30
0.0
 10
11.207969941
 20
7.7037003507
 30
0.0
 10
11.2199140045
 20
7.6913494269
 30
0.0
 10
11.2309850923
 20
7.6782178428
 30
0.0
 10
11.2411241782
 20
7.664375578
 30
0.0
 10
11.2502771845
 20
7.6498963913
 30
0.0
 10
11.2583952676
 20
7.6348574323
 30
0.0
 10
11.2654350772
 20
7.6193388343
 30
0.0
 10
11.2713589866
 20
7.6034232934
 30
0.0
 10
11.2761352931
 20
7.587195633
 30
0.0
 10
11.2797383888
 20
7.570742358
 30
0.0
 10
11.2821488998
 20
7.5541511999
 30
0.0
 10
11.2833537927
 20
7.5375106542
 30
0.0
 10
11.283346453
 20
7.5209095191
 30
0.0
 10
11.2821267183
 20
7.5044364088
 30
0.0
 10
11.2797009212
 20
7.4881793484
 30
0.0
 10
11.2760817446
 20
7.4722250689
 30
0.0
 10
11.2712886146
 20
7.4566594213
 30
0.0
 10
11.2663317057
 20
7.4440677285
 30
0.0
 10
11.2618082931
 20
7.4342757293
 30
0.0
 10
11.2569266277
 20
7.4246966547
 30
0.0
 10
11.2501487408
 20
7.413110251
 30
0.0
 10
11.2424990924
 20
7.4020984223
 30
0.0
 10
11.2358886841
 20
7.3936812461
 30
0.0
 10
11.228962919
 20
7.3855388212
 30
0.0
 10
11.2234141956
 20
7.3797420859
 30
0.0
 10
11.219572529
 20
7.376031346
 30
0.0
  0
SPLINE
  5
38E
100
AcDbEntity
  8
0
100
AcDbSpline
 62
7
  6
CONTINUOUS
 70
0
 71
3
 72
21
 73
17
 74
0
 42
0.0000001
 43
0.0000001
 44
0.0000000001
 40
0.0
 40
0.0
 40
0.0
 40
0.0
 40
0.1274738588
 40
0.254066744
 40
0.3170668616
 40
0.3798654398
 40
0.4424734153
 40
0.5049033591
 40
0.5671697562
 40
0.6292888943
 40
0.6912786507
 40
0.753158338
 40
0.8149484586
 40
0.8766705102
 40
0.9383467683
 40
1.0
 40
1.0
 40
1.0
 40
1.0
 10
11.0563070835
 20
7.7720487455
 30
0.0
 10
11.0487443068
 20
7.7725732259
 30
0.0
 10
11.0336084121
 20
7.7728686247
 30
0.0
 10
11.0147812589
 20
7.7713249587
 30
0.0
 10
10.9999548724
 20
7.7689489687
 30
0.0
 10
10.9889925844
 20
7.7666060948
 30
0.0
 10
10.9781998066
 20
7.7637054988
 30
0.0
 10
10.9676033863
 20
7.7602545119
 30
0.0
 10
10.9572300922
 20
7.7562618117
 30
0.0
 10
10.9471060727
 20
7.751737347
 30
0.0
 10
10.9372568185
 20
7.7466925625
 30
0.0
 10
10.9277071276
 20
7.7411401595
 30
0.0
 10
10.9184811379
 20
7.7350940521
 30
0.0
 10
10.9096019901
 20
7.7285694412
 30
0.0
 10
10.9010923295
 20
7.7215830798
 30
0.0
 10
10.8956788308
 20
7.7166282954
 30
0.0
 10
10.8930416379
 20
7.7140809798
 30
0.0
  0
SPLINE
  5
38F
100
AcDbEntity
  8
0
100
AcDbSpline
 62
7
  6
CONTINUOUS
 70
0
 71
3
 72
15
 73
11
 74
0
 42
0.0000001
 43
0.0000001
 44
0.0000000001
 40
0.0
 40
0.0
 40
0.0
 40
0.0
 40
0.1234394136
 40
0.2470466177
 40
0.370982561
 40
0.4953948844
 40
0.6204121622
 40
0.7461393429
 40
0.8726517211
 40
1.0
 40
1.0
 40
1.0
 40
1.0
 10
8.1669174509
 20
9.166512857
 30
0.0
 10
8.171276151
 20
9.1707230669
 30
0.0
 10
8.1795717313
 20
9.1796053346
 30
0.0
 10
8.1905891689
 20
9.1941459787
 30
0.0
 10
8.2000885348
 20
9.2097787437
 30
0.0
 10
8.2079805395
 20
9.2263571491
 30
0.0
 10
8.2141931888
 20
9.2437281298
 30
0.0
 10
8.2186695038
 20
9.2617314914
 30
0.0
 10
8.2213690493
 20
9.2801988594
 30
0.0
 10
8.2219659854
 20
9.2926703512
 30
0.0
 10
8.2219659854
 20
9.2989222942
 30
0.0
  0
SPLINE
  5
390
100
AcDbEntity
  8
0
100
AcDbSpline
 62
7
  6
CONTINUOUS
 70
0
 71
3
 72
15
 73
11
 74
0
 42
0.0000001
 43
0.0000001
 44
0.0000000001
 40
0.0
 40
0.0
 40
0.0
 40
0.0
 40
0.1234394136
 40
0.2470466177
 40
0.370982561
 40
0.4953948844
 40
0.6204121622
 40
0.7461393429
 40
0.8726517211
 40
1.0
 40
1.0
 40
1.0
 40
1.0
 10
12.7550653976
 20
6.9164719491
 30
0.0
 10
12.7594240977
 20
6.920682159
 30
0.0
 10
12.7677196781
 20
6.9295644267
 30
0.0
 10
12.7787371156
 20
6.9441050709
 30
0.0
 10
12.7882364815
 20
6.9597378358
 30
0.0
 10
12.7961284862
 20
6.9763162413
 30
0.0
 10
12.8023411355
 20
6.9936872219
 30
0.0
 10
12.8068174506
 20
7.0116905835
 30
0.0
 10
12.809516996
 20
7.0301579516
 30
0.0
 10
12.8101139321
 20
7.0426294433
 30
0.0
 10
12.8101139321
 20
7.0488813864
 30
0.0
  0
SPLINE
  5
391
100
AcDbEntity
  8
0
100
AcDbSpline
 62
7
  6
CONTINUOUS
 70
0
 71
3
 72
61
 73
57
 74
0
 42
0.0000001
 43
0.0000001
 44
0.0000000001
 40
0.0
 40
0.0
 40
0.0
 40
0.0
 40
0.0077405164
 40
0.0160541044
 40
0.02496026
 40
0.0344717073
 40
0.0445949663
 40
0.0553318113
 40
0.0666800235
 40
0.07863401
 40
0.0911852701
 40
0.1043227735
 40
0.1180333063
 40
0.1323017004
 40
0.1471109966
 40
0.1624426615
 40
0.1782767373
 40
0.1945919266
 40
0.2113657169
 40
0.2285745087
 40
0.246193685
 40
0.2641976737
 40
0.2825600621
 40
0.3012536693
 40
0.3395215995
 40
0.3787717423
 40
0.4187655405
 40
0.4592584341
 40
0.5000018585
 40
0.5407452654
 40
0.5812381067
 40
0.621231822
 40
0.6604818432
 40
0.6987496268
 40
0.7174431424
 40
0.7358054381
 40
0.7538093288
 40
0.771428392
 40
0.7886370661
 40
0.8054107391
 40
0.8217258002
 40
0.8375597344
 40
0.8528912625
 40
0.8677004179
 40
0.8819686546
 40
0.8956790315
 40
0.9088163825
 40
0.9213674799
 40
0.933321294
 40
0.9446693432
 40
0.9554060288
 40
0.9655291091
 40
0.9750403734
 40
0.9839464387
 40
0.9922597593
 40
1.0
 40
1.0
 40
1.0
 40
1.0
 10
10.6147880206
 20
10.8996746268
 30
0.0
 10
10.6123054737
 20
10.8973644536
 30
0.0
 10
10.6069613424
 20
10.8927803388
 30
0.0
 10
10.5981944413
 20
10.886233237
 30
0.0
 10
10.5884113948
 20
10.8797848507
 30
0.0
 10
10.5776282309
 20
10.8734453533
 30
0.0
 10
10.5658615985
 20
10.8672244045
 30
0.0
 10
10.5531303348
 20
10.8611319095
 30
0.0
 10
10.5394548423
 20
10.8551776717
 30
0.0
 10
10.5248571918
 20
10.8493714296
 30
0.0
 10
10.5093610799
 20
10.8437227073
 30
0.0
 10
10.4929917655
 20
10.8382407962
 30
0.0
 10
10.4757759877
 20
10.8329347629
 30
0.0
 10
10.4577419276
 20
10.8278134064
 30
0.0
 10
10.4389191689
 20
10.8228851874
 30
0.0
 10
10.4193386185
 20
10.8181582702
 30
0.0
 10
10.3990324458
 20
10.8136405075
 30
0.0
 10
10.378034046
 20
10.8093393822
 30
0.0
 10
10.356377975
 20
10.8052620086
 30
0.0
 10
10.3340998756
 20
10.8014151526
 30
0.0
 10
10.3112364237
 20
10.7978051992
 30
0.0
 10
10.2878252886
 20
10.7944381194
 30
0.0
 10
10.2639050022
 20
10.7913194521
 30
0.0
 10
10.2311298437
 20
10.7874695576
 30
0.0
 10
10.1891784793
 20
10.7833290975
 30
0.0
 10
10.1378373715
 20
10.779459397
 30
0.0
 10
10.0854497685
 20
10.7766767447
 30
0.0
 10
10.0323607842
 20
10.7749997188
 30
0.0
 10
9.9789199071
 20
10.7744394998
 30
0.0
 10
9.9254790543
 20
10.7749998693
 30
0.0
 10
9.872390142
 20
10.7766770561
 30
0.0
 10
9.820002659
 20
10.7794598464
 30
0.0
 10
9.7686617176
 20
10.783329708
 30
0.0
 10
9.7267105221
 20
10.7874702755
 30
0.0
 10
9.693935522
 20
10.7913202763
 30
0.0
 10
9.6700153688
 20
10.7944390087
 30
0.0
 10
9.6466043771
 20
10.7978061506
 30
0.0
 10
9.6237410823
 20
10.8014161759
 30
0.0
 10
9.6014631491
 20
10.8052630975
 30
0.0
 10
9.5798072506
 20
10.8093405277
 30
0.0
 10
9.558809036
 20
10.8136417123
 30
0.0
 10
9.5385030607
 20
10.8181595418
 30
0.0
 10
9.5189227117
 20
10.8228865106
 30
0.0
 10
9.5001001625
 20
10.8278147778
 30
0.0
 10
9.4820663261
 20
10.8329361944
 30
0.0
 10
9.4648507773
 20
10.8382422776
 30
0.0
 10
9.4484816939
 20
10.8437242289
 30
0.0
 10
9.4329858253
 20
10.8493729956
 30
0.0
 10
9.4183884301
 20
10.8551792894
 30
0.0
 10
9.4047131881
 20
10.8611335593
 30
0.0
 10
9.3919821822
 20
10.8672260854
 30
0.0
 10
9.3802158319
 20
10.8734470791
 30
0.0
 10
9.3694329124
 20
10.8797866026
 30
0.0
 10
9.3596501736
 20
10.8862350258
 30
0.0
 10
9.3508835911
 20
10.8927820897
 30
0.0
 10
9.3455397282
 20
10.8973661539
 30
0.0
 10
9.3430573234
 20
10.8996763025
 30
0.0
  0
SPLINE
  5
392
100
AcDbEntity
  8
0
100
AcDbSpline
 62
7
  6
CONTINUOUS
 70
0
 71
3
 72
11
 73
7
 74
0
 42
0.0000001
 43
0.0000001
 44
0.0000000001
 40
0.0
 40
0.0
 40
0.0
 40
0.0
 40
0.2588642692
 40
0.5102154835
 40
0.7564176011
 40
1.0
 40
1.0
 40
1.0
 40
1.0
 10
9.3776895367
 20
10.8748770336
 30
0.0
 10
9.3770734323
 20
10.8762994766
 30
0.0
 10
9.3759850834
 20
10.879160122
 30
0.0
 10
9.3747967724
 20
10.8835388928
 30
0.0
 10
9.3740826357
 20
10.8879271849
 30
0.0
 10
9.3739235944
 20
10.890862526
 30
0.0
 10
9.3739235905
 20
10.8923211529
 30
0.0
  0
SPLINE
  5
393
100
AcDbEntity
  8
0
100
AcDbSpline
 62
7
  6
CONTINUOUS
 70
0
 71
3
 72
18
 73
14
 74
0
 42
0.0000001
 43
0.0000001
 44
0.0000000001
 40
0.0
 40
0.0
 40
0.0
 40
0.0
 40
0.0548620589
 40
0.1099280789
 40
0.165399508
 40
0.2214731255
 40
0.2783387361
 40
0.3361775086
 40
0.4554063416
 40
0.5804417492
 40
0.7123343341
 40
0.8519577333
 40
1.0
 40
1.0
 40
1.0
 40
1.0
 10
10.8539235709
 20
10.9609018914
 30
0.0
 10
10.8539235707
 20
10.9596661473
 30
0.0
 10
10.8538451242
 20
10.9571893553
 30
0.0
 10
10.8534924571
 20
10.9534781968
 30
0.0
 10
10.8529048793
 20
10.949769177
 30
0.0
 10
10.8520825847
 20
10.9460636504
 30
0.0
 10
10.8510258918
 20
10.9423625525
 30
0.0
 10
10.8492878687
 20
10.937385568
 30
0.0
 10
10.8465035851
 20
10.931160693
 30
0.0
 10
10.8422657319
 20
10.9238090918
 30
0.0
 10
10.8371042563
 20
10.9165050756
 30
0.0
 10
10.8310270113
 20
10.9092559752
 30
0.0
 10
10.8265071367
 20
10.904604796
 30
0.0
 10
10.824108719
 20
10.9022881023
 30
0.0
  0
SPLINE
  5
394
100
AcDbEntity
  8
0
100
AcDbSpline
 62
7
  6
CONTINUOUS
 70
0
 71
3
 72
47
 73
43
 74
0
 42
0.0000001
 43
0.0000001
 44
0.0000000001
 40
0.0
 40
0.0
 40
0.0
 40
0.0
 40
0.0063158953
 40
0.0126706964
 40
0.0191025413
 40
0.0256481068
 40
0.0323419887
 40
0.0392163511
 40
0.0536141938
 40
0.0611949453
 40
0.0690567093
 40
0.0772178306
 40
0.0856942536
 40
0.094499648
 40
0.1036457893
 40
0.1131425899
 40
0.1229983503
 40
0.1332200167
 40
0.1438131323
 40
0.1547821683
 40
0.1661305713
 40
0.1899729423
 40
0.2153524409
 40
0.2422683478
 40
0.2707106917
 40
0.3006617255
 40
0.3320970385
 40
0.3649863926
 40
0.3992943516
 40
0.4349809011
 40
0.4720019229
 40
0.5103095575
 40
0.5498524869
 40
0.5905762826
 40
0.6324236706
 40
0.6753347453
 40
0.7192471563
 40
0.7640962954
 40
0.8098156376
 40
0.856336788
 40
0.9035890146
 40
1.0
 40
1.0
 40
1.0
 40
1.0
 10
13.245674762
 20
8.6223255956
 30
0.0
 10
13.2443530355
 20
8.622417258
 30
0.0
 10
13.2417076901
 20
8.6227093645
 30
0.0
 10
13.2377693117
 20
8.6234706515
 30
0.0
 10
13.2338572511
 20
8.6245550985
 30
0.0
 10
13.2299738291
 20
8.625961908
 30
0.0
 10
13.2261205105
 20
8.6276901295
 30
0.0
 10
13.2209465771
 20
8.6304636675
 30
0.0
 10
13.2159131107
 20
8.6338588374
 30
0.0
 10
13.2110420409
 20
8.6377933733
 30
0.0
 10
13.2073627221
 20
8.6411106255
 30
0.0
 10
13.2037226811
 20
8.6447413546
 30
0.0
 10
13.2001228809
 20
8.6486843092
 30
0.0
 10
13.1965647105
 20
8.6529377198
 30
0.0
 10
13.1930495482
 20
8.6574999141
 30
0.0
 10
13.1895787213
 20
8.6623690032
 30
0.0
 10
13.1861535499
 20
8.6675430012
 30
0.0
 10
13.1827754434
 20
8.6730198478
 30
0.0
 10
13.1794456862
 20
8.6787972824
 30
0.0
 10
13.1761655958
 20
8.6848729893
 30
0.0
 10
13.1717880236
 20
8.6935110511
 30
0.0
 10
13.1664646076
 20
8.7050534892
 30
0.0
 10
13.160396676
 20
8.71983191
 30
0.0
 10
13.154557667
 20
8.7357339773
 30
0.0
 10
13.1489571331
 20
8.7527337416
 30
0.0
 10
13.1436042631
 20
8.770803757
 30
0.0
 10
13.1385079182
 20
8.7899145882
 30
0.0
 10
13.1336765669
 20
8.8100350336
 30
0.0
 10
13.129118228
 20
8.8311321348
 30
0.0
 10
13.124840487
 20
8.8531712745
 30
0.0
 10
13.120850474
 20
8.8761162504
 30
0.0
 10
13.1171548495
 20
8.8999293313
 30
0.0
 10
13.113759759
 20
8.9245713185
 30
0.0
 10
13.1106708578
 20
8.9500016258
 30
0.0
 10
13.1078932978
 20
8.9761783585
 30
0.0
 10
13.1054317185
 20
9.0030583783
 30
0.0
 10
13.103290214
 20
9.0305973597
 30
0.0
 10
13.1014723454
 20
9.0587499005
 30
0.0
 10
13.0999811595
 20
9.0874695672
 30
0.0
 10
13.0988191352
 20
9.1167089671
 30
0.0
 10
13.0977039002
 20
9.1565894596
 30
0.0
 10
13.0973803972
 20
9.1867276309
 30
0.0
 10
13.0973803972
 20
9.206952003
 30
0.0
  0
SPLINE
  5
395
100
AcDbEntity
  8
0
100
AcDbSpline
 62
7
  6
CONTINUOUS
 70
0
 71
3
 72
23
 73
19
 74
0
 42
0.0000001
 43
0.0000001
 44
0.0000000001
 40
0.0
 40
0.0
 40
0.0
 40
0.0
 40
0.061648213
 40
0.123319452
 40
0.1850364843
 40
0.2468215692
 40
0.3086962118
 40
0.370680925
 40
0.4327950058
 40
0.495056332
 40
0.557481176
 40
0.6200840667
 40
0.6828775914
 40
0.7458723173
 40
0.8090769586
 40
0.8724967492
 40
0.9361385647
 40
1.0
 40
1.0
 40
1.0
 40
1.0
 10
10.7387117423
 20
7.8500270473
 30
0.0
 10
10.7436494632
 20
7.8547965399
 30
0.0
 10
10.7537854147
 20
7.8640736404
 30
0.0
 10
10.7697183857
 20
7.8771546593
 30
0.0
 10
10.7863432319
 20
7.8893710469
 30
0.0
 10
10.8036174949
 20
7.9006914926
 30
0.0
 10
10.8214977865
 20
7.9110876462
 30
0.0
 10
10.8399390105
 20
7.9205332966
 30
0.0
 10
10.8588947137
 20
7.9290046718
 30
0.0
 10
10.8783171182
 20
7.9364804867
 30
0.0
 10
10.8981572864
 20
7.9429419726
 30
0.0
 10
10.9183652407
 20
7.9483729031
 30
0.0
 10
10.9388900805
 20
7.9527596463
 30
0.0
 10
10.9596801572
 20
7.9560912095
 30
0.0
 10
10.980682986
 20
7.9583592117
 30
0.0
 10
11.0018460913
 20
7.9595581705
 30
0.0
 10
11.0231152539
 20
7.9596849094
 30
0.0
 10
11.037306928
 20
7.9590555648
 30
0.0
 10
11.044401417
 20
7.9585635603
 30
0.0
  0
SPLINE
  5
396
100
AcDbEntity
  8
0
100
AcDbSpline
 62
7
  6
CONTINUOUS
 70
0
 71
3
 72
35
 73
31
 74
0
 42
0.0000001
 43
0.0000001
 44
0.0000000001
 40
0.0
 40
0.0
 40
0.0
 40
0.0
 40
0.0311166805
 40
0.0621584167
 40
0.0931265534
 40
0.1240248323
 40
0.154859519
 40
0.1856393706
 40
0.2163756214
 40
0.2470816665
 40
0.2777726295
 40
0.3084649964
 40
0.3391762411
 40
0.3699240889
 40
0.4007259245
 40
0.431598433
 40
0.4625569894
 40
0.4936150067
 40
0.5560499296
 40
0.6189750786
 40
0.6506289161
 40
0.6823935138
 40
0.7142542442
 40
0.7461906528
 40
0.7781759565
 40
0.8101771055
 40
0.8740495015
 40
0.9058443642
 40
0.9374712863
 40
1.0
 40
1.0
 40
1.0
 40
1.0
 10
11.0385214999
 20
7.7725642031
 30
0.0
 10
11.0377599134
 20
7.7688511377
 30
0.0
 10
11.0364605932
 20
7.7613863435
 30
0.0
 10
11.0351957206
 20
7.7501064736
 30
0.0
 10
11.034624511
 20
7.7387964098
 30
0.0
 10
11.0347505938
 20
7.7274979057
 30
0.0
 10
11.035573321
 20
7.7162516357
 30
0.0
 10
11.0370878118
 20
7.7050974253
 30
0.0
 10
11.0392851842
 20
7.6940734627
 30
0.0
 10
11.0421528906
 20
7.6832158919
 30
0.0
 10
11.0456751353
 20
7.6725584426
 30
0.0
 10
11.0498332732
 20
7.6621321467
 30
0.0
 10
11.0546063383
 20
7.6519652018
 30
0.0
 10
11.0599716368
 20
7.6420830353
 30
0.0
 10
11.0659052309
 20
7.6325084085
 30
0.0
 10
11.0723821632
 20
7.6232616605
 30
0.0
 10
11.0793772185
 20
7.6143606368
 30
0.0
 10
11.0893756802
 20
7.6029575631
 30
0.0
 10
11.1030546893
 20
7.589642076
 30
0.0
 10
11.1180548828
 20
7.5777238765
 30
0.0
 10
11.1307674166
 20
7.5690409569
 30
0.0
 10
11.1406543348
 20
7.562953742
 30
0.0
 10
11.150844096
 20
7.5573175975
 30
0.0
 10
11.1613064233
 20
7.5521444418
 30
0.0
 10
11.1720095006
 20
7.5474463983
 30
0.0
 10
11.1865431809
 20
7.5418369791
 30
0.0
 10
11.201420759
 20
7.5372226551
 30
0.0
 10
11.2165134591
 20
7.5336472278
 30
0.0
 10
11.2315923358
 20
7.530796679
 30
0.0
 10
11.2430044621
 20
7.5294481335
 30
0.0
 10
11.2506029196
 20
7.5289211787
 30
0.0
  0
SPLINE
  5
397
100
AcDbEntity
  8
0
100
AcDbSpline
 62
7
  6
CONTINUOUS
 70
0
 71
3
 72
11
 73
7
 74
0
 42
0.0000001
 43
0.0000001
 44
0.0000000001
 40
0.0
 40
0.0
 40
0.0
 40
0.0
 40
0.2467504967
 40
0.4948140803
 40
0.7454812724
 40
1.0
 40
1.0
 40
1.0
 40
1.0
 10
13.3538786849
 20
10.1825781108
 30
0.0
 10
13.3551066172
 20
10.1824929531
 30
0.0
 10
13.3575635441
 20
10.1822288629
 30
0.0
 10
13.3612238987
 20
10.1815539082
 30
0.0
 10
13.3648616965
 20
10.1806001823
 30
0.0
 10
13.3672492635
 20
10.179786133
 30
0.0
 10
13.3684361282
 20
10.1793352243
 30
0.0
  0
SPLINE
  5
398
100
AcDbEntity
  8
0
100
AcDbSpline
 62
7
  6
CONTINUOUS
 70
0
 71
3
 72
39
 73
35
 74
0
 42
0.0000001
 43
0.0000001
 44
0.0000000001
 40
0.0
 40
0.0
 40
0.0
 40
0.0
 40
0.0314025836
 40
0.0630095222
 40
0.0948070985
 40
0.1267734472
 40
0.1588809725
 40
0.1910970216
 40
0.2233851128
 40
0.2557062446
 40
0.2880202662
 40
0.3202872749
 40
0.3524690068
 40
0.3845301831
 40
0.4164397919
 40
0.4481722502
 40
0.4797084082
 40
0.5110363786
 40
0.5421521204
 40
0.573059742
 40
0.6037715186
 40
0.6343075563
 40
0.6646951112
 40
0.6949675893
 40
0.7251632183
 40
0.7553234774
 40
0.7854913545
 40
0.8157095095
 40
0.8460184685
 40
0.8764549221
 40
0.9070502429
 40
0.9378292995
 40
0.9688091439
 40
1.0
 40
1.0
 40
1.0
 40
1.0
 10
11.0485425185
 20
7.7935265278
 30
0.0
 10
11.0569440545
 20
7.7929438793
 30
0.0
 10
11.0737555354
 20
7.7909468236
 30
0.0
 10
11.0986339561
 20
7.7855228919
 30
0.0
 10
11.123030157
 20
7.7777130145
 30
0.0
 10
11.1467067831
 20
7.7675928917
 30
0.0
 10
11.1694374578
 20
7.755260377
 30
0.0
 10
11.1910038821
 20
7.7408342751
 30
0.0
 10
11.2111991898
 20
7.7244533013
 30
0.0
 10
11.2298296704
 20
7.7062749349
 30
0.0
 10
11.2467164946
 20
7.6864736693
 30
0.0
 10
11.2616974409
 20
7.6652394977
 30
0.0
 10
11.2746285833
 20
7.6427761981
 30
0.0
 10
11.2853853936
 20
7.6192992371
 30
0.0
 10
11.2938640736
 20
7.5950338746
 30
0.0
 10
11.2999826648
 20
7.570213056
 30
0.0
 10
11.3036815616
 20
7.5450751411
 30
0.0
 10
11.3049243364
 20
7.5198617577
 30
0.0
 10
11.3036981873
 20
7.4948154885
 30
0.0
 10
11.3000138488
 20
7.4701775863
 30
0.0
 10
11.2939058561
 20
7.4461856837
 30
0.0
 10
11.2854322735
 20
7.4230714496
 30
0.0
 10
11.2746739978
 20
7.4010584095
 30
0.0
 10
11.2617343628
 20
7.380359621
 30
0.0
 10
11.2467380803
 20
7.3611755085
 30
0.0
 10
11.2298298969
 20
7.3436919578
 30
0.0
 10
11.2111734331
 20
7.3280781955
 30
0.0
 10
11.190949359
 20
7.3144851416
 30
0.0
 10
11.1693535104
 20
7.3030440416
 30
0.0
 10
11.1465949678
 20
7.2938649005
 30
0.0
 10
11.1228941146
 20
7.2870356043
 30
0.0
 10
11.0984792184
 20
7.282621407
 30
0.0
 10
11.0735889142
 20
7.2806634711
 30
0.0
 10
11.0568874083
 20
7.2810070894
 30
0.0
 10
11.0485425185
 20
7.2815858095
 30
0.0
  0
SPLINE
  5
399
100
AcDbEntity
  8
0
100
AcDbSpline
 62
7
  6
CONTINUOUS
 70
0
 71
3
 72
39
 73
35
 74
0
 42
0.0000001
 43
0.0000001
 44
0.0000000001
 40
0.0
 40
0.0
 40
0.0
 40
0.0
 40
0.0311908561
 40
0.0621707005
 40
0.0929497571
 40
0.1235450779
 40
0.1539815315
 40
0.1842904905
 40
0.2145086455
 40
0.2446765226
 40
0.2748367817
 40
0.3050324107
 40
0.3353048888
 40
0.3656924437
 40
0.3962284814
 40
0.426940258
 40
0.4578478796
 40
0.4889636214
 40
0.5202915918
 40
0.5518277498
 40
0.5835602081
 40
0.6154698169
 40
0.6475309932
 40
0.6797127251
 40
0.7119797338
 40
0.7442937554
 40
0.7766148872
 40
0.8089029784
 40
0.8411190275
 40
0.8732265528
 40
0.9051929015
 40
0.9369904778
 40
0.9685974164
 40
1.0
 40
1.0
 40
1.0
 40
1.0
 10
11.0485425185
 20
7.7935265278
 30
0.0
 10
11.0401976287
 20
7.7941052479
 30
0.0
 10
11.0234961229
 20
7.7944488662
 30
0.0
 10
10.9986058186
 20
7.7924909303
 30
0.0
 10
10.9741909224
 20
7.788076733
 30
0.0
 10
10.9504900692
 20
7.7812474368
 30
0.0
 10
10.9277315266
 20
7.7720682957
 30
0.0
 10
10.906135678
 20
7.7606271957
 30
0.0
 10
10.8859116039
 20
7.7470341418
 30
0.0
 10
10.8672551401
 20
7.7314203795
 30
0.0
 10
10.8503469567
 20
7.7139368288
 30
0.0
 10
10.8353506742
 20
7.6947527163
 30
0.0
 10
10.8224110393
 20
7.6740539278
 30
0.0
 10
10.8116527636
 20
7.6520408877
 30
0.0
 10
10.803179181
 20
7.6289266536
 30
0.0
 10
10.7970711882
 20
7.604934751
 30
0.0
 10
10.7933868497
 20
7.5802968488
 30
0.0
 10
10.7921607006
 20
7.5552505796
 30
0.0
 10
10.7934034754
 20
7.5300371962
 30
0.0
 10
10.7971023722
 20
7.5048992813
 30
0.0
 10
10.8032209634
 20
7.4800784627
 30
0.0
 10
10.8116996434
 20
7.4558131002
 30
0.0
 10
10.8224564537
 20
7.4323361392
 30
0.0
 10
10.8353875961
 20
7.4098728396
 30
0.0
 10
10.8503685424
 20
7.388638668
 30
0.0
 10
10.8672553667
 20
7.3688374024
 30
0.0
 10
10.8858858472
 20
7.350659036
 30
0.0
 10
10.906081155
 20
7.3342780622
 30
0.0
 10
10.9276475793
 20
7.3198519603
 30
0.0
 10
10.9503782539
 20
7.3075194456
 30
0.0
 10
10.97405488
 20
7.2973993228
 30
0.0
 10
10.9984510809
 20
7.2895894454
 30
0.0
 10
11.0233295016
 20
7.2841655137
 30
0.0
 10
11.0401409825
 20
7.282168458
 30
0.0
 10
11.0485425185
 20
7.2815858095
 30
0.0
  0
SPLINE
  5
39A
100
AcDbEntity
  8
0
100
AcDbSpline
 62
7
  6
CONTINUOUS
 70
0
 71
3
 72
37
 73
33
 74
0
 42
0.0000001
 43
0.0000001
 44
0.0000000001
 40
0.0
 40
0.0
 40
0.0
 40
0.0
 40
0.0308973652
 40
0.0619238356
 40
0.0930729232
 40
0.1243406761
 40
0.1557190341
 40
0.1871992416
 40
0.2187709008
 40
0.2504223738
 40
0.2821409415
 40
0.3139129618
 40
0.3457240697
 40
0.3775593674
 40
0.4412157083
 40
0.5047857293
 40
0.536514344
 40
0.5681781158
 40
0.5997641504
 40
0.6312606215
 40
0.6626569397
 40
0.6939439085
 40
0.7251138687
 40
0.75616083
 40
0.7870805745
 40
0.8178707364
 40
0.8485308583
 40
0.8790624209
 40
0.9094688512
 40
0.9397554953
 40
0.969929556
 40
1.0
 40
1.0
 40
1.0
 40
1.0
 10
11.1970673631
 20
7.4772097989
 30
0.0
 10
11.1929130814
 20
7.4774978994
 30
0.0
 10
11.1846025875
 20
7.4783289806
 30
0.0
 10
11.1722114483
 20
7.4803273906
 30
0.0
 10
11.1599126499
 20
7.4830730979
 30
0.0
 10
11.1477527058
 20
7.4865555176
 30
0.0
 10
11.1357765518
 20
7.4907618365
 30
0.0
 10
11.1240288283
 20
7.4956762863
 30
0.0
 10
11.1125531946
 20
7.5012805716
 30
0.0
 10
11.1013923269
 20
7.5075537847
 30
0.0
 10
11.0905876948
 20
7.5144725876
 30
0.0
 10
11.0801795584
 20
7.5220111292
 30
0.0
 10
11.0702062937
 20
7.5301417388
 30
0.0
 10
11.0575413335
 20
7.5417281388
 30
0.0
 10
11.0429818257
 20
7.5575307435
 30
0.0
 10
11.0303222401
 20
7.5748752798
 30
0.0
 10
11.0214527839
 20
7.5895180227
 30
0.0
 10
11.0154568615
 20
7.6008362167
 30
0.0
 10
11.0101370778
 20
7.6124527386
 30
0.0
 10
11.0055129504
 20
7.6243247831
 30
0.0
 10
11.0016018036
 20
7.6364081
 30
0.0
 10
10.9984182257
 20
7.648657782
 30
0.0
 10
10.9959741294
 20
7.6610282571
 30
0.0
 10
10.9942786488
 20
7.6734735017
 30
0.0
 10
10.9933381515
 20
7.6859472068
 30
0.0
 10
10.9931562063
 20
7.6984029494
 30
0.0
 10
10.9937335671
 20
7.710794356
 30
0.0
 10
10.99506818
 20
7.7230752915
 30
0.0
 10
10.997155118
 20
7.7351999633
 30
0.0
 10
10.9999867332
 20
7.7471233606
 30
0.0
 10
11.0035523029
 20
7.7588004285
 30
0.0
 10
11.0064150232
 20
7.7664056027
 30
0.0
 10
11.0079637268
 20
7.7701508373
 30
0.0
  0
SPLINE
  5
39B
100
AcDbEntity
  8
0
100
AcDbSpline
 62
7
  6
CONTINUOUS
 70
0
 71
3
 72
95
 73
91
 74
0
 42
0.0000001
 43
0.0000001
 44
0.0000000001
 40
0.0
 40
0.0
 40
0.0
 40
0.0
 40
0.0040125626
 40
0.0078523424
 40
0.0115286395
 40
0.0150528985
 40
0.0184386962
 40
0.021701614
 40
0.0248592961
 40
0.0279314399
 40
0.0309396944
 40
0.0339072471
 40
0.0368583502
 40
0.039817692
 40
0.0428097423
 40
0.0458580989
 40
0.0489849711
 40
0.0522107404
 40
0.0555537819
 40
0.0590303214
 40
0.0626545007
 40
0.0664384806
 40
0.0703925595
 40
0.0745254264
 40
0.0788442327
 40
0.0833548802
 40
0.0880620737
 40
0.0929695289
 40
0.0980800766
 40
0.1033957307
 40
0.1089178668
 40
0.1146471773
 40
0.1205838714
 40
0.1267276144
 40
0.1330776554
 40
0.139632843
 40
0.1533516573
 40
0.1678685958
 40
0.1831629892
 40
0.1992102196
 40
0.2159822107
 40
0.2334478203
 40
0.2515731708
 40
0.2703219317
 40
0.2896555632
 40
0.3095335328
 40
0.3299135134
 40
0.3507515671
 40
0.3720023166
 40
0.3936191133
 40
0.4155542006
 40
0.4377588702
 40
0.4601836162
 40
0.4827782857
 40
0.5054922295
 40
0.5282744503
 40
0.5510737534
 40
0.5738388952
 40
0.5965187316
 40
0.6190623659
 40
0.6414192971
 40
0.6635395693
 40
0.6853739238
 40
0.7068739529
 40
0.7279922542
 40
0.7486825874
 40
0.7689000366
 40
0.7886011786
 40
0.8077442597
 40
0.8262893863
 40
0.844198732
 40
0.8614367594
 40
0.8779704737
 40
0.8937697153
 40
0.9088075088
 40
0.9230604872
 40
0.9298867427
 40
0.9365099852
 40
0.9429285493
 40
0.9491411613
 40
0.9551469249
 40
0.9609453584
 40
0.9665365059
 40
0.9719208727
 40
0.9770995984
 40
0.9820744277
 40
0.9868479844
 40
0.9914237863
 40
0.9958060995
 40
1.0
 40
1.0
 40
1.0
 40
1.0
 10
10.616434654
 20
10.9012355328
 30
0.0
 10
10.6178014959
 20
10.9025558007
 30
0.0
 10
10.6204150039
 20
10.9052041652
 30
0.0
 10
10.6240386648
 20
10.9092920049
 30
0.0
 10
10.6272746651
 20
10.913403221
 30
0.0
 10
10.6301206186
 20
10.9175353908
 30
0.0
 10
10.6325745777
 20
10.9216863905
 30
0.0
 10
10.6346345939
 20
10.9258540537
 30
0.0
 10
10.6362989219
 20
10.9300359706
 30
0.0
 10
10.63756566
 20
10.9342296086
 30
0.0
 10
10.6384334751
 20
10.9384320486
 30
0.0
 10
10.6389010885
 20
10.9426401892
 30
0.0
 10
10.6389679172
 20
10.9468506409
 30
0.0
 10
10.6386338463
 20
10.9510599378
 30
0.0
 10
10.6378992989
 20
10.9552646378
 30
0.0
 10
10.6367654028
 20
10.9594615439
 30
0.0
 10
10.6352333954
 20
10.963647654
 30
0.0
 10
10.6333050944
 20
10.9678203615
 30
0.0
 10
10.6309821843
 20
10.9719771731
 30
0.0
 10
10.6282666661
 20
10.9761158592
 30
0.0
 10
10.6251605207
 20
10.9802342304
 30
0.0
 10
10.6216658294
 20
10.9843301086
 30
0.0
 10
10.617784887
 20
10.9884014129
 30
0.0
 10
10.6135199948
 20
10.9924458775
 30
0.0
 10
10.6088737983
 20
10.9964614071
 30
0.0
 10
10.603848987
 20
11.0004456866
 30
0.0
 10
10.5984485711
 20
11.0043965308
 30
0.0
 10
10.5926757186
 20
11.0083116604
 30
0.0
 10
10.5865338275
 20
11.0121887861
 30
0.0
 10
10.580026554
 20
11.0160257027
 30
0.0
 10
10.5731577174
 20
11.0198200657
 30
0.0
 10
10.5659314326
 20
11.0235697199
 30
0.0
 10
10.5583519679
 20
11.0272723548
 30
0.0
 10
10.5504238643
 20
11.0309258062
 30
0.0
 10
10.5421518347
 20
11.0345279025
 30
0.0
 10
10.5304930391
 20
11.0393322759
 30
0.0
 10
10.5150838742
 20
11.045178285
 30
0.0
 10
10.4955749139
 20
11.0518528932
 30
0.0
 10
10.4748237682
 20
11.0582730863
 30
0.0
 10
10.4528801683
 20
11.0644233166
 30
0.0
 10
10.4297964917
 20
11.0702886677
 30
0.0
 10
10.4056280517
 20
11.0758549073
 30
0.0
 10
10.3804328147
 20
11.0811085273
 30
0.0
 10
10.3542712781
 20
11.0860367778
 30
0.0
 10
10.3272063022
 20
11.0906277008
 30
0.0
 10
10.2993029527
 20
11.0948701591
 30
0.0
 10
10.2706283378
 20
11.0987538634
 30
0.0
 10
10.2412514429
 20
11.1022693955
 30
0.0
 10
10.2112429618
 20
11.1054082351
 30
0.0
 10
10.1806751225
 20
11.1081627785
 30
0.0
 10
10.1496215087
 20
11.1105263535
 30
0.0
 10
10.1181568798
 20
11.1124932354
 30
0.0
 10
10.0863569902
 20
11.1140586606
 30
0.0
 10
10.0542984061
 20
11.1152188375
 30
0.0
 10
10.0220583206
 20
11.1159709549
 30
0.0
 10
9.9897143668
 20
11.1163131914
 30
0.0
 10
9.9573444294
 20
11.116244721
 30
0.0
 10
9.9250264548
 20
11.1157657104
 30
0.0
 10
9.8928382635
 20
11.1148773197
 30
0.0
 10
9.8608573617
 20
11.1135816996
 30
0.0
 10
9.8291607551
 20
11.1118819862
 30
0.0
 10
9.7978247619
 20
11.1097822936
 30
0.0
 10
9.7669248268
 20
11.1072877059
 30
0.0
 10
9.7365353367
 20
11.1044042684
 30
0.0
 10
9.70672944
 20
11.101138968
 30
0.0
 10
9.67757887
 20
11.097499718
 30
0.0
 10
9.6491537697
 20
11.0934953398
 30
0.0
 10
9.6215225205
 20
11.0891355416
 30
0.0
 10
9.5947515729
 20
11.0844308958
 30
0.0
 10
9.5689052775
 20
11.0793928146
 30
0.0
 10
9.5440457235
 20
11.0740335264
 30
0.0
 10
9.520232572
 20
11.0683660401
 30
0.0
 10
9.4975229338
 20
11.0624041105
 30
0.0
 10
9.4759711037
 20
11.056162206
 30
0.0
 10
9.4556287961
 20
11.0496554454
 30
0.0
 10
9.439500962
 20
11.0439464519
 30
0.0
 10
9.427250915
 20
11.0392469232
 30
0.0
 10
9.418528063
 20
11.0357167132
 30
0.0
 10
9.4101424993
 20
11.032132251
 30
0.0
 10
9.4020992242
 20
11.0284956801
 30
0.0
 10
9.3944030402
 20
11.0248091994
 30
0.0
 10
9.3870585496
 20
11.0210749626
 30
0.0
 10
9.3800700953
 20
11.0172952635
 30
0.0
 10
9.3734418718
 20
11.0134722543
 30
0.0
 10
9.3671777866
 20
11.0096083027
 30
0.0
 10
9.36128156
 20
11.0057056059
 30
0.0
 10
9.3557566221
 20
11.0017664198
 30
0.0
 10
9.3506061683
 20
10.997792921
 30
0.0
 10
9.3458335491
 20
10.9937876026
 30
0.0
 10
9.3428411007
 20
10.9910385546
 30
0.0
 10
9.3414124878
 20
10.9896586203
 30
0.0
  0
SPLINE
  5
39C
100
AcDbEntity
  8
0
100
AcDbSpline
 62
7
  6
CONTINUOUS
 70
0
 71
3
 72
41
 73
37
 74
0
 42
0.0000001
 43
0.0000001
 44
0.0000000001
 40
0.0
 40
0.0
 40
0.0
 40
0.0
 40
0.0310748272
 40
0.0623072483
 40
0.0936920359
 40
0.1252208484
 40
0.156882237
 40
0.188662033
 40
0.2205436266
 40
0.2525083437
 40
0.2845358343
 40
0.3166044929
 40
0.3486918936
 40
0.3807752384
 40
0.4128318095
 40
0.4448394218
 40
0.4767768664
 40
0.5086243418
 40
0.5403638639
 40
0.5719796493
 40
0.6034584635
 40
0.6347899281
 40
0.6659667781
 40
0.6969850622
 40
0.7278442783
 40
0.7585474376
 40
0.7891010512
 40
0.8195150346
 40
0.8498025274
 40
0.8649066426
 40
0.8799854039
 40
0.9100708284
 40
0.9400854823
 40
0.9550762294
 40
0.970057877
 40
1.0
 40
1.0
 40
1.0
 40
1.0
 10
12.4179480234
 20
7.0760781845
 30
0.0
 10
12.4179480234
 20
7.0712188327
 30
0.0
 10
12.4183105308
 20
7.0614717467
 30
0.0
 10
12.4199289853
 20
7.0468977891
 30
0.0
 10
12.4226144641
 20
7.0324093889
 30
0.0
 10
12.4263520522
 20
7.0180871836
 30
0.0
 10
12.4311210949
 20
7.0040095134
 30
0.0
 10
12.436895283
 20
6.9902537273
 30
0.0
 10
12.4436428191
 20
6.976895294
 30
0.0
 10
12.4513265823
 20
6.9640075201
 30
0.0
 10
12.4599043363
 20
6.9516611192
 30
0.0
 10
12.4693289583
 20
6.939923838
 30
0.0
 10
12.4795486964
 20
6.9288600859
 30
0.0
 10
12.4905074508
 20
6.9185305862
 30
0.0
 10
12.5021450791
 20
6.9089920465
 30
0.0
 10
12.5143977225
 20
6.9002968499
 30
0.0
 10
12.5271981526
 20
6.8924927701
 30
0.0
 10
12.5404761357
 20
6.8856227111
 30
0.0
 10
12.5541588134
 20
6.8797244724
 30
0.0
 10
12.5681710969
 20
6.8748305422
 30
0.0
 10
12.5824360738
 20
6.8709679179
 30
0.0
 10
12.5968754233
 20
6.8681579559
 30
0.0
 10
12.6114098419
 20
6.8664162511
 30
0.0
 10
12.6259594688
 20
6.8657525447
 30
0.0
 10
12.6404443349
 20
6.8661706706
 30
0.0
 10
12.6547847399
 20
6.8676685003
 30
0.0
 10
12.6689019074
 20
6.8702380417
 30
0.0
 10
12.6827176042
 20
6.8738651124
 30
0.0
 10
12.6939284557
 20
6.877756909
 30
0.0
 10
12.7026667702
 20
6.8813761825
 30
0.0
 10
12.7112282041
 20
6.88532116
 30
0.0
 10
12.7216089713
 20
6.8908664614
 30
0.0
 10
12.7315083948
 20
6.8972060519
 30
0.0
 10
12.7390951193
 20
6.902726757
 30
0.0
 10
12.7464476832
 20
6.9085365804
 30
0.0
 10
12.7516976974
 20
6.9132189783
 30
0.0
 10
12.7550653976
 20
6.9164719491
 30
0.0
  0
SPLINE
  5
39D
100
AcDbEntity
  8
0
100
AcDbSpline
 62
7
  6
CONTINUOUS
 70
0
 71
3
 72
15
 73
11
 74
0
 42
0.0000001
 43
0.0000001
 44
0.0000000001
 40
0.0
 40
0.0
 40
0.0
 40
0.0
 40
0.1234394136
 40
0.2470466177
 40
0.370982561
 40
0.4953948844
 40
0.6204121622
 40
0.7461393429
 40
0.8726517211
 40
1.0
 40
1.0
 40
1.0
 40
1.0
 10
7.8848486111
 20
9.4585285296
 30
0.0
 10
7.880489911
 20
9.4543183197
 30
0.0
 10
7.8721943307
 20
9.4454360521
 30
0.0
 10
7.8611768931
 20
9.4308954079
 30
0.0
 10
7.8516775272
 20
9.4152626429
 30
0.0
 10
7.8437855225
 20
9.3986842375
 30
0.0
 10
7.8375728732
 20
9.3813132569
 30
0.0
 10
7.8330965582
 20
9.3633098953
 30
0.0
 10
7.8303970127
 20
9.3448425272
 30
0.0
 10
7.8298000766
 20
9.3323710354
 30
0.0
 10
7.8298000766
 20
9.3261190924
 30
0.0
  0
SPLINE
  5
39E
100
AcDbEntity
  8
0
100
AcDbSpline
 62
7
  6
CONTINUOUS
 70
0
 71
3
 72
88
 73
84
 74
0
 42
0.0000001
 43
0.0000001
 44
0.0000000001
 40
0.0
 40
0.0
 40
0.0
 40
0.0
 40
0.00398019
 40
0.0081241279
 40
0.012435984
 40
0.0169193403
 40
0.0215772217
 40
0.026411968
 40
0.03142524
 40
0.0366182254
 40
0.0419916187
 40
0.0475457474
 40
0.0532805245
 40
0.0591955312
 40
0.0652900466
 40
0.0715630374
 40
0.0846387255
 40
0.0984100564
 40
0.1128606485
 40
0.1279711965
 40
0.1437198106
 40
0.1600822931
 40
0.1770323702
 40
0.1945418895
 40
0.2125809905
 40
0.2311182618
 40
0.2501208831
 40
0.2695547551
 40
0.289384621
 40
0.309574183
 40
0.3300862123
 40
0.3508826567
 40
0.3719247472
 40
0.3931731028
 40
0.4145878328
 40
0.4361286373
 40
0.4577549081
 40
0.5010997345
 40
0.5442957932
 40
0.5657364549
 40
0.5870180425
 40
0.6081005829
 40
0.6289445938
 40
0.6495111877
 40
0.6697621758
 40
0.6896601722
 40
0.7091687011
 40
0.7282523074
 40
0.7468766714
 40
0.7650087296
 40
0.7826168049
 40
0.7996707468
 40
0.8161420806
 40
0.8320041762
 40
0.8472324412
 40
0.8618045456
 40
0.8757006897
 40
0.8889039322
 40
0.8952415306
 40
0.9014010782
 40
0.9073814661
 40
0.9131818436
 40
0.9188016978
 40
0.9242407986
 40
0.9294993296
 40
0.9345778344
 40
0.939477329
 40
0.9441993212
 40
0.9487458596
 40
0.953119651
 40
0.9573240595
 40
0.9613632868
 40
0.9652423839
 40
0.9689674258
 40
0.9725455946
 40
0.9759852982
 40
0.9824864684
 40
0.985575327
 40
0.9885737973
 40
0.9914977211
 40
0.9943643259
 40
0.9971920046
 40
1.0
 40
1.0
 40
1.0
 40
1.0
 10
9.1337384228
 20
11.0195156805
 30
0.0
 10
9.1354714181
 20
11.0211896255
 30
0.0
 10
9.1390874047
 20
11.0245256762
 30
0.0
 10
9.1448284795
 20
11.0293982293
 30
0.0
 10
9.1509911427
 20
11.0342358312
 30
0.0
 10
9.1575720136
 20
11.0390359129
 30
0.0
 10
9.1645678838
 20
11.043796233
 30
0.0
 10
9.1719753253
 20
11.0485144753
 30
0.0
 10
9.1797906336
 20
11.0531883778
 30
0.0
 10
9.1880099308
 20
11.0578155148
 30
0.0
 10
9.1966290666
 20
11.0623936655
 30
0.0
 10
9.205643756
 20
11.066920474
 30
0.0
 10
9.215049467
 20
11.0713937163
 30
0.0
 10
9.2248414789
 20
11.0758111223
 30
0.0
 10
9.2350148875
 20
11.080170478
 30
0.0
 10
9.2492788981
 20
11.0859831081
 30
0.0
 10
9.2680372711
 20
11.0930721748
 30
0.0
 10
9.2916824153
 20
11.1011998874
 30
0.0
 10
9.316716435
 20
11.1090453935
 30
0.0
 10
9.3430888534
 20
11.1165927466
 30
0.0
 10
9.3707467255
 20
11.1238265863
 30
0.0
 10
9.399634337
 20
11.1307321798
 30
0.0
 10
9.4296934556
 20
11.1372954589
 30
0.0
 10
9.460863424
 20
11.143503051
 30
0.0
 10
9.4930813004
 20
11.1493423133
 30
0.0
 10
9.526281992
 20
11.1548013558
 30
0.0
 10
9.5603983962
 20
11.1598690642
 30
0.0
 10
9.5953615409
 20
11.164535123
 30
0.0
 10
9.631100727
 20
11.1687900357
 30
0.0
 10
9.6675436739
 20
11.1726251439
 30
0.0
 10
9.7046166664
 20
11.1760326434
 30
0.0
 10
9.7422447052
 20
11.1790056044
 30
0.0
 10
9.7803516598
 20
11.1815379823
 30
0.0
 10
9.8188604316
 20
11.1836246309
 30
0.0
 10
9.8576930859
 20
11.1852612985
 30
0.0
 10
9.8967711072
 20
11.1864446932
 30
0.0
 10
9.949133619
 20
11.1874154878
 30
0.0
 10
10.0146195125
 20
11.1874843698
 30
0.0
 10
10.079977086
 20
11.1860333866
 30
0.0
 10
10.1319477883
 20
11.1839558149
 30
0.0
 10
10.170521304
 20
11.181950672
 30
0.0
 10
10.2087070702
 20
11.1794989885
 30
0.0
 10
10.2464278817
 20
11.1766057088
 30
0.0
 10
10.2836074056
 20
11.1732767266
 30
0.0
 10
10.3201704315
 20
11.1695188122
 30
0.0
 10
10.3560429992
 20
11.1653396118
 30
0.0
 10
10.391152556
 20
11.1607476288
 30
0.0
 10
10.4254281028
 20
11.1557522076
 30
0.0
 10
10.4588003411
 20
11.150363516
 30
0.0
 10
10.4912018164
 20
11.1445925231
 30
0.0
 10
10.5225670617
 20
11.1384509803
 30
0.0
 10
10.5528327374
 20
11.1319513993
 30
0.0
 10
10.5819377623
 20
11.1251070212
 30
0.0
 10
10.6098234533
 20
11.1179317891
 30
0.0
 10
10.6364336225
 20
11.1104403171
 30
0.0
 10
10.6617148237
 20
11.1026478529
 30
0.0
 10
10.6856160698
 20
11.0945702423
 30
0.0
 10
10.7045945683
 20
11.0875221176
 30
0.0
 10
10.7190391624
 20
11.0817409221
 30
0.0
 10
10.7293499962
 20
11.0774032096
 30
0.0
 10
10.7392812816
 20
11.0730066805
 30
0.0
 10
10.7488280237
 20
11.0685534666
 30
0.0
 10
10.7579854464
 20
11.0640458905
 30
0.0
 10
10.7667489298
 20
11.0594861311
 30
0.0
 10
10.7751141115
 20
11.054876551
 30
0.0
 10
10.7830767879
 20
11.0502193935
 30
0.0
 10
10.7906329918
 20
11.0455169979
 30
0.0
 10
10.7977789663
 20
11.0407717017
 30
0.0
 10
10.8045111266
 20
11.0359857821
 30
0.0
 10
10.8108261713
 20
11.0311616493
 30
0.0
 10
10.8167209037
 20
11.026301528
 30
0.0
 10
10.8221924366
 20
11.0214078349
 30
0.0
 10
10.8272380111
 20
11.0164827502
 30
0.0
 10
10.831854981
 20
11.0115287542
 30
0.0
 10
10.836041353
 20
11.0065475159
 30
0.0
 10
10.8409523627
 20
10.999997762
 30
0.0
 10
10.8451226095
 20
10.9932714651
 30
0.0
 10
10.8484336042
 20
10.9864015448
 30
0.0
 10
10.8504340924
 20
10.9813207261
 30
0.0
 10
10.8519919454
 20
10.9762275448
 30
0.0
 10
10.853105886
 20
10.9711244751
 30
0.0
 10
10.853774683
 20
10.9660151549
 30
0.0
 10
10.8539235712
 20
10.9626017287
 30
0.0
 10
10.8539235709
 20
10.9609018914
 30
0.0
  0
SPLINE
  5
39F
100
AcDbEntity
  8
0
100
AcDbSpline
 62
7
  6
CONTINUOUS
 70
0
 71
3
 72
15
 73
11
 74
0
 42
0.0000001
 43
0.0000001
 44
0.0000000001
 40
0.0
 40
0.0
 40
0.0
 40
0.0
 40
0.1234394136
 40
0.2470466177
 40
0.370982561
 40
0.4953948844
 40
0.6204121622
 40
0.7461393429
 40
0.8726517211
 40
1.0
 40
1.0
 40
1.0
 40
1.0
 10
12.4729965579
 20
7.2084876218
 30
0.0
 10
12.4686378577
 20
7.2042774119
 30
0.0
 10
12.4603422774
 20
7.1953951442
 30
0.0
 10
12.4493248398
 20
7.1808545
 30
0.0
 10
12.439825474
 20
7.1652217351
 30
0.0
 10
12.4319334693
 20
7.1486433296
 30
0.0
 10
12.4257208199
 20
7.131272349
 30
0.0
 10
12.4212445049
 20
7.1132689874
 30
0.0
 10
12.4185449595
 20
7.0948016193
 30
0.0
 10
12.4179480234
 20
7.0823301276
 30
0.0
 10
12.4179480234
 20
7.0760781845
 30
0.0
  0
SPLINE
  5
3A0
100
AcDbEntity
  8
0
100
AcDbSpline
 62
7
  6
CONTINUOUS
 70
0
 71
3
 72
39
 73
35
 74
0
 42
0.0000001
 43
0.0000001
 44
0.0000000001
 40
0.0
 40
0.0
 40
0.0
 40
0.0
 40
0.0311450401
 40
0.062443098
 40
0.0938883402
 40
0.1254709779
 40
0.1571788704
 40
0.1889972432
 40
0.2209091549
 40
0.2528958204
 40
0.2849369968
 40
0.3170113846
 40
0.3490970423
 40
0.3811718113
 40
0.4132137424
 40
0.4452015207
 40
0.4771148823
 40
0.5089350149
 40
0.5406449388
 40
0.5722298604
 40
0.6036774924
 40
0.6349783353
 40
0.6661259096
 40
0.6971169338
 40
0.7279514411
 40
0.7586328285
 40
0.7891678337
 40
0.8195664367
 40
0.8498416808
 40
0.8800094153
 40
0.9100879635
 40
0.9400977213
 40
0.9700606967
 40
1.0
 40
1.0
 40
1.0
 40
1.0
 10
11.044401417
 20
7.1085487828
 30
0.0
 10
11.034023145
 20
7.1092685184
 30
0.0
 10
11.0132605699
 20
7.1114711671
 30
0.0
 10
10.982368421
 20
7.1170197311
 30
0.0
 10
10.9518071575
 20
7.1247915665
 30
0.0
 10
10.9217418208
 20
7.1347449291
 30
0.0
 10
10.8923321486
 20
7.1468264389
 30
0.0
 10
10.8637350167
 20
7.1609714922
 30
0.0
 10
10.8361027737
 20
7.1771045033
 30
0.0
 10
10.8095826567
 20
7.1951393258
 30
0.0
 10
10.7843159595
 20
7.2149797194
 30
0.0
 10
10.7604373107
 20
7.2365198657
 30
0.0
 10
10.7380739597
 20
7.2596449262
 30
0.0
 10
10.7173451075
 20
7.2842316468
 30
0.0
 10
10.6983612815
 20
7.3101490101
 30
0.0
 10
10.6812237294
 20
7.3372589099
 30
0.0
 10
10.6660238942
 20
7.365416892
 30
0.0
 10
10.6528429389
 20
7.3944729194
 30
0.0
 10
10.6417513141
 20
7.4242721593
 30
0.0
 10
10.632808382
 20
7.4546557965
 30
0.0
 10
10.6260621025
 20
7.4854618679
 30
0.0
 10
10.6215487478
 20
7.5165261087
 30
0.0
 10
10.6192927087
 20
7.5476828227
 30
0.0
 10
10.6193063694
 20
7.5787657571
 30
0.0
 10
10.6215900243
 20
7.6096089775
 30
0.0
 10
10.6261318594
 20
7.6400477464
 30
0.0
 10
10.6329079997
 20
7.6699193959
 30
0.0
 10
10.6418825984
 20
7.6990642057
 30
0.0
 10
10.6530079938
 20
7.7273262534
 30
0.0
 10
10.6662250191
 20
7.7545543072
 30
0.0
 10
10.6814630961
 20
7.7806024533
 30
0.0
 10
10.6986413482
 20
7.8053316295
 30
0.0
 10
10.7176662492
 20
7.8286076662
 30
0.0
 10
10.731518885
 20
7.8430792507
 30
0.0
 10
10.7387117423
 20
7.8500270473
 30
0.0
  0
SPLINE
  5
3A1
100
AcDbEntity
  8
0
100
AcDbSpline
 62
7
  6
CONTINUOUS
 70
0
 71
3
 72
18
 73
14
 74
0
 42
0.0000001
 43
0.0000001
 44
0.0000000001
 40
0.0
 40
0.0
 40
0.0
 40
0.0
 40
0.0548620589
 40
0.1099280789
 40
0.165399508
 40
0.2214731255
 40
0.2783387361
 40
0.3361775086
 40
0.4554063416
 40
0.5804417492
 40
0.7123343341
 40
0.8519577333
 40
1.0
 40
1.0
 40
1.0
 40
1.0
 10
9.1039235709
 20
10.9609018914
 30
0.0
 10
9.1039235711
 20
10.9621376355
 30
0.0
 10
9.1040020176
 20
10.9646144275
 30
0.0
 10
9.1043546847
 20
10.968325586
 30
0.0
 10
9.1049422625
 20
10.9720346058
 30
0.0
 10
9.1057645571
 20
10.9757401324
 30
0.0
 10
9.10682125
 20
10.9794412303
 30
0.0
 10
9.1085592731
 20
10.9844182148
 30
0.0
 10
9.1113435567
 20
10.9906430899
 30
0.0
 10
9.1155814099
 20
10.997994691
 30
0.0
 10
9.1207428855
 20
11.0052987072
 30
0.0
 10
9.1268201305
 20
11.0125478076
 30
0.0
 10
9.1313400051
 20
11.0171989868
 30
0.0
 10
9.1337384228
 20
11.0195156805
 30
0.0
  0
SPLINE
  5
3A2
100
AcDbEntity
  8
0
100
AcDbSpline
 62
7
  6
CONTINUOUS
 70
0
 71
3
 72
15
 73
11
 74
0
 42
0.0000001
 43
0.0000001
 44
0.0000000001
 40
0.0
 40
0.0
 40
0.0
 40
0.0
 40
0.1094717386
 40
0.2215611441
 40
0.3373177977
 40
0.4576830212
 40
0.5834809809
 40
0.7154214708
 40
0.8541024142
 40
1.0
 40
1.0
 40
1.0
 40
1.0
 10
9.1044697716
 20
10.953447605
 30
0.0
 10
9.104763819
 20
10.9556005964
 30
0.0
 10
9.1055965516
 20
10.9599289122
 30
0.0
 10
9.1075399573
 20
10.9663476058
 30
0.0
 10
9.1101851716
 20
10.9727446536
 30
0.0
 10
9.1135279219
 20
10.9791138634
 30
0.0
 10
9.1175640989
 20
10.9854508988
 30
0.0
 10
9.1222894573
 20
10.991751591
 30
0.0
 10
9.1276993111
 20
10.9980113313
 30
0.0
 10
9.1316554473
 20
11.0020488657
 30
0.0
 10
9.1337384228
 20
11.0040608656
 30
0.0
  0
SPLINE
  5
3A3
100
AcDbEntity
  8
0
100
AcDbSpline
 62
7
  6
CONTINUOUS
 70
0
 71
3
 72
23
 73
19
 74
0
 42
0.0000001
 43
0.0000001
 44
0.0000000001
 40
0.0
 40
0.0
 40
0.0
 40
0.0
 40
0.0749621725
 40
0.1455681621
 40
0.2121594468
 40
0.2751625921
 40
0.3350975062
 40
0.3925825598
 40
0.4483287752
 40
0.503123089
 40
0.5577977532
 40
0.6131909547
 40
0.6701061389
 40
0.7292784461
 40
0.7913524101
 40
0.8568771783
 40
0.9263078324
 40
1.0
 40
1.0
 40
1.0
 40
1.0
 10
9.3430573234
 20
10.8996763025
 30
0.0
 10
9.3411515075
 20
10.9014498722
 30
0.0
 10
9.3375563174
 20
10.905010616
 30
0.0
 10
9.3327052298
 20
10.910565801
 30
0.0
 10
9.3285686196
 20
10.916165063
 30
0.0
 10
9.3251524582
 20
10.9218033856
 30
0.0
 10
9.3224626658
 20
10.9274759307
 30
0.0
 10
9.3205050663
 20
10.9331767737
 30
0.0
 10
9.3192853316
 20
10.9388986582
 30
0.0
 10
9.3188077182
 20
10.944632481
 30
0.0
 10
9.3190740755
 20
10.950367834
 30
0.0
 10
9.3200834399
 20
10.956094096
 30
0.0
 10
9.3218319627
 20
10.9618017597
 30
0.0
 10
9.3243144668
 20
10.9674829495
 30
0.0
 10
9.3275248703
 20
10.9731315296
 30
0.0
 10
9.3314575161
 20
10.9787424546
 30
0.0
 10
9.3361062777
 20
10.9843105136
 30
0.0
 10
9.3395717053
 20
10.9878805609
 30
0.0
 10
9.3414124878
 20
10.9896586203
 30
0.0
  0
SPLINE
  5
3A4
100
AcDbEntity
  8
0
100
AcDbSpline
 62
7
  6
CONTINUOUS
 70
0
 71
3
 72
18
 73
14
 74
0
 42
0.0000001
 43
0.0000001
 44
0.0000000001
 40
0.0
 40
0.0
 40
0.0
 40
0.0
 40
0.0548626324
 40
0.1099292038
 40
0.1654012748
 40
0.2214754993
 40
0.3361335358
 40
0.4553634149
 40
0.5171047312
 40
0.5804363251
 40
0.7123313349
 40
0.851958625
 40
1.0
 40
1.0
 40
1.0
 40
1.0
 10
9.3739235905
 20
10.8923211529
 30
0.0
 10
9.3739235882
 20
10.8931755813
 30
0.0
 10
9.3739778029
 20
10.894888108
 30
0.0
 10
9.374221634
 20
10.8974540976
 30
0.0
 10
9.3746279691
 20
10.9000186588
 30
0.0
 10
9.3753914591
 20
10.9034597396
 30
0.0
 10
9.3767669755
 20
10.9077725819
 30
0.0
 10
9.3786508133
 20
10.911983622
 30
0.0
 10
9.380463526
 20
10.9153302397
 30
0.0
 10
9.3825391641
 20
10.9187535619
 30
0.0
 10
9.3855530332
 20
10.9230185637
 30
0.0
 10
9.3897549243
 20
10.9280305794
 30
0.0
 10
9.3928801051
 20
10.9312466005
 30
0.0
 10
9.3945384114
 20
10.9328484014
 30
0.0
  0
SPLINE
  5
3A5
100
AcDbEntity
  8
0
100
AcDbSpline
 62
7
  6
CONTINUOUS
 70
0
 71
3
 72
23
 73
19
 74
0
 42
0.0000001
 43
0.0000001
 44
0.0000000001
 40
0.0
 40
0.0
 40
0.0
 40
0.0
 40
0.061648213
 40
0.123319452
 40
0.1850364843
 40
0.2468215692
 40
0.3086962118
 40
0.370680925
 40
0.4327950058
 40
0.495056332
 40
0.557481176
 40
0.6200840667
 40
0.6828775914
 40
0.7458723173
 40
0.8090769586
 40
0.8724967492
 40
0.9361385647
 40
1.0
 40
1.0
 40
1.0
 40
1.0
 10
11.3500910917
 20
7.2170852958
 30
0.0
 10
11.3451533708
 20
7.2123158031
 30
0.0
 10
11.3350174193
 20
7.2030387026
 30
0.0
 10
11.3190844483
 20
7.1899576837
 30
0.0
 10
11.3024596021
 20
7.1777412961
 30
0.0
 10
11.2851853391
 20
7.1664208504
 30
0.0
 10
11.2673050475
 20
7.1560246968
 30
0.0
 10
11.2488638236
 20
7.1465790465
 30
0.0
 10
11.2299081203
 20
7.1381076713
 30
0.0
 10
11.2104857158
 20
7.1306318563
 30
0.0
 10
11.1906455477
 20
7.1241703705
 30
0.0
 10
11.1704375933
 20
7.11873944
 30
0.0
 10
11.1499127535
 20
7.1143526968
 30
0.0
 10
11.1291226768
 20
7.1110211336
 30
0.0
 10
11.108119848
 20
7.1087531314
 30
0.0
 10
11.0869567427
 20
7.1075541726
 30
0.0
 10
11.0656875801
 20
7.1074274336
 30
0.0
 10
11.051495906
 20
7.1080567783
 30
0.0
 10
11.044401417
 20
7.1085487828
 30
0.0
  0
SPLINE
  5
3A6
100
AcDbEntity
  8
0
100
AcDbSpline
 62
7
  6
CONTINUOUS
 70
0
 71
3
 72
23
 73
19
 74
0
 42
0.0000001
 43
0.0000001
 44
0.0000000001
 40
0.0
 40
0.0
 40
0.0
 40
0.0
 40
0.0616371603
 40
0.1233028343
 40
0.1850188996
 40
0.2468066874
 40
0.3086867568
 40
0.3706786858
 40
0.432800868
 40
0.4950703181
 40
0.5575024939
 40
0.6201111861
 40
0.682908298
 40
0.7459039087
 40
0.8091061937
 40
0.8725199723
 40
0.9361524069
 40
1.0
 40
1.0
 40
1.0
 40
1.0
 10
11.3500618119
 20
7.2171171301
 30
0.0
 10
11.3451401515
 20
7.2125040601
 30
0.0
 10
11.3350486275
 20
7.2035341965
 30
0.0
 10
11.3192184055
 20
7.1908941558
 30
0.0
 10
11.3027300048
 20
7.1790962695
 30
0.0
 10
11.2856240746
 20
7.1681697446
 30
0.0
 10
11.2679421052
 20
7.1581409746
 30
0.0
 10
11.2497271593
 20
7.1490343449
 30
0.0
 10
11.2310235322
 20
7.1408719618
 30
0.0
 10
11.2118767074
 20
7.1336736734
 30
0.0
 10
11.1923332583
 20
7.1274569246
 30
0.0
 10
11.1724407193
 20
7.1222367641
 30
0.0
 10
11.1522474576
 20
7.1180258224
 30
0.0
 10
11.1318025233
 20
7.1148343049
 30
0.0
 10
11.1111557505
 20
7.1126699887
 30
0.0
 10
11.0903568924
 20
7.111537881
 30
0.0
 10
11.069457454
 20
7.1114409258
 30
0.0
 10
11.0555132894
 20
7.1120653553
 30
0.0
 10
11.0485425185
 20
7.1125487799
 30
0.0
  0
SPLINE
  5
3A7
100
AcDbEntity
  8
0
100
AcDbSpline
 62
7
  6
CONTINUOUS
 70
0
 71
3
 72
21
 73
17
 74
0
 42
0.0000001
 43
0.0000001
 44
0.0000000001
 40
0.0
 40
0.0
 40
0.0
 40
0.0
 40
0.0616532317
 40
0.1233294898
 40
0.1850515414
 40
0.246841662
 40
0.3087213493
 40
0.3707111057
 40
0.4328302438
 40
0.4950966409
 40
0.5575265847
 40
0.6201345602
 40
0.6829331384
 40
0.745933256
 40
0.8725261412
 40
1.0
 40
1.0
 40
1.0
 40
1.0
 10
11.219572529
 20
7.376031346
 30
0.0
 10
11.2169353361
 20
7.3734840304
 30
0.0
 10
11.2115218374
 20
7.368529246
 30
0.0
 10
11.2030121768
 20
7.3615428847
 30
0.0
 10
11.194133029
 20
7.3550182737
 30
0.0
 10
11.1849070393
 20
7.3489721663
 30
0.0
 10
11.1753573484
 20
7.3434197633
 30
0.0
 10
11.1655080942
 20
7.3383749788
 30
0.0
 10
11.1553840747
 20
7.3338505141
 30
0.0
 10
11.1450107806
 20
7.3298578139
 30
0.0
 10
11.1344143603
 20
7.326406827
 30
0.0
 10
11.1236215825
 20
7.323506231
 30
0.0
 10
11.1126592945
 20
7.3211633571
 30
0.0
 10
11.097832908
 20
7.3187873671
 30
0.0
 10
11.0790057548
 20
7.3172437011
 30
0.0
 10
11.0638698601
 20
7.3175390999
 30
0.0
 10
11.0563070835
 20
7.3180635803
 30
0.0
  0
SPLINE
  5
3A8
100
AcDbEntity
  8
0
100
AcDbSpline
 62
7
  6
CONTINUOUS
 70
0
 71
3
 72
11
 73
7
 74
0
 42
0.0000001
 43
0.0000001
 44
0.0000000001
 40
0.0
 40
0.0
 40
0.0
 40
0.0
 40
0.2478436574
 40
0.4970666087
 40
0.7477653091
 40
1.0
 40
1.0
 40
1.0
 40
1.0
 10
11.2718644624
 20
7.4590904157
 30
0.0
 10
11.2655913275
 20
7.4572173081
 30
0.0
 10
11.2528295966
 20
7.4540385636
 30
0.0
 10
11.2332829036
 20
7.4510213185
 30
0.0
 10
11.2134288934
 20
7.4497628879
 30
0.0
 10
11.2001279015
 20
7.450102519
 30
0.0
 10
11.1934810642
 20
7.4505634788
 30
0.0
  0
SPLINE
  5
3A9
100
AcDbEntity
  8
0
100
AcDbSpline
 62
7
  6
CONTINUOUS
 70
0
 71
3
 72
11
 73
7
 74
0
 42
0.0000001
 43
0.0000001
 44
0.0000000001
 40
0.0
 40
0.0
 40
0.0
 40
0.0
 40
0.2545149704
 40
0.5051815903
 40
0.7532467758
 40
1.0
 40
1.0
 40
1.0
 40
1.0
 10
13.2605340707
 20
8.6235265008
 30
0.0
 10
13.2592968541
 20
8.6232440164
 30
0.0
 10
13.2568208348
 20
8.6227678119
 30
0.0
 10
13.2530878345
 20
8.6223258575
 30
0.0
 10
13.2493709618
 20
8.622162882
 30
0.0
 10
13.2469021682
 20
8.6222404745
 30
0.0
 10
13.245674762
 20
8.6223255956
 30
0.0
  0
SPLINE
  5
3AA
100
AcDbEntity
  8
0
100
AcDbSpline
 62
7
  6
CONTINUOUS
 70
0
 71
3
 72
39
 73
35
 74
0
 42
0.0000001
 43
0.0000001
 44
0.0000000001
 40
0.0
 40
0.0
 40
0.0
 40
0.0
 40
0.0299343776
 40
0.0598966069
 40
0.089909357
 40
0.1199941213
 40
0.1501707283
 40
0.1804569003
 40
0.210867873
 40
0.2414160824
 40
0.272110926
 40
0.3029585996
 40
0.3339620102
 40
0.3651207633
 40
0.3964312211
 40
0.4278866236
 40
0.4594772699
 40
0.4911907497
 40
0.5230122218
 40
0.5549247295
 40
0.5869095491
 40
0.6189465643
 40
0.6510146589
 40
0.6830921242
 40
0.7151570725
 40
0.7471878548
 40
0.7791634736
 40
0.8110639893
 40
0.8428709095
 40
0.8745675677
 40
0.9061394264
 40
0.9375745575
 40
0.9688633342
 40
1.0
 40
1.0
 40
1.0
 40
1.0
 10
10.7387424545
 20
7.849996528
 30
0.0
 10
10.7316966768
 20
7.842983071
 30
0.0
 10
10.7181394532
 20
7.8283939515
 30
0.0
 10
10.6995574435
 20
7.8049843919
 30
0.0
 10
10.6828170608
 20
7.7801620586
 30
0.0
 10
10.6680083519
 20
7.7540600194
 30
0.0
 10
10.6552089543
 20
7.7268159462
 30
0.0
 10
10.6444863811
 20
7.6985740837
 30
0.0
 10
10.6358969546
 20
7.6694837368
 30
0.0
 10
10.62948572
 20
7.639698663
 30
0.0
 10
10.6252861738
 20
7.6093761983
 30
0.0
 10
10.6233201241
 20
7.5786764355
 30
0.0
 10
10.6235975783
 20
7.547761377
 30
0.0
 10
10.6261167111
 20
7.5167940811
 30
0.0
 10
10.6308639008
 20
7.4859378087
 30
0.0
 10
10.6378138124
 20
7.4553551725
 30
0.0
 10
10.646929541
 20
7.4252072913
 30
0.0
 10
10.6581628136
 20
7.3956529528
 30
0.0
 10
10.6714542474
 20
7.3668477896
 30
0.0
 10
10.686733664
 20
7.338943471
 30
0.0
 10
10.7039204452
 20
7.3120869056
 30
0.0
 10
10.7229239724
 20
7.2864194838
 30
0.0
 10
10.7436440999
 20
7.2620763426
 30
0.0
 10
10.7659716784
 20
7.2391856617
 30
0.0
 10
10.7897891238
 20
7.217867997
 30
0.0
 10
10.8149710305
 20
7.1982356512
 30
0.0
 10
10.8413848238
 20
7.1803920899
 30
0.0
 10
10.8688914487
 20
7.1644313926
 30
0.0
 10
10.8973460775
 20
7.1504377527
 30
0.0
 10
10.9265989333
 20
7.1384850654
 30
0.0
 10
10.9564958393
 20
7.1286364816
 30
0.0
 10
10.9868798499
 20
7.1209441952
 30
0.0
 10
11.0175888335
 20
7.1154490286
 30
0.0
 10
11.0382266014
 20
7.1132641912
 30
0.0
 10
11.0485425185
 20
7.1125487799
 30
0.0
  0
SPLINE
  5
3AB
100
AcDbEntity
  8
0
100
AcDbSpline
 62
7
  6
CONTINUOUS
 70
0
 71
3
 72
41
 73
37
 74
0
 42
0.0000001
 43
0.0000001
 44
0.0000000001
 40
0.0
 40
0.0
 40
0.0
 40
0.0
 40
0.0299389653
 40
0.0449187245
 40
0.0599073276
 40
0.0899167439
 40
0.1199949488
 40
0.1350691072
 40
0.1501679499
 40
0.1804428474
 40
0.2108411019
 40
0.2413757562
 40
0.2720567903
 40
0.302890943
 40
0.3338816115
 40
0.365028829
 40
0.3963293137
 40
0.4277765859
 40
0.4593611463
 40
0.4910707086
 40
0.5228904795
 40
0.5548034793
 40
0.5867908957
 40
0.6188324646
 40
0.6509068716
 40
0.6829921682
 40
0.7150661957
 40
0.7471070126
 40
0.7790933194
 40
0.8110048728
 40
0.8428228916
 40
0.8745304217
 40
0.9061127365
 40
0.9375575251
 40
0.9688554979
 40
1.0
 40
1.0
 40
1.0
 40
1.0
 10
10.8930416379
 20
7.7140809798
 30
0.0
 10
10.8891999713
 20
7.7103702399
 30
0.0
 10
10.8836512479
 20
7.7045735046
 30
0.0
 10
10.8767254828
 20
7.6964310797
 30
0.0
 10
10.8701150745
 20
7.6880139035
 30
0.0
 10
10.8624654261
 20
7.6770020748
 30
0.0
 10
10.8556875392
 20
7.6654156711
 30
0.0
 10
10.8508058738
 20
7.6558365965
 30
0.0
 10
10.8462824612
 20
7.6460445974
 30
0.0
 10
10.8413255523
 20
7.6334529045
 30
0.0
 10
10.8365324223
 20
7.6178872569
 30
0.0
 10
10.8329132457
 20
7.6019329774
 30
0.0
 10
10.8304874486
 20
7.5856759171
 30
0.0
 10
10.8292677139
 20
7.5692028067
 30
0.0
 10
10.8292603742
 20
7.5526016716
 30
0.0
 10
10.8304652671
 20
7.535961126
 30
0.0
 10
10.8328757781
 20
7.5193699678
 30
0.0
 10
10.8364788738
 20
7.5029166928
 30
0.0
 10
10.8412551803
 20
7.4866890324
 30
0.0
 10
10.8471790897
 20
7.4707734915
 30
0.0
 10
10.8542188993
 20
7.4552548935
 30
0.0
 10
10.8623369825
 20
7.4402159345
 30
0.0
 10
10.8714899887
 20
7.4257367479
 30
0.0
 10
10.8816290746
 20
7.411894483
 30
0.0
 10
10.8927001624
 20
7.3987628989
 30
0.0
 10
10.9046442259
 20
7.3864119751
 30
0.0
 10
10.9173976025
 20
7.3749075433
 30
0.0
 10
10.9308923292
 20
7.3643109389
 30
0.0
 10
10.9450565007
 20
7.3546786787
 30
0.0
 10
10.9598146501
 20
7.3460621587
 30
0.0
 10
10.9750881373
 20
7.3385073892
 30
0.0
 10
10.9907955999
 20
7.3320547323
 30
0.0
 10
11.0068532384
 20
7.3267387309
 30
0.0
 10
11.0231757866
 20
7.32258782
 30
0.0
 10
11.0396750335
 20
7.3196244135
 30
0.0
 10
11.0507641668
 20
7.3184479829
 30
0.0
 10
11.0563070835
 20
7.3180635803
 30
0.0
  0
SPLINE
  5
3AC
100
AcDbEntity
  8
0
100
AcDbSpline
 62
7
  6
CONTINUOUS
 70
0
 71
3
 72
37
 73
33
 74
0
 42
0.0000001
 43
0.0000001
 44
0.0000000001
 40
0.0
 40
0.0
 40
0.0
 40
0.0
 40
0.0301394314
 40
0.0603877712
 40
0.0907517382
 40
0.121236374
 40
0.151844986
 40
0.1825791264
 40
0.2134385972
 40
0.2444214715
 40
0.2755241353
 40
0.306741353
 40
0.338066363
 40
0.3694909853
 40
0.4010057381
 40
0.4325999665
 40
0.4642619908
 40
0.4959792698
 40
0.559501928
 40
0.623080906
 40
0.654867842
 40
0.6866261525
 40
0.7183420742
 40
0.7500023774
 40
0.7815945398
 40
0.8131069268
 40
0.8445288966
 40
0.8758509965
 40
0.9070652351
 40
0.9381641738
 40
0.9691446334
 40
1.0
 40
1.0
 40
1.0
 40
1.0
 10
10.9778557681
 20
7.7634418036
 30
0.0
 10
10.9764581263
 20
7.7592901082
 30
0.0
 10
10.973913568
 20
7.7508831382
 30
0.0
 10
10.9708686741
 20
7.738041063
 30
0.0
 10
10.9685990185
 20
7.7249882057
 30
0.0
 10
10.9671126567
 20
7.7117706725
 30
0.0
 10
10.9664146482
 20
7.6984343395
 30
0.0
 10
10.9665073415
 20
7.685025699
 30
0.0
 10
10.9673903392
 20
7.67159142
 30
0.0
 10
10.9690605105
 20
7.6581782652
 30
0.0
 10
10.97151201
 20
7.6448329162
 30
0.0
 10
10.9747362369
 20
7.6316018078
 30
0.0
 10
10.9787219024
 20
7.6185309614
 30
0.0
 10
10.9834550871
 20
7.6056658465
 30
0.0
 10
10.9889193173
 20
7.5930511817
 30
0.0
 10
10.9950954898
 20
7.5807309517
 30
0.0
 10
11.0019623828
 20
7.5687476071
 30
0.0
 10
11.0120097392
 20
7.5532703034
 30
0.0
 10
11.0261696411
 20
7.5349765778
 30
0.0
 10
11.0422617998
 20
7.5183433536
 30
0.0
 10
11.0561667293
 20
7.5061638745
 30
0.0
 10
11.0670748085
 20
7.4976243532
 30
0.0
 10
11.0784227007
 20
7.4897113646
 30
0.0
 10
11.090171283
 20
7.4824520855
 30
0.0
 10
11.1022795976
 20
7.4758718629
 30
0.0
 10
11.1147055652
 20
7.4699935891
 30
0.0
 10
11.1274059653
 20
7.4648377573
 30
0.0
 10
11.1403366675
 20
7.4604223496
 30
0.0
 10
11.1534525803
 20
7.4567628491
 30
0.0
 10
11.1667084059
 20
7.4538718059
 30
0.0
 10
11.1800572165
 20
7.4517596934
 30
0.0
 10
11.1890071151
 20
7.4508737482
 30
0.0
 10
11.1934810642
 20
7.4505634788
 30
0.0
  0
SPLINE
  5
3AD
100
AcDbEntity
  8
0
100
AcDbSpline
 62
7
  6
CONTINUOUS
 70
0
 71
3
 72
13
 73
9
 74
0
 42
0.0000001
 43
0.0000001
 44
0.0000000001
 40
0.0
 40
0.0
 40
0.0
 40
0.0
 40
0.1236108645
 40
0.2475804167
 40
0.3719364103
 40
0.4967030293
 40
0.7474466579
 40
1.0
 40
1.0
 40
1.0
 40
1.0
 10
11.2795557138
 20
7.4889280926
 30
0.0
 10
11.2763159317
 20
7.4877188434
 30
0.0
 10
11.2697592639
 20
7.4854739932
 30
0.0
 10
11.2597418079
 20
7.4826423322
 30
0.0
 10
11.2495539663
 20
7.4803487605
 30
0.0
 10
11.2357605145
 20
7.478012975
 30
0.0
 10
11.2182231197
 20
7.4764723228
 30
0.0
 10
11.204115794
 20
7.4767209886
 30
0.0
 10
11.1970673631
 20
7.4772097989
 30
0.0
  0
SPLINE
  5
3AE
100
AcDbEntity
  8
0
100
AcDbSpline
 62
7
  6
CONTINUOUS
 70
0
 71
3
 72
88
 73
84
 74
0
 42
0.0000001
 43
0.0000001
 44
0.0000000001
 40
0.0
 40
0.0
 40
0.0
 40
0.0
 40
0.0028217962
 40
0.0056897392
 40
0.0086212246
 40
0.011632435
 40
0.0147381546
 40
0.0179516753
 40
0.021284821
 40
0.0247479339
 40
0.0283500279
 40
0.0320988309
 40
0.0360009333
 40
0.0400619071
 40
0.044286367
 40
0.0486781512
 40
0.0532403187
 40
0.0579753113
 40
0.0628849785
 40
0.0679706383
 40
0.0732331805
 40
0.0786730275
 40
0.0842902748
 40
0.0900846395
 40
0.096055542
 40
0.1022021303
 40
0.1150171585
 40
0.1285184184
 40
0.142690781
 40
0.1575162179
 40
0.1729741347
 40
0.1890416513
 40
0.2056938368
 40
0.2229039058
 40
0.2406433887
 40
0.2588822827
 40
0.2775891851
 40
0.296731421
 40
0.3162751657
 40
0.3361855559
 40
0.3564267966
 40
0.3769622641
 40
0.3977546047
 40
0.4187658346
 40
0.4399574407
 40
0.4612904757
 40
0.5042227254
 40
0.5472466533
 40
0.568694076
 40
0.5900454428
 40
0.6112614233
 40
0.63230301
 40
0.6531316156
 40
0.6737091706
 40
0.6939982199
 40
0.71396202
 40
0.7335646396
 40
0.752771062
 40
0.771547294
 40
0.7898604804
 40
0.8076790172
 40
0.8249726759
 40
0.8417127379
 40
0.8578721437
 40
0.8734256626
 40
0.88835009
 40
0.9026244668
 40
0.9162303465
 40
0.9291521236
 40
0.9353526987
 40
0.9413779303
 40
0.9472268448
 40
0.9528987958
 40
0.9583933962
 40
0.9637106178
 40
0.9688508038
 40
0.9738146657
 40
0.97860339
 40
0.983218619
 40
0.9876626726
 40
0.9919385051
 40
0.996049596
 40
1.0
 40
1.0
 40
1.0
 40
1.0
 10
10.853461801
 20
10.9528034197
 30
0.0
 10
10.8532498364
 20
10.9544914261
 30
0.0
 10
10.8526768988
 20
10.9578784247
 30
0.0
 10
10.8513880874
 20
10.9629194356
 30
0.0
 10
10.8496658787
 20
10.9679501748
 30
0.0
 10
10.8475117095
 20
10.9729674736
 30
0.0
 10
10.8449271882
 20
10.9779689836
 30
0.0
 10
10.8419141351
 20
10.982952382
 30
0.0
 10
10.8384742962
 20
10.9879153639
 30
0.0
 10
10.8346097463
 20
10.9928558238
 30
0.0
 10
10.8303224676
 20
10.9977715102
 30
0.0
 10
10.8256147228
 20
11.0026602881
 30
0.0
 10
10.8204888677
 20
11.0075199654
 30
0.0
 10
10.8149473988
 20
11.0123482816
 30
0.0
 10
10.8089930837
 20
11.017143091
 30
0.0
 10
10.8026287581
 20
11.0219020557
 30
0.0
 10
10.7958575697
 20
11.0266230094
 30
0.0
 10
10.7886827809
 20
11.0313036491
 30
0.0
 10
10.7811078905
 20
11.0359417277
 30
0.0
 10
10.7731366074
 20
11.0405350403
 30
0.0
 10
10.7647727948
 20
11.0450812784
 30
0.0
 10
10.7560205778
 20
11.0495783069
 30
0.0
 10
10.7468842157
 20
11.0540238481
 30
0.0
 10
10.7373682114
 20
11.0584157556
 30
0.0
 10
10.7274772209
 20
11.0627518955
 30
0.0
 10
10.7136023066
 20
11.0685366511
 30
0.0
 10
10.6953442383
 20
11.0755972257
 30
0.0
 10
10.6723143231
 20
11.0837005021
 30
0.0
 10
10.6479145874
 20
11.0915319295
 30
0.0
 10
10.6221931056
 20
11.0990759393
 30
0.0
 10
10.5952003377
 20
11.1063175331
 30
0.0
 10
10.5669894308
 20
11.1132422996
 30
0.0
 10
10.5376159706
 20
11.1198364524
 30
0.0
 10
10.5071378919
 20
11.1260868611
 30
0.0
 10
10.4756153464
 20
11.1319810802
 30
0.0
 10
10.4431105812
 20
11.1375073723
 30
0.0
 10
10.409687813
 20
11.1426547391
 30
0.0
 10
10.3754130954
 20
11.1474129416
 30
0.0
 10
10.3403541803
 20
11.1517725149
 30
0.0
 10
10.3045803804
 20
11.1557247878
 30
0.0
 10
10.2681624302
 20
11.1592618998
 30
0.0
 10
10.2311723482
 20
11.1623768142
 30
0.0
 10
10.1936832881
 20
11.1650633411
 30
0.0
 10
10.1557694163
 20
11.1673161344
 30
0.0
 10
10.1175056704
 20
11.1691307543
 30
0.0
 10
10.0660153202
 20
11.1709648268
 30
0.0
 10
10.0013350629
 20
11.1721368404
 30
0.0
 10
9.9365760494
 20
11.1718228282
 30
0.0
 10
9.8848452247
 20
11.1706758291
 30
0.0
 10
9.846271813
 20
11.1693714581
 30
0.0
 10
9.8079608575
 20
11.1676248269
 30
0.0
 10
9.7699880837
 20
11.165439369
 30
0.0
 10
9.7324286187
 20
11.1628194355
 30
0.0
 10
9.695356747
 20
11.1597702353
 30
0.0
 10
9.6588457874
 20
11.156297832
 30
0.0
 10
9.6229679428
 20
11.1524091295
 30
0.0
 10
9.5877941586
 20
11.1481118598
 30
0.0
 10
9.5533939797
 20
11.1434145672
 30
0.0
 10
9.5198354079
 20
11.138326594
 30
0.0
 10
9.4871847625
 20
11.1328580679
 30
0.0
 10
9.4555065477
 20
11.1270198738
 30
0.0
 10
9.4248633239
 20
11.1208236339
 30
0.0
 10
9.3953155795
 20
11.1142816839
 30
0.0
 10
9.3669216054
 20
11.1074070477
 30
0.0
 10
9.3397373571
 20
11.10021341
 30
0.0
 10
9.3138163625
 20
11.0927150942
 30
0.0
 10
9.2892094834
 20
11.0849270167
 30
0.0
 10
9.2659652194
 20
11.0768646489
 30
0.0
 10
9.2475230409
 20
11.0698375413
 30
0.0
 10
9.2334972275
 20
11.0640783952
 30
0.0
 10
9.2234914853
 20
11.0597599372
 30
0.0
 10
9.2138592611
 20
11.0553850019
 30
0.0
 10
9.2046052544
 20
11.0509557834
 30
0.0
 10
9.1957340236
 20
11.046474419
 30
0.0
 10
9.1872499102
 20
11.0419431141
 30
0.0
 10
9.1791570515
 20
11.0373641092
 30
0.0
 10
9.1714594407
 20
11.0327395732
 30
0.0
 10
9.164160808
 20
11.0280718594
 30
0.0
 10
9.1572647299
 20
11.0233631287
 30
0.0
 10
9.1507744909
 20
11.0186156407
 30
0.0
 10
9.1446932035
 20
11.0138315459
 30
0.0
 10
9.1390241324
 20
11.0090133594
 30
0.0
 10
9.1354514721
 20
11.0057155443
 30
0.0
 10
9.1337384228
 20
11.0040608656
 30
0.0
  0
SPLINE
  5
3AF
100
AcDbEntity
  8
0
100
AcDbSpline
 62
7
  6
CONTINUOUS
 70
0
 71
3
 72
82
 73
78
 74
0
 42
0.0000001
 43
0.0000001
 44
0.0000000001
 40
0.0
 40
0.0
 40
0.0
 40
0.0
 40
0.002807998
 40
0.0056356806
 40
0.0085022898
 40
0.0114262126
 40
0.0144246907
 40
0.0175135498
 40
0.0207071065
 40
0.0240181362
 40
0.0274578415
 40
0.0310360124
 40
0.0347610632
 40
0.0386401573
 40
0.0426793928
 40
0.0468838097
 40
0.0512575938
 40
0.0558041516
 40
0.0605261363
 40
0.0654256403
 40
0.0705041564
 40
0.0757626782
 40
0.0812018013
 40
0.0868216502
 40
0.0986018619
 40
0.1110985397
 40
0.1243017907
 40
0.1381979522
 40
0.1527700746
 40
0.1679983505
 40
0.1838604554
 40
0.2003318097
 40
0.2173857768
 40
0.2349938704
 40
0.2531259409
 40
0.2717503225
 40
0.2908339514
 40
0.3103424997
 40
0.3302405132
 40
0.3504915228
 40
0.3710581418
 40
0.3919021736
 40
0.412984732
 40
0.4557062575
 40
0.4989023598
 40
0.5422472302
 40
0.5854136046
 40
0.6280759638
 40
0.6491180727
 40
0.6699145376
 40
0.6904265905
 40
0.7106161727
 40
0.7304460564
 40
0.7498799495
 40
0.7688825949
 40
0.787419883
 40
0.8054589947
 40
0.8229685304
 40
0.8399186322
 40
0.8562811346
 40
0.8720297596
 40
0.8871403212
 40
0.9015909325
 40
0.9153622775
 40
0.9284379696
 40
0.9408049937
 40
0.9524542021
 40
0.9580083262
 40
0.9633817469
 40
0.9685747317
 40
0.9735880118
 40
0.9784227363
 40
0.9830806011
 40
0.9875640078
 40
0.9918759355
 40
0.9960198846
 40
1.0
 40
1.0
 40
1.0
 40
1.0
 10
10.5839235513
 20
10.8923211529
 30
0.0
 10
10.5839235481
 20
10.8934964689
 30
0.0
 10
10.583820641
 20
10.8958566106
 30
0.0
 10
10.5833581945
 20
10.8993893428
 30
0.0
 10
10.5825879742
 20
10.9029177386
 30
0.0
 10
10.5815108515
 20
10.9064393485
 30
0.0
 10
10.5801276759
 20
10.9099522557
 30
0.0
 10
10.5784396722
 20
10.9134546435
 30
0.0
 10
10.5764480533
 20
10.9169448221
 30
0.0
 10
10.574154059
 20
10.9204211205
 30
0.0
 10
10.5715591656
 20
10.9238820376
 30
0.0
 10
10.5686647525
 20
10.9273259628
 30
0.0
 10
10.5654723896
 20
10.9307513545
 30
0.0
 10
10.5619837634
 20
10.9341566952
 30
0.0
 10
10.5582005768
 20
10.937540332
 30
0.0
 10
10.5541247858
 20
10.9409007469
 30
0.0
 10
10.5497584001
 20
10.9442363183
 30
0.0
 10
10.545103572
 20
10.9475454046
 30
0.0
 10
10.5401626572
 20
10.950826467
 30
0.0
 10
10.5349380754
 20
10.9540778262
 30
0.0
 10
10.5294324488
 20
10.9572979077
 30
0.0
 10
10.5236485366
 20
10.9604851268
 30
0.0
 10
10.5175891943
 20
10.9636378625
 30
0.0
 10
10.5090117487
 20
10.9678598934
 30
0.0
 10
10.4976109295
 20
10.9730272638
 30
0.0
 10
10.4830900945
 20
10.9789723411
 30
0.0
 10
10.4675510211
 20
10.9847432729
 30
0.0
 10
10.4510249241
 20
10.9903283602
 30
0.0
 10
10.4335448038
 20
10.9957162895
 30
0.0
 10
10.4151457695
 20
11.0008961099
 30
0.0
 10
10.395864813
 20
11.0058572766
 30
0.0
 10
10.3757407639
 20
11.0105896721
 30
0.0
 10
10.3548142048
 20
11.0150836619
 30
0.0
 10
10.3331273771
 20
11.0193300994
 30
0.0
 10
10.3107240755
 20
11.0233203345
 30
0.0
 10
10.2876495585
 20
11.0270462309
 30
0.0
 10
10.263950465
 20
11.0305002036
 30
0.0
 10
10.2396747145
 20
11.0336752321
 30
0.0
 10
10.2148713984
 20
11.0365648544
 30
0.0
 10
10.1895906751
 20
11.0391631851
 30
0.0
 10
10.1638836941
 20
11.0414649268
 30
0.0
 10
10.1378024219
 20
11.0434654411
 30
0.0
 10
10.1024441451
 20
11.0457355077
 30
0.0
 10
10.0577003739
 20
11.0477856449
 30
0.0
 10
10.0036048081
 20
11.0489868106
 30
0.0
 10
9.9493095584
 20
11.0489295397
 30
0.0
 10
9.8952538554
 20
11.0476143076
 30
0.0
 10
9.8505687007
 20
11.0454695032
 30
0.0
 10
9.815277063
 20
11.0431243034
 30
0.0
 10
9.7892599355
 20
11.0410686931
 30
0.0
 10
9.7636266152
 20
11.038712661
 30
0.0
 10
9.7384289188
 20
11.0360609549
 30
0.0
 10
9.7137178259
 20
11.0331189842
 30
0.0
 10
9.6895433069
 20
11.0298927392
 30
0.0
 10
9.6659542479
 20
11.0263887861
 30
0.0
 10
9.6429983436
 20
11.0226142461
 30
0.0
 10
9.6207219894
 20
11.0185768068
 30
0.0
 10
9.5991701836
 20
11.0142846996
 30
0.0
 10
9.5783864449
 20
11.0097466676
 30
0.0
 10
9.5584127214
 20
11.0049719452
 30
0.0
 10
9.5392892836
 20
10.9999702565
 30
0.0
 10
9.5210546337
 20
10.9947518
 30
0.0
 10
9.503745422
 20
10.9893271968
 30
0.0
 10
9.4873964006
 20
10.9837074668
 30
0.0
 10
9.4720401888
 20
10.9779039909
 30
0.0
 10
9.4577076214
 20
10.9719285235
 30
0.0
 10
9.4464682481
 20
10.966736348
 30
0.0
 10
9.4380228137
 20
10.9624954708
 30
0.0
 10
9.4320632734
 20
10.959330012
 30
0.0
 10
9.4263802307
 20
10.956130644
 30
0.0
 10
9.4209765028
 20
10.9528989981
 30
0.0
 10
9.4158547962
 20
10.9496366895
 30
0.0
 10
9.4110176599
 20
10.946345258
 30
0.0
 10
9.4064674177
 20
10.9430263339
 30
0.0
 10
9.4022063553
 20
10.939681423
 30
0.0
 10
9.39823681
 20
10.9363124067
 30
0.0
 10
9.3957366301
 20
10.9340057919
 30
0.0
 10
9.3945384114
 20
10.9328484014
 30
0.0
  0
SPLINE
  5
3B0
100
AcDbEntity
  8
0
100
AcDbSpline
 62
7
  6
CONTINUOUS
 70
0
 71
3
 72
41
 73
37
 74
0
 42
0.0000001
 43
0.0000001
 44
0.0000000001
 40
0.0
 40
0.0
 40
0.0
 40
0.0
 40
0.0310748272
 40
0.0623072483
 40
0.0936920359
 40
0.1252208484
 40
0.156882237
 40
0.188662033
 40
0.2205436266
 40
0.2525083437
 40
0.2845358343
 40
0.3166044929
 40
0.3486918936
 40
0.3807752384
 40
0.4128318095
 40
0.4448394218
 40
0.4767768664
 40
0.5086243418
 40
0.5403638639
 40
0.5719796493
 40
0.6034584635
 40
0.6347899281
 40
0.6659667781
 40
0.6969850622
 40
0.7278442783
 40
0.7585474376
 40
0.7891010512
 40
0.8195150346
 40
0.8498025274
 40
0.8649066426
 40
0.8799854039
 40
0.9100708284
 40
0.9400854823
 40
0.9550762294
 40
0.970057877
 40
1.0
 40
1.0
 40
1.0
 40
1.0
 10
7.8298000766
 20
9.3261190924
 30
0.0
 10
7.8298000766
 20
9.3212597406
 30
0.0
 10
7.8301625841
 20
9.3115126546
 30
0.0
 10
7.8317810386
 20
9.296938697
 30
0.0
 10
7.8344665174
 20
9.2824502968
 30
0.0
 10
7.8382041055
 20
9.2681280915
 30
0.0
 10
7.8429731482
 20
9.2540504213
 30
0.0
 10
7.8487473363
 20
9.2402946352
 30
0.0
 10
7.8554948724
 20
9.2269362019
 30
0.0
 10
7.8631786355
 20
9.2140484279
 30
0.0
 10
7.8717563895
 20
9.2017020271
 30
0.0
 10
7.8811810116
 20
9.1899647459
 30
0.0
 10
7.8914007497
 20
9.1789009937
 30
0.0
 10
7.9023595041
 20
9.1685714941
 30
0.0
 10
7.9139971324
 20
9.1590329544
 30
0.0
 10
7.9262497758
 20
9.1503377578
 30
0.0
 10
7.9390502059
 20
9.142533678
 30
0.0
 10
7.952328189
 20
9.135663619
 30
0.0
 10
7.9660108666
 20
9.1297653803
 30
0.0
 10
7.9800231502
 20
9.1248714501
 30
0.0
 10
7.994288127
 20
9.1210088258
 30
0.0
 10
8.0087274765
 20
9.1181988638
 30
0.0
 10
8.0232618952
 20
9.116457159
 30
0.0
 10
8.0378115221
 20
9.1157934526
 30
0.0
 10
8.0522963882
 20
9.1162115785
 30
0.0
 10
8.0666367932
 20
9.1177094081
 30
0.0
 10
8.0807539607
 20
9.1202789496
 30
0.0
 10
8.0945696575
 20
9.1239060203
 30
0.0
 10
8.1057805089
 20
9.1277978169
 30
0.0
 10
8.1145188235
 20
9.1314170904
 30
0.0
 10
8.1230802573
 20
9.1353620679
 30
0.0
 10
8.1334610246
 20
9.1409073692
 30
0.0
 10
8.1433604481
 20
9.1472469598
 30
0.0
 10
8.1509471725
 20
9.1527676649
 30
0.0
 10
8.1582997365
 20
9.1585774882
 30
0.0
 10
8.1635497507
 20
9.1632598861
 30
0.0
 10
8.1669174509
 20
9.166512857
 30
0.0
  0
SPLINE
  5
3B1
100
AcDbEntity
  8
0
100
AcDbSpline
 62
4
  6
CONTINUOUS
 70
0
 71
3
 72
313
 73
309
 74
0
 42
0.0000001
 43
0.0000001
 44
0.0000000001
 40
0.0
 40
0.0
 40
0.0
 40
0.0
 40
0.015625
 40
0.0234375
 40
0.03125
 40
0.0390625
 40
0.046875
 40
0.05078125
 40
0.0546875
 40
0.056640625
 40
0.05859375
 40
0.060546875
 40
0.0615234375
 40
0.0620117188
 40
0.0625
 40
0.0629882812
 40
0.0634765625
 40
0.064453125
 40
0.06640625
 40
0.068359375
 40
0.0703125
 40
0.07421875
 40
0.078125
 40
0.0859375
 40
0.09375
 40
0.1015625
 40
0.109375
 40
0.11328125
 40
0.1171875
 40
0.119140625
 40
0.12109375
 40
0.123046875
 40
0.1240234375
 40
0.1245117188
 40
0.125
 40
0.1254882812
 40
0.1259765625
 40
0.126953125
 40
0.12890625
 40
0.130859375
 40
0.1328125
 40
0.13671875
 40
0.140625
 40
0.1484375
 40
0.15625
 40
0.1640625
 40
0.171875
 40
0.17578125
 40
0.1796875
 40
0.181640625
 40
0.18359375
 40
0.185546875
 40
0.1865234375
 40
0.1870117188
 40
0.1875
 40
0.1879882812
 40
0.1884765625
 40
0.189453125
 40
0.19140625
 40
0.193359375
 40
0.1953125
 40
0.19921875
 40
0.203125
 40
0.2109375
 40
0.21875
 40
0.2265625
 40
0.234375
 40
0.23828125
 40
0.2421875
 40
0.244140625
 40
0.24609375
 40
0.248046875
 40
0.2490234375
 40
0.2495117188
 40
0.25
 40
0.2504882812
 40
0.2509765625
 40
0.251953125
 40
0.25390625
 40
0.255859375
 40
0.2578125
 40
0.26171875
 40
0.265625
 40
0.2734375
 40
0.28125
 40
0.2890625
 40
0.296875
 40
0.30078125
 40
0.3046875
 40
0.306640625
 40
0.30859375
 40
0.310546875
 40
0.3115234375
 40
0.3120117188
 40
0.3125
 40
0.3129882812
 40
0.3134765625
 40
0.314453125
 40
0.31640625
 40
0.318359375
 40
0.3203125
 40
0.32421875
 40
0.328125
 40
0.3359375
 40
0.34375
 40
0.3515625
 40
0.359375
 40
0.36328125
 40
0.3671875
 40
0.369140625
 40
0.37109375
 40
0.373046875
 40
0.3740234375
 40
0.3745117188
 40
0.375
 40
0.3754882812
 40
0.3759765625
 40
0.376953125
 40
0.37890625
 40
0.380859375
 40
0.3828125
 40
0.38671875
 40
0.390625
 40
0.3984375
 40
0.40625
 40
0.4140625
 40
0.421875
 40
0.42578125
 40
0.4296875
 40
0.431640625
 40
0.43359375
 40
0.435546875
 40
0.4365234375
 40
0.4370117188
 40
0.4375
 40
0.4379882812
 40
0.4384765625
 40
0.439453125
 40
0.44140625
 40
0.443359375
 40
0.4453125
 40
0.44921875
 40
0.453125
 40
0.4609375
 40
0.46875
 40
0.4765625
 40
0.484375
 40
0.48828125
 40
0.4921875
 40
0.494140625
 40
0.49609375
 40
0.498046875
 40
0.4990234375
 40
0.4995117188
 40
0.5
 40
0.5004882812
 40
0.5009765625
 40
0.501953125
 40
0.50390625
 40
0.505859375
 40
0.5078125
 40
0.51171875
 40
0.515625
 40
0.5234375
 40
0.53125
 40
0.5390625
 40
0.546875
 40
0.55078125
 40
0.5546875
 40
0.556640625
 40
0.55859375
 40
0.560546875
 40
0.5615234375
 40
0.5620117188
 40
0.5625
 40
0.5629882812
 40
0.5634765625
 40
0.564453125
 40
0.56640625
 40
0.568359375
 40
0.5703125
 40
0.57421875
 40
0.578125
 40
0.5859375
 40
0.59375
 40
0.6015625
 40
0.609375
 40
0.61328125
 40
0.6171875
 40
0.619140625
 40
0.62109375
 40
0.623046875
 40
0.6240234375
 40
0.6245117188
 40
0.625
 40
0.6254882812
 40
0.6259765625
 40
0.626953125
 40
0.62890625
 40
0.630859375
 40
0.6328125
 40
0.63671875
 40
0.640625
 40
0.6484375
 40
0.65625
 40
0.6640625
 40
0.671875
 40
0.67578125
 40
0.6796875
 40
0.681640625
 40
0.68359375
 40
0.685546875
 40
0.6865234375
 40
0.6870117188
 40
0.6875
 40
0.6879882812
 40
0.6884765625
 40
0.689453125
 40
0.69140625
 40
0.693359375
 40
0.6953125
 40
0.69921875
 40
0.703125
 40
0.7109375
 40
0.71875
 40
0.7265625
 40
0.734375
 40
0.73828125
 40
0.7421875
 40
0.744140625
 40
0.74609375
 40
0.748046875
 40
0.7490234375
 40
0.7495117188
 40
0.75
 40
0.7504882812
 40
0.7509765625
 40
0.751953125
 40
0.75390625
 40
0.755859375
 40
0.7578125
 40
0.76171875
 40
0.765625
 40
0.7734375
 40
0.78125
 40
0.7890625
 40
0.796875
 40
0.80078125
 40
0.8046875
 40
0.806640625
 40
0.80859375
 40
0.810546875
 40
0.8115234375
 40
0.8120117188
 40
0.8125
 40
0.8129882812
 40
0.8134765625
 40
0.814453125
 40
0.81640625
 40
0.818359375
 40
0.8203125
 40
0.82421875
 40
0.828125
 40
0.8359375
 40
0.84375
 40
0.8515625
 40
0.859375
 40
0.86328125
 40
0.8671875
 40
0.869140625
 40
0.87109375
 40
0.873046875
 40
0.8740234375
 40
0.8745117188
 40
0.875
 40
0.8754882812
 40
0.8759765625
 40
0.876953125
 40
0.87890625
 40
0.880859375
 40
0.8828125
 40
0.88671875
 40
0.890625
 40
0.8984375
 40
0.90625
 40
0.9140625
 40
0.921875
 40
0.92578125
 40
0.9296875
 40
0.931640625
 40
0.93359375
 40
0.935546875
 40
0.9365234375
 40
0.9370117188
 40
0.9375
 40
0.9379882812
 40
0.9384765625
 40
0.939453125
 40
0.94140625
 40
0.943359375
 40
0.9453125
 40
0.94921875
 40
0.953125
 40
0.9609375
 40
0.96875
 40
0.9765625
 40
0.984375
 40
1.0
 40
1.0
 40
1.0
 40
1.0
 10
9.5476026636
 20
7.8156694452
 30
0.0
 10
9.5472954519
 20
7.8188239374
 30
0.0
 10
9.5468346347
 20
7.8235556756
 30
0.0
 10
9.5462202107
 20
7.8298646597
 30
0.0
 10
9.5457593951
 20
7.8345963982
 30
0.0
 10
9.5452985703
 20
7.8393281354
 30
0.0
 10
9.5449145786
 20
7.8432712535
 30
0.0
 10
9.5446073202
 20
7.8464257396
 30
0.0
 10
9.5444154319
 20
7.8483973125
 30
0.0
 10
9.5442615819
 20
7.8499745271
 30
0.0
 10
9.5441471234
 20
7.8511575576
 30
0.0
 10
9.5440487861
 20
7.8521430362
 30
0.0
 10
9.5439857496
 20
7.8528336173
 30
0.0
 10
9.543940673
 20
7.85322707
 30
0.0
 10
9.5439323758
 20
7.8535254416
 30
0.0
 10
9.5438265657
 20
7.8538112676
 30
0.0
 10
9.5437194991
 20
7.854196745
 30
0.0
 10
9.5435162851
 20
7.8548692916
 30
0.0
 10
9.5432342646
 20
7.8558311384
 30
0.0
 10
9.5428922937
 20
7.8569848983
 30
0.0
 10
9.5424375712
 20
7.8585234041
 30
0.0
 10
9.5418687438
 20
7.8604464819
 30
0.0
 10
9.5409588572
 20
7.8635234368
 30
0.0
 10
9.5398214171
 20
7.8673696198
 30
0.0
 10
9.5384565263
 20
7.8719850448
 30
0.0
 10
9.5370916173
 20
7.8766004655
 30
0.0
 10
9.5359542226
 20
7.8804466591
 30
0.0
 10
9.5350442451
 20
7.8835235928
 30
0.0
 10
9.5344756488
 20
7.8854467243
 30
0.0
 10
9.534020452
 20
7.8869851199
 30
0.0
 10
9.53367993
 20
7.8881392167
 30
0.0
 10
9.5333933763
 20
7.8891000092
 30
0.0
 10
9.5331982549
 20
7.8897744379
 30
0.0
 10
9.5330782219
 20
7.8901568997
 30
0.0
 10
9.5330122405
 20
7.8904519886
 30
0.0
 10
9.5328543536
 20
7.8907155705
 30
0.0
 10
9.5326758953
 20
7.891078003
 30
0.0
 10
9.5323486572
 20
7.8917071393
 30
0.0
 10
9.5318889829
 20
7.8926085827
 30
0.0
 10
9.5313340314
 20
7.8936891688
 30
0.0
 10
9.5305952635
 20
7.8951303505
 30
0.0
 10
9.5296714039
 20
7.8969316906
 30
0.0
 10
9.5281934519
 20
7.8998139113
 30
0.0
 10
9.5263459348
 20
7.9034166608
 30
0.0
 10
9.5241289495
 20
7.9077399725
 30
0.0
 10
9.5219119469
 20
7.9120632771
 30
0.0
 10
9.5200644732
 20
7.9156660443
 30
0.0
 10
9.5185864344
 20
7.9185482296
 30
0.0
 10
9.5176627957
 20
7.9203496598
 30
0.0
 10
9.5169235743
 20
7.9217906566
 30
0.0
 10
9.5163700083
 20
7.9228718078
 30
0.0
 10
9.5159059991
 20
7.923771483
 30
0.0
 10
9.5155864995
 20
7.9244037757
 30
0.0
 10
9.5153956421
 20
7.9247611511
 30
0.0
 10
9.5152758417
 20
7.9250402668
 30
0.0
 10
9.5150668135
 20
7.925277013
 30
0.0
 10
9.514819233
 20
7.9256074535
 30
0.0
 10
9.5143714659
 20
7.9261788386
 30
0.0
 10
9.51373938
 20
7.9269987031
 30
0.0
 10
9.5129776319
 20
7.9279809995
 30
0.0
 10
9.5119631012
 20
7.9292912663
 30
0.0
 10
9.5106945497
 20
7.9309289155
 30
0.0
 10
9.5086650843
 20
7.9335492573
 30
0.0
 10
9.5061281776
 20
7.9368246488
 30
0.0
 10
9.5030839233
 20
7.9407551356
 30
0.0
 10
9.5000396542
 20
7.9446856113
 30
0.0
 10
9.4975027847
 20
7.9479610306
 30
0.0
 10
9.4954732451
 20
7.9505813168
 30
0.0
 10
9.494204882
 20
7.9522191072
 30
0.0
 10
9.4931899646
 20
7.9535290842
 30
0.0
 10
9.492429398
 20
7.9545122658
 30
0.0
 10
9.4917936154
 20
7.9553293609
 30
0.0
 10
9.4913524476
 20
7.9559056898
 30
0.0
 10
9.4910942934
 20
7.9562282092
 30
0.0
 10
9.490917744
 20
7.9564892866
 30
0.0
 10
9.4906759586
 20
7.9566770184
 30
0.0
 10
9.4903763331
 20
7.9569529112
 30
0.0
 10
9.4898413865
 20
7.9574238038
 30
0.0
 10
9.4890827199
 20
7.9581027393
 30
0.0
 10
9.4881699475
 20
7.9589147945
 30
0.0
 10
9.4869537462
 20
7.9599984665
 30
0.0
 10
9.4854332109
 20
7.9613527374
 30
0.0
 10
9.483000513
 20
7.9635197492
 30
0.0
 10
9.479959586
 20
7.9662284523
 30
0.0
 10
9.4763104983
 20
7.9694789244
 30
0.0
 10
9.472661399
 20
7.9727293818
 30
0.0
 10
9.4696205009
 20
7.9754381215
 30
0.0
 10
9.4671877452
 20
7.9776050603
 30
0.0
 10
9.4656673569
 20
7.9789595167
 30
0.0
 10
9.4644508539
 20
7.9800428078
 30
0.0
 10
9.4635390034
 20
7.9808560266
 30
0.0
 10
9.4627774521
 20
7.9815313216
 30
0.0
 10
9.4622476552
 20
7.9820087131
 30
0.0
 10
9.4619397786
 20
7.9822741931
 30
0.0
 10
9.4617233379
 20
7.9824939099
 30
0.0
 10
9.461451598
 20
7.9826348569
 30
0.0
 10
9.4611085672
 20
7.982850262
 30
0.0
 10
9.4604992761
 20
7.9832144195
 30
0.0
 10
9.4596335589
 20
7.9837413373
 30
0.0
 10
9.4585926871
 20
7.9843707739
 30
0.0
 10
9.4572055605
 20
7.9852110233
 30
0.0
 10
9.4554714117
 20
7.9862609924
 30
0.0
 10
9.452696908
 20
7.9879411346
 30
0.0
 10
9.4492287321
 20
7.990041246
 30
0.0
 10
9.4450669418
 20
7.9925614103
 30
0.0
 10
9.4409051426
 20
7.9950815585
 30
0.0
 10
9.4374369891
 20
7.9971817103
 30
0.0
 10
9.4346624406
 20
7.9988617719
 30
0.0
 10
9.4329284058
 20
7.9999119458
 30
0.0
 10
9.4315410451
 20
8.0007517748
 30
0.0
 10
9.4305008885
 20
8.0013824957
 30
0.0
 10
9.4296329336
 20
8.0019053953
 30
0.0
 10
9.4290276372
 20
8.0022767258
 30
0.0
 10
9.4286782059
 20
8.002480638
 30
0.0
 10
9.4284261262
 20
8.0026568876
 30
0.0
 10
9.4281358452
 20
8.0027440138
 30
0.0
 10
9.427762129
 20
8.0028912693
 30
0.0
 10
9.4271019172
 20
8.0031344824
 30
0.0
 10
9.4261620032
 20
8.003489502
 30
0.0
 10
9.4250327172
 20
8.0039122843
 30
0.0
 10
9.4235274878
 20
8.0044771262
 30
0.0
 10
9.4216457848
 20
8.0051827908
 30
0.0
 10
9.4186351529
 20
8.0063120711
 30
0.0
 10
9.4148718311
 20
8.0077235964
 30
0.0
 10
9.4103558593
 20
8.0094174613
 30
0.0
 10
9.4058398811
 20
8.0111113084
 30
0.0
 10
9.4020765753
 20
8.012522878
 30
0.0
 10
9.3990659113
 20
8.0136520697
 30
0.0
 10
9.39718429
 20
8.0143579595
 30
0.0
 10
9.3956788929
 20
8.0149223392
 30
0.0
 10
9.3945501191
 20
8.0153465333
 30
0.0
 10
9.3936086027
 20
8.015697136
 30
0.0
 10
9.3929512516
 20
8.015948234
 30
0.0
 10
9.3925729517
 20
8.0160828558
 30
0.0
 10
9.3922967502
 20
8.0162087886
 30
0.0
 10
9.3919917905
 20
8.0162392869
 30
0.0
 10
9.3915952087
 20
8.01631324
 30
0.0
 10
9.3908965169
 20
8.016427148
 30
0.0
 10
9.3899008292
 20
8.0165979824
 30
0.0
 10
9.3887049581
 20
8.016799513
 30
0.0
 10
9.3871108286
 20
8.0170694326
 30
0.0
 10
9.3851180416
 20
8.0174064171
 30
0.0
 10
9.3819296524
 20
8.0179458243
 30
0.0
 10
9.3779441419
 20
8.0186200032
 30
0.0
 10
9.3731615393
 20
8.0194290546
 30
0.0
 10
9.3683789349
 20
8.0202380871
 30
0.0
 10
9.3643934291
 20
8.0209123133
 30
0.0
 10
9.3612050304
 20
8.0214516259
 30
0.0
 10
9.3592122676
 20
8.021788851
 30
0.0
 10
9.3576180884
 20
8.0220582768
 30
0.0
 10
9.356422369
 20
8.0222613161
 30
0.0
 10
9.3554262068
 20
8.02242743
 30
0.0
 10
9.354728362
 20
8.022549765
 30
0.0
 10
9.3543304231
 20
8.0226102158
 30
0.0
 10
9.354029632
 20
8.0226821885
 30
0.0
 10
9.3537377741
 20
8.0226523506
 30
0.0
 10
9.3533455142
 20
8.0226480793
 30
0.0
 10
9.3526605112
 20
8.0226240587
 30
0.0
 10
9.3516811765
 20
8.0225983939
 30
0.0
 10
9.3505062997
 20
8.0225638934
 30
0.0
 10
9.3489396839
 20
8.0225191861
 30
0.0
 10
9.346981453
 20
8.0224628592
 30
0.0
 10
9.3438482618
 20
8.0223729836
 30
0.0
 10
9.3399317803
 20
8.0222605537
 30
0.0
 10
9.3352319989
 20
8.0221256768
 30
0.0
 10
9.3305322201
 20
8.0219907806
 30
0.0
 10
9.3266157319
 20
8.0218783988
 30
0.0
 10
9.3234825543
 20
8.021788427
 30
0.0
 10
9.3215242889
 20
8.0217323448
 30
0.0
 10
9.3199577438
 20
8.0216871351
 30
0.0
 10
9.318782651
 20
8.0216541696
 30
0.0
 10
9.3178039922
 20
8.0216237024
 30
0.0
 10
9.3171177826
 20
8.0216082548
 30
0.0
 10
9.316727456
 20
8.0215902474
 30
0.0
 10
9.3164296598
 20
8.0216026024
 30
0.0
 10
9.3161511717
 20
8.0215161055
 30
0.0
 10
9.3157731194
 20
8.021435257
 30
0.0
 10
9.3151146658
 20
8.0212777069
 30
0.0
 10
9.3141723772
 20
8.0210610344
 30
0.0
 10
9.3130423331
 20
8.0207974323
 30
0.0
 10
9.3115353623
 20
8.0204472185
 30
0.0
 10
9.3096517329
 20
8.0200090213
 30
0.0
 10
9.3066378788
 20
8.0193081462
 30
0.0
 10
9.3028705775
 20
8.0184319693
 30
0.0
 10
9.2983498081
 20
8.0173805949
 30
0.0
 10
9.2938290442
 20
8.0163292019
 30
0.0
 10
9.2900617292
 20
8.0154530715
 30
0.0
 10
9.2870479025
 20
8.0147521035
 30
0.0
 10
9.2851642033
 20
8.0143141423
 30
0.0
 10
9.2836573758
 20
8.0139634443
 30
0.0
 10
9.2825268942
 20
8.0137013215
 30
0.0
 10
9.2815859743
 20
8.0134800208
 30
0.0
 10
9.2809250773
 20
8.0133307327
 30
0.0
 10
9.2805509398
 20
8.0132366463
 30
0.0
 10
9.2802604268
 20
8.013190812
 30
0.0
 10
9.2800077944
 20
8.0130504452
 30
0.0
 10
9.279657738
 20
8.0128962634
 30
0.0
 10
9.2790512957
 20
8.0126110822
 30
0.0
 10
9.2781817309
 20
8.0122117125
 30
0.0
 10
9.2771396308
 20
8.0117290308
 30
0.0
 10
9.2757496828
 20
8.0110866562
 30
0.0
 10
9.2740124126
 20
8.0102832766
 30
0.0
 10
9.2712326881
 20
8.0089980992
 30
0.0
 10
9.2677580644
 20
8.0073915481
 30
0.0
 10
9.2635885012
 20
8.005463723
 30
0.0
 10
9.2594189462
 20
8.0035358799
 30
0.0
 10
9.2559443018
 20
8.0019293737
 30
0.0
 10
9.2531646188
 20
8.0006441065
 30
0.0
 10
9.2514272431
 20
7.9998409552
 30
0.0
 10
9.2500375116
 20
7.999198112
 30
0.0
 10
9.2489947503
 20
7.9987168618
 30
0.0
 10
9.2481272542
 20
7.9983130136
 30
0.0
 10
9.2475171189
 20
7.9980358271
 30
0.0
 10
9.2471729796
 20
7.9978688358
 30
0.0
 10
9.246902172
 20
7.997767816
 30
0.0
 10
9.246679922
 20
7.9975742009
 30
0.0
 10
9.2463666512
 20
7.9973483458
 30
0.0
 10
9.2458263188
 20
7.9969380509
 30
0.0
 10
9.2450502897
 20
7.9963597828
 30
0.0
 10
9.2441208207
 20
7.9956624936
 30
0.0
 10
9.2428809118
 20
7.9947339509
 30
0.0
 10
9.2413312369
 20
7.9935728697
 30
0.0
 10
9.2388516391
 20
7.9917153649
 30
0.0
 10
9.2357521827
 20
7.9893934063
 30
0.0
 10
9.2320328156
 20
7.986607091
 30
0.0
 10
9.2283134607
 20
7.98382076
 30
0.0
 10
9.2252139739
 20
7.9814988406
 30
0.0
 10
9.2227344367
 20
7.9796412575
 30
0.0
 10
9.2211846077
 20
7.9784803755
 30
0.0
 10
9.2199450153
 20
7.977551424
 30
0.0
 10
9.2190145792
 20
7.9768553834
 30
0.0
 10
9.2182415758
 20
7.9762732088
 30
0.0
 10
9.217695842
 20
7.9758698877
 30
0.0
 10
9.2173912257
 20
7.9756328588
 30
0.0
 10
9.2171423921
 20
7.9754735661
 30
0.0
 10
9.2169714281
 20
7.9752436371
 30
0.0
 10
9.2167163143
 20
7.9749617038
 30
0.0
 10
9.2162825205
 20
7.9744568409
 30
0.0
 10
9.2156561986
 20
7.9737416098
 30
0.0
 10
9.2149074444
 20
7.9728807637
 30
0.0
 10
9.2139081163
 20
7.9717338661
 30
0.0
 10
9.2126592949
 20
7.9702999368
 30
0.0
 10
9.2106609913
 20
7.9680058218
 30
0.0
 10
9.2081631771
 20
7.9651381187
 30
0.0
 10
9.2051657702
 20
7.9616969019
 30
0.0
 10
9.2021683786
 20
7.9582556725
 30
0.0
 10
9.199670526
 20
7.955388001
 30
0.0
 10
9.1976722993
 20
7.9530938228
 30
0.0
 10
9.1964232822
 20
7.9516600541
 30
0.0
 10
9.1954243559
 20
7.9505128269
 30
0.0
 10
9.1946743741
 20
7.9496529878
 30
0.0
 10
9.1940518929
 20
7.9489346057
 30
0.0
 10
9.193611243
 20
7.948435368
 30
0.0
 10
9.1933671143
 20
7.9481444218
 30
0.0
 10
9.1931624077
 20
7.9479421775
 30
0.0
 10
9.1930403059
 20
7.9476789055
 30
0.0
 10
9.19284869
 20
7.9473491632
 30
0.0
 10
9.192526787
 20
7.9467621962
 30
0.0
 10
9.1920599069
 20
7.9459288572
 30
0.0
 10
9.191502655
 20
7.944926631
 30
0.0
 10
9.1907586032
 20
7.9435911045
 30
0.0
 10
9.1898288977
 20
7.941921431
 30
0.0
 10
9.188341168
 20
7.9392501018
 30
0.0
 10
9.1864815754
 20
7.9359108891
 30
0.0
 10
9.1842500322
 20
7.9319038568
 30
0.0
 10
9.1820185058
 20
7.9278968144
 30
0.0
 10
9.1801588713
 20
7.924557627
 30
0.0
 10
9.1786712253
 20
7.9218862471
 30
0.0
 10
9.1777413071
 20
7.9202167024
 30
0.0
 10
9.1769976918
 20
7.9188809116
 30
0.0
 10
9.1764391061
 20
7.917879493
 30
0.0
 10
9.1759763993
 20
7.9170436269
 30
0.0
 10
9.1756470463
 20
7.9164611713
 30
0.0
 10
9.1754673672
 20
7.9161242008
 30
0.0
 10
9.1753085994
 20
7.9158831316
 30
0.0
 10
9.1752416043
 20
7.9155974968
 30
0.0
 10
9.1751202661
 20
7.9152321954
 30
0.0
 10
9.1749228389
 20
7.9145856752
 30
0.0
 10
9.1746330025
 20
7.9136658615
 30
0.0
 10
9.1742885364
 20
7.9125604643
 30
0.0
 10
9.1738280826
 20
7.9110871674
 30
0.0
 10
9.1732529145
 20
7.9092453525
 30
0.0
 10
9.1723324223
 20
7.906298557
 30
0.0
 10
9.1711818842
 20
7.9026150252
 30
0.0
 10
9.169801203
 20
7.898194804
 30
0.0
 10
9.1684205401
 20
7.8937745751
 30
0.0
 10
9.1672699566
 20
7.8900910625
 30
0.0
 10
9.1663495552
 20
7.8871442286
 30
0.0
 10
9.1657741563
 20
7.8853025114
 30
0.0
 10
9.1653141761
 20
7.883829014
 30
0.0
 10
9.1649682628
 20
7.8827242293
 30
0.0
 10
9.1646829545
 20
7.8818024991
 30
0.0
 10
9.164477444
 20
7.8811594002
 30
0.0
 10
9.1643690573
 20
7.880788617
 30
0.0
 10
9.1642622791
 20
7.8805198206
 30
0.0
 10
9.1642529299
 20
7.8802155091
 30
0.0
 10
9.1642064799
 20
7.8798221484
 30
0.0
 10
9.1641410263
 20
7.8791279955
 30
0.0
 10
9.164039243
 20
7.8781393661
 30
0.0
 10
9.1639206464
 20
7.8769517192
 30
0.0
 10
9.16376128
 20
7.875368641
 30
0.0
 10
9.1635624958
 20
7.8733896389
 30
0.0
 10
9.1632442042
 20
7.8702233219
 30
0.0
 10
9.1628464209
 20
7.8662653959
 30
0.0
 10
9.1623690461
 20
7.8615158975
 30
0.0
 10
9.1618916807
 20
7.8567663957
 30
0.0
 10
9.1612551902
 20
7.8504337278
 30
0.0
 10
9.160777823
 20
7.8456842266
 30
0.0
 10
9.1604595781
 20
7.8425178925
 30
0.0
  0
SPLINE
  5
3B2
100
AcDbEntity
  8
0
100
AcDbSpline
 62
4
  6
CONTINUOUS
 70
0
 71
3
 72
313
 73
309
 74
0
 42
0.0000001
 43
0.0000001
 44
0.0000000001
 40
0.0
 40
0.0
 40
0.0
 40
0.0
 40
0.015625
 40
0.0234375
 40
0.03125
 40
0.0390625
 40
0.046875
 40
0.05078125
 40
0.0546875
 40
0.056640625
 40
0.05859375
 40
0.060546875
 40
0.0615234375
 40
0.0620117188
 40
0.0625
 40
0.0629882812
 40
0.0634765625
 40
0.064453125
 40
0.06640625
 40
0.068359375
 40
0.0703125
 40
0.07421875
 40
0.078125
 40
0.0859375
 40
0.09375
 40
0.1015625
 40
0.109375
 40
0.11328125
 40
0.1171875
 40
0.119140625
 40
0.12109375
 40
0.123046875
 40
0.1240234375
 40
0.1245117188
 40
0.125
 40
0.1254882812
 40
0.1259765625
 40
0.126953125
 40
0.12890625
 40
0.130859375
 40
0.1328125
 40
0.13671875
 40
0.140625
 40
0.1484375
 40
0.15625
 40
0.1640625
 40
0.171875
 40
0.17578125
 40
0.1796875
 40
0.181640625
 40
0.18359375
 40
0.185546875
 40
0.1865234375
 40
0.1870117188
 40
0.1875
 40
0.1879882812
 40
0.1884765625
 40
0.189453125
 40
0.19140625
 40
0.193359375
 40
0.1953125
 40
0.19921875
 40
0.203125
 40
0.2109375
 40
0.21875
 40
0.2265625
 40
0.234375
 40
0.23828125
 40
0.2421875
 40
0.244140625
 40
0.24609375
 40
0.248046875
 40
0.2490234375
 40
0.2495117188
 40
0.25
 40
0.2504882812
 40
0.2509765625
 40
0.251953125
 40
0.25390625
 40
0.255859375
 40
0.2578125
 40
0.26171875
 40
0.265625
 40
0.2734375
 40
0.28125
 40
0.2890625
 40
0.296875
 40
0.30078125
 40
0.3046875
 40
0.306640625
 40
0.30859375
 40
0.310546875
 40
0.3115234375
 40
0.3120117188
 40
0.3125
 40
0.3129882812
 40
0.3134765625
 40
0.314453125
 40
0.31640625
 40
0.318359375
 40
0.3203125
 40
0.32421875
 40
0.328125
 40
0.3359375
 40
0.34375
 40
0.3515625
 40
0.359375
 40
0.36328125
 40
0.3671875
 40
0.369140625
 40
0.37109375
 40
0.373046875
 40
0.3740234375
 40
0.3745117188
 40
0.375
 40
0.3754882812
 40
0.3759765625
 40
0.376953125
 40
0.37890625
 40
0.380859375
 40
0.3828125
 40
0.38671875
 40
0.390625
 40
0.3984375
 40
0.40625
 40
0.4140625
 40
0.421875
 40
0.42578125
 40
0.4296875
 40
0.431640625
 40
0.43359375
 40
0.435546875
 40
0.4365234375
 40
0.4370117188
 40
0.4375
 40
0.4379882812
 40
0.4384765625
 40
0.439453125
 40
0.44140625
 40
0.443359375
 40
0.4453125
 40
0.44921875
 40
0.453125
 40
0.4609375
 40
0.46875
 40
0.4765625
 40
0.484375
 40
0.48828125
 40
0.4921875
 40
0.494140625
 40
0.49609375
 40
0.498046875
 40
0.4990234375
 40
0.4995117188
 40
0.5
 40
0.5004882812
 40
0.5009765625
 40
0.501953125
 40
0.50390625
 40
0.505859375
 40
0.5078125
 40
0.51171875
 40
0.515625
 40
0.5234375
 40
0.53125
 40
0.5390625
 40
0.546875
 40
0.55078125
 40
0.5546875
 40
0.556640625
 40
0.55859375
 40
0.560546875
 40
0.5615234375
 40
0.5620117188
 40
0.5625
 40
0.5629882812
 40
0.5634765625
 40
0.564453125
 40
0.56640625
 40
0.568359375
 40
0.5703125
 40
0.57421875
 40
0.578125
 40
0.5859375
 40
0.59375
 40
0.6015625
 40
0.609375
 40
0.61328125
 40
0.6171875
 40
0.619140625
 40
0.62109375
 40
0.623046875
 40
0.6240234375
 40
0.6245117188
 40
0.625
 40
0.6254882812
 40
0.6259765625
 40
0.626953125
 40
0.62890625
 40
0.630859375
 40
0.6328125
 40
0.63671875
 40
0.640625
 40
0.6484375
 40
0.65625
 40
0.6640625
 40
0.671875
 40
0.67578125
 40
0.6796875
 40
0.681640625
 40
0.68359375
 40
0.685546875
 40
0.6865234375
 40
0.6870117188
 40
0.6875
 40
0.6879882812
 40
0.6884765625
 40
0.689453125
 40
0.69140625
 40
0.693359375
 40
0.6953125
 40
0.69921875
 40
0.703125
 40
0.7109375
 40
0.71875
 40
0.7265625
 40
0.734375
 40
0.73828125
 40
0.7421875
 40
0.744140625
 40
0.74609375
 40
0.748046875
 40
0.7490234375
 40
0.7495117188
 40
0.75
 40
0.7504882812
 40
0.7509765625
 40
0.751953125
 40
0.75390625
 40
0.755859375
 40
0.7578125
 40
0.76171875
 40
0.765625
 40
0.7734375
 40
0.78125
 40
0.7890625
 40
0.796875
 40
0.80078125
 40
0.8046875
 40
0.806640625
 40
0.80859375
 40
0.810546875
 40
0.8115234375
 40
0.8120117188
 40
0.8125
 40
0.8129882812
 40
0.8134765625
 40
0.814453125
 40
0.81640625
 40
0.818359375
 40
0.8203125
 40
0.82421875
 40
0.828125
 40
0.8359375
 40
0.84375
 40
0.8515625
 40
0.859375
 40
0.86328125
 40
0.8671875
 40
0.869140625
 40
0.87109375
 40
0.873046875
 40
0.8740234375
 40
0.8745117188
 40
0.875
 40
0.8754882812
 40
0.8759765625
 40
0.876953125
 40
0.87890625
 40
0.880859375
 40
0.8828125
 40
0.88671875
 40
0.890625
 40
0.8984375
 40
0.90625
 40
0.9140625
 40
0.921875
 40
0.92578125
 40
0.9296875
 40
0.931640625
 40
0.93359375
 40
0.935546875
 40
0.9365234375
 40
0.9370117188
 40
0.9375
 40
0.9379882812
 40
0.9384765625
 40
0.939453125
 40
0.94140625
 40
0.943359375
 40
0.9453125
 40
0.94921875
 40
0.953125
 40
0.9609375
 40
0.96875
 40
0.9765625
 40
0.984375
 40
1.0
 40
1.0
 40
1.0
 40
1.0
 10
9.1604595781
 20
7.8425179094
 30
0.0
 10
9.1607667898
 20
7.8393634173
 30
0.0
 10
9.161227607
 20
7.8346316791
 30
0.0
 10
9.161842031
 20
7.8283226949
 30
0.0
 10
9.1623028465
 20
7.8235909565
 30
0.0
 10
9.1627636714
 20
7.8188592193
 30
0.0
 10
9.1631476631
 20
7.8149161012
 30
0.0
 10
9.1634549215
 20
7.8117616151
 30
0.0
 10
9.1636468098
 20
7.8097900422
 30
0.0
 10
9.1638006598
 20
7.8082128275
 30
0.0
 10
9.1639151183
 20
7.807029797
 30
0.0
 10
9.1640134556
 20
7.8060443185
 30
0.0
 10
9.1640764921
 20
7.8053537373
 30
0.0
 10
9.1641215687
 20
7.8049602846
 30
0.0
 10
9.1641298659
 20
7.8046619131
 30
0.0
 10
9.164235676
 20
7.804376087
 30
0.0
 10
9.1643427426
 20
7.8039906096
 30
0.0
 10
9.1645459566
 20
7.803318063
 30
0.0
 10
9.1648279771
 20
7.8023562163
 30
0.0
 10
9.165169948
 20
7.8012024564
 30
0.0
 10
9.1656246705
 20
7.7996639505
 30
0.0
 10
9.1661934978
 20
7.7977408728
 30
0.0
 10
9.1671033844
 20
7.7946639178
 30
0.0
 10
9.1682408246
 20
7.7908177348
 30
0.0
 10
9.1696057154
 20
7.7862023099
 30
0.0
 10
9.1709706244
 20
7.7815868892
 30
0.0
 10
9.1721080191
 20
7.7777406956
 30
0.0
 10
9.1730179966
 20
7.7746637618
 30
0.0
 10
9.1735865929
 20
7.7727406303
 30
0.0
 10
9.1740417897
 20
7.7712022348
 30
0.0
 10
9.1743823117
 20
7.7700481379
 30
0.0
 10
9.1746688654
 20
7.7690873454
 30
0.0
 10
9.1748639868
 20
7.7684129168
 30
0.0
 10
9.1749840197
 20
7.7680304549
 30
0.0
 10
9.1750500012
 20
7.767735366
 30
0.0
 10
9.1752078881
 20
7.7674717842
 30
0.0
 10
9.1753863464
 20
7.7671093517
 30
0.0
 10
9.1757135845
 20
7.7664802153
 30
0.0
 10
9.1761732588
 20
7.765578772
 30
0.0
 10
9.1767282103
 20
7.7644981859
 30
0.0
 10
9.1774669782
 20
7.7630570042
 30
0.0
 10
9.1783908378
 20
7.7612556641
 30
0.0
 10
9.1798687898
 20
7.7583734433
 30
0.0
 10
9.1817163069
 20
7.7547706939
 30
0.0
 10
9.1839332922
 20
7.7504473822
 30
0.0
 10
9.1861502948
 20
7.7461240775
 30
0.0
 10
9.1879977685
 20
7.7425213104
 30
0.0
 10
9.1894758073
 20
7.739639125
 30
0.0
 10
9.190399446
 20
7.7378376948
 30
0.0
 10
9.1911386674
 20
7.7363966981
 30
0.0
 10
9.1916922334
 20
7.7353155469
 30
0.0
 10
9.1921562426
 20
7.7344158716
 30
0.0
 10
9.1924757421
 20
7.733783579
 30
0.0
 10
9.1926665996
 20
7.7334262036
 30
0.0
 10
9.1927864
 20
7.7331470879
 30
0.0
 10
9.1929954282
 20
7.7329103417
 30
0.0
 10
9.1932430087
 20
7.7325799012
 30
0.0
 10
9.1936907758
 20
7.732008516
 30
0.0
 10
9.1943228617
 20
7.7311886516
 30
0.0
 10
9.1950846098
 20
7.7302063551
 30
0.0
 10
9.1960991405
 20
7.7288960883
 30
0.0
 10
9.197367692
 20
7.7272584391
 30
0.0
 10
9.1993971574
 20
7.7246380973
 30
0.0
 10
9.201934064
 20
7.7213627059
 30
0.0
 10
9.2049783183
 20
7.7174322191
 30
0.0
 10
9.2080225875
 20
7.7135017433
 30
0.0
 10
9.210559457
 20
7.7102263241
 30
0.0
 10
9.2125889966
 20
7.7076060379
 30
0.0
 10
9.2138573597
 20
7.7059682475
 30
0.0
 10
9.2148722771
 20
7.7046582704
 30
0.0
 10
9.2156328437
 20
7.7036750889
 30
0.0
 10
9.2162686263
 20
7.7028579937
 30
0.0
 10
9.2167097941
 20
7.7022816649
 30
0.0
 10
9.2169679483
 20
7.7019591455
 30
0.0
 10
9.2171444977
 20
7.7016980681
 30
0.0
 10
9.2173862831
 20
7.7015103363
 30
0.0
 10
9.2176859086
 20
7.7012344434
 30
0.0
 10
9.2182208552
 20
7.7007635509
 30
0.0
 10
9.2189795218
 20
7.7000846153
 30
0.0
 10
9.2198922942
 20
7.6992725601
 30
0.0
 10
9.2211084955
 20
7.6981888882
 30
0.0
 10
9.2226290308
 20
7.6968346173
 30
0.0
 10
9.2250617287
 20
7.6946676055
 30
0.0
 10
9.2281026557
 20
7.6919589023
 30
0.0
 10
9.2317517434
 20
7.6887084303
 30
0.0
 10
9.2354008427
 20
7.6854579728
 30
0.0
 10
9.2384417408
 20
7.6827492332
 30
0.0
 10
9.2408744965
 20
7.6805822944
 30
0.0
 10
9.2423948848
 20
7.6792278379
 30
0.0
 10
9.2436113878
 20
7.6781445468
 30
0.0
 10
9.2445232383
 20
7.6773313281
 30
0.0
 10
9.2452847896
 20
7.676656033
 30
0.0
 10
9.2458145865
 20
7.6761786416
 30
0.0
 10
9.2461224631
 20
7.6759131616
 30
0.0
 10
9.2463389038
 20
7.6756934448
 30
0.0
 10
9.2466106437
 20
7.6755524978
 30
0.0
 10
9.2469536745
 20
7.6753370926
 30
0.0
 10
9.2475629655
 20
7.6749729351
 30
0.0
 10
9.2484286828
 20
7.6744460174
 30
0.0
 10
9.2494695546
 20
7.6738165808
 30
0.0
 10
9.2508566812
 20
7.6729763314
 30
0.0
 10
9.25259083
 20
7.6719263622
 30
0.0
 10
9.2553653337
 20
7.6702462201
 30
0.0
 10
9.2588335096
 20
7.6681461086
 30
0.0
 10
9.2629952999
 20
7.6656259443
 30
0.0
 10
9.2671570991
 20
7.6631057961
 30
0.0
 10
9.2706252526
 20
7.6610056444
 30
0.0
 10
9.2733998011
 20
7.6593255828
 30
0.0
 10
9.2751338359
 20
7.6582754089
 30
0.0
 10
9.2765211966
 20
7.6574355798
 30
0.0
 10
9.2775613532
 20
7.656804859
 30
0.0
 10
9.2784293081
 20
7.6562819593
 30
0.0
 10
9.2790346045
 20
7.6559106288
 30
0.0
 10
9.2793840358
 20
7.6557067166
 30
0.0
 10
9.2796361155
 20
7.655530467
 30
0.0
 10
9.2799263965
 20
7.6554433408
 30
0.0
 10
9.2803001127
 20
7.6552960853
 30
0.0
 10
9.2809603245
 20
7.6550528723
 30
0.0
 10
9.2819002385
 20
7.6546978527
 30
0.0
 10
9.2830295245
 20
7.6542750703
 30
0.0
 10
9.2845347539
 20
7.6537102285
 30
0.0
 10
9.2864164569
 20
7.6530045638
 30
0.0
 10
9.2894270887
 20
7.6518752836
 30
0.0
 10
9.2931904106
 20
7.6504637582
 30
0.0
 10
9.2977063824
 20
7.6487698934
 30
0.0
 10
9.3022223606
 20
7.6470760463
 30
0.0
 10
9.3059856664
 20
7.6456644766
 30
0.0
 10
9.3089963304
 20
7.644535285
 30
0.0
 10
9.3108779517
 20
7.6438293952
 30
0.0
 10
9.3123833487
 20
7.6432650154
 30
0.0
 10
9.3135121226
 20
7.6428408214
 30
0.0
 10
9.314453639
 20
7.6424902187
 30
0.0
 10
9.3151109901
 20
7.6422391207
 30
0.0
 10
9.31548929
 20
7.6421044989
 30
0.0
 10
9.3157654915
 20
7.641978566
 30
0.0
 10
9.3160704512
 20
7.6419480677
 30
0.0
 10
9.316467033
 20
7.6418741147
 30
0.0
 10
9.3171657248
 20
7.6417602067
 30
0.0
 10
9.3181614125
 20
7.6415893722
 30
0.0
 10
9.3193572836
 20
7.6413878417
 30
0.0
 10
9.3209514131
 20
7.641117922
 30
0.0
 10
9.3229442001
 20
7.6407809376
 30
0.0
 10
9.3261325893
 20
7.6402415303
 30
0.0
 10
9.3301180998
 20
7.6395673515
 30
0.0
 10
9.3349007024
 20
7.6387583
 30
0.0
 10
9.3396833068
 20
7.6379492675
 30
0.0
 10
9.3436688126
 20
7.6372750413
 30
0.0
 10
9.3468572113
 20
7.6367357288
 30
0.0
 10
9.3488499741
 20
7.6363985037
 30
0.0
 10
9.3504441533
 20
7.6361290779
 30
0.0
 10
9.3516398727
 20
7.6359260386
 30
0.0
 10
9.3526360349
 20
7.6357599247
 30
0.0
 10
9.3533338797
 20
7.6356375897
 30
0.0
 10
9.3537318186
 20
7.6355771388
 30
0.0
 10
9.3540326097
 20
7.6355051662
 30
0.0
 10
9.3543244676
 20
7.6355350041
 30
0.0
 10
9.3547167275
 20
7.6355392753
 30
0.0
 10
9.3554017305
 20
7.635563296
 30
0.0
 10
9.3563810652
 20
7.6355889608
 30
0.0
 10
9.3575559419
 20
7.6356234612
 30
0.0
 10
9.3591225578
 20
7.6356681685
 30
0.0
 10
9.3610807887
 20
7.6357244955
 30
0.0
 10
9.3642139799
 20
7.635814371
 30
0.0
 10
9.3681304614
 20
7.635926801
 30
0.0
 10
9.3728302428
 20
7.6360616779
 30
0.0
 10
9.3775300215
 20
7.636196574
 30
0.0
 10
9.3814465098
 20
7.6363089558
 30
0.0
 10
9.3845796874
 20
7.6363989277
 30
0.0
 10
9.3865379528
 20
7.6364550098
 30
0.0
 10
9.3881044979
 20
7.6365002195
 30
0.0
 10
9.3892795907
 20
7.6365331851
 30
0.0
 10
9.3902582495
 20
7.6365636522
 30
0.0
 10
9.3909444591
 20
7.6365790999
 30
0.0
 10
9.3913347857
 20
7.6365971072
 30
0.0
 10
9.3916325819
 20
7.6365847522
 30
0.0
 10
9.39191107
 20
7.6366712491
 30
0.0
 10
9.3922891223
 20
7.6367520977
 30
0.0
 10
9.3929475759
 20
7.6369096478
 30
0.0
 10
9.3938898645
 20
7.6371263203
 30
0.0
 10
9.3950199086
 20
7.6373899224
 30
0.0
 10
9.3965268793
 20
7.6377401361
 30
0.0
 10
9.3984105088
 20
7.6381783333
 30
0.0
 10
9.4014243629
 20
7.6388792084
 30
0.0
 10
9.4051916642
 20
7.6397553853
 30
0.0
 10
9.4097124336
 20
7.6408067597
 30
0.0
 10
9.4142331975
 20
7.6418581527
 30
0.0
 10
9.4180005125
 20
7.6427342832
 30
0.0
 10
9.4210143392
 20
7.6434352511
 30
0.0
 10
9.4228980384
 20
7.6438732124
 30
0.0
 10
9.4244048659
 20
7.6442239103
 30
0.0
 10
9.4255353475
 20
7.6444860332
 30
0.0
 10
9.4264762674
 20
7.6447073339
 30
0.0
 10
9.4271371644
 20
7.6448566219
 30
0.0
 10
9.4275113019
 20
7.6449507084
 30
0.0
 10
9.4278018149
 20
7.6449965427
 30
0.0
 10
9.4280544473
 20
7.6451369095
 30
0.0
 10
9.4284045037
 20
7.6452910912
 30
0.0
 10
9.429010946
 20
7.6455762725
 30
0.0
 10
9.4298805108
 20
7.6459756422
 30
0.0
 10
9.4309226109
 20
7.6464583238
 30
0.0
 10
9.4323125589
 20
7.6471006985
 30
0.0
 10
9.4340498291
 20
7.647904078
 30
0.0
 10
9.4368295535
 20
7.6491892554
 30
0.0
 10
9.4403041772
 20
7.6507958066
 30
0.0
 10
9.4444737405
 20
7.6527236317
 30
0.0
 10
9.4486432955
 20
7.6546514747
 30
0.0
 10
9.4521179399
 20
7.6562579809
 30
0.0
 10
9.4548976229
 20
7.6575432481
 30
0.0
 10
9.4566349985
 20
7.6583463994
 30
0.0
 10
9.4580247301
 20
7.6589892426
 30
0.0
 10
9.4590674914
 20
7.6594704929
 30
0.0
 10
9.4599349875
 20
7.659874341
 30
0.0
 10
9.4605451228
 20
7.6601515275
 30
0.0
 10
9.4608892621
 20
7.6603185189
 30
0.0
 10
9.4611600697
 20
7.6604195387
 30
0.0
 10
9.4613823197
 20
7.6606131537
 30
0.0
 10
9.4616955905
 20
7.6608390089
 30
0.0
 10
9.4622359229
 20
7.6612493037
 30
0.0
 10
9.463011952
 20
7.6618275718
 30
0.0
 10
9.463941421
 20
7.662524861
 30
0.0
 10
9.4651813299
 20
7.6634534038
 30
0.0
 10
9.4667310047
 20
7.664614485
 30
0.0
 10
9.4692106026
 20
7.6664719897
 30
0.0
 10
9.472310059
 20
7.6687939483
 30
0.0
 10
9.4760294261
 20
7.6715802636
 30
0.0
 10
9.479748781
 20
7.6743665946
 30
0.0
 10
9.4828482678
 20
7.676688514
 30
0.0
 10
9.485327805
 20
7.6785460971
 30
0.0
 10
9.486877634
 20
7.6797069792
 30
0.0
 10
9.4881172263
 20
7.6806359306
 30
0.0
 10
9.4890476624
 20
7.6813319712
 30
0.0
 10
9.4898206659
 20
7.6819141459
 30
0.0
 10
9.4903663997
 20
7.6823174669
 30
0.0
 10
9.490671016
 20
7.6825544959
 30
0.0
 10
9.4909198496
 20
7.6827137886
 30
0.0
 10
9.4910908136
 20
7.6829437176
 30
0.0
 10
9.4913459273
 20
7.6832256509
 30
0.0
 10
9.4917797212
 20
7.6837305138
 30
0.0
 10
9.492406043
 20
7.6844457448
 30
0.0
 10
9.4931547973
 20
7.685306591
 30
0.0
 10
9.4941541254
 20
7.6864534886
 30
0.0
 10
9.4954029468
 20
7.6878874178
 30
0.0
 10
9.4974012504
 20
7.6901815329
 30
0.0
 10
9.4998990645
 20
7.6930492359
 30
0.0
 10
9.5028964715
 20
7.6964904528
 30
0.0
 10
9.5058938631
 20
7.6999316822
 30
0.0
 10
9.5083917157
 20
7.7027993537
 30
0.0
 10
9.5103899423
 20
7.7050935319
 30
0.0
 10
9.5116389595
 20
7.7065273005
 30
0.0
 10
9.5126378858
 20
7.7076745278
 30
0.0
 10
9.5133878675
 20
7.7085343668
 30
0.0
 10
9.5140103488
 20
7.7092527489
 30
0.0
 10
9.5144509987
 20
7.7097519867
 30
0.0
 10
9.5146951274
 20
7.7100429329
 30
0.0
 10
9.514899834
 20
7.7102451772
 30
0.0
 10
9.5150219358
 20
7.7105084492
 30
0.0
 10
9.5152135517
 20
7.7108381914
 30
0.0
 10
9.5155354547
 20
7.7114251584
 30
0.0
 10
9.5160023348
 20
7.7122584974
 30
0.0
 10
9.5165595867
 20
7.7132607237
 30
0.0
 10
9.5173036385
 20
7.7145962501
 30
0.0
 10
9.518233344
 20
7.7162659237
 30
0.0
 10
9.5197210737
 20
7.7189372529
 30
0.0
 10
9.5215806663
 20
7.7222764656
 30
0.0
 10
9.5238122095
 20
7.7262834979
 30
0.0
 10
9.5260437359
 20
7.7302905402
 30
0.0
 10
9.5279033704
 20
7.7336297276
 30
0.0
 10
9.5293910164
 20
7.7363011075
 30
0.0
 10
9.5303209346
 20
7.7379706522
 30
0.0
 10
9.5310645498
 20
7.7393064431
 30
0.0
 10
9.5316231356
 20
7.7403078616
 30
0.0
 10
9.5320858424
 20
7.7411437277
 30
0.0
 10
9.5324151954
 20
7.7417261834
 30
0.0
 10
9.5325948745
 20
7.7420631539
 30
0.0
 10
9.5327536423
 20
7.742304223
 30
0.0
 10
9.5328206374
 20
7.7425898579
 30
0.0
 10
9.5329419756
 20
7.7429551593
 30
0.0
 10
9.5331394028
 20
7.7436016795
 30
0.0
 10
9.5334292392
 20
7.7445214932
 30
0.0
 10
9.5337737053
 20
7.7456268904
 30
0.0
 10
9.5342341591
 20
7.7471001873
 30
0.0
 10
9.5348093272
 20
7.7489420022
 30
0.0
 10
9.5357298194
 20
7.7518887977
 30
0.0
 10
9.5368803575
 20
7.7555723294
 30
0.0
 10
9.5382610386
 20
7.7599925507
 30
0.0
 10
9.5396417016
 20
7.7644127796
 30
0.0
 10
9.5407922851
 20
7.7680962921
 30
0.0
 10
9.5417126865
 20
7.7710431261
 30
0.0
 10
9.5422880854
 20
7.7728848433
 30
0.0
 10
9.5427480656
 20
7.7743583407
 30
0.0
 10
9.5430939789
 20
7.7754631253
 30
0.0
 10
9.5433792872
 20
7.7763848556
 30
0.0
 10
9.5435847977
 20
7.7770279544
 30
0.0
 10
9.5436931844
 20
7.7773987377
 30
0.0
 10
9.5437999626
 20
7.7776675341
 30
0.0
 10
9.5438093118
 20
7.7779718456
 30
0.0
 10
9.5438557618
 20
7.7783652062
 30
0.0
 10
9.5439212154
 20
7.7790593591
 30
0.0
 10
9.5440229987
 20
7.7800479886
 30
0.0
 10
9.5441415953
 20
7.7812356355
 30
0.0
 10
9.5443009617
 20
7.7828187136
 30
0.0
 10
9.5444997459
 20
7.7847977157
 30
0.0
 10
9.5448180375
 20
7.7879640328
 30
0.0
 10
9.5452158208
 20
7.7919219587
 30
0.0
 10
9.5456931955
 20
7.7966714572
 30
0.0
 10
9.546170561
 20
7.801420959
 30
0.0
 10
9.5468070515
 20
7.8077536269
 30
0.0
 10
9.5472844186
 20
7.8125031281
 30
0.0
 10
9.5476026636
 20
7.8156694622
 30
0.0
  0
ENDSEC
  0
SECTION
  2
OBJECTS
  0
DICTIONARY
  5
C
100
AcDbDictionary
280
0
281
1
  3
ACAD_GROUP
350
D
  3
ACAD_MLINESTYLE
350
17
  3
ACAD_LAYOUT
350
1A
  3
ACAD_PLOTSETTINGS
350
19
  3
ACAD_PLOTSTYLENAME
350
E
  3
ACAD_IMAGE_DICT
350
       3B4
  3
ACAD_IMAGE_VARS
350
       3B5
  3
ACAD_TABLESTYLE
350
       3B6
  0
IMAGEDEF_REACTOR
  5
3B3
100
AcDbRasterImageDefReactor
 90
2
330
28A
  0
DICTIONARY
  5
D
102
{ACAD_REACTORS
330
C
102
}
100
AcDbDictionary
280
0
281
1
  0
ACDBDICTIONARYWDFLT
  5
E
102
{ACAD_REACTORS
330
C
102
}
100
AcDbDictionary
281
1
  3
Normal
350
F
100
AcDbDictionaryWithDefault
340
F
  0
DICTIONARY
  5
3B4
330
C
100
AcDbDictionary
281
1
  3
H6X_assy_2_img_1
350
       3B9
  0
RASTERVARIABLES
  5
3B5
330
C
100
AcDbRasterVariables
 90
0
 70
0
 71
1
 72
5
  0
DICTIONARY
  5
17
102
{ACAD_REACTORS
330
C
102
}
100
AcDbDictionary
280
0
281
1
  3
Standard
350
18
  0
DICTIONARY
  5
3B6
330
C
100
AcDbDictionary
281
1
  3
Standard
350
       3BA
  3
Standard1
350
       3BB
  0
DICTIONARY
  5
19
102
{ACAD_REACTORS
330
C
102
}
100
AcDbDictionary
281
1
  0
DICTIONARY
  5
1A
102
{ACAD_REACTORS
330
C
102
}
100
AcDbDictionary
281
1
  3
Model
350
3B7
  3
Layout1
350
3B8
  0
ACDBPLACEHOLDER
  5
F
102
{ACAD_REACTORS
330
E
102
}
  0
MLINESTYLE
  5
18
102
{ACAD_REACTORS
330
17
102
}
100
AcDbMlineStyle
  2
STANDARD
 70
0
  3

 62
256
 51
90.0
 52
90.0
 71
2
 49
0.5
 62
256
  6
BYLAYER
 49
-0.5
 62
256
  6
BYLAYER
  0
LAYOUT
  5
3B7
102
{ACAD_REACTORS
330
1A
102
}
100
AcDbPlotSettings
  1

  2
none_device
  4
ANSI_C_(22.00_x_17.00_Inches)
  6

 40
0.0
 41
0.0
 42
0.0
 43
0.0
 44
558.8
 45
431.8
 46
0.0
 47
0.0
 48
0.0
 49
0.0
140
0.0
141
0.0
142
1.0
143
1.0
 70
1024
 72
0
 73
0
 74
0
  7

 75
0
147
1.0
148
0.0
149
0.0
100
AcDbLayout
  1
Model
 70
0
 71
0
 10
0.0
 20
0.0
 11
22.0
 21
17.0
 12
0.0
 22
0.0
 32
0.0
 14
0.0
 24
0.0
 34
0.0
 15
0.0
 25
0.0
 35
0.0
146
0.0
 13
0.0
 23
0.0
 33
0.0
 16
1.0
 26
0.0
 36
0.0
 17
0.0
 27
1.0
 37
0.0
 76
0
330
204
345
0
346
0
  0
LAYOUT
  5
3B8
102
{ACAD_REACTORS
330
1A
102
}
100
AcDbPlotSettings
  1

  2
none_device
  4
ANSI_C_(22.00_x_17.00_Inches)
  6

 40
0.0
 41
0.0
 42
0.0
 43
0.0
 44
558.8
 45
431.8
 46
0.0
 47
0.0
 48
0.0
 49
0.0
140
0.0
141
0.0
142
1.0
143
1.0
 70
0
 72
0
 73
0
 74
0
  7

 75
0
147
1.0
148
0.0
149
0.0
100
AcDbLayout
  1
Layout1
 70
0
 71
1
 10
0.0
 20
0.0
 11
22.0
 21
17.0
 12
0.0
 22
0.0
 32
0.0
 14
0.0
 24
0.0
 34
0.0
 15
0.0
 25
0.0
 35
0.0
146
0.0
 13
0.0
 23
0.0
 33
0.0
 16
1.0
 26
0.0
 36
0.0
 17
0.0
 27
1.0
 37
0.0
 76
0
330
205
345
0
346
0
  0
IMAGEDEF
  5
3B9
102
{ACAD_REACTORS
330
3B4
330
3B3
102
}
100
AcDbRasterImageDef
 90
0
  1
H6X_assy_2_img_1.png
 10
369.0
 20
92.0
 11
0.0066666667
 21
0.0066666667
280
1
281
0
  0
TABLESTYLE
  5
3BA
102
{ACAD_REACTORS
330
3B6
330
28D
330
28E
102
}
330
3B6
100
AcDbTableStyle
  3
Standard
 70
0
 71
0
 40
0.06
 41
0.06
280
1
281
1
  7
Standard
140
0.18
170
1
 62
0
 63
7
283
0
  7
Standard
140
0.18
170
1
 62
0
 63
7
283
0
  7
Standard
140
0.18
170
1
 62
0
 63
7
283
0
  0
TABLESTYLE
  5
3BB
102
{ACAD_REACTORS
330
3B6
330
28C
102
}
330
3B6
100
AcDbTableStyle
  3
Standard1
 70
1
 71
0
 40
0.06
 41
0.06
280
1
281
1
  7
Standard
140
0.18
170
1
 62
0
 63
7
283
0
  7
Standard
140
0.18
170
1
 62
0
 63
7
283
0
  7
Standard
140
0.18
170
1
 62
0
 63
7
283
0
  0
ENDSEC
  0
EOF
