999
DXF file: H6N_assy_2.dxf
999
Pro/ENGINEER 2014200 by Parametric Technology Corporation
  0
SECTION
  2
HEADER
  9
$ACADVER
  1
AC1021
  9
$DWGCODEPAGE
  3
ANSI_1252
  9
$EXTMAX
 10
22.0
 20
17.0
 30
0.0
  9
$EXTMIN
 10
0.0
 20
0.0
 30
0.0
  9
$LIMMIN
 10
0.0
 20
0.0
  9
$LIMMAX
 10
22.0
 20
17.0
  9
$VIEWCTR
 10
11.0
 20
8.5
  9
$VIEWSIZE
 40
17.0
  9
$CLAYER
  8
0
  9
$LTSCALE
 40
1.21
  9
$CELTYPE
  6
BYLAYER
  9
$DIMSCALE
 40
1.0
  9
$DIMASZ
 40
0.1875
  9
$DIMEXO
 40
0.0625
  9
$DIMDLI
 40
0.836
  9
$DIMEXE
 40
0.125
  9
$DIMCEN
 40
0.198
  9
$DIMLFAC
 40
1.0
  9
$DIMBLK
  1
_FILLED
  9
$DIMTXT
 40
0.1
  9
$DIMTOL
 70
0
  9
$DIMLIM
 70
0
  9
$DIMTFAC
 40
1.0
  9
$DIMGAP
 40
0.09
  9
$DIMDSEP
 70
46
  9
$AUNITS
 70
0
  9
$PDMODE
 70
3
  9
$PDSIZE
 40
0.3125
  9
$HANDSEED
  5
3AF
  9
$TILEMODE
 70
1
  9
$MEASUREMENT
 70
0
  9
$INSUNITS
 70
1
  0
ENDSEC
  0
SECTION
  2
CLASSES
  0
CLASS
  1
ACDBDICTIONARYWDFLT
  2
AcDbDictionaryWithDefault
  3
AutoCAD 2000
 90
0
 91
1
280
0
281
0
  0
CLASS
  1
ACDBPLACEHOLDER
  2
AcDbPlaceHolder
  3
AutoCAD 2000
 90
0
 91
1
280
0
281
0
  0
CLASS
  1
LAYOUT
  2
AcDbLayout
  3
AutoCAD 2000
 90
0
 91
0
280
0
281
0
  0
CLASS
  1
RASTERVARIABLES
  2
AcDbRasterVariables
  3
ISM
 90
0
 91
1
280
0
281
0
  0
CLASS
  1
IMAGEDEF
  2
AcDbRasterImageDef
  3
ISM
 90
0
 91
1
280
0
281
0
  0
CLASS
  1
IMAGEDEF_REACTOR
  2
AcDbRasterImageDefReactor
  3
ISM
 90
0
 91
1
280
0
281
0
  0
CLASS
  1
IMAGE
  2
AcDbRasterImage
  3
ISM
 90
127
 91
1
280
0
281
1
  0
CLASS
  1
TABLESTYLE
  2
AcDbTableStyle
  3
ObjectDBX Classes
 90
2047
 91
1
280
0
281
0
  0
CLASS
  1
ACAD_TABLE
  2
AcDbTable
  3
ObjectDBX Classes
 90
1025
 91
3
280
0
281
1
  0
ENDSEC
  0
SECTION
  2
TABLES
  0
TABLE
  2
VPORT
  5
8
100
AcDbSymbolTable
 70
2
  0
VPORT
  5
1F4
100
AcDbSymbolTableRecord
100
AcDbViewportTableRecord
  2
*ACTIVE
 70
0
 10
0.0
 20
0.0
 11
1.0
 21
1.0
 12
11.0
 22
8.5
 13
0.0
 23
0.0
 14
1.0
 24
1.0
 15
0.0
 25
0.0
 16
0.0
 26
0.0
 36
1.0
 17
0.0
 27
0.0
 37
0.0
 40
17.0
 41
1.2941176471
 42
50.0
 43
0.0
 44
0.0
 50
0.0
 51
0.0
 71
0
 72
100
 73
1
 74
1
 75
0
 76
0
 77
0
 78
0
  0
ENDTAB
  0
TABLE
  2
LTYPE
  5
5
100
AcDbSymbolTable
 70
6
  0
LTYPE
  5
14
100
AcDbSymbolTableRecord
100
AcDbLinetypeTableRecord
  2
BYBLOCK
 70
0
  3

 72
65
 73
0
 40
0.0
  0
LTYPE
  5
15
100
AcDbSymbolTableRecord
100
AcDbLinetypeTableRecord
  2
BYLAYER
 70
0
  3

 72
65
 73
0
 40
0.0
  0
LTYPE
  5
16
100
AcDbSymbolTableRecord
100
AcDbLinetypeTableRecord
  2
CONTINUOUS
 70
64
  3
Solid line
 72
65
 73
0
 40
0.0
  0
LTYPE
  5
1F5
100
AcDbSymbolTableRecord
100
AcDbLinetypeTableRecord
  2
CENTER
 70
64
  3
____ _ ____ _ ____ _ ____ _ ____ _ ____ _ ____
 72
65
 73
4
 40
0.6
 49
0.375
 74
0
 49
-0.075
 74
0
 49
0.075
 74
0
 49
-0.075
 74
0
  0
LTYPE
  5
1F6
100
AcDbSymbolTableRecord
100
AcDbLinetypeTableRecord
  2
HIDDEN
 70
64
  3
- - - - - - - - - - - - - - - - - - - -
 72
65
 73
2
 40
0.2
 49
0.1
 74
0
 49
-0.1
 74
0
  0
LTYPE
  5
1F7
100
AcDbSymbolTableRecord
100
AcDbLinetypeTableRecord
  2
PHANTOM
 70
64
  3
_____ _ _ _____ _ _ _____ _ _ _____
 72
65
 73
6
 40
0.8
 49
0.45
 74
0
 49
-0.05
 74
0
 49
0.1
 74
0
 49
-0.05
 74
0
 49
0.1
 74
0
 49
-0.05
 74
0
  0
LTYPE
  5
1F8
100
AcDbSymbolTableRecord
100
AcDbLinetypeTableRecord
  2
DOT
 70
64
  3
. . . . . . . . . . . . . . . . . . . .
 72
65
 73
2
 40
0.2
 49
0.1
 74
0
 49
-0.1
 74
0
  0
LTYPE
  5
1F9
100
AcDbSymbolTableRecord
100
AcDbLinetypeTableRecord
  2
DASHED
 70
64
  3
- - - - - - - - - - - - - - - - - - - -
 72
65
 73
2
 40
0.2
 49
0.1
 74
0
 49
-0.1
 74
0
  0
ENDTAB
  0
TABLE
  2
LAYER
  5
2
100
AcDbSymbolTable
 70
36
  0
LAYER
  5
10
100
AcDbSymbolTableRecord
100
AcDbLayerTableRecord
  2
0
 70
0
 62
7
  6
CONTINUOUS
370
-3
390
F
  0
LAYER
  5
1FA
100
AcDbSymbolTableRecord
100
AcDbLayerTableRecord
  2
DEFAULT_1
 70
0
 62
7
  6
CENTER
370
-3
390
F
  0
LAYER
  5
1FB
100
AcDbSymbolTableRecord
100
AcDbLayerTableRecord
  2
DEFAULT_2
 70
0
 62
8
  6
HIDDEN
370
-3
390
F
  0
LAYER
  5
1FC
100
AcDbSymbolTableRecord
100
AcDbLayerTableRecord
  2
DEFAULT_3
 70
0
 62
7
  6
PHANTOM
370
-3
390
F
  0
LAYER
  5
1FD
100
AcDbSymbolTableRecord
100
AcDbLayerTableRecord
  2
DATUM_PLANES
 70
0
 62
7
  6
CONTINUOUS
370
-3
390
F
  0
LAYER
  5
1FE
100
AcDbSymbolTableRecord
100
AcDbLayerTableRecord
  2
PORT_AREAS
 70
0
 62
7
  6
CONTINUOUS
370
-3
390
F
  0
LAYER
  5
1FF
100
AcDbSymbolTableRecord
100
AcDbLayerTableRecord
  2
SUNNBOMCOSMETIC
 70
0
 62
7
  6
CONTINUOUS
370
-3
390
F
  0
LAYER
  5
200
100
AcDbSymbolTableRecord
100
AcDbLayerTableRecord
  2
SUNNBOMSTAMPING
 70
0
 62
7
  6
CONTINUOUS
370
-3
390
F
  0
LAYER
  5
201
100
AcDbSymbolTableRecord
100
AcDbLayerTableRecord
  2
THREADS
 70
0
 62
7
  6
CONTINUOUS
370
-3
390
F
  0
ENDTAB
  0
TABLE
  2
STYLE
  5
3
100
AcDbSymbolTable
 70
1
  0
STYLE
  5
11
100
AcDbSymbolTableRecord
100
AcDbTextStyleTableRecord
  2
STANDARD
 70
0
 40
0.0
 41
0.8
 50
0.0
 71
0
 42
0.2
  3
txt
  4

  0
STYLE
  5
202
100
AcDbSymbolTableRecord
100
AcDbTextStyleTableRecord
  2
TEXTSTYLE_1
 70
0
 40
0.0
 41
0.8
 50
0.0
 71
0
 42
0.2
  3
gdt
  4

  0
ENDTAB
  0
TABLE
  2
VIEW
  5
6
100
AcDbSymbolTable
 70
0
  0
ENDTAB
  0
TABLE
  2
UCS
  5
7
100
AcDbSymbolTable
 70
0
  0
ENDTAB
  0
TABLE
  2
APPID
  5
9
100
AcDbSymbolTable
 70
1
  0
APPID
  5
203
100
AcDbSymbolTableRecord
100
AcDbRegAppTableRecord
  2
ACAD
 70
0
  0
ENDTAB
  0
TABLE
  2
BLOCK_RECORD
  5
1
100
AcDbSymbolTable
 70
0
  0
BLOCK_RECORD
  5
204
100
AcDbSymbolTableRecord
100
AcDbBlockTableRecord
  2
*Model_Space
  0
BLOCK_RECORD
  5
205
100
AcDbSymbolTableRecord
100
AcDbBlockTableRecord
  2
*Paper_Space
  0
BLOCK_RECORD
  5
206
100
AcDbSymbolTableRecord
100
AcDbBlockTableRecord
  2
SUN_FIRST_THIRD_ANGLE_BL0
  0
BLOCK_RECORD
  5
207
100
AcDbSymbolTableRecord
100
AcDbBlockTableRecord
  2
*T1
  0
BLOCK_RECORD
  5
208
100
AcDbSymbolTableRecord
100
AcDbBlockTableRecord
  2
*T2
  0
BLOCK_RECORD
  5
209
100
AcDbSymbolTableRecord
100
AcDbBlockTableRecord
  2
*T3
  0
ENDTAB
  0
TABLE
  2
DIMSTYLE
  5
A
100
AcDbSymbolTable
 70
1
100
AcDbDimStyleTable
 71
0
  0
DIMSTYLE
105
20A
100
AcDbSymbolTableRecord
100
AcDbDimStyleTableRecord
  2
STANDARD
 70
0
  3

  4

 40
1.0
 41
0.1875
 42
0.0625
 43
0.38
 44
0.125
 45
0.0
 46
0.0
 47
0.001
 48
0.001
140
0.1
141
0.09
142
0.0
143
25.4
144
1.0
145
0.0
146
1.0
147
0.09
 71
0.0
 72
0.0
 73
1
 74
1
 75
0
 76
0
 77
0
 78
4
170
0
171
2
172
0
173
0
174
0
175
0
176
0
177
0
178
0
270
2
271
3
272
3
273
2
274
2
275
0
280
0
281
0
282
0
283
1
284
4
285
0
286
0
287
3
288
0
340
11
278
46
  0
ENDTAB
  0
ENDSEC
  0
SECTION
  2
BLOCKS
  0
BLOCK
  5
20
100
AcDbEntity
  8
0
100
AcDbBlockBegin
  2
*Model_Space
 70
0
 10
0.0
 20
0.0
 30
0.0
  3
*Model_Space
  1

  0
ENDBLK
  5
21
100
AcDbEntity
  8
0
100
AcDbBlockEnd
  0
BLOCK
  5
1C
100
AcDbEntity
  8
0
100
AcDbBlockBegin
  2
*Paper_Space
 70
0
 10
0.0
 20
0.0
 30
0.0
  3
*Paper_Space
  1

  0
ENDBLK
  5
1D
100
AcDbEntity
  8
0
100
AcDbBlockEnd
  0
BLOCK
  5
20B
100
AcDbEntity
  8
0
100
AcDbBlockBegin
 62
2
  6
CONTINUOUS
  2
SUN_FIRST_THIRD_ANGLE_BL0
 70
64
 10
20.4816717061
 20
1.2289683772
  3
SUN_FIRST_THIRD_ANGLE_BL0
  1

  0
TEXT
  5
20C
100
AcDbEntity
  8
0
100
AcDbText
 62
2
  6
CONTINUOUS
 10
19.4750896608
 20
1.4136269581
  7
STANDARD
 40
0.08
  1
FIRST ANGLE
 41
0.8
 72
0
100
AcDbText
  0
TEXT
  5
20D
100
AcDbEntity
  8
0
100
AcDbText
 62
2
  6
CONTINUOUS
 10
20.7842537513
 20
1.4047600029
  7
STANDARD
 40
0.08
  1
THIRD ANGLE
 41
0.8
 72
0
100
AcDbText
  0
LINE
  5
20E
100
AcDbEntity
  8
0
100
AcDbLine
 62
7
  6
CONTINUOUS
 10
19.4767170086
 20
1.1727031207
 11
19.6334271527
 21
1.1717972817
  0
LINE
  5
20F
100
AcDbEntity
  8
0
100
AcDbLine
 62
7
  6
CONTINUOUS
 10
19.6596964832
 20
1.1717972817
 11
19.6950230232
 21
1.171593082
  0
LINE
  5
210
100
AcDbEntity
  8
0
100
AcDbLine
 62
7
  6
CONTINUOUS
 10
19.7194818561
 20
1.1708914427
 11
19.8852396156
 21
1.1699333054
  0
LINE
  5
211
100
AcDbEntity
  8
0
100
AcDbLine
 62
7
  6
CONTINUOUS
 10
19.4758111696
 20
1.2723454088
 11
19.88525039
 21
1.3511534004
  0
LINE
  5
212
100
AcDbEntity
  8
0
100
AcDbLine
 62
7
  6
CONTINUOUS
 10
19.88525039
 20
1.3511534004
 11
19.8831348489
 21
0.9851647912
  0
LINE
  5
213
100
AcDbEntity
  8
0
100
AcDbLine
 62
7
  6
CONTINUOUS
 10
19.8831348489
 20
0.9851647912
 11
19.4767170086
 21
1.0658141206
  0
LINE
  5
214
100
AcDbEntity
  8
0
100
AcDbLine
 62
7
  6
CONTINUOUS
 10
19.4767170086
 20
1.0658141206
 11
19.4779056764
 21
1.2714536432
  0
CIRCLE
  5
215
100
AcDbEntity
  8
0
100
AcDbCircle
 62
7
  6
CONTINUOUS
 10
20.2068232291
 20
1.1717972817
 40
0.175742101
  0
CIRCLE
  5
216
100
AcDbEntity
  8
0
100
AcDbCircle
 62
7
  6
CONTINUOUS
 10
20.2068232291
 20
1.1717972817
 40
0.1005522074
  0
LINE
  5
217
100
AcDbEntity
  8
0
100
AcDbLine
 62
7
  6
CONTINUOUS
 10
20.2077290681
 20
1.3756110529
 11
20.2071171714
 21
1.2379342989
  0
LINE
  5
218
100
AcDbEntity
  8
0
100
AcDbLine
 62
7
  6
CONTINUOUS
 10
20.2077290681
 20
1.2016899681
 11
20.2074674401
 21
1.1428236749
  0
LINE
  5
219
100
AcDbEntity
  8
0
100
AcDbLine
 62
7
  6
CONTINUOUS
 10
20.208634907
 20
1.101141841
 11
20.2080230104
 21
0.963465087
  0
LINE
  5
21A
100
AcDbEntity
  8
0
100
AcDbLine
 62
7
  6
CONTINUOUS
 10
20.0066328138
 20
1.1745147986
 11
20.1443095678
 21
1.1739029019
  0
LINE
  5
21B
100
AcDbEntity
  8
0
100
AcDbLine
 62
7
  6
CONTINUOUS
 10
20.1832714155
 20
1.1727031207
 11
20.238153505
 21
1.172335442
  0
LINE
  5
21C
100
AcDbEntity
  8
0
100
AcDbLine
 62
7
  6
CONTINUOUS
 10
20.2756669918
 20
1.1717972817
 11
20.407916871
 21
1.1712095044
  0
CIRCLE
  5
21D
100
AcDbEntity
  8
0
100
AcDbCircle
 62
7
  6
CONTINUOUS
 10
20.7509457401
 20
1.1693297793
 40
0.1722024983
  0
CIRCLE
  5
21E
100
AcDbEntity
  8
0
100
AcDbCircle
 62
7
  6
CONTINUOUS
 10
20.7509457401
 20
1.1693297793
 40
0.0985164967
  0
LINE
  5
21F
100
AcDbEntity
  8
0
100
AcDbLine
 62
7
  6
CONTINUOUS
 10
20.7169767782
 20
1.170462078
 11
20.7825395137
 21
1.1682766535
  0
LINE
  5
220
100
AcDbEntity
  8
0
100
AcDbLine
 62
7
  6
CONTINUOUS
 10
20.8177513651
 20
1.1693297793
 11
20.947965719
 21
1.1693297793
  0
LINE
  5
221
100
AcDbEntity
  8
0
100
AcDbLine
 62
7
  6
CONTINUOUS
 10
20.6875370113
 20
1.170462078
 11
20.5573226574
 21
1.170462078
  0
LINE
  5
222
100
AcDbEntity
  8
0
100
AcDbLine
 62
7
  6
CONTINUOUS
 10
20.7486811426
 20
1.1987695462
 11
20.7486811426
 21
1.1432869085
  0
LINE
  5
223
100
AcDbEntity
  8
0
100
AcDbLine
 62
7
  6
CONTINUOUS
 10
20.7498134414
 20
1.1059210505
 11
20.7498134414
 21
0.9757066966
  0
LINE
  5
224
100
AcDbEntity
  8
0
100
AcDbLine
 62
7
  6
CONTINUOUS
 10
20.7486811426
 20
1.2338708068
 11
20.7486811426
 21
1.3640851607
  0
LINE
  5
225
100
AcDbEntity
  8
0
100
AcDbLine
 62
7
  6
CONTINUOUS
 10
21.0702539817
 20
1.2701043662
 11
21.4790138229
 21
1.3448360823
  0
LINE
  5
226
100
AcDbEntity
  8
0
100
AcDbLine
 62
7
  6
CONTINUOUS
 10
21.4790138229
 20
1.3448360823
 11
21.4790138229
 21
0.9779712941
  0
LINE
  5
227
100
AcDbEntity
  8
0
100
AcDbLine
 62
7
  6
CONTINUOUS
 10
21.4790138229
 20
0.9779712941
 11
21.069121683
 21
1.0617614
  0
LINE
  5
228
100
AcDbEntity
  8
0
100
AcDbLine
 62
7
  6
CONTINUOUS
 10
21.0702539817
 20
1.2701043662
 11
21.069121683
 21
1.0617614
  0
LINE
  5
229
100
AcDbEntity
  8
0
100
AcDbLine
 62
7
  6
CONTINUOUS
 10
21.4790138229
 20
1.1693297793
 11
21.3159628059
 21
1.1693297793
  0
LINE
  5
22A
100
AcDbEntity
  8
0
100
AcDbLine
 62
7
  6
CONTINUOUS
 10
21.2876553377
 20
1.1693297793
 11
21.2502894796
 21
1.1693297793
  0
LINE
  5
22B
100
AcDbEntity
  8
0
100
AcDbLine
 62
7
  6
CONTINUOUS
 10
21.2208497126
 20
1.1659328831
 11
21.0713862804
 21
1.1659328831
  0
LINE
  5
22C
100
AcDbEntity
  8
0
100
AcDbLine
 62
7
  6
CONTINUOUS
 10
20.4796138713
 20
1.5284908897
 11
20.4766766948
 21
0.9294458646
  0
ENDBLK
  5
22D
100
AcDbEntity
  8
0
  6
BYBLOCK
 62
0
100
AcDbBlockEnd
  0
BLOCK
  5
22E
100
AcDbEntity
  8
0
100
AcDbBlockBegin
  2
*T1
 70
1
 10
0.0
 20
0.0
  3
*T1
  1

  0
LINE
  5
22F
100
AcDbEntity
  8
0
100
AcDbLine
 62
2
  6
CONTINUOUS
 10
9.275
 20
0.0
 11
-0.0
 21
0.0
  0
LINE
  5
230
100
AcDbEntity
  8
0
100
AcDbLine
 62
2
  6
CONTINUOUS
 10
9.275
 20
0.0
 11
9.275
 21
1.25
  0
LINE
  5
231
100
AcDbEntity
  8
0
100
AcDbLine
 62
2
  6
CONTINUOUS
 10
9.275
 20
0.625
 11
-0.0
 21
0.625
  0
LINE
  5
232
100
AcDbEntity
  8
0
100
AcDbLine
 62
2
  6
CONTINUOUS
 10
9.275
 20
1.25
 11
-0.0
 21
1.25
  0
LINE
  5
233
100
AcDbEntity
  8
0
100
AcDbLine
 62
2
  6
CONTINUOUS
 10
6.8
 20
0.0
 11
6.8
 21
1.25
  0
LINE
  5
234
100
AcDbEntity
  8
0
100
AcDbLine
 62
2
  6
CONTINUOUS
 10
6.4
 20
0.0
 11
6.4
 21
0.625
  0
LINE
  5
235
100
AcDbEntity
  8
0
100
AcDbLine
 62
2
  6
CONTINUOUS
 10
5.9
 20
0.0
 11
5.9
 21
0.625
  0
LINE
  5
236
100
AcDbEntity
  8
0
100
AcDbLine
 62
2
  6
CONTINUOUS
 10
5.2
 20
0.0
 11
5.2
 21
0.625
  0
LINE
  5
237
100
AcDbEntity
  8
0
100
AcDbLine
 62
2
  6
CONTINUOUS
 10
4.1
 20
0.0
 11
4.1
 21
1.25
  0
LINE
  5
238
100
AcDbEntity
  8
0
100
AcDbLine
 62
2
  6
CONTINUOUS
 10
-0.0
 20
0.0
 11
-0.0
 21
1.25
  0
MTEXT
  5
239
100
AcDbEntity
  8
0
100
AcDbMText
 62
2
  6
CONTINUOUS
  7
STANDARD
 71
2
 72
1
 10
6.6
 20
0.325
 30
0.0
 11
1.0
 21
0.0
 31
0.0
 44
0.9
  1
2
 40
0.125
 41
0.2
  0
MTEXT
  5
23A
100
AcDbEntity
  8
0
100
AcDbMText
 62
2
  6
CONTINUOUS
  7
STANDARD
 71
2
 72
1
 10
6.15
 20
0.325
 30
0.0
 11
1.0
 21
0.0
 31
0.0
 44
0.9
  1
C
 40
0.125
 41
0.2
  0
MTEXT
  5
23B
100
AcDbEntity
  8
0
100
AcDbMText
 62
2
  6
CONTINUOUS
  7
STANDARD
 71
2
 72
1
 10
5.55
 20
0.325
 30
0.0
 11
1.0
 21
0.0
 31
0.0
 44
0.9
  1
1.000
 40
0.125
 41
1.0
  0
MTEXT
  5
23C
100
AcDbEntity
  8
0
100
AcDbMText
 62
2
  6
CONTINUOUS
  7
STANDARD
 71
2
 72
1
 10
4.65
 20
0.325
 30
0.0
 11
1.0
 21
0.0
 31
0.0
 44
0.9
  1
Apr-22-20
 40
0.125
 41
1.8
  0
MTEXT
  5
23D
100
AcDbEntity
  8
0
100
AcDbMText
 62
2
  6
CONTINUOUS
  7
STANDARD
 71
2
 72
1
 10
2.05
 20
0.4625
 30
0.0
 11
1.0
 21
0.0
 31
0.0
 44
0.9
  1
T-17A Line mount\P(See Technical Data for Body Features)
 40
0.125
 41
7.6
  0
MTEXT
  5
23E
100
AcDbEntity
  8
0
100
AcDbMText
 62
2
  6
CONTINUOUS
  7
STANDARD
 71
1
 72
1
 10
6.45
 20
0.5625
 30
0.0
 11
1.0
 21
0.0
 31
0.0
 44
0.9
  1
SHEET
 40
0.06
 41
0.48
  0
MTEXT
  5
23F
100
AcDbEntity
  8
0
100
AcDbMText
 62
2
  6
CONTINUOUS
  7
STANDARD
 71
1
 72
1
 10
5.95
 20
0.5625
 30
0.0
 11
1.0
 21
0.0
 31
0.0
 44
0.9
  1
DWG SIZE
 40
0.06
 41
0.768
  0
MTEXT
  5
240
100
AcDbEntity
  8
0
100
AcDbMText
 62
2
  6
CONTINUOUS
  7
STANDARD
 71
1
 72
1
 10
5.25
 20
0.5625
 30
0.0
 11
1.0
 21
0.0
 31
0.0
 44
0.9
  1
SCALE
 40
0.06
 41
0.48
  0
MTEXT
  5
241
100
AcDbEntity
  8
0
100
AcDbMText
 62
2
  6
CONTINUOUS
  7
STANDARD
 71
1
 72
1
 10
4.15
 20
0.5625
 30
0.0
 11
1.0
 21
0.0
 31
0.0
 44
0.9
  1
DATE
 40
0.06
 41
0.384
  0
MTEXT
  5
242
100
AcDbEntity
  8
0
100
AcDbMText
 62
2
  6
CONTINUOUS
  7
STANDARD
 71
1
 72
1
 10
0.05
 20
0.5625
 30
0.0
 11
1.0
 21
0.0
 31
0.0
 44
0.9
  1
DESCRIPTION
 40
0.06
 41
1.056
  0
MTEXT
  5
243
100
AcDbEntity
  8
0
100
AcDbMText
 62
2
  6
CONTINUOUS
  7
STANDARD
 71
2
 72
1
 10
5.45
 20
1.0375
 30
0.0
 11
1.0
 21
0.0
 31
0.0
 44
0.9
  1
ALL DIMENSIONS IN INCH\PVIEWS ARE THIRD ANGLE
 40
0.12
 41
4.224
  0
MTEXT
  5
244
100
AcDbEntity
  8
0
100
AcDbMText
 62
2
  6
CONTINUOUS
  7
STANDARD
 71
2
 72
1
 10
2.05
 20
0.95
 30
0.0
 11
1.0
 21
0.0
 31
0.0
 44
0.9
  1
H6N
 40
0.125
 41
0.6
  0
MTEXT
  5
245
100
AcDbEntity
  8
0
100
AcDbMText
 62
2
  6
CONTINUOUS
  7
STANDARD
 71
1
 72
1
 10
0.05
 20
1.1875
 30
0.0
 11
1.0
 21
0.0
 31
0.0
 44
0.9
  1
MODEL
 40
0.06
 41
0.48
  0
ENDBLK
  5
246
100
AcDbEntity
  8
0
  6
BYBLOCK
 62
0
100
AcDbBlockEnd
  0
BLOCK
  5
247
100
AcDbEntity
  8
0
100
AcDbBlockBegin
  2
*T2
 70
1
 10
0.0
 20
0.0
  3
*T2
  1

  0
LINE
  5
248
100
AcDbEntity
  8
0
100
AcDbLine
 62
2
  6
CONTINUOUS
 10
0.0
 20
0.0
 11
9.055
 21
0.0
  0
LINE
  5
249
100
AcDbEntity
  8
0
100
AcDbLine
 62
2
  6
CONTINUOUS
 10
0.0
 20
0.0
 11
0.0
 21
-2.594
  0
LINE
  5
24A
100
AcDbEntity
  8
0
100
AcDbLine
 62
2
  6
CONTINUOUS
 10
0.0
 20
-0.344
 11
9.055
 21
-0.344
  0
LINE
  5
24B
100
AcDbEntity
  8
0
100
AcDbLine
 62
2
  6
CONTINUOUS
 10
0.0
 20
-0.594
 11
9.055
 21
-0.594
  0
LINE
  5
24C
100
AcDbEntity
  8
0
100
AcDbLine
 62
2
  6
CONTINUOUS
 10
0.0
 20
-0.844
 11
9.055
 21
-0.844
  0
LINE
  5
24D
100
AcDbEntity
  8
0
100
AcDbLine
 62
2
  6
CONTINUOUS
 10
0.0
 20
-1.094
 11
9.055
 21
-1.094
  0
LINE
  5
24E
100
AcDbEntity
  8
0
100
AcDbLine
 62
2
  6
CONTINUOUS
 10
0.0
 20
-1.344
 11
9.055
 21
-1.344
  0
LINE
  5
24F
100
AcDbEntity
  8
0
100
AcDbLine
 62
2
  6
CONTINUOUS
 10
0.0
 20
-1.594
 11
9.055
 21
-1.594
  0
LINE
  5
250
100
AcDbEntity
  8
0
100
AcDbLine
 62
2
  6
CONTINUOUS
 10
0.0
 20
-1.844
 11
9.055
 21
-1.844
  0
LINE
  5
251
100
AcDbEntity
  8
0
100
AcDbLine
 62
2
  6
CONTINUOUS
 10
0.0
 20
-2.094
 11
9.055
 21
-2.094
  0
LINE
  5
252
100
AcDbEntity
  8
0
100
AcDbLine
 62
2
  6
CONTINUOUS
 10
0.0
 20
-2.344
 11
9.055
 21
-2.344
  0
LINE
  5
253
100
AcDbEntity
  8
0
100
AcDbLine
 62
2
  6
CONTINUOUS
 10
0.0
 20
-2.594
 11
9.055
 21
-2.594
  0
LINE
  5
254
100
AcDbEntity
  8
0
100
AcDbLine
 62
2
  6
CONTINUOUS
 10
3.055
 20
0.0
 11
3.055
 21
-2.594
  0
LINE
  5
255
100
AcDbEntity
  8
0
100
AcDbLine
 62
2
  6
CONTINUOUS
 10
9.055
 20
0.0
 11
9.055
 21
-2.594
  0
MTEXT
  5
256
100
AcDbEntity
  8
0
100
AcDbMText
 62
2
  6
CONTINUOUS
  7
STANDARD
 71
2
 72
1
 10
1.5275
 20
-0.0995
 30
0.0
 11
1.0
 21
0.0
 31
0.0
 44
0.9
  1
Technical Data
 40
0.145
 41
3.248
  0
MTEXT
  5
257
100
AcDbEntity
  8
0
100
AcDbMText
 62
2
  6
CONTINUOUS
  7
STANDARD
 71
2
 72
1
 10
4.555
 20
-0.0995
 30
0.0
 11
1.0
 21
0.0
 31
0.0
 44
0.9
  1
U.S. Units
 40
0.145
 41
2.32
  0
MTEXT
  5
258
100
AcDbEntity
  8
0
100
AcDbMText
 62
2
  6
CONTINUOUS
  7
STANDARD
 71
2
 72
1
 10
7.555
 20
-0.0995
 30
0.0
 11
1.0
 21
0.0
 31
0.0
 44
0.9
  1
Metric Units
 40
0.145
 41
2.784
  0
MTEXT
  5
259
100
AcDbEntity
  8
0
100
AcDbMText
 62
2
  6
CONTINUOUS
  7
STANDARD
 71
2
 72
1
 10
1.5275
 20
-0.4065
 30
0.0
 11
1.0
 21
0.0
 31
0.0
 44
0.9
  1
Cavity
 40
0.125
 41
1.2
  0
MTEXT
  5
25A
100
AcDbEntity
  8
0
100
AcDbMText
 62
2
  6
CONTINUOUS
  7
STANDARD
 71
2
 72
1
 10
6.055
 20
-0.4065
 30
0.0
 11
1.0
 21
0.0
 31
0.0
 44
0.9
  1
T-17A
 40
0.125
 41
1.0
  0
MTEXT
  5
25B
100
AcDbEntity
  8
0
100
AcDbMText
 62
2
  6
CONTINUOUS
  7
STANDARD
 71
2
 72
1
 10
1.5275
 20
-0.6565
 30
0.0
 11
1.0
 21
0.0
 31
0.0
 44
0.9
  1
Body Features
 40
0.125
 41
2.6
  0
MTEXT
  5
25C
100
AcDbEntity
  8
0
100
AcDbMText
 62
2
  6
CONTINUOUS
  7
STANDARD
 71
2
 72
1
 10
6.055
 20
-0.6565
 30
0.0
 11
1.0
 21
0.0
 31
0.0
 44
0.9
  1
Ninety degree with reverse flow check - sequence
 40
0.125
 41
9.6
  0
MTEXT
  5
25D
100
AcDbEntity
  8
0
100
AcDbMText
 62
2
  6
CONTINUOUS
  7
STANDARD
 71
2
 72
1
 10
1.5275
 20
-0.9065
 30
0.0
 11
1.0
 21
0.0
 31
0.0
 44
0.9
  1
Body Type
 40
0.125
 41
1.8
  0
MTEXT
  5
25E
100
AcDbEntity
  8
0
100
AcDbMText
 62
2
  6
CONTINUOUS
  7
STANDARD
 71
2
 72
1
 10
6.055
 20
-0.9065
 30
0.0
 11
1.0
 21
0.0
 31
0.0
 44
0.9
  1
Line mount
 40
0.125
 41
2.0
  0
MTEXT
  5
25F
100
AcDbEntity
  8
0
100
AcDbMText
 62
2
  6
CONTINUOUS
  7
STANDARD
 71
2
 72
1
 10
1.5275
 20
-1.1565
 30
0.0
 11
1.0
 21
0.0
 31
0.0
 44
0.9
  1
Interface
 40
0.125
 41
1.8
  0
MTEXT
  5
260
100
AcDbEntity
  8
0
100
AcDbMText
 62
2
  6
CONTINUOUS
  7
STANDARD
 71
2
 72
1
 10
6.055
 20
-1.1565
 30
0.0
 11
1.0
 21
0.0
 31
0.0
 44
0.9
  1
None
 40
0.125
 41
0.8
  0
MTEXT
  5
261
100
AcDbEntity
  8
0
100
AcDbMText
 62
2
  6
CONTINUOUS
  7
STANDARD
 71
2
 72
1
 10
1.5275
 20
-1.4065
 30
0.0
 11
1.0
 21
0.0
 31
0.0
 44
0.9
  1
Open Cavity Quantity
 40
0.125
 41
4.0
  0
MTEXT
  5
262
100
AcDbEntity
  8
0
100
AcDbMText
 62
2
  6
CONTINUOUS
  7
STANDARD
 71
2
 72
1
 10
6.055
 20
-1.4065
 30
0.0
 11
1.0
 21
0.0
 31
0.0
 44
0.9
  1
1
 40
0.125
 41
0.2
  0
MTEXT
  5
263
100
AcDbEntity
  8
0
100
AcDbMText
 62
2
  6
CONTINUOUS
  7
STANDARD
 71
2
 72
1
 10
1.5275
 20
-1.6565
 30
0.0
 11
1.0
 21
0.0
 31
0.0
 44
0.9
  1
Weight
 40
0.125
 41
1.2
  0
MTEXT
  5
264
100
AcDbEntity
  8
0
100
AcDbMText
 62
2
  6
CONTINUOUS
  7
STANDARD
 71
2
 72
1
 10
4.555
 20
-1.6565
 30
0.0
 11
1.0
 21
0.0
 31
0.0
 44
0.9
  1
5.821 lb.
 40
0.125
 41
1.8
  0
MTEXT
  5
265
100
AcDbEntity
  8
0
100
AcDbMText
 62
2
  6
CONTINUOUS
  7
STANDARD
 71
2
 72
1
 10
7.555
 20
-1.6565
 30
0.0
 11
1.0
 21
0.0
 31
0.0
 44
0.9
  1
2,640 kg.
 40
0.125
 41
1.8
  0
MTEXT
  5
266
100
AcDbEntity
  8
0
100
AcDbMText
 62
2
  6
CONTINUOUS
  7
STANDARD
 71
2
 72
1
 10
1.5275
 20
-1.9065
 30
0.0
 11
1.0
 21
0.0
 31
0.0
 44
0.9
  1
Mounting Hole Diameter
 40
0.125
 41
4.4
  0
MTEXT
  5
267
100
AcDbEntity
  8
0
100
AcDbMText
 62
2
  6
CONTINUOUS
  7
STANDARD
 71
2
 72
1
 10
4.555
 20
-1.9065
 30
0.0
 11
1.0
 21
0.0
 31
0.0
 44
0.9
  1
.41 in.
 40
0.125
 41
1.4
  0
MTEXT
  5
268
100
AcDbEntity
  8
0
100
AcDbMText
 62
2
  6
CONTINUOUS
  7
STANDARD
 71
2
 72
1
 10
7.555
 20
-1.9065
 30
0.0
 11
1.0
 21
0.0
 31
0.0
 44
0.9
  1
10,4 mm
 40
0.125
 41
1.4
  0
MTEXT
  5
269
100
AcDbEntity
  8
0
100
AcDbMText
 62
2
  6
CONTINUOUS
  7
STANDARD
 71
2
 72
1
 10
1.5275
 20
-2.1565
 30
0.0
 11
1.0
 21
0.0
 31
0.0
 44
0.9
  1
Mounting Hole Depth
 40
0.125
 41
3.8
  0
MTEXT
  5
26A
100
AcDbEntity
  8
0
100
AcDbMText
 62
2
  6
CONTINUOUS
  7
STANDARD
 71
2
 72
1
 10
6.055
 20
-2.1565
 30
0.0
 11
1.0
 21
0.0
 31
0.0
 44
0.9
  1
Through
 40
0.125
 41
1.4
  0
MTEXT
  5
26B
100
AcDbEntity
  8
0
100
AcDbMText
 62
2
  6
CONTINUOUS
  7
STANDARD
 71
2
 72
1
 10
1.5275
 20
-2.4065
 30
0.0
 11
1.0
 21
0.0
 31
0.0
 44
0.9
  1
Mounting Hole Quantity
 40
0.125
 41
4.4
  0
MTEXT
  5
26C
100
AcDbEntity
  8
0
100
AcDbMText
 62
2
  6
CONTINUOUS
  7
STANDARD
 71
2
 72
1
 10
6.055
 20
-2.4065
 30
0.0
 11
1.0
 21
0.0
 31
0.0
 44
0.9
  1
2
 40
0.125
 41
0.2
  0
ENDBLK
  5
26D
100
AcDbEntity
  8
0
  6
BYBLOCK
 62
0
100
AcDbBlockEnd
  0
BLOCK
  5
26E
100
AcDbEntity
  8
0
100
AcDbBlockBegin
  2
*T3
 70
1
 10
0.0
 20
0.0
  3
*T3
  1

  0
LINE
  5
26F
100
AcDbEntity
  8
0
100
AcDbLine
 62
2
  6
CONTINUOUS
 10
0.0
 20
0.0
 11
4.6
 21
0.0
  0
LINE
  5
270
100
AcDbEntity
  8
0
100
AcDbLine
 62
2
  6
CONTINUOUS
 10
0.0
 20
0.0
 11
0.0
 21
-1.43775
  0
LINE
  5
271
100
AcDbEntity
  8
0
100
AcDbLine
 62
2
  6
CONTINUOUS
 10
0.0
 20
-0.34375
 11
4.6
 21
-0.34375
  0
LINE
  5
272
100
AcDbEntity
  8
0
100
AcDbLine
 62
2
  6
CONTINUOUS
 10
0.0
 20
-0.68775
 11
4.6
 21
-0.68775
  0
LINE
  5
273
100
AcDbEntity
  8
0
100
AcDbLine
 62
2
  6
CONTINUOUS
 10
0.0
 20
-0.93775
 11
4.6
 21
-0.93775
  0
LINE
  5
274
100
AcDbEntity
  8
0
100
AcDbLine
 62
2
  6
CONTINUOUS
 10
0.0
 20
-1.18775
 11
4.6
 21
-1.18775
  0
LINE
  5
275
100
AcDbEntity
  8
0
100
AcDbLine
 62
2
  6
CONTINUOUS
 10
0.0
 20
-1.43775
 11
4.6
 21
-1.43775
  0
LINE
  5
276
100
AcDbEntity
  8
0
100
AcDbLine
 62
2
  6
CONTINUOUS
 10
1.3
 20
-0.34375
 11
1.3
 21
-1.43775
  0
LINE
  5
277
100
AcDbEntity
  8
0
100
AcDbLine
 62
2
  6
CONTINUOUS
 10
3.3
 20
-0.34375
 11
3.3
 21
-1.43775
  0
LINE
  5
278
100
AcDbEntity
  8
0
100
AcDbLine
 62
2
  6
CONTINUOUS
 10
4.6
 20
0.0
 11
4.6
 21
-1.43775
  0
MTEXT
  5
279
100
AcDbEntity
  8
0
100
AcDbMText
 62
2
  6
CONTINUOUS
  7
STANDARD
 71
2
 72
1
 10
2.3
 20
-0.099375
 30
0.0
 11
1.0
 21
0.0
 31
0.0
 44
0.9
  1
Port Headings
 40
0.145
 41
3.016
  0
MTEXT
  5
27A
100
AcDbEntity
  8
0
100
AcDbMText
 62
2
  6
CONTINUOUS
  7
STANDARD
 71
2
 72
1
 10
0.65
 20
-0.44325
 30
0.0
 11
1.0
 21
0.0
 31
0.0
 44
0.9
  1
Product
 40
0.145
 41
1.624
  0
MTEXT
  5
27B
100
AcDbEntity
  8
0
100
AcDbMText
 62
2
  6
CONTINUOUS
  7
STANDARD
 71
2
 72
1
 10
2.3
 20
-0.44325
 30
0.0
 11
1.0
 21
0.0
 31
0.0
 44
0.9
  1
Port
 40
0.145
 41
0.928
  0
MTEXT
  5
27C
100
AcDbEntity
  8
0
100
AcDbMText
 62
2
  6
CONTINUOUS
  7
STANDARD
 71
2
 72
1
 10
3.95
 20
-0.44325
 30
0.0
 11
1.0
 21
0.0
 31
0.0
 44
0.9
  1
Size
 40
0.145
 41
0.928
  0
MTEXT
  5
27D
100
AcDbEntity
  8
0
100
AcDbMText
 62
2
  6
CONTINUOUS
  7
STANDARD
 71
2
 72
1
 10
0.65
 20
-0.75025
 30
0.0
 11
1.0
 21
0.0
 31
0.0
 44
0.9
  1
H6N
 40
0.125
 41
0.6
  0
MTEXT
  5
27E
100
AcDbEntity
  8
0
100
AcDbMText
 62
2
  6
CONTINUOUS
  7
STANDARD
 71
2
 72
1
 10
2.3
 20
-0.75025
 30
0.0
 11
1.0
 21
0.0
 31
0.0
 44
0.9
  1
Ports 1 &  2
 40
0.125
 41
2.4
  0
MTEXT
  5
27F
100
AcDbEntity
  8
0
100
AcDbMText
 62
2
  6
CONTINUOUS
  7
STANDARD
 71
2
 72
1
 10
3.95
 20
-0.75025
 30
0.0
 11
1.0
 21
0.0
 31
0.0
 44
0.9
  1
SAE 20
 40
0.125
 41
1.2
  0
MTEXT
  5
280
100
AcDbEntity
  8
0
100
AcDbMText
 62
2
  6
CONTINUOUS
  7
STANDARD
 71
2
 72
1
 10
0.65
 20
-1.00025
 30
0.0
 11
1.0
 21
0.0
 31
0.0
 44
0.9
  1
H6N
 40
0.125
 41
0.6
  0
MTEXT
  5
281
100
AcDbEntity
  8
0
100
AcDbMText
 62
2
  6
CONTINUOUS
  7
STANDARD
 71
2
 72
1
 10
2.3
 20
-1.00025
 30
0.0
 11
1.0
 21
0.0
 31
0.0
 44
0.9
  1
Port 3
 40
0.125
 41
1.2
  0
MTEXT
  5
282
100
AcDbEntity
  8
0
100
AcDbMText
 62
2
  6
CONTINUOUS
  7
STANDARD
 71
2
 72
1
 10
3.95
 20
-1.00025
 30
0.0
 11
1.0
 21
0.0
 31
0.0
 44
0.9
  1
SAE 6
 40
0.125
 41
1.0
  0
MTEXT
  5
283
100
AcDbEntity
  8
0
100
AcDbMText
 62
2
  6
CONTINUOUS
  7
STANDARD
 71
2
 72
1
 10
0.65
 20
-1.25025
 30
0.0
 11
1.0
 21
0.0
 31
0.0
 44
0.9
  1
H6N
 40
0.125
 41
0.6
  0
MTEXT
  5
284
100
AcDbEntity
  8
0
100
AcDbMText
 62
2
  6
CONTINUOUS
  7
STANDARD
 71
2
 72
1
 10
2.3
 20
-1.25025
 30
0.0
 11
1.0
 21
0.0
 31
0.0
 44
0.9
  1
Gage Port
 40
0.125
 41
1.8
  0
MTEXT
  5
285
100
AcDbEntity
  8
0
100
AcDbMText
 62
2
  6
CONTINUOUS
  7
STANDARD
 71
2
 72
1
 10
3.95
 20
-1.25025
 30
0.0
 11
1.0
 21
0.0
 31
0.0
 44
0.9
  1
1/4" NPTF
 40
0.125
 41
1.8
  0
ENDBLK
  5
286
100
AcDbEntity
  8
0
  6
BYBLOCK
 62
0
100
AcDbBlockEnd
  0
ENDSEC
  0
SECTION
  2
ENTITIES
  0
IMAGE
  5
287
100
AcDbEntity
  8
0
100
AcDbRasterImage
 62
7
  6
CONTINUOUS
 10
19.2297077316
 20
0.3094318264
 30
0.0
 11
0.0066666667
 21
0.0
 31
0.0
 12
0.0
 22
0.0066666667
 32
0.0
 13
369.0
 23
92.0
340
       3AC
 70
9
280
0
281
50
282
50
283
0
360
       3A6
 71
1
 91
2
 14
-0.5
 24
-0.5
 14
368.5
 24
91.5
  0
INSERT
  5
288
100
AcDbEntity
  8
0
100
AcDbBlockReference
 62
2
  6
CONTINUOUS
  2
SUN_FIRST_THIRD_ANGLE_BL0
 10
20.4816717061
 20
1.2289683772
  0
ACAD_TABLE
  5
289
100
AcDbEntity
  8
0
 62
2
  6
CONTINUOUS
100
AcDbBlockReference
  2
*T1
 10
12.42375
 20
0.30125
 30
0.0
100
AcDbTable
342
       3AE
343
207
 11
1.0
 21
0.0
 31
0.0
 90
6
 91
4
 92
6
 93
20
 94
0
 95
0
 96
0
 70
1
 41
0.0
141
0.525
141
0.1
141
0.525
141
0.1
142
4.1
142
1.1
142
0.7
142
0.5
142
0.4
142
2.475
171
1
172
0
173
0
174
0
175
1
176
1
 91
33
178
0
145
0.0
301
CELL_VALUE
 90
4
  1
T-17A Line mount\P(See Technical Data for Body Features)
304
ACVALUE_END
170
2
140
0.125
171
1
172
0
173
0
174
0
175
1
176
1
 91
33
178
0
145
0.0
301
CELL_VALUE
 90
4
  1
Apr-22-20
304
ACVALUE_END
170
5
140
0.125
171
1
172
0
173
0
174
0
175
1
176
1
 91
33
178
0
145
0.0
301
CELL_VALUE
 90
4
  1
1.000
304
ACVALUE_END
170
5
140
0.125
171
1
172
0
173
0
174
0
175
1
176
1
 91
33
178
0
145
0.0
301
CELL_VALUE
 90
4
  1
C
304
ACVALUE_END
170
5
140
0.125
171
1
172
0
173
0
174
0
175
1
176
1
 91
33
178
0
145
0.0
301
CELL_VALUE
 90
4
  1
2
304
ACVALUE_END
170
5
140
0.125
171
1
172
0
173
0
174
0
175
1
176
1
 91
33
178
0
145
0.0
301
CELL_VALUE
 90
4
  1
 
304
ACVALUE_END
170
1
140
0.125
171
1
172
0
173
0
174
0
175
1
176
1
 91
33
178
0
145
0.0
301
CELL_VALUE
 90
4
  1
DESCRIPTION
304
ACVALUE_END
170
1
140
0.06
171
1
172
0
173
0
174
0
175
1
176
1
 91
33
178
0
145
0.0
301
CELL_VALUE
 90
4
  1
DATE
304
ACVALUE_END
170
1
140
0.06
171
1
172
0
173
0
174
0
175
1
176
1
 91
33
178
0
145
0.0
301
CELL_VALUE
 90
4
  1
SCALE
304
ACVALUE_END
170
1
140
0.06
171
1
172
0
173
0
174
0
175
1
176
1
 91
33
178
0
145
0.0
301
CELL_VALUE
 90
4
  1
DWG SIZE
304
ACVALUE_END
170
1
140
0.06
171
1
172
0
173
0
174
0
175
1
176
1
 91
33
178
0
145
0.0
301
CELL_VALUE
 90
4
  1
SHEET
304
ACVALUE_END
170
1
140
0.06
171
1
172
0
173
0
174
0
175
1
176
1
 91
33
178
0
145
0.0
301
CELL_VALUE
 90
4
  1
 
304
ACVALUE_END
170
1
140
0.125
171
1
172
0
173
0
174
0
175
1
176
1
 91
33
178
0
145
0.0
301
CELL_VALUE
 90
4
  1
H6N
304
ACVALUE_END
170
5
140
0.125
171
1
172
0
173
0
174
0
175
4
176
1
 91
33
178
0
145
0.0
301
CELL_VALUE
 90
4
  1
ALL DIMENSIONS IN INCH\PVIEWS ARE THIRD ANGLE
304
ACVALUE_END
170
5
140
0.12
171
1
172
0
173
1
174
0
175
1
176
1
 91
1
178
0
145
0.0
170
1
171
1
172
0
173
1
174
0
175
1
176
1
 91
1
178
0
145
0.0
170
1
171
1
172
0
173
1
174
0
175
1
176
1
 91
1
178
0
145
0.0
170
5
171
1
172
0
173
0
174
0
175
1
176
1
 91
33
178
0
145
0.0
301
CELL_VALUE
 90
4
  1
 
304
ACVALUE_END
170
1
140
0.125
171
1
172
0
173
0
174
0
175
1
176
1
 91
33
178
0
145
0.0
301
CELL_VALUE
 90
4
  1
MODEL
304
ACVALUE_END
170
1
140
0.06
171
1
172
0
173
0
174
0
175
1
176
1
 91
33
178
0
145
0.0
301
CELL_VALUE
 90
4
  1
 
304
ACVALUE_END
170
1
140
0.125
171
1
172
0
173
0
174
0
175
1
176
1
 91
33
178
0
145
0.0
301
CELL_VALUE
 90
4
  1
 
304
ACVALUE_END
170
1
140
0.125
171
1
172
0
173
0
174
0
175
1
176
1
 91
33
178
0
145
0.0
301
CELL_VALUE
 90
4
  1
 
304
ACVALUE_END
170
1
140
0.125
171
1
172
0
173
0
174
0
175
1
176
1
 91
33
178
0
145
0.0
301
CELL_VALUE
 90
4
  1
 
304
ACVALUE_END
170
1
140
0.125
171
1
172
0
173
0
174
0
175
1
176
1
 91
33
178
0
145
0.0
301
CELL_VALUE
 90
4
  1
 
304
ACVALUE_END
170
1
140
0.125
  0
ACAD_TABLE
  5
28A
100
AcDbEntity
  8
0
 62
2
  6
CONTINUOUS
100
AcDbBlockReference
  2
*T2
 10
12.4237499994
 20
16.47875
 30
0.0
100
AcDbTable
342
       3AD
343
208
 11
1.0
 21
0.0
 31
0.0
 90
22
 91
10
 92
3
 93
16
 94
0
 95
0
 96
0
 41
0.028
141
0.344
141
0.25
141
0.25
141
0.25
141
0.25
141
0.25
141
0.25
141
0.25
141
0.25
141
0.25
142
3.055
142
3.0
142
3.0
171
1
172
0
173
0
174
0
175
1
176
1
 91
33
178
0
145
0.0
301
CELL_VALUE
 90
4
  1
Technical Data
304
ACVALUE_END
170
5
140
0.145
171
1
172
0
173
0
174
0
175
1
176
1
 91
33
178
0
145
0.0
301
CELL_VALUE
 90
4
  1
U.S. Units
304
ACVALUE_END
170
5
140
0.145
171
1
172
0
173
0
174
0
175
1
176
1
 91
33
178
0
145
0.0
301
CELL_VALUE
 90
4
  1
Metric Units
304
ACVALUE_END
170
5
140
0.145
171
1
172
0
173
0
174
0
175
1
176
1
 91
33
178
0
145
0.0
301
CELL_VALUE
 90
4
  1
Cavity
304
ACVALUE_END
170
5
140
0.125
171
1
172
0
173
0
174
0
175
2
176
1
 91
33
178
0
145
0.0
301
CELL_VALUE
 90
4
  1
T-17A
304
ACVALUE_END
170
5
140
0.125
171
1
172
0
173
1
174
0
175
1
176
1
 91
1
178
0
145
0.0
170
1
171
1
172
0
173
0
174
0
175
1
176
1
 91
33
178
0
145
0.0
301
CELL_VALUE
 90
4
  1
Body Features
304
ACVALUE_END
170
5
140
0.125
171
1
172
0
173
0
174
0
175
2
176
1
 91
33
178
0
145
0.0
301
CELL_VALUE
 90
4
  1
Ninety degree with reverse flow check - sequence
304
ACVALUE_END
170
5
140
0.125
171
1
172
0
173
1
174
0
175
1
176
1
 91
1
178
0
145
0.0
170
1
171
1
172
0
173
0
174
0
175
1
176
1
 91
33
178
0
145
0.0
301
CELL_VALUE
 90
4
  1
Body Type
304
ACVALUE_END
170
5
140
0.125
171
1
172
0
173
0
174
0
175
2
176
1
 91
33
178
0
145
0.0
301
CELL_VALUE
 90
4
  1
Line mount
304
ACVALUE_END
170
5
140
0.125
171
1
172
0
173
1
174
0
175
1
176
1
 91
1
178
0
145
0.0
170
1
171
1
172
0
173
0
174
0
175
1
176
1
 91
33
178
0
145
0.0
301
CELL_VALUE
 90
4
  1
Interface
304
ACVALUE_END
170
5
140
0.125
171
1
172
0
173
0
174
0
175
2
176
1
 91
33
178
0
145
0.0
301
CELL_VALUE
 90
4
  1
None
304
ACVALUE_END
170
5
140
0.125
171
1
172
0
173
1
174
0
175
1
176
1
 91
1
178
0
145
0.0
170
1
171
1
172
0
173
0
174
0
175
1
176
1
 91
33
178
0
145
0.0
301
CELL_VALUE
 90
4
  1
Open Cavity Quantity
304
ACVALUE_END
170
5
140
0.125
171
1
172
0
173
0
174
0
175
2
176
1
 91
33
178
0
145
0.0
301
CELL_VALUE
 90
4
  1
1
304
ACVALUE_END
170
5
140
0.125
171
1
172
0
173
1
174
0
175
1
176
1
 91
1
178
0
145
0.0
170
1
171
1
172
0
173
0
174
0
175
1
176
1
 91
33
178
0
145
0.0
301
CELL_VALUE
 90
4
  1
Weight
304
ACVALUE_END
170
5
140
0.125
171
1
172
0
173
0
174
0
175
1
176
1
 91
33
178
0
145
0.0
301
CELL_VALUE
 90
4
  1
5.821 lb.
304
ACVALUE_END
170
5
140
0.125
171
1
172
0
173
0
174
0
175
1
176
1
 91
33
178
0
145
0.0
301
CELL_VALUE
 90
4
  1
2,640 kg.
304
ACVALUE_END
170
5
140
0.125
171
1
172
0
173
0
174
0
175
1
176
1
 91
33
178
0
145
0.0
301
CELL_VALUE
 90
4
  1
Mounting Hole Diameter
304
ACVALUE_END
170
5
140
0.125
171
1
172
0
173
0
174
0
175
1
176
1
 91
33
178
0
145
0.0
301
CELL_VALUE
 90
4
  1
.41 in.
304
ACVALUE_END
170
5
140
0.125
171
1
172
0
173
0
174
0
175
1
176
1
 91
33
178
0
145
0.0
301
CELL_VALUE
 90
4
  1
10,4 mm
304
ACVALUE_END
170
5
140
0.125
171
1
172
0
173
0
174
0
175
1
176
1
 91
33
178
0
145
0.0
301
CELL_VALUE
 90
4
  1
Mounting Hole Depth
304
ACVALUE_END
170
5
140
0.125
171
1
172
0
173
0
174
0
175
2
176
1
 91
33
178
0
145
0.0
301
CELL_VALUE
 90
4
  1
Through
304
ACVALUE_END
170
5
140
0.125
171
1
172
0
173
1
174
0
175
1
176
1
 91
1
178
0
145
0.0
170
1
171
1
172
0
173
0
174
0
175
1
176
1
 91
33
178
0
145
0.0
301
CELL_VALUE
 90
4
  1
Mounting Hole Quantity
304
ACVALUE_END
170
5
140
0.125
171
1
172
0
173
0
174
0
175
2
176
1
 91
33
178
0
145
0.0
301
CELL_VALUE
 90
4
  1
2
304
ACVALUE_END
170
5
140
0.125
171
1
172
0
173
1
174
0
175
1
176
1
 91
1
178
0
145
0.0
170
1
  0
ACAD_TABLE
  5
28B
100
AcDbEntity
  8
0
 62
2
  6
CONTINUOUS
100
AcDbBlockReference
  2
*T3
 10
0.52125
 20
1.959
 30
0.0
100
AcDbTable
342
       3AD
343
209
 11
1.0
 21
0.0
 31
0.0
 90
22
 91
5
 92
3
 93
16
 94
0
 95
0
 96
0
 41
0.05
141
0.34375
141
0.344
141
0.25
141
0.25
141
0.25
142
1.3
142
2.0
142
1.3
171
1
172
0
173
0
174
0
175
3
176
1
 91
33
178
0
145
0.0
301
CELL_VALUE
 90
4
  1
Port Headings
304
ACVALUE_END
170
5
140
0.145
171
1
172
0
173
1
174
0
175
1
176
1
 91
1
178
0
145
0.0
170
1
171
1
172
0
173
1
174
0
175
1
176
1
 91
1
178
0
145
0.0
170
1
171
1
172
0
173
0
174
0
175
1
176
1
 91
33
178
0
145
0.0
301
CELL_VALUE
 90
4
  1
Product
304
ACVALUE_END
170
5
140
0.145
171
1
172
0
173
0
174
0
175
1
176
1
 91
33
178
0
145
0.0
301
CELL_VALUE
 90
4
  1
Port
304
ACVALUE_END
170
5
140
0.145
171
1
172
0
173
0
174
0
175
1
176
1
 91
33
178
0
145
0.0
301
CELL_VALUE
 90
4
  1
Size
304
ACVALUE_END
170
5
140
0.145
171
1
172
0
173
0
174
0
175
1
176
1
 91
33
178
0
145
0.0
301
CELL_VALUE
 90
4
  1
H6N
304
ACVALUE_END
170
5
140
0.125
171
1
172
0
173
0
174
0
175
1
176
1
 91
33
178
0
145
0.0
301
CELL_VALUE
 90
4
  1
Ports 1 &  2
304
ACVALUE_END
170
5
140
0.125
171
1
172
0
173
0
174
0
175
1
176
1
 91
33
178
0
145
0.0
301
CELL_VALUE
 90
4
  1
SAE 20
304
ACVALUE_END
170
5
140
0.125
171
1
172
0
173
0
174
0
175
1
176
1
 91
33
178
0
145
0.0
301
CELL_VALUE
 90
4
  1
H6N
304
ACVALUE_END
170
5
140
0.125
171
1
172
0
173
0
174
0
175
1
176
1
 91
33
178
0
145
0.0
301
CELL_VALUE
 90
4
  1
Port 3
304
ACVALUE_END
170
5
140
0.125
171
1
172
0
173
0
174
0
175
1
176
1
 91
33
178
0
145
0.0
301
CELL_VALUE
 90
4
  1
SAE 6
304
ACVALUE_END
170
5
140
0.125
171
1
172
0
173
0
174
0
175
1
176
1
 91
33
178
0
145
0.0
301
CELL_VALUE
 90
4
  1
H6N
304
ACVALUE_END
170
5
140
0.125
171
1
172
0
173
0
174
0
175
1
176
1
 91
33
178
0
145
0.0
301
CELL_VALUE
 90
4
  1
Gage Port
304
ACVALUE_END
170
5
140
0.125
171
1
172
0
173
0
174
0
175
1
176
1
 91
33
178
0
145
0.0
301
CELL_VALUE
 90
4
  1
1/4" NPTF
304
ACVALUE_END
170
5
140
0.125
  0
MTEXT
  5
28C
100
AcDbEntity
  8
0
100
AcDbMText
 62
2
  6
CONTINUOUS
  7
STANDARD
 71
1
 72
1
 10
0.52125
 20
5.75995
 30
0.0
 11
1.0
 21
0.0
 31
0.0
 44
0.6
  3
Notes\P \P1. Important: Carefully consider\P   the maximum system pressure. The\P   pressure rating of the manifold is\P   dependent on the manifold material,\P   with the port type/size a secondary\P   consideration. Manifolds\P   constructed of alu
  1
minum are not\P   rated for pressures higher than\P   3000 psi (210 bar), regardless of\P   the port type/size specified.
 40
0.1
 41
3.04
  0
LINE
  5
28D
100
AcDbEntity
  8
0
100
AcDbLine
 62
7
  6
CONTINUOUS
 10
0.30125
 20
0.30125
 11
0.30125
 21
16.69875
  0
LINE
  5
28E
100
AcDbEntity
  8
0
100
AcDbLine
 62
7
  6
CONTINUOUS
 10
0.30125
 20
0.30125
 11
21.69875
 21
0.30125
  0
LINE
  5
28F
100
AcDbEntity
  8
0
100
AcDbLine
 62
7
  6
CONTINUOUS
 10
0.30125
 20
16.69875
 11
21.69875
 21
16.69875
  0
LINE
  5
290
100
AcDbEntity
  8
0
100
AcDbLine
 62
7
  6
CONTINUOUS
 10
21.69875
 20
0.30125
 11
21.69875
 21
16.69875
  0
LINE
  5
291
100
AcDbEntity
  8
0
100
AcDbLine
 62
7
  6
CONTINUOUS
 10
7.6636608247
 20
10.7865297139
 11
8.3107079034
 21
11.4115292352
  0
LINE
  5
292
100
AcDbEntity
  8
0
100
AcDbLine
 62
7
  6
CONTINUOUS
 10
7.6636608247
 20
5.9569002963
 11
7.6636608247
 21
10.7865297139
  0
LINE
  5
293
100
AcDbEntity
  8
0
100
AcDbLine
 62
4
  6
CONTINUOUS
 10
8.3610591192
 20
6.2079725829
 11
8.3707183756
 21
6.2000582673
  0
LINE
  5
294
100
AcDbEntity
  8
0
100
AcDbLine
 62
4
  6
CONTINUOUS
 10
8.419014671
 20
6.2111977957
 11
8.4383331879
 21
6.1953691641
  0
LINE
  5
295
100
AcDbEntity
  8
0
100
AcDbLine
 62
4
  6
CONTINUOUS
 10
8.3417405997
 20
6.158601219
 11
8.3320813434
 21
6.1737599787
  0
LINE
  5
296
100
AcDbEntity
  8
0
100
AcDbLine
 62
4
  6
CONTINUOUS
 10
8.3707183756
 20
6.2000582673
 11
8.3803776388
 21
6.1848995071
  0
LINE
  5
297
100
AcDbEntity
  8
0
100
AcDbLine
 62
4
  6
CONTINUOUS
 10
8.4383331879
 20
6.1953691641
 11
8.4479924468
 21
6.1802104043
  0
LINE
  5
298
100
AcDbEntity
  8
0
100
AcDbLine
 62
4
  6
CONTINUOUS
 10
8.3320813434
 20
6.1737599787
 11
8.3320813434
 21
6.1882488666
  0
LINE
  5
299
100
AcDbEntity
  8
0
100
AcDbLine
 62
4
  6
CONTINUOUS
 10
8.3803776388
 20
6.1704106192
 11
8.3803776388
 21
6.1848995071
  0
LINE
  5
29A
100
AcDbEntity
  8
0
100
AcDbLine
 62
7
  6
CONTINUOUS
 10
12.9762531841
 20
5.5884707648
 11
7.6636608247
 21
5.9569002963
  0
LINE
  5
29B
100
AcDbEntity
  8
0
100
AcDbLine
 62
4
  6
CONTINUOUS
 10
8.4479924468
 20
6.1802104043
 11
8.4479924468
 21
6.1657215164
  0
LINE
  5
29C
100
AcDbEntity
  8
0
100
AcDbLine
 62
4
  6
CONTINUOUS
 10
9.61000148
 20
10.4008927569
 11
9.6196607433
 21
10.4074673287
  0
LINE
  5
29D
100
AcDbEntity
  8
0
100
AcDbLine
 62
4
  6
CONTINUOUS
 10
8.3513998629
 20
6.2086424546
 11
8.3610591192
 21
6.2079725829
  0
LINE
  5
29E
100
AcDbEntity
  8
0
100
AcDbLine
 62
4
  6
CONTINUOUS
 10
11.5321939908
 20
5.9880536326
 11
11.6481050942
 21
5.9800151703
  0
LINE
  5
29F
100
AcDbEntity
  8
0
100
AcDbLine
 62
4
  6
CONTINUOUS
 10
8.4093554112
 20
6.2118676677
 11
8.419014671
 21
6.2111977957
  0
LINE
  5
2A0
100
AcDbEntity
  8
0
100
AcDbLine
 62
4
  6
CONTINUOUS
 10
9.6003422237
 20
10.3870737407
 11
9.61000148
 21
10.4008927569
  0
LINE
  5
2A1
100
AcDbEntity
  8
0
100
AcDbLine
 62
4
  6
CONTINUOUS
 10
9.3126342972
 20
7.7150599412
 11
9.2960755691
 21
7.7327670227
  0
LINE
  5
2A2
100
AcDbEntity
  8
0
100
AcDbLine
 62
4
  6
CONTINUOUS
 10
9.2960755691
 20
7.7327670227
 11
9.2960755691
 21
7.7658844806
  0
LINE
  5
2A3
100
AcDbEntity
  8
0
100
AcDbLine
 62
4
  6
CONTINUOUS
 10
9.2960755691
 20
8.6324579545
 11
9.2960755691
 21
8.6352177321
  0
LINE
  5
2A4
100
AcDbEntity
  8
0
100
AcDbLine
 62
4
  6
CONTINUOUS
 10
9.3291930253
 20
8.4314565418
 11
9.3291930253
 21
8.3900597113
  0
LINE
  5
2A5
100
AcDbEntity
  8
0
100
AcDbLine
 62
4
  6
CONTINUOUS
 10
9.3291930253
 20
8.078203621
 11
9.3291930253
 21
8.1196004515
  0
LINE
  5
2A6
100
AcDbEntity
  8
0
100
AcDbLine
 62
4
  6
CONTINUOUS
 10
9.3291930253
 20
8.2493104985
 11
9.3291930253
 21
8.2824279408
  0
LINE
  5
2A7
100
AcDbEntity
  8
0
100
AcDbLine
 62
4
  6
CONTINUOUS
 10
9.3291930253
 20
8.3155454384
 11
9.3291930253
 21
8.3486628807
  0
LINE
  5
2A8
100
AcDbEntity
  8
0
100
AcDbLine
 62
4
  6
CONTINUOUS
 10
9.3291930253
 20
8.6825971922
 11
9.3291930253
 21
8.7157147451
  0
LINE
  5
2A9
100
AcDbEntity
  8
0
100
AcDbLine
 62
4
  6
CONTINUOUS
 10
9.3291930253
 20
8.7571115204
 11
9.3291930253
 21
8.7902289627
  0
LINE
  5
2AA
100
AcDbEntity
  8
0
100
AcDbLine
 62
4
  6
CONTINUOUS
 10
9.3705898489
 20
8.403747553
 11
9.3705898489
 21
8.4368649953
  0
LINE
  5
2AB
100
AcDbEntity
  8
0
100
AcDbLine
 62
4
  6
CONTINUOUS
 10
9.4119866726
 20
8.7099729862
 11
9.4119866726
 21
8.6768554333
  0
LINE
  5
2AC
100
AcDbEntity
  8
0
100
AcDbLine
 62
4
  6
CONTINUOUS
 10
9.4119866726
 20
8.5747433286
 11
9.4119866726
 21
8.5581846075
  0
LINE
  5
2AD
100
AcDbEntity
  8
0
100
AcDbLine
 62
4
  6
CONTINUOUS
 10
9.4119866726
 20
8.4339941158
 11
9.4119866726
 21
8.4008766735
  0
LINE
  5
2AE
100
AcDbEntity
  8
0
100
AcDbLine
 62
4
  6
CONTINUOUS
 10
9.4119866726
 20
8.2766861818
 11
9.4119866726
 21
8.2435687395
  0
LINE
  5
2AF
100
AcDbEntity
  8
0
100
AcDbLine
 62
4
  6
CONTINUOUS
 10
9.4119866726
 20
7.7164491955
 11
9.4119866726
 21
7.7495666542
  0
LINE
  5
2B0
100
AcDbEntity
  8
0
100
AcDbLine
 62
4
  6
CONTINUOUS
 10
9.4119866726
 20
7.8158015665
 11
9.4119866726
 21
7.840639669
  0
LINE
  5
2B1
100
AcDbEntity
  8
0
100
AcDbLine
 62
4
  6
CONTINUOUS
 10
9.4119866726
 20
8.4753909464
 11
9.4119866726
 21
8.5167877769
  0
LINE
  5
2B2
100
AcDbEntity
  8
0
100
AcDbLine
 62
4
  6
CONTINUOUS
 10
9.4119866726
 20
8.7513697614
 11
9.4119866726
 21
8.7844872038
  0
LINE
  5
2B3
100
AcDbEntity
  8
0
100
AcDbLine
 62
4
  6
CONTINUOUS
 10
9.4395845544
 20
8.1533416035
 11
9.4395845544
 21
8.1699003247
  0
LINE
  5
2B4
100
AcDbEntity
  8
0
100
AcDbLine
 62
4
  6
CONTINUOUS
 10
9.3733496369
 20
8.7871666913
 11
9.3678300609
 21
8.7544320329
  0
LINE
  5
2B5
100
AcDbEntity
  8
0
100
AcDbLine
 62
4
  6
CONTINUOUS
 10
9.378869213
 20
8.7950632403
 11
9.3733496369
 21
8.7871666913
  0
LINE
  5
2B6
100
AcDbEntity
  8
0
100
AcDbLine
 62
4
  6
CONTINUOUS
 10
9.3678300609
 20
8.7544320329
 11
9.3623104849
 21
8.7465354838
  0
LINE
  5
2B7
100
AcDbEntity
  8
0
100
AcDbLine
 62
4
  6
CONTINUOUS
 10
9.4119866726
 20
7.7495666542
 11
9.3954279428
 21
7.7672737341
  0
LINE
  5
2B8
100
AcDbEntity
  8
0
100
AcDbLine
 62
4
  6
CONTINUOUS
 10
9.4119866726
 20
7.840639669
 11
9.3954279428
 21
7.858346742
  0
LINE
  5
2B9
100
AcDbEntity
  8
0
100
AcDbLine
 62
4
  6
CONTINUOUS
 10
9.3374723928
 20
8.2321776012
 11
9.3291930253
 21
8.2493104985
  0
LINE
  5
2BA
100
AcDbEntity
  8
0
100
AcDbLine
 62
4
  6
CONTINUOUS
 10
9.378869213
 20
8.386614656
 11
9.3705898489
 21
8.403747553
  0
LINE
  5
2BB
100
AcDbEntity
  8
0
100
AcDbLine
 62
4
  6
CONTINUOUS
 10
9.6003422237
 20
10.3725848527
 11
9.6003422237
 21
10.3870737407
  0
LINE
  5
2BC
100
AcDbEntity
  8
0
100
AcDbLine
 62
4
  6
CONTINUOUS
 10
9.6818939533
 20
8.2441691281
 11
9.6818939533
 21
8.2082918736
  0
LINE
  5
2BD
100
AcDbEntity
  8
0
100
AcDbLine
 62
4
  6
CONTINUOUS
 10
9.6818939533
 20
8.1116992897
 11
9.6818939533
 21
8.1696548414
  0
LINE
  5
2BE
100
AcDbEntity
  8
0
100
AcDbLine
 62
4
  6
CONTINUOUS
 10
9.7162533272
 20
10.3428130585
 11
9.7162533272
 21
10.4007686102
  0
LINE
  5
2BF
100
AcDbEntity
  8
0
100
AcDbLine
 62
4
  6
CONTINUOUS
 10
9.7481288725
 20
8.2147376184
 11
9.7481288725
 21
8.2395757208
  0
LINE
  5
2C0
100
AcDbEntity
  8
0
100
AcDbLine
 62
4
  6
CONTINUOUS
 10
9.4119866726
 20
8.4008766735
 11
9.4037073077
 21
8.3848921282
  0
LINE
  5
2C1
100
AcDbEntity
  8
0
100
AcDbLine
 62
4
  6
CONTINUOUS
 10
9.4119866726
 20
8.2435687395
 11
9.4037073077
 21
8.2275841943
  0
LINE
  5
2C2
100
AcDbEntity
  8
0
100
AcDbLine
 62
4
  6
CONTINUOUS
 10
9.3291930253
 20
8.7902289627
 11
9.3374723928
 21
8.7979341196
  0
LINE
  5
2C3
100
AcDbEntity
  8
0
100
AcDbLine
 62
4
  6
CONTINUOUS
 10
9.4037073077
 20
8.7436646044
 11
9.4119866726
 21
8.7513697614
  0
LINE
  5
2C4
100
AcDbEntity
  8
0
100
AcDbLine
 62
4
  6
CONTINUOUS
 10
9.4119866726
 20
8.6768554333
 11
9.4037073077
 21
8.6691502763
  0
LINE
  5
2C5
100
AcDbEntity
  8
0
100
AcDbLine
 62
4
  6
CONTINUOUS
 10
9.9865745703
 20
7.8532278377
 11
10.0031333001
 21
7.8355207578
  0
LINE
  5
2C6
100
AcDbEntity
  8
0
100
AcDbLine
 62
4
  6
CONTINUOUS
 10
9.6322177691
 20
8.2476141832
 11
9.6570558646
 21
8.2210535529
  0
LINE
  5
2C7
100
AcDbEntity
  8
0
100
AcDbLine
 62
4
  6
CONTINUOUS
 10
9.9313788048
 20
7.7770218246
 11
9.9534571124
 21
7.7313340772
  0
LINE
  5
2C8
100
AcDbEntity
  8
0
100
AcDbLine
 62
4
  6
CONTINUOUS
 10
9.8872221966
 20
7.8021624034
 11
9.8872221966
 21
7.8435592201
  0
LINE
  5
2C9
100
AcDbEntity
  8
0
100
AcDbLine
 62
4
  6
CONTINUOUS
 10
9.8872221966
 20
8.0063867163
 11
9.8872221966
 21
8.0726216286
  0
LINE
  5
2CA
100
AcDbEntity
  8
0
100
AcDbLine
 62
4
  6
CONTINUOUS
 10
9.8872221966
 20
8.1057390986
 11
9.8872221966
 21
8.1554152897
  0
LINE
  5
2CB
100
AcDbEntity
  8
0
100
AcDbLine
 62
4
  6
CONTINUOUS
 10
9.8872221966
 20
8.2961645025
 11
9.8872221966
 21
8.3292819448
  0
LINE
  5
2CC
100
AcDbEntity
  8
0
100
AcDbLine
 62
4
  6
CONTINUOUS
 10
9.8872221966
 20
8.3927570519
 11
9.8872221966
 21
8.4175951612
  0
LINE
  5
2CD
100
AcDbEntity
  8
0
100
AcDbLine
 62
4
  6
CONTINUOUS
 10
9.8872221966
 20
8.4672713247
 11
9.8872221966
 21
8.5086681553
  0
LINE
  5
2CE
100
AcDbEntity
  8
0
100
AcDbLine
 62
4
  6
CONTINUOUS
 10
9.8872221966
 20
8.5721433176
 11
9.8872221966
 21
8.6218194811
  0
LINE
  5
2CF
100
AcDbEntity
  8
0
100
AcDbLine
 62
4
  6
CONTINUOUS
 10
9.9368983809
 20
8.6018157048
 11
9.9368983809
 21
8.5686982625
  0
LINE
  5
2D0
100
AcDbEntity
  8
0
100
AcDbLine
 62
4
  6
CONTINUOUS
 10
9.9368983809
 20
8.1354115135
 11
9.9368983809
 21
8.1022940435
  0
LINE
  5
2D1
100
AcDbEntity
  8
0
100
AcDbLine
 62
4
  6
CONTINUOUS
 10
9.9700158405
 20
7.9123317412
 11
9.9700158405
 21
7.9564883494
  0
LINE
  5
2D2
100
AcDbEntity
  8
0
100
AcDbLine
 62
4
  6
CONTINUOUS
 10
10.0031333001
 20
8.500629693
 11
10.0031333001
 21
8.4592328624
  0
LINE
  5
2D3
100
AcDbEntity
  8
0
100
AcDbLine
 62
4
  6
CONTINUOUS
 10
10.0031333001
 20
8.4095566989
 11
10.0031333001
 21
8.3847185895
  0
LINE
  5
2D4
100
AcDbEntity
  8
0
100
AcDbLine
 62
4
  6
CONTINUOUS
 10
10.0031333001
 20
8.3212434825
 11
10.0031333001
 21
8.2881260402
  0
LINE
  5
2D5
100
AcDbEntity
  8
0
100
AcDbLine
 62
4
  6
CONTINUOUS
 10
10.0031333001
 20
7.8355207578
 11
10.0031333001
 21
7.7941239411
  0
LINE
  5
2D6
100
AcDbEntity
  8
0
100
AcDbLine
 62
4
  6
CONTINUOUS
 10
10.0031333001
 20
8.0977006362
 11
10.0031333001
 21
8.1473768274
  0
LINE
  5
2D7
100
AcDbEntity
  8
0
100
AcDbLine
 62
4
  6
CONTINUOUS
 10
10.0031333001
 20
8.5641048553
 11
10.0031333001
 21
8.6137810187
  0
LINE
  5
2D8
100
AcDbEntity
  8
0
100
AcDbLine
 62
4
  6
CONTINUOUS
 10
9.9313788048
 20
8.6518746522
 11
9.9534571124
 21
8.6945001246
  0
LINE
  5
2D9
100
AcDbEntity
  8
0
100
AcDbLine
 62
4
  6
CONTINUOUS
 10
8.3320813434
 20
6.1882488666
 11
8.3417405997
 21
6.2020678828
  0
LINE
  5
2DA
100
AcDbEntity
  8
0
100
AcDbLine
 62
4
  6
CONTINUOUS
 10
9.4119866726
 20
8.5581846075
 11
9.4037073077
 21
8.5504793952
  0
LINE
  5
2DB
100
AcDbEntity
  8
0
100
AcDbLine
 62
4
  6
CONTINUOUS
 10
9.4037073077
 20
8.4676857341
 11
9.4119866726
 21
8.4753909464
  0
LINE
  5
2DC
100
AcDbEntity
  8
0
100
AcDbLine
 62
4
  6
CONTINUOUS
 10
9.3291930253
 20
8.1196004515
 11
9.3374723928
 21
8.127305636
  0
LINE
  5
2DD
100
AcDbEntity
  8
0
100
AcDbLine
 62
4
  6
CONTINUOUS
 10
11.679980614
 20
7.4812683317
 11
11.6510028381
 21
7.4760335033
  0
LINE
  5
2DE
100
AcDbEntity
  8
0
100
AcDbLine
 62
4
  6
CONTINUOUS
 10
11.6510028381
 20
7.5484779429
 11
11.6896398721
 21
7.5457984555
  0
LINE
  5
2DF
100
AcDbEntity
  8
0
100
AcDbLine
 62
4
  6
CONTINUOUS
 10
9.3291930253
 20
7.7139115895
 11
9.3126342972
 21
7.7150599412
  0
LINE
  5
2E0
100
AcDbEntity
  8
0
100
AcDbLine
 62
4
  6
CONTINUOUS
 10
10.0031333001
 20
7.8989958855
 11
9.8872221966
 21
7.940151804
  0
LINE
  5
2E1
100
AcDbEntity
  8
0
100
AcDbLine
 62
4
  6
CONTINUOUS
 10
9.4395845544
 20
8.1699003247
 11
9.3291930253
 21
8.2106734456
  0
LINE
  5
2E2
100
AcDbEntity
  8
0
100
AcDbLine
 62
4
  6
CONTINUOUS
 10
9.6570558646
 20
8.2210535529
 11
9.6901733208
 21
8.2021981215
  0
LINE
  5
2E3
100
AcDbEntity
  8
0
100
AcDbLine
 62
4
  6
CONTINUOUS
 10
9.3374723928
 20
8.6737436832
 11
9.3291930253
 21
8.6825971922
  0
LINE
  5
2E4
100
AcDbEntity
  8
0
100
AcDbLine
 62
4
  6
CONTINUOUS
 10
9.7481288725
 20
8.2395757208
 11
9.7315701427
 21
8.2572827938
  0
LINE
  5
2E5
100
AcDbEntity
  8
0
100
AcDbLine
 62
4
  6
CONTINUOUS
 10
9.3374723928
 20
8.7482580114
 11
9.3291930253
 21
8.7571115204
  0
LINE
  5
2E6
100
AcDbEntity
  8
0
100
AcDbLine
 62
4
  6
CONTINUOUS
 10
9.4119866726
 20
8.7844872038
 11
9.4037073077
 21
8.7933407126
  0
LINE
  5
2E7
100
AcDbEntity
  8
0
100
AcDbLine
 62
4
  6
CONTINUOUS
 10
9.9037809247
 20
8.2784574297
 11
9.8872221966
 21
8.2961645025
  0
LINE
  5
2E8
100
AcDbEntity
  8
0
100
AcDbLine
 62
4
  6
CONTINUOUS
 10
9.9037809247
 20
8.375049979
 11
9.8872221966
 21
8.3927570519
  0
LINE
  5
2E9
100
AcDbEntity
  8
0
100
AcDbLine
 62
4
  6
CONTINUOUS
 10
9.9534571124
 20
8.6945001246
 11
9.9755354182
 21
8.6488123807
  0
LINE
  5
2EA
100
AcDbEntity
  8
0
100
AcDbLine
 62
4
  6
CONTINUOUS
 10
9.9534571124
 20
7.7313340772
 11
9.9755354182
 21
7.7739595531
  0
LINE
  5
2EB
100
AcDbEntity
  8
0
100
AcDbLine
 62
4
  6
CONTINUOUS
 10
8.3803776388
 20
6.1848995071
 11
8.3900368951
 21
6.1987185234
  0
LINE
  5
2EC
100
AcDbEntity
  8
0
100
AcDbLine
 62
4
  6
CONTINUOUS
 10
8.4479924468
 20
6.1657215164
 11
8.4383331879
 21
6.1519025003
  0
LINE
  5
2ED
100
AcDbEntity
  8
0
100
AcDbLine
 62
4
  6
CONTINUOUS
 10
9.378869213
 20
7.7684220859
 11
9.3291930253
 21
7.7139115895
  0
LINE
  5
2EE
100
AcDbEntity
  8
0
100
AcDbLine
 62
4
  6
CONTINUOUS
 10
9.8872221966
 20
8.5086681553
 11
9.9037809247
 21
8.5240785248
  0
LINE
  5
2EF
100
AcDbEntity
  8
0
100
AcDbLine
 62
4
  6
CONTINUOUS
 10
9.6984526848
 20
8.2595794973
 11
9.6818939533
 21
8.2441691281
  0
LINE
  5
2F0
100
AcDbEntity
  8
0
100
AcDbLine
 62
4
  6
CONTINUOUS
 10
9.8872221966
 20
8.4175951612
 11
9.9037809247
 21
8.4330055307
  0
LINE
  5
2F1
100
AcDbEntity
  8
0
100
AcDbLine
 62
4
  6
CONTINUOUS
 10
9.7315701427
 20
8.1993272421
 11
9.7481288725
 21
8.2147376184
  0
LINE
  5
2F2
100
AcDbEntity
  8
0
100
AcDbLine
 62
4
  6
CONTINUOUS
 10
9.2960755691
 20
7.7658844806
 11
9.3043549366
 21
7.7735896685
  0
LINE
  5
2F3
100
AcDbEntity
  8
0
100
AcDbLine
 62
4
  6
CONTINUOUS
 10
10.0031333001
 20
8.3847185895
 11
9.9865745703
 21
8.3693082202
  0
LINE
  5
2F4
100
AcDbEntity
  8
0
100
AcDbLine
 62
4
  6
CONTINUOUS
 10
9.3954279428
 20
7.8003911902
 11
9.4119866726
 21
7.8158015665
  0
LINE
  5
2F5
100
AcDbEntity
  8
0
100
AcDbLine
 62
4
  6
CONTINUOUS
 10
9.3291930253
 20
8.3486628807
 11
9.3374723928
 21
8.3536082599
  0
LINE
  5
2F6
100
AcDbEntity
  8
0
100
AcDbLine
 62
4
  6
CONTINUOUS
 10
9.3457517534
 20
8.4385875231
 11
9.3291930253
 21
8.4314565418
  0
LINE
  5
2F7
100
AcDbEntity
  8
0
100
AcDbLine
 62
4
  6
CONTINUOUS
 10
9.3954279428
 20
7.7672737341
 11
9.378869213
 21
7.7684220859
  0
LINE
  5
2F8
100
AcDbEntity
  8
0
100
AcDbLine
 62
4
  6
CONTINUOUS
 10
9.2960755691
 20
7.8072813007
 11
9.3954279428
 21
7.8003911902
  0
LINE
  5
2F9
100
AcDbEntity
  8
0
100
AcDbLine
 62
4
  6
CONTINUOUS
 10
10.0031333001
 20
7.7941239411
 11
9.8872221966
 21
7.8021624034
  0
LINE
  5
2FA
100
AcDbEntity
  8
0
100
AcDbLine
 62
4
  6
CONTINUOUS
 10
9.3954279428
 20
7.858346742
 11
9.2960755691
 21
7.8652368525
  0
LINE
  5
2FB
100
AcDbEntity
  8
0
100
AcDbLine
 62
4
  6
CONTINUOUS
 10
9.4119866726
 20
7.8903158463
 11
9.2960755691
 21
7.8983543086
  0
LINE
  5
2FC
100
AcDbEntity
  8
0
100
AcDbLine
 62
4
  6
CONTINUOUS
 10
9.9037809247
 20
7.8589695965
 11
9.9865745703
 21
7.8532278377
  0
LINE
  5
2FD
100
AcDbEntity
  8
0
100
AcDbLine
 62
4
  6
CONTINUOUS
 10
9.4119866726
 20
7.948271398
 11
9.2960755691
 21
7.9563098603
  0
LINE
  5
2FE
100
AcDbEntity
  8
0
100
AcDbLine
 62
4
  6
CONTINUOUS
 10
11.6510028381
 20
7.4760335033
 11
11.6220250623
 21
7.4852875628
  0
LINE
  5
2FF
100
AcDbEntity
  8
0
100
AcDbLine
 62
4
  6
CONTINUOUS
 10
9.9865745703
 20
8.4272637719
 11
10.0031333001
 21
8.4095566989
  0
LINE
  5
300
100
AcDbEntity
  8
0
100
AcDbLine
 62
4
  6
CONTINUOUS
 10
9.9865745703
 20
8.5183367659
 11
10.0031333001
 21
8.500629693
  0
LINE
  5
301
100
AcDbEntity
  8
0
100
AcDbLine
 62
4
  6
CONTINUOUS
 10
10.0031333001
 20
8.2881260402
 11
9.9865745703
 21
8.2727156708
  0
LINE
  5
302
100
AcDbEntity
  8
0
100
AcDbLine
 62
4
  6
CONTINUOUS
 10
9.4037073077
 20
7.7087440065
 11
9.4119866726
 21
7.7164491955
  0
LINE
  5
303
100
AcDbEntity
  8
0
100
AcDbLine
 62
4
  6
CONTINUOUS
 10
9.8872221966
 20
7.8435592201
 11
9.9037809247
 21
7.8589695965
  0
LINE
  5
304
100
AcDbEntity
  8
0
100
AcDbLine
 62
4
  6
CONTINUOUS
 10
9.6322177691
 20
8.2972903605
 11
9.7481288725
 21
8.3472074499
  0
LINE
  5
305
100
AcDbEntity
  8
0
100
AcDbLine
 62
4
  6
CONTINUOUS
 10
9.8872221966
 20
7.940151804
 11
10.0031333001
 21
7.9652308116
  0
LINE
  5
306
100
AcDbEntity
  8
0
100
AcDbLine
 62
4
  6
CONTINUOUS
 10
9.4119866726
 20
8.072461862
 11
9.2960755691
 21
8.0805003243
  0
LINE
  5
307
100
AcDbEntity
  8
0
100
AcDbLine
 62
4
  6
CONTINUOUS
 10
10.0031333001
 20
8.0314657239
 11
9.8872221966
 21
8.0395041863
  0
LINE
  5
308
100
AcDbEntity
  8
0
100
AcDbLine
 62
4
  6
CONTINUOUS
 10
9.3374723928
 20
8.127305636
 11
9.4119866726
 21
8.1221380532
  0
LINE
  5
309
100
AcDbEntity
  8
0
100
AcDbLine
 62
4
  6
CONTINUOUS
 10
9.7481288725
 20
8.1071058824
 11
9.6322177691
 21
8.1151443448
  0
LINE
  5
30A
100
AcDbEntity
  8
0
100
AcDbLine
 62
4
  6
CONTINUOUS
 10
10.0031333001
 20
8.0977006362
 11
9.8872221966
 21
8.1057390986
  0
LINE
  5
30B
100
AcDbEntity
  8
0
100
AcDbLine
 62
4
  6
CONTINUOUS
 10
9.6322177691
 20
8.1730998965
 11
9.7481288725
 21
8.1650614341
  0
LINE
  5
30C
100
AcDbEntity
  8
0
100
AcDbLine
 62
4
  6
CONTINUOUS
 10
9.6901733208
 20
8.2021981215
 11
9.7315701427
 21
8.1993272421
  0
LINE
  5
30D
100
AcDbEntity
  8
0
100
AcDbLine
 62
4
  6
CONTINUOUS
 10
9.4037073077
 20
8.2275841943
 11
9.3374723928
 21
8.2321776012
  0
LINE
  5
30E
100
AcDbEntity
  8
0
100
AcDbLine
 62
4
  6
CONTINUOUS
 10
9.2960755691
 20
8.2847246442
 11
9.4119866726
 21
8.2766861818
  0
LINE
  5
30F
100
AcDbEntity
  8
0
100
AcDbLine
 62
4
  6
CONTINUOUS
 10
9.7315701427
 20
8.2572827938
 11
9.6984526848
 21
8.2595794973
  0
LINE
  5
310
100
AcDbEntity
  8
0
100
AcDbLine
 62
4
  6
CONTINUOUS
 10
9.4119866726
 20
8.3098036795
 11
9.3291930253
 21
8.3155454384
  0
LINE
  5
311
100
AcDbEntity
  8
0
100
AcDbLine
 62
4
  6
CONTINUOUS
 10
9.7481288725
 20
8.2892518982
 11
9.6322177691
 21
8.2972903605
  0
LINE
  5
312
100
AcDbEntity
  8
0
100
AcDbLine
 62
4
  6
CONTINUOUS
 10
9.9865745703
 20
8.2727156708
 11
9.9037809247
 21
8.2784574297
  0
LINE
  5
313
100
AcDbEntity
  8
0
100
AcDbLine
 62
4
  6
CONTINUOUS
 10
9.3374723928
 20
8.3536082599
 11
9.3540311208
 21
8.3524599082
  0
LINE
  5
314
100
AcDbEntity
  8
0
100
AcDbLine
 62
4
  6
CONTINUOUS
 10
9.2960755691
 20
8.6352177321
 11
9.3043549366
 21
8.6318837784
  0
LINE
  5
315
100
AcDbEntity
  8
0
100
AcDbLine
 62
4
  6
CONTINUOUS
 10
11.6220250623
 20
7.4852875628
 11
11.6027065428
 21
7.5011161946
  0
LINE
  5
316
100
AcDbEntity
  8
0
100
AcDbLine
 62
4
  6
CONTINUOUS
 10
11.6896398721
 20
7.5457984555
 11
11.699299131
 21
7.5378841397
  0
LINE
  5
317
100
AcDbEntity
  8
0
100
AcDbLine
 62
7
  6
CONTINUOUS
 10
12.9762531841
 20
10.4181001824
 11
13.6233002628
 21
11.0430997037
  0
LINE
  5
318
100
AcDbEntity
  8
0
100
AcDbLine
 62
4
  6
CONTINUOUS
 10
9.2960755691
 20
7.8983543086
 11
9.4119866726
 21
7.948271398
  0
LINE
  5
319
100
AcDbEntity
  8
0
100
AcDbLine
 62
4
  6
CONTINUOUS
 10
9.7481288725
 20
8.3472074499
 11
9.6322177691
 21
8.3552459122
  0
LINE
  5
31A
100
AcDbEntity
  8
0
100
AcDbLine
 62
4
  6
CONTINUOUS
 10
9.4037073077
 20
8.3848921282
 11
9.378869213
 21
8.386614656
  0
LINE
  5
31B
100
AcDbEntity
  8
0
100
AcDbLine
 62
4
  6
CONTINUOUS
 10
9.9865745703
 20
8.3693082202
 11
9.9037809247
 21
8.375049979
  0
LINE
  5
31C
100
AcDbEntity
  8
0
100
AcDbLine
 62
4
  6
CONTINUOUS
 10
9.4119866726
 20
8.4339941158
 11
9.3457517534
 21
8.4385875231
  0
LINE
  5
31D
100
AcDbEntity
  8
0
100
AcDbLine
 62
4
  6
CONTINUOUS
 10
9.3291930253
 20
8.4728533171
 11
9.4037073077
 21
8.4676857341
  0
LINE
  5
31E
100
AcDbEntity
  8
0
100
AcDbLine
 62
4
  6
CONTINUOUS
 10
9.9037809247
 20
8.4330055307
 11
9.9865745703
 21
8.4272637719
  0
LINE
  5
31F
100
AcDbEntity
  8
0
100
AcDbLine
 62
4
  6
CONTINUOUS
 10
10.0031333001
 20
8.4592328624
 11
9.8872221966
 21
8.4672713247
  0
LINE
  5
320
100
AcDbEntity
  8
0
100
AcDbLine
 62
4
  6
CONTINUOUS
 10
9.4119866726
 20
8.5167877769
 11
9.3291930253
 21
8.5225295359
  0
LINE
  5
321
100
AcDbEntity
  8
0
100
AcDbLine
 62
4
  6
CONTINUOUS
 10
9.4037073077
 20
8.5504793952
 11
9.2960755691
 21
8.5579436816
  0
LINE
  5
322
100
AcDbEntity
  8
0
100
AcDbLine
 62
4
  6
CONTINUOUS
 10
9.9037809247
 20
8.5240785248
 11
9.9865745703
 21
8.5183367659
  0
LINE
  5
323
100
AcDbEntity
  8
0
100
AcDbLine
 62
4
  6
CONTINUOUS
 10
10.0031333001
 20
8.5641048553
 11
9.8872221966
 21
8.5721433176
  0
LINE
  5
324
100
AcDbEntity
  8
0
100
AcDbLine
 62
4
  6
CONTINUOUS
 10
9.4119866726
 20
8.6244194921
 11
9.3291930253
 21
8.6301612511
  0
LINE
  5
325
100
AcDbEntity
  8
0
100
AcDbLine
 62
4
  6
CONTINUOUS
 10
9.3043549366
 20
8.6318837784
 11
9.2960755691
 21
8.6324579545
  0
LINE
  5
326
100
AcDbEntity
  8
0
100
AcDbLine
 62
4
  6
CONTINUOUS
 10
9.61000148
 20
10.3574260931
 11
9.6003422237
 21
10.3725848527
  0
LINE
  5
327
100
AcDbEntity
  8
0
100
AcDbLine
 62
4
  6
CONTINUOUS
 10
9.6486385191
 20
10.3982132691
 11
9.6679570352
 21
10.3678957496
  0
LINE
  5
328
100
AcDbEntity
  8
0
100
AcDbLine
 62
4
  6
CONTINUOUS
 10
11.6027065428
 20
7.5011161946
 11
11.5930472864
 21
7.5162749543
  0
LINE
  5
329
100
AcDbEntity
  8
0
100
AcDbLine
 62
4
  6
CONTINUOUS
 10
9.3291930253
 20
8.1609972821
 11
9.4119866726
 21
8.1800936325
  0
LINE
  5
32A
100
AcDbEntity
  8
0
100
AcDbLine
 62
4
  6
CONTINUOUS
 10
9.4037073077
 20
8.6691502763
 11
9.3374723928
 21
8.6737436832
  0
LINE
  5
32B
100
AcDbEntity
  8
0
100
AcDbLine
 62
4
  6
CONTINUOUS
 10
9.3623104849
 20
8.7465354838
 11
9.3374723928
 21
8.7482580114
  0
LINE
  5
32C
100
AcDbEntity
  8
0
100
AcDbLine
 62
4
  6
CONTINUOUS
 10
9.4037073077
 20
8.7933407126
 11
9.378869213
 21
8.7950632403
  0
LINE
  5
32D
100
AcDbEntity
  8
0
100
AcDbLine
 62
7
  6
CONTINUOUS
 10
13.2311412708
 20
8.6258395013
 11
13.3627247757
 21
8.6167141542
  0
LINE
  5
32E
100
AcDbEntity
  8
0
100
AcDbLine
 62
4
  6
CONTINUOUS
 10
11.699299131
 20
7.5378841397
 11
11.7089583899
 21
7.5227253799
  0
LINE
  5
32F
100
AcDbEntity
  8
0
100
AcDbLine
 62
4
  6
CONTINUOUS
 10
11.5930472864
 20
7.5162749543
 11
11.5930472864
 21
7.5307638422
  0
LINE
  5
330
100
AcDbEntity
  8
0
100
AcDbLine
 62
4
  6
CONTINUOUS
 10
8.3417405997
 20
6.2020678828
 11
8.3513998629
 21
6.2086424546
  0
LINE
  5
331
100
AcDbEntity
  8
0
100
AcDbLine
 62
4
  6
CONTINUOUS
 10
8.3900368951
 20
6.1987185234
 11
8.4093554112
 21
6.2118676677
  0
LINE
  5
332
100
AcDbEntity
  8
0
100
AcDbLine
 62
4
  6
CONTINUOUS
 10
8.4383331879
 20
6.1519025003
 11
8.428673929
 21
6.1453279282
  0
LINE
  5
333
100
AcDbEntity
  8
0
100
AcDbLine
 62
7
  6
CONTINUOUS
 10
13.3693361147
 20
8.7042240235
 11
14.0396042869
 21
8.6577407679
  0
LINE
  5
334
100
AcDbEntity
  8
0
100
AcDbLine
 62
7
  6
CONTINUOUS
 10
13.3591948156
 20
8.7162797622
 11
14.0294629878
 21
8.6697965066
  0
LINE
  5
335
100
AcDbEntity
  8
0
100
AcDbLine
 62
4
  6
CONTINUOUS
 10
9.6196607433
 20
10.349511777
 11
9.61000148
 21
10.3574260931
  0
LINE
  5
336
100
AcDbEntity
  8
0
100
AcDbLine
 62
4
  6
CONTINUOUS
 10
9.6679570352
 20
10.3678957496
 11
9.6872755513
 21
10.3520671181
  0
LINE
  5
337
100
AcDbEntity
  8
0
100
AcDbLine
 62
4
  6
CONTINUOUS
 10
9.6389792559
 20
10.4061275853
 11
9.6486385191
 21
10.3982132691
  0
LINE
  5
338
100
AcDbEntity
  8
0
100
AcDbLine
 62
4
  6
CONTINUOUS
 10
11.6510028381
 20
7.5195001671
 11
11.6510028381
 21
7.5484779429
  0
LINE
  5
339
100
AcDbEntity
  8
0
100
AcDbLine
 62
4
  6
CONTINUOUS
 10
11.7089583899
 20
7.5227253799
 11
11.7089583899
 21
7.5082364919
  0
LINE
  5
33A
100
AcDbEntity
  8
0
100
AcDbLine
 62
7
  6
CONTINUOUS
 10
13.5426039332
 20
10.0790155986
 11
13.3693361147
 21
9.9116517279
  0
LINE
  5
33B
100
AcDbEntity
  8
0
100
AcDbLine
 62
7
  6
CONTINUOUS
 10
13.2725609063
 20
9.192608715
 11
13.9428290785
 21
9.1461254594
  0
LINE
  5
33C
100
AcDbEntity
  8
0
100
AcDbLine
 62
7
  6
CONTINUOUS
 10
13.2725609063
 20
9.2363116791
 11
13.9428290785
 21
9.1898284234
  0
LINE
  5
33D
100
AcDbEntity
  8
0
100
AcDbLine
 62
4
  6
CONTINUOUS
 10
11.5930472864
 20
7.5307638422
 11
11.6027065428
 21
7.5445828584
  0
LINE
  5
33E
100
AcDbEntity
  8
0
100
AcDbLine
 62
4
  6
CONTINUOUS
 10
11.7089583899
 20
7.5082364919
 11
11.699299131
 21
7.4944174759
  0
LINE
  5
33F
100
AcDbEntity
  8
0
100
AcDbLine
 62
4
  6
CONTINUOUS
 10
11.6027065428
 20
7.5445828584
 11
11.612365806
 21
7.5511574302
  0
LINE
  5
340
100
AcDbEntity
  8
0
100
AcDbLine
 62
4
  6
CONTINUOUS
 10
11.699299131
 20
7.4944174759
 11
11.679980614
 21
7.4812683317
  0
LINE
  5
341
100
AcDbEntity
  8
0
100
AcDbLine
 62
4
  6
CONTINUOUS
 10
9.6872755513
 20
10.3520671181
 11
9.7162533272
 21
10.3428130585
  0
LINE
  5
342
100
AcDbEntity
  8
0
100
AcDbLine
 62
4
  6
CONTINUOUS
 10
13.2649655809
 20
8.3739231149
 11
13.2688478633
 21
8.3776731119
  0
LINE
  5
343
100
AcDbEntity
  8
0
100
AcDbLine
 62
4
  6
CONTINUOUS
 10
13.3212586755
 20
8.3703425203
 11
13.336787805
 21
8.3853425085
  0
LINE
  5
344
100
AcDbEntity
  8
0
100
AcDbLine
 62
4
  6
CONTINUOUS
 10
13.3542580758
 20
8.3828989791
 11
13.3659049229
 21
8.3941489702
  0
LINE
  5
345
100
AcDbEntity
  8
0
100
AcDbLine
 62
4
  6
CONTINUOUS
 10
13.2688478633
 20
8.2617620085
 11
13.2649655809
 21
8.2580120115
  0
LINE
  5
346
100
AcDbEntity
  8
0
100
AcDbLine
 62
7
  6
CONTINUOUS
 10
13.3591948156
 20
9.8800045025
 11
14.0294629878
 21
9.8335212469
  0
LINE
  5
347
100
AcDbEntity
  8
0
100
AcDbLine
 62
7
  6
CONTINUOUS
 10
13.3693361147
 20
9.9116517279
 11
14.0396042869
 21
9.8651684723
  0
LINE
  5
348
100
AcDbEntity
  8
0
100
AcDbLine
 62
7
  6
CONTINUOUS
 10
13.5426039332
 20
10.0790155986
 11
14.2128721054
 21
10.0325323429
  0
LINE
  5
349
100
AcDbEntity
  8
0
100
AcDbLine
 62
4
  6
CONTINUOUS
 10
9.6196607433
 20
10.4074673287
 11
9.6389792559
 21
10.4061275853
  0
LINE
  5
34A
100
AcDbEntity
  8
0
100
AcDbLine
 62
4
  6
CONTINUOUS
 10
13.2649655809
 20
8.2580120115
 11
13.2610832985
 21
8.2639212733
  0
LINE
  5
34B
100
AcDbEntity
  8
0
100
AcDbLine
 62
7
  6
CONTINUOUS
 10
12.9762531841
 20
10.4181001824
 11
12.9762531841
 21
5.5884707648
  0
LINE
  5
34C
100
AcDbEntity
  8
0
100
AcDbLine
 62
7
  6
CONTINUOUS
 10
13.4553599906
 20
8.6927813994
 11
13.4584633108
 21
8.6980430315
  0
LINE
  5
34D
100
AcDbEntity
  8
0
100
AcDbLine
 62
7
  6
CONTINUOUS
 10
13.3390055897
 20
10.1811035588
 11
13.470582735
 21
10.1719786528
  0
LINE
  5
34E
100
AcDbEntity
  8
0
100
AcDbLine
 62
7
  6
CONTINUOUS
 10
7.6636608247
 20
10.7865297139
 11
12.9762531841
 21
10.4181001824
  0
LINE
  5
34F
100
AcDbEntity
  8
0
100
AcDbLine
 62
4
  6
CONTINUOUS
 10
13.2688478633
 20
8.3776731119
 11
13.2727301457
 21
8.3717638527
  0
LINE
  5
350
100
AcDbEntity
  8
0
100
AcDbLine
 62
4
  6
CONTINUOUS
 10
13.3600814994
 20
8.4657980425
 11
13.3697872053
 21
8.3592619316
  0
LINE
  5
351
100
AcDbEntity
  8
0
100
AcDbLine
 62
4
  6
CONTINUOUS
 10
13.2572010161
 20
8.2794897932
 11
13.2552598749
 21
8.3065925706
  0
LINE
  5
352
100
AcDbEntity
  8
0
100
AcDbLine
 62
4
  6
CONTINUOUS
 10
13.3212586755
 20
8.428298072
 11
13.3212586755
 21
8.3123869686
  0
LINE
  5
353
100
AcDbEntity
  8
0
100
AcDbLine
 62
4
  6
CONTINUOUS
 10
13.336787805
 20
8.4432980602
 11
13.336787805
 21
8.3273869568
  0
LINE
  5
354
100
AcDbEntity
  8
0
100
AcDbLine
 62
4
  6
CONTINUOUS
 10
13.2552598749
 20
8.3065925706
 11
13.2572010161
 21
8.3374453449
  0
LINE
  5
355
100
AcDbEntity
  8
0
100
AcDbLine
 62
4
  6
CONTINUOUS
 10
13.3503757934
 20
8.3405119464
 11
13.3600814994
 21
8.4657980425
  0
LINE
  5
356
100
AcDbEntity
  8
0
100
AcDbLine
 62
4
  6
CONTINUOUS
 10
13.2902004164
 20
8.2823869922
 11
13.305729546
 21
8.4132980838
  0
LINE
  5
357
100
AcDbEntity
  8
0
100
AcDbLine
 62
7
  6
CONTINUOUS
 10
13.3591948156
 20
9.8800045025
 11
13.2725609063
 21
9.2363116791
  0
LINE
  5
358
100
AcDbEntity
  8
0
100
AcDbLine
 62
4
  6
CONTINUOUS
 10
13.2572010161
 20
8.3374453449
 11
13.2610832985
 21
8.3605138615
  0
LINE
  5
359
100
AcDbEntity
  8
0
100
AcDbLine
 62
4
  6
CONTINUOUS
 10
13.2746712869
 20
8.2867055219
 11
13.2727301457
 21
8.2751712645
  0
LINE
  5
35A
100
AcDbEntity
  8
0
100
AcDbLine
 62
4
  6
CONTINUOUS
 10
13.2610832985
 20
8.3605138615
 11
13.2649655809
 21
8.3739231149
  0
LINE
  5
35B
100
AcDbEntity
  8
0
100
AcDbLine
 62
4
  6
CONTINUOUS
 10
13.2727301457
 20
8.2751712645
 11
13.2688478633
 21
8.2617620085
  0
LINE
  5
35C
100
AcDbEntity
  8
0
100
AcDbLine
 62
4
  6
CONTINUOUS
 10
13.2610832985
 20
8.2639212733
 11
13.2572010161
 21
8.2794897932
  0
LINE
  5
35D
100
AcDbEntity
  8
0
100
AcDbLine
 62
4
  6
CONTINUOUS
 10
13.2727301457
 20
8.3717638527
 11
13.2746712869
 21
8.363979588
  0
LINE
  5
35E
100
AcDbEntity
  8
0
100
AcDbLine
 62
7
  6
CONTINUOUS
 10
13.2725609063
 20
9.192608715
 11
13.3591948156
 21
8.7162797622
  0
LINE
  5
35F
100
AcDbEntity
  8
0
100
AcDbLine
 62
4
  6
CONTINUOUS
 10
13.2902004164
 20
8.3982980957
 11
13.305729546
 21
8.2973869804
  0
LINE
  5
360
100
AcDbEntity
  8
0
100
AcDbLine
 62
7
  6
CONTINUOUS
 10
13.6233002628
 20
11.0430997037
 11
13.6233002628
 21
10.0734192891
  0
LINE
  5
361
100
AcDbEntity
  8
0
100
AcDbLine
 62
7
  6
CONTINUOUS
 10
13.6233002628
 20
8.68661155
 11
13.6233002628
 21
6.2134702861
  0
LINE
  5
362
100
AcDbEntity
  8
0
100
AcDbLine
 62
7
  6
CONTINUOUS
 10
14.1978842807
 20
8.7688072916
 11
14.2066577292
 21
8.7836825401
  0
LINE
  5
363
100
AcDbEntity
  8
0
100
AcDbLine
 62
7
  6
CONTINUOUS
 10
8.3107079034
 20
11.4115292352
 11
13.6233002628
 21
11.0430997037
  0
LINE
  5
364
100
AcDbEntity
  8
0
100
AcDbLine
 62
7
  6
CONTINUOUS
 10
13.5518311019
 20
10.0838525403
 11
13.5541784166
 21
10.0782129054
  0
LINE
  5
365
100
AcDbEntity
  8
0
100
AcDbLine
 62
7
  6
CONTINUOUS
 10
12.9762531841
 20
5.5884707648
 11
13.6233002628
 21
6.2134702861
  0
LINE
  5
366
100
AcDbEntity
  8
0
100
AcDbLine
 62
7
  6
CONTINUOUS
 10
14.2689864542
 20
9.9247186143
 11
14.2833890814
 21
9.8901150063
  0
ARC
  5
367
100
AcDbEntity
  8
0
100
AcDbCircle
 62
7
  6
CONTINUOUS
 10
16.5343005318
 20
9.1678221656
 40
2.591564888
100
AcDbArc
 50
179.5134673813
 51
179.9985734312
  0
ARC
  5
368
100
AcDbEntity
  8
0
100
AcDbCircle
 62
7
  6
CONTINUOUS
 10
15.854002939
 20
9.2143481292
 40
2.5815354666
100
AcDbArc
 50
179.5125250425
 51
179.99951577
  0
ARC
  5
369
100
AcDbEntity
  8
0
100
AcDbCircle
 62
7
  6
CONTINUOUS
 10
16.4715069196
 20
9.1678633908
 40
2.5287712751
100
AcDbArc
 50
179.9994720696
 51
180.492534488
  0
ARC
  5
36A
100
AcDbEntity
  8
0
100
AcDbCircle
 62
7
  6
CONTINUOUS
 10
15.8012387471
 20
9.2143466464
 40
2.5287712748
100
AcDbArc
 50
179.9994720696
 51
180.492534488
  0
ARC
  5
36B
100
AcDbEntity
  8
0
100
AcDbCircle
 62
7
  6
CONTINUOUS
 10
14.4487628434
 20
9.5483027888
 40
1.1389400837
100
AcDbArc
 50
161.3961041614
 51
163.0679604749
  0
ARC
  5
36C
100
AcDbEntity
  8
0
100
AcDbCircle
 62
7
  6
CONTINUOUS
 10
15.0893624761
 20
9.5113267658
 40
1.1077888829
100
AcDbArc
 50
161.3725959887
 51
163.0914686476
  0
ARC
  5
36D
100
AcDbEntity
  8
0
100
AcDbCircle
 62
7
  6
CONTINUOUS
 10
11.2666445332
 20
7.7598379459
 40
0.231473296
100
AcDbArc
 50
266.0260898833
 51
269.8161923506
  0
ARC
  5
36E
100
AcDbEntity
  8
0
100
AcDbCircle
 62
7
  6
CONTINUOUS
 10
9.2829237533
 20
10.7515867377
 40
0.139065391
100
AcDbArc
 50
133.9780441793
 51
136.2646171951
  0
SPLINE
  5
36F
100
AcDbEntity
  8
0
100
AcDbSpline
 62
7
  6
CONTINUOUS
 70
0
 71
3
 72
23
 73
19
 74
0
 42
0.0000001
 43
0.0000001
 44
0.0000000001
 40
0.0
 40
0.0
 40
0.0
 40
0.0
 40
0.0778915856
 40
0.1545454438
 40
0.2297388202
 40
0.3032879841
 40
0.3750174017
 40
0.4447505127
 40
0.512316206
 40
0.5775550501
 40
0.6403154135
 40
0.7004563918
 40
0.75784725
 40
0.8123710763
 40
0.8639245062
 40
0.9124214177
 40
0.9577945528
 40
1.0
 40
1.0
 40
1.0
 40
1.0
 10
14.3363391753
 20
9.4966943554
 30
0.0
 10
14.3363391753
 20
9.5070549475
 30
0.0
 10
14.3361961684
 20
9.5276118137
 30
0.0
 10
14.3355437102
 20
9.5581641386
 30
0.0
 10
14.3344557606
 20
9.5881262125
 30
0.0
 10
14.3329359511
 20
9.6174136723
 30
0.0
 10
14.3309881747
 20
9.645947951
 30
0.0
 10
14.3286182775
 20
9.6736516877
 30
0.0
 10
14.3258322769
 20
9.7004489828
 30
0.0
 10
14.322638433
 20
9.7262666205
 30
0.0
 10
14.3190451759
 20
9.7510343979
 30
0.0
 10
14.3150628881
 20
9.7746849284
 30
0.0
 10
14.3107022315
 20
9.7971539162
 30
0.0
 10
14.3059756504
 20
9.8183804483
 30
0.0
 10
14.3008959586
 20
9.8383070751
 30
0.0
 10
14.2954773591
 20
9.8568804089
 30
0.0
 10
14.2897347321
 20
9.8740500849
 30
0.0
 10
14.2855483838
 20
9.884926811
 30
0.0
 10
14.2833912383
 20
9.8901096951
 30
0.0
  0
SPLINE
  5
370
100
AcDbEntity
  8
0
100
AcDbSpline
 62
7
  6
CONTINUOUS
 70
0
 71
3
 72
9
 73
5
 74
0
 42
0.0000001
 43
0.0000001
 44
0.0000000001
 40
0.0
 40
0.0
 40
0.0
 40
0.0
 40
0.5149357862
 40
1.0
 40
1.0
 40
1.0
 40
1.0
 10
14.2230134046
 20
10.0204766042
 30
0.0
 10
14.2214034563
 20
10.0226510223
 30
0.0
 10
14.2181567544
 20
10.0267865907
 30
0.0
 10
14.2146449347
 20
10.0307013697
 30
0.0
 10
14.2128721054
 20
10.0325323429
 30
0.0
  0
SPLINE
  5
371
100
AcDbEntity
  8
0
100
AcDbSpline
 62
7
  6
CONTINUOUS
 70
0
 71
3
 72
22
 73
18
 74
0
 42
0.0000001
 43
0.0000001
 44
0.0000000001
 40
0.0
 40
0.0
 40
0.0
 40
0.0
 40
0.1581228667
 40
0.2341982852
 40
0.3081049186
 40
0.379717385
 40
0.4489184745
 40
0.5156040998
 40
0.5796927374
 40
0.6411263993
 40
0.6998833948
 40
0.755975683
 40
0.8094620448
 40
0.8604412683
 40
0.9090606462
 40
0.9555055836
 40
1.0
 40
1.0
 40
1.0
 40
1.0
 10
14.0396042869
 20
8.6577407679
 30
0.0
 10
14.049073948
 20
8.6619439542
 30
0.0
 10
14.0630173516
 20
8.6683596313
 30
0.0
 10
14.0811273355
 20
8.6772821336
 30
0.0
 10
14.094023675
 20
8.6839550812
 30
0.0
 10
14.1063736671
 20
8.6906966663
 30
0.0
 10
14.1181424827
 20
8.697507262
 30
0.0
 10
14.129295827
 20
8.7043875018
 30
0.0
 10
14.1398022768
 20
8.7113358782
 30
0.0
 10
14.1496325498
 20
8.7183519408
 30
0.0
 10
14.1587626984
 20
8.7254323366
 30
0.0
 10
14.1671723199
 20
8.7325753051
 30
0.0
 10
14.1748484508
 20
8.7397759503
 30
0.0
 10
14.181782577
 20
8.7470310627
 30
0.0
 10
14.1879746888
 20
8.7543348539
 30
0.0
 10
14.1934290042
 20
8.7616822487
 30
0.0
 10
14.1966456925
 20
8.7667050137
 30
0.0
 10
14.1981257198
 20
8.7692167702
 30
0.0
  0
SPLINE
  5
372
100
AcDbEntity
  8
0
100
AcDbSpline
 62
7
  6
CONTINUOUS
 70
0
 71
3
 72
9
 73
5
 74
0
 42
0.0000001
 43
0.0000001
 44
0.0000000001
 40
0.0
 40
0.0
 40
0.0
 40
0.0
 40
0.4955326499
 40
1.0
 40
1.0
 40
1.0
 40
1.0
 10
14.2691335786
 20
9.9243649126
 30
0.0
 10
14.2623619344
 20
9.9406252882
 30
0.0
 10
14.2477234076
 20
9.973039119
 30
0.0
 10
14.2315104358
 20
10.0046859613
 30
0.0
 10
14.2230134046
 20
10.0204766042
 30
0.0
  0
SPLINE
  5
373
100
AcDbEntity
  8
0
100
AcDbSpline
 62
7
  6
CONTINUOUS
 70
0
 71
3
 72
28
 73
24
 74
0
 42
0.0000001
 43
0.0000001
 44
0.0000000001
 40
0.0
 40
0.0
 40
0.0
 40
0.0
 40
0.0188524871
 40
0.0388801737
 40
0.0600715651
 40
0.0824089768
 40
0.1058699668
 40
0.1304265019
 40
0.1560475994
 40
0.1826975814
 40
0.2103382308
 40
0.2389280827
 40
0.2987741688
 40
0.3618564495
 40
0.4277601831
 40
0.4960432585
 40
0.5662412158
 40
0.6378720029
 40
0.7104405345
 40
0.7834444448
 40
0.8563742018
 40
0.9287292883
 40
1.0
 40
1.0
 40
1.0
 40
1.0
 10
14.2066568259
 20
8.7836811647
 30
0.0
 10
14.2089897665
 20
8.7876366147
 30
0.0
 10
14.2136211629
 20
8.7959010978
 30
0.0
 10
14.2202879329
 20
8.8089298858
 30
0.0
 10
14.2268734713
 20
8.8229437399
 30
0.0
 10
14.2333655624
 20
8.8379168238
 30
0.0
 10
14.239751851
 20
8.8538219496
 30
0.0
 10
14.2460210434
 20
8.8706297966
 30
0.0
 10
14.2521608698
 20
8.8883095833
 30
0.0
 10
14.2581604212
 20
8.9068286307
 30
0.0
 10
14.2640082828
 20
8.9261528582
 30
0.0
 10
14.2717061452
 20
8.9533606863
 30
0.0
 10
14.2808365667
 20
8.989128369
 30
0.0
 10
14.2908662189
 20
9.0340244492
 30
0.0
 10
14.3000538073
 20
9.0811955103
 30
0.0
 10
14.3083306081
 20
9.1302928395
 30
0.0
 10
14.3156346303
 20
9.1809537777
 30
0.0
 10
14.3219113119
 20
9.232803602
 30
0.0
 10
14.3271139666
 20
9.2854588889
 30
0.0
 10
14.3312036918
 20
9.3385295437
 30
0.0
 10
14.3341505912
 20
9.39162393
 30
0.0
 10
14.3359323427
 20
9.4443475552
 30
0.0
 10
14.3363391753
 20
9.4793338577
 30
0.0
 10
14.3363391753
 20
9.4966943554
 30
0.0
  0
SPLINE
  5
374
100
AcDbEntity
  8
0
100
AcDbSpline
 62
7
  6
CONTINUOUS
 70
0
 71
3
 72
23
 73
19
 74
0
 42
0.0000001
 43
0.0000001
 44
0.0000000001
 40
0.0
 40
0.0
 40
0.0
 40
0.0
 40
0.0450326416
 40
0.090627084
 40
0.1373223842
 40
0.1856173007
 40
0.2359593962
 40
0.2887361703
 40
0.344276113
 40
0.402854817
 40
0.4646973153
 40
0.5299824183
 40
0.5988535695
 40
0.671423373
 40
0.747772967
 40
0.8279612293
 40
0.9120297453
 40
1.0
 40
1.0
 40
1.0
 40
1.0
 10
13.4705830605
 20
10.1719785266
 30
0.0
 10
13.472463782
 20
10.1718481419
 30
0.0
 10
13.4762369709
 20
10.1713646024
 30
0.0
 10
13.4818287783
 20
10.1699807165
 30
0.0
 10
13.4873614292
 20
10.1679401848
 30
0.0
 10
13.4928284395
 20
10.1652469966
 30
0.0
 10
13.4982252346
 20
10.1619049677
 30
0.0
 10
13.5035480604
 20
10.157918986
 30
0.0
 10
13.508793656
 20
10.1532936772
 30
0.0
 10
13.5139584053
 20
10.1480331605
 30
0.0
 10
13.5190388353
 20
10.1421420632
 30
0.0
 10
13.5240317851
 20
10.1356256456
 30
0.0
 10
13.5289335606
 20
10.1284890839
 30
0.0
 10
13.5337401852
 20
10.120737941
 30
0.0
 10
13.5384482884
 20
10.1123787565
 30
0.0
 10
13.5430541973
 20
10.1034183108
 30
0.0
 10
13.5475538621
 20
10.0938638239
 30
0.0
 10
13.5504155859
 20
10.0872531859
 30
0.0
 10
13.5518307376
 20
10.0838531699
 30
0.0
  0
SPLINE
  5
375
100
AcDbEntity
  8
0
100
AcDbSpline
 62
7
  6
CONTINUOUS
 70
0
 71
3
 72
23
 73
19
 74
0
 42
0.0000001
 43
0.0000001
 44
0.0000000001
 40
0.0
 40
0.0
 40
0.0
 40
0.0
 40
0.0450328014
 40
0.090626912
 40
0.1373220992
 40
0.1856177797
 40
0.2359593495
 40
0.2887351894
 40
0.3442762352
 40
0.4028552774
 40
0.4646962747
 40
0.5299819163
 40
0.5988545543
 40
0.6714232004
 40
0.7477722896
 40
0.8279625255
 40
0.9120310258
 40
1.0
 40
1.0
 40
1.0
 40
1.0
 10
13.3627244502
 20
8.6167142804
 30
0.0
 10
13.3646051944
 20
8.6165838941
 30
0.0
 10
13.3684090174
 20
8.6165421108
 30
0.0
 10
13.3741384063
 20
8.6171403345
 30
0.0
 10
13.3798998703
 20
8.6183975648
 30
0.0
 10
13.3856862192
 20
8.6203107411
 30
0.0
 10
13.3914927957
 20
8.6228755568
 30
0.0
 10
13.3973150868
 20
8.626088378
 30
0.0
 10
13.4031488034
 20
8.6299456744
 30
0.0
 10
13.40899027
 20
8.6344429626
 30
0.0
 10
13.414835537
 20
8.6395761201
 30
0.0
 10
13.4206801706
 20
8.6453411156
 30
0.0
 10
13.4265200081
 20
8.651732986
 30
0.0
 10
13.432350809
 20
8.6587463173
 30
0.0
 10
13.4381678468
 20
8.666375617
 30
0.0
 10
13.4439663726
 20
8.6746147934
 30
0.0
 10
13.4497419461
 20
8.6834567583
 30
0.0
 10
13.4534889046
 20
8.6896090275
 30
0.0
 10
13.4553598302
 20
8.6927811304
 30
0.0
  0
SPLINE
  5
376
100
AcDbEntity
  8
0
100
AcDbSpline
 62
7
  6
CONTINUOUS
 70
0
 71
3
 72
23
 73
19
 74
0
 42
0.0000001
 43
0.0000001
 44
0.0000000001
 40
0.0
 40
0.0
 40
0.0
 40
0.0
 40
0.0430432041
 40
0.0864276157
 40
0.130656649
 40
0.1763288731
 40
0.2240992276
 40
0.2746265429
 40
0.3285147701
 40
0.3862610475
 40
0.4482190742
 40
0.5145822216
 40
0.585391119
 40
0.6605550141
 40
0.7398801137
 40
0.8231012882
 40
0.9099156628
 40
1.0
 40
1.0
 40
1.0
 40
1.0
 10
14.2128721054
 20
10.0325323429
 30
0.0
 10
14.212933054
 20
10.0288729125
 30
0.0
 10
14.2127123503
 20
10.0215136182
 30
0.0
 10
14.2112406669
 20
10.0104814696
 30
0.0
 10
14.2085157443
 20
9.9994560973
 30
0.0
 10
14.2044310905
 20
9.9884588984
 30
0.0
 10
14.1988933301
 20
9.9775132831
 30
0.0
 10
14.1918296596
 20
9.9666431378
 30
0.0
 10
14.1831914948
 20
9.9558694701
 30
0.0
 10
14.1729568637
 20
9.9452096682
 30
0.0
 10
14.1611321755
 20
9.934677577
 30
0.0
 10
14.1477527168
 20
9.9242830993
 30
0.0
 10
14.1328794571
 20
9.9140332358
 30
0.0
 10
14.1165947194
 20
9.9039320585
 30
0.0
 10
14.0989965741
 20
9.8939806131
 30
0.0
 10
14.0801923608
 20
9.8841768245
 30
0.0
 10
14.0602929153
 20
9.8745166226
 30
0.0
 10
14.046605439
 20
9.8682759907
 30
0.0
 10
14.0396042869
 20
9.8651684723
 30
0.0
  0
SPLINE
  5
377
100
AcDbEntity
  8
0
100
AcDbSpline
 62
7
  6
CONTINUOUS
 70
0
 71
3
 72
21
 73
17
 74
0
 42
0.0000001
 43
0.0000001
 44
0.0000000001
 40
0.0
 40
0.0
 40
0.0
 40
0.0
 40
0.1231153359
 40
0.184837322
 40
0.2466817013
 40
0.3086598058
 40
0.3707815459
 40
0.4330548007
 40
0.4954844141
 40
0.558071395
 40
0.6208128987
 40
0.6837027994
 40
0.7467321283
 40
0.809889664
 40
0.8731630859
 40
1.0
 40
1.0
 40
1.0
 40
1.0
 10
14.0294629878
 20
9.8335212469
 30
0.0
 10
14.0331196
 20
9.8067604918
 30
0.0
 10
14.0376126402
 20
9.7664328878
 30
0.0
 10
14.0411942707
 20
9.7124268611
 30
0.0
 10
14.0425741224
 20
9.6717369449
 30
0.0
 10
14.0425442618
 20
9.63093539
 30
0.0
 10
14.0410186638
 20
9.5900671919
 30
0.0
 10
14.0379321425
 20
9.549187225
 30
0.0
 10
14.0332461026
 20
9.5083565433
 30
0.0
 10
14.0269525616
 20
9.4676387024
 30
0.0
 10
14.0190766368
 20
9.4270947316
 30
0.0
 10
14.0096727157
 20
9.3867787886
 30
0.0
 10
13.9988194713
 20
9.3467351633
 30
0.0
 10
13.986613364
 20
9.306995635
 30
0.0
 10
13.968665924
 20
9.2544045922
 30
0.0
 10
13.9535237321
 20
9.2155170115
 30
0.0
 10
13.9428290785
 20
9.1898284234
 30
0.0
  0
SPLINE
  5
378
100
AcDbEntity
  8
0
100
AcDbSpline
 62
7
  6
CONTINUOUS
 70
0
 71
3
 72
23
 73
19
 74
0
 42
0.0000001
 43
0.0000001
 44
0.0000000001
 40
0.0
 40
0.0
 40
0.0
 40
0.0
 40
0.0681436223
 40
0.1355717925
 40
0.2022246133
 40
0.2680530577
 40
0.3330188589
 40
0.3971018651
 40
0.4603047619
 40
0.5226553367
 40
0.5842062484
 40
0.6450322154
 40
0.7052236803
 40
0.7648789131
 40
0.8240963959
 40
0.8829688942
 40
0.9415804852
 40
1.0
 40
1.0
 40
1.0
 40
1.0
 10
13.9428290785
 20
9.1461254594
 30
0.0
 10
13.9481577748
 20
9.1362227605
 30
0.0
 10
13.958509498
 20
9.1163853867
 30
0.0
 10
13.9730928487
 20
9.0863628772
 30
0.0
 10
13.986545135
 20
9.0562331899
 30
0.0
 10
13.9987548669
 20
9.0260153286
 30
0.0
 10
14.0096144248
 20
8.9957349848
 30
0.0
 10
14.0190269442
 20
8.9654259583
 30
0.0
 10
14.0269131471
 20
8.9351288622
 30
0.0
 10
14.0332176452
 20
8.9048892881
 30
0.0
 10
14.0379141683
 20
8.8747550225
 30
0.0
 10
14.041009627
 20
8.8447726597
 30
0.0
 10
14.042541957
 20
8.8149836798
 30
0.0
 10
14.0425761232
 20
8.7854217275
 30
0.0
 10
14.0411984516
 20
8.7561110664
 30
0.0
 10
14.0385100028
 20
8.7270657331
 30
0.0
 10
14.0346187632
 20
8.6982916271
 30
0.0
 10
14.0312909551
 20
8.6792622772
 30
0.0
 10
14.0294629878
 20
8.6697965066
 30
0.0
  0
SPLINE
  5
379
100
AcDbEntity
  8
0
100
AcDbSpline
 62
7
  6
CONTINUOUS
 70
0
 71
3
 72
21
 73
17
 74
0
 42
0.0000001
 43
0.0000001
 44
0.0000000001
 40
0.0
 40
0.0
 40
0.0
 40
0.0
 40
0.0721750434
 40
0.1408704233
 40
0.2690156223
 40
0.3293895806
 40
0.3879136836
 40
0.4451490293
 40
0.5016982119
 40
0.5581866935
 40
0.6152406903
 40
0.6734670847
 40
0.733434797
 40
0.8604758414
 40
0.9285177531
 40
1.0
 40
1.0
 40
1.0
 40
1.0
 10
13.3693361147
 20
8.7042240235
 30
0.0
 10
13.3707709442
 20
8.7027421356
 30
0.0
 10
13.3736624422
 20
8.6999349234
 30
0.0
 10
13.3795420458
 20
8.6949761343
 30
0.0
 10
13.3856961573
 20
8.6908785183
 30
0.0
 10
13.3920732158
 20
8.687826469
 30
0.0
 10
13.3968143781
 20
8.6861089777
 30
0.0
 10
13.4016030158
 20
8.684921394
 30
0.0
 10
13.4064347195
 20
8.6842659906
 30
0.0
 10
13.4113039677
 20
8.6841435805
 30
0.0
 10
13.4162051879
 20
8.6845537557
 30
0.0
 10
13.4211334824
 20
8.6854958139
 30
0.0
 10
13.4278607069
 20
8.6874959575
 30
0.0
 10
13.4345198459
 20
8.690565836
 30
0.0
 10
13.4410271628
 20
8.6945337695
 30
0.0
 10
13.4442783304
 20
8.696849658
 30
0.0
 10
13.4459041002
 20
8.6980867154
 30
0.0
  0
SPLINE
  5
37A
100
AcDbEntity
  8
0
100
AcDbSpline
 62
7
  6
CONTINUOUS
 70
0
 71
3
 72
37
 73
33
 74
0
 42
0.0000001
 43
0.0000001
 44
0.0000000001
 40
0.0
 40
0.0
 40
0.0
 40
0.0
 40
0.0242160064
 40
0.0471276776
 40
0.0688728694
 40
0.0896181497
 40
0.1095643177
 40
0.1289412712
 40
0.1480010561
 40
0.1670091283
 40
0.1862325832
 40
0.2059292153
 40
0.2263374353
 40
0.2476687588
 40
0.2701059695
 40
0.2938027283
 40
0.3188839929
 40
0.3454511185
 40
0.3735850406
 40
0.4033469108
 40
0.4347832022
 40
0.4679286948
 40
0.5028057521
 40
0.5394275751
 40
0.5778008267
 40
0.6179236654
 40
0.6597872747
 40
0.7033790872
 40
0.7486826578
 40
0.7956778314
 40
0.8946424786
 40
1.0
 40
1.0
 40
1.0
 40
1.0
 10
13.5426039332
 20
10.0790155986
 30
0.0
 10
13.540993916
 20
10.0806784198
 30
0.0
 10
13.5377468144
 20
10.0838075002
 30
0.0
 10
13.5326518178
 20
10.087987609
 30
0.0
 10
13.5274781895
 20
10.0915125193
 30
0.0
 10
13.5222301352
 20
10.0943755897
 30
0.0
 10
13.5169125848
 20
10.0965718422
 30
0.0
 10
13.5115312378
 20
10.0980969547
 30
0.0
 10
13.5060928729
 20
10.0989466244
 30
0.0
 10
13.5006058155
 20
10.0991189383
 30
0.0
 10
13.4950786395
 20
10.0986144788
 30
0.0
 10
13.4895194071
 20
10.0974348421
 30
0.0
 10
13.4839351171
 20
10.0955835675
 30
0.0
 10
13.478331141
 20
10.0930656297
 30
0.0
 10
13.4727122242
 20
10.0898851522
 30
0.0
 10
13.4670828268
 20
10.0860462958
 30
0.0
 10
13.4614467799
 20
10.0815539968
 30
0.0
 10
13.4558083917
 20
10.076412667
 30
0.0
 10
13.450172426
 20
10.0706268852
 30
0.0
 10
13.4445431874
 20
10.0642023702
 30
0.0
 10
13.4389254547
 20
10.0571449762
 30
0.0
 10
13.4333244831
 20
10.0494608572
 30
0.0
 10
13.4277450617
 20
10.0411572092
 30
0.0
 10
13.4221921463
 20
10.0322416935
 30
0.0
 10
13.4166711561
 20
10.0227223189
 30
0.0
 10
13.4111871458
 20
10.0126080563
 30
0.0
 10
13.4057450797
 20
10.0019085851
 30
0.0
 10
13.4003502946
 20
9.9906338114
 30
0.0
 10
13.3950077831
 20
9.9787940247
 30
0.0
 10
13.3878364549
 20
9.9619773354
 30
0.0
 10
13.3790668617
 20
9.9396085421
 30
0.0
 10
13.3725546387
 20
9.921193522
 30
0.0
 10
13.3693361147
 20
9.9116517279
 30
0.0
  0
SPLINE
  5
37B
100
AcDbEntity
  8
0
100
AcDbSpline
 62
7
  6
CONTINUOUS
 70
0
 71
3
 72
29
 73
25
 74
0
 42
0.0000001
 43
0.0000001
 44
0.0000000001
 40
0.0
 40
0.0
 40
0.0
 40
0.0
 40
0.0844109308
 40
0.167021196
 40
0.2475180268
 40
0.3256369966
 40
0.401116176
 40
0.4737019132
 40
0.5431596849
 40
0.6092721542
 40
0.6718401978
 40
0.7306888572
 40
0.7586717622
 40
0.7856716262
 40
0.8116742211
 40
0.8366682477
 40
0.8606452028
 40
0.8835986256
 40
0.9055261083
 40
0.9264302219
 40
0.9463170845
 40
0.9651968369
 40
0.9830842384
 40
1.0
 40
1.0
 40
1.0
 40
1.0
 10
13.2725609063
 20
9.192608715
 30
0.0
 10
13.272679706
 20
9.178835096
 30
0.0
 10
13.2731408594
 20
9.1515830118
 30
0.0
 10
13.2745263987
 20
9.1112148824
 30
0.0
 10
13.2765945085
 20
9.0719037743
 30
0.0
 10
13.2793368532
 20
9.0338003264
 30
0.0
 10
13.2827425209
 20
8.9970464216
 30
0.0
 10
13.2867988677
 20
8.961780564
 30
0.0
 10
13.2914900292
 20
8.9281357102
 30
0.0
 10
13.2967976703
 20
8.8962379772
 30
0.0
 10
13.3027019108
 20
8.8662073464
 30
0.0
 10
13.3081877576
 20
8.8424478828
 30
0.0
 10
13.312881155
 20
8.8244745789
 30
0.0
 10
13.316476616
 20
8.8117569271
 30
0.0
 10
13.3202035146
 20
8.7995862792
 30
0.0
 10
13.3240583134
 20
8.7879740283
 30
0.0
 10
13.3280370805
 20
8.7769309856
 30
0.0
 10
13.3321362522
 20
8.7664675422
 30
0.0
 10
13.3363521743
 20
8.7565933675
 30
0.0
 10
13.3406808388
 20
8.7473172162
 30
0.0
 10
13.3451185444
 20
8.7386475688
 30
0.0
 10
13.3496614253
 20
8.7305927062
 30
0.0
 10
13.3543042204
 20
8.723160731
 30
0.0
 10
13.357552288
 20
8.7184981823
 30
0.0
 10
13.3591948156
 20
8.7162797622
 30
0.0
  0
SPLINE
  5
37C
100
AcDbEntity
  8
0
100
AcDbSpline
 62
7
  6
CONTINUOUS
 70
0
 71
3
 72
23
 73
19
 74
0
 42
0.0000001
 43
0.0000001
 44
0.0000000001
 40
0.0
 40
0.0
 40
0.0
 40
0.0
 40
0.0517124017
 40
0.105817437
 40
0.1621248898
 40
0.2204554779
 40
0.2806133097
 40
0.342391697
 40
0.4055775525
 40
0.4699511935
 40
0.5352873143
 40
0.6013557937
 40
0.6679239017
 40
0.7347566859
 40
0.801615562
 40
0.8682649978
 40
0.9344779167
 40
1.0
 40
1.0
 40
1.0
 40
1.0
 10
13.3591948156
 20
9.8800045025
 30
0.0
 10
13.3559221756
 20
9.8692621752
 30
0.0
 10
13.3495282581
 20
9.8471873766
 30
0.0
 10
13.340561103
 20
9.8131386533
 30
0.0
 10
13.3320264412
 20
9.7774994688
 30
0.0
 10
13.3239569349
 20
9.7404061672
 30
0.0
 10
13.3163825896
 20
9.7019971245
 30
0.0
 10
13.3093326933
 20
9.6624171413
 30
0.0
 10
13.3028338271
 20
9.6218156784
 30
0.0
 10
13.2969105133
 20
9.5803457917
 30
0.0
 10
13.2915855366
 20
9.5381638923
 30
0.0
 10
13.2868787411
 20
9.4954291488
 30
0.0
 10
13.2828080709
 20
9.4523026969
 30
0.0
 10
13.2793891296
 20
9.4089475334
 30
0.0
 10
13.2766344002
 20
9.3655274198
 30
0.0
 10
13.2745545126
 20
9.3222044644
 30
0.0
 10
13.2731576305
 20
9.2791446453
 30
0.0
 10
13.2726816151
 20
9.250539824
 30
0.0
 10
13.2725609063
 20
9.2363116791
 30
0.0
  0
SPLINE
  5
37D
100
AcDbEntity
  8
0
100
AcDbSpline
 62
7
  6
CONTINUOUS
 70
0
 71
3
 72
55
 73
51
 74
0
 42
0.0000001
 43
0.0000001
 44
0.0000000001
 40
0.0
 40
0.0
 40
0.0
 40
0.0
 40
0.0544796836
 40
0.1080730038
 40
0.1606188057
 40
0.2119841062
 40
0.2620411187
 40
0.3106614428
 40
0.3577215751
 40
0.4031061635
 40
0.4467061545
 40
0.4884199557
 40
0.5281545703
 40
0.5658265035
 40
0.6013637281
 40
0.6347062423
 40
0.6658099984
 40
0.694647824
 40
0.7082163713
 40
0.7212192512
 40
0.7336600645
 40
0.7455452452
 40
0.7568838525
 40
0.7676875652
 40
0.7779714304
 40
0.7877550967
 40
0.7970627058
 40
0.8059233995
 40
0.8143724103
 40
0.8224520268
 40
0.8302114288
 40
0.8377068764
 40
0.8450017153
 40
0.8521653036
 40
0.8592710663
 40
0.8663944188
 40
0.8736102248
 40
0.8809901605
 40
0.888600879
 40
0.8965027645
 40
0.9047487914
 40
0.9133845833
 40
0.92244909
 40
0.9319750597
 40
0.9419890353
 40
0.9525126212
 40
0.9635634308
 40
0.9751553269
 40
0.9872983602
 40
1.0
 40
1.0
 40
1.0
 40
1.0
 10
14.0154038243
 20
9.1866945929
 30
0.0
 10
14.0154038243
 20
9.176129628
 30
0.0
 10
14.0155524888
 20
9.1551712508
 30
0.0
 10
14.0162309932
 20
9.1240295522
 30
0.0
 10
14.0173623113
 20
9.0935052401
 30
0.0
 10
14.0189425742
 20
9.063687526
 30
0.0
 10
14.0209674723
 20
9.0346596442
 30
0.0
 10
14.023430842
 20
9.0065035277
 30
0.0
 10
14.0263259656
 20
8.979299416
 30
0.0
 10
14.0296441503
 20
8.9531245433
 30
0.0
 10
14.0333759873
 20
8.9280529453
 30
0.0
 10
14.0375106184
 20
8.904155542
 30
0.0
 10
14.042036089
 20
8.8814998769
 30
0.0
 10
14.0469394596
 20
8.8601497795
 30
0.0
 10
14.0522063483
 20
8.8401652354
 30
0.0
 10
14.0578220351
 20
8.8216019118
 30
0.0
 10
14.0637700231
 20
8.8045117592
 30
0.0
 10
14.0690929471
 20
8.7912796823
 30
0.0
 10
14.0735252229
 20
8.7814896538
 30
0.0
 10
14.0768542987
 20
8.7746945973
 30
0.0
 10
14.080253824
 20
8.7683018516
 30
0.0
 10
14.0837214231
 20
8.7623157594
 30
0.0
 10
14.0872546409
 20
8.7567403262
 30
0.0
 10
14.0908511903
 20
8.7515794464
 30
0.0
 10
14.0945089888
 20
8.7468368892
 30
0.0
 10
14.0982255472
 20
8.7425157746
 30
0.0
 10
14.1019985661
 20
8.7386190366
 30
0.0
 10
14.1058259475
 20
8.7351496737
 30
0.0
 10
14.1097056709
 20
8.7321106622
 30
0.0
 10
14.1136352903
 20
8.7295043576
 30
0.0
 10
14.1176124494
 20
8.7273332704
 30
0.0
 10
14.1216346501
 20
8.7256002518
 30
0.0
 10
14.1256988176
 20
8.7243078768
 30
0.0
 10
14.1298012116
 20
8.7234577855
 30
0.0
 10
14.1339377941
 20
8.7230513649
 30
0.0
 10
14.1381041929
 20
8.7230896149
 30
0.0
 10
14.1422959422
 20
8.7235720565
 30
0.0
 10
14.146508991
 20
8.7244971394
 30
0.0
 10
14.1507397557
 20
8.7258631908
 30
0.0
 10
14.1549849207
 20
8.7276685288
 30
0.0
 10
14.1592417285
 20
8.7299106267
 30
0.0
 10
14.1635076503
 20
8.7325870067
 30
0.0
 10
14.1677801243
 20
8.7356954574
 30
0.0
 10
14.1720564153
 20
8.739233775
 30
0.0
 10
14.1763341074
 20
8.7431990466
 30
0.0
 10
14.1806105684
 20
8.7475883816
 30
0.0
 10
14.1848829693
 20
8.7523988703
 30
0.0
 10
14.1891483825
 20
8.757627321
 30
0.0
 10
14.1934041068
 20
8.763269812
 30
0.0
 10
14.1961703968
 20
8.7672157956
 30
0.0
 10
14.1975527432
 20
8.7692544947
 30
0.0
  0
SPLINE
  5
37E
100
AcDbEntity
  8
0
100
AcDbSpline
 62
7
  6
CONTINUOUS
 70
0
 71
3
 72
9
 73
5
 74
0
 42
0.0000001
 43
0.0000001
 44
0.0000000001
 40
0.0
 40
0.0
 40
0.0
 40
0.0
 40
0.2415810799
 40
1.0
 40
1.0
 40
1.0
 40
1.0
 10
14.1975527432
 20
8.7692544947
 30
0.0
 10
14.1983237579
 20
8.7703915954
 30
0.0
 10
14.2014742395
 20
8.7751262951
 30
0.0
 10
14.2044656901
 20
8.7799661416
 30
0.0
 10
14.2066568259
 20
8.7836811647
 30
0.0
  0
SPLINE
  5
37F
100
AcDbEntity
  8
0
100
AcDbSpline
 62
7
  6
CONTINUOUS
 70
0
 71
3
 72
11
 73
7
 74
0
 42
0.0000001
 43
0.0000001
 44
0.0000000001
 40
0.0
 40
0.0
 40
0.0
 40
0.0
 40
0.2707423955
 40
0.5275743428
 40
0.7705940619
 40
1.0
 40
1.0
 40
1.0
 40
1.0
 10
14.2833912383
 20
9.8901096951
 30
0.0
 10
14.2820949324
 20
9.8932242756
 30
0.0
 10
14.279469912
 20
9.8992529542
 30
0.0
 10
14.2753127554
 20
9.9079110085
 30
0.0
 10
14.2710440283
 20
9.9159358627
 30
0.0
 10
14.2680413188
 20
9.9210023796
 30
0.0
 10
14.2665187953
 20
9.9234216717
 30
0.0
  0
SPLINE
  5
380
100
AcDbEntity
  8
0
100
AcDbSpline
 62
7
  6
CONTINUOUS
 70
0
 71
3
 72
55
 73
51
 74
0
 42
0.0000001
 43
0.0000001
 44
0.0000000001
 40
0.0
 40
0.0
 40
0.0
 40
0.0
 40
0.0091577868
 40
0.0177618445
 40
0.0258372884
 40
0.0334170679
 40
0.0405430748
 40
0.0472684852
 40
0.0536583613
 40
0.0597898466
 40
0.0657516837
 40
0.0716409717
 40
0.0775587123
 40
0.0836043685
 40
0.0898706698
 40
0.0964402932
 40
0.0998623988
 40
0.1033856202
 40
0.1107605558
 40
0.1186142058
 40
0.126983132
 40
0.1358954139
 40
0.14537248
 40
0.1554292655
 40
0.1660758699
 40
0.1773187873
 40
0.1891604404
 40
0.2016004246
 40
0.2146363091
 40
0.2282628502
 40
0.2424730097
 40
0.257258518
 40
0.2726089663
 40
0.3049559727
 40
0.3394089097
 40
0.3758441812
 40
0.4141231893
 40
0.4540951793
 40
0.4955985596
 40
0.5384619526
 40
0.5825062071
 40
0.6275453385
 40
0.6733874576
 40
0.7198363195
 40
0.7666923239
 40
0.8137540635
 40
0.8608176619
 40
0.9076794905
 40
0.9541447315
 40
1.0
 40
1.0
 40
1.0
 40
1.0
 10
14.2665187953
 20
9.9234216717
 30
0.0
 10
14.2650666087
 20
9.9257291983
 30
0.0
 10
14.2621352872
 20
9.9301342706
 30
0.0
 10
14.2574977593
 20
9.9362775811
 30
0.0
 10
14.2527637062
 20
9.9417404162
 30
0.0
 10
14.2479375952
 20
9.9465165493
 30
0.0
 10
14.2430227595
 20
9.9505995362
 30
0.0
 10
14.2380232981
 20
9.9539834971
 30
0.0
 10
14.2329436101
 20
9.9566624741
 30
0.0
 10
14.2277887254
 20
9.9586290861
 30
0.0
 10
14.2225662994
 20
9.9598774594
 30
0.0
 10
14.2172858548
 20
9.960403483
 30
0.0
 10
14.2119582766
 20
9.9602047319
 30
0.0
 10
14.2065943062
 20
9.9592836236
 30
0.0
 10
14.201203098
 20
9.9576450318
 30
0.0
 10
14.1967543711
 20
9.9557120001
 30
0.0
 10
14.1931960119
 20
9.9538310011
 30
0.0
 10
14.189527035
 20
9.951656494
 30
0.0
 10
14.1849284357
 20
9.9484774276
 30
0.0
 10
14.1794869461
 20
9.9440234704
 30
0.0
 10
14.17404445
 20
9.9388794616
 30
0.0
 10
14.1686062799
 20
9.9330516292
 30
0.0
 10
14.1631781234
 20
9.9265459846
 30
0.0
 10
14.1577653272
 20
9.9193700024
 30
0.0
 10
14.1523735678
 20
9.9115316341
 30
0.0
 10
14.1470091576
 20
9.903039319
 30
0.0
 10
14.1416777816
 20
9.8939027463
 30
0.0
 10
14.1363853637
 20
9.8841322139
 30
0.0
 10
14.1311382807
 20
9.8737385662
 30
0.0
 10
14.1259422482
 20
9.8627337312
 30
0.0
 10
14.1208031665
 20
9.8511302496
 30
0.0
 10
14.115727204
 20
9.8389411954
 30
0.0
 10
14.1089319395
 20
9.8216231713
 30
0.0
 10
14.1006655849
 20
9.7985984677
 30
0.0
 10
14.0912517613
 20
9.7693354762
 30
0.0
 10
14.0822223122
 20
9.73810921
 30
0.0
 10
14.0736188464
 20
9.7050627905
 30
0.0
 10
14.0654814313
 20
9.6703473043
 30
0.0
 10
14.0578480099
 20
9.6341218685
 30
0.0
 10
14.0507537449
 20
9.5965527306
 30
0.0
 10
14.0442315565
 20
9.5578123803
 30
0.0
 10
14.0383118128
 20
9.5180787311
 30
0.0
 10
14.0330216846
 20
9.4775344095
 30
0.0
 10
14.0283856485
 20
9.4363657985
 30
0.0
 10
14.0244252512
 20
9.3947620015
 30
0.0
 10
14.0211586465
 20
9.3529144351
 30
0.0
 10
14.0186008076
 20
9.3110158477
 30
0.0
 10
14.0167634906
 20
9.2692571792
 30
0.0
 10
14.0156554812
 20
9.2278327629
 30
0.0
 10
14.0154038243
 20
9.2003465876
 30
0.0
 10
14.0154038243
 20
9.1866945929
 30
0.0
  0
SPLINE
  5
381
100
AcDbEntity
  8
0
100
AcDbSpline
 62
7
  6
CONTINUOUS
 70
0
 71
3
 72
9
 73
5
 74
0
 42
0.0000001
 43
0.0000001
 44
0.0000000001
 40
0.0
 40
0.0
 40
0.0
 40
0.0
 40
0.5149357862
 40
1.0
 40
1.0
 40
1.0
 40
1.0
 10
13.3591948156
 20
8.7162797622
 30
0.0
 10
13.3608047638
 20
8.7141053442
 30
0.0
 10
13.3640514657
 20
8.7099697757
 30
0.0
 10
13.3675632854
 20
8.7060549967
 30
0.0
 10
13.3693361147
 20
8.7042240235
 30
0.0
  0
SPLINE
  5
382
100
AcDbEntity
  8
0
100
AcDbSpline
 62
7
  6
CONTINUOUS
 70
0
 71
3
 72
37
 73
33
 74
0
 42
0.0000001
 43
0.0000001
 44
0.0000000001
 40
0.0
 40
0.0
 40
0.0
 40
0.0
 40
0.0964112922
 40
0.1901906492
 40
0.2807583835
 40
0.3675835225
 40
0.4094323166
 40
0.450157461
 40
0.4897016084
 40
0.5280107694
 40
0.5650329334
 40
0.600720838
 40
0.6350299683
 40
0.6679203677
 40
0.6993569715
 40
0.7293088589
 40
0.7577523785
 40
0.7846691308
 40
0.8100495366
 40
0.8338928968
 40
0.8562090528
 40
0.8770224534
 40
0.8963726747
 40
0.9143213188
 40
0.9309549459
 40
0.9463922245
 40
0.9607907246
 40
0.9743509572
 40
0.9808967563
 40
0.9873288622
 40
0.9936838942
 40
1.0
 40
1.0
 40
1.0
 40
1.0
 10
13.2149044762
 20
9.1994715528
 30
0.0
 10
13.2149044762
 20
9.1793124881
 30
0.0
 10
13.2153316384
 20
9.1395431417
 30
0.0
 10
13.2172990512
 20
9.0808658753
 30
0.0
 10
13.2205727486
 20
9.0242540654
 30
0.0
 10
13.224415091
 20
8.9785667576
 30
0.0
 10
13.2281524227
 20
8.9433429387
 30
0.0
 10
13.2312314145
 20
8.9179939712
 30
0.0
 10
13.2346157593
 20
8.8934308108
 30
0.0
 10
13.2382994058
 20
8.8696938715
 30
0.0
 10
13.2422767924
 20
8.8468222541
 30
0.0
 10
13.2465407664
 20
8.8248535832
 30
0.0
 10
13.2510845177
 20
8.80382394
 30
0.0
 10
13.255900516
 20
8.7837678418
 30
0.0
 10
13.2609803749
 20
8.764718086
 30
0.0
 10
13.2663163152
 20
8.7467058704
 30
0.0
 10
13.2718987728
 20
8.7297604133
 30
0.0
 10
13.277719182
 20
8.7139092549
 30
0.0
 10
13.2837677667
 20
8.6991778788
 30
0.0
 10
13.2900346724
 20
8.6855897095
 30
0.0
 10
13.2965106649
 20
8.6731664226
 30
0.0
 10
13.3031850929
 20
8.6619269939
 30
0.0
 10
13.3100494063
 20
8.651889148
 30
0.0
 10
13.3170940009
 20
8.6430679345
 30
0.0
 10
13.3243110077
 20
8.6354774514
 30
0.0
 10
13.3316941165
 20
8.6291313849
 30
0.0
 10
13.3392345794
 20
8.6240434018
 30
0.0
 10
13.3457230392
 20
8.6208282379
 30
0.0
 10
13.3509446913
 20
8.6189368725
 30
0.0
 10
13.3548442925
 20
8.6178556498
 30
0.0
 10
13.3587700439
 20
8.6170966904
 30
0.0
 10
13.36140695
 20
8.6168056187
 30
0.0
 10
13.3627244502
 20
8.6167142804
 30
0.0
  0
SPLINE
  5
383
100
AcDbEntity
  8
0
100
AcDbSpline
 62
7
  6
CONTINUOUS
 70
0
 71
3
 72
48
 73
44
 74
0
 42
0.0000001
 43
0.0000001
 44
0.0000000001
 40
0.0
 40
0.0
 40
0.0
 40
0.0
 40
0.0417704112
 40
0.0840386256
 40
0.1266601605
 40
0.1695075437
 40
0.255350012
 40
0.3405015213
 40
0.3824895014
 40
0.4239116219
 40
0.464640564
 40
0.5045521279
 40
0.5435250537
 40
0.5814424351
 40
0.6181915682
 40
0.6536649563
 40
0.6877611854
 40
0.7203848469
 40
0.7514486498
 40
0.7808729855
 40
0.8085883399
 40
0.8217869473
 40
0.8345375105
 40
0.846834529
 40
0.8586738401
 40
0.8700524822
 40
0.8809683455
 40
0.8914207229
 40
0.9014108926
 40
0.9109416263
 40
0.9200175061
 40
0.9286459499
 40
0.936837114
 40
0.944604074
 40
0.9519639
 40
0.958938379
 40
0.9655541515
 40
0.9718436235
 40
0.9778460214
 40
0.9836072767
 40
0.9891799827
 40
0.9946230313
 40
1.0
 40
1.0
 40
1.0
 40
1.0
 10
13.2149044762
 20
9.1994715528
 30
0.0
 10
13.2149044762
 20
9.2140124505
 30
0.0
 10
13.2151315375
 20
9.2432679972
 30
0.0
 10
13.2161342241
 20
9.287350381
 30
0.0
 10
13.2177989976
 20
9.3317880619
 30
0.0
 10
13.2208956523
 20
9.3913453645
 30
0.0
 10
13.2263628548
 20
9.4655965438
 30
0.0
 10
13.2339324505
 20
9.5393626369
 30
0.0
 10
13.2412254674
 20
9.5975883517
 30
0.0
 10
13.2472487092
 20
9.6403829686
 30
0.0
 10
13.2538306451
 20
9.6823637207
 30
0.0
 10
13.2609491073
 20
9.7233918924
 30
0.0
 10
13.2685808774
 20
9.7633318006
 30
0.0
 10
13.2767001474
 20
9.8020514807
 30
0.0
 10
13.2852801234
 20
9.8394229884
 30
0.0
 10
13.2942922523
 20
9.87532294
 30
0.0
 10
13.3037062034
 20
9.9096329375
 30
0.0
 10
13.313491108
 20
9.9422398414
 30
0.0
 10
13.3236137377
 20
9.9730365877
 30
0.0
 10
13.3340408887
 20
10.0019216237
 30
0.0
 10
13.3430960882
 20
10.0246773734
 30
0.0
 10
13.3504861802
 20
10.041836026
 30
0.0
 10
13.3559926274
 20
10.0539590793
 30
0.0
 10
13.361549116
 20
10.0655366283
 30
0.0
 10
13.3671510502
 20
10.076559223
 30
0.0
 10
13.3727936267
 20
10.0870179745
 30
0.0
 10
13.3784723341
 20
10.0969042401
 30
0.0
 10
13.3841827131
 20
10.1062098375
 30
0.0
 10
13.3899198598
 20
10.1149274183
 30
0.0
 10
13.395679139
 20
10.1230499632
 30
0.0
 10
13.4014562689
 20
10.1305706675
 30
0.0
 10
13.4072465368
 20
10.1374836364
 30
0.0
 10
13.4130453549
 20
10.1437835143
 30
0.0
 10
13.4188486003
 20
10.1494649963
 30
0.0
 10
13.4246521528
 20
10.1545233005
 30
0.0
 10
13.4304516863
 20
10.1589544991
 30
0.0
 10
13.436243344
 20
10.1627545421
 30
0.0
 10
13.4420235042
 20
10.165919063
 30
0.0
 10
13.4477879386
 20
10.1684446558
 30
0.0
 10
13.4535322212
 20
10.1703277669
 30
0.0
 10
13.4592517741
 20
10.1715642035
 30
0.0
 10
13.4649395544
 20
10.1721510422
 30
0.0
 10
13.4687157402
 20
10.1721079823
 30
0.0
 10
13.4705830605
 20
10.1719785266
 30
0.0
  0
SPLINE
  5
384
100
AcDbEntity
  8
0
100
AcDbSpline
 62
7
  6
CONTINUOUS
 70
0
 71
3
 72
9
 73
5
 74
0
 42
0.0000001
 43
0.0000001
 44
0.0000000001
 40
0.0
 40
0.0
 40
0.0
 40
0.0
 40
0.5149357862
 40
1.0
 40
1.0
 40
1.0
 40
1.0
 10
14.0294629878
 20
8.6697965066
 30
0.0
 10
14.031072936
 20
8.6676220886
 30
0.0
 10
14.0343196379
 20
8.6634865201
 30
0.0
 10
14.0378314576
 20
8.6595717411
 30
0.0
 10
14.0396042869
 20
8.6577407679
 30
0.0
  0
SPLINE
  5
385
100
AcDbEntity
  8
0
100
AcDbSpline
 62
7
  6
CONTINUOUS
 70
0
 71
3
 72
41
 73
37
 74
0
 42
0.0000001
 43
0.0000001
 44
0.0000000001
 40
0.0
 40
0.0
 40
0.0
 40
0.0
 40
0.0310748272
 40
0.0623072483
 40
0.0936920359
 40
0.1252208484
 40
0.156882237
 40
0.188662033
 40
0.2205436266
 40
0.2525083437
 40
0.2845358343
 40
0.3166044929
 40
0.3486918936
 40
0.3807752384
 40
0.4128318095
 40
0.4448394218
 40
0.4767768664
 40
0.5086243418
 40
0.5403638639
 40
0.5719796493
 40
0.6034584635
 40
0.6347899281
 40
0.6659667781
 40
0.6969850622
 40
0.7278442783
 40
0.7585474376
 40
0.7891010512
 40
0.8195150346
 40
0.8498025274
 40
0.8649066426
 40
0.8799854039
 40
0.9100708284
 40
0.9400854823
 40
0.9550762294
 40
0.970057877
 40
1.0
 40
1.0
 40
1.0
 40
1.0
 10
8.2219659854
 20
9.2989222942
 30
0.0
 10
8.2219659854
 20
9.303781646
 30
0.0
 10
8.2216034779
 20
9.313528732
 30
0.0
 10
8.2199850234
 20
9.3281026896
 30
0.0
 10
8.2172995446
 20
9.3425910898
 30
0.0
 10
8.2135619565
 20
9.3569132952
 30
0.0
 10
8.2087929138
 20
9.3709909654
 30
0.0
 10
8.2030187257
 20
9.3847467515
 30
0.0
 10
8.1962711896
 20
9.3981051848
 30
0.0
 10
8.1885874265
 20
9.4109929587
 30
0.0
 10
8.1800096725
 20
9.4233393595
 30
0.0
 10
8.1705850504
 20
9.4350766407
 30
0.0
 10
8.1603653123
 20
9.4461403929
 30
0.0
 10
8.1494065579
 20
9.4564698925
 30
0.0
 10
8.1377689296
 20
9.4660084322
 30
0.0
 10
8.1255162862
 20
9.4747036288
 30
0.0
 10
8.1127158561
 20
9.4825077086
 30
0.0
 10
8.099437873
 20
9.4893777677
 30
0.0
 10
8.0857551954
 20
9.4952760063
 30
0.0
 10
8.0717429118
 20
9.5001699365
 30
0.0
 10
8.057477935
 20
9.5040325608
 30
0.0
 10
8.0430385855
 20
9.5068425229
 30
0.0
 10
8.0285041668
 20
9.5085842276
 30
0.0
 10
8.0139545399
 20
9.5092479341
 30
0.0
 10
7.9994696738
 20
9.5088298081
 30
0.0
 10
7.9851292688
 20
9.5073319785
 30
0.0
 10
7.9710121013
 20
9.5047624371
 30
0.0
 10
7.9571964045
 20
9.5011353664
 30
0.0
 10
7.9459855531
 20
9.4972435698
 30
0.0
 10
7.9372472385
 20
9.4936242962
 30
0.0
 10
7.9286858047
 20
9.4896793187
 30
0.0
 10
7.9183050374
 20
9.4841340174
 30
0.0
 10
7.9084056139
 20
9.4777944269
 30
0.0
 10
7.9008188895
 20
9.4722737217
 30
0.0
 10
7.8934663255
 20
9.4664638984
 30
0.0
 10
7.8882163113
 20
9.4617815005
 30
0.0
 10
7.8848486111
 20
9.4585285296
 30
0.0
  0
SPLINE
  5
386
100
AcDbEntity
  8
0
100
AcDbSpline
 62
7
  6
CONTINUOUS
 70
0
 71
3
 72
41
 73
37
 74
0
 42
0.0000001
 43
0.0000001
 44
0.0000000001
 40
0.0
 40
0.0
 40
0.0
 40
0.0
 40
0.0310748272
 40
0.0623072483
 40
0.0936920359
 40
0.1252208484
 40
0.156882237
 40
0.188662033
 40
0.2205436266
 40
0.2525083437
 40
0.2845358343
 40
0.3166044929
 40
0.3486918936
 40
0.3807752384
 40
0.4128318095
 40
0.4448394218
 40
0.4767768664
 40
0.5086243418
 40
0.5403638639
 40
0.5719796493
 40
0.6034584635
 40
0.6347899281
 40
0.6659667781
 40
0.6969850622
 40
0.7278442783
 40
0.7585474376
 40
0.7891010512
 40
0.8195150346
 40
0.8498025274
 40
0.8649066426
 40
0.8799854039
 40
0.9100708284
 40
0.9400854823
 40
0.9550762294
 40
0.970057877
 40
1.0
 40
1.0
 40
1.0
 40
1.0
 10
12.8101139321
 20
7.0488813864
 30
0.0
 10
12.8101139321
 20
7.0537407382
 30
0.0
 10
12.8097514246
 20
7.0634878242
 30
0.0
 10
12.8081329701
 20
7.0780617818
 30
0.0
 10
12.8054474914
 20
7.092550182
 30
0.0
 10
12.8017099032
 20
7.1068723873
 30
0.0
 10
12.7969408606
 20
7.1209500575
 30
0.0
 10
12.7911666724
 20
7.1347058436
 30
0.0
 10
12.7844191364
 20
7.1480642769
 30
0.0
 10
12.7767353732
 20
7.1609520508
 30
0.0
 10
12.7681576192
 20
7.1732984517
 30
0.0
 10
12.7587329972
 20
7.1850357329
 30
0.0
 10
12.7485132591
 20
7.196099485
 30
0.0
 10
12.7375545046
 20
7.2064289847
 30
0.0
 10
12.7259168763
 20
7.2159675244
 30
0.0
 10
12.7136642329
 20
7.224662721
 30
0.0
 10
12.7008638029
 20
7.2324668008
 30
0.0
 10
12.6875858198
 20
7.2393368598
 30
0.0
 10
12.6739031421
 20
7.2452350985
 30
0.0
 10
12.6598908585
 20
7.2501290287
 30
0.0
 10
12.6456258817
 20
7.253991653
 30
0.0
 10
12.6311865322
 20
7.256801615
 30
0.0
 10
12.6166521135
 20
7.2585433198
 30
0.0
 10
12.6021024867
 20
7.2592070262
 30
0.0
 10
12.5876176205
 20
7.2587889003
 30
0.0
 10
12.5732772155
 20
7.2572910706
 30
0.0
 10
12.559160048
 20
7.2547215292
 30
0.0
 10
12.5453443513
 20
7.2510944585
 30
0.0
 10
12.5341334998
 20
7.2472026619
 30
0.0
 10
12.5253951852
 20
7.2435833884
 30
0.0
 10
12.5168337514
 20
7.2396384109
 30
0.0
 10
12.5064529842
 20
7.2340931095
 30
0.0
 10
12.4965535606
 20
7.227753519
 30
0.0
 10
12.4889668362
 20
7.2222328139
 30
0.0
 10
12.4816142722
 20
7.2164229905
 30
0.0
 10
12.476364258
 20
7.2117405926
 30
0.0
 10
12.4729965579
 20
7.2084876218
 30
0.0
  0
SPLINE
  5
387
100
AcDbEntity
  8
0
100
AcDbSpline
 62
7
  6
CONTINUOUS
 70
0
 71
3
 72
53
 73
49
 74
0
 42
0.0000001
 43
0.0000001
 44
0.0000000001
 40
0.0
 40
0.0
 40
0.0
 40
0.0
 40
0.0417740478
 40
0.0840369835
 40
0.1266585592
 40
0.1695065657
 40
0.2124481957
 40
0.2553501644
 40
0.2980793779
 40
0.3405034127
 40
0.3824910553
 40
0.4239128269
 40
0.4646415185
 40
0.5045527309
 40
0.5435254266
 40
0.5814424966
 40
0.6181913512
 40
0.6536645436
 40
0.6877604426
 40
0.7203839756
 40
0.7361162401
 40
0.7514482063
 40
0.7663702194
 40
0.7808732533
 40
0.7949489098
 40
0.808589482
 40
0.8217880323
 40
0.8345384043
 40
0.8468353889
 40
0.8586746951
 40
0.8700532057
 40
0.8809689358
 40
0.8914213732
 40
0.9014114696
 40
0.9109420597
 40
0.9200179488
 40
0.9286464106
 40
0.9368374402
 40
0.9446043453
 40
0.9519642202
 40
0.9589386335
 40
0.9655543067
 40
0.9718438059
 40
0.9778461959
 40
0.9836073668
 40
0.9891800504
 40
0.9946230772
 40
1.0
 40
1.0
 40
1.0
 40
1.0
 10
13.0973803972
 20
9.206952003
 30
0.0
 10
13.0973803972
 20
9.2215409072
 30
0.0
 10
13.0976079992
 20
9.2508899102
 30
0.0
 10
13.0986141898
 20
9.2951134343
 30
0.0
 10
13.1002842158
 20
9.3396922657
 30
0.0
 10
13.1026126065
 20
9.3844788518
 30
0.0
 10
13.1055916651
 20
9.4293250044
 30
0.0
 10
13.1092115455
 20
9.4740823653
 30
0.0
 10
13.1134602559
 20
9.5186028559
 30
0.0
 10
13.118323712
 20
9.5627391925
 30
0.0
 10
13.1237857777
 20
9.6063453692
 30
0.0
 10
13.12982832
 20
9.6492771471
 30
0.0
 10
13.1364312673
 20
9.6913925352
 30
0.0
 10
13.1435726745
 20
9.7325522666
 30
0.0
 10
13.1512287947
 20
9.772620264
 30
0.0
 10
13.1593741549
 20
9.811464107
 30
0.0
 10
13.1679816424
 20
9.8489554535
 30
0.0
 10
13.1770225801
 20
9.8849705821
 30
0.0
 10
13.1864668683
 20
9.9193904635
 30
0.0
 10
13.1947438766
 20
9.9469735867
 30
0.0
 10
13.2015570583
 20
9.9681468978
 30
0.0
 10
13.206686155
 20
9.9833663516
 30
0.0
 10
13.2118920576
 20
9.9981052076
 30
0.0
 10
13.2171704668
 20
10.0123513173
 30
0.0
 10
13.2225170049
 20
10.0260929236
 30
0.0
 10
13.227927252
 20
10.0393186979
 30
0.0
 10
13.2333967044
 20
10.0520177509
 30
0.0
 10
13.2389208746
 20
10.0641796251
 30
0.0
 10
13.2444951444
 20
10.0757943397
 30
0.0
 10
13.2501149806
 20
10.0868523472
 30
0.0
 10
13.2557756786
 20
10.0973446175
 30
0.0
 10
13.2614726814
 20
10.1072625496
 30
0.0
 10
13.2672012409
 20
10.116598102
 30
0.0
 10
13.2729568035
 20
10.1253436559
 30
0.0
 10
13.2787346408
 20
10.1334921846
 30
0.0
 10
13.2845302457
 20
10.1410370784
 30
0.0
 10
13.2903389988
 20
10.1479723264
 30
0.0
 10
13.29615651
 20
10.1542923241
 30
0.0
 10
13.3019783832
 20
10.1599920149
 30
0.0
 10
13.3078004381
 20
10.1650667118
 30
0.0
 10
13.3136185973
 20
10.1695121177
 30
0.0
 10
13.3194289169
 20
10.1733242077
 30
0.0
 10
13.3252275294
 20
10.1764990547
 30
0.0
 10
13.3310104242
 20
10.1790328923
 30
0.0
 10
13.3367732049
 20
10.1809218205
 30
0.0
 10
13.3425110613
 20
10.1821623289
 30
0.0
 10
13.3482170755
 20
10.1827512508
 30
0.0
 10
13.3520053818
 20
10.1827080252
 30
0.0
 10
13.3538786849
 20
10.1825781108
 30
0.0
  0
SPLINE
  5
388
100
AcDbEntity
  8
0
100
AcDbSpline
 62
7
  6
CONTINUOUS
 70
0
 71
3
 72
93
 73
89
 74
0
 42
0.0000001
 43
0.0000001
 44
0.0000000001
 40
0.0
 40
0.0
 40
0.0
 40
0.0
 40
0.0039802005
 40
0.0081241083
 40
0.0124359116
 40
0.0169192331
 40
0.0215771071
 40
0.0264118291
 40
0.0314250775
 40
0.0366180274
 40
0.0419913947
 40
0.0475454967
 40
0.0532802394
 40
0.0591952227
 40
0.0652896963
 40
0.071562666
 40
0.0780128361
 40
0.0846387029
 40
0.0984099586
 40
0.1128604728
 40
0.1279709419
 40
0.1437194762
 40
0.1600818774
 40
0.1770318697
 40
0.1945412988
 40
0.2125803054
 40
0.2311174799
 40
0.2501200027
 40
0.2695537746
 40
0.2893835385
 40
0.3095729955
 40
0.3300849166
 40
0.3508812506
 40
0.3719232299
 40
0.3931714738
 40
0.4145860912
 40
0.4361267819
 40
0.4577529372
 40
0.47942374
 40
0.5010982647
 40
0.5227355766
 40
0.5442948315
 40
0.5657353757
 40
0.5870168455
 40
0.608099268
 40
0.628943162
 40
0.6495096405
 40
0.6697605141
 40
0.6896583964
 40
0.7091668111
 40
0.7282503034
 40
0.7468745548
 40
0.7650065038
 40
0.7826144744
 40
0.7996683149
 40
0.8161395488
 40
0.8320015451
 40
0.8472297111
 40
0.8618017176
 40
0.8756977675
 40
0.8823870871
 40
0.8889013284
 40
0.8952388858
 40
0.9013983901
 40
0.9073787355
 40
0.9131790737
 40
0.918798886
 40
0.9242379489
 40
0.9294964425
 40
0.9345749072
 40
0.9394743702
 40
0.9441963202
 40
0.9487428314
 40
0.9531165822
 40
0.9573209639
 40
0.9613601573
 40
0.9652392239
 40
0.9689642405
 40
0.9725423751
 40
0.9759820598
 40
0.97929305
 40
0.982486587
 40
0.9855754179
 40
0.9885738696
 40
0.9914977727
 40
0.9943643586
 40
0.997192021
 40
1.0
 40
1.0
 40
1.0
 40
1.0
 10
11.0820109299
 20
10.8844025232
 30
0.0
 10
11.0797491041
 20
10.8822177672
 30
0.0
 10
11.0750297134
 20
10.8778637242
 30
0.0
 10
11.0675367893
 20
10.8715043462
 30
0.0
 10
11.0594936481
 20
10.8651906194
 30
0.0
 10
11.0509046889
 20
10.8589258241
 30
0.0
 10
11.0417740582
 20
10.8527129346
 30
0.0
 10
11.0321062856
 20
10.8465549149
 30
0.0
 10
11.0219061713
 20
10.8404548304
 30
0.0
 10
11.0111788191
 20
10.8344157367
 30
0.0
 10
10.9999296055
 20
10.8284406034
 30
0.0
 10
10.9881641387
 20
10.8225324704
 30
0.0
 10
10.9758883381
 20
10.8166942301
 30
0.0
 10
10.9631083435
 20
10.8109289064
 30
0.0
 10
10.9498306016
 20
10.8052393124
 30
0.0
 10
10.936061775
 20
10.7996284172
 30
0.0
 10
10.9218087974
 20
10.7940989347
 30
0.0
 10
10.9019124001
 20
10.7867440377
 30
0.0
 10
10.8758711375
 20
10.7777929146
 30
0.0
 10
10.8431983745
 20
10.7675534031
 30
0.0
 10
10.8087785121
 20
10.7577030249
 30
0.0
 10
10.7726810255
 20
10.7482618294
 30
0.0
 10
10.7349785249
 20
10.7392490444
 30
0.0
 10
10.695747047
 20
10.7306830293
 30
0.0
 10
10.6550657529
 20
10.7225812341
 30
0.0
 10
10.6130167922
 20
10.7149601608
 30
0.0
 10
10.5696851164
 20
10.7078353297
 30
0.0
 10
10.5251583026
 20
10.7012212473
 30
0.0
 10
10.4795263694
 20
10.695131377
 30
0.0
 10
10.4328815908
 20
10.6895781124
 30
0.0
 10
10.3853183055
 20
10.6845727531
 30
0.0
 10
10.336932723
 20
10.6801254815
 30
0.0
 10
10.2878227273
 20
10.6762453436
 30
0.0
 10
10.2380876761
 20
10.6729402307
 30
0.0
 10
10.1878281991
 20
10.6702168638
 30
0.0
 10
10.1371459921
 20
10.6680807797
 30
0.0
 10
10.0861436106
 20
10.6665363206
 30
0.0
 10
10.03492426
 20
10.665586626
 30
0.0
 10
9.983591587
 20
10.6652336262
 30
0.0
 10
9.932249468
 20
10.6654780387
 30
0.0
 10
9.8810017985
 20
10.6663193666
 30
0.0
 10
9.8299522824
 20
10.6677558996
 30
0.0
 10
9.7792042208
 20
10.6697847177
 30
0.0
 10
9.7288603025
 20
10.6724016964
 30
0.0
 10
9.6790223949
 20
10.6756015154
 30
0.0
 10
9.6297913371
 20
10.6793776686
 30
0.0
 10
9.5812667338
 20
10.6837224771
 30
0.0
 10
9.5335467522
 20
10.6886271037
 30
0.0
 10
9.4867279211
 20
10.6940815707
 30
0.0
 10
9.4409049339
 20
10.70007478
 30
0.0
 10
9.396170454
 20
10.7065945349
 30
0.0
 10
9.3526149237
 20
10.7136275644
 30
0.0
 10
9.3103263773
 20
10.7211595494
 30
0.0
 10
9.2693902567
 20
10.7291751516
 30
0.0
 10
9.2298892337
 20
10.7376580448
 30
0.0
 10
9.1919030241
 20
10.7465909485
 30
0.0
 10
9.1555082498
 20
10.755955666
 30
0.0
 10
9.1207781411
 20
10.7657331226
 30
0.0
 10
9.0877828151
 20
10.7759034218
 30
0.0
 10
9.0614638329
 20
10.7847979232
 30
0.0
 10
9.0413391761
 20
10.7921092525
 30
0.0
 10
9.0269119336
 20
10.7976083948
 30
0.0
 10
9.012966266
 20
10.8031900072
 30
0.0
 10
8.9995091844
 20
10.8088513226
 30
0.0
 10
8.9865474565
 20
10.8145894379
 30
0.0
 10
8.9740876137
 20
10.8204015173
 30
0.0
 10
8.9621358925
 20
10.8262845616
 30
0.0
 10
8.9506983158
 20
10.8322357029
 30
0.0
 10
8.9397805794
 20
10.8382518649
 30
0.0
 10
8.9293881796
 20
10.8443301419
 30
0.0
 10
8.9195262676
 20
10.8504674216
 30
0.0
 10
8.910199793
 20
10.8566607504
 30
0.0
 10
8.9014133687
 20
10.862907028
 30
0.0
 10
8.8931713816
 20
10.869203253
 30
0.0
 10
8.885477926
 20
10.8755463811
 30
0.0
 10
8.878336823
 20
10.8819333788
 30
0.0
 10
8.8717516875
 20
10.8883612908
 30
0.0
 10
8.8657258017
 20
10.8948270786
 30
0.0
 10
8.8602623659
 20
10.90132788
 30
0.0
 10
8.8553641976
 20
10.9078606668
 30
0.0
 10
8.8510341665
 20
10.9144226079
 30
0.0
 10
8.8472747427
 20
10.9210106379
 30
0.0
 10
8.8440885196
 20
10.9276217794
 30
0.0
 10
8.8414776971
 20
10.934252767
 30
0.0
 10
8.8394444966
 20
10.9409001572
 30
0.0
 10
8.8379907108
 20
10.9475603855
 30
0.0
 10
8.8371178161
 20
10.9542287803
 30
0.0
 10
8.8369235779
 20
10.9586837926
 30
0.0
 10
8.8369235842
 20
10.9609023231
 30
0.0
  0
SPLINE
  5
389
100
AcDbEntity
  8
0
100
AcDbSpline
 62
7
  6
CONTINUOUS
 70
0
 71
3
 72
83
 73
79
 74
0
 42
0.0000001
 43
0.0000001
 44
0.0000000001
 40
0.0
 40
0.0
 40
0.0
 40
0.0
 40
0.0039143822
 40
0.0079857804
 40
0.0122181131
 40
0.0166147398
 40
0.0211785294
 40
0.0259117715
 40
0.0308160915
 40
0.035892667
 40
0.0411422349
 40
0.0465651519
 40
0.0521614547
 40
0.0579308042
 40
0.0699855449
 40
0.0827220231
 40
0.0961286833
 40
0.1101908315
 40
0.1248910308
 40
0.1402094086
 40
0.1561239168
 40
0.1726105576
 40
0.1896435671
 40
0.207195576
 40
0.225237747
 40
0.2437399007
 40
0.2626706435
 40
0.2819974796
 40
0.3016869149
 40
0.3217045562
 40
0.3420152036
 40
0.3625829528
 40
0.3833712885
 40
0.4043431751
 40
0.4466866874
 40
0.4893109028
 40
0.5319099063
 40
0.5741780097
 40
0.5950935753
 40
0.615813344
 40
0.6363004389
 40
0.6565185336
 40
0.6764319491
 40
0.6960057444
 40
0.7152058096
 40
0.7339989641
 40
0.7523530589
 40
0.7702370925
 40
0.7876213202
 40
0.804477372
 40
0.8207783852
 40
0.836499153
 40
0.8516163012
 40
0.8661084815
 40
0.879956593
 40
0.8931440575
 40
0.905657159
 40
0.9116576615
 40
0.9174859824
 40
0.9231414192
 40
0.9286235496
 40
0.9339322923
 40
0.939067856
 40
0.9440308767
 40
0.9488223719
 40
0.9534438278
 40
0.9578972709
 40
0.9621852608
 40
0.9663110567
 40
0.9702786074
 40
0.9740926911
 40
0.9777590139
 40
0.981284264
 40
0.9879413403
 40
0.9910954377
 40
0.9941475499
 40
0.9971108668
 40
1.0
 40
1.0
 40
1.0
 40
1.0
 10
10.807205016
 20
10.8725507491
 30
0.0
 10
10.8055499008
 20
10.8709520305
 30
0.0
 10
10.8021000648
 20
10.8677655581
 30
0.0
 10
10.7966296612
 20
10.8631083156
 30
0.0
 10
10.7907662798
 20
10.858483478
 30
0.0
 10
10.7845129842
 20
10.8538934454
 30
0.0
 10
10.7778727137
 20
10.8493402245
 30
0.0
 10
10.7708485265
 20
10.8448259561
 30
0.0
 10
10.7634437722
 20
10.8403526576
 30
0.0
 10
10.7556619465
 20
10.8359225279
 30
0.0
 10
10.7475067703
 20
10.8315376498
 30
0.0
 10
10.7389821366
 20
10.8272000884
 30
0.0
 10
10.7300920704
 20
10.8229119314
 30
0.0
 10
10.7175734099
 20
10.8171789559
 30
0.0
 10
10.7010281149
 20
10.8101667699
 30
0.0
 10
10.6800678956
 20
10.8020997171
 30
0.0
 10
10.6577609174
 20
10.7942771703
 30
0.0
 10
10.6341498691
 20
10.7867142147
 30
0.0
 10
10.6092796805
 20
10.7794254574
 30
0.0
 10
10.5831979048
 20
10.7724249961
 30
0.0
 10
10.5559544679
 20
10.7657263728
 30
0.0
 10
10.5276015889
 20
10.759342556
 30
0.0
 10
10.4981936542
 20
10.7532859062
 30
0.0
 10
10.4677871106
 20
10.7475681534
 30
0.0
 10
10.4364403563
 20
10.7422003694
 30
0.0
 10
10.4042136246
 20
10.7371929362
 30
0.0
 10
10.3711688577
 20
10.7325555414
 30
0.0
 10
10.3373695807
 20
10.7282971564
 30
0.0
 10
10.3028807783
 20
10.7244260198
 30
0.0
 10
10.2677687741
 20
10.720949624
 30
0.0
 10
10.2321010966
 20
10.7178746827
 30
0.0
 10
10.1959463688
 20
10.7152071472
 30
0.0
 10
10.1593740799
 20
10.7129521355
 30
0.0
 10
10.1099921055
 20
10.7104937097
 30
0.0
 10
10.0477395655
 20
10.708486453
 30
0.0
 10
9.9727437817
 20
10.7077772249
 30
0.0
 10
9.897795486
 20
10.7087657757
 30
0.0
 10
9.8356431566
 20
10.7110053994
 30
0.0
 10
9.7863886476
 20
10.7136488227
 30
0.0
 10
9.7499461049
 20
10.7160401979
 30
0.0
 10
9.7139441217
 20
10.7188424898
 30
0.0
 10
9.6784518942
 20
10.7220503249
 30
0.0
 10
9.6435377019
 20
10.7256574853
 30
0.0
 10
9.6092686853
 20
10.7296569969
 30
0.0
 10
9.5757107432
 20
10.7340411245
 30
0.0
 10
9.5429283997
 20
10.7388013901
 30
0.0
 10
9.5109846755
 20
10.7439285904
 30
0.0
 10
9.4799409582
 20
10.7494127991
 30
0.0
 10
9.4498568825
 20
10.7552433982
 30
0.0
 10
9.4207902177
 20
10.7614091003
 30
0.0
 10
9.3927967524
 20
10.7678979687
 30
0.0
 10
9.3659301798
 20
10.7746974464
 30
0.0
 10
9.3402419661
 20
10.7817943689
 30
0.0
 10
9.3157812752
 20
10.7891749973
 30
0.0
 10
9.2925947442
 20
10.7968250652
 30
0.0
 10
9.2707268018
 20
10.8047297996
 30
0.0
 10
9.2534028634
 20
10.8116093207
 30
0.0
 10
9.240246892
 20
10.8172408135
 30
0.0
 10
9.2308733555
 20
10.8214595051
 30
0.0
 10
9.2218595017
 20
10.8257303068
 30
0.0
 10
9.213209635
 20
10.8300512446
 30
0.0
 10
9.2049278591
 20
10.8344201781
 30
0.0
 10
9.1970181497
 20
10.8388351129
 30
0.0
 10
9.1894842409
 20
10.8432938841
 30
0.0
 10
9.18232972
 20
10.8477944152
 30
0.0
 10
9.1755579926
 20
10.8523346128
 30
0.0
 10
9.1691722276
 20
10.85691229
 30
0.0
 10
9.1631754977
 20
10.8615254212
 30
0.0
 10
9.1575705978
 20
10.8661717971
 30
0.0
 10
9.1523601833
 20
10.870849393
 30
0.0
 10
9.1475468576
 20
10.8755559961
 30
0.0
 10
9.1431325144
 20
10.8802899129
 30
0.0
 10
9.1378830872
 20
10.886515363
 30
0.0
 10
9.1333074272
 20
10.892908074
 30
0.0
 10
9.1295109253
 20
10.8994532223
 30
0.0
 10
9.1271232959
 20
10.9042911534
 30
0.0
 10
9.1251464344
 20
10.9091430471
 30
0.0
 10
9.1240914776
 20
10.912422108
 30
0.0
 10
9.1236363894
 20
10.9140584421
 30
0.0
  0
SPLINE
  5
38A
100
AcDbEntity
  8
0
100
AcDbSpline
 62
7
  6
CONTINUOUS
 70
0
 71
3
 72
15
 73
11
 74
0
 42
0.0000001
 43
0.0000001
 44
0.0000000001
 40
0.0
 40
0.0
 40
0.0
 40
0.0
 40
0.143143251
 40
0.2803170485
 40
0.4118290925
 40
0.5380567418
 40
0.659445113
 40
0.7765034852
 40
0.8898074652
 40
1.0
 40
1.0
 40
1.0
 40
1.0
 10
10.807205016
 20
10.8725507491
 30
0.0
 10
10.8089241665
 20
10.874211321
 30
0.0
 10
10.8122160279
 20
10.8775419977
 30
0.0
 10
10.8167933699
 20
10.8826781738
 30
0.0
 10
10.8208994818
 20
10.8878428158
 30
0.0
 10
10.8245315896
 20
10.893033059
 30
0.0
 10
10.8276873795
 20
10.8982463655
 30
0.0
 10
10.8303646496
 20
10.9034803092
 30
0.0
 10
10.8325611779
 20
10.9087315563
 30
0.0
 10
10.8337175787
 20
10.9122852306
 30
0.0
 10
10.8342105985
 20
10.9140579261
 30
0.0
  0
SPLINE
  5
38B
100
AcDbEntity
  8
0
100
AcDbSpline
 62
7
  6
CONTINUOUS
 70
0
 71
3
 72
41
 73
37
 74
0
 42
0.0000001
 43
0.0000001
 44
0.0000000001
 40
0.0
 40
0.0
 40
0.0
 40
0.0
 40
0.0311444435
 40
0.0624425082
 40
0.0938872491
 40
0.1254695823
 40
0.1571771047
 40
0.1889951244
 40
0.2209066755
 40
0.2528929806
 40
0.2849337954
 40
0.3170078208
 40
0.3490931155
 40
0.3811675209
 40
0.4132090884
 40
0.4451965039
 40
0.4771095035
 40
0.5089292748
 40
0.5406388381
 40
0.5722234001
 40
0.6036706745
 40
0.6349711617
 40
0.666118382
 40
0.6971090532
 40
0.7279432083
 40
0.7586242446
 40
0.7891589004
 40
0.819557156
 40
0.849832054
 40
0.8649308927
 40
0.8800050544
 40
0.9100832588
 40
0.9400926743
 40
0.955081275
 40
0.9700610362
 40
1.0
 40
1.0
 40
1.0
 40
1.0
 10
11.0622599164
 20
7.7546165197
 30
0.0
 10
11.0672367386
 20
7.7542713759
 30
0.0
 10
11.0771933693
 20
7.7532150861
 30
0.0
 10
11.0920075865
 20
7.7505543358
 30
0.0
 10
11.106663158
 20
7.7468273336
 30
0.0
 10
11.1210808634
 20
7.7420542497
 30
0.0
 10
11.1351841594
 20
7.7362605818
 30
0.0
 10
11.1488977999
 20
7.7294773641
 30
0.0
 10
11.1621487328
 20
7.7217408276
 30
0.0
 10
11.1748663496
 20
7.7130922878
 30
0.0
 10
11.1869828906
 20
7.7035778901
 30
0.0
 10
11.1984337943
 20
7.6932483799
 30
0.0
 10
11.2091580387
 20
7.6821588283
 30
0.0
 10
11.2190984628
 20
7.6703683436
 30
0.0
 10
11.228202069
 20
7.6579397586
 30
0.0
 10
11.2364203021
 20
7.644939299
 30
0.0
 10
11.243709307
 20
7.6314362351
 30
0.0
 10
11.2500301604
 20
7.6175025163
 30
0.0
 10
11.255349078
 20
7.6032123929
 30
0.0
 10
11.2596375948
 20
7.5886420256
 30
0.0
 10
11.2628727179
 20
7.5738690845
 30
0.0
 10
11.2650370515
 20
7.5589723416
 30
0.0
 10
11.2661188931
 20
7.5440312547
 30
0.0
 10
11.2661123033
 20
7.5291255533
 30
0.0
 10
11.2650171362
 20
7.5143348019
 30
0.0
 10
11.2628390777
 20
7.4997380364
 30
0.0
 10
11.2595895172
 20
7.4854131295
 30
0.0
 10
11.2552858917
 20
7.471437167
 30
0.0
 10
11.2508352286
 20
7.4601314305
 30
0.0
 10
11.2467737576
 20
7.4513394765
 30
0.0
 10
11.2423906649
 20
7.4427386809
 30
0.0
 10
11.2363049773
 20
7.4323355736
 30
0.0
 10
11.2294365613
 20
7.4224483651
 30
0.0
 10
11.2235012768
 20
7.4148908011
 30
0.0
 10
11.217282806
 20
7.4075799577
 30
0.0
 10
11.2123007514
 20
7.4023752403
 30
0.0
 10
11.2088514384
 20
7.3990434563
 30
0.0
  0
SPLINE
  5
38C
100
AcDbEntity
  8
0
100
AcDbSpline
 62
7
  6
CONTINUOUS
 70
0
 71
3
 72
19
 73
15
 74
0
 42
0.0000001
 43
0.0000001
 44
0.0000000001
 40
0.0
 40
0.0
 40
0.0
 40
0.0
 40
0.1274847103
 40
0.2540882156
 40
0.3798556622
 40
0.504861426
 40
0.5671331007
 40
0.629257493
 40
0.6912525047
 40
0.7531374363
 40
0.8149327837
 40
0.8766600671
 40
0.9383415538
 40
1.0
 40
1.0
 40
1.0
 40
1.0
 10
11.0622599164
 20
7.7546165197
 30
0.0
 10
11.0554695055
 20
7.7550874363
 30
0.0
 10
11.0418787449
 20
7.7553525433
 30
0.0
 10
11.0216314589
 20
7.7536927512
 30
0.0
 10
11.0017892431
 20
7.7499914498
 30
0.0
 10
10.9857336932
 20
7.7452272325
 30
0.0
 10
10.9733015921
 20
7.7404419022
 30
0.0
 10
10.9642113109
 20
7.7363794548
 30
0.0
 10
10.9553679804
 20
7.7318499207
 30
0.0
 10
10.9467935724
 20
7.7268645492
 30
0.0
 10
10.938509822
 20
7.7214359098
 30
0.0
 10
10.930537456
 20
7.7155776728
 30
0.0
 10
10.9228968938
 20
7.7093047805
 30
0.0
 10
10.9180362478
 20
7.7048560334
 30
0.0
 10
10.9156683944
 20
7.7025688603
 30
0.0
  0
SPLINE
  5
38D
100
AcDbEntity
  8
0
100
AcDbSpline
 62
7
  6
CONTINUOUS
 70
0
 71
3
 72
15
 73
11
 74
0
 42
0.0000001
 43
0.0000001
 44
0.0000000001
 40
0.0
 40
0.0
 40
0.0
 40
0.0
 40
0.1234394136
 40
0.2470466177
 40
0.370982561
 40
0.4953948844
 40
0.6204121622
 40
0.7461393429
 40
0.8726517211
 40
1.0
 40
1.0
 40
1.0
 40
1.0
 10
8.1669174509
 20
9.166512857
 30
0.0
 10
8.171276151
 20
9.1707230669
 30
0.0
 10
8.1795717313
 20
9.1796053346
 30
0.0
 10
8.1905891689
 20
9.1941459787
 30
0.0
 10
8.2000885348
 20
9.2097787437
 30
0.0
 10
8.2079805395
 20
9.2263571491
 30
0.0
 10
8.2141931888
 20
9.2437281298
 30
0.0
 10
8.2186695038
 20
9.2617314914
 30
0.0
 10
8.2213690493
 20
9.2801988594
 30
0.0
 10
8.2219659854
 20
9.2926703512
 30
0.0
 10
8.2219659854
 20
9.2989222942
 30
0.0
  0
SPLINE
  5
38E
100
AcDbEntity
  8
0
100
AcDbSpline
 62
7
  6
CONTINUOUS
 70
0
 71
3
 72
15
 73
11
 74
0
 42
0.0000001
 43
0.0000001
 44
0.0000000001
 40
0.0
 40
0.0
 40
0.0
 40
0.0
 40
0.1234394136
 40
0.2470466177
 40
0.370982561
 40
0.4953948844
 40
0.6204121622
 40
0.7461393429
 40
0.8726517211
 40
1.0
 40
1.0
 40
1.0
 40
1.0
 10
12.7550653976
 20
6.9164719491
 30
0.0
 10
12.7594240977
 20
6.920682159
 30
0.0
 10
12.7677196781
 20
6.9295644267
 30
0.0
 10
12.7787371156
 20
6.9441050709
 30
0.0
 10
12.7882364815
 20
6.9597378358
 30
0.0
 10
12.7961284862
 20
6.9763162413
 30
0.0
 10
12.8023411355
 20
6.9936872219
 30
0.0
 10
12.8068174506
 20
7.0116905835
 30
0.0
 10
12.809516996
 20
7.0301579516
 30
0.0
 10
12.8101139321
 20
7.0426294433
 30
0.0
 10
12.8101139321
 20
7.0488813864
 30
0.0
  0
SPLINE
  5
38F
100
AcDbEntity
  8
0
100
AcDbSpline
 62
7
  6
CONTINUOUS
 70
0
 71
3
 72
18
 73
14
 74
0
 42
0.0000001
 43
0.0000001
 44
0.0000000001
 40
0.0
 40
0.0
 40
0.0
 40
0.0
 40
0.0548620116
 40
0.1099280288
 40
0.1653995063
 40
0.2214731041
 40
0.278338737
 40
0.3361775376
 40
0.455406238
 40
0.580442112
 40
0.7123345554
 40
0.8519568421
 40
1.0
 40
1.0
 40
1.0
 40
1.0
 10
11.1209235576
 20
10.9609014597
 30
0.0
 10
11.120923553
 20
10.9592886463
 30
0.0
 10
11.1208211916
 20
10.9560560953
 30
0.0
 10
11.1203608657
 20
10.9512125298
 30
0.0
 10
11.1195939396
 20
10.9463717623
 30
0.0
 10
11.1185207574
 20
10.9415355376
 30
0.0
 10
11.1171415977
 20
10.9367051064
 30
0.0
 10
11.1148731936
 20
10.9302094822
 30
0.0
 10
11.111239342
 20
10.9220851513
 30
0.0
 10
11.1057083107
 20
10.9124903308
 30
0.0
 10
11.0989718864
 20
10.9029576198
 30
0.0
 10
11.0910402738
 20
10.893496549
 30
0.0
 10
11.0851412112
 20
10.887426143
 30
0.0
 10
11.0820109299
 20
10.8844025232
 30
0.0
  0
SPLINE
  5
390
100
AcDbEntity
  8
0
100
AcDbSpline
 62
7
  6
CONTINUOUS
 70
0
 71
3
 72
47
 73
43
 74
0
 42
0.0000001
 43
0.0000001
 44
0.0000000001
 40
0.0
 40
0.0
 40
0.0
 40
0.0
 40
0.0063158953
 40
0.0126706964
 40
0.0191025413
 40
0.0256481068
 40
0.0323419887
 40
0.0392163511
 40
0.0536141938
 40
0.0611949453
 40
0.0690567093
 40
0.0772178306
 40
0.0856942536
 40
0.094499648
 40
0.1036457893
 40
0.1131425899
 40
0.1229983503
 40
0.1332200167
 40
0.1438131323
 40
0.1547821683
 40
0.1661305713
 40
0.1899729423
 40
0.2153524409
 40
0.2422683478
 40
0.2707106917
 40
0.3006617255
 40
0.3320970385
 40
0.3649863926
 40
0.3992943516
 40
0.4349809011
 40
0.4720019229
 40
0.5103095575
 40
0.5498524869
 40
0.5905762826
 40
0.6324236706
 40
0.6753347453
 40
0.7192471563
 40
0.7640962954
 40
0.8098156376
 40
0.856336788
 40
0.9035890146
 40
1.0
 40
1.0
 40
1.0
 40
1.0
 10
13.245674762
 20
8.6223255956
 30
0.0
 10
13.2443530355
 20
8.622417258
 30
0.0
 10
13.2417076901
 20
8.6227093645
 30
0.0
 10
13.2377693117
 20
8.6234706515
 30
0.0
 10
13.2338572511
 20
8.6245550985
 30
0.0
 10
13.2299738291
 20
8.625961908
 30
0.0
 10
13.2261205105
 20
8.6276901295
 30
0.0
 10
13.2209465771
 20
8.6304636675
 30
0.0
 10
13.2159131107
 20
8.6338588374
 30
0.0
 10
13.2110420409
 20
8.6377933733
 30
0.0
 10
13.2073627221
 20
8.6411106255
 30
0.0
 10
13.2037226811
 20
8.6447413546
 30
0.0
 10
13.2001228809
 20
8.6486843092
 30
0.0
 10
13.1965647105
 20
8.6529377198
 30
0.0
 10
13.1930495482
 20
8.6574999141
 30
0.0
 10
13.1895787213
 20
8.6623690032
 30
0.0
 10
13.1861535499
 20
8.6675430012
 30
0.0
 10
13.1827754434
 20
8.6730198478
 30
0.0
 10
13.1794456862
 20
8.6787972824
 30
0.0
 10
13.1761655958
 20
8.6848729893
 30
0.0
 10
13.1717880236
 20
8.6935110511
 30
0.0
 10
13.1664646076
 20
8.7050534892
 30
0.0
 10
13.160396676
 20
8.71983191
 30
0.0
 10
13.154557667
 20
8.7357339773
 30
0.0
 10
13.1489571331
 20
8.7527337416
 30
0.0
 10
13.1436042631
 20
8.770803757
 30
0.0
 10
13.1385079182
 20
8.7899145882
 30
0.0
 10
13.1336765669
 20
8.8100350336
 30
0.0
 10
13.129118228
 20
8.8311321348
 30
0.0
 10
13.124840487
 20
8.8531712745
 30
0.0
 10
13.120850474
 20
8.8761162504
 30
0.0
 10
13.1171548495
 20
8.8999293313
 30
0.0
 10
13.113759759
 20
8.9245713185
 30
0.0
 10
13.1106708578
 20
8.9500016258
 30
0.0
 10
13.1078932978
 20
8.9761783585
 30
0.0
 10
13.1054317185
 20
9.0030583783
 30
0.0
 10
13.103290214
 20
9.0305973597
 30
0.0
 10
13.1014723454
 20
9.0587499005
 30
0.0
 10
13.0999811595
 20
9.0874695672
 30
0.0
 10
13.0988191352
 20
9.1167089671
 30
0.0
 10
13.0977039002
 20
9.1565894596
 30
0.0
 10
13.0973803972
 20
9.1867276309
 30
0.0
 10
13.0973803972
 20
9.206952003
 30
0.0
  0
SPLINE
  5
391
100
AcDbEntity
  8
0
100
AcDbSpline
 62
7
  6
CONTINUOUS
 70
0
 71
3
 72
32
 73
28
 74
0
 42
0.0000001
 43
0.0000001
 44
0.0000000001
 40
0.0
 40
0.0
 40
0.0
 40
0.0
 40
0.030992136
 40
0.0619159764
 40
0.0927761188
 40
0.1235793387
 40
0.1543344526
 40
0.185052317
 40
0.2157456281
 40
0.2464284576
 40
0.2771158425
 40
0.3078236341
 40
0.3385678691
 40
0.3693641888
 40
0.4002276167
 40
0.4311720938
 40
0.4622098407
 40
0.4933511078
 40
0.5559545551
 40
0.6190268267
 40
0.6507384626
 40
0.6825484323
 40
0.7463790904
 40
0.8103434167
 40
0.8741672979
 40
0.9375095478
 40
1.0
 40
1.0
 40
1.0
 40
1.0
 10
11.0357327347
 20
7.7546052452
 30
0.0
 10
11.0353550645
 20
7.7510378611
 30
0.0
 10
11.0348066649
 20
7.7438873468
 30
0.0
 10
11.0346117003
 20
7.7331444934
 30
0.0
 10
11.0350460798
 20
7.7224301384
 30
0.0
 10
11.036107576
 20
7.7117793715
 30
0.0
 10
11.0377905961
 20
7.7012256657
 30
0.0
 10
11.0400863132
 20
7.6908011904
 30
0.0
 10
11.0429829415
 20
7.6805362486
 30
0.0
 10
11.0464662158
 20
7.6704591219
 30
0.0
 10
11.050519746
 20
7.6605958954
 30
0.0
 10
11.0551252403
 20
7.6509703119
 30
0.0
 10
11.0602630681
 20
7.6416038488
 30
0.0
 10
11.0659126477
 20
7.6325158739
 30
0.0
 10
11.0720526507
 20
7.6237237097
 30
0.0
 10
11.078661192
 20
7.6152429242
 30
0.0
 10
11.0857164587
 20
7.6070873791
 30
0.0
 10
11.095705002
 20
7.5966475748
 30
0.0
 10
11.1092072696
 20
7.5844714313
 30
0.0
 10
11.1238440807
 20
7.5735797431
 30
0.0
 10
11.1361689432
 20
7.5656464616
 30
0.0
 10
11.1489111139
 20
7.5582264174
 30
0.0
 10
11.165477176
 20
7.5499922227
 30
0.0
 10
11.1861396561
 20
7.5418573544
 30
0.0
 10
11.2073691418
 20
7.5355348855
 30
0.0
 10
11.2288954989
 20
7.531098381
 30
0.0
 10
11.2433870212
 20
7.529421603
 30
0.0
 10
11.2506029196
 20
7.5289211787
 30
0.0
  0
SPLINE
  5
392
100
AcDbEntity
  8
0
100
AcDbSpline
 62
7
  6
CONTINUOUS
 70
0
 71
3
 72
11
 73
7
 74
0
 42
0.0000001
 43
0.0000001
 44
0.0000000001
 40
0.0
 40
0.0
 40
0.0
 40
0.0
 40
0.2467504967
 40
0.4948140803
 40
0.7454812724
 40
1.0
 40
1.0
 40
1.0
 40
1.0
 10
13.3538786849
 20
10.1825781108
 30
0.0
 10
13.3551066172
 20
10.1824929531
 30
0.0
 10
13.3575635441
 20
10.1822288629
 30
0.0
 10
13.3612238987
 20
10.1815539082
 30
0.0
 10
13.3648616965
 20
10.1806001823
 30
0.0
 10
13.3672492635
 20
10.179786133
 30
0.0
 10
13.3684361282
 20
10.1793352243
 30
0.0
  0
SPLINE
  5
393
100
AcDbEntity
  8
0
100
AcDbSpline
 62
7
  6
CONTINUOUS
 70
0
 71
3
 72
93
 73
89
 74
0
 42
0.0000001
 43
0.0000001
 44
0.0000000001
 40
0.0
 40
0.0
 40
0.0
 40
0.0
 40
0.0039802005
 40
0.0081241083
 40
0.0124359116
 40
0.0169192331
 40
0.0215771071
 40
0.0264118291
 40
0.0314250775
 40
0.0366180274
 40
0.0419913947
 40
0.0475454967
 40
0.0532802394
 40
0.0591952227
 40
0.0652896963
 40
0.071562666
 40
0.0780128361
 40
0.0846387029
 40
0.0984099586
 40
0.1128604728
 40
0.1279709419
 40
0.1437194762
 40
0.1600818774
 40
0.1770318697
 40
0.1945412988
 40
0.2125803054
 40
0.2311174799
 40
0.2501200027
 40
0.2695537746
 40
0.2893835385
 40
0.3095729955
 40
0.3300849166
 40
0.3508812506
 40
0.3719232299
 40
0.3931714738
 40
0.4145860912
 40
0.4361267819
 40
0.4577529372
 40
0.47942374
 40
0.5010982647
 40
0.5227355766
 40
0.5442948315
 40
0.5657353757
 40
0.5870168455
 40
0.608099268
 40
0.628943162
 40
0.6495096405
 40
0.6697605141
 40
0.6896583964
 40
0.7091668111
 40
0.7282503034
 40
0.7468745548
 40
0.7650065038
 40
0.7826144744
 40
0.7996683149
 40
0.8161395488
 40
0.8320015451
 40
0.8472297111
 40
0.8618017176
 40
0.8756977675
 40
0.8823870871
 40
0.8889013284
 40
0.8952388858
 40
0.9013983901
 40
0.9073787355
 40
0.9131790737
 40
0.918798886
 40
0.9242379489
 40
0.9294964425
 40
0.9345749072
 40
0.9394743702
 40
0.9441963202
 40
0.9487428314
 40
0.9531165822
 40
0.9573209639
 40
0.9613601573
 40
0.9652392239
 40
0.9689642405
 40
0.9725423751
 40
0.9759820598
 40
0.97929305
 40
0.982486587
 40
0.9855754179
 40
0.9885738696
 40
0.9914977727
 40
0.9943643586
 40
0.997192021
 40
1.0
 40
1.0
 40
1.0
 40
1.0
 10
8.8758362119
 20
11.0374012596
 30
0.0
 10
8.8780980376
 20
11.0395860156
 30
0.0
 10
8.8828174284
 20
11.0439400586
 30
0.0
 10
8.8903103525
 20
11.0502994366
 30
0.0
 10
8.8983534937
 20
11.0566131634
 30
0.0
 10
8.9069424529
 20
11.0628779587
 30
0.0
 10
8.9160730835
 20
11.0690908482
 30
0.0
 10
8.9257408562
 20
11.0752488679
 30
0.0
 10
8.9359409705
 20
11.0813489524
 30
0.0
 10
8.9466683227
 20
11.0873880461
 30
0.0
 10
8.9579175363
 20
11.0933631794
 30
0.0
 10
8.9696830031
 20
11.0992713125
 30
0.0
 10
8.9819588036
 20
11.1051095527
 30
0.0
 10
8.9947387982
 20
11.1108748764
 30
0.0
 10
9.0080165402
 20
11.1165644704
 30
0.0
 10
9.0217853668
 20
11.1221753656
 30
0.0
 10
9.0360383444
 20
11.1277048481
 30
0.0
 10
9.0559347417
 20
11.1350597451
 30
0.0
 10
9.0819760042
 20
11.1440108682
 30
0.0
 10
9.1146487673
 20
11.1542503797
 30
0.0
 10
9.1490686296
 20
11.1641007579
 30
0.0
 10
9.1851661163
 20
11.1735419534
 30
0.0
 10
9.2228686168
 20
11.1825547385
 30
0.0
 10
9.2621000948
 20
11.1911207535
 30
0.0
 10
9.3027813889
 20
11.1992225488
 30
0.0
 10
9.3448303496
 20
11.206843622
 30
0.0
 10
9.3881620254
 20
11.2139684531
 30
0.0
 10
9.4326888392
 20
11.2205825355
 30
0.0
 10
9.4783207724
 20
11.2266724059
 30
0.0
 10
9.5249655509
 20
11.2322256704
 30
0.0
 10
9.5725288363
 20
11.2372310298
 30
0.0
 10
9.6209144188
 20
11.2416783013
 30
0.0
 10
9.6700244145
 20
11.2455584392
 30
0.0
 10
9.7197594656
 20
11.2488635521
 30
0.0
 10
9.7700189427
 20
11.251586919
 30
0.0
 10
9.8207011496
 20
11.2537230031
 30
0.0
 10
9.8717035312
 20
11.2552674622
 30
0.0
 10
9.9229228817
 20
11.2562171568
 30
0.0
 10
9.9742555548
 20
11.2565701566
 30
0.0
 10
10.0255976738
 20
11.2563257441
 30
0.0
 10
10.0768453433
 20
11.2554844163
 30
0.0
 10
10.1278948594
 20
11.2540478832
 30
0.0
 10
10.178642921
 20
11.2520190651
 30
0.0
 10
10.2289868393
 20
11.2494020864
 30
0.0
 10
10.2788247469
 20
11.2462022674
 30
0.0
 10
10.3280558047
 20
11.2424261142
 30
0.0
 10
10.376580408
 20
11.2380813057
 30
0.0
 10
10.4243003896
 20
11.2331766791
 30
0.0
 10
10.4711192207
 20
11.2277222121
 30
0.0
 10
10.5169422079
 20
11.2217290028
 30
0.0
 10
10.5616766878
 20
11.2152092479
 30
0.0
 10
10.6052322181
 20
11.2081762184
 30
0.0
 10
10.6475207644
 20
11.2006442334
 30
0.0
 10
10.6884568851
 20
11.1926286312
 30
0.0
 10
10.727957908
 20
11.184145738
 30
0.0
 10
10.7659441177
 20
11.1752128343
 30
0.0
 10
10.802338892
 20
11.1658481168
 30
0.0
 10
10.8370690007
 20
11.1560706602
 30
0.0
 10
10.8700643267
 20
11.1459003611
 30
0.0
 10
10.8963833089
 20
11.1370058596
 30
0.0
 10
10.9165079657
 20
11.1296945303
 30
0.0
 10
10.9309352081
 20
11.124195388
 30
0.0
 10
10.9448808758
 20
11.1186137756
 30
0.0
 10
10.9583379574
 20
11.1129524602
 30
0.0
 10
10.9712996853
 20
11.1072143449
 30
0.0
 10
10.983759528
 20
11.1014022655
 30
0.0
 10
10.9957112493
 20
11.0955192212
 30
0.0
 10
11.007148826
 20
11.0895680799
 30
0.0
 10
11.0180665624
 20
11.0835519179
 30
0.0
 10
11.0284589622
 20
11.077473641
 30
0.0
 10
11.0383208742
 20
11.0713363612
 30
0.0
 10
11.0476473488
 20
11.0651430324
 30
0.0
 10
11.056433773
 20
11.0588967548
 30
0.0
 10
11.0646757602
 20
11.0526005298
 30
0.0
 10
11.0723692158
 20
11.0462574017
 30
0.0
 10
11.0795103188
 20
11.039870404
 30
0.0
 10
11.0860954543
 20
11.033442492
 30
0.0
 10
11.09212134
 20
11.0269767042
 30
0.0
 10
11.0975847758
 20
11.0204759028
 30
0.0
 10
11.1024829442
 20
11.013943116
 30
0.0
 10
11.1068129752
 20
11.0073811749
 30
0.0
 10
11.1105723991
 20
11.0007931449
 30
0.0
 10
11.1137586222
 20
10.9941820034
 30
0.0
 10
11.1163694447
 20
10.9875510158
 30
0.0
 10
11.1184026452
 20
10.9809036257
 30
0.0
 10
11.1198564309
 20
10.9742433973
 30
0.0
 10
11.1207293257
 20
10.9675750025
 30
0.0
 10
11.1209235639
 20
10.9631199902
 30
0.0
 10
11.1209235576
 20
10.9609014597
 30
0.0
  0
SPLINE
  5
394
100
AcDbEntity
  8
0
100
AcDbSpline
 62
7
  6
CONTINUOUS
 70
0
 71
3
 72
41
 73
37
 74
0
 42
0.0000001
 43
0.0000001
 44
0.0000000001
 40
0.0
 40
0.0
 40
0.0
 40
0.0
 40
0.0310748272
 40
0.0623072483
 40
0.0936920359
 40
0.1252208484
 40
0.156882237
 40
0.188662033
 40
0.2205436266
 40
0.2525083437
 40
0.2845358343
 40
0.3166044929
 40
0.3486918936
 40
0.3807752384
 40
0.4128318095
 40
0.4448394218
 40
0.4767768664
 40
0.5086243418
 40
0.5403638639
 40
0.5719796493
 40
0.6034584635
 40
0.6347899281
 40
0.6659667781
 40
0.6969850622
 40
0.7278442783
 40
0.7585474376
 40
0.7891010512
 40
0.8195150346
 40
0.8498025274
 40
0.8649066426
 40
0.8799854039
 40
0.9100708284
 40
0.9400854823
 40
0.9550762294
 40
0.970057877
 40
1.0
 40
1.0
 40
1.0
 40
1.0
 10
12.4179480234
 20
7.0760781845
 30
0.0
 10
12.4179480234
 20
7.0712188327
 30
0.0
 10
12.4183105308
 20
7.0614717467
 30
0.0
 10
12.4199289853
 20
7.0468977891
 30
0.0
 10
12.4226144641
 20
7.0324093889
 30
0.0
 10
12.4263520522
 20
7.0180871836
 30
0.0
 10
12.4311210949
 20
7.0040095134
 30
0.0
 10
12.436895283
 20
6.9902537273
 30
0.0
 10
12.4436428191
 20
6.976895294
 30
0.0
 10
12.4513265823
 20
6.9640075201
 30
0.0
 10
12.4599043363
 20
6.9516611192
 30
0.0
 10
12.4693289583
 20
6.939923838
 30
0.0
 10
12.4795486964
 20
6.9288600859
 30
0.0
 10
12.4905074508
 20
6.9185305862
 30
0.0
 10
12.5021450791
 20
6.9089920465
 30
0.0
 10
12.5143977225
 20
6.9002968499
 30
0.0
 10
12.5271981526
 20
6.8924927701
 30
0.0
 10
12.5404761357
 20
6.8856227111
 30
0.0
 10
12.5541588134
 20
6.8797244724
 30
0.0
 10
12.5681710969
 20
6.8748305422
 30
0.0
 10
12.5824360738
 20
6.8709679179
 30
0.0
 10
12.5968754233
 20
6.8681579559
 30
0.0
 10
12.6114098419
 20
6.8664162511
 30
0.0
 10
12.6259594688
 20
6.8657525447
 30
0.0
 10
12.6404443349
 20
6.8661706706
 30
0.0
 10
12.6547847399
 20
6.8676685003
 30
0.0
 10
12.6689019074
 20
6.8702380417
 30
0.0
 10
12.6827176042
 20
6.8738651124
 30
0.0
 10
12.6939284557
 20
6.877756909
 30
0.0
 10
12.7026667702
 20
6.8813761825
 30
0.0
 10
12.7112282041
 20
6.88532116
 30
0.0
 10
12.7216089713
 20
6.8908664614
 30
0.0
 10
12.7315083948
 20
6.8972060519
 30
0.0
 10
12.7390951193
 20
6.902726757
 30
0.0
 10
12.7464476832
 20
6.9085365804
 30
0.0
 10
12.7516976974
 20
6.9132189783
 30
0.0
 10
12.7550653976
 20
6.9164719491
 30
0.0
  0
SPLINE
  5
395
100
AcDbEntity
  8
0
100
AcDbSpline
 62
7
  6
CONTINUOUS
 70
0
 71
3
 72
39
 73
35
 74
0
 42
0.0000001
 43
0.0000001
 44
0.0000000001
 40
0.0
 40
0.0
 40
0.0
 40
0.0
 40
0.0314025546
 40
0.0630095408
 40
0.0948070962
 40
0.1267734469
 40
0.1588809717
 40
0.1910970219
 40
0.2233851129
 40
0.2557062438
 40
0.2880202662
 40
0.3202872752
 40
0.3524690058
 40
0.3845301834
 40
0.4164397919
 40
0.4481722495
 40
0.4797084082
 40
0.5110363786
 40
0.5421521204
 40
0.5730597414
 40
0.6037715192
 40
0.6343075557
 40
0.6646951109
 40
0.6949675898
 40
0.7251632178
 40
0.7553234777
 40
0.7854913538
 40
0.8157095099
 40
0.8460184679
 40
0.8764549221
 40
0.9070502461
 40
0.9378292796
 40
0.9688091728
 40
1.0
 40
1.0
 40
1.0
 40
1.0
 10
11.044401417
 20
7.8040154189
 30
0.0
 10
11.0532785035
 20
7.8033997909
 30
0.0
 10
11.071041581
 20
7.8012896849
 30
0.0
 10
11.0973282221
 20
7.7955587721
 30
0.0
 10
11.1231053352
 20
7.7873067815
 30
0.0
 10
11.1481221486
 20
7.7766138438
 30
0.0
 10
11.1721394807
 20
7.7635832827
 30
0.0
 10
11.19492661
 20
7.7483405569
 30
0.0
 10
11.2162650883
 20
7.7310324092
 30
0.0
 10
11.2359501081
 20
7.7118250573
 30
0.0
 10
11.2537927664
 20
7.6909029489
 30
0.0
 10
11.2696217451
 20
7.6684668797
 30
0.0
 10
11.2832847882
 20
7.6447320416
 30
0.0
 10
11.2946504942
 20
7.6199262075
 30
0.0
 10
11.3036091135
 20
7.5942873365
 30
0.0
 10
11.3100740113
 20
7.5680615593
 30
0.0
 10
11.3139823013
 20
7.541500747
 30
0.0
 10
11.315295414
 20
7.5148601899
 30
0.0
 10
11.3139998683
 20
7.4883962065
 30
0.0
 10
11.3101069599
 20
7.4623637096
 30
0.0
 10
11.3036532613
 20
7.437013768
 30
0.0
 10
11.2947000278
 20
7.4125911834
 30
0.0
 10
11.2833327723
 20
7.3893321355
 30
0.0
 10
11.269660758
 20
7.3674616823
 30
0.0
 10
11.2538155733
 20
7.3471917183
 30
0.0
 10
11.2359503479
 20
7.3287185142
 30
0.0
 10
11.2162378726
 20
7.3122209294
 30
0.0
 10
11.1948690025
 20
7.2978585156
 30
0.0
 10
11.1720507801
 20
7.285769747
 30
0.0
 10
11.1480040038
 20
7.2760710558
 30
0.0
 10
11.1229615949
 20
7.268855218
 30
0.0
 10
11.0971647225
 20
7.2641911145
 30
0.0
 10
11.0708655299
 20
7.2621223876
 30
0.0
 10
11.0532186509
 20
7.2624854469
 30
0.0
 10
11.044401417
 20
7.2630969241
 30
0.0
  0
SPLINE
  5
396
100
AcDbEntity
  8
0
100
AcDbSpline
 62
7
  6
CONTINUOUS
 70
0
 71
3
 72
11
 73
7
 74
0
 42
0.0000001
 43
0.0000001
 44
0.0000000001
 40
0.0
 40
0.0
 40
0.0
 40
0.0
 40
0.2545149704
 40
0.5051815903
 40
0.7532467758
 40
1.0
 40
1.0
 40
1.0
 40
1.0
 10
13.2605340707
 20
8.6235265008
 30
0.0
 10
13.2592968541
 20
8.6232440164
 30
0.0
 10
13.2568208348
 20
8.6227678119
 30
0.0
 10
13.2530878345
 20
8.6223258575
 30
0.0
 10
13.2493709618
 20
8.622162882
 30
0.0
 10
13.2469021682
 20
8.6222404745
 30
0.0
 10
13.245674762
 20
8.6223255956
 30
0.0
  0
SPLINE
  5
397
100
AcDbEntity
  8
0
100
AcDbSpline
 62
7
  6
CONTINUOUS
 70
0
 71
3
 72
15
 73
11
 74
0
 42
0.0000001
 43
0.0000001
 44
0.0000000001
 40
0.0
 40
0.0
 40
0.0
 40
0.0
 40
0.1234394136
 40
0.2470466177
 40
0.370982561
 40
0.4953948844
 40
0.6204121622
 40
0.7461393429
 40
0.8726517211
 40
1.0
 40
1.0
 40
1.0
 40
1.0
 10
7.8848486111
 20
9.4585285296
 30
0.0
 10
7.880489911
 20
9.4543183197
 30
0.0
 10
7.8721943307
 20
9.4454360521
 30
0.0
 10
7.8611768931
 20
9.4308954079
 30
0.0
 10
7.8516775272
 20
9.4152626429
 30
0.0
 10
7.8437855225
 20
9.3986842375
 30
0.0
 10
7.8375728732
 20
9.3813132569
 30
0.0
 10
7.8330965582
 20
9.3633098953
 30
0.0
 10
7.8303970127
 20
9.3448425272
 30
0.0
 10
7.8298000766
 20
9.3323710354
 30
0.0
 10
7.8298000766
 20
9.3261190924
 30
0.0
  0
SPLINE
  5
398
100
AcDbEntity
  8
0
100
AcDbSpline
 62
7
  6
CONTINUOUS
 70
0
 71
3
 72
39
 73
35
 74
0
 42
0.0000001
 43
0.0000001
 44
0.0000000001
 40
0.0
 40
0.0
 40
0.0
 40
0.0
 40
0.0314025546
 40
0.0630095408
 40
0.0948070962
 40
0.1267734469
 40
0.1588809717
 40
0.1910970219
 40
0.2233851129
 40
0.2557062438
 40
0.2880202662
 40
0.3202872752
 40
0.3524690058
 40
0.3845301834
 40
0.4164397919
 40
0.4481722495
 40
0.4797084082
 40
0.5110363786
 40
0.5421521204
 40
0.5730597414
 40
0.6037715192
 40
0.6343075557
 40
0.6646951109
 40
0.6949675898
 40
0.7251632178
 40
0.7553234777
 40
0.7854913538
 40
0.8157095099
 40
0.8460184679
 40
0.8764549221
 40
0.9070502461
 40
0.9378292796
 40
0.9688091728
 40
1.0
 40
1.0
 40
1.0
 40
1.0
 10
11.044401417
 20
7.2630969241
 30
0.0
 10
11.0355243305
 20
7.2637125522
 30
0.0
 10
11.017761253
 20
7.2658226581
 30
0.0
 10
10.9914746119
 20
7.271553571
 30
0.0
 10
10.9656974988
 20
7.2798055615
 30
0.0
 10
10.9406806854
 20
7.2904984992
 30
0.0
 10
10.9166633533
 20
7.3035290603
 30
0.0
 10
10.893876224
 20
7.3187717861
 30
0.0
 10
10.8725377458
 20
7.3360799339
 30
0.0
 10
10.8528527259
 20
7.3552872857
 30
0.0
 10
10.8350100676
 20
7.3762093942
 30
0.0
 10
10.8191810889
 20
7.3986454634
 30
0.0
 10
10.8055180458
 20
7.4223803015
 30
0.0
 10
10.7941523398
 20
7.4471861355
 30
0.0
 10
10.7851937206
 20
7.4728250066
 30
0.0
 10
10.7787288227
 20
7.4990507838
 30
0.0
 10
10.7748205327
 20
7.525611596
 30
0.0
 10
10.77350742
 20
7.5522521531
 30
0.0
 10
10.7748029657
 20
7.5787161365
 30
0.0
 10
10.7786958741
 20
7.6047486334
 30
0.0
 10
10.7851495727
 20
7.6300985751
 30
0.0
 10
10.7941028062
 20
7.6545211597
 30
0.0
 10
10.8054700617
 20
7.6777802075
 30
0.0
 10
10.819142076
 20
7.6996506607
 30
0.0
 10
10.8349872607
 20
7.7199206248
 30
0.0
 10
10.8528524861
 20
7.7383938289
 30
0.0
 10
10.8725649614
 20
7.7548914136
 30
0.0
 10
10.8939338315
 20
7.7692538275
 30
0.0
 10
10.9167520539
 20
7.781342596
 30
0.0
 10
10.9407988302
 20
7.7910412873
 30
0.0
 10
10.9658412391
 20
7.798257125
 30
0.0
 10
10.9916381115
 20
7.8029212286
 30
0.0
 10
11.0179373041
 20
7.8049899554
 30
0.0
 10
11.0355841831
 20
7.8046268962
 30
0.0
 10
11.044401417
 20
7.8040154189
 30
0.0
  0
SPLINE
  5
399
100
AcDbEntity
  8
0
100
AcDbSpline
 62
7
  6
CONTINUOUS
 70
0
 71
3
 72
15
 73
11
 74
0
 42
0.0000001
 43
0.0000001
 44
0.0000000001
 40
0.0
 40
0.0
 40
0.0
 40
0.0
 40
0.1234394136
 40
0.2470466177
 40
0.370982561
 40
0.4953948844
 40
0.6204121622
 40
0.7461393429
 40
0.8726517211
 40
1.0
 40
1.0
 40
1.0
 40
1.0
 10
12.4729965579
 20
7.2084876218
 30
0.0
 10
12.4686378577
 20
7.2042774119
 30
0.0
 10
12.4603422774
 20
7.1953951442
 30
0.0
 10
12.4493248398
 20
7.1808545
 30
0.0
 10
12.439825474
 20
7.1652217351
 30
0.0
 10
12.4319334693
 20
7.1486433296
 30
0.0
 10
12.4257208199
 20
7.131272349
 30
0.0
 10
12.4212445049
 20
7.1132689874
 30
0.0
 10
12.4185449595
 20
7.0948016193
 30
0.0
 10
12.4179480234
 20
7.0823301276
 30
0.0
 10
12.4179480234
 20
7.0760781845
 30
0.0
  0
SPLINE
  5
39A
100
AcDbEntity
  8
0
100
AcDbSpline
 62
7
  6
CONTINUOUS
 70
0
 71
3
 72
18
 73
14
 74
0
 42
0.0000001
 43
0.0000001
 44
0.0000000001
 40
0.0
 40
0.0
 40
0.0
 40
0.0
 40
0.0548620116
 40
0.1099280288
 40
0.1653995063
 40
0.2214731041
 40
0.278338737
 40
0.3361775376
 40
0.455406238
 40
0.580442112
 40
0.7123345554
 40
0.8519568421
 40
1.0
 40
1.0
 40
1.0
 40
1.0
 10
8.8369235842
 20
10.9609023231
 30
0.0
 10
8.8369235888
 20
10.9625151365
 30
0.0
 10
8.8370259502
 20
10.9657476875
 30
0.0
 10
8.837486276
 20
10.9705912531
 30
0.0
 10
8.8382532022
 20
10.9754320205
 30
0.0
 10
8.8393263843
 20
10.9802682452
 30
0.0
 10
8.8407055441
 20
10.9850986765
 30
0.0
 10
8.8429739481
 20
10.9915943006
 30
0.0
 10
8.8466077997
 20
10.9997186315
 30
0.0
 10
8.8521388311
 20
11.009313452
 30
0.0
 10
8.8588752554
 20
11.018846163
 30
0.0
 10
8.866806868
 20
11.0283072338
 30
0.0
 10
8.8727059306
 20
11.0343776398
 30
0.0
 10
8.8758362119
 20
11.0374012596
 30
0.0
  0
SPLINE
  5
39B
100
AcDbEntity
  8
0
100
AcDbSpline
 62
7
  6
CONTINUOUS
 70
0
 71
3
 72
15
 73
11
 74
0
 42
0.0000001
 43
0.0000001
 44
0.0000000001
 40
0.0
 40
0.0
 40
0.0
 40
0.0
 40
0.1096892975
 40
0.2223041454
 40
0.338680552
 40
0.4595654829
 40
0.5856147516
 40
0.7173970292
 40
0.8553957091
 40
1.0
 40
1.0
 40
1.0
 40
1.0
 10
8.8385434342
 20
10.9457294841
 30
0.0
 10
8.8390771953
 20
10.9483204916
 30
0.0
 10
8.8404174478
 20
10.9535215684
 30
0.0
 10
8.843183834
 20
10.9612180289
 30
0.0
 10
8.8467244203
 20
10.9688885832
 30
0.0
 10
8.8510349117
 20
10.9765272516
 30
0.0
 10
8.8561113557
 20
10.984129642
 30
0.0
 10
8.8619495288
 20
10.9916914453
 30
0.0
 10
8.8685447075
 20
10.9992078191
 30
0.0
 10
8.8733278317
 20
11.0040687212
 30
0.0
 10
8.8758362119
 20
11.0064916306
 30
0.0
  0
SPLINE
  5
39C
100
AcDbEntity
  8
0
100
AcDbSpline
 62
7
  6
CONTINUOUS
 70
0
 71
3
 72
23
 73
19
 74
0
 42
0.0000001
 43
0.0000001
 44
0.0000000001
 40
0.0
 40
0.0
 40
0.0
 40
0.0
 40
0.0576486452
 40
0.1144815805
 40
0.1708262518
 40
0.2270194239
 40
0.2834008694
 40
0.3403066475
 40
0.3980628733
 40
0.4569799795
 40
0.5173488727
 40
0.5794369557
 40
0.643487168
 40
0.7097184019
 40
0.7783258092
 40
0.8494818262
 40
0.9233324249
 40
1.0
 40
1.0
 40
1.0
 40
1.0
 10
9.1236363894
 20
10.9140584421
 30
0.0
 10
9.1232123228
 20
10.9155832337
 30
0.0
 10
9.1224828264
 20
10.918644056
 30
0.0
 10
9.1217532765
 20
10.9232814724
 30
0.0
 10
9.1213984275
 20
10.9279228228
 30
0.0
 10
9.1214188212
 20
10.9325652497
 30
0.0
 10
9.1218142748
 20
10.9372062727
 30
0.0
 10
9.1225845108
 20
10.9418433489
 30
0.0
 10
9.1237289172
 20
10.9464740398
 30
0.0
 10
9.1252464963
 20
10.9510960864
 30
0.0
 10
9.1271362981
 20
10.9557072845
 30
0.0
 10
9.1293969833
 20
10.96030563
 30
0.0
 10
9.1320272035
 20
10.9648892023
 30
0.0
 10
9.1350256226
 20
10.96945613
 30
0.0
 10
9.1383906926
 20
10.9740047211
 30
0.0
 10
9.1421209226
 20
10.9785331396
 30
0.0
 10
9.1462142968
 20
10.9830394034
 30
0.0
 10
9.1491282381
 20
10.9859714724
 30
0.0
 10
9.1506421258
 20
10.9874337757
 30
0.0
  0
SPLINE
  5
39D
100
AcDbEntity
  8
0
100
AcDbSpline
 62
7
  6
CONTINUOUS
 70
0
 71
3
 72
19
 73
15
 74
0
 42
0.0000001
 43
0.0000001
 44
0.0000000001
 40
0.0
 40
0.0
 40
0.0
 40
0.0
 40
0.0616584462
 40
0.1233399329
 40
0.1850672163
 40
0.2468625637
 40
0.3087474953
 40
0.370742507
 40
0.4328668993
 40
0.495138574
 40
0.6201443378
 40
0.7459117844
 40
0.8725152897
 40
1.0
 40
1.0
 40
1.0
 40
1.0
 10
11.2088514384
 20
7.3990434563
 30
0.0
 10
11.2064835849
 20
7.3967562832
 30
0.0
 10
11.201622939
 20
7.3923075362
 30
0.0
 10
11.1939823768
 20
7.3860346438
 30
0.0
 10
11.1860100107
 20
7.3801764068
 30
0.0
 10
11.1777262603
 20
7.3747477674
 30
0.0
 10
11.1691518523
 20
7.3697623959
 30
0.0
 10
11.1603085218
 20
7.3652328618
 30
0.0
 10
11.1512182406
 20
7.3611704145
 30
0.0
 10
11.1387861396
 20
7.3563850842
 30
0.0
 10
11.1227305897
 20
7.3516208668
 30
0.0
 10
11.1028883739
 20
7.3479195654
 30
0.0
 10
11.0826410878
 20
7.3462597733
 30
0.0
 10
11.0690503272
 20
7.3465248803
 30
0.0
 10
11.0622599164
 20
7.3469957969
 30
0.0
  0
SPLINE
  5
39E
100
AcDbEntity
  8
0
100
AcDbSpline
 62
7
  6
CONTINUOUS
 70
0
 71
3
 72
41
 73
37
 74
0
 42
0.0000001
 43
0.0000001
 44
0.0000000001
 40
0.0
 40
0.0
 40
0.0
 40
0.0
 40
0.0299389638
 40
0.044918725
 40
0.0599073257
 40
0.0899167412
 40
0.1199949456
 40
0.1350691073
 40
0.150167946
 40
0.180442844
 40
0.2108410996
 40
0.2413757554
 40
0.2720567917
 40
0.3028909468
 40
0.333881618
 40
0.3650288383
 40
0.3963293255
 40
0.4277765999
 40
0.4593611619
 40
0.4910707252
 40
0.5228904965
 40
0.5548034961
 40
0.5867909116
 40
0.6188324791
 40
0.6509068845
 40
0.6829921792
 40
0.7150662046
 40
0.7471070194
 40
0.7790933245
 40
0.8110048756
 40
0.8428228953
 40
0.8745304177
 40
0.9061127509
 40
0.9375574918
 40
0.9688555565
 40
1.0
 40
1.0
 40
1.0
 40
1.0
 10
10.9156683944
 20
7.7025688603
 30
0.0
 10
10.9122190814
 20
7.6992370764
 30
0.0
 10
10.9072370267
 20
7.6940323589
 30
0.0
 10
10.9010185559
 20
7.6867215155
 30
0.0
 10
10.8950832714
 20
7.6791639515
 30
0.0
 10
10.8882148554
 20
7.669276743
 30
0.0
 10
10.8821291679
 20
7.6588736358
 30
0.0
 10
10.8777460752
 20
7.6502728401
 30
0.0
 10
10.8736846042
 20
7.6414808861
 30
0.0
 10
10.8692339411
 20
7.6301751496
 30
0.0
 10
10.8649303155
 20
7.6161991872
 30
0.0
 10
10.8616807551
 20
7.6018742802
 30
0.0
 10
10.8595026966
 20
7.5872775147
 30
0.0
 10
10.8584075294
 20
7.5724867634
 30
0.0
 10
10.8584009396
 20
7.5575810619
 30
0.0
 10
10.8594827813
 20
7.542639975
 30
0.0
 10
10.8616471149
 20
7.5277432321
 30
0.0
 10
10.8648822379
 20
7.512970291
 30
0.0
 10
10.8691707548
 20
7.4983999237
 30
0.0
 10
10.8744896724
 20
7.4841098004
 30
0.0
 10
10.8808105258
 20
7.4701760816
 30
0.0
 10
10.8880995306
 20
7.4566730176
 30
0.0
 10
10.8963177638
 20
7.443672558
 30
0.0
 10
10.9054213699
 20
7.431243973
 30
0.0
 10
10.9153617941
 20
7.4194534883
 30
0.0
 10
10.9260860384
 20
7.4083639367
 30
0.0
 10
10.9375369421
 20
7.3980344265
 30
0.0
 10
10.9496534832
 20
7.3885200288
 30
0.0
 10
10.9623711
 20
7.379871489
 30
0.0
 10
10.9756220328
 20
7.3721349525
 30
0.0
 10
10.9893356733
 20
7.3653517348
 30
0.0
 10
11.0034389694
 20
7.3595580669
 30
0.0
 10
11.0178566748
 20
7.354784983
 30
0.0
 10
11.0325122463
 20
7.3510579808
 30
0.0
 10
11.0473264635
 20
7.3483972305
 30
0.0
 10
11.0572830941
 20
7.3473409407
 30
0.0
 10
11.0622599164
 20
7.3469957969
 30
0.0
  0
SPLINE
  5
39F
100
AcDbEntity
  8
0
100
AcDbSpline
 62
7
  6
CONTINUOUS
 70
0
 71
3
 72
92
 73
88
 74
0
 42
0.0000001
 43
0.0000001
 44
0.0000000001
 40
0.0
 40
0.0
 40
0.0
 40
0.0
 40
0.0028487077
 40
0.0057581401
 40
0.0087443539
 40
0.0118220516
 40
0.0150045146
 40
0.0183035422
 40
0.0217295417
 40
0.0252915458
 40
0.0289973667
 40
0.032853662
 40
0.0368660692
 40
0.0410393127
 40
0.0453772764
 40
0.0498831441
 40
0.0545594102
 40
0.0594080304
 40
0.0644304034
 40
0.0696274945
 40
0.0749998333
 40
0.0805475768
 40
0.0862705517
 40
0.0921682498
 40
0.0982399142
 40
0.1044844861
 40
0.1109007086
 40
0.1174870656
 40
0.1311628594
 40
0.1454963677
 40
0.1604689929
 40
0.1760597377
 40
0.1922454568
 40
0.2090010686
 40
0.2262997361
 40
0.2441130264
 40
0.262411051
 40
0.2811625972
 40
0.3003352481
 40
0.3198954954
 40
0.339808846
 40
0.3600399251
 40
0.3805525756
 40
0.4013099554
 40
0.4222746323
 40
0.4434086788
 40
0.4646737651
 40
0.4860312526
 40
0.5074422854
 40
0.5288678817
 40
0.5502690257
 40
0.5716067587
 40
0.5928422708
 40
0.6139369924
 40
0.6348526875
 40
0.655551546
 40
0.6759962766
 40
0.6961502016
 40
0.7159773528
 40
0.7354425688
 40
0.7545115958
 40
0.773151191
 40
0.7913292321
 40
0.8090148321
 40
0.8261784599
 40
0.8427920729
 40
0.8588292628
 40
0.87426542
 40
0.8890779216
 40
0.9032463521
 40
0.9167527676
 40
0.9232530589
 40
0.9295824284
 40
0.935739477
 40
0.94172305
 40
0.9475322443
 40
0.9531664122
 40
0.9586252303
 40
0.9639086638
 40
0.9690170846
 40
0.9739512189
 40
0.9787122484
 40
0.9833018152
 40
0.9877221757
 40
0.99197626
 40
0.9960675335
 40
1.0
 40
1.0
 40
1.0
 40
1.0
 10
11.1193748597
 20
10.9453801871
 30
0.0
 10
11.1189333346
 20
10.9475721665
 30
0.0
 10
11.1178563352
 20
10.9519676842
 30
0.0
 10
11.1156968897
 20
10.9584896079
 30
0.0
 10
11.1129810525
 20
10.9649953098
 30
0.0
 10
11.1097110645
 20
10.971481037
 30
0.0
 10
11.105888981
 20
10.977943883
 30
0.0
 10
11.1015172918
 20
10.9843810111
 30
0.0
 10
11.0965983405
 20
10.9907895239
 30
0.0
 10
11.0911348624
 20
10.9971667231
 30
0.0
 10
11.0851295713
 20
11.0035097502
 30
0.0
 10
11.0785854926
 20
11.0098158405
 30
0.0
 10
11.0715058111
 20
11.0160821637
 30
0.0
 10
11.0638939269
 20
11.0223058373
 30
0.0
 10
11.0557535396
 20
11.0284840636
 30
0.0
 10
11.0470885006
 20
11.0346138732
 30
0.0
 10
11.0379030236
 20
11.0406924893
 30
0.0
 10
11.0282014664
 20
11.046716928
 30
0.0
 10
11.017988536
 20
11.0526844041
 30
0.0
 10
11.0072691227
 20
11.0585919937
 30
0.0
 10
10.9960484114
 20
11.0644368831
 30
0.0
 10
10.9843318218
 20
11.0702162521
 30
0.0
 10
10.9721250122
 20
11.0759272656
 30
0.0
 10
10.9594339119
 20
11.0815672136
 30
0.0
 10
10.9462646521
 20
11.0871332759
 30
0.0
 10
10.9326236493
 20
11.092622821
 30
0.0
 10
10.9185174934
 20
11.0980331292
 30
0.0
 10
10.898851227
 20
11.1052279987
 30
0.0
 10
10.873143667
 20
11.1139869617
 30
0.0
 10
10.8409269871
 20
11.1240133736
 30
0.0
 10
10.8070301407
 20
11.1336631965
 30
0.0
 10
10.7715191148
 20
11.1429175038
 30
0.0
 10
10.7344627972
 20
11.1517581256
 30
0.0
 10
10.6959332523
 20
11.160167702
 30
0.0
 10
10.6560054448
 20
11.1681297186
 30
0.0
 10
10.614757118
 20
11.1756285408
 30
0.0
 10
10.5722686246
 20
11.1826494486
 30
0.0
 10
10.5286227649
 20
11.189178663
 30
0.0
 10
10.483904618
 20
11.1952033724
 30
0.0
 10
10.4382013714
 20
11.2007117575
 30
0.0
 10
10.3916021482
 20
11.2056930138
 30
0.0
 10
10.3441978304
 20
11.2101373724
 30
0.0
 10
10.2960808801
 20
11.2140361182
 30
0.0
 10
10.2473451575
 20
11.2173816068
 30
0.0
 10
10.1980857367
 20
11.2201672792
 30
0.0
 10
10.1483987191
 20
11.2223876766
 30
0.0
 10
10.098381044
 20
11.2240384481
 30
0.0
 10
10.0481302975
 20
11.2251163592
 30
0.0
 10
9.9977445225
 20
11.2256192977
 30
0.0
 10
9.9473220257
 20
11.225546278
 30
0.0
 10
9.8969611862
 20
11.2248974428
 30
0.0
 10
9.8467602625
 20
11.2236740629
 30
0.0
 10
9.7968172007
 20
11.2218785348
 30
0.0
 10
9.7472294414
 20
11.2195143765
 30
0.0
 10
9.6980937286
 20
11.2165862233
 30
0.0
 10
9.6495059198
 20
11.2130998152
 30
0.0
 10
9.6015607984
 20
11.2090619871
 30
0.0
 10
9.5543518876
 20
11.2044806556
 30
0.0
 10
9.5079712665
 20
11.1993648039
 30
0.0
 10
9.4625093895
 20
11.1937244647
 30
0.0
 10
9.4180549068
 20
11.1875707012
 30
0.0
 10
9.374694489
 20
11.1809155857
 30
0.0
 10
9.3325126523
 20
11.173772178
 30
0.0
 10
9.2915915898
 20
11.1661545007
 30
0.0
 10
9.2520110052
 20
11.1580775094
 30
0.0
 10
9.2138479542
 20
11.1495570638
 30
0.0
 10
9.1771766749
 20
11.1406098957
 30
0.0
 10
9.1420684678
 20
11.131253573
 30
0.0
 10
9.108591414
 20
11.1215064627
 30
0.0
 10
9.0768106696
 20
11.1113876803
 30
0.0
 10
9.0514781345
 20
11.102553144
 30
0.0
 10
9.0321198813
 20
11.095300082
 30
0.0
 10
9.0182487155
 20
11.0898492613
 30
0.0
 10
9.0048460837
 20
11.0843205857
 30
0.0
 10
8.991918476
 20
11.078716714
 30
0.0
 10
8.9794721602
 20
11.0730404053
 30
0.0
 10
8.9675131837
 20
11.0672943625
 30
0.0
 10
8.9560473119
 20
11.0614814517
 30
0.0
 10
8.945080117
 20
11.0556043911
 30
0.0
 10
8.9346168535
 20
11.0496661055
 30
0.0
 10
8.9246626044
 20
11.0436693584
 30
0.0
 10
8.9152221501
 20
11.0376171085
 30
0.0
 10
8.90630003
 20
11.0315122052
 30
0.0
 10
8.8979004875
 20
11.0253574853
 30
0.0
 10
8.8900274525
 20
11.0191557468
 30
0.0
 10
8.882685087
 20
11.0129101337
 30
0.0
 10
8.8780563119
 20
11.0086360826
 30
0.0
 10
8.8758362119
 20
11.0064916306
 30
0.0
  0
SPLINE
  5
3A0
100
AcDbEntity
  8
0
100
AcDbSpline
 62
7
  6
CONTINUOUS
 70
0
 71
3
 72
92
 73
88
 74
0
 42
0.0000001
 43
0.0000001
 44
0.0000000001
 40
0.0
 40
0.0
 40
0.0
 40
0.0
 40
0.002920935
 40
0.0057980379
 40
0.0086517274
 40
0.0115029671
 40
0.0143727833
 40
0.0172817574
 40
0.0202495849
 40
0.0232946815
 40
0.0264339682
 40
0.0296826822
 40
0.0330543714
 40
0.0365609111
 40
0.0402125756
 40
0.0440182055
 40
0.0479852621
 40
0.0521200541
 40
0.0564277827
 40
0.0609127194
 40
0.0655782981
 40
0.0704271805
 40
0.0754614128
 40
0.0806823978
 40
0.0860910657
 40
0.0916878389
 40
0.0974727319
 40
0.1034453871
 40
0.1096050664
 40
0.1159507643
 40
0.1291941408
 40
0.1431623557
 40
0.1578380304
 40
0.1732005794
 40
0.1892265869
 40
0.2058901221
 40
0.2231629979
 40
0.2410149907
 40
0.2594140323
 40
0.2783263801
 40
0.2977167705
 40
0.3175485631
 40
0.3377838793
 40
0.358383731
 40
0.3793081445
 40
0.4005162802
 40
0.4219665499
 40
0.4436167306
 40
0.465424081
 40
0.4873454559
 40
0.5093374174
 40
0.5313563472
 40
0.5533585576
 40
0.5753004029
 40
0.5971383919
 40
0.618829301
 40
0.6403302853
 40
0.6615989917
 40
0.6825936722
 40
0.7032732987
 40
0.7235976811
 40
0.7435275903
 40
0.763024878
 40
0.7820526045
 40
0.8005751715
 40
0.8185584633
 40
0.8359699997
 40
0.8527791062
 40
0.8689571022
 40
0.8844775096
 40
0.8993163007
 40
0.9134521938
 40
0.9268670143
 40
0.933299539
 40
0.9395466609
 40
0.945607182
 40
0.9514802503
 40
0.957165322
 40
0.9626622209
 40
0.9679712049
 40
0.9730929276
 40
0.9780285733
 40
0.982779833
 40
0.987349138
 40
0.9917396496
 40
0.9959551325
 40
1.0
 40
1.0
 40
1.0
 40
1.0
 10
10.8342105985
 20
10.9140579261
 30
0.0
 10
10.8346791217
 20
10.915742542
 30
0.0
 10
10.8354717624
 20
10.9191267344
 30
0.0
 10
10.8362137462
 20
10.9242588907
 30
0.0
 10
10.8364968451
 20
10.9293954181
 30
0.0
 10
10.8363205171
 20
10.9345322804
 30
0.0
 10
10.835685004
 20
10.9396659629
 30
0.0
 10
10.834591125
 20
10.9447929522
 30
0.0
 10
10.8330399296
 20
10.949909929
 30
0.0
 10
10.8310331092
 20
10.9550139173
 30
0.0
 10
10.8285722582
 20
10.9601020685
 30
0.0
 10
10.8256593969
 20
10.9651718454
 30
0.0
 10
10.8222964909
 20
10.9702207669
 30
0.0
 10
10.8184856592
 20
10.9752464338
 30
0.0
 10
10.8142292052
 20
10.9802465495
 30
0.0
 10
10.8095294249
 20
10.9852186668
 30
0.0
 10
10.804388963
 20
10.9901605183
 30
0.0
 10
10.7988104702
 20
10.995069612
 30
0.0
 10
10.7927969327
 20
10.9999435972
 30
0.0
 10
10.7863514739
 20
11.0047800152
 30
0.0
 10
10.779477447
 20
11.0095763939
 30
0.0
 10
10.7721784723
 20
11.0143303463
 30
0.0
 10
10.7644583187
 20
11.0190393266
 30
0.0
 10
10.756321073
 20
11.0237009871
 30
0.0
 10
10.7477709667
 20
11.0283128096
 30
0.0
 10
10.7388125137
 20
11.0328724241
 30
0.0
 10
10.7294504215
 20
11.0373774227
 30
0.0
 10
10.7196896197
 20
11.0418253851
 30
0.0
 10
10.7095352617
 20
11.0462140613
 30
0.0
 10
10.6952748958
 20
11.0520667601
 30
0.0
 10
10.6764916789
 20
11.0592008905
 30
0.0
 10
10.652781653
 20
11.0673716013
 30
0.0
 10
10.627641129
 20
11.0752521187
 30
0.0
 10
10.6011233323
 20
11.082825599
 30
0.0
 10
10.573284175
 20
11.0900758516
 30
0.0
 10
10.5441825638
 20
11.0969873602
 30
0.0
 10
10.5138801224
 20
11.1035453303
 30
0.0
 10
10.4824410835
 20
11.1097357229
 30
0.0
 10
10.4499321314
 20
11.1155452874
 30
0.0
 10
10.416422257
 20
11.1209615887
 30
0.0
 10
10.3819826065
 20
11.1259730385
 30
0.0
 10
10.3466863247
 20
11.1305689206
 30
0.0
 10
10.3106083926
 20
11.1347394082
 30
0.0
 10
10.2738254635
 20
11.1384755856
 30
0.0
 10
10.2364156982
 20
11.1417694662
 30
0.0
 10
10.1984585977
 20
11.1446140095
 30
0.0
 10
10.1600348342
 20
11.1470031341
 30
0.0
 10
10.1212260787
 20
11.1489317367
 30
0.0
 10
10.0821148247
 20
11.1503956998
 30
0.0
 10
10.0427842111
 20
11.151391897
 30
0.0
 10
10.003317844
 20
11.1519182009
 30
0.0
 10
9.9637996195
 20
11.1519734864
 30
0.0
 10
9.9243135448
 20
11.151557634
 30
0.0
 10
9.8849435596
 20
11.1506715289
 30
0.0
 10
9.8457733551
 20
11.1493170662
 30
0.0
 10
9.8068861951
 20
11.1474971413
 30
0.0
 10
9.7683647385
 20
11.1452156425
 30
0.0
 10
9.7302908632
 20
11.1424774443
 30
0.0
 10
9.6927454923
 20
11.1392883964
 30
0.0
 10
9.6558084205
 20
11.135655312
 30
0.0
 10
9.6195581408
 20
11.1315859544
 30
0.0
 10
9.5840716745
 20
11.1270890264
 30
0.0
 10
9.5494244058
 20
11.1221741449
 30
0.0
 10
9.5156899203
 20
11.1168518225
 30
0.0
 10
9.4829398465
 20
11.1111334449
 30
0.0
 10
9.4512436991
 20
11.1050312478
 30
0.0
 10
9.4206687234
 20
11.098558289
 30
0.0
 10
9.3912797434
 20
11.0917284242
 30
0.0
 10
9.3631390027
 20
11.0845562778
 30
0.0
 10
9.3363060578
 20
11.0770572007
 30
0.0
 10
9.3108375094
 20
11.0692472362
 30
0.0
 10
9.2867873037
 20
11.0611430655
 30
0.0
 10
9.2677114627
 20
11.0540633352
 30
0.0
 10
9.253210922
 20
11.0482522623
 30
0.0
 10
9.2428737164
 20
11.0438922826
 30
0.0
 10
9.2329275935
 20
11.0394718504
 30
0.0
 10
9.2233777805
 20
11.0349933173
 30
0.0
 10
9.2142293183
 20
11.0304590492
 30
0.0
 10
9.205487032
 20
11.0258714034
 30
0.0
 10
9.1971554902
 20
11.021232851
 30
0.0
 10
9.1892391116
 20
11.0165457323
 30
0.0
 10
9.1817420181
 20
11.0118126103
 30
0.0
 10
9.1746681494
 20
11.0070358552
 30
0.0
 10
9.1680211372
 20
11.0022179148
 30
0.0
 10
9.1618043893
 20
10.997361142
 30
0.0
 10
9.1560214858
 20
10.9924682513
 30
0.0
 10
9.1523837095
 20
10.9891160165
 30
0.0
 10
9.1506421258
 20
10.9874337757
 30
0.0
  0
SPLINE
  5
3A1
100
AcDbEntity
  8
0
100
AcDbSpline
 62
7
  6
CONTINUOUS
 70
0
 71
3
 72
75
 73
71
 74
0
 42
0.0000001
 43
0.0000001
 44
0.0000000001
 40
0.0
 40
0.0
 40
0.0
 40
0.0
 40
0.0036395471
 40
0.0074166257
 40
0.0113355364
 40
0.0153998634
 40
0.0196126257
 40
0.0239762748
 40
0.0284927628
 40
0.0331636419
 40
0.0379900195
 40
0.0429726758
 40
0.0481120725
 40
0.0534083408
 40
0.0644703869
 40
0.0761556105
 40
0.0884569208
 40
0.1013643664
 40
0.1148654909
 40
0.1289456218
 40
0.1435881337
 40
0.1587746475
 40
0.174485187
 40
0.1906983102
 40
0.2073912555
 40
0.2245400554
 40
0.2421196299
 40
0.2601038661
 40
0.2784657208
 40
0.2971773053
 40
0.3162099585
 40
0.3355343108
 40
0.3551203669
 40
0.3749375811
 40
0.4151403173
 40
0.4558902923
 40
0.4969301177
 40
0.5380000249
 40
0.5788400034
 40
0.6191919219
 40
0.6588016643
 40
0.6782507791
 40
0.6974219918
 40
0.7162856366
 40
0.7348127089
 40
0.7529749526
 40
0.7707449288
 40
0.7880960884
 40
0.8050028545
 40
0.8214407301
 40
0.8373863892
 40
0.8528177711
 40
0.8677141976
 40
0.8820565255
 40
0.8958273026
 40
0.9090109342
 40
0.9215939004
 40
0.9335650403
 40
0.9449158969
 40
0.9556411071
 40
0.9607686833
 40
0.96573957
 40
0.9705542163
 40
0.9752134287
 40
0.9797183411
 40
0.9840705082
 40
0.9882720247
 40
0.9923254254
 40
0.9962336233
 40
1.0
 40
1.0
 40
1.0
 40
1.0
 10
10.7753897208
 20
10.8477413214
 30
0.0
 10
10.7740099292
 20
10.8491834427
 30
0.0
 10
10.7711319603
 20
10.852059403
 30
0.0
 10
10.7665577651
 20
10.8562709794
 30
0.0
 10
10.7616497222
 20
10.8604569421
 30
0.0
 10
10.7564100606
 20
10.864615565
 30
0.0
 10
10.750840897
 20
10.8687451375
 30
0.0
 10
10.7449445829
 20
10.8728439773
 30
0.0
 10
10.7387235995
 20
10.8769104369
 30
0.0
 10
10.7321805142
 20
10.8809427611
 30
0.0
 10
10.7253181022
 20
10.8849393373
 30
0.0
 10
10.7181392328
 20
10.888898462
 30
0.0
 10
10.7106469009
 20
10.892818484
 30
0.0
 10
10.7000898789
 20
10.8980670922
 30
0.0
 10
10.686119274
 20
10.9045049533
 30
0.0
 10
10.6683920417
 20
10.9119405106
 30
0.0
 10
10.6494968386
 20
10.9191816393
 30
0.0
 10
10.6294655312
 20
10.926216044
 30
0.0
 10
10.6083316733
 20
10.9330317782
 30
0.0
 10
10.5861308717
 20
10.9396172493
 30
0.0
 10
10.562900566
 20
10.9459612324
 30
0.0
 10
10.5386799864
 20
10.9520529003
 30
0.0
 10
10.5135100814
 20
10.95788185
 30
0.0
 10
10.4874334512
 20
10.963438147
 30
0.0
 10
10.4604942544
 20
10.9687123112
 30
0.0
 10
10.4327381231
 20
10.97369534
 30
0.0
 10
10.4042120919
 20
10.9783787215
 30
0.0
 10
10.3749645226
 20
10.9827544776
 30
0.0
 10
10.3450450115
 20
10.9868151493
 30
0.0
 10
10.3145042967
 20
10.9905538102
 30
0.0
 10
10.2833941729
 20
10.9939640778
 30
0.0
 10
10.2517674274
 20
10.9970401372
 30
0.0
 10
10.2196776731
 20
10.9997767848
 30
0.0
 10
10.1761397873
 20
11.0029819503
 30
0.0
 10
10.120961782
 20
11.0060982864
 30
0.0
 10
10.0540974995
 20
11.0084086496
 30
0.0
 10
9.9867234553
 20
11.0092911927
 30
0.0
 10
9.9192966083
 20
11.0087399317
 30
0.0
 10
9.8522738673
 20
11.0067586357
 30
0.0
 10
9.7861097987
 20
11.0033608954
 30
0.0
 10
9.7317370714
 20
10.9993448133
 30
0.0
 10
9.6890150116
 20
10.9954282179
 30
0.0
 10
9.6576593764
 20
10.9921717602
 30
0.0
 10
9.6268488945
 20
10.9885841903
 30
0.0
 10
9.5966357871
 20
10.9846715745
 30
0.0
 10
9.5670713057
 20
10.9804406025
 30
0.0
 10
9.5382055764
 20
10.9758984913
 30
0.0
 10
9.510087541
 20
10.971052988
 30
0.0
 10
9.4827648643
 20
10.9659123465
 30
0.0
 10
9.45628384
 20
10.9604853431
 30
0.0
 10
9.4306893119
 20
10.9547812455
 30
0.0
 10
9.4060246054
 20
10.948809788
 30
0.0
 10
9.3823314494
 20
10.9425811499
 30
0.0
 10
9.3596498832
 20
10.9361059581
 30
0.0
 10
9.3380181814
 20
10.9293952647
 30
0.0
 10
9.317472784
 20
10.9224605019
 30
0.0
 10
9.2980482644
 20
10.9153134585
 30
0.0
 10
9.2797770974
 20
10.9079662388
 30
0.0
 10
9.2626900631
 20
10.9004312984
 30
0.0
 10
9.2492669942
 20
10.8939122079
 30
0.0
 10
9.2391565773
 20
10.8886017852
 30
0.0
 10
9.2320014004
 20
10.8846397772
 30
0.0
 10
9.2251629298
 20
10.8806404387
 30
0.0
 10
9.2186440099
 20
10.8766054717
 30
0.0
 10
9.2124473833
 20
10.8725365712
 30
0.0
 10
9.2065756408
 20
10.868435353
 30
0.0
 10
9.201031154
 20
10.8643035202
 30
0.0
 10
9.195816262
 20
10.8601426599
 30
0.0
 10
9.1909333737
 20
10.8559547388
 30
0.0
 10
9.1878447276
 20
10.8530939713
 30
0.0
 10
9.1863591561
 20
10.8516590193
 30
0.0
  0
SPLINE
  5
3A2
100
AcDbEntity
  8
0
100
AcDbSpline
 62
7
  6
CONTINUOUS
 70
0
 71
3
 72
61
 73
57
 74
0
 42
0.0000001
 43
0.0000001
 44
0.0000000001
 40
0.0
 40
0.0
 40
0.0
 40
0.0
 40
0.0083366115
 40
0.0172327509
 40
0.026697834
 40
0.0367365119
 40
0.0473494923
 40
0.0585341955
 40
0.0702852133
 40
0.0825946725
 40
0.0954525891
 40
0.108847108
 40
0.1227646599
 40
0.1371901671
 40
0.1521071982
 40
0.1674980517
 40
0.1833438652
 40
0.1996247412
 40
0.216319812
 40
0.2334072915
 40
0.2508645819
 40
0.2686683383
 40
0.2867945019
 40
0.3052183786
 40
0.3428571064
 40
0.3813770856
 40
0.4205636235
 40
0.4601970801
 40
0.5000545553
 40
0.5399115153
 40
0.5795434303
 40
0.6187274048
 40
0.657243833
 40
0.6948780286
 40
0.7132992943
 40
0.7314226059
 40
0.7492232879
 40
0.7666772993
 40
0.7837612795
 40
0.8004526386
 40
0.8167296231
 40
0.8325713584
 40
0.847957938
 40
0.8628705376
 40
0.8772914696
 40
0.891204283
 40
0.9045939287
 40
0.9174468768
 40
0.929751258
 40
0.9414970983
 40
0.9526765829
 40
0.9632843125
 40
0.973317704
 40
0.9827775508
 40
0.9916684957
 40
1.0
 40
1.0
 40
1.0
 40
1.0
 10
10.7099626609
 20
10.8140441823
 30
0.0
 10
10.7066387588
 20
10.8165788232
 30
0.0
 10
10.6996006712
 20
10.8216012621
 30
0.0
 10
10.6882982804
 20
10.828784108
 30
0.0
 10
10.6759282573
 20
10.835847738
 30
0.0
 10
10.6625091695
 20
10.8427816008
 30
0.0
 10
10.6480605015
 20
10.8495756823
 30
0.0
 10
10.6326035984
 20
10.856219847
 30
0.0
 10
10.6161613626
 20
10.8627041507
 30
0.0
 10
10.5987583015
 20
10.8690188595
 30
0.0
 10
10.5804204143
 20
10.8751544341
 30
0.0
 10
10.5611751592
 20
10.8811015652
 30
0.0
 10
10.5410514254
 20
10.8868512612
 30
0.0
 10
10.5200794588
 20
10.8923948087
 30
0.0
 10
10.4982908003
 20
10.897723778
 30
0.0
 10
10.4757182557
 20
10.902830083
 30
0.0
 10
10.4523958395
 20
10.907705992
 30
0.0
 10
10.4283587015
 20
10.9123440969
 30
0.0
 10
10.403643082
 20
10.916737344
 30
0.0
 10
10.3782862669
 20
10.9208790879
 30
0.0
 10
10.3523265103
 20
10.924763049
 30
0.0
 10
10.3258029888
 20
10.9283833082
 30
0.0
 10
10.2987556985
 20
10.9317344195
 30
0.0
 10
10.2617863229
 20
10.9358661141
 30
0.0
 10
10.2145659184
 20
10.9403079862
 30
0.0
 10
10.1568757347
 20
10.9444583473
 30
0.0
 10
10.0981119244
 20
10.9474403043
 30
0.0
 10
10.0386291541
 20
10.9492357211
 30
0.0
 10
9.97878618
 20
10.9498335676
 30
0.0
 10
9.9189440343
 20
10.9492302072
 30
0.0
 10
9.859463746
 20
10.9474293349
 30
0.0
 10
9.8007040545
 20
10.9444419466
 30
0.0
 10
9.7430196018
 20
10.9402863052
 30
0.0
 10
9.6958049952
 20
10.9358400381
 30
0.0
 10
9.6588410445
 20
10.931704924
 30
0.0
 10
9.6317983776
 20
10.9283513083
 30
0.0
 10
9.605279849
 20
10.9247285984
 30
0.0
 10
9.5793254432
 20
10.9208422592
 30
0.0
 10
9.5539743391
 20
10.9166981771
 30
0.0
 10
9.5292647806
 20
10.9123026387
 30
0.0
 10
9.5052340329
 20
10.9076623293
 30
0.0
 10
9.4819183349
 20
10.9027842815
 30
0.0
 10
9.4593528351
 20
10.8976758828
 30
0.0
 10
9.4375715221
 20
10.8923449068
 30
0.0
 10
9.4166071889
 20
10.8867994456
 30
0.0
 10
9.3964913832
 20
10.88104789
 30
0.0
 10
9.3772543294
 20
10.8750989759
 30
0.0
 10
9.3589248878
 20
10.8689617312
 30
0.0
 10
9.3415305234
 20
10.8626454272
 30
0.0
 10
9.3250972288
 20
10.856159593
 30
0.0
 10
9.3096494703
 20
10.8495140134
 30
0.0
 10
9.2952101444
 20
10.8427186203
 30
0.0
 10
9.2818005977
 20
10.8357835086
 30
0.0
 10
9.2694403073
 20
10.8287187156
 30
0.0
 10
9.2581477718
 20
10.8215348724
 30
0.0
 10
9.2511165309
 20
10.8165117152
 30
0.0
 10
9.2477960916
 20
10.8139767574
 30
0.0
  0
SPLINE
  5
3A3
100
AcDbEntity
  8
0
100
AcDbSpline
 62
7
  6
CONTINUOUS
 70
0
 71
3
 72
41
 73
37
 74
0
 42
0.0000001
 43
0.0000001
 44
0.0000000001
 40
0.0
 40
0.0
 40
0.0
 40
0.0
 40
0.0310748272
 40
0.0623072483
 40
0.0936920359
 40
0.1252208484
 40
0.156882237
 40
0.188662033
 40
0.2205436266
 40
0.2525083437
 40
0.2845358343
 40
0.3166044929
 40
0.3486918936
 40
0.3807752384
 40
0.4128318095
 40
0.4448394218
 40
0.4767768664
 40
0.5086243418
 40
0.5403638639
 40
0.5719796493
 40
0.6034584635
 40
0.6347899281
 40
0.6659667781
 40
0.6969850622
 40
0.7278442783
 40
0.7585474376
 40
0.7891010512
 40
0.8195150346
 40
0.8498025274
 40
0.8649066426
 40
0.8799854039
 40
0.9100708284
 40
0.9400854823
 40
0.9550762294
 40
0.970057877
 40
1.0
 40
1.0
 40
1.0
 40
1.0
 10
7.8298000766
 20
9.3261190924
 30
0.0
 10
7.8298000766
 20
9.3212597406
 30
0.0
 10
7.8301625841
 20
9.3115126546
 30
0.0
 10
7.8317810386
 20
9.296938697
 30
0.0
 10
7.8344665174
 20
9.2824502968
 30
0.0
 10
7.8382041055
 20
9.2681280915
 30
0.0
 10
7.8429731482
 20
9.2540504213
 30
0.0
 10
7.8487473363
 20
9.2402946352
 30
0.0
 10
7.8554948724
 20
9.2269362019
 30
0.0
 10
7.8631786355
 20
9.2140484279
 30
0.0
 10
7.8717563895
 20
9.2017020271
 30
0.0
 10
7.8811810116
 20
9.1899647459
 30
0.0
 10
7.8914007497
 20
9.1789009937
 30
0.0
 10
7.9023595041
 20
9.1685714941
 30
0.0
 10
7.9139971324
 20
9.1590329544
 30
0.0
 10
7.9262497758
 20
9.1503377578
 30
0.0
 10
7.9390502059
 20
9.142533678
 30
0.0
 10
7.952328189
 20
9.135663619
 30
0.0
 10
7.9660108666
 20
9.1297653803
 30
0.0
 10
7.9800231502
 20
9.1248714501
 30
0.0
 10
7.994288127
 20
9.1210088258
 30
0.0
 10
8.0087274765
 20
9.1181988638
 30
0.0
 10
8.0232618952
 20
9.116457159
 30
0.0
 10
8.0378115221
 20
9.1157934526
 30
0.0
 10
8.0522963882
 20
9.1162115785
 30
0.0
 10
8.0666367932
 20
9.1177094081
 30
0.0
 10
8.0807539607
 20
9.1202789496
 30
0.0
 10
8.0945696575
 20
9.1239060203
 30
0.0
 10
8.1057805089
 20
9.1277978169
 30
0.0
 10
8.1145188235
 20
9.1314170904
 30
0.0
 10
8.1230802573
 20
9.1353620679
 30
0.0
 10
8.1334610246
 20
9.1409073692
 30
0.0
 10
8.1433604481
 20
9.1472469598
 30
0.0
 10
8.1509471725
 20
9.1527676649
 30
0.0
 10
8.1582997365
 20
9.1585774882
 30
0.0
 10
8.1635497507
 20
9.1632598861
 30
0.0
 10
8.1669174509
 20
9.166512857
 30
0.0
  0
SPLINE
  5
3A4
100
AcDbEntity
  8
0
100
AcDbSpline
 62
4
  6
CONTINUOUS
 70
0
 71
3
 72
313
 73
309
 74
0
 42
0.0000001
 43
0.0000001
 44
0.0000000001
 40
0.0
 40
0.0
 40
0.0
 40
0.0
 40
0.015625
 40
0.0234375
 40
0.03125
 40
0.0390625
 40
0.046875
 40
0.05078125
 40
0.0546875
 40
0.056640625
 40
0.05859375
 40
0.060546875
 40
0.0615234375
 40
0.0620117188
 40
0.0625
 40
0.0629882812
 40
0.0634765625
 40
0.064453125
 40
0.06640625
 40
0.068359375
 40
0.0703125
 40
0.07421875
 40
0.078125
 40
0.0859375
 40
0.09375
 40
0.1015625
 40
0.109375
 40
0.11328125
 40
0.1171875
 40
0.119140625
 40
0.12109375
 40
0.123046875
 40
0.1240234375
 40
0.1245117188
 40
0.125
 40
0.1254882812
 40
0.1259765625
 40
0.126953125
 40
0.12890625
 40
0.130859375
 40
0.1328125
 40
0.13671875
 40
0.140625
 40
0.1484375
 40
0.15625
 40
0.1640625
 40
0.171875
 40
0.17578125
 40
0.1796875
 40
0.181640625
 40
0.18359375
 40
0.185546875
 40
0.1865234375
 40
0.1870117188
 40
0.1875
 40
0.1879882812
 40
0.1884765625
 40
0.189453125
 40
0.19140625
 40
0.193359375
 40
0.1953125
 40
0.19921875
 40
0.203125
 40
0.2109375
 40
0.21875
 40
0.2265625
 40
0.234375
 40
0.23828125
 40
0.2421875
 40
0.244140625
 40
0.24609375
 40
0.248046875
 40
0.2490234375
 40
0.2495117188
 40
0.25
 40
0.2504882812
 40
0.2509765625
 40
0.251953125
 40
0.25390625
 40
0.255859375
 40
0.2578125
 40
0.26171875
 40
0.265625
 40
0.2734375
 40
0.28125
 40
0.2890625
 40
0.296875
 40
0.30078125
 40
0.3046875
 40
0.306640625
 40
0.30859375
 40
0.310546875
 40
0.3115234375
 40
0.3120117188
 40
0.3125
 40
0.3129882812
 40
0.3134765625
 40
0.314453125
 40
0.31640625
 40
0.318359375
 40
0.3203125
 40
0.32421875
 40
0.328125
 40
0.3359375
 40
0.34375
 40
0.3515625
 40
0.359375
 40
0.36328125
 40
0.3671875
 40
0.369140625
 40
0.37109375
 40
0.373046875
 40
0.3740234375
 40
0.3745117188
 40
0.375
 40
0.3754882812
 40
0.3759765625
 40
0.376953125
 40
0.37890625
 40
0.380859375
 40
0.3828125
 40
0.38671875
 40
0.390625
 40
0.3984375
 40
0.40625
 40
0.4140625
 40
0.421875
 40
0.42578125
 40
0.4296875
 40
0.431640625
 40
0.43359375
 40
0.435546875
 40
0.4365234375
 40
0.4370117188
 40
0.4375
 40
0.4379882812
 40
0.4384765625
 40
0.439453125
 40
0.44140625
 40
0.443359375
 40
0.4453125
 40
0.44921875
 40
0.453125
 40
0.4609375
 40
0.46875
 40
0.4765625
 40
0.484375
 40
0.48828125
 40
0.4921875
 40
0.494140625
 40
0.49609375
 40
0.498046875
 40
0.4990234375
 40
0.4995117188
 40
0.5
 40
0.5004882812
 40
0.5009765625
 40
0.501953125
 40
0.50390625
 40
0.505859375
 40
0.5078125
 40
0.51171875
 40
0.515625
 40
0.5234375
 40
0.53125
 40
0.5390625
 40
0.546875
 40
0.55078125
 40
0.5546875
 40
0.556640625
 40
0.55859375
 40
0.560546875
 40
0.5615234375
 40
0.5620117188
 40
0.5625
 40
0.5629882812
 40
0.5634765625
 40
0.564453125
 40
0.56640625
 40
0.568359375
 40
0.5703125
 40
0.57421875
 40
0.578125
 40
0.5859375
 40
0.59375
 40
0.6015625
 40
0.609375
 40
0.61328125
 40
0.6171875
 40
0.619140625
 40
0.62109375
 40
0.623046875
 40
0.6240234375
 40
0.6245117188
 40
0.625
 40
0.6254882812
 40
0.6259765625
 40
0.626953125
 40
0.62890625
 40
0.630859375
 40
0.6328125
 40
0.63671875
 40
0.640625
 40
0.6484375
 40
0.65625
 40
0.6640625
 40
0.671875
 40
0.67578125
 40
0.6796875
 40
0.681640625
 40
0.68359375
 40
0.685546875
 40
0.6865234375
 40
0.6870117188
 40
0.6875
 40
0.6879882812
 40
0.6884765625
 40
0.689453125
 40
0.69140625
 40
0.693359375
 40
0.6953125
 40
0.69921875
 40
0.703125
 40
0.7109375
 40
0.71875
 40
0.7265625
 40
0.734375
 40
0.73828125
 40
0.7421875
 40
0.744140625
 40
0.74609375
 40
0.748046875
 40
0.7490234375
 40
0.7495117188
 40
0.75
 40
0.7504882812
 40
0.7509765625
 40
0.751953125
 40
0.75390625
 40
0.755859375
 40
0.7578125
 40
0.76171875
 40
0.765625
 40
0.7734375
 40
0.78125
 40
0.7890625
 40
0.796875
 40
0.80078125
 40
0.8046875
 40
0.806640625
 40
0.80859375
 40
0.810546875
 40
0.8115234375
 40
0.8120117188
 40
0.8125
 40
0.8129882812
 40
0.8134765625
 40
0.814453125
 40
0.81640625
 40
0.818359375
 40
0.8203125
 40
0.82421875
 40
0.828125
 40
0.8359375
 40
0.84375
 40
0.8515625
 40
0.859375
 40
0.86328125
 40
0.8671875
 40
0.869140625
 40
0.87109375
 40
0.873046875
 40
0.8740234375
 40
0.8745117188
 40
0.875
 40
0.8754882812
 40
0.8759765625
 40
0.876953125
 40
0.87890625
 40
0.880859375
 40
0.8828125
 40
0.88671875
 40
0.890625
 40
0.8984375
 40
0.90625
 40
0.9140625
 40
0.921875
 40
0.92578125
 40
0.9296875
 40
0.931640625
 40
0.93359375
 40
0.935546875
 40
0.9365234375
 40
0.9370117188
 40
0.9375
 40
0.9379882812
 40
0.9384765625
 40
0.939453125
 40
0.94140625
 40
0.943359375
 40
0.9453125
 40
0.94921875
 40
0.953125
 40
0.9609375
 40
0.96875
 40
0.9765625
 40
0.984375
 40
1.0
 40
1.0
 40
1.0
 40
1.0
 10
9.5476026636
 20
7.8156694452
 30
0.0
 10
9.5472954519
 20
7.8188239374
 30
0.0
 10
9.5468346347
 20
7.8235556756
 30
0.0
 10
9.5462202107
 20
7.8298646597
 30
0.0
 10
9.5457593951
 20
7.8345963982
 30
0.0
 10
9.5452985703
 20
7.8393281354
 30
0.0
 10
9.5449145786
 20
7.8432712535
 30
0.0
 10
9.5446073202
 20
7.8464257396
 30
0.0
 10
9.5444154319
 20
7.8483973125
 30
0.0
 10
9.5442615819
 20
7.8499745271
 30
0.0
 10
9.5441471234
 20
7.8511575576
 30
0.0
 10
9.5440487861
 20
7.8521430362
 30
0.0
 10
9.5439857496
 20
7.8528336173
 30
0.0
 10
9.543940673
 20
7.85322707
 30
0.0
 10
9.5439323758
 20
7.8535254416
 30
0.0
 10
9.5438265657
 20
7.8538112676
 30
0.0
 10
9.5437194991
 20
7.854196745
 30
0.0
 10
9.5435162851
 20
7.8548692916
 30
0.0
 10
9.5432342646
 20
7.8558311384
 30
0.0
 10
9.5428922937
 20
7.8569848983
 30
0.0
 10
9.5424375712
 20
7.8585234041
 30
0.0
 10
9.5418687438
 20
7.8604464819
 30
0.0
 10
9.5409588572
 20
7.8635234368
 30
0.0
 10
9.5398214171
 20
7.8673696198
 30
0.0
 10
9.5384565263
 20
7.8719850448
 30
0.0
 10
9.5370916173
 20
7.8766004655
 30
0.0
 10
9.5359542226
 20
7.8804466591
 30
0.0
 10
9.5350442451
 20
7.8835235928
 30
0.0
 10
9.5344756488
 20
7.8854467243
 30
0.0
 10
9.534020452
 20
7.8869851199
 30
0.0
 10
9.53367993
 20
7.8881392167
 30
0.0
 10
9.5333933763
 20
7.8891000092
 30
0.0
 10
9.5331982549
 20
7.8897744379
 30
0.0
 10
9.5330782219
 20
7.8901568997
 30
0.0
 10
9.5330122405
 20
7.8904519886
 30
0.0
 10
9.5328543536
 20
7.8907155705
 30
0.0
 10
9.5326758953
 20
7.891078003
 30
0.0
 10
9.5323486572
 20
7.8917071393
 30
0.0
 10
9.5318889829
 20
7.8926085827
 30
0.0
 10
9.5313340314
 20
7.8936891688
 30
0.0
 10
9.5305952635
 20
7.8951303505
 30
0.0
 10
9.5296714039
 20
7.8969316906
 30
0.0
 10
9.5281934519
 20
7.8998139113
 30
0.0
 10
9.5263459348
 20
7.9034166608
 30
0.0
 10
9.5241289495
 20
7.9077399725
 30
0.0
 10
9.5219119469
 20
7.9120632771
 30
0.0
 10
9.5200644732
 20
7.9156660443
 30
0.0
 10
9.5185864344
 20
7.9185482296
 30
0.0
 10
9.5176627957
 20
7.9203496598
 30
0.0
 10
9.5169235743
 20
7.9217906566
 30
0.0
 10
9.5163700083
 20
7.9228718078
 30
0.0
 10
9.5159059991
 20
7.923771483
 30
0.0
 10
9.5155864995
 20
7.9244037757
 30
0.0
 10
9.5153956421
 20
7.9247611511
 30
0.0
 10
9.5152758417
 20
7.9250402668
 30
0.0
 10
9.5150668135
 20
7.925277013
 30
0.0
 10
9.514819233
 20
7.9256074535
 30
0.0
 10
9.5143714659
 20
7.9261788386
 30
0.0
 10
9.51373938
 20
7.9269987031
 30
0.0
 10
9.5129776319
 20
7.9279809995
 30
0.0
 10
9.5119631012
 20
7.9292912663
 30
0.0
 10
9.5106945497
 20
7.9309289155
 30
0.0
 10
9.5086650843
 20
7.9335492573
 30
0.0
 10
9.5061281776
 20
7.9368246488
 30
0.0
 10
9.5030839233
 20
7.9407551356
 30
0.0
 10
9.5000396542
 20
7.9446856113
 30
0.0
 10
9.4975027847
 20
7.9479610306
 30
0.0
 10
9.4954732451
 20
7.9505813168
 30
0.0
 10
9.494204882
 20
7.9522191072
 30
0.0
 10
9.4931899646
 20
7.9535290842
 30
0.0
 10
9.492429398
 20
7.9545122658
 30
0.0
 10
9.4917936154
 20
7.9553293609
 30
0.0
 10
9.4913524476
 20
7.9559056898
 30
0.0
 10
9.4910942934
 20
7.9562282092
 30
0.0
 10
9.490917744
 20
7.9564892866
 30
0.0
 10
9.4906759586
 20
7.9566770184
 30
0.0
 10
9.4903763331
 20
7.9569529112
 30
0.0
 10
9.4898413865
 20
7.9574238038
 30
0.0
 10
9.4890827199
 20
7.9581027393
 30
0.0
 10
9.4881699475
 20
7.9589147945
 30
0.0
 10
9.4869537462
 20
7.9599984665
 30
0.0
 10
9.4854332109
 20
7.9613527374
 30
0.0
 10
9.483000513
 20
7.9635197492
 30
0.0
 10
9.479959586
 20
7.9662284523
 30
0.0
 10
9.4763104983
 20
7.9694789244
 30
0.0
 10
9.472661399
 20
7.9727293818
 30
0.0
 10
9.4696205009
 20
7.9754381215
 30
0.0
 10
9.4671877452
 20
7.9776050603
 30
0.0
 10
9.4656673569
 20
7.9789595167
 30
0.0
 10
9.4644508539
 20
7.9800428078
 30
0.0
 10
9.4635390034
 20
7.9808560266
 30
0.0
 10
9.4627774521
 20
7.9815313216
 30
0.0
 10
9.4622476552
 20
7.9820087131
 30
0.0
 10
9.4619397786
 20
7.9822741931
 30
0.0
 10
9.4617233379
 20
7.9824939099
 30
0.0
 10
9.461451598
 20
7.9826348569
 30
0.0
 10
9.4611085672
 20
7.982850262
 30
0.0
 10
9.4604992761
 20
7.9832144195
 30
0.0
 10
9.4596335589
 20
7.9837413373
 30
0.0
 10
9.4585926871
 20
7.9843707739
 30
0.0
 10
9.4572055605
 20
7.9852110233
 30
0.0
 10
9.4554714117
 20
7.9862609924
 30
0.0
 10
9.452696908
 20
7.9879411346
 30
0.0
 10
9.4492287321
 20
7.990041246
 30
0.0
 10
9.4450669418
 20
7.9925614103
 30
0.0
 10
9.4409051426
 20
7.9950815585
 30
0.0
 10
9.4374369891
 20
7.9971817103
 30
0.0
 10
9.4346624406
 20
7.9988617719
 30
0.0
 10
9.4329284058
 20
7.9999119458
 30
0.0
 10
9.4315410451
 20
8.0007517748
 30
0.0
 10
9.4305008885
 20
8.0013824957
 30
0.0
 10
9.4296329336
 20
8.0019053953
 30
0.0
 10
9.4290276372
 20
8.0022767258
 30
0.0
 10
9.4286782059
 20
8.002480638
 30
0.0
 10
9.4284261262
 20
8.0026568876
 30
0.0
 10
9.4281358452
 20
8.0027440138
 30
0.0
 10
9.427762129
 20
8.0028912693
 30
0.0
 10
9.4271019172
 20
8.0031344824
 30
0.0
 10
9.4261620032
 20
8.003489502
 30
0.0
 10
9.4250327172
 20
8.0039122843
 30
0.0
 10
9.4235274878
 20
8.0044771262
 30
0.0
 10
9.4216457848
 20
8.0051827908
 30
0.0
 10
9.4186351529
 20
8.0063120711
 30
0.0
 10
9.4148718311
 20
8.0077235964
 30
0.0
 10
9.4103558593
 20
8.0094174613
 30
0.0
 10
9.4058398811
 20
8.0111113084
 30
0.0
 10
9.4020765753
 20
8.012522878
 30
0.0
 10
9.3990659113
 20
8.0136520697
 30
0.0
 10
9.39718429
 20
8.0143579595
 30
0.0
 10
9.3956788929
 20
8.0149223392
 30
0.0
 10
9.3945501191
 20
8.0153465333
 30
0.0
 10
9.3936086027
 20
8.015697136
 30
0.0
 10
9.3929512516
 20
8.015948234
 30
0.0
 10
9.3925729517
 20
8.0160828558
 30
0.0
 10
9.3922967502
 20
8.0162087886
 30
0.0
 10
9.3919917905
 20
8.0162392869
 30
0.0
 10
9.3915952087
 20
8.01631324
 30
0.0
 10
9.3908965169
 20
8.016427148
 30
0.0
 10
9.3899008292
 20
8.0165979824
 30
0.0
 10
9.3887049581
 20
8.016799513
 30
0.0
 10
9.3871108286
 20
8.0170694326
 30
0.0
 10
9.3851180416
 20
8.0174064171
 30
0.0
 10
9.3819296524
 20
8.0179458243
 30
0.0
 10
9.3779441419
 20
8.0186200032
 30
0.0
 10
9.3731615393
 20
8.0194290546
 30
0.0
 10
9.3683789349
 20
8.0202380871
 30
0.0
 10
9.3643934291
 20
8.0209123133
 30
0.0
 10
9.3612050304
 20
8.0214516259
 30
0.0
 10
9.3592122676
 20
8.021788851
 30
0.0
 10
9.3576180884
 20
8.0220582768
 30
0.0
 10
9.356422369
 20
8.0222613161
 30
0.0
 10
9.3554262068
 20
8.02242743
 30
0.0
 10
9.354728362
 20
8.022549765
 30
0.0
 10
9.3543304231
 20
8.0226102158
 30
0.0
 10
9.354029632
 20
8.0226821885
 30
0.0
 10
9.3537377741
 20
8.0226523506
 30
0.0
 10
9.3533455142
 20
8.0226480793
 30
0.0
 10
9.3526605112
 20
8.0226240587
 30
0.0
 10
9.3516811765
 20
8.0225983939
 30
0.0
 10
9.3505062997
 20
8.0225638934
 30
0.0
 10
9.3489396839
 20
8.0225191861
 30
0.0
 10
9.346981453
 20
8.0224628592
 30
0.0
 10
9.3438482618
 20
8.0223729836
 30
0.0
 10
9.3399317803
 20
8.0222605537
 30
0.0
 10
9.3352319989
 20
8.0221256768
 30
0.0
 10
9.3305322201
 20
8.0219907806
 30
0.0
 10
9.3266157319
 20
8.0218783988
 30
0.0
 10
9.3234825543
 20
8.021788427
 30
0.0
 10
9.3215242889
 20
8.0217323448
 30
0.0
 10
9.3199577438
 20
8.0216871351
 30
0.0
 10
9.318782651
 20
8.0216541696
 30
0.0
 10
9.3178039922
 20
8.0216237024
 30
0.0
 10
9.3171177826
 20
8.0216082548
 30
0.0
 10
9.316727456
 20
8.0215902474
 30
0.0
 10
9.3164296598
 20
8.0216026024
 30
0.0
 10
9.3161511717
 20
8.0215161055
 30
0.0
 10
9.3157731194
 20
8.021435257
 30
0.0
 10
9.3151146658
 20
8.0212777069
 30
0.0
 10
9.3141723772
 20
8.0210610344
 30
0.0
 10
9.3130423331
 20
8.0207974323
 30
0.0
 10
9.3115353623
 20
8.0204472185
 30
0.0
 10
9.3096517329
 20
8.0200090213
 30
0.0
 10
9.3066378788
 20
8.0193081462
 30
0.0
 10
9.3028705775
 20
8.0184319693
 30
0.0
 10
9.2983498081
 20
8.0173805949
 30
0.0
 10
9.2938290442
 20
8.0163292019
 30
0.0
 10
9.2900617292
 20
8.0154530715
 30
0.0
 10
9.2870479025
 20
8.0147521035
 30
0.0
 10
9.2851642033
 20
8.0143141423
 30
0.0
 10
9.2836573758
 20
8.0139634443
 30
0.0
 10
9.2825268942
 20
8.0137013215
 30
0.0
 10
9.2815859743
 20
8.0134800208
 30
0.0
 10
9.2809250773
 20
8.0133307327
 30
0.0
 10
9.2805509398
 20
8.0132366463
 30
0.0
 10
9.2802604268
 20
8.013190812
 30
0.0
 10
9.2800077944
 20
8.0130504452
 30
0.0
 10
9.279657738
 20
8.0128962634
 30
0.0
 10
9.2790512957
 20
8.0126110822
 30
0.0
 10
9.2781817309
 20
8.0122117125
 30
0.0
 10
9.2771396308
 20
8.0117290308
 30
0.0
 10
9.2757496828
 20
8.0110866562
 30
0.0
 10
9.2740124126
 20
8.0102832766
 30
0.0
 10
9.2712326881
 20
8.0089980992
 30
0.0
 10
9.2677580644
 20
8.0073915481
 30
0.0
 10
9.2635885012
 20
8.005463723
 30
0.0
 10
9.2594189462
 20
8.0035358799
 30
0.0
 10
9.2559443018
 20
8.0019293737
 30
0.0
 10
9.2531646188
 20
8.0006441065
 30
0.0
 10
9.2514272431
 20
7.9998409552
 30
0.0
 10
9.2500375116
 20
7.999198112
 30
0.0
 10
9.2489947503
 20
7.9987168618
 30
0.0
 10
9.2481272542
 20
7.9983130136
 30
0.0
 10
9.2475171189
 20
7.9980358271
 30
0.0
 10
9.2471729796
 20
7.9978688358
 30
0.0
 10
9.246902172
 20
7.997767816
 30
0.0
 10
9.246679922
 20
7.9975742009
 30
0.0
 10
9.2463666512
 20
7.9973483458
 30
0.0
 10
9.2458263188
 20
7.9969380509
 30
0.0
 10
9.2450502897
 20
7.9963597828
 30
0.0
 10
9.2441208207
 20
7.9956624936
 30
0.0
 10
9.2428809118
 20
7.9947339509
 30
0.0
 10
9.2413312369
 20
7.9935728697
 30
0.0
 10
9.2388516391
 20
7.9917153649
 30
0.0
 10
9.2357521827
 20
7.9893934063
 30
0.0
 10
9.2320328156
 20
7.986607091
 30
0.0
 10
9.2283134607
 20
7.98382076
 30
0.0
 10
9.2252139739
 20
7.9814988406
 30
0.0
 10
9.2227344367
 20
7.9796412575
 30
0.0
 10
9.2211846077
 20
7.9784803755
 30
0.0
 10
9.2199450153
 20
7.977551424
 30
0.0
 10
9.2190145792
 20
7.9768553834
 30
0.0
 10
9.2182415758
 20
7.9762732088
 30
0.0
 10
9.217695842
 20
7.9758698877
 30
0.0
 10
9.2173912257
 20
7.9756328588
 30
0.0
 10
9.2171423921
 20
7.9754735661
 30
0.0
 10
9.2169714281
 20
7.9752436371
 30
0.0
 10
9.2167163143
 20
7.9749617038
 30
0.0
 10
9.2162825205
 20
7.9744568409
 30
0.0
 10
9.2156561986
 20
7.9737416098
 30
0.0
 10
9.2149074444
 20
7.9728807637
 30
0.0
 10
9.2139081163
 20
7.9717338661
 30
0.0
 10
9.2126592949
 20
7.9702999368
 30
0.0
 10
9.2106609913
 20
7.9680058218
 30
0.0
 10
9.2081631771
 20
7.9651381187
 30
0.0
 10
9.2051657702
 20
7.9616969019
 30
0.0
 10
9.2021683786
 20
7.9582556725
 30
0.0
 10
9.199670526
 20
7.955388001
 30
0.0
 10
9.1976722993
 20
7.9530938228
 30
0.0
 10
9.1964232822
 20
7.9516600541
 30
0.0
 10
9.1954243559
 20
7.9505128269
 30
0.0
 10
9.1946743741
 20
7.9496529878
 30
0.0
 10
9.1940518929
 20
7.9489346057
 30
0.0
 10
9.193611243
 20
7.948435368
 30
0.0
 10
9.1933671143
 20
7.9481444218
 30
0.0
 10
9.1931624077
 20
7.9479421775
 30
0.0
 10
9.1930403059
 20
7.9476789055
 30
0.0
 10
9.19284869
 20
7.9473491632
 30
0.0
 10
9.192526787
 20
7.9467621962
 30
0.0
 10
9.1920599069
 20
7.9459288572
 30
0.0
 10
9.191502655
 20
7.944926631
 30
0.0
 10
9.1907586032
 20
7.9435911045
 30
0.0
 10
9.1898288977
 20
7.941921431
 30
0.0
 10
9.188341168
 20
7.9392501018
 30
0.0
 10
9.1864815754
 20
7.9359108891
 30
0.0
 10
9.1842500322
 20
7.9319038568
 30
0.0
 10
9.1820185058
 20
7.9278968144
 30
0.0
 10
9.1801588713
 20
7.924557627
 30
0.0
 10
9.1786712253
 20
7.9218862471
 30
0.0
 10
9.1777413071
 20
7.9202167024
 30
0.0
 10
9.1769976918
 20
7.9188809116
 30
0.0
 10
9.1764391061
 20
7.917879493
 30
0.0
 10
9.1759763993
 20
7.9170436269
 30
0.0
 10
9.1756470463
 20
7.9164611713
 30
0.0
 10
9.1754673672
 20
7.9161242008
 30
0.0
 10
9.1753085994
 20
7.9158831316
 30
0.0
 10
9.1752416043
 20
7.9155974968
 30
0.0
 10
9.1751202661
 20
7.9152321954
 30
0.0
 10
9.1749228389
 20
7.9145856752
 30
0.0
 10
9.1746330025
 20
7.9136658615
 30
0.0
 10
9.1742885364
 20
7.9125604643
 30
0.0
 10
9.1738280826
 20
7.9110871674
 30
0.0
 10
9.1732529145
 20
7.9092453525
 30
0.0
 10
9.1723324223
 20
7.906298557
 30
0.0
 10
9.1711818842
 20
7.9026150252
 30
0.0
 10
9.169801203
 20
7.898194804
 30
0.0
 10
9.1684205401
 20
7.8937745751
 30
0.0
 10
9.1672699566
 20
7.8900910625
 30
0.0
 10
9.1663495552
 20
7.8871442286
 30
0.0
 10
9.1657741563
 20
7.8853025114
 30
0.0
 10
9.1653141761
 20
7.883829014
 30
0.0
 10
9.1649682628
 20
7.8827242293
 30
0.0
 10
9.1646829545
 20
7.8818024991
 30
0.0
 10
9.164477444
 20
7.8811594002
 30
0.0
 10
9.1643690573
 20
7.880788617
 30
0.0
 10
9.1642622791
 20
7.8805198206
 30
0.0
 10
9.1642529299
 20
7.8802155091
 30
0.0
 10
9.1642064799
 20
7.8798221484
 30
0.0
 10
9.1641410263
 20
7.8791279955
 30
0.0
 10
9.164039243
 20
7.8781393661
 30
0.0
 10
9.1639206464
 20
7.8769517192
 30
0.0
 10
9.16376128
 20
7.875368641
 30
0.0
 10
9.1635624958
 20
7.8733896389
 30
0.0
 10
9.1632442042
 20
7.8702233219
 30
0.0
 10
9.1628464209
 20
7.8662653959
 30
0.0
 10
9.1623690461
 20
7.8615158975
 30
0.0
 10
9.1618916807
 20
7.8567663957
 30
0.0
 10
9.1612551902
 20
7.8504337278
 30
0.0
 10
9.160777823
 20
7.8456842266
 30
0.0
 10
9.1604595781
 20
7.8425178925
 30
0.0
  0
SPLINE
  5
3A5
100
AcDbEntity
  8
0
100
AcDbSpline
 62
4
  6
CONTINUOUS
 70
0
 71
3
 72
313
 73
309
 74
0
 42
0.0000001
 43
0.0000001
 44
0.0000000001
 40
0.0
 40
0.0
 40
0.0
 40
0.0
 40
0.015625
 40
0.0234375
 40
0.03125
 40
0.0390625
 40
0.046875
 40
0.05078125
 40
0.0546875
 40
0.056640625
 40
0.05859375
 40
0.060546875
 40
0.0615234375
 40
0.0620117188
 40
0.0625
 40
0.0629882812
 40
0.0634765625
 40
0.064453125
 40
0.06640625
 40
0.068359375
 40
0.0703125
 40
0.07421875
 40
0.078125
 40
0.0859375
 40
0.09375
 40
0.1015625
 40
0.109375
 40
0.11328125
 40
0.1171875
 40
0.119140625
 40
0.12109375
 40
0.123046875
 40
0.1240234375
 40
0.1245117188
 40
0.125
 40
0.1254882812
 40
0.1259765625
 40
0.126953125
 40
0.12890625
 40
0.130859375
 40
0.1328125
 40
0.13671875
 40
0.140625
 40
0.1484375
 40
0.15625
 40
0.1640625
 40
0.171875
 40
0.17578125
 40
0.1796875
 40
0.181640625
 40
0.18359375
 40
0.185546875
 40
0.1865234375
 40
0.1870117188
 40
0.1875
 40
0.1879882812
 40
0.1884765625
 40
0.189453125
 40
0.19140625
 40
0.193359375
 40
0.1953125
 40
0.19921875
 40
0.203125
 40
0.2109375
 40
0.21875
 40
0.2265625
 40
0.234375
 40
0.23828125
 40
0.2421875
 40
0.244140625
 40
0.24609375
 40
0.248046875
 40
0.2490234375
 40
0.2495117188
 40
0.25
 40
0.2504882812
 40
0.2509765625
 40
0.251953125
 40
0.25390625
 40
0.255859375
 40
0.2578125
 40
0.26171875
 40
0.265625
 40
0.2734375
 40
0.28125
 40
0.2890625
 40
0.296875
 40
0.30078125
 40
0.3046875
 40
0.306640625
 40
0.30859375
 40
0.310546875
 40
0.3115234375
 40
0.3120117188
 40
0.3125
 40
0.3129882812
 40
0.3134765625
 40
0.314453125
 40
0.31640625
 40
0.318359375
 40
0.3203125
 40
0.32421875
 40
0.328125
 40
0.3359375
 40
0.34375
 40
0.3515625
 40
0.359375
 40
0.36328125
 40
0.3671875
 40
0.369140625
 40
0.37109375
 40
0.373046875
 40
0.3740234375
 40
0.3745117188
 40
0.375
 40
0.3754882812
 40
0.3759765625
 40
0.376953125
 40
0.37890625
 40
0.380859375
 40
0.3828125
 40
0.38671875
 40
0.390625
 40
0.3984375
 40
0.40625
 40
0.4140625
 40
0.421875
 40
0.42578125
 40
0.4296875
 40
0.431640625
 40
0.43359375
 40
0.435546875
 40
0.4365234375
 40
0.4370117188
 40
0.4375
 40
0.4379882812
 40
0.4384765625
 40
0.439453125
 40
0.44140625
 40
0.443359375
 40
0.4453125
 40
0.44921875
 40
0.453125
 40
0.4609375
 40
0.46875
 40
0.4765625
 40
0.484375
 40
0.48828125
 40
0.4921875
 40
0.494140625
 40
0.49609375
 40
0.498046875
 40
0.4990234375
 40
0.4995117188
 40
0.5
 40
0.5004882812
 40
0.5009765625
 40
0.501953125
 40
0.50390625
 40
0.505859375
 40
0.5078125
 40
0.51171875
 40
0.515625
 40
0.5234375
 40
0.53125
 40
0.5390625
 40
0.546875
 40
0.55078125
 40
0.5546875
 40
0.556640625
 40
0.55859375
 40
0.560546875
 40
0.5615234375
 40
0.5620117188
 40
0.5625
 40
0.5629882812
 40
0.5634765625
 40
0.564453125
 40
0.56640625
 40
0.568359375
 40
0.5703125
 40
0.57421875
 40
0.578125
 40
0.5859375
 40
0.59375
 40
0.6015625
 40
0.609375
 40
0.61328125
 40
0.6171875
 40
0.619140625
 40
0.62109375
 40
0.623046875
 40
0.6240234375
 40
0.6245117188
 40
0.625
 40
0.6254882812
 40
0.6259765625
 40
0.626953125
 40
0.62890625
 40
0.630859375
 40
0.6328125
 40
0.63671875
 40
0.640625
 40
0.6484375
 40
0.65625
 40
0.6640625
 40
0.671875
 40
0.67578125
 40
0.6796875
 40
0.681640625
 40
0.68359375
 40
0.685546875
 40
0.6865234375
 40
0.6870117188
 40
0.6875
 40
0.6879882812
 40
0.6884765625
 40
0.689453125
 40
0.69140625
 40
0.693359375
 40
0.6953125
 40
0.69921875
 40
0.703125
 40
0.7109375
 40
0.71875
 40
0.7265625
 40
0.734375
 40
0.73828125
 40
0.7421875
 40
0.744140625
 40
0.74609375
 40
0.748046875
 40
0.7490234375
 40
0.7495117188
 40
0.75
 40
0.7504882812
 40
0.7509765625
 40
0.751953125
 40
0.75390625
 40
0.755859375
 40
0.7578125
 40
0.76171875
 40
0.765625
 40
0.7734375
 40
0.78125
 40
0.7890625
 40
0.796875
 40
0.80078125
 40
0.8046875
 40
0.806640625
 40
0.80859375
 40
0.810546875
 40
0.8115234375
 40
0.8120117188
 40
0.8125
 40
0.8129882812
 40
0.8134765625
 40
0.814453125
 40
0.81640625
 40
0.818359375
 40
0.8203125
 40
0.82421875
 40
0.828125
 40
0.8359375
 40
0.84375
 40
0.8515625
 40
0.859375
 40
0.86328125
 40
0.8671875
 40
0.869140625
 40
0.87109375
 40
0.873046875
 40
0.8740234375
 40
0.8745117188
 40
0.875
 40
0.8754882812
 40
0.8759765625
 40
0.876953125
 40
0.87890625
 40
0.880859375
 40
0.8828125
 40
0.88671875
 40
0.890625
 40
0.8984375
 40
0.90625
 40
0.9140625
 40
0.921875
 40
0.92578125
 40
0.9296875
 40
0.931640625
 40
0.93359375
 40
0.935546875
 40
0.9365234375
 40
0.9370117188
 40
0.9375
 40
0.9379882812
 40
0.9384765625
 40
0.939453125
 40
0.94140625
 40
0.943359375
 40
0.9453125
 40
0.94921875
 40
0.953125
 40
0.9609375
 40
0.96875
 40
0.9765625
 40
0.984375
 40
1.0
 40
1.0
 40
1.0
 40
1.0
 10
9.1604595781
 20
7.8425179094
 30
0.0
 10
9.1607667898
 20
7.8393634173
 30
0.0
 10
9.161227607
 20
7.8346316791
 30
0.0
 10
9.161842031
 20
7.8283226949
 30
0.0
 10
9.1623028465
 20
7.8235909565
 30
0.0
 10
9.1627636714
 20
7.8188592193
 30
0.0
 10
9.1631476631
 20
7.8149161012
 30
0.0
 10
9.1634549215
 20
7.8117616151
 30
0.0
 10
9.1636468098
 20
7.8097900422
 30
0.0
 10
9.1638006598
 20
7.8082128275
 30
0.0
 10
9.1639151183
 20
7.807029797
 30
0.0
 10
9.1640134556
 20
7.8060443185
 30
0.0
 10
9.1640764921
 20
7.8053537373
 30
0.0
 10
9.1641215687
 20
7.8049602846
 30
0.0
 10
9.1641298659
 20
7.8046619131
 30
0.0
 10
9.164235676
 20
7.804376087
 30
0.0
 10
9.1643427426
 20
7.8039906096
 30
0.0
 10
9.1645459566
 20
7.803318063
 30
0.0
 10
9.1648279771
 20
7.8023562163
 30
0.0
 10
9.165169948
 20
7.8012024564
 30
0.0
 10
9.1656246705
 20
7.7996639505
 30
0.0
 10
9.1661934978
 20
7.7977408728
 30
0.0
 10
9.1671033844
 20
7.7946639178
 30
0.0
 10
9.1682408246
 20
7.7908177348
 30
0.0
 10
9.1696057154
 20
7.7862023099
 30
0.0
 10
9.1709706244
 20
7.7815868892
 30
0.0
 10
9.1721080191
 20
7.7777406956
 30
0.0
 10
9.1730179966
 20
7.7746637618
 30
0.0
 10
9.1735865929
 20
7.7727406303
 30
0.0
 10
9.1740417897
 20
7.7712022348
 30
0.0
 10
9.1743823117
 20
7.7700481379
 30
0.0
 10
9.1746688654
 20
7.7690873454
 30
0.0
 10
9.1748639868
 20
7.7684129168
 30
0.0
 10
9.1749840197
 20
7.7680304549
 30
0.0
 10
9.1750500012
 20
7.767735366
 30
0.0
 10
9.1752078881
 20
7.7674717842
 30
0.0
 10
9.1753863464
 20
7.7671093517
 30
0.0
 10
9.1757135845
 20
7.7664802153
 30
0.0
 10
9.1761732588
 20
7.765578772
 30
0.0
 10
9.1767282103
 20
7.7644981859
 30
0.0
 10
9.1774669782
 20
7.7630570042
 30
0.0
 10
9.1783908378
 20
7.7612556641
 30
0.0
 10
9.1798687898
 20
7.7583734433
 30
0.0
 10
9.1817163069
 20
7.7547706939
 30
0.0
 10
9.1839332922
 20
7.7504473822
 30
0.0
 10
9.1861502948
 20
7.7461240775
 30
0.0
 10
9.1879977685
 20
7.7425213104
 30
0.0
 10
9.1894758073
 20
7.739639125
 30
0.0
 10
9.190399446
 20
7.7378376948
 30
0.0
 10
9.1911386674
 20
7.7363966981
 30
0.0
 10
9.1916922334
 20
7.7353155469
 30
0.0
 10
9.1921562426
 20
7.7344158716
 30
0.0
 10
9.1924757421
 20
7.733783579
 30
0.0
 10
9.1926665996
 20
7.7334262036
 30
0.0
 10
9.1927864
 20
7.7331470879
 30
0.0
 10
9.1929954282
 20
7.7329103417
 30
0.0
 10
9.1932430087
 20
7.7325799012
 30
0.0
 10
9.1936907758
 20
7.732008516
 30
0.0
 10
9.1943228617
 20
7.7311886516
 30
0.0
 10
9.1950846098
 20
7.7302063551
 30
0.0
 10
9.1960991405
 20
7.7288960883
 30
0.0
 10
9.197367692
 20
7.7272584391
 30
0.0
 10
9.1993971574
 20
7.7246380973
 30
0.0
 10
9.201934064
 20
7.7213627059
 30
0.0
 10
9.2049783183
 20
7.7174322191
 30
0.0
 10
9.2080225875
 20
7.7135017433
 30
0.0
 10
9.210559457
 20
7.7102263241
 30
0.0
 10
9.2125889966
 20
7.7076060379
 30
0.0
 10
9.2138573597
 20
7.7059682475
 30
0.0
 10
9.2148722771
 20
7.7046582704
 30
0.0
 10
9.2156328437
 20
7.7036750889
 30
0.0
 10
9.2162686263
 20
7.7028579937
 30
0.0
 10
9.2167097941
 20
7.7022816649
 30
0.0
 10
9.2169679483
 20
7.7019591455
 30
0.0
 10
9.2171444977
 20
7.7016980681
 30
0.0
 10
9.2173862831
 20
7.7015103363
 30
0.0
 10
9.2176859086
 20
7.7012344434
 30
0.0
 10
9.2182208552
 20
7.7007635509
 30
0.0
 10
9.2189795218
 20
7.7000846153
 30
0.0
 10
9.2198922942
 20
7.6992725601
 30
0.0
 10
9.2211084955
 20
7.6981888882
 30
0.0
 10
9.2226290308
 20
7.6968346173
 30
0.0
 10
9.2250617287
 20
7.6946676055
 30
0.0
 10
9.2281026557
 20
7.6919589023
 30
0.0
 10
9.2317517434
 20
7.6887084303
 30
0.0
 10
9.2354008427
 20
7.6854579728
 30
0.0
 10
9.2384417408
 20
7.6827492332
 30
0.0
 10
9.2408744965
 20
7.6805822944
 30
0.0
 10
9.2423948848
 20
7.6792278379
 30
0.0
 10
9.2436113878
 20
7.6781445468
 30
0.0
 10
9.2445232383
 20
7.6773313281
 30
0.0
 10
9.2452847896
 20
7.676656033
 30
0.0
 10
9.2458145865
 20
7.6761786416
 30
0.0
 10
9.2461224631
 20
7.6759131616
 30
0.0
 10
9.2463389038
 20
7.6756934448
 30
0.0
 10
9.2466106437
 20
7.6755524978
 30
0.0
 10
9.2469536745
 20
7.6753370926
 30
0.0
 10
9.2475629655
 20
7.6749729351
 30
0.0
 10
9.2484286828
 20
7.6744460174
 30
0.0
 10
9.2494695546
 20
7.6738165808
 30
0.0
 10
9.2508566812
 20
7.6729763314
 30
0.0
 10
9.25259083
 20
7.6719263622
 30
0.0
 10
9.2553653337
 20
7.6702462201
 30
0.0
 10
9.2588335096
 20
7.6681461086
 30
0.0
 10
9.2629952999
 20
7.6656259443
 30
0.0
 10
9.2671570991
 20
7.6631057961
 30
0.0
 10
9.2706252526
 20
7.6610056444
 30
0.0
 10
9.2733998011
 20
7.6593255828
 30
0.0
 10
9.2751338359
 20
7.6582754089
 30
0.0
 10
9.2765211966
 20
7.6574355798
 30
0.0
 10
9.2775613532
 20
7.656804859
 30
0.0
 10
9.2784293081
 20
7.6562819593
 30
0.0
 10
9.2790346045
 20
7.6559106288
 30
0.0
 10
9.2793840358
 20
7.6557067166
 30
0.0
 10
9.2796361155
 20
7.655530467
 30
0.0
 10
9.2799263965
 20
7.6554433408
 30
0.0
 10
9.2803001127
 20
7.6552960853
 30
0.0
 10
9.2809603245
 20
7.6550528723
 30
0.0
 10
9.2819002385
 20
7.6546978527
 30
0.0
 10
9.2830295245
 20
7.6542750703
 30
0.0
 10
9.2845347539
 20
7.6537102285
 30
0.0
 10
9.2864164569
 20
7.6530045638
 30
0.0
 10
9.2894270887
 20
7.6518752836
 30
0.0
 10
9.2931904106
 20
7.6504637582
 30
0.0
 10
9.2977063824
 20
7.6487698934
 30
0.0
 10
9.3022223606
 20
7.6470760463
 30
0.0
 10
9.3059856664
 20
7.6456644766
 30
0.0
 10
9.3089963304
 20
7.644535285
 30
0.0
 10
9.3108779517
 20
7.6438293952
 30
0.0
 10
9.3123833487
 20
7.6432650154
 30
0.0
 10
9.3135121226
 20
7.6428408214
 30
0.0
 10
9.314453639
 20
7.6424902187
 30
0.0
 10
9.3151109901
 20
7.6422391207
 30
0.0
 10
9.31548929
 20
7.6421044989
 30
0.0
 10
9.3157654915
 20
7.641978566
 30
0.0
 10
9.3160704512
 20
7.6419480677
 30
0.0
 10
9.316467033
 20
7.6418741147
 30
0.0
 10
9.3171657248
 20
7.6417602067
 30
0.0
 10
9.3181614125
 20
7.6415893722
 30
0.0
 10
9.3193572836
 20
7.6413878417
 30
0.0
 10
9.3209514131
 20
7.641117922
 30
0.0
 10
9.3229442001
 20
7.6407809376
 30
0.0
 10
9.3261325893
 20
7.6402415303
 30
0.0
 10
9.3301180998
 20
7.6395673515
 30
0.0
 10
9.3349007024
 20
7.6387583
 30
0.0
 10
9.3396833068
 20
7.6379492675
 30
0.0
 10
9.3436688126
 20
7.6372750413
 30
0.0
 10
9.3468572113
 20
7.6367357288
 30
0.0
 10
9.3488499741
 20
7.6363985037
 30
0.0
 10
9.3504441533
 20
7.6361290779
 30
0.0
 10
9.3516398727
 20
7.6359260386
 30
0.0
 10
9.3526360349
 20
7.6357599247
 30
0.0
 10
9.3533338797
 20
7.6356375897
 30
0.0
 10
9.3537318186
 20
7.6355771388
 30
0.0
 10
9.3540326097
 20
7.6355051662
 30
0.0
 10
9.3543244676
 20
7.6355350041
 30
0.0
 10
9.3547167275
 20
7.6355392753
 30
0.0
 10
9.3554017305
 20
7.635563296
 30
0.0
 10
9.3563810652
 20
7.6355889608
 30
0.0
 10
9.3575559419
 20
7.6356234612
 30
0.0
 10
9.3591225578
 20
7.6356681685
 30
0.0
 10
9.3610807887
 20
7.6357244955
 30
0.0
 10
9.3642139799
 20
7.635814371
 30
0.0
 10
9.3681304614
 20
7.635926801
 30
0.0
 10
9.3728302428
 20
7.6360616779
 30
0.0
 10
9.3775300215
 20
7.636196574
 30
0.0
 10
9.3814465098
 20
7.6363089558
 30
0.0
 10
9.3845796874
 20
7.6363989277
 30
0.0
 10
9.3865379528
 20
7.6364550098
 30
0.0
 10
9.3881044979
 20
7.6365002195
 30
0.0
 10
9.3892795907
 20
7.6365331851
 30
0.0
 10
9.3902582495
 20
7.6365636522
 30
0.0
 10
9.3909444591
 20
7.6365790999
 30
0.0
 10
9.3913347857
 20
7.6365971072
 30
0.0
 10
9.3916325819
 20
7.6365847522
 30
0.0
 10
9.39191107
 20
7.6366712491
 30
0.0
 10
9.3922891223
 20
7.6367520977
 30
0.0
 10
9.3929475759
 20
7.6369096478
 30
0.0
 10
9.3938898645
 20
7.6371263203
 30
0.0
 10
9.3950199086
 20
7.6373899224
 30
0.0
 10
9.3965268793
 20
7.6377401361
 30
0.0
 10
9.3984105088
 20
7.6381783333
 30
0.0
 10
9.4014243629
 20
7.6388792084
 30
0.0
 10
9.4051916642
 20
7.6397553853
 30
0.0
 10
9.4097124336
 20
7.6408067597
 30
0.0
 10
9.4142331975
 20
7.6418581527
 30
0.0
 10
9.4180005125
 20
7.6427342832
 30
0.0
 10
9.4210143392
 20
7.6434352511
 30
0.0
 10
9.4228980384
 20
7.6438732124
 30
0.0
 10
9.4244048659
 20
7.6442239103
 30
0.0
 10
9.4255353475
 20
7.6444860332
 30
0.0
 10
9.4264762674
 20
7.6447073339
 30
0.0
 10
9.4271371644
 20
7.6448566219
 30
0.0
 10
9.4275113019
 20
7.6449507084
 30
0.0
 10
9.4278018149
 20
7.6449965427
 30
0.0
 10
9.4280544473
 20
7.6451369095
 30
0.0
 10
9.4284045037
 20
7.6452910912
 30
0.0
 10
9.429010946
 20
7.6455762725
 30
0.0
 10
9.4298805108
 20
7.6459756422
 30
0.0
 10
9.4309226109
 20
7.6464583238
 30
0.0
 10
9.4323125589
 20
7.6471006985
 30
0.0
 10
9.4340498291
 20
7.647904078
 30
0.0
 10
9.4368295535
 20
7.6491892554
 30
0.0
 10
9.4403041772
 20
7.6507958066
 30
0.0
 10
9.4444737405
 20
7.6527236317
 30
0.0
 10
9.4486432955
 20
7.6546514747
 30
0.0
 10
9.4521179399
 20
7.6562579809
 30
0.0
 10
9.4548976229
 20
7.6575432481
 30
0.0
 10
9.4566349985
 20
7.6583463994
 30
0.0
 10
9.4580247301
 20
7.6589892426
 30
0.0
 10
9.4590674914
 20
7.6594704929
 30
0.0
 10
9.4599349875
 20
7.659874341
 30
0.0
 10
9.4605451228
 20
7.6601515275
 30
0.0
 10
9.4608892621
 20
7.6603185189
 30
0.0
 10
9.4611600697
 20
7.6604195387
 30
0.0
 10
9.4613823197
 20
7.6606131537
 30
0.0
 10
9.4616955905
 20
7.6608390089
 30
0.0
 10
9.4622359229
 20
7.6612493037
 30
0.0
 10
9.463011952
 20
7.6618275718
 30
0.0
 10
9.463941421
 20
7.662524861
 30
0.0
 10
9.4651813299
 20
7.6634534038
 30
0.0
 10
9.4667310047
 20
7.664614485
 30
0.0
 10
9.4692106026
 20
7.6664719897
 30
0.0
 10
9.472310059
 20
7.6687939483
 30
0.0
 10
9.4760294261
 20
7.6715802636
 30
0.0
 10
9.479748781
 20
7.6743665946
 30
0.0
 10
9.4828482678
 20
7.676688514
 30
0.0
 10
9.485327805
 20
7.6785460971
 30
0.0
 10
9.486877634
 20
7.6797069792
 30
0.0
 10
9.4881172263
 20
7.6806359306
 30
0.0
 10
9.4890476624
 20
7.6813319712
 30
0.0
 10
9.4898206659
 20
7.6819141459
 30
0.0
 10
9.4903663997
 20
7.6823174669
 30
0.0
 10
9.490671016
 20
7.6825544959
 30
0.0
 10
9.4909198496
 20
7.6827137886
 30
0.0
 10
9.4910908136
 20
7.6829437176
 30
0.0
 10
9.4913459273
 20
7.6832256509
 30
0.0
 10
9.4917797212
 20
7.6837305138
 30
0.0
 10
9.492406043
 20
7.6844457448
 30
0.0
 10
9.4931547973
 20
7.685306591
 30
0.0
 10
9.4941541254
 20
7.6864534886
 30
0.0
 10
9.4954029468
 20
7.6878874178
 30
0.0
 10
9.4974012504
 20
7.6901815329
 30
0.0
 10
9.4998990645
 20
7.6930492359
 30
0.0
 10
9.5028964715
 20
7.6964904528
 30
0.0
 10
9.5058938631
 20
7.6999316822
 30
0.0
 10
9.5083917157
 20
7.7027993537
 30
0.0
 10
9.5103899423
 20
7.7050935319
 30
0.0
 10
9.5116389595
 20
7.7065273005
 30
0.0
 10
9.5126378858
 20
7.7076745278
 30
0.0
 10
9.5133878675
 20
7.7085343668
 30
0.0
 10
9.5140103488
 20
7.7092527489
 30
0.0
 10
9.5144509987
 20
7.7097519867
 30
0.0
 10
9.5146951274
 20
7.7100429329
 30
0.0
 10
9.514899834
 20
7.7102451772
 30
0.0
 10
9.5150219358
 20
7.7105084492
 30
0.0
 10
9.5152135517
 20
7.7108381914
 30
0.0
 10
9.5155354547
 20
7.7114251584
 30
0.0
 10
9.5160023348
 20
7.7122584974
 30
0.0
 10
9.5165595867
 20
7.7132607237
 30
0.0
 10
9.5173036385
 20
7.7145962501
 30
0.0
 10
9.518233344
 20
7.7162659237
 30
0.0
 10
9.5197210737
 20
7.7189372529
 30
0.0
 10
9.5215806663
 20
7.7222764656
 30
0.0
 10
9.5238122095
 20
7.7262834979
 30
0.0
 10
9.5260437359
 20
7.7302905402
 30
0.0
 10
9.5279033704
 20
7.7336297276
 30
0.0
 10
9.5293910164
 20
7.7363011075
 30
0.0
 10
9.5303209346
 20
7.7379706522
 30
0.0
 10
9.5310645498
 20
7.7393064431
 30
0.0
 10
9.5316231356
 20
7.7403078616
 30
0.0
 10
9.5320858424
 20
7.7411437277
 30
0.0
 10
9.5324151954
 20
7.7417261834
 30
0.0
 10
9.5325948745
 20
7.7420631539
 30
0.0
 10
9.5327536423
 20
7.742304223
 30
0.0
 10
9.5328206374
 20
7.7425898579
 30
0.0
 10
9.5329419756
 20
7.7429551593
 30
0.0
 10
9.5331394028
 20
7.7436016795
 30
0.0
 10
9.5334292392
 20
7.7445214932
 30
0.0
 10
9.5337737053
 20
7.7456268904
 30
0.0
 10
9.5342341591
 20
7.7471001873
 30
0.0
 10
9.5348093272
 20
7.7489420022
 30
0.0
 10
9.5357298194
 20
7.7518887977
 30
0.0
 10
9.5368803575
 20
7.7555723294
 30
0.0
 10
9.5382610386
 20
7.7599925507
 30
0.0
 10
9.5396417016
 20
7.7644127796
 30
0.0
 10
9.5407922851
 20
7.7680962921
 30
0.0
 10
9.5417126865
 20
7.7710431261
 30
0.0
 10
9.5422880854
 20
7.7728848433
 30
0.0
 10
9.5427480656
 20
7.7743583407
 30
0.0
 10
9.5430939789
 20
7.7754631253
 30
0.0
 10
9.5433792872
 20
7.7763848556
 30
0.0
 10
9.5435847977
 20
7.7770279544
 30
0.0
 10
9.5436931844
 20
7.7773987377
 30
0.0
 10
9.5437999626
 20
7.7776675341
 30
0.0
 10
9.5438093118
 20
7.7779718456
 30
0.0
 10
9.5438557618
 20
7.7783652062
 30
0.0
 10
9.5439212154
 20
7.7790593591
 30
0.0
 10
9.5440229987
 20
7.7800479886
 30
0.0
 10
9.5441415953
 20
7.7812356355
 30
0.0
 10
9.5443009617
 20
7.7828187136
 30
0.0
 10
9.5444997459
 20
7.7847977157
 30
0.0
 10
9.5448180375
 20
7.7879640328
 30
0.0
 10
9.5452158208
 20
7.7919219587
 30
0.0
 10
9.5456931955
 20
7.7966714572
 30
0.0
 10
9.546170561
 20
7.801420959
 30
0.0
 10
9.5468070515
 20
7.8077536269
 30
0.0
 10
9.5472844186
 20
7.8125031281
 30
0.0
 10
9.5476026636
 20
7.8156694622
 30
0.0
  0
ENDSEC
  0
SECTION
  2
OBJECTS
  0
DICTIONARY
  5
C
100
AcDbDictionary
280
0
281
1
  3
ACAD_GROUP
350
D
  3
ACAD_MLINESTYLE
350
17
  3
ACAD_LAYOUT
350
1A
  3
ACAD_PLOTSETTINGS
350
19
  3
ACAD_PLOTSTYLENAME
350
E
  3
ACAD_IMAGE_DICT
350
       3A7
  3
ACAD_IMAGE_VARS
350
       3A8
  3
ACAD_TABLESTYLE
350
       3A9
  0
IMAGEDEF_REACTOR
  5
3A6
100
AcDbRasterImageDefReactor
 90
2
330
287
  0
DICTIONARY
  5
D
102
{ACAD_REACTORS
330
C
102
}
100
AcDbDictionary
280
0
281
1
  0
ACDBDICTIONARYWDFLT
  5
E
102
{ACAD_REACTORS
330
C
102
}
100
AcDbDictionary
281
1
  3
Normal
350
F
100
AcDbDictionaryWithDefault
340
F
  0
DICTIONARY
  5
3A7
330
C
100
AcDbDictionary
281
1
  3
H6N_assy_2_img_1
350
       3AC
  0
RASTERVARIABLES
  5
3A8
330
C
100
AcDbRasterVariables
 90
0
 70
0
 71
1
 72
5
  0
DICTIONARY
  5
17
102
{ACAD_REACTORS
330
C
102
}
100
AcDbDictionary
280
0
281
1
  3
Standard
350
18
  0
DICTIONARY
  5
3A9
330
C
100
AcDbDictionary
281
1
  3
Standard
350
       3AD
  3
Standard1
350
       3AE
  0
DICTIONARY
  5
19
102
{ACAD_REACTORS
330
C
102
}
100
AcDbDictionary
281
1
  0
DICTIONARY
  5
1A
102
{ACAD_REACTORS
330
C
102
}
100
AcDbDictionary
281
1
  3
Model
350
3AA
  3
Layout1
350
3AB
  0
ACDBPLACEHOLDER
  5
F
102
{ACAD_REACTORS
330
E
102
}
  0
MLINESTYLE
  5
18
102
{ACAD_REACTORS
330
17
102
}
100
AcDbMlineStyle
  2
STANDARD
 70
0
  3

 62
256
 51
90.0
 52
90.0
 71
2
 49
0.5
 62
256
  6
BYLAYER
 49
-0.5
 62
256
  6
BYLAYER
  0
LAYOUT
  5
3AA
102
{ACAD_REACTORS
330
1A
102
}
100
AcDbPlotSettings
  1

  2
none_device
  4
ANSI_C_(22.00_x_17.00_Inches)
  6

 40
0.0
 41
0.0
 42
0.0
 43
0.0
 44
558.8
 45
431.8
 46
0.0
 47
0.0
 48
0.0
 49
0.0
140
0.0
141
0.0
142
1.0
143
1.0
 70
1024
 72
0
 73
0
 74
0
  7

 75
0
147
1.0
148
0.0
149
0.0
100
AcDbLayout
  1
Model
 70
0
 71
0
 10
0.0
 20
0.0
 11
22.0
 21
17.0
 12
0.0
 22
0.0
 32
0.0
 14
0.0
 24
0.0
 34
0.0
 15
0.0
 25
0.0
 35
0.0
146
0.0
 13
0.0
 23
0.0
 33
0.0
 16
1.0
 26
0.0
 36
0.0
 17
0.0
 27
1.0
 37
0.0
 76
0
330
204
345
0
346
0
  0
LAYOUT
  5
3AB
102
{ACAD_REACTORS
330
1A
102
}
100
AcDbPlotSettings
  1

  2
none_device
  4
ANSI_C_(22.00_x_17.00_Inches)
  6

 40
0.0
 41
0.0
 42
0.0
 43
0.0
 44
558.8
 45
431.8
 46
0.0
 47
0.0
 48
0.0
 49
0.0
140
0.0
141
0.0
142
1.0
143
1.0
 70
0
 72
0
 73
0
 74
0
  7

 75
0
147
1.0
148
0.0
149
0.0
100
AcDbLayout
  1
Layout1
 70
0
 71
1
 10
0.0
 20
0.0
 11
22.0
 21
17.0
 12
0.0
 22
0.0
 32
0.0
 14
0.0
 24
0.0
 34
0.0
 15
0.0
 25
0.0
 35
0.0
146
0.0
 13
0.0
 23
0.0
 33
0.0
 16
1.0
 26
0.0
 36
0.0
 17
0.0
 27
1.0
 37
0.0
 76
0
330
205
345
0
346
0
  0
IMAGEDEF
  5
3AC
102
{ACAD_REACTORS
330
3A7
330
3A6
102
}
100
AcDbRasterImageDef
 90
0
  1
H6N_assy_2_img_1.png
 10
369.0
 20
92.0
 11
0.0066666667
 21
0.0066666667
280
1
281
0
  0
TABLESTYLE
  5
3AD
102
{ACAD_REACTORS
330
3A9
330
28A
330
28B
102
}
330
3A9
100
AcDbTableStyle
  3
Standard
 70
0
 71
0
 40
0.06
 41
0.06
280
1
281
1
  7
Standard
140
0.18
170
1
 62
0
 63
7
283
0
  7
Standard
140
0.18
170
1
 62
0
 63
7
283
0
  7
Standard
140
0.18
170
1
 62
0
 63
7
283
0
  0
TABLESTYLE
  5
3AE
102
{ACAD_REACTORS
330
3A9
330
289
102
}
330
3A9
100
AcDbTableStyle
  3
Standard1
 70
1
 71
0
 40
0.06
 41
0.06
280
1
281
1
  7
Standard
140
0.18
170
1
 62
0
 63
7
283
0
  7
Standard
140
0.18
170
1
 62
0
 63
7
283
0
  7
Standard
140
0.18
170
1
 62
0
 63
7
283
0
  0
ENDSEC
  0
EOF
