999
DXF file: H4X_assy_2.dxf
999
Pro/ENGINEER 2014200 by Parametric Technology Corporation
  0
SECTION
  2
HEADER
  9
$ACADVER
  1
AC1021
  9
$DWGCODEPAGE
  3
ANSI_1252
  9
$EXTMAX
 10
22.0
 20
17.0
 30
0.0
  9
$EXTMIN
 10
0.0
 20
0.0
 30
0.0
  9
$LIMMIN
 10
0.0
 20
0.0
  9
$LIMMAX
 10
22.0
 20
17.0
  9
$VIEWCTR
 10
11.0
 20
8.5
  9
$VIEWSIZE
 40
17.0
  9
$CLAYER
  8
0
  9
$LTSCALE
 40
1.21
  9
$CELTYPE
  6
BYLAYER
  9
$DIMSCALE
 40
1.0
  9
$DIMASZ
 40
0.1875
  9
$DIMEXO
 40
0.0625
  9
$DIMDLI
 40
0.836
  9
$DIMEXE
 40
0.125
  9
$DIMCEN
 40
0.198
  9
$DIMLFAC
 40
1.0
  9
$DIMBLK
  1
_FILLED
  9
$DIMTXT
 40
0.1
  9
$DIMTOL
 70
0
  9
$DIMLIM
 70
0
  9
$DIMTFAC
 40
1.0
  9
$DIMGAP
 40
0.09
  9
$DIMDSEP
 70
46
  9
$AUNITS
 70
0
  9
$PDMODE
 70
3
  9
$PDSIZE
 40
0.3125
  9
$HANDSEED
  5
3D0
  9
$TILEMODE
 70
1
  9
$MEASUREMENT
 70
0
  9
$INSUNITS
 70
1
  0
ENDSEC
  0
SECTION
  2
CLASSES
  0
CLASS
  1
ACDBDICTIONARYWDFLT
  2
AcDbDictionaryWithDefault
  3
AutoCAD 2000
 90
0
 91
1
280
0
281
0
  0
CLASS
  1
ACDBPLACEHOLDER
  2
AcDbPlaceHolder
  3
AutoCAD 2000
 90
0
 91
1
280
0
281
0
  0
CLASS
  1
LAYOUT
  2
AcDbLayout
  3
AutoCAD 2000
 90
0
 91
0
280
0
281
0
  0
CLASS
  1
RASTERVARIABLES
  2
AcDbRasterVariables
  3
ISM
 90
0
 91
1
280
0
281
0
  0
CLASS
  1
IMAGEDEF
  2
AcDbRasterImageDef
  3
ISM
 90
0
 91
1
280
0
281
0
  0
CLASS
  1
IMAGEDEF_REACTOR
  2
AcDbRasterImageDefReactor
  3
ISM
 90
0
 91
1
280
0
281
0
  0
CLASS
  1
IMAGE
  2
AcDbRasterImage
  3
ISM
 90
127
 91
1
280
0
281
1
  0
CLASS
  1
TABLESTYLE
  2
AcDbTableStyle
  3
ObjectDBX Classes
 90
2047
 91
1
280
0
281
0
  0
CLASS
  1
ACAD_TABLE
  2
AcDbTable
  3
ObjectDBX Classes
 90
1025
 91
3
280
0
281
1
  0
ENDSEC
  0
SECTION
  2
TABLES
  0
TABLE
  2
VPORT
  5
8
100
AcDbSymbolTable
 70
2
  0
VPORT
  5
1F4
100
AcDbSymbolTableRecord
100
AcDbViewportTableRecord
  2
*ACTIVE
 70
0
 10
0.0
 20
0.0
 11
1.0
 21
1.0
 12
11.0
 22
8.5
 13
0.0
 23
0.0
 14
1.0
 24
1.0
 15
0.0
 25
0.0
 16
0.0
 26
0.0
 36
1.0
 17
0.0
 27
0.0
 37
0.0
 40
17.0
 41
1.2941176471
 42
50.0
 43
0.0
 44
0.0
 50
0.0
 51
0.0
 71
0
 72
100
 73
1
 74
1
 75
0
 76
0
 77
0
 78
0
  0
ENDTAB
  0
TABLE
  2
LTYPE
  5
5
100
AcDbSymbolTable
 70
6
  0
LTYPE
  5
14
100
AcDbSymbolTableRecord
100
AcDbLinetypeTableRecord
  2
BYBLOCK
 70
0
  3

 72
65
 73
0
 40
0.0
  0
LTYPE
  5
15
100
AcDbSymbolTableRecord
100
AcDbLinetypeTableRecord
  2
BYLAYER
 70
0
  3

 72
65
 73
0
 40
0.0
  0
LTYPE
  5
16
100
AcDbSymbolTableRecord
100
AcDbLinetypeTableRecord
  2
CONTINUOUS
 70
64
  3
Solid line
 72
65
 73
0
 40
0.0
  0
LTYPE
  5
1F5
100
AcDbSymbolTableRecord
100
AcDbLinetypeTableRecord
  2
CENTER
 70
64
  3
____ _ ____ _ ____ _ ____ _ ____ _ ____ _ ____
 72
65
 73
4
 40
0.6
 49
0.375
 74
0
 49
-0.075
 74
0
 49
0.075
 74
0
 49
-0.075
 74
0
  0
LTYPE
  5
1F6
100
AcDbSymbolTableRecord
100
AcDbLinetypeTableRecord
  2
HIDDEN
 70
64
  3
- - - - - - - - - - - - - - - - - - - -
 72
65
 73
2
 40
0.2
 49
0.1
 74
0
 49
-0.1
 74
0
  0
LTYPE
  5
1F7
100
AcDbSymbolTableRecord
100
AcDbLinetypeTableRecord
  2
PHANTOM
 70
64
  3
_____ _ _ _____ _ _ _____ _ _ _____
 72
65
 73
6
 40
0.8
 49
0.45
 74
0
 49
-0.05
 74
0
 49
0.1
 74
0
 49
-0.05
 74
0
 49
0.1
 74
0
 49
-0.05
 74
0
  0
LTYPE
  5
1F8
100
AcDbSymbolTableRecord
100
AcDbLinetypeTableRecord
  2
DOT
 70
64
  3
. . . . . . . . . . . . . . . . . . . .
 72
65
 73
2
 40
0.2
 49
0.1
 74
0
 49
-0.1
 74
0
  0
LTYPE
  5
1F9
100
AcDbSymbolTableRecord
100
AcDbLinetypeTableRecord
  2
DASHED
 70
64
  3
- - - - - - - - - - - - - - - - - - - -
 72
65
 73
2
 40
0.2
 49
0.1
 74
0
 49
-0.1
 74
0
  0
ENDTAB
  0
TABLE
  2
LAYER
  5
2
100
AcDbSymbolTable
 70
36
  0
LAYER
  5
10
100
AcDbSymbolTableRecord
100
AcDbLayerTableRecord
  2
0
 70
0
 62
7
  6
CONTINUOUS
370
-3
390
F
  0
LAYER
  5
1FA
100
AcDbSymbolTableRecord
100
AcDbLayerTableRecord
  2
DEFAULT_1
 70
0
 62
7
  6
CENTER
370
-3
390
F
  0
LAYER
  5
1FB
100
AcDbSymbolTableRecord
100
AcDbLayerTableRecord
  2
DEFAULT_2
 70
0
 62
8
  6
HIDDEN
370
-3
390
F
  0
LAYER
  5
1FC
100
AcDbSymbolTableRecord
100
AcDbLayerTableRecord
  2
DEFAULT_3
 70
0
 62
7
  6
PHANTOM
370
-3
390
F
  0
LAYER
  5
1FD
100
AcDbSymbolTableRecord
100
AcDbLayerTableRecord
  2
DATUM_PLANES
 70
0
 62
7
  6
CONTINUOUS
370
-3
390
F
  0
LAYER
  5
1FE
100
AcDbSymbolTableRecord
100
AcDbLayerTableRecord
  2
PORT_AREAS
 70
0
 62
7
  6
CONTINUOUS
370
-3
390
F
  0
LAYER
  5
1FF
100
AcDbSymbolTableRecord
100
AcDbLayerTableRecord
  2
SUNNBOMCOSMETIC
 70
0
 62
7
  6
CONTINUOUS
370
-3
390
F
  0
LAYER
  5
200
100
AcDbSymbolTableRecord
100
AcDbLayerTableRecord
  2
SUNNBOMSTAMPING
 70
0
 62
7
  6
CONTINUOUS
370
-3
390
F
  0
LAYER
  5
201
100
AcDbSymbolTableRecord
100
AcDbLayerTableRecord
  2
THREADS
 70
0
 62
7
  6
CONTINUOUS
370
-3
390
F
  0
ENDTAB
  0
TABLE
  2
STYLE
  5
3
100
AcDbSymbolTable
 70
1
  0
STYLE
  5
11
100
AcDbSymbolTableRecord
100
AcDbTextStyleTableRecord
  2
STANDARD
 70
0
 40
0.0
 41
0.8
 50
0.0
 71
0
 42
0.2
  3
txt
  4

  0
STYLE
  5
202
100
AcDbSymbolTableRecord
100
AcDbTextStyleTableRecord
  2
TEXTSTYLE_1
 70
0
 40
0.0
 41
0.8
 50
0.0
 71
0
 42
0.2
  3
gdt
  4

  0
ENDTAB
  0
TABLE
  2
VIEW
  5
6
100
AcDbSymbolTable
 70
0
  0
ENDTAB
  0
TABLE
  2
UCS
  5
7
100
AcDbSymbolTable
 70
0
  0
ENDTAB
  0
TABLE
  2
APPID
  5
9
100
AcDbSymbolTable
 70
1
  0
APPID
  5
203
100
AcDbSymbolTableRecord
100
AcDbRegAppTableRecord
  2
ACAD
 70
0
  0
ENDTAB
  0
TABLE
  2
BLOCK_RECORD
  5
1
100
AcDbSymbolTable
 70
0
  0
BLOCK_RECORD
  5
204
100
AcDbSymbolTableRecord
100
AcDbBlockTableRecord
  2
*Model_Space
  0
BLOCK_RECORD
  5
205
100
AcDbSymbolTableRecord
100
AcDbBlockTableRecord
  2
*Paper_Space
  0
BLOCK_RECORD
  5
206
100
AcDbSymbolTableRecord
100
AcDbBlockTableRecord
  2
SUN_FIRST_THIRD_ANGLE_BL0
  0
BLOCK_RECORD
  5
207
100
AcDbSymbolTableRecord
100
AcDbBlockTableRecord
  2
*T1
  0
BLOCK_RECORD
  5
208
100
AcDbSymbolTableRecord
100
AcDbBlockTableRecord
  2
*T2
  0
BLOCK_RECORD
  5
209
100
AcDbSymbolTableRecord
100
AcDbBlockTableRecord
  2
*T3
  0
ENDTAB
  0
TABLE
  2
DIMSTYLE
  5
A
100
AcDbSymbolTable
 70
1
100
AcDbDimStyleTable
 71
0
  0
DIMSTYLE
105
20A
100
AcDbSymbolTableRecord
100
AcDbDimStyleTableRecord
  2
STANDARD
 70
0
  3

  4

 40
1.0
 41
0.1875
 42
0.0625
 43
0.38
 44
0.125
 45
0.0
 46
0.0
 47
0.001
 48
0.001
140
0.1
141
0.09
142
0.0
143
25.4
144
1.0
145
0.0
146
1.0
147
0.09
 71
0.0
 72
0.0
 73
1
 74
1
 75
0
 76
0
 77
0
 78
4
170
0
171
2
172
0
173
0
174
0
175
0
176
0
177
0
178
0
270
2
271
3
272
3
273
2
274
2
275
0
280
0
281
0
282
0
283
1
284
4
285
0
286
0
287
3
288
0
340
11
278
46
  0
ENDTAB
  0
ENDSEC
  0
SECTION
  2
BLOCKS
  0
BLOCK
  5
20
100
AcDbEntity
  8
0
100
AcDbBlockBegin
  2
*Model_Space
 70
0
 10
0.0
 20
0.0
 30
0.0
  3
*Model_Space
  1

  0
ENDBLK
  5
21
100
AcDbEntity
  8
0
100
AcDbBlockEnd
  0
BLOCK
  5
1C
100
AcDbEntity
  8
0
100
AcDbBlockBegin
  2
*Paper_Space
 70
0
 10
0.0
 20
0.0
 30
0.0
  3
*Paper_Space
  1

  0
ENDBLK
  5
1D
100
AcDbEntity
  8
0
100
AcDbBlockEnd
  0
BLOCK
  5
20B
100
AcDbEntity
  8
0
100
AcDbBlockBegin
 62
2
  6
CONTINUOUS
  2
SUN_FIRST_THIRD_ANGLE_BL0
 70
64
 10
20.4816717061
 20
1.2289683772
  3
SUN_FIRST_THIRD_ANGLE_BL0
  1

  0
TEXT
  5
20C
100
AcDbEntity
  8
0
100
AcDbText
 62
2
  6
CONTINUOUS
 10
19.4750896608
 20
1.4136269581
  7
STANDARD
 40
0.08
  1
FIRST ANGLE
 41
0.8
 72
0
100
AcDbText
  0
TEXT
  5
20D
100
AcDbEntity
  8
0
100
AcDbText
 62
2
  6
CONTINUOUS
 10
20.7842537513
 20
1.4047600029
  7
STANDARD
 40
0.08
  1
THIRD ANGLE
 41
0.8
 72
0
100
AcDbText
  0
LINE
  5
20E
100
AcDbEntity
  8
0
100
AcDbLine
 62
7
  6
CONTINUOUS
 10
19.4767170086
 20
1.1727031207
 11
19.6334271527
 21
1.1717972817
  0
LINE
  5
20F
100
AcDbEntity
  8
0
100
AcDbLine
 62
7
  6
CONTINUOUS
 10
19.6596964832
 20
1.1717972817
 11
19.6950230232
 21
1.171593082
  0
LINE
  5
210
100
AcDbEntity
  8
0
100
AcDbLine
 62
7
  6
CONTINUOUS
 10
19.7194818561
 20
1.1708914427
 11
19.8852396156
 21
1.1699333054
  0
LINE
  5
211
100
AcDbEntity
  8
0
100
AcDbLine
 62
7
  6
CONTINUOUS
 10
19.4758111696
 20
1.2723454088
 11
19.88525039
 21
1.3511534004
  0
LINE
  5
212
100
AcDbEntity
  8
0
100
AcDbLine
 62
7
  6
CONTINUOUS
 10
19.88525039
 20
1.3511534004
 11
19.8831348489
 21
0.9851647912
  0
LINE
  5
213
100
AcDbEntity
  8
0
100
AcDbLine
 62
7
  6
CONTINUOUS
 10
19.8831348489
 20
0.9851647912
 11
19.4767170086
 21
1.0658141206
  0
LINE
  5
214
100
AcDbEntity
  8
0
100
AcDbLine
 62
7
  6
CONTINUOUS
 10
19.4767170086
 20
1.0658141206
 11
19.4779056764
 21
1.2714536432
  0
CIRCLE
  5
215
100
AcDbEntity
  8
0
100
AcDbCircle
 62
7
  6
CONTINUOUS
 10
20.2068232291
 20
1.1717972817
 40
0.175742101
  0
CIRCLE
  5
216
100
AcDbEntity
  8
0
100
AcDbCircle
 62
7
  6
CONTINUOUS
 10
20.2068232291
 20
1.1717972817
 40
0.1005522074
  0
LINE
  5
217
100
AcDbEntity
  8
0
100
AcDbLine
 62
7
  6
CONTINUOUS
 10
20.2077290681
 20
1.3756110529
 11
20.2071171714
 21
1.2379342989
  0
LINE
  5
218
100
AcDbEntity
  8
0
100
AcDbLine
 62
7
  6
CONTINUOUS
 10
20.2077290681
 20
1.2016899681
 11
20.2074674401
 21
1.1428236749
  0
LINE
  5
219
100
AcDbEntity
  8
0
100
AcDbLine
 62
7
  6
CONTINUOUS
 10
20.208634907
 20
1.101141841
 11
20.2080230104
 21
0.963465087
  0
LINE
  5
21A
100
AcDbEntity
  8
0
100
AcDbLine
 62
7
  6
CONTINUOUS
 10
20.0066328138
 20
1.1745147986
 11
20.1443095678
 21
1.1739029019
  0
LINE
  5
21B
100
AcDbEntity
  8
0
100
AcDbLine
 62
7
  6
CONTINUOUS
 10
20.1832714155
 20
1.1727031207
 11
20.238153505
 21
1.172335442
  0
LINE
  5
21C
100
AcDbEntity
  8
0
100
AcDbLine
 62
7
  6
CONTINUOUS
 10
20.2756669918
 20
1.1717972817
 11
20.407916871
 21
1.1712095044
  0
CIRCLE
  5
21D
100
AcDbEntity
  8
0
100
AcDbCircle
 62
7
  6
CONTINUOUS
 10
20.7509457401
 20
1.1693297793
 40
0.1722024983
  0
CIRCLE
  5
21E
100
AcDbEntity
  8
0
100
AcDbCircle
 62
7
  6
CONTINUOUS
 10
20.7509457401
 20
1.1693297793
 40
0.0985164967
  0
LINE
  5
21F
100
AcDbEntity
  8
0
100
AcDbLine
 62
7
  6
CONTINUOUS
 10
20.7169767782
 20
1.170462078
 11
20.7825395137
 21
1.1682766535
  0
LINE
  5
220
100
AcDbEntity
  8
0
100
AcDbLine
 62
7
  6
CONTINUOUS
 10
20.8177513651
 20
1.1693297793
 11
20.947965719
 21
1.1693297793
  0
LINE
  5
221
100
AcDbEntity
  8
0
100
AcDbLine
 62
7
  6
CONTINUOUS
 10
20.6875370113
 20
1.170462078
 11
20.5573226574
 21
1.170462078
  0
LINE
  5
222
100
AcDbEntity
  8
0
100
AcDbLine
 62
7
  6
CONTINUOUS
 10
20.7486811426
 20
1.1987695462
 11
20.7486811426
 21
1.1432869085
  0
LINE
  5
223
100
AcDbEntity
  8
0
100
AcDbLine
 62
7
  6
CONTINUOUS
 10
20.7498134414
 20
1.1059210505
 11
20.7498134414
 21
0.9757066966
  0
LINE
  5
224
100
AcDbEntity
  8
0
100
AcDbLine
 62
7
  6
CONTINUOUS
 10
20.7486811426
 20
1.2338708068
 11
20.7486811426
 21
1.3640851607
  0
LINE
  5
225
100
AcDbEntity
  8
0
100
AcDbLine
 62
7
  6
CONTINUOUS
 10
21.0702539817
 20
1.2701043662
 11
21.4790138229
 21
1.3448360823
  0
LINE
  5
226
100
AcDbEntity
  8
0
100
AcDbLine
 62
7
  6
CONTINUOUS
 10
21.4790138229
 20
1.3448360823
 11
21.4790138229
 21
0.9779712941
  0
LINE
  5
227
100
AcDbEntity
  8
0
100
AcDbLine
 62
7
  6
CONTINUOUS
 10
21.4790138229
 20
0.9779712941
 11
21.069121683
 21
1.0617614
  0
LINE
  5
228
100
AcDbEntity
  8
0
100
AcDbLine
 62
7
  6
CONTINUOUS
 10
21.0702539817
 20
1.2701043662
 11
21.069121683
 21
1.0617614
  0
LINE
  5
229
100
AcDbEntity
  8
0
100
AcDbLine
 62
7
  6
CONTINUOUS
 10
21.4790138229
 20
1.1693297793
 11
21.3159628059
 21
1.1693297793
  0
LINE
  5
22A
100
AcDbEntity
  8
0
100
AcDbLine
 62
7
  6
CONTINUOUS
 10
21.2876553377
 20
1.1693297793
 11
21.2502894796
 21
1.1693297793
  0
LINE
  5
22B
100
AcDbEntity
  8
0
100
AcDbLine
 62
7
  6
CONTINUOUS
 10
21.2208497126
 20
1.1659328831
 11
21.0713862804
 21
1.1659328831
  0
LINE
  5
22C
100
AcDbEntity
  8
0
100
AcDbLine
 62
7
  6
CONTINUOUS
 10
20.4796138713
 20
1.5284908897
 11
20.4766766948
 21
0.9294458646
  0
ENDBLK
  5
22D
100
AcDbEntity
  8
0
  6
BYBLOCK
 62
0
100
AcDbBlockEnd
  0
BLOCK
  5
22E
100
AcDbEntity
  8
0
100
AcDbBlockBegin
  2
*T1
 70
1
 10
0.0
 20
0.0
  3
*T1
  1

  0
LINE
  5
22F
100
AcDbEntity
  8
0
100
AcDbLine
 62
2
  6
CONTINUOUS
 10
9.275
 20
0.0
 11
-0.0
 21
0.0
  0
LINE
  5
230
100
AcDbEntity
  8
0
100
AcDbLine
 62
2
  6
CONTINUOUS
 10
9.275
 20
0.0
 11
9.275
 21
1.25
  0
LINE
  5
231
100
AcDbEntity
  8
0
100
AcDbLine
 62
2
  6
CONTINUOUS
 10
9.275
 20
0.625
 11
-0.0
 21
0.625
  0
LINE
  5
232
100
AcDbEntity
  8
0
100
AcDbLine
 62
2
  6
CONTINUOUS
 10
9.275
 20
1.25
 11
-0.0
 21
1.25
  0
LINE
  5
233
100
AcDbEntity
  8
0
100
AcDbLine
 62
2
  6
CONTINUOUS
 10
6.8
 20
0.0
 11
6.8
 21
1.25
  0
LINE
  5
234
100
AcDbEntity
  8
0
100
AcDbLine
 62
2
  6
CONTINUOUS
 10
6.4
 20
0.0
 11
6.4
 21
0.625
  0
LINE
  5
235
100
AcDbEntity
  8
0
100
AcDbLine
 62
2
  6
CONTINUOUS
 10
5.9
 20
0.0
 11
5.9
 21
0.625
  0
LINE
  5
236
100
AcDbEntity
  8
0
100
AcDbLine
 62
2
  6
CONTINUOUS
 10
5.2
 20
0.0
 11
5.2
 21
0.625
  0
LINE
  5
237
100
AcDbEntity
  8
0
100
AcDbLine
 62
2
  6
CONTINUOUS
 10
4.1
 20
0.0
 11
4.1
 21
1.25
  0
LINE
  5
238
100
AcDbEntity
  8
0
100
AcDbLine
 62
2
  6
CONTINUOUS
 10
-0.0
 20
0.0
 11
-0.0
 21
1.25
  0
MTEXT
  5
239
100
AcDbEntity
  8
0
100
AcDbMText
 62
2
  6
CONTINUOUS
  7
STANDARD
 71
2
 72
1
 10
6.6
 20
0.325
 30
0.0
 11
1.0
 21
0.0
 31
0.0
 44
0.9
  1
2
 40
0.125
 41
0.2
  0
MTEXT
  5
23A
100
AcDbEntity
  8
0
100
AcDbMText
 62
2
  6
CONTINUOUS
  7
STANDARD
 71
2
 72
1
 10
6.15
 20
0.325
 30
0.0
 11
1.0
 21
0.0
 31
0.0
 44
0.9
  1
C
 40
0.125
 41
0.2
  0
MTEXT
  5
23B
100
AcDbEntity
  8
0
100
AcDbMText
 62
2
  6
CONTINUOUS
  7
STANDARD
 71
2
 72
1
 10
5.55
 20
0.325
 30
0.0
 11
1.0
 21
0.0
 31
0.0
 44
0.9
  1
1.000
 40
0.125
 41
1.0
  0
MTEXT
  5
23C
100
AcDbEntity
  8
0
100
AcDbMText
 62
2
  6
CONTINUOUS
  7
STANDARD
 71
2
 72
1
 10
4.65
 20
0.325
 30
0.0
 11
1.0
 21
0.0
 31
0.0
 44
0.9
  1
Dec-14-20
 40
0.125
 41
1.8
  0
MTEXT
  5
23D
100
AcDbEntity
  8
0
100
AcDbMText
 62
2
  6
CONTINUOUS
  7
STANDARD
 71
2
 72
1
 10
2.05
 20
0.4625
 30
0.0
 11
1.0
 21
0.0
 31
0.0
 44
0.9
  1
T-17A Line mount\P(See Technical Data for Body Features)
 40
0.125
 41
7.6
  0
MTEXT
  5
23E
100
AcDbEntity
  8
0
100
AcDbMText
 62
2
  6
CONTINUOUS
  7
STANDARD
 71
1
 72
1
 10
6.45
 20
0.5625
 30
0.0
 11
1.0
 21
0.0
 31
0.0
 44
0.9
  1
SHEET
 40
0.06
 41
0.48
  0
MTEXT
  5
23F
100
AcDbEntity
  8
0
100
AcDbMText
 62
2
  6
CONTINUOUS
  7
STANDARD
 71
1
 72
1
 10
5.95
 20
0.5625
 30
0.0
 11
1.0
 21
0.0
 31
0.0
 44
0.9
  1
DWG SIZE
 40
0.06
 41
0.768
  0
MTEXT
  5
240
100
AcDbEntity
  8
0
100
AcDbMText
 62
2
  6
CONTINUOUS
  7
STANDARD
 71
1
 72
1
 10
5.25
 20
0.5625
 30
0.0
 11
1.0
 21
0.0
 31
0.0
 44
0.9
  1
SCALE
 40
0.06
 41
0.48
  0
MTEXT
  5
241
100
AcDbEntity
  8
0
100
AcDbMText
 62
2
  6
CONTINUOUS
  7
STANDARD
 71
1
 72
1
 10
4.15
 20
0.5625
 30
0.0
 11
1.0
 21
0.0
 31
0.0
 44
0.9
  1
DATE
 40
0.06
 41
0.384
  0
MTEXT
  5
242
100
AcDbEntity
  8
0
100
AcDbMText
 62
2
  6
CONTINUOUS
  7
STANDARD
 71
1
 72
1
 10
0.05
 20
0.5625
 30
0.0
 11
1.0
 21
0.0
 31
0.0
 44
0.9
  1
DESCRIPTION
 40
0.06
 41
1.056
  0
MTEXT
  5
243
100
AcDbEntity
  8
0
100
AcDbMText
 62
2
  6
CONTINUOUS
  7
STANDARD
 71
2
 72
1
 10
5.45
 20
1.0375
 30
0.0
 11
1.0
 21
0.0
 31
0.0
 44
0.9
  1
ALL DIMENSIONS IN INCH\PVIEWS ARE THIRD ANGLE
 40
0.12
 41
4.224
  0
MTEXT
  5
244
100
AcDbEntity
  8
0
100
AcDbMText
 62
2
  6
CONTINUOUS
  7
STANDARD
 71
2
 72
1
 10
2.05
 20
0.95
 30
0.0
 11
1.0
 21
0.0
 31
0.0
 44
0.9
  1
H4X
 40
0.125
 41
0.6
  0
MTEXT
  5
245
100
AcDbEntity
  8
0
100
AcDbMText
 62
2
  6
CONTINUOUS
  7
STANDARD
 71
1
 72
1
 10
0.05
 20
1.1875
 30
0.0
 11
1.0
 21
0.0
 31
0.0
 44
0.9
  1
MODEL
 40
0.06
 41
0.48
  0
ENDBLK
  5
246
100
AcDbEntity
  8
0
  6
BYBLOCK
 62
0
100
AcDbBlockEnd
  0
BLOCK
  5
247
100
AcDbEntity
  8
0
100
AcDbBlockBegin
  2
*T2
 70
1
 10
0.0
 20
0.0
  3
*T2
  1

  0
LINE
  5
248
100
AcDbEntity
  8
0
100
AcDbLine
 62
2
  6
CONTINUOUS
 10
0.0
 20
0.0
 11
9.055
 21
0.0
  0
LINE
  5
249
100
AcDbEntity
  8
0
100
AcDbLine
 62
2
  6
CONTINUOUS
 10
0.0
 20
0.0
 11
0.0
 21
-2.594
  0
LINE
  5
24A
100
AcDbEntity
  8
0
100
AcDbLine
 62
2
  6
CONTINUOUS
 10
0.0
 20
-0.344
 11
9.055
 21
-0.344
  0
LINE
  5
24B
100
AcDbEntity
  8
0
100
AcDbLine
 62
2
  6
CONTINUOUS
 10
0.0
 20
-0.594
 11
9.055
 21
-0.594
  0
LINE
  5
24C
100
AcDbEntity
  8
0
100
AcDbLine
 62
2
  6
CONTINUOUS
 10
0.0
 20
-0.844
 11
9.055
 21
-0.844
  0
LINE
  5
24D
100
AcDbEntity
  8
0
100
AcDbLine
 62
2
  6
CONTINUOUS
 10
0.0
 20
-1.094
 11
9.055
 21
-1.094
  0
LINE
  5
24E
100
AcDbEntity
  8
0
100
AcDbLine
 62
2
  6
CONTINUOUS
 10
0.0
 20
-1.344
 11
9.055
 21
-1.344
  0
LINE
  5
24F
100
AcDbEntity
  8
0
100
AcDbLine
 62
2
  6
CONTINUOUS
 10
0.0
 20
-1.594
 11
9.055
 21
-1.594
  0
LINE
  5
250
100
AcDbEntity
  8
0
100
AcDbLine
 62
2
  6
CONTINUOUS
 10
0.0
 20
-1.844
 11
9.055
 21
-1.844
  0
LINE
  5
251
100
AcDbEntity
  8
0
100
AcDbLine
 62
2
  6
CONTINUOUS
 10
0.0
 20
-2.094
 11
9.055
 21
-2.094
  0
LINE
  5
252
100
AcDbEntity
  8
0
100
AcDbLine
 62
2
  6
CONTINUOUS
 10
0.0
 20
-2.344
 11
9.055
 21
-2.344
  0
LINE
  5
253
100
AcDbEntity
  8
0
100
AcDbLine
 62
2
  6
CONTINUOUS
 10
0.0
 20
-2.594
 11
9.055
 21
-2.594
  0
LINE
  5
254
100
AcDbEntity
  8
0
100
AcDbLine
 62
2
  6
CONTINUOUS
 10
3.055
 20
0.0
 11
3.055
 21
-2.594
  0
LINE
  5
255
100
AcDbEntity
  8
0
100
AcDbLine
 62
2
  6
CONTINUOUS
 10
9.055
 20
0.0
 11
9.055
 21
-2.594
  0
MTEXT
  5
256
100
AcDbEntity
  8
0
100
AcDbMText
 62
2
  6
CONTINUOUS
  7
STANDARD
 71
2
 72
1
 10
1.5275
 20
-0.0995
 30
0.0
 11
1.0
 21
0.0
 31
0.0
 44
0.9
  1
Technical Data
 40
0.145
 41
3.248
  0
MTEXT
  5
257
100
AcDbEntity
  8
0
100
AcDbMText
 62
2
  6
CONTINUOUS
  7
STANDARD
 71
2
 72
1
 10
4.555
 20
-0.0995
 30
0.0
 11
1.0
 21
0.0
 31
0.0
 44
0.9
  1
U.S. Units
 40
0.145
 41
2.32
  0
MTEXT
  5
258
100
AcDbEntity
  8
0
100
AcDbMText
 62
2
  6
CONTINUOUS
  7
STANDARD
 71
2
 72
1
 10
7.555
 20
-0.0995
 30
0.0
 11
1.0
 21
0.0
 31
0.0
 44
0.9
  1
Metric Units
 40
0.145
 41
2.784
  0
MTEXT
  5
259
100
AcDbEntity
  8
0
100
AcDbMText
 62
2
  6
CONTINUOUS
  7
STANDARD
 71
2
 72
1
 10
1.5275
 20
-0.4065
 30
0.0
 11
1.0
 21
0.0
 31
0.0
 44
0.9
  1
Cavity
 40
0.125
 41
1.2
  0
MTEXT
  5
25A
100
AcDbEntity
  8
0
100
AcDbMText
 62
2
  6
CONTINUOUS
  7
STANDARD
 71
2
 72
1
 10
6.055
 20
-0.4065
 30
0.0
 11
1.0
 21
0.0
 31
0.0
 44
0.9
  1
T-17A
 40
0.125
 41
1.0
  0
MTEXT
  5
25B
100
AcDbEntity
  8
0
100
AcDbMText
 62
2
  6
CONTINUOUS
  7
STANDARD
 71
2
 72
1
 10
1.5275
 20
-0.6565
 30
0.0
 11
1.0
 21
0.0
 31
0.0
 44
0.9
  1
Body Features
 40
0.125
 41
2.6
  0
MTEXT
  5
25C
100
AcDbEntity
  8
0
100
AcDbMText
 62
2
  6
CONTINUOUS
  7
STANDARD
 71
2
 72
1
 10
6.055
 20
-0.6565
 30
0.0
 11
1.0
 21
0.0
 31
0.0
 44
0.9
  1
Ninety degree with reverse flow check - reducing
 40
0.125
 41
9.6
  0
MTEXT
  5
25D
100
AcDbEntity
  8
0
100
AcDbMText
 62
2
  6
CONTINUOUS
  7
STANDARD
 71
2
 72
1
 10
1.5275
 20
-0.9065
 30
0.0
 11
1.0
 21
0.0
 31
0.0
 44
0.9
  1
Body Type
 40
0.125
 41
1.8
  0
MTEXT
  5
25E
100
AcDbEntity
  8
0
100
AcDbMText
 62
2
  6
CONTINUOUS
  7
STANDARD
 71
2
 72
1
 10
6.055
 20
-0.9065
 30
0.0
 11
1.0
 21
0.0
 31
0.0
 44
0.9
  1
Line mount
 40
0.125
 41
2.0
  0
MTEXT
  5
25F
100
AcDbEntity
  8
0
100
AcDbMText
 62
2
  6
CONTINUOUS
  7
STANDARD
 71
2
 72
1
 10
1.5275
 20
-1.1565
 30
0.0
 11
1.0
 21
0.0
 31
0.0
 44
0.9
  1
Interface
 40
0.125
 41
1.8
  0
MTEXT
  5
260
100
AcDbEntity
  8
0
100
AcDbMText
 62
2
  6
CONTINUOUS
  7
STANDARD
 71
2
 72
1
 10
6.055
 20
-1.1565
 30
0.0
 11
1.0
 21
0.0
 31
0.0
 44
0.9
  1
None
 40
0.125
 41
0.8
  0
MTEXT
  5
261
100
AcDbEntity
  8
0
100
AcDbMText
 62
2
  6
CONTINUOUS
  7
STANDARD
 71
2
 72
1
 10
1.5275
 20
-1.4065
 30
0.0
 11
1.0
 21
0.0
 31
0.0
 44
0.9
  1
Open Cavity Quantity
 40
0.125
 41
4.0
  0
MTEXT
  5
262
100
AcDbEntity
  8
0
100
AcDbMText
 62
2
  6
CONTINUOUS
  7
STANDARD
 71
2
 72
1
 10
6.055
 20
-1.4065
 30
0.0
 11
1.0
 21
0.0
 31
0.0
 44
0.9
  1
1
 40
0.125
 41
0.2
  0
MTEXT
  5
263
100
AcDbEntity
  8
0
100
AcDbMText
 62
2
  6
CONTINUOUS
  7
STANDARD
 71
2
 72
1
 10
1.5275
 20
-1.6565
 30
0.0
 11
1.0
 21
0.0
 31
0.0
 44
0.9
  1
Weight
 40
0.125
 41
1.2
  0
MTEXT
  5
264
100
AcDbEntity
  8
0
100
AcDbMText
 62
2
  6
CONTINUOUS
  7
STANDARD
 71
2
 72
1
 10
4.555
 20
-1.6565
 30
0.0
 11
1.0
 21
0.0
 31
0.0
 44
0.9
  1
6.120 lb.
 40
0.125
 41
1.8
  0
MTEXT
  5
265
100
AcDbEntity
  8
0
100
AcDbMText
 62
2
  6
CONTINUOUS
  7
STANDARD
 71
2
 72
1
 10
7.555
 20
-1.6565
 30
0.0
 11
1.0
 21
0.0
 31
0.0
 44
0.9
  1
2,776 kg.
 40
0.125
 41
1.8
  0
MTEXT
  5
266
100
AcDbEntity
  8
0
100
AcDbMText
 62
2
  6
CONTINUOUS
  7
STANDARD
 71
2
 72
1
 10
1.5275
 20
-1.9065
 30
0.0
 11
1.0
 21
0.0
 31
0.0
 44
0.9
  1
Mounting Hole Diameter
 40
0.125
 41
4.4
  0
MTEXT
  5
267
100
AcDbEntity
  8
0
100
AcDbMText
 62
2
  6
CONTINUOUS
  7
STANDARD
 71
2
 72
1
 10
4.555
 20
-1.9065
 30
0.0
 11
1.0
 21
0.0
 31
0.0
 44
0.9
  1
.41 in.
 40
0.125
 41
1.4
  0
MTEXT
  5
268
100
AcDbEntity
  8
0
100
AcDbMText
 62
2
  6
CONTINUOUS
  7
STANDARD
 71
2
 72
1
 10
7.555
 20
-1.9065
 30
0.0
 11
1.0
 21
0.0
 31
0.0
 44
0.9
  1
10,4 mm
 40
0.125
 41
1.4
  0
MTEXT
  5
269
100
AcDbEntity
  8
0
100
AcDbMText
 62
2
  6
CONTINUOUS
  7
STANDARD
 71
2
 72
1
 10
1.5275
 20
-2.1565
 30
0.0
 11
1.0
 21
0.0
 31
0.0
 44
0.9
  1
Mounting Hole Depth
 40
0.125
 41
3.8
  0
MTEXT
  5
26A
100
AcDbEntity
  8
0
100
AcDbMText
 62
2
  6
CONTINUOUS
  7
STANDARD
 71
2
 72
1
 10
6.055
 20
-2.1565
 30
0.0
 11
1.0
 21
0.0
 31
0.0
 44
0.9
  1
Through
 40
0.125
 41
1.4
  0
MTEXT
  5
26B
100
AcDbEntity
  8
0
100
AcDbMText
 62
2
  6
CONTINUOUS
  7
STANDARD
 71
2
 72
1
 10
1.5275
 20
-2.4065
 30
0.0
 11
1.0
 21
0.0
 31
0.0
 44
0.9
  1
Mounting Hole Quantity
 40
0.125
 41
4.4
  0
MTEXT
  5
26C
100
AcDbEntity
  8
0
100
AcDbMText
 62
2
  6
CONTINUOUS
  7
STANDARD
 71
2
 72
1
 10
6.055
 20
-2.4065
 30
0.0
 11
1.0
 21
0.0
 31
0.0
 44
0.9
  1
2
 40
0.125
 41
0.2
  0
ENDBLK
  5
26D
100
AcDbEntity
  8
0
  6
BYBLOCK
 62
0
100
AcDbBlockEnd
  0
BLOCK
  5
26E
100
AcDbEntity
  8
0
100
AcDbBlockBegin
  2
*T3
 70
1
 10
0.0
 20
0.0
  3
*T3
  1

  0
LINE
  5
26F
100
AcDbEntity
  8
0
100
AcDbLine
 62
2
  6
CONTINUOUS
 10
0.0
 20
0.0
 11
4.6
 21
0.0
  0
LINE
  5
270
100
AcDbEntity
  8
0
100
AcDbLine
 62
2
  6
CONTINUOUS
 10
0.0
 20
0.0
 11
0.0
 21
-1.43775
  0
LINE
  5
271
100
AcDbEntity
  8
0
100
AcDbLine
 62
2
  6
CONTINUOUS
 10
0.0
 20
-0.34375
 11
4.6
 21
-0.34375
  0
LINE
  5
272
100
AcDbEntity
  8
0
100
AcDbLine
 62
2
  6
CONTINUOUS
 10
0.0
 20
-0.68775
 11
4.6
 21
-0.68775
  0
LINE
  5
273
100
AcDbEntity
  8
0
100
AcDbLine
 62
2
  6
CONTINUOUS
 10
0.0
 20
-0.93775
 11
4.6
 21
-0.93775
  0
LINE
  5
274
100
AcDbEntity
  8
0
100
AcDbLine
 62
2
  6
CONTINUOUS
 10
0.0
 20
-1.18775
 11
4.6
 21
-1.18775
  0
LINE
  5
275
100
AcDbEntity
  8
0
100
AcDbLine
 62
2
  6
CONTINUOUS
 10
0.0
 20
-1.43775
 11
4.6
 21
-1.43775
  0
LINE
  5
276
100
AcDbEntity
  8
0
100
AcDbLine
 62
2
  6
CONTINUOUS
 10
1.3
 20
-0.34375
 11
1.3
 21
-1.43775
  0
LINE
  5
277
100
AcDbEntity
  8
0
100
AcDbLine
 62
2
  6
CONTINUOUS
 10
3.3
 20
-0.34375
 11
3.3
 21
-1.43775
  0
LINE
  5
278
100
AcDbEntity
  8
0
100
AcDbLine
 62
2
  6
CONTINUOUS
 10
4.6
 20
0.0
 11
4.6
 21
-1.43775
  0
MTEXT
  5
279
100
AcDbEntity
  8
0
100
AcDbMText
 62
2
  6
CONTINUOUS
  7
STANDARD
 71
2
 72
1
 10
2.3
 20
-0.099375
 30
0.0
 11
1.0
 21
0.0
 31
0.0
 44
0.9
  1
Port Headings
 40
0.145
 41
3.016
  0
MTEXT
  5
27A
100
AcDbEntity
  8
0
100
AcDbMText
 62
2
  6
CONTINUOUS
  7
STANDARD
 71
2
 72
1
 10
0.65
 20
-0.44325
 30
0.0
 11
1.0
 21
0.0
 31
0.0
 44
0.9
  1
Product
 40
0.145
 41
1.624
  0
MTEXT
  5
27B
100
AcDbEntity
  8
0
100
AcDbMText
 62
2
  6
CONTINUOUS
  7
STANDARD
 71
2
 72
1
 10
2.3
 20
-0.44325
 30
0.0
 11
1.0
 21
0.0
 31
0.0
 44
0.9
  1
Port
 40
0.145
 41
0.928
  0
MTEXT
  5
27C
100
AcDbEntity
  8
0
100
AcDbMText
 62
2
  6
CONTINUOUS
  7
STANDARD
 71
2
 72
1
 10
3.95
 20
-0.44325
 30
0.0
 11
1.0
 21
0.0
 31
0.0
 44
0.9
  1
Size
 40
0.145
 41
0.928
  0
MTEXT
  5
27D
100
AcDbEntity
  8
0
100
AcDbMText
 62
2
  6
CONTINUOUS
  7
STANDARD
 71
2
 72
1
 10
0.65
 20
-0.75025
 30
0.0
 11
1.0
 21
0.0
 31
0.0
 44
0.9
  1
H4X
 40
0.125
 41
0.6
  0
MTEXT
  5
27E
100
AcDbEntity
  8
0
100
AcDbMText
 62
2
  6
CONTINUOUS
  7
STANDARD
 71
2
 72
1
 10
2.3
 20
-0.75025
 30
0.0
 11
1.0
 21
0.0
 31
0.0
 44
0.9
  1
Ports 1 &  2
 40
0.125
 41
2.4
  0
MTEXT
  5
27F
100
AcDbEntity
  8
0
100
AcDbMText
 62
2
  6
CONTINUOUS
  7
STANDARD
 71
2
 72
1
 10
3.95
 20
-0.75025
 30
0.0
 11
1.0
 21
0.0
 31
0.0
 44
0.9
  1
1" BSPP
 40
0.125
 41
1.4
  0
MTEXT
  5
280
100
AcDbEntity
  8
0
100
AcDbMText
 62
2
  6
CONTINUOUS
  7
STANDARD
 71
2
 72
1
 10
0.65
 20
-1.00025
 30
0.0
 11
1.0
 21
0.0
 31
0.0
 44
0.9
  1
H4X
 40
0.125
 41
0.6
  0
MTEXT
  5
281
100
AcDbEntity
  8
0
100
AcDbMText
 62
2
  6
CONTINUOUS
  7
STANDARD
 71
2
 72
1
 10
2.3
 20
-1.00025
 30
0.0
 11
1.0
 21
0.0
 31
0.0
 44
0.9
  1
Port 3
 40
0.125
 41
1.2
  0
MTEXT
  5
282
100
AcDbEntity
  8
0
100
AcDbMText
 62
2
  6
CONTINUOUS
  7
STANDARD
 71
2
 72
1
 10
3.95
 20
-1.00025
 30
0.0
 11
1.0
 21
0.0
 31
0.0
 44
0.9
  1
3/4" BSPP
 40
0.125
 41
1.8
  0
MTEXT
  5
283
100
AcDbEntity
  8
0
100
AcDbMText
 62
2
  6
CONTINUOUS
  7
STANDARD
 71
2
 72
1
 10
0.65
 20
-1.25025
 30
0.0
 11
1.0
 21
0.0
 31
0.0
 44
0.9
  1
H4X
 40
0.125
 41
0.6
  0
MTEXT
  5
284
100
AcDbEntity
  8
0
100
AcDbMText
 62
2
  6
CONTINUOUS
  7
STANDARD
 71
2
 72
1
 10
2.3
 20
-1.25025
 30
0.0
 11
1.0
 21
0.0
 31
0.0
 44
0.9
  1
Gage Port
 40
0.125
 41
1.8
  0
MTEXT
  5
285
100
AcDbEntity
  8
0
100
AcDbMText
 62
2
  6
CONTINUOUS
  7
STANDARD
 71
2
 72
1
 10
3.95
 20
-1.25025
 30
0.0
 11
1.0
 21
0.0
 31
0.0
 44
0.9
  1
1/4" BSPP
 40
0.125
 41
1.8
  0
ENDBLK
  5
286
100
AcDbEntity
  8
0
  6
BYBLOCK
 62
0
100
AcDbBlockEnd
  0
ENDSEC
  0
SECTION
  2
ENTITIES
  0
IMAGE
  5
287
100
AcDbEntity
  8
0
100
AcDbRasterImage
 62
7
  6
CONTINUOUS
 10
19.2297077316
 20
0.3094318264
 30
0.0
 11
0.0066666667
 21
0.0
 31
0.0
 12
0.0
 22
0.0066666667
 32
0.0
 13
369.0
 23
92.0
340
       3CD
 70
9
280
0
281
50
282
50
283
0
360
       3C7
 71
1
 91
2
 14
-0.5
 24
-0.5
 14
368.5
 24
91.5
  0
INSERT
  5
288
100
AcDbEntity
  8
0
100
AcDbBlockReference
 62
2
  6
CONTINUOUS
  2
SUN_FIRST_THIRD_ANGLE_BL0
 10
20.4816717061
 20
1.2289683772
  0
ACAD_TABLE
  5
289
100
AcDbEntity
  8
0
 62
2
  6
CONTINUOUS
100
AcDbBlockReference
  2
*T1
 10
12.42375
 20
0.30125
 30
0.0
100
AcDbTable
342
       3CF
343
207
 11
1.0
 21
0.0
 31
0.0
 90
6
 91
4
 92
6
 93
20
 94
0
 95
0
 96
0
 70
1
 41
0.0
141
0.525
141
0.1
141
0.525
141
0.1
142
4.1
142
1.1
142
0.7
142
0.5
142
0.4
142
2.475
171
1
172
0
173
0
174
0
175
1
176
1
 91
33
178
0
145
0.0
301
CELL_VALUE
 90
4
  1
T-17A Line mount\P(See Technical Data for Body Features)
304
ACVALUE_END
170
2
140
0.125
171
1
172
0
173
0
174
0
175
1
176
1
 91
33
178
0
145
0.0
301
CELL_VALUE
 90
4
  1
Dec-14-20
304
ACVALUE_END
170
5
140
0.125
171
1
172
0
173
0
174
0
175
1
176
1
 91
33
178
0
145
0.0
301
CELL_VALUE
 90
4
  1
1.000
304
ACVALUE_END
170
5
140
0.125
171
1
172
0
173
0
174
0
175
1
176
1
 91
33
178
0
145
0.0
301
CELL_VALUE
 90
4
  1
C
304
ACVALUE_END
170
5
140
0.125
171
1
172
0
173
0
174
0
175
1
176
1
 91
33
178
0
145
0.0
301
CELL_VALUE
 90
4
  1
2
304
ACVALUE_END
170
5
140
0.125
171
1
172
0
173
0
174
0
175
1
176
1
 91
33
178
0
145
0.0
301
CELL_VALUE
 90
4
  1
 
304
ACVALUE_END
170
1
140
0.125
171
1
172
0
173
0
174
0
175
1
176
1
 91
33
178
0
145
0.0
301
CELL_VALUE
 90
4
  1
DESCRIPTION
304
ACVALUE_END
170
1
140
0.06
171
1
172
0
173
0
174
0
175
1
176
1
 91
33
178
0
145
0.0
301
CELL_VALUE
 90
4
  1
DATE
304
ACVALUE_END
170
1
140
0.06
171
1
172
0
173
0
174
0
175
1
176
1
 91
33
178
0
145
0.0
301
CELL_VALUE
 90
4
  1
SCALE
304
ACVALUE_END
170
1
140
0.06
171
1
172
0
173
0
174
0
175
1
176
1
 91
33
178
0
145
0.0
301
CELL_VALUE
 90
4
  1
DWG SIZE
304
ACVALUE_END
170
1
140
0.06
171
1
172
0
173
0
174
0
175
1
176
1
 91
33
178
0
145
0.0
301
CELL_VALUE
 90
4
  1
SHEET
304
ACVALUE_END
170
1
140
0.06
171
1
172
0
173
0
174
0
175
1
176
1
 91
33
178
0
145
0.0
301
CELL_VALUE
 90
4
  1
 
304
ACVALUE_END
170
1
140
0.125
171
1
172
0
173
0
174
0
175
1
176
1
 91
33
178
0
145
0.0
301
CELL_VALUE
 90
4
  1
H4X
304
ACVALUE_END
170
5
140
0.125
171
1
172
0
173
0
174
0
175
4
176
1
 91
33
178
0
145
0.0
301
CELL_VALUE
 90
4
  1
ALL DIMENSIONS IN INCH\PVIEWS ARE THIRD ANGLE
304
ACVALUE_END
170
5
140
0.12
171
1
172
0
173
1
174
0
175
1
176
1
 91
1
178
0
145
0.0
170
1
171
1
172
0
173
1
174
0
175
1
176
1
 91
1
178
0
145
0.0
170
1
171
1
172
0
173
1
174
0
175
1
176
1
 91
1
178
0
145
0.0
170
5
171
1
172
0
173
0
174
0
175
1
176
1
 91
33
178
0
145
0.0
301
CELL_VALUE
 90
4
  1
 
304
ACVALUE_END
170
1
140
0.125
171
1
172
0
173
0
174
0
175
1
176
1
 91
33
178
0
145
0.0
301
CELL_VALUE
 90
4
  1
MODEL
304
ACVALUE_END
170
1
140
0.06
171
1
172
0
173
0
174
0
175
1
176
1
 91
33
178
0
145
0.0
301
CELL_VALUE
 90
4
  1
 
304
ACVALUE_END
170
1
140
0.125
171
1
172
0
173
0
174
0
175
1
176
1
 91
33
178
0
145
0.0
301
CELL_VALUE
 90
4
  1
 
304
ACVALUE_END
170
1
140
0.125
171
1
172
0
173
0
174
0
175
1
176
1
 91
33
178
0
145
0.0
301
CELL_VALUE
 90
4
  1
 
304
ACVALUE_END
170
1
140
0.125
171
1
172
0
173
0
174
0
175
1
176
1
 91
33
178
0
145
0.0
301
CELL_VALUE
 90
4
  1
 
304
ACVALUE_END
170
1
140
0.125
171
1
172
0
173
0
174
0
175
1
176
1
 91
33
178
0
145
0.0
301
CELL_VALUE
 90
4
  1
 
304
ACVALUE_END
170
1
140
0.125
  0
ACAD_TABLE
  5
28A
100
AcDbEntity
  8
0
 62
2
  6
CONTINUOUS
100
AcDbBlockReference
  2
*T2
 10
12.4237499994
 20
16.47875
 30
0.0
100
AcDbTable
342
       3CE
343
208
 11
1.0
 21
0.0
 31
0.0
 90
22
 91
10
 92
3
 93
16
 94
0
 95
0
 96
0
 41
0.028
141
0.344
141
0.25
141
0.25
141
0.25
141
0.25
141
0.25
141
0.25
141
0.25
141
0.25
141
0.25
142
3.055
142
3.0
142
3.0
171
1
172
0
173
0
174
0
175
1
176
1
 91
33
178
0
145
0.0
301
CELL_VALUE
 90
4
  1
Technical Data
304
ACVALUE_END
170
5
140
0.145
171
1
172
0
173
0
174
0
175
1
176
1
 91
33
178
0
145
0.0
301
CELL_VALUE
 90
4
  1
U.S. Units
304
ACVALUE_END
170
5
140
0.145
171
1
172
0
173
0
174
0
175
1
176
1
 91
33
178
0
145
0.0
301
CELL_VALUE
 90
4
  1
Metric Units
304
ACVALUE_END
170
5
140
0.145
171
1
172
0
173
0
174
0
175
1
176
1
 91
33
178
0
145
0.0
301
CELL_VALUE
 90
4
  1
Cavity
304
ACVALUE_END
170
5
140
0.125
171
1
172
0
173
0
174
0
175
2
176
1
 91
33
178
0
145
0.0
301
CELL_VALUE
 90
4
  1
T-17A
304
ACVALUE_END
170
5
140
0.125
171
1
172
0
173
1
174
0
175
1
176
1
 91
1
178
0
145
0.0
170
1
171
1
172
0
173
0
174
0
175
1
176
1
 91
33
178
0
145
0.0
301
CELL_VALUE
 90
4
  1
Body Features
304
ACVALUE_END
170
5
140
0.125
171
1
172
0
173
0
174
0
175
2
176
1
 91
33
178
0
145
0.0
301
CELL_VALUE
 90
4
  1
Ninety degree with reverse flow check - reducing
304
ACVALUE_END
170
5
140
0.125
171
1
172
0
173
1
174
0
175
1
176
1
 91
1
178
0
145
0.0
170
1
171
1
172
0
173
0
174
0
175
1
176
1
 91
33
178
0
145
0.0
301
CELL_VALUE
 90
4
  1
Body Type
304
ACVALUE_END
170
5
140
0.125
171
1
172
0
173
0
174
0
175
2
176
1
 91
33
178
0
145
0.0
301
CELL_VALUE
 90
4
  1
Line mount
304
ACVALUE_END
170
5
140
0.125
171
1
172
0
173
1
174
0
175
1
176
1
 91
1
178
0
145
0.0
170
1
171
1
172
0
173
0
174
0
175
1
176
1
 91
33
178
0
145
0.0
301
CELL_VALUE
 90
4
  1
Interface
304
ACVALUE_END
170
5
140
0.125
171
1
172
0
173
0
174
0
175
2
176
1
 91
33
178
0
145
0.0
301
CELL_VALUE
 90
4
  1
None
304
ACVALUE_END
170
5
140
0.125
171
1
172
0
173
1
174
0
175
1
176
1
 91
1
178
0
145
0.0
170
1
171
1
172
0
173
0
174
0
175
1
176
1
 91
33
178
0
145
0.0
301
CELL_VALUE
 90
4
  1
Open Cavity Quantity
304
ACVALUE_END
170
5
140
0.125
171
1
172
0
173
0
174
0
175
2
176
1
 91
33
178
0
145
0.0
301
CELL_VALUE
 90
4
  1
1
304
ACVALUE_END
170
5
140
0.125
171
1
172
0
173
1
174
0
175
1
176
1
 91
1
178
0
145
0.0
170
1
171
1
172
0
173
0
174
0
175
1
176
1
 91
33
178
0
145
0.0
301
CELL_VALUE
 90
4
  1
Weight
304
ACVALUE_END
170
5
140
0.125
171
1
172
0
173
0
174
0
175
1
176
1
 91
33
178
0
145
0.0
301
CELL_VALUE
 90
4
  1
6.120 lb.
304
ACVALUE_END
170
5
140
0.125
171
1
172
0
173
0
174
0
175
1
176
1
 91
33
178
0
145
0.0
301
CELL_VALUE
 90
4
  1
2,776 kg.
304
ACVALUE_END
170
5
140
0.125
171
1
172
0
173
0
174
0
175
1
176
1
 91
33
178
0
145
0.0
301
CELL_VALUE
 90
4
  1
Mounting Hole Diameter
304
ACVALUE_END
170
5
140
0.125
171
1
172
0
173
0
174
0
175
1
176
1
 91
33
178
0
145
0.0
301
CELL_VALUE
 90
4
  1
.41 in.
304
ACVALUE_END
170
5
140
0.125
171
1
172
0
173
0
174
0
175
1
176
1
 91
33
178
0
145
0.0
301
CELL_VALUE
 90
4
  1
10,4 mm
304
ACVALUE_END
170
5
140
0.125
171
1
172
0
173
0
174
0
175
1
176
1
 91
33
178
0
145
0.0
301
CELL_VALUE
 90
4
  1
Mounting Hole Depth
304
ACVALUE_END
170
5
140
0.125
171
1
172
0
173
0
174
0
175
2
176
1
 91
33
178
0
145
0.0
301
CELL_VALUE
 90
4
  1
Through
304
ACVALUE_END
170
5
140
0.125
171
1
172
0
173
1
174
0
175
1
176
1
 91
1
178
0
145
0.0
170
1
171
1
172
0
173
0
174
0
175
1
176
1
 91
33
178
0
145
0.0
301
CELL_VALUE
 90
4
  1
Mounting Hole Quantity
304
ACVALUE_END
170
5
140
0.125
171
1
172
0
173
0
174
0
175
2
176
1
 91
33
178
0
145
0.0
301
CELL_VALUE
 90
4
  1
2
304
ACVALUE_END
170
5
140
0.125
171
1
172
0
173
1
174
0
175
1
176
1
 91
1
178
0
145
0.0
170
1
  0
ACAD_TABLE
  5
28B
100
AcDbEntity
  8
0
 62
2
  6
CONTINUOUS
100
AcDbBlockReference
  2
*T3
 10
0.52125
 20
1.959
 30
0.0
100
AcDbTable
342
       3CE
343
209
 11
1.0
 21
0.0
 31
0.0
 90
22
 91
5
 92
3
 93
16
 94
0
 95
0
 96
0
 41
0.05
141
0.34375
141
0.344
141
0.25
141
0.25
141
0.25
142
1.3
142
2.0
142
1.3
171
1
172
0
173
0
174
0
175
3
176
1
 91
33
178
0
145
0.0
301
CELL_VALUE
 90
4
  1
Port Headings
304
ACVALUE_END
170
5
140
0.145
171
1
172
0
173
1
174
0
175
1
176
1
 91
1
178
0
145
0.0
170
1
171
1
172
0
173
1
174
0
175
1
176
1
 91
1
178
0
145
0.0
170
1
171
1
172
0
173
0
174
0
175
1
176
1
 91
33
178
0
145
0.0
301
CELL_VALUE
 90
4
  1
Product
304
ACVALUE_END
170
5
140
0.145
171
1
172
0
173
0
174
0
175
1
176
1
 91
33
178
0
145
0.0
301
CELL_VALUE
 90
4
  1
Port
304
ACVALUE_END
170
5
140
0.145
171
1
172
0
173
0
174
0
175
1
176
1
 91
33
178
0
145
0.0
301
CELL_VALUE
 90
4
  1
Size
304
ACVALUE_END
170
5
140
0.145
171
1
172
0
173
0
174
0
175
1
176
1
 91
33
178
0
145
0.0
301
CELL_VALUE
 90
4
  1
H4X
304
ACVALUE_END
170
5
140
0.125
171
1
172
0
173
0
174
0
175
1
176
1
 91
33
178
0
145
0.0
301
CELL_VALUE
 90
4
  1
Ports 1 &  2
304
ACVALUE_END
170
5
140
0.125
171
1
172
0
173
0
174
0
175
1
176
1
 91
33
178
0
145
0.0
301
CELL_VALUE
 90
4
  1
1" BSPP
304
ACVALUE_END
170
5
140
0.125
171
1
172
0
173
0
174
0
175
1
176
1
 91
33
178
0
145
0.0
301
CELL_VALUE
 90
4
  1
H4X
304
ACVALUE_END
170
5
140
0.125
171
1
172
0
173
0
174
0
175
1
176
1
 91
33
178
0
145
0.0
301
CELL_VALUE
 90
4
  1
Port 3
304
ACVALUE_END
170
5
140
0.125
171
1
172
0
173
0
174
0
175
1
176
1
 91
33
178
0
145
0.0
301
CELL_VALUE
 90
4
  1
3/4" BSPP
304
ACVALUE_END
170
5
140
0.125
171
1
172
0
173
0
174
0
175
1
176
1
 91
33
178
0
145
0.0
301
CELL_VALUE
 90
4
  1
H4X
304
ACVALUE_END
170
5
140
0.125
171
1
172
0
173
0
174
0
175
1
176
1
 91
33
178
0
145
0.0
301
CELL_VALUE
 90
4
  1
Gage Port
304
ACVALUE_END
170
5
140
0.125
171
1
172
0
173
0
174
0
175
1
176
1
 91
33
178
0
145
0.0
301
CELL_VALUE
 90
4
  1
1/4" BSPP
304
ACVALUE_END
170
5
140
0.125
  0
MTEXT
  5
28C
100
AcDbEntity
  8
0
100
AcDbMText
 62
2
  6
CONTINUOUS
  7
STANDARD
 71
1
 72
1
 10
0.52125
 20
5.75995
 30
0.0
 11
1.0
 21
0.0
 31
0.0
 44
0.6
  3
Notes\P \P1. Important: Carefully consider\P   the maximum system pressure. The\P   pressure rating of the manifold is\P   dependent on the manifold material,\P   with the port type/size a secondary\P   consideration. Manifolds\P   constructed of alu
  1
minum are not\P   rated for pressures higher than\P   3000 psi (210 bar), regardless of\P   the port type/size specified.
 40
0.1
 41
3.04
  0
LINE
  5
28D
100
AcDbEntity
  8
0
100
AcDbLine
 62
7
  6
CONTINUOUS
 10
0.30125
 20
0.30125
 11
0.30125
 21
16.69875
  0
LINE
  5
28E
100
AcDbEntity
  8
0
100
AcDbLine
 62
7
  6
CONTINUOUS
 10
0.30125
 20
0.30125
 11
21.69875
 21
0.30125
  0
LINE
  5
28F
100
AcDbEntity
  8
0
100
AcDbLine
 62
7
  6
CONTINUOUS
 10
0.30125
 20
16.69875
 11
21.69875
 21
16.69875
  0
LINE
  5
290
100
AcDbEntity
  8
0
100
AcDbLine
 62
7
  6
CONTINUOUS
 10
21.69875
 20
0.30125
 11
21.69875
 21
16.69875
  0
LINE
  5
291
100
AcDbEntity
  8
0
100
AcDbLine
 62
7
  6
CONTINUOUS
 10
8.3107079034
 20
11.4115292352
 11
7.6636608247
 21
10.7865297139
  0
LINE
  5
292
100
AcDbEntity
  8
0
100
AcDbLine
 62
4
  6
CONTINUOUS
 10
8.3417405997
 20
6.1489417391
 11
8.3320813434
 21
6.1641004988
  0
LINE
  5
293
100
AcDbEntity
  8
0
100
AcDbLine
 62
7
  6
CONTINUOUS
 10
7.6636608247
 20
10.7865297139
 11
7.6636608247
 21
5.9569002963
  0
LINE
  5
294
100
AcDbEntity
  8
0
100
AcDbLine
 62
4
  6
CONTINUOUS
 10
8.3610591192
 20
6.198313103
 11
8.3707183756
 21
6.1903987873
  0
LINE
  5
295
100
AcDbEntity
  8
0
100
AcDbLine
 62
4
  6
CONTINUOUS
 10
8.419014671
 20
6.2015383158
 11
8.4383331879
 21
6.1857096842
  0
LINE
  5
296
100
AcDbEntity
  8
0
100
AcDbLine
 62
4
  6
CONTINUOUS
 10
8.3707183756
 20
6.1903987873
 11
8.3803776388
 21
6.1752400272
  0
LINE
  5
297
100
AcDbEntity
  8
0
100
AcDbLine
 62
4
  6
CONTINUOUS
 10
8.4383331879
 20
6.1857096842
 11
8.4479924468
 21
6.1705509244
  0
LINE
  5
298
100
AcDbEntity
  8
0
100
AcDbLine
 62
4
  6
CONTINUOUS
 10
7.9148016459
 20
8.0633132048
 11
7.9148016459
 21
7.9956983927
  0
LINE
  5
299
100
AcDbEntity
  8
0
100
AcDbLine
 62
4
  6
CONTINUOUS
 10
7.9148016459
 20
7.5815576684
 11
7.9148016459
 21
7.6660761835
  0
LINE
  5
29A
100
AcDbEntity
  8
0
100
AcDbLine
 62
4
  6
CONTINUOUS
 10
7.9824164581
 20
7.7290018925
 11
7.9824164581
 21
7.7797130016
  0
LINE
  5
29B
100
AcDbEntity
  8
0
100
AcDbLine
 62
4
  6
CONTINUOUS
 10
8.0049547274
 20
8.133127731
 11
8.0049547274
 21
8.1838388401
  0
LINE
  5
29C
100
AcDbEntity
  8
0
100
AcDbLine
 62
4
  6
CONTINUOUS
 10
8.3320813434
 20
6.1641004988
 11
8.3320813434
 21
6.1785893867
  0
LINE
  5
29D
100
AcDbEntity
  8
0
100
AcDbLine
 62
4
  6
CONTINUOUS
 10
8.3803776388
 20
6.1607511393
 11
8.3803776388
 21
6.1752400272
  0
LINE
  5
29E
100
AcDbEntity
  8
0
100
AcDbLine
 62
7
  6
CONTINUOUS
 10
7.6636608247
 20
5.9569002963
 11
12.9762531841
 21
5.5884707648
  0
LINE
  5
29F
100
AcDbEntity
  8
0
100
AcDbLine
 62
4
  6
CONTINUOUS
 10
8.4479924468
 20
6.1705509244
 11
8.4479924468
 21
6.1560620364
  0
LINE
  5
2A0
100
AcDbEntity
  8
0
100
AcDbLine
 62
4
  6
CONTINUOUS
 10
9.5922928356
 20
10.4704601194
 11
9.6035619763
 21
10.4781304534
  0
LINE
  5
2A1
100
AcDbEntity
  8
0
100
AcDbLine
 62
4
  6
CONTINUOUS
 10
8.3513998629
 20
6.1989829747
 11
8.3610591192
 21
6.198313103
  0
LINE
  5
2A2
100
AcDbEntity
  8
0
100
AcDbLine
 62
4
  6
CONTINUOUS
 10
11.5321939908
 20
5.9783941527
 11
11.6481050942
 21
5.9703556904
  0
LINE
  5
2A3
100
AcDbEntity
  8
0
100
AcDbLine
 62
4
  6
CONTINUOUS
 10
8.4093554112
 20
6.2022081877
 11
8.419014671
 21
6.2015383158
  0
LINE
  5
2A4
100
AcDbEntity
  8
0
100
AcDbLine
 62
4
  6
CONTINUOUS
 10
9.5810237029
 20
10.4543379334
 11
9.5922928356
 21
10.4704601194
  0
LINE
  5
2A5
100
AcDbEntity
  8
0
100
AcDbLine
 62
4
  6
CONTINUOUS
 10
9.5278977796
 20
7.6290668257
 11
9.5278977796
 21
7.6677038609
  0
LINE
  5
2A6
100
AcDbEntity
  8
0
100
AcDbLine
 62
4
  6
CONTINUOUS
 10
9.5278977796
 20
8.6787062741
 11
9.5278977796
 21
8.6819260148
  0
LINE
  5
2A7
100
AcDbEntity
  8
0
100
AcDbLine
 62
4
  6
CONTINUOUS
 10
7.9598781847
 20
8.0432834332
 11
7.9148016459
 21
8.0633132048
  0
LINE
  5
2A8
100
AcDbEntity
  8
0
100
AcDbLine
 62
4
  6
CONTINUOUS
 10
9.5472162962
 20
7.6084085634
 11
9.5278977796
 21
7.6290668257
  0
LINE
  5
2A9
100
AcDbEntity
  8
0
100
AcDbLine
 62
4
  6
CONTINUOUS
 10
9.6631274039
 20
7.6486663964
 11
9.6438088852
 21
7.6693246568
  0
LINE
  5
2AA
100
AcDbEntity
  8
0
100
AcDbLine
 62
4
  6
CONTINUOUS
 10
9.6631274039
 20
7.7549182497
 11
9.6438088852
 21
7.7755765021
  0
LINE
  5
2AB
100
AcDbEntity
  8
0
100
AcDbLine
 62
4
  6
CONTINUOUS
 10
9.5665348128
 20
8.4442046198
 11
9.5665348128
 21
8.3959083162
  0
LINE
  5
2AC
100
AcDbEntity
  8
0
100
AcDbLine
 62
4
  6
CONTINUOUS
 10
9.5665348128
 20
8.0320762011
 11
9.5665348128
 21
8.0803725047
  0
LINE
  5
2AD
100
AcDbEntity
  8
0
100
AcDbLine
 62
4
  6
CONTINUOUS
 10
9.5665348128
 20
8.2317008968
 11
9.5665348128
 21
8.2703379139
  0
LINE
  5
2AE
100
AcDbEntity
  8
0
100
AcDbLine
 62
4
  6
CONTINUOUS
 10
9.5665348128
 20
8.3089749955
 11
9.5665348128
 21
8.3476120126
  0
LINE
  5
2AF
100
AcDbEntity
  8
0
100
AcDbLine
 62
4
  6
CONTINUOUS
 10
9.5665348128
 20
8.737202053
 11
9.5665348128
 21
8.7758391991
  0
LINE
  5
2B0
100
AcDbEntity
  8
0
100
AcDbLine
 62
4
  6
CONTINUOUS
 10
9.5665348128
 20
8.8241354382
 11
9.5665348128
 21
8.8627724553
  0
LINE
  5
2B1
100
AcDbEntity
  8
0
100
AcDbLine
 62
4
  6
CONTINUOUS
 10
9.5810237029
 20
10.4374342304
 11
9.5810237029
 21
10.4543379334
  0
LINE
  5
2B2
100
AcDbEntity
  8
0
100
AcDbLine
 62
4
  6
CONTINUOUS
 10
9.6148311083
 20
8.4118774652
 11
9.6148311083
 21
8.4505144823
  0
LINE
  5
2B3
100
AcDbEntity
  8
0
100
AcDbLine
 62
4
  6
CONTINUOUS
 10
9.6631274039
 20
8.7691404801
 11
9.6631274039
 21
8.7305033341
  0
LINE
  5
2B4
100
AcDbEntity
  8
0
100
AcDbLine
 62
4
  6
CONTINUOUS
 10
9.6631274039
 20
8.6113725422
 11
9.6631274039
 21
8.5920540336
  0
LINE
  5
2B5
100
AcDbEntity
  8
0
100
AcDbLine
 62
4
  6
CONTINUOUS
 10
9.6631274039
 20
8.4471651228
 11
9.6631274039
 21
8.4085281058
  0
LINE
  5
2B6
100
AcDbEntity
  8
0
100
AcDbLine
 62
4
  6
CONTINUOUS
 10
9.6631274039
 20
8.263639195
 11
9.6631274039
 21
8.2250021779
  0
LINE
  5
2B7
100
AcDbEntity
  8
0
100
AcDbLine
 62
4
  6
CONTINUOUS
 10
9.6631274039
 20
7.6100293601
 11
9.6631274039
 21
7.6486663964
  0
LINE
  5
2B8
100
AcDbEntity
  8
0
100
AcDbLine
 62
4
  6
CONTINUOUS
 10
9.6631274039
 20
7.7259404628
 11
9.6631274039
 21
7.7549182497
  0
LINE
  5
2B9
100
AcDbEntity
  8
0
100
AcDbLine
 62
4
  6
CONTINUOUS
 10
9.6631274039
 20
8.4954614264
 11
9.6631274039
 21
8.54375773
  0
LINE
  5
2BA
100
AcDbEntity
  8
0
100
AcDbLine
 62
4
  6
CONTINUOUS
 10
9.6631274039
 20
8.8174367192
 11
9.6631274039
 21
8.8560737363
  0
LINE
  5
2BB
100
AcDbEntity
  8
0
100
AcDbLine
 62
4
  6
CONTINUOUS
 10
9.6953249335
 20
8.1197371831
 11
9.6953249335
 21
8.1390556916
  0
LINE
  5
2BC
100
AcDbEntity
  8
0
100
AcDbLine
 62
4
  6
CONTINUOUS
 10
9.7162533272
 20
10.4027004695
 11
9.7162533272
 21
10.4703152817
  0
LINE
  5
2BD
100
AcDbEntity
  8
0
100
AcDbLine
 62
4
  6
CONTINUOUS
 10
9.6180508611
 20
8.8591998052
 11
9.6116113556
 21
8.8210093693
  0
LINE
  5
2BE
100
AcDbEntity
  8
0
100
AcDbLine
 62
4
  6
CONTINUOUS
 10
9.6631274039
 20
8.4085281058
 11
9.6534681446
 21
8.3898794691
  0
LINE
  5
2BF
100
AcDbEntity
  8
0
100
AcDbLine
 62
4
  6
CONTINUOUS
 10
9.6244903666
 20
8.868412446
 11
9.6180508611
 21
8.8591998052
  0
LINE
  5
2C0
100
AcDbEntity
  8
0
100
AcDbLine
 62
4
  6
CONTINUOUS
 10
9.6116113556
 20
8.8210093693
 11
9.60517185
 21
8.8117967285
  0
LINE
  5
2C1
100
AcDbEntity
  8
0
100
AcDbLine
 62
4
  6
CONTINUOUS
 10
9.5665348128
 20
8.8627724553
 11
9.5761940751
 21
8.8717618052
  0
LINE
  5
2C2
100
AcDbEntity
  8
0
100
AcDbLine
 62
4
  6
CONTINUOUS
 10
9.6534681446
 20
8.8084473691
 11
9.6631274039
 21
8.8174367192
  0
LINE
  5
2C3
100
AcDbEntity
  8
0
100
AcDbLine
 62
4
  6
CONTINUOUS
 10
7.9936855948
 20
8.0324870298
 11
7.9598781847
 21
8.0432834332
  0
LINE
  5
2C4
100
AcDbEntity
  8
0
100
AcDbLine
 62
4
  6
CONTINUOUS
 10
8.0500312702
 20
8.1130979591
 11
7.9148016459
 21
8.164735423
  0
LINE
  5
2C5
100
AcDbEntity
  8
0
100
AcDbLine
 62
4
  6
CONTINUOUS
 10
9.5761940751
 20
8.2117125162
 11
9.5665348128
 21
8.2317008968
  0
LINE
  5
2C6
100
AcDbEntity
  8
0
100
AcDbLine
 62
4
  6
CONTINUOUS
 10
9.6244903666
 20
8.3918890848
 11
9.6148311083
 21
8.4118774652
  0
LINE
  5
2C7
100
AcDbEntity
  8
0
100
AcDbLine
 62
4
  6
CONTINUOUS
 10
9.9780192398
 20
8.0663248444
 11
9.9780192398
 21
8.1339396565
  0
LINE
  5
2C8
100
AcDbEntity
  8
0
100
AcDbLine
 62
4
  6
CONTINUOUS
 10
10.0263155373
 20
8.2368421423
 11
10.0263155373
 21
8.1692273301
  0
LINE
  5
2C9
100
AcDbEntity
  8
0
100
AcDbLine
 62
4
  6
CONTINUOUS
 10
9.6631274039
 20
8.2250021779
 11
9.6534681446
 21
8.2063535413
  0
LINE
  5
2CA
100
AcDbEntity
  8
0
100
AcDbLine
 62
4
  6
CONTINUOUS
 10
8.3320813434
 20
6.1785893867
 11
8.3417405997
 21
6.1924084029
  0
LINE
  5
2CB
100
AcDbEntity
  8
0
100
AcDbLine
 62
4
  6
CONTINUOUS
 10
9.6631274039
 20
8.7305033341
 11
9.6534681446
 21
8.721513984
  0
LINE
  5
2CC
100
AcDbEntity
  8
0
100
AcDbLine
 62
4
  6
CONTINUOUS
 10
9.6631274039
 20
8.5920540336
 11
9.6534681446
 21
8.583064619
  0
LINE
  5
2CD
100
AcDbEntity
  8
0
100
AcDbLine
 62
4
  6
CONTINUOUS
 10
9.6534681446
 20
8.4864720118
 11
9.6631274039
 21
8.4954614264
  0
LINE
  5
2CE
100
AcDbEntity
  8
0
100
AcDbLine
 62
4
  6
CONTINUOUS
 10
11.7543569228
 20
7.4951871549
 11
11.7205495168
 21
7.489079855
  0
LINE
  5
2CF
100
AcDbEntity
  8
0
100
AcDbLine
 62
4
  6
CONTINUOUS
 10
7.9148016459
 20
7.6238169259
 11
8.0500312702
 21
7.6144387196
  0
LINE
  5
2D0
100
AcDbEntity
  8
0
100
AcDbLine
 62
4
  6
CONTINUOUS
 10
9.5665348128
 20
7.6070688198
 11
9.5472162962
 21
7.6084085634
  0
LINE
  5
2D1
100
AcDbEntity
  8
0
100
AcDbLine
 62
4
  6
CONTINUOUS
 10
9.6438088852
 20
7.6693246568
 11
9.6244903666
 21
7.6706644006
  0
LINE
  5
2D2
100
AcDbEntity
  8
0
100
AcDbLine
 62
4
  6
CONTINUOUS
 10
9.5278977796
 20
7.7160001525
 11
9.6438088852
 21
7.70796169
  0
LINE
  5
2D3
100
AcDbEntity
  8
0
100
AcDbLine
 62
4
  6
CONTINUOUS
 10
11.7205495168
 20
7.5735983702
 11
11.7656260575
 21
7.5704723014
  0
LINE
  5
2D4
100
AcDbEntity
  8
0
100
AcDbLine
 62
4
  6
CONTINUOUS
 10
8.0500312702
 20
8.0201275924
 11
7.9936855948
 21
8.0324870298
  0
LINE
  5
2D5
100
AcDbEntity
  8
0
100
AcDbLine
 62
4
  6
CONTINUOUS
 10
10.3527984876
 20
7.8230005407
 11
10.2175688634
 21
7.8710157802
  0
LINE
  5
2D6
100
AcDbEntity
  8
0
100
AcDbLine
 62
4
  6
CONTINUOUS
 10
10.333479969
 20
7.7696044835
 11
10.3527984876
 21
7.748946223
  0
LINE
  5
2D7
100
AcDbEntity
  8
0
100
AcDbLine
 62
4
  6
CONTINUOUS
 10
9.5761940751
 20
8.7268729589
 11
9.5665348128
 21
8.737202053
  0
LINE
  5
2D8
100
AcDbEntity
  8
0
100
AcDbLine
 62
4
  6
CONTINUOUS
 10
10.2690849076
 20
7.6806974659
 11
10.2948429338
 21
7.6273950924
  0
LINE
  5
2D9
100
AcDbEntity
  8
0
100
AcDbLine
 62
4
  6
CONTINUOUS
 10
10.2175688634
 20
7.7100281419
 11
10.2175688634
 21
7.7583244293
  0
LINE
  5
2DA
100
AcDbEntity
  8
0
100
AcDbLine
 62
4
  6
CONTINUOUS
 10
10.2175688634
 20
7.9482898466
 11
10.2175688634
 21
8.025563913
  0
LINE
  5
2DB
100
AcDbEntity
  8
0
100
AcDbLine
 62
4
  6
CONTINUOUS
 10
10.2175688634
 20
8.0642009623
 11
10.2175688634
 21
8.1221565202
  0
LINE
  5
2DC
100
AcDbEntity
  8
0
100
AcDbLine
 62
4
  6
CONTINUOUS
 10
10.2175688634
 20
8.2863639395
 11
10.2175688634
 21
8.3250009566
  0
LINE
  5
2DD
100
AcDbEntity
  8
0
100
AcDbLine
 62
4
  6
CONTINUOUS
 10
10.2175688634
 20
8.3990552501
 11
10.2175688634
 21
8.4280330451
  0
LINE
  5
2DE
100
AcDbEntity
  8
0
100
AcDbLine
 62
4
  6
CONTINUOUS
 10
10.2175688634
 20
8.4859885708
 11
10.2175688634
 21
8.5342848744
  0
LINE
  5
2DF
100
AcDbEntity
  8
0
100
AcDbLine
 62
4
  6
CONTINUOUS
 10
10.2175688634
 20
8.6083392323
 11
10.2175688634
 21
8.666294758
  0
LINE
  5
2E0
100
AcDbEntity
  8
0
100
AcDbLine
 62
4
  6
CONTINUOUS
 10
10.2755244132
 20
8.6429570184
 11
10.2755244132
 21
8.6043200013
  0
LINE
  5
2E1
100
AcDbEntity
  8
0
100
AcDbLine
 62
4
  6
CONTINUOUS
 10
10.2755244132
 20
8.0988187806
 11
10.2755244132
 21
8.0601817313
  0
LINE
  5
2E2
100
AcDbEntity
  8
0
100
AcDbLine
 62
4
  6
CONTINUOUS
 10
10.3141614504
 20
7.8385590394
 11
10.3141614504
 21
7.8900750837
  0
LINE
  5
2E3
100
AcDbEntity
  8
0
100
AcDbLine
 62
4
  6
CONTINUOUS
 10
10.3527984876
 20
8.5249066681
 11
10.3527984876
 21
8.4766103645
  0
LINE
  5
2E4
100
AcDbEntity
  8
0
100
AcDbLine
 62
4
  6
CONTINUOUS
 10
10.3527984876
 20
8.4186548388
 11
10.3527984876
 21
8.3896770438
  0
LINE
  5
2E5
100
AcDbEntity
  8
0
100
AcDbLine
 62
4
  6
CONTINUOUS
 10
10.3527984876
 20
8.3156227503
 11
10.3527984876
 21
8.2769857332
  0
LINE
  5
2E6
100
AcDbEntity
  8
0
100
AcDbLine
 62
4
  6
CONTINUOUS
 10
10.3527984876
 20
7.748946223
 11
10.3527984876
 21
7.7006499356
  0
LINE
  5
2E7
100
AcDbEntity
  8
0
100
AcDbLine
 62
4
  6
CONTINUOUS
 10
10.3527984876
 20
8.054822756
 11
10.3527984876
 21
8.1127783139
  0
LINE
  5
2E8
100
AcDbEntity
  8
0
100
AcDbLine
 62
4
  6
CONTINUOUS
 10
10.3527984876
 20
8.598961026
 11
10.3527984876
 21
8.6569165517
  0
LINE
  5
2E9
100
AcDbEntity
  8
0
100
AcDbLine
 62
4
  6
CONTINUOUS
 10
10.2690849076
 20
8.7013591252
 11
10.2948429338
 21
8.7510888443
  0
LINE
  5
2EA
100
AcDbEntity
  8
0
100
AcDbLine
 62
4
  6
CONTINUOUS
 10
8.3803776388
 20
6.1752400272
 11
8.3900368951
 21
6.1890590435
  0
LINE
  5
2EB
100
AcDbEntity
  8
0
100
AcDbLine
 62
4
  6
CONTINUOUS
 10
8.4479924468
 20
6.1560620364
 11
8.4383331879
 21
6.1422430204
  0
LINE
  5
2EC
100
AcDbEntity
  8
0
100
AcDbLine
 62
4
  6
CONTINUOUS
 10
9.5665348128
 20
8.0803725047
 11
9.5761940751
 21
8.0893618869
  0
LINE
  5
2ED
100
AcDbEntity
  8
0
100
AcDbLine
 62
4
  6
CONTINUOUS
 10
10.2175688634
 20
8.5342848744
 11
10.23688738
 21
8.5522636392
  0
LINE
  5
2EE
100
AcDbEntity
  8
0
100
AcDbLine
 62
4
  6
CONTINUOUS
 10
9.5665348128
 20
8.3476120126
 11
9.5761940751
 21
8.3533816218
  0
LINE
  5
2EF
100
AcDbEntity
  8
0
100
AcDbLine
 62
4
  6
CONTINUOUS
 10
10.3527984876
 20
7.7006499356
 11
10.2175688634
 21
7.7100281419
  0
LINE
  5
2F0
100
AcDbEntity
  8
0
100
AcDbLine
 62
4
  6
CONTINUOUS
 10
7.9148016459
 20
7.8942761745
 11
8.0500312702
 21
7.8848979682
  0
LINE
  5
2F1
100
AcDbEntity
  8
0
100
AcDbLine
 62
4
  6
CONTINUOUS
 10
9.6438088852
 20
7.7755765021
 11
9.5278977796
 21
7.7836149646
  0
LINE
  5
2F2
100
AcDbEntity
  8
0
100
AcDbLine
 62
4
  6
CONTINUOUS
 10
9.6631274039
 20
7.8128737915
 11
9.5278977796
 21
7.8222519978
  0
LINE
  5
2F3
100
AcDbEntity
  8
0
100
AcDbLine
 62
4
  6
CONTINUOUS
 10
10.23688738
 20
7.7763032023
 11
10.333479969
 21
7.7696044835
  0
LINE
  5
2F4
100
AcDbEntity
  8
0
100
AcDbLine
 62
4
  6
CONTINUOUS
 10
9.6631274039
 20
7.8804886036
 11
9.5278977796
 21
7.8898668099
  0
LINE
  5
2F5
100
AcDbEntity
  8
0
100
AcDbLine
 62
4
  6
CONTINUOUS
 10
9.6631274039
 20
8.0253774822
 11
9.5278977796
 21
8.0347556885
  0
LINE
  5
2F6
100
AcDbEntity
  8
0
100
AcDbLine
 62
4
  6
CONTINUOUS
 10
10.3527984876
 20
7.9775486896
 11
10.2175688634
 21
7.9869268959
  0
LINE
  5
2F7
100
AcDbEntity
  8
0
100
AcDbLine
 62
4
  6
CONTINUOUS
 10
11.7205495168
 20
7.489079855
 11
11.6867421107
 21
7.4998762581
  0
LINE
  5
2F8
100
AcDbEntity
  8
0
100
AcDbLine
 62
4
  6
CONTINUOUS
 10
10.0263155373
 20
8.1692273301
 11
9.92006369
 21
8.2055736997
  0
LINE
  5
2F9
100
AcDbEntity
  8
0
100
AcDbLine
 62
4
  6
CONTINUOUS
 10
9.6953249335
 20
8.1390556916
 11
9.5665348128
 21
8.1866243339
  0
LINE
  5
2FA
100
AcDbEntity
  8
0
100
AcDbLine
 62
4
  6
CONTINUOUS
 10
10.0552933142
 20
8.2734695598
 11
9.92006369
 21
8.3601218325
  0
LINE
  5
2FB
100
AcDbEntity
  8
0
100
AcDbLine
 62
4
  6
CONTINUOUS
 10
9.5761940751
 20
8.813806344
 11
9.5665348128
 21
8.8241354382
  0
LINE
  5
2FC
100
AcDbEntity
  8
0
100
AcDbLine
 62
4
  6
CONTINUOUS
 10
9.6631274039
 20
8.8560737363
 11
9.6534681446
 21
8.8664028303
  0
LINE
  5
2FD
100
AcDbEntity
  8
0
100
AcDbLine
 62
4
  6
CONTINUOUS
 10
10.23688738
 20
8.2657056873
 11
10.2175688634
 21
8.2863639395
  0
LINE
  5
2FE
100
AcDbEntity
  8
0
100
AcDbLine
 62
4
  6
CONTINUOUS
 10
10.23688738
 20
8.3783969979
 11
10.2175688634
 21
8.3990552501
  0
LINE
  5
2FF
100
AcDbEntity
  8
0
100
AcDbLine
 62
4
  6
CONTINUOUS
 10
9.6244903666
 20
7.6706644006
 11
9.5665348128
 21
7.6070688198
  0
LINE
  5
300
100
AcDbEntity
  8
0
100
AcDbLine
 62
4
  6
CONTINUOUS
 10
10.2175688634
 20
8.4280330451
 11
10.23688738
 21
8.44601181
  0
LINE
  5
301
100
AcDbEntity
  8
0
100
AcDbLine
 62
4
  6
CONTINUOUS
 10
9.5278977796
 20
7.6677038609
 11
9.5375570419
 21
7.6766932471
  0
LINE
  5
302
100
AcDbEntity
  8
0
100
AcDbLine
 62
4
  6
CONTINUOUS
 10
10.3527984876
 20
8.3896770438
 11
10.333479969
 21
8.3716982791
  0
LINE
  5
303
100
AcDbEntity
  8
0
100
AcDbLine
 62
4
  6
CONTINUOUS
 10
9.6438088852
 20
7.70796169
 11
9.6631274039
 21
7.7259404628
  0
LINE
  5
304
100
AcDbEntity
  8
0
100
AcDbLine
 62
4
  6
CONTINUOUS
 10
10.3527984876
 20
8.2769857332
 11
10.333479969
 21
8.2590069685
  0
LINE
  5
305
100
AcDbEntity
  8
0
100
AcDbLine
 62
4
  6
CONTINUOUS
 10
9.6534681446
 20
7.6010399727
 11
9.6631274039
 21
7.6100293601
  0
LINE
  5
306
100
AcDbEntity
  8
0
100
AcDbLine
 62
4
  6
CONTINUOUS
 10
9.92006369
 20
8.2828477661
 11
10.0552933142
 21
8.3507436262
  0
LINE
  5
307
100
AcDbEntity
  8
0
100
AcDbLine
 62
4
  6
CONTINUOUS
 10
9.5858533294
 20
8.4525240981
 11
9.5665348128
 21
8.4442046198
  0
LINE
  5
308
100
AcDbEntity
  8
0
100
AcDbLine
 62
4
  6
CONTINUOUS
 10
10.2175688634
 20
7.8710157802
 11
10.3527984876
 21
7.9002746232
  0
LINE
  5
309
100
AcDbEntity
  8
0
100
AcDbLine
 62
4
  6
CONTINUOUS
 10
9.5761940751
 20
8.0893618869
 11
9.6631274039
 21
8.08333304
  0
LINE
  5
30A
100
AcDbEntity
  8
0
100
AcDbLine
 62
4
  6
CONTINUOUS
 10
10.0552933142
 20
8.0609658691
 11
9.92006369
 21
8.0703440754
  0
LINE
  5
30B
100
AcDbEntity
  8
0
100
AcDbLine
 62
4
  6
CONTINUOUS
 10
10.3527984876
 20
8.054822756
 11
10.2175688634
 21
8.0642009623
  0
LINE
  5
30C
100
AcDbEntity
  8
0
100
AcDbLine
 62
4
  6
CONTINUOUS
 10
9.92006369
 20
8.1379588876
 11
10.0552933142
 21
8.1285806813
  0
LINE
  5
30D
100
AcDbEntity
  8
0
100
AcDbLine
 62
4
  6
CONTINUOUS
 10
9.6534681446
 20
8.2063535413
 11
9.5761940751
 21
8.2117125162
  0
LINE
  5
30E
100
AcDbEntity
  8
0
100
AcDbLine
 62
4
  6
CONTINUOUS
 10
10.0552933142
 20
8.2122942613
 11
9.9876785021
 21
8.2169833644
  0
LINE
  5
30F
100
AcDbEntity
  8
0
100
AcDbLine
 62
4
  6
CONTINUOUS
 10
9.5278977796
 20
8.2730174013
 11
9.6631274039
 21
8.263639195
  0
LINE
  5
310
100
AcDbEntity
  8
0
100
AcDbLine
 62
4
  6
CONTINUOUS
 10
9.6631274039
 20
8.3022762765
 11
9.5665348128
 21
8.3089749955
  0
LINE
  5
311
100
AcDbEntity
  8
0
100
AcDbLine
 62
4
  6
CONTINUOUS
 10
10.333479969
 20
8.2590069685
 11
10.23688738
 21
8.2657056873
  0
LINE
  5
312
100
AcDbEntity
  8
0
100
AcDbLine
 62
4
  6
CONTINUOUS
 10
9.5278977796
 20
8.6819260148
 11
9.5375570419
 21
8.678036402
  0
LINE
  5
313
100
AcDbEntity
  8
0
100
AcDbLine
 62
4
  6
CONTINUOUS
 10
11.6867421107
 20
7.4998762581
 11
11.6642038373
 21
7.5183429957
  0
LINE
  5
314
100
AcDbEntity
  8
0
100
AcDbLine
 62
4
  6
CONTINUOUS
 10
10.333479969
 20
8.4393130912
 11
10.3527984876
 21
8.4186548388
  0
LINE
  5
315
100
AcDbEntity
  8
0
100
AcDbLine
 62
4
  6
CONTINUOUS
 10
10.333479969
 20
8.5455649204
 11
10.3527984876
 21
8.5249066681
  0
LINE
  5
316
100
AcDbEntity
  8
0
100
AcDbLine
 62
4
  6
CONTINUOUS
 10
10.2948429338
 20
8.7510888443
 11
10.3206009579
 21
8.697786475
  0
LINE
  5
317
100
AcDbEntity
  8
0
100
AcDbLine
 62
4
  6
CONTINUOUS
 10
10.2948429338
 20
7.6273950924
 11
10.3206009579
 21
7.6771248157
  0
LINE
  5
318
100
AcDbEntity
  8
0
100
AcDbLine
 62
7
  6
CONTINUOUS
 10
13.6233002628
 20
11.0430997037
 11
12.9762531841
 21
10.4181001824
  0
LINE
  5
319
100
AcDbEntity
  8
0
100
AcDbLine
 62
4
  6
CONTINUOUS
 10
10.2175688634
 20
7.7583244293
 11
10.23688738
 21
7.7763032023
  0
LINE
  5
31A
100
AcDbEntity
  8
0
100
AcDbLine
 62
4
  6
CONTINUOUS
 10
12.5512457832
 20
9.1508190478
 11
12.6864754075
 21
9.2090556537
  0
LINE
  5
31B
100
AcDbEntity
  8
0
100
AcDbLine
 62
4
  6
CONTINUOUS
 10
9.5665348128
 20
8.1286688083
 11
9.6631274039
 21
8.1509478844
  0
LINE
  5
31C
100
AcDbEntity
  8
0
100
AcDbLine
 62
4
  6
CONTINUOUS
 10
9.5761940751
 20
8.3533816218
 11
9.5955125917
 21
8.3520418781
  0
LINE
  5
31D
100
AcDbEntity
  8
0
100
AcDbLine
 62
4
  6
CONTINUOUS
 10
9.6534681446
 20
8.3898794691
 11
9.6244903666
 21
8.3918890848
  0
LINE
  5
31E
100
AcDbEntity
  8
0
100
AcDbLine
 62
4
  6
CONTINUOUS
 10
10.333479969
 20
8.3716982791
 11
10.23688738
 21
8.3783969979
  0
LINE
  5
31F
100
AcDbEntity
  8
0
100
AcDbLine
 62
4
  6
CONTINUOUS
 10
9.6631274039
 20
8.4471651228
 11
9.5858533294
 21
8.4525240981
  0
LINE
  5
320
100
AcDbEntity
  8
0
100
AcDbLine
 62
4
  6
CONTINUOUS
 10
9.5665348128
 20
8.4925008589
 11
9.6534681446
 21
8.4864720118
  0
LINE
  5
321
100
AcDbEntity
  8
0
100
AcDbLine
 62
4
  6
CONTINUOUS
 10
10.23688738
 20
8.44601181
 11
10.333479969
 21
8.4393130912
  0
LINE
  5
322
100
AcDbEntity
  8
0
100
AcDbLine
 62
4
  6
CONTINUOUS
 10
10.3527984876
 20
8.4766103645
 11
10.2175688634
 21
8.4859885708
  0
LINE
  5
323
100
AcDbEntity
  8
0
100
AcDbLine
 62
4
  6
CONTINUOUS
 10
9.6631274039
 20
8.54375773
 11
9.5665348128
 21
8.550456449
  0
LINE
  5
324
100
AcDbEntity
  8
0
100
AcDbLine
 62
4
  6
CONTINUOUS
 10
9.6534681446
 20
8.583064619
 11
9.5278977796
 21
8.5917729534
  0
LINE
  5
325
100
AcDbEntity
  8
0
100
AcDbLine
 62
4
  6
CONTINUOUS
 10
10.23688738
 20
8.5522636392
 11
10.333479969
 21
8.5455649204
  0
LINE
  5
326
100
AcDbEntity
  8
0
100
AcDbLine
 62
4
  6
CONTINUOUS
 10
11.7656260575
 20
7.5704723014
 11
11.7768951932
 21
7.5612389327
  0
LINE
  5
327
100
AcDbEntity
  8
0
100
AcDbLine
 62
4
  6
CONTINUOUS
 10
9.5922928356
 20
10.4197490103
 11
9.5810237029
 21
10.4374342304
  0
LINE
  5
328
100
AcDbEntity
  8
0
100
AcDbLine
 62
4
  6
CONTINUOUS
 10
9.6373693824
 20
10.4673340503
 11
9.6599076517
 21
10.4319636099
  0
LINE
  5
329
100
AcDbEntity
  8
0
100
AcDbLine
 62
4
  6
CONTINUOUS
 10
11.6642038373
 20
7.5183429957
 11
11.6529347046
 21
7.5360282157
  0
LINE
  5
32A
100
AcDbEntity
  8
0
100
AcDbLine
 62
4
  6
CONTINUOUS
 10
12.5625149159
 20
9.4712078885
 11
12.5850531893
 21
9.4865485569
  0
LINE
  5
32B
100
AcDbEntity
  8
0
100
AcDbLine
 62
4
  6
CONTINUOUS
 10
12.5625149159
 20
9.3444301157
 11
12.5737840566
 21
9.3521004497
  0
LINE
  5
32C
100
AcDbEntity
  8
0
100
AcDbLine
 62
4
  6
CONTINUOUS
 10
12.6752062718
 20
9.2859038345
 11
12.6526680014
 21
9.2705631659
  0
LINE
  5
32D
100
AcDbEntity
  8
0
100
AcDbLine
 62
4
  6
CONTINUOUS
 10
9.5278977796
 20
7.8222519978
 11
9.6631274039
 21
7.8804886036
  0
LINE
  5
32E
100
AcDbEntity
  8
0
100
AcDbLine
 62
4
  6
CONTINUOUS
 10
12.6526680014
 20
9.0001039173
 11
12.6188605953
 21
8.9939966174
  0
LINE
  5
32F
100
AcDbEntity
  8
0
100
AcDbLine
 62
4
  6
CONTINUOUS
 10
10.3527984876
 20
8.598961026
 11
10.2175688634
 21
8.6083392323
  0
LINE
  5
330
100
AcDbEntity
  8
0
100
AcDbLine
 62
4
  6
CONTINUOUS
 10
9.6631274039
 20
8.6693280678
 11
9.5665348128
 21
8.6760267867
  0
LINE
  5
331
100
AcDbEntity
  8
0
100
AcDbLine
 62
4
  6
CONTINUOUS
 10
9.5375570419
 20
8.678036402
 11
9.5278977796
 21
8.6787062741
  0
LINE
  5
332
100
AcDbEntity
  8
0
100
AcDbLine
 62
4
  6
CONTINUOUS
 10
9.6534681446
 20
8.721513984
 11
9.5761940751
 21
8.7268729589
  0
LINE
  5
333
100
AcDbEntity
  8
0
100
AcDbLine
 62
4
  6
CONTINUOUS
 10
9.60517185
 20
8.8117967285
 11
9.5761940751
 21
8.813806344
  0
LINE
  5
334
100
AcDbEntity
  8
0
100
AcDbLine
 62
4
  6
CONTINUOUS
 10
9.6534681446
 20
8.8664028303
 11
9.6244903666
 21
8.868412446
  0
LINE
  5
335
100
AcDbEntity
  8
0
100
AcDbLine
 62
7
  6
CONTINUOUS
 10
13.2311412708
 20
8.6258395013
 11
13.3627247757
 21
8.6167141542
  0
LINE
  5
336
100
AcDbEntity
  8
0
100
AcDbLine
 62
4
  6
CONTINUOUS
 10
11.7768951932
 20
7.5612389327
 11
11.7881643289
 21
7.5435537125
  0
LINE
  5
337
100
AcDbEntity
  8
0
100
AcDbLine
 62
4
  6
CONTINUOUS
 10
12.5625149159
 20
9.0739708672
 11
12.5737840566
 21
9.0816412011
  0
LINE
  5
338
100
AcDbEntity
  8
0
100
AcDbLine
 62
4
  6
CONTINUOUS
 10
8.3417405997
 20
6.1924084029
 11
8.3513998629
 21
6.1989829747
  0
LINE
  5
339
100
AcDbEntity
  8
0
100
AcDbLine
 62
4
  6
CONTINUOUS
 10
8.3900368951
 20
6.1890590435
 11
8.4093554112
 21
6.2022081877
  0
LINE
  5
33A
100
AcDbEntity
  8
0
100
AcDbLine
 62
4
  6
CONTINUOUS
 10
8.4383331879
 20
6.1422430204
 11
8.428673929
 21
6.1356684483
  0
LINE
  5
33B
100
AcDbEntity
  8
0
100
AcDbLine
 62
4
  6
CONTINUOUS
 10
12.6752062718
 20
9.015444586
 11
12.6526680014
 21
9.0001039173
  0
LINE
  5
33C
100
AcDbEntity
  8
0
100
AcDbLine
 62
4
  6
CONTINUOUS
 10
7.9148016459
 20
8.164735423
 11
8.0500312702
 21
8.1976164743
  0
LINE
  5
33D
100
AcDbEntity
  8
0
100
AcDbLine
 62
4
  6
CONTINUOUS
 10
12.6526680014
 20
9.2705631659
 11
12.6188605953
 21
9.2644558659
  0
LINE
  5
33E
100
AcDbEntity
  8
0
100
AcDbLine
 62
7
  6
CONTINUOUS
 10
13.3693361147
 20
8.7042240235
 11
14.0396042869
 21
8.6577407679
  0
LINE
  5
33F
100
AcDbEntity
  8
0
100
AcDbLine
 62
7
  6
CONTINUOUS
 10
13.3591948156
 20
8.7162797622
 11
14.0294629878
 21
8.6697965066
  0
LINE
  5
340
100
AcDbEntity
  8
0
100
AcDbLine
 62
4
  6
CONTINUOUS
 10
9.6035619763
 20
10.4105156412
 11
9.5922928356
 21
10.4197490103
  0
LINE
  5
341
100
AcDbEntity
  8
0
100
AcDbLine
 62
4
  6
CONTINUOUS
 10
11.6529347046
 20
7.5360282157
 11
11.6529347046
 21
7.5529319188
  0
LINE
  5
342
100
AcDbEntity
  8
0
100
AcDbLine
 62
4
  6
CONTINUOUS
 10
11.7205495168
 20
7.5397909641
 11
11.7205495168
 21
7.5735983702
  0
LINE
  5
343
100
AcDbEntity
  8
0
100
AcDbLine
 62
4
  6
CONTINUOUS
 10
11.7881643289
 20
7.5435537125
 11
11.7881643289
 21
7.5266500094
  0
LINE
  5
344
100
AcDbEntity
  8
0
100
AcDbLine
 62
4
  6
CONTINUOUS
 10
12.5512457832
 20
9.4550857024
 11
12.5625149159
 21
9.4712078885
  0
LINE
  5
345
100
AcDbEntity
  8
0
100
AcDbLine
 62
4
  6
CONTINUOUS
 10
12.5512457832
 20
9.3283079297
 11
12.5625149159
 21
9.3444301157
  0
LINE
  5
346
100
AcDbEntity
  8
0
100
AcDbLine
 62
4
  6
CONTINUOUS
 10
12.6864754075
 20
9.3020260203
 11
12.6752062718
 21
9.2859038345
  0
LINE
  5
347
100
AcDbEntity
  8
0
100
AcDbLine
 62
7
  6
CONTINUOUS
 10
13.5426039332
 20
10.0790155986
 11
13.3693361147
 21
9.9116517279
  0
LINE
  5
348
100
AcDbEntity
  8
0
100
AcDbLine
 62
4
  6
CONTINUOUS
 10
12.5850531893
 20
9.4865485569
 11
12.6188605953
 21
9.4926558569
  0
LINE
  5
349
100
AcDbEntity
  8
0
100
AcDbLine
 62
7
  6
CONTINUOUS
 10
13.2725609063
 20
9.192608715
 11
13.9428290785
 21
9.1461254594
  0
LINE
  5
34A
100
AcDbEntity
  8
0
100
AcDbLine
 62
7
  6
CONTINUOUS
 10
13.2725609063
 20
9.2363116791
 11
13.9428290785
 21
9.1898284234
  0
LINE
  5
34B
100
AcDbEntity
  8
0
100
AcDbLine
 62
4
  6
CONTINUOUS
 10
9.6599076517
 20
10.4319636099
 11
9.6824459211
 21
10.4134968726
  0
LINE
  5
34C
100
AcDbEntity
  8
0
100
AcDbLine
 62
4
  6
CONTINUOUS
 10
9.6261002416
 20
10.4765674194
 11
9.6373693824
 21
10.4673340503
  0
LINE
  5
34D
100
AcDbEntity
  8
0
100
AcDbLine
 62
4
  6
CONTINUOUS
 10
12.5512457832
 20
9.0578486811
 11
12.5625149159
 21
9.0739708672
  0
LINE
  5
34E
100
AcDbEntity
  8
0
100
AcDbLine
 62
4
  6
CONTINUOUS
 10
12.6864754075
 20
9.0315667718
 11
12.6752062718
 21
9.015444586
  0
LINE
  5
34F
100
AcDbEntity
  8
0
100
AcDbLine
 62
4
  6
CONTINUOUS
 10
11.6529347046
 20
7.5529319188
 11
11.6642038373
 21
7.5690541048
  0
LINE
  5
350
100
AcDbEntity
  8
0
100
AcDbLine
 62
4
  6
CONTINUOUS
 10
11.7881643289
 20
7.5266500094
 11
11.7768951932
 21
7.5105278236
  0
LINE
  5
351
100
AcDbEntity
  8
0
100
AcDbLine
 62
4
  6
CONTINUOUS
 10
11.6642038373
 20
7.5690541048
 11
11.675472978
 21
7.5767244387
  0
LINE
  5
352
100
AcDbEntity
  8
0
100
AcDbLine
 62
4
  6
CONTINUOUS
 10
12.6188605953
 20
9.3489743811
 11
12.6639371361
 21
9.3458483124
  0
LINE
  5
353
100
AcDbEntity
  8
0
100
AcDbLine
 62
4
  6
CONTINUOUS
 10
12.6864754075
 20
9.4119000901
 11
12.5512457832
 21
9.4212782964
  0
LINE
  5
354
100
AcDbEntity
  8
0
100
AcDbLine
 62
4
  6
CONTINUOUS
 10
12.6188605953
 20
8.9939966174
 11
12.5850531893
 21
9.0047930205
  0
LINE
  5
355
100
AcDbEntity
  8
0
100
AcDbLine
 62
4
  6
CONTINUOUS
 10
11.7768951932
 20
7.5105278236
 11
11.7543569228
 21
7.4951871549
  0
LINE
  5
356
100
AcDbEntity
  8
0
100
AcDbLine
 62
4
  6
CONTINUOUS
 10
12.6188605953
 20
9.2644558659
 11
12.5850531893
 21
9.275252269
  0
LINE
  5
357
100
AcDbEntity
  8
0
100
AcDbLine
 62
4
  6
CONTINUOUS
 10
9.6824459211
 20
10.4134968726
 11
9.7162533272
 21
10.4027004695
  0
LINE
  5
358
100
AcDbEntity
  8
0
100
AcDbLine
 62
4
  6
CONTINUOUS
 10
12.6188605953
 20
9.4926558569
 11
12.6526680014
 21
9.4818594538
  0
LINE
  5
359
100
AcDbEntity
  8
0
100
AcDbLine
 62
4
  6
CONTINUOUS
 10
12.6864754075
 20
9.1414408415
 11
12.5512457832
 21
9.21843386
  0
LINE
  5
35A
100
AcDbEntity
  8
0
100
AcDbLine
 62
4
  6
CONTINUOUS
 10
12.5850531893
 20
9.0047930205
 11
12.5625149159
 21
9.0232597581
  0
LINE
  5
35B
100
AcDbEntity
  8
0
100
AcDbLine
 62
4
  6
CONTINUOUS
 10
12.6639371361
 20
9.0753890638
 11
12.6752062718
 21
9.0661556951
  0
LINE
  5
35C
100
AcDbEntity
  8
0
100
AcDbLine
 62
4
  6
CONTINUOUS
 10
12.5512457832
 20
9.0409449781
 11
12.5512457832
 21
9.0578486811
  0
LINE
  5
35D
100
AcDbEntity
  8
0
100
AcDbLine
 62
4
  6
CONTINUOUS
 10
12.5512457832
 20
9.3114042266
 11
12.5512457832
 21
9.3283079297
  0
LINE
  5
35E
100
AcDbEntity
  8
0
100
AcDbLine
 62
4
  6
CONTINUOUS
 10
12.5512457832
 20
9.4212782964
 11
12.5512457832
 21
9.4550857024
  0
LINE
  5
35F
100
AcDbEntity
  8
0
100
AcDbLine
 62
4
  6
CONTINUOUS
 10
12.6188605953
 20
9.315166975
 11
12.6188605953
 21
9.3489743811
  0
LINE
  5
360
100
AcDbEntity
  8
0
100
AcDbLine
 62
4
  6
CONTINUOUS
 10
12.6864754075
 20
9.4457074961
 11
12.6864754075
 21
9.4119000901
  0
LINE
  5
361
100
AcDbEntity
  8
0
100
AcDbLine
 62
4
  6
CONTINUOUS
 10
12.6864754075
 20
9.3189297234
 11
12.6864754075
 21
9.3020260203
  0
LINE
  5
362
100
AcDbEntity
  8
0
100
AcDbLine
 62
4
  6
CONTINUOUS
 10
12.6864754075
 20
9.0484704748
 11
12.6864754075
 21
9.0315667718
  0
LINE
  5
363
100
AcDbEntity
  8
0
100
AcDbLine
 62
7
  6
CONTINUOUS
 10
13.3591948156
 20
9.8800045025
 11
14.0294629878
 21
9.8335212469
  0
LINE
  5
364
100
AcDbEntity
  8
0
100
AcDbLine
 62
7
  6
CONTINUOUS
 10
13.3693361147
 20
9.9116517279
 11
14.0396042869
 21
9.8651684723
  0
LINE
  5
365
100
AcDbEntity
  8
0
100
AcDbLine
 62
7
  6
CONTINUOUS
 10
13.5426039332
 20
10.0790155986
 11
14.2128721054
 21
10.0325323429
  0
LINE
  5
366
100
AcDbEntity
  8
0
100
AcDbLine
 62
4
  6
CONTINUOUS
 10
12.5850531893
 20
9.275252269
 11
12.5625149159
 21
9.2937190066
  0
LINE
  5
367
100
AcDbEntity
  8
0
100
AcDbLine
 62
4
  6
CONTINUOUS
 10
12.6639371361
 20
9.3458483124
 11
12.6752062718
 21
9.3366149436
  0
LINE
  5
368
100
AcDbEntity
  8
0
100
AcDbLine
 62
4
  6
CONTINUOUS
 10
12.6526680014
 20
9.4818594538
 11
12.6752062718
 21
9.4633927164
  0
LINE
  5
369
100
AcDbEntity
  8
0
100
AcDbLine
 62
4
  6
CONTINUOUS
 10
12.5625149159
 20
9.0232597581
 11
12.5512457832
 21
9.0409449781
  0
LINE
  5
36A
100
AcDbEntity
  8
0
100
AcDbLine
 62
4
  6
CONTINUOUS
 10
12.6752062718
 20
9.0661556951
 11
12.6864754075
 21
9.0484704748
  0
LINE
  5
36B
100
AcDbEntity
  8
0
100
AcDbLine
 62
4
  6
CONTINUOUS
 10
12.5625149159
 20
9.2937190066
 11
12.5512457832
 21
9.3114042266
  0
LINE
  5
36C
100
AcDbEntity
  8
0
100
AcDbLine
 62
7
  6
CONTINUOUS
 10
12.9762531841
 20
5.5884707648
 11
12.9762531841
 21
10.4181001824
  0
LINE
  5
36D
100
AcDbEntity
  8
0
100
AcDbLine
 62
7
  6
CONTINUOUS
 10
13.4553599906
 20
8.6927813994
 11
13.4584633108
 21
8.6980430315
  0
LINE
  5
36E
100
AcDbEntity
  8
0
100
AcDbLine
 62
7
  6
CONTINUOUS
 10
13.3390055897
 20
10.1811035588
 11
13.470582735
 21
10.1719786528
  0
LINE
  5
36F
100
AcDbEntity
  8
0
100
AcDbLine
 62
4
  6
CONTINUOUS
 10
9.6035619763
 20
10.4781304534
 11
9.6261002416
 21
10.4765674194
  0
LINE
  5
370
100
AcDbEntity
  8
0
100
AcDbLine
 62
7
  6
CONTINUOUS
 10
12.9762531841
 20
10.4181001824
 11
7.6636608247
 21
10.7865297139
  0
LINE
  5
371
100
AcDbEntity
  8
0
100
AcDbLine
 62
4
  6
CONTINUOUS
 10
12.6752062718
 20
9.3366149436
 11
12.6864754075
 21
9.3189297234
  0
LINE
  5
372
100
AcDbEntity
  8
0
100
AcDbLine
 62
4
  6
CONTINUOUS
 10
12.6752062718
 20
9.4633927164
 11
12.6864754075
 21
9.4457074961
  0
LINE
  5
373
100
AcDbEntity
  8
0
100
AcDbLine
 62
7
  6
CONTINUOUS
 10
13.3591948156
 20
9.8800045025
 11
13.2725609063
 21
9.2363116791
  0
LINE
  5
374
100
AcDbEntity
  8
0
100
AcDbLine
 62
7
  6
CONTINUOUS
 10
13.2725609063
 20
9.192608715
 11
13.3591948156
 21
8.7162797622
  0
LINE
  5
375
100
AcDbEntity
  8
0
100
AcDbLine
 62
7
  6
CONTINUOUS
 10
13.6233002628
 20
6.2134702861
 11
13.6233002628
 21
8.68661155
  0
LINE
  5
376
100
AcDbEntity
  8
0
100
AcDbLine
 62
7
  6
CONTINUOUS
 10
13.6233002628
 20
10.0734192891
 11
13.6233002628
 21
11.0430997037
  0
LINE
  5
377
100
AcDbEntity
  8
0
100
AcDbLine
 62
7
  6
CONTINUOUS
 10
14.1978842807
 20
8.7688072916
 11
14.2066577292
 21
8.7836825401
  0
LINE
  5
378
100
AcDbEntity
  8
0
100
AcDbLine
 62
7
  6
CONTINUOUS
 10
13.6233002628
 20
11.0430997037
 11
8.3107079034
 21
11.4115292352
  0
LINE
  5
379
100
AcDbEntity
  8
0
100
AcDbLine
 62
7
  6
CONTINUOUS
 10
13.5518311019
 20
10.0838525403
 11
13.5541784166
 21
10.0782129054
  0
LINE
  5
37A
100
AcDbEntity
  8
0
100
AcDbLine
 62
7
  6
CONTINUOUS
 10
13.6233002628
 20
6.2134702861
 11
12.9762531841
 21
5.5884707648
  0
LINE
  5
37B
100
AcDbEntity
  8
0
100
AcDbLine
 62
7
  6
CONTINUOUS
 10
14.2689864542
 20
9.9247186143
 11
14.2833890814
 21
9.8901150063
  0
ARC
  5
37C
100
AcDbEntity
  8
0
100
AcDbCircle
 62
7
  6
CONTINUOUS
 10
15.8640323599
 20
9.2143054212
 40
2.5915648883
100
AcDbArc
 50
179.5134673813
 51
179.9985734311
  0
ARC
  5
37D
100
AcDbEntity
  8
0
100
AcDbCircle
 62
7
  6
CONTINUOUS
 10
16.5343005321
 20
9.1678221656
 40
2.5915648883
100
AcDbArc
 50
179.5134673813
 51
179.9985734311
  0
ARC
  5
37E
100
AcDbEntity
  8
0
100
AcDbCircle
 62
7
  6
CONTINUOUS
 10
16.4715069194
 20
9.1678633908
 40
2.5287712748
100
AcDbArc
 50
179.9994720696
 51
180.492534488
  0
ARC
  5
37F
100
AcDbEntity
  8
0
100
AcDbCircle
 62
7
  6
CONTINUOUS
 10
15.7901759495
 20
9.2142991473
 40
2.5177084781
100
AcDbArc
 50
179.9983888061
 51
180.4936177515
  0
ARC
  5
380
100
AcDbEntity
  8
0
100
AcDbCircle
 62
7
  6
CONTINUOUS
 10
15.0893624761
 20
9.5113267658
 40
1.1077888829
100
AcDbArc
 50
161.3725959887
 51
163.0914686476
  0
ARC
  5
381
100
AcDbEntity
  8
0
100
AcDbCircle
 62
7
  6
CONTINUOUS
 10
14.4190943038
 20
9.5578100214
 40
1.1077888828
100
AcDbArc
 50
161.3725959887
 51
163.0914686476
  0
ARC
  5
382
100
AcDbEntity
  8
0
100
AcDbCircle
 62
7
  6
CONTINUOUS
 10
11.2663925037
 20
7.7525780702
 40
0.2242135502
100
AcDbArc
 50
265.9617696749
 51
274.3316037625
  0
ARC
  5
383
100
AcDbEntity
  8
0
100
AcDbCircle
 62
7
  6
CONTINUOUS
 10
11.2206341593
 20
7.7350864693
 40
0.1859290091
100
AcDbArc
 50
168.3661486195
 51
179.9679960521
  0
SPLINE
  5
384
100
AcDbEntity
  8
0
100
AcDbSpline
 62
7
  6
CONTINUOUS
 70
0
 71
3
 72
23
 73
19
 74
0
 42
0.0000001
 43
0.0000001
 44
0.0000000001
 40
0.0
 40
0.0
 40
0.0
 40
0.0
 40
0.0778915856
 40
0.1545454438
 40
0.2297388202
 40
0.3032879841
 40
0.3750174017
 40
0.4447505127
 40
0.512316206
 40
0.5775550501
 40
0.6403154135
 40
0.7004563918
 40
0.75784725
 40
0.8123710763
 40
0.8639245062
 40
0.9124214177
 40
0.9577945528
 40
1.0
 40
1.0
 40
1.0
 40
1.0
 10
14.3363391753
 20
9.4966943554
 30
0.0
 10
14.3363391753
 20
9.5070549475
 30
0.0
 10
14.3361961684
 20
9.5276118137
 30
0.0
 10
14.3355437102
 20
9.5581641386
 30
0.0
 10
14.3344557606
 20
9.5881262125
 30
0.0
 10
14.3329359511
 20
9.6174136723
 30
0.0
 10
14.3309881747
 20
9.645947951
 30
0.0
 10
14.3286182775
 20
9.6736516877
 30
0.0
 10
14.3258322769
 20
9.7004489828
 30
0.0
 10
14.322638433
 20
9.7262666205
 30
0.0
 10
14.3190451759
 20
9.7510343979
 30
0.0
 10
14.3150628881
 20
9.7746849284
 30
0.0
 10
14.3107022315
 20
9.7971539162
 30
0.0
 10
14.3059756504
 20
9.8183804483
 30
0.0
 10
14.3008959586
 20
9.8383070751
 30
0.0
 10
14.2954773591
 20
9.8568804089
 30
0.0
 10
14.2897347321
 20
9.8740500849
 30
0.0
 10
14.2855483838
 20
9.884926811
 30
0.0
 10
14.2833912383
 20
9.8901096951
 30
0.0
  0
SPLINE
  5
385
100
AcDbEntity
  8
0
100
AcDbSpline
 62
7
  6
CONTINUOUS
 70
0
 71
3
 72
9
 73
5
 74
0
 42
0.0000001
 43
0.0000001
 44
0.0000000001
 40
0.0
 40
0.0
 40
0.0
 40
0.0
 40
0.5149357862
 40
1.0
 40
1.0
 40
1.0
 40
1.0
 10
14.2230134046
 20
10.0204766042
 30
0.0
 10
14.2214034563
 20
10.0226510223
 30
0.0
 10
14.2181567544
 20
10.0267865907
 30
0.0
 10
14.2146449347
 20
10.0307013697
 30
0.0
 10
14.2128721054
 20
10.0325323429
 30
0.0
  0
SPLINE
  5
386
100
AcDbEntity
  8
0
100
AcDbSpline
 62
7
  6
CONTINUOUS
 70
0
 71
3
 72
22
 73
18
 74
0
 42
0.0000001
 43
0.0000001
 44
0.0000000001
 40
0.0
 40
0.0
 40
0.0
 40
0.0
 40
0.1581228667
 40
0.2341982852
 40
0.3081049186
 40
0.379717385
 40
0.4489184745
 40
0.5156040998
 40
0.5796927374
 40
0.6411263993
 40
0.6998833948
 40
0.755975683
 40
0.8094620448
 40
0.8604412683
 40
0.9090606462
 40
0.9555055836
 40
1.0
 40
1.0
 40
1.0
 40
1.0
 10
14.0396042869
 20
8.6577407679
 30
0.0
 10
14.049073948
 20
8.6619439542
 30
0.0
 10
14.0630173516
 20
8.6683596313
 30
0.0
 10
14.0811273355
 20
8.6772821336
 30
0.0
 10
14.094023675
 20
8.6839550812
 30
0.0
 10
14.1063736671
 20
8.6906966663
 30
0.0
 10
14.1181424827
 20
8.697507262
 30
0.0
 10
14.129295827
 20
8.7043875018
 30
0.0
 10
14.1398022768
 20
8.7113358782
 30
0.0
 10
14.1496325498
 20
8.7183519408
 30
0.0
 10
14.1587626984
 20
8.7254323366
 30
0.0
 10
14.1671723199
 20
8.7325753051
 30
0.0
 10
14.1748484508
 20
8.7397759503
 30
0.0
 10
14.181782577
 20
8.7470310627
 30
0.0
 10
14.1879746888
 20
8.7543348539
 30
0.0
 10
14.1934290042
 20
8.7616822487
 30
0.0
 10
14.1966456925
 20
8.7667050137
 30
0.0
 10
14.1981257198
 20
8.7692167702
 30
0.0
  0
SPLINE
  5
387
100
AcDbEntity
  8
0
100
AcDbSpline
 62
7
  6
CONTINUOUS
 70
0
 71
3
 72
28
 73
24
 74
0
 42
0.0000001
 43
0.0000001
 44
0.0000000001
 40
0.0
 40
0.0
 40
0.0
 40
0.0
 40
0.0188524871
 40
0.0388801737
 40
0.0600715651
 40
0.0824089768
 40
0.1058699668
 40
0.1304265019
 40
0.1560475994
 40
0.1826975814
 40
0.2103382308
 40
0.2389280827
 40
0.2987741688
 40
0.3618564495
 40
0.4277601831
 40
0.4960432585
 40
0.5662412158
 40
0.6378720029
 40
0.7104405345
 40
0.7834444448
 40
0.8563742018
 40
0.9287292883
 40
1.0
 40
1.0
 40
1.0
 40
1.0
 10
14.2066568259
 20
8.7836811647
 30
0.0
 10
14.2089897665
 20
8.7876366147
 30
0.0
 10
14.2136211629
 20
8.7959010978
 30
0.0
 10
14.2202879329
 20
8.8089298858
 30
0.0
 10
14.2268734713
 20
8.8229437399
 30
0.0
 10
14.2333655624
 20
8.8379168238
 30
0.0
 10
14.239751851
 20
8.8538219496
 30
0.0
 10
14.2460210434
 20
8.8706297966
 30
0.0
 10
14.2521608698
 20
8.8883095833
 30
0.0
 10
14.2581604212
 20
8.9068286307
 30
0.0
 10
14.2640082828
 20
8.9261528582
 30
0.0
 10
14.2717061452
 20
8.9533606863
 30
0.0
 10
14.2808365667
 20
8.989128369
 30
0.0
 10
14.2908662189
 20
9.0340244492
 30
0.0
 10
14.3000538073
 20
9.0811955103
 30
0.0
 10
14.3083306081
 20
9.1302928395
 30
0.0
 10
14.3156346303
 20
9.1809537777
 30
0.0
 10
14.3219113119
 20
9.232803602
 30
0.0
 10
14.3271139666
 20
9.2854588889
 30
0.0
 10
14.3312036918
 20
9.3385295437
 30
0.0
 10
14.3341505912
 20
9.39162393
 30
0.0
 10
14.3359323427
 20
9.4443475552
 30
0.0
 10
14.3363391753
 20
9.4793338577
 30
0.0
 10
14.3363391753
 20
9.4966943554
 30
0.0
  0
SPLINE
  5
388
100
AcDbEntity
  8
0
100
AcDbSpline
 62
7
  6
CONTINUOUS
 70
0
 71
3
 72
9
 73
5
 74
0
 42
0.0000001
 43
0.0000001
 44
0.0000000001
 40
0.0
 40
0.0
 40
0.0
 40
0.0
 40
0.4955326499
 40
1.0
 40
1.0
 40
1.0
 40
1.0
 10
14.2691335786
 20
9.9243649126
 30
0.0
 10
14.2623619344
 20
9.9406252882
 30
0.0
 10
14.2477234076
 20
9.973039119
 30
0.0
 10
14.2315104358
 20
10.0046859613
 30
0.0
 10
14.2230134046
 20
10.0204766042
 30
0.0
  0
SPLINE
  5
389
100
AcDbEntity
  8
0
100
AcDbSpline
 62
7
  6
CONTINUOUS
 70
0
 71
3
 72
23
 73
19
 74
0
 42
0.0000001
 43
0.0000001
 44
0.0000000001
 40
0.0
 40
0.0
 40
0.0
 40
0.0
 40
0.0879689742
 40
0.1720374745
 40
0.2522277104
 40
0.3285767996
 40
0.4011454457
 40
0.4700180837
 40
0.5353037253
 40
0.5971447226
 40
0.6557237648
 40
0.7112648106
 40
0.7640406505
 40
0.8143822203
 40
0.8626779008
 40
0.909373088
 40
0.9549671986
 40
1.0
 40
1.0
 40
1.0
 40
1.0
 10
13.4553598302
 20
8.6927811304
 30
0.0
 10
13.4534889046
 20
8.6896090275
 30
0.0
 10
13.4497419461
 20
8.6834567583
 30
0.0
 10
13.4439663726
 20
8.6746147934
 30
0.0
 10
13.4381678468
 20
8.666375617
 30
0.0
 10
13.432350809
 20
8.6587463173
 30
0.0
 10
13.4265200081
 20
8.651732986
 30
0.0
 10
13.4206801706
 20
8.6453411156
 30
0.0
 10
13.414835537
 20
8.6395761201
 30
0.0
 10
13.40899027
 20
8.6344429626
 30
0.0
 10
13.4031488034
 20
8.6299456744
 30
0.0
 10
13.3973150868
 20
8.626088378
 30
0.0
 10
13.3914927957
 20
8.6228755568
 30
0.0
 10
13.3856862192
 20
8.6203107411
 30
0.0
 10
13.3798998703
 20
8.6183975648
 30
0.0
 10
13.3741384063
 20
8.6171403345
 30
0.0
 10
13.3684090174
 20
8.6165421108
 30
0.0
 10
13.3646051944
 20
8.6165838941
 30
0.0
 10
13.3627244502
 20
8.6167142804
 30
0.0
  0
SPLINE
  5
38A
100
AcDbEntity
  8
0
100
AcDbSpline
 62
7
  6
CONTINUOUS
 70
0
 71
3
 72
23
 73
19
 74
0
 42
0.0000001
 43
0.0000001
 44
0.0000000001
 40
0.0
 40
0.0
 40
0.0
 40
0.0
 40
0.0879702547
 40
0.1720387707
 40
0.252227033
 40
0.328576627
 40
0.4011464305
 40
0.4700175817
 40
0.5353026847
 40
0.597145183
 40
0.655723887
 40
0.7112638297
 40
0.7640406038
 40
0.8143826993
 40
0.8626776158
 40
0.909372916
 40
0.9549673584
 40
1.0
 40
1.0
 40
1.0
 40
1.0
 10
13.5518307376
 20
10.0838531699
 30
0.0
 10
13.5504155859
 20
10.0872531859
 30
0.0
 10
13.5475538621
 20
10.0938638239
 30
0.0
 10
13.5430541973
 20
10.1034183108
 30
0.0
 10
13.5384482884
 20
10.1123787565
 30
0.0
 10
13.5337401852
 20
10.120737941
 30
0.0
 10
13.5289335606
 20
10.1284890839
 30
0.0
 10
13.5240317851
 20
10.1356256456
 30
0.0
 10
13.5190388353
 20
10.1421420632
 30
0.0
 10
13.5139584053
 20
10.1480331605
 30
0.0
 10
13.508793656
 20
10.1532936772
 30
0.0
 10
13.5035480604
 20
10.157918986
 30
0.0
 10
13.4982252346
 20
10.1619049677
 30
0.0
 10
13.4928284395
 20
10.1652469966
 30
0.0
 10
13.4873614292
 20
10.1679401848
 30
0.0
 10
13.4818287783
 20
10.1699807165
 30
0.0
 10
13.4762369709
 20
10.1713646024
 30
0.0
 10
13.472463782
 20
10.1718481419
 30
0.0
 10
13.4705830605
 20
10.1719785266
 30
0.0
  0
SPLINE
  5
38B
100
AcDbEntity
  8
0
100
AcDbSpline
 62
7
  6
CONTINUOUS
 70
0
 71
3
 72
23
 73
19
 74
0
 42
0.0000001
 43
0.0000001
 44
0.0000000001
 40
0.0
 40
0.0
 40
0.0
 40
0.0
 40
0.0430432041
 40
0.0864276157
 40
0.130656649
 40
0.1763288731
 40
0.2240992276
 40
0.2746265429
 40
0.3285147701
 40
0.3862610475
 40
0.4482190742
 40
0.5145822216
 40
0.585391119
 40
0.6605550141
 40
0.7398801137
 40
0.8231012882
 40
0.9099156628
 40
1.0
 40
1.0
 40
1.0
 40
1.0
 10
14.2128721054
 20
10.0325323429
 30
0.0
 10
14.212933054
 20
10.0288729125
 30
0.0
 10
14.2127123503
 20
10.0215136182
 30
0.0
 10
14.2112406669
 20
10.0104814696
 30
0.0
 10
14.2085157443
 20
9.9994560973
 30
0.0
 10
14.2044310905
 20
9.9884588984
 30
0.0
 10
14.1988933301
 20
9.9775132831
 30
0.0
 10
14.1918296596
 20
9.9666431378
 30
0.0
 10
14.1831914948
 20
9.9558694701
 30
0.0
 10
14.1729568637
 20
9.9452096682
 30
0.0
 10
14.1611321755
 20
9.934677577
 30
0.0
 10
14.1477527168
 20
9.9242830993
 30
0.0
 10
14.1328794571
 20
9.9140332358
 30
0.0
 10
14.1165947194
 20
9.9039320585
 30
0.0
 10
14.0989965741
 20
9.8939806131
 30
0.0
 10
14.0801923608
 20
9.8841768245
 30
0.0
 10
14.0602929153
 20
9.8745166226
 30
0.0
 10
14.046605439
 20
9.8682759907
 30
0.0
 10
14.0396042869
 20
9.8651684723
 30
0.0
  0
SPLINE
  5
38C
100
AcDbEntity
  8
0
100
AcDbSpline
 62
7
  6
CONTINUOUS
 70
0
 71
3
 72
21
 73
17
 74
0
 42
0.0000001
 43
0.0000001
 44
0.0000000001
 40
0.0
 40
0.0
 40
0.0
 40
0.0
 40
0.1231153359
 40
0.184837322
 40
0.2466817013
 40
0.3086598058
 40
0.3707815459
 40
0.4330548007
 40
0.4954844141
 40
0.558071395
 40
0.6208128987
 40
0.6837027994
 40
0.7467321283
 40
0.809889664
 40
0.8731630859
 40
1.0
 40
1.0
 40
1.0
 40
1.0
 10
14.0294629878
 20
9.8335212469
 30
0.0
 10
14.0331196
 20
9.8067604918
 30
0.0
 10
14.0376126402
 20
9.7664328878
 30
0.0
 10
14.0411942707
 20
9.7124268611
 30
0.0
 10
14.0425741224
 20
9.6717369449
 30
0.0
 10
14.0425442618
 20
9.63093539
 30
0.0
 10
14.0410186638
 20
9.5900671919
 30
0.0
 10
14.0379321425
 20
9.549187225
 30
0.0
 10
14.0332461026
 20
9.5083565433
 30
0.0
 10
14.0269525616
 20
9.4676387024
 30
0.0
 10
14.0190766368
 20
9.4270947316
 30
0.0
 10
14.0096727157
 20
9.3867787886
 30
0.0
 10
13.9988194713
 20
9.3467351633
 30
0.0
 10
13.986613364
 20
9.306995635
 30
0.0
 10
13.968665924
 20
9.2544045922
 30
0.0
 10
13.9535237321
 20
9.2155170115
 30
0.0
 10
13.9428290785
 20
9.1898284234
 30
0.0
  0
SPLINE
  5
38D
100
AcDbEntity
  8
0
100
AcDbSpline
 62
7
  6
CONTINUOUS
 70
0
 71
3
 72
23
 73
19
 74
0
 42
0.0000001
 43
0.0000001
 44
0.0000000001
 40
0.0
 40
0.0
 40
0.0
 40
0.0
 40
0.0681436223
 40
0.1355717925
 40
0.2022246133
 40
0.2680530577
 40
0.3330188589
 40
0.3971018651
 40
0.4603047619
 40
0.5226553367
 40
0.5842062484
 40
0.6450322154
 40
0.7052236803
 40
0.7648789131
 40
0.8240963959
 40
0.8829688942
 40
0.9415804852
 40
1.0
 40
1.0
 40
1.0
 40
1.0
 10
13.9428290785
 20
9.1461254594
 30
0.0
 10
13.9481577748
 20
9.1362227605
 30
0.0
 10
13.958509498
 20
9.1163853867
 30
0.0
 10
13.9730928487
 20
9.0863628772
 30
0.0
 10
13.986545135
 20
9.0562331899
 30
0.0
 10
13.9987548669
 20
9.0260153286
 30
0.0
 10
14.0096144248
 20
8.9957349848
 30
0.0
 10
14.0190269442
 20
8.9654259583
 30
0.0
 10
14.0269131471
 20
8.9351288622
 30
0.0
 10
14.0332176452
 20
8.9048892881
 30
0.0
 10
14.0379141683
 20
8.8747550225
 30
0.0
 10
14.041009627
 20
8.8447726597
 30
0.0
 10
14.042541957
 20
8.8149836798
 30
0.0
 10
14.0425761232
 20
8.7854217275
 30
0.0
 10
14.0411984516
 20
8.7561110664
 30
0.0
 10
14.0385100028
 20
8.7270657331
 30
0.0
 10
14.0346187632
 20
8.6982916271
 30
0.0
 10
14.0312909551
 20
8.6792622772
 30
0.0
 10
14.0294629878
 20
8.6697965066
 30
0.0
  0
SPLINE
  5
38E
100
AcDbEntity
  8
0
100
AcDbSpline
 62
7
  6
CONTINUOUS
 70
0
 71
3
 72
11
 73
7
 74
0
 42
0.0000001
 43
0.0000001
 44
0.0000000001
 40
0.0
 40
0.0
 40
0.0
 40
0.0
 40
0.2707423955
 40
0.5275743428
 40
0.7705940619
 40
1.0
 40
1.0
 40
1.0
 40
1.0
 10
14.2833912383
 20
9.8901096951
 30
0.0
 10
14.2820949324
 20
9.8932242756
 30
0.0
 10
14.279469912
 20
9.8992529542
 30
0.0
 10
14.2753127554
 20
9.9079110085
 30
0.0
 10
14.2710440283
 20
9.9159358627
 30
0.0
 10
14.2680413188
 20
9.9210023796
 30
0.0
 10
14.2665187953
 20
9.9234216717
 30
0.0
  0
SPLINE
  5
38F
100
AcDbEntity
  8
0
100
AcDbSpline
 62
7
  6
CONTINUOUS
 70
0
 71
3
 72
55
 73
51
 74
0
 42
0.0000001
 43
0.0000001
 44
0.0000000001
 40
0.0
 40
0.0
 40
0.0
 40
0.0
 40
0.0091577868
 40
0.0177618445
 40
0.0258372884
 40
0.0334170679
 40
0.0405430748
 40
0.0472684852
 40
0.0536583613
 40
0.0597898466
 40
0.0657516837
 40
0.0716409717
 40
0.0775587123
 40
0.0836043685
 40
0.0898706698
 40
0.0964402932
 40
0.0998623988
 40
0.1033856202
 40
0.1107605558
 40
0.1186142058
 40
0.126983132
 40
0.1358954139
 40
0.14537248
 40
0.1554292655
 40
0.1660758699
 40
0.1773187873
 40
0.1891604404
 40
0.2016004246
 40
0.2146363091
 40
0.2282628502
 40
0.2424730097
 40
0.257258518
 40
0.2726089663
 40
0.3049559727
 40
0.3394089097
 40
0.3758441812
 40
0.4141231893
 40
0.4540951793
 40
0.4955985596
 40
0.5384619526
 40
0.5825062071
 40
0.6275453385
 40
0.6733874576
 40
0.7198363195
 40
0.7666923239
 40
0.8137540635
 40
0.8608176619
 40
0.9076794905
 40
0.9541447315
 40
1.0
 40
1.0
 40
1.0
 40
1.0
 10
14.2665187953
 20
9.9234216717
 30
0.0
 10
14.2650666087
 20
9.9257291983
 30
0.0
 10
14.2621352872
 20
9.9301342706
 30
0.0
 10
14.2574977593
 20
9.9362775811
 30
0.0
 10
14.2527637062
 20
9.9417404162
 30
0.0
 10
14.2479375952
 20
9.9465165493
 30
0.0
 10
14.2430227595
 20
9.9505995362
 30
0.0
 10
14.2380232981
 20
9.9539834971
 30
0.0
 10
14.2329436101
 20
9.9566624741
 30
0.0
 10
14.2277887254
 20
9.9586290861
 30
0.0
 10
14.2225662994
 20
9.9598774594
 30
0.0
 10
14.2172858548
 20
9.960403483
 30
0.0
 10
14.2119582766
 20
9.9602047319
 30
0.0
 10
14.2065943062
 20
9.9592836236
 30
0.0
 10
14.201203098
 20
9.9576450318
 30
0.0
 10
14.1967543711
 20
9.9557120001
 30
0.0
 10
14.1931960119
 20
9.9538310011
 30
0.0
 10
14.189527035
 20
9.951656494
 30
0.0
 10
14.1849284357
 20
9.9484774276
 30
0.0
 10
14.1794869461
 20
9.9440234704
 30
0.0
 10
14.17404445
 20
9.9388794616
 30
0.0
 10
14.1686062799
 20
9.9330516292
 30
0.0
 10
14.1631781234
 20
9.9265459846
 30
0.0
 10
14.1577653272
 20
9.9193700024
 30
0.0
 10
14.1523735678
 20
9.9115316341
 30
0.0
 10
14.1470091576
 20
9.903039319
 30
0.0
 10
14.1416777816
 20
9.8939027463
 30
0.0
 10
14.1363853637
 20
9.8841322139
 30
0.0
 10
14.1311382807
 20
9.8737385662
 30
0.0
 10
14.1259422482
 20
9.8627337312
 30
0.0
 10
14.1208031665
 20
9.8511302496
 30
0.0
 10
14.115727204
 20
9.8389411954
 30
0.0
 10
14.1089319395
 20
9.8216231713
 30
0.0
 10
14.1006655849
 20
9.7985984677
 30
0.0
 10
14.0912517613
 20
9.7693354762
 30
0.0
 10
14.0822223122
 20
9.73810921
 30
0.0
 10
14.0736188464
 20
9.7050627905
 30
0.0
 10
14.0654814313
 20
9.6703473043
 30
0.0
 10
14.0578480099
 20
9.6341218685
 30
0.0
 10
14.0507537449
 20
9.5965527306
 30
0.0
 10
14.0442315565
 20
9.5578123803
 30
0.0
 10
14.0383118128
 20
9.5180787311
 30
0.0
 10
14.0330216846
 20
9.4775344095
 30
0.0
 10
14.0283856485
 20
9.4363657985
 30
0.0
 10
14.0244252512
 20
9.3947620015
 30
0.0
 10
14.0211586465
 20
9.3529144351
 30
0.0
 10
14.0186008076
 20
9.3110158477
 30
0.0
 10
14.0167634906
 20
9.2692571792
 30
0.0
 10
14.0156554812
 20
9.2278327629
 30
0.0
 10
14.0154038243
 20
9.2003465876
 30
0.0
 10
14.0154038243
 20
9.1866945929
 30
0.0
  0
SPLINE
  5
390
100
AcDbEntity
  8
0
100
AcDbSpline
 62
7
  6
CONTINUOUS
 70
0
 71
3
 72
29
 73
25
 74
0
 42
0.0000001
 43
0.0000001
 44
0.0000000001
 40
0.0
 40
0.0
 40
0.0
 40
0.0
 40
0.0844109308
 40
0.167021196
 40
0.2475180268
 40
0.3256369966
 40
0.401116176
 40
0.4737019132
 40
0.5431596849
 40
0.6092721542
 40
0.6718401978
 40
0.7306888572
 40
0.7586717622
 40
0.7856716262
 40
0.8116742211
 40
0.8366682477
 40
0.8606452028
 40
0.8835986256
 40
0.9055261083
 40
0.9264302219
 40
0.9463170845
 40
0.9651968369
 40
0.9830842384
 40
1.0
 40
1.0
 40
1.0
 40
1.0
 10
13.2725609063
 20
9.192608715
 30
0.0
 10
13.272679706
 20
9.178835096
 30
0.0
 10
13.2731408594
 20
9.1515830118
 30
0.0
 10
13.2745263987
 20
9.1112148824
 30
0.0
 10
13.2765945085
 20
9.0719037743
 30
0.0
 10
13.2793368532
 20
9.0338003264
 30
0.0
 10
13.2827425209
 20
8.9970464216
 30
0.0
 10
13.2867988677
 20
8.961780564
 30
0.0
 10
13.2914900292
 20
8.9281357102
 30
0.0
 10
13.2967976703
 20
8.8962379772
 30
0.0
 10
13.3027019108
 20
8.8662073464
 30
0.0
 10
13.3081877576
 20
8.8424478828
 30
0.0
 10
13.312881155
 20
8.8244745789
 30
0.0
 10
13.316476616
 20
8.8117569271
 30
0.0
 10
13.3202035146
 20
8.7995862792
 30
0.0
 10
13.3240583134
 20
8.7879740283
 30
0.0
 10
13.3280370805
 20
8.7769309856
 30
0.0
 10
13.3321362522
 20
8.7664675422
 30
0.0
 10
13.3363521743
 20
8.7565933675
 30
0.0
 10
13.3406808388
 20
8.7473172162
 30
0.0
 10
13.3451185444
 20
8.7386475688
 30
0.0
 10
13.3496614253
 20
8.7305927062
 30
0.0
 10
13.3543042204
 20
8.723160731
 30
0.0
 10
13.357552288
 20
8.7184981823
 30
0.0
 10
13.3591948156
 20
8.7162797622
 30
0.0
  0
SPLINE
  5
391
100
AcDbEntity
  8
0
100
AcDbSpline
 62
7
  6
CONTINUOUS
 70
0
 71
3
 72
37
 73
33
 74
0
 42
0.0000001
 43
0.0000001
 44
0.0000000001
 40
0.0
 40
0.0
 40
0.0
 40
0.0
 40
0.0242160064
 40
0.0471276776
 40
0.0688728694
 40
0.0896181497
 40
0.1095643177
 40
0.1289412712
 40
0.1480010561
 40
0.1670091283
 40
0.1862325832
 40
0.2059292153
 40
0.2263374353
 40
0.2476687588
 40
0.2701059695
 40
0.2938027283
 40
0.3188839929
 40
0.3454511185
 40
0.3735850406
 40
0.4033469108
 40
0.4347832022
 40
0.4679286948
 40
0.5028057521
 40
0.5394275751
 40
0.5778008267
 40
0.6179236654
 40
0.6597872747
 40
0.7033790872
 40
0.7486826578
 40
0.7956778314
 40
0.8946424786
 40
1.0
 40
1.0
 40
1.0
 40
1.0
 10
13.5426039332
 20
10.0790155986
 30
0.0
 10
13.540993916
 20
10.0806784198
 30
0.0
 10
13.5377468144
 20
10.0838075002
 30
0.0
 10
13.5326518178
 20
10.087987609
 30
0.0
 10
13.5274781895
 20
10.0915125193
 30
0.0
 10
13.5222301352
 20
10.0943755897
 30
0.0
 10
13.5169125848
 20
10.0965718422
 30
0.0
 10
13.5115312378
 20
10.0980969547
 30
0.0
 10
13.5060928729
 20
10.0989466244
 30
0.0
 10
13.5006058155
 20
10.0991189383
 30
0.0
 10
13.4950786395
 20
10.0986144788
 30
0.0
 10
13.4895194071
 20
10.0974348421
 30
0.0
 10
13.4839351171
 20
10.0955835675
 30
0.0
 10
13.478331141
 20
10.0930656297
 30
0.0
 10
13.4727122242
 20
10.0898851522
 30
0.0
 10
13.4670828268
 20
10.0860462958
 30
0.0
 10
13.4614467799
 20
10.0815539968
 30
0.0
 10
13.4558083917
 20
10.076412667
 30
0.0
 10
13.450172426
 20
10.0706268852
 30
0.0
 10
13.4445431874
 20
10.0642023702
 30
0.0
 10
13.4389254547
 20
10.0571449762
 30
0.0
 10
13.4333244831
 20
10.0494608572
 30
0.0
 10
13.4277450617
 20
10.0411572092
 30
0.0
 10
13.4221921463
 20
10.0322416935
 30
0.0
 10
13.4166711561
 20
10.0227223189
 30
0.0
 10
13.4111871458
 20
10.0126080563
 30
0.0
 10
13.4057450797
 20
10.0019085851
 30
0.0
 10
13.4003502946
 20
9.9906338114
 30
0.0
 10
13.3950077831
 20
9.9787940247
 30
0.0
 10
13.3878364549
 20
9.9619773354
 30
0.0
 10
13.3790668617
 20
9.9396085421
 30
0.0
 10
13.3725546387
 20
9.921193522
 30
0.0
 10
13.3693361147
 20
9.9116517279
 30
0.0
  0
SPLINE
  5
392
100
AcDbEntity
  8
0
100
AcDbSpline
 62
7
  6
CONTINUOUS
 70
0
 71
3
 72
21
 73
17
 74
0
 42
0.0000001
 43
0.0000001
 44
0.0000000001
 40
0.0
 40
0.0
 40
0.0
 40
0.0
 40
0.0721750434
 40
0.1408704233
 40
0.2690156223
 40
0.3293895806
 40
0.3879136836
 40
0.4451490293
 40
0.5016982119
 40
0.5581866935
 40
0.6152406903
 40
0.6734670847
 40
0.733434797
 40
0.8604758414
 40
0.9285177531
 40
1.0
 40
1.0
 40
1.0
 40
1.0
 10
13.3693361147
 20
8.7042240235
 30
0.0
 10
13.3707709442
 20
8.7027421356
 30
0.0
 10
13.3736624422
 20
8.6999349234
 30
0.0
 10
13.3795420458
 20
8.6949761343
 30
0.0
 10
13.3856961573
 20
8.6908785183
 30
0.0
 10
13.3920732158
 20
8.687826469
 30
0.0
 10
13.3968143781
 20
8.6861089777
 30
0.0
 10
13.4016030158
 20
8.684921394
 30
0.0
 10
13.4064347195
 20
8.6842659906
 30
0.0
 10
13.4113039677
 20
8.6841435805
 30
0.0
 10
13.4162051879
 20
8.6845537557
 30
0.0
 10
13.4211334824
 20
8.6854958139
 30
0.0
 10
13.4278607069
 20
8.6874959575
 30
0.0
 10
13.4345198459
 20
8.690565836
 30
0.0
 10
13.4410271628
 20
8.6945337695
 30
0.0
 10
13.4442783304
 20
8.696849658
 30
0.0
 10
13.4459041002
 20
8.6980867154
 30
0.0
  0
SPLINE
  5
393
100
AcDbEntity
  8
0
100
AcDbSpline
 62
7
  6
CONTINUOUS
 70
0
 71
3
 72
37
 73
33
 74
0
 42
0.0000001
 43
0.0000001
 44
0.0000000001
 40
0.0
 40
0.0
 40
0.0
 40
0.0
 40
0.0063161058
 40
0.0126711378
 40
0.0191032437
 40
0.0256490428
 40
0.0392092754
 40
0.0536077755
 40
0.0690450541
 40
0.0856786812
 40
0.1036273253
 40
0.1229775466
 40
0.1437909472
 40
0.1661071032
 40
0.1899504634
 40
0.2153308692
 40
0.2422476215
 40
0.2706911411
 40
0.3006430285
 40
0.3320796323
 40
0.3649700317
 40
0.399279162
 40
0.4349670666
 40
0.4719892306
 40
0.5102983916
 40
0.549842539
 40
0.5905676834
 40
0.6324164775
 40
0.7192416165
 40
0.8098093508
 40
0.9035887078
 40
1.0
 40
1.0
 40
1.0
 40
1.0
 10
13.3627244502
 20
8.6167142804
 30
0.0
 10
13.36140695
 20
8.6168056187
 30
0.0
 10
13.3587700439
 20
8.6170966904
 30
0.0
 10
13.3548442925
 20
8.6178556498
 30
0.0
 10
13.3509446913
 20
8.6189368725
 30
0.0
 10
13.3457230392
 20
8.6208282379
 30
0.0
 10
13.3392345794
 20
8.6240434018
 30
0.0
 10
13.3316941165
 20
8.6291313849
 30
0.0
 10
13.3243110077
 20
8.6354774514
 30
0.0
 10
13.3170940009
 20
8.6430679345
 30
0.0
 10
13.3100494063
 20
8.651889148
 30
0.0
 10
13.3031850929
 20
8.6619269939
 30
0.0
 10
13.2965106649
 20
8.6731664226
 30
0.0
 10
13.2900346724
 20
8.6855897095
 30
0.0
 10
13.2837677667
 20
8.6991778788
 30
0.0
 10
13.277719182
 20
8.7139092549
 30
0.0
 10
13.2718987728
 20
8.7297604133
 30
0.0
 10
13.2663163152
 20
8.7467058704
 30
0.0
 10
13.2609803749
 20
8.764718086
 30
0.0
 10
13.255900516
 20
8.7837678418
 30
0.0
 10
13.2510845177
 20
8.80382394
 30
0.0
 10
13.2465407664
 20
8.8248535832
 30
0.0
 10
13.2422767924
 20
8.8468222541
 30
0.0
 10
13.2382994058
 20
8.8696938715
 30
0.0
 10
13.2346157593
 20
8.8934308108
 30
0.0
 10
13.2312314145
 20
8.9179939712
 30
0.0
 10
13.2281524227
 20
8.9433429387
 30
0.0
 10
13.224415091
 20
8.9785667576
 30
0.0
 10
13.2205727486
 20
9.0242540654
 30
0.0
 10
13.2172990512
 20
9.0808658753
 30
0.0
 10
13.2153316384
 20
9.1395431417
 30
0.0
 10
13.2149044762
 20
9.1793124881
 30
0.0
 10
13.2149044762
 20
9.1994715528
 30
0.0
  0
SPLINE
  5
394
100
AcDbEntity
  8
0
100
AcDbSpline
 62
7
  6
CONTINUOUS
 70
0
 71
3
 72
55
 73
51
 74
0
 42
0.0000001
 43
0.0000001
 44
0.0000000001
 40
0.0
 40
0.0
 40
0.0
 40
0.0
 40
0.0544796836
 40
0.1080730038
 40
0.1606188057
 40
0.2119841062
 40
0.2620411187
 40
0.3106614428
 40
0.3577215751
 40
0.4031061635
 40
0.4467061545
 40
0.4884199557
 40
0.5281545703
 40
0.5658265035
 40
0.6013637281
 40
0.6347062423
 40
0.6658099984
 40
0.694647824
 40
0.7082163713
 40
0.7212192512
 40
0.7336600645
 40
0.7455452452
 40
0.7568838525
 40
0.7676875652
 40
0.7779714304
 40
0.7877550967
 40
0.7970627058
 40
0.8059233995
 40
0.8143724103
 40
0.8224520268
 40
0.8302114288
 40
0.8377068764
 40
0.8450017153
 40
0.8521653036
 40
0.8592710663
 40
0.8663944188
 40
0.8736102248
 40
0.8809901605
 40
0.888600879
 40
0.8965027645
 40
0.9047487914
 40
0.9133845833
 40
0.92244909
 40
0.9319750597
 40
0.9419890353
 40
0.9525126212
 40
0.9635634308
 40
0.9751553269
 40
0.9872983602
 40
1.0
 40
1.0
 40
1.0
 40
1.0
 10
14.0154038243
 20
9.1866945929
 30
0.0
 10
14.0154038243
 20
9.176129628
 30
0.0
 10
14.0155524888
 20
9.1551712508
 30
0.0
 10
14.0162309932
 20
9.1240295522
 30
0.0
 10
14.0173623113
 20
9.0935052401
 30
0.0
 10
14.0189425742
 20
9.063687526
 30
0.0
 10
14.0209674723
 20
9.0346596442
 30
0.0
 10
14.023430842
 20
9.0065035277
 30
0.0
 10
14.0263259656
 20
8.979299416
 30
0.0
 10
14.0296441503
 20
8.9531245433
 30
0.0
 10
14.0333759873
 20
8.9280529453
 30
0.0
 10
14.0375106184
 20
8.904155542
 30
0.0
 10
14.042036089
 20
8.8814998769
 30
0.0
 10
14.0469394596
 20
8.8601497795
 30
0.0
 10
14.0522063483
 20
8.8401652354
 30
0.0
 10
14.0578220351
 20
8.8216019118
 30
0.0
 10
14.0637700231
 20
8.8045117592
 30
0.0
 10
14.0690929471
 20
8.7912796823
 30
0.0
 10
14.0735252229
 20
8.7814896538
 30
0.0
 10
14.0768542987
 20
8.7746945973
 30
0.0
 10
14.080253824
 20
8.7683018516
 30
0.0
 10
14.0837214231
 20
8.7623157594
 30
0.0
 10
14.0872546409
 20
8.7567403262
 30
0.0
 10
14.0908511903
 20
8.7515794464
 30
0.0
 10
14.0945089888
 20
8.7468368892
 30
0.0
 10
14.0982255472
 20
8.7425157746
 30
0.0
 10
14.1019985661
 20
8.7386190366
 30
0.0
 10
14.1058259475
 20
8.7351496737
 30
0.0
 10
14.1097056709
 20
8.7321106622
 30
0.0
 10
14.1136352903
 20
8.7295043576
 30
0.0
 10
14.1176124494
 20
8.7273332704
 30
0.0
 10
14.1216346501
 20
8.7256002518
 30
0.0
 10
14.1256988176
 20
8.7243078768
 30
0.0
 10
14.1298012116
 20
8.7234577855
 30
0.0
 10
14.1339377941
 20
8.7230513649
 30
0.0
 10
14.1381041929
 20
8.7230896149
 30
0.0
 10
14.1422959422
 20
8.7235720565
 30
0.0
 10
14.146508991
 20
8.7244971394
 30
0.0
 10
14.1507397557
 20
8.7258631908
 30
0.0
 10
14.1549849207
 20
8.7276685288
 30
0.0
 10
14.1592417285
 20
8.7299106267
 30
0.0
 10
14.1635076503
 20
8.7325870067
 30
0.0
 10
14.1677801243
 20
8.7356954574
 30
0.0
 10
14.1720564153
 20
8.739233775
 30
0.0
 10
14.1763341074
 20
8.7431990466
 30
0.0
 10
14.1806105684
 20
8.7475883816
 30
0.0
 10
14.1848829693
 20
8.7523988703
 30
0.0
 10
14.1891483825
 20
8.757627321
 30
0.0
 10
14.1934041068
 20
8.763269812
 30
0.0
 10
14.1961703968
 20
8.7672157956
 30
0.0
 10
14.1975527432
 20
8.7692544947
 30
0.0
  0
SPLINE
  5
395
100
AcDbEntity
  8
0
100
AcDbSpline
 62
7
  6
CONTINUOUS
 70
0
 71
3
 72
9
 73
5
 74
0
 42
0.0000001
 43
0.0000001
 44
0.0000000001
 40
0.0
 40
0.0
 40
0.0
 40
0.0
 40
0.2415810799
 40
1.0
 40
1.0
 40
1.0
 40
1.0
 10
14.1975527432
 20
8.7692544947
 30
0.0
 10
14.1983237579
 20
8.7703915954
 30
0.0
 10
14.2014742395
 20
8.7751262951
 30
0.0
 10
14.2044656901
 20
8.7799661416
 30
0.0
 10
14.2066568259
 20
8.7836811647
 30
0.0
  0
SPLINE
  5
396
100
AcDbEntity
  8
0
100
AcDbSpline
 62
7
  6
CONTINUOUS
 70
0
 71
3
 72
48
 73
44
 74
0
 42
0.0000001
 43
0.0000001
 44
0.0000000001
 40
0.0
 40
0.0
 40
0.0
 40
0.0
 40
0.0053769687
 40
0.0108200173
 40
0.0163927233
 40
0.0221539786
 40
0.0281563765
 40
0.0344458485
 40
0.041061621
 40
0.0480361
 40
0.055395926
 40
0.063162886
 40
0.0713540501
 40
0.0799824939
 40
0.0890583737
 40
0.0985891074
 40
0.1085792771
 40
0.1190316545
 40
0.1299475178
 40
0.1413261599
 40
0.153165471
 40
0.1654624895
 40
0.1782130527
 40
0.1914116601
 40
0.2191270145
 40
0.2485513502
 40
0.2796151531
 40
0.3122388146
 40
0.3463350437
 40
0.3818084318
 40
0.4185575649
 40
0.4564749463
 40
0.4954478721
 40
0.535359436
 40
0.5760883781
 40
0.6175104986
 40
0.6594984787
 40
0.744649988
 40
0.8304924563
 40
0.8733398395
 40
0.9159613744
 40
0.9582295888
 40
1.0
 40
1.0
 40
1.0
 40
1.0
 10
13.4705830605
 20
10.1719785266
 30
0.0
 10
13.4687157402
 20
10.1721079823
 30
0.0
 10
13.4649395544
 20
10.1721510422
 30
0.0
 10
13.4592517741
 20
10.1715642035
 30
0.0
 10
13.4535322212
 20
10.1703277669
 30
0.0
 10
13.4477879386
 20
10.1684446558
 30
0.0
 10
13.4420235042
 20
10.165919063
 30
0.0
 10
13.436243344
 20
10.1627545421
 30
0.0
 10
13.4304516863
 20
10.1589544991
 30
0.0
 10
13.4246521528
 20
10.1545233005
 30
0.0
 10
13.4188486003
 20
10.1494649963
 30
0.0
 10
13.4130453549
 20
10.1437835143
 30
0.0
 10
13.4072465368
 20
10.1374836364
 30
0.0
 10
13.4014562689
 20
10.1305706675
 30
0.0
 10
13.395679139
 20
10.1230499632
 30
0.0
 10
13.3899198598
 20
10.1149274183
 30
0.0
 10
13.3841827131
 20
10.1062098375
 30
0.0
 10
13.3784723341
 20
10.0969042401
 30
0.0
 10
13.3727936267
 20
10.0870179745
 30
0.0
 10
13.3671510502
 20
10.076559223
 30
0.0
 10
13.361549116
 20
10.0655366283
 30
0.0
 10
13.3559926274
 20
10.0539590793
 30
0.0
 10
13.3504861802
 20
10.041836026
 30
0.0
 10
13.3430960882
 20
10.0246773734
 30
0.0
 10
13.3340408887
 20
10.0019216237
 30
0.0
 10
13.3236137377
 20
9.9730365877
 30
0.0
 10
13.313491108
 20
9.9422398414
 30
0.0
 10
13.3037062034
 20
9.9096329375
 30
0.0
 10
13.2942922523
 20
9.87532294
 30
0.0
 10
13.2852801234
 20
9.8394229884
 30
0.0
 10
13.2767001474
 20
9.8020514807
 30
0.0
 10
13.2685808774
 20
9.7633318006
 30
0.0
 10
13.2609491073
 20
9.7233918924
 30
0.0
 10
13.2538306451
 20
9.6823637207
 30
0.0
 10
13.2472487092
 20
9.6403829686
 30
0.0
 10
13.2412254674
 20
9.5975883517
 30
0.0
 10
13.2339324505
 20
9.5393626369
 30
0.0
 10
13.2263628548
 20
9.4655965438
 30
0.0
 10
13.2208956523
 20
9.3913453645
 30
0.0
 10
13.2177989976
 20
9.3317880619
 30
0.0
 10
13.2161342241
 20
9.287350381
 30
0.0
 10
13.2151315375
 20
9.2432679972
 30
0.0
 10
13.2149044762
 20
9.2140124505
 30
0.0
 10
13.2149044762
 20
9.1994715528
 30
0.0
  0
SPLINE
  5
397
100
AcDbEntity
  8
0
100
AcDbSpline
 62
7
  6
CONTINUOUS
 70
0
 71
3
 72
9
 73
5
 74
0
 42
0.0000001
 43
0.0000001
 44
0.0000000001
 40
0.0
 40
0.0
 40
0.0
 40
0.0
 40
0.4850642138
 40
1.0
 40
1.0
 40
1.0
 40
1.0
 10
13.3693361147
 20
8.7042240235
 30
0.0
 10
13.3675632854
 20
8.7060549967
 30
0.0
 10
13.3640514657
 20
8.7099697757
 30
0.0
 10
13.3608047638
 20
8.7141053442
 30
0.0
 10
13.3591948156
 20
8.7162797622
 30
0.0
  0
SPLINE
  5
398
100
AcDbEntity
  8
0
100
AcDbSpline
 62
7
  6
CONTINUOUS
 70
0
 71
3
 72
9
 73
5
 74
0
 42
0.0000001
 43
0.0000001
 44
0.0000000001
 40
0.0
 40
0.0
 40
0.0
 40
0.0
 40
0.5149357862
 40
1.0
 40
1.0
 40
1.0
 40
1.0
 10
14.0294629878
 20
8.6697965066
 30
0.0
 10
14.031072936
 20
8.6676220886
 30
0.0
 10
14.0343196379
 20
8.6634865201
 30
0.0
 10
14.0378314576
 20
8.6595717411
 30
0.0
 10
14.0396042869
 20
8.6577407679
 30
0.0
  0
SPLINE
  5
399
100
AcDbEntity
  8
0
100
AcDbSpline
 62
7
  6
CONTINUOUS
 70
0
 71
3
 72
23
 73
19
 74
0
 42
0.0000001
 43
0.0000001
 44
0.0000000001
 40
0.0
 40
0.0
 40
0.0
 40
0.0
 40
0.0517124017
 40
0.105817437
 40
0.1621248898
 40
0.2204554779
 40
0.2806133097
 40
0.342391697
 40
0.4055775525
 40
0.4699511935
 40
0.5352873143
 40
0.6013557937
 40
0.6679239017
 40
0.7347566859
 40
0.801615562
 40
0.8682649978
 40
0.9344779167
 40
1.0
 40
1.0
 40
1.0
 40
1.0
 10
13.3591948156
 20
9.8800045025
 30
0.0
 10
13.3559221756
 20
9.8692621752
 30
0.0
 10
13.3495282581
 20
9.8471873766
 30
0.0
 10
13.340561103
 20
9.8131386533
 30
0.0
 10
13.3320264412
 20
9.7774994688
 30
0.0
 10
13.3239569349
 20
9.7404061672
 30
0.0
 10
13.3163825896
 20
9.7019971245
 30
0.0
 10
13.3093326933
 20
9.6624171413
 30
0.0
 10
13.3028338271
 20
9.6218156784
 30
0.0
 10
13.2969105133
 20
9.5803457917
 30
0.0
 10
13.2915855366
 20
9.5381638923
 30
0.0
 10
13.2868787411
 20
9.4954291488
 30
0.0
 10
13.2828080709
 20
9.4523026969
 30
0.0
 10
13.2793891296
 20
9.4089475334
 30
0.0
 10
13.2766344002
 20
9.3655274198
 30
0.0
 10
13.2745545126
 20
9.3222044644
 30
0.0
 10
13.2731576305
 20
9.2791446453
 30
0.0
 10
13.2726816151
 20
9.250539824
 30
0.0
 10
13.2725609063
 20
9.2363116791
 30
0.0
  0
SPLINE
  5
39A
100
AcDbEntity
  8
0
100
AcDbSpline
 62
7
  6
CONTINUOUS
 70
0
 71
3
 72
41
 73
37
 74
0
 42
0.0000001
 43
0.0000001
 44
0.0000000001
 40
0.0
 40
0.0
 40
0.0
 40
0.0
 40
0.0310748272
 40
0.0623072483
 40
0.0936920359
 40
0.1252208484
 40
0.156882237
 40
0.188662033
 40
0.2205436266
 40
0.2525083437
 40
0.2845358343
 40
0.3166044929
 40
0.3486918936
 40
0.3807752384
 40
0.4128318095
 40
0.4448394218
 40
0.4767768664
 40
0.5086243418
 40
0.5403638639
 40
0.5719796493
 40
0.6034584635
 40
0.6347899281
 40
0.6659667781
 40
0.6969850622
 40
0.7278442783
 40
0.7585474376
 40
0.7891010512
 40
0.8195150346
 40
0.8498025274
 40
0.8649066426
 40
0.8799854039
 40
0.9100708284
 40
0.9400854823
 40
0.9550762294
 40
0.970057877
 40
1.0
 40
1.0
 40
1.0
 40
1.0
 10
8.2219659854
 20
9.2989222942
 30
0.0
 10
8.2219659854
 20
9.303781646
 30
0.0
 10
8.2216034779
 20
9.313528732
 30
0.0
 10
8.2199850234
 20
9.3281026896
 30
0.0
 10
8.2172995446
 20
9.3425910898
 30
0.0
 10
8.2135619565
 20
9.3569132952
 30
0.0
 10
8.2087929138
 20
9.3709909654
 30
0.0
 10
8.2030187257
 20
9.3847467515
 30
0.0
 10
8.1962711896
 20
9.3981051848
 30
0.0
 10
8.1885874265
 20
9.4109929587
 30
0.0
 10
8.1800096725
 20
9.4233393595
 30
0.0
 10
8.1705850504
 20
9.4350766407
 30
0.0
 10
8.1603653123
 20
9.4461403929
 30
0.0
 10
8.1494065579
 20
9.4564698925
 30
0.0
 10
8.1377689296
 20
9.4660084322
 30
0.0
 10
8.1255162862
 20
9.4747036288
 30
0.0
 10
8.1127158561
 20
9.4825077086
 30
0.0
 10
8.099437873
 20
9.4893777677
 30
0.0
 10
8.0857551954
 20
9.4952760063
 30
0.0
 10
8.0717429118
 20
9.5001699365
 30
0.0
 10
8.057477935
 20
9.5040325608
 30
0.0
 10
8.0430385855
 20
9.5068425229
 30
0.0
 10
8.0285041668
 20
9.5085842276
 30
0.0
 10
8.0139545399
 20
9.5092479341
 30
0.0
 10
7.9994696738
 20
9.5088298081
 30
0.0
 10
7.9851292688
 20
9.5073319785
 30
0.0
 10
7.9710121013
 20
9.5047624371
 30
0.0
 10
7.9571964045
 20
9.5011353664
 30
0.0
 10
7.9459855531
 20
9.4972435698
 30
0.0
 10
7.9372472385
 20
9.4936242962
 30
0.0
 10
7.9286858047
 20
9.4896793187
 30
0.0
 10
7.9183050374
 20
9.4841340174
 30
0.0
 10
7.9084056139
 20
9.4777944269
 30
0.0
 10
7.9008188895
 20
9.4722737217
 30
0.0
 10
7.8934663255
 20
9.4664638984
 30
0.0
 10
7.8882163113
 20
9.4617815005
 30
0.0
 10
7.8848486111
 20
9.4585285296
 30
0.0
  0
SPLINE
  5
39B
100
AcDbEntity
  8
0
100
AcDbSpline
 62
7
  6
CONTINUOUS
 70
0
 71
3
 72
41
 73
37
 74
0
 42
0.0000001
 43
0.0000001
 44
0.0000000001
 40
0.0
 40
0.0
 40
0.0
 40
0.0
 40
0.0310748272
 40
0.0623072483
 40
0.0936920359
 40
0.1252208484
 40
0.156882237
 40
0.188662033
 40
0.2205436266
 40
0.2525083437
 40
0.2845358343
 40
0.3166044929
 40
0.3486918936
 40
0.3807752384
 40
0.4128318095
 40
0.4448394218
 40
0.4767768664
 40
0.5086243418
 40
0.5403638639
 40
0.5719796493
 40
0.6034584635
 40
0.6347899281
 40
0.6659667781
 40
0.6969850622
 40
0.7278442783
 40
0.7585474376
 40
0.7891010512
 40
0.8195150346
 40
0.8498025274
 40
0.8649066426
 40
0.8799854039
 40
0.9100708284
 40
0.9400854823
 40
0.9550762294
 40
0.970057877
 40
1.0
 40
1.0
 40
1.0
 40
1.0
 10
12.8101139321
 20
7.0488813864
 30
0.0
 10
12.8101139321
 20
7.0537407382
 30
0.0
 10
12.8097514246
 20
7.0634878242
 30
0.0
 10
12.8081329701
 20
7.0780617818
 30
0.0
 10
12.8054474914
 20
7.092550182
 30
0.0
 10
12.8017099032
 20
7.1068723873
 30
0.0
 10
12.7969408606
 20
7.1209500575
 30
0.0
 10
12.7911666724
 20
7.1347058436
 30
0.0
 10
12.7844191364
 20
7.1480642769
 30
0.0
 10
12.7767353732
 20
7.1609520508
 30
0.0
 10
12.7681576192
 20
7.1732984517
 30
0.0
 10
12.7587329972
 20
7.1850357329
 30
0.0
 10
12.7485132591
 20
7.196099485
 30
0.0
 10
12.7375545046
 20
7.2064289847
 30
0.0
 10
12.7259168763
 20
7.2159675244
 30
0.0
 10
12.7136642329
 20
7.224662721
 30
0.0
 10
12.7008638029
 20
7.2324668008
 30
0.0
 10
12.6875858198
 20
7.2393368598
 30
0.0
 10
12.6739031421
 20
7.2452350985
 30
0.0
 10
12.6598908585
 20
7.2501290287
 30
0.0
 10
12.6456258817
 20
7.253991653
 30
0.0
 10
12.6311865322
 20
7.256801615
 30
0.0
 10
12.6166521135
 20
7.2585433198
 30
0.0
 10
12.6021024867
 20
7.2592070262
 30
0.0
 10
12.5876176205
 20
7.2587889003
 30
0.0
 10
12.5732772155
 20
7.2572910706
 30
0.0
 10
12.559160048
 20
7.2547215292
 30
0.0
 10
12.5453443513
 20
7.2510944585
 30
0.0
 10
12.5341334998
 20
7.2472026619
 30
0.0
 10
12.5253951852
 20
7.2435833884
 30
0.0
 10
12.5168337514
 20
7.2396384109
 30
0.0
 10
12.5064529842
 20
7.2340931095
 30
0.0
 10
12.4965535606
 20
7.227753519
 30
0.0
 10
12.4889668362
 20
7.2222328139
 30
0.0
 10
12.4816142722
 20
7.2164229905
 30
0.0
 10
12.476364258
 20
7.2117405926
 30
0.0
 10
12.4729965579
 20
7.2084876218
 30
0.0
  0
SPLINE
  5
39C
100
AcDbEntity
  8
0
100
AcDbSpline
 62
7
  6
CONTINUOUS
 70
0
 71
3
 72
39
 73
35
 74
0
 42
0.0000001
 43
0.0000001
 44
0.0000000001
 40
0.0
 40
0.0
 40
0.0
 40
0.0
 40
0.0311450401
 40
0.062443098
 40
0.0938883402
 40
0.1254709779
 40
0.1571788704
 40
0.1889972432
 40
0.2209091549
 40
0.2528958204
 40
0.2849369968
 40
0.3170113846
 40
0.3490970423
 40
0.3811718113
 40
0.4132137424
 40
0.4452015207
 40
0.4771148823
 40
0.5089350149
 40
0.5406449388
 40
0.5722298604
 40
0.6036774924
 40
0.6349783353
 40
0.6661259096
 40
0.6971169338
 40
0.7279514411
 40
0.7586328285
 40
0.7891678337
 40
0.8195664367
 40
0.8498416808
 40
0.8800094153
 40
0.9100879635
 40
0.9400977213
 40
0.9700606967
 40
1.0
 40
1.0
 40
1.0
 40
1.0
 10
11.044401417
 20
7.9585635603
 30
0.0
 10
11.0547796891
 20
7.9578438247
 30
0.0
 10
11.0755422641
 20
7.955641176
 30
0.0
 10
11.106434413
 20
7.950092612
 30
0.0
 10
11.1369956765
 20
7.9423207765
 30
0.0
 10
11.1670610132
 20
7.932367414
 30
0.0
 10
11.1964706854
 20
7.9202859041
 30
0.0
 10
11.2250678174
 20
7.9061408508
 30
0.0
 10
11.2527000604
 20
7.8900078397
 30
0.0
 10
11.2792201773
 20
7.8719730173
 30
0.0
 10
11.3044868745
 20
7.8521326237
 30
0.0
 10
11.3283655233
 20
7.8305924773
 30
0.0
 10
11.3507288743
 20
7.8074674169
 30
0.0
 10
11.3714577266
 20
7.7828806963
 30
0.0
 10
11.3904415525
 20
7.7569633329
 30
0.0
 10
11.4075791046
 20
7.7298534331
 30
0.0
 10
11.4227789398
 20
7.701695451
 30
0.0
 10
11.4359598951
 20
7.6726394236
 30
0.0
 10
11.44705152
 20
7.6428401837
 30
0.0
 10
11.455994452
 20
7.6124565465
 30
0.0
 10
11.4627407315
 20
7.5816504751
 30
0.0
 10
11.4672540862
 20
7.5505862344
 30
0.0
 10
11.4695101253
 20
7.5194295204
 30
0.0
 10
11.4694964646
 20
7.488346586
 30
0.0
 10
11.4672128097
 20
7.4575033655
 30
0.0
 10
11.4626709746
 20
7.4270645967
 30
0.0
 10
11.4558948343
 20
7.3971929472
 30
0.0
 10
11.4469202356
 20
7.3680481374
 30
0.0
 10
11.4357948402
 20
7.3397860896
 30
0.0
 10
11.4225778149
 20
7.3125580358
 30
0.0
 10
11.4073397379
 20
7.2865098897
 30
0.0
 10
11.3901614858
 20
7.2617807135
 30
0.0
 10
11.3711365848
 20
7.2385046769
 30
0.0
 10
11.357283949
 20
7.2240330924
 30
0.0
 10
11.3500910917
 20
7.2170852958
 30
0.0
  0
SPLINE
  5
39D
100
AcDbEntity
  8
0
100
AcDbSpline
 62
7
  6
CONTINUOUS
 70
0
 71
3
 72
48
 73
44
 74
0
 42
0.0000001
 43
0.0000001
 44
0.0000000001
 40
0.0
 40
0.0
 40
0.0
 40
0.0
 40
0.0958287078
 40
0.1428189802
 40
0.1890972253
 40
0.2345925351
 40
0.2792363692
 40
0.3229619627
 40
0.3657045591
 40
0.4074016611
 40
0.4479931951
 40
0.487421778
 40
0.5256329369
 40
0.5625753586
 40
0.5982011858
 40
0.6324663776
 40
0.665331128
 40
0.6967603047
 40
0.7267240134
 40
0.755198301
 40
0.7821660712
 40
0.8076181778
 40
0.819776277
 40
0.8315564256
 40
0.8429604214
 40
0.8539909461
 40
0.8646515232
 40
0.8749468216
 40
0.8848825944
 40
0.8944658812
 40
0.9037052143
 40
0.9126106219
 40
0.9211939867
 40
0.9294691045
 40
0.9374518915
 40
0.9451606619
 40
0.9598348196
 40
0.9668566843
 40
0.973703554
 40
0.9804067973
 40
0.987000038
 40
0.9935188112
 40
1.0
 40
1.0
 40
1.0
 40
1.0
 10
9.7524570933
 20
10.742152059
 30
0.0
 10
9.7296668458
 20
10.743732568
 30
0.0
 10
9.6957255692
 20
10.7464665664
 30
0.0
 10
9.650862421
 20
10.750887103
 30
0.0
 10
9.6179824344
 20
10.7545317064
 30
0.0
 10
9.5857060618
 20
10.7585208535
 30
0.0
 10
9.5540872729
 20
10.7628478613
 30
0.0
 10
9.5231789147
 20
10.7675054437
 30
0.0
 10
9.4930326322
 20
10.7724857765
 30
0.0
 10
9.4636988023
 20
10.7777804859
 30
0.0
 10
9.4352264248
 20
10.7833806797
 30
0.0
 10
9.4076630387
 20
10.789276934
 30
0.0
 10
9.3810546391
 20
10.7954593284
 30
0.0
 10
9.3554456056
 20
10.8019174652
 30
0.0
 10
9.3308786235
 20
10.8086404893
 30
0.0
 10
9.3073945934
 20
10.8156171041
 30
0.0
 10
9.285032551
 20
10.8228355797
 30
0.0
 10
9.2638295875
 20
10.8302838049
 30
0.0
 10
9.243820826
 20
10.8379493037
 30
0.0
 10
9.2250391837
 20
10.8458193146
 30
0.0
 10
9.2075158181
 20
10.8538807114
 30
0.0
 10
9.1937829726
 20
10.8608494068
 30
0.0
 10
9.1834638719
 20
10.8665214814
 30
0.0
 10
9.1761754835
 20
10.8707499787
 30
0.0
 10
9.1692225427
 20
10.8750161861
 30
0.0
 10
9.1626078833
 20
10.8793183447
 30
0.0
 10
9.1563342771
 20
10.8836547578
 30
0.0
 10
9.1504042756
 20
10.8880236047
 30
0.0
 10
9.1448203329
 20
10.8924231455
 30
0.0
 10
9.1395847751
 20
10.896851647
 30
0.0
 10
9.1346997163
 20
10.9013072926
 30
0.0
 10
9.1301672513
 20
10.9057883991
 30
0.0
 10
9.1259892228
 20
10.9102932163
 30
0.0
 10
9.1221674806
 20
10.9148198841
 30
0.0
 10
9.1187034925
 20
10.919367199
 30
0.0
 10
9.1146316874
 20
10.9253551735
 30
0.0
 10
9.1111868129
 20
10.9314846964
 30
0.0
 10
9.1084574159
 20
10.9377225201
 30
0.0
 10
9.106804846
 20
10.9423444426
 30
0.0
 10
9.10551826
 20
10.9469754109
 30
0.0
 10
9.1045985503
 20
10.9516136121
 30
0.0
 10
9.1040464439
 20
10.9562563205
 30
0.0
 10
9.1039235709
 20
10.959356815
 30
0.0
 10
9.1039235709
 20
10.9609018914
 30
0.0
  0
SPLINE
  5
39E
100
AcDbEntity
  8
0
100
AcDbSpline
 62
7
  6
CONTINUOUS
 70
0
 71
3
 72
19
 73
15
 74
0
 42
0.0000001
 43
0.0000001
 44
0.0000000001
 40
0.0
 40
0.0
 40
0.0
 40
0.0
 40
0.150460937
 40
0.2916987357
 40
0.424419542
 40
0.4878837275
 40
0.5495802504
 40
0.6682271673
 40
0.7255606103
 40
0.7817998831
 40
0.8371466721
 40
0.8918135967
 40
0.94602219
 40
1.0
 40
1.0
 40
1.0
 40
1.0
 10
13.2997767234
 20
10.1578058941
 30
0.0
 10
13.3019875135
 20
10.1599413534
 30
0.0
 10
13.3064060527
 20
10.1639480825
 30
0.0
 10
13.3132477342
 20
10.1692875087
 30
0.0
 10
13.3190266109
 20
10.1730638479
 30
0.0
 10
13.3236348956
 20
10.1756210761
 30
0.0
 10
13.3281072284
 20
10.177816511
 30
0.0
 10
13.3326319246
 20
10.1796110819
 30
0.0
 10
13.3371820772
 20
10.1809615047
 30
0.0
 10
13.3405463357
 20
10.1817398964
 30
0.0
 10
13.3438993949
 20
10.1822946989
 30
0.0
 10
13.3472403691
 20
10.1826256377
 30
0.0
 10
13.3505679076
 20
10.1827325846
 30
0.0
 10
13.3527786296
 20
10.1826543999
 30
0.0
 10
13.3538786849
 20
10.1825781108
 30
0.0
  0
SPLINE
  5
39F
100
AcDbEntity
  8
0
100
AcDbSpline
 62
7
  6
CONTINUOUS
 70
0
 71
3
 72
29
 73
25
 74
0
 42
0.0000001
 43
0.0000001
 44
0.0000000001
 40
0.0
 40
0.0
 40
0.0
 40
0.0
 40
0.0308567503
 40
0.0616603989
 40
0.0924140154
 40
0.1231291718
 40
0.1538159557
 40
0.1844863139
 40
0.2151533937
 40
0.2458308463
 40
0.2765329383
 40
0.3072738717
 40
0.3380673958
 40
0.3689267998
 40
0.4308723133
 40
0.4932082614
 40
0.5559798815
 40
0.6191883618
 40
0.6827797024
 40
0.7466352554
 40
0.8105655868
 40
0.8743133499
 40
0.9375681413
 40
1.0
 40
1.0
 40
1.0
 40
1.0
 10
11.0347051792
 20
7.7351903245
 30
0.0
 10
11.0347051792
 20
7.7318187722
 30
0.0
 10
11.0348914561
 20
7.7250799684
 30
0.0
 10
11.0357299682
 20
7.7150123063
 30
0.0
 10
11.0371235999
 20
7.7050216873
 30
0.0
 10
11.0390656287
 20
7.695136182
 30
0.0
 10
11.0415472375
 20
7.6853815795
 30
0.0
 10
11.0445572649
 20
7.6757824759
 30
0.0
 10
11.0480827894
 20
7.6663616908
 30
0.0
 10
11.0521093541
 20
7.6571402748
 30
0.0
 10
11.0566210966
 20
7.6481373891
 30
0.0
 10
11.0616012086
 20
7.6393705322
 30
0.0
 10
11.0670324429
 20
7.6308552896
 30
0.0
 10
11.074859637
 20
7.6198441666
 30
0.0
 10
11.0856935775
 20
7.6067690553
 30
0.0
 10
11.1001819345
 20
7.5923131723
 30
0.0
 10
11.1160260899
 20
7.5791422212
 30
0.0
 10
11.133070001
 20
7.5673267724
 30
0.0
 10
11.1511520248
 20
7.5569337691
 30
0.0
 10
11.1700987292
 20
7.5480311789
 30
0.0
 10
11.1897201135
 20
7.5406875935
 30
0.0
 10
11.2098076068
 20
7.5349698591
 30
0.0
 10
11.2301321702
 20
7.5309382175
 30
0.0
 10
11.243797669
 20
7.5293931244
 30
0.0
 10
11.2506029196
 20
7.5289211787
 30
0.0
  0
SPLINE
  5
3A0
100
AcDbEntity
  8
0
100
AcDbSpline
 62
7
  6
CONTINUOUS
 70
0
 71
3
 72
41
 73
37
 74
0
 42
0.0000001
 43
0.0000001
 44
0.0000000001
 40
0.0
 40
0.0
 40
0.0
 40
0.0
 40
0.0311445021
 40
0.0624424749
 40
0.0938872635
 40
0.1254695783
 40
0.1571771084
 40
0.1889951272
 40
0.2209066806
 40
0.2528929874
 40
0.2849338043
 40
0.3170078318
 40
0.3490931284
 40
0.3811675354
 40
0.4132091043
 40
0.4451965207
 40
0.4771095205
 40
0.5089292914
 40
0.5406388537
 40
0.5722234141
 40
0.6036706863
 40
0.634971171
 40
0.6661183885
 40
0.697109057
 40
0.7279432097
 40
0.7586242438
 40
0.7891588981
 40
0.8195571526
 40
0.8498320501
 40
0.8649308928
 40
0.8800050512
 40
0.9100832561
 40
0.9400926724
 40
0.9550812755
 40
0.9700610347
 40
1.0
 40
1.0
 40
1.0
 40
1.0
 10
11.0563070835
 20
7.7720487455
 30
0.0
 10
11.0618500001
 20
7.771664343
 30
0.0
 10
11.0729391334
 20
7.7704879123
 30
0.0
 10
11.0894383803
 20
7.7675245058
 30
0.0
 10
11.1057609285
 20
7.7633735949
 30
0.0
 10
11.121818567
 20
7.7580575935
 30
0.0
 10
11.1375260296
 20
7.7516049366
 30
0.0
 10
11.1527995168
 20
7.7440501671
 30
0.0
 10
11.1675576662
 20
7.7354336471
 30
0.0
 10
11.1817218377
 20
7.7258013869
 30
0.0
 10
11.1952165644
 20
7.7152047826
 30
0.0
 10
11.207969941
 20
7.7037003507
 30
0.0
 10
11.2199140045
 20
7.6913494269
 30
0.0
 10
11.2309850923
 20
7.6782178428
 30
0.0
 10
11.2411241782
 20
7.664375578
 30
0.0
 10
11.2502771845
 20
7.6498963913
 30
0.0
 10
11.2583952676
 20
7.6348574323
 30
0.0
 10
11.2654350772
 20
7.6193388343
 30
0.0
 10
11.2713589866
 20
7.6034232934
 30
0.0
 10
11.2761352931
 20
7.587195633
 30
0.0
 10
11.2797383888
 20
7.570742358
 30
0.0
 10
11.2821488998
 20
7.5541511999
 30
0.0
 10
11.2833537927
 20
7.5375106542
 30
0.0
 10
11.283346453
 20
7.5209095191
 30
0.0
 10
11.2821267183
 20
7.5044364088
 30
0.0
 10
11.2797009212
 20
7.4881793484
 30
0.0
 10
11.2760817446
 20
7.4722250689
 30
0.0
 10
11.2712886146
 20
7.4566594213
 30
0.0
 10
11.2663317057
 20
7.4440677285
 30
0.0
 10
11.2618082931
 20
7.4342757293
 30
0.0
 10
11.2569266277
 20
7.4246966547
 30
0.0
 10
11.2501487408
 20
7.413110251
 30
0.0
 10
11.2424990924
 20
7.4020984223
 30
0.0
 10
11.2358886841
 20
7.3936812461
 30
0.0
 10
11.228962919
 20
7.3855388212
 30
0.0
 10
11.2234141956
 20
7.3797420859
 30
0.0
 10
11.219572529
 20
7.376031346
 30
0.0
  0
SPLINE
  5
3A1
100
AcDbEntity
  8
0
100
AcDbSpline
 62
7
  6
CONTINUOUS
 70
0
 71
3
 72
21
 73
17
 74
0
 42
0.0000001
 43
0.0000001
 44
0.0000000001
 40
0.0
 40
0.0
 40
0.0
 40
0.0
 40
0.1274738588
 40
0.254066744
 40
0.3170668616
 40
0.3798654398
 40
0.4424734153
 40
0.5049033591
 40
0.5671697562
 40
0.6292888943
 40
0.6912786507
 40
0.753158338
 40
0.8149484586
 40
0.8766705102
 40
0.9383467683
 40
1.0
 40
1.0
 40
1.0
 40
1.0
 10
11.0563070835
 20
7.7720487455
 30
0.0
 10
11.0487443068
 20
7.7725732259
 30
0.0
 10
11.0336084121
 20
7.7728686247
 30
0.0
 10
11.0147812589
 20
7.7713249587
 30
0.0
 10
10.9999548724
 20
7.7689489687
 30
0.0
 10
10.9889925844
 20
7.7666060948
 30
0.0
 10
10.9781998066
 20
7.7637054988
 30
0.0
 10
10.9676033863
 20
7.7602545119
 30
0.0
 10
10.9572300922
 20
7.7562618117
 30
0.0
 10
10.9471060727
 20
7.751737347
 30
0.0
 10
10.9372568185
 20
7.7466925625
 30
0.0
 10
10.9277071276
 20
7.7411401595
 30
0.0
 10
10.9184811379
 20
7.7350940521
 30
0.0
 10
10.9096019901
 20
7.7285694412
 30
0.0
 10
10.9010923295
 20
7.7215830798
 30
0.0
 10
10.8956788308
 20
7.7166282954
 30
0.0
 10
10.8930416379
 20
7.7140809798
 30
0.0
  0
SPLINE
  5
3A2
100
AcDbEntity
  8
0
100
AcDbSpline
 62
7
  6
CONTINUOUS
 70
0
 71
3
 72
15
 73
11
 74
0
 42
0.0000001
 43
0.0000001
 44
0.0000000001
 40
0.0
 40
0.0
 40
0.0
 40
0.0
 40
0.1234394136
 40
0.2470466177
 40
0.370982561
 40
0.4953948844
 40
0.6204121622
 40
0.7461393429
 40
0.8726517211
 40
1.0
 40
1.0
 40
1.0
 40
1.0
 10
8.1669174509
 20
9.166512857
 30
0.0
 10
8.171276151
 20
9.1707230669
 30
0.0
 10
8.1795717313
 20
9.1796053346
 30
0.0
 10
8.1905891689
 20
9.1941459787
 30
0.0
 10
8.2000885348
 20
9.2097787437
 30
0.0
 10
8.2079805395
 20
9.2263571491
 30
0.0
 10
8.2141931888
 20
9.2437281298
 30
0.0
 10
8.2186695038
 20
9.2617314914
 30
0.0
 10
8.2213690493
 20
9.2801988594
 30
0.0
 10
8.2219659854
 20
9.2926703512
 30
0.0
 10
8.2219659854
 20
9.2989222942
 30
0.0
  0
SPLINE
  5
3A3
100
AcDbEntity
  8
0
100
AcDbSpline
 62
7
  6
CONTINUOUS
 70
0
 71
3
 72
15
 73
11
 74
0
 42
0.0000001
 43
0.0000001
 44
0.0000000001
 40
0.0
 40
0.0
 40
0.0
 40
0.0
 40
0.1234394136
 40
0.2470466177
 40
0.370982561
 40
0.4953948844
 40
0.6204121622
 40
0.7461393429
 40
0.8726517211
 40
1.0
 40
1.0
 40
1.0
 40
1.0
 10
12.7550653976
 20
6.9164719491
 30
0.0
 10
12.7594240977
 20
6.920682159
 30
0.0
 10
12.7677196781
 20
6.9295644267
 30
0.0
 10
12.7787371156
 20
6.9441050709
 30
0.0
 10
12.7882364815
 20
6.9597378358
 30
0.0
 10
12.7961284862
 20
6.9763162413
 30
0.0
 10
12.8023411355
 20
6.9936872219
 30
0.0
 10
12.8068174506
 20
7.0116905835
 30
0.0
 10
12.809516996
 20
7.0301579516
 30
0.0
 10
12.8101139321
 20
7.0426294433
 30
0.0
 10
12.8101139321
 20
7.0488813864
 30
0.0
  0
SPLINE
  5
3A4
100
AcDbEntity
  8
0
100
AcDbSpline
 62
7
  6
CONTINUOUS
 70
0
 71
3
 72
53
 73
49
 74
0
 42
0.0000001
 43
0.0000001
 44
0.0000000001
 40
0.0
 40
0.0
 40
0.0
 40
0.0
 40
0.0055575358
 40
0.0111779566
 40
0.0169218919
 40
0.022845775
 40
0.0290005507
 40
0.0354309545
 40
0.0421754005
 40
0.0492662557
 40
0.0567303027
 40
0.0645894212
 40
0.072861099
 40
0.0815591501
 40
0.0906940844
 40
0.1002737091
 40
0.1103033751
 40
0.1207864065
 40
0.1317242976
 40
0.1431169629
 40
0.154962942
 40
0.1672594909
 40
0.1800028152
 40
0.1931880451
 40
0.2068094816
 40
0.2208605177
 40
0.2353338545
 40
0.250221435
 40
0.2655145886
 40
0.281204022
 40
0.3137311009
 40
0.3477184393
 40
0.3830735589
 40
0.4196973748
 40
0.4574849489
 40
0.4963261675
 40
0.5361063682
 40
0.5767069301
 40
0.6180058389
 40
0.659878235
 40
0.7021969505
 40
0.744833037
 40
0.787656286
 40
0.8305357591
 40
0.8733402611
 40
0.9159390133
 40
0.9582016979
 40
1.0
 40
1.0
 40
1.0
 40
1.0
 10
10.8539235709
 20
10.9609018914
 30
0.0
 10
10.8539235709
 20
10.9587373118
 30
0.0
 10
10.8536811804
 20
10.9543798948
 30
0.0
 10
10.8525935309
 20
10.9478670121
 30
0.0
 10
10.8507834163
 20
10.9413686755
 30
0.0
 10
10.8482545116
 20
10.9348923827
 30
0.0
 10
10.84501087
 20
10.9284434211
 30
0.0
 10
10.8410569195
 20
10.9220267074
 30
0.0
 10
10.8363971386
 20
10.9156466513
 30
0.0
 10
10.8310360819
 20
10.9093075725
 30
0.0
 10
10.8249785875
 20
10.9030136901
 30
0.0
 10
10.8182296701
 20
10.896769452
 30
0.0
 10
10.8107948882
 20
10.8905792289
 30
0.0
 10
10.8026801202
 20
10.8844476954
 30
0.0
 10
10.7938918919
 20
10.8783793932
 30
0.0
 10
10.7844371562
 20
10.8723791036
 30
0.0
 10
10.7743235004
 20
10.8664514725
 30
0.0
 10
10.7635590119
 20
10.8606012582
 30
0.0
 10
10.752152358
 20
10.8548331394
 30
0.0
 10
10.740112746
 20
10.8491517659
 30
0.0
 10
10.7274499095
 20
10.8435617862
 30
0.0
 10
10.7141741332
 20
10.8380676993
 30
0.0
 10
10.7002961898
 20
10.8326740651
 30
0.0
 10
10.685827391
 20
10.8273852192
 30
0.0
 10
10.6707795141
 20
10.8222055767
 30
0.0
 10
10.6551648473
 20
10.817139314
 30
0.0
 10
10.6389961307
 20
10.8121906494
 30
0.0
 10
10.6222865853
 20
10.8073636131
 30
0.0
 10
10.6050498493
 20
10.8026621572
 30
0.0
 10
10.5810949376
 20
10.796492008
 30
0.0
 10
10.5499291092
 20
10.7891405072
 30
0.0
 10
10.5110969588
 20
10.7809806401
 30
0.0
 10
10.4705221007
 20
10.7734071735
 30
0.0
 10
10.4283373605
 20
10.7664451411
 30
0.0
 10
10.3846806132
 20
10.7601175949
 30
0.0
 10
10.3396947248
 20
10.7544454628
 30
0.0
 10
10.293526948
 20
10.7494475004
 30
0.0
 10
10.2463284592
 20
10.7451402268
 30
0.0
 10
10.1982538444
 20
10.7415378725
 30
0.0
 10
10.1494605862
 20
10.7386523351
 30
0.0
 10
10.1001085403
 20
10.7364931427
 30
0.0
 10
10.0503594071
 20
10.7350674238
 30
0.0
 10
10.0003761951
 20
10.7343798836
 30
0.0
 10
9.9503226918
 20
10.7344327947
 30
0.0
 10
9.9003628947
 20
10.735225975
 30
0.0
 10
9.8506605399
 20
10.7367568221
 30
0.0
 10
9.8013785508
 20
10.7390202524
 30
0.0
 10
9.7686979181
 20
10.741025754
 30
0.0
 10
9.7524570933
 20
10.742152059
 30
0.0
  0
SPLINE
  5
3A5
100
AcDbEntity
  8
0
100
AcDbSpline
 62
7
  6
CONTINUOUS
 70
0
 71
3
 72
45
 73
41
 74
0
 42
0.0000001
 43
0.0000001
 44
0.0000000001
 40
0.0
 40
0.0
 40
0.0
 40
0.0
 40
0.0072739893
 40
0.0148705243
 40
0.0227980473
 40
0.0310633492
 40
0.0396715673
 40
0.0486265515
 40
0.0579309128
 40
0.0675861739
 40
0.0775929708
 40
0.0879509829
 40
0.0986592366
 40
0.1097159563
 40
0.1328639285
 40
0.1573703983
 40
0.1832018802
 40
0.2103180987
 40
0.2386728428
 40
0.2682146516
 40
0.2988873733
 40
0.3306306479
 40
0.363380331
 40
0.3970688632
 40
0.4316256066
 40
0.4669771552
 40
0.5030476265
 40
0.5397589373
 40
0.577031078
 40
0.6147823783
 40
0.6529297636
 40
0.6913890085
 40
0.7300749851
 40
0.7689019125
 40
0.8077836121
 40
0.8466337061
 40
0.8853660811
 40
0.9238944159
 40
0.9621343471
 40
1.0
 40
1.0
 40
1.0
 40
1.0
 10
10.6147890042
 20
10.899675545
 30
0.0
 10
10.6133191133
 20
10.8983076632
 30
0.0
 10
10.6102465619
 20
10.8955831745
 30
0.0
 10
10.6053610377
 20
10.8916137459
 30
0.0
 10
10.6001034362
 20
10.8876765625
 30
0.0
 10
10.5944769045
 20
10.8837740711
 30
0.0
 10
10.5884847299
 20
10.8799083753
 30
0.0
 10
10.5821303934
 20
10.8760817651
 30
0.0
 10
10.5754176175
 20
10.8722964473
 30
0.0
 10
10.5683503479
 20
10.8685546057
 30
0.0
 10
10.560932714
 20
10.8648584979
 30
0.0
 10
10.5531691116
 20
10.8612102297
 30
0.0
 10
10.5450640812
 20
10.8576120026
 30
0.0
 10
10.5336331967
 20
10.8528103635
 30
0.0
 10
10.5185136937
 20
10.8469642119
 30
0.0
 10
10.4993566851
 20
10.8402843848
 30
0.0
 10
10.4789634881
 20
10.8338529724
 30
0.0
 10
10.4573823811
 20
10.82768535
 30
0.0
 10
10.4346642327
 20
10.8217962915
 30
0.0
 10
10.4108628088
 20
10.8161999162
 30
0.0
 10
10.3860344959
 20
10.8109096421
 30
0.0
 10
10.3602381866
 20
10.8059381512
 30
0.0
 10
10.333535114
 20
10.8012973609
 30
0.0
 10
10.3059886989
 20
10.7969983931
 30
0.0
 10
10.277664391
 20
10.7930515484
 30
0.0
 10
10.2486295101
 20
10.7894662816
 30
0.0
 10
10.218953083
 20
10.7862511809
 30
0.0
 10
10.1887056773
 20
10.7834139417
 30
0.0
 10
10.1579592298
 20
10.7809613531
 30
0.0
 10
10.1267868711
 20
10.778899283
 30
0.0
 10
10.0952627494
 20
10.777232665
 30
0.0
 10
10.0634618545
 20
10.775965487
 30
0.0
 10
10.0314598383
 20
10.7751007814
 30
0.0
 10
9.9993328325
 20
10.7746406184
 30
0.0
 10
9.9671572787
 20
10.7745860998
 30
0.0
 10
9.9350096944
 20
10.7749373458
 30
0.0
 10
9.9029666519
 20
10.7756935336
 30
0.0
 10
9.8711041695
 20
10.776852823
 30
0.0
 10
9.8394983526
 20
10.7784124857
 30
0.0
 10
9.8185304921
 20
10.7797240637
 30
0.0
 10
9.8081031421
 20
10.7804472029
 30
0.0
  0
SPLINE
  5
3A6
100
AcDbEntity
  8
0
100
AcDbSpline
 62
7
  6
CONTINUOUS
 70
0
 71
3
 72
11
 73
7
 74
0
 42
0.0000001
 43
0.0000001
 44
0.0000000001
 40
0.0
 40
0.0
 40
0.0
 40
0.0
 40
0.243786516
 40
0.490107513
 40
0.741414197
 40
1.0
 40
1.0
 40
1.0
 40
1.0
 10
10.5839235691
 20
10.8923211529
 30
0.0
 10
10.5839235629
 20
10.890887231
 30
0.0
 10
10.5837698552
 20
10.888002204
 30
0.0
 10
10.5830799553
 20
10.8836885765
 30
0.0
 10
10.5819316693
 20
10.8793839543
 30
0.0
 10
10.5808794557
 20
10.8765699582
 30
0.0
 10
10.5802836596
 20
10.8751705386
 30
0.0
  0
SPLINE
  5
3A7
100
AcDbEntity
  8
0
100
AcDbSpline
 62
7
  6
CONTINUOUS
 70
0
 71
3
 72
33
 73
29
 74
0
 42
0.0000001
 43
0.0000001
 44
0.0000000001
 40
0.0
 40
0.0
 40
0.0
 40
0.0
 40
0.016587191
 40
0.0341538462
 40
0.0527305039
 40
0.0723388965
 40
0.0929936674
 40
0.1147031165
 40
0.1374703536
 40
0.1612939076
 40
0.186168274
 40
0.2120845949
 40
0.239030738
 40
0.2669920028
 40
0.2959510241
 40
0.3258882982
 40
0.3567822074
 40
0.3886092127
 40
0.4213441209
 40
0.4549599748
 40
0.4894284781
 40
0.5247197763
 40
0.5976439374
 40
0.6734710961
 40
0.751921207
 40
0.8326997177
 40
0.915498346
 40
1.0
 40
1.0
 40
1.0
 40
1.0
 10
9.3430582334
 20
10.8996754473
 30
0.0
 10
9.3450262018
 20
10.8978440563
 30
0.0
 10
9.3492003574
 20
10.894202772
 30
0.0
 10
9.3559455577
 20
10.888949282
 30
0.0
 10
9.3633437578
 20
10.883755861
 30
0.0
 10
9.3713870505
 20
10.8786277625
 30
0.0
 10
9.3800674069
 20
10.8735700843
 30
0.0
 10
9.3893758961
 20
10.8685879066
 30
0.0
 10
9.3993029797
 20
10.8636863586
 30
0.0
 10
9.4098384141
 20
10.8588705211
 30
0.0
 10
9.4209712792
 20
10.8541453636
 30
0.0
 10
9.4326900271
 20
10.8495158948
 30
0.0
 10
9.4449824382
 20
10.8449868901
 30
0.0
 10
9.4578357025
 20
10.840563186
 30
0.0
 10
9.4712363793
 20
10.8362493784
 30
0.0
 10
9.4851704546
 20
10.8320500459
 30
0.0
 10
9.4996233364
 20
10.8279696111
 30
0.0
 10
9.5145798765
 20
10.8240123531
 30
0.0
 10
9.5300243968
 20
10.8201824919
 30
0.0
 10
9.5459406856
 20
10.8164840148
 30
0.0
 10
9.5623120615
 20
10.8129208548
 30
0.0
 10
9.5849720994
 20
10.8083050354
 30
0.0
 10
9.6143124406
 20
10.8029162295
 30
0.0
 10
9.6506779361
 20
10.7971134006
 30
0.0
 10
9.6884221247
 20
10.7919305932
 30
0.0
 10
9.7273864203
 20
10.7873898247
 30
0.0
 10
9.7674072877
 20
10.7835103647
 30
0.0
 10
9.794440764
 20
10.7813946921
 30
0.0
 10
9.8081031421
 20
10.7804472029
 30
0.0
  0
SPLINE
  5
3A8
100
AcDbEntity
  8
0
100
AcDbSpline
 62
7
  6
CONTINUOUS
 70
0
 71
3
 72
11
 73
7
 74
0
 42
0.0000001
 43
0.0000001
 44
0.0000000001
 40
0.0
 40
0.0
 40
0.0
 40
0.0
 40
0.2437360497
 40
0.4900276351
 40
0.7413452413
 40
1.0
 40
1.0
 40
1.0
 40
1.0
 10
9.3739235727
 20
10.8923211529
 30
0.0
 10
9.3739235666
 20
10.8908810949
 30
0.0
 10
9.3740786165
 20
10.8879835743
 30
0.0
 10
9.3747744874
 20
10.8836514042
 30
0.0
 10
9.3759326414
 20
10.8793283598
 30
0.0
 10
9.3769937938
 20
10.876502776
 30
0.0
 10
9.377594598
 20
10.87509763
 30
0.0
  0
SPLINE
  5
3A9
100
AcDbEntity
  8
0
100
AcDbSpline
 62
7
  6
CONTINUOUS
 70
0
 71
3
 72
86
 73
82
 74
0
 42
0.0000001
 43
0.0000001
 44
0.0000000001
 40
0.0
 40
0.0
 40
0.0
 40
0.0
 40
0.0027164229
 40
0.0054532199
 40
0.0082302803
 40
0.0110665652
 40
0.0139797601
 40
0.0169860612
 40
0.0201000083
 40
0.0233345154
 40
0.0267008552
 40
0.0302087911
 40
0.0338666949
 40
0.0376816386
 40
0.0416596027
 40
0.0458055094
 40
0.0501234214
 40
0.0546165986
 40
0.0592875859
 40
0.0641383491
 40
0.0691702497
 40
0.0743842108
 40
0.0797806815
 40
0.0853597253
 40
0.0911210701
 40
0.0970640767
 40
0.1094907819
 40
0.1226299857
 40
0.1364676026
 40
0.1509863633
 40
0.166166208
 40
0.1819846021
 40
0.1984167887
 40
0.2154360082
 40
0.2330136911
 40
0.2511196222
 40
0.2697220861
 40
0.2887880011
 40
0.3082830385
 40
0.3281717446
 40
0.3484176561
 40
0.3689834073
 40
0.3898308346
 40
0.4109210783
 40
0.4322146819
 40
0.4536716962
 40
0.4969136001
 40
0.5403217884
 40
0.5835689461
 40
0.6050305436
 40
0.6263300209
 40
0.6474274143
 40
0.6682832501
 40
0.6888586484
 40
0.7091154216
 40
0.7290161766
 40
0.7485244187
 40
0.7676046599
 40
0.7862225346
 40
0.8043449193
 40
0.8219400528
 40
0.8389776685
 40
0.8554291414
 40
0.8712676506
 40
0.8864683732
 40
0.9010086996
 40
0.9148684857
 40
0.9280303658
 40
0.9404801448
 40
0.9464347977
 40
0.952207837
 40
0.9577986052
 40
0.9632068066
 40
0.9684324934
 40
0.9734760794
 40
0.9783384382
 40
0.9830208843
 40
0.9875254058
 40
0.9918546018
 40
0.9960115767
 40
1.0
 40
1.0
 40
1.0
 40
1.0
 10
13.245674762
 20
8.6223255957
 30
0.0
 10
13.2442152553
 20
8.6224268128
 30
0.0
 10
13.2412927723
 20
8.6227621369
 30
0.0
 10
13.2369462434
 20
8.6236593471
 30
0.0
 10
13.232632573
 20
8.624950751
 30
0.0
 10
13.2283548261
 20
8.6266350439
 30
0.0
 10
13.2241151971
 20
8.6287107113
 30
0.0
 10
13.2199159064
 20
8.631176206
 30
0.0
 10
13.2157588194
 20
8.6340296659
 30
0.0
 10
13.2116458565
 20
8.6372693831
 30
0.0
 10
13.2075787434
 20
8.640893398
 30
0.0
 10
13.2035592439
 20
8.6448997499
 30
0.0
 10
13.1995891506
 20
8.6492863748
 30
0.0
 10
13.1956701479
 20
8.6540509922
 30
0.0
 10
13.1918041063
 20
8.6591912933
 30
0.0
 10
13.1879927251
 20
8.6647046816
 30
0.0
 10
13.1842378451
 20
8.6705884748
 30
0.0
 10
13.1805412521
 20
8.6768397713
 30
0.0
 10
13.1769046865
 20
8.6834554753
 30
0.0
 10
13.173329996
 20
8.6904323515
 30
0.0
 10
13.1698188492
 20
8.6977669159
 30
0.0
 10
13.1663730528
 20
8.7054555573
 30
0.0
 10
13.1629942769
 20
8.7134944431
 30
0.0
 10
13.1596842106
 20
8.7218795705
 30
0.0
 10
13.1564445135
 20
8.7306067816
 30
0.0
 10
13.1521570164
 20
8.742876429
 30
0.0
 10
13.1470011278
 20
8.7590481969
 30
0.0
 10
13.1412080258
 20
8.7794674248
 30
0.0
 10
13.1357321304
 20
8.8011378407
 30
0.0
 10
13.1305845272
 20
8.8240160662
 30
0.0
 10
13.1257756819
 20
8.8480565265
 30
0.0
 10
13.121315379
 20
8.8732111319
 30
0.0
 10
13.117212695
 20
8.8994295125
 30
0.0
 10
13.1134759767
 20
8.9266590999
 30
0.0
 10
13.1101128297
 20
8.9548452585
 30
0.0
 10
13.1071301002
 20
8.9839314032
 30
0.0
 10
13.1045338621
 20
9.0138591183
 30
0.0
 10
13.1023294063
 20
9.0445682759
 30
0.0
 10
13.1005212211
 20
9.0759971588
 30
0.0
 10
13.0991129901
 20
9.108082589
 30
0.0
 10
13.0981075879
 20
9.1407600613
 30
0.0
 10
13.0975070749
 20
9.1739638731
 30
0.0
 10
13.0973126903
 20
9.2076272633
 30
0.0
 10
13.0975248639
 20
9.2416825208
 30
0.0
 10
13.0981431557
 20
9.2760612137
 30
0.0
 10
13.0995110288
 20
9.3223557375
 30
0.0
 10
13.1022270204
 20
9.3805221919
 30
0.0
 10
13.1070550008
 20
9.4503210477
 30
0.0
 10
13.1123736208
 20
9.508312789
 30
0.0
 10
13.1173931356
 20
9.5543632208
 30
0.0
 10
13.1215146484
 20
9.588509115
 30
0.0
 10
13.1259940258
 20
9.6222808049
 30
0.0
 10
13.1308222789
 20
9.6556104268
 30
0.0
 10
13.1359896576
 20
9.6884309466
 30
0.0
 10
13.1414857413
 20
9.7206763779
 30
0.0
 10
13.1472994412
 20
9.7522818916
 30
0.0
 10
13.1534190266
 20
9.7831839524
 30
0.0
 10
13.1598321486
 20
9.8133204477
 30
0.0
 10
13.1665258596
 20
9.8426308196
 30
0.0
 10
13.1734866376
 20
9.8710561907
 30
0.0
 10
13.1807004209
 20
9.8985394829
 30
0.0
 10
13.1881526341
 20
9.9250255333
 30
0.0
 10
13.1958282178
 20
9.9504612114
 30
0.0
 10
13.2037116636
 20
9.9747955333
 30
0.0
 10
13.2117870398
 20
9.9979797911
 30
0.0
 10
13.2200380297
 20
10.0199676284
 30
0.0
 10
13.2284479873
 20
10.0407152685
 30
0.0
 10
13.2369999537
 20
10.0601811942
 30
0.0
 10
13.2443353957
 20
10.0755223223
 30
0.0
 10
13.2502730525
 20
10.0871120348
 30
0.0
 10
13.2546848928
 20
10.0953307584
 30
0.0
 10
13.2591193424
 20
10.1032012193
 30
0.0
 10
13.2635742027
 20
10.1107195142
 30
0.0
 10
13.2680472368
 20
10.1178819078
 30
0.0
 10
13.2725362695
 20
10.1246848083
 30
0.0
 10
13.2770389837
 20
10.1311248664
 30
0.0
 10
13.281553249
 20
10.1371988712
 30
0.0
 10
13.2860768531
 20
10.1429038907
 30
0.0
 10
13.2906076988
 20
10.1482371376
 30
0.0
 10
13.2951433556
 20
10.1531957162
 30
0.0
 10
13.2982317022
 20
10.1563135181
 30
0.0
 10
13.2997767234
 20
10.1578058941
 30
0.0
  0
SPLINE
  5
3AA
100
AcDbEntity
  8
0
100
AcDbSpline
 62
7
  6
CONTINUOUS
 70
0
 71
3
 72
23
 73
19
 74
0
 42
0.0000001
 43
0.0000001
 44
0.0000000001
 40
0.0
 40
0.0
 40
0.0
 40
0.0
 40
0.061648213
 40
0.123319452
 40
0.1850364843
 40
0.2468215692
 40
0.3086962118
 40
0.370680925
 40
0.4327950058
 40
0.495056332
 40
0.557481176
 40
0.6200840667
 40
0.6828775914
 40
0.7458723173
 40
0.8090769586
 40
0.8724967492
 40
0.9361385647
 40
1.0
 40
1.0
 40
1.0
 40
1.0
 10
10.7387117423
 20
7.8500270473
 30
0.0
 10
10.7436494632
 20
7.8547965399
 30
0.0
 10
10.7537854147
 20
7.8640736404
 30
0.0
 10
10.7697183857
 20
7.8771546593
 30
0.0
 10
10.7863432319
 20
7.8893710469
 30
0.0
 10
10.8036174949
 20
7.9006914926
 30
0.0
 10
10.8214977865
 20
7.9110876462
 30
0.0
 10
10.8399390105
 20
7.9205332966
 30
0.0
 10
10.8588947137
 20
7.9290046718
 30
0.0
 10
10.8783171182
 20
7.9364804867
 30
0.0
 10
10.8981572864
 20
7.9429419726
 30
0.0
 10
10.9183652407
 20
7.9483729031
 30
0.0
 10
10.9388900805
 20
7.9527596463
 30
0.0
 10
10.9596801572
 20
7.9560912095
 30
0.0
 10
10.980682986
 20
7.9583592117
 30
0.0
 10
11.0018460913
 20
7.9595581705
 30
0.0
 10
11.0231152539
 20
7.9596849094
 30
0.0
 10
11.037306928
 20
7.9590555648
 30
0.0
 10
11.044401417
 20
7.9585635603
 30
0.0
  0
SPLINE
  5
3AB
100
AcDbEntity
  8
0
100
AcDbSpline
 62
7
  6
CONTINUOUS
 70
0
 71
3
 72
39
 73
35
 74
0
 42
0.0000001
 43
0.0000001
 44
0.0000000001
 40
0.0
 40
0.0
 40
0.0
 40
0.0
 40
0.0314025836
 40
0.0630095222
 40
0.0948070985
 40
0.1267734472
 40
0.1588809725
 40
0.1910970216
 40
0.2233851128
 40
0.2557062446
 40
0.2880202662
 40
0.3202872749
 40
0.3524690068
 40
0.3845301831
 40
0.4164397919
 40
0.4481722502
 40
0.4797084082
 40
0.5110363786
 40
0.5421521204
 40
0.573059742
 40
0.6037715186
 40
0.6343075563
 40
0.6646951112
 40
0.6949675893
 40
0.7251632183
 40
0.7553234774
 40
0.7854913545
 40
0.8157095095
 40
0.8460184685
 40
0.8764549221
 40
0.9070502429
 40
0.9378292995
 40
0.9688091439
 40
1.0
 40
1.0
 40
1.0
 40
1.0
 10
11.0485425185
 20
7.7935265278
 30
0.0
 10
11.0569440545
 20
7.7929438793
 30
0.0
 10
11.0737555354
 20
7.7909468236
 30
0.0
 10
11.0986339561
 20
7.7855228919
 30
0.0
 10
11.123030157
 20
7.7777130145
 30
0.0
 10
11.1467067831
 20
7.7675928917
 30
0.0
 10
11.1694374578
 20
7.755260377
 30
0.0
 10
11.1910038821
 20
7.7408342751
 30
0.0
 10
11.2111991898
 20
7.7244533013
 30
0.0
 10
11.2298296704
 20
7.7062749349
 30
0.0
 10
11.2467164946
 20
7.6864736693
 30
0.0
 10
11.2616974409
 20
7.6652394977
 30
0.0
 10
11.2746285833
 20
7.6427761981
 30
0.0
 10
11.2853853936
 20
7.6192992371
 30
0.0
 10
11.2938640736
 20
7.5950338746
 30
0.0
 10
11.2999826648
 20
7.570213056
 30
0.0
 10
11.3036815616
 20
7.5450751411
 30
0.0
 10
11.3049243364
 20
7.5198617577
 30
0.0
 10
11.3036981873
 20
7.4948154885
 30
0.0
 10
11.3000138488
 20
7.4701775863
 30
0.0
 10
11.2939058561
 20
7.4461856837
 30
0.0
 10
11.2854322735
 20
7.4230714496
 30
0.0
 10
11.2746739978
 20
7.4010584095
 30
0.0
 10
11.2617343628
 20
7.380359621
 30
0.0
 10
11.2467380803
 20
7.3611755085
 30
0.0
 10
11.2298298969
 20
7.3436919578
 30
0.0
 10
11.2111734331
 20
7.3280781955
 30
0.0
 10
11.190949359
 20
7.3144851416
 30
0.0
 10
11.1693535104
 20
7.3030440416
 30
0.0
 10
11.1465949678
 20
7.2938649005
 30
0.0
 10
11.1228941146
 20
7.2870356043
 30
0.0
 10
11.0984792184
 20
7.282621407
 30
0.0
 10
11.0735889142
 20
7.2806634711
 30
0.0
 10
11.0568874083
 20
7.2810070894
 30
0.0
 10
11.0485425185
 20
7.2815858095
 30
0.0
  0
SPLINE
  5
3AC
100
AcDbEntity
  8
0
100
AcDbSpline
 62
7
  6
CONTINUOUS
 70
0
 71
3
 72
41
 73
37
 74
0
 42
0.0000001
 43
0.0000001
 44
0.0000000001
 40
0.0
 40
0.0
 40
0.0
 40
0.0
 40
0.0310748272
 40
0.0623072483
 40
0.0936920359
 40
0.1252208484
 40
0.156882237
 40
0.188662033
 40
0.2205436266
 40
0.2525083437
 40
0.2845358343
 40
0.3166044929
 40
0.3486918936
 40
0.3807752384
 40
0.4128318095
 40
0.4448394218
 40
0.4767768664
 40
0.5086243418
 40
0.5403638639
 40
0.5719796493
 40
0.6034584635
 40
0.6347899281
 40
0.6659667781
 40
0.6969850622
 40
0.7278442783
 40
0.7585474376
 40
0.7891010512
 40
0.8195150346
 40
0.8498025274
 40
0.8649066426
 40
0.8799854039
 40
0.9100708284
 40
0.9400854823
 40
0.9550762294
 40
0.970057877
 40
1.0
 40
1.0
 40
1.0
 40
1.0
 10
12.4179480234
 20
7.0760781845
 30
0.0
 10
12.4179480234
 20
7.0712188327
 30
0.0
 10
12.4183105308
 20
7.0614717467
 30
0.0
 10
12.4199289853
 20
7.0468977891
 30
0.0
 10
12.4226144641
 20
7.0324093889
 30
0.0
 10
12.4263520522
 20
7.0180871836
 30
0.0
 10
12.4311210949
 20
7.0040095134
 30
0.0
 10
12.436895283
 20
6.9902537273
 30
0.0
 10
12.4436428191
 20
6.976895294
 30
0.0
 10
12.4513265823
 20
6.9640075201
 30
0.0
 10
12.4599043363
 20
6.9516611192
 30
0.0
 10
12.4693289583
 20
6.939923838
 30
0.0
 10
12.4795486964
 20
6.9288600859
 30
0.0
 10
12.4905074508
 20
6.9185305862
 30
0.0
 10
12.5021450791
 20
6.9089920465
 30
0.0
 10
12.5143977225
 20
6.9002968499
 30
0.0
 10
12.5271981526
 20
6.8924927701
 30
0.0
 10
12.5404761357
 20
6.8856227111
 30
0.0
 10
12.5541588134
 20
6.8797244724
 30
0.0
 10
12.5681710969
 20
6.8748305422
 30
0.0
 10
12.5824360738
 20
6.8709679179
 30
0.0
 10
12.5968754233
 20
6.8681579559
 30
0.0
 10
12.6114098419
 20
6.8664162511
 30
0.0
 10
12.6259594688
 20
6.8657525447
 30
0.0
 10
12.6404443349
 20
6.8661706706
 30
0.0
 10
12.6547847399
 20
6.8676685003
 30
0.0
 10
12.6689019074
 20
6.8702380417
 30
0.0
 10
12.6827176042
 20
6.8738651124
 30
0.0
 10
12.6939284557
 20
6.877756909
 30
0.0
 10
12.7026667702
 20
6.8813761825
 30
0.0
 10
12.7112282041
 20
6.88532116
 30
0.0
 10
12.7216089713
 20
6.8908664614
 30
0.0
 10
12.7315083948
 20
6.8972060519
 30
0.0
 10
12.7390951193
 20
6.902726757
 30
0.0
 10
12.7464476832
 20
6.9085365804
 30
0.0
 10
12.7516976974
 20
6.9132189783
 30
0.0
 10
12.7550653976
 20
6.9164719491
 30
0.0
  0
SPLINE
  5
3AD
100
AcDbEntity
  8
0
100
AcDbSpline
 62
7
  6
CONTINUOUS
 70
0
 71
3
 72
11
 73
7
 74
0
 42
0.0000001
 43
0.0000001
 44
0.0000000001
 40
0.0
 40
0.0
 40
0.0
 40
0.0
 40
0.2545148028
 40
0.5051813816
 40
0.7532466558
 40
1.0
 40
1.0
 40
1.0
 40
1.0
 10
13.2605340706
 20
8.6235264982
 30
0.0
 10
13.2592968547
 20
8.6232440145
 30
0.0
 10
13.2568208362
 20
8.6227678122
 30
0.0
 10
13.2530878366
 20
8.622325859
 30
0.0
 10
13.2493709633
 20
8.6221628829
 30
0.0
 10
13.2469021688
 20
8.6222404747
 30
0.0
 10
13.245674762
 20
8.6223255957
 30
0.0
  0
SPLINE
  5
3AE
100
AcDbEntity
  8
0
100
AcDbSpline
 62
7
  6
CONTINUOUS
 70
0
 71
3
 72
57
 73
53
 74
0
 42
0.0000001
 43
0.0000001
 44
0.0000000001
 40
0.0
 40
0.0
 40
0.0
 40
0.0
 40
0.0452928592
 40
0.091139187
 40
0.1373555371
 40
0.1837554391
 40
0.2301519967
 40
0.2763581761
 40
0.3221879673
 40
0.3674573201
 40
0.4119851359
 40
0.4555942604
 40
0.4981124948
 40
0.5393736385
 40
0.5792185759
 40
0.6174964336
 40
0.6360035336
 40
0.6540667092
 40
0.6716700088
 40
0.6887982522
 40
0.7054371527
 40
0.7215732541
 40
0.7371941764
 40
0.7522885259
 40
0.7668461323
 40
0.7808580932
 40
0.7943168954
 40
0.8072166774
 40
0.8195532598
 40
0.8313245809
 40
0.8425308046
 40
0.8531748078
 40
0.8632625776
 40
0.8728037128
 40
0.8818122195
 40
0.8903071491
 40
0.898313745
 40
0.9058643877
 40
0.9129998471
 40
0.9197703556
 40
0.926236316
 40
0.9324684428
 40
0.9385466303
 40
0.9445576232
 40
0.9505913452
 40
0.9567366297
 40
0.96307715
 40
0.9696884021
 40
0.976635928
 40
0.9839749794
 40
0.9917508653
 40
1.0
 40
1.0
 40
1.0
 40
1.0
 10
10.1497439997
 20
11.1104469501
 30
0.0
 10
10.1356680132
 20
11.1114231231
 30
0.0
 10
10.1073254888
 20
11.1131287853
 30
0.0
 10
10.064572589
 20
11.114946848
 30
0.0
 10
10.0214498243
 20
11.1160355668
 30
0.0
 10
9.9781434252
 20
11.1163901558
 30
0.0
 10
9.9348404084
 20
11.1160090888
 30
0.0
 10
9.8917277128
 20
11.1148940173
 30
0.0
 10
9.8489914712
 20
11.1130498031
 30
0.0
 10
9.8068161709
 20
11.1104844857
 30
0.0
 10
9.7653838549
 20
11.107209257
 30
0.0
 10
9.7248733171
 20
11.1032384093
 30
0.0
 10
9.6854593464
 20
11.098589273
 30
0.0
 10
9.6473118543
 20
11.0932821676
 30
0.0
 10
9.6105954779
 20
11.0873402374
 30
0.0
 10
9.5809996866
 20
11.0818212634
 30
0.0
 10
9.5581663182
 20
11.0770940853
 30
0.0
 10
9.5416882789
 20
11.0734465391
 30
0.0
 10
9.5256824428
 20
11.0696610388
 30
0.0
 10
9.5101660501
 20
11.0657416299
 30
0.0
 10
9.4951558257
 20
11.0616926184
 30
0.0
 10
9.4806679438
 20
11.0575183267
 30
0.0
 10
9.4667179931
 20
11.0532233449
 30
0.0
 10
9.4533209839
 20
11.048812272
 30
0.0
 10
9.4404913065
 20
11.0442899091
 30
0.0
 10
9.4282427243
 20
11.0396611513
 30
0.0
 10
9.4165883659
 20
11.0349309532
 30
0.0
 10
9.4055406701
 20
11.0301044745
 30
0.0
 10
9.3951114338
 20
11.0251868094
 30
0.0
 10
9.3853117101
 20
11.0201832818
 30
0.0
 10
9.3761518802
 20
11.0150991338
 30
0.0
 10
9.3676415792
 20
11.0099397077
 30
0.0
 10
9.3597897001
 20
11.004710348
 30
0.0
 10
9.3526044592
 20
10.9994162675
 30
0.0
 10
9.3460932692
 20
10.9940627452
 30
0.0
 10
9.3402630041
 20
10.9886547286
 30
0.0
 10
9.3351198324
 20
10.9831971629
 30
0.0
 10
9.3306695878
 20
10.9776946616
 30
0.0
 10
9.3269178343
 20
10.9721517664
 30
0.0
 10
9.3238700439
 20
10.9665731246
 30
0.0
 10
9.3215319523
 20
10.9609637832
 30
0.0
 10
9.319908962
 20
10.9553299614
 30
0.0
 10
9.3190061065
 20
10.9496793038
 30
0.0
 10
9.3188264902
 20
10.9440211015
 30
0.0
 10
9.3193708718
 20
10.9383654647
 30
0.0
 10
9.3206372122
 20
10.9327222296
 30
0.0
 10
9.3226212351
 20
10.9270998761
 30
0.0
 10
9.325317754
 20
10.921505335
 30
0.0
 10
9.3287209752
 20
10.9159440993
 30
0.0
 10
9.3328255161
 20
10.9104209785
 30
0.0
 10
9.337625495
 20
10.904940701
 30
0.0
 10
9.3411770043
 20
10.9014261186
 30
0.0
 10
9.3430582334
 20
10.8996754473
 30
0.0
  0
SPLINE
  5
3AF
100
AcDbEntity
  8
0
100
AcDbSpline
 62
7
  6
CONTINUOUS
 70
0
 71
3
 72
39
 73
35
 74
0
 42
0.0000001
 43
0.0000001
 44
0.0000000001
 40
0.0
 40
0.0
 40
0.0
 40
0.0
 40
0.0311908561
 40
0.0621707005
 40
0.0929497571
 40
0.1235450779
 40
0.1539815315
 40
0.1842904905
 40
0.2145086455
 40
0.2446765226
 40
0.2748367817
 40
0.3050324107
 40
0.3353048888
 40
0.3656924437
 40
0.3962284814
 40
0.426940258
 40
0.4578478796
 40
0.4889636214
 40
0.5202915918
 40
0.5518277498
 40
0.5835602081
 40
0.6154698169
 40
0.6475309932
 40
0.6797127251
 40
0.7119797338
 40
0.7442937554
 40
0.7766148872
 40
0.8089029784
 40
0.8411190275
 40
0.8732265528
 40
0.9051929015
 40
0.9369904778
 40
0.9685974164
 40
1.0
 40
1.0
 40
1.0
 40
1.0
 10
11.0485425185
 20
7.7935265278
 30
0.0
 10
11.0401976287
 20
7.7941052479
 30
0.0
 10
11.0234961229
 20
7.7944488662
 30
0.0
 10
10.9986058186
 20
7.7924909303
 30
0.0
 10
10.9741909224
 20
7.788076733
 30
0.0
 10
10.9504900692
 20
7.7812474368
 30
0.0
 10
10.9277315266
 20
7.7720682957
 30
0.0
 10
10.906135678
 20
7.7606271957
 30
0.0
 10
10.8859116039
 20
7.7470341418
 30
0.0
 10
10.8672551401
 20
7.7314203795
 30
0.0
 10
10.8503469567
 20
7.7139368288
 30
0.0
 10
10.8353506742
 20
7.6947527163
 30
0.0
 10
10.8224110393
 20
7.6740539278
 30
0.0
 10
10.8116527636
 20
7.6520408877
 30
0.0
 10
10.803179181
 20
7.6289266536
 30
0.0
 10
10.7970711882
 20
7.604934751
 30
0.0
 10
10.7933868497
 20
7.5802968488
 30
0.0
 10
10.7921607006
 20
7.5552505796
 30
0.0
 10
10.7934034754
 20
7.5300371962
 30
0.0
 10
10.7971023722
 20
7.5048992813
 30
0.0
 10
10.8032209634
 20
7.4800784627
 30
0.0
 10
10.8116996434
 20
7.4558131002
 30
0.0
 10
10.8224564537
 20
7.4323361392
 30
0.0
 10
10.8353875961
 20
7.4098728396
 30
0.0
 10
10.8503685424
 20
7.388638668
 30
0.0
 10
10.8672553667
 20
7.3688374024
 30
0.0
 10
10.8858858472
 20
7.350659036
 30
0.0
 10
10.906081155
 20
7.3342780622
 30
0.0
 10
10.9276475793
 20
7.3198519603
 30
0.0
 10
10.9503782539
 20
7.3075194456
 30
0.0
 10
10.97405488
 20
7.2973993228
 30
0.0
 10
10.9984510809
 20
7.2895894454
 30
0.0
 10
11.0233295016
 20
7.2841655137
 30
0.0
 10
11.0401409825
 20
7.282168458
 30
0.0
 10
11.0485425185
 20
7.2815858095
 30
0.0
  0
SPLINE
  5
3B0
100
AcDbEntity
  8
0
100
AcDbSpline
 62
7
  6
CONTINUOUS
 70
0
 71
3
 72
37
 73
33
 74
0
 42
0.0000001
 43
0.0000001
 44
0.0000000001
 40
0.0
 40
0.0
 40
0.0
 40
0.0
 40
0.0308973652
 40
0.0619238356
 40
0.0930729232
 40
0.1243406761
 40
0.1557190341
 40
0.1871992416
 40
0.2187709008
 40
0.2504223738
 40
0.2821409415
 40
0.3139129618
 40
0.3457240697
 40
0.3775593674
 40
0.4412157083
 40
0.5047857293
 40
0.536514344
 40
0.5681781158
 40
0.5997641504
 40
0.6312606215
 40
0.6626569397
 40
0.6939439085
 40
0.7251138687
 40
0.75616083
 40
0.7870805745
 40
0.8178707364
 40
0.8485308583
 40
0.8790624209
 40
0.9094688512
 40
0.9397554953
 40
0.969929556
 40
1.0
 40
1.0
 40
1.0
 40
1.0
 10
11.1970673631
 20
7.4772097989
 30
0.0
 10
11.1929130814
 20
7.4774978994
 30
0.0
 10
11.1846025875
 20
7.4783289806
 30
0.0
 10
11.1722114483
 20
7.4803273906
 30
0.0
 10
11.1599126499
 20
7.4830730979
 30
0.0
 10
11.1477527058
 20
7.4865555176
 30
0.0
 10
11.1357765518
 20
7.4907618365
 30
0.0
 10
11.1240288283
 20
7.4956762863
 30
0.0
 10
11.1125531946
 20
7.5012805716
 30
0.0
 10
11.1013923269
 20
7.5075537847
 30
0.0
 10
11.0905876948
 20
7.5144725876
 30
0.0
 10
11.0801795584
 20
7.5220111292
 30
0.0
 10
11.0702062937
 20
7.5301417388
 30
0.0
 10
11.0575413335
 20
7.5417281388
 30
0.0
 10
11.0429818257
 20
7.5575307435
 30
0.0
 10
11.0303222401
 20
7.5748752798
 30
0.0
 10
11.0214527839
 20
7.5895180227
 30
0.0
 10
11.0154568615
 20
7.6008362167
 30
0.0
 10
11.0101370778
 20
7.6124527386
 30
0.0
 10
11.0055129504
 20
7.6243247831
 30
0.0
 10
11.0016018036
 20
7.6364081
 30
0.0
 10
10.9984182257
 20
7.648657782
 30
0.0
 10
10.9959741294
 20
7.6610282571
 30
0.0
 10
10.9942786488
 20
7.6734735017
 30
0.0
 10
10.9933381515
 20
7.6859472068
 30
0.0
 10
10.9931562063
 20
7.6984029494
 30
0.0
 10
10.9937335671
 20
7.710794356
 30
0.0
 10
10.99506818
 20
7.7230752915
 30
0.0
 10
10.997155118
 20
7.7351999633
 30
0.0
 10
10.9999867332
 20
7.7471233606
 30
0.0
 10
11.0035523029
 20
7.7588004285
 30
0.0
 10
11.0064150232
 20
7.7664056027
 30
0.0
 10
11.0079637268
 20
7.7701508373
 30
0.0
  0
SPLINE
  5
3B1
100
AcDbEntity
  8
0
100
AcDbSpline
 62
7
  6
CONTINUOUS
 70
0
 71
3
 72
52
 73
48
 74
0
 42
0.0000001
 43
0.0000001
 44
0.0000000001
 40
0.0
 40
0.0
 40
0.0
 40
0.0
 40
0.0417981828
 40
0.0840611273
 40
0.1266598109
 40
0.1694643834
 40
0.2123438788
 40
0.2551671651
 40
0.2978032836
 40
0.3401220314
 40
0.3819944585
 40
0.4232933975
 40
0.4638939897
 40
0.503674221
 40
0.5425154704
 40
0.5803030749
 40
0.6169269203
 40
0.6522820677
 40
0.6862694321
 40
0.7187965349
 40
0.7497783635
 40
0.7646659684
 40
0.779139302
 40
0.7931903637
 40
0.8068117957
 40
0.8199970498
 40
0.8327403721
 40
0.8450369397
 40
0.8568829232
 40
0.8682755982
 40
0.8792135019
 40
0.8896965328
 40
0.8997262198
 40
0.9093058347
 40
0.9184407964
 40
0.9271388319
 40
0.9354105394
 40
0.9432696418
 40
0.9507337156
 40
0.9578245583
 40
0.9645690248
 40
0.9709994219
 40
0.9771542108
 40
0.983078093
 40
0.9888220358
 40
0.9944424595
 40
1.0
 40
1.0
 40
1.0
 40
1.0
 10
10.1355089639
 20
11.0435710371
 30
0.0
 10
10.1242796346
 20
11.0443497937
 30
0.0
 10
10.1016832912
 20
11.0457364523
 30
0.0
 10
10.0676083237
 20
11.0473014627
 30
0.0
 10
10.0332426518
 20
11.0483599279
 30
0.0
 10
9.9986990414
 20
11.0489083602
 30
0.0
 10
9.9640906113
 20
11.048944942
 30
0.0
 10
9.929530793
 20
11.0484695575
 30
0.0
 10
9.8951328206
 20
11.0474837733
 30
0.0
 10
9.8610094072
 20
11.0459908448
 30
0.0
 10
9.8272723558
 20
11.0439957005
 30
0.0
 10
9.7940321953
 20
11.0415049287
 30
0.0
 10
9.7613978128
 20
11.0385267562
 30
0.0
 10
9.7294760936
 20
11.0350710225
 30
0.0
 10
9.698371564
 20
11.0311491492
 30
0.0
 10
9.6681860443
 20
11.0267741033
 30
0.0
 10
9.6390182976
 20
11.0219603576
 30
0.0
 10
9.6109637221
 20
11.0167238404
 30
0.0
 10
9.5841139213
 20
11.0110818973
 30
0.0
 10
9.5585567308
 20
11.0050531855
 30
0.0
 10
9.5381431348
 20
10.999654413
 30
0.0
 10
9.5225305529
 20
10.995144378
 30
0.0
 10
9.511351034
 20
10.9917226922
 30
0.0
 10
9.5005546074
 20
10.9882197579
 30
0.0
 10
9.4901500778
 20
10.9846383842
 30
0.0
 10
9.4801459341
 20
10.9809815439
 30
0.0
 10
9.4705503305
 20
10.9772522151
 30
0.0
 10
9.4613710769
 20
10.9734534584
 30
0.0
 10
9.4526156312
 20
10.9695883803
 30
0.0
 10
9.4442910998
 20
10.9656601164
 30
0.0
 10
9.4364042105
 20
10.9616718817
 30
0.0
 10
9.4289613417
 20
10.9576268611
 30
0.0
 10
9.4219684611
 20
10.9535283508
 30
0.0
 10
9.4154312016
 20
10.9493795485
 30
0.0
 10
9.4093547494
 20
10.9451837882
 30
0.0
 10
9.4037439928
 20
10.9409442285
 30
0.0
 10
9.398603341
 20
10.9366641769
 30
0.0
 10
9.3939369822
 20
10.932346686
 30
0.0
 10
9.3897486177
 20
10.9279949607
 30
0.0
 10
9.3860418715
 20
10.9236118995
 30
0.0
 10
9.3828199232
 20
10.9192005821
 30
0.0
 10
9.38008609
 20
10.9147638539
 30
0.0
 10
9.3778433056
 20
10.9103048796
 30
0.0
 10
9.3760947821
 20
10.9058269705
 30
0.0
 10
9.3748431905
 20
10.9013338443
 30
0.0
 10
9.3740911775
 20
10.8968306462
 30
0.0
 10
9.3739235791
 20
10.8938178052
 30
0.0
 10
9.3739235727
 20
10.8923211529
 30
0.0
  0
SPLINE
  5
3B2
100
AcDbEntity
  8
0
100
AcDbSpline
 62
7
  6
CONTINUOUS
 70
0
 71
3
 72
39
 73
35
 74
0
 42
0.0000001
 43
0.0000001
 44
0.0000000001
 40
0.0
 40
0.0
 40
0.0
 40
0.0
 40
0.0311450401
 40
0.062443098
 40
0.0938883402
 40
0.1254709779
 40
0.1571788704
 40
0.1889972432
 40
0.2209091549
 40
0.2528958204
 40
0.2849369968
 40
0.3170113846
 40
0.3490970423
 40
0.3811718113
 40
0.4132137424
 40
0.4452015207
 40
0.4771148823
 40
0.5089350149
 40
0.5406449388
 40
0.5722298604
 40
0.6036774924
 40
0.6349783353
 40
0.6661259096
 40
0.6971169338
 40
0.7279514411
 40
0.7586328285
 40
0.7891678337
 40
0.8195664367
 40
0.8498416808
 40
0.8800094153
 40
0.9100879635
 40
0.9400977213
 40
0.9700606967
 40
1.0
 40
1.0
 40
1.0
 40
1.0
 10
11.044401417
 20
7.1085487828
 30
0.0
 10
11.034023145
 20
7.1092685184
 30
0.0
 10
11.0132605699
 20
7.1114711671
 30
0.0
 10
10.982368421
 20
7.1170197311
 30
0.0
 10
10.9518071575
 20
7.1247915665
 30
0.0
 10
10.9217418208
 20
7.1347449291
 30
0.0
 10
10.8923321486
 20
7.1468264389
 30
0.0
 10
10.8637350167
 20
7.1609714922
 30
0.0
 10
10.8361027737
 20
7.1771045033
 30
0.0
 10
10.8095826567
 20
7.1951393258
 30
0.0
 10
10.7843159595
 20
7.2149797194
 30
0.0
 10
10.7604373107
 20
7.2365198657
 30
0.0
 10
10.7380739597
 20
7.2596449262
 30
0.0
 10
10.7173451075
 20
7.2842316468
 30
0.0
 10
10.6983612815
 20
7.3101490101
 30
0.0
 10
10.6812237294
 20
7.3372589099
 30
0.0
 10
10.6660238942
 20
7.365416892
 30
0.0
 10
10.6528429389
 20
7.3944729194
 30
0.0
 10
10.6417513141
 20
7.4242721593
 30
0.0
 10
10.632808382
 20
7.4546557965
 30
0.0
 10
10.6260621025
 20
7.4854618679
 30
0.0
 10
10.6215487478
 20
7.5165261087
 30
0.0
 10
10.6192927087
 20
7.5476828227
 30
0.0
 10
10.6193063694
 20
7.5787657571
 30
0.0
 10
10.6215900243
 20
7.6096089775
 30
0.0
 10
10.6261318594
 20
7.6400477464
 30
0.0
 10
10.6329079997
 20
7.6699193959
 30
0.0
 10
10.6418825984
 20
7.6990642057
 30
0.0
 10
10.6530079938
 20
7.7273262534
 30
0.0
 10
10.6662250191
 20
7.7545543072
 30
0.0
 10
10.6814630961
 20
7.7806024533
 30
0.0
 10
10.6986413482
 20
7.8053316295
 30
0.0
 10
10.7176662492
 20
7.8286076662
 30
0.0
 10
10.731518885
 20
7.8430792507
 30
0.0
 10
10.7387117423
 20
7.8500270473
 30
0.0
  0
SPLINE
  5
3B3
100
AcDbEntity
  8
0
100
AcDbSpline
 62
7
  6
CONTINUOUS
 70
0
 71
3
 72
15
 73
11
 74
0
 42
0.0000001
 43
0.0000001
 44
0.0000000001
 40
0.0
 40
0.0
 40
0.0
 40
0.0
 40
0.1234394136
 40
0.2470466177
 40
0.370982561
 40
0.4953948844
 40
0.6204121622
 40
0.7461393429
 40
0.8726517211
 40
1.0
 40
1.0
 40
1.0
 40
1.0
 10
7.8848486111
 20
9.4585285296
 30
0.0
 10
7.880489911
 20
9.4543183197
 30
0.0
 10
7.8721943307
 20
9.4454360521
 30
0.0
 10
7.8611768931
 20
9.4308954079
 30
0.0
 10
7.8516775272
 20
9.4152626429
 30
0.0
 10
7.8437855225
 20
9.3986842375
 30
0.0
 10
7.8375728732
 20
9.3813132569
 30
0.0
 10
7.8330965582
 20
9.3633098953
 30
0.0
 10
7.8303970127
 20
9.3448425272
 30
0.0
 10
7.8298000766
 20
9.3323710354
 30
0.0
 10
7.8298000766
 20
9.3261190924
 30
0.0
  0
SPLINE
  5
3B4
100
AcDbEntity
  8
0
100
AcDbSpline
 62
7
  6
CONTINUOUS
 70
0
 71
3
 72
53
 73
49
 74
0
 42
0.0000001
 43
0.0000001
 44
0.0000000001
 40
0.0
 40
0.0
 40
0.0
 40
0.0
 40
0.0412759133
 40
0.0830041367
 40
0.1250626718
 40
0.16732779
 40
0.2096752358
 40
0.2519803444
 40
0.2941186432
 40
0.3359662836
 40
0.3774005281
 40
0.4183002236
 40
0.4585462842
 40
0.4980221796
 40
0.5366144336
 40
0.5742131364
 40
0.6107124791
 40
0.646011316
 40
0.6800137706
 40
0.7126299003
 40
0.7283921205
 40
0.7437771514
 40
0.758775738
 40
0.7733792382
 40
0.7875795127
 40
0.8013691049
 40
0.8147411683
 40
0.8276896234
 40
0.8402091435
 40
0.852295281
 40
0.8639445309
 40
0.8751544269
 40
0.8859236982
 40
0.8962523491
 40
0.906141923
 40
0.9155955913
 40
0.9246185385
 40
0.933218101
 40
0.9414042833
 40
0.9491899974
 40
0.9565917047
 40
0.963629786
 40
0.9703292523
 40
0.9767201785
 40
0.982838282
 40
0.9887251287
 40
0.9944281336
 40
1.0
 40
1.0
 40
1.0
 40
1.0
 10
10.2053900485
 20
11.164196909
 30
0.0
 10
10.189461207
 20
11.1653015779
 30
0.0
 10
10.1574111414
 20
11.1672732864
 30
0.0
 10
10.1090823409
 20
11.1695142125
 30
0.0
 10
10.0603430754
 20
11.1710504187
 30
0.0
 10
10.011347098
 20
11.1718770028
 30
0.0
 10
9.9622488988
 20
11.1719913528
 30
0.0
 10
9.9132032709
 20
11.1713930993
 30
0.0
 10
9.8643648551
 20
11.1700841448
 30
0.0
 10
9.8158876287
 20
11.1680686447
 30
0.0
 10
9.7679244249
 20
11.1653530001
 30
0.0
 10
9.7206264438
 20
11.1619458368
 30
0.0
 10
9.6741427728
 20
11.157857979
 30
0.0
 10
9.6286199101
 20
11.1531024176
 30
0.0
 10
9.5842012985
 20
11.1476942693
 30
0.0
 10
9.5410268563
 20
11.1416507334
 30
0.0
 10
9.4992325543
 20
11.1349910332
 30
0.0
 10
9.4589498682
 20
11.1277363764
 30
0.0
 10
9.4203057143
 20
11.1199098221
 30
0.0
 10
9.3892249436
 20
11.112854078
 30
0.0
 10
9.3652807106
 20
11.1069277624
 30
0.0
 10
9.348011193
 20
11.1024065116
 30
0.0
 10
9.3312391396
 20
11.0977616846
 30
0.0
 10
9.3149777247
 20
11.0929969898
 30
0.0
 10
9.2992397505
 20
11.0881161347
 30
0.0
 10
9.2840375816
 20
11.0831230349
 30
0.0
 10
9.269383168
 20
11.0780215827
 30
0.0
 10
9.2552880069
 20
11.0728158451
 30
0.0
 10
9.2417631562
 20
11.0675098992
 30
0.0
 10
9.228819206
 20
11.0621079366
 30
0.0
 10
9.2164662779
 20
11.0566142052
 30
0.0
 10
9.2047140196
 20
11.0510329934
 30
0.0
 10
9.193571573
 20
11.0453686971
 30
0.0
 10
9.1830476116
 20
11.0396256677
 30
0.0
 10
9.1731502591
 20
11.033808411
 30
0.0
 10
9.1638871913
 20
11.0279212978
 30
0.0
 10
9.1552654879
 20
11.0219688834
 30
0.0
 10
9.1472918242
 20
11.0159554975
 30
0.0
 10
9.1399722471
 20
11.0098856546
 30
0.0
 10
9.1333124777
 20
11.003763568
 30
0.0
 10
9.1273176268
 20
10.9975936044
 30
0.0
 10
9.1219926136
 20
10.9913798043
 30
0.0
 10
9.1173418618
 20
10.9851263532
 30
0.0
 10
9.1133697868
 20
10.9788372091
 30
0.0
 10
9.1100805024
 20
10.9725167073
 30
0.0
 10
9.1074781531
 20
10.9661690344
 30
0.0
 10
9.1055666848
 20
10.9598003194
 30
0.0
 10
9.1047482267
 20
10.9555065224
 30
0.0
 10
9.1044592984
 20
10.9533705645
 30
0.0
  0
SPLINE
  5
3B5
100
AcDbEntity
  8
0
100
AcDbSpline
 62
7
  6
CONTINUOUS
 70
0
 71
3
 72
47
 73
43
 74
0
 42
0.0000001
 43
0.0000001
 44
0.0000000001
 40
0.0
 40
0.0
 40
0.0
 40
0.0
 40
0.0942632996
 40
0.1405167044
 40
0.186095499
 40
0.2309336654
 40
0.2749672889
 40
0.3181341408
 40
0.3603736923
 40
0.4016274402
 40
0.4418390679
 40
0.480954604
 40
0.5189226141
 40
0.5556944441
 40
0.5912245158
 40
0.6254705599
 40
0.6583939284
 40
0.6899600096
 40
0.7201387291
 40
0.748905047
 40
0.7762396317
 40
0.8021297559
 40
0.8265704183
 40
0.8382488342
 40
0.8495672643
 40
0.860527929
 40
0.8711339153
 40
0.8813891157
 40
0.8912985195
 40
0.9008681976
 40
0.9101054049
 40
0.9190188664
 40
0.9276187425
 40
0.9359168938
 40
0.9439270708
 40
0.9516649528
 40
0.9591484585
 40
0.9734288666
 40
0.9802800823
 40
0.9869722089
 40
0.9935349448
 40
1.0
 40
1.0
 40
1.0
 40
1.0
 10
10.2053900485
 20
11.164196909
 30
0.0
 10
10.227545165
 20
11.1626604464
 30
0.0
 10
10.260548364
 20
11.1600122676
 30
0.0
 10
10.3041852541
 20
11.1557495723
 30
0.0
 10
10.3361937361
 20
11.1522408861
 30
0.0
 10
10.3676379675
 20
11.1484061014
 30
0.0
 10
10.398468285
 20
11.1442512928
 30
0.0
 10
10.4286360129
 20
11.1397830684
 30
0.0
 10
10.4580935434
 20
11.1350085059
 30
0.0
 10
10.4867943788
 20
11.1299351756
 30
0.0
 10
10.5146932452
 20
11.1245711429
 30
0.0
 10
10.5417461446
 20
11.1189249266
 30
0.0
 10
10.5679104207
 20
11.1130054863
 30
0.0
 10
10.593144841
 20
11.1068222099
 30
0.0
 10
10.617409677
 20
11.1003849294
 30
0.0
 10
10.6406667579
 20
11.0937038659
 30
0.0
 10
10.6628795295
 20
11.0867896131
 30
0.0
 10
10.6840131313
 20
11.0796531215
 30
0.0
 10
10.7040344885
 20
11.0723057008
 30
0.0
 10
10.7229123151
 20
11.0647589602
 30
0.0
 10
10.7406173204
 20
11.0570247382
 30
0.0
 10
10.7571217675
 20
11.0491151812
 30
0.0
 10
10.7700431675
 20
11.0422882344
 30
0.0
 10
10.7797446348
 20
11.0367376647
 30
0.0
 10
10.7865940036
 20
11.0326018841
 30
0.0
 10
10.793124637
 20
11.0284316529
 30
0.0
 10
10.7993340302
 20
11.0242285973
 30
0.0
 10
10.8052197213
 20
11.0199942791
 30
0.0
 10
10.8107794412
 20
11.0157303566
 30
0.0
 10
10.8160110358
 20
11.0114384627
 30
0.0
 10
10.8209124165
 20
11.0071201557
 30
0.0
 10
10.8254817193
 20
11.0027771153
 30
0.0
 10
10.8297171099
 20
10.9984109184
 30
0.0
 10
10.8336168957
 20
10.9940231127
 30
0.0
 10
10.8371794935
 20
10.9896154752
 30
0.0
 10
10.8404035618
 20
10.9851890756
 30
0.0
 10
10.8441891808
 20
10.9793572798
 30
0.0
 10
10.8473768717
 20
10.9733939369
 30
0.0
 10
10.8498858049
 20
10.9673334309
 30
0.0
 10
10.8513971973
 20
10.9628397999
 30
0.0
 10
10.8525626523
 20
10.9583384244
 30
0.0
 10
10.8531119177
 20
10.9553151979
 30
0.0
 10
10.8533271426
 20
10.9538073205
 30
0.0
  0
SPLINE
  5
3B6
100
AcDbEntity
  8
0
100
AcDbSpline
 62
7
  6
CONTINUOUS
 70
0
 71
3
 72
15
 73
11
 74
0
 42
0.0000001
 43
0.0000001
 44
0.0000000001
 40
0.0
 40
0.0
 40
0.0
 40
0.0
 40
0.1234394136
 40
0.2470466177
 40
0.370982561
 40
0.4953948844
 40
0.6204121622
 40
0.7461393429
 40
0.8726517211
 40
1.0
 40
1.0
 40
1.0
 40
1.0
 10
12.4729965579
 20
7.2084876218
 30
0.0
 10
12.4686378577
 20
7.2042774119
 30
0.0
 10
12.4603422774
 20
7.1953951442
 30
0.0
 10
12.4493248398
 20
7.1808545
 30
0.0
 10
12.439825474
 20
7.1652217351
 30
0.0
 10
12.4319334693
 20
7.1486433296
 30
0.0
 10
12.4257208199
 20
7.131272349
 30
0.0
 10
12.4212445049
 20
7.1132689874
 30
0.0
 10
12.4185449595
 20
7.0948016193
 30
0.0
 10
12.4179480234
 20
7.0823301276
 30
0.0
 10
12.4179480234
 20
7.0760781845
 30
0.0
  0
SPLINE
  5
3B7
100
AcDbEntity
  8
0
100
AcDbSpline
 62
7
  6
CONTINUOUS
 70
0
 71
3
 72
55
 73
51
 74
0
 42
0.0000001
 43
0.0000001
 44
0.0000000001
 40
0.0
 40
0.0
 40
0.0
 40
0.0
 40
0.0528986749
 40
0.1050253132
 40
0.156261594
 40
0.2064949565
 40
0.2556141762
 40
0.3035122875
 40
0.350086054
 40
0.3952367262
 40
0.4388704634
 40
0.4808988885
 40
0.521239686
 40
0.5598172957
 40
0.5965637329
 40
0.6314195812
 40
0.6481232109
 40
0.664336536
 40
0.6800550711
 40
0.6952753277
 40
0.7099945976
 40
0.7242112623
 40
0.7379247959
 40
0.7511358592
 40
0.763846603
 40
0.7760605783
 40
0.7877832503
 40
0.7990219199
 40
0.8097862428
 40
0.8200883953
 40
0.8299434517
 40
0.8393698778
 40
0.8483897664
 40
0.857029529
 40
0.873286487
 40
0.8809916147
 40
0.8884708877
 40
0.8957754969
 40
0.9029607674
 40
0.9100851369
 40
0.91720867
 40
0.924391459
 40
0.9316919951
 40
0.9391657293
 40
0.9468639446
 40
0.9631035761
 40
0.9717332287
 40
0.9807422239
 40
0.99015706
 40
1.0
 40
1.0
 40
1.0
 40
1.0
 10
10.1497439997
 20
11.1104469501
 30
0.0
 10
10.1601695692
 20
11.1097239344
 30
0.0
 10
10.1808591368
 20
11.1081483527
 30
0.0
 10
10.21160608
 20
11.1053737676
 30
0.0
 10
10.2417861707
 20
11.1022102945
 30
0.0
 10
10.2713256159
 20
11.0986657758
 30
0.0
 10
10.3001526652
 20
11.0947488472
 30
0.0
 10
10.3281970459
 20
11.0904691511
 30
0.0
 10
10.3553905214
 20
11.0858371788
 30
0.0
 10
10.3816669183
 20
11.0808643059
 30
0.0
 10
10.4069623408
 20
11.0755627452
 30
0.0
 10
10.4312153333
 20
11.069945523
 30
0.0
 10
10.4543670114
 20
11.0640264385
 30
0.0
 10
10.4763613289
 20
11.0578200342
 30
0.0
 10
10.4971448581
 20
11.0513415278
 30
0.0
 10
10.5136399388
 20
11.0456514758
 30
0.0
 10
10.5261822219
 20
11.0409636488
 30
0.0
 10
10.5351216383
 20
11.037439669
 30
0.0
 10
10.5437222298
 20
11.0338597151
 30
0.0
 10
10.5519788166
 20
11.0302260037
 30
0.0
 10
10.559886389
 20
11.0265406947
 30
0.0
 10
10.5674401768
 20
11.0228060412
 30
0.0
 10
10.5746356317
 20
11.0190243123
 30
0.0
 10
10.5814684034
 20
11.0151977332
 30
0.0
 10
10.5879344216
 20
11.0113286739
 30
0.0
 10
10.5940297693
 20
11.00741934
 30
0.0
 10
10.599750848
 20
11.0034721329
 30
0.0
 10
10.6050942042
 20
10.9994892828
 30
0.0
 10
10.6100566743
 20
10.9954731249
 30
0.0
 10
10.6146352865
 20
10.9914259527
 30
0.0
 10
10.6188272806
 20
10.9873499283
 30
0.0
 10
10.6226300543
 20
10.9832475433
 30
0.0
 10
10.6260415116
 20
10.979120244
 30
0.0
 10
10.6299842598
 20
10.9736993288
 30
0.0
 10
10.6332523665
 20
10.9681172156
 30
0.0
 10
10.6357275898
 20
10.96241365
 30
0.0
 10
10.637149673
 20
10.9581984605
 30
0.0
 10
10.6381683964
 20
10.9539734167
 30
0.0
 10
10.638782413
 20
10.949741356
 30
0.0
 10
10.6389909922
 20
10.945505735
 30
0.0
 10
10.6387936605
 20
10.9412700619
 30
0.0
 10
10.6381908348
 20
10.937037862
 30
0.0
 10
10.6371833433
 20
10.9328125711
 30
0.0
 10
10.6357723654
 20
10.928597079
 30
0.0
 10
10.633312408
 20
10.9228933045
 30
0.0
 10
10.6300589703
 20
10.9173103732
 30
0.0
 10
10.6261303948
 20
10.9118885224
 30
0.0
 10
10.6227297802
 20
10.9077605743
 30
0.0
 10
10.6189379178
 20
10.9036575349
 30
0.0
 10
10.6162125249
 20
10.9010002746
 30
0.0
 10
10.6147890042
 20
10.899675545
 30
0.0
  0
SPLINE
  5
3B8
100
AcDbEntity
  8
0
100
AcDbSpline
 62
7
  6
CONTINUOUS
 70
0
 71
3
 72
40
 73
36
 74
0
 42
0.0000001
 43
0.0000001
 44
0.0000000001
 40
0.0
 40
0.0
 40
0.0
 40
0.0
 40
0.0958312544
 40
0.1891000667
 40
0.2345965875
 40
0.2792415074
 40
0.322968177
 40
0.3657118131
 40
0.4074099407
 40
0.4480024857
 40
0.487432028
 40
0.5256441319
 40
0.56258747
 40
0.5982141494
 40
0.6324801914
 40
0.6653457786
 40
0.6967757072
 40
0.7267401317
 40
0.7552151458
 40
0.7821835837
 40
0.8076362997
 40
0.8315735423
 40
0.8540066666
 40
0.8749606562
 40
0.8944772566
 40
0.9126187721
 40
0.9294730509
 40
0.9451593037
 40
0.9598338427
 40
0.9668558608
 40
0.9737029081
 40
0.9804063186
 40
0.986999716
 40
0.993518652
 40
1.0
 40
1.0
 40
1.0
 40
1.0
 10
10.1355089639
 20
11.0435710371
 30
0.0
 10
10.1512668234
 20
11.0424782258
 30
0.0
 10
10.1823383492
 20
11.0399752078
 30
0.0
 10
10.2208017084
 20
11.0359613499
 30
0.0
 10
10.25080537
 20
11.0322531978
 30
0.0
 10
10.2726675312
 20
11.0292613655
 30
0.0
 10
10.2940384461
 20
11.0260409869
 30
0.0
 10
10.3148824447
 20
11.0225974329
 30
0.0
 10
10.335164693
 20
11.018936522
 30
0.0
 10
10.3548513099
 20
11.015064394
 30
0.0
 10
10.3739094223
 20
11.0109875486
 30
0.0
 10
10.3923072309
 20
11.0067128669
 30
0.0
 10
10.4100140478
 20
11.0022475323
 30
0.0
 10
10.4270003567
 20
10.9975990303
 30
0.0
 10
10.4432378882
 20
10.9927752017
 30
0.0
 10
10.4586996507
 20
10.9877841536
 30
0.0
 10
10.4733599769
 20
10.9826342298
 30
0.0
 10
10.4871946111
 20
10.977334074
 30
0.0
 10
10.5001807429
 20
10.9718925439
 30
0.0
 10
10.5122970359
 20
10.9663186379
 30
0.0
 10
10.5235237212
 20
10.9606215307
 30
0.0
 10
10.5338426413
 20
10.9548104886
 30
0.0
 10
10.5432372387
 20
10.9488947051
 30
0.0
 10
10.5516925944
 20
10.9428832514
 30
0.0
 10
10.5591954275
 20
10.9367848932
 30
0.0
 10
10.5657337922
 20
10.9306079501
 30
0.0
 10
10.5712969107
 20
10.9243596158
 30
0.0
 10
10.5758739877
 20
10.9180478551
 30
0.0
 10
10.5789015285
 20
10.9126611785
 30
0.0
 10
10.580788726
 20
10.9083480015
 30
0.0
 10
10.5819313726
 20
10.9051523113
 30
0.0
 10
10.5828209675
 20
10.9019503204
 30
0.0
 10
10.5834568495
 20
10.898743332
 30
0.0
 10
10.5838386163
 20
10.8955332345
 30
0.0
 10
10.5839235736
 20
10.8933894628
 30
0.0
 10
10.5839235691
 20
10.8923211529
 30
0.0
  0
SPLINE
  5
3B9
100
AcDbEntity
  8
0
100
AcDbSpline
 62
7
  6
CONTINUOUS
 70
0
 71
3
 72
53
 73
49
 74
0
 42
0.0000001
 43
0.0000001
 44
0.0000000001
 40
0.0
 40
0.0
 40
0.0
 40
0.0
 40
0.0055575358
 40
0.0111779566
 40
0.0169218919
 40
0.022845775
 40
0.0290005507
 40
0.0354309545
 40
0.0421754005
 40
0.0492662557
 40
0.0567303027
 40
0.0645894212
 40
0.072861099
 40
0.0815591501
 40
0.0906940844
 40
0.1002737091
 40
0.1103033751
 40
0.1207864065
 40
0.1317242976
 40
0.1431169629
 40
0.154962942
 40
0.1672594909
 40
0.1800028152
 40
0.1931880451
 40
0.2068094816
 40
0.2208605177
 40
0.2353338545
 40
0.250221435
 40
0.2655145886
 40
0.281204022
 40
0.3137311009
 40
0.3477184393
 40
0.3830735589
 40
0.4196973748
 40
0.4574849489
 40
0.4963261675
 40
0.5361063682
 40
0.5767069301
 40
0.6180058389
 40
0.659878235
 40
0.7021969505
 40
0.744833037
 40
0.787656286
 40
0.8305357591
 40
0.8733402611
 40
0.9159390133
 40
0.9582016979
 40
1.0
 40
1.0
 40
1.0
 40
1.0
 10
9.1039235709
 20
10.9609018914
 30
0.0
 10
9.1039235709
 20
10.963066471
 30
0.0
 10
9.1041659614
 20
10.967423888
 30
0.0
 10
9.1052536109
 20
10.9739367708
 30
0.0
 10
9.1070637255
 20
10.9804351073
 30
0.0
 10
9.1095926302
 20
10.9869114001
 30
0.0
 10
9.1128362717
 20
10.9933603618
 30
0.0
 10
9.1167902223
 20
10.9997770754
 30
0.0
 10
9.1214500032
 20
11.0061571315
 30
0.0
 10
9.1268110598
 20
11.0124962103
 30
0.0
 10
9.1328685542
 20
11.0187900927
 30
0.0
 10
9.1396174717
 20
11.0250343309
 30
0.0
 10
9.1470522536
 20
11.0312245539
 30
0.0
 10
9.1551670215
 20
11.0373560874
 30
0.0
 10
9.1639552498
 20
11.0434243896
 30
0.0
 10
9.1734099856
 20
11.0494246792
 30
0.0
 10
9.1835236414
 20
11.0553523103
 30
0.0
 10
9.1942881299
 20
11.0612025246
 30
0.0
 10
9.2056947838
 20
11.0669706434
 30
0.0
 10
9.2177343958
 20
11.0726520169
 30
0.0
 10
9.2303972322
 20
11.0782419967
 30
0.0
 10
9.2436730085
 20
11.0837360835
 30
0.0
 10
9.2575509519
 20
11.0891297178
 30
0.0
 10
9.2720197508
 20
11.0944185636
 30
0.0
 10
9.2870676277
 20
11.0995982061
 30
0.0
 10
9.3026822944
 20
11.1046644688
 30
0.0
 10
9.3188510111
 20
11.1096131334
 30
0.0
 10
9.3355605564
 20
11.1144401697
 30
0.0
 10
9.3527972925
 20
11.1191416257
 30
0.0
 10
9.3767522042
 20
11.1253117748
 30
0.0
 10
9.4079180326
 20
11.1326632756
 30
0.0
 10
9.446750183
 20
11.1408231427
 30
0.0
 10
9.4873250411
 20
11.1483966094
 30
0.0
 10
9.5295097813
 20
11.1553586418
 30
0.0
 10
9.5731665286
 20
11.1616861879
 30
0.0
 10
9.6181524169
 20
11.16735832
 30
0.0
 10
9.6643201938
 20
11.1723562824
 30
0.0
 10
9.7115186825
 20
11.176663556
 30
0.0
 10
9.7595932973
 20
11.1802659103
 30
0.0
 10
9.8083865556
 20
11.1831514477
 30
0.0
 10
9.8577386015
 20
11.1853106401
 30
0.0
 10
9.9074877347
 20
11.186736359
 30
0.0
 10
9.9574709467
 20
11.1874238992
 30
0.0
 10
10.00752445
 20
11.1873709881
 30
0.0
 10
10.057484247
 20
11.1865778078
 30
0.0
 10
10.1071866019
 20
11.1850469607
 30
0.0
 10
10.156468591
 20
11.1827835304
 30
0.0
 10
10.1891492237
 20
11.1807780289
 30
0.0
 10
10.2053900485
 20
11.1796517238
 30
0.0
  0
SPLINE
  5
3BA
100
AcDbEntity
  8
0
100
AcDbSpline
 62
7
  6
CONTINUOUS
 70
0
 71
3
 72
23
 73
19
 74
0
 42
0.0000001
 43
0.0000001
 44
0.0000000001
 40
0.0
 40
0.0
 40
0.0
 40
0.0
 40
0.061648213
 40
0.123319452
 40
0.1850364843
 40
0.2468215692
 40
0.3086962118
 40
0.370680925
 40
0.4327950058
 40
0.495056332
 40
0.557481176
 40
0.6200840667
 40
0.6828775914
 40
0.7458723173
 40
0.8090769586
 40
0.8724967492
 40
0.9361385647
 40
1.0
 40
1.0
 40
1.0
 40
1.0
 10
11.3500910917
 20
7.2170852958
 30
0.0
 10
11.3451533708
 20
7.2123158031
 30
0.0
 10
11.3350174193
 20
7.2030387026
 30
0.0
 10
11.3190844483
 20
7.1899576837
 30
0.0
 10
11.3024596021
 20
7.1777412961
 30
0.0
 10
11.2851853391
 20
7.1664208504
 30
0.0
 10
11.2673050475
 20
7.1560246968
 30
0.0
 10
11.2488638236
 20
7.1465790465
 30
0.0
 10
11.2299081203
 20
7.1381076713
 30
0.0
 10
11.2104857158
 20
7.1306318563
 30
0.0
 10
11.1906455477
 20
7.1241703705
 30
0.0
 10
11.1704375933
 20
7.11873944
 30
0.0
 10
11.1499127535
 20
7.1143526968
 30
0.0
 10
11.1291226768
 20
7.1110211336
 30
0.0
 10
11.108119848
 20
7.1087531314
 30
0.0
 10
11.0869567427
 20
7.1075541726
 30
0.0
 10
11.0656875801
 20
7.1074274336
 30
0.0
 10
11.051495906
 20
7.1080567783
 30
0.0
 10
11.044401417
 20
7.1085487828
 30
0.0
  0
SPLINE
  5
3BB
100
AcDbEntity
  8
0
100
AcDbSpline
 62
7
  6
CONTINUOUS
 70
0
 71
3
 72
23
 73
19
 74
0
 42
0.0000001
 43
0.0000001
 44
0.0000000001
 40
0.0
 40
0.0
 40
0.0
 40
0.0
 40
0.0616371603
 40
0.1233028343
 40
0.1850188996
 40
0.2468066874
 40
0.3086867568
 40
0.3706786858
 40
0.432800868
 40
0.4950703181
 40
0.5575024939
 40
0.6201111861
 40
0.682908298
 40
0.7459039087
 40
0.8091061937
 40
0.8725199723
 40
0.9361524069
 40
1.0
 40
1.0
 40
1.0
 40
1.0
 10
11.3500618119
 20
7.2171171301
 30
0.0
 10
11.3451401515
 20
7.2125040601
 30
0.0
 10
11.3350486275
 20
7.2035341965
 30
0.0
 10
11.3192184055
 20
7.1908941558
 30
0.0
 10
11.3027300048
 20
7.1790962695
 30
0.0
 10
11.2856240746
 20
7.1681697446
 30
0.0
 10
11.2679421052
 20
7.1581409746
 30
0.0
 10
11.2497271593
 20
7.1490343449
 30
0.0
 10
11.2310235322
 20
7.1408719618
 30
0.0
 10
11.2118767074
 20
7.1336736734
 30
0.0
 10
11.1923332583
 20
7.1274569246
 30
0.0
 10
11.1724407193
 20
7.1222367641
 30
0.0
 10
11.1522474576
 20
7.1180258224
 30
0.0
 10
11.1318025233
 20
7.1148343049
 30
0.0
 10
11.1111557505
 20
7.1126699887
 30
0.0
 10
11.0903568924
 20
7.111537881
 30
0.0
 10
11.069457454
 20
7.1114409258
 30
0.0
 10
11.0555132894
 20
7.1120653553
 30
0.0
 10
11.0485425185
 20
7.1125487799
 30
0.0
  0
SPLINE
  5
3BC
100
AcDbEntity
  8
0
100
AcDbSpline
 62
7
  6
CONTINUOUS
 70
0
 71
3
 72
21
 73
17
 74
0
 42
0.0000001
 43
0.0000001
 44
0.0000000001
 40
0.0
 40
0.0
 40
0.0
 40
0.0
 40
0.0616532317
 40
0.1233294898
 40
0.1850515414
 40
0.246841662
 40
0.3087213493
 40
0.3707111057
 40
0.4328302438
 40
0.4950966409
 40
0.5575265847
 40
0.6201345602
 40
0.6829331384
 40
0.745933256
 40
0.8725261412
 40
1.0
 40
1.0
 40
1.0
 40
1.0
 10
11.219572529
 20
7.376031346
 30
0.0
 10
11.2169353361
 20
7.3734840304
 30
0.0
 10
11.2115218374
 20
7.368529246
 30
0.0
 10
11.2030121768
 20
7.3615428847
 30
0.0
 10
11.194133029
 20
7.3550182737
 30
0.0
 10
11.1849070393
 20
7.3489721663
 30
0.0
 10
11.1753573484
 20
7.3434197633
 30
0.0
 10
11.1655080942
 20
7.3383749788
 30
0.0
 10
11.1553840747
 20
7.3338505141
 30
0.0
 10
11.1450107806
 20
7.3298578139
 30
0.0
 10
11.1344143603
 20
7.326406827
 30
0.0
 10
11.1236215825
 20
7.323506231
 30
0.0
 10
11.1126592945
 20
7.3211633571
 30
0.0
 10
11.097832908
 20
7.3187873671
 30
0.0
 10
11.0790057548
 20
7.3172437011
 30
0.0
 10
11.0638698601
 20
7.3175390999
 30
0.0
 10
11.0563070835
 20
7.3180635803
 30
0.0
  0
SPLINE
  5
3BD
100
AcDbEntity
  8
0
100
AcDbSpline
 62
7
  6
CONTINUOUS
 70
0
 71
3
 72
11
 73
7
 74
0
 42
0.0000001
 43
0.0000001
 44
0.0000000001
 40
0.0
 40
0.0
 40
0.0
 40
0.0
 40
0.2478436574
 40
0.4970666087
 40
0.7477653091
 40
1.0
 40
1.0
 40
1.0
 40
1.0
 10
11.2718644624
 20
7.4590904157
 30
0.0
 10
11.2655913275
 20
7.4572173081
 30
0.0
 10
11.2528295966
 20
7.4540385636
 30
0.0
 10
11.2332829036
 20
7.4510213185
 30
0.0
 10
11.2134288934
 20
7.4497628879
 30
0.0
 10
11.2001279015
 20
7.450102519
 30
0.0
 10
11.1934810642
 20
7.4505634788
 30
0.0
  0
SPLINE
  5
3BE
100
AcDbEntity
  8
0
100
AcDbSpline
 62
7
  6
CONTINUOUS
 70
0
 71
3
 72
39
 73
35
 74
0
 42
0.0000001
 43
0.0000001
 44
0.0000000001
 40
0.0
 40
0.0
 40
0.0
 40
0.0
 40
0.0299343776
 40
0.0598966069
 40
0.089909357
 40
0.1199941213
 40
0.1501707283
 40
0.1804569003
 40
0.210867873
 40
0.2414160824
 40
0.272110926
 40
0.3029585996
 40
0.3339620102
 40
0.3651207633
 40
0.3964312211
 40
0.4278866236
 40
0.4594772699
 40
0.4911907497
 40
0.5230122218
 40
0.5549247295
 40
0.5869095491
 40
0.6189465643
 40
0.6510146589
 40
0.6830921242
 40
0.7151570725
 40
0.7471878548
 40
0.7791634736
 40
0.8110639893
 40
0.8428709095
 40
0.8745675677
 40
0.9061394264
 40
0.9375745575
 40
0.9688633342
 40
1.0
 40
1.0
 40
1.0
 40
1.0
 10
10.7387424545
 20
7.849996528
 30
0.0
 10
10.7316966768
 20
7.842983071
 30
0.0
 10
10.7181394532
 20
7.8283939515
 30
0.0
 10
10.6995574435
 20
7.8049843919
 30
0.0
 10
10.6828170608
 20
7.7801620586
 30
0.0
 10
10.6680083519
 20
7.7540600194
 30
0.0
 10
10.6552089543
 20
7.7268159462
 30
0.0
 10
10.6444863811
 20
7.6985740837
 30
0.0
 10
10.6358969546
 20
7.6694837368
 30
0.0
 10
10.62948572
 20
7.639698663
 30
0.0
 10
10.6252861738
 20
7.6093761983
 30
0.0
 10
10.6233201241
 20
7.5786764355
 30
0.0
 10
10.6235975783
 20
7.547761377
 30
0.0
 10
10.6261167111
 20
7.5167940811
 30
0.0
 10
10.6308639008
 20
7.4859378087
 30
0.0
 10
10.6378138124
 20
7.4553551725
 30
0.0
 10
10.646929541
 20
7.4252072913
 30
0.0
 10
10.6581628136
 20
7.3956529528
 30
0.0
 10
10.6714542474
 20
7.3668477896
 30
0.0
 10
10.686733664
 20
7.338943471
 30
0.0
 10
10.7039204452
 20
7.3120869056
 30
0.0
 10
10.7229239724
 20
7.2864194838
 30
0.0
 10
10.7436440999
 20
7.2620763426
 30
0.0
 10
10.7659716784
 20
7.2391856617
 30
0.0
 10
10.7897891238
 20
7.217867997
 30
0.0
 10
10.8149710305
 20
7.1982356512
 30
0.0
 10
10.8413848238
 20
7.1803920899
 30
0.0
 10
10.8688914487
 20
7.1644313926
 30
0.0
 10
10.8973460775
 20
7.1504377527
 30
0.0
 10
10.9265989333
 20
7.1384850654
 30
0.0
 10
10.9564958393
 20
7.1286364816
 30
0.0
 10
10.9868798499
 20
7.1209441952
 30
0.0
 10
11.0175888335
 20
7.1154490286
 30
0.0
 10
11.0382266014
 20
7.1132641912
 30
0.0
 10
11.0485425185
 20
7.1125487799
 30
0.0
  0
SPLINE
  5
3BF
100
AcDbEntity
  8
0
100
AcDbSpline
 62
7
  6
CONTINUOUS
 70
0
 71
3
 72
41
 73
37
 74
0
 42
0.0000001
 43
0.0000001
 44
0.0000000001
 40
0.0
 40
0.0
 40
0.0
 40
0.0
 40
0.0299389653
 40
0.0449187245
 40
0.0599073276
 40
0.0899167439
 40
0.1199949488
 40
0.1350691072
 40
0.1501679499
 40
0.1804428474
 40
0.2108411019
 40
0.2413757562
 40
0.2720567903
 40
0.302890943
 40
0.3338816115
 40
0.365028829
 40
0.3963293137
 40
0.4277765859
 40
0.4593611463
 40
0.4910707086
 40
0.5228904795
 40
0.5548034793
 40
0.5867908957
 40
0.6188324646
 40
0.6509068716
 40
0.6829921682
 40
0.7150661957
 40
0.7471070126
 40
0.7790933194
 40
0.8110048728
 40
0.8428228916
 40
0.8745304217
 40
0.9061127365
 40
0.9375575251
 40
0.9688554979
 40
1.0
 40
1.0
 40
1.0
 40
1.0
 10
10.8930416379
 20
7.7140809798
 30
0.0
 10
10.8891999713
 20
7.7103702399
 30
0.0
 10
10.8836512479
 20
7.7045735046
 30
0.0
 10
10.8767254828
 20
7.6964310797
 30
0.0
 10
10.8701150745
 20
7.6880139035
 30
0.0
 10
10.8624654261
 20
7.6770020748
 30
0.0
 10
10.8556875392
 20
7.6654156711
 30
0.0
 10
10.8508058738
 20
7.6558365965
 30
0.0
 10
10.8462824612
 20
7.6460445974
 30
0.0
 10
10.8413255523
 20
7.6334529045
 30
0.0
 10
10.8365324223
 20
7.6178872569
 30
0.0
 10
10.8329132457
 20
7.6019329774
 30
0.0
 10
10.8304874486
 20
7.5856759171
 30
0.0
 10
10.8292677139
 20
7.5692028067
 30
0.0
 10
10.8292603742
 20
7.5526016716
 30
0.0
 10
10.8304652671
 20
7.535961126
 30
0.0
 10
10.8328757781
 20
7.5193699678
 30
0.0
 10
10.8364788738
 20
7.5029166928
 30
0.0
 10
10.8412551803
 20
7.4866890324
 30
0.0
 10
10.8471790897
 20
7.4707734915
 30
0.0
 10
10.8542188993
 20
7.4552548935
 30
0.0
 10
10.8623369825
 20
7.4402159345
 30
0.0
 10
10.8714899887
 20
7.4257367479
 30
0.0
 10
10.8816290746
 20
7.411894483
 30
0.0
 10
10.8927001624
 20
7.3987628989
 30
0.0
 10
10.9046442259
 20
7.3864119751
 30
0.0
 10
10.9173976025
 20
7.3749075433
 30
0.0
 10
10.9308923292
 20
7.3643109389
 30
0.0
 10
10.9450565007
 20
7.3546786787
 30
0.0
 10
10.9598146501
 20
7.3460621587
 30
0.0
 10
10.9750881373
 20
7.3385073892
 30
0.0
 10
10.9907955999
 20
7.3320547323
 30
0.0
 10
11.0068532384
 20
7.3267387309
 30
0.0
 10
11.0231757866
 20
7.32258782
 30
0.0
 10
11.0396750335
 20
7.3196244135
 30
0.0
 10
11.0507641668
 20
7.3184479829
 30
0.0
 10
11.0563070835
 20
7.3180635803
 30
0.0
  0
SPLINE
  5
3C0
100
AcDbEntity
  8
0
100
AcDbSpline
 62
7
  6
CONTINUOUS
 70
0
 71
3
 72
37
 73
33
 74
0
 42
0.0000001
 43
0.0000001
 44
0.0000000001
 40
0.0
 40
0.0
 40
0.0
 40
0.0
 40
0.0301394314
 40
0.0603877712
 40
0.0907517382
 40
0.121236374
 40
0.151844986
 40
0.1825791264
 40
0.2134385972
 40
0.2444214715
 40
0.2755241353
 40
0.306741353
 40
0.338066363
 40
0.3694909853
 40
0.4010057381
 40
0.4325999665
 40
0.4642619908
 40
0.4959792698
 40
0.559501928
 40
0.623080906
 40
0.654867842
 40
0.6866261525
 40
0.7183420742
 40
0.7500023774
 40
0.7815945398
 40
0.8131069268
 40
0.8445288966
 40
0.8758509965
 40
0.9070652351
 40
0.9381641738
 40
0.9691446334
 40
1.0
 40
1.0
 40
1.0
 40
1.0
 10
10.9778557681
 20
7.7634418036
 30
0.0
 10
10.9764581263
 20
7.7592901082
 30
0.0
 10
10.973913568
 20
7.7508831382
 30
0.0
 10
10.9708686741
 20
7.738041063
 30
0.0
 10
10.9685990185
 20
7.7249882057
 30
0.0
 10
10.9671126567
 20
7.7117706725
 30
0.0
 10
10.9664146482
 20
7.6984343395
 30
0.0
 10
10.9665073415
 20
7.685025699
 30
0.0
 10
10.9673903392
 20
7.67159142
 30
0.0
 10
10.9690605105
 20
7.6581782652
 30
0.0
 10
10.97151201
 20
7.6448329162
 30
0.0
 10
10.9747362369
 20
7.6316018078
 30
0.0
 10
10.9787219024
 20
7.6185309614
 30
0.0
 10
10.9834550871
 20
7.6056658465
 30
0.0
 10
10.9889193173
 20
7.5930511817
 30
0.0
 10
10.9950954898
 20
7.5807309517
 30
0.0
 10
11.0019623828
 20
7.5687476071
 30
0.0
 10
11.0120097392
 20
7.5532703034
 30
0.0
 10
11.0261696411
 20
7.5349765778
 30
0.0
 10
11.0422617998
 20
7.5183433536
 30
0.0
 10
11.0561667293
 20
7.5061638745
 30
0.0
 10
11.0670748085
 20
7.4976243532
 30
0.0
 10
11.0784227007
 20
7.4897113646
 30
0.0
 10
11.090171283
 20
7.4824520855
 30
0.0
 10
11.1022795976
 20
7.4758718629
 30
0.0
 10
11.1147055652
 20
7.4699935891
 30
0.0
 10
11.1274059653
 20
7.4648377573
 30
0.0
 10
11.1403366675
 20
7.4604223496
 30
0.0
 10
11.1534525803
 20
7.4567628491
 30
0.0
 10
11.1667084059
 20
7.4538718059
 30
0.0
 10
11.1800572165
 20
7.4517596934
 30
0.0
 10
11.1890071151
 20
7.4508737482
 30
0.0
 10
11.1934810642
 20
7.4505634788
 30
0.0
  0
SPLINE
  5
3C1
100
AcDbEntity
  8
0
100
AcDbSpline
 62
7
  6
CONTINUOUS
 70
0
 71
3
 72
13
 73
9
 74
0
 42
0.0000001
 43
0.0000001
 44
0.0000000001
 40
0.0
 40
0.0
 40
0.0
 40
0.0
 40
0.1236108645
 40
0.2475804167
 40
0.3719364103
 40
0.4967030293
 40
0.7474466579
 40
1.0
 40
1.0
 40
1.0
 40
1.0
 10
11.2795557138
 20
7.4889280926
 30
0.0
 10
11.2763159317
 20
7.4877188434
 30
0.0
 10
11.2697592639
 20
7.4854739932
 30
0.0
 10
11.2597418079
 20
7.4826423322
 30
0.0
 10
11.2495539663
 20
7.4803487605
 30
0.0
 10
11.2357605145
 20
7.478012975
 30
0.0
 10
11.2182231197
 20
7.4764723228
 30
0.0
 10
11.204115794
 20
7.4767209886
 30
0.0
 10
11.1970673631
 20
7.4772097989
 30
0.0
  0
SPLINE
  5
3C2
100
AcDbEntity
  8
0
100
AcDbSpline
 62
7
  6
CONTINUOUS
 70
0
 71
3
 72
11
 73
7
 74
0
 42
0.0000001
 43
0.0000001
 44
0.0000000001
 40
0.0
 40
0.0
 40
0.0
 40
0.0
 40
0.2467505159
 40
0.4948140931
 40
0.7454812751
 40
1.0
 40
1.0
 40
1.0
 40
1.0
 10
13.3538786849
 20
10.1825781108
 30
0.0
 10
13.3551066173
 20
10.1824929533
 30
0.0
 10
13.3575635443
 20
10.1822288633
 30
0.0
 10
13.3612238989
 20
10.1815539084
 30
0.0
 10
13.3648616965
 20
10.1806001822
 30
0.0
 10
13.3672492635
 20
10.1797861328
 30
0.0
 10
13.3684361282
 20
10.1793352242
 30
0.0
  0
SPLINE
  5
3C3
100
AcDbEntity
  8
0
100
AcDbSpline
 62
7
  6
CONTINUOUS
 70
0
 71
3
 72
41
 73
37
 74
0
 42
0.0000001
 43
0.0000001
 44
0.0000000001
 40
0.0
 40
0.0
 40
0.0
 40
0.0
 40
0.0310748272
 40
0.0623072483
 40
0.0936920359
 40
0.1252208484
 40
0.156882237
 40
0.188662033
 40
0.2205436266
 40
0.2525083437
 40
0.2845358343
 40
0.3166044929
 40
0.3486918936
 40
0.3807752384
 40
0.4128318095
 40
0.4448394218
 40
0.4767768664
 40
0.5086243418
 40
0.5403638639
 40
0.5719796493
 40
0.6034584635
 40
0.6347899281
 40
0.6659667781
 40
0.6969850622
 40
0.7278442783
 40
0.7585474376
 40
0.7891010512
 40
0.8195150346
 40
0.8498025274
 40
0.8649066426
 40
0.8799854039
 40
0.9100708284
 40
0.9400854823
 40
0.9550762294
 40
0.970057877
 40
1.0
 40
1.0
 40
1.0
 40
1.0
 10
7.8298000766
 20
9.3261190924
 30
0.0
 10
7.8298000766
 20
9.3212597406
 30
0.0
 10
7.8301625841
 20
9.3115126546
 30
0.0
 10
7.8317810386
 20
9.296938697
 30
0.0
 10
7.8344665174
 20
9.2824502968
 30
0.0
 10
7.8382041055
 20
9.2681280915
 30
0.0
 10
7.8429731482
 20
9.2540504213
 30
0.0
 10
7.8487473363
 20
9.2402946352
 30
0.0
 10
7.8554948724
 20
9.2269362019
 30
0.0
 10
7.8631786355
 20
9.2140484279
 30
0.0
 10
7.8717563895
 20
9.2017020271
 30
0.0
 10
7.8811810116
 20
9.1899647459
 30
0.0
 10
7.8914007497
 20
9.1789009937
 30
0.0
 10
7.9023595041
 20
9.1685714941
 30
0.0
 10
7.9139971324
 20
9.1590329544
 30
0.0
 10
7.9262497758
 20
9.1503377578
 30
0.0
 10
7.9390502059
 20
9.142533678
 30
0.0
 10
7.952328189
 20
9.135663619
 30
0.0
 10
7.9660108666
 20
9.1297653803
 30
0.0
 10
7.9800231502
 20
9.1248714501
 30
0.0
 10
7.994288127
 20
9.1210088258
 30
0.0
 10
8.0087274765
 20
9.1181988638
 30
0.0
 10
8.0232618952
 20
9.116457159
 30
0.0
 10
8.0378115221
 20
9.1157934526
 30
0.0
 10
8.0522963882
 20
9.1162115785
 30
0.0
 10
8.0666367932
 20
9.1177094081
 30
0.0
 10
8.0807539607
 20
9.1202789496
 30
0.0
 10
8.0945696575
 20
9.1239060203
 30
0.0
 10
8.1057805089
 20
9.1277978169
 30
0.0
 10
8.1145188235
 20
9.1314170904
 30
0.0
 10
8.1230802573
 20
9.1353620679
 30
0.0
 10
8.1334610246
 20
9.1409073692
 30
0.0
 10
8.1433604481
 20
9.1472469598
 30
0.0
 10
8.1509471725
 20
9.1527676649
 30
0.0
 10
8.1582997365
 20
9.1585774882
 30
0.0
 10
8.1635497507
 20
9.1632598861
 30
0.0
 10
8.1669174509
 20
9.166512857
 30
0.0
  0
SPLINE
  5
3C4
100
AcDbEntity
  8
0
100
AcDbSpline
 62
7
  6
CONTINUOUS
 70
0
 71
3
 72
48
 73
44
 74
0
 42
0.0000001
 43
0.0000001
 44
0.0000000001
 40
0.0
 40
0.0
 40
0.0
 40
0.0
 40
0.0958287078
 40
0.1428189802
 40
0.1890972253
 40
0.2345925351
 40
0.2792363692
 40
0.3229619627
 40
0.3657045591
 40
0.4074016611
 40
0.4479931951
 40
0.487421778
 40
0.5256329369
 40
0.5625753586
 40
0.5982011858
 40
0.6324663776
 40
0.665331128
 40
0.6967603047
 40
0.7267240134
 40
0.755198301
 40
0.7821660712
 40
0.8076181778
 40
0.819776277
 40
0.8315564256
 40
0.8429604214
 40
0.8539909461
 40
0.8646515232
 40
0.8749468216
 40
0.8848825944
 40
0.8944658812
 40
0.9037052143
 40
0.9126106219
 40
0.9211939867
 40
0.9294691045
 40
0.9374518915
 40
0.9451606619
 40
0.9598348196
 40
0.9668566843
 40
0.973703554
 40
0.9804067973
 40
0.987000038
 40
0.9935188112
 40
1.0
 40
1.0
 40
1.0
 40
1.0
 10
10.2053900485
 20
11.1796517238
 30
0.0
 10
10.228180296
 20
11.1780712148
 30
0.0
 10
10.2621215725
 20
11.1753372164
 30
0.0
 10
10.3069847208
 20
11.1709166798
 30
0.0
 10
10.3398647074
 20
11.1672720764
 30
0.0
 10
10.37214108
 20
11.1632829293
 30
0.0
 10
10.4037598689
 20
11.1589559215
 30
0.0
 10
10.4346682271
 20
11.1542983391
 30
0.0
 10
10.4648145096
 20
11.1493180063
 30
0.0
 10
10.4941483395
 20
11.1440232969
 30
0.0
 10
10.522620717
 20
11.1384231031
 30
0.0
 10
10.5501841031
 20
11.1325268488
 30
0.0
 10
10.5767925027
 20
11.1263444544
 30
0.0
 10
10.6024015362
 20
11.1198863177
 30
0.0
 10
10.6269685183
 20
11.1131632935
 30
0.0
 10
10.6504525483
 20
11.1061866787
 30
0.0
 10
10.6728145908
 20
11.0989682031
 30
0.0
 10
10.6940175543
 20
11.0915199779
 30
0.0
 10
10.7140263158
 20
11.0838544791
 30
0.0
 10
10.7328079581
 20
11.0759844682
 30
0.0
 10
10.7503313237
 20
11.0679230714
 30
0.0
 10
10.7640641692
 20
11.060954376
 30
0.0
 10
10.7743832699
 20
11.0552823015
 30
0.0
 10
10.7816716583
 20
11.0510538041
 30
0.0
 10
10.7886245991
 20
11.0467875967
 30
0.0
 10
10.7952392584
 20
11.0424854382
 30
0.0
 10
10.8015128647
 20
11.038149025
 30
0.0
 10
10.8074428662
 20
11.0337801781
 30
0.0
 10
10.8130268089
 20
11.0293806374
 30
0.0
 10
10.8182623666
 20
11.0249521358
 30
0.0
 10
10.8231474255
 20
11.0204964902
 30
0.0
 10
10.8276798905
 20
11.0160153837
 30
0.0
 10
10.831857919
 20
11.0115105665
 30
0.0
 10
10.8356796612
 20
11.0069838987
 30
0.0
 10
10.8391436493
 20
11.0024365839
 30
0.0
 10
10.8432154543
 20
10.9964486093
 30
0.0
 10
10.8466603289
 20
10.9903190864
 30
0.0
 10
10.8493897259
 20
10.9840812627
 30
0.0
 10
10.8510422958
 20
10.9794593403
 30
0.0
 10
10.8523288818
 20
10.9748283719
 30
0.0
 10
10.8532485915
 20
10.9701901707
 30
0.0
 10
10.8538006978
 20
10.9655474623
 30
0.0
 10
10.8539235709
 20
10.9624469678
 30
0.0
 10
10.8539235709
 20
10.9609018914
 30
0.0
  0
SPLINE
  5
3C5
100
AcDbEntity
  8
0
100
AcDbSpline
 62
4
  6
CONTINUOUS
 70
0
 71
3
 72
313
 73
309
 74
0
 42
0.0000001
 43
0.0000001
 44
0.0000000001
 40
0.0
 40
0.0
 40
0.0
 40
0.0
 40
0.015625
 40
0.0234375
 40
0.03125
 40
0.0390625
 40
0.046875
 40
0.05078125
 40
0.0546875
 40
0.056640625
 40
0.05859375
 40
0.060546875
 40
0.0615234375
 40
0.0620117188
 40
0.0625
 40
0.0629882812
 40
0.0634765625
 40
0.064453125
 40
0.06640625
 40
0.068359375
 40
0.0703125
 40
0.07421875
 40
0.078125
 40
0.0859375
 40
0.09375
 40
0.1015625
 40
0.109375
 40
0.11328125
 40
0.1171875
 40
0.119140625
 40
0.12109375
 40
0.123046875
 40
0.1240234375
 40
0.1245117188
 40
0.125
 40
0.1254882812
 40
0.1259765625
 40
0.126953125
 40
0.12890625
 40
0.130859375
 40
0.1328125
 40
0.13671875
 40
0.140625
 40
0.1484375
 40
0.15625
 40
0.1640625
 40
0.171875
 40
0.17578125
 40
0.1796875
 40
0.181640625
 40
0.18359375
 40
0.185546875
 40
0.1865234375
 40
0.1870117188
 40
0.1875
 40
0.1879882812
 40
0.1884765625
 40
0.189453125
 40
0.19140625
 40
0.193359375
 40
0.1953125
 40
0.19921875
 40
0.203125
 40
0.2109375
 40
0.21875
 40
0.2265625
 40
0.234375
 40
0.23828125
 40
0.2421875
 40
0.244140625
 40
0.24609375
 40
0.248046875
 40
0.2490234375
 40
0.2495117188
 40
0.25
 40
0.2504882812
 40
0.2509765625
 40
0.251953125
 40
0.25390625
 40
0.255859375
 40
0.2578125
 40
0.26171875
 40
0.265625
 40
0.2734375
 40
0.28125
 40
0.2890625
 40
0.296875
 40
0.30078125
 40
0.3046875
 40
0.306640625
 40
0.30859375
 40
0.310546875
 40
0.3115234375
 40
0.3120117188
 40
0.3125
 40
0.3129882812
 40
0.3134765625
 40
0.314453125
 40
0.31640625
 40
0.318359375
 40
0.3203125
 40
0.32421875
 40
0.328125
 40
0.3359375
 40
0.34375
 40
0.3515625
 40
0.359375
 40
0.36328125
 40
0.3671875
 40
0.369140625
 40
0.37109375
 40
0.373046875
 40
0.3740234375
 40
0.3745117188
 40
0.375
 40
0.3754882812
 40
0.3759765625
 40
0.376953125
 40
0.37890625
 40
0.380859375
 40
0.3828125
 40
0.38671875
 40
0.390625
 40
0.3984375
 40
0.40625
 40
0.4140625
 40
0.421875
 40
0.42578125
 40
0.4296875
 40
0.431640625
 40
0.43359375
 40
0.435546875
 40
0.4365234375
 40
0.4370117188
 40
0.4375
 40
0.4379882812
 40
0.4384765625
 40
0.439453125
 40
0.44140625
 40
0.443359375
 40
0.4453125
 40
0.44921875
 40
0.453125
 40
0.4609375
 40
0.46875
 40
0.4765625
 40
0.484375
 40
0.48828125
 40
0.4921875
 40
0.494140625
 40
0.49609375
 40
0.498046875
 40
0.4990234375
 40
0.4995117188
 40
0.5
 40
0.5004882812
 40
0.5009765625
 40
0.501953125
 40
0.50390625
 40
0.505859375
 40
0.5078125
 40
0.51171875
 40
0.515625
 40
0.5234375
 40
0.53125
 40
0.5390625
 40
0.546875
 40
0.55078125
 40
0.5546875
 40
0.556640625
 40
0.55859375
 40
0.560546875
 40
0.5615234375
 40
0.5620117188
 40
0.5625
 40
0.5629882812
 40
0.5634765625
 40
0.564453125
 40
0.56640625
 40
0.568359375
 40
0.5703125
 40
0.57421875
 40
0.578125
 40
0.5859375
 40
0.59375
 40
0.6015625
 40
0.609375
 40
0.61328125
 40
0.6171875
 40
0.619140625
 40
0.62109375
 40
0.623046875
 40
0.6240234375
 40
0.6245117188
 40
0.625
 40
0.6254882812
 40
0.6259765625
 40
0.626953125
 40
0.62890625
 40
0.630859375
 40
0.6328125
 40
0.63671875
 40
0.640625
 40
0.6484375
 40
0.65625
 40
0.6640625
 40
0.671875
 40
0.67578125
 40
0.6796875
 40
0.681640625
 40
0.68359375
 40
0.685546875
 40
0.6865234375
 40
0.6870117188
 40
0.6875
 40
0.6879882812
 40
0.6884765625
 40
0.689453125
 40
0.69140625
 40
0.693359375
 40
0.6953125
 40
0.69921875
 40
0.703125
 40
0.7109375
 40
0.71875
 40
0.7265625
 40
0.734375
 40
0.73828125
 40
0.7421875
 40
0.744140625
 40
0.74609375
 40
0.748046875
 40
0.7490234375
 40
0.7495117188
 40
0.75
 40
0.7504882812
 40
0.7509765625
 40
0.751953125
 40
0.75390625
 40
0.755859375
 40
0.7578125
 40
0.76171875
 40
0.765625
 40
0.7734375
 40
0.78125
 40
0.7890625
 40
0.796875
 40
0.80078125
 40
0.8046875
 40
0.806640625
 40
0.80859375
 40
0.810546875
 40
0.8115234375
 40
0.8120117188
 40
0.8125
 40
0.8129882812
 40
0.8134765625
 40
0.814453125
 40
0.81640625
 40
0.818359375
 40
0.8203125
 40
0.82421875
 40
0.828125
 40
0.8359375
 40
0.84375
 40
0.8515625
 40
0.859375
 40
0.86328125
 40
0.8671875
 40
0.869140625
 40
0.87109375
 40
0.873046875
 40
0.8740234375
 40
0.8745117188
 40
0.875
 40
0.8754882812
 40
0.8759765625
 40
0.876953125
 40
0.87890625
 40
0.880859375
 40
0.8828125
 40
0.88671875
 40
0.890625
 40
0.8984375
 40
0.90625
 40
0.9140625
 40
0.921875
 40
0.92578125
 40
0.9296875
 40
0.931640625
 40
0.93359375
 40
0.935546875
 40
0.9365234375
 40
0.9370117188
 40
0.9375
 40
0.9379882812
 40
0.9384765625
 40
0.939453125
 40
0.94140625
 40
0.943359375
 40
0.9453125
 40
0.94921875
 40
0.953125
 40
0.9609375
 40
0.96875
 40
0.9765625
 40
0.984375
 40
1.0
 40
1.0
 40
1.0
 40
1.0
 10
9.8213460643
 20
7.7257863045
 30
0.0
 10
9.8209876506
 20
7.7294665454
 30
0.0
 10
9.8204500305
 20
7.7349869068
 30
0.0
 10
9.8197332025
 20
7.7423473885
 30
0.0
 10
9.8191955844
 20
7.7478677501
 30
0.0
 10
9.8186579553
 20
7.7533881104
 30
0.0
 10
9.8182099651
 20
7.7579884149
 30
0.0
 10
9.8178514969
 20
7.7616686488
 30
0.0
 10
9.8176276272
 20
7.7639688172
 30
0.0
 10
9.8174481355
 20
7.765808901
 30
0.0
 10
9.8173146006
 20
7.7671891033
 30
0.0
 10
9.8171998737
 20
7.7683388283
 30
0.0
 10
9.8171263312
 20
7.7691445064
 30
0.0
 10
9.8170737418
 20
7.7696035345
 30
0.0
 10
9.8170640617
 20
7.7699516347
 30
0.0
 10
9.8169406166
 20
7.7702850984
 30
0.0
 10
9.8168157056
 20
7.7707348221
 30
0.0
 10
9.8165786226
 20
7.7715194598
 30
0.0
 10
9.8162495987
 20
7.7726416144
 30
0.0
 10
9.8158506326
 20
7.7739876676
 30
0.0
 10
9.8153201229
 20
7.7757825911
 30
0.0
 10
9.8146564911
 20
7.7780261819
 30
0.0
 10
9.8135949567
 20
7.7816159628
 30
0.0
 10
9.8122679432
 20
7.7861031764
 30
0.0
 10
9.8106755705
 20
7.791487839
 30
0.0
 10
9.8090831766
 20
7.7968724966
 30
0.0
 10
9.8077562161
 20
7.8013597226
 30
0.0
 10
9.8066945756
 20
7.8049494788
 30
0.0
 10
9.8060312133
 20
7.8071931322
 30
0.0
 10
9.8055001504
 20
7.8089879271
 30
0.0
 10
9.8051028747
 20
7.8103343735
 30
0.0
 10
9.804768562
 20
7.8114552981
 30
0.0
 10
9.8045409203
 20
7.8122421315
 30
0.0
 10
9.8044008819
 20
7.812688337
 30
0.0
 10
9.8043239035
 20
7.8130326074
 30
0.0
 10
9.8041397021
 20
7.8133401196
 30
0.0
 10
9.8039315008
 20
7.8137629575
 30
0.0
 10
9.803549723
 20
7.8144969499
 30
0.0
 10
9.8030134364
 20
7.8155486338
 30
0.0
 10
9.8023659929
 20
7.8168093177
 30
0.0
 10
9.801504097
 20
7.8184906964
 30
0.0
 10
9.8004262607
 20
7.8205922599
 30
0.0
 10
9.7987019834
 20
7.8239548509
 30
0.0
 10
9.7965465467
 20
7.8281580587
 30
0.0
 10
9.7939600638
 20
7.8332019225
 30
0.0
 10
9.7913735606
 20
7.838245778
 30
0.0
 10
9.7892181747
 20
7.8424490065
 30
0.0
 10
9.7874937959
 20
7.8458115561
 30
0.0
 10
9.7864162174
 20
7.8479132247
 30
0.0
 10
9.7855537924
 20
7.8495943876
 30
0.0
 10
9.7849079654
 20
7.8508557308
 30
0.0
 10
9.7843666213
 20
7.8519053519
 30
0.0
 10
9.7839938719
 20
7.8526430267
 30
0.0
 10
9.7837712048
 20
7.8530599646
 30
0.0
 10
9.7836314377
 20
7.8533855997
 30
0.0
 10
9.7833875715
 20
7.8536618035
 30
0.0
 10
9.7830987275
 20
7.8540473175
 30
0.0
 10
9.7825763326
 20
7.8547139335
 30
0.0
 10
9.7818388991
 20
7.8556704421
 30
0.0
 10
9.7809501929
 20
7.8568164546
 30
0.0
 10
9.7797665737
 20
7.8583450993
 30
0.0
 10
9.7782865969
 20
7.86025569
 30
0.0
 10
9.7759188872
 20
7.8633127555
 30
0.0
 10
9.7729591627
 20
7.8671340457
 30
0.0
 10
9.7694075326
 20
7.8717196138
 30
0.0
 10
9.7658558852
 20
7.8763051689
 30
0.0
 10
9.762896204
 20
7.8801264914
 30
0.0
 10
9.7605284077
 20
7.8831834921
 30
0.0
 10
9.7590486508
 20
7.8850942476
 30
0.0
 10
9.7578645804
 20
7.8866225542
 30
0.0
 10
9.7569772527
 20
7.8877695994
 30
0.0
 10
9.7562355063
 20
7.8887228771
 30
0.0
 10
9.7557208105
 20
7.8893952608
 30
0.0
 10
9.7554196306
 20
7.8897715334
 30
0.0
 10
9.7552136564
 20
7.8900761237
 30
0.0
 10
9.7549315734
 20
7.8902951442
 30
0.0
 10
9.7545820103
 20
7.8906170192
 30
0.0
 10
9.7539579059
 20
7.8911663938
 30
0.0
 10
9.7530727948
 20
7.8919584853
 30
0.0
 10
9.7520078936
 20
7.8929058831
 30
0.0
 10
9.7505889921
 20
7.894170167
 30
0.0
 10
9.7488150342
 20
7.8957501498
 30
0.0
 10
9.7459768866
 20
7.8982783303
 30
0.0
 10
9.7424291383
 20
7.901438484
 30
0.0
 10
9.7381718692
 20
7.9052307016
 30
0.0
 10
9.7339145866
 20
7.909022902
 30
0.0
 10
9.730366872
 20
7.9121830983
 30
0.0
 10
9.7275286569
 20
7.9147111937
 30
0.0
 10
9.7257548706
 20
7.9162913929
 30
0.0
 10
9.724335617
 20
7.9175552326
 30
0.0
 10
9.7232717915
 20
7.9185039878
 30
0.0
 10
9.7223833149
 20
7.919291832
 30
0.0
 10
9.7217652185
 20
7.9198487887
 30
0.0
 10
9.7214060291
 20
7.9201585154
 30
0.0
 10
9.7211535149
 20
7.9204148517
 30
0.0
 10
9.7208364851
 20
7.9205792899
 30
0.0
 10
9.7204362825
 20
7.9208305959
 30
0.0
 10
9.7197254429
 20
7.9212554463
 30
0.0
 10
9.7187154394
 20
7.9218701837
 30
0.0
 10
9.7175010889
 20
7.9226045265
 30
0.0
 10
9.7158827745
 20
7.9235848174
 30
0.0
 10
9.7138596008
 20
7.9248097815
 30
0.0
 10
9.7106226798
 20
7.9267699474
 30
0.0
 10
9.7065764745
 20
7.9292200775
 30
0.0
 10
9.7017210524
 20
7.9321602692
 30
0.0
 10
9.6968656198
 20
7.9351004422
 30
0.0
 10
9.6928194406
 20
7.9375506193
 30
0.0
 10
9.6895824673
 20
7.9395106912
 30
0.0
 10
9.6875594267
 20
7.9407358941
 30
0.0
 10
9.6859408391
 20
7.9417156947
 30
0.0
 10
9.684727323
 20
7.9424515357
 30
0.0
 10
9.6837147089
 20
7.9430615853
 30
0.0
 10
9.6830085298
 20
7.9434948043
 30
0.0
 10
9.6826008599
 20
7.9437327018
 30
0.0
 10
9.6823067669
 20
7.9439383264
 30
0.0
 10
9.6819681058
 20
7.9440399736
 30
0.0
 10
9.6815321035
 20
7.9442117717
 30
0.0
 10
9.6807618564
 20
7.9444955202
 30
0.0
 10
9.6796652901
 20
7.9449097098
 30
0.0
 10
9.6783477897
 20
7.9454029559
 30
0.0
 10
9.6765916886
 20
7.9460619381
 30
0.0
 10
9.6743963684
 20
7.9468852135
 30
0.0
 10
9.6708839645
 20
7.9482027072
 30
0.0
 10
9.6664934222
 20
7.9498494868
 30
0.0
 10
9.6612247883
 20
7.9518256625
 30
0.0
 10
9.6559561469
 20
7.9538018175
 30
0.0
 10
9.6515656234
 20
7.9554486488
 30
0.0
 10
9.648053182
 20
7.9567660391
 30
0.0
 10
9.6458579571
 20
7.9575895772
 30
0.0
 10
9.6441016605
 20
7.9582480203
 30
0.0
 10
9.6427847576
 20
7.9587429134
 30
0.0
 10
9.6416863217
 20
7.9591519499
 30
0.0
 10
9.6409194121
 20
7.9594448975
 30
0.0
 10
9.6404780623
 20
7.9596019563
 30
0.0
 10
9.6401558271
 20
7.959748878
 30
0.0
 10
9.6398000408
 20
7.9597844593
 30
0.0
 10
9.6393373621
 20
7.9598707379
 30
0.0
 10
9.6385222216
 20
7.9600036306
 30
0.0
 10
9.6373605859
 20
7.9602029374
 30
0.0
 10
9.6359654029
 20
7.9604380564
 30
0.0
 10
9.6341055851
 20
7.9607529626
 30
0.0
 10
9.6317806669
 20
7.9611461112
 30
0.0
 10
9.6280608794
 20
7.9617754197
 30
0.0
 10
9.623411117
 20
7.9625619617
 30
0.0
 10
9.6178314139
 20
7.9635058551
 30
0.0
 10
9.6122517085
 20
7.9644497263
 30
0.0
 10
9.6076019517
 20
7.9652363236
 30
0.0
 10
9.6038821531
 20
7.9658655216
 30
0.0
 10
9.6015572631
 20
7.9662589509
 30
0.0
 10
9.5996973874
 20
7.966573281
 30
0.0
 10
9.5983023813
 20
7.9668101602
 30
0.0
 10
9.5971401921
 20
7.9670039597
 30
0.0
 10
9.5963260398
 20
7.9671466839
 30
0.0
 10
9.5958617777
 20
7.9672172099
 30
0.0
 10
9.5955108547
 20
7.967301178
 30
0.0
 10
9.5951703538
 20
7.9672663671
 30
0.0
 10
9.5947127173
 20
7.967261384
 30
0.0
 10
9.5939135471
 20
7.9672333599
 30
0.0
 10
9.5927709899
 20
7.9672034176
 30
0.0
 10
9.5914003003
 20
7.9671631671
 30
0.0
 10
9.5895725818
 20
7.9671110086
 30
0.0
 10
9.587287979
 20
7.9670452938
 30
0.0
 10
9.5836325892
 20
7.966940439
 30
0.0
 10
9.5790633607
 20
7.9668092707
 30
0.0
 10
9.5735802822
 20
7.9666519143
 30
0.0
 10
9.5680972068
 20
7.9664945355
 30
0.0
 10
9.5635279705
 20
7.9663634234
 30
0.0
 10
9.5598725964
 20
7.9662584562
 30
0.0
 10
9.5575879534
 20
7.966193027
 30
0.0
 10
9.5557603174
 20
7.9661402824
 30
0.0
 10
9.5543893758
 20
7.9661018226
 30
0.0
 10
9.5532476071
 20
7.9660662776
 30
0.0
 10
9.5524470293
 20
7.9660482553
 30
0.0
 10
9.5519916482
 20
7.9660272467
 30
0.0
 10
9.5516442194
 20
7.9660416609
 30
0.0
 10
9.5513193166
 20
7.9659407479
 30
0.0
 10
9.5508782555
 20
7.9658464246
 30
0.0
 10
9.5501100596
 20
7.9656626161
 30
0.0
 10
9.5490107229
 20
7.9654098315
 30
0.0
 10
9.5476923381
 20
7.9651022957
 30
0.0
 10
9.5459342055
 20
7.964693713
 30
0.0
 10
9.5437366377
 20
7.9641824829
 30
0.0
 10
9.5402204745
 20
7.9633647953
 30
0.0
 10
9.5358252896
 20
7.9623425889
 30
0.0
 10
9.5305510585
 20
7.9611159853
 30
0.0
 10
9.5252768337
 20
7.9598893602
 30
0.0
 10
9.5208816328
 20
7.9588672079
 30
0.0
 10
9.5173655016
 20
7.958049412
 30
0.0
 10
9.5151678525
 20
7.9575384572
 30
0.0
 10
9.5134098869
 20
7.9571293095
 30
0.0
 10
9.5120909917
 20
7.9568234995
 30
0.0
 10
9.5109932518
 20
7.9565653154
 30
0.0
 10
9.5102222054
 20
7.956391146
 30
0.0
 10
9.5097857116
 20
7.9562813785
 30
0.0
 10
9.5094467797
 20
7.9562279051
 30
0.0
 10
9.5091520419
 20
7.9560641438
 30
0.0
 10
9.5087436428
 20
7.9558842651
 30
0.0
 10
9.5080361267
 20
7.9555515537
 30
0.0
 10
9.5070216344
 20
7.9550856223
 30
0.0
 10
9.5058058509
 20
7.9545224937
 30
0.0
 10
9.5041842449
 20
7.9537730566
 30
0.0
 10
9.5021574296
 20
7.9528357804
 30
0.0
 10
9.4989144177
 20
7.9513364068
 30
0.0
 10
9.4948606899
 20
7.9494620971
 30
0.0
 10
9.4899961993
 20
7.9472129677
 30
0.0
 10
9.4851317184
 20
7.9449638174
 30
0.0
 10
9.4810779664
 20
7.9430895601
 30
0.0
 10
9.4778350029
 20
7.9415900817
 30
0.0
 10
9.4758080646
 20
7.9406530718
 30
0.0
 10
9.474186711
 20
7.9399030881
 30
0.0
 10
9.4729701562
 20
7.9393416294
 30
0.0
 10
9.4719580773
 20
7.9388704732
 30
0.0
 10
9.4712462528
 20
7.938547089
 30
0.0
 10
9.4708447569
 20
7.9383522658
 30
0.0
 10
9.4705288147
 20
7.9382344093
 30
0.0
 10
9.4702695231
 20
7.9380085251
 30
0.0
 10
9.4699040405
 20
7.9377450274
 30
0.0
 10
9.4692736527
 20
7.93726635
 30
0.0
 10
9.4683682853
 20
7.9365917039
 30
0.0
 10
9.4672839048
 20
7.9357781998
 30
0.0
 10
9.4658373444
 20
7.9346948999
 30
0.0
 10
9.4640293903
 20
7.9333403051
 30
0.0
 10
9.4611365261
 20
7.9311732162
 30
0.0
 10
9.4575204935
 20
7.9284642645
 30
0.0
 10
9.4531812318
 20
7.9252135632
 30
0.0
 10
9.4488419843
 20
7.9219628436
 30
0.0
 10
9.4452259163
 20
7.9192539376
 30
0.0
 10
9.4423331229
 20
7.9170867572
 30
0.0
 10
9.4405249889
 20
7.9157323948
 30
0.0
 10
9.4390787978
 20
7.9146486181
 30
0.0
 10
9.437993289
 20
7.9138365707
 30
0.0
 10
9.4370914516
 20
7.9131573669
 30
0.0
 10
9.4364547622
 20
7.9126868257
 30
0.0
 10
9.4360993765
 20
7.9124102919
 30
0.0
 10
9.4358090706
 20
7.9122244504
 30
0.0
 10
9.4356096126
 20
7.9119561999
 30
0.0
 10
9.4353119799
 20
7.9116272777
 30
0.0
 10
9.434805887
 20
7.9110382709
 30
0.0
 10
9.4340751782
 20
7.9102038347
 30
0.0
 10
9.4332016316
 20
7.9091995142
 30
0.0
 10
9.4320357488
 20
7.9078614669
 30
0.0
 10
9.4305787904
 20
7.9061885494
 30
0.0
 10
9.4282474361
 20
7.9035120818
 30
0.0
 10
9.4253333195
 20
7.9001664281
 30
0.0
 10
9.4218363446
 20
7.8961516751
 30
0.0
 10
9.4183393877
 20
7.8921369073
 30
0.0
 10
9.4154252262
 20
7.8887912905
 30
0.0
 10
9.4130939618
 20
7.8861147491
 30
0.0
 10
9.411636775
 20
7.884442019
 30
0.0
 10
9.410471361
 20
7.8831035872
 30
0.0
 10
9.4095963823
 20
7.8821004416
 30
0.0
 10
9.4088701541
 20
7.8812623292
 30
0.0
 10
9.4083560625
 20
7.8806798851
 30
0.0
 10
9.4080712458
 20
7.8803404479
 30
0.0
 10
9.4078324214
 20
7.8801044962
 30
0.0
 10
9.4076899693
 20
7.8797973455
 30
0.0
 10
9.4074664174
 20
7.8794126462
 30
0.0
 10
9.4070908639
 20
7.8787278513
 30
0.0
 10
9.4065461705
 20
7.8777556225
 30
0.0
 10
9.4058960432
 20
7.8765863585
 30
0.0
 10
9.4050279827
 20
7.8750282442
 30
0.0
 10
9.4039433263
 20
7.8730802918
 30
0.0
 10
9.4022076416
 20
7.8699637409
 30
0.0
 10
9.4000381168
 20
7.8660679926
 30
0.0
 10
9.3974346497
 20
7.8613931215
 30
0.0
 10
9.3948312022
 20
7.8567182386
 30
0.0
 10
9.3926616285
 20
7.8528225199
 30
0.0
 10
9.3909260415
 20
7.84970591
 30
0.0
 10
9.3898411369
 20
7.8477581077
 30
0.0
 10
9.3889735857
 20
7.8461996851
 30
0.0
 10
9.3883219023
 20
7.8450313634
 30
0.0
 10
9.3877820777
 20
7.8440561862
 30
0.0
 10
9.3873978325
 20
7.8433766546
 30
0.0
 10
9.3871882069
 20
7.8429835223
 30
0.0
 10
9.3870029778
 20
7.842702275
 30
0.0
 10
9.3869248168
 20
7.8423690344
 30
0.0
 10
9.3867832556
 20
7.8419428494
 30
0.0
 10
9.3865529239
 20
7.8411885758
 30
0.0
 10
9.3862147814
 20
7.8401154598
 30
0.0
 10
9.3858129043
 20
7.8388258296
 30
0.0
 10
9.3852757082
 20
7.8371069833
 30
0.0
 10
9.3846046787
 20
7.8349581991
 30
0.0
 10
9.3835307711
 20
7.831520271
 30
0.0
 10
9.3821884766
 20
7.8272228171
 30
0.0
 10
9.3805776819
 20
7.8220658922
 30
0.0
 10
9.3789669084
 20
7.8169089583
 30
0.0
 10
9.3776245609
 20
7.8126115269
 30
0.0
 10
9.3765507593
 20
7.8091735539
 30
0.0
 10
9.3758794605
 20
7.8070248838
 30
0.0
 10
9.375342817
 20
7.8053058034
 30
0.0
 10
9.3749392515
 20
7.804016888
 30
0.0
 10
9.3746063918
 20
7.802941536
 30
0.0
 10
9.3743666295
 20
7.802191254
 30
0.0
 10
9.3742401784
 20
7.8017586735
 30
0.0
 10
9.3741156038
 20
7.8014450777
 30
0.0
 10
9.3741046963
 20
7.8010900476
 30
0.0
 10
9.3740505047
 20
7.8006311269
 30
0.0
 10
9.3739741422
 20
7.7998212818
 30
0.0
 10
9.373855395
 20
7.7986678807
 30
0.0
 10
9.3737170323
 20
7.7972822926
 30
0.0
 10
9.3735311049
 20
7.7954353681
 30
0.0
 10
9.3732991899
 20
7.7931265322
 30
0.0
 10
9.3729278497
 20
7.7894324956
 30
0.0
 10
9.3724637692
 20
7.7848149152
 30
0.0
 10
9.371906832
 20
7.7792738335
 30
0.0
 10
9.3713499056
 20
7.7737327479
 30
0.0
 10
9.3706073333
 20
7.7663446351
 30
0.0
 10
9.370050405
 20
7.7608035503
 30
0.0
 10
9.3696791192
 20
7.7571094937
 30
0.0
  0
SPLINE
  5
3C6
100
AcDbEntity
  8
0
100
AcDbSpline
 62
4
  6
CONTINUOUS
 70
0
 71
3
 72
313
 73
309
 74
0
 42
0.0000001
 43
0.0000001
 44
0.0000000001
 40
0.0
 40
0.0
 40
0.0
 40
0.0
 40
0.015625
 40
0.0234375
 40
0.03125
 40
0.0390625
 40
0.046875
 40
0.05078125
 40
0.0546875
 40
0.056640625
 40
0.05859375
 40
0.060546875
 40
0.0615234375
 40
0.0620117188
 40
0.0625
 40
0.0629882812
 40
0.0634765625
 40
0.064453125
 40
0.06640625
 40
0.068359375
 40
0.0703125
 40
0.07421875
 40
0.078125
 40
0.0859375
 40
0.09375
 40
0.1015625
 40
0.109375
 40
0.11328125
 40
0.1171875
 40
0.119140625
 40
0.12109375
 40
0.123046875
 40
0.1240234375
 40
0.1245117188
 40
0.125
 40
0.1254882812
 40
0.1259765625
 40
0.126953125
 40
0.12890625
 40
0.130859375
 40
0.1328125
 40
0.13671875
 40
0.140625
 40
0.1484375
 40
0.15625
 40
0.1640625
 40
0.171875
 40
0.17578125
 40
0.1796875
 40
0.181640625
 40
0.18359375
 40
0.185546875
 40
0.1865234375
 40
0.1870117188
 40
0.1875
 40
0.1879882812
 40
0.1884765625
 40
0.189453125
 40
0.19140625
 40
0.193359375
 40
0.1953125
 40
0.19921875
 40
0.203125
 40
0.2109375
 40
0.21875
 40
0.2265625
 40
0.234375
 40
0.23828125
 40
0.2421875
 40
0.244140625
 40
0.24609375
 40
0.248046875
 40
0.2490234375
 40
0.2495117188
 40
0.25
 40
0.2504882812
 40
0.2509765625
 40
0.251953125
 40
0.25390625
 40
0.255859375
 40
0.2578125
 40
0.26171875
 40
0.265625
 40
0.2734375
 40
0.28125
 40
0.2890625
 40
0.296875
 40
0.30078125
 40
0.3046875
 40
0.306640625
 40
0.30859375
 40
0.310546875
 40
0.3115234375
 40
0.3120117188
 40
0.3125
 40
0.3129882812
 40
0.3134765625
 40
0.314453125
 40
0.31640625
 40
0.318359375
 40
0.3203125
 40
0.32421875
 40
0.328125
 40
0.3359375
 40
0.34375
 40
0.3515625
 40
0.359375
 40
0.36328125
 40
0.3671875
 40
0.369140625
 40
0.37109375
 40
0.373046875
 40
0.3740234375
 40
0.3745117188
 40
0.375
 40
0.3754882812
 40
0.3759765625
 40
0.376953125
 40
0.37890625
 40
0.380859375
 40
0.3828125
 40
0.38671875
 40
0.390625
 40
0.3984375
 40
0.40625
 40
0.4140625
 40
0.421875
 40
0.42578125
 40
0.4296875
 40
0.431640625
 40
0.43359375
 40
0.435546875
 40
0.4365234375
 40
0.4370117188
 40
0.4375
 40
0.4379882812
 40
0.4384765625
 40
0.439453125
 40
0.44140625
 40
0.443359375
 40
0.4453125
 40
0.44921875
 40
0.453125
 40
0.4609375
 40
0.46875
 40
0.4765625
 40
0.484375
 40
0.48828125
 40
0.4921875
 40
0.494140625
 40
0.49609375
 40
0.498046875
 40
0.4990234375
 40
0.4995117188
 40
0.5
 40
0.5004882812
 40
0.5009765625
 40
0.501953125
 40
0.50390625
 40
0.505859375
 40
0.5078125
 40
0.51171875
 40
0.515625
 40
0.5234375
 40
0.53125
 40
0.5390625
 40
0.546875
 40
0.55078125
 40
0.5546875
 40
0.556640625
 40
0.55859375
 40
0.560546875
 40
0.5615234375
 40
0.5620117188
 40
0.5625
 40
0.5629882812
 40
0.5634765625
 40
0.564453125
 40
0.56640625
 40
0.568359375
 40
0.5703125
 40
0.57421875
 40
0.578125
 40
0.5859375
 40
0.59375
 40
0.6015625
 40
0.609375
 40
0.61328125
 40
0.6171875
 40
0.619140625
 40
0.62109375
 40
0.623046875
 40
0.6240234375
 40
0.6245117188
 40
0.625
 40
0.6254882812
 40
0.6259765625
 40
0.626953125
 40
0.62890625
 40
0.630859375
 40
0.6328125
 40
0.63671875
 40
0.640625
 40
0.6484375
 40
0.65625
 40
0.6640625
 40
0.671875
 40
0.67578125
 40
0.6796875
 40
0.681640625
 40
0.68359375
 40
0.685546875
 40
0.6865234375
 40
0.6870117188
 40
0.6875
 40
0.6879882812
 40
0.6884765625
 40
0.689453125
 40
0.69140625
 40
0.693359375
 40
0.6953125
 40
0.69921875
 40
0.703125
 40
0.7109375
 40
0.71875
 40
0.7265625
 40
0.734375
 40
0.73828125
 40
0.7421875
 40
0.744140625
 40
0.74609375
 40
0.748046875
 40
0.7490234375
 40
0.7495117188
 40
0.75
 40
0.7504882812
 40
0.7509765625
 40
0.751953125
 40
0.75390625
 40
0.755859375
 40
0.7578125
 40
0.76171875
 40
0.765625
 40
0.7734375
 40
0.78125
 40
0.7890625
 40
0.796875
 40
0.80078125
 40
0.8046875
 40
0.806640625
 40
0.80859375
 40
0.810546875
 40
0.8115234375
 40
0.8120117188
 40
0.8125
 40
0.8129882812
 40
0.8134765625
 40
0.814453125
 40
0.81640625
 40
0.818359375
 40
0.8203125
 40
0.82421875
 40
0.828125
 40
0.8359375
 40
0.84375
 40
0.8515625
 40
0.859375
 40
0.86328125
 40
0.8671875
 40
0.869140625
 40
0.87109375
 40
0.873046875
 40
0.8740234375
 40
0.8745117188
 40
0.875
 40
0.8754882812
 40
0.8759765625
 40
0.876953125
 40
0.87890625
 40
0.880859375
 40
0.8828125
 40
0.88671875
 40
0.890625
 40
0.8984375
 40
0.90625
 40
0.9140625
 40
0.921875
 40
0.92578125
 40
0.9296875
 40
0.931640625
 40
0.93359375
 40
0.935546875
 40
0.9365234375
 40
0.9370117188
 40
0.9375
 40
0.9379882812
 40
0.9384765625
 40
0.939453125
 40
0.94140625
 40
0.943359375
 40
0.9453125
 40
0.94921875
 40
0.953125
 40
0.9609375
 40
0.96875
 40
0.9765625
 40
0.984375
 40
1.0
 40
1.0
 40
1.0
 40
1.0
 10
9.3696791192
 20
7.7571095135
 30
0.0
 10
9.3700375328
 20
7.7534292726
 30
0.0
 10
9.370575153
 20
7.7479089112
 30
0.0
 10
9.3712919809
 20
7.7405484295
 30
0.0
 10
9.3718295991
 20
7.7350280678
 30
0.0
 10
9.3723672281
 20
7.7295077076
 30
0.0
 10
9.3728152184
 20
7.724907403
 30
0.0
 10
9.3731736865
 20
7.7212271691
 30
0.0
 10
9.3733975563
 20
7.7189270007
 30
0.0
 10
9.3735770479
 20
7.7170869169
 30
0.0
 10
9.3737105828
 20
7.7157067146
 30
0.0
 10
9.3738253097
 20
7.7145569896
 30
0.0
 10
9.3738988523
 20
7.7137513116
 30
0.0
 10
9.3739514416
 20
7.7132922834
 30
0.0
 10
9.3739611218
 20
7.7129441832
 30
0.0
 10
9.3740845669
 20
7.7126107195
 30
0.0
 10
9.3742094779
 20
7.7121609959
 30
0.0
 10
9.3744465609
 20
7.7113763582
 30
0.0
 10
9.3747755848
 20
7.7102542036
 30
0.0
 10
9.3751745508
 20
7.7089081503
 30
0.0
 10
9.3757050605
 20
7.7071132268
 30
0.0
 10
9.3763686924
 20
7.704869636
 30
0.0
 10
9.3774302268
 20
7.7012798552
 30
0.0
 10
9.3787572403
 20
7.6967926415
 30
0.0
 10
9.380349613
 20
7.691407979
 30
0.0
 10
9.3819420069
 20
7.6860233213
 30
0.0
 10
9.3832689674
 20
7.6815360954
 30
0.0
 10
9.3843306078
 20
7.6779463392
 30
0.0
 10
9.3849939701
 20
7.6757026857
 30
0.0
 10
9.3855250331
 20
7.6739078908
 30
0.0
 10
9.3859223088
 20
7.6725614445
 30
0.0
 10
9.3862566215
 20
7.6714405199
 30
0.0
 10
9.3864842631
 20
7.6706536864
 30
0.0
 10
9.3866243015
 20
7.6702074809
 30
0.0
 10
9.3867012799
 20
7.6698632106
 30
0.0
 10
9.3868854813
 20
7.6695556984
 30
0.0
 10
9.3870936826
 20
7.6691328605
 30
0.0
 10
9.3874754605
 20
7.668398868
 30
0.0
 10
9.3880117471
 20
7.6673471841
 30
0.0
 10
9.3886591906
 20
7.6660865003
 30
0.0
 10
9.3895210865
 20
7.6644051216
 30
0.0
 10
9.3905989227
 20
7.6623035581
 30
0.0
 10
9.3923232001
 20
7.6589409671
 30
0.0
 10
9.3944786367
 20
7.6547377593
 30
0.0
 10
9.3970651196
 20
7.6496938955
 30
0.0
 10
9.3996516228
 20
7.64465004
 30
0.0
 10
9.4018070088
 20
7.6404468115
 30
0.0
 10
9.4035313875
 20
7.6370842619
 30
0.0
 10
9.404608966
 20
7.6349825932
 30
0.0
 10
9.405471391
 20
7.6333014303
 30
0.0
 10
9.406117218
 20
7.6320400872
 30
0.0
 10
9.4066585621
 20
7.630990466
 30
0.0
 10
9.4070313116
 20
7.6302527912
 30
0.0
 10
9.4072539786
 20
7.6298358533
 30
0.0
 10
9.4073937457
 20
7.6295102183
 30
0.0
 10
9.4076376119
 20
7.6292340144
 30
0.0
 10
9.4079264559
 20
7.6288485004
 30
0.0
 10
9.4084488508
 20
7.6281818844
 30
0.0
 10
9.4091862844
 20
7.6272253759
 30
0.0
 10
9.4100749905
 20
7.6260793633
 30
0.0
 10
9.4112586097
 20
7.6245507187
 30
0.0
 10
9.4127385865
 20
7.6226401279
 30
0.0
 10
9.4151062963
 20
7.6195830624
 30
0.0
 10
9.4180660207
 20
7.6157617723
 30
0.0
 10
9.4216176509
 20
7.6111762042
 30
0.0
 10
9.4251692983
 20
7.606590649
 30
0.0
 10
9.4281289795
 20
7.6027693265
 30
0.0
 10
9.4304967757
 20
7.5997123258
 30
0.0
 10
9.4319765327
 20
7.5978015703
 30
0.0
 10
9.4331606031
 20
7.5962732637
 30
0.0
 10
9.4340479308
 20
7.5951262185
 30
0.0
 10
9.4347896772
 20
7.5941729409
 30
0.0
 10
9.435304373
 20
7.5935005572
 30
0.0
 10
9.4356055529
 20
7.5931242845
 30
0.0
 10
9.4358115271
 20
7.5928196943
 30
0.0
 10
9.4360936101
 20
7.5926006738
 30
0.0
 10
9.4364431732
 20
7.5922787988
 30
0.0
 10
9.4370672776
 20
7.5917294241
 30
0.0
 10
9.4379523886
 20
7.5909373326
 30
0.0
 10
9.4390172898
 20
7.5899899349
 30
0.0
 10
9.4404361913
 20
7.5887256509
 30
0.0
 10
9.4422101492
 20
7.5871456682
 30
0.0
 10
9.4450482968
 20
7.5846174876
 30
0.0
 10
9.4485960452
 20
7.5814573339
 30
0.0
 10
9.4528533143
 20
7.5776651164
 30
0.0
 10
9.4571105968
 20
7.5738729159
 30
0.0
 10
9.4606583114
 20
7.5707127196
 30
0.0
 10
9.4634965265
 20
7.5681846243
 30
0.0
 10
9.4652703129
 20
7.566604425
 30
0.0
 10
9.4666895664
 20
7.5653405854
 30
0.0
 10
9.467753392
 20
7.5643918301
 30
0.0
 10
9.4686418685
 20
7.5636039859
 30
0.0
 10
9.469259965
 20
7.5630470292
 30
0.0
 10
9.4696191543
 20
7.5627373025
 30
0.0
 10
9.4698716685
 20
7.5624809662
 30
0.0
 10
9.4701886983
 20
7.5623165281
 30
0.0
 10
9.470588901
 20
7.5620652221
 30
0.0
 10
9.4712997406
 20
7.5616403716
 30
0.0
 10
9.472309744
 20
7.5610256342
 30
0.0
 10
9.4735240945
 20
7.5602912915
 30
0.0
 10
9.475142409
 20
7.5593110005
 30
0.0
 10
9.4771655826
 20
7.5580860365
 30
0.0
 10
9.4804025036
 20
7.5561258706
 30
0.0
 10
9.4844487089
 20
7.5536757405
 30
0.0
 10
9.4893041311
 20
7.5507355487
 30
0.0
 10
9.4941595637
 20
7.5477953758
 30
0.0
 10
9.4982057428
 20
7.5453451986
 30
0.0
 10
9.5014427162
 20
7.5433851268
 30
0.0
 10
9.5034657568
 20
7.5421599238
 30
0.0
 10
9.5050843444
 20
7.5411801232
 30
0.0
 10
9.5062978604
 20
7.5404442822
 30
0.0
 10
9.5073104745
 20
7.5398342326
 30
0.0
 10
9.5080166537
 20
7.5394010137
 30
0.0
 10
9.5084243235
 20
7.5391631161
 30
0.0
 10
9.5087184165
 20
7.5389574916
 30
0.0
 10
9.5090570776
 20
7.5388558443
 30
0.0
 10
9.5094930799
 20
7.5386840462
 30
0.0
 10
9.5102633271
 20
7.5384002977
 30
0.0
 10
9.5113598934
 20
7.5379861081
 30
0.0
 10
9.5126773938
 20
7.5374928621
 30
0.0
 10
9.5144334948
 20
7.5368338799
 30
0.0
 10
9.516628815
 20
7.5360106044
 30
0.0
 10
9.5201412189
 20
7.5346931108
 30
0.0
 10
9.5245317612
 20
7.5330463311
 30
0.0
 10
9.5298003951
 20
7.5310701555
 30
0.0
 10
9.5350690365
 20
7.5290940004
 30
0.0
 10
9.53945956
 20
7.5274471691
 30
0.0
 10
9.5429720014
 20
7.5261297789
 30
0.0
 10
9.5451672263
 20
7.5253062407
 30
0.0
 10
9.546923523
 20
7.5246477976
 30
0.0
 10
9.5482404258
 20
7.5241529046
 30
0.0
 10
9.5493388617
 20
7.5237438681
 30
0.0
 10
9.5501057713
 20
7.5234509204
 30
0.0
 10
9.5505471212
 20
7.5232938616
 30
0.0
 10
9.5508693563
 20
7.52314694
 30
0.0
 10
9.5512251426
 20
7.5231113586
 30
0.0
 10
9.5516878214
 20
7.5230250801
 30
0.0
 10
9.5525029619
 20
7.5228921874
 30
0.0
 10
9.5536645975
 20
7.5226928805
 30
0.0
 10
9.5550597805
 20
7.5224577616
 30
0.0
 10
9.5569195983
 20
7.5221428553
 30
0.0
 10
9.5592445165
 20
7.5217497067
 30
0.0
 10
9.5629643041
 20
7.5211203983
 30
0.0
 10
9.5676140665
 20
7.5203338563
 30
0.0
 10
9.5731937696
 20
7.5193899629
 30
0.0
 10
9.5787734749
 20
7.5184460916
 30
0.0
 10
9.5834232317
 20
7.5176594944
 30
0.0
 10
9.5871430304
 20
7.5170302963
 30
0.0
 10
9.5894679204
 20
7.5166368671
 30
0.0
 10
9.5913277961
 20
7.5163225369
 30
0.0
 10
9.5927228022
 20
7.5160856577
 30
0.0
 10
9.5938849914
 20
7.5158918582
 30
0.0
 10
9.5946991437
 20
7.515749134
 30
0.0
 10
9.5951634057
 20
7.515678608
 30
0.0
 10
9.5955143287
 20
7.5155946399
 30
0.0
 10
9.5958548296
 20
7.5156294509
 30
0.0
 10
9.5963124662
 20
7.515634434
 30
0.0
 10
9.5971116363
 20
7.5156624581
 30
0.0
 10
9.5982541935
 20
7.5156924003
 30
0.0
 10
9.5996248831
 20
7.5157326508
 30
0.0
 10
9.6014526016
 20
7.5157848094
 30
0.0
 10
9.6037372044
 20
7.5158505241
 30
0.0
 10
9.6073925943
 20
7.5159553789
 30
0.0
 10
9.6119618228
 20
7.5160865472
 30
0.0
 10
9.6174449013
 20
7.5162439036
 30
0.0
 10
9.6229279766
 20
7.5164012825
 30
0.0
 10
9.627497213
 20
7.5165323945
 30
0.0
 10
9.631152587
 20
7.5166373617
 30
0.0
 10
9.63343723
 20
7.5167027909
 30
0.0
 10
9.635264866
 20
7.5167555356
 30
0.0
 10
9.6366358077
 20
7.5167939954
 30
0.0
 10
9.6377775763
 20
7.5168295404
 30
0.0
 10
9.6385781541
 20
7.5168475626
 30
0.0
 10
9.6390335352
 20
7.5168685712
 30
0.0
 10
9.6393809641
 20
7.5168541571
 30
0.0
 10
9.6397058669
 20
7.5169550701
 30
0.0
 10
9.6401469279
 20
7.5170493934
 30
0.0
 10
9.6409151238
 20
7.5172332018
 30
0.0
 10
9.6420144606
 20
7.5174859865
 30
0.0
 10
9.6433328454
 20
7.5177935222
 30
0.0
 10
9.645090978
 20
7.518202105
 30
0.0
 10
9.6472885457
 20
7.518713335
 30
0.0
 10
9.6508047089
 20
7.5195310227
 30
0.0
 10
9.6551998938
 20
7.5205532291
 30
0.0
 10
9.660474125
 20
7.5217798326
 30
0.0
 10
9.6657483497
 20
7.5230064578
 30
0.0
 10
9.6701435507
 20
7.52402861
 30
0.0
 10
9.6736596818
 20
7.524846406
 30
0.0
 10
9.675857331
 20
7.5253573608
 30
0.0
 10
9.6776152965
 20
7.5257665084
 30
0.0
 10
9.6789341917
 20
7.5260723184
 30
0.0
 10
9.6800319316
 20
7.5263305026
 30
0.0
 10
9.6808029781
 20
7.526504672
 30
0.0
 10
9.6812394719
 20
7.5266144395
 30
0.0
 10
9.6815784038
 20
7.5266679129
 30
0.0
 10
9.6818731415
 20
7.5268316741
 30
0.0
 10
9.6822815406
 20
7.5270115528
 30
0.0
 10
9.6829890567
 20
7.5273442643
 30
0.0
 10
9.684003549
 20
7.5278101956
 30
0.0
 10
9.6852193325
 20
7.5283733242
 30
0.0
 10
9.6868409385
 20
7.5291227614
 30
0.0
 10
9.6888677538
 20
7.5300600375
 30
0.0
 10
9.6921107658
 20
7.5315594112
 30
0.0
 10
9.6961644935
 20
7.5334337209
 30
0.0
 10
9.7010289841
 20
7.5356828502
 30
0.0
 10
9.7058934651
 20
7.5379320005
 30
0.0
 10
9.709947217
 20
7.5398062578
 30
0.0
 10
9.7131901806
 20
7.5413057363
 30
0.0
 10
9.7152171189
 20
7.5422427461
 30
0.0
 10
9.7168384724
 20
7.5429927299
 30
0.0
 10
9.7180550273
 20
7.5435541885
 30
0.0
 10
9.7190671061
 20
7.5440253447
 30
0.0
 10
9.7197789306
 20
7.5443487289
 30
0.0
 10
9.7201804265
 20
7.5445435522
 30
0.0
 10
9.7204963687
 20
7.5446614086
 30
0.0
 10
9.7207556604
 20
7.5448872929
 30
0.0
 10
9.721121143
 20
7.5451507905
 30
0.0
 10
9.7217515308
 20
7.5456294679
 30
0.0
 10
9.7226568981
 20
7.546304114
 30
0.0
 10
9.7237412787
 20
7.5471176181
 30
0.0
 10
9.7251878391
 20
7.548200918
 30
0.0
 10
9.7269957931
 20
7.5495555128
 30
0.0
 10
9.7298886574
 20
7.5517226017
 30
0.0
 10
9.7335046899
 20
7.5544315535
 30
0.0
 10
9.7378439516
 20
7.5576822548
 30
0.0
 10
9.7421831992
 20
7.5609329743
 30
0.0
 10
9.7457992671
 20
7.5636418804
 30
0.0
 10
9.7486920606
 20
7.5658090607
 30
0.0
 10
9.7505001946
 20
7.5671634232
 30
0.0
 10
9.7519463856
 20
7.5682471999
 30
0.0
 10
9.7530318944
 20
7.5690592473
 30
0.0
 10
9.7539337318
 20
7.569738451
 30
0.0
 10
9.7545704213
 20
7.5702089923
 30
0.0
 10
9.754925807
 20
7.5704855261
 30
0.0
 10
9.7552161129
 20
7.5706713675
 30
0.0
 10
9.7554155708
 20
7.5709396181
 30
0.0
 10
9.7557132036
 20
7.5712685403
 30
0.0
 10
9.7562192964
 20
7.571857547
 30
0.0
 10
9.7569500053
 20
7.5726919832
 30
0.0
 10
9.7578235519
 20
7.5736963038
 30
0.0
 10
9.7589894347
 20
7.575034351
 30
0.0
 10
9.760446393
 20
7.5767072685
 30
0.0
 10
9.7627777474
 20
7.5793837361
 30
0.0
 10
9.7656918639
 20
7.5827293898
 30
0.0
 10
9.7691888388
 20
7.5867441429
 30
0.0
 10
9.7726857957
 20
7.5907589107
 30
0.0
 10
9.7755999572
 20
7.5941045275
 30
0.0
 10
9.7779312217
 20
7.5967810688
 30
0.0
 10
9.7793884084
 20
7.5984537989
 30
0.0
 10
9.7805538225
 20
7.5997922308
 30
0.0
 10
9.7814288012
 20
7.6007953763
 30
0.0
 10
9.7821550293
 20
7.6016334888
 30
0.0
 10
9.7826691209
 20
7.6022159328
 30
0.0
 10
9.7829539377
 20
7.6025553701
 30
0.0
 10
9.7831927621
 20
7.6027913217
 30
0.0
 10
9.7833352142
 20
7.6030984725
 30
0.0
 10
9.783558766
 20
7.6034831718
 30
0.0
 10
9.7839343196
 20
7.6041679666
 30
0.0
 10
9.784479013
 20
7.6051401955
 30
0.0
 10
9.7851291402
 20
7.6063094595
 30
0.0
 10
9.7859972007
 20
7.6078675737
 30
0.0
 10
9.7870818572
 20
7.6098155262
 30
0.0
 10
9.7888175418
 20
7.612932077
 30
0.0
 10
9.7909870667
 20
7.6168278253
 30
0.0
 10
9.7935905337
 20
7.6215026964
 30
0.0
 10
9.7961939813
 20
7.6261775793
 30
0.0
 10
9.7983635549
 20
7.630073298
 30
0.0
 10
9.800099142
 20
7.633189908
 30
0.0
 10
9.8011840466
 20
7.6351377102
 30
0.0
 10
9.8020515977
 20
7.6366961329
 30
0.0
 10
9.8027032811
 20
7.6378644546
 30
0.0
 10
9.8032431057
 20
7.6388396317
 30
0.0
 10
9.8036273509
 20
7.6395191633
 30
0.0
 10
9.8038369765
 20
7.6399122956
 30
0.0
 10
9.8040222056
 20
7.6401935429
 30
0.0
 10
9.8041003666
 20
7.6405267836
 30
0.0
 10
9.8042419279
 20
7.6409529686
 30
0.0
 10
9.8044722596
 20
7.6417072421
 30
0.0
 10
9.804810402
 20
7.6427803582
 30
0.0
 10
9.8052122791
 20
7.6440699883
 30
0.0
 10
9.8057494753
 20
7.6457888347
 30
0.0
 10
9.8064205048
 20
7.6479376188
 30
0.0
 10
9.8074944124
 20
7.651375547
 30
0.0
 10
9.8088367069
 20
7.6556730008
 30
0.0
 10
9.8104475016
 20
7.6608299257
 30
0.0
 10
9.812058275
 20
7.6659868596
 30
0.0
 10
9.8134006225
 20
7.670284291
 30
0.0
 10
9.8144744241
 20
7.673722264
 30
0.0
 10
9.8151457229
 20
7.6758709342
 30
0.0
 10
9.8156823664
 20
7.6775900145
 30
0.0
 10
9.8160859319
 20
7.67887893
 30
0.0
 10
9.8164187917
 20
7.679954282
 30
0.0
 10
9.816658554
 20
7.680704564
 30
0.0
 10
9.816785005
 20
7.6811371445
 30
0.0
 10
9.8169095796
 20
7.6814507402
 30
0.0
 10
9.8169204871
 20
7.6818057704
 30
0.0
 10
9.8169746788
 20
7.6822646911
 30
0.0
 10
9.8170510413
 20
7.6830745362
 30
0.0
 10
9.8171697884
 20
7.6842279372
 30
0.0
 10
9.8173081511
 20
7.6856135253
 30
0.0
 10
9.8174940786
 20
7.6874604499
 30
0.0
 10
9.8177259935
 20
7.6897692857
 30
0.0
 10
9.8180973338
 20
7.6934633224
 30
0.0
 10
9.8185614143
 20
7.6980809028
 30
0.0
 10
9.8191183515
 20
7.7036219844
 30
0.0
 10
9.8196752778
 20
7.70916307
 30
0.0
 10
9.8204178501
 20
7.7165511828
 30
0.0
 10
9.8209747785
 20
7.7220922677
 30
0.0
 10
9.8213460643
 20
7.7257863242
 30
0.0
  0
ENDSEC
  0
SECTION
  2
OBJECTS
  0
DICTIONARY
  5
C
100
AcDbDictionary
280
0
281
1
  3
ACAD_GROUP
350
D
  3
ACAD_MLINESTYLE
350
17
  3
ACAD_LAYOUT
350
1A
  3
ACAD_PLOTSETTINGS
350
19
  3
ACAD_PLOTSTYLENAME
350
E
  3
ACAD_IMAGE_DICT
350
       3C8
  3
ACAD_IMAGE_VARS
350
       3C9
  3
ACAD_TABLESTYLE
350
       3CA
  0
IMAGEDEF_REACTOR
  5
3C7
100
AcDbRasterImageDefReactor
 90
2
330
287
  0
DICTIONARY
  5
D
102
{ACAD_REACTORS
330
C
102
}
100
AcDbDictionary
280
0
281
1
  0
ACDBDICTIONARYWDFLT
  5
E
102
{ACAD_REACTORS
330
C
102
}
100
AcDbDictionary
281
1
  3
Normal
350
F
100
AcDbDictionaryWithDefault
340
F
  0
DICTIONARY
  5
3C8
330
C
100
AcDbDictionary
281
1
  3
H4X_assy_2_img_1
350
       3CD
  0
RASTERVARIABLES
  5
3C9
330
C
100
AcDbRasterVariables
 90
0
 70
0
 71
1
 72
5
  0
DICTIONARY
  5
17
102
{ACAD_REACTORS
330
C
102
}
100
AcDbDictionary
280
0
281
1
  3
Standard
350
18
  0
DICTIONARY
  5
3CA
330
C
100
AcDbDictionary
281
1
  3
Standard
350
       3CE
  3
Standard1
350
       3CF
  0
DICTIONARY
  5
19
102
{ACAD_REACTORS
330
C
102
}
100
AcDbDictionary
281
1
  0
DICTIONARY
  5
1A
102
{ACAD_REACTORS
330
C
102
}
100
AcDbDictionary
281
1
  3
Model
350
3CB
  3
Layout1
350
3CC
  0
ACDBPLACEHOLDER
  5
F
102
{ACAD_REACTORS
330
E
102
}
  0
MLINESTYLE
  5
18
102
{ACAD_REACTORS
330
17
102
}
100
AcDbMlineStyle
  2
STANDARD
 70
0
  3

 62
256
 51
90.0
 52
90.0
 71
2
 49
0.5
 62
256
  6
BYLAYER
 49
-0.5
 62
256
  6
BYLAYER
  0
LAYOUT
  5
3CB
102
{ACAD_REACTORS
330
1A
102
}
100
AcDbPlotSettings
  1

  2
none_device
  4
ANSI_C_(22.00_x_17.00_Inches)
  6

 40
0.0
 41
0.0
 42
0.0
 43
0.0
 44
558.8
 45
431.8
 46
0.0
 47
0.0
 48
0.0
 49
0.0
140
0.0
141
0.0
142
1.0
143
1.0
 70
1024
 72
0
 73
0
 74
0
  7

 75
0
147
1.0
148
0.0
149
0.0
100
AcDbLayout
  1
Model
 70
0
 71
0
 10
0.0
 20
0.0
 11
22.0
 21
17.0
 12
0.0
 22
0.0
 32
0.0
 14
0.0
 24
0.0
 34
0.0
 15
0.0
 25
0.0
 35
0.0
146
0.0
 13
0.0
 23
0.0
 33
0.0
 16
1.0
 26
0.0
 36
0.0
 17
0.0
 27
1.0
 37
0.0
 76
0
330
204
345
0
346
0
  0
LAYOUT
  5
3CC
102
{ACAD_REACTORS
330
1A
102
}
100
AcDbPlotSettings
  1

  2
none_device
  4
ANSI_C_(22.00_x_17.00_Inches)
  6

 40
0.0
 41
0.0
 42
0.0
 43
0.0
 44
558.8
 45
431.8
 46
0.0
 47
0.0
 48
0.0
 49
0.0
140
0.0
141
0.0
142
1.0
143
1.0
 70
0
 72
0
 73
0
 74
0
  7

 75
0
147
1.0
148
0.0
149
0.0
100
AcDbLayout
  1
Layout1
 70
0
 71
1
 10
0.0
 20
0.0
 11
22.0
 21
17.0
 12
0.0
 22
0.0
 32
0.0
 14
0.0
 24
0.0
 34
0.0
 15
0.0
 25
0.0
 35
0.0
146
0.0
 13
0.0
 23
0.0
 33
0.0
 16
1.0
 26
0.0
 36
0.0
 17
0.0
 27
1.0
 37
0.0
 76
0
330
205
345
0
346
0
  0
IMAGEDEF
  5
3CD
102
{ACAD_REACTORS
330
3C8
330
3C7
102
}
100
AcDbRasterImageDef
 90
0
  1
H4X_assy_2_img_1.png
 10
369.0
 20
92.0
 11
0.0066666667
 21
0.0066666667
280
1
281
0
  0
TABLESTYLE
  5
3CE
102
{ACAD_REACTORS
330
3CA
330
28A
330
28B
102
}
330
3CA
100
AcDbTableStyle
  3
Standard
 70
0
 71
0
 40
0.06
 41
0.06
280
1
281
1
  7
Standard
140
0.18
170
1
 62
0
 63
7
283
0
  7
Standard
140
0.18
170
1
 62
0
 63
7
283
0
  7
Standard
140
0.18
170
1
 62
0
 63
7
283
0
  0
TABLESTYLE
  5
3CF
102
{ACAD_REACTORS
330
3CA
330
289
102
}
330
3CA
100
AcDbTableStyle
  3
Standard1
 70
1
 71
0
 40
0.06
 41
0.06
280
1
281
1
  7
Standard
140
0.18
170
1
 62
0
 63
7
283
0
  7
Standard
140
0.18
170
1
 62
0
 63
7
283
0
  7
Standard
140
0.18
170
1
 62
0
 63
7
283
0
  0
ENDSEC
  0
EOF
