999
DXF file: H4W_assy_2.dxf
999
Pro/ENGINEER 2014200 by Parametric Technology Corporation
  0
SECTION
  2
HEADER
  9
$ACADVER
  1
AC1021
  9
$DWGCODEPAGE
  3
ANSI_1252
  9
$EXTMAX
 10
22.0
 20
17.0
 30
0.0
  9
$EXTMIN
 10
0.0
 20
0.0
 30
0.0
  9
$LIMMIN
 10
0.0
 20
0.0
  9
$LIMMAX
 10
22.0
 20
17.0
  9
$VIEWCTR
 10
11.0
 20
8.5
  9
$VIEWSIZE
 40
17.0
  9
$CLAYER
  8
0
  9
$LTSCALE
 40
1.21
  9
$CELTYPE
  6
BYLAYER
  9
$DIMSCALE
 40
1.0
  9
$DIMASZ
 40
0.1875
  9
$DIMEXO
 40
0.0625
  9
$DIMDLI
 40
0.836
  9
$DIMEXE
 40
0.125
  9
$DIMCEN
 40
0.198
  9
$DIMLFAC
 40
1.0
  9
$DIMBLK
  1
_FILLED
  9
$DIMTXT
 40
0.1
  9
$DIMTOL
 70
0
  9
$DIMLIM
 70
0
  9
$DIMTFAC
 40
1.0
  9
$DIMGAP
 40
0.09
  9
$DIMDSEP
 70
46
  9
$AUNITS
 70
0
  9
$PDMODE
 70
3
  9
$PDSIZE
 40
0.3125
  9
$HANDSEED
  5
3BB
  9
$TILEMODE
 70
1
  9
$MEASUREMENT
 70
0
  9
$INSUNITS
 70
1
  0
ENDSEC
  0
SECTION
  2
CLASSES
  0
CLASS
  1
ACDBDICTIONARYWDFLT
  2
AcDbDictionaryWithDefault
  3
AutoCAD 2000
 90
0
 91
1
280
0
281
0
  0
CLASS
  1
ACDBPLACEHOLDER
  2
AcDbPlaceHolder
  3
AutoCAD 2000
 90
0
 91
1
280
0
281
0
  0
CLASS
  1
LAYOUT
  2
AcDbLayout
  3
AutoCAD 2000
 90
0
 91
0
280
0
281
0
  0
CLASS
  1
RASTERVARIABLES
  2
AcDbRasterVariables
  3
ISM
 90
0
 91
1
280
0
281
0
  0
CLASS
  1
IMAGEDEF
  2
AcDbRasterImageDef
  3
ISM
 90
0
 91
1
280
0
281
0
  0
CLASS
  1
IMAGEDEF_REACTOR
  2
AcDbRasterImageDefReactor
  3
ISM
 90
0
 91
1
280
0
281
0
  0
CLASS
  1
IMAGE
  2
AcDbRasterImage
  3
ISM
 90
127
 91
1
280
0
281
1
  0
CLASS
  1
TABLESTYLE
  2
AcDbTableStyle
  3
ObjectDBX Classes
 90
2047
 91
1
280
0
281
0
  0
CLASS
  1
ACAD_TABLE
  2
AcDbTable
  3
ObjectDBX Classes
 90
1025
 91
3
280
0
281
1
  0
ENDSEC
  0
SECTION
  2
TABLES
  0
TABLE
  2
VPORT
  5
8
100
AcDbSymbolTable
 70
2
  0
VPORT
  5
1F4
100
AcDbSymbolTableRecord
100
AcDbViewportTableRecord
  2
*ACTIVE
 70
0
 10
0.0
 20
0.0
 11
1.0
 21
1.0
 12
11.0
 22
8.5
 13
0.0
 23
0.0
 14
1.0
 24
1.0
 15
0.0
 25
0.0
 16
0.0
 26
0.0
 36
1.0
 17
0.0
 27
0.0
 37
0.0
 40
17.0
 41
1.2941176471
 42
50.0
 43
0.0
 44
0.0
 50
0.0
 51
0.0
 71
0
 72
100
 73
1
 74
1
 75
0
 76
0
 77
0
 78
0
  0
ENDTAB
  0
TABLE
  2
LTYPE
  5
5
100
AcDbSymbolTable
 70
6
  0
LTYPE
  5
14
100
AcDbSymbolTableRecord
100
AcDbLinetypeTableRecord
  2
BYBLOCK
 70
0
  3

 72
65
 73
0
 40
0.0
  0
LTYPE
  5
15
100
AcDbSymbolTableRecord
100
AcDbLinetypeTableRecord
  2
BYLAYER
 70
0
  3

 72
65
 73
0
 40
0.0
  0
LTYPE
  5
16
100
AcDbSymbolTableRecord
100
AcDbLinetypeTableRecord
  2
CONTINUOUS
 70
64
  3
Solid line
 72
65
 73
0
 40
0.0
  0
LTYPE
  5
1F5
100
AcDbSymbolTableRecord
100
AcDbLinetypeTableRecord
  2
CENTER
 70
64
  3
____ _ ____ _ ____ _ ____ _ ____ _ ____ _ ____
 72
65
 73
4
 40
0.6
 49
0.375
 74
0
 49
-0.075
 74
0
 49
0.075
 74
0
 49
-0.075
 74
0
  0
LTYPE
  5
1F6
100
AcDbSymbolTableRecord
100
AcDbLinetypeTableRecord
  2
HIDDEN
 70
64
  3
- - - - - - - - - - - - - - - - - - - -
 72
65
 73
2
 40
0.2
 49
0.1
 74
0
 49
-0.1
 74
0
  0
LTYPE
  5
1F7
100
AcDbSymbolTableRecord
100
AcDbLinetypeTableRecord
  2
PHANTOM
 70
64
  3
_____ _ _ _____ _ _ _____ _ _ _____
 72
65
 73
6
 40
0.8
 49
0.45
 74
0
 49
-0.05
 74
0
 49
0.1
 74
0
 49
-0.05
 74
0
 49
0.1
 74
0
 49
-0.05
 74
0
  0
LTYPE
  5
1F8
100
AcDbSymbolTableRecord
100
AcDbLinetypeTableRecord
  2
DOT
 70
64
  3
. . . . . . . . . . . . . . . . . . . .
 72
65
 73
2
 40
0.2
 49
0.1
 74
0
 49
-0.1
 74
0
  0
LTYPE
  5
1F9
100
AcDbSymbolTableRecord
100
AcDbLinetypeTableRecord
  2
DASHED
 70
64
  3
- - - - - - - - - - - - - - - - - - - -
 72
65
 73
2
 40
0.2
 49
0.1
 74
0
 49
-0.1
 74
0
  0
ENDTAB
  0
TABLE
  2
LAYER
  5
2
100
AcDbSymbolTable
 70
36
  0
LAYER
  5
10
100
AcDbSymbolTableRecord
100
AcDbLayerTableRecord
  2
0
 70
0
 62
7
  6
CONTINUOUS
370
-3
390
F
  0
LAYER
  5
1FA
100
AcDbSymbolTableRecord
100
AcDbLayerTableRecord
  2
DEFAULT_1
 70
0
 62
7
  6
CENTER
370
-3
390
F
  0
LAYER
  5
1FB
100
AcDbSymbolTableRecord
100
AcDbLayerTableRecord
  2
DEFAULT_2
 70
0
 62
8
  6
HIDDEN
370
-3
390
F
  0
LAYER
  5
1FC
100
AcDbSymbolTableRecord
100
AcDbLayerTableRecord
  2
DEFAULT_3
 70
0
 62
7
  6
PHANTOM
370
-3
390
F
  0
LAYER
  5
1FD
100
AcDbSymbolTableRecord
100
AcDbLayerTableRecord
  2
DATUM_PLANES
 70
0
 62
7
  6
CONTINUOUS
370
-3
390
F
  0
LAYER
  5
1FE
100
AcDbSymbolTableRecord
100
AcDbLayerTableRecord
  2
PORT_AREAS
 70
0
 62
7
  6
CONTINUOUS
370
-3
390
F
  0
LAYER
  5
1FF
100
AcDbSymbolTableRecord
100
AcDbLayerTableRecord
  2
SUNNBOMCOSMETIC
 70
0
 62
7
  6
CONTINUOUS
370
-3
390
F
  0
LAYER
  5
200
100
AcDbSymbolTableRecord
100
AcDbLayerTableRecord
  2
SUNNBOMSTAMPING
 70
0
 62
7
  6
CONTINUOUS
370
-3
390
F
  0
LAYER
  5
201
100
AcDbSymbolTableRecord
100
AcDbLayerTableRecord
  2
THREADS
 70
0
 62
7
  6
CONTINUOUS
370
-3
390
F
  0
ENDTAB
  0
TABLE
  2
STYLE
  5
3
100
AcDbSymbolTable
 70
1
  0
STYLE
  5
11
100
AcDbSymbolTableRecord
100
AcDbTextStyleTableRecord
  2
STANDARD
 70
0
 40
0.0
 41
0.8
 50
0.0
 71
0
 42
0.2
  3
txt
  4

  0
STYLE
  5
202
100
AcDbSymbolTableRecord
100
AcDbTextStyleTableRecord
  2
TEXTSTYLE_1
 70
0
 40
0.0
 41
0.8
 50
0.0
 71
0
 42
0.2
  3
gdt
  4

  0
ENDTAB
  0
TABLE
  2
VIEW
  5
6
100
AcDbSymbolTable
 70
0
  0
ENDTAB
  0
TABLE
  2
UCS
  5
7
100
AcDbSymbolTable
 70
0
  0
ENDTAB
  0
TABLE
  2
APPID
  5
9
100
AcDbSymbolTable
 70
1
  0
APPID
  5
203
100
AcDbSymbolTableRecord
100
AcDbRegAppTableRecord
  2
ACAD
 70
0
  0
ENDTAB
  0
TABLE
  2
BLOCK_RECORD
  5
1
100
AcDbSymbolTable
 70
0
  0
BLOCK_RECORD
  5
204
100
AcDbSymbolTableRecord
100
AcDbBlockTableRecord
  2
*Model_Space
  0
BLOCK_RECORD
  5
205
100
AcDbSymbolTableRecord
100
AcDbBlockTableRecord
  2
*Paper_Space
  0
BLOCK_RECORD
  5
206
100
AcDbSymbolTableRecord
100
AcDbBlockTableRecord
  2
SUN_FIRST_THIRD_ANGLE_BL0
  0
BLOCK_RECORD
  5
207
100
AcDbSymbolTableRecord
100
AcDbBlockTableRecord
  2
*T1
  0
BLOCK_RECORD
  5
208
100
AcDbSymbolTableRecord
100
AcDbBlockTableRecord
  2
*T2
  0
BLOCK_RECORD
  5
209
100
AcDbSymbolTableRecord
100
AcDbBlockTableRecord
  2
*T3
  0
ENDTAB
  0
TABLE
  2
DIMSTYLE
  5
A
100
AcDbSymbolTable
 70
1
100
AcDbDimStyleTable
 71
0
  0
DIMSTYLE
105
20A
100
AcDbSymbolTableRecord
100
AcDbDimStyleTableRecord
  2
STANDARD
 70
0
  3

  4

 40
1.0
 41
0.1875
 42
0.0625
 43
0.38
 44
0.125
 45
0.0
 46
0.0
 47
0.001
 48
0.001
140
0.1
141
0.09
142
0.0
143
25.4
144
1.0
145
0.0
146
1.0
147
0.09
 71
0.0
 72
0.0
 73
1
 74
1
 75
0
 76
0
 77
0
 78
4
170
0
171
2
172
0
173
0
174
0
175
0
176
0
177
0
178
0
270
2
271
3
272
3
273
2
274
2
275
0
280
0
281
0
282
0
283
1
284
4
285
0
286
0
287
3
288
0
340
11
278
46
  0
ENDTAB
  0
ENDSEC
  0
SECTION
  2
BLOCKS
  0
BLOCK
  5
20
100
AcDbEntity
  8
0
100
AcDbBlockBegin
  2
*Model_Space
 70
0
 10
0.0
 20
0.0
 30
0.0
  3
*Model_Space
  1

  0
ENDBLK
  5
21
100
AcDbEntity
  8
0
100
AcDbBlockEnd
  0
BLOCK
  5
1C
100
AcDbEntity
  8
0
100
AcDbBlockBegin
  2
*Paper_Space
 70
0
 10
0.0
 20
0.0
 30
0.0
  3
*Paper_Space
  1

  0
ENDBLK
  5
1D
100
AcDbEntity
  8
0
100
AcDbBlockEnd
  0
BLOCK
  5
20B
100
AcDbEntity
  8
0
100
AcDbBlockBegin
 62
2
  6
CONTINUOUS
  2
SUN_FIRST_THIRD_ANGLE_BL0
 70
64
 10
20.4816717061
 20
1.2289683772
  3
SUN_FIRST_THIRD_ANGLE_BL0
  1

  0
TEXT
  5
20C
100
AcDbEntity
  8
0
100
AcDbText
 62
2
  6
CONTINUOUS
 10
19.4750896608
 20
1.4136269581
  7
STANDARD
 40
0.08
  1
FIRST ANGLE
 41
0.8
 72
0
100
AcDbText
  0
TEXT
  5
20D
100
AcDbEntity
  8
0
100
AcDbText
 62
2
  6
CONTINUOUS
 10
20.7842537513
 20
1.4047600029
  7
STANDARD
 40
0.08
  1
THIRD ANGLE
 41
0.8
 72
0
100
AcDbText
  0
LINE
  5
20E
100
AcDbEntity
  8
0
100
AcDbLine
 62
7
  6
CONTINUOUS
 10
19.4767170086
 20
1.1727031207
 11
19.6334271527
 21
1.1717972817
  0
LINE
  5
20F
100
AcDbEntity
  8
0
100
AcDbLine
 62
7
  6
CONTINUOUS
 10
19.6596964832
 20
1.1717972817
 11
19.6950230232
 21
1.171593082
  0
LINE
  5
210
100
AcDbEntity
  8
0
100
AcDbLine
 62
7
  6
CONTINUOUS
 10
19.7194818561
 20
1.1708914427
 11
19.8852396156
 21
1.1699333054
  0
LINE
  5
211
100
AcDbEntity
  8
0
100
AcDbLine
 62
7
  6
CONTINUOUS
 10
19.4758111696
 20
1.2723454088
 11
19.88525039
 21
1.3511534004
  0
LINE
  5
212
100
AcDbEntity
  8
0
100
AcDbLine
 62
7
  6
CONTINUOUS
 10
19.88525039
 20
1.3511534004
 11
19.8831348489
 21
0.9851647912
  0
LINE
  5
213
100
AcDbEntity
  8
0
100
AcDbLine
 62
7
  6
CONTINUOUS
 10
19.8831348489
 20
0.9851647912
 11
19.4767170086
 21
1.0658141206
  0
LINE
  5
214
100
AcDbEntity
  8
0
100
AcDbLine
 62
7
  6
CONTINUOUS
 10
19.4767170086
 20
1.0658141206
 11
19.4779056764
 21
1.2714536432
  0
CIRCLE
  5
215
100
AcDbEntity
  8
0
100
AcDbCircle
 62
7
  6
CONTINUOUS
 10
20.2068232291
 20
1.1717972817
 40
0.175742101
  0
CIRCLE
  5
216
100
AcDbEntity
  8
0
100
AcDbCircle
 62
7
  6
CONTINUOUS
 10
20.2068232291
 20
1.1717972817
 40
0.1005522074
  0
LINE
  5
217
100
AcDbEntity
  8
0
100
AcDbLine
 62
7
  6
CONTINUOUS
 10
20.2077290681
 20
1.3756110529
 11
20.2071171714
 21
1.2379342989
  0
LINE
  5
218
100
AcDbEntity
  8
0
100
AcDbLine
 62
7
  6
CONTINUOUS
 10
20.2077290681
 20
1.2016899681
 11
20.2074674401
 21
1.1428236749
  0
LINE
  5
219
100
AcDbEntity
  8
0
100
AcDbLine
 62
7
  6
CONTINUOUS
 10
20.208634907
 20
1.101141841
 11
20.2080230104
 21
0.963465087
  0
LINE
  5
21A
100
AcDbEntity
  8
0
100
AcDbLine
 62
7
  6
CONTINUOUS
 10
20.0066328138
 20
1.1745147986
 11
20.1443095678
 21
1.1739029019
  0
LINE
  5
21B
100
AcDbEntity
  8
0
100
AcDbLine
 62
7
  6
CONTINUOUS
 10
20.1832714155
 20
1.1727031207
 11
20.238153505
 21
1.172335442
  0
LINE
  5
21C
100
AcDbEntity
  8
0
100
AcDbLine
 62
7
  6
CONTINUOUS
 10
20.2756669918
 20
1.1717972817
 11
20.407916871
 21
1.1712095044
  0
CIRCLE
  5
21D
100
AcDbEntity
  8
0
100
AcDbCircle
 62
7
  6
CONTINUOUS
 10
20.7509457401
 20
1.1693297793
 40
0.1722024983
  0
CIRCLE
  5
21E
100
AcDbEntity
  8
0
100
AcDbCircle
 62
7
  6
CONTINUOUS
 10
20.7509457401
 20
1.1693297793
 40
0.0985164967
  0
LINE
  5
21F
100
AcDbEntity
  8
0
100
AcDbLine
 62
7
  6
CONTINUOUS
 10
20.7169767782
 20
1.170462078
 11
20.7825395137
 21
1.1682766535
  0
LINE
  5
220
100
AcDbEntity
  8
0
100
AcDbLine
 62
7
  6
CONTINUOUS
 10
20.8177513651
 20
1.1693297793
 11
20.947965719
 21
1.1693297793
  0
LINE
  5
221
100
AcDbEntity
  8
0
100
AcDbLine
 62
7
  6
CONTINUOUS
 10
20.6875370113
 20
1.170462078
 11
20.5573226574
 21
1.170462078
  0
LINE
  5
222
100
AcDbEntity
  8
0
100
AcDbLine
 62
7
  6
CONTINUOUS
 10
20.7486811426
 20
1.1987695462
 11
20.7486811426
 21
1.1432869085
  0
LINE
  5
223
100
AcDbEntity
  8
0
100
AcDbLine
 62
7
  6
CONTINUOUS
 10
20.7498134414
 20
1.1059210505
 11
20.7498134414
 21
0.9757066966
  0
LINE
  5
224
100
AcDbEntity
  8
0
100
AcDbLine
 62
7
  6
CONTINUOUS
 10
20.7486811426
 20
1.2338708068
 11
20.7486811426
 21
1.3640851607
  0
LINE
  5
225
100
AcDbEntity
  8
0
100
AcDbLine
 62
7
  6
CONTINUOUS
 10
21.0702539817
 20
1.2701043662
 11
21.4790138229
 21
1.3448360823
  0
LINE
  5
226
100
AcDbEntity
  8
0
100
AcDbLine
 62
7
  6
CONTINUOUS
 10
21.4790138229
 20
1.3448360823
 11
21.4790138229
 21
0.9779712941
  0
LINE
  5
227
100
AcDbEntity
  8
0
100
AcDbLine
 62
7
  6
CONTINUOUS
 10
21.4790138229
 20
0.9779712941
 11
21.069121683
 21
1.0617614
  0
LINE
  5
228
100
AcDbEntity
  8
0
100
AcDbLine
 62
7
  6
CONTINUOUS
 10
21.0702539817
 20
1.2701043662
 11
21.069121683
 21
1.0617614
  0
LINE
  5
229
100
AcDbEntity
  8
0
100
AcDbLine
 62
7
  6
CONTINUOUS
 10
21.4790138229
 20
1.1693297793
 11
21.3159628059
 21
1.1693297793
  0
LINE
  5
22A
100
AcDbEntity
  8
0
100
AcDbLine
 62
7
  6
CONTINUOUS
 10
21.2876553377
 20
1.1693297793
 11
21.2502894796
 21
1.1693297793
  0
LINE
  5
22B
100
AcDbEntity
  8
0
100
AcDbLine
 62
7
  6
CONTINUOUS
 10
21.2208497126
 20
1.1659328831
 11
21.0713862804
 21
1.1659328831
  0
LINE
  5
22C
100
AcDbEntity
  8
0
100
AcDbLine
 62
7
  6
CONTINUOUS
 10
20.4796138713
 20
1.5284908897
 11
20.4766766948
 21
0.9294458646
  0
ENDBLK
  5
22D
100
AcDbEntity
  8
0
  6
BYBLOCK
 62
0
100
AcDbBlockEnd
  0
BLOCK
  5
22E
100
AcDbEntity
  8
0
100
AcDbBlockBegin
  2
*T1
 70
1
 10
0.0
 20
0.0
  3
*T1
  1

  0
LINE
  5
22F
100
AcDbEntity
  8
0
100
AcDbLine
 62
2
  6
CONTINUOUS
 10
9.275
 20
0.0
 11
-0.0
 21
0.0
  0
LINE
  5
230
100
AcDbEntity
  8
0
100
AcDbLine
 62
2
  6
CONTINUOUS
 10
9.275
 20
0.0
 11
9.275
 21
1.25
  0
LINE
  5
231
100
AcDbEntity
  8
0
100
AcDbLine
 62
2
  6
CONTINUOUS
 10
9.275
 20
0.625
 11
-0.0
 21
0.625
  0
LINE
  5
232
100
AcDbEntity
  8
0
100
AcDbLine
 62
2
  6
CONTINUOUS
 10
9.275
 20
1.25
 11
-0.0
 21
1.25
  0
LINE
  5
233
100
AcDbEntity
  8
0
100
AcDbLine
 62
2
  6
CONTINUOUS
 10
6.8
 20
0.0
 11
6.8
 21
1.25
  0
LINE
  5
234
100
AcDbEntity
  8
0
100
AcDbLine
 62
2
  6
CONTINUOUS
 10
6.4
 20
0.0
 11
6.4
 21
0.625
  0
LINE
  5
235
100
AcDbEntity
  8
0
100
AcDbLine
 62
2
  6
CONTINUOUS
 10
5.9
 20
0.0
 11
5.9
 21
0.625
  0
LINE
  5
236
100
AcDbEntity
  8
0
100
AcDbLine
 62
2
  6
CONTINUOUS
 10
5.2
 20
0.0
 11
5.2
 21
0.625
  0
LINE
  5
237
100
AcDbEntity
  8
0
100
AcDbLine
 62
2
  6
CONTINUOUS
 10
4.1
 20
0.0
 11
4.1
 21
1.25
  0
LINE
  5
238
100
AcDbEntity
  8
0
100
AcDbLine
 62
2
  6
CONTINUOUS
 10
-0.0
 20
0.0
 11
-0.0
 21
1.25
  0
MTEXT
  5
239
100
AcDbEntity
  8
0
100
AcDbMText
 62
2
  6
CONTINUOUS
  7
STANDARD
 71
2
 72
1
 10
6.6
 20
0.325
 30
0.0
 11
1.0
 21
0.0
 31
0.0
 44
0.9
  1
2
 40
0.125
 41
0.2
  0
MTEXT
  5
23A
100
AcDbEntity
  8
0
100
AcDbMText
 62
2
  6
CONTINUOUS
  7
STANDARD
 71
2
 72
1
 10
6.15
 20
0.325
 30
0.0
 11
1.0
 21
0.0
 31
0.0
 44
0.9
  1
C
 40
0.125
 41
0.2
  0
MTEXT
  5
23B
100
AcDbEntity
  8
0
100
AcDbMText
 62
2
  6
CONTINUOUS
  7
STANDARD
 71
2
 72
1
 10
5.55
 20
0.325
 30
0.0
 11
1.0
 21
0.0
 31
0.0
 44
0.9
  1
1.000
 40
0.125
 41
1.0
  0
MTEXT
  5
23C
100
AcDbEntity
  8
0
100
AcDbMText
 62
2
  6
CONTINUOUS
  7
STANDARD
 71
2
 72
1
 10
4.65
 20
0.325
 30
0.0
 11
1.0
 21
0.0
 31
0.0
 44
0.9
  1
May-24-23
 40
0.125
 41
1.8
  0
MTEXT
  5
23D
100
AcDbEntity
  8
0
100
AcDbMText
 62
2
  6
CONTINUOUS
  7
STANDARD
 71
2
 72
1
 10
2.05
 20
0.4625
 30
0.0
 11
1.0
 21
0.0
 31
0.0
 44
0.9
  1
T-17A Line mount\P(See Technical Data for Body Features)
 40
0.125
 41
7.6
  0
MTEXT
  5
23E
100
AcDbEntity
  8
0
100
AcDbMText
 62
2
  6
CONTINUOUS
  7
STANDARD
 71
1
 72
1
 10
6.45
 20
0.5625
 30
0.0
 11
1.0
 21
0.0
 31
0.0
 44
0.9
  1
SHEET
 40
0.06
 41
0.48
  0
MTEXT
  5
23F
100
AcDbEntity
  8
0
100
AcDbMText
 62
2
  6
CONTINUOUS
  7
STANDARD
 71
1
 72
1
 10
5.95
 20
0.5625
 30
0.0
 11
1.0
 21
0.0
 31
0.0
 44
0.9
  1
DWG SIZE
 40
0.06
 41
0.768
  0
MTEXT
  5
240
100
AcDbEntity
  8
0
100
AcDbMText
 62
2
  6
CONTINUOUS
  7
STANDARD
 71
1
 72
1
 10
5.25
 20
0.5625
 30
0.0
 11
1.0
 21
0.0
 31
0.0
 44
0.9
  1
SCALE
 40
0.06
 41
0.48
  0
MTEXT
  5
241
100
AcDbEntity
  8
0
100
AcDbMText
 62
2
  6
CONTINUOUS
  7
STANDARD
 71
1
 72
1
 10
4.15
 20
0.5625
 30
0.0
 11
1.0
 21
0.0
 31
0.0
 44
0.9
  1
DATE
 40
0.06
 41
0.384
  0
MTEXT
  5
242
100
AcDbEntity
  8
0
100
AcDbMText
 62
2
  6
CONTINUOUS
  7
STANDARD
 71
1
 72
1
 10
0.05
 20
0.5625
 30
0.0
 11
1.0
 21
0.0
 31
0.0
 44
0.9
  1
DESCRIPTION
 40
0.06
 41
1.056
  0
MTEXT
  5
243
100
AcDbEntity
  8
0
100
AcDbMText
 62
2
  6
CONTINUOUS
  7
STANDARD
 71
2
 72
1
 10
5.45
 20
1.0375
 30
0.0
 11
1.0
 21
0.0
 31
0.0
 44
0.9
  1
ALL DIMENSIONS IN INCH\PVIEWS ARE THIRD ANGLE
 40
0.12
 41
4.224
  0
MTEXT
  5
244
100
AcDbEntity
  8
0
100
AcDbMText
 62
2
  6
CONTINUOUS
  7
STANDARD
 71
2
 72
1
 10
2.05
 20
0.95
 30
0.0
 11
1.0
 21
0.0
 31
0.0
 44
0.9
  1
H4W
 40
0.125
 41
0.6
  0
MTEXT
  5
245
100
AcDbEntity
  8
0
100
AcDbMText
 62
2
  6
CONTINUOUS
  7
STANDARD
 71
1
 72
1
 10
0.05
 20
1.1875
 30
0.0
 11
1.0
 21
0.0
 31
0.0
 44
0.9
  1
MODEL
 40
0.06
 41
0.48
  0
ENDBLK
  5
246
100
AcDbEntity
  8
0
  6
BYBLOCK
 62
0
100
AcDbBlockEnd
  0
BLOCK
  5
247
100
AcDbEntity
  8
0
100
AcDbBlockBegin
  2
*T2
 70
1
 10
0.0
 20
0.0
  3
*T2
  1

  0
LINE
  5
248
100
AcDbEntity
  8
0
100
AcDbLine
 62
2
  6
CONTINUOUS
 10
0.0
 20
0.0
 11
9.055
 21
0.0
  0
LINE
  5
249
100
AcDbEntity
  8
0
100
AcDbLine
 62
2
  6
CONTINUOUS
 10
0.0
 20
0.0
 11
0.0
 21
-2.844
  0
LINE
  5
24A
100
AcDbEntity
  8
0
100
AcDbLine
 62
2
  6
CONTINUOUS
 10
0.0
 20
-0.344
 11
9.055
 21
-0.344
  0
LINE
  5
24B
100
AcDbEntity
  8
0
100
AcDbLine
 62
2
  6
CONTINUOUS
 10
0.0
 20
-0.594
 11
9.055
 21
-0.594
  0
LINE
  5
24C
100
AcDbEntity
  8
0
100
AcDbLine
 62
2
  6
CONTINUOUS
 10
0.0
 20
-0.844
 11
9.055
 21
-0.844
  0
LINE
  5
24D
100
AcDbEntity
  8
0
100
AcDbLine
 62
2
  6
CONTINUOUS
 10
0.0
 20
-1.094
 11
9.055
 21
-1.094
  0
LINE
  5
24E
100
AcDbEntity
  8
0
100
AcDbLine
 62
2
  6
CONTINUOUS
 10
0.0
 20
-1.344
 11
9.055
 21
-1.344
  0
LINE
  5
24F
100
AcDbEntity
  8
0
100
AcDbLine
 62
2
  6
CONTINUOUS
 10
0.0
 20
-1.594
 11
9.055
 21
-1.594
  0
LINE
  5
250
100
AcDbEntity
  8
0
100
AcDbLine
 62
2
  6
CONTINUOUS
 10
0.0
 20
-1.844
 11
9.055
 21
-1.844
  0
LINE
  5
251
100
AcDbEntity
  8
0
100
AcDbLine
 62
2
  6
CONTINUOUS
 10
0.0
 20
-2.094
 11
9.055
 21
-2.094
  0
LINE
  5
252
100
AcDbEntity
  8
0
100
AcDbLine
 62
2
  6
CONTINUOUS
 10
0.0
 20
-2.344
 11
9.055
 21
-2.344
  0
LINE
  5
253
100
AcDbEntity
  8
0
100
AcDbLine
 62
2
  6
CONTINUOUS
 10
0.0
 20
-2.594
 11
9.055
 21
-2.594
  0
LINE
  5
254
100
AcDbEntity
  8
0
100
AcDbLine
 62
2
  6
CONTINUOUS
 10
0.0
 20
-2.844
 11
9.055
 21
-2.844
  0
LINE
  5
255
100
AcDbEntity
  8
0
100
AcDbLine
 62
2
  6
CONTINUOUS
 10
3.055
 20
0.0
 11
3.055
 21
-2.844
  0
LINE
  5
256
100
AcDbEntity
  8
0
100
AcDbLine
 62
2
  6
CONTINUOUS
 10
9.055
 20
0.0
 11
9.055
 21
-2.844
  0
MTEXT
  5
257
100
AcDbEntity
  8
0
100
AcDbMText
 62
2
  6
CONTINUOUS
  7
STANDARD
 71
2
 72
1
 10
1.5275
 20
-0.0995
 30
0.0
 11
1.0
 21
0.0
 31
0.0
 44
0.9
  1
Technical Data
 40
0.145
 41
3.248
  0
MTEXT
  5
258
100
AcDbEntity
  8
0
100
AcDbMText
 62
2
  6
CONTINUOUS
  7
STANDARD
 71
2
 72
1
 10
4.555
 20
-0.0995
 30
0.0
 11
1.0
 21
0.0
 31
0.0
 44
0.9
  1
U.S. Units
 40
0.145
 41
2.32
  0
MTEXT
  5
259
100
AcDbEntity
  8
0
100
AcDbMText
 62
2
  6
CONTINUOUS
  7
STANDARD
 71
2
 72
1
 10
7.555
 20
-0.0995
 30
0.0
 11
1.0
 21
0.0
 31
0.0
 44
0.9
  1
Metric Units
 40
0.145
 41
2.784
  0
MTEXT
  5
25A
100
AcDbEntity
  8
0
100
AcDbMText
 62
2
  6
CONTINUOUS
  7
STANDARD
 71
2
 72
1
 10
1.5275
 20
-0.4065
 30
0.0
 11
1.0
 21
0.0
 31
0.0
 44
0.9
  1
Cavity
 40
0.125
 41
1.2
  0
MTEXT
  5
25B
100
AcDbEntity
  8
0
100
AcDbMText
 62
2
  6
CONTINUOUS
  7
STANDARD
 71
2
 72
1
 10
6.055
 20
-0.4065
 30
0.0
 11
1.0
 21
0.0
 31
0.0
 44
0.9
  1
T-17A
 40
0.125
 41
1.0
  0
MTEXT
  5
25C
100
AcDbEntity
  8
0
100
AcDbMText
 62
2
  6
CONTINUOUS
  7
STANDARD
 71
2
 72
1
 10
1.5275
 20
-0.6565
 30
0.0
 11
1.0
 21
0.0
 31
0.0
 44
0.9
  1
Body Features
 40
0.125
 41
2.6
  0
MTEXT
  5
25D
100
AcDbEntity
  8
0
100
AcDbMText
 62
2
  6
CONTINUOUS
  7
STANDARD
 71
2
 72
1
 10
6.055
 20
-0.6565
 30
0.0
 11
1.0
 21
0.0
 31
0.0
 44
0.9
  1
Ninety degree with reverse flow check - reducing
 40
0.125
 41
9.6
  0
MTEXT
  5
25E
100
AcDbEntity
  8
0
100
AcDbMText
 62
2
  6
CONTINUOUS
  7
STANDARD
 71
2
 72
1
 10
1.5275
 20
-0.9065
 30
0.0
 11
1.0
 21
0.0
 31
0.0
 44
0.9
  1
Body Type
 40
0.125
 41
1.8
  0
MTEXT
  5
25F
100
AcDbEntity
  8
0
100
AcDbMText
 62
2
  6
CONTINUOUS
  7
STANDARD
 71
2
 72
1
 10
6.055
 20
-0.9065
 30
0.0
 11
1.0
 21
0.0
 31
0.0
 44
0.9
  1
Line mount
 40
0.125
 41
2.0
  0
MTEXT
  5
260
100
AcDbEntity
  8
0
100
AcDbMText
 62
2
  6
CONTINUOUS
  7
STANDARD
 71
2
 72
1
 10
1.5275
 20
-1.1565
 30
0.0
 11
1.0
 21
0.0
 31
0.0
 44
0.9
  1
Interface
 40
0.125
 41
1.8
  0
MTEXT
  5
261
100
AcDbEntity
  8
0
100
AcDbMText
 62
2
  6
CONTINUOUS
  7
STANDARD
 71
2
 72
1
 10
6.055
 20
-1.1565
 30
0.0
 11
1.0
 21
0.0
 31
0.0
 44
0.9
  1
None
 40
0.125
 41
0.8
  0
MTEXT
  5
262
100
AcDbEntity
  8
0
100
AcDbMText
 62
2
  6
CONTINUOUS
  7
STANDARD
 71
2
 72
1
 10
1.5275
 20
-1.4065
 30
0.0
 11
1.0
 21
0.0
 31
0.0
 44
0.9
  1
Open Cavity Quantity
 40
0.125
 41
4.0
  0
MTEXT
  5
263
100
AcDbEntity
  8
0
100
AcDbMText
 62
2
  6
CONTINUOUS
  7
STANDARD
 71
2
 72
1
 10
6.055
 20
-1.4065
 30
0.0
 11
1.0
 21
0.0
 31
0.0
 44
0.9
  1
1
 40
0.125
 41
0.2
  0
MTEXT
  5
264
100
AcDbEntity
  8
0
100
AcDbMText
 62
2
  6
CONTINUOUS
  7
STANDARD
 71
2
 72
1
 10
1.5275
 20
-1.6565
 30
0.0
 11
1.0
 21
0.0
 31
0.0
 44
0.9
  1
Weight
 40
0.125
 41
1.2
  0
MTEXT
  5
265
100
AcDbEntity
  8
0
100
AcDbMText
 62
2
  6
CONTINUOUS
  7
STANDARD
 71
2
 72
1
 10
4.555
 20
-1.6565
 30
0.0
 11
1.0
 21
0.0
 31
0.0
 44
0.9
  1
6.297 lb.
 40
0.125
 41
1.8
  0
MTEXT
  5
266
100
AcDbEntity
  8
0
100
AcDbMText
 62
2
  6
CONTINUOUS
  7
STANDARD
 71
2
 72
1
 10
7.555
 20
-1.6565
 30
0.0
 11
1.0
 21
0.0
 31
0.0
 44
0.9
  1
2,856 kg.
 40
0.125
 41
1.8
  0
MTEXT
  5
267
100
AcDbEntity
  8
0
100
AcDbMText
 62
2
  6
CONTINUOUS
  7
STANDARD
 71
2
 72
1
 10
1.5275
 20
-1.9065
 30
0.0
 11
1.0
 21
0.0
 31
0.0
 44
0.9
  1
Mounting Hole Diameter
 40
0.125
 41
4.4
  0
MTEXT
  5
268
100
AcDbEntity
  8
0
100
AcDbMText
 62
2
  6
CONTINUOUS
  7
STANDARD
 71
2
 72
1
 10
4.555
 20
-1.9065
 30
0.0
 11
1.0
 21
0.0
 31
0.0
 44
0.9
  1
.41 in.
 40
0.125
 41
1.4
  0
MTEXT
  5
269
100
AcDbEntity
  8
0
100
AcDbMText
 62
2
  6
CONTINUOUS
  7
STANDARD
 71
2
 72
1
 10
7.555
 20
-1.9065
 30
0.0
 11
1.0
 21
0.0
 31
0.0
 44
0.9
  1
10,4 mm
 40
0.125
 41
1.4
  0
MTEXT
  5
26A
100
AcDbEntity
  8
0
100
AcDbMText
 62
2
  6
CONTINUOUS
  7
STANDARD
 71
2
 72
1
 10
1.5275
 20
-2.1565
 30
0.0
 11
1.0
 21
0.0
 31
0.0
 44
0.9
  1
Mounting Hole Depth
 40
0.125
 41
3.8
  0
MTEXT
  5
26B
100
AcDbEntity
  8
0
100
AcDbMText
 62
2
  6
CONTINUOUS
  7
STANDARD
 71
2
 72
1
 10
6.055
 20
-2.1565
 30
0.0
 11
1.0
 21
0.0
 31
0.0
 44
0.9
  1
Through
 40
0.125
 41
1.4
  0
MTEXT
  5
26C
100
AcDbEntity
  8
0
100
AcDbMText
 62
2
  6
CONTINUOUS
  7
STANDARD
 71
2
 72
1
 10
1.5275
 20
-2.4065
 30
0.0
 11
1.0
 21
0.0
 31
0.0
 44
0.9
  1
Mounting Hole Quantity
 40
0.125
 41
4.4
  0
MTEXT
  5
26D
100
AcDbEntity
  8
0
100
AcDbMText
 62
2
  6
CONTINUOUS
  7
STANDARD
 71
2
 72
1
 10
6.055
 20
-2.4065
 30
0.0
 11
1.0
 21
0.0
 31
0.0
 44
0.9
  1
2
 40
0.125
 41
0.2
  0
MTEXT
  5
26E
100
AcDbEntity
  8
0
100
AcDbMText
 62
2
  6
CONTINUOUS
  7
STANDARD
 71
2
 72
1
 10
1.5275
 20
-2.6565
 30
0.0
 11
1.0
 21
0.0
 31
0.0
 44
0.9
  1
Includes integral cartridge(s)
 40
0.125
 41
6.0
  0
MTEXT
  5
26F
100
AcDbEntity
  8
0
100
AcDbMText
 62
2
  6
CONTINUOUS
  7
STANDARD
 71
2
 72
1
 10
6.055
 20
-2.6565
 30
0.0
 11
1.0
 21
0.0
 31
0.0
 44
0.9
  1
Yes (see Included Components)
 40
0.125
 41
5.8
  0
ENDBLK
  5
270
100
AcDbEntity
  8
0
  6
BYBLOCK
 62
0
100
AcDbBlockEnd
  0
BLOCK
  5
271
100
AcDbEntity
  8
0
100
AcDbBlockBegin
  2
*T3
 70
1
 10
0.0
 20
0.0
  3
*T3
  1

  0
LINE
  5
272
100
AcDbEntity
  8
0
100
AcDbLine
 62
2
  6
CONTINUOUS
 10
0.0
 20
0.0
 11
4.6
 21
0.0
  0
LINE
  5
273
100
AcDbEntity
  8
0
100
AcDbLine
 62
2
  6
CONTINUOUS
 10
0.0
 20
0.0
 11
0.0
 21
-1.43775
  0
LINE
  5
274
100
AcDbEntity
  8
0
100
AcDbLine
 62
2
  6
CONTINUOUS
 10
0.0
 20
-0.34375
 11
4.6
 21
-0.34375
  0
LINE
  5
275
100
AcDbEntity
  8
0
100
AcDbLine
 62
2
  6
CONTINUOUS
 10
0.0
 20
-0.68775
 11
4.6
 21
-0.68775
  0
LINE
  5
276
100
AcDbEntity
  8
0
100
AcDbLine
 62
2
  6
CONTINUOUS
 10
0.0
 20
-0.93775
 11
4.6
 21
-0.93775
  0
LINE
  5
277
100
AcDbEntity
  8
0
100
AcDbLine
 62
2
  6
CONTINUOUS
 10
0.0
 20
-1.18775
 11
4.6
 21
-1.18775
  0
LINE
  5
278
100
AcDbEntity
  8
0
100
AcDbLine
 62
2
  6
CONTINUOUS
 10
0.0
 20
-1.43775
 11
4.6
 21
-1.43775
  0
LINE
  5
279
100
AcDbEntity
  8
0
100
AcDbLine
 62
2
  6
CONTINUOUS
 10
1.3
 20
-0.34375
 11
1.3
 21
-1.43775
  0
LINE
  5
27A
100
AcDbEntity
  8
0
100
AcDbLine
 62
2
  6
CONTINUOUS
 10
3.3
 20
-0.34375
 11
3.3
 21
-1.43775
  0
LINE
  5
27B
100
AcDbEntity
  8
0
100
AcDbLine
 62
2
  6
CONTINUOUS
 10
4.6
 20
0.0
 11
4.6
 21
-1.43775
  0
MTEXT
  5
27C
100
AcDbEntity
  8
0
100
AcDbMText
 62
2
  6
CONTINUOUS
  7
STANDARD
 71
2
 72
1
 10
2.3
 20
-0.099375
 30
0.0
 11
1.0
 21
0.0
 31
0.0
 44
0.9
  1
Port Headings
 40
0.145
 41
3.016
  0
MTEXT
  5
27D
100
AcDbEntity
  8
0
100
AcDbMText
 62
2
  6
CONTINUOUS
  7
STANDARD
 71
2
 72
1
 10
0.65
 20
-0.44325
 30
0.0
 11
1.0
 21
0.0
 31
0.0
 44
0.9
  1
Product
 40
0.145
 41
1.624
  0
MTEXT
  5
27E
100
AcDbEntity
  8
0
100
AcDbMText
 62
2
  6
CONTINUOUS
  7
STANDARD
 71
2
 72
1
 10
2.3
 20
-0.44325
 30
0.0
 11
1.0
 21
0.0
 31
0.0
 44
0.9
  1
Port
 40
0.145
 41
0.928
  0
MTEXT
  5
27F
100
AcDbEntity
  8
0
100
AcDbMText
 62
2
  6
CONTINUOUS
  7
STANDARD
 71
2
 72
1
 10
3.95
 20
-0.44325
 30
0.0
 11
1.0
 21
0.0
 31
0.0
 44
0.9
  1
Size
 40
0.145
 41
0.928
  0
MTEXT
  5
280
100
AcDbEntity
  8
0
100
AcDbMText
 62
2
  6
CONTINUOUS
  7
STANDARD
 71
2
 72
1
 10
0.65
 20
-0.75025
 30
0.0
 11
1.0
 21
0.0
 31
0.0
 44
0.9
  1
H4W
 40
0.125
 41
0.6
  0
MTEXT
  5
281
100
AcDbEntity
  8
0
100
AcDbMText
 62
2
  6
CONTINUOUS
  7
STANDARD
 71
2
 72
1
 10
2.3
 20
-0.75025
 30
0.0
 11
1.0
 21
0.0
 31
0.0
 44
0.9
  1
Ports 1 &  2
 40
0.125
 41
2.4
  0
MTEXT
  5
282
100
AcDbEntity
  8
0
100
AcDbMText
 62
2
  6
CONTINUOUS
  7
STANDARD
 71
2
 72
1
 10
3.95
 20
-0.75025
 30
0.0
 11
1.0
 21
0.0
 31
0.0
 44
0.9
  1
3/4" BSPP
 40
0.125
 41
1.8
  0
MTEXT
  5
283
100
AcDbEntity
  8
0
100
AcDbMText
 62
2
  6
CONTINUOUS
  7
STANDARD
 71
2
 72
1
 10
0.65
 20
-1.00025
 30
0.0
 11
1.0
 21
0.0
 31
0.0
 44
0.9
  1
H4W
 40
0.125
 41
0.6
  0
MTEXT
  5
284
100
AcDbEntity
  8
0
100
AcDbMText
 62
2
  6
CONTINUOUS
  7
STANDARD
 71
2
 72
1
 10
2.3
 20
-1.00025
 30
0.0
 11
1.0
 21
0.0
 31
0.0
 44
0.9
  1
Port 3
 40
0.125
 41
1.2
  0
MTEXT
  5
285
100
AcDbEntity
  8
0
100
AcDbMText
 62
2
  6
CONTINUOUS
  7
STANDARD
 71
2
 72
1
 10
3.95
 20
-1.00025
 30
0.0
 11
1.0
 21
0.0
 31
0.0
 44
0.9
  1
3/4" BSPP
 40
0.125
 41
1.8
  0
MTEXT
  5
286
100
AcDbEntity
  8
0
100
AcDbMText
 62
2
  6
CONTINUOUS
  7
STANDARD
 71
2
 72
1
 10
0.65
 20
-1.25025
 30
0.0
 11
1.0
 21
0.0
 31
0.0
 44
0.9
  1
H4W
 40
0.125
 41
0.6
  0
MTEXT
  5
287
100
AcDbEntity
  8
0
100
AcDbMText
 62
2
  6
CONTINUOUS
  7
STANDARD
 71
2
 72
1
 10
2.3
 20
-1.25025
 30
0.0
 11
1.0
 21
0.0
 31
0.0
 44
0.9
  1
Gage Port
 40
0.125
 41
1.8
  0
MTEXT
  5
288
100
AcDbEntity
  8
0
100
AcDbMText
 62
2
  6
CONTINUOUS
  7
STANDARD
 71
2
 72
1
 10
3.95
 20
-1.25025
 30
0.0
 11
1.0
 21
0.0
 31
0.0
 44
0.9
  1
1/4" BSPP
 40
0.125
 41
1.8
  0
ENDBLK
  5
289
100
AcDbEntity
  8
0
  6
BYBLOCK
 62
0
100
AcDbBlockEnd
  0
ENDSEC
  0
SECTION
  2
ENTITIES
  0
IMAGE
  5
28A
100
AcDbEntity
  8
0
100
AcDbRasterImage
 62
7
  6
CONTINUOUS
 10
19.2297077316
 20
0.3094318264
 30
0.0
 11
0.0066666667
 21
0.0
 31
0.0
 12
0.0
 22
0.0066666667
 32
0.0
 13
369.0
 23
92.0
340
       3B8
 70
9
280
0
281
50
282
50
283
0
360
       3B2
 71
1
 91
2
 14
-0.5
 24
-0.5
 14
368.5
 24
91.5
  0
INSERT
  5
28B
100
AcDbEntity
  8
0
100
AcDbBlockReference
 62
2
  6
CONTINUOUS
  2
SUN_FIRST_THIRD_ANGLE_BL0
 10
20.4816717061
 20
1.2289683772
  0
ACAD_TABLE
  5
28C
100
AcDbEntity
  8
0
 62
2
  6
CONTINUOUS
100
AcDbBlockReference
  2
*T1
 10
12.42375
 20
0.30125
 30
0.0
100
AcDbTable
342
       3BA
343
207
 11
1.0
 21
0.0
 31
0.0
 90
6
 91
4
 92
6
 93
20
 94
0
 95
0
 96
0
 70
1
 41
0.0
141
0.525
141
0.1
141
0.525
141
0.1
142
4.1
142
1.1
142
0.7
142
0.5
142
0.4
142
2.475
171
1
172
0
173
0
174
0
175
1
176
1
 91
33
178
0
145
0.0
301
CELL_VALUE
 90
4
  1
T-17A Line mount\P(See Technical Data for Body Features)
304
ACVALUE_END
170
2
140
0.125
171
1
172
0
173
0
174
0
175
1
176
1
 91
33
178
0
145
0.0
301
CELL_VALUE
 90
4
  1
May-24-23
304
ACVALUE_END
170
5
140
0.125
171
1
172
0
173
0
174
0
175
1
176
1
 91
33
178
0
145
0.0
301
CELL_VALUE
 90
4
  1
1.000
304
ACVALUE_END
170
5
140
0.125
171
1
172
0
173
0
174
0
175
1
176
1
 91
33
178
0
145
0.0
301
CELL_VALUE
 90
4
  1
C
304
ACVALUE_END
170
5
140
0.125
171
1
172
0
173
0
174
0
175
1
176
1
 91
33
178
0
145
0.0
301
CELL_VALUE
 90
4
  1
2
304
ACVALUE_END
170
5
140
0.125
171
1
172
0
173
0
174
0
175
1
176
1
 91
33
178
0
145
0.0
301
CELL_VALUE
 90
4
  1
 
304
ACVALUE_END
170
1
140
0.125
171
1
172
0
173
0
174
0
175
1
176
1
 91
33
178
0
145
0.0
301
CELL_VALUE
 90
4
  1
DESCRIPTION
304
ACVALUE_END
170
1
140
0.06
171
1
172
0
173
0
174
0
175
1
176
1
 91
33
178
0
145
0.0
301
CELL_VALUE
 90
4
  1
DATE
304
ACVALUE_END
170
1
140
0.06
171
1
172
0
173
0
174
0
175
1
176
1
 91
33
178
0
145
0.0
301
CELL_VALUE
 90
4
  1
SCALE
304
ACVALUE_END
170
1
140
0.06
171
1
172
0
173
0
174
0
175
1
176
1
 91
33
178
0
145
0.0
301
CELL_VALUE
 90
4
  1
DWG SIZE
304
ACVALUE_END
170
1
140
0.06
171
1
172
0
173
0
174
0
175
1
176
1
 91
33
178
0
145
0.0
301
CELL_VALUE
 90
4
  1
SHEET
304
ACVALUE_END
170
1
140
0.06
171
1
172
0
173
0
174
0
175
1
176
1
 91
33
178
0
145
0.0
301
CELL_VALUE
 90
4
  1
 
304
ACVALUE_END
170
1
140
0.125
171
1
172
0
173
0
174
0
175
1
176
1
 91
33
178
0
145
0.0
301
CELL_VALUE
 90
4
  1
H4W
304
ACVALUE_END
170
5
140
0.125
171
1
172
0
173
0
174
0
175
4
176
1
 91
33
178
0
145
0.0
301
CELL_VALUE
 90
4
  1
ALL DIMENSIONS IN INCH\PVIEWS ARE THIRD ANGLE
304
ACVALUE_END
170
5
140
0.12
171
1
172
0
173
1
174
0
175
1
176
1
 91
1
178
0
145
0.0
170
1
171
1
172
0
173
1
174
0
175
1
176
1
 91
1
178
0
145
0.0
170
1
171
1
172
0
173
1
174
0
175
1
176
1
 91
1
178
0
145
0.0
170
5
171
1
172
0
173
0
174
0
175
1
176
1
 91
33
178
0
145
0.0
301
CELL_VALUE
 90
4
  1
 
304
ACVALUE_END
170
1
140
0.125
171
1
172
0
173
0
174
0
175
1
176
1
 91
33
178
0
145
0.0
301
CELL_VALUE
 90
4
  1
MODEL
304
ACVALUE_END
170
1
140
0.06
171
1
172
0
173
0
174
0
175
1
176
1
 91
33
178
0
145
0.0
301
CELL_VALUE
 90
4
  1
 
304
ACVALUE_END
170
1
140
0.125
171
1
172
0
173
0
174
0
175
1
176
1
 91
33
178
0
145
0.0
301
CELL_VALUE
 90
4
  1
 
304
ACVALUE_END
170
1
140
0.125
171
1
172
0
173
0
174
0
175
1
176
1
 91
33
178
0
145
0.0
301
CELL_VALUE
 90
4
  1
 
304
ACVALUE_END
170
1
140
0.125
171
1
172
0
173
0
174
0
175
1
176
1
 91
33
178
0
145
0.0
301
CELL_VALUE
 90
4
  1
 
304
ACVALUE_END
170
1
140
0.125
171
1
172
0
173
0
174
0
175
1
176
1
 91
33
178
0
145
0.0
301
CELL_VALUE
 90
4
  1
 
304
ACVALUE_END
170
1
140
0.125
  0
ACAD_TABLE
  5
28D
100
AcDbEntity
  8
0
 62
2
  6
CONTINUOUS
100
AcDbBlockReference
  2
*T2
 10
12.4237499994
 20
16.47875
 30
0.0
100
AcDbTable
342
       3B9
343
208
 11
1.0
 21
0.0
 31
0.0
 90
22
 91
11
 92
3
 93
16
 94
0
 95
0
 96
0
 41
0.028
141
0.344
141
0.25
141
0.25
141
0.25
141
0.25
141
0.25
141
0.25
141
0.25
141
0.25
141
0.25
141
0.25
142
3.055
142
3.0
142
3.0
171
1
172
0
173
0
174
0
175
1
176
1
 91
33
178
0
145
0.0
301
CELL_VALUE
 90
4
  1
Technical Data
304
ACVALUE_END
170
5
140
0.145
171
1
172
0
173
0
174
0
175
1
176
1
 91
33
178
0
145
0.0
301
CELL_VALUE
 90
4
  1
U.S. Units
304
ACVALUE_END
170
5
140
0.145
171
1
172
0
173
0
174
0
175
1
176
1
 91
33
178
0
145
0.0
301
CELL_VALUE
 90
4
  1
Metric Units
304
ACVALUE_END
170
5
140
0.145
171
1
172
0
173
0
174
0
175
1
176
1
 91
33
178
0
145
0.0
301
CELL_VALUE
 90
4
  1
Cavity
304
ACVALUE_END
170
5
140
0.125
171
1
172
0
173
0
174
0
175
2
176
1
 91
33
178
0
145
0.0
301
CELL_VALUE
 90
4
  1
T-17A
304
ACVALUE_END
170
5
140
0.125
171
1
172
0
173
1
174
0
175
1
176
1
 91
1
178
0
145
0.0
170
1
171
1
172
0
173
0
174
0
175
1
176
1
 91
33
178
0
145
0.0
301
CELL_VALUE
 90
4
  1
Body Features
304
ACVALUE_END
170
5
140
0.125
171
1
172
0
173
0
174
0
175
2
176
1
 91
33
178
0
145
0.0
301
CELL_VALUE
 90
4
  1
Ninety degree with reverse flow check - reducing
304
ACVALUE_END
170
5
140
0.125
171
1
172
0
173
1
174
0
175
1
176
1
 91
1
178
0
145
0.0
170
1
171
1
172
0
173
0
174
0
175
1
176
1
 91
33
178
0
145
0.0
301
CELL_VALUE
 90
4
  1
Body Type
304
ACVALUE_END
170
5
140
0.125
171
1
172
0
173
0
174
0
175
2
176
1
 91
33
178
0
145
0.0
301
CELL_VALUE
 90
4
  1
Line mount
304
ACVALUE_END
170
5
140
0.125
171
1
172
0
173
1
174
0
175
1
176
1
 91
1
178
0
145
0.0
170
1
171
1
172
0
173
0
174
0
175
1
176
1
 91
33
178
0
145
0.0
301
CELL_VALUE
 90
4
  1
Interface
304
ACVALUE_END
170
5
140
0.125
171
1
172
0
173
0
174
0
175
2
176
1
 91
33
178
0
145
0.0
301
CELL_VALUE
 90
4
  1
None
304
ACVALUE_END
170
5
140
0.125
171
1
172
0
173
1
174
0
175
1
176
1
 91
1
178
0
145
0.0
170
1
171
1
172
0
173
0
174
0
175
1
176
1
 91
33
178
0
145
0.0
301
CELL_VALUE
 90
4
  1
Open Cavity Quantity
304
ACVALUE_END
170
5
140
0.125
171
1
172
0
173
0
174
0
175
2
176
1
 91
33
178
0
145
0.0
301
CELL_VALUE
 90
4
  1
1
304
ACVALUE_END
170
5
140
0.125
171
1
172
0
173
1
174
0
175
1
176
1
 91
1
178
0
145
0.0
170
1
171
1
172
0
173
0
174
0
175
1
176
1
 91
33
178
0
145
0.0
301
CELL_VALUE
 90
4
  1
Weight
304
ACVALUE_END
170
5
140
0.125
171
1
172
0
173
0
174
0
175
1
176
1
 91
33
178
0
145
0.0
301
CELL_VALUE
 90
4
  1
6.297 lb.
304
ACVALUE_END
170
5
140
0.125
171
1
172
0
173
0
174
0
175
1
176
1
 91
33
178
0
145
0.0
301
CELL_VALUE
 90
4
  1
2,856 kg.
304
ACVALUE_END
170
5
140
0.125
171
1
172
0
173
0
174
0
175
1
176
1
 91
33
178
0
145
0.0
301
CELL_VALUE
 90
4
  1
Mounting Hole Diameter
304
ACVALUE_END
170
5
140
0.125
171
1
172
0
173
0
174
0
175
1
176
1
 91
33
178
0
145
0.0
301
CELL_VALUE
 90
4
  1
.41 in.
304
ACVALUE_END
170
5
140
0.125
171
1
172
0
173
0
174
0
175
1
176
1
 91
33
178
0
145
0.0
301
CELL_VALUE
 90
4
  1
10,4 mm
304
ACVALUE_END
170
5
140
0.125
171
1
172
0
173
0
174
0
175
1
176
1
 91
33
178
0
145
0.0
301
CELL_VALUE
 90
4
  1
Mounting Hole Depth
304
ACVALUE_END
170
5
140
0.125
171
1
172
0
173
0
174
0
175
2
176
1
 91
33
178
0
145
0.0
301
CELL_VALUE
 90
4
  1
Through
304
ACVALUE_END
170
5
140
0.125
171
1
172
0
173
1
174
0
175
1
176
1
 91
1
178
0
145
0.0
170
1
171
1
172
0
173
0
174
0
175
1
176
1
 91
33
178
0
145
0.0
301
CELL_VALUE
 90
4
  1
Mounting Hole Quantity
304
ACVALUE_END
170
5
140
0.125
171
1
172
0
173
0
174
0
175
2
176
1
 91
33
178
0
145
0.0
301
CELL_VALUE
 90
4
  1
2
304
ACVALUE_END
170
5
140
0.125
171
1
172
0
173
1
174
0
175
1
176
1
 91
1
178
0
145
0.0
170
1
171
1
172
0
173
0
174
0
175
1
176
1
 91
33
178
0
145
0.0
301
CELL_VALUE
 90
4
  1
Includes integral cartridge(s)
304
ACVALUE_END
170
5
140
0.125
171
1
172
0
173
0
174
0
175
2
176
1
 91
33
178
0
145
0.0
301
CELL_VALUE
 90
4
  1
Yes (see Included Components)
304
ACVALUE_END
170
5
140
0.125
171
1
172
0
173
1
174
0
175
1
176
1
 91
1
178
0
145
0.0
170
1
  0
ACAD_TABLE
  5
28E
100
AcDbEntity
  8
0
 62
2
  6
CONTINUOUS
100
AcDbBlockReference
  2
*T3
 10
0.52125
 20
1.959
 30
0.0
100
AcDbTable
342
       3B9
343
209
 11
1.0
 21
0.0
 31
0.0
 90
22
 91
5
 92
3
 93
16
 94
0
 95
0
 96
0
 41
0.05
141
0.34375
141
0.344
141
0.25
141
0.25
141
0.25
142
1.3
142
2.0
142
1.3
171
1
172
0
173
0
174
0
175
3
176
1
 91
33
178
0
145
0.0
301
CELL_VALUE
 90
4
  1
Port Headings
304
ACVALUE_END
170
5
140
0.145
171
1
172
0
173
1
174
0
175
1
176
1
 91
1
178
0
145
0.0
170
1
171
1
172
0
173
1
174
0
175
1
176
1
 91
1
178
0
145
0.0
170
1
171
1
172
0
173
0
174
0
175
1
176
1
 91
33
178
0
145
0.0
301
CELL_VALUE
 90
4
  1
Product
304
ACVALUE_END
170
5
140
0.145
171
1
172
0
173
0
174
0
175
1
176
1
 91
33
178
0
145
0.0
301
CELL_VALUE
 90
4
  1
Port
304
ACVALUE_END
170
5
140
0.145
171
1
172
0
173
0
174
0
175
1
176
1
 91
33
178
0
145
0.0
301
CELL_VALUE
 90
4
  1
Size
304
ACVALUE_END
170
5
140
0.145
171
1
172
0
173
0
174
0
175
1
176
1
 91
33
178
0
145
0.0
301
CELL_VALUE
 90
4
  1
H4W
304
ACVALUE_END
170
5
140
0.125
171
1
172
0
173
0
174
0
175
1
176
1
 91
33
178
0
145
0.0
301
CELL_VALUE
 90
4
  1
Ports 1 &  2
304
ACVALUE_END
170
5
140
0.125
171
1
172
0
173
0
174
0
175
1
176
1
 91
33
178
0
145
0.0
301
CELL_VALUE
 90
4
  1
3/4" BSPP
304
ACVALUE_END
170
5
140
0.125
171
1
172
0
173
0
174
0
175
1
176
1
 91
33
178
0
145
0.0
301
CELL_VALUE
 90
4
  1
H4W
304
ACVALUE_END
170
5
140
0.125
171
1
172
0
173
0
174
0
175
1
176
1
 91
33
178
0
145
0.0
301
CELL_VALUE
 90
4
  1
Port 3
304
ACVALUE_END
170
5
140
0.125
171
1
172
0
173
0
174
0
175
1
176
1
 91
33
178
0
145
0.0
301
CELL_VALUE
 90
4
  1
3/4" BSPP
304
ACVALUE_END
170
5
140
0.125
171
1
172
0
173
0
174
0
175
1
176
1
 91
33
178
0
145
0.0
301
CELL_VALUE
 90
4
  1
H4W
304
ACVALUE_END
170
5
140
0.125
171
1
172
0
173
0
174
0
175
1
176
1
 91
33
178
0
145
0.0
301
CELL_VALUE
 90
4
  1
Gage Port
304
ACVALUE_END
170
5
140
0.125
171
1
172
0
173
0
174
0
175
1
176
1
 91
33
178
0
145
0.0
301
CELL_VALUE
 90
4
  1
1/4" BSPP
304
ACVALUE_END
170
5
140
0.125
  0
MTEXT
  5
28F
100
AcDbEntity
  8
0
100
AcDbMText
 62
2
  6
CONTINUOUS
  7
STANDARD
 71
1
 72
1
 10
0.52125
 20
5.75995
 30
0.0
 11
1.0
 21
0.0
 31
0.0
 44
0.6
  3
Notes\P \P1. Important: Carefully consider\P   the maximum system pressure. The\P   pressure rating of the manifold is\P   dependent on the manifold material,\P   with the port type/size a secondary\P   consideration. Manifolds\P   constructed of alu
  3
minum are not\P   rated for pressures higher than\P   3000 psi (210 bar), regardless of\P   the port type/size specified.\P2. This drawing is for reference\P   only. It is generated by an\P   automated process and does not fall\P   under Sun's docume
  1
nt control\P   process.
 40
0.1
 41
3.04
  0
LINE
  5
290
100
AcDbEntity
  8
0
100
AcDbLine
 62
7
  6
CONTINUOUS
 10
0.30125
 20
0.30125
 11
0.30125
 21
16.69875
  0
LINE
  5
291
100
AcDbEntity
  8
0
100
AcDbLine
 62
7
  6
CONTINUOUS
 10
0.30125
 20
0.30125
 11
21.69875
 21
0.30125
  0
LINE
  5
292
100
AcDbEntity
  8
0
100
AcDbLine
 62
7
  6
CONTINUOUS
 10
0.30125
 20
16.69875
 11
21.69875
 21
16.69875
  0
LINE
  5
293
100
AcDbEntity
  8
0
100
AcDbLine
 62
7
  6
CONTINUOUS
 10
21.69875
 20
0.30125
 11
21.69875
 21
16.69875
  0
LINE
  5
294
100
AcDbEntity
  8
0
100
AcDbLine
 62
7
  6
CONTINUOUS
 10
8.3107079034
 20
11.4115292352
 11
7.6636608247
 21
10.7865297139
  0
LINE
  5
295
100
AcDbEntity
  8
0
100
AcDbLine
 62
4
  6
CONTINUOUS
 10
8.3417405997
 20
6.1489417391
 11
8.3320813434
 21
6.1641004988
  0
LINE
  5
296
100
AcDbEntity
  8
0
100
AcDbLine
 62
7
  6
CONTINUOUS
 10
7.6636608247
 20
10.7865297139
 11
7.6636608247
 21
5.9569002963
  0
LINE
  5
297
100
AcDbEntity
  8
0
100
AcDbLine
 62
4
  6
CONTINUOUS
 10
8.3610591192
 20
6.198313103
 11
8.3707183756
 21
6.1903987873
  0
LINE
  5
298
100
AcDbEntity
  8
0
100
AcDbLine
 62
4
  6
CONTINUOUS
 10
8.419014671
 20
6.2015383158
 11
8.4383331879
 21
6.1857096842
  0
LINE
  5
299
100
AcDbEntity
  8
0
100
AcDbLine
 62
4
  6
CONTINUOUS
 10
8.3707183756
 20
6.1903987873
 11
8.3803776388
 21
6.1752400272
  0
LINE
  5
29A
100
AcDbEntity
  8
0
100
AcDbLine
 62
4
  6
CONTINUOUS
 10
8.4383331879
 20
6.1857096842
 11
8.4479924468
 21
6.1705509244
  0
LINE
  5
29B
100
AcDbEntity
  8
0
100
AcDbLine
 62
4
  6
CONTINUOUS
 10
7.9148016459
 20
8.0633132048
 11
7.9148016459
 21
7.9956983927
  0
LINE
  5
29C
100
AcDbEntity
  8
0
100
AcDbLine
 62
4
  6
CONTINUOUS
 10
7.9148016459
 20
7.5815576684
 11
7.9148016459
 21
7.6660761835
  0
LINE
  5
29D
100
AcDbEntity
  8
0
100
AcDbLine
 62
4
  6
CONTINUOUS
 10
7.9824164581
 20
7.7290018925
 11
7.9824164581
 21
7.7797130016
  0
LINE
  5
29E
100
AcDbEntity
  8
0
100
AcDbLine
 62
4
  6
CONTINUOUS
 10
8.0049547274
 20
8.133127731
 11
8.0049547274
 21
8.1838388401
  0
LINE
  5
29F
100
AcDbEntity
  8
0
100
AcDbLine
 62
4
  6
CONTINUOUS
 10
8.3320813434
 20
6.1641004988
 11
8.3320813434
 21
6.1785893867
  0
LINE
  5
2A0
100
AcDbEntity
  8
0
100
AcDbLine
 62
4
  6
CONTINUOUS
 10
8.3803776388
 20
6.1607511393
 11
8.3803776388
 21
6.1752400272
  0
LINE
  5
2A1
100
AcDbEntity
  8
0
100
AcDbLine
 62
7
  6
CONTINUOUS
 10
7.6636608247
 20
5.9569002963
 11
12.9762531841
 21
5.5884707648
  0
LINE
  5
2A2
100
AcDbEntity
  8
0
100
AcDbLine
 62
4
  6
CONTINUOUS
 10
8.4479924468
 20
6.1705509244
 11
8.4479924468
 21
6.1560620364
  0
LINE
  5
2A3
100
AcDbEntity
  8
0
100
AcDbLine
 62
4
  6
CONTINUOUS
 10
9.5922928356
 20
10.4704601194
 11
9.6035619763
 21
10.4781304534
  0
LINE
  5
2A4
100
AcDbEntity
  8
0
100
AcDbLine
 62
4
  6
CONTINUOUS
 10
8.3513998629
 20
6.1989829747
 11
8.3610591192
 21
6.198313103
  0
LINE
  5
2A5
100
AcDbEntity
  8
0
100
AcDbLine
 62
4
  6
CONTINUOUS
 10
11.5321939908
 20
5.9783941527
 11
11.6481050942
 21
5.9703556904
  0
LINE
  5
2A6
100
AcDbEntity
  8
0
100
AcDbLine
 62
4
  6
CONTINUOUS
 10
8.4093554112
 20
6.2022081877
 11
8.419014671
 21
6.2015383158
  0
LINE
  5
2A7
100
AcDbEntity
  8
0
100
AcDbLine
 62
4
  6
CONTINUOUS
 10
9.5810237029
 20
10.4543379334
 11
9.5922928356
 21
10.4704601194
  0
LINE
  5
2A8
100
AcDbEntity
  8
0
100
AcDbLine
 62
4
  6
CONTINUOUS
 10
9.5375570387
 20
7.7501035866
 11
9.5375570387
 21
7.6921480336
  0
LINE
  5
2A9
100
AcDbEntity
  8
0
100
AcDbLine
 62
4
  6
CONTINUOUS
 10
9.5375570387
 20
7.8660146926
 11
9.5375570387
 21
7.9239702456
  0
LINE
  5
2AA
100
AcDbEntity
  8
0
100
AcDbLine
 62
4
  6
CONTINUOUS
 10
7.9598781847
 20
8.0432834332
 11
7.9148016459
 21
8.0633132048
  0
LINE
  5
2AB
100
AcDbEntity
  8
0
100
AcDbLine
 62
4
  6
CONTINUOUS
 10
9.5665348152
 20
8.6575131903
 11
9.5665348152
 21
8.6720020785
  0
LINE
  5
2AC
100
AcDbEntity
  8
0
100
AcDbLine
 62
4
  6
CONTINUOUS
 10
9.5810237029
 20
10.4374342304
 11
9.5810237029
 21
10.4543379334
  0
LINE
  5
2AD
100
AcDbEntity
  8
0
100
AcDbLine
 62
4
  6
CONTINUOUS
 10
9.5955125917
 20
8.4888813598
 11
9.5955125917
 21
8.4502443244
  0
LINE
  5
2AE
100
AcDbEntity
  8
0
100
AcDbLine
 62
4
  6
CONTINUOUS
 10
9.5955125917
 20
8.0938176734
 11
9.5955125917
 21
8.0358621204
  0
LINE
  5
2AF
100
AcDbEntity
  8
0
100
AcDbLine
 62
4
  6
CONTINUOUS
 10
9.5955125917
 20
7.6881288023
 11
9.5955125917
 21
7.7460843553
  0
LINE
  5
2B0
100
AcDbEntity
  8
0
100
AcDbLine
 62
4
  6
CONTINUOUS
 10
9.5955125917
 20
8.23774063
 11
9.5955125917
 21
8.2956961831
  0
LINE
  5
2B1
100
AcDbEntity
  8
0
100
AcDbLine
 62
4
  6
CONTINUOUS
 10
9.5955125917
 20
8.3343332184
 11
9.5955125917
 21
8.3922887714
  0
LINE
  5
2B2
100
AcDbEntity
  8
0
100
AcDbLine
 62
4
  6
CONTINUOUS
 10
9.5955125917
 20
8.7013850541
 11
9.5955125917
 21
8.7593406071
  0
LINE
  5
2B3
100
AcDbEntity
  8
0
100
AcDbLine
 62
4
  6
CONTINUOUS
 10
9.5955125917
 20
8.7979776425
 11
9.5955125917
 21
8.8559331955
  0
LINE
  5
2B4
100
AcDbEntity
  8
0
100
AcDbLine
 62
4
  6
CONTINUOUS
 10
9.6148311094
 20
8.429586063
 11
9.6148311094
 21
8.487541616
  0
LINE
  5
2B5
100
AcDbEntity
  8
0
100
AcDbLine
 62
4
  6
CONTINUOUS
 10
9.6244903682
 20
8.7959680269
 11
9.6244903682
 21
8.8539235799
  0
LINE
  5
2B6
100
AcDbEntity
  8
0
100
AcDbLine
 62
4
  6
CONTINUOUS
 10
9.6534681447
 20
8.8519139642
 11
9.6534681447
 21
8.7939584112
  0
LINE
  5
2B7
100
AcDbEntity
  8
0
100
AcDbLine
 62
4
  6
CONTINUOUS
 10
9.6534681447
 20
8.4848621285
 11
9.6534681447
 21
8.4269065755
  0
LINE
  5
2B8
100
AcDbEntity
  8
0
100
AcDbLine
 62
4
  6
CONTINUOUS
 10
9.6534681447
 20
8.2916769518
 11
9.6534681447
 21
8.2337213988
  0
LINE
  5
2B9
100
AcDbEntity
  8
0
100
AcDbLine
 62
4
  6
CONTINUOUS
 10
9.6534681447
 20
8.1950843634
 11
9.6534681447
 21
8.1371288104
  0
LINE
  5
2BA
100
AcDbEntity
  8
0
100
AcDbLine
 62
4
  6
CONTINUOUS
 10
9.6534681447
 20
7.8289984536
 11
9.6534681447
 21
7.7710429006
  0
LINE
  5
2BB
100
AcDbEntity
  8
0
100
AcDbLine
 62
4
  6
CONTINUOUS
 10
9.6534681447
 20
7.7420651241
 11
9.6534681447
 21
7.6841095711
  0
LINE
  5
2BC
100
AcDbEntity
  8
0
100
AcDbLine
 62
4
  6
CONTINUOUS
 10
9.6534681447
 20
8.5234991638
 11
9.6534681447
 21
8.5814547169
  0
LINE
  5
2BD
100
AcDbEntity
  8
0
100
AcDbLine
 62
4
  6
CONTINUOUS
 10
9.6534681447
 20
8.6973658229
 11
9.6534681447
 21
8.7553213759
  0
LINE
  5
2BE
100
AcDbEntity
  8
0
100
AcDbLine
 62
4
  6
CONTINUOUS
 10
9.7114236977
 20
8.1910651322
 11
9.7114236977
 21
8.1524280969
  0
LINE
  5
2BF
100
AcDbEntity
  8
0
100
AcDbLine
 62
4
  6
CONTINUOUS
 10
9.7162533272
 20
10.4027004695
 11
9.7162533272
 21
10.4703152817
  0
LINE
  5
2C0
100
AcDbEntity
  8
0
100
AcDbLine
 62
4
  6
CONTINUOUS
 10
7.9936855948
 20
8.0324870298
 11
7.9598781847
 21
8.0432834332
  0
LINE
  5
2C1
100
AcDbEntity
  8
0
100
AcDbLine
 62
4
  6
CONTINUOUS
 10
8.0500312702
 20
8.1130979591
 11
7.9148016459
 21
8.164735423
  0
LINE
  5
2C2
100
AcDbEntity
  8
0
100
AcDbLine
 62
4
  6
CONTINUOUS
 10
9.9233754315
 20
8.0742540673
 11
9.9233754315
 21
8.1322096203
  0
LINE
  5
2C3
100
AcDbEntity
  8
0
100
AcDbLine
 62
4
  6
CONTINUOUS
 10
9.9647722578
 20
8.2204117506
 11
9.9647722578
 21
8.1624561976
  0
LINE
  5
2C4
100
AcDbEntity
  8
0
100
AcDbLine
 62
4
  6
CONTINUOUS
 10
10.1287036794
 20
7.7854155784
 11
10.1287036794
 21
7.826812396
  0
LINE
  5
2C5
100
AcDbEntity
  8
0
100
AcDbLine
 62
4
  6
CONTINUOUS
 10
10.1287036794
 20
7.9896398958
 11
10.1287036794
 21
8.0558748096
  0
LINE
  5
2C6
100
AcDbEntity
  8
0
100
AcDbLine
 62
4
  6
CONTINUOUS
 10
10.1287036794
 20
8.0889922803
 11
10.1287036794
 21
8.1386684726
  0
LINE
  5
2C7
100
AcDbEntity
  8
0
100
AcDbLine
 62
4
  6
CONTINUOUS
 10
10.1287036794
 20
8.2794176885
 11
10.1287036794
 21
8.3125351316
  0
LINE
  5
2C8
100
AcDbEntity
  8
0
100
AcDbLine
 62
4
  6
CONTINUOUS
 10
10.1287036794
 20
8.37601024
 11
10.1287036794
 21
8.40084835
  0
LINE
  5
2C9
100
AcDbEntity
  8
0
100
AcDbLine
 62
4
  6
CONTINUOUS
 10
10.1287036794
 20
8.4505245146
 11
10.1287036794
 21
8.4919213461
  0
LINE
  5
2CA
100
AcDbEntity
  8
0
100
AcDbLine
 62
4
  6
CONTINUOUS
 10
10.1287036794
 20
8.5553965098
 11
10.1287036794
 21
8.6050726744
  0
LINE
  5
2CB
100
AcDbEntity
  8
0
100
AcDbLine
 62
4
  6
CONTINUOUS
 10
8.3320813434
 20
6.1785893867
 11
8.3417405997
 21
6.1924084029
  0
LINE
  5
2CC
100
AcDbEntity
  8
0
100
AcDbLine
 62
4
  6
CONTINUOUS
 10
11.7543569228
 20
7.4951871549
 11
11.7205495168
 21
7.489079855
  0
LINE
  5
2CD
100
AcDbEntity
  8
0
100
AcDbLine
 62
4
  6
CONTINUOUS
 10
7.9148016459
 20
7.6238169259
 11
8.0500312702
 21
7.6144387196
  0
LINE
  5
2CE
100
AcDbEntity
  8
0
100
AcDbLine
 62
4
  6
CONTINUOUS
 10
9.5375570387
 20
7.6921480336
 11
9.5955125917
 21
7.6881288023
  0
LINE
  5
2CF
100
AcDbEntity
  8
0
100
AcDbLine
 62
4
  6
CONTINUOUS
 10
11.7205495168
 20
7.5735983702
 11
11.7656260575
 21
7.5704723014
  0
LINE
  5
2D0
100
AcDbEntity
  8
0
100
AcDbLine
 62
4
  6
CONTINUOUS
 10
9.5955125917
 20
7.7460843553
 11
9.6534681447
 21
7.7420651241
  0
LINE
  5
2D1
100
AcDbEntity
  8
0
100
AcDbLine
 62
4
  6
CONTINUOUS
 10
8.0500312702
 20
8.0201275924
 11
7.9936855948
 21
8.0324870298
  0
LINE
  5
2D2
100
AcDbEntity
  8
0
100
AcDbLine
 62
4
  6
CONTINUOUS
 10
10.2280560553
 20
7.8364810138
 11
10.2446147855
 21
7.8187739335
  0
LINE
  5
2D3
100
AcDbEntity
  8
0
100
AcDbLine
 62
4
  6
CONTINUOUS
 10
10.1728602886
 20
7.7602749991
 11
10.1949385967
 21
7.7145872506
  0
LINE
  5
2D4
100
AcDbEntity
  8
0
100
AcDbLine
 62
4
  6
CONTINUOUS
 10
10.1783798648
 20
8.5850688977
 11
10.1783798648
 21
8.5519514546
  0
LINE
  5
2D5
100
AcDbEntity
  8
0
100
AcDbLine
 62
4
  6
CONTINUOUS
 10
10.1783798648
 20
8.1186646959
 11
10.1783798648
 21
8.0855472252
  0
LINE
  5
2D6
100
AcDbEntity
  8
0
100
AcDbLine
 62
4
  6
CONTINUOUS
 10
10.2114973251
 20
7.8955849186
 11
10.2114973251
 21
7.9397415278
  0
LINE
  5
2D7
100
AcDbEntity
  8
0
100
AcDbLine
 62
4
  6
CONTINUOUS
 10
10.2446147855
 20
8.4838828836
 11
10.2446147855
 21
8.4424860521
  0
LINE
  5
2D8
100
AcDbEntity
  8
0
100
AcDbLine
 62
4
  6
CONTINUOUS
 10
10.2446147855
 20
8.3928098875
 11
10.2446147855
 21
8.3679717775
  0
LINE
  5
2D9
100
AcDbEntity
  8
0
100
AcDbLine
 62
4
  6
CONTINUOUS
 10
10.2446147855
 20
8.3044966691
 11
10.2446147855
 21
8.271379226
  0
LINE
  5
2DA
100
AcDbEntity
  8
0
100
AcDbLine
 62
4
  6
CONTINUOUS
 10
10.2446147855
 20
7.8187739335
 11
10.2446147855
 21
7.7773771159
  0
LINE
  5
2DB
100
AcDbEntity
  8
0
100
AcDbLine
 62
4
  6
CONTINUOUS
 10
10.2446147855
 20
8.0809538178
 11
10.2446147855
 21
8.1306300101
  0
LINE
  5
2DC
100
AcDbEntity
  8
0
100
AcDbLine
 62
4
  6
CONTINUOUS
 10
10.2446147855
 20
8.5473580473
 11
10.2446147855
 21
8.5970342119
  0
LINE
  5
2DD
100
AcDbEntity
  8
0
100
AcDbLine
 62
4
  6
CONTINUOUS
 10
10.1728602886
 20
8.6351278462
 11
10.1949385967
 21
8.6777533195
  0
LINE
  5
2DE
100
AcDbEntity
  8
0
100
AcDbLine
 62
4
  6
CONTINUOUS
 10
8.3803776388
 20
6.1752400272
 11
8.3900368951
 21
6.1890590435
  0
LINE
  5
2DF
100
AcDbEntity
  8
0
100
AcDbLine
 62
4
  6
CONTINUOUS
 10
8.4479924468
 20
6.1560620364
 11
8.4383331879
 21
6.1422430204
  0
LINE
  5
2E0
100
AcDbEntity
  8
0
100
AcDbLine
 62
4
  6
CONTINUOUS
 10
10.1287036794
 20
8.4919213461
 11
10.1452624079
 21
8.5073317159
  0
LINE
  5
2E1
100
AcDbEntity
  8
0
100
AcDbLine
 62
4
  6
CONTINUOUS
 10
9.6534681447
 20
7.7710429006
 11
9.5375570387
 21
7.7790813631
  0
LINE
  5
2E2
100
AcDbEntity
  8
0
100
AcDbLine
 62
4
  6
CONTINUOUS
 10
7.9148016459
 20
7.8942761745
 11
8.0500312702
 21
7.8848979682
  0
LINE
  5
2E3
100
AcDbEntity
  8
0
100
AcDbLine
 62
4
  6
CONTINUOUS
 10
10.2446147855
 20
7.7773771159
 11
10.1287036794
 21
7.7854155784
  0
LINE
  5
2E4
100
AcDbEntity
  8
0
100
AcDbLine
 62
4
  6
CONTINUOUS
 10
9.5375570387
 20
7.8370369161
 11
9.6534681447
 21
7.8289984536
  0
LINE
  5
2E5
100
AcDbEntity
  8
0
100
AcDbLine
 62
4
  6
CONTINUOUS
 10
9.5375570387
 20
7.8660146926
 11
9.6534681447
 21
7.8579762301
  0
LINE
  5
2E6
100
AcDbEntity
  8
0
100
AcDbLine
 62
4
  6
CONTINUOUS
 10
10.1452624079
 20
7.8422227727
 11
10.2280560553
 21
7.8364810138
  0
LINE
  5
2E7
100
AcDbEntity
  8
0
100
AcDbLine
 62
4
  6
CONTINUOUS
 10
9.5375570387
 20
7.9239702456
 11
9.6534681447
 21
7.9159317831
  0
LINE
  5
2E8
100
AcDbEntity
  8
0
100
AcDbLine
 62
4
  6
CONTINUOUS
 10
9.6534681447
 20
8.0318428891
 11
9.5375570387
 21
8.0398813516
  0
LINE
  5
2E9
100
AcDbEntity
  8
0
100
AcDbLine
 62
4
  6
CONTINUOUS
 10
11.7205495168
 20
7.489079855
 11
11.6867421107
 21
7.4998762581
  0
LINE
  5
2EA
100
AcDbEntity
  8
0
100
AcDbLine
 62
4
  6
CONTINUOUS
 10
9.9647722578
 20
8.1624561976
 11
9.8736992462
 21
8.1936102285
  0
LINE
  5
2EB
100
AcDbEntity
  8
0
100
AcDbLine
 62
4
  6
CONTINUOUS
 10
10.2446147855
 20
7.8822490627
 11
10.1287036794
 21
7.9234049821
  0
LINE
  5
2EC
100
AcDbEntity
  8
0
100
AcDbLine
 62
4
  6
CONTINUOUS
 10
9.9896103522
 20
8.2766447759
 11
9.9068167031
 21
8.3072246311
  0
LINE
  5
2ED
100
AcDbEntity
  8
0
100
AcDbLine
 62
4
  6
CONTINUOUS
 10
10.1452624079
 20
8.2617106153
 11
10.1287036794
 21
8.2794176885
  0
LINE
  5
2EE
100
AcDbEntity
  8
0
100
AcDbLine
 62
4
  6
CONTINUOUS
 10
10.1452624079
 20
8.3583031668
 11
10.1287036794
 21
8.37601024
  0
LINE
  5
2EF
100
AcDbEntity
  8
0
100
AcDbLine
 62
4
  6
CONTINUOUS
 10
10.2280560553
 20
8.4105169609
 11
10.2446147855
 21
8.3928098875
  0
LINE
  5
2F0
100
AcDbEntity
  8
0
100
AcDbLine
 62
4
  6
CONTINUOUS
 10
10.2280560553
 20
8.5015899569
 11
10.2446147855
 21
8.4838828836
  0
LINE
  5
2F1
100
AcDbEntity
  8
0
100
AcDbLine
 62
4
  6
CONTINUOUS
 10
10.1949385967
 20
8.6777533195
 11
10.217016903
 21
8.6320655746
  0
LINE
  5
2F2
100
AcDbEntity
  8
0
100
AcDbLine
 62
4
  6
CONTINUOUS
 10
10.1949385967
 20
7.7145872506
 11
10.217016903
 21
7.7572127275
  0
LINE
  5
2F3
100
AcDbEntity
  8
0
100
AcDbLine
 62
4
  6
CONTINUOUS
 10
10.1287036794
 20
8.40084835
 11
10.1452624079
 21
8.4162587198
  0
LINE
  5
2F4
100
AcDbEntity
  8
0
100
AcDbLine
 62
4
  6
CONTINUOUS
 10
10.2446147855
 20
8.3679717775
 11
10.2280560553
 21
8.3525614078
  0
LINE
  5
2F5
100
AcDbEntity
  8
0
100
AcDbLine
 62
4
  6
CONTINUOUS
 10
10.2446147855
 20
8.271379226
 11
10.2280560553
 21
8.2559688563
  0
LINE
  5
2F6
100
AcDbEntity
  8
0
100
AcDbLine
 62
4
  6
CONTINUOUS
 10
10.1287036794
 20
7.9234049821
 11
10.2446147855
 21
7.9484839903
  0
LINE
  5
2F7
100
AcDbEntity
  8
0
100
AcDbLine
 62
4
  6
CONTINUOUS
 10
10.2446147855
 20
8.014718904
 11
10.1287036794
 21
8.0227573666
  0
LINE
  5
2F8
100
AcDbEntity
  8
0
100
AcDbLine
 62
4
  6
CONTINUOUS
 10
9.6534681447
 20
8.0897984421
 11
9.5955125917
 21
8.0938176734
  0
LINE
  5
2F9
100
AcDbEntity
  8
0
100
AcDbLine
 62
4
  6
CONTINUOUS
 10
9.9896103522
 20
8.06966066
 11
9.8736992462
 21
8.0776991225
  0
LINE
  5
2FA
100
AcDbEntity
  8
0
100
AcDbLine
 62
4
  6
CONTINUOUS
 10
10.2446147855
 20
8.0809538178
 11
10.1287036794
 21
8.0889922803
  0
LINE
  5
2FB
100
AcDbEntity
  8
0
100
AcDbLine
 62
4
  6
CONTINUOUS
 10
9.6534681447
 20
8.1371288104
 11
9.5955125917
 21
8.1411480417
  0
LINE
  5
2FC
100
AcDbEntity
  8
0
100
AcDbLine
 62
4
  6
CONTINUOUS
 10
9.8736992462
 20
8.1356546755
 11
9.9896103522
 21
8.127616213
  0
LINE
  5
2FD
100
AcDbEntity
  8
0
100
AcDbLine
 62
4
  6
CONTINUOUS
 10
9.5955125917
 20
8.1991035947
 11
9.7114236977
 21
8.1910651322
  0
LINE
  5
2FE
100
AcDbEntity
  8
0
100
AcDbLine
 62
4
  6
CONTINUOUS
 10
9.9896103522
 20
8.1993707098
 11
9.9316547992
 21
8.2033899411
  0
LINE
  5
2FF
100
AcDbEntity
  8
0
100
AcDbLine
 62
4
  6
CONTINUOUS
 10
9.6534681447
 20
8.2337213988
 11
9.5955125917
 21
8.23774063
  0
LINE
  5
300
100
AcDbEntity
  8
0
100
AcDbLine
 62
4
  6
CONTINUOUS
 10
9.5375570387
 20
8.2997154143
 11
9.6534681447
 21
8.2916769518
  0
LINE
  5
301
100
AcDbEntity
  8
0
100
AcDbLine
 62
4
  6
CONTINUOUS
 10
10.2280560553
 20
8.2559688563
 11
10.1452624079
 21
8.2617106153
  0
LINE
  5
302
100
AcDbEntity
  8
0
100
AcDbLine
 62
4
  6
CONTINUOUS
 10
9.5955125917
 20
8.3343332184
 11
9.6534681447
 21
8.3303139871
  0
LINE
  5
303
100
AcDbEntity
  8
0
100
AcDbLine
 62
4
  6
CONTINUOUS
 10
9.9896103522
 20
8.3263209543
 11
9.8736992462
 21
8.3591975268
  0
LINE
  5
304
100
AcDbEntity
  8
0
100
AcDbLine
 62
4
  6
CONTINUOUS
 10
11.6867421107
 20
7.4998762581
 11
11.6642038373
 21
7.5183429957
  0
LINE
  5
305
100
AcDbEntity
  8
0
100
AcDbLine
 62
7
  6
CONTINUOUS
 10
13.6233002628
 20
11.0430997037
 11
12.9762531841
 21
10.4181001824
  0
LINE
  5
306
100
AcDbEntity
  8
0
100
AcDbLine
 62
4
  6
CONTINUOUS
 10
10.1287036794
 20
7.826812396
 11
10.1452624079
 21
7.8422227727
  0
LINE
  5
307
100
AcDbEntity
  8
0
100
AcDbLine
 62
4
  6
CONTINUOUS
 10
12.5512457832
 20
9.1508190478
 11
12.6864754075
 21
9.2090556537
  0
LINE
  5
308
100
AcDbEntity
  8
0
100
AcDbLine
 62
4
  6
CONTINUOUS
 10
9.8736992462
 20
8.2598451423
 11
9.9896103522
 21
8.2766447759
  0
LINE
  5
309
100
AcDbEntity
  8
0
100
AcDbLine
 62
4
  6
CONTINUOUS
 10
10.2280560553
 20
8.3525614078
 11
10.1452624079
 21
8.3583031668
  0
LINE
  5
30A
100
AcDbEntity
  8
0
100
AcDbLine
 62
4
  6
CONTINUOUS
 10
9.6534681447
 20
8.4269065755
 11
9.6148311094
 21
8.429586063
  0
LINE
  5
30B
100
AcDbEntity
  8
0
100
AcDbLine
 62
4
  6
CONTINUOUS
 10
10.1452624079
 20
8.4162587198
 11
10.2280560553
 21
8.4105169609
  0
LINE
  5
30C
100
AcDbEntity
  8
0
100
AcDbLine
 62
4
  6
CONTINUOUS
 10
10.2446147855
 20
8.4424860521
 11
10.1287036794
 21
8.4505245146
  0
LINE
  5
30D
100
AcDbEntity
  8
0
100
AcDbLine
 62
4
  6
CONTINUOUS
 10
9.5955125917
 20
8.4888813598
 11
9.6534681447
 21
8.4848621285
  0
LINE
  5
30E
100
AcDbEntity
  8
0
100
AcDbLine
 62
4
  6
CONTINUOUS
 10
9.5955125917
 20
8.5275183951
 11
9.6534681447
 21
8.5234991638
  0
LINE
  5
30F
100
AcDbEntity
  8
0
100
AcDbLine
 62
4
  6
CONTINUOUS
 10
10.1452624079
 20
8.5073317159
 11
10.2280560553
 21
8.5015899569
  0
LINE
  5
310
100
AcDbEntity
  8
0
100
AcDbLine
 62
4
  6
CONTINUOUS
 10
9.6534681447
 20
8.5814547169
 11
9.5955125917
 21
8.5854739481
  0
LINE
  5
311
100
AcDbEntity
  8
0
100
AcDbLine
 62
4
  6
CONTINUOUS
 10
10.2446147855
 20
8.5473580473
 11
10.1287036794
 21
8.5553965098
  0
LINE
  5
312
100
AcDbEntity
  8
0
100
AcDbLine
 62
4
  6
CONTINUOUS
 10
9.6534681447
 20
8.6200917522
 11
9.5375570387
 21
8.6281302147
  0
LINE
  5
313
100
AcDbEntity
  8
0
100
AcDbLine
 62
4
  6
CONTINUOUS
 10
11.7656260575
 20
7.5704723014
 11
11.7768951932
 21
7.5612389327
  0
LINE
  5
314
100
AcDbEntity
  8
0
100
AcDbLine
 62
4
  6
CONTINUOUS
 10
9.5922928356
 20
10.4197490103
 11
9.5810237029
 21
10.4374342304
  0
LINE
  5
315
100
AcDbEntity
  8
0
100
AcDbLine
 62
4
  6
CONTINUOUS
 10
9.6373693824
 20
10.4673340503
 11
9.6599076517
 21
10.4319636099
  0
LINE
  5
316
100
AcDbEntity
  8
0
100
AcDbLine
 62
4
  6
CONTINUOUS
 10
11.6642038373
 20
7.5183429957
 11
11.6529347046
 21
7.5360282157
  0
LINE
  5
317
100
AcDbEntity
  8
0
100
AcDbLine
 62
4
  6
CONTINUOUS
 10
12.5625149159
 20
9.4712078885
 11
12.5850531893
 21
9.4865485569
  0
LINE
  5
318
100
AcDbEntity
  8
0
100
AcDbLine
 62
4
  6
CONTINUOUS
 10
12.5625149159
 20
9.3444301157
 11
12.5737840566
 21
9.3521004497
  0
LINE
  5
319
100
AcDbEntity
  8
0
100
AcDbLine
 62
4
  6
CONTINUOUS
 10
12.6752062718
 20
9.2859038345
 11
12.6526680014
 21
9.2705631659
  0
LINE
  5
31A
100
AcDbEntity
  8
0
100
AcDbLine
 62
4
  6
CONTINUOUS
 10
9.9068167031
 20
8.3072246311
 11
9.9896103522
 21
8.3263209543
  0
LINE
  5
31B
100
AcDbEntity
  8
0
100
AcDbLine
 62
4
  6
CONTINUOUS
 10
12.6526680014
 20
9.0001039173
 11
12.6188605953
 21
8.9939966174
  0
LINE
  5
31C
100
AcDbEntity
  8
0
100
AcDbLine
 62
4
  6
CONTINUOUS
 10
9.6534681447
 20
8.6587287875
 11
9.5955125917
 21
8.6627480188
  0
LINE
  5
31D
100
AcDbEntity
  8
0
100
AcDbLine
 62
4
  6
CONTINUOUS
 10
9.5955125917
 20
8.7013850541
 11
9.6534681447
 21
8.6973658229
  0
LINE
  5
31E
100
AcDbEntity
  8
0
100
AcDbLine
 62
4
  6
CONTINUOUS
 10
9.5955125917
 20
8.7979776425
 11
9.6244903682
 21
8.7959680269
  0
LINE
  5
31F
100
AcDbEntity
  8
0
100
AcDbLine
 62
4
  6
CONTINUOUS
 10
9.6244903682
 20
8.8539235799
 11
9.6534681447
 21
8.8519139642
  0
LINE
  5
320
100
AcDbEntity
  8
0
100
AcDbLine
 62
7
  6
CONTINUOUS
 10
13.2311412708
 20
8.6258395013
 11
13.3627247757
 21
8.6167141542
  0
LINE
  5
321
100
AcDbEntity
  8
0
100
AcDbLine
 62
4
  6
CONTINUOUS
 10
11.7768951932
 20
7.5612389327
 11
11.7881643289
 21
7.5435537125
  0
LINE
  5
322
100
AcDbEntity
  8
0
100
AcDbLine
 62
4
  6
CONTINUOUS
 10
12.5625149159
 20
9.0739708672
 11
12.5737840566
 21
9.0816412011
  0
LINE
  5
323
100
AcDbEntity
  8
0
100
AcDbLine
 62
4
  6
CONTINUOUS
 10
8.3417405997
 20
6.1924084029
 11
8.3513998629
 21
6.1989829747
  0
LINE
  5
324
100
AcDbEntity
  8
0
100
AcDbLine
 62
4
  6
CONTINUOUS
 10
8.3900368951
 20
6.1890590435
 11
8.4093554112
 21
6.2022081877
  0
LINE
  5
325
100
AcDbEntity
  8
0
100
AcDbLine
 62
4
  6
CONTINUOUS
 10
8.4383331879
 20
6.1422430204
 11
8.428673929
 21
6.1356684483
  0
LINE
  5
326
100
AcDbEntity
  8
0
100
AcDbLine
 62
4
  6
CONTINUOUS
 10
12.6752062718
 20
9.015444586
 11
12.6526680014
 21
9.0001039173
  0
LINE
  5
327
100
AcDbEntity
  8
0
100
AcDbLine
 62
4
  6
CONTINUOUS
 10
7.9148016459
 20
8.164735423
 11
8.0500312702
 21
8.1976164743
  0
LINE
  5
328
100
AcDbEntity
  8
0
100
AcDbLine
 62
4
  6
CONTINUOUS
 10
12.6526680014
 20
9.2705631659
 11
12.6188605953
 21
9.2644558659
  0
LINE
  5
329
100
AcDbEntity
  8
0
100
AcDbLine
 62
7
  6
CONTINUOUS
 10
13.3693361147
 20
8.7042240235
 11
14.0396042869
 21
8.6577407679
  0
LINE
  5
32A
100
AcDbEntity
  8
0
100
AcDbLine
 62
7
  6
CONTINUOUS
 10
13.3591948156
 20
8.7162797622
 11
14.0294629878
 21
8.6697965066
  0
LINE
  5
32B
100
AcDbEntity
  8
0
100
AcDbLine
 62
4
  6
CONTINUOUS
 10
9.6035619763
 20
10.4105156412
 11
9.5922928356
 21
10.4197490103
  0
LINE
  5
32C
100
AcDbEntity
  8
0
100
AcDbLine
 62
4
  6
CONTINUOUS
 10
11.6529347046
 20
7.5360282157
 11
11.6529347046
 21
7.5529319188
  0
LINE
  5
32D
100
AcDbEntity
  8
0
100
AcDbLine
 62
4
  6
CONTINUOUS
 10
11.7205495168
 20
7.5397909641
 11
11.7205495168
 21
7.5735983702
  0
LINE
  5
32E
100
AcDbEntity
  8
0
100
AcDbLine
 62
4
  6
CONTINUOUS
 10
11.7881643289
 20
7.5435537125
 11
11.7881643289
 21
7.5266500094
  0
LINE
  5
32F
100
AcDbEntity
  8
0
100
AcDbLine
 62
4
  6
CONTINUOUS
 10
12.5512457832
 20
9.4550857024
 11
12.5625149159
 21
9.4712078885
  0
LINE
  5
330
100
AcDbEntity
  8
0
100
AcDbLine
 62
4
  6
CONTINUOUS
 10
12.5512457832
 20
9.3283079297
 11
12.5625149159
 21
9.3444301157
  0
LINE
  5
331
100
AcDbEntity
  8
0
100
AcDbLine
 62
4
  6
CONTINUOUS
 10
12.6864754075
 20
9.3020260203
 11
12.6752062718
 21
9.2859038345
  0
LINE
  5
332
100
AcDbEntity
  8
0
100
AcDbLine
 62
7
  6
CONTINUOUS
 10
13.5426039332
 20
10.0790155986
 11
13.3693361147
 21
9.9116517279
  0
LINE
  5
333
100
AcDbEntity
  8
0
100
AcDbLine
 62
4
  6
CONTINUOUS
 10
12.5850531893
 20
9.4865485569
 11
12.6188605953
 21
9.4926558569
  0
LINE
  5
334
100
AcDbEntity
  8
0
100
AcDbLine
 62
7
  6
CONTINUOUS
 10
13.2725609063
 20
9.192608715
 11
13.9428290785
 21
9.1461254594
  0
LINE
  5
335
100
AcDbEntity
  8
0
100
AcDbLine
 62
7
  6
CONTINUOUS
 10
13.2725609063
 20
9.2363116791
 11
13.9428290785
 21
9.1898284234
  0
LINE
  5
336
100
AcDbEntity
  8
0
100
AcDbLine
 62
4
  6
CONTINUOUS
 10
9.6599076517
 20
10.4319636099
 11
9.6824459211
 21
10.4134968726
  0
LINE
  5
337
100
AcDbEntity
  8
0
100
AcDbLine
 62
4
  6
CONTINUOUS
 10
9.6261002416
 20
10.4765674194
 11
9.6373693824
 21
10.4673340503
  0
LINE
  5
338
100
AcDbEntity
  8
0
100
AcDbLine
 62
4
  6
CONTINUOUS
 10
12.5512457832
 20
9.0578486811
 11
12.5625149159
 21
9.0739708672
  0
LINE
  5
339
100
AcDbEntity
  8
0
100
AcDbLine
 62
4
  6
CONTINUOUS
 10
12.6864754075
 20
9.0315667718
 11
12.6752062718
 21
9.015444586
  0
LINE
  5
33A
100
AcDbEntity
  8
0
100
AcDbLine
 62
4
  6
CONTINUOUS
 10
11.6529347046
 20
7.5529319188
 11
11.6642038373
 21
7.5690541048
  0
LINE
  5
33B
100
AcDbEntity
  8
0
100
AcDbLine
 62
4
  6
CONTINUOUS
 10
11.7881643289
 20
7.5266500094
 11
11.7768951932
 21
7.5105278236
  0
LINE
  5
33C
100
AcDbEntity
  8
0
100
AcDbLine
 62
4
  6
CONTINUOUS
 10
11.6642038373
 20
7.5690541048
 11
11.675472978
 21
7.5767244387
  0
LINE
  5
33D
100
AcDbEntity
  8
0
100
AcDbLine
 62
4
  6
CONTINUOUS
 10
12.6188605953
 20
9.3489743811
 11
12.6639371361
 21
9.3458483124
  0
LINE
  5
33E
100
AcDbEntity
  8
0
100
AcDbLine
 62
4
  6
CONTINUOUS
 10
12.6864754075
 20
9.4119000901
 11
12.5512457832
 21
9.4212782964
  0
LINE
  5
33F
100
AcDbEntity
  8
0
100
AcDbLine
 62
4
  6
CONTINUOUS
 10
12.6188605953
 20
8.9939966174
 11
12.5850531893
 21
9.0047930205
  0
LINE
  5
340
100
AcDbEntity
  8
0
100
AcDbLine
 62
4
  6
CONTINUOUS
 10
11.7768951932
 20
7.5105278236
 11
11.7543569228
 21
7.4951871549
  0
LINE
  5
341
100
AcDbEntity
  8
0
100
AcDbLine
 62
4
  6
CONTINUOUS
 10
12.6188605953
 20
9.2644558659
 11
12.5850531893
 21
9.275252269
  0
LINE
  5
342
100
AcDbEntity
  8
0
100
AcDbLine
 62
4
  6
CONTINUOUS
 10
9.6824459211
 20
10.4134968726
 11
9.7162533272
 21
10.4027004695
  0
LINE
  5
343
100
AcDbEntity
  8
0
100
AcDbLine
 62
4
  6
CONTINUOUS
 10
12.6188605953
 20
9.4926558569
 11
12.6526680014
 21
9.4818594538
  0
LINE
  5
344
100
AcDbEntity
  8
0
100
AcDbLine
 62
4
  6
CONTINUOUS
 10
12.6864754075
 20
9.1414408415
 11
12.5512457832
 21
9.21843386
  0
LINE
  5
345
100
AcDbEntity
  8
0
100
AcDbLine
 62
4
  6
CONTINUOUS
 10
12.5850531893
 20
9.0047930205
 11
12.5625149159
 21
9.0232597581
  0
LINE
  5
346
100
AcDbEntity
  8
0
100
AcDbLine
 62
4
  6
CONTINUOUS
 10
12.6639371361
 20
9.0753890638
 11
12.6752062718
 21
9.0661556951
  0
LINE
  5
347
100
AcDbEntity
  8
0
100
AcDbLine
 62
4
  6
CONTINUOUS
 10
12.5512457832
 20
9.0409449781
 11
12.5512457832
 21
9.0578486811
  0
LINE
  5
348
100
AcDbEntity
  8
0
100
AcDbLine
 62
4
  6
CONTINUOUS
 10
12.5512457832
 20
9.3114042266
 11
12.5512457832
 21
9.3283079297
  0
LINE
  5
349
100
AcDbEntity
  8
0
100
AcDbLine
 62
4
  6
CONTINUOUS
 10
12.5512457832
 20
9.4212782964
 11
12.5512457832
 21
9.4550857024
  0
LINE
  5
34A
100
AcDbEntity
  8
0
100
AcDbLine
 62
4
  6
CONTINUOUS
 10
12.6188605953
 20
9.315166975
 11
12.6188605953
 21
9.3489743811
  0
LINE
  5
34B
100
AcDbEntity
  8
0
100
AcDbLine
 62
4
  6
CONTINUOUS
 10
12.6864754075
 20
9.4457074961
 11
12.6864754075
 21
9.4119000901
  0
LINE
  5
34C
100
AcDbEntity
  8
0
100
AcDbLine
 62
4
  6
CONTINUOUS
 10
12.6864754075
 20
9.3189297234
 11
12.6864754075
 21
9.3020260203
  0
LINE
  5
34D
100
AcDbEntity
  8
0
100
AcDbLine
 62
4
  6
CONTINUOUS
 10
12.6864754075
 20
9.0484704748
 11
12.6864754075
 21
9.0315667718
  0
LINE
  5
34E
100
AcDbEntity
  8
0
100
AcDbLine
 62
7
  6
CONTINUOUS
 10
13.3591948156
 20
9.8800045025
 11
14.0294629878
 21
9.8335212469
  0
LINE
  5
34F
100
AcDbEntity
  8
0
100
AcDbLine
 62
7
  6
CONTINUOUS
 10
13.3693361147
 20
9.9116517279
 11
14.0396042869
 21
9.8651684723
  0
LINE
  5
350
100
AcDbEntity
  8
0
100
AcDbLine
 62
7
  6
CONTINUOUS
 10
13.5426039332
 20
10.0790155986
 11
14.2128721054
 21
10.0325323429
  0
LINE
  5
351
100
AcDbEntity
  8
0
100
AcDbLine
 62
4
  6
CONTINUOUS
 10
12.5850531893
 20
9.275252269
 11
12.5625149159
 21
9.2937190066
  0
LINE
  5
352
100
AcDbEntity
  8
0
100
AcDbLine
 62
4
  6
CONTINUOUS
 10
12.6639371361
 20
9.3458483124
 11
12.6752062718
 21
9.3366149436
  0
LINE
  5
353
100
AcDbEntity
  8
0
100
AcDbLine
 62
4
  6
CONTINUOUS
 10
12.6526680014
 20
9.4818594538
 11
12.6752062718
 21
9.4633927164
  0
LINE
  5
354
100
AcDbEntity
  8
0
100
AcDbLine
 62
4
  6
CONTINUOUS
 10
12.5625149159
 20
9.0232597581
 11
12.5512457832
 21
9.0409449781
  0
LINE
  5
355
100
AcDbEntity
  8
0
100
AcDbLine
 62
4
  6
CONTINUOUS
 10
12.6752062718
 20
9.0661556951
 11
12.6864754075
 21
9.0484704748
  0
LINE
  5
356
100
AcDbEntity
  8
0
100
AcDbLine
 62
4
  6
CONTINUOUS
 10
12.5625149159
 20
9.2937190066
 11
12.5512457832
 21
9.3114042266
  0
LINE
  5
357
100
AcDbEntity
  8
0
100
AcDbLine
 62
7
  6
CONTINUOUS
 10
12.9762531841
 20
5.5884707648
 11
12.9762531841
 21
10.4181001824
  0
LINE
  5
358
100
AcDbEntity
  8
0
100
AcDbLine
 62
7
  6
CONTINUOUS
 10
13.4553599906
 20
8.6927813994
 11
13.4584633108
 21
8.6980430315
  0
LINE
  5
359
100
AcDbEntity
  8
0
100
AcDbLine
 62
7
  6
CONTINUOUS
 10
13.3390055897
 20
10.1811035588
 11
13.470582735
 21
10.1719786528
  0
LINE
  5
35A
100
AcDbEntity
  8
0
100
AcDbLine
 62
4
  6
CONTINUOUS
 10
9.6035619763
 20
10.4781304534
 11
9.6261002416
 21
10.4765674194
  0
LINE
  5
35B
100
AcDbEntity
  8
0
100
AcDbLine
 62
7
  6
CONTINUOUS
 10
12.9762531841
 20
10.4181001824
 11
7.6636608247
 21
10.7865297139
  0
LINE
  5
35C
100
AcDbEntity
  8
0
100
AcDbLine
 62
4
  6
CONTINUOUS
 10
12.6752062718
 20
9.3366149436
 11
12.6864754075
 21
9.3189297234
  0
LINE
  5
35D
100
AcDbEntity
  8
0
100
AcDbLine
 62
4
  6
CONTINUOUS
 10
12.6752062718
 20
9.4633927164
 11
12.6864754075
 21
9.4457074961
  0
LINE
  5
35E
100
AcDbEntity
  8
0
100
AcDbLine
 62
7
  6
CONTINUOUS
 10
13.3591948156
 20
9.8800045025
 11
13.2725609063
 21
9.2363116791
  0
LINE
  5
35F
100
AcDbEntity
  8
0
100
AcDbLine
 62
7
  6
CONTINUOUS
 10
13.2725609063
 20
9.192608715
 11
13.3591948156
 21
8.7162797622
  0
LINE
  5
360
100
AcDbEntity
  8
0
100
AcDbLine
 62
7
  6
CONTINUOUS
 10
13.6233002628
 20
6.2134702861
 11
13.6233002628
 21
8.68661155
  0
LINE
  5
361
100
AcDbEntity
  8
0
100
AcDbLine
 62
7
  6
CONTINUOUS
 10
13.6233002628
 20
10.0734192891
 11
13.6233002628
 21
11.0430997037
  0
LINE
  5
362
100
AcDbEntity
  8
0
100
AcDbLine
 62
7
  6
CONTINUOUS
 10
14.1978842807
 20
8.7688072916
 11
14.2066577292
 21
8.7836825401
  0
LINE
  5
363
100
AcDbEntity
  8
0
100
AcDbLine
 62
7
  6
CONTINUOUS
 10
13.6233002628
 20
11.0430997037
 11
8.3107079034
 21
11.4115292352
  0
LINE
  5
364
100
AcDbEntity
  8
0
100
AcDbLine
 62
7
  6
CONTINUOUS
 10
13.5518311019
 20
10.0838525403
 11
13.5541784166
 21
10.0782129054
  0
LINE
  5
365
100
AcDbEntity
  8
0
100
AcDbLine
 62
7
  6
CONTINUOUS
 10
13.6233002628
 20
6.2134702861
 11
12.9762531841
 21
5.5884707648
  0
LINE
  5
366
100
AcDbEntity
  8
0
100
AcDbLine
 62
7
  6
CONTINUOUS
 10
14.2689864542
 20
9.9247186143
 11
14.2833890814
 21
9.8901150063
  0
ARC
  5
367
100
AcDbEntity
  8
0
100
AcDbCircle
 62
7
  6
CONTINUOUS
 10
15.8640323599
 20
9.2143054212
 40
2.5915648883
100
AcDbArc
 50
179.5134673813
 51
179.9985734311
  0
ARC
  5
368
100
AcDbEntity
  8
0
100
AcDbCircle
 62
7
  6
CONTINUOUS
 10
16.5343005321
 20
9.1678221656
 40
2.5915648883
100
AcDbArc
 50
179.5134673813
 51
179.9985734311
  0
ARC
  5
369
100
AcDbEntity
  8
0
100
AcDbCircle
 62
7
  6
CONTINUOUS
 10
16.4715069194
 20
9.1678633908
 40
2.5287712748
100
AcDbArc
 50
179.9994720696
 51
180.492534488
  0
ARC
  5
36A
100
AcDbEntity
  8
0
100
AcDbCircle
 62
7
  6
CONTINUOUS
 10
15.7901759495
 20
9.2142991473
 40
2.5177084781
100
AcDbArc
 50
179.9983888061
 51
180.4936177515
  0
ARC
  5
36B
100
AcDbEntity
  8
0
100
AcDbCircle
 62
7
  6
CONTINUOUS
 10
15.0893624761
 20
9.5113267658
 40
1.1077888829
100
AcDbArc
 50
161.3725959887
 51
163.0914686476
  0
ARC
  5
36C
100
AcDbEntity
  8
0
100
AcDbCircle
 62
7
  6
CONTINUOUS
 10
14.4190943038
 20
9.5578100214
 40
1.1077888828
100
AcDbArc
 50
161.3725959887
 51
163.0914686476
  0
ARC
  5
36D
100
AcDbEntity
  8
0
100
AcDbCircle
 62
7
  6
CONTINUOUS
 10
11.2663925037
 20
7.7525780702
 40
0.2242135502
100
AcDbArc
 50
265.9617696749
 51
274.3316037625
  0
ARC
  5
36E
100
AcDbEntity
  8
0
100
AcDbCircle
 62
7
  6
CONTINUOUS
 10
11.2206341593
 20
7.7350864693
 40
0.1859290091
100
AcDbArc
 50
168.3661486195
 51
179.9679960521
  0
SPLINE
  5
36F
100
AcDbEntity
  8
0
100
AcDbSpline
 62
7
  6
CONTINUOUS
 70
0
 71
3
 72
23
 73
19
 74
0
 42
0.0000001
 43
0.0000001
 44
0.0000000001
 40
0.0
 40
0.0
 40
0.0
 40
0.0
 40
0.0778915856
 40
0.1545454438
 40
0.2297388202
 40
0.3032879841
 40
0.3750174017
 40
0.4447505127
 40
0.512316206
 40
0.5775550501
 40
0.6403154135
 40
0.7004563918
 40
0.75784725
 40
0.8123710763
 40
0.8639245062
 40
0.9124214177
 40
0.9577945528
 40
1.0
 40
1.0
 40
1.0
 40
1.0
 10
14.3363391753
 20
9.4966943554
 30
0.0
 10
14.3363391753
 20
9.5070549475
 30
0.0
 10
14.3361961684
 20
9.5276118137
 30
0.0
 10
14.3355437102
 20
9.5581641386
 30
0.0
 10
14.3344557606
 20
9.5881262125
 30
0.0
 10
14.3329359511
 20
9.6174136723
 30
0.0
 10
14.3309881747
 20
9.645947951
 30
0.0
 10
14.3286182775
 20
9.6736516877
 30
0.0
 10
14.3258322769
 20
9.7004489828
 30
0.0
 10
14.322638433
 20
9.7262666205
 30
0.0
 10
14.3190451759
 20
9.7510343979
 30
0.0
 10
14.3150628881
 20
9.7746849284
 30
0.0
 10
14.3107022315
 20
9.7971539162
 30
0.0
 10
14.3059756504
 20
9.8183804483
 30
0.0
 10
14.3008959586
 20
9.8383070751
 30
0.0
 10
14.2954773591
 20
9.8568804089
 30
0.0
 10
14.2897347321
 20
9.8740500849
 30
0.0
 10
14.2855483838
 20
9.884926811
 30
0.0
 10
14.2833912383
 20
9.8901096951
 30
0.0
  0
SPLINE
  5
370
100
AcDbEntity
  8
0
100
AcDbSpline
 62
7
  6
CONTINUOUS
 70
0
 71
3
 72
9
 73
5
 74
0
 42
0.0000001
 43
0.0000001
 44
0.0000000001
 40
0.0
 40
0.0
 40
0.0
 40
0.0
 40
0.5149357862
 40
1.0
 40
1.0
 40
1.0
 40
1.0
 10
14.2230134046
 20
10.0204766042
 30
0.0
 10
14.2214034563
 20
10.0226510223
 30
0.0
 10
14.2181567544
 20
10.0267865907
 30
0.0
 10
14.2146449347
 20
10.0307013697
 30
0.0
 10
14.2128721054
 20
10.0325323429
 30
0.0
  0
SPLINE
  5
371
100
AcDbEntity
  8
0
100
AcDbSpline
 62
7
  6
CONTINUOUS
 70
0
 71
3
 72
22
 73
18
 74
0
 42
0.0000001
 43
0.0000001
 44
0.0000000001
 40
0.0
 40
0.0
 40
0.0
 40
0.0
 40
0.1581228667
 40
0.2341982852
 40
0.3081049186
 40
0.379717385
 40
0.4489184745
 40
0.5156040998
 40
0.5796927374
 40
0.6411263993
 40
0.6998833948
 40
0.755975683
 40
0.8094620448
 40
0.8604412683
 40
0.9090606462
 40
0.9555055836
 40
1.0
 40
1.0
 40
1.0
 40
1.0
 10
14.0396042869
 20
8.6577407679
 30
0.0
 10
14.049073948
 20
8.6619439542
 30
0.0
 10
14.0630173516
 20
8.6683596313
 30
0.0
 10
14.0811273355
 20
8.6772821336
 30
0.0
 10
14.094023675
 20
8.6839550812
 30
0.0
 10
14.1063736671
 20
8.6906966663
 30
0.0
 10
14.1181424827
 20
8.697507262
 30
0.0
 10
14.129295827
 20
8.7043875018
 30
0.0
 10
14.1398022768
 20
8.7113358782
 30
0.0
 10
14.1496325498
 20
8.7183519408
 30
0.0
 10
14.1587626984
 20
8.7254323366
 30
0.0
 10
14.1671723199
 20
8.7325753051
 30
0.0
 10
14.1748484508
 20
8.7397759503
 30
0.0
 10
14.181782577
 20
8.7470310627
 30
0.0
 10
14.1879746888
 20
8.7543348539
 30
0.0
 10
14.1934290042
 20
8.7616822487
 30
0.0
 10
14.1966456925
 20
8.7667050137
 30
0.0
 10
14.1981257198
 20
8.7692167702
 30
0.0
  0
SPLINE
  5
372
100
AcDbEntity
  8
0
100
AcDbSpline
 62
7
  6
CONTINUOUS
 70
0
 71
3
 72
28
 73
24
 74
0
 42
0.0000001
 43
0.0000001
 44
0.0000000001
 40
0.0
 40
0.0
 40
0.0
 40
0.0
 40
0.0188524871
 40
0.0388801737
 40
0.0600715651
 40
0.0824089768
 40
0.1058699668
 40
0.1304265019
 40
0.1560475994
 40
0.1826975814
 40
0.2103382308
 40
0.2389280827
 40
0.2987741688
 40
0.3618564495
 40
0.4277601831
 40
0.4960432585
 40
0.5662412158
 40
0.6378720029
 40
0.7104405345
 40
0.7834444448
 40
0.8563742018
 40
0.9287292883
 40
1.0
 40
1.0
 40
1.0
 40
1.0
 10
14.2066568259
 20
8.7836811647
 30
0.0
 10
14.2089897665
 20
8.7876366147
 30
0.0
 10
14.2136211629
 20
8.7959010978
 30
0.0
 10
14.2202879329
 20
8.8089298858
 30
0.0
 10
14.2268734713
 20
8.8229437399
 30
0.0
 10
14.2333655624
 20
8.8379168238
 30
0.0
 10
14.239751851
 20
8.8538219496
 30
0.0
 10
14.2460210434
 20
8.8706297966
 30
0.0
 10
14.2521608698
 20
8.8883095833
 30
0.0
 10
14.2581604212
 20
8.9068286307
 30
0.0
 10
14.2640082828
 20
8.9261528582
 30
0.0
 10
14.2717061452
 20
8.9533606863
 30
0.0
 10
14.2808365667
 20
8.989128369
 30
0.0
 10
14.2908662189
 20
9.0340244492
 30
0.0
 10
14.3000538073
 20
9.0811955103
 30
0.0
 10
14.3083306081
 20
9.1302928395
 30
0.0
 10
14.3156346303
 20
9.1809537777
 30
0.0
 10
14.3219113119
 20
9.232803602
 30
0.0
 10
14.3271139666
 20
9.2854588889
 30
0.0
 10
14.3312036918
 20
9.3385295437
 30
0.0
 10
14.3341505912
 20
9.39162393
 30
0.0
 10
14.3359323427
 20
9.4443475552
 30
0.0
 10
14.3363391753
 20
9.4793338577
 30
0.0
 10
14.3363391753
 20
9.4966943554
 30
0.0
  0
SPLINE
  5
373
100
AcDbEntity
  8
0
100
AcDbSpline
 62
7
  6
CONTINUOUS
 70
0
 71
3
 72
9
 73
5
 74
0
 42
0.0000001
 43
0.0000001
 44
0.0000000001
 40
0.0
 40
0.0
 40
0.0
 40
0.0
 40
0.4955326499
 40
1.0
 40
1.0
 40
1.0
 40
1.0
 10
14.2691335786
 20
9.9243649126
 30
0.0
 10
14.2623619344
 20
9.9406252882
 30
0.0
 10
14.2477234076
 20
9.973039119
 30
0.0
 10
14.2315104358
 20
10.0046859613
 30
0.0
 10
14.2230134046
 20
10.0204766042
 30
0.0
  0
SPLINE
  5
374
100
AcDbEntity
  8
0
100
AcDbSpline
 62
7
  6
CONTINUOUS
 70
0
 71
3
 72
23
 73
19
 74
0
 42
0.0000001
 43
0.0000001
 44
0.0000000001
 40
0.0
 40
0.0
 40
0.0
 40
0.0
 40
0.0879689742
 40
0.1720374745
 40
0.2522277104
 40
0.3285767996
 40
0.4011454457
 40
0.4700180837
 40
0.5353037253
 40
0.5971447226
 40
0.6557237648
 40
0.7112648106
 40
0.7640406505
 40
0.8143822203
 40
0.8626779008
 40
0.909373088
 40
0.9549671986
 40
1.0
 40
1.0
 40
1.0
 40
1.0
 10
13.4553598302
 20
8.6927811304
 30
0.0
 10
13.4534889046
 20
8.6896090275
 30
0.0
 10
13.4497419461
 20
8.6834567583
 30
0.0
 10
13.4439663726
 20
8.6746147934
 30
0.0
 10
13.4381678468
 20
8.666375617
 30
0.0
 10
13.432350809
 20
8.6587463173
 30
0.0
 10
13.4265200081
 20
8.651732986
 30
0.0
 10
13.4206801706
 20
8.6453411156
 30
0.0
 10
13.414835537
 20
8.6395761201
 30
0.0
 10
13.40899027
 20
8.6344429626
 30
0.0
 10
13.4031488034
 20
8.6299456744
 30
0.0
 10
13.3973150868
 20
8.626088378
 30
0.0
 10
13.3914927957
 20
8.6228755568
 30
0.0
 10
13.3856862192
 20
8.6203107411
 30
0.0
 10
13.3798998703
 20
8.6183975648
 30
0.0
 10
13.3741384063
 20
8.6171403345
 30
0.0
 10
13.3684090174
 20
8.6165421108
 30
0.0
 10
13.3646051944
 20
8.6165838941
 30
0.0
 10
13.3627244502
 20
8.6167142804
 30
0.0
  0
SPLINE
  5
375
100
AcDbEntity
  8
0
100
AcDbSpline
 62
7
  6
CONTINUOUS
 70
0
 71
3
 72
23
 73
19
 74
0
 42
0.0000001
 43
0.0000001
 44
0.0000000001
 40
0.0
 40
0.0
 40
0.0
 40
0.0
 40
0.0879702547
 40
0.1720387707
 40
0.252227033
 40
0.328576627
 40
0.4011464305
 40
0.4700175817
 40
0.5353026847
 40
0.597145183
 40
0.655723887
 40
0.7112638297
 40
0.7640406038
 40
0.8143826993
 40
0.8626776158
 40
0.909372916
 40
0.9549673584
 40
1.0
 40
1.0
 40
1.0
 40
1.0
 10
13.5518307376
 20
10.0838531699
 30
0.0
 10
13.5504155859
 20
10.0872531859
 30
0.0
 10
13.5475538621
 20
10.0938638239
 30
0.0
 10
13.5430541973
 20
10.1034183108
 30
0.0
 10
13.5384482884
 20
10.1123787565
 30
0.0
 10
13.5337401852
 20
10.120737941
 30
0.0
 10
13.5289335606
 20
10.1284890839
 30
0.0
 10
13.5240317851
 20
10.1356256456
 30
0.0
 10
13.5190388353
 20
10.1421420632
 30
0.0
 10
13.5139584053
 20
10.1480331605
 30
0.0
 10
13.508793656
 20
10.1532936772
 30
0.0
 10
13.5035480604
 20
10.157918986
 30
0.0
 10
13.4982252346
 20
10.1619049677
 30
0.0
 10
13.4928284395
 20
10.1652469966
 30
0.0
 10
13.4873614292
 20
10.1679401848
 30
0.0
 10
13.4818287783
 20
10.1699807165
 30
0.0
 10
13.4762369709
 20
10.1713646024
 30
0.0
 10
13.472463782
 20
10.1718481419
 30
0.0
 10
13.4705830605
 20
10.1719785266
 30
0.0
  0
SPLINE
  5
376
100
AcDbEntity
  8
0
100
AcDbSpline
 62
7
  6
CONTINUOUS
 70
0
 71
3
 72
23
 73
19
 74
0
 42
0.0000001
 43
0.0000001
 44
0.0000000001
 40
0.0
 40
0.0
 40
0.0
 40
0.0
 40
0.0430432041
 40
0.0864276157
 40
0.130656649
 40
0.1763288731
 40
0.2240992276
 40
0.2746265429
 40
0.3285147701
 40
0.3862610475
 40
0.4482190742
 40
0.5145822216
 40
0.585391119
 40
0.6605550141
 40
0.7398801137
 40
0.8231012882
 40
0.9099156628
 40
1.0
 40
1.0
 40
1.0
 40
1.0
 10
14.2128721054
 20
10.0325323429
 30
0.0
 10
14.212933054
 20
10.0288729125
 30
0.0
 10
14.2127123503
 20
10.0215136182
 30
0.0
 10
14.2112406669
 20
10.0104814696
 30
0.0
 10
14.2085157443
 20
9.9994560973
 30
0.0
 10
14.2044310905
 20
9.9884588984
 30
0.0
 10
14.1988933301
 20
9.9775132831
 30
0.0
 10
14.1918296596
 20
9.9666431378
 30
0.0
 10
14.1831914948
 20
9.9558694701
 30
0.0
 10
14.1729568637
 20
9.9452096682
 30
0.0
 10
14.1611321755
 20
9.934677577
 30
0.0
 10
14.1477527168
 20
9.9242830993
 30
0.0
 10
14.1328794571
 20
9.9140332358
 30
0.0
 10
14.1165947194
 20
9.9039320585
 30
0.0
 10
14.0989965741
 20
9.8939806131
 30
0.0
 10
14.0801923608
 20
9.8841768245
 30
0.0
 10
14.0602929153
 20
9.8745166226
 30
0.0
 10
14.046605439
 20
9.8682759907
 30
0.0
 10
14.0396042869
 20
9.8651684723
 30
0.0
  0
SPLINE
  5
377
100
AcDbEntity
  8
0
100
AcDbSpline
 62
7
  6
CONTINUOUS
 70
0
 71
3
 72
21
 73
17
 74
0
 42
0.0000001
 43
0.0000001
 44
0.0000000001
 40
0.0
 40
0.0
 40
0.0
 40
0.0
 40
0.1231153359
 40
0.184837322
 40
0.2466817013
 40
0.3086598058
 40
0.3707815459
 40
0.4330548007
 40
0.4954844141
 40
0.558071395
 40
0.6208128987
 40
0.6837027994
 40
0.7467321283
 40
0.809889664
 40
0.8731630859
 40
1.0
 40
1.0
 40
1.0
 40
1.0
 10
14.0294629878
 20
9.8335212469
 30
0.0
 10
14.0331196
 20
9.8067604918
 30
0.0
 10
14.0376126402
 20
9.7664328878
 30
0.0
 10
14.0411942707
 20
9.7124268611
 30
0.0
 10
14.0425741224
 20
9.6717369449
 30
0.0
 10
14.0425442618
 20
9.63093539
 30
0.0
 10
14.0410186638
 20
9.5900671919
 30
0.0
 10
14.0379321425
 20
9.549187225
 30
0.0
 10
14.0332461026
 20
9.5083565433
 30
0.0
 10
14.0269525616
 20
9.4676387024
 30
0.0
 10
14.0190766368
 20
9.4270947316
 30
0.0
 10
14.0096727157
 20
9.3867787886
 30
0.0
 10
13.9988194713
 20
9.3467351633
 30
0.0
 10
13.986613364
 20
9.306995635
 30
0.0
 10
13.968665924
 20
9.2544045922
 30
0.0
 10
13.9535237321
 20
9.2155170115
 30
0.0
 10
13.9428290785
 20
9.1898284234
 30
0.0
  0
SPLINE
  5
378
100
AcDbEntity
  8
0
100
AcDbSpline
 62
7
  6
CONTINUOUS
 70
0
 71
3
 72
23
 73
19
 74
0
 42
0.0000001
 43
0.0000001
 44
0.0000000001
 40
0.0
 40
0.0
 40
0.0
 40
0.0
 40
0.0681436223
 40
0.1355717925
 40
0.2022246133
 40
0.2680530577
 40
0.3330188589
 40
0.3971018651
 40
0.4603047619
 40
0.5226553367
 40
0.5842062484
 40
0.6450322154
 40
0.7052236803
 40
0.7648789131
 40
0.8240963959
 40
0.8829688942
 40
0.9415804852
 40
1.0
 40
1.0
 40
1.0
 40
1.0
 10
13.9428290785
 20
9.1461254594
 30
0.0
 10
13.9481577748
 20
9.1362227605
 30
0.0
 10
13.958509498
 20
9.1163853867
 30
0.0
 10
13.9730928487
 20
9.0863628772
 30
0.0
 10
13.986545135
 20
9.0562331899
 30
0.0
 10
13.9987548669
 20
9.0260153286
 30
0.0
 10
14.0096144248
 20
8.9957349848
 30
0.0
 10
14.0190269442
 20
8.9654259583
 30
0.0
 10
14.0269131471
 20
8.9351288622
 30
0.0
 10
14.0332176452
 20
8.9048892881
 30
0.0
 10
14.0379141683
 20
8.8747550225
 30
0.0
 10
14.041009627
 20
8.8447726597
 30
0.0
 10
14.042541957
 20
8.8149836798
 30
0.0
 10
14.0425761232
 20
8.7854217275
 30
0.0
 10
14.0411984516
 20
8.7561110664
 30
0.0
 10
14.0385100028
 20
8.7270657331
 30
0.0
 10
14.0346187632
 20
8.6982916271
 30
0.0
 10
14.0312909551
 20
8.6792622772
 30
0.0
 10
14.0294629878
 20
8.6697965066
 30
0.0
  0
SPLINE
  5
379
100
AcDbEntity
  8
0
100
AcDbSpline
 62
7
  6
CONTINUOUS
 70
0
 71
3
 72
11
 73
7
 74
0
 42
0.0000001
 43
0.0000001
 44
0.0000000001
 40
0.0
 40
0.0
 40
0.0
 40
0.0
 40
0.2707423955
 40
0.5275743428
 40
0.7705940619
 40
1.0
 40
1.0
 40
1.0
 40
1.0
 10
14.2833912383
 20
9.8901096951
 30
0.0
 10
14.2820949324
 20
9.8932242756
 30
0.0
 10
14.279469912
 20
9.8992529542
 30
0.0
 10
14.2753127554
 20
9.9079110085
 30
0.0
 10
14.2710440283
 20
9.9159358627
 30
0.0
 10
14.2680413188
 20
9.9210023796
 30
0.0
 10
14.2665187953
 20
9.9234216717
 30
0.0
  0
SPLINE
  5
37A
100
AcDbEntity
  8
0
100
AcDbSpline
 62
7
  6
CONTINUOUS
 70
0
 71
3
 72
55
 73
51
 74
0
 42
0.0000001
 43
0.0000001
 44
0.0000000001
 40
0.0
 40
0.0
 40
0.0
 40
0.0
 40
0.0091577868
 40
0.0177618445
 40
0.0258372884
 40
0.0334170679
 40
0.0405430748
 40
0.0472684852
 40
0.0536583613
 40
0.0597898466
 40
0.0657516837
 40
0.0716409717
 40
0.0775587123
 40
0.0836043685
 40
0.0898706698
 40
0.0964402932
 40
0.0998623988
 40
0.1033856202
 40
0.1107605558
 40
0.1186142058
 40
0.126983132
 40
0.1358954139
 40
0.14537248
 40
0.1554292655
 40
0.1660758699
 40
0.1773187873
 40
0.1891604404
 40
0.2016004246
 40
0.2146363091
 40
0.2282628502
 40
0.2424730097
 40
0.257258518
 40
0.2726089663
 40
0.3049559727
 40
0.3394089097
 40
0.3758441812
 40
0.4141231893
 40
0.4540951793
 40
0.4955985596
 40
0.5384619526
 40
0.5825062071
 40
0.6275453385
 40
0.6733874576
 40
0.7198363195
 40
0.7666923239
 40
0.8137540635
 40
0.8608176619
 40
0.9076794905
 40
0.9541447315
 40
1.0
 40
1.0
 40
1.0
 40
1.0
 10
14.2665187953
 20
9.9234216717
 30
0.0
 10
14.2650666087
 20
9.9257291983
 30
0.0
 10
14.2621352872
 20
9.9301342706
 30
0.0
 10
14.2574977593
 20
9.9362775811
 30
0.0
 10
14.2527637062
 20
9.9417404162
 30
0.0
 10
14.2479375952
 20
9.9465165493
 30
0.0
 10
14.2430227595
 20
9.9505995362
 30
0.0
 10
14.2380232981
 20
9.9539834971
 30
0.0
 10
14.2329436101
 20
9.9566624741
 30
0.0
 10
14.2277887254
 20
9.9586290861
 30
0.0
 10
14.2225662994
 20
9.9598774594
 30
0.0
 10
14.2172858548
 20
9.960403483
 30
0.0
 10
14.2119582766
 20
9.9602047319
 30
0.0
 10
14.2065943062
 20
9.9592836236
 30
0.0
 10
14.201203098
 20
9.9576450318
 30
0.0
 10
14.1967543711
 20
9.9557120001
 30
0.0
 10
14.1931960119
 20
9.9538310011
 30
0.0
 10
14.189527035
 20
9.951656494
 30
0.0
 10
14.1849284357
 20
9.9484774276
 30
0.0
 10
14.1794869461
 20
9.9440234704
 30
0.0
 10
14.17404445
 20
9.9388794616
 30
0.0
 10
14.1686062799
 20
9.9330516292
 30
0.0
 10
14.1631781234
 20
9.9265459846
 30
0.0
 10
14.1577653272
 20
9.9193700024
 30
0.0
 10
14.1523735678
 20
9.9115316341
 30
0.0
 10
14.1470091576
 20
9.903039319
 30
0.0
 10
14.1416777816
 20
9.8939027463
 30
0.0
 10
14.1363853637
 20
9.8841322139
 30
0.0
 10
14.1311382807
 20
9.8737385662
 30
0.0
 10
14.1259422482
 20
9.8627337312
 30
0.0
 10
14.1208031665
 20
9.8511302496
 30
0.0
 10
14.115727204
 20
9.8389411954
 30
0.0
 10
14.1089319395
 20
9.8216231713
 30
0.0
 10
14.1006655849
 20
9.7985984677
 30
0.0
 10
14.0912517613
 20
9.7693354762
 30
0.0
 10
14.0822223122
 20
9.73810921
 30
0.0
 10
14.0736188464
 20
9.7050627905
 30
0.0
 10
14.0654814313
 20
9.6703473043
 30
0.0
 10
14.0578480099
 20
9.6341218685
 30
0.0
 10
14.0507537449
 20
9.5965527306
 30
0.0
 10
14.0442315565
 20
9.5578123803
 30
0.0
 10
14.0383118128
 20
9.5180787311
 30
0.0
 10
14.0330216846
 20
9.4775344095
 30
0.0
 10
14.0283856485
 20
9.4363657985
 30
0.0
 10
14.0244252512
 20
9.3947620015
 30
0.0
 10
14.0211586465
 20
9.3529144351
 30
0.0
 10
14.0186008076
 20
9.3110158477
 30
0.0
 10
14.0167634906
 20
9.2692571792
 30
0.0
 10
14.0156554812
 20
9.2278327629
 30
0.0
 10
14.0154038243
 20
9.2003465876
 30
0.0
 10
14.0154038243
 20
9.1866945929
 30
0.0
  0
SPLINE
  5
37B
100
AcDbEntity
  8
0
100
AcDbSpline
 62
7
  6
CONTINUOUS
 70
0
 71
3
 72
29
 73
25
 74
0
 42
0.0000001
 43
0.0000001
 44
0.0000000001
 40
0.0
 40
0.0
 40
0.0
 40
0.0
 40
0.0844109308
 40
0.167021196
 40
0.2475180268
 40
0.3256369966
 40
0.401116176
 40
0.4737019132
 40
0.5431596849
 40
0.6092721542
 40
0.6718401978
 40
0.7306888572
 40
0.7586717622
 40
0.7856716262
 40
0.8116742211
 40
0.8366682477
 40
0.8606452028
 40
0.8835986256
 40
0.9055261083
 40
0.9264302219
 40
0.9463170845
 40
0.9651968369
 40
0.9830842384
 40
1.0
 40
1.0
 40
1.0
 40
1.0
 10
13.2725609063
 20
9.192608715
 30
0.0
 10
13.272679706
 20
9.178835096
 30
0.0
 10
13.2731408594
 20
9.1515830118
 30
0.0
 10
13.2745263987
 20
9.1112148824
 30
0.0
 10
13.2765945085
 20
9.0719037743
 30
0.0
 10
13.2793368532
 20
9.0338003264
 30
0.0
 10
13.2827425209
 20
8.9970464216
 30
0.0
 10
13.2867988677
 20
8.961780564
 30
0.0
 10
13.2914900292
 20
8.9281357102
 30
0.0
 10
13.2967976703
 20
8.8962379772
 30
0.0
 10
13.3027019108
 20
8.8662073464
 30
0.0
 10
13.3081877576
 20
8.8424478828
 30
0.0
 10
13.312881155
 20
8.8244745789
 30
0.0
 10
13.316476616
 20
8.8117569271
 30
0.0
 10
13.3202035146
 20
8.7995862792
 30
0.0
 10
13.3240583134
 20
8.7879740283
 30
0.0
 10
13.3280370805
 20
8.7769309856
 30
0.0
 10
13.3321362522
 20
8.7664675422
 30
0.0
 10
13.3363521743
 20
8.7565933675
 30
0.0
 10
13.3406808388
 20
8.7473172162
 30
0.0
 10
13.3451185444
 20
8.7386475688
 30
0.0
 10
13.3496614253
 20
8.7305927062
 30
0.0
 10
13.3543042204
 20
8.723160731
 30
0.0
 10
13.357552288
 20
8.7184981823
 30
0.0
 10
13.3591948156
 20
8.7162797622
 30
0.0
  0
SPLINE
  5
37C
100
AcDbEntity
  8
0
100
AcDbSpline
 62
7
  6
CONTINUOUS
 70
0
 71
3
 72
37
 73
33
 74
0
 42
0.0000001
 43
0.0000001
 44
0.0000000001
 40
0.0
 40
0.0
 40
0.0
 40
0.0
 40
0.0242160064
 40
0.0471276776
 40
0.0688728694
 40
0.0896181497
 40
0.1095643177
 40
0.1289412712
 40
0.1480010561
 40
0.1670091283
 40
0.1862325832
 40
0.2059292153
 40
0.2263374353
 40
0.2476687588
 40
0.2701059695
 40
0.2938027283
 40
0.3188839929
 40
0.3454511185
 40
0.3735850406
 40
0.4033469108
 40
0.4347832022
 40
0.4679286948
 40
0.5028057521
 40
0.5394275751
 40
0.5778008267
 40
0.6179236654
 40
0.6597872747
 40
0.7033790872
 40
0.7486826578
 40
0.7956778314
 40
0.8946424786
 40
1.0
 40
1.0
 40
1.0
 40
1.0
 10
13.5426039332
 20
10.0790155986
 30
0.0
 10
13.540993916
 20
10.0806784198
 30
0.0
 10
13.5377468144
 20
10.0838075002
 30
0.0
 10
13.5326518178
 20
10.087987609
 30
0.0
 10
13.5274781895
 20
10.0915125193
 30
0.0
 10
13.5222301352
 20
10.0943755897
 30
0.0
 10
13.5169125848
 20
10.0965718422
 30
0.0
 10
13.5115312378
 20
10.0980969547
 30
0.0
 10
13.5060928729
 20
10.0989466244
 30
0.0
 10
13.5006058155
 20
10.0991189383
 30
0.0
 10
13.4950786395
 20
10.0986144788
 30
0.0
 10
13.4895194071
 20
10.0974348421
 30
0.0
 10
13.4839351171
 20
10.0955835675
 30
0.0
 10
13.478331141
 20
10.0930656297
 30
0.0
 10
13.4727122242
 20
10.0898851522
 30
0.0
 10
13.4670828268
 20
10.0860462958
 30
0.0
 10
13.4614467799
 20
10.0815539968
 30
0.0
 10
13.4558083917
 20
10.076412667
 30
0.0
 10
13.450172426
 20
10.0706268852
 30
0.0
 10
13.4445431874
 20
10.0642023702
 30
0.0
 10
13.4389254547
 20
10.0571449762
 30
0.0
 10
13.4333244831
 20
10.0494608572
 30
0.0
 10
13.4277450617
 20
10.0411572092
 30
0.0
 10
13.4221921463
 20
10.0322416935
 30
0.0
 10
13.4166711561
 20
10.0227223189
 30
0.0
 10
13.4111871458
 20
10.0126080563
 30
0.0
 10
13.4057450797
 20
10.0019085851
 30
0.0
 10
13.4003502946
 20
9.9906338114
 30
0.0
 10
13.3950077831
 20
9.9787940247
 30
0.0
 10
13.3878364549
 20
9.9619773354
 30
0.0
 10
13.3790668617
 20
9.9396085421
 30
0.0
 10
13.3725546387
 20
9.921193522
 30
0.0
 10
13.3693361147
 20
9.9116517279
 30
0.0
  0
SPLINE
  5
37D
100
AcDbEntity
  8
0
100
AcDbSpline
 62
7
  6
CONTINUOUS
 70
0
 71
3
 72
21
 73
17
 74
0
 42
0.0000001
 43
0.0000001
 44
0.0000000001
 40
0.0
 40
0.0
 40
0.0
 40
0.0
 40
0.0721750434
 40
0.1408704233
 40
0.2690156223
 40
0.3293895806
 40
0.3879136836
 40
0.4451490293
 40
0.5016982119
 40
0.5581866935
 40
0.6152406903
 40
0.6734670847
 40
0.733434797
 40
0.8604758414
 40
0.9285177531
 40
1.0
 40
1.0
 40
1.0
 40
1.0
 10
13.3693361147
 20
8.7042240235
 30
0.0
 10
13.3707709442
 20
8.7027421356
 30
0.0
 10
13.3736624422
 20
8.6999349234
 30
0.0
 10
13.3795420458
 20
8.6949761343
 30
0.0
 10
13.3856961573
 20
8.6908785183
 30
0.0
 10
13.3920732158
 20
8.687826469
 30
0.0
 10
13.3968143781
 20
8.6861089777
 30
0.0
 10
13.4016030158
 20
8.684921394
 30
0.0
 10
13.4064347195
 20
8.6842659906
 30
0.0
 10
13.4113039677
 20
8.6841435805
 30
0.0
 10
13.4162051879
 20
8.6845537557
 30
0.0
 10
13.4211334824
 20
8.6854958139
 30
0.0
 10
13.4278607069
 20
8.6874959575
 30
0.0
 10
13.4345198459
 20
8.690565836
 30
0.0
 10
13.4410271628
 20
8.6945337695
 30
0.0
 10
13.4442783304
 20
8.696849658
 30
0.0
 10
13.4459041002
 20
8.6980867154
 30
0.0
  0
SPLINE
  5
37E
100
AcDbEntity
  8
0
100
AcDbSpline
 62
7
  6
CONTINUOUS
 70
0
 71
3
 72
37
 73
33
 74
0
 42
0.0000001
 43
0.0000001
 44
0.0000000001
 40
0.0
 40
0.0
 40
0.0
 40
0.0
 40
0.0063161058
 40
0.0126711378
 40
0.0191032437
 40
0.0256490428
 40
0.0392092754
 40
0.0536077755
 40
0.0690450541
 40
0.0856786812
 40
0.1036273253
 40
0.1229775466
 40
0.1437909472
 40
0.1661071032
 40
0.1899504634
 40
0.2153308692
 40
0.2422476215
 40
0.2706911411
 40
0.3006430285
 40
0.3320796323
 40
0.3649700317
 40
0.399279162
 40
0.4349670666
 40
0.4719892306
 40
0.5102983916
 40
0.549842539
 40
0.5905676834
 40
0.6324164775
 40
0.7192416165
 40
0.8098093508
 40
0.9035887078
 40
1.0
 40
1.0
 40
1.0
 40
1.0
 10
13.3627244502
 20
8.6167142804
 30
0.0
 10
13.36140695
 20
8.6168056187
 30
0.0
 10
13.3587700439
 20
8.6170966904
 30
0.0
 10
13.3548442925
 20
8.6178556498
 30
0.0
 10
13.3509446913
 20
8.6189368725
 30
0.0
 10
13.3457230392
 20
8.6208282379
 30
0.0
 10
13.3392345794
 20
8.6240434018
 30
0.0
 10
13.3316941165
 20
8.6291313849
 30
0.0
 10
13.3243110077
 20
8.6354774514
 30
0.0
 10
13.3170940009
 20
8.6430679345
 30
0.0
 10
13.3100494063
 20
8.651889148
 30
0.0
 10
13.3031850929
 20
8.6619269939
 30
0.0
 10
13.2965106649
 20
8.6731664226
 30
0.0
 10
13.2900346724
 20
8.6855897095
 30
0.0
 10
13.2837677667
 20
8.6991778788
 30
0.0
 10
13.277719182
 20
8.7139092549
 30
0.0
 10
13.2718987728
 20
8.7297604133
 30
0.0
 10
13.2663163152
 20
8.7467058704
 30
0.0
 10
13.2609803749
 20
8.764718086
 30
0.0
 10
13.255900516
 20
8.7837678418
 30
0.0
 10
13.2510845177
 20
8.80382394
 30
0.0
 10
13.2465407664
 20
8.8248535832
 30
0.0
 10
13.2422767924
 20
8.8468222541
 30
0.0
 10
13.2382994058
 20
8.8696938715
 30
0.0
 10
13.2346157593
 20
8.8934308108
 30
0.0
 10
13.2312314145
 20
8.9179939712
 30
0.0
 10
13.2281524227
 20
8.9433429387
 30
0.0
 10
13.224415091
 20
8.9785667576
 30
0.0
 10
13.2205727486
 20
9.0242540654
 30
0.0
 10
13.2172990512
 20
9.0808658753
 30
0.0
 10
13.2153316384
 20
9.1395431417
 30
0.0
 10
13.2149044762
 20
9.1793124881
 30
0.0
 10
13.2149044762
 20
9.1994715528
 30
0.0
  0
SPLINE
  5
37F
100
AcDbEntity
  8
0
100
AcDbSpline
 62
7
  6
CONTINUOUS
 70
0
 71
3
 72
55
 73
51
 74
0
 42
0.0000001
 43
0.0000001
 44
0.0000000001
 40
0.0
 40
0.0
 40
0.0
 40
0.0
 40
0.0544796836
 40
0.1080730038
 40
0.1606188057
 40
0.2119841062
 40
0.2620411187
 40
0.3106614428
 40
0.3577215751
 40
0.4031061635
 40
0.4467061545
 40
0.4884199557
 40
0.5281545703
 40
0.5658265035
 40
0.6013637281
 40
0.6347062423
 40
0.6658099984
 40
0.694647824
 40
0.7082163713
 40
0.7212192512
 40
0.7336600645
 40
0.7455452452
 40
0.7568838525
 40
0.7676875652
 40
0.7779714304
 40
0.7877550967
 40
0.7970627058
 40
0.8059233995
 40
0.8143724103
 40
0.8224520268
 40
0.8302114288
 40
0.8377068764
 40
0.8450017153
 40
0.8521653036
 40
0.8592710663
 40
0.8663944188
 40
0.8736102248
 40
0.8809901605
 40
0.888600879
 40
0.8965027645
 40
0.9047487914
 40
0.9133845833
 40
0.92244909
 40
0.9319750597
 40
0.9419890353
 40
0.9525126212
 40
0.9635634308
 40
0.9751553269
 40
0.9872983602
 40
1.0
 40
1.0
 40
1.0
 40
1.0
 10
14.0154038243
 20
9.1866945929
 30
0.0
 10
14.0154038243
 20
9.176129628
 30
0.0
 10
14.0155524888
 20
9.1551712508
 30
0.0
 10
14.0162309932
 20
9.1240295522
 30
0.0
 10
14.0173623113
 20
9.0935052401
 30
0.0
 10
14.0189425742
 20
9.063687526
 30
0.0
 10
14.0209674723
 20
9.0346596442
 30
0.0
 10
14.023430842
 20
9.0065035277
 30
0.0
 10
14.0263259656
 20
8.979299416
 30
0.0
 10
14.0296441503
 20
8.9531245433
 30
0.0
 10
14.0333759873
 20
8.9280529453
 30
0.0
 10
14.0375106184
 20
8.904155542
 30
0.0
 10
14.042036089
 20
8.8814998769
 30
0.0
 10
14.0469394596
 20
8.8601497795
 30
0.0
 10
14.0522063483
 20
8.8401652354
 30
0.0
 10
14.0578220351
 20
8.8216019118
 30
0.0
 10
14.0637700231
 20
8.8045117592
 30
0.0
 10
14.0690929471
 20
8.7912796823
 30
0.0
 10
14.0735252229
 20
8.7814896538
 30
0.0
 10
14.0768542987
 20
8.7746945973
 30
0.0
 10
14.080253824
 20
8.7683018516
 30
0.0
 10
14.0837214231
 20
8.7623157594
 30
0.0
 10
14.0872546409
 20
8.7567403262
 30
0.0
 10
14.0908511903
 20
8.7515794464
 30
0.0
 10
14.0945089888
 20
8.7468368892
 30
0.0
 10
14.0982255472
 20
8.7425157746
 30
0.0
 10
14.1019985661
 20
8.7386190366
 30
0.0
 10
14.1058259475
 20
8.7351496737
 30
0.0
 10
14.1097056709
 20
8.7321106622
 30
0.0
 10
14.1136352903
 20
8.7295043576
 30
0.0
 10
14.1176124494
 20
8.7273332704
 30
0.0
 10
14.1216346501
 20
8.7256002518
 30
0.0
 10
14.1256988176
 20
8.7243078768
 30
0.0
 10
14.1298012116
 20
8.7234577855
 30
0.0
 10
14.1339377941
 20
8.7230513649
 30
0.0
 10
14.1381041929
 20
8.7230896149
 30
0.0
 10
14.1422959422
 20
8.7235720565
 30
0.0
 10
14.146508991
 20
8.7244971394
 30
0.0
 10
14.1507397557
 20
8.7258631908
 30
0.0
 10
14.1549849207
 20
8.7276685288
 30
0.0
 10
14.1592417285
 20
8.7299106267
 30
0.0
 10
14.1635076503
 20
8.7325870067
 30
0.0
 10
14.1677801243
 20
8.7356954574
 30
0.0
 10
14.1720564153
 20
8.739233775
 30
0.0
 10
14.1763341074
 20
8.7431990466
 30
0.0
 10
14.1806105684
 20
8.7475883816
 30
0.0
 10
14.1848829693
 20
8.7523988703
 30
0.0
 10
14.1891483825
 20
8.757627321
 30
0.0
 10
14.1934041068
 20
8.763269812
 30
0.0
 10
14.1961703968
 20
8.7672157956
 30
0.0
 10
14.1975527432
 20
8.7692544947
 30
0.0
  0
SPLINE
  5
380
100
AcDbEntity
  8
0
100
AcDbSpline
 62
7
  6
CONTINUOUS
 70
0
 71
3
 72
9
 73
5
 74
0
 42
0.0000001
 43
0.0000001
 44
0.0000000001
 40
0.0
 40
0.0
 40
0.0
 40
0.0
 40
0.2415810799
 40
1.0
 40
1.0
 40
1.0
 40
1.0
 10
14.1975527432
 20
8.7692544947
 30
0.0
 10
14.1983237579
 20
8.7703915954
 30
0.0
 10
14.2014742395
 20
8.7751262951
 30
0.0
 10
14.2044656901
 20
8.7799661416
 30
0.0
 10
14.2066568259
 20
8.7836811647
 30
0.0
  0
SPLINE
  5
381
100
AcDbEntity
  8
0
100
AcDbSpline
 62
7
  6
CONTINUOUS
 70
0
 71
3
 72
48
 73
44
 74
0
 42
0.0000001
 43
0.0000001
 44
0.0000000001
 40
0.0
 40
0.0
 40
0.0
 40
0.0
 40
0.0053769687
 40
0.0108200173
 40
0.0163927233
 40
0.0221539786
 40
0.0281563765
 40
0.0344458485
 40
0.041061621
 40
0.0480361
 40
0.055395926
 40
0.063162886
 40
0.0713540501
 40
0.0799824939
 40
0.0890583737
 40
0.0985891074
 40
0.1085792771
 40
0.1190316545
 40
0.1299475178
 40
0.1413261599
 40
0.153165471
 40
0.1654624895
 40
0.1782130527
 40
0.1914116601
 40
0.2191270145
 40
0.2485513502
 40
0.2796151531
 40
0.3122388146
 40
0.3463350437
 40
0.3818084318
 40
0.4185575649
 40
0.4564749463
 40
0.4954478721
 40
0.535359436
 40
0.5760883781
 40
0.6175104986
 40
0.6594984787
 40
0.744649988
 40
0.8304924563
 40
0.8733398395
 40
0.9159613744
 40
0.9582295888
 40
1.0
 40
1.0
 40
1.0
 40
1.0
 10
13.4705830605
 20
10.1719785266
 30
0.0
 10
13.4687157402
 20
10.1721079823
 30
0.0
 10
13.4649395544
 20
10.1721510422
 30
0.0
 10
13.4592517741
 20
10.1715642035
 30
0.0
 10
13.4535322212
 20
10.1703277669
 30
0.0
 10
13.4477879386
 20
10.1684446558
 30
0.0
 10
13.4420235042
 20
10.165919063
 30
0.0
 10
13.436243344
 20
10.1627545421
 30
0.0
 10
13.4304516863
 20
10.1589544991
 30
0.0
 10
13.4246521528
 20
10.1545233005
 30
0.0
 10
13.4188486003
 20
10.1494649963
 30
0.0
 10
13.4130453549
 20
10.1437835143
 30
0.0
 10
13.4072465368
 20
10.1374836364
 30
0.0
 10
13.4014562689
 20
10.1305706675
 30
0.0
 10
13.395679139
 20
10.1230499632
 30
0.0
 10
13.3899198598
 20
10.1149274183
 30
0.0
 10
13.3841827131
 20
10.1062098375
 30
0.0
 10
13.3784723341
 20
10.0969042401
 30
0.0
 10
13.3727936267
 20
10.0870179745
 30
0.0
 10
13.3671510502
 20
10.076559223
 30
0.0
 10
13.361549116
 20
10.0655366283
 30
0.0
 10
13.3559926274
 20
10.0539590793
 30
0.0
 10
13.3504861802
 20
10.041836026
 30
0.0
 10
13.3430960882
 20
10.0246773734
 30
0.0
 10
13.3340408887
 20
10.0019216237
 30
0.0
 10
13.3236137377
 20
9.9730365877
 30
0.0
 10
13.313491108
 20
9.9422398414
 30
0.0
 10
13.3037062034
 20
9.9096329375
 30
0.0
 10
13.2942922523
 20
9.87532294
 30
0.0
 10
13.2852801234
 20
9.8394229884
 30
0.0
 10
13.2767001474
 20
9.8020514807
 30
0.0
 10
13.2685808774
 20
9.7633318006
 30
0.0
 10
13.2609491073
 20
9.7233918924
 30
0.0
 10
13.2538306451
 20
9.6823637207
 30
0.0
 10
13.2472487092
 20
9.6403829686
 30
0.0
 10
13.2412254674
 20
9.5975883517
 30
0.0
 10
13.2339324505
 20
9.5393626369
 30
0.0
 10
13.2263628548
 20
9.4655965438
 30
0.0
 10
13.2208956523
 20
9.3913453645
 30
0.0
 10
13.2177989976
 20
9.3317880619
 30
0.0
 10
13.2161342241
 20
9.287350381
 30
0.0
 10
13.2151315375
 20
9.2432679972
 30
0.0
 10
13.2149044762
 20
9.2140124505
 30
0.0
 10
13.2149044762
 20
9.1994715528
 30
0.0
  0
SPLINE
  5
382
100
AcDbEntity
  8
0
100
AcDbSpline
 62
7
  6
CONTINUOUS
 70
0
 71
3
 72
9
 73
5
 74
0
 42
0.0000001
 43
0.0000001
 44
0.0000000001
 40
0.0
 40
0.0
 40
0.0
 40
0.0
 40
0.4850642138
 40
1.0
 40
1.0
 40
1.0
 40
1.0
 10
13.3693361147
 20
8.7042240235
 30
0.0
 10
13.3675632854
 20
8.7060549967
 30
0.0
 10
13.3640514657
 20
8.7099697757
 30
0.0
 10
13.3608047638
 20
8.7141053442
 30
0.0
 10
13.3591948156
 20
8.7162797622
 30
0.0
  0
SPLINE
  5
383
100
AcDbEntity
  8
0
100
AcDbSpline
 62
7
  6
CONTINUOUS
 70
0
 71
3
 72
9
 73
5
 74
0
 42
0.0000001
 43
0.0000001
 44
0.0000000001
 40
0.0
 40
0.0
 40
0.0
 40
0.0
 40
0.5149357862
 40
1.0
 40
1.0
 40
1.0
 40
1.0
 10
14.0294629878
 20
8.6697965066
 30
0.0
 10
14.031072936
 20
8.6676220886
 30
0.0
 10
14.0343196379
 20
8.6634865201
 30
0.0
 10
14.0378314576
 20
8.6595717411
 30
0.0
 10
14.0396042869
 20
8.6577407679
 30
0.0
  0
SPLINE
  5
384
100
AcDbEntity
  8
0
100
AcDbSpline
 62
7
  6
CONTINUOUS
 70
0
 71
3
 72
23
 73
19
 74
0
 42
0.0000001
 43
0.0000001
 44
0.0000000001
 40
0.0
 40
0.0
 40
0.0
 40
0.0
 40
0.0517124017
 40
0.105817437
 40
0.1621248898
 40
0.2204554779
 40
0.2806133097
 40
0.342391697
 40
0.4055775525
 40
0.4699511935
 40
0.5352873143
 40
0.6013557937
 40
0.6679239017
 40
0.7347566859
 40
0.801615562
 40
0.8682649978
 40
0.9344779167
 40
1.0
 40
1.0
 40
1.0
 40
1.0
 10
13.3591948156
 20
9.8800045025
 30
0.0
 10
13.3559221756
 20
9.8692621752
 30
0.0
 10
13.3495282581
 20
9.8471873766
 30
0.0
 10
13.340561103
 20
9.8131386533
 30
0.0
 10
13.3320264412
 20
9.7774994688
 30
0.0
 10
13.3239569349
 20
9.7404061672
 30
0.0
 10
13.3163825896
 20
9.7019971245
 30
0.0
 10
13.3093326933
 20
9.6624171413
 30
0.0
 10
13.3028338271
 20
9.6218156784
 30
0.0
 10
13.2969105133
 20
9.5803457917
 30
0.0
 10
13.2915855366
 20
9.5381638923
 30
0.0
 10
13.2868787411
 20
9.4954291488
 30
0.0
 10
13.2828080709
 20
9.4523026969
 30
0.0
 10
13.2793891296
 20
9.4089475334
 30
0.0
 10
13.2766344002
 20
9.3655274198
 30
0.0
 10
13.2745545126
 20
9.3222044644
 30
0.0
 10
13.2731576305
 20
9.2791446453
 30
0.0
 10
13.2726816151
 20
9.250539824
 30
0.0
 10
13.2725609063
 20
9.2363116791
 30
0.0
  0
SPLINE
  5
385
100
AcDbEntity
  8
0
100
AcDbSpline
 62
7
  6
CONTINUOUS
 70
0
 71
3
 72
41
 73
37
 74
0
 42
0.0000001
 43
0.0000001
 44
0.0000000001
 40
0.0
 40
0.0
 40
0.0
 40
0.0
 40
0.0310748272
 40
0.0623072483
 40
0.0936920359
 40
0.1252208484
 40
0.156882237
 40
0.188662033
 40
0.2205436266
 40
0.2525083437
 40
0.2845358343
 40
0.3166044929
 40
0.3486918936
 40
0.3807752384
 40
0.4128318095
 40
0.4448394218
 40
0.4767768664
 40
0.5086243418
 40
0.5403638639
 40
0.5719796493
 40
0.6034584635
 40
0.6347899281
 40
0.6659667781
 40
0.6969850622
 40
0.7278442783
 40
0.7585474376
 40
0.7891010512
 40
0.8195150346
 40
0.8498025274
 40
0.8649066426
 40
0.8799854039
 40
0.9100708284
 40
0.9400854823
 40
0.9550762294
 40
0.970057877
 40
1.0
 40
1.0
 40
1.0
 40
1.0
 10
8.2219659854
 20
9.2989222942
 30
0.0
 10
8.2219659854
 20
9.303781646
 30
0.0
 10
8.2216034779
 20
9.313528732
 30
0.0
 10
8.2199850234
 20
9.3281026896
 30
0.0
 10
8.2172995446
 20
9.3425910898
 30
0.0
 10
8.2135619565
 20
9.3569132952
 30
0.0
 10
8.2087929138
 20
9.3709909654
 30
0.0
 10
8.2030187257
 20
9.3847467515
 30
0.0
 10
8.1962711896
 20
9.3981051848
 30
0.0
 10
8.1885874265
 20
9.4109929587
 30
0.0
 10
8.1800096725
 20
9.4233393595
 30
0.0
 10
8.1705850504
 20
9.4350766407
 30
0.0
 10
8.1603653123
 20
9.4461403929
 30
0.0
 10
8.1494065579
 20
9.4564698925
 30
0.0
 10
8.1377689296
 20
9.4660084322
 30
0.0
 10
8.1255162862
 20
9.4747036288
 30
0.0
 10
8.1127158561
 20
9.4825077086
 30
0.0
 10
8.099437873
 20
9.4893777677
 30
0.0
 10
8.0857551954
 20
9.4952760063
 30
0.0
 10
8.0717429118
 20
9.5001699365
 30
0.0
 10
8.057477935
 20
9.5040325608
 30
0.0
 10
8.0430385855
 20
9.5068425229
 30
0.0
 10
8.0285041668
 20
9.5085842276
 30
0.0
 10
8.0139545399
 20
9.5092479341
 30
0.0
 10
7.9994696738
 20
9.5088298081
 30
0.0
 10
7.9851292688
 20
9.5073319785
 30
0.0
 10
7.9710121013
 20
9.5047624371
 30
0.0
 10
7.9571964045
 20
9.5011353664
 30
0.0
 10
7.9459855531
 20
9.4972435698
 30
0.0
 10
7.9372472385
 20
9.4936242962
 30
0.0
 10
7.9286858047
 20
9.4896793187
 30
0.0
 10
7.9183050374
 20
9.4841340174
 30
0.0
 10
7.9084056139
 20
9.4777944269
 30
0.0
 10
7.9008188895
 20
9.4722737217
 30
0.0
 10
7.8934663255
 20
9.4664638984
 30
0.0
 10
7.8882163113
 20
9.4617815005
 30
0.0
 10
7.8848486111
 20
9.4585285296
 30
0.0
  0
SPLINE
  5
386
100
AcDbEntity
  8
0
100
AcDbSpline
 62
7
  6
CONTINUOUS
 70
0
 71
3
 72
41
 73
37
 74
0
 42
0.0000001
 43
0.0000001
 44
0.0000000001
 40
0.0
 40
0.0
 40
0.0
 40
0.0
 40
0.0310748272
 40
0.0623072483
 40
0.0936920359
 40
0.1252208484
 40
0.156882237
 40
0.188662033
 40
0.2205436266
 40
0.2525083437
 40
0.2845358343
 40
0.3166044929
 40
0.3486918936
 40
0.3807752384
 40
0.4128318095
 40
0.4448394218
 40
0.4767768664
 40
0.5086243418
 40
0.5403638639
 40
0.5719796493
 40
0.6034584635
 40
0.6347899281
 40
0.6659667781
 40
0.6969850622
 40
0.7278442783
 40
0.7585474376
 40
0.7891010512
 40
0.8195150346
 40
0.8498025274
 40
0.8649066426
 40
0.8799854039
 40
0.9100708284
 40
0.9400854823
 40
0.9550762294
 40
0.970057877
 40
1.0
 40
1.0
 40
1.0
 40
1.0
 10
12.8101139321
 20
7.0488813864
 30
0.0
 10
12.8101139321
 20
7.0537407382
 30
0.0
 10
12.8097514246
 20
7.0634878242
 30
0.0
 10
12.8081329701
 20
7.0780617818
 30
0.0
 10
12.8054474914
 20
7.092550182
 30
0.0
 10
12.8017099032
 20
7.1068723873
 30
0.0
 10
12.7969408606
 20
7.1209500575
 30
0.0
 10
12.7911666724
 20
7.1347058436
 30
0.0
 10
12.7844191364
 20
7.1480642769
 30
0.0
 10
12.7767353732
 20
7.1609520508
 30
0.0
 10
12.7681576192
 20
7.1732984517
 30
0.0
 10
12.7587329972
 20
7.1850357329
 30
0.0
 10
12.7485132591
 20
7.196099485
 30
0.0
 10
12.7375545046
 20
7.2064289847
 30
0.0
 10
12.7259168763
 20
7.2159675244
 30
0.0
 10
12.7136642329
 20
7.224662721
 30
0.0
 10
12.7008638029
 20
7.2324668008
 30
0.0
 10
12.6875858198
 20
7.2393368598
 30
0.0
 10
12.6739031421
 20
7.2452350985
 30
0.0
 10
12.6598908585
 20
7.2501290287
 30
0.0
 10
12.6456258817
 20
7.253991653
 30
0.0
 10
12.6311865322
 20
7.256801615
 30
0.0
 10
12.6166521135
 20
7.2585433198
 30
0.0
 10
12.6021024867
 20
7.2592070262
 30
0.0
 10
12.5876176205
 20
7.2587889003
 30
0.0
 10
12.5732772155
 20
7.2572910706
 30
0.0
 10
12.559160048
 20
7.2547215292
 30
0.0
 10
12.5453443513
 20
7.2510944585
 30
0.0
 10
12.5341334998
 20
7.2472026619
 30
0.0
 10
12.5253951852
 20
7.2435833884
 30
0.0
 10
12.5168337514
 20
7.2396384109
 30
0.0
 10
12.5064529842
 20
7.2340931095
 30
0.0
 10
12.4965535606
 20
7.227753519
 30
0.0
 10
12.4889668362
 20
7.2222328139
 30
0.0
 10
12.4816142722
 20
7.2164229905
 30
0.0
 10
12.476364258
 20
7.2117405926
 30
0.0
 10
12.4729965579
 20
7.2084876218
 30
0.0
  0
SPLINE
  5
387
100
AcDbEntity
  8
0
100
AcDbSpline
 62
7
  6
CONTINUOUS
 70
0
 71
3
 72
39
 73
35
 74
0
 42
0.0000001
 43
0.0000001
 44
0.0000000001
 40
0.0
 40
0.0
 40
0.0
 40
0.0
 40
0.0311450401
 40
0.062443098
 40
0.0938883402
 40
0.1254709779
 40
0.1571788704
 40
0.1889972432
 40
0.2209091549
 40
0.2528958204
 40
0.2849369968
 40
0.3170113846
 40
0.3490970423
 40
0.3811718113
 40
0.4132137424
 40
0.4452015207
 40
0.4771148823
 40
0.5089350149
 40
0.5406449388
 40
0.5722298604
 40
0.6036774924
 40
0.6349783353
 40
0.6661259096
 40
0.6971169338
 40
0.7279514411
 40
0.7586328285
 40
0.7891678337
 40
0.8195664367
 40
0.8498416808
 40
0.8800094153
 40
0.9100879635
 40
0.9400977213
 40
0.9700606967
 40
1.0
 40
1.0
 40
1.0
 40
1.0
 10
11.044401417
 20
7.9585635603
 30
0.0
 10
11.0547796891
 20
7.9578438247
 30
0.0
 10
11.0755422641
 20
7.955641176
 30
0.0
 10
11.106434413
 20
7.950092612
 30
0.0
 10
11.1369956765
 20
7.9423207765
 30
0.0
 10
11.1670610132
 20
7.932367414
 30
0.0
 10
11.1964706854
 20
7.9202859041
 30
0.0
 10
11.2250678174
 20
7.9061408508
 30
0.0
 10
11.2527000604
 20
7.8900078397
 30
0.0
 10
11.2792201773
 20
7.8719730173
 30
0.0
 10
11.3044868745
 20
7.8521326237
 30
0.0
 10
11.3283655233
 20
7.8305924773
 30
0.0
 10
11.3507288743
 20
7.8074674169
 30
0.0
 10
11.3714577266
 20
7.7828806963
 30
0.0
 10
11.3904415525
 20
7.7569633329
 30
0.0
 10
11.4075791046
 20
7.7298534331
 30
0.0
 10
11.4227789398
 20
7.701695451
 30
0.0
 10
11.4359598951
 20
7.6726394236
 30
0.0
 10
11.44705152
 20
7.6428401837
 30
0.0
 10
11.455994452
 20
7.6124565465
 30
0.0
 10
11.4627407315
 20
7.5816504751
 30
0.0
 10
11.4672540862
 20
7.5505862344
 30
0.0
 10
11.4695101253
 20
7.5194295204
 30
0.0
 10
11.4694964646
 20
7.488346586
 30
0.0
 10
11.4672128097
 20
7.4575033655
 30
0.0
 10
11.4626709746
 20
7.4270645967
 30
0.0
 10
11.4558948343
 20
7.3971929472
 30
0.0
 10
11.4469202356
 20
7.3680481374
 30
0.0
 10
11.4357948402
 20
7.3397860896
 30
0.0
 10
11.4225778149
 20
7.3125580358
 30
0.0
 10
11.4073397379
 20
7.2865098897
 30
0.0
 10
11.3901614858
 20
7.2617807135
 30
0.0
 10
11.3711365848
 20
7.2385046769
 30
0.0
 10
11.357283949
 20
7.2240330924
 30
0.0
 10
11.3500910917
 20
7.2170852958
 30
0.0
  0
SPLINE
  5
388
100
AcDbEntity
  8
0
100
AcDbSpline
 62
7
  6
CONTINUOUS
 70
0
 71
3
 72
47
 73
43
 74
0
 42
0.0000001
 43
0.0000001
 44
0.0000000001
 40
0.0
 40
0.0
 40
0.0
 40
0.0
 40
0.0958288778
 40
0.1428190813
 40
0.1890973258
 40
0.2345927051
 40
0.2792365599
 40
0.3229622087
 40
0.36570484
 40
0.4074019633
 40
0.4479935495
 40
0.4874221989
 40
0.5256333955
 40
0.562575849
 40
0.5982017357
 40
0.6324670006
 40
0.6653317986
 40
0.696761026
 40
0.7267248024
 40
0.7551991569
 40
0.7821669874
 40
0.8076191674
 40
0.8315558892
 40
0.8429599089
 40
0.8539904626
 40
0.8646510953
 40
0.8749464064
 40
0.8848822263
 40
0.8944655538
 40
0.903704898
 40
0.9126103679
 40
0.9211937503
 40
0.9294688928
 40
0.9374517342
 40
0.945160509
 40
0.9598347361
 40
0.9668566082
 40
0.9737035131
 40
0.9804067666
 40
0.9870000197
 40
0.9935188069
 40
1.0
 40
1.0
 40
1.0
 40
1.0
 10
9.799044483
 20
10.7871520245
 30
0.0
 10
9.7809425244
 20
10.7884073996
 30
0.0
 10
9.7539834962
 20
10.7905789727
 30
0.0
 10
9.718349401
 20
10.7940901315
 30
0.0
 10
9.6922333573
 20
10.7969849815
 30
0.0
 10
9.6665967378
 20
10.8001535002
 30
0.0
 10
9.6414824154
 20
10.8035903724
 30
0.0
 10
9.6169323818
 20
10.8072898064
 30
0.0
 10
9.5929876542
 20
10.811245607
 30
0.0
 10
9.5696882464
 20
10.8154511174
 30
0.0
 10
9.5470730677
 20
10.8198992561
 30
0.0
 10
9.5251798816
 20
10.8245825456
 30
0.0
 10
9.5040452329
 20
10.8294931261
 30
0.0
 10
9.4837043664
 20
10.8346227255
 30
0.0
 10
9.4641911749
 20
10.8399627113
 30
0.0
 10
9.4455381501
 20
10.8455041146
 30
0.0
 10
9.4277763059
 20
10.8512376384
 30
0.0
 10
9.410935106
 20
10.8571536443
 30
0.0
 10
9.3950424123
 20
10.8632422258
 30
0.0
 10
9.3801244763
 20
10.8694932339
 30
0.0
 10
9.3662056994
 20
10.8758963181
 30
0.0
 10
9.3533090953
 20
10.8824408559
 30
0.0
 10
9.3432748139
 20
10.8880914088
 30
0.0
 10
9.3357900217
 20
10.8926838285
 30
0.0
 10
9.3305360799
 20
10.8961009964
 30
0.0
 10
9.3255530202
 20
10.8995453129
 30
0.0
 10
9.3208429043
 20
10.9030154414
 30
0.0
 10
9.316407637
 20
10.9065099151
 30
0.0
 10
9.312249085
 20
10.9100273939
 30
0.0
 10
9.3083689578
 20
10.9135664688
 30
0.0
 10
9.3047688401
 20
10.9171257091
 30
0.0
 10
9.3014502865
 20
10.9207038294
 30
0.0
 10
9.2984147245
 20
10.9242992992
 30
0.0
 10
9.2956632695
 20
10.9279111298
 30
0.0
 10
9.292429119
 20
10.9326673224
 30
0.0
 10
9.289692806
 20
10.9375358639
 30
0.0
 10
9.2875249153
 20
10.9424905007
 30
0.0
 10
9.2862122204
 20
10.9461615985
 30
0.0
 10
9.2851903067
 20
10.9498399158
 30
0.0
 10
9.2844597784
 20
10.9535239654
 30
0.0
 10
9.2840211678
 20
10.9572115912
 30
0.0
 10
9.2839235902
 20
10.9596742692
 30
0.0
 10
9.2839235851
 20
10.9609014992
 30
0.0
  0
SPLINE
  5
389
100
AcDbEntity
  8
0
100
AcDbSpline
 62
7
  6
CONTINUOUS
 70
0
 71
3
 72
19
 73
15
 74
0
 42
0.0000001
 43
0.0000001
 44
0.0000000001
 40
0.0
 40
0.0
 40
0.0
 40
0.0
 40
0.150460937
 40
0.2916987357
 40
0.424419542
 40
0.4878837275
 40
0.5495802504
 40
0.6682271673
 40
0.7255606103
 40
0.7817998831
 40
0.8371466721
 40
0.8918135967
 40
0.94602219
 40
1.0
 40
1.0
 40
1.0
 40
1.0
 10
13.2997767234
 20
10.1578058941
 30
0.0
 10
13.3019875135
 20
10.1599413534
 30
0.0
 10
13.3064060527
 20
10.1639480825
 30
0.0
 10
13.3132477342
 20
10.1692875087
 30
0.0
 10
13.3190266109
 20
10.1730638479
 30
0.0
 10
13.3236348956
 20
10.1756210761
 30
0.0
 10
13.3281072284
 20
10.177816511
 30
0.0
 10
13.3326319246
 20
10.1796110819
 30
0.0
 10
13.3371820772
 20
10.1809615047
 30
0.0
 10
13.3405463357
 20
10.1817398964
 30
0.0
 10
13.3438993949
 20
10.1822946989
 30
0.0
 10
13.3472403691
 20
10.1826256377
 30
0.0
 10
13.3505679076
 20
10.1827325846
 30
0.0
 10
13.3527786296
 20
10.1826543999
 30
0.0
 10
13.3538786849
 20
10.1825781108
 30
0.0
  0
SPLINE
  5
38A
100
AcDbEntity
  8
0
100
AcDbSpline
 62
7
  6
CONTINUOUS
 70
0
 71
3
 72
29
 73
25
 74
0
 42
0.0000001
 43
0.0000001
 44
0.0000000001
 40
0.0
 40
0.0
 40
0.0
 40
0.0
 40
0.0308567503
 40
0.0616603989
 40
0.0924140154
 40
0.1231291718
 40
0.1538159557
 40
0.1844863139
 40
0.2151533937
 40
0.2458308463
 40
0.2765329383
 40
0.3072738717
 40
0.3380673958
 40
0.3689267998
 40
0.4308723133
 40
0.4932082614
 40
0.5559798815
 40
0.6191883618
 40
0.6827797024
 40
0.7466352554
 40
0.8105655868
 40
0.8743133499
 40
0.9375681413
 40
1.0
 40
1.0
 40
1.0
 40
1.0
 10
11.0347051792
 20
7.7351903245
 30
0.0
 10
11.0347051792
 20
7.7318187722
 30
0.0
 10
11.0348914561
 20
7.7250799684
 30
0.0
 10
11.0357299682
 20
7.7150123063
 30
0.0
 10
11.0371235999
 20
7.7050216873
 30
0.0
 10
11.0390656287
 20
7.695136182
 30
0.0
 10
11.0415472375
 20
7.6853815795
 30
0.0
 10
11.0445572649
 20
7.6757824759
 30
0.0
 10
11.0480827894
 20
7.6663616908
 30
0.0
 10
11.0521093541
 20
7.6571402748
 30
0.0
 10
11.0566210966
 20
7.6481373891
 30
0.0
 10
11.0616012086
 20
7.6393705322
 30
0.0
 10
11.0670324429
 20
7.6308552896
 30
0.0
 10
11.074859637
 20
7.6198441666
 30
0.0
 10
11.0856935775
 20
7.6067690553
 30
0.0
 10
11.1001819345
 20
7.5923131723
 30
0.0
 10
11.1160260899
 20
7.5791422212
 30
0.0
 10
11.133070001
 20
7.5673267724
 30
0.0
 10
11.1511520248
 20
7.5569337691
 30
0.0
 10
11.1700987292
 20
7.5480311789
 30
0.0
 10
11.1897201135
 20
7.5406875935
 30
0.0
 10
11.2098076068
 20
7.5349698591
 30
0.0
 10
11.2301321702
 20
7.5309382175
 30
0.0
 10
11.243797669
 20
7.5293931244
 30
0.0
 10
11.2506029196
 20
7.5289211787
 30
0.0
  0
SPLINE
  5
38B
100
AcDbEntity
  8
0
100
AcDbSpline
 62
7
  6
CONTINUOUS
 70
0
 71
3
 72
41
 73
37
 74
0
 42
0.0000001
 43
0.0000001
 44
0.0000000001
 40
0.0
 40
0.0
 40
0.0
 40
0.0
 40
0.0311445021
 40
0.0624424749
 40
0.0938872635
 40
0.1254695783
 40
0.1571771084
 40
0.1889951272
 40
0.2209066806
 40
0.2528929874
 40
0.2849338043
 40
0.3170078318
 40
0.3490931284
 40
0.3811675354
 40
0.4132091043
 40
0.4451965207
 40
0.4771095205
 40
0.5089292914
 40
0.5406388537
 40
0.5722234141
 40
0.6036706863
 40
0.634971171
 40
0.6661183885
 40
0.697109057
 40
0.7279432097
 40
0.7586242438
 40
0.7891588981
 40
0.8195571526
 40
0.8498320501
 40
0.8649308928
 40
0.8800050512
 40
0.9100832561
 40
0.9400926724
 40
0.9550812755
 40
0.9700610347
 40
1.0
 40
1.0
 40
1.0
 40
1.0
 10
11.0563070835
 20
7.7720487455
 30
0.0
 10
11.0618500001
 20
7.771664343
 30
0.0
 10
11.0729391334
 20
7.7704879123
 30
0.0
 10
11.0894383803
 20
7.7675245058
 30
0.0
 10
11.1057609285
 20
7.7633735949
 30
0.0
 10
11.121818567
 20
7.7580575935
 30
0.0
 10
11.1375260296
 20
7.7516049366
 30
0.0
 10
11.1527995168
 20
7.7440501671
 30
0.0
 10
11.1675576662
 20
7.7354336471
 30
0.0
 10
11.1817218377
 20
7.7258013869
 30
0.0
 10
11.1952165644
 20
7.7152047826
 30
0.0
 10
11.207969941
 20
7.7037003507
 30
0.0
 10
11.2199140045
 20
7.6913494269
 30
0.0
 10
11.2309850923
 20
7.6782178428
 30
0.0
 10
11.2411241782
 20
7.664375578
 30
0.0
 10
11.2502771845
 20
7.6498963913
 30
0.0
 10
11.2583952676
 20
7.6348574323
 30
0.0
 10
11.2654350772
 20
7.6193388343
 30
0.0
 10
11.2713589866
 20
7.6034232934
 30
0.0
 10
11.2761352931
 20
7.587195633
 30
0.0
 10
11.2797383888
 20
7.570742358
 30
0.0
 10
11.2821488998
 20
7.5541511999
 30
0.0
 10
11.2833537927
 20
7.5375106542
 30
0.0
 10
11.283346453
 20
7.5209095191
 30
0.0
 10
11.2821267183
 20
7.5044364088
 30
0.0
 10
11.2797009212
 20
7.4881793484
 30
0.0
 10
11.2760817446
 20
7.4722250689
 30
0.0
 10
11.2712886146
 20
7.4566594213
 30
0.0
 10
11.2663317057
 20
7.4440677285
 30
0.0
 10
11.2618082931
 20
7.4342757293
 30
0.0
 10
11.2569266277
 20
7.4246966547
 30
0.0
 10
11.2501487408
 20
7.413110251
 30
0.0
 10
11.2424990924
 20
7.4020984223
 30
0.0
 10
11.2358886841
 20
7.3936812461
 30
0.0
 10
11.228962919
 20
7.3855388212
 30
0.0
 10
11.2234141956
 20
7.3797420859
 30
0.0
 10
11.219572529
 20
7.376031346
 30
0.0
  0
SPLINE
  5
38C
100
AcDbEntity
  8
0
100
AcDbSpline
 62
7
  6
CONTINUOUS
 70
0
 71
3
 72
21
 73
17
 74
0
 42
0.0000001
 43
0.0000001
 44
0.0000000001
 40
0.0
 40
0.0
 40
0.0
 40
0.0
 40
0.1274738588
 40
0.254066744
 40
0.3170668616
 40
0.3798654398
 40
0.4424734153
 40
0.5049033591
 40
0.5671697562
 40
0.6292888943
 40
0.6912786507
 40
0.753158338
 40
0.8149484586
 40
0.8766705102
 40
0.9383467683
 40
1.0
 40
1.0
 40
1.0
 40
1.0
 10
11.0563070835
 20
7.7720487455
 30
0.0
 10
11.0487443068
 20
7.7725732259
 30
0.0
 10
11.0336084121
 20
7.7728686247
 30
0.0
 10
11.0147812589
 20
7.7713249587
 30
0.0
 10
10.9999548724
 20
7.7689489687
 30
0.0
 10
10.9889925844
 20
7.7666060948
 30
0.0
 10
10.9781998066
 20
7.7637054988
 30
0.0
 10
10.9676033863
 20
7.7602545119
 30
0.0
 10
10.9572300922
 20
7.7562618117
 30
0.0
 10
10.9471060727
 20
7.751737347
 30
0.0
 10
10.9372568185
 20
7.7466925625
 30
0.0
 10
10.9277071276
 20
7.7411401595
 30
0.0
 10
10.9184811379
 20
7.7350940521
 30
0.0
 10
10.9096019901
 20
7.7285694412
 30
0.0
 10
10.9010923295
 20
7.7215830798
 30
0.0
 10
10.8956788308
 20
7.7166282954
 30
0.0
 10
10.8930416379
 20
7.7140809798
 30
0.0
  0
SPLINE
  5
38D
100
AcDbEntity
  8
0
100
AcDbSpline
 62
7
  6
CONTINUOUS
 70
0
 71
3
 72
15
 73
11
 74
0
 42
0.0000001
 43
0.0000001
 44
0.0000000001
 40
0.0
 40
0.0
 40
0.0
 40
0.0
 40
0.1234394136
 40
0.2470466177
 40
0.370982561
 40
0.4953948844
 40
0.6204121622
 40
0.7461393429
 40
0.8726517211
 40
1.0
 40
1.0
 40
1.0
 40
1.0
 10
8.1669174509
 20
9.166512857
 30
0.0
 10
8.171276151
 20
9.1707230669
 30
0.0
 10
8.1795717313
 20
9.1796053346
 30
0.0
 10
8.1905891689
 20
9.1941459787
 30
0.0
 10
8.2000885348
 20
9.2097787437
 30
0.0
 10
8.2079805395
 20
9.2263571491
 30
0.0
 10
8.2141931888
 20
9.2437281298
 30
0.0
 10
8.2186695038
 20
9.2617314914
 30
0.0
 10
8.2213690493
 20
9.2801988594
 30
0.0
 10
8.2219659854
 20
9.2926703512
 30
0.0
 10
8.2219659854
 20
9.2989222942
 30
0.0
  0
SPLINE
  5
38E
100
AcDbEntity
  8
0
100
AcDbSpline
 62
7
  6
CONTINUOUS
 70
0
 71
3
 72
15
 73
11
 74
0
 42
0.0000001
 43
0.0000001
 44
0.0000000001
 40
0.0
 40
0.0
 40
0.0
 40
0.0
 40
0.1234394136
 40
0.2470466177
 40
0.370982561
 40
0.4953948844
 40
0.6204121622
 40
0.7461393429
 40
0.8726517211
 40
1.0
 40
1.0
 40
1.0
 40
1.0
 10
12.7550653976
 20
6.9164719491
 30
0.0
 10
12.7594240977
 20
6.920682159
 30
0.0
 10
12.7677196781
 20
6.9295644267
 30
0.0
 10
12.7787371156
 20
6.9441050709
 30
0.0
 10
12.7882364815
 20
6.9597378358
 30
0.0
 10
12.7961284862
 20
6.9763162413
 30
0.0
 10
12.8023411355
 20
6.9936872219
 30
0.0
 10
12.8068174506
 20
7.0116905835
 30
0.0
 10
12.809516996
 20
7.0301579516
 30
0.0
 10
12.8101139321
 20
7.0426294433
 30
0.0
 10
12.8101139321
 20
7.0488813864
 30
0.0
  0
SPLINE
  5
38F
100
AcDbEntity
  8
0
100
AcDbSpline
 62
7
  6
CONTINUOUS
 70
0
 71
3
 72
52
 73
48
 74
0
 42
0.0000001
 43
0.0000001
 44
0.0000000001
 40
0.0
 40
0.0
 40
0.0
 40
0.0
 40
0.0055575409
 40
0.0111779669
 40
0.0169218944
 40
0.0228457784
 40
0.0290005385
 40
0.0354309383
 40
0.0421753664
 40
0.0492662129
 40
0.0567302428
 40
0.0645893498
 40
0.0728610114
 40
0.0815590518
 40
0.0906939685
 40
0.1002735876
 40
0.1103032329
 40
0.1207862668
 40
0.1317241336
 40
0.1431168099
 40
0.1549627623
 40
0.1672593293
 40
0.180002627
 40
0.1931878784
 40
0.2068092924
 40
0.2208603496
 40
0.2353336718
 40
0.2502212706
 40
0.2812030867
 40
0.3137301822
 40
0.3477175443
 40
0.3830726942
 40
0.4196965467
 40
0.4574841626
 40
0.4963254275
 40
0.5361056779
 40
0.5767062924
 40
0.6180052566
 40
0.6598777114
 40
0.7021964885
 40
0.7448326391
 40
0.7876559545
 40
0.8305354925
 40
0.8733400712
 40
0.9159388564
 40
0.9582016962
 40
1.0
 40
1.0
 40
1.0
 40
1.0
 10
10.6739235567
 20
10.9609022836
 30
0.0
 10
10.6739235639
 20
10.959182988
 30
0.0
 10
10.6737311198
 20
10.9557219464
 30
0.0
 10
10.6728671906
 20
10.9505488611
 30
0.0
 10
10.6714295404
 20
10.9453873016
 30
0.0
 10
10.6694208582
 20
10.9402432865
 30
0.0
 10
10.6668445554
 20
10.9351209406
 30
0.0
 10
10.6637039957
 20
10.9300242472
 30
0.0
 10
10.6600028523
 20
10.9249566359
 30
0.0
 10
10.6557446602
 20
10.9199216003
 30
0.0
 10
10.6509333179
 20
10.9149224418
 30
0.0
 10
10.6455727727
 20
10.9099627312
 30
0.0
 10
10.6396674633
 20
10.9050459103
 30
0.0
 10
10.6332220409
 20
10.9001757196
 30
0.0
 10
10.6262417064
 20
10.8953557346
 30
0.0
 10
10.6187319614
 20
10.8905897955
 30
0.0
 10
10.6106988579
 20
10.8858815348
 30
0.0
 10
10.6021487895
 20
10.8812348079
 30
0.0
 10
10.5930886742
 20
10.8766532356
 30
0.0
 10
10.5835257891
 20
10.8721406254
 30
0.0
 10
10.5734679025
 20
10.8677005391
 30
0.0
 10
10.5629231474
 20
10.8633366931
 30
0.0
 10
10.551900114
 20
10.8590525587
 30
0.0
 10
10.5404077574
 20
10.8548517325
 30
0.0
 10
10.5284554566
 20
10.8507375708
 30
0.0
 10
10.5160529552
 20
10.8467135384
 30
0.0
 10
10.5032103731
 20
10.8427828269
 30
0.0
 10
10.4852752623
 20
10.8376018687
 30
0.0
 10
10.4618249354
 20
10.8313999553
 30
0.0
 10
10.4324658466
 20
10.8244743934
 30
0.0
 10
10.4016218527
 20
10.8179931358
 30
0.0
 10
10.3693938557
 20
10.8119776165
 30
0.0
 10
10.3358870867
 20
10.806447761
 30
0.0
 10
10.3012111355
 20
10.8014218674
 30
0.0
 10
10.2654794577
 20
10.7969165616
 30
0.0
 10
10.2288090208
 20
10.7929467398
 30
0.0
 10
10.191319901
 20
10.7895255224
 30
0.0
 10
10.1531348843
 20
10.786664213
 30
0.0
 10
10.1143790564
 20
10.7843722621
 30
0.0
 10
10.0751793888
 20
10.782657238
 30
0.0
 10
10.035664318
 20
10.7815248031
 30
0.0
 10
9.9959633207
 20
10.7809786951
 30
0.0
 10
9.9562064881
 20
10.7810207181
 30
0.0
 10
9.9165240954
 20
10.7816507303
 30
0.0
 10
9.8770461571
 20
10.7828666584
 30
0.0
 10
9.8379021328
 20
10.7846644749
 30
0.0
 10
9.8119443339
 20
10.7862574168
 30
0.0
 10
9.799044483
 20
10.7871520245
 30
0.0
  0
SPLINE
  5
390
100
AcDbEntity
  8
0
100
AcDbSpline
 62
7
  6
CONTINUOUS
 70
0
 71
3
 72
39
 73
35
 74
0
 42
0.0000001
 43
0.0000001
 44
0.0000000001
 40
0.0
 40
0.0
 40
0.0
 40
0.0
 40
0.0072740202
 40
0.0148705335
 40
0.022798101
 40
0.0310633997
 40
0.0396716423
 40
0.0486266635
 40
0.0579310299
 40
0.0675863562
 40
0.0775931691
 40
0.0879512404
 40
0.1097152016
 40
0.1328633047
 40
0.157369934
 40
0.1832015935
 40
0.2103180061
 40
0.2386729657
 40
0.2682150183
 40
0.298888004
 40
0.3306315568
 40
0.3633815329
 40
0.3970703789
 40
0.431627463
 40
0.4669793706
 40
0.5030502068
 40
0.5397618887
 40
0.5770344129
 40
0.6147861138
 40
0.691391955
 40
0.7689041411
 40
0.8466352401
 40
0.9238951378
 40
1.0
 40
1.0
 40
1.0
 40
1.0
 10
10.4847264178
 20
10.9090386398
 30
0.0
 10
10.483557196
 20
10.9079505491
 30
0.0
 10
10.4811131476
 20
10.9057833468
 30
0.0
 10
10.4772270149
 20
10.9026257884
 30
0.0
 10
10.4730448561
 20
10.8994939623
 30
0.0
 10
10.4685692699
 20
10.8963896623
 30
0.0
 10
10.4638028076
 20
10.8933146673
 30
0.0
 10
10.4587482596
 20
10.8902707679
 30
0.0
 10
10.4534086019
 20
10.8872596725
 30
0.0
 10
10.4477869349
 20
10.8842832293
 30
0.0
 10
10.4418865836
 20
10.8813430734
 30
0.0
 10
10.4335138096
 20
10.8774086393
 30
0.0
 10
10.4223640193
 20
10.8726073792
 30
0.0
 10
10.4081444524
 20
10.8671089199
 30
0.0
 10
10.3929057754
 20
10.8617953858
 30
0.0
 10
10.3766839867
 20
10.8566794552
 30
0.0
 10
10.3595171962
 20
10.8517733557
 30
0.0
 10
10.3414459504
 20
10.8470888413
 30
0.0
 10
10.322512991
 20
10.8426371473
 30
0.0
 10
10.3027631804
 20
10.8384289437
 30
0.0
 10
10.2822433663
 20
10.8344743166
 30
0.0
 10
10.2610022567
 20
10.8307827464
 30
0.0
 10
10.2390902966
 20
10.8273630815
 30
0.0
 10
10.2165595463
 20
10.8242235211
 30
0.0
 10
10.1934635599
 20
10.8213715845
 30
0.0
 10
10.1698572471
 20
10.8188140934
 30
0.0
 10
10.1457967542
 20
10.81655718
 30
0.0
 10
10.1213392535
 20
10.8146062083
 30
0.0
 10
10.0881168795
 20
10.8124086241
 30
0.0
 10
10.0460267399
 20
10.8104654289
 30
0.0
 10
9.9951240496
 20
10.8094172354
 30
0.0
 10
9.9440672261
 20
10.8096519895
 30
0.0
 10
9.893341855
 20
10.8111673039
 30
0.0
 10
9.8597143542
 20
10.8130410622
 30
0.0
 10
9.8430436843
 20
10.8141971771
 30
0.0
  0
SPLINE
  5
391
100
AcDbEntity
  8
0
100
AcDbSpline
 62
7
  6
CONTINUOUS
 70
0
 71
3
 72
11
 73
7
 74
0
 42
0.0000001
 43
0.0000001
 44
0.0000000001
 40
0.0
 40
0.0
 40
0.0
 40
0.0
 40
0.2441657944
 40
0.4907086939
 40
0.7419314399
 40
1.0
 40
1.0
 40
1.0
 40
1.0
 10
10.4589235649
 20
10.9019804118
 30
0.0
 10
10.458923573
 20
10.90087994
 30
0.0
 10
10.4588095379
 20
10.8986666445
 30
0.0
 10
10.4582975597
 20
10.8953566457
 30
0.0
 10
10.4574454327
 20
10.892052983
 30
0.0
 10
10.4566636281
 20
10.8898908222
 30
0.0
 10
10.456220771
 20
10.8888152969
 30
0.0
  0
SPLINE
  5
392
100
AcDbEntity
  8
0
100
AcDbSpline
 62
7
  6
CONTINUOUS
 70
0
 71
3
 72
31
 73
27
 74
0
 42
0.0000001
 43
0.0000001
 44
0.0000000001
 40
0.0
 40
0.0
 40
0.0
 40
0.0
 40
0.0165872598
 40
0.034153987
 40
0.0527307202
 40
0.0723391814
 40
0.0929940483
 40
0.1147035539
 40
0.1374709122
 40
0.1612945139
 40
0.1861690166
 40
0.2120853891
 40
0.2390316624
 40
0.2669930026
 40
0.29595213
 40
0.325889517
 40
0.3567835052
 40
0.3886106565
 40
0.4549598302
 40
0.5247182938
 40
0.5976426772
 40
0.6734700734
 40
0.7519204268
 40
0.8326991733
 40
0.9154981616
 40
1.0
 40
1.0
 40
1.0
 40
1.0
 10
9.4731216805
 20
10.9090377507
 30
0.0
 10
9.4746871115
 20
10.9075809626
 30
0.0
 10
9.4780074686
 20
10.9046844902
 30
0.0
 10
9.483372974
 20
10.9005055795
 30
0.0
 10
9.4892579121
 20
10.8963744554
 30
0.0
 10
9.4956559868
 20
10.8922952815
 30
0.0
 10
9.5025608245
 20
10.8882721452
 30
0.0
 10
9.5099653007
 20
10.8843090322
 30
0.0
 10
9.5178618552
 20
10.8804101024
 30
0.0
 10
9.5262423086
 20
10.8765792966
 30
0.0
 10
9.5350980057
 20
10.8728206818
 30
0.0
 10
9.5444197318
 20
10.8691381253
 30
0.0
 10
9.5541977901
 20
10.8655355326
 30
0.0
 10
9.5644219743
 20
10.862016667
 30
0.0
 10
9.5750816032
 20
10.8585852336
 30
0.0
 10
9.586165523
 20
10.8552448716
 30
0.0
 10
9.5976621392
 20
10.8519990333
 30
0.0
 10
9.6137488669
 20
10.8477428941
 30
0.0
 10
9.6348071627
 20
10.8427009289
 30
0.0
 10
9.6611825791
 20
10.837159631
 30
0.0
 10
9.6888920034
 20
10.8320702374
 30
0.0
 10
9.7178191733
 20
10.8274543742
 30
0.0
 10
9.7478429165
 20
10.8233316835
 30
0.0
 10
9.7788372434
 20
10.8197197111
 30
0.0
 10
9.8106720063
 20
10.8166337815
 30
0.0
 10
9.8321758996
 20
10.8149508605
 30
0.0
 10
9.8430436843
 20
10.8141971771
 30
0.0
  0
SPLINE
  5
393
100
AcDbEntity
  8
0
100
AcDbSpline
 62
7
  6
CONTINUOUS
 70
0
 71
3
 72
11
 73
7
 74
0
 42
0.0000001
 43
0.0000001
 44
0.0000000001
 40
0.0
 40
0.0
 40
0.0
 40
0.0
 40
0.2442853594
 40
0.490897991
 40
0.7420952179
 40
1.0
 40
1.0
 40
1.0
 40
1.0
 10
9.4989235769
 20
10.9019804118
 30
0.0
 10
9.498923585
 20
10.9008918536
 30
0.0
 10
9.4990351415
 20
10.8987027833
 30
0.0
 10
9.4995359759
 20
10.8954287665
 30
0.0
 10
9.5003697417
 20
10.8921608837
 30
0.0
 10
9.5011348583
 20
10.8900213219
 30
0.0
 10
9.5015683424
 20
10.8889569622
 30
0.0
  0
SPLINE
  5
394
100
AcDbEntity
  8
0
100
AcDbSpline
 62
7
  6
CONTINUOUS
 70
0
 71
3
 72
86
 73
82
 74
0
 42
0.0000001
 43
0.0000001
 44
0.0000000001
 40
0.0
 40
0.0
 40
0.0
 40
0.0
 40
0.0027164229
 40
0.0054532199
 40
0.0082302803
 40
0.0110665652
 40
0.0139797601
 40
0.0169860612
 40
0.0201000083
 40
0.0233345154
 40
0.0267008552
 40
0.0302087911
 40
0.0338666949
 40
0.0376816386
 40
0.0416596027
 40
0.0458055094
 40
0.0501234214
 40
0.0546165986
 40
0.0592875859
 40
0.0641383491
 40
0.0691702497
 40
0.0743842108
 40
0.0797806815
 40
0.0853597253
 40
0.0911210701
 40
0.0970640767
 40
0.1094907819
 40
0.1226299857
 40
0.1364676026
 40
0.1509863633
 40
0.166166208
 40
0.1819846021
 40
0.1984167887
 40
0.2154360082
 40
0.2330136911
 40
0.2511196222
 40
0.2697220861
 40
0.2887880011
 40
0.3082830385
 40
0.3281717446
 40
0.3484176561
 40
0.3689834073
 40
0.3898308346
 40
0.4109210783
 40
0.4322146819
 40
0.4536716962
 40
0.4969136001
 40
0.5403217884
 40
0.5835689461
 40
0.6050305436
 40
0.6263300209
 40
0.6474274143
 40
0.6682832501
 40
0.6888586484
 40
0.7091154216
 40
0.7290161766
 40
0.7485244187
 40
0.7676046599
 40
0.7862225346
 40
0.8043449193
 40
0.8219400528
 40
0.8389776685
 40
0.8554291414
 40
0.8712676506
 40
0.8864683732
 40
0.9010086996
 40
0.9148684857
 40
0.9280303658
 40
0.9404801448
 40
0.9464347977
 40
0.952207837
 40
0.9577986052
 40
0.9632068066
 40
0.9684324934
 40
0.9734760794
 40
0.9783384382
 40
0.9830208843
 40
0.9875254058
 40
0.9918546018
 40
0.9960115767
 40
1.0
 40
1.0
 40
1.0
 40
1.0
 10
13.245674762
 20
8.6223255957
 30
0.0
 10
13.2442152553
 20
8.6224268128
 30
0.0
 10
13.2412927723
 20
8.6227621369
 30
0.0
 10
13.2369462434
 20
8.6236593471
 30
0.0
 10
13.232632573
 20
8.624950751
 30
0.0
 10
13.2283548261
 20
8.6266350439
 30
0.0
 10
13.2241151971
 20
8.6287107113
 30
0.0
 10
13.2199159064
 20
8.631176206
 30
0.0
 10
13.2157588194
 20
8.6340296659
 30
0.0
 10
13.2116458565
 20
8.6372693831
 30
0.0
 10
13.2075787434
 20
8.640893398
 30
0.0
 10
13.2035592439
 20
8.6448997499
 30
0.0
 10
13.1995891506
 20
8.6492863748
 30
0.0
 10
13.1956701479
 20
8.6540509922
 30
0.0
 10
13.1918041063
 20
8.6591912933
 30
0.0
 10
13.1879927251
 20
8.6647046816
 30
0.0
 10
13.1842378451
 20
8.6705884748
 30
0.0
 10
13.1805412521
 20
8.6768397713
 30
0.0
 10
13.1769046865
 20
8.6834554753
 30
0.0
 10
13.173329996
 20
8.6904323515
 30
0.0
 10
13.1698188492
 20
8.6977669159
 30
0.0
 10
13.1663730528
 20
8.7054555573
 30
0.0
 10
13.1629942769
 20
8.7134944431
 30
0.0
 10
13.1596842106
 20
8.7218795705
 30
0.0
 10
13.1564445135
 20
8.7306067816
 30
0.0
 10
13.1521570164
 20
8.742876429
 30
0.0
 10
13.1470011278
 20
8.7590481969
 30
0.0
 10
13.1412080258
 20
8.7794674248
 30
0.0
 10
13.1357321304
 20
8.8011378407
 30
0.0
 10
13.1305845272
 20
8.8240160662
 30
0.0
 10
13.1257756819
 20
8.8480565265
 30
0.0
 10
13.121315379
 20
8.8732111319
 30
0.0
 10
13.117212695
 20
8.8994295125
 30
0.0
 10
13.1134759767
 20
8.9266590999
 30
0.0
 10
13.1101128297
 20
8.9548452585
 30
0.0
 10
13.1071301002
 20
8.9839314032
 30
0.0
 10
13.1045338621
 20
9.0138591183
 30
0.0
 10
13.1023294063
 20
9.0445682759
 30
0.0
 10
13.1005212211
 20
9.0759971588
 30
0.0
 10
13.0991129901
 20
9.108082589
 30
0.0
 10
13.0981075879
 20
9.1407600613
 30
0.0
 10
13.0975070749
 20
9.1739638731
 30
0.0
 10
13.0973126903
 20
9.2076272633
 30
0.0
 10
13.0975248639
 20
9.2416825208
 30
0.0
 10
13.0981431557
 20
9.2760612137
 30
0.0
 10
13.0995110288
 20
9.3223557375
 30
0.0
 10
13.1022270204
 20
9.3805221919
 30
0.0
 10
13.1070550008
 20
9.4503210477
 30
0.0
 10
13.1123736208
 20
9.508312789
 30
0.0
 10
13.1173931356
 20
9.5543632208
 30
0.0
 10
13.1215146484
 20
9.588509115
 30
0.0
 10
13.1259940258
 20
9.6222808049
 30
0.0
 10
13.1308222789
 20
9.6556104268
 30
0.0
 10
13.1359896576
 20
9.6884309466
 30
0.0
 10
13.1414857413
 20
9.7206763779
 30
0.0
 10
13.1472994412
 20
9.7522818916
 30
0.0
 10
13.1534190266
 20
9.7831839524
 30
0.0
 10
13.1598321486
 20
9.8133204477
 30
0.0
 10
13.1665258596
 20
9.8426308196
 30
0.0
 10
13.1734866376
 20
9.8710561907
 30
0.0
 10
13.1807004209
 20
9.8985394829
 30
0.0
 10
13.1881526341
 20
9.9250255333
 30
0.0
 10
13.1958282178
 20
9.9504612114
 30
0.0
 10
13.2037116636
 20
9.9747955333
 30
0.0
 10
13.2117870398
 20
9.9979797911
 30
0.0
 10
13.2200380297
 20
10.0199676284
 30
0.0
 10
13.2284479873
 20
10.0407152685
 30
0.0
 10
13.2369999537
 20
10.0601811942
 30
0.0
 10
13.2443353957
 20
10.0755223223
 30
0.0
 10
13.2502730525
 20
10.0871120348
 30
0.0
 10
13.2546848928
 20
10.0953307584
 30
0.0
 10
13.2591193424
 20
10.1032012193
 30
0.0
 10
13.2635742027
 20
10.1107195142
 30
0.0
 10
13.2680472368
 20
10.1178819078
 30
0.0
 10
13.2725362695
 20
10.1246848083
 30
0.0
 10
13.2770389837
 20
10.1311248664
 30
0.0
 10
13.281553249
 20
10.1371988712
 30
0.0
 10
13.2860768531
 20
10.1429038907
 30
0.0
 10
13.2906076988
 20
10.1482371376
 30
0.0
 10
13.2951433556
 20
10.1531957162
 30
0.0
 10
13.2982317022
 20
10.1563135181
 30
0.0
 10
13.2997767234
 20
10.1578058941
 30
0.0
  0
SPLINE
  5
395
100
AcDbEntity
  8
0
100
AcDbSpline
 62
7
  6
CONTINUOUS
 70
0
 71
3
 72
23
 73
19
 74
0
 42
0.0000001
 43
0.0000001
 44
0.0000000001
 40
0.0
 40
0.0
 40
0.0
 40
0.0
 40
0.061648213
 40
0.123319452
 40
0.1850364843
 40
0.2468215692
 40
0.3086962118
 40
0.370680925
 40
0.4327950058
 40
0.495056332
 40
0.557481176
 40
0.6200840667
 40
0.6828775914
 40
0.7458723173
 40
0.8090769586
 40
0.8724967492
 40
0.9361385647
 40
1.0
 40
1.0
 40
1.0
 40
1.0
 10
10.7387117423
 20
7.8500270473
 30
0.0
 10
10.7436494632
 20
7.8547965399
 30
0.0
 10
10.7537854147
 20
7.8640736404
 30
0.0
 10
10.7697183857
 20
7.8771546593
 30
0.0
 10
10.7863432319
 20
7.8893710469
 30
0.0
 10
10.8036174949
 20
7.9006914926
 30
0.0
 10
10.8214977865
 20
7.9110876462
 30
0.0
 10
10.8399390105
 20
7.9205332966
 30
0.0
 10
10.8588947137
 20
7.9290046718
 30
0.0
 10
10.8783171182
 20
7.9364804867
 30
0.0
 10
10.8981572864
 20
7.9429419726
 30
0.0
 10
10.9183652407
 20
7.9483729031
 30
0.0
 10
10.9388900805
 20
7.9527596463
 30
0.0
 10
10.9596801572
 20
7.9560912095
 30
0.0
 10
10.980682986
 20
7.9583592117
 30
0.0
 10
11.0018460913
 20
7.9595581705
 30
0.0
 10
11.0231152539
 20
7.9596849094
 30
0.0
 10
11.037306928
 20
7.9590555648
 30
0.0
 10
11.044401417
 20
7.9585635603
 30
0.0
  0
SPLINE
  5
396
100
AcDbEntity
  8
0
100
AcDbSpline
 62
7
  6
CONTINUOUS
 70
0
 71
3
 72
41
 73
37
 74
0
 42
0.0000001
 43
0.0000001
 44
0.0000000001
 40
0.0
 40
0.0
 40
0.0
 40
0.0
 40
0.0310748272
 40
0.0623072483
 40
0.0936920359
 40
0.1252208484
 40
0.156882237
 40
0.188662033
 40
0.2205436266
 40
0.2525083437
 40
0.2845358343
 40
0.3166044929
 40
0.3486918936
 40
0.3807752384
 40
0.4128318095
 40
0.4448394218
 40
0.4767768664
 40
0.5086243418
 40
0.5403638639
 40
0.5719796493
 40
0.6034584635
 40
0.6347899281
 40
0.6659667781
 40
0.6969850622
 40
0.7278442783
 40
0.7585474376
 40
0.7891010512
 40
0.8195150346
 40
0.8498025274
 40
0.8649066426
 40
0.8799854039
 40
0.9100708284
 40
0.9400854823
 40
0.9550762294
 40
0.970057877
 40
1.0
 40
1.0
 40
1.0
 40
1.0
 10
7.8298000766
 20
9.3261190924
 30
0.0
 10
7.8298000766
 20
9.3212597406
 30
0.0
 10
7.8301625841
 20
9.3115126546
 30
0.0
 10
7.8317810386
 20
9.296938697
 30
0.0
 10
7.8344665174
 20
9.2824502968
 30
0.0
 10
7.8382041055
 20
9.2681280915
 30
0.0
 10
7.8429731482
 20
9.2540504213
 30
0.0
 10
7.8487473363
 20
9.2402946352
 30
0.0
 10
7.8554948724
 20
9.2269362019
 30
0.0
 10
7.8631786355
 20
9.2140484279
 30
0.0
 10
7.8717563895
 20
9.2017020271
 30
0.0
 10
7.8811810116
 20
9.1899647459
 30
0.0
 10
7.8914007497
 20
9.1789009937
 30
0.0
 10
7.9023595041
 20
9.1685714941
 30
0.0
 10
7.9139971324
 20
9.1590329544
 30
0.0
 10
7.9262497758
 20
9.1503377578
 30
0.0
 10
7.9390502059
 20
9.142533678
 30
0.0
 10
7.952328189
 20
9.135663619
 30
0.0
 10
7.9660108666
 20
9.1297653803
 30
0.0
 10
7.9800231502
 20
9.1248714501
 30
0.0
 10
7.994288127
 20
9.1210088258
 30
0.0
 10
8.0087274765
 20
9.1181988638
 30
0.0
 10
8.0232618952
 20
9.116457159
 30
0.0
 10
8.0378115221
 20
9.1157934526
 30
0.0
 10
8.0522963882
 20
9.1162115785
 30
0.0
 10
8.0666367932
 20
9.1177094081
 30
0.0
 10
8.0807539607
 20
9.1202789496
 30
0.0
 10
8.0945696575
 20
9.1239060203
 30
0.0
 10
8.1057805089
 20
9.1277978169
 30
0.0
 10
8.1145188235
 20
9.1314170904
 30
0.0
 10
8.1230802573
 20
9.1353620679
 30
0.0
 10
8.1334610246
 20
9.1409073692
 30
0.0
 10
8.1433604481
 20
9.1472469598
 30
0.0
 10
8.1509471725
 20
9.1527676649
 30
0.0
 10
8.1582997365
 20
9.1585774882
 30
0.0
 10
8.1635497507
 20
9.1632598861
 30
0.0
 10
8.1669174509
 20
9.166512857
 30
0.0
  0
SPLINE
  5
397
100
AcDbEntity
  8
0
100
AcDbSpline
 62
7
  6
CONTINUOUS
 70
0
 71
3
 72
11
 73
7
 74
0
 42
0.0000001
 43
0.0000001
 44
0.0000000001
 40
0.0
 40
0.0
 40
0.0
 40
0.0
 40
0.2467505159
 40
0.4948140931
 40
0.7454812751
 40
1.0
 40
1.0
 40
1.0
 40
1.0
 10
13.3538786849
 20
10.1825781108
 30
0.0
 10
13.3551066173
 20
10.1824929533
 30
0.0
 10
13.3575635443
 20
10.1822288633
 30
0.0
 10
13.3612238989
 20
10.1815539084
 30
0.0
 10
13.3648616965
 20
10.1806001822
 30
0.0
 10
13.3672492635
 20
10.1797861328
 30
0.0
 10
13.3684361282
 20
10.1793352242
 30
0.0
  0
SPLINE
  5
398
100
AcDbEntity
  8
0
100
AcDbSpline
 62
7
  6
CONTINUOUS
 70
0
 71
3
 72
51
 73
47
 74
0
 42
0.0000001
 43
0.0000001
 44
0.0000000001
 40
0.0
 40
0.0
 40
0.0
 40
0.0
 40
0.0417980812
 40
0.0840612888
 40
0.1266598949
 40
0.1694645523
 40
0.2123440698
 40
0.2551673991
 40
0.2978035548
 40
0.3401223426
 40
0.3819948103
 40
0.4232937908
 40
0.4638944236
 40
0.5036746931
 40
0.5425159774
 40
0.580303614
 40
0.6169274897
 40
0.6522826665
 40
0.6862700604
 40
0.7187971933
 40
0.7497790527
 40
0.7791391047
 40
0.793190168
 40
0.8068116282
 40
0.8199968762
 40
0.8327402314
 40
0.8450367889
 40
0.8568828036
 40
0.8682754714
 40
0.8792133972
 40
0.8896964308
 40
0.8997261263
 40
0.9093057575
 40
0.9184407127
 40
0.9271387776
 40
0.9354104664
 40
0.9432696063
 40
0.9507336554
 40
0.9578245356
 40
0.9645689797
 40
0.9709994063
 40
0.9771541823
 40
0.9830780824
 40
0.9888220231
 40
0.9944424553
 40
1.0
 40
1.0
 40
1.0
 40
1.0
 10
10.10315661
 20
11.0219803199
 30
0.0
 10
10.0942474199
 20
11.0225981743
 30
0.0
 10
10.0763197244
 20
11.0236983308
 30
0.0
 10
10.0492850467
 20
11.0249399984
 30
0.0
 10
10.0220196873
 20
11.0257797651
 30
0.0
 10
9.9946132055
 20
11.0262148885
 30
0.0
 10
9.9671552708
 20
11.0262439092
 30
0.0
 10
9.9397359142
 20
11.0258667462
 30
0.0
 10
9.9124449603
 20
11.0250846369
 30
0.0
 10
9.8853718387
 20
11.0239001664
 30
0.0
 10
9.858605251
 20
11.0223172436
 30
0.0
 10
9.8322328902
 20
11.0203410957
 30
0.0
 10
9.806341147
 20
11.0179782492
 30
0.0
 10
9.7810148233
 20
11.01523651
 30
0.0
 10
9.7563368503
 20
11.0121249401
 30
0.0
 10
9.732388009
 20
11.0086538281
 30
0.0
 10
9.7092466617
 20
11.0048346564
 30
0.0
 10
9.6869884768
 20
11.000680065
 30
0.0
 10
9.6656861961
 20
10.9962038069
 30
0.0
 10
9.6454092787
 20
10.9914207155
 30
0.0
 10
9.6262239939
 20
10.9863466034
 30
0.0
 10
9.6109824862
 20
10.9818260246
 30
0.0
 10
9.5993911777
 20
10.9780652629
 30
0.0
 10
9.5911363352
 20
10.9752238401
 30
0.0
 10
9.5831991684
 20
10.9723225297
 30
0.0
 10
9.5755861222
 20
10.9693637453
 30
0.0
 10
9.5683034141
 20
10.9663498322
 30
0.0
 10
9.5613569391
 20
10.9632833465
 30
0.0
 10
9.5547523578
 20
10.9601666881
 30
0.0
 10
9.5484949874
 20
10.9570024824
 30
0.0
 10
9.5425899034
 20
10.9537932037
 30
0.0
 10
9.537041835
 20
10.9505414902
 30
0.0
 10
9.5318552423
 20
10.9472498913
 30
0.0
 10
9.5270342687
 20
10.9439210004
 30
0.0
 10
9.5225827383
 20
10.9405574161
 30
0.0
 10
9.5185042341
 20
10.9371616304
 30
0.0
 10
9.5148019598
 20
10.9337362326
 30
0.0
 10
9.5114790082
 20
10.9302835704
 30
0.0
 10
9.5085380622
 20
10.9268061549
 30
0.0
 10
9.5059818683
 20
10.9233062152
 30
0.0
 10
9.5038128123
 20
10.9197862113
 30
0.0
 10
9.5020334765
 20
10.9162484766
 30
0.0
 10
9.5006461615
 20
10.9126957813
 30
0.0
 10
9.4996532089
 20
10.9091309709
 30
0.0
 10
9.4990565429
 20
10.9055581939
 30
0.0
 10
9.4989235681
 20
10.9031678382
 30
0.0
 10
9.4989235769
 20
10.9019804118
 30
0.0
  0
SPLINE
  5
399
100
AcDbEntity
  8
0
100
AcDbSpline
 62
7
  6
CONTINUOUS
 70
0
 71
3
 72
41
 73
37
 74
0
 42
0.0000001
 43
0.0000001
 44
0.0000000001
 40
0.0
 40
0.0
 40
0.0
 40
0.0
 40
0.0310748272
 40
0.0623072483
 40
0.0936920359
 40
0.1252208484
 40
0.156882237
 40
0.188662033
 40
0.2205436266
 40
0.2525083437
 40
0.2845358343
 40
0.3166044929
 40
0.3486918936
 40
0.3807752384
 40
0.4128318095
 40
0.4448394218
 40
0.4767768664
 40
0.5086243418
 40
0.5403638639
 40
0.5719796493
 40
0.6034584635
 40
0.6347899281
 40
0.6659667781
 40
0.6969850622
 40
0.7278442783
 40
0.7585474376
 40
0.7891010512
 40
0.8195150346
 40
0.8498025274
 40
0.8649066426
 40
0.8799854039
 40
0.9100708284
 40
0.9400854823
 40
0.9550762294
 40
0.970057877
 40
1.0
 40
1.0
 40
1.0
 40
1.0
 10
12.4179480234
 20
7.0760781845
 30
0.0
 10
12.4179480234
 20
7.0712188327
 30
0.0
 10
12.4183105308
 20
7.0614717467
 30
0.0
 10
12.4199289853
 20
7.0468977891
 30
0.0
 10
12.4226144641
 20
7.0324093889
 30
0.0
 10
12.4263520522
 20
7.0180871836
 30
0.0
 10
12.4311210949
 20
7.0040095134
 30
0.0
 10
12.436895283
 20
6.9902537273
 30
0.0
 10
12.4436428191
 20
6.976895294
 30
0.0
 10
12.4513265823
 20
6.9640075201
 30
0.0
 10
12.4599043363
 20
6.9516611192
 30
0.0
 10
12.4693289583
 20
6.939923838
 30
0.0
 10
12.4795486964
 20
6.9288600859
 30
0.0
 10
12.4905074508
 20
6.9185305862
 30
0.0
 10
12.5021450791
 20
6.9089920465
 30
0.0
 10
12.5143977225
 20
6.9002968499
 30
0.0
 10
12.5271981526
 20
6.8924927701
 30
0.0
 10
12.5404761357
 20
6.8856227111
 30
0.0
 10
12.5541588134
 20
6.8797244724
 30
0.0
 10
12.5681710969
 20
6.8748305422
 30
0.0
 10
12.5824360738
 20
6.8709679179
 30
0.0
 10
12.5968754233
 20
6.8681579559
 30
0.0
 10
12.6114098419
 20
6.8664162511
 30
0.0
 10
12.6259594688
 20
6.8657525447
 30
0.0
 10
12.6404443349
 20
6.8661706706
 30
0.0
 10
12.6547847399
 20
6.8676685003
 30
0.0
 10
12.6689019074
 20
6.8702380417
 30
0.0
 10
12.6827176042
 20
6.8738651124
 30
0.0
 10
12.6939284557
 20
6.877756909
 30
0.0
 10
12.7026667702
 20
6.8813761825
 30
0.0
 10
12.7112282041
 20
6.88532116
 30
0.0
 10
12.7216089713
 20
6.8908664614
 30
0.0
 10
12.7315083948
 20
6.8972060519
 30
0.0
 10
12.7390951193
 20
6.902726757
 30
0.0
 10
12.7464476832
 20
6.9085365804
 30
0.0
 10
12.7516976974
 20
6.9132189783
 30
0.0
 10
12.7550653976
 20
6.9164719491
 30
0.0
  0
SPLINE
  5
39A
100
AcDbEntity
  8
0
100
AcDbSpline
 62
7
  6
CONTINUOUS
 70
0
 71
3
 72
39
 73
35
 74
0
 42
0.0000001
 43
0.0000001
 44
0.0000000001
 40
0.0
 40
0.0
 40
0.0
 40
0.0
 40
0.0314025836
 40
0.0630095222
 40
0.0948070985
 40
0.1267734472
 40
0.1588809725
 40
0.1910970216
 40
0.2233851128
 40
0.2557062446
 40
0.2880202662
 40
0.3202872749
 40
0.3524690068
 40
0.3845301831
 40
0.4164397919
 40
0.4481722502
 40
0.4797084082
 40
0.5110363786
 40
0.5421521204
 40
0.573059742
 40
0.6037715186
 40
0.6343075563
 40
0.6646951112
 40
0.6949675893
 40
0.7251632183
 40
0.7553234774
 40
0.7854913545
 40
0.8157095095
 40
0.8460184685
 40
0.8764549221
 40
0.9070502429
 40
0.9378292995
 40
0.9688091439
 40
1.0
 40
1.0
 40
1.0
 40
1.0
 10
11.0485425185
 20
7.7935265278
 30
0.0
 10
11.0569440545
 20
7.7929438793
 30
0.0
 10
11.0737555354
 20
7.7909468236
 30
0.0
 10
11.0986339561
 20
7.7855228919
 30
0.0
 10
11.123030157
 20
7.7777130145
 30
0.0
 10
11.1467067831
 20
7.7675928917
 30
0.0
 10
11.1694374578
 20
7.755260377
 30
0.0
 10
11.1910038821
 20
7.7408342751
 30
0.0
 10
11.2111991898
 20
7.7244533013
 30
0.0
 10
11.2298296704
 20
7.7062749349
 30
0.0
 10
11.2467164946
 20
7.6864736693
 30
0.0
 10
11.2616974409
 20
7.6652394977
 30
0.0
 10
11.2746285833
 20
7.6427761981
 30
0.0
 10
11.2853853936
 20
7.6192992371
 30
0.0
 10
11.2938640736
 20
7.5950338746
 30
0.0
 10
11.2999826648
 20
7.570213056
 30
0.0
 10
11.3036815616
 20
7.5450751411
 30
0.0
 10
11.3049243364
 20
7.5198617577
 30
0.0
 10
11.3036981873
 20
7.4948154885
 30
0.0
 10
11.3000138488
 20
7.4701775863
 30
0.0
 10
11.2939058561
 20
7.4461856837
 30
0.0
 10
11.2854322735
 20
7.4230714496
 30
0.0
 10
11.2746739978
 20
7.4010584095
 30
0.0
 10
11.2617343628
 20
7.380359621
 30
0.0
 10
11.2467380803
 20
7.3611755085
 30
0.0
 10
11.2298298969
 20
7.3436919578
 30
0.0
 10
11.2111734331
 20
7.3280781955
 30
0.0
 10
11.190949359
 20
7.3144851416
 30
0.0
 10
11.1693535104
 20
7.3030440416
 30
0.0
 10
11.1465949678
 20
7.2938649005
 30
0.0
 10
11.1228941146
 20
7.2870356043
 30
0.0
 10
11.0984792184
 20
7.282621407
 30
0.0
 10
11.0735889142
 20
7.2806634711
 30
0.0
 10
11.0568874083
 20
7.2810070894
 30
0.0
 10
11.0485425185
 20
7.2815858095
 30
0.0
  0
SPLINE
  5
39B
100
AcDbEntity
  8
0
100
AcDbSpline
 62
7
  6
CONTINUOUS
 70
0
 71
3
 72
11
 73
7
 74
0
 42
0.0000001
 43
0.0000001
 44
0.0000000001
 40
0.0
 40
0.0
 40
0.0
 40
0.0
 40
0.2545148028
 40
0.5051813816
 40
0.7532466558
 40
1.0
 40
1.0
 40
1.0
 40
1.0
 10
13.2605340706
 20
8.6235264982
 30
0.0
 10
13.2592968547
 20
8.6232440145
 30
0.0
 10
13.2568208362
 20
8.6227678122
 30
0.0
 10
13.2530878366
 20
8.622325859
 30
0.0
 10
13.2493709633
 20
8.6221628829
 30
0.0
 10
13.2469021688
 20
8.6222404747
 30
0.0
 10
13.245674762
 20
8.6223255957
 30
0.0
  0
SPLINE
  5
39C
100
AcDbEntity
  8
0
100
AcDbSpline
 62
7
  6
CONTINUOUS
 70
0
 71
3
 72
39
 73
35
 74
0
 42
0.0000001
 43
0.0000001
 44
0.0000000001
 40
0.0
 40
0.0
 40
0.0
 40
0.0
 40
0.0311908561
 40
0.0621707005
 40
0.0929497571
 40
0.1235450779
 40
0.1539815315
 40
0.1842904905
 40
0.2145086455
 40
0.2446765226
 40
0.2748367817
 40
0.3050324107
 40
0.3353048888
 40
0.3656924437
 40
0.3962284814
 40
0.426940258
 40
0.4578478796
 40
0.4889636214
 40
0.5202915918
 40
0.5518277498
 40
0.5835602081
 40
0.6154698169
 40
0.6475309932
 40
0.6797127251
 40
0.7119797338
 40
0.7442937554
 40
0.7766148872
 40
0.8089029784
 40
0.8411190275
 40
0.8732265528
 40
0.9051929015
 40
0.9369904778
 40
0.9685974164
 40
1.0
 40
1.0
 40
1.0
 40
1.0
 10
11.0485425185
 20
7.7935265278
 30
0.0
 10
11.0401976287
 20
7.7941052479
 30
0.0
 10
11.0234961229
 20
7.7944488662
 30
0.0
 10
10.9986058186
 20
7.7924909303
 30
0.0
 10
10.9741909224
 20
7.788076733
 30
0.0
 10
10.9504900692
 20
7.7812474368
 30
0.0
 10
10.9277315266
 20
7.7720682957
 30
0.0
 10
10.906135678
 20
7.7606271957
 30
0.0
 10
10.8859116039
 20
7.7470341418
 30
0.0
 10
10.8672551401
 20
7.7314203795
 30
0.0
 10
10.8503469567
 20
7.7139368288
 30
0.0
 10
10.8353506742
 20
7.6947527163
 30
0.0
 10
10.8224110393
 20
7.6740539278
 30
0.0
 10
10.8116527636
 20
7.6520408877
 30
0.0
 10
10.803179181
 20
7.6289266536
 30
0.0
 10
10.7970711882
 20
7.604934751
 30
0.0
 10
10.7933868497
 20
7.5802968488
 30
0.0
 10
10.7921607006
 20
7.5552505796
 30
0.0
 10
10.7934034754
 20
7.5300371962
 30
0.0
 10
10.7971023722
 20
7.5048992813
 30
0.0
 10
10.8032209634
 20
7.4800784627
 30
0.0
 10
10.8116996434
 20
7.4558131002
 30
0.0
 10
10.8224564537
 20
7.4323361392
 30
0.0
 10
10.8353875961
 20
7.4098728396
 30
0.0
 10
10.8503685424
 20
7.388638668
 30
0.0
 10
10.8672553667
 20
7.3688374024
 30
0.0
 10
10.8858858472
 20
7.350659036
 30
0.0
 10
10.906081155
 20
7.3342780622
 30
0.0
 10
10.9276475793
 20
7.3198519603
 30
0.0
 10
10.9503782539
 20
7.3075194456
 30
0.0
 10
10.97405488
 20
7.2973993228
 30
0.0
 10
10.9984510809
 20
7.2895894454
 30
0.0
 10
11.0233295016
 20
7.2841655137
 30
0.0
 10
11.0401409825
 20
7.282168458
 30
0.0
 10
11.0485425185
 20
7.2815858095
 30
0.0
  0
SPLINE
  5
39D
100
AcDbEntity
  8
0
100
AcDbSpline
 62
7
  6
CONTINUOUS
 70
0
 71
3
 72
37
 73
33
 74
0
 42
0.0000001
 43
0.0000001
 44
0.0000000001
 40
0.0
 40
0.0
 40
0.0
 40
0.0
 40
0.0308973652
 40
0.0619238356
 40
0.0930729232
 40
0.1243406761
 40
0.1557190341
 40
0.1871992416
 40
0.2187709008
 40
0.2504223738
 40
0.2821409415
 40
0.3139129618
 40
0.3457240697
 40
0.3775593674
 40
0.4412157083
 40
0.5047857293
 40
0.536514344
 40
0.5681781158
 40
0.5997641504
 40
0.6312606215
 40
0.6626569397
 40
0.6939439085
 40
0.7251138687
 40
0.75616083
 40
0.7870805745
 40
0.8178707364
 40
0.8485308583
 40
0.8790624209
 40
0.9094688512
 40
0.9397554953
 40
0.969929556
 40
1.0
 40
1.0
 40
1.0
 40
1.0
 10
11.1970673631
 20
7.4772097989
 30
0.0
 10
11.1929130814
 20
7.4774978994
 30
0.0
 10
11.1846025875
 20
7.4783289806
 30
0.0
 10
11.1722114483
 20
7.4803273906
 30
0.0
 10
11.1599126499
 20
7.4830730979
 30
0.0
 10
11.1477527058
 20
7.4865555176
 30
0.0
 10
11.1357765518
 20
7.4907618365
 30
0.0
 10
11.1240288283
 20
7.4956762863
 30
0.0
 10
11.1125531946
 20
7.5012805716
 30
0.0
 10
11.1013923269
 20
7.5075537847
 30
0.0
 10
11.0905876948
 20
7.5144725876
 30
0.0
 10
11.0801795584
 20
7.5220111292
 30
0.0
 10
11.0702062937
 20
7.5301417388
 30
0.0
 10
11.0575413335
 20
7.5417281388
 30
0.0
 10
11.0429818257
 20
7.5575307435
 30
0.0
 10
11.0303222401
 20
7.5748752798
 30
0.0
 10
11.0214527839
 20
7.5895180227
 30
0.0
 10
11.0154568615
 20
7.6008362167
 30
0.0
 10
11.0101370778
 20
7.6124527386
 30
0.0
 10
11.0055129504
 20
7.6243247831
 30
0.0
 10
11.0016018036
 20
7.6364081
 30
0.0
 10
10.9984182257
 20
7.648657782
 30
0.0
 10
10.9959741294
 20
7.6610282571
 30
0.0
 10
10.9942786488
 20
7.6734735017
 30
0.0
 10
10.9933381515
 20
7.6859472068
 30
0.0
 10
10.9931562063
 20
7.6984029494
 30
0.0
 10
10.9937335671
 20
7.710794356
 30
0.0
 10
10.99506818
 20
7.7230752915
 30
0.0
 10
10.997155118
 20
7.7351999633
 30
0.0
 10
10.9999867332
 20
7.7471233606
 30
0.0
 10
11.0035523029
 20
7.7588004285
 30
0.0
 10
11.0064150232
 20
7.7664056027
 30
0.0
 10
11.0079637268
 20
7.7701508373
 30
0.0
  0
SPLINE
  5
39E
100
AcDbEntity
  8
0
100
AcDbSpline
 62
7
  6
CONTINUOUS
 70
0
 71
3
 72
39
 73
35
 74
0
 42
0.0000001
 43
0.0000001
 44
0.0000000001
 40
0.0
 40
0.0
 40
0.0
 40
0.0
 40
0.0311450401
 40
0.062443098
 40
0.0938883402
 40
0.1254709779
 40
0.1571788704
 40
0.1889972432
 40
0.2209091549
 40
0.2528958204
 40
0.2849369968
 40
0.3170113846
 40
0.3490970423
 40
0.3811718113
 40
0.4132137424
 40
0.4452015207
 40
0.4771148823
 40
0.5089350149
 40
0.5406449388
 40
0.5722298604
 40
0.6036774924
 40
0.6349783353
 40
0.6661259096
 40
0.6971169338
 40
0.7279514411
 40
0.7586328285
 40
0.7891678337
 40
0.8195664367
 40
0.8498416808
 40
0.8800094153
 40
0.9100879635
 40
0.9400977213
 40
0.9700606967
 40
1.0
 40
1.0
 40
1.0
 40
1.0
 10
11.044401417
 20
7.1085487828
 30
0.0
 10
11.034023145
 20
7.1092685184
 30
0.0
 10
11.0132605699
 20
7.1114711671
 30
0.0
 10
10.982368421
 20
7.1170197311
 30
0.0
 10
10.9518071575
 20
7.1247915665
 30
0.0
 10
10.9217418208
 20
7.1347449291
 30
0.0
 10
10.8923321486
 20
7.1468264389
 30
0.0
 10
10.8637350167
 20
7.1609714922
 30
0.0
 10
10.8361027737
 20
7.1771045033
 30
0.0
 10
10.8095826567
 20
7.1951393258
 30
0.0
 10
10.7843159595
 20
7.2149797194
 30
0.0
 10
10.7604373107
 20
7.2365198657
 30
0.0
 10
10.7380739597
 20
7.2596449262
 30
0.0
 10
10.7173451075
 20
7.2842316468
 30
0.0
 10
10.6983612815
 20
7.3101490101
 30
0.0
 10
10.6812237294
 20
7.3372589099
 30
0.0
 10
10.6660238942
 20
7.365416892
 30
0.0
 10
10.6528429389
 20
7.3944729194
 30
0.0
 10
10.6417513141
 20
7.4242721593
 30
0.0
 10
10.632808382
 20
7.4546557965
 30
0.0
 10
10.6260621025
 20
7.4854618679
 30
0.0
 10
10.6215487478
 20
7.5165261087
 30
0.0
 10
10.6192927087
 20
7.5476828227
 30
0.0
 10
10.6193063694
 20
7.5787657571
 30
0.0
 10
10.6215900243
 20
7.6096089775
 30
0.0
 10
10.6261318594
 20
7.6400477464
 30
0.0
 10
10.6329079997
 20
7.6699193959
 30
0.0
 10
10.6418825984
 20
7.6990642057
 30
0.0
 10
10.6530079938
 20
7.7273262534
 30
0.0
 10
10.6662250191
 20
7.7545543072
 30
0.0
 10
10.6814630961
 20
7.7806024533
 30
0.0
 10
10.6986413482
 20
7.8053316295
 30
0.0
 10
10.7176662492
 20
7.8286076662
 30
0.0
 10
10.731518885
 20
7.8430792507
 30
0.0
 10
10.7387117423
 20
7.8500270473
 30
0.0
  0
SPLINE
  5
39F
100
AcDbEntity
  8
0
100
AcDbSpline
 62
7
  6
CONTINUOUS
 70
0
 71
3
 72
51
 73
47
 74
0
 42
0.0000001
 43
0.0000001
 44
0.0000000001
 40
0.0
 40
0.0
 40
0.0
 40
0.0
 40
0.0411598688
 40
0.0827696015
 40
0.124708154
 40
0.1668535085
 40
0.2090827064
 40
0.2512725421
 40
0.2932999325
 40
0.3350424151
 40
0.3763786011
 40
0.417188647
 40
0.4573547254
 40
0.4967615038
 40
0.5352966322
 40
0.5728512455
 40
0.6093204849
 40
0.644604048
 40
0.678606779
 40
0.7112393161
 40
0.7424188208
 40
0.7720698226
 40
0.7863012739
 40
0.8001261762
 40
0.8135377157
 40
0.8265296734
 40
0.8390967016
 40
0.8512341698
 40
0.8629384801
 40
0.8742069254
 40
0.8850380474
 40
0.8954315267
 40
0.9053885926
 40
0.9149119709
 40
0.9240063592
 40
0.9326784671
 40
0.9409375758
 40
0.9487957058
 40
0.9562682756
 40
0.9633744132
 40
0.9701376855
 40
0.9765864901
 40
0.982754696
 40
0.9886818586
 40
0.994413371
 40
1.0
 40
1.0
 40
1.0
 40
1.0
 10
10.1588026588
 20
11.1191969434
 30
0.0
 10
10.1462054421
 20
11.1200705634
 30
0.0
 10
10.1208592863
 20
11.1216307049
 30
0.0
 10
10.0826398573
 20
11.1234066058
 30
0.0
 10
10.0440961242
 20
11.1246275844
 30
0.0
 10
10.0053487151
 20
11.1252897977
 30
0.0
 10
9.9665186896
 20
11.1253911578
 30
0.0
 10
9.9277274454
 20
11.1249313485
 30
0.0
 10
9.8890962308
 20
11.1239118154
 30
0.0
 10
9.8507457999
 20
11.1223357687
 30
0.0
 10
9.8127960205
 20
11.1202081701
 30
0.0
 10
9.7753654999
 20
11.1175357191
 30
0.0
 10
9.7385712102
 20
11.1143268323
 30
0.0
 10
9.7025281183
 20
11.1105916189
 30
0.0
 10
9.6673488219
 20
11.1063418495
 30
0.0
 10
9.6331431903
 20
11.1015909214
 30
0.0
 10
9.6000180147
 20
11.0963538177
 30
0.0
 10
9.5680766545
 20
11.0906470624
 30
0.0
 10
9.537418732
 20
11.0844886664
 30
0.0
 10
9.5081396835
 20
11.0778980829
 30
0.0
 10
9.4803308454
 20
11.0708960984
 30
0.0
 10
9.4581607079
 20
11.0646544259
 30
0.0
 10
9.4412358589
 20
11.0594575285
 30
0.0
 10
9.4291365459
 20
11.0555242139
 30
0.0
 10
9.4174669
 20
11.0515050992
 30
0.0
 10
9.4062360026
 20
11.0474032042
 30
0.0
 10
9.3954525751
 20
11.0432218386
 30
0.0
 10
9.3851250114
 20
11.0389641678
 30
0.0
 10
9.3752612991
 20
11.0346336134
 30
0.0
 10
9.3658691017
 20
11.0302334374
 30
0.0
 10
9.3569556444
 20
11.0257671605
 30
0.0
 10
9.3485278327
 20
11.0212381168
 30
0.0
 10
9.3405921011
 20
11.0166498966
 30
0.0
 10
9.3331545755
 20
11.0120058743
 30
0.0
 10
9.32622088
 20
11.0073096656
 30
0.0
 10
9.3197963546
 20
11.0025646379
 30
0.0
 10
9.3138858176
 20
10.9977743695
 30
0.0
 10
9.3084938534
 20
10.9929421575
 30
0.0
 10
9.3036245356
 20
10.9880714672
 30
0.0
 10
9.2992818031
 20
10.9831654678
 30
0.0
 10
9.2954691538
 20
10.9782274813
 30
0.0
 10
9.2921901066
 20
10.9732605853
 30
0.0
 10
9.2894478643
 20
10.9682681764
 30
0.0
 10
9.2872457335
 20
10.9632534244
 30
0.0
 10
9.2855868192
 20
10.9582210187
 30
0.0
 10
9.2848375142
 20
10.954822966
 30
0.0
 10
9.2845581373
 20
10.9531319621
 30
0.0
  0
SPLINE
  5
3A0
100
AcDbEntity
  8
0
100
AcDbSpline
 62
7
  6
CONTINUOUS
 70
0
 71
3
 72
15
 73
11
 74
0
 42
0.0000001
 43
0.0000001
 44
0.0000000001
 40
0.0
 40
0.0
 40
0.0
 40
0.0
 40
0.1234394136
 40
0.2470466177
 40
0.370982561
 40
0.4953948844
 40
0.6204121622
 40
0.7461393429
 40
0.8726517211
 40
1.0
 40
1.0
 40
1.0
 40
1.0
 10
7.8848486111
 20
9.4585285296
 30
0.0
 10
7.880489911
 20
9.4543183197
 30
0.0
 10
7.8721943307
 20
9.4454360521
 30
0.0
 10
7.8611768931
 20
9.4308954079
 30
0.0
 10
7.8516775272
 20
9.4152626429
 30
0.0
 10
7.8437855225
 20
9.3986842375
 30
0.0
 10
7.8375728732
 20
9.3813132569
 30
0.0
 10
7.8330965582
 20
9.3633098953
 30
0.0
 10
7.8303970127
 20
9.3448425272
 30
0.0
 10
7.8298000766
 20
9.3323710354
 30
0.0
 10
7.8298000766
 20
9.3261190924
 30
0.0
  0
SPLINE
  5
3A1
100
AcDbEntity
  8
0
100
AcDbSpline
 62
7
  6
CONTINUOUS
 70
0
 71
3
 72
39
 73
35
 74
0
 42
0.0000001
 43
0.0000001
 44
0.0000000001
 40
0.0
 40
0.0
 40
0.0
 40
0.0
 40
0.0940348278
 40
0.1856552654
 40
0.2303972205
 40
0.2743412927
 40
0.3174259497
 40
0.3595912735
 40
0.4007793668
 40
0.440934422
 40
0.4800029195
 40
0.5179339245
 40
0.5546791891
 40
0.5901933976
 40
0.6244345761
 40
0.6573642995
 40
0.6889480225
 40
0.7191556665
 40
0.7479620989
 40
0.7753477019
 40
0.8012993159
 40
0.8258113064
 40
0.8488867592
 40
0.8705392616
 40
0.8907952082
 40
0.9096964765
 40
0.9273040137
 40
0.9437023328
 40
0.9590043852
 40
0.9733565754
 40
0.9802360503
 40
0.9869502187
 40
0.9935279223
 40
1.0
 40
1.0
 40
1.0
 40
1.0
 10
10.1588026588
 20
11.1191969434
 30
0.0
 10
10.1763264382
 20
11.1179816652
 30
0.0
 10
10.2108994129
 20
11.1152089194
 30
0.0
 10
10.2537148584
 20
11.1107907314
 30
0.0
 10
10.2871504221
 20
11.1067211814
 30
0.0
 10
10.3115465536
 20
11.1034408611
 30
0.0
 10
10.3354217812
 20
11.0999135845
 30
0.0
 10
10.3587387844
 20
11.0961448561
 30
0.0
 10
10.3814610694
 20
11.0921406367
 30
0.0
 10
10.403553088
 20
11.0879072162
 30
0.0
 10
10.4249802874
 20
11.083451243
 30
0.0
 10
10.4457091781
 20
11.0787797559
 30
0.0
 10
10.4657073708
 20
11.0739001081
 30
0.0
 10
10.4849436312
 20
11.0688199557
 30
0.0
 10
10.5033879561
 20
11.0635473173
 30
0.0
 10
10.5210116068
 20
11.0580904957
 30
0.0
 10
10.5377871488
 20
11.052458041
 30
0.0
 10
10.5536885346
 20
11.0466588054
 30
0.0
 10
10.5686911451
 20
11.0407018889
 30
0.0
 10
10.5827718128
 20
11.0345965606
 30
0.0
 10
10.5959089018
 20
11.0283522811
 30
0.0
 10
10.6080823704
 20
11.0219786706
 30
0.0
 10
10.6192737669
 20
11.0154853653
 30
0.0
 10
10.6294662711
 20
11.0088819476
 30
0.0
 10
10.6386447423
 20
11.0021779088
 30
0.0
 10
10.646795606
 20
10.9953823365
 30
0.0
 10
10.6539065907
 20
10.9885038889
 30
0.0
 10
10.6599666511
 20
10.9815501996
 30
0.0
 10
10.6649646367
 20
10.974529708
 30
0.0
 10
10.6682816346
 20
10.9685445568
 30
0.0
 10
10.6703610848
 20
10.9637526755
 30
0.0
 10
10.6716275694
 20
10.9602005927
 30
0.0
 10
10.6726219019
 20
10.9566420066
 30
0.0
 10
10.6731061345
 20
10.9542501825
 30
0.0
 10
10.67330133
 20
10.9530570486
 30
0.0
  0
SPLINE
  5
3A2
100
AcDbEntity
  8
0
100
AcDbSpline
 62
7
  6
CONTINUOUS
 70
0
 71
3
 72
55
 73
51
 74
0
 42
0.0000001
 43
0.0000001
 44
0.0000000001
 40
0.0
 40
0.0
 40
0.0
 40
0.0
 40
0.0528978674
 40
0.1050242988
 40
0.156259875
 40
0.2064927517
 40
0.2556114645
 40
0.3035090706
 40
0.3500823527
 40
0.3952325647
 40
0.438865885
 40
0.4808939292
 40
0.5212343669
 40
0.5598116214
 40
0.5965577227
 40
0.6314132728
 40
0.6643286696
 40
0.6800471044
 40
0.6952672571
 40
0.7099864068
 40
0.7242030041
 40
0.7379164225
 40
0.7511274252
 40
0.7638380873
 40
0.7760519954
 40
0.787774617
 40
0.799013221
 40
0.8097775015
 40
0.820079608
 40
0.8299346209
 40
0.8393610146
 40
0.8483808649
 40
0.8570205899
 40
0.8732774734
 40
0.880982571
 40
0.8884617921
 40
0.895766349
 40
0.9029515603
 40
0.9100758569
 40
0.917199305
 40
0.9243820047
 40
0.9316824266
 40
0.9391560415
 40
0.9468541317
 40
0.9548231388
 40
0.9631043613
 40
0.9717338093
 40
0.980742645
 40
0.9901572793
 40
1.0
 40
1.0
 40
1.0
 40
1.0
 10
10.1148034574
 20
11.076696976
 30
0.0
 10
10.1230964578
 20
11.0761218545
 30
0.0
 10
10.1395540289
 20
11.0748685501
 30
0.0
 10
10.1640117344
 20
11.0726615106
 30
0.0
 10
10.1880185808
 20
11.0701451135
 30
0.0
 10
10.211515774
 20
11.0673256309
 30
0.0
 10
10.2344463162
 20
11.0642099092
 30
0.0
 10
10.2567542769
 20
11.0608056213
 30
0.0
 10
10.2783853841
 20
11.0571211131
 30
0.0
 10
10.2992870065
 20
11.0531654379
 30
0.0
 10
10.3194083225
 20
11.0489483126
 30
0.0
 10
10.3387004398
 20
11.0444800956
 30
0.0
 10
10.357116532
 20
11.0397717623
 30
0.0
 10
10.3746119416
 20
11.034834871
 30
0.0
 10
10.3911444189
 20
11.0296815449
 30
0.0
 10
10.4066738744
 20
11.0243244097
 30
0.0
 10
10.4189297519
 20
11.0196319173
 30
0.0
 10
10.4281944858
 20
11.0157756445
 30
0.0
 10
10.4347622406
 20
11.0128851921
 30
0.0
 10
10.4410523585
 20
11.0099537008
 30
0.0
 10
10.4470610735
 20
11.0069829896
 30
0.0
 10
10.4527847368
 20
11.0039747891
 30
0.0
 10
10.4582199194
 20
11.0009309512
 30
0.0
 10
10.46336336
 20
10.9978532977
 30
0.0
 10
10.4682119535
 20
10.9947436145
 30
0.0
 10
10.4727628414
 20
10.9916038137
 30
0.0
 10
10.4770132595
 20
10.988435643
 30
0.0
 10
10.4809607126
 20
10.9852409936
 30
0.0
 10
10.4846028219
 20
10.9820216654
 30
0.0
 10
10.4879373949
 20
10.9787793855
 30
0.0
 10
10.4909623702
 20
10.9755161438
 30
0.0
 10
10.493676066
 20
10.9722330771
 30
0.0
 10
10.4968123969
 20
10.9679210053
 30
0.0
 10
10.4994120737
 20
10.9634807009
 30
0.0
 10
10.5013810981
 20
10.9589438032
 30
0.0
 10
10.502512336
 20
10.9555908178
 30
0.0
 10
10.5033227363
 20
10.9522300025
 30
0.0
 10
10.5038112415
 20
10.948863605
 30
0.0
 10
10.5039771693
 20
10.9454943733
 30
0.0
 10
10.503820323
 20
10.9421250942
 30
0.0
 10
10.5033408148
 20
10.938758598
 30
0.0
 10
10.5025394879
 20
10.9353975446
 30
0.0
 10
10.5014172435
 20
10.9320444394
 30
0.0
 10
10.4999754601
 20
10.928701498
 30
0.0
 10
10.4982155701
 20
10.9253707388
 30
0.0
 10
10.496139049
 20
10.9220540766
 30
0.0
 10
10.49374761
 20
10.9187532234
 30
0.0
 10
10.4910428065
 20
10.9154699808
 30
0.0
 10
10.4880265878
 20
10.9122061069
 30
0.0
 10
10.4858587411
 20
10.9100923923
 30
0.0
 10
10.4847264178
 20
10.9090386398
 30
0.0
  0
SPLINE
  5
3A3
100
AcDbEntity
  8
0
100
AcDbSpline
 62
7
  6
CONTINUOUS
 70
0
 71
3
 72
15
 73
11
 74
0
 42
0.0000001
 43
0.0000001
 44
0.0000000001
 40
0.0
 40
0.0
 40
0.0
 40
0.0
 40
0.1234394136
 40
0.2470466177
 40
0.370982561
 40
0.4953948844
 40
0.6204121622
 40
0.7461393429
 40
0.8726517211
 40
1.0
 40
1.0
 40
1.0
 40
1.0
 10
12.4729965579
 20
7.2084876218
 30
0.0
 10
12.4686378577
 20
7.2042774119
 30
0.0
 10
12.4603422774
 20
7.1953951442
 30
0.0
 10
12.4493248398
 20
7.1808545
 30
0.0
 10
12.439825474
 20
7.1652217351
 30
0.0
 10
12.4319334693
 20
7.1486433296
 30
0.0
 10
12.4257208199
 20
7.131272349
 30
0.0
 10
12.4212445049
 20
7.1132689874
 30
0.0
 10
12.4185449595
 20
7.0948016193
 30
0.0
 10
12.4179480234
 20
7.0823301276
 30
0.0
 10
12.4179480234
 20
7.0760781845
 30
0.0
  0
SPLINE
  5
3A4
100
AcDbEntity
  8
0
100
AcDbSpline
 62
7
  6
CONTINUOUS
 70
0
 71
3
 72
39
 73
35
 74
0
 42
0.0000001
 43
0.0000001
 44
0.0000000001
 40
0.0
 40
0.0
 40
0.0
 40
0.0
 40
0.0958315085
 40
0.1891003634
 40
0.2792401405
 40
0.3229668554
 40
0.3657106058
 40
0.4074088111
 40
0.4480014021
 40
0.4874310588
 40
0.5256432299
 40
0.5625866016
 40
0.5982133957
 40
0.632479495
 40
0.665345107
 40
0.6967751427
 40
0.726739615
 40
0.755214652
 40
0.78218318
 40
0.8076359351
 40
0.8315732048
 40
0.8540063949
 40
0.874960416
 40
0.8944770511
 40
0.9126186065
 40
0.9294729106
 40
0.9451592035
 40
0.9598337647
 40
0.9668558037
 40
0.9737028535
 40
0.98040628
 40
0.986999695
 40
0.9935186386
 40
1.0
 40
1.0
 40
1.0
 40
1.0
 10
10.10315661
 20
11.0219803199
 30
0.0
 10
10.1156587224
 20
11.0211132954
 30
0.0
 10
10.1403106301
 20
11.0191274703
 30
0.0
 10
10.1766336352
 20
11.015336742
 30
0.0
 10
10.2060934616
 20
11.0115136471
 30
0.0
 10
10.228932053
 20
11.0080721897
 30
0.0
 10
10.2454694568
 20
11.0053401052
 30
0.0
 10
10.2615611534
 20
11.0024355849
 30
0.0
 10
10.2771802862
 20
10.9993634684
 30
0.0
 10
10.2923007753
 20
10.9961289634
 30
0.0
 10
10.3068973828
 20
10.9927374778
 30
0.0
 10
10.3209457626
 20
10.9891947172
 30
0.0
 10
10.3344225088
 20
10.985506669
 30
0.0
 10
10.3473051775
 20
10.9816794956
 30
0.0
 10
10.3595723554
 20
10.9777196395
 30
0.0
 10
10.3712036954
 20
10.97363377
 30
0.0
 10
10.3821799334
 20
10.9694286828
 30
0.0
 10
10.3924829733
 20
10.9651114217
 30
0.0
 10
10.4020959079
 20
10.9606891676
 30
0.0
 10
10.4110030289
 20
10.9561691426
 30
0.0
 10
10.4191899343
 20
10.9515587203
 30
0.0
 10
10.4266435067
 20
10.9468652193
 30
0.0
 10
10.4333518852
 20
10.9420957943
 30
0.0
 10
10.439304544
 20
10.937257427
 30
0.0
 10
10.4444920116
 20
10.9323567168
 30
0.0
 10
10.4489057166
 20
10.9273993526
 30
0.0
 10
10.4525371324
 20
10.9223916853
 30
0.0
 10
10.4549391287
 20
10.9181179471
 30
0.0
 10
10.4564364317
 20
10.9146959332
 30
0.0
 10
10.457342971
 20
10.9121605007
 30
0.0
 10
10.458048771
 20
10.9096200814
 30
0.0
 10
10.4585532957
 20
10.9070756972
 30
0.0
 10
10.458856153
 20
10.9045288384
 30
0.0
 10
10.4589235586
 20
10.9028279966
 30
0.0
 10
10.4589235649
 20
10.9019804118
 30
0.0
  0
SPLINE
  5
3A5
100
AcDbEntity
  8
0
100
AcDbSpline
 62
7
  6
CONTINUOUS
 70
0
 71
3
 72
52
 73
48
 74
0
 42
0.0000001
 43
0.0000001
 44
0.0000000001
 40
0.0
 40
0.0
 40
0.0
 40
0.0
 40
0.0055575409
 40
0.0111779669
 40
0.0169218944
 40
0.0228457784
 40
0.0290005385
 40
0.0354309383
 40
0.0421753664
 40
0.0492662129
 40
0.0567302428
 40
0.0645893498
 40
0.0728610114
 40
0.0815590518
 40
0.0906939685
 40
0.1002735876
 40
0.1103032329
 40
0.1207862668
 40
0.1317241336
 40
0.1431168099
 40
0.1549627623
 40
0.1672593293
 40
0.180002627
 40
0.1931878784
 40
0.2068092924
 40
0.2208603496
 40
0.2353336718
 40
0.2502212706
 40
0.2812030867
 40
0.3137301822
 40
0.3477175443
 40
0.3830726942
 40
0.4196965467
 40
0.4574841626
 40
0.4963254275
 40
0.5361056779
 40
0.5767062924
 40
0.6180052566
 40
0.6598777114
 40
0.7021964885
 40
0.7448326391
 40
0.7876559545
 40
0.8305354925
 40
0.8733400712
 40
0.9159388564
 40
0.9582016962
 40
1.0
 40
1.0
 40
1.0
 40
1.0
 10
9.2839235851
 20
10.9609014992
 30
0.0
 10
9.2839235778
 20
10.9626207948
 30
0.0
 10
9.284116022
 20
10.9660818364
 30
0.0
 10
9.2849799511
 20
10.9712549217
 30
0.0
 10
9.2864176014
 20
10.9764164812
 30
0.0
 10
9.2884262836
 20
10.9815604963
 30
0.0
 10
9.2910025864
 20
10.9866828422
 30
0.0
 10
9.294143146
 20
10.9917795356
 30
0.0
 10
9.2978442895
 20
10.9968471469
 30
0.0
 10
9.3021024816
 20
11.0018821825
 30
0.0
 10
9.3069138238
 20
11.006881341
 30
0.0
 10
9.3122743691
 20
11.0118410516
 30
0.0
 10
9.3181796784
 20
11.0167578725
 30
0.0
 10
9.3246251009
 20
11.0216280632
 30
0.0
 10
9.3316054354
 20
11.0264480482
 30
0.0
 10
9.3391151804
 20
11.0312139873
 30
0.0
 10
9.3471482839
 20
11.035922248
 30
0.0
 10
9.3556983523
 20
11.040568975
 30
0.0
 10
9.3647584676
 20
11.0451505472
 30
0.0
 10
9.3743213526
 20
11.0496631574
 30
0.0
 10
9.3843792393
 20
11.0541032437
 30
0.0
 10
9.3949239944
 20
11.0584670897
 30
0.0
 10
9.4059470277
 20
11.0627512241
 30
0.0
 10
9.4174393844
 20
11.0669520503
 30
0.0
 10
9.4293916852
 20
11.071066212
 30
0.0
 10
9.4417941865
 20
11.0750902444
 30
0.0
 10
9.4546367687
 20
11.0790209559
 30
0.0
 10
9.4725718794
 20
11.0842019141
 30
0.0
 10
9.4960222064
 20
11.0904038275
 30
0.0
 10
9.5253812952
 20
11.0973293894
 30
0.0
 10
9.5562252891
 20
11.103810647
 30
0.0
 10
9.5884532861
 20
11.1098261664
 30
0.0
 10
9.621960055
 20
11.1153560218
 30
0.0
 10
9.6566360063
 20
11.1203819154
 30
0.0
 10
9.6923676841
 20
11.1248872212
 30
0.0
 10
9.729038121
 20
11.128857043
 30
0.0
 10
9.7665272408
 20
11.1322782604
 30
0.0
 10
9.8047122575
 20
11.1351395698
 30
0.0
 10
9.8434680853
 20
11.1374315207
 30
0.0
 10
9.8826677529
 20
11.1391465449
 30
0.0
 10
9.9221828238
 20
11.1402789797
 30
0.0
 10
9.9618838211
 20
11.1408250877
 30
0.0
 10
10.0016406536
 20
11.1407830647
 30
0.0
 10
10.0413230464
 20
11.1401530525
 30
0.0
 10
10.0808009846
 20
11.1389371244
 30
0.0
 10
10.119945009
 20
11.1371393079
 30
0.0
 10
10.1459028078
 20
11.135546366
 30
0.0
 10
10.1588026588
 20
11.1346517583
 30
0.0
  0
SPLINE
  5
3A6
100
AcDbEntity
  8
0
100
AcDbSpline
 62
7
  6
CONTINUOUS
 70
0
 71
3
 72
23
 73
19
 74
0
 42
0.0000001
 43
0.0000001
 44
0.0000000001
 40
0.0
 40
0.0
 40
0.0
 40
0.0
 40
0.061648213
 40
0.123319452
 40
0.1850364843
 40
0.2468215692
 40
0.3086962118
 40
0.370680925
 40
0.4327950058
 40
0.495056332
 40
0.557481176
 40
0.6200840667
 40
0.6828775914
 40
0.7458723173
 40
0.8090769586
 40
0.8724967492
 40
0.9361385647
 40
1.0
 40
1.0
 40
1.0
 40
1.0
 10
11.3500910917
 20
7.2170852958
 30
0.0
 10
11.3451533708
 20
7.2123158031
 30
0.0
 10
11.3350174193
 20
7.2030387026
 30
0.0
 10
11.3190844483
 20
7.1899576837
 30
0.0
 10
11.3024596021
 20
7.1777412961
 30
0.0
 10
11.2851853391
 20
7.1664208504
 30
0.0
 10
11.2673050475
 20
7.1560246968
 30
0.0
 10
11.2488638236
 20
7.1465790465
 30
0.0
 10
11.2299081203
 20
7.1381076713
 30
0.0
 10
11.2104857158
 20
7.1306318563
 30
0.0
 10
11.1906455477
 20
7.1241703705
 30
0.0
 10
11.1704375933
 20
7.11873944
 30
0.0
 10
11.1499127535
 20
7.1143526968
 30
0.0
 10
11.1291226768
 20
7.1110211336
 30
0.0
 10
11.108119848
 20
7.1087531314
 30
0.0
 10
11.0869567427
 20
7.1075541726
 30
0.0
 10
11.0656875801
 20
7.1074274336
 30
0.0
 10
11.051495906
 20
7.1080567783
 30
0.0
 10
11.044401417
 20
7.1085487828
 30
0.0
  0
SPLINE
  5
3A7
100
AcDbEntity
  8
0
100
AcDbSpline
 62
7
  6
CONTINUOUS
 70
0
 71
3
 72
23
 73
19
 74
0
 42
0.0000001
 43
0.0000001
 44
0.0000000001
 40
0.0
 40
0.0
 40
0.0
 40
0.0
 40
0.0616371603
 40
0.1233028343
 40
0.1850188996
 40
0.2468066874
 40
0.3086867568
 40
0.3706786858
 40
0.432800868
 40
0.4950703181
 40
0.5575024939
 40
0.6201111861
 40
0.682908298
 40
0.7459039087
 40
0.8091061937
 40
0.8725199723
 40
0.9361524069
 40
1.0
 40
1.0
 40
1.0
 40
1.0
 10
11.3500618119
 20
7.2171171301
 30
0.0
 10
11.3451401515
 20
7.2125040601
 30
0.0
 10
11.3350486275
 20
7.2035341965
 30
0.0
 10
11.3192184055
 20
7.1908941558
 30
0.0
 10
11.3027300048
 20
7.1790962695
 30
0.0
 10
11.2856240746
 20
7.1681697446
 30
0.0
 10
11.2679421052
 20
7.1581409746
 30
0.0
 10
11.2497271593
 20
7.1490343449
 30
0.0
 10
11.2310235322
 20
7.1408719618
 30
0.0
 10
11.2118767074
 20
7.1336736734
 30
0.0
 10
11.1923332583
 20
7.1274569246
 30
0.0
 10
11.1724407193
 20
7.1222367641
 30
0.0
 10
11.1522474576
 20
7.1180258224
 30
0.0
 10
11.1318025233
 20
7.1148343049
 30
0.0
 10
11.1111557505
 20
7.1126699887
 30
0.0
 10
11.0903568924
 20
7.111537881
 30
0.0
 10
11.069457454
 20
7.1114409258
 30
0.0
 10
11.0555132894
 20
7.1120653553
 30
0.0
 10
11.0485425185
 20
7.1125487799
 30
0.0
  0
SPLINE
  5
3A8
100
AcDbEntity
  8
0
100
AcDbSpline
 62
7
  6
CONTINUOUS
 70
0
 71
3
 72
21
 73
17
 74
0
 42
0.0000001
 43
0.0000001
 44
0.0000000001
 40
0.0
 40
0.0
 40
0.0
 40
0.0
 40
0.0616532317
 40
0.1233294898
 40
0.1850515414
 40
0.246841662
 40
0.3087213493
 40
0.3707111057
 40
0.4328302438
 40
0.4950966409
 40
0.5575265847
 40
0.6201345602
 40
0.6829331384
 40
0.745933256
 40
0.8725261412
 40
1.0
 40
1.0
 40
1.0
 40
1.0
 10
11.219572529
 20
7.376031346
 30
0.0
 10
11.2169353361
 20
7.3734840304
 30
0.0
 10
11.2115218374
 20
7.368529246
 30
0.0
 10
11.2030121768
 20
7.3615428847
 30
0.0
 10
11.194133029
 20
7.3550182737
 30
0.0
 10
11.1849070393
 20
7.3489721663
 30
0.0
 10
11.1753573484
 20
7.3434197633
 30
0.0
 10
11.1655080942
 20
7.3383749788
 30
0.0
 10
11.1553840747
 20
7.3338505141
 30
0.0
 10
11.1450107806
 20
7.3298578139
 30
0.0
 10
11.1344143603
 20
7.326406827
 30
0.0
 10
11.1236215825
 20
7.323506231
 30
0.0
 10
11.1126592945
 20
7.3211633571
 30
0.0
 10
11.097832908
 20
7.3187873671
 30
0.0
 10
11.0790057548
 20
7.3172437011
 30
0.0
 10
11.0638698601
 20
7.3175390999
 30
0.0
 10
11.0563070835
 20
7.3180635803
 30
0.0
  0
SPLINE
  5
3A9
100
AcDbEntity
  8
0
100
AcDbSpline
 62
7
  6
CONTINUOUS
 70
0
 71
3
 72
11
 73
7
 74
0
 42
0.0000001
 43
0.0000001
 44
0.0000000001
 40
0.0
 40
0.0
 40
0.0
 40
0.0
 40
0.2478436574
 40
0.4970666087
 40
0.7477653091
 40
1.0
 40
1.0
 40
1.0
 40
1.0
 10
11.2718644624
 20
7.4590904157
 30
0.0
 10
11.2655913275
 20
7.4572173081
 30
0.0
 10
11.2528295966
 20
7.4540385636
 30
0.0
 10
11.2332829036
 20
7.4510213185
 30
0.0
 10
11.2134288934
 20
7.4497628879
 30
0.0
 10
11.2001279015
 20
7.450102519
 30
0.0
 10
11.1934810642
 20
7.4505634788
 30
0.0
  0
SPLINE
  5
3AA
100
AcDbEntity
  8
0
100
AcDbSpline
 62
7
  6
CONTINUOUS
 70
0
 71
3
 72
56
 73
52
 74
0
 42
0.0000001
 43
0.0000001
 44
0.0000000001
 40
0.0
 40
0.0
 40
0.0
 40
0.0
 40
0.0452928681
 40
0.091139282
 40
0.1373556747
 40
0.1837556188
 40
0.2301522239
 40
0.2763584458
 40
0.3221882812
 40
0.3674576793
 40
0.411985541
 40
0.4555947092
 40
0.4981129827
 40
0.5393741593
 40
0.5792191251
 40
0.6174970124
 40
0.6540664588
 40
0.6716697764
 40
0.6887980293
 40
0.7054369444
 40
0.7215730535
 40
0.737193993
 40
0.7522883421
 40
0.7668459706
 40
0.7808579232
 40
0.7943167487
 40
0.807216523
 40
0.8195531202
 40
0.831324447
 40
0.8425306661
 40
0.8531746919
 40
0.8632624389
 40
0.8728036059
 40
0.881812086
 40
0.8903070407
 40
0.8983136234
 40
0.9058642732
 40
0.9129997365
 40
0.9197702386
 40
0.9262362116
 40
0.9324683331
 40
0.9385465301
 40
0.9445575278
 40
0.9505912546
 40
0.9567365506
 40
0.9630770796
 40
0.9696883427
 40
0.9766358839
 40
0.9839749462
 40
0.9917508501
 40
1.0
 40
1.0
 40
1.0
 40
1.0
 10
10.1148034574
 20
11.076696976
 30
0.0
 10
10.1036066558
 20
11.0774734768
 30
0.0
 10
10.0810614585
 20
11.0788302537
 30
0.0
 10
10.0470534604
 20
11.0802764424
 30
0.0
 10
10.0127512433
 20
11.0811424681
 30
0.0
 10
9.9783029631
 20
11.0814245255
 30
0.0
 10
9.9438573734
 20
11.0811214014
 30
0.0
 10
9.909563175
 20
11.0802344092
 30
0.0
 10
9.875568429
 20
11.0787674194
 30
0.0
 10
9.8420198853
 20
11.0767268271
 30
0.0
 10
9.8090623504
 20
11.0741215326
 30
0.0
 10
9.7768380533
 20
11.0709629026
 30
0.0
 10
9.7454860139
 20
11.0672647261
 30
0.0
 10
9.7151414557
 20
11.0630431515
 30
0.0
 10
9.6859351045
 20
11.0583166418
 30
0.0
 10
9.6579929435
 20
11.053105827
 30
0.0
 10
9.6355855704
 20
11.048320232
 30
0.0
 10
9.6183907577
 20
11.0442536296
 30
0.0
 10
9.6060481634
 20
11.0411358917
 30
0.0
 10
9.5941082149
 20
11.0379150945
 30
0.0
 10
9.5825837636
 20
11.0345946266
 30
0.0
 10
9.5714872121
 20
11.0311781712
 30
0.0
 10
9.5608305035
 20
11.0276693483
 30
0.0
 10
9.5506250774
 20
11.0240720295
 30
0.0
 10
9.5408818936
 20
11.0203900409
 30
0.0
 10
9.5316113794
 20
11.0166274021
 30
0.0
 10
9.5228234473
 20
11.0127881381
 30
0.0
 10
9.5145274638
 20
11.0088763676
 30
0.0
 10
9.5067322315
 20
11.0048962883
 30
0.0
 10
9.4994460132
 20
11.000852063
 30
0.0
 10
9.4926764461
 20
10.9967480013
 30
0.0
 10
9.4864306596
 20
10.9925882407
 30
0.0
 10
9.480715104
 20
10.9883770863
 30
0.0
 10
9.4755357863
 20
10.9841185527
 30
0.0
 10
9.47089805
 20
10.9798167609
 30
0.0
 10
9.4668069205
 20
10.9754754855
 30
0.0
 10
9.4632669499
 20
10.9710985064
 30
0.0
 10
9.4602825988
 20
10.966689387
 30
0.0
 10
9.4578582581
 20
10.9622518143
 30
0.0
 10
9.4559983701
 20
10.957789857
 30
0.0
 10
9.4547074261
 20
10.9533083878
 30
0.0
 10
9.4539891858
 20
10.948813557
 30
0.0
 10
9.4538463786
 20
10.9443127094
 30
0.0
 10
9.4542793712
 20
10.9398139035
 30
0.0
 10
9.4552867267
 20
10.9353249702
 30
0.0
 10
9.4568649248
 20
10.9308526401
 30
0.0
 10
9.4590098929
 20
10.9264024349
 30
0.0
 10
9.4617170168
 20
10.9219787286
 30
0.0
 10
9.4649819953
 20
10.9175853304
 30
0.0
 10
9.4688001759
 20
10.9132260231
 30
0.0
 10
9.4716252458
 20
10.9104303309
 30
0.0
 10
9.4731216805
 20
10.9090377507
 30
0.0
  0
SPLINE
  5
3AB
100
AcDbEntity
  8
0
100
AcDbSpline
 62
7
  6
CONTINUOUS
 70
0
 71
3
 72
39
 73
35
 74
0
 42
0.0000001
 43
0.0000001
 44
0.0000000001
 40
0.0
 40
0.0
 40
0.0
 40
0.0
 40
0.0299343776
 40
0.0598966069
 40
0.089909357
 40
0.1199941213
 40
0.1501707283
 40
0.1804569003
 40
0.210867873
 40
0.2414160824
 40
0.272110926
 40
0.3029585996
 40
0.3339620102
 40
0.3651207633
 40
0.3964312211
 40
0.4278866236
 40
0.4594772699
 40
0.4911907497
 40
0.5230122218
 40
0.5549247295
 40
0.5869095491
 40
0.6189465643
 40
0.6510146589
 40
0.6830921242
 40
0.7151570725
 40
0.7471878548
 40
0.7791634736
 40
0.8110639893
 40
0.8428709095
 40
0.8745675677
 40
0.9061394264
 40
0.9375745575
 40
0.9688633342
 40
1.0
 40
1.0
 40
1.0
 40
1.0
 10
10.7387424545
 20
7.849996528
 30
0.0
 10
10.7316966768
 20
7.842983071
 30
0.0
 10
10.7181394532
 20
7.8283939515
 30
0.0
 10
10.6995574435
 20
7.8049843919
 30
0.0
 10
10.6828170608
 20
7.7801620586
 30
0.0
 10
10.6680083519
 20
7.7540600194
 30
0.0
 10
10.6552089543
 20
7.7268159462
 30
0.0
 10
10.6444863811
 20
7.6985740837
 30
0.0
 10
10.6358969546
 20
7.6694837368
 30
0.0
 10
10.62948572
 20
7.639698663
 30
0.0
 10
10.6252861738
 20
7.6093761983
 30
0.0
 10
10.6233201241
 20
7.5786764355
 30
0.0
 10
10.6235975783
 20
7.547761377
 30
0.0
 10
10.6261167111
 20
7.5167940811
 30
0.0
 10
10.6308639008
 20
7.4859378087
 30
0.0
 10
10.6378138124
 20
7.4553551725
 30
0.0
 10
10.646929541
 20
7.4252072913
 30
0.0
 10
10.6581628136
 20
7.3956529528
 30
0.0
 10
10.6714542474
 20
7.3668477896
 30
0.0
 10
10.686733664
 20
7.338943471
 30
0.0
 10
10.7039204452
 20
7.3120869056
 30
0.0
 10
10.7229239724
 20
7.2864194838
 30
0.0
 10
10.7436440999
 20
7.2620763426
 30
0.0
 10
10.7659716784
 20
7.2391856617
 30
0.0
 10
10.7897891238
 20
7.217867997
 30
0.0
 10
10.8149710305
 20
7.1982356512
 30
0.0
 10
10.8413848238
 20
7.1803920899
 30
0.0
 10
10.8688914487
 20
7.1644313926
 30
0.0
 10
10.8973460775
 20
7.1504377527
 30
0.0
 10
10.9265989333
 20
7.1384850654
 30
0.0
 10
10.9564958393
 20
7.1286364816
 30
0.0
 10
10.9868798499
 20
7.1209441952
 30
0.0
 10
11.0175888335
 20
7.1154490286
 30
0.0
 10
11.0382266014
 20
7.1132641912
 30
0.0
 10
11.0485425185
 20
7.1125487799
 30
0.0
  0
SPLINE
  5
3AC
100
AcDbEntity
  8
0
100
AcDbSpline
 62
7
  6
CONTINUOUS
 70
0
 71
3
 72
41
 73
37
 74
0
 42
0.0000001
 43
0.0000001
 44
0.0000000001
 40
0.0
 40
0.0
 40
0.0
 40
0.0
 40
0.0299389653
 40
0.0449187245
 40
0.0599073276
 40
0.0899167439
 40
0.1199949488
 40
0.1350691072
 40
0.1501679499
 40
0.1804428474
 40
0.2108411019
 40
0.2413757562
 40
0.2720567903
 40
0.302890943
 40
0.3338816115
 40
0.365028829
 40
0.3963293137
 40
0.4277765859
 40
0.4593611463
 40
0.4910707086
 40
0.5228904795
 40
0.5548034793
 40
0.5867908957
 40
0.6188324646
 40
0.6509068716
 40
0.6829921682
 40
0.7150661957
 40
0.7471070126
 40
0.7790933194
 40
0.8110048728
 40
0.8428228916
 40
0.8745304217
 40
0.9061127365
 40
0.9375575251
 40
0.9688554979
 40
1.0
 40
1.0
 40
1.0
 40
1.0
 10
10.8930416379
 20
7.7140809798
 30
0.0
 10
10.8891999713
 20
7.7103702399
 30
0.0
 10
10.8836512479
 20
7.7045735046
 30
0.0
 10
10.8767254828
 20
7.6964310797
 30
0.0
 10
10.8701150745
 20
7.6880139035
 30
0.0
 10
10.8624654261
 20
7.6770020748
 30
0.0
 10
10.8556875392
 20
7.6654156711
 30
0.0
 10
10.8508058738
 20
7.6558365965
 30
0.0
 10
10.8462824612
 20
7.6460445974
 30
0.0
 10
10.8413255523
 20
7.6334529045
 30
0.0
 10
10.8365324223
 20
7.6178872569
 30
0.0
 10
10.8329132457
 20
7.6019329774
 30
0.0
 10
10.8304874486
 20
7.5856759171
 30
0.0
 10
10.8292677139
 20
7.5692028067
 30
0.0
 10
10.8292603742
 20
7.5526016716
 30
0.0
 10
10.8304652671
 20
7.535961126
 30
0.0
 10
10.8328757781
 20
7.5193699678
 30
0.0
 10
10.8364788738
 20
7.5029166928
 30
0.0
 10
10.8412551803
 20
7.4866890324
 30
0.0
 10
10.8471790897
 20
7.4707734915
 30
0.0
 10
10.8542188993
 20
7.4552548935
 30
0.0
 10
10.8623369825
 20
7.4402159345
 30
0.0
 10
10.8714899887
 20
7.4257367479
 30
0.0
 10
10.8816290746
 20
7.411894483
 30
0.0
 10
10.8927001624
 20
7.3987628989
 30
0.0
 10
10.9046442259
 20
7.3864119751
 30
0.0
 10
10.9173976025
 20
7.3749075433
 30
0.0
 10
10.9308923292
 20
7.3643109389
 30
0.0
 10
10.9450565007
 20
7.3546786787
 30
0.0
 10
10.9598146501
 20
7.3460621587
 30
0.0
 10
10.9750881373
 20
7.3385073892
 30
0.0
 10
10.9907955999
 20
7.3320547323
 30
0.0
 10
11.0068532384
 20
7.3267387309
 30
0.0
 10
11.0231757866
 20
7.32258782
 30
0.0
 10
11.0396750335
 20
7.3196244135
 30
0.0
 10
11.0507641668
 20
7.3184479829
 30
0.0
 10
11.0563070835
 20
7.3180635803
 30
0.0
  0
SPLINE
  5
3AD
100
AcDbEntity
  8
0
100
AcDbSpline
 62
7
  6
CONTINUOUS
 70
0
 71
3
 72
37
 73
33
 74
0
 42
0.0000001
 43
0.0000001
 44
0.0000000001
 40
0.0
 40
0.0
 40
0.0
 40
0.0
 40
0.0301394314
 40
0.0603877712
 40
0.0907517382
 40
0.121236374
 40
0.151844986
 40
0.1825791264
 40
0.2134385972
 40
0.2444214715
 40
0.2755241353
 40
0.306741353
 40
0.338066363
 40
0.3694909853
 40
0.4010057381
 40
0.4325999665
 40
0.4642619908
 40
0.4959792698
 40
0.559501928
 40
0.623080906
 40
0.654867842
 40
0.6866261525
 40
0.7183420742
 40
0.7500023774
 40
0.7815945398
 40
0.8131069268
 40
0.8445288966
 40
0.8758509965
 40
0.9070652351
 40
0.9381641738
 40
0.9691446334
 40
1.0
 40
1.0
 40
1.0
 40
1.0
 10
10.9778557681
 20
7.7634418036
 30
0.0
 10
10.9764581263
 20
7.7592901082
 30
0.0
 10
10.973913568
 20
7.7508831382
 30
0.0
 10
10.9708686741
 20
7.738041063
 30
0.0
 10
10.9685990185
 20
7.7249882057
 30
0.0
 10
10.9671126567
 20
7.7117706725
 30
0.0
 10
10.9664146482
 20
7.6984343395
 30
0.0
 10
10.9665073415
 20
7.685025699
 30
0.0
 10
10.9673903392
 20
7.67159142
 30
0.0
 10
10.9690605105
 20
7.6581782652
 30
0.0
 10
10.97151201
 20
7.6448329162
 30
0.0
 10
10.9747362369
 20
7.6316018078
 30
0.0
 10
10.9787219024
 20
7.6185309614
 30
0.0
 10
10.9834550871
 20
7.6056658465
 30
0.0
 10
10.9889193173
 20
7.5930511817
 30
0.0
 10
10.9950954898
 20
7.5807309517
 30
0.0
 10
11.0019623828
 20
7.5687476071
 30
0.0
 10
11.0120097392
 20
7.5532703034
 30
0.0
 10
11.0261696411
 20
7.5349765778
 30
0.0
 10
11.0422617998
 20
7.5183433536
 30
0.0
 10
11.0561667293
 20
7.5061638745
 30
0.0
 10
11.0670748085
 20
7.4976243532
 30
0.0
 10
11.0784227007
 20
7.4897113646
 30
0.0
 10
11.090171283
 20
7.4824520855
 30
0.0
 10
11.1022795976
 20
7.4758718629
 30
0.0
 10
11.1147055652
 20
7.4699935891
 30
0.0
 10
11.1274059653
 20
7.4648377573
 30
0.0
 10
11.1403366675
 20
7.4604223496
 30
0.0
 10
11.1534525803
 20
7.4567628491
 30
0.0
 10
11.1667084059
 20
7.4538718059
 30
0.0
 10
11.1800572165
 20
7.4517596934
 30
0.0
 10
11.1890071151
 20
7.4508737482
 30
0.0
 10
11.1934810642
 20
7.4505634788
 30
0.0
  0
SPLINE
  5
3AE
100
AcDbEntity
  8
0
100
AcDbSpline
 62
7
  6
CONTINUOUS
 70
0
 71
3
 72
13
 73
9
 74
0
 42
0.0000001
 43
0.0000001
 44
0.0000000001
 40
0.0
 40
0.0
 40
0.0
 40
0.0
 40
0.1236108645
 40
0.2475804167
 40
0.3719364103
 40
0.4967030293
 40
0.7474466579
 40
1.0
 40
1.0
 40
1.0
 40
1.0
 10
11.2795557138
 20
7.4889280926
 30
0.0
 10
11.2763159317
 20
7.4877188434
 30
0.0
 10
11.2697592639
 20
7.4854739932
 30
0.0
 10
11.2597418079
 20
7.4826423322
 30
0.0
 10
11.2495539663
 20
7.4803487605
 30
0.0
 10
11.2357605145
 20
7.478012975
 30
0.0
 10
11.2182231197
 20
7.4764723228
 30
0.0
 10
11.204115794
 20
7.4767209886
 30
0.0
 10
11.1970673631
 20
7.4772097989
 30
0.0
  0
SPLINE
  5
3AF
100
AcDbEntity
  8
0
100
AcDbSpline
 62
7
  6
CONTINUOUS
 70
0
 71
3
 72
47
 73
43
 74
0
 42
0.0000001
 43
0.0000001
 44
0.0000000001
 40
0.0
 40
0.0
 40
0.0
 40
0.0
 40
0.0958288778
 40
0.1428190813
 40
0.1890973258
 40
0.2345927051
 40
0.2792365599
 40
0.3229622087
 40
0.36570484
 40
0.4074019633
 40
0.4479935495
 40
0.4874221989
 40
0.5256333955
 40
0.562575849
 40
0.5982017357
 40
0.6324670006
 40
0.6653317986
 40
0.696761026
 40
0.7267248024
 40
0.7551991569
 40
0.7821669874
 40
0.8076191674
 40
0.8315558892
 40
0.8429599089
 40
0.8539904626
 40
0.8646510953
 40
0.8749464064
 40
0.8848822263
 40
0.8944655538
 40
0.903704898
 40
0.9126103679
 40
0.9211937503
 40
0.9294688928
 40
0.9374517342
 40
0.945160509
 40
0.9598347361
 40
0.9668566082
 40
0.9737035131
 40
0.9804067666
 40
0.9870000197
 40
0.9935188069
 40
1.0
 40
1.0
 40
1.0
 40
1.0
 10
10.1588026588
 20
11.1346517583
 30
0.0
 10
10.1769046174
 20
11.1333963832
 30
0.0
 10
10.2038636456
 20
11.1312248101
 30
0.0
 10
10.2394977408
 20
11.1277136513
 30
0.0
 10
10.2656137844
 20
11.1248188013
 30
0.0
 10
10.2912504039
 20
11.1216502826
 30
0.0
 10
10.3163647264
 20
11.1182134104
 30
0.0
 10
10.3409147599
 20
11.1145139764
 30
0.0
 10
10.3648594875
 20
11.1105581758
 30
0.0
 10
10.3881588954
 20
11.1063526654
 30
0.0
 10
10.4107740741
 20
11.1019045267
 30
0.0
 10
10.4326672601
 20
11.0972212372
 30
0.0
 10
10.4538019089
 20
11.0923106567
 30
0.0
 10
10.4741427754
 20
11.0871810573
 30
0.0
 10
10.4936559669
 20
11.0818410715
 30
0.0
 10
10.5123089916
 20
11.0762996682
 30
0.0
 10
10.5300708359
 20
11.0705661444
 30
0.0
 10
10.5469120357
 20
11.0646501385
 30
0.0
 10
10.5628047295
 20
11.058561557
 30
0.0
 10
10.5777226655
 20
11.0523105489
 30
0.0
 10
10.5916414424
 20
11.0459074647
 30
0.0
 10
10.6045380465
 20
11.0393629269
 30
0.0
 10
10.6145723279
 20
11.033712374
 30
0.0
 10
10.6220571201
 20
11.0291199543
 30
0.0
 10
10.6273110618
 20
11.0257027864
 30
0.0
 10
10.6322941216
 20
11.0222584699
 30
0.0
 10
10.6370042375
 20
11.0187883414
 30
0.0
 10
10.6414395048
 20
11.0152938677
 30
0.0
 10
10.6455980568
 20
11.0117763889
 30
0.0
 10
10.6494781839
 20
11.008237314
 30
0.0
 10
10.6530783017
 20
11.0046780737
 30
0.0
 10
10.6563968552
 20
11.0010999534
 30
0.0
 10
10.6594324173
 20
10.9975044836
 30
0.0
 10
10.6621838723
 20
10.993892653
 30
0.0
 10
10.6654180228
 20
10.9891364604
 30
0.0
 10
10.6681543358
 20
10.9842679189
 30
0.0
 10
10.6703222264
 20
10.9793132821
 30
0.0
 10
10.6716349214
 20
10.9756421843
 30
0.0
 10
10.6726568351
 20
10.971963867
 30
0.0
 10
10.6733873634
 20
10.9682798174
 30
0.0
 10
10.673825974
 20
10.9645921916
 30
0.0
 10
10.6739235515
 20
10.9621295136
 30
0.0
 10
10.6739235567
 20
10.9609022836
 30
0.0
  0
SPLINE
  5
3B0
100
AcDbEntity
  8
0
100
AcDbSpline
 62
4
  6
CONTINUOUS
 70
0
 71
3
 72
313
 73
309
 74
0
 42
0.0000001
 43
0.0000001
 44
0.0000000001
 40
0.0
 40
0.0
 40
0.0
 40
0.0
 40
0.015625
 40
0.0234375
 40
0.03125
 40
0.0390625
 40
0.046875
 40
0.05078125
 40
0.0546875
 40
0.056640625
 40
0.05859375
 40
0.060546875
 40
0.0615234375
 40
0.0620117188
 40
0.0625
 40
0.0629882812
 40
0.0634765625
 40
0.064453125
 40
0.06640625
 40
0.068359375
 40
0.0703125
 40
0.07421875
 40
0.078125
 40
0.0859375
 40
0.09375
 40
0.1015625
 40
0.109375
 40
0.11328125
 40
0.1171875
 40
0.119140625
 40
0.12109375
 40
0.123046875
 40
0.1240234375
 40
0.1245117188
 40
0.125
 40
0.1254882812
 40
0.1259765625
 40
0.126953125
 40
0.12890625
 40
0.130859375
 40
0.1328125
 40
0.13671875
 40
0.140625
 40
0.1484375
 40
0.15625
 40
0.1640625
 40
0.171875
 40
0.17578125
 40
0.1796875
 40
0.181640625
 40
0.18359375
 40
0.185546875
 40
0.1865234375
 40
0.1870117188
 40
0.1875
 40
0.1879882812
 40
0.1884765625
 40
0.189453125
 40
0.19140625
 40
0.193359375
 40
0.1953125
 40
0.19921875
 40
0.203125
 40
0.2109375
 40
0.21875
 40
0.2265625
 40
0.234375
 40
0.23828125
 40
0.2421875
 40
0.244140625
 40
0.24609375
 40
0.248046875
 40
0.2490234375
 40
0.2495117188
 40
0.25
 40
0.2504882812
 40
0.2509765625
 40
0.251953125
 40
0.25390625
 40
0.255859375
 40
0.2578125
 40
0.26171875
 40
0.265625
 40
0.2734375
 40
0.28125
 40
0.2890625
 40
0.296875
 40
0.30078125
 40
0.3046875
 40
0.306640625
 40
0.30859375
 40
0.310546875
 40
0.3115234375
 40
0.3120117188
 40
0.3125
 40
0.3129882812
 40
0.3134765625
 40
0.314453125
 40
0.31640625
 40
0.318359375
 40
0.3203125
 40
0.32421875
 40
0.328125
 40
0.3359375
 40
0.34375
 40
0.3515625
 40
0.359375
 40
0.36328125
 40
0.3671875
 40
0.369140625
 40
0.37109375
 40
0.373046875
 40
0.3740234375
 40
0.3745117188
 40
0.375
 40
0.3754882812
 40
0.3759765625
 40
0.376953125
 40
0.37890625
 40
0.380859375
 40
0.3828125
 40
0.38671875
 40
0.390625
 40
0.3984375
 40
0.40625
 40
0.4140625
 40
0.421875
 40
0.42578125
 40
0.4296875
 40
0.431640625
 40
0.43359375
 40
0.435546875
 40
0.4365234375
 40
0.4370117188
 40
0.4375
 40
0.4379882812
 40
0.4384765625
 40
0.439453125
 40
0.44140625
 40
0.443359375
 40
0.4453125
 40
0.44921875
 40
0.453125
 40
0.4609375
 40
0.46875
 40
0.4765625
 40
0.484375
 40
0.48828125
 40
0.4921875
 40
0.494140625
 40
0.49609375
 40
0.498046875
 40
0.4990234375
 40
0.4995117188
 40
0.5
 40
0.5004882812
 40
0.5009765625
 40
0.501953125
 40
0.50390625
 40
0.505859375
 40
0.5078125
 40
0.51171875
 40
0.515625
 40
0.5234375
 40
0.53125
 40
0.5390625
 40
0.546875
 40
0.55078125
 40
0.5546875
 40
0.556640625
 40
0.55859375
 40
0.560546875
 40
0.5615234375
 40
0.5620117188
 40
0.5625
 40
0.5629882812
 40
0.5634765625
 40
0.564453125
 40
0.56640625
 40
0.568359375
 40
0.5703125
 40
0.57421875
 40
0.578125
 40
0.5859375
 40
0.59375
 40
0.6015625
 40
0.609375
 40
0.61328125
 40
0.6171875
 40
0.619140625
 40
0.62109375
 40
0.623046875
 40
0.6240234375
 40
0.6245117188
 40
0.625
 40
0.6254882812
 40
0.6259765625
 40
0.626953125
 40
0.62890625
 40
0.630859375
 40
0.6328125
 40
0.63671875
 40
0.640625
 40
0.6484375
 40
0.65625
 40
0.6640625
 40
0.671875
 40
0.67578125
 40
0.6796875
 40
0.681640625
 40
0.68359375
 40
0.685546875
 40
0.6865234375
 40
0.6870117188
 40
0.6875
 40
0.6879882812
 40
0.6884765625
 40
0.689453125
 40
0.69140625
 40
0.693359375
 40
0.6953125
 40
0.69921875
 40
0.703125
 40
0.7109375
 40
0.71875
 40
0.7265625
 40
0.734375
 40
0.73828125
 40
0.7421875
 40
0.744140625
 40
0.74609375
 40
0.748046875
 40
0.7490234375
 40
0.7495117188
 40
0.75
 40
0.7504882812
 40
0.7509765625
 40
0.751953125
 40
0.75390625
 40
0.755859375
 40
0.7578125
 40
0.76171875
 40
0.765625
 40
0.7734375
 40
0.78125
 40
0.7890625
 40
0.796875
 40
0.80078125
 40
0.8046875
 40
0.806640625
 40
0.80859375
 40
0.810546875
 40
0.8115234375
 40
0.8120117188
 40
0.8125
 40
0.8129882812
 40
0.8134765625
 40
0.814453125
 40
0.81640625
 40
0.818359375
 40
0.8203125
 40
0.82421875
 40
0.828125
 40
0.8359375
 40
0.84375
 40
0.8515625
 40
0.859375
 40
0.86328125
 40
0.8671875
 40
0.869140625
 40
0.87109375
 40
0.873046875
 40
0.8740234375
 40
0.8745117188
 40
0.875
 40
0.8754882812
 40
0.8759765625
 40
0.876953125
 40
0.87890625
 40
0.880859375
 40
0.8828125
 40
0.88671875
 40
0.890625
 40
0.8984375
 40
0.90625
 40
0.9140625
 40
0.921875
 40
0.92578125
 40
0.9296875
 40
0.931640625
 40
0.93359375
 40
0.935546875
 40
0.9365234375
 40
0.9370117188
 40
0.9375
 40
0.9379882812
 40
0.9384765625
 40
0.939453125
 40
0.94140625
 40
0.943359375
 40
0.9453125
 40
0.94921875
 40
0.953125
 40
0.9609375
 40
0.96875
 40
0.9765625
 40
0.984375
 40
1.0
 40
1.0
 40
1.0
 40
1.0
 10
9.7693792508
 20
7.7919822146
 30
0.0
 10
9.7691033121
 20
7.7948155908
 30
0.0
 10
9.7686894044
 20
7.7990656552
 30
0.0
 10
9.7681375266
 20
7.8047324075
 30
0.0
 10
9.7677236204
 20
7.8089824721
 30
0.0
 10
9.7673097058
 20
7.8132325355
 30
0.0
 10
9.7669648031
 20
7.8167742585
 30
0.0
 10
9.7666888225
 20
7.8196076293
 30
0.0
 10
9.7665164677
 20
7.8213785032
 30
0.0
 10
9.7663782791
 20
7.8227951631
 30
0.0
 10
9.7662754721
 20
7.8238577653
 30
0.0
 10
9.7661871451
 20
7.8247429257
 30
0.0
 10
9.7661305256
 20
7.8253632082
 30
0.0
 10
9.7660900376
 20
7.8257166089
 30
0.0
 10
9.766082585
 20
7.8259846073
 30
0.0
 10
9.765987546
 20
7.8262413373
 30
0.0
 10
9.7658913784
 20
7.8265875744
 30
0.0
 10
9.7657088508
 20
7.8271916582
 30
0.0
 10
9.765455539
 20
7.8280555925
 30
0.0
 10
9.7651483795
 20
7.8290919038
 30
0.0
 10
9.7647399461
 20
7.8304737953
 30
0.0
 10
9.7642290233
 20
7.8322011107
 30
0.0
 10
9.7634117599
 20
7.8349648427
 30
0.0
 10
9.7623901071
 20
7.8384194982
 30
0.0
 10
9.7611641572
 20
7.8425650895
 30
0.0
 10
9.759938191
 20
7.8467106771
 30
0.0
 10
9.758916579
 20
7.8501653421
 30
0.0
 10
9.7580992339
 20
7.8529290551
 30
0.0
 10
9.7575885187
 20
7.8546564188
 30
0.0
 10
9.7571796593
 20
7.8560382112
 30
0.0
 10
9.7568738012
 20
7.8570748252
 30
0.0
 10
9.7566164176
 20
7.8579378125
 30
0.0
 10
9.7564411588
 20
7.8585435867
 30
0.0
 10
9.7563333448
 20
7.8588871153
 30
0.0
 10
9.75627408
 20
7.8591521652
 30
0.0
 10
9.7561322654
 20
7.8593889154
 30
0.0
 10
9.7559719736
 20
7.8597144536
 30
0.0
 10
9.7556780471
 20
7.8602795461
 30
0.0
 10
9.755265166
 20
7.8610892258
 30
0.0
 10
9.7547667066
 20
7.8620598121
 30
0.0
 10
9.7541031426
 20
7.8633542867
 30
0.0
 10
9.7532733285
 20
7.8649722569
 30
0.0
 10
9.7519458267
 20
7.867561078
 30
0.0
 10
9.7502863802
 20
7.8707970806
 30
0.0
 10
9.748295076
 20
7.8746802948
 30
0.0
 10
9.7463037562
 20
7.8785635026
 30
0.0
 10
9.7446443487
 20
7.8817995211
 30
0.0
 10
9.7433167688
 20
7.8843883104
 30
0.0
 10
9.7424871532
 20
7.8860063615
 30
0.0
 10
9.7418231819
 20
7.88730067
 30
0.0
 10
9.7413259669
 20
7.8882717639
 30
0.0
 10
9.7409091922
 20
7.8890798555
 30
0.0
 10
9.7406222165
 20
7.889647783
 30
0.0
 10
9.7404507877
 20
7.8899687789
 30
0.0
 10
9.7403431825
 20
7.8902194817
 30
0.0
 10
9.7401554327
 20
7.8904321279
 30
0.0
 10
9.7399330549
 20
7.8907289308
 30
0.0
 10
9.739530869
 20
7.891242151
 30
0.0
 10
9.7389631271
 20
7.8919785562
 30
0.0
 10
9.7382789222
 20
7.8928608584
 30
0.0
 10
9.7373676671
 20
7.8940377448
 30
0.0
 10
9.7362282495
 20
7.8955086872
 30
0.0
 10
9.7344053763
 20
7.8978622877
 30
0.0
 10
9.7321267176
 20
7.9008042561
 30
0.0
 10
9.7293923574
 20
7.9043346336
 30
0.0
 10
9.7266579839
 20
7.9078650011
 30
0.0
 10
9.7243793585
 20
7.9108069945
 30
0.0
 10
9.7225564187
 20
7.913160545
 30
0.0
 10
9.7214171704
 20
7.9146316143
 30
0.0
 10
9.7205055679
 20
7.9158082404
 30
0.0
 10
9.7198224242
 20
7.9166913376
 30
0.0
 10
9.719251362
 20
7.9174252554
 30
0.0
 10
9.7188551035
 20
7.9179429161
 30
0.0
 10
9.7186232285
 20
7.9182326042
 30
0.0
 10
9.7184646512
 20
7.9184671048
 30
0.0
 10
9.7182474787
 20
7.9186357262
 30
0.0
 10
9.717978354
 20
7.9188835342
 30
0.0
 10
9.717497863
 20
7.9193064916
 30
0.0
 10
9.7168164259
 20
7.9199163139
 30
0.0
 10
9.7159965704
 20
7.9206457048
 30
0.0
 10
9.7149041741
 20
7.9216190629
 30
0.0
 10
9.7135384238
 20
7.9228354739
 30
0.0
 10
9.7113533657
 20
7.9247818917
 30
0.0
 10
9.7086219941
 20
7.9272148587
 30
0.0
 10
9.7053443703
 20
7.9301344444
 30
0.0
 10
9.7020667362
 20
7.9330540171
 30
0.0
 10
9.6993353905
 20
7.9354870168
 30
0.0
 10
9.6971502805
 20
7.9374333691
 30
0.0
 10
9.6957846623
 20
7.9386499467
 30
0.0
 10
9.6946919949
 20
7.9396229627
 30
0.0
 10
9.6938729675
 20
7.9403533987
 30
0.0
 10
9.6931889394
 20
7.9409599512
 30
0.0
 10
9.6927130738
 20
7.9413887459
 30
0.0
 10
9.692436538
 20
7.941627201
 30
0.0
 10
9.6922421301
 20
7.9418245514
 30
0.0
 10
9.6919980524
 20
7.9419511505
 30
0.0
 10
9.6916899409
 20
7.9421446282
 30
0.0
 10
9.6911426735
 20
7.9424717158
 30
0.0
 10
9.6903650831
 20
7.9429449952
 30
0.0
 10
9.6894301683
 20
7.9435103575
 30
0.0
 10
9.6881842462
 20
7.9442650725
 30
0.0
 10
9.6866266274
 20
7.9452081586
 30
0.0
 10
9.6841345582
 20
7.9467172683
 30
0.0
 10
9.6810194301
 20
7.948603596
 30
0.0
 10
9.677281295
 20
7.9508672167
 30
0.0
 10
9.6735431519
 20
7.9531308229
 30
0.0
 10
9.6704280439
 20
7.9550171868
 30
0.0
 10
9.6679359344
 20
7.9565262242
 30
0.0
 10
9.6663784181
 20
7.9574694942
 30
0.0
 10
9.6651322857
 20
7.9582238317
 30
0.0
 10
9.6641980133
 20
7.9587903474
 30
0.0
 10
9.6634184131
 20
7.9592600178
 30
0.0
 10
9.6628747337
 20
7.9595935482
 30
0.0
 10
9.6625608732
 20
7.9597767029
 30
0.0
 10
9.6623344543
 20
7.9599350109
 30
0.0
 10
9.6620737229
 20
7.960013268
 30
0.0
 10
9.6617380496
 20
7.9601455334
 30
0.0
 10
9.661145045
 20
7.9603639882
 30
0.0
 10
9.6603008109
 20
7.9606828681
 30
0.0
 10
9.6592864821
 20
7.9610626127
 30
0.0
 10
9.6579344796
 20
7.9615699557
 30
0.0
 10
9.6562443272
 20
7.9622037863
 30
0.0
 10
9.6535401668
 20
7.9632181099
 30
0.0
 10
9.6501599375
 20
7.964485947
 30
0.0
 10
9.6461036753
 20
7.9660073826
 30
0.0
 10
9.6420474073
 20
7.9675288021
 30
0.0
 10
9.6386671925
 20
7.9687966791
 30
0.0
 10
9.6359630032
 20
7.9698109231
 30
0.0
 10
9.6342729242
 20
7.9704449559
 30
0.0
 10
9.6329207711
 20
7.9709518838
 30
0.0
 10
9.6319069023
 20
7.9713328965
 30
0.0
 10
9.6310612289
 20
7.9716478091
 30
0.0
 10
9.6304707938
 20
7.9718733462
 30
0.0
 10
9.6301310035
 20
7.971994264
 30
0.0
 10
9.6298829182
 20
7.9721073773
 30
0.0
 10
9.6296090023
 20
7.972134771
 30
0.0
 10
9.6292527912
 20
7.9722011959
 30
0.0
 10
9.6286252236
 20
7.9723035085
 30
0.0
 10
9.6277308934
 20
7.9724569526
 30
0.0
 10
9.6266567576
 20
7.9726379681
 30
0.0
 10
9.6252249047
 20
7.9728804109
 30
0.0
 10
9.6234349763
 20
7.9731830915
 30
0.0
 10
9.6205711535
 20
7.9736675891
 30
0.0
 10
9.6169913536
 20
7.974273139
 30
0.0
 10
9.6126956027
 20
7.9749998319
 30
0.0
 10
9.6083998501
 20
7.9757265078
 30
0.0
 10
9.6048200545
 20
7.9763321002
 30
0.0
 10
9.6019562232
 20
7.9768165127
 30
0.0
 10
9.6001663164
 20
7.9771194095
 30
0.0
 10
9.598734419
 20
7.9773614087
 30
0.0
 10
9.5976604194
 20
7.9775437794
 30
0.0
 10
9.596765663
 20
7.9776929834
 30
0.0
 10
9.5961388562
 20
7.9778028652
 30
0.0
 10
9.5957814261
 20
7.9778571624
 30
0.0
 10
9.5955112544
 20
7.9779218085
 30
0.0
 10
9.5952491066
 20
7.9778950079
 30
0.0
 10
9.5948967774
 20
7.9778911715
 30
0.0
 10
9.5942815052
 20
7.9778695961
 30
0.0
 10
9.5934018632
 20
7.9778465438
 30
0.0
 10
9.5923465847
 20
7.9778155554
 30
0.0
 10
9.5909394447
 20
7.9777753992
 30
0.0
 10
9.5891805546
 20
7.9777248061
 30
0.0
 10
9.5863663109
 20
7.9776440796
 30
0.0
 10
9.5828485131
 20
7.9775430946
 30
0.0
 10
9.5786271525
 20
7.9774219477
 30
0.0
 10
9.5744057942
 20
7.9773007834
 30
0.0
 10
9.5708879903
 20
7.9771998417
 30
0.0
 10
9.5680737588
 20
7.9771190287
 30
0.0
 10
9.5663148378
 20
7.9770686555
 30
0.0
 10
9.5649077613
 20
7.9770280479
 30
0.0
 10
9.5638522887
 20
7.9769984382
 30
0.0
 10
9.5629732539
 20
7.9769710725
 30
0.0
 10
9.562356898
 20
7.9769571973
 30
0.0
 10
9.5620063051
 20
7.9769410231
 30
0.0
 10
9.5617388236
 20
7.9769521204
 30
0.0
 10
9.5614886846
 20
7.9768744286
 30
0.0
 10
9.5611491166
 20
7.9768018101
 30
0.0
 10
9.5605576912
 20
7.976660298
 30
0.0
 10
9.5597113242
 20
7.976465682
 30
0.0
 10
9.5586963145
 20
7.9762289136
 30
0.0
 10
9.5573427479
 20
7.9759143504
 30
0.0
 10
9.5556508651
 20
7.9755207601
 30
0.0
 10
9.5529438105
 20
7.9748912315
 30
0.0
 10
9.5495600069
 20
7.9741042463
 30
0.0
 10
9.5454994354
 20
7.973159898
 30
0.0
 10
9.5414388689
 20
7.972215533
 30
0.0
 10
9.538055053
 20
7.9714285894
 30
0.0
 10
9.535348023
 20
7.9707989775
 30
0.0
 10
9.5336560776
 20
7.9704055991
 30
0.0
 10
9.5323026396
 20
7.970090601
 30
0.0
 10
9.531287237
 20
7.9698551613
 30
0.0
 10
9.5304420993
 20
7.9696563882
 30
0.0
 10
9.5298484793
 20
7.9695222971
 30
0.0
 10
9.5295124276
 20
7.9694377884
 30
0.0
 10
9.5292514878
 20
7.9693966198
 30
0.0
 10
9.5290245725
 20
7.9692705418
 30
0.0
 10
9.5287101506
 20
7.9691320552
 30
0.0
 10
9.5281654419
 20
7.9688759044
 30
0.0
 10
9.5273843956
 20
7.9685171891
 30
0.0
 10
9.5264483776
 20
7.9680836427
 30
0.0
 10
9.5251999213
 20
7.9675066594
 30
0.0
 10
9.5236394989
 20
7.966785061
 30
0.0
 10
9.5211427403
 20
7.9656307101
 30
0.0
 10
9.5180218208
 20
7.9641877
 30
0.0
 10
9.514276704
 20
7.9624561206
 30
0.0
 10
9.5105315946
 20
7.960724525
 30
0.0
 10
9.5074106565
 20
7.9592815553
 30
0.0
 10
9.5049139352
 20
7.9581271236
 30
0.0
 10
9.5033534181
 20
7.9574057303
 30
0.0
 10
9.5021051562
 20
7.9568283262
 30
0.0
 10
9.5011685442
 20
7.9563960654
 30
0.0
 10
9.5003893561
 20
7.9560333276
 30
0.0
 10
9.4998413304
 20
7.9557843577
 30
0.0
 10
9.4995322232
 20
7.9556343654
 30
0.0
 10
9.4992889828
 20
7.9555436291
 30
0.0
 10
9.4990893571
 20
7.9553697233
 30
0.0
 10
9.4988079761
 20
7.9551668594
 30
0.0
 10
9.4983226476
 20
7.9547983311
 30
0.0
 10
9.4976256154
 20
7.9542789286
 30
0.0
 10
9.496790763
 20
7.9536526209
 30
0.0
 10
9.4956770724
 20
7.9528186005
 30
0.0
 10
9.4942851488
 20
7.9517757131
 30
0.0
 10
9.4920579651
 20
7.9501072957
 30
0.0
 10
9.4892740221
 20
7.9480217041
 30
0.0
 10
9.4859332732
 20
7.9455190256
 30
0.0
 10
9.4825925351
 20
7.943016333
 30
0.0
 10
9.479808565
 20
7.9409307766
 30
0.0
 10
9.4775814357
 20
7.9392622888
 30
0.0
 10
9.4761893736
 20
7.9382195803
 30
0.0
 10
9.4750759673
 20
7.9373851928
 30
0.0
 10
9.4742402463
 20
7.9367600066
 30
0.0
 10
9.4735459318
 20
7.9362370952
 30
0.0
 10
9.4730557517
 20
7.9358748308
 30
0.0
 10
9.4727821442
 20
7.9356619305
 30
0.0
 10
9.472558641
 20
7.9355188533
 30
0.0
 10
9.4724050805
 20
7.9353123302
 30
0.0
 10
9.4721759364
 20
7.9350590967
 30
0.0
 10
9.4717863012
 20
7.934605627
 30
0.0
 10
9.4712237367
 20
7.9339632039
 30
0.0
 10
9.4705512029
 20
7.9331899888
 30
0.0
 10
9.4696536028
 20
7.9321598412
 30
0.0
 10
9.4685319069
 20
7.9308718808
 30
0.0
 10
9.4667370234
 20
7.9288112984
 30
0.0
 10
9.4644934777
 20
7.9262355171
 30
0.0
 10
9.4618011959
 20
7.9231446037
 30
0.0
 10
9.459108928
 20
7.920053679
 30
0.0
 10
9.4568653477
 20
7.9174779261
 30
0.0
 10
9.4550705333
 20
7.915417287
 30
0.0
 10
9.4539486616
 20
7.9141294708
 30
0.0
 10
9.4530514224
 20
7.9130990271
 30
0.0
 10
9.4523777861
 20
7.9123267166
 30
0.0
 10
9.4518186712
 20
7.9116814632
 30
0.0
 10
9.4514228778
 20
7.911233046
 30
0.0
 10
9.4512036006
 20
7.9109717171
 30
0.0
 10
9.4510197323
 20
7.9107900606
 30
0.0
 10
9.4509100601
 20
7.9105535887
 30
0.0
 10
9.45073795
 20
7.910257413
 30
0.0
 10
9.4504488156
 20
7.9097301971
 30
0.0
 10
9.4500294622
 20
7.908981689
 30
0.0
 10
9.4495289365
 20
7.9080814858
 30
0.0
 10
9.4488606265
 20
7.9068819111
 30
0.0
 10
9.4480255616
 20
7.9053822043
 30
0.0
 10
9.4466892775
 20
7.9029828067
 30
0.0
 10
9.4450189846
 20
7.8999835138
 30
0.0
 10
9.4430146045
 20
7.896384383
 30
0.0
 10
9.4410102394
 20
7.892785243
 30
0.0
 10
9.439339909
 20
7.8897859729
 30
0.0
 10
9.4380037
 20
7.8873865298
 30
0.0
 10
9.4371684441
 20
7.8858869387
 30
0.0
 10
9.4365005262
 20
7.8846871265
 30
0.0
 10
9.4359988025
 20
7.8837876488
 30
0.0
 10
9.4355831976
 20
7.8830368708
 30
0.0
 10
9.4352873715
 20
7.882513707
 30
0.0
 10
9.4351259831
 20
7.8822110389
 30
0.0
 10
9.4349833773
 20
7.8819945098
 30
0.0
 10
9.434923202
 20
7.8817379515
 30
0.0
 10
9.4348142156
 20
7.8814098365
 30
0.0
 10
9.4346368858
 20
7.8808291297
 30
0.0
 10
9.4343765537
 20
7.8800029497
 30
0.0
 10
9.434067153
 20
7.8790100779
 30
0.0
 10
9.4336535717
 20
7.8776867573
 30
0.0
 10
9.4331369536
 20
7.8760324325
 30
0.0
 10
9.4323101642
 20
7.8733856102
 30
0.0
 10
9.4312767467
 20
7.8700770486
 30
0.0
 10
9.4300366139
 20
7.86610679
 30
0.0
 10
9.4287964975
 20
7.8621365244
 30
0.0
 10
9.4277630392
 20
7.8588279801
 30
0.0
 10
9.4269363314
 20
7.8561811232
 30
0.0
 10
9.426419506
 20
7.8545268861
 30
0.0
 10
9.4260063502
 20
7.8532033855
 30
0.0
 10
9.4256956496
 20
7.8522110639
 30
0.0
 10
9.4254393846
 20
7.8513831625
 30
0.0
 10
9.4252547943
 20
7.8508055287
 30
0.0
 10
9.425157441
 20
7.8504724899
 30
0.0
 10
9.4250615325
 20
7.850231056
 30
0.0
 10
9.4250531349
 20
7.8499577223
 30
0.0
 10
9.4250114134
 20
7.8496044044
 30
0.0
 10
9.4249526227
 20
7.8489809137
 30
0.0
 10
9.4248612006
 20
7.8480929232
 30
0.0
 10
9.4247546768
 20
7.8470261744
 30
0.0
 10
9.4246115333
 20
7.8456042479
 30
0.0
 10
9.4244329846
 20
7.8438267011
 30
0.0
 10
9.4241470939
 20
7.8409827037
 30
0.0
 10
9.4237898035
 20
7.8374276803
 30
0.0
 10
9.4233610238
 20
7.8331616636
 30
0.0
 10
9.4229322524
 20
7.8288956439
 30
0.0
 10
9.4223605543
 20
7.8232076187
 30
0.0
 10
9.4219317814
 20
7.8189415996
 30
0.0
 10
9.4216459327
 20
7.8160975869
 30
0.0
  0
SPLINE
  5
3B1
100
AcDbEntity
  8
0
100
AcDbSpline
 62
4
  6
CONTINUOUS
 70
0
 71
3
 72
313
 73
309
 74
0
 42
0.0000001
 43
0.0000001
 44
0.0000000001
 40
0.0
 40
0.0
 40
0.0
 40
0.0
 40
0.015625
 40
0.0234375
 40
0.03125
 40
0.0390625
 40
0.046875
 40
0.05078125
 40
0.0546875
 40
0.056640625
 40
0.05859375
 40
0.060546875
 40
0.0615234375
 40
0.0620117188
 40
0.0625
 40
0.0629882812
 40
0.0634765625
 40
0.064453125
 40
0.06640625
 40
0.068359375
 40
0.0703125
 40
0.07421875
 40
0.078125
 40
0.0859375
 40
0.09375
 40
0.1015625
 40
0.109375
 40
0.11328125
 40
0.1171875
 40
0.119140625
 40
0.12109375
 40
0.123046875
 40
0.1240234375
 40
0.1245117188
 40
0.125
 40
0.1254882812
 40
0.1259765625
 40
0.126953125
 40
0.12890625
 40
0.130859375
 40
0.1328125
 40
0.13671875
 40
0.140625
 40
0.1484375
 40
0.15625
 40
0.1640625
 40
0.171875
 40
0.17578125
 40
0.1796875
 40
0.181640625
 40
0.18359375
 40
0.185546875
 40
0.1865234375
 40
0.1870117188
 40
0.1875
 40
0.1879882812
 40
0.1884765625
 40
0.189453125
 40
0.19140625
 40
0.193359375
 40
0.1953125
 40
0.19921875
 40
0.203125
 40
0.2109375
 40
0.21875
 40
0.2265625
 40
0.234375
 40
0.23828125
 40
0.2421875
 40
0.244140625
 40
0.24609375
 40
0.248046875
 40
0.2490234375
 40
0.2495117188
 40
0.25
 40
0.2504882812
 40
0.2509765625
 40
0.251953125
 40
0.25390625
 40
0.255859375
 40
0.2578125
 40
0.26171875
 40
0.265625
 40
0.2734375
 40
0.28125
 40
0.2890625
 40
0.296875
 40
0.30078125
 40
0.3046875
 40
0.306640625
 40
0.30859375
 40
0.310546875
 40
0.3115234375
 40
0.3120117188
 40
0.3125
 40
0.3129882812
 40
0.3134765625
 40
0.314453125
 40
0.31640625
 40
0.318359375
 40
0.3203125
 40
0.32421875
 40
0.328125
 40
0.3359375
 40
0.34375
 40
0.3515625
 40
0.359375
 40
0.36328125
 40
0.3671875
 40
0.369140625
 40
0.37109375
 40
0.373046875
 40
0.3740234375
 40
0.3745117188
 40
0.375
 40
0.3754882812
 40
0.3759765625
 40
0.376953125
 40
0.37890625
 40
0.380859375
 40
0.3828125
 40
0.38671875
 40
0.390625
 40
0.3984375
 40
0.40625
 40
0.4140625
 40
0.421875
 40
0.42578125
 40
0.4296875
 40
0.431640625
 40
0.43359375
 40
0.435546875
 40
0.4365234375
 40
0.4370117188
 40
0.4375
 40
0.4379882812
 40
0.4384765625
 40
0.439453125
 40
0.44140625
 40
0.443359375
 40
0.4453125
 40
0.44921875
 40
0.453125
 40
0.4609375
 40
0.46875
 40
0.4765625
 40
0.484375
 40
0.48828125
 40
0.4921875
 40
0.494140625
 40
0.49609375
 40
0.498046875
 40
0.4990234375
 40
0.4995117188
 40
0.5
 40
0.5004882812
 40
0.5009765625
 40
0.501953125
 40
0.50390625
 40
0.505859375
 40
0.5078125
 40
0.51171875
 40
0.515625
 40
0.5234375
 40
0.53125
 40
0.5390625
 40
0.546875
 40
0.55078125
 40
0.5546875
 40
0.556640625
 40
0.55859375
 40
0.560546875
 40
0.5615234375
 40
0.5620117188
 40
0.5625
 40
0.5629882812
 40
0.5634765625
 40
0.564453125
 40
0.56640625
 40
0.568359375
 40
0.5703125
 40
0.57421875
 40
0.578125
 40
0.5859375
 40
0.59375
 40
0.6015625
 40
0.609375
 40
0.61328125
 40
0.6171875
 40
0.619140625
 40
0.62109375
 40
0.623046875
 40
0.6240234375
 40
0.6245117188
 40
0.625
 40
0.6254882812
 40
0.6259765625
 40
0.626953125
 40
0.62890625
 40
0.630859375
 40
0.6328125
 40
0.63671875
 40
0.640625
 40
0.6484375
 40
0.65625
 40
0.6640625
 40
0.671875
 40
0.67578125
 40
0.6796875
 40
0.681640625
 40
0.68359375
 40
0.685546875
 40
0.6865234375
 40
0.6870117188
 40
0.6875
 40
0.6879882812
 40
0.6884765625
 40
0.689453125
 40
0.69140625
 40
0.693359375
 40
0.6953125
 40
0.69921875
 40
0.703125
 40
0.7109375
 40
0.71875
 40
0.7265625
 40
0.734375
 40
0.73828125
 40
0.7421875
 40
0.744140625
 40
0.74609375
 40
0.748046875
 40
0.7490234375
 40
0.7495117188
 40
0.75
 40
0.7504882812
 40
0.7509765625
 40
0.751953125
 40
0.75390625
 40
0.755859375
 40
0.7578125
 40
0.76171875
 40
0.765625
 40
0.7734375
 40
0.78125
 40
0.7890625
 40
0.796875
 40
0.80078125
 40
0.8046875
 40
0.806640625
 40
0.80859375
 40
0.810546875
 40
0.8115234375
 40
0.8120117188
 40
0.8125
 40
0.8129882812
 40
0.8134765625
 40
0.814453125
 40
0.81640625
 40
0.818359375
 40
0.8203125
 40
0.82421875
 40
0.828125
 40
0.8359375
 40
0.84375
 40
0.8515625
 40
0.859375
 40
0.86328125
 40
0.8671875
 40
0.869140625
 40
0.87109375
 40
0.873046875
 40
0.8740234375
 40
0.8745117188
 40
0.875
 40
0.8754882812
 40
0.8759765625
 40
0.876953125
 40
0.87890625
 40
0.880859375
 40
0.8828125
 40
0.88671875
 40
0.890625
 40
0.8984375
 40
0.90625
 40
0.9140625
 40
0.921875
 40
0.92578125
 40
0.9296875
 40
0.931640625
 40
0.93359375
 40
0.935546875
 40
0.9365234375
 40
0.9370117188
 40
0.9375
 40
0.9379882812
 40
0.9384765625
 40
0.939453125
 40
0.94140625
 40
0.943359375
 40
0.9453125
 40
0.94921875
 40
0.953125
 40
0.9609375
 40
0.96875
 40
0.9765625
 40
0.984375
 40
1.0
 40
1.0
 40
1.0
 40
1.0
 10
9.4216459327
 20
7.8160976021
 30
0.0
 10
9.4219218713
 20
7.8132642259
 30
0.0
 10
9.422335779
 20
7.8090141615
 30
0.0
 10
9.4228876569
 20
7.8033474092
 30
0.0
 10
9.423301563
 20
7.7990973446
 30
0.0
 10
9.4237154776
 20
7.7948472811
 30
0.0
 10
9.4240603803
 20
7.7913055582
 30
0.0
 10
9.4243363609
 20
7.7884721874
 30
0.0
 10
9.4245087157
 20
7.7867013135
 30
0.0
 10
9.4246469043
 20
7.7852846536
 30
0.0
 10
9.4247497113
 20
7.7842220513
 30
0.0
 10
9.4248380383
 20
7.7833368909
 30
0.0
 10
9.4248946579
 20
7.7827166085
 30
0.0
 10
9.4249351458
 20
7.7823632078
 30
0.0
 10
9.4249425985
 20
7.7820952094
 30
0.0
 10
9.4250376375
 20
7.7818384794
 30
0.0
 10
9.425133805
 20
7.7814922422
 30
0.0
 10
9.4253163326
 20
7.7808881585
 30
0.0
 10
9.4255696444
 20
7.7800242242
 30
0.0
 10
9.4258768039
 20
7.7789879129
 30
0.0
 10
9.4262852374
 20
7.7776060214
 30
0.0
 10
9.4267961601
 20
7.775878706
 30
0.0
 10
9.4276134235
 20
7.773114974
 30
0.0
 10
9.4286350764
 20
7.7696603185
 30
0.0
 10
9.4298610262
 20
7.7655147271
 30
0.0
 10
9.4310869925
 20
7.7613691396
 30
0.0
 10
9.4321086045
 20
7.7579144746
 30
0.0
 10
9.4329259495
 20
7.7551507616
 30
0.0
 10
9.4334366648
 20
7.7534233979
 30
0.0
 10
9.4338455242
 20
7.7520416055
 30
0.0
 10
9.4341513823
 20
7.7510049915
 30
0.0
 10
9.4344087659
 20
7.7501420042
 30
0.0
 10
9.4345840246
 20
7.74953623
 30
0.0
 10
9.4346918386
 20
7.7491927014
 30
0.0
 10
9.4347511034
 20
7.7489276515
 30
0.0
 10
9.434892918
 20
7.7486909013
 30
0.0
 10
9.4350532099
 20
7.7483653631
 30
0.0
 10
9.4353471363
 20
7.7478002705
 30
0.0
 10
9.4357600174
 20
7.7469905909
 30
0.0
 10
9.4362584769
 20
7.7460200046
 30
0.0
 10
9.4369220409
 20
7.7447255299
 30
0.0
 10
9.4377518549
 20
7.7431075598
 30
0.0
 10
9.4390793567
 20
7.7405187386
 30
0.0
 10
9.4407388032
 20
7.7372827361
 30
0.0
 10
9.4427301074
 20
7.7333995219
 30
0.0
 10
9.4447214273
 20
7.729516314
 30
0.0
 10
9.4463808348
 20
7.7262802955
 30
0.0
 10
9.4477084146
 20
7.7236915063
 30
0.0
 10
9.4485380302
 20
7.7220734552
 30
0.0
 10
9.4492020016
 20
7.7207791467
 30
0.0
 10
9.4496992165
 20
7.7198080527
 30
0.0
 10
9.4501159913
 20
7.7189999612
 30
0.0
 10
9.4504029669
 20
7.7184320336
 30
0.0
 10
9.4505743958
 20
7.7181110378
 30
0.0
 10
9.4506820009
 20
7.717860335
 30
0.0
 10
9.4508697508
 20
7.7176476888
 30
0.0
 10
9.4510921285
 20
7.7173508859
 30
0.0
 10
9.4514943145
 20
7.7168376657
 30
0.0
 10
9.4520620563
 20
7.7161012605
 30
0.0
 10
9.4527462612
 20
7.7152189583
 30
0.0
 10
9.4536575164
 20
7.7140420719
 30
0.0
 10
9.4547969339
 20
7.7125711295
 30
0.0
 10
9.4566198071
 20
7.710217529
 30
0.0
 10
9.4588984658
 20
7.7072755606
 30
0.0
 10
9.461632826
 20
7.7037451831
 30
0.0
 10
9.4643671995
 20
7.7002148156
 30
0.0
 10
9.4666458249
 20
7.6972728222
 30
0.0
 10
9.4684687647
 20
7.6949192716
 30
0.0
 10
9.469608013
 20
7.6934482024
 30
0.0
 10
9.4705196155
 20
7.6922715763
 30
0.0
 10
9.4712027592
 20
7.691388479
 30
0.0
 10
9.4717738214
 20
7.6906545613
 30
0.0
 10
9.4721700799
 20
7.6901369006
 30
0.0
 10
9.472401955
 20
7.6898472125
 30
0.0
 10
9.4725605322
 20
7.6896127119
 30
0.0
 10
9.4727777048
 20
7.6894440905
 30
0.0
 10
9.4730468295
 20
7.6891962825
 30
0.0
 10
9.4735273204
 20
7.6887733251
 30
0.0
 10
9.4742087575
 20
7.6881635028
 30
0.0
 10
9.475028613
 20
7.6874341118
 30
0.0
 10
9.4761210094
 20
7.6864607538
 30
0.0
 10
9.4774867597
 20
7.6852443428
 30
0.0
 10
9.4796718177
 20
7.6832979249
 30
0.0
 10
9.4824031894
 20
7.680864958
 30
0.0
 10
9.4856808131
 20
7.6779453722
 30
0.0
 10
9.4889584473
 20
7.6750257996
 30
0.0
 10
9.491689793
 20
7.6725927999
 30
0.0
 10
9.4938749029
 20
7.6706464476
 30
0.0
 10
9.4952405212
 20
7.6694298699
 30
0.0
 10
9.4963331886
 20
7.668456854
 30
0.0
 10
9.497152216
 20
7.6677264179
 30
0.0
 10
9.4978362441
 20
7.6671198655
 30
0.0
 10
9.4983121096
 20
7.6666910708
 30
0.0
 10
9.4985886455
 20
7.6664526157
 30
0.0
 10
9.4987830533
 20
7.6662552652
 30
0.0
 10
9.499027131
 20
7.6661286661
 30
0.0
 10
9.4993352426
 20
7.6659351885
 30
0.0
 10
9.49988251
 20
7.6656081009
 30
0.0
 10
9.5006601003
 20
7.6651348214
 30
0.0
 10
9.5015950151
 20
7.6645694592
 30
0.0
 10
9.5028409373
 20
7.6638147442
 30
0.0
 10
9.504398556
 20
7.6628716581
 30
0.0
 10
9.5068906252
 20
7.6613625483
 30
0.0
 10
9.5100057533
 20
7.6594762206
 30
0.0
 10
9.5137438884
 20
7.6572126
 30
0.0
 10
9.5174820316
 20
7.6549489938
 30
0.0
 10
9.5205971395
 20
7.6530626299
 30
0.0
 10
9.523089249
 20
7.6515535925
 30
0.0
 10
9.5246467653
 20
7.6506103225
 30
0.0
 10
9.5258928977
 20
7.649855985
 30
0.0
 10
9.5268271701
 20
7.6492894692
 30
0.0
 10
9.5276067704
 20
7.6488197989
 30
0.0
 10
9.5281504498
 20
7.6484862685
 30
0.0
 10
9.5284643102
 20
7.6483031138
 30
0.0
 10
9.5286907291
 20
7.6481448058
 30
0.0
 10
9.5289514605
 20
7.6480665487
 30
0.0
 10
9.5292871338
 20
7.6479342833
 30
0.0
 10
9.5298801385
 20
7.6477158285
 30
0.0
 10
9.5307243726
 20
7.6473969485
 30
0.0
 10
9.5317387014
 20
7.6470172039
 30
0.0
 10
9.5330907039
 20
7.6465098609
 30
0.0
 10
9.5347808563
 20
7.6458760304
 30
0.0
 10
9.5374850167
 20
7.6448617068
 30
0.0
 10
9.540865246
 20
7.6435938696
 30
0.0
 10
9.5449215081
 20
7.6420724341
 30
0.0
 10
9.5489777761
 20
7.6405510145
 30
0.0
 10
9.5523579909
 20
7.6392831376
 30
0.0
 10
9.5550621802
 20
7.6382688936
 30
0.0
 10
9.5567522592
 20
7.6376348608
 30
0.0
 10
9.5581044124
 20
7.6371279328
 30
0.0
 10
9.5591182811
 20
7.6367469202
 30
0.0
 10
9.5599639546
 20
7.6364320076
 30
0.0
 10
9.5605543897
 20
7.6362064705
 30
0.0
 10
9.56089418
 20
7.6360855527
 30
0.0
 10
9.5611422652
 20
7.6359724393
 30
0.0
 10
9.5614161811
 20
7.6359450456
 30
0.0
 10
9.5617723923
 20
7.6358786208
 30
0.0
 10
9.5623999598
 20
7.6357763082
 30
0.0
 10
9.5632942901
 20
7.6356228641
 30
0.0
 10
9.5643684258
 20
7.6354418486
 30
0.0
 10
9.5658002787
 20
7.6351994058
 30
0.0
 10
9.5675902072
 20
7.6348967251
 30
0.0
 10
9.5704540299
 20
7.6344122276
 30
0.0
 10
9.5740338299
 20
7.6338066777
 30
0.0
 10
9.5783295807
 20
7.6330799848
 30
0.0
 10
9.5826253333
 20
7.6323533089
 30
0.0
 10
9.586205129
 20
7.6317477165
 30
0.0
 10
9.5890689603
 20
7.631263304
 30
0.0
 10
9.590858867
 20
7.6309604072
 30
0.0
 10
9.5922907645
 20
7.6307184079
 30
0.0
 10
9.593364764
 20
7.6305360373
 30
0.0
 10
9.5942595205
 20
7.6303868332
 30
0.0
 10
9.5948863272
 20
7.6302769515
 30
0.0
 10
9.5952437573
 20
7.6302226543
 30
0.0
 10
9.595513929
 20
7.6301580082
 30
0.0
 10
9.5957760769
 20
7.6301848087
 30
0.0
 10
9.5961284061
 20
7.6301886452
 30
0.0
 10
9.5967436782
 20
7.6302102206
 30
0.0
 10
9.5976233202
 20
7.6302332728
 30
0.0
 10
9.5986785988
 20
7.6302642612
 30
0.0
 10
9.6000857388
 20
7.6303044175
 30
0.0
 10
9.6018446289
 20
7.6303550106
 30
0.0
 10
9.6046588725
 20
7.6304357371
 30
0.0
 10
9.6081766703
 20
7.6305367221
 30
0.0
 10
9.612398031
 20
7.630657869
 30
0.0
 10
9.6166193892
 20
7.6307790332
 30
0.0
 10
9.6201371931
 20
7.630879975
 30
0.0
 10
9.6229514246
 20
7.630960788
 30
0.0
 10
9.6247103456
 20
7.6310111612
 30
0.0
 10
9.6261174221
 20
7.6310517687
 30
0.0
 10
9.6271728947
 20
7.6310813785
 30
0.0
 10
9.6280519296
 20
7.6311087442
 30
0.0
 10
9.6286682855
 20
7.6311226193
 30
0.0
 10
9.6290188783
 20
7.6311387936
 30
0.0
 10
9.6292863599
 20
7.6311276963
 30
0.0
 10
9.6295364989
 20
7.6312053881
 30
0.0
 10
9.6298760668
 20
7.6312780066
 30
0.0
 10
9.6304674923
 20
7.6314195186
 30
0.0
 10
9.6313138593
 20
7.6316141347
 30
0.0
 10
9.632328869
 20
7.631850903
 30
0.0
 10
9.6336824355
 20
7.6321654663
 30
0.0
 10
9.6353743183
 20
7.6325590566
 30
0.0
 10
9.6380813729
 20
7.6331885851
 30
0.0
 10
9.6414651766
 20
7.6339755704
 30
0.0
 10
9.645525748
 20
7.6349199187
 30
0.0
 10
9.6495863145
 20
7.6358642837
 30
0.0
 10
9.6529701305
 20
7.6366512272
 30
0.0
 10
9.6556771604
 20
7.6372808391
 30
0.0
 10
9.6573691059
 20
7.6376742175
 30
0.0
 10
9.6587225438
 20
7.6379892157
 30
0.0
 10
9.6597379464
 20
7.6382246554
 30
0.0
 10
9.6605830841
 20
7.6384234285
 30
0.0
 10
9.6611767041
 20
7.6385575196
 30
0.0
 10
9.6615127558
 20
7.6386420283
 30
0.0
 10
9.6617736957
 20
7.6386831969
 30
0.0
 10
9.662000611
 20
7.6388092748
 30
0.0
 10
9.6623150329
 20
7.6389477614
 30
0.0
 10
9.6628597416
 20
7.6392039123
 30
0.0
 10
9.6636407878
 20
7.6395626276
 30
0.0
 10
9.6645768059
 20
7.639996174
 30
0.0
 10
9.6658252622
 20
7.6405731572
 30
0.0
 10
9.6673856846
 20
7.6412947556
 30
0.0
 10
9.6698824431
 20
7.6424491066
 30
0.0
 10
9.6730033627
 20
7.6438921166
 30
0.0
 10
9.6767484795
 20
7.6456236961
 30
0.0
 10
9.6804935888
 20
7.6473552917
 30
0.0
 10
9.683614527
 20
7.6487982614
 30
0.0
 10
9.6861112483
 20
7.649952693
 30
0.0
 10
9.6876717654
 20
7.6506740864
 30
0.0
 10
9.6889200273
 20
7.6512514905
 30
0.0
 10
9.6898566392
 20
7.6516837512
 30
0.0
 10
9.6906358274
 20
7.6520464891
 30
0.0
 10
9.6911838531
 20
7.652295459
 30
0.0
 10
9.6914929603
 20
7.6524454512
 30
0.0
 10
9.6917362006
 20
7.6525361876
 30
0.0
 10
9.6919358264
 20
7.6527100933
 30
0.0
 10
9.6922172073
 20
7.6529129572
 30
0.0
 10
9.6927025358
 20
7.6532814856
 30
0.0
 10
9.693399568
 20
7.6538008881
 30
0.0
 10
9.6942344204
 20
7.6544271958
 30
0.0
 10
9.6953481111
 20
7.6552612162
 30
0.0
 10
9.6967400346
 20
7.6563041035
 30
0.0
 10
9.6989672184
 20
7.657972521
 30
0.0
 10
9.7017511613
 20
7.6600581126
 30
0.0
 10
9.7050919103
 20
7.6625607911
 30
0.0
 10
9.7084326483
 20
7.6650634836
 30
0.0
 10
9.7112166185
 20
7.66714904
 30
0.0
 10
9.7134437477
 20
7.6688175279
 30
0.0
 10
9.7148358098
 20
7.6698602363
 30
0.0
 10
9.7159492161
 20
7.6706946239
 30
0.0
 10
9.7167849372
 20
7.6713198101
 30
0.0
 10
9.7174792517
 20
7.6718427214
 30
0.0
 10
9.7179694317
 20
7.6722049859
 30
0.0
 10
9.7182430392
 20
7.6724178861
 30
0.0
 10
9.7184665425
 20
7.6725609634
 30
0.0
 10
9.7186201029
 20
7.6727674865
 30
0.0
 10
9.718849247
 20
7.67302072
 30
0.0
 10
9.7192388823
 20
7.6734741897
 30
0.0
 10
9.7198014468
 20
7.6741166128
 30
0.0
 10
9.7204739805
 20
7.6748898279
 30
0.0
 10
9.7213715806
 20
7.6759199755
 30
0.0
 10
9.7224932765
 20
7.6772079359
 30
0.0
 10
9.7242881601
 20
7.6792685183
 30
0.0
 10
9.7265317058
 20
7.6818442996
 30
0.0
 10
9.7292239875
 20
7.6849352129
 30
0.0
 10
9.7319162555
 20
7.6880261377
 30
0.0
 10
9.7341598357
 20
7.6906018905
 30
0.0
 10
9.7359546501
 20
7.6926625297
 30
0.0
 10
9.7370765218
 20
7.6939503459
 30
0.0
 10
9.7379737611
 20
7.6949807896
 30
0.0
 10
9.7386473973
 20
7.6957531001
 30
0.0
 10
9.7392065123
 20
7.6963983535
 30
0.0
 10
9.7396023056
 20
7.6968467706
 30
0.0
 10
9.7398215829
 20
7.6971080996
 30
0.0
 10
9.7400054511
 20
7.6972897561
 30
0.0
 10
9.7401151234
 20
7.697526228
 30
0.0
 10
9.7402872334
 20
7.6978224037
 30
0.0
 10
9.7405763679
 20
7.6983496195
 30
0.0
 10
9.7409957213
 20
7.6990981276
 30
0.0
 10
9.7414962469
 20
7.6999983309
 30
0.0
 10
9.742164557
 20
7.7011979056
 30
0.0
 10
9.7429996218
 20
7.7026976124
 30
0.0
 10
9.744335906
 20
7.7050970099
 30
0.0
 10
9.7460061988
 20
7.7080963028
 30
0.0
 10
9.7480105789
 20
7.7116954337
 30
0.0
 10
9.750014944
 20
7.7152945736
 30
0.0
 10
9.7516852745
 20
7.7182938438
 30
0.0
 10
9.7530214835
 20
7.7206932869
 30
0.0
 10
9.7538567394
 20
7.722192878
 30
0.0
 10
9.7545246572
 20
7.7233926901
 30
0.0
 10
9.755026381
 20
7.7242921679
 30
0.0
 10
9.7554419859
 20
7.7250429459
 30
0.0
 10
9.755737812
 20
7.7255661096
 30
0.0
 10
9.7558992004
 20
7.7258687778
 30
0.0
 10
9.7560418062
 20
7.7260853069
 30
0.0
 10
9.7561019815
 20
7.7263418652
 30
0.0
 10
9.7562109679
 20
7.7266699802
 30
0.0
 10
9.7563882977
 20
7.727250687
 30
0.0
 10
9.7566486298
 20
7.728076867
 30
0.0
 10
9.7569580304
 20
7.7290697388
 30
0.0
 10
9.7573716117
 20
7.7303930593
 30
0.0
 10
9.7578882298
 20
7.7320473841
 30
0.0
 10
9.7587150192
 20
7.7346942065
 30
0.0
 10
9.7597484367
 20
7.738002768
 30
0.0
 10
9.7609885695
 20
7.7419730267
 30
0.0
 10
9.762228686
 20
7.7459432923
 30
0.0
 10
9.7632621442
 20
7.7492518366
 30
0.0
 10
9.7640888521
 20
7.7518986935
 30
0.0
 10
9.7646056775
 20
7.7535529305
 30
0.0
 10
9.7650188333
 20
7.7548764312
 30
0.0
 10
9.7653295339
 20
7.7558687528
 30
0.0
 10
9.7655857988
 20
7.7566966542
 30
0.0
 10
9.7657703891
 20
7.7572742879
 30
0.0
 10
9.7658677424
 20
7.7576073268
 30
0.0
 10
9.765963651
 20
7.7578487607
 30
0.0
 10
9.7659720485
 20
7.7581220944
 30
0.0
 10
9.7660137701
 20
7.7584754123
 30
0.0
 10
9.7660725607
 20
7.759098903
 30
0.0
 10
9.7661639828
 20
7.7599868935
 30
0.0
 10
9.7662705067
 20
7.7610536423
 30
0.0
 10
9.7664136502
 20
7.7624755687
 30
0.0
 10
9.7665921989
 20
7.7642531156
 30
0.0
 10
9.7668780896
 20
7.767097113
 30
0.0
 10
9.7672353799
 20
7.7706521364
 30
0.0
 10
9.7676641597
 20
7.774918153
 30
0.0
 10
9.768092931
 20
7.7791841727
 30
0.0
 10
9.7686646291
 20
7.7848721979
 30
0.0
 10
9.769093402
 20
7.7891382171
 30
0.0
 10
9.7693792508
 20
7.7919822298
 30
0.0
  0
ENDSEC
  0
SECTION
  2
OBJECTS
  0
DICTIONARY
  5
C
100
AcDbDictionary
280
0
281
1
  3
ACAD_GROUP
350
D
  3
ACAD_MLINESTYLE
350
17
  3
ACAD_LAYOUT
350
1A
  3
ACAD_PLOTSETTINGS
350
19
  3
ACAD_PLOTSTYLENAME
350
E
  3
ACAD_IMAGE_DICT
350
       3B3
  3
ACAD_IMAGE_VARS
350
       3B4
  3
ACAD_TABLESTYLE
350
       3B5
  0
IMAGEDEF_REACTOR
  5
3B2
100
AcDbRasterImageDefReactor
 90
2
330
28A
  0
DICTIONARY
  5
D
102
{ACAD_REACTORS
330
C
102
}
100
AcDbDictionary
280
0
281
1
  0
ACDBDICTIONARYWDFLT
  5
E
102
{ACAD_REACTORS
330
C
102
}
100
AcDbDictionary
281
1
  3
Normal
350
F
100
AcDbDictionaryWithDefault
340
F
  0
DICTIONARY
  5
3B3
330
C
100
AcDbDictionary
281
1
  3
H4W_assy_2_img_1
350
       3B8
  0
RASTERVARIABLES
  5
3B4
330
C
100
AcDbRasterVariables
 90
0
 70
0
 71
1
 72
5
  0
DICTIONARY
  5
17
102
{ACAD_REACTORS
330
C
102
}
100
AcDbDictionary
280
0
281
1
  3
Standard
350
18
  0
DICTIONARY
  5
3B5
330
C
100
AcDbDictionary
281
1
  3
Standard
350
       3B9
  3
Standard1
350
       3BA
  0
DICTIONARY
  5
19
102
{ACAD_REACTORS
330
C
102
}
100
AcDbDictionary
281
1
  0
DICTIONARY
  5
1A
102
{ACAD_REACTORS
330
C
102
}
100
AcDbDictionary
281
1
  3
Model
350
3B6
  3
Layout1
350
3B7
  0
ACDBPLACEHOLDER
  5
F
102
{ACAD_REACTORS
330
E
102
}
  0
MLINESTYLE
  5
18
102
{ACAD_REACTORS
330
17
102
}
100
AcDbMlineStyle
  2
STANDARD
 70
0
  3

 62
256
 51
90.0
 52
90.0
 71
2
 49
0.5
 62
256
  6
BYLAYER
 49
-0.5
 62
256
  6
BYLAYER
  0
LAYOUT
  5
3B6
102
{ACAD_REACTORS
330
1A
102
}
100
AcDbPlotSettings
  1

  2
none_device
  4
ANSI_C_(22.00_x_17.00_Inches)
  6

 40
0.0
 41
0.0
 42
0.0
 43
0.0
 44
558.8
 45
431.8
 46
0.0
 47
0.0
 48
0.0
 49
0.0
140
0.0
141
0.0
142
1.0
143
1.0
 70
1024
 72
0
 73
0
 74
0
  7

 75
0
147
1.0
148
0.0
149
0.0
100
AcDbLayout
  1
Model
 70
0
 71
0
 10
0.0
 20
0.0
 11
22.0
 21
17.0
 12
0.0
 22
0.0
 32
0.0
 14
0.0
 24
0.0
 34
0.0
 15
0.0
 25
0.0
 35
0.0
146
0.0
 13
0.0
 23
0.0
 33
0.0
 16
1.0
 26
0.0
 36
0.0
 17
0.0
 27
1.0
 37
0.0
 76
0
330
204
345
0
346
0
  0
LAYOUT
  5
3B7
102
{ACAD_REACTORS
330
1A
102
}
100
AcDbPlotSettings
  1

  2
none_device
  4
ANSI_C_(22.00_x_17.00_Inches)
  6

 40
0.0
 41
0.0
 42
0.0
 43
0.0
 44
558.8
 45
431.8
 46
0.0
 47
0.0
 48
0.0
 49
0.0
140
0.0
141
0.0
142
1.0
143
1.0
 70
0
 72
0
 73
0
 74
0
  7

 75
0
147
1.0
148
0.0
149
0.0
100
AcDbLayout
  1
Layout1
 70
0
 71
1
 10
0.0
 20
0.0
 11
22.0
 21
17.0
 12
0.0
 22
0.0
 32
0.0
 14
0.0
 24
0.0
 34
0.0
 15
0.0
 25
0.0
 35
0.0
146
0.0
 13
0.0
 23
0.0
 33
0.0
 16
1.0
 26
0.0
 36
0.0
 17
0.0
 27
1.0
 37
0.0
 76
0
330
205
345
0
346
0
  0
IMAGEDEF
  5
3B8
102
{ACAD_REACTORS
330
3B3
330
3B2
102
}
100
AcDbRasterImageDef
 90
0
  1
H4W_assy_2_img_1.png
 10
369.0
 20
92.0
 11
0.0066666667
 21
0.0066666667
280
1
281
0
  0
TABLESTYLE
  5
3B9
102
{ACAD_REACTORS
330
3B5
330
28D
330
28E
102
}
330
3B5
100
AcDbTableStyle
  3
Standard
 70
0
 71
0
 40
0.06
 41
0.06
280
1
281
1
  7
Standard
140
0.18
170
1
 62
0
 63
7
283
0
  7
Standard
140
0.18
170
1
 62
0
 63
7
283
0
  7
Standard
140
0.18
170
1
 62
0
 63
7
283
0
  0
TABLESTYLE
  5
3BA
102
{ACAD_REACTORS
330
3B5
330
28C
102
}
330
3B5
100
AcDbTableStyle
  3
Standard1
 70
1
 71
0
 40
0.06
 41
0.06
280
1
281
1
  7
Standard
140
0.18
170
1
 62
0
 63
7
283
0
  7
Standard
140
0.18
170
1
 62
0
 63
7
283
0
  7
Standard
140
0.18
170
1
 62
0
 63
7
283
0
  0
ENDSEC
  0
EOF
