999
DXF file: H4L_assy_2.dxf
999
Pro/ENGINEER 2014200 by Parametric Technology Corporation
  0
SECTION
  2
HEADER
  9
$ACADVER
  1
AC1021
  9
$DWGCODEPAGE
  3
ANSI_1252
  9
$EXTMAX
 10
22.0
 20
17.0
 30
0.0
  9
$EXTMIN
 10
0.0
 20
0.0
 30
0.0
  9
$LIMMIN
 10
0.0
 20
0.0
  9
$LIMMAX
 10
22.0
 20
17.0
  9
$VIEWCTR
 10
11.0
 20
8.5
  9
$VIEWSIZE
 40
17.0
  9
$CLAYER
  8
0
  9
$LTSCALE
 40
1.21
  9
$CELTYPE
  6
BYLAYER
  9
$DIMSCALE
 40
1.0
  9
$DIMASZ
 40
0.1875
  9
$DIMEXO
 40
0.0625
  9
$DIMDLI
 40
0.836
  9
$DIMEXE
 40
0.125
  9
$DIMCEN
 40
0.198
  9
$DIMLFAC
 40
1.0
  9
$DIMBLK
  1
_FILLED
  9
$DIMTXT
 40
0.1
  9
$DIMTOL
 70
0
  9
$DIMLIM
 70
0
  9
$DIMTFAC
 40
1.0
  9
$DIMGAP
 40
0.09
  9
$DIMDSEP
 70
46
  9
$AUNITS
 70
0
  9
$PDMODE
 70
3
  9
$PDSIZE
 40
0.3125
  9
$HANDSEED
  5
3C6
  9
$TILEMODE
 70
1
  9
$MEASUREMENT
 70
0
  9
$INSUNITS
 70
1
  0
ENDSEC
  0
SECTION
  2
CLASSES
  0
CLASS
  1
ACDBDICTIONARYWDFLT
  2
AcDbDictionaryWithDefault
  3
AutoCAD 2000
 90
0
 91
1
280
0
281
0
  0
CLASS
  1
ACDBPLACEHOLDER
  2
AcDbPlaceHolder
  3
AutoCAD 2000
 90
0
 91
1
280
0
281
0
  0
CLASS
  1
LAYOUT
  2
AcDbLayout
  3
AutoCAD 2000
 90
0
 91
0
280
0
281
0
  0
CLASS
  1
RASTERVARIABLES
  2
AcDbRasterVariables
  3
ISM
 90
0
 91
1
280
0
281
0
  0
CLASS
  1
IMAGEDEF
  2
AcDbRasterImageDef
  3
ISM
 90
0
 91
1
280
0
281
0
  0
CLASS
  1
IMAGEDEF_REACTOR
  2
AcDbRasterImageDefReactor
  3
ISM
 90
0
 91
1
280
0
281
0
  0
CLASS
  1
IMAGE
  2
AcDbRasterImage
  3
ISM
 90
127
 91
1
280
0
281
1
  0
CLASS
  1
TABLESTYLE
  2
AcDbTableStyle
  3
ObjectDBX Classes
 90
2047
 91
1
280
0
281
0
  0
CLASS
  1
ACAD_TABLE
  2
AcDbTable
  3
ObjectDBX Classes
 90
1025
 91
3
280
0
281
1
  0
ENDSEC
  0
SECTION
  2
TABLES
  0
TABLE
  2
VPORT
  5
8
100
AcDbSymbolTable
 70
2
  0
VPORT
  5
1F4
100
AcDbSymbolTableRecord
100
AcDbViewportTableRecord
  2
*ACTIVE
 70
0
 10
0.0
 20
0.0
 11
1.0
 21
1.0
 12
11.0
 22
8.5
 13
0.0
 23
0.0
 14
1.0
 24
1.0
 15
0.0
 25
0.0
 16
0.0
 26
0.0
 36
1.0
 17
0.0
 27
0.0
 37
0.0
 40
17.0
 41
1.2941176471
 42
50.0
 43
0.0
 44
0.0
 50
0.0
 51
0.0
 71
0
 72
100
 73
1
 74
1
 75
0
 76
0
 77
0
 78
0
  0
ENDTAB
  0
TABLE
  2
LTYPE
  5
5
100
AcDbSymbolTable
 70
6
  0
LTYPE
  5
14
100
AcDbSymbolTableRecord
100
AcDbLinetypeTableRecord
  2
BYBLOCK
 70
0
  3

 72
65
 73
0
 40
0.0
  0
LTYPE
  5
15
100
AcDbSymbolTableRecord
100
AcDbLinetypeTableRecord
  2
BYLAYER
 70
0
  3

 72
65
 73
0
 40
0.0
  0
LTYPE
  5
16
100
AcDbSymbolTableRecord
100
AcDbLinetypeTableRecord
  2
CONTINUOUS
 70
64
  3
Solid line
 72
65
 73
0
 40
0.0
  0
LTYPE
  5
1F5
100
AcDbSymbolTableRecord
100
AcDbLinetypeTableRecord
  2
CENTER
 70
64
  3
____ _ ____ _ ____ _ ____ _ ____ _ ____ _ ____
 72
65
 73
4
 40
0.6
 49
0.375
 74
0
 49
-0.075
 74
0
 49
0.075
 74
0
 49
-0.075
 74
0
  0
LTYPE
  5
1F6
100
AcDbSymbolTableRecord
100
AcDbLinetypeTableRecord
  2
HIDDEN
 70
64
  3
- - - - - - - - - - - - - - - - - - - -
 72
65
 73
2
 40
0.2
 49
0.1
 74
0
 49
-0.1
 74
0
  0
LTYPE
  5
1F7
100
AcDbSymbolTableRecord
100
AcDbLinetypeTableRecord
  2
PHANTOM
 70
64
  3
_____ _ _ _____ _ _ _____ _ _ _____
 72
65
 73
6
 40
0.8
 49
0.45
 74
0
 49
-0.05
 74
0
 49
0.1
 74
0
 49
-0.05
 74
0
 49
0.1
 74
0
 49
-0.05
 74
0
  0
LTYPE
  5
1F8
100
AcDbSymbolTableRecord
100
AcDbLinetypeTableRecord
  2
DOT
 70
64
  3
. . . . . . . . . . . . . . . . . . . .
 72
65
 73
2
 40
0.2
 49
0.1
 74
0
 49
-0.1
 74
0
  0
LTYPE
  5
1F9
100
AcDbSymbolTableRecord
100
AcDbLinetypeTableRecord
  2
DASHED
 70
64
  3
- - - - - - - - - - - - - - - - - - - -
 72
65
 73
2
 40
0.2
 49
0.1
 74
0
 49
-0.1
 74
0
  0
ENDTAB
  0
TABLE
  2
LAYER
  5
2
100
AcDbSymbolTable
 70
36
  0
LAYER
  5
10
100
AcDbSymbolTableRecord
100
AcDbLayerTableRecord
  2
0
 70
0
 62
7
  6
CONTINUOUS
370
-3
390
F
  0
LAYER
  5
1FA
100
AcDbSymbolTableRecord
100
AcDbLayerTableRecord
  2
DEFAULT_1
 70
0
 62
7
  6
CENTER
370
-3
390
F
  0
LAYER
  5
1FB
100
AcDbSymbolTableRecord
100
AcDbLayerTableRecord
  2
DEFAULT_2
 70
0
 62
8
  6
HIDDEN
370
-3
390
F
  0
LAYER
  5
1FC
100
AcDbSymbolTableRecord
100
AcDbLayerTableRecord
  2
DEFAULT_3
 70
0
 62
7
  6
PHANTOM
370
-3
390
F
  0
LAYER
  5
1FD
100
AcDbSymbolTableRecord
100
AcDbLayerTableRecord
  2
DATUM_PLANES
 70
0
 62
7
  6
CONTINUOUS
370
-3
390
F
  0
LAYER
  5
1FE
100
AcDbSymbolTableRecord
100
AcDbLayerTableRecord
  2
PORT_AREAS
 70
0
 62
7
  6
CONTINUOUS
370
-3
390
F
  0
LAYER
  5
1FF
100
AcDbSymbolTableRecord
100
AcDbLayerTableRecord
  2
SUNNBOMCOSMETIC
 70
0
 62
7
  6
CONTINUOUS
370
-3
390
F
  0
LAYER
  5
200
100
AcDbSymbolTableRecord
100
AcDbLayerTableRecord
  2
SUNNBOMSTAMPING
 70
0
 62
7
  6
CONTINUOUS
370
-3
390
F
  0
LAYER
  5
201
100
AcDbSymbolTableRecord
100
AcDbLayerTableRecord
  2
THREADS
 70
0
 62
7
  6
CONTINUOUS
370
-3
390
F
  0
ENDTAB
  0
TABLE
  2
STYLE
  5
3
100
AcDbSymbolTable
 70
1
  0
STYLE
  5
11
100
AcDbSymbolTableRecord
100
AcDbTextStyleTableRecord
  2
STANDARD
 70
0
 40
0.0
 41
0.8
 50
0.0
 71
0
 42
0.2
  3
txt
  4

  0
STYLE
  5
202
100
AcDbSymbolTableRecord
100
AcDbTextStyleTableRecord
  2
TEXTSTYLE_1
 70
0
 40
0.0
 41
0.8
 50
0.0
 71
0
 42
0.2
  3
gdt
  4

  0
ENDTAB
  0
TABLE
  2
VIEW
  5
6
100
AcDbSymbolTable
 70
0
  0
ENDTAB
  0
TABLE
  2
UCS
  5
7
100
AcDbSymbolTable
 70
0
  0
ENDTAB
  0
TABLE
  2
APPID
  5
9
100
AcDbSymbolTable
 70
1
  0
APPID
  5
203
100
AcDbSymbolTableRecord
100
AcDbRegAppTableRecord
  2
ACAD
 70
0
  0
ENDTAB
  0
TABLE
  2
BLOCK_RECORD
  5
1
100
AcDbSymbolTable
 70
0
  0
BLOCK_RECORD
  5
204
100
AcDbSymbolTableRecord
100
AcDbBlockTableRecord
  2
*Model_Space
  0
BLOCK_RECORD
  5
205
100
AcDbSymbolTableRecord
100
AcDbBlockTableRecord
  2
*Paper_Space
  0
BLOCK_RECORD
  5
206
100
AcDbSymbolTableRecord
100
AcDbBlockTableRecord
  2
SUN_FIRST_THIRD_ANGLE_BL0
  0
BLOCK_RECORD
  5
207
100
AcDbSymbolTableRecord
100
AcDbBlockTableRecord
  2
*T1
  0
BLOCK_RECORD
  5
208
100
AcDbSymbolTableRecord
100
AcDbBlockTableRecord
  2
*T2
  0
BLOCK_RECORD
  5
209
100
AcDbSymbolTableRecord
100
AcDbBlockTableRecord
  2
*T3
  0
ENDTAB
  0
TABLE
  2
DIMSTYLE
  5
A
100
AcDbSymbolTable
 70
1
100
AcDbDimStyleTable
 71
0
  0
DIMSTYLE
105
20A
100
AcDbSymbolTableRecord
100
AcDbDimStyleTableRecord
  2
STANDARD
 70
0
  3

  4

 40
1.0
 41
0.1875
 42
0.0625
 43
0.38
 44
0.125
 45
0.0
 46
0.0
 47
0.001
 48
0.001
140
0.1
141
0.09
142
0.0
143
25.4
144
1.0
145
0.0
146
1.0
147
0.09
 71
0.0
 72
0.0
 73
1
 74
1
 75
0
 76
0
 77
0
 78
4
170
0
171
2
172
0
173
0
174
0
175
0
176
0
177
0
178
0
270
2
271
3
272
3
273
2
274
2
275
0
280
0
281
0
282
0
283
1
284
4
285
0
286
0
287
3
288
0
340
11
278
46
  0
ENDTAB
  0
ENDSEC
  0
SECTION
  2
BLOCKS
  0
BLOCK
  5
20
100
AcDbEntity
  8
0
100
AcDbBlockBegin
  2
*Model_Space
 70
0
 10
0.0
 20
0.0
 30
0.0
  3
*Model_Space
  1

  0
ENDBLK
  5
21
100
AcDbEntity
  8
0
100
AcDbBlockEnd
  0
BLOCK
  5
1C
100
AcDbEntity
  8
0
100
AcDbBlockBegin
  2
*Paper_Space
 70
0
 10
0.0
 20
0.0
 30
0.0
  3
*Paper_Space
  1

  0
ENDBLK
  5
1D
100
AcDbEntity
  8
0
100
AcDbBlockEnd
  0
BLOCK
  5
20B
100
AcDbEntity
  8
0
100
AcDbBlockBegin
 62
2
  6
CONTINUOUS
  2
SUN_FIRST_THIRD_ANGLE_BL0
 70
64
 10
20.4816717061
 20
1.2289683772
  3
SUN_FIRST_THIRD_ANGLE_BL0
  1

  0
TEXT
  5
20C
100
AcDbEntity
  8
0
100
AcDbText
 62
2
  6
CONTINUOUS
 10
19.4750896608
 20
1.4136269581
  7
STANDARD
 40
0.08
  1
FIRST ANGLE
 41
0.8
 72
0
100
AcDbText
  0
TEXT
  5
20D
100
AcDbEntity
  8
0
100
AcDbText
 62
2
  6
CONTINUOUS
 10
20.7842537513
 20
1.4047600029
  7
STANDARD
 40
0.08
  1
THIRD ANGLE
 41
0.8
 72
0
100
AcDbText
  0
LINE
  5
20E
100
AcDbEntity
  8
0
100
AcDbLine
 62
7
  6
CONTINUOUS
 10
19.4767170086
 20
1.1727031207
 11
19.6334271527
 21
1.1717972817
  0
LINE
  5
20F
100
AcDbEntity
  8
0
100
AcDbLine
 62
7
  6
CONTINUOUS
 10
19.6596964832
 20
1.1717972817
 11
19.6950230232
 21
1.171593082
  0
LINE
  5
210
100
AcDbEntity
  8
0
100
AcDbLine
 62
7
  6
CONTINUOUS
 10
19.7194818561
 20
1.1708914427
 11
19.8852396156
 21
1.1699333054
  0
LINE
  5
211
100
AcDbEntity
  8
0
100
AcDbLine
 62
7
  6
CONTINUOUS
 10
19.4758111696
 20
1.2723454088
 11
19.88525039
 21
1.3511534004
  0
LINE
  5
212
100
AcDbEntity
  8
0
100
AcDbLine
 62
7
  6
CONTINUOUS
 10
19.88525039
 20
1.3511534004
 11
19.8831348489
 21
0.9851647912
  0
LINE
  5
213
100
AcDbEntity
  8
0
100
AcDbLine
 62
7
  6
CONTINUOUS
 10
19.8831348489
 20
0.9851647912
 11
19.4767170086
 21
1.0658141206
  0
LINE
  5
214
100
AcDbEntity
  8
0
100
AcDbLine
 62
7
  6
CONTINUOUS
 10
19.4767170086
 20
1.0658141206
 11
19.4779056764
 21
1.2714536432
  0
CIRCLE
  5
215
100
AcDbEntity
  8
0
100
AcDbCircle
 62
7
  6
CONTINUOUS
 10
20.2068232291
 20
1.1717972817
 40
0.175742101
  0
CIRCLE
  5
216
100
AcDbEntity
  8
0
100
AcDbCircle
 62
7
  6
CONTINUOUS
 10
20.2068232291
 20
1.1717972817
 40
0.1005522074
  0
LINE
  5
217
100
AcDbEntity
  8
0
100
AcDbLine
 62
7
  6
CONTINUOUS
 10
20.2077290681
 20
1.3756110529
 11
20.2071171714
 21
1.2379342989
  0
LINE
  5
218
100
AcDbEntity
  8
0
100
AcDbLine
 62
7
  6
CONTINUOUS
 10
20.2077290681
 20
1.2016899681
 11
20.2074674401
 21
1.1428236749
  0
LINE
  5
219
100
AcDbEntity
  8
0
100
AcDbLine
 62
7
  6
CONTINUOUS
 10
20.208634907
 20
1.101141841
 11
20.2080230104
 21
0.963465087
  0
LINE
  5
21A
100
AcDbEntity
  8
0
100
AcDbLine
 62
7
  6
CONTINUOUS
 10
20.0066328138
 20
1.1745147986
 11
20.1443095678
 21
1.1739029019
  0
LINE
  5
21B
100
AcDbEntity
  8
0
100
AcDbLine
 62
7
  6
CONTINUOUS
 10
20.1832714155
 20
1.1727031207
 11
20.238153505
 21
1.172335442
  0
LINE
  5
21C
100
AcDbEntity
  8
0
100
AcDbLine
 62
7
  6
CONTINUOUS
 10
20.2756669918
 20
1.1717972817
 11
20.407916871
 21
1.1712095044
  0
CIRCLE
  5
21D
100
AcDbEntity
  8
0
100
AcDbCircle
 62
7
  6
CONTINUOUS
 10
20.7509457401
 20
1.1693297793
 40
0.1722024983
  0
CIRCLE
  5
21E
100
AcDbEntity
  8
0
100
AcDbCircle
 62
7
  6
CONTINUOUS
 10
20.7509457401
 20
1.1693297793
 40
0.0985164967
  0
LINE
  5
21F
100
AcDbEntity
  8
0
100
AcDbLine
 62
7
  6
CONTINUOUS
 10
20.7169767782
 20
1.170462078
 11
20.7825395137
 21
1.1682766535
  0
LINE
  5
220
100
AcDbEntity
  8
0
100
AcDbLine
 62
7
  6
CONTINUOUS
 10
20.8177513651
 20
1.1693297793
 11
20.947965719
 21
1.1693297793
  0
LINE
  5
221
100
AcDbEntity
  8
0
100
AcDbLine
 62
7
  6
CONTINUOUS
 10
20.6875370113
 20
1.170462078
 11
20.5573226574
 21
1.170462078
  0
LINE
  5
222
100
AcDbEntity
  8
0
100
AcDbLine
 62
7
  6
CONTINUOUS
 10
20.7486811426
 20
1.1987695462
 11
20.7486811426
 21
1.1432869085
  0
LINE
  5
223
100
AcDbEntity
  8
0
100
AcDbLine
 62
7
  6
CONTINUOUS
 10
20.7498134414
 20
1.1059210505
 11
20.7498134414
 21
0.9757066966
  0
LINE
  5
224
100
AcDbEntity
  8
0
100
AcDbLine
 62
7
  6
CONTINUOUS
 10
20.7486811426
 20
1.2338708068
 11
20.7486811426
 21
1.3640851607
  0
LINE
  5
225
100
AcDbEntity
  8
0
100
AcDbLine
 62
7
  6
CONTINUOUS
 10
21.0702539817
 20
1.2701043662
 11
21.4790138229
 21
1.3448360823
  0
LINE
  5
226
100
AcDbEntity
  8
0
100
AcDbLine
 62
7
  6
CONTINUOUS
 10
21.4790138229
 20
1.3448360823
 11
21.4790138229
 21
0.9779712941
  0
LINE
  5
227
100
AcDbEntity
  8
0
100
AcDbLine
 62
7
  6
CONTINUOUS
 10
21.4790138229
 20
0.9779712941
 11
21.069121683
 21
1.0617614
  0
LINE
  5
228
100
AcDbEntity
  8
0
100
AcDbLine
 62
7
  6
CONTINUOUS
 10
21.0702539817
 20
1.2701043662
 11
21.069121683
 21
1.0617614
  0
LINE
  5
229
100
AcDbEntity
  8
0
100
AcDbLine
 62
7
  6
CONTINUOUS
 10
21.4790138229
 20
1.1693297793
 11
21.3159628059
 21
1.1693297793
  0
LINE
  5
22A
100
AcDbEntity
  8
0
100
AcDbLine
 62
7
  6
CONTINUOUS
 10
21.2876553377
 20
1.1693297793
 11
21.2502894796
 21
1.1693297793
  0
LINE
  5
22B
100
AcDbEntity
  8
0
100
AcDbLine
 62
7
  6
CONTINUOUS
 10
21.2208497126
 20
1.1659328831
 11
21.0713862804
 21
1.1659328831
  0
LINE
  5
22C
100
AcDbEntity
  8
0
100
AcDbLine
 62
7
  6
CONTINUOUS
 10
20.4796138713
 20
1.5284908897
 11
20.4766766948
 21
0.9294458646
  0
ENDBLK
  5
22D
100
AcDbEntity
  8
0
  6
BYBLOCK
 62
0
100
AcDbBlockEnd
  0
BLOCK
  5
22E
100
AcDbEntity
  8
0
100
AcDbBlockBegin
  2
*T1
 70
1
 10
0.0
 20
0.0
  3
*T1
  1

  0
LINE
  5
22F
100
AcDbEntity
  8
0
100
AcDbLine
 62
2
  6
CONTINUOUS
 10
9.275
 20
0.0
 11
-0.0
 21
0.0
  0
LINE
  5
230
100
AcDbEntity
  8
0
100
AcDbLine
 62
2
  6
CONTINUOUS
 10
9.275
 20
0.0
 11
9.275
 21
1.25
  0
LINE
  5
231
100
AcDbEntity
  8
0
100
AcDbLine
 62
2
  6
CONTINUOUS
 10
9.275
 20
0.625
 11
-0.0
 21
0.625
  0
LINE
  5
232
100
AcDbEntity
  8
0
100
AcDbLine
 62
2
  6
CONTINUOUS
 10
9.275
 20
1.25
 11
-0.0
 21
1.25
  0
LINE
  5
233
100
AcDbEntity
  8
0
100
AcDbLine
 62
2
  6
CONTINUOUS
 10
6.8
 20
0.0
 11
6.8
 21
1.25
  0
LINE
  5
234
100
AcDbEntity
  8
0
100
AcDbLine
 62
2
  6
CONTINUOUS
 10
6.4
 20
0.0
 11
6.4
 21
0.625
  0
LINE
  5
235
100
AcDbEntity
  8
0
100
AcDbLine
 62
2
  6
CONTINUOUS
 10
5.9
 20
0.0
 11
5.9
 21
0.625
  0
LINE
  5
236
100
AcDbEntity
  8
0
100
AcDbLine
 62
2
  6
CONTINUOUS
 10
5.2
 20
0.0
 11
5.2
 21
0.625
  0
LINE
  5
237
100
AcDbEntity
  8
0
100
AcDbLine
 62
2
  6
CONTINUOUS
 10
4.1
 20
0.0
 11
4.1
 21
1.25
  0
LINE
  5
238
100
AcDbEntity
  8
0
100
AcDbLine
 62
2
  6
CONTINUOUS
 10
-0.0
 20
0.0
 11
-0.0
 21
1.25
  0
MTEXT
  5
239
100
AcDbEntity
  8
0
100
AcDbMText
 62
2
  6
CONTINUOUS
  7
STANDARD
 71
2
 72
1
 10
6.6
 20
0.325
 30
0.0
 11
1.0
 21
0.0
 31
0.0
 44
0.9
  1
2
 40
0.125
 41
0.2
  0
MTEXT
  5
23A
100
AcDbEntity
  8
0
100
AcDbMText
 62
2
  6
CONTINUOUS
  7
STANDARD
 71
2
 72
1
 10
6.15
 20
0.325
 30
0.0
 11
1.0
 21
0.0
 31
0.0
 44
0.9
  1
C
 40
0.125
 41
0.2
  0
MTEXT
  5
23B
100
AcDbEntity
  8
0
100
AcDbMText
 62
2
  6
CONTINUOUS
  7
STANDARD
 71
2
 72
1
 10
5.55
 20
0.325
 30
0.0
 11
1.0
 21
0.0
 31
0.0
 44
0.9
  1
1.000
 40
0.125
 41
1.0
  0
MTEXT
  5
23C
100
AcDbEntity
  8
0
100
AcDbMText
 62
2
  6
CONTINUOUS
  7
STANDARD
 71
2
 72
1
 10
4.65
 20
0.325
 30
0.0
 11
1.0
 21
0.0
 31
0.0
 44
0.9
  1
Dec-19-19
 40
0.125
 41
1.8
  0
MTEXT
  5
23D
100
AcDbEntity
  8
0
100
AcDbMText
 62
2
  6
CONTINUOUS
  7
STANDARD
 71
2
 72
1
 10
2.05
 20
0.4625
 30
0.0
 11
1.0
 21
0.0
 31
0.0
 44
0.9
  1
T-17A Line mount\P(See Technical Data for Body Features)
 40
0.125
 41
7.6
  0
MTEXT
  5
23E
100
AcDbEntity
  8
0
100
AcDbMText
 62
2
  6
CONTINUOUS
  7
STANDARD
 71
1
 72
1
 10
6.45
 20
0.5625
 30
0.0
 11
1.0
 21
0.0
 31
0.0
 44
0.9
  1
SHEET
 40
0.06
 41
0.48
  0
MTEXT
  5
23F
100
AcDbEntity
  8
0
100
AcDbMText
 62
2
  6
CONTINUOUS
  7
STANDARD
 71
1
 72
1
 10
5.95
 20
0.5625
 30
0.0
 11
1.0
 21
0.0
 31
0.0
 44
0.9
  1
DWG SIZE
 40
0.06
 41
0.768
  0
MTEXT
  5
240
100
AcDbEntity
  8
0
100
AcDbMText
 62
2
  6
CONTINUOUS
  7
STANDARD
 71
1
 72
1
 10
5.25
 20
0.5625
 30
0.0
 11
1.0
 21
0.0
 31
0.0
 44
0.9
  1
SCALE
 40
0.06
 41
0.48
  0
MTEXT
  5
241
100
AcDbEntity
  8
0
100
AcDbMText
 62
2
  6
CONTINUOUS
  7
STANDARD
 71
1
 72
1
 10
4.15
 20
0.5625
 30
0.0
 11
1.0
 21
0.0
 31
0.0
 44
0.9
  1
DATE
 40
0.06
 41
0.384
  0
MTEXT
  5
242
100
AcDbEntity
  8
0
100
AcDbMText
 62
2
  6
CONTINUOUS
  7
STANDARD
 71
1
 72
1
 10
0.05
 20
0.5625
 30
0.0
 11
1.0
 21
0.0
 31
0.0
 44
0.9
  1
DESCRIPTION
 40
0.06
 41
1.056
  0
MTEXT
  5
243
100
AcDbEntity
  8
0
100
AcDbMText
 62
2
  6
CONTINUOUS
  7
STANDARD
 71
2
 72
1
 10
5.45
 20
1.0375
 30
0.0
 11
1.0
 21
0.0
 31
0.0
 44
0.9
  1
ALL DIMENSIONS IN INCH\PVIEWS ARE THIRD ANGLE
 40
0.12
 41
4.224
  0
MTEXT
  5
244
100
AcDbEntity
  8
0
100
AcDbMText
 62
2
  6
CONTINUOUS
  7
STANDARD
 71
2
 72
1
 10
2.05
 20
0.95
 30
0.0
 11
1.0
 21
0.0
 31
0.0
 44
0.9
  1
H4L
 40
0.125
 41
0.6
  0
MTEXT
  5
245
100
AcDbEntity
  8
0
100
AcDbMText
 62
2
  6
CONTINUOUS
  7
STANDARD
 71
1
 72
1
 10
0.05
 20
1.1875
 30
0.0
 11
1.0
 21
0.0
 31
0.0
 44
0.9
  1
MODEL
 40
0.06
 41
0.48
  0
ENDBLK
  5
246
100
AcDbEntity
  8
0
  6
BYBLOCK
 62
0
100
AcDbBlockEnd
  0
BLOCK
  5
247
100
AcDbEntity
  8
0
100
AcDbBlockBegin
  2
*T2
 70
1
 10
0.0
 20
0.0
  3
*T2
  1

  0
LINE
  5
248
100
AcDbEntity
  8
0
100
AcDbLine
 62
2
  6
CONTINUOUS
 10
0.0
 20
0.0
 11
9.055
 21
0.0
  0
LINE
  5
249
100
AcDbEntity
  8
0
100
AcDbLine
 62
2
  6
CONTINUOUS
 10
0.0
 20
0.0
 11
0.0
 21
-2.594
  0
LINE
  5
24A
100
AcDbEntity
  8
0
100
AcDbLine
 62
2
  6
CONTINUOUS
 10
0.0
 20
-0.344
 11
9.055
 21
-0.344
  0
LINE
  5
24B
100
AcDbEntity
  8
0
100
AcDbLine
 62
2
  6
CONTINUOUS
 10
0.0
 20
-0.594
 11
9.055
 21
-0.594
  0
LINE
  5
24C
100
AcDbEntity
  8
0
100
AcDbLine
 62
2
  6
CONTINUOUS
 10
0.0
 20
-0.844
 11
9.055
 21
-0.844
  0
LINE
  5
24D
100
AcDbEntity
  8
0
100
AcDbLine
 62
2
  6
CONTINUOUS
 10
0.0
 20
-1.094
 11
9.055
 21
-1.094
  0
LINE
  5
24E
100
AcDbEntity
  8
0
100
AcDbLine
 62
2
  6
CONTINUOUS
 10
0.0
 20
-1.344
 11
9.055
 21
-1.344
  0
LINE
  5
24F
100
AcDbEntity
  8
0
100
AcDbLine
 62
2
  6
CONTINUOUS
 10
0.0
 20
-1.594
 11
9.055
 21
-1.594
  0
LINE
  5
250
100
AcDbEntity
  8
0
100
AcDbLine
 62
2
  6
CONTINUOUS
 10
0.0
 20
-1.844
 11
9.055
 21
-1.844
  0
LINE
  5
251
100
AcDbEntity
  8
0
100
AcDbLine
 62
2
  6
CONTINUOUS
 10
0.0
 20
-2.094
 11
9.055
 21
-2.094
  0
LINE
  5
252
100
AcDbEntity
  8
0
100
AcDbLine
 62
2
  6
CONTINUOUS
 10
0.0
 20
-2.344
 11
9.055
 21
-2.344
  0
LINE
  5
253
100
AcDbEntity
  8
0
100
AcDbLine
 62
2
  6
CONTINUOUS
 10
0.0
 20
-2.594
 11
9.055
 21
-2.594
  0
LINE
  5
254
100
AcDbEntity
  8
0
100
AcDbLine
 62
2
  6
CONTINUOUS
 10
3.055
 20
0.0
 11
3.055
 21
-2.594
  0
LINE
  5
255
100
AcDbEntity
  8
0
100
AcDbLine
 62
2
  6
CONTINUOUS
 10
9.055
 20
0.0
 11
9.055
 21
-2.594
  0
MTEXT
  5
256
100
AcDbEntity
  8
0
100
AcDbMText
 62
2
  6
CONTINUOUS
  7
STANDARD
 71
2
 72
1
 10
1.5275
 20
-0.0995
 30
0.0
 11
1.0
 21
0.0
 31
0.0
 44
0.9
  1
Technical Data
 40
0.145
 41
3.248
  0
MTEXT
  5
257
100
AcDbEntity
  8
0
100
AcDbMText
 62
2
  6
CONTINUOUS
  7
STANDARD
 71
2
 72
1
 10
4.555
 20
-0.0995
 30
0.0
 11
1.0
 21
0.0
 31
0.0
 44
0.9
  1
U.S. Units
 40
0.145
 41
2.32
  0
MTEXT
  5
258
100
AcDbEntity
  8
0
100
AcDbMText
 62
2
  6
CONTINUOUS
  7
STANDARD
 71
2
 72
1
 10
7.555
 20
-0.0995
 30
0.0
 11
1.0
 21
0.0
 31
0.0
 44
0.9
  1
Metric Units
 40
0.145
 41
2.784
  0
MTEXT
  5
259
100
AcDbEntity
  8
0
100
AcDbMText
 62
2
  6
CONTINUOUS
  7
STANDARD
 71
2
 72
1
 10
1.5275
 20
-0.4065
 30
0.0
 11
1.0
 21
0.0
 31
0.0
 44
0.9
  1
Cavity
 40
0.125
 41
1.2
  0
MTEXT
  5
25A
100
AcDbEntity
  8
0
100
AcDbMText
 62
2
  6
CONTINUOUS
  7
STANDARD
 71
2
 72
1
 10
6.055
 20
-0.4065
 30
0.0
 11
1.0
 21
0.0
 31
0.0
 44
0.9
  1
T-17A
 40
0.125
 41
1.0
  0
MTEXT
  5
25B
100
AcDbEntity
  8
0
100
AcDbMText
 62
2
  6
CONTINUOUS
  7
STANDARD
 71
2
 72
1
 10
1.5275
 20
-0.6565
 30
0.0
 11
1.0
 21
0.0
 31
0.0
 44
0.9
  1
Body Features
 40
0.125
 41
2.6
  0
MTEXT
  5
25C
100
AcDbEntity
  8
0
100
AcDbMText
 62
2
  6
CONTINUOUS
  7
STANDARD
 71
2
 72
1
 10
6.055
 20
-0.6565
 30
0.0
 11
1.0
 21
0.0
 31
0.0
 44
0.9
  1
Ninety degree with reverse flow check - reducing
 40
0.125
 41
9.6
  0
MTEXT
  5
25D
100
AcDbEntity
  8
0
100
AcDbMText
 62
2
  6
CONTINUOUS
  7
STANDARD
 71
2
 72
1
 10
1.5275
 20
-0.9065
 30
0.0
 11
1.0
 21
0.0
 31
0.0
 44
0.9
  1
Body Type
 40
0.125
 41
1.8
  0
MTEXT
  5
25E
100
AcDbEntity
  8
0
100
AcDbMText
 62
2
  6
CONTINUOUS
  7
STANDARD
 71
2
 72
1
 10
6.055
 20
-0.9065
 30
0.0
 11
1.0
 21
0.0
 31
0.0
 44
0.9
  1
Line mount
 40
0.125
 41
2.0
  0
MTEXT
  5
25F
100
AcDbEntity
  8
0
100
AcDbMText
 62
2
  6
CONTINUOUS
  7
STANDARD
 71
2
 72
1
 10
1.5275
 20
-1.1565
 30
0.0
 11
1.0
 21
0.0
 31
0.0
 44
0.9
  1
Interface
 40
0.125
 41
1.8
  0
MTEXT
  5
260
100
AcDbEntity
  8
0
100
AcDbMText
 62
2
  6
CONTINUOUS
  7
STANDARD
 71
2
 72
1
 10
6.055
 20
-1.1565
 30
0.0
 11
1.0
 21
0.0
 31
0.0
 44
0.9
  1
None
 40
0.125
 41
0.8
  0
MTEXT
  5
261
100
AcDbEntity
  8
0
100
AcDbMText
 62
2
  6
CONTINUOUS
  7
STANDARD
 71
2
 72
1
 10
1.5275
 20
-1.4065
 30
0.0
 11
1.0
 21
0.0
 31
0.0
 44
0.9
  1
Open Cavity Quantity
 40
0.125
 41
4.0
  0
MTEXT
  5
262
100
AcDbEntity
  8
0
100
AcDbMText
 62
2
  6
CONTINUOUS
  7
STANDARD
 71
2
 72
1
 10
6.055
 20
-1.4065
 30
0.0
 11
1.0
 21
0.0
 31
0.0
 44
0.9
  1
1
 40
0.125
 41
0.2
  0
MTEXT
  5
263
100
AcDbEntity
  8
0
100
AcDbMText
 62
2
  6
CONTINUOUS
  7
STANDARD
 71
2
 72
1
 10
1.5275
 20
-1.6565
 30
0.0
 11
1.0
 21
0.0
 31
0.0
 44
0.9
  1
Weight
 40
0.125
 41
1.2
  0
MTEXT
  5
264
100
AcDbEntity
  8
0
100
AcDbMText
 62
2
  6
CONTINUOUS
  7
STANDARD
 71
2
 72
1
 10
4.555
 20
-1.6565
 30
0.0
 11
1.0
 21
0.0
 31
0.0
 44
0.9
  1
6.262 lb.
 40
0.125
 41
1.8
  0
MTEXT
  5
265
100
AcDbEntity
  8
0
100
AcDbMText
 62
2
  6
CONTINUOUS
  7
STANDARD
 71
2
 72
1
 10
7.555
 20
-1.6565
 30
0.0
 11
1.0
 21
0.0
 31
0.0
 44
0.9
  1
2,840 kg.
 40
0.125
 41
1.8
  0
MTEXT
  5
266
100
AcDbEntity
  8
0
100
AcDbMText
 62
2
  6
CONTINUOUS
  7
STANDARD
 71
2
 72
1
 10
1.5275
 20
-1.9065
 30
0.0
 11
1.0
 21
0.0
 31
0.0
 44
0.9
  1
Mounting Hole Diameter
 40
0.125
 41
4.4
  0
MTEXT
  5
267
100
AcDbEntity
  8
0
100
AcDbMText
 62
2
  6
CONTINUOUS
  7
STANDARD
 71
2
 72
1
 10
4.555
 20
-1.9065
 30
0.0
 11
1.0
 21
0.0
 31
0.0
 44
0.9
  1
.41 in.
 40
0.125
 41
1.4
  0
MTEXT
  5
268
100
AcDbEntity
  8
0
100
AcDbMText
 62
2
  6
CONTINUOUS
  7
STANDARD
 71
2
 72
1
 10
7.555
 20
-1.9065
 30
0.0
 11
1.0
 21
0.0
 31
0.0
 44
0.9
  1
10,4 mm
 40
0.125
 41
1.4
  0
MTEXT
  5
269
100
AcDbEntity
  8
0
100
AcDbMText
 62
2
  6
CONTINUOUS
  7
STANDARD
 71
2
 72
1
 10
1.5275
 20
-2.1565
 30
0.0
 11
1.0
 21
0.0
 31
0.0
 44
0.9
  1
Mounting Hole Depth
 40
0.125
 41
3.8
  0
MTEXT
  5
26A
100
AcDbEntity
  8
0
100
AcDbMText
 62
2
  6
CONTINUOUS
  7
STANDARD
 71
2
 72
1
 10
6.055
 20
-2.1565
 30
0.0
 11
1.0
 21
0.0
 31
0.0
 44
0.9
  1
Through
 40
0.125
 41
1.4
  0
MTEXT
  5
26B
100
AcDbEntity
  8
0
100
AcDbMText
 62
2
  6
CONTINUOUS
  7
STANDARD
 71
2
 72
1
 10
1.5275
 20
-2.4065
 30
0.0
 11
1.0
 21
0.0
 31
0.0
 44
0.9
  1
Mounting Hole Quantity
 40
0.125
 41
4.4
  0
MTEXT
  5
26C
100
AcDbEntity
  8
0
100
AcDbMText
 62
2
  6
CONTINUOUS
  7
STANDARD
 71
2
 72
1
 10
6.055
 20
-2.4065
 30
0.0
 11
1.0
 21
0.0
 31
0.0
 44
0.9
  1
2
 40
0.125
 41
0.2
  0
ENDBLK
  5
26D
100
AcDbEntity
  8
0
  6
BYBLOCK
 62
0
100
AcDbBlockEnd
  0
BLOCK
  5
26E
100
AcDbEntity
  8
0
100
AcDbBlockBegin
  2
*T3
 70
1
 10
0.0
 20
0.0
  3
*T3
  1

  0
LINE
  5
26F
100
AcDbEntity
  8
0
100
AcDbLine
 62
2
  6
CONTINUOUS
 10
0.0
 20
0.0
 11
4.6
 21
0.0
  0
LINE
  5
270
100
AcDbEntity
  8
0
100
AcDbLine
 62
2
  6
CONTINUOUS
 10
0.0
 20
0.0
 11
0.0
 21
-1.43775
  0
LINE
  5
271
100
AcDbEntity
  8
0
100
AcDbLine
 62
2
  6
CONTINUOUS
 10
0.0
 20
-0.34375
 11
4.6
 21
-0.34375
  0
LINE
  5
272
100
AcDbEntity
  8
0
100
AcDbLine
 62
2
  6
CONTINUOUS
 10
0.0
 20
-0.68775
 11
4.6
 21
-0.68775
  0
LINE
  5
273
100
AcDbEntity
  8
0
100
AcDbLine
 62
2
  6
CONTINUOUS
 10
0.0
 20
-0.93775
 11
4.6
 21
-0.93775
  0
LINE
  5
274
100
AcDbEntity
  8
0
100
AcDbLine
 62
2
  6
CONTINUOUS
 10
0.0
 20
-1.18775
 11
4.6
 21
-1.18775
  0
LINE
  5
275
100
AcDbEntity
  8
0
100
AcDbLine
 62
2
  6
CONTINUOUS
 10
0.0
 20
-1.43775
 11
4.6
 21
-1.43775
  0
LINE
  5
276
100
AcDbEntity
  8
0
100
AcDbLine
 62
2
  6
CONTINUOUS
 10
1.3
 20
-0.34375
 11
1.3
 21
-1.43775
  0
LINE
  5
277
100
AcDbEntity
  8
0
100
AcDbLine
 62
2
  6
CONTINUOUS
 10
3.3
 20
-0.34375
 11
3.3
 21
-1.43775
  0
LINE
  5
278
100
AcDbEntity
  8
0
100
AcDbLine
 62
2
  6
CONTINUOUS
 10
4.6
 20
0.0
 11
4.6
 21
-1.43775
  0
MTEXT
  5
279
100
AcDbEntity
  8
0
100
AcDbMText
 62
2
  6
CONTINUOUS
  7
STANDARD
 71
2
 72
1
 10
2.3
 20
-0.099375
 30
0.0
 11
1.0
 21
0.0
 31
0.0
 44
0.9
  1
Port Headings
 40
0.145
 41
3.016
  0
MTEXT
  5
27A
100
AcDbEntity
  8
0
100
AcDbMText
 62
2
  6
CONTINUOUS
  7
STANDARD
 71
2
 72
1
 10
0.65
 20
-0.44325
 30
0.0
 11
1.0
 21
0.0
 31
0.0
 44
0.9
  1
Product
 40
0.145
 41
1.624
  0
MTEXT
  5
27B
100
AcDbEntity
  8
0
100
AcDbMText
 62
2
  6
CONTINUOUS
  7
STANDARD
 71
2
 72
1
 10
2.3
 20
-0.44325
 30
0.0
 11
1.0
 21
0.0
 31
0.0
 44
0.9
  1
Port
 40
0.145
 41
0.928
  0
MTEXT
  5
27C
100
AcDbEntity
  8
0
100
AcDbMText
 62
2
  6
CONTINUOUS
  7
STANDARD
 71
2
 72
1
 10
3.95
 20
-0.44325
 30
0.0
 11
1.0
 21
0.0
 31
0.0
 44
0.9
  1
Size
 40
0.145
 41
0.928
  0
MTEXT
  5
27D
100
AcDbEntity
  8
0
100
AcDbMText
 62
2
  6
CONTINUOUS
  7
STANDARD
 71
2
 72
1
 10
0.65
 20
-0.75025
 30
0.0
 11
1.0
 21
0.0
 31
0.0
 44
0.9
  1
H4L
 40
0.125
 41
0.6
  0
MTEXT
  5
27E
100
AcDbEntity
  8
0
100
AcDbMText
 62
2
  6
CONTINUOUS
  7
STANDARD
 71
2
 72
1
 10
2.3
 20
-0.75025
 30
0.0
 11
1.0
 21
0.0
 31
0.0
 44
0.9
  1
Ports 1 &  2
 40
0.125
 41
2.4
  0
MTEXT
  5
27F
100
AcDbEntity
  8
0
100
AcDbMText
 62
2
  6
CONTINUOUS
  7
STANDARD
 71
2
 72
1
 10
3.95
 20
-0.75025
 30
0.0
 11
1.0
 21
0.0
 31
0.0
 44
0.9
  1
SAE 12
 40
0.125
 41
1.2
  0
MTEXT
  5
280
100
AcDbEntity
  8
0
100
AcDbMText
 62
2
  6
CONTINUOUS
  7
STANDARD
 71
2
 72
1
 10
0.65
 20
-1.00025
 30
0.0
 11
1.0
 21
0.0
 31
0.0
 44
0.9
  1
H4L
 40
0.125
 41
0.6
  0
MTEXT
  5
281
100
AcDbEntity
  8
0
100
AcDbMText
 62
2
  6
CONTINUOUS
  7
STANDARD
 71
2
 72
1
 10
2.3
 20
-1.00025
 30
0.0
 11
1.0
 21
0.0
 31
0.0
 44
0.9
  1
Port 3
 40
0.125
 41
1.2
  0
MTEXT
  5
282
100
AcDbEntity
  8
0
100
AcDbMText
 62
2
  6
CONTINUOUS
  7
STANDARD
 71
2
 72
1
 10
3.95
 20
-1.00025
 30
0.0
 11
1.0
 21
0.0
 31
0.0
 44
0.9
  1
SAE 12
 40
0.125
 41
1.2
  0
MTEXT
  5
283
100
AcDbEntity
  8
0
100
AcDbMText
 62
2
  6
CONTINUOUS
  7
STANDARD
 71
2
 72
1
 10
0.65
 20
-1.25025
 30
0.0
 11
1.0
 21
0.0
 31
0.0
 44
0.9
  1
H4L
 40
0.125
 41
0.6
  0
MTEXT
  5
284
100
AcDbEntity
  8
0
100
AcDbMText
 62
2
  6
CONTINUOUS
  7
STANDARD
 71
2
 72
1
 10
2.3
 20
-1.25025
 30
0.0
 11
1.0
 21
0.0
 31
0.0
 44
0.9
  1
Gage Port
 40
0.125
 41
1.8
  0
MTEXT
  5
285
100
AcDbEntity
  8
0
100
AcDbMText
 62
2
  6
CONTINUOUS
  7
STANDARD
 71
2
 72
1
 10
3.95
 20
-1.25025
 30
0.0
 11
1.0
 21
0.0
 31
0.0
 44
0.9
  1
1/4" NPTF
 40
0.125
 41
1.8
  0
ENDBLK
  5
286
100
AcDbEntity
  8
0
  6
BYBLOCK
 62
0
100
AcDbBlockEnd
  0
ENDSEC
  0
SECTION
  2
ENTITIES
  0
IMAGE
  5
287
100
AcDbEntity
  8
0
100
AcDbRasterImage
 62
7
  6
CONTINUOUS
 10
19.2297077316
 20
0.3094318264
 30
0.0
 11
0.0066666667
 21
0.0
 31
0.0
 12
0.0
 22
0.0066666667
 32
0.0
 13
369.0
 23
92.0
340
       3C3
 70
9
280
0
281
50
282
50
283
0
360
       3BD
 71
1
 91
2
 14
-0.5
 24
-0.5
 14
368.5
 24
91.5
  0
INSERT
  5
288
100
AcDbEntity
  8
0
100
AcDbBlockReference
 62
2
  6
CONTINUOUS
  2
SUN_FIRST_THIRD_ANGLE_BL0
 10
20.4816717061
 20
1.2289683772
  0
ACAD_TABLE
  5
289
100
AcDbEntity
  8
0
 62
2
  6
CONTINUOUS
100
AcDbBlockReference
  2
*T1
 10
12.42375
 20
0.30125
 30
0.0
100
AcDbTable
342
       3C5
343
207
 11
1.0
 21
0.0
 31
0.0
 90
6
 91
4
 92
6
 93
20
 94
0
 95
0
 96
0
 70
1
 41
0.0
141
0.525
141
0.1
141
0.525
141
0.1
142
4.1
142
1.1
142
0.7
142
0.5
142
0.4
142
2.475
171
1
172
0
173
0
174
0
175
1
176
1
 91
33
178
0
145
0.0
301
CELL_VALUE
 90
4
  1
T-17A Line mount\P(See Technical Data for Body Features)
304
ACVALUE_END
170
2
140
0.125
171
1
172
0
173
0
174
0
175
1
176
1
 91
33
178
0
145
0.0
301
CELL_VALUE
 90
4
  1
Dec-19-19
304
ACVALUE_END
170
5
140
0.125
171
1
172
0
173
0
174
0
175
1
176
1
 91
33
178
0
145
0.0
301
CELL_VALUE
 90
4
  1
1.000
304
ACVALUE_END
170
5
140
0.125
171
1
172
0
173
0
174
0
175
1
176
1
 91
33
178
0
145
0.0
301
CELL_VALUE
 90
4
  1
C
304
ACVALUE_END
170
5
140
0.125
171
1
172
0
173
0
174
0
175
1
176
1
 91
33
178
0
145
0.0
301
CELL_VALUE
 90
4
  1
2
304
ACVALUE_END
170
5
140
0.125
171
1
172
0
173
0
174
0
175
1
176
1
 91
33
178
0
145
0.0
301
CELL_VALUE
 90
4
  1
 
304
ACVALUE_END
170
1
140
0.125
171
1
172
0
173
0
174
0
175
1
176
1
 91
33
178
0
145
0.0
301
CELL_VALUE
 90
4
  1
DESCRIPTION
304
ACVALUE_END
170
1
140
0.06
171
1
172
0
173
0
174
0
175
1
176
1
 91
33
178
0
145
0.0
301
CELL_VALUE
 90
4
  1
DATE
304
ACVALUE_END
170
1
140
0.06
171
1
172
0
173
0
174
0
175
1
176
1
 91
33
178
0
145
0.0
301
CELL_VALUE
 90
4
  1
SCALE
304
ACVALUE_END
170
1
140
0.06
171
1
172
0
173
0
174
0
175
1
176
1
 91
33
178
0
145
0.0
301
CELL_VALUE
 90
4
  1
DWG SIZE
304
ACVALUE_END
170
1
140
0.06
171
1
172
0
173
0
174
0
175
1
176
1
 91
33
178
0
145
0.0
301
CELL_VALUE
 90
4
  1
SHEET
304
ACVALUE_END
170
1
140
0.06
171
1
172
0
173
0
174
0
175
1
176
1
 91
33
178
0
145
0.0
301
CELL_VALUE
 90
4
  1
 
304
ACVALUE_END
170
1
140
0.125
171
1
172
0
173
0
174
0
175
1
176
1
 91
33
178
0
145
0.0
301
CELL_VALUE
 90
4
  1
H4L
304
ACVALUE_END
170
5
140
0.125
171
1
172
0
173
0
174
0
175
4
176
1
 91
33
178
0
145
0.0
301
CELL_VALUE
 90
4
  1
ALL DIMENSIONS IN INCH\PVIEWS ARE THIRD ANGLE
304
ACVALUE_END
170
5
140
0.12
171
1
172
0
173
1
174
0
175
1
176
1
 91
1
178
0
145
0.0
170
1
171
1
172
0
173
1
174
0
175
1
176
1
 91
1
178
0
145
0.0
170
1
171
1
172
0
173
1
174
0
175
1
176
1
 91
1
178
0
145
0.0
170
5
171
1
172
0
173
0
174
0
175
1
176
1
 91
33
178
0
145
0.0
301
CELL_VALUE
 90
4
  1
 
304
ACVALUE_END
170
1
140
0.125
171
1
172
0
173
0
174
0
175
1
176
1
 91
33
178
0
145
0.0
301
CELL_VALUE
 90
4
  1
MODEL
304
ACVALUE_END
170
1
140
0.06
171
1
172
0
173
0
174
0
175
1
176
1
 91
33
178
0
145
0.0
301
CELL_VALUE
 90
4
  1
 
304
ACVALUE_END
170
1
140
0.125
171
1
172
0
173
0
174
0
175
1
176
1
 91
33
178
0
145
0.0
301
CELL_VALUE
 90
4
  1
 
304
ACVALUE_END
170
1
140
0.125
171
1
172
0
173
0
174
0
175
1
176
1
 91
33
178
0
145
0.0
301
CELL_VALUE
 90
4
  1
 
304
ACVALUE_END
170
1
140
0.125
171
1
172
0
173
0
174
0
175
1
176
1
 91
33
178
0
145
0.0
301
CELL_VALUE
 90
4
  1
 
304
ACVALUE_END
170
1
140
0.125
171
1
172
0
173
0
174
0
175
1
176
1
 91
33
178
0
145
0.0
301
CELL_VALUE
 90
4
  1
 
304
ACVALUE_END
170
1
140
0.125
  0
ACAD_TABLE
  5
28A
100
AcDbEntity
  8
0
 62
2
  6
CONTINUOUS
100
AcDbBlockReference
  2
*T2
 10
12.4237499994
 20
16.47875
 30
0.0
100
AcDbTable
342
       3C4
343
208
 11
1.0
 21
0.0
 31
0.0
 90
22
 91
10
 92
3
 93
16
 94
0
 95
0
 96
0
 41
0.028
141
0.344
141
0.25
141
0.25
141
0.25
141
0.25
141
0.25
141
0.25
141
0.25
141
0.25
141
0.25
142
3.055
142
3.0
142
3.0
171
1
172
0
173
0
174
0
175
1
176
1
 91
33
178
0
145
0.0
301
CELL_VALUE
 90
4
  1
Technical Data
304
ACVALUE_END
170
5
140
0.145
171
1
172
0
173
0
174
0
175
1
176
1
 91
33
178
0
145
0.0
301
CELL_VALUE
 90
4
  1
U.S. Units
304
ACVALUE_END
170
5
140
0.145
171
1
172
0
173
0
174
0
175
1
176
1
 91
33
178
0
145
0.0
301
CELL_VALUE
 90
4
  1
Metric Units
304
ACVALUE_END
170
5
140
0.145
171
1
172
0
173
0
174
0
175
1
176
1
 91
33
178
0
145
0.0
301
CELL_VALUE
 90
4
  1
Cavity
304
ACVALUE_END
170
5
140
0.125
171
1
172
0
173
0
174
0
175
2
176
1
 91
33
178
0
145
0.0
301
CELL_VALUE
 90
4
  1
T-17A
304
ACVALUE_END
170
5
140
0.125
171
1
172
0
173
1
174
0
175
1
176
1
 91
1
178
0
145
0.0
170
1
171
1
172
0
173
0
174
0
175
1
176
1
 91
33
178
0
145
0.0
301
CELL_VALUE
 90
4
  1
Body Features
304
ACVALUE_END
170
5
140
0.125
171
1
172
0
173
0
174
0
175
2
176
1
 91
33
178
0
145
0.0
301
CELL_VALUE
 90
4
  1
Ninety degree with reverse flow check - reducing
304
ACVALUE_END
170
5
140
0.125
171
1
172
0
173
1
174
0
175
1
176
1
 91
1
178
0
145
0.0
170
1
171
1
172
0
173
0
174
0
175
1
176
1
 91
33
178
0
145
0.0
301
CELL_VALUE
 90
4
  1
Body Type
304
ACVALUE_END
170
5
140
0.125
171
1
172
0
173
0
174
0
175
2
176
1
 91
33
178
0
145
0.0
301
CELL_VALUE
 90
4
  1
Line mount
304
ACVALUE_END
170
5
140
0.125
171
1
172
0
173
1
174
0
175
1
176
1
 91
1
178
0
145
0.0
170
1
171
1
172
0
173
0
174
0
175
1
176
1
 91
33
178
0
145
0.0
301
CELL_VALUE
 90
4
  1
Interface
304
ACVALUE_END
170
5
140
0.125
171
1
172
0
173
0
174
0
175
2
176
1
 91
33
178
0
145
0.0
301
CELL_VALUE
 90
4
  1
None
304
ACVALUE_END
170
5
140
0.125
171
1
172
0
173
1
174
0
175
1
176
1
 91
1
178
0
145
0.0
170
1
171
1
172
0
173
0
174
0
175
1
176
1
 91
33
178
0
145
0.0
301
CELL_VALUE
 90
4
  1
Open Cavity Quantity
304
ACVALUE_END
170
5
140
0.125
171
1
172
0
173
0
174
0
175
2
176
1
 91
33
178
0
145
0.0
301
CELL_VALUE
 90
4
  1
1
304
ACVALUE_END
170
5
140
0.125
171
1
172
0
173
1
174
0
175
1
176
1
 91
1
178
0
145
0.0
170
1
171
1
172
0
173
0
174
0
175
1
176
1
 91
33
178
0
145
0.0
301
CELL_VALUE
 90
4
  1
Weight
304
ACVALUE_END
170
5
140
0.125
171
1
172
0
173
0
174
0
175
1
176
1
 91
33
178
0
145
0.0
301
CELL_VALUE
 90
4
  1
6.262 lb.
304
ACVALUE_END
170
5
140
0.125
171
1
172
0
173
0
174
0
175
1
176
1
 91
33
178
0
145
0.0
301
CELL_VALUE
 90
4
  1
2,840 kg.
304
ACVALUE_END
170
5
140
0.125
171
1
172
0
173
0
174
0
175
1
176
1
 91
33
178
0
145
0.0
301
CELL_VALUE
 90
4
  1
Mounting Hole Diameter
304
ACVALUE_END
170
5
140
0.125
171
1
172
0
173
0
174
0
175
1
176
1
 91
33
178
0
145
0.0
301
CELL_VALUE
 90
4
  1
.41 in.
304
ACVALUE_END
170
5
140
0.125
171
1
172
0
173
0
174
0
175
1
176
1
 91
33
178
0
145
0.0
301
CELL_VALUE
 90
4
  1
10,4 mm
304
ACVALUE_END
170
5
140
0.125
171
1
172
0
173
0
174
0
175
1
176
1
 91
33
178
0
145
0.0
301
CELL_VALUE
 90
4
  1
Mounting Hole Depth
304
ACVALUE_END
170
5
140
0.125
171
1
172
0
173
0
174
0
175
2
176
1
 91
33
178
0
145
0.0
301
CELL_VALUE
 90
4
  1
Through
304
ACVALUE_END
170
5
140
0.125
171
1
172
0
173
1
174
0
175
1
176
1
 91
1
178
0
145
0.0
170
1
171
1
172
0
173
0
174
0
175
1
176
1
 91
33
178
0
145
0.0
301
CELL_VALUE
 90
4
  1
Mounting Hole Quantity
304
ACVALUE_END
170
5
140
0.125
171
1
172
0
173
0
174
0
175
2
176
1
 91
33
178
0
145
0.0
301
CELL_VALUE
 90
4
  1
2
304
ACVALUE_END
170
5
140
0.125
171
1
172
0
173
1
174
0
175
1
176
1
 91
1
178
0
145
0.0
170
1
  0
ACAD_TABLE
  5
28B
100
AcDbEntity
  8
0
 62
2
  6
CONTINUOUS
100
AcDbBlockReference
  2
*T3
 10
0.52125
 20
1.959
 30
0.0
100
AcDbTable
342
       3C4
343
209
 11
1.0
 21
0.0
 31
0.0
 90
22
 91
5
 92
3
 93
16
 94
0
 95
0
 96
0
 41
0.05
141
0.34375
141
0.344
141
0.25
141
0.25
141
0.25
142
1.3
142
2.0
142
1.3
171
1
172
0
173
0
174
0
175
3
176
1
 91
33
178
0
145
0.0
301
CELL_VALUE
 90
4
  1
Port Headings
304
ACVALUE_END
170
5
140
0.145
171
1
172
0
173
1
174
0
175
1
176
1
 91
1
178
0
145
0.0
170
1
171
1
172
0
173
1
174
0
175
1
176
1
 91
1
178
0
145
0.0
170
1
171
1
172
0
173
0
174
0
175
1
176
1
 91
33
178
0
145
0.0
301
CELL_VALUE
 90
4
  1
Product
304
ACVALUE_END
170
5
140
0.145
171
1
172
0
173
0
174
0
175
1
176
1
 91
33
178
0
145
0.0
301
CELL_VALUE
 90
4
  1
Port
304
ACVALUE_END
170
5
140
0.145
171
1
172
0
173
0
174
0
175
1
176
1
 91
33
178
0
145
0.0
301
CELL_VALUE
 90
4
  1
Size
304
ACVALUE_END
170
5
140
0.145
171
1
172
0
173
0
174
0
175
1
176
1
 91
33
178
0
145
0.0
301
CELL_VALUE
 90
4
  1
H4L
304
ACVALUE_END
170
5
140
0.125
171
1
172
0
173
0
174
0
175
1
176
1
 91
33
178
0
145
0.0
301
CELL_VALUE
 90
4
  1
Ports 1 &  2
304
ACVALUE_END
170
5
140
0.125
171
1
172
0
173
0
174
0
175
1
176
1
 91
33
178
0
145
0.0
301
CELL_VALUE
 90
4
  1
SAE 12
304
ACVALUE_END
170
5
140
0.125
171
1
172
0
173
0
174
0
175
1
176
1
 91
33
178
0
145
0.0
301
CELL_VALUE
 90
4
  1
H4L
304
ACVALUE_END
170
5
140
0.125
171
1
172
0
173
0
174
0
175
1
176
1
 91
33
178
0
145
0.0
301
CELL_VALUE
 90
4
  1
Port 3
304
ACVALUE_END
170
5
140
0.125
171
1
172
0
173
0
174
0
175
1
176
1
 91
33
178
0
145
0.0
301
CELL_VALUE
 90
4
  1
SAE 12
304
ACVALUE_END
170
5
140
0.125
171
1
172
0
173
0
174
0
175
1
176
1
 91
33
178
0
145
0.0
301
CELL_VALUE
 90
4
  1
H4L
304
ACVALUE_END
170
5
140
0.125
171
1
172
0
173
0
174
0
175
1
176
1
 91
33
178
0
145
0.0
301
CELL_VALUE
 90
4
  1
Gage Port
304
ACVALUE_END
170
5
140
0.125
171
1
172
0
173
0
174
0
175
1
176
1
 91
33
178
0
145
0.0
301
CELL_VALUE
 90
4
  1
1/4" NPTF
304
ACVALUE_END
170
5
140
0.125
  0
MTEXT
  5
28C
100
AcDbEntity
  8
0
100
AcDbMText
 62
2
  6
CONTINUOUS
  7
STANDARD
 71
1
 72
1
 10
0.52125
 20
5.75995
 30
0.0
 11
1.0
 21
0.0
 31
0.0
 44
0.6
  3
Notes\P \P1. Important: Carefully consider\P   the maximum system pressure. The\P   pressure rating of the manifold is\P   dependent on the manifold material,\P   with the port type/size a secondary\P   consideration. Manifolds\P   constructed of alu
  1
minum are not\P   rated for pressures higher than\P   3000 psi (210 bar), regardless of\P   the port type/size specified.
 40
0.1
 41
3.04
  0
LINE
  5
28D
100
AcDbEntity
  8
0
100
AcDbLine
 62
7
  6
CONTINUOUS
 10
0.30125
 20
0.30125
 11
0.30125
 21
16.69875
  0
LINE
  5
28E
100
AcDbEntity
  8
0
100
AcDbLine
 62
7
  6
CONTINUOUS
 10
0.30125
 20
0.30125
 11
21.69875
 21
0.30125
  0
LINE
  5
28F
100
AcDbEntity
  8
0
100
AcDbLine
 62
7
  6
CONTINUOUS
 10
0.30125
 20
16.69875
 11
21.69875
 21
16.69875
  0
LINE
  5
290
100
AcDbEntity
  8
0
100
AcDbLine
 62
7
  6
CONTINUOUS
 10
21.69875
 20
0.30125
 11
21.69875
 21
16.69875
  0
LINE
  5
291
100
AcDbEntity
  8
0
100
AcDbLine
 62
7
  6
CONTINUOUS
 10
8.3107079034
 20
11.4115292352
 11
7.6636608247
 21
10.7865297139
  0
LINE
  5
292
100
AcDbEntity
  8
0
100
AcDbLine
 62
4
  6
CONTINUOUS
 10
8.3417405997
 20
6.1489417391
 11
8.3320813434
 21
6.1641004988
  0
LINE
  5
293
100
AcDbEntity
  8
0
100
AcDbLine
 62
7
  6
CONTINUOUS
 10
7.6636608247
 20
10.7865297139
 11
7.6636608247
 21
5.9569002963
  0
LINE
  5
294
100
AcDbEntity
  8
0
100
AcDbLine
 62
4
  6
CONTINUOUS
 10
8.3610591192
 20
6.198313103
 11
8.3707183756
 21
6.1903987873
  0
LINE
  5
295
100
AcDbEntity
  8
0
100
AcDbLine
 62
4
  6
CONTINUOUS
 10
8.419014671
 20
6.2015383158
 11
8.4383331879
 21
6.1857096842
  0
LINE
  5
296
100
AcDbEntity
  8
0
100
AcDbLine
 62
4
  6
CONTINUOUS
 10
8.3707183756
 20
6.1903987873
 11
8.3803776388
 21
6.1752400272
  0
LINE
  5
297
100
AcDbEntity
  8
0
100
AcDbLine
 62
4
  6
CONTINUOUS
 10
8.4383331879
 20
6.1857096842
 11
8.4479924468
 21
6.1705509244
  0
LINE
  5
298
100
AcDbEntity
  8
0
100
AcDbLine
 62
4
  6
CONTINUOUS
 10
7.9148016459
 20
8.0633132048
 11
7.9148016459
 21
7.9956983927
  0
LINE
  5
299
100
AcDbEntity
  8
0
100
AcDbLine
 62
4
  6
CONTINUOUS
 10
7.9148016459
 20
7.5815576684
 11
7.9148016459
 21
7.6660761835
  0
LINE
  5
29A
100
AcDbEntity
  8
0
100
AcDbLine
 62
4
  6
CONTINUOUS
 10
7.9824164581
 20
7.7290018925
 11
7.9824164581
 21
7.7797130016
  0
LINE
  5
29B
100
AcDbEntity
  8
0
100
AcDbLine
 62
4
  6
CONTINUOUS
 10
8.0049547274
 20
8.133127731
 11
8.0049547274
 21
8.1838388401
  0
LINE
  5
29C
100
AcDbEntity
  8
0
100
AcDbLine
 62
4
  6
CONTINUOUS
 10
8.3320813434
 20
6.1641004988
 11
8.3320813434
 21
6.1785893867
  0
LINE
  5
29D
100
AcDbEntity
  8
0
100
AcDbLine
 62
4
  6
CONTINUOUS
 10
8.3803776388
 20
6.1607511393
 11
8.3803776388
 21
6.1752400272
  0
LINE
  5
29E
100
AcDbEntity
  8
0
100
AcDbLine
 62
7
  6
CONTINUOUS
 10
7.6636608247
 20
5.9569002963
 11
12.9762531841
 21
5.5884707648
  0
LINE
  5
29F
100
AcDbEntity
  8
0
100
AcDbLine
 62
4
  6
CONTINUOUS
 10
8.4479924468
 20
6.1705509244
 11
8.4479924468
 21
6.1560620364
  0
LINE
  5
2A0
100
AcDbEntity
  8
0
100
AcDbLine
 62
4
  6
CONTINUOUS
 10
9.5922928356
 20
10.4704601194
 11
9.6035619763
 21
10.4781304534
  0
LINE
  5
2A1
100
AcDbEntity
  8
0
100
AcDbLine
 62
4
  6
CONTINUOUS
 10
8.3513998629
 20
6.1989829747
 11
8.3610591192
 21
6.198313103
  0
LINE
  5
2A2
100
AcDbEntity
  8
0
100
AcDbLine
 62
4
  6
CONTINUOUS
 10
11.5321939908
 20
5.9783941527
 11
11.6481050942
 21
5.9703556904
  0
LINE
  5
2A3
100
AcDbEntity
  8
0
100
AcDbLine
 62
4
  6
CONTINUOUS
 10
8.4093554112
 20
6.2022081877
 11
8.419014671
 21
6.2015383158
  0
LINE
  5
2A4
100
AcDbEntity
  8
0
100
AcDbLine
 62
4
  6
CONTINUOUS
 10
9.5810237029
 20
10.4543379334
 11
9.5922928356
 21
10.4704601194
  0
LINE
  5
2A5
100
AcDbEntity
  8
0
100
AcDbLine
 62
4
  6
CONTINUOUS
 10
9.5278977796
 20
7.6290668257
 11
9.5278977796
 21
7.6677038609
  0
LINE
  5
2A6
100
AcDbEntity
  8
0
100
AcDbLine
 62
4
  6
CONTINUOUS
 10
9.5278977796
 20
8.6787062741
 11
9.5278977796
 21
8.6819260148
  0
LINE
  5
2A7
100
AcDbEntity
  8
0
100
AcDbLine
 62
4
  6
CONTINUOUS
 10
7.9598781847
 20
8.0432834332
 11
7.9148016459
 21
8.0633132048
  0
LINE
  5
2A8
100
AcDbEntity
  8
0
100
AcDbLine
 62
4
  6
CONTINUOUS
 10
9.5472162962
 20
7.6084085634
 11
9.5278977796
 21
7.6290668257
  0
LINE
  5
2A9
100
AcDbEntity
  8
0
100
AcDbLine
 62
4
  6
CONTINUOUS
 10
9.6631274039
 20
7.6486663964
 11
9.6438088852
 21
7.6693246568
  0
LINE
  5
2AA
100
AcDbEntity
  8
0
100
AcDbLine
 62
4
  6
CONTINUOUS
 10
9.6631274039
 20
7.7549182497
 11
9.6438088852
 21
7.7755765021
  0
LINE
  5
2AB
100
AcDbEntity
  8
0
100
AcDbLine
 62
4
  6
CONTINUOUS
 10
9.5665348128
 20
8.4442046198
 11
9.5665348128
 21
8.3959083162
  0
LINE
  5
2AC
100
AcDbEntity
  8
0
100
AcDbLine
 62
4
  6
CONTINUOUS
 10
9.5665348128
 20
8.0320762011
 11
9.5665348128
 21
8.0803725047
  0
LINE
  5
2AD
100
AcDbEntity
  8
0
100
AcDbLine
 62
4
  6
CONTINUOUS
 10
9.5665348128
 20
8.2317008968
 11
9.5665348128
 21
8.2703379139
  0
LINE
  5
2AE
100
AcDbEntity
  8
0
100
AcDbLine
 62
4
  6
CONTINUOUS
 10
9.5665348128
 20
8.3089749955
 11
9.5665348128
 21
8.3476120126
  0
LINE
  5
2AF
100
AcDbEntity
  8
0
100
AcDbLine
 62
4
  6
CONTINUOUS
 10
9.5665348128
 20
8.737202053
 11
9.5665348128
 21
8.7758391991
  0
LINE
  5
2B0
100
AcDbEntity
  8
0
100
AcDbLine
 62
4
  6
CONTINUOUS
 10
9.5665348128
 20
8.8241354382
 11
9.5665348128
 21
8.8627724553
  0
LINE
  5
2B1
100
AcDbEntity
  8
0
100
AcDbLine
 62
4
  6
CONTINUOUS
 10
9.5810237029
 20
10.4374342304
 11
9.5810237029
 21
10.4543379334
  0
LINE
  5
2B2
100
AcDbEntity
  8
0
100
AcDbLine
 62
4
  6
CONTINUOUS
 10
9.6148311083
 20
8.4118774652
 11
9.6148311083
 21
8.4505144823
  0
LINE
  5
2B3
100
AcDbEntity
  8
0
100
AcDbLine
 62
4
  6
CONTINUOUS
 10
9.6631274039
 20
8.7691404801
 11
9.6631274039
 21
8.7305033341
  0
LINE
  5
2B4
100
AcDbEntity
  8
0
100
AcDbLine
 62
4
  6
CONTINUOUS
 10
9.6631274039
 20
8.6113725422
 11
9.6631274039
 21
8.5920540336
  0
LINE
  5
2B5
100
AcDbEntity
  8
0
100
AcDbLine
 62
4
  6
CONTINUOUS
 10
9.6631274039
 20
8.4471651228
 11
9.6631274039
 21
8.4085281058
  0
LINE
  5
2B6
100
AcDbEntity
  8
0
100
AcDbLine
 62
4
  6
CONTINUOUS
 10
9.6631274039
 20
8.263639195
 11
9.6631274039
 21
8.2250021779
  0
LINE
  5
2B7
100
AcDbEntity
  8
0
100
AcDbLine
 62
4
  6
CONTINUOUS
 10
9.6631274039
 20
7.6100293601
 11
9.6631274039
 21
7.6486663964
  0
LINE
  5
2B8
100
AcDbEntity
  8
0
100
AcDbLine
 62
4
  6
CONTINUOUS
 10
9.6631274039
 20
7.7259404628
 11
9.6631274039
 21
7.7549182497
  0
LINE
  5
2B9
100
AcDbEntity
  8
0
100
AcDbLine
 62
4
  6
CONTINUOUS
 10
9.6631274039
 20
8.4954614264
 11
9.6631274039
 21
8.54375773
  0
LINE
  5
2BA
100
AcDbEntity
  8
0
100
AcDbLine
 62
4
  6
CONTINUOUS
 10
9.6631274039
 20
8.8174367192
 11
9.6631274039
 21
8.8560737363
  0
LINE
  5
2BB
100
AcDbEntity
  8
0
100
AcDbLine
 62
4
  6
CONTINUOUS
 10
9.6953249335
 20
8.1197371831
 11
9.6953249335
 21
8.1390556916
  0
LINE
  5
2BC
100
AcDbEntity
  8
0
100
AcDbLine
 62
4
  6
CONTINUOUS
 10
9.7162533272
 20
10.4027004695
 11
9.7162533272
 21
10.4703152817
  0
LINE
  5
2BD
100
AcDbEntity
  8
0
100
AcDbLine
 62
4
  6
CONTINUOUS
 10
9.6180508611
 20
8.8591998052
 11
9.6116113556
 21
8.8210093693
  0
LINE
  5
2BE
100
AcDbEntity
  8
0
100
AcDbLine
 62
4
  6
CONTINUOUS
 10
9.6631274039
 20
8.4085281058
 11
9.6534681446
 21
8.3898794691
  0
LINE
  5
2BF
100
AcDbEntity
  8
0
100
AcDbLine
 62
4
  6
CONTINUOUS
 10
9.6244903666
 20
8.868412446
 11
9.6180508611
 21
8.8591998052
  0
LINE
  5
2C0
100
AcDbEntity
  8
0
100
AcDbLine
 62
4
  6
CONTINUOUS
 10
9.6116113556
 20
8.8210093693
 11
9.60517185
 21
8.8117967285
  0
LINE
  5
2C1
100
AcDbEntity
  8
0
100
AcDbLine
 62
4
  6
CONTINUOUS
 10
9.5665348128
 20
8.8627724553
 11
9.5761940751
 21
8.8717618052
  0
LINE
  5
2C2
100
AcDbEntity
  8
0
100
AcDbLine
 62
4
  6
CONTINUOUS
 10
9.6534681446
 20
8.8084473691
 11
9.6631274039
 21
8.8174367192
  0
LINE
  5
2C3
100
AcDbEntity
  8
0
100
AcDbLine
 62
4
  6
CONTINUOUS
 10
7.9936855948
 20
8.0324870298
 11
7.9598781847
 21
8.0432834332
  0
LINE
  5
2C4
100
AcDbEntity
  8
0
100
AcDbLine
 62
4
  6
CONTINUOUS
 10
8.0500312702
 20
8.1130979591
 11
7.9148016459
 21
8.164735423
  0
LINE
  5
2C5
100
AcDbEntity
  8
0
100
AcDbLine
 62
4
  6
CONTINUOUS
 10
9.5761940751
 20
8.2117125162
 11
9.5665348128
 21
8.2317008968
  0
LINE
  5
2C6
100
AcDbEntity
  8
0
100
AcDbLine
 62
4
  6
CONTINUOUS
 10
9.6244903666
 20
8.3918890848
 11
9.6148311083
 21
8.4118774652
  0
LINE
  5
2C7
100
AcDbEntity
  8
0
100
AcDbLine
 62
4
  6
CONTINUOUS
 10
9.9780192398
 20
8.0808137188
 11
9.9780192398
 21
8.148428531
  0
LINE
  5
2C8
100
AcDbEntity
  8
0
100
AcDbLine
 62
4
  6
CONTINUOUS
 10
10.0263155373
 20
8.2513310167
 11
10.0263155373
 21
8.1837162046
  0
LINE
  5
2C9
100
AcDbEntity
  8
0
100
AcDbLine
 62
4
  6
CONTINUOUS
 10
10.0552933142
 20
8.2879584342
 11
10.0552933142
 21
8.3362547378
  0
LINE
  5
2CA
100
AcDbEntity
  8
0
100
AcDbLine
 62
4
  6
CONTINUOUS
 10
9.6631274039
 20
8.2250021779
 11
9.6534681446
 21
8.2063535413
  0
LINE
  5
2CB
100
AcDbEntity
  8
0
100
AcDbLine
 62
4
  6
CONTINUOUS
 10
8.3320813434
 20
6.1785893867
 11
8.3417405997
 21
6.1924084029
  0
LINE
  5
2CC
100
AcDbEntity
  8
0
100
AcDbLine
 62
4
  6
CONTINUOUS
 10
9.6631274039
 20
8.7305033341
 11
9.6534681446
 21
8.721513984
  0
LINE
  5
2CD
100
AcDbEntity
  8
0
100
AcDbLine
 62
4
  6
CONTINUOUS
 10
9.6631274039
 20
8.5920540336
 11
9.6534681446
 21
8.583064619
  0
LINE
  5
2CE
100
AcDbEntity
  8
0
100
AcDbLine
 62
4
  6
CONTINUOUS
 10
9.6534681446
 20
8.4864720118
 11
9.6631274039
 21
8.4954614264
  0
LINE
  5
2CF
100
AcDbEntity
  8
0
100
AcDbLine
 62
4
  6
CONTINUOUS
 10
11.6577643114
 20
7.5018858753
 11
11.6239569054
 21
7.4957785753
  0
LINE
  5
2D0
100
AcDbEntity
  8
0
100
AcDbLine
 62
4
  6
CONTINUOUS
 10
7.9148016459
 20
7.6238169259
 11
8.0500312702
 21
7.6144387196
  0
LINE
  5
2D1
100
AcDbEntity
  8
0
100
AcDbLine
 62
4
  6
CONTINUOUS
 10
9.5665348128
 20
7.6070688198
 11
9.5472162962
 21
7.6084085634
  0
LINE
  5
2D2
100
AcDbEntity
  8
0
100
AcDbLine
 62
4
  6
CONTINUOUS
 10
9.6438088852
 20
7.6693246568
 11
9.6244903666
 21
7.6706644006
  0
LINE
  5
2D3
100
AcDbEntity
  8
0
100
AcDbLine
 62
4
  6
CONTINUOUS
 10
9.5278977796
 20
7.7160001525
 11
9.6438088852
 21
7.70796169
  0
LINE
  5
2D4
100
AcDbEntity
  8
0
100
AcDbLine
 62
4
  6
CONTINUOUS
 10
11.6239569054
 20
7.5802970905
 11
11.6690334461
 21
7.5771710218
  0
LINE
  5
2D5
100
AcDbEntity
  8
0
100
AcDbLine
 62
4
  6
CONTINUOUS
 10
8.0500312702
 20
8.0201275924
 11
7.9936855948
 21
8.0324870298
  0
LINE
  5
2D6
100
AcDbEntity
  8
0
100
AcDbLine
 62
4
  6
CONTINUOUS
 10
10.3527984876
 20
7.8230005407
 11
10.2175688634
 21
7.8710157802
  0
LINE
  5
2D7
100
AcDbEntity
  8
0
100
AcDbLine
 62
4
  6
CONTINUOUS
 10
10.333479969
 20
7.7696044835
 11
10.3527984876
 21
7.748946223
  0
LINE
  5
2D8
100
AcDbEntity
  8
0
100
AcDbLine
 62
4
  6
CONTINUOUS
 10
9.5761940751
 20
8.7268729589
 11
9.5665348128
 21
8.737202053
  0
LINE
  5
2D9
100
AcDbEntity
  8
0
100
AcDbLine
 62
4
  6
CONTINUOUS
 10
10.2690849076
 20
7.6806974659
 11
10.2948429338
 21
7.6273950924
  0
LINE
  5
2DA
100
AcDbEntity
  8
0
100
AcDbLine
 62
4
  6
CONTINUOUS
 10
10.2175688634
 20
7.7100281419
 11
10.2175688634
 21
7.7583244293
  0
LINE
  5
2DB
100
AcDbEntity
  8
0
100
AcDbLine
 62
4
  6
CONTINUOUS
 10
10.2175688634
 20
7.9482898466
 11
10.2175688634
 21
8.025563913
  0
LINE
  5
2DC
100
AcDbEntity
  8
0
100
AcDbLine
 62
4
  6
CONTINUOUS
 10
10.2175688634
 20
8.0642009623
 11
10.2175688634
 21
8.1221565202
  0
LINE
  5
2DD
100
AcDbEntity
  8
0
100
AcDbLine
 62
4
  6
CONTINUOUS
 10
10.2175688634
 20
8.2863639395
 11
10.2175688634
 21
8.3250009566
  0
LINE
  5
2DE
100
AcDbEntity
  8
0
100
AcDbLine
 62
4
  6
CONTINUOUS
 10
10.2175688634
 20
8.3990552501
 11
10.2175688634
 21
8.4280330451
  0
LINE
  5
2DF
100
AcDbEntity
  8
0
100
AcDbLine
 62
4
  6
CONTINUOUS
 10
10.2175688634
 20
8.4859885708
 11
10.2175688634
 21
8.5342848744
  0
LINE
  5
2E0
100
AcDbEntity
  8
0
100
AcDbLine
 62
4
  6
CONTINUOUS
 10
10.2175688634
 20
8.6083392323
 11
10.2175688634
 21
8.666294758
  0
LINE
  5
2E1
100
AcDbEntity
  8
0
100
AcDbLine
 62
4
  6
CONTINUOUS
 10
10.2755244132
 20
8.6429570184
 11
10.2755244132
 21
8.6043200013
  0
LINE
  5
2E2
100
AcDbEntity
  8
0
100
AcDbLine
 62
4
  6
CONTINUOUS
 10
10.2755244132
 20
8.0988187806
 11
10.2755244132
 21
8.0601817313
  0
LINE
  5
2E3
100
AcDbEntity
  8
0
100
AcDbLine
 62
4
  6
CONTINUOUS
 10
10.3141614504
 20
7.8385590394
 11
10.3141614504
 21
7.8900750837
  0
LINE
  5
2E4
100
AcDbEntity
  8
0
100
AcDbLine
 62
4
  6
CONTINUOUS
 10
10.3527984876
 20
8.5249066681
 11
10.3527984876
 21
8.4766103645
  0
LINE
  5
2E5
100
AcDbEntity
  8
0
100
AcDbLine
 62
4
  6
CONTINUOUS
 10
10.3527984876
 20
8.4186548388
 11
10.3527984876
 21
8.3896770438
  0
LINE
  5
2E6
100
AcDbEntity
  8
0
100
AcDbLine
 62
4
  6
CONTINUOUS
 10
10.3527984876
 20
8.3156227503
 11
10.3527984876
 21
8.2769857332
  0
LINE
  5
2E7
100
AcDbEntity
  8
0
100
AcDbLine
 62
4
  6
CONTINUOUS
 10
10.3527984876
 20
7.748946223
 11
10.3527984876
 21
7.7006499356
  0
LINE
  5
2E8
100
AcDbEntity
  8
0
100
AcDbLine
 62
4
  6
CONTINUOUS
 10
10.3527984876
 20
8.054822756
 11
10.3527984876
 21
8.1127783139
  0
LINE
  5
2E9
100
AcDbEntity
  8
0
100
AcDbLine
 62
4
  6
CONTINUOUS
 10
10.3527984876
 20
8.598961026
 11
10.3527984876
 21
8.6569165517
  0
LINE
  5
2EA
100
AcDbEntity
  8
0
100
AcDbLine
 62
4
  6
CONTINUOUS
 10
10.2690849076
 20
8.7013591252
 11
10.2948429338
 21
8.7510888443
  0
LINE
  5
2EB
100
AcDbEntity
  8
0
100
AcDbLine
 62
4
  6
CONTINUOUS
 10
8.3803776388
 20
6.1752400272
 11
8.3900368951
 21
6.1890590435
  0
LINE
  5
2EC
100
AcDbEntity
  8
0
100
AcDbLine
 62
4
  6
CONTINUOUS
 10
8.4479924468
 20
6.1560620364
 11
8.4383331879
 21
6.1422430204
  0
LINE
  5
2ED
100
AcDbEntity
  8
0
100
AcDbLine
 62
4
  6
CONTINUOUS
 10
9.5665348128
 20
8.0803725047
 11
9.5761940751
 21
8.0893618869
  0
LINE
  5
2EE
100
AcDbEntity
  8
0
100
AcDbLine
 62
4
  6
CONTINUOUS
 10
10.2175688634
 20
8.5342848744
 11
10.23688738
 21
8.5522636392
  0
LINE
  5
2EF
100
AcDbEntity
  8
0
100
AcDbLine
 62
4
  6
CONTINUOUS
 10
9.5665348128
 20
8.3476120126
 11
9.5761940751
 21
8.3533816218
  0
LINE
  5
2F0
100
AcDbEntity
  8
0
100
AcDbLine
 62
4
  6
CONTINUOUS
 10
10.3527984876
 20
7.7006499356
 11
10.2175688634
 21
7.7100281419
  0
LINE
  5
2F1
100
AcDbEntity
  8
0
100
AcDbLine
 62
4
  6
CONTINUOUS
 10
7.9148016459
 20
7.8942761745
 11
8.0500312702
 21
7.8848979682
  0
LINE
  5
2F2
100
AcDbEntity
  8
0
100
AcDbLine
 62
4
  6
CONTINUOUS
 10
9.6438088852
 20
7.7755765021
 11
9.5278977796
 21
7.7836149646
  0
LINE
  5
2F3
100
AcDbEntity
  8
0
100
AcDbLine
 62
4
  6
CONTINUOUS
 10
9.6631274039
 20
7.8128737915
 11
9.5278977796
 21
7.8222519978
  0
LINE
  5
2F4
100
AcDbEntity
  8
0
100
AcDbLine
 62
4
  6
CONTINUOUS
 10
10.23688738
 20
7.7763032023
 11
10.333479969
 21
7.7696044835
  0
LINE
  5
2F5
100
AcDbEntity
  8
0
100
AcDbLine
 62
4
  6
CONTINUOUS
 10
9.6631274039
 20
7.8804886036
 11
9.5278977796
 21
7.8898668099
  0
LINE
  5
2F6
100
AcDbEntity
  8
0
100
AcDbLine
 62
4
  6
CONTINUOUS
 10
9.6631274039
 20
8.0253774822
 11
9.5278977796
 21
8.0347556885
  0
LINE
  5
2F7
100
AcDbEntity
  8
0
100
AcDbLine
 62
4
  6
CONTINUOUS
 10
10.3527984876
 20
7.9775486896
 11
10.2175688634
 21
7.9869268959
  0
LINE
  5
2F8
100
AcDbEntity
  8
0
100
AcDbLine
 62
4
  6
CONTINUOUS
 10
11.6239569054
 20
7.4957785753
 11
11.5901494993
 21
7.5065749784
  0
LINE
  5
2F9
100
AcDbEntity
  8
0
100
AcDbLine
 62
4
  6
CONTINUOUS
 10
10.0263155373
 20
8.1837162046
 11
9.92006369
 21
8.2200625741
  0
LINE
  5
2FA
100
AcDbEntity
  8
0
100
AcDbLine
 62
4
  6
CONTINUOUS
 10
9.6953249335
 20
8.1390556916
 11
9.5665348128
 21
8.1866243339
  0
LINE
  5
2FB
100
AcDbEntity
  8
0
100
AcDbLine
 62
4
  6
CONTINUOUS
 10
9.5761940751
 20
8.813806344
 11
9.5665348128
 21
8.8241354382
  0
LINE
  5
2FC
100
AcDbEntity
  8
0
100
AcDbLine
 62
4
  6
CONTINUOUS
 10
9.6631274039
 20
8.8560737363
 11
9.6534681446
 21
8.8664028303
  0
LINE
  5
2FD
100
AcDbEntity
  8
0
100
AcDbLine
 62
4
  6
CONTINUOUS
 10
10.23688738
 20
8.2657056873
 11
10.2175688634
 21
8.2863639395
  0
LINE
  5
2FE
100
AcDbEntity
  8
0
100
AcDbLine
 62
4
  6
CONTINUOUS
 10
10.23688738
 20
8.3783969979
 11
10.2175688634
 21
8.3990552501
  0
LINE
  5
2FF
100
AcDbEntity
  8
0
100
AcDbLine
 62
4
  6
CONTINUOUS
 10
9.6244903666
 20
7.6706644006
 11
9.5665348128
 21
7.6070688198
  0
LINE
  5
300
100
AcDbEntity
  8
0
100
AcDbLine
 62
4
  6
CONTINUOUS
 10
10.2175688634
 20
8.4280330451
 11
10.23688738
 21
8.44601181
  0
LINE
  5
301
100
AcDbEntity
  8
0
100
AcDbLine
 62
4
  6
CONTINUOUS
 10
9.5278977796
 20
7.6677038609
 11
9.5375570419
 21
7.6766932471
  0
LINE
  5
302
100
AcDbEntity
  8
0
100
AcDbLine
 62
4
  6
CONTINUOUS
 10
10.3527984876
 20
8.3896770438
 11
10.333479969
 21
8.3716982791
  0
LINE
  5
303
100
AcDbEntity
  8
0
100
AcDbLine
 62
4
  6
CONTINUOUS
 10
9.6438088852
 20
7.70796169
 11
9.6631274039
 21
7.7259404628
  0
LINE
  5
304
100
AcDbEntity
  8
0
100
AcDbLine
 62
4
  6
CONTINUOUS
 10
10.3527984876
 20
8.2769857332
 11
10.333479969
 21
8.2590069685
  0
LINE
  5
305
100
AcDbEntity
  8
0
100
AcDbLine
 62
4
  6
CONTINUOUS
 10
9.6534681446
 20
7.6010399727
 11
9.6631274039
 21
7.6100293601
  0
LINE
  5
306
100
AcDbEntity
  8
0
100
AcDbLine
 62
4
  6
CONTINUOUS
 10
9.5858533294
 20
8.4525240981
 11
9.5665348128
 21
8.4442046198
  0
LINE
  5
307
100
AcDbEntity
  8
0
100
AcDbLine
 62
4
  6
CONTINUOUS
 10
10.2175688634
 20
7.8710157802
 11
10.3527984876
 21
7.9002746232
  0
LINE
  5
308
100
AcDbEntity
  8
0
100
AcDbLine
 62
4
  6
CONTINUOUS
 10
9.5761940751
 20
8.0893618869
 11
9.6631274039
 21
8.08333304
  0
LINE
  5
309
100
AcDbEntity
  8
0
100
AcDbLine
 62
4
  6
CONTINUOUS
 10
10.0552933142
 20
8.0754547436
 11
9.92006369
 21
8.0848329499
  0
LINE
  5
30A
100
AcDbEntity
  8
0
100
AcDbLine
 62
4
  6
CONTINUOUS
 10
10.3527984876
 20
8.054822756
 11
10.2175688634
 21
8.0642009623
  0
LINE
  5
30B
100
AcDbEntity
  8
0
100
AcDbLine
 62
4
  6
CONTINUOUS
 10
9.92006369
 20
8.152447762
 11
10.0552933142
 21
8.1430695557
  0
LINE
  5
30C
100
AcDbEntity
  8
0
100
AcDbLine
 62
4
  6
CONTINUOUS
 10
9.6534681446
 20
8.2063535413
 11
9.5761940751
 21
8.2117125162
  0
LINE
  5
30D
100
AcDbEntity
  8
0
100
AcDbLine
 62
4
  6
CONTINUOUS
 10
10.0552933142
 20
8.2267831357
 11
9.9876785021
 21
8.2314722389
  0
LINE
  5
30E
100
AcDbEntity
  8
0
100
AcDbLine
 62
4
  6
CONTINUOUS
 10
9.5278977796
 20
8.2730174013
 11
9.6631274039
 21
8.263639195
  0
LINE
  5
30F
100
AcDbEntity
  8
0
100
AcDbLine
 62
4
  6
CONTINUOUS
 10
9.6631274039
 20
8.3022762765
 11
9.5665348128
 21
8.3089749955
  0
LINE
  5
310
100
AcDbEntity
  8
0
100
AcDbLine
 62
4
  6
CONTINUOUS
 10
10.333479969
 20
8.2590069685
 11
10.23688738
 21
8.2657056873
  0
LINE
  5
311
100
AcDbEntity
  8
0
100
AcDbLine
 62
4
  6
CONTINUOUS
 10
9.92006369
 20
8.2973366405
 11
10.0552933142
 21
8.2879584342
  0
LINE
  5
312
100
AcDbEntity
  8
0
100
AcDbLine
 62
4
  6
CONTINUOUS
 10
9.5278977796
 20
8.6819260148
 11
9.5375570419
 21
8.678036402
  0
LINE
  5
313
100
AcDbEntity
  8
0
100
AcDbLine
 62
4
  6
CONTINUOUS
 10
11.5901494993
 20
7.5065749784
 11
11.5676112259
 21
7.525041716
  0
LINE
  5
314
100
AcDbEntity
  8
0
100
AcDbLine
 62
4
  6
CONTINUOUS
 10
11.6690334461
 20
7.5771710218
 11
11.6803025818
 21
7.5679376531
  0
LINE
  5
315
100
AcDbEntity
  8
0
100
AcDbLine
 62
4
  6
CONTINUOUS
 10
10.333479969
 20
8.4393130912
 11
10.3527984876
 21
8.4186548388
  0
LINE
  5
316
100
AcDbEntity
  8
0
100
AcDbLine
 62
4
  6
CONTINUOUS
 10
10.333479969
 20
8.5455649204
 11
10.3527984876
 21
8.5249066681
  0
LINE
  5
317
100
AcDbEntity
  8
0
100
AcDbLine
 62
4
  6
CONTINUOUS
 10
10.2948429338
 20
8.7510888443
 11
10.3206009579
 21
8.697786475
  0
LINE
  5
318
100
AcDbEntity
  8
0
100
AcDbLine
 62
4
  6
CONTINUOUS
 10
10.2948429338
 20
7.6273950924
 11
10.3206009579
 21
7.6771248157
  0
LINE
  5
319
100
AcDbEntity
  8
0
100
AcDbLine
 62
7
  6
CONTINUOUS
 10
13.6233002628
 20
11.0430997037
 11
12.9762531841
 21
10.4181001824
  0
LINE
  5
31A
100
AcDbEntity
  8
0
100
AcDbLine
 62
4
  6
CONTINUOUS
 10
10.2175688634
 20
7.7583244293
 11
10.23688738
 21
7.7763032023
  0
LINE
  5
31B
100
AcDbEntity
  8
0
100
AcDbLine
 62
4
  6
CONTINUOUS
 10
12.5512457832
 20
9.1508190478
 11
12.6864754075
 21
9.2090556537
  0
LINE
  5
31C
100
AcDbEntity
  8
0
100
AcDbLine
 62
4
  6
CONTINUOUS
 10
9.5665348128
 20
8.1286688083
 11
9.6631274039
 21
8.1509478844
  0
LINE
  5
31D
100
AcDbEntity
  8
0
100
AcDbLine
 62
4
  6
CONTINUOUS
 10
9.5761940751
 20
8.3533816218
 11
9.5955125917
 21
8.3520418781
  0
LINE
  5
31E
100
AcDbEntity
  8
0
100
AcDbLine
 62
4
  6
CONTINUOUS
 10
9.6534681446
 20
8.3898794691
 11
9.6244903666
 21
8.3918890848
  0
LINE
  5
31F
100
AcDbEntity
  8
0
100
AcDbLine
 62
4
  6
CONTINUOUS
 10
10.333479969
 20
8.3716982791
 11
10.23688738
 21
8.3783969979
  0
LINE
  5
320
100
AcDbEntity
  8
0
100
AcDbLine
 62
4
  6
CONTINUOUS
 10
9.6631274039
 20
8.4471651228
 11
9.5858533294
 21
8.4525240981
  0
LINE
  5
321
100
AcDbEntity
  8
0
100
AcDbLine
 62
4
  6
CONTINUOUS
 10
9.5665348128
 20
8.4925008589
 11
9.6534681446
 21
8.4864720118
  0
LINE
  5
322
100
AcDbEntity
  8
0
100
AcDbLine
 62
4
  6
CONTINUOUS
 10
10.23688738
 20
8.44601181
 11
10.333479969
 21
8.4393130912
  0
LINE
  5
323
100
AcDbEntity
  8
0
100
AcDbLine
 62
4
  6
CONTINUOUS
 10
10.3527984876
 20
8.4766103645
 11
10.2175688634
 21
8.4859885708
  0
LINE
  5
324
100
AcDbEntity
  8
0
100
AcDbLine
 62
4
  6
CONTINUOUS
 10
9.6631274039
 20
8.54375773
 11
9.5665348128
 21
8.550456449
  0
LINE
  5
325
100
AcDbEntity
  8
0
100
AcDbLine
 62
4
  6
CONTINUOUS
 10
9.6534681446
 20
8.583064619
 11
9.5278977796
 21
8.5917729534
  0
LINE
  5
326
100
AcDbEntity
  8
0
100
AcDbLine
 62
4
  6
CONTINUOUS
 10
10.23688738
 20
8.5522636392
 11
10.333479969
 21
8.5455649204
  0
LINE
  5
327
100
AcDbEntity
  8
0
100
AcDbLine
 62
4
  6
CONTINUOUS
 10
9.5922928356
 20
10.4197490103
 11
9.5810237029
 21
10.4374342304
  0
LINE
  5
328
100
AcDbEntity
  8
0
100
AcDbLine
 62
4
  6
CONTINUOUS
 10
9.6373693824
 20
10.4673340503
 11
9.6599076517
 21
10.4319636099
  0
LINE
  5
329
100
AcDbEntity
  8
0
100
AcDbLine
 62
4
  6
CONTINUOUS
 10
11.5676112259
 20
7.525041716
 11
11.5563420932
 21
7.5427269361
  0
LINE
  5
32A
100
AcDbEntity
  8
0
100
AcDbLine
 62
4
  6
CONTINUOUS
 10
12.5625149159
 20
9.4712078885
 11
12.5850531893
 21
9.4865485569
  0
LINE
  5
32B
100
AcDbEntity
  8
0
100
AcDbLine
 62
4
  6
CONTINUOUS
 10
12.5625149159
 20
9.3444301157
 11
12.5737840566
 21
9.3521004497
  0
LINE
  5
32C
100
AcDbEntity
  8
0
100
AcDbLine
 62
4
  6
CONTINUOUS
 10
12.6752062718
 20
9.2859038345
 11
12.6526680014
 21
9.2705631659
  0
LINE
  5
32D
100
AcDbEntity
  8
0
100
AcDbLine
 62
4
  6
CONTINUOUS
 10
9.5278977796
 20
7.8222519978
 11
9.6631274039
 21
7.8804886036
  0
LINE
  5
32E
100
AcDbEntity
  8
0
100
AcDbLine
 62
4
  6
CONTINUOUS
 10
12.6526680014
 20
9.0001039173
 11
12.6188605953
 21
8.9939966174
  0
LINE
  5
32F
100
AcDbEntity
  8
0
100
AcDbLine
 62
4
  6
CONTINUOUS
 10
10.3527984876
 20
8.598961026
 11
10.2175688634
 21
8.6083392323
  0
LINE
  5
330
100
AcDbEntity
  8
0
100
AcDbLine
 62
4
  6
CONTINUOUS
 10
9.6631274039
 20
8.6693280678
 11
9.5665348128
 21
8.6760267867
  0
LINE
  5
331
100
AcDbEntity
  8
0
100
AcDbLine
 62
4
  6
CONTINUOUS
 10
9.5375570419
 20
8.678036402
 11
9.5278977796
 21
8.6787062741
  0
LINE
  5
332
100
AcDbEntity
  8
0
100
AcDbLine
 62
4
  6
CONTINUOUS
 10
9.6534681446
 20
8.721513984
 11
9.5761940751
 21
8.7268729589
  0
LINE
  5
333
100
AcDbEntity
  8
0
100
AcDbLine
 62
4
  6
CONTINUOUS
 10
9.60517185
 20
8.8117967285
 11
9.5761940751
 21
8.813806344
  0
LINE
  5
334
100
AcDbEntity
  8
0
100
AcDbLine
 62
4
  6
CONTINUOUS
 10
9.6534681446
 20
8.8664028303
 11
9.6244903666
 21
8.868412446
  0
LINE
  5
335
100
AcDbEntity
  8
0
100
AcDbLine
 62
7
  6
CONTINUOUS
 10
13.2311412708
 20
8.6258395013
 11
13.3627247757
 21
8.6167141542
  0
LINE
  5
336
100
AcDbEntity
  8
0
100
AcDbLine
 62
4
  6
CONTINUOUS
 10
11.6803025818
 20
7.5679376531
 11
11.6915717175
 21
7.5502524328
  0
LINE
  5
337
100
AcDbEntity
  8
0
100
AcDbLine
 62
4
  6
CONTINUOUS
 10
11.5563420932
 20
7.5427269361
 11
11.5563420932
 21
7.5596306391
  0
LINE
  5
338
100
AcDbEntity
  8
0
100
AcDbLine
 62
4
  6
CONTINUOUS
 10
11.6239569054
 20
7.5464896844
 11
11.6239569054
 21
7.5802970905
  0
LINE
  5
339
100
AcDbEntity
  8
0
100
AcDbLine
 62
4
  6
CONTINUOUS
 10
12.5625149159
 20
9.0739708672
 11
12.5737840566
 21
9.0816412011
  0
LINE
  5
33A
100
AcDbEntity
  8
0
100
AcDbLine
 62
4
  6
CONTINUOUS
 10
8.3417405997
 20
6.1924084029
 11
8.3513998629
 21
6.1989829747
  0
LINE
  5
33B
100
AcDbEntity
  8
0
100
AcDbLine
 62
4
  6
CONTINUOUS
 10
8.3900368951
 20
6.1890590435
 11
8.4093554112
 21
6.2022081877
  0
LINE
  5
33C
100
AcDbEntity
  8
0
100
AcDbLine
 62
4
  6
CONTINUOUS
 10
8.4383331879
 20
6.1422430204
 11
8.428673929
 21
6.1356684483
  0
LINE
  5
33D
100
AcDbEntity
  8
0
100
AcDbLine
 62
4
  6
CONTINUOUS
 10
12.6752062718
 20
9.015444586
 11
12.6526680014
 21
9.0001039173
  0
LINE
  5
33E
100
AcDbEntity
  8
0
100
AcDbLine
 62
4
  6
CONTINUOUS
 10
7.9148016459
 20
8.164735423
 11
8.0500312702
 21
8.1976164743
  0
LINE
  5
33F
100
AcDbEntity
  8
0
100
AcDbLine
 62
4
  6
CONTINUOUS
 10
12.6526680014
 20
9.2705631659
 11
12.6188605953
 21
9.2644558659
  0
LINE
  5
340
100
AcDbEntity
  8
0
100
AcDbLine
 62
7
  6
CONTINUOUS
 10
13.3693361147
 20
8.7042240235
 11
14.0396042869
 21
8.6577407679
  0
LINE
  5
341
100
AcDbEntity
  8
0
100
AcDbLine
 62
7
  6
CONTINUOUS
 10
13.3591948156
 20
8.7162797622
 11
14.0294629878
 21
8.6697965066
  0
LINE
  5
342
100
AcDbEntity
  8
0
100
AcDbLine
 62
4
  6
CONTINUOUS
 10
9.6035619763
 20
10.4105156412
 11
9.5922928356
 21
10.4197490103
  0
LINE
  5
343
100
AcDbEntity
  8
0
100
AcDbLine
 62
4
  6
CONTINUOUS
 10
11.6915717175
 20
7.5502524328
 11
11.6915717175
 21
7.5333487298
  0
LINE
  5
344
100
AcDbEntity
  8
0
100
AcDbLine
 62
4
  6
CONTINUOUS
 10
12.5512457832
 20
9.4550857024
 11
12.5625149159
 21
9.4712078885
  0
LINE
  5
345
100
AcDbEntity
  8
0
100
AcDbLine
 62
4
  6
CONTINUOUS
 10
12.5512457832
 20
9.3283079297
 11
12.5625149159
 21
9.3444301157
  0
LINE
  5
346
100
AcDbEntity
  8
0
100
AcDbLine
 62
4
  6
CONTINUOUS
 10
12.6864754075
 20
9.3020260203
 11
12.6752062718
 21
9.2859038345
  0
LINE
  5
347
100
AcDbEntity
  8
0
100
AcDbLine
 62
7
  6
CONTINUOUS
 10
13.5426039332
 20
10.0790155986
 11
13.3693361147
 21
9.9116517279
  0
LINE
  5
348
100
AcDbEntity
  8
0
100
AcDbLine
 62
4
  6
CONTINUOUS
 10
12.5850531893
 20
9.4865485569
 11
12.6188605953
 21
9.4926558569
  0
LINE
  5
349
100
AcDbEntity
  8
0
100
AcDbLine
 62
7
  6
CONTINUOUS
 10
13.2725609063
 20
9.192608715
 11
13.9428290785
 21
9.1461254594
  0
LINE
  5
34A
100
AcDbEntity
  8
0
100
AcDbLine
 62
7
  6
CONTINUOUS
 10
13.2725609063
 20
9.2363116791
 11
13.9428290785
 21
9.1898284234
  0
LINE
  5
34B
100
AcDbEntity
  8
0
100
AcDbLine
 62
4
  6
CONTINUOUS
 10
9.6599076517
 20
10.4319636099
 11
9.6824459211
 21
10.4134968726
  0
LINE
  5
34C
100
AcDbEntity
  8
0
100
AcDbLine
 62
4
  6
CONTINUOUS
 10
9.6261002416
 20
10.4765674194
 11
9.6373693824
 21
10.4673340503
  0
LINE
  5
34D
100
AcDbEntity
  8
0
100
AcDbLine
 62
4
  6
CONTINUOUS
 10
12.5512457832
 20
9.0578486811
 11
12.5625149159
 21
9.0739708672
  0
LINE
  5
34E
100
AcDbEntity
  8
0
100
AcDbLine
 62
4
  6
CONTINUOUS
 10
11.5563420932
 20
7.5596306391
 11
11.5676112259
 21
7.5757528251
  0
LINE
  5
34F
100
AcDbEntity
  8
0
100
AcDbLine
 62
4
  6
CONTINUOUS
 10
12.6864754075
 20
9.0315667718
 11
12.6752062718
 21
9.015444586
  0
LINE
  5
350
100
AcDbEntity
  8
0
100
AcDbLine
 62
4
  6
CONTINUOUS
 10
11.6915717175
 20
7.5333487298
 11
11.6803025818
 21
7.517226544
  0
LINE
  5
351
100
AcDbEntity
  8
0
100
AcDbLine
 62
4
  6
CONTINUOUS
 10
11.5676112259
 20
7.5757528251
 11
11.5788803666
 21
7.5834231591
  0
LINE
  5
352
100
AcDbEntity
  8
0
100
AcDbLine
 62
4
  6
CONTINUOUS
 10
11.6803025818
 20
7.517226544
 11
11.6577643114
 21
7.5018858753
  0
LINE
  5
353
100
AcDbEntity
  8
0
100
AcDbLine
 62
4
  6
CONTINUOUS
 10
12.6188605953
 20
9.3489743811
 11
12.6639371361
 21
9.3458483124
  0
LINE
  5
354
100
AcDbEntity
  8
0
100
AcDbLine
 62
4
  6
CONTINUOUS
 10
12.6864754075
 20
9.4119000901
 11
12.5512457832
 21
9.4212782964
  0
LINE
  5
355
100
AcDbEntity
  8
0
100
AcDbLine
 62
4
  6
CONTINUOUS
 10
12.6188605953
 20
8.9939966174
 11
12.5850531893
 21
9.0047930205
  0
LINE
  5
356
100
AcDbEntity
  8
0
100
AcDbLine
 62
4
  6
CONTINUOUS
 10
12.6188605953
 20
9.2644558659
 11
12.5850531893
 21
9.275252269
  0
LINE
  5
357
100
AcDbEntity
  8
0
100
AcDbLine
 62
4
  6
CONTINUOUS
 10
9.6824459211
 20
10.4134968726
 11
9.7162533272
 21
10.4027004695
  0
LINE
  5
358
100
AcDbEntity
  8
0
100
AcDbLine
 62
4
  6
CONTINUOUS
 10
12.6188605953
 20
9.4926558569
 11
12.6526680014
 21
9.4818594538
  0
LINE
  5
359
100
AcDbEntity
  8
0
100
AcDbLine
 62
4
  6
CONTINUOUS
 10
12.6864754075
 20
9.1414408415
 11
12.5512457832
 21
9.21843386
  0
LINE
  5
35A
100
AcDbEntity
  8
0
100
AcDbLine
 62
4
  6
CONTINUOUS
 10
12.5850531893
 20
9.0047930205
 11
12.5625149159
 21
9.0232597581
  0
LINE
  5
35B
100
AcDbEntity
  8
0
100
AcDbLine
 62
4
  6
CONTINUOUS
 10
12.6639371361
 20
9.0753890638
 11
12.6752062718
 21
9.0661556951
  0
LINE
  5
35C
100
AcDbEntity
  8
0
100
AcDbLine
 62
4
  6
CONTINUOUS
 10
12.5512457832
 20
9.0409449781
 11
12.5512457832
 21
9.0578486811
  0
LINE
  5
35D
100
AcDbEntity
  8
0
100
AcDbLine
 62
4
  6
CONTINUOUS
 10
12.5512457832
 20
9.3114042266
 11
12.5512457832
 21
9.3283079297
  0
LINE
  5
35E
100
AcDbEntity
  8
0
100
AcDbLine
 62
4
  6
CONTINUOUS
 10
12.5512457832
 20
9.4212782964
 11
12.5512457832
 21
9.4550857024
  0
LINE
  5
35F
100
AcDbEntity
  8
0
100
AcDbLine
 62
4
  6
CONTINUOUS
 10
12.6188605953
 20
9.315166975
 11
12.6188605953
 21
9.3489743811
  0
LINE
  5
360
100
AcDbEntity
  8
0
100
AcDbLine
 62
4
  6
CONTINUOUS
 10
12.6864754075
 20
9.4457074961
 11
12.6864754075
 21
9.4119000901
  0
LINE
  5
361
100
AcDbEntity
  8
0
100
AcDbLine
 62
4
  6
CONTINUOUS
 10
12.6864754075
 20
9.3189297234
 11
12.6864754075
 21
9.3020260203
  0
LINE
  5
362
100
AcDbEntity
  8
0
100
AcDbLine
 62
4
  6
CONTINUOUS
 10
12.6864754075
 20
9.0484704748
 11
12.6864754075
 21
9.0315667718
  0
LINE
  5
363
100
AcDbEntity
  8
0
100
AcDbLine
 62
7
  6
CONTINUOUS
 10
13.3591948156
 20
9.8800045025
 11
14.0294629878
 21
9.8335212469
  0
LINE
  5
364
100
AcDbEntity
  8
0
100
AcDbLine
 62
7
  6
CONTINUOUS
 10
13.3693361147
 20
9.9116517279
 11
14.0396042869
 21
9.8651684723
  0
LINE
  5
365
100
AcDbEntity
  8
0
100
AcDbLine
 62
7
  6
CONTINUOUS
 10
13.5426039332
 20
10.0790155986
 11
14.2128721054
 21
10.0325323429
  0
LINE
  5
366
100
AcDbEntity
  8
0
100
AcDbLine
 62
4
  6
CONTINUOUS
 10
12.5850531893
 20
9.275252269
 11
12.5625149159
 21
9.2937190066
  0
LINE
  5
367
100
AcDbEntity
  8
0
100
AcDbLine
 62
4
  6
CONTINUOUS
 10
12.6639371361
 20
9.3458483124
 11
12.6752062718
 21
9.3366149436
  0
LINE
  5
368
100
AcDbEntity
  8
0
100
AcDbLine
 62
4
  6
CONTINUOUS
 10
12.6526680014
 20
9.4818594538
 11
12.6752062718
 21
9.4633927164
  0
LINE
  5
369
100
AcDbEntity
  8
0
100
AcDbLine
 62
4
  6
CONTINUOUS
 10
12.5625149159
 20
9.0232597581
 11
12.5512457832
 21
9.0409449781
  0
LINE
  5
36A
100
AcDbEntity
  8
0
100
AcDbLine
 62
4
  6
CONTINUOUS
 10
12.6752062718
 20
9.0661556951
 11
12.6864754075
 21
9.0484704748
  0
LINE
  5
36B
100
AcDbEntity
  8
0
100
AcDbLine
 62
4
  6
CONTINUOUS
 10
12.5625149159
 20
9.2937190066
 11
12.5512457832
 21
9.3114042266
  0
LINE
  5
36C
100
AcDbEntity
  8
0
100
AcDbLine
 62
7
  6
CONTINUOUS
 10
12.9762531841
 20
5.5884707648
 11
12.9762531841
 21
10.4181001824
  0
LINE
  5
36D
100
AcDbEntity
  8
0
100
AcDbLine
 62
7
  6
CONTINUOUS
 10
13.4553599906
 20
8.6927813994
 11
13.4584633108
 21
8.6980430315
  0
LINE
  5
36E
100
AcDbEntity
  8
0
100
AcDbLine
 62
7
  6
CONTINUOUS
 10
13.3390055897
 20
10.1811035588
 11
13.470582735
 21
10.1719786528
  0
LINE
  5
36F
100
AcDbEntity
  8
0
100
AcDbLine
 62
4
  6
CONTINUOUS
 10
9.6035619763
 20
10.4781304534
 11
9.6261002416
 21
10.4765674194
  0
LINE
  5
370
100
AcDbEntity
  8
0
100
AcDbLine
 62
7
  6
CONTINUOUS
 10
12.9762531841
 20
10.4181001824
 11
7.6636608247
 21
10.7865297139
  0
LINE
  5
371
100
AcDbEntity
  8
0
100
AcDbLine
 62
4
  6
CONTINUOUS
 10
12.6752062718
 20
9.3366149436
 11
12.6864754075
 21
9.3189297234
  0
LINE
  5
372
100
AcDbEntity
  8
0
100
AcDbLine
 62
4
  6
CONTINUOUS
 10
12.6752062718
 20
9.4633927164
 11
12.6864754075
 21
9.4457074961
  0
LINE
  5
373
100
AcDbEntity
  8
0
100
AcDbLine
 62
7
  6
CONTINUOUS
 10
13.3591948156
 20
9.8800045025
 11
13.2725609063
 21
9.2363116791
  0
LINE
  5
374
100
AcDbEntity
  8
0
100
AcDbLine
 62
7
  6
CONTINUOUS
 10
13.2725609063
 20
9.192608715
 11
13.3591948156
 21
8.7162797622
  0
LINE
  5
375
100
AcDbEntity
  8
0
100
AcDbLine
 62
7
  6
CONTINUOUS
 10
13.6233002628
 20
6.2134702861
 11
13.6233002628
 21
8.68661155
  0
LINE
  5
376
100
AcDbEntity
  8
0
100
AcDbLine
 62
7
  6
CONTINUOUS
 10
13.6233002628
 20
10.0734192891
 11
13.6233002628
 21
11.0430997037
  0
LINE
  5
377
100
AcDbEntity
  8
0
100
AcDbLine
 62
7
  6
CONTINUOUS
 10
14.1978842807
 20
8.7688072916
 11
14.2066577292
 21
8.7836825401
  0
LINE
  5
378
100
AcDbEntity
  8
0
100
AcDbLine
 62
7
  6
CONTINUOUS
 10
13.6233002628
 20
11.0430997037
 11
8.3107079034
 21
11.4115292352
  0
LINE
  5
379
100
AcDbEntity
  8
0
100
AcDbLine
 62
7
  6
CONTINUOUS
 10
13.5518311019
 20
10.0838525403
 11
13.5541784166
 21
10.0782129054
  0
LINE
  5
37A
100
AcDbEntity
  8
0
100
AcDbLine
 62
7
  6
CONTINUOUS
 10
13.6233002628
 20
6.2134702861
 11
12.9762531841
 21
5.5884707648
  0
LINE
  5
37B
100
AcDbEntity
  8
0
100
AcDbLine
 62
7
  6
CONTINUOUS
 10
14.2689864542
 20
9.9247186143
 11
14.2833890814
 21
9.8901150063
  0
ARC
  5
37C
100
AcDbEntity
  8
0
100
AcDbCircle
 62
7
  6
CONTINUOUS
 10
15.8640323599
 20
9.2143054212
 40
2.5915648883
100
AcDbArc
 50
179.5134673813
 51
179.9985734311
  0
ARC
  5
37D
100
AcDbEntity
  8
0
100
AcDbCircle
 62
7
  6
CONTINUOUS
 10
16.5343005321
 20
9.1678221656
 40
2.5915648883
100
AcDbArc
 50
179.5134673813
 51
179.9985734311
  0
ARC
  5
37E
100
AcDbEntity
  8
0
100
AcDbCircle
 62
7
  6
CONTINUOUS
 10
16.4715069194
 20
9.1678633908
 40
2.5287712748
100
AcDbArc
 50
179.9994720696
 51
180.492534488
  0
ARC
  5
37F
100
AcDbEntity
  8
0
100
AcDbCircle
 62
7
  6
CONTINUOUS
 10
15.7901759495
 20
9.2142991473
 40
2.5177084781
100
AcDbArc
 50
179.9983888061
 51
180.4936177515
  0
ARC
  5
380
100
AcDbEntity
  8
0
100
AcDbCircle
 62
7
  6
CONTINUOUS
 10
15.0893624761
 20
9.5113267658
 40
1.1077888829
100
AcDbArc
 50
161.3725959887
 51
163.0914686476
  0
ARC
  5
381
100
AcDbEntity
  8
0
100
AcDbCircle
 62
7
  6
CONTINUOUS
 10
14.4190943038
 20
9.5578100214
 40
1.1077888828
100
AcDbArc
 50
161.3725959887
 51
163.0914686476
  0
ARC
  5
382
100
AcDbEntity
  8
0
100
AcDbCircle
 62
7
  6
CONTINUOUS
 10
11.2666455339
 20
7.759862203
 40
0.2314975641
100
AcDbArc
 50
266.0262588858
 51
269.8139544856
  0
ARC
  5
383
100
AcDbEntity
  8
0
100
AcDbCircle
 62
7
  6
CONTINUOUS
 10
11.2191061797
 20
7.7351653789
 40
0.1844010022
100
AcDbArc
 50
173.946674891
 51
179.9922490948
  0
SPLINE
  5
384
100
AcDbEntity
  8
0
100
AcDbSpline
 62
7
  6
CONTINUOUS
 70
0
 71
3
 72
23
 73
19
 74
0
 42
0.0000001
 43
0.0000001
 44
0.0000000001
 40
0.0
 40
0.0
 40
0.0
 40
0.0
 40
0.0778915856
 40
0.1545454438
 40
0.2297388202
 40
0.3032879841
 40
0.3750174017
 40
0.4447505127
 40
0.512316206
 40
0.5775550501
 40
0.6403154135
 40
0.7004563918
 40
0.75784725
 40
0.8123710763
 40
0.8639245062
 40
0.9124214177
 40
0.9577945528
 40
1.0
 40
1.0
 40
1.0
 40
1.0
 10
14.3363391753
 20
9.4966943554
 30
0.0
 10
14.3363391753
 20
9.5070549475
 30
0.0
 10
14.3361961684
 20
9.5276118137
 30
0.0
 10
14.3355437102
 20
9.5581641386
 30
0.0
 10
14.3344557606
 20
9.5881262125
 30
0.0
 10
14.3329359511
 20
9.6174136723
 30
0.0
 10
14.3309881747
 20
9.645947951
 30
0.0
 10
14.3286182775
 20
9.6736516877
 30
0.0
 10
14.3258322769
 20
9.7004489828
 30
0.0
 10
14.322638433
 20
9.7262666205
 30
0.0
 10
14.3190451759
 20
9.7510343979
 30
0.0
 10
14.3150628881
 20
9.7746849284
 30
0.0
 10
14.3107022315
 20
9.7971539162
 30
0.0
 10
14.3059756504
 20
9.8183804483
 30
0.0
 10
14.3008959586
 20
9.8383070751
 30
0.0
 10
14.2954773591
 20
9.8568804089
 30
0.0
 10
14.2897347321
 20
9.8740500849
 30
0.0
 10
14.2855483838
 20
9.884926811
 30
0.0
 10
14.2833912383
 20
9.8901096951
 30
0.0
  0
SPLINE
  5
385
100
AcDbEntity
  8
0
100
AcDbSpline
 62
7
  6
CONTINUOUS
 70
0
 71
3
 72
9
 73
5
 74
0
 42
0.0000001
 43
0.0000001
 44
0.0000000001
 40
0.0
 40
0.0
 40
0.0
 40
0.0
 40
0.5149357862
 40
1.0
 40
1.0
 40
1.0
 40
1.0
 10
14.2230134046
 20
10.0204766042
 30
0.0
 10
14.2214034563
 20
10.0226510223
 30
0.0
 10
14.2181567544
 20
10.0267865907
 30
0.0
 10
14.2146449347
 20
10.0307013697
 30
0.0
 10
14.2128721054
 20
10.0325323429
 30
0.0
  0
SPLINE
  5
386
100
AcDbEntity
  8
0
100
AcDbSpline
 62
7
  6
CONTINUOUS
 70
0
 71
3
 72
22
 73
18
 74
0
 42
0.0000001
 43
0.0000001
 44
0.0000000001
 40
0.0
 40
0.0
 40
0.0
 40
0.0
 40
0.1581228667
 40
0.2341982852
 40
0.3081049186
 40
0.379717385
 40
0.4489184745
 40
0.5156040998
 40
0.5796927374
 40
0.6411263993
 40
0.6998833948
 40
0.755975683
 40
0.8094620448
 40
0.8604412683
 40
0.9090606462
 40
0.9555055836
 40
1.0
 40
1.0
 40
1.0
 40
1.0
 10
14.0396042869
 20
8.6577407679
 30
0.0
 10
14.049073948
 20
8.6619439542
 30
0.0
 10
14.0630173516
 20
8.6683596313
 30
0.0
 10
14.0811273355
 20
8.6772821336
 30
0.0
 10
14.094023675
 20
8.6839550812
 30
0.0
 10
14.1063736671
 20
8.6906966663
 30
0.0
 10
14.1181424827
 20
8.697507262
 30
0.0
 10
14.129295827
 20
8.7043875018
 30
0.0
 10
14.1398022768
 20
8.7113358782
 30
0.0
 10
14.1496325498
 20
8.7183519408
 30
0.0
 10
14.1587626984
 20
8.7254323366
 30
0.0
 10
14.1671723199
 20
8.7325753051
 30
0.0
 10
14.1748484508
 20
8.7397759503
 30
0.0
 10
14.181782577
 20
8.7470310627
 30
0.0
 10
14.1879746888
 20
8.7543348539
 30
0.0
 10
14.1934290042
 20
8.7616822487
 30
0.0
 10
14.1966456925
 20
8.7667050137
 30
0.0
 10
14.1981257198
 20
8.7692167702
 30
0.0
  0
SPLINE
  5
387
100
AcDbEntity
  8
0
100
AcDbSpline
 62
7
  6
CONTINUOUS
 70
0
 71
3
 72
28
 73
24
 74
0
 42
0.0000001
 43
0.0000001
 44
0.0000000001
 40
0.0
 40
0.0
 40
0.0
 40
0.0
 40
0.0188524871
 40
0.0388801737
 40
0.0600715651
 40
0.0824089768
 40
0.1058699668
 40
0.1304265019
 40
0.1560475994
 40
0.1826975814
 40
0.2103382308
 40
0.2389280827
 40
0.2987741688
 40
0.3618564495
 40
0.4277601831
 40
0.4960432585
 40
0.5662412158
 40
0.6378720029
 40
0.7104405345
 40
0.7834444448
 40
0.8563742018
 40
0.9287292883
 40
1.0
 40
1.0
 40
1.0
 40
1.0
 10
14.2066568259
 20
8.7836811647
 30
0.0
 10
14.2089897665
 20
8.7876366147
 30
0.0
 10
14.2136211629
 20
8.7959010978
 30
0.0
 10
14.2202879329
 20
8.8089298858
 30
0.0
 10
14.2268734713
 20
8.8229437399
 30
0.0
 10
14.2333655624
 20
8.8379168238
 30
0.0
 10
14.239751851
 20
8.8538219496
 30
0.0
 10
14.2460210434
 20
8.8706297966
 30
0.0
 10
14.2521608698
 20
8.8883095833
 30
0.0
 10
14.2581604212
 20
8.9068286307
 30
0.0
 10
14.2640082828
 20
8.9261528582
 30
0.0
 10
14.2717061452
 20
8.9533606863
 30
0.0
 10
14.2808365667
 20
8.989128369
 30
0.0
 10
14.2908662189
 20
9.0340244492
 30
0.0
 10
14.3000538073
 20
9.0811955103
 30
0.0
 10
14.3083306081
 20
9.1302928395
 30
0.0
 10
14.3156346303
 20
9.1809537777
 30
0.0
 10
14.3219113119
 20
9.232803602
 30
0.0
 10
14.3271139666
 20
9.2854588889
 30
0.0
 10
14.3312036918
 20
9.3385295437
 30
0.0
 10
14.3341505912
 20
9.39162393
 30
0.0
 10
14.3359323427
 20
9.4443475552
 30
0.0
 10
14.3363391753
 20
9.4793338577
 30
0.0
 10
14.3363391753
 20
9.4966943554
 30
0.0
  0
SPLINE
  5
388
100
AcDbEntity
  8
0
100
AcDbSpline
 62
7
  6
CONTINUOUS
 70
0
 71
3
 72
9
 73
5
 74
0
 42
0.0000001
 43
0.0000001
 44
0.0000000001
 40
0.0
 40
0.0
 40
0.0
 40
0.0
 40
0.4955326499
 40
1.0
 40
1.0
 40
1.0
 40
1.0
 10
14.2691335786
 20
9.9243649126
 30
0.0
 10
14.2623619344
 20
9.9406252882
 30
0.0
 10
14.2477234076
 20
9.973039119
 30
0.0
 10
14.2315104358
 20
10.0046859613
 30
0.0
 10
14.2230134046
 20
10.0204766042
 30
0.0
  0
SPLINE
  5
389
100
AcDbEntity
  8
0
100
AcDbSpline
 62
7
  6
CONTINUOUS
 70
0
 71
3
 72
23
 73
19
 74
0
 42
0.0000001
 43
0.0000001
 44
0.0000000001
 40
0.0
 40
0.0
 40
0.0
 40
0.0
 40
0.0879689742
 40
0.1720374745
 40
0.2522277104
 40
0.3285767996
 40
0.4011454457
 40
0.4700180837
 40
0.5353037253
 40
0.5971447226
 40
0.6557237648
 40
0.7112648106
 40
0.7640406505
 40
0.8143822203
 40
0.8626779008
 40
0.909373088
 40
0.9549671986
 40
1.0
 40
1.0
 40
1.0
 40
1.0
 10
13.4553598302
 20
8.6927811304
 30
0.0
 10
13.4534889046
 20
8.6896090275
 30
0.0
 10
13.4497419461
 20
8.6834567583
 30
0.0
 10
13.4439663726
 20
8.6746147934
 30
0.0
 10
13.4381678468
 20
8.666375617
 30
0.0
 10
13.432350809
 20
8.6587463173
 30
0.0
 10
13.4265200081
 20
8.651732986
 30
0.0
 10
13.4206801706
 20
8.6453411156
 30
0.0
 10
13.414835537
 20
8.6395761201
 30
0.0
 10
13.40899027
 20
8.6344429626
 30
0.0
 10
13.4031488034
 20
8.6299456744
 30
0.0
 10
13.3973150868
 20
8.626088378
 30
0.0
 10
13.3914927957
 20
8.6228755568
 30
0.0
 10
13.3856862192
 20
8.6203107411
 30
0.0
 10
13.3798998703
 20
8.6183975648
 30
0.0
 10
13.3741384063
 20
8.6171403345
 30
0.0
 10
13.3684090174
 20
8.6165421108
 30
0.0
 10
13.3646051944
 20
8.6165838941
 30
0.0
 10
13.3627244502
 20
8.6167142804
 30
0.0
  0
SPLINE
  5
38A
100
AcDbEntity
  8
0
100
AcDbSpline
 62
7
  6
CONTINUOUS
 70
0
 71
3
 72
23
 73
19
 74
0
 42
0.0000001
 43
0.0000001
 44
0.0000000001
 40
0.0
 40
0.0
 40
0.0
 40
0.0
 40
0.0879702547
 40
0.1720387707
 40
0.252227033
 40
0.328576627
 40
0.4011464305
 40
0.4700175817
 40
0.5353026847
 40
0.597145183
 40
0.655723887
 40
0.7112638297
 40
0.7640406038
 40
0.8143826993
 40
0.8626776158
 40
0.909372916
 40
0.9549673584
 40
1.0
 40
1.0
 40
1.0
 40
1.0
 10
13.5518307376
 20
10.0838531699
 30
0.0
 10
13.5504155859
 20
10.0872531859
 30
0.0
 10
13.5475538621
 20
10.0938638239
 30
0.0
 10
13.5430541973
 20
10.1034183108
 30
0.0
 10
13.5384482884
 20
10.1123787565
 30
0.0
 10
13.5337401852
 20
10.120737941
 30
0.0
 10
13.5289335606
 20
10.1284890839
 30
0.0
 10
13.5240317851
 20
10.1356256456
 30
0.0
 10
13.5190388353
 20
10.1421420632
 30
0.0
 10
13.5139584053
 20
10.1480331605
 30
0.0
 10
13.508793656
 20
10.1532936772
 30
0.0
 10
13.5035480604
 20
10.157918986
 30
0.0
 10
13.4982252346
 20
10.1619049677
 30
0.0
 10
13.4928284395
 20
10.1652469966
 30
0.0
 10
13.4873614292
 20
10.1679401848
 30
0.0
 10
13.4818287783
 20
10.1699807165
 30
0.0
 10
13.4762369709
 20
10.1713646024
 30
0.0
 10
13.472463782
 20
10.1718481419
 30
0.0
 10
13.4705830605
 20
10.1719785266
 30
0.0
  0
SPLINE
  5
38B
100
AcDbEntity
  8
0
100
AcDbSpline
 62
7
  6
CONTINUOUS
 70
0
 71
3
 72
23
 73
19
 74
0
 42
0.0000001
 43
0.0000001
 44
0.0000000001
 40
0.0
 40
0.0
 40
0.0
 40
0.0
 40
0.0430432041
 40
0.0864276157
 40
0.130656649
 40
0.1763288731
 40
0.2240992276
 40
0.2746265429
 40
0.3285147701
 40
0.3862610475
 40
0.4482190742
 40
0.5145822216
 40
0.585391119
 40
0.6605550141
 40
0.7398801137
 40
0.8231012882
 40
0.9099156628
 40
1.0
 40
1.0
 40
1.0
 40
1.0
 10
14.2128721054
 20
10.0325323429
 30
0.0
 10
14.212933054
 20
10.0288729125
 30
0.0
 10
14.2127123503
 20
10.0215136182
 30
0.0
 10
14.2112406669
 20
10.0104814696
 30
0.0
 10
14.2085157443
 20
9.9994560973
 30
0.0
 10
14.2044310905
 20
9.9884588984
 30
0.0
 10
14.1988933301
 20
9.9775132831
 30
0.0
 10
14.1918296596
 20
9.9666431378
 30
0.0
 10
14.1831914948
 20
9.9558694701
 30
0.0
 10
14.1729568637
 20
9.9452096682
 30
0.0
 10
14.1611321755
 20
9.934677577
 30
0.0
 10
14.1477527168
 20
9.9242830993
 30
0.0
 10
14.1328794571
 20
9.9140332358
 30
0.0
 10
14.1165947194
 20
9.9039320585
 30
0.0
 10
14.0989965741
 20
9.8939806131
 30
0.0
 10
14.0801923608
 20
9.8841768245
 30
0.0
 10
14.0602929153
 20
9.8745166226
 30
0.0
 10
14.046605439
 20
9.8682759907
 30
0.0
 10
14.0396042869
 20
9.8651684723
 30
0.0
  0
SPLINE
  5
38C
100
AcDbEntity
  8
0
100
AcDbSpline
 62
7
  6
CONTINUOUS
 70
0
 71
3
 72
21
 73
17
 74
0
 42
0.0000001
 43
0.0000001
 44
0.0000000001
 40
0.0
 40
0.0
 40
0.0
 40
0.0
 40
0.1231153359
 40
0.184837322
 40
0.2466817013
 40
0.3086598058
 40
0.3707815459
 40
0.4330548007
 40
0.4954844141
 40
0.558071395
 40
0.6208128987
 40
0.6837027994
 40
0.7467321283
 40
0.809889664
 40
0.8731630859
 40
1.0
 40
1.0
 40
1.0
 40
1.0
 10
14.0294629878
 20
9.8335212469
 30
0.0
 10
14.0331196
 20
9.8067604918
 30
0.0
 10
14.0376126402
 20
9.7664328878
 30
0.0
 10
14.0411942707
 20
9.7124268611
 30
0.0
 10
14.0425741224
 20
9.6717369449
 30
0.0
 10
14.0425442618
 20
9.63093539
 30
0.0
 10
14.0410186638
 20
9.5900671919
 30
0.0
 10
14.0379321425
 20
9.549187225
 30
0.0
 10
14.0332461026
 20
9.5083565433
 30
0.0
 10
14.0269525616
 20
9.4676387024
 30
0.0
 10
14.0190766368
 20
9.4270947316
 30
0.0
 10
14.0096727157
 20
9.3867787886
 30
0.0
 10
13.9988194713
 20
9.3467351633
 30
0.0
 10
13.986613364
 20
9.306995635
 30
0.0
 10
13.968665924
 20
9.2544045922
 30
0.0
 10
13.9535237321
 20
9.2155170115
 30
0.0
 10
13.9428290785
 20
9.1898284234
 30
0.0
  0
SPLINE
  5
38D
100
AcDbEntity
  8
0
100
AcDbSpline
 62
7
  6
CONTINUOUS
 70
0
 71
3
 72
23
 73
19
 74
0
 42
0.0000001
 43
0.0000001
 44
0.0000000001
 40
0.0
 40
0.0
 40
0.0
 40
0.0
 40
0.0681436223
 40
0.1355717925
 40
0.2022246133
 40
0.2680530577
 40
0.3330188589
 40
0.3971018651
 40
0.4603047619
 40
0.5226553367
 40
0.5842062484
 40
0.6450322154
 40
0.7052236803
 40
0.7648789131
 40
0.8240963959
 40
0.8829688942
 40
0.9415804852
 40
1.0
 40
1.0
 40
1.0
 40
1.0
 10
13.9428290785
 20
9.1461254594
 30
0.0
 10
13.9481577748
 20
9.1362227605
 30
0.0
 10
13.958509498
 20
9.1163853867
 30
0.0
 10
13.9730928487
 20
9.0863628772
 30
0.0
 10
13.986545135
 20
9.0562331899
 30
0.0
 10
13.9987548669
 20
9.0260153286
 30
0.0
 10
14.0096144248
 20
8.9957349848
 30
0.0
 10
14.0190269442
 20
8.9654259583
 30
0.0
 10
14.0269131471
 20
8.9351288622
 30
0.0
 10
14.0332176452
 20
8.9048892881
 30
0.0
 10
14.0379141683
 20
8.8747550225
 30
0.0
 10
14.041009627
 20
8.8447726597
 30
0.0
 10
14.042541957
 20
8.8149836798
 30
0.0
 10
14.0425761232
 20
8.7854217275
 30
0.0
 10
14.0411984516
 20
8.7561110664
 30
0.0
 10
14.0385100028
 20
8.7270657331
 30
0.0
 10
14.0346187632
 20
8.6982916271
 30
0.0
 10
14.0312909551
 20
8.6792622772
 30
0.0
 10
14.0294629878
 20
8.6697965066
 30
0.0
  0
SPLINE
  5
38E
100
AcDbEntity
  8
0
100
AcDbSpline
 62
7
  6
CONTINUOUS
 70
0
 71
3
 72
11
 73
7
 74
0
 42
0.0000001
 43
0.0000001
 44
0.0000000001
 40
0.0
 40
0.0
 40
0.0
 40
0.0
 40
0.2707423955
 40
0.5275743428
 40
0.7705940619
 40
1.0
 40
1.0
 40
1.0
 40
1.0
 10
14.2833912383
 20
9.8901096951
 30
0.0
 10
14.2820949324
 20
9.8932242756
 30
0.0
 10
14.279469912
 20
9.8992529542
 30
0.0
 10
14.2753127554
 20
9.9079110085
 30
0.0
 10
14.2710440283
 20
9.9159358627
 30
0.0
 10
14.2680413188
 20
9.9210023796
 30
0.0
 10
14.2665187953
 20
9.9234216717
 30
0.0
  0
SPLINE
  5
38F
100
AcDbEntity
  8
0
100
AcDbSpline
 62
7
  6
CONTINUOUS
 70
0
 71
3
 72
55
 73
51
 74
0
 42
0.0000001
 43
0.0000001
 44
0.0000000001
 40
0.0
 40
0.0
 40
0.0
 40
0.0
 40
0.0091577868
 40
0.0177618445
 40
0.0258372884
 40
0.0334170679
 40
0.0405430748
 40
0.0472684852
 40
0.0536583613
 40
0.0597898466
 40
0.0657516837
 40
0.0716409717
 40
0.0775587123
 40
0.0836043685
 40
0.0898706698
 40
0.0964402932
 40
0.0998623988
 40
0.1033856202
 40
0.1107605558
 40
0.1186142058
 40
0.126983132
 40
0.1358954139
 40
0.14537248
 40
0.1554292655
 40
0.1660758699
 40
0.1773187873
 40
0.1891604404
 40
0.2016004246
 40
0.2146363091
 40
0.2282628502
 40
0.2424730097
 40
0.257258518
 40
0.2726089663
 40
0.3049559727
 40
0.3394089097
 40
0.3758441812
 40
0.4141231893
 40
0.4540951793
 40
0.4955985596
 40
0.5384619526
 40
0.5825062071
 40
0.6275453385
 40
0.6733874576
 40
0.7198363195
 40
0.7666923239
 40
0.8137540635
 40
0.8608176619
 40
0.9076794905
 40
0.9541447315
 40
1.0
 40
1.0
 40
1.0
 40
1.0
 10
14.2665187953
 20
9.9234216717
 30
0.0
 10
14.2650666087
 20
9.9257291983
 30
0.0
 10
14.2621352872
 20
9.9301342706
 30
0.0
 10
14.2574977593
 20
9.9362775811
 30
0.0
 10
14.2527637062
 20
9.9417404162
 30
0.0
 10
14.2479375952
 20
9.9465165493
 30
0.0
 10
14.2430227595
 20
9.9505995362
 30
0.0
 10
14.2380232981
 20
9.9539834971
 30
0.0
 10
14.2329436101
 20
9.9566624741
 30
0.0
 10
14.2277887254
 20
9.9586290861
 30
0.0
 10
14.2225662994
 20
9.9598774594
 30
0.0
 10
14.2172858548
 20
9.960403483
 30
0.0
 10
14.2119582766
 20
9.9602047319
 30
0.0
 10
14.2065943062
 20
9.9592836236
 30
0.0
 10
14.201203098
 20
9.9576450318
 30
0.0
 10
14.1967543711
 20
9.9557120001
 30
0.0
 10
14.1931960119
 20
9.9538310011
 30
0.0
 10
14.189527035
 20
9.951656494
 30
0.0
 10
14.1849284357
 20
9.9484774276
 30
0.0
 10
14.1794869461
 20
9.9440234704
 30
0.0
 10
14.17404445
 20
9.9388794616
 30
0.0
 10
14.1686062799
 20
9.9330516292
 30
0.0
 10
14.1631781234
 20
9.9265459846
 30
0.0
 10
14.1577653272
 20
9.9193700024
 30
0.0
 10
14.1523735678
 20
9.9115316341
 30
0.0
 10
14.1470091576
 20
9.903039319
 30
0.0
 10
14.1416777816
 20
9.8939027463
 30
0.0
 10
14.1363853637
 20
9.8841322139
 30
0.0
 10
14.1311382807
 20
9.8737385662
 30
0.0
 10
14.1259422482
 20
9.8627337312
 30
0.0
 10
14.1208031665
 20
9.8511302496
 30
0.0
 10
14.115727204
 20
9.8389411954
 30
0.0
 10
14.1089319395
 20
9.8216231713
 30
0.0
 10
14.1006655849
 20
9.7985984677
 30
0.0
 10
14.0912517613
 20
9.7693354762
 30
0.0
 10
14.0822223122
 20
9.73810921
 30
0.0
 10
14.0736188464
 20
9.7050627905
 30
0.0
 10
14.0654814313
 20
9.6703473043
 30
0.0
 10
14.0578480099
 20
9.6341218685
 30
0.0
 10
14.0507537449
 20
9.5965527306
 30
0.0
 10
14.0442315565
 20
9.5578123803
 30
0.0
 10
14.0383118128
 20
9.5180787311
 30
0.0
 10
14.0330216846
 20
9.4775344095
 30
0.0
 10
14.0283856485
 20
9.4363657985
 30
0.0
 10
14.0244252512
 20
9.3947620015
 30
0.0
 10
14.0211586465
 20
9.3529144351
 30
0.0
 10
14.0186008076
 20
9.3110158477
 30
0.0
 10
14.0167634906
 20
9.2692571792
 30
0.0
 10
14.0156554812
 20
9.2278327629
 30
0.0
 10
14.0154038243
 20
9.2003465876
 30
0.0
 10
14.0154038243
 20
9.1866945929
 30
0.0
  0
SPLINE
  5
390
100
AcDbEntity
  8
0
100
AcDbSpline
 62
7
  6
CONTINUOUS
 70
0
 71
3
 72
29
 73
25
 74
0
 42
0.0000001
 43
0.0000001
 44
0.0000000001
 40
0.0
 40
0.0
 40
0.0
 40
0.0
 40
0.0844109308
 40
0.167021196
 40
0.2475180268
 40
0.3256369966
 40
0.401116176
 40
0.4737019132
 40
0.5431596849
 40
0.6092721542
 40
0.6718401978
 40
0.7306888572
 40
0.7586717622
 40
0.7856716262
 40
0.8116742211
 40
0.8366682477
 40
0.8606452028
 40
0.8835986256
 40
0.9055261083
 40
0.9264302219
 40
0.9463170845
 40
0.9651968369
 40
0.9830842384
 40
1.0
 40
1.0
 40
1.0
 40
1.0
 10
13.2725609063
 20
9.192608715
 30
0.0
 10
13.272679706
 20
9.178835096
 30
0.0
 10
13.2731408594
 20
9.1515830118
 30
0.0
 10
13.2745263987
 20
9.1112148824
 30
0.0
 10
13.2765945085
 20
9.0719037743
 30
0.0
 10
13.2793368532
 20
9.0338003264
 30
0.0
 10
13.2827425209
 20
8.9970464216
 30
0.0
 10
13.2867988677
 20
8.961780564
 30
0.0
 10
13.2914900292
 20
8.9281357102
 30
0.0
 10
13.2967976703
 20
8.8962379772
 30
0.0
 10
13.3027019108
 20
8.8662073464
 30
0.0
 10
13.3081877576
 20
8.8424478828
 30
0.0
 10
13.312881155
 20
8.8244745789
 30
0.0
 10
13.316476616
 20
8.8117569271
 30
0.0
 10
13.3202035146
 20
8.7995862792
 30
0.0
 10
13.3240583134
 20
8.7879740283
 30
0.0
 10
13.3280370805
 20
8.7769309856
 30
0.0
 10
13.3321362522
 20
8.7664675422
 30
0.0
 10
13.3363521743
 20
8.7565933675
 30
0.0
 10
13.3406808388
 20
8.7473172162
 30
0.0
 10
13.3451185444
 20
8.7386475688
 30
0.0
 10
13.3496614253
 20
8.7305927062
 30
0.0
 10
13.3543042204
 20
8.723160731
 30
0.0
 10
13.357552288
 20
8.7184981823
 30
0.0
 10
13.3591948156
 20
8.7162797622
 30
0.0
  0
SPLINE
  5
391
100
AcDbEntity
  8
0
100
AcDbSpline
 62
7
  6
CONTINUOUS
 70
0
 71
3
 72
37
 73
33
 74
0
 42
0.0000001
 43
0.0000001
 44
0.0000000001
 40
0.0
 40
0.0
 40
0.0
 40
0.0
 40
0.0242160064
 40
0.0471276776
 40
0.0688728694
 40
0.0896181497
 40
0.1095643177
 40
0.1289412712
 40
0.1480010561
 40
0.1670091283
 40
0.1862325832
 40
0.2059292153
 40
0.2263374353
 40
0.2476687588
 40
0.2701059695
 40
0.2938027283
 40
0.3188839929
 40
0.3454511185
 40
0.3735850406
 40
0.4033469108
 40
0.4347832022
 40
0.4679286948
 40
0.5028057521
 40
0.5394275751
 40
0.5778008267
 40
0.6179236654
 40
0.6597872747
 40
0.7033790872
 40
0.7486826578
 40
0.7956778314
 40
0.8946424786
 40
1.0
 40
1.0
 40
1.0
 40
1.0
 10
13.5426039332
 20
10.0790155986
 30
0.0
 10
13.540993916
 20
10.0806784198
 30
0.0
 10
13.5377468144
 20
10.0838075002
 30
0.0
 10
13.5326518178
 20
10.087987609
 30
0.0
 10
13.5274781895
 20
10.0915125193
 30
0.0
 10
13.5222301352
 20
10.0943755897
 30
0.0
 10
13.5169125848
 20
10.0965718422
 30
0.0
 10
13.5115312378
 20
10.0980969547
 30
0.0
 10
13.5060928729
 20
10.0989466244
 30
0.0
 10
13.5006058155
 20
10.0991189383
 30
0.0
 10
13.4950786395
 20
10.0986144788
 30
0.0
 10
13.4895194071
 20
10.0974348421
 30
0.0
 10
13.4839351171
 20
10.0955835675
 30
0.0
 10
13.478331141
 20
10.0930656297
 30
0.0
 10
13.4727122242
 20
10.0898851522
 30
0.0
 10
13.4670828268
 20
10.0860462958
 30
0.0
 10
13.4614467799
 20
10.0815539968
 30
0.0
 10
13.4558083917
 20
10.076412667
 30
0.0
 10
13.450172426
 20
10.0706268852
 30
0.0
 10
13.4445431874
 20
10.0642023702
 30
0.0
 10
13.4389254547
 20
10.0571449762
 30
0.0
 10
13.4333244831
 20
10.0494608572
 30
0.0
 10
13.4277450617
 20
10.0411572092
 30
0.0
 10
13.4221921463
 20
10.0322416935
 30
0.0
 10
13.4166711561
 20
10.0227223189
 30
0.0
 10
13.4111871458
 20
10.0126080563
 30
0.0
 10
13.4057450797
 20
10.0019085851
 30
0.0
 10
13.4003502946
 20
9.9906338114
 30
0.0
 10
13.3950077831
 20
9.9787940247
 30
0.0
 10
13.3878364549
 20
9.9619773354
 30
0.0
 10
13.3790668617
 20
9.9396085421
 30
0.0
 10
13.3725546387
 20
9.921193522
 30
0.0
 10
13.3693361147
 20
9.9116517279
 30
0.0
  0
SPLINE
  5
392
100
AcDbEntity
  8
0
100
AcDbSpline
 62
7
  6
CONTINUOUS
 70
0
 71
3
 72
21
 73
17
 74
0
 42
0.0000001
 43
0.0000001
 44
0.0000000001
 40
0.0
 40
0.0
 40
0.0
 40
0.0
 40
0.0721750434
 40
0.1408704233
 40
0.2690156223
 40
0.3293895806
 40
0.3879136836
 40
0.4451490293
 40
0.5016982119
 40
0.5581866935
 40
0.6152406903
 40
0.6734670847
 40
0.733434797
 40
0.8604758414
 40
0.9285177531
 40
1.0
 40
1.0
 40
1.0
 40
1.0
 10
13.3693361147
 20
8.7042240235
 30
0.0
 10
13.3707709442
 20
8.7027421356
 30
0.0
 10
13.3736624422
 20
8.6999349234
 30
0.0
 10
13.3795420458
 20
8.6949761343
 30
0.0
 10
13.3856961573
 20
8.6908785183
 30
0.0
 10
13.3920732158
 20
8.687826469
 30
0.0
 10
13.3968143781
 20
8.6861089777
 30
0.0
 10
13.4016030158
 20
8.684921394
 30
0.0
 10
13.4064347195
 20
8.6842659906
 30
0.0
 10
13.4113039677
 20
8.6841435805
 30
0.0
 10
13.4162051879
 20
8.6845537557
 30
0.0
 10
13.4211334824
 20
8.6854958139
 30
0.0
 10
13.4278607069
 20
8.6874959575
 30
0.0
 10
13.4345198459
 20
8.690565836
 30
0.0
 10
13.4410271628
 20
8.6945337695
 30
0.0
 10
13.4442783304
 20
8.696849658
 30
0.0
 10
13.4459041002
 20
8.6980867154
 30
0.0
  0
SPLINE
  5
393
100
AcDbEntity
  8
0
100
AcDbSpline
 62
7
  6
CONTINUOUS
 70
0
 71
3
 72
37
 73
33
 74
0
 42
0.0000001
 43
0.0000001
 44
0.0000000001
 40
0.0
 40
0.0
 40
0.0
 40
0.0
 40
0.0063161058
 40
0.0126711378
 40
0.0191032437
 40
0.0256490428
 40
0.0392092754
 40
0.0536077755
 40
0.0690450541
 40
0.0856786812
 40
0.1036273253
 40
0.1229775466
 40
0.1437909472
 40
0.1661071032
 40
0.1899504634
 40
0.2153308692
 40
0.2422476215
 40
0.2706911411
 40
0.3006430285
 40
0.3320796323
 40
0.3649700317
 40
0.399279162
 40
0.4349670666
 40
0.4719892306
 40
0.5102983916
 40
0.549842539
 40
0.5905676834
 40
0.6324164775
 40
0.7192416165
 40
0.8098093508
 40
0.9035887078
 40
1.0
 40
1.0
 40
1.0
 40
1.0
 10
13.3627244502
 20
8.6167142804
 30
0.0
 10
13.36140695
 20
8.6168056187
 30
0.0
 10
13.3587700439
 20
8.6170966904
 30
0.0
 10
13.3548442925
 20
8.6178556498
 30
0.0
 10
13.3509446913
 20
8.6189368725
 30
0.0
 10
13.3457230392
 20
8.6208282379
 30
0.0
 10
13.3392345794
 20
8.6240434018
 30
0.0
 10
13.3316941165
 20
8.6291313849
 30
0.0
 10
13.3243110077
 20
8.6354774514
 30
0.0
 10
13.3170940009
 20
8.6430679345
 30
0.0
 10
13.3100494063
 20
8.651889148
 30
0.0
 10
13.3031850929
 20
8.6619269939
 30
0.0
 10
13.2965106649
 20
8.6731664226
 30
0.0
 10
13.2900346724
 20
8.6855897095
 30
0.0
 10
13.2837677667
 20
8.6991778788
 30
0.0
 10
13.277719182
 20
8.7139092549
 30
0.0
 10
13.2718987728
 20
8.7297604133
 30
0.0
 10
13.2663163152
 20
8.7467058704
 30
0.0
 10
13.2609803749
 20
8.764718086
 30
0.0
 10
13.255900516
 20
8.7837678418
 30
0.0
 10
13.2510845177
 20
8.80382394
 30
0.0
 10
13.2465407664
 20
8.8248535832
 30
0.0
 10
13.2422767924
 20
8.8468222541
 30
0.0
 10
13.2382994058
 20
8.8696938715
 30
0.0
 10
13.2346157593
 20
8.8934308108
 30
0.0
 10
13.2312314145
 20
8.9179939712
 30
0.0
 10
13.2281524227
 20
8.9433429387
 30
0.0
 10
13.224415091
 20
8.9785667576
 30
0.0
 10
13.2205727486
 20
9.0242540654
 30
0.0
 10
13.2172990512
 20
9.0808658753
 30
0.0
 10
13.2153316384
 20
9.1395431417
 30
0.0
 10
13.2149044762
 20
9.1793124881
 30
0.0
 10
13.2149044762
 20
9.1994715528
 30
0.0
  0
SPLINE
  5
394
100
AcDbEntity
  8
0
100
AcDbSpline
 62
7
  6
CONTINUOUS
 70
0
 71
3
 72
55
 73
51
 74
0
 42
0.0000001
 43
0.0000001
 44
0.0000000001
 40
0.0
 40
0.0
 40
0.0
 40
0.0
 40
0.0544796836
 40
0.1080730038
 40
0.1606188057
 40
0.2119841062
 40
0.2620411187
 40
0.3106614428
 40
0.3577215751
 40
0.4031061635
 40
0.4467061545
 40
0.4884199557
 40
0.5281545703
 40
0.5658265035
 40
0.6013637281
 40
0.6347062423
 40
0.6658099984
 40
0.694647824
 40
0.7082163713
 40
0.7212192512
 40
0.7336600645
 40
0.7455452452
 40
0.7568838525
 40
0.7676875652
 40
0.7779714304
 40
0.7877550967
 40
0.7970627058
 40
0.8059233995
 40
0.8143724103
 40
0.8224520268
 40
0.8302114288
 40
0.8377068764
 40
0.8450017153
 40
0.8521653036
 40
0.8592710663
 40
0.8663944188
 40
0.8736102248
 40
0.8809901605
 40
0.888600879
 40
0.8965027645
 40
0.9047487914
 40
0.9133845833
 40
0.92244909
 40
0.9319750597
 40
0.9419890353
 40
0.9525126212
 40
0.9635634308
 40
0.9751553269
 40
0.9872983602
 40
1.0
 40
1.0
 40
1.0
 40
1.0
 10
14.0154038243
 20
9.1866945929
 30
0.0
 10
14.0154038243
 20
9.176129628
 30
0.0
 10
14.0155524888
 20
9.1551712508
 30
0.0
 10
14.0162309932
 20
9.1240295522
 30
0.0
 10
14.0173623113
 20
9.0935052401
 30
0.0
 10
14.0189425742
 20
9.063687526
 30
0.0
 10
14.0209674723
 20
9.0346596442
 30
0.0
 10
14.023430842
 20
9.0065035277
 30
0.0
 10
14.0263259656
 20
8.979299416
 30
0.0
 10
14.0296441503
 20
8.9531245433
 30
0.0
 10
14.0333759873
 20
8.9280529453
 30
0.0
 10
14.0375106184
 20
8.904155542
 30
0.0
 10
14.042036089
 20
8.8814998769
 30
0.0
 10
14.0469394596
 20
8.8601497795
 30
0.0
 10
14.0522063483
 20
8.8401652354
 30
0.0
 10
14.0578220351
 20
8.8216019118
 30
0.0
 10
14.0637700231
 20
8.8045117592
 30
0.0
 10
14.0690929471
 20
8.7912796823
 30
0.0
 10
14.0735252229
 20
8.7814896538
 30
0.0
 10
14.0768542987
 20
8.7746945973
 30
0.0
 10
14.080253824
 20
8.7683018516
 30
0.0
 10
14.0837214231
 20
8.7623157594
 30
0.0
 10
14.0872546409
 20
8.7567403262
 30
0.0
 10
14.0908511903
 20
8.7515794464
 30
0.0
 10
14.0945089888
 20
8.7468368892
 30
0.0
 10
14.0982255472
 20
8.7425157746
 30
0.0
 10
14.1019985661
 20
8.7386190366
 30
0.0
 10
14.1058259475
 20
8.7351496737
 30
0.0
 10
14.1097056709
 20
8.7321106622
 30
0.0
 10
14.1136352903
 20
8.7295043576
 30
0.0
 10
14.1176124494
 20
8.7273332704
 30
0.0
 10
14.1216346501
 20
8.7256002518
 30
0.0
 10
14.1256988176
 20
8.7243078768
 30
0.0
 10
14.1298012116
 20
8.7234577855
 30
0.0
 10
14.1339377941
 20
8.7230513649
 30
0.0
 10
14.1381041929
 20
8.7230896149
 30
0.0
 10
14.1422959422
 20
8.7235720565
 30
0.0
 10
14.146508991
 20
8.7244971394
 30
0.0
 10
14.1507397557
 20
8.7258631908
 30
0.0
 10
14.1549849207
 20
8.7276685288
 30
0.0
 10
14.1592417285
 20
8.7299106267
 30
0.0
 10
14.1635076503
 20
8.7325870067
 30
0.0
 10
14.1677801243
 20
8.7356954574
 30
0.0
 10
14.1720564153
 20
8.739233775
 30
0.0
 10
14.1763341074
 20
8.7431990466
 30
0.0
 10
14.1806105684
 20
8.7475883816
 30
0.0
 10
14.1848829693
 20
8.7523988703
 30
0.0
 10
14.1891483825
 20
8.757627321
 30
0.0
 10
14.1934041068
 20
8.763269812
 30
0.0
 10
14.1961703968
 20
8.7672157956
 30
0.0
 10
14.1975527432
 20
8.7692544947
 30
0.0
  0
SPLINE
  5
395
100
AcDbEntity
  8
0
100
AcDbSpline
 62
7
  6
CONTINUOUS
 70
0
 71
3
 72
9
 73
5
 74
0
 42
0.0000001
 43
0.0000001
 44
0.0000000001
 40
0.0
 40
0.0
 40
0.0
 40
0.0
 40
0.2415810799
 40
1.0
 40
1.0
 40
1.0
 40
1.0
 10
14.1975527432
 20
8.7692544947
 30
0.0
 10
14.1983237579
 20
8.7703915954
 30
0.0
 10
14.2014742395
 20
8.7751262951
 30
0.0
 10
14.2044656901
 20
8.7799661416
 30
0.0
 10
14.2066568259
 20
8.7836811647
 30
0.0
  0
SPLINE
  5
396
100
AcDbEntity
  8
0
100
AcDbSpline
 62
7
  6
CONTINUOUS
 70
0
 71
3
 72
48
 73
44
 74
0
 42
0.0000001
 43
0.0000001
 44
0.0000000001
 40
0.0
 40
0.0
 40
0.0
 40
0.0
 40
0.0053769687
 40
0.0108200173
 40
0.0163927233
 40
0.0221539786
 40
0.0281563765
 40
0.0344458485
 40
0.041061621
 40
0.0480361
 40
0.055395926
 40
0.063162886
 40
0.0713540501
 40
0.0799824939
 40
0.0890583737
 40
0.0985891074
 40
0.1085792771
 40
0.1190316545
 40
0.1299475178
 40
0.1413261599
 40
0.153165471
 40
0.1654624895
 40
0.1782130527
 40
0.1914116601
 40
0.2191270145
 40
0.2485513502
 40
0.2796151531
 40
0.3122388146
 40
0.3463350437
 40
0.3818084318
 40
0.4185575649
 40
0.4564749463
 40
0.4954478721
 40
0.535359436
 40
0.5760883781
 40
0.6175104986
 40
0.6594984787
 40
0.744649988
 40
0.8304924563
 40
0.8733398395
 40
0.9159613744
 40
0.9582295888
 40
1.0
 40
1.0
 40
1.0
 40
1.0
 10
13.4705830605
 20
10.1719785266
 30
0.0
 10
13.4687157402
 20
10.1721079823
 30
0.0
 10
13.4649395544
 20
10.1721510422
 30
0.0
 10
13.4592517741
 20
10.1715642035
 30
0.0
 10
13.4535322212
 20
10.1703277669
 30
0.0
 10
13.4477879386
 20
10.1684446558
 30
0.0
 10
13.4420235042
 20
10.165919063
 30
0.0
 10
13.436243344
 20
10.1627545421
 30
0.0
 10
13.4304516863
 20
10.1589544991
 30
0.0
 10
13.4246521528
 20
10.1545233005
 30
0.0
 10
13.4188486003
 20
10.1494649963
 30
0.0
 10
13.4130453549
 20
10.1437835143
 30
0.0
 10
13.4072465368
 20
10.1374836364
 30
0.0
 10
13.4014562689
 20
10.1305706675
 30
0.0
 10
13.395679139
 20
10.1230499632
 30
0.0
 10
13.3899198598
 20
10.1149274183
 30
0.0
 10
13.3841827131
 20
10.1062098375
 30
0.0
 10
13.3784723341
 20
10.0969042401
 30
0.0
 10
13.3727936267
 20
10.0870179745
 30
0.0
 10
13.3671510502
 20
10.076559223
 30
0.0
 10
13.361549116
 20
10.0655366283
 30
0.0
 10
13.3559926274
 20
10.0539590793
 30
0.0
 10
13.3504861802
 20
10.041836026
 30
0.0
 10
13.3430960882
 20
10.0246773734
 30
0.0
 10
13.3340408887
 20
10.0019216237
 30
0.0
 10
13.3236137377
 20
9.9730365877
 30
0.0
 10
13.313491108
 20
9.9422398414
 30
0.0
 10
13.3037062034
 20
9.9096329375
 30
0.0
 10
13.2942922523
 20
9.87532294
 30
0.0
 10
13.2852801234
 20
9.8394229884
 30
0.0
 10
13.2767001474
 20
9.8020514807
 30
0.0
 10
13.2685808774
 20
9.7633318006
 30
0.0
 10
13.2609491073
 20
9.7233918924
 30
0.0
 10
13.2538306451
 20
9.6823637207
 30
0.0
 10
13.2472487092
 20
9.6403829686
 30
0.0
 10
13.2412254674
 20
9.5975883517
 30
0.0
 10
13.2339324505
 20
9.5393626369
 30
0.0
 10
13.2263628548
 20
9.4655965438
 30
0.0
 10
13.2208956523
 20
9.3913453645
 30
0.0
 10
13.2177989976
 20
9.3317880619
 30
0.0
 10
13.2161342241
 20
9.287350381
 30
0.0
 10
13.2151315375
 20
9.2432679972
 30
0.0
 10
13.2149044762
 20
9.2140124505
 30
0.0
 10
13.2149044762
 20
9.1994715528
 30
0.0
  0
SPLINE
  5
397
100
AcDbEntity
  8
0
100
AcDbSpline
 62
7
  6
CONTINUOUS
 70
0
 71
3
 72
9
 73
5
 74
0
 42
0.0000001
 43
0.0000001
 44
0.0000000001
 40
0.0
 40
0.0
 40
0.0
 40
0.0
 40
0.4850642138
 40
1.0
 40
1.0
 40
1.0
 40
1.0
 10
13.3693361147
 20
8.7042240235
 30
0.0
 10
13.3675632854
 20
8.7060549967
 30
0.0
 10
13.3640514657
 20
8.7099697757
 30
0.0
 10
13.3608047638
 20
8.7141053442
 30
0.0
 10
13.3591948156
 20
8.7162797622
 30
0.0
  0
SPLINE
  5
398
100
AcDbEntity
  8
0
100
AcDbSpline
 62
7
  6
CONTINUOUS
 70
0
 71
3
 72
9
 73
5
 74
0
 42
0.0000001
 43
0.0000001
 44
0.0000000001
 40
0.0
 40
0.0
 40
0.0
 40
0.0
 40
0.5149357862
 40
1.0
 40
1.0
 40
1.0
 40
1.0
 10
14.0294629878
 20
8.6697965066
 30
0.0
 10
14.031072936
 20
8.6676220886
 30
0.0
 10
14.0343196379
 20
8.6634865201
 30
0.0
 10
14.0378314576
 20
8.6595717411
 30
0.0
 10
14.0396042869
 20
8.6577407679
 30
0.0
  0
SPLINE
  5
399
100
AcDbEntity
  8
0
100
AcDbSpline
 62
7
  6
CONTINUOUS
 70
0
 71
3
 72
23
 73
19
 74
0
 42
0.0000001
 43
0.0000001
 44
0.0000000001
 40
0.0
 40
0.0
 40
0.0
 40
0.0
 40
0.0517124017
 40
0.105817437
 40
0.1621248898
 40
0.2204554779
 40
0.2806133097
 40
0.342391697
 40
0.4055775525
 40
0.4699511935
 40
0.5352873143
 40
0.6013557937
 40
0.6679239017
 40
0.7347566859
 40
0.801615562
 40
0.8682649978
 40
0.9344779167
 40
1.0
 40
1.0
 40
1.0
 40
1.0
 10
13.3591948156
 20
9.8800045025
 30
0.0
 10
13.3559221756
 20
9.8692621752
 30
0.0
 10
13.3495282581
 20
9.8471873766
 30
0.0
 10
13.340561103
 20
9.8131386533
 30
0.0
 10
13.3320264412
 20
9.7774994688
 30
0.0
 10
13.3239569349
 20
9.7404061672
 30
0.0
 10
13.3163825896
 20
9.7019971245
 30
0.0
 10
13.3093326933
 20
9.6624171413
 30
0.0
 10
13.3028338271
 20
9.6218156784
 30
0.0
 10
13.2969105133
 20
9.5803457917
 30
0.0
 10
13.2915855366
 20
9.5381638923
 30
0.0
 10
13.2868787411
 20
9.4954291488
 30
0.0
 10
13.2828080709
 20
9.4523026969
 30
0.0
 10
13.2793891296
 20
9.4089475334
 30
0.0
 10
13.2766344002
 20
9.3655274198
 30
0.0
 10
13.2745545126
 20
9.3222044644
 30
0.0
 10
13.2731576305
 20
9.2791446453
 30
0.0
 10
13.2726816151
 20
9.250539824
 30
0.0
 10
13.2725609063
 20
9.2363116791
 30
0.0
  0
SPLINE
  5
39A
100
AcDbEntity
  8
0
100
AcDbSpline
 62
7
  6
CONTINUOUS
 70
0
 71
3
 72
41
 73
37
 74
0
 42
0.0000001
 43
0.0000001
 44
0.0000000001
 40
0.0
 40
0.0
 40
0.0
 40
0.0
 40
0.0310748272
 40
0.0623072483
 40
0.0936920359
 40
0.1252208484
 40
0.156882237
 40
0.188662033
 40
0.2205436266
 40
0.2525083437
 40
0.2845358343
 40
0.3166044929
 40
0.3486918936
 40
0.3807752384
 40
0.4128318095
 40
0.4448394218
 40
0.4767768664
 40
0.5086243418
 40
0.5403638639
 40
0.5719796493
 40
0.6034584635
 40
0.6347899281
 40
0.6659667781
 40
0.6969850622
 40
0.7278442783
 40
0.7585474376
 40
0.7891010512
 40
0.8195150346
 40
0.8498025274
 40
0.8649066426
 40
0.8799854039
 40
0.9100708284
 40
0.9400854823
 40
0.9550762294
 40
0.970057877
 40
1.0
 40
1.0
 40
1.0
 40
1.0
 10
8.2219659854
 20
9.2989222942
 30
0.0
 10
8.2219659854
 20
9.303781646
 30
0.0
 10
8.2216034779
 20
9.313528732
 30
0.0
 10
8.2199850234
 20
9.3281026896
 30
0.0
 10
8.2172995446
 20
9.3425910898
 30
0.0
 10
8.2135619565
 20
9.3569132952
 30
0.0
 10
8.2087929138
 20
9.3709909654
 30
0.0
 10
8.2030187257
 20
9.3847467515
 30
0.0
 10
8.1962711896
 20
9.3981051848
 30
0.0
 10
8.1885874265
 20
9.4109929587
 30
0.0
 10
8.1800096725
 20
9.4233393595
 30
0.0
 10
8.1705850504
 20
9.4350766407
 30
0.0
 10
8.1603653123
 20
9.4461403929
 30
0.0
 10
8.1494065579
 20
9.4564698925
 30
0.0
 10
8.1377689296
 20
9.4660084322
 30
0.0
 10
8.1255162862
 20
9.4747036288
 30
0.0
 10
8.1127158561
 20
9.4825077086
 30
0.0
 10
8.099437873
 20
9.4893777677
 30
0.0
 10
8.0857551954
 20
9.4952760063
 30
0.0
 10
8.0717429118
 20
9.5001699365
 30
0.0
 10
8.057477935
 20
9.5040325608
 30
0.0
 10
8.0430385855
 20
9.5068425229
 30
0.0
 10
8.0285041668
 20
9.5085842276
 30
0.0
 10
8.0139545399
 20
9.5092479341
 30
0.0
 10
7.9994696738
 20
9.5088298081
 30
0.0
 10
7.9851292688
 20
9.5073319785
 30
0.0
 10
7.9710121013
 20
9.5047624371
 30
0.0
 10
7.9571964045
 20
9.5011353664
 30
0.0
 10
7.9459855531
 20
9.4972435698
 30
0.0
 10
7.9372472385
 20
9.4936242962
 30
0.0
 10
7.9286858047
 20
9.4896793187
 30
0.0
 10
7.9183050374
 20
9.4841340174
 30
0.0
 10
7.9084056139
 20
9.4777944269
 30
0.0
 10
7.9008188895
 20
9.4722737217
 30
0.0
 10
7.8934663255
 20
9.4664638984
 30
0.0
 10
7.8882163113
 20
9.4617815005
 30
0.0
 10
7.8848486111
 20
9.4585285296
 30
0.0
  0
SPLINE
  5
39B
100
AcDbEntity
  8
0
100
AcDbSpline
 62
7
  6
CONTINUOUS
 70
0
 71
3
 72
41
 73
37
 74
0
 42
0.0000001
 43
0.0000001
 44
0.0000000001
 40
0.0
 40
0.0
 40
0.0
 40
0.0
 40
0.0310748272
 40
0.0623072483
 40
0.0936920359
 40
0.1252208484
 40
0.156882237
 40
0.188662033
 40
0.2205436266
 40
0.2525083437
 40
0.2845358343
 40
0.3166044929
 40
0.3486918936
 40
0.3807752384
 40
0.4128318095
 40
0.4448394218
 40
0.4767768664
 40
0.5086243418
 40
0.5403638639
 40
0.5719796493
 40
0.6034584635
 40
0.6347899281
 40
0.6659667781
 40
0.6969850622
 40
0.7278442783
 40
0.7585474376
 40
0.7891010512
 40
0.8195150346
 40
0.8498025274
 40
0.8649066426
 40
0.8799854039
 40
0.9100708284
 40
0.9400854823
 40
0.9550762294
 40
0.970057877
 40
1.0
 40
1.0
 40
1.0
 40
1.0
 10
12.8101139321
 20
7.0488813864
 30
0.0
 10
12.8101139321
 20
7.0537407382
 30
0.0
 10
12.8097514246
 20
7.0634878242
 30
0.0
 10
12.8081329701
 20
7.0780617818
 30
0.0
 10
12.8054474914
 20
7.092550182
 30
0.0
 10
12.8017099032
 20
7.1068723873
 30
0.0
 10
12.7969408606
 20
7.1209500575
 30
0.0
 10
12.7911666724
 20
7.1347058436
 30
0.0
 10
12.7844191364
 20
7.1480642769
 30
0.0
 10
12.7767353732
 20
7.1609520508
 30
0.0
 10
12.7681576192
 20
7.1732984517
 30
0.0
 10
12.7587329972
 20
7.1850357329
 30
0.0
 10
12.7485132591
 20
7.196099485
 30
0.0
 10
12.7375545046
 20
7.2064289847
 30
0.0
 10
12.7259168763
 20
7.2159675244
 30
0.0
 10
12.7136642329
 20
7.224662721
 30
0.0
 10
12.7008638029
 20
7.2324668008
 30
0.0
 10
12.6875858198
 20
7.2393368598
 30
0.0
 10
12.6739031421
 20
7.2452350985
 30
0.0
 10
12.6598908585
 20
7.2501290287
 30
0.0
 10
12.6456258817
 20
7.253991653
 30
0.0
 10
12.6311865322
 20
7.256801615
 30
0.0
 10
12.6166521135
 20
7.2585433198
 30
0.0
 10
12.6021024867
 20
7.2592070262
 30
0.0
 10
12.5876176205
 20
7.2587889003
 30
0.0
 10
12.5732772155
 20
7.2572910706
 30
0.0
 10
12.559160048
 20
7.2547215292
 30
0.0
 10
12.5453443513
 20
7.2510944585
 30
0.0
 10
12.5341334998
 20
7.2472026619
 30
0.0
 10
12.5253951852
 20
7.2435833884
 30
0.0
 10
12.5168337514
 20
7.2396384109
 30
0.0
 10
12.5064529842
 20
7.2340931095
 30
0.0
 10
12.4965535606
 20
7.227753519
 30
0.0
 10
12.4889668362
 20
7.2222328139
 30
0.0
 10
12.4816142722
 20
7.2164229905
 30
0.0
 10
12.476364258
 20
7.2117405926
 30
0.0
 10
12.4729965579
 20
7.2084876218
 30
0.0
  0
SPLINE
  5
39C
100
AcDbEntity
  8
0
100
AcDbSpline
 62
7
  6
CONTINUOUS
 70
0
 71
3
 72
48
 73
44
 74
0
 42
0.0000001
 43
0.0000001
 44
0.0000000001
 40
0.0
 40
0.0
 40
0.0
 40
0.0
 40
0.0958286576
 40
0.1428188272
 40
0.1890970196
 40
0.2345922983
 40
0.2792360825
 40
0.3229616488
 40
0.3657042172
 40
0.4074012778
 40
0.4479927829
 40
0.4874213572
 40
0.5256325123
 40
0.5625749103
 40
0.598200717
 40
0.6324659207
 40
0.6653306956
 40
0.696759874
 40
0.7267235748
 40
0.7551978881
 40
0.7821657087
 40
0.8076178456
 40
0.8197759461
 40
0.8315561047
 40
0.8429601471
 40
0.8539906576
 40
0.8646512757
 40
0.874946597
 40
0.8848823707
 40
0.8944657071
 40
0.9037050399
 40
0.9126104751
 40
0.9211938751
 40
0.9294689913
 40
0.9374518164
 40
0.9451605991
 40
0.9598347983
 40
0.9668566638
 40
0.9737035496
 40
0.9804068013
 40
0.9870000417
 40
0.9935188169
 40
1.0
 40
1.0
 40
1.0
 40
1.0
 10
9.7700567739
 20
10.759152046
 30
0.0
 10
9.7490376815
 20
10.760609725
 30
0.0
 10
9.7177341848
 20
10.7631312476
 30
0.0
 10
9.676357621
 20
10.7672082353
 30
0.0
 10
9.646032943
 20
10.7705695905
 30
0.0
 10
9.6162649579
 20
10.7742487175
 30
0.0
 10
9.5871034464
 20
10.7782394452
 30
0.0
 10
9.5585971529
 20
10.7825350516
 30
0.0
 10
9.5307937083
 20
10.7871283254
 30
0.0
 10
9.5037395785
 20
10.7920115537
 30
0.0
 10
9.4774799478
 20
10.7971765192
 30
0.0
 10
9.4520586563
 20
10.8026145305
 30
0.0
 10
9.4275181325
 20
10.8083164425
 30
0.0
 10
9.4038993144
 20
10.814272679
 30
0.0
 10
9.381241561
 20
10.820473217
 30
0.0
 10
9.3595825835
 20
10.826907626
 30
0.0
 10
9.3389583913
 20
10.8335650959
 30
0.0
 10
9.319403208
 20
10.8404344717
 30
0.0
 10
9.3009494215
 20
10.8475042424
 30
0.0
 10
9.2836273718
 20
10.8547626192
 30
0.0
 10
9.2674657972
 20
10.8621974993
 30
0.0
 10
9.2548001735
 20
10.8686246105
 30
0.0
 10
9.2452830084
 20
10.8738558749
 30
0.0
 10
9.238561026
 20
10.87775576
 30
0.0
 10
9.2321483975
 20
10.8816903797
 30
0.0
 10
9.2260477967
 20
10.8856582261
 30
0.0
 10
9.2202617105
 20
10.889657605
 30
0.0
 10
9.214792533
 20
10.8936869169
 30
0.0
 10
9.2096425418
 20
10.8977445666
 30
0.0
 10
9.2048138148
 20
10.9018288645
 30
0.0
 10
9.200308394
 20
10.9059382607
 30
0.0
 10
9.1961281392
 20
10.9100711053
 30
0.0
 10
9.1922747574
 20
10.9142258052
 30
0.0
 10
9.1887500288
 20
10.9184007086
 30
0.0
 10
9.1855551811
 20
10.922594594
 30
0.0
 10
9.1817997999
 20
10.9281172261
 30
0.0
 10
9.1786225596
 20
10.9337703605
 30
0.0
 10
9.1761052776
 20
10.9395234261
 30
0.0
 10
9.17458108
 20
10.9437861398
 30
0.0
 10
9.1733944348
 20
10.9480572067
 30
0.0
 10
9.1725461948
 20
10.9523349503
 30
0.0
 10
9.1720369191
 20
10.9566168402
 30
0.0
 10
9.1719235832
 20
10.9594763797
 30
0.0
 10
9.1719235765
 20
10.9609013791
 30
0.0
  0
SPLINE
  5
39D
100
AcDbEntity
  8
0
100
AcDbSpline
 62
7
  6
CONTINUOUS
 70
0
 71
3
 72
19
 73
15
 74
0
 42
0.0000001
 43
0.0000001
 44
0.0000000001
 40
0.0
 40
0.0
 40
0.0
 40
0.0
 40
0.150460937
 40
0.2916987357
 40
0.424419542
 40
0.4878837275
 40
0.5495802504
 40
0.6682271673
 40
0.7255606103
 40
0.7817998831
 40
0.8371466721
 40
0.8918135967
 40
0.94602219
 40
1.0
 40
1.0
 40
1.0
 40
1.0
 10
13.2997767234
 20
10.1578058941
 30
0.0
 10
13.3019875135
 20
10.1599413534
 30
0.0
 10
13.3064060527
 20
10.1639480825
 30
0.0
 10
13.3132477342
 20
10.1692875087
 30
0.0
 10
13.3190266109
 20
10.1730638479
 30
0.0
 10
13.3236348956
 20
10.1756210761
 30
0.0
 10
13.3281072284
 20
10.177816511
 30
0.0
 10
13.3326319246
 20
10.1796110819
 30
0.0
 10
13.3371820772
 20
10.1809615047
 30
0.0
 10
13.3405463357
 20
10.1817398964
 30
0.0
 10
13.3438993949
 20
10.1822946989
 30
0.0
 10
13.3472403691
 20
10.1826256377
 30
0.0
 10
13.3505679076
 20
10.1827325846
 30
0.0
 10
13.3527786296
 20
10.1826543999
 30
0.0
 10
13.3538786849
 20
10.1825781108
 30
0.0
  0
SPLINE
  5
39E
100
AcDbEntity
  8
0
100
AcDbSpline
 62
7
  6
CONTINUOUS
 70
0
 71
3
 72
29
 73
25
 74
0
 42
0.0000001
 43
0.0000001
 44
0.0000000001
 40
0.0
 40
0.0
 40
0.0
 40
0.0
 40
0.0308567503
 40
0.0616603989
 40
0.0924140154
 40
0.1231291718
 40
0.1538159557
 40
0.1844863139
 40
0.2151533937
 40
0.2458308463
 40
0.2765329383
 40
0.3072738717
 40
0.3380673958
 40
0.3689267998
 40
0.4308723133
 40
0.4932082614
 40
0.5559798815
 40
0.6191883618
 40
0.6827797024
 40
0.7466352554
 40
0.8105655868
 40
0.8743133499
 40
0.9375681413
 40
1.0
 40
1.0
 40
1.0
 40
1.0
 10
11.0347051792
 20
7.7351903245
 30
0.0
 10
11.0347051792
 20
7.7318187722
 30
0.0
 10
11.0348914561
 20
7.7250799684
 30
0.0
 10
11.0357299682
 20
7.7150123063
 30
0.0
 10
11.0371235999
 20
7.7050216873
 30
0.0
 10
11.0390656287
 20
7.695136182
 30
0.0
 10
11.0415472375
 20
7.6853815795
 30
0.0
 10
11.0445572649
 20
7.6757824759
 30
0.0
 10
11.0480827894
 20
7.6663616908
 30
0.0
 10
11.0521093541
 20
7.6571402748
 30
0.0
 10
11.0566210966
 20
7.6481373891
 30
0.0
 10
11.0616012086
 20
7.6393705322
 30
0.0
 10
11.0670324429
 20
7.6308552896
 30
0.0
 10
11.074859637
 20
7.6198441666
 30
0.0
 10
11.0856935775
 20
7.6067690553
 30
0.0
 10
11.1001819345
 20
7.5923131723
 30
0.0
 10
11.1160260899
 20
7.5791422212
 30
0.0
 10
11.133070001
 20
7.5673267724
 30
0.0
 10
11.1511520248
 20
7.5569337691
 30
0.0
 10
11.1700987292
 20
7.5480311789
 30
0.0
 10
11.1897201135
 20
7.5406875935
 30
0.0
 10
11.2098076068
 20
7.5349698591
 30
0.0
 10
11.2301321702
 20
7.5309382175
 30
0.0
 10
11.243797669
 20
7.5293931244
 30
0.0
 10
11.2506029196
 20
7.5289211787
 30
0.0
  0
SPLINE
  5
39F
100
AcDbEntity
  8
0
100
AcDbSpline
 62
7
  6
CONTINUOUS
 70
0
 71
3
 72
41
 73
37
 74
0
 42
0.0000001
 43
0.0000001
 44
0.0000000001
 40
0.0
 40
0.0
 40
0.0
 40
0.0
 40
0.0311444435
 40
0.0624425082
 40
0.0938872491
 40
0.1254695823
 40
0.1571771047
 40
0.1889951244
 40
0.2209066755
 40
0.2528929806
 40
0.2849337954
 40
0.3170078208
 40
0.3490931155
 40
0.3811675209
 40
0.4132090884
 40
0.4451965039
 40
0.4771095035
 40
0.5089292748
 40
0.5406388381
 40
0.5722234001
 40
0.6036706745
 40
0.6349711617
 40
0.666118382
 40
0.6971090532
 40
0.7279432083
 40
0.7586242446
 40
0.7891589004
 40
0.819557156
 40
0.849832054
 40
0.8649308927
 40
0.8800050544
 40
0.9100832588
 40
0.9400926743
 40
0.955081275
 40
0.9700610362
 40
1.0
 40
1.0
 40
1.0
 40
1.0
 10
11.0622599164
 20
7.7546165197
 30
0.0
 10
11.0672367386
 20
7.7542713759
 30
0.0
 10
11.0771933693
 20
7.7532150861
 30
0.0
 10
11.0920075865
 20
7.7505543358
 30
0.0
 10
11.106663158
 20
7.7468273336
 30
0.0
 10
11.1210808634
 20
7.7420542497
 30
0.0
 10
11.1351841594
 20
7.7362605818
 30
0.0
 10
11.1488977999
 20
7.7294773641
 30
0.0
 10
11.1621487328
 20
7.7217408276
 30
0.0
 10
11.1748663496
 20
7.7130922878
 30
0.0
 10
11.1869828906
 20
7.7035778901
 30
0.0
 10
11.1984337943
 20
7.6932483799
 30
0.0
 10
11.2091580387
 20
7.6821588283
 30
0.0
 10
11.2190984628
 20
7.6703683436
 30
0.0
 10
11.228202069
 20
7.6579397586
 30
0.0
 10
11.2364203021
 20
7.644939299
 30
0.0
 10
11.243709307
 20
7.6314362351
 30
0.0
 10
11.2500301604
 20
7.6175025163
 30
0.0
 10
11.255349078
 20
7.6032123929
 30
0.0
 10
11.2596375948
 20
7.5886420256
 30
0.0
 10
11.2628727179
 20
7.5738690845
 30
0.0
 10
11.2650370515
 20
7.5589723416
 30
0.0
 10
11.2661188931
 20
7.5440312547
 30
0.0
 10
11.2661123033
 20
7.5291255533
 30
0.0
 10
11.2650171362
 20
7.5143348019
 30
0.0
 10
11.2628390777
 20
7.4997380364
 30
0.0
 10
11.2595895172
 20
7.4854131295
 30
0.0
 10
11.2552858917
 20
7.471437167
 30
0.0
 10
11.2508352286
 20
7.4601314305
 30
0.0
 10
11.2467737576
 20
7.4513394765
 30
0.0
 10
11.2423906649
 20
7.4427386809
 30
0.0
 10
11.2363049773
 20
7.4323355736
 30
0.0
 10
11.2294365613
 20
7.4224483651
 30
0.0
 10
11.2235012768
 20
7.4148908011
 30
0.0
 10
11.217282806
 20
7.4075799577
 30
0.0
 10
11.2123007514
 20
7.4023752403
 30
0.0
 10
11.2088514384
 20
7.3990434563
 30
0.0
  0
SPLINE
  5
3A0
100
AcDbEntity
  8
0
100
AcDbSpline
 62
7
  6
CONTINUOUS
 70
0
 71
3
 72
19
 73
15
 74
0
 42
0.0000001
 43
0.0000001
 44
0.0000000001
 40
0.0
 40
0.0
 40
0.0
 40
0.0
 40
0.1274847103
 40
0.2540882156
 40
0.3798556622
 40
0.504861426
 40
0.5671331007
 40
0.629257493
 40
0.6912525047
 40
0.7531374363
 40
0.8149327837
 40
0.8766600671
 40
0.9383415538
 40
1.0
 40
1.0
 40
1.0
 40
1.0
 10
11.0622599164
 20
7.7546165197
 30
0.0
 10
11.0554695055
 20
7.7550874363
 30
0.0
 10
11.0418787449
 20
7.7553525433
 30
0.0
 10
11.0216314589
 20
7.7536927512
 30
0.0
 10
11.0017892431
 20
7.7499914498
 30
0.0
 10
10.9857336932
 20
7.7452272325
 30
0.0
 10
10.9733015921
 20
7.7404419022
 30
0.0
 10
10.9642113109
 20
7.7363794548
 30
0.0
 10
10.9553679804
 20
7.7318499207
 30
0.0
 10
10.9467935724
 20
7.7268645492
 30
0.0
 10
10.938509822
 20
7.7214359098
 30
0.0
 10
10.930537456
 20
7.7155776728
 30
0.0
 10
10.9228968938
 20
7.7093047805
 30
0.0
 10
10.9180362478
 20
7.7048560334
 30
0.0
 10
10.9156683944
 20
7.7025688603
 30
0.0
  0
SPLINE
  5
3A1
100
AcDbEntity
  8
0
100
AcDbSpline
 62
7
  6
CONTINUOUS
 70
0
 71
3
 72
15
 73
11
 74
0
 42
0.0000001
 43
0.0000001
 44
0.0000000001
 40
0.0
 40
0.0
 40
0.0
 40
0.0
 40
0.1234394136
 40
0.2470466177
 40
0.370982561
 40
0.4953948844
 40
0.6204121622
 40
0.7461393429
 40
0.8726517211
 40
1.0
 40
1.0
 40
1.0
 40
1.0
 10
8.1669174509
 20
9.166512857
 30
0.0
 10
8.171276151
 20
9.1707230669
 30
0.0
 10
8.1795717313
 20
9.1796053346
 30
0.0
 10
8.1905891689
 20
9.1941459787
 30
0.0
 10
8.2000885348
 20
9.2097787437
 30
0.0
 10
8.2079805395
 20
9.2263571491
 30
0.0
 10
8.2141931888
 20
9.2437281298
 30
0.0
 10
8.2186695038
 20
9.2617314914
 30
0.0
 10
8.2213690493
 20
9.2801988594
 30
0.0
 10
8.2219659854
 20
9.2926703512
 30
0.0
 10
8.2219659854
 20
9.2989222942
 30
0.0
  0
SPLINE
  5
3A2
100
AcDbEntity
  8
0
100
AcDbSpline
 62
7
  6
CONTINUOUS
 70
0
 71
3
 72
15
 73
11
 74
0
 42
0.0000001
 43
0.0000001
 44
0.0000000001
 40
0.0
 40
0.0
 40
0.0
 40
0.0
 40
0.1234394136
 40
0.2470466177
 40
0.370982561
 40
0.4953948844
 40
0.6204121622
 40
0.7461393429
 40
0.8726517211
 40
1.0
 40
1.0
 40
1.0
 40
1.0
 10
12.7550653976
 20
6.9164719491
 30
0.0
 10
12.7594240977
 20
6.920682159
 30
0.0
 10
12.7677196781
 20
6.9295644267
 30
0.0
 10
12.7787371156
 20
6.9441050709
 30
0.0
 10
12.7882364815
 20
6.9597378358
 30
0.0
 10
12.7961284862
 20
6.9763162413
 30
0.0
 10
12.8023411355
 20
6.9936872219
 30
0.0
 10
12.8068174506
 20
7.0116905835
 30
0.0
 10
12.809516996
 20
7.0301579516
 30
0.0
 10
12.8101139321
 20
7.0426294433
 30
0.0
 10
12.8101139321
 20
7.0488813864
 30
0.0
  0
SPLINE
  5
3A3
100
AcDbEntity
  8
0
100
AcDbSpline
 62
7
  6
CONTINUOUS
 70
0
 71
3
 72
53
 73
49
 74
0
 42
0.0000001
 43
0.0000001
 44
0.0000000001
 40
0.0
 40
0.0
 40
0.0
 40
0.0
 40
0.0055575376
 40
0.0111779567
 40
0.0169218821
 40
0.0228457564
 40
0.0290005139
 40
0.0354309032
 40
0.0421753268
 40
0.0492661629
 40
0.0567301863
 40
0.0645892833
 40
0.0728609369
 40
0.0815589669
 40
0.0906938756
 40
0.1002734826
 40
0.1103031213
 40
0.1207861401
 40
0.1317240026
 40
0.14311666
 40
0.1549626112
 40
0.1672591551
 40
0.1800024545
 40
0.1931876791
 40
0.2068090973
 40
0.2208601246
 40
0.2353334527
 40
0.2502210197
 40
0.2655141749
 40
0.2812035909
 40
0.3137306612
 40
0.3477179984
 40
0.3830731233
 40
0.4196969504
 40
0.4574845402
 40
0.4963257781
 40
0.5361060008
 40
0.5767065869
 40
0.618005522
 40
0.6598779471
 40
0.7021966942
 40
0.7448328149
 40
0.7876560998
 40
0.8305356101
 40
0.8733401519
 40
0.9159389309
 40
0.9582016869
 40
1.0
 40
1.0
 40
1.0
 40
1.0
 10
10.7859235653
 20
10.9609024037
 30
0.0
 10
10.7859235748
 20
10.9589060412
 30
0.0
 10
10.7857000898
 20
10.9548872521
 30
0.0
 10
10.7846969884
 20
10.9488805095
 30
0.0
 10
10.7830276264
 20
10.9428871691
 30
0.0
 10
10.7806952798
 20
10.9369141767
 30
0.0
 10
10.7777037842
 20
10.9309663707
 30
0.0
 10
10.7740571429
 20
10.925048327
 30
0.0
 10
10.7697595487
 20
10.9191640732
 30
0.0
 10
10.7648151574
 20
10.9133176272
 30
0.0
 10
10.7592284615
 20
10.9075128535
 30
0.0
 10
10.7530040662
 20
10.9017538746
 30
0.0
 10
10.7461471116
 20
10.8960447049
 30
0.0
 10
10.738663008
 20
10.890389673
 30
0.0
 10
10.7305577863
 20
10.8847929452
 30
0.0
 10
10.7218378436
 20
10.8792589627
 30
0.0
 10
10.7125101964
 20
10.8737919676
 30
0.0
 10
10.7025822817
 20
10.8683964033
 30
0.0
 10
10.692062117
 20
10.8630765184
 30
0.0
 10
10.6809581698
 20
10.8578366777
 30
0.0
 10
10.6692794409
 20
10.8526810857
 30
0.0
 10
10.6570353941
 20
10.8476139765
 30
0.0
 10
10.6442359837
 20
10.842639474
 30
0.0
 10
10.6308916275
 20
10.8377616498
 30
0.0
 10
10.6170131982
 20
10.8329845176
 30
0.0
 10
10.6026120227
 20
10.8283119675
 30
0.0
 10
10.5876998531
 20
10.8237478757
 30
0.0
 10
10.572288884
 20
10.8192959479
 30
0.0
 10
10.5563916907
 20
10.8149598648
 30
0.0
 10
10.5342984246
 20
10.8092691903
 30
0.0
 10
10.505554624
 20
10.8024889961
 30
0.0
 10
10.4697402757
 20
10.7949632426
 30
0.0
 10
10.4323186432
 20
10.7879783234
 30
0.0
 10
10.3934122324
 20
10.7815573219
 30
0.0
 10
10.3531482043
 20
10.7757214998
 30
0.0
 10
10.3116583234
 20
10.770490158
 30
0.0
 10
10.2690783998
 20
10.7658805942
 30
0.0
 10
10.2255478622
 20
10.7619080432
 30
0.0
 10
10.181209283
 20
10.7585856297
 30
0.0
 10
10.136207906
 20
10.7559243275
 30
0.0
 10
10.0906911638
 20
10.7539329244
 30
0.0
 10
10.0448081909
 20
10.7526179954
 30
0.0
 10
9.9987093283
 20
10.7519838803
 30
0.0
 10
9.9525456349
 20
10.752032675
 30
0.0
 10
9.9064683686
 20
10.7527642122
 30
0.0
 10
9.8606285253
 20
10.7541760898
 30
0.0
 10
9.8151763901
 20
10.756263623
 30
0.0
 10
9.7850354655
 20
10.7581132702
 30
0.0
 10
9.7700567739
 20
10.759152046
 30
0.0
  0
SPLINE
  5
3A4
100
AcDbEntity
  8
0
100
AcDbSpline
 62
7
  6
CONTINUOUS
 70
0
 71
3
 72
50
 73
46
 74
0
 42
0.0000001
 43
0.0000001
 44
0.0000000001
 40
0.0
 40
0.0
 40
0.0
 40
0.0
 40
0.0056769027
 40
0.0115454353
 40
0.0176489575
 40
0.0240253543
 40
0.0307071347
 40
0.0377216473
 40
0.0450916796
 40
0.052835786
 40
0.0609690208
 40
0.0695031641
 40
0.0784474025
 40
0.0878084425
 40
0.097591054
 40
0.107798138
 40
0.1184310983
 40
0.1294899311
 40
0.1409734178
 40
0.1528792804
 40
0.1652042075
 40
0.1779440875
 40
0.1910939014
 40
0.2046480155
 40
0.2329420419
 40
0.262768935
 40
0.2940617868
 40
0.3267461109
 40
0.3607407279
 40
0.3959585134
 40
0.4323070502
 40
0.4696892131
 40
0.5080037047
 40
0.5471455598
 40
0.5870066246
 40
0.6274760193
 40
0.6684405877
 40
0.7097853411
 40
0.7513938899
 40
0.7931488922
 40
0.8349324356
 40
0.8766266136
 40
0.9181135463
 40
0.9592768075
 40
1.0
 40
1.0
 40
1.0
 40
1.0
 10
10.5524397698
 20
10.919307856
 30
0.0
 10
10.5520559332
 20
10.917927712
 30
0.0
 10
10.5511333594
 20
10.9151585491
 30
0.0
 10
10.549334204
 20
10.911078313
 30
0.0
 10
10.5471025644
 20
10.9070152779
 30
0.0
 10
10.5444411303
 20
10.9029727247
 30
0.0
 10
10.5413523822
 20
10.8989531189
 30
0.0
 10
10.5378390858
 20
10.8949589627
 30
0.0
 10
10.5339039677
 20
10.8909928821
 30
0.0
 10
10.5295501345
 20
10.8870573651
 30
0.0
 10
10.5247807527
 20
10.8831551741
 30
0.0
 10
10.5195994271
 20
10.8792888843
 30
0.0
 10
10.5140099079
 20
10.8754613362
 30
0.0
 10
10.5080163701
 20
10.8716751787
 30
0.0
 10
10.5016232027
 20
10.8679332528
 30
0.0
 10
10.4948351734
 20
10.8642382495
 30
0.0
 10
10.4876573129
 20
10.8605929516
 30
0.0
 10
10.4800949823
 20
10.857000062
 30
0.0
 10
10.4721538345
 20
10.8534622703
 30
0.0
 10
10.4638398139
 20
10.8499822639
 30
0.0
 10
10.4551591683
 20
10.8465626208
 30
0.0
 10
10.4461184135
 20
10.8432059927
 30
0.0
 10
10.4367243521
 20
10.8399148139
 30
0.0
 10
10.423548058
 20
10.8355548072
 30
0.0
 10
10.4062376949
 20
10.8303015922
 30
0.0
 10
10.3844617673
 20
10.8243838634
 30
0.0
 10
10.3614604188
 20
10.8187834539
 30
0.0
 10
10.3373030455
 20
10.8135174541
 30
0.0
 10
10.3120623551
 20
10.8086019578
 30
0.0
 10
10.285814491
 20
10.8040519783
 30
0.0
 10
10.2586386779
 20
10.7998814091
 30
0.0
 10
10.2306169982
 20
10.7961029796
 30
0.0
 10
10.2018341251
 20
10.7927282171
 30
0.0
 10
10.1723770609
 20
10.7897674136
 30
0.0
 10
10.1423348667
 20
10.7872295954
 30
0.0
 10
10.1117983889
 20
10.7851224972
 30
0.0
 10
10.0808599803
 20
10.7834525392
 30
0.0
 10
10.0496132188
 20
10.7822248091
 30
0.0
 10
10.0181526188
 20
10.7814430456
 30
0.0
 10
9.9865733535
 20
10.7811096323
 30
0.0
 10
9.9549709336
 20
10.7812255789
 30
0.0
 10
9.9234410063
 20
10.7817905436
 30
0.0
 10
9.8920788364
 20
10.7828027884
 30
0.0
 10
9.8609794921
 20
10.7842592514
 30
0.0
 10
9.8403543209
 20
10.7855314232
 30
0.0
 10
9.8301027428
 20
10.7862423725
 30
0.0
  0
SPLINE
  5
3A5
100
AcDbEntity
  8
0
100
AcDbSpline
 62
7
  6
CONTINUOUS
 70
0
 71
3
 72
37
 73
33
 74
0
 42
0.0000001
 43
0.0000001
 44
0.0000000001
 40
0.0
 40
0.0
 40
0.0
 40
0.0
 40
0.0065482575
 40
0.0132412473
 40
0.0271575878
 40
0.0419396162
 40
0.0577358157
 40
0.0746624571
 40
0.0928080135
 40
0.112237842
 40
0.1329981124
 40
0.1551194896
 40
0.1786199747
 40
0.2035068848
 40
0.2297788298
 40
0.257427022
 40
0.2864361475
 40
0.3167854665
 40
0.3484493775
 40
0.3813978398
 40
0.4155970624
 40
0.4510097222
 40
0.4875952344
 40
0.5253102236
 40
0.5641085843
 40
0.603941712
 40
0.6447588449
 40
0.6865070665
 40
0.7291314888
 40
0.8167796234
 40
0.9072328627
 40
1.0
 40
1.0
 40
1.0
 40
1.0
 10
9.4054073655
 20
10.9193078467
 30
0.0
 10
9.4056759013
 20
10.9183422846
 30
0.0
 10
9.4062878847
 20
10.9164083045
 30
0.0
 10
9.4078052597
 20
10.912536045
 30
0.0
 10
9.4102682337
 20
10.9076950721
 30
0.0
 10
9.4140353038
 20
10.9020070796
 30
0.0
 10
9.4186435791
 20
10.8963695302
 30
0.0
 10
9.4240844382
 20
10.8907889957
 30
0.0
 10
9.4303495261
 20
10.8852712181
 30
0.0
 10
9.43742979
 20
10.8798228586
 30
0.0
 10
9.4453151572
 20
10.8744507879
 30
0.0
 10
9.4539944454
 20
10.8691622406
 30
0.0
 10
9.4634552756
 20
10.8639646513
 30
0.0
 10
9.4736839804
 20
10.8588654208
 30
0.0
 10
9.484665703
 20
10.8538719928
 30
0.0
 10
9.4963843935
 20
10.8489917586
 30
0.0
 10
9.5088228079
 20
10.8442319148
 30
0.0
 10
9.5219625994
 20
10.8395995785
 30
0.0
 10
9.5357843278
 20
10.8351016967
 30
0.0
 10
9.5502674821
 20
10.8307449672
 30
0.0
 10
9.5653905526
 20
10.8265359501
 30
0.0
 10
9.5811310457
 20
10.8224809699
 30
0.0
 10
9.5974655185
 20
10.8185860811
 30
0.0
 10
9.614369638
 20
10.8148571608
 30
0.0
 10
9.6318182015
 20
10.8112998062
 30
0.0
 10
9.6497851819
 20
10.8079193303
 30
0.0
 10
9.6682437703
 20
10.8047208472
 30
0.0
 10
9.687166441
 20
10.8017091147
 30
0.0
 10
9.7132197311
 20
10.7979133752
 30
0.0
 10
9.7467395128
 20
10.7936824274
 30
0.0
 10
9.7879835431
 20
10.7894596355
 30
0.0
 10
9.8159387866
 20
10.7872246462
 30
0.0
 10
9.8301027428
 20
10.7862423725
 30
0.0
  0
SPLINE
  5
3A6
100
AcDbEntity
  8
0
100
AcDbSpline
 62
7
  6
CONTINUOUS
 70
0
 71
3
 72
86
 73
82
 74
0
 42
0.0000001
 43
0.0000001
 44
0.0000000001
 40
0.0
 40
0.0
 40
0.0
 40
0.0
 40
0.0027164229
 40
0.0054532199
 40
0.0082302803
 40
0.0110665652
 40
0.0139797601
 40
0.0169860612
 40
0.0201000083
 40
0.0233345154
 40
0.0267008552
 40
0.0302087911
 40
0.0338666949
 40
0.0376816386
 40
0.0416596027
 40
0.0458055094
 40
0.0501234214
 40
0.0546165986
 40
0.0592875859
 40
0.0641383491
 40
0.0691702497
 40
0.0743842108
 40
0.0797806815
 40
0.0853597253
 40
0.0911210701
 40
0.0970640767
 40
0.1094907819
 40
0.1226299857
 40
0.1364676026
 40
0.1509863633
 40
0.166166208
 40
0.1819846021
 40
0.1984167887
 40
0.2154360082
 40
0.2330136911
 40
0.2511196222
 40
0.2697220861
 40
0.2887880011
 40
0.3082830385
 40
0.3281717446
 40
0.3484176561
 40
0.3689834073
 40
0.3898308346
 40
0.4109210783
 40
0.4322146819
 40
0.4536716962
 40
0.4969136001
 40
0.5403217884
 40
0.5835689461
 40
0.6050305436
 40
0.6263300209
 40
0.6474274143
 40
0.6682832501
 40
0.6888586484
 40
0.7091154216
 40
0.7290161766
 40
0.7485244187
 40
0.7676046599
 40
0.7862225346
 40
0.8043449193
 40
0.8219400528
 40
0.8389776685
 40
0.8554291414
 40
0.8712676506
 40
0.8864683732
 40
0.9010086996
 40
0.9148684857
 40
0.9280303658
 40
0.9404801448
 40
0.9464347977
 40
0.952207837
 40
0.9577986052
 40
0.9632068066
 40
0.9684324934
 40
0.9734760794
 40
0.9783384382
 40
0.9830208843
 40
0.9875254058
 40
0.9918546018
 40
0.9960115767
 40
1.0
 40
1.0
 40
1.0
 40
1.0
 10
13.245674762
 20
8.6223255957
 30
0.0
 10
13.2442152553
 20
8.6224268128
 30
0.0
 10
13.2412927723
 20
8.6227621369
 30
0.0
 10
13.2369462434
 20
8.6236593471
 30
0.0
 10
13.232632573
 20
8.624950751
 30
0.0
 10
13.2283548261
 20
8.6266350439
 30
0.0
 10
13.2241151971
 20
8.6287107113
 30
0.0
 10
13.2199159064
 20
8.631176206
 30
0.0
 10
13.2157588194
 20
8.6340296659
 30
0.0
 10
13.2116458565
 20
8.6372693831
 30
0.0
 10
13.2075787434
 20
8.640893398
 30
0.0
 10
13.2035592439
 20
8.6448997499
 30
0.0
 10
13.1995891506
 20
8.6492863748
 30
0.0
 10
13.1956701479
 20
8.6540509922
 30
0.0
 10
13.1918041063
 20
8.6591912933
 30
0.0
 10
13.1879927251
 20
8.6647046816
 30
0.0
 10
13.1842378451
 20
8.6705884748
 30
0.0
 10
13.1805412521
 20
8.6768397713
 30
0.0
 10
13.1769046865
 20
8.6834554753
 30
0.0
 10
13.173329996
 20
8.6904323515
 30
0.0
 10
13.1698188492
 20
8.6977669159
 30
0.0
 10
13.1663730528
 20
8.7054555573
 30
0.0
 10
13.1629942769
 20
8.7134944431
 30
0.0
 10
13.1596842106
 20
8.7218795705
 30
0.0
 10
13.1564445135
 20
8.7306067816
 30
0.0
 10
13.1521570164
 20
8.742876429
 30
0.0
 10
13.1470011278
 20
8.7590481969
 30
0.0
 10
13.1412080258
 20
8.7794674248
 30
0.0
 10
13.1357321304
 20
8.8011378407
 30
0.0
 10
13.1305845272
 20
8.8240160662
 30
0.0
 10
13.1257756819
 20
8.8480565265
 30
0.0
 10
13.121315379
 20
8.8732111319
 30
0.0
 10
13.117212695
 20
8.8994295125
 30
0.0
 10
13.1134759767
 20
8.9266590999
 30
0.0
 10
13.1101128297
 20
8.9548452585
 30
0.0
 10
13.1071301002
 20
8.9839314032
 30
0.0
 10
13.1045338621
 20
9.0138591183
 30
0.0
 10
13.1023294063
 20
9.0445682759
 30
0.0
 10
13.1005212211
 20
9.0759971588
 30
0.0
 10
13.0991129901
 20
9.108082589
 30
0.0
 10
13.0981075879
 20
9.1407600613
 30
0.0
 10
13.0975070749
 20
9.1739638731
 30
0.0
 10
13.0973126903
 20
9.2076272633
 30
0.0
 10
13.0975248639
 20
9.2416825208
 30
0.0
 10
13.0981431557
 20
9.2760612137
 30
0.0
 10
13.0995110288
 20
9.3223557375
 30
0.0
 10
13.1022270204
 20
9.3805221919
 30
0.0
 10
13.1070550008
 20
9.4503210477
 30
0.0
 10
13.1123736208
 20
9.508312789
 30
0.0
 10
13.1173931356
 20
9.5543632208
 30
0.0
 10
13.1215146484
 20
9.588509115
 30
0.0
 10
13.1259940258
 20
9.6222808049
 30
0.0
 10
13.1308222789
 20
9.6556104268
 30
0.0
 10
13.1359896576
 20
9.6884309466
 30
0.0
 10
13.1414857413
 20
9.7206763779
 30
0.0
 10
13.1472994412
 20
9.7522818916
 30
0.0
 10
13.1534190266
 20
9.7831839524
 30
0.0
 10
13.1598321486
 20
9.8133204477
 30
0.0
 10
13.1665258596
 20
9.8426308196
 30
0.0
 10
13.1734866376
 20
9.8710561907
 30
0.0
 10
13.1807004209
 20
9.8985394829
 30
0.0
 10
13.1881526341
 20
9.9250255333
 30
0.0
 10
13.1958282178
 20
9.9504612114
 30
0.0
 10
13.2037116636
 20
9.9747955333
 30
0.0
 10
13.2117870398
 20
9.9979797911
 30
0.0
 10
13.2200380297
 20
10.0199676284
 30
0.0
 10
13.2284479873
 20
10.0407152685
 30
0.0
 10
13.2369999537
 20
10.0601811942
 30
0.0
 10
13.2443353957
 20
10.0755223223
 30
0.0
 10
13.2502730525
 20
10.0871120348
 30
0.0
 10
13.2546848928
 20
10.0953307584
 30
0.0
 10
13.2591193424
 20
10.1032012193
 30
0.0
 10
13.2635742027
 20
10.1107195142
 30
0.0
 10
13.2680472368
 20
10.1178819078
 30
0.0
 10
13.2725362695
 20
10.1246848083
 30
0.0
 10
13.2770389837
 20
10.1311248664
 30
0.0
 10
13.281553249
 20
10.1371988712
 30
0.0
 10
13.2860768531
 20
10.1429038907
 30
0.0
 10
13.2906076988
 20
10.1482371376
 30
0.0
 10
13.2951433556
 20
10.1531957162
 30
0.0
 10
13.2982317022
 20
10.1563135181
 30
0.0
 10
13.2997767234
 20
10.1578058941
 30
0.0
  0
SPLINE
  5
3A7
100
AcDbEntity
  8
0
100
AcDbSpline
 62
7
  6
CONTINUOUS
 70
0
 71
3
 72
28
 73
24
 74
0
 42
0.0000001
 43
0.0000001
 44
0.0000000001
 40
0.0
 40
0.0
 40
0.0
 40
0.0
 40
0.0792783683
 40
0.1572220829
 40
0.2336075714
 40
0.3082199504
 40
0.38084989
 40
0.4512968488
 40
0.5193692567
 40
0.5848860121
 40
0.6476776745
 40
0.7075879728
 40
0.7644755252
 40
0.7917470706
 40
0.818217879
 40
0.8438753879
 40
0.8687087064
 40
0.8927082332
 40
0.9158663676
 40
0.9381771149
 40
0.9596368416
 40
0.9802440357
 40
1.0
 40
1.0
 40
1.0
 40
1.0
 10
10.118174058
 20
10.9312001403
 30
0.0
 10
10.1277652656
 20
10.9305349878
 30
0.0
 10
10.1467764964
 20
10.9290706185
 30
0.0
 10
10.1749859966
 20
10.9264471697
 30
0.0
 10
10.2025861681
 20
10.9234215259
 30
0.0
 10
10.2294910699
 20
10.9200032222
 30
0.0
 10
10.2556172517
 20
10.9162029408
 30
0.0
 10
10.2808835535
 20
10.9120326232
 30
0.0
 10
10.3052115986
 20
10.9075053483
 30
0.0
 10
10.328525935
 20
10.9026353315
 30
0.0
 10
10.3507544156
 20
10.8974378742
 30
0.0
 10
10.3718280921
 20
10.891929271
 30
0.0
 10
10.3886010771
 20
10.8870274875
 30
0.0
 10
10.4013839189
 20
10.8829518664
 30
0.0
 10
10.4105073551
 20
10.8798713068
 30
0.0
 10
10.4192953363
 20
10.8767262034
 30
0.0
 10
10.4277410887
 20
10.8735190525
 30
0.0
 10
10.4358380636
 20
10.8702522643
 30
0.0
 10
10.4435800345
 20
10.8669284633
 30
0.0
 10
10.4509610063
 20
10.8635501381
 30
0.0
 10
10.457975351
 20
10.8601199611
 30
0.0
 10
10.4646175718
 20
10.856640562
 30
0.0
 10
10.4688841667
 20
10.8542393428
 30
0.0
 10
10.4709520895
 20
10.8530294802
 30
0.0
  0
SPLINE
  5
3A8
100
AcDbEntity
  8
0
100
AcDbSpline
 62
7
  6
CONTINUOUS
 70
0
 71
3
 72
11
 73
7
 74
0
 42
0.0000001
 43
0.0000001
 44
0.0000000001
 40
0.0
 40
0.0
 40
0.0
 40
0.0
 40
0.2545148028
 40
0.5051813816
 40
0.7532466558
 40
1.0
 40
1.0
 40
1.0
 40
1.0
 10
13.2605340706
 20
8.6235264982
 30
0.0
 10
13.2592968547
 20
8.6232440145
 30
0.0
 10
13.2568208362
 20
8.6227678122
 30
0.0
 10
13.2530878366
 20
8.622325859
 30
0.0
 10
13.2493709633
 20
8.6221628829
 30
0.0
 10
13.2469021688
 20
8.6222404747
 30
0.0
 10
13.245674762
 20
8.6223255957
 30
0.0
  0
SPLINE
  5
3A9
100
AcDbEntity
  8
0
100
AcDbSpline
 62
7
  6
CONTINUOUS
 70
0
 71
3
 72
22
 73
18
 74
0
 42
0.0000001
 43
0.0000001
 44
0.0000000001
 40
0.0
 40
0.0
 40
0.0
 40
0.0
 40
0.1461518809
 40
0.2177033471
 40
0.2880726614
 40
0.3571374904
 40
0.4247793848
 40
0.4908838592
 40
0.5553400026
 40
0.6180414235
 40
0.6788864375
 40
0.7377784494
 40
0.7946266805
 40
0.8493466575
 40
0.9018607189
 40
0.9520989041
 40
1.0
 40
1.0
 40
1.0
 40
1.0
 10
10.1058742077
 20
10.8734156897
 30
0.0
 10
10.1194894772
 20
10.8724714676
 30
0.0
 10
10.1397549847
 20
10.8708242187
 30
0.0
 10
10.1665213988
 20
10.8681330428
 30
0.0
 10
10.1860980302
 20
10.8659059628
 30
0.0
 10
10.2052805566
 20
10.863460315
 30
0.0
 10
10.2240324894
 20
10.8608007642
 30
0.0
 10
10.2423181537
 20
10.8579324097
 30
0.0
 10
10.260102809
 20
10.8548607162
 30
0.0
 10
10.2773526602
 20
10.8515915837
 30
0.0
 10
10.2940349462
 20
10.8481312732
 30
0.0
 10
10.3101179895
 20
10.8444863893
 30
0.0
 10
10.3255712858
 20
10.8406639187
 30
0.0
 10
10.3403655386
 20
10.8366711967
 30
0.0
 10
10.3544727852
 20
10.832515839
 30
0.0
 10
10.3678661855
 20
10.8282058289
 30
0.0
 10
10.3765117089
 20
10.8251612038
 30
0.0
 10
10.3807074041
 20
10.8236104575
 30
0.0
  0
SPLINE
  5
3AA
100
AcDbEntity
  8
0
100
AcDbSpline
 62
7
  6
CONTINUOUS
 70
0
 71
3
 72
53
 73
49
 74
0
 42
0.0000001
 43
0.0000001
 44
0.0000000001
 40
0.0
 40
0.0
 40
0.0
 40
0.0
 40
0.0428440907
 40
0.0861775996
 40
0.1298579976
 40
0.1737412158
 40
0.2176823516
 40
0.2615362431
 40
0.3051581044
 40
0.3484041383
 40
0.3911321599
 40
0.4332022224
 40
0.4744772506
 40
0.5148236864
 40
0.5541121519
 40
0.5922181369
 40
0.6290227243
 40
0.6644133696
 40
0.6982847583
 40
0.7305397786
 40
0.7460337722
 40
0.7610916299
 40
0.7757040181
 40
0.7898624912
 40
0.803559334
 40
0.8167878637
 40
0.8295422918
 40
0.8418180565
 40
0.853611718
 40
0.8649213346
 40
0.8757464117
 40
0.8860883428
 40
0.8959504417
 40
0.9053384778
 40
0.9142608348
 40
0.9227291762
 40
0.930758776
 40
0.9383693399
 40
0.9455855171
 40
0.9524378181
 40
0.9589631659
 40
0.9652056035
 40
0.9712163989
 40
0.9770538379
 40
0.9827820999
 40
0.9884694768
 40
0.9941858631
 40
1.0
 40
1.0
 40
1.0
 40
1.0
 10
10.127744399
 20
11.0737421523
 30
0.0
 10
10.1166507908
 20
11.0745114966
 30
0.0
 10
10.0943236665
 20
11.0758746208
 30
0.0
 10
10.0606515964
 20
11.0773907191
 30
0.0
 10
10.0266902432
 20
11.0783866803
 30
0.0
 10
9.9925598905
 20
11.078858944
 30
0.0
 10
9.9583812796
 20
11.0788058286
 30
0.0
 10
9.9242753596
 20
11.0782275225
 30
0.0
 10
9.8903628116
 20
11.0771260887
 30
0.0
 10
9.8567636295
 20
11.0755054559
 30
0.0
 10
9.8235966897
 20
11.0733714057
 30
0.0
 10
9.7909793265
 20
11.0707315532
 30
0.0
 10
9.7590269124
 20
11.0675953212
 30
0.0
 10
9.7278524431
 20
11.063973908
 30
0.0
 10
9.6975661327
 20
11.0598802499
 30
0.0
 10
9.6682750048
 20
11.055328978
 30
0.0
 10
9.64008253
 20
11.050336363
 30
0.0
 10
9.6130881383
 20
11.0449202782
 30
0.0
 10
9.5873872032
 20
11.0391000668
 30
0.0
 10
9.5668567534
 20
11.0338628419
 30
0.0
 10
9.5511565422
 20
11.029473643
 30
0.0
 10
9.5399181133
 20
11.0261380449
 30
0.0
 10
9.5290681271
 20
11.0227175309
 30
0.0
 10
9.5186161289
 20
11.0192151746
 30
0.0
 10
9.5085713421
 20
11.015634012
 30
0.0
 10
9.4989425936
 20
11.0119772918
 30
0.0
 10
9.4897383625
 20
11.0082481671
 30
0.0
 10
9.4809667076
 20
11.004450013
 30
0.0
 10
9.4726353324
 20
11.0005860882
 30
0.0
 10
9.4647514903
 20
10.9966598692
 30
0.0
 10
9.4573220772
 20
10.9926746931
 30
0.0
 10
9.4503535083
 20
10.988634104
 30
0.0
 10
9.4438518472
 20
10.9845414763
 30
0.0
 10
9.4378226491
 20
10.9804003705
 30
0.0
 10
9.432271141
 20
10.9762141361
 30
0.0
 10
9.4272020286
 20
10.9719862729
 30
0.0
 10
9.422619752
 20
10.9677200221
 30
0.0
 10
9.4185282593
 20
10.9634187333
 30
0.0
 10
9.4149313706
 20
10.9590854759
 30
0.0
 10
9.4118325184
 20
10.954723439
 30
0.0
 10
9.409235226
 20
10.9503356497
 30
0.0
 10
9.4071427473
 20
10.9459254619
 30
0.0
 10
9.4055585239
 20
10.9414964854
 30
0.0
 10
9.4044855043
 20
10.9370530734
 30
0.0
 10
9.4039263255
 20
10.9326003345
 30
0.0
 10
9.4038823586
 20
10.9281439035
 30
0.0
 10
9.404353721
 20
10.923690515
 30
0.0
 10
9.4050030193
 20
10.9207617354
 30
0.0
 10
9.4054073655
 20
10.9193078467
 30
0.0
  0
SPLINE
  5
3AB
100
AcDbEntity
  8
0
100
AcDbSpline
 62
7
  6
CONTINUOUS
 70
0
 71
3
 72
32
 73
28
 74
0
 42
0.0000001
 43
0.0000001
 44
0.0000000001
 40
0.0
 40
0.0
 40
0.0
 40
0.0
 40
0.0724671211
 40
0.145987195
 40
0.2200253058
 40
0.294040287
 40
0.367491517
 40
0.4398437329
 40
0.51057211
 40
0.5451682534
 40
0.5791690557
 40
0.612514226
 40
0.6451451341
 40
0.6770049717
 40
0.7080389735
 40
0.7381946588
 40
0.7674219955
 40
0.7956736273
 40
0.8229052027
 40
0.849075681
 40
0.874147625
 40
0.898087623
 40
0.9208668781
 40
0.9424617863
 40
0.9628546784
 40
0.9820348594
 40
1.0
 40
1.0
 40
1.0
 40
1.0
 10
10.118174058
 20
10.9312001403
 30
0.0
 10
10.1026885798
 20
10.9322740619
 30
0.0
 10
10.0714648059
 20
10.9340534918
 30
0.0
 10
10.0243570907
 20
10.9356293518
 30
0.0
 10
9.976893842
 20
10.9361251003
 30
0.0
 10
9.9294464888
 20
10.935536801
 30
0.0
 10
9.8823859841
 20
10.9338691204
 30
0.0
 10
9.8360805705
 20
10.9311352957
 30
0.0
 10
9.7981495986
 20
10.9279641353
 30
0.0
 10
9.7684628486
 20
10.9248983962
 30
0.0
 10
9.7467732654
 20
10.9223653057
 30
0.0
 10
9.7255382362
 20
10.9195866852
 30
0.0
 10
9.7047992782
 20
10.9165679727
 30
0.0
 10
9.6845969812
 20
10.9133151141
 30
0.0
 10
9.6649708604
 20
10.9098345066
 30
0.0
 10
9.6459592855
 20
10.9061330233
 30
0.0
 10
9.6275994114
 20
10.9022179597
 30
0.0
 10
9.6099271078
 20
10.8980970177
 30
0.0
 10
9.5929768659
 20
10.8937783204
 30
0.0
 10
9.5767817251
 20
10.8892703912
 30
0.0
 10
9.5613732168
 20
10.8845821079
 30
0.0
 10
9.5467812958
 20
10.8797226779
 30
0.0
 10
9.5330342256
 20
10.8747016507
 30
0.0
 10
9.520158578
 20
10.8695288832
 30
0.0
 10
9.50817897
 20
10.8642143736
 30
0.0
 10
9.4971187021
 20
10.858768578
 30
0.0
 10
9.4901438499
 20
10.854931952
 30
0.0
 10
9.4868231318
 20
10.8529873776
 30
0.0
  0
SPLINE
  5
3AC
100
AcDbEntity
  8
0
100
AcDbSpline
 62
7
  6
CONTINUOUS
 70
0
 71
3
 72
28
 73
24
 74
0
 42
0.0000001
 43
0.0000001
 44
0.0000000001
 40
0.0
 40
0.0
 40
0.0
 40
0.0
 40
0.0684610358
 40
0.1378405634
 40
0.207763879
 40
0.2778504028
 40
0.3477192511
 40
0.4169909027
 40
0.4852900623
 40
0.5522483329
 40
0.6175069375
 40
0.6807195509
 40
0.7415552062
 40
0.7709839133
 40
0.7997028481
 40
0.8276763529
 40
0.8548704549
 40
0.8812527981
 40
0.9067929947
 40
0.9314627017
 40
0.9552357284
 40
0.9780884863
 40
1.0
 40
1.0
 40
1.0
 40
1.0
 10
10.1058742077
 20
10.8734156897
 30
0.0
 10
10.0937117935
 20
10.874259156
 30
0.0
 10
10.0692050693
 20
10.8756975667
 30
0.0
 10
10.0322309475
 20
10.877113158
 30
0.0
 10
9.9949464168
 20
10.8777967072
 30
0.0
 10
9.9575685826
 20
10.8777441371
 30
0.0
 10
9.9203150663
 20
10.8769557654
 30
0.0
 10
9.8834027093
 20
10.875436242
 30
0.0
 10
9.8470463422
 20
10.8731945383
 30
0.0
 10
9.811457543
 20
10.8702438779
 30
0.0
 10
9.7768432789
 20
10.8666016907
 30
0.0
 10
9.7434050223
 20
10.8622894437
 30
0.0
 10
9.7163909453
 20
10.8581141172
 30
0.0
 10
9.695521811
 20
10.8544445752
 30
0.0
 10
9.6804560711
 20
10.8515721118
 30
0.0
 10
9.6658250741
 20
10.8485531737
 30
0.0
 10
9.6516500763
 20
10.8453921875
 30
0.0
 10
9.6379516969
 20
10.8420937483
 30
0.0
 10
9.6247498339
 20
10.8386627013
 30
0.0
 10
9.6120636633
 20
10.8351040891
 30
0.0
 10
9.5999115643
 20
10.8314230606
 30
0.0
 10
9.5883112438
 20
10.8276250933
 30
0.0
 10
9.5807964653
 20
10.8249620275
 30
0.0
 10
9.5771364372
 20
10.8236092416
 30
0.0
  0
SPLINE
  5
3AD
100
AcDbEntity
  8
0
100
AcDbSpline
 62
7
  6
CONTINUOUS
 70
0
 71
3
 72
41
 73
37
 74
0
 42
0.0000001
 43
0.0000001
 44
0.0000000001
 40
0.0
 40
0.0
 40
0.0
 40
0.0
 40
0.0310748272
 40
0.0623072483
 40
0.0936920359
 40
0.1252208484
 40
0.156882237
 40
0.188662033
 40
0.2205436266
 40
0.2525083437
 40
0.2845358343
 40
0.3166044929
 40
0.3486918936
 40
0.3807752384
 40
0.4128318095
 40
0.4448394218
 40
0.4767768664
 40
0.5086243418
 40
0.5403638639
 40
0.5719796493
 40
0.6034584635
 40
0.6347899281
 40
0.6659667781
 40
0.6969850622
 40
0.7278442783
 40
0.7585474376
 40
0.7891010512
 40
0.8195150346
 40
0.8498025274
 40
0.8649066426
 40
0.8799854039
 40
0.9100708284
 40
0.9400854823
 40
0.9550762294
 40
0.970057877
 40
1.0
 40
1.0
 40
1.0
 40
1.0
 10
12.4179480234
 20
7.0760781845
 30
0.0
 10
12.4179480234
 20
7.0712188327
 30
0.0
 10
12.4183105308
 20
7.0614717467
 30
0.0
 10
12.4199289853
 20
7.0468977891
 30
0.0
 10
12.4226144641
 20
7.0324093889
 30
0.0
 10
12.4263520522
 20
7.0180871836
 30
0.0
 10
12.4311210949
 20
7.0040095134
 30
0.0
 10
12.436895283
 20
6.9902537273
 30
0.0
 10
12.4436428191
 20
6.976895294
 30
0.0
 10
12.4513265823
 20
6.9640075201
 30
0.0
 10
12.4599043363
 20
6.9516611192
 30
0.0
 10
12.4693289583
 20
6.939923838
 30
0.0
 10
12.4795486964
 20
6.9288600859
 30
0.0
 10
12.4905074508
 20
6.9185305862
 30
0.0
 10
12.5021450791
 20
6.9089920465
 30
0.0
 10
12.5143977225
 20
6.9002968499
 30
0.0
 10
12.5271981526
 20
6.8924927701
 30
0.0
 10
12.5404761357
 20
6.8856227111
 30
0.0
 10
12.5541588134
 20
6.8797244724
 30
0.0
 10
12.5681710969
 20
6.8748305422
 30
0.0
 10
12.5824360738
 20
6.8709679179
 30
0.0
 10
12.5968754233
 20
6.8681579559
 30
0.0
 10
12.6114098419
 20
6.8664162511
 30
0.0
 10
12.6259594688
 20
6.8657525447
 30
0.0
 10
12.6404443349
 20
6.8661706706
 30
0.0
 10
12.6547847399
 20
6.8676685003
 30
0.0
 10
12.6689019074
 20
6.8702380417
 30
0.0
 10
12.6827176042
 20
6.8738651124
 30
0.0
 10
12.6939284557
 20
6.877756909
 30
0.0
 10
12.7026667702
 20
6.8813761825
 30
0.0
 10
12.7112282041
 20
6.88532116
 30
0.0
 10
12.7216089713
 20
6.8908664614
 30
0.0
 10
12.7315083948
 20
6.8972060519
 30
0.0
 10
12.7390951193
 20
6.902726757
 30
0.0
 10
12.7464476832
 20
6.9085365804
 30
0.0
 10
12.7516976974
 20
6.9132189783
 30
0.0
 10
12.7550653976
 20
6.9164719491
 30
0.0
  0
SPLINE
  5
3AE
100
AcDbEntity
  8
0
100
AcDbSpline
 62
7
  6
CONTINUOUS
 70
0
 71
3
 72
15
 73
11
 74
0
 42
0.0000001
 43
0.0000001
 44
0.0000000001
 40
0.0
 40
0.0
 40
0.0
 40
0.0
 40
0.1234394136
 40
0.2470466177
 40
0.370982561
 40
0.4953948844
 40
0.6204121622
 40
0.7461393429
 40
0.8726517211
 40
1.0
 40
1.0
 40
1.0
 40
1.0
 10
7.8848486111
 20
9.4585285296
 30
0.0
 10
7.880489911
 20
9.4543183197
 30
0.0
 10
7.8721943307
 20
9.4454360521
 30
0.0
 10
7.8611768931
 20
9.4308954079
 30
0.0
 10
7.8516775272
 20
9.4152626429
 30
0.0
 10
7.8437855225
 20
9.3986842375
 30
0.0
 10
7.8375728732
 20
9.3813132569
 30
0.0
 10
7.8330965582
 20
9.3633098953
 30
0.0
 10
7.8303970127
 20
9.3448425272
 30
0.0
 10
7.8298000766
 20
9.3323710354
 30
0.0
 10
7.8298000766
 20
9.3261190924
 30
0.0
  0
SPLINE
  5
3AF
100
AcDbEntity
  8
0
100
AcDbSpline
 62
7
  6
CONTINUOUS
 70
0
 71
3
 72
39
 73
35
 74
0
 42
0.0000001
 43
0.0000001
 44
0.0000000001
 40
0.0
 40
0.0
 40
0.0
 40
0.0
 40
0.0314025546
 40
0.0630095408
 40
0.0948070962
 40
0.1267734469
 40
0.1588809717
 40
0.1910970219
 40
0.2233851129
 40
0.2557062438
 40
0.2880202662
 40
0.3202872752
 40
0.3524690058
 40
0.3845301834
 40
0.4164397919
 40
0.4481722495
 40
0.4797084082
 40
0.5110363786
 40
0.5421521204
 40
0.5730597414
 40
0.6037715192
 40
0.6343075557
 40
0.6646951109
 40
0.6949675898
 40
0.7251632178
 40
0.7553234777
 40
0.7854913538
 40
0.8157095099
 40
0.8460184679
 40
0.8764549221
 40
0.9070502461
 40
0.9378292796
 40
0.9688091728
 40
1.0
 40
1.0
 40
1.0
 40
1.0
 10
11.044401417
 20
7.8040154189
 30
0.0
 10
11.0532785035
 20
7.8033997909
 30
0.0
 10
11.071041581
 20
7.8012896849
 30
0.0
 10
11.0973282221
 20
7.7955587721
 30
0.0
 10
11.1231053352
 20
7.7873067815
 30
0.0
 10
11.1481221486
 20
7.7766138438
 30
0.0
 10
11.1721394807
 20
7.7635832827
 30
0.0
 10
11.19492661
 20
7.7483405569
 30
0.0
 10
11.2162650883
 20
7.7310324092
 30
0.0
 10
11.2359501081
 20
7.7118250573
 30
0.0
 10
11.2537927664
 20
7.6909029489
 30
0.0
 10
11.2696217451
 20
7.6684668797
 30
0.0
 10
11.2832847882
 20
7.6447320416
 30
0.0
 10
11.2946504942
 20
7.6199262075
 30
0.0
 10
11.3036091135
 20
7.5942873365
 30
0.0
 10
11.3100740113
 20
7.5680615593
 30
0.0
 10
11.3139823013
 20
7.541500747
 30
0.0
 10
11.315295414
 20
7.5148601899
 30
0.0
 10
11.3139998683
 20
7.4883962065
 30
0.0
 10
11.3101069599
 20
7.4623637096
 30
0.0
 10
11.3036532613
 20
7.437013768
 30
0.0
 10
11.2947000278
 20
7.4125911834
 30
0.0
 10
11.2833327723
 20
7.3893321355
 30
0.0
 10
11.269660758
 20
7.3674616823
 30
0.0
 10
11.2538155733
 20
7.3471917183
 30
0.0
 10
11.2359503479
 20
7.3287185142
 30
0.0
 10
11.2162378726
 20
7.3122209294
 30
0.0
 10
11.1948690025
 20
7.2978585156
 30
0.0
 10
11.1720507801
 20
7.285769747
 30
0.0
 10
11.1480040038
 20
7.2760710558
 30
0.0
 10
11.1229615949
 20
7.268855218
 30
0.0
 10
11.0971647225
 20
7.2641911145
 30
0.0
 10
11.0708655299
 20
7.2621223876
 30
0.0
 10
11.0532186509
 20
7.2624854469
 30
0.0
 10
11.044401417
 20
7.2630969241
 30
0.0
  0
SPLINE
  5
3B0
100
AcDbEntity
  8
0
100
AcDbSpline
 62
7
  6
CONTINUOUS
 70
0
 71
3
 72
39
 73
35
 74
0
 42
0.0000001
 43
0.0000001
 44
0.0000000001
 40
0.0
 40
0.0
 40
0.0
 40
0.0
 40
0.0314025546
 40
0.0630095408
 40
0.0948070962
 40
0.1267734469
 40
0.1588809717
 40
0.1910970219
 40
0.2233851129
 40
0.2557062438
 40
0.2880202662
 40
0.3202872752
 40
0.3524690058
 40
0.3845301834
 40
0.4164397919
 40
0.4481722495
 40
0.4797084082
 40
0.5110363786
 40
0.5421521204
 40
0.5730597414
 40
0.6037715192
 40
0.6343075557
 40
0.6646951109
 40
0.6949675898
 40
0.7251632178
 40
0.7553234777
 40
0.7854913538
 40
0.8157095099
 40
0.8460184679
 40
0.8764549221
 40
0.9070502461
 40
0.9378292796
 40
0.9688091728
 40
1.0
 40
1.0
 40
1.0
 40
1.0
 10
11.044401417
 20
7.2630969241
 30
0.0
 10
11.0355243305
 20
7.2637125522
 30
0.0
 10
11.017761253
 20
7.2658226581
 30
0.0
 10
10.9914746119
 20
7.271553571
 30
0.0
 10
10.9656974988
 20
7.2798055615
 30
0.0
 10
10.9406806854
 20
7.2904984992
 30
0.0
 10
10.9166633533
 20
7.3035290603
 30
0.0
 10
10.893876224
 20
7.3187717861
 30
0.0
 10
10.8725377458
 20
7.3360799339
 30
0.0
 10
10.8528527259
 20
7.3552872857
 30
0.0
 10
10.8350100676
 20
7.3762093942
 30
0.0
 10
10.8191810889
 20
7.3986454634
 30
0.0
 10
10.8055180458
 20
7.4223803015
 30
0.0
 10
10.7941523398
 20
7.4471861355
 30
0.0
 10
10.7851937206
 20
7.4728250066
 30
0.0
 10
10.7787288227
 20
7.4990507838
 30
0.0
 10
10.7748205327
 20
7.525611596
 30
0.0
 10
10.77350742
 20
7.5522521531
 30
0.0
 10
10.7748029657
 20
7.5787161365
 30
0.0
 10
10.7786958741
 20
7.6047486334
 30
0.0
 10
10.7851495727
 20
7.6300985751
 30
0.0
 10
10.7941028062
 20
7.6545211597
 30
0.0
 10
10.8054700617
 20
7.6777802075
 30
0.0
 10
10.819142076
 20
7.6996506607
 30
0.0
 10
10.8349872607
 20
7.7199206248
 30
0.0
 10
10.8528524861
 20
7.7383938289
 30
0.0
 10
10.8725649614
 20
7.7548914136
 30
0.0
 10
10.8939338315
 20
7.7692538275
 30
0.0
 10
10.9167520539
 20
7.781342596
 30
0.0
 10
10.9407988302
 20
7.7910412873
 30
0.0
 10
10.9658412391
 20
7.798257125
 30
0.0
 10
10.9916381115
 20
7.8029212286
 30
0.0
 10
11.0179373041
 20
7.8049899554
 30
0.0
 10
11.0355841831
 20
7.8046268962
 30
0.0
 10
11.044401417
 20
7.8040154189
 30
0.0
  0
SPLINE
  5
3B1
100
AcDbEntity
  8
0
100
AcDbSpline
 62
7
  6
CONTINUOUS
 70
0
 71
3
 72
15
 73
11
 74
0
 42
0.0000001
 43
0.0000001
 44
0.0000000001
 40
0.0
 40
0.0
 40
0.0
 40
0.0
 40
0.1234394136
 40
0.2470466177
 40
0.370982561
 40
0.4953948844
 40
0.6204121622
 40
0.7461393429
 40
0.8726517211
 40
1.0
 40
1.0
 40
1.0
 40
1.0
 10
12.4729965579
 20
7.2084876218
 30
0.0
 10
12.4686378577
 20
7.2042774119
 30
0.0
 10
12.4603422774
 20
7.1953951442
 30
0.0
 10
12.4493248398
 20
7.1808545
 30
0.0
 10
12.439825474
 20
7.1652217351
 30
0.0
 10
12.4319334693
 20
7.1486433296
 30
0.0
 10
12.4257208199
 20
7.131272349
 30
0.0
 10
12.4212445049
 20
7.1132689874
 30
0.0
 10
12.4185449595
 20
7.0948016193
 30
0.0
 10
12.4179480234
 20
7.0823301276
 30
0.0
 10
12.4179480234
 20
7.0760781845
 30
0.0
  0
SPLINE
  5
3B2
100
AcDbEntity
  8
0
100
AcDbSpline
 62
7
  6
CONTINUOUS
 70
0
 71
3
 72
53
 73
49
 74
0
 42
0.0000001
 43
0.0000001
 44
0.0000000001
 40
0.0
 40
0.0
 40
0.0
 40
0.0
 40
0.0055575376
 40
0.0111779567
 40
0.0169218821
 40
0.0228457564
 40
0.0290005139
 40
0.0354309032
 40
0.0421753268
 40
0.0492661629
 40
0.0567301863
 40
0.0645892833
 40
0.0728609369
 40
0.0815589669
 40
0.0906938756
 40
0.1002734826
 40
0.1103031213
 40
0.1207861401
 40
0.1317240026
 40
0.14311666
 40
0.1549626112
 40
0.1672591551
 40
0.1800024545
 40
0.1931876791
 40
0.2068090973
 40
0.2208601246
 40
0.2353334527
 40
0.2502210197
 40
0.2655141749
 40
0.2812035909
 40
0.3137306612
 40
0.3477179984
 40
0.3830731233
 40
0.4196969504
 40
0.4574845402
 40
0.4963257781
 40
0.5361060008
 40
0.5767065869
 40
0.618005522
 40
0.6598779471
 40
0.7021966942
 40
0.7448328149
 40
0.7876560998
 40
0.8305356101
 40
0.8733401519
 40
0.9159389309
 40
0.9582016869
 40
1.0
 40
1.0
 40
1.0
 40
1.0
 10
9.1719235765
 20
10.9609013791
 30
0.0
 10
9.171923567
 20
10.9628977416
 30
0.0
 10
9.172147052
 20
10.9669165307
 30
0.0
 10
9.1731501534
 20
10.9729232733
 30
0.0
 10
9.1748195154
 20
10.9789166137
 30
0.0
 10
9.177151862
 20
10.9848896061
 30
0.0
 10
9.1801433576
 20
10.9908374121
 30
0.0
 10
9.1837899989
 20
10.9967554559
 30
0.0
 10
9.1880875931
 20
11.0026397096
 30
0.0
 10
9.1930319843
 20
11.0084861556
 30
0.0
 10
9.1986186803
 20
11.0142909294
 30
0.0
 10
9.2048430756
 20
11.0200499082
 30
0.0
 10
9.2117000302
 20
11.0257590779
 30
0.0
 10
9.2191841337
 20
11.0314141098
 30
0.0
 10
9.2272893555
 20
11.0370108376
 30
0.0
 10
9.2360092982
 20
11.0425448202
 30
0.0
 10
9.2453369454
 20
11.0480118152
 30
0.0
 10
9.2552648601
 20
11.0534073795
 30
0.0
 10
9.2657850248
 20
11.0587272644
 30
0.0
 10
9.276888972
 20
11.0639671051
 30
0.0
 10
9.2885677009
 20
11.0691226971
 30
0.0
 10
9.3008117477
 20
11.0741898063
 30
0.0
 10
9.313611158
 20
11.0791643088
 30
0.0
 10
9.3269555142
 20
11.084042133
 30
0.0
 10
9.3408339436
 20
11.0888192652
 30
0.0
 10
9.3552351191
 20
11.0934918153
 30
0.0
 10
9.3701472887
 20
11.0980559071
 30
0.0
 10
9.3855582578
 20
11.1025078349
 30
0.0
 10
9.4014554511
 20
11.106843918
 30
0.0
 10
9.4235487172
 20
11.1125345925
 30
0.0
 10
9.4522925178
 20
11.1193147867
 30
0.0
 10
9.4881068661
 20
11.1268405402
 30
0.0
 10
9.5255284985
 20
11.1338254594
 30
0.0
 10
9.5644349093
 20
11.1402464609
 30
0.0
 10
9.6046989375
 20
11.146082283
 30
0.0
 10
9.6461888184
 20
11.1513136248
 30
0.0
 10
9.688768742
 20
11.1559231886
 30
0.0
 10
9.7322992796
 20
11.1598957396
 30
0.0
 10
9.7766378587
 20
11.1632181531
 30
0.0
 10
9.8216392358
 20
11.1658794553
 30
0.0
 10
9.8671559779
 20
11.1678708584
 30
0.0
 10
9.9130389508
 20
11.1691857874
 30
0.0
 10
9.9591378135
 20
11.1698199025
 30
0.0
 10
10.0053015069
 20
11.1697711078
 30
0.0
 10
10.0513787732
 20
11.1690395706
 30
0.0
 10
10.0972186165
 20
11.1676276931
 30
0.0
 10
10.1426707517
 20
11.1655401598
 30
0.0
 10
10.1728116762
 20
11.1636905127
 30
0.0
 10
10.1877903679
 20
11.1626517369
 30
0.0
  0
SPLINE
  5
3B3
100
AcDbEntity
  8
0
100
AcDbSpline
 62
7
  6
CONTINUOUS
 70
0
 71
3
 72
48
 73
44
 74
0
 42
0.0000001
 43
0.0000001
 44
0.0000000001
 40
0.0
 40
0.0
 40
0.0
 40
0.0
 40
0.0958286576
 40
0.1428188272
 40
0.1890970196
 40
0.2345922983
 40
0.2792360825
 40
0.3229616488
 40
0.3657042172
 40
0.4074012778
 40
0.4479927829
 40
0.4874213572
 40
0.5256325123
 40
0.5625749103
 40
0.598200717
 40
0.6324659207
 40
0.6653306956
 40
0.696759874
 40
0.7267235748
 40
0.7551978881
 40
0.7821657087
 40
0.8076178456
 40
0.8197759461
 40
0.8315561047
 40
0.8429601471
 40
0.8539906576
 40
0.8646512757
 40
0.874946597
 40
0.8848823707
 40
0.8944657071
 40
0.9037050399
 40
0.9126104751
 40
0.9211938751
 40
0.9294689913
 40
0.9374518164
 40
0.9451605991
 40
0.9598347983
 40
0.9668566638
 40
0.9737035496
 40
0.9804068013
 40
0.9870000417
 40
0.9935188169
 40
1.0
 40
1.0
 40
1.0
 40
1.0
 10
10.1877903679
 20
11.1626517369
 30
0.0
 10
10.2088094603
 20
11.1611940579
 30
0.0
 10
10.240112957
 20
11.1586725352
 30
0.0
 10
10.2814895208
 20
11.1545955475
 30
0.0
 10
10.3118141987
 20
11.1512341924
 30
0.0
 10
10.3415821838
 20
11.1475550653
 30
0.0
 10
10.3707436954
 20
11.1435643376
 30
0.0
 10
10.3992499889
 20
11.1392687312
 30
0.0
 10
10.4270534335
 20
11.1346754574
 30
0.0
 10
10.4541075633
 20
11.1297922291
 30
0.0
 10
10.480367194
 20
11.1246272636
 30
0.0
 10
10.5057884855
 20
11.1191892523
 30
0.0
 10
10.5303290093
 20
11.1134873403
 30
0.0
 10
10.5539478274
 20
11.1075311039
 30
0.0
 10
10.5766055807
 20
11.1013305658
 30
0.0
 10
10.5982645583
 20
11.0948961568
 30
0.0
 10
10.6188887505
 20
11.0882386869
 30
0.0
 10
10.6384439338
 20
11.0813693112
 30
0.0
 10
10.6568977203
 20
11.0742995404
 30
0.0
 10
10.67421977
 20
11.0670411636
 30
0.0
 10
10.6903813445
 20
11.0596062835
 30
0.0
 10
10.7030469683
 20
11.0531791723
 30
0.0
 10
10.7125641334
 20
11.0479479079
 30
0.0
 10
10.7192861158
 20
11.0440480228
 30
0.0
 10
10.7256987442
 20
11.0401134031
 30
0.0
 10
10.7317993451
 20
11.0361455567
 30
0.0
 10
10.7375854313
 20
11.0321461778
 30
0.0
 10
10.7430546088
 20
11.0281168659
 30
0.0
 10
10.7482046
 20
11.0240592162
 30
0.0
 10
10.753033327
 20
11.0199749183
 30
0.0
 10
10.7575387478
 20
11.0158655221
 30
0.0
 10
10.7617190026
 20
11.0117326775
 30
0.0
 10
10.7655723844
 20
11.0075779776
 30
0.0
 10
10.769097113
 20
11.0034030742
 30
0.0
 10
10.7722919607
 20
10.9992091889
 30
0.0
 10
10.7760473418
 20
10.9936865567
 30
0.0
 10
10.7792245822
 20
10.9880334223
 30
0.0
 10
10.7817418641
 20
10.9822803567
 30
0.0
 10
10.7832660618
 20
10.978017643
 30
0.0
 10
10.784452707
 20
10.9737465761
 30
0.0
 10
10.785300947
 20
10.9694688325
 30
0.0
 10
10.7858102227
 20
10.9651869426
 30
0.0
 10
10.7859235586
 20
10.9623274032
 30
0.0
 10
10.7859235653
 20
10.9609024037
 30
0.0
  0
SPLINE
  5
3B4
100
AcDbEntity
  8
0
100
AcDbSpline
 62
7
  6
CONTINUOUS
 70
0
 71
3
 72
19
 73
15
 74
0
 42
0.0000001
 43
0.0000001
 44
0.0000000001
 40
0.0
 40
0.0
 40
0.0
 40
0.0
 40
0.0616584462
 40
0.1233399329
 40
0.1850672163
 40
0.2468625637
 40
0.3087474953
 40
0.370742507
 40
0.4328668993
 40
0.495138574
 40
0.6201443378
 40
0.7459117844
 40
0.8725152897
 40
1.0
 40
1.0
 40
1.0
 40
1.0
 10
11.2088514384
 20
7.3990434563
 30
0.0
 10
11.2064835849
 20
7.3967562832
 30
0.0
 10
11.201622939
 20
7.3923075362
 30
0.0
 10
11.1939823768
 20
7.3860346438
 30
0.0
 10
11.1860100107
 20
7.3801764068
 30
0.0
 10
11.1777262603
 20
7.3747477674
 30
0.0
 10
11.1691518523
 20
7.3697623959
 30
0.0
 10
11.1603085218
 20
7.3652328618
 30
0.0
 10
11.1512182406
 20
7.3611704145
 30
0.0
 10
11.1387861396
 20
7.3563850841
 30
0.0
 10
11.1227305897
 20
7.3516208668
 30
0.0
 10
11.1028883739
 20
7.3479195654
 30
0.0
 10
11.0826410878
 20
7.3462597733
 30
0.0
 10
11.0690503272
 20
7.3465248803
 30
0.0
 10
11.0622599164
 20
7.3469957969
 30
0.0
  0
SPLINE
  5
3B5
100
AcDbEntity
  8
0
100
AcDbSpline
 62
7
  6
CONTINUOUS
 70
0
 71
3
 72
41
 73
37
 74
0
 42
0.0000001
 43
0.0000001
 44
0.0000000001
 40
0.0
 40
0.0
 40
0.0
 40
0.0
 40
0.0299389638
 40
0.044918725
 40
0.0599073257
 40
0.0899167412
 40
0.1199949456
 40
0.1350691073
 40
0.150167946
 40
0.180442844
 40
0.2108410996
 40
0.2413757554
 40
0.2720567917
 40
0.3028909468
 40
0.333881618
 40
0.3650288383
 40
0.3963293255
 40
0.4277765999
 40
0.4593611619
 40
0.4910707252
 40
0.5228904965
 40
0.5548034961
 40
0.5867909116
 40
0.6188324791
 40
0.6509068845
 40
0.6829921792
 40
0.7150662046
 40
0.7471070194
 40
0.7790933245
 40
0.8110048756
 40
0.8428228953
 40
0.8745304177
 40
0.9061127509
 40
0.9375574918
 40
0.9688555565
 40
1.0
 40
1.0
 40
1.0
 40
1.0
 10
10.9156683944
 20
7.7025688603
 30
0.0
 10
10.9122190814
 20
7.6992370764
 30
0.0
 10
10.9072370267
 20
7.6940323589
 30
0.0
 10
10.9010185559
 20
7.6867215155
 30
0.0
 10
10.8950832714
 20
7.6791639515
 30
0.0
 10
10.8882148554
 20
7.669276743
 30
0.0
 10
10.8821291679
 20
7.6588736358
 30
0.0
 10
10.8777460752
 20
7.6502728401
 30
0.0
 10
10.8736846042
 20
7.6414808861
 30
0.0
 10
10.8692339411
 20
7.6301751496
 30
0.0
 10
10.8649303155
 20
7.6161991872
 30
0.0
 10
10.8616807551
 20
7.6018742802
 30
0.0
 10
10.8595026966
 20
7.5872775147
 30
0.0
 10
10.8584075294
 20
7.5724867634
 30
0.0
 10
10.8584009396
 20
7.5575810619
 30
0.0
 10
10.8594827813
 20
7.542639975
 30
0.0
 10
10.8616471149
 20
7.5277432321
 30
0.0
 10
10.8648822379
 20
7.512970291
 30
0.0
 10
10.8691707548
 20
7.4983999237
 30
0.0
 10
10.8744896724
 20
7.4841098004
 30
0.0
 10
10.8808105258
 20
7.4701760816
 30
0.0
 10
10.8880995306
 20
7.4566730176
 30
0.0
 10
10.8963177638
 20
7.443672558
 30
0.0
 10
10.9054213699
 20
7.431243973
 30
0.0
 10
10.9153617941
 20
7.4194534883
 30
0.0
 10
10.9260860384
 20
7.4083639367
 30
0.0
 10
10.9375369421
 20
7.3980344265
 30
0.0
 10
10.9496534832
 20
7.3885200288
 30
0.0
 10
10.9623711
 20
7.379871489
 30
0.0
 10
10.9756220328
 20
7.3721349525
 30
0.0
 10
10.9893356733
 20
7.3653517348
 30
0.0
 10
11.0034389694
 20
7.3595580669
 30
0.0
 10
11.0178566748
 20
7.354784983
 30
0.0
 10
11.0325122463
 20
7.3510579808
 30
0.0
 10
11.0473264635
 20
7.3483972305
 30
0.0
 10
11.0572830941
 20
7.3473409407
 30
0.0
 10
11.0622599164
 20
7.3469957969
 30
0.0
  0
SPLINE
  5
3B6
100
AcDbEntity
  8
0
100
AcDbSpline
 62
7
  6
CONTINUOUS
 70
0
 71
3
 72
52
 73
48
 74
0
 42
0.0000001
 43
0.0000001
 44
0.0000000001
 40
0.0
 40
0.0
 40
0.0
 40
0.0
 40
0.040681513
 40
0.0818017947
 40
0.1232455894
 40
0.1648964967
 40
0.2066373411
 40
0.2483506301
 40
0.2899189677
 40
0.3312254852
 40
0.3721542678
 40
0.4125907842
 40
0.4524223204
 40
0.4915384183
 40
0.5298313228
 40
0.5671964406
 40
0.6035328148
 40
0.6387436246
 40
0.6727367164
 40
0.7054251835
 40
0.7367280111
 40
0.75183662
 40
0.7665715383
 40
0.7809246066
 40
0.7948882894
 40
0.8084555338
 40
0.8216199966
 40
0.8343759096
 40
0.8467183248
 40
0.8586429931
 40
0.8701466318
 40
0.8812268269
 40
0.8918823309
 40
0.9021130019
 40
0.9119201447
 40
0.9213065052
 40
0.9302766728
 40
0.9388371559
 40
0.9469968661
 40
0.9547673033
 40
0.9621631378
 40
0.9692025153
 40
0.9759077146
 40
0.9823055158
 40
0.9884277953
 40
0.9943117342
 40
1.0
 40
1.0
 40
1.0
 40
1.0
 10
10.1877903679
 20
11.1317421079
 30
0.0
 10
10.1734253625
 20
11.1327383244
 30
0.0
 10
10.1445247047
 20
11.1345212898
 30
0.0
 10
10.10094742
 20
11.1365636455
 30
0.0
 10
10.0570020738
 20
11.1379845548
 30
0.0
 10
10.0128213152
 20
11.1387796974
 30
0.0
 10
9.9685383292
 20
11.1389466604
 30
0.0
 10
9.9242866624
 20
11.1384849368
 30
0.0
 10
9.8801997518
 20
11.1373959284
 30
0.0
 10
9.8364105386
 20
11.1356829414
 30
0.0
 10
9.7930510594
 20
11.133351177
 30
0.0
 10
9.7502520467
 20
11.1304077162
 30
0.0
 10
9.7081425308
 20
11.1268614993
 30
0.0
 10
9.6668494469
 20
11.1227233001
 30
0.0
 10
9.6264972467
 20
11.1180056945
 30
0.0
 10
9.5872075189
 20
11.1127230238
 30
0.0
 10
9.5490986067
 20
11.106891354
 30
0.0
 10
9.5122852681
 20
11.1005284246
 30
0.0
 10
9.4768782164
 20
11.0936536121
 30
0.0
 10
9.4429841189
 20
11.0862878125
 30
0.0
 10
9.4157727605
 20
11.0796837449
 30
0.0
 10
9.39484616
 20
11.0741583605
 30
0.0
 10
9.379777261
 20
11.0699547224
 30
0.0
 10
9.3651601573
 20
11.0656456974
 30
0.0
 10
9.3510058219
 20
11.0612345882
 30
0.0
 10
9.3373249111
 20
11.0567246544
 30
0.0
 10
9.3241276937
 20
11.0521193845
 30
0.0
 10
9.3114240921
 20
11.047422169
 30
0.0
 10
9.2992236206
 20
11.042636638
 30
0.0
 10
9.2875354386
 20
11.0377663058
 30
0.0
 10
9.2763682707
 20
11.0328149263
 30
0.0
 10
9.2657304819
 20
11.0277861192
 30
0.0
 10
9.255629974
 20
11.0226837409
 30
0.0
 10
9.2460742895
 20
11.0175114911
 30
0.0
 10
9.2370704775
 20
11.0122732986
 30
0.0
 10
9.2286252358
 20
11.0069729073
 30
0.0
 10
9.2207447404
 20
11.0016142743
 30
0.0
 10
9.2134348389
 20
10.9962011358
 30
0.0
 10
9.2067008379
 20
10.990737414
 30
0.0
 10
9.200547768
 20
10.9852267695
 30
0.0
 10
9.1949801272
 20
10.9796730131
 30
0.0
 10
9.190002246
 20
10.9740796735
 30
0.0
 10
9.1856179769
 20
10.9684503994
 30
0.0
 10
9.1818312007
 20
10.9627886897
 30
0.0
 10
9.1786453486
 20
10.9570980025
 30
0.0
 10
9.176064278
 20
10.9513828401
 30
0.0
 10
9.1747295299
 20
10.9475024475
 30
0.0
 10
9.1741706429
 20
10.9455681693
 30
0.0
  0
SPLINE
  5
3B7
100
AcDbEntity
  8
0
100
AcDbSpline
 62
7
  6
CONTINUOUS
 70
0
 71
3
 72
11
 73
7
 74
0
 42
0.0000001
 43
0.0000001
 44
0.0000000001
 40
0.0
 40
0.0
 40
0.0
 40
0.0
 40
0.2467505159
 40
0.4948140931
 40
0.7454812751
 40
1.0
 40
1.0
 40
1.0
 40
1.0
 10
13.3538786849
 20
10.1825781108
 30
0.0
 10
13.3551066173
 20
10.1824929533
 30
0.0
 10
13.3575635443
 20
10.1822288633
 30
0.0
 10
13.3612238989
 20
10.1815539084
 30
0.0
 10
13.3648616965
 20
10.1806001822
 30
0.0
 10
13.3672492635
 20
10.1797861328
 30
0.0
 10
13.3684361282
 20
10.1793352242
 30
0.0
  0
SPLINE
  5
3B8
100
AcDbEntity
  8
0
100
AcDbSpline
 62
7
  6
CONTINUOUS
 70
0
 71
3
 72
38
 73
34
 74
0
 42
0.0000001
 43
0.0000001
 44
0.0000000001
 40
0.0
 40
0.0
 40
0.0
 40
0.0
 40
0.0926712328
 40
0.1830362793
 40
0.2272012196
 40
0.2706073356
 40
0.3131967852
 40
0.3549131646
 40
0.3957019033
 40
0.435510314
 40
0.4742877398
 40
0.5119858353
 40
0.5485586743
 40
0.5839629263
 40
0.6181581948
 40
0.6511072591
 40
0.682776307
 40
0.7131353732
 40
0.7421588362
 40
0.7698258399
 40
0.7961209727
 40
0.8210352157
 40
0.8445668759
 40
0.8667228825
 40
0.8875206088
 40
0.9069900051
 40
0.925176276
 40
0.9421433909
 40
0.9579782282
 40
0.9727950131
 40
0.9867396709
 40
0.993443539
 40
1.0
 40
1.0
 40
1.0
 40
1.0
 10
10.1877903679
 20
11.1317421079
 30
0.0
 10
10.207633833
 20
11.1303659589
 30
0.0
 10
10.2467996701
 20
11.1272353664
 30
0.0
 10
10.2953177532
 20
11.1222710262
 30
0.0
 10
10.3332376382
 20
11.1177088385
 30
0.0
 10
10.3609335548
 20
11.1140341706
 30
0.0
 10
10.3880608336
 20
11.1100860424
 30
0.0
 10
10.4145791635
 20
11.1058703024
 30
0.0
 10
10.4404490916
 20
11.1013932867
 30
0.0
 10
10.4656321471
 20
11.0966616858
 30
0.0
 10
10.4900908846
 20
11.0916825554
 30
0.0
 10
10.5137889595
 20
11.0864633641
 30
0.0
 10
10.5366911703
 20
11.0810119265
 30
0.0
 10
10.5587635056
 20
11.0753363749
 30
0.0
 10
10.5799732209
 20
11.0694452063
 30
0.0
 10
10.6002888872
 20
11.0633472471
 30
0.0
 10
10.6196804224
 20
11.0570515951
 30
0.0
 10
10.6381191611
 20
11.0505676353
 30
0.0
 10
10.6555779232
 20
11.0439050554
 30
0.0
 10
10.6720310331
 20
11.0370737523
 30
0.0
 10
10.6874543711
 20
11.0300838009
 30
0.0
 10
10.7018254662
 20
11.0229454946
 30
0.0
 10
10.7151235101
 20
11.0156692166
 30
0.0
 10
10.7273293683
 20
11.0082653383
 30
0.0
 10
10.7384256547
 20
11.0007441911
 30
0.0
 10
10.7483966992
 20
10.9931159181
 30
0.0
 10
10.7572284071
 20
10.9853901833
 30
0.0
 10
10.7649080016
 20
10.9775762292
 30
0.0
 10
10.7714238345
 20
10.9696821786
 30
0.0
 10
10.7767639758
 20
10.9617172654
 30
0.0
 10
10.7802700817
 20
10.9549372559
 30
0.0
 10
10.7824417402
 20
10.9495130601
 30
0.0
 10
10.7833223378
 20
10.9468036746
 30
0.0
 10
10.7837102385
 20
10.9454508993
 30
0.0
  0
SPLINE
  5
3B9
100
AcDbEntity
  8
0
100
AcDbSpline
 62
7
  6
CONTINUOUS
 70
0
 71
3
 72
41
 73
37
 74
0
 42
0.0000001
 43
0.0000001
 44
0.0000000001
 40
0.0
 40
0.0
 40
0.0
 40
0.0
 40
0.0310748272
 40
0.0623072483
 40
0.0936920359
 40
0.1252208484
 40
0.156882237
 40
0.188662033
 40
0.2205436266
 40
0.2525083437
 40
0.2845358343
 40
0.3166044929
 40
0.3486918936
 40
0.3807752384
 40
0.4128318095
 40
0.4448394218
 40
0.4767768664
 40
0.5086243418
 40
0.5403638639
 40
0.5719796493
 40
0.6034584635
 40
0.6347899281
 40
0.6659667781
 40
0.6969850622
 40
0.7278442783
 40
0.7585474376
 40
0.7891010512
 40
0.8195150346
 40
0.8498025274
 40
0.8649066426
 40
0.8799854039
 40
0.9100708284
 40
0.9400854823
 40
0.9550762294
 40
0.970057877
 40
1.0
 40
1.0
 40
1.0
 40
1.0
 10
7.8298000766
 20
9.3261190924
 30
0.0
 10
7.8298000766
 20
9.3212597406
 30
0.0
 10
7.8301625841
 20
9.3115126546
 30
0.0
 10
7.8317810386
 20
9.296938697
 30
0.0
 10
7.8344665174
 20
9.2824502968
 30
0.0
 10
7.8382041055
 20
9.2681280915
 30
0.0
 10
7.8429731482
 20
9.2540504213
 30
0.0
 10
7.8487473363
 20
9.2402946352
 30
0.0
 10
7.8554948724
 20
9.2269362019
 30
0.0
 10
7.8631786355
 20
9.2140484279
 30
0.0
 10
7.8717563895
 20
9.2017020271
 30
0.0
 10
7.8811810116
 20
9.1899647459
 30
0.0
 10
7.8914007497
 20
9.1789009937
 30
0.0
 10
7.9023595041
 20
9.1685714941
 30
0.0
 10
7.9139971324
 20
9.1590329544
 30
0.0
 10
7.9262497758
 20
9.1503377578
 30
0.0
 10
7.9390502059
 20
9.142533678
 30
0.0
 10
7.952328189
 20
9.135663619
 30
0.0
 10
7.9660108666
 20
9.1297653803
 30
0.0
 10
7.9800231502
 20
9.1248714501
 30
0.0
 10
7.994288127
 20
9.1210088258
 30
0.0
 10
8.0087274765
 20
9.1181988638
 30
0.0
 10
8.0232618952
 20
9.116457159
 30
0.0
 10
8.0378115221
 20
9.1157934526
 30
0.0
 10
8.0522963882
 20
9.1162115785
 30
0.0
 10
8.0666367932
 20
9.1177094081
 30
0.0
 10
8.0807539607
 20
9.1202789496
 30
0.0
 10
8.0945696575
 20
9.1239060203
 30
0.0
 10
8.1057805089
 20
9.1277978169
 30
0.0
 10
8.1145188235
 20
9.1314170904
 30
0.0
 10
8.1230802573
 20
9.1353620679
 30
0.0
 10
8.1334610246
 20
9.1409073692
 30
0.0
 10
8.1433604481
 20
9.1472469598
 30
0.0
 10
8.1509471725
 20
9.1527676649
 30
0.0
 10
8.1582997365
 20
9.1585774882
 30
0.0
 10
8.1635497507
 20
9.1632598861
 30
0.0
 10
8.1669174509
 20
9.166512857
 30
0.0
  0
SPLINE
  5
3BA
100
AcDbEntity
  8
0
100
AcDbSpline
 62
7
  6
CONTINUOUS
 70
0
 71
3
 72
48
 73
44
 74
0
 42
0.0000001
 43
0.0000001
 44
0.0000000001
 40
0.0
 40
0.0
 40
0.0
 40
0.0
 40
0.098747914
 40
0.147105683
 40
0.1946763318
 40
0.2413788573
 40
0.287134981
 40
0.3318688779
 40
0.3755070677
 40
0.4179789741
 40
0.4592171144
 40
0.4991573265
 40
0.5377391133
 40
0.5749061005
 40
0.6106063702
 40
0.6447929014
 40
0.6774242088
 40
0.7084651049
 40
0.7378874576
 40
0.7656712745
 40
0.7918062203
 40
0.8162934169
 40
0.8279242248
 40
0.8391500664
 40
0.8499754252
 40
0.8604062512
 40
0.8704498529
 40
0.8801151802
 40
0.889413133
 40
0.8983565398
 40
0.9069605925
 40
0.9152430493
 40
0.9309208188
 40
0.9383734978
 40
0.9456050857
 40
0.9526487962
 40
0.959540859
 40
0.9663202362
 40
0.9730280926
 40
0.9797070223
 40
0.9864002412
 40
0.9931506514
 40
1.0
 40
1.0
 40
1.0
 40
1.0
 10
10.127744399
 20
11.0737421523
 30
0.0
 10
10.1435321805
 20
11.0726472659
 30
0.0
 10
10.1670337232
 20
11.0707400068
 30
0.0
 10
10.1980784412
 20
11.0676296682
 30
0.0
 10
10.2207925109
 20
11.0650573608
 30
0.0
 10
10.2430565176
 20
11.0622341884
 30
0.0
 10
10.2648290338
 20
11.0591654232
 30
0.0
 10
10.2860695556
 20
11.0558568234
 30
0.0
 10
10.3067386009
 20
11.0523145569
 30
0.0
 10
10.3267977451
 20
11.0485452623
 30
0.0
 10
10.3462097259
 20
11.044556007
 30
0.0
 10
10.3649384897
 20
11.0403542574
 30
0.0
 10
10.3829492701
 20
11.0359478648
 30
0.0
 10
10.4002086749
 20
11.0313450951
 30
0.0
 10
10.4166847416
 20
11.0265545705
 30
0.0
 10
10.4323469921
 20
11.0215852426
 30
0.0
 10
10.4471665133
 20
11.0164463856
 30
0.0
 10
10.4611160516
 20
11.0111475958
 30
0.0
 10
10.4741700101
 20
11.0056987219
 30
0.0
 10
10.486304666
 20
11.0001097762
 30
0.0
 10
10.4974977282
 20
10.9943910467
 30
0.0
 10
10.5061672216
 20
10.9894443844
 30
0.0
 10
10.5126011123
 20
10.9854209335
 30
0.0
 10
10.5170953085
 20
10.982429405
 30
0.0
 10
10.5213393325
 20
10.9794133718
 30
0.0
 10
10.5253312865
 20
10.9763742099
 30
0.0
 10
10.5290693312
 20
10.9733132582
 30
0.0
 10
10.5325517184
 20
10.9702318366
 30
0.0
 10
10.5357769128
 20
10.9671313242
 30
0.0
 10
10.5387433077
 20
10.9640130909
 30
0.0
 10
10.5414497268
 20
10.9608781476
 30
0.0
 10
10.544650632
 20
10.956754317
 30
0.0
 10
10.5474062275
 20
10.9525234207
 30
0.0
 10
10.5496482894
 20
10.948201276
 30
0.0
 10
10.551035686
 20
10.9450040892
 30
0.0
 10
10.5521561279
 20
10.9417987601
 30
0.0
 10
10.5530087905
 20
10.9385867114
 30
0.0
 10
10.5535928777
 20
10.9353696692
 30
0.0
 10
10.553907971
 20
10.9321494461
 30
0.0
 10
10.5539536711
 20
10.9289279384
 30
0.0
 10
10.5537299328
 20
10.9257070235
 30
0.0
 10
10.5532371158
 20
10.9224888446
 30
0.0
 10
10.5527338924
 20
10.9203654196
 30
0.0
 10
10.5524397698
 20
10.919307856
 30
0.0
  0
SPLINE
  5
3BB
100
AcDbEntity
  8
0
100
AcDbSpline
 62
4
  6
CONTINUOUS
 70
0
 71
3
 72
313
 73
309
 74
0
 42
0.0000001
 43
0.0000001
 44
0.0000000001
 40
0.0
 40
0.0
 40
0.0
 40
0.0
 40
0.015625
 40
0.0234375
 40
0.03125
 40
0.0390625
 40
0.046875
 40
0.05078125
 40
0.0546875
 40
0.056640625
 40
0.05859375
 40
0.060546875
 40
0.0615234375
 40
0.0620117188
 40
0.0625
 40
0.0629882812
 40
0.0634765625
 40
0.064453125
 40
0.06640625
 40
0.068359375
 40
0.0703125
 40
0.07421875
 40
0.078125
 40
0.0859375
 40
0.09375
 40
0.1015625
 40
0.109375
 40
0.11328125
 40
0.1171875
 40
0.119140625
 40
0.12109375
 40
0.123046875
 40
0.1240234375
 40
0.1245117188
 40
0.125
 40
0.1254882812
 40
0.1259765625
 40
0.126953125
 40
0.12890625
 40
0.130859375
 40
0.1328125
 40
0.13671875
 40
0.140625
 40
0.1484375
 40
0.15625
 40
0.1640625
 40
0.171875
 40
0.17578125
 40
0.1796875
 40
0.181640625
 40
0.18359375
 40
0.185546875
 40
0.1865234375
 40
0.1870117188
 40
0.1875
 40
0.1879882812
 40
0.1884765625
 40
0.189453125
 40
0.19140625
 40
0.193359375
 40
0.1953125
 40
0.19921875
 40
0.203125
 40
0.2109375
 40
0.21875
 40
0.2265625
 40
0.234375
 40
0.23828125
 40
0.2421875
 40
0.244140625
 40
0.24609375
 40
0.248046875
 40
0.2490234375
 40
0.2495117188
 40
0.25
 40
0.2504882812
 40
0.2509765625
 40
0.251953125
 40
0.25390625
 40
0.255859375
 40
0.2578125
 40
0.26171875
 40
0.265625
 40
0.2734375
 40
0.28125
 40
0.2890625
 40
0.296875
 40
0.30078125
 40
0.3046875
 40
0.306640625
 40
0.30859375
 40
0.310546875
 40
0.3115234375
 40
0.3120117188
 40
0.3125
 40
0.3129882812
 40
0.3134765625
 40
0.314453125
 40
0.31640625
 40
0.318359375
 40
0.3203125
 40
0.32421875
 40
0.328125
 40
0.3359375
 40
0.34375
 40
0.3515625
 40
0.359375
 40
0.36328125
 40
0.3671875
 40
0.369140625
 40
0.37109375
 40
0.373046875
 40
0.3740234375
 40
0.3745117188
 40
0.375
 40
0.3754882812
 40
0.3759765625
 40
0.376953125
 40
0.37890625
 40
0.380859375
 40
0.3828125
 40
0.38671875
 40
0.390625
 40
0.3984375
 40
0.40625
 40
0.4140625
 40
0.421875
 40
0.42578125
 40
0.4296875
 40
0.431640625
 40
0.43359375
 40
0.435546875
 40
0.4365234375
 40
0.4370117188
 40
0.4375
 40
0.4379882812
 40
0.4384765625
 40
0.439453125
 40
0.44140625
 40
0.443359375
 40
0.4453125
 40
0.44921875
 40
0.453125
 40
0.4609375
 40
0.46875
 40
0.4765625
 40
0.484375
 40
0.48828125
 40
0.4921875
 40
0.494140625
 40
0.49609375
 40
0.498046875
 40
0.4990234375
 40
0.4995117188
 40
0.5
 40
0.5004882812
 40
0.5009765625
 40
0.501953125
 40
0.50390625
 40
0.505859375
 40
0.5078125
 40
0.51171875
 40
0.515625
 40
0.5234375
 40
0.53125
 40
0.5390625
 40
0.546875
 40
0.55078125
 40
0.5546875
 40
0.556640625
 40
0.55859375
 40
0.560546875
 40
0.5615234375
 40
0.5620117188
 40
0.5625
 40
0.5629882812
 40
0.5634765625
 40
0.564453125
 40
0.56640625
 40
0.568359375
 40
0.5703125
 40
0.57421875
 40
0.578125
 40
0.5859375
 40
0.59375
 40
0.6015625
 40
0.609375
 40
0.61328125
 40
0.6171875
 40
0.619140625
 40
0.62109375
 40
0.623046875
 40
0.6240234375
 40
0.6245117188
 40
0.625
 40
0.6254882812
 40
0.6259765625
 40
0.626953125
 40
0.62890625
 40
0.630859375
 40
0.6328125
 40
0.63671875
 40
0.640625
 40
0.6484375
 40
0.65625
 40
0.6640625
 40
0.671875
 40
0.67578125
 40
0.6796875
 40
0.681640625
 40
0.68359375
 40
0.685546875
 40
0.6865234375
 40
0.6870117188
 40
0.6875
 40
0.6879882812
 40
0.6884765625
 40
0.689453125
 40
0.69140625
 40
0.693359375
 40
0.6953125
 40
0.69921875
 40
0.703125
 40
0.7109375
 40
0.71875
 40
0.7265625
 40
0.734375
 40
0.73828125
 40
0.7421875
 40
0.744140625
 40
0.74609375
 40
0.748046875
 40
0.7490234375
 40
0.7495117188
 40
0.75
 40
0.7504882812
 40
0.7509765625
 40
0.751953125
 40
0.75390625
 40
0.755859375
 40
0.7578125
 40
0.76171875
 40
0.765625
 40
0.7734375
 40
0.78125
 40
0.7890625
 40
0.796875
 40
0.80078125
 40
0.8046875
 40
0.806640625
 40
0.80859375
 40
0.810546875
 40
0.8115234375
 40
0.8120117188
 40
0.8125
 40
0.8129882812
 40
0.8134765625
 40
0.814453125
 40
0.81640625
 40
0.818359375
 40
0.8203125
 40
0.82421875
 40
0.828125
 40
0.8359375
 40
0.84375
 40
0.8515625
 40
0.859375
 40
0.86328125
 40
0.8671875
 40
0.869140625
 40
0.87109375
 40
0.873046875
 40
0.8740234375
 40
0.8745117188
 40
0.875
 40
0.8754882812
 40
0.8759765625
 40
0.876953125
 40
0.87890625
 40
0.880859375
 40
0.8828125
 40
0.88671875
 40
0.890625
 40
0.8984375
 40
0.90625
 40
0.9140625
 40
0.921875
 40
0.92578125
 40
0.9296875
 40
0.931640625
 40
0.93359375
 40
0.935546875
 40
0.9365234375
 40
0.9370117188
 40
0.9375
 40
0.9379882812
 40
0.9384765625
 40
0.939453125
 40
0.94140625
 40
0.943359375
 40
0.9453125
 40
0.94921875
 40
0.953125
 40
0.9609375
 40
0.96875
 40
0.9765625
 40
0.984375
 40
1.0
 40
1.0
 40
1.0
 40
1.0
 10
9.8213460643
 20
7.7257863045
 30
0.0
 10
9.8209876506
 20
7.7294665454
 30
0.0
 10
9.8204500305
 20
7.7349869068
 30
0.0
 10
9.8197332025
 20
7.7423473885
 30
0.0
 10
9.8191955844
 20
7.7478677501
 30
0.0
 10
9.8186579553
 20
7.7533881104
 30
0.0
 10
9.8182099651
 20
7.7579884149
 30
0.0
 10
9.8178514969
 20
7.7616686488
 30
0.0
 10
9.8176276272
 20
7.7639688172
 30
0.0
 10
9.8174481355
 20
7.765808901
 30
0.0
 10
9.8173146006
 20
7.7671891033
 30
0.0
 10
9.8171998737
 20
7.7683388283
 30
0.0
 10
9.8171263312
 20
7.7691445064
 30
0.0
 10
9.8170737418
 20
7.7696035345
 30
0.0
 10
9.8170640617
 20
7.7699516347
 30
0.0
 10
9.8169406166
 20
7.7702850984
 30
0.0
 10
9.8168157056
 20
7.7707348221
 30
0.0
 10
9.8165786226
 20
7.7715194598
 30
0.0
 10
9.8162495987
 20
7.7726416144
 30
0.0
 10
9.8158506326
 20
7.7739876676
 30
0.0
 10
9.8153201229
 20
7.7757825911
 30
0.0
 10
9.8146564911
 20
7.7780261819
 30
0.0
 10
9.8135949567
 20
7.7816159628
 30
0.0
 10
9.8122679432
 20
7.7861031764
 30
0.0
 10
9.8106755705
 20
7.791487839
 30
0.0
 10
9.8090831766
 20
7.7968724966
 30
0.0
 10
9.8077562161
 20
7.8013597226
 30
0.0
 10
9.8066945756
 20
7.8049494788
 30
0.0
 10
9.8060312133
 20
7.8071931322
 30
0.0
 10
9.8055001504
 20
7.8089879271
 30
0.0
 10
9.8051028747
 20
7.8103343735
 30
0.0
 10
9.804768562
 20
7.8114552981
 30
0.0
 10
9.8045409203
 20
7.8122421315
 30
0.0
 10
9.8044008819
 20
7.812688337
 30
0.0
 10
9.8043239035
 20
7.8130326074
 30
0.0
 10
9.8041397021
 20
7.8133401196
 30
0.0
 10
9.8039315008
 20
7.8137629575
 30
0.0
 10
9.803549723
 20
7.8144969499
 30
0.0
 10
9.8030134364
 20
7.8155486338
 30
0.0
 10
9.8023659929
 20
7.8168093177
 30
0.0
 10
9.801504097
 20
7.8184906964
 30
0.0
 10
9.8004262607
 20
7.8205922599
 30
0.0
 10
9.7987019834
 20
7.8239548509
 30
0.0
 10
9.7965465467
 20
7.8281580587
 30
0.0
 10
9.7939600638
 20
7.8332019225
 30
0.0
 10
9.7913735606
 20
7.838245778
 30
0.0
 10
9.7892181747
 20
7.8424490065
 30
0.0
 10
9.7874937959
 20
7.8458115561
 30
0.0
 10
9.7864162174
 20
7.8479132247
 30
0.0
 10
9.7855537924
 20
7.8495943876
 30
0.0
 10
9.7849079654
 20
7.8508557308
 30
0.0
 10
9.7843666213
 20
7.8519053519
 30
0.0
 10
9.7839938719
 20
7.8526430267
 30
0.0
 10
9.7837712048
 20
7.8530599646
 30
0.0
 10
9.7836314377
 20
7.8533855997
 30
0.0
 10
9.7833875715
 20
7.8536618035
 30
0.0
 10
9.7830987275
 20
7.8540473175
 30
0.0
 10
9.7825763326
 20
7.8547139335
 30
0.0
 10
9.7818388991
 20
7.8556704421
 30
0.0
 10
9.7809501929
 20
7.8568164546
 30
0.0
 10
9.7797665737
 20
7.8583450993
 30
0.0
 10
9.7782865969
 20
7.86025569
 30
0.0
 10
9.7759188872
 20
7.8633127555
 30
0.0
 10
9.7729591627
 20
7.8671340457
 30
0.0
 10
9.7694075326
 20
7.8717196138
 30
0.0
 10
9.7658558852
 20
7.8763051689
 30
0.0
 10
9.762896204
 20
7.8801264914
 30
0.0
 10
9.7605284077
 20
7.8831834921
 30
0.0
 10
9.7590486508
 20
7.8850942476
 30
0.0
 10
9.7578645804
 20
7.8866225542
 30
0.0
 10
9.7569772527
 20
7.8877695994
 30
0.0
 10
9.7562355063
 20
7.8887228771
 30
0.0
 10
9.7557208105
 20
7.8893952608
 30
0.0
 10
9.7554196306
 20
7.8897715334
 30
0.0
 10
9.7552136564
 20
7.8900761237
 30
0.0
 10
9.7549315734
 20
7.8902951442
 30
0.0
 10
9.7545820103
 20
7.8906170192
 30
0.0
 10
9.7539579059
 20
7.8911663938
 30
0.0
 10
9.7530727948
 20
7.8919584853
 30
0.0
 10
9.7520078936
 20
7.8929058831
 30
0.0
 10
9.7505889921
 20
7.894170167
 30
0.0
 10
9.7488150342
 20
7.8957501498
 30
0.0
 10
9.7459768866
 20
7.8982783303
 30
0.0
 10
9.7424291383
 20
7.901438484
 30
0.0
 10
9.7381718692
 20
7.9052307016
 30
0.0
 10
9.7339145866
 20
7.909022902
 30
0.0
 10
9.730366872
 20
7.9121830983
 30
0.0
 10
9.7275286569
 20
7.9147111937
 30
0.0
 10
9.7257548706
 20
7.9162913929
 30
0.0
 10
9.724335617
 20
7.9175552326
 30
0.0
 10
9.7232717915
 20
7.9185039878
 30
0.0
 10
9.7223833149
 20
7.919291832
 30
0.0
 10
9.7217652185
 20
7.9198487887
 30
0.0
 10
9.7214060291
 20
7.9201585154
 30
0.0
 10
9.7211535149
 20
7.9204148517
 30
0.0
 10
9.7208364851
 20
7.9205792899
 30
0.0
 10
9.7204362825
 20
7.9208305959
 30
0.0
 10
9.7197254429
 20
7.9212554463
 30
0.0
 10
9.7187154394
 20
7.9218701837
 30
0.0
 10
9.7175010889
 20
7.9226045265
 30
0.0
 10
9.7158827745
 20
7.9235848174
 30
0.0
 10
9.7138596008
 20
7.9248097815
 30
0.0
 10
9.7106226798
 20
7.9267699474
 30
0.0
 10
9.7065764745
 20
7.9292200775
 30
0.0
 10
9.7017210524
 20
7.9321602692
 30
0.0
 10
9.6968656198
 20
7.9351004422
 30
0.0
 10
9.6928194406
 20
7.9375506193
 30
0.0
 10
9.6895824673
 20
7.9395106912
 30
0.0
 10
9.6875594267
 20
7.9407358941
 30
0.0
 10
9.6859408391
 20
7.9417156947
 30
0.0
 10
9.684727323
 20
7.9424515357
 30
0.0
 10
9.6837147089
 20
7.9430615853
 30
0.0
 10
9.6830085298
 20
7.9434948043
 30
0.0
 10
9.6826008599
 20
7.9437327018
 30
0.0
 10
9.6823067669
 20
7.9439383264
 30
0.0
 10
9.6819681058
 20
7.9440399736
 30
0.0
 10
9.6815321035
 20
7.9442117717
 30
0.0
 10
9.6807618564
 20
7.9444955202
 30
0.0
 10
9.6796652901
 20
7.9449097098
 30
0.0
 10
9.6783477897
 20
7.9454029559
 30
0.0
 10
9.6765916886
 20
7.9460619381
 30
0.0
 10
9.6743963684
 20
7.9468852135
 30
0.0
 10
9.6708839645
 20
7.9482027072
 30
0.0
 10
9.6664934222
 20
7.9498494868
 30
0.0
 10
9.6612247883
 20
7.9518256625
 30
0.0
 10
9.6559561469
 20
7.9538018175
 30
0.0
 10
9.6515656234
 20
7.9554486488
 30
0.0
 10
9.648053182
 20
7.9567660391
 30
0.0
 10
9.6458579571
 20
7.9575895772
 30
0.0
 10
9.6441016605
 20
7.9582480203
 30
0.0
 10
9.6427847576
 20
7.9587429134
 30
0.0
 10
9.6416863217
 20
7.9591519499
 30
0.0
 10
9.6409194121
 20
7.9594448975
 30
0.0
 10
9.6404780623
 20
7.9596019563
 30
0.0
 10
9.6401558271
 20
7.959748878
 30
0.0
 10
9.6398000408
 20
7.9597844593
 30
0.0
 10
9.6393373621
 20
7.9598707379
 30
0.0
 10
9.6385222216
 20
7.9600036306
 30
0.0
 10
9.6373605859
 20
7.9602029374
 30
0.0
 10
9.6359654029
 20
7.9604380564
 30
0.0
 10
9.6341055851
 20
7.9607529626
 30
0.0
 10
9.6317806669
 20
7.9611461112
 30
0.0
 10
9.6280608794
 20
7.9617754197
 30
0.0
 10
9.623411117
 20
7.9625619617
 30
0.0
 10
9.6178314139
 20
7.9635058551
 30
0.0
 10
9.6122517085
 20
7.9644497263
 30
0.0
 10
9.6076019517
 20
7.9652363236
 30
0.0
 10
9.6038821531
 20
7.9658655216
 30
0.0
 10
9.6015572631
 20
7.9662589509
 30
0.0
 10
9.5996973874
 20
7.966573281
 30
0.0
 10
9.5983023813
 20
7.9668101602
 30
0.0
 10
9.5971401921
 20
7.9670039597
 30
0.0
 10
9.5963260398
 20
7.9671466839
 30
0.0
 10
9.5958617777
 20
7.9672172099
 30
0.0
 10
9.5955108547
 20
7.967301178
 30
0.0
 10
9.5951703538
 20
7.9672663671
 30
0.0
 10
9.5947127173
 20
7.967261384
 30
0.0
 10
9.5939135471
 20
7.9672333599
 30
0.0
 10
9.5927709899
 20
7.9672034176
 30
0.0
 10
9.5914003003
 20
7.9671631671
 30
0.0
 10
9.5895725818
 20
7.9671110086
 30
0.0
 10
9.587287979
 20
7.9670452938
 30
0.0
 10
9.5836325892
 20
7.966940439
 30
0.0
 10
9.5790633607
 20
7.9668092707
 30
0.0
 10
9.5735802822
 20
7.9666519143
 30
0.0
 10
9.5680972068
 20
7.9664945355
 30
0.0
 10
9.5635279705
 20
7.9663634234
 30
0.0
 10
9.5598725964
 20
7.9662584562
 30
0.0
 10
9.5575879534
 20
7.966193027
 30
0.0
 10
9.5557603174
 20
7.9661402824
 30
0.0
 10
9.5543893758
 20
7.9661018226
 30
0.0
 10
9.5532476071
 20
7.9660662776
 30
0.0
 10
9.5524470293
 20
7.9660482553
 30
0.0
 10
9.5519916482
 20
7.9660272467
 30
0.0
 10
9.5516442194
 20
7.9660416609
 30
0.0
 10
9.5513193166
 20
7.9659407479
 30
0.0
 10
9.5508782555
 20
7.9658464246
 30
0.0
 10
9.5501100596
 20
7.9656626161
 30
0.0
 10
9.5490107229
 20
7.9654098315
 30
0.0
 10
9.5476923381
 20
7.9651022957
 30
0.0
 10
9.5459342055
 20
7.964693713
 30
0.0
 10
9.5437366377
 20
7.9641824829
 30
0.0
 10
9.5402204745
 20
7.9633647953
 30
0.0
 10
9.5358252896
 20
7.9623425889
 30
0.0
 10
9.5305510585
 20
7.9611159853
 30
0.0
 10
9.5252768337
 20
7.9598893602
 30
0.0
 10
9.5208816328
 20
7.9588672079
 30
0.0
 10
9.5173655016
 20
7.958049412
 30
0.0
 10
9.5151678525
 20
7.9575384572
 30
0.0
 10
9.5134098869
 20
7.9571293095
 30
0.0
 10
9.5120909917
 20
7.9568234995
 30
0.0
 10
9.5109932518
 20
7.9565653154
 30
0.0
 10
9.5102222054
 20
7.956391146
 30
0.0
 10
9.5097857116
 20
7.9562813785
 30
0.0
 10
9.5094467797
 20
7.9562279051
 30
0.0
 10
9.5091520419
 20
7.9560641438
 30
0.0
 10
9.5087436428
 20
7.9558842651
 30
0.0
 10
9.5080361267
 20
7.9555515537
 30
0.0
 10
9.5070216344
 20
7.9550856223
 30
0.0
 10
9.5058058509
 20
7.9545224937
 30
0.0
 10
9.5041842449
 20
7.9537730566
 30
0.0
 10
9.5021574296
 20
7.9528357804
 30
0.0
 10
9.4989144177
 20
7.9513364068
 30
0.0
 10
9.4948606899
 20
7.9494620971
 30
0.0
 10
9.4899961993
 20
7.9472129677
 30
0.0
 10
9.4851317184
 20
7.9449638174
 30
0.0
 10
9.4810779664
 20
7.9430895601
 30
0.0
 10
9.4778350029
 20
7.9415900817
 30
0.0
 10
9.4758080646
 20
7.9406530718
 30
0.0
 10
9.474186711
 20
7.9399030881
 30
0.0
 10
9.4729701562
 20
7.9393416294
 30
0.0
 10
9.4719580773
 20
7.9388704732
 30
0.0
 10
9.4712462528
 20
7.938547089
 30
0.0
 10
9.4708447569
 20
7.9383522658
 30
0.0
 10
9.4705288147
 20
7.9382344093
 30
0.0
 10
9.4702695231
 20
7.9380085251
 30
0.0
 10
9.4699040405
 20
7.9377450274
 30
0.0
 10
9.4692736527
 20
7.93726635
 30
0.0
 10
9.4683682853
 20
7.9365917039
 30
0.0
 10
9.4672839048
 20
7.9357781998
 30
0.0
 10
9.4658373444
 20
7.9346948999
 30
0.0
 10
9.4640293903
 20
7.9333403051
 30
0.0
 10
9.4611365261
 20
7.9311732162
 30
0.0
 10
9.4575204935
 20
7.9284642645
 30
0.0
 10
9.4531812318
 20
7.9252135632
 30
0.0
 10
9.4488419843
 20
7.9219628436
 30
0.0
 10
9.4452259163
 20
7.9192539376
 30
0.0
 10
9.4423331229
 20
7.9170867572
 30
0.0
 10
9.4405249889
 20
7.9157323948
 30
0.0
 10
9.4390787978
 20
7.9146486181
 30
0.0
 10
9.437993289
 20
7.9138365707
 30
0.0
 10
9.4370914516
 20
7.9131573669
 30
0.0
 10
9.4364547622
 20
7.9126868257
 30
0.0
 10
9.4360993765
 20
7.9124102919
 30
0.0
 10
9.4358090706
 20
7.9122244504
 30
0.0
 10
9.4356096126
 20
7.9119561999
 30
0.0
 10
9.4353119799
 20
7.9116272777
 30
0.0
 10
9.434805887
 20
7.9110382709
 30
0.0
 10
9.4340751782
 20
7.9102038347
 30
0.0
 10
9.4332016316
 20
7.9091995142
 30
0.0
 10
9.4320357488
 20
7.9078614669
 30
0.0
 10
9.4305787904
 20
7.9061885494
 30
0.0
 10
9.4282474361
 20
7.9035120818
 30
0.0
 10
9.4253333195
 20
7.9001664281
 30
0.0
 10
9.4218363446
 20
7.8961516751
 30
0.0
 10
9.4183393877
 20
7.8921369073
 30
0.0
 10
9.4154252262
 20
7.8887912905
 30
0.0
 10
9.4130939618
 20
7.8861147491
 30
0.0
 10
9.411636775
 20
7.884442019
 30
0.0
 10
9.410471361
 20
7.8831035872
 30
0.0
 10
9.4095963823
 20
7.8821004416
 30
0.0
 10
9.4088701541
 20
7.8812623292
 30
0.0
 10
9.4083560625
 20
7.8806798851
 30
0.0
 10
9.4080712458
 20
7.8803404479
 30
0.0
 10
9.4078324214
 20
7.8801044962
 30
0.0
 10
9.4076899693
 20
7.8797973455
 30
0.0
 10
9.4074664174
 20
7.8794126462
 30
0.0
 10
9.4070908639
 20
7.8787278513
 30
0.0
 10
9.4065461705
 20
7.8777556225
 30
0.0
 10
9.4058960432
 20
7.8765863585
 30
0.0
 10
9.4050279827
 20
7.8750282442
 30
0.0
 10
9.4039433263
 20
7.8730802918
 30
0.0
 10
9.4022076416
 20
7.8699637409
 30
0.0
 10
9.4000381168
 20
7.8660679926
 30
0.0
 10
9.3974346497
 20
7.8613931215
 30
0.0
 10
9.3948312022
 20
7.8567182386
 30
0.0
 10
9.3926616285
 20
7.8528225199
 30
0.0
 10
9.3909260415
 20
7.84970591
 30
0.0
 10
9.3898411369
 20
7.8477581077
 30
0.0
 10
9.3889735857
 20
7.8461996851
 30
0.0
 10
9.3883219023
 20
7.8450313634
 30
0.0
 10
9.3877820777
 20
7.8440561862
 30
0.0
 10
9.3873978325
 20
7.8433766546
 30
0.0
 10
9.3871882069
 20
7.8429835223
 30
0.0
 10
9.3870029778
 20
7.842702275
 30
0.0
 10
9.3869248168
 20
7.8423690344
 30
0.0
 10
9.3867832556
 20
7.8419428494
 30
0.0
 10
9.3865529239
 20
7.8411885758
 30
0.0
 10
9.3862147814
 20
7.8401154598
 30
0.0
 10
9.3858129043
 20
7.8388258296
 30
0.0
 10
9.3852757082
 20
7.8371069833
 30
0.0
 10
9.3846046787
 20
7.8349581991
 30
0.0
 10
9.3835307711
 20
7.831520271
 30
0.0
 10
9.3821884766
 20
7.8272228171
 30
0.0
 10
9.3805776819
 20
7.8220658922
 30
0.0
 10
9.3789669084
 20
7.8169089583
 30
0.0
 10
9.3776245609
 20
7.8126115269
 30
0.0
 10
9.3765507593
 20
7.8091735539
 30
0.0
 10
9.3758794605
 20
7.8070248838
 30
0.0
 10
9.375342817
 20
7.8053058034
 30
0.0
 10
9.3749392515
 20
7.804016888
 30
0.0
 10
9.3746063918
 20
7.802941536
 30
0.0
 10
9.3743666295
 20
7.802191254
 30
0.0
 10
9.3742401784
 20
7.8017586735
 30
0.0
 10
9.3741156038
 20
7.8014450777
 30
0.0
 10
9.3741046963
 20
7.8010900476
 30
0.0
 10
9.3740505047
 20
7.8006311269
 30
0.0
 10
9.3739741422
 20
7.7998212818
 30
0.0
 10
9.373855395
 20
7.7986678807
 30
0.0
 10
9.3737170323
 20
7.7972822926
 30
0.0
 10
9.3735311049
 20
7.7954353681
 30
0.0
 10
9.3732991899
 20
7.7931265322
 30
0.0
 10
9.3729278497
 20
7.7894324956
 30
0.0
 10
9.3724637692
 20
7.7848149152
 30
0.0
 10
9.371906832
 20
7.7792738335
 30
0.0
 10
9.3713499056
 20
7.7737327479
 30
0.0
 10
9.3706073333
 20
7.7663446351
 30
0.0
 10
9.370050405
 20
7.7608035503
 30
0.0
 10
9.3696791192
 20
7.7571094937
 30
0.0
  0
SPLINE
  5
3BC
100
AcDbEntity
  8
0
100
AcDbSpline
 62
4
  6
CONTINUOUS
 70
0
 71
3
 72
313
 73
309
 74
0
 42
0.0000001
 43
0.0000001
 44
0.0000000001
 40
0.0
 40
0.0
 40
0.0
 40
0.0
 40
0.015625
 40
0.0234375
 40
0.03125
 40
0.0390625
 40
0.046875
 40
0.05078125
 40
0.0546875
 40
0.056640625
 40
0.05859375
 40
0.060546875
 40
0.0615234375
 40
0.0620117188
 40
0.0625
 40
0.0629882812
 40
0.0634765625
 40
0.064453125
 40
0.06640625
 40
0.068359375
 40
0.0703125
 40
0.07421875
 40
0.078125
 40
0.0859375
 40
0.09375
 40
0.1015625
 40
0.109375
 40
0.11328125
 40
0.1171875
 40
0.119140625
 40
0.12109375
 40
0.123046875
 40
0.1240234375
 40
0.1245117188
 40
0.125
 40
0.1254882812
 40
0.1259765625
 40
0.126953125
 40
0.12890625
 40
0.130859375
 40
0.1328125
 40
0.13671875
 40
0.140625
 40
0.1484375
 40
0.15625
 40
0.1640625
 40
0.171875
 40
0.17578125
 40
0.1796875
 40
0.181640625
 40
0.18359375
 40
0.185546875
 40
0.1865234375
 40
0.1870117188
 40
0.1875
 40
0.1879882812
 40
0.1884765625
 40
0.189453125
 40
0.19140625
 40
0.193359375
 40
0.1953125
 40
0.19921875
 40
0.203125
 40
0.2109375
 40
0.21875
 40
0.2265625
 40
0.234375
 40
0.23828125
 40
0.2421875
 40
0.244140625
 40
0.24609375
 40
0.248046875
 40
0.2490234375
 40
0.2495117188
 40
0.25
 40
0.2504882812
 40
0.2509765625
 40
0.251953125
 40
0.25390625
 40
0.255859375
 40
0.2578125
 40
0.26171875
 40
0.265625
 40
0.2734375
 40
0.28125
 40
0.2890625
 40
0.296875
 40
0.30078125
 40
0.3046875
 40
0.306640625
 40
0.30859375
 40
0.310546875
 40
0.3115234375
 40
0.3120117188
 40
0.3125
 40
0.3129882812
 40
0.3134765625
 40
0.314453125
 40
0.31640625
 40
0.318359375
 40
0.3203125
 40
0.32421875
 40
0.328125
 40
0.3359375
 40
0.34375
 40
0.3515625
 40
0.359375
 40
0.36328125
 40
0.3671875
 40
0.369140625
 40
0.37109375
 40
0.373046875
 40
0.3740234375
 40
0.3745117188
 40
0.375
 40
0.3754882812
 40
0.3759765625
 40
0.376953125
 40
0.37890625
 40
0.380859375
 40
0.3828125
 40
0.38671875
 40
0.390625
 40
0.3984375
 40
0.40625
 40
0.4140625
 40
0.421875
 40
0.42578125
 40
0.4296875
 40
0.431640625
 40
0.43359375
 40
0.435546875
 40
0.4365234375
 40
0.4370117188
 40
0.4375
 40
0.4379882812
 40
0.4384765625
 40
0.439453125
 40
0.44140625
 40
0.443359375
 40
0.4453125
 40
0.44921875
 40
0.453125
 40
0.4609375
 40
0.46875
 40
0.4765625
 40
0.484375
 40
0.48828125
 40
0.4921875
 40
0.494140625
 40
0.49609375
 40
0.498046875
 40
0.4990234375
 40
0.4995117188
 40
0.5
 40
0.5004882812
 40
0.5009765625
 40
0.501953125
 40
0.50390625
 40
0.505859375
 40
0.5078125
 40
0.51171875
 40
0.515625
 40
0.5234375
 40
0.53125
 40
0.5390625
 40
0.546875
 40
0.55078125
 40
0.5546875
 40
0.556640625
 40
0.55859375
 40
0.560546875
 40
0.5615234375
 40
0.5620117188
 40
0.5625
 40
0.5629882812
 40
0.5634765625
 40
0.564453125
 40
0.56640625
 40
0.568359375
 40
0.5703125
 40
0.57421875
 40
0.578125
 40
0.5859375
 40
0.59375
 40
0.6015625
 40
0.609375
 40
0.61328125
 40
0.6171875
 40
0.619140625
 40
0.62109375
 40
0.623046875
 40
0.6240234375
 40
0.6245117188
 40
0.625
 40
0.6254882812
 40
0.6259765625
 40
0.626953125
 40
0.62890625
 40
0.630859375
 40
0.6328125
 40
0.63671875
 40
0.640625
 40
0.6484375
 40
0.65625
 40
0.6640625
 40
0.671875
 40
0.67578125
 40
0.6796875
 40
0.681640625
 40
0.68359375
 40
0.685546875
 40
0.6865234375
 40
0.6870117188
 40
0.6875
 40
0.6879882812
 40
0.6884765625
 40
0.689453125
 40
0.69140625
 40
0.693359375
 40
0.6953125
 40
0.69921875
 40
0.703125
 40
0.7109375
 40
0.71875
 40
0.7265625
 40
0.734375
 40
0.73828125
 40
0.7421875
 40
0.744140625
 40
0.74609375
 40
0.748046875
 40
0.7490234375
 40
0.7495117188
 40
0.75
 40
0.7504882812
 40
0.7509765625
 40
0.751953125
 40
0.75390625
 40
0.755859375
 40
0.7578125
 40
0.76171875
 40
0.765625
 40
0.7734375
 40
0.78125
 40
0.7890625
 40
0.796875
 40
0.80078125
 40
0.8046875
 40
0.806640625
 40
0.80859375
 40
0.810546875
 40
0.8115234375
 40
0.8120117188
 40
0.8125
 40
0.8129882812
 40
0.8134765625
 40
0.814453125
 40
0.81640625
 40
0.818359375
 40
0.8203125
 40
0.82421875
 40
0.828125
 40
0.8359375
 40
0.84375
 40
0.8515625
 40
0.859375
 40
0.86328125
 40
0.8671875
 40
0.869140625
 40
0.87109375
 40
0.873046875
 40
0.8740234375
 40
0.8745117188
 40
0.875
 40
0.8754882812
 40
0.8759765625
 40
0.876953125
 40
0.87890625
 40
0.880859375
 40
0.8828125
 40
0.88671875
 40
0.890625
 40
0.8984375
 40
0.90625
 40
0.9140625
 40
0.921875
 40
0.92578125
 40
0.9296875
 40
0.931640625
 40
0.93359375
 40
0.935546875
 40
0.9365234375
 40
0.9370117188
 40
0.9375
 40
0.9379882812
 40
0.9384765625
 40
0.939453125
 40
0.94140625
 40
0.943359375
 40
0.9453125
 40
0.94921875
 40
0.953125
 40
0.9609375
 40
0.96875
 40
0.9765625
 40
0.984375
 40
1.0
 40
1.0
 40
1.0
 40
1.0
 10
9.3696791192
 20
7.7571095135
 30
0.0
 10
9.3700375328
 20
7.7534292726
 30
0.0
 10
9.370575153
 20
7.7479089112
 30
0.0
 10
9.3712919809
 20
7.7405484295
 30
0.0
 10
9.3718295991
 20
7.7350280678
 30
0.0
 10
9.3723672281
 20
7.7295077076
 30
0.0
 10
9.3728152184
 20
7.724907403
 30
0.0
 10
9.3731736865
 20
7.7212271691
 30
0.0
 10
9.3733975563
 20
7.7189270007
 30
0.0
 10
9.3735770479
 20
7.7170869169
 30
0.0
 10
9.3737105828
 20
7.7157067146
 30
0.0
 10
9.3738253097
 20
7.7145569896
 30
0.0
 10
9.3738988523
 20
7.7137513116
 30
0.0
 10
9.3739514416
 20
7.7132922834
 30
0.0
 10
9.3739611218
 20
7.7129441832
 30
0.0
 10
9.3740845669
 20
7.7126107195
 30
0.0
 10
9.3742094779
 20
7.7121609959
 30
0.0
 10
9.3744465609
 20
7.7113763582
 30
0.0
 10
9.3747755848
 20
7.7102542036
 30
0.0
 10
9.3751745508
 20
7.7089081503
 30
0.0
 10
9.3757050605
 20
7.7071132268
 30
0.0
 10
9.3763686924
 20
7.704869636
 30
0.0
 10
9.3774302268
 20
7.7012798552
 30
0.0
 10
9.3787572403
 20
7.6967926415
 30
0.0
 10
9.380349613
 20
7.691407979
 30
0.0
 10
9.3819420069
 20
7.6860233213
 30
0.0
 10
9.3832689674
 20
7.6815360954
 30
0.0
 10
9.3843306078
 20
7.6779463392
 30
0.0
 10
9.3849939701
 20
7.6757026857
 30
0.0
 10
9.3855250331
 20
7.6739078908
 30
0.0
 10
9.3859223088
 20
7.6725614445
 30
0.0
 10
9.3862566215
 20
7.6714405199
 30
0.0
 10
9.3864842631
 20
7.6706536864
 30
0.0
 10
9.3866243015
 20
7.6702074809
 30
0.0
 10
9.3867012799
 20
7.6698632106
 30
0.0
 10
9.3868854813
 20
7.6695556984
 30
0.0
 10
9.3870936826
 20
7.6691328605
 30
0.0
 10
9.3874754605
 20
7.668398868
 30
0.0
 10
9.3880117471
 20
7.6673471841
 30
0.0
 10
9.3886591906
 20
7.6660865003
 30
0.0
 10
9.3895210865
 20
7.6644051216
 30
0.0
 10
9.3905989227
 20
7.6623035581
 30
0.0
 10
9.3923232001
 20
7.6589409671
 30
0.0
 10
9.3944786367
 20
7.6547377593
 30
0.0
 10
9.3970651196
 20
7.6496938955
 30
0.0
 10
9.3996516228
 20
7.64465004
 30
0.0
 10
9.4018070088
 20
7.6404468115
 30
0.0
 10
9.4035313875
 20
7.6370842619
 30
0.0
 10
9.404608966
 20
7.6349825932
 30
0.0
 10
9.405471391
 20
7.6333014303
 30
0.0
 10
9.406117218
 20
7.6320400872
 30
0.0
 10
9.4066585621
 20
7.630990466
 30
0.0
 10
9.4070313116
 20
7.6302527912
 30
0.0
 10
9.4072539786
 20
7.6298358533
 30
0.0
 10
9.4073937457
 20
7.6295102183
 30
0.0
 10
9.4076376119
 20
7.6292340144
 30
0.0
 10
9.4079264559
 20
7.6288485004
 30
0.0
 10
9.4084488508
 20
7.6281818844
 30
0.0
 10
9.4091862844
 20
7.6272253759
 30
0.0
 10
9.4100749905
 20
7.6260793633
 30
0.0
 10
9.4112586097
 20
7.6245507187
 30
0.0
 10
9.4127385865
 20
7.6226401279
 30
0.0
 10
9.4151062963
 20
7.6195830624
 30
0.0
 10
9.4180660207
 20
7.6157617723
 30
0.0
 10
9.4216176509
 20
7.6111762042
 30
0.0
 10
9.4251692983
 20
7.606590649
 30
0.0
 10
9.4281289795
 20
7.6027693265
 30
0.0
 10
9.4304967757
 20
7.5997123258
 30
0.0
 10
9.4319765327
 20
7.5978015703
 30
0.0
 10
9.4331606031
 20
7.5962732637
 30
0.0
 10
9.4340479308
 20
7.5951262185
 30
0.0
 10
9.4347896772
 20
7.5941729409
 30
0.0
 10
9.435304373
 20
7.5935005572
 30
0.0
 10
9.4356055529
 20
7.5931242845
 30
0.0
 10
9.4358115271
 20
7.5928196943
 30
0.0
 10
9.4360936101
 20
7.5926006738
 30
0.0
 10
9.4364431732
 20
7.5922787988
 30
0.0
 10
9.4370672776
 20
7.5917294241
 30
0.0
 10
9.4379523886
 20
7.5909373326
 30
0.0
 10
9.4390172898
 20
7.5899899349
 30
0.0
 10
9.4404361913
 20
7.5887256509
 30
0.0
 10
9.4422101492
 20
7.5871456682
 30
0.0
 10
9.4450482968
 20
7.5846174876
 30
0.0
 10
9.4485960452
 20
7.5814573339
 30
0.0
 10
9.4528533143
 20
7.5776651164
 30
0.0
 10
9.4571105968
 20
7.5738729159
 30
0.0
 10
9.4606583114
 20
7.5707127196
 30
0.0
 10
9.4634965265
 20
7.5681846243
 30
0.0
 10
9.4652703129
 20
7.566604425
 30
0.0
 10
9.4666895664
 20
7.5653405854
 30
0.0
 10
9.467753392
 20
7.5643918301
 30
0.0
 10
9.4686418685
 20
7.5636039859
 30
0.0
 10
9.469259965
 20
7.5630470292
 30
0.0
 10
9.4696191543
 20
7.5627373025
 30
0.0
 10
9.4698716685
 20
7.5624809662
 30
0.0
 10
9.4701886983
 20
7.5623165281
 30
0.0
 10
9.470588901
 20
7.5620652221
 30
0.0
 10
9.4712997406
 20
7.5616403716
 30
0.0
 10
9.472309744
 20
7.5610256342
 30
0.0
 10
9.4735240945
 20
7.5602912915
 30
0.0
 10
9.475142409
 20
7.5593110005
 30
0.0
 10
9.4771655826
 20
7.5580860365
 30
0.0
 10
9.4804025036
 20
7.5561258706
 30
0.0
 10
9.4844487089
 20
7.5536757405
 30
0.0
 10
9.4893041311
 20
7.5507355487
 30
0.0
 10
9.4941595637
 20
7.5477953758
 30
0.0
 10
9.4982057428
 20
7.5453451986
 30
0.0
 10
9.5014427162
 20
7.5433851268
 30
0.0
 10
9.5034657568
 20
7.5421599238
 30
0.0
 10
9.5050843444
 20
7.5411801232
 30
0.0
 10
9.5062978604
 20
7.5404442822
 30
0.0
 10
9.5073104745
 20
7.5398342326
 30
0.0
 10
9.5080166537
 20
7.5394010137
 30
0.0
 10
9.5084243235
 20
7.5391631161
 30
0.0
 10
9.5087184165
 20
7.5389574916
 30
0.0
 10
9.5090570776
 20
7.5388558443
 30
0.0
 10
9.5094930799
 20
7.5386840462
 30
0.0
 10
9.5102633271
 20
7.5384002977
 30
0.0
 10
9.5113598934
 20
7.5379861081
 30
0.0
 10
9.5126773938
 20
7.5374928621
 30
0.0
 10
9.5144334948
 20
7.5368338799
 30
0.0
 10
9.516628815
 20
7.5360106044
 30
0.0
 10
9.5201412189
 20
7.5346931108
 30
0.0
 10
9.5245317612
 20
7.5330463311
 30
0.0
 10
9.5298003951
 20
7.5310701555
 30
0.0
 10
9.5350690365
 20
7.5290940004
 30
0.0
 10
9.53945956
 20
7.5274471691
 30
0.0
 10
9.5429720014
 20
7.5261297789
 30
0.0
 10
9.5451672263
 20
7.5253062407
 30
0.0
 10
9.546923523
 20
7.5246477976
 30
0.0
 10
9.5482404258
 20
7.5241529046
 30
0.0
 10
9.5493388617
 20
7.5237438681
 30
0.0
 10
9.5501057713
 20
7.5234509204
 30
0.0
 10
9.5505471212
 20
7.5232938616
 30
0.0
 10
9.5508693563
 20
7.52314694
 30
0.0
 10
9.5512251426
 20
7.5231113586
 30
0.0
 10
9.5516878214
 20
7.5230250801
 30
0.0
 10
9.5525029619
 20
7.5228921874
 30
0.0
 10
9.5536645975
 20
7.5226928805
 30
0.0
 10
9.5550597805
 20
7.5224577616
 30
0.0
 10
9.5569195983
 20
7.5221428553
 30
0.0
 10
9.5592445165
 20
7.5217497067
 30
0.0
 10
9.5629643041
 20
7.5211203983
 30
0.0
 10
9.5676140665
 20
7.5203338563
 30
0.0
 10
9.5731937696
 20
7.5193899629
 30
0.0
 10
9.5787734749
 20
7.5184460916
 30
0.0
 10
9.5834232317
 20
7.5176594944
 30
0.0
 10
9.5871430304
 20
7.5170302963
 30
0.0
 10
9.5894679204
 20
7.5166368671
 30
0.0
 10
9.5913277961
 20
7.5163225369
 30
0.0
 10
9.5927228022
 20
7.5160856577
 30
0.0
 10
9.5938849914
 20
7.5158918582
 30
0.0
 10
9.5946991437
 20
7.515749134
 30
0.0
 10
9.5951634057
 20
7.515678608
 30
0.0
 10
9.5955143287
 20
7.5155946399
 30
0.0
 10
9.5958548296
 20
7.5156294509
 30
0.0
 10
9.5963124662
 20
7.515634434
 30
0.0
 10
9.5971116363
 20
7.5156624581
 30
0.0
 10
9.5982541935
 20
7.5156924003
 30
0.0
 10
9.5996248831
 20
7.5157326508
 30
0.0
 10
9.6014526016
 20
7.5157848094
 30
0.0
 10
9.6037372044
 20
7.5158505241
 30
0.0
 10
9.6073925943
 20
7.5159553789
 30
0.0
 10
9.6119618228
 20
7.5160865472
 30
0.0
 10
9.6174449013
 20
7.5162439036
 30
0.0
 10
9.6229279766
 20
7.5164012825
 30
0.0
 10
9.627497213
 20
7.5165323945
 30
0.0
 10
9.631152587
 20
7.5166373617
 30
0.0
 10
9.63343723
 20
7.5167027909
 30
0.0
 10
9.635264866
 20
7.5167555356
 30
0.0
 10
9.6366358077
 20
7.5167939954
 30
0.0
 10
9.6377775763
 20
7.5168295404
 30
0.0
 10
9.6385781541
 20
7.5168475626
 30
0.0
 10
9.6390335352
 20
7.5168685712
 30
0.0
 10
9.6393809641
 20
7.5168541571
 30
0.0
 10
9.6397058669
 20
7.5169550701
 30
0.0
 10
9.6401469279
 20
7.5170493934
 30
0.0
 10
9.6409151238
 20
7.5172332018
 30
0.0
 10
9.6420144606
 20
7.5174859865
 30
0.0
 10
9.6433328454
 20
7.5177935222
 30
0.0
 10
9.645090978
 20
7.518202105
 30
0.0
 10
9.6472885457
 20
7.518713335
 30
0.0
 10
9.6508047089
 20
7.5195310227
 30
0.0
 10
9.6551998938
 20
7.5205532291
 30
0.0
 10
9.660474125
 20
7.5217798326
 30
0.0
 10
9.6657483497
 20
7.5230064578
 30
0.0
 10
9.6701435507
 20
7.52402861
 30
0.0
 10
9.6736596818
 20
7.524846406
 30
0.0
 10
9.675857331
 20
7.5253573608
 30
0.0
 10
9.6776152965
 20
7.5257665084
 30
0.0
 10
9.6789341917
 20
7.5260723184
 30
0.0
 10
9.6800319316
 20
7.5263305026
 30
0.0
 10
9.6808029781
 20
7.526504672
 30
0.0
 10
9.6812394719
 20
7.5266144395
 30
0.0
 10
9.6815784038
 20
7.5266679129
 30
0.0
 10
9.6818731415
 20
7.5268316741
 30
0.0
 10
9.6822815406
 20
7.5270115528
 30
0.0
 10
9.6829890567
 20
7.5273442643
 30
0.0
 10
9.684003549
 20
7.5278101956
 30
0.0
 10
9.6852193325
 20
7.5283733242
 30
0.0
 10
9.6868409385
 20
7.5291227614
 30
0.0
 10
9.6888677538
 20
7.5300600375
 30
0.0
 10
9.6921107658
 20
7.5315594112
 30
0.0
 10
9.6961644935
 20
7.5334337209
 30
0.0
 10
9.7010289841
 20
7.5356828502
 30
0.0
 10
9.7058934651
 20
7.5379320005
 30
0.0
 10
9.709947217
 20
7.5398062578
 30
0.0
 10
9.7131901806
 20
7.5413057363
 30
0.0
 10
9.7152171189
 20
7.5422427461
 30
0.0
 10
9.7168384724
 20
7.5429927299
 30
0.0
 10
9.7180550273
 20
7.5435541885
 30
0.0
 10
9.7190671061
 20
7.5440253447
 30
0.0
 10
9.7197789306
 20
7.5443487289
 30
0.0
 10
9.7201804265
 20
7.5445435522
 30
0.0
 10
9.7204963687
 20
7.5446614086
 30
0.0
 10
9.7207556604
 20
7.5448872929
 30
0.0
 10
9.721121143
 20
7.5451507905
 30
0.0
 10
9.7217515308
 20
7.5456294679
 30
0.0
 10
9.7226568981
 20
7.546304114
 30
0.0
 10
9.7237412787
 20
7.5471176181
 30
0.0
 10
9.7251878391
 20
7.548200918
 30
0.0
 10
9.7269957931
 20
7.5495555128
 30
0.0
 10
9.7298886574
 20
7.5517226017
 30
0.0
 10
9.7335046899
 20
7.5544315535
 30
0.0
 10
9.7378439516
 20
7.5576822548
 30
0.0
 10
9.7421831992
 20
7.5609329743
 30
0.0
 10
9.7457992671
 20
7.5636418804
 30
0.0
 10
9.7486920606
 20
7.5658090607
 30
0.0
 10
9.7505001946
 20
7.5671634232
 30
0.0
 10
9.7519463856
 20
7.5682471999
 30
0.0
 10
9.7530318944
 20
7.5690592473
 30
0.0
 10
9.7539337318
 20
7.569738451
 30
0.0
 10
9.7545704213
 20
7.5702089923
 30
0.0
 10
9.754925807
 20
7.5704855261
 30
0.0
 10
9.7552161129
 20
7.5706713675
 30
0.0
 10
9.7554155708
 20
7.5709396181
 30
0.0
 10
9.7557132036
 20
7.5712685403
 30
0.0
 10
9.7562192964
 20
7.571857547
 30
0.0
 10
9.7569500053
 20
7.5726919832
 30
0.0
 10
9.7578235519
 20
7.5736963038
 30
0.0
 10
9.7589894347
 20
7.575034351
 30
0.0
 10
9.760446393
 20
7.5767072685
 30
0.0
 10
9.7627777474
 20
7.5793837361
 30
0.0
 10
9.7656918639
 20
7.5827293898
 30
0.0
 10
9.7691888388
 20
7.5867441429
 30
0.0
 10
9.7726857957
 20
7.5907589107
 30
0.0
 10
9.7755999572
 20
7.5941045275
 30
0.0
 10
9.7779312217
 20
7.5967810688
 30
0.0
 10
9.7793884084
 20
7.5984537989
 30
0.0
 10
9.7805538225
 20
7.5997922308
 30
0.0
 10
9.7814288012
 20
7.6007953763
 30
0.0
 10
9.7821550293
 20
7.6016334888
 30
0.0
 10
9.7826691209
 20
7.6022159328
 30
0.0
 10
9.7829539377
 20
7.6025553701
 30
0.0
 10
9.7831927621
 20
7.6027913217
 30
0.0
 10
9.7833352142
 20
7.6030984725
 30
0.0
 10
9.783558766
 20
7.6034831718
 30
0.0
 10
9.7839343196
 20
7.6041679666
 30
0.0
 10
9.784479013
 20
7.6051401955
 30
0.0
 10
9.7851291402
 20
7.6063094595
 30
0.0
 10
9.7859972007
 20
7.6078675737
 30
0.0
 10
9.7870818572
 20
7.6098155262
 30
0.0
 10
9.7888175418
 20
7.612932077
 30
0.0
 10
9.7909870667
 20
7.6168278253
 30
0.0
 10
9.7935905337
 20
7.6215026964
 30
0.0
 10
9.7961939813
 20
7.6261775793
 30
0.0
 10
9.7983635549
 20
7.630073298
 30
0.0
 10
9.800099142
 20
7.633189908
 30
0.0
 10
9.8011840466
 20
7.6351377102
 30
0.0
 10
9.8020515977
 20
7.6366961329
 30
0.0
 10
9.8027032811
 20
7.6378644546
 30
0.0
 10
9.8032431057
 20
7.6388396317
 30
0.0
 10
9.8036273509
 20
7.6395191633
 30
0.0
 10
9.8038369765
 20
7.6399122956
 30
0.0
 10
9.8040222056
 20
7.6401935429
 30
0.0
 10
9.8041003666
 20
7.6405267836
 30
0.0
 10
9.8042419279
 20
7.6409529686
 30
0.0
 10
9.8044722596
 20
7.6417072421
 30
0.0
 10
9.804810402
 20
7.6427803582
 30
0.0
 10
9.8052122791
 20
7.6440699883
 30
0.0
 10
9.8057494753
 20
7.6457888347
 30
0.0
 10
9.8064205048
 20
7.6479376188
 30
0.0
 10
9.8074944124
 20
7.651375547
 30
0.0
 10
9.8088367069
 20
7.6556730008
 30
0.0
 10
9.8104475016
 20
7.6608299257
 30
0.0
 10
9.812058275
 20
7.6659868596
 30
0.0
 10
9.8134006225
 20
7.670284291
 30
0.0
 10
9.8144744241
 20
7.673722264
 30
0.0
 10
9.8151457229
 20
7.6758709342
 30
0.0
 10
9.8156823664
 20
7.6775900145
 30
0.0
 10
9.8160859319
 20
7.67887893
 30
0.0
 10
9.8164187917
 20
7.679954282
 30
0.0
 10
9.816658554
 20
7.680704564
 30
0.0
 10
9.816785005
 20
7.6811371445
 30
0.0
 10
9.8169095796
 20
7.6814507402
 30
0.0
 10
9.8169204871
 20
7.6818057704
 30
0.0
 10
9.8169746788
 20
7.6822646911
 30
0.0
 10
9.8170510413
 20
7.6830745362
 30
0.0
 10
9.8171697884
 20
7.6842279372
 30
0.0
 10
9.8173081511
 20
7.6856135253
 30
0.0
 10
9.8174940786
 20
7.6874604499
 30
0.0
 10
9.8177259935
 20
7.6897692857
 30
0.0
 10
9.8180973338
 20
7.6934633224
 30
0.0
 10
9.8185614143
 20
7.6980809028
 30
0.0
 10
9.8191183515
 20
7.7036219844
 30
0.0
 10
9.8196752778
 20
7.70916307
 30
0.0
 10
9.8204178501
 20
7.7165511828
 30
0.0
 10
9.8209747785
 20
7.7220922677
 30
0.0
 10
9.8213460643
 20
7.7257863242
 30
0.0
  0
ENDSEC
  0
SECTION
  2
OBJECTS
  0
DICTIONARY
  5
C
100
AcDbDictionary
280
0
281
1
  3
ACAD_GROUP
350
D
  3
ACAD_MLINESTYLE
350
17
  3
ACAD_LAYOUT
350
1A
  3
ACAD_PLOTSETTINGS
350
19
  3
ACAD_PLOTSTYLENAME
350
E
  3
ACAD_IMAGE_DICT
350
       3BE
  3
ACAD_IMAGE_VARS
350
       3BF
  3
ACAD_TABLESTYLE
350
       3C0
  0
IMAGEDEF_REACTOR
  5
3BD
100
AcDbRasterImageDefReactor
 90
2
330
287
  0
DICTIONARY
  5
D
102
{ACAD_REACTORS
330
C
102
}
100
AcDbDictionary
280
0
281
1
  0
ACDBDICTIONARYWDFLT
  5
E
102
{ACAD_REACTORS
330
C
102
}
100
AcDbDictionary
281
1
  3
Normal
350
F
100
AcDbDictionaryWithDefault
340
F
  0
DICTIONARY
  5
3BE
330
C
100
AcDbDictionary
281
1
  3
H4L_assy_2_img_1
350
       3C3
  0
RASTERVARIABLES
  5
3BF
330
C
100
AcDbRasterVariables
 90
0
 70
0
 71
1
 72
5
  0
DICTIONARY
  5
17
102
{ACAD_REACTORS
330
C
102
}
100
AcDbDictionary
280
0
281
1
  3
Standard
350
18
  0
DICTIONARY
  5
3C0
330
C
100
AcDbDictionary
281
1
  3
Standard
350
       3C4
  3
Standard1
350
       3C5
  0
DICTIONARY
  5
19
102
{ACAD_REACTORS
330
C
102
}
100
AcDbDictionary
281
1
  0
DICTIONARY
  5
1A
102
{ACAD_REACTORS
330
C
102
}
100
AcDbDictionary
281
1
  3
Model
350
3C1
  3
Layout1
350
3C2
  0
ACDBPLACEHOLDER
  5
F
102
{ACAD_REACTORS
330
E
102
}
  0
MLINESTYLE
  5
18
102
{ACAD_REACTORS
330
17
102
}
100
AcDbMlineStyle
  2
STANDARD
 70
0
  3

 62
256
 51
90.0
 52
90.0
 71
2
 49
0.5
 62
256
  6
BYLAYER
 49
-0.5
 62
256
  6
BYLAYER
  0
LAYOUT
  5
3C1
102
{ACAD_REACTORS
330
1A
102
}
100
AcDbPlotSettings
  1

  2
none_device
  4
ANSI_C_(22.00_x_17.00_Inches)
  6

 40
0.0
 41
0.0
 42
0.0
 43
0.0
 44
558.8
 45
431.8
 46
0.0
 47
0.0
 48
0.0
 49
0.0
140
0.0
141
0.0
142
1.0
143
1.0
 70
1024
 72
0
 73
0
 74
0
  7

 75
0
147
1.0
148
0.0
149
0.0
100
AcDbLayout
  1
Model
 70
0
 71
0
 10
0.0
 20
0.0
 11
22.0
 21
17.0
 12
0.0
 22
0.0
 32
0.0
 14
0.0
 24
0.0
 34
0.0
 15
0.0
 25
0.0
 35
0.0
146
0.0
 13
0.0
 23
0.0
 33
0.0
 16
1.0
 26
0.0
 36
0.0
 17
0.0
 27
1.0
 37
0.0
 76
0
330
204
345
0
346
0
  0
LAYOUT
  5
3C2
102
{ACAD_REACTORS
330
1A
102
}
100
AcDbPlotSettings
  1

  2
none_device
  4
ANSI_C_(22.00_x_17.00_Inches)
  6

 40
0.0
 41
0.0
 42
0.0
 43
0.0
 44
558.8
 45
431.8
 46
0.0
 47
0.0
 48
0.0
 49
0.0
140
0.0
141
0.0
142
1.0
143
1.0
 70
0
 72
0
 73
0
 74
0
  7

 75
0
147
1.0
148
0.0
149
0.0
100
AcDbLayout
  1
Layout1
 70
0
 71
1
 10
0.0
 20
0.0
 11
22.0
 21
17.0
 12
0.0
 22
0.0
 32
0.0
 14
0.0
 24
0.0
 34
0.0
 15
0.0
 25
0.0
 35
0.0
146
0.0
 13
0.0
 23
0.0
 33
0.0
 16
1.0
 26
0.0
 36
0.0
 17
0.0
 27
1.0
 37
0.0
 76
0
330
205
345
0
346
0
  0
IMAGEDEF
  5
3C3
102
{ACAD_REACTORS
330
3BE
330
3BD
102
}
100
AcDbRasterImageDef
 90
0
  1
H4L_assy_2_img_1.png
 10
369.0
 20
92.0
 11
0.0066666667
 21
0.0066666667
280
1
281
0
  0
TABLESTYLE
  5
3C4
102
{ACAD_REACTORS
330
3C0
330
28A
330
28B
102
}
330
3C0
100
AcDbTableStyle
  3
Standard
 70
0
 71
0
 40
0.06
 41
0.06
280
1
281
1
  7
Standard
140
0.18
170
1
 62
0
 63
7
283
0
  7
Standard
140
0.18
170
1
 62
0
 63
7
283
0
  7
Standard
140
0.18
170
1
 62
0
 63
7
283
0
  0
TABLESTYLE
  5
3C5
102
{ACAD_REACTORS
330
3C0
330
289
102
}
330
3C0
100
AcDbTableStyle
  3
Standard1
 70
1
 71
0
 40
0.06
 41
0.06
280
1
281
1
  7
Standard
140
0.18
170
1
 62
0
 63
7
283
0
  7
Standard
140
0.18
170
1
 62
0
 63
7
283
0
  7
Standard
140
0.18
170
1
 62
0
 63
7
283
0
  0
ENDSEC
  0
EOF
