999
DXF file: H3X_assy_2.dxf
999
Pro/ENGINEER 2014200 by Parametric Technology Corporation
  0
SECTION
  2
HEADER
  9
$ACADVER
  1
AC1021
  9
$DWGCODEPAGE
  3
ANSI_1252
  9
$EXTMAX
 10
22.0
 20
17.0
 30
0.0
  9
$EXTMIN
 10
0.0
 20
0.0
 30
0.0
  9
$LIMMIN
 10
0.0
 20
0.0
  9
$LIMMAX
 10
22.0
 20
17.0
  9
$VIEWCTR
 10
11.0
 20
8.5
  9
$VIEWSIZE
 40
17.0
  9
$CLAYER
  8
0
  9
$LTSCALE
 40
1.21
  9
$CELTYPE
  6
BYLAYER
  9
$DIMSCALE
 40
1.0
  9
$DIMASZ
 40
0.1875
  9
$DIMEXO
 40
0.0625
  9
$DIMDLI
 40
0.836
  9
$DIMEXE
 40
0.125
  9
$DIMCEN
 40
0.198
  9
$DIMLFAC
 40
1.0
  9
$DIMBLK
  1
_FILLED
  9
$DIMTXT
 40
0.1
  9
$DIMTOL
 70
0
  9
$DIMLIM
 70
0
  9
$DIMTFAC
 40
1.0
  9
$DIMGAP
 40
0.09
  9
$DIMDSEP
 70
46
  9
$AUNITS
 70
0
  9
$PDMODE
 70
3
  9
$PDSIZE
 40
0.3125
  9
$HANDSEED
  5
3A3
  9
$TILEMODE
 70
1
  9
$MEASUREMENT
 70
0
  9
$INSUNITS
 70
1
  0
ENDSEC
  0
SECTION
  2
CLASSES
  0
CLASS
  1
ACDBDICTIONARYWDFLT
  2
AcDbDictionaryWithDefault
  3
AutoCAD 2000
 90
0
 91
1
280
0
281
0
  0
CLASS
  1
ACDBPLACEHOLDER
  2
AcDbPlaceHolder
  3
AutoCAD 2000
 90
0
 91
1
280
0
281
0
  0
CLASS
  1
LAYOUT
  2
AcDbLayout
  3
AutoCAD 2000
 90
0
 91
0
280
0
281
0
  0
CLASS
  1
RASTERVARIABLES
  2
AcDbRasterVariables
  3
ISM
 90
0
 91
1
280
0
281
0
  0
CLASS
  1
IMAGEDEF
  2
AcDbRasterImageDef
  3
ISM
 90
0
 91
1
280
0
281
0
  0
CLASS
  1
IMAGEDEF_REACTOR
  2
AcDbRasterImageDefReactor
  3
ISM
 90
0
 91
1
280
0
281
0
  0
CLASS
  1
IMAGE
  2
AcDbRasterImage
  3
ISM
 90
127
 91
1
280
0
281
1
  0
CLASS
  1
TABLESTYLE
  2
AcDbTableStyle
  3
ObjectDBX Classes
 90
2047
 91
1
280
0
281
0
  0
CLASS
  1
ACAD_TABLE
  2
AcDbTable
  3
ObjectDBX Classes
 90
1025
 91
3
280
0
281
1
  0
ENDSEC
  0
SECTION
  2
TABLES
  0
TABLE
  2
VPORT
  5
8
100
AcDbSymbolTable
 70
2
  0
VPORT
  5
1F4
100
AcDbSymbolTableRecord
100
AcDbViewportTableRecord
  2
*ACTIVE
 70
0
 10
0.0
 20
0.0
 11
1.0
 21
1.0
 12
11.0
 22
8.5
 13
0.0
 23
0.0
 14
1.0
 24
1.0
 15
0.0
 25
0.0
 16
0.0
 26
0.0
 36
1.0
 17
0.0
 27
0.0
 37
0.0
 40
17.0
 41
1.2941176471
 42
50.0
 43
0.0
 44
0.0
 50
0.0
 51
0.0
 71
0
 72
100
 73
1
 74
1
 75
0
 76
0
 77
0
 78
0
  0
ENDTAB
  0
TABLE
  2
LTYPE
  5
5
100
AcDbSymbolTable
 70
6
  0
LTYPE
  5
14
100
AcDbSymbolTableRecord
100
AcDbLinetypeTableRecord
  2
BYBLOCK
 70
0
  3

 72
65
 73
0
 40
0.0
  0
LTYPE
  5
15
100
AcDbSymbolTableRecord
100
AcDbLinetypeTableRecord
  2
BYLAYER
 70
0
  3

 72
65
 73
0
 40
0.0
  0
LTYPE
  5
16
100
AcDbSymbolTableRecord
100
AcDbLinetypeTableRecord
  2
CONTINUOUS
 70
64
  3
Solid line
 72
65
 73
0
 40
0.0
  0
LTYPE
  5
1F5
100
AcDbSymbolTableRecord
100
AcDbLinetypeTableRecord
  2
CENTER
 70
64
  3
____ _ ____ _ ____ _ ____ _ ____ _ ____ _ ____
 72
65
 73
4
 40
0.6
 49
0.375
 74
0
 49
-0.075
 74
0
 49
0.075
 74
0
 49
-0.075
 74
0
  0
LTYPE
  5
1F6
100
AcDbSymbolTableRecord
100
AcDbLinetypeTableRecord
  2
HIDDEN
 70
64
  3
- - - - - - - - - - - - - - - - - - - -
 72
65
 73
2
 40
0.2
 49
0.1
 74
0
 49
-0.1
 74
0
  0
LTYPE
  5
1F7
100
AcDbSymbolTableRecord
100
AcDbLinetypeTableRecord
  2
PHANTOM
 70
64
  3
_____ _ _ _____ _ _ _____ _ _ _____
 72
65
 73
6
 40
0.8
 49
0.45
 74
0
 49
-0.05
 74
0
 49
0.1
 74
0
 49
-0.05
 74
0
 49
0.1
 74
0
 49
-0.05
 74
0
  0
LTYPE
  5
1F8
100
AcDbSymbolTableRecord
100
AcDbLinetypeTableRecord
  2
DOT
 70
64
  3
. . . . . . . . . . . . . . . . . . . .
 72
65
 73
2
 40
0.2
 49
0.1
 74
0
 49
-0.1
 74
0
  0
LTYPE
  5
1F9
100
AcDbSymbolTableRecord
100
AcDbLinetypeTableRecord
  2
DASHED
 70
64
  3
- - - - - - - - - - - - - - - - - - - -
 72
65
 73
2
 40
0.2
 49
0.1
 74
0
 49
-0.1
 74
0
  0
ENDTAB
  0
TABLE
  2
LAYER
  5
2
100
AcDbSymbolTable
 70
36
  0
LAYER
  5
10
100
AcDbSymbolTableRecord
100
AcDbLayerTableRecord
  2
0
 70
0
 62
7
  6
CONTINUOUS
370
-3
390
F
  0
LAYER
  5
1FA
100
AcDbSymbolTableRecord
100
AcDbLayerTableRecord
  2
DEFAULT_1
 70
0
 62
7
  6
CENTER
370
-3
390
F
  0
LAYER
  5
1FB
100
AcDbSymbolTableRecord
100
AcDbLayerTableRecord
  2
DEFAULT_2
 70
0
 62
8
  6
HIDDEN
370
-3
390
F
  0
LAYER
  5
1FC
100
AcDbSymbolTableRecord
100
AcDbLayerTableRecord
  2
DEFAULT_3
 70
0
 62
7
  6
PHANTOM
370
-3
390
F
  0
LAYER
  5
1FD
100
AcDbSymbolTableRecord
100
AcDbLayerTableRecord
  2
DATUM_PLANES
 70
0
 62
7
  6
CONTINUOUS
370
-3
390
F
  0
LAYER
  5
1FE
100
AcDbSymbolTableRecord
100
AcDbLayerTableRecord
  2
PORT_AREAS
 70
0
 62
7
  6
CONTINUOUS
370
-3
390
F
  0
LAYER
  5
1FF
100
AcDbSymbolTableRecord
100
AcDbLayerTableRecord
  2
SUNNBOMCOSMETIC
 70
0
 62
7
  6
CONTINUOUS
370
-3
390
F
  0
LAYER
  5
200
100
AcDbSymbolTableRecord
100
AcDbLayerTableRecord
  2
SUNNBOMSTAMPING
 70
0
 62
7
  6
CONTINUOUS
370
-3
390
F
  0
LAYER
  5
201
100
AcDbSymbolTableRecord
100
AcDbLayerTableRecord
  2
THREADS
 70
0
 62
7
  6
CONTINUOUS
370
-3
390
F
  0
ENDTAB
  0
TABLE
  2
STYLE
  5
3
100
AcDbSymbolTable
 70
1
  0
STYLE
  5
11
100
AcDbSymbolTableRecord
100
AcDbTextStyleTableRecord
  2
STANDARD
 70
0
 40
0.0
 41
0.8
 50
0.0
 71
0
 42
0.2
  3
txt
  4

  0
STYLE
  5
202
100
AcDbSymbolTableRecord
100
AcDbTextStyleTableRecord
  2
TEXTSTYLE_1
 70
0
 40
0.0
 41
0.8
 50
0.0
 71
0
 42
0.2
  3
gdt
  4

  0
ENDTAB
  0
TABLE
  2
VIEW
  5
6
100
AcDbSymbolTable
 70
0
  0
ENDTAB
  0
TABLE
  2
UCS
  5
7
100
AcDbSymbolTable
 70
0
  0
ENDTAB
  0
TABLE
  2
APPID
  5
9
100
AcDbSymbolTable
 70
1
  0
APPID
  5
203
100
AcDbSymbolTableRecord
100
AcDbRegAppTableRecord
  2
ACAD
 70
0
  0
ENDTAB
  0
TABLE
  2
BLOCK_RECORD
  5
1
100
AcDbSymbolTable
 70
0
  0
BLOCK_RECORD
  5
204
100
AcDbSymbolTableRecord
100
AcDbBlockTableRecord
  2
*Model_Space
  0
BLOCK_RECORD
  5
205
100
AcDbSymbolTableRecord
100
AcDbBlockTableRecord
  2
*Paper_Space
  0
BLOCK_RECORD
  5
206
100
AcDbSymbolTableRecord
100
AcDbBlockTableRecord
  2
SUN_FIRST_THIRD_ANGLE_BL0
  0
BLOCK_RECORD
  5
207
100
AcDbSymbolTableRecord
100
AcDbBlockTableRecord
  2
*T1
  0
BLOCK_RECORD
  5
208
100
AcDbSymbolTableRecord
100
AcDbBlockTableRecord
  2
*T2
  0
BLOCK_RECORD
  5
209
100
AcDbSymbolTableRecord
100
AcDbBlockTableRecord
  2
*T3
  0
ENDTAB
  0
TABLE
  2
DIMSTYLE
  5
A
100
AcDbSymbolTable
 70
1
100
AcDbDimStyleTable
 71
0
  0
DIMSTYLE
105
20A
100
AcDbSymbolTableRecord
100
AcDbDimStyleTableRecord
  2
STANDARD
 70
0
  3

  4

 40
1.0
 41
0.1875
 42
0.0625
 43
0.38
 44
0.125
 45
0.0
 46
0.0
 47
0.001
 48
0.001
140
0.1
141
0.09
142
0.0
143
25.4
144
1.0
145
0.0
146
1.0
147
0.09
 71
0.0
 72
0.0
 73
1
 74
1
 75
0
 76
0
 77
0
 78
4
170
0
171
2
172
0
173
0
174
0
175
0
176
0
177
0
178
0
270
2
271
3
272
3
273
2
274
2
275
0
280
0
281
0
282
0
283
1
284
4
285
0
286
0
287
3
288
0
340
11
278
46
  0
ENDTAB
  0
ENDSEC
  0
SECTION
  2
BLOCKS
  0
BLOCK
  5
20
100
AcDbEntity
  8
0
100
AcDbBlockBegin
  2
*Model_Space
 70
0
 10
0.0
 20
0.0
 30
0.0
  3
*Model_Space
  1

  0
ENDBLK
  5
21
100
AcDbEntity
  8
0
100
AcDbBlockEnd
  0
BLOCK
  5
1C
100
AcDbEntity
  8
0
100
AcDbBlockBegin
  2
*Paper_Space
 70
0
 10
0.0
 20
0.0
 30
0.0
  3
*Paper_Space
  1

  0
ENDBLK
  5
1D
100
AcDbEntity
  8
0
100
AcDbBlockEnd
  0
BLOCK
  5
20B
100
AcDbEntity
  8
0
100
AcDbBlockBegin
 62
2
  6
CONTINUOUS
  2
SUN_FIRST_THIRD_ANGLE_BL0
 70
64
 10
20.4816717061
 20
1.2289683772
  3
SUN_FIRST_THIRD_ANGLE_BL0
  1

  0
TEXT
  5
20C
100
AcDbEntity
  8
0
100
AcDbText
 62
2
  6
CONTINUOUS
 10
19.4750896608
 20
1.4136269581
  7
STANDARD
 40
0.08
  1
FIRST ANGLE
 41
0.8
 72
0
100
AcDbText
  0
TEXT
  5
20D
100
AcDbEntity
  8
0
100
AcDbText
 62
2
  6
CONTINUOUS
 10
20.7842537513
 20
1.4047600029
  7
STANDARD
 40
0.08
  1
THIRD ANGLE
 41
0.8
 72
0
100
AcDbText
  0
LINE
  5
20E
100
AcDbEntity
  8
0
100
AcDbLine
 62
7
  6
CONTINUOUS
 10
19.4767170086
 20
1.1727031207
 11
19.6334271527
 21
1.1717972817
  0
LINE
  5
20F
100
AcDbEntity
  8
0
100
AcDbLine
 62
7
  6
CONTINUOUS
 10
19.6596964832
 20
1.1717972817
 11
19.6950230232
 21
1.171593082
  0
LINE
  5
210
100
AcDbEntity
  8
0
100
AcDbLine
 62
7
  6
CONTINUOUS
 10
19.7194818561
 20
1.1708914427
 11
19.8852396156
 21
1.1699333054
  0
LINE
  5
211
100
AcDbEntity
  8
0
100
AcDbLine
 62
7
  6
CONTINUOUS
 10
19.4758111696
 20
1.2723454088
 11
19.88525039
 21
1.3511534004
  0
LINE
  5
212
100
AcDbEntity
  8
0
100
AcDbLine
 62
7
  6
CONTINUOUS
 10
19.88525039
 20
1.3511534004
 11
19.8831348489
 21
0.9851647912
  0
LINE
  5
213
100
AcDbEntity
  8
0
100
AcDbLine
 62
7
  6
CONTINUOUS
 10
19.8831348489
 20
0.9851647912
 11
19.4767170086
 21
1.0658141206
  0
LINE
  5
214
100
AcDbEntity
  8
0
100
AcDbLine
 62
7
  6
CONTINUOUS
 10
19.4767170086
 20
1.0658141206
 11
19.4779056764
 21
1.2714536432
  0
CIRCLE
  5
215
100
AcDbEntity
  8
0
100
AcDbCircle
 62
7
  6
CONTINUOUS
 10
20.2068232291
 20
1.1717972817
 40
0.175742101
  0
CIRCLE
  5
216
100
AcDbEntity
  8
0
100
AcDbCircle
 62
7
  6
CONTINUOUS
 10
20.2068232291
 20
1.1717972817
 40
0.1005522074
  0
LINE
  5
217
100
AcDbEntity
  8
0
100
AcDbLine
 62
7
  6
CONTINUOUS
 10
20.2077290681
 20
1.3756110529
 11
20.2071171714
 21
1.2379342989
  0
LINE
  5
218
100
AcDbEntity
  8
0
100
AcDbLine
 62
7
  6
CONTINUOUS
 10
20.2077290681
 20
1.2016899681
 11
20.2074674401
 21
1.1428236749
  0
LINE
  5
219
100
AcDbEntity
  8
0
100
AcDbLine
 62
7
  6
CONTINUOUS
 10
20.208634907
 20
1.101141841
 11
20.2080230104
 21
0.963465087
  0
LINE
  5
21A
100
AcDbEntity
  8
0
100
AcDbLine
 62
7
  6
CONTINUOUS
 10
20.0066328138
 20
1.1745147986
 11
20.1443095678
 21
1.1739029019
  0
LINE
  5
21B
100
AcDbEntity
  8
0
100
AcDbLine
 62
7
  6
CONTINUOUS
 10
20.1832714155
 20
1.1727031207
 11
20.238153505
 21
1.172335442
  0
LINE
  5
21C
100
AcDbEntity
  8
0
100
AcDbLine
 62
7
  6
CONTINUOUS
 10
20.2756669918
 20
1.1717972817
 11
20.407916871
 21
1.1712095044
  0
CIRCLE
  5
21D
100
AcDbEntity
  8
0
100
AcDbCircle
 62
7
  6
CONTINUOUS
 10
20.7509457401
 20
1.1693297793
 40
0.1722024983
  0
CIRCLE
  5
21E
100
AcDbEntity
  8
0
100
AcDbCircle
 62
7
  6
CONTINUOUS
 10
20.7509457401
 20
1.1693297793
 40
0.0985164967
  0
LINE
  5
21F
100
AcDbEntity
  8
0
100
AcDbLine
 62
7
  6
CONTINUOUS
 10
20.7169767782
 20
1.170462078
 11
20.7825395137
 21
1.1682766535
  0
LINE
  5
220
100
AcDbEntity
  8
0
100
AcDbLine
 62
7
  6
CONTINUOUS
 10
20.8177513651
 20
1.1693297793
 11
20.947965719
 21
1.1693297793
  0
LINE
  5
221
100
AcDbEntity
  8
0
100
AcDbLine
 62
7
  6
CONTINUOUS
 10
20.6875370113
 20
1.170462078
 11
20.5573226574
 21
1.170462078
  0
LINE
  5
222
100
AcDbEntity
  8
0
100
AcDbLine
 62
7
  6
CONTINUOUS
 10
20.7486811426
 20
1.1987695462
 11
20.7486811426
 21
1.1432869085
  0
LINE
  5
223
100
AcDbEntity
  8
0
100
AcDbLine
 62
7
  6
CONTINUOUS
 10
20.7498134414
 20
1.1059210505
 11
20.7498134414
 21
0.9757066966
  0
LINE
  5
224
100
AcDbEntity
  8
0
100
AcDbLine
 62
7
  6
CONTINUOUS
 10
20.7486811426
 20
1.2338708068
 11
20.7486811426
 21
1.3640851607
  0
LINE
  5
225
100
AcDbEntity
  8
0
100
AcDbLine
 62
7
  6
CONTINUOUS
 10
21.0702539817
 20
1.2701043662
 11
21.4790138229
 21
1.3448360823
  0
LINE
  5
226
100
AcDbEntity
  8
0
100
AcDbLine
 62
7
  6
CONTINUOUS
 10
21.4790138229
 20
1.3448360823
 11
21.4790138229
 21
0.9779712941
  0
LINE
  5
227
100
AcDbEntity
  8
0
100
AcDbLine
 62
7
  6
CONTINUOUS
 10
21.4790138229
 20
0.9779712941
 11
21.069121683
 21
1.0617614
  0
LINE
  5
228
100
AcDbEntity
  8
0
100
AcDbLine
 62
7
  6
CONTINUOUS
 10
21.0702539817
 20
1.2701043662
 11
21.069121683
 21
1.0617614
  0
LINE
  5
229
100
AcDbEntity
  8
0
100
AcDbLine
 62
7
  6
CONTINUOUS
 10
21.4790138229
 20
1.1693297793
 11
21.3159628059
 21
1.1693297793
  0
LINE
  5
22A
100
AcDbEntity
  8
0
100
AcDbLine
 62
7
  6
CONTINUOUS
 10
21.2876553377
 20
1.1693297793
 11
21.2502894796
 21
1.1693297793
  0
LINE
  5
22B
100
AcDbEntity
  8
0
100
AcDbLine
 62
7
  6
CONTINUOUS
 10
21.2208497126
 20
1.1659328831
 11
21.0713862804
 21
1.1659328831
  0
LINE
  5
22C
100
AcDbEntity
  8
0
100
AcDbLine
 62
7
  6
CONTINUOUS
 10
20.4796138713
 20
1.5284908897
 11
20.4766766948
 21
0.9294458646
  0
ENDBLK
  5
22D
100
AcDbEntity
  8
0
  6
BYBLOCK
 62
0
100
AcDbBlockEnd
  0
BLOCK
  5
22E
100
AcDbEntity
  8
0
100
AcDbBlockBegin
  2
*T1
 70
1
 10
0.0
 20
0.0
  3
*T1
  1

  0
LINE
  5
22F
100
AcDbEntity
  8
0
100
AcDbLine
 62
2
  6
CONTINUOUS
 10
9.275
 20
0.0
 11
-0.0
 21
0.0
  0
LINE
  5
230
100
AcDbEntity
  8
0
100
AcDbLine
 62
2
  6
CONTINUOUS
 10
9.275
 20
0.0
 11
9.275
 21
1.25
  0
LINE
  5
231
100
AcDbEntity
  8
0
100
AcDbLine
 62
2
  6
CONTINUOUS
 10
9.275
 20
0.625
 11
-0.0
 21
0.625
  0
LINE
  5
232
100
AcDbEntity
  8
0
100
AcDbLine
 62
2
  6
CONTINUOUS
 10
9.275
 20
1.25
 11
-0.0
 21
1.25
  0
LINE
  5
233
100
AcDbEntity
  8
0
100
AcDbLine
 62
2
  6
CONTINUOUS
 10
6.8
 20
0.0
 11
6.8
 21
1.25
  0
LINE
  5
234
100
AcDbEntity
  8
0
100
AcDbLine
 62
2
  6
CONTINUOUS
 10
6.4
 20
0.0
 11
6.4
 21
0.625
  0
LINE
  5
235
100
AcDbEntity
  8
0
100
AcDbLine
 62
2
  6
CONTINUOUS
 10
5.9
 20
0.0
 11
5.9
 21
0.625
  0
LINE
  5
236
100
AcDbEntity
  8
0
100
AcDbLine
 62
2
  6
CONTINUOUS
 10
5.2
 20
0.0
 11
5.2
 21
0.625
  0
LINE
  5
237
100
AcDbEntity
  8
0
100
AcDbLine
 62
2
  6
CONTINUOUS
 10
4.1
 20
0.0
 11
4.1
 21
1.25
  0
LINE
  5
238
100
AcDbEntity
  8
0
100
AcDbLine
 62
2
  6
CONTINUOUS
 10
-0.0
 20
0.0
 11
-0.0
 21
1.25
  0
MTEXT
  5
239
100
AcDbEntity
  8
0
100
AcDbMText
 62
2
  6
CONTINUOUS
  7
STANDARD
 71
2
 72
1
 10
6.6
 20
0.325
 30
0.0
 11
1.0
 21
0.0
 31
0.0
 44
0.9
  1
2
 40
0.125
 41
0.2
  0
MTEXT
  5
23A
100
AcDbEntity
  8
0
100
AcDbMText
 62
2
  6
CONTINUOUS
  7
STANDARD
 71
2
 72
1
 10
6.15
 20
0.325
 30
0.0
 11
1.0
 21
0.0
 31
0.0
 44
0.9
  1
C
 40
0.125
 41
0.2
  0
MTEXT
  5
23B
100
AcDbEntity
  8
0
100
AcDbMText
 62
2
  6
CONTINUOUS
  7
STANDARD
 71
2
 72
1
 10
5.55
 20
0.325
 30
0.0
 11
1.0
 21
0.0
 31
0.0
 44
0.9
  1
1.000
 40
0.125
 41
1.0
  0
MTEXT
  5
23C
100
AcDbEntity
  8
0
100
AcDbMText
 62
2
  6
CONTINUOUS
  7
STANDARD
 71
2
 72
1
 10
4.65
 20
0.325
 30
0.0
 11
1.0
 21
0.0
 31
0.0
 44
0.9
  1
Mar-15-24
 40
0.125
 41
1.8
  0
MTEXT
  5
23D
100
AcDbEntity
  8
0
100
AcDbMText
 62
2
  6
CONTINUOUS
  7
STANDARD
 71
2
 72
1
 10
2.05
 20
0.4625
 30
0.0
 11
1.0
 21
0.0
 31
0.0
 44
0.9
  1
T-17A Line mount\PThrough port 2 with reverse flow check
 40
0.125
 41
7.6
  0
MTEXT
  5
23E
100
AcDbEntity
  8
0
100
AcDbMText
 62
2
  6
CONTINUOUS
  7
STANDARD
 71
1
 72
1
 10
6.45
 20
0.5625
 30
0.0
 11
1.0
 21
0.0
 31
0.0
 44
0.9
  1
SHEET
 40
0.06
 41
0.48
  0
MTEXT
  5
23F
100
AcDbEntity
  8
0
100
AcDbMText
 62
2
  6
CONTINUOUS
  7
STANDARD
 71
1
 72
1
 10
5.95
 20
0.5625
 30
0.0
 11
1.0
 21
0.0
 31
0.0
 44
0.9
  1
DWG SIZE
 40
0.06
 41
0.768
  0
MTEXT
  5
240
100
AcDbEntity
  8
0
100
AcDbMText
 62
2
  6
CONTINUOUS
  7
STANDARD
 71
1
 72
1
 10
5.25
 20
0.5625
 30
0.0
 11
1.0
 21
0.0
 31
0.0
 44
0.9
  1
SCALE
 40
0.06
 41
0.48
  0
MTEXT
  5
241
100
AcDbEntity
  8
0
100
AcDbMText
 62
2
  6
CONTINUOUS
  7
STANDARD
 71
1
 72
1
 10
4.15
 20
0.5625
 30
0.0
 11
1.0
 21
0.0
 31
0.0
 44
0.9
  1
DATE
 40
0.06
 41
0.384
  0
MTEXT
  5
242
100
AcDbEntity
  8
0
100
AcDbMText
 62
2
  6
CONTINUOUS
  7
STANDARD
 71
1
 72
1
 10
0.05
 20
0.5625
 30
0.0
 11
1.0
 21
0.0
 31
0.0
 44
0.9
  1
DESCRIPTION
 40
0.06
 41
1.056
  0
MTEXT
  5
243
100
AcDbEntity
  8
0
100
AcDbMText
 62
2
  6
CONTINUOUS
  7
STANDARD
 71
2
 72
1
 10
5.45
 20
1.0375
 30
0.0
 11
1.0
 21
0.0
 31
0.0
 44
0.9
  1
ALL DIMENSIONS IN INCH\PVIEWS ARE THIRD ANGLE
 40
0.12
 41
4.224
  0
MTEXT
  5
244
100
AcDbEntity
  8
0
100
AcDbMText
 62
2
  6
CONTINUOUS
  7
STANDARD
 71
2
 72
1
 10
2.05
 20
0.95
 30
0.0
 11
1.0
 21
0.0
 31
0.0
 44
0.9
  1
H3X
 40
0.125
 41
0.6
  0
MTEXT
  5
245
100
AcDbEntity
  8
0
100
AcDbMText
 62
2
  6
CONTINUOUS
  7
STANDARD
 71
1
 72
1
 10
0.05
 20
1.1875
 30
0.0
 11
1.0
 21
0.0
 31
0.0
 44
0.9
  1
MODEL
 40
0.06
 41
0.48
  0
ENDBLK
  5
246
100
AcDbEntity
  8
0
  6
BYBLOCK
 62
0
100
AcDbBlockEnd
  0
BLOCK
  5
247
100
AcDbEntity
  8
0
100
AcDbBlockBegin
  2
*T2
 70
1
 10
0.0
 20
0.0
  3
*T2
  1

  0
LINE
  5
248
100
AcDbEntity
  8
0
100
AcDbLine
 62
2
  6
CONTINUOUS
 10
0.0
 20
0.0
 11
9.055
 21
0.0
  0
LINE
  5
249
100
AcDbEntity
  8
0
100
AcDbLine
 62
2
  6
CONTINUOUS
 10
0.0
 20
0.0
 11
0.0
 21
-2.844
  0
LINE
  5
24A
100
AcDbEntity
  8
0
100
AcDbLine
 62
2
  6
CONTINUOUS
 10
0.0
 20
-0.344
 11
9.055
 21
-0.344
  0
LINE
  5
24B
100
AcDbEntity
  8
0
100
AcDbLine
 62
2
  6
CONTINUOUS
 10
0.0
 20
-0.594
 11
9.055
 21
-0.594
  0
LINE
  5
24C
100
AcDbEntity
  8
0
100
AcDbLine
 62
2
  6
CONTINUOUS
 10
0.0
 20
-0.844
 11
9.055
 21
-0.844
  0
LINE
  5
24D
100
AcDbEntity
  8
0
100
AcDbLine
 62
2
  6
CONTINUOUS
 10
0.0
 20
-1.094
 11
9.055
 21
-1.094
  0
LINE
  5
24E
100
AcDbEntity
  8
0
100
AcDbLine
 62
2
  6
CONTINUOUS
 10
0.0
 20
-1.344
 11
9.055
 21
-1.344
  0
LINE
  5
24F
100
AcDbEntity
  8
0
100
AcDbLine
 62
2
  6
CONTINUOUS
 10
0.0
 20
-1.594
 11
9.055
 21
-1.594
  0
LINE
  5
250
100
AcDbEntity
  8
0
100
AcDbLine
 62
2
  6
CONTINUOUS
 10
0.0
 20
-1.844
 11
9.055
 21
-1.844
  0
LINE
  5
251
100
AcDbEntity
  8
0
100
AcDbLine
 62
2
  6
CONTINUOUS
 10
0.0
 20
-2.094
 11
9.055
 21
-2.094
  0
LINE
  5
252
100
AcDbEntity
  8
0
100
AcDbLine
 62
2
  6
CONTINUOUS
 10
0.0
 20
-2.344
 11
9.055
 21
-2.344
  0
LINE
  5
253
100
AcDbEntity
  8
0
100
AcDbLine
 62
2
  6
CONTINUOUS
 10
0.0
 20
-2.594
 11
9.055
 21
-2.594
  0
LINE
  5
254
100
AcDbEntity
  8
0
100
AcDbLine
 62
2
  6
CONTINUOUS
 10
0.0
 20
-2.844
 11
9.055
 21
-2.844
  0
LINE
  5
255
100
AcDbEntity
  8
0
100
AcDbLine
 62
2
  6
CONTINUOUS
 10
3.055
 20
0.0
 11
3.055
 21
-2.844
  0
LINE
  5
256
100
AcDbEntity
  8
0
100
AcDbLine
 62
2
  6
CONTINUOUS
 10
9.055
 20
0.0
 11
9.055
 21
-2.844
  0
MTEXT
  5
257
100
AcDbEntity
  8
0
100
AcDbMText
 62
2
  6
CONTINUOUS
  7
STANDARD
 71
2
 72
1
 10
1.5275
 20
-0.0995
 30
0.0
 11
1.0
 21
0.0
 31
0.0
 44
0.9
  1
Technical Data
 40
0.145
 41
3.248
  0
MTEXT
  5
258
100
AcDbEntity
  8
0
100
AcDbMText
 62
2
  6
CONTINUOUS
  7
STANDARD
 71
2
 72
1
 10
4.555
 20
-0.0995
 30
0.0
 11
1.0
 21
0.0
 31
0.0
 44
0.9
  1
U.S. Units
 40
0.145
 41
2.32
  0
MTEXT
  5
259
100
AcDbEntity
  8
0
100
AcDbMText
 62
2
  6
CONTINUOUS
  7
STANDARD
 71
2
 72
1
 10
7.555
 20
-0.0995
 30
0.0
 11
1.0
 21
0.0
 31
0.0
 44
0.9
  1
Metric Units
 40
0.145
 41
2.784
  0
MTEXT
  5
25A
100
AcDbEntity
  8
0
100
AcDbMText
 62
2
  6
CONTINUOUS
  7
STANDARD
 71
2
 72
1
 10
1.5275
 20
-0.4065
 30
0.0
 11
1.0
 21
0.0
 31
0.0
 44
0.9
  1
Cavity
 40
0.125
 41
1.2
  0
MTEXT
  5
25B
100
AcDbEntity
  8
0
100
AcDbMText
 62
2
  6
CONTINUOUS
  7
STANDARD
 71
2
 72
1
 10
6.055
 20
-0.4065
 30
0.0
 11
1.0
 21
0.0
 31
0.0
 44
0.9
  1
T-17A
 40
0.125
 41
1.0
  0
MTEXT
  5
25C
100
AcDbEntity
  8
0
100
AcDbMText
 62
2
  6
CONTINUOUS
  7
STANDARD
 71
2
 72
1
 10
1.5275
 20
-0.6565
 30
0.0
 11
1.0
 21
0.0
 31
0.0
 44
0.9
  1
Body Features
 40
0.125
 41
2.6
  0
MTEXT
  5
25D
100
AcDbEntity
  8
0
100
AcDbMText
 62
2
  6
CONTINUOUS
  7
STANDARD
 71
2
 72
1
 10
6.055
 20
-0.6565
 30
0.0
 11
1.0
 21
0.0
 31
0.0
 44
0.9
  1
Through port 2 with reverse flow check
 40
0.125
 41
7.6
  0
MTEXT
  5
25E
100
AcDbEntity
  8
0
100
AcDbMText
 62
2
  6
CONTINUOUS
  7
STANDARD
 71
2
 72
1
 10
1.5275
 20
-0.9065
 30
0.0
 11
1.0
 21
0.0
 31
0.0
 44
0.9
  1
Body Type
 40
0.125
 41
1.8
  0
MTEXT
  5
25F
100
AcDbEntity
  8
0
100
AcDbMText
 62
2
  6
CONTINUOUS
  7
STANDARD
 71
2
 72
1
 10
6.055
 20
-0.9065
 30
0.0
 11
1.0
 21
0.0
 31
0.0
 44
0.9
  1
Line mount
 40
0.125
 41
2.0
  0
MTEXT
  5
260
100
AcDbEntity
  8
0
100
AcDbMText
 62
2
  6
CONTINUOUS
  7
STANDARD
 71
2
 72
1
 10
1.5275
 20
-1.1565
 30
0.0
 11
1.0
 21
0.0
 31
0.0
 44
0.9
  1
Interface
 40
0.125
 41
1.8
  0
MTEXT
  5
261
100
AcDbEntity
  8
0
100
AcDbMText
 62
2
  6
CONTINUOUS
  7
STANDARD
 71
2
 72
1
 10
6.055
 20
-1.1565
 30
0.0
 11
1.0
 21
0.0
 31
0.0
 44
0.9
  1
None
 40
0.125
 41
0.8
  0
MTEXT
  5
262
100
AcDbEntity
  8
0
100
AcDbMText
 62
2
  6
CONTINUOUS
  7
STANDARD
 71
2
 72
1
 10
1.5275
 20
-1.4065
 30
0.0
 11
1.0
 21
0.0
 31
0.0
 44
0.9
  1
Open Cavity Quantity
 40
0.125
 41
4.0
  0
MTEXT
  5
263
100
AcDbEntity
  8
0
100
AcDbMText
 62
2
  6
CONTINUOUS
  7
STANDARD
 71
2
 72
1
 10
6.055
 20
-1.4065
 30
0.0
 11
1.0
 21
0.0
 31
0.0
 44
0.9
  1
1
 40
0.125
 41
0.2
  0
MTEXT
  5
264
100
AcDbEntity
  8
0
100
AcDbMText
 62
2
  6
CONTINUOUS
  7
STANDARD
 71
2
 72
1
 10
1.5275
 20
-1.6565
 30
0.0
 11
1.0
 21
0.0
 31
0.0
 44
0.9
  1
Weight
 40
0.125
 41
1.2
  0
MTEXT
  5
265
100
AcDbEntity
  8
0
100
AcDbMText
 62
2
  6
CONTINUOUS
  7
STANDARD
 71
2
 72
1
 10
4.555
 20
-1.6565
 30
0.0
 11
1.0
 21
0.0
 31
0.0
 44
0.9
  1
7.950 lb.
 40
0.125
 41
1.8
  0
MTEXT
  5
266
100
AcDbEntity
  8
0
100
AcDbMText
 62
2
  6
CONTINUOUS
  7
STANDARD
 71
2
 72
1
 10
7.555
 20
-1.6565
 30
0.0
 11
1.0
 21
0.0
 31
0.0
 44
0.9
  1
3,606 kg.
 40
0.125
 41
1.8
  0
MTEXT
  5
267
100
AcDbEntity
  8
0
100
AcDbMText
 62
2
  6
CONTINUOUS
  7
STANDARD
 71
2
 72
1
 10
1.5275
 20
-1.9065
 30
0.0
 11
1.0
 21
0.0
 31
0.0
 44
0.9
  1
Mounting Hole Thread
 40
0.125
 41
4.0
  0
MTEXT
  5
268
100
AcDbEntity
  8
0
100
AcDbMText
 62
2
  6
CONTINUOUS
  7
STANDARD
 71
2
 72
1
 10
6.055
 20
-1.9065
 30
0.0
 11
1.0
 21
0.0
 31
0.0
 44
0.9
  1
M10x1.5 - 6H
 40
0.125
 41
2.4
  0
MTEXT
  5
269
100
AcDbEntity
  8
0
100
AcDbMText
 62
2
  6
CONTINUOUS
  7
STANDARD
 71
2
 72
1
 10
1.5275
 20
-2.1565
 30
0.0
 11
1.0
 21
0.0
 31
0.0
 44
0.9
  1
Mounting Hole Depth
 40
0.125
 41
3.8
  0
MTEXT
  5
26A
100
AcDbEntity
  8
0
100
AcDbMText
 62
2
  6
CONTINUOUS
  7
STANDARD
 71
2
 72
1
 10
4.555
 20
-2.1565
 30
0.0
 11
1.0
 21
0.0
 31
0.0
 44
0.9
  1
.62 in.
 40
0.125
 41
1.4
  0
MTEXT
  5
26B
100
AcDbEntity
  8
0
100
AcDbMText
 62
2
  6
CONTINUOUS
  7
STANDARD
 71
2
 72
1
 10
7.555
 20
-2.1565
 30
0.0
 11
1.0
 21
0.0
 31
0.0
 44
0.9
  1
15,7 mm
 40
0.125
 41
1.4
  0
MTEXT
  5
26C
100
AcDbEntity
  8
0
100
AcDbMText
 62
2
  6
CONTINUOUS
  7
STANDARD
 71
2
 72
1
 10
1.5275
 20
-2.4065
 30
0.0
 11
1.0
 21
0.0
 31
0.0
 44
0.9
  1
Mounting Hole Quantity
 40
0.125
 41
4.4
  0
MTEXT
  5
26D
100
AcDbEntity
  8
0
100
AcDbMText
 62
2
  6
CONTINUOUS
  7
STANDARD
 71
2
 72
1
 10
6.055
 20
-2.4065
 30
0.0
 11
1.0
 21
0.0
 31
0.0
 44
0.9
  1
2
 40
0.125
 41
0.2
  0
MTEXT
  5
26E
100
AcDbEntity
  8
0
100
AcDbMText
 62
2
  6
CONTINUOUS
  7
STANDARD
 71
2
 72
1
 10
1.5275
 20
-2.6565
 30
0.0
 11
1.0
 21
0.0
 31
0.0
 44
0.9
  1
Includes integral cartridge(s)
 40
0.125
 41
6.0
  0
MTEXT
  5
26F
100
AcDbEntity
  8
0
100
AcDbMText
 62
2
  6
CONTINUOUS
  7
STANDARD
 71
2
 72
1
 10
6.055
 20
-2.6565
 30
0.0
 11
1.0
 21
0.0
 31
0.0
 44
0.9
  1
Yes (see Included Components)
 40
0.125
 41
5.8
  0
ENDBLK
  5
270
100
AcDbEntity
  8
0
  6
BYBLOCK
 62
0
100
AcDbBlockEnd
  0
BLOCK
  5
271
100
AcDbEntity
  8
0
100
AcDbBlockBegin
  2
*T3
 70
1
 10
0.0
 20
0.0
  3
*T3
  1

  0
LINE
  5
272
100
AcDbEntity
  8
0
100
AcDbLine
 62
2
  6
CONTINUOUS
 10
0.0
 20
0.0
 11
4.6
 21
0.0
  0
LINE
  5
273
100
AcDbEntity
  8
0
100
AcDbLine
 62
2
  6
CONTINUOUS
 10
0.0
 20
0.0
 11
0.0
 21
-1.43775
  0
LINE
  5
274
100
AcDbEntity
  8
0
100
AcDbLine
 62
2
  6
CONTINUOUS
 10
0.0
 20
-0.34375
 11
4.6
 21
-0.34375
  0
LINE
  5
275
100
AcDbEntity
  8
0
100
AcDbLine
 62
2
  6
CONTINUOUS
 10
0.0
 20
-0.68775
 11
4.6
 21
-0.68775
  0
LINE
  5
276
100
AcDbEntity
  8
0
100
AcDbLine
 62
2
  6
CONTINUOUS
 10
0.0
 20
-0.93775
 11
4.6
 21
-0.93775
  0
LINE
  5
277
100
AcDbEntity
  8
0
100
AcDbLine
 62
2
  6
CONTINUOUS
 10
0.0
 20
-1.18775
 11
4.6
 21
-1.18775
  0
LINE
  5
278
100
AcDbEntity
  8
0
100
AcDbLine
 62
2
  6
CONTINUOUS
 10
0.0
 20
-1.43775
 11
4.6
 21
-1.43775
  0
LINE
  5
279
100
AcDbEntity
  8
0
100
AcDbLine
 62
2
  6
CONTINUOUS
 10
1.3
 20
-0.34375
 11
1.3
 21
-1.43775
  0
LINE
  5
27A
100
AcDbEntity
  8
0
100
AcDbLine
 62
2
  6
CONTINUOUS
 10
3.3
 20
-0.34375
 11
3.3
 21
-1.43775
  0
LINE
  5
27B
100
AcDbEntity
  8
0
100
AcDbLine
 62
2
  6
CONTINUOUS
 10
4.6
 20
0.0
 11
4.6
 21
-1.43775
  0
MTEXT
  5
27C
100
AcDbEntity
  8
0
100
AcDbMText
 62
2
  6
CONTINUOUS
  7
STANDARD
 71
2
 72
1
 10
2.3
 20
-0.099375
 30
0.0
 11
1.0
 21
0.0
 31
0.0
 44
0.9
  1
Port Headings
 40
0.145
 41
3.016
  0
MTEXT
  5
27D
100
AcDbEntity
  8
0
100
AcDbMText
 62
2
  6
CONTINUOUS
  7
STANDARD
 71
2
 72
1
 10
0.65
 20
-0.44325
 30
0.0
 11
1.0
 21
0.0
 31
0.0
 44
0.9
  1
Product
 40
0.145
 41
1.624
  0
MTEXT
  5
27E
100
AcDbEntity
  8
0
100
AcDbMText
 62
2
  6
CONTINUOUS
  7
STANDARD
 71
2
 72
1
 10
2.3
 20
-0.44325
 30
0.0
 11
1.0
 21
0.0
 31
0.0
 44
0.9
  1
Port
 40
0.145
 41
0.928
  0
MTEXT
  5
27F
100
AcDbEntity
  8
0
100
AcDbMText
 62
2
  6
CONTINUOUS
  7
STANDARD
 71
2
 72
1
 10
3.95
 20
-0.44325
 30
0.0
 11
1.0
 21
0.0
 31
0.0
 44
0.9
  1
Size
 40
0.145
 41
0.928
  0
MTEXT
  5
280
100
AcDbEntity
  8
0
100
AcDbMText
 62
2
  6
CONTINUOUS
  7
STANDARD
 71
2
 72
1
 10
0.65
 20
-0.75025
 30
0.0
 11
1.0
 21
0.0
 31
0.0
 44
0.9
  1
H3X
 40
0.125
 41
0.6
  0
MTEXT
  5
281
100
AcDbEntity
  8
0
100
AcDbMText
 62
2
  6
CONTINUOUS
  7
STANDARD
 71
2
 72
1
 10
2.3
 20
-0.75025
 30
0.0
 11
1.0
 21
0.0
 31
0.0
 44
0.9
  1
Ports 1 &  2
 40
0.125
 41
2.4
  0
MTEXT
  5
282
100
AcDbEntity
  8
0
100
AcDbMText
 62
2
  6
CONTINUOUS
  7
STANDARD
 71
2
 72
1
 10
3.95
 20
-0.75025
 30
0.0
 11
1.0
 21
0.0
 31
0.0
 44
0.9
  1
1" BSPP
 40
0.125
 41
1.4
  0
MTEXT
  5
283
100
AcDbEntity
  8
0
100
AcDbMText
 62
2
  6
CONTINUOUS
  7
STANDARD
 71
2
 72
1
 10
0.65
 20
-1.00025
 30
0.0
 11
1.0
 21
0.0
 31
0.0
 44
0.9
  1
H3X
 40
0.125
 41
0.6
  0
MTEXT
  5
284
100
AcDbEntity
  8
0
100
AcDbMText
 62
2
  6
CONTINUOUS
  7
STANDARD
 71
2
 72
1
 10
2.3
 20
-1.00025
 30
0.0
 11
1.0
 21
0.0
 31
0.0
 44
0.9
  1
Port 3
 40
0.125
 41
1.2
  0
MTEXT
  5
285
100
AcDbEntity
  8
0
100
AcDbMText
 62
2
  6
CONTINUOUS
  7
STANDARD
 71
2
 72
1
 10
3.95
 20
-1.00025
 30
0.0
 11
1.0
 21
0.0
 31
0.0
 44
0.9
  1
1/4" BSPP
 40
0.125
 41
1.8
  0
MTEXT
  5
286
100
AcDbEntity
  8
0
100
AcDbMText
 62
2
  6
CONTINUOUS
  7
STANDARD
 71
2
 72
1
 10
0.65
 20
-1.25025
 30
0.0
 11
1.0
 21
0.0
 31
0.0
 44
0.9
  1
H3X
 40
0.125
 41
0.6
  0
MTEXT
  5
287
100
AcDbEntity
  8
0
100
AcDbMText
 62
2
  6
CONTINUOUS
  7
STANDARD
 71
2
 72
1
 10
2.3
 20
-1.25025
 30
0.0
 11
1.0
 21
0.0
 31
0.0
 44
0.9
  1
Gage Port
 40
0.125
 41
1.8
  0
MTEXT
  5
288
100
AcDbEntity
  8
0
100
AcDbMText
 62
2
  6
CONTINUOUS
  7
STANDARD
 71
2
 72
1
 10
3.95
 20
-1.25025
 30
0.0
 11
1.0
 21
0.0
 31
0.0
 44
0.9
  1
1/4" BSPP
 40
0.125
 41
1.8
  0
ENDBLK
  5
289
100
AcDbEntity
  8
0
  6
BYBLOCK
 62
0
100
AcDbBlockEnd
  0
ENDSEC
  0
SECTION
  2
ENTITIES
  0
IMAGE
  5
28A
100
AcDbEntity
  8
0
100
AcDbRasterImage
 62
7
  6
CONTINUOUS
 10
19.2297077316
 20
0.3094318264
 30
0.0
 11
0.0066666667
 21
0.0
 31
0.0
 12
0.0
 22
0.0066666667
 32
0.0
 13
369.0
 23
92.0
340
       3A0
 70
9
280
0
281
50
282
50
283
0
360
       39A
 71
1
 91
2
 14
-0.5
 24
-0.5
 14
368.5
 24
91.5
  0
INSERT
  5
28B
100
AcDbEntity
  8
0
100
AcDbBlockReference
 62
2
  6
CONTINUOUS
  2
SUN_FIRST_THIRD_ANGLE_BL0
 10
20.4816717061
 20
1.2289683772
  0
ACAD_TABLE
  5
28C
100
AcDbEntity
  8
0
 62
2
  6
CONTINUOUS
100
AcDbBlockReference
  2
*T1
 10
12.42375
 20
0.30125
 30
0.0
100
AcDbTable
342
       3A2
343
207
 11
1.0
 21
0.0
 31
0.0
 90
6
 91
4
 92
6
 93
20
 94
0
 95
0
 96
0
 70
1
 41
0.0
141
0.525
141
0.1
141
0.525
141
0.1
142
4.1
142
1.1
142
0.7
142
0.5
142
0.4
142
2.475
171
1
172
0
173
0
174
0
175
1
176
1
 91
33
178
0
145
0.0
301
CELL_VALUE
 90
4
  1
T-17A Line mount\PThrough port 2 with reverse flow check
304
ACVALUE_END
170
2
140
0.125
171
1
172
0
173
0
174
0
175
1
176
1
 91
33
178
0
145
0.0
301
CELL_VALUE
 90
4
  1
Mar-15-24
304
ACVALUE_END
170
5
140
0.125
171
1
172
0
173
0
174
0
175
1
176
1
 91
33
178
0
145
0.0
301
CELL_VALUE
 90
4
  1
1.000
304
ACVALUE_END
170
5
140
0.125
171
1
172
0
173
0
174
0
175
1
176
1
 91
33
178
0
145
0.0
301
CELL_VALUE
 90
4
  1
C
304
ACVALUE_END
170
5
140
0.125
171
1
172
0
173
0
174
0
175
1
176
1
 91
33
178
0
145
0.0
301
CELL_VALUE
 90
4
  1
2
304
ACVALUE_END
170
5
140
0.125
171
1
172
0
173
0
174
0
175
1
176
1
 91
33
178
0
145
0.0
301
CELL_VALUE
 90
4
  1
 
304
ACVALUE_END
170
1
140
0.125
171
1
172
0
173
0
174
0
175
1
176
1
 91
33
178
0
145
0.0
301
CELL_VALUE
 90
4
  1
DESCRIPTION
304
ACVALUE_END
170
1
140
0.06
171
1
172
0
173
0
174
0
175
1
176
1
 91
33
178
0
145
0.0
301
CELL_VALUE
 90
4
  1
DATE
304
ACVALUE_END
170
1
140
0.06
171
1
172
0
173
0
174
0
175
1
176
1
 91
33
178
0
145
0.0
301
CELL_VALUE
 90
4
  1
SCALE
304
ACVALUE_END
170
1
140
0.06
171
1
172
0
173
0
174
0
175
1
176
1
 91
33
178
0
145
0.0
301
CELL_VALUE
 90
4
  1
DWG SIZE
304
ACVALUE_END
170
1
140
0.06
171
1
172
0
173
0
174
0
175
1
176
1
 91
33
178
0
145
0.0
301
CELL_VALUE
 90
4
  1
SHEET
304
ACVALUE_END
170
1
140
0.06
171
1
172
0
173
0
174
0
175
1
176
1
 91
33
178
0
145
0.0
301
CELL_VALUE
 90
4
  1
 
304
ACVALUE_END
170
1
140
0.125
171
1
172
0
173
0
174
0
175
1
176
1
 91
33
178
0
145
0.0
301
CELL_VALUE
 90
4
  1
H3X
304
ACVALUE_END
170
5
140
0.125
171
1
172
0
173
0
174
0
175
4
176
1
 91
33
178
0
145
0.0
301
CELL_VALUE
 90
4
  1
ALL DIMENSIONS IN INCH\PVIEWS ARE THIRD ANGLE
304
ACVALUE_END
170
5
140
0.12
171
1
172
0
173
1
174
0
175
1
176
1
 91
1
178
0
145
0.0
170
1
171
1
172
0
173
1
174
0
175
1
176
1
 91
1
178
0
145
0.0
170
1
171
1
172
0
173
1
174
0
175
1
176
1
 91
1
178
0
145
0.0
170
5
171
1
172
0
173
0
174
0
175
1
176
1
 91
33
178
0
145
0.0
301
CELL_VALUE
 90
4
  1
 
304
ACVALUE_END
170
1
140
0.125
171
1
172
0
173
0
174
0
175
1
176
1
 91
33
178
0
145
0.0
301
CELL_VALUE
 90
4
  1
MODEL
304
ACVALUE_END
170
1
140
0.06
171
1
172
0
173
0
174
0
175
1
176
1
 91
33
178
0
145
0.0
301
CELL_VALUE
 90
4
  1
 
304
ACVALUE_END
170
1
140
0.125
171
1
172
0
173
0
174
0
175
1
176
1
 91
33
178
0
145
0.0
301
CELL_VALUE
 90
4
  1
 
304
ACVALUE_END
170
1
140
0.125
171
1
172
0
173
0
174
0
175
1
176
1
 91
33
178
0
145
0.0
301
CELL_VALUE
 90
4
  1
 
304
ACVALUE_END
170
1
140
0.125
171
1
172
0
173
0
174
0
175
1
176
1
 91
33
178
0
145
0.0
301
CELL_VALUE
 90
4
  1
 
304
ACVALUE_END
170
1
140
0.125
171
1
172
0
173
0
174
0
175
1
176
1
 91
33
178
0
145
0.0
301
CELL_VALUE
 90
4
  1
 
304
ACVALUE_END
170
1
140
0.125
  0
ACAD_TABLE
  5
28D
100
AcDbEntity
  8
0
 62
2
  6
CONTINUOUS
100
AcDbBlockReference
  2
*T2
 10
12.4237499994
 20
16.47875
 30
0.0
100
AcDbTable
342
       3A1
343
208
 11
1.0
 21
0.0
 31
0.0
 90
22
 91
11
 92
3
 93
16
 94
0
 95
0
 96
0
 41
0.028
141
0.344
141
0.25
141
0.25
141
0.25
141
0.25
141
0.25
141
0.25
141
0.25
141
0.25
141
0.25
141
0.25
142
3.055
142
3.0
142
3.0
171
1
172
0
173
0
174
0
175
1
176
1
 91
33
178
0
145
0.0
301
CELL_VALUE
 90
4
  1
Technical Data
304
ACVALUE_END
170
5
140
0.145
171
1
172
0
173
0
174
0
175
1
176
1
 91
33
178
0
145
0.0
301
CELL_VALUE
 90
4
  1
U.S. Units
304
ACVALUE_END
170
5
140
0.145
171
1
172
0
173
0
174
0
175
1
176
1
 91
33
178
0
145
0.0
301
CELL_VALUE
 90
4
  1
Metric Units
304
ACVALUE_END
170
5
140
0.145
171
1
172
0
173
0
174
0
175
1
176
1
 91
33
178
0
145
0.0
301
CELL_VALUE
 90
4
  1
Cavity
304
ACVALUE_END
170
5
140
0.125
171
1
172
0
173
0
174
0
175
2
176
1
 91
33
178
0
145
0.0
301
CELL_VALUE
 90
4
  1
T-17A
304
ACVALUE_END
170
5
140
0.125
171
1
172
0
173
1
174
0
175
1
176
1
 91
1
178
0
145
0.0
170
1
171
1
172
0
173
0
174
0
175
1
176
1
 91
33
178
0
145
0.0
301
CELL_VALUE
 90
4
  1
Body Features
304
ACVALUE_END
170
5
140
0.125
171
1
172
0
173
0
174
0
175
2
176
1
 91
33
178
0
145
0.0
301
CELL_VALUE
 90
4
  1
Through port 2 with reverse flow check
304
ACVALUE_END
170
5
140
0.125
171
1
172
0
173
1
174
0
175
1
176
1
 91
1
178
0
145
0.0
170
1
171
1
172
0
173
0
174
0
175
1
176
1
 91
33
178
0
145
0.0
301
CELL_VALUE
 90
4
  1
Body Type
304
ACVALUE_END
170
5
140
0.125
171
1
172
0
173
0
174
0
175
2
176
1
 91
33
178
0
145
0.0
301
CELL_VALUE
 90
4
  1
Line mount
304
ACVALUE_END
170
5
140
0.125
171
1
172
0
173
1
174
0
175
1
176
1
 91
1
178
0
145
0.0
170
1
171
1
172
0
173
0
174
0
175
1
176
1
 91
33
178
0
145
0.0
301
CELL_VALUE
 90
4
  1
Interface
304
ACVALUE_END
170
5
140
0.125
171
1
172
0
173
0
174
0
175
2
176
1
 91
33
178
0
145
0.0
301
CELL_VALUE
 90
4
  1
None
304
ACVALUE_END
170
5
140
0.125
171
1
172
0
173
1
174
0
175
1
176
1
 91
1
178
0
145
0.0
170
1
171
1
172
0
173
0
174
0
175
1
176
1
 91
33
178
0
145
0.0
301
CELL_VALUE
 90
4
  1
Open Cavity Quantity
304
ACVALUE_END
170
5
140
0.125
171
1
172
0
173
0
174
0
175
2
176
1
 91
33
178
0
145
0.0
301
CELL_VALUE
 90
4
  1
1
304
ACVALUE_END
170
5
140
0.125
171
1
172
0
173
1
174
0
175
1
176
1
 91
1
178
0
145
0.0
170
1
171
1
172
0
173
0
174
0
175
1
176
1
 91
33
178
0
145
0.0
301
CELL_VALUE
 90
4
  1
Weight
304
ACVALUE_END
170
5
140
0.125
171
1
172
0
173
0
174
0
175
1
176
1
 91
33
178
0
145
0.0
301
CELL_VALUE
 90
4
  1
7.950 lb.
304
ACVALUE_END
170
5
140
0.125
171
1
172
0
173
0
174
0
175
1
176
1
 91
33
178
0
145
0.0
301
CELL_VALUE
 90
4
  1
3,606 kg.
304
ACVALUE_END
170
5
140
0.125
171
1
172
0
173
0
174
0
175
1
176
1
 91
33
178
0
145
0.0
301
CELL_VALUE
 90
4
  1
Mounting Hole Thread
304
ACVALUE_END
170
5
140
0.125
171
1
172
0
173
0
174
0
175
2
176
1
 91
33
178
0
145
0.0
301
CELL_VALUE
 90
4
  1
M10x1.5 - 6H
304
ACVALUE_END
170
5
140
0.125
171
1
172
0
173
1
174
0
175
1
176
1
 91
1
178
0
145
0.0
170
1
171
1
172
0
173
0
174
0
175
1
176
1
 91
33
178
0
145
0.0
301
CELL_VALUE
 90
4
  1
Mounting Hole Depth
304
ACVALUE_END
170
5
140
0.125
171
1
172
0
173
0
174
0
175
1
176
1
 91
33
178
0
145
0.0
301
CELL_VALUE
 90
4
  1
.62 in.
304
ACVALUE_END
170
5
140
0.125
171
1
172
0
173
0
174
0
175
1
176
1
 91
33
178
0
145
0.0
301
CELL_VALUE
 90
4
  1
15,7 mm
304
ACVALUE_END
170
5
140
0.125
171
1
172
0
173
0
174
0
175
1
176
1
 91
33
178
0
145
0.0
301
CELL_VALUE
 90
4
  1
Mounting Hole Quantity
304
ACVALUE_END
170
5
140
0.125
171
1
172
0
173
0
174
0
175
2
176
1
 91
33
178
0
145
0.0
301
CELL_VALUE
 90
4
  1
2
304
ACVALUE_END
170
5
140
0.125
171
1
172
0
173
1
174
0
175
1
176
1
 91
1
178
0
145
0.0
170
1
171
1
172
0
173
0
174
0
175
1
176
1
 91
33
178
0
145
0.0
301
CELL_VALUE
 90
4
  1
Includes integral cartridge(s)
304
ACVALUE_END
170
5
140
0.125
171
1
172
0
173
0
174
0
175
2
176
1
 91
33
178
0
145
0.0
301
CELL_VALUE
 90
4
  1
Yes (see Included Components)
304
ACVALUE_END
170
5
140
0.125
171
1
172
0
173
1
174
0
175
1
176
1
 91
1
178
0
145
0.0
170
1
  0
ACAD_TABLE
  5
28E
100
AcDbEntity
  8
0
 62
2
  6
CONTINUOUS
100
AcDbBlockReference
  2
*T3
 10
0.52125
 20
1.959
 30
0.0
100
AcDbTable
342
       3A1
343
209
 11
1.0
 21
0.0
 31
0.0
 90
22
 91
5
 92
3
 93
16
 94
0
 95
0
 96
0
 41
0.05
141
0.34375
141
0.344
141
0.25
141
0.25
141
0.25
142
1.3
142
2.0
142
1.3
171
1
172
0
173
0
174
0
175
3
176
1
 91
33
178
0
145
0.0
301
CELL_VALUE
 90
4
  1
Port Headings
304
ACVALUE_END
170
5
140
0.145
171
1
172
0
173
1
174
0
175
1
176
1
 91
1
178
0
145
0.0
170
1
171
1
172
0
173
1
174
0
175
1
176
1
 91
1
178
0
145
0.0
170
1
171
1
172
0
173
0
174
0
175
1
176
1
 91
33
178
0
145
0.0
301
CELL_VALUE
 90
4
  1
Product
304
ACVALUE_END
170
5
140
0.145
171
1
172
0
173
0
174
0
175
1
176
1
 91
33
178
0
145
0.0
301
CELL_VALUE
 90
4
  1
Port
304
ACVALUE_END
170
5
140
0.145
171
1
172
0
173
0
174
0
175
1
176
1
 91
33
178
0
145
0.0
301
CELL_VALUE
 90
4
  1
Size
304
ACVALUE_END
170
5
140
0.145
171
1
172
0
173
0
174
0
175
1
176
1
 91
33
178
0
145
0.0
301
CELL_VALUE
 90
4
  1
H3X
304
ACVALUE_END
170
5
140
0.125
171
1
172
0
173
0
174
0
175
1
176
1
 91
33
178
0
145
0.0
301
CELL_VALUE
 90
4
  1
Ports 1 &  2
304
ACVALUE_END
170
5
140
0.125
171
1
172
0
173
0
174
0
175
1
176
1
 91
33
178
0
145
0.0
301
CELL_VALUE
 90
4
  1
1" BSPP
304
ACVALUE_END
170
5
140
0.125
171
1
172
0
173
0
174
0
175
1
176
1
 91
33
178
0
145
0.0
301
CELL_VALUE
 90
4
  1
H3X
304
ACVALUE_END
170
5
140
0.125
171
1
172
0
173
0
174
0
175
1
176
1
 91
33
178
0
145
0.0
301
CELL_VALUE
 90
4
  1
Port 3
304
ACVALUE_END
170
5
140
0.125
171
1
172
0
173
0
174
0
175
1
176
1
 91
33
178
0
145
0.0
301
CELL_VALUE
 90
4
  1
1/4" BSPP
304
ACVALUE_END
170
5
140
0.125
171
1
172
0
173
0
174
0
175
1
176
1
 91
33
178
0
145
0.0
301
CELL_VALUE
 90
4
  1
H3X
304
ACVALUE_END
170
5
140
0.125
171
1
172
0
173
0
174
0
175
1
176
1
 91
33
178
0
145
0.0
301
CELL_VALUE
 90
4
  1
Gage Port
304
ACVALUE_END
170
5
140
0.125
171
1
172
0
173
0
174
0
175
1
176
1
 91
33
178
0
145
0.0
301
CELL_VALUE
 90
4
  1
1/4" BSPP
304
ACVALUE_END
170
5
140
0.125
  0
MTEXT
  5
28F
100
AcDbEntity
  8
0
100
AcDbMText
 62
2
  6
CONTINUOUS
  7
STANDARD
 71
1
 72
1
 10
0.52125
 20
5.75995
 30
0.0
 11
1.0
 21
0.0
 31
0.0
 44
0.6
  3
Notes\P \P1. Important: Carefully consider\P   the maximum system pressure. The\P   pressure rating of the manifold is\P   dependent on the manifold material,\P   with the port type/size a secondary\P   consideration. Manifolds\P   constructed of alu
  3
minum are not\P   rated for pressures higher than\P   3000 psi (210 bar), regardless of\P   the port type/size specified.\P2. This drawing is for reference\P   only. It is generated by an\P   automated process and does not fall\P   under Sun's docume
  1
nt control\P   process.
 40
0.1
 41
3.04
  0
LINE
  5
290
100
AcDbEntity
  8
0
100
AcDbLine
 62
7
  6
CONTINUOUS
 10
0.30125
 20
0.30125
 11
0.30125
 21
16.69875
  0
LINE
  5
291
100
AcDbEntity
  8
0
100
AcDbLine
 62
7
  6
CONTINUOUS
 10
0.30125
 20
0.30125
 11
21.69875
 21
0.30125
  0
LINE
  5
292
100
AcDbEntity
  8
0
100
AcDbLine
 62
7
  6
CONTINUOUS
 10
0.30125
 20
16.69875
 11
21.69875
 21
16.69875
  0
LINE
  5
293
100
AcDbEntity
  8
0
100
AcDbLine
 62
7
  6
CONTINUOUS
 10
21.69875
 20
0.30125
 11
21.69875
 21
16.69875
  0
LINE
  5
294
100
AcDbEntity
  8
0
100
AcDbLine
 62
7
  6
CONTINUOUS
 10
8.5505105699
 20
10.8978123844
 11
9.585785896
 21
11.8978116184
  0
LINE
  5
295
100
AcDbEntity
  8
0
100
AcDbLine
 62
7
  6
CONTINUOUS
 10
12.414214104
 20
5.3172712749
 11
8.5505105699
 21
5.585220025
  0
LINE
  5
296
100
AcDbEntity
  8
0
100
AcDbLine
 62
7
  6
CONTINUOUS
 10
10.6261700862
 20
5.1974437344
 11
10.6449291715
 21
5.1881771054
  0
LINE
  5
297
100
AcDbEntity
  8
0
100
AcDbLine
 62
7
  6
CONTINUOUS
 10
8.5505105699
 20
5.585220025
 11
8.5505105699
 21
10.8978123844
  0
LINE
  5
298
100
AcDbEntity
  8
0
100
AcDbLine
 62
4
  6
CONTINUOUS
 10
8.8016513444
 20
9.0451365294
 11
8.8016513444
 21
9.0258180167
  0
LINE
  5
299
100
AcDbEntity
  8
0
100
AcDbLine
 62
4
  6
CONTINUOUS
 10
8.7509402367
 20
8.9810385486
 11
8.7436957927
 21
8.9525631766
  0
LINE
  5
29A
100
AcDbEntity
  8
0
100
AcDbLine
 62
4
  6
CONTINUOUS
 10
8.7436957927
 20
9.0491557605
 11
8.7509402367
 21
9.0583126199
  0
LINE
  5
29B
100
AcDbEntity
  8
0
100
AcDbLine
 62
4
  6
CONTINUOUS
 10
8.7654291246
 20
8.9993522569
 11
8.7509402367
 21
8.9810385486
  0
LINE
  5
29C
100
AcDbEntity
  8
0
100
AcDbLine
 62
4
  6
CONTINUOUS
 10
8.8016513444
 20
9.0258180167
 11
8.7944069005
 21
9.0166611574
  0
LINE
  5
29D
100
AcDbEntity
  8
0
100
AcDbLine
 62
4
  6
CONTINUOUS
 10
9.3329105343
 20
6.9141663008
 11
9.3329105343
 21
6.7982551974
  0
LINE
  5
29E
100
AcDbEntity
  8
0
100
AcDbLine
 62
7
  6
CONTINUOUS
 10
11.5887749907
 20
10.988550606
 11
11.5866693965
 21
10.986554797
  0
LINE
  5
29F
100
AcDbEntity
  8
0
100
AcDbLine
 62
4
  6
CONTINUOUS
 10
8.7509402367
 20
9.0583126199
 11
8.7654291246
 21
9.0669670684
  0
LINE
  5
2A0
100
AcDbEntity
  8
0
100
AcDbLine
 62
4
  6
CONTINUOUS
 10
10.6924511652
 20
10.1909629435
 11
10.7069400531
 21
10.1996173921
  0
LINE
  5
2A1
100
AcDbEntity
  8
0
100
AcDbLine
 62
4
  6
CONTINUOUS
 10
8.7944069005
 20
9.0166611574
 11
8.7654291246
 21
8.9993522569
  0
LINE
  5
2A2
100
AcDbEntity
  8
0
100
AcDbLine
 62
4
  6
CONTINUOUS
 10
10.735917829
 20
10.1589707443
 11
10.721428941
 21
10.1503162889
  0
LINE
  5
2A3
100
AcDbEntity
  8
0
100
AcDbLine
 62
4
  6
CONTINUOUS
 10
10.735917829
 20
10.091355932
 11
10.721428941
 21
10.0827014809
  0
LINE
  5
2A4
100
AcDbEntity
  8
0
100
AcDbLine
 62
4
  6
CONTINUOUS
 10
8.7944069005
 20
9.0552981965
 11
8.8016513444
 21
9.0451365294
  0
LINE
  5
2A5
100
AcDbEntity
  8
0
100
AcDbLine
 62
4
  6
CONTINUOUS
 10
10.7431622729
 20
10.1681275967
 11
10.735917829
 21
10.1589707443
  0
LINE
  5
2A6
100
AcDbEntity
  8
0
100
AcDbLine
 62
4
  6
CONTINUOUS
 10
10.7504067169
 20
10.1096696411
 11
10.735917829
 21
10.091355932
  0
LINE
  5
2A7
100
AcDbEntity
  8
0
100
AcDbLine
 62
4
  6
CONTINUOUS
 10
9.9327505093
 20
8.8073167695
 11
9.9327505093
 21
8.7493612165
  0
LINE
  5
2A8
100
AcDbEntity
  8
0
100
AcDbLine
 62
4
  6
CONTINUOUS
 10
9.9907060623
 20
8.7453419853
 11
9.9907060623
 21
8.6873864323
  0
LINE
  5
2A9
100
AcDbEntity
  8
0
100
AcDbLine
 62
4
  6
CONTINUOUS
 10
10.0196838388
 20
8.6853768166
 11
10.0196838388
 21
8.8012879227
  0
LINE
  5
2AA
100
AcDbEntity
  8
0
100
AcDbLine
 62
4
  6
CONTINUOUS
 10
10.0670142128
 20
8.0909478033
 11
10.0670142128
 21
8.2068589094
  0
LINE
  5
2AB
100
AcDbEntity
  8
0
100
AcDbLine
 62
4
  6
CONTINUOUS
 10
10.0776393918
 20
8.7972686914
 11
10.0776393918
 21
8.6813575854
  0
LINE
  5
2AC
100
AcDbEntity
  8
0
100
AcDbLine
 62
4
  6
CONTINUOUS
 10
10.1066171683
 20
8.7952590758
 11
10.1066171683
 21
8.6793479698
  0
LINE
  5
2AD
100
AcDbEntity
  8
0
100
AcDbLine
 62
4
  6
CONTINUOUS
 10
10.1249697589
 20
8.1862809501
 11
10.1249697589
 21
8.1034873027
  0
LINE
  5
2AE
100
AcDbEntity
  8
0
100
AcDbLine
 62
4
  6
CONTINUOUS
 10
10.1645727213
 20
8.7912398445
 11
10.1645727213
 21
8.6753287385
  0
LINE
  5
2AF
100
AcDbEntity
  8
0
100
AcDbLine
 62
4
  6
CONTINUOUS
 10
10.0007792921
 20
8.1452173995
 11
10.0449359048
 21
8.1200768217
  0
LINE
  5
2B0
100
AcDbEntity
  8
0
100
AcDbLine
 62
4
  6
CONTINUOUS
 10
8.7799180125
 20
9.0659622606
 11
8.7944069005
 21
9.0552981965
  0
LINE
  5
2B1
100
AcDbEntity
  8
0
100
AcDbLine
 62
4
  6
CONTINUOUS
 10
10.1084110305
 20
8.2039880303
 11
10.1249697589
 21
8.1862809501
  0
LINE
  5
2B2
100
AcDbEntity
  8
0
100
AcDbLine
 62
4
  6
CONTINUOUS
 10
10.2050036165
 20
8.1972893117
 11
10.2381210872
 21
8.0790815013
  0
LINE
  5
2B3
100
AcDbEntity
  8
0
100
AcDbLine
 62
4
  6
CONTINUOUS
 10
10.2804838273
 20
8.667290276
 11
10.2804838273
 21
8.783201382
  0
LINE
  5
2B4
100
AcDbEntity
  8
0
100
AcDbLine
 62
4
  6
CONTINUOUS
 10
10.304356001
 20
8.0744880944
 11
10.304356001
 21
8.1903992004
  0
LINE
  5
2B5
100
AcDbEntity
  8
0
100
AcDbLine
 62
4
  6
CONTINUOUS
 10
10.3384393803
 20
8.6632710448
 11
10.3384393803
 21
8.7212265978
  0
LINE
  5
2B6
100
AcDbEntity
  8
0
100
AcDbLine
 62
4
  6
CONTINUOUS
 10
10.36231155
 20
8.3254732967
 11
10.36231155
 21
8.4413844027
  0
LINE
  5
2B7
100
AcDbEntity
  8
0
100
AcDbLine
 62
4
  6
CONTINUOUS
 10
10.3705909148
 20
8.0698946876
 11
10.3705909148
 21
8.1858057936
  0
LINE
  5
2B8
100
AcDbEntity
  8
0
100
AcDbLine
 62
4
  6
CONTINUOUS
 10
10.3857697486
 20
8.6599886726
 11
10.3857697486
 21
8.7179442256
  0
LINE
  5
2B9
100
AcDbEntity
  8
0
100
AcDbLine
 62
4
  6
CONTINUOUS
 10
10.420267103
 20
8.4373651715
 11
10.420267103
 21
8.3214540654
  0
LINE
  5
2BA
100
AcDbEntity
  8
0
100
AcDbLine
 62
4
  6
CONTINUOUS
 10
10.4437253016
 20
8.7139249943
 11
10.4437253016
 21
8.5980138883
  0
LINE
  5
2BB
100
AcDbEntity
  8
0
100
AcDbLine
 62
4
  6
CONTINUOUS
 10
10.1718861597
 20
8.0836749091
 11
10.2050036165
 21
8.1972893117
  0
LINE
  5
2BC
100
AcDbEntity
  8
0
100
AcDbLine
 62
7
  6
CONTINUOUS
 10
12.414214104
 20
10.6298636342
 11
13.4494894301
 21
11.6298628682
  0
LINE
  5
2BD
100
AcDbEntity
  8
0
100
AcDbLine
 62
4
  6
CONTINUOUS
 10
10.561016323
 20
8.0566886406
 11
10.5444576015
 21
8.074395722
  0
LINE
  5
2BE
100
AcDbEntity
  8
0
100
AcDbLine
 62
4
  6
CONTINUOUS
 10
10.6576088745
 20
8.0499899244
 11
10.641050153
 21
8.0676970058
  0
LINE
  5
2BF
100
AcDbEntity
  8
0
100
AcDbLine
 62
4
  6
CONTINUOUS
 10
10.482362337
 20
8.6532899538
 11
10.482362337
 21
8.7112455068
  0
LINE
  5
2C0
100
AcDbEntity
  8
0
100
AcDbLine
 62
4
  6
CONTINUOUS
 10
10.5003009606
 20
8.39041798
 11
10.5003009606
 21
8.4152560761
  0
LINE
  5
2C1
100
AcDbEntity
  8
0
100
AcDbLine
 62
4
  6
CONTINUOUS
 10
10.5030607522
 20
8.3239916715
 11
10.5030607522
 21
8.3653884952
  0
LINE
  5
2C2
100
AcDbEntity
  8
0
100
AcDbLine
 62
7
  6
CONTINUOUS
 10
10.5037662907
 20
5.4497612807
 11
10.5037662907
 21
5.354097809
  0
LINE
  5
2C3
100
AcDbEntity
  8
0
100
AcDbLine
 62
4
  6
CONTINUOUS
 10
10.54031789
 20
8.7651818286
 11
10.54031789
 21
8.6492707226
  0
LINE
  5
2C4
100
AcDbEntity
  8
0
100
AcDbLine
 62
4
  6
CONTINUOUS
 10
10.5444576015
 20
8.074395722
 11
10.5444576015
 21
8.1571893695
  0
LINE
  5
2C5
100
AcDbEntity
  8
0
100
AcDbLine
 62
4
  6
CONTINUOUS
 10
10.5789549253
 20
8.7045467881
 11
10.5789549253
 21
8.6465912351
  0
LINE
  5
2C6
100
AcDbEntity
  8
0
100
AcDbLine
 62
4
  6
CONTINUOUS
 10
10.641050153
 20
8.0676970058
 11
10.641050153
 21
8.1504906533
  0
LINE
  5
2C7
100
AcDbEntity
  8
0
100
AcDbLine
 62
7
  6
CONTINUOUS
 10
10.6646141236
 20
7.3464930207
 11
10.6646141236
 21
7.1604165779
  0
LINE
  5
2C8
100
AcDbEntity
  8
0
100
AcDbLine
 62
4
  6
CONTINUOUS
 10
10.6755475137
 20
8.6398925163
 11
10.6755475137
 21
8.6785295516
  0
LINE
  5
2C9
100
AcDbEntity
  8
0
100
AcDbLine
 62
7
  6
CONTINUOUS
 10
10.6770343952
 20
5.4377450968
 11
10.6770343952
 21
5.1867339582
  0
LINE
  5
2CA
100
AcDbEntity
  8
0
100
AcDbLine
 62
4
  6
CONTINUOUS
 10
10.699005706
 20
8.146471422
 11
10.699005706
 21
8.0636777746
  0
LINE
  5
2CB
100
AcDbEntity
  8
0
100
AcDbLine
 62
7
  6
CONTINUOUS
 10
10.7090271906
 20
5.4355263889
 11
10.7090271906
 21
5.1784536239
  0
LINE
  5
2CC
100
AcDbEntity
  8
0
100
AcDbLine
 62
4
  6
CONTINUOUS
 10
10.7321231491
 20
8.0448223419
 11
10.7321231491
 21
8.160733448
  0
LINE
  5
2CD
100
AcDbEntity
  8
0
100
AcDbLine
 62
4
  6
CONTINUOUS
 10
10.7335030667
 20
8.6938288381
 11
10.7335030667
 21
8.635873285
  0
LINE
  5
2CE
100
AcDbEntity
  8
0
100
AcDbLine
 62
4
  6
CONTINUOUS
 10
10.7431622729
 20
10.1777868531
 11
10.7431622729
 21
10.1681275967
  0
LINE
  5
2CF
100
AcDbEntity
  8
0
100
AcDbLine
 62
4
  6
CONTINUOUS
 10
10.7504067169
 20
10.1193289009
 11
10.7504067169
 21
10.1096696411
  0
LINE
  5
2D0
100
AcDbEntity
  8
0
100
AcDbLine
 62
4
  6
CONTINUOUS
 10
10.536178209
 20
8.3134156029
 11
10.6024131228
 21
8.4247333021
  0
LINE
  5
2D1
100
AcDbEntity
  8
0
100
AcDbLine
 62
4
  6
CONTINUOUS
 10
10.1249697589
 20
8.1034873027
 11
10.1084110305
 21
8.0880769243
  0
LINE
  5
2D2
100
AcDbEntity
  8
0
100
AcDbLine
 62
4
  6
CONTINUOUS
 10
10.7735199805
 20
8.0419514619
 11
10.7321231491
 21
8.0448223419
  0
LINE
  5
2D3
100
AcDbEntity
  8
0
100
AcDbLine
 62
4
  6
CONTINUOUS
 10
10.6824469845
 20
8.0482673957
 11
10.6576088745
 21
8.0499899244
  0
LINE
  5
2D4
100
AcDbEntity
  8
0
100
AcDbLine
 62
4
  6
CONTINUOUS
 10
10.5941337661
 20
8.0543919382
 11
10.561016323
 21
8.0566886406
  0
LINE
  5
2D5
100
AcDbEntity
  8
0
100
AcDbLine
 62
4
  6
CONTINUOUS
 10
10.1084110305
 20
8.0880769243
 11
10.0670142128
 21
8.0909478033
  0
LINE
  5
2D6
100
AcDbEntity
  8
0
100
AcDbLine
 62
4
  6
CONTINUOUS
 10
10.3705909148
 20
8.0698946876
 11
10.420267107
 21
8.0664496319
  0
LINE
  5
2D7
100
AcDbEntity
  8
0
100
AcDbLine
 62
4
  6
CONTINUOUS
 10
10.8369951442
 20
8.0375494444
 11
10.8866713089
 21
8.0341043907
  0
LINE
  5
2D8
100
AcDbEntity
  8
0
100
AcDbLine
 62
4
  6
CONTINUOUS
 10
10.1829253119
 20
8.1160268017
 11
10.2270819211
 21
8.1129645304
  0
LINE
  5
2D9
100
AcDbEntity
  8
0
100
AcDbLine
 62
4
  6
CONTINUOUS
 10
10.8701125873
 20
8.1014876626
 11
10.8369951442
 21
8.1037843651
  0
LINE
  5
2DA
100
AcDbEntity
  8
0
100
AcDbLine
 62
4
  6
CONTINUOUS
 10
10.4037083855
 20
8.1338329038
 11
10.3705909148
 21
8.1361296082
  0
LINE
  5
2DB
100
AcDbEntity
  8
0
100
AcDbLine
 62
4
  6
CONTINUOUS
 10
10.0670142128
 20
8.2068589094
 11
10.1084110305
 21
8.2039880303
  0
LINE
  5
2DC
100
AcDbEntity
  8
0
100
AcDbLine
 62
4
  6
CONTINUOUS
 10
10.2712385303
 20
8.1926959048
 11
10.3374734441
 21
8.188102498
  0
LINE
  5
2DD
100
AcDbEntity
  8
0
100
AcDbLine
 62
4
  6
CONTINUOUS
 10
10.3705909148
 20
8.1858057936
 11
10.420267107
 21
8.1823607379
  0
LINE
  5
2DE
100
AcDbEntity
  8
0
100
AcDbLine
 62
4
  6
CONTINUOUS
 10
10.561016323
 20
8.1725997467
 11
10.5941337661
 21
8.1703030442
  0
LINE
  5
2DF
100
AcDbEntity
  8
0
100
AcDbLine
 62
4
  6
CONTINUOUS
 10
10.6576088745
 20
8.1659010305
 11
10.6824469845
 21
8.1641785017
  0
LINE
  5
2E0
100
AcDbEntity
  8
0
100
AcDbLine
 62
4
  6
CONTINUOUS
 10
10.7321231491
 20
8.160733448
 11
10.7735199805
 21
8.157862568
  0
LINE
  5
2E1
100
AcDbEntity
  8
0
100
AcDbLine
 62
4
  6
CONTINUOUS
 10
10.8369951442
 20
8.1534605504
 11
10.8866713089
 21
8.1500154967
  0
LINE
  5
2E2
100
AcDbEntity
  8
0
100
AcDbLine
 62
4
  6
CONTINUOUS
 10
10.9197887519
 20
8.103562185
 11
10.9639453611
 21
8.0784216057
  0
LINE
  5
2E3
100
AcDbEntity
  8
0
100
AcDbLine
 62
4
  6
CONTINUOUS
 10
10.6824469845
 20
8.1641785017
 11
10.699005706
 21
8.146471422
  0
LINE
  5
2E4
100
AcDbEntity
  8
0
100
AcDbLine
 62
4
  6
CONTINUOUS
 10
10.5030607522
 20
8.3653884952
 11
10.4865020168
 21
8.3830955793
  0
LINE
  5
2E5
100
AcDbEntity
  8
0
100
AcDbLine
 62
4
  6
CONTINUOUS
 10
10.7735199805
 20
8.157862568
 11
10.7900787021
 21
8.1401554883
  0
LINE
  5
2E6
100
AcDbEntity
  8
0
100
AcDbLine
 62
4
  6
CONTINUOUS
 10
10.5003009606
 20
8.4152560761
 11
10.4865020168
 21
8.4327717646
  0
LINE
  5
2E7
100
AcDbEntity
  8
0
100
AcDbLine
 62
4
  6
CONTINUOUS
 10
10.536178209
 20
8.429326709
 11
10.6024131228
 21
8.3088221961
  0
LINE
  5
2E8
100
AcDbEntity
  8
0
100
AcDbLine
 62
4
  6
CONTINUOUS
 10
10.772140102
 20
8.6911493506
 11
10.772140102
 21
8.6331937975
  0
LINE
  5
2E9
100
AcDbEntity
  8
0
100
AcDbLine
 62
4
  6
CONTINUOUS
 10
10.7900787021
 20
8.1401554883
 11
10.7900787021
 21
8.0573618409
  0
LINE
  5
2EA
100
AcDbEntity
  8
0
100
AcDbLine
 62
4
  6
CONTINUOUS
 10
10.8300956551
 20
8.6291745663
 11
10.8300956551
 21
8.6871301193
  0
LINE
  5
2EB
100
AcDbEntity
  8
0
100
AcDbLine
 62
4
  6
CONTINUOUS
 10
10.8369951442
 20
8.0375494444
 11
10.8369951442
 21
8.1534605504
  0
LINE
  5
2EC
100
AcDbEntity
  8
0
100
AcDbLine
 62
4
  6
CONTINUOUS
 10
10.8687326904
 20
8.6264950788
 11
10.8687326904
 21
8.7424061848
  0
LINE
  5
2ED
100
AcDbEntity
  8
0
100
AcDbLine
 62
4
  6
CONTINUOUS
 10
10.9073697257
 20
8.6238155913
 11
10.9073697257
 21
8.6817711443
  0
LINE
  5
2EE
100
AcDbEntity
  8
0
100
AcDbLine
 62
4
  6
CONTINUOUS
 10
10.9460067611
 20
8.6790916568
 11
10.9460067611
 21
8.6211361038
  0
LINE
  5
2EF
100
AcDbEntity
  8
0
100
AcDbLine
 62
4
  6
CONTINUOUS
 10
10.4947813914
 20
8.316286482
 11
10.5030607522
 21
8.3239916715
  0
LINE
  5
2F0
100
AcDbEntity
  8
0
100
AcDbLine
 62
4
  6
CONTINUOUS
 10
10.5444576015
 20
8.1571893695
 11
10.561016323
 21
8.1725997467
  0
LINE
  5
2F1
100
AcDbEntity
  8
0
100
AcDbLine
 62
4
  6
CONTINUOUS
 10
10.641050153
 20
8.1504906533
 11
10.6576088745
 21
8.1659010305
  0
LINE
  5
2F2
100
AcDbEntity
  8
0
100
AcDbLine
 62
4
  6
CONTINUOUS
 10
10.4865020168
 20
8.3830955793
 11
10.5003009606
 21
8.39041798
  0
LINE
  5
2F3
100
AcDbEntity
  8
0
100
AcDbLine
 62
4
  6
CONTINUOUS
 10
10.0449359048
 20
8.164233436
 11
10.0007792921
 21
8.1452173995
  0
LINE
  5
2F4
100
AcDbEntity
  8
0
100
AcDbLine
 62
4
  6
CONTINUOUS
 10
10.4533845599
 20
8.319157362
 11
10.4947813914
 21
8.316286482
  0
LINE
  5
2F5
100
AcDbEntity
  8
0
100
AcDbLine
 62
4
  6
CONTINUOUS
 10
10.4865020168
 20
8.3830955793
 11
10.4699432884
 21
8.384243931
  0
LINE
  5
2F6
100
AcDbEntity
  8
0
100
AcDbLine
 62
4
  6
CONTINUOUS
 10
10.36231155
 20
8.3917082174
 11
10.420267103
 21
8.3876889861
  0
LINE
  5
2F7
100
AcDbEntity
  8
0
100
AcDbLine
 62
4
  6
CONTINUOUS
 10
10.4865020168
 20
8.4327717646
 11
10.4533845599
 21
8.435068468
  0
LINE
  5
2F8
100
AcDbEntity
  8
0
100
AcDbLine
 62
4
  6
CONTINUOUS
 10
11.0425993494
 20
8.672392938
 11
11.0425993494
 21
8.6434151615
  0
LINE
  5
2F9
100
AcDbEntity
  8
0
100
AcDbLine
 62
4
  6
CONTINUOUS
 10
11.1005549024
 20
8.6393959303
 11
11.1005549024
 21
8.6104181538
  0
LINE
  5
2FA
100
AcDbEntity
  8
0
100
AcDbLine
 62
7
  6
CONTINUOUS
 10
12.9503631648
 20
9.9292620145
 11
12.9487493061
 21
9.9277317782
  0
LINE
  5
2FB
100
AcDbEntity
  8
0
100
AcDbLine
 62
4
  6
CONTINUOUS
 10
10.699005706
 20
8.0636777746
 11
10.6824469845
 21
8.0482673957
  0
LINE
  5
2FC
100
AcDbEntity
  8
0
100
AcDbLine
 62
4
  6
CONTINUOUS
 10
10.7900787021
 20
8.0573618409
 11
10.7735199805
 21
8.0419514619
  0
LINE
  5
2FD
100
AcDbEntity
  8
0
100
AcDbLine
 62
4
  6
CONTINUOUS
 10
10.4437253016
 20
8.5980138883
 11
10.4050882663
 21
8.6006933758
  0
LINE
  5
2FE
100
AcDbEntity
  8
0
100
AcDbLine
 62
4
  6
CONTINUOUS
 10
11.1005549024
 20
8.6104181538
 11
11.0425993494
 21
8.614437385
  0
LINE
  5
2FF
100
AcDbEntity
  8
0
100
AcDbLine
 62
4
  6
CONTINUOUS
 10
10.7335030667
 20
8.635873285
 11
10.6755475137
 21
8.6398925163
  0
LINE
  5
300
100
AcDbEntity
  8
0
100
AcDbLine
 62
4
  6
CONTINUOUS
 10
10.54031789
 20
8.6492707226
 11
10.482362337
 21
8.6532899538
  0
LINE
  5
301
100
AcDbEntity
  8
0
100
AcDbLine
 62
4
  6
CONTINUOUS
 10
10.4437253016
 20
8.6559694413
 11
10.3857697486
 21
8.6599886726
  0
LINE
  5
302
100
AcDbEntity
  8
0
100
AcDbLine
 62
4
  6
CONTINUOUS
 10
10.0776393918
 20
8.6813575854
 11
10.0196838388
 21
8.6853768166
  0
LINE
  5
303
100
AcDbEntity
  8
0
100
AcDbLine
 62
4
  6
CONTINUOUS
 10
9.9907060623
 20
8.6873864323
 11
9.9327505093
 21
8.6914056635
  0
LINE
  5
304
100
AcDbEntity
  8
0
100
AcDbLine
 62
4
  6
CONTINUOUS
 10
10.772140102
 20
8.6331937975
 11
10.8300956551
 21
8.6291745663
  0
LINE
  5
305
100
AcDbEntity
  8
0
100
AcDbLine
 62
4
  6
CONTINUOUS
 10
10.9460067611
 20
8.6211361038
 11
11.0039623141
 21
8.6171168725
  0
LINE
  5
306
100
AcDbEntity
  8
0
100
AcDbLine
 62
4
  6
CONTINUOUS
 10
11.0425993494
 20
8.6434151615
 11
11.1005549024
 21
8.6393959303
  0
LINE
  5
307
100
AcDbEntity
  8
0
100
AcDbLine
 62
4
  6
CONTINUOUS
 10
10.6755475137
 20
8.6785295516
 11
10.7335030667
 21
8.6745103204
  0
LINE
  5
308
100
AcDbEntity
  8
0
100
AcDbLine
 62
4
  6
CONTINUOUS
 10
10.7335030667
 20
8.6938288381
 11
10.6948660314
 21
8.6965083256
  0
LINE
  5
309
100
AcDbEntity
  8
0
100
AcDbLine
 62
4
  6
CONTINUOUS
 10
10.3384393803
 20
8.7212265978
 11
10.2804838273
 21
8.725245829
  0
LINE
  5
30A
100
AcDbEntity
  8
0
100
AcDbLine
 62
4
  6
CONTINUOUS
 10
9.9327505093
 20
8.7493612165
 11
9.9907060623
 21
8.7453419853
  0
LINE
  5
30B
100
AcDbEntity
  8
0
100
AcDbLine
 62
4
  6
CONTINUOUS
 10
10.482362337
 20
8.7112455068
 11
10.54031789
 21
8.7072262756
  0
LINE
  5
30C
100
AcDbEntity
  8
0
100
AcDbLine
 62
4
  6
CONTINUOUS
 10
10.5789549253
 20
8.7045467881
 11
10.6369104784
 21
8.7005275568
  0
LINE
  5
30D
100
AcDbEntity
  8
0
100
AcDbLine
 62
4
  6
CONTINUOUS
 10
10.9460067611
 20
8.6790916568
 11
11.0039623141
 21
8.6750724255
  0
LINE
  5
30E
100
AcDbEntity
  8
0
100
AcDbLine
 62
4
  6
CONTINUOUS
 10
11.0425993494
 20
8.672392938
 11
11.1005549024
 21
8.6683737068
  0
LINE
  5
30F
100
AcDbEntity
  8
0
100
AcDbLine
 62
4
  6
CONTINUOUS
 10
10.9001252816
 20
8.7112513247
 11
10.9146141699
 21
8.7102465169
  0
LINE
  5
310
100
AcDbEntity
  8
0
100
AcDbLine
 62
4
  6
CONTINUOUS
 10
9.9907060623
 20
8.8032975383
 11
9.9327505093
 21
8.8073167695
  0
LINE
  5
311
100
AcDbEntity
  8
0
100
AcDbLine
 62
4
  6
CONTINUOUS
 10
10.1066171683
 20
8.7952590758
 11
10.1645727213
 21
8.7912398445
  0
LINE
  5
312
100
AcDbEntity
  8
0
100
AcDbLine
 62
4
  6
CONTINUOUS
 10
8.7436957927
 20
8.9525631766
 11
8.8016513444
 21
8.9485439455
  0
LINE
  5
313
100
AcDbEntity
  8
0
100
AcDbLine
 62
4
  6
CONTINUOUS
 10
12.1727326332
 20
8.7147586641
 11
12.2306881849
 21
8.7107394329
  0
LINE
  5
314
100
AcDbEntity
  8
0
100
AcDbLine
 62
7
  6
CONTINUOUS
 10
11.3556720646
 20
5.3906814146
 11
11.3556720646
 21
5.1336086496
  0
LINE
  5
315
100
AcDbEntity
  8
0
100
AcDbLine
 62
7
  6
CONTINUOUS
 10
11.3993750235
 20
5.3876506041
 11
11.3993750235
 21
5.1366394655
  0
LINE
  5
316
100
AcDbEntity
  8
0
100
AcDbLine
 62
4
  6
CONTINUOUS
 10
12.1799770771
 20
8.8205081073
 11
12.194465965
 21
8.8291625558
  0
LINE
  5
317
100
AcDbEntity
  8
0
100
AcDbLine
 62
4
  6
CONTINUOUS
 10
12.2234437409
 20
8.7788566448
 11
12.194465965
 21
8.7615477443
  0
LINE
  5
318
100
AcDbEntity
  8
0
100
AcDbLine
 62
4
  6
CONTINUOUS
 10
10.9639453611
 20
8.0784216057
 11
10.9197887519
 21
8.0594055707
  0
LINE
  5
319
100
AcDbEntity
  8
0
100
AcDbLine
 62
4
  6
CONTINUOUS
 10
8.7654291246
 20
9.0669670684
 11
8.7799180125
 21
9.0659622606
  0
LINE
  5
31A
100
AcDbEntity
  8
0
100
AcDbLine
 62
4
  6
CONTINUOUS
 10
12.194465965
 20
8.8291625558
 11
12.208954853
 21
8.828157748
  0
LINE
  5
31B
100
AcDbEntity
  8
0
100
AcDbLine
 62
7
  6
CONTINUOUS
 10
11.8727517929
 20
5.3548218137
 11
11.8727517929
 21
5.259158342
  0
LINE
  5
31C
100
AcDbEntity
  8
0
100
AcDbLine
 62
4
  6
CONTINUOUS
 10
12.1727326332
 20
8.811351248
 11
12.1799770771
 21
8.8205081073
  0
LINE
  5
31D
100
AcDbEntity
  8
0
100
AcDbLine
 62
4
  6
CONTINUOUS
 10
12.194465965
 20
8.7615477443
 11
12.1799770771
 21
8.743234036
  0
LINE
  5
31E
100
AcDbEntity
  8
0
100
AcDbLine
 62
4
  6
CONTINUOUS
 10
12.2306881849
 20
8.7880135042
 11
12.2234437409
 21
8.7788566448
  0
LINE
  5
31F
100
AcDbEntity
  8
0
100
AcDbLine
 62
7
  6
CONTINUOUS
 10
10.577370447
 20
7.2372734332
 11
10.5789685098
 21
7.2387868395
  0
LINE
  5
320
100
AcDbEntity
  8
0
100
AcDbLine
 62
7
  6
CONTINUOUS
 10
10.5789620829
 20
7.2387822394
 11
10.5677025552
 21
7.2283040668
  0
LINE
  5
321
100
AcDbEntity
  8
0
100
AcDbLine
 62
4
  6
CONTINUOUS
 10
10.6924511652
 20
10.0943703553
 11
10.6852067212
 21
10.1045320181
  0
LINE
  5
322
100
AcDbEntity
  8
0
100
AcDbLine
 62
4
  6
CONTINUOUS
 10
10.735917829
 20
10.1396522248
 11
10.7504067169
 21
10.1193289009
  0
LINE
  5
323
100
AcDbEntity
  8
0
100
AcDbLine
 62
4
  6
CONTINUOUS
 10
10.735917829
 20
10.1879485202
 11
10.7431622729
 21
10.1777868531
  0
LINE
  5
324
100
AcDbEntity
  8
0
100
AcDbLine
 62
7
  6
CONTINUOUS
 10
11.8844619565
 20
5.3540097111
 11
11.8844619565
 21
5.2704694921
  0
LINE
  5
325
100
AcDbEntity
  8
0
100
AcDbLine
 62
4
  6
CONTINUOUS
 10
12.1799770771
 20
8.743234036
 11
12.1727326332
 21
8.7147586641
  0
LINE
  5
326
100
AcDbEntity
  8
0
100
AcDbLine
 62
4
  6
CONTINUOUS
 10
12.208954853
 20
8.828157748
 11
12.2234437409
 21
8.8174936839
  0
LINE
  5
327
100
AcDbEntity
  8
0
100
AcDbLine
 62
4
  6
CONTINUOUS
 10
10.7069400531
 20
10.0837062886
 11
10.6924511652
 21
10.0943703553
  0
LINE
  5
328
100
AcDbEntity
  8
0
100
AcDbLine
 62
4
  6
CONTINUOUS
 10
12.2306881849
 20
8.8073320168
 11
12.2306881849
 21
8.7880135042
  0
LINE
  5
329
100
AcDbEntity
  8
0
100
AcDbLine
 62
7
  6
CONTINUOUS
 10
12.414214104
 20
5.3172712749
 11
12.414214104
 21
10.6298636342
  0
LINE
  5
32A
100
AcDbEntity
  8
0
100
AcDbLine
 62
4
  6
CONTINUOUS
 10
10.721428941
 20
10.1503162889
 11
10.735917829
 21
10.1396522248
  0
LINE
  5
32B
100
AcDbEntity
  8
0
100
AcDbLine
 62
4
  6
CONTINUOUS
 10
10.721428941
 20
10.1986125843
 11
10.735917829
 21
10.1879485202
  0
LINE
  5
32C
100
AcDbEntity
  8
0
100
AcDbLine
 62
4
  6
CONTINUOUS
 10
12.2234437409
 20
8.8174936839
 11
12.2306881849
 21
8.8073320168
  0
LINE
  5
32D
100
AcDbEntity
  8
0
100
AcDbLine
 62
4
  6
CONTINUOUS
 10
10.721428941
 20
10.0827014809
 11
10.7069400531
 21
10.0837062886
  0
LINE
  5
32E
100
AcDbEntity
  8
0
100
AcDbLine
 62
4
  6
CONTINUOUS
 10
10.7069400531
 20
10.1513210967
 11
10.721428941
 21
10.1503162889
  0
LINE
  5
32F
100
AcDbEntity
  8
0
100
AcDbLine
 62
4
  6
CONTINUOUS
 10
10.7069400531
 20
10.1996173921
 11
10.721428941
 21
10.1986125843
  0
LINE
  5
330
100
AcDbEntity
  8
0
100
AcDbLine
 62
7
  6
CONTINUOUS
 10
12.6905788613
 20
7.1843259918
 11
12.6899304746
 21
7.1837113034
  0
LINE
  5
331
100
AcDbEntity
  8
0
100
AcDbLine
 62
7
  6
CONTINUOUS
 10
12.414214104
 20
10.6298636342
 11
8.5505105699
 21
10.8978123844
  0
LINE
  5
332
100
AcDbEntity
  8
0
100
AcDbLine
 62
7
  6
CONTINUOUS
 10
13.4494894301
 20
11.6298628682
 11
13.4494894301
 21
6.3172705088
  0
LINE
  5
333
100
AcDbEntity
  8
0
100
AcDbLine
 62
7
  6
CONTINUOUS
 10
13.4494894301
 20
6.3172705088
 11
12.414214104
 21
5.3172712749
  0
LINE
  5
334
100
AcDbEntity
  8
0
100
AcDbLine
 62
7
  6
CONTINUOUS
 10
11.7746818261
 20
5.2036795832
 11
11.7432990757
 21
5.1881771054
  0
LINE
  5
335
100
AcDbEntity
  8
0
100
AcDbLine
 62
7
  6
CONTINUOUS
 10
13.4494894301
 20
11.6298628682
 11
9.585785896
 21
11.8978116184
  0
ARC
  5
336
100
AcDbEntity
  8
0
100
AcDbCircle
 62
7
  6
CONTINUOUS
 10
11.2062314109
 20
7.6050771688
 40
2.4759824616
100
AcDbArc
 50
273.460253038
 51
274.4740090323
  0
ARC
  5
337
100
AcDbEntity
  8
0
100
AcDbCircle
 62
7
  6
CONTINUOUS
 10
10.9640880493
 20
6.2298799359
 40
1.0819211298
100
AcDbArc
 50
254.6141230724
 51
256.3642747627
  0
ARC
  5
338
100
AcDbEntity
  8
0
100
AcDbCircle
 62
7
  6
CONTINUOUS
 10
11.3964502437
 20
5.9675926605
 40
0.8524210625
100
AcDbArc
 50
293.9860710649
 51
296.3129872661
  0
ARC
  5
339
100
AcDbEntity
  8
0
100
AcDbCircle
 62
7
  6
CONTINUOUS
 10
11.051459425
 20
7.2085095623
 40
0.4621376747
100
AcDbArc
 50
266.0717465104
 51
274.1442412427
  0
ARC
  5
33A
100
AcDbEntity
  8
0
100
AcDbCircle
 62
7
  6
CONTINUOUS
 10
11.7837271721
 20
5.3634645303
 40
0.137131922
100
AcDbArc
 50
310.4805308012
 51
313.9817446454
  0
ARC
  5
33B
100
AcDbEntity
  8
0
100
AcDbCircle
 62
7
  6
CONTINUOUS
 10
10.6711822391
 20
5.2847073648
 40
0.0981089067
100
AcDbArc
 50
254.8737411392
 51
256.015771027
  0
ARC
  5
33C
100
AcDbEntity
  8
0
100
AcDbCircle
 62
7
  6
CONTINUOUS
 10
11.4655864413
 20
10.2716987805
 40
0.0911930833
100
AcDbArc
 50
313.9590358819
 51
320.2936131215
  0
ARC
  5
33D
100
AcDbEntity
  8
0
100
AcDbCircle
 62
7
  6
CONTINUOUS
 10
10.7005736891
 20
7.1555416152
 40
0.0379835395
100
AcDbArc
 50
163.5583126529
 51
170.9215633388
  0
ARC
  5
33E
100
AcDbEntity
  8
0
100
AcDbCircle
 62
7
  6
CONTINUOUS
 10
12.676191689
 20
7.1494786579
 40
0.0147440802
100
AcDbArc
 50
86.0359601072
 51
92.2761186412
  0
ARC
  5
33F
100
AcDbEntity
  8
0
100
AcDbCircle
 62
7
  6
CONTINUOUS
 10
12.6457145176
 20
6.7100155374
 40
0.0147372282
100
AcDbArc
 50
260.0441513515
 51
266.0309558162
  0
LINE
  5
340
100
AcDbEntity
  8
0
100
AcDbLine
 62
7
  6
CONTINUOUS
 10
11.8844619565
 20
5.2704694921
 11
11.878955575
 21
5.2647897346
  0
SPLINE
  5
341
100
AcDbEntity
  8
0
100
AcDbSpline
 62
7
  6
CONTINUOUS
 70
0
 71
3
 72
9
 73
5
 74
0
 42
0.0000001
 43
0.0000001
 44
0.0000000001
 40
0.0
 40
0.0
 40
0.0
 40
0.0
 40
0.5046579896
 40
1.0
 40
1.0
 40
1.0
 40
1.0
 10
11.8727517929
 20
5.259158342
 30
0.0
 10
11.8566584804
 20
5.2490008434
 30
0.0
 10
11.8243406796
 20
5.2295405496
 30
0.0
 10
11.7910522795
 20
5.2117712147
 30
0.0
 10
11.7743066673
 20
5.2034943743
 30
0.0
  0
SPLINE
  5
342
100
AcDbEntity
  8
0
100
AcDbSpline
 62
7
  6
CONTINUOUS
 70
0
 71
3
 72
31
 73
27
 74
0
 42
0.0000001
 43
0.0000001
 44
0.0000000001
 40
0.0
 40
0.0
 40
0.0
 40
0.0
 40
0.0925524391
 40
0.1824258917
 40
0.2692397526
 40
0.3526178199
 40
0.4322120188
 40
0.507701066
 40
0.5787931274
 40
0.6452340249
 40
0.6766438496
 40
0.706815716
 40
0.735730511
 40
0.7633744181
 40
0.7897380527
 40
0.8148160082
 40
0.8386101864
 40
0.8611294084
 40
0.8823895351
 40
0.9024175039
 40
0.9212519175
 40
0.9389443537
 40
0.9555644202
 40
0.9712015852
 40
0.9859674457
 40
1.0
 40
1.0
 40
1.0
 40
1.0
 10
11.0021493158
 20
7.0621928576
 30
0.0
 10
10.9904379944
 20
7.0633310203
 30
0.0
 10
10.9673760664
 20
7.0658062814
 30
0.0
 10
10.9334256224
 20
7.0701877607
 30
0.0
 10
10.9007366246
 20
7.0751672287
 30
0.0
 10
10.8694663282
 20
7.0807207305
 30
0.0
 10
10.8397659312
 20
7.0868206532
 30
0.0
 10
10.8117781927
 20
7.0934369951
 30
0.0
 10
10.7856379616
 20
7.1005376184
 30
0.0
 10
10.7651301868
 20
7.1069430551
 30
0.0
 10
10.749762704
 20
7.1123084378
 30
0.0
 10
10.7389917781
 20
7.1163559002
 30
0.0
 10
10.7287715017
 20
7.1204977504
 30
0.0
 10
10.7191140355
 20
7.124728902
 30
0.0
 10
10.7100308046
 20
7.1290440509
 30
0.0
 10
10.7015327803
 20
7.1334384315
 30
0.0
 10
10.6936299355
 20
7.1379066763
 30
0.0
 10
10.6863313989
 20
7.1424433488
 30
0.0
 10
10.679645945
 20
7.1470436819
 30
0.0
 10
10.673581246
 20
7.1517023846
 30
0.0
 10
10.6681441135
 20
7.1564142265
 30
0.0
 10
10.663341318
 20
7.1611749002
 30
0.0
 10
10.6591786621
 20
7.1659795701
 30
0.0
 10
10.6556612812
 20
7.1708239777
 30
0.0
 10
10.6527956623
 20
7.1757032035
 30
0.0
 10
10.6512900287
 20
7.1790508736
 30
0.0
 10
10.6506583402
 20
7.1807192991
 30
0.0
  0
SPLINE
  5
343
100
AcDbEntity
  8
0
100
AcDbSpline
 62
7
  6
CONTINUOUS
 70
0
 71
3
 72
15
 73
11
 74
0
 42
0.0000001
 43
0.0000001
 44
0.0000000001
 40
0.0
 40
0.0
 40
0.0
 40
0.0
 40
0.0987268369
 40
0.2046768384
 40
0.318074366
 40
0.4390702027
 40
0.5677557721
 40
0.7041647211
 40
0.8482675177
 40
1.0
 40
1.0
 40
1.0
 40
1.0
 10
10.5789671725
 20
7.2387869358
 30
0.0
 10
10.581333216
 20
7.2409884314
 30
0.0
 10
10.5864217403
 20
7.2453578174
 30
0.0
 10
10.5947603574
 20
7.2516035522
 30
0.0
 10
10.6040550072
 20
7.2577566395
 30
0.0
 10
10.6142901175
 20
7.2638073798
 30
0.0
 10
10.6254503139
 20
7.2697472099
 30
0.0
 10
10.637518718
 20
7.2755667761
 30
0.0
 10
10.6504762476
 20
7.2812575635
 30
0.0
 10
10.6594645376
 20
7.2848670099
 30
0.0
 10
10.6640994146
 20
7.2866527277
 30
0.0
  0
SPLINE
  5
344
100
AcDbEntity
  8
0
100
AcDbSpline
 62
7
  6
CONTINUOUS
 70
0
 71
3
 72
23
 73
19
 74
0
 42
0.0000001
 43
0.0000001
 44
0.0000000001
 40
0.0
 40
0.0
 40
0.0
 40
0.0
 40
0.0433457487
 40
0.0887141091
 40
0.1363573647
 40
0.1864949178
 40
0.2392956118
 40
0.2948831072
 40
0.3533267235
 40
0.4146494686
 40
0.4788289665
 40
0.5458050177
 40
0.6154867711
 40
0.6877590178
 40
0.7624900115
 40
0.8395391943
 40
0.9187591375
 40
1.0
 40
1.0
 40
1.0
 40
1.0
 10
10.6267707197
 20
5.1971471997
 30
0.0
 10
10.6241472945
 20
5.1984412733
 30
0.0
 10
10.618879903
 20
5.2013010559
 30
0.0
 10
10.6111289599
 20
5.2062746558
 30
0.0
 10
10.603366717
 20
5.212037504
 30
0.0
 10
10.5956003021
 20
5.2186007196
 30
0.0
 10
10.5878337238
 20
5.2259659492
 30
0.0
 10
10.5800731764
 20
5.2341290547
 30
0.0
 10
10.5723230577
 20
5.2430770687
 30
0.0
 10
10.5645885068
 20
5.2527907895
 30
0.0
 10
10.5568738277
 20
5.2632445046
 30
0.0
 10
10.5491827693
 20
5.2744072875
 30
0.0
 10
10.5415188622
 20
5.2862444629
 30
0.0
 10
10.5338845009
 20
5.2987182442
 30
0.0
 10
10.5262818854
 20
5.3117896152
 30
0.0
 10
10.5187122545
 20
5.3254187996
 30
0.0
 10
10.5111764942
 20
5.3395662754
 30
0.0
 10
10.5062347834
 20
5.3492023309
 30
0.0
 10
10.5037662907
 20
5.354097809
 30
0.0
  0
SPLINE
  5
345
100
AcDbEntity
  8
0
100
AcDbSpline
 62
7
  6
CONTINUOUS
 70
0
 71
3
 72
46
 73
42
 74
0
 42
0.0000001
 43
0.0000001
 44
0.0000000001
 40
0.0
 40
0.0
 40
0.0
 40
0.0
 40
0.009987442
 40
0.0204476137
 40
0.0313771087
 40
0.042770719
 40
0.0546216827
 40
0.0669224299
 40
0.0796639586
 40
0.092836054
 40
0.1204269473
 40
0.1495982457
 40
0.1802404493
 40
0.2122336402
 40
0.2454488195
 40
0.2797495924
 40
0.3149928343
 40
0.3510297406
 40
0.3877071311
 40
0.4248680709
 40
0.4623528245
 40
0.4999999707
 40
0.5376471181
 40
0.5751319032
 40
0.6122928703
 40
0.6489702712
 40
0.6850072643
 40
0.7202505753
 40
0.7545513746
 40
0.7877666801
 40
0.8197599616
 40
0.8504022183
 40
0.879573693
 40
0.9071646914
 40
0.9330772419
 40
0.9453781444
 40
0.9572291907
 40
0.9686227884
 40
0.9795523871
 40
0.9900125566
 40
1.0
 40
1.0
 40
1.0
 40
1.0
 10
11.7433044122
 20
5.1881798047
 30
0.0
 10
11.7399636493
 20
5.1865295027
 30
0.0
 10
11.7330669465
 20
5.1832653378
 30
0.0
 10
11.7223402118
 20
5.1785740025
 30
0.0
 10
11.7110035147
 20
5.1739795634
 30
0.0
 10
11.6990700378
 20
5.1694873506
 30
0.0
 10
11.6865534922
 20
5.1651022597
 30
0.0
 10
11.6734681369
 20
5.1608296806
 30
0.0
 10
11.6598290128
 20
5.1566744124
 30
0.0
 10
11.6406282433
 20
5.1512121563
 30
0.0
 10
11.6153475247
 20
5.1447379572
 30
0.0
 10
11.5835194444
 20
5.1376234081
 30
0.0
 10
11.5498942002
 20
5.1310819396
 30
0.0
 10
11.5146267967
 20
5.1251441472
 30
0.0
 10
11.4778795893
 20
5.1198376568
 30
0.0
 10
11.439822015
 20
5.1151874582
 30
0.0
 10
11.4006296403
 20
5.1112153827
 30
0.0
 10
11.3604834011
 20
5.1079397808
 30
0.0
 10
11.3195686567
 20
5.1053760852
 30
0.0
 10
11.2780743569
 20
5.103536366
 30
0.0
 10
11.2361921888
 20
5.1024289965
 30
0.0
 10
11.1941156389
 20
5.1020592536
 30
0.0
 10
11.1520390777
 20
5.1024289776
 30
0.0
 10
11.110156884
 20
5.1035362282
 30
0.0
 10
11.0686625566
 20
5.1053759217
 30
0.0
 10
11.0277477657
 20
5.1079396074
 30
0.0
 10
10.9876014548
 20
5.1112150928
 30
0.0
 10
10.9484090083
 20
5.1151871368
 30
0.0
 10
10.9103513499
 20
5.1198373404
 30
0.0
 10
10.8736040417
 20
5.1251437155
 30
0.0
 10
10.8383365027
 20
5.1310814664
 30
0.0
 10
10.8047112348
 20
5.1376229843
 30
0.0
 10
10.7728826829
 20
5.1447373371
 30
0.0
 10
10.7429973579
 20
5.1523912239
 30
0.0
 10
10.7194335465
 20
5.1593040577
 30
0.0
 10
10.7016765859
 20
5.1651015783
 30
0.0
 10
10.6891599361
 20
5.1694867045
 30
0.0
 10
10.677226426
 20
5.1739789921
 30
0.0
 10
10.6658896317
 20
5.1785732809
 30
0.0
 10
10.6551628269
 20
5.1832645552
 30
0.0
 10
10.6482661402
 20
5.186528754
 30
0.0
 10
10.6449253774
 20
5.1881790573
 30
0.0
  0
SPLINE
  5
346
100
AcDbEntity
  8
0
100
AcDbSpline
 62
7
  6
CONTINUOUS
 70
0
 71
3
 72
11
 73
7
 74
0
 42
0.0000001
 43
0.0000001
 44
0.0000000001
 40
0.0
 40
0.0
 40
0.0
 40
0.0
 40
0.2464179584
 40
0.4942839735
 40
0.7449565552
 40
1.0
 40
1.0
 40
1.0
 40
1.0
 10
10.6770343952
 20
5.1867339582
 30
0.0
 10
10.6745904415
 20
5.1866084934
 30
0.0
 10
10.6696779726
 20
5.1865205045
 30
0.0
 10
10.6622838996
 20
5.1869142791
 30
0.0
 10
10.654854326
 20
5.1878696102
 30
0.0
 10
10.6499315171
 20
5.1888941218
 30
0.0
 10
10.6474737503
 20
5.1895061824
 30
0.0
  0
SPLINE
  5
347
100
AcDbEntity
  8
0
100
AcDbSpline
 62
7
  6
CONTINUOUS
 70
0
 71
3
 72
9
 73
5
 74
0
 42
0.0000001
 43
0.0000001
 44
0.0000000001
 40
0.0
 40
0.0
 40
0.0
 40
0.0
 40
0.4896161665
 40
1.0
 40
1.0
 40
1.0
 40
1.0
 10
10.6455810181
 20
5.1899976238
 30
0.0
 10
10.6424068124
 20
5.1908556056
 30
0.0
 10
10.6360081729
 20
5.1929349893
 30
0.0
 10
10.6298446691
 20
5.195630893
 30
0.0
 10
10.6267707197
 20
5.1971471997
 30
0.0
  0
SPLINE
  5
348
100
AcDbEntity
  8
0
100
AcDbSpline
 62
7
  6
CONTINUOUS
 70
0
 71
3
 72
20
 73
16
 74
0
 42
0.0000001
 43
0.0000001
 44
0.0000000001
 40
0.0
 40
0.0
 40
0.0
 40
0.0
 40
0.1483778358
 40
0.2920036506
 40
0.4298208121
 40
0.496239665
 40
0.5608386863
 40
0.6235057727
 40
0.6841342796
 40
0.7426234178
 40
0.7988804275
 40
0.8528184516
 40
0.9043614432
 40
0.9534405325
 40
1.0
 40
1.0
 40
1.0
 40
1.0
 10
11.016187932
 20
7.0357922702
 30
0.0
 10
10.9980107978
 20
7.0371572969
 30
0.0
 10
10.9622699584
 20
7.0402865564
 30
0.0
 10
10.909801919
 20
7.0462852305
 30
0.0
 10
10.867491937
 20
7.0523483202
 30
0.0
 10
10.8349185808
 20
7.0578083868
 30
0.0
 10
10.8115187754
 20
7.0621298855
 30
0.0
 10
10.7888953364
 20
7.0667191524
 30
0.0
 10
10.7670940205
 20
7.0715667957
 30
0.0
 10
10.7461589889
 20
7.0766631842
 30
0.0
 10
10.7261325295
 20
7.0819974219
 30
0.0
 10
10.7070551733
 20
7.0875592386
 30
0.0
 10
10.6889652189
 20
7.0933365998
 30
0.0
 10
10.6718994129
 20
7.0993183123
 30
0.0
 10
10.6609347592
 20
7.1035468701
 30
0.0
 10
10.6556353826
 20
7.1056994091
 30
0.0
  0
SPLINE
  5
349
100
AcDbEntity
  8
0
100
AcDbSpline
 62
7
  6
CONTINUOUS
 70
0
 71
3
 72
15
 73
11
 74
0
 42
0.0000001
 43
0.0000001
 44
0.0000000001
 40
0.0
 40
0.0
 40
0.0
 40
0.0
 40
0.145605613
 40
0.285332269
 40
0.4191503
 40
0.5470448989
 40
0.66902346
 40
0.7851258766
 40
0.8954184386
 40
1.0
 40
1.0
 40
1.0
 40
1.0
 10
10.6556353826
 20
7.1056994091
 30
0.0
 10
10.6521356458
 20
7.1071209574
 30
0.0
 10
10.6453098563
 20
7.1099874049
 30
0.0
 10
10.6353956575
 20
7.11445724
 30
0.0
 10
10.6260247582
 20
7.1190047019
 30
0.0
 10
10.6172062621
 20
7.123625492
 30
0.0
 10
10.6089487434
 20
7.1283154415
 30
0.0
 10
10.6012597804
 20
7.133069858
 30
0.0
 10
10.5941468638
 20
7.137884113
 30
0.0
 10
10.5896762399
 20
7.1412183538
 30
0.0
 10
10.5875445785
 20
7.1428967992
 30
0.0
  0
SPLINE
  5
34A
100
AcDbEntity
  8
0
100
AcDbSpline
 62
7
  6
CONTINUOUS
 70
0
 71
3
 72
9
 73
5
 74
0
 42
0.0000001
 43
0.0000001
 44
0.0000000001
 40
0.0
 40
0.0
 40
0.0
 40
0.0
 40
0.4845688301
 40
1.0
 40
1.0
 40
1.0
 40
1.0
 10
10.5673989161
 20
7.2261054372
 30
0.0
 10
10.5688545165
 20
7.2280389305
 30
0.0
 10
10.5720414504
 20
7.2318932122
 30
0.0
 10
10.5755188703
 20
7.2354849474
 30
0.0
 10
10.577370447
 20
7.2372734332
 30
0.0
  0
SPLINE
  5
34B
100
AcDbEntity
  8
0
100
AcDbSpline
 62
7
  6
CONTINUOUS
 70
0
 71
3
 72
22
 73
18
 74
0
 42
0.0000001
 43
0.0000001
 44
0.0000000001
 40
0.0
 40
0.0
 40
0.0
 40
0.0
 40
0.1577451028
 40
0.2343558133
 40
0.3091620348
 40
0.3819516128
 40
0.4525208759
 40
0.5206751233
 40
0.5862314649
 40
0.6490176598
 40
0.7088768309
 40
0.7656656465
 40
0.8192602786
 40
0.8695559039
 40
0.9164726517
 40
0.9599593521
 40
1.0
 40
1.0
 40
1.0
 40
1.0
 10
11.0243793141
 20
7.0191478042
 30
0.0
 10
11.0012019328
 20
7.0207665497
 30
0.0
 10
10.9668008587
 20
7.0236951391
 30
0.0
 10
10.9215388954
 20
7.028694427
 30
0.0
 10
10.8887817886
 20
7.0328892919
 30
0.0
 10
10.8569871139
 20
7.0375522463
 30
0.0
 10
10.8262548171
 20
7.0426684879
 30
0.0
 10
10.796681629
 20
7.0482219628
 30
0.0
 10
10.7683605072
 20
7.0541945571
 30
0.0
 10
10.7413804039
 20
7.0605678312
 30
0.0
 10
10.7158258689
 20
7.0673208106
 30
0.0
 10
10.6917769021
 20
7.0744326752
 30
0.0
 10
10.6693083646
 20
7.0818802247
 30
0.0
 10
10.6484900888
 20
7.0896402692
 30
0.0
 10
10.6293857366
 20
7.0976883569
 30
0.0
 10
10.612054581
 20
7.1059989047
 30
0.0
 10
10.6012723256
 20
7.1119427849
 30
0.0
 10
10.5962108558
 20
7.1149696234
 30
0.0
  0
SPLINE
  5
34C
100
AcDbEntity
  8
0
100
AcDbSpline
 62
7
  6
CONTINUOUS
 70
0
 71
3
 72
15
 73
11
 74
0
 42
0.0000001
 43
0.0000001
 44
0.0000000001
 40
0.0
 40
0.0
 40
0.0
 40
0.0
 40
0.1468666051
 40
0.2875554425
 40
0.4220030733
 40
0.5501646465
 40
0.672014761
 40
0.7875650607
 40
0.896865445
 40
1.0
 40
1.0
 40
1.0
 40
1.0
 10
10.7623198152
 20
7.3008382344
 30
0.0
 10
10.7588185621
 20
7.3021149573
 30
0.0
 10
10.7519921081
 20
7.3046947285
 30
0.0
 10
10.7420753608
 20
7.3087388496
 30
0.0
 10
10.7327108183
 20
7.3128699375
 30
0.0
 10
10.7239097317
 20
7.3170828502
 30
0.0
 10
10.7156829246
 20
7.3213728886
 30
0.0
 10
10.7080401138
 20
7.3257349269
 30
0.0
 10
10.7009903574
 20
7.3301633135
 30
0.0
 10
10.6965642501
 20
7.3332451035
 30
0.0
 10
10.6944584455
 20
7.334798996
 30
0.0
  0
SPLINE
  5
34D
100
AcDbEntity
  8
0
100
AcDbSpline
 62
7
  6
CONTINUOUS
 70
0
 71
3
 72
15
 73
11
 74
0
 42
0.0000001
 43
0.0000001
 44
0.0000000001
 40
0.0
 40
0.0
 40
0.0
 40
0.0
 40
0.1188712634
 40
0.2340988406
 40
0.348493648
 40
0.4649309261
 40
0.5861276541
 40
0.7144638197
 40
0.8519087604
 40
1.0
 40
1.0
 40
1.0
 40
1.0
 10
10.6506583402
 20
7.1807192991
 30
0.0
 10
10.6499181531
 20
7.1826742929
 30
0.0
 10
10.648732902
 20
7.1866364174
 30
0.0
 10
10.6479294694
 20
7.1927386565
 30
0.0
 10
10.6481450327
 20
7.1988488709
 30
0.0
 10
10.6493788069
 20
7.2049423531
 30
0.0
 10
10.6516202843
 20
7.2110000236
 30
0.0
 10
10.6548552725
 20
7.2170093649
 30
0.0
 10
10.6590710709
 20
7.2229608654
 30
0.0
 10
10.6623954809
 20
7.2267365106
 30
0.0
 10
10.6641999429
 20
7.2286143215
 30
0.0
  0
SPLINE
  5
34E
100
AcDbEntity
  8
0
100
AcDbSpline
 62
7
  6
CONTINUOUS
 70
0
 71
3
 72
21
 73
17
 74
0
 42
0.0000001
 43
0.0000001
 44
0.0000000001
 40
0.0
 40
0.0
 40
0.0
 40
0.0
 40
0.066508053
 40
0.1323638847
 40
0.1975675177
 40
0.2621277743
 40
0.3260642674
 40
0.3894049724
 40
0.4521874815
 40
0.5144551981
 40
0.5762571041
 40
0.6376446408
 40
0.698669726
 40
0.7593834445
 40
0.8800506697
 40
1.0
 40
1.0
 40
1.0
 40
1.0
 10
11.7429718023
 20
5.1887830065
 30
0.0
 10
11.7358406598
 20
5.185615053
 30
0.0
 10
11.7215551081
 20
5.1795172083
 30
0.0
 10
11.6999586414
 20
5.1710865471
 30
0.0
 10
11.6783118977
 20
5.1634456058
 30
0.0
 10
11.6566298308
 20
5.1566209174
 30
0.0
 10
11.634929906
 20
5.150627264
 30
0.0
 10
11.6132289695
 20
5.1454757371
 30
0.0
 10
11.5915452711
 20
5.1411639152
 30
0.0
 10
11.5698953857
 20
5.1376848564
 30
0.0
 10
11.5482953265
 20
5.1350201469
 30
0.0
 10
11.5267589706
 20
5.1331462192
 30
0.0
 10
11.5052979632
 20
5.1320324579
 30
0.0
 10
11.4768575
 20
5.1315149746
 30
0.0
 10
11.4414957735
 20
5.1325771541
 30
0.0
 10
11.4133584228
 20
5.1350520027
 30
0.0
 10
11.3993750235
 20
5.1366394655
 30
0.0
  0
SPLINE
  5
34F
100
AcDbEntity
  8
0
100
AcDbSpline
 62
7
  6
CONTINUOUS
 70
0
 71
3
 72
21
 73
17
 74
0
 42
0.0000001
 43
0.0000001
 44
0.0000000001
 40
0.0
 40
0.0
 40
0.0
 40
0.0
 40
0.1229782982
 40
0.1846437121
 40
0.2464406137
 40
0.308381136
 40
0.3704758731
 40
0.4327332085
 40
0.4951582589
 40
0.5577520389
 40
0.6205114325
 40
0.6834297978
 40
0.7464974582
 40
0.8097023547
 40
0.8730312648
 40
1.0
 40
1.0
 40
1.0
 40
1.0
 10
11.3556720646
 20
5.1336086496
 30
0.0
 10
11.3292864904
 20
5.1282464615
 30
0.0
 10
11.2894556672
 20
5.1211793227
 30
0.0
 10
11.235954016
 20
5.1141405248
 30
0.0
 10
11.1955504664
 20
5.1101497201
 30
0.0
 10
11.1549385438
 20
5.1075551883
 30
0.0
 10
11.1141571136
 20
5.1064454579
 30
0.0
 10
11.0732563118
 20
5.1068889455
 30
0.0
 10
11.0322942528
 20
5.108927989
 30
0.0
 10
10.9913336445
 20
5.1125746092
 30
0.0
 10
10.9504369487
 20
5.117807715
 30
0.0
 10
10.9096618024
 20
5.1245766374
 30
0.0
 10
10.8690576934
 20
5.1328059016
 30
0.0
 10
10.8286628893
 20
5.142401521
 30
0.0
 10
10.7750779116
 20
5.156887019
 30
0.0
 10
10.7353306723
 20
5.1694598137
 30
0.0
 10
10.7090271906
 20
5.1784536239
 30
0.0
  0
SPLINE
  5
350
100
AcDbEntity
  8
0
100
AcDbSpline
 62
7
  6
CONTINUOUS
 70
0
 71
3
 72
17
 73
13
 74
0
 42
0.0000001
 43
0.0000001
 44
0.0000000001
 40
0.0
 40
0.0
 40
0.0
 40
0.0
 40
0.1504740482
 40
0.2917305938
 40
0.4244676119
 40
0.4879385597
 40
0.549641313
 40
0.668301051
 40
0.7818340393
 40
0.8918017529
 40
0.9460163028
 40
1.0
 40
1.0
 40
1.0
 40
1.0
 10
12.7053852895
 20
7.351676538
 30
0.0
 10
12.7066291682
 20
7.3528780326
 30
0.0
 10
12.7091152869
 20
7.3551324093
 30
0.0
 10
12.7129647524
 20
7.3581367027
 30
0.0
 10
12.7162163199
 20
7.3602614941
 30
0.0
 10
12.7188091468
 20
7.3617003491
 30
0.0
 10
12.7213256212
 20
7.3629356473
 30
0.0
 10
12.7244724487
 20
7.3641838368
 30
0.0
 10
12.7282817504
 20
7.3651975277
 30
0.0
 10
12.7314554436
 20
7.3656212605
 30
0.0
 10
12.7339630418
 20
7.3657017795
 30
0.0
 10
12.7352069557
 20
7.3656578025
 30
0.0
 10
12.7358259046
 20
7.3656148824
 30
0.0
  0
SPLINE
  5
351
100
AcDbEntity
  8
0
100
AcDbSpline
 62
7
  6
CONTINUOUS
 70
0
 71
3
 72
19
 73
15
 74
0
 42
0.0000001
 43
0.0000001
 44
0.0000000001
 40
0.0
 40
0.0
 40
0.0
 40
0.0
 40
0.1504613852
 40
0.2916984919
 40
0.4244192036
 40
0.4878835354
 40
0.5495802287
 40
0.668227132
 40
0.7255606127
 40
0.7817999309
 40
0.8371467096
 40
0.8918136625
 40
0.9460222505
 40
1.0
 40
1.0
 40
1.0
 40
1.0
 10
12.964204121
 20
10.1343340481
 30
0.0
 10
12.9666778201
 20
10.1367234581
 30
0.0
 10
12.9716217898
 20
10.141206662
 30
0.0
 10
12.9792770652
 20
10.1471810286
 30
0.0
 10
12.9857431264
 20
10.1514064527
 30
0.0
 10
12.9908994181
 20
10.1542677878
 30
0.0
 10
12.9959035791
 20
10.156724336
 30
0.0
 10
13.0009663448
 20
10.1587323156
 30
0.0
 10
13.0060575802
 20
10.1602433641
 30
0.0
 10
13.0098219019
 20
10.1611143563
 30
0.0
 10
13.0135736999
 20
10.1617351358
 30
0.0
 10
13.0173119699
 20
10.162105469
 30
0.0
 10
13.0210352092
 20
10.1622251838
 30
0.0
 10
13.0235088239
 20
10.1621377069
 30
0.0
 10
13.024739694
 20
10.1620523514
 30
0.0
  0
SPLINE
  5
352
100
AcDbEntity
  8
0
100
AcDbSpline
 62
7
  6
CONTINUOUS
 70
0
 71
3
 72
25
 73
21
 74
0
 42
0.0000001
 43
0.0000001
 44
0.0000000001
 40
0.0
 40
0.0
 40
0.0
 40
0.0
 40
0.06377716
 40
0.127343222
 40
0.190700148
 40
0.2538535537
 40
0.3168099705
 40
0.3795782475
 40
0.4421688972
 40
0.5045942157
 40
0.5668681101
 40
0.629005993
 40
0.6910246336
 40
0.7219973337
 40
0.7529470518
 40
0.8147821333
 40
0.8765547559
 40
0.9074265679
 40
0.9382904805
 40
1.0
 40
1.0
 40
1.0
 40
1.0
 10
11.3275474851
 20
6.7207799507
 30
0.0
 10
11.3275474851
 20
6.7072796091
 30
0.0
 10
11.3269013649
 20
6.6803190337
 30
0.0
 10
11.323984761
 20
6.6400420497
 30
0.0
 10
11.3191288478
 20
6.6000845038
 30
0.0
 10
11.3123448584
 20
6.5605398118
 30
0.0
 10
11.3036482365
 20
6.5214987022
 30
0.0
 10
11.293058996
 20
6.4830513056
 30
0.0
 10
11.2806014263
 20
6.4452862203
 30
0.0
 10
11.2663042012
 20
6.4082905813
 30
0.0
 10
11.250200111
 20
6.3721495611
 30
0.0
 10
11.2323265655
 20
6.3369470722
 30
0.0
 10
11.2159834975
 20
6.3084473137
 30
0.0
 10
11.2020693583
 20
6.2862022163
 30
0.0
 10
11.1876129976
 20
6.2643521359
 30
0.0
 10
11.1685182266
 20
6.2377670288
 30
0.0
 10
11.1480954939
 20
6.2122090318
 30
0.0
 10
11.1309981671
 20
6.1924267104
 30
0.0
 10
11.1134075283
 20
6.1731005977
 30
0.0
 10
11.0996599507
 20
6.1591202118
 30
0.0
 10
11.0902645613
 20
6.1500449794
 30
0.0
  0
SPLINE
  5
353
100
AcDbEntity
  8
0
100
AcDbSpline
 62
7
  6
CONTINUOUS
 70
0
 71
3
 72
23
 73
19
 74
0
 42
0.0000001
 43
0.0000001
 44
0.0000000001
 40
0.0
 40
0.0
 40
0.0
 40
0.0
 40
0.063776909
 40
0.1273449468
 40
0.1907019575
 40
0.2538561145
 40
0.3168131979
 40
0.3795820804
 40
0.4421733815
 40
0.5045993354
 40
0.5668738682
 40
0.6290123838
 40
0.6910316538
 40
0.75294965
 40
0.8147853622
 40
0.8765586114
 40
0.9382898593
 40
1.0
 40
1.0
 40
1.0
 40
1.0
 10
11.7525548738
 20
10.0720461805
 30
0.0
 10
11.7525548738
 20
10.0652575833
 30
0.0
 10
11.7522299339
 20
10.0517003217
 30
0.0
 10
11.7507633828
 20
10.0314469107
 30
0.0
 10
11.7483215335
 20
10.0113540321
 30
0.0
 10
11.7449102543
 20
9.9914688825
 30
0.0
 10
11.7405371502
 20
9.9718369101
 30
0.0
 10
11.7352123355
 20
9.9525034978
 30
0.0
 10
11.7289480585
 20
9.9335131839
 30
0.0
 10
11.7217587071
 20
9.9149097603
 30
0.0
 10
11.7136607952
 20
9.8967361449
 30
0.0
 10
11.7046729601
 20
9.8790342566
 30
0.0
 10
11.6948159281
 20
9.8618449182
 30
0.0
 10
11.6841123954
 20
9.8452077721
 30
0.0
 10
11.6725870405
 20
9.8291612498
 30
0.0
 10
11.660266288
 20
9.8137422546
 30
0.0
 10
11.647179056
 20
9.7989868261
 30
0.0
 10
11.6379616489
 20
9.789613193
 30
0.0
 10
11.6332371597
 20
9.7850496673
 30
0.0
  0
SPLINE
  5
354
100
AcDbEntity
  8
0
100
AcDbSpline
 62
7
  6
CONTINUOUS
 70
0
 71
3
 72
23
 73
19
 74
0
 42
0.0000001
 43
0.0000001
 44
0.0000000001
 40
0.0
 40
0.0
 40
0.0
 40
0.0
 40
0.0637772815
 40
0.1273447908
 40
0.1907019866
 40
0.2538561396
 40
0.3168131864
 40
0.379582096
 40
0.4421733877
 40
0.5045993365
 40
0.5668738645
 40
0.6290123802
 40
0.6910316524
 40
0.7529496465
 40
0.8147853538
 40
0.8765586016
 40
0.9382898535
 40
1.0
 40
1.0
 40
1.0
 40
1.0
 10
11.0851236338
 20
6.7566164779
 30
0.0
 10
11.0851236338
 20
6.7472820545
 30
0.0
 10
11.0846768591
 20
6.7286407465
 30
0.0
 10
11.0826602965
 20
6.7007921632
 30
0.0
 10
11.0793027385
 20
6.6731643652
 30
0.0
 10
11.0746121597
 20
6.6458221309
 30
0.0
 10
11.068599099
 20
6.6188280364
 30
0.0
 10
11.0612774242
 20
6.5922444657
 30
0.0
 10
11.0526639356
 20
6.5661326692
 30
0.0
 10
11.0427784529
 20
6.540552863
 30
0.0
 10
11.0316437201
 20
6.5155640375
 30
0.0
 10
11.0192853564
 20
6.491223831
 30
0.0
 10
11.0057318049
 20
6.467588405
 30
0.0
 10
10.9910142736
 20
6.4447122764
 30
0.0
 10
10.9751667444
 20
6.4226482588
 30
0.0
 10
10.9582255667
 20
6.4014470791
 30
0.0
 10
10.9402304805
 20
6.3811583015
 30
0.0
 10
10.9275563894
 20
6.3682695794
 30
0.0
 10
10.9210601741
 20
6.3619947082
 30
0.0
  0
SPLINE
  5
355
100
AcDbEntity
  8
0
100
AcDbSpline
 62
7
  6
CONTINUOUS
 70
0
 71
3
 72
39
 73
35
 74
0
 42
0.0000001
 43
0.0000001
 44
0.0000000001
 40
0.0
 40
0.0
 40
0.0
 40
0.0
 40
0.0310753517
 40
0.0623079183
 40
0.0936931253
 40
0.1252222895
 40
0.1568840437
 40
0.1886642049
 40
0.2205461647
 40
0.2525112489
 40
0.2845391083
 40
0.3166081364
 40
0.3486959075
 40
0.3807796232
 40
0.4128365658
 40
0.4448445498
 40
0.4767823668
 40
0.5086302146
 40
0.5403701083
 40
0.5719862651
 40
0.6034654507
 40
0.6347972859
 40
0.6659745046
 40
0.6969931564
 40
0.7278527396
 40
0.7585562643
 40
0.7891102406
 40
0.819524585
 40
0.8498124373
 40
0.8799898963
 40
0.9100756752
 40
0.9400906814
 40
0.9700575289
 40
1.0
 40
1.0
 40
1.0
 40
1.0
 10
11.0851236338
 20
6.7566164779
 30
0.0
 10
11.0851236338
 20
6.7710988209
 30
0.0
 10
11.0840432805
 20
6.8001479194
 30
0.0
 10
11.0792197528
 20
6.843582499
 30
0.0
 10
11.0712163419
 20
6.8867620318
 30
0.0
 10
11.0600772778
 20
6.9294463514
 30
0.0
 10
11.0458641861
 20
6.9714018588
 30
0.0
 10
11.0286554782
 20
7.0123980687
 30
0.0
 10
11.0085459414
 20
7.0522100686
 30
0.0
 10
10.9856461866
 20
7.09061938
 30
0.0
 10
10.9600820577
 20
7.1274152342
 30
0.0
 10
10.9319940298
 20
7.1623957504
 30
0.0
 10
10.901536345
 20
7.1953689804
 30
0.0
 10
10.8688761814
 20
7.2261539421
 30
0.0
 10
10.8341927557
 20
7.2545816017
 30
0.0
 10
10.7976764132
 20
7.2804958748
 30
0.0
 10
10.7595275165
 20
7.3037543933
 30
0.0
 10
10.7199553698
 20
7.3242292777
 30
0.0
 10
10.6791770964
 20
7.3418078392
 30
0.0
 10
10.6374165002
 20
7.3563932934
 30
0.0
 10
10.5949028019
 20
7.3679051916
 30
0.0
 10
10.5518694104
 20
7.3762798675
 30
0.0
 10
10.5085526703
 20
7.3814708067
 30
0.0
 10
10.4651905887
 20
7.3834490186
 30
0.0
 10
10.4220215207
 20
7.3822030996
 30
0.0
 10
10.3792828839
 20
7.3777393236
 30
0.0
 10
10.3372098686
 20
7.3700816528
 30
0.0
 10
10.2960341152
 20
7.3592717296
 30
0.0
 10
10.2559824663
 20
7.3453685804
 30
0.0
 10
10.2172756355
 20
7.328448254
 30
0.0
 10
10.1801272597
 20
7.308603731
 30
0.0
 10
10.1447415561
 20
7.2859434718
 30
0.0
 10
10.1113162413
 20
7.2605945941
 30
0.0
 10
10.0904535163
 20
7.2419875068
 30
0.0
 10
10.0804167744
 20
7.2322927445
 30
0.0
  0
SPLINE
  5
356
100
AcDbEntity
  8
0
100
AcDbSpline
 62
7
  6
CONTINUOUS
 70
0
 71
3
 72
36
 73
32
 74
0
 42
0.0000001
 43
0.0000001
 44
0.0000000001
 40
0.0
 40
0.0
 40
0.0
 40
0.0
 40
0.0322051917
 40
0.0641656233
 40
0.095874116
 40
0.1273297754
 40
0.1585387089
 40
0.1895131605
 40
0.2202709082
 40
0.2508342141
 40
0.2812288249
 40
0.3114830334
 40
0.3416267924
 40
0.3716910618
 40
0.4017072559
 40
0.4317068726
 40
0.4617212463
 40
0.4917814291
 40
0.5219183677
 40
0.5521629208
 40
0.6130853303
 40
0.6748086814
 40
0.7060512421
 40
0.7375823336
 40
0.8015942751
 40
0.8341076969
 40
0.8669461925
 40
0.9000674625
 40
0.9333867629
 40
0.9667643946
 40
1.0
 40
1.0
 40
1.0
 40
1.0
 10
11.0197996406
 20
6.7474576256
 30
0.0
 10
11.0105726483
 20
6.7480975197
 30
0.0
 10
10.9922228624
 20
6.7499408481
 30
0.0
 10
10.9650355551
 20
6.7544081487
 30
0.0
 10
10.9383931728
 20
6.7605346908
 30
0.0
 10
10.912398871
 20
6.768272169
 30
0.0
 10
10.8871419792
 20
6.7775595725
 30
0.0
 10
10.8626987039
 20
6.7883260352
 30
0.0
 10
10.8391310921
 20
6.8004937557
 30
0.0
 10
10.8164874202
 20
6.8139809474
 30
0.0
 10
10.794803009
 20
6.8287044532
 30
0.0
 10
10.7741014963
 20
6.8445819849
 30
0.0
 10
10.7543963198
 20
6.8615339138
 30
0.0
 10
10.7356923011
 20
6.8794846111
 30
0.0
 10
10.7179872009
 20
6.8983634079
 30
0.0
 10
10.7012731842
 20
6.9181051755
 30
0.0
 10
10.6855380924
 20
6.9386506842
 30
0.0
 10
10.6707665773
 20
6.9599465534
 30
0.0
 10
10.6569407752
 20
6.9819459448
 30
0.0
 10
10.6397023227
 20
7.0122304596
 30
0.0
 10
10.620405059
 20
7.0517297334
 30
0.0
 10
10.604120835
 20
7.0928615731
 30
0.0
 10
10.5927509973
 20
7.1267669617
 30
0.0
 10
10.5823657585
 20
7.1616728752
 30
0.0
 10
10.5736389425
 20
7.1974301067
 30
0.0
 10
10.566485682
 20
7.2338914051
 30
0.0
 10
10.5618619887
 20
7.2617962413
 30
0.0
 10
10.5580060237
 20
7.2900503895
 30
0.0
 10
10.5549199484
 20
7.3185547426
 30
0.0
 10
10.5526095742
 20
7.3471650195
 30
0.0
 10
10.5515868348
 20
7.3662714282
 30
0.0
 10
10.551208018
 20
7.3758089914
 30
0.0
  0
SPLINE
  5
357
100
AcDbEntity
  8
0
100
AcDbSpline
 62
7
  6
CONTINUOUS
 70
0
 71
3
 72
15
 73
11
 74
0
 42
0.0000001
 43
0.0000001
 44
0.0000000001
 40
0.0
 40
0.0
 40
0.0
 40
0.0
 40
0.1273482888
 40
0.2538606703
 40
0.3795878487
 40
0.5046051206
 40
0.6290174369
 40
0.7529533749
 40
0.8765605786
 40
1.0
 40
1.0
 40
1.0
 40
1.0
 10
11.5664457341
 20
10.0972785453
 30
0.0
 10
11.5664457341
 20
10.0900410147
 30
0.0
 10
11.5657546884
 20
10.0756034549
 30
0.0
 10
11.5626295474
 20
10.054224803
 30
0.0
 10
11.5574475214
 20
10.0333833134
 30
0.0
 10
11.5502554213
 20
10.0132739072
 30
0.0
 10
11.5411192102
 20
9.9940820354
 30
0.0
 10
11.5301222338
 20
9.9759848958
 30
0.0
 10
11.5173678601
 20
9.9591520628
 30
0.0
 10
11.5077644576
 20
9.9488696115
 30
0.0
 10
11.5027185971
 20
9.9439957175
 30
0.0
  0
SPLINE
  5
358
100
AcDbEntity
  8
0
100
AcDbSpline
 62
7
  6
CONTINUOUS
 70
0
 71
3
 72
42
 73
38
 74
0
 42
0.0000001
 43
0.0000001
 44
0.0000000001
 40
0.0
 40
0.0
 40
0.0
 40
0.0
 40
0.0310746617
 40
0.0466742702
 40
0.062312125
 40
0.0936967446
 40
0.1252253881
 40
0.1568866066
 40
0.188666232
 40
0.2205476543
 40
0.2525121998
 40
0.2845395188
 40
0.316608006
 40
0.3486952358
 40
0.3807784103
 40
0.4128348121
 40
0.4448422562
 40
0.4767795339
 40
0.508626844
 40
0.5403662024
 40
0.5719818257
 40
0.6034604794
 40
0.6347917851
 40
0.6659684779
 40
0.6969866061
 40
0.7278456675
 40
0.7585486731
 40
0.7891021336
 40
0.8195159643
 40
0.8498033043
 40
0.864907343
 40
0.8799860277
 40
0.9100712982
 40
0.9400857971
 40
0.9550764662
 40
0.9700580353
 40
1.0
 40
1.0
 40
1.0
 40
1.0
 10
11.5664457341
 20
10.0972785453
 30
0.0
 10
11.5664457341
 20
10.1029038882
 30
0.0
 10
11.5661312833
 20
10.1113574226
 30
0.0
 10
11.565092794
 20
10.1225914479
 30
0.0
 10
11.5636376634
 20
10.1338362382
 30
0.0
 10
11.5610436939
 20
10.1478311817
 30
0.0
 10
11.5567169926
 20
10.1644107479
 30
0.0
 10
11.5511961977
 20
10.1807075953
 30
0.0
 10
11.5445118305
 20
10.196631724
 30
0.0
 10
11.5367006827
 20
10.2120958931
 30
0.0
 10
11.5278057313
 20
10.2270152077
 30
0.0
 10
11.5178758684
 20
10.2413078165
 30
0.0
 10
11.5069656451
 20
10.2548952919
 30
0.0
 10
11.4951349704
 20
10.2677030725
 30
0.0
 10
11.4824487868
 20
10.2796608628
 30
0.0
 10
11.4689767166
 20
10.2907030168
 30
0.0
 10
11.4547926843
 20
10.3007688941
 30
0.0
 10
11.4399745151
 20
10.3098031905
 30
0.0
 10
11.4246035133
 20
10.3177562389
 30
0.0
 10
11.4087640215
 20
10.3245842815
 30
0.0
 10
11.3925429643
 20
10.3302497087
 30
0.0
 10
11.3760293776
 20
10.3347212673
 30
0.0
 10
11.3593139274
 20
10.3379742343
 30
0.0
 10
11.3424884173
 20
10.3399905563
 30
0.0
 10
11.3256452967
 20
10.3407589563
 30
0.0
 10
11.3088771395
 20
10.3402749955
 30
0.0
 10
11.2922762092
 20
10.3385411378
 30
0.0
 10
11.2759336993
 20
10.3355666343
 30
0.0
 10
11.2599401747
 20
10.3313679026
 30
0.0
 10
11.2469621018
 20
10.3268627031
 30
0.0
 10
11.2368463194
 20
10.3226729714
 30
0.0
 10
11.2269352977
 20
10.3181061943
 30
0.0
 10
11.2149181447
 20
10.3116868449
 30
0.0
 10
11.2034582039
 20
10.304348
 30
0.0
 10
11.1946755239
 20
10.2979571086
 30
0.0
 10
11.1861639134
 20
10.2912315241
 30
0.0
 10
11.1800862904
 20
10.2858110692
 30
0.0
 10
11.1761877059
 20
10.2820453513
 30
0.0
  0
SPLINE
  5
359
100
AcDbEntity
  8
0
100
AcDbSpline
 62
7
  6
CONTINUOUS
 70
0
 71
3
 72
44
 73
40
 74
0
 42
0.0000001
 43
0.0000001
 44
0.0000000001
 40
0.0
 40
0.0
 40
0.0
 40
0.0
 40
0.0196286566
 40
0.039671647
 40
0.081170853
 40
0.1027183546
 40
0.124833774
 40
0.1475402811
 40
0.1708589709
 40
0.1948055555
 40
0.2193963463
 40
0.2446435528
 40
0.2705616994
 40
0.2971633842
 40
0.3244652735
 40
0.3524842807
 40
0.3812438697
 40
0.4410710933
 40
0.4722474705
 40
0.504325923
 40
0.5373765658
 40
0.571486553
 40
0.6067624834
 40
0.643332753
 40
0.6813480068
 40
0.7009566079
 40
0.72099117
 40
0.7414747272
 40
0.7624288474
 40
0.7838739271
 40
0.805828218
 40
0.828305415
 40
0.8513140871
 40
0.874856203
 40
0.8989253562
 40
0.9235057929
 40
0.9485705542
 40
0.9740850635
 40
1.0
 40
1.0
 40
1.0
 40
1.0
 10
11.5288875633
 20
10.2060546917
 30
0.0
 10
11.5274777524
 20
10.2046929188
 30
0.0
 10
11.5245428924
 20
10.202027576
 30
0.0
 10
11.5182296593
 20
10.1969383637
 30
0.0
 10
11.5113307758
 20
10.1922927053
 30
0.0
 10
11.5039241725
 20
10.1881085454
 30
0.0
 10
11.4979909296
 20
10.1851482711
 30
0.0
 10
11.4917541974
 20
10.1824203978
 30
0.0
 10
11.485219046
 20
10.1799395962
 30
0.0
 10
11.4783905765
 20
10.1777258099
 30
0.0
 10
11.4712758813
 20
10.1757988245
 30
0.0
 10
11.4638820638
 20
10.1741842307
 30
0.0
 10
11.4562185708
 20
10.1729079502
 30
0.0
 10
11.4482956957
 20
10.172001978
 30
0.0
 10
11.4401266443
 20
10.171499404
 30
0.0
 10
11.4317259888
 20
10.1714401045
 30
0.0
 10
11.4200915447
 20
10.1720146628
 30
0.0
 10
11.4082111249
 20
10.17367998
 30
0.0
 10
11.3962550536
 20
10.1765611083
 30
0.0
 10
11.3870771021
 20
10.1794625879
 30
0.0
 10
11.3778666961
 20
10.1831456483
 30
0.0
 10
11.3686884182
 20
10.1876875973
 30
0.0
 10
11.3596236227
 20
10.1931709287
 30
0.0
 10
11.3507736912
 20
10.1996803111
 30
0.0
 10
11.3437535445
 20
10.2059660428
 30
0.0
 10
11.3383813142
 20
10.2115626478
 30
0.0
 10
11.3344535518
 20
10.2161077867
 30
0.0
 10
11.3306928088
 20
10.2209632352
 30
0.0
 10
11.3271239776
 20
10.226133833
 30
0.0
 10
11.323773572
 20
10.2316216248
 30
0.0
 10
11.3206694318
 20
10.2374256706
 30
0.0
 10
11.3178400993
 20
10.2435411956
 30
0.0
 10
11.3153142245
 20
10.2499590463
 30
0.0
 10
11.3131198544
 20
10.2566652687
 30
0.0
 10
11.3112833852
 20
10.2636407206
 30
0.0
 10
11.3098284959
 20
10.2708608153
 30
0.0
 10
11.3087748706
 20
10.2782961362
 30
0.0
 10
11.3081377064
 20
10.2859120968
 30
0.0
 10
11.3079976462
 20
10.2910490053
 30
0.0
 10
11.3079976462
 20
10.2936368476
 30
0.0
  0
SPLINE
  5
35A
100
AcDbEntity
  8
0
100
AcDbSpline
 62
7
  6
CONTINUOUS
 70
0
 71
3
 72
11
 73
7
 74
0
 42
0.0000001
 43
0.0000001
 44
0.0000000001
 40
0.0
 40
0.0
 40
0.0
 40
0.0
 40
0.2461282033
 40
0.4957504889
 40
0.7474985562
 40
1.0
 40
1.0
 40
1.0
 40
1.0
 10
11.3079976462
 20
10.2936368476
 30
0.0
 10
11.3079976462
 20
10.2975199652
 30
0.0
 10
11.3083177922
 20
10.3053445383
 30
0.0
 10
11.3097117918
 20
10.3170657616
 30
0.0
 10
11.3119794912
 20
10.3287512608
 30
0.0
 10
11.3140304168
 20
10.336444868
 30
0.0
 10
11.3151794492
 20
10.340259226
 30
0.0
  0
SPLINE
  5
35B
100
AcDbEntity
  8
0
100
AcDbSpline
 62
7
  6
CONTINUOUS
 70
0
 71
3
 72
71
 73
67
 74
0
 42
0.0000001
 43
0.0000001
 44
0.0000000001
 40
0.0
 40
0.0
 40
0.0
 40
0.0
 40
0.0027164573
 40
0.0054532854
 40
0.0082303786
 40
0.0110666883
 40
0.0139799084
 40
0.0169862372
 40
0.0201002078
 40
0.0233347349
 40
0.0267011077
 40
0.0302090625
 40
0.0338669915
 40
0.0376819756
 40
0.0416599509
 40
0.0458059014
 40
0.0501238484
 40
0.0546170457
 40
0.0592880904
 40
0.0641388823
 40
0.0743840273
 40
0.0853589731
 40
0.0970628884
 40
0.1094897204
 40
0.1226290485
 40
0.1364667983
 40
0.150985724
 40
0.1661657402
 40
0.1819842994
 40
0.1984166672
 40
0.2154360881
 40
0.2330139733
 40
0.2511201141
 40
0.2697228096
 40
0.2887889572
 40
0.3082842254
 40
0.3281731775
 40
0.3689845373
 40
0.4109219876
 40
0.4536724428
 40
0.4969149176
 40
0.5403236819
 40
0.583571419
 40
0.6263323591
 40
0.6682854005
 40
0.7091173135
 40
0.7290183374
 40
0.7485268513
 40
0.7676073561
 40
0.786225483
 40
0.8043481228
 40
0.8219435077
 40
0.8389813496
 40
0.8554330427
 40
0.8712717803
 40
0.8864727177
 40
0.9010132379
 40
0.9148732178
 40
0.928035286
 40
0.9404852247
 40
0.9522125262
 40
0.9632110188
 40
0.9734796185
 40
0.9830234909
 40
0.9918562138
 40
1.0
 40
1.0
 40
1.0
 40
1.0
 10
12.6749446744
 20
6.4877234161
 30
0.0
 10
12.6741234677
 20
6.4877803615
 30
0.0
 10
12.6724791005
 20
6.4879689962
 30
0.0
 10
12.6700334722
 20
6.488473773
 30
0.0
 10
12.6676063452
 20
6.4892003877
 30
0.0
 10
12.6651994165
 20
6.4901480218
 30
0.0
 10
12.6628139413
 20
6.4913158863
 30
0.0
 10
12.6604511669
 20
6.4927030978
 30
0.0
 10
12.6581121346
 20
6.4943085927
 30
0.0
 10
12.6557979188
 20
6.4961314112
 30
0.0
 10
12.6535095276
 20
6.4981704874
 30
0.0
 10
12.651247898
 20
6.5004246596
 30
0.0
 10
12.6490140749
 20
6.5028928089
 30
0.0
 10
12.6468090262
 20
6.5055736568
 30
0.0
 10
12.6446337205
 20
6.5084658497
 30
0.0
 10
12.6424892252
 20
6.5115680011
 30
0.0
 10
12.6403764971
 20
6.51487855
 30
0.0
 10
12.6382965488
 20
6.5183958677
 30
0.0
 10
12.6362504002
 20
6.5221182541
 30
0.0
 10
12.6335186789
 20
6.5274499586
 30
0.0
 10
12.6302069825
 20
6.5346268317
 30
0.0
 10
12.6264526879
 20
6.5438738471
 30
0.0
 10
12.6228562382
 20
6.5538885182
 30
0.0
 10
12.6194248052
 20
6.5646509896
 30
0.0
 10
12.6161652461
 20
6.576140127
 30
0.0
 10
12.6130841556
 20
6.588333143
 30
0.0
 10
12.6101878005
 20
6.6012057907
 30
0.0
 10
12.6074820461
 20
6.6147323733
 30
0.0
 10
12.6049723916
 20
6.6288858396
 30
0.0
 10
12.6026639598
 20
6.6436378524
 30
0.0
 10
12.6005614504
 20
6.6589588372
 30
0.0
 10
12.598669127
 20
6.674818048
 30
0.0
 10
12.596990847
 20
6.6911836479
 30
0.0
 10
12.5955300413
 20
6.7080227723
 30
0.0
 10
12.5942896771
 20
6.7253015779
 30
0.0
 10
12.593272244
 20
6.7429853669
 30
0.0
 10
12.5922067129
 20
6.7672645989
 30
0.0
 10
12.5914580418
 20
6.7983619955
 30
0.0
 10
12.5914758413
 20
6.836396034
 30
0.0
 10
12.5924028896
 20
6.8751556635
 30
0.0
 10
12.594231949
 20
6.9143293992
 30
0.0
 10
12.5969484483
 20
6.9536026467
 30
0.0
 10
12.600530609
 20
6.9926599043
 30
0.0
 10
12.6049494715
 20
7.0311875334
 30
0.0
 10
12.6101693717
 20
7.0688759379
 30
0.0
 10
12.6151933412
 20
7.0995887554
 30
0.0
 10
12.6195923535
 20
7.1235040416
 30
0.0
 10
12.6230356171
 20
7.1408914371
 30
0.0
 10
12.6266440181
 20
7.1578480587
 30
0.0
 10
12.6304103079
 20
7.1743398578
 30
0.0
 10
12.6343268572
 20
7.1903337045
 30
0.0
 10
12.6383857596
 20
7.2057974805
 30
0.0
 10
12.6425788303
 20
7.2207001404
 30
0.0
 10
12.6468975807
 20
7.2350117976
 30
0.0
 10
12.6513332763
 20
7.2487037735
 30
0.0
 10
12.6558769681
 20
7.2617486495
 30
0.0
 10
12.6605194802
 20
7.2741203503
 30
0.0
 10
12.665251427
 20
7.2857942118
 30
0.0
 10
12.6700632789
 20
7.2967470162
 30
0.0
 10
12.6749453985
 20
7.3069570576
 30
0.0
 10
12.6798880104
 20
7.3164042453
 30
0.0
 10
12.6848813605
 20
7.3250701451
 30
0.0
 10
12.6899156858
 20
7.3329379096
 30
0.0
 10
12.6949816578
 20
7.3399928514
 30
0.0
 10
12.7000694983
 20
7.3462209221
 30
0.0
 10
12.7036102817
 20
7.3499620121
 30
0.0
 10
12.7053852895
 20
7.351676538
 30
0.0
  0
SPLINE
  5
35C
100
AcDbEntity
  8
0
100
AcDbSpline
 62
7
  6
CONTINUOUS
 70
0
 71
3
 72
55
 73
51
 74
0
 42
0.0000001
 43
0.0000001
 44
0.0000000001
 40
0.0
 40
0.0
 40
0.0
 40
0.0
 40
0.0075207276
 40
0.0156240089
 40
0.0243308207
 40
0.0336545928
 40
0.043602365
 40
0.0541763389
 40
0.0653743606
 40
0.0771909295
 40
0.0896174813
 40
0.1026428948
 40
0.116253846
 40
0.1304348978
 40
0.1451689804
 40
0.1604372273
 40
0.1762194783
 40
0.1924940832
 40
0.2264271412
 40
0.2620419495
 40
0.2991276932
 40
0.3374607998
 40
0.3768072249
 40
0.4169246159
 40
0.4575644021
 40
0.4984738451
 40
0.5393980691
 40
0.5800820837
 40
0.620272802
 40
0.6597210674
 40
0.6981837004
 40
0.7354255831
 40
0.7712218119
 40
0.8053599666
 40
0.8217454057
 40
0.8376436694
 40
0.8530328382
 40
0.8678923604
 40
0.8822031269
 40
0.8959475409
 40
0.9091098817
 40
0.9216762031
 40
0.9336349384
 40
0.9449768312
 40
0.9556956959
 40
0.9657885254
 40
0.9752562638
 40
0.9841050879
 40
0.992347075
 40
1.0
 40
1.0
 40
1.0
 40
1.0
 10
12.655154043
 20
6.6735230694
 30
0.0
 10
12.6543194126
 20
6.6745492789
 30
0.0
 10
12.6526748816
 20
6.6767547943
 30
0.0
 10
12.6503606672
 20
6.6803576854
 30
0.0
 10
12.6481124683
 20
6.6843696847
 30
0.0
 10
12.6459339656
 20
6.6887842699
 30
0.0
 10
12.6438283413
 20
6.6935945352
 30
0.0
 10
12.6417990854
 20
6.6987927988
 30
0.0
 10
12.6398494106
 20
6.7043706596
 30
0.0
 10
12.6379825899
 20
6.7103190562
 30
0.0
 10
12.6362016989
 20
6.7166282559
 30
0.0
 10
12.6345097018
 20
6.7232878976
 30
0.0
 10
12.6329094662
 20
6.7302870126
 30
0.0
 10
12.6314036161
 20
6.7376140436
 30
0.0
 10
12.6299947474
 20
6.7452568762
 30
0.0
 10
12.6286851576
 20
6.753202853
 30
0.0
 10
12.6274770828
 20
6.761438818
 30
0.0
 10
12.6259835938
 20
6.7729492741
 30
0.0
 10
12.6243970798
 20
6.7879628555
 30
0.0
 10
12.6229502354
 20
6.8066641497
 30
0.0
 10
12.6219450477
 20
6.8261692104
 30
0.0
 10
12.6213884317
 20
6.846348586
 30
0.0
 10
12.6212843434
 20
6.8670684665
 30
0.0
 10
12.6216336444
 20
6.8881913298
 30
0.0
 10
12.6224341382
 20
6.9095769542
 30
0.0
 10
12.6236805804
 20
6.9310833439
 30
0.0
 10
12.6253647179
 20
6.9525676928
 30
0.0
 10
12.6274753472
 20
6.9738873439
 30
0.0
 10
12.62999839
 20
6.9949007481
 30
0.0
 10
12.6329169827
 20
7.0154684227
 30
0.0
 10
12.6362115914
 20
7.0354538731
 30
0.0
 10
12.6398601152
 20
7.0547245984
 30
0.0
 10
12.6438381044
 20
7.0731527244
 30
0.0
 10
12.6474529195
 20
7.0879007854
 30
0.0
 10
12.6504992782
 20
7.0991795243
 30
0.0
 10
12.6528180823
 20
7.1072377879
 30
0.0
 10
12.6551982933
 20
7.114997853
 30
0.0
 10
12.6576359582
 20
7.1224468717
 30
0.0
 10
12.6601269881
 20
7.1295725114
 30
0.0
 10
12.6626672685
 20
7.1363629845
 30
0.0
 10
12.6652525033
 20
7.1428070918
 30
0.0
 10
12.6678784673
 20
7.1488942002
 30
0.0
 10
12.6705407111
 20
7.1546143316
 30
0.0
 10
12.6732349097
 20
7.1599581119
 30
0.0
 10
12.6759565753
 20
7.1649168562
 30
0.0
 10
12.6787013002
 20
7.1694825298
 30
0.0
 10
12.681464636
 20
7.1736478273
 30
0.0
 10
12.6842423937
 20
7.1774063035
 30
0.0
 10
12.6870301206
 20
7.1807516073
 30
0.0
 10
12.6889623444
 20
7.1827761615
 30
0.0
 10
12.6899304746
 20
7.1837113034
 30
0.0
  0
SPLINE
  5
35D
100
AcDbEntity
  8
0
100
AcDbSpline
 62
7
  6
CONTINUOUS
 70
0
 71
3
 72
90
 73
86
 74
0
 42
0.0000001
 43
0.0000001
 44
0.0000000001
 40
0.0
 40
0.0
 40
0.0
 40
0.0
 40
0.0027164161
 40
0.0054532042
 40
0.0082302557
 40
0.0110665249
 40
0.0139797103
 40
0.0169859906
 40
0.0200999233
 40
0.0233344115
 40
0.0267007267
 40
0.03020865
 40
0.0338665219
 40
0.037681453
 40
0.0416593866
 40
0.0458052705
 40
0.0501231624
 40
0.0546163044
 40
0.05928728
 40
0.0641380041
 40
0.0691698883
 40
0.074383819
 40
0.0797802599
 40
0.0853592863
 40
0.0911205905
 40
0.0970635843
 40
0.1094902289
 40
0.1226293717
 40
0.1364669317
 40
0.1509856416
 40
0.1661654371
 40
0.1819837774
 40
0.1984159058
 40
0.215435067
 40
0.2330126943
 40
0.2511185732
 40
0.2697209872
 40
0.2887868504
 40
0.3082818346
 40
0.3281704884
 40
0.3484163492
 40
0.3689820511
 40
0.3898294297
 40
0.410919625
 40
0.4322131812
 40
0.4536701493
 40
0.4752501863
 40
0.4969126541
 40
0.5186167167
 40
0.5403214385
 40
0.5619858817
 40
0.583569205
 40
0.605030762
 40
0.6263301992
 40
0.6474275545
 40
0.6682833559
 40
0.6888587212
 40
0.70911546
 40
0.7290161786
 40
0.7485243844
 40
0.7676045932
 40
0.7862224409
 40
0.8043448006
 40
0.8219399072
 40
0.8389774919
 40
0.8554289325
 40
0.8712674145
 40
0.8864681158
 40
0.9010084229
 40
0.9148681885
 40
0.9280300453
 40
0.9343448951
 40
0.9404802507
 40
0.9464348979
 40
0.9522079219
 40
0.9577986875
 40
0.9632068744
 40
0.9684325511
 40
0.9734761281
 40
0.9783384812
 40
0.9830209275
 40
0.9875254311
 40
0.9918546016
 40
0.9960115654
 40
1.0
 40
1.0
 40
1.0
 40
1.0
 10
12.903668548
 20
8.4162454486
 30
0.0
 10
12.9020354672
 20
8.4163586957
 30
0.0
 10
12.8987654211
 20
8.416733849
 30
0.0
 10
12.8939019661
 20
8.4177377103
 30
0.0
 10
12.8890752929
 20
8.4191826823
 30
0.0
 10
12.8842887821
 20
8.4210671918
 30
0.0
 10
12.8795449709
 20
8.4233897206
 30
0.0
 10
12.8748462416
 20
8.426148342
 30
0.0
 10
12.8701947772
 20
8.4293411363
 30
0.0
 10
12.8655926687
 20
8.4329660969
 30
0.0
 10
12.8610418407
 20
8.4370210438
 30
0.0
 10
12.8565443483
 20
8.4415038494
 30
0.0
 10
12.852102053
 20
8.4464120857
 30
0.0
 10
12.8477170147
 20
8.4517433354
 30
0.0
 10
12.8433911615
 20
8.4574948959
 30
0.0
 10
12.8391265073
 20
8.4636639404
 30
0.0
 10
12.8349250815
 20
8.4702474421
 30
0.0
 10
12.8307888226
 20
8.4772421322
 30
0.0
 10
12.8267198137
 20
8.4846446033
 30
0.0
 10
12.8227199438
 20
8.4924511631
 30
0.0
 10
12.8187912561
 20
8.50065798
 30
0.0
 10
12.8149356408
 20
8.5092609662
 30
0.0
 10
12.8111550239
 20
8.5182558554
 30
0.0
 10
12.8074513225
 20
8.527638171
 30
0.0
 10
12.8038262939
 20
8.5374032408
 30
0.0
 10
12.7990289335
 20
8.5511320476
 30
0.0
 10
12.7932598301
 20
8.5692270115
 30
0.0
 10
12.7867777626
 20
8.5920745665
 30
0.0
 10
12.7806506182
 20
8.6163221159
 30
0.0
 10
12.7748908171
 20
8.6419211285
 30
0.0
 10
12.7695100622
 20
8.6688206016
 30
0.0
 10
12.7645192962
 20
8.6969667187
 30
0.0
 10
12.759928675
 20
8.7263031188
 30
0.0
 10
12.7557475428
 20
8.7567709867
 30
0.0
 10
12.751984411
 20
8.7883091941
 30
0.0
 10
12.7486469414
 20
8.8208544276
 30
0.0
 10
12.7457419309
 20
8.8543413214
 30
0.0
 10
12.7432752926
 20
8.888702593
 30
0.0
 10
12.7412520499
 20
8.9238691847
 30
0.0
 10
12.739676327
 20
8.9597704072
 30
0.0
 10
12.7385513415
 20
8.9963340849
 30
0.0
 10
12.7378793983
 20
9.0334867026
 30
0.0
 10
12.7376618856
 20
9.0711535538
 30
0.0
 10
12.7378992728
 20
9.1092588914
 30
0.0
 10
12.738591105
 20
9.1477260811
 30
0.0
 10
12.7397360088
 20
9.1864777577
 30
0.0
 10
12.7413316954
 20
9.2254359823
 30
0.0
 10
12.7433749659
 20
9.2645223997
 30
0.0
 10
12.7458617174
 20
9.3036583958
 30
0.0
 10
12.7487869519
 20
9.3427652556
 30
0.0
 10
12.7521447858
 20
9.3817643228
 30
0.0
 10
12.7559284577
 20
9.4205771588
 30
0.0
 10
12.760130346
 20
9.459125702
 30
0.0
 10
12.7647419844
 20
9.497332425
 30
0.0
 10
12.7697540791
 20
9.5351204905
 30
0.0
 10
12.7751565269
 20
9.5724139062
 30
0.0
 10
12.7809384355
 20
9.6091376783
 30
0.0
 10
12.7870881453
 20
9.6452179647
 30
0.0
 10
12.7935932477
 20
9.6805822265
 30
0.0
 10
12.8004406144
 20
9.7151593757
 30
0.0
 10
12.8076164238
 20
9.748879918
 30
0.0
 10
12.815106188
 20
9.7816760951
 30
0.0
 10
12.8228947815
 20
9.8134820229
 30
0.0
 10
12.830966472
 20
9.8442338282
 30
0.0
 10
12.8393049527
 20
9.8738697857
 30
0.0
 10
12.8478933706
 20
9.9023304488
 30
0.0
 10
12.8567143674
 20
9.929558786
 30
0.0
 10
12.8657501166
 20
9.9555002721
 30
0.0
 10
12.8749823684
 20
9.9801031248
 30
0.0
 10
12.8843924844
 20
10.0033180341
 30
0.0
 10
12.8924742506
 20
10.0217142095
 30
0.0
 10
12.8990259148
 20
10.0356900564
 30
0.0
 10
12.9039044164
 20
10.0456515719
 30
0.0
 10
12.9088131534
 20
10.0552327862
 30
0.0
 10
12.9137496708
 20
10.0644289285
 30
0.0
 10
12.9187114849
 20
10.0732354092
 30
0.0
 10
12.9236961573
 20
10.0816478267
 30
0.0
 10
12.9287011462
 20
10.0896620242
 30
0.0
 10
12.9337240445
 20
10.0972739757
 30
0.0
 10
12.9387622644
 20
10.1044799307
 30
0.0
 10
12.9438133911
 20
10.1112763046
 30
0.0
 10
12.9488749709
 20
10.1176597922
 30
0.0
 10
12.9539446365
 20
10.1236272981
 30
0.0
 10
12.9590197046
 20
10.1291755837
 30
0.0
 10
12.9624753471
 20
10.1326641806
 30
0.0
 10
12.964204121
 20
10.1343340481
 30
0.0
  0
SPLINE
  5
35E
100
AcDbEntity
  8
0
100
AcDbSpline
 62
7
  6
CONTINUOUS
 70
0
 71
3
 72
64
 73
60
 74
0
 42
0.0000001
 43
0.0000001
 44
0.0000000001
 40
0.0
 40
0.0
 40
0.0
 40
0.0
 40
0.0036899171
 40
0.0075220509
 40
0.0114999147
 40
0.0156263711
 40
0.0199037842
 40
0.0243340462
 40
0.0336577491
 40
0.0436055052
 40
0.0541794161
 40
0.0653773962
 40
0.0771938899
 40
0.0896203779
 40
0.1026457317
 40
0.116256577
 40
0.1304375629
 40
0.1451715332
 40
0.1604396972
 40
0.1762218171
 40
0.1924963225
 40
0.2092403855
 40
0.2264300592
 40
0.2440403769
 40
0.2620454078
 40
0.2804183377
 40
0.2991315723
 40
0.337464377
 40
0.3768104773
 40
0.416927532
 40
0.457566968
 40
0.498476051
 40
0.5393999116
 40
0.5800835632
 40
0.6202739153
 40
0.6597218218
 40
0.698184094
 40
0.7169721221
 40
0.7354263331
 40
0.7535189619
 40
0.7712230211
 40
0.7885123599
 40
0.8053617693
 40
0.8217470726
 40
0.8376451827
 40
0.8530342052
 40
0.8678935889
 40
0.8822042145
 40
0.89594852
 40
0.909110705
 40
0.9216769353
 40
0.9336355467
 40
0.9449773553
 40
0.9556960798
 40
0.9657888174
 40
0.9752566
 40
0.984105233
 40
0.9923468705
 40
1.0
 40
1.0
 40
1.0
 40
1.0
 10
12.8621358242
 20
8.6570748624
 30
0.0
 10
12.8611159407
 20
8.658328856
 30
0.0
 10
12.8590897269
 20
8.6609285549
 30
0.0
 10
12.856144464
 20
8.6650166869
 30
0.0
 10
12.8532378578
 20
8.6693643708
 30
0.0
 10
12.8503710768
 20
8.6739697
 30
0.0
 10
12.8475452288
 20
8.6788308474
 30
0.0
 10
12.8437691891
 20
8.6857694572
 30
0.0
 10
12.8391726132
 20
8.6950843117
 30
0.0
 10
12.8339285559
 20
8.7070644631
 30
0.0
 10
12.8288745198
 20
8.7200111891
 30
0.0
 10
12.8240187838
 20
8.7339032562
 30
0.0
 10
12.8193693386
 20
8.748718175
 30
0.0
 10
12.8149339355
 20
8.764431698
 30
0.0
 10
12.8107199524
 20
8.7810180178
 30
0.0
 10
12.8067344358
 20
8.7984498057
 30
0.0
 10
12.8029840818
 20
8.8166982918
 30
0.0
 10
12.7994751837
 20
8.8357332993
 30
0.0
 10
12.7962136123
 20
8.8555233046
 30
0.0
 10
12.7932048477
 20
8.8760355148
 30
0.0
 10
12.7904539589
 20
8.897235919
 30
0.0
 10
12.7879655469
 20
8.9190893371
 30
0.0
 10
12.785743785
 20
8.941559492
 30
0.0
 10
12.7837924151
 20
8.9646090818
 30
0.0
 10
12.7821147248
 20
8.9881998172
 30
0.0
 10
12.7807134824
 20
9.0122925421
 30
0.0
 10
12.7792050034
 20
9.0452961701
 30
0.0
 10
12.778040843
 20
9.0875090293
 30
0.0
 10
12.7777815717
 20
9.1391130835
 30
0.0
 10
12.7786515797
 20
9.1917209667
 30
0.0
 10
12.7806452809
 20
9.2449832114
 30
0.0
 10
12.7837496401
 20
9.2985462345
 30
0.0
 10
12.7879441145
 20
9.352054357
 30
0.0
 10
12.7932007758
 20
9.4051522722
 30
0.0
 10
12.7994845921
 20
9.4574875054
 30
0.0
 10
12.8067535675
 20
9.5087124248
 30
0.0
 10
12.8136439731
 20
9.5505112381
 30
0.0
 10
12.819624895
 20
9.5831306113
 30
0.0
 10
12.824289907
 20
9.6069176578
 30
0.0
 10
12.8291612838
 20
9.6301783848
 30
0.0
 10
12.8342309359
 20
9.6528741889
 30
0.0
 10
12.8394904121
 20
9.6749673665
 30
0.0
 10
12.8449309437
 20
9.6964212391
 30
0.0
 10
12.8505434388
 20
9.7172002064
 30
0.0
 10
12.8563185353
 20
9.7372697931
 30
0.0
 10
12.862246614
 20
9.7565967131
 30
0.0
 10
12.8683177656
 20
9.7751489488
 30
0.0
 10
12.8745218532
 20
9.792895792
 30
0.0
 10
12.8808485434
 20
9.8098078882
 30
0.0
 10
12.8872872924
 20
9.8258573162
 30
0.0
 10
12.8938273636
 20
9.8410176498
 30
0.0
 10
12.9004578959
 20
9.8552639844
 30
0.0
 10
12.9071679404
 20
9.8685729958
 30
0.0
 10
12.9139464283
 20
9.8809230399
 30
0.0
 10
12.9207823345
 20
9.8922941806
 30
0.0
 10
12.9276646337
 20
9.9026681001
 30
0.0
 10
12.9345827745
 20
9.9120287037
 30
0.0
 10
12.9415256434
 20
9.9203604462
 30
0.0
 10
12.9463380313
 20
9.9254026654
 30
0.0
 10
12.9487493061
 20
9.9277317782
 30
0.0
  0
SPLINE
  5
35F
100
AcDbEntity
  8
0
100
AcDbSpline
 62
7
  6
CONTINUOUS
 70
0
 71
3
 72
11
 73
7
 74
0
 42
0.0000001
 43
0.0000001
 44
0.0000000001
 40
0.0
 40
0.0
 40
0.0
 40
0.0
 40
0.2450223332
 40
0.4920672385
 40
0.7431034572
 40
1.0
 40
1.0
 40
1.0
 40
1.0
 10
12.8537670238
 20
8.6903546435
 30
0.0
 10
12.8525820639
 20
8.6904368179
 30
0.0
 10
12.8502086738
 20
8.6907144518
 30
0.0
 10
12.8466807232
 20
8.6914670662
 30
0.0
 10
12.8431813424
 20
8.6925553976
 30
0.0
 10
12.8409000507
 20
8.6934913888
 30
0.0
 10
12.8397682468
 20
8.6940109691
 30
0.0
  0
SPLINE
  5
360
100
AcDbEntity
  8
0
100
AcDbSpline
 62
7
  6
CONTINUOUS
 70
0
 71
3
 72
11
 73
7
 74
0
 42
0.0000001
 43
0.0000001
 44
0.0000000001
 40
0.0
 40
0.0
 40
0.0
 40
0.0
 40
0.2451654861
 40
0.4922941919
 40
0.7432995709
 40
1.0
 40
1.0
 40
1.0
 40
1.0
 10
12.9374797412
 20
9.8974553373
 30
0.0
 10
12.9363126969
 20
9.8975362692
 30
0.0
 10
12.9339602734
 20
9.8975897811
 30
0.0
 10
12.9304173483
 20
9.8973428927
 30
0.0
 10
12.9268568165
 20
9.8967696172
 30
0.0
 10
12.924504056
 20
9.8961781304
 30
0.0
 10
12.923329222
 20
9.8958315528
 30
0.0
  0
SPLINE
  5
361
100
AcDbEntity
  8
0
100
AcDbSpline
 62
7
  6
CONTINUOUS
 70
0
 71
3
 72
51
 73
47
 74
0
 42
0.0000001
 43
0.0000001
 44
0.0000000001
 40
0.0
 40
0.0
 40
0.0
 40
0.0
 40
0.0149716485
 40
0.0299463565
 40
0.0449271644
 40
0.0599170744
 40
0.0749190346
 40
0.0899359198
 40
0.1049705137
 40
0.1200254925
 40
0.1351034109
 40
0.1502066862
 40
0.1653375828
 40
0.1804982023
 40
0.1956904722
 40
0.2109161327
 40
0.2261767296
 40
0.241473608
 40
0.2568079046
 40
0.2721805407
 40
0.2875922226
 40
0.303043438
 40
0.3185344523
 40
0.334065311
 40
0.3496358431
 40
0.3652456603
 40
0.3965753769
 40
0.4280524346
 40
0.4596664537
 40
0.4914042018
 40
0.5232498957
 40
0.555185552
 40
0.5871913712
 40
0.619246145
 40
0.65132769
 40
0.68341329
 40
0.7154801477
 40
0.7475058396
 40
0.7794687608
 40
0.8113485629
 40
0.8431265731
 40
0.8747861836
 40
0.9063132226
 40
0.9376962675
 40
0.9689267871
 40
1.0
 40
1.0
 40
1.0
 40
1.0
 10
9.8744601127
 20
7.4087425001
 30
0.0
 10
9.8817187847
 20
7.4157538259
 30
0.0
 10
9.8965180955
 20
7.4294908422
 30
0.0
 10
9.9195207553
 20
7.4492001955
 30
0.0
 10
9.9432979652
 20
7.4679885059
 30
0.0
 10
9.9678165186
 20
7.485829515
 30
0.0
 10
9.9930427725
 20
7.5026988236
 30
0.0
 10
10.018941995
 20
7.5185731666
 30
0.0
 10
10.045478562
 20
7.533430692
 30
0.0
 10
10.0726159181
 20
7.5472510179
 30
0.0
 10
10.1003167209
 20
7.5600151407
 30
0.0
 10
10.1285428719
 20
7.5717054591
 30
0.0
 10
10.1572555083
 20
7.5823059469
 30
0.0
 10
10.1864151127
 20
7.5918020652
 30
0.0
 10
10.2159815771
 20
7.6001807279
 30
0.0
 10
10.245914221
 20
7.6074304203
 30
0.0
 10
10.2761718499
 20
7.6135412459
 30
0.0
 10
10.3067128439
 20
7.6185048097
 30
0.0
 10
10.3374951978
 20
7.6223142545
 30
0.0
 10
10.3684765601
 20
7.6249644204
 30
0.0
 10
10.3996143227
 20
7.6264517021
 30
0.0
 10
10.4308656542
 20
7.6267740289
 30
0.0
 10
10.4621876108
 20
7.6259309832
 30
0.0
 10
10.4935369838
 20
7.623923827
 30
0.0
 10
10.5248711847
 20
7.6207551975
 30
0.0
 10
10.5666176675
 20
7.614981506
 30
0.0
 10
10.618552411
 20
7.6048748884
 30
0.0
 10
10.6800376982
 20
7.5882255367
 30
0.0
 10
10.7404355806
 20
7.5671308116
 30
0.0
 10
10.7994122346
 20
7.5417071976
 30
0.0
 10
10.8566446537
 20
7.5120947625
 30
0.0
 10
10.9118186206
 20
7.4784564148
 30
0.0
 10
10.964631426
 20
7.4409770511
 30
0.0
 10
11.0147933491
 20
7.399862675
 30
0.0
 10
11.0620290493
 20
7.3553389628
 30
0.0
 10
11.1060793931
 20
7.307650449
 30
0.0
 10
11.1467025005
 20
7.257058795
 30
0.0
 10
11.1836753318
 20
7.2038416554
 30
0.0
 10
11.2167948099
 20
7.1482910542
 30
0.0
 10
11.2458787889
 20
7.0907117387
 30
0.0
 10
11.2707674018
 20
7.0314197474
 30
0.0
 10
11.2913234492
 20
6.9707403139
 30
0.0
 10
11.3074336551
 20
6.9090068653
 30
0.0
 10
11.3190088826
 20
6.8465571577
 30
0.0
 10
11.3259849692
 20
6.7837385937
 30
0.0
 10
11.3275474851
 20
6.741725448
 30
0.0
 10
11.3275474851
 20
6.7207799507
 30
0.0
  0
SPLINE
  5
362
100
AcDbEntity
  8
0
100
AcDbSpline
 62
7
  6
CONTINUOUS
 70
0
 71
3
 72
39
 73
35
 74
0
 42
0.0000001
 43
0.0000001
 44
0.0000000001
 40
0.0
 40
0.0
 40
0.0
 40
0.0
 40
0.0299424725
 40
0.05990932
 40
0.0899243252
 40
0.1200101024
 40
0.1501875589
 40
0.1804754082
 40
0.2108897494
 40
0.2414437221
 40
0.272147242
 40
0.3030068208
 40
0.33402547
 40
0.3652026865
 40
0.3965345185
 40
0.428013701
 40
0.459629856
 40
0.4913697495
 40
0.5232175971
 40
0.5551554142
 40
0.587163399
 40
0.619220343
 40
0.6513040608
 40
0.6833918343
 40
0.715460865
 40
0.747488727
 40
0.7794538147
 40
0.8113357784
 40
0.8431159423
 40
0.8747777013
 40
0.90630686
 40
0.937692088
 40
0.9689246466
 40
1.0
 40
1.0
 40
1.0
 40
1.0
 10
11.0218578104
 20
10.4179914187
 30
0.0
 10
11.029157261
 20
10.425042177
 30
0.0
 10
11.0443300944
 20
10.4385747154
 30
0.0
 10
11.0686393824
 20
10.4570103886
 30
0.0
 10
11.0943744116
 20
10.4734907089
 30
0.0
 10
11.121391402
 20
10.487923209
 30
0.0
 10
11.1495418202
 20
10.5002290267
 30
0.0
 10
11.1786703019
 20
10.510340522
 30
0.0
 10
11.2086163263
 20
10.5182023836
 30
0.0
 10
11.2392149119
 20
10.5237716922
 30
0.0
 10
11.2702975898
 20
10.5270181933
 30
0.0
 10
11.3016933195
 20
10.5279244218
 30
0.0
 10
11.3332294299
 20
10.5264857875
 30
0.0
 10
11.3647325675
 20
10.5227106094
 30
0.0
 10
11.3960296424
 20
10.5166200107
 30
0.0
 10
11.4269487656
 20
10.5082477933
 30
0.0
 10
11.4573201795
 20
10.4976402416
 30
0.0
 10
11.4869771709
 20
10.4848558562
 30
0.0
 10
11.5157569866
 20
10.4699650599
 30
0.0
 10
11.5435017135
 20
10.4530497959
 30
0.0
 10
11.5700591245
 20
10.4342030602
 30
0.0
 10
11.5952835032
 20
10.4135283991
 30
0.0
 10
11.6190364314
 20
10.3911393441
 30
0.0
 10
11.6411875407
 20
10.367158799
 30
0.0
 10
11.6616152472
 20
10.3417183931
 30
0.0
 10
11.6802073862
 20
10.314957737
 30
0.0
 10
11.696861822
 20
10.2870236694
 30
0.0
 10
11.7114870039
 20
10.2580694577
 30
0.0
 10
11.7240024627
 20
10.2282539859
 30
0.0
 10
11.7343392638
 20
10.1977408373
 30
0.0
 10
11.7424404402
 20
10.1666976464
 30
0.0
 10
11.7482611248
 20
10.1352942991
 30
0.0
 10
11.7517691636
 20
10.1037054599
 30
0.0
 10
11.7525548738
 20
10.0825788109
 30
0.0
 10
11.7525548738
 20
10.0720461805
 30
0.0
  0
SPLINE
  5
363
100
AcDbEntity
  8
0
100
AcDbSpline
 62
7
  6
CONTINUOUS
 70
0
 71
3
 72
73
 73
69
 74
0
 42
0.0000001
 43
0.0000001
 44
0.0000000001
 40
0.0
 40
0.0
 40
0.0
 40
0.0
 40
0.003800736
 40
0.0077417125
 40
0.0118259694
 40
0.0160561769
 40
0.0204346131
 40
0.0249630939
 40
0.0296429337
 40
0.0344751192
 40
0.0394602956
 40
0.0445988122
 40
0.0553355296
 40
0.0666836134
 40
0.0786374516
 40
0.0911885496
 40
0.1043259028
 40
0.1180362832
 40
0.1323045015
 40
0.1471136189
 40
0.162445114
 40
0.17827901
 40
0.1945940074
 40
0.2113676071
 40
0.2285762078
 40
0.2461951847
 40
0.2641989728
 40
0.2825611594
 40
0.3012545575
 40
0.32025127
 40
0.339522754
 40
0.3787724686
 40
0.4187658439
 40
0.4592583072
 40
0.5000013073
 40
0.540744295
 40
0.5812367231
 40
0.6212300376
 40
0.6604796713
 40
0.6797511037
 40
0.6987477602
 40
0.7174411008
 40
0.7358032217
 40
0.753806936
 40
0.7714258352
 40
0.7886343588
 40
0.8054078745
 40
0.821722779
 40
0.8375565782
 40
0.8528879785
 40
0.8676969974
 40
0.8819651077
 40
0.8956753762
 40
0.9088126204
 40
0.9213636101
 40
0.9333173313
 40
0.9446652935
 40
0.9554018944
 40
0.9605403572
 40
0.9655254793
 40
0.9703575922
 40
0.9750373707
 40
0.9795657989
 40
0.9839442122
 40
0.9881743889
 40
0.9922585134
 40
0.9961992942
 40
1.0
 40
1.0
 40
1.0
 40
1.0
 10
11.5866695633
 20
10.986554785
 30
0.0
 10
11.5851107403
 20
10.9851041882
 30
0.0
 10
11.5818763565
 20
10.982212564
 30
0.0
 10
11.5767785379
 20
10.9779786323
 30
0.0
 10
11.5713499486
 20
10.9737725908
 30
0.0
 10
11.5655930127
 20
10.9695962152
 30
0.0
 10
11.5595099977
 20
10.9654510997
 30
0.0
 10
11.553103324
 20
10.9613389073
 30
0.0
 10
11.5463756197
 20
10.9572612256
 30
0.0
 10
11.5393296127
 20
10.953219792
 30
0.0
 10
11.5319681849
 20
10.9492162
 30
0.0
 10
11.5215840433
 20
10.9438521351
 30
0.0
 10
11.5078226473
 20
10.9372668148
 30
0.0
 10
11.4903347921
 20
10.9296526424
 30
0.0
 10
11.4716674945
 20
10.9222276749
 30
0.0
 10
11.4518513236
 20
10.9150041377
 30
0.0
 10
11.4309184764
 20
10.9079939387
 30
0.0
 10
11.4089031844
 20
10.901208654
 30
0.0
 10
11.385841495
 20
10.8946595066
 30
0.0
 10
11.3617712265
 20
10.8883573452
 30
0.0
 10
11.3367318914
 20
10.8823126238
 30
0.0
 10
11.3107646404
 20
10.8765353574
 30
0.0
 10
11.283912183
 20
10.8710351136
 30
0.0
 10
11.2562187005
 20
10.8658210086
 30
0.0
 10
11.2277297707
 20
10.860901691
 30
0.0
 10
11.1984923015
 20
10.8562853136
 30
0.0
 10
11.168554452
 20
10.8519795146
 30
0.0
 10
11.1379655365
 20
10.8479914227
 30
0.0
 10
11.1067759586
 20
10.8443276579
 30
0.0
 10
11.0750370657
 20
10.8409942549
 30
0.0
 10
11.0317934573
 20
10.8369733191
 30
0.0
 10
10.9767517142
 20
10.8328248707
 30
0.0
 10
10.9097593431
 20
10.829266392
 30
0.0
 10
10.841869764
 20
10.8271217904
 30
0.0
 10
10.7735302519
 20
10.8264053819
 30
0.0
 10
10.705190761
 20
10.8271219286
 30
0.0
 10
10.6373012468
 20
10.8292666628
 30
0.0
 10
10.5703089823
 20
10.8328252818
 30
0.0
 10
10.5152673556
 20
10.8369738334
 30
0.0
 10
10.4720238619
 20
10.8409948623
 30
0.0
 10
10.4402850689
 20
10.8443283304
 30
0.0
 10
10.4090955987
 20
10.8479921516
 30
0.0
 10
10.3785068026
 20
10.8519803057
 30
0.0
 10
10.348569085
 20
10.856286168
 30
0.0
 10
10.3193317552
 20
10.8609026068
 30
0.0
 10
10.2908429702
 20
10.8658219758
 30
0.0
 10
10.2631496427
 20
10.8710361354
 30
0.0
 10
10.2362973535
 20
10.8765364363
 30
0.0
 10
10.2103302781
 20
10.8823137583
 30
0.0
 10
10.1852911214
 20
10.8883585258
 30
0.0
 10
10.161221039
 20
10.8946607319
 30
0.0
 10
10.138159549
 20
10.901209929
 30
0.0
 10
10.1161444645
 20
10.9079952615
 30
0.0
 10
10.0952118254
 20
10.915005501
 30
0.0
 10
10.0753958658
 20
10.9222290712
 30
0.0
 10
10.0567287933
 20
10.9296540796
 30
0.0
 10
10.0392411722
 20
10.9372682912
 30
0.0
 10
10.0254799699
 20
10.9438536379
 30
0.0
 10
10.0150959836
 20
10.9492177292
 30
0.0
 10
10.0077346725
 20
10.953221324
 30
0.0
 10
10.000688802
 20
10.9572627837
 30
0.0
 10
9.993961214
 20
10.9613404555
 30
0.0
 10
9.9875546506
 20
10.9654526785
 30
0.0
 10
9.9814717427
 20
10.9695978451
 30
0.0
 10
9.9757149315
 20
10.9737742152
 30
0.0
 10
9.970286559
 20
10.977980208
 30
0.0
 10
9.9651889287
 20
10.9822140517
 30
0.0
 10
9.9619546788
 20
10.9851056367
 30
0.0
 10
9.9603958943
 20
10.9865562501
 30
0.0
  0
SPLINE
  5
364
100
AcDbEntity
  8
0
100
AcDbSpline
 62
7
  6
CONTINUOUS
 70
0
 71
3
 72
13
 73
9
 74
0
 42
0.0000001
 43
0.0000001
 44
0.0000000001
 40
0.0
 40
0.0
 40
0.0
 40
0.0
 40
0.2883409816
 40
0.4205270935
 40
0.5460505317
 40
0.6658569605
 40
0.780868943
 40
1.0
 40
1.0
 40
1.0
 40
1.0
 10
9.9941489041
 20
10.9614257018
 30
0.0
 10
9.9936921312
 20
10.9624586582
 30
0.0
 10
9.993091872
 20
10.9639964138
 30
0.0
 10
9.9924714604
 20
10.966044085
 30
0.0
 10
9.9921147316
 20
10.9674798524
 30
0.0
 10
9.9918470114
 20
10.9688664477
 30
0.0
 10
9.9916051678
 20
10.9706286715
 30
0.0
 10
9.9915335224
 20
10.9719389342
 30
0.0
 10
9.9915335224
 20
10.9727972789
 30
0.0
  0
SPLINE
  5
365
100
AcDbEntity
  8
0
100
AcDbSpline
 62
7
  6
CONTINUOUS
 70
0
 71
3
 72
11
 73
7
 74
0
 42
0.0000001
 43
0.0000001
 44
0.0000000001
 40
0.0
 40
0.0
 40
0.0
 40
0.0
 40
0.2196582086
 40
0.4546240807
 40
0.7119771279
 40
1.0
 40
1.0
 40
1.0
 40
1.0
 10
11.5555335224
 20
10.9727972789
 30
0.0
 10
11.5555335224
 20
10.9719407139
 30
0.0
 10
11.5554363578
 20
10.9701663894
 30
0.0
 10
11.5549780492
 20
10.9674228232
 30
0.0
 10
11.5541643714
 20
10.9644852672
 30
0.0
 10
11.5533908525
 20
10.9624999499
 30
0.0
 10
11.5529377958
 20
10.9614722254
 30
0.0
  0
SPLINE
  5
366
100
AcDbEntity
  8
0
100
AcDbSpline
 62
7
  6
CONTINUOUS
 70
0
 71
3
 72
62
 73
58
 74
0
 42
0.0000001
 43
0.0000001
 44
0.0000000001
 40
0.0
 40
0.0
 40
0.0
 40
0.0
 40
0.0080071561
 40
0.0166754235
 40
0.0260258334
 40
0.0360716682
 40
0.0468183274
 40
0.0582653552
 40
0.0704075928
 40
0.0832357434
 40
0.0967370652
 40
0.1108958943
 40
0.1256939112
 40
0.1411104565
 40
0.1571228431
 40
0.1737064866
 40
0.1908350666
 40
0.208480756
 40
0.2266143069
 40
0.2452051403
 40
0.264221535
 40
0.2836307043
 40
0.3234905639
 40
0.3645055413
 40
0.4063846089
 40
0.4488287319
 40
0.4915336816
 40
0.534192845
 40
0.5765000255
 40
0.6181522469
 40
0.6588525739
 40
0.6983129323
 40
0.7174917111
 40
0.7362580152
 40
0.7545796888
 40
0.7724256964
 40
0.7897662147
 40
0.8065728316
 40
0.8228186243
 40
0.8384782666
 40
0.8535282791
 40
0.867947185
 40
0.881715673
 40
0.8948169536
 40
0.9072370864
 40
0.9189653187
 40
0.9299946994
 40
0.9403228115
 40
0.9499526064
 40
0.9588937032
 40
0.9671641132
 40
0.974792345
 40
0.9818202867
 40
0.9883067367
 40
0.9943309937
 40
0.9972029879
 40
1.0
 40
1.0
 40
1.0
 40
1.0
 10
12.6899304746
 20
6.5027335556
 30
0.0
 10
12.6916608617
 20
6.5044049813
 30
0.0
 10
12.6951131231
 20
6.5080444347
 30
0.0
 10
12.7000790863
 20
6.5140914909
 30
0.0
 10
12.7050247057
 20
6.5209267684
 30
0.0
 10
12.7099408512
 20
6.5285372558
 30
0.0
 10
12.7148188936
 20
6.5369093922
 30
0.0
 10
12.7196497352
 20
6.5460276892
 30
0.0
 10
12.7244242817
 20
6.5558752019
 30
0.0
 10
12.7291334728
 20
6.5664334602
 30
0.0
 10
12.7337683274
 20
6.5776825457
 30
0.0
 10
12.7383199328
 20
6.5896011715
 30
0.0
 10
12.7427795513
 20
6.6021667018
 30
0.0
 10
12.7471386286
 20
6.6153552142
 30
0.0
 10
12.7513887581
 20
6.6291415786
 30
0.0
 10
12.7555217572
 20
6.6434994883
 30
0.0
 10
12.7595296978
 20
6.6584015119
 30
0.0
 10
12.7634048547
 20
6.6738191731
 30
0.0
 10
12.767139764
 20
6.6897229967
 30
0.0
 10
12.7707272589
 20
6.7060825477
 30
0.0
 10
12.77416047
 20
6.7228665483
 30
0.0
 10
12.7785623829
 20
6.7459729868
 30
0.0
 10
12.7836194495
 20
6.7756801659
 30
0.0
 10
12.7889245516
 20
6.8121822594
 30
0.0
 10
12.7934776764
 20
6.849568024
 30
0.0
 10
12.7972437586
 20
6.8875513728
 30
0.0
 10
12.8001938118
 20
6.9258418364
 30
0.0
 10
12.8023052642
 20
6.9641464883
 30
0.0
 10
12.8035620029
 20
7.0021722935
 30
0.0
 10
12.8039546329
 20
7.0396284493
 30
0.0
 10
12.8034804107
 20
7.0762283134
 30
0.0
 10
12.8023560718
 20
7.106057989
 30
0.0
 10
12.8010132544
 20
7.1292768158
 30
0.0
 10
12.7998032582
 20
7.146139786
 30
0.0
 10
12.7983833191
 20
7.1625845
 30
0.0
 10
12.7967561588
 20
7.1785795202
 30
0.0
 10
12.7949249128
 20
7.1940942403
 30
0.0
 10
12.792893145
 20
7.2090990004
 30
0.0
 10
12.7906648031
 20
7.2235651281
 30
0.0
 10
12.7882441764
 20
7.237464993
 30
0.0
 10
12.7856359651
 20
7.2507720793
 30
0.0
 10
12.7828452377
 20
7.2634610386
 30
0.0
 10
12.7798773663
 20
7.2755077309
 30
0.0
 10
12.7767380846
 20
7.2868893023
 30
0.0
 10
12.7734334637
 20
7.2975842452
 30
0.0
 10
12.7699698107
 20
7.3075724311
 30
0.0
 10
12.7663536898
 20
7.3168351913
 30
0.0
 10
12.7625919001
 20
7.3253553977
 30
0.0
 10
12.7586912852
 20
7.3331174756
 30
0.0
 10
12.7546586559
 20
7.3401074457
 30
0.0
 10
12.7505006207
 20
7.3463129785
 30
0.0
 10
12.7462233663
 20
7.3517231214
 30
0.0
 10
12.7418318246
 20
7.3563281055
 30
0.0
 10
12.7373315089
 20
7.3601179513
 30
0.0
 10
12.7334309217
 20
7.3626278104
 30
0.0
 10
12.7302796409
 20
7.3641876088
 30
0.0
 10
12.7286968657
 20
7.3648228612
 30
0.0
 10
12.7279046858
 20
7.3651033833
 30
0.0
  0
SPLINE
  5
367
100
AcDbEntity
  8
0
100
AcDbSpline
 62
7
  6
CONTINUOUS
 70
0
 71
3
 72
61
 73
57
 74
0
 42
0.0000001
 43
0.0000001
 44
0.0000000001
 40
0.0
 40
0.0
 40
0.0
 40
0.0
 40
0.0081437192
 40
0.016976846
 40
0.0265209418
 40
0.0367896451
 40
0.0477883244
 40
0.0595158837
 40
0.071966029
 40
0.0851283264
 40
0.0989885666
 40
0.1135293323
 40
0.128730566
 40
0.1445695643
 40
0.1610215585
 40
0.178059723
 40
0.1956553959
 40
0.2137783784
 40
0.2514766415
 40
0.2908859675
 40
0.3317186229
 40
0.3736724332
 40
0.4164341499
 40
0.4596826796
 40
0.5030922454
 40
0.5463355214
 40
0.5890867763
 40
0.6310250194
 40
0.6718371634
 40
0.7112212449
 40
0.7302877464
 40
0.7488908114
 40
0.7669973187
 40
0.7845755476
 40
0.8015953253
 40
0.818028006
 40
0.8338469134
 40
0.8490272409
 40
0.8635464502
 40
0.8773845303
 40
0.8905241195
 40
0.9029512292
 40
0.9146554042
 40
0.9256305944
 40
0.9358759965
 40
0.945397007
 40
0.9542071087
 40
0.9623296003
 40
0.9698005782
 40
0.9766724026
 40
0.983017621
 40
0.9889330932
 40
0.9917694604
 40
0.9945466128
 40
0.9972834968
 40
1.0
 40
1.0
 40
1.0
 40
1.0
 10
12.6609526981
 20
6.7027579773
 30
0.0
 10
12.6619006872
 20
6.7036736645
 30
0.0
 10
12.6637917675
 20
6.7056717655
 30
0.0
 10
12.6665091754
 20
6.7089980971
 30
0.0
 10
12.6692148781
 20
6.7127661035
 30
0.0
 10
12.671903632
 20
6.7169682078
 30
0.0
 10
12.6745705595
 20
6.7215965532
 30
0.0
 10
12.6772103425
 20
6.7266422146
 30
0.0
 10
12.6798178408
 20
6.7320952961
 30
0.0
 10
12.6823878077
 20
6.7379450753
 30
0.0
 10
12.6849150875
 20
6.7441799684
 30
0.0
 10
12.6873946203
 20
6.7507875685
 30
0.0
 10
12.6898213471
 20
6.7577547086
 30
0.0
 10
12.6921904228
 20
6.7650674518
 30
0.0
 10
12.694497025
 20
6.7727111656
 30
0.0
 10
12.6967364889
 20
6.7806705268
 30
0.0
 10
12.6989043462
 20
6.7889295783
 30
0.0
 10
12.7017305283
 20
6.8004711661
 30
0.0
 10
12.7050412283
 20
6.8155265151
 30
0.0
 10
12.7086135696
 20
6.8342795032
 30
0.0
 10
12.7118066282
 20
6.8537989036
 30
0.0
 10
12.7145945102
 20
6.8739279712
 30
0.0
 10
12.7169545974
 20
6.894505181
 30
0.0
 10
12.7188677973
 20
6.9153652844
 30
0.0
 10
12.7203186698
 20
6.9363407395
 30
0.0
 10
12.7212955567
 20
6.9572630603
 30
0.0
 10
12.7217906826
 20
6.9779641817
 30
0.0
 10
12.721800236
 20
6.9982778914
 30
0.0
 10
12.7213243103
 20
7.0180409749
 30
0.0
 10
12.7205183101
 20
7.0340880723
 30
0.0
 10
12.7196254267
 20
7.0465271571
 30
0.0
 10
12.718845221
 20
7.0555207896
 30
0.0
 10
12.7179488802
 20
7.0642615086
 30
0.0
 10
12.7169382069
 20
7.0727317747
 30
0.0
 10
12.7158152936
 20
7.0809145775
 30
0.0
 10
12.7145823737
 20
7.0887935006
 30
0.0
 10
12.7132420103
 20
7.0963527485
 30
0.0
 10
12.7117968971
 20
7.1035771828
 30
0.0
 10
12.7102499742
 20
7.1104523567
 30
0.0
 10
12.7086044206
 20
7.1169645538
 30
0.0
 10
12.7068635109
 20
7.123100809
 30
0.0
 10
12.7050308274
 20
7.1288489706
 30
0.0
 10
12.7031100068
 20
7.1341977078
 30
0.0
 10
12.7011048617
 20
7.1391365638
 30
0.0
 10
12.6990193446
 20
7.1436560097
 30
0.0
 10
12.6968573082
 20
7.147747413
 30
0.0
 10
12.6946227084
 20
7.151403156
 30
0.0
 10
12.6923191288
 20
7.1546164929
 30
0.0
 10
12.6899498949
 20
7.1573814452
 30
0.0
 10
12.6875175674
 20
7.1596925885
 30
0.0
 10
12.6850249225
 20
7.1615439284
 30
0.0
 10
12.682868268
 20
7.1627143793
 30
0.0
 10
12.6811302986
 20
7.1633985458
 30
0.0
 10
12.6798339643
 20
7.1637866697
 30
0.0
 10
12.6785277946
 20
7.1640563064
 30
0.0
 10
12.6776495505
 20
7.1641570509
 30
0.0
 10
12.6772109527
 20
7.1641874649
 30
0.0
  0
SPLINE
  5
368
100
AcDbEntity
  8
0
100
AcDbSpline
 62
7
  6
CONTINUOUS
 70
0
 71
3
 72
39
 73
35
 74
0
 42
0.0000001
 43
0.0000001
 44
0.0000000001
 40
0.0
 40
0.0
 40
0.0
 40
0.0
 40
0.0311159723
 40
0.0620233248
 40
0.0927351404
 40
0.1232711776
 40
0.1536587326
 40
0.1839312111
 40
0.2141268393
 40
0.2442870992
 40
0.2744549754
 40
0.3046731314
 40
0.3349820899
 40
0.3654185435
 40
0.3960138648
 40
0.4267928822
 40
0.4577729963
 40
0.4889636214
 40
0.5203659689
 40
0.551973178
 40
0.5837707188
 40
0.6157370639
 40
0.6478445901
 40
0.6800606405
 40
0.7123487311
 40
0.7446698622
 40
0.7769838843
 40
0.8092508939
 40
0.8414326243
 40
0.8734937998
 40
0.9054034123
 40
0.9371359058
 40
0.9686717941
 40
1.0
 40
1.0
 40
1.0
 40
1.0
 10
11.5876589457
 20
10.0877689354
 30
0.0
 10
11.5876589457
 20
10.0794240853
 30
0.0
 10
11.586844262
 20
10.0627782612
 30
0.0
 10
11.5831598703
 20
10.0381423252
 30
0.0
 10
11.5770519695
 20
10.0141499433
 30
0.0
 10
11.5685783149
 20
9.9910358599
 30
0.0
 10
11.5578200595
 20
9.9690227782
 30
0.0
 10
11.5448804611
 20
9.9483239727
 30
0.0
 10
11.5298841227
 20
9.9291399007
 30
0.0
 10
11.5129759662
 20
9.9116563304
 30
0.0
 10
11.49431952
 20
9.8960425399
 30
0.0
 10
11.4740954095
 20
9.8824495446
 30
0.0
 10
11.4524995753
 20
9.8710084069
 30
0.0
 10
11.4297410725
 20
9.8618292428
 30
0.0
 10
11.4060400751
 20
9.8550000286
 30
0.0
 10
11.3816256467
 20
9.8505857069
 30
0.0
 10
11.3567333985
 20
9.8486279591
 30
0.0
 10
11.3316032721
 20
9.8491446638
 30
0.0
 10
11.3064771854
 20
9.8521297865
 30
0.0
 10
11.2815967667
 20
9.8575537963
 30
0.0
 10
11.2572010671
 20
9.8653637305
 30
0.0
 10
11.2335242802
 20
9.875483794
 30
0.0
 10
11.2107936513
 20
9.8878163256
 30
0.0
 10
11.1892272417
 20
9.9022424616
 30
0.0
 10
11.1690318955
 20
9.9186233838
 30
0.0
 10
11.1504014339
 20
9.9368017747
 30
0.0
 10
11.1335146355
 20
9.9566030576
 30
0.0
 10
11.118533635
 20
9.9778371943
 30
0.0
 10
11.1056025276
 20
10.0003005062
 30
0.0
 10
11.0948457374
 20
10.0237775121
 30
0.0
 10
11.086366987
 20
10.0480427169
 30
0.0
 10
11.0802484873
 20
10.0728640361
 30
0.0
 10
11.07654953
 20
10.0979999378
 30
0.0
 10
11.0757182274
 20
10.1148703767
 30
0.0
 10
11.0757182274
 20
10.1232721448
 30
0.0
  0
SPLINE
  5
369
100
AcDbEntity
  8
0
100
AcDbSpline
 62
7
  6
CONTINUOUS
 70
0
 71
3
 72
17
 73
13
 74
0
 42
0.0000001
 43
0.0000001
 44
0.0000000001
 40
0.0
 40
0.0
 40
0.0
 40
0.0
 40
0.1504740482
 40
0.2917305938
 40
0.4244676119
 40
0.4879385597
 40
0.549641313
 40
0.668301051
 40
0.7818340393
 40
0.8918017529
 40
0.9460163028
 40
1.0
 40
1.0
 40
1.0
 40
1.0
 10
12.7053852895
 20
6.5016617605
 30
0.0
 10
12.7041414108
 20
6.5004602658
 30
0.0
 10
12.7016552921
 20
6.4982058892
 30
0.0
 10
12.6978058266
 20
6.4952015958
 30
0.0
 10
12.694554259
 20
6.4930768044
 30
0.0
 10
12.6919614322
 20
6.4916379494
 30
0.0
 10
12.6894449578
 20
6.4904026512
 30
0.0
 10
12.6862981303
 20
6.4891544617
 30
0.0
 10
12.6824888286
 20
6.4881407708
 30
0.0
 10
12.6793151353
 20
6.487717038
 30
0.0
 10
12.6768075371
 20
6.487636519
 30
0.0
 10
12.6755636232
 20
6.487680496
 30
0.0
 10
12.6749446744
 20
6.4877234161
 30
0.0
  0
SPLINE
  5
36A
100
AcDbEntity
  8
0
100
AcDbSpline
 62
7
  6
CONTINUOUS
 70
0
 71
3
 72
16
 73
12
 74
0
 42
0.0000001
 43
0.0000001
 44
0.0000000001
 40
0.0
 40
0.0
 40
0.0
 40
0.0
 40
0.1504770367
 40
0.2917455134
 40
0.4244955346
 40
0.4879706334
 40
0.5496766798
 40
0.6683414614
 40
0.7818811374
 40
0.8918562794
 40
1.0
 40
1.0
 40
1.0
 40
1.0
 10
12.6609526981
 20
6.7027579773
 30
0.0
 10
12.6602883743
 20
6.7021162898
 30
0.0
 10
12.6589605472
 20
6.7009122616
 30
0.0
 10
12.6569045603
 20
6.6993076636
 30
0.0
 10
12.6551678733
 20
6.6981727764
 30
0.0
 10
12.6537830203
 20
6.6974042942
 30
0.0
 10
12.6524389894
 20
6.6967445238
 30
0.0
 10
12.6507583454
 20
6.6960779045
 30
0.0
 10
12.648723565
 20
6.6955365547
 30
0.0
 10
12.6467002767
 20
6.6952661798
 30
0.0
 10
12.6453566396
 20
6.6952677359
 30
0.0
 10
12.6446944435
 20
6.695313655
 30
0.0
  0
SPLINE
  5
36B
100
AcDbEntity
  8
0
100
AcDbSpline
 62
7
  6
CONTINUOUS
 70
0
 71
3
 72
25
 73
21
 74
0
 42
0.0000001
 43
0.0000001
 44
0.0000000001
 40
0.0
 40
0.0
 40
0.0
 40
0.0
 40
0.06377716
 40
0.127343222
 40
0.190700148
 40
0.2538535537
 40
0.3168099705
 40
0.3795782475
 40
0.4421688972
 40
0.5045942157
 40
0.5668681101
 40
0.629005993
 40
0.6910246336
 40
0.7219973337
 40
0.7529470518
 40
0.8147821333
 40
0.8765547559
 40
0.9074265679
 40
0.9382904805
 40
1.0
 40
1.0
 40
1.0
 40
1.0
 10
9.6371771889
 20
6.8380075289
 30
0.0
 10
9.6371771889
 20
6.8515078705
 30
0.0
 10
9.6378233091
 20
6.8784684458
 30
0.0
 10
9.640739913
 20
6.9187454299
 30
0.0
 10
9.6455958262
 20
6.9587029757
 30
0.0
 10
9.6523798156
 20
6.9982476677
 30
0.0
 10
9.6610764375
 20
7.0372887774
 30
0.0
 10
9.671665678
 20
7.075736174
 30
0.0
 10
9.6841232477
 20
7.1135012592
 30
0.0
 10
9.6984204728
 20
7.1504968983
 30
0.0
 10
9.714524563
 20
7.1866379184
 30
0.0
 10
9.7323981084
 20
7.2218404074
 30
0.0
 10
9.7487411764
 20
7.2503401658
 30
0.0
 10
9.7626553156
 20
7.2725852633
 30
0.0
 10
9.7771116764
 20
7.2944353437
 30
0.0
 10
9.7962064473
 20
7.3210204508
 30
0.0
 10
9.8166291801
 20
7.3465784478
 30
0.0
 10
9.8337265068
 20
7.3663607692
 30
0.0
 10
9.8513171457
 20
7.3856868818
 30
0.0
 10
9.8650647233
 20
7.3996672678
 30
0.0
 10
9.8744601127
 20
7.4087425001
 30
0.0
  0
SPLINE
  5
36C
100
AcDbEntity
  8
0
100
AcDbSpline
 62
7
  6
CONTINUOUS
 70
0
 71
3
 72
71
 73
67
 74
0
 42
0.0000001
 43
0.0000001
 44
0.0000000001
 40
0.0
 40
0.0
 40
0.0
 40
0.0
 40
0.0027164573
 40
0.0054532854
 40
0.0082303786
 40
0.0110666883
 40
0.0139799084
 40
0.0169862372
 40
0.0201002078
 40
0.0233347349
 40
0.0267011077
 40
0.0302090625
 40
0.0338669915
 40
0.0376819756
 40
0.0416599509
 40
0.0458059014
 40
0.0501238484
 40
0.0546170457
 40
0.0592880904
 40
0.0641388823
 40
0.0743840273
 40
0.0853589731
 40
0.0970628884
 40
0.1094897204
 40
0.1226290485
 40
0.1364667983
 40
0.150985724
 40
0.1661657402
 40
0.1819842994
 40
0.1984166672
 40
0.2154360881
 40
0.2330139733
 40
0.2511201141
 40
0.2697228096
 40
0.2887889572
 40
0.3082842254
 40
0.3281731775
 40
0.3689845373
 40
0.4109219876
 40
0.4536724428
 40
0.4969149176
 40
0.5403236819
 40
0.583571419
 40
0.6263323591
 40
0.6682854005
 40
0.7091173135
 40
0.7290183374
 40
0.7485268513
 40
0.7676073561
 40
0.786225483
 40
0.8043481228
 40
0.8219435077
 40
0.8389813496
 40
0.8554330427
 40
0.8712717803
 40
0.8864727177
 40
0.9010132379
 40
0.9148732178
 40
0.928035286
 40
0.9404852247
 40
0.9522125262
 40
0.9632110188
 40
0.9734796185
 40
0.9830234909
 40
0.9918562138
 40
1.0
 40
1.0
 40
1.0
 40
1.0
 10
12.7358259046
 20
7.3656148824
 30
0.0
 10
12.7366471113
 20
7.365557937
 30
0.0
 10
12.7382914785
 20
7.3653693023
 30
0.0
 10
12.7407371068
 20
7.3648645255
 30
0.0
 10
12.7431642337
 20
7.3641379108
 30
0.0
 10
12.7455711624
 20
7.3631902767
 30
0.0
 10
12.7479566377
 20
7.3620224122
 30
0.0
 10
12.7503194121
 20
7.3606352007
 30
0.0
 10
12.7526584444
 20
7.3590297058
 30
0.0
 10
12.7549726602
 20
7.3572068873
 30
0.0
 10
12.7572610513
 20
7.3551678111
 30
0.0
 10
12.759522681
 20
7.3529136389
 30
0.0
 10
12.7617565041
 20
7.3504454896
 30
0.0
 10
12.7639615527
 20
7.3477646417
 30
0.0
 10
12.7661368584
 20
7.3448724488
 30
0.0
 10
12.7682813538
 20
7.3417702974
 30
0.0
 10
12.7703940818
 20
7.3384597485
 30
0.0
 10
12.7724740302
 20
7.3349424308
 30
0.0
 10
12.7745201787
 20
7.3312200444
 30
0.0
 10
12.7772519001
 20
7.3258883399
 30
0.0
 10
12.7805635965
 20
7.3187114668
 30
0.0
 10
12.7843178911
 20
7.3094644514
 30
0.0
 10
12.7879143407
 20
7.2994497803
 30
0.0
 10
12.7913457738
 20
7.2886873089
 30
0.0
 10
12.7946053328
 20
7.2771981715
 30
0.0
 10
12.7976864233
 20
7.2650051555
 30
0.0
 10
12.8005827785
 20
7.2521325078
 30
0.0
 10
12.8032885328
 20
7.2386059252
 30
0.0
 10
12.8057981873
 20
7.2244524589
 30
0.0
 10
12.8081066192
 20
7.2097004461
 30
0.0
 10
12.8102091286
 20
7.1943794613
 30
0.0
 10
12.812101452
 20
7.1785202505
 30
0.0
 10
12.8137797319
 20
7.1621546506
 30
0.0
 10
12.8152405376
 20
7.1453155262
 30
0.0
 10
12.8164809018
 20
7.1280367206
 30
0.0
 10
12.8174983349
 20
7.1103529316
 30
0.0
 10
12.8185638661
 20
7.0860736996
 30
0.0
 10
12.8193125371
 20
7.054976303
 30
0.0
 10
12.8192947377
 20
7.0169422645
 30
0.0
 10
12.8183676894
 20
6.978182635
 30
0.0
 10
12.8165386299
 20
6.9390088993
 30
0.0
 10
12.8138221306
 20
6.8997356518
 30
0.0
 10
12.81023997
 20
6.8606783942
 30
0.0
 10
12.8058211074
 20
6.8221507651
 30
0.0
 10
12.8006012073
 20
6.7844623606
 30
0.0
 10
12.7955772377
 20
6.7537495431
 30
0.0
 10
12.7911782254
 20
6.7298342569
 30
0.0
 10
12.7877349618
 20
6.7124468614
 30
0.0
 10
12.7841265609
 20
6.6954902398
 30
0.0
 10
12.7803602711
 20
6.6789984407
 30
0.0
 10
12.7764437218
 20
6.663004594
 30
0.0
 10
12.7723848194
 20
6.647540818
 30
0.0
 10
12.7681917486
 20
6.6326381581
 30
0.0
 10
12.7638729983
 20
6.6183265009
 30
0.0
 10
12.7594373027
 20
6.604634525
 30
0.0
 10
12.7548936108
 20
6.591589649
 30
0.0
 10
12.7502510988
 20
6.5792179482
 30
0.0
 10
12.7455191519
 20
6.5675440867
 30
0.0
 10
12.7407073
 20
6.5565912823
 30
0.0
 10
12.7358251805
 20
6.5463812409
 30
0.0
 10
12.7308825685
 20
6.5369340532
 30
0.0
 10
12.7258892185
 20
6.5282681534
 30
0.0
 10
12.7208548932
 20
6.5204003889
 30
0.0
 10
12.7157889212
 20
6.5133454471
 30
0.0
 10
12.7107010807
 20
6.5071173764
 30
0.0
 10
12.7071602972
 20
6.5033762864
 30
0.0
 10
12.7053852895
 20
6.5016617605
 30
0.0
  0
SPLINE
  5
36D
100
AcDbEntity
  8
0
100
AcDbSpline
 62
7
  6
CONTINUOUS
 70
0
 71
3
 72
39
 73
35
 74
0
 42
0.0000001
 43
0.0000001
 44
0.0000000001
 40
0.0
 40
0.0
 40
0.0
 40
0.0
 40
0.0313282059
 40
0.0628640942
 40
0.0945965877
 40
0.1265062002
 40
0.1585673757
 40
0.1907491061
 40
0.2230161157
 40
0.2553301378
 40
0.2876512689
 40
0.3199393595
 40
0.3521554099
 40
0.3842629361
 40
0.4162292812
 40
0.448026822
 40
0.4796340311
 40
0.5110363786
 40
0.5422270037
 40
0.5732071178
 40
0.6039861352
 40
0.6345814565
 40
0.6650179101
 40
0.6953268686
 40
0.7255450246
 40
0.7557129008
 40
0.7858731607
 40
0.8160687889
 40
0.8463412674
 40
0.8767288224
 40
0.9072648596
 40
0.9379766752
 40
0.9688840277
 40
1.0
 40
1.0
 40
1.0
 40
1.0
 10
11.5876589457
 20
10.0877689354
 30
0.0
 10
11.5876589457
 20
10.0961707036
 30
0.0
 10
11.5868276431
 20
10.1130411424
 30
0.0
 10
11.5831286858
 20
10.1381770442
 30
0.0
 10
11.5770101861
 20
10.1629983633
 30
0.0
 10
11.5685314357
 20
10.1872635681
 30
0.0
 10
11.5577746455
 20
10.2107405741
 30
0.0
 10
11.5448435381
 20
10.233203886
 30
0.0
 10
11.5298625376
 20
10.2544380226
 30
0.0
 10
11.5129757392
 20
10.2742393056
 30
0.0
 10
11.4943452776
 20
10.2924176965
 30
0.0
 10
11.4741499314
 20
10.3087986186
 30
0.0
 10
11.4525835219
 20
10.3232247547
 30
0.0
 10
11.4298528929
 20
10.3355572863
 30
0.0
 10
11.406176106
 20
10.3456773497
 30
0.0
 10
11.3817804065
 20
10.3534872839
 30
0.0
 10
11.3568999877
 20
10.3589112938
 30
0.0
 10
11.331773901
 20
10.3618964165
 30
0.0
 10
11.3066437746
 20
10.3624131212
 30
0.0
 10
11.2817515265
 20
10.3604553733
 30
0.0
 10
11.257337098
 20
10.3560410516
 30
0.0
 10
11.2336361006
 20
10.3492118375
 30
0.0
 10
11.2108775978
 20
10.3400326733
 30
0.0
 10
11.1892817636
 20
10.3285915357
 30
0.0
 10
11.1690576532
 20
10.3149985404
 30
0.0
 10
11.150401207
 20
10.2993847499
 30
0.0
 10
11.1334930505
 20
10.2819011795
 30
0.0
 10
11.1184967121
 20
10.2627171076
 30
0.0
 10
11.1055571136
 20
10.2420183021
 30
0.0
 10
11.0947988583
 20
10.2200052204
 30
0.0
 10
11.0863252036
 20
10.1968911369
 30
0.0
 10
11.0802173028
 20
10.172898755
 30
0.0
 10
11.0765329112
 20
10.1482628191
 30
0.0
 10
11.0757182274
 20
10.131616995
 30
0.0
 10
11.0757182274
 20
10.1232721448
 30
0.0
  0
SPLINE
  5
36E
100
AcDbEntity
  8
0
100
AcDbSpline
 62
7
  6
CONTINUOUS
 70
0
 71
3
 72
87
 73
83
 74
0
 42
0.0000001
 43
0.0000001
 44
0.0000000001
 40
0.0
 40
0.0
 40
0.0
 40
0.0
 40
0.0039535572
 40
0.0080720113
 40
0.0123589234
 40
0.0168173177
 40
0.0214497351
 40
0.0262581256
 40
0.0312437948
 40
0.0364076244
 40
0.0417500523
 40
0.0472711709
 40
0.0529707317
 40
0.0588481423
 40
0.0649025744
 40
0.0711328894
 40
0.0841152099
 40
0.0977821548
 40
0.1121172646
 40
0.1271013918
 40
0.1427130023
 40
0.1589284218
 40
0.1757220401
 40
0.1930664973
 40
0.2109328418
 40
0.2292906703
 40
0.2481082558
 40
0.2673526631
 40
0.2869898594
 40
0.3069848258
 40
0.3273016601
 40
0.3479036761
 40
0.3687534999
 40
0.3898131641
 40
0.4110442024
 40
0.4538639472
 40
0.4968992987
 40
0.5398341083
 40
0.5611655284
 40
0.5823538521
 40
0.6033603116
 40
0.6241465665
 40
0.6446747999
 40
0.664907815
 40
0.6848091294
 40
0.7043430716
 40
0.7234748814
 40
0.7421708122
 40
0.7603982435
 40
0.778125796
 40
0.7953234486
 40
0.8119626687
 40
0.8280165565
 40
0.8434600069
 40
0.858269902
 40
0.8724253302
 40
0.8859078425
 40
0.8987017733
 40
0.9048367011
 40
0.9107951063
 40
0.9165759938
 40
0.9221786869
 40
0.9276027543
 40
0.9328481347
 40
0.9379151041
 40
0.9428043345
 40
0.9475169719
 40
0.9520546134
 40
0.9564194664
 40
0.9606143264
 40
0.964642719
 40
0.9685089763
 40
0.9722183084
 40
0.9757769863
 40
0.979192379
 40
0.9824731559
 40
0.9856293583
 40
0.9886725159
 40
0.9916157405
 40
0.9944736974
 40
0.9972625973
 40
1.0
 40
1.0
 40
1.0
 40
1.0
 10
12.9487493061
 20
8.445035547
 30
0.0
 10
12.9504552269
 20
8.4466833401
 30
0.0
 10
12.9538652472
 20
8.4501238805
 30
0.0
 10
12.958874712
 20
8.4555920749
 30
0.0
 10
12.9638789999
 20
8.4614687961
 30
0.0
 10
12.9688754978
 20
8.4677509339
 30
0.0
 10
12.9738619447
 20
8.4744354996
 30
0.0
 10
12.9788359619
 20
8.4815193457
 30
0.0
 10
12.9837952523
 20
8.4889990308
 30
0.0
 10
12.9887373225
 20
8.4968709667
 30
0.0
 10
12.9936598327
 20
8.5051313047
 30
0.0
 10
12.9985603788
 20
8.513776051
 30
0.0
 10
13.0034365609
 20
8.5228010175
 30
0.0
 10
13.0082860466
 20
8.5322017955
 30
0.0
 10
13.013106428
 20
8.5419738419
 30
0.0
 10
13.0195806282
 20
8.5556803859
 30
0.0
 10
13.0275695384
 20
8.5737187388
 30
0.0
 10
13.0368764684
 20
8.5964794166
 30
0.0
 10
13.0460122218
 20
8.6205977934
 30
0.0
 10
13.0549588317
 20
8.6460267781
 30
0.0
 10
13.0636986951
 20
8.6727169271
 30
0.0
 10
13.0722146035
 20
8.7006161708
 30
0.0
 10
13.0804897952
 20
8.7296700374
 30
0.0
 10
13.08850798
 20
8.7598217451
 30
0.0
 10
13.0962533752
 20
8.7910123341
 30
0.0
 10
13.1037107378
 20
8.8231807861
 30
0.0
 10
13.110865393
 20
8.8562641472
 30
0.0
 10
13.1177032651
 20
8.8901976515
 30
0.0
 10
13.1242109115
 20
8.9249148499
 30
0.0
 10
13.1303755394
 20
8.9603477474
 30
0.0
 10
13.1361850319
 20
8.9964269395
 30
0.0
 10
13.1416279753
 20
9.0330817545
 30
0.0
 10
13.1466936626
 20
9.0702403683
 30
0.0
 10
13.1513721849
 20
9.1078300339
 30
0.0
 10
13.1570975556
 20
9.1585677886
 30
0.0
 10
13.1632176013
 20
9.2225238914
 30
0.0
 10
13.1688729838
 20
9.2995853164
 30
0.0
 10
13.1721657872
 20
9.3638784965
 30
0.0
 10
13.1739265149
 20
9.4151144329
 30
0.0
 10
13.1748035792
 20
9.4532153954
 30
0.0
 10
13.1752383792
 20
9.4909968707
 30
0.0
 10
13.1752300477
 20
9.5283848903
 30
0.0
 10
13.1747786339
 20
9.5653061821
 30
0.0
 10
13.1738850547
 20
9.6016884153
 30
0.0
 10
13.1725510993
 20
9.6374603167
 30
0.0
 10
13.1707794238
 20
9.6725518162
 30
0.0
 10
13.1685735473
 20
9.7068941824
 30
0.0
 10
13.1659378444
 20
9.7404201611
 30
0.0
 10
13.1628775426
 20
9.7730641133
 30
0.0
 10
13.1593987147
 20
9.8047621484
 30
0.0
 10
13.1555082594
 20
9.8354522505
 30
0.0
 10
13.1512138902
 20
9.8650744031
 30
0.0
 10
13.14652412
 20
9.8935707094
 30
0.0
 10
13.1414482423
 20
9.9208855277
 30
0.0
 10
13.1359963146
 20
9.946965564
 30
0.0
 10
13.1301791452
 20
9.9717601092
 30
0.0
 10
13.1240082209
 20
9.9952207537
 30
0.0
 10
13.1185070309
 20
10.0138740085
 30
0.0
 10
13.1139252503
 20
10.0280844601
 30
0.0
 10
13.1104562122
 20
10.0382314196
 30
0.0
 10
13.1069080306
 20
10.0480120199
 30
0.0
 10
13.1032824822
 20
10.0574215323
 30
0.0
 10
13.0995812681
 20
10.0664553631
 30
0.0
 10
13.0958062369
 20
10.0751091407
 30
0.0
 10
13.0919592074
 20
10.0833786713
 30
0.0
 10
13.0880420023
 20
10.0912599422
 30
0.0
 10
13.0840565735
 20
10.0987491766
 30
0.0
 10
13.0800047292
 20
10.1058427307
 30
0.0
 10
13.0758884716
 20
10.1125372318
 30
0.0
 10
13.0717096695
 20
10.1188294434
 30
0.0
 10
13.067470263
 20
10.124716348
 30
0.0
 10
13.0631722204
 20
10.1301951449
 30
0.0
 10
13.0588173811
 20
10.1352631289
 30
0.0
 10
13.0544077548
 20
10.1399178966
 30
0.0
 10
13.0499451484
 20
10.1441570515
 30
0.0
 10
13.0454315122
 20
10.1479784494
 30
0.0
 10
13.0408687416
 20
10.1513800088
 30
0.0
 10
13.0362587331
 20
10.1543596854
 30
0.0
 10
13.0316036214
 20
10.1569156663
 30
0.0
 10
13.0269053599
 20
10.1590460224
 30
0.0
 10
13.0221668775
 20
10.1607490788
 30
0.0
 10
13.0189589421
 20
10.1616048396
 30
0.0
 10
13.0173552306
 20
10.1619583092
 30
0.0
  0
SPLINE
  5
36F
100
AcDbEntity
  8
0
100
AcDbSpline
 62
7
  6
CONTINUOUS
 70
0
 71
3
 72
15
 73
11
 74
0
 42
0.0000001
 43
0.0000001
 44
0.0000000001
 40
0.0
 40
0.0
 40
0.0
 40
0.0
 40
0.1484663289
 40
0.28882625
 40
0.4215988011
 40
0.5474499651
 40
0.6671855214
 40
0.7817594988
 40
0.8922810373
 40
1.0
 40
1.0
 40
1.0
 40
1.0
 10
12.9487493061
 20
8.445035547
 30
0.0
 10
12.9465466422
 20
8.4429079369
 30
0.0
 10
12.9421438599
 20
8.438887919
 30
0.0
 10
12.9353512825
 20
8.4334472442
 30
0.0
 10
12.928566018
 20
8.4287756693
 30
0.0
 10
12.9217933628
 20
8.4248785304
 30
0.0
 10
12.9150381968
 20
8.4217606496
 30
0.0
 10
12.9083054725
 20
8.4194271316
 30
0.0
 10
12.9016027642
 20
8.4178828357
 30
0.0
 10
12.8971172986
 20
8.4173778797
 30
0.0
 10
12.8948984023
 20
8.4172618659
 30
0.0
  0
SPLINE
  5
370
100
AcDbEntity
  8
0
100
AcDbSpline
 62
7
  6
CONTINUOUS
 70
0
 71
3
 72
28
 73
24
 74
0
 42
0.0000001
 43
0.0000001
 44
0.0000000001
 40
0.0
 40
0.0
 40
0.0
 40
0.0
 40
0.075586486
 40
0.1466186449
 40
0.2134346186
 40
0.2764747341
 40
0.3362787133
 40
0.3934907744
 40
0.4213687662
 40
0.4488871414
 40
0.4761523432
 40
0.5032741136
 40
0.5303640302
 40
0.5575341327
 40
0.5848953814
 40
0.61255619
 40
0.6406212621
 40
0.6691904178
 40
0.7281874797
 40
0.7902492613
 40
0.8559439887
 40
0.9257370602
 40
1.0
 40
1.0
 40
1.0
 40
1.0
 10
12.9487493061
 20
8.6527096119
 30
0.0
 10
12.9469149761
 20
8.6509377851
 30
0.0
 10
12.9432487972
 20
8.6476097663
 30
0.0
 10
12.9375749848
 20
8.6431637837
 30
0.0
 10
12.9319079098
 20
8.6394297616
 30
0.0
 10
12.9262524959
 20
8.6364133743
 30
0.0
 10
12.9206142505
 20
8.6341199751
 30
0.0
 10
12.9158923175
 20
8.6328048443
 30
0.0
 10
12.9121507078
 20
8.6321319933
 30
0.0
 10
12.9093778697
 20
8.631813811
 30
0.0
 10
12.9066157022
 20
8.6316781894
 30
0.0
 10
12.9038650126
 20
8.6317251062
 30
0.0
 10
12.9011267267
 20
8.6319545855
 30
0.0
 10
12.8984017526
 20
8.6323666064
 30
0.0
 10
12.8956909759
 20
8.6329609595
 30
0.0
 10
12.8929952681
 20
8.6337373506
 30
0.0
 10
12.890315396
 20
8.6346955562
 30
0.0
 10
12.8867266343
 20
8.6362311405
 30
0.0
 10
12.8822694838
 20
8.6386270445
 30
0.0
 10
12.8770610012
 20
8.642191669
 30
0.0
 10
12.87193826
 20
8.6464704327
 30
0.0
 10
12.8669061417
 20
8.6514569159
 30
0.0
 10
12.8637168237
 20
8.6551309509
 30
0.0
 10
12.8621358242
 20
8.6570748624
 30
0.0
  0
SPLINE
  5
371
100
AcDbEntity
  8
0
100
AcDbSpline
 62
7
  6
CONTINUOUS
 70
0
 71
3
 72
18
 73
14
 74
0
 42
0.0000001
 43
0.0000001
 44
0.0000000001
 40
0.0
 40
0.0
 40
0.0
 40
0.0
 40
0.150467008
 40
0.2917141408
 40
0.4244426259
 40
0.4879099277
 40
0.549609295
 40
0.6682624161
 40
0.7817883561
 40
0.8371380822
 40
0.8918079419
 40
0.9460193459
 40
1.0
 40
1.0
 40
1.0
 40
1.0
 10
12.8956233825
 20
8.7095198308
 30
0.0
 10
12.893913011
 20
8.7078677387
 30
0.0
 10
12.8904945621
 20
8.7047679208
 30
0.0
 10
12.8852014742
 20
8.7006370018
 30
0.0
 10
12.8807305329
 20
8.697715405
 30
0.0
 10
12.8771653727
 20
8.6957369775
 30
0.0
 10
12.8737050949
 20
8.6940384491
 30
0.0
 10
12.8693786469
 20
8.6923221434
 30
0.0
 10
12.8649752423
 20
8.6911508867
 30
0.0
 10
12.8614876053
 20
8.6905739312
 30
0.0
 10
12.8589027914
 20
8.6903178262
 30
0.0
 10
12.8563284299
 20
8.6902351196
 30
0.0
 10
12.8546180891
 20
8.690295624
 30
0.0
 10
12.8537670238
 20
8.6903546435
 30
0.0
  0
SPLINE
  5
372
100
AcDbEntity
  8
0
100
AcDbSpline
 62
7
  6
CONTINUOUS
 70
0
 71
3
 72
11
 73
7
 74
0
 42
0.0000001
 43
0.0000001
 44
0.0000000001
 40
0.0
 40
0.0
 40
0.0
 40
0.0
 40
0.2523622785
 40
0.5030755991
 40
0.7522391571
 40
1.0
 40
1.0
 40
1.0
 40
1.0
 10
11.2764030697
 20
10.2631188284
 30
0.0
 10
11.2764030697
 20
10.2695865391
 30
0.0
 10
11.2770176615
 20
10.2824884658
 30
0.0
 10
11.2797973532
 20
10.3015957672
 30
0.0
 10
11.2844059385
 20
10.320225096
 30
0.0
 10
11.2886833475
 20
10.3322473229
 30
0.0
 10
11.2911097947
 20
10.3381152088
 30
0.0
  0
SPLINE
  5
373
100
AcDbEntity
  8
0
100
AcDbSpline
 62
7
  6
CONTINUOUS
 70
0
 71
3
 72
90
 73
86
 74
0
 42
0.0000001
 43
0.0000001
 44
0.0000000001
 40
0.0
 40
0.0
 40
0.0
 40
0.0
 40
0.0027164161
 40
0.0054532042
 40
0.0082302557
 40
0.0110665249
 40
0.0139797103
 40
0.0169859906
 40
0.0200999233
 40
0.0233344115
 40
0.0267007267
 40
0.03020865
 40
0.0338665219
 40
0.037681453
 40
0.0416593866
 40
0.0458052705
 40
0.0501231624
 40
0.0546163044
 40
0.05928728
 40
0.0641380041
 40
0.0691698883
 40
0.074383819
 40
0.0797802599
 40
0.0853592863
 40
0.0911205905
 40
0.0970635843
 40
0.1094902289
 40
0.1226293717
 40
0.1364669317
 40
0.1509856416
 40
0.1661654371
 40
0.1819837774
 40
0.1984159058
 40
0.215435067
 40
0.2330126943
 40
0.2511185732
 40
0.2697209872
 40
0.2887868504
 40
0.3082818346
 40
0.3281704884
 40
0.3484163492
 40
0.3689820511
 40
0.3898294297
 40
0.410919625
 40
0.4322131812
 40
0.4536701493
 40
0.4752501863
 40
0.4969126541
 40
0.5186167167
 40
0.5403214385
 40
0.5619858817
 40
0.583569205
 40
0.605030762
 40
0.6263301992
 40
0.6474275545
 40
0.6682833559
 40
0.6888587212
 40
0.70911546
 40
0.7290161786
 40
0.7485243844
 40
0.7676045932
 40
0.7862224409
 40
0.8043448006
 40
0.8219399072
 40
0.8389774919
 40
0.8554289325
 40
0.8712674145
 40
0.8864681158
 40
0.9010084229
 40
0.9148681885
 40
0.9280300453
 40
0.9343448951
 40
0.9404802507
 40
0.9464348979
 40
0.9522079219
 40
0.9577986875
 40
0.9632068744
 40
0.9684325511
 40
0.9734761281
 40
0.9783384812
 40
0.9830209275
 40
0.9875254311
 40
0.9918546016
 40
0.9960115654
 40
1.0
 40
1.0
 40
1.0
 40
1.0
 10
13.024739694
 20
10.1620523514
 30
0.0
 10
13.0263727748
 20
10.1619391043
 30
0.0
 10
13.0296428209
 20
10.1615639511
 30
0.0
 10
13.0345062759
 20
10.1605600898
 30
0.0
 10
13.0393329491
 20
10.1591151178
 30
0.0
 10
13.0441194599
 20
10.1572306083
 30
0.0
 10
13.048863271
 20
10.1549080794
 30
0.0
 10
13.0535620004
 20
10.152149458
 30
0.0
 10
13.0582134648
 20
10.1489566637
 30
0.0
 10
13.0628155733
 20
10.1453317031
 30
0.0
 10
13.0673664013
 20
10.1412767563
 30
0.0
 10
13.0718638937
 20
10.1367939506
 30
0.0
 10
13.076306189
 20
10.1318857143
 30
0.0
 10
13.0806912272
 20
10.1265544647
 30
0.0
 10
13.0850170804
 20
10.1208029041
 30
0.0
 10
13.0892817347
 20
10.1146338596
 30
0.0
 10
13.0934831605
 20
10.1080503579
 30
0.0
 10
13.0976194194
 20
10.1010556678
 30
0.0
 10
13.1016884283
 20
10.0936531968
 30
0.0
 10
13.1056882981
 20
10.085846637
 30
0.0
 10
13.1096169859
 20
10.07763982
 30
0.0
 10
13.1134726012
 20
10.0690368338
 30
0.0
 10
13.1172532181
 20
10.0600419447
 30
0.0
 10
13.1209569195
 20
10.050659629
 30
0.0
 10
13.1245819481
 20
10.0408945592
 30
0.0
 10
13.1293793085
 20
10.0271657524
 30
0.0
 10
13.1351484118
 20
10.0090707885
 30
0.0
 10
13.1416304793
 20
9.9862232336
 30
0.0
 10
13.1477576237
 20
9.9619756841
 30
0.0
 10
13.1535174248
 20
9.9363766715
 30
0.0
 10
13.1588981797
 20
9.9094771984
 30
0.0
 10
13.1638889458
 20
9.8813310813
 30
0.0
 10
13.1684795669
 20
9.8519946812
 30
0.0
 10
13.1726606992
 20
9.8215268133
 30
0.0
 10
13.1764238309
 20
9.7899886059
 30
0.0
 10
13.1797613005
 20
9.7574433724
 30
0.0
 10
13.1826663111
 20
9.7239564787
 30
0.0
 10
13.1851329494
 20
9.689595207
 30
0.0
 10
13.1871561921
 20
9.6544286153
 30
0.0
 10
13.1887319149
 20
9.6185273928
 30
0.0
 10
13.1898569004
 20
9.5819637151
 30
0.0
 10
13.1905288437
 20
9.5448110974
 30
0.0
 10
13.1907463564
 20
9.5071442462
 30
0.0
 10
13.1905089692
 20
9.4690389087
 30
0.0
 10
13.1898171369
 20
9.430571719
 30
0.0
 10
13.1886722332
 20
9.3918200423
 30
0.0
 10
13.1870765466
 20
9.3528618177
 30
0.0
 10
13.1850332761
 20
9.3137754003
 30
0.0
 10
13.1825465245
 20
9.2746394043
 30
0.0
 10
13.1796212901
 20
9.2355325444
 30
0.0
 10
13.1762634561
 20
9.1965334772
 30
0.0
 10
13.1724797842
 20
9.1577206412
 30
0.0
 10
13.168277896
 20
9.119172098
 30
0.0
 10
13.1636662576
 20
9.080965375
 30
0.0
 10
13.1586541629
 20
9.0431773096
 30
0.0
 10
13.153251715
 20
9.0058838938
 30
0.0
 10
13.1474698065
 20
8.9691601217
 30
0.0
 10
13.1413200967
 20
8.9330798353
 30
0.0
 10
13.1348149943
 20
8.8977155735
 30
0.0
 10
13.1279676275
 20
8.8631384244
 30
0.0
 10
13.1207918181
 20
8.829417882
 30
0.0
 10
13.113302054
 20
8.7966217049
 30
0.0
 10
13.1055134605
 20
8.7648157771
 30
0.0
 10
13.09744177
 20
8.7340639718
 30
0.0
 10
13.0891032892
 20
8.7044280143
 30
0.0
 10
13.0805148713
 20
8.6759673512
 30
0.0
 10
13.0716938746
 20
8.648739014
 30
0.0
 10
13.0626581254
 20
8.6227975279
 30
0.0
 10
13.0534258735
 20
8.5981946753
 30
0.0
 10
13.0440157576
 20
8.5749797659
 30
0.0
 10
13.0359339913
 20
8.5565835906
 30
0.0
 10
13.0293823271
 20
8.5426077437
 30
0.0
 10
13.0245038256
 20
8.5326462281
 30
0.0
 10
13.0195950885
 20
8.5230650138
 30
0.0
 10
13.0146585712
 20
8.5138688715
 30
0.0
 10
13.0096967571
 20
8.5050623909
 30
0.0
 10
13.0047120847
 20
8.4966499733
 30
0.0
 10
12.9997070958
 20
8.4886357758
 30
0.0
 10
12.9946841974
 20
8.4810238243
 30
0.0
 10
12.9896459776
 20
8.4738178693
 30
0.0
 10
12.9845948508
 20
8.4670214954
 30
0.0
 10
12.979533271
 20
8.4606380078
 30
0.0
 10
12.9744636055
 20
8.4546705019
 30
0.0
 10
12.9693885373
 20
8.4491222163
 30
0.0
 10
12.9659328949
 20
8.4456336194
 30
0.0
 10
12.964204121
 20
8.4439637519
 30
0.0
  0
SPLINE
  5
374
100
AcDbEntity
  8
0
100
AcDbSpline
 62
7
  6
CONTINUOUS
 70
0
 71
3
 72
51
 73
47
 74
0
 42
0.0000001
 43
0.0000001
 44
0.0000000001
 40
0.0
 40
0.0
 40
0.0
 40
0.0
 40
0.0149716485
 40
0.0299463565
 40
0.0449271644
 40
0.0599170744
 40
0.0749190346
 40
0.0899359198
 40
0.1049705137
 40
0.1200254925
 40
0.1351034109
 40
0.1502066862
 40
0.1653375828
 40
0.1804982023
 40
0.1956904722
 40
0.2109161327
 40
0.2261767296
 40
0.241473608
 40
0.2568079046
 40
0.2721805407
 40
0.2875922226
 40
0.303043438
 40
0.3185344523
 40
0.334065311
 40
0.3496358431
 40
0.3652456603
 40
0.3965753769
 40
0.4280524346
 40
0.4596664537
 40
0.4914042018
 40
0.5232498957
 40
0.555185552
 40
0.5871913712
 40
0.619246145
 40
0.65132769
 40
0.68341329
 40
0.7154801477
 40
0.7475058396
 40
0.7794687608
 40
0.8113485629
 40
0.8431265731
 40
0.8747861836
 40
0.9063132226
 40
0.9376962675
 40
0.9689267871
 40
1.0
 40
1.0
 40
1.0
 40
1.0
 10
11.0902645613
 20
6.1500449794
 30
0.0
 10
11.0830058893
 20
6.1430336537
 30
0.0
 10
11.0682065785
 20
6.1292966374
 30
0.0
 10
11.0452039186
 20
6.109587284
 30
0.0
 10
11.0214267088
 20
6.0907989737
 30
0.0
 10
10.9969081553
 20
6.0729579645
 30
0.0
 10
10.9716819015
 20
6.0560886559
 30
0.0
 10
10.9457826789
 20
6.0402143129
 30
0.0
 10
10.919246112
 20
6.0253567875
 30
0.0
 10
10.8921087559
 20
6.0115364617
 30
0.0
 10
10.8644079531
 20
5.9987723388
 30
0.0
 10
10.8361818021
 20
5.9870820205
 30
0.0
 10
10.8074691657
 20
5.9764815326
 30
0.0
 10
10.7783095613
 20
5.9669854144
 30
0.0
 10
10.7487430969
 20
5.9586067517
 30
0.0
 10
10.718810453
 20
5.9513570593
 30
0.0
 10
10.6885528241
 20
5.9452462337
 30
0.0
 10
10.6580118301
 20
5.9402826699
 30
0.0
 10
10.6272294762
 20
5.936473225
 30
0.0
 10
10.5962481139
 20
5.9338230592
 30
0.0
 10
10.5651103513
 20
5.9323357775
 30
0.0
 10
10.5338590198
 20
5.9320134506
 30
0.0
 10
10.5025370632
 20
5.9328564963
 30
0.0
 10
10.4711876901
 20
5.9348636526
 30
0.0
 10
10.4398534893
 20
5.9380322821
 30
0.0
 10
10.3981070064
 20
5.9438059735
 30
0.0
 10
10.3461722629
 20
5.9539125911
 30
0.0
 10
10.2846869758
 20
5.9705619428
 30
0.0
 10
10.2242890934
 20
5.9916566679
 30
0.0
 10
10.1653124393
 20
6.017080282
 30
0.0
 10
10.1080800202
 20
6.0466927171
 30
0.0
 10
10.0529060534
 20
6.0803310648
 30
0.0
 10
10.000093248
 20
6.1178104285
 30
0.0
 10
9.9499313249
 20
6.1589248046
 30
0.0
 10
9.9026956247
 20
6.2034485168
 30
0.0
 10
9.8586452809
 20
6.2511370305
 30
0.0
 10
9.8180221734
 20
6.3017286845
 30
0.0
 10
9.7810493422
 20
6.3549458241
 30
0.0
 10
9.7479298641
 20
6.4104964254
 30
0.0
 10
9.7188458851
 20
6.4680757408
 30
0.0
 10
9.6939572722
 20
6.5273677322
 30
0.0
 10
9.6734012248
 20
6.5880471656
 30
0.0
 10
9.6572910189
 20
6.6497806143
 30
0.0
 10
9.6457157914
 20
6.7122303218
 30
0.0
 10
9.6387397048
 20
6.7750488859
 30
0.0
 10
9.6371771889
 20
6.8170620315
 30
0.0
 10
9.6371771889
 20
6.8380075289
 30
0.0
  0
SPLINE
  5
375
100
AcDbEntity
  8
0
100
AcDbSpline
 62
7
  6
CONTINUOUS
 70
0
 71
3
 72
50
 73
46
 74
0
 42
0.0000001
 43
0.0000001
 44
0.0000000001
 40
0.0
 40
0.0
 40
0.0
 40
0.0
 40
0.0149701899
 40
0.0299439992
 40
0.0449244439
 40
0.0599144997
 40
0.0749170856
 40
0.0899350438
 40
0.1049711231
 40
0.1200279649
 40
0.1351080869
 40
0.1502138661
 40
0.1653475286
 40
0.1805111375
 40
0.1957065789
 40
0.2109355531
 40
0.2261995687
 40
0.2414999323
 40
0.2568377411
 40
0.2722138828
 40
0.2876290302
 40
0.3030836358
 40
0.3185779353
 40
0.3341119481
 40
0.3652929014
 40
0.3966276436
 40
0.428108767
 40
0.4597257953
 40
0.4914654335
 40
0.5233118789
 40
0.5552471662
 40
0.5872515447
 40
0.6193038885
 40
0.65138212
 40
0.6834636498
 40
0.7155258239
 40
0.7475463706
 40
0.7795038415
 40
0.8113780449
 40
0.8431504556
 40
0.8748046033
 40
0.9063264366
 40
0.937704636
 40
0.9689307244
 40
1.0
 40
1.0
 40
1.0
 40
1.0
 10
11.09025021
 20
6.1500613809
 30
0.0
 10
11.0829603053
 20
6.1431256196
 30
0.0
 10
11.0681020927
 20
6.1295398795
 30
0.0
 10
11.045022067
 20
6.1100576666
 30
0.0
 10
11.0211779977
 20
6.0914958689
 30
0.0
 10
10.9966030092
 20
6.0738802419
 30
0.0
 10
10.9713305968
 20
6.0572347632
 30
0.0
 10
10.9453953324
 20
6.0415822858
 30
0.0
 10
10.9188327244
 20
6.0269441519
 30
0.0
 10
10.8916791247
 20
6.0133403512
 30
0.0
 10
10.8639716501
 20
6.0007895373
 30
0.0
 10
10.8357482182
 20
5.9893088413
 30
0.0
 10
10.807047455
 20
5.9789138993
 30
0.0
 10
10.7779086009
 20
5.9696189541
 30
0.0
 10
10.7483715088
 20
5.9614367187
 30
0.0
 10
10.7184765957
 20
5.9543782936
 30
0.0
 10
10.6882647381
 20
5.9484533288
 30
0.0
 10
10.6577772433
 20
5.9436699602
 30
0.0
 10
10.6270558114
 20
5.9400346343
 30
0.0
 10
10.5961424559
 20
5.9375522901
 30
0.0
 10
10.5650794007
 20
5.9362263742
 30
0.0
 10
10.5339092592
 20
5.9360586032
 30
0.0
 10
10.5026741139
 20
5.9370492368
 30
0.0
 10
10.4609508614
 20
5.9399158188
 30
0.0
 10
10.4088402832
 20
5.9463962878
 30
0.0
 10
10.3468226175
 20
5.9587364597
 30
0.0
 10
10.2855693494
 20
5.9755825279
 30
0.0
 10
10.2254171072
 20
5.9968419468
 30
0.0
 10
10.1666934453
 20
6.0223980498
 30
0.0
 10
10.1097189063
 20
6.0521109756
 30
0.0
 10
10.0548042382
 20
6.0858182373
 30
0.0
 10
10.0022489168
 20
6.1233355462
 30
0.0
 10
9.9523396737
 20
6.1644581095
 30
0.0
 10
9.9053486903
 20
6.2089613501
 30
0.0
 10
9.8615323406
 20
6.2566024251
 30
0.0
 10
9.8211297794
 20
6.3071214483
 30
0.0
 10
9.7843614503
 20
6.3602427584
 30
0.0
 10
9.7514282503
 20
6.4156766723
 30
0.0
 10
9.7225100819
 20
6.4731207913
 30
0.0
 10
9.6977650641
 20
6.5322617445
 30
0.0
 10
9.6773287664
 20
6.5927770239
 30
0.0
 10
9.6613131044
 20
6.6543360702
 30
0.0
 10
9.6498062384
 20
6.7166040788
 30
0.0
 10
9.6428714939
 20
6.7792367071
 30
0.0
 10
9.6413182904
 20
6.8211243782
 30
0.0
 10
9.6413182904
 20
6.842007526
 30
0.0
  0
SPLINE
  5
376
100
AcDbEntity
  8
0
100
AcDbSpline
 62
7
  6
CONTINUOUS
 70
0
 71
3
 72
39
 73
35
 74
0
 42
0.0000001
 43
0.0000001
 44
0.0000000001
 40
0.0
 40
0.0
 40
0.0
 40
0.0
 40
0.0299424711
 40
0.0599093186
 40
0.0899243248
 40
0.1200101037
 40
0.1501875627
 40
0.180475415
 40
0.2108897594
 40
0.2414437357
 40
0.2721472604
 40
0.3030068436
 40
0.3340254954
 40
0.3652027141
 40
0.3965345493
 40
0.4280137349
 40
0.4596298917
 40
0.4913697854
 40
0.5232176332
 40
0.5551554502
 40
0.5871634342
 40
0.6192203768
 40
0.6513040925
 40
0.6833918636
 40
0.7154608917
 40
0.7474887511
 40
0.7794538353
 40
0.8113357951
 40
0.8431159563
 40
0.8747777105
 40
0.9063068747
 40
0.9376920817
 40
0.9689246483
 40
1.0
 40
1.0
 40
1.0
 40
1.0
 10
10.9210601741
 20
6.3619947082
 30
0.0
 10
10.9110234321
 20
6.352299946
 30
0.0
 10
10.8901607072
 20
6.3336928586
 30
0.0
 10
10.8567353923
 20
6.3083439809
 30
0.0
 10
10.8213496888
 20
6.2856837217
 30
0.0
 10
10.784201313
 20
6.2658391987
 30
0.0
 10
10.7454944821
 20
6.2489188724
 30
0.0
 10
10.7054428333
 20
6.2350157232
 30
0.0
 10
10.6642670799
 20
6.2242058
 30
0.0
 10
10.6221940646
 20
6.2165481292
 30
0.0
 10
10.5794554278
 20
6.2120843532
 30
0.0
 10
10.5362863597
 20
6.2108384342
 30
0.0
 10
10.4929242782
 20
6.212816646
 30
0.0
 10
10.4496075381
 20
6.2180075852
 30
0.0
 10
10.4065741466
 20
6.2263822611
 30
0.0
 10
10.3640604482
 20
6.2378941593
 30
0.0
 10
10.3222998521
 20
6.2524796136
 30
0.0
 10
10.2815215786
 20
6.2700581751
 30
0.0
 10
10.2419494319
 20
6.2905330594
 30
0.0
 10
10.2038005353
 20
6.313791578
 30
0.0
 10
10.1672841928
 20
6.339705851
 30
0.0
 10
10.132600767
 20
6.3681335106
 30
0.0
 10
10.0999406035
 20
6.3989184724
 30
0.0
 10
10.0694829187
 20
6.4318917023
 30
0.0
 10
10.0413948908
 20
6.4668722185
 30
0.0
 10
10.0158307619
 20
6.5036680727
 30
0.0
 10
9.992931007
 20
6.5420773841
 30
0.0
 10
9.9728214702
 20
6.581889384
 30
0.0
 10
9.9556127623
 20
6.6228855939
 30
0.0
 10
9.9413996706
 20
6.6648411013
 30
0.0
 10
9.9302606065
 20
6.7075254209
 30
0.0
 10
9.9222571957
 20
6.7507049538
 30
0.0
 10
9.917433668
 20
6.7941395333
 30
0.0
 10
9.9163533147
 20
6.8231886319
 30
0.0
 10
9.9163533147
 20
6.8376709748
 30
0.0
  0
SPLINE
  5
377
100
AcDbEntity
  8
0
100
AcDbSpline
 62
7
  6
CONTINUOUS
 70
0
 71
3
 72
44
 73
40
 74
0
 42
0.0000001
 43
0.0000001
 44
0.0000000001
 40
0.0
 40
0.0
 40
0.0
 40
0.0
 40
0.0149906501
 40
0.030003055
 40
0.0450389648
 40
0.060100028
 40
0.0902993007
 40
0.1206160207
 40
0.1358233404
 40
0.1510630949
 40
0.1816385678
 40
0.2123508248
 40
0.2432016927
 40
0.2741906548
 40
0.3053148906
 40
0.3365693521
 40
0.3679468738
 40
0.3994383127
 40
0.4310327157
 40
0.4627175095
 40
0.4944787115
 40
0.5263011569
 40
0.5581687394
 40
0.590064662
 40
0.6219716953
 40
0.6538724408
 40
0.6857495958
 40
0.7175862167
 40
0.7493659797
 40
0.781073434
 40
0.812694246
 40
0.8442154284
 40
0.8599369386
 40
0.8756294028
 40
0.9069188054
 40
0.9380798329
 40
0.9536121232
 40
0.9691105633
 40
1.0
 40
1.0
 40
1.0
 40
1.0
 10
11.0214411768
 20
6.495406626
 30
0.0
 10
11.0159091798
 20
6.4927157865
 30
0.0
 10
11.0047435908
 20
6.4875201636
 30
0.0
 10
10.9877258224
 20
6.4803001151
 30
0.0
 10
10.970443982
 20
6.4736551411
 30
0.0
 10
10.9470558994
 20
6.4655650703
 30
0.0
 10
10.9172426356
 20
6.456925434
 30
0.0
 10
10.8868571338
 20
6.4503007099
 30
0.0
 10
10.8622544718
 20
6.4462145352
 30
0.0
 10
10.8374242823
 20
6.4429350668
 30
0.0
 10
10.8060993173
 20
6.4403747117
 30
0.0
 10
10.7682668355
 20
6.4397747286
 30
0.0
 10
10.7303055159
 20
6.4416454544
 30
0.0
 10
10.692376388
 20
6.4459788753
 30
0.0
 10
10.6546389625
 20
6.452756429
 30
0.0
 10
10.6172522585
 20
6.4619493296
 30
0.0
 10
10.5803736846
 20
6.4735186311
 30
0.0
 10
10.5441585059
 20
6.487415413
 30
0.0
 10
10.5087591651
 20
6.5035809853
 30
0.0
 10
10.4743246536
 20
6.5219471311
 30
0.0
 10
10.4409998894
 20
6.5424364001
 30
0.0
 10
10.408925115
 20
6.5649624361
 30
0.0
 10
10.3782353133
 20
6.5894303382
 30
0.0
 10
10.3490596445
 20
6.6157370589
 30
0.0
 10
10.3215209078
 20
6.6437718341
 30
0.0
 10
10.2957350286
 20
6.6734166483
 30
0.0
 10
10.2718105758
 20
6.7045467192
 30
0.0
 10
10.2498483018
 20
6.737031048
 30
0.0
 10
10.2299407472
 20
6.770732856
 30
0.0
 10
10.2121717365
 20
6.8055105549
 30
0.0
 10
10.1966164591
 20
6.8412168531
 30
0.0
 10
10.1855425441
 20
6.8716505955
 30
0.0
 10
10.1778543437
 20
6.896310239
 30
0.0
 10
10.1709660299
 20
6.9211065074
 30
0.0
 10
10.1638393569
 20
6.9523951617
 30
0.0
 10
10.1587156255
 20
6.984007253
 30
0.0
 10
10.1558426593
 20
7.009370717
 30
0.0
 10
10.153792473
 20
7.0347011223
 30
0.0
 10
10.1531725455
 20
7.0537446959
 30
0.0
 10
10.1531725455
 20
7.0664207996
 30
0.0
  0
SPLINE
  5
378
100
AcDbEntity
  8
0
100
AcDbSpline
 62
7
  6
CONTINUOUS
 70
0
 71
3
 72
23
 73
19
 74
0
 42
0.0000001
 43
0.0000001
 44
0.0000000001
 40
0.0
 40
0.0
 40
0.0
 40
0.0
 40
0.0617045967
 40
0.1234329708
 40
0.1852055857
 40
0.2470424611
 40
0.3089629744
 40
0.3709856702
 40
0.4331280799
 40
0.4954065542
 40
0.5578361118
 40
0.6204302974
 40
0.6832010849
 40
0.746158694
 40
0.8093117771
 40
0.8726665625
 40
0.9362288071
 40
1.0
 40
1.0
 40
1.0
 40
1.0
 10
9.8744755988
 20
7.4087272272
 30
0.0
 10
9.865234405
 20
7.3996649663
 30
0.0
 10
9.8472073269
 20
7.3810620952
 30
0.0
 10
9.821618187
 20
7.3518105712
 30
0.0
 10
9.7975327814
 20
7.3212723206
 30
0.0
 10
9.7750065612
 20
7.2895174497
 30
0.0
 10
9.75409025
 20
7.2566176289
 30
0.0
 10
9.7348312332
 20
7.2226474392
 30
0.0
 10
9.7172730485
 20
7.1876837959
 30
0.0
 10
9.7014553918
 20
7.1518058823
 30
0.0
 10
9.6874139988
 20
7.1150949404
 30
0.0
 10
9.6751805712
 20
7.0776340856
 30
0.0
 10
9.6647827298
 20
7.0395081325
 30
0.0
 10
9.6562438864
 20
7.0008033365
 30
0.0
 10
9.6495833513
 20
6.961607431
 30
0.0
 10
9.6448159734
 20
6.9220086617
 30
0.0
 10
9.641952634
 20
6.8820979583
 30
0.0
 10
9.6413182904
 20
6.8553841292
 30
0.0
 10
9.6413182904
 20
6.842007526
 30
0.0
  0
SPLINE
  5
379
100
AcDbEntity
  8
0
100
AcDbSpline
 62
7
  6
CONTINUOUS
 70
0
 71
3
 72
23
 73
19
 74
0
 42
0.0000001
 43
0.0000001
 44
0.0000000001
 40
0.0
 40
0.0
 40
0.0
 40
0.0
 40
0.0617101465
 40
0.1234413984
 40
0.1852146462
 40
0.2470503535
 40
0.3089683476
 40
0.3709876198
 40
0.4331261355
 40
0.4954006635
 40
0.5578266123
 40
0.620417904
 40
0.6831868136
 40
0.7461438604
 40
0.8092980134
 40
0.8726552092
 40
0.9362227185
 40
1.0
 40
1.0
 40
1.0
 40
1.0
 10
10.0804167744
 20
7.2322927445
 30
0.0
 10
10.073920559
 20
7.2260178733
 30
0.0
 10
10.0612464679
 20
7.2131291513
 30
0.0
 10
10.0432513817
 20
7.1928403736
 30
0.0
 10
10.026310204
 20
7.1716391939
 30
0.0
 10
10.0104626749
 20
7.1495751763
 30
0.0
 10
9.9957451436
 20
7.1266990477
 30
0.0
 10
9.982191592
 20
7.1030636217
 30
0.0
 10
9.9698332284
 20
7.0787234152
 30
0.0
 10
9.9586984955
 20
7.0537345898
 30
0.0
 10
9.9488130129
 20
7.0281547836
 30
0.0
 10
9.9401995242
 20
7.0020429871
 30
0.0
 10
9.9328778495
 20
6.9754594164
 30
0.0
 10
9.9268647888
 20
6.9484653218
 30
0.0
 10
9.92217421
 20
6.9211230876
 30
0.0
 10
9.918816652
 20
6.8934952895
 30
0.0
 10
9.9168000894
 20
6.8656467062
 30
0.0
 10
9.9163533147
 20
6.8470053982
 30
0.0
 10
9.9163533147
 20
6.8376709748
 30
0.0
  0
SPLINE
  5
37A
100
AcDbEntity
  8
0
100
AcDbSpline
 62
7
  6
CONTINUOUS
 70
0
 71
3
 72
15
 73
11
 74
0
 42
0.0000001
 43
0.0000001
 44
0.0000000001
 40
0.0
 40
0.0
 40
0.0
 40
0.0
 40
0.1450366664
 40
0.2835196117
 40
0.4157647185
 40
0.542163007
 40
0.6631909358
 40
0.7794022594
 40
0.8914327541
 40
1.0
 40
1.0
 40
1.0
 40
1.0
 10
12.6899304746
 20
6.5027335556
 30
0.0
 10
12.689012916
 20
6.5018472619
 30
0.0
 10
12.6871784979
 20
6.5001561541
 30
0.0
 10
12.6843625164
 20
6.4978202374
 30
0.0
 10
12.6815488799
 20
6.4957467187
 30
0.0
 10
12.678739234
 20
6.4939372394
 30
0.0
 10
12.675935129
 20
6.4923930006
 30
0.0
 10
12.6731378699
 20
6.4911152893
 30
0.0
 10
12.6703493828
 20
6.4901052895
 30
0.0
 10
12.668471643
 20
6.4896043823
 30
0.0
 10
12.6675385253
 20
6.4894014399
 30
0.0
  0
SPLINE
  5
37B
100
AcDbEntity
  8
0
100
AcDbSpline
 62
7
  6
CONTINUOUS
 70
0
 71
3
 72
43
 73
39
 74
0
 42
0.0000001
 43
0.0000001
 44
0.0000000001
 40
0.0
 40
0.0
 40
0.0
 40
0.0
 40
0.0149701292
 40
0.0299582539
 40
0.0449664932
 40
0.0599968666
 40
0.0901268464
 40
0.1203667736
 40
0.1355340184
 40
0.1507329487
 40
0.1659646592
 40
0.1812300956
 40
0.2118606393
 40
0.2426334444
 40
0.2735502231
 40
0.3046100746
 40
0.3358095387
 40
0.3671426911
 40
0.3986012779
 40
0.4301748859
 40
0.4618511437
 40
0.493615949
 40
0.5254537208
 40
0.5573476684
 40
0.5892800747
 40
0.6212325916
 40
0.6531865409
 40
0.6851232214
 40
0.7170242147
 40
0.7488716881
 40
0.7806486904
 40
0.8123394376
 40
0.8439295847
 40
0.8754064831
 40
0.9067593884
 40
0.9379797885
 40
0.9690611068
 40
1.0
 40
1.0
 40
1.0
 40
1.0
 10
11.0463356327
 20
6.5499460366
 30
0.0
 10
11.0411730891
 20
6.5468955602
 30
0.0
 10
11.0307313833
 20
6.5409756129
 30
0.0
 10
11.0147519994
 20
6.5326561647
 30
0.0
 10
10.9984639799
 20
6.5249011679
 30
0.0
 10
10.9763450355
 20
6.5153188372
 30
0.0
 10
10.9480069911
 20
6.5047945432
 30
0.0
 10
10.9189464033
 20
6.4962754344
 30
0.0
 10
10.8953209907
 20
6.4906734859
 30
0.0
 10
10.8774095204
 20
6.4870794677
 30
0.0
 10
10.8593455276
 20
6.4841016055
 30
0.0
 10
10.835059347
 20
6.4809539032
 30
0.0
 10
10.8044145714
 20
6.4785795326
 30
0.0
 10
10.7674088214
 20
6.4782366518
 30
0.0
 10
10.7302918499
 20
6.4803973854
 30
0.0
 10
10.6932329066
 20
6.4850518082
 30
0.0
 10
10.6563994596
 20
6.4921784951
 30
0.0
 10
10.6199583006
 20
6.5017449224
 30
0.0
 10
10.5840742984
 20
6.5137075421
 30
0.0
 10
10.5489097986
 20
6.5280120063
 30
0.0
 10
10.5146238611
 20
6.5445934049
 30
0.0
 10
10.4813715475
 20
6.5633765439
 30
0.0
 10
10.449303235
 20
6.5842763125
 30
0.0
 10
10.4185639449
 20
6.607198063
 30
0.0
 10
10.3892926936
 20
6.6320380372
 30
0.0
 10
10.3616218724
 20
6.6586838327
 30
0.0
 10
10.335676652
 20
6.6870149034
 30
0.0
 10
10.3115744032
 20
6.716903087
 30
0.0
 10
10.2894241894
 20
6.7482131996
 30
0.0
 10
10.2693262755
 20
6.7808036395
 30
0.0
 10
10.2513716788
 20
6.8145270194
 30
0.0
 10
10.2356417608
 20
6.8492308306
 30
0.0
 10
10.2222078547
 20
6.8847581051
 30
0.0
 10
10.2111309342
 20
6.9209481753
 30
0.0
 10
10.2024613064
 20
6.9576371737
 30
0.0
 10
10.1962385326
 20
6.9946596102
 30
0.0
 10
10.1924909182
 20
7.031845789
 30
0.0
 10
10.1916522932
 20
7.0566964956
 30
0.0
 10
10.1916522932
 20
7.0690893839
 30
0.0
  0
SPLINE
  5
37C
100
AcDbEntity
  8
0
100
AcDbSpline
 62
7
  6
CONTINUOUS
 70
0
 71
3
 72
94
 73
90
 74
0
 42
0.0000001
 43
0.0000001
 44
0.0000000001
 40
0.0
 40
0.0
 40
0.0
 40
0.0
 40
0.0042067424
 40
0.0086075207
 40
0.0132068055
 40
0.0180083081
 40
0.0230150438
 40
0.0282291866
 40
0.0336520718
 40
0.0392844708
 40
0.0451265555
 40
0.0511780678
 40
0.0574382557
 40
0.0639059723
 40
0.0705797218
 40
0.0774576307
 40
0.0918166637
 40
0.106963036
 40
0.1228722614
 40
0.1395164096
 40
0.1568645009
 40
0.1748828316
 40
0.1935352497
 40
0.2127833934
 40
0.2325869017
 40
0.2529036149
 40
0.2736897561
 40
0.294900102
 40
0.3164881462
 40
0.3384062565
 40
0.3606058283
 40
0.3830374351
 40
0.4056509809
 40
0.428395848
 40
0.4512210441
 40
0.4740753475
 40
0.4969074533
 40
0.5196661186
 40
0.5423003107
 40
0.5647593531
 40
0.5869930724
 40
0.6089519455
 40
0.6305872482
 40
0.6518512057
 40
0.6726971477
 40
0.693079669
 40
0.7129547903
 40
0.7322801267
 40
0.7510150672
 40
0.7691209668
 40
0.7865613576
 40
0.8033021866
 40
0.8193120912
 40
0.8345627126
 40
0.8490290789
 40
0.8626900818
 40
0.8692134624
 40
0.8755296878
 40
0.8816374943
 40
0.8875360586
 40
0.8932249277
 40
0.898704201
 40
0.9039744583
 40
0.9090369231
 40
0.9138934947
 40
0.9185468289
 40
0.923000513
 40
0.9272590847
 40
0.9313283041
 40
0.9352152008
 40
0.9389283442
 40
0.9424779984
 40
0.9458763116
 40
0.949137545
 40
0.952278132
 40
0.955316811
 40
0.9582744813
 40
0.9611740125
 40
0.9640398039
 40
0.9668971994
 40
0.9697717834
 40
0.9726886544
 40
0.975671739
 40
0.9787432816
 40
0.9852254311
 40
0.9886743433
 40
0.9922790841
 40
0.9960512073
 40
1.0
 40
1.0
 40
1.0
 40
1.0
 10
12.9487493061
 20
8.6527096119
 30
0.0
 10
12.9501745836
 20
8.6540863243
 30
0.0
 10
12.9530232408
 20
8.6569739454
 30
0.0
 10
12.9571987231
 20
8.6615878444
 30
0.0
 10
12.9613688988
 20
8.6665775107
 30
0.0
 10
12.9655311574
 20
8.6719397332
 30
0.0
 10
12.9696831929
 20
8.6776714267
 30
0.0
 10
12.9738226077
 20
8.6837692813
 30
0.0
 10
12.9779470471
 20
8.6902296939
 30
0.0
 10
12.9820539759
 20
8.6970488817
 30
0.0
 10
12.9861410489
 20
8.7042227722
 30
0.0
 10
12.9902057796
 20
8.7117471484
 30
0.0
 10
12.9942457915
 20
8.7196175362
 30
0.0
 10
12.9982586637
 20
8.7278292621
 30
0.0
 10
13.0022420016
 20
8.7363774576
 30
0.0
 10
13.007587429
 20
8.7483897983
 30
0.0
 10
13.0141647676
 20
8.7642192663
 30
0.0
 10
13.0217936192
 20
8.7842083248
 30
0.0
 10
13.0292492643
 20
8.8054070188
 30
0.0
 10
13.0365137723
 20
8.8277647811
 30
0.0
 10
13.0435696565
 20
8.851228461
 30
0.0
 10
13.0503999309
 20
8.8757421143
 30
0.0
 10
13.0569881532
 20
8.9012472548
 30
0.0
 10
13.0633184667
 20
8.9276829739
 30
0.0
 10
13.0693756447
 20
8.9549861027
 30
0.0
 10
13.075145121
 20
8.9830913704
 30
0.0
 10
13.0806130257
 20
9.0119315681
 30
0.0
 10
13.0857662179
 20
9.0414377144
 30
0.0
 10
13.0905923162
 20
9.0715392222
 30
0.0
 10
13.0950797284
 20
9.1021640692
 30
0.0
 10
13.0992176784
 20
9.1332389715
 30
0.0
 10
13.1029962369
 20
9.1646895602
 30
0.0
 10
13.1064063395
 20
9.1964405622
 30
0.0
 10
13.1094398086
 20
9.2284159834
 30
0.0
 10
13.1120893727
 20
9.2605392901
 30
0.0
 10
13.1143486834
 20
9.2927335933
 30
0.0
 10
13.1162123311
 20
9.3249218321
 30
0.0
 10
13.1176758575
 20
9.3570269598
 30
0.0
 10
13.118735772
 20
9.3889721296
 30
0.0
 10
13.1193895548
 20
9.4206808803
 30
0.0
 10
13.1196356631
 20
9.4520773198
 30
0.0
 10
13.1194735354
 20
9.4830863069
 30
0.0
 10
13.1189035933
 20
9.5136336321
 30
0.0
 10
13.117927241
 20
9.5436461962
 30
0.0
 10
13.1165468629
 20
9.573052189
 30
0.0
 10
13.1147658236
 20
9.6017812649
 30
0.0
 10
13.1125884554
 20
9.6297647139
 30
0.0
 10
13.110020049
 20
9.6569356283
 30
0.0
 10
13.1070668418
 20
9.6832290663
 30
0.0
 10
13.1037360037
 20
9.7085822144
 30
0.0
 10
13.1000356201
 20
9.7329345436
 30
0.0
 10
13.0959746732
 20
9.7562279789
 30
0.0
 10
13.0915630208
 20
9.778407021
 30
0.0
 10
13.0868113745
 20
9.7994190208
 30
0.0
 10
13.081731217
 20
9.8192139086
 30
0.0
 10
13.0771668436
 20
9.8348888192
 30
0.0
 10
13.0733470312
 20
9.8467739421
 30
0.0
 10
13.0704518503
 20
9.8552172258
 30
0.0
 10
13.067483936
 20
9.8633225207
 30
0.0
 10
13.0644450938
 20
9.8710850452
 30
0.0
 10
13.0613370518
 20
9.8785001774
 30
0.0
 10
13.0581617319
 20
9.8855635557
 30
0.0
 10
13.054920943
 20
9.892270998
 30
0.0
 10
13.0516166098
 20
9.8986185656
 30
0.0
 10
13.0482506647
 20
9.9046025442
 30
0.0
 10
13.0448249841
 20
9.910219407
 30
0.0
 10
13.0413415963
 20
9.9154659196
 30
0.0
 10
13.0378023349
 20
9.9203389662
 30
0.0
 10
13.0342092275
 20
9.9248357542
 30
0.0
 10
13.0305641113
 20
9.9289535875
 30
0.0
 10
13.0268689062
 20
9.9326900087
 30
0.0
 10
13.0231254932
 20
9.9360427144
 30
0.0
 10
13.0193356785
 20
9.9390094328
 30
0.0
 10
13.0155014388
 20
9.9415881452
 30
0.0
 10
13.0116246614
 20
9.9437766584
 30
0.0
 10
13.0077075833
 20
9.9455731039
 30
0.0
 10
13.003752564
 20
9.9469755006
 30
0.0
 10
12.9997623819
 20
9.9479822332
 30
0.0
 10
12.9957401232
 20
9.9485920456
 30
0.0
 10
12.9916891444
 20
9.9488040877
 30
0.0
 10
12.9876128928
 20
9.9486183784
 30
0.0
 10
12.9835148199
 20
9.9480352594
 30
0.0
 10
12.9793978044
 20
9.9470557737
 30
0.0
 10
12.9737881772
 20
9.9451903004
 30
0.0
 10
12.9682372983
 20
9.9425348219
 30
0.0
 10
12.9627966578
 20
9.9392050537
 30
0.0
 10
12.9586236952
 20
9.9362674949
 30
0.0
 10
12.9544469804
 20
9.9329441714
 30
0.0
 10
12.9517248162
 20
9.9305294087
 30
0.0
 10
12.9503631652
 20
9.929262183
 30
0.0
  0
SPLINE
  5
37D
100
AcDbEntity
  8
0
100
AcDbSpline
 62
7
  6
CONTINUOUS
 70
0
 71
3
 72
19
 73
15
 74
0
 42
0.0000001
 43
0.0000001
 44
0.0000000001
 40
0.0
 40
0.0
 40
0.0
 40
0.0
 40
0.1504613852
 40
0.2916984919
 40
0.4244192036
 40
0.4878835354
 40
0.5495802287
 40
0.668227132
 40
0.7255606127
 40
0.7817999309
 40
0.8371467096
 40
0.8918136625
 40
0.9460222505
 40
1.0
 40
1.0
 40
1.0
 40
1.0
 10
12.964204121
 20
8.4439637519
 30
0.0
 10
12.9617304219
 20
8.441574342
 30
0.0
 10
12.9567864521
 20
8.437091138
 30
0.0
 10
12.9491311767
 20
8.4311167714
 30
0.0
 10
12.9426651156
 20
8.4268913474
 30
0.0
 10
12.9375088238
 20
8.4240300122
 30
0.0
 10
12.9325046629
 20
8.421573464
 30
0.0
 10
12.9274418971
 20
8.4195654844
 30
0.0
 10
12.9223506618
 20
8.4180544359
 30
0.0
 10
12.91858634
 20
8.4171834437
 30
0.0
 10
12.9148345421
 20
8.4165626642
 30
0.0
 10
12.9110962721
 20
8.4161923311
 30
0.0
 10
12.9073730327
 20
8.4160726163
 30
0.0
 10
12.9048994181
 20
8.4161600931
 30
0.0
 10
12.903668548
 20
8.4162454486
 30
0.0
  0
SPLINE
  5
37E
100
AcDbEntity
  8
0
100
AcDbSpline
 62
7
  6
CONTINUOUS
 70
0
 71
3
 72
39
 73
35
 74
0
 42
0.0000001
 43
0.0000001
 44
0.0000000001
 40
0.0
 40
0.0
 40
0.0
 40
0.0
 40
0.0299424725
 40
0.05990932
 40
0.0899243252
 40
0.1200101024
 40
0.1501875589
 40
0.1804754082
 40
0.2108897494
 40
0.2414437221
 40
0.272147242
 40
0.3030068208
 40
0.33402547
 40
0.3652026865
 40
0.3965345185
 40
0.428013701
 40
0.459629856
 40
0.4913697495
 40
0.5232175971
 40
0.5551554142
 40
0.587163399
 40
0.619220343
 40
0.6513040608
 40
0.6833918343
 40
0.715460865
 40
0.747488727
 40
0.7794538147
 40
0.8113357784
 40
0.8431159423
 40
0.8747777013
 40
0.90630686
 40
0.937692088
 40
0.9689246466
 40
1.0
 40
1.0
 40
1.0
 40
1.0
 10
11.6332371597
 20
9.7850496673
 30
0.0
 10
11.6259377092
 20
9.7779989091
 30
0.0
 10
11.6107648757
 20
9.7644663707
 30
0.0
 10
11.5864555877
 20
9.7460306974
 30
0.0
 10
11.5607205585
 20
9.7295503771
 30
0.0
 10
11.5337035682
 20
9.715117877
 30
0.0
 10
11.50555315
 20
9.7028120593
 30
0.0
 10
11.4764246682
 20
9.692700564
 30
0.0
 10
11.4464786438
 20
9.6848387024
 30
0.0
 10
11.4158800582
 20
9.6792693938
 30
0.0
 10
11.3847973803
 20
9.6760228927
 30
0.0
 10
11.3534016506
 20
9.6751166643
 30
0.0
 10
11.3218655402
 20
9.6765552985
 30
0.0
 10
11.2903624026
 20
9.6803304766
 30
0.0
 10
11.2590653277
 20
9.6864210753
 30
0.0
 10
11.2281462045
 20
9.6947932927
 30
0.0
 10
11.1977747907
 20
9.7054008444
 30
0.0
 10
11.1681177992
 20
9.7181852299
 30
0.0
 10
11.1393379835
 20
9.7330760261
 30
0.0
 10
11.1115932566
 20
9.7499912901
 30
0.0
 10
11.0850358457
 20
9.7688380258
 30
0.0
 10
11.059811467
 20
9.789512687
 30
0.0
 10
11.0360585387
 20
9.8119017419
 30
0.0
 10
11.0139074294
 20
9.8358822871
 30
0.0
 10
10.9934797229
 20
9.8613226929
 30
0.0
 10
10.9748875839
 20
9.8880833491
 30
0.0
 10
10.9582331481
 20
9.9160174166
 30
0.0
 10
10.9436079662
 20
9.9449716283
 30
0.0
 10
10.9310925074
 20
9.9747871002
 30
0.0
 10
10.9207557063
 20
10.0053002487
 30
0.0
 10
10.91265453
 20
10.0363434396
 30
0.0
 10
10.9068338453
 20
10.0677467869
 30
0.0
 10
10.9033258065
 20
10.0993356261
 30
0.0
 10
10.9025400963
 20
10.1204622751
 30
0.0
 10
10.9025400963
 20
10.1309949055
 30
0.0
  0
SPLINE
  5
37F
100
AcDbEntity
  8
0
100
AcDbSpline
 62
7
  6
CONTINUOUS
 70
0
 71
3
 72
39
 73
35
 74
0
 42
0.0000001
 43
0.0000001
 44
0.0000000001
 40
0.0
 40
0.0
 40
0.0
 40
0.0
 40
0.0299377111
 40
0.0599040347
 40
0.0899223017
 40
0.120014598
 40
0.1502012475
 40
0.1805003466
 40
0.2109273648
 40
0.2414948187
 40
0.272212027
 40
0.3030849467
 40
0.3341160911
 40
0.3653045268
 40
0.3966459454
 40
0.4281328027
 40
0.4597545228
 40
0.4914977549
 40
0.5233466774
 40
0.5552833417
 40
0.5872880484
 40
0.6193397502
 40
0.6514164733
 40
0.6834957531
 40
0.7155550749
 40
0.7475723159
 40
0.7795261815
 40
0.8113966304
 40
0.843165282
 40
0.8748158057
 40
0.9063342381
 40
0.9377094567
 40
0.9689328646
 40
1.0
 40
1.0
 40
1.0
 40
1.0
 10
11.6332107583
 20
9.7850841913
 30
0.0
 10
11.6258492715
 20
9.7781841895
 30
0.0
 10
11.6105664932
 20
9.7649540615
 30
0.0
 10
11.5861360074
 20
9.7469705389
 30
0.0
 10
11.5603208719
 20
9.7309360169
 30
0.0
 10
11.5332636207
 20
9.716939393
 30
0.0
 10
11.5051112476
 20
9.7050562122
 30
0.0
 10
11.4760172764
 20
9.6953510238
 30
0.0
 10
11.4461401329
 20
9.6878762822
 30
0.0
 10
11.4156424693
 20
9.6826722882
 30
0.0
 10
11.3846902089
 20
9.6797669499
 30
0.0
 10
11.353451657
 20
9.6791756658
 30
0.0
 10
11.3220965834
 20
9.6809012595
 30
0.0
 10
11.2907953076
 20
9.6849339849
 30
0.0
 10
11.2597177836
 20
9.6912515954
 30
0.0
 10
11.2290326827
 20
9.6998194549
 30
0.0
 10
11.1989064916
 20
9.7105907597
 30
0.0
 10
11.169502623
 20
9.7235067994
 30
0.0
 10
11.1409805428
 20
9.7384972793
 30
0.0
 10
11.1134949177
 20
9.7554807025
 30
0.0
 10
11.0871947903
 20
9.7743648122
 30
0.0
 10
11.062222775
 20
9.7950470806
 30
0.0
 10
11.0387142851
 20
9.817415255
 30
0.0
 10
11.0167968199
 20
9.8413479797
 30
0.0
 10
10.9965892781
 20
9.8667154438
 30
0.0
 10
10.9782013215
 20
9.8933800791
 30
0.0
 10
10.9617327841
 20
9.9211972943
 30
0.0
 10
10.9472731404
 20
9.950016257
 30
0.0
 10
10.9349009961
 20
9.9796806723
 30
0.0
 10
10.9246836914
 20
10.0100296942
 30
0.0
 10
10.9166768771
 20
10.0408985537
 30
0.0
 10
10.9109243866
 20
10.0721203038
 30
0.0
 10
10.9074576189
 20
10.1035233273
 30
0.0
 10
10.9066811978
 20
10.124524588
 30
0.0
 10
10.9066811978
 20
10.1349949027
 30
0.0
  0
SPLINE
  5
380
100
AcDbEntity
  8
0
100
AcDbSpline
 62
7
  6
CONTINUOUS
 70
0
 71
3
 72
42
 73
38
 74
0
 42
0.0000001
 43
0.0000001
 44
0.0000000001
 40
0.0
 40
0.0
 40
0.0
 40
0.0
 40
0.0299419647
 40
0.0449235338
 40
0.0599142029
 40
0.0899287018
 40
0.1200139723
 40
0.135092657
 40
0.1501966957
 40
0.1804840357
 40
0.2108978664
 40
0.2414513269
 40
0.2721543325
 40
0.3030133939
 40
0.3340315221
 40
0.3652082149
 40
0.3965395206
 40
0.4280181743
 40
0.4596337976
 40
0.491373156
 40
0.5232204661
 40
0.5551577438
 40
0.5871651879
 40
0.6192215897
 40
0.6513047642
 40
0.683391994
 40
0.7154604812
 40
0.7474878002
 40
0.7794523457
 40
0.811333768
 40
0.8431133934
 40
0.8747746119
 40
0.9063032554
 40
0.937687875
 40
0.9533257298
 40
0.9689253383
 40
1.0
 40
1.0
 40
1.0
 40
1.0
 10
11.5027185971
 20
9.9439957175
 30
0.0
 10
11.4988200126
 20
9.9402299995
 30
0.0
 10
11.4927423896
 20
9.9348095446
 30
0.0
 10
11.4842307791
 20
9.9280839602
 30
0.0
 10
11.4754480992
 20
9.9216930687
 30
0.0
 10
11.4639881584
 20
9.9143542239
 30
0.0
 10
11.4519710054
 20
9.9079348744
 30
0.0
 10
11.4420599836
 20
9.9033680974
 30
0.0
 10
11.4319442013
 20
9.8991783657
 30
0.0
 10
11.4189661283
 20
9.8946731662
 30
0.0
 10
11.4029726038
 20
9.8904744345
 30
0.0
 10
11.3866300938
 20
9.887499931
 30
0.0
 10
11.3700291635
 20
9.8857660733
 30
0.0
 10
11.3532610063
 20
9.8852821125
 30
0.0
 10
11.3364178857
 20
9.8860505125
 30
0.0
 10
11.3195923757
 20
9.8880668344
 30
0.0
 10
11.3028769254
 20
9.8913198015
 30
0.0
 10
11.2863633388
 20
9.8957913601
 30
0.0
 10
11.2701422815
 20
9.9014567873
 30
0.0
 10
11.2543027897
 20
9.9082848298
 30
0.0
 10
11.2389317879
 20
9.9162378783
 30
0.0
 10
11.2241136187
 20
9.9252721747
 30
0.0
 10
11.2099295864
 20
9.935338052
 30
0.0
 10
11.1964575162
 20
9.946380206
 30
0.0
 10
11.1837713326
 20
9.9583379963
 30
0.0
 10
11.171940658
 20
9.9711457769
 30
0.0
 10
11.1610304346
 20
9.9847332523
 30
0.0
 10
11.1511005718
 20
9.9990258611
 30
0.0
 10
11.1422056203
 20
10.0139451756
 30
0.0
 10
11.1343944726
 20
10.0294093448
 30
0.0
 10
11.1277101053
 20
10.0453334735
 30
0.0
 10
11.1221893105
 20
10.0616303208
 30
0.0
 10
11.1178626091
 20
10.0782098871
 30
0.0
 10
11.1152686397
 20
10.0922048306
 30
0.0
 10
11.113813509
 20
10.1034496209
 30
0.0
 10
11.1127750197
 20
10.1146836461
 30
0.0
 10
11.1124605689
 20
10.1231371806
 30
0.0
 10
11.1124605689
 20
10.1287625235
 30
0.0
  0
SPLINE
  5
381
100
AcDbEntity
  8
0
100
AcDbSpline
 62
7
  6
CONTINUOUS
 70
0
 71
3
 72
37
 73
33
 74
0
 42
0.0000001
 43
0.0000001
 44
0.0000000001
 40
0.0
 40
0.0
 40
0.0
 40
0.0
 40
0.0301489243
 40
0.0604089242
 40
0.090786919
 40
0.1212880554
 40
0.1519156555
 40
0.1826711883
 40
0.2135542685
 40
0.2445626811
 40
0.2756924395
 40
0.3069378662
 40
0.3382916881
 40
0.369745149
 40
0.4012881394
 40
0.4329093484
 40
0.4645964283
 40
0.4963361613
 40
0.5598923676
 40
0.6234868049
 40
0.6552738102
 40
0.6870262066
 40
0.7187299109
 40
0.750371483
 40
0.7819383031
 40
0.8134187562
 40
0.8448023605
 40
0.8760799326
 40
0.907243931
 40
0.9382875033
 40
0.9692080309
 40
1.0
 40
1.0
 40
1.0
 40
1.0
 10
11.5550105307
 20
10.0270547865
 30
0.0
 10
11.5507356691
 20
10.0257783466
 30
0.0
 10
11.5420875331
 20
10.0234889518
 30
0.0
 10
11.5289037869
 20
10.0208636558
 30
0.0
 10
11.5155310879
 20
10.0190497802
 30
0.0
 10
11.5020184253
 20
10.0180539972
 30
0.0
 10
11.4884144358
 20
10.0178797657
 30
0.0
 10
11.4747682969
 20
10.0185276589
 30
0.0
 10
11.4611292673
 20
10.019995281
 30
0.0
 10
11.4475465869
 20
10.0222772671
 30
0.0
 10
11.4340692705
 20
10.0253652918
 30
0.0
 10
11.4207459456
 20
10.0292481455
 30
0.0
 10
11.407624674
 20
10.0339117665
 30
0.0
 10
11.3947527994
 20
10.0393392897
 30
0.0
 10
11.382176725
 20
10.0455111206
 30
0.0
 10
11.3699419009
 20
10.0524048415
 30
0.0
 10
11.3580920579
 20
10.0599959028
 30
0.0
 10
11.342859372
 20
10.071012504
 30
0.0
 10
11.3249965681
 20
10.086382103
 30
0.0
 10
11.3089615667
 20
10.1036594111
 30
0.0
 10
11.2973628914
 20
10.1184819789
 30
0.0
 10
11.2893102342
 20
10.1300582392
 30
0.0
 10
11.2819340238
 20
10.1420511352
 30
0.0
 10
11.2752605044
 20
10.1544177804
 30
0.0
 10
11.269313867
 20
10.1671134725
 30
0.0
 10
11.2641155761
 20
10.1800924548
 30
0.0
 10
11.2596844485
 20
10.1933079058
 30
0.0
 10
11.2560365114
 20
10.2067121911
 30
0.0
 10
11.2531850476
 20
10.2202568323
 30
0.0
 10
11.2511402042
 20
10.2338933018
 30
0.0
 10
11.2499097197
 20
10.2475715331
 30
0.0
 10
11.2496345496
 20
10.2567059049
 30
0.0
 10
11.2496345496
 20
10.261262422
 30
0.0
  0
SPLINE
  5
382
100
AcDbEntity
  8
0
100
AcDbSpline
 62
7
  6
CONTINUOUS
 70
0
 71
3
 72
23
 73
19
 74
0
 42
0.0000001
 43
0.0000001
 44
0.0000000001
 40
0.0
 40
0.0
 40
0.0
 40
0.0
 40
0.0616994078
 40
0.1234251761
 40
0.1851973425
 40
0.2470354961
 40
0.3089585786
 40
0.3709846936
 40
0.4331309435
 40
0.4954132733
 40
0.5578463252
 40
0.6204433059
 40
0.6832157821
 40
0.7461739052
 40
0.8093259326
 40
0.8726773349
 40
0.9362364572
 40
1.0
 40
1.0
 40
1.0
 40
1.0
 10
11.0218911194
 20
10.4179634861
 30
0.0
 10
11.0173203673
 20
10.4134137482
 30
0.0
 10
11.0084051534
 20
10.4040796671
 30
0.0
 10
10.995753305
 20
10.3894181036
 30
0.0
 10
10.9838473567
 20
10.3741256228
 30
0.0
 10
10.9727142261
 20
10.3582366778
 30
0.0
 10
10.9623785471
 20
10.3417864589
 30
0.0
 10
10.9528633277
 20
10.3248115677
 30
0.0
 10
10.944189639
 20
10.3073497648
 30
0.0
 10
10.9363767281
 20
10.2894398722
 30
0.0
 10
10.9294419671
 20
10.2711216831
 30
0.0
 10
10.9234007344
 20
10.2524359231
 30
0.0
 10
10.9182663569
 20
10.2334241324
 30
0.0
 10
10.9140502228
 20
10.2141285291
 30
0.0
 10
10.9107617443
 20
10.1945921055
 30
0.0
 10
10.9084079884
 20
10.1748578517
 30
0.0
 10
10.9069944251
 20
10.1549705089
 30
0.0
 10
10.9066811978
 20
10.1416598354
 30
0.0
 10
10.9066811978
 20
10.1349949027
 30
0.0
  0
SPLINE
  5
383
100
AcDbEntity
  8
0
100
AcDbSpline
 62
7
  6
CONTINUOUS
 70
0
 71
3
 72
15
 73
11
 74
0
 42
0.0000001
 43
0.0000001
 44
0.0000000001
 40
0.0
 40
0.0
 40
0.0
 40
0.0
 40
0.1234394214
 40
0.2470466251
 40
0.3709825631
 40
0.4953948794
 40
0.6204121513
 40
0.7461393297
 40
0.8726517112
 40
1.0
 40
1.0
 40
1.0
 40
1.0
 10
11.1761877059
 20
10.2820453513
 30
0.0
 10
11.1711418455
 20
10.2771714572
 30
0.0
 10
11.1615384429
 20
10.2668890059
 30
0.0
 10
11.1487840692
 20
10.250056173
 30
0.0
 10
11.1377870928
 20
10.2319590334
 30
0.0
 10
11.1286508817
 20
10.2127671616
 30
0.0
 10
11.1214587817
 20
10.1926577554
 30
0.0
 10
11.1162767557
 20
10.1718162658
 30
0.0
 10
11.1131516147
 20
10.1504376139
 30
0.0
 10
11.1124605689
 20
10.136000054
 30
0.0
 10
11.1124605689
 20
10.1287625235
 30
0.0
  0
SPLINE
  5
384
100
AcDbEntity
  8
0
100
AcDbSpline
 62
7
  6
CONTINUOUS
 70
0
 71
3
 72
11
 73
7
 74
0
 42
0.0000001
 43
0.0000001
 44
0.0000000001
 40
0.0
 40
0.0
 40
0.0
 40
0.0
 40
0.2480713806
 40
0.4973766969
 40
0.7480007058
 40
1.0
 40
1.0
 40
1.0
 40
1.0
 10
11.2610018371
 20
10.3314061747
 30
0.0
 10
11.2591193868
 20
10.3258143577
 30
0.0
 10
11.2558091823
 20
10.3144407519
 30
0.0
 10
11.2522509387
 20
10.2969902285
 30
0.0
 10
11.2501084846
 20
10.2792160758
 30
0.0
 10
11.2496345496
 20
10.2672560167
 30
0.0
 10
11.2496345496
 20
10.261262422
 30
0.0
  0
SPLINE
  5
385
100
AcDbEntity
  8
0
100
AcDbSpline
 62
7
  6
CONTINUOUS
 70
0
 71
3
 72
37
 73
33
 74
0
 42
0.0000001
 43
0.0000001
 44
0.0000000001
 40
0.0
 40
0.0
 40
0.0
 40
0.0
 40
0.0300791945
 40
0.0602640699
 40
0.0905638613
 40
0.1209859362
 40
0.1515357005
 40
0.18221654
 40
0.2130297922
 40
0.2439747502
 40
0.2750486977
 40
0.3062469733
 40
0.3375630669
 40
0.3689887385
 40
0.400514155
 40
0.432128046
 40
0.463817875
 40
0.4955700264
 40
0.5591758371
 40
0.6228497177
 40
0.6546859566
 40
0.6864918539
 40
0.718252166
 40
0.7499522903
 40
0.7815784687
 40
0.8131179937
 40
0.8445593895
 40
0.8758925523
 40
0.9071091847
 40
0.9382018691
 40
0.9691672535
 40
1.0
 40
1.0
 40
1.0
 40
1.0
 10
11.5627017817
 20
10.0568924643
 30
0.0
 10
11.5588376924
 20
10.0554501926
 30
0.0
 10
11.5509992184
 20
10.0528126147
 30
0.0
 10
11.5389899015
 20
10.0496202744
 30
0.0
 10
11.5267537466
 20
10.0471968391
 30
0.0
 10
11.5143386352
 20
10.045551833
 30
0.0
 10
11.501792301
 20
10.0446914413
 30
0.0
 10
11.4891631865
 20
10.0446189155
 30
0.0
 10
11.4764999774
 20
10.045334451
 30
0.0
 10
11.4638514929
 20
10.0468352183
 30
0.0
 10
11.4512664813
 20
10.0491153732
 30
0.0
 10
11.4387934358
 20
10.0521660566
 30
0.0
 10
11.4264804019
 20
10.05597544
 30
0.0
 10
11.4143748097
 20
10.0605287806
 30
0.0
 10
11.4025232498
 20
10.0658085126
 30
0.0
 10
11.3909714642
 20
10.0717941707
 30
0.0
 10
11.3797635464
 20
10.0784630143
 30
0.0
 10
11.3653309973
 20
10.088234238
 30
0.0
 10
11.3483679801
 20
10.1020206686
 30
0.0
 10
11.3331057972
 20
10.1176848872
 30
0.0
 10
11.322048893
 20
10.131205252
 30
0.0
 10
11.3143641694
 20
10.1418012744
 30
0.0
 10
11.3073189273
 20
10.1528102339
 30
0.0
 10
11.300939944
 20
10.1641901075
 30
0.0
 10
11.2952519168
 20
10.1758969829
 30
0.0
 10
11.2902767677
 20
10.1878858138
 30
0.0
 10
11.2860337317
 20
10.2001104244
 30
0.0
 10
11.2825391612
 20
10.2125237594
 30
0.0
 10
11.2798066502
 20
10.2250779061
 30
0.0
 10
11.2778466194
 20
10.2377248062
 30
0.0
 10
11.2766669347
 20
10.2504149281
 30
0.0
 10
11.2764030697
 20
10.2588910211
 30
0.0
 10
11.2764030697
 20
10.2631188284
 30
0.0
  0
SPLINE
  5
386
100
AcDbEntity
  8
0
100
AcDbSpline
 62
7
  6
CONTINUOUS
 70
0
 71
3
 72
80
 73
76
 74
0
 42
0.0000001
 43
0.0000001
 44
0.0000000001
 40
0.0
 40
0.0
 40
0.0
 40
0.0
 40
0.0039883799
 40
0.0081453752
 40
0.0124746386
 40
0.0169792156
 40
0.021661669
 40
0.0265240231
 40
0.0315676328
 40
0.0367933336
 40
0.042201574
 40
0.0477923628
 40
0.0595195651
 40
0.0719693889
 40
0.0851313116
 40
0.0989911574
 40
0.1135315518
 40
0.1287323373
 40
0.1445709047
 40
0.1610224436
 40
0.1780601318
 40
0.1956553356
 40
0.2137777909
 40
0.2323957448
 40
0.2514760677
 40
0.2709843863
 40
0.2908852167
 40
0.311142073
 40
0.3317175598
 40
0.3736702008
 40
0.4164307353
 40
0.4596780682
 40
0.5030864323
 40
0.5463285118
 40
0.5890785868
 40
0.6310156693
 40
0.6515815081
 40
0.6718274996
 40
0.6917162816
 40
0.711211397
 40
0.7302773921
 40
0.7488799298
 40
0.7669859313
 40
0.7845636874
 40
0.801582979
 40
0.818015225
 40
0.8338336755
 40
0.8490135854
 40
0.8635324141
 40
0.8773700842
 40
0.8905093296
 40
0.9029360806
 40
0.9146399417
 40
0.9202190025
 40
0.9256155028
 40
0.9308294768
 40
0.9358613995
 40
0.940712184
 40
0.9453831863
 40
0.9498763813
 40
0.9541943136
 40
0.9583402313
 40
0.9623182136
 40
0.9661331738
 40
0.9697910847
 40
0.9732990446
 40
0.9766653897
 40
0.9798999101
 40
0.9830138747
 40
0.9860201789
 40
0.9889333931
 40
0.9917696852
 40
0.9945467564
 40
0.9972835667
 40
1.0
 40
1.0
 40
1.0
 40
1.0
 10
12.8956233825
 20
8.7095198308
 30
0.0
 10
12.8968186817
 20
8.7106744012
 30
0.0
 10
12.8992079833
 20
8.7130864989
 30
0.0
 10
12.9027170216
 20
8.7169227408
 30
0.0
 10
12.906222385
 20
8.7210488607
 30
0.0
 10
12.9097221163
 20
8.7254626217
 30
0.0
 10
12.913214616
 20
8.7301618164
 30
0.0
 10
12.9166981646
 20
8.7351442043
 30
0.0
 10
12.9201711129
 20
8.740407321
 30
0.0
 10
12.9236317345
 20
8.7459485452
 30
0.0
 10
12.9270782734
 20
8.7517651467
 30
0.0
 10
12.931726842
 20
8.7600157977
 30
0.0
 10
12.9374781967
 20
8.771009135
 30
0.0
 10
12.9441910779
 20
8.7850477735
 30
0.0
 10
12.9508073896
 20
8.8001078834
 30
0.0
 10
12.9573138074
 20
8.8161594021
 30
0.0
 10
12.9636972421
 20
8.833170475
 30
0.0
 10
12.969944815
 20
8.8511071438
 30
0.0
 10
12.9760439058
 20
8.8699335671
 30
0.0
 10
12.9819821769
 20
8.8896120639
 30
0.0
 10
12.9877476328
 20
8.9101031924
 30
0.0
 10
12.9933286297
 20
8.931365842
 30
0.0
 10
12.9987138903
 20
8.9533573373
 30
0.0
 10
13.003892526
 20
8.976033524
 30
0.0
 10
13.0088540795
 20
8.999348847
 30
0.0
 10
13.0135885452
 20
9.023256452
 30
0.0
 10
13.0180863558
 20
9.0477082791
 30
0.0
 10
13.0223384666
 20
9.0726552158
 30
0.0
 10
13.0277033059
 20
9.1067306747
 30
0.0
 10
13.0337224999
 20
9.1501916272
 30
0.0
 10
13.0397984975
 20
9.2031668348
 30
0.0
 10
13.0447239598
 20
9.2568705536
 30
0.0
 10
13.0484591718
 20
9.3108711735
 30
0.0
 10
13.050974159
 20
9.364735062
 30
0.0
 10
13.0522488038
 20
9.4180293072
 30
0.0
 10
13.0522695764
 20
9.4618902383
 30
0.0
 10
13.0516462006
 20
9.4963647678
 30
0.0
 10
13.0508683375
 20
9.5216459579
 30
0.0
 10
13.0497788503
 20
9.5464690755
 30
0.0
 10
13.0483799327
 20
9.5707842612
 30
0.0
 10
13.0466744438
 20
9.5945426255
 30
0.0
 10
13.0446658429
 20
9.6176964205
 30
0.0
 10
13.0423582299
 20
9.6401991277
 30
0.0
 10
13.0397563081
 20
9.6620055565
 30
0.0
 10
13.036865373
 20
9.6830719258
 30
0.0
 10
13.0336912956
 20
9.7033559616
 30
0.0
 10
13.030240544
 20
9.7228170014
 30
0.0
 10
13.0265201483
 20
9.7414160781
 30
0.0
 10
13.0225376763
 20
9.7591160045
 30
0.0
 10
13.0183012048
 20
9.7758814299
 30
0.0
 10
13.0138193305
 20
9.7916790688
 30
0.0
 10
13.0091011118
 20
9.8064773762
 30
0.0
 10
13.0049161167
 20
9.8181314449
 30
0.0
 10
13.0014461178
 20
9.8269219276
 30
0.0
 10
12.9988320983
 20
9.8331412806
 30
0.0
 10
12.9961662235
 20
9.8390896468
 30
0.0
 10
12.9934498032
 20
9.8447640868
 30
0.0
 10
12.9906842208
 20
9.8501617991
 30
0.0
 10
12.9878707601
 20
9.855280083
 30
0.0
 10
12.9850108633
 20
9.8601164429
 30
0.0
 10
12.9821058806
 20
9.864668486
 30
0.0
 10
12.9791571671
 20
9.8689339515
 30
0.0
 10
12.9761661799
 20
9.8729107844
 30
0.0
 10
12.9731342229
 20
9.8765969705
 30
0.0
 10
12.9700627087
 20
9.8799906955
 30
0.0
 10
12.9669530226
 20
9.8830902644
 30
0.0
 10
12.9638064493
 20
9.8858939884
 30
0.0
 10
12.9606244268
 20
9.8884004161
 30
0.0
 10
12.957408285
 20
9.890608044
 30
0.0
 10
12.9541594417
 20
9.8925154395
 30
0.0
 10
12.9508794514
 20
9.8941213484
 30
0.0
 10
12.9475699248
 20
9.8954243815
 30
0.0
 10
12.9442326225
 20
9.8964234727
 30
0.0
 10
12.9408699069
 20
9.8971176577
 30
0.0
 10
12.9386088992
 20
9.8973770326
 30
0.0
 10
12.9374797412
 20
9.8974553373
 30
0.0
  0
SPLINE
  5
387
100
AcDbEntity
  8
0
100
AcDbSpline
 62
7
  6
CONTINUOUS
 70
0
 71
3
 72
68
 73
64
 74
0
 42
0.0000001
 43
0.0000001
 44
0.0000000001
 40
0.0
 40
0.0
 40
0.0
 40
0.0
 40
0.0086055877
 40
0.0180054942
 40
0.0282254311
 40
0.0392801356
 40
0.0511734203
 40
0.0639011155
 40
0.0774527449
 40
0.0918122697
 40
0.1069591348
 40
0.1228689176
 40
0.1395136361
 40
0.1568623038
 40
0.1748812665
 40
0.1935343246
 40
0.2127831085
 40
0.2325873023
 40
0.2529047114
 40
0.2736915536
 40
0.3164903859
 40
0.3606086357
 40
0.4056544516
 40
0.4512252441
 40
0.4969124009
 40
0.542305993
 40
0.5869994312
 40
0.6305941965
 40
0.6727045426
 40
0.6930878146
 40
0.7129636658
 40
0.732289739
 40
0.751025381
 40
0.7691319542
 40
0.7865730292
 40
0.8033145074
 40
0.8193250296
 40
0.8345762772
 40
0.8490432237
 40
0.8627047647
 40
0.8755443136
 40
0.8875504489
 40
0.8987181373
 40
0.9090501729
 40
0.9185590166
 40
0.9272697132
 40
0.9352236635
 40
0.938936962
 40
0.942486787
 40
0.9491422866
 40
0.952283025
 40
0.9553218285
 40
0.9582796155
 40
0.9611792637
 40
0.9640451563
 40
0.966902647
 40
0.9697773258
 40
0.9726943014
 40
0.9756774958
 40
0.9787490904
 40
0.9852313038
 40
0.9922817591
 40
1.0
 40
1.0
 40
1.0
 40
1.0
 10
12.6899304746
 20
6.6717705852
 30
0.0
 10
12.6911011051
 20
6.6729013275
 30
0.0
 10
12.6934349994
 20
6.6753880992
 30
0.0
 10
12.696775148
 20
6.6795575316
 30
0.0
 10
12.7000982698
 20
6.6843173652
 30
0.0
 10
12.703396745
 20
6.6896563948
 30
0.0
 10
12.7066633637
 20
6.6955628014
 30
0.0
 10
12.7098904704
 20
6.7020229783
 30
0.0
 10
12.7130704381
 20
6.7090219297
 30
0.0
 10
12.7161957175
 20
6.7165432384
 30
0.0
 10
12.7192588222
 20
6.7245691688
 30
0.0
 10
12.7222523628
 20
6.7330807253
 30
0.0
 10
12.7251691673
 20
6.7420576818
 30
0.0
 10
12.7280022174
 20
6.7514786715
 30
0.0
 10
12.7307446638
 20
6.7613212476
 30
0.0
 10
12.7333899296
 20
6.7715619165
 30
0.0
 10
12.7359316556
 20
6.7821762226
 30
0.0
 10
12.7383636913
 20
6.7931388058
 30
0.0
 10
12.7406802408
 20
6.8044234737
 30
0.0
 10
12.7436361593
 20
6.820014695
 30
0.0
 10
12.7469925827
 20
6.8401090928
 30
0.0
 10
12.7504422809
 20
6.8648302252
 30
0.0
 10
12.7533185841
 20
6.8901522763
 30
0.0
 10
12.7555938074
 20
6.9158331686
 30
0.0
 10
12.7572461189
 20
6.941627553
 30
0.0
 10
12.7582597417
 20
6.9672888957
 30
0.0
 10
12.7586251614
 20
6.9925720416
 30
0.0
 10
12.7583391402
 20
7.0172352785
 30
0.0
 10
12.7575525356
 20
7.0372872508
 30
0.0
 10
12.756588699
 20
7.0528363427
 30
0.0
 10
12.7557144407
 20
7.0640721368
 30
0.0
 10
12.7546832155
 20
7.0749816723
 30
0.0
 10
12.7534974688
 20
7.0855388933
 30
0.0
 10
12.7521600944
 20
7.0957185751
 30
0.0
 10
12.750674359
 20
7.1054964208
 30
0.0
 10
12.7490438423
 20
7.1148491058
 30
0.0
 10
12.7472725062
 20
7.1237543552
 30
0.0
 10
12.7453646735
 20
7.132191004
 30
0.0
 10
12.7433249358
 20
7.1401390431
 30
0.0
 10
12.741158222
 20
7.1475797005
 30
0.0
 10
12.7388697687
 20
7.1544955133
 30
0.0
 10
12.7364649899
 20
7.1608703594
 30
0.0
 10
12.7339494968
 20
7.166689577
 30
0.0
 10
12.7313290516
 20
7.171939975
 30
0.0
 10
12.7286091422
 20
7.176610057
 30
0.0
 10
12.7257953271
 20
7.1806892581
 30
0.0
 10
12.7233217806
 20
7.1836542873
 30
0.0
 10
12.7212969227
 20
7.1857018523
 30
0.0
 10
12.7193353498
 20
7.1874588132
 30
0.0
 10
12.7172921846
 20
7.1889588025
 30
0.0
 10
12.7151762995
 20
7.19015336
 30
0.0
 10
12.7136034799
 20
7.1908747166
 30
0.0
 10
12.7120154947
 20
7.1914378078
 30
0.0
 10
12.7104133877
 20
7.191842096
 30
0.0
 10
12.7087983952
 20
7.192086971
 30
0.0
 10
12.7071718731
 20
7.1921721423
 30
0.0
 10
12.7055352008
 20
7.1920976271
 30
0.0
 10
12.7038897533
 20
7.1918635359
 30
0.0
 10
12.7022367425
 20
7.1914702625
 30
0.0
 10
12.699984301
 20
7.1907213315
 30
0.0
 10
12.697139115
 20
7.1893601402
 30
0.0
 10
12.6937828868
 20
7.1871307748
 30
0.0
 10
12.6916474549
 20
7.1853206081
 30
0.0
 10
12.6905788617
 20
7.1843261513
 30
0.0
  0
SPLINE
  5
388
100
AcDbEntity
  8
0
100
AcDbSpline
 62
7
  6
CONTINUOUS
 70
0
 71
3
 72
24
 73
20
 74
0
 42
0.0000001
 43
0.0000001
 44
0.0000000001
 40
0.0
 40
0.0
 40
0.0
 40
0.0
 40
0.0755919747
 40
0.1466353424
 40
0.2134624271
 40
0.2454363282
 40
0.2765291433
 40
0.3363394199
 40
0.3935588324
 40
0.4489344672
 40
0.5032986405
 40
0.557535494
 40
0.612535826
 40
0.6691506165
 40
0.7281550923
 40
0.7902240778
 40
0.855926948
 40
0.9257281551
 40
1.0
 40
1.0
 40
1.0
 40
1.0
 10
12.6899304746
 20
6.6717705852
 30
0.0
 10
12.6891940063
 20
6.6710592113
 30
0.0
 10
12.6877219613
 20
6.6697229895
 30
0.0
 10
12.6854439698
 20
6.6679378993
 30
0.0
 10
12.6835201365
 20
6.6666702921
 30
0.0
 10
12.6819858218
 20
6.665807794
 30
0.0
 10
12.6804961853
 20
6.6650640809
 30
0.0
 10
12.6786336897
 20
6.6643065856
 30
0.0
 10
12.6763787592
 20
6.6636783943
 30
0.0
 10
12.6741356735
 20
6.6633449162
 30
0.0
 10
12.6719082976
 20
6.6633078863
 30
0.0
 10
12.6697008791
 20
6.6635677115
 30
0.0
 10
12.6675177283
 20
6.6641237683
 30
0.0
 10
12.6653624926
 20
6.6649740011
 30
0.0
 10
12.6632381156
 20
6.6661161224
 30
0.0
 10
12.6611466473
 20
6.6675473414
 30
0.0
 10
12.6590898772
 20
6.6692653186
 30
0.0
 10
12.6570693782
 20
6.6712674113
 30
0.0
 10
12.6557888338
 20
6.6727425701
 30
0.0
 10
12.655154043
 20
6.6735230694
 30
0.0
  0
SPLINE
  5
389
100
AcDbEntity
  8
0
100
AcDbSpline
 62
7
  6
CONTINUOUS
 70
0
 71
3
 72
94
 73
90
 74
0
 42
0.0000001
 43
0.0000001
 44
0.0000000001
 40
0.0
 40
0.0
 40
0.0
 40
0.0
 40
0.0032619916
 40
0.0064151899
 40
0.0094765495
 40
0.0124648484
 40
0.0154004385
 40
0.0183048965
 40
0.0212005638
 40
0.0241100038
 40
0.0270554296
 40
0.0300581864
 40
0.0331382936
 40
0.0363141467
 40
0.0396023363
 40
0.0430175588
 40
0.0465726995
 40
0.0502788489
 40
0.054145521
 40
0.0581807253
 40
0.0623911702
 40
0.0667823979
 40
0.071358886
 40
0.0761242437
 40
0.0810812142
 40
0.0862318818
 40
0.0915776529
 40
0.0971193917
 40
0.1028574604
 40
0.1087917398
 40
0.1149217494
 40
0.1212465783
 40
0.1277650347
 40
0.1344755715
 40
0.1484649624
 40
0.1631976783
 40
0.178652484
 40
0.1948049441
 40
0.2116277885
 40
0.2290912139
 40
0.2471631353
 40
0.2658094089
 40
0.2849940313
 40
0.304679316
 40
0.3248260571
 40
0.3453936817
 40
0.3663403956
 40
0.3876233212
 40
0.4091986346
 40
0.4310217003
 40
0.4530472017
 40
0.475229269
 40
0.4975216074
 40
0.5198776229
 40
0.5422505491
 40
0.5645935745
 40
0.5868599686
 40
0.6090032083
 40
0.6309771037
 40
0.6527359252
 40
0.6742345307
 40
0.6954284967
 40
0.7162742506
 40
0.736729203
 40
0.7567518843
 40
0.776302085
 40
0.7953410039
 40
0.8138314027
 40
0.8317377754
 40
0.8490265332
 40
0.865666203
 40
0.8816276562
 40
0.8968843753
 40
0.9114127713
 40
0.9251925708
 40
0.9317966829
 40
0.9382078364
 40
0.9444246496
 40
0.9504460987
 40
0.9562715047
 40
0.9619005679
 40
0.9673334665
 40
0.9725707996
 40
0.9776137393
 40
0.9824640062
 40
0.9871241131
 40
0.9915973756
 40
0.995887774
 40
1.0
 40
1.0
 40
1.0
 40
1.0
 10
11.5555753841
 20
10.9631097413
 30
0.0
 10
11.5564994971
 20
10.9646784448
 30
0.0
 10
11.5582123758
 20
10.9678269042
 30
0.0
 10
11.5603884239
 20
10.9726533688
 30
0.0
 10
11.5621221843
 20
10.9774946116
 30
0.0
 10
11.5634118449
 20
10.9823474156
 30
0.0
 10
11.5642560207
 20
10.9872087062
 30
0.0
 10
11.5646536001
 20
10.9920750453
 30
0.0
 10
11.5646042052
 20
10.9969428189
 30
0.0
 10
11.5641077165
 20
11.0018083436
 30
0.0
 10
11.5631649611
 20
11.0066680534
 30
0.0
 10
11.5617769183
 20
11.0115185522
 30
0.0
 10
11.5599451895
 20
11.0163567627
 30
0.0
 10
11.5576715062
 20
11.0211798591
 30
0.0
 10
11.5549577458
 20
11.0259852041
 30
0.0
 10
11.5518060336
 20
11.0307704091
 30
0.0
 10
11.548218385
 20
11.0355330137
 30
0.0
 10
11.5441971687
 20
11.0402707824
 30
0.0
 10
11.539744674
 20
11.0449812891
 30
0.0
 10
11.5348635111
 20
11.0496622376
 30
0.0
 10
11.5295563937
 20
11.0543112291
 30
0.0
 10
11.5238262455
 20
11.0589258294
 30
0.0
 10
11.5176762627
 20
11.063503681
 30
0.0
 10
11.5111097705
 20
11.0680422488
 30
0.0
 10
11.504130436
 20
11.0725391903
 30
0.0
 10
11.4967420568
 20
11.0769919692
 30
0.0
 10
11.4889487396
 20
11.0813982073
 30
0.0
 10
11.480754781
 20
11.0857554549
 30
0.0
 10
11.472164715
 20
11.0900612807
 30
0.0
 10
11.4631833248
 20
11.0943133482
 30
0.0
 10
11.4538155767
 20
11.0985092111
 30
0.0
 10
11.4440667116
 20
11.1026466064
 30
0.0
 10
11.4339421271
 20
11.1067231784
 30
0.0
 10
11.4197519305
 20
11.1121498465
 30
0.0
 10
11.4011051141
 20
11.1187491375
 30
0.0
 10
11.3776244102
 20
11.1262845954
 30
0.0
 10
11.3527911928
 20
11.133525269
 30
0.0
 10
11.3266609477
 20
11.1404548345
 30
0.0
 10
11.2992918452
 20
11.1470576461
 30
0.0
 10
11.2707449981
 20
11.1533187912
 30
0.0
 10
11.2410841938
 20
11.159224131
 30
0.0
 10
11.2103757702
 20
11.1647603335
 30
0.0
 10
11.1786884453
 20
11.1699149016
 30
0.0
 10
11.1460931573
 20
11.1746762022
 30
0.0
 10
11.1126628996
 20
11.1790334918
 30
0.0
 10
11.0784725541
 20
11.1829769408
 30
0.0
 10
11.0435987208
 20
11.1864976535
 30
0.0
 10
11.0081195451
 20
11.1895876918
 30
0.0
 10
10.972114539
 20
11.1922400925
 30
0.0
 10
10.9356643995
 20
11.1944488782
 30
0.0
 10
10.8988508255
 20
11.1962090716
 30
0.0
 10
10.8617563341
 20
11.1975167061
 30
0.0
 10
10.8244640756
 20
11.1983688343
 30
0.0
 10
10.7870576463
 20
11.1987635342
 30
0.0
 10
10.7496209001
 20
11.1986999162
 30
0.0
 10
10.7122377592
 20
11.1981781259
 30
0.0
 10
10.6749920241
 20
11.1971993401
 30
0.0
 10
10.6379671857
 20
11.1957657644
 30
0.0
 10
10.6012462374
 20
11.1938806288
 30
0.0
 10
10.564911489
 20
11.1915481802
 30
0.0
 10
10.5290443813
 20
11.1887736732
 30
0.0
 10
10.4937253002
 20
11.1855633605
 30
0.0
 10
10.4590333941
 20
11.181924482
 30
0.0
 10
10.4250463953
 20
11.1778652437
 30
0.0
 10
10.3918404444
 20
11.1733948011
 30
0.0
 10
10.3594899177
 20
11.1685232387
 30
0.0
 10
10.3280672576
 20
11.1632615484
 30
0.0
 10
10.2976428046
 20
11.1576216044
 30
0.0
 10
10.2682846309
 20
11.151616138
 30
0.0
 10
10.2400583801
 20
11.1452587129
 30
0.0
 10
10.2130271019
 20
11.1385636873
 30
0.0
 10
10.1872511349
 20
11.1315461789
 30
0.0
 10
10.16278783
 20
11.1242220282
 30
0.0
 10
10.139691831
 20
11.1166077402
 30
0.0
 10
10.1213764959
 20
11.1099440584
 30
0.0
 10
10.1074588566
 20
11.1044679831
 30
0.0
 10
10.0975421352
 20
11.100357367
 30
0.0
 10
10.0880041699
 20
11.0961872223
 30
0.0
 10
10.0788502542
 20
11.0919598678
 30
0.0
 10
10.0700854768
 20
11.0876776819
 30
0.0
 10
10.0617147177
 20
11.083342994
 30
0.0
 10
10.0537425856
 20
11.0789582797
 30
0.0
 10
10.046173537
 20
11.074525866
 30
0.0
 10
10.0390117284
 20
11.0700483054
 30
0.0
 10
10.0322611229
 20
11.0655279711
 30
0.0
 10
10.0259253798
 20
11.0609672971
 30
0.0
 10
10.020007915
 20
11.056368635
 30
0.0
 10
10.0145123175
 20
11.051734679
 30
0.0
 10
10.0110600196
 20
11.0485574718
 30
0.0
 10
10.0094091741
 20
11.0469628774
 30
0.0
  0
SPLINE
  5
38A
100
AcDbEntity
  8
0
100
AcDbSpline
 62
7
  6
CONTINUOUS
 70
0
 71
3
 72
23
 73
19
 74
0
 42
0.0000001
 43
0.0000001
 44
0.0000000001
 40
0.0
 40
0.0
 40
0.0
 40
0.0
 40
0.063776909
 40
0.1273449468
 40
0.1907019575
 40
0.2538561145
 40
0.3168131979
 40
0.3795820804
 40
0.4421733815
 40
0.5045993354
 40
0.5668738682
 40
0.6290123838
 40
0.6910316538
 40
0.75294965
 40
0.8147853622
 40
0.8765586114
 40
0.9382898593
 40
1.0
 40
1.0
 40
1.0
 40
1.0
 10
10.9025400963
 20
10.1309949055
 30
0.0
 10
10.9025400963
 20
10.1377835028
 30
0.0
 10
10.9028650363
 20
10.1513407644
 30
0.0
 10
10.9043315874
 20
10.1715941753
 30
0.0
 10
10.9067734367
 20
10.1916870539
 30
0.0
 10
10.9101847158
 20
10.2115722036
 30
0.0
 10
10.9145578199
 20
10.2312041759
 30
0.0
 10
10.9198826347
 20
10.2505375882
 30
0.0
 10
10.9261469116
 20
10.2695279021
 30
0.0
 10
10.9333362631
 20
10.2881313257
 30
0.0
 10
10.9414341749
 20
10.3063049411
 30
0.0
 10
10.95042201
 20
10.3240068294
 30
0.0
 10
10.9602790421
 20
10.3411961679
 30
0.0
 10
10.9709825747
 20
10.3578333139
 30
0.0
 10
10.9825079297
 20
10.3738798362
 30
0.0
 10
10.9948286822
 20
10.3892988314
 30
0.0
 10
11.0079159142
 20
10.4040542599
 30
0.0
 10
11.0171333213
 20
10.413427893
 30
0.0
 10
11.0218578104
 20
10.4179914187
 30
0.0
  0
SPLINE
  5
38B
100
AcDbEntity
  8
0
100
AcDbSpline
 62
7
  6
CONTINUOUS
 70
0
 71
3
 72
18
 73
14
 74
0
 42
0.0000001
 43
0.0000001
 44
0.0000000001
 40
0.0
 40
0.0
 40
0.0
 40
0.0
 40
0.0548620599
 40
0.1099280451
 40
0.1653994776
 40
0.2214731111
 40
0.2783387003
 40
0.3361775499
 40
0.4554064184
 40
0.5804414564
 40
0.712334317
 40
0.8519586594
 40
1.0
 40
1.0
 40
1.0
 40
1.0
 10
9.9915335336
 20
10.9727972789
 30
0.0
 10
9.9915335395
 20
10.9739016811
 30
0.0
 10
9.9916036418
 20
10.9761152242
 30
0.0
 10
9.9919187988
 20
10.9794319419
 30
0.0
 10
9.9924439457
 20
10.9827467429
 30
0.0
 10
9.9931788502
 20
10.9860584223
 30
0.0
 10
9.9941232114
 20
10.9893661537
 30
0.0
 10
9.9956765199
 20
10.9938141538
 30
0.0
 10
9.998164871
 20
10.9993774083
 30
0.0
 10
10.0019522978
 20
11.0059476394
 30
0.0
 10
10.0065651868
 20
11.0124753612
 30
0.0
 10
10.0119965272
 20
11.0189539767
 30
0.0
 10
10.0160359948
 20
11.0231108103
 30
0.0
 10
10.0181794815
 20
11.0251812595
 30
0.0
  0
SPLINE
  5
38C
100
AcDbEntity
  8
0
100
AcDbSpline
 62
7
  6
CONTINUOUS
 70
0
 71
3
 72
23
 73
19
 74
0
 42
0.0000001
 43
0.0000001
 44
0.0000000001
 40
0.0
 40
0.0
 40
0.0
 40
0.0
 40
0.1133886662
 40
0.2183536641
 40
0.3150254625
 40
0.4035877943
 40
0.4842706949
 40
0.5573432434
 40
0.6231494853
 40
0.6821080365
 40
0.7347247791
 40
0.7816364254
 40
0.8236374494
 40
0.8617095563
 40
0.8970383949
 40
0.9309656968
 40
0.9648673174
 40
1.0
 40
1.0
 40
1.0
 40
1.0
 10
10.2860678256
 20
7.355366075
 30
0.0
 10
10.2856624848
 20
7.3550252154
 30
0.0
 10
10.2848737694
 20
7.3543783983
 30
0.0
 10
10.2837091568
 20
7.3534787403
 30
0.0
 10
10.2826090531
 20
7.3526863985
 30
0.0
 10
10.2815735368
 20
7.351999932
 30
0.0
 10
10.280602574
 20
7.3514174978
 30
0.0
 10
10.2796958219
 20
7.3509372331
 30
0.0
 10
10.2788529141
 20
7.3505568196
 30
0.0
 10
10.2780732741
 20
7.3502737112
 30
0.0
 10
10.2773560549
 20
7.3500855042
 30
0.0
 10
10.2767003162
 20
7.349989702
 30
0.0
 10
10.2761050529
 20
7.349984039
 30
0.0
 10
10.2755696095
 20
7.3500668321
 30
0.0
 10
10.2750943429
 20
7.3502364739
 30
0.0
 10
10.2746806353
 20
7.3504904146
 30
0.0
 10
10.274329901
 20
7.3508241652
 30
0.0
 10
10.2741428218
 20
7.3510893709
 30
0.0
 10
10.2740596634
 20
7.3512308351
 30
0.0
  0
SPLINE
  5
38D
100
AcDbEntity
  8
0
100
AcDbSpline
 62
7
  6
CONTINUOUS
 70
0
 71
3
 72
96
 73
92
 74
0
 42
0.0000001
 43
0.0000001
 44
0.0000000001
 40
0.0
 40
0.0
 40
0.0
 40
0.0
 40
0.0041939574
 40
0.0085762742
 40
0.0131520511
 40
0.0179256088
 40
0.0229004783
 40
0.028079222
 40
0.0334636112
 40
0.0390547653
 40
0.0448532218
 40
0.0508590076
 40
0.0570716348
 40
0.0634902296
 40
0.0701134804
 40
0.0769397743
 40
0.0839671177
 40
0.091193268
 40
0.1062311061
 40
0.1220303958
 40
0.1385641632
 40
0.1558022491
 40
0.1737116571
 40
0.1922568477
 40
0.2113999921
 40
0.2311011977
 40
0.2513187129
 40
0.2720091149
 40
0.2931274873
 40
0.314627589
 40
0.3364620159
 40
0.35858236
 40
0.3809393635
 40
0.4034830717
 40
0.4261629835
 40
0.4489282015
 40
0.4717275804
 40
0.4945098762
 40
0.5172238945
 40
0.5398186387
 40
0.5622434594
 40
0.584448203
 40
0.6063833625
 40
0.6280002295
 40
0.649251048
 40
0.6700891709
 40
0.6904692217
 40
0.7103472604
 40
0.7296809576
 40
0.7484297794
 40
0.7665551861
 40
0.7840208488
 40
0.8007928931
 40
0.8168401783
 40
0.8321346255
 40
0.8466516145
 40
0.8536121895
 40
0.8603710027
 40
0.8669262091
 40
0.8732762723
 40
0.8794200367
 40
0.8853567472
 40
0.8910860808
 40
0.8966082311
 40
0.9019239053
 40
0.9070344711
 40
0.9119419382
 40
0.9166491551
 40
0.9211598066
 40
0.9254786388
 40
0.9296115077
 40
0.9335656091
 40
0.937349596
 40
0.9409737889
 40
0.9477890825
 40
0.9510148692
 40
0.9541417451
 40
0.9571901171
 40
0.9601821742
 40
0.9631415265
 40
0.9660926395
 40
0.9690602038
 40
0.9720684674
 40
0.97514062
 40
0.9782983043
 40
0.981561246
 40
0.9849470671
 40
0.9884713301
 40
0.9921475967
 40
0.9959873775
 40
1.0
 40
1.0
 40
1.0
 40
1.0
 10
9.9582920542
 20
11.1016249817
 30
0.0
 10
9.9601189659
 20
11.1033896431
 30
0.0
 10
9.9639456815
 20
11.1069051116
 30
0.0
 10
9.9700488465
 20
11.1120270607
 30
0.0
 10
9.9766351648
 20
11.1171082831
 30
0.0
 10
9.983700365
 20
11.1221456676
 30
0.0
 10
9.9912404037
 20
11.1271363763
 30
0.0
 10
9.9992508364
 20
11.1320775908
 30
0.0
 10
10.0077269432
 20
11.1369663759
 30
0.0
 10
10.0166636807
 20
11.141799829
 30
0.0
 10
10.0260557297
 20
11.1465751126
 30
0.0
 10
10.0358975166
 20
11.1512893411
 30
0.0
 10
10.046183156
 20
11.1559397595
 30
0.0
 10
10.0569065227
 20
11.1605235019
 30
0.0
 10
10.0680611835
 20
11.1650379047
 30
0.0
 10
10.0796404755
 20
11.1694801572
 30
0.0
 10
10.0916374575
 20
11.1738477072
 30
0.0
 10
10.108404025
 20
11.1796449243
 30
0.0
 10
10.1303641388
 20
11.1866689578
 30
0.0
 10
10.1579241526
 20
11.1946510403
 30
0.0
 10
10.1869650177
 20
11.2022750827
 30
0.0
 10
10.2174169738
 20
11.2095225958
 30
0.0
 10
10.2492070807
 20
11.2163759863
 30
0.0
 10
10.2822590138
 20
11.2228186209
 30
0.0
 10
10.3164933791
 20
11.2288348654
 30
0.0
 10
10.3518278848
 20
11.2344101245
 30
0.0
 10
10.3881775582
 20
11.2395308762
 30
0.0
 10
10.4254549556
 20
11.2441847049
 30
0.0
 10
10.4635703782
 20
11.2483603299
 30
0.0
 10
10.5024320931
 20
11.2520476325
 30
0.0
 10
10.5419465571
 20
11.255237679
 30
0.0
 10
10.5820186449
 20
11.2579227422
 30
0.0
 10
10.6225518801
 20
11.2600963191
 30
0.0
 10
10.6634486696
 20
11.2617531459
 30
0.0
 10
10.7046105402
 20
11.2628892108
 30
0.0
 10
10.7459383766
 20
11.2635017626
 30
0.0
 10
10.7873326621
 20
11.2635893185
 30
0.0
 10
10.828693719
 20
11.2631516667
 30
0.0
 10
10.8699219501
 20
11.2621898672
 30
0.0
 10
10.9109180802
 20
11.2607062488
 30
0.0
 10
10.9515833955
 20
11.2587044039
 30
0.0
 10
10.9918199833
 20
11.2561891798
 30
0.0
 10
11.0315309689
 20
11.253166668
 30
0.0
 10
11.0706207506
 20
11.2496441894
 30
0.0
 10
11.1089952321
 20
11.2456302774
 30
0.0
 10
11.1465620516
 20
11.2411346581
 30
0.0
 10
11.1832308071
 20
11.2361682276
 30
0.0
 10
11.2189132786
 20
11.2307430263
 30
0.0
 10
11.2535236454
 20
11.2248722104
 30
0.0
 10
11.2869787005
 20
11.2185700217
 30
0.0
 10
11.3191980573
 20
11.2118517528
 30
0.0
 10
11.3501043642
 20
11.2047337094
 30
0.0
 10
11.3796234686
 20
11.1972331675
 30
0.0
 10
11.4076847462
 20
11.1893683305
 30
0.0
 10
11.4342208401
 20
11.1811582637
 30
0.0
 10
11.4552960573
 20
11.1739480303
 30
0.0
 10
11.4713328735
 20
11.1680076961
 30
0.0
 10
11.4827713951
 20
11.1635410478
 30
0.0
 10
11.493783028
 20
11.1590032522
 30
0.0
 10
11.5043611913
 20
11.1543969664
 30
0.0
 10
11.514499558
 20
11.1497249733
 30
0.0
 10
11.5241920816
 20
11.1449900806
 30
0.0
 10
11.5334329721
 20
11.1401950805
 30
0.0
 10
11.5422167528
 20
11.1353428833
 30
0.0
 10
11.5505381781
 20
11.130436286
 30
0.0
 10
11.5583923582
 20
11.1254782707
 30
0.0
 10
11.5657746017
 20
11.1204716304
 30
0.0
 10
11.5726806074
 20
11.1154193728
 30
0.0
 10
11.5791062477
 20
11.1103242765
 30
0.0
 10
11.5850477761
 20
11.1051893272
 30
0.0
 10
11.5905016539
 20
11.1000172264
 30
0.0
 10
11.5954645055
 20
11.0948110679
 30
0.0
 10
11.5999337524
 20
11.0895728091
 30
0.0
 10
11.6051228729
 20
11.0826930317
 30
0.0
 10
11.6094660056
 20
11.0756085977
 30
0.0
 10
11.6128145628
 20
11.0683626315
 30
0.0
 10
11.6147736788
 20
11.063009272
 30
0.0
 10
11.6162237662
 20
11.0576423942
 30
0.0
 10
11.6171630136
 20
11.0522654442
 30
0.0
 10
11.6175902875
 20
11.0468826584
 30
0.0
 10
11.6175047899
 20
11.041498379
 30
0.0
 10
11.6169068123
 20
11.0361170617
 30
0.0
 10
11.6157970827
 20
11.030743026
 30
0.0
 10
11.6141771572
 20
11.0253802712
 30
0.0
 10
11.6120488891
 20
11.0200324622
 30
0.0
 10
11.6094145079
 20
11.0147029205
 30
0.0
 10
11.606276436
 20
11.0093946487
 30
0.0
 10
11.6026370608
 20
11.00411051
 30
0.0
 10
11.5984989472
 20
10.9988531503
 30
0.0
 10
11.5938650546
 20
10.9936256743
 30
0.0
 10
11.5905229119
 20
10.9902389684
 30
0.0
 10
11.5887749907
 20
10.988550606
 30
0.0
  0
SPLINE
  5
38E
100
AcDbEntity
  8
0
100
AcDbSpline
 62
7
  6
CONTINUOUS
 70
0
 71
3
 72
71
 73
67
 74
0
 42
0.0000001
 43
0.0000001
 44
0.0000000001
 40
0.0
 40
0.0
 40
0.0
 40
0.0
 40
0.0156373785
 40
0.031327908
 40
0.0470702843
 40
0.0628636379
 40
0.078706081
 40
0.0945954869
 40
0.110529229
 40
0.1265042947
 40
0.1425172947
 40
0.1585644997
 40
0.1746418765
 40
0.1907451247
 40
0.2068697161
 40
0.223010935
 40
0.23916392
 40
0.2553237071
 40
0.2714852732
 40
0.2876435801
 40
0.3037936179
 40
0.3199304487
 40
0.3360492498
 40
0.3521453559
 40
0.3682143008
 40
0.3842518587
 40
0.4002540819
 40
0.4162173382
 40
0.4321383455
 40
0.4480142037
 40
0.4638424245
 40
0.4796209578
 40
0.4953482155
 40
0.5110230902
 40
0.5266449705
 40
0.5422137516
 40
0.5577298414
 40
0.5731941618
 40
0.588608145
 40
0.6039737248
 40
0.6192933216
 40
0.6345698226
 40
0.6498065561
 40
0.6650072606
 40
0.6801760496
 40
0.6953173702
 40
0.7104359597
 40
0.7255367959
 40
0.7406250456
 40
0.7557060099
 40
0.7707850676
 40
0.7858676178
 40
0.800959022
 40
0.8160645473
 40
0.8311893104
 40
0.8463382237
 40
0.8615159442
 40
0.8767268262
 40
0.8919748769
 40
0.9072637173
 40
0.9225965518
 40
0.9379761174
 40
0.9534047476
 40
0.9688840681
 40
0.9844157435
 40
1.0
 40
1.0
 40
1.0
 40
1.0
 10
11.1240145216
 20
6.7391821931
 30
0.0
 10
11.1240145216
 20
6.7496300691
 30
0.0
 10
11.1234997444
 20
6.770564891
 30
0.0
 10
11.1211944913
 20
6.8019413731
 30
0.0
 10
11.1173602525
 20
6.8332735653
 30
0.0
 10
11.1120065596
 20
6.8644848272
 30
0.0
 10
11.1051462058
 20
6.89550044
 30
0.0
 10
11.0967958537
 20
6.926245592
 30
0.0
 10
11.0869756217
 20
6.9566463094
 30
0.0
 10
11.0757092079
 20
6.9866293986
 30
0.0
 10
11.0630237839
 20
7.0161226931
 30
0.0
 10
11.0489499338
 20
7.045055207
 30
0.0
 10
11.0335215743
 20
7.0733573062
 30
0.0
 10
11.0167758736
 20
7.1009608749
 30
0.0
 10
10.9987531627
 20
7.1277994772
 30
0.0
 10
10.9794968393
 20
7.1538085166
 30
0.0
 10
10.9590532625
 20
7.178925388
 30
0.0
 10
10.9374716552
 20
7.2030896399
 30
0.0
 10
10.9148039759
 20
7.2262431131
 30
0.0
 10
10.8911047897
 20
7.2483300763
 30
0.0
 10
10.8664311395
 20
7.2692973599
 30
0.0
 10
10.8408424091
 20
7.2890944827
 30
0.0
 10
10.8144001823
 20
7.3076737729
 30
0.0
 10
10.7871680939
 20
7.3249904803
 30
0.0
 10
10.7592116869
 20
7.3410028973
 30
0.0
 10
10.7305982492
 20
7.3556724548
 30
0.0
 10
10.7013966486
 20
7.3689638066
 30
0.0
 10
10.6716771696
 20
7.3808449158
 30
0.0
 10
10.6415113456
 20
7.3912871315
 30
0.0
 10
10.6109717889
 20
7.4002652584
 30
0.0
 10
10.5801320164
 20
7.4077576144
 30
0.0
 10
10.5490662776
 20
7.4137460987
 30
0.0
 10
10.5178493736
 20
7.4182162333
 30
0.0
 10
10.4865564763
 20
7.4211571876
 30
0.0
 10
10.4552629491
 20
7.4225618077
 30
0.0
 10
10.4240441675
 20
7.4224266337
 30
0.0
 10
10.3929753383
 20
7.4207519112
 30
0.0
 10
10.3621313204
 20
7.4175415887
 30
0.0
 10
10.3315864433
 20
7.4128033229
 30
0.0
 10
10.3014143251
 20
7.4065484646
 30
0.0
 10
10.2716876971
 20
7.3987920178
 30
0.0
 10
10.2424782283
 20
7.3895526087
 30
0.0
 10
10.2138563526
 20
7.3788524422
 30
0.0
 10
10.1858910979
 20
7.3667172509
 30
0.0
 10
10.1586499198
 20
7.3531762327
 30
0.0
 10
10.1321985331
 20
7.3382619903
 30
0.0
 10
10.1066007455
 20
7.3220104596
 30
0.0
 10
10.0819183096
 20
7.3044608074
 30
0.0
 10
10.0582107708
 20
7.2856553398
 30
0.0
 10
10.0355353226
 20
7.2656393996
 30
0.0
 10
10.0139466666
 20
7.244461257
 30
0.0
 10
9.99349688
 20
7.2221719907
 30
0.0
 10
9.9742352849
 20
7.1988253683
 30
0.0
 10
9.9562083161
 20
7.1744777215
 30
0.0
 10
9.9394594234
 20
7.1491877938
 30
0.0
 10
9.9240289649
 20
7.1230165995
 30
0.0
 10
9.9099541101
 20
7.0960272741
 30
0.0
 10
9.8972687517
 20
7.0682849202
 30
0.0
 10
9.8860034254
 20
7.0398564499
 30
0.0
 10
9.8761852314
 20
7.0108104197
 30
0.0
 10
9.8678377745
 20
6.9812168836
 30
0.0
 10
9.8609810605
 20
6.951147152
 30
0.0
 10
9.8556316248
 20
6.9206738474
 30
0.0
 10
9.8518021158
 20
6.8898699928
 30
0.0
 10
9.8495019175
 20
6.8588109915
 30
0.0
 10
9.8489923554
 20
6.838017664
 30
0.0
 10
9.8489923554
 20
6.8276052807
 30
0.0
  0
SPLINE
  5
38F
100
AcDbEntity
  8
0
100
AcDbSpline
 62
7
  6
CONTINUOUS
 70
0
 71
3
 72
29
 73
25
 74
0
 42
0.0000001
 43
0.0000001
 44
0.0000000001
 40
0.0
 40
0.0
 40
0.0
 40
0.0
 40
0.0749503488
 40
0.1455452737
 40
0.2121261891
 40
0.2751192851
 40
0.3350448404
 40
0.3640583593
 40
0.3925449884
 40
0.4205963601
 40
0.4483089338
 40
0.4757832092
 40
0.5031225081
 40
0.530431847
 40
0.5578166247
 40
0.5853812653
 40
0.6132280351
 40
0.6414557868
 40
0.6701590145
 40
0.7293218109
 40
0.7913860629
 40
0.8569001023
 40
0.9263189548
 40
1.0
 40
1.0
 40
1.0
 40
1.0
 10
9.9603958943
 20
10.9865562501
 30
0.0
 10
9.9579587406
 20
10.9888242787
 30
0.0
 10
9.9533612094
 20
10.9933777428
 30
0.0
 10
9.9471576444
 20
11.0004816329
 30
0.0
 10
9.9418676477
 20
11.0076420376
 30
0.0
 10
9.93749925
 20
11.0148518436
 30
0.0
 10
9.9346017623
 20
11.020962698
 30
0.0
 10
9.932773525
 20
11.0258503678
 30
0.0
 10
9.9316505395
 20
11.0294831476
 30
0.0
 10
9.9307617703
 20
11.0331207765
 30
0.0
 10
9.9301075838
 20
11.0367622522
 30
0.0
 10
9.9296882096
 20
11.0404063993
 30
0.0
 10
9.9295038411
 20
11.0440520683
 30
0.0
 10
9.9295546374
 20
11.0476980755
 30
0.0
 10
9.929840503
 20
11.0513432298
 30
0.0
 10
9.9303612982
 20
11.0549863697
 30
0.0
 10
9.9311168467
 20
11.0586263044
 30
0.0
 10
9.9321068409
 20
11.0622620163
 30
0.0
 10
9.9337550182
 20
11.067150989
 30
0.0
 10
9.9364273458
 20
11.073267284
 30
0.0
 10
9.9405326598
 20
11.080490152
 30
0.0
 10
9.945561718
 20
11.0876654779
 30
0.0
 10
9.9515064738
 20
11.0947858442
 30
0.0
 10
9.9559380535
 20
11.0993511915
 30
0.0
 10
9.9582920542
 20
11.1016249817
 30
0.0
  0
SPLINE
  5
390
100
AcDbEntity
  8
0
100
AcDbSpline
 62
7
  6
CONTINUOUS
 70
0
 71
3
 72
23
 73
19
 74
0
 42
0.0000001
 43
0.0000001
 44
0.0000000001
 40
0.0
 40
0.0
 40
0.0
 40
0.0
 40
0.0636765246
 40
0.1250327799
 40
0.1844692012
 40
0.2424309302
 40
0.2994021132
 40
0.3558948954
 40
0.4124357799
 40
0.4695497615
 40
0.5277449267
 40
0.587499031
 40
0.6492495064
 40
0.7133871169
 40
0.7802559991
 40
0.8501545767
 40
0.9233350066
 40
1.0
 40
1.0
 40
1.0
 40
1.0
 10
9.9917313467
 20
10.9627056121
 30
0.0
 10
9.9907075392
 20
10.9644205495
 30
0.0
 10
9.9888210336
 20
10.9678642371
 30
0.0
 10
9.9864630409
 20
10.9731553964
 30
0.0
 10
9.9846362939
 20
10.9784645082
 30
0.0
 10
9.9833435525
 20
10.983787362
 30
0.0
 10
9.9825865829
 20
10.989119631
 30
0.0
 10
9.9823667718
 20
10.9944564987
 30
0.0
 10
9.9826844276
 20
10.9997928999
 30
0.0
 10
9.9835390276
 20
11.0051238036
 30
0.0
 10
9.9849291689
 20
11.0104444642
 30
0.0
 10
9.9868527807
 20
11.0157506001
 30
0.0
 10
9.9893074508
 20
11.0210383441
 30
0.0
 10
9.9922903778
 20
11.0263043246
 30
0.0
 10
9.9957988947
 20
11.0315453478
 30
0.0
 10
9.9998301087
 20
11.0367585386
 30
0.0
 10
10.0043807592
 20
11.041940513
 30
0.0
 10
10.0076795854
 20
11.0452922229
 30
0.0
 10
10.0094091741
 20
11.0469628774
 30
0.0
  0
SPLINE
  5
391
100
AcDbEntity
  8
0
100
AcDbSpline
 62
7
  6
CONTINUOUS
 70
0
 71
3
 72
85
 73
81
 74
0
 42
0.0000001
 43
0.0000001
 44
0.0000000001
 40
0.0
 40
0.0
 40
0.0
 40
0.0
 40
0.002808
 40
0.0056356854
 40
0.0085022922
 40
0.0114262237
 40
0.0144246988
 40
0.0175135598
 40
0.024014739
 40
0.0274544584
 40
0.0310326265
 40
0.0347576765
 40
0.0386367849
 40
0.0426760087
 40
0.0468804381
 40
0.0512542242
 40
0.0558007794
 40
0.0605227769
 40
0.0654222753
 40
0.0705007986
 40
0.0757593265
 40
0.0811984488
 40
0.0868183048
 40
0.0926186943
 40
0.0985990952
 40
0.1110957845
 40
0.1242990473
 40
0.1381952116
 40
0.1527673415
 40
0.1679956344
 40
0.1838577574
 40
0.2003291181
 40
0.2173830882
 40
0.2349911961
 40
0.2531232881
 40
0.2717476837
 40
0.29083132
 40
0.3103398796
 40
0.3302379102
 40
0.3504889364
 40
0.371055568
 40
0.3918996141
 40
0.4129821883
 40
0.4342638111
 40
0.4557045103
 40
0.4989006445
 40
0.5422455447
 40
0.5854119505
 40
0.6068267168
 40
0.6280751085
 40
0.6491172355
 40
0.6699137162
 40
0.6904257797
 40
0.7106153751
 40
0.7304452753
 40
0.7498791827
 40
0.7688818395
 40
0.7874191422
 40
0.8054582693
 40
0.8229678148
 40
0.8399179225
 40
0.8562804388
 40
0.8720290849
 40
0.8871396568
 40
0.9015902675
 40
0.9153616176
 40
0.928437329
 40
0.9408043683
 40
0.9467193806
 40
0.9524541748
 40
0.9580083025
 40
0.9633817132
 40
0.9685747081
 40
0.973587989
 40
0.9784227379
 40
0.9830806145
 40
0.9875639933
 40
0.9918758833
 40
0.9960198327
 40
1.0
 40
1.0
 40
1.0
 40
1.0
 10
11.5555335112
 20
10.9727972789
 30
0.0
 10
11.5555335193
 20
10.9743164476
 30
0.0
 10
11.5554004862
 20
10.9773670793
 30
0.0
 10
11.5548027113
 20
10.9819333422
 30
0.0
 10
11.5538072278
 20
10.9864940421
 30
0.0
 10
11.55241491
 20
10.9910458793
 30
0.0
 10
11.5506270576
 20
10.9955866826
 30
0.0
 10
11.5476679861
 20
11.0017264308
 30
0.0
 10
11.5439409954
 20
11.007737836
 30
0.0
 10
11.5395519089
 20
11.0135914096
 30
0.0
 10
11.535810516
 20
11.018043239
 30
0.0
 10
11.5316842552
 20
11.0224706889
 30
0.0
 10
11.527174942
 20
11.0268722914
 30
0.0
 10
11.5222849808
 20
11.031245891
 30
0.0
 10
11.5170167425
 20
11.0355894041
 30
0.0
 10
11.5113729246
 20
11.0399008448
 30
0.0
 10
11.5053562783
 20
11.0441780586
 30
0.0
 10
11.4989698256
 20
11.0484190082
 30
0.0
 10
11.492216743
 20
11.0526216174
 30
0.0
 10
11.4851003739
 20
11.056783758
 30
0.0
 10
11.4776243052
 20
11.0609034408
 30
0.0
 10
11.4697922412
 20
11.0649785301
 30
0.0
 10
11.4616081319
 20
11.0690070334
 30
0.0
 10
11.453076062
 20
11.0729869473
 30
0.0
 10
11.4410651595
 20
11.078304007
 30
0.0
 10
11.4251998366
 20
11.0847993223
 30
0.0
 10
11.4051148392
 20
11.0922585883
 30
0.0
 10
11.383753778
 20
11.0994776731
 30
0.0
 10
11.3611596597
 20
11.1064419067
 30
0.0
 10
11.3373777548
 20
11.1131371412
 30
0.0
 10
11.3124559184
 20
11.1195497483
 30
0.0
 10
11.2864443423
 20
11.125666668
 30
0.0
 10
11.2593954764
 20
11.1314754382
 30
0.0
 10
11.231363906
 20
11.1369642205
 30
0.0
 10
11.2024062417
 20
11.1421218363
 30
0.0
 10
11.1725809961
 20
11.1469377872
 30
0.0
 10
11.1419484539
 20
11.1514022688
 30
0.0
 10
11.1105705449
 20
11.1555061932
 30
0.0
 10
11.0785107186
 20
11.1592412055
 30
0.0
 10
11.0458338165
 20
11.1625997026
 30
0.0
 10
11.0126059418
 20
11.1655748572
 30
0.0
 10
10.9788943139
 20
11.1681606226
 30
0.0
 10
10.9447671531
 20
11.1703517308
 30
0.0
 10
10.9102934482
 20
11.1721437619
 30
0.0
 10
10.8638465128
 20
11.1740005104
 30
0.0
 10
10.8054353305
 20
11.1752973144
 30
0.0
 10
10.7352558008
 20
11.1752232975
 30
0.0
 10
10.6768775967
 20
11.1738030747
 30
0.0
 10
10.6304828353
 20
11.1718477893
 30
0.0
 10
10.5960669613
 20
11.1699828993
 30
0.0
 10
10.5620102406
 20
11.1677196838
 30
0.0
 10
10.5283815224
 20
11.1650627058
 30
0.0
 10
10.4952488612
 20
11.1620173732
 30
0.0
 10
10.4626792802
 20
11.1585898806
 30
0.0
 10
10.4307386585
 20
11.1547872049
 30
0.0
 10
10.3994915936
 20
11.1506170838
 30
0.0
 10
10.3690012729
 20
11.1460880034
 30
0.0
 10
10.339329342
 20
11.1412091788
 30
0.0
 10
10.3105357718
 20
11.1359905415
 30
0.0
 10
10.2826787304
 20
11.1304427248
 30
0.0
 10
10.2558144648
 20
11.1245770303
 30
0.0
 10
10.2299971846
 20
11.1184054069
 30
0.0
 10
10.2052789478
 20
11.1119404254
 30
0.0
 10
10.1817095278
 20
11.1051952455
 30
0.0
 10
10.1593363297
 20
11.098183601
 30
0.0
 10
10.1382041444
 20
11.0909197432
 30
0.0
 10
10.1183555082
 20
11.0834184123
 30
0.0
 10
10.1026930691
 20
11.0768887563
 30
0.0
 10
10.0908483328
 20
11.0715454104
 30
0.0
 10
10.0824423012
 20
11.0675476089
 30
0.0
 10
10.0743857552
 20
11.0635019178
 30
0.0
 10
10.0666827015
 20
11.0594103759
 30
0.0
 10
10.0593370008
 20
11.0552750232
 30
0.0
 10
10.0523523504
 20
11.0510978915
 30
0.0
 10
10.045732215
 20
11.0468811477
 30
0.0
 10
10.0394799137
 20
11.0426267738
 30
0.0
 10
10.0335984775
 20
11.0383368704
 30
0.0
 10
10.0280908065
 20
11.0340134103
 30
0.0
 10
10.0229599244
 20
11.029658741
 30
0.0
 10
10.0197282727
 20
11.026677277
 30
0.0
 10
10.0181794815
 20
11.0251812595
 30
0.0
  0
SPLINE
  5
392
100
AcDbEntity
  8
0
100
AcDbSpline
 62
7
  6
CONTINUOUS
 70
0
 71
3
 72
23
 73
19
 74
0
 42
0.0000001
 43
0.0000001
 44
0.0000000001
 40
0.0
 40
0.0
 40
0.0
 40
0.0
 40
0.0433590421
 40
0.0892116809
 40
0.1376139176
 40
0.1886037603
 40
0.2422033223
 40
0.2984218543
 40
0.3572568957
 40
0.4186961429
 40
0.4827186907
 40
0.5492956059
 40
0.6183914427
 40
0.6899641705
 40
0.7639663627
 40
0.8403454001
 40
0.919043795
 40
1.0
 40
1.0
 40
1.0
 40
1.0
 10
11.520553797
 20
10.1989056996
 30
0.0
 10
11.5179893015
 20
10.2010496433
 30
0.0
 10
11.5125846431
 20
10.2053090918
 30
0.0
 10
11.5039308232
 20
10.2114522243
 30
0.0
 10
11.494515767
 20
10.2175193957
 30
0.0
 10
11.484349312
 20
10.2235042341
 30
0.0
 10
11.4734417163
 20
10.2294009072
 30
0.0
 10
11.4618041106
 20
10.2352033112
 30
0.0
 10
11.4494484338
 20
10.2409055349
 30
0.0
 10
11.4363874013
 20
10.2465016802
 30
0.0
 10
11.422634485
 20
10.2519858929
 30
0.0
 10
11.4082039327
 20
10.2573525242
 30
0.0
 10
11.3931106918
 20
10.2625958959
 30
0.0
 10
11.3773704479
 20
10.267710581
 30
0.0
 10
11.3609995663
 20
10.2726911964
 30
0.0
 10
11.3440150725
 20
10.2775325163
 30
0.0
 10
11.3264347133
 20
10.2822294975
 30
0.0
 10
11.3144948734
 20
10.2852198274
 30
0.0
 10
11.3084298731
 20
10.2866917381
 30
0.0
  0
SPLINE
  5
393
100
AcDbEntity
  8
0
100
AcDbSpline
 62
7
  6
CONTINUOUS
 70
0
 71
3
 72
23
 73
19
 74
0
 42
0.0000001
 43
0.0000001
 44
0.0000000001
 40
0.0
 40
0.0
 40
0.0
 40
0.0
 40
0.0416102648
 40
0.0857552539
 40
0.1325600211
 40
0.1821186878
 40
0.2345000124
 40
0.2897505797
 40
0.3478989246
 40
0.408957824
 40
0.472926483
 40
0.5397928128
 40
0.6095340713
 40
0.6821189669
 40
0.7575078957
 40
0.8356541395
 40
0.916504624
 40
1.0
 40
1.0
 40
1.0
 40
1.0
 10
11.4897682542
 20
10.1817605087
 30
0.0
 10
11.4879077711
 20
10.1838504466
 30
0.0
 10
11.483907531
 20
10.1880118707
 30
0.0
 10
11.4773154907
 20
10.1940201084
 30
0.0
 10
11.4699672862
 20
10.1999674389
 30
0.0
 10
11.4618710968
 20
10.2058477927
 30
0.0
 10
11.453035128
 20
10.211655448
 30
0.0
 10
11.4434686578
 20
10.2173845734
 30
0.0
 10
11.4331816513
 20
10.2230292243
 30
0.0
 10
11.4221849282
 20
10.228583488
 30
0.0
 10
11.4104901147
 20
10.2340415328
 30
0.0
 10
11.3981095924
 20
10.2393974696
 30
0.0
 10
11.3850565582
 20
10.2446456424
 30
0.0
 10
11.3713449226
 20
10.2497803464
 30
0.0
 10
11.356989359
 20
10.2547960817
 30
0.0
 10
11.3420052284
 20
10.2596874458
 30
0.0
 10
11.326408652
 20
10.2644490968
 30
0.0
 10
11.3157819024
 20
10.2674856351
 30
0.0
 10
11.3103706879
 20
10.2689832689
 30
0.0
  0
SPLINE
  5
394
100
AcDbEntity
  8
0
100
AcDbSpline
 62
7
  6
CONTINUOUS
 70
0
 71
3
 72
20
 73
16
 74
0
 42
0.0000001
 43
0.0000001
 44
0.0000000001
 40
0.0
 40
0.0
 40
0.0
 40
0.0
 40
0.0474412424
 40
0.0968460401
 40
0.1482428143
 40
0.2016526371
 40
0.2570901889
 40
0.3145638087
 40
0.3740772101
 40
0.4356287427
 40
0.4992130092
 40
0.5648204907
 40
0.7020446328
 40
0.8471662215
 40
1.0
 40
1.0
 40
1.0
 40
1.0
 10
11.4562301402
 20
10.1731578968
 30
0.0
 10
11.4543796106
 20
10.1745873273
 30
0.0
 10
11.4505449046
 20
10.1774320985
 30
0.0
 10
11.4445263706
 20
10.1815774577
 30
0.0
 10
11.438129162
 20
10.1856845474
 30
0.0
 10
11.4313569445
 20
10.1897510293
 30
0.0
 10
11.4242134333
 20
10.1937746374
 30
0.0
 10
11.4167026481
 20
10.1977532051
 30
0.0
 10
11.4088287458
 20
10.2016844275
 30
0.0
 10
11.4005961632
 20
10.2055661745
 30
0.0
 10
11.3920094801
 20
10.2093962495
 30
0.0
 10
11.3799131664
 20
10.2145078835
 30
0.0
 10
11.3639300074
 20
10.2207370164
 30
0.0
 10
11.3436961228
 20
10.2278647711
 30
0.0
 10
11.3297040721
 20
10.2323328884
 30
0.0
 10
11.3224987372
 20
10.2345303766
 30
0.0
  0
SPLINE
  5
395
100
AcDbEntity
  8
0
100
AcDbSpline
 62
7
  6
CONTINUOUS
 70
0
 71
3
 72
71
 73
67
 74
0
 42
0.0000001
 43
0.0000001
 44
0.0000000001
 40
0.0
 40
0.0
 40
0.0
 40
0.0
 40
0.0155842565
 40
0.0311159319
 40
0.0465952524
 40
0.0620238826
 40
0.0774034482
 40
0.0927362827
 40
0.1080251231
 40
0.1232731738
 40
0.1384840558
 40
0.1536617763
 40
0.1688106896
 40
0.1839354527
 40
0.199040978
 40
0.2141323822
 40
0.2292149324
 40
0.2442939901
 40
0.2593749544
 40
0.2744632041
 40
0.2895640403
 40
0.3046826298
 40
0.3198239504
 40
0.3349927394
 40
0.3501934439
 40
0.3654301774
 40
0.3807066784
 40
0.3960262752
 40
0.411391855
 40
0.4268058382
 40
0.4422701586
 40
0.4577862484
 40
0.4733550295
 40
0.4889769098
 40
0.5046517845
 40
0.5203790422
 40
0.5361575755
 40
0.5519857963
 40
0.5678616545
 40
0.5837826618
 40
0.5997459181
 40
0.6157481413
 40
0.6317856992
 40
0.6478546441
 40
0.6639507502
 40
0.6800695513
 40
0.6962063821
 40
0.7123564199
 40
0.7285147268
 40
0.7446762929
 40
0.76083608
 40
0.776989065
 40
0.7931302839
 40
0.8092548753
 40
0.8253581235
 40
0.8414355003
 40
0.8574827053
 40
0.8734957053
 40
0.889470771
 40
0.9054045131
 40
0.921293919
 40
0.9371363621
 40
0.9529297157
 40
0.968672092
 40
0.9843626215
 40
1.0
 40
1.0
 40
1.0
 40
1.0
 10
11.1240145216
 20
6.7391821931
 30
0.0
 10
11.1240145216
 20
6.7287698098
 30
0.0
 10
11.1235049595
 20
6.7079764823
 30
0.0
 10
11.1212047612
 20
6.676917481
 30
0.0
 10
11.1173752522
 20
6.6461136264
 30
0.0
 10
11.1120258165
 20
6.6156403218
 30
0.0
 10
11.1051691024
 20
6.5855705902
 30
0.0
 10
11.0968216456
 20
6.5559770541
 30
0.0
 10
11.0870034515
 20
6.5269310239
 30
0.0
 10
11.0757381253
 20
6.4985025536
 30
0.0
 10
11.0630527669
 20
6.4707601997
 30
0.0
 10
11.0489779121
 20
6.4437708743
 30
0.0
 10
11.0335474536
 20
6.41759968
 30
0.0
 10
11.0167985609
 20
6.3923097523
 30
0.0
 10
10.9987715921
 20
6.3679621055
 30
0.0
 10
10.979509997
 20
6.3446154831
 30
0.0
 10
10.9590602104
 20
6.3223262168
 30
0.0
 10
10.9374715544
 20
6.3011480742
 30
0.0
 10
10.9147961062
 20
6.281132134
 30
0.0
 10
10.8910885674
 20
6.2623266664
 30
0.0
 10
10.8664061315
 20
6.2447770142
 30
0.0
 10
10.8408083439
 20
6.2285254835
 30
0.0
 10
10.8143569572
 20
6.2136112411
 30
0.0
 10
10.787115779
 20
6.2000702229
 30
0.0
 10
10.7591505243
 20
6.1879350316
 30
0.0
 10
10.7305286486
 20
6.1772348651
 30
0.0
 10
10.7013191799
 20
6.167995456
 30
0.0
 10
10.6715925519
 20
6.1602390092
 30
0.0
 10
10.6414204337
 20
6.1539841509
 30
0.0
 10
10.6108755566
 20
6.1492458851
 30
0.0
 10
10.5800315387
 20
6.1460355627
 30
0.0
 10
10.5489627095
 20
6.1443608401
 30
0.0
 10
10.5177439278
 20
6.1442256661
 30
0.0
 10
10.4864504007
 20
6.1456302862
 30
0.0
 10
10.4551575033
 20
6.1485712405
 30
0.0
 10
10.4239405994
 20
6.1530413751
 30
0.0
 10
10.3928748606
 20
6.1590298594
 30
0.0
 10
10.3620350881
 20
6.1665222154
 30
0.0
 10
10.3314955314
 20
6.1755003423
 30
0.0
 10
10.3013297074
 20
6.185942558
 30
0.0
 10
10.2716102284
 20
6.1978236672
 30
0.0
 10
10.2424086277
 20
6.211115019
 30
0.0
 10
10.2137951901
 20
6.2257845765
 30
0.0
 10
10.1858387831
 20
6.2417969935
 30
0.0
 10
10.1586066947
 20
6.2591137009
 30
0.0
 10
10.1321644678
 20
6.2776929911
 30
0.0
 10
10.1065757375
 20
6.2974901139
 30
0.0
 10
10.0819020873
 20
6.3184573975
 30
0.0
 10
10.0582029011
 20
6.3405443607
 30
0.0
 10
10.0355352218
 20
6.3636978339
 30
0.0
 10
10.0139536145
 20
6.3878620858
 30
0.0
 10
9.9935100376
 20
6.4129789572
 30
0.0
 10
9.9742537143
 20
6.4389879966
 30
0.0
 10
9.9562310034
 20
6.4658265989
 30
0.0
 10
9.9394853026
 20
6.4934301676
 30
0.0
 10
9.9240569431
 20
6.5217322668
 30
0.0
 10
9.9099830931
 20
6.5506647807
 30
0.0
 10
9.897297669
 20
6.5801580752
 30
0.0
 10
9.8860312553
 20
6.6101411644
 30
0.0
 10
9.8762110233
 20
6.6405418818
 30
0.0
 10
9.8678606712
 20
6.6712870338
 30
0.0
 10
9.8610003174
 20
6.7023026466
 30
0.0
 10
9.8556466245
 20
6.7335139086
 30
0.0
 10
9.8518123857
 20
6.7648461007
 30
0.0
 10
9.8495071326
 20
6.7962225828
 30
0.0
 10
9.8489923554
 20
6.8171574047
 30
0.0
 10
9.8489923554
 20
6.8276052807
 30
0.0
  0
SPLINE
  5
396
100
AcDbEntity
  8
0
100
AcDbSpline
 62
7
  6
CONTINUOUS
 70
0
 71
3
 72
15
 73
11
 74
0
 42
0.0000001
 43
0.0000001
 44
0.0000000001
 40
0.0
 40
0.0
 40
0.0
 40
0.0
 40
0.1268806814
 40
0.2531617447
 40
0.3788623298
 40
0.5040097043
 40
0.6286432061
 40
0.7528123112
 40
0.8765746589
 40
1.0
 40
1.0
 40
1.0
 40
1.0
 10
10.1916522932
 20
7.0690893839
 30
0.0
 10
10.1916522932
 20
7.0816483052
 30
0.0
 10
10.1925095758
 20
7.1067155518
 30
0.0
 10
10.1963831579
 20
7.144044514
 30
0.0
 10
10.2028233388
 20
7.1808453017
 30
0.0
 10
10.2118003614
 20
7.2169427584
 30
0.0
 10
10.2232722248
 20
7.2521675073
 30
0.0
 10
10.2371856828
 20
7.2863541563
 30
0.0
 10
10.2534741381
 20
7.3193399136
 30
0.0
 10
10.2658836035
 20
7.3404562571
 30
0.0
 10
10.2724538063
 20
7.3507560234
 30
0.0
  0
SPLINE
  5
397
100
AcDbEntity
  8
0
100
AcDbSpline
 62
7
  6
CONTINUOUS
 70
0
 71
3
 72
15
 73
11
 74
0
 42
0.0000001
 43
0.0000001
 44
0.0000000001
 40
0.0
 40
0.0
 40
0.0
 40
0.0
 40
0.1235294956
 40
0.2474064874
 40
0.3716749908
 40
0.4963733185
 40
0.6215332906
 40
0.7471803662
 40
0.8733318754
 40
1.0
 40
1.0
 40
1.0
 40
1.0
 10
10.2171949703
 20
7.3279293763
 30
0.0
 10
10.2119535641
 20
7.3180373552
 30
0.0
 10
10.2020734441
 20
7.2978912929
 30
0.0
 10
10.1891427322
 20
7.2667669771
 30
0.0
 10
10.178124609
 20
7.2348020573
 30
0.0
 10
10.169058201
 20
7.2021096561
 30
0.0
 10
10.1619747356
 20
7.1688035792
 30
0.0
 10
10.1568988614
 20
7.1349997998
 30
0.0
 10
10.1538480135
 20
7.1008177299
 30
0.0
 10
10.1531725455
 20
7.0779000763
 30
0.0
 10
10.1531725455
 20
7.0664207996
 30
0.0
  0
SPLINE
  5
398
100
AcDbEntity
  8
0
100
AcDbSpline
 62
4
  6
CONTINUOUS
 70
0
 71
3
 72
313
 73
309
 74
0
 42
0.0000001
 43
0.0000001
 44
0.0000000001
 40
0.0
 40
0.0
 40
0.0
 40
0.0
 40
0.015625
 40
0.0234375
 40
0.03125
 40
0.0390625
 40
0.046875
 40
0.05078125
 40
0.0546875
 40
0.056640625
 40
0.05859375
 40
0.060546875
 40
0.0615234375
 40
0.0620117188
 40
0.0625
 40
0.0629882812
 40
0.0634765625
 40
0.064453125
 40
0.06640625
 40
0.068359375
 40
0.0703125
 40
0.07421875
 40
0.078125
 40
0.0859375
 40
0.09375
 40
0.1015625
 40
0.109375
 40
0.11328125
 40
0.1171875
 40
0.119140625
 40
0.12109375
 40
0.123046875
 40
0.1240234375
 40
0.1245117188
 40
0.125
 40
0.1254882812
 40
0.1259765625
 40
0.126953125
 40
0.12890625
 40
0.130859375
 40
0.1328125
 40
0.13671875
 40
0.140625
 40
0.1484375
 40
0.15625
 40
0.1640625
 40
0.171875
 40
0.17578125
 40
0.1796875
 40
0.181640625
 40
0.18359375
 40
0.185546875
 40
0.1865234375
 40
0.1870117188
 40
0.1875
 40
0.1879882812
 40
0.1884765625
 40
0.189453125
 40
0.19140625
 40
0.193359375
 40
0.1953125
 40
0.19921875
 40
0.203125
 40
0.2109375
 40
0.21875
 40
0.2265625
 40
0.234375
 40
0.23828125
 40
0.2421875
 40
0.244140625
 40
0.24609375
 40
0.248046875
 40
0.2490234375
 40
0.2495117188
 40
0.25
 40
0.2504882812
 40
0.2509765625
 40
0.251953125
 40
0.25390625
 40
0.255859375
 40
0.2578125
 40
0.26171875
 40
0.265625
 40
0.2734375
 40
0.28125
 40
0.2890625
 40
0.296875
 40
0.30078125
 40
0.3046875
 40
0.306640625
 40
0.30859375
 40
0.310546875
 40
0.3115234375
 40
0.3120117188
 40
0.3125
 40
0.3129882812
 40
0.3134765625
 40
0.314453125
 40
0.31640625
 40
0.318359375
 40
0.3203125
 40
0.32421875
 40
0.328125
 40
0.3359375
 40
0.34375
 40
0.3515625
 40
0.359375
 40
0.36328125
 40
0.3671875
 40
0.369140625
 40
0.37109375
 40
0.373046875
 40
0.3740234375
 40
0.3745117188
 40
0.375
 40
0.3754882812
 40
0.3759765625
 40
0.376953125
 40
0.37890625
 40
0.380859375
 40
0.3828125
 40
0.38671875
 40
0.390625
 40
0.3984375
 40
0.40625
 40
0.4140625
 40
0.421875
 40
0.42578125
 40
0.4296875
 40
0.431640625
 40
0.43359375
 40
0.435546875
 40
0.4365234375
 40
0.4370117188
 40
0.4375
 40
0.4379882812
 40
0.4384765625
 40
0.439453125
 40
0.44140625
 40
0.443359375
 40
0.4453125
 40
0.44921875
 40
0.453125
 40
0.4609375
 40
0.46875
 40
0.4765625
 40
0.484375
 40
0.48828125
 40
0.4921875
 40
0.494140625
 40
0.49609375
 40
0.498046875
 40
0.4990234375
 40
0.4995117188
 40
0.5
 40
0.5004882812
 40
0.5009765625
 40
0.501953125
 40
0.50390625
 40
0.505859375
 40
0.5078125
 40
0.51171875
 40
0.515625
 40
0.5234375
 40
0.53125
 40
0.5390625
 40
0.546875
 40
0.55078125
 40
0.5546875
 40
0.556640625
 40
0.55859375
 40
0.560546875
 40
0.5615234375
 40
0.5620117188
 40
0.5625
 40
0.5629882812
 40
0.5634765625
 40
0.564453125
 40
0.56640625
 40
0.568359375
 40
0.5703125
 40
0.57421875
 40
0.578125
 40
0.5859375
 40
0.59375
 40
0.6015625
 40
0.609375
 40
0.61328125
 40
0.6171875
 40
0.619140625
 40
0.62109375
 40
0.623046875
 40
0.6240234375
 40
0.6245117188
 40
0.625
 40
0.6254882812
 40
0.6259765625
 40
0.626953125
 40
0.62890625
 40
0.630859375
 40
0.6328125
 40
0.63671875
 40
0.640625
 40
0.6484375
 40
0.65625
 40
0.6640625
 40
0.671875
 40
0.67578125
 40
0.6796875
 40
0.681640625
 40
0.68359375
 40
0.685546875
 40
0.6865234375
 40
0.6870117188
 40
0.6875
 40
0.6879882812
 40
0.6884765625
 40
0.689453125
 40
0.69140625
 40
0.693359375
 40
0.6953125
 40
0.69921875
 40
0.703125
 40
0.7109375
 40
0.71875
 40
0.7265625
 40
0.734375
 40
0.73828125
 40
0.7421875
 40
0.744140625
 40
0.74609375
 40
0.748046875
 40
0.7490234375
 40
0.7495117188
 40
0.75
 40
0.7504882812
 40
0.7509765625
 40
0.751953125
 40
0.75390625
 40
0.755859375
 40
0.7578125
 40
0.76171875
 40
0.765625
 40
0.7734375
 40
0.78125
 40
0.7890625
 40
0.796875
 40
0.80078125
 40
0.8046875
 40
0.806640625
 40
0.80859375
 40
0.810546875
 40
0.8115234375
 40
0.8120117188
 40
0.8125
 40
0.8129882812
 40
0.8134765625
 40
0.814453125
 40
0.81640625
 40
0.818359375
 40
0.8203125
 40
0.82421875
 40
0.828125
 40
0.8359375
 40
0.84375
 40
0.8515625
 40
0.859375
 40
0.86328125
 40
0.8671875
 40
0.869140625
 40
0.87109375
 40
0.873046875
 40
0.8740234375
 40
0.8745117188
 40
0.875
 40
0.8754882812
 40
0.8759765625
 40
0.876953125
 40
0.87890625
 40
0.880859375
 40
0.8828125
 40
0.88671875
 40
0.890625
 40
0.8984375
 40
0.90625
 40
0.9140625
 40
0.921875
 40
0.92578125
 40
0.9296875
 40
0.931640625
 40
0.93359375
 40
0.935546875
 40
0.9365234375
 40
0.9370117188
 40
0.9375
 40
0.9379882812
 40
0.9384765625
 40
0.939453125
 40
0.94140625
 40
0.943359375
 40
0.9453125
 40
0.94921875
 40
0.953125
 40
0.9609375
 40
0.96875
 40
0.9765625
 40
0.984375
 40
1.0
 40
1.0
 40
1.0
 40
1.0
 10
10.0486616153
 20
8.567456095
 30
0.0
 10
10.0514758551
 20
8.5675368654
 30
0.0
 10
10.0556972149
 20
8.5676580209
 30
0.0
 10
10.0613256944
 20
8.5678195623
 30
0.0
 10
10.0655470544
 20
8.5679407162
 30
0.0
 10
10.0697684128
 20
8.5680618785
 30
0.0
 10
10.0732862167
 20
8.5681628207
 30
0.0
 10
10.0761004482
 20
8.5682436337
 30
0.0
 10
10.0778593692
 20
8.5682940069
 30
0.0
 10
10.0792664457
 20
8.5683346144
 30
0.0
 10
10.0803219183
 20
8.5683642242
 30
0.0
 10
10.0812009532
 20
8.5683915899
 30
0.0
 10
10.0818173091
 20
8.568405465
 30
0.0
 10
10.0821679019
 20
8.5684216393
 30
0.0
 10
10.0824353834
 20
8.568410542
 30
0.0
 10
10.0826855224
 20
8.5684882338
 30
0.0
 10
10.0830250904
 20
8.5685608523
 30
0.0
 10
10.0836165158
 20
8.5687023643
 30
0.0
 10
10.0844628828
 20
8.5688969804
 30
0.0
 10
10.0854778925
 20
8.5691337487
 30
0.0
 10
10.0868314591
 20
8.569448312
 30
0.0
 10
10.0885233419
 20
8.5698419023
 30
0.0
 10
10.0912303965
 20
8.5704714308
 30
0.0
 10
10.0946142001
 20
8.5712584161
 30
0.0
 10
10.0986747716
 20
8.5722027644
 30
0.0
 10
10.1027353381
 20
8.5731471294
 30
0.0
 10
10.106119154
 20
8.5739340729
 30
0.0
 10
10.108826184
 20
8.5745636848
 30
0.0
 10
10.1105181294
 20
8.5749570632
 30
0.0
 10
10.1118715674
 20
8.5752720614
 30
0.0
 10
10.11288697
 20
8.5755075011
 30
0.0
 10
10.1137321077
 20
8.5757062742
 30
0.0
 10
10.1143257277
 20
8.5758403653
 30
0.0
 10
10.1146617794
 20
8.575924874
 30
0.0
 10
10.1149227192
 20
8.5759660426
 30
0.0
 10
10.1151496345
 20
8.5760921205
 30
0.0
 10
10.1154640564
 20
8.5762306071
 30
0.0
 10
10.1160087651
 20
8.5764867579
 30
0.0
 10
10.1167898114
 20
8.5768454733
 30
0.0
 10
10.1177258295
 20
8.5772790197
 30
0.0
 10
10.1189742857
 20
8.5778560029
 30
0.0
 10
10.1205347081
 20
8.5785776013
 30
0.0
 10
10.1230314667
 20
8.5797319523
 30
0.0
 10
10.1261523862
 20
8.5811749623
 30
0.0
 10
10.129897503
 20
8.5829065418
 30
0.0
 10
10.1336426124
 20
8.5846381374
 30
0.0
 10
10.1367635506
 20
8.5860811071
 30
0.0
 10
10.1392602718
 20
8.5872355387
 30
0.0
 10
10.1408207889
 20
8.5879569321
 30
0.0
 10
10.1420690508
 20
8.5885343362
 30
0.0
 10
10.1430056628
 20
8.5889665969
 30
0.0
 10
10.1437848509
 20
8.5893293348
 30
0.0
 10
10.1443328767
 20
8.5895783047
 30
0.0
 10
10.1446419839
 20
8.5897282969
 30
0.0
 10
10.1448852242
 20
8.5898190333
 30
0.0
 10
10.14508485
 20
8.589992939
 30
0.0
 10
10.1453662309
 20
8.5901958029
 30
0.0
 10
10.1458515594
 20
8.5905643313
 30
0.0
 10
10.1465485916
 20
8.5910837338
 30
0.0
 10
10.147383444
 20
8.5917100414
 30
0.0
 10
10.1484971346
 20
8.5925440619
 30
0.0
 10
10.1498890582
 20
8.5935869492
 30
0.0
 10
10.1521162419
 20
8.5952553667
 30
0.0
 10
10.1549001849
 20
8.5973409583
 30
0.0
 10
10.1582409338
 20
8.5998436368
 30
0.0
 10
10.1615816719
 20
8.6023463293
 30
0.0
 10
10.164365642
 20
8.6044318857
 30
0.0
 10
10.1665927713
 20
8.6061003736
 30
0.0
 10
10.1679848334
 20
8.607143082
 30
0.0
 10
10.1690982397
 20
8.6079774696
 30
0.0
 10
10.1699339607
 20
8.6086026558
 30
0.0
 10
10.1706282752
 20
8.6091255671
 30
0.0
 10
10.1711184553
 20
8.6094878315
 30
0.0
 10
10.1713920628
 20
8.6097007318
 30
0.0
 10
10.171615566
 20
8.6098438091
 30
0.0
 10
10.1717691265
 20
8.6100503322
 30
0.0
 10
10.1719982706
 20
8.6103035657
 30
0.0
 10
10.1723879058
 20
8.6107570354
 30
0.0
 10
10.1729504703
 20
8.6113994585
 30
0.0
 10
10.1736230041
 20
8.6121726736
 30
0.0
 10
10.1745206042
 20
8.6132028212
 30
0.0
 10
10.1756423001
 20
8.6144907816
 30
0.0
 10
10.1774371837
 20
8.616551364
 30
0.0
 10
10.1796807293
 20
8.6191271453
 30
0.0
 10
10.1823730111
 20
8.6222180586
 30
0.0
 10
10.185065279
 20
8.6253089834
 30
0.0
 10
10.1873088593
 20
8.6278847362
 30
0.0
 10
10.1891036737
 20
8.6299453754
 30
0.0
 10
10.1902255454
 20
8.6312331916
 30
0.0
 10
10.1911227846
 20
8.6322636353
 30
0.0
 10
10.1917964209
 20
8.6330359458
 30
0.0
 10
10.1923555358
 20
8.6336811992
 30
0.0
 10
10.1927513292
 20
8.6341296163
 30
0.0
 10
10.1929706064
 20
8.6343909452
 30
0.0
 10
10.1931544747
 20
8.6345726018
 30
0.0
 10
10.1932641469
 20
8.6348090737
 30
0.0
 10
10.193436257
 20
8.6351052494
 30
0.0
 10
10.1937253914
 20
8.6356324652
 30
0.0
 10
10.1941447448
 20
8.6363809733
 30
0.0
 10
10.1946452705
 20
8.6372811766
 30
0.0
 10
10.1953135805
 20
8.6384807513
 30
0.0
 10
10.1961486454
 20
8.639980458
 30
0.0
 10
10.1974849295
 20
8.6423798556
 30
0.0
 10
10.1991552224
 20
8.6453791485
 30
0.0
 10
10.2011596025
 20
8.6489782794
 30
0.0
 10
10.2031639676
 20
8.6525774193
 30
0.0
 10
10.204834298
 20
8.6555766895
 30
0.0
 10
10.206170507
 20
8.6579761326
 30
0.0
 10
10.2070057629
 20
8.6594757237
 30
0.0
 10
10.2076736808
 20
8.6606755358
 30
0.0
 10
10.2081754045
 20
8.6615750136
 30
0.0
 10
10.2085910095
 20
8.6623257915
 30
0.0
 10
10.2088868355
 20
8.6628489553
 30
0.0
 10
10.2090482239
 20
8.6631516235
 30
0.0
 10
10.2091908297
 20
8.6633681526
 30
0.0
 10
10.209251005
 20
8.6636247108
 30
0.0
 10
10.2093599914
 20
8.6639528259
 30
0.0
 10
10.2095373213
 20
8.6645335327
 30
0.0
 10
10.2097976533
 20
8.6653597127
 30
0.0
 10
10.210107054
 20
8.6663525845
 30
0.0
 10
10.2105206353
 20
8.667675905
 30
0.0
 10
10.2110372534
 20
8.6693302298
 30
0.0
 10
10.2118640428
 20
8.6719770522
 30
0.0
 10
10.2128974603
 20
8.6752856137
 30
0.0
 10
10.2141375931
 20
8.6792558724
 30
0.0
 10
10.2153777095
 20
8.683226138
 30
0.0
 10
10.2164111678
 20
8.6865346823
 30
0.0
 10
10.2172378756
 20
8.6891815392
 30
0.0
 10
10.217754701
 20
8.6908357762
 30
0.0
 10
10.2181678568
 20
8.6921592769
 30
0.0
 10
10.2184785574
 20
8.6931515985
 30
0.0
 10
10.2187348224
 20
8.6939794999
 30
0.0
 10
10.2189194127
 20
8.6945571336
 30
0.0
 10
10.219016766
 20
8.6948901725
 30
0.0
 10
10.2191126745
 20
8.6951316064
 30
0.0
 10
10.2191210721
 20
8.6954049399
 30
0.0
 10
10.2191627936
 20
8.6957582577
 30
0.0
 10
10.2192215843
 20
8.6963817481
 30
0.0
 10
10.2193130064
 20
8.6972697382
 30
0.0
 10
10.2194195303
 20
8.6983364865
 30
0.0
 10
10.2195626737
 20
8.6997584124
 30
0.0
 10
10.2197412224
 20
8.7015359584
 30
0.0
 10
10.2200271132
 20
8.7043799546
 30
0.0
 10
10.2203844031
 20
8.7079349764
 30
0.0
 10
10.2208131847
 20
8.7122009912
 30
0.0
 10
10.2212419492
 20
8.7164670088
 30
0.0
 10
10.2215992819
 20
8.7200220234
 30
0.0
 10
10.221885087
 20
8.722866034
 30
0.0
 10
10.2220638534
 20
8.7246435433
 30
0.0
 10
10.2222065502
 20
8.7260655447
 30
0.0
 10
10.2223144387
 20
8.7271320621
 30
0.0
 10
10.2224015912
 20
8.7280207745
 30
0.0
 10
10.2224680037
 20
8.7286429755
 30
0.0
 10
10.2224975131
 20
8.7289983592
 30
0.0
 10
10.2225434227
 20
8.729265347
 30
0.0
 10
10.2224984421
 20
8.7295306143
 30
0.0
 10
10.2224701716
 20
8.7298849041
 30
0.0
 10
10.2224059269
 20
8.7305046316
 30
0.0
 10
10.2223218713
 20
8.7313901029
 30
0.0
 10
10.2222176991
 20
8.7324526058
 30
0.0
 10
10.2220799573
 20
8.7338692982
 30
0.0
 10
10.2219073848
 20
8.7356401562
 30
0.0
 10
10.2216314898
 20
8.7384735333
 30
0.0
 10
10.2212865447
 20
8.7420152531
 30
0.0
 10
10.2208726454
 20
8.7462653178
 30
0.0
 10
10.220458729
 20
8.7505153812
 30
0.0
 10
10.2201138268
 20
8.7540571042
 30
0.0
 10
10.2198378461
 20
8.756890475
 30
0.0
 10
10.2196654913
 20
8.7586613489
 30
0.0
 10
10.2195273027
 20
8.7600780088
 30
0.0
 10
10.2194244957
 20
8.761140611
 30
0.0
 10
10.2193361687
 20
8.7620257714
 30
0.0
 10
10.2192795491
 20
8.7626460539
 30
0.0
 10
10.2192390612
 20
8.7629994546
 30
0.0
 10
10.2192316085
 20
8.763267453
 30
0.0
 10
10.2191365695
 20
8.7635241829
 30
0.0
 10
10.219040402
 20
8.7638704201
 30
0.0
 10
10.2188578744
 20
8.7644745039
 30
0.0
 10
10.2186045626
 20
8.7653384382
 30
0.0
 10
10.2182974031
 20
8.7663747494
 30
0.0
 10
10.2178889697
 20
8.767756641
 30
0.0
 10
10.2173780469
 20
8.7694839564
 30
0.0
 10
10.2165607835
 20
8.7722476884
 30
0.0
 10
10.2155391307
 20
8.7757023439
 30
0.0
 10
10.2143131808
 20
8.7798479352
 30
0.0
 10
10.2130872145
 20
8.7839935228
 30
0.0
 10
10.2120656026
 20
8.7874481878
 30
0.0
 10
10.2112482575
 20
8.7902119008
 30
0.0
 10
10.2107375423
 20
8.7919392645
 30
0.0
 10
10.2103286828
 20
8.7933210569
 30
0.0
 10
10.2100228247
 20
8.7943576709
 30
0.0
 10
10.2097654412
 20
8.7952206581
 30
0.0
 10
10.2095901824
 20
8.7958264324
 30
0.0
 10
10.2094823684
 20
8.796169961
 30
0.0
 10
10.2094231036
 20
8.7964350109
 30
0.0
 10
10.209281289
 20
8.7966717611
 30
0.0
 10
10.2091209972
 20
8.7969972992
 30
0.0
 10
10.2088270707
 20
8.7975623918
 30
0.0
 10
10.2084141896
 20
8.7983720715
 30
0.0
 10
10.2079157301
 20
8.7993426578
 30
0.0
 10
10.2072521661
 20
8.8006371324
 30
0.0
 10
10.2064223521
 20
8.8022551026
 30
0.0
 10
10.2050948503
 20
8.8048439237
 30
0.0
 10
10.2034354038
 20
8.8080799263
 30
0.0
 10
10.2014440996
 20
8.8119631405
 30
0.0
 10
10.1994527797
 20
8.8158463483
 30
0.0
 10
10.1977933723
 20
8.8190823668
 30
0.0
 10
10.1964657924
 20
8.8216711561
 30
0.0
 10
10.1956361768
 20
8.8232892072
 30
0.0
 10
10.1949722055
 20
8.8245835157
 30
0.0
 10
10.1944749905
 20
8.8255546096
 30
0.0
 10
10.1940582157
 20
8.8263627012
 30
0.0
 10
10.1937712401
 20
8.8269306287
 30
0.0
 10
10.1935998112
 20
8.8272516246
 30
0.0
 10
10.1934922061
 20
8.8275023273
 30
0.0
 10
10.1933044563
 20
8.8277149736
 30
0.0
 10
10.1930820785
 20
8.8280117765
 30
0.0
 10
10.1926798925
 20
8.8285249967
 30
0.0
 10
10.1921121507
 20
8.8292614019
 30
0.0
 10
10.1914279458
 20
8.8301437041
 30
0.0
 10
10.1905166906
 20
8.8313205905
 30
0.0
 10
10.1893772731
 20
8.8327915329
 30
0.0
 10
10.1875543999
 20
8.8351451334
 30
0.0
 10
10.1852757412
 20
8.8380871018
 30
0.0
 10
10.182541381
 20
8.8416174793
 30
0.0
 10
10.1798070075
 20
8.8451478468
 30
0.0
 10
10.1775283821
 20
8.8480898402
 30
0.0
 10
10.1757054423
 20
8.8504433907
 30
0.0
 10
10.174566194
 20
8.8519144599
 30
0.0
 10
10.1736545915
 20
8.8530910861
 30
0.0
 10
10.1729714478
 20
8.8539741833
 30
0.0
 10
10.1724003856
 20
8.8547081011
 30
0.0
 10
10.1720041271
 20
8.8552257618
 30
0.0
 10
10.171772252
 20
8.8555154499
 30
0.0
 10
10.1716136748
 20
8.8557499505
 30
0.0
 10
10.1713965023
 20
8.8559185719
 30
0.0
 10
10.1711273776
 20
8.8561663799
 30
0.0
 10
10.1706468866
 20
8.8565893373
 30
0.0
 10
10.1699654495
 20
8.8571991596
 30
0.0
 10
10.169145594
 20
8.8579285505
 30
0.0
 10
10.1680531976
 20
8.8589019086
 30
0.0
 10
10.1666874473
 20
8.8601183196
 30
0.0
 10
10.1645023893
 20
8.8620647374
 30
0.0
 10
10.1617710176
 20
8.8644977044
 30
0.0
 10
10.1584933939
 20
8.8674172901
 30
0.0
 10
10.1552157597
 20
8.8703368628
 30
0.0
 10
10.152484414
 20
8.8727698625
 30
0.0
 10
10.1502993041
 20
8.8747162147
 30
0.0
 10
10.1489336858
 20
8.8759327924
 30
0.0
 10
10.1478410184
 20
8.8769058084
 30
0.0
 10
10.1470219911
 20
8.8776362444
 30
0.0
 10
10.1463379629
 20
8.8782427969
 30
0.0
 10
10.1458620974
 20
8.8786715916
 30
0.0
 10
10.1455855615
 20
8.8789100467
 30
0.0
 10
10.1453911537
 20
8.8791073971
 30
0.0
 10
10.145147076
 20
8.8792339962
 30
0.0
 10
10.1448389645
 20
8.8794274739
 30
0.0
 10
10.144291697
 20
8.8797545615
 30
0.0
 10
10.1435141067
 20
8.8802278409
 30
0.0
 10
10.1425791919
 20
8.8807932032
 30
0.0
 10
10.1413332697
 20
8.8815479182
 30
0.0
 10
10.139775651
 20
8.8824910043
 30
0.0
 10
10.1372835818
 20
8.884000114
 30
0.0
 10
10.1341684537
 20
8.8858864417
 30
0.0
 10
10.1304303186
 20
8.8881500624
 30
0.0
 10
10.1266921755
 20
8.8904136686
 30
0.0
 10
10.1235770675
 20
8.8923000325
 30
0.0
 10
10.121084958
 20
8.8938090699
 30
0.0
 10
10.1195274417
 20
8.8947523399
 30
0.0
 10
10.1182813093
 20
8.8955066774
 30
0.0
 10
10.1173470369
 20
8.8960731931
 30
0.0
 10
10.1165674366
 20
8.8965428635
 30
0.0
 10
10.1160237572
 20
8.8968763939
 30
0.0
 10
10.1157098968
 20
8.8970595486
 30
0.0
 10
10.1154834779
 20
8.8972178566
 30
0.0
 10
10.1152227465
 20
8.8972961136
 30
0.0
 10
10.1148870732
 20
8.8974283791
 30
0.0
 10
10.1142940685
 20
8.8976468339
 30
0.0
 10
10.1134498345
 20
8.8979657138
 30
0.0
 10
10.1124355057
 20
8.8983454584
 30
0.0
 10
10.1110835031
 20
8.8988528014
 30
0.0
 10
10.1093933507
 20
8.899486632
 30
0.0
 10
10.1066891903
 20
8.9005009555
 30
0.0
 10
10.1033089611
 20
8.9017687927
 30
0.0
 10
10.0992526989
 20
8.9032902282
 30
0.0
 10
10.0951964309
 20
8.9048116478
 30
0.0
 10
10.0918162161
 20
8.9060795248
 30
0.0
 10
10.0891120268
 20
8.9070937688
 30
0.0
 10
10.0874219478
 20
8.9077278016
 30
0.0
 10
10.0860697947
 20
8.9082347295
 30
0.0
 10
10.0850559259
 20
8.9086157422
 30
0.0
 10
10.0842102524
 20
8.9089306548
 30
0.0
 10
10.0836198173
 20
8.9091561919
 30
0.0
 10
10.083280027
 20
8.9092771097
 30
0.0
 10
10.0830319418
 20
8.909390223
 30
0.0
 10
10.0827580258
 20
8.9094176167
 30
0.0
 10
10.0824018144
 20
8.9094840416
 30
0.0
 10
10.0817742466
 20
8.9095863542
 30
0.0
 10
10.080879916
 20
8.9097397984
 30
0.0
 10
10.0798057797
 20
8.9099208139
 30
0.0
 10
10.0783739262
 20
8.9101632567
 30
0.0
 10
10.076583997
 20
8.9104659374
 30
0.0
 10
10.073720173
 20
8.910950435
 30
0.0
 10
10.0701403714
 20
8.9115559855
 30
0.0
 10
10.0658446188
 20
8.9122826766
 30
0.0
 10
10.0615488637
 20
8.9130093596
 30
0.0
 10
10.0558211911
 20
8.9139782731
 30
0.0
 10
10.0515254365
 20
8.9147049576
 30
0.0
 10
10.0486616001
 20
8.9151894141
 30
0.0
  0
SPLINE
  5
399
100
AcDbEntity
  8
0
100
AcDbSpline
 62
4
  6
CONTINUOUS
 70
0
 71
3
 72
313
 73
309
 74
0
 42
0.0000001
 43
0.0000001
 44
0.0000000001
 40
0.0
 40
0.0
 40
0.0
 40
0.0
 40
0.015625
 40
0.0234375
 40
0.03125
 40
0.0390625
 40
0.046875
 40
0.05078125
 40
0.0546875
 40
0.056640625
 40
0.05859375
 40
0.060546875
 40
0.0615234375
 40
0.0620117188
 40
0.0625
 40
0.0629882812
 40
0.0634765625
 40
0.064453125
 40
0.06640625
 40
0.068359375
 40
0.0703125
 40
0.07421875
 40
0.078125
 40
0.0859375
 40
0.09375
 40
0.1015625
 40
0.109375
 40
0.11328125
 40
0.1171875
 40
0.119140625
 40
0.12109375
 40
0.123046875
 40
0.1240234375
 40
0.1245117188
 40
0.125
 40
0.1254882812
 40
0.1259765625
 40
0.126953125
 40
0.12890625
 40
0.130859375
 40
0.1328125
 40
0.13671875
 40
0.140625
 40
0.1484375
 40
0.15625
 40
0.1640625
 40
0.171875
 40
0.17578125
 40
0.1796875
 40
0.181640625
 40
0.18359375
 40
0.185546875
 40
0.1865234375
 40
0.1870117188
 40
0.1875
 40
0.1879882812
 40
0.1884765625
 40
0.189453125
 40
0.19140625
 40
0.193359375
 40
0.1953125
 40
0.19921875
 40
0.203125
 40
0.2109375
 40
0.21875
 40
0.2265625
 40
0.234375
 40
0.23828125
 40
0.2421875
 40
0.244140625
 40
0.24609375
 40
0.248046875
 40
0.2490234375
 40
0.2495117188
 40
0.25
 40
0.2504882812
 40
0.2509765625
 40
0.251953125
 40
0.25390625
 40
0.255859375
 40
0.2578125
 40
0.26171875
 40
0.265625
 40
0.2734375
 40
0.28125
 40
0.2890625
 40
0.296875
 40
0.30078125
 40
0.3046875
 40
0.306640625
 40
0.30859375
 40
0.310546875
 40
0.3115234375
 40
0.3120117188
 40
0.3125
 40
0.3129882812
 40
0.3134765625
 40
0.314453125
 40
0.31640625
 40
0.318359375
 40
0.3203125
 40
0.32421875
 40
0.328125
 40
0.3359375
 40
0.34375
 40
0.3515625
 40
0.359375
 40
0.36328125
 40
0.3671875
 40
0.369140625
 40
0.37109375
 40
0.373046875
 40
0.3740234375
 40
0.3745117188
 40
0.375
 40
0.3754882812
 40
0.3759765625
 40
0.376953125
 40
0.37890625
 40
0.380859375
 40
0.3828125
 40
0.38671875
 40
0.390625
 40
0.3984375
 40
0.40625
 40
0.4140625
 40
0.421875
 40
0.42578125
 40
0.4296875
 40
0.431640625
 40
0.43359375
 40
0.435546875
 40
0.4365234375
 40
0.4370117188
 40
0.4375
 40
0.4379882812
 40
0.4384765625
 40
0.439453125
 40
0.44140625
 40
0.443359375
 40
0.4453125
 40
0.44921875
 40
0.453125
 40
0.4609375
 40
0.46875
 40
0.4765625
 40
0.484375
 40
0.48828125
 40
0.4921875
 40
0.494140625
 40
0.49609375
 40
0.498046875
 40
0.4990234375
 40
0.4995117188
 40
0.5
 40
0.5004882812
 40
0.5009765625
 40
0.501953125
 40
0.50390625
 40
0.505859375
 40
0.5078125
 40
0.51171875
 40
0.515625
 40
0.5234375
 40
0.53125
 40
0.5390625
 40
0.546875
 40
0.55078125
 40
0.5546875
 40
0.556640625
 40
0.55859375
 40
0.560546875
 40
0.5615234375
 40
0.5620117188
 40
0.5625
 40
0.5629882812
 40
0.5634765625
 40
0.564453125
 40
0.56640625
 40
0.568359375
 40
0.5703125
 40
0.57421875
 40
0.578125
 40
0.5859375
 40
0.59375
 40
0.6015625
 40
0.609375
 40
0.61328125
 40
0.6171875
 40
0.619140625
 40
0.62109375
 40
0.623046875
 40
0.6240234375
 40
0.6245117188
 40
0.625
 40
0.6254882812
 40
0.6259765625
 40
0.626953125
 40
0.62890625
 40
0.630859375
 40
0.6328125
 40
0.63671875
 40
0.640625
 40
0.6484375
 40
0.65625
 40
0.6640625
 40
0.671875
 40
0.67578125
 40
0.6796875
 40
0.681640625
 40
0.68359375
 40
0.685546875
 40
0.6865234375
 40
0.6870117188
 40
0.6875
 40
0.6879882812
 40
0.6884765625
 40
0.689453125
 40
0.69140625
 40
0.693359375
 40
0.6953125
 40
0.69921875
 40
0.703125
 40
0.7109375
 40
0.71875
 40
0.7265625
 40
0.734375
 40
0.73828125
 40
0.7421875
 40
0.744140625
 40
0.74609375
 40
0.748046875
 40
0.7490234375
 40
0.7495117188
 40
0.75
 40
0.7504882812
 40
0.7509765625
 40
0.751953125
 40
0.75390625
 40
0.755859375
 40
0.7578125
 40
0.76171875
 40
0.765625
 40
0.7734375
 40
0.78125
 40
0.7890625
 40
0.796875
 40
0.80078125
 40
0.8046875
 40
0.806640625
 40
0.80859375
 40
0.810546875
 40
0.8115234375
 40
0.8120117188
 40
0.8125
 40
0.8129882812
 40
0.8134765625
 40
0.814453125
 40
0.81640625
 40
0.818359375
 40
0.8203125
 40
0.82421875
 40
0.828125
 40
0.8359375
 40
0.84375
 40
0.8515625
 40
0.859375
 40
0.86328125
 40
0.8671875
 40
0.869140625
 40
0.87109375
 40
0.873046875
 40
0.8740234375
 40
0.8745117188
 40
0.875
 40
0.8754882812
 40
0.8759765625
 40
0.876953125
 40
0.87890625
 40
0.880859375
 40
0.8828125
 40
0.88671875
 40
0.890625
 40
0.8984375
 40
0.90625
 40
0.9140625
 40
0.921875
 40
0.92578125
 40
0.9296875
 40
0.931640625
 40
0.93359375
 40
0.935546875
 40
0.9365234375
 40
0.9370117188
 40
0.9375
 40
0.9379882812
 40
0.9384765625
 40
0.939453125
 40
0.94140625
 40
0.943359375
 40
0.9453125
 40
0.94921875
 40
0.953125
 40
0.9609375
 40
0.96875
 40
0.9765625
 40
0.984375
 40
1.0
 40
1.0
 40
1.0
 40
1.0
 10
10.0486616153
 20
8.9151894131
 30
0.0
 10
10.0458473755
 20
8.9151086426
 30
0.0
 10
10.0416260157
 20
8.9149874872
 30
0.0
 10
10.0359975362
 20
8.9148259457
 30
0.0
 10
10.0317761762
 20
8.9147047919
 30
0.0
 10
10.0275548177
 20
8.9145836295
 30
0.0
 10
10.0240370139
 20
8.9144826874
 30
0.0
 10
10.0212227824
 20
8.9144018744
 30
0.0
 10
10.0194638614
 20
8.9143515011
 30
0.0
 10
10.0180567849
 20
8.9143108936
 30
0.0
 10
10.0170013123
 20
8.9142812839
 30
0.0
 10
10.0161222774
 20
8.9142539182
 30
0.0
 10
10.0155059215
 20
8.914240043
 30
0.0
 10
10.0151553287
 20
8.9142238688
 30
0.0
 10
10.0148878471
 20
8.9142349661
 30
0.0
 10
10.0146377081
 20
8.9141572742
 30
0.0
 10
10.0142981402
 20
8.9140846558
 30
0.0
 10
10.0137067148
 20
8.9139431437
 30
0.0
 10
10.0128603477
 20
8.9137485277
 30
0.0
 10
10.011845338
 20
8.9135117593
 30
0.0
 10
10.0104917715
 20
8.9131971961
 30
0.0
 10
10.0087998887
 20
8.9128036058
 30
0.0
 10
10.0060928341
 20
8.9121740772
 30
0.0
 10
10.0027090305
 20
8.911387092
 30
0.0
 10
9.998648459
 20
8.9104427437
 30
0.0
 10
9.9945878925
 20
8.9094983787
 30
0.0
 10
9.9912040766
 20
8.9087114351
 30
0.0
 10
9.9884970466
 20
8.9080818232
 30
0.0
 10
9.9868051012
 20
8.9076884448
 30
0.0
 10
9.9854516632
 20
8.9073734467
 30
0.0
 10
9.9844362606
 20
8.907138007
 30
0.0
 10
9.9835911229
 20
8.9069392339
 30
0.0
 10
9.9829975029
 20
8.9068051428
 30
0.0
 10
9.9826614512
 20
8.906720634
 30
0.0
 10
9.9824005113
 20
8.9066794655
 30
0.0
 10
9.982173596
 20
8.9065533875
 30
0.0
 10
9.9818591741
 20
8.9064149009
 30
0.0
 10
9.9813144654
 20
8.9061587501
 30
0.0
 10
9.9805334192
 20
8.9058000348
 30
0.0
 10
9.9795974011
 20
8.9053664884
 30
0.0
 10
9.9783489448
 20
8.9047895051
 30
0.0
 10
9.9767885224
 20
8.9040679067
 30
0.0
 10
9.9742917639
 20
8.9029135557
 30
0.0
 10
9.9711708443
 20
8.9014705457
 30
0.0
 10
9.9674257275
 20
8.8997389663
 30
0.0
 10
9.9636806182
 20
8.8980073706
 30
0.0
 10
9.96055968
 20
8.896564401
 30
0.0
 10
9.9580629587
 20
8.8954099693
 30
0.0
 10
9.9565024416
 20
8.8946885759
 30
0.0
 10
9.9552541797
 20
8.8941111718
 30
0.0
 10
9.9543175678
 20
8.8936789111
 30
0.0
 10
9.9535383796
 20
8.8933161733
 30
0.0
 10
9.9529903539
 20
8.8930672034
 30
0.0
 10
9.9526812467
 20
8.8929172111
 30
0.0
 10
9.9524380064
 20
8.8928264748
 30
0.0
 10
9.9522383806
 20
8.892652569
 30
0.0
 10
9.9519569997
 20
8.8924497051
 30
0.0
 10
9.9514716712
 20
8.8920811768
 30
0.0
 10
9.950774639
 20
8.8915617743
 30
0.0
 10
9.9499397866
 20
8.8909354666
 30
0.0
 10
9.948826096
 20
8.8901014462
 30
0.0
 10
9.9474341724
 20
8.8890585588
 30
0.0
 10
9.9452069886
 20
8.8873901414
 30
0.0
 10
9.9424230457
 20
8.8853045498
 30
0.0
 10
9.9390822968
 20
8.8828018713
 30
0.0
 10
9.9357415587
 20
8.8802991787
 30
0.0
 10
9.9329575885
 20
8.8782136223
 30
0.0
 10
9.9307304593
 20
8.8765451345
 30
0.0
 10
9.9293383972
 20
8.875502426
 30
0.0
 10
9.9282249909
 20
8.8746680385
 30
0.0
 10
9.9273892698
 20
8.8740428523
 30
0.0
 10
9.9266949554
 20
8.8735199409
 30
0.0
 10
9.9262047753
 20
8.8731576765
 30
0.0
 10
9.9259311678
 20
8.8729447762
 30
0.0
 10
9.9257076645
 20
8.872801699
 30
0.0
 10
9.9255541041
 20
8.8725951759
 30
0.0
 10
9.92532496
 20
8.8723419424
 30
0.0
 10
9.9249353248
 20
8.8718884727
 30
0.0
 10
9.9243727602
 20
8.8712460496
 30
0.0
 10
9.9237002265
 20
8.8704728345
 30
0.0
 10
9.9228026264
 20
8.8694426869
 30
0.0
 10
9.9216809305
 20
8.8681547265
 30
0.0
 10
9.9198860469
 20
8.866094144
 30
0.0
 10
9.9176425012
 20
8.8635183628
 30
0.0
 10
9.9149502195
 20
8.8604274494
 30
0.0
 10
9.9122579515
 20
8.8573365247
 30
0.0
 10
9.9100143713
 20
8.8547607718
 30
0.0
 10
9.9082195569
 20
8.8527001326
 30
0.0
 10
9.9070976852
 20
8.8514123165
 30
0.0
 10
9.9062004459
 20
8.8503818728
 30
0.0
 10
9.9055268097
 20
8.8496095623
 30
0.0
 10
9.9049676947
 20
8.8489643089
 30
0.0
 10
9.9045719014
 20
8.8485158917
 30
0.0
 10
9.9043526241
 20
8.8482545628
 30
0.0
 10
9.9041687559
 20
8.8480729063
 30
0.0
 10
9.9040590837
 20
8.8478364344
 30
0.0
 10
9.9038869736
 20
8.8475402587
 30
0.0
 10
9.9035978391
 20
8.8470130428
 30
0.0
 10
9.9031784858
 20
8.8462645347
 30
0.0
 10
9.9026779601
 20
8.8453643315
 30
0.0
 10
9.90200965
 20
8.8441647568
 30
0.0
 10
9.9011745852
 20
8.84266505
 30
0.0
 10
9.899838301
 20
8.8402656524
 30
0.0
 10
9.8981680082
 20
8.8372663595
 30
0.0
 10
9.8961636281
 20
8.8336672287
 30
0.0
 10
9.894159263
 20
8.8300680887
 30
0.0
 10
9.8924889326
 20
8.8270688186
 30
0.0
 10
9.8911527236
 20
8.8246693755
 30
0.0
 10
9.8903174677
 20
8.8231697844
 30
0.0
 10
9.8896495498
 20
8.8219699722
 30
0.0
 10
9.889147826
 20
8.8210704945
 30
0.0
 10
9.8887322211
 20
8.8203197165
 30
0.0
 10
9.888436395
 20
8.8197965527
 30
0.0
 10
9.8882750066
 20
8.8194938846
 30
0.0
 10
9.8881324008
 20
8.8192773554
 30
0.0
 10
9.8880722255
 20
8.8190207972
 30
0.0
 10
9.8879632391
 20
8.8186926822
 30
0.0
 10
9.8877859093
 20
8.8181119754
 30
0.0
 10
9.8875255772
 20
8.8172857954
 30
0.0
 10
9.8872161766
 20
8.8162929236
 30
0.0
 10
9.8868025953
 20
8.814969603
 30
0.0
 10
9.8862859772
 20
8.8133152782
 30
0.0
 10
9.8854591878
 20
8.8106684559
 30
0.0
 10
9.8844257703
 20
8.8073598943
 30
0.0
 10
9.8831856375
 20
8.8033896356
 30
0.0
 10
9.8819455211
 20
8.7994193701
 30
0.0
 10
9.8809120628
 20
8.7961108258
 30
0.0
 10
9.8800853549
 20
8.7934639689
 30
0.0
 10
9.8795685295
 20
8.7918097318
 30
0.0
 10
9.8791553737
 20
8.7904862312
 30
0.0
 10
9.8788446732
 20
8.7894939096
 30
0.0
 10
9.8785884082
 20
8.7886660082
 30
0.0
 10
9.8784038179
 20
8.7880883744
 30
0.0
 10
9.8783064646
 20
8.7877553356
 30
0.0
 10
9.878210556
 20
8.7875139017
 30
0.0
 10
9.8782021585
 20
8.7872405681
 30
0.0
 10
9.8781604369
 20
8.7868872503
 30
0.0
 10
9.8781016463
 20
8.78626376
 30
0.0
 10
9.8780102242
 20
8.7853757698
 30
0.0
 10
9.8779037003
 20
8.7843090215
 30
0.0
 10
9.8777605568
 20
8.7828870957
 30
0.0
 10
9.8775820081
 20
8.7811095496
 30
0.0
 10
9.8772961174
 20
8.7782655535
 30
0.0
 10
9.8769388275
 20
8.7747105317
 30
0.0
 10
9.8765100459
 20
8.7704445169
 30
0.0
 10
9.8760812814
 20
8.7661784992
 30
0.0
 10
9.8757239487
 20
8.7626234847
 30
0.0
 10
9.8754381436
 20
8.759779474
 30
0.0
 10
9.8752593772
 20
8.7580019648
 30
0.0
 10
9.8751166804
 20
8.7565799634
 30
0.0
 10
9.8750087919
 20
8.7555134459
 30
0.0
 10
9.8749216394
 20
8.7546247335
 30
0.0
 10
9.8748552268
 20
8.7540025325
 30
0.0
 10
9.8748257175
 20
8.7536471489
 30
0.0
 10
9.8747798079
 20
8.753380161
 30
0.0
 10
9.8748247884
 20
8.7531148938
 30
0.0
 10
9.874853059
 20
8.752760604
 30
0.0
 10
9.8749173037
 20
8.7521408764
 30
0.0
 10
9.8750013593
 20
8.7512554052
 30
0.0
 10
9.8751055315
 20
8.7501929023
 30
0.0
 10
9.8752432733
 20
8.7487762099
 30
0.0
 10
9.8754158458
 20
8.7470053518
 30
0.0
 10
9.8756917408
 20
8.7441719748
 30
0.0
 10
9.8760366859
 20
8.740630255
 30
0.0
 10
9.8764505852
 20
8.7363801903
 30
0.0
 10
9.8768645016
 20
8.7321301268
 30
0.0
 10
9.8772094038
 20
8.7285884039
 30
0.0
 10
9.8774853845
 20
8.7257550331
 30
0.0
 10
9.8776577393
 20
8.7239841592
 30
0.0
 10
9.8777959279
 20
8.7225674993
 30
0.0
 10
9.8778987349
 20
8.721504897
 30
0.0
 10
9.8779870619
 20
8.7206197366
 30
0.0
 10
9.8780436815
 20
8.7199994542
 30
0.0
 10
9.8780841694
 20
8.7196460535
 30
0.0
 10
9.878091622
 20
8.7193780551
 30
0.0
 10
9.878186661
 20
8.7191213251
 30
0.0
 10
9.8782828286
 20
8.7187750879
 30
0.0
 10
9.8784653562
 20
8.7181710041
 30
0.0
 10
9.878718668
 20
8.7173070699
 30
0.0
 10
9.8790258275
 20
8.7162707586
 30
0.0
 10
9.8794342609
 20
8.7148888671
 30
0.0
 10
9.8799451837
 20
8.7131615517
 30
0.0
 10
9.8807624471
 20
8.7103978197
 30
0.0
 10
9.8817840999
 20
8.7069431642
 30
0.0
 10
9.8830100498
 20
8.7027975728
 30
0.0
 10
9.884236016
 20
8.6986519853
 30
0.0
 10
9.885257628
 20
8.6951973203
 30
0.0
 10
9.8860749731
 20
8.6924336073
 30
0.0
 10
9.8865856883
 20
8.6907062436
 30
0.0
 10
9.8869945477
 20
8.6893244512
 30
0.0
 10
9.8873004058
 20
8.6882878372
 30
0.0
 10
9.8875577894
 20
8.6874248499
 30
0.0
 10
9.8877330482
 20
8.6868190757
 30
0.0
 10
9.8878408622
 20
8.6864755471
 30
0.0
 10
9.887900127
 20
8.6862104972
 30
0.0
 10
9.8880419416
 20
8.685973747
 30
0.0
 10
9.8882022334
 20
8.6856482088
 30
0.0
 10
9.8884961599
 20
8.6850831162
 30
0.0
 10
9.888909041
 20
8.6842734366
 30
0.0
 10
9.8894075004
 20
8.6833028502
 30
0.0
 10
9.8900710644
 20
8.6820083756
 30
0.0
 10
9.8909008785
 20
8.6803904054
 30
0.0
 10
9.8922283803
 20
8.6778015843
 30
0.0
 10
9.8938878268
 20
8.6745655818
 30
0.0
 10
9.895879131
 20
8.6706823676
 30
0.0
 10
9.8978704508
 20
8.6667991597
 30
0.0
 10
9.8995298583
 20
8.6635631412
 30
0.0
 10
9.9008574382
 20
8.660974352
 30
0.0
 10
9.9016870538
 20
8.6593563008
 30
0.0
 10
9.9023510251
 20
8.6580619924
 30
0.0
 10
9.9028482401
 20
8.6570908984
 30
0.0
 10
9.9032650148
 20
8.6562828069
 30
0.0
 10
9.9035519905
 20
8.6557148793
 30
0.0
 10
9.9037234193
 20
8.6553938835
 30
0.0
 10
9.9038310245
 20
8.6551431807
 30
0.0
 10
9.9040187743
 20
8.6549305345
 30
0.0
 10
9.9042411521
 20
8.6546337316
 30
0.0
 10
9.904643338
 20
8.6541205114
 30
0.0
 10
9.9052110799
 20
8.6533841062
 30
0.0
 10
9.9058952848
 20
8.652501804
 30
0.0
 10
9.9068065399
 20
8.6513249176
 30
0.0
 10
9.9079459575
 20
8.6498539752
 30
0.0
 10
9.9097688307
 20
8.6475003747
 30
0.0
 10
9.9120474894
 20
8.6445584063
 30
0.0
 10
9.9147818496
 20
8.6410280288
 30
0.0
 10
9.9175162231
 20
8.6374976613
 30
0.0
 10
9.9197948485
 20
8.6345556679
 30
0.0
 10
9.9216177883
 20
8.6322021173
 30
0.0
 10
9.9227570366
 20
8.6307310481
 30
0.0
 10
9.9236686391
 20
8.629554422
 30
0.0
 10
9.9243517828
 20
8.6286713247
 30
0.0
 10
9.924922845
 20
8.627937407
 30
0.0
 10
9.9253191035
 20
8.6274197463
 30
0.0
 10
9.9255509785
 20
8.6271300582
 30
0.0
 10
9.9257095558
 20
8.6268955576
 30
0.0
 10
9.9259267283
 20
8.6267269361
 30
0.0
 10
9.926195853
 20
8.6264791282
 30
0.0
 10
9.926676344
 20
8.6260561708
 30
0.0
 10
9.9273577811
 20
8.6254463484
 30
0.0
 10
9.9281776366
 20
8.6247169575
 30
0.0
 10
9.929270033
 20
8.6237435995
 30
0.0
 10
9.9306357833
 20
8.6225271885
 30
0.0
 10
9.9328208413
 20
8.6205807706
 30
0.0
 10
9.9355522129
 20
8.6181478037
 30
0.0
 10
9.9388298367
 20
8.6152282179
 30
0.0
 10
9.9421074708
 20
8.6123086453
 30
0.0
 10
9.9448388165
 20
8.6098756456
 30
0.0
 10
9.9470239265
 20
8.6079292933
 30
0.0
 10
9.9483895447
 20
8.6067127156
 30
0.0
 10
9.9494822122
 20
8.6057396997
 30
0.0
 10
9.9503012395
 20
8.6050092636
 30
0.0
 10
9.9509852677
 20
8.6044027112
 30
0.0
 10
9.9514611332
 20
8.6039739165
 30
0.0
 10
9.951737669
 20
8.6037354614
 30
0.0
 10
9.9519320769
 20
8.6035381109
 30
0.0
 10
9.9521761546
 20
8.6034115118
 30
0.0
 10
9.9524842661
 20
8.6032180341
 30
0.0
 10
9.9530315335
 20
8.6028909466
 30
0.0
 10
9.9538091239
 20
8.6024176671
 30
0.0
 10
9.9547440387
 20
8.6018523049
 30
0.0
 10
9.9559899609
 20
8.6010975899
 30
0.0
 10
9.9575475796
 20
8.6001545038
 30
0.0
 10
9.9600396488
 20
8.598645394
 30
0.0
 10
9.9631547769
 20
8.5967590663
 30
0.0
 10
9.966892912
 20
8.5944954456
 30
0.0
 10
9.9706310551
 20
8.5922318395
 30
0.0
 10
9.9737461631
 20
8.5903454755
 30
0.0
 10
9.9762382726
 20
8.5888364382
 30
0.0
 10
9.9777957889
 20
8.5878931681
 30
0.0
 10
9.9790419213
 20
8.5871388307
 30
0.0
 10
9.9799761937
 20
8.5865723149
 30
0.0
 10
9.980755794
 20
8.5861026446
 30
0.0
 10
9.9812994734
 20
8.5857691142
 30
0.0
 10
9.9816133338
 20
8.5855859595
 30
0.0
 10
9.9818397527
 20
8.5854276515
 30
0.0
 10
9.9821004841
 20
8.5853493944
 30
0.0
 10
9.9824361574
 20
8.585217129
 30
0.0
 10
9.983029162
 20
8.5849986742
 30
0.0
 10
9.9838733961
 20
8.5846797942
 30
0.0
 10
9.9848877249
 20
8.5843000496
 30
0.0
 10
9.9862397274
 20
8.5837927066
 30
0.0
 10
9.9879298798
 20
8.5831588761
 30
0.0
 10
9.9906340402
 20
8.5821445525
 30
0.0
 10
9.9940142695
 20
8.5808767153
 30
0.0
 10
9.9980705317
 20
8.5793552798
 30
0.0
 10
10.0021267997
 20
8.5778338602
 30
0.0
 10
10.0055070145
 20
8.5765659833
 30
0.0
 10
10.0082112038
 20
8.5755517392
 30
0.0
 10
10.0099012828
 20
8.5749177065
 30
0.0
 10
10.0112534359
 20
8.5744107785
 30
0.0
 10
10.0122673047
 20
8.5740297659
 30
0.0
 10
10.0131129781
 20
8.5737148533
 30
0.0
 10
10.0137034132
 20
8.5734893162
 30
0.0
 10
10.0140432036
 20
8.5733683984
 30
0.0
 10
10.0142912887
 20
8.573255285
 30
0.0
 10
10.0145652048
 20
8.5732278913
 30
0.0
 10
10.0149214161
 20
8.5731614664
 30
0.0
 10
10.0155489839
 20
8.5730591538
 30
0.0
 10
10.0164433146
 20
8.5729057097
 30
0.0
 10
10.0175174508
 20
8.5727246942
 30
0.0
 10
10.0189493043
 20
8.5724822513
 30
0.0
 10
10.0207392336
 20
8.5721795706
 30
0.0
 10
10.0236030576
 20
8.571695073
 30
0.0
 10
10.0271828591
 20
8.5710895226
 30
0.0
 10
10.0314786118
 20
8.5703628314
 30
0.0
 10
10.0357743669
 20
8.5696361484
 30
0.0
 10
10.0415020395
 20
8.5686672349
 30
0.0
 10
10.0457977941
 20
8.5679405504
 30
0.0
 10
10.0486616305
 20
8.5674560939
 30
0.0
  0
ENDSEC
  0
SECTION
  2
OBJECTS
  0
DICTIONARY
  5
C
100
AcDbDictionary
280
0
281
1
  3
ACAD_GROUP
350
D
  3
ACAD_MLINESTYLE
350
17
  3
ACAD_LAYOUT
350
1A
  3
ACAD_PLOTSETTINGS
350
19
  3
ACAD_PLOTSTYLENAME
350
E
  3
ACAD_IMAGE_DICT
350
       39B
  3
ACAD_IMAGE_VARS
350
       39C
  3
ACAD_TABLESTYLE
350
       39D
  0
IMAGEDEF_REACTOR
  5
39A
100
AcDbRasterImageDefReactor
 90
2
330
28A
  0
DICTIONARY
  5
D
102
{ACAD_REACTORS
330
C
102
}
100
AcDbDictionary
280
0
281
1
  0
ACDBDICTIONARYWDFLT
  5
E
102
{ACAD_REACTORS
330
C
102
}
100
AcDbDictionary
281
1
  3
Normal
350
F
100
AcDbDictionaryWithDefault
340
F
  0
DICTIONARY
  5
39B
330
C
100
AcDbDictionary
281
1
  3
H3X_assy_2_img_1
350
       3A0
  0
RASTERVARIABLES
  5
39C
330
C
100
AcDbRasterVariables
 90
0
 70
0
 71
1
 72
5
  0
DICTIONARY
  5
17
102
{ACAD_REACTORS
330
C
102
}
100
AcDbDictionary
280
0
281
1
  3
Standard
350
18
  0
DICTIONARY
  5
39D
330
C
100
AcDbDictionary
281
1
  3
Standard
350
       3A1
  3
Standard1
350
       3A2
  0
DICTIONARY
  5
19
102
{ACAD_REACTORS
330
C
102
}
100
AcDbDictionary
281
1
  0
DICTIONARY
  5
1A
102
{ACAD_REACTORS
330
C
102
}
100
AcDbDictionary
281
1
  3
Model
350
39E
  3
Layout1
350
39F
  0
ACDBPLACEHOLDER
  5
F
102
{ACAD_REACTORS
330
E
102
}
  0
MLINESTYLE
  5
18
102
{ACAD_REACTORS
330
17
102
}
100
AcDbMlineStyle
  2
STANDARD
 70
0
  3

 62
256
 51
90.0
 52
90.0
 71
2
 49
0.5
 62
256
  6
BYLAYER
 49
-0.5
 62
256
  6
BYLAYER
  0
LAYOUT
  5
39E
102
{ACAD_REACTORS
330
1A
102
}
100
AcDbPlotSettings
  1

  2
none_device
  4
ANSI_C_(22.00_x_17.00_Inches)
  6

 40
0.0
 41
0.0
 42
0.0
 43
0.0
 44
558.8
 45
431.8
 46
0.0
 47
0.0
 48
0.0
 49
0.0
140
0.0
141
0.0
142
1.0
143
1.0
 70
1024
 72
0
 73
0
 74
0
  7

 75
0
147
1.0
148
0.0
149
0.0
100
AcDbLayout
  1
Model
 70
0
 71
0
 10
0.0
 20
0.0
 11
22.0
 21
17.0
 12
0.0
 22
0.0
 32
0.0
 14
0.0
 24
0.0
 34
0.0
 15
0.0
 25
0.0
 35
0.0
146
0.0
 13
0.0
 23
0.0
 33
0.0
 16
1.0
 26
0.0
 36
0.0
 17
0.0
 27
1.0
 37
0.0
 76
0
330
204
345
0
346
0
  0
LAYOUT
  5
39F
102
{ACAD_REACTORS
330
1A
102
}
100
AcDbPlotSettings
  1

  2
none_device
  4
ANSI_C_(22.00_x_17.00_Inches)
  6

 40
0.0
 41
0.0
 42
0.0
 43
0.0
 44
558.8
 45
431.8
 46
0.0
 47
0.0
 48
0.0
 49
0.0
140
0.0
141
0.0
142
1.0
143
1.0
 70
0
 72
0
 73
0
 74
0
  7

 75
0
147
1.0
148
0.0
149
0.0
100
AcDbLayout
  1
Layout1
 70
0
 71
1
 10
0.0
 20
0.0
 11
22.0
 21
17.0
 12
0.0
 22
0.0
 32
0.0
 14
0.0
 24
0.0
 34
0.0
 15
0.0
 25
0.0
 35
0.0
146
0.0
 13
0.0
 23
0.0
 33
0.0
 16
1.0
 26
0.0
 36
0.0
 17
0.0
 27
1.0
 37
0.0
 76
0
330
205
345
0
346
0
  0
IMAGEDEF
  5
3A0
102
{ACAD_REACTORS
330
39B
330
39A
102
}
100
AcDbRasterImageDef
 90
0
  1
H3X_assy_2_img_1.png
 10
369.0
 20
92.0
 11
0.0066666667
 21
0.0066666667
280
1
281
0
  0
TABLESTYLE
  5
3A1
102
{ACAD_REACTORS
330
39D
330
28D
330
28E
102
}
330
39D
100
AcDbTableStyle
  3
Standard
 70
0
 71
0
 40
0.06
 41
0.06
280
1
281
1
  7
Standard
140
0.18
170
1
 62
0
 63
7
283
0
  7
Standard
140
0.18
170
1
 62
0
 63
7
283
0
  7
Standard
140
0.18
170
1
 62
0
 63
7
283
0
  0
TABLESTYLE
  5
3A2
102
{ACAD_REACTORS
330
39D
330
28C
102
}
330
39D
100
AcDbTableStyle
  3
Standard1
 70
1
 71
0
 40
0.06
 41
0.06
280
1
281
1
  7
Standard
140
0.18
170
1
 62
0
 63
7
283
0
  7
Standard
140
0.18
170
1
 62
0
 63
7
283
0
  7
Standard
140
0.18
170
1
 62
0
 63
7
283
0
  0
ENDSEC
  0
EOF
