999
DXF file: H3M_assy_2.dxf
999
Pro/ENGINEER 2014200 by Parametric Technology Corporation
  0
SECTION
  2
HEADER
  9
$ACADVER
  1
AC1021
  9
$DWGCODEPAGE
  3
ANSI_1252
  9
$EXTMAX
 10
22.0
 20
17.0
 30
0.0
  9
$EXTMIN
 10
0.0
 20
0.0
 30
0.0
  9
$LIMMIN
 10
0.0
 20
0.0
  9
$LIMMAX
 10
22.0
 20
17.0
  9
$VIEWCTR
 10
11.0
 20
8.5
  9
$VIEWSIZE
 40
17.0
  9
$CLAYER
  8
0
  9
$LTSCALE
 40
1.21
  9
$CELTYPE
  6
BYLAYER
  9
$DIMSCALE
 40
1.0
  9
$DIMASZ
 40
0.1875
  9
$DIMEXO
 40
0.0625
  9
$DIMDLI
 40
0.836
  9
$DIMEXE
 40
0.125
  9
$DIMCEN
 40
0.198
  9
$DIMLFAC
 40
1.0
  9
$DIMBLK
  1
_FILLED
  9
$DIMTXT
 40
0.1
  9
$DIMTOL
 70
0
  9
$DIMLIM
 70
0
  9
$DIMTFAC
 40
1.0
  9
$DIMGAP
 40
0.09
  9
$DIMDSEP
 70
46
  9
$AUNITS
 70
0
  9
$PDMODE
 70
3
  9
$PDSIZE
 40
0.3125
  9
$HANDSEED
  5
3D8
  9
$TILEMODE
 70
1
  9
$MEASUREMENT
 70
0
  9
$INSUNITS
 70
1
  0
ENDSEC
  0
SECTION
  2
CLASSES
  0
CLASS
  1
ACDBDICTIONARYWDFLT
  2
AcDbDictionaryWithDefault
  3
AutoCAD 2000
 90
0
 91
1
280
0
281
0
  0
CLASS
  1
ACDBPLACEHOLDER
  2
AcDbPlaceHolder
  3
AutoCAD 2000
 90
0
 91
1
280
0
281
0
  0
CLASS
  1
LAYOUT
  2
AcDbLayout
  3
AutoCAD 2000
 90
0
 91
0
280
0
281
0
  0
CLASS
  1
RASTERVARIABLES
  2
AcDbRasterVariables
  3
ISM
 90
0
 91
1
280
0
281
0
  0
CLASS
  1
IMAGEDEF
  2
AcDbRasterImageDef
  3
ISM
 90
0
 91
1
280
0
281
0
  0
CLASS
  1
IMAGEDEF_REACTOR
  2
AcDbRasterImageDefReactor
  3
ISM
 90
0
 91
1
280
0
281
0
  0
CLASS
  1
IMAGE
  2
AcDbRasterImage
  3
ISM
 90
127
 91
1
280
0
281
1
  0
CLASS
  1
TABLESTYLE
  2
AcDbTableStyle
  3
ObjectDBX Classes
 90
2047
 91
1
280
0
281
0
  0
CLASS
  1
ACAD_TABLE
  2
AcDbTable
  3
ObjectDBX Classes
 90
1025
 91
3
280
0
281
1
  0
ENDSEC
  0
SECTION
  2
TABLES
  0
TABLE
  2
VPORT
  5
8
100
AcDbSymbolTable
 70
2
  0
VPORT
  5
1F4
100
AcDbSymbolTableRecord
100
AcDbViewportTableRecord
  2
*ACTIVE
 70
0
 10
0.0
 20
0.0
 11
1.0
 21
1.0
 12
11.0
 22
8.5
 13
0.0
 23
0.0
 14
1.0
 24
1.0
 15
0.0
 25
0.0
 16
0.0
 26
0.0
 36
1.0
 17
0.0
 27
0.0
 37
0.0
 40
17.0
 41
1.2941176471
 42
50.0
 43
0.0
 44
0.0
 50
0.0
 51
0.0
 71
0
 72
100
 73
1
 74
1
 75
0
 76
0
 77
0
 78
0
  0
ENDTAB
  0
TABLE
  2
LTYPE
  5
5
100
AcDbSymbolTable
 70
6
  0
LTYPE
  5
14
100
AcDbSymbolTableRecord
100
AcDbLinetypeTableRecord
  2
BYBLOCK
 70
0
  3

 72
65
 73
0
 40
0.0
  0
LTYPE
  5
15
100
AcDbSymbolTableRecord
100
AcDbLinetypeTableRecord
  2
BYLAYER
 70
0
  3

 72
65
 73
0
 40
0.0
  0
LTYPE
  5
16
100
AcDbSymbolTableRecord
100
AcDbLinetypeTableRecord
  2
CONTINUOUS
 70
64
  3
Solid line
 72
65
 73
0
 40
0.0
  0
LTYPE
  5
1F5
100
AcDbSymbolTableRecord
100
AcDbLinetypeTableRecord
  2
CENTER
 70
64
  3
____ _ ____ _ ____ _ ____ _ ____ _ ____ _ ____
 72
65
 73
4
 40
0.6
 49
0.375
 74
0
 49
-0.075
 74
0
 49
0.075
 74
0
 49
-0.075
 74
0
  0
LTYPE
  5
1F6
100
AcDbSymbolTableRecord
100
AcDbLinetypeTableRecord
  2
HIDDEN
 70
64
  3
- - - - - - - - - - - - - - - - - - - -
 72
65
 73
2
 40
0.2
 49
0.1
 74
0
 49
-0.1
 74
0
  0
LTYPE
  5
1F7
100
AcDbSymbolTableRecord
100
AcDbLinetypeTableRecord
  2
PHANTOM
 70
64
  3
_____ _ _ _____ _ _ _____ _ _ _____
 72
65
 73
6
 40
0.8
 49
0.45
 74
0
 49
-0.05
 74
0
 49
0.1
 74
0
 49
-0.05
 74
0
 49
0.1
 74
0
 49
-0.05
 74
0
  0
LTYPE
  5
1F8
100
AcDbSymbolTableRecord
100
AcDbLinetypeTableRecord
  2
DOT
 70
64
  3
. . . . . . . . . . . . . . . . . . . .
 72
65
 73
2
 40
0.2
 49
0.1
 74
0
 49
-0.1
 74
0
  0
LTYPE
  5
1F9
100
AcDbSymbolTableRecord
100
AcDbLinetypeTableRecord
  2
DASHED
 70
64
  3
- - - - - - - - - - - - - - - - - - - -
 72
65
 73
2
 40
0.2
 49
0.1
 74
0
 49
-0.1
 74
0
  0
ENDTAB
  0
TABLE
  2
LAYER
  5
2
100
AcDbSymbolTable
 70
36
  0
LAYER
  5
10
100
AcDbSymbolTableRecord
100
AcDbLayerTableRecord
  2
0
 70
0
 62
7
  6
CONTINUOUS
370
-3
390
F
  0
LAYER
  5
1FA
100
AcDbSymbolTableRecord
100
AcDbLayerTableRecord
  2
DEFAULT_1
 70
0
 62
7
  6
CENTER
370
-3
390
F
  0
LAYER
  5
1FB
100
AcDbSymbolTableRecord
100
AcDbLayerTableRecord
  2
DEFAULT_2
 70
0
 62
8
  6
HIDDEN
370
-3
390
F
  0
LAYER
  5
1FC
100
AcDbSymbolTableRecord
100
AcDbLayerTableRecord
  2
DEFAULT_3
 70
0
 62
7
  6
PHANTOM
370
-3
390
F
  0
LAYER
  5
1FD
100
AcDbSymbolTableRecord
100
AcDbLayerTableRecord
  2
DATUM_PLANES
 70
0
 62
7
  6
CONTINUOUS
370
-3
390
F
  0
LAYER
  5
1FE
100
AcDbSymbolTableRecord
100
AcDbLayerTableRecord
  2
PORT_AREAS
 70
0
 62
7
  6
CONTINUOUS
370
-3
390
F
  0
LAYER
  5
1FF
100
AcDbSymbolTableRecord
100
AcDbLayerTableRecord
  2
SUNNBOMCOSMETIC
 70
0
 62
7
  6
CONTINUOUS
370
-3
390
F
  0
LAYER
  5
200
100
AcDbSymbolTableRecord
100
AcDbLayerTableRecord
  2
SUNNBOMSTAMPING
 70
0
 62
7
  6
CONTINUOUS
370
-3
390
F
  0
LAYER
  5
201
100
AcDbSymbolTableRecord
100
AcDbLayerTableRecord
  2
THREADS
 70
0
 62
7
  6
CONTINUOUS
370
-3
390
F
  0
ENDTAB
  0
TABLE
  2
STYLE
  5
3
100
AcDbSymbolTable
 70
1
  0
STYLE
  5
11
100
AcDbSymbolTableRecord
100
AcDbTextStyleTableRecord
  2
STANDARD
 70
0
 40
0.0
 41
0.8
 50
0.0
 71
0
 42
0.2
  3
txt
  4

  0
STYLE
  5
202
100
AcDbSymbolTableRecord
100
AcDbTextStyleTableRecord
  2
TEXTSTYLE_1
 70
0
 40
0.0
 41
0.8
 50
0.0
 71
0
 42
0.2
  3
gdt
  4

  0
ENDTAB
  0
TABLE
  2
VIEW
  5
6
100
AcDbSymbolTable
 70
0
  0
ENDTAB
  0
TABLE
  2
UCS
  5
7
100
AcDbSymbolTable
 70
0
  0
ENDTAB
  0
TABLE
  2
APPID
  5
9
100
AcDbSymbolTable
 70
1
  0
APPID
  5
203
100
AcDbSymbolTableRecord
100
AcDbRegAppTableRecord
  2
ACAD
 70
0
  0
ENDTAB
  0
TABLE
  2
BLOCK_RECORD
  5
1
100
AcDbSymbolTable
 70
0
  0
BLOCK_RECORD
  5
204
100
AcDbSymbolTableRecord
100
AcDbBlockTableRecord
  2
*Model_Space
  0
BLOCK_RECORD
  5
205
100
AcDbSymbolTableRecord
100
AcDbBlockTableRecord
  2
*Paper_Space
  0
BLOCK_RECORD
  5
206
100
AcDbSymbolTableRecord
100
AcDbBlockTableRecord
  2
SUN_FIRST_THIRD_ANGLE_BL0
  0
BLOCK_RECORD
  5
207
100
AcDbSymbolTableRecord
100
AcDbBlockTableRecord
  2
*T1
  0
BLOCK_RECORD
  5
208
100
AcDbSymbolTableRecord
100
AcDbBlockTableRecord
  2
*T2
  0
BLOCK_RECORD
  5
209
100
AcDbSymbolTableRecord
100
AcDbBlockTableRecord
  2
*T3
  0
ENDTAB
  0
TABLE
  2
DIMSTYLE
  5
A
100
AcDbSymbolTable
 70
1
100
AcDbDimStyleTable
 71
0
  0
DIMSTYLE
105
20A
100
AcDbSymbolTableRecord
100
AcDbDimStyleTableRecord
  2
STANDARD
 70
0
  3

  4

 40
1.0
 41
0.1875
 42
0.0625
 43
0.38
 44
0.125
 45
0.0
 46
0.0
 47
0.001
 48
0.001
140
0.1
141
0.09
142
0.0
143
25.4
144
1.0
145
0.0
146
1.0
147
0.09
 71
0.0
 72
0.0
 73
1
 74
1
 75
0
 76
0
 77
0
 78
4
170
0
171
2
172
0
173
0
174
0
175
0
176
0
177
0
178
0
270
2
271
3
272
3
273
2
274
2
275
0
280
0
281
0
282
0
283
1
284
4
285
0
286
0
287
3
288
0
340
11
278
46
  0
ENDTAB
  0
ENDSEC
  0
SECTION
  2
BLOCKS
  0
BLOCK
  5
20
100
AcDbEntity
  8
0
100
AcDbBlockBegin
  2
*Model_Space
 70
0
 10
0.0
 20
0.0
 30
0.0
  3
*Model_Space
  1

  0
ENDBLK
  5
21
100
AcDbEntity
  8
0
100
AcDbBlockEnd
  0
BLOCK
  5
1C
100
AcDbEntity
  8
0
100
AcDbBlockBegin
  2
*Paper_Space
 70
0
 10
0.0
 20
0.0
 30
0.0
  3
*Paper_Space
  1

  0
ENDBLK
  5
1D
100
AcDbEntity
  8
0
100
AcDbBlockEnd
  0
BLOCK
  5
20B
100
AcDbEntity
  8
0
100
AcDbBlockBegin
 62
2
  6
CONTINUOUS
  2
SUN_FIRST_THIRD_ANGLE_BL0
 70
64
 10
20.4816717061
 20
1.2289683772
  3
SUN_FIRST_THIRD_ANGLE_BL0
  1

  0
TEXT
  5
20C
100
AcDbEntity
  8
0
100
AcDbText
 62
2
  6
CONTINUOUS
 10
19.4750896608
 20
1.4136269581
  7
STANDARD
 40
0.08
  1
FIRST ANGLE
 41
0.8
 72
0
100
AcDbText
  0
TEXT
  5
20D
100
AcDbEntity
  8
0
100
AcDbText
 62
2
  6
CONTINUOUS
 10
20.7842537513
 20
1.4047600029
  7
STANDARD
 40
0.08
  1
THIRD ANGLE
 41
0.8
 72
0
100
AcDbText
  0
LINE
  5
20E
100
AcDbEntity
  8
0
100
AcDbLine
 62
7
  6
CONTINUOUS
 10
19.4767170086
 20
1.1727031207
 11
19.6334271527
 21
1.1717972817
  0
LINE
  5
20F
100
AcDbEntity
  8
0
100
AcDbLine
 62
7
  6
CONTINUOUS
 10
19.6596964832
 20
1.1717972817
 11
19.6950230232
 21
1.171593082
  0
LINE
  5
210
100
AcDbEntity
  8
0
100
AcDbLine
 62
7
  6
CONTINUOUS
 10
19.7194818561
 20
1.1708914427
 11
19.8852396156
 21
1.1699333054
  0
LINE
  5
211
100
AcDbEntity
  8
0
100
AcDbLine
 62
7
  6
CONTINUOUS
 10
19.4758111696
 20
1.2723454088
 11
19.88525039
 21
1.3511534004
  0
LINE
  5
212
100
AcDbEntity
  8
0
100
AcDbLine
 62
7
  6
CONTINUOUS
 10
19.88525039
 20
1.3511534004
 11
19.8831348489
 21
0.9851647912
  0
LINE
  5
213
100
AcDbEntity
  8
0
100
AcDbLine
 62
7
  6
CONTINUOUS
 10
19.8831348489
 20
0.9851647912
 11
19.4767170086
 21
1.0658141206
  0
LINE
  5
214
100
AcDbEntity
  8
0
100
AcDbLine
 62
7
  6
CONTINUOUS
 10
19.4767170086
 20
1.0658141206
 11
19.4779056764
 21
1.2714536432
  0
CIRCLE
  5
215
100
AcDbEntity
  8
0
100
AcDbCircle
 62
7
  6
CONTINUOUS
 10
20.2068232291
 20
1.1717972817
 40
0.175742101
  0
CIRCLE
  5
216
100
AcDbEntity
  8
0
100
AcDbCircle
 62
7
  6
CONTINUOUS
 10
20.2068232291
 20
1.1717972817
 40
0.1005522074
  0
LINE
  5
217
100
AcDbEntity
  8
0
100
AcDbLine
 62
7
  6
CONTINUOUS
 10
20.2077290681
 20
1.3756110529
 11
20.2071171714
 21
1.2379342989
  0
LINE
  5
218
100
AcDbEntity
  8
0
100
AcDbLine
 62
7
  6
CONTINUOUS
 10
20.2077290681
 20
1.2016899681
 11
20.2074674401
 21
1.1428236749
  0
LINE
  5
219
100
AcDbEntity
  8
0
100
AcDbLine
 62
7
  6
CONTINUOUS
 10
20.208634907
 20
1.101141841
 11
20.2080230104
 21
0.963465087
  0
LINE
  5
21A
100
AcDbEntity
  8
0
100
AcDbLine
 62
7
  6
CONTINUOUS
 10
20.0066328138
 20
1.1745147986
 11
20.1443095678
 21
1.1739029019
  0
LINE
  5
21B
100
AcDbEntity
  8
0
100
AcDbLine
 62
7
  6
CONTINUOUS
 10
20.1832714155
 20
1.1727031207
 11
20.238153505
 21
1.172335442
  0
LINE
  5
21C
100
AcDbEntity
  8
0
100
AcDbLine
 62
7
  6
CONTINUOUS
 10
20.2756669918
 20
1.1717972817
 11
20.407916871
 21
1.1712095044
  0
CIRCLE
  5
21D
100
AcDbEntity
  8
0
100
AcDbCircle
 62
7
  6
CONTINUOUS
 10
20.7509457401
 20
1.1693297793
 40
0.1722024983
  0
CIRCLE
  5
21E
100
AcDbEntity
  8
0
100
AcDbCircle
 62
7
  6
CONTINUOUS
 10
20.7509457401
 20
1.1693297793
 40
0.0985164967
  0
LINE
  5
21F
100
AcDbEntity
  8
0
100
AcDbLine
 62
7
  6
CONTINUOUS
 10
20.7169767782
 20
1.170462078
 11
20.7825395137
 21
1.1682766535
  0
LINE
  5
220
100
AcDbEntity
  8
0
100
AcDbLine
 62
7
  6
CONTINUOUS
 10
20.8177513651
 20
1.1693297793
 11
20.947965719
 21
1.1693297793
  0
LINE
  5
221
100
AcDbEntity
  8
0
100
AcDbLine
 62
7
  6
CONTINUOUS
 10
20.6875370113
 20
1.170462078
 11
20.5573226574
 21
1.170462078
  0
LINE
  5
222
100
AcDbEntity
  8
0
100
AcDbLine
 62
7
  6
CONTINUOUS
 10
20.7486811426
 20
1.1987695462
 11
20.7486811426
 21
1.1432869085
  0
LINE
  5
223
100
AcDbEntity
  8
0
100
AcDbLine
 62
7
  6
CONTINUOUS
 10
20.7498134414
 20
1.1059210505
 11
20.7498134414
 21
0.9757066966
  0
LINE
  5
224
100
AcDbEntity
  8
0
100
AcDbLine
 62
7
  6
CONTINUOUS
 10
20.7486811426
 20
1.2338708068
 11
20.7486811426
 21
1.3640851607
  0
LINE
  5
225
100
AcDbEntity
  8
0
100
AcDbLine
 62
7
  6
CONTINUOUS
 10
21.0702539817
 20
1.2701043662
 11
21.4790138229
 21
1.3448360823
  0
LINE
  5
226
100
AcDbEntity
  8
0
100
AcDbLine
 62
7
  6
CONTINUOUS
 10
21.4790138229
 20
1.3448360823
 11
21.4790138229
 21
0.9779712941
  0
LINE
  5
227
100
AcDbEntity
  8
0
100
AcDbLine
 62
7
  6
CONTINUOUS
 10
21.4790138229
 20
0.9779712941
 11
21.069121683
 21
1.0617614
  0
LINE
  5
228
100
AcDbEntity
  8
0
100
AcDbLine
 62
7
  6
CONTINUOUS
 10
21.0702539817
 20
1.2701043662
 11
21.069121683
 21
1.0617614
  0
LINE
  5
229
100
AcDbEntity
  8
0
100
AcDbLine
 62
7
  6
CONTINUOUS
 10
21.4790138229
 20
1.1693297793
 11
21.3159628059
 21
1.1693297793
  0
LINE
  5
22A
100
AcDbEntity
  8
0
100
AcDbLine
 62
7
  6
CONTINUOUS
 10
21.2876553377
 20
1.1693297793
 11
21.2502894796
 21
1.1693297793
  0
LINE
  5
22B
100
AcDbEntity
  8
0
100
AcDbLine
 62
7
  6
CONTINUOUS
 10
21.2208497126
 20
1.1659328831
 11
21.0713862804
 21
1.1659328831
  0
LINE
  5
22C
100
AcDbEntity
  8
0
100
AcDbLine
 62
7
  6
CONTINUOUS
 10
20.4796138713
 20
1.5284908897
 11
20.4766766948
 21
0.9294458646
  0
ENDBLK
  5
22D
100
AcDbEntity
  8
0
  6
BYBLOCK
 62
0
100
AcDbBlockEnd
  0
BLOCK
  5
22E
100
AcDbEntity
  8
0
100
AcDbBlockBegin
  2
*T1
 70
1
 10
0.0
 20
0.0
  3
*T1
  1

  0
LINE
  5
22F
100
AcDbEntity
  8
0
100
AcDbLine
 62
2
  6
CONTINUOUS
 10
9.275
 20
0.0
 11
-0.0
 21
0.0
  0
LINE
  5
230
100
AcDbEntity
  8
0
100
AcDbLine
 62
2
  6
CONTINUOUS
 10
9.275
 20
0.0
 11
9.275
 21
1.25
  0
LINE
  5
231
100
AcDbEntity
  8
0
100
AcDbLine
 62
2
  6
CONTINUOUS
 10
9.275
 20
0.625
 11
-0.0
 21
0.625
  0
LINE
  5
232
100
AcDbEntity
  8
0
100
AcDbLine
 62
2
  6
CONTINUOUS
 10
9.275
 20
1.25
 11
-0.0
 21
1.25
  0
LINE
  5
233
100
AcDbEntity
  8
0
100
AcDbLine
 62
2
  6
CONTINUOUS
 10
6.8
 20
0.0
 11
6.8
 21
1.25
  0
LINE
  5
234
100
AcDbEntity
  8
0
100
AcDbLine
 62
2
  6
CONTINUOUS
 10
6.4
 20
0.0
 11
6.4
 21
0.625
  0
LINE
  5
235
100
AcDbEntity
  8
0
100
AcDbLine
 62
2
  6
CONTINUOUS
 10
5.9
 20
0.0
 11
5.9
 21
0.625
  0
LINE
  5
236
100
AcDbEntity
  8
0
100
AcDbLine
 62
2
  6
CONTINUOUS
 10
5.2
 20
0.0
 11
5.2
 21
0.625
  0
LINE
  5
237
100
AcDbEntity
  8
0
100
AcDbLine
 62
2
  6
CONTINUOUS
 10
4.1
 20
0.0
 11
4.1
 21
1.25
  0
LINE
  5
238
100
AcDbEntity
  8
0
100
AcDbLine
 62
2
  6
CONTINUOUS
 10
-0.0
 20
0.0
 11
-0.0
 21
1.25
  0
MTEXT
  5
239
100
AcDbEntity
  8
0
100
AcDbMText
 62
2
  6
CONTINUOUS
  7
STANDARD
 71
2
 72
1
 10
6.6
 20
0.325
 30
0.0
 11
1.0
 21
0.0
 31
0.0
 44
0.9
  1
2
 40
0.125
 41
0.2
  0
MTEXT
  5
23A
100
AcDbEntity
  8
0
100
AcDbMText
 62
2
  6
CONTINUOUS
  7
STANDARD
 71
2
 72
1
 10
6.15
 20
0.325
 30
0.0
 11
1.0
 21
0.0
 31
0.0
 44
0.9
  1
C
 40
0.125
 41
0.2
  0
MTEXT
  5
23B
100
AcDbEntity
  8
0
100
AcDbMText
 62
2
  6
CONTINUOUS
  7
STANDARD
 71
2
 72
1
 10
5.55
 20
0.325
 30
0.0
 11
1.0
 21
0.0
 31
0.0
 44
0.9
  1
1.000
 40
0.125
 41
1.0
  0
MTEXT
  5
23C
100
AcDbEntity
  8
0
100
AcDbMText
 62
2
  6
CONTINUOUS
  7
STANDARD
 71
2
 72
1
 10
4.65
 20
0.325
 30
0.0
 11
1.0
 21
0.0
 31
0.0
 44
0.9
  1
Nov-01-21
 40
0.125
 41
1.8
  0
MTEXT
  5
23D
100
AcDbEntity
  8
0
100
AcDbMText
 62
2
  6
CONTINUOUS
  7
STANDARD
 71
2
 72
1
 10
2.05
 20
0.4625
 30
0.0
 11
1.0
 21
0.0
 31
0.0
 44
0.9
  1
T-17A Line mount\PThrough port 2 with reverse flow check
 40
0.125
 41
7.6
  0
MTEXT
  5
23E
100
AcDbEntity
  8
0
100
AcDbMText
 62
2
  6
CONTINUOUS
  7
STANDARD
 71
1
 72
1
 10
6.45
 20
0.5625
 30
0.0
 11
1.0
 21
0.0
 31
0.0
 44
0.9
  1
SHEET
 40
0.06
 41
0.48
  0
MTEXT
  5
23F
100
AcDbEntity
  8
0
100
AcDbMText
 62
2
  6
CONTINUOUS
  7
STANDARD
 71
1
 72
1
 10
5.95
 20
0.5625
 30
0.0
 11
1.0
 21
0.0
 31
0.0
 44
0.9
  1
DWG SIZE
 40
0.06
 41
0.768
  0
MTEXT
  5
240
100
AcDbEntity
  8
0
100
AcDbMText
 62
2
  6
CONTINUOUS
  7
STANDARD
 71
1
 72
1
 10
5.25
 20
0.5625
 30
0.0
 11
1.0
 21
0.0
 31
0.0
 44
0.9
  1
SCALE
 40
0.06
 41
0.48
  0
MTEXT
  5
241
100
AcDbEntity
  8
0
100
AcDbMText
 62
2
  6
CONTINUOUS
  7
STANDARD
 71
1
 72
1
 10
4.15
 20
0.5625
 30
0.0
 11
1.0
 21
0.0
 31
0.0
 44
0.9
  1
DATE
 40
0.06
 41
0.384
  0
MTEXT
  5
242
100
AcDbEntity
  8
0
100
AcDbMText
 62
2
  6
CONTINUOUS
  7
STANDARD
 71
1
 72
1
 10
0.05
 20
0.5625
 30
0.0
 11
1.0
 21
0.0
 31
0.0
 44
0.9
  1
DESCRIPTION
 40
0.06
 41
1.056
  0
MTEXT
  5
243
100
AcDbEntity
  8
0
100
AcDbMText
 62
2
  6
CONTINUOUS
  7
STANDARD
 71
2
 72
1
 10
5.45
 20
1.0375
 30
0.0
 11
1.0
 21
0.0
 31
0.0
 44
0.9
  1
ALL DIMENSIONS IN INCH\PVIEWS ARE THIRD ANGLE
 40
0.12
 41
4.224
  0
MTEXT
  5
244
100
AcDbEntity
  8
0
100
AcDbMText
 62
2
  6
CONTINUOUS
  7
STANDARD
 71
2
 72
1
 10
2.05
 20
0.95
 30
0.0
 11
1.0
 21
0.0
 31
0.0
 44
0.9
  1
H3M
 40
0.125
 41
0.6
  0
MTEXT
  5
245
100
AcDbEntity
  8
0
100
AcDbMText
 62
2
  6
CONTINUOUS
  7
STANDARD
 71
1
 72
1
 10
0.05
 20
1.1875
 30
0.0
 11
1.0
 21
0.0
 31
0.0
 44
0.9
  1
MODEL
 40
0.06
 41
0.48
  0
ENDBLK
  5
246
100
AcDbEntity
  8
0
  6
BYBLOCK
 62
0
100
AcDbBlockEnd
  0
BLOCK
  5
247
100
AcDbEntity
  8
0
100
AcDbBlockBegin
  2
*T2
 70
1
 10
0.0
 20
0.0
  3
*T2
  1

  0
LINE
  5
248
100
AcDbEntity
  8
0
100
AcDbLine
 62
2
  6
CONTINUOUS
 10
0.0
 20
0.0
 11
9.055
 21
0.0
  0
LINE
  5
249
100
AcDbEntity
  8
0
100
AcDbLine
 62
2
  6
CONTINUOUS
 10
0.0
 20
0.0
 11
0.0
 21
-2.844
  0
LINE
  5
24A
100
AcDbEntity
  8
0
100
AcDbLine
 62
2
  6
CONTINUOUS
 10
0.0
 20
-0.344
 11
9.055
 21
-0.344
  0
LINE
  5
24B
100
AcDbEntity
  8
0
100
AcDbLine
 62
2
  6
CONTINUOUS
 10
0.0
 20
-0.594
 11
9.055
 21
-0.594
  0
LINE
  5
24C
100
AcDbEntity
  8
0
100
AcDbLine
 62
2
  6
CONTINUOUS
 10
0.0
 20
-0.844
 11
9.055
 21
-0.844
  0
LINE
  5
24D
100
AcDbEntity
  8
0
100
AcDbLine
 62
2
  6
CONTINUOUS
 10
0.0
 20
-1.094
 11
9.055
 21
-1.094
  0
LINE
  5
24E
100
AcDbEntity
  8
0
100
AcDbLine
 62
2
  6
CONTINUOUS
 10
0.0
 20
-1.344
 11
9.055
 21
-1.344
  0
LINE
  5
24F
100
AcDbEntity
  8
0
100
AcDbLine
 62
2
  6
CONTINUOUS
 10
0.0
 20
-1.594
 11
9.055
 21
-1.594
  0
LINE
  5
250
100
AcDbEntity
  8
0
100
AcDbLine
 62
2
  6
CONTINUOUS
 10
0.0
 20
-1.844
 11
9.055
 21
-1.844
  0
LINE
  5
251
100
AcDbEntity
  8
0
100
AcDbLine
 62
2
  6
CONTINUOUS
 10
0.0
 20
-2.094
 11
9.055
 21
-2.094
  0
LINE
  5
252
100
AcDbEntity
  8
0
100
AcDbLine
 62
2
  6
CONTINUOUS
 10
0.0
 20
-2.344
 11
9.055
 21
-2.344
  0
LINE
  5
253
100
AcDbEntity
  8
0
100
AcDbLine
 62
2
  6
CONTINUOUS
 10
0.0
 20
-2.594
 11
9.055
 21
-2.594
  0
LINE
  5
254
100
AcDbEntity
  8
0
100
AcDbLine
 62
2
  6
CONTINUOUS
 10
0.0
 20
-2.844
 11
9.055
 21
-2.844
  0
LINE
  5
255
100
AcDbEntity
  8
0
100
AcDbLine
 62
2
  6
CONTINUOUS
 10
3.055
 20
0.0
 11
3.055
 21
-2.844
  0
LINE
  5
256
100
AcDbEntity
  8
0
100
AcDbLine
 62
2
  6
CONTINUOUS
 10
9.055
 20
0.0
 11
9.055
 21
-2.844
  0
MTEXT
  5
257
100
AcDbEntity
  8
0
100
AcDbMText
 62
2
  6
CONTINUOUS
  7
STANDARD
 71
2
 72
1
 10
1.5275
 20
-0.0995
 30
0.0
 11
1.0
 21
0.0
 31
0.0
 44
0.9
  1
Technical Data
 40
0.145
 41
3.248
  0
MTEXT
  5
258
100
AcDbEntity
  8
0
100
AcDbMText
 62
2
  6
CONTINUOUS
  7
STANDARD
 71
2
 72
1
 10
4.555
 20
-0.0995
 30
0.0
 11
1.0
 21
0.0
 31
0.0
 44
0.9
  1
U.S. Units
 40
0.145
 41
2.32
  0
MTEXT
  5
259
100
AcDbEntity
  8
0
100
AcDbMText
 62
2
  6
CONTINUOUS
  7
STANDARD
 71
2
 72
1
 10
7.555
 20
-0.0995
 30
0.0
 11
1.0
 21
0.0
 31
0.0
 44
0.9
  1
Metric Units
 40
0.145
 41
2.784
  0
MTEXT
  5
25A
100
AcDbEntity
  8
0
100
AcDbMText
 62
2
  6
CONTINUOUS
  7
STANDARD
 71
2
 72
1
 10
1.5275
 20
-0.4065
 30
0.0
 11
1.0
 21
0.0
 31
0.0
 44
0.9
  1
Cavity
 40
0.125
 41
1.2
  0
MTEXT
  5
25B
100
AcDbEntity
  8
0
100
AcDbMText
 62
2
  6
CONTINUOUS
  7
STANDARD
 71
2
 72
1
 10
6.055
 20
-0.4065
 30
0.0
 11
1.0
 21
0.0
 31
0.0
 44
0.9
  1
T-17A
 40
0.125
 41
1.0
  0
MTEXT
  5
25C
100
AcDbEntity
  8
0
100
AcDbMText
 62
2
  6
CONTINUOUS
  7
STANDARD
 71
2
 72
1
 10
1.5275
 20
-0.6565
 30
0.0
 11
1.0
 21
0.0
 31
0.0
 44
0.9
  1
Body Features
 40
0.125
 41
2.6
  0
MTEXT
  5
25D
100
AcDbEntity
  8
0
100
AcDbMText
 62
2
  6
CONTINUOUS
  7
STANDARD
 71
2
 72
1
 10
6.055
 20
-0.6565
 30
0.0
 11
1.0
 21
0.0
 31
0.0
 44
0.9
  1
Through port 2 with reverse flow check
 40
0.125
 41
7.6
  0
MTEXT
  5
25E
100
AcDbEntity
  8
0
100
AcDbMText
 62
2
  6
CONTINUOUS
  7
STANDARD
 71
2
 72
1
 10
1.5275
 20
-0.9065
 30
0.0
 11
1.0
 21
0.0
 31
0.0
 44
0.9
  1
Body Type
 40
0.125
 41
1.8
  0
MTEXT
  5
25F
100
AcDbEntity
  8
0
100
AcDbMText
 62
2
  6
CONTINUOUS
  7
STANDARD
 71
2
 72
1
 10
6.055
 20
-0.9065
 30
0.0
 11
1.0
 21
0.0
 31
0.0
 44
0.9
  1
Line mount
 40
0.125
 41
2.0
  0
MTEXT
  5
260
100
AcDbEntity
  8
0
100
AcDbMText
 62
2
  6
CONTINUOUS
  7
STANDARD
 71
2
 72
1
 10
1.5275
 20
-1.1565
 30
0.0
 11
1.0
 21
0.0
 31
0.0
 44
0.9
  1
Interface
 40
0.125
 41
1.8
  0
MTEXT
  5
261
100
AcDbEntity
  8
0
100
AcDbMText
 62
2
  6
CONTINUOUS
  7
STANDARD
 71
2
 72
1
 10
6.055
 20
-1.1565
 30
0.0
 11
1.0
 21
0.0
 31
0.0
 44
0.9
  1
None
 40
0.125
 41
0.8
  0
MTEXT
  5
262
100
AcDbEntity
  8
0
100
AcDbMText
 62
2
  6
CONTINUOUS
  7
STANDARD
 71
2
 72
1
 10
1.5275
 20
-1.4065
 30
0.0
 11
1.0
 21
0.0
 31
0.0
 44
0.9
  1
Open Cavity Quantity
 40
0.125
 41
4.0
  0
MTEXT
  5
263
100
AcDbEntity
  8
0
100
AcDbMText
 62
2
  6
CONTINUOUS
  7
STANDARD
 71
2
 72
1
 10
6.055
 20
-1.4065
 30
0.0
 11
1.0
 21
0.0
 31
0.0
 44
0.9
  1
1
 40
0.125
 41
0.2
  0
MTEXT
  5
264
100
AcDbEntity
  8
0
100
AcDbMText
 62
2
  6
CONTINUOUS
  7
STANDARD
 71
2
 72
1
 10
1.5275
 20
-1.6565
 30
0.0
 11
1.0
 21
0.0
 31
0.0
 44
0.9
  1
Weight
 40
0.125
 41
1.2
  0
MTEXT
  5
265
100
AcDbEntity
  8
0
100
AcDbMText
 62
2
  6
CONTINUOUS
  7
STANDARD
 71
2
 72
1
 10
4.555
 20
-1.6565
 30
0.0
 11
1.0
 21
0.0
 31
0.0
 44
0.9
  1
7.930 lb.
 40
0.125
 41
1.8
  0
MTEXT
  5
266
100
AcDbEntity
  8
0
100
AcDbMText
 62
2
  6
CONTINUOUS
  7
STANDARD
 71
2
 72
1
 10
7.555
 20
-1.6565
 30
0.0
 11
1.0
 21
0.0
 31
0.0
 44
0.9
  1
3,597 kg.
 40
0.125
 41
1.8
  0
MTEXT
  5
267
100
AcDbEntity
  8
0
100
AcDbMText
 62
2
  6
CONTINUOUS
  7
STANDARD
 71
2
 72
1
 10
1.5275
 20
-1.9065
 30
0.0
 11
1.0
 21
0.0
 31
0.0
 44
0.9
  1
Mounting Hole Thread
 40
0.125
 41
4.0
  0
MTEXT
  5
268
100
AcDbEntity
  8
0
100
AcDbMText
 62
2
  6
CONTINUOUS
  7
STANDARD
 71
2
 72
1
 10
4.555
 20
-1.9065
 30
0.0
 11
1.0
 21
0.0
 31
0.0
 44
0.9
  1
.375-16 UNC - 2B in.
 40
0.125
 41
4.0
  0
MTEXT
  5
269
100
AcDbEntity
  8
0
100
AcDbMText
 62
2
  6
CONTINUOUS
  7
STANDARD
 71
2
 72
1
 10
1.5275
 20
-2.1565
 30
0.0
 11
1.0
 21
0.0
 31
0.0
 44
0.9
  1
Mounting Hole Depth
 40
0.125
 41
3.8
  0
MTEXT
  5
26A
100
AcDbEntity
  8
0
100
AcDbMText
 62
2
  6
CONTINUOUS
  7
STANDARD
 71
2
 72
1
 10
4.555
 20
-2.1565
 30
0.0
 11
1.0
 21
0.0
 31
0.0
 44
0.9
  1
.62 in.
 40
0.125
 41
1.4
  0
MTEXT
  5
26B
100
AcDbEntity
  8
0
100
AcDbMText
 62
2
  6
CONTINUOUS
  7
STANDARD
 71
2
 72
1
 10
7.555
 20
-2.1565
 30
0.0
 11
1.0
 21
0.0
 31
0.0
 44
0.9
  1
15,7 mm
 40
0.125
 41
1.4
  0
MTEXT
  5
26C
100
AcDbEntity
  8
0
100
AcDbMText
 62
2
  6
CONTINUOUS
  7
STANDARD
 71
2
 72
1
 10
1.5275
 20
-2.4065
 30
0.0
 11
1.0
 21
0.0
 31
0.0
 44
0.9
  1
Mounting Hole Quantity
 40
0.125
 41
4.4
  0
MTEXT
  5
26D
100
AcDbEntity
  8
0
100
AcDbMText
 62
2
  6
CONTINUOUS
  7
STANDARD
 71
2
 72
1
 10
6.055
 20
-2.4065
 30
0.0
 11
1.0
 21
0.0
 31
0.0
 44
0.9
  1
2
 40
0.125
 41
0.2
  0
MTEXT
  5
26E
100
AcDbEntity
  8
0
100
AcDbMText
 62
2
  6
CONTINUOUS
  7
STANDARD
 71
2
 72
1
 10
1.5275
 20
-2.6565
 30
0.0
 11
1.0
 21
0.0
 31
0.0
 44
0.9
  1
Includes integral cartridge(s)
 40
0.125
 41
6.0
  0
MTEXT
  5
26F
100
AcDbEntity
  8
0
100
AcDbMText
 62
2
  6
CONTINUOUS
  7
STANDARD
 71
2
 72
1
 10
6.055
 20
-2.6565
 30
0.0
 11
1.0
 21
0.0
 31
0.0
 44
0.9
  1
Yes (see Included Components)
 40
0.125
 41
5.8
  0
ENDBLK
  5
270
100
AcDbEntity
  8
0
  6
BYBLOCK
 62
0
100
AcDbBlockEnd
  0
BLOCK
  5
271
100
AcDbEntity
  8
0
100
AcDbBlockBegin
  2
*T3
 70
1
 10
0.0
 20
0.0
  3
*T3
  1

  0
LINE
  5
272
100
AcDbEntity
  8
0
100
AcDbLine
 62
2
  6
CONTINUOUS
 10
0.0
 20
0.0
 11
4.6
 21
0.0
  0
LINE
  5
273
100
AcDbEntity
  8
0
100
AcDbLine
 62
2
  6
CONTINUOUS
 10
0.0
 20
0.0
 11
0.0
 21
-1.43775
  0
LINE
  5
274
100
AcDbEntity
  8
0
100
AcDbLine
 62
2
  6
CONTINUOUS
 10
0.0
 20
-0.34375
 11
4.6
 21
-0.34375
  0
LINE
  5
275
100
AcDbEntity
  8
0
100
AcDbLine
 62
2
  6
CONTINUOUS
 10
0.0
 20
-0.68775
 11
4.6
 21
-0.68775
  0
LINE
  5
276
100
AcDbEntity
  8
0
100
AcDbLine
 62
2
  6
CONTINUOUS
 10
0.0
 20
-0.93775
 11
4.6
 21
-0.93775
  0
LINE
  5
277
100
AcDbEntity
  8
0
100
AcDbLine
 62
2
  6
CONTINUOUS
 10
0.0
 20
-1.18775
 11
4.6
 21
-1.18775
  0
LINE
  5
278
100
AcDbEntity
  8
0
100
AcDbLine
 62
2
  6
CONTINUOUS
 10
0.0
 20
-1.43775
 11
4.6
 21
-1.43775
  0
LINE
  5
279
100
AcDbEntity
  8
0
100
AcDbLine
 62
2
  6
CONTINUOUS
 10
1.3
 20
-0.34375
 11
1.3
 21
-1.43775
  0
LINE
  5
27A
100
AcDbEntity
  8
0
100
AcDbLine
 62
2
  6
CONTINUOUS
 10
3.3
 20
-0.34375
 11
3.3
 21
-1.43775
  0
LINE
  5
27B
100
AcDbEntity
  8
0
100
AcDbLine
 62
2
  6
CONTINUOUS
 10
4.6
 20
0.0
 11
4.6
 21
-1.43775
  0
MTEXT
  5
27C
100
AcDbEntity
  8
0
100
AcDbMText
 62
2
  6
CONTINUOUS
  7
STANDARD
 71
2
 72
1
 10
2.3
 20
-0.099375
 30
0.0
 11
1.0
 21
0.0
 31
0.0
 44
0.9
  1
Port Headings
 40
0.145
 41
3.016
  0
MTEXT
  5
27D
100
AcDbEntity
  8
0
100
AcDbMText
 62
2
  6
CONTINUOUS
  7
STANDARD
 71
2
 72
1
 10
0.65
 20
-0.44325
 30
0.0
 11
1.0
 21
0.0
 31
0.0
 44
0.9
  1
Product
 40
0.145
 41
1.624
  0
MTEXT
  5
27E
100
AcDbEntity
  8
0
100
AcDbMText
 62
2
  6
CONTINUOUS
  7
STANDARD
 71
2
 72
1
 10
2.3
 20
-0.44325
 30
0.0
 11
1.0
 21
0.0
 31
0.0
 44
0.9
  1
Port
 40
0.145
 41
0.928
  0
MTEXT
  5
27F
100
AcDbEntity
  8
0
100
AcDbMText
 62
2
  6
CONTINUOUS
  7
STANDARD
 71
2
 72
1
 10
3.95
 20
-0.44325
 30
0.0
 11
1.0
 21
0.0
 31
0.0
 44
0.9
  1
Size
 40
0.145
 41
0.928
  0
MTEXT
  5
280
100
AcDbEntity
  8
0
100
AcDbMText
 62
2
  6
CONTINUOUS
  7
STANDARD
 71
2
 72
1
 10
0.65
 20
-0.75025
 30
0.0
 11
1.0
 21
0.0
 31
0.0
 44
0.9
  1
H3M
 40
0.125
 41
0.6
  0
MTEXT
  5
281
100
AcDbEntity
  8
0
100
AcDbMText
 62
2
  6
CONTINUOUS
  7
STANDARD
 71
2
 72
1
 10
2.3
 20
-0.75025
 30
0.0
 11
1.0
 21
0.0
 31
0.0
 44
0.9
  1
Ports 1 &  2
 40
0.125
 41
2.4
  0
MTEXT
  5
282
100
AcDbEntity
  8
0
100
AcDbMText
 62
2
  6
CONTINUOUS
  7
STANDARD
 71
2
 72
1
 10
3.95
 20
-0.75025
 30
0.0
 11
1.0
 21
0.0
 31
0.0
 44
0.9
  1
SAE 16
 40
0.125
 41
1.2
  0
MTEXT
  5
283
100
AcDbEntity
  8
0
100
AcDbMText
 62
2
  6
CONTINUOUS
  7
STANDARD
 71
2
 72
1
 10
0.65
 20
-1.00025
 30
0.0
 11
1.0
 21
0.0
 31
0.0
 44
0.9
  1
H3M
 40
0.125
 41
0.6
  0
MTEXT
  5
284
100
AcDbEntity
  8
0
100
AcDbMText
 62
2
  6
CONTINUOUS
  7
STANDARD
 71
2
 72
1
 10
2.3
 20
-1.00025
 30
0.0
 11
1.0
 21
0.0
 31
0.0
 44
0.9
  1
Port 3
 40
0.125
 41
1.2
  0
MTEXT
  5
285
100
AcDbEntity
  8
0
100
AcDbMText
 62
2
  6
CONTINUOUS
  7
STANDARD
 71
2
 72
1
 10
3.95
 20
-1.00025
 30
0.0
 11
1.0
 21
0.0
 31
0.0
 44
0.9
  1
SAE 6
 40
0.125
 41
1.0
  0
MTEXT
  5
286
100
AcDbEntity
  8
0
100
AcDbMText
 62
2
  6
CONTINUOUS
  7
STANDARD
 71
2
 72
1
 10
0.65
 20
-1.25025
 30
0.0
 11
1.0
 21
0.0
 31
0.0
 44
0.9
  1
H3M
 40
0.125
 41
0.6
  0
MTEXT
  5
287
100
AcDbEntity
  8
0
100
AcDbMText
 62
2
  6
CONTINUOUS
  7
STANDARD
 71
2
 72
1
 10
2.3
 20
-1.25025
 30
0.0
 11
1.0
 21
0.0
 31
0.0
 44
0.9
  1
Gage Port
 40
0.125
 41
1.8
  0
MTEXT
  5
288
100
AcDbEntity
  8
0
100
AcDbMText
 62
2
  6
CONTINUOUS
  7
STANDARD
 71
2
 72
1
 10
3.95
 20
-1.25025
 30
0.0
 11
1.0
 21
0.0
 31
0.0
 44
0.9
  1
1/4" NPTF
 40
0.125
 41
1.8
  0
ENDBLK
  5
289
100
AcDbEntity
  8
0
  6
BYBLOCK
 62
0
100
AcDbBlockEnd
  0
ENDSEC
  0
SECTION
  2
ENTITIES
  0
IMAGE
  5
28A
100
AcDbEntity
  8
0
100
AcDbRasterImage
 62
7
  6
CONTINUOUS
 10
19.2297077316
 20
0.3094318264
 30
0.0
 11
0.0066666667
 21
0.0
 31
0.0
 12
0.0
 22
0.0066666667
 32
0.0
 13
369.0
 23
92.0
340
       3D5
 70
9
280
0
281
50
282
50
283
0
360
       3CF
 71
1
 91
2
 14
-0.5
 24
-0.5
 14
368.5
 24
91.5
  0
INSERT
  5
28B
100
AcDbEntity
  8
0
100
AcDbBlockReference
 62
2
  6
CONTINUOUS
  2
SUN_FIRST_THIRD_ANGLE_BL0
 10
20.4816717061
 20
1.2289683772
  0
ACAD_TABLE
  5
28C
100
AcDbEntity
  8
0
 62
2
  6
CONTINUOUS
100
AcDbBlockReference
  2
*T1
 10
12.42375
 20
0.30125
 30
0.0
100
AcDbTable
342
       3D7
343
207
 11
1.0
 21
0.0
 31
0.0
 90
6
 91
4
 92
6
 93
20
 94
0
 95
0
 96
0
 70
1
 41
0.0
141
0.525
141
0.1
141
0.525
141
0.1
142
4.1
142
1.1
142
0.7
142
0.5
142
0.4
142
2.475
171
1
172
0
173
0
174
0
175
1
176
1
 91
33
178
0
145
0.0
301
CELL_VALUE
 90
4
  1
T-17A Line mount\PThrough port 2 with reverse flow check
304
ACVALUE_END
170
2
140
0.125
171
1
172
0
173
0
174
0
175
1
176
1
 91
33
178
0
145
0.0
301
CELL_VALUE
 90
4
  1
Nov-01-21
304
ACVALUE_END
170
5
140
0.125
171
1
172
0
173
0
174
0
175
1
176
1
 91
33
178
0
145
0.0
301
CELL_VALUE
 90
4
  1
1.000
304
ACVALUE_END
170
5
140
0.125
171
1
172
0
173
0
174
0
175
1
176
1
 91
33
178
0
145
0.0
301
CELL_VALUE
 90
4
  1
C
304
ACVALUE_END
170
5
140
0.125
171
1
172
0
173
0
174
0
175
1
176
1
 91
33
178
0
145
0.0
301
CELL_VALUE
 90
4
  1
2
304
ACVALUE_END
170
5
140
0.125
171
1
172
0
173
0
174
0
175
1
176
1
 91
33
178
0
145
0.0
301
CELL_VALUE
 90
4
  1
 
304
ACVALUE_END
170
1
140
0.125
171
1
172
0
173
0
174
0
175
1
176
1
 91
33
178
0
145
0.0
301
CELL_VALUE
 90
4
  1
DESCRIPTION
304
ACVALUE_END
170
1
140
0.06
171
1
172
0
173
0
174
0
175
1
176
1
 91
33
178
0
145
0.0
301
CELL_VALUE
 90
4
  1
DATE
304
ACVALUE_END
170
1
140
0.06
171
1
172
0
173
0
174
0
175
1
176
1
 91
33
178
0
145
0.0
301
CELL_VALUE
 90
4
  1
SCALE
304
ACVALUE_END
170
1
140
0.06
171
1
172
0
173
0
174
0
175
1
176
1
 91
33
178
0
145
0.0
301
CELL_VALUE
 90
4
  1
DWG SIZE
304
ACVALUE_END
170
1
140
0.06
171
1
172
0
173
0
174
0
175
1
176
1
 91
33
178
0
145
0.0
301
CELL_VALUE
 90
4
  1
SHEET
304
ACVALUE_END
170
1
140
0.06
171
1
172
0
173
0
174
0
175
1
176
1
 91
33
178
0
145
0.0
301
CELL_VALUE
 90
4
  1
 
304
ACVALUE_END
170
1
140
0.125
171
1
172
0
173
0
174
0
175
1
176
1
 91
33
178
0
145
0.0
301
CELL_VALUE
 90
4
  1
H3M
304
ACVALUE_END
170
5
140
0.125
171
1
172
0
173
0
174
0
175
4
176
1
 91
33
178
0
145
0.0
301
CELL_VALUE
 90
4
  1
ALL DIMENSIONS IN INCH\PVIEWS ARE THIRD ANGLE
304
ACVALUE_END
170
5
140
0.12
171
1
172
0
173
1
174
0
175
1
176
1
 91
1
178
0
145
0.0
170
1
171
1
172
0
173
1
174
0
175
1
176
1
 91
1
178
0
145
0.0
170
1
171
1
172
0
173
1
174
0
175
1
176
1
 91
1
178
0
145
0.0
170
5
171
1
172
0
173
0
174
0
175
1
176
1
 91
33
178
0
145
0.0
301
CELL_VALUE
 90
4
  1
 
304
ACVALUE_END
170
1
140
0.125
171
1
172
0
173
0
174
0
175
1
176
1
 91
33
178
0
145
0.0
301
CELL_VALUE
 90
4
  1
MODEL
304
ACVALUE_END
170
1
140
0.06
171
1
172
0
173
0
174
0
175
1
176
1
 91
33
178
0
145
0.0
301
CELL_VALUE
 90
4
  1
 
304
ACVALUE_END
170
1
140
0.125
171
1
172
0
173
0
174
0
175
1
176
1
 91
33
178
0
145
0.0
301
CELL_VALUE
 90
4
  1
 
304
ACVALUE_END
170
1
140
0.125
171
1
172
0
173
0
174
0
175
1
176
1
 91
33
178
0
145
0.0
301
CELL_VALUE
 90
4
  1
 
304
ACVALUE_END
170
1
140
0.125
171
1
172
0
173
0
174
0
175
1
176
1
 91
33
178
0
145
0.0
301
CELL_VALUE
 90
4
  1
 
304
ACVALUE_END
170
1
140
0.125
171
1
172
0
173
0
174
0
175
1
176
1
 91
33
178
0
145
0.0
301
CELL_VALUE
 90
4
  1
 
304
ACVALUE_END
170
1
140
0.125
  0
ACAD_TABLE
  5
28D
100
AcDbEntity
  8
0
 62
2
  6
CONTINUOUS
100
AcDbBlockReference
  2
*T2
 10
12.4237499994
 20
16.47875
 30
0.0
100
AcDbTable
342
       3D6
343
208
 11
1.0
 21
0.0
 31
0.0
 90
22
 91
11
 92
3
 93
16
 94
0
 95
0
 96
0
 41
0.028
141
0.344
141
0.25
141
0.25
141
0.25
141
0.25
141
0.25
141
0.25
141
0.25
141
0.25
141
0.25
141
0.25
142
3.055
142
3.0
142
3.0
171
1
172
0
173
0
174
0
175
1
176
1
 91
33
178
0
145
0.0
301
CELL_VALUE
 90
4
  1
Technical Data
304
ACVALUE_END
170
5
140
0.145
171
1
172
0
173
0
174
0
175
1
176
1
 91
33
178
0
145
0.0
301
CELL_VALUE
 90
4
  1
U.S. Units
304
ACVALUE_END
170
5
140
0.145
171
1
172
0
173
0
174
0
175
1
176
1
 91
33
178
0
145
0.0
301
CELL_VALUE
 90
4
  1
Metric Units
304
ACVALUE_END
170
5
140
0.145
171
1
172
0
173
0
174
0
175
1
176
1
 91
33
178
0
145
0.0
301
CELL_VALUE
 90
4
  1
Cavity
304
ACVALUE_END
170
5
140
0.125
171
1
172
0
173
0
174
0
175
2
176
1
 91
33
178
0
145
0.0
301
CELL_VALUE
 90
4
  1
T-17A
304
ACVALUE_END
170
5
140
0.125
171
1
172
0
173
1
174
0
175
1
176
1
 91
1
178
0
145
0.0
170
1
171
1
172
0
173
0
174
0
175
1
176
1
 91
33
178
0
145
0.0
301
CELL_VALUE
 90
4
  1
Body Features
304
ACVALUE_END
170
5
140
0.125
171
1
172
0
173
0
174
0
175
2
176
1
 91
33
178
0
145
0.0
301
CELL_VALUE
 90
4
  1
Through port 2 with reverse flow check
304
ACVALUE_END
170
5
140
0.125
171
1
172
0
173
1
174
0
175
1
176
1
 91
1
178
0
145
0.0
170
1
171
1
172
0
173
0
174
0
175
1
176
1
 91
33
178
0
145
0.0
301
CELL_VALUE
 90
4
  1
Body Type
304
ACVALUE_END
170
5
140
0.125
171
1
172
0
173
0
174
0
175
2
176
1
 91
33
178
0
145
0.0
301
CELL_VALUE
 90
4
  1
Line mount
304
ACVALUE_END
170
5
140
0.125
171
1
172
0
173
1
174
0
175
1
176
1
 91
1
178
0
145
0.0
170
1
171
1
172
0
173
0
174
0
175
1
176
1
 91
33
178
0
145
0.0
301
CELL_VALUE
 90
4
  1
Interface
304
ACVALUE_END
170
5
140
0.125
171
1
172
0
173
0
174
0
175
2
176
1
 91
33
178
0
145
0.0
301
CELL_VALUE
 90
4
  1
None
304
ACVALUE_END
170
5
140
0.125
171
1
172
0
173
1
174
0
175
1
176
1
 91
1
178
0
145
0.0
170
1
171
1
172
0
173
0
174
0
175
1
176
1
 91
33
178
0
145
0.0
301
CELL_VALUE
 90
4
  1
Open Cavity Quantity
304
ACVALUE_END
170
5
140
0.125
171
1
172
0
173
0
174
0
175
2
176
1
 91
33
178
0
145
0.0
301
CELL_VALUE
 90
4
  1
1
304
ACVALUE_END
170
5
140
0.125
171
1
172
0
173
1
174
0
175
1
176
1
 91
1
178
0
145
0.0
170
1
171
1
172
0
173
0
174
0
175
1
176
1
 91
33
178
0
145
0.0
301
CELL_VALUE
 90
4
  1
Weight
304
ACVALUE_END
170
5
140
0.125
171
1
172
0
173
0
174
0
175
1
176
1
 91
33
178
0
145
0.0
301
CELL_VALUE
 90
4
  1
7.930 lb.
304
ACVALUE_END
170
5
140
0.125
171
1
172
0
173
0
174
0
175
1
176
1
 91
33
178
0
145
0.0
301
CELL_VALUE
 90
4
  1
3,597 kg.
304
ACVALUE_END
170
5
140
0.125
171
1
172
0
173
0
174
0
175
1
176
1
 91
33
178
0
145
0.0
301
CELL_VALUE
 90
4
  1
Mounting Hole Thread
304
ACVALUE_END
170
5
140
0.125
171
1
172
0
173
0
174
0
175
1
176
1
 91
33
178
0
145
0.0
301
CELL_VALUE
 90
4
  1
.375-16 UNC - 2B in.
304
ACVALUE_END
170
5
140
0.125
171
1
172
0
173
0
174
0
175
1
176
1
 91
33
178
0
145
0.0
301
CELL_VALUE
 90
4
  1
 
304
ACVALUE_END
170
5
140
0.125
171
1
172
0
173
0
174
0
175
1
176
1
 91
33
178
0
145
0.0
301
CELL_VALUE
 90
4
  1
Mounting Hole Depth
304
ACVALUE_END
170
5
140
0.125
171
1
172
0
173
0
174
0
175
1
176
1
 91
33
178
0
145
0.0
301
CELL_VALUE
 90
4
  1
.62 in.
304
ACVALUE_END
170
5
140
0.125
171
1
172
0
173
0
174
0
175
1
176
1
 91
33
178
0
145
0.0
301
CELL_VALUE
 90
4
  1
15,7 mm
304
ACVALUE_END
170
5
140
0.125
171
1
172
0
173
0
174
0
175
1
176
1
 91
33
178
0
145
0.0
301
CELL_VALUE
 90
4
  1
Mounting Hole Quantity
304
ACVALUE_END
170
5
140
0.125
171
1
172
0
173
0
174
0
175
2
176
1
 91
33
178
0
145
0.0
301
CELL_VALUE
 90
4
  1
2
304
ACVALUE_END
170
5
140
0.125
171
1
172
0
173
1
174
0
175
1
176
1
 91
1
178
0
145
0.0
170
1
171
1
172
0
173
0
174
0
175
1
176
1
 91
33
178
0
145
0.0
301
CELL_VALUE
 90
4
  1
Includes integral cartridge(s)
304
ACVALUE_END
170
5
140
0.125
171
1
172
0
173
0
174
0
175
2
176
1
 91
33
178
0
145
0.0
301
CELL_VALUE
 90
4
  1
Yes (see Included Components)
304
ACVALUE_END
170
5
140
0.125
171
1
172
0
173
1
174
0
175
1
176
1
 91
1
178
0
145
0.0
170
1
  0
ACAD_TABLE
  5
28E
100
AcDbEntity
  8
0
 62
2
  6
CONTINUOUS
100
AcDbBlockReference
  2
*T3
 10
0.52125
 20
1.959
 30
0.0
100
AcDbTable
342
       3D6
343
209
 11
1.0
 21
0.0
 31
0.0
 90
22
 91
5
 92
3
 93
16
 94
0
 95
0
 96
0
 41
0.05
141
0.34375
141
0.344
141
0.25
141
0.25
141
0.25
142
1.3
142
2.0
142
1.3
171
1
172
0
173
0
174
0
175
3
176
1
 91
33
178
0
145
0.0
301
CELL_VALUE
 90
4
  1
Port Headings
304
ACVALUE_END
170
5
140
0.145
171
1
172
0
173
1
174
0
175
1
176
1
 91
1
178
0
145
0.0
170
1
171
1
172
0
173
1
174
0
175
1
176
1
 91
1
178
0
145
0.0
170
1
171
1
172
0
173
0
174
0
175
1
176
1
 91
33
178
0
145
0.0
301
CELL_VALUE
 90
4
  1
Product
304
ACVALUE_END
170
5
140
0.145
171
1
172
0
173
0
174
0
175
1
176
1
 91
33
178
0
145
0.0
301
CELL_VALUE
 90
4
  1
Port
304
ACVALUE_END
170
5
140
0.145
171
1
172
0
173
0
174
0
175
1
176
1
 91
33
178
0
145
0.0
301
CELL_VALUE
 90
4
  1
Size
304
ACVALUE_END
170
5
140
0.145
171
1
172
0
173
0
174
0
175
1
176
1
 91
33
178
0
145
0.0
301
CELL_VALUE
 90
4
  1
H3M
304
ACVALUE_END
170
5
140
0.125
171
1
172
0
173
0
174
0
175
1
176
1
 91
33
178
0
145
0.0
301
CELL_VALUE
 90
4
  1
Ports 1 &  2
304
ACVALUE_END
170
5
140
0.125
171
1
172
0
173
0
174
0
175
1
176
1
 91
33
178
0
145
0.0
301
CELL_VALUE
 90
4
  1
SAE 16
304
ACVALUE_END
170
5
140
0.125
171
1
172
0
173
0
174
0
175
1
176
1
 91
33
178
0
145
0.0
301
CELL_VALUE
 90
4
  1
H3M
304
ACVALUE_END
170
5
140
0.125
171
1
172
0
173
0
174
0
175
1
176
1
 91
33
178
0
145
0.0
301
CELL_VALUE
 90
4
  1
Port 3
304
ACVALUE_END
170
5
140
0.125
171
1
172
0
173
0
174
0
175
1
176
1
 91
33
178
0
145
0.0
301
CELL_VALUE
 90
4
  1
SAE 6
304
ACVALUE_END
170
5
140
0.125
171
1
172
0
173
0
174
0
175
1
176
1
 91
33
178
0
145
0.0
301
CELL_VALUE
 90
4
  1
H3M
304
ACVALUE_END
170
5
140
0.125
171
1
172
0
173
0
174
0
175
1
176
1
 91
33
178
0
145
0.0
301
CELL_VALUE
 90
4
  1
Gage Port
304
ACVALUE_END
170
5
140
0.125
171
1
172
0
173
0
174
0
175
1
176
1
 91
33
178
0
145
0.0
301
CELL_VALUE
 90
4
  1
1/4" NPTF
304
ACVALUE_END
170
5
140
0.125
  0
MTEXT
  5
28F
100
AcDbEntity
  8
0
100
AcDbMText
 62
2
  6
CONTINUOUS
  7
STANDARD
 71
1
 72
1
 10
0.52125
 20
5.75995
 30
0.0
 11
1.0
 21
0.0
 31
0.0
 44
0.6
  3
Notes\P \P1. Important: Carefully consider\P   the maximum system pressure. The\P   pressure rating of the manifold is\P   dependent on the manifold material,\P   with the port type/size a secondary\P   consideration. Manifolds\P   constructed of alu
  1
minum are not\P   rated for pressures higher than\P   3000 psi (210 bar), regardless of\P   the port type/size specified.
 40
0.1
 41
3.04
  0
LINE
  5
290
100
AcDbEntity
  8
0
100
AcDbLine
 62
7
  6
CONTINUOUS
 10
0.30125
 20
0.30125
 11
0.30125
 21
16.69875
  0
LINE
  5
291
100
AcDbEntity
  8
0
100
AcDbLine
 62
7
  6
CONTINUOUS
 10
0.30125
 20
0.30125
 11
21.69875
 21
0.30125
  0
LINE
  5
292
100
AcDbEntity
  8
0
100
AcDbLine
 62
7
  6
CONTINUOUS
 10
0.30125
 20
16.69875
 11
21.69875
 21
16.69875
  0
LINE
  5
293
100
AcDbEntity
  8
0
100
AcDbLine
 62
7
  6
CONTINUOUS
 10
21.69875
 20
0.30125
 11
21.69875
 21
16.69875
  0
LINE
  5
294
100
AcDbEntity
  8
0
100
AcDbLine
 62
7
  6
CONTINUOUS
 10
8.5505105699
 20
10.8978123844
 11
9.585785896
 21
11.8978116184
  0
LINE
  5
295
100
AcDbEntity
  8
0
100
AcDbLine
 62
7
  6
CONTINUOUS
 10
12.414214104
 20
5.3172712749
 11
8.5505105699
 21
5.585220025
  0
LINE
  5
296
100
AcDbEntity
  8
0
100
AcDbLine
 62
7
  6
CONTINUOUS
 10
10.6261700862
 20
5.1974437344
 11
10.6449291715
 21
5.1881771054
  0
LINE
  5
297
100
AcDbEntity
  8
0
100
AcDbLine
 62
7
  6
CONTINUOUS
 10
8.5505105699
 20
5.585220025
 11
8.5505105699
 21
10.8978123844
  0
LINE
  5
298
100
AcDbEntity
  8
0
100
AcDbLine
 62
4
  6
CONTINUOUS
 10
8.7533550963
 20
9.0484858856
 11
8.7533550963
 21
9.0291673729
  0
LINE
  5
299
100
AcDbEntity
  8
0
100
AcDbLine
 62
4
  6
CONTINUOUS
 10
8.7026439886
 20
8.9843879048
 11
8.6953995446
 21
8.9559125328
  0
LINE
  5
29A
100
AcDbEntity
  8
0
100
AcDbLine
 62
4
  6
CONTINUOUS
 10
8.6953995446
 20
9.0525051167
 11
8.7026439886
 21
9.061661976
  0
LINE
  5
29B
100
AcDbEntity
  8
0
100
AcDbLine
 62
4
  6
CONTINUOUS
 10
8.7171328765
 20
9.0027016131
 11
8.7026439886
 21
8.9843879048
  0
LINE
  5
29C
100
AcDbEntity
  8
0
100
AcDbLine
 62
4
  6
CONTINUOUS
 10
8.7533550963
 20
9.0291673729
 11
8.7461106523
 21
9.0200105136
  0
LINE
  5
29D
100
AcDbEntity
  8
0
100
AcDbLine
 62
4
  6
CONTINUOUS
 10
9.2846142862
 20
6.917515657
 11
9.2846142862
 21
6.8016045536
  0
LINE
  5
29E
100
AcDbEntity
  8
0
100
AcDbLine
 62
4
  6
CONTINUOUS
 10
10.6538141667
 20
10.2786441937
 11
10.6683030546
 21
10.2872986422
  0
LINE
  5
29F
100
AcDbEntity
  8
0
100
AcDbLine
 62
4
  6
CONTINUOUS
 10
8.7026439886
 20
9.061661976
 11
8.7171328765
 21
9.0703164246
  0
LINE
  5
2A0
100
AcDbEntity
  8
0
100
AcDbLine
 62
4
  6
CONTINUOUS
 10
10.6972808305
 20
10.2466519944
 11
10.6827919425
 21
10.237997539
  0
LINE
  5
2A1
100
AcDbEntity
  8
0
100
AcDbLine
 62
7
  6
CONTINUOUS
 10
11.5887749907
 20
10.988550606
 11
11.5866693965
 21
10.986554797
  0
LINE
  5
2A2
100
AcDbEntity
  8
0
100
AcDbLine
 62
4
  6
CONTINUOUS
 10
8.7461106523
 20
9.0200105136
 11
8.7171328765
 21
9.0027016131
  0
LINE
  5
2A3
100
AcDbEntity
  8
0
100
AcDbLine
 62
4
  6
CONTINUOUS
 10
10.6972808305
 20
10.1790371821
 11
10.6827919425
 21
10.170382731
  0
LINE
  5
2A4
100
AcDbEntity
  8
0
100
AcDbLine
 62
4
  6
CONTINUOUS
 10
8.7461106523
 20
9.0586475527
 11
8.7533550963
 21
9.0484858856
  0
LINE
  5
2A5
100
AcDbEntity
  8
0
100
AcDbLine
 62
4
  6
CONTINUOUS
 10
10.7045252744
 20
10.2558088468
 11
10.6972808305
 21
10.2466519944
  0
LINE
  5
2A6
100
AcDbEntity
  8
0
100
AcDbLine
 62
4
  6
CONTINUOUS
 10
10.7117697184
 20
10.1973508912
 11
10.6972808305
 21
10.1790371821
  0
LINE
  5
2A7
100
AcDbEntity
  8
0
100
AcDbLine
 62
4
  6
CONTINUOUS
 10
9.9400639718
 20
8.7736921218
 11
9.9400639718
 21
8.7902508498
  0
LINE
  5
2A8
100
AcDbEntity
  8
0
100
AcDbLine
 62
4
  6
CONTINUOUS
 10
9.9980195235
 20
8.7034379731
 11
9.9980195235
 21
8.7199967029
  0
LINE
  5
2A9
100
AcDbEntity
  8
0
100
AcDbLine
 62
4
  6
CONTINUOUS
 10
10.0311369797
 20
8.8004936434
 11
10.0311369797
 21
8.7011412697
  0
LINE
  5
2AA
100
AcDbEntity
  8
0
100
AcDbLine
 62
4
  6
CONTINUOUS
 10
10.0670142401
 20
8.090947816
 11
10.0670142401
 21
8.2068589194
  0
LINE
  5
2AB
100
AcDbEntity
  8
0
100
AcDbLine
 62
4
  6
CONTINUOUS
 10
10.0890925314
 20
8.6971220386
 11
10.0890925314
 21
8.7964744122
  0
LINE
  5
2AC
100
AcDbEntity
  8
0
100
AcDbLine
 62
4
  6
CONTINUOUS
 10
10.1222099875
 20
8.6782666054
 11
10.1222099875
 21
8.7941777088
  0
LINE
  5
2AD
100
AcDbEntity
  8
0
100
AcDbLine
 62
4
  6
CONTINUOUS
 10
10.1249697849
 20
8.1862809606
 11
10.1249697849
 21
8.1034873151
  0
LINE
  5
2AE
100
AcDbEntity
  8
0
100
AcDbLine
 62
4
  6
CONTINUOUS
 10
10.1801655392
 20
8.6742473742
 11
10.1801655392
 21
8.7901584776
  0
LINE
  5
2AF
100
AcDbEntity
  8
0
100
AcDbLine
 62
4
  6
CONTINUOUS
 10
9.9400639718
 20
8.7902508498
 11
9.9566227016
 21
8.8056612261
  0
LINE
  5
2B0
100
AcDbEntity
  8
0
100
AcDbLine
 62
4
  6
CONTINUOUS
 10
9.9814607954
 20
8.688027595
 11
9.9980195235
 21
8.7034379731
  0
LINE
  5
2B1
100
AcDbEntity
  8
0
100
AcDbLine
 62
4
  6
CONTINUOUS
 10
10.0007793209
 20
8.1452174109
 11
10.0449359326
 21
8.1200768336
  0
LINE
  5
2B2
100
AcDbEntity
  8
0
100
AcDbLine
 62
4
  6
CONTINUOUS
 10
8.7316217644
 20
9.0693116168
 11
8.7461106523
 21
9.0586475527
  0
LINE
  5
2B3
100
AcDbEntity
  8
0
100
AcDbLine
 62
4
  6
CONTINUOUS
 10
10.1084110569
 20
8.2039880404
 11
10.1249697849
 21
8.1862809606
  0
LINE
  5
2B4
100
AcDbEntity
  8
0
100
AcDbLine
 62
4
  6
CONTINUOUS
 10
10.2050036408
 20
8.1972893219
 11
10.2381211107
 21
8.0790815142
  0
LINE
  5
2B5
100
AcDbEntity
  8
0
100
AcDbLine
 62
4
  6
CONTINUOUS
 10
10.3043560032
 20
8.6656347363
 11
10.3043560032
 21
8.7815458397
  0
LINE
  5
2B6
100
AcDbEntity
  8
0
100
AcDbLine
 62
4
  6
CONTINUOUS
 10
10.304356023
 20
8.0744881074
 11
10.304356023
 21
8.1903992108
  0
LINE
  5
2B7
100
AcDbEntity
  8
0
100
AcDbLine
 62
4
  6
CONTINUOUS
 10
10.3540321944
 20
8.7367039605
 11
10.3540321944
 21
8.6621896807
  0
LINE
  5
2B8
100
AcDbEntity
  8
0
100
AcDbLine
 62
4
  6
CONTINUOUS
 10
10.3623115644
 20
8.3254733045
 11
10.3623115644
 21
8.4413844079
  0
LINE
  5
2B9
100
AcDbEntity
  8
0
100
AcDbLine
 62
4
  6
CONTINUOUS
 10
10.3705909353
 20
8.0698947006
 11
10.3705909353
 21
8.1858058041
  0
LINE
  5
2BA
100
AcDbEntity
  8
0
100
AcDbLine
 62
4
  6
CONTINUOUS
 10
10.4202671161
 20
8.4373651768
 11
10.4202671161
 21
8.3214540733
  0
LINE
  5
2BB
100
AcDbEntity
  8
0
100
AcDbLine
 62
4
  6
CONTINUOUS
 10
10.4589041596
 20
8.6631961501
 11
10.4589041596
 21
8.729431065
  0
LINE
  5
2BC
100
AcDbEntity
  8
0
100
AcDbLine
 62
4
  6
CONTINUOUS
 10
10.1718861846
 20
8.0836749219
 11
10.2050036408
 21
8.1972893219
  0
LINE
  5
2BD
100
AcDbEntity
  8
0
100
AcDbLine
 62
4
  6
CONTINUOUS
 10
10.4037083855
 20
8.6311467433
 11
10.4368258278
 21
8.73924157
  0
LINE
  5
2BE
100
AcDbEntity
  8
0
100
AcDbLine
 62
7
  6
CONTINUOUS
 10
12.414214104
 20
10.6298636342
 11
13.4494894301
 21
11.6298628682
  0
LINE
  5
2BF
100
AcDbEntity
  8
0
100
AcDbLine
 62
4
  6
CONTINUOUS
 10
10.0725338102
 20
8.68171166
 11
10.0890925314
 21
8.6971220386
  0
LINE
  5
2C0
100
AcDbEntity
  8
0
100
AcDbLine
 62
4
  6
CONTINUOUS
 10
9.9400639718
 20
8.6991778394
 11
9.9483433367
 21
8.6903242986
  0
LINE
  5
2C1
100
AcDbEntity
  8
0
100
AcDbLine
 62
4
  6
CONTINUOUS
 10
10.5610163393
 20
8.056688654
 11
10.5444576181
 21
8.074395735
  0
LINE
  5
2C2
100
AcDbEntity
  8
0
100
AcDbLine
 62
4
  6
CONTINUOUS
 10
10.0311369797
 20
8.7011412697
 11
10.0476957077
 21
8.6834341882
  0
LINE
  5
2C3
100
AcDbEntity
  8
0
100
AcDbLine
 62
4
  6
CONTINUOUS
 10
10.6576088886
 20
8.049989938
 11
10.6410501675
 21
8.067697019
  0
LINE
  5
2C4
100
AcDbEntity
  8
0
100
AcDbLine
 62
4
  6
CONTINUOUS
 10
9.9897401595
 20
8.8033645226
 11
9.9980195235
 21
8.7945109792
  0
LINE
  5
2C5
100
AcDbEntity
  8
0
100
AcDbLine
 62
4
  6
CONTINUOUS
 10
10.1222099875
 20
8.7941777088
 11
10.1801655392
 21
8.6742473742
  0
LINE
  5
2C6
100
AcDbEntity
  8
0
100
AcDbLine
 62
4
  6
CONTINUOUS
 10
10.5003009719
 20
8.3904179864
 11
10.5003009719
 21
8.415256082
  0
LINE
  5
2C7
100
AcDbEntity
  8
0
100
AcDbLine
 62
4
  6
CONTINUOUS
 10
10.5030607634
 20
8.3239916793
 11
10.5030607634
 21
8.3653885021
  0
LINE
  5
2C8
100
AcDbEntity
  8
0
100
AcDbLine
 62
7
  6
CONTINUOUS
 10
10.5037662907
 20
5.4497612807
 11
10.5037662907
 21
5.354097809
  0
LINE
  5
2C9
100
AcDbEntity
  8
0
100
AcDbLine
 62
4
  6
CONTINUOUS
 10
10.5085803231
 20
8.767382835
 11
10.5085803231
 21
8.6514717316
  0
LINE
  5
2CA
100
AcDbEntity
  8
0
100
AcDbLine
 62
4
  6
CONTINUOUS
 10
10.5361782195
 20
8.313415611
 11
10.5361782195
 21
8.4293267145
  0
LINE
  5
2CB
100
AcDbEntity
  8
0
100
AcDbLine
 62
4
  6
CONTINUOUS
 10
10.5416978207
 20
8.6491750253
 11
10.5416978207
 21
8.7319686726
  0
LINE
  5
2CC
100
AcDbEntity
  8
0
100
AcDbLine
 62
4
  6
CONTINUOUS
 10
10.5444576181
 20
8.074395735
 11
10.5444576181
 21
8.1571893806
  0
LINE
  5
2CD
100
AcDbEntity
  8
0
100
AcDbLine
 62
4
  6
CONTINUOUS
 10
10.5803348183
 20
8.7210098202
 11
10.5803348183
 21
8.7044510922
  0
LINE
  5
2CE
100
AcDbEntity
  8
0
100
AcDbLine
 62
4
  6
CONTINUOUS
 10
10.6024131318
 20
8.4247333077
 11
10.6024131318
 21
8.3088222043
  0
LINE
  5
2CF
100
AcDbEntity
  8
0
100
AcDbLine
 62
4
  6
CONTINUOUS
 10
10.6162120936
 20
8.6522868079
 11
10.6162120936
 21
8.6771249026
  0
LINE
  5
2D0
100
AcDbEntity
  8
0
100
AcDbLine
 62
4
  6
CONTINUOUS
 10
10.6410501675
 20
8.067697019
 11
10.6410501675
 21
8.1504906645
  0
LINE
  5
2D1
100
AcDbEntity
  8
0
100
AcDbLine
 62
7
  6
CONTINUOUS
 10
10.6646141236
 20
7.3801583865
 11
10.6646141236
 21
7.1604165779
  0
LINE
  5
2D2
100
AcDbEntity
  8
0
100
AcDbLine
 62
4
  6
CONTINUOUS
 10
10.6658882571
 20
8.6405623893
 11
10.6658882571
 21
8.7067973085
  0
LINE
  5
2D3
100
AcDbEntity
  8
0
100
AcDbLine
 62
7
  6
CONTINUOUS
 10
10.6770343952
 20
5.4377450968
 11
10.6770343952
 21
5.1867339582
  0
LINE
  5
2D4
100
AcDbEntity
  8
0
100
AcDbLine
 62
4
  6
CONTINUOUS
 10
10.6990056994
 20
8.7210593342
 11
10.6990056994
 21
8.6465450518
  0
LINE
  5
2D5
100
AcDbEntity
  8
0
100
AcDbLine
 62
4
  6
CONTINUOUS
 10
10.6990057192
 20
8.1464714334
 11
10.6990057192
 21
8.0636777878
  0
LINE
  5
2D6
100
AcDbEntity
  8
0
100
AcDbLine
 62
4
  6
CONTINUOUS
 10
10.7045252744
 20
10.2654681032
 11
10.7045252744
 21
10.2558088468
  0
LINE
  5
2D7
100
AcDbEntity
  8
0
100
AcDbLine
 62
7
  6
CONTINUOUS
 10
10.7090271906
 20
5.4355263889
 11
10.7090271906
 21
5.1784536239
  0
LINE
  5
2D8
100
AcDbEntity
  8
0
100
AcDbLine
 62
4
  6
CONTINUOUS
 10
10.7117697184
 20
10.207010151
 11
10.7117697184
 21
10.1973508912
  0
LINE
  5
2D9
100
AcDbEntity
  8
0
100
AcDbLine
 62
4
  6
CONTINUOUS
 10
10.7321231615
 20
8.0448223556
 11
10.7321231615
 21
8.160733459
  0
LINE
  5
2DA
100
AcDbEntity
  8
0
100
AcDbLine
 62
4
  6
CONTINUOUS
 10
10.7486819182
 20
8.6348206294
 11
10.7486819182
 21
8.7176142767
  0
LINE
  5
2DB
100
AcDbEntity
  8
0
100
AcDbLine
 62
4
  6
CONTINUOUS
 10
10.5692956757
 20
8.3607950953
 11
10.6024131318
 21
8.4247333077
  0
LINE
  5
2DC
100
AcDbEntity
  8
0
100
AcDbLine
 62
4
  6
CONTINUOUS
 10
10.1249697849
 20
8.1034873151
 11
10.1084110569
 21
8.088076937
  0
LINE
  5
2DD
100
AcDbEntity
  8
0
100
AcDbLine
 62
4
  6
CONTINUOUS
 10
10.4589041596
 20
8.729431065
 11
10.4754628807
 21
8.7365620813
  0
LINE
  5
2DE
100
AcDbEntity
  8
0
100
AcDbLine
 62
4
  6
CONTINUOUS
 10
10.6162120936
 20
8.6771249026
 11
10.6327708147
 21
8.6842559154
  0
LINE
  5
2DF
100
AcDbEntity
  8
0
100
AcDbLine
 62
4
  6
CONTINUOUS
 10
10.7735199921
 20
8.0419514756
 11
10.7321231615
 21
8.0448223556
  0
LINE
  5
2E0
100
AcDbEntity
  8
0
100
AcDbLine
 62
4
  6
CONTINUOUS
 10
10.682446998
 20
8.0482674092
 11
10.6576088886
 21
8.049989938
  0
LINE
  5
2E1
100
AcDbEntity
  8
0
100
AcDbLine
 62
4
  6
CONTINUOUS
 10
10.5941337816
 20
8.0543919516
 11
10.5610163393
 21
8.056688654
  0
LINE
  5
2E2
100
AcDbEntity
  8
0
100
AcDbLine
 62
4
  6
CONTINUOUS
 10
10.1084110569
 20
8.088076937
 11
10.0670142401
 21
8.090947816
  0
LINE
  5
2E3
100
AcDbEntity
  8
0
100
AcDbLine
 62
4
  6
CONTINUOUS
 10
10.3705909353
 20
8.0698947006
 11
10.4202671265
 21
8.0664496451
  0
LINE
  5
2E4
100
AcDbEntity
  8
0
100
AcDbLine
 62
4
  6
CONTINUOUS
 10
10.8369951543
 20
8.0375494582
 11
10.8866713178
 21
8.0341044045
  0
LINE
  5
2E5
100
AcDbEntity
  8
0
100
AcDbLine
 62
4
  6
CONTINUOUS
 10
10.1829253367
 20
8.1160268137
 11
10.2270819449
 21
8.1129645425
  0
LINE
  5
2E6
100
AcDbEntity
  8
0
100
AcDbLine
 62
4
  6
CONTINUOUS
 10
10.8701125967
 20
8.101487675
 11
10.8369951543
 21
8.1037843774
  0
LINE
  5
2E7
100
AcDbEntity
  8
0
100
AcDbLine
 62
4
  6
CONTINUOUS
 10
10.4037084053
 20
8.1338329155
 11
10.3705909353
 21
8.1361296198
  0
LINE
  5
2E8
100
AcDbEntity
  8
0
100
AcDbLine
 62
4
  6
CONTINUOUS
 10
10.0670142401
 20
8.2068589194
 11
10.1084110569
 21
8.2039880404
  0
LINE
  5
2E9
100
AcDbEntity
  8
0
100
AcDbLine
 62
4
  6
CONTINUOUS
 10
10.2712385531
 20
8.1926959152
 11
10.3374734654
 21
8.1881025084
  0
LINE
  5
2EA
100
AcDbEntity
  8
0
100
AcDbLine
 62
4
  6
CONTINUOUS
 10
10.3705909353
 20
8.1858058041
 11
10.4202671265
 21
8.1823607485
  0
LINE
  5
2EB
100
AcDbEntity
  8
0
100
AcDbLine
 62
4
  6
CONTINUOUS
 10
10.5610163393
 20
8.1725997575
 11
10.5941337816
 21
8.170303055
  0
LINE
  5
2EC
100
AcDbEntity
  8
0
100
AcDbLine
 62
4
  6
CONTINUOUS
 10
10.6576088886
 20
8.1659010414
 11
10.682446998
 21
8.1641785127
  0
LINE
  5
2ED
100
AcDbEntity
  8
0
100
AcDbLine
 62
4
  6
CONTINUOUS
 10
10.7321231615
 20
8.160733459
 11
10.7735199921
 21
8.1578625791
  0
LINE
  5
2EE
100
AcDbEntity
  8
0
100
AcDbLine
 62
4
  6
CONTINUOUS
 10
10.8369951543
 20
8.1534605616
 11
10.8866713178
 21
8.150015508
  0
LINE
  5
2EF
100
AcDbEntity
  8
0
100
AcDbLine
 62
4
  6
CONTINUOUS
 10
10.9197887602
 20
8.1035621974
 11
10.9639453684
 21
8.0784216186
  0
LINE
  5
2F0
100
AcDbEntity
  8
0
100
AcDbLine
 62
4
  6
CONTINUOUS
 10
9.9980195235
 20
8.7199967029
 11
9.9400639718
 21
8.7736921218
  0
LINE
  5
2F1
100
AcDbEntity
  8
0
100
AcDbLine
 62
4
  6
CONTINUOUS
 10
10.682446998
 20
8.1641785127
 11
10.6990057192
 21
8.1464714334
  0
LINE
  5
2F2
100
AcDbEntity
  8
0
100
AcDbLine
 62
4
  6
CONTINUOUS
 10
10.5030607634
 20
8.3653885021
 11
10.4865020284
 21
8.3830955858
  0
LINE
  5
2F3
100
AcDbEntity
  8
0
100
AcDbLine
 62
4
  6
CONTINUOUS
 10
10.7735199921
 20
8.1578625791
 11
10.7900787132
 21
8.1401554998
  0
LINE
  5
2F4
100
AcDbEntity
  8
0
100
AcDbLine
 62
4
  6
CONTINUOUS
 10
10.3457528338
 20
8.7455575036
 11
10.3540321944
 21
8.7367039605
  0
LINE
  5
2F5
100
AcDbEntity
  8
0
100
AcDbLine
 62
4
  6
CONTINUOUS
 10
10.5003009719
 20
8.415256082
 11
10.4865020284
 21
8.43277177
  0
LINE
  5
2F6
100
AcDbEntity
  8
0
100
AcDbLine
 62
4
  6
CONTINUOUS
 10
10.5361782195
 20
8.4293267145
 11
10.5692956757
 21
8.3607950953
  0
LINE
  5
2F7
100
AcDbEntity
  8
0
100
AcDbLine
 62
4
  6
CONTINUOUS
 10
10.3871496643
 20
8.7426866237
 11
10.4119877737
 21
8.6581704476
  0
LINE
  5
2F8
100
AcDbEntity
  8
0
100
AcDbLine
 62
4
  6
CONTINUOUS
 10
10.7817993605
 20
8.6408032919
 11
10.7817993605
 21
8.7484350304
  0
LINE
  5
2F9
100
AcDbEntity
  8
0
100
AcDbLine
 62
4
  6
CONTINUOUS
 10
10.7900787132
 20
8.1401554998
 11
10.7900787132
 21
8.0573618542
  0
LINE
  5
2FA
100
AcDbEntity
  8
0
100
AcDbLine
 62
4
  6
CONTINUOUS
 10
10.8369951543
 20
8.0375494582
 11
10.8369951543
 21
8.1534605616
  0
LINE
  5
2FB
100
AcDbEntity
  8
0
100
AcDbLine
 62
4
  6
CONTINUOUS
 10
10.8563136334
 20
8.6273563446
 11
10.8563136334
 21
8.7101499919
  0
LINE
  5
2FC
100
AcDbEntity
  8
0
100
AcDbLine
 62
4
  6
CONTINUOUS
 10
10.8563136334
 20
8.7349880806
 11
10.8563136334
 21
8.7432674481
  0
LINE
  5
2FD
100
AcDbEntity
  8
0
100
AcDbLine
 62
4
  6
CONTINUOUS
 10
10.9004702416
 20
8.6325734383
 11
10.9004702416
 21
8.6988083532
  0
LINE
  5
2FE
100
AcDbEntity
  8
0
100
AcDbLine
 62
4
  6
CONTINUOUS
 10
10.9749845697
 20
8.6688026749
 11
10.9749845697
 21
8.693640767
  0
LINE
  5
2FF
100
AcDbEntity
  8
0
100
AcDbLine
 62
4
  6
CONTINUOUS
 10
11.024660678
 20
8.6239608023
 11
11.024660678
 21
8.648798897
  0
LINE
  5
300
100
AcDbEntity
  8
0
100
AcDbLine
 62
4
  6
CONTINUOUS
 10
10.859073411
 20
8.7430760568
 11
10.8563136334
 21
8.7349880806
  0
LINE
  5
301
100
AcDbEntity
  8
0
100
AcDbLine
 62
4
  6
CONTINUOUS
 10
10.9004702416
 20
8.6988083532
 11
10.9087495745
 21
8.706513547
  0
LINE
  5
302
100
AcDbEntity
  8
0
100
AcDbLine
 62
4
  6
CONTINUOUS
 10
10.4947814028
 20
8.31628649
 11
10.5030607634
 21
8.3239916793
  0
LINE
  5
303
100
AcDbEntity
  8
0
100
AcDbLine
 62
4
  6
CONTINUOUS
 10
10.9749845697
 20
8.693640767
 11
10.9832639027
 21
8.7013459608
  0
LINE
  5
304
100
AcDbEntity
  8
0
100
AcDbLine
 62
4
  6
CONTINUOUS
 10
11.016381345
 20
8.6162556111
 11
11.024660678
 21
8.6239608023
  0
LINE
  5
305
100
AcDbEntity
  8
0
100
AcDbLine
 62
4
  6
CONTINUOUS
 10
10.5444576181
 20
8.1571893806
 11
10.5610163393
 21
8.1725997575
  0
LINE
  5
306
100
AcDbEntity
  8
0
100
AcDbLine
 62
4
  6
CONTINUOUS
 10
10.6410501675
 20
8.1504906645
 11
10.6576088886
 21
8.1659010414
  0
LINE
  5
307
100
AcDbEntity
  8
0
100
AcDbLine
 62
4
  6
CONTINUOUS
 10
10.4865020284
 20
8.3830955858
 11
10.5003009719
 21
8.3904179864
  0
LINE
  5
308
100
AcDbEntity
  8
0
100
AcDbLine
 62
4
  6
CONTINUOUS
 10
10.0449359326
 20
8.164233447
 11
10.0007793209
 21
8.1452174109
  0
LINE
  5
309
100
AcDbEntity
  8
0
100
AcDbLine
 62
4
  6
CONTINUOUS
 10
10.4533845723
 20
8.31915737
 11
10.4947814028
 21
8.31628649
  0
LINE
  5
30A
100
AcDbEntity
  8
0
100
AcDbLine
 62
4
  6
CONTINUOUS
 10
10.4865020284
 20
8.3830955858
 11
10.4699433003
 21
8.3842439375
  0
LINE
  5
30B
100
AcDbEntity
  8
0
100
AcDbLine
 62
4
  6
CONTINUOUS
 10
10.3623115644
 20
8.3917082237
 11
10.4202671161
 21
8.3876889926
  0
LINE
  5
30C
100
AcDbEntity
  8
0
100
AcDbLine
 62
4
  6
CONTINUOUS
 10
10.4865020284
 20
8.43277177
 11
10.4533845723
 21
8.4350684734
  0
LINE
  5
30D
100
AcDbEntity
  8
0
100
AcDbLine
 62
4
  6
CONTINUOUS
 10
10.4754628807
 20
8.653768434
 11
10.4589041596
 21
8.6631961501
  0
LINE
  5
30E
100
AcDbEntity
  8
0
100
AcDbLine
 62
4
  6
CONTINUOUS
 10
10.6327708147
 20
8.6428590917
 11
10.6162120936
 21
8.6522868079
  0
LINE
  5
30F
100
AcDbEntity
  8
0
100
AcDbLine
 62
4
  6
CONTINUOUS
 10
10.6990056994
 20
8.6465450518
 11
10.7072850876
 21
8.6376915094
  0
LINE
  5
310
100
AcDbEntity
  8
0
100
AcDbLine
 62
4
  6
CONTINUOUS
 10
10.7900787487
 20
8.6319497495
 11
10.7817993605
 21
8.6408032919
  0
LINE
  5
311
100
AcDbEntity
  8
0
100
AcDbLine
 62
4
  6
CONTINUOUS
 10
10.9087495745
 20
8.6237198997
 11
10.9004702416
 21
8.6325734383
  0
LINE
  5
312
100
AcDbEntity
  8
0
100
AcDbLine
 62
4
  6
CONTINUOUS
 10
10.574815263
 20
8.7296719702
 11
10.5803348183
 21
8.7210098202
  0
LINE
  5
313
100
AcDbEntity
  8
0
100
AcDbLine
 62
4
  6
CONTINUOUS
 10
10.6658882571
 20
8.7067973085
 11
10.6576089241
 21
8.7239302103
  0
LINE
  5
314
100
AcDbEntity
  8
0
100
AcDbLine
 62
4
  6
CONTINUOUS
 10
10.6990057192
 20
8.0636777878
 11
10.682446998
 21
8.0482674092
  0
LINE
  5
315
100
AcDbEntity
  8
0
100
AcDbLine
 62
4
  6
CONTINUOUS
 10
10.7900787132
 20
8.0573618542
 11
10.7735199921
 21
8.0419514756
  0
LINE
  5
316
100
AcDbEntity
  8
0
100
AcDbLine
 62
4
  6
CONTINUOUS
 10
10.3871496643
 20
8.6322950945
 11
10.4037083855
 21
8.6311467433
  0
LINE
  5
317
100
AcDbEntity
  8
0
100
AcDbLine
 62
4
  6
CONTINUOUS
 10
10.9418671274
 20
8.6214231897
 11
10.9087495745
 21
8.6237198997
  0
LINE
  5
318
100
AcDbEntity
  8
0
100
AcDbLine
 62
4
  6
CONTINUOUS
 10
10.8066374699
 20
8.6308013983
 11
10.7900787487
 21
8.6319497495
  0
LINE
  5
319
100
AcDbEntity
  8
0
100
AcDbLine
 62
4
  6
CONTINUOUS
 10
10.6658882571
 20
8.6405623893
 11
10.6327708147
 21
8.6428590917
  0
LINE
  5
31A
100
AcDbEntity
  8
0
100
AcDbLine
 62
4
  6
CONTINUOUS
 10
10.5085803231
 20
8.6514717316
 11
10.4754628807
 21
8.653768434
  0
LINE
  5
31B
100
AcDbEntity
  8
0
100
AcDbLine
 62
4
  6
CONTINUOUS
 10
9.9483433367
 20
8.6903242986
 11
9.9814607954
 21
8.688027595
  0
LINE
  5
31C
100
AcDbEntity
  8
0
100
AcDbLine
 62
4
  6
CONTINUOUS
 10
10.0476957077
 20
8.6834341882
 11
10.0725338102
 21
8.68171166
  0
LINE
  5
31D
100
AcDbEntity
  8
0
100
AcDbLine
 62
4
  6
CONTINUOUS
 10
10.7072850876
 20
8.6376915094
 11
10.7486819182
 21
8.6348206294
  0
LINE
  5
31E
100
AcDbEntity
  8
0
100
AcDbLine
 62
4
  6
CONTINUOUS
 10
10.9832639027
 20
8.6185523135
 11
11.016381345
 21
8.6162556111
  0
LINE
  5
31F
100
AcDbEntity
  8
0
100
AcDbLine
 62
4
  6
CONTINUOUS
 10
10.6327708147
 20
8.6842559154
 11
10.6658882571
 21
8.681959213
  0
LINE
  5
320
100
AcDbEntity
  8
0
100
AcDbLine
 62
4
  6
CONTINUOUS
 10
10.6576089241
 20
8.7239302103
 11
10.6162120936
 21
8.7268010902
  0
LINE
  5
321
100
AcDbEntity
  8
0
100
AcDbLine
 62
4
  6
CONTINUOUS
 10
10.3043560032
 20
8.7484283836
 11
10.3457528338
 21
8.7455575036
  0
LINE
  5
322
100
AcDbEntity
  8
0
100
AcDbLine
 62
4
  6
CONTINUOUS
 10
10.4754628807
 20
8.7365620813
 11
10.5085803231
 21
8.7342653789
  0
LINE
  5
323
100
AcDbEntity
  8
0
100
AcDbLine
 62
4
  6
CONTINUOUS
 10
10.5416978207
 20
8.7319686726
 11
10.574815263
 21
8.7296719702
  0
LINE
  5
324
100
AcDbEntity
  8
0
100
AcDbLine
 62
4
  6
CONTINUOUS
 10
10.9087495745
 20
8.706513547
 11
10.9418671274
 21
8.7042168369
  0
LINE
  5
325
100
AcDbEntity
  8
0
100
AcDbLine
 62
4
  6
CONTINUOUS
 10
10.9832639027
 20
8.7013459608
 11
11.016381345
 21
8.6990492584
  0
LINE
  5
326
100
AcDbEntity
  8
0
100
AcDbLine
 62
4
  6
CONTINUOUS
 10
9.9566227016
 20
8.8056612261
 11
9.9897401595
 21
8.8033645226
  0
LINE
  5
327
100
AcDbEntity
  8
0
100
AcDbLine
 62
4
  6
CONTINUOUS
 10
10.8563136334
 20
8.7432674481
 11
10.859073411
 21
8.7430760568
  0
LINE
  5
328
100
AcDbEntity
  8
0
100
AcDbLine
 62
4
  6
CONTINUOUS
 10
8.6953995446
 20
8.9559125328
 11
8.7533550963
 21
8.9518933017
  0
LINE
  5
329
100
AcDbEntity
  8
0
100
AcDbLine
 62
4
  6
CONTINUOUS
 10
12.1727326332
 20
8.7147586641
 11
12.2306881849
 21
8.7107394329
  0
LINE
  5
32A
100
AcDbEntity
  8
0
100
AcDbLine
 62
4
  6
CONTINUOUS
 10
11.016381345
 20
8.6548926467
 11
10.9832639027
 21
8.6627089252
  0
LINE
  5
32B
100
AcDbEntity
  8
0
100
AcDbLine
 62
4
  6
CONTINUOUS
 10
10.9832639027
 20
8.6627089252
 11
10.9749845697
 21
8.6688026749
  0
LINE
  5
32C
100
AcDbEntity
  8
0
100
AcDbLine
 62
4
  6
CONTINUOUS
 10
11.024660678
 20
8.648798897
 11
11.016381345
 21
8.6548926467
  0
LINE
  5
32D
100
AcDbEntity
  8
0
100
AcDbLine
 62
4
  6
CONTINUOUS
 10
10.9749845697
 20
8.6274058521
 11
10.9832639027
 21
8.6185523135
  0
LINE
  5
32E
100
AcDbEntity
  8
0
100
AcDbLine
 62
4
  6
CONTINUOUS
 10
11.016381345
 20
8.6990492584
 11
11.024660678
 21
8.6901957172
  0
LINE
  5
32F
100
AcDbEntity
  8
0
100
AcDbLine
 62
7
  6
CONTINUOUS
 10
11.3556720646
 20
5.3906814146
 11
11.3556720646
 21
5.1336086496
  0
LINE
  5
330
100
AcDbEntity
  8
0
100
AcDbLine
 62
7
  6
CONTINUOUS
 10
11.3993750235
 20
5.3876506041
 11
11.3993750235
 21
5.1366394655
  0
LINE
  5
331
100
AcDbEntity
  8
0
100
AcDbLine
 62
4
  6
CONTINUOUS
 10
12.1799770771
 20
8.8205081073
 11
12.194465965
 21
8.8291625558
  0
LINE
  5
332
100
AcDbEntity
  8
0
100
AcDbLine
 62
4
  6
CONTINUOUS
 10
12.2234437409
 20
8.7788566448
 11
12.194465965
 21
8.7615477443
  0
LINE
  5
333
100
AcDbEntity
  8
0
100
AcDbLine
 62
4
  6
CONTINUOUS
 10
10.9639453684
 20
8.0784216186
 11
10.9197887602
 21
8.059405584
  0
LINE
  5
334
100
AcDbEntity
  8
0
100
AcDbLine
 62
4
  6
CONTINUOUS
 10
8.7171328765
 20
9.0703164246
 11
8.7316217644
 21
9.0693116168
  0
LINE
  5
335
100
AcDbEntity
  8
0
100
AcDbLine
 62
4
  6
CONTINUOUS
 10
12.194465965
 20
8.8291625558
 11
12.208954853
 21
8.828157748
  0
LINE
  5
336
100
AcDbEntity
  8
0
100
AcDbLine
 62
4
  6
CONTINUOUS
 10
12.5830933975
 20
6.7554183725
 11
12.5792111151
 21
6.7613276343
  0
LINE
  5
337
100
AcDbEntity
  8
0
100
AcDbLine
 62
4
  6
CONTINUOUS
 10
12.5869756798
 20
6.8750794729
 11
12.5908579622
 21
6.8691702137
  0
LINE
  5
338
100
AcDbEntity
  8
0
100
AcDbLine
 62
7
  6
CONTINUOUS
 10
11.8727517929
 20
5.3548218137
 11
11.8727517929
 21
5.259158342
  0
LINE
  5
339
100
AcDbEntity
  8
0
100
AcDbLine
 62
4
  6
CONTINUOUS
 10
12.1727326332
 20
8.811351248
 11
12.1799770771
 21
8.8205081073
  0
LINE
  5
33A
100
AcDbEntity
  8
0
100
AcDbLine
 62
4
  6
CONTINUOUS
 10
12.194465965
 20
8.7615477443
 11
12.1799770771
 21
8.743234036
  0
LINE
  5
33B
100
AcDbEntity
  8
0
100
AcDbLine
 62
4
  6
CONTINUOUS
 10
12.2306881849
 20
8.7880135042
 11
12.2234437409
 21
8.7788566448
  0
LINE
  5
33C
100
AcDbEntity
  8
0
100
AcDbLine
 62
7
  6
CONTINUOUS
 10
10.577370447
 20
7.2372734332
 11
10.5789685098
 21
7.2387868395
  0
LINE
  5
33D
100
AcDbEntity
  8
0
100
AcDbLine
 62
7
  6
CONTINUOUS
 10
10.5789620829
 20
7.2387822394
 11
10.5677025552
 21
7.2283040668
  0
LINE
  5
33E
100
AcDbEntity
  8
0
100
AcDbLine
 62
4
  6
CONTINUOUS
 10
10.6538141667
 20
10.1820516054
 11
10.6465697227
 21
10.1922132682
  0
LINE
  5
33F
100
AcDbEntity
  8
0
100
AcDbLine
 62
4
  6
CONTINUOUS
 10
10.6972808305
 20
10.2273334749
 11
10.7117697184
 21
10.207010151
  0
LINE
  5
340
100
AcDbEntity
  8
0
100
AcDbLine
 62
4
  6
CONTINUOUS
 10
10.6972808305
 20
10.2756297703
 11
10.7045252744
 21
10.2654681032
  0
LINE
  5
341
100
AcDbEntity
  8
0
100
AcDbLine
 62
7
  6
CONTINUOUS
 10
11.8844619565
 20
5.3540097111
 11
11.8844619565
 21
5.2704694921
  0
LINE
  5
342
100
AcDbEntity
  8
0
100
AcDbLine
 62
4
  6
CONTINUOUS
 10
12.1799770771
 20
8.743234036
 11
12.1727326332
 21
8.7147586641
  0
LINE
  5
343
100
AcDbEntity
  8
0
100
AcDbLine
 62
4
  6
CONTINUOUS
 10
12.208954853
 20
8.828157748
 11
12.2234437409
 21
8.8174936839
  0
LINE
  5
344
100
AcDbEntity
  8
0
100
AcDbLine
 62
4
  6
CONTINUOUS
 10
10.6683030546
 20
10.1713875387
 11
10.6538141667
 21
10.1820516054
  0
LINE
  5
345
100
AcDbEntity
  8
0
100
AcDbLine
 62
4
  6
CONTINUOUS
 10
12.5792111151
 20
6.7613276343
 11
12.5753288327
 21
6.7768961542
  0
LINE
  5
346
100
AcDbEntity
  8
0
100
AcDbLine
 62
4
  6
CONTINUOUS
 10
12.5908579622
 20
6.8691702137
 11
12.5927991034
 21
6.861385949
  0
LINE
  5
347
100
AcDbEntity
  8
0
100
AcDbLine
 62
4
  6
CONTINUOUS
 10
12.2306881849
 20
8.8073320168
 11
12.2306881849
 21
8.7880135042
  0
LINE
  5
348
100
AcDbEntity
  8
0
100
AcDbLine
 62
7
  6
CONTINUOUS
 10
12.414214104
 20
5.3172712749
 11
12.414214104
 21
10.6298636342
  0
LINE
  5
349
100
AcDbEntity
  8
0
100
AcDbLine
 62
4
  6
CONTINUOUS
 10
10.6827919425
 20
10.237997539
 11
10.6972808305
 21
10.2273334749
  0
LINE
  5
34A
100
AcDbEntity
  8
0
100
AcDbLine
 62
4
  6
CONTINUOUS
 10
10.6827919425
 20
10.2862938344
 11
10.6972808305
 21
10.2756297703
  0
LINE
  5
34B
100
AcDbEntity
  8
0
100
AcDbLine
 62
4
  6
CONTINUOUS
 10
12.2234437409
 20
8.8174936839
 11
12.2306881849
 21
8.8073320168
  0
LINE
  5
34C
100
AcDbEntity
  8
0
100
AcDbLine
 62
4
  6
CONTINUOUS
 10
12.5753288327
 20
6.7768961542
 11
12.5733876915
 21
6.8039989316
  0
LINE
  5
34D
100
AcDbEntity
  8
0
100
AcDbLine
 62
4
  6
CONTINUOUS
 10
12.5927991034
 20
6.8227489168
 11
12.5927991034
 21
6.7841118829
  0
LINE
  5
34E
100
AcDbEntity
  8
0
100
AcDbLine
 62
4
  6
CONTINUOUS
 10
12.5733876915
 20
6.8039989316
 11
12.5753288327
 21
6.834851706
  0
LINE
  5
34F
100
AcDbEntity
  8
0
100
AcDbLine
 62
4
  6
CONTINUOUS
 10
10.6827919425
 20
10.170382731
 11
10.6683030546
 21
10.1713875387
  0
LINE
  5
350
100
AcDbEntity
  8
0
100
AcDbLine
 62
4
  6
CONTINUOUS
 10
10.6683030546
 20
10.2390023468
 11
10.6827919425
 21
10.237997539
  0
LINE
  5
351
100
AcDbEntity
  8
0
100
AcDbLine
 62
4
  6
CONTINUOUS
 10
12.5753288327
 20
6.834851706
 11
12.5792111151
 21
6.8579202225
  0
LINE
  5
352
100
AcDbEntity
  8
0
100
AcDbLine
 62
4
  6
CONTINUOUS
 10
12.5927991034
 20
6.7841118829
 11
12.5908579622
 21
6.7725776255
  0
LINE
  5
353
100
AcDbEntity
  8
0
100
AcDbLine
 62
4
  6
CONTINUOUS
 10
12.5792111151
 20
6.8579202225
 11
12.5830933975
 21
6.8713294759
  0
LINE
  5
354
100
AcDbEntity
  8
0
100
AcDbLine
 62
4
  6
CONTINUOUS
 10
10.6683030546
 20
10.2872986422
 11
10.6827919425
 21
10.2862938344
  0
LINE
  5
355
100
AcDbEntity
  8
0
100
AcDbLine
 62
4
  6
CONTINUOUS
 10
12.5908579622
 20
6.7725776255
 11
12.5869756798
 21
6.7591683695
  0
LINE
  5
356
100
AcDbEntity
  8
0
100
AcDbLine
 62
4
  6
CONTINUOUS
 10
12.5830933975
 20
6.8713294759
 11
12.5869756798
 21
6.8750794729
  0
LINE
  5
357
100
AcDbEntity
  8
0
100
AcDbLine
 62
7
  6
CONTINUOUS
 10
12.7053852895
 20
7.1971283966
 11
12.7060702823
 21
7.1977778154
  0
LINE
  5
358
100
AcDbEntity
  8
0
100
AcDbLine
 62
7
  6
CONTINUOUS
 10
12.414214104
 20
10.6298636342
 11
8.5505105699
 21
10.8978123844
  0
LINE
  5
359
100
AcDbEntity
  8
0
100
AcDbLine
 62
7
  6
CONTINUOUS
 10
13.4494894301
 20
11.6298628682
 11
13.4494894301
 21
6.3172705088
  0
LINE
  5
35A
100
AcDbEntity
  8
0
100
AcDbLine
 62
4
  6
CONTINUOUS
 10
12.5850345387
 20
6.8152489227
 11
12.5927991034
 21
6.8227489168
  0
LINE
  5
35B
100
AcDbEntity
  8
0
100
AcDbLine
 62
4
  6
CONTINUOUS
 10
12.5869756798
 20
6.7591683695
 11
12.5830933975
 21
6.7554183725
  0
LINE
  5
35C
100
AcDbEntity
  8
0
100
AcDbLine
 62
7
  6
CONTINUOUS
 10
13.4494894301
 20
6.3172705088
 11
12.414214104
 21
5.3172712749
  0
LINE
  5
35D
100
AcDbEntity
  8
0
100
AcDbLine
 62
7
  6
CONTINUOUS
 10
11.7746818261
 20
5.2036795832
 11
11.7432990757
 21
5.1881771054
  0
LINE
  5
35E
100
AcDbEntity
  8
0
100
AcDbLine
 62
7
  6
CONTINUOUS
 10
13.4494894301
 20
11.6298628682
 11
9.585785896
 21
11.8978116184
  0
ARC
  5
35F
100
AcDbEntity
  8
0
100
AcDbCircle
 62
7
  6
CONTINUOUS
 10
20.674894576
 20
7.1976391135
 40
10.400289873
100
AcDbArc
 50
178.9658786958
 51
179.0886809238
  0
ARC
  5
360
100
AcDbEntity
  8
0
100
AcDbCircle
 62
7
  6
CONTINUOUS
 10
8.2873598213
 20
10.3902456036
 40
3.2674836435
100
AcDbArc
 50
357.4184895957
 51
358.3577661183
  0
ARC
  5
361
100
AcDbEntity
  8
0
100
AcDbCircle
 62
7
  6
CONTINUOUS
 10
11.2062314109
 20
7.6050771688
 40
2.4759824616
100
AcDbArc
 50
273.460253038
 51
274.4740090323
  0
ARC
  5
362
100
AcDbEntity
  8
0
100
AcDbCircle
 62
7
  6
CONTINUOUS
 10
11.1872875024
 20
8.9985361349
 40
1.9452044062
100
AcDbArc
 50
266.0350451717
 51
266.6289299613
  0
ARC
  5
363
100
AcDbEntity
  8
0
100
AcDbCircle
 62
7
  6
CONTINUOUS
 10
10.9640880493
 20
6.2298799359
 40
1.0819211298
100
AcDbArc
 50
254.6141230724
 51
256.3642747627
  0
ARC
  5
364
100
AcDbEntity
  8
0
100
AcDbCircle
 62
7
  6
CONTINUOUS
 10
11.4995370792
 20
7.4156352324
 40
0.9491292459
100
AcDbArc
 50
179.3028019747
 51
180.0008805263
  0
ARC
  5
365
100
AcDbEntity
  8
0
100
AcDbCircle
 62
7
  6
CONTINUOUS
 10
11.3964502437
 20
5.9675926605
 40
0.8524210625
100
AcDbArc
 50
293.9860710649
 51
296.3129872661
  0
ARC
  5
366
100
AcDbEntity
  8
0
100
AcDbCircle
 62
7
  6
CONTINUOUS
 10
10.5316528885
 20
6.7773777466
 40
0.6351384273
100
AcDbArc
 50
356.7157247275
 51
358.3421730505
  0
ARC
  5
367
100
AcDbEntity
  8
0
100
AcDbCircle
 62
7
  6
CONTINUOUS
 10
11.3800625708
 20
10.0637269105
 40
0.4283320577
100
AcDbArc
 50
312.4667075194
 51
313.131538866
  0
ARC
  5
368
100
AcDbEntity
  8
0
100
AcDbCircle
 62
7
  6
CONTINUOUS
 10
11.2915842615
 20
10.1553259672
 40
0.4283148542
100
AcDbArc
 50
134.5842866698
 51
135.5470096428
  0
ARC
  5
369
100
AcDbEntity
  8
0
100
AcDbCircle
 62
7
  6
CONTINUOUS
 10
11.3414755227
 20
10.0886482424
 40
0.2928253144
100
AcDbArc
 50
349.3351665064
 51
0.0338997592
  0
ARC
  5
36A
100
AcDbEntity
  8
0
100
AcDbCircle
 62
7
  6
CONTINUOUS
 10
11.6687483051
 20
10.4291523359
 40
0.2199206088
100
AcDbArc
 50
237.7906554048
 51
251.5498690782
  0
ARC
  5
36B
100
AcDbEntity
  8
0
100
AcDbCircle
 62
7
  6
CONTINUOUS
 10
11.7837271721
 20
5.3634645303
 40
0.137131922
100
AcDbArc
 50
310.4805308012
 51
313.9817446454
  0
ARC
  5
36C
100
AcDbEntity
  8
0
100
AcDbCircle
 62
7
  6
CONTINUOUS
 10
10.6711822391
 20
5.2847073648
 40
0.0981089067
100
AcDbArc
 50
254.8737411393
 51
256.015771027
  0
ARC
  5
36D
100
AcDbEntity
  8
0
100
AcDbCircle
 62
7
  6
CONTINUOUS
 10
10.7005736891
 20
7.1555416152
 40
0.0379835395
100
AcDbArc
 50
163.5583126529
 51
170.9215633388
  0
SPLINE
  5
36E
100
AcDbEntity
  8
0
100
AcDbSpline
 62
7
  6
CONTINUOUS
 70
0
 71
3
 72
11
 73
7
 74
0
 42
0.0000001
 43
0.0000001
 44
0.0000000001
 40
0.0
 40
0.0
 40
0.0
 40
0.0
 40
0.2378702599
 40
0.4807844901
 40
0.7334464184
 40
1.0
 40
1.0
 40
1.0
 40
1.0
 10
10.6646142146
 20
7.3801583865
 30
0.0
 10
10.6646141195
 20
7.381960527
 30
0.0
 10
10.6648943558
 20
7.3856088471
 30
0.0
 10
10.6661483482
 20
7.3910415697
 30
0.0
 10
10.6682284351
 20
7.3964461522
 30
0.0
 10
10.6701030246
 20
7.3999169566
 30
0.0
 10
10.6711587074
 20
7.4016384996
 30
0.0
  0
SPLINE
  5
36F
100
AcDbEntity
  8
0
100
AcDbSpline
 62
7
  6
CONTINUOUS
 70
0
 71
3
 72
24
 73
20
 74
0
 42
0.0000001
 43
0.0000001
 44
0.0000000001
 40
0.0
 40
0.0
 40
0.0
 40
0.0
 40
0.0904043521
 40
0.1774505951
 40
0.261001339
 40
0.3409266933
 40
0.4171142145
 40
0.4894687555
 40
0.5579087538
 40
0.6223801227
 40
0.6828501596
 40
0.7393155617
 40
0.7918146635
 40
0.8404255617
 40
0.8852880156
 40
0.9063827263
 40
0.9266270828
 40
0.9647200529
 40
1.0
 40
1.0
 40
1.0
 40
1.0
 10
10.8494635565
 20
7.3182227276
 30
0.0
 10
10.8434492761
 20
7.3195573155
 30
0.0
 10
10.8316688233
 20
7.3222901546
 30
0.0
 10
10.8144299593
 20
7.3266726407
 30
0.0
 10
10.7979825348
 20
7.3312532618
 30
0.0
 10
10.7823608505
 20
7.336022954
 30
0.0
 10
10.7675972436
 20
7.3409716659
 30
0.0
 10
10.7537220398
 20
7.3460884841
 30
0.0
 10
10.7407639791
 20
7.3513636455
 30
0.0
 10
10.7287493376
 20
7.3567854732
 30
0.0
 10
10.7177024297
 20
7.3623429937
 30
0.0
 10
10.7076457736
 20
7.3680256179
 30
0.0
 10
10.6985985784
 20
7.3738213283
 30
0.0
 10
10.6905795132
 20
7.3797199012
 30
0.0
 10
10.68464931
 20
7.3848128828
 30
0.0
 10
10.6804618356
 20
7.3889354391
 30
0.0
 10
10.6767919743
 20
7.3929167014
 30
0.0
 10
10.6728340244
 20
7.397937006
 30
0.0
 10
10.6702355573
 20
7.4022292594
 30
0.0
 10
10.6691453601
 20
7.4043720059
 30
0.0
  0
LINE
  5
370
100
AcDbEntity
  8
0
100
AcDbLine
 62
7
  6
CONTINUOUS
 10
11.8844619565
 20
5.2704694921
 11
11.878955575
 21
5.2647897346
  0
SPLINE
  5
371
100
AcDbEntity
  8
0
100
AcDbSpline
 62
7
  6
CONTINUOUS
 70
0
 71
3
 72
9
 73
5
 74
0
 42
0.0000001
 43
0.0000001
 44
0.0000000001
 40
0.0
 40
0.0
 40
0.0
 40
0.0
 40
0.5046579896
 40
1.0
 40
1.0
 40
1.0
 40
1.0
 10
11.8727517929
 20
5.259158342
 30
0.0
 10
11.8566584804
 20
5.2490008434
 30
0.0
 10
11.8243406796
 20
5.2295405496
 30
0.0
 10
11.7910522795
 20
5.2117712147
 30
0.0
 10
11.7743066673
 20
5.2034943743
 30
0.0
  0
SPLINE
  5
372
100
AcDbEntity
  8
0
100
AcDbSpline
 62
7
  6
CONTINUOUS
 70
0
 71
3
 72
32
 73
28
 74
0
 42
0.0000001
 43
0.0000001
 44
0.0000000001
 40
0.0
 40
0.0
 40
0.0
 40
0.0
 40
0.0916522455
 40
0.1810911683
 40
0.2678247511
 40
0.3514199499
 40
0.4314491043
 40
0.5075165813
 40
0.5792606212
 40
0.6134095491
 40
0.6463600659
 40
0.6780785579
 40
0.7085351967
 40
0.7377048354
 40
0.7655651958
 40
0.7920999307
 40
0.8172983542
 40
0.8411549594
 40
0.8636733494
 40
0.8848653721
 40
0.9047529315
 40
0.9233724181
 40
0.9407748149
 40
0.9570305295
 40
0.9722341281
 40
0.9865064427
 40
1.0
 40
1.0
 40
1.0
 40
1.0
 10
11.0527838207
 20
7.0579875162
 30
0.0
 10
11.0396112027
 20
7.0589010404
 30
0.0
 10
11.0136017945
 20
7.0609749453
 30
0.0
 10
10.975211361
 20
7.0648780794
 30
0.0
 10
10.938072162
 20
7.0695190906
 30
0.0
 10
10.9023985399
 20
7.0748701944
 30
0.0
 10
10.8683924039
 20
7.0809007429
 30
0.0
 10
10.8362483908
 20
7.087575556
 30
0.0
 10
10.8107623024
 20
7.0937390895
 30
0.0
 10
10.7914589063
 20
7.0989874221
 30
0.0
 10
10.7777969229
 20
7.1029949899
 30
0.0
 10
10.7647307506
 20
7.1071330754
 30
0.0
 10
10.7522790051
 20
7.1113959412
 30
0.0
 10
10.7404592722
 20
7.1157770604
 30
0.0
 10
10.7292884061
 20
7.1202705638
 30
0.0
 10
10.7187821663
 20
7.1248699308
 30
0.0
 10
10.708955215
 20
7.129568349
 30
0.0
 10
10.6998215126
 20
7.1343597251
 30
0.0
 10
10.6913936024
 20
7.1392370365
 30
0.0
 10
10.6836830233
 20
7.1441935761
 30
0.0
 10
10.6767006279
 20
7.1492232816
 30
0.0
 10
10.6704555691
 20
7.1543191986
 30
0.0
 10
10.6649564917
 20
7.1594755162
 30
0.0
 10
10.6602115506
 20
7.164686662
 30
0.0
 10
10.6562273856
 20
7.1699471677
 30
0.0
 10
10.6530123613
 20
7.175251017
 30
0.0
 10
10.6513466821
 20
7.1789012398
 30
0.0
 10
10.6506583402
 20
7.1807192991
 30
0.0
  0
SPLINE
  5
373
100
AcDbEntity
  8
0
100
AcDbSpline
 62
7
  6
CONTINUOUS
 70
0
 71
3
 72
15
 73
11
 74
0
 42
0.0000001
 43
0.0000001
 44
0.0000000001
 40
0.0
 40
0.0
 40
0.0
 40
0.0
 40
0.0987268369
 40
0.2046768384
 40
0.318074366
 40
0.4390702027
 40
0.5677557721
 40
0.7041647211
 40
0.8482675177
 40
1.0
 40
1.0
 40
1.0
 40
1.0
 10
10.5789671725
 20
7.2387869358
 30
0.0
 10
10.581333216
 20
7.2409884314
 30
0.0
 10
10.5864217403
 20
7.2453578174
 30
0.0
 10
10.5947603574
 20
7.2516035522
 30
0.0
 10
10.6040550072
 20
7.2577566395
 30
0.0
 10
10.6142901175
 20
7.2638073798
 30
0.0
 10
10.6254503139
 20
7.2697472099
 30
0.0
 10
10.637518718
 20
7.2755667761
 30
0.0
 10
10.6504762476
 20
7.2812575635
 30
0.0
 10
10.6594645376
 20
7.2848670099
 30
0.0
 10
10.6640994146
 20
7.2866527277
 30
0.0
  0
SPLINE
  5
374
100
AcDbEntity
  8
0
100
AcDbSpline
 62
7
  6
CONTINUOUS
 70
0
 71
3
 72
23
 73
19
 74
0
 42
0.0000001
 43
0.0000001
 44
0.0000000001
 40
0.0
 40
0.0
 40
0.0
 40
0.0
 40
0.0433457487
 40
0.0887141091
 40
0.1363573647
 40
0.1864949178
 40
0.2392956118
 40
0.2948831072
 40
0.3533267235
 40
0.4146494686
 40
0.4788289665
 40
0.5458050177
 40
0.6154867711
 40
0.6877590178
 40
0.7624900115
 40
0.8395391943
 40
0.9187591375
 40
1.0
 40
1.0
 40
1.0
 40
1.0
 10
10.6267707197
 20
5.1971471997
 30
0.0
 10
10.6241472945
 20
5.1984412733
 30
0.0
 10
10.618879903
 20
5.2013010559
 30
0.0
 10
10.6111289599
 20
5.2062746558
 30
0.0
 10
10.603366717
 20
5.212037504
 30
0.0
 10
10.5956003021
 20
5.2186007196
 30
0.0
 10
10.5878337238
 20
5.2259659492
 30
0.0
 10
10.5800731764
 20
5.2341290547
 30
0.0
 10
10.5723230577
 20
5.2430770687
 30
0.0
 10
10.5645885068
 20
5.2527907895
 30
0.0
 10
10.5568738277
 20
5.2632445046
 30
0.0
 10
10.5491827693
 20
5.2744072875
 30
0.0
 10
10.5415188622
 20
5.2862444629
 30
0.0
 10
10.5338845009
 20
5.2987182442
 30
0.0
 10
10.5262818854
 20
5.3117896152
 30
0.0
 10
10.5187122545
 20
5.3254187996
 30
0.0
 10
10.5111764942
 20
5.3395662754
 30
0.0
 10
10.5062347834
 20
5.3492023309
 30
0.0
 10
10.5037662907
 20
5.354097809
 30
0.0
  0
SPLINE
  5
375
100
AcDbEntity
  8
0
100
AcDbSpline
 62
7
  6
CONTINUOUS
 70
0
 71
3
 72
46
 73
42
 74
0
 42
0.0000001
 43
0.0000001
 44
0.0000000001
 40
0.0
 40
0.0
 40
0.0
 40
0.0
 40
0.009987442
 40
0.0204476137
 40
0.0313771087
 40
0.042770719
 40
0.0546216827
 40
0.0669224299
 40
0.0796639586
 40
0.092836054
 40
0.1204269473
 40
0.1495982457
 40
0.1802404493
 40
0.2122336402
 40
0.2454488195
 40
0.2797495924
 40
0.3149928343
 40
0.3510297406
 40
0.3877071311
 40
0.4248680709
 40
0.4623528245
 40
0.4999999707
 40
0.5376471181
 40
0.5751319032
 40
0.6122928703
 40
0.6489702712
 40
0.6850072643
 40
0.7202505753
 40
0.7545513746
 40
0.7877666801
 40
0.8197599616
 40
0.8504022183
 40
0.879573693
 40
0.9071646914
 40
0.9330772419
 40
0.9453781444
 40
0.9572291907
 40
0.9686227884
 40
0.9795523871
 40
0.9900125566
 40
1.0
 40
1.0
 40
1.0
 40
1.0
 10
11.7433044122
 20
5.1881798047
 30
0.0
 10
11.7399636493
 20
5.1865295027
 30
0.0
 10
11.7330669465
 20
5.1832653378
 30
0.0
 10
11.7223402118
 20
5.1785740025
 30
0.0
 10
11.7110035147
 20
5.1739795634
 30
0.0
 10
11.6990700378
 20
5.1694873506
 30
0.0
 10
11.6865534922
 20
5.1651022597
 30
0.0
 10
11.6734681369
 20
5.1608296806
 30
0.0
 10
11.6598290128
 20
5.1566744124
 30
0.0
 10
11.6406282433
 20
5.1512121563
 30
0.0
 10
11.6153475247
 20
5.1447379572
 30
0.0
 10
11.5835194444
 20
5.1376234081
 30
0.0
 10
11.5498942002
 20
5.1310819396
 30
0.0
 10
11.5146267967
 20
5.1251441472
 30
0.0
 10
11.4778795893
 20
5.1198376568
 30
0.0
 10
11.439822015
 20
5.1151874582
 30
0.0
 10
11.4006296403
 20
5.1112153827
 30
0.0
 10
11.3604834011
 20
5.1079397808
 30
0.0
 10
11.3195686567
 20
5.1053760852
 30
0.0
 10
11.2780743569
 20
5.103536366
 30
0.0
 10
11.2361921888
 20
5.1024289965
 30
0.0
 10
11.1941156389
 20
5.1020592536
 30
0.0
 10
11.1520390777
 20
5.1024289776
 30
0.0
 10
11.110156884
 20
5.1035362282
 30
0.0
 10
11.0686625566
 20
5.1053759217
 30
0.0
 10
11.0277477657
 20
5.1079396074
 30
0.0
 10
10.9876014548
 20
5.1112150928
 30
0.0
 10
10.9484090083
 20
5.1151871368
 30
0.0
 10
10.9103513499
 20
5.1198373404
 30
0.0
 10
10.8736040417
 20
5.1251437155
 30
0.0
 10
10.8383365027
 20
5.1310814664
 30
0.0
 10
10.8047112348
 20
5.1376229843
 30
0.0
 10
10.7728826829
 20
5.1447373371
 30
0.0
 10
10.7429973579
 20
5.1523912239
 30
0.0
 10
10.7194335465
 20
5.1593040577
 30
0.0
 10
10.7016765859
 20
5.1651015783
 30
0.0
 10
10.6891599361
 20
5.1694867045
 30
0.0
 10
10.677226426
 20
5.1739789921
 30
0.0
 10
10.6658896317
 20
5.1785732809
 30
0.0
 10
10.6551628269
 20
5.1832645552
 30
0.0
 10
10.6482661402
 20
5.186528754
 30
0.0
 10
10.6449253774
 20
5.1881790573
 30
0.0
  0
SPLINE
  5
376
100
AcDbEntity
  8
0
100
AcDbSpline
 62
7
  6
CONTINUOUS
 70
0
 71
3
 72
11
 73
7
 74
0
 42
0.0000001
 43
0.0000001
 44
0.0000000001
 40
0.0
 40
0.0
 40
0.0
 40
0.0
 40
0.2464179584
 40
0.4942839735
 40
0.7449565552
 40
1.0
 40
1.0
 40
1.0
 40
1.0
 10
10.6770343952
 20
5.1867339582
 30
0.0
 10
10.6745904415
 20
5.1866084934
 30
0.0
 10
10.6696779726
 20
5.1865205045
 30
0.0
 10
10.6622838996
 20
5.1869142791
 30
0.0
 10
10.654854326
 20
5.1878696102
 30
0.0
 10
10.6499315171
 20
5.1888941218
 30
0.0
 10
10.6474737503
 20
5.1895061824
 30
0.0
  0
SPLINE
  5
377
100
AcDbEntity
  8
0
100
AcDbSpline
 62
7
  6
CONTINUOUS
 70
0
 71
3
 72
9
 73
5
 74
0
 42
0.0000001
 43
0.0000001
 44
0.0000000001
 40
0.0
 40
0.0
 40
0.0
 40
0.0
 40
0.4896161665
 40
1.0
 40
1.0
 40
1.0
 40
1.0
 10
10.6455810181
 20
5.1899976238
 30
0.0
 10
10.6424068124
 20
5.1908556056
 30
0.0
 10
10.6360081729
 20
5.1929349893
 30
0.0
 10
10.6298446691
 20
5.195630893
 30
0.0
 10
10.6267707197
 20
5.1971471997
 30
0.0
  0
SPLINE
  5
378
100
AcDbEntity
  8
0
100
AcDbSpline
 62
7
  6
CONTINUOUS
 70
0
 71
3
 72
21
 73
17
 74
0
 42
0.0000001
 43
0.0000001
 44
0.0000000001
 40
0.0
 40
0.0
 40
0.0
 40
0.0
 40
0.1481552339
 40
0.2923075061
 40
0.3624370696
 40
0.4310372604
 40
0.4979419891
 40
0.5629909241
 40
0.626030679
 40
0.6869153515
 40
0.7455075106
 40
0.8016792382
 40
0.8553128802
 40
0.9063030913
 40
0.9545575039
 40
1.0
 40
1.0
 40
1.0
 40
1.0
 10
11.0842019105
 20
7.0317132249
 30
0.0
 10
11.0626580274
 20
7.0326875951
 30
0.0
 10
11.0201761874
 20
7.0351899669
 30
0.0
 10
10.9676126954
 20
7.0398043271
 30
0.0
 10
10.9266866277
 20
7.0443580782
 30
0.0
 10
10.8969930614
 20
7.0481454813
 30
0.0
 10
10.8680992167
 20
7.0523255109
 30
0.0
 10
10.8400827531
 20
7.0568870688
 30
0.0
 10
10.8130189806
 20
7.061817625
 30
0.0
 10
10.7869806039
 20
7.0671038834
 30
0.0
 10
10.7620374998
 20
7.0727314515
 30
0.0
 10
10.7382565405
 20
7.0786850308
 30
0.0
 10
10.7157014231
 20
7.0849485091
 30
0.0
 10
10.6944322633
 20
7.0915048141
 30
0.0
 10
10.6745061414
 20
7.0983361834
 30
0.0
 10
10.6617638538
 20
7.1032101025
 30
0.0
 10
10.6556353826
 20
7.1056994091
 30
0.0
  0
SPLINE
  5
379
100
AcDbEntity
  8
0
100
AcDbSpline
 62
7
  6
CONTINUOUS
 70
0
 71
3
 72
15
 73
11
 74
0
 42
0.0000001
 43
0.0000001
 44
0.0000000001
 40
0.0
 40
0.0
 40
0.0
 40
0.0
 40
0.145605613
 40
0.285332269
 40
0.4191503
 40
0.5470448989
 40
0.66902346
 40
0.7851258766
 40
0.8954184386
 40
1.0
 40
1.0
 40
1.0
 40
1.0
 10
10.6556353826
 20
7.1056994091
 30
0.0
 10
10.6521356458
 20
7.1071209574
 30
0.0
 10
10.6453098563
 20
7.1099874049
 30
0.0
 10
10.6353956575
 20
7.11445724
 30
0.0
 10
10.6260247582
 20
7.1190047019
 30
0.0
 10
10.6172062621
 20
7.123625492
 30
0.0
 10
10.6089487434
 20
7.1283154415
 30
0.0
 10
10.6012597804
 20
7.133069858
 30
0.0
 10
10.5941468638
 20
7.137884113
 30
0.0
 10
10.5896762399
 20
7.1412183538
 30
0.0
 10
10.5875445785
 20
7.1428967992
 30
0.0
  0
SPLINE
  5
37A
100
AcDbEntity
  8
0
100
AcDbSpline
 62
7
  6
CONTINUOUS
 70
0
 71
3
 72
9
 73
5
 74
0
 42
0.0000001
 43
0.0000001
 44
0.0000000001
 40
0.0
 40
0.0
 40
0.0
 40
0.0
 40
0.4845688301
 40
1.0
 40
1.0
 40
1.0
 40
1.0
 10
10.5673989161
 20
7.2261054372
 30
0.0
 10
10.5688545165
 20
7.2280389305
 30
0.0
 10
10.5720414504
 20
7.2318932122
 30
0.0
 10
10.5755188703
 20
7.2354849474
 30
0.0
 10
10.577370447
 20
7.2372734332
 30
0.0
  0
SPLINE
  5
37B
100
AcDbEntity
  8
0
100
AcDbSpline
 62
7
  6
CONTINUOUS
 70
0
 71
3
 72
26
 73
22
 74
0
 42
0.0000001
 43
0.0000001
 44
0.0000000001
 40
0.0
 40
0.0
 40
0.0
 40
0.0
 40
0.078974348
 40
0.1569147499
 40
0.2335383875
 40
0.308569025
 40
0.3817377493
 40
0.4527857707
 40
0.5214645453
 40
0.5875381991
 40
0.6507859387
 40
0.7110022793
 40
0.7680016226
 40
0.8216195994
 40
0.8717166218
 40
0.8954114144
 40
0.9181878621
 40
0.9400381278
 40
0.9609577098
 40
0.9809444722
 40
1.0
 40
1.0
 40
1.0
 40
1.0
 10
11.0905078238
 20
7.0154704889
 30
0.0
 10
11.0771438362
 20
7.0160276322
 30
0.0
 10
11.0505993935
 20
7.0173537197
 30
0.0
 10
11.0111324215
 20
7.0199972177
 30
0.0
 10
10.9723830204
 20
7.023273784
 30
0.0
 10
10.9345032783
 20
7.0271703384
 30
0.0
 10
10.8976416296
 20
7.0316717692
 30
0.0
 10
10.8619424987
 20
7.0367598508
 30
0.0
 10
10.8275457052
 20
7.0424146208
 30
0.0
 10
10.7945858515
 20
7.0486136915
 30
0.0
 10
10.7631917371
 20
7.0553321165
 30
0.0
 10
10.7334859626
 20
7.0625436519
 30
0.0
 10
10.7055839759
 20
7.0702193148
 30
0.0
 10
10.6795945487
 20
7.0783286762
 30
0.0
 10
10.659252099
 20
7.0855492953
 30
0.0
 10
10.6440330279
 20
7.0915428673
 30
0.0
 10
10.6333711543
 20
7.0960428538
 30
0.0
 10
10.6232589684
 20
7.1006269176
 30
0.0
 10
10.6137060434
 20
7.1052904387
 30
0.0
 10
10.6047218603
 20
7.1100289259
 30
0.0
 10
10.5989807203
 20
7.1133132009
 30
0.0
 10
10.5962108558
 20
7.1149696234
 30
0.0
  0
SPLINE
  5
37C
100
AcDbEntity
  8
0
100
AcDbSpline
 62
7
  6
CONTINUOUS
 70
0
 71
3
 72
32
 73
28
 74
0
 42
0.0000001
 43
0.0000001
 44
0.0000000001
 40
0.0
 40
0.0
 40
0.0
 40
0.0
 40
0.097971393
 40
0.1920623107
 40
0.2819451507
 40
0.3673165193
 40
0.447906035
 40
0.5234724457
 40
0.5938208161
 40
0.6269907577
 40
0.6588051481
 40
0.6892551012
 40
0.7183351599
 40
0.7460462776
 40
0.7723969035
 40
0.7974014315
 40
0.8210816919
 40
0.8434711844
 40
0.8646156234
 40
0.8845734098
 40
0.9034189047
 40
0.9212472686
 40
0.9381748016
 40
0.9543402691
 40
0.9699064896
 40
0.9850590355
 40
1.0
 40
1.0
 40
1.0
 40
1.0
 10
10.919892545
 20
7.2629239157
 30
0.0
 10
10.9103837398
 20
7.2644138813
 30
0.0
 10
10.8917735614
 20
7.2675367576
 30
0.0
 10
10.8645711137
 20
7.2727705365
 30
0.0
 10
10.838721933
 20
7.2784421965
 30
0.0
 10
10.8143318394
 20
7.284529076
 30
0.0
 10
10.7914998518
 20
7.2910046475
 30
0.0
 10
10.7703193309
 20
7.2978433754
 30
0.0
 10
10.7538065924
 20
7.3039335769
 30
0.0
 10
10.7415083583
 20
7.3089883384
 30
0.0
 10
10.7329314186
 20
7.3127777536
 30
0.0
 10
10.7248279663
 20
7.3166360374
 30
0.0
 10
10.7172064092
 20
7.3205595902
 30
0.0
 10
10.7100744885
 20
7.3245445123
 30
0.0
 10
10.7034390888
 20
7.3285865361
 30
0.0
 10
10.6973068043
 20
7.3326816639
 30
0.0
 10
10.6916840688
 20
7.33682631
 30
0.0
 10
10.6865763767
 20
7.341016457
 30
0.0
 10
10.6819885052
 20
7.3452480845
 30
0.0
 10
10.6779251582
 20
7.34951757
 30
0.0
 10
10.6743911963
 20
7.3538217777
 30
0.0
 10
10.6713903926
 20
7.3581569432
 30
0.0
 10
10.6689264832
 20
7.3625195194
 30
0.0
 10
10.6670038023
 20
7.3669058339
 30
0.0
 10
10.6656270421
 20
7.3713118623
 30
0.0
 10
10.6647991233
 20
7.3757309676
 30
0.0
 10
10.664614292
 20
7.3786905676
 30
0.0
 10
10.6646142146
 20
7.3801583865
 30
0.0
  0
SPLINE
  5
37D
100
AcDbEntity
  8
0
100
AcDbSpline
 62
7
  6
CONTINUOUS
 70
0
 71
3
 72
15
 73
11
 74
0
 42
0.0000001
 43
0.0000001
 44
0.0000000001
 40
0.0
 40
0.0
 40
0.0
 40
0.0
 40
0.1188712634
 40
0.2340988406
 40
0.348493648
 40
0.4649309261
 40
0.5861276541
 40
0.7144638197
 40
0.8519087604
 40
1.0
 40
1.0
 40
1.0
 40
1.0
 10
10.6506583402
 20
7.1807192991
 30
0.0
 10
10.6499181531
 20
7.1826742929
 30
0.0
 10
10.648732902
 20
7.1866364174
 30
0.0
 10
10.6479294694
 20
7.1927386565
 30
0.0
 10
10.6481450327
 20
7.1988488709
 30
0.0
 10
10.6493788069
 20
7.2049423531
 30
0.0
 10
10.6516202843
 20
7.2110000236
 30
0.0
 10
10.6548552725
 20
7.2170093649
 30
0.0
 10
10.6590710709
 20
7.2229608654
 30
0.0
 10
10.6623954809
 20
7.2267365106
 30
0.0
 10
10.6641999429
 20
7.2286143215
 30
0.0
  0
SPLINE
  5
37E
100
AcDbEntity
  8
0
100
AcDbSpline
 62
7
  6
CONTINUOUS
 70
0
 71
3
 72
21
 73
17
 74
0
 42
0.0000001
 43
0.0000001
 44
0.0000000001
 40
0.0
 40
0.0
 40
0.0
 40
0.0
 40
0.066508053
 40
0.1323638847
 40
0.1975675177
 40
0.2621277743
 40
0.3260642674
 40
0.3894049724
 40
0.4521874815
 40
0.5144551981
 40
0.5762571041
 40
0.6376446408
 40
0.698669726
 40
0.7593834445
 40
0.8800506697
 40
1.0
 40
1.0
 40
1.0
 40
1.0
 10
11.7429718023
 20
5.1887830065
 30
0.0
 10
11.7358406598
 20
5.185615053
 30
0.0
 10
11.7215551081
 20
5.1795172083
 30
0.0
 10
11.6999586414
 20
5.1710865471
 30
0.0
 10
11.6783118977
 20
5.1634456058
 30
0.0
 10
11.6566298308
 20
5.1566209174
 30
0.0
 10
11.634929906
 20
5.150627264
 30
0.0
 10
11.6132289695
 20
5.1454757371
 30
0.0
 10
11.5915452711
 20
5.1411639152
 30
0.0
 10
11.5698953857
 20
5.1376848564
 30
0.0
 10
11.5482953265
 20
5.1350201469
 30
0.0
 10
11.5267589706
 20
5.1331462192
 30
0.0
 10
11.5052979632
 20
5.1320324579
 30
0.0
 10
11.4768575
 20
5.1315149746
 30
0.0
 10
11.4414957735
 20
5.1325771541
 30
0.0
 10
11.4133584228
 20
5.1350520027
 30
0.0
 10
11.3993750235
 20
5.1366394655
 30
0.0
  0
SPLINE
  5
37F
100
AcDbEntity
  8
0
100
AcDbSpline
 62
7
  6
CONTINUOUS
 70
0
 71
3
 72
21
 73
17
 74
0
 42
0.0000001
 43
0.0000001
 44
0.0000000001
 40
0.0
 40
0.0
 40
0.0
 40
0.0
 40
0.1229782982
 40
0.1846437121
 40
0.2464406137
 40
0.308381136
 40
0.3704758731
 40
0.4327332085
 40
0.4951582589
 40
0.5577520389
 40
0.6205114325
 40
0.6834297978
 40
0.7464974582
 40
0.8097023547
 40
0.8730312648
 40
1.0
 40
1.0
 40
1.0
 40
1.0
 10
11.3556720646
 20
5.1336086496
 30
0.0
 10
11.3292864904
 20
5.1282464615
 30
0.0
 10
11.2894556672
 20
5.1211793227
 30
0.0
 10
11.235954016
 20
5.1141405248
 30
0.0
 10
11.1955504664
 20
5.1101497201
 30
0.0
 10
11.1549385438
 20
5.1075551883
 30
0.0
 10
11.1141571136
 20
5.1064454579
 30
0.0
 10
11.0732563118
 20
5.1068889455
 30
0.0
 10
11.0322942528
 20
5.108927989
 30
0.0
 10
10.9913336445
 20
5.1125746092
 30
0.0
 10
10.9504369487
 20
5.117807715
 30
0.0
 10
10.9096618024
 20
5.1245766374
 30
0.0
 10
10.8690576934
 20
5.1328059016
 30
0.0
 10
10.8286628893
 20
5.142401521
 30
0.0
 10
10.7750779116
 20
5.156887019
 30
0.0
 10
10.7353306723
 20
5.1694598137
 30
0.0
 10
10.7090271906
 20
5.1784536239
 30
0.0
  0
SPLINE
  5
380
100
AcDbEntity
  8
0
100
AcDbSpline
 62
7
  6
CONTINUOUS
 70
0
 71
3
 72
18
 73
14
 74
0
 42
0.0000001
 43
0.0000001
 44
0.0000000001
 40
0.0
 40
0.0
 40
0.0
 40
0.0
 40
0.150467608
 40
0.291710008
 40
0.4244359371
 40
0.549562455
 40
0.6682139939
 40
0.7255497488
 40
0.7817912909
 40
0.8371402503
 40
0.8918093826
 40
0.9460201179
 40
1.0
 40
1.0
 40
1.0
 40
1.0
 10
12.964204121
 20
10.2198184888
 30
0.0
 10
12.9669280228
 20
10.222449576
 30
0.0
 10
12.9723719588
 20
10.2273861729
 30
0.0
 10
12.9808018497
 20
10.2339650311
 30
0.0
 10
12.9892218392
 20
10.2394672563
 30
0.0
 10
12.9976232098
 20
10.2438838173
 30
0.0
 10
13.0046844694
 20
10.2466844155
 30
0.0
 10
13.0102907975
 20
10.2483483633
 30
0.0
 10
13.0144358255
 20
10.2493074392
 30
0.0
 10
13.018567102
 20
10.2499909972
 30
0.0
 10
13.0226834696
 20
10.2503987954
 30
0.0
 10
13.0267832907
 20
10.2505306215
 30
0.0
 10
13.029507094
 20
10.2504342836
 30
0.0
 10
13.0308624582
 20
10.2503402946
 30
0.0
  0
SPLINE
  5
381
100
AcDbEntity
  8
0
100
AcDbSpline
 62
7
  6
CONTINUOUS
 70
0
 71
3
 72
25
 73
21
 74
0
 42
0.0000001
 43
0.0000001
 44
0.0000000001
 40
0.0
 40
0.0
 40
0.0
 40
0.0
 40
0.063777207
 40
0.1273431941
 40
0.1907001592
 40
0.25385355
 40
0.3168099722
 40
0.379578248
 40
0.4421688981
 40
0.5045942164
 40
0.5668681104
 40
0.6290059928
 40
0.6910246328
 40
0.721997334
 40
0.752947051
 40
0.8147821323
 40
0.8765547551
 40
0.9074265678
 40
0.9382904798
 40
1.0
 40
1.0
 40
1.0
 40
1.0
 10
11.4130319258
 20
6.7148515846
 30
0.0
 10
11.4130319258
 20
6.6999857747
 30
0.0
 10
11.4123204599
 20
6.6702983475
 30
0.0
 10
11.409108857
 20
6.6259476495
 30
0.0
 10
11.4037618181
 20
6.5819487108
 30
0.0
 10
11.3962916767
 20
6.538404366
 30
0.0
 10
11.3867154641
 20
6.4954145448
 30
0.0
 10
11.3750552041
 20
6.4530784835
 30
0.0
 10
11.3613376492
 20
6.4114937448
 30
0.0
 10
11.3455943719
 20
6.3707562755
 30
0.0
 10
11.3278614776
 20
6.3309598641
 30
0.0
 10
11.308180169
 20
6.2921969044
 30
0.0
 10
11.2901841134
 20
6.2608146178
 30
0.0
 10
11.274862703
 20
6.236319573
 30
0.0
 10
11.2589441662
 20
6.2122595384
 30
0.0
 10
11.2379181274
 20
6.1829855341
 30
0.0
 10
11.2154298096
 20
6.1548425216
 30
0.0
 10
11.1966032028
 20
6.1330593813
 30
0.0
 10
11.1772334368
 20
6.1117785488
 30
0.0
 10
11.1620953947
 20
6.0963841529
 30
0.0
 10
11.1517497343
 20
6.0863910277
 30
0.0
  0
SPLINE
  5
382
100
AcDbEntity
  8
0
100
AcDbSpline
 62
7
  6
CONTINUOUS
 70
0
 71
3
 72
23
 73
19
 74
0
 42
0.0000001
 43
0.0000001
 44
0.0000000001
 40
0.0
 40
0.0
 40
0.0
 40
0.0
 40
0.0637771735
 40
0.1273448473
 40
0.1907019822
 40
0.253856143
 40
0.3168131975
 40
0.3795820985
 40
0.4421733906
 40
0.5045993374
 40
0.5668738654
 40
0.62901238
 40
0.6910316489
 40
0.7529496402
 40
0.814785347
 40
0.8765585971
 40
0.938289852
 40
1.0
 40
1.0
 40
1.0
 40
1.0
 10
11.8027830198
 20
10.0685628467
 30
0.0
 10
11.8027830198
 20
10.0609718592
 30
0.0
 10
11.8024196838
 20
10.0458122473
 30
0.0
 10
11.8007797632
 20
10.0231650419
 30
0.0
 10
11.7980492906
 20
10.0006973733
 30
0.0
 10
11.7942347783
 20
9.9784619512
 30
0.0
 10
11.7893447761
 20
9.9565096422
 30
0.0
 10
11.7833905627
 20
9.9348911876
 30
0.0
 10
11.7763858197
 20
9.9136563929
 30
0.0
 10
11.7683466559
 20
9.8928542276
 30
0.0
 10
11.7592915663
 20
9.8725326663
 30
0.0
 10
11.7492413729
 20
9.8527385885
 30
0.0
 10
11.7382192113
 20
9.8335176662
 30
0.0
 10
11.7262504829
 20
9.8149142207
 30
0.0
 10
11.7133628128
 20
9.7969712055
 30
0.0
 10
11.6995857548
 20
9.7797298786
 30
0.0
 10
11.6849516198
 20
9.7632305529
 30
0.0
 10
11.6746446585
 20
9.7527491563
 30
0.0
 10
11.6693617517
 20
9.7476462774
 30
0.0
  0
SPLINE
  5
383
100
AcDbEntity
  8
0
100
AcDbSpline
 62
7
  6
CONTINUOUS
 70
0
 71
3
 72
23
 73
19
 74
0
 42
0.0000001
 43
0.0000001
 44
0.0000000001
 40
0.0
 40
0.0
 40
0.0
 40
0.0
 40
0.0637773819
 40
0.1273447421
 40
0.1907019992
 40
0.253856141
 40
0.3168131832
 40
0.3795820983
 40
0.4421733889
 40
0.504599339
 40
0.5668738661
 40
0.6290123801
 40
0.6910316522
 40
0.752949648
 40
0.8147853569
 40
0.876558605
 40
0.9382898554
 40
1.0
 40
1.0
 40
1.0
 40
1.0
 10
11.1331887701
 20
6.7925438372
 30
0.0
 10
11.1331887701
 20
6.7830473965
 30
0.0
 10
11.1327342477
 20
6.7640825687
 30
0.0
 10
11.1306826772
 20
6.7357506617
 30
0.0
 10
11.1272668555
 20
6.7076433868
 30
0.0
 10
11.1224948622
 20
6.6798266122
 30
0.0
 10
11.1163774407
 20
6.6523640274
 30
0.0
 10
11.1089287063
 20
6.625319086
 30
0.0
 10
11.1001657286
 20
6.598754108
 30
0.0
 10
11.0901086761
 20
6.5727303563
 30
0.0
 10
11.0787806885
 20
6.5473078438
 30
0.0
 10
11.0662078355
 20
6.5225452073
 30
0.0
 10
11.0524190668
 20
6.4984995744
 30
0.0
 10
11.0374461182
 20
6.4752264142
 30
0.0
 10
11.0213235445
 20
6.45277947
 30
0.0
 10
11.0040883403
 20
6.43121034
 30
0.0
 10
10.9857809236
 20
6.4105694623
 30
0.0
 10
10.9728868977
 20
6.3974570231
 30
0.0
 10
10.9662779231
 20
6.3910732651
 30
0.0
  0
SPLINE
  5
384
100
AcDbEntity
  8
0
100
AcDbSpline
 62
7
  6
CONTINUOUS
 70
0
 71
3
 72
42
 73
38
 74
0
 42
0.0000001
 43
0.0000001
 44
0.0000000001
 40
0.0
 40
0.0
 40
0.0
 40
0.0
 40
0.0310747994
 40
0.0623068214
 40
0.0936914668
 40
0.1252200761
 40
0.1568812704
 40
0.1886608695
 40
0.2205422655
 40
0.252506785
 40
0.2845340782
 40
0.3166025393
 40
0.348689743
 40
0.3807728914
 40
0.4128292674
 40
0.4448366859
 40
0.476773938
 40
0.5086212222
 40
0.5403605553
 40
0.5719761539
 40
0.6034547822
 40
0.6347860628
 40
0.6659627313
 40
0.6969808354
 40
0.727839872
 40
0.7585428534
 40
0.7890962907
 40
0.8195100975
 40
0.8497974136
 40
0.879974339
 40
0.9100595866
 40
0.9250772215
 40
0.9400799309
 40
0.9550705904
 40
0.9700521462
 40
0.9850276023
 40
1.0
 40
1.0
 40
1.0
 40
1.0
 10
11.1331887701
 20
6.7925438372
 30
0.0
 10
11.1331887701
 20
6.8072775253
 30
0.0
 10
11.1320896648
 20
6.8368307838
 30
0.0
 10
11.1271824283
 20
6.8810191861
 30
0.0
 10
11.1190401174
 20
6.9249481181
 30
0.0
 10
11.1077077229
 20
6.9683732359
 30
0.0
 10
11.0932479536
 20
7.0110568961
 30
0.0
 10
11.075740593
 20
7.0527646143
 30
0.0
 10
11.0552820565
 20
7.0932675716
 30
0.0
 10
11.0319848448
 20
7.1323434774
 30
0.0
 10
11.0059770439
 20
7.1697779386
 30
0.0
 10
10.9774015536
 20
7.2053655671
 30
0.0
 10
10.9464152675
 20
7.2389110639
 30
0.0
 10
10.9131882496
 20
7.2702302835
 30
0.0
 10
10.8779028889
 20
7.2991513248
 30
0.0
 10
10.8407528073
 20
7.3255153728
 30
0.0
 10
10.8019418165
 20
7.3491775437
 30
0.0
 10
10.7616828646
 20
7.370007745
 30
0.0
 10
10.7201968788
 20
7.3878914093
 30
0.0
 10
10.6777115209
 20
7.4027300288
 30
0.0
 10
10.6344599738
 20
7.414441695
 30
0.0
 10
10.5906797176
 20
7.422961688
 30
0.0
 10
10.5466112038
 20
7.4282427504
 30
0.0
 10
10.5024965569
 20
7.4302553182
 30
0.0
 10
10.4585782729
 20
7.4289877394
 30
0.0
 10
10.4150978999
 20
7.4244464775
 30
0.0
 10
10.3722946657
 20
7.4166559334
 30
0.0
 10
10.3304043577
 20
7.4056584517
 30
0.0
 10
10.2896573521
 20
7.3915138053
 30
0.0
 10
10.2502797078
 20
7.3743004465
 30
0.0
 10
10.2187618628
 20
7.3574633887
 30
0.0
 10
10.194459429
 20
7.3425674716
 30
0.0
 10
10.1767143127
 20
7.3307009877
 30
0.0
 10
10.1594673331
 20
7.3181511057
 30
0.0
 10
10.1427417881
 20
7.3049347878
 30
0.0
 10
10.1265610385
 20
7.2910706734
 30
0.0
 10
10.1161508195
 20
7.2814076043
 30
0.0
 10
10.1110448545
 20
7.2764756373
 30
0.0
  0
SPLINE
  5
385
100
AcDbEntity
  8
0
100
AcDbSpline
 62
7
  6
CONTINUOUS
 70
0
 71
3
 72
39
 73
35
 74
0
 42
0.0000001
 43
0.0000001
 44
0.0000000001
 40
0.0
 40
0.0
 40
0.0
 40
0.0
 40
0.0321350909
 40
0.0640145952
 40
0.0956313278
 40
0.1269850703
 40
0.1580835744
 40
0.1889414182
 40
0.2195792258
 40
0.2500224057
 40
0.2802999979
 40
0.3104435694
 40
0.3404862498
 40
0.3704619979
 40
0.4004050347
 40
0.4303495318
 40
0.4603294734
 40
0.4903786054
 40
0.5205304623
 40
0.5508184408
 40
0.5812759961
 40
0.6119367082
 40
0.642833892
 40
0.6740000926
 40
0.7054661448
 40
0.7372589549
 40
0.7693977368
 40
0.8018880571
 40
0.8347126016
 40
0.8678183409
 40
0.9011011503
 40
0.9343921936
 40
0.9674541481
 40
1.0
 40
1.0
 40
1.0
 40
1.0
 10
11.0197996406
 20
6.7474576256
 30
0.0
 10
11.0101669962
 20
6.7481256517
 30
0.0
 10
10.9910151849
 20
6.7500758322
 30
0.0
 10
10.9626607403
 20
6.7548560955
 30
0.0
 10
10.9349103955
 20
6.7614414765
 30
0.0
 10
10.9078801686
 20
6.7697753218
 30
0.0
 10
10.8816695079
 20
6.7797862403
 30
0.0
 10
10.8563620638
 20
6.7913917526
 30
0.0
 10
10.832024666
 20
6.8045018913
 30
0.0
 10
10.8087079761
 20
6.8190228045
 30
0.0
 10
10.7864476683
 20
6.8348598771
 30
0.0
 10
10.7652661175
 20
6.8519203346
 30
0.0
 10
10.7451743195
 20
6.8701152613
 30
0.0
 10
10.7261738584
 20
6.8893610403
 30
0.0
 10
10.7082587758
 20
6.9095803208
 30
0.0
 10
10.6914172468
 20
6.9307025829
 30
0.0
 10
10.6756330798
 20
6.9526644382
 30
0.0
 10
10.6608869908
 20
6.9754096743
 30
0.0
 10
10.6471576536
 20
6.998889105
 30
0.0
 10
10.6344225202
 20
7.02306032
 30
0.0
 10
10.6226585713
 20
7.0478873994
 30
0.0
 10
10.6118430102
 20
7.0733404421
 30
0.0
 10
10.6019537045
 20
7.0993947799
 30
0.0
 10
10.5929696693
 20
7.1260299541
 30
0.0
 10
10.584871675
 20
7.1532281979
 30
0.0
 10
10.5776427854
 20
7.1809719119
 30
0.0
 10
10.5712689299
 20
7.2092396556
 30
0.0
 10
10.5657396625
 20
7.2380000819
 30
0.0
 10
10.5610488468
 20
7.2672031158
 30
0.0
 10
10.5571951475
 20
7.2967682837
 30
0.0
 10
10.5541819754
 20
7.3265716024
 30
0.0
 10
10.5520165334
 20
7.3564352877
 30
0.0
 10
10.5507076204
 20
7.3861268502
 30
0.0
 10
10.5504078334
 20
7.4058414423
 30
0.0
 10
10.5504078334
 20
7.4156206461
 30
0.0
  0
SPLINE
  5
386
100
AcDbEntity
  8
0
100
AcDbSpline
 62
7
  6
CONTINUOUS
 70
0
 71
3
 72
21
 73
17
 74
0
 42
0.0000001
 43
0.0000001
 44
0.0000000001
 40
0.0
 40
0.0
 40
0.0
 40
0.0
 40
0.1273177382
 40
0.253799893
 40
0.3167619527
 40
0.3795355237
 40
0.4421314869
 40
0.5045621428
 40
0.5668413495
 40
0.6289845239
 40
0.69100845
 40
0.7529310987
 40
0.8147714472
 40
0.8765493323
 40
0.9382852239
 40
1.0
 40
1.0
 40
1.0
 40
1.0
 10
11.6173668018
 20
10.1269645225
 30
0.0
 10
11.6173668018
 20
10.1191264334
 30
0.0
 10
11.6166186154
 20
10.1034916059
 30
0.0
 10
11.6137928863
 20
10.0841635821
 30
0.0
 10
11.6104155794
 20
10.0690024322
 30
0.0
 10
11.607335632
 20
10.0578195575
 30
0.0
 10
11.60371225
 20
10.0468354003
 30
0.0
 10
11.5995538274
 20
10.0360749513
 30
0.0
 10
11.5948698907
 20
10.0255631191
 30
0.0
 10
11.5896711723
 20
10.0153241572
 30
0.0
 10
11.5839697363
 20
10.005381644
 30
0.0
 10
11.5777786578
 20
9.9957585345
 30
0.0
 10
11.5711121944
 20
9.9864770765
 30
0.0
 10
11.5639857161
 20
9.9775585509
 30
0.0
 10
11.5564158817
 20
9.96902385
 30
0.0
 10
11.5510843705
 20
9.9636020788
 30
0.0
 10
11.548351664
 20
9.9609624857
 30
0.0
  0
SPLINE
  5
387
100
AcDbEntity
  8
0
100
AcDbSpline
 62
7
  6
CONTINUOUS
 70
0
 71
3
 72
37
 73
33
 74
0
 42
0.0000001
 43
0.0000001
 44
0.0000000001
 40
0.0
 40
0.0
 40
0.0
 40
0.0
 40
0.0307115776
 40
0.0615425493
 40
0.0924882602
 40
0.1235467373
 40
0.1547123949
 40
0.1859791285
 40
0.2173394699
 40
0.2487848566
 40
0.2803057573
 40
0.3118917577
 40
0.3435316965
 40
0.3752137945
 40
0.4386334817
 40
0.5020712226
 40
0.5337756682
 40
0.565446536
 40
0.5970717001
 40
0.6286395532
 40
0.6601391396
 40
0.6915602898
 40
0.7228937461
 40
0.7541312741
 40
0.7852657663
 40
0.8162913356
 40
0.8472034039
 40
0.8779987725
 40
0.9086756734
 40
0.9392338057
 40
0.9696743546
 40
1.0
 40
1.0
 40
1.0
 40
1.0
 10
11.6343007859
 20
10.0888214961
 30
0.0
 10
11.6343007859
 20
10.0943961422
 30
0.0
 10
11.633987619
 20
10.1055695626
 30
0.0
 10
11.6325864829
 20
10.1223072558
 30
0.0
 10
11.6302572114
 20
10.1390052291
 30
0.0
 10
11.6270074406
 20
10.1556103758
 30
0.0
 10
11.6228471793
 20
10.1720711746
 30
0.0
 10
11.6177895458
 20
10.1883360591
 30
0.0
 10
11.6118503864
 20
10.2043542509
 30
0.0
 10
11.6050483199
 20
10.2200756971
 30
0.0
 10
11.5974046119
 20
10.235451319
 30
0.0
 10
11.5889432616
 20
10.250432972
 30
0.0
 10
11.5796903441
 20
10.2649742641
 30
0.0
 10
11.566334999
 20
10.2837172585
 30
0.0
 10
11.547814622
 20
10.3058159579
 30
0.0
 10
11.527090137
 20
10.3258679456
 30
0.0
 10
11.5093387968
 20
10.3405359347
 30
0.0
 10
11.495482879
 20
10.3508148983
 30
0.0
 10
11.4811280356
 20
10.3603392543
 30
0.0
 10
11.4663187081
 20
10.3690796168
 30
0.0
 10
11.4511012492
 20
10.3770085238
 30
0.0
 10
11.4355231758
 20
10.3841012136
 30
0.0
 10
11.4196331633
 20
10.3903354924
 30
0.0
 10
11.4034808497
 20
10.3956918405
 30
0.0
 10
11.3871166977
 20
10.4001534632
 30
0.0
 10
11.3705918354
 20
10.4037063398
 30
0.0
 10
11.3539579152
 20
10.4063393252
 30
0.0
 10
11.3372669163
 20
10.4080441396
 30
0.0
 10
11.320571068
 20
10.4088153986
 30
0.0
 10
11.3039223835
 20
10.4086505825
 30
0.0
 10
11.2873736428
 20
10.4075502342
 30
0.0
 10
11.2764203274
 20
10.4061924335
 30
0.0
 10
11.2709792494
 20
10.4053586372
 30
0.0
  0
SPLINE
  5
388
100
AcDbEntity
  8
0
100
AcDbSpline
 62
7
  6
CONTINUOUS
 70
0
 71
3
 72
43
 73
39
 74
0
 42
0.0000001
 43
0.0000001
 44
0.0000000001
 40
0.0
 40
0.0
 40
0.0
 40
0.0
 40
0.0310745218
 40
0.0466739617
 40
0.0623117346
 40
0.0936962008
 40
0.1252246462
 40
0.156885682
 40
0.1886651184
 40
0.2205463529
 40
0.2525107094
 40
0.2845378393
 40
0.316606137
 40
0.3486931771
 40
0.3807761618
 40
0.4128323741
 40
0.4448396288
 40
0.4767767175
 40
0.508623839
 40
0.5403630095
 40
0.5719784455
 40
0.6034569128
 40
0.6347880329
 40
0.6659645409
 40
0.6969824853
 40
0.7278413639
 40
0.7585441875
 40
0.7890974671
 40
0.8195111175
 40
0.8497982781
 40
0.8649022316
 40
0.8799808239
 40
0.9100659163
 40
0.9400802375
 40
0.9550708207
 40
0.9700522994
 40
0.9850276796
 40
1.0
 40
1.0
 40
1.0
 40
1.0
 10
11.6173668018
 20
10.1269645225
 30
0.0
 10
11.6173668018
 20
10.1330566577
 30
0.0
 10
11.6170262615
 20
10.1422116493
 30
0.0
 10
11.615901596
 20
10.1543778549
 30
0.0
 10
11.6143257189
 20
10.1665557164
 30
0.0
 10
11.611516511
 20
10.1817119495
 30
0.0
 10
11.6068307788
 20
10.19966727
 30
0.0
 10
11.6008518786
 20
10.2173164079
 30
0.0
 10
11.5936128493
 20
10.2345619004
 30
0.0
 10
11.5851535428
 20
10.2513092663
 30
0.0
 10
11.5755204992
 20
10.2674665661
 30
0.0
 10
11.5647666689
 20
10.282945157
 30
0.0
 10
11.5529511289
 20
10.2976601033
 30
0.0
 10
11.5401387599
 20
10.3115306567
 30
0.0
 10
11.5263998929
 20
10.3244806887
 30
0.0
 10
11.5118099276
 20
10.336439106
 30
0.0
 10
11.4964489224
 20
10.3473402364
 30
0.0
 10
11.4804011606
 20
10.3571241866
 30
0.0
 10
11.4637546929
 20
10.3657371684
 30
0.0
 10
11.4466008606
 20
10.3731317927
 30
0.0
 10
11.4290338011
 20
10.3792673294
 30
0.0
 10
11.4111499385
 20
10.3841099319
 30
0.0
 10
11.393047462
 20
10.3876328257
 30
0.0
 10
11.3748257931
 20
10.3898164592
 30
0.0
 10
11.3565850523
 20
10.3906486199
 30
0.0
 10
11.3384254954
 20
10.3901245005
 30
0.0
 10
11.3204470414
 20
10.38824677
 30
0.0
 10
11.3027484521
 20
10.3850254441
 30
0.0
 10
11.2854278029
 20
10.3804783145
 30
0.0
 10
11.2713728345
 20
10.3755992569
 30
0.0
 10
11.2604176394
 20
10.3710619122
 30
0.0
 10
11.2496842306
 20
10.3661161417
 30
0.0
 10
11.2366699234
 20
10.3591641779
 30
0.0
 10
11.2242589753
 20
10.3512162462
 30
0.0
 10
11.2147476783
 20
10.3442952756
 30
0.0
 10
11.207831857
 20
10.3388304519
 30
0.0
 10
11.2011413581
 20
10.333097891
 30
0.0
 10
11.1968369005
 20
10.329102336
 30
0.0
 10
11.1947256648
 20
10.3270630378
 30
0.0
  0
SPLINE
  5
389
100
AcDbEntity
  8
0
100
AcDbSpline
 62
7
  6
CONTINUOUS
 70
0
 71
3
 72
44
 73
40
 74
0
 42
0.0000001
 43
0.0000001
 44
0.0000000001
 40
0.0
 40
0.0
 40
0.0
 40
0.0
 40
0.0196286566
 40
0.039671647
 40
0.081170853
 40
0.1027183546
 40
0.124833774
 40
0.1475402811
 40
0.1708589709
 40
0.1948055555
 40
0.2193963463
 40
0.2446435528
 40
0.2705616994
 40
0.2971633842
 40
0.3244652735
 40
0.3524842807
 40
0.3812438697
 40
0.4410710933
 40
0.4722474705
 40
0.504325923
 40
0.5373765658
 40
0.571486553
 40
0.6067624834
 40
0.643332753
 40
0.6813480068
 40
0.7009566079
 40
0.72099117
 40
0.7414747272
 40
0.7624288474
 40
0.7838739271
 40
0.805828218
 40
0.828305415
 40
0.8513140871
 40
0.874856203
 40
0.8989253562
 40
0.9235057929
 40
0.9485705542
 40
0.9740850635
 40
1.0
 40
1.0
 40
1.0
 40
1.0
 10
11.5288875633
 20
10.2060546917
 30
0.0
 10
11.5274777524
 20
10.2046929188
 30
0.0
 10
11.5245428924
 20
10.202027576
 30
0.0
 10
11.5182296593
 20
10.1969383637
 30
0.0
 10
11.5113307758
 20
10.1922927053
 30
0.0
 10
11.5039241725
 20
10.1881085454
 30
0.0
 10
11.4979909296
 20
10.1851482711
 30
0.0
 10
11.4917541974
 20
10.1824203978
 30
0.0
 10
11.485219046
 20
10.1799395962
 30
0.0
 10
11.4783905765
 20
10.1777258099
 30
0.0
 10
11.4712758813
 20
10.1757988245
 30
0.0
 10
11.4638820638
 20
10.1741842307
 30
0.0
 10
11.4562185708
 20
10.1729079502
 30
0.0
 10
11.4482956957
 20
10.172001978
 30
0.0
 10
11.4401266443
 20
10.171499404
 30
0.0
 10
11.4317259888
 20
10.1714401045
 30
0.0
 10
11.4200915447
 20
10.1720146628
 30
0.0
 10
11.4082111249
 20
10.17367998
 30
0.0
 10
11.3962550536
 20
10.1765611083
 30
0.0
 10
11.3870771021
 20
10.1794625879
 30
0.0
 10
11.3778666961
 20
10.1831456483
 30
0.0
 10
11.3686884182
 20
10.1876875973
 30
0.0
 10
11.3596236227
 20
10.1931709287
 30
0.0
 10
11.3507736912
 20
10.1996803111
 30
0.0
 10
11.3437535445
 20
10.2059660428
 30
0.0
 10
11.3383813142
 20
10.2115626478
 30
0.0
 10
11.3344535518
 20
10.2161077867
 30
0.0
 10
11.3306928088
 20
10.2209632352
 30
0.0
 10
11.3271239776
 20
10.226133833
 30
0.0
 10
11.323773572
 20
10.2316216248
 30
0.0
 10
11.3206694318
 20
10.2374256706
 30
0.0
 10
11.3178400993
 20
10.2435411956
 30
0.0
 10
11.3153142245
 20
10.2499590463
 30
0.0
 10
11.3131198544
 20
10.2566652687
 30
0.0
 10
11.3112833852
 20
10.2636407206
 30
0.0
 10
11.3098284959
 20
10.2708608153
 30
0.0
 10
11.3087748706
 20
10.2782961362
 30
0.0
 10
11.3081377064
 20
10.2859120968
 30
0.0
 10
11.3079976462
 20
10.2910490053
 30
0.0
 10
11.3079976462
 20
10.2936368476
 30
0.0
  0
SPLINE
  5
38A
100
AcDbEntity
  8
0
100
AcDbSpline
 62
7
  6
CONTINUOUS
 70
0
 71
3
 72
15
 73
11
 74
0
 42
0.0000001
 43
0.0000001
 44
0.0000000001
 40
0.0
 40
0.0
 40
0.0
 40
0.0
 40
0.1266125617
 40
0.2513957925
 40
0.3750944415
 40
0.4984057726
 40
0.6219896026
 40
0.7464365731
 40
0.8722870818
 40
1.0
 40
1.0
 40
1.0
 40
1.0
 10
11.5515274806
 20
10.2430761352
 30
0.0
 10
11.551005112
 20
10.2412990321
 30
0.0
 10
11.5498550414
 20
10.2378024242
 30
0.0
 10
11.5477987264
 20
10.2327106353
 30
0.0
 10
11.545427881
 20
10.2278107942
 30
0.0
 10
11.5427434466
 20
10.2230957953
 30
0.0
 10
11.5397471128
 20
10.2185595891
 30
0.0
 10
11.5364400129
 20
10.2141981172
 30
0.0
 10
11.5328246141
 20
10.2100089571
 30
0.0
 10
11.5302314071
 20
10.2073527451
 30
0.0
 10
11.5288875633
 20
10.2060546917
 30
0.0
  0
SPLINE
  5
38B
100
AcDbEntity
  8
0
100
AcDbSpline
 62
7
  6
CONTINUOUS
 70
0
 71
3
 72
13
 73
9
 74
0
 42
0.0000001
 43
0.0000001
 44
0.0000000001
 40
0.0
 40
0.0
 40
0.0
 40
0.0
 40
0.1237812062
 40
0.2494006785
 40
0.3760538395
 40
0.5029456102
 40
0.7545574504
 40
1.0
 40
1.0
 40
1.0
 40
1.0
 10
11.3079976462
 20
10.2936368476
 30
0.0
 10
11.3079976462
 20
10.2978342157
 30
0.0
 10
11.308371922
 20
10.306295334
 30
0.0
 10
11.3099956869
 20
10.3189565509
 30
0.0
 10
11.312627924
 20
10.3315546275
 30
0.0
 10
11.3173504161
 20
10.3480336582
 30
0.0
 10
11.3252213357
 20
10.3677370896
 30
0.0
 10
11.3332198571
 20
10.382610312
 30
0.0
 10
11.3375074082
 20
10.389743809
 30
0.0
  0
SPLINE
  5
38C
100
AcDbEntity
  8
0
100
AcDbSpline
 62
7
  6
CONTINUOUS
 70
0
 71
3
 72
55
 73
51
 74
0
 42
0.0000001
 43
0.0000001
 44
0.0000000001
 40
0.0
 40
0.0
 40
0.0
 40
0.0
 40
0.0075208348
 40
0.0156242142
 40
0.0243311711
 40
0.0336550089
 40
0.0436029388
 40
0.0541769762
 40
0.0653751272
 40
0.0771917851
 40
0.0896184164
 40
0.1026439451
 40
0.1162549389
 40
0.1304361071
 40
0.1451702248
 40
0.1604385562
 40
0.1762208541
 40
0.1924955039
 40
0.22642864
 40
0.2620435089
 40
0.299129289
 40
0.3374624062
 40
0.3768088186
 40
0.4169261772
 40
0.4575659138
 40
0.4984752898
 40
0.5393994327
 40
0.5800833565
 40
0.6202739771
 40
0.6597221367
 40
0.6981846509
 40
0.7354264063
 40
0.7712225103
 40
0.8053605541
 40
0.8217459585
 40
0.8376441629
 40
0.853033271
 40
0.8678927663
 40
0.8822034522
 40
0.8959478537
 40
0.9091101198
 40
0.9216764214
 40
0.9336351149
 40
0.9449769705
 40
0.9556958034
 40
0.9657885996
 40
0.9752563558
 40
0.9841051078
 40
0.9923470228
 40
1.0
 40
1.0
 40
1.0
 40
1.0
 10
12.6686398235
 20
6.6580622707
 30
0.0
 10
12.6677579484
 20
6.6591465891
 30
0.0
 10
12.6660203661
 20
6.6614770134
 30
0.0
 10
12.6635751549
 20
6.6652839079
 30
0.0
 10
12.6611997621
 20
6.6695230935
 30
0.0
 10
12.6588979218
 20
6.6741876148
 30
0.0
 10
12.6566731852
 20
6.6792702407
 30
0.0
 10
12.6545290475
 20
6.6847627976
 30
0.0
 10
12.6524690642
 20
6.6906564496
 30
0.0
 10
12.6504965904
 20
6.6969415994
 30
0.0
 10
12.6486149078
 20
6.7036079713
 30
0.0
 10
12.6468271857
 20
6.7106446194
 30
0.0
 10
12.6451363618
 20
6.7180399487
 30
0.0
 10
12.6435453326
 20
6.7257817532
 30
0.0
 10
12.6420567115
 20
6.7338572293
 30
0.0
 10
12.6406730357
 20
6.7422530031
 30
0.0
 10
12.6393965939
 20
6.7509551758
 30
0.0
 10
12.6378185974
 20
6.7631171833
 30
0.0
 10
12.6361423159
 20
6.7789806026
 30
0.0
 10
12.6346136173
 20
6.7987404651
 30
0.0
 10
12.6335515716
 20
6.8193495752
 30
0.0
 10
12.6329634849
 20
6.8406711531
 30
0.0
 10
12.6328535366
 20
6.862563816
 30
0.0
 10
12.6332226379
 20
6.8848822596
 30
0.0
 10
12.6340684703
 20
6.9074783264
 30
0.0
 10
12.6353854888
 20
6.9302019847
 30
0.0
 10
12.6371649724
 20
6.9529023467
 30
0.0
 10
12.6393950835
 20
6.975428683
 30
0.0
 10
12.6420609479
 20
6.9976314333
 30
0.0
 10
12.6451447491
 20
7.0193632196
 30
0.0
 10
12.648625851
 20
7.0404798203
 30
0.0
 10
12.6524808995
 20
7.060841237
 30
0.0
 10
12.6566840551
 20
7.0803123638
 30
0.0
 10
12.6605034827
 20
7.0958951425
 30
0.0
 10
12.6637222576
 20
7.1078122461
 30
0.0
 10
12.6661723142
 20
7.1163265936
 30
0.0
 10
12.6686872554
 20
7.1245258643
 30
0.0
 10
12.6712628767
 20
7.1323964871
 30
0.0
 10
12.6738949274
 20
7.1399254211
 30
0.0
 10
12.676578962
 20
7.1471002275
 30
0.0
 10
12.6793105485
 20
7.1539090547
 30
0.0
 10
12.682085125
 20
7.1603406882
 30
0.0
 10
12.6848980628
 20
7.1663845685
 30
0.0
 10
12.687744755
 20
7.1720307965
 30
0.0
 10
12.6906204556
 20
7.177270204
 30
0.0
 10
12.6935205499
 20
7.1820942867
 30
0.0
 10
12.6964402829
 20
7.1864953381
 30
0.0
 10
12.6993752614
 20
7.190466527
 30
0.0
 10
12.7023207578
 20
7.194001178
 30
0.0
 10
12.7043623541
 20
7.1961403169
 30
0.0
 10
12.7053852895
 20
7.1971283966
 30
0.0
  0
SPLINE
  5
38D
100
AcDbEntity
  8
0
100
AcDbSpline
 62
7
  6
CONTINUOUS
 70
0
 71
3
 72
38
 73
34
 74
0
 42
0.0000001
 43
0.0000001
 44
0.0000000001
 40
0.0
 40
0.0
 40
0.0
 40
0.0
 40
0.0167122471
 40
0.0335855745
 40
0.0507761455
 40
0.0684309059
 40
0.0866844604
 40
0.105657188
 40
0.1254546301
 40
0.146167691
 40
0.1678736093
 40
0.1906370671
 40
0.2145116713
 40
0.2395411303
 40
0.2657606801
 40
0.2931979919
 40
0.3218743746
 40
0.3518053594
 40
0.3830016855
 40
0.4154696086
 40
0.4492117228
 40
0.4842270577
 40
0.5205117905
 40
0.5580591875
 40
0.5968602448
 40
0.636903519
 40
0.6781757225
 40
0.720661474
 40
0.7643438661
 40
0.8092041593
 40
0.8552223293
 40
0.9023767239
 40
1.0
 40
1.0
 40
1.0
 40
1.0
 10
12.8975457838
 20
8.3279575054
 30
0.0
 10
12.8955049459
 20
8.3280990292
 30
0.0
 10
12.8914151357
 20
8.3285934912
 30
0.0
 10
12.8853419746
 20
8.3299614917
 30
0.0
 10
12.8793227978
 20
8.3319551956
 30
0.0
 10
12.8733631526
 20
8.3345718281
 30
0.0
 10
12.8674668988
 20
8.3378082702
 30
0.0
 10
12.8616376613
 20
8.34166114
 30
0.0
 10
12.8558786779
 20
8.346127012
 30
0.0
 10
12.8501929938
 20
8.3512023317
 30
0.0
 10
12.8445836444
 20
8.3568834792
 30
0.0
 10
12.8390536168
 20
8.3631665945
 30
0.0
 10
12.8336060114
 20
8.3700476256
 30
0.0
 10
12.8282438942
 20
8.3775221665
 30
0.0
 10
12.8229704556
 20
8.3855855277
 30
0.0
 10
12.817788812
 20
8.3942326097
 30
0.0
 10
12.8127021848
 20
8.4034579861
 30
0.0
 10
12.8077136776
 20
8.4132558071
 30
0.0
 10
12.8028264797
 20
8.4236198811
 30
0.0
 10
12.7980436292
 20
8.4345436007
 30
0.0
 10
12.7933682366
 20
8.4460200147
 30
0.0
 10
12.7888032374
 20
8.4580417721
 30
0.0
 10
12.7843516313
 20
8.4706011823
 30
0.0
 10
12.7800162274
 20
8.4836901734
 30
0.0
 10
12.7757998929
 20
8.4973003399
 30
0.0
 10
12.7717052936
 20
8.5114229147
 30
0.0
 10
12.767735149
 20
8.5260488046
 30
0.0
 10
12.7638919703
 20
8.5411685733
 30
0.0
 10
12.7601783162
 20
8.5567724704
 30
0.0
 10
12.7565965416
 20
8.5728504085
 30
0.0
 10
12.7531490054
 20
8.5893920456
 30
0.0
 10
12.74868265
 20
8.6123167245
 30
0.0
 10
12.7456218808
 20
8.6297748608
 30
0.0
 10
12.7436891452
 20
8.6415675538
 30
0.0
  0
SPLINE
  5
38E
100
AcDbEntity
  8
0
100
AcDbSpline
 62
7
  6
CONTINUOUS
 70
0
 71
3
 72
39
 73
35
 74
0
 42
0.0000001
 43
0.0000001
 44
0.0000000001
 40
0.0
 40
0.0
 40
0.0
 40
0.0
 40
0.0260570695
 40
0.0530792935
 40
0.0810159717
 40
0.1098134358
 40
0.1394153286
 40
0.1697628578
 40
0.2007950335
 40
0.2324488914
 40
0.2646597073
 40
0.2973612041
 40
0.3304857537
 40
0.3639645749
 40
0.3977279293
 40
0.4317053139
 40
0.4658256538
 40
0.5000174937
 40
0.5342091883
 40
0.5683290928
 40
0.6023057535
 40
0.6360680979
 40
0.6695456264
 40
0.7026686038
 40
0.7353682531
 40
0.7675769507
 40
0.7992284248
 40
0.8302579568
 40
0.86060259
 40
0.8902013429
 40
0.9189954335
 40
0.9469285155
 40
0.9739469333
 40
1.0
 40
1.0
 40
1.0
 40
1.0
 10
12.7436891452
 20
8.6415675538
 30
0.0
 10
12.7418180595
 20
8.6529840858
 30
0.0
 10
12.7382568842
 20
8.6762816261
 30
0.0
 10
12.7335185509
 20
8.71193974
 30
0.0
 10
12.7292939548
 20
8.7488872144
 30
0.0
 10
12.7255926931
 20
8.7870414281
 30
0.0
 10
12.7224231392
 20
8.8263173102
 30
0.0
 10
12.7197924761
 20
8.8666271763
 30
0.0
 10
12.717706667
 20
8.9078810325
 30
0.0
 10
12.7161704469
 20
8.9499867518
 30
0.0
 10
12.715187312
 20
8.9928502923
 30
0.0
 10
12.7147595133
 20
9.0363759071
 30
0.0
 10
12.7148880519
 20
9.0804663616
 30
0.0
 10
12.7155726781
 20
9.1250231523
 30
0.0
 10
12.7168118919
 20
9.1699467283
 30
0.0
 10
12.7186029473
 20
9.2151367151
 30
0.0
 10
12.7209418573
 20
9.2604921402
 30
0.0
 10
12.7238234049
 20
9.30591166
 30
0.0
 10
12.7272411542
 20
9.3512937876
 30
0.0
 10
12.7311874651
 20
9.3965371197
 30
0.0
 10
12.7356535107
 20
9.4415405653
 30
0.0
 10
12.7406292965
 20
9.4862035714
 30
0.0
 10
12.746103683
 20
9.5304263494
 30
0.0
 10
12.7520644099
 20
9.5741100987
 30
0.0
 10
12.7584981239
 20
9.6171572294
 30
0.0
 10
12.7653904074
 20
9.6594715813
 30
0.0
 10
12.7727258107
 20
9.700958641
 30
0.0
 10
12.7804878862
 20
9.7415257564
 30
0.0
 10
12.7886592233
 20
9.7810823445
 30
0.0
 10
12.7972214891
 20
9.819540106
 30
0.0
 10
12.8061554623
 20
9.8568131987
 30
0.0
 10
12.8154411016
 20
9.8928185347
 30
0.0
 10
12.8250574986
 20
9.9274756202
 30
0.0
 10
12.8318013515
 20
9.950054691
 30
0.0
 10
12.8352308486
 20
9.9611016633
 30
0.0
  0
SPLINE
  5
38F
100
AcDbEntity
  8
0
100
AcDbSpline
 62
7
  6
CONTINUOUS
 70
0
 71
3
 72
23
 73
19
 74
0
 42
0.0000001
 43
0.0000001
 44
0.0000000001
 40
0.0
 40
0.0
 40
0.0
 40
0.0
 40
0.0826663073
 40
0.1628688989
 40
0.2405374849
 40
0.3156069706
 40
0.3880177248
 40
0.4577164557
 40
0.5246566636
 40
0.5887992338
 40
0.6501137179
 40
0.7085791767
 40
0.7641854677
 40
0.8169354125
 40
0.8668461698
 40
0.913952354
 40
0.958311217
 40
1.0
 40
1.0
 40
1.0
 40
1.0
 10
12.8352308486
 20
9.9611016633
 30
0.0
 10
12.8376129873
 20
9.9687749225
 30
0.0
 10
12.8424195647
 20
9.9838579106
 30
0.0
 10
12.8498762382
 20
10.006016296
 30
0.0
 10
12.8574643063
 20
10.0273480888
 30
0.0
 10
12.8651749561
 20
10.0478287102
 30
0.0
 10
12.872999312
 20
10.0674346491
 30
0.0
 10
12.8809283174
 20
10.0861434228
 30
0.0
 10
12.8889528059
 20
10.1039336187
 30
0.0
 10
12.8970635728
 20
10.1207848933
 30
0.0
 10
12.9052512787
 20
10.1366780501
 30
0.0
 10
12.9135065401
 20
10.151595047
 30
0.0
 10
12.9218200067
 20
10.1655189967
 30
0.0
 10
12.9301822998
 20
10.1784342419
 30
0.0
 10
12.9385840211
 20
10.1903262986
 30
0.0
 10
12.9470162629
 20
10.2011822033
 30
0.0
 10
12.9554694413
 20
10.2109892159
 30
0.0
 10
12.9612898282
 20
10.217003498
 30
0.0
 10
12.964204121
 20
10.2198184888
 30
0.0
  0
SPLINE
  5
390
100
AcDbEntity
  8
0
100
AcDbSpline
 62
7
  6
CONTINUOUS
 70
0
 71
3
 72
80
 73
76
 74
0
 42
0.0000001
 43
0.0000001
 44
0.0000000001
 40
0.0
 40
0.0
 40
0.0
 40
0.0
 40
0.0027966359
 40
0.0056681687
 40
0.0086296944
 40
0.0116948261
 40
0.0148756296
 40
0.0181827316
 40
0.0216253372
 40
0.0252113607
 40
0.0289475808
 40
0.0328396712
 40
0.0368924085
 40
0.0411097267
 40
0.0454947907
 40
0.0500501644
 40
0.054777776
 40
0.0596790586
 40
0.0647550037
 40
0.0700061345
 40
0.0754326586
 40
0.0810344133
 40
0.0927609888
 40
0.1051795113
 40
0.1182792734
 40
0.1320463135
 40
0.1464638315
 40
0.1615125483
 40
0.1771709762
 40
0.1934156325
 40
0.2102212121
 40
0.227560776
 40
0.2454058985
 40
0.2637267915
 40
0.2824924066
 40
0.301670562
 40
0.3212280538
 40
0.3411307527
 40
0.3613436886
 40
0.3818311502
 40
0.4234830009
 40
0.4657900865
 40
0.5084493967
 40
0.5511547108
 40
0.5935993871
 40
0.6354791574
 40
0.6561138186
 40
0.6764956774
 40
0.6965886249
 40
0.7163572365
 40
0.7357668718
 40
0.7547837585
 40
0.7733750858
 40
0.7915091116
 40
0.8091552865
 40
0.8262843515
 40
0.8428684553
 40
0.8588812909
 40
0.8742982713
 40
0.8890966892
 40
0.903255907
 40
0.9167575969
 40
0.9295860577
 40
0.9417285821
 40
0.9531758913
 40
0.9586373142
 40
0.9639233798
 40
0.9690341711
 40
0.9739701746
 40
0.9787322477
 40
0.9833217159
 40
0.987740533
 40
0.9919911588
 40
0.9960764967
 40
1.0
 40
1.0
 40
1.0
 40
1.0
 10
12.872903254
 20
8.5954807053
 30
0.0
 10
12.871642866
 20
8.5959263231
 30
0.0
 10
12.8691246756
 20
8.5969356197
 30
0.0
 10
12.8654235111
 20
8.5987656616
 30
0.0
 10
12.8617563884
 20
8.6009279828
 30
0.0
 10
12.8581253292
 20
8.603421086
 30
0.0
 10
12.8545317014
 20
8.6062434127
 30
0.0
 10
12.8509770949
 20
8.6093934812
 30
0.0
 10
12.8474629439
 20
8.6128696162
 30
0.0
 10
12.8439906895
 20
8.6166700703
 30
0.0
 10
12.8405618832
 20
8.6207930649
 30
0.0
 10
12.8371779241
 20
8.6252365749
 30
0.0
 10
12.8338403504
 20
8.629998542
 30
0.0
 10
12.8305506669
 20
8.6350767316
 30
0.0
 10
12.8273103054
 20
8.6404687311
 30
0.0
 10
12.8241208351
 20
8.6461720493
 30
0.0
 10
12.8209836758
 20
8.6521839742
 30
0.0
 10
12.817900301
 20
8.6585016785
 30
0.0
 10
12.8148722045
 20
8.6651221958
 30
0.0
 10
12.8119007527
 20
8.6720423659
 30
0.0
 10
12.8089873837
 20
8.6792589415
 30
0.0
 10
12.8051231468
 20
8.6894273271
 30
0.0
 10
12.8004621062
 20
8.7028649504
 30
0.0
 10
12.7952038601
 20
8.7198775561
 30
0.0
 10
12.7902086886
 20
8.7379829123
 30
0.0
 10
12.7854862121
 20
8.7571465435
 30
0.0
 10
12.7810455392
 20
8.7773321529
 30
0.0
 10
12.7768952612
 20
8.7985013242
 30
0.0
 10
12.7730434198
 20
8.8206137341
 30
0.0
 10
12.7694974863
 20
8.8436271951
 30
0.0
 10
12.7662643181
 20
8.8674977507
 30
0.0
 10
12.7633501775
 20
8.8921797754
 30
0.0
 10
12.7607607132
 20
8.9176260765
 30
0.0
 10
12.7585009541
 20
8.94378798
 30
0.0
 10
12.7565752719
 20
8.9706154204
 30
0.0
 10
12.7549873954
 20
8.9980570434
 30
0.0
 10
12.7537404044
 20
9.0260603196
 30
0.0
 10
12.7528367401
 20
9.0545716238
 30
0.0
 10
12.7522781288
 20
9.0835364038
 30
0.0
 10
12.7519934446
 20
9.1229020783
 30
0.0
 10
12.7525160322
 20
9.172831528
 30
0.0
 10
12.7545143988
 20
9.2333292768
 30
0.0
 10
12.7578726982
 20
9.2942711949
 30
0.0
 10
12.7625653095
 20
9.3551908611
 30
0.0
 10
12.7685562871
 20
9.4156220365
 30
0.0
 10
12.7746216403
 20
9.4654312851
 30
0.0
 10
12.780097626
 20
9.504677847
 30
0.0
 10
12.7844774787
 20
9.5335598434
 30
0.0
 10
12.7891417926
 20
9.5619778146
 30
0.0
 10
12.7940816481
 20
9.5898773828
 30
0.0
 10
12.799287535
 20
9.617205124
 30
0.0
 10
12.8047494508
 20
9.6439087276
 30
0.0
 10
12.8104568998
 20
9.6699370762
 30
0.0
 10
12.8163989171
 20
9.6952403579
 30
0.0
 10
12.8225640646
 20
9.7197701717
 30
0.0
 10
12.8289404812
 20
9.743479614
 30
0.0
 10
12.8355158996
 20
9.7663233629
 30
0.0
 10
12.8422776788
 20
9.7882577764
 30
0.0
 10
12.8492127992
 20
9.8092409975
 30
0.0
 10
12.8563079126
 20
9.8292330332
 30
0.0
 10
12.863549375
 20
9.8481958382
 30
0.0
 10
12.8709232833
 20
9.8660933652
 30
0.0
 10
12.8784155071
 20
9.8828918022
 30
0.0
 10
12.8860116882
 20
9.8985592108
 30
0.0
 10
12.8925144311
 20
9.9108339309
 30
0.0
 10
12.8977677944
 20
9.9200523331
 30
0.0
 10
12.9016628737
 20
9.9265564053
 30
0.0
 10
12.9055730989
 20
9.9327564304
 30
0.0
 10
12.9094965958
 20
9.9386494925
 30
0.0
 10
12.9134314914
 20
9.944232801
 30
0.0
 10
12.9173760157
 20
9.9495037185
 30
0.0
 10
12.9213283166
 20
9.954459848
 30
0.0
 10
12.9252866692
 20
9.9590988357
 30
0.0
 10
12.9292489787
 20
9.9634182826
 30
0.0
 10
12.9319455241
 20
9.9661376056
 30
0.0
 10
12.933294492
 20
9.9674406085
 30
0.0
  0
SPLINE
  5
391
100
AcDbEntity
  8
0
100
AcDbSpline
 62
7
  6
CONTINUOUS
 70
0
 71
3
 72
15
 73
11
 74
0
 42
0.0000001
 43
0.0000001
 44
0.0000000001
 40
0.0
 40
0.0
 40
0.0
 40
0.0
 40
0.1084409689
 40
0.2203200574
 40
0.3363916714
 40
0.4573220485
 40
0.5836914378
 40
0.7159983307
 40
0.8546576762
 40
1.0
 40
1.0
 40
1.0
 40
1.0
 10
12.9695291637
 20
9.9887796069
 30
0.0
 10
12.9680202788
 20
9.9884716085
 30
0.0
 10
12.9649828914
 20
9.9876993004
 30
0.0
 10
12.9604708164
 20
9.9861131734
 30
0.0
 10
12.9559441009
 20
9.9840859686
 30
0.0
 10
12.951405972
 20
9.9816197679
 30
0.0
 10
12.9468587332
 20
9.9787166308
 30
0.0
 10
12.9423048155
 20
9.9753787006
 30
0.0
 10
12.9377469967
 20
9.9716085187
 30
0.0
 10
12.9347790657
 20
9.9688745967
 30
0.0
 10
12.933294492
 20
9.9674406085
 30
0.0
  0
SPLINE
  5
392
100
AcDbEntity
  8
0
100
AcDbSpline
 62
7
  6
CONTINUOUS
 70
0
 71
3
 72
52
 73
48
 74
0
 42
0.0000001
 43
0.0000001
 44
0.0000000001
 40
0.0
 40
0.0
 40
0.0
 40
0.0
 40
0.0149715717
 40
0.0299462022
 40
0.0449269325
 40
0.0599167656
 40
0.0749186485
 40
0.0899354558
 40
0.1049699719
 40
0.1200248735
 40
0.135102714
 40
0.1502059106
 40
0.1653367293
 40
0.1804972711
 40
0.1956894619
 40
0.2109150433
 40
0.2261755621
 40
0.2414723615
 40
0.2568065779
 40
0.2721791349
 40
0.287590738
 40
0.3030418728
 40
0.3185328064
 40
0.3340635859
 40
0.3496340377
 40
0.3652437732
 40
0.3808921929
 40
0.3965784884
 40
0.4280553826
 40
0.4596692393
 40
0.4914068231
 40
0.5232523528
 40
0.5551878445
 40
0.5871934983
 40
0.6192481072
 40
0.6513294866
 40
0.6834149211
 40
0.7154816138
 40
0.7475071404
 40
0.7794698972
 40
0.811349535
 40
0.8431273814
 40
0.8747868291
 40
0.9063137054
 40
0.9376965854
 40
0.9689269539
 40
1.0
 40
1.0
 40
1.0
 40
1.0
 10
9.8129749397
 20
7.4723964518
 30
0.0
 10
9.8209677745
 20
7.4801169256
 30
0.0
 10
9.837263932
 20
7.4952433453
 30
0.0
 10
9.8625931604
 20
7.5169461483
 30
0.0
 10
9.88877524
 20
7.5376347998
 30
0.0
 10
9.9157736644
 20
7.5572803159
 30
0.0
 10
9.9435513897
 20
7.5758558182
 30
0.0
 10
9.9720701305
 20
7.5933357482
 30
0.0
 10
10.0012906607
 20
7.6096960524
 30
0.0
 10
10.031172778
 20
7.6249141942
 30
0.0
 10
10.0616753301
 20
7.6389693003
 30
0.0
 10
10.0927563389
 20
7.6518420572
 30
0.0
 10
10.1243730521
 20
7.6635147266
 30
0.0
 10
10.1564819557
 20
7.6739712814
 30
0.0
 10
10.1890388558
 20
7.6831973993
 30
0.0
 10
10.2219989646
 20
7.6911803976
 30
0.0
 10
10.2553169453
 20
7.6979092715
 30
0.0
 10
10.2889469494
 20
7.7033748428
 30
0.0
 10
10.3228427153
 20
7.7075696354
 30
0.0
 10
10.356957625
 20
7.7104878647
 30
0.0
 10
10.3912447542
 20
7.7121255381
 30
0.0
 10
10.4256569435
 20
7.7124804801
 30
0.0
 10
10.4601468742
 20
7.711552221
 30
0.0
 10
10.4946671044
 20
7.7093420134
 30
0.0
 10
10.5291702063
 20
7.7058529531
 30
0.0
 10
10.5636085955
 20
7.7010899314
 30
0.0
 10
10.5979354716
 20
7.6950593171
 30
0.0
 10
10.6435394719
 20
7.6853297896
 30
0.0
 10
10.7000325194
 20
7.6700329239
 30
0.0
 10
10.7665372802
 20
7.6468048767
 30
0.0
 10
10.8314795608
 20
7.618809834
 30
0.0
 10
10.8945004807
 20
7.5862022942
 30
0.0
 10
10.9552549577
 20
7.5491616814
 30
0.0
 10
11.0134094134
 20
7.507891562
 30
0.0
 10
11.0686448423
 20
7.4626187273
 30
0.0
 10
11.1206581491
 20
7.4135918024
 30
0.0
 10
11.1691638371
 20
7.3610798923
 30
0.0
 10
11.2138957328
 20
7.3053712841
 30
0.0
 10
11.2546080845
 20
7.2467715858
 30
0.0
 10
11.2910773784
 20
7.1856024391
 30
0.0
 10
11.3231030098
 20
7.1221993835
 30
0.0
 10
11.3505089143
 20
7.0569104155
 30
0.0
 10
11.3731440903
 20
6.9900936915
 30
0.0
 10
11.39088371
 20
6.9221163334
 30
0.0
 10
11.4036297114
 20
6.8533502743
 30
0.0
 10
11.4113113692
 20
6.7841780505
 30
0.0
 10
11.4130319258
 20
6.7379155674
 30
0.0
 10
11.4130319258
 20
6.7148515846
 30
0.0
  0
SPLINE
  5
393
100
AcDbEntity
  8
0
100
AcDbSpline
 62
7
  6
CONTINUOUS
 70
0
 71
3
 72
39
 73
35
 74
0
 42
0.0000001
 43
0.0000001
 44
0.0000000001
 40
0.0
 40
0.0
 40
0.0
 40
0.0
 40
0.0306153748
 40
0.0613369731
 40
0.0921623166
 40
0.1230894224
 40
0.1541144136
 40
0.1852328368
 40
0.2164392182
 40
0.2477272853
 40
0.2790899865
 40
0.3105195733
 40
0.342007676
 40
0.3735453845
 40
0.4051233328
 40
0.4367317869
 40
0.4683607341
 40
0.499999975
 40
0.5316392164
 40
0.5632681647
 40
0.5948766203
 40
0.6264545704
 40
0.6579922807
 40
0.6894803855
 40
0.7209099749
 40
0.7522726793
 40
0.7835607502
 40
0.8147671372
 40
0.8458855599
 40
0.8769105735
 40
0.9078376282
 40
0.938663121
 40
0.9693844401
 40
1.0
 40
1.0
 40
1.0
 40
1.0
 10
11.1667926583
 20
6.7405032809
 30
0.0
 10
11.1667926486
 20
6.7518292357
 30
0.0
 10
11.1662222327
 20
6.7745244691
 30
0.0
 10
11.1636681627
 20
6.808536858
 30
0.0
 10
11.1594204759
 20
6.842496455
 30
0.0
 10
11.1534901536
 20
6.8763165334
 30
0.0
 10
11.145892034
 20
6.9099124838
 30
0.0
 10
11.1366453822
 20
6.9431996744
 30
0.0
 10
11.1257734777
 20
6.976094443
 30
0.0
 10
11.1133037316
 20
7.0085140663
 30
0.0
 10
11.0992675438
 20
7.0403770326
 30
0.0
 10
11.0837002611
 20
7.0716032333
 30
0.0
 10
11.0666410718
 20
7.1021141657
 30
0.0
 10
11.0481329061
 20
7.1318331261
 30
0.0
 10
11.0282223289
 20
7.1606854021
 30
0.0
 10
11.006959423
 20
7.1885984586
 30
0.0
 10
10.9843976637
 20
7.2155021191
 30
0.0
 10
10.9605937859
 20
7.241328741
 30
0.0
 10
10.9356076403
 20
7.2660133832
 30
0.0
 10
10.9095020515
 20
7.2894939761
 30
0.0
 10
10.8823426574
 20
7.3117114764
 30
0.0
 10
10.85419774
 20
7.3326100092
 30
0.0
 10
10.8251380562
 20
7.3521370092
 30
0.0
 10
10.7952366604
 20
7.3702433514
 30
0.0
 10
10.7645687225
 20
7.3868834743
 30
0.0
 10
10.7332113408
 20
7.4020154945
 30
0.0
 10
10.701243349
 20
7.4156013098
 30
0.0
 10
10.6687451198
 20
7.4276067017
 30
0.0
 10
10.635798374
 20
7.4380014256
 30
0.0
 10
10.6024859358
 20
7.4467592789
 30
0.0
 10
10.5688916599
 20
7.4538581626
 30
0.0
 10
10.5350997313
 20
7.4592801599
 30
0.0
 10
10.5011962758
 20
7.4630114973
 30
0.0
 10
10.4785344782
 20
7.4643681104
 30
0.0
 10
10.4672152585
 20
7.4647606286
 30
0.0
  0
SPLINE
  5
394
100
AcDbEntity
  8
0
100
AcDbSpline
 62
7
  6
CONTINUOUS
 70
0
 71
3
 72
11
 73
7
 74
0
 42
0.0000001
 43
0.0000001
 44
0.0000000001
 40
0.0
 40
0.0
 40
0.0
 40
0.0
 40
0.2520305513
 40
0.5028406252
 40
0.7522236455
 40
1.0
 40
1.0
 40
1.0
 40
1.0
 10
11.1317831601
 20
6.7532542739
 30
0.0
 10
11.1224752621
 20
6.7516735959
 30
0.0
 10
11.1038110994
 20
6.7490426395
 30
0.0
 10
11.0757114798
 20
6.7467335978
 30
0.0
 10
11.0476831264
 20
6.7461027252
 30
0.0
 10
11.0290591971
 20
6.7468154731
 30
0.0
 10
11.0197996406
 20
6.7474576256
 30
0.0
  0
SPLINE
  5
395
100
AcDbEntity
  8
0
100
AcDbSpline
 62
7
  6
CONTINUOUS
 70
0
 71
3
 72
39
 73
35
 74
0
 42
0.0000001
 43
0.0000001
 44
0.0000000001
 40
0.0
 40
0.0
 40
0.0
 40
0.0
 40
0.0299424698
 40
0.0599093171
 40
0.0899243244
 40
0.1200101049
 40
0.1501875654
 40
0.1804754197
 40
0.2108897678
 40
0.2414437479
 40
0.2721472748
 40
0.3030068601
 40
0.3340255156
 40
0.3652027379
 40
0.3965345747
 40
0.4280137612
 40
0.4596299196
 40
0.491369815
 40
0.5232176628
 40
0.555155479
 40
0.5871634623
 40
0.619220404
 40
0.6513041182
 40
0.6833918873
 40
0.7154609133
 40
0.74748877
 40
0.7794538516
 40
0.811335809
 40
0.8431159677
 40
0.8747777197
 40
0.9063068786
 40
0.9376920899
 40
0.9689246486
 40
1.0
 40
1.0
 40
1.0
 40
1.0
 10
10.9857332184
 20
10.4553948086
 30
0.0
 10
10.9938953373
 20
10.4632787834
 30
0.0
 10
11.0108614137
 20
10.4784104241
 30
0.0
 10
11.0380436796
 20
10.4990246101
 30
0.0
 10
11.0668201861
 20
10.5174523256
 30
0.0
 10
11.0970301226
 20
10.5335902249
 30
0.0
 10
11.1285074031
 20
10.5473501409
 30
0.0
 10
11.1610783181
 20
10.5586564146
 30
0.0
 10
11.1945633834
 20
10.5674471733
 30
0.0
 10
11.228778111
 20
10.5736744535
 30
0.0
 10
11.263534123
 20
10.5773044329
 30
0.0
 10
11.2986401679
 20
10.5783175864
 30
0.0
 10
11.3339031705
 20
10.5767087657
 30
0.0
 10
11.3691292912
 20
10.5724872816
 30
0.0
 10
11.404124987
 20
10.5656767588
 30
0.0
 10
11.4386980572
 20
10.5563149909
 30
0.0
 10
11.4726586757
 20
10.5444537108
 30
0.0
 10
11.5058204348
 20
10.5301583564
 30
0.0
 10
11.5380013585
 20
10.5135076907
 30
0.0
 10
11.5690248689
 20
10.4945933259
 30
0.0
 10
11.5987207394
 20
10.4735192306
 30
0.0
 10
11.6269260205
 20
10.450401175
 30
0.0
 10
11.6534859619
 20
10.4253661413
 30
0.0
 10
11.6782548079
 20
10.3985515706
 30
0.0
 10
11.7010965917
 20
10.370104628
 30
0.0
 10
11.721885862
 20
10.3401813994
 30
0.0
 10
11.7405084252
 20
10.3089460894
 30
0.0
 10
11.7568619326
 20
10.2765700889
 30
0.0
 10
11.7708564215
 20
10.2432310629
 30
0.0
 10
11.7824147942
 20
10.2091119122
 30
0.0
 10
11.7914733155
 20
10.1744000793
 30
0.0
 10
11.7979818581
 20
10.1392855315
 30
0.0
 10
11.8019044555
 20
10.1039635733
 30
0.0
 10
11.8027830198
 20
10.0803402078
 30
0.0
 10
11.8027830198
 20
10.0685628467
 30
0.0
  0
SPLINE
  5
396
100
AcDbEntity
  8
0
100
AcDbSpline
 62
7
  6
CONTINUOUS
 70
0
 71
3
 72
14
 73
10
 74
0
 42
0.0000001
 43
0.0000001
 44
0.0000000001
 40
0.0
 40
0.0
 40
0.0
 40
0.0
 40
0.0951054329
 40
0.1989160767
 40
0.3114443202
 40
0.4325920813
 40
0.5622049883
 40
0.7001192405
 40
1.0
 40
1.0
 40
1.0
 40
1.0
 10
10.2734835224
 20
7.3538943555
 30
0.0
 10
10.2734835116
 20
7.3541961395
 30
0.0
 10
10.2735128034
 20
7.3548274857
 30
0.0
 10
10.2736305792
 20
7.3558093635
 30
0.0
 10
10.2738230576
 20
7.3568634179
 30
0.0
 10
10.2740892349
 20
7.3579854919
 30
0.0
 10
10.27442818
 20
7.3591717301
 30
0.0
 10
10.2749919611
 20
7.360882025
 30
0.0
 10
10.2754990142
 20
7.3621768088
 30
0.0
 10
10.2758704752
 20
7.3630528779
 30
0.0
  0
SPLINE
  5
397
100
AcDbEntity
  8
0
100
AcDbSpline
 62
7
  6
CONTINUOUS
 70
0
 71
3
 72
73
 73
69
 74
0
 42
0.0000001
 43
0.0000001
 44
0.0000000001
 40
0.0
 40
0.0
 40
0.0
 40
0.0
 40
0.003800736
 40
0.0077417125
 40
0.0118259694
 40
0.0160561769
 40
0.0204346131
 40
0.0249630939
 40
0.0296429337
 40
0.0344751192
 40
0.0394602956
 40
0.0445988122
 40
0.0553355296
 40
0.0666836134
 40
0.0786374516
 40
0.0911885496
 40
0.1043259028
 40
0.1180362832
 40
0.1323045015
 40
0.1471136189
 40
0.162445114
 40
0.17827901
 40
0.1945940074
 40
0.2113676071
 40
0.2285762078
 40
0.2461951847
 40
0.2641989728
 40
0.2825611594
 40
0.3012545575
 40
0.32025127
 40
0.339522754
 40
0.3787724686
 40
0.4187658439
 40
0.4592583072
 40
0.5000013073
 40
0.540744295
 40
0.5812367231
 40
0.6212300376
 40
0.6604796713
 40
0.6797511037
 40
0.6987477602
 40
0.7174411008
 40
0.7358032217
 40
0.753806936
 40
0.7714258352
 40
0.7886343588
 40
0.8054078745
 40
0.821722779
 40
0.8375565782
 40
0.8528879785
 40
0.8676969974
 40
0.8819651077
 40
0.8956753762
 40
0.9088126204
 40
0.9213636101
 40
0.9333173313
 40
0.9446652935
 40
0.9554018944
 40
0.9605403572
 40
0.9655254793
 40
0.9703575922
 40
0.9750373707
 40
0.9795657989
 40
0.9839442122
 40
0.9881743889
 40
0.9922585134
 40
0.9961992942
 40
1.0
 40
1.0
 40
1.0
 40
1.0
 10
11.5866695633
 20
10.986554785
 30
0.0
 10
11.5851107403
 20
10.9851041882
 30
0.0
 10
11.5818763565
 20
10.982212564
 30
0.0
 10
11.5767785379
 20
10.9779786323
 30
0.0
 10
11.5713499486
 20
10.9737725908
 30
0.0
 10
11.5655930127
 20
10.9695962152
 30
0.0
 10
11.5595099977
 20
10.9654510997
 30
0.0
 10
11.553103324
 20
10.9613389073
 30
0.0
 10
11.5463756197
 20
10.9572612256
 30
0.0
 10
11.5393296127
 20
10.953219792
 30
0.0
 10
11.5319681849
 20
10.9492162
 30
0.0
 10
11.5215840433
 20
10.9438521351
 30
0.0
 10
11.5078226473
 20
10.9372668148
 30
0.0
 10
11.4903347921
 20
10.9296526424
 30
0.0
 10
11.4716674945
 20
10.9222276749
 30
0.0
 10
11.4518513236
 20
10.9150041377
 30
0.0
 10
11.4309184764
 20
10.9079939387
 30
0.0
 10
11.4089031844
 20
10.901208654
 30
0.0
 10
11.385841495
 20
10.8946595066
 30
0.0
 10
11.3617712265
 20
10.8883573452
 30
0.0
 10
11.3367318914
 20
10.8823126238
 30
0.0
 10
11.3107646404
 20
10.8765353574
 30
0.0
 10
11.283912183
 20
10.8710351136
 30
0.0
 10
11.2562187005
 20
10.8658210086
 30
0.0
 10
11.2277297707
 20
10.860901691
 30
0.0
 10
11.1984923015
 20
10.8562853136
 30
0.0
 10
11.168554452
 20
10.8519795146
 30
0.0
 10
11.1379655365
 20
10.8479914227
 30
0.0
 10
11.1067759586
 20
10.8443276579
 30
0.0
 10
11.0750370657
 20
10.8409942549
 30
0.0
 10
11.0317934573
 20
10.8369733191
 30
0.0
 10
10.9767517142
 20
10.8328248707
 30
0.0
 10
10.9097593431
 20
10.829266392
 30
0.0
 10
10.841869764
 20
10.8271217904
 30
0.0
 10
10.7735302519
 20
10.8264053819
 30
0.0
 10
10.705190761
 20
10.8271219286
 30
0.0
 10
10.6373012468
 20
10.8292666628
 30
0.0
 10
10.5703089823
 20
10.8328252818
 30
0.0
 10
10.5152673556
 20
10.8369738334
 30
0.0
 10
10.4720238619
 20
10.8409948623
 30
0.0
 10
10.4402850689
 20
10.8443283304
 30
0.0
 10
10.4090955987
 20
10.8479921516
 30
0.0
 10
10.3785068026
 20
10.8519803057
 30
0.0
 10
10.348569085
 20
10.856286168
 30
0.0
 10
10.3193317552
 20
10.8609026068
 30
0.0
 10
10.2908429702
 20
10.8658219758
 30
0.0
 10
10.2631496427
 20
10.8710361354
 30
0.0
 10
10.2362973535
 20
10.8765364363
 30
0.0
 10
10.2103302781
 20
10.8823137583
 30
0.0
 10
10.1852911214
 20
10.8883585258
 30
0.0
 10
10.161221039
 20
10.8946607319
 30
0.0
 10
10.138159549
 20
10.901209929
 30
0.0
 10
10.1161444645
 20
10.9079952615
 30
0.0
 10
10.0952118254
 20
10.915005501
 30
0.0
 10
10.0753958658
 20
10.9222290712
 30
0.0
 10
10.0567287933
 20
10.9296540796
 30
0.0
 10
10.0392411722
 20
10.9372682912
 30
0.0
 10
10.0254799699
 20
10.9438536379
 30
0.0
 10
10.0150959836
 20
10.9492177292
 30
0.0
 10
10.0077346725
 20
10.953221324
 30
0.0
 10
10.000688802
 20
10.9572627837
 30
0.0
 10
9.993961214
 20
10.9613404555
 30
0.0
 10
9.9875546506
 20
10.9654526785
 30
0.0
 10
9.9814717427
 20
10.9695978451
 30
0.0
 10
9.9757149315
 20
10.9737742152
 30
0.0
 10
9.970286559
 20
10.977980208
 30
0.0
 10
9.9651889287
 20
10.9822140517
 30
0.0
 10
9.9619546788
 20
10.9851056367
 30
0.0
 10
9.9603958943
 20
10.9865562501
 30
0.0
  0
SPLINE
  5
398
100
AcDbEntity
  8
0
100
AcDbSpline
 62
7
  6
CONTINUOUS
 70
0
 71
3
 72
13
 73
9
 74
0
 42
0.0000001
 43
0.0000001
 44
0.0000000001
 40
0.0
 40
0.0
 40
0.0
 40
0.0
 40
0.2883409816
 40
0.4205270935
 40
0.5460505317
 40
0.6658569605
 40
0.780868943
 40
1.0
 40
1.0
 40
1.0
 40
1.0
 10
9.9941489041
 20
10.9614257018
 30
0.0
 10
9.9936921312
 20
10.9624586582
 30
0.0
 10
9.993091872
 20
10.9639964138
 30
0.0
 10
9.9924714604
 20
10.966044085
 30
0.0
 10
9.9921147316
 20
10.9674798524
 30
0.0
 10
9.9918470114
 20
10.9688664477
 30
0.0
 10
9.9916051678
 20
10.9706286715
 30
0.0
 10
9.9915335224
 20
10.9719389342
 30
0.0
 10
9.9915335224
 20
10.9727972789
 30
0.0
  0
SPLINE
  5
399
100
AcDbEntity
  8
0
100
AcDbSpline
 62
7
  6
CONTINUOUS
 70
0
 71
3
 72
11
 73
7
 74
0
 42
0.0000001
 43
0.0000001
 44
0.0000000001
 40
0.0
 40
0.0
 40
0.0
 40
0.0
 40
0.2196582086
 40
0.4546240807
 40
0.7119771279
 40
1.0
 40
1.0
 40
1.0
 40
1.0
 10
11.5555335224
 20
10.9727972789
 30
0.0
 10
11.5555335224
 20
10.9719407139
 30
0.0
 10
11.5554363578
 20
10.9701663894
 30
0.0
 10
11.5549780492
 20
10.9674228232
 30
0.0
 10
11.5541643714
 20
10.9644852672
 30
0.0
 10
11.5533908525
 20
10.9624999499
 30
0.0
 10
11.5529377958
 20
10.9614722254
 30
0.0
  0
SPLINE
  5
39A
100
AcDbEntity
  8
0
100
AcDbSpline
 62
7
  6
CONTINUOUS
 70
0
 71
3
 72
25
 73
21
 74
0
 42
0.0000001
 43
0.0000001
 44
0.0000000001
 40
0.0
 40
0.0
 40
0.0
 40
0.0
 40
0.063777207
 40
0.1273431941
 40
0.1907001592
 40
0.25385355
 40
0.3168099722
 40
0.379578248
 40
0.4421688981
 40
0.5045942164
 40
0.5668681104
 40
0.6290059928
 40
0.6910246328
 40
0.721997334
 40
0.752947051
 40
0.8147821323
 40
0.8765547551
 40
0.9074265678
 40
0.9382904798
 40
1.0
 40
1.0
 40
1.0
 40
1.0
 10
9.5516927482
 20
6.843935895
 30
0.0
 10
9.5516927482
 20
6.8588017049
 30
0.0
 10
9.5524042141
 20
6.888489132
 30
0.0
 10
9.555615817
 20
6.93283983
 30
0.0
 10
9.5609628559
 20
6.9768387688
 30
0.0
 10
9.5684329973
 20
7.0203831135
 30
0.0
 10
9.5780092099
 20
7.0633729347
 30
0.0
 10
9.5896694699
 20
7.1057089961
 30
0.0
 10
9.6033870247
 20
7.1472937347
 30
0.0
 10
9.6191303021
 20
7.188031204
 30
0.0
 10
9.6368631964
 20
7.2278276154
 30
0.0
 10
9.656544505
 20
7.2665905752
 30
0.0
 10
9.6745405605
 20
7.2979728617
 30
0.0
 10
9.689861971
 20
7.3224679065
 30
0.0
 10
9.7057805077
 20
7.3465279411
 30
0.0
 10
9.7268065465
 20
7.3758019455
 30
0.0
 10
9.7492948644
 20
7.4039449579
 30
0.0
 10
9.7681214712
 20
7.4257280982
 30
0.0
 10
9.7874912371
 20
7.4470089308
 30
0.0
 10
9.8026292793
 20
7.4624033267
 30
0.0
 10
9.8129749397
 20
7.4723964518
 30
0.0
  0
SPLINE
  5
39B
100
AcDbEntity
  8
0
100
AcDbSpline
 62
7
  6
CONTINUOUS
 70
0
 71
3
 72
51
 73
47
 74
0
 42
0.0000001
 43
0.0000001
 44
0.0000000001
 40
0.0
 40
0.0
 40
0.0
 40
0.0
 40
0.0083888522
 40
0.0173410458
 40
0.0268641187
 40
0.0369607104
 40
0.0476299625
 40
0.0588679036
 40
0.0706682579
 40
0.0830222743
 40
0.0959194553
 40
0.1093473589
 40
0.1232922028
 40
0.137738587
 40
0.1680676642
 40
0.2001896813
 40
0.2339425619
 40
0.2691506961
 40
0.3056269822
 40
0.3431746672
 40
0.381589064
 40
0.4206591952
 40
0.4601693916
 40
0.4999008651
 40
0.5396332682
 40
0.5791462468
 40
0.6182209932
 40
0.6566418054
 40
0.6941976596
 40
0.7306838092
 40
0.7659034272
 40
0.7996693229
 40
0.8318057816
 40
0.8621506035
 40
0.8766052982
 40
0.8905587318
 40
0.9039954619
 40
0.9169016999
 40
0.929264955
 40
0.9410747296
 40
0.9523222114
 40
0.9630010782
 40
0.9731072968
 40
0.9826400989
 40
0.9916019886
 40
1.0
 40
1.0
 40
1.0
 40
1.0
 10
12.6424898593
 20
6.7315884402
 30
0.0
 10
12.6432124354
 20
6.7324721598
 30
0.0
 10
12.6446519418
 20
6.7343436663
 30
0.0
 10
12.646732743
 20
6.7373507543
 30
0.0
 10
12.6488016912
 20
6.7406438707
 30
0.0
 10
12.6508558614
 20
6.7442181834
 30
0.0
 10
12.6528922062
 20
6.7480686313
 30
0.0
 10
12.6549078226
 20
6.7521895892
 30
0.0
 10
12.6568996767
 20
6.7565750897
 30
0.0
 10
12.6588649089
 20
6.7612187093
 30
0.0
 10
12.6608005341
 20
6.7661136627
 30
0.0
 10
12.662703751
 20
6.7712527457
 30
0.0
 10
12.6645716937
 20
6.7766284162
 30
0.0
 10
12.6670519043
 20
6.7842245981
 30
0.0
 10
12.6700333516
 20
6.7942570039
 30
0.0
 10
12.6733730783
 20
6.8069167507
 30
0.0
 10
12.6765103159
 20
6.8203108909
 30
0.0
 10
12.6794263364
 20
6.8343604006
 30
0.0
 10
12.6821037023
 20
6.8489824876
 30
0.0
 10
12.6845264387
 20
6.8640908415
 30
0.0
 10
12.6866801039
 20
6.8795962437
 30
0.0
 10
12.6885518777
 20
6.8954070884
 30
0.0
 10
12.690130633
 20
6.911429941
 30
0.0
 10
12.6914070004
 20
6.927570098
 30
0.0
 10
12.6923734226
 20
6.9437321545
 30
0.0
 10
12.6930241994
 20
6.9598205741
 30
0.0
 10
12.6933555217
 20
6.9757402604
 30
0.0
 10
12.6933654968
 20
6.9913971267
 30
0.0
 10
12.6930541607
 20
7.0066986585
 30
0.0
 10
12.6924234852
 20
7.0215544776
 30
0.0
 10
12.6914773621
 20
7.0358768699
 30
0.0
 10
12.6902216177
 20
7.0495813993
 30
0.0
 10
12.6886638763
 20
7.0625871793
 30
0.0
 10
12.6870978854
 20
7.0729407042
 30
0.0
 10
12.6856915931
 20
7.0808113311
 30
0.0
 10
12.6845847273
 20
7.0863971831
 30
0.0
 10
12.6834102327
 20
7.0917537173
 30
0.0
 10
12.6821699177
 20
7.0968730619
 30
0.0
 10
12.6808655475
 20
7.1017476896
 30
0.0
 10
12.6794991525
 20
7.1063704626
 30
0.0
 10
12.6780726622
 20
7.1107346125
 30
0.0
 10
12.6765882805
 20
7.1148338046
 30
0.0
 10
12.6750480826
 20
7.1186620698
 30
0.0
 10
12.6734543827
 20
7.122213974
 30
0.0
 10
12.6718094174
 20
7.1254842697
 30
0.0
 10
12.6706426312
 20
7.1275398529
 30
0.0
 10
12.6700492706
 20
7.1285165037
 30
0.0
  0
SPLINE
  5
39C
100
AcDbEntity
  8
0
100
AcDbSpline
 62
7
  6
CONTINUOUS
 70
0
 71
3
 72
28
 73
24
 74
0
 42
0.0000001
 43
0.0000001
 44
0.0000000001
 40
0.0
 40
0.0
 40
0.0
 40
0.0
 40
0.1273672999
 40
0.2430598519
 40
0.3471211363
 40
0.4397582083
 40
0.521279671
 40
0.5921470339
 40
0.6529641272
 40
0.6798672013
 40
0.7045940061
 40
0.7272951594
 40
0.7481493123
 40
0.7851390274
 40
0.8018748064
 40
0.8178333839
 40
0.8333604526
 40
0.8488062666
 40
0.8645025462
 40
0.8807431321
 40
0.91573302
 40
0.9552351889
 40
1.0
 40
1.0
 40
1.0
 40
1.0
 10
10.2905222844
 20
7.3594102495
 30
0.0
 10
10.2898265866
 20
7.358738257
 30
0.0
 10
10.2884832571
 20
7.3574719298
 30
0.0
 10
10.2865110694
 20
7.3557220944
 30
0.0
 10
10.2846797062
 20
7.3542130651
 30
0.0
 10
10.2829907189
 20
7.3529422716
 30
0.0
 10
10.2814439068
 20
7.351905805
 30
0.0
 10
10.2800392258
 20
7.3510977159
 30
0.0
 10
10.2789447151
 20
7.350589576
 30
0.0
 10
10.2781405194
 20
7.3503007603
 30
0.0
 10
10.2775972372
 20
7.3501458733
 30
0.0
 10
10.2770883258
 20
7.3500426006
 30
0.0
 10
10.2764800572
 20
7.3499750434
 30
0.0
 10
10.2759077095
 20
7.3499970614
 30
0.0
 10
10.2753926907
 20
7.3501255351
 30
0.0
 10
10.275052737
 20
7.3502654155
 30
0.0
 10
10.2747466373
 20
7.3504507639
 30
0.0
 10
10.2744745347
 20
7.3506800244
 30
0.0
 10
10.2742363548
 20
7.3509514499
 30
0.0
 10
10.2739567203
 20
7.3513775664
 30
0.0
 10
10.2736936008
 20
7.3520213597
 30
0.0
 10
10.2735168141
 20
7.3529133261
 30
0.0
 10
10.2734835344
 20
7.3535544042
 30
0.0
 10
10.2734835224
 20
7.3538943555
 30
0.0
  0
SPLINE
  5
39D
100
AcDbEntity
  8
0
100
AcDbSpline
 62
7
  6
CONTINUOUS
 70
0
 71
3
 72
52
 73
48
 74
0
 42
0.0000001
 43
0.0000001
 44
0.0000000001
 40
0.0
 40
0.0
 40
0.0
 40
0.0
 40
0.0149715717
 40
0.0299462022
 40
0.0449269325
 40
0.0599167656
 40
0.0749186485
 40
0.0899354558
 40
0.1049699719
 40
0.1200248735
 40
0.135102714
 40
0.1502059106
 40
0.1653367293
 40
0.1804972711
 40
0.1956894619
 40
0.2109150433
 40
0.2261755621
 40
0.2414723615
 40
0.2568065779
 40
0.2721791349
 40
0.287590738
 40
0.3030418728
 40
0.3185328064
 40
0.3340635859
 40
0.3496340377
 40
0.3652437732
 40
0.3808921929
 40
0.3965784884
 40
0.4280553826
 40
0.4596692393
 40
0.4914068231
 40
0.5232523528
 40
0.5551878445
 40
0.5871934983
 40
0.6192481072
 40
0.6513294866
 40
0.6834149211
 40
0.7154816138
 40
0.7475071404
 40
0.7794698972
 40
0.811349535
 40
0.8431273814
 40
0.8747868291
 40
0.9063137054
 40
0.9376965854
 40
0.9689269539
 40
1.0
 40
1.0
 40
1.0
 40
1.0
 10
11.1517497343
 20
6.0863910277
 30
0.0
 10
11.1437568995
 20
6.078670554
 30
0.0
 10
11.127460742
 20
6.0635441343
 30
0.0
 10
11.1021315136
 20
6.0418413312
 30
0.0
 10
11.075949434
 20
6.0211526797
 30
0.0
 10
11.0489510096
 20
6.0015071636
 30
0.0
 10
11.0211732843
 20
5.9829316614
 30
0.0
 10
10.9926545434
 20
5.9654517313
 30
0.0
 10
10.9634340133
 20
5.9490914272
 30
0.0
 10
10.933551896
 20
5.9338732854
 30
0.0
 10
10.9030493439
 20
5.9198181792
 30
0.0
 10
10.871968335
 20
5.9069454223
 30
0.0
 10
10.8403516219
 20
5.8952727529
 30
0.0
 10
10.8082427183
 20
5.8848161981
 30
0.0
 10
10.7756858182
 20
5.8755900803
 30
0.0
 10
10.7427257094
 20
5.867607082
 30
0.0
 10
10.7094077287
 20
5.8608782081
 30
0.0
 10
10.6757777245
 20
5.8554126368
 30
0.0
 10
10.6418819587
 20
5.8512178442
 30
0.0
 10
10.607767049
 20
5.8482996149
 30
0.0
 10
10.5734799198
 20
5.8466619415
 30
0.0
 10
10.5390677304
 20
5.8463069994
 30
0.0
 10
10.5045777998
 20
5.8472352585
 30
0.0
 10
10.4700575696
 20
5.8494454661
 30
0.0
 10
10.4355544677
 20
5.8529345265
 30
0.0
 10
10.4011160785
 20
5.8576975481
 30
0.0
 10
10.3667892024
 20
5.8637281624
 30
0.0
 10
10.3211852021
 20
5.87345769
 30
0.0
 10
10.2646921546
 20
5.8887545556
 30
0.0
 10
10.1981873937
 20
5.9119826029
 30
0.0
 10
10.1332451132
 20
5.9399776455
 30
0.0
 10
10.0702241932
 20
5.9725851854
 30
0.0
 10
10.0094697163
 20
6.0096257981
 30
0.0
 10
9.9513152605
 20
6.0508959176
 30
0.0
 10
9.8960798317
 20
6.0961687522
 30
0.0
 10
9.8440665249
 20
6.1451956772
 30
0.0
 10
9.7955608369
 20
6.1977075873
 30
0.0
 10
9.7508289412
 20
6.2534161954
 30
0.0
 10
9.7101165895
 20
6.3120158937
 30
0.0
 10
9.6736472956
 20
6.3731850404
 30
0.0
 10
9.6416216642
 20
6.4365880961
 30
0.0
 10
9.6142157597
 20
6.5018770641
 30
0.0
 10
9.5915805837
 20
6.568693788
 30
0.0
 10
9.573840964
 20
6.6366711462
 30
0.0
 10
9.5610949626
 20
6.7054372052
 30
0.0
 10
9.5534133048
 20
6.774609429
 30
0.0
 10
9.5516927482
 20
6.8208719122
 30
0.0
 10
9.5516927482
 20
6.843935895
 30
0.0
  0
SPLINE
  5
39E
100
AcDbEntity
  8
0
100
AcDbSpline
 62
7
  6
CONTINUOUS
 70
0
 71
3
 72
51
 73
47
 74
0
 42
0.0000001
 43
0.0000001
 44
0.0000000001
 40
0.0
 40
0.0
 40
0.0
 40
0.0
 40
0.0149689307
 40
0.0299419338
 40
0.0449220067
 40
0.0599121031
 40
0.0749151159
 40
0.0899338612
 40
0.1049710615
 40
0.1200293273
 40
0.1351111446
 40
0.1502188608
 40
0.1653546703
 40
0.1805206015
 40
0.1957185092
 40
0.2109500634
 40
0.2262167386
 40
0.2415198097
 40
0.2568603469
 40
0.2722392075
 40
0.2876570344
 40
0.3031142564
 40
0.3186110852
 40
0.3341475141
 40
0.3497233236
 40
0.3653380836
 40
0.3966765958
 40
0.428160702
 40
0.4597798427
 40
0.4915206792
 40
0.5233673921
 40
0.5553020311
 40
0.5873048893
 40
0.6193549063
 40
0.6514300928
 40
0.6835079636
 40
0.7155659805
 40
0.747581997
 40
0.7795346926
 40
0.8114040016
 40
0.843171521
 40
0.8748208916
 40
0.9063381597
 40
0.937712083
 40
0.9689342606
 40
1.0
 40
1.0
 40
1.0
 40
1.0
 10
11.1516952838
 20
6.0864483475
 30
0.0
 10
11.1436405339
 20
6.0788790335
 30
0.0
 10
11.1272276149
 20
6.0640552554
 30
0.0
 10
11.1017452501
 20
6.0428067157
 30
0.0
 10
11.0754310128
 20
6.0225709926
 30
0.0
 10
11.0483211942
 20
6.0033761417
 30
0.0
 10
11.0204526054
 20
5.9852481178
 30
0.0
 10
10.9918632369
 20
5.9682115989
 30
0.0
 10
10.9625919726
 20
5.9522898057
 30
0.0
 10
10.9326786726
 20
5.9375043968
 30
0.0
 10
10.9021640853
 20
5.9238754295
 30
0.0
 10
10.8710897381
 20
5.9114214607
 30
0.0
 10
10.8394979163
 20
5.9001594687
 30
0.0
 10
10.8074316487
 20
5.8901046948
 30
0.0
 10
10.7749345797
 20
5.8812707946
 30
0.0
 10
10.7420509226
 20
5.8736698312
 30
0.0
 10
10.708825443
 20
5.8673120852
 30
0.0
 10
10.6753033614
 20
5.862206145
 30
0.0
 10
10.6415302848
 20
5.8583589782
 30
0.0
 10
10.6075521694
 20
5.8557758115
 30
0.0
 10
10.5734152479
 20
5.8544600696
 30
0.0
 10
10.5391659702
 20
5.8544135276
 30
0.0
 10
10.5048508911
 20
5.8556362942
 30
0.0
 10
10.47051684
 20
5.8581265821
 30
0.0
 10
10.4362099561
 20
5.8618810974
 30
0.0
 10
10.3905168791
 20
5.8685729063
 30
0.0
 10
10.3336966727
 20
5.8800810223
 30
0.0
 10
10.266460837
 20
5.8988061533
 30
0.0
 10
10.2004448833
 20
5.9223624818
 30
0.0
 10
10.136009757
 20
5.9506213101
 30
0.0
 10
10.073504543
 20
5.9834286154
 30
0.0
 10
10.0132687664
 20
6.020605946
 30
0.0
 10
9.955629302
 20
6.0619510696
 30
0.0
 10
9.900899007
 20
6.1072392639
 30
0.0
 10
9.8493750436
 20
6.1562245738
 30
0.0
 10
9.80133704
 20
6.2086408646
 30
0.0
 10
9.7570459736
 20
6.2642036476
 30
0.0
 10
9.7167423655
 20
6.3226112241
 30
0.0
 10
9.6806452651
 20
6.3835465669
 30
0.0
 10
9.6489510239
 20
6.4466789494
 30
0.0
 10
9.6218320069
 20
6.511665587
 30
0.0
 10
9.5994361075
 20
6.5781538333
 30
0.0
 10
9.5818853941
 20
6.6457822604
 30
0.0
 10
9.5692759547
 20
6.7141848345
 30
0.0
 10
9.5616769065
 20
6.7829851248
 30
0.0
 10
9.559974951
 20
6.828996627
 30
0.0
 10
9.559974951
 20
6.851935889
 30
0.0
  0
SPLINE
  5
39F
100
AcDbEntity
  8
0
100
AcDbSpline
 62
7
  6
CONTINUOUS
 70
0
 71
3
 72
42
 73
38
 74
0
 42
0.0000001
 43
0.0000001
 44
0.0000000001
 40
0.0
 40
0.0
 40
0.0
 40
0.0
 40
0.0149723977
 40
0.0299478538
 40
0.0449294096
 40
0.0599200691
 40
0.0749227785
 40
0.0899404134
 40
0.120025661
 40
0.1502025864
 40
0.1804899025
 40
0.2109037093
 40
0.2414571466
 40
0.272160128
 40
0.3030191646
 40
0.3340372687
 40
0.3652139372
 40
0.3965452178
 40
0.4280238461
 40
0.4596394447
 40
0.4913787778
 40
0.523226062
 40
0.5551633141
 40
0.5871707326
 40
0.6192271086
 40
0.651310257
 40
0.6833974607
 40
0.7154659218
 40
0.747493215
 40
0.7794577345
 40
0.8113391305
 40
0.8431187296
 40
0.8747799239
 40
0.9063085332
 40
0.9376931786
 40
0.9689252006
 40
1.0
 40
1.0
 40
1.0
 40
1.0
 10
10.9662779231
 20
6.3910732651
 30
0.0
 10
10.9611719582
 20
6.386141298
 30
0.0
 10
10.9507617391
 20
6.3764782289
 30
0.0
 10
10.9345809896
 20
6.3626141145
 30
0.0
 10
10.9178554446
 20
6.3493977967
 30
0.0
 10
10.900608465
 20
6.3368479146
 30
0.0
 10
10.8828633486
 20
6.3249814307
 30
0.0
 10
10.8585609149
 20
6.3100855136
 30
0.0
 10
10.8270430699
 20
6.2932484559
 30
0.0
 10
10.7876654256
 20
6.2760350971
 30
0.0
 10
10.74691842
 20
6.2618904506
 30
0.0
 10
10.7050281119
 20
6.2508929689
 30
0.0
 10
10.6622248777
 20
6.2431024249
 30
0.0
 10
10.6187445047
 20
6.238561163
 30
0.0
 10
10.5748262207
 20
6.2372935842
 30
0.0
 10
10.5307115739
 20
6.2393061519
 30
0.0
 10
10.48664306
 20
6.2445872144
 30
0.0
 10
10.4428628038
 20
6.2531072073
 30
0.0
 10
10.3996112568
 20
6.2648188736
 30
0.0
 10
10.3571258989
 20
6.279657493
 30
0.0
 10
10.3156399131
 20
6.2975411573
 30
0.0
 10
10.2753809611
 20
6.3183713587
 30
0.0
 10
10.2365699703
 20
6.3420335296
 30
0.0
 10
10.1994198888
 20
6.3683975775
 30
0.0
 10
10.164134528
 20
6.3973186188
 30
0.0
 10
10.1309075102
 20
6.4286378384
 30
0.0
 10
10.0999212241
 20
6.4621833352
 30
0.0
 10
10.0713457337
 20
6.4977709638
 30
0.0
 10
10.0453379328
 20
6.5352054249
 30
0.0
 10
10.0220407212
 20
6.5742813308
 30
0.0
 10
10.0015821847
 20
6.614784288
 30
0.0
 10
9.984074824
 20
6.6564920062
 30
0.0
 10
9.9696150547
 20
6.6991756664
 30
0.0
 10
9.9582826603
 20
6.7426007842
 30
0.0
 10
9.9501403494
 20
6.7865297162
 30
0.0
 10
9.9452331129
 20
6.8307181185
 30
0.0
 10
9.9441340075
 20
6.8602713771
 30
0.0
 10
9.9441340075
 20
6.8750050651
 30
0.0
  0
SPLINE
  5
3A0
100
AcDbEntity
  8
0
100
AcDbSpline
 62
7
  6
CONTINUOUS
 70
0
 71
3
 72
43
 73
39
 74
0
 42
0.0000001
 43
0.0000001
 44
0.0000000001
 40
0.0
 40
0.0
 40
0.0
 40
0.0
 40
0.0149718329
 40
0.0299621038
 40
0.0449728917
 40
0.0600061778
 40
0.0901429492
 40
0.1203906251
 40
0.1355619788
 40
0.1507651326
 40
0.1660011424
 40
0.1812709146
 40
0.2119101299
 40
0.2426913185
 40
0.2736159375
 40
0.3046828642
 40
0.3358884517
 40
0.367226627
 40
0.3986890269
 40
0.4302651677
 40
0.4619426453
 40
0.4937073613
 40
0.5255437715
 40
0.557435153
 40
0.5893638835
 40
0.6213117323
 40
0.6532601579
 40
0.6851906093
 40
0.7170848278
 40
0.748925145
 40
0.7806947737
 40
0.8123780889
 40
0.8439608947
 40
0.8754306779
 40
0.9067768119
 40
0.9379908786
 40
0.9690663756
 40
1.0
 40
1.0
 40
1.0
 40
1.0
 10
11.0483801057
 20
6.4924022583
 30
0.0
 10
11.042801631
 20
6.4891711579
 30
0.0
 10
11.0315213614
 20
6.4829036616
 30
0.0
 10
11.0142666487
 20
6.4741051247
 30
0.0
 10
10.9966861204
 20
6.4659131828
 30
0.0
 10
10.9728211941
 20
6.4558046261
 30
0.0
 10
10.9422636303
 20
6.4447302069
 30
0.0
 10
10.9109486676
 20
6.4358075457
 30
0.0
 10
10.8855020925
 20
6.4299707214
 30
0.0
 10
10.8662154624
 20
6.4262445632
 30
0.0
 10
10.8467700018
 20
6.4231789256
 30
0.0
 10
10.8206334193
 20
6.4199733953
 30
0.0
 10
10.787666457
 20
6.41763828
 30
0.0
 10
10.747874814
 20
6.4175200374
 30
0.0
 10
10.7079804598
 20
6.4200819426
 30
0.0
 10
10.6681639258
 20
6.4253123358
 30
0.0
 10
10.6286037756
 20
6.4331873415
 30
0.0
 10
10.5894777885
 20
6.4436713034
 30
0.0
 10
10.550961638
 20
6.4567168664
 30
0.0
 10
10.5132282566
 20
6.4722652163
 30
0.0
 10
10.4764470334
 20
6.4902463434
 30
0.0
 10
10.4407830587
 20
6.5105793321
 30
0.0
 10
10.4063963954
 20
6.5331727467
 30
0.0
 10
10.3734413725
 20
6.557925046
 30
0.0
 10
10.3420659004
 20
6.5847250346
 30
0.0
 10
10.3124108138
 20
6.6134523584
 30
0.0
 10
10.2846092485
 20
6.6439780416
 30
0.0
 10
10.258786025
 20
6.6761650402
 30
0.0
 10
10.2350571099
 20
6.7098688723
 30
0.0
 10
10.2135291025
 20
6.7449382626
 30
0.0
 10
10.1942987596
 20
6.7812158117
 30
0.0
 10
10.1774525642
 20
6.8185386997
 30
0.0
 10
10.1630663362
 20
6.8567393891
 30
0.0
 10
10.1512048788
 20
6.8956464282
 30
0.0
 10
10.1419216535
 20
6.935084978
 30
0.0
 10
10.1352586997
 20
6.9748784911
 30
0.0
 10
10.1312460953
 20
7.0148459503
 30
0.0
 10
10.130348201
 20
7.0415545979
 30
0.0
 10
10.130348201
 20
7.0548741745
 30
0.0
  0
SPLINE
  5
3A1
100
AcDbEntity
  8
0
100
AcDbSpline
 62
7
  6
CONTINUOUS
 70
0
 71
3
 72
24
 73
20
 74
0
 42
0.0000001
 43
0.0000001
 44
0.0000000001
 40
0.0
 40
0.0
 40
0.0
 40
0.0
 40
0.0616999866
 40
0.1234258882
 40
0.1851978197
 40
0.2470354417
 40
0.2779873028
 40
0.3089626483
 40
0.3709878624
 40
0.4331331434
 40
0.4954145045
 40
0.5578466478
 40
0.6204428274
 40
0.6832147552
 40
0.7461724286
 40
0.8093242939
 40
0.8726764802
 40
0.9362345174
 40
1.0
 40
1.0
 40
1.0
 40
1.0
 10
9.8130315724
 20
7.4723413022
 30
0.0
 10
9.8029936496
 20
7.4623755207
 30
0.0
 10
9.7834144607
 20
7.4419279004
 30
0.0
 10
9.7556276373
 20
7.4098038077
 30
0.0
 10
9.7294784029
 20
7.3762924496
 30
0.0
 10
9.7091067234
 20
7.3472807539
 30
0.0
 10
9.6936872587
 20
7.3234599101
 30
0.0
 10
9.6788481483
 20
7.2992228307
 30
0.0
 10
9.6614226646
 20
7.2681978522
 30
0.0
 10
9.6423703902
 20
7.2299149655
 30
0.0
 10
9.6252082796
 20
7.190645981
 30
0.0
 10
9.6099748809
 20
7.1504790525
 30
0.0
 10
9.5967039735
 20
7.1095035927
 30
0.0
 10
9.5854250949
 20
7.0678110149
 30
0.0
 10
9.5761632546
 20
7.0254942115
 30
0.0
 10
9.5689390777
 20
6.9826476539
 30
0.0
 10
9.5637684414
 20
6.9393663669
 30
0.0
 10
9.5606629494
 20
6.8957482208
 30
0.0
 10
9.559974951
 20
6.8665542551
 30
0.0
 10
9.559974951
 20
6.851935889
 30
0.0
  0
SPLINE
  5
3A2
100
AcDbEntity
  8
0
100
AcDbSpline
 62
7
  6
CONTINUOUS
 70
0
 71
3
 72
39
 73
35
 74
0
 42
0.0000001
 43
0.0000001
 44
0.0000000001
 40
0.0
 40
0.0
 40
0.0
 40
0.0
 40
0.0318890087
 40
0.0636722099
 40
0.0953510795
 40
0.1269280745
 40
0.1584066181
 40
0.1897910765
 40
0.2210867248
 40
0.2522997042
 40
0.2834369698
 40
0.3145062277
 40
0.3455158635
 40
0.3764748612
 40
0.4073927163
 40
0.4382793411
 40
0.4691449661
 40
0.5000000368
 40
0.530855107
 40
0.5617207305
 40
0.5926073531
 40
0.6235252059
 40
0.654484201
 40
0.6854938335
 40
0.7165630873
 40
0.747700348
 40
0.7789133212
 40
0.8102089634
 40
0.8415934199
 40
0.8730719376
 40
0.9046489993
 40
0.9363276555
 40
0.9681112654
 40
1.0
 40
1.0
 40
1.0
 40
1.0
 10
10.4672152585
 20
7.4647606286
 30
0.0
 10
10.4564214396
 20
7.4651349273
 30
0.0
 10
10.4348480428
 20
7.4653658855
 30
0.0
 10
10.4025649416
 20
7.464150681
 30
0.0
 10
10.3704835103
 20
7.4613761745
 30
0.0
 10
10.3386786522
 20
7.4570486434
 30
0.0
 10
10.3072234119
 20
7.4511780017
 30
0.0
 10
10.2761903692
 20
7.4437777016
 30
0.0
 10
10.2456510562
 20
7.4348647248
 30
0.0
 10
10.2156759032
 20
7.4244595422
 30
0.0
 10
10.1863340349
 20
7.4125860958
 30
0.0
 10
10.1576931254
 20
7.3992717142
 30
0.0
 10
10.1298192394
 20
7.3845470536
 30
0.0
 10
10.1027766803
 20
7.3684460272
 30
0.0
 10
10.0766278401
 20
7.3510057297
 30
0.0
 10
10.0514330567
 20
7.332266349
 30
0.0
 10
10.0272504536
 20
7.3122710984
 30
0.0
 10
10.0041358137
 20
7.2910660971
 30
0.0
 10
9.9821424552
 20
7.2687002569
 30
0.0
 10
9.9613211063
 20
7.2452251706
 30
0.0
 10
9.9417197871
 20
7.2206949922
 30
0.0
 10
9.9233837028
 20
7.1951663087
 30
0.0
 10
9.9063551193
 20
7.1686980214
 30
0.0
 10
9.8906732664
 20
7.1413512039
 30
0.0
 10
9.8763742635
 20
7.113188947
 30
0.0
 10
9.8634910354
 20
7.0842762151
 30
0.0
 10
9.8520532361
 20
7.0546796953
 30
0.0
 10
9.8420871841
 20
7.0244676396
 30
0.0
 10
9.8336158079
 20
6.9937097264
 30
0.0
 10
9.8266585144
 20
6.9624768346
 30
0.0
 10
9.8212313585
 20
6.930841116
 30
0.0
 10
9.8173465832
 20
6.8988750341
 30
0.0
 10
9.8150133396
 20
6.8666534637
 30
0.0
 10
9.8144964213
 20
6.8450849791
 30
0.0
 10
9.8144964213
 20
6.8342847651
 30
0.0
  0
SPLINE
  5
3A3
100
AcDbEntity
  8
0
100
AcDbSpline
 62
7
  6
CONTINUOUS
 70
0
 71
3
 72
39
 73
35
 74
0
 42
0.0000001
 43
0.0000001
 44
0.0000000001
 40
0.0
 40
0.0
 40
0.0
 40
0.0
 40
0.0318373405
 40
0.0635716472
 40
0.0952049004
 40
0.1267399976
 40
0.1581807367
 40
0.1895317906
 40
0.2207986701
 40
0.251987679
 40
0.2831058595
 40
0.3141609307
 40
0.3451612195
 40
0.3761155841
 40
0.4070333302
 40
0.437924121
 40
0.4687978835
 40
0.4996647114
 40
0.5305347667
 40
0.5614181804
 40
0.5923249524
 40
0.6232648537
 40
0.6542473306
 40
0.6852814134
 40
0.7163756317
 40
0.7475379361
 40
0.7787756231
 40
0.8100952759
 40
0.8415026992
 40
0.8730028529
 40
0.9045999742
 40
0.9362968904
 40
0.9680969263
 40
1.0
 40
1.0
 40
1.0
 40
1.0
 10
10.4850491126
 20
7.4638559427
 30
0.0
 10
10.475038915
 20
7.463903084
 30
0.0
 10
10.4550454047
 20
7.4635254584
 30
0.0
 10
10.4251663337
 20
7.4615367187
 30
0.0
 10
10.3955103096
 20
7.4581309136
 30
0.0
 10
10.3661439242
 20
7.4533155182
 30
0.0
 10
10.3371320276
 20
7.4471011358
 30
0.0
 10
10.3085389841
 20
7.4395014945
 30
0.0
 10
10.28042816
 20
7.4305333843
 30
0.0
 10
10.2528618836
 20
7.4202166281
 30
0.0
 10
10.2259012805
 20
7.4085740396
 30
0.0
 10
10.1996061481
 20
7.3956313689
 30
0.0
 10
10.1740348024
 20
7.3814172807
 30
0.0
 10
10.1492439538
 20
7.36596327
 30
0.0
 10
10.1252885875
 20
7.3493035804
 30
0.0
 10
10.1022218394
 20
7.3314751328
 30
0.0
 10
10.080094879
 20
7.3125174425
 30
0.0
 10
10.0589567938
 20
7.2924725343
 30
0.0
 10
10.0388544522
 20
7.2713848739
 30
0.0
 10
10.0198324239
 20
7.249301237
 30
0.0
 10
10.0019328799
 20
7.2262706069
 30
0.0
 10
9.985195499
 20
7.2023440652
 30
0.0
 10
9.9696573842
 20
7.1775746764
 30
0.0
 10
9.955352964
 20
7.15201738
 30
0.0
 10
9.9423139025
 20
7.1257288707
 30
0.0
 10
9.9305690605
 20
7.0987674522
 30
0.0
 10
9.9201444251
 20
7.071192912
 30
0.0
 10
9.9110630568
 20
7.0430663857
 30
0.0
 10
9.9033450516
 20
7.014450235
 30
0.0
 10
9.8970074163
 20
6.9854078561
 30
0.0
 10
9.8920642109
 20
6.9560037663
 30
0.0
 10
9.8885261352
 20
6.9263026911
 30
0.0
 10
9.8864012391
 20
6.8963715538
 30
0.0
 10
9.8859304504
 20
6.8763387306
 30
0.0
 10
9.8859304504
 20
6.8663077542
 30
0.0
  0
SPLINE
  5
3A4
100
AcDbEntity
  8
0
100
AcDbSpline
 62
7
  6
CONTINUOUS
 70
0
 71
3
 72
23
 73
19
 74
0
 42
0.0000001
 43
0.0000001
 44
0.0000000001
 40
0.0
 40
0.0
 40
0.0
 40
0.0
 40
0.0617101446
 40
0.123441395
 40
0.1852146431
 40
0.247050352
 40
0.3089683478
 40
0.3709876199
 40
0.4331261339
 40
0.495400661
 40
0.5578266111
 40
0.6204179017
 40
0.6831868168
 40
0.746143859
 40
0.8092980008
 40
0.8726552579
 40
0.9362226181
 40
1.0
 40
1.0
 40
1.0
 40
1.0
 10
10.1110448545
 20
7.2764756373
 30
0.0
 10
10.1044358799
 20
7.2700918793
 30
0.0
 10
10.0915418541
 20
7.25697944
 30
0.0
 10
10.0732344374
 20
7.2363385623
 30
0.0
 10
10.0559992332
 20
7.2147694323
 30
0.0
 10
10.0398766595
 20
7.1923224881
 30
0.0
 10
10.0249037109
 20
7.1690493279
 30
0.0
 10
10.0111149422
 20
7.145003695
 30
0.0
 10
9.9985420892
 20
7.1202410585
 30
0.0
 10
9.9872141016
 20
7.0948185461
 30
0.0
 10
9.9771570491
 20
7.0687947943
 30
0.0
 10
9.9683940713
 20
7.0422298163
 30
0.0
 10
9.9609453369
 20
7.015184875
 30
0.0
 10
9.9548279155
 20
6.9877222901
 30
0.0
 10
9.9500559221
 20
6.9599055155
 30
0.0
 10
9.9466401005
 20
6.9317982407
 30
0.0
 10
9.94458853
 20
6.9034663337
 30
0.0
 10
9.9441340075
 20
6.8845015058
 30
0.0
 10
9.9441340075
 20
6.8750050651
 30
0.0
  0
SPLINE
  5
3A5
100
AcDbEntity
  8
0
100
AcDbSpline
 62
7
  6
CONTINUOUS
 70
0
 71
3
 72
39
 73
35
 74
0
 42
0.0000001
 43
0.0000001
 44
0.0000000001
 40
0.0
 40
0.0
 40
0.0
 40
0.0
 40
0.0299253932
 40
0.0598988217
 40
0.0899412601
 40
0.1200721324
 40
0.1503088895
 40
0.1806666436
 40
0.2111578662
 40
0.2417921527
 40
0.2725760552
 40
0.3035129893
 40
0.3346032109
 40
0.3658438574
 40
0.3972290481
 40
0.4287500418
 40
0.4603954477
 40
0.4921514757
 40
0.5240022244
 40
0.5559300015
 40
0.5879156705
 40
0.6199390163
 40
0.6519791241
 40
0.6840147684
 40
0.716024807
 40
0.7479885716
 40
0.779886254
 40
0.8116992812
 40
0.8434106735
 40
0.8750053775
 40
0.9064705707
 40
0.9377960047
 40
0.9689738445
 40
1.0
 40
1.0
 40
1.0
 40
1.0
 10
11.0916352898
 20
6.5773928946
 30
0.0
 10
11.0817491038
 20
6.5693959286
 30
0.0
 10
11.0613380141
 20
6.5541421076
 30
0.0
 10
11.0290359563
 20
6.5336523662
 30
0.0
 10
10.9951890055
 20
6.5156390206
 30
0.0
 10
10.9599734105
 20
6.5001962494
 30
0.0
 10
10.9235695323
 20
6.4874025251
 30
0.0
 10
10.886164541
 20
6.4773232733
 30
0.0
 10
10.8479504404
 20
6.4700097794
 30
0.0
 10
10.8091233446
 20
6.4654991742
 30
0.0
 10
10.7698824074
 20
6.4638141342
 30
0.0
 10
10.7304288055
 20
6.4649628284
 30
0.0
 10
10.6909647053
 20
6.4689389405
 30
0.0
 10
10.6516922467
 20
6.4757217226
 30
0.0
 10
10.6128125129
 20
6.4852760558
 30
0.0
 10
10.5745245029
 20
6.4975526451
 30
0.0
 10
10.5370241399
 20
6.5124883393
 30
0.0
 10
10.5005032902
 20
6.5300064539
 30
0.0
 10
10.4651487794
 20
6.550017123
 30
0.0
 10
10.4311414306
 20
6.572417744
 30
0.0
 10
10.3986551838
 20
6.5970935645
 30
0.0
 10
10.3678562207
 20
6.623918256
 30
0.0
 10
10.3389021073
 20
6.6527545288
 30
0.0
 10
10.3119409603
 20
6.6834548019
 30
0.0
 10
10.2871107518
 20
6.715862011
 30
0.0
 10
10.2645386089
 20
6.7498103924
 30
0.0
 10
10.2443401558
 20
6.7851263059
 30
0.0
 10
10.2266188701
 20
6.821629093
 30
0.0
 10
10.2114656276
 20
6.859132014
 30
0.0
 10
10.19895824
 20
6.8974432639
 30
0.0
 10
10.189161019
 20
6.9363666398
 30
0.0
 10
10.1821244854
 20
6.9757035627
 30
0.0
 10
10.1778848783
 20
7.0152500812
 30
0.0
 10
10.1769356291
 20
7.0416907847
 30
0.0
 10
10.1769356291
 20
7.0548741771
 30
0.0
  0
SPLINE
  5
3A6
100
AcDbEntity
  8
0
100
AcDbSpline
 62
7
  6
CONTINUOUS
 70
0
 71
3
 72
23
 73
19
 74
0
 42
0.0000001
 43
0.0000001
 44
0.0000000001
 40
0.0
 40
0.0
 40
0.0
 40
0.0
 40
0.0637771735
 40
0.1273448473
 40
0.1907019822
 40
0.253856143
 40
0.3168131975
 40
0.3795820985
 40
0.4421733906
 40
0.5045993374
 40
0.5668738654
 40
0.62901238
 40
0.6910316489
 40
0.7529496402
 40
0.814785347
 40
0.8765585971
 40
0.938289852
 40
1.0
 40
1.0
 40
1.0
 40
1.0
 10
10.8523119504
 20
10.1344782393
 30
0.0
 10
10.8523119504
 20
10.1420692268
 30
0.0
 10
10.8526752863
 20
10.1572288388
 30
0.0
 10
10.854315207
 20
10.1798760441
 30
0.0
 10
10.8570456796
 20
10.2023437127
 30
0.0
 10
10.8608601919
 20
10.2245791348
 30
0.0
 10
10.8657501941
 20
10.2465314438
 30
0.0
 10
10.8717044074
 20
10.2681498984
 30
0.0
 10
10.8787091505
 20
10.2893846932
 30
0.0
 10
10.8867483143
 20
10.3101868584
 30
0.0
 10
10.8958034038
 20
10.3305084197
 30
0.0
 10
10.9058535972
 20
10.3503024976
 30
0.0
 10
10.9168757589
 20
10.3695234198
 30
0.0
 10
10.9288444873
 20
10.3881268653
 30
0.0
 10
10.9417321573
 20
10.4060698805
 30
0.0
 10
10.9555092154
 20
10.4233112074
 30
0.0
 10
10.9701433503
 20
10.4398105331
 30
0.0
 10
10.9804503116
 20
10.4502919297
 30
0.0
 10
10.9857332184
 20
10.4553948086
 30
0.0
  0
SPLINE
  5
3A7
100
AcDbEntity
  8
0
100
AcDbSpline
 62
7
  6
CONTINUOUS
 70
0
 71
3
 72
16
 73
12
 74
0
 42
0.0000001
 43
0.0000001
 44
0.0000000001
 40
0.0
 40
0.0
 40
0.0
 40
0.0
 40
0.1559642354
 40
0.3046508676
 40
0.4452624422
 40
0.5769827615
 40
0.6990031877
 40
0.8105731006
 40
0.9110632743
 40
0.9569990088
 40
1.0
 40
1.0
 40
1.0
 40
1.0
 10
10.3291010626
 20
7.4044312231
 30
0.0
 10
10.3271703154
 20
7.4020263841
 30
0.0
 10
10.3233958722
 20
7.3973313569
 30
0.0
 10
10.3178551378
 20
7.3904888342
 30
0.0
 10
10.3125763539
 20
7.3840511904
 30
0.0
 10
10.3075762282
 20
7.3780672863
 30
0.0
 10
10.3028723371
 20
7.3725848233
 30
0.0
 10
10.2984826053
 20
7.367647714
 30
0.0
 10
10.2950042523
 20
7.3639148467
 30
0.0
 10
10.2923856638
 20
7.3612363686
 30
0.0
 10
10.2911338597
 20
7.3600009859
 30
0.0
 10
10.2905222844
 20
7.3594102495
 30
0.0
  0
SPLINE
  5
3A8
100
AcDbEntity
  8
0
100
AcDbSpline
 62
7
  6
CONTINUOUS
 70
0
 71
3
 72
39
 73
35
 74
0
 42
0.0000001
 43
0.0000001
 44
0.0000000001
 40
0.0
 40
0.0
 40
0.0
 40
0.0
 40
0.0299424698
 40
0.0599093171
 40
0.0899243244
 40
0.1200101049
 40
0.1501875654
 40
0.1804754197
 40
0.2108897678
 40
0.2414437479
 40
0.2721472748
 40
0.3030068601
 40
0.3340255156
 40
0.3652027379
 40
0.3965345747
 40
0.4280137612
 40
0.4596299196
 40
0.491369815
 40
0.5232176628
 40
0.555155479
 40
0.5871634623
 40
0.619220404
 40
0.6513041182
 40
0.6833918873
 40
0.7154609133
 40
0.74748877
 40
0.7794538516
 40
0.811335809
 40
0.8431159677
 40
0.8747777197
 40
0.9063068786
 40
0.9376920899
 40
0.9689246486
 40
1.0
 40
1.0
 40
1.0
 40
1.0
 10
11.6693617517
 20
9.7476462774
 30
0.0
 10
11.6611996328
 20
9.7397623026
 30
0.0
 10
11.6442335564
 20
9.7246306619
 30
0.0
 10
11.6170512906
 20
9.7040164759
 30
0.0
 10
11.588274784
 20
9.6855887604
 30
0.0
 10
11.5580648476
 20
9.6694508611
 30
0.0
 10
11.5265875671
 20
9.6556909451
 30
0.0
 10
11.494016652
 20
9.6443846714
 30
0.0
 10
11.4605315868
 20
9.6355939127
 30
0.0
 10
11.4263168591
 20
9.6293666325
 30
0.0
 10
11.3915608471
 20
9.6257366531
 30
0.0
 10
11.3564548022
 20
9.6247234996
 30
0.0
 10
11.3211917996
 20
9.6263323203
 30
0.0
 10
11.2859656789
 20
9.6305538044
 30
0.0
 10
11.2509699831
 20
9.6373643272
 30
0.0
 10
11.216396913
 20
9.6467260951
 30
0.0
 10
11.1824362944
 20
9.6585873752
 30
0.0
 10
11.1492745353
 20
9.6728827296
 30
0.0
 10
11.1170936116
 20
9.6895333953
 30
0.0
 10
11.0860701013
 20
9.7084477601
 30
0.0
 10
11.0563742308
 20
9.7295218554
 30
0.0
 10
11.0281689497
 20
9.752639911
 30
0.0
 10
11.0016090082
 20
9.7776749447
 30
0.0
 10
10.9768401623
 20
9.8044895154
 30
0.0
 10
10.9539983784
 20
9.832936458
 30
0.0
 10
10.9332091082
 20
9.8628596866
 30
0.0
 10
10.9145865449
 20
9.8940949966
 30
0.0
 10
10.8982330376
 20
9.9264709972
 30
0.0
 10
10.8842385486
 20
9.9598100231
 30
0.0
 10
10.872680176
 20
9.9939291738
 30
0.0
 10
10.8636216547
 20
10.0286410067
 30
0.0
 10
10.857113112
 20
10.0637555546
 30
0.0
 10
10.8531905146
 20
10.0990775127
 30
0.0
 10
10.8523119504
 20
10.1227008782
 30
0.0
 10
10.8523119504
 20
10.1344782393
 30
0.0
  0
SPLINE
  5
3A9
100
AcDbEntity
  8
0
100
AcDbSpline
 62
7
  6
CONTINUOUS
 70
0
 71
3
 72
39
 73
35
 74
0
 42
0.0000001
 43
0.0000001
 44
0.0000000001
 40
0.0
 40
0.0
 40
0.0
 40
0.0
 40
0.0299344856
 40
0.0599008791
 40
0.0899221446
 40
0.1200199451
 40
0.1502141403
 40
0.1805223391
 40
0.2109595162
 40
0.2415377003
 40
0.2722657447
 40
0.3031491757
 40
0.3341901211
 40
0.3653873149
 40
0.3967361732
 40
0.4282289399
 40
0.4598548909
 40
0.4916005905
 40
0.5234501923
 40
0.5553857793
 40
0.5873877359
 40
0.6194351455
 40
0.6515062043
 40
0.6835786481
 40
0.7156301856
 40
0.7476389324
 40
0.7795838391
 40
0.8114451077
 40
0.8432045897
 40
0.8748461639
 40
0.9063560627
 40
0.9377232984
 40
0.9689394068
 40
1.0
 40
1.0
 40
1.0
 40
1.0
 10
11.6692559662
 20
9.7477592987
 30
0.0
 10
11.6609718045
 20
9.740177116
 30
0.0
 10
11.6437898359
 20
9.7256506762
 30
0.0
 10
11.6163709341
 20
9.7059407441
 30
0.0
 10
11.5874396924
 20
9.6884040868
 30
0.0
 10
11.5571543844
 20
9.6731369794
 30
0.0
 10
11.525677981
 20
9.6602210357
 30
0.0
 10
11.4931805139
 20
9.6497257415
 30
0.0
 10
11.4598372642
 20
9.641707294
 30
0.0
 10
11.4258280436
 20
9.6362084935
 30
0.0
 10
11.3913361346
 20
9.6332585276
 30
0.0
 10
11.3565473211
 20
9.6328728509
 30
0.0
 10
11.3216488862
 20
9.6350531203
 30
0.0
 10
11.2868286169
 20
9.6397872124
 30
0.0
 10
11.2522737956
 20
9.647049256
 30
0.0
 10
11.2181702042
 20
9.6567998289
 30
0.0
 10
11.184701143
 20
9.6689861858
 30
0.0
 10
11.1520464596
 20
9.6835425451
 30
0.0
 10
11.1203816037
 20
9.7003904525
 30
0.0
 10
11.0898766764
 20
9.719439164
 30
0.0
 10
11.0606955332
 20
9.7405861547
 30
0.0
 10
11.0329949263
 20
9.7637176848
 30
0.0
 10
11.0069236709
 20
9.7887093989
 30
0.0
 10
10.9826218622
 20
9.8154269932
 30
0.0
 10
10.9602201092
 20
9.8437269077
 30
0.0
 10
10.9398388305
 20
9.8734570911
 30
0.0
 10
10.9215876416
 20
9.9044578311
 30
0.0
 10
10.9055647652
 20
9.9365626005
 30
0.0
 10
10.8918565094
 20
9.9695989207
 30
0.0
 10
10.8805368063
 20
10.003389343
 30
0.0
 10
10.8716667283
 20
10.037752119
 30
0.0
 10
10.8652943618
 20
10.0725031394
 30
0.0
 10
10.8614541691
 20
10.1074531778
 30
0.0
 10
10.8605941532
 20
10.1308255896
 30
0.0
 10
10.8605941532
 20
10.1424782333
 30
0.0
  0
SPLINE
  5
3AA
100
AcDbEntity
  8
0
100
AcDbSpline
 62
7
  6
CONTINUOUS
 70
0
 71
3
 72
23
 73
19
 74
0
 42
0.0000001
 43
0.0000001
 44
0.0000000001
 40
0.0
 40
0.0
 40
0.0
 40
0.0
 40
0.0616917626
 40
0.1234138647
 40
0.1851856856
 40
0.2470261295
 40
0.3089534427
 40
0.3709850455
 40
0.4331373819
 40
0.4954257624
 40
0.5578642233
 40
0.6204654266
 40
0.68324047
 40
0.7461990158
 40
0.8093490673
 40
0.8726958194
 40
0.9362469603
 40
1.0
 40
1.0
 40
1.0
 40
1.0
 10
10.9858422882
 20
10.4552850645
 30
0.0
 10
10.9808657387
 20
10.4502125687
 30
0.0
 10
10.9711610804
 20
10.4398153877
 30
0.0
 10
10.9573940321
 20
10.4235109833
 30
0.0
 10
10.9444428006
 20
10.4065290974
 30
0.0
 10
10.9323358213
 20
10.388906877
 30
0.0
 10
10.921099102
 20
10.3706822162
 30
0.0
 10
10.9107568681
 20
10.3518945174
 30
0.0
 10
10.9013313943
 20
10.3325843271
 30
0.0
 10
10.8928430068
 20
10.3127933171
 30
0.0
 10
10.8853100141
 20
10.2925641884
 30
0.0
 10
10.8787485993
 20
10.2719406133
 30
0.0
 10
10.8731728545
 20
10.250967093
 30
0.0
 10
10.8685947833
 20
10.2296888404
 30
0.0
 10
10.8650243044
 20
10.208151883
 30
0.0
 10
10.8624688606
 20
10.1864022647
 30
0.0
 10
10.8609342103
 20
10.1644878152
 30
0.0
 10
10.8605941532
 20
10.1498217371
 30
0.0
 10
10.8605941532
 20
10.1424782333
 30
0.0
  0
SPLINE
  5
3AB
100
AcDbEntity
  8
0
100
AcDbSpline
 62
7
  6
CONTINUOUS
 70
0
 71
3
 72
39
 73
35
 74
0
 42
0.0000001
 43
0.0000001
 44
0.0000000001
 40
0.0
 40
0.0
 40
0.0
 40
0.0
 40
0.0307265371
 40
0.0612837033
 40
0.0916944264
 40
0.1219869453
 40
0.1521938708
 40
0.1823510218
 40
0.2124960892
 40
0.2426672213
 40
0.2729015833
 40
0.3032339604
 40
0.3336954867
 40
0.3643125335
 40
0.3951058165
 40
0.4260897536
 40
0.4572720648
 40
0.4886536269
 40
0.5202285821
 40
0.5519846492
 40
0.5839036322
 40
0.6159621056
 40
0.6481322245
 40
0.6803826428
 40
0.7126795229
 40
0.7449875922
 40
0.7772712331
 40
0.80949558
 40
0.8416276025
 40
0.8736371462
 40
0.9054979107
 40
0.9371883678
 40
0.9686921241
 40
1.0
 40
1.0
 40
1.0
 40
1.0
 10
11.6292427391
 20
10.0344569704
 30
0.0
 10
11.6275628777
 20
10.0255650152
 30
0.0
 10
11.6233712299
 20
10.0079766828
 30
0.0
 10
11.6146107425
 20
9.9823901152
 30
0.0
 10
11.6034677431
 20
9.957884592
 30
0.0
 10
11.5900376064
 20
9.9346732057
 30
0.0
 10
11.574434644
 20
9.9129542333
 30
0.0
 10
11.5567923439
 20
9.8929141746
 30
0.0
 10
11.5372617946
 20
9.8747248075
 30
0.0
 10
11.5160103666
 20
9.8585420908
 30
0.0
 10
11.4932203641
 20
9.8445044837
 30
0.0
 10
11.4690872718
 20
9.8327318316
 30
0.0
 10
11.4438179475
 20
9.8233244762
 30
0.0
 10
11.4176288819
 20
9.8163622172
 30
0.0
 10
11.3907442179
 20
9.8119037461
 30
0.0
 10
11.3633937796
 20
9.809986389
 30
0.0
 10
11.3358111442
 20
9.8106256494
 30
0.0
 10
11.3082316148
 20
9.8138151692
 30
0.0
 10
11.2808902629
 20
9.8195270396
 30
0.0
 10
11.254019959
 20
9.8277118942
 30
0.0
 10
11.2278493891
 20
9.8382993425
 30
0.0
 10
11.2026012254
 20
9.8511987929
 30
0.0
 10
11.1784902369
 20
9.8663000749
 30
0.0
 10
11.1557214348
 20
9.883474321
 30
0.0
 10
11.1344884893
 20
9.9025752486
 30
0.0
 10
11.1149720609
 20
9.9234402729
 30
0.0
 10
11.097338182
 20
9.945891796
 30
0.0
 10
11.0817370401
 20
9.9697388684
 30
0.0
 10
11.0683016684
 20
9.9947786767
 30
0.0
 10
11.0571466696
 20
10.020798268
 30
0.0
 10
11.0483674411
 20
10.0475760916
 30
0.0
 10
11.0420394202
 20
10.0748850576
 30
0.0
 10
11.0382169202
 20
10.1024896066
 30
0.0
 10
11.0373585899
 20
10.1209991253
 30
0.0
 10
11.0373585899
 20
10.130219578
 30
0.0
  0
SPLINE
  5
3AC
100
AcDbEntity
  8
0
100
AcDbSpline
 62
7
  6
CONTINUOUS
 70
0
 71
3
 72
41
 73
37
 74
0
 42
0.0000001
 43
0.0000001
 44
0.0000000001
 40
0.0
 40
0.0
 40
0.0
 40
0.0
 40
0.0153306551
 40
0.030620278
 40
0.0458715151
 40
0.0610873458
 40
0.0914175638
 40
0.1216492148
 40
0.1518155027
 40
0.1819519927
 40
0.2120953332
 40
0.2422819236
 40
0.2725465936
 40
0.3029213593
 40
0.3334343064
 40
0.3641086431
 40
0.3949619712
 40
0.4260057781
 40
0.4572451553
 40
0.4886787476
 40
0.5202989206
 40
0.5520921133
 40
0.584039354
 40
0.616116929
 40
0.6482971663
 40
0.6805493062
 40
0.7128404419
 40
0.7451365102
 40
0.777403301
 40
0.8096074729
 40
0.8417175511
 40
0.8737048807
 40
0.9055445202
 40
0.937216135
 40
0.968704146
 40
1.0
 40
1.0
 40
1.0
 40
1.0
 10
11.6319675038
 20
10.0513109346
 30
0.0
 10
11.6309708046
 20
10.0473268701
 30
0.0
 10
11.628793743
 20
10.0394146425
 30
0.0
 10
11.6249784119
 20
10.0277291786
 30
0.0
 10
11.6206253226
 20
10.0162654532
 30
0.0
 10
11.6141246647
 20
10.0013269447
 30
0.0
 10
11.604698555
 20
9.9833101716
 30
0.0
 10
11.5913929377
 20
9.9629269962
 30
0.0
 10
11.5762112586
 20
9.943964617
 30
0.0
 10
11.5592789912
 20
9.9265808162
 30
0.0
 10
11.5407355157
 20
9.9109186316
 30
0.0
 10
11.520733853
 20
9.8971071507
 30
0.0
 10
11.4994390113
 20
9.8852599309
 30
0.0
 10
11.4770266195
 20
9.875474235
 30
0.0
 10
11.4536814312
 20
9.8678301597
 30
0.0
 10
11.4295957598
 20
9.8623899434
 30
0.0
 10
11.4049677999
 20
9.8591976332
 30
0.0
 10
11.3799999998
 20
9.85827879
 30
0.0
 10
11.3548974065
 20
9.8596402317
 30
0.0
 10
11.3298659724
 20
9.8632700528
 30
0.0
 10
11.3051108961
 20
9.8691378569
 30
0.0
 10
11.2808349937
 20
9.8771950302
 30
0.0
 10
11.2572370284
 20
9.8873750312
 30
0.0
 10
11.2345101358
 20
9.8995940582
 30
0.0
 10
11.2128403008
 20
9.9137517649
 30
0.0
 10
11.1924048634
 20
9.9297320453
 30
0.0
 10
11.1733710209
 20
9.9474038934
 30
0.0
 10
11.1558945589
 20
9.9666225781
 30
0.0
 10
11.1401186146
 20
9.9872308
 30
0.0
 10
11.1261724654
 20
10.0090599089
 30
0.0
 10
11.1141704504
 20
10.0319312361
 30
0.0
 10
11.104211137
 20
10.0556576758
 30
0.0
 10
11.0963764992
 20
10.080044861
 30
0.0
 10
11.090731246
 20
10.1048937686
 30
0.0
 10
11.0873219894
 20
10.129998204
 30
0.0
 10
11.0865566578
 20
10.1468265943
 30
0.0
 10
11.0865566578
 20
10.1552102697
 30
0.0
  0
SPLINE
  5
3AD
100
AcDbEntity
  8
0
100
AcDbSpline
 62
7
  6
CONTINUOUS
 70
0
 71
3
 72
43
 73
39
 74
0
 42
0.0000001
 43
0.0000001
 44
0.0000000001
 40
0.0
 40
0.0
 40
0.0
 40
0.0
 40
0.0149723204
 40
0.0299477006
 40
0.0449291793
 40
0.0599197625
 40
0.0899340837
 40
0.1200191761
 40
0.1350977684
 40
0.1502017219
 40
0.1804888825
 40
0.2109025329
 40
0.2414558125
 40
0.2721586361
 40
0.3030175147
 40
0.3340354591
 40
0.3652119671
 40
0.3965430872
 40
0.4280215545
 40
0.4596369905
 40
0.491376161
 40
0.5232232825
 40
0.5551603712
 40
0.5871676259
 40
0.6192238382
 40
0.6513068229
 40
0.683393863
 40
0.7154621607
 40
0.7474892906
 40
0.7794536471
 40
0.8113348816
 40
0.843114318
 40
0.8747753538
 40
0.9063037992
 40
0.9376882654
 40
0.9533260383
 40
0.9689254782
 40
1.0
 40
1.0
 40
1.0
 40
1.0
 10
11.548351664
 20
9.9609624857
 30
0.0
 10
11.5462404283
 20
9.9589231876
 30
0.0
 10
11.5419359707
 20
9.9549276325
 30
0.0
 10
11.5352454718
 20
9.9491950716
 30
0.0
 10
11.5283296505
 20
9.9437302479
 30
0.0
 10
11.5188183535
 20
9.9368092774
 30
0.0
 10
11.5064074054
 20
9.9288613457
 30
0.0
 10
11.4933930982
 20
9.9219093818
 30
0.0
 10
11.4826596894
 20
9.9169636113
 30
0.0
 10
11.4717044943
 20
9.9124262667
 30
0.0
 10
11.4576495259
 20
9.907547209
 30
0.0
 10
11.4403288767
 20
9.9030000794
 30
0.0
 10
11.4226302874
 20
9.8997787535
 30
0.0
 10
11.4046518334
 20
9.897901023
 30
0.0
 10
11.3864922765
 20
9.8973769036
 30
0.0
 10
11.3682515357
 20
9.8982090643
 30
0.0
 10
11.3500298668
 20
9.9003926978
 30
0.0
 10
11.3319273903
 20
9.9039155916
 30
0.0
 10
11.3140435277
 20
9.9087581941
 30
0.0
 10
11.2964764682
 20
9.9148937308
 30
0.0
 10
11.2793226359
 20
9.9222883551
 30
0.0
 10
11.2626761682
 20
9.9309013369
 30
0.0
 10
11.2466284064
 20
9.9406852871
 30
0.0
 10
11.2312674012
 20
9.9515864175
 30
0.0
 10
11.2166774359
 20
9.9635448348
 30
0.0
 10
11.2029385689
 20
9.9764948668
 30
0.0
 10
11.1901261999
 20
9.9903654202
 30
0.0
 10
11.1783106599
 20
10.0050803666
 30
0.0
 10
11.1675568296
 20
10.0205589574
 30
0.0
 10
11.157923786
 20
10.0367162572
 30
0.0
 10
11.1494644795
 20
10.0534636231
 30
0.0
 10
11.1422254502
 20
10.0707091156
 30
0.0
 10
11.13624655
 20
10.0883582535
 30
0.0
 10
11.1315608178
 20
10.106313574
 30
0.0
 10
11.1287516099
 20
10.1214698072
 30
0.0
 10
11.1271757328
 20
10.1336476687
 30
0.0
 10
11.1260510673
 20
10.1458138742
 30
0.0
 10
11.125710527
 20
10.1549688658
 30
0.0
 10
11.125710527
 20
10.161061001
 30
0.0
  0
SPLINE
  5
3AE
100
AcDbEntity
  8
0
100
AcDbSpline
 62
7
  6
CONTINUOUS
 70
0
 71
3
 72
39
 73
35
 74
0
 42
0.0000001
 43
0.0000001
 44
0.0000000001
 40
0.0
 40
0.0
 40
0.0
 40
0.0
 40
0.0300581264
 40
0.0602197521
 40
0.0904948621
 40
0.1208915554
 40
0.151415933
 40
0.1820720245
 40
0.2128617517
 40
0.2437849255
 40
0.2748392749
 40
0.3060205083
 40
0.3373224024
 40
0.3687369174
 40
0.4002543375
 40
0.4318634329
 40
0.4635516367
 40
0.4953052369
 40
0.5271095802
 40
0.5589492862
 40
0.5908084691
 40
0.6226709658
 40
0.6545205681
 40
0.6863412518
 40
0.7181174045
 40
0.7498340501
 40
0.781477064
 40
0.8130333837
 40
0.8444912193
 40
0.8758401705
 40
0.907071671
 40
0.9381782194
 40
0.9691559538
 40
1.0
 40
1.0
 40
1.0
 40
1.0
 10
11.5976833402
 20
10.032052437
 30
0.0
 10
11.5930185592
 20
10.0301986066
 30
0.0
 10
11.5835472561
 20
10.0267924305
 30
0.0
 10
11.5690120982
 20
10.0226181371
 30
0.0
 10
11.5541804383
 20
10.0193858649
 30
0.0
 10
11.5391114952
 20
10.017108569
 30
0.0
 10
11.5238643821
 20
10.0157950309
 30
0.0
 10
11.5084991701
 20
10.0154503309
 30
0.0
 10
11.4930762982
 20
10.016075713
 30
0.0
 10
11.4776564328
 20
10.0176686183
 30
0.0
 10
11.4623002054
 20
10.0202226888
 30
0.0
 10
11.4470679844
 20
10.0237277973
 30
0.0
 10
11.432019639
 20
10.0281700899
 30
0.0
 10
11.4172143064
 20
10.0335320361
 30
0.0
 10
11.4027101549
 20
10.0397924874
 30
0.0
 10
11.388564163
 20
10.0469267803
 30
0.0
 10
11.3748318978
 20
10.0549068307
 30
0.0
 10
11.3615672996
 20
10.0637012449
 30
0.0
 10
11.3488224729
 20
10.0732754415
 30
0.0
 10
11.3366474849
 20
10.0835917865
 30
0.0
 10
11.3250901681
 20
10.0946097376
 30
0.0
 10
11.3141959227
 20
10.106285992
 30
0.0
 10
11.3040075513
 20
10.1185746715
 30
0.0
 10
11.2945650919
 20
10.1314274988
 30
0.0
 10
11.2859056618
 20
10.144793986
 30
0.0
 10
11.2780633141
 20
10.1586216303
 30
0.0
 10
11.2710689049
 20
10.1728561171
 30
0.0
 10
11.264949967
 20
10.1874415328
 30
0.0
 10
11.2597306051
 20
10.2023205659
 30
0.0
 10
11.2554313516
 20
10.2174347853
 30
0.0
 10
11.2520692609
 20
10.2327246931
 30
0.0
 10
11.2496574614
 20
10.2481305344
 30
0.0
 10
11.2482057575
 20
10.2635908006
 30
0.0
 10
11.2478810377
 20
10.2739177642
 30
0.0
 10
11.2478810377
 20
10.2790686595
 30
0.0
  0
SPLINE
  5
3AF
100
AcDbEntity
  8
0
100
AcDbSpline
 62
7
  6
CONTINUOUS
 70
0
 71
3
 72
23
 73
19
 74
0
 42
0.0000001
 43
0.0000001
 44
0.0000000001
 40
0.0
 40
0.0
 40
0.0
 40
0.0
 40
0.0630509504
 40
0.1257810803
 40
0.1882283612
 40
0.2504393919
 40
0.3124680642
 40
0.3743739575
 40
0.43622051
 40
0.4980730344
 40
0.559996654
 40
0.6220542484
 40
0.6843044932
 40
0.7468000664
 40
0.8095860508
 40
0.8726989365
 40
0.9361643539
 40
1.0
 40
1.0
 40
1.0
 40
1.0
 10
11.2709792494
 20
10.4053586372
 30
0.0
 10
11.2627992336
 20
10.4041051234
 30
0.0
 10
11.2465798289
 20
10.4008973339
 30
0.0
 10
11.2228271611
 20
10.3939936931
 30
0.0
 10
11.1998775423
 20
10.3850584882
 30
0.0
 10
11.1778976056
 20
10.3741555977
 30
0.0
 10
11.1570441097
 20
10.3613625839
 30
0.0
 10
11.1374666063
 20
10.3467707847
 30
0.0
 10
11.1193053128
 20
10.3304844913
 30
0.0
 10
11.1026903028
 20
10.3126202735
 30
0.0
 10
11.0877404545
 20
10.2933060955
 30
0.0
 10
11.0745626284
 20
10.2726803245
 30
0.0
 10
11.0632508774
 20
10.2508907236
 30
0.0
 10
11.0538858033
 20
10.2280932776
 30
0.0
 10
11.0465338892
 20
10.2044513053
 30
0.0
 10
11.0412472463
 20
10.1801333467
 30
0.0
 10
11.0380629327
 20
10.1553154012
 30
0.0
 10
11.0373585899
 20
10.1385980735
 30
0.0
 10
11.0373585899
 20
10.130219578
 30
0.0
  0
SPLINE
  5
3B0
100
AcDbEntity
  8
0
100
AcDbSpline
 62
7
  6
CONTINUOUS
 70
0
 71
3
 72
23
 73
19
 74
0
 42
0.0000001
 43
0.0000001
 44
0.0000000001
 40
0.0
 40
0.0
 40
0.0
 40
0.0
 40
0.0628556227
 40
0.1254274591
 40
0.1877553974
 40
0.2498861775
 40
0.3118721379
 40
0.3737697642
 40
0.435638086
 40
0.4975369794
 40
0.5595254371
 40
0.6216598728
 40
0.683992517
 40
0.7465699907
 40
0.8094319544
 40
0.8726105243
 40
0.9361280439
 40
1.0
 40
1.0
 40
1.0
 40
1.0
 10
11.2871537319
 20
10.4073333493
 30
0.0
 10
11.2800116486
 20
10.4057853674
 30
0.0
 10
11.2658810516
 20
10.4021009584
 30
0.0
 10
11.245273089
 20
10.3948263538
 30
0.0
 10
11.2254320548
 20
10.3858627507
 30
0.0
 10
11.2064896484
 20
10.3752688835
 30
0.0
 10
11.1885692868
 20
10.3631136758
 30
0.0
 10
11.1717883727
 20
10.3494764979
 30
0.0
 10
11.1562566667
 20
10.3344464574
 30
0.0
 10
11.1420757607
 20
10.3181218532
 30
0.0
 10
11.1293383328
 20
10.3006094962
 30
0.0
 10
11.1181275319
 20
10.2820239898
 30
0.0
 10
11.1085164211
 20
10.2624869563
 30
0.0
 10
11.1005675382
 20
10.242126151
 30
0.0
 10
11.0943324301
 20
10.221074794
 30
0.0
 10
11.0898515175
 20
10.1994699654
 30
0.0
 10
11.0871535035
 20
10.1774545157
 30
0.0
 10
11.0865566578
 20
10.1626363475
 30
0.0
 10
11.0865566578
 20
10.1552102697
 30
0.0
  0
SPLINE
  5
3B1
100
AcDbEntity
  8
0
100
AcDbSpline
 62
7
  6
CONTINUOUS
 70
0
 71
3
 72
21
 73
17
 74
0
 42
0.0000001
 43
0.0000001
 44
0.0000000001
 40
0.0
 40
0.0
 40
0.0
 40
0.0
 40
0.0617147761
 40
0.1234506677
 40
0.1852285528
 40
0.2470689013
 40
0.30899155
 40
0.3710154761
 40
0.4331586505
 40
0.4954378572
 40
0.5578685131
 40
0.6204644763
 40
0.6832380473
 40
0.746200107
 40
0.8726822618
 40
1.0
 40
1.0
 40
1.0
 40
1.0
 10
11.1947256648
 20
10.3270630378
 30
0.0
 10
11.1919929583
 20
10.3244234447
 30
0.0
 10
11.1866614471
 20
10.3190016735
 30
0.0
 10
11.1790916127
 20
10.3104669727
 30
0.0
 10
11.1719651344
 20
10.301548447
 30
0.0
 10
11.165298671
 20
10.292266989
 30
0.0
 10
11.1591075925
 20
10.2826438796
 30
0.0
 10
11.1534061565
 20
10.2727013663
 30
0.0
 10
11.1482074381
 20
10.2624624044
 30
0.0
 10
11.1435235014
 20
10.2519505722
 30
0.0
 10
11.1393650788
 20
10.2411901233
 30
0.0
 10
11.1357416968
 20
10.2302059661
 30
0.0
 10
11.1326617494
 20
10.2190230914
 30
0.0
 10
11.1292844425
 20
10.2038619415
 30
0.0
 10
11.1264587134
 20
10.1845339176
 30
0.0
 10
11.125710527
 20
10.1688990902
 30
0.0
 10
11.125710527
 20
10.161061001
 30
0.0
  0
SPLINE
  5
3B2
100
AcDbEntity
  8
0
100
AcDbSpline
 62
7
  6
CONTINUOUS
 70
0
 71
3
 72
13
 73
9
 74
0
 42
0.0000001
 43
0.0000001
 44
0.0000000001
 40
0.0
 40
0.0
 40
0.0
 40
0.0
 40
0.1236916481
 40
0.2477174338
 40
0.3721049965
 40
0.4968789123
 40
0.7475740471
 40
1.0
 40
1.0
 40
1.0
 40
1.0
 10
11.2674828098
 20
10.3739022859
 30
0.0
 10
11.2658695342
 20
10.3702200714
 30
0.0
 10
11.2628331894
 20
10.3627586953
 30
0.0
 10
11.2588681671
 20
10.3513277872
 30
0.0
 10
11.2554961728
 20
10.3396709142
 30
0.0
 10
11.2517971114
 20
10.32384535
 30
0.0
 10
11.2487007239
 20
10.3036363923
 30
0.0
 10
11.2478810377
 20
10.2872727908
 30
0.0
 10
11.2478810377
 20
10.2790686595
 30
0.0
  0
SPLINE
  5
3B3
100
AcDbEntity
  8
0
100
AcDbSpline
 62
7
  6
CONTINUOUS
 70
0
 71
3
 72
39
 73
35
 74
0
 42
0.0000001
 43
0.0000001
 44
0.0000000001
 40
0.0
 40
0.0
 40
0.0
 40
0.0
 40
0.0299405658
 40
0.0599545112
 40
0.0900588764
 40
0.1202688692
 40
0.1505975774
 40
0.1810557332
 40
0.2116515318
 40
0.242390506
 40
0.2732754574
 40
0.3043064414
 40
0.335480805
 40
0.366793273
 40
0.3982360779
 40
0.4297991297
 40
0.4614702204
 40
0.4932352588
 40
0.5250785315
 40
0.5569829846
 40
0.588930522
 40
0.6209023177
 40
0.6528791351
 40
0.6848416528
 40
0.7167707913
 40
0.7486480355
 40
0.7804557531
 40
0.8121774948
 40
0.8437983048
 40
0.8753049277
 40
0.9066862631
 40
0.9379329961
 40
0.969039255
 40
1.0
 40
1.0
 40
1.0
 40
1.0
 10
11.6146743181
 20
10.0905413993
 30
0.0
 10
11.6108830987
 20
10.0881139734
 30
0.0
 10
11.6031109292
 20
10.0835286608
 30
0.0
 10
11.5909697833
 20
10.0775075505
 30
0.0
 10
11.5783877666
 20
10.0723625599
 30
0.0
 10
11.5654246129
 20
10.0681181705
 30
0.0
 10
11.5521407968
 20
10.0647939987
 30
0.0
 10
11.5385985436
 20
10.0624055105
 30
0.0
 10
11.5248611865
 20
10.0609637391
 30
0.0
 10
11.5109929626
 20
10.0604752984
 30
0.0
 10
11.4970586885
 20
10.0609423425
 30
0.0
 10
11.4831234644
 20
10.0623625643
 30
0.0
 10
11.4692523704
 20
10.0647292079
 30
0.0
 10
11.4555101655
 20
10.0680311084
 30
0.0
 10
11.4419609888
 20
10.0722527468
 30
0.0
 10
11.4286680636
 20
10.0773743253
 30
0.0
 10
11.415693406
 20
10.0833718607
 30
0.0
 10
11.4030975397
 20
10.0902172976
 30
0.0
 10
11.3909392164
 20
10.0978786394
 30
0.0
 10
11.3792751454
 20
10.1063200969
 30
0.0
 10
11.3681597319
 20
10.1155022551
 30
0.0
 10
11.3576448256
 20
10.1253822552
 30
0.0
 10
11.3477794817
 20
10.1359139937
 30
0.0
 10
11.3386097317
 20
10.1470483335
 30
0.0
 10
11.3301783707
 20
10.1587333323
 30
0.0
 10
11.32252476
 20
10.1709144845
 30
0.0
 10
11.3156846476
 20
10.1835349723
 30
0.0
 10
11.3096899939
 20
10.1965359291
 30
0.0
 10
11.3045688448
 20
10.2098567035
 30
0.0
 10
11.3003451475
 20
10.2234351744
 30
0.0
 10
11.2970387584
 20
10.2372078989
 30
0.0
 10
11.2946651115
 20
10.2511108922
 30
0.0
 10
11.2932355324
 20
10.2650783163
 30
0.0
 10
11.2929155516
 20
10.2744135231
 30
0.0
 10
11.2929155516
 20
10.2790686621
 30
0.0
  0
SPLINE
  5
3B4
100
AcDbEntity
  8
0
100
AcDbSpline
 62
7
  6
CONTINUOUS
 70
0
 71
3
 72
96
 73
92
 74
0
 42
0.0000001
 43
0.0000001
 44
0.0000000001
 40
0.0
 40
0.0
 40
0.0
 40
0.0
 40
0.0041939574
 40
0.0085762742
 40
0.0131520511
 40
0.0179256088
 40
0.0229004783
 40
0.028079222
 40
0.0334636112
 40
0.0390547653
 40
0.0448532218
 40
0.0508590076
 40
0.0570716348
 40
0.0634902296
 40
0.0701134804
 40
0.0769397743
 40
0.0839671177
 40
0.091193268
 40
0.1062311061
 40
0.1220303958
 40
0.1385641632
 40
0.1558022491
 40
0.1737116571
 40
0.1922568477
 40
0.2113999921
 40
0.2311011977
 40
0.2513187129
 40
0.2720091149
 40
0.2931274873
 40
0.314627589
 40
0.3364620159
 40
0.35858236
 40
0.3809393635
 40
0.4034830717
 40
0.4261629835
 40
0.4489282015
 40
0.4717275804
 40
0.4945098762
 40
0.5172238945
 40
0.5398186387
 40
0.5622434594
 40
0.584448203
 40
0.6063833625
 40
0.6280002295
 40
0.649251048
 40
0.6700891709
 40
0.6904692217
 40
0.7103472604
 40
0.7296809576
 40
0.7484297794
 40
0.7665551861
 40
0.7840208488
 40
0.8007928931
 40
0.8168401783
 40
0.8321346255
 40
0.8466516145
 40
0.8536121895
 40
0.8603710027
 40
0.8669262091
 40
0.8732762723
 40
0.8794200367
 40
0.8853567472
 40
0.8910860808
 40
0.8966082311
 40
0.9019239053
 40
0.9070344711
 40
0.9119419382
 40
0.9166491551
 40
0.9211598066
 40
0.9254786388
 40
0.9296115077
 40
0.9335656091
 40
0.937349596
 40
0.9409737889
 40
0.9477890825
 40
0.9510148692
 40
0.9541417451
 40
0.9571901171
 40
0.9601821742
 40
0.9631415265
 40
0.9660926395
 40
0.9690602038
 40
0.9720684674
 40
0.97514062
 40
0.9782983043
 40
0.981561246
 40
0.9849470671
 40
0.9884713301
 40
0.9921475967
 40
0.9959873775
 40
1.0
 40
1.0
 40
1.0
 40
1.0
 10
9.9582920542
 20
11.1016249817
 30
0.0
 10
9.9601189659
 20
11.1033896431
 30
0.0
 10
9.9639456815
 20
11.1069051116
 30
0.0
 10
9.9700488465
 20
11.1120270607
 30
0.0
 10
9.9766351648
 20
11.1171082831
 30
0.0
 10
9.983700365
 20
11.1221456676
 30
0.0
 10
9.9912404037
 20
11.1271363763
 30
0.0
 10
9.9992508364
 20
11.1320775908
 30
0.0
 10
10.0077269432
 20
11.1369663759
 30
0.0
 10
10.0166636807
 20
11.141799829
 30
0.0
 10
10.0260557297
 20
11.1465751126
 30
0.0
 10
10.0358975166
 20
11.1512893411
 30
0.0
 10
10.046183156
 20
11.1559397595
 30
0.0
 10
10.0569065227
 20
11.1605235019
 30
0.0
 10
10.0680611835
 20
11.1650379047
 30
0.0
 10
10.0796404755
 20
11.1694801572
 30
0.0
 10
10.0916374575
 20
11.1738477072
 30
0.0
 10
10.108404025
 20
11.1796449243
 30
0.0
 10
10.1303641388
 20
11.1866689578
 30
0.0
 10
10.1579241526
 20
11.1946510403
 30
0.0
 10
10.1869650177
 20
11.2022750827
 30
0.0
 10
10.2174169738
 20
11.2095225958
 30
0.0
 10
10.2492070807
 20
11.2163759863
 30
0.0
 10
10.2822590138
 20
11.2228186209
 30
0.0
 10
10.3164933791
 20
11.2288348654
 30
0.0
 10
10.3518278848
 20
11.2344101245
 30
0.0
 10
10.3881775582
 20
11.2395308762
 30
0.0
 10
10.4254549556
 20
11.2441847049
 30
0.0
 10
10.4635703782
 20
11.2483603299
 30
0.0
 10
10.5024320931
 20
11.2520476325
 30
0.0
 10
10.5419465571
 20
11.255237679
 30
0.0
 10
10.5820186449
 20
11.2579227422
 30
0.0
 10
10.6225518801
 20
11.2600963191
 30
0.0
 10
10.6634486696
 20
11.2617531459
 30
0.0
 10
10.7046105402
 20
11.2628892108
 30
0.0
 10
10.7459383766
 20
11.2635017626
 30
0.0
 10
10.7873326621
 20
11.2635893185
 30
0.0
 10
10.828693719
 20
11.2631516667
 30
0.0
 10
10.8699219501
 20
11.2621898672
 30
0.0
 10
10.9109180802
 20
11.2607062488
 30
0.0
 10
10.9515833955
 20
11.2587044039
 30
0.0
 10
10.9918199833
 20
11.2561891798
 30
0.0
 10
11.0315309689
 20
11.253166668
 30
0.0
 10
11.0706207506
 20
11.2496441894
 30
0.0
 10
11.1089952321
 20
11.2456302774
 30
0.0
 10
11.1465620516
 20
11.2411346581
 30
0.0
 10
11.1832308071
 20
11.2361682276
 30
0.0
 10
11.2189132786
 20
11.2307430263
 30
0.0
 10
11.2535236454
 20
11.2248722104
 30
0.0
 10
11.2869787005
 20
11.2185700217
 30
0.0
 10
11.3191980573
 20
11.2118517528
 30
0.0
 10
11.3501043642
 20
11.2047337094
 30
0.0
 10
11.3796234686
 20
11.1972331675
 30
0.0
 10
11.4076847462
 20
11.1893683305
 30
0.0
 10
11.4342208401
 20
11.1811582637
 30
0.0
 10
11.4552960573
 20
11.1739480303
 30
0.0
 10
11.4713328735
 20
11.1680076961
 30
0.0
 10
11.4827713951
 20
11.1635410478
 30
0.0
 10
11.493783028
 20
11.1590032522
 30
0.0
 10
11.5043611913
 20
11.1543969664
 30
0.0
 10
11.514499558
 20
11.1497249733
 30
0.0
 10
11.5241920816
 20
11.1449900806
 30
0.0
 10
11.5334329721
 20
11.1401950805
 30
0.0
 10
11.5422167528
 20
11.1353428833
 30
0.0
 10
11.5505381781
 20
11.130436286
 30
0.0
 10
11.5583923582
 20
11.1254782707
 30
0.0
 10
11.5657746017
 20
11.1204716304
 30
0.0
 10
11.5726806074
 20
11.1154193728
 30
0.0
 10
11.5791062477
 20
11.1103242765
 30
0.0
 10
11.5850477761
 20
11.1051893272
 30
0.0
 10
11.5905016539
 20
11.1000172264
 30
0.0
 10
11.5954645055
 20
11.0948110679
 30
0.0
 10
11.5999337524
 20
11.0895728091
 30
0.0
 10
11.6051228729
 20
11.0826930317
 30
0.0
 10
11.6094660056
 20
11.0756085977
 30
0.0
 10
11.6128145628
 20
11.0683626315
 30
0.0
 10
11.6147736788
 20
11.063009272
 30
0.0
 10
11.6162237662
 20
11.0576423942
 30
0.0
 10
11.6171630136
 20
11.0522654442
 30
0.0
 10
11.6175902875
 20
11.0468826584
 30
0.0
 10
11.6175047899
 20
11.041498379
 30
0.0
 10
11.6169068123
 20
11.0361170617
 30
0.0
 10
11.6157970827
 20
11.030743026
 30
0.0
 10
11.6141771572
 20
11.0253802712
 30
0.0
 10
11.6120488891
 20
11.0200324622
 30
0.0
 10
11.6094145079
 20
11.0147029205
 30
0.0
 10
11.606276436
 20
11.0093946487
 30
0.0
 10
11.6026370608
 20
11.00411051
 30
0.0
 10
11.5984989472
 20
10.9988531503
 30
0.0
 10
11.5938650546
 20
10.9936256743
 30
0.0
 10
11.5905229119
 20
10.9902389684
 30
0.0
 10
11.5887749907
 20
10.988550606
 30
0.0
  0
SPLINE
  5
3B5
100
AcDbEntity
  8
0
100
AcDbSpline
 62
7
  6
CONTINUOUS
 70
0
 71
3
 72
94
 73
90
 74
0
 42
0.0000001
 43
0.0000001
 44
0.0000000001
 40
0.0
 40
0.0
 40
0.0
 40
0.0
 40
0.0032619916
 40
0.0064151899
 40
0.0094765495
 40
0.0124648484
 40
0.0154004385
 40
0.0183048965
 40
0.0212005638
 40
0.0241100038
 40
0.0270554296
 40
0.0300581864
 40
0.0331382936
 40
0.0363141467
 40
0.0396023363
 40
0.0430175588
 40
0.0465726995
 40
0.0502788489
 40
0.054145521
 40
0.0581807253
 40
0.0623911702
 40
0.0667823979
 40
0.071358886
 40
0.0761242437
 40
0.0810812142
 40
0.0862318818
 40
0.0915776529
 40
0.0971193917
 40
0.1028574604
 40
0.1087917398
 40
0.1149217494
 40
0.1212465783
 40
0.1277650347
 40
0.1344755715
 40
0.1484649624
 40
0.1631976783
 40
0.178652484
 40
0.1948049441
 40
0.2116277885
 40
0.2290912139
 40
0.2471631353
 40
0.2658094089
 40
0.2849940313
 40
0.304679316
 40
0.3248260571
 40
0.3453936817
 40
0.3663403956
 40
0.3876233212
 40
0.4091986346
 40
0.4310217003
 40
0.4530472017
 40
0.475229269
 40
0.4975216074
 40
0.5198776229
 40
0.5422505491
 40
0.5645935745
 40
0.5868599686
 40
0.6090032083
 40
0.6309771037
 40
0.6527359252
 40
0.6742345307
 40
0.6954284967
 40
0.7162742506
 40
0.736729203
 40
0.7567518843
 40
0.776302085
 40
0.7953410039
 40
0.8138314027
 40
0.8317377754
 40
0.8490265332
 40
0.865666203
 40
0.8816276562
 40
0.8968843753
 40
0.9114127713
 40
0.9251925708
 40
0.9317966829
 40
0.9382078364
 40
0.9444246496
 40
0.9504460987
 40
0.9562715047
 40
0.9619005679
 40
0.9673334665
 40
0.9725707996
 40
0.9776137393
 40
0.9824640062
 40
0.9871241131
 40
0.9915973756
 40
0.995887774
 40
1.0
 40
1.0
 40
1.0
 40
1.0
 10
11.5555753841
 20
10.9631097413
 30
0.0
 10
11.5564994971
 20
10.9646784448
 30
0.0
 10
11.5582123758
 20
10.9678269042
 30
0.0
 10
11.5603884239
 20
10.9726533688
 30
0.0
 10
11.5621221843
 20
10.9774946116
 30
0.0
 10
11.5634118449
 20
10.9823474156
 30
0.0
 10
11.5642560207
 20
10.9872087062
 30
0.0
 10
11.5646536001
 20
10.9920750453
 30
0.0
 10
11.5646042052
 20
10.9969428189
 30
0.0
 10
11.5641077165
 20
11.0018083436
 30
0.0
 10
11.5631649611
 20
11.0066680534
 30
0.0
 10
11.5617769183
 20
11.0115185522
 30
0.0
 10
11.5599451895
 20
11.0163567627
 30
0.0
 10
11.5576715062
 20
11.0211798591
 30
0.0
 10
11.5549577458
 20
11.0259852041
 30
0.0
 10
11.5518060336
 20
11.0307704091
 30
0.0
 10
11.548218385
 20
11.0355330137
 30
0.0
 10
11.5441971687
 20
11.0402707824
 30
0.0
 10
11.539744674
 20
11.0449812891
 30
0.0
 10
11.5348635111
 20
11.0496622376
 30
0.0
 10
11.5295563937
 20
11.0543112291
 30
0.0
 10
11.5238262455
 20
11.0589258294
 30
0.0
 10
11.5176762627
 20
11.063503681
 30
0.0
 10
11.5111097705
 20
11.0680422488
 30
0.0
 10
11.504130436
 20
11.0725391903
 30
0.0
 10
11.4967420568
 20
11.0769919692
 30
0.0
 10
11.4889487396
 20
11.0813982073
 30
0.0
 10
11.480754781
 20
11.0857554549
 30
0.0
 10
11.472164715
 20
11.0900612807
 30
0.0
 10
11.4631833248
 20
11.0943133482
 30
0.0
 10
11.4538155767
 20
11.0985092111
 30
0.0
 10
11.4440667116
 20
11.1026466064
 30
0.0
 10
11.4339421271
 20
11.1067231784
 30
0.0
 10
11.4197519305
 20
11.1121498465
 30
0.0
 10
11.4011051141
 20
11.1187491375
 30
0.0
 10
11.3776244102
 20
11.1262845954
 30
0.0
 10
11.3527911928
 20
11.133525269
 30
0.0
 10
11.3266609477
 20
11.1404548345
 30
0.0
 10
11.2992918452
 20
11.1470576461
 30
0.0
 10
11.2707449981
 20
11.1533187912
 30
0.0
 10
11.2410841938
 20
11.159224131
 30
0.0
 10
11.2103757702
 20
11.1647603335
 30
0.0
 10
11.1786884453
 20
11.1699149016
 30
0.0
 10
11.1460931573
 20
11.1746762022
 30
0.0
 10
11.1126628996
 20
11.1790334918
 30
0.0
 10
11.0784725541
 20
11.1829769408
 30
0.0
 10
11.0435987208
 20
11.1864976535
 30
0.0
 10
11.0081195451
 20
11.1895876918
 30
0.0
 10
10.972114539
 20
11.1922400925
 30
0.0
 10
10.9356643995
 20
11.1944488782
 30
0.0
 10
10.8988508255
 20
11.1962090716
 30
0.0
 10
10.8617563341
 20
11.1975167061
 30
0.0
 10
10.8244640756
 20
11.1983688343
 30
0.0
 10
10.7870576463
 20
11.1987635342
 30
0.0
 10
10.7496209001
 20
11.1986999162
 30
0.0
 10
10.7122377592
 20
11.1981781259
 30
0.0
 10
10.6749920241
 20
11.1971993401
 30
0.0
 10
10.6379671857
 20
11.1957657644
 30
0.0
 10
10.6012462374
 20
11.1938806288
 30
0.0
 10
10.564911489
 20
11.1915481802
 30
0.0
 10
10.5290443813
 20
11.1887736732
 30
0.0
 10
10.4937253002
 20
11.1855633605
 30
0.0
 10
10.4590333941
 20
11.181924482
 30
0.0
 10
10.4250463953
 20
11.1778652437
 30
0.0
 10
10.3918404444
 20
11.1733948011
 30
0.0
 10
10.3594899177
 20
11.1685232387
 30
0.0
 10
10.3280672576
 20
11.1632615484
 30
0.0
 10
10.2976428046
 20
11.1576216044
 30
0.0
 10
10.2682846309
 20
11.151616138
 30
0.0
 10
10.2400583801
 20
11.1452587129
 30
0.0
 10
10.2130271019
 20
11.1385636873
 30
0.0
 10
10.1872511349
 20
11.1315461789
 30
0.0
 10
10.16278783
 20
11.1242220282
 30
0.0
 10
10.139691831
 20
11.1166077402
 30
0.0
 10
10.1213764959
 20
11.1099440584
 30
0.0
 10
10.1074588566
 20
11.1044679831
 30
0.0
 10
10.0975421352
 20
11.100357367
 30
0.0
 10
10.0880041699
 20
11.0961872223
 30
0.0
 10
10.0788502542
 20
11.0919598678
 30
0.0
 10
10.0700854768
 20
11.0876776819
 30
0.0
 10
10.0617147177
 20
11.083342994
 30
0.0
 10
10.0537425856
 20
11.0789582797
 30
0.0
 10
10.046173537
 20
11.074525866
 30
0.0
 10
10.0390117284
 20
11.0700483054
 30
0.0
 10
10.0322611229
 20
11.0655279711
 30
0.0
 10
10.0259253798
 20
11.0609672971
 30
0.0
 10
10.020007915
 20
11.056368635
 30
0.0
 10
10.0145123175
 20
11.051734679
 30
0.0
 10
10.0110600196
 20
11.0485574718
 30
0.0
 10
10.0094091741
 20
11.0469628774
 30
0.0
  0
SPLINE
  5
3B6
100
AcDbEntity
  8
0
100
AcDbSpline
 62
7
  6
CONTINUOUS
 70
0
 71
3
 72
87
 73
83
 74
0
 42
0.0000001
 43
0.0000001
 44
0.0000000001
 40
0.0
 40
0.0
 40
0.0
 40
0.0
 40
0.003930036
 40
0.0080225205
 40
0.0122809434
 40
0.0167082787
 40
0.0213070291
 40
0.0260791157
 40
0.0310258375
 40
0.0361480812
 40
0.0414462994
 40
0.0469206126
 40
0.0525707993
 40
0.0583963126
 40
0.0643963678
 40
0.0705698796
 40
0.0834315627
 40
0.0969689324
 40
0.1111661237
 40
0.1260046429
 40
0.1414636625
 40
0.1575202639
 40
0.1741496354
 40
0.19132525
 40
0.209019022
 40
0.2272014429
 40
0.2458417056
 40
0.2649078193
 40
0.2843667145
 40
0.3041843469
 40
0.3243257995
 40
0.3447553791
 40
0.3654367087
 40
0.3863328198
 40
0.4074062415
 40
0.4286190912
 40
0.449933166
 40
0.4927104627
 40
0.5354300974
 40
0.5566722203
 40
0.5777845681
 40
0.5987291703
 40
0.619468444
 40
0.6399652833
 40
0.6601831499
 40
0.6800861683
 40
0.699639218
 40
0.7188080273
 40
0.7375592711
 40
0.7558606724
 40
0.7736811091
 40
0.7909907321
 40
0.8077610858
 40
0.8239652387
 40
0.8395779308
 40
0.8545757422
 40
0.8689372885
 40
0.8826434576
 40
0.8956776912
 40
0.9080263274
 40
0.9139404171
 40
0.9196795393
 40
0.925243029
 40
0.9306305058
 40
0.9358418862
 40
0.940877476
 40
0.9457379197
 40
0.950424339
 40
0.9549383065
 40
0.9592819433
 40
0.9634579933
 40
0.9674698508
 40
0.9713217279
 40
0.9750186653
 40
0.9785667148
 40
0.9819730136
 40
0.9852459078
 40
0.9883951027
 40
0.9914317076
 40
0.9943683715
 40
0.9972192521
 40
1.0
 40
1.0
 40
1.0
 40
1.0
 10
12.933294492
 20
8.3606229013
 30
0.0
 10
12.9351559768
 20
8.3624209577
 30
0.0
 10
12.9388769952
 20
8.3661738041
 30
0.0
 10
12.9443443489
 20
8.3721356488
 30
0.0
 10
12.9498061492
 20
8.3785394674
 30
0.0
 10
12.9552596018
 20
8.3853819295
 30
0.0
 10
12.9607022762
 20
8.3926598423
 30
0.0
 10
12.9661316267
 20
8.4003698328
 30
0.0
 10
12.9715451828
 20
8.4085082222
 30
0.0
 10
12.9769402702
 20
8.4170711747
 30
0.0
 10
12.9823143887
 20
8.4260545746
 30
0.0
 10
12.9876649466
 20
8.4354541605
 30
0.0
 10
12.9929893858
 20
8.4452654523
 30
0.0
 10
12.9982851899
 20
8.4554837466
 30
0.0
 10
13.0035497847
 20
8.4661041893
 30
0.0
 10
13.0106210159
 20
8.4809981097
 30
0.0
 10
13.0193486061
 20
8.5005965767
 30
0.0
 10
13.0295196942
 20
8.5253237493
 30
0.0
 10
13.039507161
 20
8.5515235463
 30
0.0
 10
13.0492917134
 20
8.5791457126
 30
0.0
 10
13.0588544434
 20
8.6081374901
 30
0.0
 10
13.0681768558
 20
8.6384433207
 30
0.0
 10
13.0772409236
 20
8.6700050828
 30
0.0
 10
13.0860291209
 20
8.702762183
 30
0.0
 10
13.0945244555
 20
8.7366516968
 30
0.0
 10
13.1027105046
 20
8.7716084948
 30
0.0
 10
13.1105714458
 20
8.8075653735
 30
0.0
 10
13.1180920867
 20
8.8444531863
 30
0.0
 10
13.1252578988
 20
8.8822009768
 30
0.0
 10
13.132055046
 20
8.9207361189
 30
0.0
 10
13.1384704049
 20
8.9599844625
 30
0.0
 10
13.1444915919
 20
8.9998704793
 30
0.0
 10
13.1501069849
 20
9.0403174074
 30
0.0
 10
13.1553057493
 20
9.0812474043
 30
0.0
 10
13.1600778449
 20
9.1225816736
 30
0.0
 10
13.1644141117
 20
9.1642407054
 30
0.0
 10
13.1696093939
 20
9.2201769272
 30
0.0
 10
13.1749567489
 20
9.2903184219
 30
0.0
 10
13.1787658706
 20
9.3605128354
 30
0.0
 10
13.1808712706
 20
9.416498705
 30
0.0
 10
13.1819714273
 20
9.4581699009
 30
0.0
 10
13.182593619
 20
9.4995197665
 30
0.0
 10
13.1827366352
 20
9.540468767
 30
0.0
 10
13.1824002327
 20
9.5809380666
 30
0.0
 10
13.1815850837
 20
9.6208497769
 30
0.0
 10
13.1802927969
 20
9.6601270845
 30
0.0
 10
13.1785259041
 20
9.6986944071
 30
0.0
 10
13.1762878564
 20
9.7364775369
 30
0.0
 10
13.1735830174
 20
9.7734037839
 30
0.0
 10
13.1704166562
 20
9.8094021177
 30
0.0
 10
13.1667949363
 20
9.8444033098
 30
0.0
 10
13.1627249126
 20
9.8783400742
 30
0.0
 10
13.1582145137
 20
9.9111472016
 30
0.0
 10
13.1532725235
 20
9.9427616892
 30
0.0
 10
13.1479085646
 20
9.9731228646
 30
0.0
 10
13.1421330789
 20
10.0021725247
 30
0.0
 10
13.1359573002
 20
10.0298550257
 30
0.0
 10
13.1293932379
 20
10.0561175514
 30
0.0
 10
13.1224536242
 20
10.0809097684
 30
0.0
 10
13.1162833081
 20
10.1005790216
 30
0.0
 10
13.1111546514
 20
10.1155307375
 30
0.0
 10
13.1072780828
 20
10.1261860074
 30
0.0
 10
13.1033179009
 20
10.1364396144
 30
0.0
 10
13.0992759824
 20
10.1462866853
 30
0.0
 10
13.0951542094
 20
10.1557225035
 30
0.0
 10
13.0909546266
 20
10.164742603
 30
0.0
 10
13.0866791355
 20
10.173342669
 30
0.0
 10
13.0823298257
 20
10.181518647
 30
0.0
 10
13.0779087002
 20
10.1892666575
 30
0.0
 10
13.0734178008
 20
10.1965830313
 30
0.0
 10
13.0688592532
 20
10.2034643496
 30
0.0
 10
13.0642350347
 20
10.2099073161
 30
0.0
 10
13.0595473195
 20
10.2159089491
 30
0.0
 10
13.0547980837
 20
10.2214663469
 30
0.0
 10
13.0499894284
 20
10.2265768716
 30
0.0
 10
13.0451233956
 20
10.2312380319
 30
0.0
 10
13.0402019715
 20
10.2354474135
 30
0.0
 10
13.0352272758
 20
10.2392028795
 30
0.0
 10
13.0302013331
 20
10.2425021632
 30
0.0
 10
13.0251262545
 20
10.2453433684
 30
0.0
 10
13.0200047937
 20
10.2477243185
 30
0.0
 10
13.0165237126
 20
10.2490174324
 30
0.0
 10
13.0147818668
 20
10.2495825539
 30
0.0
  0
SPLINE
  5
3B7
100
AcDbEntity
  8
0
100
AcDbSpline
 62
7
  6
CONTINUOUS
 70
0
 71
3
 72
18
 73
14
 74
0
 42
0.0000001
 43
0.0000001
 44
0.0000000001
 40
0.0
 40
0.0
 40
0.0
 40
0.0
 40
0.0548620599
 40
0.1099280451
 40
0.1653994776
 40
0.2214731111
 40
0.2783387003
 40
0.3361775499
 40
0.4554064184
 40
0.5804414564
 40
0.712334317
 40
0.8519586594
 40
1.0
 40
1.0
 40
1.0
 40
1.0
 10
9.9915335336
 20
10.9727972789
 30
0.0
 10
9.9915335395
 20
10.9739016811
 30
0.0
 10
9.9916036418
 20
10.9761152242
 30
0.0
 10
9.9919187988
 20
10.9794319419
 30
0.0
 10
9.9924439457
 20
10.9827467429
 30
0.0
 10
9.9931788502
 20
10.9860584223
 30
0.0
 10
9.9941232114
 20
10.9893661537
 30
0.0
 10
9.9956765199
 20
10.9938141538
 30
0.0
 10
9.998164871
 20
10.9993774083
 30
0.0
 10
10.0019522978
 20
11.0059476394
 30
0.0
 10
10.0065651868
 20
11.0124753612
 30
0.0
 10
10.0119965272
 20
11.0189539767
 30
0.0
 10
10.0160359948
 20
11.0231108103
 30
0.0
 10
10.0181794815
 20
11.0251812595
 30
0.0
  0
SPLINE
  5
3B8
100
AcDbEntity
  8
0
100
AcDbSpline
 62
7
  6
CONTINUOUS
 70
0
 71
3
 72
18
 73
14
 74
0
 42
0.0000001
 43
0.0000001
 44
0.0000000001
 40
0.0
 40
0.0
 40
0.0
 40
0.0
 40
0.150467608
 40
0.291710008
 40
0.4244359371
 40
0.549562455
 40
0.6682139939
 40
0.7255497488
 40
0.7817912909
 40
0.8371402503
 40
0.8918093826
 40
0.9460201179
 40
1.0
 40
1.0
 40
1.0
 40
1.0
 10
12.964204121
 20
8.3584793112
 30
0.0
 10
12.9614802192
 20
8.355848224
 30
0.0
 10
12.9560362832
 20
8.3509116271
 30
0.0
 10
12.9476063923
 20
8.3443327689
 30
0.0
 10
12.9391864027
 20
8.3388305437
 30
0.0
 10
12.9307850321
 20
8.3344139828
 30
0.0
 10
12.9237237726
 20
8.3316133846
 30
0.0
 10
12.9181174445
 20
8.3299494367
 30
0.0
 10
12.9139724165
 20
8.3289903608
 30
0.0
 10
12.9098411399
 20
8.3283068028
 30
0.0
 10
12.9057247724
 20
8.3278990046
 30
0.0
 10
12.9016249512
 20
8.3277671786
 30
0.0
 10
12.898901148
 20
8.3278635164
 30
0.0
 10
12.8975457838
 20
8.3279575054
 30
0.0
  0
SPLINE
  5
3B9
100
AcDbEntity
  8
0
100
AcDbSpline
 62
7
  6
CONTINUOUS
 70
0
 71
3
 72
71
 73
67
 74
0
 42
0.0000001
 43
0.0000001
 44
0.0000000001
 40
0.0
 40
0.0
 40
0.0
 40
0.0
 40
0.0155842565
 40
0.0311159319
 40
0.0465952524
 40
0.0620238826
 40
0.0774034482
 40
0.0927362827
 40
0.1080251231
 40
0.1232731738
 40
0.1384840558
 40
0.1536617763
 40
0.1688106896
 40
0.1839354527
 40
0.199040978
 40
0.2141323822
 40
0.2292149324
 40
0.2442939901
 40
0.2593749544
 40
0.2744632041
 40
0.2895640403
 40
0.3046826298
 40
0.3198239504
 40
0.3349927394
 40
0.3501934439
 40
0.3654301774
 40
0.3807066784
 40
0.3960262752
 40
0.411391855
 40
0.4268058382
 40
0.4422701586
 40
0.4577862484
 40
0.4733550295
 40
0.4889769098
 40
0.5046517845
 40
0.5203790422
 40
0.5361575755
 40
0.5519857963
 40
0.5678616545
 40
0.5837826618
 40
0.5997459181
 40
0.6157481413
 40
0.6317856992
 40
0.6478546441
 40
0.6639507502
 40
0.6800695513
 40
0.6962063821
 40
0.7123564199
 40
0.7285147268
 40
0.7446762929
 40
0.76083608
 40
0.776989065
 40
0.7931302839
 40
0.8092548753
 40
0.8253581235
 40
0.8414355003
 40
0.8574827053
 40
0.8734957053
 40
0.889470771
 40
0.9054045131
 40
0.921293919
 40
0.9371363621
 40
0.9529297157
 40
0.968672092
 40
0.9843626215
 40
1.0
 40
1.0
 40
1.0
 40
1.0
 10
11.1667926583
 20
6.7405027026
 30
0.0
 10
11.1667926583
 20
6.7294592658
 30
0.0
 10
11.1662522136
 20
6.7074057365
 30
0.0
 10
11.1638126093
 20
6.6744643716
 30
0.0
 10
11.1597510089
 20
6.6417936166
 30
0.0
 10
11.154077365
 20
6.6094734451
 30
0.0
 10
11.1468050925
 20
6.5775813056
 30
0.0
 10
11.1379517291
 20
6.5461942218
 30
0.0
 10
11.127538493
 20
6.5153878261
 30
0.0
 10
11.1155904198
 20
6.4852364182
 30
0.0
 10
11.1021362517
 20
6.4558127095
 30
0.0
 10
11.0872083754
 20
6.4271876674
 30
0.0
 10
11.0708427376
 20
6.3994303402
 30
0.0
 10
11.0530787606
 20
6.3726076896
 30
0.0
 10
11.0339592482
 20
6.3467844278
 30
0.0
 10
11.0135302836
 20
6.3220228586
 30
0.0
 10
10.9918411161
 20
6.2983827277
 30
0.0
 10
10.9689440567
 20
6.2759210612
 30
0.0
 10
10.9448943389
 20
6.2546920338
 30
0.0
 10
10.9197499795
 20
6.2347468409
 30
0.0
 10
10.8935716384
 20
6.2161335734
 30
0.0
 10
10.8664224697
 20
6.1988971015
 30
0.0
 10
10.8383679687
 20
6.1830789656
 30
0.0
 10
10.8094758101
 20
6.1687172796
 30
0.0
 10
10.7798156915
 20
6.1558466221
 30
0.0
 10
10.7494591566
 20
6.1444979607
 30
0.0
 10
10.718479417
 20
6.1346985875
 30
0.0
 10
10.6869511752
 20
6.1264720529
 30
0.0
 10
10.6549504438
 20
6.1198381123
 30
0.0
 10
10.622554362
 20
6.1148126789
 30
0.0
 10
10.5898410097
 20
6.1114077915
 30
0.0
 10
10.5568892212
 20
6.1096315705
 30
0.0
 10
10.5237783921
 20
6.1094882042
 30
0.0
 10
10.4905882875
 20
6.1109779528
 30
0.0
 10
10.457398851
 20
6.1140971467
 30
0.0
 10
10.4242900135
 20
6.1188381986
 30
0.0
 10
10.3913415026
 20
6.1251896213
 30
0.0
 10
10.358632653
 20
6.1331360595
 30
0.0
 10
10.3262422141
 20
6.1426583153
 30
0.0
 10
10.2942481583
 20
6.1537333926
 30
0.0
 10
10.2627274987
 20
6.166334569
 30
0.0
 10
10.2317561042
 20
6.1804314572
 30
0.0
 10
10.2014085187
 20
6.1959900788
 30
0.0
 10
10.171757784
 20
6.2129729454
 30
0.0
 10
10.1428752661
 20
6.2313391502
 30
0.0
 10
10.11483048
 20
6.251044458
 30
0.0
 10
10.0876909175
 20
6.2720414064
 30
0.0
 10
10.0615218946
 20
6.2942794344
 30
0.0
 10
10.0363863941
 20
6.3177050015
 30
0.0
 10
10.012344916
 20
6.3422617155
 30
0.0
 10
9.9894553325
 20
6.3678904675
 30
0.0
 10
9.967772751
 20
6.3945295735
 30
0.0
 10
9.9473493778
 20
6.4221149183
 30
0.0
 10
9.9282343813
 20
6.4505801026
 30
0.0
 10
9.9104737897
 20
6.4798566149
 30
0.0
 10
9.8941103781
 20
6.5098739929
 30
0.0
 10
9.8791835674
 20
6.5405599924
 30
0.0
 10
9.8657293298
 20
6.5718407594
 30
0.0
 10
9.8537801031
 20
6.6036410054
 30
0.0
 10
9.8433647055
 20
6.6358841905
 30
0.0
 10
9.8345082714
 20
6.6684926851
 30
0.0
 10
9.8272321387
 20
6.701388032
 30
0.0
 10
9.8215539795
 20
6.7344908856
 30
0.0
 10
9.8174873626
 20
6.7677219985
 30
0.0
 10
9.8150423972
 20
6.8010000856
 30
0.0
 10
9.8144964213
 20
6.8232036846
 30
0.0
 10
9.8144964213
 20
6.8342847651
 30
0.0
  0
LINE
  5
3BA
100
AcDbEntity
  8
0
100
AcDbLine
 62
7
  6
CONTINUOUS
 10
11.1657481501
 20
6.740990646
 11
11.1657253154
 21
6.740595047
  0
SPLINE
  5
3BB
100
AcDbEntity
  8
0
100
AcDbSpline
 62
7
  6
CONTINUOUS
 70
0
 71
3
 72
71
 73
67
 74
0
 42
0.0000001
 43
0.0000001
 44
0.0000000001
 40
0.0
 40
0.0
 40
0.0
 40
0.0
 40
0.0155219113
 40
0.03099278
 40
0.0464140644
 40
0.0617874401
 40
0.0771152019
 40
0.0924000282
 40
0.1076450386
 40
0.1228537437
 40
0.1380300185
 40
0.1531780648
 40
0.1683023704
 40
0.183407665
 40
0.1984988728
 40
0.2135810623
 40
0.2286593949
 40
0.2437390723
 40
0.258825282
 40
0.2739231446
 40
0.2890376607
 40
0.30417366
 40
0.3193357522
 40
0.3345282825
 40
0.3497552882
 40
0.3650204611
 40
0.3803271124
 40
0.395678143
 40
0.4110760185
 40
0.4265227491
 40
0.4420198752
 40
0.4575684571
 40
0.4731690696
 40
0.4888218013
 40
0.5045262584
 40
0.5202815728
 40
0.5360864154
 40
0.5519390121
 40
0.5678371643
 40
0.5837782706
 40
0.5997593538
 40
0.6157770886
 40
0.6318278335
 40
0.6479076644
 40
0.6640124094
 40
0.6801376853
 40
0.6962789351
 40
0.712431467
 40
0.728590494
 40
0.7447511756
 40
0.7609086572
 40
0.7770581112
 40
0.7931947772
 40
0.8093140017
 40
0.8254112784
 40
0.8414822872
 40
0.8575229313
 40
0.8735293733
 40
0.889498069
 40
0.905425801
 40
0.9213097101
 40
0.9371473064
 40
0.9529365811
 40
0.9686757212
 40
0.9843639743
 40
1.0
 40
1.0
 40
1.0
 40
1.0
 10
11.1657253154
 20
6.740595047
 30
0.0
 10
11.1651327577
 20
6.7303848877
 30
0.0
 10
11.163454886
 20
6.7100232985
 30
0.0
 10
11.1594549942
 20
6.6796921377
 30
0.0
 10
11.1539852601
 20
6.6496898991
 30
0.0
 10
11.1470582884
 20
6.6200871607
 30
0.0
 10
11.1386901439
 20
6.5909524701
 30
0.0
 10
11.128900164
 20
6.5623535628
 30
0.0
 10
11.1177110275
 20
6.5343568792
 30
0.0
 10
11.1051486678
 20
6.5070274825
 30
0.0
 10
11.0912422308
 20
6.4804288824
 30
0.0
 10
11.0760239859
 20
6.4546228995
 30
0.0
 10
11.0595292569
 20
6.4296695179
 30
0.0
 10
11.0417963405
 20
6.4056267449
 30
0.0
 10
11.0228664169
 20
6.3825504762
 30
0.0
 10
11.0027834582
 20
6.3604943612
 30
0.0
 10
10.981594141
 20
6.3395096602
 30
0.0
 10
10.9593477144
 20
6.3196451409
 30
0.0
 10
10.9360958868
 20
6.3009469631
 30
0.0
 10
10.9118927048
 20
6.2834585711
 30
0.0
 10
10.8867944264
 20
6.267220592
 30
0.0
 10
10.8608593878
 20
6.2522707444
 30
0.0
 10
10.8341478793
 20
6.2386437275
 30
0.0
 10
10.8067219917
 20
6.2263711537
 30
0.0
 10
10.7786454666
 20
6.2154814838
 30
0.0
 10
10.7499835484
 20
6.2059999609
 30
0.0
 10
10.7208028324
 20
6.1979485527
 30
0.0
 10
10.6911711088
 20
6.191345906
 30
0.0
 10
10.661157209
 20
6.186207291
 30
0.0
 10
10.6308308437
 20
6.1825445584
 30
0.0
 10
10.6002624353
 20
6.1803661368
 30
0.0
 10
10.5695229564
 20
6.1796770107
 30
0.0
 10
10.5386837656
 20
6.1804787119
 30
0.0
 10
10.5078164436
 20
6.1827693172
 30
0.0
 10
10.4769926293
 20
6.1865434541
 30
0.0
 10
10.44628385
 20
6.191792289
 30
0.0
 10
10.415761357
 20
6.1985035734
 30
0.0
 10
10.3854959617
 20
6.2066616747
 30
0.0
 10
10.3555578734
 20
6.2162476125
 30
0.0
 10
10.3260165382
 20
6.2272391025
 30
0.0
 10
10.2969404815
 20
6.2396106114
 30
0.0
 10
10.2683971422
 20
6.253333397
 30
0.0
 10
10.2404527161
 20
6.2683755811
 30
0.0
 10
10.21317201
 20
6.2847022369
 30
0.0
 10
10.1866182916
 20
6.3022754676
 30
0.0
 10
10.1608531444
 20
6.3210544931
 30
0.0
 10
10.1359363275
 20
6.3409957451
 30
0.0
 10
10.1119256347
 20
6.3620529627
 30
0.0
 10
10.0888767474
 20
6.384177286
 30
0.0
 10
10.0668431215
 20
6.4073173901
 30
0.0
 10
10.0458758634
 20
6.4314196002
 30
0.0
 10
10.0260236126
 20
6.4564280158
 30
0.0
 10
10.0073324299
 20
6.4822846385
 30
0.0
 10
9.9898456939
 20
6.5089295065
 30
0.0
 10
9.9736039791
 20
6.5363008199
 30
0.0
 10
9.9586449748
 20
6.5643350945
 30
0.0
 10
9.9450034041
 20
6.5929673116
 30
0.0
 10
9.932710944
 20
6.6221310665
 30
0.0
 10
9.9217961503
 20
6.6517587195
 30
0.0
 10
9.9122843937
 20
6.6817815558
 30
0.0
 10
9.9041978018
 20
6.7121299234
 30
0.0
 10
9.8975551398
 20
6.7427334598
 30
0.0
 10
9.8923719603
 20
6.7735210218
 30
0.0
 10
9.8886601735
 20
6.8044216149
 30
0.0
 10
9.8864287055
 20
6.8353623718
 30
0.0
 10
9.8859304504
 20
6.8560052248
 30
0.0
 10
9.8859304504
 20
6.8663077542
 30
0.0
  0
SPLINE
  5
3BC
100
AcDbEntity
  8
0
100
AcDbSpline
 62
7
  6
CONTINUOUS
 70
0
 71
3
 72
15
 73
11
 74
0
 42
0.0000001
 43
0.0000001
 44
0.0000000001
 40
0.0
 40
0.0
 40
0.0
 40
0.0
 40
0.1456220392
 40
0.284441542
 40
0.4168040037
 40
0.5431449195
 40
0.6639836344
 40
0.779925626
 40
0.8916673622
 40
1.0
 40
1.0
 40
1.0
 40
1.0
 10
12.933294492
 20
8.3606229013
 30
0.0
 10
12.9312193537
 20
8.3586184715
 30
0.0
 10
12.9270708762
 20
8.3547998692
 30
0.0
 10
12.9206977133
 20
8.3495418949
 30
0.0
 10
12.9143301496
 20
8.3448980621
 30
0.0
 10
12.9079721537
 20
8.3408719158
 30
0.0
 10
12.9016271399
 20
8.3374666505
 30
0.0
 10
12.8952985437
 20
8.3346851321
 30
0.0
 10
12.8889909413
 20
8.3325306722
 30
0.0
 10
12.8847463382
 20
8.3315006255
 30
0.0
 10
12.8826383811
 20
8.3310965806
 30
0.0
  0
SPLINE
  5
3BD
100
AcDbEntity
  8
0
100
AcDbSpline
 62
7
  6
CONTINUOUS
 70
0
 71
3
 72
23
 73
19
 74
0
 42
0.0000001
 43
0.0000001
 44
0.0000000001
 40
0.0
 40
0.0
 40
0.0
 40
0.0
 40
0.0781366256
 40
0.1532314921
 40
0.2254044528
 40
0.2947999486
 40
0.3615917484
 40
0.4259788933
 40
0.4881872746
 40
0.5484705101
 40
0.6071104664
 40
0.6644173581
 40
0.7207256504
 40
0.7763896105
 40
0.8317771081
 40
0.8872618933
 40
0.9432156738
 40
1.0
 40
1.0
 40
1.0
 40
1.0
 10
12.933294492
 20
8.6151443716
 30
0.0
 10
12.9320371005
 20
8.6139298246
 30
0.0
 10
12.9295230582
 20
8.6115971663
 30
0.0
 10
12.9256765142
 20
8.6083331111
 30
0.0
 10
12.921832517
 20
8.6053764685
 30
0.0
 10
12.9179928
 20
8.6027289221
 30
0.0
 10
12.914158975
 20
8.6003916805
 30
0.0
 10
12.910332497
 20
8.5983659948
 30
0.0
 10
12.9065149336
 20
8.5966529806
 30
0.0
 10
12.9027079347
 20
8.5952536871
 30
0.0
 10
12.8989131811
 20
8.5941692687
 30
0.0
 10
12.8951325467
 20
8.5934005279
 30
0.0
 10
12.8913679787
 20
8.5929482191
 30
0.0
 10
12.8876215641
 20
8.5928129415
 30
0.0
 10
12.8838955163
 20
8.5929947969
 30
0.0
 10
12.8801919798
 20
8.5934938446
 30
0.0
 10
12.8765134355
 20
8.5943095693
 30
0.0
 10
12.8741010561
 20
8.595057215
 30
0.0
 10
12.872903254
 20
8.5954807053
 30
0.0
  0
SPLINE
  5
3BE
100
AcDbEntity
  8
0
100
AcDbSpline
 62
7
  6
CONTINUOUS
 70
0
 71
3
 72
29
 73
25
 74
0
 42
0.0000001
 43
0.0000001
 44
0.0000000001
 40
0.0
 40
0.0
 40
0.0
 40
0.0
 40
0.0749503488
 40
0.1455452737
 40
0.2121261891
 40
0.2751192851
 40
0.3350448404
 40
0.3640583593
 40
0.3925449884
 40
0.4205963601
 40
0.4483089338
 40
0.4757832092
 40
0.5031225081
 40
0.530431847
 40
0.5578166247
 40
0.5853812653
 40
0.6132280351
 40
0.6414557868
 40
0.6701590145
 40
0.7293218109
 40
0.7913860629
 40
0.8569001023
 40
0.9263189548
 40
1.0
 40
1.0
 40
1.0
 40
1.0
 10
9.9603958943
 20
10.9865562501
 30
0.0
 10
9.9579587406
 20
10.9888242787
 30
0.0
 10
9.9533612094
 20
10.9933777428
 30
0.0
 10
9.9471576444
 20
11.0004816329
 30
0.0
 10
9.9418676477
 20
11.0076420376
 30
0.0
 10
9.93749925
 20
11.0148518436
 30
0.0
 10
9.9346017623
 20
11.020962698
 30
0.0
 10
9.932773525
 20
11.0258503678
 30
0.0
 10
9.9316505395
 20
11.0294831476
 30
0.0
 10
9.9307617703
 20
11.0331207765
 30
0.0
 10
9.9301075838
 20
11.0367622522
 30
0.0
 10
9.9296882096
 20
11.0404063993
 30
0.0
 10
9.9295038411
 20
11.0440520683
 30
0.0
 10
9.9295546374
 20
11.0476980755
 30
0.0
 10
9.929840503
 20
11.0513432298
 30
0.0
 10
9.9303612982
 20
11.0549863697
 30
0.0
 10
9.9311168467
 20
11.0586263044
 30
0.0
 10
9.9321068409
 20
11.0622620163
 30
0.0
 10
9.9337550182
 20
11.067150989
 30
0.0
 10
9.9364273458
 20
11.073267284
 30
0.0
 10
9.9405326598
 20
11.080490152
 30
0.0
 10
9.945561718
 20
11.0876654779
 30
0.0
 10
9.9515064738
 20
11.0947858442
 30
0.0
 10
9.9559380535
 20
11.0993511915
 30
0.0
 10
9.9582920542
 20
11.1016249817
 30
0.0
  0
SPLINE
  5
3BF
100
AcDbEntity
  8
0
100
AcDbSpline
 62
7
  6
CONTINUOUS
 70
0
 71
3
 72
23
 73
19
 74
0
 42
0.0000001
 43
0.0000001
 44
0.0000000001
 40
0.0
 40
0.0
 40
0.0
 40
0.0
 40
0.0636765246
 40
0.1250327799
 40
0.1844692012
 40
0.2424309302
 40
0.2994021132
 40
0.3558948954
 40
0.4124357799
 40
0.4695497615
 40
0.5277449267
 40
0.587499031
 40
0.6492495064
 40
0.7133871169
 40
0.7802559991
 40
0.8501545767
 40
0.9233350066
 40
1.0
 40
1.0
 40
1.0
 40
1.0
 10
9.9917313467
 20
10.9627056121
 30
0.0
 10
9.9907075392
 20
10.9644205495
 30
0.0
 10
9.9888210336
 20
10.9678642371
 30
0.0
 10
9.9864630409
 20
10.9731553964
 30
0.0
 10
9.9846362939
 20
10.9784645082
 30
0.0
 10
9.9833435525
 20
10.983787362
 30
0.0
 10
9.9825865829
 20
10.989119631
 30
0.0
 10
9.9823667718
 20
10.9944564987
 30
0.0
 10
9.9826844276
 20
10.9997928999
 30
0.0
 10
9.9835390276
 20
11.0051238036
 30
0.0
 10
9.9849291689
 20
11.0104444642
 30
0.0
 10
9.9868527807
 20
11.0157506001
 30
0.0
 10
9.9893074508
 20
11.0210383441
 30
0.0
 10
9.9922903778
 20
11.0263043246
 30
0.0
 10
9.9957988947
 20
11.0315453478
 30
0.0
 10
9.9998301087
 20
11.0367585386
 30
0.0
 10
10.0043807592
 20
11.041940513
 30
0.0
 10
10.0076795854
 20
11.0452922229
 30
0.0
 10
10.0094091741
 20
11.0469628774
 30
0.0
  0
SPLINE
  5
3C0
100
AcDbEntity
  8
0
100
AcDbSpline
 62
7
  6
CONTINUOUS
 70
0
 71
3
 72
15
 73
11
 74
0
 42
0.0000001
 43
0.0000001
 44
0.0000000001
 40
0.0
 40
0.0
 40
0.0
 40
0.0
 40
0.1270318963
 40
0.2533991713
 40
0.3791270105
 40
0.5042533181
 40
0.6288313429
 40
0.7529277696
 40
0.8766204973
 40
1.0
 40
1.0
 40
1.0
 40
1.0
 10
10.1769356291
 20
7.0548741771
 30
0.0
 10
10.1769356291
 20
7.0688074119
 30
0.0
 10
10.1779907325
 20
7.0966129813
 30
0.0
 10
10.1827593843
 20
7.137962152
 30
0.0
 10
10.1906827549
 20
7.178614515
 30
0.0
 10
10.201715745
 20
7.2183316571
 30
0.0
 10
10.2157947445
 20
7.2568840234
 30
0.0
 10
10.2328393334
 20
7.2940485342
 30
0.0
 10
10.2527490107
 20
7.3296069772
 30
0.0
 10
10.2678759767
 20
7.3521340844
 30
0.0
 10
10.2758704752
 20
7.3630528779
 30
0.0
  0
SPLINE
  5
3C1
100
AcDbEntity
  8
0
100
AcDbSpline
 62
7
  6
CONTINUOUS
 70
0
 71
3
 72
85
 73
81
 74
0
 42
0.0000001
 43
0.0000001
 44
0.0000000001
 40
0.0
 40
0.0
 40
0.0
 40
0.0
 40
0.002808
 40
0.0056356854
 40
0.0085022922
 40
0.0114262237
 40
0.0144246988
 40
0.0175135598
 40
0.024014739
 40
0.0274544584
 40
0.0310326265
 40
0.0347576765
 40
0.0386367849
 40
0.0426760087
 40
0.0468804381
 40
0.0512542242
 40
0.0558007794
 40
0.0605227769
 40
0.0654222753
 40
0.0705007986
 40
0.0757593265
 40
0.0811984488
 40
0.0868183048
 40
0.0926186943
 40
0.0985990952
 40
0.1110957845
 40
0.1242990473
 40
0.1381952116
 40
0.1527673415
 40
0.1679956344
 40
0.1838577574
 40
0.2003291181
 40
0.2173830882
 40
0.2349911961
 40
0.2531232881
 40
0.2717476837
 40
0.29083132
 40
0.3103398796
 40
0.3302379102
 40
0.3504889364
 40
0.371055568
 40
0.3918996141
 40
0.4129821883
 40
0.4342638111
 40
0.4557045103
 40
0.4989006445
 40
0.5422455447
 40
0.5854119505
 40
0.6068267168
 40
0.6280751085
 40
0.6491172355
 40
0.6699137162
 40
0.6904257797
 40
0.7106153751
 40
0.7304452753
 40
0.7498791827
 40
0.7688818395
 40
0.7874191422
 40
0.8054582693
 40
0.8229678148
 40
0.8399179225
 40
0.8562804388
 40
0.8720290849
 40
0.8871396568
 40
0.9015902675
 40
0.9153616176
 40
0.928437329
 40
0.9408043683
 40
0.9467193806
 40
0.9524541748
 40
0.9580083025
 40
0.9633817132
 40
0.9685747081
 40
0.973587989
 40
0.9784227379
 40
0.9830806145
 40
0.9875639933
 40
0.9918758833
 40
0.9960198327
 40
1.0
 40
1.0
 40
1.0
 40
1.0
 10
11.5555335112
 20
10.9727972789
 30
0.0
 10
11.5555335193
 20
10.9743164476
 30
0.0
 10
11.5554004862
 20
10.9773670793
 30
0.0
 10
11.5548027113
 20
10.9819333422
 30
0.0
 10
11.5538072278
 20
10.9864940421
 30
0.0
 10
11.55241491
 20
10.9910458793
 30
0.0
 10
11.5506270576
 20
10.9955866826
 30
0.0
 10
11.5476679861
 20
11.0017264308
 30
0.0
 10
11.5439409954
 20
11.007737836
 30
0.0
 10
11.5395519089
 20
11.0135914096
 30
0.0
 10
11.535810516
 20
11.018043239
 30
0.0
 10
11.5316842552
 20
11.0224706889
 30
0.0
 10
11.527174942
 20
11.0268722914
 30
0.0
 10
11.5222849808
 20
11.031245891
 30
0.0
 10
11.5170167425
 20
11.0355894041
 30
0.0
 10
11.5113729246
 20
11.0399008448
 30
0.0
 10
11.5053562783
 20
11.0441780586
 30
0.0
 10
11.4989698256
 20
11.0484190082
 30
0.0
 10
11.492216743
 20
11.0526216174
 30
0.0
 10
11.4851003739
 20
11.056783758
 30
0.0
 10
11.4776243052
 20
11.0609034408
 30
0.0
 10
11.4697922412
 20
11.0649785301
 30
0.0
 10
11.4616081319
 20
11.0690070334
 30
0.0
 10
11.453076062
 20
11.0729869473
 30
0.0
 10
11.4410651595
 20
11.078304007
 30
0.0
 10
11.4251998366
 20
11.0847993223
 30
0.0
 10
11.4051148392
 20
11.0922585883
 30
0.0
 10
11.383753778
 20
11.0994776731
 30
0.0
 10
11.3611596597
 20
11.1064419067
 30
0.0
 10
11.3373777548
 20
11.1131371412
 30
0.0
 10
11.3124559184
 20
11.1195497483
 30
0.0
 10
11.2864443423
 20
11.125666668
 30
0.0
 10
11.2593954764
 20
11.1314754382
 30
0.0
 10
11.231363906
 20
11.1369642205
 30
0.0
 10
11.2024062417
 20
11.1421218363
 30
0.0
 10
11.1725809961
 20
11.1469377872
 30
0.0
 10
11.1419484539
 20
11.1514022688
 30
0.0
 10
11.1105705449
 20
11.1555061932
 30
0.0
 10
11.0785107186
 20
11.1592412055
 30
0.0
 10
11.0458338165
 20
11.1625997026
 30
0.0
 10
11.0126059418
 20
11.1655748572
 30
0.0
 10
10.9788943139
 20
11.1681606226
 30
0.0
 10
10.9447671531
 20
11.1703517308
 30
0.0
 10
10.9102934482
 20
11.1721437619
 30
0.0
 10
10.8638465128
 20
11.1740005104
 30
0.0
 10
10.8054353305
 20
11.1752973144
 30
0.0
 10
10.7352558008
 20
11.1752232975
 30
0.0
 10
10.6768775967
 20
11.1738030747
 30
0.0
 10
10.6304828353
 20
11.1718477893
 30
0.0
 10
10.5960669613
 20
11.1699828993
 30
0.0
 10
10.5620102406
 20
11.1677196838
 30
0.0
 10
10.5283815224
 20
11.1650627058
 30
0.0
 10
10.4952488612
 20
11.1620173732
 30
0.0
 10
10.4626792802
 20
11.1585898806
 30
0.0
 10
10.4307386585
 20
11.1547872049
 30
0.0
 10
10.3994915936
 20
11.1506170838
 30
0.0
 10
10.3690012729
 20
11.1460880034
 30
0.0
 10
10.339329342
 20
11.1412091788
 30
0.0
 10
10.3105357718
 20
11.1359905415
 30
0.0
 10
10.2826787304
 20
11.1304427248
 30
0.0
 10
10.2558144648
 20
11.1245770303
 30
0.0
 10
10.2299971846
 20
11.1184054069
 30
0.0
 10
10.2052789478
 20
11.1119404254
 30
0.0
 10
10.1817095278
 20
11.1051952455
 30
0.0
 10
10.1593363297
 20
11.098183601
 30
0.0
 10
10.1382041444
 20
11.0909197432
 30
0.0
 10
10.1183555082
 20
11.0834184123
 30
0.0
 10
10.1026930691
 20
11.0768887563
 30
0.0
 10
10.0908483328
 20
11.0715454104
 30
0.0
 10
10.0824423012
 20
11.0675476089
 30
0.0
 10
10.0743857552
 20
11.0635019178
 30
0.0
 10
10.0666827015
 20
11.0594103759
 30
0.0
 10
10.0593370008
 20
11.0552750232
 30
0.0
 10
10.0523523504
 20
11.0510978915
 30
0.0
 10
10.045732215
 20
11.0468811477
 30
0.0
 10
10.0394799137
 20
11.0426267738
 30
0.0
 10
10.0335984775
 20
11.0383368704
 30
0.0
 10
10.0280908065
 20
11.0340134103
 30
0.0
 10
10.0229599244
 20
11.029658741
 30
0.0
 10
10.0197282727
 20
11.026677277
 30
0.0
 10
10.0181794815
 20
11.0251812595
 30
0.0
  0
SPLINE
  5
3C2
100
AcDbEntity
  8
0
100
AcDbSpline
 62
7
  6
CONTINUOUS
 70
0
 71
3
 72
23
 73
19
 74
0
 42
0.0000001
 43
0.0000001
 44
0.0000000001
 40
0.0
 40
0.0
 40
0.0
 40
0.0
 40
0.0433590421
 40
0.0892116809
 40
0.1376139176
 40
0.1886037603
 40
0.2422033223
 40
0.2984218543
 40
0.3572568957
 40
0.4186961429
 40
0.4827186907
 40
0.5492956059
 40
0.6183914427
 40
0.6899641705
 40
0.7639663627
 40
0.8403454001
 40
0.919043795
 40
1.0
 40
1.0
 40
1.0
 40
1.0
 10
11.520553797
 20
10.1989056996
 30
0.0
 10
11.5179893015
 20
10.2010496433
 30
0.0
 10
11.5125846431
 20
10.2053090918
 30
0.0
 10
11.5039308232
 20
10.2114522243
 30
0.0
 10
11.494515767
 20
10.2175193957
 30
0.0
 10
11.484349312
 20
10.2235042341
 30
0.0
 10
11.4734417163
 20
10.2294009072
 30
0.0
 10
11.4618041106
 20
10.2352033112
 30
0.0
 10
11.4494484338
 20
10.2409055349
 30
0.0
 10
11.4363874013
 20
10.2465016802
 30
0.0
 10
11.422634485
 20
10.2519858929
 30
0.0
 10
11.4082039327
 20
10.2573525242
 30
0.0
 10
11.3931106918
 20
10.2625958959
 30
0.0
 10
11.3773704479
 20
10.267710581
 30
0.0
 10
11.3609995663
 20
10.2726911964
 30
0.0
 10
11.3440150725
 20
10.2775325163
 30
0.0
 10
11.3264347133
 20
10.2822294975
 30
0.0
 10
11.3144948734
 20
10.2852198274
 30
0.0
 10
11.3084298731
 20
10.2866917381
 30
0.0
  0
SPLINE
  5
3C3
100
AcDbEntity
  8
0
100
AcDbSpline
 62
7
  6
CONTINUOUS
 70
0
 71
3
 72
23
 73
19
 74
0
 42
0.0000001
 43
0.0000001
 44
0.0000000001
 40
0.0
 40
0.0
 40
0.0
 40
0.0
 40
0.0416102648
 40
0.0857552539
 40
0.1325600211
 40
0.1821186878
 40
0.2345000124
 40
0.2897505797
 40
0.3478989246
 40
0.408957824
 40
0.472926483
 40
0.5397928128
 40
0.6095340713
 40
0.6821189669
 40
0.7575078957
 40
0.8356541395
 40
0.916504624
 40
1.0
 40
1.0
 40
1.0
 40
1.0
 10
11.4897682542
 20
10.1817605087
 30
0.0
 10
11.4879077711
 20
10.1838504466
 30
0.0
 10
11.483907531
 20
10.1880118707
 30
0.0
 10
11.4773154907
 20
10.1940201084
 30
0.0
 10
11.4699672862
 20
10.1999674389
 30
0.0
 10
11.4618710968
 20
10.2058477927
 30
0.0
 10
11.453035128
 20
10.211655448
 30
0.0
 10
11.4434686578
 20
10.2173845734
 30
0.0
 10
11.4331816513
 20
10.2230292243
 30
0.0
 10
11.4221849282
 20
10.228583488
 30
0.0
 10
11.4104901147
 20
10.2340415328
 30
0.0
 10
11.3981095924
 20
10.2393974696
 30
0.0
 10
11.3850565582
 20
10.2446456424
 30
0.0
 10
11.3713449226
 20
10.2497803464
 30
0.0
 10
11.356989359
 20
10.2547960817
 30
0.0
 10
11.3420052284
 20
10.2596874458
 30
0.0
 10
11.326408652
 20
10.2644490968
 30
0.0
 10
11.3157819024
 20
10.2674856351
 30
0.0
 10
11.3103706879
 20
10.2689832689
 30
0.0
  0
SPLINE
  5
3C4
100
AcDbEntity
  8
0
100
AcDbSpline
 62
7
  6
CONTINUOUS
 70
0
 71
3
 72
20
 73
16
 74
0
 42
0.0000001
 43
0.0000001
 44
0.0000000001
 40
0.0
 40
0.0
 40
0.0
 40
0.0
 40
0.0474412424
 40
0.0968460401
 40
0.1482428143
 40
0.2016526371
 40
0.2570901889
 40
0.3145638087
 40
0.3740772101
 40
0.4356287427
 40
0.4992130092
 40
0.5648204907
 40
0.7020446328
 40
0.8471662215
 40
1.0
 40
1.0
 40
1.0
 40
1.0
 10
11.4562301402
 20
10.1731578968
 30
0.0
 10
11.4543796106
 20
10.1745873273
 30
0.0
 10
11.4505449046
 20
10.1774320985
 30
0.0
 10
11.4445263706
 20
10.1815774577
 30
0.0
 10
11.438129162
 20
10.1856845474
 30
0.0
 10
11.4313569445
 20
10.1897510293
 30
0.0
 10
11.4242134333
 20
10.1937746374
 30
0.0
 10
11.4167026481
 20
10.1977532051
 30
0.0
 10
11.4088287458
 20
10.2016844275
 30
0.0
 10
11.4005961632
 20
10.2055661745
 30
0.0
 10
11.3920094801
 20
10.2093962495
 30
0.0
 10
11.3799131664
 20
10.2145078835
 30
0.0
 10
11.3639300074
 20
10.2207370164
 30
0.0
 10
11.3436961228
 20
10.2278647711
 30
0.0
 10
11.3297040721
 20
10.2323328884
 30
0.0
 10
11.3224987372
 20
10.2345303766
 30
0.0
  0
SPLINE
  5
3C5
100
AcDbEntity
  8
0
100
AcDbSpline
 62
7
  6
CONTINUOUS
 70
0
 71
3
 72
85
 73
81
 74
0
 42
0.0000001
 43
0.0000001
 44
0.0000000001
 40
0.0
 40
0.0
 40
0.0
 40
0.0
 40
0.0040523132
 40
0.0082800586
 40
0.012687107
 40
0.0172766976
 40
0.0220515287
 40
0.0270136709
 40
0.0321644567
 40
0.0375047323
 40
0.0430348704
 40
0.0487548259
 40
0.0546642229
 40
0.0607622717
 40
0.0735193565
 40
0.0870147767
 40
0.1012327724
 40
0.116154216
 40
0.1317570291
 40
0.1480165025
 40
0.1649055819
 40
0.1823951061
 40
0.2004540051
 40
0.2190494741
 40
0.2381471209
 40
0.2577111186
 40
0.2777043474
 40
0.2980885222
 40
0.3188243129
 40
0.3398714579
 40
0.3611888839
 40
0.3827348247
 40
0.4263416346
 40
0.4703488554
 40
0.5144086288
 40
0.5581725713
 40
0.5798358349
 40
0.6012960488
 40
0.6225110822
 40
0.6434394295
 40
0.6640403257
 40
0.6842738677
 40
0.704101126
 40
0.7234842621
 40
0.7423866525
 40
0.7607730229
 40
0.7786095977
 40
0.7958642408
 40
0.8125066169
 40
0.828508374
 40
0.8438433585
 40
0.8584878757
 40
0.8724209751
 40
0.8856248089
 40
0.8980850902
 40
0.9040333293
 40
0.9097922914
 40
0.9153614672
 40
0.920740747
 40
0.9259304392
 40
0.9309312645
 40
0.9357445176
 40
0.9403720079
 40
0.9448162238
 40
0.9490803884
 40
0.9531685156
 40
0.9570856184
 40
0.9608377212
 40
0.9644320859
 40
0.9678773242
 40
0.9711835192
 40
0.9774235373
 40
0.9803901421
 40
0.9832753234
 40
0.9860978075
 40
0.9888777434
 40
0.9916362884
 40
0.9943951441
 40
0.9971759996
 40
1.0
 40
1.0
 40
1.0
 40
1.0
 10
12.933294492
 20
8.6151443716
 30
0.0
 10
12.9347115566
 20
8.616513151
 30
0.0
 10
12.9375440537
 20
8.6193757689
 30
0.0
 10
12.9417018234
 20
8.623934173
 30
0.0
 10
12.9458549805
 20
8.6288441906
 30
0.0
 10
12.9500011617
 20
8.6341030289
 30
0.0
 10
12.9541383685
 20
8.6397079755
 30
0.0
 10
12.958264463
 20
8.645656211
 30
0.0
 10
12.9623774108
 20
8.6519446264
 30
0.0
 10
12.9664750018
 20
8.6585699697
 30
0.0
 10
12.9705551046
 20
8.6655287721
 30
0.0
 10
12.9746156169
 20
8.6728173868
 30
0.0
 10
12.9786543846
 20
8.6804320412
 30
0.0
 10
12.9840895204
 20
8.6911763927
 30
0.0
 10
12.9908003598
 20
8.7054051244
 30
0.0
 10
12.9986169962
 20
8.7234653002
 30
0.0
 10
13.0062972675
 20
8.7427213618
 30
0.0
 10
13.0138249241
 20
8.7631329044
 30
0.0
 10
13.0211840233
 20
8.7846573001
 30
0.0
 10
13.0283589727
 20
8.8072493966
 30
0.0
 10
13.0353345654
 20
8.8308617531
 30
0.0
 10
13.0420960123
 20
8.8554447286
 30
0.0
 10
13.0486289795
 20
8.880946607
 30
0.0
 10
13.0549196145
 20
8.9073137043
 30
0.0
 10
13.0609545914
 20
8.9344904829
 30
0.0
 10
13.0667211308
 20
8.9624196756
 30
0.0
 10
13.0722070219
 20
8.9910424183
 30
0.0
 10
13.0774006492
 20
9.0202983755
 30
0.0
 10
13.0822910174
 20
9.0501258708
 30
0.0
 10
13.0868677693
 20
9.080461995
 30
0.0
 10
13.0911212696
 20
9.1112428166
 30
0.0
 10
13.0963702159
 20
9.1529554492
 30
0.0
 10
13.1020532129
 20
9.2057279025
 30
0.0
 10
13.1074341109
 20
9.2695250869
 30
0.0
 10
13.1113574051
 20
9.333504997
 30
0.0
 10
13.1133917452
 20
9.386702603
 30
0.0
 10
13.114257745
 20
9.4289381554
 30
0.0
 10
13.1145238784
 20
9.4602184163
 30
0.0
 10
13.1144084036
 20
9.4911422719
 30
0.0
 10
13.1139115536
 20
9.5216445508
 30
0.0
 10
13.1130344123
 20
9.5516609105
 30
0.0
 10
13.1117788709
 20
9.5811280598
 30
0.0
 10
13.1101476237
 20
9.6099838706
 30
0.0
 10
13.1081441608
 20
9.6381675114
 30
0.0
 10
13.1057727618
 20
9.6656195759
 30
0.0
 10
13.1030384887
 20
9.6922822174
 30
0.0
 10
13.0999471895
 20
9.7180992782
 30
0.0
 10
13.0965054705
 20
9.7430164101
 30
0.0
 10
13.0927206835
 20
9.7669811893
 30
0.0
 10
13.08860091
 20
9.7899432316
 30
0.0
 10
13.0841549407
 20
9.8118543281
 30
0.0
 10
13.0793922699
 20
9.8326685315
 30
0.0
 10
13.0743230576
 20
9.8523423972
 30
0.0
 10
13.068958066
 20
9.8708346525
 30
0.0
 10
13.0641792047
 20
9.8854462529
 30
0.0
 10
13.0602040193
 20
9.896504045
 30
0.0
 10
13.0572020238
 20
9.9043495097
 30
0.0
 10
13.0541347663
 20
9.9118718194
 30
0.0
 10
13.0510038211
 20
9.9190670581
 30
0.0
 10
13.0478108708
 20
9.925931487
 30
0.0
 10
13.044557492
 20
9.932461509
 30
0.0
 10
13.0412454502
 20
9.9386537673
 30
0.0
 10
13.0378763771
 20
9.9445050337
 30
0.0
 10
13.0344519962
 20
9.9500122891
 30
0.0
 10
13.0309740631
 20
9.9551727167
 30
0.0
 10
13.0274442061
 20
9.9599836083
 30
0.0
 10
13.0238642465
 20
9.9644425273
 30
0.0
 10
13.0202357637
 20
9.968547134
 30
0.0
 10
13.0165606338
 20
9.972295166
 30
0.0
 10
13.0128399904
 20
9.9756849784
 30
0.0
 10
13.0079176074
 20
9.9796468088
 30
0.0
 10
13.0028077568
 20
9.9829942151
 30
0.0
 10
12.9975420522
 20
9.9856203415
 30
0.0
 10
12.9936222254
 20
9.987190029
 30
0.0
 10
12.9896686803
 20
9.9883906571
 30
0.0
 10
12.9856837614
 20
9.9892212959
 30
0.0
 10
12.9816702523
 20
9.9896808974
 30
0.0
 10
12.977630953
 20
9.9897690833
 30
0.0
 10
12.9735691577
 20
9.989486003
 30
0.0
 10
12.9708744183
 20
9.9890542045
 30
0.0
 10
12.9695291637
 20
9.9887796069
 30
0.0
  0
SPLINE
  5
3C6
100
AcDbEntity
  8
0
100
AcDbSpline
 62
7
  6
CONTINUOUS
 70
0
 71
3
 72
71
 73
67
 74
0
 42
0.0000001
 43
0.0000001
 44
0.0000000001
 40
0.0
 40
0.0
 40
0.0
 40
0.0
 40
0.0077182325
 40
0.0113232019
 40
0.0147722188
 40
0.0212544076
 40
0.0243260006
 40
0.0273091778
 40
0.030226123
 40
0.0331007798
 40
0.0359582479
 40
0.0388241206
 40
0.0417237398
 40
0.0446814999
 40
0.047720284
 40
0.0508609779
 40
0.0575164285
 40
0.0610661945
 40
0.0647794657
 40
0.0686665157
 40
0.0727358581
 40
0.0769945889
 40
0.0814484305
 40
0.09095717
 40
0.1012890762
 40
0.1124566923
 40
0.1244627144
 40
0.1373021088
 40
0.1509635526
 40
0.1654303786
 40
0.1806814581
 40
0.1966918541
 40
0.2134332024
 40
0.2308741033
 40
0.2489805255
 40
0.2677160248
 40
0.2870419216
 40
0.3069176064
 40
0.3273007196
 40
0.3694107142
 40
0.4130051275
 40
0.4576982081
 40
0.5030914414
 40
0.5487782381
 40
0.5943486715
 40
0.6393941383
 40
0.683512056
 40
0.7263105395
 40
0.747097243
 40
0.7674144905
 40
0.7872185127
 40
0.8064671728
 40
0.8251200903
 40
0.8431388875
 40
0.8604874439
 40
0.877132046
 40
0.8930416766
 40
0.908188441
 40
0.9225478693
 40
0.9360993721
 40
0.9488269776
 40
0.9607201709
 40
0.9717747984
 40
0.9819946616
 40
0.99139442
 40
1.0
 40
1.0
 40
1.0
 40
1.0
 10
12.7060702827
 20
7.1977779596
 30
0.0
 10
12.7071993665
 20
7.1988287183
 30
0.0
 10
12.7089297794
 20
7.2002957134
 30
0.0
 10
12.7113450629
 20
7.2019960658
 30
0.0
 10
12.7136533199
 20
7.2034086756
 30
0.0
 10
12.7160081865
 20
7.2045351923
 30
0.0
 10
12.718388024
 20
7.2053265164
 30
0.0
 10
12.7201346225
 20
7.2057420762
 30
0.0
 10
12.7218732073
 20
7.2059893934
 30
0.0
 10
12.7236025193
 20
7.2060681592
 30
0.0
 10
12.7253211125
 20
7.2059781804
 30
0.0
 10
12.7270275155
 20
7.205719422
 30
0.0
 10
12.7287203169
 20
7.2052922927
 30
0.0
 10
12.7303981918
 20
7.2046973333
 30
0.0
 10
12.7320600249
 20
7.203935124
 30
0.0
 10
12.7342957066
 20
7.2026730087
 30
0.0
 10
12.7364545012
 20
7.2010880715
 30
0.0
 10
12.7385271023
 20
7.1992317153
 30
0.0
 10
12.7400949107
 20
7.1976464242
 30
0.0
 10
12.7416412565
 20
7.1958994581
 30
0.0
 10
12.7431656289
 20
7.1939917135
 30
0.0
 10
12.7446671329
 20
7.1919243276
 30
0.0
 10
12.7466816133
 20
7.1888899879
 30
0.0
 10
12.7491271461
 20
7.1846907509
 30
0.0
 10
12.7518958963
 20
7.1791433665
 30
0.0
 10
12.7545537687
 20
7.1729947021
 30
0.0
 10
12.7570946682
 20
7.1662590434
 30
0.0
 10
12.7595126834
 20
7.158951782
 30
0.0
 10
12.7618020269
 20
7.1510899587
 30
0.0
 10
12.7639572208
 20
7.1426920354
 30
0.0
 10
12.7659730664
 20
7.1337778524
 30
0.0
 10
12.7678446614
 20
7.1243685358
 30
0.0
 10
12.7695674665
 20
7.1144864552
 30
0.0
 10
12.7711373179
 20
7.1041551531
 30
0.0
 10
12.7725503939
 20
7.093399266
 30
0.0
 10
12.773803252
 20
7.0822444662
 30
0.0
 10
12.7748928615
 20
7.0707174117
 30
0.0
 10
12.7758166097
 20
7.0588456303
 30
0.0
 10
12.7768349991
 20
7.0424163989
 30
0.0
 10
12.7776661424
 20
7.0212294054
 30
0.0
 10
12.7779683552
 20
6.995170131
 30
0.0
 10
12.7775822579
 20
6.9684558543
 30
0.0
 10
12.7765112594
 20
6.9413419717
 30
0.0
 10
12.774765433
 20
6.9140875148
 30
0.0
 10
12.772361419
 20
6.8869529736
 30
0.0
 10
12.7693223052
 20
6.8601975826
 30
0.0
 10
12.7656773599
 20
6.8340771236
 30
0.0
 10
12.7621309248
 20
6.8128452956
 30
0.0
 10
12.7590077109
 20
6.7963715383
 30
0.0
 10
12.7565600307
 20
6.7844481091
 30
0.0
 10
12.7539903201
 20
6.7728649975
 30
0.0
 10
12.7513047373
 20
6.761649869
 30
0.0
 10
12.7485097393
 20
6.7508295319
 30
0.0
 10
12.7456120436
 20
6.7404298267
 30
0.0
 10
12.7426186435
 20
6.7304755617
 30
0.0
 10
12.7395367418
 20
6.7209904661
 30
0.0
 10
12.7363737368
 20
6.711997124
 30
0.0
 10
12.7331372568
 20
6.7035168866
 30
0.0
 10
12.7298350821
 20
6.6955698325
 30
0.0
 10
12.7264750989
 20
6.6881747162
 30
0.0
 10
12.7230653301
 20
6.6813488648
 30
0.0
 10
12.7196138168
 20
6.6751081193
 30
0.0
 10
12.7161286175
 20
6.6694668834
 30
0.0
 10
12.7126174019
 20
6.6644376312
 30
0.0
 10
12.7090881993
 20
6.6600321824
 30
0.0
 10
12.7066221913
 20
6.6574046573
 30
0.0
 10
12.7053852895
 20
6.6562099019
 30
0.0
  0
SPLINE
  5
3C7
100
AcDbEntity
  8
0
100
AcDbSpline
 62
7
  6
CONTINUOUS
 70
0
 71
3
 72
15
 73
11
 74
0
 42
0.0000001
 43
0.0000001
 44
0.0000000001
 40
0.0
 40
0.0
 40
0.0
 40
0.0
 40
0.1234321647
 40
0.2472053882
 40
0.3713839635
 40
0.4960242859
 40
0.6211736939
 40
0.7468699946
 40
0.873139286
 40
1.0
 40
1.0
 40
1.0
 40
1.0
 10
10.215199014
 20
7.3550822162
 30
0.0
 10
10.2082945764
 20
7.3440643855
 30
0.0
 10
10.1952565201
 20
7.321491992
 30
0.0
 10
10.1781482715
 20
7.2862740333
 30
0.0
 10
10.1635383988
 20
7.2498094251
 30
0.0
 10
10.1514949038
 20
7.2122673054
 30
0.0
 10
10.1420721482
 20
7.1738190209
 30
0.0
 10
10.1353130218
 20
7.1346400624
 30
0.0
 10
10.1312479051
 20
7.0949117981
 30
0.0
 10
10.130348201
 20
7.0682377965
 30
0.0
 10
10.130348201
 20
7.0548741745
 30
0.0
  0
SPLINE
  5
3C8
100
AcDbEntity
  8
0
100
AcDbSpline
 62
7
  6
CONTINUOUS
 70
0
 71
3
 72
59
 73
55
 74
0
 42
0.0000001
 43
0.0000001
 44
0.0000000001
 40
0.0
 40
0.0
 40
0.0
 40
0.0
 40
0.0083777921
 40
0.0173199698
 40
0.0268336758
 40
0.0369216623
 40
0.0475831835
 40
0.0588144193
 40
0.070608998
 40
0.0829583094
 40
0.0958517397
 40
0.1092769665
 40
0.1232201041
 40
0.1376658161
 40
0.1525975122
 40
0.1679974307
 40
0.183846693
 40
0.2001254523
 40
0.2168129522
 40
0.2338875547
 40
0.2513268624
 40
0.2691077676
 40
0.3055979921
 40
0.3431616896
 40
0.3815936661
 40
0.4206824285
 40
0.4602117764
 40
0.4999623715
 40
0.5397133192
 40
0.5792437198
 40
0.6183342363
 40
0.656768647
 40
0.6943354361
 40
0.7308294104
 40
0.7486124085
 40
0.7660539771
 40
0.7831309804
 40
0.7998210061
 40
0.8161024476
 40
0.8319545181
 40
0.8473573489
 40
0.8622920969
 40
0.8767409698
 40
0.8906873466
 40
0.9041159293
 40
0.9170128021
 40
0.9293656023
 40
0.9411637542
 40
0.9523986167
 40
0.9630637711
 40
0.9731554275
 40
0.9826727866
 40
0.9916186075
 40
1.0
 40
1.0
 40
1.0
 40
1.0
 10
12.8116144289
 20
8.6727968501
 30
0.0
 10
12.813887448
 20
8.675568051
 30
0.0
 10
12.8184160372
 20
8.6814384188
 30
0.0
 10
12.8249617936
 20
8.6908740699
 30
0.0
 10
12.831470692
 20
8.7012106608
 30
0.0
 10
12.8379330511
 20
8.7124330437
 30
0.0
 10
12.8443396227
 20
8.724525162
 30
0.0
 10
12.8506810435
 20
8.7374694394
 30
0.0
 10
12.8569479625
 20
8.7512470337
 30
0.0
 10
12.8631310998
 20
8.7658377829
 30
0.0
 10
12.8692213215
 20
8.781220257
 30
0.0
 10
12.8752095677
 20
8.7973718321
 30
0.0
 10
12.8810869216
 20
8.8142687104
 30
0.0
 10
12.886844672
 20
8.8318859461
 30
0.0
 10
12.8924742427
 20
8.8501975199
 30
0.0
 10
12.8979672394
 20
8.8691763677
 30
0.0
 10
12.9033155181
 20
8.8887944082
 30
0.0
 10
12.9085111152
 20
8.9090226111
 30
0.0
 10
12.9135462846
 20
8.9298310384
 30
0.0
 10
12.9184135543
 20
8.9511888638
 30
0.0
 10
12.9231057199
 20
8.973064479
 30
0.0
 10
12.9291712726
 20
9.0031384284
 30
0.0
 10
12.9362505716
 20
9.0417876422
 30
0.0
 10
12.9438726659
 20
9.0893071147
 30
0.0
 10
12.9506476136
 20
9.1380772882
 30
0.0
 10
12.9565350361
 20
9.1878092349
 30
0.0
 10
12.9614998354
 20
9.2382085369
 30
0.0
 10
12.9655125179
 20
9.2889766928
 30
0.0
 10
12.9685492631
 20
9.3398130119
 30
0.0
 10
12.970592114
 20
9.3904163964
 30
0.0
 10
12.9716291108
 20
9.4404871205
 30
0.0
 10
12.9716543216
 20
9.4897287266
 30
0.0
 10
12.9706678171
 20
9.5378494629
 30
0.0
 10
12.9689940073
 20
9.5771098356
 30
0.0
 10
12.9671399439
 20
9.6077367606
 30
0.0
 10
12.965513915
 20
9.6300536664
 30
0.0
 10
12.9636429575
 20
9.651882117
 30
0.0
 10
12.9615298309
 20
9.673189807
 30
0.0
 10
12.9591777284
 20
9.6939451744
 30
0.0
 10
12.9565901518
 20
9.7141174881
 30
0.0
 10
12.953770959
 20
9.7336768881
 30
0.0
 10
12.9507243936
 20
9.7525944408
 30
0.0
 10
12.9474550002
 20
9.7708421707
 30
0.0
 10
12.9439676495
 20
9.7883931107
 30
0.0
 10
12.9402675849
 20
9.8052213582
 30
0.0
 10
12.9363603253
 20
9.8213020996
 30
0.0
 10
12.9322516775
 20
9.8366116577
 30
0.0
 10
12.9279477948
 20
9.8511275579
 30
0.0
 10
12.9234550659
 20
9.8648285396
 30
0.0
 10
12.9187800932
 20
9.877694621
 30
0.0
 10
12.9139297939
 20
9.8897071092
 30
0.0
 10
12.908911118
 20
9.9008488469
 30
0.0
 10
12.9037314375
 20
9.9111034229
 30
0.0
 10
12.9000572223
 20
9.917546664
 30
0.0
 10
12.8981888121
 20
9.9206070982
 30
0.0
  0
SPLINE
  5
3C9
100
AcDbEntity
  8
0
100
AcDbSpline
 62
7
  6
CONTINUOUS
 70
0
 71
3
 72
24
 73
20
 74
0
 42
0.0000001
 43
0.0000001
 44
0.0000000001
 40
0.0
 40
0.0
 40
0.0
 40
0.0
 40
0.0755925909
 40
0.1466352375
 40
0.2134610851
 40
0.2454346742
 40
0.2765272927
 40
0.3363373944
 40
0.3935565559
 40
0.4489316461
 40
0.5032955233
 40
0.5575322568
 40
0.6125325048
 40
0.6691475563
 40
0.7281521761
 40
0.7902217656
 40
0.8559251613
 40
0.9257271518
 40
1.0
 40
1.0
 40
1.0
 40
1.0
 10
12.7053852895
 20
6.6562099019
 30
0.0
 10
12.7046071118
 20
6.6554582399
 30
0.0
 10
12.7030517155
 20
6.6540463515
 30
0.0
 10
12.7006447417
 20
6.6521601964
 30
0.0
 10
12.6986119862
 20
6.6508208454
 30
0.0
 10
12.6969908098
 20
6.649909524
 30
0.0
 10
12.6954168252
 20
6.6491237117
 30
0.0
 10
12.6934488643
 20
6.6483233512
 30
0.0
 10
12.69106626
 20
6.6476595844
 30
0.0
 10
12.6886961629
 20
6.6473073049
 30
0.0
 10
12.6863426735
 20
6.64726817
 30
0.0
 10
12.6840102775
 20
6.6475428055
 30
0.0
 10
12.6817035018
 20
6.6481303408
 30
0.0
 10
12.679426259
 20
6.6490288216
 30
0.0
 10
12.6771815807
 20
6.6502356299
 30
0.0
 10
12.6749717171
 20
6.6517479797
 30
0.0
 10
12.6727984856
 20
6.6535632835
 30
0.0
 10
12.6706635921
 20
6.6556788127
 30
0.0
 10
12.6693105614
 20
6.657237558
 30
0.0
 10
12.6686398235
 20
6.6580622707
 30
0.0
  0
SPLINE
  5
3CA
100
AcDbEntity
  8
0
100
AcDbSpline
 62
7
  6
CONTINUOUS
 70
0
 71
3
 72
53
 73
49
 74
0
 42
0.0000001
 43
0.0000001
 44
0.0000000001
 40
0.0
 40
0.0
 40
0.0
 40
0.0
 40
0.0098703374
 40
0.0202237264
 40
0.0310564569
 40
0.0423632112
 40
0.0541372521
 40
0.0663704949
 40
0.0790537714
 40
0.0921767875
 40
0.1057283367
 40
0.1196963199
 40
0.1340677959
 40
0.1488291269
 40
0.1639659072
 40
0.1794631381
 40
0.2114752733
 40
0.2447346047
 40
0.2791017251
 40
0.3144305118
 40
0.3505691691
 40
0.3873612178
 40
0.4246464557
 40
0.4622618987
 40
0.5000427128
 40
0.5378231446
 40
0.5754374436
 40
0.6127207847
 40
0.6495101922
 40
0.6856454749
 40
0.7209701738
 40
0.7553325203
 40
0.7885864254
 40
0.8205925156
 40
0.8360864872
 40
0.8512198914
 40
0.865977683
 40
0.8803455139
 40
0.8943097199
 40
0.9078573696
 40
0.9209764006
 40
0.9336555606
 40
0.9458846296
 40
0.9576543954
 40
0.9689568125
 40
0.9797851616
 40
0.9901340989
 40
1.0
 40
1.0
 40
1.0
 40
1.0
 10
12.7865978812
 20
8.753097954
 30
0.0
 10
12.7884211644
 20
8.7562773857
 30
0.0
 10
12.7920473883
 20
8.7628551557
 30
0.0
 10
12.7973121203
 20
8.7731170021
 30
0.0
 10
12.8025266977
 20
8.7839989913
 30
0.0
 10
12.8076849576
 20
8.7954883895
 30
0.0
 10
12.812780864
 20
8.8075719331
 30
0.0
 10
12.8178085036
 20
8.8202355626
 30
0.0
 10
12.8227619224
 20
8.8334645654
 30
0.0
 10
12.8276353627
 20
8.8472435222
 30
0.0
 10
12.8324230838
 20
8.8615563742
 30
0.0
 10
12.8371194583
 20
8.876386424
 30
0.0
 10
12.8417190137
 20
8.8917163554
 30
0.0
 10
12.8462162899
 20
8.907528267
 30
0.0
 10
12.8506060963
 20
8.9238036949
 30
0.0
 10
12.8563711859
 20
8.946340781
 30
0.0
 10
12.8632565413
 20
8.975534589
 30
0.0
 10
12.8709255735
 20
9.0117325153
 30
0.0
 10
12.8780516553
 20
9.049295379
 30
0.0
 10
12.8846012336
 20
9.0880475519
 30
0.0
 10
12.8905434533
 20
9.1278080155
 30
0.0
 10
12.8958503559
 20
9.1683909073
 30
0.0
 10
12.9004969905
 20
9.2096064948
 30
0.0
 10
12.9044615314
 20
9.2512620498
 30
0.0
 10
12.9077253873
 20
9.2931627662
 30
0.0
 10
12.9102732781
 20
9.3351126809
 30
0.0
 10
12.9120933062
 20
9.3769155992
 30
0.0
 10
12.9131770135
 20
9.4183760195
 30
0.0
 10
12.9135194218
 20
9.4593000542
 30
0.0
 10
12.9131190653
 20
9.4994963547
 30
0.0
 10
12.9119779987
 20
9.5387769961
 30
0.0
 10
12.910101815
 20
9.5769584593
 30
0.0
 10
12.9074995161
 20
9.6138621945
 30
0.0
 10
12.9047071481
 20
9.6437212175
 30
0.0
 10
12.9021059893
 20
9.6668333668
 30
0.0
 10
12.9000032513
 20
9.6835549425
 30
0.0
 10
12.8977300694
 20
9.6998320978
 30
0.0
 10
12.8952891189
 20
9.7156458325
 30
0.0
 10
12.8926832856
 20
9.7309776681
 30
0.0
 10
12.8899156068
 20
9.7458097038
 30
0.0
 10
12.8869893977
 20
9.7601246314
 30
0.0
 10
12.8839080437
 20
9.773905756
 30
0.0
 10
12.8806752233
 20
9.7871370236
 30
0.0
 10
12.8772947162
 20
9.7998030407
 30
0.0
 10
12.8737704845
 20
9.811889075
 30
0.0
 10
12.8701066941
 20
9.8233811676
 30
0.0
 10
12.8663076106
 20
9.8342658478
 30
0.0
 10
12.8636232589
 20
9.841277358
 30
0.0
 10
12.862255885
 20
9.8446760877
 30
0.0
  0
SPLINE
  5
3CB
100
AcDbEntity
  8
0
100
AcDbSpline
 62
7
  6
CONTINUOUS
 70
0
 71
3
 72
15
 73
11
 74
0
 42
0.0000001
 43
0.0000001
 44
0.0000000001
 40
0.0
 40
0.0
 40
0.0
 40
0.0
 40
0.1269677904
 40
0.2533007617
 40
0.3790183137
 40
0.5041551272
 40
0.6287576353
 40
0.7528847166
 40
0.8766058777
 40
1.0
 40
1.0
 40
1.0
 40
1.0
 10
11.2929155516
 20
10.2790686621
 30
0.0
 10
11.2929155516
 20
10.2840021053
 30
0.0
 10
11.2932732278
 20
10.293848212
 30
0.0
 10
11.2948895492
 20
10.3084991961
 30
0.0
 10
11.2975759719
 20
10.3229208433
 30
0.0
 10
11.3013183946
 20
10.3370356149
 30
0.0
 10
11.3060971103
 20
10.3507688006
 30
0.0
 10
11.3118870703
 20
10.3640476326
 30
0.0
 10
11.3186570111
 20
10.3768006413
 30
0.0
 10
11.3238069854
 20
10.3849180582
 30
0.0
 10
11.3265308782
 20
10.3888637464
 30
0.0
  0
SPLINE
  5
3CC
100
AcDbEntity
  8
0
100
AcDbSpline
 62
7
  6
CONTINUOUS
 70
0
 71
3
 72
91
 73
87
 74
0
 42
0.0000001
 43
0.0000001
 44
0.0000000001
 40
0.0
 40
0.0
 40
0.0
 40
0.0
 40
0.0027164146
 40
0.005453202
 40
0.008230252
 40
0.0110665198
 40
0.0139797053
 40
0.0169859824
 40
0.0200999174
 40
0.023334401
 40
0.0267007187
 40
0.0302086385
 40
0.0338665091
 40
0.0376814414
 40
0.0416593691
 40
0.0458052582
 40
0.0501231421
 40
0.0546162891
 40
0.0592872586
 40
0.064137982
 40
0.0691698666
 40
0.0743837897
 40
0.079780237
 40
0.0853592528
 40
0.0911205635
 40
0.0970635488
 40
0.1031872988
 40
0.1094906474
 40
0.1226297881
 40
0.1364673429
 40
0.1509860432
 40
0.166165828
 40
0.1819841602
 40
0.1984162836
 40
0.2154354412
 40
0.2330130641
 40
0.2511189358
 40
0.2697213391
 40
0.2887871904
 40
0.3082821639
 40
0.3281708096
 40
0.3484166635
 40
0.368982358
 40
0.3898297276
 40
0.4109199118
 40
0.4322134566
 40
0.4536704139
 40
0.4752504412
 40
0.4969128994
 40
0.5186169519
 40
0.5403216628
 40
0.5619860952
 40
0.5835694083
 40
0.6050309559
 40
0.6263303839
 40
0.6474277291
 40
0.6682835187
 40
0.688858872
 40
0.7091156002
 40
0.7290163102
 40
0.7485245085
 40
0.7676047097
 40
0.7862225487
 40
0.8043448976
 40
0.8219399925
 40
0.8389775679
 40
0.8554290014
 40
0.8712674776
 40
0.8864681732
 40
0.9010084737
 40
0.9148682315
 40
0.9280300795
 40
0.9343449284
 40
0.9404802779
 40
0.9464349254
 40
0.952207944
 40
0.9577987094
 40
0.9632068925
 40
0.9684325652
 40
0.9734761403
 40
0.9783384919
 40
0.9830209404
 40
0.9875254382
 40
0.9918545985
 40
0.9960115586
 40
1.0
 40
1.0
 40
1.0
 40
1.0
 10
13.0308624582
 20
10.2503402946
 30
0.0
 10
13.0326607132
 20
10.250215593
 30
0.0
 10
13.0362615032
 20
10.2498025097
 30
0.0
 10
13.0416168578
 20
10.2486970932
 30
0.0
 10
13.0469317163
 20
10.2471059815
 30
0.0
 10
13.0522023507
 20
10.2450308684
 30
0.0
 10
13.0574259554
 20
10.2424734164
 30
0.0
 10
13.0625999424
 20
10.2394358003
 30
0.0
 10
13.0677218486
 20
10.2359200491
 30
0.0
 10
13.0727894488
 20
10.2319284724
 30
0.0
 10
13.0778005407
 20
10.2274633746
 30
0.0
 10
13.0827529341
 20
10.2225271758
 30
0.0
 10
13.0876445348
 20
10.2171225035
 30
0.0
 10
13.0924730768
 20
10.2112520281
 30
0.0
 10
13.0972364804
 20
10.2049187492
 30
0.0
 10
13.1019324448
 20
10.1981257323
 30
0.0
 10
13.1065588446
 20
10.1908763694
 30
0.0
 10
13.111113429
 20
10.183174202
 30
0.0
 10
13.1155940071
 20
10.1750230309
 30
0.0
 10
13.1199984292
 20
10.1664268898
 30
0.0
 10
13.1243244674
 20
10.1573900093
 30
0.0
 10
13.1285700708
 20
10.1479168965
 30
0.0
 10
13.1327330394
 20
10.1380122304
 30
0.0
 10
13.1368113812
 20
10.1276809633
 30
0.0
 10
13.1408029996
 20
10.1169282288
 30
0.0
 10
13.1447059159
 20
10.1057594065
 30
0.0
 10
13.1485182108
 20
10.0941800601
 30
0.0
 10
13.1535474424
 20
10.0779765218
 30
0.0
 10
13.1595758871
 20
10.0567271072
 30
0.0
 10
13.1663227589
 20
10.030027301
 30
0.0
 10
13.1726651216
 20
10.0018390751
 30
0.0
 10
13.1785901058
 20
9.9722189361
 30
0.0
 10
13.1840856526
 20
9.9412260372
 30
0.0
 10
13.1891405797
 20
9.9089224673
 30
0.0
 10
13.1937445996
 20
9.8753729848
 30
0.0
 10
13.197888341
 20
9.8406449072
 30
0.0
 10
13.2015633694
 20
9.8048079544
 30
0.0
 10
13.2047622029
 20
9.7679341041
 30
0.0
 10
13.2074783276
 20
9.7300974408
 30
0.0
 10
13.2097062094
 20
9.6913740029
 30
0.0
 10
13.2114413041
 20
9.6518416276
 30
0.0
 10
13.2126800698
 20
9.6115797919
 30
0.0
 10
13.2134199706
 20
9.5706694495
 30
0.0
 10
13.2136594801
 20
9.5291928651
 30
0.0
 10
13.2133980841
 20
9.4872334472
 30
0.0
 10
13.2126362813
 20
9.4448755792
 30
0.0
 10
13.2113755818
 20
9.4022044495
 30
0.0
 10
13.2096185037
 20
9.3593058796
 30
0.0
 10
13.2073685679
 20
9.3162661508
 30
0.0
 10
13.2046302946
 20
9.2731718297
 30
0.0
 10
13.2014091901
 20
9.2301095926
 30
0.0
 10
13.1977117359
 20
9.1871660504
 30
0.0
 10
13.1935453753
 20
9.1444275741
 30
0.0
 10
13.1889184989
 20
9.1019801209
 30
0.0
 10
13.1838404278
 20
9.0599090609
 30
0.0
 10
13.1783213946
 20
9.0182990047
 30
0.0
 10
13.1723725241
 20
8.977233631
 30
0.0
 10
13.1660058134
 20
8.9367955168
 30
0.0
 10
13.1592341046
 20
8.8970659701
 30
0.0
 10
13.1520710595
 20
8.8581248655
 30
0.0
 10
13.1445311328
 20
8.8200504827
 30
0.0
 10
13.136629543
 20
8.7829193469
 30
0.0
 10
13.1283822432
 20
8.7468060722
 30
0.0
 10
13.1198058873
 20
8.7117832074
 30
0.0
 10
13.1109178001
 20
8.6779210832
 30
0.0
 10
13.1017359417
 20
8.645287664
 30
0.0
 10
13.092278868
 20
8.613948408
 30
0.0
 10
13.0825656919
 20
8.5839661168
 30
0.0
 10
13.0726160425
 20
8.5554008327
 30
0.0
 10
13.0624500144
 20
8.5283095777
 30
0.0
 10
13.0520881341
 20
8.5027466487
 30
0.0
 10
13.0431889479
 20
8.4824898369
 30
0.0
 10
13.035974639
 20
8.4671004317
 30
0.0
 10
13.0306027024
 20
8.4561313835
 30
0.0
 10
13.0251974927
 20
8.4455810946
 30
0.0
 10
13.0197616724
 20
8.4354548314
 30
0.0
 10
13.0142980128
 20
8.425757636
 30
0.0
 10
13.0088091737
 20
8.4164943647
 30
0.0
 10
13.0032979666
 20
8.4076695903
 30
0.0
 10
12.9977670418
 20
8.3992877422
 30
0.0
 10
12.9922192345
 20
8.3913529573
 30
0.0
 10
12.9866572253
 20
8.3838691757
 30
0.0
 10
12.9810837035
 20
8.3768400499
 30
0.0
 10
12.9755012869
 20
8.3702689776
 30
0.0
 10
12.9699129123
 20
8.3641595235
 30
0.0
 10
12.9661077521
 20
8.3603180778
 30
0.0
 10
12.964204121
 20
8.3584793112
 30
0.0
  0
SPLINE
  5
3CD
100
AcDbEntity
  8
0
100
AcDbSpline
 62
4
  6
CONTINUOUS
 70
0
 71
3
 72
313
 73
309
 74
0
 42
0.0000001
 43
0.0000001
 44
0.0000000001
 40
0.0
 40
0.0
 40
0.0
 40
0.0
 40
0.015625
 40
0.0234375
 40
0.03125
 40
0.0390625
 40
0.046875
 40
0.05078125
 40
0.0546875
 40
0.056640625
 40
0.05859375
 40
0.060546875
 40
0.0615234375
 40
0.0620117188
 40
0.0625
 40
0.0629882812
 40
0.0634765625
 40
0.064453125
 40
0.06640625
 40
0.068359375
 40
0.0703125
 40
0.07421875
 40
0.078125
 40
0.0859375
 40
0.09375
 40
0.1015625
 40
0.109375
 40
0.11328125
 40
0.1171875
 40
0.119140625
 40
0.12109375
 40
0.123046875
 40
0.1240234375
 40
0.1245117188
 40
0.125
 40
0.1254882812
 40
0.1259765625
 40
0.126953125
 40
0.12890625
 40
0.130859375
 40
0.1328125
 40
0.13671875
 40
0.140625
 40
0.1484375
 40
0.15625
 40
0.1640625
 40
0.171875
 40
0.17578125
 40
0.1796875
 40
0.181640625
 40
0.18359375
 40
0.185546875
 40
0.1865234375
 40
0.1870117188
 40
0.1875
 40
0.1879882812
 40
0.1884765625
 40
0.189453125
 40
0.19140625
 40
0.193359375
 40
0.1953125
 40
0.19921875
 40
0.203125
 40
0.2109375
 40
0.21875
 40
0.2265625
 40
0.234375
 40
0.23828125
 40
0.2421875
 40
0.244140625
 40
0.24609375
 40
0.248046875
 40
0.2490234375
 40
0.2495117188
 40
0.25
 40
0.2504882812
 40
0.2509765625
 40
0.251953125
 40
0.25390625
 40
0.255859375
 40
0.2578125
 40
0.26171875
 40
0.265625
 40
0.2734375
 40
0.28125
 40
0.2890625
 40
0.296875
 40
0.30078125
 40
0.3046875
 40
0.306640625
 40
0.30859375
 40
0.310546875
 40
0.3115234375
 40
0.3120117188
 40
0.3125
 40
0.3129882812
 40
0.3134765625
 40
0.314453125
 40
0.31640625
 40
0.318359375
 40
0.3203125
 40
0.32421875
 40
0.328125
 40
0.3359375
 40
0.34375
 40
0.3515625
 40
0.359375
 40
0.36328125
 40
0.3671875
 40
0.369140625
 40
0.37109375
 40
0.373046875
 40
0.3740234375
 40
0.3745117188
 40
0.375
 40
0.3754882812
 40
0.3759765625
 40
0.376953125
 40
0.37890625
 40
0.380859375
 40
0.3828125
 40
0.38671875
 40
0.390625
 40
0.3984375
 40
0.40625
 40
0.4140625
 40
0.421875
 40
0.42578125
 40
0.4296875
 40
0.431640625
 40
0.43359375
 40
0.435546875
 40
0.4365234375
 40
0.4370117188
 40
0.4375
 40
0.4379882812
 40
0.4384765625
 40
0.439453125
 40
0.44140625
 40
0.443359375
 40
0.4453125
 40
0.44921875
 40
0.453125
 40
0.4609375
 40
0.46875
 40
0.4765625
 40
0.484375
 40
0.48828125
 40
0.4921875
 40
0.494140625
 40
0.49609375
 40
0.498046875
 40
0.4990234375
 40
0.4995117188
 40
0.5
 40
0.5004882812
 40
0.5009765625
 40
0.501953125
 40
0.50390625
 40
0.505859375
 40
0.5078125
 40
0.51171875
 40
0.515625
 40
0.5234375
 40
0.53125
 40
0.5390625
 40
0.546875
 40
0.55078125
 40
0.5546875
 40
0.556640625
 40
0.55859375
 40
0.560546875
 40
0.5615234375
 40
0.5620117188
 40
0.5625
 40
0.5629882812
 40
0.5634765625
 40
0.564453125
 40
0.56640625
 40
0.568359375
 40
0.5703125
 40
0.57421875
 40
0.578125
 40
0.5859375
 40
0.59375
 40
0.6015625
 40
0.609375
 40
0.61328125
 40
0.6171875
 40
0.619140625
 40
0.62109375
 40
0.623046875
 40
0.6240234375
 40
0.6245117188
 40
0.625
 40
0.6254882812
 40
0.6259765625
 40
0.626953125
 40
0.62890625
 40
0.630859375
 40
0.6328125
 40
0.63671875
 40
0.640625
 40
0.6484375
 40
0.65625
 40
0.6640625
 40
0.671875
 40
0.67578125
 40
0.6796875
 40
0.681640625
 40
0.68359375
 40
0.685546875
 40
0.6865234375
 40
0.6870117188
 40
0.6875
 40
0.6879882812
 40
0.6884765625
 40
0.689453125
 40
0.69140625
 40
0.693359375
 40
0.6953125
 40
0.69921875
 40
0.703125
 40
0.7109375
 40
0.71875
 40
0.7265625
 40
0.734375
 40
0.73828125
 40
0.7421875
 40
0.744140625
 40
0.74609375
 40
0.748046875
 40
0.7490234375
 40
0.7495117188
 40
0.75
 40
0.7504882812
 40
0.7509765625
 40
0.751953125
 40
0.75390625
 40
0.755859375
 40
0.7578125
 40
0.76171875
 40
0.765625
 40
0.7734375
 40
0.78125
 40
0.7890625
 40
0.796875
 40
0.80078125
 40
0.8046875
 40
0.806640625
 40
0.80859375
 40
0.810546875
 40
0.8115234375
 40
0.8120117188
 40
0.8125
 40
0.8129882812
 40
0.8134765625
 40
0.814453125
 40
0.81640625
 40
0.818359375
 40
0.8203125
 40
0.82421875
 40
0.828125
 40
0.8359375
 40
0.84375
 40
0.8515625
 40
0.859375
 40
0.86328125
 40
0.8671875
 40
0.869140625
 40
0.87109375
 40
0.873046875
 40
0.8740234375
 40
0.8745117188
 40
0.875
 40
0.8754882812
 40
0.8759765625
 40
0.876953125
 40
0.87890625
 40
0.880859375
 40
0.8828125
 40
0.88671875
 40
0.890625
 40
0.8984375
 40
0.90625
 40
0.9140625
 40
0.921875
 40
0.92578125
 40
0.9296875
 40
0.931640625
 40
0.93359375
 40
0.935546875
 40
0.9365234375
 40
0.9370117188
 40
0.9375
 40
0.9379882812
 40
0.9384765625
 40
0.939453125
 40
0.94140625
 40
0.943359375
 40
0.9453125
 40
0.94921875
 40
0.953125
 40
0.9609375
 40
0.96875
 40
0.9765625
 40
0.984375
 40
1.0
 40
1.0
 40
1.0
 40
1.0
 10
10.0569685874
 20
8.5471751208
 30
0.0
 10
10.0601017743
 20
8.5472650452
 30
0.0
 10
10.0648015547
 20
8.5473999316
 30
0.0
 10
10.0710679284
 20
8.5475797811
 30
0.0
 10
10.0757677092
 20
8.5477146657
 30
0.0
 10
10.0804674881
 20
8.5478495598
 30
0.0
 10
10.0843839763
 20
8.5479619421
 30
0.0
 10
10.087517154
 20
8.5480519139
 30
0.0
 10
10.0894754194
 20
8.5481079961
 30
0.0
 10
10.0910419645
 20
8.5481532058
 30
0.0
 10
10.0922170573
 20
8.5481861713
 30
0.0
 10
10.0931957161
 20
8.5482166384
 30
0.0
 10
10.0938819256
 20
8.5482320861
 30
0.0
 10
10.0942722523
 20
8.5482500934
 30
0.0
 10
10.0945700484
 20
8.5482377385
 30
0.0
 10
10.0948485365
 20
8.5483242353
 30
0.0
 10
10.0952265888
 20
8.5484050839
 30
0.0
 10
10.0958850425
 20
8.548562634
 30
0.0
 10
10.096827331
 20
8.5487793065
 30
0.0
 10
10.0979573752
 20
8.5490429086
 30
0.0
 10
10.0994643459
 20
8.5493931224
 30
0.0
 10
10.1013479753
 20
8.5498313196
 30
0.0
 10
10.1043618294
 20
8.5505321947
 30
0.0
 10
10.1081291307
 20
8.5514083715
 30
0.0
 10
10.1126499001
 20
8.552459746
 30
0.0
 10
10.1171706641
 20
8.5535111389
 30
0.0
 10
10.1209379791
 20
8.5543872694
 30
0.0
 10
10.1239518057
 20
8.5550882373
 30
0.0
 10
10.1258355049
 20
8.5555261986
 30
0.0
 10
10.1273423325
 20
8.5558768966
 30
0.0
 10
10.128472814
 20
8.5561390194
 30
0.0
 10
10.129413734
 20
8.5563603201
 30
0.0
 10
10.1300746309
 20
8.5565096082
 30
0.0
 10
10.1304487684
 20
8.5566036946
 30
0.0
 10
10.1307392815
 20
8.5566495289
 30
0.0
 10
10.1309919138
 20
8.5567898957
 30
0.0
 10
10.1313419702
 20
8.5569440775
 30
0.0
 10
10.1319484126
 20
8.5572292587
 30
0.0
 10
10.1328179773
 20
8.5576286284
 30
0.0
 10
10.1338600774
 20
8.55811131
 30
0.0
 10
10.1352500254
 20
8.5587536847
 30
0.0
 10
10.1369872956
 20
8.5595570643
 30
0.0
 10
10.1397670201
 20
8.5608422417
 30
0.0
 10
10.1432416438
 20
8.5624487928
 30
0.0
 10
10.1474112071
 20
8.5643766179
 30
0.0
 10
10.151580762
 20
8.566304461
 30
0.0
 10
10.1550554065
 20
8.5679109672
 30
0.0
 10
10.1578350894
 20
8.5691962344
 30
0.0
 10
10.1595724651
 20
8.5699993856
 30
0.0
 10
10.1609621967
 20
8.5706422289
 30
0.0
 10
10.1620049579
 20
8.5711234791
 30
0.0
 10
10.162872454
 20
8.5715273273
 30
0.0
 10
10.1634825893
 20
8.5718045137
 30
0.0
 10
10.1638267287
 20
8.5719715051
 30
0.0
 10
10.1640975362
 20
8.5720725249
 30
0.0
 10
10.1643197863
 20
8.5722661399
 30
0.0
 10
10.164633057
 20
8.5724919951
 30
0.0
 10
10.1651733894
 20
8.57290229
 30
0.0
 10
10.1659494186
 20
8.5734805581
 30
0.0
 10
10.1668788876
 20
8.5741778473
 30
0.0
 10
10.1681187964
 20
8.57510639
 30
0.0
 10
10.1696684713
 20
8.5762674712
 30
0.0
 10
10.1721480692
 20
8.578124976
 30
0.0
 10
10.1752475256
 20
8.5804469345
 30
0.0
 10
10.1789668926
 20
8.5832332499
 30
0.0
 10
10.1826862476
 20
8.5860195808
 30
0.0
 10
10.1857857343
 20
8.5883415003
 30
0.0
 10
10.1882652715
 20
8.5901990833
 30
0.0
 10
10.1898151006
 20
8.5913599654
 30
0.0
 10
10.1910546929
 20
8.5922889168
 30
0.0
 10
10.191985129
 20
8.5929849575
 30
0.0
 10
10.1927581324
 20
8.5935671321
 30
0.0
 10
10.1933038662
 20
8.5939704531
 30
0.0
 10
10.1936084826
 20
8.5942074821
 30
0.0
 10
10.1938573162
 20
8.5943667748
 30
0.0
 10
10.1940282801
 20
8.5945967038
 30
0.0
 10
10.1942833939
 20
8.5948786371
 30
0.0
 10
10.1947171878
 20
8.5953835
 30
0.0
 10
10.1953435096
 20
8.5960987311
 30
0.0
 10
10.1960922638
 20
8.5969595772
 30
0.0
 10
10.1970915919
 20
8.5981064748
 30
0.0
 10
10.1983404133
 20
8.5995404041
 30
0.0
 10
10.200338717
 20
8.6018345191
 30
0.0
 10
10.2028365311
 20
8.6047022222
 30
0.0
 10
10.2058339381
 20
8.608143439
 30
0.0
 10
10.2088313296
 20
8.6115846684
 30
0.0
 10
10.2113291823
 20
8.6144523399
 30
0.0
 10
10.2133274089
 20
8.6167465181
 30
0.0
 10
10.2145764261
 20
8.6181802868
 30
0.0
 10
10.2155753524
 20
8.619327514
 30
0.0
 10
10.2163253341
 20
8.6201873531
 30
0.0
 10
10.2169478154
 20
8.6209057352
 30
0.0
 10
10.2173884653
 20
8.6214049729
 30
0.0
 10
10.2176325939
 20
8.6216959191
 30
0.0
 10
10.2178373006
 20
8.6218981634
 30
0.0
 10
10.2179594024
 20
8.6221614354
 30
0.0
 10
10.2181510182
 20
8.6224911777
 30
0.0
 10
10.2184729212
 20
8.6230781447
 30
0.0
 10
10.2189398013
 20
8.6239114837
 30
0.0
 10
10.2194970532
 20
8.6249137099
 30
0.0
 10
10.220241105
 20
8.6262492364
 30
0.0
 10
10.2211708105
 20
8.6279189099
 30
0.0
 10
10.2226585402
 20
8.6305902391
 30
0.0
 10
10.2245181329
 20
8.6339294518
 30
0.0
 10
10.226749676
 20
8.6379364841
 30
0.0
 10
10.2289812024
 20
8.6419435265
 30
0.0
 10
10.230840837
 20
8.6452827138
 30
0.0
 10
10.2323284829
 20
8.6479540938
 30
0.0
 10
10.2332584012
 20
8.6496236385
 30
0.0
 10
10.2340020164
 20
8.6509594293
 30
0.0
 10
10.2345606021
 20
8.6519608479
 30
0.0
 10
10.2350233089
 20
8.652796714
 30
0.0
 10
10.235352662
 20
8.6533791696
 30
0.0
 10
10.235532341
 20
8.6537161401
 30
0.0
 10
10.2356911088
 20
8.6539572092
 30
0.0
 10
10.235758104
 20
8.6542428441
 30
0.0
 10
10.2358794422
 20
8.6546081455
 30
0.0
 10
10.2360768694
 20
8.6552546657
 30
0.0
 10
10.2363667058
 20
8.6561744794
 30
0.0
 10
10.2367111718
 20
8.6572798766
 30
0.0
 10
10.2371716257
 20
8.6587531735
 30
0.0
 10
10.2377467938
 20
8.6605949884
 30
0.0
 10
10.238667286
 20
8.6635417839
 30
0.0
 10
10.2398178241
 20
8.6672253157
 30
0.0
 10
10.2411985052
 20
8.6716455369
 30
0.0
 10
10.2425791682
 20
8.6760657658
 30
0.0
 10
10.2437297517
 20
8.6797492784
 30
0.0
 10
10.2446501531
 20
8.6826961123
 30
0.0
 10
10.245225552
 20
8.6845378295
 30
0.0
 10
10.2456855321
 20
8.6860113269
 30
0.0
 10
10.2460314454
 20
8.6871161116
 30
0.0
 10
10.2463167537
 20
8.6880378418
 30
0.0
 10
10.2465222643
 20
8.6886809407
 30
0.0
 10
10.2466306509
 20
8.6890517239
 30
0.0
 10
10.2467374291
 20
8.6893205203
 30
0.0
 10
10.2467467784
 20
8.6896248317
 30
0.0
 10
10.2467932284
 20
8.6900181921
 30
0.0
 10
10.246858682
 20
8.6907123447
 30
0.0
 10
10.2469604652
 20
8.6917009737
 30
0.0
 10
10.2470790618
 20
8.6928886201
 30
0.0
 10
10.2472384282
 20
8.6944716975
 30
0.0
 10
10.2474372124
 20
8.6964506988
 30
0.0
 10
10.2477555041
 20
8.6996170144
 30
0.0
 10
10.2481532869
 20
8.7035749386
 30
0.0
 10
10.2486306637
 20
8.7083244349
 30
0.0
 10
10.2491080215
 20
8.7130739345
 30
0.0
 10
10.2495058519
 20
8.7170318506
 30
0.0
 10
10.2498240483
 20
8.7201981824
 30
0.0
 10
10.2500230748
 20
8.7221771426
 30
0.0
 10
10.2501819439
 20
8.7237603042
 30
0.0
 10
10.2503020598
 20
8.7249476936
 30
0.0
 10
10.2503990896
 20
8.7259371267
 30
0.0
 10
10.2504730289
 20
8.7266298438
 30
0.0
 10
10.2505058826
 20
8.7270255043
 30
0.0
 10
10.2505569953
 20
8.7273227507
 30
0.0
 10
10.250506917
 20
8.7276180816
 30
0.0
 10
10.2504754424
 20
8.7280125242
 30
0.0
 10
10.2504039166
 20
8.7287024875
 30
0.0
 10
10.2503103347
 20
8.7296883122
 30
0.0
 10
10.2501943563
 20
8.7308712321
 30
0.0
 10
10.2500410039
 20
8.7324484829
 30
0.0
 10
10.2498488731
 20
8.7344200382
 30
0.0
 10
10.24954171
 20
8.7375745312
 30
0.0
 10
10.2491576712
 20
8.7415176458
 30
0.0
 10
10.2486968633
 20
8.7462493844
 30
0.0
 10
10.2482360364
 20
8.7509811216
 30
0.0
 10
10.2478520452
 20
8.7549242397
 30
0.0
 10
10.2475447868
 20
8.7580787258
 30
0.0
 10
10.2473528984
 20
8.7600502987
 30
0.0
 10
10.2471990485
 20
8.7616275133
 30
0.0
 10
10.24708459
 20
8.7628105439
 30
0.0
 10
10.2469862526
 20
8.7637960224
 30
0.0
 10
10.2469232161
 20
8.7644866035
 30
0.0
 10
10.2468781396
 20
8.7648800563
 30
0.0
 10
10.2468698423
 20
8.7651784278
 30
0.0
 10
10.2467640322
 20
8.7654642539
 30
0.0
 10
10.2466569657
 20
8.7658497313
 30
0.0
 10
10.2464537516
 20
8.7665222778
 30
0.0
 10
10.2461717312
 20
8.7674841246
 30
0.0
 10
10.2458297603
 20
8.7686378845
 30
0.0
 10
10.2453750377
 20
8.7701763904
 30
0.0
 10
10.2448062104
 20
8.7720994681
 30
0.0
 10
10.2438963238
 20
8.775176423
 30
0.0
 10
10.2427588837
 20
8.7790226061
 30
0.0
 10
10.2413939928
 20
8.783638031
 30
0.0
 10
10.2400290838
 20
8.7882534517
 30
0.0
 10
10.2388916892
 20
8.7920996453
 30
0.0
 10
10.2379817116
 20
8.7951765791
 30
0.0
 10
10.2374131154
 20
8.7970997106
 30
0.0
 10
10.2369579186
 20
8.7986381061
 30
0.0
 10
10.2366173966
 20
8.799792203
 30
0.0
 10
10.2363308429
 20
8.8007529955
 30
0.0
 10
10.2361357214
 20
8.8014274241
 30
0.0
 10
10.2360156885
 20
8.801809886
 30
0.0
 10
10.235949707
 20
8.8021049748
 30
0.0
 10
10.2357918201
 20
8.8023685567
 30
0.0
 10
10.2356133619
 20
8.8027309892
 30
0.0
 10
10.2352861237
 20
8.8033601256
 30
0.0
 10
10.2348264495
 20
8.8042615689
 30
0.0
 10
10.234271498
 20
8.805342155
 30
0.0
 10
10.2335327301
 20
8.8067833367
 30
0.0
 10
10.2326088704
 20
8.8085846768
 30
0.0
 10
10.2311309185
 20
8.8114668976
 30
0.0
 10
10.2292834014
 20
8.815069647
 30
0.0
 10
10.2270664161
 20
8.8193929587
 30
0.0
 10
10.2248494134
 20
8.8237162634
 30
0.0
 10
10.2230019398
 20
8.8273190305
 30
0.0
 10
10.2215239009
 20
8.8302012159
 30
0.0
 10
10.2206002622
 20
8.8320026461
 30
0.0
 10
10.2198610408
 20
8.8334436428
 30
0.0
 10
10.2193074748
 20
8.834524794
 30
0.0
 10
10.2188434656
 20
8.8354244693
 30
0.0
 10
10.2185239661
 20
8.8360567619
 30
0.0
 10
10.2183331086
 20
8.8364141373
 30
0.0
 10
10.2182133082
 20
8.836693253
 30
0.0
 10
10.2180042801
 20
8.8369299992
 30
0.0
 10
10.2177566995
 20
8.8372604397
 30
0.0
 10
10.2173089325
 20
8.8378318249
 30
0.0
 10
10.2166768466
 20
8.8386516893
 30
0.0
 10
10.2159150985
 20
8.8396339858
 30
0.0
 10
10.2149005677
 20
8.8409442526
 30
0.0
 10
10.2136320162
 20
8.8425819018
 30
0.0
 10
10.2116025508
 20
8.8452022435
 30
0.0
 10
10.2090656442
 20
8.848477635
 30
0.0
 10
10.2060213899
 20
8.8524081218
 30
0.0
 10
10.2029771208
 20
8.8563385976
 30
0.0
 10
10.2004402512
 20
8.8596140168
 30
0.0
 10
10.1984107116
 20
8.862234303
 30
0.0
 10
10.1971423486
 20
8.8638720934
 30
0.0
 10
10.1961274311
 20
8.8651820705
 30
0.0
 10
10.1953668645
 20
8.866165252
 30
0.0
 10
10.1947310819
 20
8.8669823471
 30
0.0
 10
10.1942899141
 20
8.867558676
 30
0.0
 10
10.1940317599
 20
8.8678811954
 30
0.0
 10
10.1938552106
 20
8.8681422728
 30
0.0
 10
10.1936134252
 20
8.8683300046
 30
0.0
 10
10.1933137997
 20
8.8686058975
 30
0.0
 10
10.1927788531
 20
8.86907679
 30
0.0
 10
10.1920201864
 20
8.8697557256
 30
0.0
 10
10.191107414
 20
8.8705677807
 30
0.0
 10
10.1898912128
 20
8.8716514527
 30
0.0
 10
10.1883706775
 20
8.8730057236
 30
0.0
 10
10.1859379796
 20
8.8751727354
 30
0.0
 10
10.1828970525
 20
8.8778814385
 30
0.0
 10
10.1792479648
 20
8.8811319106
 30
0.0
 10
10.1755988656
 20
8.8843823681
 30
0.0
 10
10.1725579674
 20
8.8870911077
 30
0.0
 10
10.1701252117
 20
8.8892580465
 30
0.0
 10
10.1686048234
 20
8.890612503
 30
0.0
 10
10.1673883204
 20
8.8916957941
 30
0.0
 10
10.16647647
 20
8.8925090128
 30
0.0
 10
10.1657149187
 20
8.8931843078
 30
0.0
 10
10.1651851217
 20
8.8936616993
 30
0.0
 10
10.1648772451
 20
8.8939271793
 30
0.0
 10
10.1646608044
 20
8.8941468961
 30
0.0
 10
10.1643890646
 20
8.8942878431
 30
0.0
 10
10.1640460337
 20
8.8945032483
 30
0.0
 10
10.1634367427
 20
8.8948674058
 30
0.0
 10
10.1625710255
 20
8.8953943235
 30
0.0
 10
10.1615301537
 20
8.8960237601
 30
0.0
 10
10.160143027
 20
8.8968640095
 30
0.0
 10
10.1584088782
 20
8.8979139786
 30
0.0
 10
10.1556343746
 20
8.8995941208
 30
0.0
 10
10.1521661987
 20
8.9016942323
 30
0.0
 10
10.1480044084
 20
8.9042143966
 30
0.0
 10
10.1438426091
 20
8.9067345447
 30
0.0
 10
10.1403744557
 20
8.9088346965
 30
0.0
 10
10.1375999071
 20
8.9105147581
 30
0.0
 10
10.1358658724
 20
8.911564932
 30
0.0
 10
10.1344785117
 20
8.912404761
 30
0.0
 10
10.133438355
 20
8.9130354819
 30
0.0
 10
10.1325704001
 20
8.9135583816
 30
0.0
 10
10.1319651037
 20
8.913929712
 30
0.0
 10
10.1316156724
 20
8.9141336243
 30
0.0
 10
10.1313635927
 20
8.9143098738
 30
0.0
 10
10.1310733118
 20
8.9143970001
 30
0.0
 10
10.1306995955
 20
8.9145442556
 30
0.0
 10
10.1300393837
 20
8.9147874686
 30
0.0
 10
10.1290994698
 20
8.9151424882
 30
0.0
 10
10.1279701838
 20
8.9155652705
 30
0.0
 10
10.1264649543
 20
8.9161301124
 30
0.0
 10
10.1245832514
 20
8.9168357771
 30
0.0
 10
10.1215726195
 20
8.9179650573
 30
0.0
 10
10.1178092977
 20
8.9193765827
 30
0.0
 10
10.1132933259
 20
8.9210704475
 30
0.0
 10
10.1087773476
 20
8.9227642946
 30
0.0
 10
10.1050140419
 20
8.9241758643
 30
0.0
 10
10.1020033779
 20
8.9253050559
 30
0.0
 10
10.1001217566
 20
8.9260109457
 30
0.0
 10
10.0986163595
 20
8.9265753255
 30
0.0
 10
10.0974875857
 20
8.9269995195
 30
0.0
 10
10.0965460692
 20
8.9273501222
 30
0.0
 10
10.0958887181
 20
8.9276012202
 30
0.0
 10
10.0955104183
 20
8.927735842
 30
0.0
 10
10.0952342168
 20
8.9278617749
 30
0.0
 10
10.0949292569
 20
8.9278922732
 30
0.0
 10
10.0945326749
 20
8.9279662262
 30
0.0
 10
10.0938339828
 20
8.9280801343
 30
0.0
 10
10.0928382947
 20
8.9282509687
 30
0.0
 10
10.0916424231
 20
8.9284524993
 30
0.0
 10
10.0900482928
 20
8.928722419
 30
0.0
 10
10.088055505
 20
8.9290594036
 30
0.0
 10
10.0848671143
 20
8.9295988108
 30
0.0
 10
10.080881602
 20
8.9302729903
 30
0.0
 10
10.0760989975
 20
8.9310820398
 30
0.0
 10
10.0713163903
 20
8.9318910802
 30
0.0
 10
10.0649395816
 20
8.9329698039
 30
0.0
 10
10.0601569749
 20
8.9337788459
 30
0.0
 10
10.0569685705
 20
8.9343182075
 30
0.0
  0
SPLINE
  5
3CE
100
AcDbEntity
  8
0
100
AcDbSpline
 62
4
  6
CONTINUOUS
 70
0
 71
3
 72
313
 73
309
 74
0
 42
0.0000001
 43
0.0000001
 44
0.0000000001
 40
0.0
 40
0.0
 40
0.0
 40
0.0
 40
0.015625
 40
0.0234375
 40
0.03125
 40
0.0390625
 40
0.046875
 40
0.05078125
 40
0.0546875
 40
0.056640625
 40
0.05859375
 40
0.060546875
 40
0.0615234375
 40
0.0620117188
 40
0.0625
 40
0.0629882812
 40
0.0634765625
 40
0.064453125
 40
0.06640625
 40
0.068359375
 40
0.0703125
 40
0.07421875
 40
0.078125
 40
0.0859375
 40
0.09375
 40
0.1015625
 40
0.109375
 40
0.11328125
 40
0.1171875
 40
0.119140625
 40
0.12109375
 40
0.123046875
 40
0.1240234375
 40
0.1245117188
 40
0.125
 40
0.1254882812
 40
0.1259765625
 40
0.126953125
 40
0.12890625
 40
0.130859375
 40
0.1328125
 40
0.13671875
 40
0.140625
 40
0.1484375
 40
0.15625
 40
0.1640625
 40
0.171875
 40
0.17578125
 40
0.1796875
 40
0.181640625
 40
0.18359375
 40
0.185546875
 40
0.1865234375
 40
0.1870117188
 40
0.1875
 40
0.1879882812
 40
0.1884765625
 40
0.189453125
 40
0.19140625
 40
0.193359375
 40
0.1953125
 40
0.19921875
 40
0.203125
 40
0.2109375
 40
0.21875
 40
0.2265625
 40
0.234375
 40
0.23828125
 40
0.2421875
 40
0.244140625
 40
0.24609375
 40
0.248046875
 40
0.2490234375
 40
0.2495117188
 40
0.25
 40
0.2504882812
 40
0.2509765625
 40
0.251953125
 40
0.25390625
 40
0.255859375
 40
0.2578125
 40
0.26171875
 40
0.265625
 40
0.2734375
 40
0.28125
 40
0.2890625
 40
0.296875
 40
0.30078125
 40
0.3046875
 40
0.306640625
 40
0.30859375
 40
0.310546875
 40
0.3115234375
 40
0.3120117188
 40
0.3125
 40
0.3129882812
 40
0.3134765625
 40
0.314453125
 40
0.31640625
 40
0.318359375
 40
0.3203125
 40
0.32421875
 40
0.328125
 40
0.3359375
 40
0.34375
 40
0.3515625
 40
0.359375
 40
0.36328125
 40
0.3671875
 40
0.369140625
 40
0.37109375
 40
0.373046875
 40
0.3740234375
 40
0.3745117188
 40
0.375
 40
0.3754882812
 40
0.3759765625
 40
0.376953125
 40
0.37890625
 40
0.380859375
 40
0.3828125
 40
0.38671875
 40
0.390625
 40
0.3984375
 40
0.40625
 40
0.4140625
 40
0.421875
 40
0.42578125
 40
0.4296875
 40
0.431640625
 40
0.43359375
 40
0.435546875
 40
0.4365234375
 40
0.4370117188
 40
0.4375
 40
0.4379882812
 40
0.4384765625
 40
0.439453125
 40
0.44140625
 40
0.443359375
 40
0.4453125
 40
0.44921875
 40
0.453125
 40
0.4609375
 40
0.46875
 40
0.4765625
 40
0.484375
 40
0.48828125
 40
0.4921875
 40
0.494140625
 40
0.49609375
 40
0.498046875
 40
0.4990234375
 40
0.4995117188
 40
0.5
 40
0.5004882812
 40
0.5009765625
 40
0.501953125
 40
0.50390625
 40
0.505859375
 40
0.5078125
 40
0.51171875
 40
0.515625
 40
0.5234375
 40
0.53125
 40
0.5390625
 40
0.546875
 40
0.55078125
 40
0.5546875
 40
0.556640625
 40
0.55859375
 40
0.560546875
 40
0.5615234375
 40
0.5620117188
 40
0.5625
 40
0.5629882812
 40
0.5634765625
 40
0.564453125
 40
0.56640625
 40
0.568359375
 40
0.5703125
 40
0.57421875
 40
0.578125
 40
0.5859375
 40
0.59375
 40
0.6015625
 40
0.609375
 40
0.61328125
 40
0.6171875
 40
0.619140625
 40
0.62109375
 40
0.623046875
 40
0.6240234375
 40
0.6245117188
 40
0.625
 40
0.6254882812
 40
0.6259765625
 40
0.626953125
 40
0.62890625
 40
0.630859375
 40
0.6328125
 40
0.63671875
 40
0.640625
 40
0.6484375
 40
0.65625
 40
0.6640625
 40
0.671875
 40
0.67578125
 40
0.6796875
 40
0.681640625
 40
0.68359375
 40
0.685546875
 40
0.6865234375
 40
0.6870117188
 40
0.6875
 40
0.6879882812
 40
0.6884765625
 40
0.689453125
 40
0.69140625
 40
0.693359375
 40
0.6953125
 40
0.69921875
 40
0.703125
 40
0.7109375
 40
0.71875
 40
0.7265625
 40
0.734375
 40
0.73828125
 40
0.7421875
 40
0.744140625
 40
0.74609375
 40
0.748046875
 40
0.7490234375
 40
0.7495117188
 40
0.75
 40
0.7504882812
 40
0.7509765625
 40
0.751953125
 40
0.75390625
 40
0.755859375
 40
0.7578125
 40
0.76171875
 40
0.765625
 40
0.7734375
 40
0.78125
 40
0.7890625
 40
0.796875
 40
0.80078125
 40
0.8046875
 40
0.806640625
 40
0.80859375
 40
0.810546875
 40
0.8115234375
 40
0.8120117188
 40
0.8125
 40
0.8129882812
 40
0.8134765625
 40
0.814453125
 40
0.81640625
 40
0.818359375
 40
0.8203125
 40
0.82421875
 40
0.828125
 40
0.8359375
 40
0.84375
 40
0.8515625
 40
0.859375
 40
0.86328125
 40
0.8671875
 40
0.869140625
 40
0.87109375
 40
0.873046875
 40
0.8740234375
 40
0.8745117188
 40
0.875
 40
0.8754882812
 40
0.8759765625
 40
0.876953125
 40
0.87890625
 40
0.880859375
 40
0.8828125
 40
0.88671875
 40
0.890625
 40
0.8984375
 40
0.90625
 40
0.9140625
 40
0.921875
 40
0.92578125
 40
0.9296875
 40
0.931640625
 40
0.93359375
 40
0.935546875
 40
0.9365234375
 40
0.9370117188
 40
0.9375
 40
0.9379882812
 40
0.9384765625
 40
0.939453125
 40
0.94140625
 40
0.943359375
 40
0.9453125
 40
0.94921875
 40
0.953125
 40
0.9609375
 40
0.96875
 40
0.9765625
 40
0.984375
 40
1.0
 40
1.0
 40
1.0
 40
1.0
 10
10.0569685874
 20
8.9343182063
 30
0.0
 10
10.0538354005
 20
8.9342282819
 30
0.0
 10
10.0491356201
 20
8.9340933955
 30
0.0
 10
10.0428692463
 20
8.933913546
 30
0.0
 10
10.0381694656
 20
8.9337786614
 30
0.0
 10
10.0334696867
 20
8.9336437673
 30
0.0
 10
10.0295531985
 20
8.933531385
 30
0.0
 10
10.0264200208
 20
8.9334414132
 30
0.0
 10
10.0244617554
 20
8.933385331
 30
0.0
 10
10.0228952103
 20
8.9333401213
 30
0.0
 10
10.0217201175
 20
8.9333071558
 30
0.0
 10
10.0207414587
 20
8.9332766887
 30
0.0
 10
10.0200552492
 20
8.933261241
 30
0.0
 10
10.0196649225
 20
8.9332432337
 30
0.0
 10
10.0193671264
 20
8.9332555886
 30
0.0
 10
10.0190886383
 20
8.9331690918
 30
0.0
 10
10.018710586
 20
8.9330882432
 30
0.0
 10
10.0180521323
 20
8.9329306931
 30
0.0
 10
10.0171098437
 20
8.9327140206
 30
0.0
 10
10.0159797996
 20
8.9324504185
 30
0.0
 10
10.0144728289
 20
8.9321002047
 30
0.0
 10
10.0125891994
 20
8.9316620076
 30
0.0
 10
10.0095753454
 20
8.9309611325
 30
0.0
 10
10.0058080441
 20
8.9300849556
 30
0.0
 10
10.0012872747
 20
8.9290335812
 30
0.0
 10
9.9967665107
 20
8.9279821882
 30
0.0
 10
9.9929991957
 20
8.9271060577
 30
0.0
 10
9.9899853691
 20
8.9264050898
 30
0.0
 10
9.9881016699
 20
8.9259671285
 30
0.0
 10
9.9865948423
 20
8.9256164305
 30
0.0
 10
9.9854643607
 20
8.9253543077
 30
0.0
 10
9.9845234408
 20
8.925133007
 30
0.0
 10
9.9838625439
 20
8.9249837189
 30
0.0
 10
9.9834884064
 20
8.9248896325
 30
0.0
 10
9.9831978933
 20
8.9248437982
 30
0.0
 10
9.9829452609
 20
8.9247034314
 30
0.0
 10
9.9825952046
 20
8.9245492497
 30
0.0
 10
9.9819887622
 20
8.9242640684
 30
0.0
 10
9.9811191974
 20
8.9238646987
 30
0.0
 10
9.9800770973
 20
8.9233820171
 30
0.0
 10
9.9786871494
 20
8.9227396424
 30
0.0
 10
9.9769498792
 20
8.9219362628
 30
0.0
 10
9.9741701547
 20
8.9206510855
 30
0.0
 10
9.970695531
 20
8.9190445343
 30
0.0
 10
9.9665259677
 20
8.9171167092
 30
0.0
 10
9.9623564128
 20
8.9151888662
 30
0.0
 10
9.9588817683
 20
8.9135823599
 30
0.0
 10
9.9561020853
 20
8.9122970927
 30
0.0
 10
9.9543647097
 20
8.9114939415
 30
0.0
 10
9.9529749781
 20
8.9108510983
 30
0.0
 10
9.9519322169
 20
8.910369848
 30
0.0
 10
9.9510647207
 20
8.9099659999
 30
0.0
 10
9.9504545855
 20
8.9096888134
 30
0.0
 10
9.9501104461
 20
8.909521822
 30
0.0
 10
9.9498396385
 20
8.9094208022
 30
0.0
 10
9.9496173885
 20
8.9092271872
 30
0.0
 10
9.9493041178
 20
8.909001332
 30
0.0
 10
9.9487637854
 20
8.9085910371
 30
0.0
 10
9.9479877562
 20
8.9080127691
 30
0.0
 10
9.9470582872
 20
8.9073154798
 30
0.0
 10
9.9458183784
 20
8.9063869371
 30
0.0
 10
9.9442687035
 20
8.9052258559
 30
0.0
 10
9.9417891056
 20
8.9033683512
 30
0.0
 10
9.9386896492
 20
8.9010463926
 30
0.0
 10
9.9349702822
 20
8.8982600773
 30
0.0
 10
9.9312509272
 20
8.8954737463
 30
0.0
 10
9.9281514405
 20
8.8931518269
 30
0.0
 10
9.9256719033
 20
8.8912942438
 30
0.0
 10
9.9241220742
 20
8.8901333617
 30
0.0
 10
9.9228824819
 20
8.8892044103
 30
0.0
 10
9.9219520458
 20
8.8885083696
 30
0.0
 10
9.9211790424
 20
8.887926195
 30
0.0
 10
9.9206333086
 20
8.887522874
 30
0.0
 10
9.9203286922
 20
8.887285845
 30
0.0
 10
9.9200798586
 20
8.8871265523
 30
0.0
 10
9.9199088946
 20
8.8868966233
 30
0.0
 10
9.9196537809
 20
8.88661469
 30
0.0
 10
9.919219987
 20
8.8861098271
 30
0.0
 10
9.9185936652
 20
8.8853945961
 30
0.0
 10
9.917844911
 20
8.8845337499
 30
0.0
 10
9.9168455829
 20
8.8833868523
 30
0.0
 10
9.9155967615
 20
8.881952923
 30
0.0
 10
9.9135984578
 20
8.879658808
 30
0.0
 10
9.9111006437
 20
8.8767911049
 30
0.0
 10
9.9081032367
 20
8.8733498881
 30
0.0
 10
9.9051058452
 20
8.8699086587
 30
0.0
 10
9.9026079925
 20
8.8670409872
 30
0.0
 10
9.9006097659
 20
8.864746809
 30
0.0
 10
9.8993607487
 20
8.8633130403
 30
0.0
 10
9.8983618224
 20
8.8621658131
 30
0.0
 10
9.8976118407
 20
8.861305974
 30
0.0
 10
9.8969893594
 20
8.860587592
 30
0.0
 10
9.8965487095
 20
8.8600883542
 30
0.0
 10
9.8963045808
 20
8.859797408
 30
0.0
 10
9.8960998742
 20
8.8595951637
 30
0.0
 10
9.8959777724
 20
8.8593318917
 30
0.0
 10
9.8957861566
 20
8.8590021494
 30
0.0
 10
9.8954642535
 20
8.8584151825
 30
0.0
 10
9.8949973735
 20
8.8575818435
 30
0.0
 10
9.8944401216
 20
8.8565796172
 30
0.0
 10
9.8936960697
 20
8.8552440907
 30
0.0
 10
9.8927663642
 20
8.8535744172
 30
0.0
 10
9.8912786346
 20
8.850903088
 30
0.0
 10
9.8894190419
 20
8.8475638753
 30
0.0
 10
9.8871874988
 20
8.843556843
 30
0.0
 10
9.8849559723
 20
8.8395498006
 30
0.0
 10
9.8830963378
 20
8.8362106133
 30
0.0
 10
9.8816086919
 20
8.8335392334
 30
0.0
 10
9.8806787736
 20
8.8318696887
 30
0.0
 10
9.8799351584
 20
8.8305338978
 30
0.0
 10
9.8793765727
 20
8.8295324793
 30
0.0
 10
9.8789138659
 20
8.8286966132
 30
0.0
 10
9.8785845128
 20
8.8281141575
 30
0.0
 10
9.8784048338
 20
8.827777187
 30
0.0
 10
9.878246066
 20
8.8275361179
 30
0.0
 10
9.8781790708
 20
8.827250483
 30
0.0
 10
9.8780577326
 20
8.8268851816
 30
0.0
 10
9.8778603054
 20
8.8262386614
 30
0.0
 10
9.877570469
 20
8.8253188477
 30
0.0
 10
9.877226003
 20
8.8242134505
 30
0.0
 10
9.8767655491
 20
8.8227401536
 30
0.0
 10
9.876190381
 20
8.8208983387
 30
0.0
 10
9.8752698888
 20
8.8179515432
 30
0.0
 10
9.8741193507
 20
8.8142680114
 30
0.0
 10
9.8727386696
 20
8.8098477902
 30
0.0
 10
9.8713580066
 20
8.8054275613
 30
0.0
 10
9.8702074231
 20
8.8017440488
 30
0.0
 10
9.8692870217
 20
8.7987972148
 30
0.0
 10
9.8687116228
 20
8.7969554976
 30
0.0
 10
9.8682516427
 20
8.7954820002
 30
0.0
 10
9.8679057294
 20
8.7943772156
 30
0.0
 10
9.867620421
 20
8.7934554853
 30
0.0
 10
9.8674149105
 20
8.7928123864
 30
0.0
 10
9.8673065239
 20
8.7924416032
 30
0.0
 10
9.8671997457
 20
8.7921728068
 30
0.0
 10
9.8671903964
 20
8.7918684954
 30
0.0
 10
9.8671439464
 20
8.791475135
 30
0.0
 10
9.8670784928
 20
8.7907809824
 30
0.0
 10
9.8669767096
 20
8.7897923534
 30
0.0
 10
9.866858113
 20
8.788604707
 30
0.0
 10
9.8666987466
 20
8.7870216296
 30
0.0
 10
9.8664999624
 20
8.7850426283
 30
0.0
 10
9.8661816707
 20
8.7818763127
 30
0.0
 10
9.8657838879
 20
8.7779183885
 30
0.0
 10
9.8653065111
 20
8.7731688922
 30
0.0
 10
9.8648291533
 20
8.7684193926
 30
0.0
 10
9.8644313229
 20
8.7644614765
 30
0.0
 10
9.8641131265
 20
8.7612951447
 30
0.0
 10
9.8639141
 20
8.7593161845
 30
0.0
 10
9.8637552309
 20
8.7577330229
 30
0.0
 10
9.863635115
 20
8.7565456335
 30
0.0
 10
9.8635380852
 20
8.7555562004
 30
0.0
 10
9.8634641459
 20
8.7548634833
 30
0.0
 10
9.8634312922
 20
8.7544678229
 30
0.0
 10
9.8633801795
 20
8.7541705764
 30
0.0
 10
9.8634302578
 20
8.7538752455
 30
0.0
 10
9.8634617324
 20
8.7534808029
 30
0.0
 10
9.8635332582
 20
8.7527908396
 30
0.0
 10
9.8636268401
 20
8.7518050149
 30
0.0
 10
9.8637428185
 20
8.750622095
 30
0.0
 10
9.8638961709
 20
8.7490448442
 30
0.0
 10
9.8640883017
 20
8.747073289
 30
0.0
 10
9.8643954648
 20
8.7439187959
 30
0.0
 10
9.8647795036
 20
8.7399756813
 30
0.0
 10
9.8652403115
 20
8.7352439427
 30
0.0
 10
9.8657011384
 20
8.7305122055
 30
0.0
 10
9.8660851296
 20
8.7265690874
 30
0.0
 10
9.866392388
 20
8.7234146013
 30
0.0
 10
9.8665842764
 20
8.7214430284
 30
0.0
 10
9.8667381263
 20
8.7198658138
 30
0.0
 10
9.8668525848
 20
8.7186827833
 30
0.0
 10
9.8669509222
 20
8.7176973047
 30
0.0
 10
9.8670139586
 20
8.7170067236
 30
0.0
 10
9.8670590352
 20
8.7166132708
 30
0.0
 10
9.8670673325
 20
8.7163148993
 30
0.0
 10
9.8671731426
 20
8.7160290733
 30
0.0
 10
9.8672802091
 20
8.7156435959
 30
0.0
 10
9.8674834231
 20
8.7149710493
 30
0.0
 10
9.8677654436
 20
8.7140092025
 30
0.0
 10
9.8681074145
 20
8.7128554426
 30
0.0
 10
9.8685621371
 20
8.7113169368
 30
0.0
 10
9.8691309644
 20
8.709393859
 30
0.0
 10
9.870040851
 20
8.7063169041
 30
0.0
 10
9.8711782911
 20
8.7024707211
 30
0.0
 10
9.872543182
 20
8.6978552961
 30
0.0
 10
9.873908091
 20
8.6932398754
 30
0.0
 10
9.8750454856
 20
8.6893936818
 30
0.0
 10
9.8759554631
 20
8.686316748
 30
0.0
 10
9.8765240594
 20
8.6843936165
 30
0.0
 10
9.8769792562
 20
8.682855221
 30
0.0
 10
9.8773197782
 20
8.6817011241
 30
0.0
 10
9.8776063319
 20
8.6807403317
 30
0.0
 10
9.8778014533
 20
8.680065903
 30
0.0
 10
9.8779214863
 20
8.6796834412
 30
0.0
 10
9.8779874678
 20
8.6793883523
 30
0.0
 10
9.8781453547
 20
8.6791247704
 30
0.0
 10
9.8783238129
 20
8.6787623379
 30
0.0
 10
9.8786510511
 20
8.6781332015
 30
0.0
 10
9.8791107253
 20
8.6772317582
 30
0.0
 10
9.8796656768
 20
8.6761511721
 30
0.0
 10
9.8804044447
 20
8.6747099904
 30
0.0
 10
9.8813283044
 20
8.6729086503
 30
0.0
 10
9.8828062563
 20
8.6700264295
 30
0.0
 10
9.8846537734
 20
8.6664236801
 30
0.0
 10
9.8868707587
 20
8.6621003684
 30
0.0
 10
9.8890877614
 20
8.6577770638
 30
0.0
 10
9.890935235
 20
8.6541742966
 30
0.0
 10
9.8924132739
 20
8.6512921113
 30
0.0
 10
9.8933369126
 20
8.649490681
 30
0.0
 10
9.894076134
 20
8.6480496843
 30
0.0
 10
9.8946297
 20
8.6469685331
 30
0.0
 10
9.8950937092
 20
8.6460688578
 30
0.0
 10
9.8954132087
 20
8.6454365652
 30
0.0
 10
9.8956040662
 20
8.6450791898
 30
0.0
 10
9.8957238666
 20
8.6448000741
 30
0.0
 10
9.8959328947
 20
8.6445633279
 30
0.0
 10
9.8961804753
 20
8.6442328874
 30
0.0
 10
9.8966282423
 20
8.6436615022
 30
0.0
 10
9.8972603282
 20
8.6428416378
 30
0.0
 10
9.8980220763
 20
8.6418593414
 30
0.0
 10
9.899036607
 20
8.6405490746
 30
0.0
 10
9.9003051585
 20
8.6389114254
 30
0.0
 10
9.902334624
 20
8.6362910836
 30
0.0
 10
9.9048715306
 20
8.6330156921
 30
0.0
 10
9.9079157849
 20
8.6290852053
 30
0.0
 10
9.910960054
 20
8.6251547296
 30
0.0
 10
9.9134969236
 20
8.6218793103
 30
0.0
 10
9.9155264631
 20
8.6192590241
 30
0.0
 10
9.9167948262
 20
8.6176212337
 30
0.0
 10
9.9178097437
 20
8.6163112566
 30
0.0
 10
9.9185703103
 20
8.6153280751
 30
0.0
 10
9.9192060929
 20
8.61451098
 30
0.0
 10
9.9196472607
 20
8.6139346511
 30
0.0
 10
9.9199054149
 20
8.6136121317
 30
0.0
 10
9.9200819642
 20
8.6133510543
 30
0.0
 10
9.9203237496
 20
8.6131633225
 30
0.0
 10
9.9206233751
 20
8.6128874296
 30
0.0
 10
9.9211583217
 20
8.6124165371
 30
0.0
 10
9.9219169883
 20
8.6117376016
 30
0.0
 10
9.9228297608
 20
8.6109255464
 30
0.0
 10
9.924045962
 20
8.6098418744
 30
0.0
 10
9.9255664973
 20
8.6084876035
 30
0.0
 10
9.9279991952
 20
8.6063205917
 30
0.0
 10
9.9310401223
 20
8.6036118886
 30
0.0
 10
9.93468921
 20
8.6003614165
 30
0.0
 10
9.9383383092
 20
8.597110959
 30
0.0
 10
9.9413792074
 20
8.5944022194
 30
0.0
 10
9.9438119631
 20
8.5922352806
 30
0.0
 10
9.9453323513
 20
8.5908808241
 30
0.0
 10
9.9465488544
 20
8.5897975331
 30
0.0
 10
9.9474607048
 20
8.5889843143
 30
0.0
 10
9.9482222561
 20
8.5883090193
 30
0.0
 10
9.9487520531
 20
8.5878316278
 30
0.0
 10
9.9490599296
 20
8.5875661478
 30
0.0
 10
9.9492763704
 20
8.587346431
 30
0.0
 10
9.9495481102
 20
8.587205484
 30
0.0
 10
9.949891141
 20
8.5869900789
 30
0.0
 10
9.9505004321
 20
8.5866259214
 30
0.0
 10
9.9513661493
 20
8.5860990036
 30
0.0
 10
9.9524070211
 20
8.585469567
 30
0.0
 10
9.9537941478
 20
8.5846293176
 30
0.0
 10
9.9555282966
 20
8.5835793485
 30
0.0
 10
9.9583028002
 20
8.5818992063
 30
0.0
 10
9.9617709761
 20
8.5797990948
 30
0.0
 10
9.9659327664
 20
8.5772789305
 30
0.0
 10
9.9700945657
 20
8.5747587824
 30
0.0
 10
9.9735627191
 20
8.5726586306
 30
0.0
 10
9.9763372677
 20
8.570978569
 30
0.0
 10
9.9780713024
 20
8.5699283951
 30
0.0
 10
9.9794586631
 20
8.5690885661
 30
0.0
 10
9.9804988197
 20
8.5684578452
 30
0.0
 10
9.9813667747
 20
8.5679349455
 30
0.0
 10
9.9819720711
 20
8.5675636151
 30
0.0
 10
9.9823215023
 20
8.5673597028
 30
0.0
 10
9.982573582
 20
8.5671834533
 30
0.0
 10
9.982863863
 20
8.5670963271
 30
0.0
 10
9.9832375793
 20
8.5669490715
 30
0.0
 10
9.9838977911
 20
8.5667058585
 30
0.0
 10
9.984837705
 20
8.5663508389
 30
0.0
 10
9.985966991
 20
8.5659280566
 30
0.0
 10
9.9874722205
 20
8.5653632147
 30
0.0
 10
9.9893539234
 20
8.56465755
 30
0.0
 10
9.9923645553
 20
8.5635282698
 30
0.0
 10
9.9961278771
 20
8.5621167445
 30
0.0
 10
10.0006438489
 20
8.5604228796
 30
0.0
 10
10.0051598272
 20
8.5587290325
 30
0.0
 10
10.0089231329
 20
8.5573174629
 30
0.0
 10
10.0119337969
 20
8.5561882712
 30
0.0
 10
10.0138154182
 20
8.5554823814
 30
0.0
 10
10.0153208153
 20
8.5549180016
 30
0.0
 10
10.0164495891
 20
8.5544938076
 30
0.0
 10
10.0173911056
 20
8.5541432049
 30
0.0
 10
10.0180484566
 20
8.5538921069
 30
0.0
 10
10.0184267565
 20
8.5537574851
 30
0.0
 10
10.018702958
 20
8.5536315522
 30
0.0
 10
10.0190079179
 20
8.5536010539
 30
0.0
 10
10.0194044998
 20
8.5535271009
 30
0.0
 10
10.020103192
 20
8.5534131929
 30
0.0
 10
10.0210988801
 20
8.5532423584
 30
0.0
 10
10.0222947517
 20
8.5530408278
 30
0.0
 10
10.023888882
 20
8.5527709081
 30
0.0
 10
10.0258816698
 20
8.5524339236
 30
0.0
 10
10.0290700605
 20
8.5518945163
 30
0.0
 10
10.0330555728
 20
8.5512203368
 30
0.0
 10
10.0378381772
 20
8.5504112873
 30
0.0
 10
10.0426207845
 20
8.5496022469
 30
0.0
 10
10.0489975932
 20
8.5485235232
 30
0.0
 10
10.0537801999
 20
8.5477144812
 30
0.0
 10
10.0569686043
 20
8.5471751197
 30
0.0
  0
ENDSEC
  0
SECTION
  2
OBJECTS
  0
DICTIONARY
  5
C
100
AcDbDictionary
280
0
281
1
  3
ACAD_GROUP
350
D
  3
ACAD_MLINESTYLE
350
17
  3
ACAD_LAYOUT
350
1A
  3
ACAD_PLOTSETTINGS
350
19
  3
ACAD_PLOTSTYLENAME
350
E
  3
ACAD_IMAGE_DICT
350
       3D0
  3
ACAD_IMAGE_VARS
350
       3D1
  3
ACAD_TABLESTYLE
350
       3D2
  0
IMAGEDEF_REACTOR
  5
3CF
100
AcDbRasterImageDefReactor
 90
2
330
28A
  0
DICTIONARY
  5
D
102
{ACAD_REACTORS
330
C
102
}
100
AcDbDictionary
280
0
281
1
  0
ACDBDICTIONARYWDFLT
  5
E
102
{ACAD_REACTORS
330
C
102
}
100
AcDbDictionary
281
1
  3
Normal
350
F
100
AcDbDictionaryWithDefault
340
F
  0
DICTIONARY
  5
3D0
330
C
100
AcDbDictionary
281
1
  3
H3M_assy_2_img_1
350
       3D5
  0
RASTERVARIABLES
  5
3D1
330
C
100
AcDbRasterVariables
 90
0
 70
0
 71
1
 72
5
  0
DICTIONARY
  5
17
102
{ACAD_REACTORS
330
C
102
}
100
AcDbDictionary
280
0
281
1
  3
Standard
350
18
  0
DICTIONARY
  5
3D2
330
C
100
AcDbDictionary
281
1
  3
Standard
350
       3D6
  3
Standard1
350
       3D7
  0
DICTIONARY
  5
19
102
{ACAD_REACTORS
330
C
102
}
100
AcDbDictionary
281
1
  0
DICTIONARY
  5
1A
102
{ACAD_REACTORS
330
C
102
}
100
AcDbDictionary
281
1
  3
Model
350
3D3
  3
Layout1
350
3D4
  0
ACDBPLACEHOLDER
  5
F
102
{ACAD_REACTORS
330
E
102
}
  0
MLINESTYLE
  5
18
102
{ACAD_REACTORS
330
17
102
}
100
AcDbMlineStyle
  2
STANDARD
 70
0
  3

 62
256
 51
90.0
 52
90.0
 71
2
 49
0.5
 62
256
  6
BYLAYER
 49
-0.5
 62
256
  6
BYLAYER
  0
LAYOUT
  5
3D3
102
{ACAD_REACTORS
330
1A
102
}
100
AcDbPlotSettings
  1

  2
none_device
  4
ANSI_C_(22.00_x_17.00_Inches)
  6

 40
0.0
 41
0.0
 42
0.0
 43
0.0
 44
558.8
 45
431.8
 46
0.0
 47
0.0
 48
0.0
 49
0.0
140
0.0
141
0.0
142
1.0
143
1.0
 70
1024
 72
0
 73
0
 74
0
  7

 75
0
147
1.0
148
0.0
149
0.0
100
AcDbLayout
  1
Model
 70
0
 71
0
 10
0.0
 20
0.0
 11
22.0
 21
17.0
 12
0.0
 22
0.0
 32
0.0
 14
0.0
 24
0.0
 34
0.0
 15
0.0
 25
0.0
 35
0.0
146
0.0
 13
0.0
 23
0.0
 33
0.0
 16
1.0
 26
0.0
 36
0.0
 17
0.0
 27
1.0
 37
0.0
 76
0
330
204
345
0
346
0
  0
LAYOUT
  5
3D4
102
{ACAD_REACTORS
330
1A
102
}
100
AcDbPlotSettings
  1

  2
none_device
  4
ANSI_C_(22.00_x_17.00_Inches)
  6

 40
0.0
 41
0.0
 42
0.0
 43
0.0
 44
558.8
 45
431.8
 46
0.0
 47
0.0
 48
0.0
 49
0.0
140
0.0
141
0.0
142
1.0
143
1.0
 70
0
 72
0
 73
0
 74
0
  7

 75
0
147
1.0
148
0.0
149
0.0
100
AcDbLayout
  1
Layout1
 70
0
 71
1
 10
0.0
 20
0.0
 11
22.0
 21
17.0
 12
0.0
 22
0.0
 32
0.0
 14
0.0
 24
0.0
 34
0.0
 15
0.0
 25
0.0
 35
0.0
146
0.0
 13
0.0
 23
0.0
 33
0.0
 16
1.0
 26
0.0
 36
0.0
 17
0.0
 27
1.0
 37
0.0
 76
0
330
205
345
0
346
0
  0
IMAGEDEF
  5
3D5
102
{ACAD_REACTORS
330
3D0
330
3CF
102
}
100
AcDbRasterImageDef
 90
0
  1
H3M_assy_2_img_1.png
 10
369.0
 20
92.0
 11
0.0066666667
 21
0.0066666667
280
1
281
0
  0
TABLESTYLE
  5
3D6
102
{ACAD_REACTORS
330
3D2
330
28D
330
28E
102
}
330
3D2
100
AcDbTableStyle
  3
Standard
 70
0
 71
0
 40
0.06
 41
0.06
280
1
281
1
  7
Standard
140
0.18
170
1
 62
0
 63
7
283
0
  7
Standard
140
0.18
170
1
 62
0
 63
7
283
0
  7
Standard
140
0.18
170
1
 62
0
 63
7
283
0
  0
TABLESTYLE
  5
3D7
102
{ACAD_REACTORS
330
3D2
330
28C
102
}
330
3D2
100
AcDbTableStyle
  3
Standard1
 70
1
 71
0
 40
0.06
 41
0.06
280
1
281
1
  7
Standard
140
0.18
170
1
 62
0
 63
7
283
0
  7
Standard
140
0.18
170
1
 62
0
 63
7
283
0
  7
Standard
140
0.18
170
1
 62
0
 63
7
283
0
  0
ENDSEC
  0
EOF
