999
DXF file: H3L_assy_2.dxf
999
Pro/ENGINEER 2014200 by Parametric Technology Corporation
  0
SECTION
  2
HEADER
  9
$ACADVER
  1
AC1021
  9
$DWGCODEPAGE
  3
ANSI_1252
  9
$EXTMAX
 10
22.0
 20
17.0
 30
0.0
  9
$EXTMIN
 10
0.0
 20
0.0
 30
0.0
  9
$LIMMIN
 10
0.0
 20
0.0
  9
$LIMMAX
 10
22.0
 20
17.0
  9
$VIEWCTR
 10
11.0
 20
8.5
  9
$VIEWSIZE
 40
17.0
  9
$CLAYER
  8
0
  9
$LTSCALE
 40
1.21
  9
$CELTYPE
  6
BYLAYER
  9
$DIMSCALE
 40
1.0
  9
$DIMASZ
 40
0.1875
  9
$DIMEXO
 40
0.0625
  9
$DIMDLI
 40
0.836
  9
$DIMEXE
 40
0.125
  9
$DIMCEN
 40
0.198
  9
$DIMLFAC
 40
1.0
  9
$DIMBLK
  1
_FILLED
  9
$DIMTXT
 40
0.1
  9
$DIMTOL
 70
0
  9
$DIMLIM
 70
0
  9
$DIMTFAC
 40
1.0
  9
$DIMGAP
 40
0.09
  9
$DIMDSEP
 70
46
  9
$AUNITS
 70
0
  9
$PDMODE
 70
3
  9
$PDSIZE
 40
0.3125
  9
$HANDSEED
  5
3B6
  9
$TILEMODE
 70
1
  9
$MEASUREMENT
 70
0
  9
$INSUNITS
 70
1
  0
ENDSEC
  0
SECTION
  2
CLASSES
  0
CLASS
  1
ACDBDICTIONARYWDFLT
  2
AcDbDictionaryWithDefault
  3
AutoCAD 2000
 90
0
 91
1
280
0
281
0
  0
CLASS
  1
ACDBPLACEHOLDER
  2
AcDbPlaceHolder
  3
AutoCAD 2000
 90
0
 91
1
280
0
281
0
  0
CLASS
  1
LAYOUT
  2
AcDbLayout
  3
AutoCAD 2000
 90
0
 91
0
280
0
281
0
  0
CLASS
  1
RASTERVARIABLES
  2
AcDbRasterVariables
  3
ISM
 90
0
 91
1
280
0
281
0
  0
CLASS
  1
IMAGEDEF
  2
AcDbRasterImageDef
  3
ISM
 90
0
 91
1
280
0
281
0
  0
CLASS
  1
IMAGEDEF_REACTOR
  2
AcDbRasterImageDefReactor
  3
ISM
 90
0
 91
1
280
0
281
0
  0
CLASS
  1
IMAGE
  2
AcDbRasterImage
  3
ISM
 90
127
 91
1
280
0
281
1
  0
CLASS
  1
TABLESTYLE
  2
AcDbTableStyle
  3
ObjectDBX Classes
 90
2047
 91
1
280
0
281
0
  0
CLASS
  1
ACAD_TABLE
  2
AcDbTable
  3
ObjectDBX Classes
 90
1025
 91
3
280
0
281
1
  0
ENDSEC
  0
SECTION
  2
TABLES
  0
TABLE
  2
VPORT
  5
8
100
AcDbSymbolTable
 70
2
  0
VPORT
  5
1F4
100
AcDbSymbolTableRecord
100
AcDbViewportTableRecord
  2
*ACTIVE
 70
0
 10
0.0
 20
0.0
 11
1.0
 21
1.0
 12
11.0
 22
8.5
 13
0.0
 23
0.0
 14
1.0
 24
1.0
 15
0.0
 25
0.0
 16
0.0
 26
0.0
 36
1.0
 17
0.0
 27
0.0
 37
0.0
 40
17.0
 41
1.2941176471
 42
50.0
 43
0.0
 44
0.0
 50
0.0
 51
0.0
 71
0
 72
100
 73
1
 74
1
 75
0
 76
0
 77
0
 78
0
  0
ENDTAB
  0
TABLE
  2
LTYPE
  5
5
100
AcDbSymbolTable
 70
6
  0
LTYPE
  5
14
100
AcDbSymbolTableRecord
100
AcDbLinetypeTableRecord
  2
BYBLOCK
 70
0
  3

 72
65
 73
0
 40
0.0
  0
LTYPE
  5
15
100
AcDbSymbolTableRecord
100
AcDbLinetypeTableRecord
  2
BYLAYER
 70
0
  3

 72
65
 73
0
 40
0.0
  0
LTYPE
  5
16
100
AcDbSymbolTableRecord
100
AcDbLinetypeTableRecord
  2
CONTINUOUS
 70
64
  3
Solid line
 72
65
 73
0
 40
0.0
  0
LTYPE
  5
1F5
100
AcDbSymbolTableRecord
100
AcDbLinetypeTableRecord
  2
CENTER
 70
64
  3
____ _ ____ _ ____ _ ____ _ ____ _ ____ _ ____
 72
65
 73
4
 40
0.6
 49
0.375
 74
0
 49
-0.075
 74
0
 49
0.075
 74
0
 49
-0.075
 74
0
  0
LTYPE
  5
1F6
100
AcDbSymbolTableRecord
100
AcDbLinetypeTableRecord
  2
HIDDEN
 70
64
  3
- - - - - - - - - - - - - - - - - - - -
 72
65
 73
2
 40
0.2
 49
0.1
 74
0
 49
-0.1
 74
0
  0
LTYPE
  5
1F7
100
AcDbSymbolTableRecord
100
AcDbLinetypeTableRecord
  2
PHANTOM
 70
64
  3
_____ _ _ _____ _ _ _____ _ _ _____
 72
65
 73
6
 40
0.8
 49
0.45
 74
0
 49
-0.05
 74
0
 49
0.1
 74
0
 49
-0.05
 74
0
 49
0.1
 74
0
 49
-0.05
 74
0
  0
LTYPE
  5
1F8
100
AcDbSymbolTableRecord
100
AcDbLinetypeTableRecord
  2
DOT
 70
64
  3
. . . . . . . . . . . . . . . . . . . .
 72
65
 73
2
 40
0.2
 49
0.1
 74
0
 49
-0.1
 74
0
  0
LTYPE
  5
1F9
100
AcDbSymbolTableRecord
100
AcDbLinetypeTableRecord
  2
DASHED
 70
64
  3
- - - - - - - - - - - - - - - - - - - -
 72
65
 73
2
 40
0.2
 49
0.1
 74
0
 49
-0.1
 74
0
  0
ENDTAB
  0
TABLE
  2
LAYER
  5
2
100
AcDbSymbolTable
 70
36
  0
LAYER
  5
10
100
AcDbSymbolTableRecord
100
AcDbLayerTableRecord
  2
0
 70
0
 62
7
  6
CONTINUOUS
370
-3
390
F
  0
LAYER
  5
1FA
100
AcDbSymbolTableRecord
100
AcDbLayerTableRecord
  2
DEFAULT_1
 70
0
 62
7
  6
CENTER
370
-3
390
F
  0
LAYER
  5
1FB
100
AcDbSymbolTableRecord
100
AcDbLayerTableRecord
  2
DEFAULT_2
 70
0
 62
8
  6
HIDDEN
370
-3
390
F
  0
LAYER
  5
1FC
100
AcDbSymbolTableRecord
100
AcDbLayerTableRecord
  2
DEFAULT_3
 70
0
 62
7
  6
PHANTOM
370
-3
390
F
  0
LAYER
  5
1FD
100
AcDbSymbolTableRecord
100
AcDbLayerTableRecord
  2
DATUM_PLANES
 70
0
 62
7
  6
CONTINUOUS
370
-3
390
F
  0
LAYER
  5
1FE
100
AcDbSymbolTableRecord
100
AcDbLayerTableRecord
  2
PORT_AREAS
 70
0
 62
7
  6
CONTINUOUS
370
-3
390
F
  0
LAYER
  5
1FF
100
AcDbSymbolTableRecord
100
AcDbLayerTableRecord
  2
SUNNBOMCOSMETIC
 70
0
 62
7
  6
CONTINUOUS
370
-3
390
F
  0
LAYER
  5
200
100
AcDbSymbolTableRecord
100
AcDbLayerTableRecord
  2
SUNNBOMSTAMPING
 70
0
 62
7
  6
CONTINUOUS
370
-3
390
F
  0
LAYER
  5
201
100
AcDbSymbolTableRecord
100
AcDbLayerTableRecord
  2
THREADS
 70
0
 62
7
  6
CONTINUOUS
370
-3
390
F
  0
ENDTAB
  0
TABLE
  2
STYLE
  5
3
100
AcDbSymbolTable
 70
1
  0
STYLE
  5
11
100
AcDbSymbolTableRecord
100
AcDbTextStyleTableRecord
  2
STANDARD
 70
0
 40
0.0
 41
0.8
 50
0.0
 71
0
 42
0.2
  3
txt
  4

  0
STYLE
  5
202
100
AcDbSymbolTableRecord
100
AcDbTextStyleTableRecord
  2
TEXTSTYLE_1
 70
0
 40
0.0
 41
0.8
 50
0.0
 71
0
 42
0.2
  3
gdt
  4

  0
ENDTAB
  0
TABLE
  2
VIEW
  5
6
100
AcDbSymbolTable
 70
0
  0
ENDTAB
  0
TABLE
  2
UCS
  5
7
100
AcDbSymbolTable
 70
0
  0
ENDTAB
  0
TABLE
  2
APPID
  5
9
100
AcDbSymbolTable
 70
1
  0
APPID
  5
203
100
AcDbSymbolTableRecord
100
AcDbRegAppTableRecord
  2
ACAD
 70
0
  0
ENDTAB
  0
TABLE
  2
BLOCK_RECORD
  5
1
100
AcDbSymbolTable
 70
0
  0
BLOCK_RECORD
  5
204
100
AcDbSymbolTableRecord
100
AcDbBlockTableRecord
  2
*Model_Space
  0
BLOCK_RECORD
  5
205
100
AcDbSymbolTableRecord
100
AcDbBlockTableRecord
  2
*Paper_Space
  0
BLOCK_RECORD
  5
206
100
AcDbSymbolTableRecord
100
AcDbBlockTableRecord
  2
SUN_FIRST_THIRD_ANGLE_BL0
  0
BLOCK_RECORD
  5
207
100
AcDbSymbolTableRecord
100
AcDbBlockTableRecord
  2
*T1
  0
BLOCK_RECORD
  5
208
100
AcDbSymbolTableRecord
100
AcDbBlockTableRecord
  2
*T2
  0
BLOCK_RECORD
  5
209
100
AcDbSymbolTableRecord
100
AcDbBlockTableRecord
  2
*T3
  0
ENDTAB
  0
TABLE
  2
DIMSTYLE
  5
A
100
AcDbSymbolTable
 70
1
100
AcDbDimStyleTable
 71
0
  0
DIMSTYLE
105
20A
100
AcDbSymbolTableRecord
100
AcDbDimStyleTableRecord
  2
STANDARD
 70
0
  3

  4

 40
1.0
 41
0.1875
 42
0.0625
 43
0.38
 44
0.125
 45
0.0
 46
0.0
 47
0.001
 48
0.001
140
0.1
141
0.09
142
0.0
143
25.4
144
1.0
145
0.0
146
1.0
147
0.09
 71
0.0
 72
0.0
 73
1
 74
1
 75
0
 76
0
 77
0
 78
4
170
0
171
2
172
0
173
0
174
0
175
0
176
0
177
0
178
0
270
2
271
3
272
3
273
2
274
2
275
0
280
0
281
0
282
0
283
1
284
4
285
0
286
0
287
3
288
0
340
11
278
46
  0
ENDTAB
  0
ENDSEC
  0
SECTION
  2
BLOCKS
  0
BLOCK
  5
20
100
AcDbEntity
  8
0
100
AcDbBlockBegin
  2
*Model_Space
 70
0
 10
0.0
 20
0.0
 30
0.0
  3
*Model_Space
  1

  0
ENDBLK
  5
21
100
AcDbEntity
  8
0
100
AcDbBlockEnd
  0
BLOCK
  5
1C
100
AcDbEntity
  8
0
100
AcDbBlockBegin
  2
*Paper_Space
 70
0
 10
0.0
 20
0.0
 30
0.0
  3
*Paper_Space
  1

  0
ENDBLK
  5
1D
100
AcDbEntity
  8
0
100
AcDbBlockEnd
  0
BLOCK
  5
20B
100
AcDbEntity
  8
0
100
AcDbBlockBegin
 62
2
  6
CONTINUOUS
  2
SUN_FIRST_THIRD_ANGLE_BL0
 70
64
 10
20.4816717061
 20
1.2289683772
  3
SUN_FIRST_THIRD_ANGLE_BL0
  1

  0
TEXT
  5
20C
100
AcDbEntity
  8
0
100
AcDbText
 62
2
  6
CONTINUOUS
 10
19.4750896608
 20
1.4136269581
  7
STANDARD
 40
0.08
  1
FIRST ANGLE
 41
0.8
 72
0
100
AcDbText
  0
TEXT
  5
20D
100
AcDbEntity
  8
0
100
AcDbText
 62
2
  6
CONTINUOUS
 10
20.7842537513
 20
1.4047600029
  7
STANDARD
 40
0.08
  1
THIRD ANGLE
 41
0.8
 72
0
100
AcDbText
  0
LINE
  5
20E
100
AcDbEntity
  8
0
100
AcDbLine
 62
7
  6
CONTINUOUS
 10
19.4767170086
 20
1.1727031207
 11
19.6334271527
 21
1.1717972817
  0
LINE
  5
20F
100
AcDbEntity
  8
0
100
AcDbLine
 62
7
  6
CONTINUOUS
 10
19.6596964832
 20
1.1717972817
 11
19.6950230232
 21
1.171593082
  0
LINE
  5
210
100
AcDbEntity
  8
0
100
AcDbLine
 62
7
  6
CONTINUOUS
 10
19.7194818561
 20
1.1708914427
 11
19.8852396156
 21
1.1699333054
  0
LINE
  5
211
100
AcDbEntity
  8
0
100
AcDbLine
 62
7
  6
CONTINUOUS
 10
19.4758111696
 20
1.2723454088
 11
19.88525039
 21
1.3511534004
  0
LINE
  5
212
100
AcDbEntity
  8
0
100
AcDbLine
 62
7
  6
CONTINUOUS
 10
19.88525039
 20
1.3511534004
 11
19.8831348489
 21
0.9851647912
  0
LINE
  5
213
100
AcDbEntity
  8
0
100
AcDbLine
 62
7
  6
CONTINUOUS
 10
19.8831348489
 20
0.9851647912
 11
19.4767170086
 21
1.0658141206
  0
LINE
  5
214
100
AcDbEntity
  8
0
100
AcDbLine
 62
7
  6
CONTINUOUS
 10
19.4767170086
 20
1.0658141206
 11
19.4779056764
 21
1.2714536432
  0
CIRCLE
  5
215
100
AcDbEntity
  8
0
100
AcDbCircle
 62
7
  6
CONTINUOUS
 10
20.2068232291
 20
1.1717972817
 40
0.175742101
  0
CIRCLE
  5
216
100
AcDbEntity
  8
0
100
AcDbCircle
 62
7
  6
CONTINUOUS
 10
20.2068232291
 20
1.1717972817
 40
0.1005522074
  0
LINE
  5
217
100
AcDbEntity
  8
0
100
AcDbLine
 62
7
  6
CONTINUOUS
 10
20.2077290681
 20
1.3756110529
 11
20.2071171714
 21
1.2379342989
  0
LINE
  5
218
100
AcDbEntity
  8
0
100
AcDbLine
 62
7
  6
CONTINUOUS
 10
20.2077290681
 20
1.2016899681
 11
20.2074674401
 21
1.1428236749
  0
LINE
  5
219
100
AcDbEntity
  8
0
100
AcDbLine
 62
7
  6
CONTINUOUS
 10
20.208634907
 20
1.101141841
 11
20.2080230104
 21
0.963465087
  0
LINE
  5
21A
100
AcDbEntity
  8
0
100
AcDbLine
 62
7
  6
CONTINUOUS
 10
20.0066328138
 20
1.1745147986
 11
20.1443095678
 21
1.1739029019
  0
LINE
  5
21B
100
AcDbEntity
  8
0
100
AcDbLine
 62
7
  6
CONTINUOUS
 10
20.1832714155
 20
1.1727031207
 11
20.238153505
 21
1.172335442
  0
LINE
  5
21C
100
AcDbEntity
  8
0
100
AcDbLine
 62
7
  6
CONTINUOUS
 10
20.2756669918
 20
1.1717972817
 11
20.407916871
 21
1.1712095044
  0
CIRCLE
  5
21D
100
AcDbEntity
  8
0
100
AcDbCircle
 62
7
  6
CONTINUOUS
 10
20.7509457401
 20
1.1693297793
 40
0.1722024983
  0
CIRCLE
  5
21E
100
AcDbEntity
  8
0
100
AcDbCircle
 62
7
  6
CONTINUOUS
 10
20.7509457401
 20
1.1693297793
 40
0.0985164967
  0
LINE
  5
21F
100
AcDbEntity
  8
0
100
AcDbLine
 62
7
  6
CONTINUOUS
 10
20.7169767782
 20
1.170462078
 11
20.7825395137
 21
1.1682766535
  0
LINE
  5
220
100
AcDbEntity
  8
0
100
AcDbLine
 62
7
  6
CONTINUOUS
 10
20.8177513651
 20
1.1693297793
 11
20.947965719
 21
1.1693297793
  0
LINE
  5
221
100
AcDbEntity
  8
0
100
AcDbLine
 62
7
  6
CONTINUOUS
 10
20.6875370113
 20
1.170462078
 11
20.5573226574
 21
1.170462078
  0
LINE
  5
222
100
AcDbEntity
  8
0
100
AcDbLine
 62
7
  6
CONTINUOUS
 10
20.7486811426
 20
1.1987695462
 11
20.7486811426
 21
1.1432869085
  0
LINE
  5
223
100
AcDbEntity
  8
0
100
AcDbLine
 62
7
  6
CONTINUOUS
 10
20.7498134414
 20
1.1059210505
 11
20.7498134414
 21
0.9757066966
  0
LINE
  5
224
100
AcDbEntity
  8
0
100
AcDbLine
 62
7
  6
CONTINUOUS
 10
20.7486811426
 20
1.2338708068
 11
20.7486811426
 21
1.3640851607
  0
LINE
  5
225
100
AcDbEntity
  8
0
100
AcDbLine
 62
7
  6
CONTINUOUS
 10
21.0702539817
 20
1.2701043662
 11
21.4790138229
 21
1.3448360823
  0
LINE
  5
226
100
AcDbEntity
  8
0
100
AcDbLine
 62
7
  6
CONTINUOUS
 10
21.4790138229
 20
1.3448360823
 11
21.4790138229
 21
0.9779712941
  0
LINE
  5
227
100
AcDbEntity
  8
0
100
AcDbLine
 62
7
  6
CONTINUOUS
 10
21.4790138229
 20
0.9779712941
 11
21.069121683
 21
1.0617614
  0
LINE
  5
228
100
AcDbEntity
  8
0
100
AcDbLine
 62
7
  6
CONTINUOUS
 10
21.0702539817
 20
1.2701043662
 11
21.069121683
 21
1.0617614
  0
LINE
  5
229
100
AcDbEntity
  8
0
100
AcDbLine
 62
7
  6
CONTINUOUS
 10
21.4790138229
 20
1.1693297793
 11
21.3159628059
 21
1.1693297793
  0
LINE
  5
22A
100
AcDbEntity
  8
0
100
AcDbLine
 62
7
  6
CONTINUOUS
 10
21.2876553377
 20
1.1693297793
 11
21.2502894796
 21
1.1693297793
  0
LINE
  5
22B
100
AcDbEntity
  8
0
100
AcDbLine
 62
7
  6
CONTINUOUS
 10
21.2208497126
 20
1.1659328831
 11
21.0713862804
 21
1.1659328831
  0
LINE
  5
22C
100
AcDbEntity
  8
0
100
AcDbLine
 62
7
  6
CONTINUOUS
 10
20.4796138713
 20
1.5284908897
 11
20.4766766948
 21
0.9294458646
  0
ENDBLK
  5
22D
100
AcDbEntity
  8
0
  6
BYBLOCK
 62
0
100
AcDbBlockEnd
  0
BLOCK
  5
22E
100
AcDbEntity
  8
0
100
AcDbBlockBegin
  2
*T1
 70
1
 10
0.0
 20
0.0
  3
*T1
  1

  0
LINE
  5
22F
100
AcDbEntity
  8
0
100
AcDbLine
 62
2
  6
CONTINUOUS
 10
9.275
 20
0.0
 11
-0.0
 21
0.0
  0
LINE
  5
230
100
AcDbEntity
  8
0
100
AcDbLine
 62
2
  6
CONTINUOUS
 10
9.275
 20
0.0
 11
9.275
 21
1.25
  0
LINE
  5
231
100
AcDbEntity
  8
0
100
AcDbLine
 62
2
  6
CONTINUOUS
 10
9.275
 20
0.625
 11
-0.0
 21
0.625
  0
LINE
  5
232
100
AcDbEntity
  8
0
100
AcDbLine
 62
2
  6
CONTINUOUS
 10
9.275
 20
1.25
 11
-0.0
 21
1.25
  0
LINE
  5
233
100
AcDbEntity
  8
0
100
AcDbLine
 62
2
  6
CONTINUOUS
 10
6.8
 20
0.0
 11
6.8
 21
1.25
  0
LINE
  5
234
100
AcDbEntity
  8
0
100
AcDbLine
 62
2
  6
CONTINUOUS
 10
6.4
 20
0.0
 11
6.4
 21
0.625
  0
LINE
  5
235
100
AcDbEntity
  8
0
100
AcDbLine
 62
2
  6
CONTINUOUS
 10
5.9
 20
0.0
 11
5.9
 21
0.625
  0
LINE
  5
236
100
AcDbEntity
  8
0
100
AcDbLine
 62
2
  6
CONTINUOUS
 10
5.2
 20
0.0
 11
5.2
 21
0.625
  0
LINE
  5
237
100
AcDbEntity
  8
0
100
AcDbLine
 62
2
  6
CONTINUOUS
 10
4.1
 20
0.0
 11
4.1
 21
1.25
  0
LINE
  5
238
100
AcDbEntity
  8
0
100
AcDbLine
 62
2
  6
CONTINUOUS
 10
-0.0
 20
0.0
 11
-0.0
 21
1.25
  0
MTEXT
  5
239
100
AcDbEntity
  8
0
100
AcDbMText
 62
2
  6
CONTINUOUS
  7
STANDARD
 71
2
 72
1
 10
6.6
 20
0.325
 30
0.0
 11
1.0
 21
0.0
 31
0.0
 44
0.9
  1
2
 40
0.125
 41
0.2
  0
MTEXT
  5
23A
100
AcDbEntity
  8
0
100
AcDbMText
 62
2
  6
CONTINUOUS
  7
STANDARD
 71
2
 72
1
 10
6.15
 20
0.325
 30
0.0
 11
1.0
 21
0.0
 31
0.0
 44
0.9
  1
C
 40
0.125
 41
0.2
  0
MTEXT
  5
23B
100
AcDbEntity
  8
0
100
AcDbMText
 62
2
  6
CONTINUOUS
  7
STANDARD
 71
2
 72
1
 10
5.55
 20
0.325
 30
0.0
 11
1.0
 21
0.0
 31
0.0
 44
0.9
  1
1.000
 40
0.125
 41
1.0
  0
MTEXT
  5
23C
100
AcDbEntity
  8
0
100
AcDbMText
 62
2
  6
CONTINUOUS
  7
STANDARD
 71
2
 72
1
 10
4.65
 20
0.325
 30
0.0
 11
1.0
 21
0.0
 31
0.0
 44
0.9
  1
Sep-11-19
 40
0.125
 41
1.8
  0
MTEXT
  5
23D
100
AcDbEntity
  8
0
100
AcDbMText
 62
2
  6
CONTINUOUS
  7
STANDARD
 71
2
 72
1
 10
2.05
 20
0.4625
 30
0.0
 11
1.0
 21
0.0
 31
0.0
 44
0.9
  1
T-17A Line mount\PThrough port 2 with reverse flow check
 40
0.125
 41
7.6
  0
MTEXT
  5
23E
100
AcDbEntity
  8
0
100
AcDbMText
 62
2
  6
CONTINUOUS
  7
STANDARD
 71
1
 72
1
 10
6.45
 20
0.5625
 30
0.0
 11
1.0
 21
0.0
 31
0.0
 44
0.9
  1
SHEET
 40
0.06
 41
0.48
  0
MTEXT
  5
23F
100
AcDbEntity
  8
0
100
AcDbMText
 62
2
  6
CONTINUOUS
  7
STANDARD
 71
1
 72
1
 10
5.95
 20
0.5625
 30
0.0
 11
1.0
 21
0.0
 31
0.0
 44
0.9
  1
DWG SIZE
 40
0.06
 41
0.768
  0
MTEXT
  5
240
100
AcDbEntity
  8
0
100
AcDbMText
 62
2
  6
CONTINUOUS
  7
STANDARD
 71
1
 72
1
 10
5.25
 20
0.5625
 30
0.0
 11
1.0
 21
0.0
 31
0.0
 44
0.9
  1
SCALE
 40
0.06
 41
0.48
  0
MTEXT
  5
241
100
AcDbEntity
  8
0
100
AcDbMText
 62
2
  6
CONTINUOUS
  7
STANDARD
 71
1
 72
1
 10
4.15
 20
0.5625
 30
0.0
 11
1.0
 21
0.0
 31
0.0
 44
0.9
  1
DATE
 40
0.06
 41
0.384
  0
MTEXT
  5
242
100
AcDbEntity
  8
0
100
AcDbMText
 62
2
  6
CONTINUOUS
  7
STANDARD
 71
1
 72
1
 10
0.05
 20
0.5625
 30
0.0
 11
1.0
 21
0.0
 31
0.0
 44
0.9
  1
DESCRIPTION
 40
0.06
 41
1.056
  0
MTEXT
  5
243
100
AcDbEntity
  8
0
100
AcDbMText
 62
2
  6
CONTINUOUS
  7
STANDARD
 71
2
 72
1
 10
5.45
 20
1.0375
 30
0.0
 11
1.0
 21
0.0
 31
0.0
 44
0.9
  1
ALL DIMENSIONS IN INCH\PVIEWS ARE THIRD ANGLE
 40
0.12
 41
4.224
  0
MTEXT
  5
244
100
AcDbEntity
  8
0
100
AcDbMText
 62
2
  6
CONTINUOUS
  7
STANDARD
 71
2
 72
1
 10
2.05
 20
0.95
 30
0.0
 11
1.0
 21
0.0
 31
0.0
 44
0.9
  1
H3L
 40
0.125
 41
0.6
  0
MTEXT
  5
245
100
AcDbEntity
  8
0
100
AcDbMText
 62
2
  6
CONTINUOUS
  7
STANDARD
 71
1
 72
1
 10
0.05
 20
1.1875
 30
0.0
 11
1.0
 21
0.0
 31
0.0
 44
0.9
  1
MODEL
 40
0.06
 41
0.48
  0
ENDBLK
  5
246
100
AcDbEntity
  8
0
  6
BYBLOCK
 62
0
100
AcDbBlockEnd
  0
BLOCK
  5
247
100
AcDbEntity
  8
0
100
AcDbBlockBegin
  2
*T2
 70
1
 10
0.0
 20
0.0
  3
*T2
  1

  0
LINE
  5
248
100
AcDbEntity
  8
0
100
AcDbLine
 62
2
  6
CONTINUOUS
 10
0.0
 20
0.0
 11
9.055
 21
0.0
  0
LINE
  5
249
100
AcDbEntity
  8
0
100
AcDbLine
 62
2
  6
CONTINUOUS
 10
0.0
 20
0.0
 11
0.0
 21
-2.594
  0
LINE
  5
24A
100
AcDbEntity
  8
0
100
AcDbLine
 62
2
  6
CONTINUOUS
 10
0.0
 20
-0.344
 11
9.055
 21
-0.344
  0
LINE
  5
24B
100
AcDbEntity
  8
0
100
AcDbLine
 62
2
  6
CONTINUOUS
 10
0.0
 20
-0.594
 11
9.055
 21
-0.594
  0
LINE
  5
24C
100
AcDbEntity
  8
0
100
AcDbLine
 62
2
  6
CONTINUOUS
 10
0.0
 20
-0.844
 11
9.055
 21
-0.844
  0
LINE
  5
24D
100
AcDbEntity
  8
0
100
AcDbLine
 62
2
  6
CONTINUOUS
 10
0.0
 20
-1.094
 11
9.055
 21
-1.094
  0
LINE
  5
24E
100
AcDbEntity
  8
0
100
AcDbLine
 62
2
  6
CONTINUOUS
 10
0.0
 20
-1.344
 11
9.055
 21
-1.344
  0
LINE
  5
24F
100
AcDbEntity
  8
0
100
AcDbLine
 62
2
  6
CONTINUOUS
 10
0.0
 20
-1.594
 11
9.055
 21
-1.594
  0
LINE
  5
250
100
AcDbEntity
  8
0
100
AcDbLine
 62
2
  6
CONTINUOUS
 10
0.0
 20
-1.844
 11
9.055
 21
-1.844
  0
LINE
  5
251
100
AcDbEntity
  8
0
100
AcDbLine
 62
2
  6
CONTINUOUS
 10
0.0
 20
-2.094
 11
9.055
 21
-2.094
  0
LINE
  5
252
100
AcDbEntity
  8
0
100
AcDbLine
 62
2
  6
CONTINUOUS
 10
0.0
 20
-2.344
 11
9.055
 21
-2.344
  0
LINE
  5
253
100
AcDbEntity
  8
0
100
AcDbLine
 62
2
  6
CONTINUOUS
 10
0.0
 20
-2.594
 11
9.055
 21
-2.594
  0
LINE
  5
254
100
AcDbEntity
  8
0
100
AcDbLine
 62
2
  6
CONTINUOUS
 10
3.055
 20
0.0
 11
3.055
 21
-2.594
  0
LINE
  5
255
100
AcDbEntity
  8
0
100
AcDbLine
 62
2
  6
CONTINUOUS
 10
9.055
 20
0.0
 11
9.055
 21
-2.594
  0
MTEXT
  5
256
100
AcDbEntity
  8
0
100
AcDbMText
 62
2
  6
CONTINUOUS
  7
STANDARD
 71
2
 72
1
 10
1.5275
 20
-0.0995
 30
0.0
 11
1.0
 21
0.0
 31
0.0
 44
0.9
  1
Technical Data
 40
0.145
 41
3.248
  0
MTEXT
  5
257
100
AcDbEntity
  8
0
100
AcDbMText
 62
2
  6
CONTINUOUS
  7
STANDARD
 71
2
 72
1
 10
4.555
 20
-0.0995
 30
0.0
 11
1.0
 21
0.0
 31
0.0
 44
0.9
  1
U.S. Units
 40
0.145
 41
2.32
  0
MTEXT
  5
258
100
AcDbEntity
  8
0
100
AcDbMText
 62
2
  6
CONTINUOUS
  7
STANDARD
 71
2
 72
1
 10
7.555
 20
-0.0995
 30
0.0
 11
1.0
 21
0.0
 31
0.0
 44
0.9
  1
Metric Units
 40
0.145
 41
2.784
  0
MTEXT
  5
259
100
AcDbEntity
  8
0
100
AcDbMText
 62
2
  6
CONTINUOUS
  7
STANDARD
 71
2
 72
1
 10
1.5275
 20
-0.4065
 30
0.0
 11
1.0
 21
0.0
 31
0.0
 44
0.9
  1
Cavity
 40
0.125
 41
1.2
  0
MTEXT
  5
25A
100
AcDbEntity
  8
0
100
AcDbMText
 62
2
  6
CONTINUOUS
  7
STANDARD
 71
2
 72
1
 10
6.055
 20
-0.4065
 30
0.0
 11
1.0
 21
0.0
 31
0.0
 44
0.9
  1
T-17A
 40
0.125
 41
1.0
  0
MTEXT
  5
25B
100
AcDbEntity
  8
0
100
AcDbMText
 62
2
  6
CONTINUOUS
  7
STANDARD
 71
2
 72
1
 10
1.5275
 20
-0.6565
 30
0.0
 11
1.0
 21
0.0
 31
0.0
 44
0.9
  1
Body Features
 40
0.125
 41
2.6
  0
MTEXT
  5
25C
100
AcDbEntity
  8
0
100
AcDbMText
 62
2
  6
CONTINUOUS
  7
STANDARD
 71
2
 72
1
 10
6.055
 20
-0.6565
 30
0.0
 11
1.0
 21
0.0
 31
0.0
 44
0.9
  1
Through port 2 with reverse flow check
 40
0.125
 41
7.6
  0
MTEXT
  5
25D
100
AcDbEntity
  8
0
100
AcDbMText
 62
2
  6
CONTINUOUS
  7
STANDARD
 71
2
 72
1
 10
1.5275
 20
-0.9065
 30
0.0
 11
1.0
 21
0.0
 31
0.0
 44
0.9
  1
Body Type
 40
0.125
 41
1.8
  0
MTEXT
  5
25E
100
AcDbEntity
  8
0
100
AcDbMText
 62
2
  6
CONTINUOUS
  7
STANDARD
 71
2
 72
1
 10
6.055
 20
-0.9065
 30
0.0
 11
1.0
 21
0.0
 31
0.0
 44
0.9
  1
Line mount
 40
0.125
 41
2.0
  0
MTEXT
  5
25F
100
AcDbEntity
  8
0
100
AcDbMText
 62
2
  6
CONTINUOUS
  7
STANDARD
 71
2
 72
1
 10
1.5275
 20
-1.1565
 30
0.0
 11
1.0
 21
0.0
 31
0.0
 44
0.9
  1
Interface
 40
0.125
 41
1.8
  0
MTEXT
  5
260
100
AcDbEntity
  8
0
100
AcDbMText
 62
2
  6
CONTINUOUS
  7
STANDARD
 71
2
 72
1
 10
6.055
 20
-1.1565
 30
0.0
 11
1.0
 21
0.0
 31
0.0
 44
0.9
  1
None
 40
0.125
 41
0.8
  0
MTEXT
  5
261
100
AcDbEntity
  8
0
100
AcDbMText
 62
2
  6
CONTINUOUS
  7
STANDARD
 71
2
 72
1
 10
1.5275
 20
-1.4065
 30
0.0
 11
1.0
 21
0.0
 31
0.0
 44
0.9
  1
Open Cavity Quantity
 40
0.125
 41
4.0
  0
MTEXT
  5
262
100
AcDbEntity
  8
0
100
AcDbMText
 62
2
  6
CONTINUOUS
  7
STANDARD
 71
2
 72
1
 10
6.055
 20
-1.4065
 30
0.0
 11
1.0
 21
0.0
 31
0.0
 44
0.9
  1
1
 40
0.125
 41
0.2
  0
MTEXT
  5
263
100
AcDbEntity
  8
0
100
AcDbMText
 62
2
  6
CONTINUOUS
  7
STANDARD
 71
2
 72
1
 10
1.5275
 20
-1.6565
 30
0.0
 11
1.0
 21
0.0
 31
0.0
 44
0.9
  1
Weight
 40
0.125
 41
1.2
  0
MTEXT
  5
264
100
AcDbEntity
  8
0
100
AcDbMText
 62
2
  6
CONTINUOUS
  7
STANDARD
 71
2
 72
1
 10
4.555
 20
-1.6565
 30
0.0
 11
1.0
 21
0.0
 31
0.0
 44
0.9
  1
8.146 lb.
 40
0.125
 41
1.8
  0
MTEXT
  5
265
100
AcDbEntity
  8
0
100
AcDbMText
 62
2
  6
CONTINUOUS
  7
STANDARD
 71
2
 72
1
 10
7.555
 20
-1.6565
 30
0.0
 11
1.0
 21
0.0
 31
0.0
 44
0.9
  1
3,695 kg.
 40
0.125
 41
1.8
  0
MTEXT
  5
266
100
AcDbEntity
  8
0
100
AcDbMText
 62
2
  6
CONTINUOUS
  7
STANDARD
 71
2
 72
1
 10
1.5275
 20
-1.9065
 30
0.0
 11
1.0
 21
0.0
 31
0.0
 44
0.9
  1
Mounting Hole Thread
 40
0.125
 41
4.0
  0
MTEXT
  5
267
100
AcDbEntity
  8
0
100
AcDbMText
 62
2
  6
CONTINUOUS
  7
STANDARD
 71
2
 72
1
 10
4.555
 20
-1.9065
 30
0.0
 11
1.0
 21
0.0
 31
0.0
 44
0.9
  1
.375-16 UNC - 2B in.
 40
0.125
 41
4.0
  0
MTEXT
  5
268
100
AcDbEntity
  8
0
100
AcDbMText
 62
2
  6
CONTINUOUS
  7
STANDARD
 71
2
 72
1
 10
1.5275
 20
-2.1565
 30
0.0
 11
1.0
 21
0.0
 31
0.0
 44
0.9
  1
Mounting Hole Depth
 40
0.125
 41
3.8
  0
MTEXT
  5
269
100
AcDbEntity
  8
0
100
AcDbMText
 62
2
  6
CONTINUOUS
  7
STANDARD
 71
2
 72
1
 10
4.555
 20
-2.1565
 30
0.0
 11
1.0
 21
0.0
 31
0.0
 44
0.9
  1
.62 in.
 40
0.125
 41
1.4
  0
MTEXT
  5
26A
100
AcDbEntity
  8
0
100
AcDbMText
 62
2
  6
CONTINUOUS
  7
STANDARD
 71
2
 72
1
 10
7.555
 20
-2.1565
 30
0.0
 11
1.0
 21
0.0
 31
0.0
 44
0.9
  1
15,7 mm
 40
0.125
 41
1.4
  0
MTEXT
  5
26B
100
AcDbEntity
  8
0
100
AcDbMText
 62
2
  6
CONTINUOUS
  7
STANDARD
 71
2
 72
1
 10
1.5275
 20
-2.4065
 30
0.0
 11
1.0
 21
0.0
 31
0.0
 44
0.9
  1
Mounting Hole Quantity
 40
0.125
 41
4.4
  0
MTEXT
  5
26C
100
AcDbEntity
  8
0
100
AcDbMText
 62
2
  6
CONTINUOUS
  7
STANDARD
 71
2
 72
1
 10
6.055
 20
-2.4065
 30
0.0
 11
1.0
 21
0.0
 31
0.0
 44
0.9
  1
2
 40
0.125
 41
0.2
  0
ENDBLK
  5
26D
100
AcDbEntity
  8
0
  6
BYBLOCK
 62
0
100
AcDbBlockEnd
  0
BLOCK
  5
26E
100
AcDbEntity
  8
0
100
AcDbBlockBegin
  2
*T3
 70
1
 10
0.0
 20
0.0
  3
*T3
  1

  0
LINE
  5
26F
100
AcDbEntity
  8
0
100
AcDbLine
 62
2
  6
CONTINUOUS
 10
0.0
 20
0.0
 11
4.6
 21
0.0
  0
LINE
  5
270
100
AcDbEntity
  8
0
100
AcDbLine
 62
2
  6
CONTINUOUS
 10
0.0
 20
0.0
 11
0.0
 21
-1.43775
  0
LINE
  5
271
100
AcDbEntity
  8
0
100
AcDbLine
 62
2
  6
CONTINUOUS
 10
0.0
 20
-0.34375
 11
4.6
 21
-0.34375
  0
LINE
  5
272
100
AcDbEntity
  8
0
100
AcDbLine
 62
2
  6
CONTINUOUS
 10
0.0
 20
-0.68775
 11
4.6
 21
-0.68775
  0
LINE
  5
273
100
AcDbEntity
  8
0
100
AcDbLine
 62
2
  6
CONTINUOUS
 10
0.0
 20
-0.93775
 11
4.6
 21
-0.93775
  0
LINE
  5
274
100
AcDbEntity
  8
0
100
AcDbLine
 62
2
  6
CONTINUOUS
 10
0.0
 20
-1.18775
 11
4.6
 21
-1.18775
  0
LINE
  5
275
100
AcDbEntity
  8
0
100
AcDbLine
 62
2
  6
CONTINUOUS
 10
0.0
 20
-1.43775
 11
4.6
 21
-1.43775
  0
LINE
  5
276
100
AcDbEntity
  8
0
100
AcDbLine
 62
2
  6
CONTINUOUS
 10
1.3
 20
-0.34375
 11
1.3
 21
-1.43775
  0
LINE
  5
277
100
AcDbEntity
  8
0
100
AcDbLine
 62
2
  6
CONTINUOUS
 10
3.3
 20
-0.34375
 11
3.3
 21
-1.43775
  0
LINE
  5
278
100
AcDbEntity
  8
0
100
AcDbLine
 62
2
  6
CONTINUOUS
 10
4.6
 20
0.0
 11
4.6
 21
-1.43775
  0
MTEXT
  5
279
100
AcDbEntity
  8
0
100
AcDbMText
 62
2
  6
CONTINUOUS
  7
STANDARD
 71
2
 72
1
 10
2.3
 20
-0.099375
 30
0.0
 11
1.0
 21
0.0
 31
0.0
 44
0.9
  1
Port Headings
 40
0.145
 41
3.016
  0
MTEXT
  5
27A
100
AcDbEntity
  8
0
100
AcDbMText
 62
2
  6
CONTINUOUS
  7
STANDARD
 71
2
 72
1
 10
0.65
 20
-0.44325
 30
0.0
 11
1.0
 21
0.0
 31
0.0
 44
0.9
  1
Product
 40
0.145
 41
1.624
  0
MTEXT
  5
27B
100
AcDbEntity
  8
0
100
AcDbMText
 62
2
  6
CONTINUOUS
  7
STANDARD
 71
2
 72
1
 10
2.3
 20
-0.44325
 30
0.0
 11
1.0
 21
0.0
 31
0.0
 44
0.9
  1
Port
 40
0.145
 41
0.928
  0
MTEXT
  5
27C
100
AcDbEntity
  8
0
100
AcDbMText
 62
2
  6
CONTINUOUS
  7
STANDARD
 71
2
 72
1
 10
3.95
 20
-0.44325
 30
0.0
 11
1.0
 21
0.0
 31
0.0
 44
0.9
  1
Size
 40
0.145
 41
0.928
  0
MTEXT
  5
27D
100
AcDbEntity
  8
0
100
AcDbMText
 62
2
  6
CONTINUOUS
  7
STANDARD
 71
2
 72
1
 10
0.65
 20
-0.75025
 30
0.0
 11
1.0
 21
0.0
 31
0.0
 44
0.9
  1
H3L
 40
0.125
 41
0.6
  0
MTEXT
  5
27E
100
AcDbEntity
  8
0
100
AcDbMText
 62
2
  6
CONTINUOUS
  7
STANDARD
 71
2
 72
1
 10
2.3
 20
-0.75025
 30
0.0
 11
1.0
 21
0.0
 31
0.0
 44
0.9
  1
Ports 1 &  2
 40
0.125
 41
2.4
  0
MTEXT
  5
27F
100
AcDbEntity
  8
0
100
AcDbMText
 62
2
  6
CONTINUOUS
  7
STANDARD
 71
2
 72
1
 10
3.95
 20
-0.75025
 30
0.0
 11
1.0
 21
0.0
 31
0.0
 44
0.9
  1
SAE 12
 40
0.125
 41
1.2
  0
MTEXT
  5
280
100
AcDbEntity
  8
0
100
AcDbMText
 62
2
  6
CONTINUOUS
  7
STANDARD
 71
2
 72
1
 10
0.65
 20
-1.00025
 30
0.0
 11
1.0
 21
0.0
 31
0.0
 44
0.9
  1
H3L
 40
0.125
 41
0.6
  0
MTEXT
  5
281
100
AcDbEntity
  8
0
100
AcDbMText
 62
2
  6
CONTINUOUS
  7
STANDARD
 71
2
 72
1
 10
2.3
 20
-1.00025
 30
0.0
 11
1.0
 21
0.0
 31
0.0
 44
0.9
  1
Port 3
 40
0.125
 41
1.2
  0
MTEXT
  5
282
100
AcDbEntity
  8
0
100
AcDbMText
 62
2
  6
CONTINUOUS
  7
STANDARD
 71
2
 72
1
 10
3.95
 20
-1.00025
 30
0.0
 11
1.0
 21
0.0
 31
0.0
 44
0.9
  1
SAE 6
 40
0.125
 41
1.0
  0
MTEXT
  5
283
100
AcDbEntity
  8
0
100
AcDbMText
 62
2
  6
CONTINUOUS
  7
STANDARD
 71
2
 72
1
 10
0.65
 20
-1.25025
 30
0.0
 11
1.0
 21
0.0
 31
0.0
 44
0.9
  1
H3L
 40
0.125
 41
0.6
  0
MTEXT
  5
284
100
AcDbEntity
  8
0
100
AcDbMText
 62
2
  6
CONTINUOUS
  7
STANDARD
 71
2
 72
1
 10
2.3
 20
-1.25025
 30
0.0
 11
1.0
 21
0.0
 31
0.0
 44
0.9
  1
Gage Port
 40
0.125
 41
1.8
  0
MTEXT
  5
285
100
AcDbEntity
  8
0
100
AcDbMText
 62
2
  6
CONTINUOUS
  7
STANDARD
 71
2
 72
1
 10
3.95
 20
-1.25025
 30
0.0
 11
1.0
 21
0.0
 31
0.0
 44
0.9
  1
1/4" NPTF
 40
0.125
 41
1.8
  0
ENDBLK
  5
286
100
AcDbEntity
  8
0
  6
BYBLOCK
 62
0
100
AcDbBlockEnd
  0
ENDSEC
  0
SECTION
  2
ENTITIES
  0
IMAGE
  5
287
100
AcDbEntity
  8
0
100
AcDbRasterImage
 62
7
  6
CONTINUOUS
 10
19.2297077316
 20
0.3094318264
 30
0.0
 11
0.0066666667
 21
0.0
 31
0.0
 12
0.0
 22
0.0066666667
 32
0.0
 13
369.0
 23
92.0
340
       3B3
 70
9
280
0
281
50
282
50
283
0
360
       3AD
 71
1
 91
2
 14
-0.5
 24
-0.5
 14
368.5
 24
91.5
  0
INSERT
  5
288
100
AcDbEntity
  8
0
100
AcDbBlockReference
 62
2
  6
CONTINUOUS
  2
SUN_FIRST_THIRD_ANGLE_BL0
 10
20.4816717061
 20
1.2289683772
  0
ACAD_TABLE
  5
289
100
AcDbEntity
  8
0
 62
2
  6
CONTINUOUS
100
AcDbBlockReference
  2
*T1
 10
12.42375
 20
0.30125
 30
0.0
100
AcDbTable
342
       3B5
343
207
 11
1.0
 21
0.0
 31
0.0
 90
6
 91
4
 92
6
 93
20
 94
0
 95
0
 96
0
 70
1
 41
0.0
141
0.525
141
0.1
141
0.525
141
0.1
142
4.1
142
1.1
142
0.7
142
0.5
142
0.4
142
2.475
171
1
172
0
173
0
174
0
175
1
176
1
 91
33
178
0
145
0.0
301
CELL_VALUE
 90
4
  1
T-17A Line mount\PThrough port 2 with reverse flow check
304
ACVALUE_END
170
2
140
0.125
171
1
172
0
173
0
174
0
175
1
176
1
 91
33
178
0
145
0.0
301
CELL_VALUE
 90
4
  1
Sep-11-19
304
ACVALUE_END
170
5
140
0.125
171
1
172
0
173
0
174
0
175
1
176
1
 91
33
178
0
145
0.0
301
CELL_VALUE
 90
4
  1
1.000
304
ACVALUE_END
170
5
140
0.125
171
1
172
0
173
0
174
0
175
1
176
1
 91
33
178
0
145
0.0
301
CELL_VALUE
 90
4
  1
C
304
ACVALUE_END
170
5
140
0.125
171
1
172
0
173
0
174
0
175
1
176
1
 91
33
178
0
145
0.0
301
CELL_VALUE
 90
4
  1
2
304
ACVALUE_END
170
5
140
0.125
171
1
172
0
173
0
174
0
175
1
176
1
 91
33
178
0
145
0.0
301
CELL_VALUE
 90
4
  1
 
304
ACVALUE_END
170
1
140
0.125
171
1
172
0
173
0
174
0
175
1
176
1
 91
33
178
0
145
0.0
301
CELL_VALUE
 90
4
  1
DESCRIPTION
304
ACVALUE_END
170
1
140
0.06
171
1
172
0
173
0
174
0
175
1
176
1
 91
33
178
0
145
0.0
301
CELL_VALUE
 90
4
  1
DATE
304
ACVALUE_END
170
1
140
0.06
171
1
172
0
173
0
174
0
175
1
176
1
 91
33
178
0
145
0.0
301
CELL_VALUE
 90
4
  1
SCALE
304
ACVALUE_END
170
1
140
0.06
171
1
172
0
173
0
174
0
175
1
176
1
 91
33
178
0
145
0.0
301
CELL_VALUE
 90
4
  1
DWG SIZE
304
ACVALUE_END
170
1
140
0.06
171
1
172
0
173
0
174
0
175
1
176
1
 91
33
178
0
145
0.0
301
CELL_VALUE
 90
4
  1
SHEET
304
ACVALUE_END
170
1
140
0.06
171
1
172
0
173
0
174
0
175
1
176
1
 91
33
178
0
145
0.0
301
CELL_VALUE
 90
4
  1
 
304
ACVALUE_END
170
1
140
0.125
171
1
172
0
173
0
174
0
175
1
176
1
 91
33
178
0
145
0.0
301
CELL_VALUE
 90
4
  1
H3L
304
ACVALUE_END
170
5
140
0.125
171
1
172
0
173
0
174
0
175
4
176
1
 91
33
178
0
145
0.0
301
CELL_VALUE
 90
4
  1
ALL DIMENSIONS IN INCH\PVIEWS ARE THIRD ANGLE
304
ACVALUE_END
170
5
140
0.12
171
1
172
0
173
1
174
0
175
1
176
1
 91
1
178
0
145
0.0
170
1
171
1
172
0
173
1
174
0
175
1
176
1
 91
1
178
0
145
0.0
170
1
171
1
172
0
173
1
174
0
175
1
176
1
 91
1
178
0
145
0.0
170
5
171
1
172
0
173
0
174
0
175
1
176
1
 91
33
178
0
145
0.0
301
CELL_VALUE
 90
4
  1
 
304
ACVALUE_END
170
1
140
0.125
171
1
172
0
173
0
174
0
175
1
176
1
 91
33
178
0
145
0.0
301
CELL_VALUE
 90
4
  1
MODEL
304
ACVALUE_END
170
1
140
0.06
171
1
172
0
173
0
174
0
175
1
176
1
 91
33
178
0
145
0.0
301
CELL_VALUE
 90
4
  1
 
304
ACVALUE_END
170
1
140
0.125
171
1
172
0
173
0
174
0
175
1
176
1
 91
33
178
0
145
0.0
301
CELL_VALUE
 90
4
  1
 
304
ACVALUE_END
170
1
140
0.125
171
1
172
0
173
0
174
0
175
1
176
1
 91
33
178
0
145
0.0
301
CELL_VALUE
 90
4
  1
 
304
ACVALUE_END
170
1
140
0.125
171
1
172
0
173
0
174
0
175
1
176
1
 91
33
178
0
145
0.0
301
CELL_VALUE
 90
4
  1
 
304
ACVALUE_END
170
1
140
0.125
171
1
172
0
173
0
174
0
175
1
176
1
 91
33
178
0
145
0.0
301
CELL_VALUE
 90
4
  1
 
304
ACVALUE_END
170
1
140
0.125
  0
ACAD_TABLE
  5
28A
100
AcDbEntity
  8
0
 62
2
  6
CONTINUOUS
100
AcDbBlockReference
  2
*T2
 10
12.4237499994
 20
16.47875
 30
0.0
100
AcDbTable
342
       3B4
343
208
 11
1.0
 21
0.0
 31
0.0
 90
22
 91
10
 92
3
 93
16
 94
0
 95
0
 96
0
 41
0.028
141
0.344
141
0.25
141
0.25
141
0.25
141
0.25
141
0.25
141
0.25
141
0.25
141
0.25
141
0.25
142
3.055
142
3.0
142
3.0
171
1
172
0
173
0
174
0
175
1
176
1
 91
33
178
0
145
0.0
301
CELL_VALUE
 90
4
  1
Technical Data
304
ACVALUE_END
170
5
140
0.145
171
1
172
0
173
0
174
0
175
1
176
1
 91
33
178
0
145
0.0
301
CELL_VALUE
 90
4
  1
U.S. Units
304
ACVALUE_END
170
5
140
0.145
171
1
172
0
173
0
174
0
175
1
176
1
 91
33
178
0
145
0.0
301
CELL_VALUE
 90
4
  1
Metric Units
304
ACVALUE_END
170
5
140
0.145
171
1
172
0
173
0
174
0
175
1
176
1
 91
33
178
0
145
0.0
301
CELL_VALUE
 90
4
  1
Cavity
304
ACVALUE_END
170
5
140
0.125
171
1
172
0
173
0
174
0
175
2
176
1
 91
33
178
0
145
0.0
301
CELL_VALUE
 90
4
  1
T-17A
304
ACVALUE_END
170
5
140
0.125
171
1
172
0
173
1
174
0
175
1
176
1
 91
1
178
0
145
0.0
170
1
171
1
172
0
173
0
174
0
175
1
176
1
 91
33
178
0
145
0.0
301
CELL_VALUE
 90
4
  1
Body Features
304
ACVALUE_END
170
5
140
0.125
171
1
172
0
173
0
174
0
175
2
176
1
 91
33
178
0
145
0.0
301
CELL_VALUE
 90
4
  1
Through port 2 with reverse flow check
304
ACVALUE_END
170
5
140
0.125
171
1
172
0
173
1
174
0
175
1
176
1
 91
1
178
0
145
0.0
170
1
171
1
172
0
173
0
174
0
175
1
176
1
 91
33
178
0
145
0.0
301
CELL_VALUE
 90
4
  1
Body Type
304
ACVALUE_END
170
5
140
0.125
171
1
172
0
173
0
174
0
175
2
176
1
 91
33
178
0
145
0.0
301
CELL_VALUE
 90
4
  1
Line mount
304
ACVALUE_END
170
5
140
0.125
171
1
172
0
173
1
174
0
175
1
176
1
 91
1
178
0
145
0.0
170
1
171
1
172
0
173
0
174
0
175
1
176
1
 91
33
178
0
145
0.0
301
CELL_VALUE
 90
4
  1
Interface
304
ACVALUE_END
170
5
140
0.125
171
1
172
0
173
0
174
0
175
2
176
1
 91
33
178
0
145
0.0
301
CELL_VALUE
 90
4
  1
None
304
ACVALUE_END
170
5
140
0.125
171
1
172
0
173
1
174
0
175
1
176
1
 91
1
178
0
145
0.0
170
1
171
1
172
0
173
0
174
0
175
1
176
1
 91
33
178
0
145
0.0
301
CELL_VALUE
 90
4
  1
Open Cavity Quantity
304
ACVALUE_END
170
5
140
0.125
171
1
172
0
173
0
174
0
175
2
176
1
 91
33
178
0
145
0.0
301
CELL_VALUE
 90
4
  1
1
304
ACVALUE_END
170
5
140
0.125
171
1
172
0
173
1
174
0
175
1
176
1
 91
1
178
0
145
0.0
170
1
171
1
172
0
173
0
174
0
175
1
176
1
 91
33
178
0
145
0.0
301
CELL_VALUE
 90
4
  1
Weight
304
ACVALUE_END
170
5
140
0.125
171
1
172
0
173
0
174
0
175
1
176
1
 91
33
178
0
145
0.0
301
CELL_VALUE
 90
4
  1
8.146 lb.
304
ACVALUE_END
170
5
140
0.125
171
1
172
0
173
0
174
0
175
1
176
1
 91
33
178
0
145
0.0
301
CELL_VALUE
 90
4
  1
3,695 kg.
304
ACVALUE_END
170
5
140
0.125
171
1
172
0
173
0
174
0
175
1
176
1
 91
33
178
0
145
0.0
301
CELL_VALUE
 90
4
  1
Mounting Hole Thread
304
ACVALUE_END
170
5
140
0.125
171
1
172
0
173
0
174
0
175
1
176
1
 91
33
178
0
145
0.0
301
CELL_VALUE
 90
4
  1
.375-16 UNC - 2B in.
304
ACVALUE_END
170
5
140
0.125
171
1
172
0
173
0
174
0
175
1
176
1
 91
33
178
0
145
0.0
301
CELL_VALUE
 90
4
  1
 
304
ACVALUE_END
170
5
140
0.125
171
1
172
0
173
0
174
0
175
1
176
1
 91
33
178
0
145
0.0
301
CELL_VALUE
 90
4
  1
Mounting Hole Depth
304
ACVALUE_END
170
5
140
0.125
171
1
172
0
173
0
174
0
175
1
176
1
 91
33
178
0
145
0.0
301
CELL_VALUE
 90
4
  1
.62 in.
304
ACVALUE_END
170
5
140
0.125
171
1
172
0
173
0
174
0
175
1
176
1
 91
33
178
0
145
0.0
301
CELL_VALUE
 90
4
  1
15,7 mm
304
ACVALUE_END
170
5
140
0.125
171
1
172
0
173
0
174
0
175
1
176
1
 91
33
178
0
145
0.0
301
CELL_VALUE
 90
4
  1
Mounting Hole Quantity
304
ACVALUE_END
170
5
140
0.125
171
1
172
0
173
0
174
0
175
2
176
1
 91
33
178
0
145
0.0
301
CELL_VALUE
 90
4
  1
2
304
ACVALUE_END
170
5
140
0.125
171
1
172
0
173
1
174
0
175
1
176
1
 91
1
178
0
145
0.0
170
1
  0
ACAD_TABLE
  5
28B
100
AcDbEntity
  8
0
 62
2
  6
CONTINUOUS
100
AcDbBlockReference
  2
*T3
 10
0.52125
 20
1.959
 30
0.0
100
AcDbTable
342
       3B4
343
209
 11
1.0
 21
0.0
 31
0.0
 90
22
 91
5
 92
3
 93
16
 94
0
 95
0
 96
0
 41
0.05
141
0.34375
141
0.344
141
0.25
141
0.25
141
0.25
142
1.3
142
2.0
142
1.3
171
1
172
0
173
0
174
0
175
3
176
1
 91
33
178
0
145
0.0
301
CELL_VALUE
 90
4
  1
Port Headings
304
ACVALUE_END
170
5
140
0.145
171
1
172
0
173
1
174
0
175
1
176
1
 91
1
178
0
145
0.0
170
1
171
1
172
0
173
1
174
0
175
1
176
1
 91
1
178
0
145
0.0
170
1
171
1
172
0
173
0
174
0
175
1
176
1
 91
33
178
0
145
0.0
301
CELL_VALUE
 90
4
  1
Product
304
ACVALUE_END
170
5
140
0.145
171
1
172
0
173
0
174
0
175
1
176
1
 91
33
178
0
145
0.0
301
CELL_VALUE
 90
4
  1
Port
304
ACVALUE_END
170
5
140
0.145
171
1
172
0
173
0
174
0
175
1
176
1
 91
33
178
0
145
0.0
301
CELL_VALUE
 90
4
  1
Size
304
ACVALUE_END
170
5
140
0.145
171
1
172
0
173
0
174
0
175
1
176
1
 91
33
178
0
145
0.0
301
CELL_VALUE
 90
4
  1
H3L
304
ACVALUE_END
170
5
140
0.125
171
1
172
0
173
0
174
0
175
1
176
1
 91
33
178
0
145
0.0
301
CELL_VALUE
 90
4
  1
Ports 1 &  2
304
ACVALUE_END
170
5
140
0.125
171
1
172
0
173
0
174
0
175
1
176
1
 91
33
178
0
145
0.0
301
CELL_VALUE
 90
4
  1
SAE 12
304
ACVALUE_END
170
5
140
0.125
171
1
172
0
173
0
174
0
175
1
176
1
 91
33
178
0
145
0.0
301
CELL_VALUE
 90
4
  1
H3L
304
ACVALUE_END
170
5
140
0.125
171
1
172
0
173
0
174
0
175
1
176
1
 91
33
178
0
145
0.0
301
CELL_VALUE
 90
4
  1
Port 3
304
ACVALUE_END
170
5
140
0.125
171
1
172
0
173
0
174
0
175
1
176
1
 91
33
178
0
145
0.0
301
CELL_VALUE
 90
4
  1
SAE 6
304
ACVALUE_END
170
5
140
0.125
171
1
172
0
173
0
174
0
175
1
176
1
 91
33
178
0
145
0.0
301
CELL_VALUE
 90
4
  1
H3L
304
ACVALUE_END
170
5
140
0.125
171
1
172
0
173
0
174
0
175
1
176
1
 91
33
178
0
145
0.0
301
CELL_VALUE
 90
4
  1
Gage Port
304
ACVALUE_END
170
5
140
0.125
171
1
172
0
173
0
174
0
175
1
176
1
 91
33
178
0
145
0.0
301
CELL_VALUE
 90
4
  1
1/4" NPTF
304
ACVALUE_END
170
5
140
0.125
  0
MTEXT
  5
28C
100
AcDbEntity
  8
0
100
AcDbMText
 62
2
  6
CONTINUOUS
  7
STANDARD
 71
1
 72
1
 10
0.52125
 20
5.75995
 30
0.0
 11
1.0
 21
0.0
 31
0.0
 44
0.6
  3
Notes\P \P1. Important: Carefully consider\P   the maximum system pressure. The\P   pressure rating of the manifold is\P   dependent on the manifold material,\P   with the port type/size a secondary\P   consideration. Manifolds\P   constructed of alu
  1
minum are not\P   rated for pressures higher than\P   3000 psi (210 bar), regardless of\P   the port type/size specified.
 40
0.1
 41
3.04
  0
LINE
  5
28D
100
AcDbEntity
  8
0
100
AcDbLine
 62
7
  6
CONTINUOUS
 10
0.30125
 20
0.30125
 11
0.30125
 21
16.69875
  0
LINE
  5
28E
100
AcDbEntity
  8
0
100
AcDbLine
 62
7
  6
CONTINUOUS
 10
0.30125
 20
0.30125
 11
21.69875
 21
0.30125
  0
LINE
  5
28F
100
AcDbEntity
  8
0
100
AcDbLine
 62
7
  6
CONTINUOUS
 10
0.30125
 20
16.69875
 11
21.69875
 21
16.69875
  0
LINE
  5
290
100
AcDbEntity
  8
0
100
AcDbLine
 62
7
  6
CONTINUOUS
 10
21.69875
 20
0.30125
 11
21.69875
 21
16.69875
  0
LINE
  5
291
100
AcDbEntity
  8
0
100
AcDbLine
 62
7
  6
CONTINUOUS
 10
8.5505105699
 20
10.8978123844
 11
9.585785896
 21
11.8978116184
  0
LINE
  5
292
100
AcDbEntity
  8
0
100
AcDbLine
 62
7
  6
CONTINUOUS
 10
12.414214104
 20
5.3172712749
 11
8.5505105699
 21
5.585220025
  0
LINE
  5
293
100
AcDbEntity
  8
0
100
AcDbLine
 62
7
  6
CONTINUOUS
 10
10.6261700862
 20
5.1974437344
 11
10.6449291715
 21
5.1881771054
  0
LINE
  5
294
100
AcDbEntity
  8
0
100
AcDbLine
 62
7
  6
CONTINUOUS
 10
8.5505105699
 20
5.585220025
 11
8.5505105699
 21
10.8978123844
  0
LINE
  5
295
100
AcDbEntity
  8
0
100
AcDbLine
 62
4
  6
CONTINUOUS
 10
8.8016513444
 20
9.0451365294
 11
8.8016513444
 21
9.0258180167
  0
LINE
  5
296
100
AcDbEntity
  8
0
100
AcDbLine
 62
4
  6
CONTINUOUS
 10
8.7509402367
 20
8.9810385486
 11
8.7436957927
 21
8.9525631766
  0
LINE
  5
297
100
AcDbEntity
  8
0
100
AcDbLine
 62
4
  6
CONTINUOUS
 10
8.7436957927
 20
9.0491557605
 11
8.7509402367
 21
9.0583126199
  0
LINE
  5
298
100
AcDbEntity
  8
0
100
AcDbLine
 62
4
  6
CONTINUOUS
 10
8.7654291246
 20
8.9993522569
 11
8.7509402367
 21
8.9810385486
  0
LINE
  5
299
100
AcDbEntity
  8
0
100
AcDbLine
 62
4
  6
CONTINUOUS
 10
8.8016513444
 20
9.0258180167
 11
8.7944069005
 21
9.0166611574
  0
LINE
  5
29A
100
AcDbEntity
  8
0
100
AcDbLine
 62
4
  6
CONTINUOUS
 10
10.6634734163
 20
10.2779743224
 11
10.6779623042
 21
10.2866287709
  0
LINE
  5
29B
100
AcDbEntity
  8
0
100
AcDbLine
 62
4
  6
CONTINUOUS
 10
10.7069400801
 20
10.2459821232
 11
10.6924511922
 21
10.2373276678
  0
LINE
  5
29C
100
AcDbEntity
  8
0
100
AcDbLine
 62
4
  6
CONTINUOUS
 10
9.4777995089
 20
6.9041182163
 11
9.4777995089
 21
6.7882071129
  0
LINE
  5
29D
100
AcDbEntity
  8
0
100
AcDbLine
 62
7
  6
CONTINUOUS
 10
11.5887749907
 20
10.988550606
 11
11.5866693965
 21
10.986554797
  0
LINE
  5
29E
100
AcDbEntity
  8
0
100
AcDbLine
 62
4
  6
CONTINUOUS
 10
8.7509402367
 20
9.0583126199
 11
8.7654291246
 21
9.0669670684
  0
LINE
  5
29F
100
AcDbEntity
  8
0
100
AcDbLine
 62
4
  6
CONTINUOUS
 10
10.7069400801
 20
10.1783673108
 11
10.6924511922
 21
10.1697128597
  0
LINE
  5
2A0
100
AcDbEntity
  8
0
100
AcDbLine
 62
4
  6
CONTINUOUS
 10
8.7944069005
 20
9.0166611574
 11
8.7654291246
 21
8.9993522569
  0
LINE
  5
2A1
100
AcDbEntity
  8
0
100
AcDbLine
 62
4
  6
CONTINUOUS
 10
8.7944069005
 20
9.0552981965
 11
8.8016513444
 21
9.0451365294
  0
LINE
  5
2A2
100
AcDbEntity
  8
0
100
AcDbLine
 62
4
  6
CONTINUOUS
 10
10.7141845241
 20
10.2551389756
 11
10.7069400801
 21
10.2459821232
  0
LINE
  5
2A3
100
AcDbEntity
  8
0
100
AcDbLine
 62
4
  6
CONTINUOUS
 10
10.721428968
 20
10.19668102
 11
10.7069400801
 21
10.1783673108
  0
LINE
  5
2A4
100
AcDbEntity
  8
0
100
AcDbLine
 62
4
  6
CONTINUOUS
 10
9.9400639718
 20
8.7736921218
 11
9.9400639718
 21
8.7902508498
  0
LINE
  5
2A5
100
AcDbEntity
  8
0
100
AcDbLine
 62
4
  6
CONTINUOUS
 10
9.9980195235
 20
8.7034379731
 11
9.9980195235
 21
8.7199967029
  0
LINE
  5
2A6
100
AcDbEntity
  8
0
100
AcDbLine
 62
4
  6
CONTINUOUS
 10
10.0311369797
 20
8.8004936434
 11
10.0311369797
 21
8.7011412697
  0
LINE
  5
2A7
100
AcDbEntity
  8
0
100
AcDbLine
 62
4
  6
CONTINUOUS
 10
10.0670142401
 20
8.090947816
 11
10.0670142401
 21
8.2068589194
  0
LINE
  5
2A8
100
AcDbEntity
  8
0
100
AcDbLine
 62
4
  6
CONTINUOUS
 10
10.0890925314
 20
8.6971220386
 11
10.0890925314
 21
8.7964744122
  0
LINE
  5
2A9
100
AcDbEntity
  8
0
100
AcDbLine
 62
4
  6
CONTINUOUS
 10
10.1222099875
 20
8.6782666054
 11
10.1222099875
 21
8.7941777088
  0
LINE
  5
2AA
100
AcDbEntity
  8
0
100
AcDbLine
 62
4
  6
CONTINUOUS
 10
10.1249697849
 20
8.1862809606
 11
10.1249697849
 21
8.1034873151
  0
LINE
  5
2AB
100
AcDbEntity
  8
0
100
AcDbLine
 62
4
  6
CONTINUOUS
 10
10.1801655392
 20
8.6742473742
 11
10.1801655392
 21
8.7901584776
  0
LINE
  5
2AC
100
AcDbEntity
  8
0
100
AcDbLine
 62
4
  6
CONTINUOUS
 10
9.9400639718
 20
8.7902508498
 11
9.9566227016
 21
8.8056612261
  0
LINE
  5
2AD
100
AcDbEntity
  8
0
100
AcDbLine
 62
4
  6
CONTINUOUS
 10
9.9814607954
 20
8.688027595
 11
9.9980195235
 21
8.7034379731
  0
LINE
  5
2AE
100
AcDbEntity
  8
0
100
AcDbLine
 62
4
  6
CONTINUOUS
 10
10.0007793209
 20
8.1452174109
 11
10.0449359326
 21
8.1200768336
  0
LINE
  5
2AF
100
AcDbEntity
  8
0
100
AcDbLine
 62
4
  6
CONTINUOUS
 10
8.7799180125
 20
9.0659622606
 11
8.7944069005
 21
9.0552981965
  0
LINE
  5
2B0
100
AcDbEntity
  8
0
100
AcDbLine
 62
4
  6
CONTINUOUS
 10
10.1084110569
 20
8.2039880404
 11
10.1249697849
 21
8.1862809606
  0
LINE
  5
2B1
100
AcDbEntity
  8
0
100
AcDbLine
 62
4
  6
CONTINUOUS
 10
10.2050036408
 20
8.1972893219
 11
10.2381211107
 21
8.0790815142
  0
LINE
  5
2B2
100
AcDbEntity
  8
0
100
AcDbLine
 62
4
  6
CONTINUOUS
 10
10.3043560032
 20
8.6656347363
 11
10.3043560032
 21
8.7815458397
  0
LINE
  5
2B3
100
AcDbEntity
  8
0
100
AcDbLine
 62
4
  6
CONTINUOUS
 10
10.304356023
 20
8.0744881074
 11
10.304356023
 21
8.1903992108
  0
LINE
  5
2B4
100
AcDbEntity
  8
0
100
AcDbLine
 62
4
  6
CONTINUOUS
 10
10.3540321944
 20
8.7367039605
 11
10.3540321944
 21
8.6621896807
  0
LINE
  5
2B5
100
AcDbEntity
  8
0
100
AcDbLine
 62
4
  6
CONTINUOUS
 10
10.3705909353
 20
8.0698947006
 11
10.3705909353
 21
8.1858058041
  0
LINE
  5
2B6
100
AcDbEntity
  8
0
100
AcDbLine
 62
4
  6
CONTINUOUS
 10
10.3747305503
 20
8.3246120449
 11
10.3747305503
 21
8.4405231483
  0
LINE
  5
2B7
100
AcDbEntity
  8
0
100
AcDbLine
 62
4
  6
CONTINUOUS
 10
10.432686102
 20
8.4365039172
 11
10.432686102
 21
8.3205928138
  0
LINE
  5
2B8
100
AcDbEntity
  8
0
100
AcDbLine
 62
4
  6
CONTINUOUS
 10
10.4589041596
 20
8.6631961501
 11
10.4589041596
 21
8.729431065
  0
LINE
  5
2B9
100
AcDbEntity
  8
0
100
AcDbLine
 62
4
  6
CONTINUOUS
 10
10.1718861846
 20
8.0836749219
 11
10.2050036408
 21
8.1972893219
  0
LINE
  5
2BA
100
AcDbEntity
  8
0
100
AcDbLine
 62
4
  6
CONTINUOUS
 10
10.4037083855
 20
8.6311467433
 11
10.4368258278
 21
8.73924157
  0
LINE
  5
2BB
100
AcDbEntity
  8
0
100
AcDbLine
 62
7
  6
CONTINUOUS
 10
12.414214104
 20
10.6298636342
 11
13.4494894301
 21
11.6298628682
  0
LINE
  5
2BC
100
AcDbEntity
  8
0
100
AcDbLine
 62
4
  6
CONTINUOUS
 10
10.0725338102
 20
8.68171166
 11
10.0890925314
 21
8.6971220386
  0
LINE
  5
2BD
100
AcDbEntity
  8
0
100
AcDbLine
 62
4
  6
CONTINUOUS
 10
9.9400639718
 20
8.6991778394
 11
9.9483433367
 21
8.6903242986
  0
LINE
  5
2BE
100
AcDbEntity
  8
0
100
AcDbLine
 62
4
  6
CONTINUOUS
 10
10.5610163393
 20
8.056688654
 11
10.5444576181
 21
8.074395735
  0
LINE
  5
2BF
100
AcDbEntity
  8
0
100
AcDbLine
 62
4
  6
CONTINUOUS
 10
10.0311369797
 20
8.7011412697
 11
10.0476957077
 21
8.6834341882
  0
LINE
  5
2C0
100
AcDbEntity
  8
0
100
AcDbLine
 62
4
  6
CONTINUOUS
 10
10.6576088886
 20
8.049989938
 11
10.6410501675
 21
8.067697019
  0
LINE
  5
2C1
100
AcDbEntity
  8
0
100
AcDbLine
 62
4
  6
CONTINUOUS
 10
9.9897401595
 20
8.8033645226
 11
9.9980195235
 21
8.7945109792
  0
LINE
  5
2C2
100
AcDbEntity
  8
0
100
AcDbLine
 62
4
  6
CONTINUOUS
 10
10.1222099875
 20
8.7941777088
 11
10.1801655392
 21
8.6742473742
  0
LINE
  5
2C3
100
AcDbEntity
  8
0
100
AcDbLine
 62
7
  6
CONTINUOUS
 10
10.5037662907
 20
5.4497612807
 11
10.5037662907
 21
5.354097809
  0
LINE
  5
2C4
100
AcDbEntity
  8
0
100
AcDbLine
 62
4
  6
CONTINUOUS
 10
10.5085803231
 20
8.767382835
 11
10.5085803231
 21
8.6514717316
  0
LINE
  5
2C5
100
AcDbEntity
  8
0
100
AcDbLine
 62
4
  6
CONTINUOUS
 10
10.5127199578
 20
8.3895567268
 11
10.5127199578
 21
8.4143948224
  0
LINE
  5
2C6
100
AcDbEntity
  8
0
100
AcDbLine
 62
4
  6
CONTINUOUS
 10
10.5154797493
 20
8.3231304197
 11
10.5154797493
 21
8.3645272425
  0
LINE
  5
2C7
100
AcDbEntity
  8
0
100
AcDbLine
 62
4
  6
CONTINUOUS
 10
10.5416978207
 20
8.6491750253
 11
10.5416978207
 21
8.7319686726
  0
LINE
  5
2C8
100
AcDbEntity
  8
0
100
AcDbLine
 62
4
  6
CONTINUOUS
 10
10.5444576181
 20
8.074395735
 11
10.5444576181
 21
8.1571893806
  0
LINE
  5
2C9
100
AcDbEntity
  8
0
100
AcDbLine
 62
4
  6
CONTINUOUS
 10
10.5485972054
 20
8.4284654549
 11
10.5485972054
 21
8.3125543514
  0
LINE
  5
2CA
100
AcDbEntity
  8
0
100
AcDbLine
 62
4
  6
CONTINUOUS
 10
10.5803348183
 20
8.7210098202
 11
10.5803348183
 21
8.7044510922
  0
LINE
  5
2CB
100
AcDbEntity
  8
0
100
AcDbLine
 62
4
  6
CONTINUOUS
 10
10.6162120936
 20
8.6522868079
 11
10.6162120936
 21
8.6771249026
  0
LINE
  5
2CC
100
AcDbEntity
  8
0
100
AcDbLine
 62
4
  6
CONTINUOUS
 10
10.6410501675
 20
8.067697019
 11
10.6410501675
 21
8.1504906645
  0
LINE
  5
2CD
100
AcDbEntity
  8
0
100
AcDbLine
 62
7
  6
CONTINUOUS
 10
10.6646141236
 20
7.2816716237
 11
10.6646141236
 21
7.1607622292
  0
LINE
  5
2CE
100
AcDbEntity
  8
0
100
AcDbLine
 62
4
  6
CONTINUOUS
 10
10.6658882571
 20
8.6405623893
 11
10.6658882571
 21
8.7067973085
  0
LINE
  5
2CF
100
AcDbEntity
  8
0
100
AcDbLine
 62
7
  6
CONTINUOUS
 10
10.6770343952
 20
5.4377450968
 11
10.6770343952
 21
5.1867339582
  0
LINE
  5
2D0
100
AcDbEntity
  8
0
100
AcDbLine
 62
4
  6
CONTINUOUS
 10
10.6990056994
 20
8.7210593342
 11
10.6990056994
 21
8.6465450518
  0
LINE
  5
2D1
100
AcDbEntity
  8
0
100
AcDbLine
 62
4
  6
CONTINUOUS
 10
10.6990057192
 20
8.1464714334
 11
10.6990057192
 21
8.0636777878
  0
LINE
  5
2D2
100
AcDbEntity
  8
0
100
AcDbLine
 62
7
  6
CONTINUOUS
 10
10.7090271906
 20
5.4355263889
 11
10.7090271906
 21
5.1784536239
  0
LINE
  5
2D3
100
AcDbEntity
  8
0
100
AcDbLine
 62
4
  6
CONTINUOUS
 10
10.7141845241
 20
10.2647982319
 11
10.7141845241
 21
10.2551389756
  0
LINE
  5
2D4
100
AcDbEntity
  8
0
100
AcDbLine
 62
4
  6
CONTINUOUS
 10
10.721428968
 20
10.2063402798
 11
10.721428968
 21
10.19668102
  0
LINE
  5
2D5
100
AcDbEntity
  8
0
100
AcDbLine
 62
4
  6
CONTINUOUS
 10
10.7321231615
 20
8.0448223556
 11
10.7321231615
 21
8.160733459
  0
LINE
  5
2D6
100
AcDbEntity
  8
0
100
AcDbLine
 62
4
  6
CONTINUOUS
 10
10.7486819182
 20
8.6348206294
 11
10.7486819182
 21
8.7176142767
  0
LINE
  5
2D7
100
AcDbEntity
  8
0
100
AcDbLine
 62
4
  6
CONTINUOUS
 10
10.1249697849
 20
8.1034873151
 11
10.1084110569
 21
8.088076937
  0
LINE
  5
2D8
100
AcDbEntity
  8
0
100
AcDbLine
 62
4
  6
CONTINUOUS
 10
10.4589041596
 20
8.729431065
 11
10.4754628807
 21
8.7365620813
  0
LINE
  5
2D9
100
AcDbEntity
  8
0
100
AcDbLine
 62
4
  6
CONTINUOUS
 10
10.6162120936
 20
8.6771249026
 11
10.6327708147
 21
8.6842559154
  0
LINE
  5
2DA
100
AcDbEntity
  8
0
100
AcDbLine
 62
4
  6
CONTINUOUS
 10
10.7735199921
 20
8.0419514756
 11
10.7321231615
 21
8.0448223556
  0
LINE
  5
2DB
100
AcDbEntity
  8
0
100
AcDbLine
 62
4
  6
CONTINUOUS
 10
10.682446998
 20
8.0482674092
 11
10.6576088886
 21
8.049989938
  0
LINE
  5
2DC
100
AcDbEntity
  8
0
100
AcDbLine
 62
4
  6
CONTINUOUS
 10
10.5941337816
 20
8.0543919516
 11
10.5610163393
 21
8.056688654
  0
LINE
  5
2DD
100
AcDbEntity
  8
0
100
AcDbLine
 62
4
  6
CONTINUOUS
 10
10.1084110569
 20
8.088076937
 11
10.0670142401
 21
8.090947816
  0
LINE
  5
2DE
100
AcDbEntity
  8
0
100
AcDbLine
 62
4
  6
CONTINUOUS
 10
10.3705909353
 20
8.0698947006
 11
10.4202671265
 21
8.0664496451
  0
LINE
  5
2DF
100
AcDbEntity
  8
0
100
AcDbLine
 62
4
  6
CONTINUOUS
 10
10.8369951543
 20
8.0375494582
 11
10.8866713178
 21
8.0341044045
  0
LINE
  5
2E0
100
AcDbEntity
  8
0
100
AcDbLine
 62
4
  6
CONTINUOUS
 10
10.1829253367
 20
8.1160268137
 11
10.2270819449
 21
8.1129645425
  0
LINE
  5
2E1
100
AcDbEntity
  8
0
100
AcDbLine
 62
4
  6
CONTINUOUS
 10
10.8701125967
 20
8.101487675
 11
10.8369951543
 21
8.1037843774
  0
LINE
  5
2E2
100
AcDbEntity
  8
0
100
AcDbLine
 62
4
  6
CONTINUOUS
 10
10.4037084053
 20
8.1338329155
 11
10.3705909353
 21
8.1361296198
  0
LINE
  5
2E3
100
AcDbEntity
  8
0
100
AcDbLine
 62
4
  6
CONTINUOUS
 10
10.0670142401
 20
8.2068589194
 11
10.1084110569
 21
8.2039880404
  0
LINE
  5
2E4
100
AcDbEntity
  8
0
100
AcDbLine
 62
4
  6
CONTINUOUS
 10
10.2712385531
 20
8.1926959152
 11
10.3374734654
 21
8.1881025084
  0
LINE
  5
2E5
100
AcDbEntity
  8
0
100
AcDbLine
 62
4
  6
CONTINUOUS
 10
10.3705909353
 20
8.1858058041
 11
10.4202671265
 21
8.1823607485
  0
LINE
  5
2E6
100
AcDbEntity
  8
0
100
AcDbLine
 62
4
  6
CONTINUOUS
 10
10.5610163393
 20
8.1725997575
 11
10.5941337816
 21
8.170303055
  0
LINE
  5
2E7
100
AcDbEntity
  8
0
100
AcDbLine
 62
4
  6
CONTINUOUS
 10
10.6576088886
 20
8.1659010414
 11
10.682446998
 21
8.1641785127
  0
LINE
  5
2E8
100
AcDbEntity
  8
0
100
AcDbLine
 62
4
  6
CONTINUOUS
 10
10.7321231615
 20
8.160733459
 11
10.7735199921
 21
8.1578625791
  0
LINE
  5
2E9
100
AcDbEntity
  8
0
100
AcDbLine
 62
4
  6
CONTINUOUS
 10
10.8369951543
 20
8.1534605616
 11
10.8866713178
 21
8.150015508
  0
LINE
  5
2EA
100
AcDbEntity
  8
0
100
AcDbLine
 62
4
  6
CONTINUOUS
 10
10.9197887602
 20
8.1035621974
 11
10.9639453684
 21
8.0784216186
  0
LINE
  5
2EB
100
AcDbEntity
  8
0
100
AcDbLine
 62
4
  6
CONTINUOUS
 10
9.9980195235
 20
8.7199967029
 11
9.9400639718
 21
8.7736921218
  0
LINE
  5
2EC
100
AcDbEntity
  8
0
100
AcDbLine
 62
4
  6
CONTINUOUS
 10
10.682446998
 20
8.1641785127
 11
10.6990057192
 21
8.1464714334
  0
LINE
  5
2ED
100
AcDbEntity
  8
0
100
AcDbLine
 62
4
  6
CONTINUOUS
 10
10.5154797493
 20
8.3645272425
 11
10.4989210143
 21
8.3822343262
  0
LINE
  5
2EE
100
AcDbEntity
  8
0
100
AcDbLine
 62
4
  6
CONTINUOUS
 10
10.7735199921
 20
8.1578625791
 11
10.7900787132
 21
8.1401554998
  0
LINE
  5
2EF
100
AcDbEntity
  8
0
100
AcDbLine
 62
4
  6
CONTINUOUS
 10
10.3457528338
 20
8.7455575036
 11
10.3540321944
 21
8.7367039605
  0
LINE
  5
2F0
100
AcDbEntity
  8
0
100
AcDbLine
 62
4
  6
CONTINUOUS
 10
10.5127199578
 20
8.4143948224
 11
10.4989210143
 21
8.4319105104
  0
LINE
  5
2F1
100
AcDbEntity
  8
0
100
AcDbLine
 62
4
  6
CONTINUOUS
 10
10.3871496643
 20
8.7426866237
 11
10.4119877737
 21
8.6581704476
  0
LINE
  5
2F2
100
AcDbEntity
  8
0
100
AcDbLine
 62
4
  6
CONTINUOUS
 10
10.7817993605
 20
8.6408032919
 11
10.7817993605
 21
8.7484350304
  0
LINE
  5
2F3
100
AcDbEntity
  8
0
100
AcDbLine
 62
4
  6
CONTINUOUS
 10
10.7900787132
 20
8.1401554998
 11
10.7900787132
 21
8.0573618542
  0
LINE
  5
2F4
100
AcDbEntity
  8
0
100
AcDbLine
 62
4
  6
CONTINUOUS
 10
10.8369951543
 20
8.0375494582
 11
10.8369951543
 21
8.1534605616
  0
LINE
  5
2F5
100
AcDbEntity
  8
0
100
AcDbLine
 62
4
  6
CONTINUOUS
 10
10.8563136334
 20
8.6273563446
 11
10.8563136334
 21
8.7101499919
  0
LINE
  5
2F6
100
AcDbEntity
  8
0
100
AcDbLine
 62
4
  6
CONTINUOUS
 10
10.8563136334
 20
8.7349880806
 11
10.8563136334
 21
8.7432674481
  0
LINE
  5
2F7
100
AcDbEntity
  8
0
100
AcDbLine
 62
4
  6
CONTINUOUS
 10
10.9004702416
 20
8.6325734383
 11
10.9004702416
 21
8.6988083532
  0
LINE
  5
2F8
100
AcDbEntity
  8
0
100
AcDbLine
 62
4
  6
CONTINUOUS
 10
10.9749845697
 20
8.6688026749
 11
10.9749845697
 21
8.693640767
  0
LINE
  5
2F9
100
AcDbEntity
  8
0
100
AcDbLine
 62
4
  6
CONTINUOUS
 10
11.024660678
 20
8.6239608023
 11
11.024660678
 21
8.648798897
  0
LINE
  5
2FA
100
AcDbEntity
  8
0
100
AcDbLine
 62
4
  6
CONTINUOUS
 10
10.859073411
 20
8.7430760568
 11
10.8563136334
 21
8.7349880806
  0
LINE
  5
2FB
100
AcDbEntity
  8
0
100
AcDbLine
 62
4
  6
CONTINUOUS
 10
10.9004702416
 20
8.6988083532
 11
10.9087495745
 21
8.706513547
  0
LINE
  5
2FC
100
AcDbEntity
  8
0
100
AcDbLine
 62
4
  6
CONTINUOUS
 10
10.5072003887
 20
8.3154252304
 11
10.5154797493
 21
8.3231304197
  0
LINE
  5
2FD
100
AcDbEntity
  8
0
100
AcDbLine
 62
4
  6
CONTINUOUS
 10
10.9749845697
 20
8.693640767
 11
10.9832639027
 21
8.7013459608
  0
LINE
  5
2FE
100
AcDbEntity
  8
0
100
AcDbLine
 62
4
  6
CONTINUOUS
 10
11.016381345
 20
8.6162556111
 11
11.024660678
 21
8.6239608023
  0
LINE
  5
2FF
100
AcDbEntity
  8
0
100
AcDbLine
 62
4
  6
CONTINUOUS
 10
10.5444576181
 20
8.1571893806
 11
10.5610163393
 21
8.1725997575
  0
LINE
  5
300
100
AcDbEntity
  8
0
100
AcDbLine
 62
4
  6
CONTINUOUS
 10
10.6410501675
 20
8.1504906645
 11
10.6576088886
 21
8.1659010414
  0
LINE
  5
301
100
AcDbEntity
  8
0
100
AcDbLine
 62
4
  6
CONTINUOUS
 10
10.4989210143
 20
8.3822343262
 11
10.5127199578
 21
8.3895567268
  0
LINE
  5
302
100
AcDbEntity
  8
0
100
AcDbLine
 62
4
  6
CONTINUOUS
 10
10.0449359326
 20
8.164233447
 11
10.0007793209
 21
8.1452174109
  0
LINE
  5
303
100
AcDbEntity
  8
0
100
AcDbLine
 62
4
  6
CONTINUOUS
 10
10.4658035581
 20
8.3182961104
 11
10.5072003887
 21
8.3154252304
  0
LINE
  5
304
100
AcDbEntity
  8
0
100
AcDbLine
 62
4
  6
CONTINUOUS
 10
10.5485972054
 20
8.3125543514
 11
10.5899940222
 21
8.3096834724
  0
LINE
  5
305
100
AcDbEntity
  8
0
100
AcDbLine
 62
4
  6
CONTINUOUS
 10
10.4989210143
 20
8.3822343262
 11
10.4823622862
 21
8.3833826779
  0
LINE
  5
306
100
AcDbEntity
  8
0
100
AcDbLine
 62
4
  6
CONTINUOUS
 10
10.3747305503
 20
8.3908469641
 11
10.432686102
 21
8.386827733
  0
LINE
  5
307
100
AcDbEntity
  8
0
100
AcDbLine
 62
4
  6
CONTINUOUS
 10
10.4989210143
 20
8.4319105104
 11
10.4658035581
 21
8.4342072138
  0
LINE
  5
308
100
AcDbEntity
  8
0
100
AcDbLine
 62
4
  6
CONTINUOUS
 10
10.4754628807
 20
8.653768434
 11
10.4589041596
 21
8.6631961501
  0
LINE
  5
309
100
AcDbEntity
  8
0
100
AcDbLine
 62
4
  6
CONTINUOUS
 10
10.6327708147
 20
8.6428590917
 11
10.6162120936
 21
8.6522868079
  0
LINE
  5
30A
100
AcDbEntity
  8
0
100
AcDbLine
 62
4
  6
CONTINUOUS
 10
10.6990056994
 20
8.6465450518
 11
10.7072850876
 21
8.6376915094
  0
LINE
  5
30B
100
AcDbEntity
  8
0
100
AcDbLine
 62
4
  6
CONTINUOUS
 10
10.7900787487
 20
8.6319497495
 11
10.7817993605
 21
8.6408032919
  0
LINE
  5
30C
100
AcDbEntity
  8
0
100
AcDbLine
 62
4
  6
CONTINUOUS
 10
10.9087495745
 20
8.6237198997
 11
10.9004702416
 21
8.6325734383
  0
LINE
  5
30D
100
AcDbEntity
  8
0
100
AcDbLine
 62
4
  6
CONTINUOUS
 10
10.574815263
 20
8.7296719702
 11
10.5803348183
 21
8.7210098202
  0
LINE
  5
30E
100
AcDbEntity
  8
0
100
AcDbLine
 62
4
  6
CONTINUOUS
 10
10.6658882571
 20
8.7067973085
 11
10.6576089241
 21
8.7239302103
  0
LINE
  5
30F
100
AcDbEntity
  8
0
100
AcDbLine
 62
4
  6
CONTINUOUS
 10
10.6990057192
 20
8.0636777878
 11
10.682446998
 21
8.0482674092
  0
LINE
  5
310
100
AcDbEntity
  8
0
100
AcDbLine
 62
4
  6
CONTINUOUS
 10
10.7900787132
 20
8.0573618542
 11
10.7735199921
 21
8.0419514756
  0
LINE
  5
311
100
AcDbEntity
  8
0
100
AcDbLine
 62
4
  6
CONTINUOUS
 10
10.3871496643
 20
8.6322950945
 11
10.4037083855
 21
8.6311467433
  0
LINE
  5
312
100
AcDbEntity
  8
0
100
AcDbLine
 62
4
  6
CONTINUOUS
 10
10.9418671274
 20
8.6214231897
 11
10.9087495745
 21
8.6237198997
  0
LINE
  5
313
100
AcDbEntity
  8
0
100
AcDbLine
 62
4
  6
CONTINUOUS
 10
10.8066374699
 20
8.6308013983
 11
10.7900787487
 21
8.6319497495
  0
LINE
  5
314
100
AcDbEntity
  8
0
100
AcDbLine
 62
4
  6
CONTINUOUS
 10
10.6658882571
 20
8.6405623893
 11
10.6327708147
 21
8.6428590917
  0
LINE
  5
315
100
AcDbEntity
  8
0
100
AcDbLine
 62
4
  6
CONTINUOUS
 10
10.5085803231
 20
8.6514717316
 11
10.4754628807
 21
8.653768434
  0
LINE
  5
316
100
AcDbEntity
  8
0
100
AcDbLine
 62
4
  6
CONTINUOUS
 10
9.9483433367
 20
8.6903242986
 11
9.9814607954
 21
8.688027595
  0
LINE
  5
317
100
AcDbEntity
  8
0
100
AcDbLine
 62
4
  6
CONTINUOUS
 10
10.0476957077
 20
8.6834341882
 11
10.0725338102
 21
8.68171166
  0
LINE
  5
318
100
AcDbEntity
  8
0
100
AcDbLine
 62
4
  6
CONTINUOUS
 10
10.7072850876
 20
8.6376915094
 11
10.7486819182
 21
8.6348206294
  0
LINE
  5
319
100
AcDbEntity
  8
0
100
AcDbLine
 62
4
  6
CONTINUOUS
 10
10.9832639027
 20
8.6185523135
 11
11.016381345
 21
8.6162556111
  0
LINE
  5
31A
100
AcDbEntity
  8
0
100
AcDbLine
 62
4
  6
CONTINUOUS
 10
10.6327708147
 20
8.6842559154
 11
10.6658882571
 21
8.681959213
  0
LINE
  5
31B
100
AcDbEntity
  8
0
100
AcDbLine
 62
4
  6
CONTINUOUS
 10
10.6576089241
 20
8.7239302103
 11
10.6162120936
 21
8.7268010902
  0
LINE
  5
31C
100
AcDbEntity
  8
0
100
AcDbLine
 62
4
  6
CONTINUOUS
 10
10.3043560032
 20
8.7484283836
 11
10.3457528338
 21
8.7455575036
  0
LINE
  5
31D
100
AcDbEntity
  8
0
100
AcDbLine
 62
4
  6
CONTINUOUS
 10
10.4754628807
 20
8.7365620813
 11
10.5085803231
 21
8.7342653789
  0
LINE
  5
31E
100
AcDbEntity
  8
0
100
AcDbLine
 62
4
  6
CONTINUOUS
 10
10.5416978207
 20
8.7319686726
 11
10.574815263
 21
8.7296719702
  0
LINE
  5
31F
100
AcDbEntity
  8
0
100
AcDbLine
 62
4
  6
CONTINUOUS
 10
10.9087495745
 20
8.706513547
 11
10.9418671274
 21
8.7042168369
  0
LINE
  5
320
100
AcDbEntity
  8
0
100
AcDbLine
 62
4
  6
CONTINUOUS
 10
10.9832639027
 20
8.7013459608
 11
11.016381345
 21
8.6990492584
  0
LINE
  5
321
100
AcDbEntity
  8
0
100
AcDbLine
 62
4
  6
CONTINUOUS
 10
9.9566227016
 20
8.8056612261
 11
9.9897401595
 21
8.8033645226
  0
LINE
  5
322
100
AcDbEntity
  8
0
100
AcDbLine
 62
4
  6
CONTINUOUS
 10
10.8563136334
 20
8.7432674481
 11
10.859073411
 21
8.7430760568
  0
LINE
  5
323
100
AcDbEntity
  8
0
100
AcDbLine
 62
4
  6
CONTINUOUS
 10
8.7436957927
 20
8.9525631766
 11
8.8016513444
 21
8.9485439455
  0
LINE
  5
324
100
AcDbEntity
  8
0
100
AcDbLine
 62
4
  6
CONTINUOUS
 10
12.1727326332
 20
8.7147586641
 11
12.2306881849
 21
8.7107394329
  0
LINE
  5
325
100
AcDbEntity
  8
0
100
AcDbLine
 62
4
  6
CONTINUOUS
 10
11.016381345
 20
8.6548926467
 11
10.9832639027
 21
8.6627089252
  0
LINE
  5
326
100
AcDbEntity
  8
0
100
AcDbLine
 62
4
  6
CONTINUOUS
 10
10.9832639027
 20
8.6627089252
 11
10.9749845697
 21
8.6688026749
  0
LINE
  5
327
100
AcDbEntity
  8
0
100
AcDbLine
 62
4
  6
CONTINUOUS
 10
11.024660678
 20
8.648798897
 11
11.016381345
 21
8.6548926467
  0
LINE
  5
328
100
AcDbEntity
  8
0
100
AcDbLine
 62
4
  6
CONTINUOUS
 10
10.9749845697
 20
8.6274058521
 11
10.9832639027
 21
8.6185523135
  0
LINE
  5
329
100
AcDbEntity
  8
0
100
AcDbLine
 62
4
  6
CONTINUOUS
 10
11.016381345
 20
8.6990492584
 11
11.024660678
 21
8.6901957172
  0
LINE
  5
32A
100
AcDbEntity
  8
0
100
AcDbLine
 62
7
  6
CONTINUOUS
 10
11.3556720646
 20
5.3906814146
 11
11.3556720646
 21
5.1336086496
  0
LINE
  5
32B
100
AcDbEntity
  8
0
100
AcDbLine
 62
7
  6
CONTINUOUS
 10
11.3993750235
 20
5.3876506041
 11
11.3993750235
 21
5.1366394655
  0
LINE
  5
32C
100
AcDbEntity
  8
0
100
AcDbLine
 62
4
  6
CONTINUOUS
 10
12.1799770771
 20
8.8205081073
 11
12.194465965
 21
8.8291625558
  0
LINE
  5
32D
100
AcDbEntity
  8
0
100
AcDbLine
 62
4
  6
CONTINUOUS
 10
12.2234437409
 20
8.7788566448
 11
12.194465965
 21
8.7615477443
  0
LINE
  5
32E
100
AcDbEntity
  8
0
100
AcDbLine
 62
4
  6
CONTINUOUS
 10
10.9639453684
 20
8.0784216186
 11
10.9197887602
 21
8.059405584
  0
LINE
  5
32F
100
AcDbEntity
  8
0
100
AcDbLine
 62
4
  6
CONTINUOUS
 10
8.7654291246
 20
9.0669670684
 11
8.7799180125
 21
9.0659622606
  0
LINE
  5
330
100
AcDbEntity
  8
0
100
AcDbLine
 62
4
  6
CONTINUOUS
 10
12.194465965
 20
8.8291625558
 11
12.208954853
 21
8.828157748
  0
LINE
  5
331
100
AcDbEntity
  8
0
100
AcDbLine
 62
7
  6
CONTINUOUS
 10
11.8727517929
 20
5.3548218137
 11
11.8727517929
 21
5.259158342
  0
LINE
  5
332
100
AcDbEntity
  8
0
100
AcDbLine
 62
4
  6
CONTINUOUS
 10
12.1727326332
 20
8.811351248
 11
12.1799770771
 21
8.8205081073
  0
LINE
  5
333
100
AcDbEntity
  8
0
100
AcDbLine
 62
4
  6
CONTINUOUS
 10
12.194465965
 20
8.7615477443
 11
12.1799770771
 21
8.743234036
  0
LINE
  5
334
100
AcDbEntity
  8
0
100
AcDbLine
 62
4
  6
CONTINUOUS
 10
12.2306881849
 20
8.7880135042
 11
12.2234437409
 21
8.7788566448
  0
LINE
  5
335
100
AcDbEntity
  8
0
100
AcDbLine
 62
4
  6
CONTINUOUS
 10
10.6634734163
 20
10.1813817342
 11
10.6562289723
 21
10.191543397
  0
LINE
  5
336
100
AcDbEntity
  8
0
100
AcDbLine
 62
4
  6
CONTINUOUS
 10
10.7069400801
 20
10.2266636036
 11
10.721428968
 21
10.2063402798
  0
LINE
  5
337
100
AcDbEntity
  8
0
100
AcDbLine
 62
4
  6
CONTINUOUS
 10
10.7069400801
 20
10.274959899
 11
10.7141845241
 21
10.2647982319
  0
LINE
  5
338
100
AcDbEntity
  8
0
100
AcDbLine
 62
7
  6
CONTINUOUS
 10
11.8844619565
 20
5.3540097111
 11
11.8844619565
 21
5.2704694921
  0
LINE
  5
339
100
AcDbEntity
  8
0
100
AcDbLine
 62
4
  6
CONTINUOUS
 10
12.1799770771
 20
8.743234036
 11
12.1727326332
 21
8.7147586641
  0
LINE
  5
33A
100
AcDbEntity
  8
0
100
AcDbLine
 62
4
  6
CONTINUOUS
 10
12.208954853
 20
8.828157748
 11
12.2234437409
 21
8.8174936839
  0
LINE
  5
33B
100
AcDbEntity
  8
0
100
AcDbLine
 62
4
  6
CONTINUOUS
 10
12.2306881849
 20
8.8073320168
 11
12.2306881849
 21
8.7880135042
  0
LINE
  5
33C
100
AcDbEntity
  8
0
100
AcDbLine
 62
7
  6
CONTINUOUS
 10
12.414214104
 20
5.3172712749
 11
12.414214104
 21
10.6298636342
  0
LINE
  5
33D
100
AcDbEntity
  8
0
100
AcDbLine
 62
4
  6
CONTINUOUS
 10
10.6779623042
 20
10.1707176675
 11
10.6634734163
 21
10.1813817342
  0
LINE
  5
33E
100
AcDbEntity
  8
0
100
AcDbLine
 62
4
  6
CONTINUOUS
 10
10.6924511922
 20
10.2373276678
 11
10.7069400801
 21
10.2266636036
  0
LINE
  5
33F
100
AcDbEntity
  8
0
100
AcDbLine
 62
4
  6
CONTINUOUS
 10
10.6924511922
 20
10.2856239632
 11
10.7069400801
 21
10.274959899
  0
LINE
  5
340
100
AcDbEntity
  8
0
100
AcDbLine
 62
4
  6
CONTINUOUS
 10
12.2234437409
 20
8.8174936839
 11
12.2306881849
 21
8.8073320168
  0
LINE
  5
341
100
AcDbEntity
  8
0
100
AcDbLine
 62
4
  6
CONTINUOUS
 10
10.6924511922
 20
10.1697128597
 11
10.6779623042
 21
10.1707176675
  0
LINE
  5
342
100
AcDbEntity
  8
0
100
AcDbLine
 62
4
  6
CONTINUOUS
 10
10.6779623042
 20
10.2383324755
 11
10.6924511922
 21
10.2373276678
  0
LINE
  5
343
100
AcDbEntity
  8
0
100
AcDbLine
 62
4
  6
CONTINUOUS
 10
10.6779623042
 20
10.2866287709
 11
10.6924511922
 21
10.2856239632
  0
LINE
  5
344
100
AcDbEntity
  8
0
100
AcDbLine
 62
7
  6
CONTINUOUS
 10
12.7053852895
 20
7.1971283966
 11
12.7060702823
 21
7.1977778154
  0
LINE
  5
345
100
AcDbEntity
  8
0
100
AcDbLine
 62
7
  6
CONTINUOUS
 10
12.414214104
 20
10.6298636342
 11
8.5505105699
 21
10.8978123844
  0
LINE
  5
346
100
AcDbEntity
  8
0
100
AcDbLine
 62
7
  6
CONTINUOUS
 10
13.4494894301
 20
11.6298628682
 11
13.4494894301
 21
6.3172705088
  0
LINE
  5
347
100
AcDbEntity
  8
0
100
AcDbLine
 62
7
  6
CONTINUOUS
 10
13.4494894301
 20
6.3172705088
 11
12.414214104
 21
5.3172712749
  0
LINE
  5
348
100
AcDbEntity
  8
0
100
AcDbLine
 62
7
  6
CONTINUOUS
 10
11.7746818261
 20
5.2036795832
 11
11.7432990757
 21
5.1881771054
  0
LINE
  5
349
100
AcDbEntity
  8
0
100
AcDbLine
 62
7
  6
CONTINUOUS
 10
13.4494894301
 20
11.6298628682
 11
9.585785896
 21
11.8978116184
  0
ARC
  5
34A
100
AcDbEntity
  8
0
100
AcDbCircle
 62
7
  6
CONTINUOUS
 10
8.2873598213
 20
10.3902456036
 40
3.2674836435
100
AcDbArc
 50
357.4184895957
 51
358.3577661183
  0
ARC
  5
34B
100
AcDbEntity
  8
0
100
AcDbCircle
 62
7
  6
CONTINUOUS
 10
11.2062314109
 20
7.6050771688
 40
2.4759824616
100
AcDbArc
 50
273.460253038
 51
274.4740090323
  0
ARC
  5
34C
100
AcDbEntity
  8
0
100
AcDbCircle
 62
7
  6
CONTINUOUS
 10
10.9640880493
 20
6.2298799359
 40
1.0819211298
100
AcDbArc
 50
254.6141230724
 51
256.3642747627
  0
ARC
  5
34D
100
AcDbEntity
  8
0
100
AcDbCircle
 62
7
  6
CONTINUOUS
 10
11.3964502437
 20
5.9675926605
 40
0.8524210625
100
AcDbArc
 50
293.9860710649
 51
296.3129872661
  0
ARC
  5
34E
100
AcDbEntity
  8
0
100
AcDbCircle
 62
7
  6
CONTINUOUS
 10
10.5317502309
 20
6.7857229812
 40
0.5142995953
100
AcDbArc
 50
355.9042663731
 51
357.975642053
  0
ARC
  5
34F
100
AcDbEntity
  8
0
100
AcDbCircle
 62
7
  6
CONTINUOUS
 10
10.8170763317
 20
6.8850194338
 40
0.4297626923
100
AcDbArc
 50
111.822136718
 51
115.0689187004
  0
ARC
  5
350
100
AcDbEntity
  8
0
100
AcDbCircle
 62
7
  6
CONTINUOUS
 10
11.3800625708
 20
10.0637269105
 40
0.4283320577
100
AcDbArc
 50
312.4667075194
 51
313.131538866
  0
ARC
  5
351
100
AcDbEntity
  8
0
100
AcDbCircle
 62
7
  6
CONTINUOUS
 10
11.2915842615
 20
10.1553259672
 40
0.4283148542
100
AcDbArc
 50
134.5842866698
 51
135.5470096428
  0
ARC
  5
352
100
AcDbEntity
  8
0
100
AcDbCircle
 62
7
  6
CONTINUOUS
 10
11.3414755227
 20
10.0886482424
 40
0.2928253144
100
AcDbArc
 50
349.3351665064
 51
0.0338997592
  0
ARC
  5
353
100
AcDbEntity
  8
0
100
AcDbCircle
 62
7
  6
CONTINUOUS
 10
11.6687483051
 20
10.4291523359
 40
0.2199206088
100
AcDbArc
 50
237.7906554048
 51
251.5498690782
  0
ARC
  5
354
100
AcDbEntity
  8
0
100
AcDbCircle
 62
7
  6
CONTINUOUS
 10
11.7837271721
 20
5.3634645303
 40
0.137131922
100
AcDbArc
 50
310.4805308012
 51
313.9817446454
  0
ARC
  5
355
100
AcDbEntity
  8
0
100
AcDbCircle
 62
7
  6
CONTINUOUS
 10
10.6711822391
 20
5.2847073648
 40
0.0981089067
100
AcDbArc
 50
254.8737411393
 51
256.015771027
  0
ARC
  5
356
100
AcDbEntity
  8
0
100
AcDbCircle
 62
7
  6
CONTINUOUS
 10
10.7010111646
 20
7.155435039
 40
0.0384332973
100
AcDbArc
 50
163.5905206336
 51
168.9769998942
  0
LINE
  5
357
100
AcDbEntity
  8
0
100
AcDbLine
 62
7
  6
CONTINUOUS
 10
11.8844619565
 20
5.2704694921
 11
11.878955575
 21
5.2647897346
  0
SPLINE
  5
358
100
AcDbEntity
  8
0
100
AcDbSpline
 62
7
  6
CONTINUOUS
 70
0
 71
3
 72
9
 73
5
 74
0
 42
0.0000001
 43
0.0000001
 44
0.0000000001
 40
0.0
 40
0.0
 40
0.0
 40
0.0
 40
0.5046579896
 40
1.0
 40
1.0
 40
1.0
 40
1.0
 10
11.8727517929
 20
5.259158342
 30
0.0
 10
11.8566584804
 20
5.2490008434
 30
0.0
 10
11.8243406796
 20
5.2295405496
 30
0.0
 10
11.7910522795
 20
5.2117712147
 30
0.0
 10
11.7743066673
 20
5.2034943743
 30
0.0
  0
SPLINE
  5
359
100
AcDbEntity
  8
0
100
AcDbSpline
 62
7
  6
CONTINUOUS
 70
0
 71
3
 72
23
 73
19
 74
0
 42
0.0000001
 43
0.0000001
 44
0.0000000001
 40
0.0
 40
0.0
 40
0.0
 40
0.0
 40
0.086072304
 40
0.1696903033
 40
0.2506605981
 40
0.3288009214
 40
0.4039400454
 40
0.4759181343
 40
0.544589525
 40
0.609824216
 40
0.6715098023
 40
0.7295546361
 40
0.7838905143
 40
0.8344785873
 40
0.8813141233
 40
0.9244373139
 40
0.9639429834
 40
1.0
 40
1.0
 40
1.0
 40
1.0
 10
10.9313684451
 20
7.0706079637
 30
0.0
 10
10.9232673948
 20
7.0717588391
 30
0.0
 10
10.9073148706
 20
7.07416136
 30
0.0
 10
10.8838178212
 20
7.0781317479
 30
0.0
 10
10.8611413507
 20
7.0824087776
 30
0.0
 10
10.839345369
 20
7.0869810942
 30
0.0
 10
10.8184872518
 20
7.0918364422
 30
0.0
 10
10.798621937
 20
7.0969618975
 30
0.0
 10
10.7798017007
 20
7.1023438046
 30
0.0
 10
10.762075894
 20
7.1079677488
 30
0.0
 10
10.7454908726
 20
7.1138188795
 30
0.0
 10
10.7300897297
 20
7.1198815457
 30
0.0
 10
10.7159123069
 20
7.12614001
 30
0.0
 10
10.7029947038
 20
7.1325778067
 30
0.0
 10
10.6913697023
 20
7.1391788655
 30
0.0
 10
10.6810653664
 20
7.1459272392
 30
0.0
 10
10.6721083202
 20
7.1528068823
 30
0.0
 10
10.6668168961
 20
7.1576859942
 30
0.0
 10
10.6644326452
 20
7.1601486516
 30
0.0
  0
SPLINE
  5
35A
100
AcDbEntity
  8
0
100
AcDbSpline
 62
7
  6
CONTINUOUS
 70
0
 71
3
 72
23
 73
19
 74
0
 42
0.0000001
 43
0.0000001
 44
0.0000000001
 40
0.0
 40
0.0
 40
0.0
 40
0.0
 40
0.0433457487
 40
0.0887141091
 40
0.1363573647
 40
0.1864949178
 40
0.2392956118
 40
0.2948831072
 40
0.3533267235
 40
0.4146494686
 40
0.4788289665
 40
0.5458050177
 40
0.6154867711
 40
0.6877590178
 40
0.7624900115
 40
0.8395391943
 40
0.9187591375
 40
1.0
 40
1.0
 40
1.0
 40
1.0
 10
10.6267707197
 20
5.1971471997
 30
0.0
 10
10.6241472945
 20
5.1984412733
 30
0.0
 10
10.618879903
 20
5.2013010559
 30
0.0
 10
10.6111289599
 20
5.2062746558
 30
0.0
 10
10.603366717
 20
5.212037504
 30
0.0
 10
10.5956003021
 20
5.2186007196
 30
0.0
 10
10.5878337238
 20
5.2259659492
 30
0.0
 10
10.5800731764
 20
5.2341290547
 30
0.0
 10
10.5723230577
 20
5.2430770687
 30
0.0
 10
10.5645885068
 20
5.2527907895
 30
0.0
 10
10.5568738277
 20
5.2632445046
 30
0.0
 10
10.5491827693
 20
5.2744072875
 30
0.0
 10
10.5415188622
 20
5.2862444629
 30
0.0
 10
10.5338845009
 20
5.2987182442
 30
0.0
 10
10.5262818854
 20
5.3117896152
 30
0.0
 10
10.5187122545
 20
5.3254187996
 30
0.0
 10
10.5111764942
 20
5.3395662754
 30
0.0
 10
10.5062347834
 20
5.3492023309
 30
0.0
 10
10.5037662907
 20
5.354097809
 30
0.0
  0
SPLINE
  5
35B
100
AcDbEntity
  8
0
100
AcDbSpline
 62
7
  6
CONTINUOUS
 70
0
 71
3
 72
46
 73
42
 74
0
 42
0.0000001
 43
0.0000001
 44
0.0000000001
 40
0.0
 40
0.0
 40
0.0
 40
0.0
 40
0.009987442
 40
0.0204476137
 40
0.0313771087
 40
0.042770719
 40
0.0546216827
 40
0.0669224299
 40
0.0796639586
 40
0.092836054
 40
0.1204269473
 40
0.1495982457
 40
0.1802404493
 40
0.2122336402
 40
0.2454488195
 40
0.2797495924
 40
0.3149928343
 40
0.3510297406
 40
0.3877071311
 40
0.4248680709
 40
0.4623528245
 40
0.4999999707
 40
0.5376471181
 40
0.5751319032
 40
0.6122928703
 40
0.6489702712
 40
0.6850072643
 40
0.7202505753
 40
0.7545513746
 40
0.7877666801
 40
0.8197599616
 40
0.8504022183
 40
0.879573693
 40
0.9071646914
 40
0.9330772419
 40
0.9453781444
 40
0.9572291907
 40
0.9686227884
 40
0.9795523871
 40
0.9900125566
 40
1.0
 40
1.0
 40
1.0
 40
1.0
 10
11.7433044122
 20
5.1881798047
 30
0.0
 10
11.7399636493
 20
5.1865295027
 30
0.0
 10
11.7330669465
 20
5.1832653378
 30
0.0
 10
11.7223402118
 20
5.1785740025
 30
0.0
 10
11.7110035147
 20
5.1739795634
 30
0.0
 10
11.6990700378
 20
5.1694873506
 30
0.0
 10
11.6865534922
 20
5.1651022597
 30
0.0
 10
11.6734681369
 20
5.1608296806
 30
0.0
 10
11.6598290128
 20
5.1566744124
 30
0.0
 10
11.6406282433
 20
5.1512121563
 30
0.0
 10
11.6153475247
 20
5.1447379572
 30
0.0
 10
11.5835194444
 20
5.1376234081
 30
0.0
 10
11.5498942002
 20
5.1310819396
 30
0.0
 10
11.5146267967
 20
5.1251441472
 30
0.0
 10
11.4778795893
 20
5.1198376568
 30
0.0
 10
11.439822015
 20
5.1151874582
 30
0.0
 10
11.4006296403
 20
5.1112153827
 30
0.0
 10
11.3604834011
 20
5.1079397808
 30
0.0
 10
11.3195686567
 20
5.1053760852
 30
0.0
 10
11.2780743569
 20
5.103536366
 30
0.0
 10
11.2361921888
 20
5.1024289965
 30
0.0
 10
11.1941156389
 20
5.1020592536
 30
0.0
 10
11.1520390777
 20
5.1024289776
 30
0.0
 10
11.110156884
 20
5.1035362282
 30
0.0
 10
11.0686625566
 20
5.1053759217
 30
0.0
 10
11.0277477657
 20
5.1079396074
 30
0.0
 10
10.9876014548
 20
5.1112150928
 30
0.0
 10
10.9484090083
 20
5.1151871368
 30
0.0
 10
10.9103513499
 20
5.1198373404
 30
0.0
 10
10.8736040417
 20
5.1251437155
 30
0.0
 10
10.8383365027
 20
5.1310814664
 30
0.0
 10
10.8047112348
 20
5.1376229843
 30
0.0
 10
10.7728826829
 20
5.1447373371
 30
0.0
 10
10.7429973579
 20
5.1523912239
 30
0.0
 10
10.7194335465
 20
5.1593040577
 30
0.0
 10
10.7016765859
 20
5.1651015783
 30
0.0
 10
10.6891599361
 20
5.1694867045
 30
0.0
 10
10.677226426
 20
5.1739789921
 30
0.0
 10
10.6658896317
 20
5.1785732809
 30
0.0
 10
10.6551628269
 20
5.1832645552
 30
0.0
 10
10.6482661402
 20
5.186528754
 30
0.0
 10
10.6449253774
 20
5.1881790573
 30
0.0
  0
SPLINE
  5
35C
100
AcDbEntity
  8
0
100
AcDbSpline
 62
7
  6
CONTINUOUS
 70
0
 71
3
 72
11
 73
7
 74
0
 42
0.0000001
 43
0.0000001
 44
0.0000000001
 40
0.0
 40
0.0
 40
0.0
 40
0.0
 40
0.2464179584
 40
0.4942839735
 40
0.7449565552
 40
1.0
 40
1.0
 40
1.0
 40
1.0
 10
10.6770343952
 20
5.1867339582
 30
0.0
 10
10.6745904415
 20
5.1866084934
 30
0.0
 10
10.6696779726
 20
5.1865205045
 30
0.0
 10
10.6622838996
 20
5.1869142791
 30
0.0
 10
10.654854326
 20
5.1878696102
 30
0.0
 10
10.6499315171
 20
5.1888941218
 30
0.0
 10
10.6474737503
 20
5.1895061824
 30
0.0
  0
SPLINE
  5
35D
100
AcDbEntity
  8
0
100
AcDbSpline
 62
7
  6
CONTINUOUS
 70
0
 71
3
 72
9
 73
5
 74
0
 42
0.0000001
 43
0.0000001
 44
0.0000000001
 40
0.0
 40
0.0
 40
0.0
 40
0.0
 40
0.4896161665
 40
1.0
 40
1.0
 40
1.0
 40
1.0
 10
10.6455810181
 20
5.1899976238
 30
0.0
 10
10.6424068124
 20
5.1908556056
 30
0.0
 10
10.6360081729
 20
5.1929349893
 30
0.0
 10
10.6298446691
 20
5.195630893
 30
0.0
 10
10.6267707197
 20
5.1971471997
 30
0.0
  0
SPLINE
  5
35E
100
AcDbEntity
  8
0
100
AcDbSpline
 62
7
  6
CONTINUOUS
 70
0
 71
3
 72
15
 73
11
 74
0
 42
0.0000001
 43
0.0000001
 44
0.0000000001
 40
0.0
 40
0.0
 40
0.0
 40
0.0
 40
0.1422013745
 40
0.2804031072
 40
0.4141132097
 40
0.5428652497
 40
0.6662197968
 40
0.7837678654
 40
0.8951385363
 40
1.0
 40
1.0
 40
1.0
 40
1.0
 10
10.9486090106
 20
7.0419505522
 30
0.0
 10
10.9363755641
 20
7.0432693382
 30
0.0
 10
10.9122763173
 20
7.0460951711
 30
0.0
 10
10.87677569
 20
7.0509759521
 30
0.0
 10
10.8425352456
 20
7.0564244172
 30
0.0
 10
10.8096908564
 20
7.0624183356
 30
0.0
 10
10.7783726035
 20
7.0689335863
 30
0.0
 10
10.7487042019
 20
7.0759443082
 30
0.0
 10
10.720803221
 20
7.0834216355
 30
0.0
 10
10.702898128
 20
7.088866895
 30
0.0
 10
10.6942706013
 20
7.0916762213
 30
0.0
  0
SPLINE
  5
35F
100
AcDbEntity
  8
0
100
AcDbSpline
 62
7
  6
CONTINUOUS
 70
0
 71
3
 72
15
 73
11
 74
0
 42
0.0000001
 43
0.0000001
 44
0.0000000001
 40
0.0
 40
0.0
 40
0.0
 40
0.0
 40
0.140039855
 40
0.2765999598
 40
0.4092460291
 40
0.537562512
 40
0.6611531755
 40
0.7796480277
 40
0.8927013563
 40
1.0
 40
1.0
 40
1.0
 40
1.0
 10
10.9576820397
 20
7.0248201107
 30
0.0
 10
10.9457803612
 20
7.0260197668
 30
0.0
 10
10.9222926744
 20
7.0285930248
 30
0.0
 10
10.8876171869
 20
7.0330373356
 30
0.0
 10
10.8540245944
 20
7.0380058508
 30
0.0
 10
10.8216335892
 20
7.0434806275
 30
0.0
 10
10.7905584047
 20
7.0494425111
 30
0.0
 10
10.7609083774
 20
7.0558696746
 30
0.0
 10
10.7327882695
 20
7.0627395946
 30
0.0
 10
10.7146369049
 20
7.0677328304
 30
0.0
 10
10.7058413795
 20
7.0703098732
 30
0.0
  0
SPLINE
  5
360
100
AcDbEntity
  8
0
100
AcDbSpline
 62
7
  6
CONTINUOUS
 70
0
 71
3
 72
11
 73
7
 74
0
 42
0.0000001
 43
0.0000001
 44
0.0000000001
 40
0.0
 40
0.0
 40
0.0
 40
0.0
 40
0.2271542928
 40
0.4674950739
 40
0.724261655
 40
1.0
 40
1.0
 40
1.0
 40
1.0
 10
10.649848457
 20
7.2059458582
 30
0.0
 10
10.6504619604
 20
7.2079002214
 30
0.0
 10
10.6520236114
 20
7.2118331351
 30
0.0
 10
10.6552123775
 20
7.2175505873
 30
0.0
 10
10.659291496
 20
7.2232176611
 30
0.0
 10
10.6624770807
 20
7.2268214273
 30
0.0
 10
10.6641999429
 20
7.2286143215
 30
0.0
  0
SPLINE
  5
361
100
AcDbEntity
  8
0
100
AcDbSpline
 62
7
  6
CONTINUOUS
 70
0
 71
3
 72
21
 73
17
 74
0
 42
0.0000001
 43
0.0000001
 44
0.0000000001
 40
0.0
 40
0.0
 40
0.0
 40
0.0
 40
0.066508053
 40
0.1323638847
 40
0.1975675177
 40
0.2621277743
 40
0.3260642674
 40
0.3894049724
 40
0.4521874815
 40
0.5144551981
 40
0.5762571041
 40
0.6376446408
 40
0.698669726
 40
0.7593834445
 40
0.8800506697
 40
1.0
 40
1.0
 40
1.0
 40
1.0
 10
11.7429718023
 20
5.1887830065
 30
0.0
 10
11.7358406598
 20
5.185615053
 30
0.0
 10
11.7215551081
 20
5.1795172083
 30
0.0
 10
11.6999586414
 20
5.1710865471
 30
0.0
 10
11.6783118977
 20
5.1634456058
 30
0.0
 10
11.6566298308
 20
5.1566209174
 30
0.0
 10
11.634929906
 20
5.150627264
 30
0.0
 10
11.6132289695
 20
5.1454757371
 30
0.0
 10
11.5915452711
 20
5.1411639152
 30
0.0
 10
11.5698953857
 20
5.1376848564
 30
0.0
 10
11.5482953265
 20
5.1350201469
 30
0.0
 10
11.5267589706
 20
5.1331462192
 30
0.0
 10
11.5052979632
 20
5.1320324579
 30
0.0
 10
11.4768575
 20
5.1315149746
 30
0.0
 10
11.4414957735
 20
5.1325771541
 30
0.0
 10
11.4133584228
 20
5.1350520027
 30
0.0
 10
11.3993750235
 20
5.1366394655
 30
0.0
  0
SPLINE
  5
362
100
AcDbEntity
  8
0
100
AcDbSpline
 62
7
  6
CONTINUOUS
 70
0
 71
3
 72
21
 73
17
 74
0
 42
0.0000001
 43
0.0000001
 44
0.0000000001
 40
0.0
 40
0.0
 40
0.0
 40
0.0
 40
0.1229782982
 40
0.1846437121
 40
0.2464406137
 40
0.308381136
 40
0.3704758731
 40
0.4327332085
 40
0.4951582589
 40
0.5577520389
 40
0.6205114325
 40
0.6834297978
 40
0.7464974582
 40
0.8097023547
 40
0.8730312648
 40
1.0
 40
1.0
 40
1.0
 40
1.0
 10
11.3556720646
 20
5.1336086496
 30
0.0
 10
11.3292864904
 20
5.1282464615
 30
0.0
 10
11.2894556672
 20
5.1211793227
 30
0.0
 10
11.235954016
 20
5.1141405248
 30
0.0
 10
11.1955504664
 20
5.1101497201
 30
0.0
 10
11.1549385438
 20
5.1075551883
 30
0.0
 10
11.1141571136
 20
5.1064454579
 30
0.0
 10
11.0732563118
 20
5.1068889455
 30
0.0
 10
11.0322942528
 20
5.108927989
 30
0.0
 10
10.9913336445
 20
5.1125746092
 30
0.0
 10
10.9504369487
 20
5.117807715
 30
0.0
 10
10.9096618024
 20
5.1245766374
 30
0.0
 10
10.8690576934
 20
5.1328059016
 30
0.0
 10
10.8286628893
 20
5.142401521
 30
0.0
 10
10.7750779116
 20
5.156887019
 30
0.0
 10
10.7353306723
 20
5.1694598137
 30
0.0
 10
10.7090271906
 20
5.1784536239
 30
0.0
  0
SPLINE
  5
363
100
AcDbEntity
  8
0
100
AcDbSpline
 62
7
  6
CONTINUOUS
 70
0
 71
3
 72
19
 73
15
 74
0
 42
0.0000001
 43
0.0000001
 44
0.0000000001
 40
0.0
 40
0.0
 40
0.0
 40
0.0
 40
0.150460937
 40
0.2916987357
 40
0.424419542
 40
0.4878837275
 40
0.5495802504
 40
0.6682271673
 40
0.7255606103
 40
0.7817998831
 40
0.8371466721
 40
0.8918135967
 40
0.94602219
 40
1.0
 40
1.0
 40
1.0
 40
1.0
 10
12.964204121
 20
10.068651088
 30
0.0
 10
12.9664855884
 20
10.0708548165
 30
0.0
 10
12.9710453853
 20
10.0749896379
 30
0.0
 10
12.9781057906
 20
10.0804997619
 30
0.0
 10
12.9840694141
 20
10.084396828
 30
0.0
 10
12.9888250225
 20
10.0870358091
 30
0.0
 10
12.9934403326
 20
10.0893014305
 30
0.0
 10
12.9981096803
 20
10.0911533725
 30
0.0
 10
13.0028052981
 20
10.0925469674
 30
0.0
 10
13.0062771096
 20
10.0933502438
 30
0.0
 10
13.0097373638
 20
10.093922783
 30
0.0
 10
13.0131851466
 20
10.0942643017
 30
0.0
 10
13.0166190643
 20
10.0943746675
 30
0.0
 10
13.0189004615
 20
10.0942939834
 30
0.0
 10
13.0200356848
 20
10.0942152553
 30
0.0
  0
SPLINE
  5
364
100
AcDbEntity
  8
0
100
AcDbSpline
 62
7
  6
CONTINUOUS
 70
0
 71
3
 72
23
 73
19
 74
0
 42
0.0000001
 43
0.0000001
 44
0.0000000001
 40
0.0
 40
0.0
 40
0.0
 40
0.0
 40
0.0637776914
 40
0.1273445726
 40
0.19070205
 40
0.2538561286
 40
0.3168131755
 40
0.3795820937
 40
0.4421733816
 40
0.5045993375
 40
0.566873868
 40
0.6290123843
 40
0.691031656
 40
0.7529496505
 40
0.8147853588
 40
0.8765586069
 40
0.938289857
 40
1.0
 40
1.0
 40
1.0
 40
1.0
 10
11.261864525
 20
6.7253350794
 30
0.0
 10
11.261864525
 20
6.7128839986
 30
0.0
 10
11.2612686157
 20
6.6880187716
 30
0.0
 10
11.2585787189
 20
6.6508720942
 30
0.0
 10
11.254100209
 20
6.6140200011
 30
0.0
 10
11.2478435143
 20
6.5775487038
 30
0.0
 10
11.2398228306
 20
6.5415418307
 30
0.0
 10
11.2300566391
 20
6.5060825242
 30
0.0
 10
11.2185673351
 20
6.4712524998
 30
0.0
 10
11.205381342
 20
6.437132085
 30
0.0
 10
11.1905289829
 20
6.4037999705
 30
0.0
 10
11.1740444387
 20
6.3713330397
 30
0.0
 10
11.1559656759
 20
6.3398061899
 30
0.0
 10
11.1363343248
 20
6.3092921343
 30
0.0
 10
11.1151956886
 20
6.2798613344
 30
0.0
 10
11.0925982538
 20
6.251581453
 30
0.0
 10
11.0685950132
 20
6.224518621
 30
0.0
 10
11.0516893695
 20
6.2073265408
 30
0.0
 10
11.0430242036
 20
6.1989566104
 30
0.0
  0
SPLINE
  5
365
100
AcDbEntity
  8
0
100
AcDbSpline
 62
7
  6
CONTINUOUS
 70
0
 71
3
 72
23
 73
19
 74
0
 42
0.0000001
 43
0.0000001
 44
0.0000000001
 40
0.0
 40
0.0
 40
0.0
 40
0.0
 40
0.0637771735
 40
0.1273448473
 40
0.1907019822
 40
0.253856143
 40
0.3168131975
 40
0.3795820985
 40
0.4421733906
 40
0.5045993374
 40
0.5668738654
 40
0.62901238
 40
0.6910316489
 40
0.7529496402
 40
0.814785347
 40
0.8765585971
 40
0.938289852
 40
1.0
 40
1.0
 40
1.0
 40
1.0
 10
11.8027830198
 20
10.0685628467
 30
0.0
 10
11.8027830198
 20
10.0609718592
 30
0.0
 10
11.8024196838
 20
10.0458122473
 30
0.0
 10
11.8007797632
 20
10.0231650419
 30
0.0
 10
11.7980492906
 20
10.0006973733
 30
0.0
 10
11.7942347783
 20
9.9784619512
 30
0.0
 10
11.7893447761
 20
9.9565096422
 30
0.0
 10
11.7833905627
 20
9.9348911876
 30
0.0
 10
11.7763858197
 20
9.9136563929
 30
0.0
 10
11.7683466559
 20
9.8928542276
 30
0.0
 10
11.7592915663
 20
9.8725326663
 30
0.0
 10
11.7492413729
 20
9.8527385885
 30
0.0
 10
11.7382192113
 20
9.8335176662
 30
0.0
 10
11.7262504829
 20
9.8149142207
 30
0.0
 10
11.7133628128
 20
9.7969712055
 30
0.0
 10
11.6995857548
 20
9.7797298786
 30
0.0
 10
11.6849516198
 20
9.7632305529
 30
0.0
 10
11.6746446585
 20
9.7527491563
 30
0.0
 10
11.6693617517
 20
9.7476462774
 30
0.0
  0
SPLINE
  5
366
100
AcDbEntity
  8
0
100
AcDbSpline
 62
7
  6
CONTINUOUS
 70
0
 71
3
 72
23
 73
19
 74
0
 42
0.0000001
 43
0.0000001
 44
0.0000000001
 40
0.0
 40
0.0
 40
0.0
 40
0.0
 40
0.0637770481
 40
0.1273448966
 40
0.1907019688
 40
0.2538561314
 40
0.3168131981
 40
0.3795820903
 40
0.4421733865
 40
0.5045993362
 40
0.5668738674
 40
0.6290123827
 40
0.6910316513
 40
0.7529496439
 40
0.8147853535
 40
0.8765586049
 40
0.9382898569
 40
1.0
 40
1.0
 40
1.0
 40
1.0
 10
11.0124480347
 20
6.8009172357
 30
0.0
 10
11.0124480347
 20
6.7933494375
 30
0.0
 10
11.0120858035
 20
6.7782361006
 30
0.0
 10
11.0104509054
 20
6.7556580352
 30
0.0
 10
11.0077287747
 20
6.7332589436
 30
0.0
 10
11.00392593
 20
6.711091406
 30
0.0
 10
10.9990508709
 20
6.689206111
 30
0.0
 10
10.993114854
 20
6.6676536493
 30
0.0
 10
10.9861315299
 20
6.6464836712
 30
0.0
 10
10.9781169481
 20
6.6257449963
 30
0.0
 10
10.9690895404
 20
6.6054854566
 30
0.0
 10
10.9590700525
 20
6.5857517956
 30
0.0
 10
10.9480815843
 20
6.5665895278
 30
0.0
 10
10.9361494493
 20
6.5480428413
 30
0.0
 10
10.9233011804
 20
6.5301545629
 30
0.0
 10
10.9095662255
 20
6.5129658361
 30
0.0
 10
10.8949767966
 20
6.4965168574
 30
0.0
 10
10.8847013605
 20
6.486067402
 30
0.0
 10
10.8794345893
 20
6.4809800947
 30
0.0
  0
SPLINE
  5
367
100
AcDbEntity
  8
0
100
AcDbSpline
 62
7
  6
CONTINUOUS
 70
0
 71
3
 72
39
 73
35
 74
0
 42
0.0000001
 43
0.0000001
 44
0.0000000001
 40
0.0
 40
0.0
 40
0.0
 40
0.0
 40
0.0310753532
 40
0.0623079102
 40
0.09369313
 40
0.1252222885
 40
0.1568840435
 40
0.1886642047
 40
0.220546165
 40
0.2525112493
 40
0.2845391083
 40
0.3166081364
 40
0.3486959075
 40
0.3807796231
 40
0.4128365658
 40
0.4448445502
 40
0.4767823671
 40
0.5086302143
 40
0.5403701081
 40
0.5719862652
 40
0.603465451
 40
0.634797286
 40
0.6659745047
 40
0.6969931564
 40
0.7278527393
 40
0.7585562643
 40
0.7891102412
 40
0.8195245853
 40
0.8498124369
 40
0.8799898959
 40
0.9100756754
 40
0.9400906818
 40
0.9700575291
 40
1.0
 40
1.0
 40
1.0
 40
1.0
 10
11.0124480347
 20
6.8009172357
 30
0.0
 10
11.0124480347
 20
6.812658706
 30
0.0
 10
11.0115721481
 20
6.8362100797
 30
0.0
 10
11.0076614966
 20
6.8714243968
 30
0.0
 10
11.0011727788
 20
6.9064319341
 30
0.0
 10
10.9921418449
 20
6.9410379824
 30
0.0
 10
10.980618694
 20
6.9750531563
 30
0.0
 10
10.9666668356
 20
7.0082905784
 30
0.0
 10
10.9503631366
 20
7.0405679024
 30
0.0
 10
10.9317972929
 20
7.0717080071
 30
0.0
 10
10.9110713565
 20
7.1015400326
 30
0.0
 10
10.888299173
 20
7.129900279
 30
0.0
 10
10.8636057771
 20
7.1566331059
 30
0.0
 10
10.8371267379
 20
7.1815918068
 30
0.0
 10
10.8090073772
 20
7.204639369
 30
0.0
 10
10.7794019903
 20
7.225649222
 30
0.0
 10
10.7484730059
 20
7.244505918
 30
0.0
 10
10.7163901217
 20
7.2611057801
 30
0.0
 10
10.683329393
 20
7.2753574965
 30
0.0
 10
10.649472252
 20
7.2871825738
 30
0.0
 10
10.6150045351
 20
7.2965157775
 30
0.0
 10
10.580115478
 20
7.3033054847
 30
0.0
 10
10.5449967001
 20
7.3075140078
 30
0.0
 10
10.5098411613
 20
7.309117831
 30
0.0
 10
10.4748421073
 20
7.3081077046
 30
0.0
 10
10.4401920225
 20
7.3044887284
 30
0.0
 10
10.4060815829
 20
7.2982803353
 30
0.0
 10
10.3726985977
 20
7.2895162492
 30
0.0
 10
10.3402269776
 20
7.2782443414
 30
0.0
 10
10.3088456574
 20
7.2645262877
 30
0.0
 10
10.2787278268
 20
7.2484374918
 30
0.0
 10
10.2500390852
 20
7.2300658282
 30
0.0
 10
10.2229397301
 20
7.2095143659
 30
0.0
 10
10.2060254226
 20
7.1944287677
 30
0.0
 10
10.1978881884
 20
7.1865688076
 30
0.0
  0
SPLINE
  5
368
100
AcDbEntity
  8
0
100
AcDbSpline
 62
7
  6
CONTINUOUS
 70
0
 71
3
 72
31
 73
27
 74
0
 42
0.0000001
 43
0.0000001
 44
0.0000000001
 40
0.0
 40
0.0
 40
0.0
 40
0.0
 40
0.0314316325
 40
0.0627219167
 40
0.093875267
 40
0.1248966018
 40
0.1557941926
 40
0.1865790083
 40
0.217264346
 40
0.2478655433
 40
0.2783995566
 40
0.3088847501
 40
0.3393404066
 40
0.3697862948
 40
0.4002424162
 40
0.4307289411
 40
0.4612657032
 40
0.4918719313
 40
0.5533542434
 40
0.6153263186
 40
0.6779016625
 40
0.7411581558
 40
0.8051190583
 40
0.8697245645
 40
0.9347961411
 40
1.0
 40
1.0
 40
1.0
 40
1.0
 10
11.0084075556
 20
6.8619208381
 30
0.0
 10
11.0019873613
 20
6.862565894
 30
0.0
 10
10.9892070256
 20
6.8641897862
 30
0.0
 10
10.9702361469
 20
6.8676284328
 30
0.0
 10
10.9515556681
 20
6.8720485473
 30
0.0
 10
10.9332131103
 20
6.8774291677
 30
0.0
 10
10.9152513403
 20
6.8837446102
 30
0.0
 10
10.8977088161
 20
6.8909654523
 30
0.0
 10
10.8806191702
 20
6.8990593556
 30
0.0
 10
10.8640112442
 20
6.9079918534
 30
0.0
 10
10.8479091578
 20
6.9177271784
 30
0.0
 10
10.8323325097
 20
6.9282289142
 30
0.0
 10
10.8172967882
 20
6.9394607404
 30
0.0
 10
10.8028138275
 20
6.9513869323
 30
0.0
 10
10.7888921755
 20
6.9639727929
 30
0.0
 10
10.775537641
 20
6.9771848386
 30
0.0
 10
10.762753533
 20
6.9909915673
 30
0.0
 10
10.7464485199
 20
7.0101791746
 30
0.0
 10
10.727484722
 20
7.0355368022
 30
0.0
 10
10.7070562973
 20
7.067845475
 30
0.0
 10
10.6889031453
 20
7.1018962142
 30
0.0
 10
10.6730198597
 20
7.1375071105
 30
0.0
 10
10.6594137735
 20
7.1744907291
 30
0.0
 10
10.6481126114
 20
7.2126300627
 30
0.0
 10
10.6391661967
 20
7.251648626
 30
0.0
 10
10.6348089422
 20
7.2780557489
 30
0.0
 10
10.6330422563
 20
7.2913241799
 30
0.0
  0
SPLINE
  5
369
100
AcDbEntity
  8
0
100
AcDbSpline
 62
7
  6
CONTINUOUS
 70
0
 71
3
 72
21
 73
17
 74
0
 42
0.0000001
 43
0.0000001
 44
0.0000000001
 40
0.0
 40
0.0
 40
0.0
 40
0.0
 40
0.1273177382
 40
0.253799893
 40
0.3167619527
 40
0.3795355237
 40
0.4421314869
 40
0.5045621428
 40
0.5668413495
 40
0.6289845239
 40
0.69100845
 40
0.7529310987
 40
0.8147714472
 40
0.8765493323
 40
0.9382852239
 40
1.0
 40
1.0
 40
1.0
 40
1.0
 10
11.6173668018
 20
10.1269645225
 30
0.0
 10
11.6173668018
 20
10.1191264334
 30
0.0
 10
11.6166186154
 20
10.1034916059
 30
0.0
 10
11.6137928863
 20
10.0841635821
 30
0.0
 10
11.6104155794
 20
10.0690024322
 30
0.0
 10
11.607335632
 20
10.0578195575
 30
0.0
 10
11.60371225
 20
10.0468354003
 30
0.0
 10
11.5995538274
 20
10.0360749513
 30
0.0
 10
11.5948698907
 20
10.0255631191
 30
0.0
 10
11.5896711723
 20
10.0153241572
 30
0.0
 10
11.5839697363
 20
10.005381644
 30
0.0
 10
11.5777786578
 20
9.9957585345
 30
0.0
 10
11.5711121944
 20
9.9864770765
 30
0.0
 10
11.5639857161
 20
9.9775585509
 30
0.0
 10
11.5564158817
 20
9.96902385
 30
0.0
 10
11.5510843705
 20
9.9636020788
 30
0.0
 10
11.548351664
 20
9.9609624857
 30
0.0
  0
SPLINE
  5
36A
100
AcDbEntity
  8
0
100
AcDbSpline
 62
7
  6
CONTINUOUS
 70
0
 71
3
 72
37
 73
33
 74
0
 42
0.0000001
 43
0.0000001
 44
0.0000000001
 40
0.0
 40
0.0
 40
0.0
 40
0.0
 40
0.0307115776
 40
0.0615425493
 40
0.0924882602
 40
0.1235467373
 40
0.1547123949
 40
0.1859791285
 40
0.2173394699
 40
0.2487848566
 40
0.2803057573
 40
0.3118917577
 40
0.3435316965
 40
0.3752137945
 40
0.4386334817
 40
0.5020712226
 40
0.5337756682
 40
0.565446536
 40
0.5970717001
 40
0.6286395532
 40
0.6601391396
 40
0.6915602898
 40
0.7228937461
 40
0.7541312741
 40
0.7852657663
 40
0.8162913356
 40
0.8472034039
 40
0.8779987725
 40
0.9086756734
 40
0.9392338057
 40
0.9696743546
 40
1.0
 40
1.0
 40
1.0
 40
1.0
 10
11.6343007859
 20
10.0888214961
 30
0.0
 10
11.6343007859
 20
10.0943961422
 30
0.0
 10
11.633987619
 20
10.1055695626
 30
0.0
 10
11.6325864829
 20
10.1223072558
 30
0.0
 10
11.6302572114
 20
10.1390052291
 30
0.0
 10
11.6270074406
 20
10.1556103758
 30
0.0
 10
11.6228471793
 20
10.1720711746
 30
0.0
 10
11.6177895458
 20
10.1883360591
 30
0.0
 10
11.6118503864
 20
10.2043542509
 30
0.0
 10
11.6050483199
 20
10.2200756971
 30
0.0
 10
11.5974046119
 20
10.235451319
 30
0.0
 10
11.5889432616
 20
10.250432972
 30
0.0
 10
11.5796903441
 20
10.2649742641
 30
0.0
 10
11.566334999
 20
10.2837172585
 30
0.0
 10
11.547814622
 20
10.3058159579
 30
0.0
 10
11.527090137
 20
10.3258679456
 30
0.0
 10
11.5093387968
 20
10.3405359347
 30
0.0
 10
11.495482879
 20
10.3508148983
 30
0.0
 10
11.4811280356
 20
10.3603392543
 30
0.0
 10
11.4663187081
 20
10.3690796168
 30
0.0
 10
11.4511012492
 20
10.3770085238
 30
0.0
 10
11.4355231758
 20
10.3841012136
 30
0.0
 10
11.4196331633
 20
10.3903354924
 30
0.0
 10
11.4034808497
 20
10.3956918405
 30
0.0
 10
11.3871166977
 20
10.4001534632
 30
0.0
 10
11.3705918354
 20
10.4037063398
 30
0.0
 10
11.3539579152
 20
10.4063393252
 30
0.0
 10
11.3372669163
 20
10.4080441396
 30
0.0
 10
11.320571068
 20
10.4088153986
 30
0.0
 10
11.3039223835
 20
10.4086505825
 30
0.0
 10
11.2873736428
 20
10.4075502342
 30
0.0
 10
11.2764203274
 20
10.4061924335
 30
0.0
 10
11.2709792494
 20
10.4053586372
 30
0.0
  0
SPLINE
  5
36B
100
AcDbEntity
  8
0
100
AcDbSpline
 62
7
  6
CONTINUOUS
 70
0
 71
3
 72
43
 73
39
 74
0
 42
0.0000001
 43
0.0000001
 44
0.0000000001
 40
0.0
 40
0.0
 40
0.0
 40
0.0
 40
0.0310745218
 40
0.0466739617
 40
0.0623117346
 40
0.0936962008
 40
0.1252246462
 40
0.156885682
 40
0.1886651184
 40
0.2205463529
 40
0.2525107094
 40
0.2845378393
 40
0.316606137
 40
0.3486931771
 40
0.3807761618
 40
0.4128323741
 40
0.4448396288
 40
0.4767767175
 40
0.508623839
 40
0.5403630095
 40
0.5719784455
 40
0.6034569128
 40
0.6347880329
 40
0.6659645409
 40
0.6969824853
 40
0.7278413639
 40
0.7585441875
 40
0.7890974671
 40
0.8195111175
 40
0.8497982781
 40
0.8649022316
 40
0.8799808239
 40
0.9100659163
 40
0.9400802375
 40
0.9550708207
 40
0.9700522994
 40
0.9850276796
 40
1.0
 40
1.0
 40
1.0
 40
1.0
 10
11.6173668018
 20
10.1269645225
 30
0.0
 10
11.6173668018
 20
10.1330566577
 30
0.0
 10
11.6170262615
 20
10.1422116493
 30
0.0
 10
11.615901596
 20
10.1543778549
 30
0.0
 10
11.6143257189
 20
10.1665557164
 30
0.0
 10
11.611516511
 20
10.1817119495
 30
0.0
 10
11.6068307788
 20
10.19966727
 30
0.0
 10
11.6008518786
 20
10.2173164079
 30
0.0
 10
11.5936128493
 20
10.2345619004
 30
0.0
 10
11.5851535428
 20
10.2513092663
 30
0.0
 10
11.5755204992
 20
10.2674665661
 30
0.0
 10
11.5647666689
 20
10.282945157
 30
0.0
 10
11.5529511289
 20
10.2976601033
 30
0.0
 10
11.5401387599
 20
10.3115306567
 30
0.0
 10
11.5263998929
 20
10.3244806887
 30
0.0
 10
11.5118099276
 20
10.336439106
 30
0.0
 10
11.4964489224
 20
10.3473402364
 30
0.0
 10
11.4804011606
 20
10.3571241866
 30
0.0
 10
11.4637546929
 20
10.3657371684
 30
0.0
 10
11.4466008606
 20
10.3731317927
 30
0.0
 10
11.4290338011
 20
10.3792673294
 30
0.0
 10
11.4111499385
 20
10.3841099319
 30
0.0
 10
11.393047462
 20
10.3876328257
 30
0.0
 10
11.3748257931
 20
10.3898164592
 30
0.0
 10
11.3565850523
 20
10.3906486199
 30
0.0
 10
11.3384254954
 20
10.3901245005
 30
0.0
 10
11.3204470414
 20
10.38824677
 30
0.0
 10
11.3027484521
 20
10.3850254441
 30
0.0
 10
11.2854278029
 20
10.3804783145
 30
0.0
 10
11.2713728345
 20
10.3755992569
 30
0.0
 10
11.2604176394
 20
10.3710619122
 30
0.0
 10
11.2496842306
 20
10.3661161417
 30
0.0
 10
11.2366699234
 20
10.3591641779
 30
0.0
 10
11.2242589753
 20
10.3512162462
 30
0.0
 10
11.2147476783
 20
10.3442952756
 30
0.0
 10
11.207831857
 20
10.3388304519
 30
0.0
 10
11.2011413581
 20
10.333097891
 30
0.0
 10
11.1968369005
 20
10.329102336
 30
0.0
 10
11.1947256648
 20
10.3270630378
 30
0.0
  0
SPLINE
  5
36C
100
AcDbEntity
  8
0
100
AcDbSpline
 62
7
  6
CONTINUOUS
 70
0
 71
3
 72
44
 73
40
 74
0
 42
0.0000001
 43
0.0000001
 44
0.0000000001
 40
0.0
 40
0.0
 40
0.0
 40
0.0
 40
0.0196286566
 40
0.039671647
 40
0.081170853
 40
0.1027183546
 40
0.124833774
 40
0.1475402811
 40
0.1708589709
 40
0.1948055555
 40
0.2193963463
 40
0.2446435528
 40
0.2705616994
 40
0.2971633842
 40
0.3244652735
 40
0.3524842807
 40
0.3812438697
 40
0.4410710933
 40
0.4722474705
 40
0.504325923
 40
0.5373765658
 40
0.571486553
 40
0.6067624834
 40
0.643332753
 40
0.6813480068
 40
0.7009566079
 40
0.72099117
 40
0.7414747272
 40
0.7624288474
 40
0.7838739271
 40
0.805828218
 40
0.828305415
 40
0.8513140871
 40
0.874856203
 40
0.8989253562
 40
0.9235057929
 40
0.9485705542
 40
0.9740850635
 40
1.0
 40
1.0
 40
1.0
 40
1.0
 10
11.5288875633
 20
10.2060546917
 30
0.0
 10
11.5274777524
 20
10.2046929188
 30
0.0
 10
11.5245428924
 20
10.202027576
 30
0.0
 10
11.5182296593
 20
10.1969383637
 30
0.0
 10
11.5113307758
 20
10.1922927053
 30
0.0
 10
11.5039241725
 20
10.1881085454
 30
0.0
 10
11.4979909296
 20
10.1851482711
 30
0.0
 10
11.4917541974
 20
10.1824203978
 30
0.0
 10
11.485219046
 20
10.1799395962
 30
0.0
 10
11.4783905765
 20
10.1777258099
 30
0.0
 10
11.4712758813
 20
10.1757988245
 30
0.0
 10
11.4638820638
 20
10.1741842307
 30
0.0
 10
11.4562185708
 20
10.1729079502
 30
0.0
 10
11.4482956957
 20
10.172001978
 30
0.0
 10
11.4401266443
 20
10.171499404
 30
0.0
 10
11.4317259888
 20
10.1714401045
 30
0.0
 10
11.4200915447
 20
10.1720146628
 30
0.0
 10
11.4082111249
 20
10.17367998
 30
0.0
 10
11.3962550536
 20
10.1765611083
 30
0.0
 10
11.3870771021
 20
10.1794625879
 30
0.0
 10
11.3778666961
 20
10.1831456483
 30
0.0
 10
11.3686884182
 20
10.1876875973
 30
0.0
 10
11.3596236227
 20
10.1931709287
 30
0.0
 10
11.3507736912
 20
10.1996803111
 30
0.0
 10
11.3437535445
 20
10.2059660428
 30
0.0
 10
11.3383813142
 20
10.2115626478
 30
0.0
 10
11.3344535518
 20
10.2161077867
 30
0.0
 10
11.3306928088
 20
10.2209632352
 30
0.0
 10
11.3271239776
 20
10.226133833
 30
0.0
 10
11.323773572
 20
10.2316216248
 30
0.0
 10
11.3206694318
 20
10.2374256706
 30
0.0
 10
11.3178400993
 20
10.2435411956
 30
0.0
 10
11.3153142245
 20
10.2499590463
 30
0.0
 10
11.3131198544
 20
10.2566652687
 30
0.0
 10
11.3112833852
 20
10.2636407206
 30
0.0
 10
11.3098284959
 20
10.2708608153
 30
0.0
 10
11.3087748706
 20
10.2782961362
 30
0.0
 10
11.3081377064
 20
10.2859120968
 30
0.0
 10
11.3079976462
 20
10.2910490053
 30
0.0
 10
11.3079976462
 20
10.2936368476
 30
0.0
  0
SPLINE
  5
36D
100
AcDbEntity
  8
0
100
AcDbSpline
 62
7
  6
CONTINUOUS
 70
0
 71
3
 72
15
 73
11
 74
0
 42
0.0000001
 43
0.0000001
 44
0.0000000001
 40
0.0
 40
0.0
 40
0.0
 40
0.0
 40
0.1266125617
 40
0.2513957925
 40
0.3750944415
 40
0.4984057726
 40
0.6219896026
 40
0.7464365731
 40
0.8722870818
 40
1.0
 40
1.0
 40
1.0
 40
1.0
 10
11.5515274806
 20
10.2430761352
 30
0.0
 10
11.551005112
 20
10.2412990321
 30
0.0
 10
11.5498550414
 20
10.2378024242
 30
0.0
 10
11.5477987264
 20
10.2327106353
 30
0.0
 10
11.545427881
 20
10.2278107942
 30
0.0
 10
11.5427434466
 20
10.2230957953
 30
0.0
 10
11.5397471128
 20
10.2185595891
 30
0.0
 10
11.5364400129
 20
10.2141981172
 30
0.0
 10
11.5328246141
 20
10.2100089571
 30
0.0
 10
11.5302314071
 20
10.2073527451
 30
0.0
 10
11.5288875633
 20
10.2060546917
 30
0.0
  0
SPLINE
  5
36E
100
AcDbEntity
  8
0
100
AcDbSpline
 62
7
  6
CONTINUOUS
 70
0
 71
3
 72
13
 73
9
 74
0
 42
0.0000001
 43
0.0000001
 44
0.0000000001
 40
0.0
 40
0.0
 40
0.0
 40
0.0
 40
0.1237812062
 40
0.2494006785
 40
0.3760538395
 40
0.5029456102
 40
0.7545574504
 40
1.0
 40
1.0
 40
1.0
 40
1.0
 10
11.3079976462
 20
10.2936368476
 30
0.0
 10
11.3079976462
 20
10.2978342157
 30
0.0
 10
11.308371922
 20
10.306295334
 30
0.0
 10
11.3099956869
 20
10.3189565509
 30
0.0
 10
11.312627924
 20
10.3315546275
 30
0.0
 10
11.3173504161
 20
10.3480336582
 30
0.0
 10
11.3252213357
 20
10.3677370896
 30
0.0
 10
11.3332198571
 20
10.382610312
 30
0.0
 10
11.3375074082
 20
10.389743809
 30
0.0
  0
SPLINE
  5
36F
100
AcDbEntity
  8
0
100
AcDbSpline
 62
7
  6
CONTINUOUS
 70
0
 71
3
 72
55
 73
51
 74
0
 42
0.0000001
 43
0.0000001
 44
0.0000000001
 40
0.0
 40
0.0
 40
0.0
 40
0.0
 40
0.0075208348
 40
0.0156242142
 40
0.0243311711
 40
0.0336550089
 40
0.0436029388
 40
0.0541769762
 40
0.0653751272
 40
0.0771917851
 40
0.0896184164
 40
0.1026439451
 40
0.1162549389
 40
0.1304361071
 40
0.1451702248
 40
0.1604385562
 40
0.1762208541
 40
0.1924955039
 40
0.22642864
 40
0.2620435089
 40
0.299129289
 40
0.3374624062
 40
0.3768088186
 40
0.4169261772
 40
0.4575659138
 40
0.4984752898
 40
0.5393994327
 40
0.5800833565
 40
0.6202739771
 40
0.6597221367
 40
0.6981846509
 40
0.7354264063
 40
0.7712225103
 40
0.8053605541
 40
0.8217459585
 40
0.8376441629
 40
0.853033271
 40
0.8678927663
 40
0.8822034522
 40
0.8959478537
 40
0.9091101198
 40
0.9216764214
 40
0.9336351149
 40
0.9449769705
 40
0.9556958034
 40
0.9657885996
 40
0.9752563558
 40
0.9841051078
 40
0.9923470228
 40
1.0
 40
1.0
 40
1.0
 40
1.0
 10
12.6686398235
 20
6.6580622707
 30
0.0
 10
12.6677579484
 20
6.6591465891
 30
0.0
 10
12.6660203661
 20
6.6614770134
 30
0.0
 10
12.6635751549
 20
6.6652839079
 30
0.0
 10
12.6611997621
 20
6.6695230935
 30
0.0
 10
12.6588979218
 20
6.6741876148
 30
0.0
 10
12.6566731852
 20
6.6792702407
 30
0.0
 10
12.6545290475
 20
6.6847627976
 30
0.0
 10
12.6524690642
 20
6.6906564496
 30
0.0
 10
12.6504965904
 20
6.6969415994
 30
0.0
 10
12.6486149078
 20
6.7036079713
 30
0.0
 10
12.6468271857
 20
6.7106446194
 30
0.0
 10
12.6451363618
 20
6.7180399487
 30
0.0
 10
12.6435453326
 20
6.7257817532
 30
0.0
 10
12.6420567115
 20
6.7338572293
 30
0.0
 10
12.6406730357
 20
6.7422530031
 30
0.0
 10
12.6393965939
 20
6.7509551758
 30
0.0
 10
12.6378185974
 20
6.7631171833
 30
0.0
 10
12.6361423159
 20
6.7789806026
 30
0.0
 10
12.6346136173
 20
6.7987404651
 30
0.0
 10
12.6335515716
 20
6.8193495752
 30
0.0
 10
12.6329634849
 20
6.8406711531
 30
0.0
 10
12.6328535366
 20
6.862563816
 30
0.0
 10
12.6332226379
 20
6.8848822596
 30
0.0
 10
12.6340684703
 20
6.9074783264
 30
0.0
 10
12.6353854888
 20
6.9302019847
 30
0.0
 10
12.6371649724
 20
6.9529023467
 30
0.0
 10
12.6393950835
 20
6.975428683
 30
0.0
 10
12.6420609479
 20
6.9976314333
 30
0.0
 10
12.6451447491
 20
7.0193632196
 30
0.0
 10
12.648625851
 20
7.0404798203
 30
0.0
 10
12.6524808995
 20
7.060841237
 30
0.0
 10
12.6566840551
 20
7.0803123638
 30
0.0
 10
12.6605034827
 20
7.0958951425
 30
0.0
 10
12.6637222576
 20
7.1078122461
 30
0.0
 10
12.6661723142
 20
7.1163265936
 30
0.0
 10
12.6686872554
 20
7.1245258643
 30
0.0
 10
12.6712628767
 20
7.1323964871
 30
0.0
 10
12.6738949274
 20
7.1399254211
 30
0.0
 10
12.676578962
 20
7.1471002275
 30
0.0
 10
12.6793105485
 20
7.1539090547
 30
0.0
 10
12.682085125
 20
7.1603406882
 30
0.0
 10
12.6848980628
 20
7.1663845685
 30
0.0
 10
12.687744755
 20
7.1720307965
 30
0.0
 10
12.6906204556
 20
7.177270204
 30
0.0
 10
12.6935205499
 20
7.1820942867
 30
0.0
 10
12.6964402829
 20
7.1864953381
 30
0.0
 10
12.6993752614
 20
7.190466527
 30
0.0
 10
12.7023207578
 20
7.194001178
 30
0.0
 10
12.7043623541
 20
7.1961403169
 30
0.0
 10
12.7053852895
 20
7.1971283966
 30
0.0
  0
SPLINE
  5
370
100
AcDbEntity
  8
0
100
AcDbSpline
 62
7
  6
CONTINUOUS
 70
0
 71
3
 72
85
 73
81
 74
0
 42
0.0000001
 43
0.0000001
 44
0.0000000001
 40
0.0
 40
0.0
 40
0.0
 40
0.0
 40
0.0027164321
 40
0.0054532385
 40
0.0082303085
 40
0.011066603
 40
0.0139798079
 40
0.0169861193
 40
0.0233311764
 40
0.0266975277
 40
0.0302054756
 40
0.033863392
 40
0.0376783486
 40
0.0416563264
 40
0.0458022472
 40
0.050120174
 40
0.0546133665
 40
0.0592843698
 40
0.0641351496
 40
0.0691670674
 40
0.0743810463
 40
0.0797775355
 40
0.0853565984
 40
0.0911179629
 40
0.0970609898
 40
0.1094877374
 40
0.1226269862
 40
0.1364646504
 40
0.1509834607
 40
0.1661633573
 40
0.1819818055
 40
0.1984140483
 40
0.2154333259
 40
0.233011069
 40
0.2511170619
 40
0.2697195894
 40
0.2887855696
 40
0.3082806737
 40
0.3281694478
 40
0.3484154285
 40
0.36898125
 40
0.3898287485
 40
0.4109190644
 40
0.4322127408
 40
0.4536698284
 40
0.4969118802
 40
0.5403202169
 40
0.5835675225
 40
0.6050291933
 40
0.6263287434
 40
0.6474262089
 40
0.6682821161
 40
0.6888575847
 40
0.7091144272
 40
0.7290152501
 40
0.748523559
 40
0.7676038654
 40
0.7862218038
 40
0.8043442504
 40
0.821939444
 40
0.838977118
 40
0.8554286471
 40
0.8712672105
 40
0.8864679851
 40
0.9010083612
 40
0.9148681946
 40
0.9280301198
 40
0.9404799413
 40
0.9464346146
 40
0.9522076736
 40
0.9577984609
 40
0.9632066809
 40
0.9684323855
 40
0.9734759888
 40
0.9783383641
 40
0.9830208263
 40
0.9875253632
 40
0.991854574
 40
0.996011563
 40
1.0
 40
1.0
 40
1.0
 40
1.0
 10
12.9083725572
 20
8.4840825447
 30
0.0
 10
12.9068663911
 20
8.4841869977
 30
0.0
 10
12.9038504778
 20
8.4845330421
 30
0.0
 10
12.8993649957
 20
8.4854589342
 30
0.0
 10
12.8949134118
 20
8.4867916287
 30
0.0
 10
12.8904989407
 20
8.4885297466
 30
0.0
 10
12.8861236473
 20
8.4906718518
 30
0.0
 10
12.8802407567
 20
8.4941257934
 30
0.0
 10
12.8745460472
 20
8.4983542498
 30
0.0
 10
12.8690588813
 20
8.503243752
 30
0.0
 10
12.8649105649
 20
8.5073784346
 30
0.0
 10
12.8608136406
 20
8.5119052255
 30
0.0
 10
12.8567693245
 20
8.5168221848
 30
0.0
 10
12.8527796955
 20
8.5221268119
 30
0.0
 10
12.8488464649
 20
8.5278164611
 30
0.0
 10
12.8449715446
 20
8.5338883547
 30
0.0
 10
12.8411567739
 20
8.5403395009
 30
0.0
 10
12.8374039499
 20
8.5471667044
 30
0.0
 10
12.833714979
 20
8.5543666265
 30
0.0
 10
12.8300915833
 20
8.5619356718
 30
0.0
 10
12.8265356272
 20
8.5698701138
 30
0.0
 10
12.8230488341
 20
8.5781659973
 30
0.0
 10
12.8196329472
 20
8.5868191914
 30
0.0
 10
12.8162896793
 20
8.5958254054
 30
0.0
 10
12.8118651138
 20
8.6084873049
 30
0.0
 10
12.806544395
 20
8.6251760731
 30
0.0
 10
12.8005660916
 20
8.6462480896
 30
0.0
 10
12.7949151356
 20
8.6686112938
 30
0.0
 10
12.7896029671
 20
8.6922209203
 30
0.0
 10
12.7846403863
 20
8.7170299375
 30
0.0
 10
12.7800374906
 20
8.7429887183
 30
0.0
 10
12.7758036467
 20
8.7700452824
 30
0.0
 10
12.771947468
 20
8.7981453809
 30
0.0
 10
12.7684768035
 20
8.8272326315
 30
0.0
 10
12.7653987182
 20
8.8572486402
 30
0.0
 10
12.7627194802
 20
8.8881331237
 30
0.0
 10
12.7604445495
 20
8.9198240318
 30
0.0
 10
12.7585785579
 20
8.9522576744
 30
0.0
 10
12.7571253067
 20
8.9853688537
 30
0.0
 10
12.7560877625
 20
9.0190910022
 30
0.0
 10
12.7554680515
 20
9.053356317
 30
0.0
 10
12.7552674525
 20
9.0880959025
 30
0.0
 10
12.7554864091
 20
9.123239883
 30
0.0
 10
12.7561244673
 20
9.158717639
 30
0.0
 10
12.7575360704
 20
9.2064921668
 30
0.0
 10
12.7603388904
 20
9.2665181625
 30
0.0
 10
12.765321218
 20
9.3385484396
 30
0.0
 10
12.7708098706
 20
9.3983941368
 30
0.0
 10
12.7759898558
 20
9.4459167691
 30
0.0
 10
12.7802431305
 20
9.481154284
 30
0.0
 10
12.7848657105
 20
9.5160056314
 30
0.0
 10
12.7898483195
 20
9.5504007783
 30
0.0
 10
12.7951808958
 20
9.5842705475
 30
0.0
 10
12.8008526855
 20
9.617546843
 30
0.0
 10
12.8068522454
 20
9.6501627632
 30
0.0
 10
12.8131674697
 20
9.6820527415
 30
0.0
 10
12.8197856147
 20
9.7131526798
 30
0.0
 10
12.826693319
 20
9.743400084
 30
0.0
 10
12.8338766283
 20
9.7727341946
 30
0.0
 10
12.8413210313
 20
9.8010961087
 30
0.0
 10
12.8490114866
 20
9.8284288998
 30
0.0
 10
12.8569324534
 20
9.8546777389
 30
0.0
 10
12.8650679275
 20
9.8797900124
 30
0.0
 10
12.8734014679
 20
9.9037154549
 30
0.0
 10
12.8819162362
 20
9.9264062281
 30
0.0
 10
12.8905950545
 20
9.947817156
 30
0.0
 10
12.8994204213
 20
9.9679053939
 30
0.0
 10
12.9069903723
 20
9.9837369672
 30
0.0
 10
12.9131178519
 20
9.9956971948
 30
0.0
 10
12.9176707356
 20
10.0041786653
 30
0.0
 10
12.9222469515
 20
10.0123007394
 30
0.0
 10
12.9268442306
 20
10.0200593891
 30
0.0
 10
12.9314602646
 20
10.0274507594
 30
0.0
 10
12.9360928085
 20
10.034471144
 30
0.0
 10
12.9407394714
 20
10.0411170863
 30
0.0
 10
12.9453980547
 20
10.0473852728
 30
0.0
 10
12.9500662752
 20
10.0532726778
 30
0.0
 10
12.954741969
 20
10.058776425
 30
0.0
 10
12.9594226276
 20
10.0638935259
 30
0.0
 10
12.9626097065
 20
10.0671110018
 30
0.0
 10
12.964204121
 20
10.068651088
 30
0.0
  0
SPLINE
  5
371
100
AcDbEntity
  8
0
100
AcDbSpline
 62
7
  6
CONTINUOUS
 70
0
 71
3
 72
74
 73
70
 74
0
 42
0.0000001
 43
0.0000001
 44
0.0000000001
 40
0.0
 40
0.0
 40
0.0
 40
0.0
 40
0.0027966546
 40
0.0056682183
 40
0.0116913545
 40
0.0148721981
 40
0.0181793217
 40
0.0216219649
 40
0.0252080308
 40
0.028944272
 40
0.0328364138
 40
0.036889186
 40
0.0411065363
 40
0.0454916585
 40
0.0500470582
 40
0.0547747194
 40
0.059676056
 40
0.0700025141
 40
0.0810302932
 40
0.0927569712
 40
0.1051756126
 40
0.1182754822
 40
0.1320426197
 40
0.1464602546
 40
0.1615091005
 40
0.1771676493
 40
0.193412418
 40
0.2102181257
 40
0.2275578249
 40
0.2454030779
 40
0.2637240969
 40
0.2824898479
 40
0.301668142
 40
0.3212257705
 40
0.3411286057
 40
0.3818285434
 40
0.4234806754
 40
0.4657880425
 40
0.508447634
 40
0.5511532257
 40
0.5935981755
 40
0.6354782143
 40
0.6764942703
 40
0.696587341
 40
0.7163560828
 40
0.7357658452
 40
0.7547828439
 40
0.7733742819
 40
0.7915084296
 40
0.8091547208
 40
0.8262838838
 40
0.8428680843
 40
0.8588810294
 40
0.874298112
 40
0.8890966136
 40
0.9032559139
 40
0.9167576967
 40
0.9295862426
 40
0.9417288371
 40
0.9531762129
 40
0.9639231508
 40
0.9690339726
 40
0.9739700079
 40
0.9787320973
 40
0.9833215957
 40
0.9877404596
 40
0.991991133
 40
0.9960764972
 40
1.0
 40
1.0
 40
1.0
 40
1.0
 10
12.8836871478
 20
8.7197329109
 30
0.0
 10
12.882651831
 20
8.7200989576
 30
0.0
 10
12.8805832299
 20
8.7209280676
 30
0.0
 10
12.8764649215
 20
8.7229643394
 30
0.0
 10
12.8724611807
 20
8.7255381482
 30
0.0
 10
12.8685964625
 20
8.7285737051
 30
0.0
 10
12.8656763316
 20
8.7311613995
 30
0.0
 10
12.8627897939
 20
8.7340167855
 30
0.0
 10
12.8599375865
 20
8.7371386303
 30
0.0
 10
12.8571210418
 20
8.7405253644
 30
0.0
 10
12.8543413969
 20
8.7441754322
 30
0.0
 10
12.8515998126
 20
8.7480870571
 30
0.0
 10
12.8488975613
 20
8.7522584365
 30
0.0
 10
12.8462358738
 20
8.7566876128
 30
0.0
 10
12.8436159291
 20
8.7613724793
 30
0.0
 10
12.8410389708
 20
8.7663108748
 30
0.0
 10
12.8376020144
 20
8.7733533638
 30
0.0
 10
12.8334353829
 20
8.7827878673
 30
0.0
 10
12.8287090954
 20
8.7948905825
 30
0.0
 10
12.8241820151
 20
8.8079416789
 30
0.0
 10
12.819862766
 20
8.8219164562
 30
0.0
 10
12.8157595982
 20
8.8367887019
 30
0.0
 10
12.8118804186
 20
8.8525302744
 30
0.0
 10
12.8082327358
 20
8.8691113242
 30
0.0
 10
12.8048235971
 20
8.8865003075
 30
0.0
 10
12.8016595951
 20
8.9046640842
 30
0.0
 10
12.7987468629
 20
8.923568003
 30
0.0
 10
12.7960910586
 20
8.9431759665
 30
0.0
 10
12.7936973149
 20
8.9634504964
 30
0.0
 10
12.7915702646
 20
8.9843528191
 30
0.0
 10
12.7897140357
 20
9.0058429528
 30
0.0
 10
12.7881322349
 20
9.0278797796
 30
0.0
 10
12.7868279242
 20
9.050421107
 30
0.0
 10
12.7858035974
 20
9.0734238159
 30
0.0
 10
12.7848065719
 20
9.1048841512
 30
0.0
 10
12.7842857303
 20
9.1450360074
 30
0.0
 10
12.7847978663
 20
9.1939856915
 30
0.0
 10
12.786439451
 20
9.2436804045
 30
0.0
 10
12.7891980485
 20
9.2937397735
 30
0.0
 10
12.7930527098
 20
9.3437808614
 30
0.0
 10
12.7979738468
 20
9.3934208775
 30
0.0
 10
12.8039236862
 20
9.4422798749
 30
0.0
 10
12.8097398015
 20
9.4823029273
 30
0.0
 10
12.8148833891
 20
9.5136414487
 30
0.0
 10
12.8189411424
 20
9.5365589527
 30
0.0
 10
12.8232173959
 20
9.5590067167
 30
0.0
 10
12.8277039786
 20
9.5809417953
 30
0.0
 10
12.832392244
 20
9.6023222006
 30
0.0
 10
12.8372731776
 20
9.6231070245
 30
0.0
 10
12.8423373998
 20
9.6432564981
 30
0.0
 10
12.8475751762
 20
9.6627320863
 30
0.0
 10
12.8529764159
 20
9.6814965716
 30
0.0
 10
12.8585307239
 20
9.6995141136
 30
0.0
 10
12.8642274234
 20
9.7167503176
 30
0.0
 10
12.8700555559
 20
9.7331723259
 30
0.0
 10
12.8760039009
 20
9.7487488913
 30
0.0
 10
12.8820610313
 20
9.7634504378
 30
0.0
 10
12.8882153444
 20
9.7772490924
 30
0.0
 10
12.8944550923
 20
9.79011891
 30
0.0
 10
12.9007683531
 20
9.8020355059
 30
0.0
 10
12.9061675522
 20
9.811302633
 30
0.0
 10
12.9105233516
 20
9.8182093169
 30
0.0
 10
12.9137462316
 20
9.8230500457
 30
0.0
 10
12.9169784604
 20
9.8276363233
 30
0.0
 10
12.9202186048
 20
9.8319660043
 30
0.0
 10
12.9234651433
 20
9.8360371207
 30
0.0
 10
12.9267166617
 20
9.8398477204
 30
0.0
 10
12.9299714101
 20
9.8433958349
 30
0.0
 10
12.9321864193
 20
9.845629557
 30
0.0
 10
12.933294492
 20
9.8466998731
 30
0.0
  0
SPLINE
  5
372
100
AcDbEntity
  8
0
100
AcDbSpline
 62
7
  6
CONTINUOUS
 70
0
 71
3
 72
15
 73
11
 74
0
 42
0.0000001
 43
0.0000001
 44
0.0000000001
 40
0.0
 40
0.0
 40
0.0
 40
0.0
 40
0.1084411279
 40
0.2203204234
 40
0.3363917976
 40
0.4573220227
 40
0.5836916406
 40
0.7159994405
 40
0.8546588732
 40
1.0
 40
1.0
 40
1.0
 40
1.0
 10
12.96305838
 20
9.864228273
 30
0.0
 10
12.9618189492
 20
9.8639752709
 30
0.0
 10
12.9593239754
 20
9.8633408585
 30
0.0
 10
12.9556176728
 20
9.8620379457
 30
0.0
 10
12.9518993333
 20
9.8603727606
 30
0.0
 10
12.9481716329
 20
9.858346947
 30
0.0
 10
12.9444364258
 20
9.8559622415
 30
0.0
 10
12.9406957412
 20
9.8532203702
 30
0.0
 10
12.9369518557
 20
9.8501234629
 30
0.0
 10
12.9345139423
 20
9.8478777717
 30
0.0
 10
12.933294492
 20
9.8466998731
 30
0.0
  0
SPLINE
  5
373
100
AcDbEntity
  8
0
100
AcDbSpline
 62
7
  6
CONTINUOUS
 70
0
 71
3
 72
49
 73
45
 74
0
 42
0.0000001
 43
0.0000001
 44
0.0000000001
 40
0.0
 40
0.0
 40
0.0
 40
0.0
 40
0.0149718081
 40
0.0299466748
 40
0.0449276404
 40
0.059917709
 40
0.0749198276
 40
0.0899368702
 40
0.1049716217
 40
0.120026759
 40
0.1351048351
 40
0.1502082677
 40
0.1653393229
 40
0.1805001009
 40
0.1956925286
 40
0.2109183481
 40
0.2261791043
 40
0.2414761418
 40
0.256810598
 40
0.2721833946
 40
0.287595237
 40
0.3030466133
 40
0.3340634927
 40
0.3652389307
 40
0.3965689749
 40
0.4280463623
 40
0.4596607137
 40
0.4913987952
 40
0.5232448251
 40
0.5551808189
 40
0.5871869764
 40
0.6192420905
 40
0.6513239761
 40
0.6834099169
 40
0.7154771164
 40
0.7475031494
 40
0.779466411
 40
0.8113465537
 40
0.8431249023
 40
0.8747848503
 40
0.906312225
 40
0.9376956122
 40
0.9689264437
 40
1.0
 40
1.0
 40
1.0
 40
1.0
 10
9.9217004704
 20
7.3598308692
 30
0.0
 10
9.9283950374
 20
7.366297342
 30
0.0
 10
9.9420441642
 20
7.3789669162
 30
0.0
 10
9.9632591875
 20
7.3971446502
 30
0.0
 10
9.9851885107
 20
7.4144729899
 30
0.0
 10
10.0078015743
 20
7.4309276478
 30
0.0
 10
10.0310673852
 20
7.4464860611
 30
0.0
 10
10.0549538476
 20
7.461126863
 30
0.0
 10
10.0794281077
 20
7.4748299085
 30
0.0
 10
10.1044565081
 20
7.4875762937
 30
0.0
 10
10.1300045666
 20
7.4993485621
 30
0.0
 10
10.1560371271
 20
7.5101305325
 30
0.0
 10
10.1825183927
 20
7.5199073157
 30
0.0
 10
10.2094118979
 20
7.5286655389
 30
0.0
 10
10.2366806349
 20
7.5363931934
 30
0.0
 10
10.2642871043
 20
7.5430795942
 30
0.0
 10
10.2921933144
 20
7.548715605
 30
0.0
 10
10.3203608593
 20
7.5532935368
 30
0.0
 10
10.3487510389
 20
7.5568070437
 30
0.0
 10
10.3773246629
 20
7.559251341
 30
0.0
 10
10.4060429297
 20
7.5606231038
 30
0.0
 10
10.4445178004
 20
7.5610202144
 30
0.0
 10
10.4927853476
 20
7.5588186118
 30
0.0
 10
10.5505635845
 20
7.5518944957
 30
0.0
 10
10.607965594
 20
7.5407237891
 30
0.0
 10
10.6646739245
 20
7.5253682948
 30
0.0
 10
10.720377833
 20
7.505913038
 30
0.0
 10
10.7747714066
 20
7.4824653095
 30
0.0
 10
10.8275561511
 20
7.4551542041
 30
0.0
 10
10.8784424714
 20
7.4241300903
 30
0.0
 10
10.9271511249
 20
7.3895634474
 30
0.0
 10
10.9734148542
 20
7.3516442063
 30
0.0
 10
11.0169798517
 20
7.3105806634
 30
0.0
 10
11.0576069498
 20
7.2665981664
 30
0.0
 10
11.0950731901
 20
7.2199381729
 30
0.0
 10
11.1291728507
 20
7.1708567313
 30
0.0
 10
11.1597185237
 20
7.1196231089
 30
0.0
 10
11.1865424038
 20
7.0665184788
 30
0.0
 10
11.209496871
 20
7.011834225
 30
0.0
 10
11.2284554844
 20
6.9558703596
 30
0.0
 10
11.2433137768
 20
6.8989343849
 30
0.0
 10
11.2539894475
 20
6.8413378114
 30
0.0
 10
11.2604234399
 20
6.7834010459
 30
0.0
 10
11.261864525
 20
6.7446528554
 30
0.0
 10
11.261864525
 20
6.7253350794
 30
0.0
  0
SPLINE
  5
374
100
AcDbEntity
  8
0
100
AcDbSpline
 62
7
  6
CONTINUOUS
 70
0
 71
3
 72
37
 73
33
 74
0
 42
0.0000001
 43
0.0000001
 44
0.0000000001
 40
0.0
 40
0.0
 40
0.0
 40
0.0
 40
0.030616356
 40
0.0613391448
 40
0.0921654981
 40
0.1230936939
 40
0.1541197581
 40
0.1852392605
 40
0.2164467261
 40
0.2477358784
 40
0.2790996669
 40
0.3105303426
 40
0.3420195366
 40
0.373558339
 40
0.4051373838
 40
0.4367469354
 40
0.4999999764
 40
0.5632530177
 40
0.5948625702
 40
0.6264416168
 40
0.6579804217
 40
0.6894696183
 40
0.7209002967
 40
0.7522640877
 40
0.7835532434
 40
0.8147607133
 40
0.8458802158
 40
0.8769063055
 40
0.9078344324
 40
0.9386609939
 40
0.9693833782
 40
1.0
 40
1.0
 40
1.0
 40
1.0
 10
11.0460519228
 20
6.7488765761
 30
0.0
 10
11.0460519149
 20
6.758180015
 30
0.0
 10
11.0455833487
 20
6.7768225422
 30
0.0
 10
11.0434853793
 20
6.8047612887
 30
0.0
 10
11.0399961881
 20
6.8326566966
 30
0.0
 10
11.0351248665
 20
6.8604374653
 30
0.0
 10
11.0288835551
 20
6.8880341454
 30
0.0
 10
11.0212880953
 20
6.9153771971
 30
0.0
 10
11.0123575957
 20
6.9423979004
 30
0.0
 10
11.0021145759
 20
6.9690283015
 30
0.0
 10
10.9905848428
 20
6.9952014526
 30
0.0
 10
10.9777974405
 20
7.0208515416
 30
0.0
 10
10.9637845203
 20
7.0459141233
 30
0.0
 10
10.9485814769
 20
7.0703260419
 30
0.0
 10
10.9322260469
 20
7.0940264744
 30
0.0
 10
10.9089365698
 20
7.1246002563
 30
0.0
 10
10.87716018
 20
7.1607383011
 30
0.0
 10
10.842145094
 20
7.1937480115
 30
0.0
 10
10.812396809
 20
7.2180830784
 30
0.0
 10
10.7892774365
 20
7.2352500614
 30
0.0
 10
10.7654070631
 20
7.2512900021
 30
0.0
 10
10.7408451707
 20
7.2661630822
 30
0.0
 10
10.7156536515
 20
7.2798317404
 30
0.0
 10
10.6898957986
 20
7.2922616136
 30
0.0
 10
10.6636363784
 20
7.3034213958
 30
0.0
 10
10.6369414059
 20
7.3132829776
 30
0.0
 10
10.6098780048
 20
7.3218214994
 30
0.0
 10
10.5825142129
 20
7.3290154439
 30
0.0
 10
10.5549189122
 20
7.3348466635
 30
0.0
 10
10.5271612548
 20
7.3393004436
 30
0.0
 10
10.4993119864
 20
7.3423654705
 30
0.0
 10
10.4806969373
 20
7.3434798316
 30
0.0
 10
10.4713990063
 20
7.3438022568
 30
0.0
  0
SPLINE
  5
375
100
AcDbEntity
  8
0
100
AcDbSpline
 62
7
  6
CONTINUOUS
 70
0
 71
3
 72
39
 73
35
 74
0
 42
0.0000001
 43
0.0000001
 44
0.0000000001
 40
0.0
 40
0.0
 40
0.0
 40
0.0
 40
0.0299424698
 40
0.0599093171
 40
0.0899243244
 40
0.1200101049
 40
0.1501875654
 40
0.1804754197
 40
0.2108897678
 40
0.2414437479
 40
0.2721472748
 40
0.3030068601
 40
0.3340255156
 40
0.3652027379
 40
0.3965345747
 40
0.4280137612
 40
0.4596299196
 40
0.491369815
 40
0.5232176628
 40
0.555155479
 40
0.5871634623
 40
0.619220404
 40
0.6513041182
 40
0.6833918873
 40
0.7154609133
 40
0.74748877
 40
0.7794538516
 40
0.811335809
 40
0.8431159677
 40
0.8747777197
 40
0.9063068786
 40
0.9376920899
 40
0.9689246486
 40
1.0
 40
1.0
 40
1.0
 40
1.0
 10
10.9857332184
 20
10.4553948086
 30
0.0
 10
10.9938953373
 20
10.4632787834
 30
0.0
 10
11.0108614137
 20
10.4784104241
 30
0.0
 10
11.0380436796
 20
10.4990246101
 30
0.0
 10
11.0668201861
 20
10.5174523256
 30
0.0
 10
11.0970301226
 20
10.5335902249
 30
0.0
 10
11.1285074031
 20
10.5473501409
 30
0.0
 10
11.1610783181
 20
10.5586564146
 30
0.0
 10
11.1945633834
 20
10.5674471733
 30
0.0
 10
11.228778111
 20
10.5736744535
 30
0.0
 10
11.263534123
 20
10.5773044329
 30
0.0
 10
11.2986401679
 20
10.5783175864
 30
0.0
 10
11.3339031705
 20
10.5767087657
 30
0.0
 10
11.3691292912
 20
10.5724872816
 30
0.0
 10
11.404124987
 20
10.5656767588
 30
0.0
 10
11.4386980572
 20
10.5563149909
 30
0.0
 10
11.4726586757
 20
10.5444537108
 30
0.0
 10
11.5058204348
 20
10.5301583564
 30
0.0
 10
11.5380013585
 20
10.5135076907
 30
0.0
 10
11.5690248689
 20
10.4945933259
 30
0.0
 10
11.5987207394
 20
10.4735192306
 30
0.0
 10
11.6269260205
 20
10.450401175
 30
0.0
 10
11.6534859619
 20
10.4253661413
 30
0.0
 10
11.6782548079
 20
10.3985515706
 30
0.0
 10
11.7010965917
 20
10.370104628
 30
0.0
 10
11.721885862
 20
10.3401813994
 30
0.0
 10
11.7405084252
 20
10.3089460894
 30
0.0
 10
11.7568619326
 20
10.2765700889
 30
0.0
 10
11.7708564215
 20
10.2432310629
 30
0.0
 10
11.7824147942
 20
10.2091119122
 30
0.0
 10
11.7914733155
 20
10.1744000793
 30
0.0
 10
11.7979818581
 20
10.1392855315
 30
0.0
 10
11.8019044555
 20
10.1039635733
 30
0.0
 10
11.8027830198
 20
10.0803402078
 30
0.0
 10
11.8027830198
 20
10.0685628467
 30
0.0
  0
SPLINE
  5
376
100
AcDbEntity
  8
0
100
AcDbSpline
 62
7
  6
CONTINUOUS
 70
0
 71
3
 72
73
 73
69
 74
0
 42
0.0000001
 43
0.0000001
 44
0.0000000001
 40
0.0
 40
0.0
 40
0.0
 40
0.0
 40
0.003800736
 40
0.0077417125
 40
0.0118259694
 40
0.0160561769
 40
0.0204346131
 40
0.0249630939
 40
0.0296429337
 40
0.0344751192
 40
0.0394602956
 40
0.0445988122
 40
0.0553355296
 40
0.0666836134
 40
0.0786374516
 40
0.0911885496
 40
0.1043259028
 40
0.1180362832
 40
0.1323045015
 40
0.1471136189
 40
0.162445114
 40
0.17827901
 40
0.1945940074
 40
0.2113676071
 40
0.2285762078
 40
0.2461951847
 40
0.2641989728
 40
0.2825611594
 40
0.3012545575
 40
0.32025127
 40
0.339522754
 40
0.3787724686
 40
0.4187658439
 40
0.4592583072
 40
0.5000013073
 40
0.540744295
 40
0.5812367231
 40
0.6212300376
 40
0.6604796713
 40
0.6797511037
 40
0.6987477602
 40
0.7174411008
 40
0.7358032217
 40
0.753806936
 40
0.7714258352
 40
0.7886343588
 40
0.8054078745
 40
0.821722779
 40
0.8375565782
 40
0.8528879785
 40
0.8676969974
 40
0.8819651077
 40
0.8956753762
 40
0.9088126204
 40
0.9213636101
 40
0.9333173313
 40
0.9446652935
 40
0.9554018944
 40
0.9605403572
 40
0.9655254793
 40
0.9703575922
 40
0.9750373707
 40
0.9795657989
 40
0.9839442122
 40
0.9881743889
 40
0.9922585134
 40
0.9961992942
 40
1.0
 40
1.0
 40
1.0
 40
1.0
 10
11.5866695633
 20
10.986554785
 30
0.0
 10
11.5851107403
 20
10.9851041882
 30
0.0
 10
11.5818763565
 20
10.982212564
 30
0.0
 10
11.5767785379
 20
10.9779786323
 30
0.0
 10
11.5713499486
 20
10.9737725908
 30
0.0
 10
11.5655930127
 20
10.9695962152
 30
0.0
 10
11.5595099977
 20
10.9654510997
 30
0.0
 10
11.553103324
 20
10.9613389073
 30
0.0
 10
11.5463756197
 20
10.9572612256
 30
0.0
 10
11.5393296127
 20
10.953219792
 30
0.0
 10
11.5319681849
 20
10.9492162
 30
0.0
 10
11.5215840433
 20
10.9438521351
 30
0.0
 10
11.5078226473
 20
10.9372668148
 30
0.0
 10
11.4903347921
 20
10.9296526424
 30
0.0
 10
11.4716674945
 20
10.9222276749
 30
0.0
 10
11.4518513236
 20
10.9150041377
 30
0.0
 10
11.4309184764
 20
10.9079939387
 30
0.0
 10
11.4089031844
 20
10.901208654
 30
0.0
 10
11.385841495
 20
10.8946595066
 30
0.0
 10
11.3617712265
 20
10.8883573452
 30
0.0
 10
11.3367318914
 20
10.8823126238
 30
0.0
 10
11.3107646404
 20
10.8765353574
 30
0.0
 10
11.283912183
 20
10.8710351136
 30
0.0
 10
11.2562187005
 20
10.8658210086
 30
0.0
 10
11.2277297707
 20
10.860901691
 30
0.0
 10
11.1984923015
 20
10.8562853136
 30
0.0
 10
11.168554452
 20
10.8519795146
 30
0.0
 10
11.1379655365
 20
10.8479914227
 30
0.0
 10
11.1067759586
 20
10.8443276579
 30
0.0
 10
11.0750370657
 20
10.8409942549
 30
0.0
 10
11.0317934573
 20
10.8369733191
 30
0.0
 10
10.9767517142
 20
10.8328248707
 30
0.0
 10
10.9097593431
 20
10.829266392
 30
0.0
 10
10.841869764
 20
10.8271217904
 30
0.0
 10
10.7735302519
 20
10.8264053819
 30
0.0
 10
10.705190761
 20
10.8271219286
 30
0.0
 10
10.6373012468
 20
10.8292666628
 30
0.0
 10
10.5703089823
 20
10.8328252818
 30
0.0
 10
10.5152673556
 20
10.8369738334
 30
0.0
 10
10.4720238619
 20
10.8409948623
 30
0.0
 10
10.4402850689
 20
10.8443283304
 30
0.0
 10
10.4090955987
 20
10.8479921516
 30
0.0
 10
10.3785068026
 20
10.8519803057
 30
0.0
 10
10.348569085
 20
10.856286168
 30
0.0
 10
10.3193317552
 20
10.8609026068
 30
0.0
 10
10.2908429702
 20
10.8658219758
 30
0.0
 10
10.2631496427
 20
10.8710361354
 30
0.0
 10
10.2362973535
 20
10.8765364363
 30
0.0
 10
10.2103302781
 20
10.8823137583
 30
0.0
 10
10.1852911214
 20
10.8883585258
 30
0.0
 10
10.161221039
 20
10.8946607319
 30
0.0
 10
10.138159549
 20
10.901209929
 30
0.0
 10
10.1161444645
 20
10.9079952615
 30
0.0
 10
10.0952118254
 20
10.915005501
 30
0.0
 10
10.0753958658
 20
10.9222290712
 30
0.0
 10
10.0567287933
 20
10.9296540796
 30
0.0
 10
10.0392411722
 20
10.9372682912
 30
0.0
 10
10.0254799699
 20
10.9438536379
 30
0.0
 10
10.0150959836
 20
10.9492177292
 30
0.0
 10
10.0077346725
 20
10.953221324
 30
0.0
 10
10.000688802
 20
10.9572627837
 30
0.0
 10
9.993961214
 20
10.9613404555
 30
0.0
 10
9.9875546506
 20
10.9654526785
 30
0.0
 10
9.9814717427
 20
10.9695978451
 30
0.0
 10
9.9757149315
 20
10.9737742152
 30
0.0
 10
9.970286559
 20
10.977980208
 30
0.0
 10
9.9651889287
 20
10.9822140517
 30
0.0
 10
9.9619546788
 20
10.9851056367
 30
0.0
 10
9.9603958943
 20
10.9865562501
 30
0.0
  0
SPLINE
  5
377
100
AcDbEntity
  8
0
100
AcDbSpline
 62
7
  6
CONTINUOUS
 70
0
 71
3
 72
13
 73
9
 74
0
 42
0.0000001
 43
0.0000001
 44
0.0000000001
 40
0.0
 40
0.0
 40
0.0
 40
0.0
 40
0.2883409816
 40
0.4205270935
 40
0.5460505317
 40
0.6658569605
 40
0.780868943
 40
1.0
 40
1.0
 40
1.0
 40
1.0
 10
9.9941489041
 20
10.9614257018
 30
0.0
 10
9.9936921312
 20
10.9624586582
 30
0.0
 10
9.993091872
 20
10.9639964138
 30
0.0
 10
9.9924714604
 20
10.966044085
 30
0.0
 10
9.9921147316
 20
10.9674798524
 30
0.0
 10
9.9918470114
 20
10.9688664477
 30
0.0
 10
9.9916051678
 20
10.9706286715
 30
0.0
 10
9.9915335224
 20
10.9719389342
 30
0.0
 10
9.9915335224
 20
10.9727972789
 30
0.0
  0
SPLINE
  5
378
100
AcDbEntity
  8
0
100
AcDbSpline
 62
7
  6
CONTINUOUS
 70
0
 71
3
 72
11
 73
7
 74
0
 42
0.0000001
 43
0.0000001
 44
0.0000000001
 40
0.0
 40
0.0
 40
0.0
 40
0.0
 40
0.2196582086
 40
0.4546240807
 40
0.7119771279
 40
1.0
 40
1.0
 40
1.0
 40
1.0
 10
11.5555335224
 20
10.9727972789
 30
0.0
 10
11.5555335224
 20
10.9719407139
 30
0.0
 10
11.5554363578
 20
10.9701663894
 30
0.0
 10
11.5549780492
 20
10.9674228232
 30
0.0
 10
11.5541643714
 20
10.9644852672
 30
0.0
 10
11.5533908525
 20
10.9624999499
 30
0.0
 10
11.5529377958
 20
10.9614722254
 30
0.0
  0
SPLINE
  5
379
100
AcDbEntity
  8
0
100
AcDbSpline
 62
7
  6
CONTINUOUS
 70
0
 71
3
 72
53
 73
49
 74
0
 42
0.0000001
 43
0.0000001
 44
0.0000000001
 40
0.0
 40
0.0
 40
0.0
 40
0.0
 40
0.0094764718
 40
0.0194607499
 40
0.0299510104
 40
0.0409432183
 40
0.0524316016
 40
0.0644087203
 40
0.0768657297
 40
0.0897925242
 40
0.1031777744
 40
0.1170091765
 40
0.1312733751
 40
0.1459561776
 40
0.1610425491
 40
0.1765166667
 40
0.2085608588
 40
0.2419497287
 40
0.276534402
 40
0.3121582059
 40
0.3486578834
 40
0.3858647468
 40
0.4236057919
 40
0.4617047902
 40
0.4999833742
 40
0.5382621086
 40
0.5763615573
 40
0.6141033495
 40
0.6513112526
 40
0.6878122569
 40
0.7234376663
 40
0.7580242134
 40
0.7914152128
 40
0.8234617748
 40
0.8389371651
 40
0.8540248599
 40
0.8687090423
 40
0.8829746649
 40
0.8968075405
 40
0.9101943061
 40
0.9231226538
 40
0.935581257
 40
0.9475599959
 40
0.959050032
 40
0.9700439094
 40
0.9805358597
 40
0.9905218441
 40
1.0
 40
1.0
 40
1.0
 40
1.0
 10
12.8233334518
 20
8.8107378662
 30
0.0
 10
12.8249963542
 20
8.813399071
 30
0.0
 10
12.8283047624
 20
8.8189311641
 30
0.0
 10
12.8331025327
 20
8.8276132903
 30
0.0
 10
12.8378592379
 20
8.8368858087
 30
0.0
 10
12.8425689642
 20
8.8467371179
 30
0.0
 10
12.8472258086
 20
8.8571551316
 30
0.0
 10
12.851823987
 20
8.868126927
 30
0.0
 10
12.8563577496
 20
8.8796388998
 30
0.0
 10
12.8608213845
 20
8.8916767504
 30
0.0
 10
12.865209354
 20
8.9042254905
 30
0.0
 10
12.8695160935
 20
8.9172695006
 30
0.0
 10
12.8737362554
 20
8.9307925138
 30
0.0
 10
12.8778645116
 20
8.9447776621
 30
0.0
 10
12.8818957162
 20
8.9592075088
 30
0.0
 10
12.887196188
 20
8.9792498959
 30
0.0
 10
12.8935273184
 20
9.0052859058
 30
0.0
 10
12.9005755772
 20
9.0376499747
 30
0.0
 10
12.9071247712
 20
9.0713269416
 30
0.0
 10
12.9131419368
 20
9.1061485995
 30
0.0
 10
12.9185967633
 20
9.1419411931
 30
0.0
 10
12.923461813
 20
9.1785259741
 30
0.0
 10
12.9277126339
 20
9.2157202061
 30
0.0
 10
12.9313278927
 20
9.2533380662
 30
0.0
 10
12.9342894692
 20
9.2911915945
 30
0.0
 10
12.936582546
 20
9.3290916428
 30
0.0
 10
12.9381956832
 20
9.3668488276
 30
0.0
 10
12.9391208759
 20
9.4042744853
 30
0.0
 10
12.9393535979
 20
9.4411816234
 30
0.0
 10
12.9388928378
 20
9.4773858747
 30
0.0
 10
12.9377410904
 20
9.5127064081
 30
0.0
 10
12.935904385
 20
9.5469669389
 30
0.0
 10
12.9333921461
 20
9.5799963098
 30
0.0
 10
12.9307164735
 20
9.6066590214
 30
0.0
 10
12.9282340633
 20
9.6272429496
 30
0.0
 10
12.9262338243
 20
9.6420925146
 30
0.0
 10
12.9240760767
 20
9.6565150958
 30
0.0
 10
12.9217634949
 20
9.6704927117
 30
0.0
 10
12.9192990394
 20
9.6840079182
 30
0.0
 10
12.9166857538
 20
9.6970438639
 30
0.0
 10
12.9139269915
 20
9.7095843086
 30
0.0
 10
12.9110261775
 20
9.7216136417
 30
0.0
 10
12.9079869785
 20
9.7331169085
 30
0.0
 10
12.9048132286
 20
9.7440798398
 30
0.0
 10
12.9015088585
 20
9.7544888354
 30
0.0
 10
12.89807805
 20
9.7643311088
 30
0.0
 10
12.8945250625
 20
9.7735943456
 30
0.0
 10
12.8920122336
 20
9.7795314975
 30
0.0
 10
12.8907327344
 20
9.7823974418
 30
0.0
  0
SPLINE
  5
37A
100
AcDbEntity
  8
0
100
AcDbSpline
 62
7
  6
CONTINUOUS
 70
0
 71
3
 72
23
 73
19
 74
0
 42
0.0000001
 43
0.0000001
 44
0.0000000001
 40
0.0
 40
0.0
 40
0.0
 40
0.0
 40
0.0637776914
 40
0.1273445726
 40
0.19070205
 40
0.2538561286
 40
0.3168131755
 40
0.3795820937
 40
0.4421733816
 40
0.5045993375
 40
0.566873868
 40
0.6290123843
 40
0.691031656
 40
0.7529496505
 40
0.8147853588
 40
0.8765586069
 40
0.938289857
 40
1.0
 40
1.0
 40
1.0
 40
1.0
 10
9.702860149
 20
6.8334524001
 30
0.0
 10
9.702860149
 20
6.8459034809
 30
0.0
 10
9.7034560583
 20
6.8707687079
 30
0.0
 10
9.7061459551
 20
6.9079153854
 30
0.0
 10
9.7106244649
 20
6.9447674785
 30
0.0
 10
9.7168811596
 20
6.9812387758
 30
0.0
 10
9.7249018434
 20
7.0172456489
 30
0.0
 10
9.7346680349
 20
7.0527049554
 30
0.0
 10
9.7461573389
 20
7.0875349798
 30
0.0
 10
9.759343332
 20
7.1216553945
 30
0.0
 10
9.7741956911
 20
7.1549875091
 30
0.0
 10
9.7906802352
 20
7.1874544398
 30
0.0
 10
9.8087589981
 20
7.2189812896
 30
0.0
 10
9.8283903491
 20
7.2494953452
 30
0.0
 10
9.8495289853
 20
7.2789261452
 30
0.0
 10
9.8721264201
 20
7.3072060266
 30
0.0
 10
9.8961296608
 20
7.3342688585
 30
0.0
 10
9.9130353045
 20
7.3514609387
 30
0.0
 10
9.9217004704
 20
7.3598308692
 30
0.0
  0
SPLINE
  5
37B
100
AcDbEntity
  8
0
100
AcDbSpline
 62
7
  6
CONTINUOUS
 70
0
 71
3
 72
39
 73
35
 74
0
 42
0.0000001
 43
0.0000001
 44
0.0000000001
 40
0.0
 40
0.0
 40
0.0
 40
0.0
 40
0.0234885163
 40
0.0483834406
 40
0.0746242899
 40
0.102142903
 40
0.1308643872
 40
0.1607079035
 40
0.1915873416
 40
0.2234119189
 40
0.2560867264
 40
0.2895132402
 40
0.3235898056
 40
0.3582121061
 40
0.3932736189
 40
0.428666064
 40
0.4642798468
 40
0.5000044978
 40
0.5357291108
 40
0.5713427794
 40
0.6067350341
 40
0.6417962806
 40
0.6764182396
 40
0.7104943897
 40
0.7439204157
 40
0.7765946655
 40
0.8084186173
 40
0.8392973654
 40
0.8691401307
 40
0.8978608066
 40
0.9253785589
 40
0.9516184998
 40
0.976512473
 40
1.0
 40
1.0
 40
1.0
 40
1.0
 10
12.8010989581
 20
8.9090124485
 30
0.0
 10
12.8034330399
 20
8.9147391912
 30
0.0
 10
12.8080265605
 20
8.9266237285
 30
0.0
 10
12.8145351502
 20
8.9451644742
 30
0.0
 10
12.8208459455
 20
8.9648904603
 30
0.0
 10
12.8269377787
 20
8.9857365396
 30
0.0
 10
12.8327903611
 20
9.0076341639
 30
0.0
 10
12.8383841638
 20
9.0305110885
 30
0.0
 10
12.8437005423
 20
9.0542917948
 30
0.0
 10
12.8487217827
 20
9.0788977117
 30
0.0
 10
12.8534311647
 20
9.104247501
 30
0.0
 10
12.8578130148
 20
9.1302573321
 30
0.0
 10
12.8618527573
 20
9.1568411675
 30
0.0
 10
12.8655369617
 20
9.1839110525
 30
0.0
 10
12.8688533861
 20
9.2113774104
 30
0.0
 10
12.8717910171
 20
9.2391493423
 30
0.0
 10
12.8743401055
 20
9.2671349306
 30
0.0
 10
12.8764921985
 20
9.2952415459
 30
0.0
 10
12.8782401676
 20
9.3233761551
 30
0.0
 10
12.8795782316
 20
9.3514456318
 30
0.0
 10
12.8805019768
 20
9.3793570663
 30
0.0
 10
12.8810083723
 20
9.4070180754
 30
0.0
 10
12.8810957796
 20
9.4343371105
 30
0.0
 10
12.8807639597
 20
9.4612237634
 30
0.0
 10
12.8800140747
 20
9.4875890685
 30
0.0
 10
12.8788486855
 20
9.5133458012
 30
0.0
 10
12.8772717449
 20
9.5384087717
 30
0.0
 10
12.8752885867
 20
9.5626951145
 30
0.0
 10
12.8729059104
 20
9.5861245676
 30
0.0
 10
12.8701317591
 20
9.6086197644
 30
0.0
 10
12.8669755021
 20
9.6301064586
 30
0.0
 10
12.8634477762
 20
9.6505139613
 30
0.0
 10
12.8595605433
 20
9.6697748266
 30
0.0
 10
12.8566513464
 20
9.6821791093
 30
0.0
 10
12.8551300151
 20
9.6881729269
 30
0.0
  0
SPLINE
  5
37C
100
AcDbEntity
  8
0
100
AcDbSpline
 62
7
  6
CONTINUOUS
 70
0
 71
3
 72
85
 73
81
 74
0
 42
0.0000001
 43
0.0000001
 44
0.0000000001
 40
0.0
 40
0.0
 40
0.0
 40
0.0
 40
0.0027164321
 40
0.0054532385
 40
0.0082303085
 40
0.011066603
 40
0.0139798079
 40
0.0169861193
 40
0.0233311764
 40
0.0266975277
 40
0.0302054756
 40
0.033863392
 40
0.0376783486
 40
0.0416563264
 40
0.0458022472
 40
0.050120174
 40
0.0546133665
 40
0.0592843698
 40
0.0641351496
 40
0.0691670674
 40
0.0743810463
 40
0.0797775355
 40
0.0853565984
 40
0.0911179629
 40
0.0970609898
 40
0.1094877374
 40
0.1226269862
 40
0.1364646504
 40
0.1509834607
 40
0.1661633573
 40
0.1819818055
 40
0.1984140483
 40
0.2154333259
 40
0.233011069
 40
0.2511170619
 40
0.2697195894
 40
0.2887855696
 40
0.3082806737
 40
0.3281694478
 40
0.3484154285
 40
0.36898125
 40
0.3898287485
 40
0.4109190644
 40
0.4322127408
 40
0.4536698284
 40
0.4969118802
 40
0.5403202169
 40
0.5835675225
 40
0.6050291933
 40
0.6263287434
 40
0.6474262089
 40
0.6682821161
 40
0.6888575847
 40
0.7091144272
 40
0.7290152501
 40
0.748523559
 40
0.7676038654
 40
0.7862218038
 40
0.8043442504
 40
0.821939444
 40
0.838977118
 40
0.8554286471
 40
0.8712672105
 40
0.8864679851
 40
0.9010083612
 40
0.9148681946
 40
0.9280301198
 40
0.9404799413
 40
0.9464346146
 40
0.9522076736
 40
0.9577984609
 40
0.9632066809
 40
0.9684323855
 40
0.9734759888
 40
0.9783383641
 40
0.9830208263
 40
0.9875253632
 40
0.991854574
 40
0.996011563
 40
1.0
 40
1.0
 40
1.0
 40
1.0
 10
13.0200356848
 20
10.0942152553
 30
0.0
 10
13.0215418509
 20
10.0941108023
 30
0.0
 10
13.0245577642
 20
10.0937647579
 30
0.0
 10
13.0290432463
 20
10.0928388658
 30
0.0
 10
13.0334948302
 20
10.0915061713
 30
0.0
 10
13.0379093012
 20
10.0897680534
 30
0.0
 10
13.0422845946
 20
10.0876259482
 30
0.0
 10
13.0481674852
 20
10.0841720066
 30
0.0
 10
13.0538621947
 20
10.0799435503
 30
0.0
 10
13.0593493606
 20
10.075054048
 30
0.0
 10
13.063497677
 20
10.0709193654
 30
0.0
 10
13.0675946014
 20
10.0663925746
 30
0.0
 10
13.0716389175
 20
10.0614756153
 30
0.0
 10
13.0756285465
 20
10.0561709881
 30
0.0
 10
13.079561777
 20
10.0504813389
 30
0.0
 10
13.0834366974
 20
10.0444094453
 30
0.0
 10
13.087251468
 20
10.0379582991
 30
0.0
 10
13.0910042921
 20
10.0311310956
 30
0.0
 10
13.094693263
 20
10.0239311736
 30
0.0
 10
13.0983166587
 20
10.0163621282
 30
0.0
 10
13.1018726148
 20
10.0084276862
 30
0.0
 10
13.1053594079
 20
10.0001318028
 30
0.0
 10
13.1087752947
 20
9.9914786087
 30
0.0
 10
13.1121185627
 20
9.9824723946
 30
0.0
 10
13.1165431281
 20
9.9698104951
 30
0.0
 10
13.1218638469
 20
9.953121727
 30
0.0
 10
13.1278421504
 20
9.9320497105
 30
0.0
 10
13.1334931064
 20
9.9096865063
 30
0.0
 10
13.1388052749
 20
9.8860768798
 30
0.0
 10
13.1437678557
 20
9.8612678625
 30
0.0
 10
13.1483707513
 20
9.8353090817
 30
0.0
 10
13.1526045953
 20
9.8082525176
 30
0.0
 10
13.1564607739
 20
9.7801524191
 30
0.0
 10
13.1599314385
 20
9.7510651685
 30
0.0
 10
13.1630095237
 20
9.7210491598
 30
0.0
 10
13.1656887617
 20
9.6901646764
 30
0.0
 10
13.1679636925
 20
9.6584737682
 30
0.0
 10
13.1698296841
 20
9.6260401256
 30
0.0
 10
13.1712829353
 20
9.5929289463
 30
0.0
 10
13.1723204795
 20
9.5592067978
 30
0.0
 10
13.1729401905
 20
9.5249414831
 30
0.0
 10
13.1731407894
 20
9.4902018975
 30
0.0
 10
13.1729218328
 20
9.455057917
 30
0.0
 10
13.1722837746
 20
9.419580161
 30
0.0
 10
13.1708721715
 20
9.3718056332
 30
0.0
 10
13.1680693516
 20
9.3117796375
 30
0.0
 10
13.163087024
 20
9.2397493604
 30
0.0
 10
13.1575983714
 20
9.1799036632
 30
0.0
 10
13.1524183862
 20
9.1323810309
 30
0.0
 10
13.1481651114
 20
9.097143516
 30
0.0
 10
13.1435425314
 20
9.0622921686
 30
0.0
 10
13.1385599225
 20
9.0278970217
 30
0.0
 10
13.1332273462
 20
8.9940272525
 30
0.0
 10
13.1275555565
 20
8.9607509571
 30
0.0
 10
13.1215559966
 20
8.9281350369
 30
0.0
 10
13.1152407723
 20
8.8962450585
 30
0.0
 10
13.1086226272
 20
8.8651451203
 30
0.0
 10
13.101714923
 20
8.834897716
 30
0.0
 10
13.0945316136
 20
8.8055636054
 30
0.0
 10
13.0870872107
 20
8.7772016914
 30
0.0
 10
13.0793967554
 20
8.7498689002
 30
0.0
 10
13.0714757886
 20
8.7236200611
 30
0.0
 10
13.0633403145
 20
8.6985077877
 30
0.0
 10
13.0550067741
 20
8.6745823452
 30
0.0
 10
13.0464920057
 20
8.6518915719
 30
0.0
 10
13.0378131875
 20
8.6304806441
 30
0.0
 10
13.0289878207
 20
8.6103924062
 30
0.0
 10
13.0214178697
 20
8.5945608329
 30
0.0
 10
13.0152903901
 20
8.5826006052
 30
0.0
 10
13.0107375063
 20
8.5741191347
 30
0.0
 10
13.0061612904
 20
8.5659970606
 30
0.0
 10
13.0015640113
 20
8.558238411
 30
0.0
 10
12.9969479774
 20
8.5508470406
 30
0.0
 10
12.9923154335
 20
8.543826656
 30
0.0
 10
12.9876687705
 20
8.5371807137
 30
0.0
 10
12.9830101873
 20
8.5309125272
 30
0.0
 10
12.9783419667
 20
8.5250251222
 30
0.0
 10
12.973666273
 20
8.5195213751
 30
0.0
 10
12.9689856144
 20
8.5144042741
 30
0.0
 10
12.9657985355
 20
8.5111867983
 30
0.0
 10
12.964204121
 20
8.509646712
 30
0.0
  0
SPLINE
  5
37D
100
AcDbEntity
  8
0
100
AcDbSpline
 62
7
  6
CONTINUOUS
 70
0
 71
3
 72
51
 73
47
 74
0
 42
0.0000001
 43
0.0000001
 44
0.0000000001
 40
0.0
 40
0.0
 40
0.0
 40
0.0
 40
0.0083888522
 40
0.0173410458
 40
0.0268641187
 40
0.0369607104
 40
0.0476299625
 40
0.0588679036
 40
0.0706682579
 40
0.0830222743
 40
0.0959194553
 40
0.1093473589
 40
0.1232922028
 40
0.137738587
 40
0.1680676642
 40
0.2001896813
 40
0.2339425619
 40
0.2691506961
 40
0.3056269822
 40
0.3431746672
 40
0.381589064
 40
0.4206591952
 40
0.4601693916
 40
0.4999008651
 40
0.5396332682
 40
0.5791462468
 40
0.6182209932
 40
0.6566418054
 40
0.6941976596
 40
0.7306838092
 40
0.7659034272
 40
0.7996693229
 40
0.8318057816
 40
0.8621506035
 40
0.8766052982
 40
0.8905587318
 40
0.9039954619
 40
0.9169016999
 40
0.929264955
 40
0.9410747296
 40
0.9523222114
 40
0.9630010782
 40
0.9731072968
 40
0.9826400989
 40
0.9916019886
 40
1.0
 40
1.0
 40
1.0
 40
1.0
 10
12.6424898593
 20
6.7315884402
 30
0.0
 10
12.6432124354
 20
6.7324721598
 30
0.0
 10
12.6446519418
 20
6.7343436663
 30
0.0
 10
12.646732743
 20
6.7373507543
 30
0.0
 10
12.6488016912
 20
6.7406438707
 30
0.0
 10
12.6508558614
 20
6.7442181834
 30
0.0
 10
12.6528922062
 20
6.7480686313
 30
0.0
 10
12.6549078226
 20
6.7521895892
 30
0.0
 10
12.6568996767
 20
6.7565750897
 30
0.0
 10
12.6588649089
 20
6.7612187093
 30
0.0
 10
12.6608005341
 20
6.7661136627
 30
0.0
 10
12.662703751
 20
6.7712527457
 30
0.0
 10
12.6645716937
 20
6.7766284162
 30
0.0
 10
12.6670519043
 20
6.7842245981
 30
0.0
 10
12.6700333516
 20
6.7942570039
 30
0.0
 10
12.6733730783
 20
6.8069167507
 30
0.0
 10
12.6765103159
 20
6.8203108909
 30
0.0
 10
12.6794263364
 20
6.8343604006
 30
0.0
 10
12.6821037023
 20
6.8489824876
 30
0.0
 10
12.6845264387
 20
6.8640908415
 30
0.0
 10
12.6866801039
 20
6.8795962437
 30
0.0
 10
12.6885518777
 20
6.8954070884
 30
0.0
 10
12.690130633
 20
6.911429941
 30
0.0
 10
12.6914070004
 20
6.927570098
 30
0.0
 10
12.6923734226
 20
6.9437321545
 30
0.0
 10
12.6930241994
 20
6.9598205741
 30
0.0
 10
12.6933555217
 20
6.9757402604
 30
0.0
 10
12.6933654968
 20
6.9913971267
 30
0.0
 10
12.6930541607
 20
7.0066986585
 30
0.0
 10
12.6924234852
 20
7.0215544776
 30
0.0
 10
12.6914773621
 20
7.0358768699
 30
0.0
 10
12.6902216177
 20
7.0495813993
 30
0.0
 10
12.6886638763
 20
7.0625871793
 30
0.0
 10
12.6870978854
 20
7.0729407042
 30
0.0
 10
12.6856915931
 20
7.0808113311
 30
0.0
 10
12.6845847273
 20
7.0863971831
 30
0.0
 10
12.6834102327
 20
7.0917537173
 30
0.0
 10
12.6821699177
 20
7.0968730619
 30
0.0
 10
12.6808655475
 20
7.1017476896
 30
0.0
 10
12.6794991525
 20
7.1063704626
 30
0.0
 10
12.6780726622
 20
7.1107346125
 30
0.0
 10
12.6765882805
 20
7.1148338046
 30
0.0
 10
12.6750480826
 20
7.1186620698
 30
0.0
 10
12.6734543827
 20
7.122213974
 30
0.0
 10
12.6718094174
 20
7.1254842697
 30
0.0
 10
12.6706426312
 20
7.1275398529
 30
0.0
 10
12.6700492706
 20
7.1285165037
 30
0.0
  0
SPLINE
  5
37E
100
AcDbEntity
  8
0
100
AcDbSpline
 62
7
  6
CONTINUOUS
 70
0
 71
3
 72
24
 73
20
 74
0
 42
0.0000001
 43
0.0000001
 44
0.0000000001
 40
0.0
 40
0.0
 40
0.0
 40
0.0
 40
0.0755925909
 40
0.1466352375
 40
0.2134610851
 40
0.2454346742
 40
0.2765272927
 40
0.3363373944
 40
0.3935565559
 40
0.4489316461
 40
0.5032955233
 40
0.5575322568
 40
0.6125325048
 40
0.6691475563
 40
0.7281521761
 40
0.7902217656
 40
0.8559251613
 40
0.9257271518
 40
1.0
 40
1.0
 40
1.0
 40
1.0
 10
12.7053852895
 20
6.6562099019
 30
0.0
 10
12.7046071118
 20
6.6554582399
 30
0.0
 10
12.7030517155
 20
6.6540463515
 30
0.0
 10
12.7006447417
 20
6.6521601964
 30
0.0
 10
12.6986119862
 20
6.6508208454
 30
0.0
 10
12.6969908098
 20
6.649909524
 30
0.0
 10
12.6954168252
 20
6.6491237117
 30
0.0
 10
12.6934488643
 20
6.6483233512
 30
0.0
 10
12.69106626
 20
6.6476595844
 30
0.0
 10
12.6886961629
 20
6.6473073049
 30
0.0
 10
12.6863426735
 20
6.64726817
 30
0.0
 10
12.6840102775
 20
6.6475428055
 30
0.0
 10
12.6817035018
 20
6.6481303408
 30
0.0
 10
12.679426259
 20
6.6490288216
 30
0.0
 10
12.6771815807
 20
6.6502356299
 30
0.0
 10
12.6749717171
 20
6.6517479797
 30
0.0
 10
12.6727984856
 20
6.6535632835
 30
0.0
 10
12.6706635921
 20
6.6556788127
 30
0.0
 10
12.6693105614
 20
6.657237558
 30
0.0
 10
12.6686398235
 20
6.6580622707
 30
0.0
  0
SPLINE
  5
37F
100
AcDbEntity
  8
0
100
AcDbSpline
 62
7
  6
CONTINUOUS
 70
0
 71
3
 72
23
 73
19
 74
0
 42
0.0000001
 43
0.0000001
 44
0.0000000001
 40
0.0
 40
0.0
 40
0.0
 40
0.0
 40
0.0637771735
 40
0.1273448473
 40
0.1907019822
 40
0.253856143
 40
0.3168131975
 40
0.3795820985
 40
0.4421733906
 40
0.5045993374
 40
0.5668738654
 40
0.62901238
 40
0.6910316489
 40
0.7529496402
 40
0.814785347
 40
0.8765585971
 40
0.938289852
 40
1.0
 40
1.0
 40
1.0
 40
1.0
 10
10.8523119504
 20
10.1344782393
 30
0.0
 10
10.8523119504
 20
10.1420692268
 30
0.0
 10
10.8526752863
 20
10.1572288388
 30
0.0
 10
10.854315207
 20
10.1798760441
 30
0.0
 10
10.8570456796
 20
10.2023437127
 30
0.0
 10
10.8608601919
 20
10.2245791348
 30
0.0
 10
10.8657501941
 20
10.2465314438
 30
0.0
 10
10.8717044074
 20
10.2681498984
 30
0.0
 10
10.8787091505
 20
10.2893846932
 30
0.0
 10
10.8867483143
 20
10.3101868584
 30
0.0
 10
10.8958034038
 20
10.3305084197
 30
0.0
 10
10.9058535972
 20
10.3503024976
 30
0.0
 10
10.9168757589
 20
10.3695234198
 30
0.0
 10
10.9288444873
 20
10.3881268653
 30
0.0
 10
10.9417321573
 20
10.4060698805
 30
0.0
 10
10.9555092154
 20
10.4233112074
 30
0.0
 10
10.9701433503
 20
10.4398105331
 30
0.0
 10
10.9804503116
 20
10.4502919297
 30
0.0
 10
10.9857332184
 20
10.4553948086
 30
0.0
  0
SPLINE
  5
380
100
AcDbEntity
  8
0
100
AcDbSpline
 62
7
  6
CONTINUOUS
 70
0
 71
3
 72
49
 73
45
 74
0
 42
0.0000001
 43
0.0000001
 44
0.0000000001
 40
0.0
 40
0.0
 40
0.0
 40
0.0
 40
0.0149718081
 40
0.0299466748
 40
0.0449276404
 40
0.059917709
 40
0.0749198276
 40
0.0899368702
 40
0.1049716217
 40
0.120026759
 40
0.1351048351
 40
0.1502082677
 40
0.1653393229
 40
0.1805001009
 40
0.1956925286
 40
0.2109183481
 40
0.2261791043
 40
0.2414761418
 40
0.256810598
 40
0.2721833946
 40
0.287595237
 40
0.3030466133
 40
0.3340634927
 40
0.3652389307
 40
0.3965689749
 40
0.4280463623
 40
0.4596607137
 40
0.4913987952
 40
0.5232448251
 40
0.5551808189
 40
0.5871869764
 40
0.6192420905
 40
0.6513239761
 40
0.6834099169
 40
0.7154771164
 40
0.7475031494
 40
0.779466411
 40
0.8113465537
 40
0.8431249023
 40
0.8747848503
 40
0.906312225
 40
0.9376956122
 40
0.9689264437
 40
1.0
 40
1.0
 40
1.0
 40
1.0
 10
11.0430242036
 20
6.1989566104
 30
0.0
 10
11.0363296366
 20
6.1924901375
 30
0.0
 10
11.0226805098
 20
6.1798205633
 30
0.0
 10
11.0014654865
 20
6.1616428293
 30
0.0
 10
10.9795361632
 20
6.1443144897
 30
0.0
 10
10.9569230996
 20
6.1278598317
 30
0.0
 10
10.9336572887
 20
6.1123014184
 30
0.0
 10
10.9097708264
 20
6.0976606166
 30
0.0
 10
10.8852965663
 20
6.083957571
 30
0.0
 10
10.8602681659
 20
6.0712111859
 30
0.0
 10
10.8347201074
 20
6.0594389175
 30
0.0
 10
10.8086875469
 20
6.0486569471
 30
0.0
 10
10.7822062813
 20
6.0388801639
 30
0.0
 10
10.7553127761
 20
6.0301219407
 30
0.0
 10
10.7280440391
 20
6.0223942862
 30
0.0
 10
10.7004375697
 20
6.0157078854
 30
0.0
 10
10.6725313596
 20
6.0100718745
 30
0.0
 10
10.6443638147
 20
6.0054939427
 30
0.0
 10
10.615973635
 20
6.0019804358
 30
0.0
 10
10.5874000111
 20
5.9995361386
 30
0.0
 10
10.5586817443
 20
5.9981643758
 30
0.0
 10
10.5202068736
 20
5.9977672651
 30
0.0
 10
10.4719393264
 20
5.9999688677
 30
0.0
 10
10.4141610894
 20
6.0068929838
 30
0.0
 10
10.35675908
 20
6.0180636905
 30
0.0
 10
10.3000507495
 20
6.0334191848
 30
0.0
 10
10.2443468409
 20
6.0528744416
 30
0.0
 10
10.1899532674
 20
6.0763221701
 30
0.0
 10
10.1371685229
 20
6.1036332754
 30
0.0
 10
10.0862822025
 20
6.1346573893
 30
0.0
 10
10.0375735491
 20
6.1692240321
 30
0.0
 10
9.9913098198
 20
6.2071432733
 30
0.0
 10
9.9477448222
 20
6.2482068161
 30
0.0
 10
9.9071177241
 20
6.2921893132
 30
0.0
 10
9.8696514839
 20
6.3388493066
 30
0.0
 10
9.8355518233
 20
6.3879307482
 30
0.0
 10
9.8050061503
 20
6.4391643706
 30
0.0
 10
9.7781822702
 20
6.4922690008
 30
0.0
 10
9.755227803
 20
6.5469532546
 30
0.0
 10
9.7362691896
 20
6.6029171199
 30
0.0
 10
9.7214108972
 20
6.6598530946
 30
0.0
 10
9.7107352265
 20
6.7174496681
 30
0.0
 10
9.7043012341
 20
6.7753864336
 30
0.0
 10
9.702860149
 20
6.8141346242
 30
0.0
 10
9.702860149
 20
6.8334524001
 30
0.0
  0
SPLINE
  5
381
100
AcDbEntity
  8
0
100
AcDbSpline
 62
7
  6
CONTINUOUS
 70
0
 71
3
 72
47
 73
43
 74
0
 42
0.0000001
 43
0.0000001
 44
0.0000000001
 40
0.0
 40
0.0
 40
0.0
 40
0.0
 40
0.0149687599
 40
0.0299417863
 40
0.0449220671
 40
0.0599125478
 40
0.0749161103
 40
0.089935559
 40
0.1049736046
 40
0.1200328452
 40
0.1351157532
 40
0.1502246633
 40
0.1653617554
 40
0.1805290442
 40
0.1957283716
 40
0.2109613928
 40
0.2262295684
 40
0.2415341621
 40
0.2722512164
 40
0.3031239406
 40
0.3341548016
 40
0.3653428289
 40
0.3966836812
 40
0.4281697899
 40
0.4597905641
 40
0.4915326429
 40
0.5233802012
 40
0.5553152954
 40
0.5873182364
 40
0.6193679922
 40
0.6514426104
 40
0.6835196504
 40
0.7155766238
 40
0.7475914356
 40
0.779542821
 40
0.811410768
 40
0.8431769236
 40
0.8748249779
 40
0.9063410164
 40
0.9377138476
 40
0.9689350366
 40
1.0
 40
1.0
 40
1.0
 40
1.0
 10
11.0429641773
 20
6.1990296348
 30
0.0
 10
11.036207967
 20
6.1927142405
 30
0.0
 10
11.0224426206
 20
6.1803471245
 30
0.0
 10
11.0010752303
 20
6.1626233635
 30
0.0
 10
10.9790144966
 20
6.1457476241
 30
0.0
 10
10.9562907579
 20
6.1297432725
 30
0.0
 10
10.9329347635
 20
6.1146319669
 30
0.0
 10
10.908978326
 20
6.1004341765
 30
0.0
 10
10.8844539547
 20
6.087169216
 30
0.0
 10
10.8593949566
 20
6.0748551294
 30
0.0
 10
10.8338354166
 20
6.0635085441
 30
0.0
 10
10.8078100338
 20
6.0531449035
 30
0.0
 10
10.7813541482
 20
6.0437783064
 30
0.0
 10
10.754503738
 20
6.035421367
 30
0.0
 10
10.7272952191
 20
6.0280854607
 30
0.0
 10
10.6997656744
 20
6.0217805797
 30
0.0
 10
10.6719520037
 20
6.0165151486
 30
0.0
 10
10.634498364
 20
6.0108837539
 30
0.0
 10
10.5871453085
 20
6.0064840254
 30
0.0
 10
10.529878776
 20
6.00545194
 30
0.0
 10
10.4724007648
 20
6.0086642157
 30
0.0
 10
10.4150253077
 20
6.0161032111
 30
0.0
 10
10.3580630096
 20
6.0277277583
 30
0.0
 10
10.3018228377
 20
6.0434742088
 30
0.0
 10
10.2466095909
 20
6.0632567379
 30
0.0
 10
10.1927224372
 20
6.0869675822
 30
0.0
 10
10.1404532864
 20
6.1144778082
 30
0.0
 10
10.0900853194
 20
6.1456380948
 30
0.0
 10
10.0418913253
 20
6.1802792827
 30
0.0
 10
9.9961323303
 20
6.2182134755
 30
0.0
 10
9.9530562752
 20
6.2592350976
 30
0.0
 10
9.9128964938
 20
6.3031217808
 30
0.0
 10
9.8758705958
 20
6.3496357326
 30
0.0
 10
9.8421793709
 20
6.3985250316
 30
0.0
 10
9.812005476
 20
6.4495248037
 30
0.0
 10
9.7855126332
 20
6.5023588013
 30
0.0
 10
9.7628448059
 20
6.5567408405
 30
0.0
 10
9.744125159
 20
6.6123763477
 30
0.0
 10
9.7294555965
 20
6.6689635743
 30
0.0
 10
9.7189163298
 20
6.7261968611
 30
0.0
 10
9.7125648562
 20
6.7837619092
 30
0.0
 10
9.7111423518
 20
6.8222592672
 30
0.0
 10
9.7111423518
 20
6.8414523942
 30
0.0
  0
SPLINE
  5
382
100
AcDbEntity
  8
0
100
AcDbSpline
 62
7
  6
CONTINUOUS
 70
0
 71
3
 72
39
 73
35
 74
0
 42
0.0000001
 43
0.0000001
 44
0.0000000001
 40
0.0
 40
0.0
 40
0.0
 40
0.0
 40
0.0299424709
 40
0.0599093182
 40
0.0899243246
 40
0.1200101041
 40
0.1501875631
 40
0.1804754147
 40
0.2108897588
 40
0.2414437357
 40
0.2721472607
 40
0.3030068436
 40
0.3340254953
 40
0.365202714
 40
0.396534549
 40
0.4280137348
 40
0.4596298919
 40
0.4913697857
 40
0.5232176329
 40
0.5551554498
 40
0.5871634342
 40
0.6192203769
 40
0.6513040925
 40
0.6833918636
 40
0.7154608917
 40
0.7474887507
 40
0.779453835
 40
0.8113357953
 40
0.8431159565
 40
0.8747777115
 40
0.90630687
 40
0.9376920898
 40
0.9689246468
 40
1.0
 40
1.0
 40
1.0
 40
1.0
 10
10.8794345893
 20
6.4809800947
 30
0.0
 10
10.871297355
 20
6.4731201347
 30
0.0
 10
10.8543830476
 20
6.4580345364
 30
0.0
 10
10.8272836925
 20
6.4374830742
 30
0.0
 10
10.7985949508
 20
6.4191114106
 30
0.0
 10
10.7684771203
 20
6.4030226146
 30
0.0
 10
10.7370958
 20
6.389304561
 30
0.0
 10
10.7046241799
 20
6.3780326531
 30
0.0
 10
10.6712411948
 20
6.3692685671
 30
0.0
 10
10.6371307552
 20
6.3630601739
 30
0.0
 10
10.6024806704
 20
6.3594411977
 30
0.0
 10
10.5674816163
 20
6.3584310714
 30
0.0
 10
10.5323260775
 20
6.3600348945
 30
0.0
 10
10.4972072997
 20
6.3642434177
 30
0.0
 10
10.4623182425
 20
6.3710331248
 30
0.0
 10
10.4278505257
 20
6.3803663286
 30
0.0
 10
10.3939933847
 20
6.3921914058
 30
0.0
 10
10.3609326559
 20
6.4064431222
 30
0.0
 10
10.3288497718
 20
6.4230429843
 30
0.0
 10
10.2979207874
 20
6.4418996804
 30
0.0
 10
10.2683154004
 20
6.4629095334
 30
0.0
 10
10.2401960398
 20
6.4859570956
 30
0.0
 10
10.2137170006
 20
6.5109157964
 30
0.0
 10
10.1890236046
 20
6.5376486234
 30
0.0
 10
10.1662514212
 20
6.5660088697
 30
0.0
 10
10.1455254847
 20
6.5958408952
 30
0.0
 10
10.126959641
 20
6.6269809999
 30
0.0
 10
10.1106559421
 20
6.6592583239
 30
0.0
 10
10.0967040836
 20
6.692495746
 30
0.0
 10
10.0851809328
 20
6.72651092
 30
0.0
 10
10.0761499989
 20
6.7611169682
 30
0.0
 10
10.0696612811
 20
6.7961245055
 30
0.0
 10
10.0657506295
 20
6.8313388227
 30
0.0
 10
10.064874743
 20
6.8548901963
 30
0.0
 10
10.064874743
 20
6.8666316667
 30
0.0
  0
SPLINE
  5
383
100
AcDbEntity
  8
0
100
AcDbSpline
 62
7
  6
CONTINUOUS
 70
0
 71
3
 72
42
 73
38
 74
0
 42
0.0000001
 43
0.0000001
 44
0.0000000001
 40
0.0
 40
0.0
 40
0.0
 40
0.0
 40
0.0299930927
 40
0.04502574
 40
0.0600832537
 40
0.0902747011
 40
0.1205829436
 40
0.1357858983
 40
0.1510212427
 40
0.1815878618
 40
0.2122915054
 40
0.2431342534
 40
0.2741158119
 40
0.30523355
 40
0.3364825741
 40
0.3678558365
 40
0.3993442758
 40
0.4309369842
 40
0.4626213995
 40
0.4943835174
 40
0.5262081212
 40
0.5580790252
 40
0.5899793296
 40
0.6218916828
 40
0.653798548
 40
0.6856824729
 40
0.7175263574
 40
0.7493137184
 40
0.7810289471
 40
0.812657558
 40
0.844186421
 40
0.8756039922
 40
0.9069004727
 40
0.93806812
 40
0.9536035169
 40
0.9691050302
 40
1.0
 40
1.0
 40
1.0
 40
1.0
 10
10.9584157009
 20
6.5852184372
 30
0.0
 10
10.9494466226
 20
6.5807591925
 30
0.0
 10
10.9357445847
 20
6.5745279556
 30
0.0
 10
10.9170735978
 20
6.5671712104
 30
0.0
 10
10.898098715
 20
6.5604348399
 30
0.0
 10
10.873899106
 20
6.5532152275
 30
0.0
 10
10.8492192946
 20
6.547639219
 30
0.0
 10
10.8292281489
 20
6.54416884
 30
0.0
 10
10.8090467358
 20
6.5413567611
 30
0.0
 10
10.7835765949
 20
6.5390981034
 30
0.0
 10
10.7528008054
 20
6.5384076752
 30
0.0
 10
10.7219068809
 20
6.5397363663
 30
0.0
 10
10.6910269082
 20
6.5430784415
 30
0.0
 10
10.6602917818
 20
6.5484194509
 30
0.0
 10
10.6298320387
 20
6.5557365224
 30
0.0
 10
10.5997769364
 20
6.5649984033
 30
0.0
 10
10.5702540108
 20
6.5761656137
 30
0.0
 10
10.5413885139
 20
6.5891906118
 30
0.0
 10
10.5133028956
 20
6.6040179989
 30
0.0
 10
10.4861162879
 20
6.6205847543
 30
0.0
 10
10.459944005
 20
6.6388205026
 30
0.0
 10
10.4348970584
 20
6.6586478099
 30
0.0
 10
10.4110816906
 20
6.6799825119
 30
0.0
 10
10.3885989284
 20
6.7027340692
 30
0.0
 10
10.3675441584
 20
6.7268059483
 30
0.0
 10
10.3480067252
 20
6.7520960283
 30
0.0
 10
10.3300695551
 20
6.7784970303
 30
0.0
 10
10.3138088066
 20
6.80589697
 30
0.0
 10
10.2992935492
 20
6.8341796219
 30
0.0
 10
10.2865854713
 20
6.8632250323
 30
0.0
 10
10.2757386202
 20
6.8929099323
 30
0.0
 10
10.2667991603
 20
6.9231085889
 30
0.0
 10
10.259805249
 20
6.9536920996
 30
0.0
 10
10.2556183894
 20
6.9794214299
 30
0.0
 10
10.2532708089
 20
7.0000653582
 30
0.0
 10
10.2515955195
 20
7.0206825968
 30
0.0
 10
10.2510889364
 20
7.0361831385
 30
0.0
 10
10.2510889364
 20
7.046500776
 30
0.0
  0
SPLINE
  5
384
100
AcDbEntity
  8
0
100
AcDbSpline
 62
7
  6
CONTINUOUS
 70
0
 71
3
 72
24
 73
20
 74
0
 42
0.0000001
 43
0.0000001
 44
0.0000000001
 40
0.0
 40
0.0
 40
0.0
 40
0.0
 40
0.0616981881
 40
0.0925585347
 40
0.1234280962
 40
0.1851999011
 40
0.2470380016
 40
0.3089612552
 40
0.3709876906
 40
0.4331343368
 40
0.4954170647
 40
0.5578504398
 40
0.6204475951
 40
0.6832201269
 40
0.7461779238
 40
0.8093294233
 40
0.8726804297
 40
0.93623709
 40
1.0
 40
1.0
 40
1.0
 40
1.0
 10
9.92177003
 20
7.359766913
 30
0.0
 10
9.9134122702
 20
7.3514249019
 30
0.0
 10
9.9011867903
 20
7.3385910739
 30
0.0
 10
9.8855499602
 20
7.3208815962
 30
0.0
 10
9.8703545706
 20
7.3027729137
 30
0.0
 10
9.8522099822
 20
7.2794121018
 30
0.0
 10
9.831855772
 20
7.2502973649
 30
0.0
 10
9.8129598739
 20
7.2201577325
 30
0.0
 10
9.7955644545
 20
7.1890604122
 30
0.0
 10
9.7797079087
 20
7.1570742019
 30
0.0
 10
9.7654253344
 20
7.1242700028
 30
0.0
 10
9.7527483053
 20
7.0907204836
 30
0.0
 10
9.7417048414
 20
7.0564999619
 30
0.0
 10
9.7323193354
 20
7.02168425
 30
0.0
 10
9.7246124493
 20
6.9863504114
 30
0.0
 10
9.7186012624
 20
6.9505768413
 30
0.0
 10
9.7142988248
 20
6.9144422753
 30
0.0
 10
9.7117148394
 20
6.8780279839
 30
0.0
 10
9.7111423518
 20
6.8536560915
 30
0.0
 10
9.7111423518
 20
6.8414523942
 30
0.0
  0
SPLINE
  5
385
100
AcDbEntity
  8
0
100
AcDbSpline
 62
7
  6
CONTINUOUS
 70
0
 71
3
 72
39
 73
35
 74
0
 42
0.0000001
 43
0.0000001
 44
0.0000000001
 40
0.0
 40
0.0
 40
0.0
 40
0.0
 40
0.0318890085
 40
0.063672209
 40
0.0953510782
 40
0.1269280734
 40
0.158406618
 40
0.1897910768
 40
0.221086724
 40
0.2522997021
 40
0.2834369673
 40
0.3145062262
 40
0.3455158634
 40
0.3764748615
 40
0.4073927154
 40
0.4382793388
 40
0.4691449634
 40
0.5000000352
 40
0.530855107
 40
0.561720731
 40
0.5926073529
 40
0.6235252042
 40
0.6544841988
 40
0.6854938323
 40
0.7165630875
 40
0.7477003489
 40
0.7789133207
 40
0.810208964
 40
0.8415934165
 40
0.8730719376
 40
0.9046490119
 40
0.9363276079
 40
0.9681113608
 40
1.0
 40
1.0
 40
1.0
 40
1.0
 10
10.4713990063
 20
7.3438022568
 30
0.0
 10
10.4625326557
 20
7.3441097161
 30
0.0
 10
10.4448116525
 20
7.3442994273
 30
0.0
 10
10.4182933932
 20
7.3433012167
 30
0.0
 10
10.3919407911
 20
7.3410221567
 30
0.0
 10
10.365815373
 20
7.3374674037
 30
0.0
 10
10.33997714
 20
7.3326450969
 30
0.0
 10
10.3144857147
 20
7.3265662735
 30
0.0
 10
10.2893998584
 20
7.3192448806
 30
0.0
 10
10.2647774152
 20
7.3106977636
 30
0.0
 10
10.240675165
 20
7.3009445839
 30
0.0
 10
10.217148699
 20
7.2900077831
 30
0.0
 10
10.1942522908
 20
7.2779125309
 30
0.0
 10
10.1720387716
 20
7.2646866709
 30
0.0
 10
10.1505593806
 20
7.2503606967
 30
0.0
 10
10.1298636671
 20
7.2349676369
 30
0.0
 10
10.1099993767
 20
7.2185429812
 30
0.0
 10
10.0910123404
 20
7.2011246
 30
0.0
 10
10.0729463739
 20
7.182752654
 30
0.0
 10
10.0558431394
 20
7.1634695346
 30
0.0
 10
10.0397420682
 20
7.1433197384
 30
0.0
 10
10.024680281
 20
7.1223497545
 30
0.0
 10
10.010692499
 20
7.1006079603
 30
0.0
 10
9.9978109727
 20
7.0781445064
 30
0.0
 10
9.9860653754
 20
7.0550112185
 30
0.0
 10
9.9754827365
 20
7.0312614705
 30
0.0
 10
9.9660874061
 20
7.0069500436
 30
0.0
 10
9.9579010002
 20
6.9821330031
 30
0.0
 10
9.950942356
 20
6.9568675798
 30
0.0
 10
9.9452274408
 20
6.931211987
 30
0.0
 10
9.9407694348
 20
6.9052255158
 30
0.0
 10
9.9375783545
 20
6.8789676396
 30
0.0
 10
9.935661779
 20
6.852499925
 30
0.0
 10
9.9352371568
 20
6.8347829439
 30
0.0
 10
9.9352371568
 20
6.8259113667
 30
0.0
  0
SPLINE
  5
386
100
AcDbEntity
  8
0
100
AcDbSpline
 62
7
  6
CONTINUOUS
 70
0
 71
3
 72
39
 73
35
 74
0
 42
0.0000001
 43
0.0000001
 44
0.0000000001
 40
0.0
 40
0.0
 40
0.0
 40
0.0
 40
0.0318222509
 40
0.0635423309
 40
0.0951623586
 40
0.1266853544
 40
0.1581152186
 40
0.1894567024
 40
0.2207153746
 40
0.2518975791
 40
0.2830103783
 40
0.3140614894
 40
0.3450592157
 40
0.3760123738
 40
0.4069302109
 40
0.4378223148
 40
0.468698521
 40
0.499568819
 40
0.5304432577
 40
0.5613318464
 40
0.5922444562
 40
0.6231907236
 40
0.6541799594
 40
0.6852210628
 40
0.7163224363
 40
0.7474919064
 40
0.7787366497
 40
0.8100631475
 40
0.8414770905
 40
0.8729833971
 40
0.9045862031
 40
0.9362881867
 40
0.9680930748
 40
1.0
 40
1.0
 40
1.0
 40
1.0
 10
10.4883385608
 20
7.3428281185
 30
0.0
 10
10.4802671261
 20
7.3427957291
 30
0.0
 10
10.4641490614
 20
7.3423524662
 30
0.0
 10
10.4400707408
 20
7.3405466886
 30
0.0
 10
10.4161804873
 20
7.3376050957
 30
0.0
 10
10.3925313276
 20
7.3335340767
 30
0.0
 10
10.3691748834
 20
7.3283425
 30
0.0
 10
10.3461623887
 20
7.3220416578
 30
0.0
 10
10.3235442595
 20
7.3146453194
 30
0.0
 10
10.3013700619
 20
7.3061696731
 30
0.0
 10
10.2796883965
 20
7.2966332529
 30
0.0
 10
10.2585468004
 20
7.2860569047
 30
0.0
 10
10.237991636
 20
7.2744637585
 30
0.0
 10
10.2180679543
 20
7.2618792301
 30
0.0
 10
10.1988194335
 20
7.2483308888
 30
0.0
 10
10.1802882796
 20
7.233848412
 30
0.0
 10
10.162515146
 20
7.21846351
 30
0.0
 10
10.1455389886
 20
7.2022099203
 30
0.0
 10
10.1293970072
 20
7.1851232888
 30
0.0
 10
10.1141245822
 20
7.1672410744
 30
0.0
 10
10.099755202
 20
7.1486024686
 30
0.0
 10
10.0863203646
 20
7.1292483324
 30
0.0
 10
10.0738494718
 20
7.1092211232
 30
0.0
 10
10.0623698282
 20
7.0885647528
 30
0.0
 10
10.0519065714
 20
7.0673245026
 30
0.0
 10
10.0424826306
 20
7.0455469232
 30
0.0
 10
10.034118593
 20
7.0232797644
 30
0.0
 10
10.0268327343
 20
7.0005718365
 30
0.0
 10
10.0206409664
 20
6.9774729063
 30
0.0
 10
10.0155568243
 20
6.954033546
 30
0.0
 10
10.0115914717
 20
6.9303052511
 30
0.0
 10
10.0087533256
 20
6.9063395795
 30
0.0
 10
10.0070488545
 20
6.8821900101
 30
0.0
 10
10.0066711859
 20
6.8660273325
 30
0.0
 10
10.0066711859
 20
6.8579343558
 30
0.0
  0
SPLINE
  5
387
100
AcDbEntity
  8
0
100
AcDbSpline
 62
7
  6
CONTINUOUS
 70
0
 71
3
 72
23
 73
19
 74
0
 42
0.0000001
 43
0.0000001
 44
0.0000000001
 40
0.0
 40
0.0
 40
0.0
 40
0.0
 40
0.0617101431
 40
0.1234413951
 40
0.1852146465
 40
0.2470503561
 40
0.3089683487
 40
0.3709876173
 40
0.4331261326
 40
0.4954006638
 40
0.5578266135
 40
0.6204179097
 40
0.6831868019
 40
0.7461438686
 40
0.8092980312
 40
0.8726551034
 40
0.9362229519
 40
1.0
 40
1.0
 40
1.0
 40
1.0
 10
10.1978881884
 20
7.1865688076
 30
0.0
 10
10.1926214172
 20
7.1814815003
 30
0.0
 10
10.1823459811
 20
7.1710320449
 30
0.0
 10
10.1677565521
 20
7.1545830662
 30
0.0
 10
10.1540215973
 20
7.1373943395
 30
0.0
 10
10.1411733284
 20
7.119506061
 30
0.0
 10
10.1292411934
 20
7.1009593745
 30
0.0
 10
10.1182527252
 20
7.0817971067
 30
0.0
 10
10.1082332373
 20
7.0620634458
 30
0.0
 10
10.0992058296
 20
7.041803906
 30
0.0
 10
10.0911912478
 20
7.0210652311
 30
0.0
 10
10.0842079237
 20
6.999895253
 30
0.0
 10
10.0782719068
 20
6.9783427913
 30
0.0
 10
10.0733968476
 20
6.9564574963
 30
0.0
 10
10.069594003
 20
6.9342899587
 30
0.0
 10
10.0668718723
 20
6.9118908672
 30
0.0
 10
10.0652369742
 20
6.8893128017
 30
0.0
 10
10.064874743
 20
6.8741994648
 30
0.0
 10
10.064874743
 20
6.8666316667
 30
0.0
  0
SPLINE
  5
388
100
AcDbEntity
  8
0
100
AcDbSpline
 62
7
  6
CONTINUOUS
 70
0
 71
3
 72
43
 73
39
 74
0
 42
0.0000001
 43
0.0000001
 44
0.0000000001
 40
0.0
 40
0.0
 40
0.0
 40
0.0
 40
0.0299361024
 40
0.0599428189
 40
0.0900376779
 40
0.120236398
 40
0.1505525862
 40
0.1809974875
 40
0.2115797903
 40
0.2423054897
 40
0.2731778082
 40
0.3041971739
 40
0.3353612515
 40
0.3666650244
 40
0.3981009218
 40
0.429658988
 40
0.4613270881
 40
0.4772001761
 40
0.4930953456
 40
0.5249396044
 40
0.5568469198
 40
0.5728206258
 40
0.5888031877
 40
0.6207811526
 40
0.652765501
 40
0.6847366825
 40
0.7166753714
 40
0.7326287074
 40
0.7485669496
 40
0.7803852231
 40
0.8121176484
 40
0.843749021
 40
0.8752659166
 40
0.906656905
 40
0.9379129363
 40
0.9534901426
 40
0.9690314853
 40
1.0
 40
1.0
 40
1.0
 40
1.0
 10
10.9851395634
 20
6.6446310566
 30
0.0
 10
10.9770272588
 20
6.6392832755
 30
0.0
 10
10.9603837392
 20
6.6291679734
 30
0.0
 10
10.9343467796
 20
6.6158436866
 30
0.0
 10
10.9073310058
 20
6.6044120386
 30
0.0
 10
10.879466123
 20
6.5949280967
 30
0.0
 10
10.8508836322
 20
6.5874362007
 30
0.0
 10
10.8217189641
 20
6.581971622
 30
0.0
 10
10.7921100862
 20
6.5785599113
 30
0.0
 10
10.7621970486
 20
6.5772169228
 30
0.0
 10
10.7321212653
 20
6.5779487117
 30
0.0
 10
10.7020248668
 20
6.5807515353
 30
0.0
 10
10.6720500083
 20
6.5856118896
 30
0.0
 10
10.6423382874
 20
6.5925065417
 30
0.0
 10
10.6130297752
 20
6.6014028043
 30
0.0
 10
10.5842635198
 20
6.6122581035
 30
0.0
 10
10.5608719119
 20
6.6228870584
 30
0.0
 10
10.542562627
 20
6.632312012
 30
0.0
 10
10.5245193659
 20
6.6423550482
 30
0.0
 10
10.50255388
 20
6.6560220131
 30
0.0
 10
10.48149565
 20
6.6710928308
 30
0.0
 10
10.4652383858
 20
6.6839572112
 30
0.0
 10
10.4493854279
 20
6.6973521206
 30
0.0
 10
10.4303806238
 20
6.7150470158
 30
0.0
 10
10.4089846433
 20
6.7376975569
 30
0.0
 10
10.3890929186
 20
6.7616633949
 30
0.0
 10
10.3738412752
 20
6.7826468967
 30
0.0
 10
10.3624829112
 20
6.799976912
 30
0.0
 10
10.3517098429
 20
6.8176309123
 30
0.0
 10
10.339344218
 20
6.8402966199
 30
0.0
 10
10.3263320068
 20
6.8683394944
 30
0.0
 10
10.315214327
 20
6.8970819364
 30
0.0
 10
10.3060442198
 20
6.9263878618
 30
0.0
 10
10.2988651102
 20
6.9561183249
 30
0.0
 10
10.2945649735
 20
6.981161867
 30
0.0
 10
10.2921534259
 20
7.0012662383
 30
0.0
 10
10.2904324619
 20
7.0213470077
 30
0.0
 10
10.2899117932
 20
7.0364492964
 30
0.0
 10
10.2899117932
 20
7.0465007782
 30
0.0
  0
SPLINE
  5
389
100
AcDbEntity
  8
0
100
AcDbSpline
 62
7
  6
CONTINUOUS
 70
0
 71
3
 72
96
 73
92
 74
0
 42
0.0000001
 43
0.0000001
 44
0.0000000001
 40
0.0
 40
0.0
 40
0.0
 40
0.0
 40
0.0041939574
 40
0.0085762742
 40
0.0131520511
 40
0.0179256088
 40
0.0229004783
 40
0.028079222
 40
0.0334636112
 40
0.0390547653
 40
0.0448532218
 40
0.0508590076
 40
0.0570716348
 40
0.0634902296
 40
0.0701134804
 40
0.0769397743
 40
0.0839671177
 40
0.091193268
 40
0.1062311061
 40
0.1220303958
 40
0.1385641632
 40
0.1558022491
 40
0.1737116571
 40
0.1922568477
 40
0.2113999921
 40
0.2311011977
 40
0.2513187129
 40
0.2720091149
 40
0.2931274873
 40
0.314627589
 40
0.3364620159
 40
0.35858236
 40
0.3809393635
 40
0.4034830717
 40
0.4261629835
 40
0.4489282015
 40
0.4717275804
 40
0.4945098762
 40
0.5172238945
 40
0.5398186387
 40
0.5622434594
 40
0.584448203
 40
0.6063833625
 40
0.6280002295
 40
0.649251048
 40
0.6700891709
 40
0.6904692217
 40
0.7103472604
 40
0.7296809576
 40
0.7484297794
 40
0.7665551861
 40
0.7840208488
 40
0.8007928931
 40
0.8168401783
 40
0.8321346255
 40
0.8466516145
 40
0.8536121895
 40
0.8603710027
 40
0.8669262091
 40
0.8732762723
 40
0.8794200367
 40
0.8853567472
 40
0.8910860808
 40
0.8966082311
 40
0.9019239053
 40
0.9070344711
 40
0.9119419382
 40
0.9166491551
 40
0.9211598066
 40
0.9254786388
 40
0.9296115077
 40
0.9335656091
 40
0.937349596
 40
0.9409737889
 40
0.9477890825
 40
0.9510148692
 40
0.9541417451
 40
0.9571901171
 40
0.9601821742
 40
0.9631415265
 40
0.9660926395
 40
0.9690602038
 40
0.9720684674
 40
0.97514062
 40
0.9782983043
 40
0.981561246
 40
0.9849470671
 40
0.9884713301
 40
0.9921475967
 40
0.9959873775
 40
1.0
 40
1.0
 40
1.0
 40
1.0
 10
9.9582920542
 20
11.1016249817
 30
0.0
 10
9.9601189659
 20
11.1033896431
 30
0.0
 10
9.9639456815
 20
11.1069051116
 30
0.0
 10
9.9700488465
 20
11.1120270607
 30
0.0
 10
9.9766351648
 20
11.1171082831
 30
0.0
 10
9.983700365
 20
11.1221456676
 30
0.0
 10
9.9912404037
 20
11.1271363763
 30
0.0
 10
9.9992508364
 20
11.1320775908
 30
0.0
 10
10.0077269432
 20
11.1369663759
 30
0.0
 10
10.0166636807
 20
11.141799829
 30
0.0
 10
10.0260557297
 20
11.1465751126
 30
0.0
 10
10.0358975166
 20
11.1512893411
 30
0.0
 10
10.046183156
 20
11.1559397595
 30
0.0
 10
10.0569065227
 20
11.1605235019
 30
0.0
 10
10.0680611835
 20
11.1650379047
 30
0.0
 10
10.0796404755
 20
11.1694801572
 30
0.0
 10
10.0916374575
 20
11.1738477072
 30
0.0
 10
10.108404025
 20
11.1796449243
 30
0.0
 10
10.1303641388
 20
11.1866689578
 30
0.0
 10
10.1579241526
 20
11.1946510403
 30
0.0
 10
10.1869650177
 20
11.2022750827
 30
0.0
 10
10.2174169738
 20
11.2095225958
 30
0.0
 10
10.2492070807
 20
11.2163759863
 30
0.0
 10
10.2822590138
 20
11.2228186209
 30
0.0
 10
10.3164933791
 20
11.2288348654
 30
0.0
 10
10.3518278848
 20
11.2344101245
 30
0.0
 10
10.3881775582
 20
11.2395308762
 30
0.0
 10
10.4254549556
 20
11.2441847049
 30
0.0
 10
10.4635703782
 20
11.2483603299
 30
0.0
 10
10.5024320931
 20
11.2520476325
 30
0.0
 10
10.5419465571
 20
11.255237679
 30
0.0
 10
10.5820186449
 20
11.2579227422
 30
0.0
 10
10.6225518801
 20
11.2600963191
 30
0.0
 10
10.6634486696
 20
11.2617531459
 30
0.0
 10
10.7046105402
 20
11.2628892108
 30
0.0
 10
10.7459383766
 20
11.2635017626
 30
0.0
 10
10.7873326621
 20
11.2635893185
 30
0.0
 10
10.828693719
 20
11.2631516667
 30
0.0
 10
10.8699219501
 20
11.2621898672
 30
0.0
 10
10.9109180802
 20
11.2607062488
 30
0.0
 10
10.9515833955
 20
11.2587044039
 30
0.0
 10
10.9918199833
 20
11.2561891798
 30
0.0
 10
11.0315309689
 20
11.253166668
 30
0.0
 10
11.0706207506
 20
11.2496441894
 30
0.0
 10
11.1089952321
 20
11.2456302774
 30
0.0
 10
11.1465620516
 20
11.2411346581
 30
0.0
 10
11.1832308071
 20
11.2361682276
 30
0.0
 10
11.2189132786
 20
11.2307430263
 30
0.0
 10
11.2535236454
 20
11.2248722104
 30
0.0
 10
11.2869787005
 20
11.2185700217
 30
0.0
 10
11.3191980573
 20
11.2118517528
 30
0.0
 10
11.3501043642
 20
11.2047337094
 30
0.0
 10
11.3796234686
 20
11.1972331675
 30
0.0
 10
11.4076847462
 20
11.1893683305
 30
0.0
 10
11.4342208401
 20
11.1811582637
 30
0.0
 10
11.4552960573
 20
11.1739480303
 30
0.0
 10
11.4713328735
 20
11.1680076961
 30
0.0
 10
11.4827713951
 20
11.1635410478
 30
0.0
 10
11.493783028
 20
11.1590032522
 30
0.0
 10
11.5043611913
 20
11.1543969664
 30
0.0
 10
11.514499558
 20
11.1497249733
 30
0.0
 10
11.5241920816
 20
11.1449900806
 30
0.0
 10
11.5334329721
 20
11.1401950805
 30
0.0
 10
11.5422167528
 20
11.1353428833
 30
0.0
 10
11.5505381781
 20
11.130436286
 30
0.0
 10
11.5583923582
 20
11.1254782707
 30
0.0
 10
11.5657746017
 20
11.1204716304
 30
0.0
 10
11.5726806074
 20
11.1154193728
 30
0.0
 10
11.5791062477
 20
11.1103242765
 30
0.0
 10
11.5850477761
 20
11.1051893272
 30
0.0
 10
11.5905016539
 20
11.1000172264
 30
0.0
 10
11.5954645055
 20
11.0948110679
 30
0.0
 10
11.5999337524
 20
11.0895728091
 30
0.0
 10
11.6051228729
 20
11.0826930317
 30
0.0
 10
11.6094660056
 20
11.0756085977
 30
0.0
 10
11.6128145628
 20
11.0683626315
 30
0.0
 10
11.6147736788
 20
11.063009272
 30
0.0
 10
11.6162237662
 20
11.0576423942
 30
0.0
 10
11.6171630136
 20
11.0522654442
 30
0.0
 10
11.6175902875
 20
11.0468826584
 30
0.0
 10
11.6175047899
 20
11.041498379
 30
0.0
 10
11.6169068123
 20
11.0361170617
 30
0.0
 10
11.6157970827
 20
11.030743026
 30
0.0
 10
11.6141771572
 20
11.0253802712
 30
0.0
 10
11.6120488891
 20
11.0200324622
 30
0.0
 10
11.6094145079
 20
11.0147029205
 30
0.0
 10
11.606276436
 20
11.0093946487
 30
0.0
 10
11.6026370608
 20
11.00411051
 30
0.0
 10
11.5984989472
 20
10.9988531503
 30
0.0
 10
11.5938650546
 20
10.9936256743
 30
0.0
 10
11.5905229119
 20
10.9902389684
 30
0.0
 10
11.5887749907
 20
10.988550606
 30
0.0
  0
SPLINE
  5
38A
100
AcDbEntity
  8
0
100
AcDbSpline
 62
7
  6
CONTINUOUS
 70
0
 71
3
 72
39
 73
35
 74
0
 42
0.0000001
 43
0.0000001
 44
0.0000000001
 40
0.0
 40
0.0
 40
0.0
 40
0.0
 40
0.0299424698
 40
0.0599093171
 40
0.0899243244
 40
0.1200101049
 40
0.1501875654
 40
0.1804754197
 40
0.2108897678
 40
0.2414437479
 40
0.2721472748
 40
0.3030068601
 40
0.3340255156
 40
0.3652027379
 40
0.3965345747
 40
0.4280137612
 40
0.4596299196
 40
0.491369815
 40
0.5232176628
 40
0.555155479
 40
0.5871634623
 40
0.619220404
 40
0.6513041182
 40
0.6833918873
 40
0.7154609133
 40
0.74748877
 40
0.7794538516
 40
0.811335809
 40
0.8431159677
 40
0.8747777197
 40
0.9063068786
 40
0.9376920899
 40
0.9689246486
 40
1.0
 40
1.0
 40
1.0
 40
1.0
 10
11.6693617517
 20
9.7476462774
 30
0.0
 10
11.6611996328
 20
9.7397623026
 30
0.0
 10
11.6442335564
 20
9.7246306619
 30
0.0
 10
11.6170512906
 20
9.7040164759
 30
0.0
 10
11.588274784
 20
9.6855887604
 30
0.0
 10
11.5580648476
 20
9.6694508611
 30
0.0
 10
11.5265875671
 20
9.6556909451
 30
0.0
 10
11.494016652
 20
9.6443846714
 30
0.0
 10
11.4605315868
 20
9.6355939127
 30
0.0
 10
11.4263168591
 20
9.6293666325
 30
0.0
 10
11.3915608471
 20
9.6257366531
 30
0.0
 10
11.3564548022
 20
9.6247234996
 30
0.0
 10
11.3211917996
 20
9.6263323203
 30
0.0
 10
11.2859656789
 20
9.6305538044
 30
0.0
 10
11.2509699831
 20
9.6373643272
 30
0.0
 10
11.216396913
 20
9.6467260951
 30
0.0
 10
11.1824362944
 20
9.6585873752
 30
0.0
 10
11.1492745353
 20
9.6728827296
 30
0.0
 10
11.1170936116
 20
9.6895333953
 30
0.0
 10
11.0860701013
 20
9.7084477601
 30
0.0
 10
11.0563742308
 20
9.7295218554
 30
0.0
 10
11.0281689497
 20
9.752639911
 30
0.0
 10
11.0016090082
 20
9.7776749447
 30
0.0
 10
10.9768401623
 20
9.8044895154
 30
0.0
 10
10.9539983784
 20
9.832936458
 30
0.0
 10
10.9332091082
 20
9.8628596866
 30
0.0
 10
10.9145865449
 20
9.8940949966
 30
0.0
 10
10.8982330376
 20
9.9264709972
 30
0.0
 10
10.8842385486
 20
9.9598100231
 30
0.0
 10
10.872680176
 20
9.9939291738
 30
0.0
 10
10.8636216547
 20
10.0286410067
 30
0.0
 10
10.857113112
 20
10.0637555546
 30
0.0
 10
10.8531905146
 20
10.0990775127
 30
0.0
 10
10.8523119504
 20
10.1227008782
 30
0.0
 10
10.8523119504
 20
10.1344782393
 30
0.0
  0
SPLINE
  5
38B
100
AcDbEntity
  8
0
100
AcDbSpline
 62
7
  6
CONTINUOUS
 70
0
 71
3
 72
39
 73
35
 74
0
 42
0.0000001
 43
0.0000001
 44
0.0000000001
 40
0.0
 40
0.0
 40
0.0
 40
0.0
 40
0.0299344856
 40
0.0599008791
 40
0.0899221446
 40
0.1200199451
 40
0.1502141403
 40
0.1805223391
 40
0.2109595162
 40
0.2415377003
 40
0.2722657447
 40
0.3031491757
 40
0.3341901211
 40
0.3653873149
 40
0.3967361732
 40
0.4282289399
 40
0.4598548909
 40
0.4916005905
 40
0.5234501923
 40
0.5553857793
 40
0.5873877359
 40
0.6194351455
 40
0.6515062043
 40
0.6835786481
 40
0.7156301856
 40
0.7476389324
 40
0.7795838391
 40
0.8114451077
 40
0.8432045897
 40
0.8748461639
 40
0.9063560627
 40
0.9377232984
 40
0.9689394068
 40
1.0
 40
1.0
 40
1.0
 40
1.0
 10
11.6692559662
 20
9.7477592987
 30
0.0
 10
11.6609718045
 20
9.740177116
 30
0.0
 10
11.6437898359
 20
9.7256506762
 30
0.0
 10
11.6163709341
 20
9.7059407441
 30
0.0
 10
11.5874396924
 20
9.6884040868
 30
0.0
 10
11.5571543844
 20
9.6731369794
 30
0.0
 10
11.525677981
 20
9.6602210357
 30
0.0
 10
11.4931805139
 20
9.6497257415
 30
0.0
 10
11.4598372642
 20
9.641707294
 30
0.0
 10
11.4258280436
 20
9.6362084935
 30
0.0
 10
11.3913361346
 20
9.6332585276
 30
0.0
 10
11.3565473211
 20
9.6328728509
 30
0.0
 10
11.3216488862
 20
9.6350531203
 30
0.0
 10
11.2868286169
 20
9.6397872124
 30
0.0
 10
11.2522737956
 20
9.647049256
 30
0.0
 10
11.2181702042
 20
9.6567998289
 30
0.0
 10
11.184701143
 20
9.6689861858
 30
0.0
 10
11.1520464596
 20
9.6835425451
 30
0.0
 10
11.1203816037
 20
9.7003904525
 30
0.0
 10
11.0898766764
 20
9.719439164
 30
0.0
 10
11.0606955332
 20
9.7405861547
 30
0.0
 10
11.0329949263
 20
9.7637176848
 30
0.0
 10
11.0069236709
 20
9.7887093989
 30
0.0
 10
10.9826218622
 20
9.8154269932
 30
0.0
 10
10.9602201092
 20
9.8437269077
 30
0.0
 10
10.9398388305
 20
9.8734570911
 30
0.0
 10
10.9215876416
 20
9.9044578311
 30
0.0
 10
10.9055647652
 20
9.9365626005
 30
0.0
 10
10.8918565094
 20
9.9695989207
 30
0.0
 10
10.8805368063
 20
10.003389343
 30
0.0
 10
10.8716667283
 20
10.037752119
 30
0.0
 10
10.8652943618
 20
10.0725031394
 30
0.0
 10
10.8614541691
 20
10.1074531778
 30
0.0
 10
10.8605941532
 20
10.1308255896
 30
0.0
 10
10.8605941532
 20
10.1424782333
 30
0.0
  0
SPLINE
  5
38C
100
AcDbEntity
  8
0
100
AcDbSpline
 62
7
  6
CONTINUOUS
 70
0
 71
3
 72
23
 73
19
 74
0
 42
0.0000001
 43
0.0000001
 44
0.0000000001
 40
0.0
 40
0.0
 40
0.0
 40
0.0
 40
0.0616917626
 40
0.1234138647
 40
0.1851856856
 40
0.2470261295
 40
0.3089534427
 40
0.3709850455
 40
0.4331373819
 40
0.4954257624
 40
0.5578642233
 40
0.6204654266
 40
0.68324047
 40
0.7461990158
 40
0.8093490673
 40
0.8726958194
 40
0.9362469603
 40
1.0
 40
1.0
 40
1.0
 40
1.0
 10
10.9858422882
 20
10.4552850645
 30
0.0
 10
10.9808657387
 20
10.4502125687
 30
0.0
 10
10.9711610804
 20
10.4398153877
 30
0.0
 10
10.9573940321
 20
10.4235109833
 30
0.0
 10
10.9444428006
 20
10.4065290974
 30
0.0
 10
10.9323358213
 20
10.388906877
 30
0.0
 10
10.921099102
 20
10.3706822162
 30
0.0
 10
10.9107568681
 20
10.3518945174
 30
0.0
 10
10.9013313943
 20
10.3325843271
 30
0.0
 10
10.8928430068
 20
10.3127933171
 30
0.0
 10
10.8853100141
 20
10.2925641884
 30
0.0
 10
10.8787485993
 20
10.2719406133
 30
0.0
 10
10.8731728545
 20
10.250967093
 30
0.0
 10
10.8685947833
 20
10.2296888404
 30
0.0
 10
10.8650243044
 20
10.208151883
 30
0.0
 10
10.8624688606
 20
10.1864022647
 30
0.0
 10
10.8609342103
 20
10.1644878152
 30
0.0
 10
10.8605941532
 20
10.1498217371
 30
0.0
 10
10.8605941532
 20
10.1424782333
 30
0.0
  0
SPLINE
  5
38D
100
AcDbEntity
  8
0
100
AcDbSpline
 62
7
  6
CONTINUOUS
 70
0
 71
3
 72
39
 73
35
 74
0
 42
0.0000001
 43
0.0000001
 44
0.0000000001
 40
0.0
 40
0.0
 40
0.0
 40
0.0
 40
0.0307265371
 40
0.0612837033
 40
0.0916944264
 40
0.1219869453
 40
0.1521938708
 40
0.1823510218
 40
0.2124960892
 40
0.2426672213
 40
0.2729015833
 40
0.3032339604
 40
0.3336954867
 40
0.3643125335
 40
0.3951058165
 40
0.4260897536
 40
0.4572720648
 40
0.4886536269
 40
0.5202285821
 40
0.5519846492
 40
0.5839036322
 40
0.6159621056
 40
0.6481322245
 40
0.6803826428
 40
0.7126795229
 40
0.7449875922
 40
0.7772712331
 40
0.80949558
 40
0.8416276025
 40
0.8736371462
 40
0.9054979107
 40
0.9371883678
 40
0.9686921241
 40
1.0
 40
1.0
 40
1.0
 40
1.0
 10
11.6292427391
 20
10.0344569704
 30
0.0
 10
11.6275628777
 20
10.0255650152
 30
0.0
 10
11.6233712299
 20
10.0079766828
 30
0.0
 10
11.6146107425
 20
9.9823901152
 30
0.0
 10
11.6034677431
 20
9.957884592
 30
0.0
 10
11.5900376064
 20
9.9346732057
 30
0.0
 10
11.574434644
 20
9.9129542333
 30
0.0
 10
11.5567923439
 20
9.8929141746
 30
0.0
 10
11.5372617946
 20
9.8747248075
 30
0.0
 10
11.5160103666
 20
9.8585420908
 30
0.0
 10
11.4932203641
 20
9.8445044837
 30
0.0
 10
11.4690872718
 20
9.8327318316
 30
0.0
 10
11.4438179475
 20
9.8233244762
 30
0.0
 10
11.4176288819
 20
9.8163622172
 30
0.0
 10
11.3907442179
 20
9.8119037461
 30
0.0
 10
11.3633937796
 20
9.809986389
 30
0.0
 10
11.3358111442
 20
9.8106256494
 30
0.0
 10
11.3082316148
 20
9.8138151692
 30
0.0
 10
11.2808902629
 20
9.8195270396
 30
0.0
 10
11.254019959
 20
9.8277118942
 30
0.0
 10
11.2278493891
 20
9.8382993425
 30
0.0
 10
11.2026012254
 20
9.8511987929
 30
0.0
 10
11.1784902369
 20
9.8663000749
 30
0.0
 10
11.1557214348
 20
9.883474321
 30
0.0
 10
11.1344884893
 20
9.9025752486
 30
0.0
 10
11.1149720609
 20
9.9234402729
 30
0.0
 10
11.097338182
 20
9.945891796
 30
0.0
 10
11.0817370401
 20
9.9697388684
 30
0.0
 10
11.0683016684
 20
9.9947786767
 30
0.0
 10
11.0571466696
 20
10.020798268
 30
0.0
 10
11.0483674411
 20
10.0475760916
 30
0.0
 10
11.0420394202
 20
10.0748850576
 30
0.0
 10
11.0382169202
 20
10.1024896066
 30
0.0
 10
11.0373585899
 20
10.1209991253
 30
0.0
 10
11.0373585899
 20
10.130219578
 30
0.0
  0
SPLINE
  5
38E
100
AcDbEntity
  8
0
100
AcDbSpline
 62
7
  6
CONTINUOUS
 70
0
 71
3
 72
41
 73
37
 74
0
 42
0.0000001
 43
0.0000001
 44
0.0000000001
 40
0.0
 40
0.0
 40
0.0
 40
0.0
 40
0.0153306551
 40
0.030620278
 40
0.0458715151
 40
0.0610873458
 40
0.0914175638
 40
0.1216492148
 40
0.1518155027
 40
0.1819519927
 40
0.2120953332
 40
0.2422819236
 40
0.2725465936
 40
0.3029213593
 40
0.3334343064
 40
0.3641086431
 40
0.3949619712
 40
0.4260057781
 40
0.4572451553
 40
0.4886787476
 40
0.5202989206
 40
0.5520921133
 40
0.584039354
 40
0.616116929
 40
0.6482971663
 40
0.6805493062
 40
0.7128404419
 40
0.7451365102
 40
0.777403301
 40
0.8096074729
 40
0.8417175511
 40
0.8737048807
 40
0.9055445202
 40
0.937216135
 40
0.968704146
 40
1.0
 40
1.0
 40
1.0
 40
1.0
 10
11.6319675038
 20
10.0513109346
 30
0.0
 10
11.6309708046
 20
10.0473268701
 30
0.0
 10
11.628793743
 20
10.0394146425
 30
0.0
 10
11.6249784119
 20
10.0277291786
 30
0.0
 10
11.6206253226
 20
10.0162654532
 30
0.0
 10
11.6141246647
 20
10.0013269447
 30
0.0
 10
11.604698555
 20
9.9833101716
 30
0.0
 10
11.5913929377
 20
9.9629269962
 30
0.0
 10
11.5762112586
 20
9.943964617
 30
0.0
 10
11.5592789912
 20
9.9265808162
 30
0.0
 10
11.5407355157
 20
9.9109186316
 30
0.0
 10
11.520733853
 20
9.8971071507
 30
0.0
 10
11.4994390113
 20
9.8852599309
 30
0.0
 10
11.4770266195
 20
9.875474235
 30
0.0
 10
11.4536814312
 20
9.8678301597
 30
0.0
 10
11.4295957598
 20
9.8623899434
 30
0.0
 10
11.4049677999
 20
9.8591976332
 30
0.0
 10
11.3799999998
 20
9.85827879
 30
0.0
 10
11.3548974065
 20
9.8596402317
 30
0.0
 10
11.3298659724
 20
9.8632700528
 30
0.0
 10
11.3051108961
 20
9.8691378569
 30
0.0
 10
11.2808349937
 20
9.8771950302
 30
0.0
 10
11.2572370284
 20
9.8873750312
 30
0.0
 10
11.2345101358
 20
9.8995940582
 30
0.0
 10
11.2128403008
 20
9.9137517649
 30
0.0
 10
11.1924048634
 20
9.9297320453
 30
0.0
 10
11.1733710209
 20
9.9474038934
 30
0.0
 10
11.1558945589
 20
9.9666225781
 30
0.0
 10
11.1401186146
 20
9.9872308
 30
0.0
 10
11.1261724654
 20
10.0090599089
 30
0.0
 10
11.1141704504
 20
10.0319312361
 30
0.0
 10
11.104211137
 20
10.0556576758
 30
0.0
 10
11.0963764992
 20
10.080044861
 30
0.0
 10
11.090731246
 20
10.1048937686
 30
0.0
 10
11.0873219894
 20
10.129998204
 30
0.0
 10
11.0865566578
 20
10.1468265943
 30
0.0
 10
11.0865566578
 20
10.1552102697
 30
0.0
  0
SPLINE
  5
38F
100
AcDbEntity
  8
0
100
AcDbSpline
 62
7
  6
CONTINUOUS
 70
0
 71
3
 72
43
 73
39
 74
0
 42
0.0000001
 43
0.0000001
 44
0.0000000001
 40
0.0
 40
0.0
 40
0.0
 40
0.0
 40
0.0149723204
 40
0.0299477006
 40
0.0449291793
 40
0.0599197625
 40
0.0899340837
 40
0.1200191761
 40
0.1350977684
 40
0.1502017219
 40
0.1804888825
 40
0.2109025329
 40
0.2414558125
 40
0.2721586361
 40
0.3030175147
 40
0.3340354591
 40
0.3652119671
 40
0.3965430872
 40
0.4280215545
 40
0.4596369905
 40
0.491376161
 40
0.5232232825
 40
0.5551603712
 40
0.5871676259
 40
0.6192238382
 40
0.6513068229
 40
0.683393863
 40
0.7154621607
 40
0.7474892906
 40
0.7794536471
 40
0.8113348816
 40
0.843114318
 40
0.8747753538
 40
0.9063037992
 40
0.9376882654
 40
0.9533260383
 40
0.9689254782
 40
1.0
 40
1.0
 40
1.0
 40
1.0
 10
11.548351664
 20
9.9609624857
 30
0.0
 10
11.5462404283
 20
9.9589231876
 30
0.0
 10
11.5419359707
 20
9.9549276325
 30
0.0
 10
11.5352454718
 20
9.9491950716
 30
0.0
 10
11.5283296505
 20
9.9437302479
 30
0.0
 10
11.5188183535
 20
9.9368092774
 30
0.0
 10
11.5064074054
 20
9.9288613457
 30
0.0
 10
11.4933930982
 20
9.9219093818
 30
0.0
 10
11.4826596894
 20
9.9169636113
 30
0.0
 10
11.4717044943
 20
9.9124262667
 30
0.0
 10
11.4576495259
 20
9.907547209
 30
0.0
 10
11.4403288767
 20
9.9030000794
 30
0.0
 10
11.4226302874
 20
9.8997787535
 30
0.0
 10
11.4046518334
 20
9.897901023
 30
0.0
 10
11.3864922765
 20
9.8973769036
 30
0.0
 10
11.3682515357
 20
9.8982090643
 30
0.0
 10
11.3500298668
 20
9.9003926978
 30
0.0
 10
11.3319273903
 20
9.9039155916
 30
0.0
 10
11.3140435277
 20
9.9087581941
 30
0.0
 10
11.2964764682
 20
9.9148937308
 30
0.0
 10
11.2793226359
 20
9.9222883551
 30
0.0
 10
11.2626761682
 20
9.9309013369
 30
0.0
 10
11.2466284064
 20
9.9406852871
 30
0.0
 10
11.2312674012
 20
9.9515864175
 30
0.0
 10
11.2166774359
 20
9.9635448348
 30
0.0
 10
11.2029385689
 20
9.9764948668
 30
0.0
 10
11.1901261999
 20
9.9903654202
 30
0.0
 10
11.1783106599
 20
10.0050803666
 30
0.0
 10
11.1675568296
 20
10.0205589574
 30
0.0
 10
11.157923786
 20
10.0367162572
 30
0.0
 10
11.1494644795
 20
10.0534636231
 30
0.0
 10
11.1422254502
 20
10.0707091156
 30
0.0
 10
11.13624655
 20
10.0883582535
 30
0.0
 10
11.1315608178
 20
10.106313574
 30
0.0
 10
11.1287516099
 20
10.1214698072
 30
0.0
 10
11.1271757328
 20
10.1336476687
 30
0.0
 10
11.1260510673
 20
10.1458138742
 30
0.0
 10
11.125710527
 20
10.1549688658
 30
0.0
 10
11.125710527
 20
10.161061001
 30
0.0
  0
SPLINE
  5
390
100
AcDbEntity
  8
0
100
AcDbSpline
 62
7
  6
CONTINUOUS
 70
0
 71
3
 72
39
 73
35
 74
0
 42
0.0000001
 43
0.0000001
 44
0.0000000001
 40
0.0
 40
0.0
 40
0.0
 40
0.0
 40
0.0300581264
 40
0.0602197521
 40
0.0904948621
 40
0.1208915554
 40
0.151415933
 40
0.1820720245
 40
0.2128617517
 40
0.2437849255
 40
0.2748392749
 40
0.3060205083
 40
0.3373224024
 40
0.3687369174
 40
0.4002543375
 40
0.4318634329
 40
0.4635516367
 40
0.4953052369
 40
0.5271095802
 40
0.5589492862
 40
0.5908084691
 40
0.6226709658
 40
0.6545205681
 40
0.6863412518
 40
0.7181174045
 40
0.7498340501
 40
0.781477064
 40
0.8130333837
 40
0.8444912193
 40
0.8758401705
 40
0.907071671
 40
0.9381782194
 40
0.9691559538
 40
1.0
 40
1.0
 40
1.0
 40
1.0
 10
11.5976833402
 20
10.032052437
 30
0.0
 10
11.5930185592
 20
10.0301986066
 30
0.0
 10
11.5835472561
 20
10.0267924305
 30
0.0
 10
11.5690120982
 20
10.0226181371
 30
0.0
 10
11.5541804383
 20
10.0193858649
 30
0.0
 10
11.5391114952
 20
10.017108569
 30
0.0
 10
11.5238643821
 20
10.0157950309
 30
0.0
 10
11.5084991701
 20
10.0154503309
 30
0.0
 10
11.4930762982
 20
10.016075713
 30
0.0
 10
11.4776564328
 20
10.0176686183
 30
0.0
 10
11.4623002054
 20
10.0202226888
 30
0.0
 10
11.4470679844
 20
10.0237277973
 30
0.0
 10
11.432019639
 20
10.0281700899
 30
0.0
 10
11.4172143064
 20
10.0335320361
 30
0.0
 10
11.4027101549
 20
10.0397924874
 30
0.0
 10
11.388564163
 20
10.0469267803
 30
0.0
 10
11.3748318978
 20
10.0549068307
 30
0.0
 10
11.3615672996
 20
10.0637012449
 30
0.0
 10
11.3488224729
 20
10.0732754415
 30
0.0
 10
11.3366474849
 20
10.0835917865
 30
0.0
 10
11.3250901681
 20
10.0946097376
 30
0.0
 10
11.3141959227
 20
10.106285992
 30
0.0
 10
11.3040075513
 20
10.1185746715
 30
0.0
 10
11.2945650919
 20
10.1314274988
 30
0.0
 10
11.2859056618
 20
10.144793986
 30
0.0
 10
11.2780633141
 20
10.1586216303
 30
0.0
 10
11.2710689049
 20
10.1728561171
 30
0.0
 10
11.264949967
 20
10.1874415328
 30
0.0
 10
11.2597306051
 20
10.2023205659
 30
0.0
 10
11.2554313516
 20
10.2174347853
 30
0.0
 10
11.2520692609
 20
10.2327246931
 30
0.0
 10
11.2496574614
 20
10.2481305344
 30
0.0
 10
11.2482057575
 20
10.2635908006
 30
0.0
 10
11.2478810377
 20
10.2739177642
 30
0.0
 10
11.2478810377
 20
10.2790686595
 30
0.0
  0
SPLINE
  5
391
100
AcDbEntity
  8
0
100
AcDbSpline
 62
7
  6
CONTINUOUS
 70
0
 71
3
 72
23
 73
19
 74
0
 42
0.0000001
 43
0.0000001
 44
0.0000000001
 40
0.0
 40
0.0
 40
0.0
 40
0.0
 40
0.0630509504
 40
0.1257810803
 40
0.1882283612
 40
0.2504393919
 40
0.3124680642
 40
0.3743739575
 40
0.43622051
 40
0.4980730344
 40
0.559996654
 40
0.6220542484
 40
0.6843044932
 40
0.7468000664
 40
0.8095860508
 40
0.8726989365
 40
0.9361643539
 40
1.0
 40
1.0
 40
1.0
 40
1.0
 10
11.2709792494
 20
10.4053586372
 30
0.0
 10
11.2627992336
 20
10.4041051234
 30
0.0
 10
11.2465798289
 20
10.4008973339
 30
0.0
 10
11.2228271611
 20
10.3939936931
 30
0.0
 10
11.1998775423
 20
10.3850584882
 30
0.0
 10
11.1778976056
 20
10.3741555977
 30
0.0
 10
11.1570441097
 20
10.3613625839
 30
0.0
 10
11.1374666063
 20
10.3467707847
 30
0.0
 10
11.1193053128
 20
10.3304844913
 30
0.0
 10
11.1026903028
 20
10.3126202735
 30
0.0
 10
11.0877404545
 20
10.2933060955
 30
0.0
 10
11.0745626284
 20
10.2726803245
 30
0.0
 10
11.0632508774
 20
10.2508907236
 30
0.0
 10
11.0538858033
 20
10.2280932776
 30
0.0
 10
11.0465338892
 20
10.2044513053
 30
0.0
 10
11.0412472463
 20
10.1801333467
 30
0.0
 10
11.0380629327
 20
10.1553154012
 30
0.0
 10
11.0373585899
 20
10.1385980735
 30
0.0
 10
11.0373585899
 20
10.130219578
 30
0.0
  0
SPLINE
  5
392
100
AcDbEntity
  8
0
100
AcDbSpline
 62
7
  6
CONTINUOUS
 70
0
 71
3
 72
23
 73
19
 74
0
 42
0.0000001
 43
0.0000001
 44
0.0000000001
 40
0.0
 40
0.0
 40
0.0
 40
0.0
 40
0.0628556227
 40
0.1254274591
 40
0.1877553974
 40
0.2498861775
 40
0.3118721379
 40
0.3737697642
 40
0.435638086
 40
0.4975369794
 40
0.5595254371
 40
0.6216598728
 40
0.683992517
 40
0.7465699907
 40
0.8094319544
 40
0.8726105243
 40
0.9361280439
 40
1.0
 40
1.0
 40
1.0
 40
1.0
 10
11.2871537319
 20
10.4073333493
 30
0.0
 10
11.2800116486
 20
10.4057853674
 30
0.0
 10
11.2658810516
 20
10.4021009584
 30
0.0
 10
11.245273089
 20
10.3948263538
 30
0.0
 10
11.2254320548
 20
10.3858627507
 30
0.0
 10
11.2064896484
 20
10.3752688835
 30
0.0
 10
11.1885692868
 20
10.3631136758
 30
0.0
 10
11.1717883727
 20
10.3494764979
 30
0.0
 10
11.1562566667
 20
10.3344464574
 30
0.0
 10
11.1420757607
 20
10.3181218532
 30
0.0
 10
11.1293383328
 20
10.3006094962
 30
0.0
 10
11.1181275319
 20
10.2820239898
 30
0.0
 10
11.1085164211
 20
10.2624869563
 30
0.0
 10
11.1005675382
 20
10.242126151
 30
0.0
 10
11.0943324301
 20
10.221074794
 30
0.0
 10
11.0898515175
 20
10.1994699654
 30
0.0
 10
11.0871535035
 20
10.1774545157
 30
0.0
 10
11.0865566578
 20
10.1626363475
 30
0.0
 10
11.0865566578
 20
10.1552102697
 30
0.0
  0
SPLINE
  5
393
100
AcDbEntity
  8
0
100
AcDbSpline
 62
7
  6
CONTINUOUS
 70
0
 71
3
 72
21
 73
17
 74
0
 42
0.0000001
 43
0.0000001
 44
0.0000000001
 40
0.0
 40
0.0
 40
0.0
 40
0.0
 40
0.0617147761
 40
0.1234506677
 40
0.1852285528
 40
0.2470689013
 40
0.30899155
 40
0.3710154761
 40
0.4331586505
 40
0.4954378572
 40
0.5578685131
 40
0.6204644763
 40
0.6832380473
 40
0.746200107
 40
0.8726822618
 40
1.0
 40
1.0
 40
1.0
 40
1.0
 10
11.1947256648
 20
10.3270630378
 30
0.0
 10
11.1919929583
 20
10.3244234447
 30
0.0
 10
11.1866614471
 20
10.3190016735
 30
0.0
 10
11.1790916127
 20
10.3104669727
 30
0.0
 10
11.1719651344
 20
10.301548447
 30
0.0
 10
11.165298671
 20
10.292266989
 30
0.0
 10
11.1591075925
 20
10.2826438796
 30
0.0
 10
11.1534061565
 20
10.2727013663
 30
0.0
 10
11.1482074381
 20
10.2624624044
 30
0.0
 10
11.1435235014
 20
10.2519505722
 30
0.0
 10
11.1393650788
 20
10.2411901233
 30
0.0
 10
11.1357416968
 20
10.2302059661
 30
0.0
 10
11.1326617494
 20
10.2190230914
 30
0.0
 10
11.1292844425
 20
10.2038619415
 30
0.0
 10
11.1264587134
 20
10.1845339176
 30
0.0
 10
11.125710527
 20
10.1688990902
 30
0.0
 10
11.125710527
 20
10.161061001
 30
0.0
  0
SPLINE
  5
394
100
AcDbEntity
  8
0
100
AcDbSpline
 62
7
  6
CONTINUOUS
 70
0
 71
3
 72
13
 73
9
 74
0
 42
0.0000001
 43
0.0000001
 44
0.0000000001
 40
0.0
 40
0.0
 40
0.0
 40
0.0
 40
0.1236916481
 40
0.2477174338
 40
0.3721049965
 40
0.4968789123
 40
0.7475740471
 40
1.0
 40
1.0
 40
1.0
 40
1.0
 10
11.2674828098
 20
10.3739022859
 30
0.0
 10
11.2658695342
 20
10.3702200714
 30
0.0
 10
11.2628331894
 20
10.3627586953
 30
0.0
 10
11.2588681671
 20
10.3513277872
 30
0.0
 10
11.2554961728
 20
10.3396709142
 30
0.0
 10
11.2517971114
 20
10.32384535
 30
0.0
 10
11.2487007239
 20
10.3036363923
 30
0.0
 10
11.2478810377
 20
10.2872727908
 30
0.0
 10
11.2478810377
 20
10.2790686595
 30
0.0
  0
SPLINE
  5
395
100
AcDbEntity
  8
0
100
AcDbSpline
 62
7
  6
CONTINUOUS
 70
0
 71
3
 72
39
 73
35
 74
0
 42
0.0000001
 43
0.0000001
 44
0.0000000001
 40
0.0
 40
0.0
 40
0.0
 40
0.0
 40
0.0299405658
 40
0.0599545112
 40
0.0900588764
 40
0.1202688692
 40
0.1505975774
 40
0.1810557332
 40
0.2116515318
 40
0.242390506
 40
0.2732754574
 40
0.3043064414
 40
0.335480805
 40
0.366793273
 40
0.3982360779
 40
0.4297991297
 40
0.4614702204
 40
0.4932352588
 40
0.5250785315
 40
0.5569829846
 40
0.588930522
 40
0.6209023177
 40
0.6528791351
 40
0.6848416528
 40
0.7167707913
 40
0.7486480355
 40
0.7804557531
 40
0.8121774948
 40
0.8437983048
 40
0.8753049277
 40
0.9066862631
 40
0.9379329961
 40
0.969039255
 40
1.0
 40
1.0
 40
1.0
 40
1.0
 10
11.6146743181
 20
10.0905413993
 30
0.0
 10
11.6108830987
 20
10.0881139734
 30
0.0
 10
11.6031109292
 20
10.0835286608
 30
0.0
 10
11.5909697833
 20
10.0775075505
 30
0.0
 10
11.5783877666
 20
10.0723625599
 30
0.0
 10
11.5654246129
 20
10.0681181705
 30
0.0
 10
11.5521407968
 20
10.0647939987
 30
0.0
 10
11.5385985436
 20
10.0624055105
 30
0.0
 10
11.5248611865
 20
10.0609637391
 30
0.0
 10
11.5109929626
 20
10.0604752984
 30
0.0
 10
11.4970586885
 20
10.0609423425
 30
0.0
 10
11.4831234644
 20
10.0623625643
 30
0.0
 10
11.4692523704
 20
10.0647292079
 30
0.0
 10
11.4555101655
 20
10.0680311084
 30
0.0
 10
11.4419609888
 20
10.0722527468
 30
0.0
 10
11.4286680636
 20
10.0773743253
 30
0.0
 10
11.415693406
 20
10.0833718607
 30
0.0
 10
11.4030975397
 20
10.0902172976
 30
0.0
 10
11.3909392164
 20
10.0978786394
 30
0.0
 10
11.3792751454
 20
10.1063200969
 30
0.0
 10
11.3681597319
 20
10.1155022551
 30
0.0
 10
11.3576448256
 20
10.1253822552
 30
0.0
 10
11.3477794817
 20
10.1359139937
 30
0.0
 10
11.3386097317
 20
10.1470483335
 30
0.0
 10
11.3301783707
 20
10.1587333323
 30
0.0
 10
11.32252476
 20
10.1709144845
 30
0.0
 10
11.3156846476
 20
10.1835349723
 30
0.0
 10
11.3096899939
 20
10.1965359291
 30
0.0
 10
11.3045688448
 20
10.2098567035
 30
0.0
 10
11.3003451475
 20
10.2234351744
 30
0.0
 10
11.2970387584
 20
10.2372078989
 30
0.0
 10
11.2946651115
 20
10.2511108922
 30
0.0
 10
11.2932355324
 20
10.2650783163
 30
0.0
 10
11.2929155516
 20
10.2744135231
 30
0.0
 10
11.2929155516
 20
10.2790686621
 30
0.0
  0
SPLINE
  5
396
100
AcDbEntity
  8
0
100
AcDbSpline
 62
7
  6
CONTINUOUS
 70
0
 71
3
 72
94
 73
90
 74
0
 42
0.0000001
 43
0.0000001
 44
0.0000000001
 40
0.0
 40
0.0
 40
0.0
 40
0.0
 40
0.0032619916
 40
0.0064151899
 40
0.0094765495
 40
0.0124648484
 40
0.0154004385
 40
0.0183048965
 40
0.0212005638
 40
0.0241100038
 40
0.0270554296
 40
0.0300581864
 40
0.0331382936
 40
0.0363141467
 40
0.0396023363
 40
0.0430175588
 40
0.0465726995
 40
0.0502788489
 40
0.054145521
 40
0.0581807253
 40
0.0623911702
 40
0.0667823979
 40
0.071358886
 40
0.0761242437
 40
0.0810812142
 40
0.0862318818
 40
0.0915776529
 40
0.0971193917
 40
0.1028574604
 40
0.1087917398
 40
0.1149217494
 40
0.1212465783
 40
0.1277650347
 40
0.1344755715
 40
0.1484649624
 40
0.1631976783
 40
0.178652484
 40
0.1948049441
 40
0.2116277885
 40
0.2290912139
 40
0.2471631353
 40
0.2658094089
 40
0.2849940313
 40
0.304679316
 40
0.3248260571
 40
0.3453936817
 40
0.3663403956
 40
0.3876233212
 40
0.4091986346
 40
0.4310217003
 40
0.4530472017
 40
0.475229269
 40
0.4975216074
 40
0.5198776229
 40
0.5422505491
 40
0.5645935745
 40
0.5868599686
 40
0.6090032083
 40
0.6309771037
 40
0.6527359252
 40
0.6742345307
 40
0.6954284967
 40
0.7162742506
 40
0.736729203
 40
0.7567518843
 40
0.776302085
 40
0.7953410039
 40
0.8138314027
 40
0.8317377754
 40
0.8490265332
 40
0.865666203
 40
0.8816276562
 40
0.8968843753
 40
0.9114127713
 40
0.9251925708
 40
0.9317966829
 40
0.9382078364
 40
0.9444246496
 40
0.9504460987
 40
0.9562715047
 40
0.9619005679
 40
0.9673334665
 40
0.9725707996
 40
0.9776137393
 40
0.9824640062
 40
0.9871241131
 40
0.9915973756
 40
0.995887774
 40
1.0
 40
1.0
 40
1.0
 40
1.0
 10
11.5555753841
 20
10.9631097413
 30
0.0
 10
11.5564994971
 20
10.9646784448
 30
0.0
 10
11.5582123758
 20
10.9678269042
 30
0.0
 10
11.5603884239
 20
10.9726533688
 30
0.0
 10
11.5621221843
 20
10.9774946116
 30
0.0
 10
11.5634118449
 20
10.9823474156
 30
0.0
 10
11.5642560207
 20
10.9872087062
 30
0.0
 10
11.5646536001
 20
10.9920750453
 30
0.0
 10
11.5646042052
 20
10.9969428189
 30
0.0
 10
11.5641077165
 20
11.0018083436
 30
0.0
 10
11.5631649611
 20
11.0066680534
 30
0.0
 10
11.5617769183
 20
11.0115185522
 30
0.0
 10
11.5599451895
 20
11.0163567627
 30
0.0
 10
11.5576715062
 20
11.0211798591
 30
0.0
 10
11.5549577458
 20
11.0259852041
 30
0.0
 10
11.5518060336
 20
11.0307704091
 30
0.0
 10
11.548218385
 20
11.0355330137
 30
0.0
 10
11.5441971687
 20
11.0402707824
 30
0.0
 10
11.539744674
 20
11.0449812891
 30
0.0
 10
11.5348635111
 20
11.0496622376
 30
0.0
 10
11.5295563937
 20
11.0543112291
 30
0.0
 10
11.5238262455
 20
11.0589258294
 30
0.0
 10
11.5176762627
 20
11.063503681
 30
0.0
 10
11.5111097705
 20
11.0680422488
 30
0.0
 10
11.504130436
 20
11.0725391903
 30
0.0
 10
11.4967420568
 20
11.0769919692
 30
0.0
 10
11.4889487396
 20
11.0813982073
 30
0.0
 10
11.480754781
 20
11.0857554549
 30
0.0
 10
11.472164715
 20
11.0900612807
 30
0.0
 10
11.4631833248
 20
11.0943133482
 30
0.0
 10
11.4538155767
 20
11.0985092111
 30
0.0
 10
11.4440667116
 20
11.1026466064
 30
0.0
 10
11.4339421271
 20
11.1067231784
 30
0.0
 10
11.4197519305
 20
11.1121498465
 30
0.0
 10
11.4011051141
 20
11.1187491375
 30
0.0
 10
11.3776244102
 20
11.1262845954
 30
0.0
 10
11.3527911928
 20
11.133525269
 30
0.0
 10
11.3266609477
 20
11.1404548345
 30
0.0
 10
11.2992918452
 20
11.1470576461
 30
0.0
 10
11.2707449981
 20
11.1533187912
 30
0.0
 10
11.2410841938
 20
11.159224131
 30
0.0
 10
11.2103757702
 20
11.1647603335
 30
0.0
 10
11.1786884453
 20
11.1699149016
 30
0.0
 10
11.1460931573
 20
11.1746762022
 30
0.0
 10
11.1126628996
 20
11.1790334918
 30
0.0
 10
11.0784725541
 20
11.1829769408
 30
0.0
 10
11.0435987208
 20
11.1864976535
 30
0.0
 10
11.0081195451
 20
11.1895876918
 30
0.0
 10
10.972114539
 20
11.1922400925
 30
0.0
 10
10.9356643995
 20
11.1944488782
 30
0.0
 10
10.8988508255
 20
11.1962090716
 30
0.0
 10
10.8617563341
 20
11.1975167061
 30
0.0
 10
10.8244640756
 20
11.1983688343
 30
0.0
 10
10.7870576463
 20
11.1987635342
 30
0.0
 10
10.7496209001
 20
11.1986999162
 30
0.0
 10
10.7122377592
 20
11.1981781259
 30
0.0
 10
10.6749920241
 20
11.1971993401
 30
0.0
 10
10.6379671857
 20
11.1957657644
 30
0.0
 10
10.6012462374
 20
11.1938806288
 30
0.0
 10
10.564911489
 20
11.1915481802
 30
0.0
 10
10.5290443813
 20
11.1887736732
 30
0.0
 10
10.4937253002
 20
11.1855633605
 30
0.0
 10
10.4590333941
 20
11.181924482
 30
0.0
 10
10.4250463953
 20
11.1778652437
 30
0.0
 10
10.3918404444
 20
11.1733948011
 30
0.0
 10
10.3594899177
 20
11.1685232387
 30
0.0
 10
10.3280672576
 20
11.1632615484
 30
0.0
 10
10.2976428046
 20
11.1576216044
 30
0.0
 10
10.2682846309
 20
11.151616138
 30
0.0
 10
10.2400583801
 20
11.1452587129
 30
0.0
 10
10.2130271019
 20
11.1385636873
 30
0.0
 10
10.1872511349
 20
11.1315461789
 30
0.0
 10
10.16278783
 20
11.1242220282
 30
0.0
 10
10.139691831
 20
11.1166077402
 30
0.0
 10
10.1213764959
 20
11.1099440584
 30
0.0
 10
10.1074588566
 20
11.1044679831
 30
0.0
 10
10.0975421352
 20
11.100357367
 30
0.0
 10
10.0880041699
 20
11.0961872223
 30
0.0
 10
10.0788502542
 20
11.0919598678
 30
0.0
 10
10.0700854768
 20
11.0876776819
 30
0.0
 10
10.0617147177
 20
11.083342994
 30
0.0
 10
10.0537425856
 20
11.0789582797
 30
0.0
 10
10.046173537
 20
11.074525866
 30
0.0
 10
10.0390117284
 20
11.0700483054
 30
0.0
 10
10.0322611229
 20
11.0655279711
 30
0.0
 10
10.0259253798
 20
11.0609672971
 30
0.0
 10
10.020007915
 20
11.056368635
 30
0.0
 10
10.0145123175
 20
11.051734679
 30
0.0
 10
10.0110600196
 20
11.0485574718
 30
0.0
 10
10.0094091741
 20
11.0469628774
 30
0.0
  0
SPLINE
  5
397
100
AcDbEntity
  8
0
100
AcDbSpline
 62
7
  6
CONTINUOUS
 70
0
 71
3
 72
15
 73
11
 74
0
 42
0.0000001
 43
0.0000001
 44
0.0000000001
 40
0.0
 40
0.0
 40
0.0
 40
0.0
 40
0.1269677904
 40
0.2533007617
 40
0.3790183137
 40
0.5041551272
 40
0.6287576353
 40
0.7528847166
 40
0.8766058777
 40
1.0
 40
1.0
 40
1.0
 40
1.0
 10
11.2929155516
 20
10.2790686621
 30
0.0
 10
11.2929155516
 20
10.2840021053
 30
0.0
 10
11.2932732278
 20
10.293848212
 30
0.0
 10
11.2948895492
 20
10.3084991961
 30
0.0
 10
11.2975759719
 20
10.3229208433
 30
0.0
 10
11.3013183946
 20
10.3370356149
 30
0.0
 10
11.3060971103
 20
10.3507688006
 30
0.0
 10
11.3118870703
 20
10.3640476326
 30
0.0
 10
11.3186570111
 20
10.3768006413
 30
0.0
 10
11.3238069854
 20
10.3849180582
 30
0.0
 10
11.3265308782
 20
10.3888637464
 30
0.0
  0
SPLINE
  5
398
100
AcDbEntity
  8
0
100
AcDbSpline
 62
7
  6
CONTINUOUS
 70
0
 71
3
 72
18
 73
14
 74
0
 42
0.0000001
 43
0.0000001
 44
0.0000000001
 40
0.0
 40
0.0
 40
0.0
 40
0.0
 40
0.171729923
 40
0.3299258034
 40
0.4744264854
 40
0.6052840064
 40
0.7227578775
 40
0.776612681
 40
0.8272999118
 40
0.8748964904
 40
0.9194863059
 40
0.961157299
 40
1.0
 40
1.0
 40
1.0
 40
1.0
 10
10.3961185471
 20
7.2952022797
 30
0.0
 10
10.3933310026
 20
7.2922043296
 30
0.0
 10
10.3879170265
 20
7.2864985638
 30
0.0
 10
10.3799197125
 20
7.2784999939
 30
0.0
 10
10.372382821
 20
7.2714253286
 30
0.0
 10
10.3653165515
 20
7.2652769066
 30
0.0
 10
10.3596763177
 20
7.2607911022
 30
0.0
 10
10.3554064492
 20
7.2576632343
 30
0.0
 10
10.3524221386
 20
7.2556016367
 30
0.0
 10
10.3495632454
 20
7.2537496674
 30
0.0
 10
10.3468307758
 20
7.2521007206
 30
0.0
 10
10.3442257446
 20
7.2506478674
 30
0.0
 10
10.3425158254
 20
7.2497749887
 30
0.0
 10
10.3416826706
 20
7.2493710201
 30
0.0
  0
SPLINE
  5
399
100
AcDbEntity
  8
0
100
AcDbSpline
 62
7
  6
CONTINUOUS
 70
0
 71
3
 72
19
 73
15
 74
0
 42
0.0000001
 43
0.0000001
 44
0.0000000001
 40
0.0
 40
0.0
 40
0.0
 40
0.0
 40
0.150460937
 40
0.2916987357
 40
0.424419542
 40
0.4878837275
 40
0.5495802504
 40
0.6682271673
 40
0.7255606103
 40
0.7817998831
 40
0.8371466721
 40
0.8918135967
 40
0.94602219
 40
1.0
 40
1.0
 40
1.0
 40
1.0
 10
12.964204121
 20
8.509646712
 30
0.0
 10
12.9619226535
 20
8.5074429835
 30
0.0
 10
12.9573628567
 20
8.5033081621
 30
0.0
 10
12.9503024513
 20
8.4977980382
 30
0.0
 10
12.9443388279
 20
8.493900972
 30
0.0
 10
12.9395832195
 20
8.491261991
 30
0.0
 10
12.9349679093
 20
8.4889963695
 30
0.0
 10
12.9302985617
 20
8.4871444275
 30
0.0
 10
12.9256029439
 20
8.4857508326
 30
0.0
 10
12.9221311324
 20
8.4849475563
 30
0.0
 10
12.9186708782
 20
8.4843750171
 30
0.0
 10
12.9152230953
 20
8.4840334984
 30
0.0
 10
12.9117891777
 20
8.4839231325
 30
0.0
 10
12.9095077804
 20
8.4840038167
 30
0.0
 10
12.9083725572
 20
8.4840825447
 30
0.0
  0
SPLINE
  5
39A
100
AcDbEntity
  8
0
100
AcDbSpline
 62
7
  6
CONTINUOUS
 70
0
 71
3
 72
83
 73
79
 74
0
 42
0.0000001
 43
0.0000001
 44
0.0000000001
 40
0.0
 40
0.0
 40
0.0
 40
0.0
 40
0.0039161867
 40
0.0079934269
 40
0.0122351566
 40
0.0166442827
 40
0.0212232652
 40
0.0259740411
 40
0.0308979151
 40
0.0359957611
 40
0.0412680574
 40
0.0467149068
 40
0.0523361353
 40
0.0581312111
 40
0.070239132
 40
0.0830300411
 40
0.0964913821
 40
0.110607643
 40
0.1253607095
 40
0.1407301543
 40
0.1566934909
 40
0.173226374
 40
0.1903027698
 40
0.2078950945
 40
0.2259743533
 40
0.2445102721
 40
0.2634714088
 40
0.2828252574
 40
0.3025383394
 40
0.3225763092
 40
0.3429040519
 40
0.3634857729
 40
0.3842850855
 40
0.4052650955
 40
0.4476170078
 40
0.490240324
 40
0.5328307105
 40
0.5750841386
 40
0.5959905789
 40
0.6167003155
 40
0.6371766657
 40
0.6573834858
 40
0.6772852583
 40
0.6968471896
 40
0.7160353048
 40
0.7348165358
 40
0.7531588185
 40
0.7710311947
 40
0.7884039333
 40
0.8052486436
 40
0.8215383947
 40
0.8372478543
 40
0.8523534503
 40
0.8668335692
 40
0.8806687615
 40
0.8938419955
 40
0.9063389758
 40
0.9181485517
 40
0.9237933374
 40
0.9292638057
 40
0.9345597268
 40
0.9396811445
 40
0.9446285149
 40
0.9494026559
 40
0.9540048286
 40
0.9584368205
 40
0.9627009222
 40
0.9668000992
 40
0.9707379924
 40
0.9745190311
 40
0.9781485718
 40
0.9816329268
 40
0.984979569
 40
0.9881971876
 40
0.9912958104
 40
0.9942869309
 40
0.9971835028
 40
1.0
 40
1.0
 40
1.0
 40
1.0
 10
12.933294492
 20
8.5117903021
 30
0.0
 10
12.9348452144
 20
8.513288185
 30
0.0
 10
12.9379450637
 20
8.5164138303
 30
0.0
 10
12.9425002444
 20
8.5213779729
 30
0.0
 10
12.9470508799
 20
8.5267084457
 30
0.0
 10
12.9515946098
 20
8.5324025054
 30
0.0
 10
12.9561294543
 20
8.5384574858
 30
0.0
 10
12.9606532953
 20
8.5448706393
 30
0.0
 10
12.9651641147
 20
8.5516389396
 30
0.0
 10
12.9696597412
 20
8.5587592171
 30
0.0
 10
12.974138039
 20
8.5662281137
 30
0.0
 10
12.9785969426
 20
8.5740420823
 30
0.0
 10
12.9830343116
 20
8.5821974771
 30
0.0
 10
12.9890067608
 20
8.5936898754
 30
0.0
 10
12.996389711
 20
8.6088939082
 30
0.0
 10
13.0050056903
 20
8.6281785319
 30
0.0
 10
13.0134864291
 20
8.6487242609
 30
0.0
 10
13.0218157296
 20
8.670492169
 30
0.0
 10
13.0299776863
 20
8.6934412193
 30
0.0
 10
13.0379566981
 20
8.7175279503
 30
0.0
 10
13.0457375005
 20
8.7427067065
 30
0.0
 10
13.0533052047
 20
8.7689297075
 30
0.0
 10
13.060645323
 20
8.7961471525
 30
0.0
 10
13.0677438142
 20
8.824307309
 30
0.0
 10
13.0745871064
 20
8.853356622
 30
0.0
 10
13.081162113
 20
8.8832398291
 30
0.0
 10
13.0874562617
 20
8.9139000709
 30
0.0
 10
13.0934575141
 20
8.9452789954
 30
0.0
 10
13.0991544065
 20
8.9773168661
 30
0.0
 10
13.1045360588
 20
9.0099526807
 30
0.0
 10
13.1095921942
 20
9.0431242997
 30
0.0
 10
13.1143131451
 20
9.076768545
 30
0.0
 10
13.1186899286
 20
9.1108213927
 30
0.0
 10
13.1240721249
 20
9.1568259627
 30
0.0
 10
13.1298758417
 20
9.2148742381
 30
0.0
 10
13.1353323372
 20
9.2848972487
 30
0.0
 10
13.1392605208
 20
9.3549683033
 30
0.0
 10
13.1412428132
 20
9.4131594247
 30
0.0
 10
13.1420335964
 20
9.4593269649
 30
0.0
 10
13.1422275173
 20
9.4935115634
 30
0.0
 10
13.1420241165
 20
9.5273109171
 30
0.0
 10
13.1414237735
 20
9.5606607068
 30
0.0
 10
13.1404276613
 20
9.5934974063
 30
0.0
 10
13.1390377087
 20
9.6257584915
 30
0.0
 10
13.1372566092
 20
9.6573825402
 30
0.0
 10
13.1350878004
 20
9.6883093523
 30
0.0
 10
13.1325354627
 20
9.7184800594
 30
0.0
 10
13.1296045064
 20
9.7478372444
 30
0.0
 10
13.1263005825
 20
9.7763250601
 30
0.0
 10
13.1226300622
 20
9.8038893391
 30
0.0
 10
13.1186000174
 20
9.8304776936
 30
0.0
 10
13.1142182098
 20
9.8560396188
 30
0.0
 10
13.1094930704
 20
9.8805266018
 30
0.0
 10
13.1044337048
 20
9.903892244
 30
0.0
 10
13.0990498519
 20
9.9260923231
 30
0.0
 10
13.0933518548
 20
9.9470850153
 30
0.0
 10
13.0873506269
 20
9.96683055
 30
0.0
 10
13.0820293968
 20
9.9824418375
 30
0.0
 10
13.0776164968
 20
9.9942669857
 30
0.0
 10
13.0742880338
 20
10.0026672453
 30
0.0
 10
13.0708925575
 20
10.0107289204
 30
0.0
 10
13.067431553
 20
10.0184481992
 30
0.0
 10
13.0639067242
 20
10.0258214646
 30
0.0
 10
13.0603196962
 20
10.0328452478
 30
0.0
 10
13.0566721098
 20
10.0395162398
 30
0.0
 10
13.0529657247
 20
10.0458313514
 30
0.0
 10
13.0492021516
 20
10.0517875912
 30
0.0
 10
13.0453831633
 20
10.0573822116
 30
0.0
 10
13.0415104534
 20
10.0626125983
 30
0.0
 10
13.0375856852
 20
10.0674762708
 30
0.0
 10
13.0336106428
 20
10.0719709983
 30
0.0
 10
13.029586924
 20
10.0760945643
 30
0.0
 10
13.0255162758
 20
10.0798449984
 30
0.0
 10
13.021400363
 20
10.0832204034
 30
0.0
 10
13.0172408647
 20
10.086218893
 30
0.0
 10
13.0130394893
 20
10.0888388804
 30
0.0
 10
13.0087983704
 20
10.0910784533
 30
0.0
 10
13.0059097359
 20
10.0923324759
 30
0.0
 10
13.0044634992
 20
10.0928917015
 30
0.0
  0
SPLINE
  5
39B
100
AcDbEntity
  8
0
100
AcDbSpline
 62
7
  6
CONTINUOUS
 70
0
 71
3
 72
15
 73
11
 74
0
 42
0.0000001
 43
0.0000001
 44
0.0000000001
 40
0.0
 40
0.0
 40
0.0
 40
0.0
 40
0.1446796378
 40
0.2829486079
 40
0.4151081686
 40
0.5415343698
 40
0.6626769982
 40
0.7790575382
 40
0.8912732556
 40
1.0
 40
1.0
 40
1.0
 40
1.0
 10
12.933294492
 20
8.5117903021
 30
0.0
 10
12.931645345
 20
8.5101973483
 30
0.0
 10
12.9283483224
 20
8.5071550376
 30
0.0
 10
12.9232896154
 20
8.5029447425
 30
0.0
 10
12.918235015
 20
8.4991961962
 30
0.0
 10
12.9131874116
 20
8.4959120154
 30
0.0
 10
12.9081493367
 20
8.4930943905
 30
0.0
 10
12.9031231749
 20
8.4907454114
 30
0.0
 10
12.898112214
 20
8.4888671943
 30
0.0
 10
12.8947366651
 20
8.4879171754
 30
0.0
 10
12.8930586322
 20
8.4875257499
 30
0.0
  0
SPLINE
  5
39C
100
AcDbEntity
  8
0
100
AcDbSpline
 62
7
  6
CONTINUOUS
 70
0
 71
3
 72
18
 73
14
 74
0
 42
0.0000001
 43
0.0000001
 44
0.0000000001
 40
0.0
 40
0.0
 40
0.0
 40
0.0
 40
0.0548620599
 40
0.1099280451
 40
0.1653994776
 40
0.2214731111
 40
0.2783387003
 40
0.3361775499
 40
0.4554064184
 40
0.5804414564
 40
0.712334317
 40
0.8519586594
 40
1.0
 40
1.0
 40
1.0
 40
1.0
 10
9.9915335336
 20
10.9727972789
 30
0.0
 10
9.9915335395
 20
10.9739016811
 30
0.0
 10
9.9916036418
 20
10.9761152242
 30
0.0
 10
9.9919187988
 20
10.9794319419
 30
0.0
 10
9.9924439457
 20
10.9827467429
 30
0.0
 10
9.9931788502
 20
10.9860584223
 30
0.0
 10
9.9941232114
 20
10.9893661537
 30
0.0
 10
9.9956765199
 20
10.9938141538
 30
0.0
 10
9.998164871
 20
10.9993774083
 30
0.0
 10
10.0019522978
 20
11.0059476394
 30
0.0
 10
10.0065651868
 20
11.0124753612
 30
0.0
 10
10.0119965272
 20
11.0189539767
 30
0.0
 10
10.0160359948
 20
11.0231108103
 30
0.0
 10
10.0181794815
 20
11.0251812595
 30
0.0
  0
SPLINE
  5
39D
100
AcDbEntity
  8
0
100
AcDbSpline
 62
7
  6
CONTINUOUS
 70
0
 71
3
 72
69
 73
65
 74
0
 42
0.0000001
 43
0.0000001
 44
0.0000000001
 40
0.0
 40
0.0
 40
0.0
 40
0.0
 40
0.0155844784
 40
0.0311164857
 40
0.0465960402
 40
0.0620249415
 40
0.0774047696
 40
0.092737865
 40
0.1080269667
 40
0.1232752767
 40
0.1384864179
 40
0.1536643976
 40
0.1688135699
 40
0.1839385916
 40
0.1990443748
 40
0.214136036
 40
0.2292188428
 40
0.2442981574
 40
0.2593793793
 40
0.2744678872
 40
0.2895689816
 40
0.304687829
 40
0.3198294075
 40
0.3349984545
 40
0.3501994182
 40
0.3654364121
 40
0.3807131743
 40
0.3960330328
 40
0.4113988745
 40
0.4268131203
 40
0.4422777043
 40
0.4577940591
 40
0.473363106
 40
0.4889852529
 40
0.5046603949
 40
0.5203879209
 40
0.5361667237
 40
0.5519952147
 40
0.5678713436
 40
0.5837926221
 40
0.5997561506
 40
0.615758647
 40
0.6317964791
 40
0.6478656986
 40
0.6800725947
 40
0.7123515117
 40
0.728510095
 40
0.7446719373
 40
0.7608319997
 40
0.7769852595
 40
0.7931267534
 40
0.8092516204
 40
0.8253551441
 40
0.8414327955
 40
0.8574802739
 40
0.8734935466
 40
0.8894688842
 40
0.9054028993
 40
0.9212925758
 40
0.9371352889
 40
0.9529289196
 40
0.9686715342
 40
0.9843623985
 40
1.0
 40
1.0
 40
1.0
 40
1.0
 10
11.0460519228
 20
6.748876101
 30
0.0
 10
11.0460519228
 20
6.7398047321
 30
0.0
 10
11.0456079755
 20
6.7216893203
 30
0.0
 10
11.0436040321
 20
6.6946303449
 30
0.0
 10
11.0402676996
 20
6.6677936294
 30
0.0
 10
11.0356072218
 20
6.6412449278
 30
0.0
 10
11.0296335728
 20
6.6150478079
 30
0.0
 10
11.0223611652
 20
6.589265561
 30
0.0
 10
11.0138074217
 20
6.5639603129
 30
0.0
 10
11.0039929274
 20
6.539193088
 30
0.0
 10
10.9929412949
 20
6.5150236114
 30
0.0
 10
10.9806791215
 20
6.4915101782
 30
0.0
 10
10.9672359294
 20
6.4687095095
 30
0.0
 10
10.9526440892
 20
6.4466766179
 30
0.0
 10
10.9369387604
 20
6.4254646638
 30
0.0
 10
10.9201578143
 20
6.4051248137
 30
0.0
 10
10.9023417152
 20
6.385706134
 30
0.0
 10
10.8835334278
 20
6.3672554686
 30
0.0
 10
10.8637783137
 20
6.3498173255
 30
0.0
 10
10.843124018
 20
6.333433773
 30
0.0
 10
10.821620371
 20
6.3181443153
 30
0.0
 10
10.7993192606
 20
6.3039857971
 30
0.0
 10
10.7762744901
 20
6.2909923336
 30
0.0
 10
10.7525416514
 20
6.2791952251
 30
0.0
 10
10.7281779901
 20
6.2686228827
 30
0.0
 10
10.703242265
 20
6.2593007659
 30
0.0
 10
10.6777946183
 20
6.2512512893
 30
0.0
 10
10.6518964171
 20
6.2444937876
 30
0.0
 10
10.6256101016
 20
6.239044483
 30
0.0
 10
10.5989990355
 20
6.2349164457
 30
0.0
 10
10.5721273547
 20
6.232119564
 30
0.0
 10
10.545059814
 20
6.2306605253
 30
0.0
 10
10.5178616328
 20
6.2305427643
 30
0.0
 10
10.4905983327
 20
6.2317664882
 30
0.0
 10
10.4633355813
 20
6.2343286813
 30
0.0
 10
10.4361390356
 20
6.2382231127
 30
0.0
 10
10.409074187
 20
6.2434403531
 30
0.0
 10
10.382206206
 20
6.2499677935
 30
0.0
 10
10.3555997734
 20
6.2577896503
 30
0.0
 10
10.3293189481
 20
6.2668870267
 30
0.0
 10
10.3034269495
 20
6.2772380027
 30
0.0
 10
10.2779862523
 20
6.2888175144
 30
0.0
 10
10.2530575223
 20
6.3015980641
 30
0.0
 10
10.2205631205
 20
6.3202094713
 30
0.0
 10
10.1815299851
 20
6.3463183216
 30
0.0
 10
10.1450197428
 20
6.3759337845
 30
0.0
 10
10.1175041861
 20
6.4015777637
 30
0.0
 10
10.09775549
 20
6.4217496349
 30
0.0
 10
10.0789534374
 20
6.4428017602
 30
0.0
 10
10.0611427229
 20
6.4646839032
 30
0.0
 10
10.0443663765
 20
6.4873432795
 30
0.0
 10
10.0286647557
 20
6.5107253873
 30
0.0
 10
10.0140756969
 20
6.5347739507
 30
0.0
 10
10.0006343331
 20
6.5594310886
 30
0.0
 10
9.9883730349
 20
6.5846374499
 30
0.0
 10
9.9773213451
 20
6.6103323668
 30
0.0
 10
9.9675059035
 20
6.6364539952
 30
0.0
 10
9.9589503848
 20
6.6629394642
 30
0.0
 10
9.9516754548
 20
6.6897250131
 30
0.0
 10
9.9456986347
 20
6.7167461958
 30
0.0
 10
9.9410344477
 20
6.7439378142
 30
0.0
 10
9.9376939949
 20
6.7712348237
 30
0.0
 10
9.9356856474
 20
6.7985703924
 30
0.0
 10
9.9352371568
 20
6.816809076
 30
0.0
 10
9.9352371568
 20
6.8259113667
 30
0.0
  0
SPLINE
  5
39E
100
AcDbEntity
  8
0
100
AcDbSpline
 62
7
  6
CONTINUOUS
 70
0
 71
3
 72
69
 73
65
 74
0
 42
0.0000001
 43
0.0000001
 44
0.0000000001
 40
0.0
 40
0.0
 40
0.0
 40
0.0
 40
0.0155074848
 40
0.0309646045
 40
0.0463727622
 40
0.0617337693
 40
0.077050022
 40
0.092324284
 40
0.1075597495
 40
0.1227599932
 40
0.1379289396
 40
0.1530708268
 40
0.168190164
 40
0.1832916882
 40
0.1983803182
 40
0.2134611043
 40
0.228539177
 40
0.243619694
 40
0.2587077873
 40
0.2738085123
 40
0.2889267962
 40
0.3040673877
 40
0.3192348099
 40
0.3344333145
 40
0.349666843
 40
0.3649389893
 40
0.3802529665
 40
0.3956115781
 40
0.4110171928
 40
0.4264717284
 40
0.4419766372
 40
0.457532897
 40
0.4731410046
 40
0.4888009765
 40
0.504512355
 40
0.5202742171
 40
0.5360851868
 40
0.5519434498
 40
0.5678467741
 40
0.583792535
 40
0.5997777403
 40
0.6157990583
 40
0.6318528474
 40
0.6479351899
 40
0.6801605397
 40
0.7124478158
 40
0.7286070216
 40
0.7447675172
 40
0.7609244911
 40
0.7770731604
 40
0.7932088106
 40
0.8093268368
 40
0.8254227819
 40
0.8414923738
 40
0.8575315611
 40
0.8735365505
 40
0.8895038397
 40
0.9054302544
 40
0.9213129634
 40
0.9371495189
 40
0.9529379355
 40
0.9686763618
 40
0.9843642791
 40
1.0
 40
1.0
 40
1.0
 40
1.0
 10
11.0447363585
 20
6.7489900726
 30
0.0
 10
11.0441464276
 20
6.7407557493
 30
0.0
 10
11.0425705092
 20
6.724339499
 30
0.0
 10
11.0390148488
 20
6.6999008299
 30
0.0
 10
11.034279274
 20
6.675741892
 30
0.0
 10
11.0283746415
 20
6.6519191026
 30
0.0
 10
11.0213145259
 20
6.6284871311
 30
0.0
 10
11.0131150882
 20
6.6054999889
 30
0.0
 10
11.0037951593
 20
6.5830106203
 30
0.0
 10
10.9933761811
 20
6.5610708262
 30
0.0
 10
10.981882115
 20
6.5397311484
 30
0.0
 10
10.9693393982
 20
6.5190407564
 30
0.0
 10
10.955776874
 20
6.4990473389
 30
0.0
 10
10.94122576
 20
6.4797969734
 30
0.0
 10
10.9257195828
 20
6.461334005
 30
0.0
 10
10.9092940571
 20
6.443700974
 30
0.0
 10
10.8919870157
 20
6.4269385116
 30
0.0
 10
10.8738383145
 20
6.4110852561
 30
0.0
 10
10.8548897756
 20
6.3961777253
 30
0.0
 10
10.8351850765
 20
6.3822502343
 30
0.0
 10
10.8147696237
 20
6.3693348484
 30
0.0
 10
10.7936904561
 20
6.357461301
 30
0.0
 10
10.7719961325
 20
6.3466569381
 30
0.0
 10
10.749736646
 20
6.3369466008
 30
0.0
 10
10.7269632869
 20
6.3283525954
 30
0.0
 10
10.7037285146
 20
6.3208946666
 30
0.0
 10
10.6800858408
 20
6.3145899466
 30
0.0
 10
10.6560897082
 20
6.3094529265
 30
0.0
 10
10.631795377
 20
6.3054953601
 30
0.0
 10
10.6072587815
 20
6.3027262866
 30
0.0
 10
10.5825364007
 20
6.3011520223
 30
0.0
 10
10.5576851323
 20
6.3007761453
 30
0.0
 10
10.5327621659
 20
6.3015994885
 30
0.0
 10
10.5078248483
 20
6.3036200786
 30
0.0
 10
10.4829305488
 20
6.3068332023
 30
0.0
 10
10.4581365306
 20
6.3112314176
 30
0.0
 10
10.4334998231
 20
6.3168045739
 30
0.0
 10
10.4090770936
 20
6.3235398243
 30
0.0
 10
10.3849244983
 20
6.3314216116
 30
0.0
 10
10.3610975816
 20
6.3404317555
 30
0.0
 10
10.3376510934
 20
6.3505495275
 30
0.0
 10
10.3146390805
 20
6.3617515492
 30
0.0
 10
10.2921139657
 20
6.374012405
 30
0.0
 10
10.2627840084
 20
6.3917429025
 30
0.0
 10
10.2276019788
 20
6.4164078146
 30
0.0
 10
10.1947427826
 20
6.444154429
 30
0.0
 10
10.1700052379
 20
6.4680632616
 30
0.0
 10
10.1522637226
 20
6.4868165219
 30
0.0
 10
10.1353831841
 20
6.5063403335
 30
0.0
 10
10.1194019772
 20
6.526590213
 30
0.0
 10
10.1043569838
 20
6.5475194935
 30
0.0
 10
10.0902827569
 20
6.5690800714
 30
0.0
 10
10.0772116798
 20
6.5912223701
 30
0.0
 10
10.0651738288
 20
6.6138954886
 30
0.0
 10
10.054196931
 20
6.6370473098
 30
0.0
 10
10.0443062452
 20
6.6606245972
 30
0.0
 10
10.0355245263
 20
6.6845731347
 30
0.0
 10
10.0278720052
 20
6.7088378589
 30
0.0
 10
10.021366325
 20
6.7333629699
 30
0.0
 10
10.0160224941
 20
6.7580921119
 30
0.0
 10
10.0118529111
 20
6.782968264
 30
0.0
 10
10.008867009
 20
6.8079346385
 30
0.0
 10
10.0070719992
 20
6.8329327757
 30
0.0
 10
10.0066711859
 20
6.8496106607
 30
0.0
 10
10.0066711859
 20
6.8579343558
 30
0.0
  0
LINE
  5
39F
100
AcDbEntity
  8
0
100
AcDbLine
 62
7
  6
CONTINUOUS
 10
10.3416826706
 20
7.2493710201
 11
10.3122173079
 21
7.2654006905
  0
SPLINE
  5
3A0
100
AcDbEntity
  8
0
100
AcDbSpline
 62
7
  6
CONTINUOUS
 70
0
 71
3
 72
29
 73
25
 74
0
 42
0.0000001
 43
0.0000001
 44
0.0000000001
 40
0.0
 40
0.0
 40
0.0
 40
0.0
 40
0.0749503488
 40
0.1455452737
 40
0.2121261891
 40
0.2751192851
 40
0.3350448404
 40
0.3640583593
 40
0.3925449884
 40
0.4205963601
 40
0.4483089338
 40
0.4757832092
 40
0.5031225081
 40
0.530431847
 40
0.5578166247
 40
0.5853812653
 40
0.6132280351
 40
0.6414557868
 40
0.6701590145
 40
0.7293218109
 40
0.7913860629
 40
0.8569001023
 40
0.9263189548
 40
1.0
 40
1.0
 40
1.0
 40
1.0
 10
9.9603958943
 20
10.9865562501
 30
0.0
 10
9.9579587406
 20
10.9888242787
 30
0.0
 10
9.9533612094
 20
10.9933777428
 30
0.0
 10
9.9471576444
 20
11.0004816329
 30
0.0
 10
9.9418676477
 20
11.0076420376
 30
0.0
 10
9.93749925
 20
11.0148518436
 30
0.0
 10
9.9346017623
 20
11.020962698
 30
0.0
 10
9.932773525
 20
11.0258503678
 30
0.0
 10
9.9316505395
 20
11.0294831476
 30
0.0
 10
9.9307617703
 20
11.0331207765
 30
0.0
 10
9.9301075838
 20
11.0367622522
 30
0.0
 10
9.9296882096
 20
11.0404063993
 30
0.0
 10
9.9295038411
 20
11.0440520683
 30
0.0
 10
9.9295546374
 20
11.0476980755
 30
0.0
 10
9.929840503
 20
11.0513432298
 30
0.0
 10
9.9303612982
 20
11.0549863697
 30
0.0
 10
9.9311168467
 20
11.0586263044
 30
0.0
 10
9.9321068409
 20
11.0622620163
 30
0.0
 10
9.9337550182
 20
11.067150989
 30
0.0
 10
9.9364273458
 20
11.073267284
 30
0.0
 10
9.9405326598
 20
11.080490152
 30
0.0
 10
9.945561718
 20
11.0876654779
 30
0.0
 10
9.9515064738
 20
11.0947858442
 30
0.0
 10
9.9559380535
 20
11.0993511915
 30
0.0
 10
9.9582920542
 20
11.1016249817
 30
0.0
  0
SPLINE
  5
3A1
100
AcDbEntity
  8
0
100
AcDbSpline
 62
7
  6
CONTINUOUS
 70
0
 71
3
 72
23
 73
19
 74
0
 42
0.0000001
 43
0.0000001
 44
0.0000000001
 40
0.0
 40
0.0
 40
0.0
 40
0.0
 40
0.0636765246
 40
0.1250327799
 40
0.1844692012
 40
0.2424309302
 40
0.2994021132
 40
0.3558948954
 40
0.4124357799
 40
0.4695497615
 40
0.5277449267
 40
0.587499031
 40
0.6492495064
 40
0.7133871169
 40
0.7802559991
 40
0.8501545767
 40
0.9233350066
 40
1.0
 40
1.0
 40
1.0
 40
1.0
 10
9.9917313467
 20
10.9627056121
 30
0.0
 10
9.9907075392
 20
10.9644205495
 30
0.0
 10
9.9888210336
 20
10.9678642371
 30
0.0
 10
9.9864630409
 20
10.9731553964
 30
0.0
 10
9.9846362939
 20
10.9784645082
 30
0.0
 10
9.9833435525
 20
10.983787362
 30
0.0
 10
9.9825865829
 20
10.989119631
 30
0.0
 10
9.9823667718
 20
10.9944564987
 30
0.0
 10
9.9826844276
 20
10.9997928999
 30
0.0
 10
9.9835390276
 20
11.0051238036
 30
0.0
 10
9.9849291689
 20
11.0104444642
 30
0.0
 10
9.9868527807
 20
11.0157506001
 30
0.0
 10
9.9893074508
 20
11.0210383441
 30
0.0
 10
9.9922903778
 20
11.0263043246
 30
0.0
 10
9.9957988947
 20
11.0315453478
 30
0.0
 10
9.9998301087
 20
11.0367585386
 30
0.0
 10
10.0043807592
 20
11.041940513
 30
0.0
 10
10.0076795854
 20
11.0452922229
 30
0.0
 10
10.0094091741
 20
11.0469628774
 30
0.0
  0
SPLINE
  5
3A2
100
AcDbEntity
  8
0
100
AcDbSpline
 62
7
  6
CONTINUOUS
 70
0
 71
3
 72
15
 73
11
 74
0
 42
0.0000001
 43
0.0000001
 44
0.0000000001
 40
0.0
 40
0.0
 40
0.0
 40
0.0
 40
0.1267228772
 40
0.2529092452
 40
0.3785713894
 40
0.5037296992
 40
0.6284124497
 40
0.7526554471
 40
0.8765015404
 40
1.0
 40
1.0
 40
1.0
 40
1.0
 10
10.2899117932
 20
7.0465007782
 30
0.0
 10
10.2899117932
 20
7.0554390162
 30
0.0
 10
10.2904587204
 20
7.0732826385
 30
0.0
 10
10.2929291958
 20
7.0998866452
 30
0.0
 10
10.2970388522
 20
7.1261767321
 30
0.0
 10
10.3027723595
 20
7.1520523941
 30
0.0
 10
10.3101081879
 20
7.1774162087
 30
0.0
 10
10.3190189889
 20
7.2021726476
 30
0.0
 10
10.3294705482
 20
7.2262269457
 30
0.0
 10
10.3374509923
 20
7.2417571465
 30
0.0
 10
10.3416826706
 20
7.2493710201
 30
0.0
  0
SPLINE
  5
3A3
100
AcDbEntity
  8
0
100
AcDbSpline
 62
7
  6
CONTINUOUS
 70
0
 71
3
 72
19
 73
15
 74
0
 42
0.0000001
 43
0.0000001
 44
0.0000000001
 40
0.0
 40
0.0
 40
0.0
 40
0.0
 40
0.1532268151
 40
0.2947792672
 40
0.4259266361
 40
0.5483709413
 40
0.6070238647
 40
0.6643433042
 40
0.7206639744
 40
0.7763401531
 40
0.8317398391
 40
0.8872368568
 40
0.9432030378
 40
1.0
 40
1.0
 40
1.0
 40
1.0
 10
12.933294492
 20
8.735885107
 30
0.0
 10
12.9312694823
 20
8.7339290978
 30
0.0
 10
12.9272234394
 20
8.7303160091
 30
0.0
 10
12.9209035757
 20
8.7256768592
 30
0.0
 10
12.914592191
 20
8.7220535963
 30
0.0
 10
12.909268381
 20
8.7198601733
 30
0.0
 10
12.905052613
 20
8.7186555447
 30
0.0
 10
12.9019469953
 20
8.7180240683
 30
0.0
 10
12.898854678
 20
8.7176525376
 30
0.0
 10
12.8957772441
 20
8.7175414239
 30
0.0
 10
12.8927165511
 20
8.7176908544
 30
0.0
 10
12.8896743406
 20
8.7181007706
 30
0.0
 10
12.8866526655
 20
8.7187708698
 30
0.0
 10
12.884671063
 20
8.7193850379
 30
0.0
 10
12.8836871478
 20
8.7197329109
 30
0.0
  0
SPLINE
  5
3A4
100
AcDbEntity
  8
0
100
AcDbSpline
 62
7
  6
CONTINUOUS
 70
0
 71
3
 72
85
 73
81
 74
0
 42
0.0000001
 43
0.0000001
 44
0.0000000001
 40
0.0
 40
0.0
 40
0.0
 40
0.0
 40
0.002808
 40
0.0056356854
 40
0.0085022922
 40
0.0114262237
 40
0.0144246988
 40
0.0175135598
 40
0.024014739
 40
0.0274544584
 40
0.0310326265
 40
0.0347576765
 40
0.0386367849
 40
0.0426760087
 40
0.0468804381
 40
0.0512542242
 40
0.0558007794
 40
0.0605227769
 40
0.0654222753
 40
0.0705007986
 40
0.0757593265
 40
0.0811984488
 40
0.0868183048
 40
0.0926186943
 40
0.0985990952
 40
0.1110957845
 40
0.1242990473
 40
0.1381952116
 40
0.1527673415
 40
0.1679956344
 40
0.1838577574
 40
0.2003291181
 40
0.2173830882
 40
0.2349911961
 40
0.2531232881
 40
0.2717476837
 40
0.29083132
 40
0.3103398796
 40
0.3302379102
 40
0.3504889364
 40
0.371055568
 40
0.3918996141
 40
0.4129821883
 40
0.4342638111
 40
0.4557045103
 40
0.4989006445
 40
0.5422455447
 40
0.5854119505
 40
0.6068267168
 40
0.6280751085
 40
0.6491172355
 40
0.6699137162
 40
0.6904257797
 40
0.7106153751
 40
0.7304452753
 40
0.7498791827
 40
0.7688818395
 40
0.7874191422
 40
0.8054582693
 40
0.8229678148
 40
0.8399179225
 40
0.8562804388
 40
0.8720290849
 40
0.8871396568
 40
0.9015902675
 40
0.9153616176
 40
0.928437329
 40
0.9408043683
 40
0.9467193806
 40
0.9524541748
 40
0.9580083025
 40
0.9633817132
 40
0.9685747081
 40
0.973587989
 40
0.9784227379
 40
0.9830806145
 40
0.9875639933
 40
0.9918758833
 40
0.9960198327
 40
1.0
 40
1.0
 40
1.0
 40
1.0
 10
11.5555335112
 20
10.9727972789
 30
0.0
 10
11.5555335193
 20
10.9743164476
 30
0.0
 10
11.5554004862
 20
10.9773670793
 30
0.0
 10
11.5548027113
 20
10.9819333422
 30
0.0
 10
11.5538072278
 20
10.9864940421
 30
0.0
 10
11.55241491
 20
10.9910458793
 30
0.0
 10
11.5506270576
 20
10.9955866826
 30
0.0
 10
11.5476679861
 20
11.0017264308
 30
0.0
 10
11.5439409954
 20
11.007737836
 30
0.0
 10
11.5395519089
 20
11.0135914096
 30
0.0
 10
11.535810516
 20
11.018043239
 30
0.0
 10
11.5316842552
 20
11.0224706889
 30
0.0
 10
11.527174942
 20
11.0268722914
 30
0.0
 10
11.5222849808
 20
11.031245891
 30
0.0
 10
11.5170167425
 20
11.0355894041
 30
0.0
 10
11.5113729246
 20
11.0399008448
 30
0.0
 10
11.5053562783
 20
11.0441780586
 30
0.0
 10
11.4989698256
 20
11.0484190082
 30
0.0
 10
11.492216743
 20
11.0526216174
 30
0.0
 10
11.4851003739
 20
11.056783758
 30
0.0
 10
11.4776243052
 20
11.0609034408
 30
0.0
 10
11.4697922412
 20
11.0649785301
 30
0.0
 10
11.4616081319
 20
11.0690070334
 30
0.0
 10
11.453076062
 20
11.0729869473
 30
0.0
 10
11.4410651595
 20
11.078304007
 30
0.0
 10
11.4251998366
 20
11.0847993223
 30
0.0
 10
11.4051148392
 20
11.0922585883
 30
0.0
 10
11.383753778
 20
11.0994776731
 30
0.0
 10
11.3611596597
 20
11.1064419067
 30
0.0
 10
11.3373777548
 20
11.1131371412
 30
0.0
 10
11.3124559184
 20
11.1195497483
 30
0.0
 10
11.2864443423
 20
11.125666668
 30
0.0
 10
11.2593954764
 20
11.1314754382
 30
0.0
 10
11.231363906
 20
11.1369642205
 30
0.0
 10
11.2024062417
 20
11.1421218363
 30
0.0
 10
11.1725809961
 20
11.1469377872
 30
0.0
 10
11.1419484539
 20
11.1514022688
 30
0.0
 10
11.1105705449
 20
11.1555061932
 30
0.0
 10
11.0785107186
 20
11.1592412055
 30
0.0
 10
11.0458338165
 20
11.1625997026
 30
0.0
 10
11.0126059418
 20
11.1655748572
 30
0.0
 10
10.9788943139
 20
11.1681606226
 30
0.0
 10
10.9447671531
 20
11.1703517308
 30
0.0
 10
10.9102934482
 20
11.1721437619
 30
0.0
 10
10.8638465128
 20
11.1740005104
 30
0.0
 10
10.8054353305
 20
11.1752973144
 30
0.0
 10
10.7352558008
 20
11.1752232975
 30
0.0
 10
10.6768775967
 20
11.1738030747
 30
0.0
 10
10.6304828353
 20
11.1718477893
 30
0.0
 10
10.5960669613
 20
11.1699828993
 30
0.0
 10
10.5620102406
 20
11.1677196838
 30
0.0
 10
10.5283815224
 20
11.1650627058
 30
0.0
 10
10.4952488612
 20
11.1620173732
 30
0.0
 10
10.4626792802
 20
11.1585898806
 30
0.0
 10
10.4307386585
 20
11.1547872049
 30
0.0
 10
10.3994915936
 20
11.1506170838
 30
0.0
 10
10.3690012729
 20
11.1460880034
 30
0.0
 10
10.339329342
 20
11.1412091788
 30
0.0
 10
10.3105357718
 20
11.1359905415
 30
0.0
 10
10.2826787304
 20
11.1304427248
 30
0.0
 10
10.2558144648
 20
11.1245770303
 30
0.0
 10
10.2299971846
 20
11.1184054069
 30
0.0
 10
10.2052789478
 20
11.1119404254
 30
0.0
 10
10.1817095278
 20
11.1051952455
 30
0.0
 10
10.1593363297
 20
11.098183601
 30
0.0
 10
10.1382041444
 20
11.0909197432
 30
0.0
 10
10.1183555082
 20
11.0834184123
 30
0.0
 10
10.1026930691
 20
11.0768887563
 30
0.0
 10
10.0908483328
 20
11.0715454104
 30
0.0
 10
10.0824423012
 20
11.0675476089
 30
0.0
 10
10.0743857552
 20
11.0635019178
 30
0.0
 10
10.0666827015
 20
11.0594103759
 30
0.0
 10
10.0593370008
 20
11.0552750232
 30
0.0
 10
10.0523523504
 20
11.0510978915
 30
0.0
 10
10.045732215
 20
11.0468811477
 30
0.0
 10
10.0394799137
 20
11.0426267738
 30
0.0
 10
10.0335984775
 20
11.0383368704
 30
0.0
 10
10.0280908065
 20
11.0340134103
 30
0.0
 10
10.0229599244
 20
11.029658741
 30
0.0
 10
10.0197282727
 20
11.026677277
 30
0.0
 10
10.0181794815
 20
11.0251812595
 30
0.0
  0
SPLINE
  5
3A5
100
AcDbEntity
  8
0
100
AcDbSpline
 62
7
  6
CONTINUOUS
 70
0
 71
3
 72
23
 73
19
 74
0
 42
0.0000001
 43
0.0000001
 44
0.0000000001
 40
0.0
 40
0.0
 40
0.0
 40
0.0
 40
0.0433590421
 40
0.0892116809
 40
0.1376139176
 40
0.1886037603
 40
0.2422033223
 40
0.2984218543
 40
0.3572568957
 40
0.4186961429
 40
0.4827186907
 40
0.5492956059
 40
0.6183914427
 40
0.6899641705
 40
0.7639663627
 40
0.8403454001
 40
0.919043795
 40
1.0
 40
1.0
 40
1.0
 40
1.0
 10
11.520553797
 20
10.1989056996
 30
0.0
 10
11.5179893015
 20
10.2010496433
 30
0.0
 10
11.5125846431
 20
10.2053090918
 30
0.0
 10
11.5039308232
 20
10.2114522243
 30
0.0
 10
11.494515767
 20
10.2175193957
 30
0.0
 10
11.484349312
 20
10.2235042341
 30
0.0
 10
11.4734417163
 20
10.2294009072
 30
0.0
 10
11.4618041106
 20
10.2352033112
 30
0.0
 10
11.4494484338
 20
10.2409055349
 30
0.0
 10
11.4363874013
 20
10.2465016802
 30
0.0
 10
11.422634485
 20
10.2519858929
 30
0.0
 10
11.4082039327
 20
10.2573525242
 30
0.0
 10
11.3931106918
 20
10.2625958959
 30
0.0
 10
11.3773704479
 20
10.267710581
 30
0.0
 10
11.3609995663
 20
10.2726911964
 30
0.0
 10
11.3440150725
 20
10.2775325163
 30
0.0
 10
11.3264347133
 20
10.2822294975
 30
0.0
 10
11.3144948734
 20
10.2852198274
 30
0.0
 10
11.3084298731
 20
10.2866917381
 30
0.0
  0
SPLINE
  5
3A6
100
AcDbEntity
  8
0
100
AcDbSpline
 62
7
  6
CONTINUOUS
 70
0
 71
3
 72
23
 73
19
 74
0
 42
0.0000001
 43
0.0000001
 44
0.0000000001
 40
0.0
 40
0.0
 40
0.0
 40
0.0
 40
0.0416102648
 40
0.0857552539
 40
0.1325600211
 40
0.1821186878
 40
0.2345000124
 40
0.2897505797
 40
0.3478989246
 40
0.408957824
 40
0.472926483
 40
0.5397928128
 40
0.6095340713
 40
0.6821189669
 40
0.7575078957
 40
0.8356541395
 40
0.916504624
 40
1.0
 40
1.0
 40
1.0
 40
1.0
 10
11.4897682542
 20
10.1817605087
 30
0.0
 10
11.4879077711
 20
10.1838504466
 30
0.0
 10
11.483907531
 20
10.1880118707
 30
0.0
 10
11.4773154907
 20
10.1940201084
 30
0.0
 10
11.4699672862
 20
10.1999674389
 30
0.0
 10
11.4618710968
 20
10.2058477927
 30
0.0
 10
11.453035128
 20
10.211655448
 30
0.0
 10
11.4434686578
 20
10.2173845734
 30
0.0
 10
11.4331816513
 20
10.2230292243
 30
0.0
 10
11.4221849282
 20
10.228583488
 30
0.0
 10
11.4104901147
 20
10.2340415328
 30
0.0
 10
11.3981095924
 20
10.2393974696
 30
0.0
 10
11.3850565582
 20
10.2446456424
 30
0.0
 10
11.3713449226
 20
10.2497803464
 30
0.0
 10
11.356989359
 20
10.2547960817
 30
0.0
 10
11.3420052284
 20
10.2596874458
 30
0.0
 10
11.326408652
 20
10.2644490968
 30
0.0
 10
11.3157819024
 20
10.2674856351
 30
0.0
 10
11.3103706879
 20
10.2689832689
 30
0.0
  0
SPLINE
  5
3A7
100
AcDbEntity
  8
0
100
AcDbSpline
 62
7
  6
CONTINUOUS
 70
0
 71
3
 72
20
 73
16
 74
0
 42
0.0000001
 43
0.0000001
 44
0.0000000001
 40
0.0
 40
0.0
 40
0.0
 40
0.0
 40
0.0474412424
 40
0.0968460401
 40
0.1482428143
 40
0.2016526371
 40
0.2570901889
 40
0.3145638087
 40
0.3740772101
 40
0.4356287427
 40
0.4992130092
 40
0.5648204907
 40
0.7020446328
 40
0.8471662215
 40
1.0
 40
1.0
 40
1.0
 40
1.0
 10
11.4562301402
 20
10.1731578968
 30
0.0
 10
11.4543796106
 20
10.1745873273
 30
0.0
 10
11.4505449046
 20
10.1774320985
 30
0.0
 10
11.4445263706
 20
10.1815774577
 30
0.0
 10
11.438129162
 20
10.1856845474
 30
0.0
 10
11.4313569445
 20
10.1897510293
 30
0.0
 10
11.4242134333
 20
10.1937746374
 30
0.0
 10
11.4167026481
 20
10.1977532051
 30
0.0
 10
11.4088287458
 20
10.2016844275
 30
0.0
 10
11.4005961632
 20
10.2055661745
 30
0.0
 10
11.3920094801
 20
10.2093962495
 30
0.0
 10
11.3799131664
 20
10.2145078835
 30
0.0
 10
11.3639300074
 20
10.2207370164
 30
0.0
 10
11.3436961228
 20
10.2278647711
 30
0.0
 10
11.3297040721
 20
10.2323328884
 30
0.0
 10
11.3224987372
 20
10.2345303766
 30
0.0
  0
SPLINE
  5
3A8
100
AcDbEntity
  8
0
100
AcDbSpline
 62
7
  6
CONTINUOUS
 70
0
 71
3
 72
17
 73
13
 74
0
 42
0.0000001
 43
0.0000001
 44
0.0000000001
 40
0.0
 40
0.0
 40
0.0
 40
0.0
 40
0.1235133683
 40
0.1854032223
 40
0.2473862686
 40
0.3716388969
 40
0.4963258447
 40
0.5588505994
 40
0.6214960358
 40
0.7471463158
 40
0.8733099953
 40
1.0
 40
1.0
 40
1.0
 40
1.0
 10
10.3049237115
 20
7.2621168129
 30
0.0
 10
10.3005195174
 20
7.253990211
 30
0.0
 10
10.2942954394
 20
7.2415758727
 30
0.0
 10
10.2867927281
 20
7.2246483907
 30
0.0
 10
10.2798075221
 20
7.2074404346
 30
0.0
 10
10.2720796165
 20
7.1854756663
 30
0.0
 10
10.2657303906
 20
7.163031532
 30
0.0
 10
10.2614829588
 20
7.1448192268
 30
0.0
 10
10.2577869681
 20
7.126413581
 30
0.0
 10
10.2542242267
 20
7.1031353025
 30
0.0
 10
10.2516572809
 20
7.0749096421
 30
0.0
 10
10.2510889364
 20
7.0559818036
 30
0.0
 10
10.2510889364
 20
7.046500776
 30
0.0
  0
SPLINE
  5
3A9
100
AcDbEntity
  8
0
100
AcDbSpline
 62
7
  6
CONTINUOUS
 70
0
 71
3
 72
81
 73
77
 74
0
 42
0.0000001
 43
0.0000001
 44
0.0000000001
 40
0.0
 40
0.0
 40
0.0
 40
0.0
 40
0.0040523
 40
0.0082800607
 40
0.0126871453
 40
0.0172767676
 40
0.0220516095
 40
0.0270137572
 40
0.0321645622
 40
0.0375048519
 40
0.043035017
 40
0.0487549916
 40
0.0607619183
 40
0.0735190437
 40
0.087014504
 40
0.1012325497
 40
0.1161540562
 40
0.1317569258
 40
0.1480164485
 40
0.1649055806
 40
0.1823951717
 40
0.200454143
 40
0.2190496755
 40
0.2381473809
 40
0.2577114442
 40
0.2777047486
 40
0.2980889978
 40
0.3188248566
 40
0.3398720686
 40
0.3827347929
 40
0.4263417459
 40
0.4703491099
 40
0.514409022
 40
0.5581731
 40
0.6012959281
 40
0.6225110233
 40
0.6434394292
 40
0.6640403808
 40
0.6842739777
 40
0.7041012903
 40
0.7234844759
 40
0.7423869065
 40
0.7607733182
 40
0.7786099377
 40
0.7958646234
 40
0.8125070285
 40
0.8285088054
 40
0.8438438177
 40
0.8584883682
 40
0.8724214924
 40
0.8856253318
 40
0.8980856159
 40
0.9097922254
 40
0.9153614065
 40
0.9207407001
 40
0.9259303755
 40
0.9309312202
 40
0.9357444643
 40
0.9403719534
 40
0.9448161817
 40
0.949080328
 40
0.9531684682
 40
0.9570855643
 40
0.9608376623
 40
0.9644320366
 40
0.967877261
 40
0.9711834636
 40
0.9774234772
 40
0.9803900893
 40
0.9832752684
 40
0.9860977592
 40
0.9888777013
 40
0.991636254
 40
0.9943951185
 40
0.9971759862
 40
1.0
 40
1.0
 40
1.0
 40
1.0
 10
12.933294492
 20
8.735885107
 30
0.0
 10
12.9344585027
 20
8.7370094551
 30
0.0
 10
12.9367851898
 20
8.7393608878
 30
0.0
 10
12.9402005005
 20
8.7431052947
 30
0.0
 10
12.9436120426
 20
8.7471385328
 30
0.0
 10
12.9470178417
 20
8.7514583098
 30
0.0
 10
12.9504162662
 20
8.7560623759
 30
0.0
 10
12.9538055568
 20
8.7609484265
 30
0.0
 10
12.9571840414
 20
8.7661139172
 30
0.0
 10
12.9605499311
 20
8.7715561619
 30
0.0
 10
12.9639014601
 20
8.7772723362
 30
0.0
 10
12.9684219874
 20
8.7853868671
 30
0.0
 10
12.9740121782
 20
8.7962056867
 30
0.0
 10
12.9805314784
 20
8.8100278152
 30
0.0
 10
12.986952305
 20
8.8248631337
 30
0.0
 10
12.9932611016
 20
8.8406805836
 30
0.0
 10
12.9994445303
 20
8.857447248
 30
0.0
 10
13.0054895073
 20
8.8751280189
 30
0.0
 10
13.0113832228
 20
8.8936858271
 30
0.0
 10
13.0171131815
 20
8.913081707
 30
0.0
 10
13.0226672262
 20
8.9332748916
 30
0.0
 10
13.0280335871
 20
8.9542228925
 30
0.0
 10
13.0332008968
 20
8.9758816021
 30
0.0
 10
13.0381582066
 20
8.9982054017
 30
0.0
 10
13.04289501
 20
9.0211472597
 30
0.0
 10
13.0474012736
 20
9.0446588281
 30
0.0
 10
13.0516674562
 20
9.0686905295
 30
0.0
 10
13.0556845693
 20
9.09319173
 30
0.0
 10
13.0607275766
 20
9.1266190015
 30
0.0
 10
13.0663378941
 20
9.1691943406
 30
0.0
 10
13.0719178063
 20
9.2210076495
 30
0.0
 10
13.0763377708
 20
9.273412653
 30
0.0
 10
13.0795605295
 20
9.3259677339
 30
0.0
 10
13.0815588965
 20
9.3782300114
 30
0.0
 10
13.0821937146
 20
9.4214023229
 30
0.0
 10
13.0820666431
 20
9.455455424
 30
0.0
 10
13.0816584881
 20
9.4805108999
 30
0.0
 10
13.0809379739
 20
9.505167195
 30
0.0
 10
13.0799066269
 20
9.5293723604
 30
0.0
 10
13.0785666672
 20
9.5530753515
 30
0.0
 10
13.0769209569
 20
9.5762261988
 30
0.0
 10
13.074973006
 20
9.5987761038
 30
0.0
 10
13.0727269852
 20
9.620677554
 30
0.0
 10
13.0701876965
 20
9.6418844229
 30
0.0
 10
13.0673605642
 20
9.6623520614
 30
0.0
 10
13.0642516181
 20
9.6820374001
 30
0.0
 10
13.0608674992
 20
9.7008990584
 30
0.0
 10
13.0572154432
 20
9.7188974392
 30
0.0
 10
13.053303245
 20
9.735994825
 30
0.0
 10
13.04913924
 20
9.7521554306
 30
0.0
 10
13.0447322719
 20
9.7673456429
 30
0.0
 10
13.0400916812
 20
9.7815336823
 30
0.0
 10
13.0359723172
 20
9.7926758749
 30
0.0
 10
13.0325559649
 20
9.8010545287
 30
0.0
 10
13.0299841135
 20
9.8069649014
 30
0.0
 10
13.0273612942
 20
9.8126035074
 30
0.0
 10
13.0246889057
 20
9.8179674503
 30
0.0
 10
13.0219682749
 20
9.8230539231
 30
0.0
 10
13.0192008104
 20
9.8278602981
 30
0.0
 10
13.0163879508
 20
9.8323841123
 30
0.0
 10
13.01353103
 20
9.8366229912
 30
0.0
 10
13.0106315336
 20
9.8405747946
 30
0.0
 10
13.0076908336
 20
9.8442374502
 30
0.0
 10
13.0047102772
 20
9.8476090589
 30
0.0
 10
13.0016914467
 20
9.8506878066
 30
0.0
 10
12.9986351615
 20
9.8534722349
 30
0.0
 10
12.9945918039
 20
9.8567266041
 30
0.0
 10
12.9903943859
 20
9.8594761802
 30
0.0
 10
12.9860690067
 20
9.8616333721
 30
0.0
 10
12.9828491249
 20
9.8629226893
 30
0.0
 10
12.9796015762
 20
9.8639089203
 30
0.0
 10
12.9763282429
 20
9.8645912062
 30
0.0
 10
12.9730314263
 20
9.864968683
 30
0.0
 10
12.9697134271
 20
9.8650411311
 30
0.0
 10
12.9663769502
 20
9.8648085414
 30
0.0
 10
12.9641634121
 20
9.8644538405
 30
0.0
 10
12.96305838
 20
9.864228273
 30
0.0
  0
SPLINE
  5
3AA
100
AcDbEntity
  8
0
100
AcDbSpline
 62
7
  6
CONTINUOUS
 70
0
 71
3
 72
71
 73
67
 74
0
 42
0.0000001
 43
0.0000001
 44
0.0000000001
 40
0.0
 40
0.0
 40
0.0
 40
0.0
 40
0.0077182325
 40
0.0113232019
 40
0.0147722188
 40
0.0212544076
 40
0.0243260006
 40
0.0273091778
 40
0.030226123
 40
0.0331007798
 40
0.0359582479
 40
0.0388241206
 40
0.0417237398
 40
0.0446814999
 40
0.047720284
 40
0.0508609779
 40
0.0575164285
 40
0.0610661945
 40
0.0647794657
 40
0.0686665157
 40
0.0727358581
 40
0.0769945889
 40
0.0814484305
 40
0.09095717
 40
0.1012890762
 40
0.1124566923
 40
0.1244627144
 40
0.1373021088
 40
0.1509635526
 40
0.1654303786
 40
0.1806814581
 40
0.1966918541
 40
0.2134332024
 40
0.2308741033
 40
0.2489805255
 40
0.2677160248
 40
0.2870419216
 40
0.3069176064
 40
0.3273007196
 40
0.3694107142
 40
0.4130051275
 40
0.4576982081
 40
0.5030914414
 40
0.5487782381
 40
0.5943486715
 40
0.6393941383
 40
0.683512056
 40
0.7263105395
 40
0.747097243
 40
0.7674144905
 40
0.7872185127
 40
0.8064671728
 40
0.8251200903
 40
0.8431388875
 40
0.8604874439
 40
0.877132046
 40
0.8930416766
 40
0.908188441
 40
0.9225478693
 40
0.9360993721
 40
0.9488269776
 40
0.9607201709
 40
0.9717747984
 40
0.9819946616
 40
0.99139442
 40
1.0
 40
1.0
 40
1.0
 40
1.0
 10
12.7060702827
 20
7.1977779596
 30
0.0
 10
12.7071993665
 20
7.1988287183
 30
0.0
 10
12.7089297794
 20
7.2002957134
 30
0.0
 10
12.7113450629
 20
7.2019960658
 30
0.0
 10
12.7136533199
 20
7.2034086756
 30
0.0
 10
12.7160081865
 20
7.2045351923
 30
0.0
 10
12.718388024
 20
7.2053265164
 30
0.0
 10
12.7201346225
 20
7.2057420762
 30
0.0
 10
12.7218732073
 20
7.2059893934
 30
0.0
 10
12.7236025193
 20
7.2060681592
 30
0.0
 10
12.7253211125
 20
7.2059781804
 30
0.0
 10
12.7270275155
 20
7.205719422
 30
0.0
 10
12.7287203169
 20
7.2052922927
 30
0.0
 10
12.7303981918
 20
7.2046973333
 30
0.0
 10
12.7320600249
 20
7.203935124
 30
0.0
 10
12.7342957066
 20
7.2026730087
 30
0.0
 10
12.7364545012
 20
7.2010880715
 30
0.0
 10
12.7385271023
 20
7.1992317153
 30
0.0
 10
12.7400949107
 20
7.1976464242
 30
0.0
 10
12.7416412565
 20
7.1958994581
 30
0.0
 10
12.7431656289
 20
7.1939917135
 30
0.0
 10
12.7446671329
 20
7.1919243276
 30
0.0
 10
12.7466816133
 20
7.1888899879
 30
0.0
 10
12.7491271461
 20
7.1846907509
 30
0.0
 10
12.7518958963
 20
7.1791433665
 30
0.0
 10
12.7545537687
 20
7.1729947021
 30
0.0
 10
12.7570946682
 20
7.1662590434
 30
0.0
 10
12.7595126834
 20
7.158951782
 30
0.0
 10
12.7618020269
 20
7.1510899587
 30
0.0
 10
12.7639572208
 20
7.1426920354
 30
0.0
 10
12.7659730664
 20
7.1337778524
 30
0.0
 10
12.7678446614
 20
7.1243685358
 30
0.0
 10
12.7695674665
 20
7.1144864552
 30
0.0
 10
12.7711373179
 20
7.1041551531
 30
0.0
 10
12.7725503939
 20
7.093399266
 30
0.0
 10
12.773803252
 20
7.0822444662
 30
0.0
 10
12.7748928615
 20
7.0707174117
 30
0.0
 10
12.7758166097
 20
7.0588456303
 30
0.0
 10
12.7768349991
 20
7.0424163989
 30
0.0
 10
12.7776661424
 20
7.0212294054
 30
0.0
 10
12.7779683552
 20
6.995170131
 30
0.0
 10
12.7775822579
 20
6.9684558543
 30
0.0
 10
12.7765112594
 20
6.9413419717
 30
0.0
 10
12.774765433
 20
6.9140875148
 30
0.0
 10
12.772361419
 20
6.8869529736
 30
0.0
 10
12.7693223052
 20
6.8601975826
 30
0.0
 10
12.7656773599
 20
6.8340771236
 30
0.0
 10
12.7621309248
 20
6.8128452956
 30
0.0
 10
12.7590077109
 20
6.7963715383
 30
0.0
 10
12.7565600307
 20
6.7844481091
 30
0.0
 10
12.7539903201
 20
6.7728649975
 30
0.0
 10
12.7513047373
 20
6.761649869
 30
0.0
 10
12.7485097393
 20
6.7508295319
 30
0.0
 10
12.7456120436
 20
6.7404298267
 30
0.0
 10
12.7426186435
 20
6.7304755617
 30
0.0
 10
12.7395367418
 20
6.7209904661
 30
0.0
 10
12.7363737368
 20
6.711997124
 30
0.0
 10
12.7331372568
 20
6.7035168866
 30
0.0
 10
12.7298350821
 20
6.6955698325
 30
0.0
 10
12.7264750989
 20
6.6881747162
 30
0.0
 10
12.7230653301
 20
6.6813488648
 30
0.0
 10
12.7196138168
 20
6.6751081193
 30
0.0
 10
12.7161286175
 20
6.6694668834
 30
0.0
 10
12.7126174019
 20
6.6644376312
 30
0.0
 10
12.7090881993
 20
6.6600321824
 30
0.0
 10
12.7066221913
 20
6.6574046573
 30
0.0
 10
12.7053852895
 20
6.6562099019
 30
0.0
  0
SPLINE
  5
3AB
100
AcDbEntity
  8
0
100
AcDbSpline
 62
4
  6
CONTINUOUS
 70
0
 71
3
 72
313
 73
309
 74
0
 42
0.0000001
 43
0.0000001
 44
0.0000000001
 40
0.0
 40
0.0
 40
0.0
 40
0.0
 40
0.015625
 40
0.0234375
 40
0.03125
 40
0.0390625
 40
0.046875
 40
0.05078125
 40
0.0546875
 40
0.056640625
 40
0.05859375
 40
0.060546875
 40
0.0615234375
 40
0.0620117188
 40
0.0625
 40
0.0629882812
 40
0.0634765625
 40
0.064453125
 40
0.06640625
 40
0.068359375
 40
0.0703125
 40
0.07421875
 40
0.078125
 40
0.0859375
 40
0.09375
 40
0.1015625
 40
0.109375
 40
0.11328125
 40
0.1171875
 40
0.119140625
 40
0.12109375
 40
0.123046875
 40
0.1240234375
 40
0.1245117188
 40
0.125
 40
0.1254882812
 40
0.1259765625
 40
0.126953125
 40
0.12890625
 40
0.130859375
 40
0.1328125
 40
0.13671875
 40
0.140625
 40
0.1484375
 40
0.15625
 40
0.1640625
 40
0.171875
 40
0.17578125
 40
0.1796875
 40
0.181640625
 40
0.18359375
 40
0.185546875
 40
0.1865234375
 40
0.1870117188
 40
0.1875
 40
0.1879882812
 40
0.1884765625
 40
0.189453125
 40
0.19140625
 40
0.193359375
 40
0.1953125
 40
0.19921875
 40
0.203125
 40
0.2109375
 40
0.21875
 40
0.2265625
 40
0.234375
 40
0.23828125
 40
0.2421875
 40
0.244140625
 40
0.24609375
 40
0.248046875
 40
0.2490234375
 40
0.2495117188
 40
0.25
 40
0.2504882812
 40
0.2509765625
 40
0.251953125
 40
0.25390625
 40
0.255859375
 40
0.2578125
 40
0.26171875
 40
0.265625
 40
0.2734375
 40
0.28125
 40
0.2890625
 40
0.296875
 40
0.30078125
 40
0.3046875
 40
0.306640625
 40
0.30859375
 40
0.310546875
 40
0.3115234375
 40
0.3120117188
 40
0.3125
 40
0.3129882812
 40
0.3134765625
 40
0.314453125
 40
0.31640625
 40
0.318359375
 40
0.3203125
 40
0.32421875
 40
0.328125
 40
0.3359375
 40
0.34375
 40
0.3515625
 40
0.359375
 40
0.36328125
 40
0.3671875
 40
0.369140625
 40
0.37109375
 40
0.373046875
 40
0.3740234375
 40
0.3745117188
 40
0.375
 40
0.3754882812
 40
0.3759765625
 40
0.376953125
 40
0.37890625
 40
0.380859375
 40
0.3828125
 40
0.38671875
 40
0.390625
 40
0.3984375
 40
0.40625
 40
0.4140625
 40
0.421875
 40
0.42578125
 40
0.4296875
 40
0.431640625
 40
0.43359375
 40
0.435546875
 40
0.4365234375
 40
0.4370117188
 40
0.4375
 40
0.4379882812
 40
0.4384765625
 40
0.439453125
 40
0.44140625
 40
0.443359375
 40
0.4453125
 40
0.44921875
 40
0.453125
 40
0.4609375
 40
0.46875
 40
0.4765625
 40
0.484375
 40
0.48828125
 40
0.4921875
 40
0.494140625
 40
0.49609375
 40
0.498046875
 40
0.4990234375
 40
0.4995117188
 40
0.5
 40
0.5004882812
 40
0.5009765625
 40
0.501953125
 40
0.50390625
 40
0.505859375
 40
0.5078125
 40
0.51171875
 40
0.515625
 40
0.5234375
 40
0.53125
 40
0.5390625
 40
0.546875
 40
0.55078125
 40
0.5546875
 40
0.556640625
 40
0.55859375
 40
0.560546875
 40
0.5615234375
 40
0.5620117188
 40
0.5625
 40
0.5629882812
 40
0.5634765625
 40
0.564453125
 40
0.56640625
 40
0.568359375
 40
0.5703125
 40
0.57421875
 40
0.578125
 40
0.5859375
 40
0.59375
 40
0.6015625
 40
0.609375
 40
0.61328125
 40
0.6171875
 40
0.619140625
 40
0.62109375
 40
0.623046875
 40
0.6240234375
 40
0.6245117188
 40
0.625
 40
0.6254882812
 40
0.6259765625
 40
0.626953125
 40
0.62890625
 40
0.630859375
 40
0.6328125
 40
0.63671875
 40
0.640625
 40
0.6484375
 40
0.65625
 40
0.6640625
 40
0.671875
 40
0.67578125
 40
0.6796875
 40
0.681640625
 40
0.68359375
 40
0.685546875
 40
0.6865234375
 40
0.6870117188
 40
0.6875
 40
0.6879882812
 40
0.6884765625
 40
0.689453125
 40
0.69140625
 40
0.693359375
 40
0.6953125
 40
0.69921875
 40
0.703125
 40
0.7109375
 40
0.71875
 40
0.7265625
 40
0.734375
 40
0.73828125
 40
0.7421875
 40
0.744140625
 40
0.74609375
 40
0.748046875
 40
0.7490234375
 40
0.7495117188
 40
0.75
 40
0.7504882812
 40
0.7509765625
 40
0.751953125
 40
0.75390625
 40
0.755859375
 40
0.7578125
 40
0.76171875
 40
0.765625
 40
0.7734375
 40
0.78125
 40
0.7890625
 40
0.796875
 40
0.80078125
 40
0.8046875
 40
0.806640625
 40
0.80859375
 40
0.810546875
 40
0.8115234375
 40
0.8120117188
 40
0.8125
 40
0.8129882812
 40
0.8134765625
 40
0.814453125
 40
0.81640625
 40
0.818359375
 40
0.8203125
 40
0.82421875
 40
0.828125
 40
0.8359375
 40
0.84375
 40
0.8515625
 40
0.859375
 40
0.86328125
 40
0.8671875
 40
0.869140625
 40
0.87109375
 40
0.873046875
 40
0.8740234375
 40
0.8745117188
 40
0.875
 40
0.8754882812
 40
0.8759765625
 40
0.876953125
 40
0.87890625
 40
0.880859375
 40
0.8828125
 40
0.88671875
 40
0.890625
 40
0.8984375
 40
0.90625
 40
0.9140625
 40
0.921875
 40
0.92578125
 40
0.9296875
 40
0.931640625
 40
0.93359375
 40
0.935546875
 40
0.9365234375
 40
0.9370117188
 40
0.9375
 40
0.9379882812
 40
0.9384765625
 40
0.939453125
 40
0.94140625
 40
0.943359375
 40
0.9453125
 40
0.94921875
 40
0.953125
 40
0.9609375
 40
0.96875
 40
0.9765625
 40
0.984375
 40
1.0
 40
1.0
 40
1.0
 40
1.0
 10
10.0569685874
 20
8.5471751208
 30
0.0
 10
10.0601017743
 20
8.5472650452
 30
0.0
 10
10.0648015547
 20
8.5473999316
 30
0.0
 10
10.0710679284
 20
8.5475797811
 30
0.0
 10
10.0757677092
 20
8.5477146657
 30
0.0
 10
10.0804674881
 20
8.5478495598
 30
0.0
 10
10.0843839763
 20
8.5479619421
 30
0.0
 10
10.087517154
 20
8.5480519139
 30
0.0
 10
10.0894754194
 20
8.5481079961
 30
0.0
 10
10.0910419645
 20
8.5481532058
 30
0.0
 10
10.0922170573
 20
8.5481861713
 30
0.0
 10
10.0931957161
 20
8.5482166384
 30
0.0
 10
10.0938819256
 20
8.5482320861
 30
0.0
 10
10.0942722523
 20
8.5482500934
 30
0.0
 10
10.0945700484
 20
8.5482377385
 30
0.0
 10
10.0948485365
 20
8.5483242353
 30
0.0
 10
10.0952265888
 20
8.5484050839
 30
0.0
 10
10.0958850425
 20
8.548562634
 30
0.0
 10
10.096827331
 20
8.5487793065
 30
0.0
 10
10.0979573752
 20
8.5490429086
 30
0.0
 10
10.0994643459
 20
8.5493931224
 30
0.0
 10
10.1013479753
 20
8.5498313196
 30
0.0
 10
10.1043618294
 20
8.5505321947
 30
0.0
 10
10.1081291307
 20
8.5514083715
 30
0.0
 10
10.1126499001
 20
8.552459746
 30
0.0
 10
10.1171706641
 20
8.5535111389
 30
0.0
 10
10.1209379791
 20
8.5543872694
 30
0.0
 10
10.1239518057
 20
8.5550882373
 30
0.0
 10
10.1258355049
 20
8.5555261986
 30
0.0
 10
10.1273423325
 20
8.5558768966
 30
0.0
 10
10.128472814
 20
8.5561390194
 30
0.0
 10
10.129413734
 20
8.5563603201
 30
0.0
 10
10.1300746309
 20
8.5565096082
 30
0.0
 10
10.1304487684
 20
8.5566036946
 30
0.0
 10
10.1307392815
 20
8.5566495289
 30
0.0
 10
10.1309919138
 20
8.5567898957
 30
0.0
 10
10.1313419702
 20
8.5569440775
 30
0.0
 10
10.1319484126
 20
8.5572292587
 30
0.0
 10
10.1328179773
 20
8.5576286284
 30
0.0
 10
10.1338600774
 20
8.55811131
 30
0.0
 10
10.1352500254
 20
8.5587536847
 30
0.0
 10
10.1369872956
 20
8.5595570643
 30
0.0
 10
10.1397670201
 20
8.5608422417
 30
0.0
 10
10.1432416438
 20
8.5624487928
 30
0.0
 10
10.1474112071
 20
8.5643766179
 30
0.0
 10
10.151580762
 20
8.566304461
 30
0.0
 10
10.1550554065
 20
8.5679109672
 30
0.0
 10
10.1578350894
 20
8.5691962344
 30
0.0
 10
10.1595724651
 20
8.5699993856
 30
0.0
 10
10.1609621967
 20
8.5706422289
 30
0.0
 10
10.1620049579
 20
8.5711234791
 30
0.0
 10
10.162872454
 20
8.5715273273
 30
0.0
 10
10.1634825893
 20
8.5718045137
 30
0.0
 10
10.1638267287
 20
8.5719715051
 30
0.0
 10
10.1640975362
 20
8.5720725249
 30
0.0
 10
10.1643197863
 20
8.5722661399
 30
0.0
 10
10.164633057
 20
8.5724919951
 30
0.0
 10
10.1651733894
 20
8.57290229
 30
0.0
 10
10.1659494186
 20
8.5734805581
 30
0.0
 10
10.1668788876
 20
8.5741778473
 30
0.0
 10
10.1681187964
 20
8.57510639
 30
0.0
 10
10.1696684713
 20
8.5762674712
 30
0.0
 10
10.1721480692
 20
8.578124976
 30
0.0
 10
10.1752475256
 20
8.5804469345
 30
0.0
 10
10.1789668926
 20
8.5832332499
 30
0.0
 10
10.1826862476
 20
8.5860195808
 30
0.0
 10
10.1857857343
 20
8.5883415003
 30
0.0
 10
10.1882652715
 20
8.5901990833
 30
0.0
 10
10.1898151006
 20
8.5913599654
 30
0.0
 10
10.1910546929
 20
8.5922889168
 30
0.0
 10
10.191985129
 20
8.5929849575
 30
0.0
 10
10.1927581324
 20
8.5935671321
 30
0.0
 10
10.1933038662
 20
8.5939704531
 30
0.0
 10
10.1936084826
 20
8.5942074821
 30
0.0
 10
10.1938573162
 20
8.5943667748
 30
0.0
 10
10.1940282801
 20
8.5945967038
 30
0.0
 10
10.1942833939
 20
8.5948786371
 30
0.0
 10
10.1947171878
 20
8.5953835
 30
0.0
 10
10.1953435096
 20
8.5960987311
 30
0.0
 10
10.1960922638
 20
8.5969595772
 30
0.0
 10
10.1970915919
 20
8.5981064748
 30
0.0
 10
10.1983404133
 20
8.5995404041
 30
0.0
 10
10.200338717
 20
8.6018345191
 30
0.0
 10
10.2028365311
 20
8.6047022222
 30
0.0
 10
10.2058339381
 20
8.608143439
 30
0.0
 10
10.2088313296
 20
8.6115846684
 30
0.0
 10
10.2113291823
 20
8.6144523399
 30
0.0
 10
10.2133274089
 20
8.6167465181
 30
0.0
 10
10.2145764261
 20
8.6181802868
 30
0.0
 10
10.2155753524
 20
8.619327514
 30
0.0
 10
10.2163253341
 20
8.6201873531
 30
0.0
 10
10.2169478154
 20
8.6209057352
 30
0.0
 10
10.2173884653
 20
8.6214049729
 30
0.0
 10
10.2176325939
 20
8.6216959191
 30
0.0
 10
10.2178373006
 20
8.6218981634
 30
0.0
 10
10.2179594024
 20
8.6221614354
 30
0.0
 10
10.2181510182
 20
8.6224911777
 30
0.0
 10
10.2184729212
 20
8.6230781447
 30
0.0
 10
10.2189398013
 20
8.6239114837
 30
0.0
 10
10.2194970532
 20
8.6249137099
 30
0.0
 10
10.220241105
 20
8.6262492364
 30
0.0
 10
10.2211708105
 20
8.6279189099
 30
0.0
 10
10.2226585402
 20
8.6305902391
 30
0.0
 10
10.2245181329
 20
8.6339294518
 30
0.0
 10
10.226749676
 20
8.6379364841
 30
0.0
 10
10.2289812024
 20
8.6419435265
 30
0.0
 10
10.230840837
 20
8.6452827138
 30
0.0
 10
10.2323284829
 20
8.6479540938
 30
0.0
 10
10.2332584012
 20
8.6496236385
 30
0.0
 10
10.2340020164
 20
8.6509594293
 30
0.0
 10
10.2345606021
 20
8.6519608479
 30
0.0
 10
10.2350233089
 20
8.652796714
 30
0.0
 10
10.235352662
 20
8.6533791696
 30
0.0
 10
10.235532341
 20
8.6537161401
 30
0.0
 10
10.2356911088
 20
8.6539572092
 30
0.0
 10
10.235758104
 20
8.6542428441
 30
0.0
 10
10.2358794422
 20
8.6546081455
 30
0.0
 10
10.2360768694
 20
8.6552546657
 30
0.0
 10
10.2363667058
 20
8.6561744794
 30
0.0
 10
10.2367111718
 20
8.6572798766
 30
0.0
 10
10.2371716257
 20
8.6587531735
 30
0.0
 10
10.2377467938
 20
8.6605949884
 30
0.0
 10
10.238667286
 20
8.6635417839
 30
0.0
 10
10.2398178241
 20
8.6672253157
 30
0.0
 10
10.2411985052
 20
8.6716455369
 30
0.0
 10
10.2425791682
 20
8.6760657658
 30
0.0
 10
10.2437297517
 20
8.6797492784
 30
0.0
 10
10.2446501531
 20
8.6826961123
 30
0.0
 10
10.245225552
 20
8.6845378295
 30
0.0
 10
10.2456855321
 20
8.6860113269
 30
0.0
 10
10.2460314454
 20
8.6871161116
 30
0.0
 10
10.2463167537
 20
8.6880378418
 30
0.0
 10
10.2465222643
 20
8.6886809407
 30
0.0
 10
10.2466306509
 20
8.6890517239
 30
0.0
 10
10.2467374291
 20
8.6893205203
 30
0.0
 10
10.2467467784
 20
8.6896248317
 30
0.0
 10
10.2467932284
 20
8.6900181921
 30
0.0
 10
10.246858682
 20
8.6907123447
 30
0.0
 10
10.2469604652
 20
8.6917009737
 30
0.0
 10
10.2470790618
 20
8.6928886201
 30
0.0
 10
10.2472384282
 20
8.6944716975
 30
0.0
 10
10.2474372124
 20
8.6964506988
 30
0.0
 10
10.2477555041
 20
8.6996170144
 30
0.0
 10
10.2481532869
 20
8.7035749386
 30
0.0
 10
10.2486306637
 20
8.7083244349
 30
0.0
 10
10.2491080215
 20
8.7130739345
 30
0.0
 10
10.2495058519
 20
8.7170318506
 30
0.0
 10
10.2498240483
 20
8.7201981824
 30
0.0
 10
10.2500230748
 20
8.7221771426
 30
0.0
 10
10.2501819439
 20
8.7237603042
 30
0.0
 10
10.2503020598
 20
8.7249476936
 30
0.0
 10
10.2503990896
 20
8.7259371267
 30
0.0
 10
10.2504730289
 20
8.7266298438
 30
0.0
 10
10.2505058826
 20
8.7270255043
 30
0.0
 10
10.2505569953
 20
8.7273227507
 30
0.0
 10
10.250506917
 20
8.7276180816
 30
0.0
 10
10.2504754424
 20
8.7280125242
 30
0.0
 10
10.2504039166
 20
8.7287024875
 30
0.0
 10
10.2503103347
 20
8.7296883122
 30
0.0
 10
10.2501943563
 20
8.7308712321
 30
0.0
 10
10.2500410039
 20
8.7324484829
 30
0.0
 10
10.2498488731
 20
8.7344200382
 30
0.0
 10
10.24954171
 20
8.7375745312
 30
0.0
 10
10.2491576712
 20
8.7415176458
 30
0.0
 10
10.2486968633
 20
8.7462493844
 30
0.0
 10
10.2482360364
 20
8.7509811216
 30
0.0
 10
10.2478520452
 20
8.7549242397
 30
0.0
 10
10.2475447868
 20
8.7580787258
 30
0.0
 10
10.2473528984
 20
8.7600502987
 30
0.0
 10
10.2471990485
 20
8.7616275133
 30
0.0
 10
10.24708459
 20
8.7628105439
 30
0.0
 10
10.2469862526
 20
8.7637960224
 30
0.0
 10
10.2469232161
 20
8.7644866035
 30
0.0
 10
10.2468781396
 20
8.7648800563
 30
0.0
 10
10.2468698423
 20
8.7651784278
 30
0.0
 10
10.2467640322
 20
8.7654642539
 30
0.0
 10
10.2466569657
 20
8.7658497313
 30
0.0
 10
10.2464537516
 20
8.7665222778
 30
0.0
 10
10.2461717312
 20
8.7674841246
 30
0.0
 10
10.2458297603
 20
8.7686378845
 30
0.0
 10
10.2453750377
 20
8.7701763904
 30
0.0
 10
10.2448062104
 20
8.7720994681
 30
0.0
 10
10.2438963238
 20
8.775176423
 30
0.0
 10
10.2427588837
 20
8.7790226061
 30
0.0
 10
10.2413939928
 20
8.783638031
 30
0.0
 10
10.2400290838
 20
8.7882534517
 30
0.0
 10
10.2388916892
 20
8.7920996453
 30
0.0
 10
10.2379817116
 20
8.7951765791
 30
0.0
 10
10.2374131154
 20
8.7970997106
 30
0.0
 10
10.2369579186
 20
8.7986381061
 30
0.0
 10
10.2366173966
 20
8.799792203
 30
0.0
 10
10.2363308429
 20
8.8007529955
 30
0.0
 10
10.2361357214
 20
8.8014274241
 30
0.0
 10
10.2360156885
 20
8.801809886
 30
0.0
 10
10.235949707
 20
8.8021049748
 30
0.0
 10
10.2357918201
 20
8.8023685567
 30
0.0
 10
10.2356133619
 20
8.8027309892
 30
0.0
 10
10.2352861237
 20
8.8033601256
 30
0.0
 10
10.2348264495
 20
8.8042615689
 30
0.0
 10
10.234271498
 20
8.805342155
 30
0.0
 10
10.2335327301
 20
8.8067833367
 30
0.0
 10
10.2326088704
 20
8.8085846768
 30
0.0
 10
10.2311309185
 20
8.8114668976
 30
0.0
 10
10.2292834014
 20
8.815069647
 30
0.0
 10
10.2270664161
 20
8.8193929587
 30
0.0
 10
10.2248494134
 20
8.8237162634
 30
0.0
 10
10.2230019398
 20
8.8273190305
 30
0.0
 10
10.2215239009
 20
8.8302012159
 30
0.0
 10
10.2206002622
 20
8.8320026461
 30
0.0
 10
10.2198610408
 20
8.8334436428
 30
0.0
 10
10.2193074748
 20
8.834524794
 30
0.0
 10
10.2188434656
 20
8.8354244693
 30
0.0
 10
10.2185239661
 20
8.8360567619
 30
0.0
 10
10.2183331086
 20
8.8364141373
 30
0.0
 10
10.2182133082
 20
8.836693253
 30
0.0
 10
10.2180042801
 20
8.8369299992
 30
0.0
 10
10.2177566995
 20
8.8372604397
 30
0.0
 10
10.2173089325
 20
8.8378318249
 30
0.0
 10
10.2166768466
 20
8.8386516893
 30
0.0
 10
10.2159150985
 20
8.8396339858
 30
0.0
 10
10.2149005677
 20
8.8409442526
 30
0.0
 10
10.2136320162
 20
8.8425819018
 30
0.0
 10
10.2116025508
 20
8.8452022435
 30
0.0
 10
10.2090656442
 20
8.848477635
 30
0.0
 10
10.2060213899
 20
8.8524081218
 30
0.0
 10
10.2029771208
 20
8.8563385976
 30
0.0
 10
10.2004402512
 20
8.8596140168
 30
0.0
 10
10.1984107116
 20
8.862234303
 30
0.0
 10
10.1971423486
 20
8.8638720934
 30
0.0
 10
10.1961274311
 20
8.8651820705
 30
0.0
 10
10.1953668645
 20
8.866165252
 30
0.0
 10
10.1947310819
 20
8.8669823471
 30
0.0
 10
10.1942899141
 20
8.867558676
 30
0.0
 10
10.1940317599
 20
8.8678811954
 30
0.0
 10
10.1938552106
 20
8.8681422728
 30
0.0
 10
10.1936134252
 20
8.8683300046
 30
0.0
 10
10.1933137997
 20
8.8686058975
 30
0.0
 10
10.1927788531
 20
8.86907679
 30
0.0
 10
10.1920201864
 20
8.8697557256
 30
0.0
 10
10.191107414
 20
8.8705677807
 30
0.0
 10
10.1898912128
 20
8.8716514527
 30
0.0
 10
10.1883706775
 20
8.8730057236
 30
0.0
 10
10.1859379796
 20
8.8751727354
 30
0.0
 10
10.1828970525
 20
8.8778814385
 30
0.0
 10
10.1792479648
 20
8.8811319106
 30
0.0
 10
10.1755988656
 20
8.8843823681
 30
0.0
 10
10.1725579674
 20
8.8870911077
 30
0.0
 10
10.1701252117
 20
8.8892580465
 30
0.0
 10
10.1686048234
 20
8.890612503
 30
0.0
 10
10.1673883204
 20
8.8916957941
 30
0.0
 10
10.16647647
 20
8.8925090128
 30
0.0
 10
10.1657149187
 20
8.8931843078
 30
0.0
 10
10.1651851217
 20
8.8936616993
 30
0.0
 10
10.1648772451
 20
8.8939271793
 30
0.0
 10
10.1646608044
 20
8.8941468961
 30
0.0
 10
10.1643890646
 20
8.8942878431
 30
0.0
 10
10.1640460337
 20
8.8945032483
 30
0.0
 10
10.1634367427
 20
8.8948674058
 30
0.0
 10
10.1625710255
 20
8.8953943235
 30
0.0
 10
10.1615301537
 20
8.8960237601
 30
0.0
 10
10.160143027
 20
8.8968640095
 30
0.0
 10
10.1584088782
 20
8.8979139786
 30
0.0
 10
10.1556343746
 20
8.8995941208
 30
0.0
 10
10.1521661987
 20
8.9016942323
 30
0.0
 10
10.1480044084
 20
8.9042143966
 30
0.0
 10
10.1438426091
 20
8.9067345447
 30
0.0
 10
10.1403744557
 20
8.9088346965
 30
0.0
 10
10.1375999071
 20
8.9105147581
 30
0.0
 10
10.1358658724
 20
8.911564932
 30
0.0
 10
10.1344785117
 20
8.912404761
 30
0.0
 10
10.133438355
 20
8.9130354819
 30
0.0
 10
10.1325704001
 20
8.9135583816
 30
0.0
 10
10.1319651037
 20
8.913929712
 30
0.0
 10
10.1316156724
 20
8.9141336243
 30
0.0
 10
10.1313635927
 20
8.9143098738
 30
0.0
 10
10.1310733118
 20
8.9143970001
 30
0.0
 10
10.1306995955
 20
8.9145442556
 30
0.0
 10
10.1300393837
 20
8.9147874686
 30
0.0
 10
10.1290994698
 20
8.9151424882
 30
0.0
 10
10.1279701838
 20
8.9155652705
 30
0.0
 10
10.1264649543
 20
8.9161301124
 30
0.0
 10
10.1245832514
 20
8.9168357771
 30
0.0
 10
10.1215726195
 20
8.9179650573
 30
0.0
 10
10.1178092977
 20
8.9193765827
 30
0.0
 10
10.1132933259
 20
8.9210704475
 30
0.0
 10
10.1087773476
 20
8.9227642946
 30
0.0
 10
10.1050140419
 20
8.9241758643
 30
0.0
 10
10.1020033779
 20
8.9253050559
 30
0.0
 10
10.1001217566
 20
8.9260109457
 30
0.0
 10
10.0986163595
 20
8.9265753255
 30
0.0
 10
10.0974875857
 20
8.9269995195
 30
0.0
 10
10.0965460692
 20
8.9273501222
 30
0.0
 10
10.0958887181
 20
8.9276012202
 30
0.0
 10
10.0955104183
 20
8.927735842
 30
0.0
 10
10.0952342168
 20
8.9278617749
 30
0.0
 10
10.0949292569
 20
8.9278922732
 30
0.0
 10
10.0945326749
 20
8.9279662262
 30
0.0
 10
10.0938339828
 20
8.9280801343
 30
0.0
 10
10.0928382947
 20
8.9282509687
 30
0.0
 10
10.0916424231
 20
8.9284524993
 30
0.0
 10
10.0900482928
 20
8.928722419
 30
0.0
 10
10.088055505
 20
8.9290594036
 30
0.0
 10
10.0848671143
 20
8.9295988108
 30
0.0
 10
10.080881602
 20
8.9302729903
 30
0.0
 10
10.0760989975
 20
8.9310820398
 30
0.0
 10
10.0713163903
 20
8.9318910802
 30
0.0
 10
10.0649395816
 20
8.9329698039
 30
0.0
 10
10.0601569749
 20
8.9337788459
 30
0.0
 10
10.0569685705
 20
8.9343182075
 30
0.0
  0
SPLINE
  5
3AC
100
AcDbEntity
  8
0
100
AcDbSpline
 62
4
  6
CONTINUOUS
 70
0
 71
3
 72
313
 73
309
 74
0
 42
0.0000001
 43
0.0000001
 44
0.0000000001
 40
0.0
 40
0.0
 40
0.0
 40
0.0
 40
0.015625
 40
0.0234375
 40
0.03125
 40
0.0390625
 40
0.046875
 40
0.05078125
 40
0.0546875
 40
0.056640625
 40
0.05859375
 40
0.060546875
 40
0.0615234375
 40
0.0620117188
 40
0.0625
 40
0.0629882812
 40
0.0634765625
 40
0.064453125
 40
0.06640625
 40
0.068359375
 40
0.0703125
 40
0.07421875
 40
0.078125
 40
0.0859375
 40
0.09375
 40
0.1015625
 40
0.109375
 40
0.11328125
 40
0.1171875
 40
0.119140625
 40
0.12109375
 40
0.123046875
 40
0.1240234375
 40
0.1245117188
 40
0.125
 40
0.1254882812
 40
0.1259765625
 40
0.126953125
 40
0.12890625
 40
0.130859375
 40
0.1328125
 40
0.13671875
 40
0.140625
 40
0.1484375
 40
0.15625
 40
0.1640625
 40
0.171875
 40
0.17578125
 40
0.1796875
 40
0.181640625
 40
0.18359375
 40
0.185546875
 40
0.1865234375
 40
0.1870117188
 40
0.1875
 40
0.1879882812
 40
0.1884765625
 40
0.189453125
 40
0.19140625
 40
0.193359375
 40
0.1953125
 40
0.19921875
 40
0.203125
 40
0.2109375
 40
0.21875
 40
0.2265625
 40
0.234375
 40
0.23828125
 40
0.2421875
 40
0.244140625
 40
0.24609375
 40
0.248046875
 40
0.2490234375
 40
0.2495117188
 40
0.25
 40
0.2504882812
 40
0.2509765625
 40
0.251953125
 40
0.25390625
 40
0.255859375
 40
0.2578125
 40
0.26171875
 40
0.265625
 40
0.2734375
 40
0.28125
 40
0.2890625
 40
0.296875
 40
0.30078125
 40
0.3046875
 40
0.306640625
 40
0.30859375
 40
0.310546875
 40
0.3115234375
 40
0.3120117188
 40
0.3125
 40
0.3129882812
 40
0.3134765625
 40
0.314453125
 40
0.31640625
 40
0.318359375
 40
0.3203125
 40
0.32421875
 40
0.328125
 40
0.3359375
 40
0.34375
 40
0.3515625
 40
0.359375
 40
0.36328125
 40
0.3671875
 40
0.369140625
 40
0.37109375
 40
0.373046875
 40
0.3740234375
 40
0.3745117188
 40
0.375
 40
0.3754882812
 40
0.3759765625
 40
0.376953125
 40
0.37890625
 40
0.380859375
 40
0.3828125
 40
0.38671875
 40
0.390625
 40
0.3984375
 40
0.40625
 40
0.4140625
 40
0.421875
 40
0.42578125
 40
0.4296875
 40
0.431640625
 40
0.43359375
 40
0.435546875
 40
0.4365234375
 40
0.4370117188
 40
0.4375
 40
0.4379882812
 40
0.4384765625
 40
0.439453125
 40
0.44140625
 40
0.443359375
 40
0.4453125
 40
0.44921875
 40
0.453125
 40
0.4609375
 40
0.46875
 40
0.4765625
 40
0.484375
 40
0.48828125
 40
0.4921875
 40
0.494140625
 40
0.49609375
 40
0.498046875
 40
0.4990234375
 40
0.4995117188
 40
0.5
 40
0.5004882812
 40
0.5009765625
 40
0.501953125
 40
0.50390625
 40
0.505859375
 40
0.5078125
 40
0.51171875
 40
0.515625
 40
0.5234375
 40
0.53125
 40
0.5390625
 40
0.546875
 40
0.55078125
 40
0.5546875
 40
0.556640625
 40
0.55859375
 40
0.560546875
 40
0.5615234375
 40
0.5620117188
 40
0.5625
 40
0.5629882812
 40
0.5634765625
 40
0.564453125
 40
0.56640625
 40
0.568359375
 40
0.5703125
 40
0.57421875
 40
0.578125
 40
0.5859375
 40
0.59375
 40
0.6015625
 40
0.609375
 40
0.61328125
 40
0.6171875
 40
0.619140625
 40
0.62109375
 40
0.623046875
 40
0.6240234375
 40
0.6245117188
 40
0.625
 40
0.6254882812
 40
0.6259765625
 40
0.626953125
 40
0.62890625
 40
0.630859375
 40
0.6328125
 40
0.63671875
 40
0.640625
 40
0.6484375
 40
0.65625
 40
0.6640625
 40
0.671875
 40
0.67578125
 40
0.6796875
 40
0.681640625
 40
0.68359375
 40
0.685546875
 40
0.6865234375
 40
0.6870117188
 40
0.6875
 40
0.6879882812
 40
0.6884765625
 40
0.689453125
 40
0.69140625
 40
0.693359375
 40
0.6953125
 40
0.69921875
 40
0.703125
 40
0.7109375
 40
0.71875
 40
0.7265625
 40
0.734375
 40
0.73828125
 40
0.7421875
 40
0.744140625
 40
0.74609375
 40
0.748046875
 40
0.7490234375
 40
0.7495117188
 40
0.75
 40
0.7504882812
 40
0.7509765625
 40
0.751953125
 40
0.75390625
 40
0.755859375
 40
0.7578125
 40
0.76171875
 40
0.765625
 40
0.7734375
 40
0.78125
 40
0.7890625
 40
0.796875
 40
0.80078125
 40
0.8046875
 40
0.806640625
 40
0.80859375
 40
0.810546875
 40
0.8115234375
 40
0.8120117188
 40
0.8125
 40
0.8129882812
 40
0.8134765625
 40
0.814453125
 40
0.81640625
 40
0.818359375
 40
0.8203125
 40
0.82421875
 40
0.828125
 40
0.8359375
 40
0.84375
 40
0.8515625
 40
0.859375
 40
0.86328125
 40
0.8671875
 40
0.869140625
 40
0.87109375
 40
0.873046875
 40
0.8740234375
 40
0.8745117188
 40
0.875
 40
0.8754882812
 40
0.8759765625
 40
0.876953125
 40
0.87890625
 40
0.880859375
 40
0.8828125
 40
0.88671875
 40
0.890625
 40
0.8984375
 40
0.90625
 40
0.9140625
 40
0.921875
 40
0.92578125
 40
0.9296875
 40
0.931640625
 40
0.93359375
 40
0.935546875
 40
0.9365234375
 40
0.9370117188
 40
0.9375
 40
0.9379882812
 40
0.9384765625
 40
0.939453125
 40
0.94140625
 40
0.943359375
 40
0.9453125
 40
0.94921875
 40
0.953125
 40
0.9609375
 40
0.96875
 40
0.9765625
 40
0.984375
 40
1.0
 40
1.0
 40
1.0
 40
1.0
 10
10.0569685874
 20
8.9343182063
 30
0.0
 10
10.0538354005
 20
8.9342282819
 30
0.0
 10
10.0491356201
 20
8.9340933955
 30
0.0
 10
10.0428692463
 20
8.933913546
 30
0.0
 10
10.0381694656
 20
8.9337786614
 30
0.0
 10
10.0334696867
 20
8.9336437673
 30
0.0
 10
10.0295531985
 20
8.933531385
 30
0.0
 10
10.0264200208
 20
8.9334414132
 30
0.0
 10
10.0244617554
 20
8.933385331
 30
0.0
 10
10.0228952103
 20
8.9333401213
 30
0.0
 10
10.0217201175
 20
8.9333071558
 30
0.0
 10
10.0207414587
 20
8.9332766887
 30
0.0
 10
10.0200552492
 20
8.933261241
 30
0.0
 10
10.0196649225
 20
8.9332432337
 30
0.0
 10
10.0193671264
 20
8.9332555886
 30
0.0
 10
10.0190886383
 20
8.9331690918
 30
0.0
 10
10.018710586
 20
8.9330882432
 30
0.0
 10
10.0180521323
 20
8.9329306931
 30
0.0
 10
10.0171098437
 20
8.9327140206
 30
0.0
 10
10.0159797996
 20
8.9324504185
 30
0.0
 10
10.0144728289
 20
8.9321002047
 30
0.0
 10
10.0125891994
 20
8.9316620076
 30
0.0
 10
10.0095753454
 20
8.9309611325
 30
0.0
 10
10.0058080441
 20
8.9300849556
 30
0.0
 10
10.0012872747
 20
8.9290335812
 30
0.0
 10
9.9967665107
 20
8.9279821882
 30
0.0
 10
9.9929991957
 20
8.9271060577
 30
0.0
 10
9.9899853691
 20
8.9264050898
 30
0.0
 10
9.9881016699
 20
8.9259671285
 30
0.0
 10
9.9865948423
 20
8.9256164305
 30
0.0
 10
9.9854643607
 20
8.9253543077
 30
0.0
 10
9.9845234408
 20
8.925133007
 30
0.0
 10
9.9838625439
 20
8.9249837189
 30
0.0
 10
9.9834884064
 20
8.9248896325
 30
0.0
 10
9.9831978933
 20
8.9248437982
 30
0.0
 10
9.9829452609
 20
8.9247034314
 30
0.0
 10
9.9825952046
 20
8.9245492497
 30
0.0
 10
9.9819887622
 20
8.9242640684
 30
0.0
 10
9.9811191974
 20
8.9238646987
 30
0.0
 10
9.9800770973
 20
8.9233820171
 30
0.0
 10
9.9786871494
 20
8.9227396424
 30
0.0
 10
9.9769498792
 20
8.9219362628
 30
0.0
 10
9.9741701547
 20
8.9206510855
 30
0.0
 10
9.970695531
 20
8.9190445343
 30
0.0
 10
9.9665259677
 20
8.9171167092
 30
0.0
 10
9.9623564128
 20
8.9151888662
 30
0.0
 10
9.9588817683
 20
8.9135823599
 30
0.0
 10
9.9561020853
 20
8.9122970927
 30
0.0
 10
9.9543647097
 20
8.9114939415
 30
0.0
 10
9.9529749781
 20
8.9108510983
 30
0.0
 10
9.9519322169
 20
8.910369848
 30
0.0
 10
9.9510647207
 20
8.9099659999
 30
0.0
 10
9.9504545855
 20
8.9096888134
 30
0.0
 10
9.9501104461
 20
8.909521822
 30
0.0
 10
9.9498396385
 20
8.9094208022
 30
0.0
 10
9.9496173885
 20
8.9092271872
 30
0.0
 10
9.9493041178
 20
8.909001332
 30
0.0
 10
9.9487637854
 20
8.9085910371
 30
0.0
 10
9.9479877562
 20
8.9080127691
 30
0.0
 10
9.9470582872
 20
8.9073154798
 30
0.0
 10
9.9458183784
 20
8.9063869371
 30
0.0
 10
9.9442687035
 20
8.9052258559
 30
0.0
 10
9.9417891056
 20
8.9033683512
 30
0.0
 10
9.9386896492
 20
8.9010463926
 30
0.0
 10
9.9349702822
 20
8.8982600773
 30
0.0
 10
9.9312509272
 20
8.8954737463
 30
0.0
 10
9.9281514405
 20
8.8931518269
 30
0.0
 10
9.9256719033
 20
8.8912942438
 30
0.0
 10
9.9241220742
 20
8.8901333617
 30
0.0
 10
9.9228824819
 20
8.8892044103
 30
0.0
 10
9.9219520458
 20
8.8885083696
 30
0.0
 10
9.9211790424
 20
8.887926195
 30
0.0
 10
9.9206333086
 20
8.887522874
 30
0.0
 10
9.9203286922
 20
8.887285845
 30
0.0
 10
9.9200798586
 20
8.8871265523
 30
0.0
 10
9.9199088946
 20
8.8868966233
 30
0.0
 10
9.9196537809
 20
8.88661469
 30
0.0
 10
9.919219987
 20
8.8861098271
 30
0.0
 10
9.9185936652
 20
8.8853945961
 30
0.0
 10
9.917844911
 20
8.8845337499
 30
0.0
 10
9.9168455829
 20
8.8833868523
 30
0.0
 10
9.9155967615
 20
8.881952923
 30
0.0
 10
9.9135984578
 20
8.879658808
 30
0.0
 10
9.9111006437
 20
8.8767911049
 30
0.0
 10
9.9081032367
 20
8.8733498881
 30
0.0
 10
9.9051058452
 20
8.8699086587
 30
0.0
 10
9.9026079925
 20
8.8670409872
 30
0.0
 10
9.9006097659
 20
8.864746809
 30
0.0
 10
9.8993607487
 20
8.8633130403
 30
0.0
 10
9.8983618224
 20
8.8621658131
 30
0.0
 10
9.8976118407
 20
8.861305974
 30
0.0
 10
9.8969893594
 20
8.860587592
 30
0.0
 10
9.8965487095
 20
8.8600883542
 30
0.0
 10
9.8963045808
 20
8.859797408
 30
0.0
 10
9.8960998742
 20
8.8595951637
 30
0.0
 10
9.8959777724
 20
8.8593318917
 30
0.0
 10
9.8957861566
 20
8.8590021494
 30
0.0
 10
9.8954642535
 20
8.8584151825
 30
0.0
 10
9.8949973735
 20
8.8575818435
 30
0.0
 10
9.8944401216
 20
8.8565796172
 30
0.0
 10
9.8936960697
 20
8.8552440907
 30
0.0
 10
9.8927663642
 20
8.8535744172
 30
0.0
 10
9.8912786346
 20
8.850903088
 30
0.0
 10
9.8894190419
 20
8.8475638753
 30
0.0
 10
9.8871874988
 20
8.843556843
 30
0.0
 10
9.8849559723
 20
8.8395498006
 30
0.0
 10
9.8830963378
 20
8.8362106133
 30
0.0
 10
9.8816086919
 20
8.8335392334
 30
0.0
 10
9.8806787736
 20
8.8318696887
 30
0.0
 10
9.8799351584
 20
8.8305338978
 30
0.0
 10
9.8793765727
 20
8.8295324793
 30
0.0
 10
9.8789138659
 20
8.8286966132
 30
0.0
 10
9.8785845128
 20
8.8281141575
 30
0.0
 10
9.8784048338
 20
8.827777187
 30
0.0
 10
9.878246066
 20
8.8275361179
 30
0.0
 10
9.8781790708
 20
8.827250483
 30
0.0
 10
9.8780577326
 20
8.8268851816
 30
0.0
 10
9.8778603054
 20
8.8262386614
 30
0.0
 10
9.877570469
 20
8.8253188477
 30
0.0
 10
9.877226003
 20
8.8242134505
 30
0.0
 10
9.8767655491
 20
8.8227401536
 30
0.0
 10
9.876190381
 20
8.8208983387
 30
0.0
 10
9.8752698888
 20
8.8179515432
 30
0.0
 10
9.8741193507
 20
8.8142680114
 30
0.0
 10
9.8727386696
 20
8.8098477902
 30
0.0
 10
9.8713580066
 20
8.8054275613
 30
0.0
 10
9.8702074231
 20
8.8017440488
 30
0.0
 10
9.8692870217
 20
8.7987972148
 30
0.0
 10
9.8687116228
 20
8.7969554976
 30
0.0
 10
9.8682516427
 20
8.7954820002
 30
0.0
 10
9.8679057294
 20
8.7943772156
 30
0.0
 10
9.867620421
 20
8.7934554853
 30
0.0
 10
9.8674149105
 20
8.7928123864
 30
0.0
 10
9.8673065239
 20
8.7924416032
 30
0.0
 10
9.8671997457
 20
8.7921728068
 30
0.0
 10
9.8671903964
 20
8.7918684954
 30
0.0
 10
9.8671439464
 20
8.791475135
 30
0.0
 10
9.8670784928
 20
8.7907809824
 30
0.0
 10
9.8669767096
 20
8.7897923534
 30
0.0
 10
9.866858113
 20
8.788604707
 30
0.0
 10
9.8666987466
 20
8.7870216296
 30
0.0
 10
9.8664999624
 20
8.7850426283
 30
0.0
 10
9.8661816707
 20
8.7818763127
 30
0.0
 10
9.8657838879
 20
8.7779183885
 30
0.0
 10
9.8653065111
 20
8.7731688922
 30
0.0
 10
9.8648291533
 20
8.7684193926
 30
0.0
 10
9.8644313229
 20
8.7644614765
 30
0.0
 10
9.8641131265
 20
8.7612951447
 30
0.0
 10
9.8639141
 20
8.7593161845
 30
0.0
 10
9.8637552309
 20
8.7577330229
 30
0.0
 10
9.863635115
 20
8.7565456335
 30
0.0
 10
9.8635380852
 20
8.7555562004
 30
0.0
 10
9.8634641459
 20
8.7548634833
 30
0.0
 10
9.8634312922
 20
8.7544678229
 30
0.0
 10
9.8633801795
 20
8.7541705764
 30
0.0
 10
9.8634302578
 20
8.7538752455
 30
0.0
 10
9.8634617324
 20
8.7534808029
 30
0.0
 10
9.8635332582
 20
8.7527908396
 30
0.0
 10
9.8636268401
 20
8.7518050149
 30
0.0
 10
9.8637428185
 20
8.750622095
 30
0.0
 10
9.8638961709
 20
8.7490448442
 30
0.0
 10
9.8640883017
 20
8.747073289
 30
0.0
 10
9.8643954648
 20
8.7439187959
 30
0.0
 10
9.8647795036
 20
8.7399756813
 30
0.0
 10
9.8652403115
 20
8.7352439427
 30
0.0
 10
9.8657011384
 20
8.7305122055
 30
0.0
 10
9.8660851296
 20
8.7265690874
 30
0.0
 10
9.866392388
 20
8.7234146013
 30
0.0
 10
9.8665842764
 20
8.7214430284
 30
0.0
 10
9.8667381263
 20
8.7198658138
 30
0.0
 10
9.8668525848
 20
8.7186827833
 30
0.0
 10
9.8669509222
 20
8.7176973047
 30
0.0
 10
9.8670139586
 20
8.7170067236
 30
0.0
 10
9.8670590352
 20
8.7166132708
 30
0.0
 10
9.8670673325
 20
8.7163148993
 30
0.0
 10
9.8671731426
 20
8.7160290733
 30
0.0
 10
9.8672802091
 20
8.7156435959
 30
0.0
 10
9.8674834231
 20
8.7149710493
 30
0.0
 10
9.8677654436
 20
8.7140092025
 30
0.0
 10
9.8681074145
 20
8.7128554426
 30
0.0
 10
9.8685621371
 20
8.7113169368
 30
0.0
 10
9.8691309644
 20
8.709393859
 30
0.0
 10
9.870040851
 20
8.7063169041
 30
0.0
 10
9.8711782911
 20
8.7024707211
 30
0.0
 10
9.872543182
 20
8.6978552961
 30
0.0
 10
9.873908091
 20
8.6932398754
 30
0.0
 10
9.8750454856
 20
8.6893936818
 30
0.0
 10
9.8759554631
 20
8.686316748
 30
0.0
 10
9.8765240594
 20
8.6843936165
 30
0.0
 10
9.8769792562
 20
8.682855221
 30
0.0
 10
9.8773197782
 20
8.6817011241
 30
0.0
 10
9.8776063319
 20
8.6807403317
 30
0.0
 10
9.8778014533
 20
8.680065903
 30
0.0
 10
9.8779214863
 20
8.6796834412
 30
0.0
 10
9.8779874678
 20
8.6793883523
 30
0.0
 10
9.8781453547
 20
8.6791247704
 30
0.0
 10
9.8783238129
 20
8.6787623379
 30
0.0
 10
9.8786510511
 20
8.6781332015
 30
0.0
 10
9.8791107253
 20
8.6772317582
 30
0.0
 10
9.8796656768
 20
8.6761511721
 30
0.0
 10
9.8804044447
 20
8.6747099904
 30
0.0
 10
9.8813283044
 20
8.6729086503
 30
0.0
 10
9.8828062563
 20
8.6700264295
 30
0.0
 10
9.8846537734
 20
8.6664236801
 30
0.0
 10
9.8868707587
 20
8.6621003684
 30
0.0
 10
9.8890877614
 20
8.6577770638
 30
0.0
 10
9.890935235
 20
8.6541742966
 30
0.0
 10
9.8924132739
 20
8.6512921113
 30
0.0
 10
9.8933369126
 20
8.649490681
 30
0.0
 10
9.894076134
 20
8.6480496843
 30
0.0
 10
9.8946297
 20
8.6469685331
 30
0.0
 10
9.8950937092
 20
8.6460688578
 30
0.0
 10
9.8954132087
 20
8.6454365652
 30
0.0
 10
9.8956040662
 20
8.6450791898
 30
0.0
 10
9.8957238666
 20
8.6448000741
 30
0.0
 10
9.8959328947
 20
8.6445633279
 30
0.0
 10
9.8961804753
 20
8.6442328874
 30
0.0
 10
9.8966282423
 20
8.6436615022
 30
0.0
 10
9.8972603282
 20
8.6428416378
 30
0.0
 10
9.8980220763
 20
8.6418593414
 30
0.0
 10
9.899036607
 20
8.6405490746
 30
0.0
 10
9.9003051585
 20
8.6389114254
 30
0.0
 10
9.902334624
 20
8.6362910836
 30
0.0
 10
9.9048715306
 20
8.6330156921
 30
0.0
 10
9.9079157849
 20
8.6290852053
 30
0.0
 10
9.910960054
 20
8.6251547296
 30
0.0
 10
9.9134969236
 20
8.6218793103
 30
0.0
 10
9.9155264631
 20
8.6192590241
 30
0.0
 10
9.9167948262
 20
8.6176212337
 30
0.0
 10
9.9178097437
 20
8.6163112566
 30
0.0
 10
9.9185703103
 20
8.6153280751
 30
0.0
 10
9.9192060929
 20
8.61451098
 30
0.0
 10
9.9196472607
 20
8.6139346511
 30
0.0
 10
9.9199054149
 20
8.6136121317
 30
0.0
 10
9.9200819642
 20
8.6133510543
 30
0.0
 10
9.9203237496
 20
8.6131633225
 30
0.0
 10
9.9206233751
 20
8.6128874296
 30
0.0
 10
9.9211583217
 20
8.6124165371
 30
0.0
 10
9.9219169883
 20
8.6117376016
 30
0.0
 10
9.9228297608
 20
8.6109255464
 30
0.0
 10
9.924045962
 20
8.6098418744
 30
0.0
 10
9.9255664973
 20
8.6084876035
 30
0.0
 10
9.9279991952
 20
8.6063205917
 30
0.0
 10
9.9310401223
 20
8.6036118886
 30
0.0
 10
9.93468921
 20
8.6003614165
 30
0.0
 10
9.9383383092
 20
8.597110959
 30
0.0
 10
9.9413792074
 20
8.5944022194
 30
0.0
 10
9.9438119631
 20
8.5922352806
 30
0.0
 10
9.9453323513
 20
8.5908808241
 30
0.0
 10
9.9465488544
 20
8.5897975331
 30
0.0
 10
9.9474607048
 20
8.5889843143
 30
0.0
 10
9.9482222561
 20
8.5883090193
 30
0.0
 10
9.9487520531
 20
8.5878316278
 30
0.0
 10
9.9490599296
 20
8.5875661478
 30
0.0
 10
9.9492763704
 20
8.587346431
 30
0.0
 10
9.9495481102
 20
8.587205484
 30
0.0
 10
9.949891141
 20
8.5869900789
 30
0.0
 10
9.9505004321
 20
8.5866259214
 30
0.0
 10
9.9513661493
 20
8.5860990036
 30
0.0
 10
9.9524070211
 20
8.585469567
 30
0.0
 10
9.9537941478
 20
8.5846293176
 30
0.0
 10
9.9555282966
 20
8.5835793485
 30
0.0
 10
9.9583028002
 20
8.5818992063
 30
0.0
 10
9.9617709761
 20
8.5797990948
 30
0.0
 10
9.9659327664
 20
8.5772789305
 30
0.0
 10
9.9700945657
 20
8.5747587824
 30
0.0
 10
9.9735627191
 20
8.5726586306
 30
0.0
 10
9.9763372677
 20
8.570978569
 30
0.0
 10
9.9780713024
 20
8.5699283951
 30
0.0
 10
9.9794586631
 20
8.5690885661
 30
0.0
 10
9.9804988197
 20
8.5684578452
 30
0.0
 10
9.9813667747
 20
8.5679349455
 30
0.0
 10
9.9819720711
 20
8.5675636151
 30
0.0
 10
9.9823215023
 20
8.5673597028
 30
0.0
 10
9.982573582
 20
8.5671834533
 30
0.0
 10
9.982863863
 20
8.5670963271
 30
0.0
 10
9.9832375793
 20
8.5669490715
 30
0.0
 10
9.9838977911
 20
8.5667058585
 30
0.0
 10
9.984837705
 20
8.5663508389
 30
0.0
 10
9.985966991
 20
8.5659280566
 30
0.0
 10
9.9874722205
 20
8.5653632147
 30
0.0
 10
9.9893539234
 20
8.56465755
 30
0.0
 10
9.9923645553
 20
8.5635282698
 30
0.0
 10
9.9961278771
 20
8.5621167445
 30
0.0
 10
10.0006438489
 20
8.5604228796
 30
0.0
 10
10.0051598272
 20
8.5587290325
 30
0.0
 10
10.0089231329
 20
8.5573174629
 30
0.0
 10
10.0119337969
 20
8.5561882712
 30
0.0
 10
10.0138154182
 20
8.5554823814
 30
0.0
 10
10.0153208153
 20
8.5549180016
 30
0.0
 10
10.0164495891
 20
8.5544938076
 30
0.0
 10
10.0173911056
 20
8.5541432049
 30
0.0
 10
10.0180484566
 20
8.5538921069
 30
0.0
 10
10.0184267565
 20
8.5537574851
 30
0.0
 10
10.018702958
 20
8.5536315522
 30
0.0
 10
10.0190079179
 20
8.5536010539
 30
0.0
 10
10.0194044998
 20
8.5535271009
 30
0.0
 10
10.020103192
 20
8.5534131929
 30
0.0
 10
10.0210988801
 20
8.5532423584
 30
0.0
 10
10.0222947517
 20
8.5530408278
 30
0.0
 10
10.023888882
 20
8.5527709081
 30
0.0
 10
10.0258816698
 20
8.5524339236
 30
0.0
 10
10.0290700605
 20
8.5518945163
 30
0.0
 10
10.0330555728
 20
8.5512203368
 30
0.0
 10
10.0378381772
 20
8.5504112873
 30
0.0
 10
10.0426207845
 20
8.5496022469
 30
0.0
 10
10.0489975932
 20
8.5485235232
 30
0.0
 10
10.0537801999
 20
8.5477144812
 30
0.0
 10
10.0569686043
 20
8.5471751197
 30
0.0
  0
ENDSEC
  0
SECTION
  2
OBJECTS
  0
DICTIONARY
  5
C
100
AcDbDictionary
280
0
281
1
  3
ACAD_GROUP
350
D
  3
ACAD_MLINESTYLE
350
17
  3
ACAD_LAYOUT
350
1A
  3
ACAD_PLOTSETTINGS
350
19
  3
ACAD_PLOTSTYLENAME
350
E
  3
ACAD_IMAGE_DICT
350
       3AE
  3
ACAD_IMAGE_VARS
350
       3AF
  3
ACAD_TABLESTYLE
350
       3B0
  0
IMAGEDEF_REACTOR
  5
3AD
100
AcDbRasterImageDefReactor
 90
2
330
287
  0
DICTIONARY
  5
D
102
{ACAD_REACTORS
330
C
102
}
100
AcDbDictionary
280
0
281
1
  0
ACDBDICTIONARYWDFLT
  5
E
102
{ACAD_REACTORS
330
C
102
}
100
AcDbDictionary
281
1
  3
Normal
350
F
100
AcDbDictionaryWithDefault
340
F
  0
DICTIONARY
  5
3AE
330
C
100
AcDbDictionary
281
1
  3
H3L_assy_2_img_1
350
       3B3
  0
RASTERVARIABLES
  5
3AF
330
C
100
AcDbRasterVariables
 90
0
 70
0
 71
1
 72
5
  0
DICTIONARY
  5
17
102
{ACAD_REACTORS
330
C
102
}
100
AcDbDictionary
280
0
281
1
  3
Standard
350
18
  0
DICTIONARY
  5
3B0
330
C
100
AcDbDictionary
281
1
  3
Standard
350
       3B4
  3
Standard1
350
       3B5
  0
DICTIONARY
  5
19
102
{ACAD_REACTORS
330
C
102
}
100
AcDbDictionary
281
1
  0
DICTIONARY
  5
1A
102
{ACAD_REACTORS
330
C
102
}
100
AcDbDictionary
281
1
  3
Model
350
3B1
  3
Layout1
350
3B2
  0
ACDBPLACEHOLDER
  5
F
102
{ACAD_REACTORS
330
E
102
}
  0
MLINESTYLE
  5
18
102
{ACAD_REACTORS
330
17
102
}
100
AcDbMlineStyle
  2
STANDARD
 70
0
  3

 62
256
 51
90.0
 52
90.0
 71
2
 49
0.5
 62
256
  6
BYLAYER
 49
-0.5
 62
256
  6
BYLAYER
  0
LAYOUT
  5
3B1
102
{ACAD_REACTORS
330
1A
102
}
100
AcDbPlotSettings
  1

  2
none_device
  4
ANSI_C_(22.00_x_17.00_Inches)
  6

 40
0.0
 41
0.0
 42
0.0
 43
0.0
 44
558.8
 45
431.8
 46
0.0
 47
0.0
 48
0.0
 49
0.0
140
0.0
141
0.0
142
1.0
143
1.0
 70
1024
 72
0
 73
0
 74
0
  7

 75
0
147
1.0
148
0.0
149
0.0
100
AcDbLayout
  1
Model
 70
0
 71
0
 10
0.0
 20
0.0
 11
22.0
 21
17.0
 12
0.0
 22
0.0
 32
0.0
 14
0.0
 24
0.0
 34
0.0
 15
0.0
 25
0.0
 35
0.0
146
0.0
 13
0.0
 23
0.0
 33
0.0
 16
1.0
 26
0.0
 36
0.0
 17
0.0
 27
1.0
 37
0.0
 76
0
330
204
345
0
346
0
  0
LAYOUT
  5
3B2
102
{ACAD_REACTORS
330
1A
102
}
100
AcDbPlotSettings
  1

  2
none_device
  4
ANSI_C_(22.00_x_17.00_Inches)
  6

 40
0.0
 41
0.0
 42
0.0
 43
0.0
 44
558.8
 45
431.8
 46
0.0
 47
0.0
 48
0.0
 49
0.0
140
0.0
141
0.0
142
1.0
143
1.0
 70
0
 72
0
 73
0
 74
0
  7

 75
0
147
1.0
148
0.0
149
0.0
100
AcDbLayout
  1
Layout1
 70
0
 71
1
 10
0.0
 20
0.0
 11
22.0
 21
17.0
 12
0.0
 22
0.0
 32
0.0
 14
0.0
 24
0.0
 34
0.0
 15
0.0
 25
0.0
 35
0.0
146
0.0
 13
0.0
 23
0.0
 33
0.0
 16
1.0
 26
0.0
 36
0.0
 17
0.0
 27
1.0
 37
0.0
 76
0
330
205
345
0
346
0
  0
IMAGEDEF
  5
3B3
102
{ACAD_REACTORS
330
3AE
330
3AD
102
}
100
AcDbRasterImageDef
 90
0
  1
H3L_assy_2_img_1.png
 10
369.0
 20
92.0
 11
0.0066666667
 21
0.0066666667
280
1
281
0
  0
TABLESTYLE
  5
3B4
102
{ACAD_REACTORS
330
3B0
330
28A
330
28B
102
}
330
3B0
100
AcDbTableStyle
  3
Standard
 70
0
 71
0
 40
0.06
 41
0.06
280
1
281
1
  7
Standard
140
0.18
170
1
 62
0
 63
7
283
0
  7
Standard
140
0.18
170
1
 62
0
 63
7
283
0
  7
Standard
140
0.18
170
1
 62
0
 63
7
283
0
  0
TABLESTYLE
  5
3B5
102
{ACAD_REACTORS
330
3B0
330
289
102
}
330
3B0
100
AcDbTableStyle
  3
Standard1
 70
1
 71
0
 40
0.06
 41
0.06
280
1
281
1
  7
Standard
140
0.18
170
1
 62
0
 63
7
283
0
  7
Standard
140
0.18
170
1
 62
0
 63
7
283
0
  7
Standard
140
0.18
170
1
 62
0
 63
7
283
0
  0
ENDSEC
  0
EOF
