999
DXF file: H3D_assy_2.dxf
999
Pro/ENGINEER 2014200 by Parametric Technology Corporation
  0
SECTION
  2
HEADER
  9
$ACADVER
  1
AC1021
  9
$DWGCODEPAGE
  3
ANSI_1252
  9
$EXTMAX
 10
22.0
 20
17.0
 30
0.0
  9
$EXTMIN
 10
0.0
 20
0.0
 30
0.0
  9
$LIMMIN
 10
0.0
 20
0.0
  9
$LIMMAX
 10
22.0
 20
17.0
  9
$VIEWCTR
 10
11.0
 20
8.5
  9
$VIEWSIZE
 40
17.0
  9
$CLAYER
  8
0
  9
$LTSCALE
 40
1.21
  9
$CELTYPE
  6
BYLAYER
  9
$DIMSCALE
 40
1.0
  9
$DIMASZ
 40
0.1875
  9
$DIMEXO
 40
0.0625
  9
$DIMDLI
 40
0.836
  9
$DIMEXE
 40
0.125
  9
$DIMCEN
 40
0.198
  9
$DIMLFAC
 40
1.0
  9
$DIMBLK
  1
_FILLED
  9
$DIMTXT
 40
0.1
  9
$DIMTOL
 70
0
  9
$DIMLIM
 70
0
  9
$DIMTFAC
 40
1.0
  9
$DIMGAP
 40
0.09
  9
$DIMDSEP
 70
46
  9
$AUNITS
 70
0
  9
$PDMODE
 70
3
  9
$PDSIZE
 40
0.3125
  9
$HANDSEED
  5
3A0
  9
$TILEMODE
 70
1
  9
$MEASUREMENT
 70
0
  9
$INSUNITS
 70
1
  0
ENDSEC
  0
SECTION
  2
CLASSES
  0
CLASS
  1
ACDBDICTIONARYWDFLT
  2
AcDbDictionaryWithDefault
  3
AutoCAD 2000
 90
0
 91
1
280
0
281
0
  0
CLASS
  1
ACDBPLACEHOLDER
  2
AcDbPlaceHolder
  3
AutoCAD 2000
 90
0
 91
1
280
0
281
0
  0
CLASS
  1
LAYOUT
  2
AcDbLayout
  3
AutoCAD 2000
 90
0
 91
0
280
0
281
0
  0
CLASS
  1
RASTERVARIABLES
  2
AcDbRasterVariables
  3
ISM
 90
0
 91
1
280
0
281
0
  0
CLASS
  1
IMAGEDEF
  2
AcDbRasterImageDef
  3
ISM
 90
0
 91
1
280
0
281
0
  0
CLASS
  1
IMAGEDEF_REACTOR
  2
AcDbRasterImageDefReactor
  3
ISM
 90
0
 91
1
280
0
281
0
  0
CLASS
  1
IMAGE
  2
AcDbRasterImage
  3
ISM
 90
127
 91
1
280
0
281
1
  0
CLASS
  1
TABLESTYLE
  2
AcDbTableStyle
  3
ObjectDBX Classes
 90
2047
 91
1
280
0
281
0
  0
CLASS
  1
ACAD_TABLE
  2
AcDbTable
  3
ObjectDBX Classes
 90
1025
 91
3
280
0
281
1
  0
ENDSEC
  0
SECTION
  2
TABLES
  0
TABLE
  2
VPORT
  5
8
100
AcDbSymbolTable
 70
2
  0
VPORT
  5
1F4
100
AcDbSymbolTableRecord
100
AcDbViewportTableRecord
  2
*ACTIVE
 70
0
 10
0.0
 20
0.0
 11
1.0
 21
1.0
 12
11.0
 22
8.5
 13
0.0
 23
0.0
 14
1.0
 24
1.0
 15
0.0
 25
0.0
 16
0.0
 26
0.0
 36
1.0
 17
0.0
 27
0.0
 37
0.0
 40
17.0
 41
1.2941176471
 42
50.0
 43
0.0
 44
0.0
 50
0.0
 51
0.0
 71
0
 72
100
 73
1
 74
1
 75
0
 76
0
 77
0
 78
0
  0
ENDTAB
  0
TABLE
  2
LTYPE
  5
5
100
AcDbSymbolTable
 70
6
  0
LTYPE
  5
14
100
AcDbSymbolTableRecord
100
AcDbLinetypeTableRecord
  2
BYBLOCK
 70
0
  3

 72
65
 73
0
 40
0.0
  0
LTYPE
  5
15
100
AcDbSymbolTableRecord
100
AcDbLinetypeTableRecord
  2
BYLAYER
 70
0
  3

 72
65
 73
0
 40
0.0
  0
LTYPE
  5
16
100
AcDbSymbolTableRecord
100
AcDbLinetypeTableRecord
  2
CONTINUOUS
 70
64
  3
Solid line
 72
65
 73
0
 40
0.0
  0
LTYPE
  5
1F5
100
AcDbSymbolTableRecord
100
AcDbLinetypeTableRecord
  2
CENTER
 70
64
  3
____ _ ____ _ ____ _ ____ _ ____ _ ____ _ ____
 72
65
 73
4
 40
0.6
 49
0.375
 74
0
 49
-0.075
 74
0
 49
0.075
 74
0
 49
-0.075
 74
0
  0
LTYPE
  5
1F6
100
AcDbSymbolTableRecord
100
AcDbLinetypeTableRecord
  2
HIDDEN
 70
64
  3
- - - - - - - - - - - - - - - - - - - -
 72
65
 73
2
 40
0.2
 49
0.1
 74
0
 49
-0.1
 74
0
  0
LTYPE
  5
1F7
100
AcDbSymbolTableRecord
100
AcDbLinetypeTableRecord
  2
PHANTOM
 70
64
  3
_____ _ _ _____ _ _ _____ _ _ _____
 72
65
 73
6
 40
0.8
 49
0.45
 74
0
 49
-0.05
 74
0
 49
0.1
 74
0
 49
-0.05
 74
0
 49
0.1
 74
0
 49
-0.05
 74
0
  0
LTYPE
  5
1F8
100
AcDbSymbolTableRecord
100
AcDbLinetypeTableRecord
  2
DOT
 70
64
  3
. . . . . . . . . . . . . . . . . . . .
 72
65
 73
2
 40
0.2
 49
0.1
 74
0
 49
-0.1
 74
0
  0
LTYPE
  5
1F9
100
AcDbSymbolTableRecord
100
AcDbLinetypeTableRecord
  2
DASHED
 70
64
  3
- - - - - - - - - - - - - - - - - - - -
 72
65
 73
2
 40
0.2
 49
0.1
 74
0
 49
-0.1
 74
0
  0
ENDTAB
  0
TABLE
  2
LAYER
  5
2
100
AcDbSymbolTable
 70
36
  0
LAYER
  5
10
100
AcDbSymbolTableRecord
100
AcDbLayerTableRecord
  2
0
 70
0
 62
7
  6
CONTINUOUS
370
-3
390
F
  0
LAYER
  5
1FA
100
AcDbSymbolTableRecord
100
AcDbLayerTableRecord
  2
DEFAULT_1
 70
0
 62
7
  6
CENTER
370
-3
390
F
  0
LAYER
  5
1FB
100
AcDbSymbolTableRecord
100
AcDbLayerTableRecord
  2
DEFAULT_2
 70
0
 62
8
  6
HIDDEN
370
-3
390
F
  0
LAYER
  5
1FC
100
AcDbSymbolTableRecord
100
AcDbLayerTableRecord
  2
DEFAULT_3
 70
0
 62
7
  6
PHANTOM
370
-3
390
F
  0
LAYER
  5
1FD
100
AcDbSymbolTableRecord
100
AcDbLayerTableRecord
  2
DATUM_PLANES
 70
0
 62
7
  6
CONTINUOUS
370
-3
390
F
  0
LAYER
  5
1FE
100
AcDbSymbolTableRecord
100
AcDbLayerTableRecord
  2
PORT_AREAS
 70
0
 62
7
  6
CONTINUOUS
370
-3
390
F
  0
LAYER
  5
1FF
100
AcDbSymbolTableRecord
100
AcDbLayerTableRecord
  2
SUNNBOMCOSMETIC
 70
0
 62
7
  6
CONTINUOUS
370
-3
390
F
  0
LAYER
  5
200
100
AcDbSymbolTableRecord
100
AcDbLayerTableRecord
  2
SUNNBOMSTAMPING
 70
0
 62
7
  6
CONTINUOUS
370
-3
390
F
  0
LAYER
  5
201
100
AcDbSymbolTableRecord
100
AcDbLayerTableRecord
  2
THREADS
 70
0
 62
7
  6
CONTINUOUS
370
-3
390
F
  0
ENDTAB
  0
TABLE
  2
STYLE
  5
3
100
AcDbSymbolTable
 70
1
  0
STYLE
  5
11
100
AcDbSymbolTableRecord
100
AcDbTextStyleTableRecord
  2
STANDARD
 70
0
 40
0.0
 41
0.8
 50
0.0
 71
0
 42
0.2
  3
txt
  4

  0
STYLE
  5
202
100
AcDbSymbolTableRecord
100
AcDbTextStyleTableRecord
  2
TEXTSTYLE_1
 70
0
 40
0.0
 41
0.8
 50
0.0
 71
0
 42
0.2
  3
gdt
  4

  0
ENDTAB
  0
TABLE
  2
VIEW
  5
6
100
AcDbSymbolTable
 70
0
  0
ENDTAB
  0
TABLE
  2
UCS
  5
7
100
AcDbSymbolTable
 70
0
  0
ENDTAB
  0
TABLE
  2
APPID
  5
9
100
AcDbSymbolTable
 70
1
  0
APPID
  5
203
100
AcDbSymbolTableRecord
100
AcDbRegAppTableRecord
  2
ACAD
 70
0
  0
ENDTAB
  0
TABLE
  2
BLOCK_RECORD
  5
1
100
AcDbSymbolTable
 70
0
  0
BLOCK_RECORD
  5
204
100
AcDbSymbolTableRecord
100
AcDbBlockTableRecord
  2
*Model_Space
  0
BLOCK_RECORD
  5
205
100
AcDbSymbolTableRecord
100
AcDbBlockTableRecord
  2
*Paper_Space
  0
BLOCK_RECORD
  5
206
100
AcDbSymbolTableRecord
100
AcDbBlockTableRecord
  2
SUN_FIRST_THIRD_ANGLE_BL0
  0
BLOCK_RECORD
  5
207
100
AcDbSymbolTableRecord
100
AcDbBlockTableRecord
  2
*T1
  0
BLOCK_RECORD
  5
208
100
AcDbSymbolTableRecord
100
AcDbBlockTableRecord
  2
*T2
  0
BLOCK_RECORD
  5
209
100
AcDbSymbolTableRecord
100
AcDbBlockTableRecord
  2
*T3
  0
ENDTAB
  0
TABLE
  2
DIMSTYLE
  5
A
100
AcDbSymbolTable
 70
1
100
AcDbDimStyleTable
 71
0
  0
DIMSTYLE
105
20A
100
AcDbSymbolTableRecord
100
AcDbDimStyleTableRecord
  2
STANDARD
 70
0
  3

  4

 40
1.0
 41
0.1875
 42
0.0625
 43
0.38
 44
0.125
 45
0.0
 46
0.0
 47
0.001
 48
0.001
140
0.1
141
0.09
142
0.0
143
25.4
144
1.0
145
0.0
146
1.0
147
0.09
 71
0.0
 72
0.0
 73
1
 74
1
 75
0
 76
0
 77
0
 78
4
170
0
171
2
172
0
173
0
174
0
175
0
176
0
177
0
178
0
270
2
271
3
272
3
273
2
274
2
275
0
280
0
281
0
282
0
283
1
284
4
285
0
286
0
287
3
288
0
340
11
278
46
  0
ENDTAB
  0
ENDSEC
  0
SECTION
  2
BLOCKS
  0
BLOCK
  5
20
100
AcDbEntity
  8
0
100
AcDbBlockBegin
  2
*Model_Space
 70
0
 10
0.0
 20
0.0
 30
0.0
  3
*Model_Space
  1

  0
ENDBLK
  5
21
100
AcDbEntity
  8
0
100
AcDbBlockEnd
  0
BLOCK
  5
1C
100
AcDbEntity
  8
0
100
AcDbBlockBegin
  2
*Paper_Space
 70
0
 10
0.0
 20
0.0
 30
0.0
  3
*Paper_Space
  1

  0
ENDBLK
  5
1D
100
AcDbEntity
  8
0
100
AcDbBlockEnd
  0
BLOCK
  5
20B
100
AcDbEntity
  8
0
100
AcDbBlockBegin
 62
2
  6
CONTINUOUS
  2
SUN_FIRST_THIRD_ANGLE_BL0
 70
64
 10
20.4816717061
 20
1.2289683772
  3
SUN_FIRST_THIRD_ANGLE_BL0
  1

  0
TEXT
  5
20C
100
AcDbEntity
  8
0
100
AcDbText
 62
2
  6
CONTINUOUS
 10
19.4750896608
 20
1.4136269581
  7
STANDARD
 40
0.08
  1
FIRST ANGLE
 41
0.8
 72
0
100
AcDbText
  0
TEXT
  5
20D
100
AcDbEntity
  8
0
100
AcDbText
 62
2
  6
CONTINUOUS
 10
20.7842537513
 20
1.4047600029
  7
STANDARD
 40
0.08
  1
THIRD ANGLE
 41
0.8
 72
0
100
AcDbText
  0
LINE
  5
20E
100
AcDbEntity
  8
0
100
AcDbLine
 62
7
  6
CONTINUOUS
 10
19.4767170086
 20
1.1727031207
 11
19.6334271527
 21
1.1717972817
  0
LINE
  5
20F
100
AcDbEntity
  8
0
100
AcDbLine
 62
7
  6
CONTINUOUS
 10
19.6596964832
 20
1.1717972817
 11
19.6950230232
 21
1.171593082
  0
LINE
  5
210
100
AcDbEntity
  8
0
100
AcDbLine
 62
7
  6
CONTINUOUS
 10
19.7194818561
 20
1.1708914427
 11
19.8852396156
 21
1.1699333054
  0
LINE
  5
211
100
AcDbEntity
  8
0
100
AcDbLine
 62
7
  6
CONTINUOUS
 10
19.4758111696
 20
1.2723454088
 11
19.88525039
 21
1.3511534004
  0
LINE
  5
212
100
AcDbEntity
  8
0
100
AcDbLine
 62
7
  6
CONTINUOUS
 10
19.88525039
 20
1.3511534004
 11
19.8831348489
 21
0.9851647912
  0
LINE
  5
213
100
AcDbEntity
  8
0
100
AcDbLine
 62
7
  6
CONTINUOUS
 10
19.8831348489
 20
0.9851647912
 11
19.4767170086
 21
1.0658141206
  0
LINE
  5
214
100
AcDbEntity
  8
0
100
AcDbLine
 62
7
  6
CONTINUOUS
 10
19.4767170086
 20
1.0658141206
 11
19.4779056764
 21
1.2714536432
  0
CIRCLE
  5
215
100
AcDbEntity
  8
0
100
AcDbCircle
 62
7
  6
CONTINUOUS
 10
20.2068232291
 20
1.1717972817
 40
0.175742101
  0
CIRCLE
  5
216
100
AcDbEntity
  8
0
100
AcDbCircle
 62
7
  6
CONTINUOUS
 10
20.2068232291
 20
1.1717972817
 40
0.1005522074
  0
LINE
  5
217
100
AcDbEntity
  8
0
100
AcDbLine
 62
7
  6
CONTINUOUS
 10
20.2077290681
 20
1.3756110529
 11
20.2071171714
 21
1.2379342989
  0
LINE
  5
218
100
AcDbEntity
  8
0
100
AcDbLine
 62
7
  6
CONTINUOUS
 10
20.2077290681
 20
1.2016899681
 11
20.2074674401
 21
1.1428236749
  0
LINE
  5
219
100
AcDbEntity
  8
0
100
AcDbLine
 62
7
  6
CONTINUOUS
 10
20.208634907
 20
1.101141841
 11
20.2080230104
 21
0.963465087
  0
LINE
  5
21A
100
AcDbEntity
  8
0
100
AcDbLine
 62
7
  6
CONTINUOUS
 10
20.0066328138
 20
1.1745147986
 11
20.1443095678
 21
1.1739029019
  0
LINE
  5
21B
100
AcDbEntity
  8
0
100
AcDbLine
 62
7
  6
CONTINUOUS
 10
20.1832714155
 20
1.1727031207
 11
20.238153505
 21
1.172335442
  0
LINE
  5
21C
100
AcDbEntity
  8
0
100
AcDbLine
 62
7
  6
CONTINUOUS
 10
20.2756669918
 20
1.1717972817
 11
20.407916871
 21
1.1712095044
  0
CIRCLE
  5
21D
100
AcDbEntity
  8
0
100
AcDbCircle
 62
7
  6
CONTINUOUS
 10
20.7509457401
 20
1.1693297793
 40
0.1722024983
  0
CIRCLE
  5
21E
100
AcDbEntity
  8
0
100
AcDbCircle
 62
7
  6
CONTINUOUS
 10
20.7509457401
 20
1.1693297793
 40
0.0985164967
  0
LINE
  5
21F
100
AcDbEntity
  8
0
100
AcDbLine
 62
7
  6
CONTINUOUS
 10
20.7169767782
 20
1.170462078
 11
20.7825395137
 21
1.1682766535
  0
LINE
  5
220
100
AcDbEntity
  8
0
100
AcDbLine
 62
7
  6
CONTINUOUS
 10
20.8177513651
 20
1.1693297793
 11
20.947965719
 21
1.1693297793
  0
LINE
  5
221
100
AcDbEntity
  8
0
100
AcDbLine
 62
7
  6
CONTINUOUS
 10
20.6875370113
 20
1.170462078
 11
20.5573226574
 21
1.170462078
  0
LINE
  5
222
100
AcDbEntity
  8
0
100
AcDbLine
 62
7
  6
CONTINUOUS
 10
20.7486811426
 20
1.1987695462
 11
20.7486811426
 21
1.1432869085
  0
LINE
  5
223
100
AcDbEntity
  8
0
100
AcDbLine
 62
7
  6
CONTINUOUS
 10
20.7498134414
 20
1.1059210505
 11
20.7498134414
 21
0.9757066966
  0
LINE
  5
224
100
AcDbEntity
  8
0
100
AcDbLine
 62
7
  6
CONTINUOUS
 10
20.7486811426
 20
1.2338708068
 11
20.7486811426
 21
1.3640851607
  0
LINE
  5
225
100
AcDbEntity
  8
0
100
AcDbLine
 62
7
  6
CONTINUOUS
 10
21.0702539817
 20
1.2701043662
 11
21.4790138229
 21
1.3448360823
  0
LINE
  5
226
100
AcDbEntity
  8
0
100
AcDbLine
 62
7
  6
CONTINUOUS
 10
21.4790138229
 20
1.3448360823
 11
21.4790138229
 21
0.9779712941
  0
LINE
  5
227
100
AcDbEntity
  8
0
100
AcDbLine
 62
7
  6
CONTINUOUS
 10
21.4790138229
 20
0.9779712941
 11
21.069121683
 21
1.0617614
  0
LINE
  5
228
100
AcDbEntity
  8
0
100
AcDbLine
 62
7
  6
CONTINUOUS
 10
21.0702539817
 20
1.2701043662
 11
21.069121683
 21
1.0617614
  0
LINE
  5
229
100
AcDbEntity
  8
0
100
AcDbLine
 62
7
  6
CONTINUOUS
 10
21.4790138229
 20
1.1693297793
 11
21.3159628059
 21
1.1693297793
  0
LINE
  5
22A
100
AcDbEntity
  8
0
100
AcDbLine
 62
7
  6
CONTINUOUS
 10
21.2876553377
 20
1.1693297793
 11
21.2502894796
 21
1.1693297793
  0
LINE
  5
22B
100
AcDbEntity
  8
0
100
AcDbLine
 62
7
  6
CONTINUOUS
 10
21.2208497126
 20
1.1659328831
 11
21.0713862804
 21
1.1659328831
  0
LINE
  5
22C
100
AcDbEntity
  8
0
100
AcDbLine
 62
7
  6
CONTINUOUS
 10
20.4796138713
 20
1.5284908897
 11
20.4766766948
 21
0.9294458646
  0
ENDBLK
  5
22D
100
AcDbEntity
  8
0
  6
BYBLOCK
 62
0
100
AcDbBlockEnd
  0
BLOCK
  5
22E
100
AcDbEntity
  8
0
100
AcDbBlockBegin
  2
*T1
 70
1
 10
0.0
 20
0.0
  3
*T1
  1

  0
LINE
  5
22F
100
AcDbEntity
  8
0
100
AcDbLine
 62
2
  6
CONTINUOUS
 10
9.275
 20
0.0
 11
-0.0
 21
0.0
  0
LINE
  5
230
100
AcDbEntity
  8
0
100
AcDbLine
 62
2
  6
CONTINUOUS
 10
9.275
 20
0.0
 11
9.275
 21
1.25
  0
LINE
  5
231
100
AcDbEntity
  8
0
100
AcDbLine
 62
2
  6
CONTINUOUS
 10
9.275
 20
0.625
 11
-0.0
 21
0.625
  0
LINE
  5
232
100
AcDbEntity
  8
0
100
AcDbLine
 62
2
  6
CONTINUOUS
 10
9.275
 20
1.25
 11
-0.0
 21
1.25
  0
LINE
  5
233
100
AcDbEntity
  8
0
100
AcDbLine
 62
2
  6
CONTINUOUS
 10
6.8
 20
0.0
 11
6.8
 21
1.25
  0
LINE
  5
234
100
AcDbEntity
  8
0
100
AcDbLine
 62
2
  6
CONTINUOUS
 10
6.4
 20
0.0
 11
6.4
 21
0.625
  0
LINE
  5
235
100
AcDbEntity
  8
0
100
AcDbLine
 62
2
  6
CONTINUOUS
 10
5.9
 20
0.0
 11
5.9
 21
0.625
  0
LINE
  5
236
100
AcDbEntity
  8
0
100
AcDbLine
 62
2
  6
CONTINUOUS
 10
5.2
 20
0.0
 11
5.2
 21
0.625
  0
LINE
  5
237
100
AcDbEntity
  8
0
100
AcDbLine
 62
2
  6
CONTINUOUS
 10
4.1
 20
0.0
 11
4.1
 21
1.25
  0
LINE
  5
238
100
AcDbEntity
  8
0
100
AcDbLine
 62
2
  6
CONTINUOUS
 10
-0.0
 20
0.0
 11
-0.0
 21
1.25
  0
MTEXT
  5
239
100
AcDbEntity
  8
0
100
AcDbMText
 62
2
  6
CONTINUOUS
  7
STANDARD
 71
2
 72
1
 10
6.6
 20
0.325
 30
0.0
 11
1.0
 21
0.0
 31
0.0
 44
0.9
  1
2
 40
0.125
 41
0.2
  0
MTEXT
  5
23A
100
AcDbEntity
  8
0
100
AcDbMText
 62
2
  6
CONTINUOUS
  7
STANDARD
 71
2
 72
1
 10
6.15
 20
0.325
 30
0.0
 11
1.0
 21
0.0
 31
0.0
 44
0.9
  1
C
 40
0.125
 41
0.2
  0
MTEXT
  5
23B
100
AcDbEntity
  8
0
100
AcDbMText
 62
2
  6
CONTINUOUS
  7
STANDARD
 71
2
 72
1
 10
5.55
 20
0.325
 30
0.0
 11
1.0
 21
0.0
 31
0.0
 44
0.9
  1
1.000
 40
0.125
 41
1.0
  0
MTEXT
  5
23C
100
AcDbEntity
  8
0
100
AcDbMText
 62
2
  6
CONTINUOUS
  7
STANDARD
 71
2
 72
1
 10
4.65
 20
0.325
 30
0.0
 11
1.0
 21
0.0
 31
0.0
 44
0.9
  1
Sep-22-22
 40
0.125
 41
1.8
  0
MTEXT
  5
23D
100
AcDbEntity
  8
0
100
AcDbMText
 62
2
  6
CONTINUOUS
  7
STANDARD
 71
2
 72
1
 10
2.05
 20
0.4625
 30
0.0
 11
1.0
 21
0.0
 31
0.0
 44
0.9
  1
T-17A Line mount\PThrough port 2 with reverse flow check
 40
0.125
 41
7.6
  0
MTEXT
  5
23E
100
AcDbEntity
  8
0
100
AcDbMText
 62
2
  6
CONTINUOUS
  7
STANDARD
 71
1
 72
1
 10
6.45
 20
0.5625
 30
0.0
 11
1.0
 21
0.0
 31
0.0
 44
0.9
  1
SHEET
 40
0.06
 41
0.48
  0
MTEXT
  5
23F
100
AcDbEntity
  8
0
100
AcDbMText
 62
2
  6
CONTINUOUS
  7
STANDARD
 71
1
 72
1
 10
5.95
 20
0.5625
 30
0.0
 11
1.0
 21
0.0
 31
0.0
 44
0.9
  1
DWG SIZE
 40
0.06
 41
0.768
  0
MTEXT
  5
240
100
AcDbEntity
  8
0
100
AcDbMText
 62
2
  6
CONTINUOUS
  7
STANDARD
 71
1
 72
1
 10
5.25
 20
0.5625
 30
0.0
 11
1.0
 21
0.0
 31
0.0
 44
0.9
  1
SCALE
 40
0.06
 41
0.48
  0
MTEXT
  5
241
100
AcDbEntity
  8
0
100
AcDbMText
 62
2
  6
CONTINUOUS
  7
STANDARD
 71
1
 72
1
 10
4.15
 20
0.5625
 30
0.0
 11
1.0
 21
0.0
 31
0.0
 44
0.9
  1
DATE
 40
0.06
 41
0.384
  0
MTEXT
  5
242
100
AcDbEntity
  8
0
100
AcDbMText
 62
2
  6
CONTINUOUS
  7
STANDARD
 71
1
 72
1
 10
0.05
 20
0.5625
 30
0.0
 11
1.0
 21
0.0
 31
0.0
 44
0.9
  1
DESCRIPTION
 40
0.06
 41
1.056
  0
MTEXT
  5
243
100
AcDbEntity
  8
0
100
AcDbMText
 62
2
  6
CONTINUOUS
  7
STANDARD
 71
2
 72
1
 10
5.45
 20
1.0375
 30
0.0
 11
1.0
 21
0.0
 31
0.0
 44
0.9
  1
ALL DIMENSIONS IN INCH\PVIEWS ARE THIRD ANGLE
 40
0.12
 41
4.224
  0
MTEXT
  5
244
100
AcDbEntity
  8
0
100
AcDbMText
 62
2
  6
CONTINUOUS
  7
STANDARD
 71
2
 72
1
 10
2.05
 20
0.95
 30
0.0
 11
1.0
 21
0.0
 31
0.0
 44
0.9
  1
H3D
 40
0.125
 41
0.6
  0
MTEXT
  5
245
100
AcDbEntity
  8
0
100
AcDbMText
 62
2
  6
CONTINUOUS
  7
STANDARD
 71
1
 72
1
 10
0.05
 20
1.1875
 30
0.0
 11
1.0
 21
0.0
 31
0.0
 44
0.9
  1
MODEL
 40
0.06
 41
0.48
  0
ENDBLK
  5
246
100
AcDbEntity
  8
0
  6
BYBLOCK
 62
0
100
AcDbBlockEnd
  0
BLOCK
  5
247
100
AcDbEntity
  8
0
100
AcDbBlockBegin
  2
*T2
 70
1
 10
0.0
 20
0.0
  3
*T2
  1

  0
LINE
  5
248
100
AcDbEntity
  8
0
100
AcDbLine
 62
2
  6
CONTINUOUS
 10
0.0
 20
0.0
 11
9.055
 21
0.0
  0
LINE
  5
249
100
AcDbEntity
  8
0
100
AcDbLine
 62
2
  6
CONTINUOUS
 10
0.0
 20
0.0
 11
0.0
 21
-2.844
  0
LINE
  5
24A
100
AcDbEntity
  8
0
100
AcDbLine
 62
2
  6
CONTINUOUS
 10
0.0
 20
-0.344
 11
9.055
 21
-0.344
  0
LINE
  5
24B
100
AcDbEntity
  8
0
100
AcDbLine
 62
2
  6
CONTINUOUS
 10
0.0
 20
-0.594
 11
9.055
 21
-0.594
  0
LINE
  5
24C
100
AcDbEntity
  8
0
100
AcDbLine
 62
2
  6
CONTINUOUS
 10
0.0
 20
-0.844
 11
9.055
 21
-0.844
  0
LINE
  5
24D
100
AcDbEntity
  8
0
100
AcDbLine
 62
2
  6
CONTINUOUS
 10
0.0
 20
-1.094
 11
9.055
 21
-1.094
  0
LINE
  5
24E
100
AcDbEntity
  8
0
100
AcDbLine
 62
2
  6
CONTINUOUS
 10
0.0
 20
-1.344
 11
9.055
 21
-1.344
  0
LINE
  5
24F
100
AcDbEntity
  8
0
100
AcDbLine
 62
2
  6
CONTINUOUS
 10
0.0
 20
-1.594
 11
9.055
 21
-1.594
  0
LINE
  5
250
100
AcDbEntity
  8
0
100
AcDbLine
 62
2
  6
CONTINUOUS
 10
0.0
 20
-1.844
 11
9.055
 21
-1.844
  0
LINE
  5
251
100
AcDbEntity
  8
0
100
AcDbLine
 62
2
  6
CONTINUOUS
 10
0.0
 20
-2.094
 11
9.055
 21
-2.094
  0
LINE
  5
252
100
AcDbEntity
  8
0
100
AcDbLine
 62
2
  6
CONTINUOUS
 10
0.0
 20
-2.344
 11
9.055
 21
-2.344
  0
LINE
  5
253
100
AcDbEntity
  8
0
100
AcDbLine
 62
2
  6
CONTINUOUS
 10
0.0
 20
-2.594
 11
9.055
 21
-2.594
  0
LINE
  5
254
100
AcDbEntity
  8
0
100
AcDbLine
 62
2
  6
CONTINUOUS
 10
0.0
 20
-2.844
 11
9.055
 21
-2.844
  0
LINE
  5
255
100
AcDbEntity
  8
0
100
AcDbLine
 62
2
  6
CONTINUOUS
 10
3.055
 20
0.0
 11
3.055
 21
-2.844
  0
LINE
  5
256
100
AcDbEntity
  8
0
100
AcDbLine
 62
2
  6
CONTINUOUS
 10
9.055
 20
0.0
 11
9.055
 21
-2.844
  0
MTEXT
  5
257
100
AcDbEntity
  8
0
100
AcDbMText
 62
2
  6
CONTINUOUS
  7
STANDARD
 71
2
 72
1
 10
1.5275
 20
-0.0995
 30
0.0
 11
1.0
 21
0.0
 31
0.0
 44
0.9
  1
Technical Data
 40
0.145
 41
3.248
  0
MTEXT
  5
258
100
AcDbEntity
  8
0
100
AcDbMText
 62
2
  6
CONTINUOUS
  7
STANDARD
 71
2
 72
1
 10
4.555
 20
-0.0995
 30
0.0
 11
1.0
 21
0.0
 31
0.0
 44
0.9
  1
U.S. Units
 40
0.145
 41
2.32
  0
MTEXT
  5
259
100
AcDbEntity
  8
0
100
AcDbMText
 62
2
  6
CONTINUOUS
  7
STANDARD
 71
2
 72
1
 10
7.555
 20
-0.0995
 30
0.0
 11
1.0
 21
0.0
 31
0.0
 44
0.9
  1
Metric Units
 40
0.145
 41
2.784
  0
MTEXT
  5
25A
100
AcDbEntity
  8
0
100
AcDbMText
 62
2
  6
CONTINUOUS
  7
STANDARD
 71
2
 72
1
 10
1.5275
 20
-0.4065
 30
0.0
 11
1.0
 21
0.0
 31
0.0
 44
0.9
  1
Cavity
 40
0.125
 41
1.2
  0
MTEXT
  5
25B
100
AcDbEntity
  8
0
100
AcDbMText
 62
2
  6
CONTINUOUS
  7
STANDARD
 71
2
 72
1
 10
6.055
 20
-0.4065
 30
0.0
 11
1.0
 21
0.0
 31
0.0
 44
0.9
  1
T-17A
 40
0.125
 41
1.0
  0
MTEXT
  5
25C
100
AcDbEntity
  8
0
100
AcDbMText
 62
2
  6
CONTINUOUS
  7
STANDARD
 71
2
 72
1
 10
1.5275
 20
-0.6565
 30
0.0
 11
1.0
 21
0.0
 31
0.0
 44
0.9
  1
Body Features
 40
0.125
 41
2.6
  0
MTEXT
  5
25D
100
AcDbEntity
  8
0
100
AcDbMText
 62
2
  6
CONTINUOUS
  7
STANDARD
 71
2
 72
1
 10
6.055
 20
-0.6565
 30
0.0
 11
1.0
 21
0.0
 31
0.0
 44
0.9
  1
Through port 2 with reverse flow check
 40
0.125
 41
7.6
  0
MTEXT
  5
25E
100
AcDbEntity
  8
0
100
AcDbMText
 62
2
  6
CONTINUOUS
  7
STANDARD
 71
2
 72
1
 10
1.5275
 20
-0.9065
 30
0.0
 11
1.0
 21
0.0
 31
0.0
 44
0.9
  1
Body Type
 40
0.125
 41
1.8
  0
MTEXT
  5
25F
100
AcDbEntity
  8
0
100
AcDbMText
 62
2
  6
CONTINUOUS
  7
STANDARD
 71
2
 72
1
 10
6.055
 20
-0.9065
 30
0.0
 11
1.0
 21
0.0
 31
0.0
 44
0.9
  1
Line mount
 40
0.125
 41
2.0
  0
MTEXT
  5
260
100
AcDbEntity
  8
0
100
AcDbMText
 62
2
  6
CONTINUOUS
  7
STANDARD
 71
2
 72
1
 10
1.5275
 20
-1.1565
 30
0.0
 11
1.0
 21
0.0
 31
0.0
 44
0.9
  1
Interface
 40
0.125
 41
1.8
  0
MTEXT
  5
261
100
AcDbEntity
  8
0
100
AcDbMText
 62
2
  6
CONTINUOUS
  7
STANDARD
 71
2
 72
1
 10
6.055
 20
-1.1565
 30
0.0
 11
1.0
 21
0.0
 31
0.0
 44
0.9
  1
None
 40
0.125
 41
0.8
  0
MTEXT
  5
262
100
AcDbEntity
  8
0
100
AcDbMText
 62
2
  6
CONTINUOUS
  7
STANDARD
 71
2
 72
1
 10
1.5275
 20
-1.4065
 30
0.0
 11
1.0
 21
0.0
 31
0.0
 44
0.9
  1
Open Cavity Quantity
 40
0.125
 41
4.0
  0
MTEXT
  5
263
100
AcDbEntity
  8
0
100
AcDbMText
 62
2
  6
CONTINUOUS
  7
STANDARD
 71
2
 72
1
 10
6.055
 20
-1.4065
 30
0.0
 11
1.0
 21
0.0
 31
0.0
 44
0.9
  1
1
 40
0.125
 41
0.2
  0
MTEXT
  5
264
100
AcDbEntity
  8
0
100
AcDbMText
 62
2
  6
CONTINUOUS
  7
STANDARD
 71
2
 72
1
 10
1.5275
 20
-1.6565
 30
0.0
 11
1.0
 21
0.0
 31
0.0
 44
0.9
  1
Weight
 40
0.125
 41
1.2
  0
MTEXT
  5
265
100
AcDbEntity
  8
0
100
AcDbMText
 62
2
  6
CONTINUOUS
  7
STANDARD
 71
2
 72
1
 10
4.555
 20
-1.6565
 30
0.0
 11
1.0
 21
0.0
 31
0.0
 44
0.9
  1
8.193 lb.
 40
0.125
 41
1.8
  0
MTEXT
  5
266
100
AcDbEntity
  8
0
100
AcDbMText
 62
2
  6
CONTINUOUS
  7
STANDARD
 71
2
 72
1
 10
7.555
 20
-1.6565
 30
0.0
 11
1.0
 21
0.0
 31
0.0
 44
0.9
  1
3,716 kg.
 40
0.125
 41
1.8
  0
MTEXT
  5
267
100
AcDbEntity
  8
0
100
AcDbMText
 62
2
  6
CONTINUOUS
  7
STANDARD
 71
2
 72
1
 10
1.5275
 20
-1.9065
 30
0.0
 11
1.0
 21
0.0
 31
0.0
 44
0.9
  1
Mounting Hole Thread
 40
0.125
 41
4.0
  0
MTEXT
  5
268
100
AcDbEntity
  8
0
100
AcDbMText
 62
2
  6
CONTINUOUS
  7
STANDARD
 71
2
 72
1
 10
4.555
 20
-1.9065
 30
0.0
 11
1.0
 21
0.0
 31
0.0
 44
0.9
  1
.375-16 UNC - 2B in.
 40
0.125
 41
4.0
  0
MTEXT
  5
269
100
AcDbEntity
  8
0
100
AcDbMText
 62
2
  6
CONTINUOUS
  7
STANDARD
 71
2
 72
1
 10
1.5275
 20
-2.1565
 30
0.0
 11
1.0
 21
0.0
 31
0.0
 44
0.9
  1
Mounting Hole Depth
 40
0.125
 41
3.8
  0
MTEXT
  5
26A
100
AcDbEntity
  8
0
100
AcDbMText
 62
2
  6
CONTINUOUS
  7
STANDARD
 71
2
 72
1
 10
4.555
 20
-2.1565
 30
0.0
 11
1.0
 21
0.0
 31
0.0
 44
0.9
  1
.62 in.
 40
0.125
 41
1.4
  0
MTEXT
  5
26B
100
AcDbEntity
  8
0
100
AcDbMText
 62
2
  6
CONTINUOUS
  7
STANDARD
 71
2
 72
1
 10
7.555
 20
-2.1565
 30
0.0
 11
1.0
 21
0.0
 31
0.0
 44
0.9
  1
15,7 mm
 40
0.125
 41
1.4
  0
MTEXT
  5
26C
100
AcDbEntity
  8
0
100
AcDbMText
 62
2
  6
CONTINUOUS
  7
STANDARD
 71
2
 72
1
 10
1.5275
 20
-2.4065
 30
0.0
 11
1.0
 21
0.0
 31
0.0
 44
0.9
  1
Mounting Hole Quantity
 40
0.125
 41
4.4
  0
MTEXT
  5
26D
100
AcDbEntity
  8
0
100
AcDbMText
 62
2
  6
CONTINUOUS
  7
STANDARD
 71
2
 72
1
 10
6.055
 20
-2.4065
 30
0.0
 11
1.0
 21
0.0
 31
0.0
 44
0.9
  1
2
 40
0.125
 41
0.2
  0
MTEXT
  5
26E
100
AcDbEntity
  8
0
100
AcDbMText
 62
2
  6
CONTINUOUS
  7
STANDARD
 71
2
 72
1
 10
1.5275
 20
-2.6565
 30
0.0
 11
1.0
 21
0.0
 31
0.0
 44
0.9
  1
Includes integral cartridge(s)
 40
0.125
 41
6.0
  0
MTEXT
  5
26F
100
AcDbEntity
  8
0
100
AcDbMText
 62
2
  6
CONTINUOUS
  7
STANDARD
 71
2
 72
1
 10
6.055
 20
-2.6565
 30
0.0
 11
1.0
 21
0.0
 31
0.0
 44
0.9
  1
Yes (see Included Components)
 40
0.125
 41
5.8
  0
ENDBLK
  5
270
100
AcDbEntity
  8
0
  6
BYBLOCK
 62
0
100
AcDbBlockEnd
  0
BLOCK
  5
271
100
AcDbEntity
  8
0
100
AcDbBlockBegin
  2
*T3
 70
1
 10
0.0
 20
0.0
  3
*T3
  1

  0
LINE
  5
272
100
AcDbEntity
  8
0
100
AcDbLine
 62
2
  6
CONTINUOUS
 10
0.0
 20
0.0
 11
4.6
 21
0.0
  0
LINE
  5
273
100
AcDbEntity
  8
0
100
AcDbLine
 62
2
  6
CONTINUOUS
 10
0.0
 20
0.0
 11
0.0
 21
-1.43775
  0
LINE
  5
274
100
AcDbEntity
  8
0
100
AcDbLine
 62
2
  6
CONTINUOUS
 10
0.0
 20
-0.34375
 11
4.6
 21
-0.34375
  0
LINE
  5
275
100
AcDbEntity
  8
0
100
AcDbLine
 62
2
  6
CONTINUOUS
 10
0.0
 20
-0.68775
 11
4.6
 21
-0.68775
  0
LINE
  5
276
100
AcDbEntity
  8
0
100
AcDbLine
 62
2
  6
CONTINUOUS
 10
0.0
 20
-0.93775
 11
4.6
 21
-0.93775
  0
LINE
  5
277
100
AcDbEntity
  8
0
100
AcDbLine
 62
2
  6
CONTINUOUS
 10
0.0
 20
-1.18775
 11
4.6
 21
-1.18775
  0
LINE
  5
278
100
AcDbEntity
  8
0
100
AcDbLine
 62
2
  6
CONTINUOUS
 10
0.0
 20
-1.43775
 11
4.6
 21
-1.43775
  0
LINE
  5
279
100
AcDbEntity
  8
0
100
AcDbLine
 62
2
  6
CONTINUOUS
 10
1.3
 20
-0.34375
 11
1.3
 21
-1.43775
  0
LINE
  5
27A
100
AcDbEntity
  8
0
100
AcDbLine
 62
2
  6
CONTINUOUS
 10
3.3
 20
-0.34375
 11
3.3
 21
-1.43775
  0
LINE
  5
27B
100
AcDbEntity
  8
0
100
AcDbLine
 62
2
  6
CONTINUOUS
 10
4.6
 20
0.0
 11
4.6
 21
-1.43775
  0
MTEXT
  5
27C
100
AcDbEntity
  8
0
100
AcDbMText
 62
2
  6
CONTINUOUS
  7
STANDARD
 71
2
 72
1
 10
2.3
 20
-0.099375
 30
0.0
 11
1.0
 21
0.0
 31
0.0
 44
0.9
  1
Port Headings
 40
0.145
 41
3.016
  0
MTEXT
  5
27D
100
AcDbEntity
  8
0
100
AcDbMText
 62
2
  6
CONTINUOUS
  7
STANDARD
 71
2
 72
1
 10
0.65
 20
-0.44325
 30
0.0
 11
1.0
 21
0.0
 31
0.0
 44
0.9
  1
Product
 40
0.145
 41
1.624
  0
MTEXT
  5
27E
100
AcDbEntity
  8
0
100
AcDbMText
 62
2
  6
CONTINUOUS
  7
STANDARD
 71
2
 72
1
 10
2.3
 20
-0.44325
 30
0.0
 11
1.0
 21
0.0
 31
0.0
 44
0.9
  1
Port
 40
0.145
 41
0.928
  0
MTEXT
  5
27F
100
AcDbEntity
  8
0
100
AcDbMText
 62
2
  6
CONTINUOUS
  7
STANDARD
 71
2
 72
1
 10
3.95
 20
-0.44325
 30
0.0
 11
1.0
 21
0.0
 31
0.0
 44
0.9
  1
Size
 40
0.145
 41
0.928
  0
MTEXT
  5
280
100
AcDbEntity
  8
0
100
AcDbMText
 62
2
  6
CONTINUOUS
  7
STANDARD
 71
2
 72
1
 10
0.65
 20
-0.75025
 30
0.0
 11
1.0
 21
0.0
 31
0.0
 44
0.9
  1
H3D
 40
0.125
 41
0.6
  0
MTEXT
  5
281
100
AcDbEntity
  8
0
100
AcDbMText
 62
2
  6
CONTINUOUS
  7
STANDARD
 71
2
 72
1
 10
2.3
 20
-0.75025
 30
0.0
 11
1.0
 21
0.0
 31
0.0
 44
0.9
  1
Ports 1 &  2
 40
0.125
 41
2.4
  0
MTEXT
  5
282
100
AcDbEntity
  8
0
100
AcDbMText
 62
2
  6
CONTINUOUS
  7
STANDARD
 71
2
 72
1
 10
3.95
 20
-0.75025
 30
0.0
 11
1.0
 21
0.0
 31
0.0
 44
0.9
  1
3/4" NPTF
 40
0.125
 41
1.8
  0
MTEXT
  5
283
100
AcDbEntity
  8
0
100
AcDbMText
 62
2
  6
CONTINUOUS
  7
STANDARD
 71
2
 72
1
 10
0.65
 20
-1.00025
 30
0.0
 11
1.0
 21
0.0
 31
0.0
 44
0.9
  1
H3D
 40
0.125
 41
0.6
  0
MTEXT
  5
284
100
AcDbEntity
  8
0
100
AcDbMText
 62
2
  6
CONTINUOUS
  7
STANDARD
 71
2
 72
1
 10
2.3
 20
-1.00025
 30
0.0
 11
1.0
 21
0.0
 31
0.0
 44
0.9
  1
Port 3
 40
0.125
 41
1.2
  0
MTEXT
  5
285
100
AcDbEntity
  8
0
100
AcDbMText
 62
2
  6
CONTINUOUS
  7
STANDARD
 71
2
 72
1
 10
3.95
 20
-1.00025
 30
0.0
 11
1.0
 21
0.0
 31
0.0
 44
0.9
  1
1/4" NPTF
 40
0.125
 41
1.8
  0
MTEXT
  5
286
100
AcDbEntity
  8
0
100
AcDbMText
 62
2
  6
CONTINUOUS
  7
STANDARD
 71
2
 72
1
 10
0.65
 20
-1.25025
 30
0.0
 11
1.0
 21
0.0
 31
0.0
 44
0.9
  1
H3D
 40
0.125
 41
0.6
  0
MTEXT
  5
287
100
AcDbEntity
  8
0
100
AcDbMText
 62
2
  6
CONTINUOUS
  7
STANDARD
 71
2
 72
1
 10
2.3
 20
-1.25025
 30
0.0
 11
1.0
 21
0.0
 31
0.0
 44
0.9
  1
Gage Port
 40
0.125
 41
1.8
  0
MTEXT
  5
288
100
AcDbEntity
  8
0
100
AcDbMText
 62
2
  6
CONTINUOUS
  7
STANDARD
 71
2
 72
1
 10
3.95
 20
-1.25025
 30
0.0
 11
1.0
 21
0.0
 31
0.0
 44
0.9
  1
1/4" NPTF
 40
0.125
 41
1.8
  0
ENDBLK
  5
289
100
AcDbEntity
  8
0
  6
BYBLOCK
 62
0
100
AcDbBlockEnd
  0
ENDSEC
  0
SECTION
  2
ENTITIES
  0
IMAGE
  5
28A
100
AcDbEntity
  8
0
100
AcDbRasterImage
 62
7
  6
CONTINUOUS
 10
19.2297077316
 20
0.3094318264
 30
0.0
 11
0.0066666667
 21
0.0
 31
0.0
 12
0.0
 22
0.0066666667
 32
0.0
 13
369.0
 23
92.0
340
       39D
 70
9
280
0
281
50
282
50
283
0
360
       397
 71
1
 91
2
 14
-0.5
 24
-0.5
 14
368.5
 24
91.5
  0
INSERT
  5
28B
100
AcDbEntity
  8
0
100
AcDbBlockReference
 62
2
  6
CONTINUOUS
  2
SUN_FIRST_THIRD_ANGLE_BL0
 10
20.4816717061
 20
1.2289683772
  0
ACAD_TABLE
  5
28C
100
AcDbEntity
  8
0
 62
2
  6
CONTINUOUS
100
AcDbBlockReference
  2
*T1
 10
12.42375
 20
0.30125
 30
0.0
100
AcDbTable
342
       39F
343
207
 11
1.0
 21
0.0
 31
0.0
 90
6
 91
4
 92
6
 93
20
 94
0
 95
0
 96
0
 70
1
 41
0.0
141
0.525
141
0.1
141
0.525
141
0.1
142
4.1
142
1.1
142
0.7
142
0.5
142
0.4
142
2.475
171
1
172
0
173
0
174
0
175
1
176
1
 91
33
178
0
145
0.0
301
CELL_VALUE
 90
4
  1
T-17A Line mount\PThrough port 2 with reverse flow check
304
ACVALUE_END
170
2
140
0.125
171
1
172
0
173
0
174
0
175
1
176
1
 91
33
178
0
145
0.0
301
CELL_VALUE
 90
4
  1
Sep-22-22
304
ACVALUE_END
170
5
140
0.125
171
1
172
0
173
0
174
0
175
1
176
1
 91
33
178
0
145
0.0
301
CELL_VALUE
 90
4
  1
1.000
304
ACVALUE_END
170
5
140
0.125
171
1
172
0
173
0
174
0
175
1
176
1
 91
33
178
0
145
0.0
301
CELL_VALUE
 90
4
  1
C
304
ACVALUE_END
170
5
140
0.125
171
1
172
0
173
0
174
0
175
1
176
1
 91
33
178
0
145
0.0
301
CELL_VALUE
 90
4
  1
2
304
ACVALUE_END
170
5
140
0.125
171
1
172
0
173
0
174
0
175
1
176
1
 91
33
178
0
145
0.0
301
CELL_VALUE
 90
4
  1
 
304
ACVALUE_END
170
1
140
0.125
171
1
172
0
173
0
174
0
175
1
176
1
 91
33
178
0
145
0.0
301
CELL_VALUE
 90
4
  1
DESCRIPTION
304
ACVALUE_END
170
1
140
0.06
171
1
172
0
173
0
174
0
175
1
176
1
 91
33
178
0
145
0.0
301
CELL_VALUE
 90
4
  1
DATE
304
ACVALUE_END
170
1
140
0.06
171
1
172
0
173
0
174
0
175
1
176
1
 91
33
178
0
145
0.0
301
CELL_VALUE
 90
4
  1
SCALE
304
ACVALUE_END
170
1
140
0.06
171
1
172
0
173
0
174
0
175
1
176
1
 91
33
178
0
145
0.0
301
CELL_VALUE
 90
4
  1
DWG SIZE
304
ACVALUE_END
170
1
140
0.06
171
1
172
0
173
0
174
0
175
1
176
1
 91
33
178
0
145
0.0
301
CELL_VALUE
 90
4
  1
SHEET
304
ACVALUE_END
170
1
140
0.06
171
1
172
0
173
0
174
0
175
1
176
1
 91
33
178
0
145
0.0
301
CELL_VALUE
 90
4
  1
 
304
ACVALUE_END
170
1
140
0.125
171
1
172
0
173
0
174
0
175
1
176
1
 91
33
178
0
145
0.0
301
CELL_VALUE
 90
4
  1
H3D
304
ACVALUE_END
170
5
140
0.125
171
1
172
0
173
0
174
0
175
4
176
1
 91
33
178
0
145
0.0
301
CELL_VALUE
 90
4
  1
ALL DIMENSIONS IN INCH\PVIEWS ARE THIRD ANGLE
304
ACVALUE_END
170
5
140
0.12
171
1
172
0
173
1
174
0
175
1
176
1
 91
1
178
0
145
0.0
170
1
171
1
172
0
173
1
174
0
175
1
176
1
 91
1
178
0
145
0.0
170
1
171
1
172
0
173
1
174
0
175
1
176
1
 91
1
178
0
145
0.0
170
5
171
1
172
0
173
0
174
0
175
1
176
1
 91
33
178
0
145
0.0
301
CELL_VALUE
 90
4
  1
 
304
ACVALUE_END
170
1
140
0.125
171
1
172
0
173
0
174
0
175
1
176
1
 91
33
178
0
145
0.0
301
CELL_VALUE
 90
4
  1
MODEL
304
ACVALUE_END
170
1
140
0.06
171
1
172
0
173
0
174
0
175
1
176
1
 91
33
178
0
145
0.0
301
CELL_VALUE
 90
4
  1
 
304
ACVALUE_END
170
1
140
0.125
171
1
172
0
173
0
174
0
175
1
176
1
 91
33
178
0
145
0.0
301
CELL_VALUE
 90
4
  1
 
304
ACVALUE_END
170
1
140
0.125
171
1
172
0
173
0
174
0
175
1
176
1
 91
33
178
0
145
0.0
301
CELL_VALUE
 90
4
  1
 
304
ACVALUE_END
170
1
140
0.125
171
1
172
0
173
0
174
0
175
1
176
1
 91
33
178
0
145
0.0
301
CELL_VALUE
 90
4
  1
 
304
ACVALUE_END
170
1
140
0.125
171
1
172
0
173
0
174
0
175
1
176
1
 91
33
178
0
145
0.0
301
CELL_VALUE
 90
4
  1
 
304
ACVALUE_END
170
1
140
0.125
  0
ACAD_TABLE
  5
28D
100
AcDbEntity
  8
0
 62
2
  6
CONTINUOUS
100
AcDbBlockReference
  2
*T2
 10
12.4237499994
 20
16.47875
 30
0.0
100
AcDbTable
342
       39E
343
208
 11
1.0
 21
0.0
 31
0.0
 90
22
 91
11
 92
3
 93
16
 94
0
 95
0
 96
0
 41
0.028
141
0.344
141
0.25
141
0.25
141
0.25
141
0.25
141
0.25
141
0.25
141
0.25
141
0.25
141
0.25
141
0.25
142
3.055
142
3.0
142
3.0
171
1
172
0
173
0
174
0
175
1
176
1
 91
33
178
0
145
0.0
301
CELL_VALUE
 90
4
  1
Technical Data
304
ACVALUE_END
170
5
140
0.145
171
1
172
0
173
0
174
0
175
1
176
1
 91
33
178
0
145
0.0
301
CELL_VALUE
 90
4
  1
U.S. Units
304
ACVALUE_END
170
5
140
0.145
171
1
172
0
173
0
174
0
175
1
176
1
 91
33
178
0
145
0.0
301
CELL_VALUE
 90
4
  1
Metric Units
304
ACVALUE_END
170
5
140
0.145
171
1
172
0
173
0
174
0
175
1
176
1
 91
33
178
0
145
0.0
301
CELL_VALUE
 90
4
  1
Cavity
304
ACVALUE_END
170
5
140
0.125
171
1
172
0
173
0
174
0
175
2
176
1
 91
33
178
0
145
0.0
301
CELL_VALUE
 90
4
  1
T-17A
304
ACVALUE_END
170
5
140
0.125
171
1
172
0
173
1
174
0
175
1
176
1
 91
1
178
0
145
0.0
170
1
171
1
172
0
173
0
174
0
175
1
176
1
 91
33
178
0
145
0.0
301
CELL_VALUE
 90
4
  1
Body Features
304
ACVALUE_END
170
5
140
0.125
171
1
172
0
173
0
174
0
175
2
176
1
 91
33
178
0
145
0.0
301
CELL_VALUE
 90
4
  1
Through port 2 with reverse flow check
304
ACVALUE_END
170
5
140
0.125
171
1
172
0
173
1
174
0
175
1
176
1
 91
1
178
0
145
0.0
170
1
171
1
172
0
173
0
174
0
175
1
176
1
 91
33
178
0
145
0.0
301
CELL_VALUE
 90
4
  1
Body Type
304
ACVALUE_END
170
5
140
0.125
171
1
172
0
173
0
174
0
175
2
176
1
 91
33
178
0
145
0.0
301
CELL_VALUE
 90
4
  1
Line mount
304
ACVALUE_END
170
5
140
0.125
171
1
172
0
173
1
174
0
175
1
176
1
 91
1
178
0
145
0.0
170
1
171
1
172
0
173
0
174
0
175
1
176
1
 91
33
178
0
145
0.0
301
CELL_VALUE
 90
4
  1
Interface
304
ACVALUE_END
170
5
140
0.125
171
1
172
0
173
0
174
0
175
2
176
1
 91
33
178
0
145
0.0
301
CELL_VALUE
 90
4
  1
None
304
ACVALUE_END
170
5
140
0.125
171
1
172
0
173
1
174
0
175
1
176
1
 91
1
178
0
145
0.0
170
1
171
1
172
0
173
0
174
0
175
1
176
1
 91
33
178
0
145
0.0
301
CELL_VALUE
 90
4
  1
Open Cavity Quantity
304
ACVALUE_END
170
5
140
0.125
171
1
172
0
173
0
174
0
175
2
176
1
 91
33
178
0
145
0.0
301
CELL_VALUE
 90
4
  1
1
304
ACVALUE_END
170
5
140
0.125
171
1
172
0
173
1
174
0
175
1
176
1
 91
1
178
0
145
0.0
170
1
171
1
172
0
173
0
174
0
175
1
176
1
 91
33
178
0
145
0.0
301
CELL_VALUE
 90
4
  1
Weight
304
ACVALUE_END
170
5
140
0.125
171
1
172
0
173
0
174
0
175
1
176
1
 91
33
178
0
145
0.0
301
CELL_VALUE
 90
4
  1
8.193 lb.
304
ACVALUE_END
170
5
140
0.125
171
1
172
0
173
0
174
0
175
1
176
1
 91
33
178
0
145
0.0
301
CELL_VALUE
 90
4
  1
3,716 kg.
304
ACVALUE_END
170
5
140
0.125
171
1
172
0
173
0
174
0
175
1
176
1
 91
33
178
0
145
0.0
301
CELL_VALUE
 90
4
  1
Mounting Hole Thread
304
ACVALUE_END
170
5
140
0.125
171
1
172
0
173
0
174
0
175
1
176
1
 91
33
178
0
145
0.0
301
CELL_VALUE
 90
4
  1
.375-16 UNC - 2B in.
304
ACVALUE_END
170
5
140
0.125
171
1
172
0
173
0
174
0
175
1
176
1
 91
33
178
0
145
0.0
301
CELL_VALUE
 90
4
  1
 
304
ACVALUE_END
170
5
140
0.125
171
1
172
0
173
0
174
0
175
1
176
1
 91
33
178
0
145
0.0
301
CELL_VALUE
 90
4
  1
Mounting Hole Depth
304
ACVALUE_END
170
5
140
0.125
171
1
172
0
173
0
174
0
175
1
176
1
 91
33
178
0
145
0.0
301
CELL_VALUE
 90
4
  1
.62 in.
304
ACVALUE_END
170
5
140
0.125
171
1
172
0
173
0
174
0
175
1
176
1
 91
33
178
0
145
0.0
301
CELL_VALUE
 90
4
  1
15,7 mm
304
ACVALUE_END
170
5
140
0.125
171
1
172
0
173
0
174
0
175
1
176
1
 91
33
178
0
145
0.0
301
CELL_VALUE
 90
4
  1
Mounting Hole Quantity
304
ACVALUE_END
170
5
140
0.125
171
1
172
0
173
0
174
0
175
2
176
1
 91
33
178
0
145
0.0
301
CELL_VALUE
 90
4
  1
2
304
ACVALUE_END
170
5
140
0.125
171
1
172
0
173
1
174
0
175
1
176
1
 91
1
178
0
145
0.0
170
1
171
1
172
0
173
0
174
0
175
1
176
1
 91
33
178
0
145
0.0
301
CELL_VALUE
 90
4
  1
Includes integral cartridge(s)
304
ACVALUE_END
170
5
140
0.125
171
1
172
0
173
0
174
0
175
2
176
1
 91
33
178
0
145
0.0
301
CELL_VALUE
 90
4
  1
Yes (see Included Components)
304
ACVALUE_END
170
5
140
0.125
171
1
172
0
173
1
174
0
175
1
176
1
 91
1
178
0
145
0.0
170
1
  0
ACAD_TABLE
  5
28E
100
AcDbEntity
  8
0
 62
2
  6
CONTINUOUS
100
AcDbBlockReference
  2
*T3
 10
0.52125
 20
1.959
 30
0.0
100
AcDbTable
342
       39E
343
209
 11
1.0
 21
0.0
 31
0.0
 90
22
 91
5
 92
3
 93
16
 94
0
 95
0
 96
0
 41
0.05
141
0.34375
141
0.344
141
0.25
141
0.25
141
0.25
142
1.3
142
2.0
142
1.3
171
1
172
0
173
0
174
0
175
3
176
1
 91
33
178
0
145
0.0
301
CELL_VALUE
 90
4
  1
Port Headings
304
ACVALUE_END
170
5
140
0.145
171
1
172
0
173
1
174
0
175
1
176
1
 91
1
178
0
145
0.0
170
1
171
1
172
0
173
1
174
0
175
1
176
1
 91
1
178
0
145
0.0
170
1
171
1
172
0
173
0
174
0
175
1
176
1
 91
33
178
0
145
0.0
301
CELL_VALUE
 90
4
  1
Product
304
ACVALUE_END
170
5
140
0.145
171
1
172
0
173
0
174
0
175
1
176
1
 91
33
178
0
145
0.0
301
CELL_VALUE
 90
4
  1
Port
304
ACVALUE_END
170
5
140
0.145
171
1
172
0
173
0
174
0
175
1
176
1
 91
33
178
0
145
0.0
301
CELL_VALUE
 90
4
  1
Size
304
ACVALUE_END
170
5
140
0.145
171
1
172
0
173
0
174
0
175
1
176
1
 91
33
178
0
145
0.0
301
CELL_VALUE
 90
4
  1
H3D
304
ACVALUE_END
170
5
140
0.125
171
1
172
0
173
0
174
0
175
1
176
1
 91
33
178
0
145
0.0
301
CELL_VALUE
 90
4
  1
Ports 1 &  2
304
ACVALUE_END
170
5
140
0.125
171
1
172
0
173
0
174
0
175
1
176
1
 91
33
178
0
145
0.0
301
CELL_VALUE
 90
4
  1
3/4" NPTF
304
ACVALUE_END
170
5
140
0.125
171
1
172
0
173
0
174
0
175
1
176
1
 91
33
178
0
145
0.0
301
CELL_VALUE
 90
4
  1
H3D
304
ACVALUE_END
170
5
140
0.125
171
1
172
0
173
0
174
0
175
1
176
1
 91
33
178
0
145
0.0
301
CELL_VALUE
 90
4
  1
Port 3
304
ACVALUE_END
170
5
140
0.125
171
1
172
0
173
0
174
0
175
1
176
1
 91
33
178
0
145
0.0
301
CELL_VALUE
 90
4
  1
1/4" NPTF
304
ACVALUE_END
170
5
140
0.125
171
1
172
0
173
0
174
0
175
1
176
1
 91
33
178
0
145
0.0
301
CELL_VALUE
 90
4
  1
H3D
304
ACVALUE_END
170
5
140
0.125
171
1
172
0
173
0
174
0
175
1
176
1
 91
33
178
0
145
0.0
301
CELL_VALUE
 90
4
  1
Gage Port
304
ACVALUE_END
170
5
140
0.125
171
1
172
0
173
0
174
0
175
1
176
1
 91
33
178
0
145
0.0
301
CELL_VALUE
 90
4
  1
1/4" NPTF
304
ACVALUE_END
170
5
140
0.125
  0
MTEXT
  5
28F
100
AcDbEntity
  8
0
100
AcDbMText
 62
2
  6
CONTINUOUS
  7
STANDARD
 71
1
 72
1
 10
0.52125
 20
5.75995
 30
0.0
 11
1.0
 21
0.0
 31
0.0
 44
0.6
  3
Notes\P \P1. Important: Carefully consider\P   the maximum system pressure. The\P   pressure rating of the manifold is\P   dependent on the manifold material,\P   with the port type/size a secondary\P   consideration. Manifolds\P   constructed of alu
  1
minum are not\P   rated for pressures higher than\P   3000 psi (210 bar), regardless of\P   the port type/size specified.
 40
0.1
 41
3.04
  0
LINE
  5
290
100
AcDbEntity
  8
0
100
AcDbLine
 62
7
  6
CONTINUOUS
 10
0.30125
 20
0.30125
 11
0.30125
 21
16.69875
  0
LINE
  5
291
100
AcDbEntity
  8
0
100
AcDbLine
 62
7
  6
CONTINUOUS
 10
0.30125
 20
0.30125
 11
21.69875
 21
0.30125
  0
LINE
  5
292
100
AcDbEntity
  8
0
100
AcDbLine
 62
7
  6
CONTINUOUS
 10
0.30125
 20
16.69875
 11
21.69875
 21
16.69875
  0
LINE
  5
293
100
AcDbEntity
  8
0
100
AcDbLine
 62
7
  6
CONTINUOUS
 10
21.69875
 20
0.30125
 11
21.69875
 21
16.69875
  0
LINE
  5
294
100
AcDbEntity
  8
0
100
AcDbLine
 62
7
  6
CONTINUOUS
 10
8.5505105699
 20
10.8978123844
 11
9.585785896
 21
11.8978116184
  0
LINE
  5
295
100
AcDbEntity
  8
0
100
AcDbLine
 62
7
  6
CONTINUOUS
 10
12.414214104
 20
5.3172712749
 11
8.5505105699
 21
5.585220025
  0
LINE
  5
296
100
AcDbEntity
  8
0
100
AcDbLine
 62
7
  6
CONTINUOUS
 10
10.6261700862
 20
5.1974437344
 11
10.6449291715
 21
5.1881771054
  0
LINE
  5
297
100
AcDbEntity
  8
0
100
AcDbLine
 62
7
  6
CONTINUOUS
 10
8.5505105699
 20
5.585220025
 11
8.5505105699
 21
10.8978123844
  0
LINE
  5
298
100
AcDbEntity
  8
0
100
AcDbLine
 62
4
  6
CONTINUOUS
 10
8.7533550963
 20
9.0484858856
 11
8.7533550963
 21
9.0291673729
  0
LINE
  5
299
100
AcDbEntity
  8
0
100
AcDbLine
 62
4
  6
CONTINUOUS
 10
8.7026439886
 20
8.9843879048
 11
8.6953995446
 21
8.9559125328
  0
LINE
  5
29A
100
AcDbEntity
  8
0
100
AcDbLine
 62
4
  6
CONTINUOUS
 10
8.6953995446
 20
9.0525051167
 11
8.7026439886
 21
9.061661976
  0
LINE
  5
29B
100
AcDbEntity
  8
0
100
AcDbLine
 62
4
  6
CONTINUOUS
 10
8.7171328765
 20
9.0027016131
 11
8.7026439886
 21
8.9843879048
  0
LINE
  5
29C
100
AcDbEntity
  8
0
100
AcDbLine
 62
4
  6
CONTINUOUS
 10
8.7533550963
 20
9.0291673729
 11
8.7461106523
 21
9.0200105136
  0
LINE
  5
29D
100
AcDbEntity
  8
0
100
AcDbLine
 62
4
  6
CONTINUOUS
 10
8.7026439886
 20
9.061661976
 11
8.7171328765
 21
9.0703164246
  0
LINE
  5
29E
100
AcDbEntity
  8
0
100
AcDbLine
 62
4
  6
CONTINUOUS
 10
12.2331030049
 20
6.5971261664
 11
12.218614117
 21
6.5981309742
  0
LINE
  5
29F
100
AcDbEntity
  8
0
100
AcDbLine
 62
4
  6
CONTINUOUS
 10
12.225858561
 20
6.655584122
 11
12.2548363368
 21
6.6535745065
  0
LINE
  5
2A0
100
AcDbEntity
  8
0
100
AcDbLine
 62
4
  6
CONTINUOUS
 10
12.218614117
 20
6.7140420776
 11
12.2331030049
 21
6.7130372699
  0
LINE
  5
2A1
100
AcDbEntity
  8
0
100
AcDbLine
 62
7
  6
CONTINUOUS
 10
11.5887749907
 20
10.988550606
 11
11.5866693965
 21
10.986554797
  0
LINE
  5
2A2
100
AcDbEntity
  8
0
100
AcDbLine
 62
4
  6
CONTINUOUS
 10
8.7461106523
 20
9.0200105136
 11
8.7171328765
 21
9.0027016131
  0
LINE
  5
2A3
100
AcDbEntity
  8
0
100
AcDbLine
 62
4
  6
CONTINUOUS
 10
10.7600660277
 20
10.1862738369
 11
10.7745549156
 21
10.1949282854
  0
LINE
  5
2A4
100
AcDbEntity
  8
0
100
AcDbLine
 62
4
  6
CONTINUOUS
 10
10.8035326915
 20
10.1542816377
 11
10.7890438036
 21
10.1456271822
  0
LINE
  5
2A5
100
AcDbEntity
  8
0
100
AcDbLine
 62
4
  6
CONTINUOUS
 10
10.8035326915
 20
10.0866668253
 11
10.7890438036
 21
10.0780123742
  0
LINE
  5
2A6
100
AcDbEntity
  8
0
100
AcDbLine
 62
4
  6
CONTINUOUS
 10
8.7461106523
 20
9.0586475527
 11
8.7533550963
 21
9.0484858856
  0
LINE
  5
2A7
100
AcDbEntity
  8
0
100
AcDbLine
 62
4
  6
CONTINUOUS
 10
9.6951327406
 20
6.8890461055
 11
9.6951327406
 21
6.7731350021
  0
LINE
  5
2A8
100
AcDbEntity
  8
0
100
AcDbLine
 62
4
  6
CONTINUOUS
 10
10.8107771354
 20
10.1634384901
 11
10.8035326915
 21
10.1542816377
  0
LINE
  5
2A9
100
AcDbEntity
  8
0
100
AcDbLine
 62
4
  6
CONTINUOUS
 10
10.8180215794
 20
10.1049805345
 11
10.8035326915
 21
10.0866668253
  0
LINE
  5
2AA
100
AcDbEntity
  8
0
100
AcDbLine
 62
4
  6
CONTINUOUS
 10
9.9400639718
 20
8.7736921218
 11
9.9400639718
 21
8.7902508498
  0
LINE
  5
2AB
100
AcDbEntity
  8
0
100
AcDbLine
 62
4
  6
CONTINUOUS
 10
9.9980195235
 20
8.7034379731
 11
9.9980195235
 21
8.7199967029
  0
LINE
  5
2AC
100
AcDbEntity
  8
0
100
AcDbLine
 62
4
  6
CONTINUOUS
 10
10.0311369797
 20
8.8004936434
 11
10.0311369797
 21
8.7011412697
  0
LINE
  5
2AD
100
AcDbEntity
  8
0
100
AcDbLine
 62
4
  6
CONTINUOUS
 10
10.0670142401
 20
8.090947816
 11
10.0670142401
 21
8.2068589194
  0
LINE
  5
2AE
100
AcDbEntity
  8
0
100
AcDbLine
 62
4
  6
CONTINUOUS
 10
10.0890925314
 20
8.6971220386
 11
10.0890925314
 21
8.7964744122
  0
LINE
  5
2AF
100
AcDbEntity
  8
0
100
AcDbLine
 62
4
  6
CONTINUOUS
 10
10.1222099875
 20
8.6782666054
 11
10.1222099875
 21
8.7941777088
  0
LINE
  5
2B0
100
AcDbEntity
  8
0
100
AcDbLine
 62
4
  6
CONTINUOUS
 10
10.1249697849
 20
8.1862809606
 11
10.1249697849
 21
8.1034873151
  0
LINE
  5
2B1
100
AcDbEntity
  8
0
100
AcDbLine
 62
4
  6
CONTINUOUS
 10
10.1801655392
 20
8.6742473742
 11
10.1801655392
 21
8.7901584776
  0
LINE
  5
2B2
100
AcDbEntity
  8
0
100
AcDbLine
 62
4
  6
CONTINUOUS
 10
9.9400639718
 20
8.7902508498
 11
9.9566227016
 21
8.8056612261
  0
LINE
  5
2B3
100
AcDbEntity
  8
0
100
AcDbLine
 62
4
  6
CONTINUOUS
 10
9.9814607954
 20
8.688027595
 11
9.9980195235
 21
8.7034379731
  0
LINE
  5
2B4
100
AcDbEntity
  8
0
100
AcDbLine
 62
4
  6
CONTINUOUS
 10
10.0007793209
 20
8.1452174109
 11
10.0449359326
 21
8.1200768336
  0
LINE
  5
2B5
100
AcDbEntity
  8
0
100
AcDbLine
 62
4
  6
CONTINUOUS
 10
8.7316217644
 20
9.0693116168
 11
8.7461106523
 21
9.0586475527
  0
LINE
  5
2B6
100
AcDbEntity
  8
0
100
AcDbLine
 62
4
  6
CONTINUOUS
 10
12.218614117
 20
6.5981309742
 11
12.2041252291
 21
6.6087950409
  0
LINE
  5
2B7
100
AcDbEntity
  8
0
100
AcDbLine
 62
4
  6
CONTINUOUS
 10
10.1084110569
 20
8.2039880404
 11
10.1249697849
 21
8.1862809606
  0
LINE
  5
2B8
100
AcDbEntity
  8
0
100
AcDbLine
 62
4
  6
CONTINUOUS
 10
10.2050036408
 20
8.1972893219
 11
10.2381211107
 21
8.0790815142
  0
LINE
  5
2B9
100
AcDbEntity
  8
0
100
AcDbLine
 62
4
  6
CONTINUOUS
 10
10.3043560032
 20
8.6656347363
 11
10.3043560032
 21
8.7815458397
  0
LINE
  5
2BA
100
AcDbEntity
  8
0
100
AcDbLine
 62
4
  6
CONTINUOUS
 10
10.304356023
 20
8.0744881074
 11
10.304356023
 21
8.1903992108
  0
LINE
  5
2BB
100
AcDbEntity
  8
0
100
AcDbLine
 62
4
  6
CONTINUOUS
 10
10.3540321944
 20
8.7367039605
 11
10.3540321944
 21
8.6621896807
  0
LINE
  5
2BC
100
AcDbEntity
  8
0
100
AcDbLine
 62
4
  6
CONTINUOUS
 10
10.3664512264
 20
8.325186218
 11
10.3664512264
 21
8.4410973214
  0
LINE
  5
2BD
100
AcDbEntity
  8
0
100
AcDbLine
 62
4
  6
CONTINUOUS
 10
10.3705909353
 20
8.0698947006
 11
10.3705909353
 21
8.1858058041
  0
LINE
  5
2BE
100
AcDbEntity
  8
0
100
AcDbLine
 62
4
  6
CONTINUOUS
 10
10.4244067781
 20
8.4370780902
 11
10.4244067781
 21
8.3211669868
  0
LINE
  5
2BF
100
AcDbEntity
  8
0
100
AcDbLine
 62
4
  6
CONTINUOUS
 10
10.4589041596
 20
8.6631961501
 11
10.4589041596
 21
8.729431065
  0
LINE
  5
2C0
100
AcDbEntity
  8
0
100
AcDbLine
 62
4
  6
CONTINUOUS
 10
10.1718861846
 20
8.0836749219
 11
10.2050036408
 21
8.1972893219
  0
LINE
  5
2C1
100
AcDbEntity
  8
0
100
AcDbLine
 62
4
  6
CONTINUOUS
 10
10.4037083855
 20
8.6311467433
 11
10.4368258278
 21
8.73924157
  0
LINE
  5
2C2
100
AcDbEntity
  8
0
100
AcDbLine
 62
7
  6
CONTINUOUS
 10
12.414214104
 20
10.6298636342
 11
13.4494894301
 21
11.6298628682
  0
LINE
  5
2C3
100
AcDbEntity
  8
0
100
AcDbLine
 62
4
  6
CONTINUOUS
 10
10.0725338102
 20
8.68171166
 11
10.0890925314
 21
8.6971220386
  0
LINE
  5
2C4
100
AcDbEntity
  8
0
100
AcDbLine
 62
4
  6
CONTINUOUS
 10
12.2331030049
 20
6.7130372699
 11
12.2475918929
 21
6.7023732057
  0
LINE
  5
2C5
100
AcDbEntity
  8
0
100
AcDbLine
 62
4
  6
CONTINUOUS
 10
9.9400639718
 20
8.6991778394
 11
9.9483433367
 21
8.6903242986
  0
LINE
  5
2C6
100
AcDbEntity
  8
0
100
AcDbLine
 62
4
  6
CONTINUOUS
 10
10.5610163393
 20
8.056688654
 11
10.5444576181
 21
8.074395735
  0
LINE
  5
2C7
100
AcDbEntity
  8
0
100
AcDbLine
 62
4
  6
CONTINUOUS
 10
10.0311369797
 20
8.7011412697
 11
10.0476957077
 21
8.6834341882
  0
LINE
  5
2C8
100
AcDbEntity
  8
0
100
AcDbLine
 62
4
  6
CONTINUOUS
 10
10.6576088886
 20
8.049989938
 11
10.6410501675
 21
8.067697019
  0
LINE
  5
2C9
100
AcDbEntity
  8
0
100
AcDbLine
 62
4
  6
CONTINUOUS
 10
9.9897401595
 20
8.8033645226
 11
9.9980195235
 21
8.7945109792
  0
LINE
  5
2CA
100
AcDbEntity
  8
0
100
AcDbLine
 62
4
  6
CONTINUOUS
 10
10.1222099875
 20
8.7941777088
 11
10.1801655392
 21
8.6742473742
  0
LINE
  5
2CB
100
AcDbEntity
  8
0
100
AcDbLine
 62
7
  6
CONTINUOUS
 10
10.5037662907
 20
5.4497612807
 11
10.5037662907
 21
5.354097809
  0
LINE
  5
2CC
100
AcDbEntity
  8
0
100
AcDbLine
 62
4
  6
CONTINUOUS
 10
10.5044406339
 20
8.3901308999
 11
10.5044406339
 21
8.4149689954
  0
LINE
  5
2CD
100
AcDbEntity
  8
0
100
AcDbLine
 62
4
  6
CONTINUOUS
 10
10.5072004254
 20
8.3237045928
 11
10.5072004254
 21
8.3651014156
  0
LINE
  5
2CE
100
AcDbEntity
  8
0
100
AcDbLine
 62
4
  6
CONTINUOUS
 10
10.5085803231
 20
8.767382835
 11
10.5085803231
 21
8.6514717316
  0
LINE
  5
2CF
100
AcDbEntity
  8
0
100
AcDbLine
 62
4
  6
CONTINUOUS
 10
10.5403178815
 20
8.3131285245
 11
10.5403178815
 21
8.4290396279
  0
LINE
  5
2D0
100
AcDbEntity
  8
0
100
AcDbLine
 62
4
  6
CONTINUOUS
 10
10.5416978207
 20
8.6491750253
 11
10.5416978207
 21
8.7319686726
  0
LINE
  5
2D1
100
AcDbEntity
  8
0
100
AcDbLine
 62
4
  6
CONTINUOUS
 10
10.5444576181
 20
8.074395735
 11
10.5444576181
 21
8.1571893806
  0
LINE
  5
2D2
100
AcDbEntity
  8
0
100
AcDbLine
 62
4
  6
CONTINUOUS
 10
10.5803348183
 20
8.7210098202
 11
10.5803348183
 21
8.7044510922
  0
LINE
  5
2D3
100
AcDbEntity
  8
0
100
AcDbLine
 62
4
  6
CONTINUOUS
 10
10.5982734332
 20
8.4084616687
 11
10.5982734332
 21
8.3256680231
  0
LINE
  5
2D4
100
AcDbEntity
  8
0
100
AcDbLine
 62
4
  6
CONTINUOUS
 10
10.6162120936
 20
8.6522868079
 11
10.6162120936
 21
8.6771249026
  0
LINE
  5
2D5
100
AcDbEntity
  8
0
100
AcDbLine
 62
4
  6
CONTINUOUS
 10
10.6410501675
 20
8.067697019
 11
10.6410501675
 21
8.1504906645
  0
LINE
  5
2D6
100
AcDbEntity
  8
0
100
AcDbLine
 62
7
  6
CONTINUOUS
 10
10.6646141236
 20
7.1955813082
 11
10.6646141236
 21
7.1607622292
  0
LINE
  5
2D7
100
AcDbEntity
  8
0
100
AcDbLine
 62
4
  6
CONTINUOUS
 10
10.6658882571
 20
8.6405623893
 11
10.6658882571
 21
8.7067973085
  0
LINE
  5
2D8
100
AcDbEntity
  8
0
100
AcDbLine
 62
7
  6
CONTINUOUS
 10
10.6770343952
 20
5.4377450968
 11
10.6770343952
 21
5.1867339582
  0
LINE
  5
2D9
100
AcDbEntity
  8
0
100
AcDbLine
 62
4
  6
CONTINUOUS
 10
10.6990056994
 20
8.7210593342
 11
10.6990056994
 21
8.6465450518
  0
LINE
  5
2DA
100
AcDbEntity
  8
0
100
AcDbLine
 62
4
  6
CONTINUOUS
 10
10.6990057192
 20
8.1464714334
 11
10.6990057192
 21
8.0636777878
  0
LINE
  5
2DB
100
AcDbEntity
  8
0
100
AcDbLine
 62
7
  6
CONTINUOUS
 10
10.7090271906
 20
5.4355263889
 11
10.7090271906
 21
5.1784536239
  0
LINE
  5
2DC
100
AcDbEntity
  8
0
100
AcDbLine
 62
4
  6
CONTINUOUS
 10
10.7321231615
 20
8.0448223556
 11
10.7321231615
 21
8.160733459
  0
LINE
  5
2DD
100
AcDbEntity
  8
0
100
AcDbLine
 62
4
  6
CONTINUOUS
 10
10.7486819182
 20
8.6348206294
 11
10.7486819182
 21
8.7176142767
  0
LINE
  5
2DE
100
AcDbEntity
  8
0
100
AcDbLine
 62
4
  6
CONTINUOUS
 10
10.1249697849
 20
8.1034873151
 11
10.1084110569
 21
8.088076937
  0
LINE
  5
2DF
100
AcDbEntity
  8
0
100
AcDbLine
 62
4
  6
CONTINUOUS
 10
10.4589041596
 20
8.729431065
 11
10.4754628807
 21
8.7365620813
  0
LINE
  5
2E0
100
AcDbEntity
  8
0
100
AcDbLine
 62
4
  6
CONTINUOUS
 10
10.6162120936
 20
8.6771249026
 11
10.6327708147
 21
8.6842559154
  0
LINE
  5
2E1
100
AcDbEntity
  8
0
100
AcDbLine
 62
4
  6
CONTINUOUS
 10
10.7735199921
 20
8.0419514756
 11
10.7321231615
 21
8.0448223556
  0
LINE
  5
2E2
100
AcDbEntity
  8
0
100
AcDbLine
 62
4
  6
CONTINUOUS
 10
10.682446998
 20
8.0482674092
 11
10.6576088886
 21
8.049989938
  0
LINE
  5
2E3
100
AcDbEntity
  8
0
100
AcDbLine
 62
4
  6
CONTINUOUS
 10
10.5941337816
 20
8.0543919516
 11
10.5610163393
 21
8.056688654
  0
LINE
  5
2E4
100
AcDbEntity
  8
0
100
AcDbLine
 62
4
  6
CONTINUOUS
 10
10.1084110569
 20
8.088076937
 11
10.0670142401
 21
8.090947816
  0
LINE
  5
2E5
100
AcDbEntity
  8
0
100
AcDbLine
 62
4
  6
CONTINUOUS
 10
10.3705909353
 20
8.0698947006
 11
10.4202671265
 21
8.0664496451
  0
LINE
  5
2E6
100
AcDbEntity
  8
0
100
AcDbLine
 62
4
  6
CONTINUOUS
 10
10.8369951543
 20
8.0375494582
 11
10.8866713178
 21
8.0341044045
  0
LINE
  5
2E7
100
AcDbEntity
  8
0
100
AcDbLine
 62
4
  6
CONTINUOUS
 10
10.1829253367
 20
8.1160268137
 11
10.2270819449
 21
8.1129645425
  0
LINE
  5
2E8
100
AcDbEntity
  8
0
100
AcDbLine
 62
4
  6
CONTINUOUS
 10
10.8701125967
 20
8.101487675
 11
10.8369951543
 21
8.1037843774
  0
LINE
  5
2E9
100
AcDbEntity
  8
0
100
AcDbLine
 62
4
  6
CONTINUOUS
 10
10.4037084053
 20
8.1338329155
 11
10.3705909353
 21
8.1361296198
  0
LINE
  5
2EA
100
AcDbEntity
  8
0
100
AcDbLine
 62
4
  6
CONTINUOUS
 10
10.0670142401
 20
8.2068589194
 11
10.1084110569
 21
8.2039880404
  0
LINE
  5
2EB
100
AcDbEntity
  8
0
100
AcDbLine
 62
4
  6
CONTINUOUS
 10
10.2712385531
 20
8.1926959152
 11
10.3374734654
 21
8.1881025084
  0
LINE
  5
2EC
100
AcDbEntity
  8
0
100
AcDbLine
 62
4
  6
CONTINUOUS
 10
10.3705909353
 20
8.1858058041
 11
10.4202671265
 21
8.1823607485
  0
LINE
  5
2ED
100
AcDbEntity
  8
0
100
AcDbLine
 62
4
  6
CONTINUOUS
 10
10.5610163393
 20
8.1725997575
 11
10.5941337816
 21
8.170303055
  0
LINE
  5
2EE
100
AcDbEntity
  8
0
100
AcDbLine
 62
4
  6
CONTINUOUS
 10
10.6576088886
 20
8.1659010414
 11
10.682446998
 21
8.1641785127
  0
LINE
  5
2EF
100
AcDbEntity
  8
0
100
AcDbLine
 62
4
  6
CONTINUOUS
 10
10.7321231615
 20
8.160733459
 11
10.7735199921
 21
8.1578625791
  0
LINE
  5
2F0
100
AcDbEntity
  8
0
100
AcDbLine
 62
4
  6
CONTINUOUS
 10
10.8369951543
 20
8.1534605616
 11
10.8866713178
 21
8.150015508
  0
LINE
  5
2F1
100
AcDbEntity
  8
0
100
AcDbLine
 62
4
  6
CONTINUOUS
 10
10.9197887602
 20
8.1035621974
 11
10.9639453684
 21
8.0784216186
  0
LINE
  5
2F2
100
AcDbEntity
  8
0
100
AcDbLine
 62
4
  6
CONTINUOUS
 10
9.9980195235
 20
8.7199967029
 11
9.9400639718
 21
8.7736921218
  0
LINE
  5
2F3
100
AcDbEntity
  8
0
100
AcDbLine
 62
4
  6
CONTINUOUS
 10
10.682446998
 20
8.1641785127
 11
10.6990057192
 21
8.1464714334
  0
LINE
  5
2F4
100
AcDbEntity
  8
0
100
AcDbLine
 62
4
  6
CONTINUOUS
 10
10.5072004254
 20
8.3651014156
 11
10.4906416904
 21
8.3828084993
  0
LINE
  5
2F5
100
AcDbEntity
  8
0
100
AcDbLine
 62
4
  6
CONTINUOUS
 10
10.7735199921
 20
8.1578625791
 11
10.7900787132
 21
8.1401554998
  0
LINE
  5
2F6
100
AcDbEntity
  8
0
100
AcDbLine
 62
4
  6
CONTINUOUS
 10
10.5817146982
 20
8.4261687489
 11
10.5982734332
 21
8.4084616687
  0
LINE
  5
2F7
100
AcDbEntity
  8
0
100
AcDbLine
 62
4
  6
CONTINUOUS
 10
10.3457528338
 20
8.7455575036
 11
10.3540321944
 21
8.7367039605
  0
LINE
  5
2F8
100
AcDbEntity
  8
0
100
AcDbLine
 62
4
  6
CONTINUOUS
 10
10.5044406339
 20
8.4149689954
 11
10.4906416904
 21
8.4324846835
  0
LINE
  5
2F9
100
AcDbEntity
  8
0
100
AcDbLine
 62
4
  6
CONTINUOUS
 10
10.3871496643
 20
8.7426866237
 11
10.4119877737
 21
8.6581704476
  0
LINE
  5
2FA
100
AcDbEntity
  8
0
100
AcDbLine
 62
4
  6
CONTINUOUS
 10
10.7817993605
 20
8.6408032919
 11
10.7817993605
 21
8.7484350304
  0
LINE
  5
2FB
100
AcDbEntity
  8
0
100
AcDbLine
 62
4
  6
CONTINUOUS
 10
10.7900787132
 20
8.1401554998
 11
10.7900787132
 21
8.0573618542
  0
LINE
  5
2FC
100
AcDbEntity
  8
0
100
AcDbLine
 62
4
  6
CONTINUOUS
 10
10.8107771354
 20
10.1730977464
 11
10.8107771354
 21
10.1634384901
  0
LINE
  5
2FD
100
AcDbEntity
  8
0
100
AcDbLine
 62
4
  6
CONTINUOUS
 10
10.8180215794
 20
10.1146397943
 11
10.8180215794
 21
10.1049805345
  0
LINE
  5
2FE
100
AcDbEntity
  8
0
100
AcDbLine
 62
4
  6
CONTINUOUS
 10
10.8369951543
 20
8.0375494582
 11
10.8369951543
 21
8.1534605616
  0
LINE
  5
2FF
100
AcDbEntity
  8
0
100
AcDbLine
 62
4
  6
CONTINUOUS
 10
10.8563136334
 20
8.6273563446
 11
10.8563136334
 21
8.7101499919
  0
LINE
  5
300
100
AcDbEntity
  8
0
100
AcDbLine
 62
4
  6
CONTINUOUS
 10
10.8563136334
 20
8.7349880806
 11
10.8563136334
 21
8.7432674481
  0
LINE
  5
301
100
AcDbEntity
  8
0
100
AcDbLine
 62
4
  6
CONTINUOUS
 10
10.9004702416
 20
8.6325734383
 11
10.9004702416
 21
8.6988083532
  0
LINE
  5
302
100
AcDbEntity
  8
0
100
AcDbLine
 62
4
  6
CONTINUOUS
 10
10.9749845697
 20
8.6688026749
 11
10.9749845697
 21
8.693640767
  0
LINE
  5
303
100
AcDbEntity
  8
0
100
AcDbLine
 62
4
  6
CONTINUOUS
 10
11.024660678
 20
8.6239608023
 11
11.024660678
 21
8.648798897
  0
LINE
  5
304
100
AcDbEntity
  8
0
100
AcDbLine
 62
4
  6
CONTINUOUS
 10
10.859073411
 20
8.7430760568
 11
10.8563136334
 21
8.7349880806
  0
LINE
  5
305
100
AcDbEntity
  8
0
100
AcDbLine
 62
4
  6
CONTINUOUS
 10
10.9004702416
 20
8.6988083532
 11
10.9087495745
 21
8.706513547
  0
LINE
  5
306
100
AcDbEntity
  8
0
100
AcDbLine
 62
4
  6
CONTINUOUS
 10
10.4989210648
 20
8.3159994035
 11
10.5072004254
 21
8.3237045928
  0
LINE
  5
307
100
AcDbEntity
  8
0
100
AcDbLine
 62
4
  6
CONTINUOUS
 10
10.9749845697
 20
8.693640767
 11
10.9832639027
 21
8.7013459608
  0
LINE
  5
308
100
AcDbEntity
  8
0
100
AcDbLine
 62
4
  6
CONTINUOUS
 10
10.5982734332
 20
8.3256680231
 11
10.5817146982
 21
8.3102576455
  0
LINE
  5
309
100
AcDbEntity
  8
0
100
AcDbLine
 62
4
  6
CONTINUOUS
 10
11.016381345
 20
8.6162556111
 11
11.024660678
 21
8.6239608023
  0
LINE
  5
30A
100
AcDbEntity
  8
0
100
AcDbLine
 62
4
  6
CONTINUOUS
 10
10.5444576181
 20
8.1571893806
 11
10.5610163393
 21
8.1725997575
  0
LINE
  5
30B
100
AcDbEntity
  8
0
100
AcDbLine
 62
4
  6
CONTINUOUS
 10
10.6410501675
 20
8.1504906645
 11
10.6576088886
 21
8.1659010414
  0
LINE
  5
30C
100
AcDbEntity
  8
0
100
AcDbLine
 62
4
  6
CONTINUOUS
 10
10.4906416904
 20
8.3828084993
 11
10.5044406339
 21
8.3901308999
  0
LINE
  5
30D
100
AcDbEntity
  8
0
100
AcDbLine
 62
4
  6
CONTINUOUS
 10
10.0449359326
 20
8.164233447
 11
10.0007793209
 21
8.1452174109
  0
LINE
  5
30E
100
AcDbEntity
  8
0
100
AcDbLine
 62
4
  6
CONTINUOUS
 10
10.5817146982
 20
8.3102576455
 11
10.5403178815
 21
8.3131285245
  0
LINE
  5
30F
100
AcDbEntity
  8
0
100
AcDbLine
 62
4
  6
CONTINUOUS
 10
10.4575242342
 20
8.3188702834
 11
10.4989210648
 21
8.3159994035
  0
LINE
  5
310
100
AcDbEntity
  8
0
100
AcDbLine
 62
4
  6
CONTINUOUS
 10
10.4906416904
 20
8.3828084993
 11
10.4740829623
 21
8.3839568509
  0
LINE
  5
311
100
AcDbEntity
  8
0
100
AcDbLine
 62
4
  6
CONTINUOUS
 10
10.3664512264
 20
8.3914211372
 11
10.4244067781
 21
8.387401906
  0
LINE
  5
312
100
AcDbEntity
  8
0
100
AcDbLine
 62
4
  6
CONTINUOUS
 10
10.4906416904
 20
8.4324846835
 11
10.4575242342
 21
8.4347813869
  0
LINE
  5
313
100
AcDbEntity
  8
0
100
AcDbLine
 62
4
  6
CONTINUOUS
 10
10.5403178815
 20
8.4290396279
 11
10.5817146982
 21
8.4261687489
  0
LINE
  5
314
100
AcDbEntity
  8
0
100
AcDbLine
 62
4
  6
CONTINUOUS
 10
10.4754628807
 20
8.653768434
 11
10.4589041596
 21
8.6631961501
  0
LINE
  5
315
100
AcDbEntity
  8
0
100
AcDbLine
 62
4
  6
CONTINUOUS
 10
10.6327708147
 20
8.6428590917
 11
10.6162120936
 21
8.6522868079
  0
LINE
  5
316
100
AcDbEntity
  8
0
100
AcDbLine
 62
4
  6
CONTINUOUS
 10
10.6990056994
 20
8.6465450518
 11
10.7072850876
 21
8.6376915094
  0
LINE
  5
317
100
AcDbEntity
  8
0
100
AcDbLine
 62
4
  6
CONTINUOUS
 10
10.7900787487
 20
8.6319497495
 11
10.7817993605
 21
8.6408032919
  0
LINE
  5
318
100
AcDbEntity
  8
0
100
AcDbLine
 62
4
  6
CONTINUOUS
 10
10.9087495745
 20
8.6237198997
 11
10.9004702416
 21
8.6325734383
  0
LINE
  5
319
100
AcDbEntity
  8
0
100
AcDbLine
 62
4
  6
CONTINUOUS
 10
12.2041252291
 20
6.6087950409
 11
12.1896363411
 21
6.6291183657
  0
LINE
  5
31A
100
AcDbEntity
  8
0
100
AcDbLine
 62
4
  6
CONTINUOUS
 10
12.2475918929
 20
6.7023732057
 11
12.2548363368
 21
6.6922115386
  0
LINE
  5
31B
100
AcDbEntity
  8
0
100
AcDbLine
 62
4
  6
CONTINUOUS
 10
10.574815263
 20
8.7296719702
 11
10.5803348183
 21
8.7210098202
  0
LINE
  5
31C
100
AcDbEntity
  8
0
100
AcDbLine
 62
4
  6
CONTINUOUS
 10
10.6658882571
 20
8.7067973085
 11
10.6576089241
 21
8.7239302103
  0
LINE
  5
31D
100
AcDbEntity
  8
0
100
AcDbLine
 62
4
  6
CONTINUOUS
 10
10.6990057192
 20
8.0636777878
 11
10.682446998
 21
8.0482674092
  0
LINE
  5
31E
100
AcDbEntity
  8
0
100
AcDbLine
 62
4
  6
CONTINUOUS
 10
10.7900787132
 20
8.0573618542
 11
10.7735199921
 21
8.0419514756
  0
LINE
  5
31F
100
AcDbEntity
  8
0
100
AcDbLine
 62
4
  6
CONTINUOUS
 10
10.3871496643
 20
8.6322950945
 11
10.4037083855
 21
8.6311467433
  0
LINE
  5
320
100
AcDbEntity
  8
0
100
AcDbLine
 62
4
  6
CONTINUOUS
 10
10.9418671274
 20
8.6214231897
 11
10.9087495745
 21
8.6237198997
  0
LINE
  5
321
100
AcDbEntity
  8
0
100
AcDbLine
 62
4
  6
CONTINUOUS
 10
10.8066374699
 20
8.6308013983
 11
10.7900787487
 21
8.6319497495
  0
LINE
  5
322
100
AcDbEntity
  8
0
100
AcDbLine
 62
4
  6
CONTINUOUS
 10
10.6658882571
 20
8.6405623893
 11
10.6327708147
 21
8.6428590917
  0
LINE
  5
323
100
AcDbEntity
  8
0
100
AcDbLine
 62
4
  6
CONTINUOUS
 10
10.5085803231
 20
8.6514717316
 11
10.4754628807
 21
8.653768434
  0
LINE
  5
324
100
AcDbEntity
  8
0
100
AcDbLine
 62
4
  6
CONTINUOUS
 10
9.9483433367
 20
8.6903242986
 11
9.9814607954
 21
8.688027595
  0
LINE
  5
325
100
AcDbEntity
  8
0
100
AcDbLine
 62
4
  6
CONTINUOUS
 10
10.0476957077
 20
8.6834341882
 11
10.0725338102
 21
8.68171166
  0
LINE
  5
326
100
AcDbEntity
  8
0
100
AcDbLine
 62
4
  6
CONTINUOUS
 10
10.7072850876
 20
8.6376915094
 11
10.7486819182
 21
8.6348206294
  0
LINE
  5
327
100
AcDbEntity
  8
0
100
AcDbLine
 62
4
  6
CONTINUOUS
 10
10.9832639027
 20
8.6185523135
 11
11.016381345
 21
8.6162556111
  0
LINE
  5
328
100
AcDbEntity
  8
0
100
AcDbLine
 62
4
  6
CONTINUOUS
 10
10.6327708147
 20
8.6842559154
 11
10.6658882571
 21
8.681959213
  0
LINE
  5
329
100
AcDbEntity
  8
0
100
AcDbLine
 62
4
  6
CONTINUOUS
 10
10.6576089241
 20
8.7239302103
 11
10.6162120936
 21
8.7268010902
  0
LINE
  5
32A
100
AcDbEntity
  8
0
100
AcDbLine
 62
4
  6
CONTINUOUS
 10
10.3043560032
 20
8.7484283836
 11
10.3457528338
 21
8.7455575036
  0
LINE
  5
32B
100
AcDbEntity
  8
0
100
AcDbLine
 62
4
  6
CONTINUOUS
 10
10.4754628807
 20
8.7365620813
 11
10.5085803231
 21
8.7342653789
  0
LINE
  5
32C
100
AcDbEntity
  8
0
100
AcDbLine
 62
4
  6
CONTINUOUS
 10
10.5416978207
 20
8.7319686726
 11
10.574815263
 21
8.7296719702
  0
LINE
  5
32D
100
AcDbEntity
  8
0
100
AcDbLine
 62
4
  6
CONTINUOUS
 10
10.9087495745
 20
8.706513547
 11
10.9418671274
 21
8.7042168369
  0
LINE
  5
32E
100
AcDbEntity
  8
0
100
AcDbLine
 62
4
  6
CONTINUOUS
 10
10.9832639027
 20
8.7013459608
 11
11.016381345
 21
8.6990492584
  0
LINE
  5
32F
100
AcDbEntity
  8
0
100
AcDbLine
 62
4
  6
CONTINUOUS
 10
9.9566227016
 20
8.8056612261
 11
9.9897401595
 21
8.8033645226
  0
LINE
  5
330
100
AcDbEntity
  8
0
100
AcDbLine
 62
4
  6
CONTINUOUS
 10
10.8563136334
 20
8.7432674481
 11
10.859073411
 21
8.7430760568
  0
LINE
  5
331
100
AcDbEntity
  8
0
100
AcDbLine
 62
4
  6
CONTINUOUS
 10
8.6953995446
 20
8.9559125328
 11
8.7533550963
 21
8.9518933017
  0
LINE
  5
332
100
AcDbEntity
  8
0
100
AcDbLine
 62
4
  6
CONTINUOUS
 10
12.1727326332
 20
8.7147586641
 11
12.2306881849
 21
8.7107394329
  0
LINE
  5
333
100
AcDbEntity
  8
0
100
AcDbLine
 62
4
  6
CONTINUOUS
 10
11.016381345
 20
8.6548926467
 11
10.9832639027
 21
8.6627089252
  0
LINE
  5
334
100
AcDbEntity
  8
0
100
AcDbLine
 62
4
  6
CONTINUOUS
 10
10.9832639027
 20
8.6627089252
 11
10.9749845697
 21
8.6688026749
  0
LINE
  5
335
100
AcDbEntity
  8
0
100
AcDbLine
 62
4
  6
CONTINUOUS
 10
11.024660678
 20
8.648798897
 11
11.016381345
 21
8.6548926467
  0
LINE
  5
336
100
AcDbEntity
  8
0
100
AcDbLine
 62
4
  6
CONTINUOUS
 10
10.9749845697
 20
8.6274058521
 11
10.9832639027
 21
8.6185523135
  0
LINE
  5
337
100
AcDbEntity
  8
0
100
AcDbLine
 62
4
  6
CONTINUOUS
 10
11.016381345
 20
8.6990492584
 11
11.024660678
 21
8.6901957172
  0
LINE
  5
338
100
AcDbEntity
  8
0
100
AcDbLine
 62
7
  6
CONTINUOUS
 10
11.3556720646
 20
5.3906814146
 11
11.3556720646
 21
5.1336086496
  0
LINE
  5
339
100
AcDbEntity
  8
0
100
AcDbLine
 62
7
  6
CONTINUOUS
 10
11.3993750235
 20
5.3876506041
 11
11.3993750235
 21
5.1366394655
  0
LINE
  5
33A
100
AcDbEntity
  8
0
100
AcDbLine
 62
7
  6
CONTINUOUS
 10
12.964204121
 20
9.8059192477
 11
12.9655124204
 21
9.8071597358
  0
LINE
  5
33B
100
AcDbEntity
  8
0
100
AcDbLine
 62
4
  6
CONTINUOUS
 10
12.1799770771
 20
8.8205081073
 11
12.194465965
 21
8.8291625558
  0
LINE
  5
33C
100
AcDbEntity
  8
0
100
AcDbLine
 62
4
  6
CONTINUOUS
 10
12.2234437409
 20
8.7788566448
 11
12.194465965
 21
8.7615477443
  0
LINE
  5
33D
100
AcDbEntity
  8
0
100
AcDbLine
 62
4
  6
CONTINUOUS
 10
10.9639453684
 20
8.0784216186
 11
10.9197887602
 21
8.059405584
  0
LINE
  5
33E
100
AcDbEntity
  8
0
100
AcDbLine
 62
4
  6
CONTINUOUS
 10
8.7171328765
 20
9.0703164246
 11
8.7316217644
 21
9.0693116168
  0
LINE
  5
33F
100
AcDbEntity
  8
0
100
AcDbLine
 62
4
  6
CONTINUOUS
 10
12.194465965
 20
8.8291625558
 11
12.208954853
 21
8.828157748
  0
LINE
  5
340
100
AcDbEntity
  8
0
100
AcDbLine
 62
7
  6
CONTINUOUS
 10
11.8727517929
 20
5.3548218137
 11
11.8727517929
 21
5.259158342
  0
LINE
  5
341
100
AcDbEntity
  8
0
100
AcDbLine
 62
4
  6
CONTINUOUS
 10
12.1727326332
 20
8.811351248
 11
12.1799770771
 21
8.8205081073
  0
LINE
  5
342
100
AcDbEntity
  8
0
100
AcDbLine
 62
4
  6
CONTINUOUS
 10
12.194465965
 20
8.7615477443
 11
12.1799770771
 21
8.743234036
  0
LINE
  5
343
100
AcDbEntity
  8
0
100
AcDbLine
 62
4
  6
CONTINUOUS
 10
12.2306881849
 20
8.7880135042
 11
12.2234437409
 21
8.7788566448
  0
LINE
  5
344
100
AcDbEntity
  8
0
100
AcDbLine
 62
4
  6
CONTINUOUS
 10
10.7600660277
 20
10.0896812487
 11
10.7528215837
 21
10.0998429115
  0
LINE
  5
345
100
AcDbEntity
  8
0
100
AcDbLine
 62
4
  6
CONTINUOUS
 10
10.8035326915
 20
10.1349631181
 11
10.8180215794
 21
10.1146397943
  0
LINE
  5
346
100
AcDbEntity
  8
0
100
AcDbLine
 62
4
  6
CONTINUOUS
 10
10.8035326915
 20
10.1832594135
 11
10.8107771354
 21
10.1730977464
  0
LINE
  5
347
100
AcDbEntity
  8
0
100
AcDbLine
 62
4
  6
CONTINUOUS
 10
12.1896363411
 20
6.6291183657
 11
12.1823918972
 21
6.6585985454
  0
LINE
  5
348
100
AcDbEntity
  8
0
100
AcDbLine
 62
7
  6
CONTINUOUS
 10
11.8844619565
 20
5.3540097111
 11
11.8844619565
 21
5.2704694921
  0
LINE
  5
349
100
AcDbEntity
  8
0
100
AcDbLine
 62
4
  6
CONTINUOUS
 10
12.1799770771
 20
8.743234036
 11
12.1727326332
 21
8.7147586641
  0
LINE
  5
34A
100
AcDbEntity
  8
0
100
AcDbLine
 62
4
  6
CONTINUOUS
 10
12.208954853
 20
8.828157748
 11
12.2234437409
 21
8.8174936839
  0
LINE
  5
34B
100
AcDbEntity
  8
0
100
AcDbLine
 62
4
  6
CONTINUOUS
 10
10.7745549156
 20
10.079017182
 11
10.7600660277
 21
10.0896812487
  0
LINE
  5
34C
100
AcDbEntity
  8
0
100
AcDbLine
 62
4
  6
CONTINUOUS
 10
12.2306881849
 20
8.8073320168
 11
12.2306881849
 21
8.7880135042
  0
LINE
  5
34D
100
AcDbEntity
  8
0
100
AcDbLine
 62
4
  6
CONTINUOUS
 10
12.2548363368
 20
6.6535745065
 11
12.2548363368
 21
6.6149374725
  0
LINE
  5
34E
100
AcDbEntity
  8
0
100
AcDbLine
 62
7
  6
CONTINUOUS
 10
12.414214104
 20
5.3172712749
 11
12.414214104
 21
10.6298636342
  0
LINE
  5
34F
100
AcDbEntity
  8
0
100
AcDbLine
 62
4
  6
CONTINUOUS
 10
10.7890438036
 20
10.1456271822
 11
10.8035326915
 21
10.1349631181
  0
LINE
  5
350
100
AcDbEntity
  8
0
100
AcDbLine
 62
4
  6
CONTINUOUS
 10
10.7890438036
 20
10.1939234776
 11
10.8035326915
 21
10.1832594135
  0
LINE
  5
351
100
AcDbEntity
  8
0
100
AcDbLine
 62
4
  6
CONTINUOUS
 10
12.2234437409
 20
8.8174936839
 11
12.2306881849
 21
8.8073320168
  0
LINE
  5
352
100
AcDbEntity
  8
0
100
AcDbLine
 62
4
  6
CONTINUOUS
 10
12.1823918972
 20
6.6585985454
 11
12.1896363411
 21
6.6870739174
  0
LINE
  5
353
100
AcDbEntity
  8
0
100
AcDbLine
 62
4
  6
CONTINUOUS
 10
10.7890438036
 20
10.0780123742
 11
10.7745549156
 21
10.079017182
  0
LINE
  5
354
100
AcDbEntity
  8
0
100
AcDbLine
 62
4
  6
CONTINUOUS
 10
10.7745549156
 20
10.14663199
 11
10.7890438036
 21
10.1456271822
  0
LINE
  5
355
100
AcDbEntity
  8
0
100
AcDbLine
 62
4
  6
CONTINUOUS
 10
10.7745549156
 20
10.1949282854
 11
10.7890438036
 21
10.1939234776
  0
LINE
  5
356
100
AcDbEntity
  8
0
100
AcDbLine
 62
4
  6
CONTINUOUS
 10
12.1896363411
 20
6.6870739174
 11
12.2041252291
 21
6.7053876291
  0
LINE
  5
357
100
AcDbEntity
  8
0
100
AcDbLine
 62
4
  6
CONTINUOUS
 10
12.2548363368
 20
6.6149374725
 11
12.2475918929
 21
6.6057806175
  0
LINE
  5
358
100
AcDbEntity
  8
0
100
AcDbLine
 62
7
  6
CONTINUOUS
 10
12.7053852895
 20
7.1971283966
 11
12.7060702823
 21
7.1977778154
  0
LINE
  5
359
100
AcDbEntity
  8
0
100
AcDbLine
 62
4
  6
CONTINUOUS
 10
12.2041252291
 20
6.7053876291
 11
12.218614117
 21
6.7140420776
  0
LINE
  5
35A
100
AcDbEntity
  8
0
100
AcDbLine
 62
4
  6
CONTINUOUS
 10
12.2475918929
 20
6.6057806175
 11
12.2331030049
 21
6.5971261664
  0
LINE
  5
35B
100
AcDbEntity
  8
0
100
AcDbLine
 62
7
  6
CONTINUOUS
 10
12.414214104
 20
10.6298636342
 11
8.5505105699
 21
10.8978123844
  0
LINE
  5
35C
100
AcDbEntity
  8
0
100
AcDbLine
 62
7
  6
CONTINUOUS
 10
13.4494894301
 20
11.6298628682
 11
13.4494894301
 21
6.3172705088
  0
LINE
  5
35D
100
AcDbEntity
  8
0
100
AcDbLine
 62
7
  6
CONTINUOUS
 10
13.4494894301
 20
6.3172705088
 11
12.414214104
 21
5.3172712749
  0
LINE
  5
35E
100
AcDbEntity
  8
0
100
AcDbLine
 62
7
  6
CONTINUOUS
 10
11.7746818261
 20
5.2036795832
 11
11.7432990757
 21
5.1881771054
  0
LINE
  5
35F
100
AcDbEntity
  8
0
100
AcDbLine
 62
7
  6
CONTINUOUS
 10
13.4494894301
 20
11.6298628682
 11
9.585785896
 21
11.8978116184
  0
ARC
  5
360
100
AcDbEntity
  8
0
100
AcDbCircle
 62
7
  6
CONTINUOUS
 10
11.2062314109
 20
7.6050771688
 40
2.4759824616
100
AcDbArc
 50
273.460253038
 51
274.4740090323
  0
ARC
  5
361
100
AcDbEntity
  8
0
100
AcDbCircle
 62
7
  6
CONTINUOUS
 10
10.9640880493
 20
6.2298799359
 40
1.0819211298
100
AcDbArc
 50
254.6141230724
 51
256.3642747627
  0
ARC
  5
362
100
AcDbEntity
  8
0
100
AcDbCircle
 62
7
  6
CONTINUOUS
 10
11.3964502437
 20
5.9675926605
 40
0.8524210625
100
AcDbArc
 50
293.9860710649
 51
296.3129872661
  0
ARC
  5
363
100
AcDbEntity
  8
0
100
AcDbCircle
 62
7
  6
CONTINUOUS
 10
11.7837271721
 20
5.3634645303
 40
0.137131922
100
AcDbArc
 50
310.4805308012
 51
313.9817446454
  0
ARC
  5
364
100
AcDbEntity
  8
0
100
AcDbCircle
 62
7
  6
CONTINUOUS
 10
10.6711822391
 20
5.2847073648
 40
0.0981089067
100
AcDbArc
 50
254.8737411393
 51
256.015771027
  0
ARC
  5
365
100
AcDbEntity
  8
0
100
AcDbCircle
 62
7
  6
CONTINUOUS
 10
10.7010111646
 20
7.155435039
 40
0.0384332973
100
AcDbArc
 50
163.5905206336
 51
168.9769998942
  0
LINE
  5
366
100
AcDbEntity
  8
0
100
AcDbLine
 62
7
  6
CONTINUOUS
 10
11.8844619565
 20
5.2704694921
 11
11.878955575
 21
5.2647897346
  0
SPLINE
  5
367
100
AcDbEntity
  8
0
100
AcDbSpline
 62
7
  6
CONTINUOUS
 70
0
 71
3
 72
9
 73
5
 74
0
 42
0.0000001
 43
0.0000001
 44
0.0000000001
 40
0.0
 40
0.0
 40
0.0
 40
0.0
 40
0.5046579896
 40
1.0
 40
1.0
 40
1.0
 40
1.0
 10
11.8727517929
 20
5.259158342
 30
0.0
 10
11.8566584804
 20
5.2490008434
 30
0.0
 10
11.8243406796
 20
5.2295405496
 30
0.0
 10
11.7910522795
 20
5.2117712147
 30
0.0
 10
11.7743066673
 20
5.2034943743
 30
0.0
  0
SPLINE
  5
368
100
AcDbEntity
  8
0
100
AcDbSpline
 62
7
  6
CONTINUOUS
 70
0
 71
3
 72
21
 73
17
 74
0
 42
0.0000001
 43
0.0000001
 44
0.0000000001
 40
0.0
 40
0.0
 40
0.0
 40
0.0
 40
0.1634959205
 40
0.31652721
 40
0.3889817427
 40
0.4586645299
 40
0.5255361427
 40
0.5895688777
 40
0.6507434036
 40
0.7090487715
 40
0.7644894714
 40
0.8170840999
 40
0.8668653557
 40
0.9138881598
 40
0.9582315703
 40
1.0
 40
1.0
 40
1.0
 40
1.0
 10
10.8057227098
 20
7.0951573702
 30
0.0
 10
10.7974396473
 20
7.0973266277
 30
0.0
 10
10.7814684692
 20
7.1017798775
 30
0.0
 10
10.7620547892
 20
7.1079713513
 30
0.0
 10
10.7474861855
 20
7.1131431559
 30
0.0
 10
10.7372567156
 20
7.1170412467
 30
0.0
 10
10.727535397
 20
7.1210254055
 30
0.0
 10
10.7183328232
 20
7.1250910408
 30
0.0
 10
10.7096590285
 20
7.1292335318
 30
0.0
 10
10.7015236773
 20
7.1334486734
 30
0.0
 10
10.6939355461
 20
7.137731701
 30
0.0
 10
10.6869026974
 20
7.142077822
 30
0.0
 10
10.6804329528
 20
7.1464827527
 30
0.0
 10
10.6745331157
 20
7.1509419709
 30
0.0
 10
10.6692096043
 20
7.1554503996
 30
0.0
 10
10.6659541818
 20
7.158577079
 30
0.0
 10
10.6644326452
 20
7.1601486516
 30
0.0
  0
SPLINE
  5
369
100
AcDbEntity
  8
0
100
AcDbSpline
 62
7
  6
CONTINUOUS
 70
0
 71
3
 72
23
 73
19
 74
0
 42
0.0000001
 43
0.0000001
 44
0.0000000001
 40
0.0
 40
0.0
 40
0.0
 40
0.0
 40
0.0433457487
 40
0.0887141091
 40
0.1363573647
 40
0.1864949178
 40
0.2392956118
 40
0.2948831072
 40
0.3533267235
 40
0.4146494686
 40
0.4788289665
 40
0.5458050177
 40
0.6154867711
 40
0.6877590178
 40
0.7624900115
 40
0.8395391943
 40
0.9187591375
 40
1.0
 40
1.0
 40
1.0
 40
1.0
 10
10.6267707197
 20
5.1971471997
 30
0.0
 10
10.6241472945
 20
5.1984412733
 30
0.0
 10
10.618879903
 20
5.2013010559
 30
0.0
 10
10.6111289599
 20
5.2062746558
 30
0.0
 10
10.603366717
 20
5.212037504
 30
0.0
 10
10.5956003021
 20
5.2186007196
 30
0.0
 10
10.5878337238
 20
5.2259659492
 30
0.0
 10
10.5800731764
 20
5.2341290547
 30
0.0
 10
10.5723230577
 20
5.2430770687
 30
0.0
 10
10.5645885068
 20
5.2527907895
 30
0.0
 10
10.5568738277
 20
5.2632445046
 30
0.0
 10
10.5491827693
 20
5.2744072875
 30
0.0
 10
10.5415188622
 20
5.2862444629
 30
0.0
 10
10.5338845009
 20
5.2987182442
 30
0.0
 10
10.5262818854
 20
5.3117896152
 30
0.0
 10
10.5187122545
 20
5.3254187996
 30
0.0
 10
10.5111764942
 20
5.3395662754
 30
0.0
 10
10.5062347834
 20
5.3492023309
 30
0.0
 10
10.5037662907
 20
5.354097809
 30
0.0
  0
SPLINE
  5
36A
100
AcDbEntity
  8
0
100
AcDbSpline
 62
7
  6
CONTINUOUS
 70
0
 71
3
 72
46
 73
42
 74
0
 42
0.0000001
 43
0.0000001
 44
0.0000000001
 40
0.0
 40
0.0
 40
0.0
 40
0.0
 40
0.009987442
 40
0.0204476137
 40
0.0313771087
 40
0.042770719
 40
0.0546216827
 40
0.0669224299
 40
0.0796639586
 40
0.092836054
 40
0.1204269473
 40
0.1495982457
 40
0.1802404493
 40
0.2122336402
 40
0.2454488195
 40
0.2797495924
 40
0.3149928343
 40
0.3510297406
 40
0.3877071311
 40
0.4248680709
 40
0.4623528245
 40
0.4999999707
 40
0.5376471181
 40
0.5751319032
 40
0.6122928703
 40
0.6489702712
 40
0.6850072643
 40
0.7202505753
 40
0.7545513746
 40
0.7877666801
 40
0.8197599616
 40
0.8504022183
 40
0.879573693
 40
0.9071646914
 40
0.9330772419
 40
0.9453781444
 40
0.9572291907
 40
0.9686227884
 40
0.9795523871
 40
0.9900125566
 40
1.0
 40
1.0
 40
1.0
 40
1.0
 10
11.7433044122
 20
5.1881798047
 30
0.0
 10
11.7399636493
 20
5.1865295027
 30
0.0
 10
11.7330669465
 20
5.1832653378
 30
0.0
 10
11.7223402118
 20
5.1785740025
 30
0.0
 10
11.7110035147
 20
5.1739795634
 30
0.0
 10
11.6990700378
 20
5.1694873506
 30
0.0
 10
11.6865534922
 20
5.1651022597
 30
0.0
 10
11.6734681369
 20
5.1608296806
 30
0.0
 10
11.6598290128
 20
5.1566744124
 30
0.0
 10
11.6406282433
 20
5.1512121563
 30
0.0
 10
11.6153475247
 20
5.1447379572
 30
0.0
 10
11.5835194444
 20
5.1376234081
 30
0.0
 10
11.5498942002
 20
5.1310819396
 30
0.0
 10
11.5146267967
 20
5.1251441472
 30
0.0
 10
11.4778795893
 20
5.1198376568
 30
0.0
 10
11.439822015
 20
5.1151874582
 30
0.0
 10
11.4006296403
 20
5.1112153827
 30
0.0
 10
11.3604834011
 20
5.1079397808
 30
0.0
 10
11.3195686567
 20
5.1053760852
 30
0.0
 10
11.2780743569
 20
5.103536366
 30
0.0
 10
11.2361921888
 20
5.1024289965
 30
0.0
 10
11.1941156389
 20
5.1020592536
 30
0.0
 10
11.1520390777
 20
5.1024289776
 30
0.0
 10
11.110156884
 20
5.1035362282
 30
0.0
 10
11.0686625566
 20
5.1053759217
 30
0.0
 10
11.0277477657
 20
5.1079396074
 30
0.0
 10
10.9876014548
 20
5.1112150928
 30
0.0
 10
10.9484090083
 20
5.1151871368
 30
0.0
 10
10.9103513499
 20
5.1198373404
 30
0.0
 10
10.8736040417
 20
5.1251437155
 30
0.0
 10
10.8383365027
 20
5.1310814664
 30
0.0
 10
10.8047112348
 20
5.1376229843
 30
0.0
 10
10.7728826829
 20
5.1447373371
 30
0.0
 10
10.7429973579
 20
5.1523912239
 30
0.0
 10
10.7194335465
 20
5.1593040577
 30
0.0
 10
10.7016765859
 20
5.1651015783
 30
0.0
 10
10.6891599361
 20
5.1694867045
 30
0.0
 10
10.677226426
 20
5.1739789921
 30
0.0
 10
10.6658896317
 20
5.1785732809
 30
0.0
 10
10.6551628269
 20
5.1832645552
 30
0.0
 10
10.6482661402
 20
5.186528754
 30
0.0
 10
10.6449253774
 20
5.1881790573
 30
0.0
  0
SPLINE
  5
36B
100
AcDbEntity
  8
0
100
AcDbSpline
 62
7
  6
CONTINUOUS
 70
0
 71
3
 72
11
 73
7
 74
0
 42
0.0000001
 43
0.0000001
 44
0.0000000001
 40
0.0
 40
0.0
 40
0.0
 40
0.0
 40
0.2464179584
 40
0.4942839735
 40
0.7449565552
 40
1.0
 40
1.0
 40
1.0
 40
1.0
 10
10.6770343952
 20
5.1867339582
 30
0.0
 10
10.6745904415
 20
5.1866084934
 30
0.0
 10
10.6696779726
 20
5.1865205045
 30
0.0
 10
10.6622838996
 20
5.1869142791
 30
0.0
 10
10.654854326
 20
5.1878696102
 30
0.0
 10
10.6499315171
 20
5.1888941218
 30
0.0
 10
10.6474737503
 20
5.1895061824
 30
0.0
  0
SPLINE
  5
36C
100
AcDbEntity
  8
0
100
AcDbSpline
 62
7
  6
CONTINUOUS
 70
0
 71
3
 72
9
 73
5
 74
0
 42
0.0000001
 43
0.0000001
 44
0.0000000001
 40
0.0
 40
0.0
 40
0.0
 40
0.0
 40
0.4896161665
 40
1.0
 40
1.0
 40
1.0
 40
1.0
 10
10.6455810181
 20
5.1899976238
 30
0.0
 10
10.6424068124
 20
5.1908556056
 30
0.0
 10
10.6360081729
 20
5.1929349893
 30
0.0
 10
10.6298446691
 20
5.195630893
 30
0.0
 10
10.6267707197
 20
5.1971471997
 30
0.0
  0
SPLINE
  5
36D
100
AcDbEntity
  8
0
100
AcDbSpline
 62
7
  6
CONTINUOUS
 70
0
 71
3
 72
13
 73
9
 74
0
 42
0.0000001
 43
0.0000001
 44
0.0000000001
 40
0.0
 40
0.0
 40
0.0
 40
0.0
 40
0.2729610319
 40
0.5314261242
 40
0.6548276699
 40
0.774144865
 40
0.8892421503
 40
1.0
 40
1.0
 40
1.0
 40
1.0
 10
10.8387988683
 20
7.0571980078
 30
0.0
 10
10.8254676693
 20
7.0595089214
 30
0.0
 10
10.7995730319
 20
7.0643632244
 30
0.0
 10
10.7678645213
 20
7.0713286138
 30
0.0
 10
10.7437493681
 20
7.0773008367
 30
0.0
 10
10.7266147584
 20
7.0818849135
 30
0.0
 10
10.7101772827
 20
7.0866365611
 30
0.0
 10
10.6994908165
 20
7.089976396
 30
0.0
 10
10.6942706013
 20
7.0916762213
 30
0.0
  0
SPLINE
  5
36E
100
AcDbEntity
  8
0
100
AcDbSpline
 62
7
  6
CONTINUOUS
 70
0
 71
3
 72
11
 73
7
 74
0
 42
0.0000001
 43
0.0000001
 44
0.0000000001
 40
0.0
 40
0.0
 40
0.0
 40
0.0
 40
0.27021247
 40
0.5277179873
 40
0.7713350999
 40
1.0
 40
1.0
 40
1.0
 40
1.0
 10
10.8528016926
 20
7.0383162781
 30
0.0
 10
10.8394150258
 20
7.0404472628
 30
0.0
 10
10.8133218356
 20
7.044937108
 30
0.0
 10
10.7753815079
 20
7.0525652374
 30
0.0
 10
10.739725174
 20
7.0608929428
 30
0.0
 10
10.7168495851
 20
7.0670845267
 30
0.0
 10
10.7058413795
 20
7.0703098732
 30
0.0
  0
SPLINE
  5
36F
100
AcDbEntity
  8
0
100
AcDbSpline
 62
7
  6
CONTINUOUS
 70
0
 71
3
 72
21
 73
17
 74
0
 42
0.0000001
 43
0.0000001
 44
0.0000000001
 40
0.0
 40
0.0
 40
0.0
 40
0.0
 40
0.066508053
 40
0.1323638847
 40
0.1975675177
 40
0.2621277743
 40
0.3260642674
 40
0.3894049724
 40
0.4521874815
 40
0.5144551981
 40
0.5762571041
 40
0.6376446408
 40
0.698669726
 40
0.7593834445
 40
0.8800506697
 40
1.0
 40
1.0
 40
1.0
 40
1.0
 10
11.7429718023
 20
5.1887830065
 30
0.0
 10
11.7358406598
 20
5.185615053
 30
0.0
 10
11.7215551081
 20
5.1795172083
 30
0.0
 10
11.6999586414
 20
5.1710865471
 30
0.0
 10
11.6783118977
 20
5.1634456058
 30
0.0
 10
11.6566298308
 20
5.1566209174
 30
0.0
 10
11.634929906
 20
5.150627264
 30
0.0
 10
11.6132289695
 20
5.1454757371
 30
0.0
 10
11.5915452711
 20
5.1411639152
 30
0.0
 10
11.5698953857
 20
5.1376848564
 30
0.0
 10
11.5482953265
 20
5.1350201469
 30
0.0
 10
11.5267589706
 20
5.1331462192
 30
0.0
 10
11.5052979632
 20
5.1320324579
 30
0.0
 10
11.4768575
 20
5.1315149746
 30
0.0
 10
11.4414957735
 20
5.1325771541
 30
0.0
 10
11.4133584228
 20
5.1350520027
 30
0.0
 10
11.3993750235
 20
5.1366394655
 30
0.0
  0
SPLINE
  5
370
100
AcDbEntity
  8
0
100
AcDbSpline
 62
7
  6
CONTINUOUS
 70
0
 71
3
 72
21
 73
17
 74
0
 42
0.0000001
 43
0.0000001
 44
0.0000000001
 40
0.0
 40
0.0
 40
0.0
 40
0.0
 40
0.1229782982
 40
0.1846437121
 40
0.2464406137
 40
0.308381136
 40
0.3704758731
 40
0.4327332085
 40
0.4951582589
 40
0.5577520389
 40
0.6205114325
 40
0.6834297978
 40
0.7464974582
 40
0.8097023547
 40
0.8730312648
 40
1.0
 40
1.0
 40
1.0
 40
1.0
 10
11.3556720646
 20
5.1336086496
 30
0.0
 10
11.3292864904
 20
5.1282464615
 30
0.0
 10
11.2894556672
 20
5.1211793227
 30
0.0
 10
11.235954016
 20
5.1141405248
 30
0.0
 10
11.1955504664
 20
5.1101497201
 30
0.0
 10
11.1549385438
 20
5.1075551883
 30
0.0
 10
11.1141571136
 20
5.1064454579
 30
0.0
 10
11.0732563118
 20
5.1068889455
 30
0.0
 10
11.0322942528
 20
5.108927989
 30
0.0
 10
10.9913336445
 20
5.1125746092
 30
0.0
 10
10.9504369487
 20
5.117807715
 30
0.0
 10
10.9096618024
 20
5.1245766374
 30
0.0
 10
10.8690576934
 20
5.1328059016
 30
0.0
 10
10.8286628893
 20
5.142401521
 30
0.0
 10
10.7750779116
 20
5.156887019
 30
0.0
 10
10.7353306723
 20
5.1694598137
 30
0.0
 10
10.7090271906
 20
5.1784536239
 30
0.0
  0
SPLINE
  5
371
100
AcDbEntity
  8
0
100
AcDbSpline
 62
7
  6
CONTINUOUS
 70
0
 71
3
 72
23
 73
19
 74
0
 42
0.0000001
 43
0.0000001
 44
0.0000000001
 40
0.0
 40
0.0
 40
0.0
 40
0.0
 40
0.0637769127
 40
0.127344953
 40
0.1907019652
 40
0.2538561227
 40
0.3168132057
 40
0.3795820872
 40
0.4421733866
 40
0.5045993385
 40
0.5668738691
 40
0.6290123824
 40
0.6910316505
 40
0.7529496453
 40
0.8147853569
 40
0.8765586065
 40
0.9382898561
 40
1.0
 40
1.0
 40
1.0
 40
1.0
 10
10.9411499064
 20
6.7695485281
 30
0.0
 10
10.9411499064
 20
6.7625593227
 30
0.0
 10
10.9408153625
 20
6.7486014337
 30
0.0
 10
10.9393054659
 20
6.7277495199
 30
0.0
 10
10.9367914452
 20
6.7070628836
 30
0.0
 10
10.9332793421
 20
6.6865901166
 30
0.0
 10
10.9287769865
 20
6.6663780108
 30
0.0
 10
10.9232947917
 20
6.6464732906
 30
0.0
 10
10.9168453682
 20
6.6269218108
 30
0.0
 10
10.9094435293
 20
6.6077686579
 30
0.0
 10
10.9011062772
 20
6.5890580184
 30
0.0
 10
10.8918528002
 20
6.5708330504
 30
0.0
 10
10.8817044372
 20
6.5531357834
 30
0.0
 10
10.8706845559
 20
6.5360070317
 30
0.0
 10
10.8588185639
 20
6.5194863626
 30
0.0
 10
10.8461336676
 20
6.5036117706
 30
0.0
 10
10.8326596397
 20
6.4884203601
 30
0.0
 10
10.8231698115
 20
6.4787697682
 30
0.0
 10
10.8183056902
 20
6.4740714075
 30
0.0
  0
SPLINE
  5
372
100
AcDbEntity
  8
0
100
AcDbSpline
 62
7
  6
CONTINUOUS
 70
0
 71
3
 72
24
 73
20
 74
0
 42
0.0000001
 43
0.0000001
 44
0.0000000001
 40
0.0
 40
0.0
 40
0.0
 40
0.0
 40
0.0621581759
 40
0.124018555
 40
0.1548619013
 40
0.1856554064
 40
0.2471220998
 40
0.3085088265
 40
0.3698988947
 40
0.4313763835
 40
0.4930238556
 40
0.5549204485
 40
0.6171399412
 40
0.6797486853
 40
0.7428029398
 40
0.8063451751
 40
0.8703991002
 40
0.9349627932
 40
1.0
 40
1.0
 40
1.0
 40
1.0
 10
10.9272906415
 20
6.8795712003
 30
0.0
 10
10.9186556617
 20
6.8825203133
 30
0.0
 10
10.9016433601
 20
6.889059359
 30
0.0
 10
10.8810746771
 20
6.898791677
 30
0.0
 10
10.8651367908
 20
6.9074391896
 30
0.0
 10
10.8495732049
 20
6.9166300742
 30
0.0
 10
10.8307788809
 20
6.9291373179
 30
0.0
 10
10.8093434659
 20
6.9456647475
 30
0.0
 10
10.789067941
 20
6.9635974374
 30
0.0
 10
10.7699724813
 20
6.9828335646
 30
0.0
 10
10.7520662059
 20
7.0032785125
 30
0.0
 10
10.7353513438
 20
7.0248448474
 30
0.0
 10
10.7198255291
 20
7.0474523626
 30
0.0
 10
10.7054842857
 20
7.0710271798
 30
0.0
 10
10.6923231221
 20
7.0955002345
 30
0.0
 10
10.6803394508
 20
7.1208049043
 30
0.0
 10
10.6695341504
 20
7.146874201
 30
0.0
 10
10.6599132724
 20
7.1736355461
 30
0.0
 10
10.6543143733
 20
7.1918264937
 30
0.0
 10
10.6517137509
 20
7.2010128086
 30
0.0
  0
SPLINE
  5
373
100
AcDbEntity
  8
0
100
AcDbSpline
 62
7
  6
CONTINUOUS
 70
0
 71
3
 72
39
 73
35
 74
0
 42
0.0000001
 43
0.0000001
 44
0.0000000001
 40
0.0
 40
0.0
 40
0.0
 40
0.0
 40
0.0310753511
 40
0.0623079071
 40
0.0936931323
 40
0.1252222879
 40
0.1568840438
 40
0.1886642044
 40
0.2205461649
 40
0.2525112495
 40
0.2845391085
 40
0.3166081364
 40
0.3486959075
 40
0.3807796234
 40
0.4128365659
 40
0.4448445499
 40
0.4767823666
 40
0.5086302146
 40
0.540370109
 40
0.5719862657
 40
0.6034654504
 40
0.6347972851
 40
0.6659745049
 40
0.6969931576
 40
0.7278527402
 40
0.7585562639
 40
0.7891102404
 40
0.8195245852
 40
0.8498124376
 40
0.8799898966
 40
0.9100756756
 40
0.9400906817
 40
0.970057529
 40
1.0
 40
1.0
 40
1.0
 40
1.0
 10
10.9411499064
 20
6.7695485281
 30
0.0
 10
10.9411499064
 20
6.7803923317
 30
0.0
 10
10.9403409848
 20
6.8021431406
 30
0.0
 10
10.9367293114
 20
6.8346652323
 30
0.0
 10
10.930736672
 20
6.8669963528
 30
0.0
 10
10.9223961702
 20
6.8989566782
 30
0.0
 10
10.9117539986
 20
6.9303713037
 30
0.0
 10
10.8988688067
 20
6.9610676433
 30
0.0
 10
10.8838115656
 20
6.990877281
 30
0.0
 10
10.8666651212
 20
7.0196366393
 30
0.0
 10
10.8475237287
 20
7.0471879234
 30
0.0
 10
10.8264925406
 20
7.0733799566
 30
0.0
 10
10.8036870349
 20
7.0980690041
 30
0.0
 10
10.7792323869
 20
7.1211195481
 30
0.0
 10
10.7532628161
 20
7.142405054
 30
0.0
 10
10.7259208294
 20
7.1618086363
 30
0.0
 10
10.6973564475
 20
7.1792236897
 30
0.0
 10
10.6677263941
 20
7.1945544708
 30
0.0
 10
10.637193247
 20
7.2077166155
 30
0.0
 10
10.6059245674
 20
7.2186376204
 30
0.0
 10
10.5740919926
 20
7.2272572563
 30
0.0
 10
10.5418702951
 20
7.2335278712
 30
0.0
 10
10.5094364415
 20
7.2374146643
 30
0.0
 10
10.4769686347
 20
7.2388958878
 30
0.0
 10
10.4446453492
 20
7.2379629768
 30
0.0
 10
10.4126443569
 20
7.2346206563
 30
0.0
 10
10.381141751
 20
7.2288869069
 30
0.0
 10
10.350310977
 20
7.2207928762
 30
0.0
 10
10.3203218903
 20
7.2103827511
 30
0.0
 10
10.2913397537
 20
7.1977134759
 30
0.0
 10
10.2635245214
 20
7.1828546884
 30
0.0
 10
10.2370291147
 20
7.1658875797
 30
0.0
 10
10.2120015613
 20
7.146907348
 30
0.0
 10
10.1963804068
 20
7.1329750728
 30
0.0
 10
10.1888652722
 20
7.1257160406
 30
0.0
  0
SPLINE
  5
374
100
AcDbEntity
  8
0
100
AcDbSpline
 62
7
  6
CONTINUOUS
 70
0
 71
3
 72
32
 73
28
 74
0
 42
0.0000001
 43
0.0000001
 44
0.0000000001
 40
0.0
 40
0.0
 40
0.0
 40
0.0
 40
0.0399856625
 40
0.0818796988
 40
0.1259314186
 40
0.1723141107
 40
0.2211530584
 40
0.2725507571
 40
0.2992499026
 40
0.3266312242
 40
0.3834965178
 40
0.4130551765
 40
0.4434020622
 40
0.4745832883
 40
0.5066554137
 40
0.5396887491
 40
0.5737704017
 40
0.6090060868
 40
0.6455215545
 40
0.683462368
 40
0.7229897426
 40
0.7642701593
 40
0.8074565943
 40
0.8526589029
 40
0.899903836
 40
0.9490972351
 40
1.0
 40
1.0
 40
1.0
 40
1.0
 10
11.5250487851
 20
10.2025405646
 30
0.0
 10
11.5220864146
 20
10.1999689293
 30
0.0
 10
11.5157069685
 20
10.1950550501
 30
0.0
 10
11.5051530652
 20
10.1885923945
 30
0.0
 10
11.4934378902
 20
10.1829490582
 30
0.0
 10
11.4805935516
 20
10.1782279047
 30
0.0
 10
11.4666606878
 20
10.1745671499
 30
0.0
 10
11.454345541
 20
10.1725756998
 30
0.0
 10
11.4440313789
 20
10.1716891714
 30
0.0
 10
11.4331492794
 20
10.1713204474
 30
0.0
 10
11.4219689249
 20
10.1718560506
 30
0.0
 10
11.4106114244
 20
10.1733965336
 30
0.0
 10
11.401841271
 20
10.1751441176
 30
0.0
 10
11.3929652748
 20
10.1775246161
 30
0.0
 10
11.384025079
 20
10.1806002712
 30
0.0
 10
11.3750729004
 20
10.1844385306
 30
0.0
 10
11.3661729911
 20
10.1891118903
 30
0.0
 10
11.3574048838
 20
10.1946970092
 30
0.0
 10
11.3488666734
 20
10.201272401
 30
0.0
 10
11.3406784627
 20
10.2089143608
 30
0.0
 10
11.3329853073
 20
10.2176903492
 30
0.0
 10
11.3259584175
 20
10.2276489876
 30
0.0
 10
11.3197924959
 20
10.2388064255
 30
0.0
 10
11.314697063
 20
10.2511298767
 30
0.0
 10
11.3108785312
 20
10.2645228088
 30
0.0
 10
11.3085152218
 20
10.2788133905
 30
0.0
 10
11.3079976462
 20
10.2886429282
 30
0.0
 10
11.3079976462
 20
10.2936368476
 30
0.0
  0
SPLINE
  5
375
100
AcDbEntity
  8
0
100
AcDbSpline
 62
7
  6
CONTINUOUS
 70
0
 71
3
 72
15
 73
11
 74
0
 42
0.0000001
 43
0.0000001
 44
0.0000000001
 40
0.0
 40
0.0
 40
0.0
 40
0.0
 40
0.1273483176
 40
0.2538606274
 40
0.3795878627
 40
0.5046051194
 40
0.6290174385
 40
0.7529533738
 40
0.8765605773
 40
1.0
 40
1.0
 40
1.0
 40
1.0
 10
11.5492163459
 20
10.1046362332
 30
0.0
 10
11.5492163459
 20
10.0981378533
 30
0.0
 10
11.5485958778
 20
10.0851747697
 30
0.0
 10
11.5457898932
 20
10.0659794696
 30
0.0
 10
11.5411370929
 20
10.0472664754
 30
0.0
 10
11.5346795162
 20
10.0292107899
 30
0.0
 10
11.526476368
 20
10.0119789376
 30
0.0
 10
11.516602472
 20
9.9957300258
 30
0.0
 10
11.5051506716
 20
9.9806162921
 30
0.0
 10
11.496528047
 20
9.9713839604
 30
0.0
 10
11.4919975194
 20
9.9670078144
 30
0.0
  0
SPLINE
  5
376
100
AcDbEntity
  8
0
100
AcDbSpline
 62
7
  6
CONTINUOUS
 70
0
 71
3
 72
9
 73
5
 74
0
 42
0.0000001
 43
0.0000001
 44
0.0000000001
 40
0.0
 40
0.0
 40
0.0
 40
0.0
 40
0.4960932286
 40
1.0
 40
1.0
 40
1.0
 40
1.0
 10
11.3079976462
 20
10.2936368476
 30
0.0
 10
11.3079976462
 20
10.298336106
 30
0.0
 10
11.3084670051
 20
10.3078135216
 30
0.0
 10
11.3098104852
 20
10.3172044078
 30
0.0
 10
11.310688826
 20
10.3218961715
 30
0.0
  0
SPLINE
  5
377
100
AcDbEntity
  8
0
100
AcDbSpline
 62
7
  6
CONTINUOUS
 70
0
 71
3
 72
41
 73
37
 74
0
 42
0.0000001
 43
0.0000001
 44
0.0000000001
 40
0.0
 40
0.0
 40
0.0
 40
0.0
 40
0.0310747705
 40
0.0623072725
 40
0.0936920139
 40
0.1252208392
 40
0.1568822171
 40
0.1886620102
 40
0.2205435978
 40
0.2525083095
 40
0.2845357945
 40
0.3166044477
 40
0.3486918434
 40
0.3807751835
 40
0.4128317507
 40
0.4448393598
 40
0.4767768022
 40
0.5086242765
 40
0.5403637988
 40
0.5719795854
 40
0.603458402
 40
0.6347898701
 40
0.6659667248
 40
0.6969850144
 40
0.7278442368
 40
0.7585474029
 40
0.7891010235
 40
0.8195150139
 40
0.8498025133
 40
0.8649066328
 40
0.8799853948
 40
0.9100708242
 40
0.9400854817
 40
0.9550762305
 40
0.9700578769
 40
1.0
 40
1.0
 40
1.0
 40
1.0
 10
11.5492163459
 20
10.1046362332
 30
0.0
 10
11.5492163459
 20
10.1096870643
 30
0.0
 10
11.5488395498
 20
10.1198182492
 30
0.0
 10
11.5471573331
 20
10.1349665089
 30
0.0
 10
11.5443660251
 20
10.1500258486
 30
0.0
 10
11.5404811696
 20
10.164912434
 30
0.0
 10
11.5355242051
 20
10.179544854
 30
0.0
 10
11.5295224945
 20
10.1938427062
 30
0.0
 10
11.5225090797
 20
10.2077275497
 30
0.0
 10
11.5145225479
 20
10.2211231897
 30
0.0
 10
11.505606798
 20
10.2339561259
 30
0.0
 10
11.4958108098
 20
10.2461559429
 30
0.0
 10
11.4851883742
 20
10.2576556933
 30
0.0
 10
11.4737978011
 20
10.2683922611
 30
0.0
 10
11.4617016025
 20
10.2783067045
 30
0.0
 10
11.448966153
 20
10.2873445764
 30
0.0
 10
11.4356613299
 20
10.2954562206
 30
0.0
 10
11.4218601337
 20
10.3025970426
 30
0.0
 10
11.4076382934
 20
10.3087277533
 30
0.0
 10
11.3930738561
 20
10.3138145842
 30
0.0
 10
11.3782467646
 20
10.317829474
 30
0.0
 10
11.3632384253
 20
10.3207502245
 30
0.0
 10
11.3481312661
 20
10.3225606259
 30
0.0
 10
11.3330082945
 20
10.3232505529
 30
0.0
 10
11.3179526302
 20
10.3228160201
 30
0.0
 10
11.303047114
 20
10.3212592392
 30
0.0
 10
11.2883736254
 20
10.3185885182
 30
0.0
 10
11.2740134831
 20
10.314818591
 30
0.0
 10
11.2623608235
 20
10.310773512
 30
0.0
 10
11.2532781534
 20
10.3070116416
 30
0.0
 10
11.2443793076
 20
10.3029112875
 30
0.0
 10
11.2335894477
 20
10.2971475134
 30
0.0
 10
11.2232998663
 20
10.2905581918
 30
0.0
 10
11.2154141701
 20
10.284819947
 30
0.0
 10
11.2077718007
 20
10.2787812691
 30
0.0
 10
11.2023148723
 20
10.2739143882
 30
0.0
 10
11.1988144494
 20
10.2705332452
 30
0.0
  0
SPLINE
  5
378
100
AcDbEntity
  8
0
100
AcDbSpline
 62
7
  6
CONTINUOUS
 70
0
 71
3
 72
55
 73
51
 74
0
 42
0.0000001
 43
0.0000001
 44
0.0000000001
 40
0.0
 40
0.0
 40
0.0
 40
0.0
 40
0.0075208348
 40
0.0156242142
 40
0.0243311711
 40
0.0336550089
 40
0.0436029388
 40
0.0541769762
 40
0.0653751272
 40
0.0771917851
 40
0.0896184164
 40
0.1026439451
 40
0.1162549389
 40
0.1304361071
 40
0.1451702248
 40
0.1604385562
 40
0.1762208541
 40
0.1924955039
 40
0.22642864
 40
0.2620435089
 40
0.299129289
 40
0.3374624062
 40
0.3768088186
 40
0.4169261772
 40
0.4575659138
 40
0.4984752898
 40
0.5393994327
 40
0.5800833565
 40
0.6202739771
 40
0.6597221367
 40
0.6981846509
 40
0.7354264063
 40
0.7712225103
 40
0.8053605541
 40
0.8217459585
 40
0.8376441629
 40
0.853033271
 40
0.8678927663
 40
0.8822034522
 40
0.8959478537
 40
0.9091101198
 40
0.9216764214
 40
0.9336351149
 40
0.9449769705
 40
0.9556958034
 40
0.9657885996
 40
0.9752563558
 40
0.9841051078
 40
0.9923470228
 40
1.0
 40
1.0
 40
1.0
 40
1.0
 10
12.6686398235
 20
6.6580622707
 30
0.0
 10
12.6677579484
 20
6.6591465891
 30
0.0
 10
12.6660203661
 20
6.6614770134
 30
0.0
 10
12.6635751549
 20
6.6652839079
 30
0.0
 10
12.6611997621
 20
6.6695230935
 30
0.0
 10
12.6588979218
 20
6.6741876148
 30
0.0
 10
12.6566731852
 20
6.6792702407
 30
0.0
 10
12.6545290475
 20
6.6847627976
 30
0.0
 10
12.6524690642
 20
6.6906564496
 30
0.0
 10
12.6504965904
 20
6.6969415994
 30
0.0
 10
12.6486149078
 20
6.7036079713
 30
0.0
 10
12.6468271857
 20
6.7106446194
 30
0.0
 10
12.6451363618
 20
6.7180399487
 30
0.0
 10
12.6435453326
 20
6.7257817532
 30
0.0
 10
12.6420567115
 20
6.7338572293
 30
0.0
 10
12.6406730357
 20
6.7422530031
 30
0.0
 10
12.6393965939
 20
6.7509551758
 30
0.0
 10
12.6378185974
 20
6.7631171833
 30
0.0
 10
12.6361423159
 20
6.7789806026
 30
0.0
 10
12.6346136173
 20
6.7987404651
 30
0.0
 10
12.6335515716
 20
6.8193495752
 30
0.0
 10
12.6329634849
 20
6.8406711531
 30
0.0
 10
12.6328535366
 20
6.862563816
 30
0.0
 10
12.6332226379
 20
6.8848822596
 30
0.0
 10
12.6340684703
 20
6.9074783264
 30
0.0
 10
12.6353854888
 20
6.9302019847
 30
0.0
 10
12.6371649724
 20
6.9529023467
 30
0.0
 10
12.6393950835
 20
6.975428683
 30
0.0
 10
12.6420609479
 20
6.9976314333
 30
0.0
 10
12.6451447491
 20
7.0193632196
 30
0.0
 10
12.648625851
 20
7.0404798203
 30
0.0
 10
12.6524808995
 20
7.060841237
 30
0.0
 10
12.6566840551
 20
7.0803123638
 30
0.0
 10
12.6605034827
 20
7.0958951425
 30
0.0
 10
12.6637222576
 20
7.1078122461
 30
0.0
 10
12.6661723142
 20
7.1163265936
 30
0.0
 10
12.6686872554
 20
7.1245258643
 30
0.0
 10
12.6712628767
 20
7.1323964871
 30
0.0
 10
12.6738949274
 20
7.1399254211
 30
0.0
 10
12.676578962
 20
7.1471002275
 30
0.0
 10
12.6793105485
 20
7.1539090547
 30
0.0
 10
12.682085125
 20
7.1603406882
 30
0.0
 10
12.6848980628
 20
7.1663845685
 30
0.0
 10
12.687744755
 20
7.1720307965
 30
0.0
 10
12.6906204556
 20
7.177270204
 30
0.0
 10
12.6935205499
 20
7.1820942867
 30
0.0
 10
12.6964402829
 20
7.1864953381
 30
0.0
 10
12.6993752614
 20
7.190466527
 30
0.0
 10
12.7023207578
 20
7.194001178
 30
0.0
 10
12.7043623541
 20
7.1961403169
 30
0.0
 10
12.7053852895
 20
7.1971283966
 30
0.0
  0
SPLINE
  5
379
100
AcDbEntity
  8
0
100
AcDbSpline
 62
7
  6
CONTINUOUS
 70
0
 71
3
 72
59
 73
55
 74
0
 42
0.0000001
 43
0.0000001
 44
0.0000000001
 40
0.0
 40
0.0
 40
0.0
 40
0.0
 40
0.0075208011
 40
0.0156241229
 40
0.0243310036
 40
0.0336548082
 40
0.0436026575
 40
0.0541766414
 40
0.0653747201
 40
0.0771913204
 40
0.0896178876
 40
0.1026433327
 40
0.116254288
 40
0.1304353644
 40
0.1451694201
 40
0.1604376906
 40
0.1762199093
 40
0.1924944994
 40
0.2092386628
 40
0.2264284367
 40
0.2440388431
 40
0.2620439684
 40
0.2991296052
 40
0.3374625937
 40
0.3768088736
 40
0.4169261037
 40
0.4575657117
 40
0.498474961
 40
0.5393989821
 40
0.5800827883
 40
0.6202732932
 40
0.6597213364
 40
0.698183752
 40
0.7354254108
 40
0.7535181085
 40
0.7712222175
 40
0.7885116156
 40
0.8053610945
 40
0.821746445
 40
0.8376446015
 40
0.8530336898
 40
0.8678931218
 40
0.8822037849
 40
0.8959481454
 40
0.9091103807
 40
0.9216766443
 40
0.9336352982
 40
0.9449771549
 40
0.9556959107
 40
0.965788688
 40
0.9752565023
 40
0.9841051626
 40
0.9923468688
 40
1.0
 40
1.0
 40
1.0
 40
1.0
 10
12.8939942941
 20
8.7759175474
 30
0.0
 10
12.8923092791
 20
8.7779893652
 30
0.0
 10
12.8889892602
 20
8.7824421297
 30
0.0
 10
12.8843171488
 20
8.7897159779
 30
0.0
 10
12.8797784085
 20
8.7978158004
 30
0.0
 10
12.8753802852
 20
8.8067283534
 30
0.0
 10
12.871129399
 20
8.8164397567
 30
0.0
 10
12.8670325778
 20
8.8269344378
 30
0.0
 10
12.8630965104
 20
8.8381954928
 30
0.0
 10
12.859327674
 20
8.8502045967
 30
0.0
 10
12.8557323116
 20
8.8629421046
 30
0.0
 10
12.8523164468
 20
8.8763871064
 30
0.0
 10
12.8490857943
 20
8.8905174539
 30
0.0
 10
12.8460457469
 20
8.9053098113
 30
0.0
 10
12.8432014202
 20
8.9207397224
 30
0.0
 10
12.8405575981
 20
8.9367816423
 30
0.0
 10
12.8381186949
 20
8.9534089809
 30
0.0
 10
12.835888813
 20
8.9705941662
 30
0.0
 10
12.8338717115
 20
8.9883086896
 30
0.0
 10
12.8320707641
 20
9.0065231366
 30
0.0
 10
12.8304889589
 20
9.0252072919
 30
0.0
 10
12.8286577833
 20
9.0509580199
 30
0.0
 10
12.8269504603
 20
9.0840912297
 30
0.0
 10
12.8258267455
 20
9.1248305693
 30
0.0
 10
12.8256166587
 20
9.1666612496
 30
0.0
 10
12.8263218962
 20
9.2093054368
 30
0.0
 10
12.8279380304
 20
9.2524800983
 30
0.0
 10
12.8304544523
 20
9.2958985525
 30
0.0
 10
12.8338545344
 20
9.339272497
 30
0.0
 10
12.8381156311
 20
9.3823139344
 30
0.0
 10
12.8432093328
 20
9.4247370799
 30
0.0
 10
12.8491015986
 20
9.4662603923
 30
0.0
 10
12.8557530031
 20
9.5066081125
 30
0.0
 10
12.8619493086
 20
9.5393362889
 30
0.0
 10
12.8672654218
 20
9.5647211233
 30
0.0
 10
12.8713749458
 20
9.5831184529
 30
0.0
 10
12.8756383003
 20
9.6010272783
 30
0.0
 10
12.880048415
 20
9.6184178882
 30
0.0
 10
12.8845979423
 20
9.6352614075
 30
0.0
 10
12.8892792739
 20
9.6515299004
 30
0.0
 10
12.8940845928
 20
9.6671963928
 30
0.0
 10
12.8990059032
 20
9.6822349164
 30
0.0
 10
12.9040349788
 20
9.6966205806
 30
0.0
 10
12.9091634191
 20
9.7103296042
 30
0.0
 10
12.9143826981
 20
9.7233393447
 30
0.0
 10
12.9196841219
 20
9.7356283733
 30
0.0
 10
12.9250588653
 20
9.747176515
 30
0.0
 10
12.9304980521
 20
9.7579648651
 30
0.0
 10
12.9359927351
 20
9.7679758651
 30
0.0
 10
12.9415339597
 20
9.7771933577
 30
0.0
 10
12.9471127744
 20
9.7856025098
 30
0.0
 10
12.952720662
 20
9.7931902658
 30
0.0
 10
12.9583485944
 20
9.7999440101
 30
0.0
 10
12.9622495369
 20
9.8040312644
 30
0.0
 10
12.964204121
 20
9.8059192477
 30
0.0
  0
SPLINE
  5
37A
100
AcDbEntity
  8
0
100
AcDbSpline
 62
7
  6
CONTINUOUS
 70
0
 71
3
 72
73
 73
69
 74
0
 42
0.0000001
 43
0.0000001
 44
0.0000000001
 40
0.0
 40
0.0
 40
0.0
 40
0.0
 40
0.003800736
 40
0.0077417125
 40
0.0118259694
 40
0.0160561769
 40
0.0204346131
 40
0.0249630939
 40
0.0296429337
 40
0.0344751192
 40
0.0394602956
 40
0.0445988122
 40
0.0553355296
 40
0.0666836134
 40
0.0786374516
 40
0.0911885496
 40
0.1043259028
 40
0.1180362832
 40
0.1323045015
 40
0.1471136189
 40
0.162445114
 40
0.17827901
 40
0.1945940074
 40
0.2113676071
 40
0.2285762078
 40
0.2461951847
 40
0.2641989728
 40
0.2825611594
 40
0.3012545575
 40
0.32025127
 40
0.339522754
 40
0.3787724686
 40
0.4187658439
 40
0.4592583072
 40
0.5000013073
 40
0.540744295
 40
0.5812367231
 40
0.6212300376
 40
0.6604796713
 40
0.6797511037
 40
0.6987477602
 40
0.7174411008
 40
0.7358032217
 40
0.753806936
 40
0.7714258352
 40
0.7886343588
 40
0.8054078745
 40
0.821722779
 40
0.8375565782
 40
0.8528879785
 40
0.8676969974
 40
0.8819651077
 40
0.8956753762
 40
0.9088126204
 40
0.9213636101
 40
0.9333173313
 40
0.9446652935
 40
0.9554018944
 40
0.9605403572
 40
0.9655254793
 40
0.9703575922
 40
0.9750373707
 40
0.9795657989
 40
0.9839442122
 40
0.9881743889
 40
0.9922585134
 40
0.9961992942
 40
1.0
 40
1.0
 40
1.0
 40
1.0
 10
11.5866695633
 20
10.986554785
 30
0.0
 10
11.5851107403
 20
10.9851041882
 30
0.0
 10
11.5818763565
 20
10.982212564
 30
0.0
 10
11.5767785379
 20
10.9779786323
 30
0.0
 10
11.5713499486
 20
10.9737725908
 30
0.0
 10
11.5655930127
 20
10.9695962152
 30
0.0
 10
11.5595099977
 20
10.9654510997
 30
0.0
 10
11.553103324
 20
10.9613389073
 30
0.0
 10
11.5463756197
 20
10.9572612256
 30
0.0
 10
11.5393296127
 20
10.953219792
 30
0.0
 10
11.5319681849
 20
10.9492162
 30
0.0
 10
11.5215840433
 20
10.9438521351
 30
0.0
 10
11.5078226473
 20
10.9372668148
 30
0.0
 10
11.4903347921
 20
10.9296526424
 30
0.0
 10
11.4716674945
 20
10.9222276749
 30
0.0
 10
11.4518513236
 20
10.9150041377
 30
0.0
 10
11.4309184764
 20
10.9079939387
 30
0.0
 10
11.4089031844
 20
10.901208654
 30
0.0
 10
11.385841495
 20
10.8946595066
 30
0.0
 10
11.3617712265
 20
10.8883573452
 30
0.0
 10
11.3367318914
 20
10.8823126238
 30
0.0
 10
11.3107646404
 20
10.8765353574
 30
0.0
 10
11.283912183
 20
10.8710351136
 30
0.0
 10
11.2562187005
 20
10.8658210086
 30
0.0
 10
11.2277297707
 20
10.860901691
 30
0.0
 10
11.1984923015
 20
10.8562853136
 30
0.0
 10
11.168554452
 20
10.8519795146
 30
0.0
 10
11.1379655365
 20
10.8479914227
 30
0.0
 10
11.1067759586
 20
10.8443276579
 30
0.0
 10
11.0750370657
 20
10.8409942549
 30
0.0
 10
11.0317934573
 20
10.8369733191
 30
0.0
 10
10.9767517142
 20
10.8328248707
 30
0.0
 10
10.9097593431
 20
10.829266392
 30
0.0
 10
10.841869764
 20
10.8271217904
 30
0.0
 10
10.7735302519
 20
10.8264053819
 30
0.0
 10
10.705190761
 20
10.8271219286
 30
0.0
 10
10.6373012468
 20
10.8292666628
 30
0.0
 10
10.5703089823
 20
10.8328252818
 30
0.0
 10
10.5152673556
 20
10.8369738334
 30
0.0
 10
10.4720238619
 20
10.8409948623
 30
0.0
 10
10.4402850689
 20
10.8443283304
 30
0.0
 10
10.4090955987
 20
10.8479921516
 30
0.0
 10
10.3785068026
 20
10.8519803057
 30
0.0
 10
10.348569085
 20
10.856286168
 30
0.0
 10
10.3193317552
 20
10.8609026068
 30
0.0
 10
10.2908429702
 20
10.8658219758
 30
0.0
 10
10.2631496427
 20
10.8710361354
 30
0.0
 10
10.2362973535
 20
10.8765364363
 30
0.0
 10
10.2103302781
 20
10.8823137583
 30
0.0
 10
10.1852911214
 20
10.8883585258
 30
0.0
 10
10.161221039
 20
10.8946607319
 30
0.0
 10
10.138159549
 20
10.901209929
 30
0.0
 10
10.1161444645
 20
10.9079952615
 30
0.0
 10
10.0952118254
 20
10.915005501
 30
0.0
 10
10.0753958658
 20
10.9222290712
 30
0.0
 10
10.0567287933
 20
10.9296540796
 30
0.0
 10
10.0392411722
 20
10.9372682912
 30
0.0
 10
10.0254799699
 20
10.9438536379
 30
0.0
 10
10.0150959836
 20
10.9492177292
 30
0.0
 10
10.0077346725
 20
10.953221324
 30
0.0
 10
10.000688802
 20
10.9572627837
 30
0.0
 10
9.993961214
 20
10.9613404555
 30
0.0
 10
9.9875546506
 20
10.9654526785
 30
0.0
 10
9.9814717427
 20
10.9695978451
 30
0.0
 10
9.9757149315
 20
10.9737742152
 30
0.0
 10
9.970286559
 20
10.977980208
 30
0.0
 10
9.9651889287
 20
10.9822140517
 30
0.0
 10
9.9619546788
 20
10.9851056367
 30
0.0
 10
9.9603958943
 20
10.9865562501
 30
0.0
  0
SPLINE
  5
37B
100
AcDbEntity
  8
0
100
AcDbSpline
 62
7
  6
CONTINUOUS
 70
0
 71
3
 72
13
 73
9
 74
0
 42
0.0000001
 43
0.0000001
 44
0.0000000001
 40
0.0
 40
0.0
 40
0.0
 40
0.0
 40
0.2883409816
 40
0.4205270935
 40
0.5460505317
 40
0.6658569605
 40
0.780868943
 40
1.0
 40
1.0
 40
1.0
 40
1.0
 10
9.9941489041
 20
10.9614257018
 30
0.0
 10
9.9936921312
 20
10.9624586582
 30
0.0
 10
9.993091872
 20
10.9639964138
 30
0.0
 10
9.9924714604
 20
10.966044085
 30
0.0
 10
9.9921147316
 20
10.9674798524
 30
0.0
 10
9.9918470114
 20
10.9688664477
 30
0.0
 10
9.9916051678
 20
10.9706286715
 30
0.0
 10
9.9915335224
 20
10.9719389342
 30
0.0
 10
9.9915335224
 20
10.9727972789
 30
0.0
  0
SPLINE
  5
37C
100
AcDbEntity
  8
0
100
AcDbSpline
 62
7
  6
CONTINUOUS
 70
0
 71
3
 72
11
 73
7
 74
0
 42
0.0000001
 43
0.0000001
 44
0.0000000001
 40
0.0
 40
0.0
 40
0.0
 40
0.0
 40
0.2196582086
 40
0.4546240807
 40
0.7119771279
 40
1.0
 40
1.0
 40
1.0
 40
1.0
 10
11.5555335224
 20
10.9727972789
 30
0.0
 10
11.5555335224
 20
10.9719407139
 30
0.0
 10
11.5554363578
 20
10.9701663894
 30
0.0
 10
11.5549780492
 20
10.9674228232
 30
0.0
 10
11.5541643714
 20
10.9644852672
 30
0.0
 10
11.5533908525
 20
10.9624999499
 30
0.0
 10
11.5529377958
 20
10.9614722254
 30
0.0
  0
SPLINE
  5
37D
100
AcDbEntity
  8
0
100
AcDbSpline
 62
7
  6
CONTINUOUS
 70
0
 71
3
 72
96
 73
92
 74
0
 42
0.0000001
 43
0.0000001
 44
0.0000000001
 40
0.0
 40
0.0
 40
0.0
 40
0.0
 40
0.0041939574
 40
0.0085762742
 40
0.0131520511
 40
0.0179256088
 40
0.0229004783
 40
0.028079222
 40
0.0334636112
 40
0.0390547653
 40
0.0448532218
 40
0.0508590076
 40
0.0570716348
 40
0.0634902296
 40
0.0701134804
 40
0.0769397743
 40
0.0839671177
 40
0.091193268
 40
0.1062311061
 40
0.1220303958
 40
0.1385641632
 40
0.1558022491
 40
0.1737116571
 40
0.1922568477
 40
0.2113999921
 40
0.2311011977
 40
0.2513187129
 40
0.2720091149
 40
0.2931274873
 40
0.314627589
 40
0.3364620159
 40
0.35858236
 40
0.3809393635
 40
0.4034830717
 40
0.4261629835
 40
0.4489282015
 40
0.4717275804
 40
0.4945098762
 40
0.5172238945
 40
0.5398186387
 40
0.5622434594
 40
0.584448203
 40
0.6063833625
 40
0.6280002295
 40
0.649251048
 40
0.6700891709
 40
0.6904692217
 40
0.7103472604
 40
0.7296809576
 40
0.7484297794
 40
0.7665551861
 40
0.7840208488
 40
0.8007928931
 40
0.8168401783
 40
0.8321346255
 40
0.8466516145
 40
0.8536121895
 40
0.8603710027
 40
0.8669262091
 40
0.8732762723
 40
0.8794200367
 40
0.8853567472
 40
0.8910860808
 40
0.8966082311
 40
0.9019239053
 40
0.9070344711
 40
0.9119419382
 40
0.9166491551
 40
0.9211598066
 40
0.9254786388
 40
0.9296115077
 40
0.9335656091
 40
0.937349596
 40
0.9409737889
 40
0.9477890825
 40
0.9510148692
 40
0.9541417451
 40
0.9571901171
 40
0.9601821742
 40
0.9631415265
 40
0.9660926395
 40
0.9690602038
 40
0.9720684674
 40
0.97514062
 40
0.9782983043
 40
0.981561246
 40
0.9849470671
 40
0.9884713301
 40
0.9921475967
 40
0.9959873775
 40
1.0
 40
1.0
 40
1.0
 40
1.0
 10
9.9582920542
 20
11.1016249817
 30
0.0
 10
9.9601189659
 20
11.1033896431
 30
0.0
 10
9.9639456815
 20
11.1069051116
 30
0.0
 10
9.9700488465
 20
11.1120270607
 30
0.0
 10
9.9766351648
 20
11.1171082831
 30
0.0
 10
9.983700365
 20
11.1221456676
 30
0.0
 10
9.9912404037
 20
11.1271363763
 30
0.0
 10
9.9992508364
 20
11.1320775908
 30
0.0
 10
10.0077269432
 20
11.1369663759
 30
0.0
 10
10.0166636807
 20
11.141799829
 30
0.0
 10
10.0260557297
 20
11.1465751126
 30
0.0
 10
10.0358975166
 20
11.1512893411
 30
0.0
 10
10.046183156
 20
11.1559397595
 30
0.0
 10
10.0569065227
 20
11.1605235019
 30
0.0
 10
10.0680611835
 20
11.1650379047
 30
0.0
 10
10.0796404755
 20
11.1694801572
 30
0.0
 10
10.0916374575
 20
11.1738477072
 30
0.0
 10
10.108404025
 20
11.1796449243
 30
0.0
 10
10.1303641388
 20
11.1866689578
 30
0.0
 10
10.1579241526
 20
11.1946510403
 30
0.0
 10
10.1869650177
 20
11.2022750827
 30
0.0
 10
10.2174169738
 20
11.2095225958
 30
0.0
 10
10.2492070807
 20
11.2163759863
 30
0.0
 10
10.2822590138
 20
11.2228186209
 30
0.0
 10
10.3164933791
 20
11.2288348654
 30
0.0
 10
10.3518278848
 20
11.2344101245
 30
0.0
 10
10.3881775582
 20
11.2395308762
 30
0.0
 10
10.4254549556
 20
11.2441847049
 30
0.0
 10
10.4635703782
 20
11.2483603299
 30
0.0
 10
10.5024320931
 20
11.2520476325
 30
0.0
 10
10.5419465571
 20
11.255237679
 30
0.0
 10
10.5820186449
 20
11.2579227422
 30
0.0
 10
10.6225518801
 20
11.2600963191
 30
0.0
 10
10.6634486696
 20
11.2617531459
 30
0.0
 10
10.7046105402
 20
11.2628892108
 30
0.0
 10
10.7459383766
 20
11.2635017626
 30
0.0
 10
10.7873326621
 20
11.2635893185
 30
0.0
 10
10.828693719
 20
11.2631516667
 30
0.0
 10
10.8699219501
 20
11.2621898672
 30
0.0
 10
10.9109180802
 20
11.2607062488
 30
0.0
 10
10.9515833955
 20
11.2587044039
 30
0.0
 10
10.9918199833
 20
11.2561891798
 30
0.0
 10
11.0315309689
 20
11.253166668
 30
0.0
 10
11.0706207506
 20
11.2496441894
 30
0.0
 10
11.1089952321
 20
11.2456302774
 30
0.0
 10
11.1465620516
 20
11.2411346581
 30
0.0
 10
11.1832308071
 20
11.2361682276
 30
0.0
 10
11.2189132786
 20
11.2307430263
 30
0.0
 10
11.2535236454
 20
11.2248722104
 30
0.0
 10
11.2869787005
 20
11.2185700217
 30
0.0
 10
11.3191980573
 20
11.2118517528
 30
0.0
 10
11.3501043642
 20
11.2047337094
 30
0.0
 10
11.3796234686
 20
11.1972331675
 30
0.0
 10
11.4076847462
 20
11.1893683305
 30
0.0
 10
11.4342208401
 20
11.1811582637
 30
0.0
 10
11.4552960573
 20
11.1739480303
 30
0.0
 10
11.4713328735
 20
11.1680076961
 30
0.0
 10
11.4827713951
 20
11.1635410478
 30
0.0
 10
11.493783028
 20
11.1590032522
 30
0.0
 10
11.5043611913
 20
11.1543969664
 30
0.0
 10
11.514499558
 20
11.1497249733
 30
0.0
 10
11.5241920816
 20
11.1449900806
 30
0.0
 10
11.5334329721
 20
11.1401950805
 30
0.0
 10
11.5422167528
 20
11.1353428833
 30
0.0
 10
11.5505381781
 20
11.130436286
 30
0.0
 10
11.5583923582
 20
11.1254782707
 30
0.0
 10
11.5657746017
 20
11.1204716304
 30
0.0
 10
11.5726806074
 20
11.1154193728
 30
0.0
 10
11.5791062477
 20
11.1103242765
 30
0.0
 10
11.5850477761
 20
11.1051893272
 30
0.0
 10
11.5905016539
 20
11.1000172264
 30
0.0
 10
11.5954645055
 20
11.0948110679
 30
0.0
 10
11.5999337524
 20
11.0895728091
 30
0.0
 10
11.6051228729
 20
11.0826930317
 30
0.0
 10
11.6094660056
 20
11.0756085977
 30
0.0
 10
11.6128145628
 20
11.0683626315
 30
0.0
 10
11.6147736788
 20
11.063009272
 30
0.0
 10
11.6162237662
 20
11.0576423942
 30
0.0
 10
11.6171630136
 20
11.0522654442
 30
0.0
 10
11.6175902875
 20
11.0468826584
 30
0.0
 10
11.6175047899
 20
11.041498379
 30
0.0
 10
11.6169068123
 20
11.0361170617
 30
0.0
 10
11.6157970827
 20
11.030743026
 30
0.0
 10
11.6141771572
 20
11.0253802712
 30
0.0
 10
11.6120488891
 20
11.0200324622
 30
0.0
 10
11.6094145079
 20
11.0147029205
 30
0.0
 10
11.606276436
 20
11.0093946487
 30
0.0
 10
11.6026370608
 20
11.00411051
 30
0.0
 10
11.5984989472
 20
10.9988531503
 30
0.0
 10
11.5938650546
 20
10.9936256743
 30
0.0
 10
11.5905229119
 20
10.9902389684
 30
0.0
 10
11.5887749907
 20
10.988550606
 30
0.0
  0
SPLINE
  5
37E
100
AcDbEntity
  8
0
100
AcDbSpline
 62
7
  6
CONTINUOUS
 70
0
 71
3
 72
51
 73
47
 74
0
 42
0.0000001
 43
0.0000001
 44
0.0000000001
 40
0.0
 40
0.0
 40
0.0
 40
0.0
 40
0.0083888522
 40
0.0173410458
 40
0.0268641187
 40
0.0369607104
 40
0.0476299625
 40
0.0588679036
 40
0.0706682579
 40
0.0830222743
 40
0.0959194553
 40
0.1093473589
 40
0.1232922028
 40
0.137738587
 40
0.1680676642
 40
0.2001896813
 40
0.2339425619
 40
0.2691506961
 40
0.3056269822
 40
0.3431746672
 40
0.381589064
 40
0.4206591952
 40
0.4601693916
 40
0.4999008651
 40
0.5396332682
 40
0.5791462468
 40
0.6182209932
 40
0.6566418054
 40
0.6941976596
 40
0.7306838092
 40
0.7659034272
 40
0.7996693229
 40
0.8318057816
 40
0.8621506035
 40
0.8766052982
 40
0.8905587318
 40
0.9039954619
 40
0.9169016999
 40
0.929264955
 40
0.9410747296
 40
0.9523222114
 40
0.9630010782
 40
0.9731072968
 40
0.9826400989
 40
0.9916019886
 40
1.0
 40
1.0
 40
1.0
 40
1.0
 10
12.6424898593
 20
6.7315884402
 30
0.0
 10
12.6432124354
 20
6.7324721598
 30
0.0
 10
12.6446519418
 20
6.7343436663
 30
0.0
 10
12.646732743
 20
6.7373507543
 30
0.0
 10
12.6488016912
 20
6.7406438707
 30
0.0
 10
12.6508558614
 20
6.7442181834
 30
0.0
 10
12.6528922062
 20
6.7480686313
 30
0.0
 10
12.6549078226
 20
6.7521895892
 30
0.0
 10
12.6568996767
 20
6.7565750897
 30
0.0
 10
12.6588649089
 20
6.7612187093
 30
0.0
 10
12.6608005341
 20
6.7661136627
 30
0.0
 10
12.662703751
 20
6.7712527457
 30
0.0
 10
12.6645716937
 20
6.7766284162
 30
0.0
 10
12.6670519043
 20
6.7842245981
 30
0.0
 10
12.6700333516
 20
6.7942570039
 30
0.0
 10
12.6733730783
 20
6.8069167507
 30
0.0
 10
12.6765103159
 20
6.8203108909
 30
0.0
 10
12.6794263364
 20
6.8343604006
 30
0.0
 10
12.6821037023
 20
6.8489824876
 30
0.0
 10
12.6845264387
 20
6.8640908415
 30
0.0
 10
12.6866801039
 20
6.8795962437
 30
0.0
 10
12.6885518777
 20
6.8954070884
 30
0.0
 10
12.690130633
 20
6.911429941
 30
0.0
 10
12.6914070004
 20
6.927570098
 30
0.0
 10
12.6923734226
 20
6.9437321545
 30
0.0
 10
12.6930241994
 20
6.9598205741
 30
0.0
 10
12.6933555217
 20
6.9757402604
 30
0.0
 10
12.6933654968
 20
6.9913971267
 30
0.0
 10
12.6930541607
 20
7.0066986585
 30
0.0
 10
12.6924234852
 20
7.0215544776
 30
0.0
 10
12.6914773621
 20
7.0358768699
 30
0.0
 10
12.6902216177
 20
7.0495813993
 30
0.0
 10
12.6886638763
 20
7.0625871793
 30
0.0
 10
12.6870978854
 20
7.0729407042
 30
0.0
 10
12.6856915931
 20
7.0808113311
 30
0.0
 10
12.6845847273
 20
7.0863971831
 30
0.0
 10
12.6834102327
 20
7.0917537173
 30
0.0
 10
12.6821699177
 20
7.0968730619
 30
0.0
 10
12.6808655475
 20
7.1017476896
 30
0.0
 10
12.6794991525
 20
7.1063704626
 30
0.0
 10
12.6780726622
 20
7.1107346125
 30
0.0
 10
12.6765882805
 20
7.1148338046
 30
0.0
 10
12.6750480826
 20
7.1186620698
 30
0.0
 10
12.6734543827
 20
7.122213974
 30
0.0
 10
12.6718094174
 20
7.1254842697
 30
0.0
 10
12.6706426312
 20
7.1275398529
 30
0.0
 10
12.6700492706
 20
7.1285165037
 30
0.0
  0
SPLINE
  5
37F
100
AcDbEntity
  8
0
100
AcDbSpline
 62
7
  6
CONTINUOUS
 70
0
 71
3
 72
24
 73
20
 74
0
 42
0.0000001
 43
0.0000001
 44
0.0000000001
 40
0.0
 40
0.0
 40
0.0
 40
0.0
 40
0.0755925909
 40
0.1466352375
 40
0.2134610851
 40
0.2454346742
 40
0.2765272927
 40
0.3363373944
 40
0.3935565559
 40
0.4489316461
 40
0.5032955233
 40
0.5575322568
 40
0.6125325048
 40
0.6691475563
 40
0.7281521761
 40
0.7902217656
 40
0.8559251613
 40
0.9257271518
 40
1.0
 40
1.0
 40
1.0
 40
1.0
 10
12.7053852895
 20
6.6562099019
 30
0.0
 10
12.7046071118
 20
6.6554582399
 30
0.0
 10
12.7030517155
 20
6.6540463515
 30
0.0
 10
12.7006447417
 20
6.6521601964
 30
0.0
 10
12.6986119862
 20
6.6508208454
 30
0.0
 10
12.6969908098
 20
6.649909524
 30
0.0
 10
12.6954168252
 20
6.6491237117
 30
0.0
 10
12.6934488643
 20
6.6483233512
 30
0.0
 10
12.69106626
 20
6.6476595844
 30
0.0
 10
12.6886961629
 20
6.6473073049
 30
0.0
 10
12.6863426735
 20
6.64726817
 30
0.0
 10
12.6840102775
 20
6.6475428055
 30
0.0
 10
12.6817035018
 20
6.6481303408
 30
0.0
 10
12.679426259
 20
6.6490288216
 30
0.0
 10
12.6771815807
 20
6.6502356299
 30
0.0
 10
12.6749717171
 20
6.6517479797
 30
0.0
 10
12.6727984856
 20
6.6535632835
 30
0.0
 10
12.6706635921
 20
6.6556788127
 30
0.0
 10
12.6693105614
 20
6.657237558
 30
0.0
 10
12.6686398235
 20
6.6580622707
 30
0.0
  0
SPLINE
  5
380
100
AcDbEntity
  8
0
100
AcDbSpline
 62
7
  6
CONTINUOUS
 70
0
 71
3
 72
71
 73
67
 74
0
 42
0.0000001
 43
0.0000001
 44
0.0000000001
 40
0.0
 40
0.0
 40
0.0
 40
0.0
 40
0.0155842125
 40
0.0311159548
 40
0.0465952452
 40
0.0620238832
 40
0.077403449
 40
0.0927362827
 40
0.1080251236
 40
0.1232731733
 40
0.1384840551
 40
0.1536617757
 40
0.1688106896
 40
0.1839354533
 40
0.1990409787
 40
0.2141323824
 40
0.2292149319
 40
0.2442939892
 40
0.2593749538
 40
0.2744632042
 40
0.289564041
 40
0.3046826304
 40
0.3198239505
 40
0.3349927388
 40
0.3501934431
 40
0.365430177
 40
0.3807066786
 40
0.3960262757
 40
0.4113918552
 40
0.4268058381
 40
0.4422701582
 40
0.4577862482
 40
0.4733550295
 40
0.4889769098
 40
0.5046517844
 40
0.5203790421
 40
0.5361575756
 40
0.5519857966
 40
0.5678616546
 40
0.5837826615
 40
0.5997459176
 40
0.6157481409
 40
0.6317856994
 40
0.6478546448
 40
0.6639507505
 40
0.6800695509
 40
0.6962063814
 40
0.7123564195
 40
0.7285147271
 40
0.7446762936
 40
0.7608360803
 40
0.7769890646
 40
0.7931302831
 40
0.8092548749
 40
0.8253581239
 40
0.841435501
 40
0.8574827056
 40
0.873495705
 40
0.8894707701
 40
0.9054045133
 40
0.9212939187
 40
0.9371363615
 40
0.9529297228
 40
0.9686720688
 40
0.9843626653
 40
1.0
 40
1.0
 40
1.0
 40
1.0
 10
9.9655919893
 20
6.8152318851
 30
0.0
 10
9.9655919893
 20
6.8236722023
 30
0.0
 10
9.9660050533
 20
6.8405274115
 30
0.0
 10
9.967869592
 20
6.8657040234
 30
0.0
 10
9.9709738317
 20
6.890673837
 30
0.0
 10
9.9753101025
 20
6.9153756724
 30
0.0
 10
9.9808681933
 20
6.9397503839
 30
0.0
 10
9.9876346942
 20
6.9637390832
 30
0.0
 10
9.9955933947
 20
6.9872839662
 30
0.0
 10
10.0047251416
 20
7.0103282538
 30
0.0
 10
10.0150079649
 20
7.0328163755
 30
0.0
 10
10.0264171175
 20
7.0546940916
 30
0.0
 10
10.038925131
 20
7.0759086268
 30
0.0
 10
10.0525018867
 20
7.0964087954
 30
0.0
 10
10.0671146708
 20
7.1161451354
 30
0.0
 10
10.0827282468
 20
7.1350700394
 30
0.0
 10
10.0993049651
 20
7.1531378545
 30
0.0
 10
10.1168048499
 20
7.1703049952
 30
0.0
 10
10.1351856952
 20
7.1865300501
 30
0.0
 10
10.1544031704
 20
7.2017738772
 30
0.0
 10
10.1744109114
 20
7.2159997205
 30
0.0
 10
10.1951606402
 20
7.2291732983
 30
0.0
 10
10.2166022963
 20
7.2412628687
 30
0.0
 10
10.2386841549
 20
7.2522393087
 30
0.0
 10
10.2613529528
 20
7.2620761839
 30
0.0
 10
10.2845540187
 20
7.2707498056
 30
0.0
 10
10.3082313944
 20
7.2782393186
 30
0.0
 10
10.3323279816
 20
7.2845267332
 30
0.0
 10
10.3567856838
 20
7.2895969558
 30
0.0
 10
10.3815455453
 20
7.2934378253
 30
0.0
 10
10.4065478918
 20
7.2960401412
 30
0.0
 10
10.4317324732
 20
7.2973976816
 30
0.0
 10
10.457038607
 20
7.2975072506
 30
0.0
 10
10.4824053297
 20
7.2963686553
 30
0.0
 10
10.5077715419
 20
7.2939847017
 30
0.0
 10
10.5330761539
 20
7.2903611873
 30
0.0
 10
10.5582582304
 20
7.2855068854
 30
0.0
 10
10.5832571349
 20
7.2794335275
 30
0.0
 10
10.6080126835
 20
7.272155801
 30
0.0
 10
10.6324652838
 20
7.2636912811
 30
0.0
 10
10.6565560763
 20
7.2540603897
 30
0.0
 10
10.6802270744
 20
7.2432863468
 30
0.0
 10
10.7034213003
 20
7.2313951126
 30
0.0
 10
10.7260829256
 20
7.2184153361
 30
0.0
 10
10.7481574159
 20
7.2043783005
 30
0.0
 10
10.7695916471
 20
7.1893178197
 30
0.0
 10
10.7903340344
 20
7.1732701624
 30
0.0
 10
10.8103346537
 20
7.1562739651
 30
0.0
 10
10.829545358
 20
7.1383701378
 30
0.0
 10
10.8479199057
 20
7.1196017811
 30
0.0
 10
10.8654140768
 20
7.1000140835
 30
0.0
 10
10.8819857617
 20
7.0796541948
 30
0.0
 10
10.8975950642
 20
7.058571118
 30
0.0
 10
10.9122043966
 20
7.0368155929
 30
0.0
 10
10.9257785649
 20
7.0144399727
 30
0.0
 10
10.9382848771
 20
6.991498114
 30
0.0
 10
10.9496932154
 20
6.9680452387
 30
0.0
 10
10.959976092
 20
6.9441377943
 30
0.0
 10
10.9691087203
 20
6.9198333227
 30
0.0
 10
10.9770690725
 20
6.8951903211
 30
0.0
 10
10.9838379204
 20
6.8702681147
 30
0.0
 10
10.9893989617
 20
6.8451266664
 30
0.0
 10
10.9937386835
 20
6.8198266389
 30
0.0
 10
10.9968467571
 20
6.7944285518
 30
0.0
 10
10.9987153934
 20
6.7689945879
 30
0.0
 10
10.9991326847
 20
6.7520246822
 30
0.0
 10
10.9991326847
 20
6.7435555944
 30
0.0
  0
SPLINE
  5
381
100
AcDbEntity
  8
0
100
AcDbSpline
 62
7
  6
CONTINUOUS
 70
0
 71
3
 72
29
 73
25
 74
0
 42
0.0000001
 43
0.0000001
 44
0.0000000001
 40
0.0
 40
0.0
 40
0.0
 40
0.0
 40
0.0749503488
 40
0.1455452737
 40
0.2121261891
 40
0.2751192851
 40
0.3350448404
 40
0.3640583593
 40
0.3925449884
 40
0.4205963601
 40
0.4483089338
 40
0.4757832092
 40
0.5031225081
 40
0.530431847
 40
0.5578166247
 40
0.5853812653
 40
0.6132280351
 40
0.6414557868
 40
0.6701590145
 40
0.7293218109
 40
0.7913860629
 40
0.8569001023
 40
0.9263189548
 40
1.0
 40
1.0
 40
1.0
 40
1.0
 10
9.9603958943
 20
10.9865562501
 30
0.0
 10
9.9579587406
 20
10.9888242787
 30
0.0
 10
9.9533612094
 20
10.9933777428
 30
0.0
 10
9.9471576444
 20
11.0004816329
 30
0.0
 10
9.9418676477
 20
11.0076420376
 30
0.0
 10
9.93749925
 20
11.0148518436
 30
0.0
 10
9.9346017623
 20
11.020962698
 30
0.0
 10
9.932773525
 20
11.0258503678
 30
0.0
 10
9.9316505395
 20
11.0294831476
 30
0.0
 10
9.9307617703
 20
11.0331207765
 30
0.0
 10
9.9301075838
 20
11.0367622522
 30
0.0
 10
9.9296882096
 20
11.0404063993
 30
0.0
 10
9.9295038411
 20
11.0440520683
 30
0.0
 10
9.9295546374
 20
11.0476980755
 30
0.0
 10
9.929840503
 20
11.0513432298
 30
0.0
 10
9.9303612982
 20
11.0549863697
 30
0.0
 10
9.9311168467
 20
11.0586263044
 30
0.0
 10
9.9321068409
 20
11.0622620163
 30
0.0
 10
9.9337550182
 20
11.067150989
 30
0.0
 10
9.9364273458
 20
11.073267284
 30
0.0
 10
9.9405326598
 20
11.080490152
 30
0.0
 10
9.945561718
 20
11.0876654779
 30
0.0
 10
9.9515064738
 20
11.0947858442
 30
0.0
 10
9.9559380535
 20
11.0993511915
 30
0.0
 10
9.9582920542
 20
11.1016249817
 30
0.0
  0
SPLINE
  5
382
100
AcDbEntity
  8
0
100
AcDbSpline
 62
7
  6
CONTINUOUS
 70
0
 71
3
 72
23
 73
19
 74
0
 42
0.0000001
 43
0.0000001
 44
0.0000000001
 40
0.0
 40
0.0
 40
0.0
 40
0.0
 40
0.0636765246
 40
0.1250327799
 40
0.1844692012
 40
0.2424309302
 40
0.2994021132
 40
0.3558948954
 40
0.4124357799
 40
0.4695497615
 40
0.5277449267
 40
0.587499031
 40
0.6492495064
 40
0.7133871169
 40
0.7802559991
 40
0.8501545767
 40
0.9233350066
 40
1.0
 40
1.0
 40
1.0
 40
1.0
 10
9.9917313467
 20
10.9627056121
 30
0.0
 10
9.9907075392
 20
10.9644205495
 30
0.0
 10
9.9888210336
 20
10.9678642371
 30
0.0
 10
9.9864630409
 20
10.9731553964
 30
0.0
 10
9.9846362939
 20
10.9784645082
 30
0.0
 10
9.9833435525
 20
10.983787362
 30
0.0
 10
9.9825865829
 20
10.989119631
 30
0.0
 10
9.9823667718
 20
10.9944564987
 30
0.0
 10
9.9826844276
 20
10.9997928999
 30
0.0
 10
9.9835390276
 20
11.0051238036
 30
0.0
 10
9.9849291689
 20
11.0104444642
 30
0.0
 10
9.9868527807
 20
11.0157506001
 30
0.0
 10
9.9893074508
 20
11.0210383441
 30
0.0
 10
9.9922903778
 20
11.0263043246
 30
0.0
 10
9.9957988947
 20
11.0315453478
 30
0.0
 10
9.9998301087
 20
11.0367585386
 30
0.0
 10
10.0043807592
 20
11.041940513
 30
0.0
 10
10.0076795854
 20
11.0452922229
 30
0.0
 10
10.0094091741
 20
11.0469628774
 30
0.0
  0
SPLINE
  5
383
100
AcDbEntity
  8
0
100
AcDbSpline
 62
7
  6
CONTINUOUS
 70
0
 71
3
 72
85
 73
81
 74
0
 42
0.0000001
 43
0.0000001
 44
0.0000000001
 40
0.0
 40
0.0
 40
0.0
 40
0.0
 40
0.002808
 40
0.0056356854
 40
0.0085022922
 40
0.0114262237
 40
0.0144246988
 40
0.0175135598
 40
0.024014739
 40
0.0274544584
 40
0.0310326265
 40
0.0347576765
 40
0.0386367849
 40
0.0426760087
 40
0.0468804381
 40
0.0512542242
 40
0.0558007794
 40
0.0605227769
 40
0.0654222753
 40
0.0705007986
 40
0.0757593265
 40
0.0811984488
 40
0.0868183048
 40
0.0926186943
 40
0.0985990952
 40
0.1110957845
 40
0.1242990473
 40
0.1381952116
 40
0.1527673415
 40
0.1679956344
 40
0.1838577574
 40
0.2003291181
 40
0.2173830882
 40
0.2349911961
 40
0.2531232881
 40
0.2717476837
 40
0.29083132
 40
0.3103398796
 40
0.3302379102
 40
0.3504889364
 40
0.371055568
 40
0.3918996141
 40
0.4129821883
 40
0.4342638111
 40
0.4557045103
 40
0.4989006445
 40
0.5422455447
 40
0.5854119505
 40
0.6068267168
 40
0.6280751085
 40
0.6491172355
 40
0.6699137162
 40
0.6904257797
 40
0.7106153751
 40
0.7304452753
 40
0.7498791827
 40
0.7688818395
 40
0.7874191422
 40
0.8054582693
 40
0.8229678148
 40
0.8399179225
 40
0.8562804388
 40
0.8720290849
 40
0.8871396568
 40
0.9015902675
 40
0.9153616176
 40
0.928437329
 40
0.9408043683
 40
0.9467193806
 40
0.9524541748
 40
0.9580083025
 40
0.9633817132
 40
0.9685747081
 40
0.973587989
 40
0.9784227379
 40
0.9830806145
 40
0.9875639933
 40
0.9918758833
 40
0.9960198327
 40
1.0
 40
1.0
 40
1.0
 40
1.0
 10
11.5555335112
 20
10.9727972789
 30
0.0
 10
11.5555335193
 20
10.9743164476
 30
0.0
 10
11.5554004862
 20
10.9773670793
 30
0.0
 10
11.5548027113
 20
10.9819333422
 30
0.0
 10
11.5538072278
 20
10.9864940421
 30
0.0
 10
11.55241491
 20
10.9910458793
 30
0.0
 10
11.5506270576
 20
10.9955866826
 30
0.0
 10
11.5476679861
 20
11.0017264308
 30
0.0
 10
11.5439409954
 20
11.007737836
 30
0.0
 10
11.5395519089
 20
11.0135914096
 30
0.0
 10
11.535810516
 20
11.018043239
 30
0.0
 10
11.5316842552
 20
11.0224706889
 30
0.0
 10
11.527174942
 20
11.0268722914
 30
0.0
 10
11.5222849808
 20
11.031245891
 30
0.0
 10
11.5170167425
 20
11.0355894041
 30
0.0
 10
11.5113729246
 20
11.0399008448
 30
0.0
 10
11.5053562783
 20
11.0441780586
 30
0.0
 10
11.4989698256
 20
11.0484190082
 30
0.0
 10
11.492216743
 20
11.0526216174
 30
0.0
 10
11.4851003739
 20
11.056783758
 30
0.0
 10
11.4776243052
 20
11.0609034408
 30
0.0
 10
11.4697922412
 20
11.0649785301
 30
0.0
 10
11.4616081319
 20
11.0690070334
 30
0.0
 10
11.453076062
 20
11.0729869473
 30
0.0
 10
11.4410651595
 20
11.078304007
 30
0.0
 10
11.4251998366
 20
11.0847993223
 30
0.0
 10
11.4051148392
 20
11.0922585883
 30
0.0
 10
11.383753778
 20
11.0994776731
 30
0.0
 10
11.3611596597
 20
11.1064419067
 30
0.0
 10
11.3373777548
 20
11.1131371412
 30
0.0
 10
11.3124559184
 20
11.1195497483
 30
0.0
 10
11.2864443423
 20
11.125666668
 30
0.0
 10
11.2593954764
 20
11.1314754382
 30
0.0
 10
11.231363906
 20
11.1369642205
 30
0.0
 10
11.2024062417
 20
11.1421218363
 30
0.0
 10
11.1725809961
 20
11.1469377872
 30
0.0
 10
11.1419484539
 20
11.1514022688
 30
0.0
 10
11.1105705449
 20
11.1555061932
 30
0.0
 10
11.0785107186
 20
11.1592412055
 30
0.0
 10
11.0458338165
 20
11.1625997026
 30
0.0
 10
11.0126059418
 20
11.1655748572
 30
0.0
 10
10.9788943139
 20
11.1681606226
 30
0.0
 10
10.9447671531
 20
11.1703517308
 30
0.0
 10
10.9102934482
 20
11.1721437619
 30
0.0
 10
10.8638465128
 20
11.1740005104
 30
0.0
 10
10.8054353305
 20
11.1752973144
 30
0.0
 10
10.7352558008
 20
11.1752232975
 30
0.0
 10
10.6768775967
 20
11.1738030747
 30
0.0
 10
10.6304828353
 20
11.1718477893
 30
0.0
 10
10.5960669613
 20
11.1699828993
 30
0.0
 10
10.5620102406
 20
11.1677196838
 30
0.0
 10
10.5283815224
 20
11.1650627058
 30
0.0
 10
10.4952488612
 20
11.1620173732
 30
0.0
 10
10.4626792802
 20
11.1585898806
 30
0.0
 10
10.4307386585
 20
11.1547872049
 30
0.0
 10
10.3994915936
 20
11.1506170838
 30
0.0
 10
10.3690012729
 20
11.1460880034
 30
0.0
 10
10.339329342
 20
11.1412091788
 30
0.0
 10
10.3105357718
 20
11.1359905415
 30
0.0
 10
10.2826787304
 20
11.1304427248
 30
0.0
 10
10.2558144648
 20
11.1245770303
 30
0.0
 10
10.2299971846
 20
11.1184054069
 30
0.0
 10
10.2052789478
 20
11.1119404254
 30
0.0
 10
10.1817095278
 20
11.1051952455
 30
0.0
 10
10.1593363297
 20
11.098183601
 30
0.0
 10
10.1382041444
 20
11.0909197432
 30
0.0
 10
10.1183555082
 20
11.0834184123
 30
0.0
 10
10.1026930691
 20
11.0768887563
 30
0.0
 10
10.0908483328
 20
11.0715454104
 30
0.0
 10
10.0824423012
 20
11.0675476089
 30
0.0
 10
10.0743857552
 20
11.0635019178
 30
0.0
 10
10.0666827015
 20
11.0594103759
 30
0.0
 10
10.0593370008
 20
11.0552750232
 30
0.0
 10
10.0523523504
 20
11.0510978915
 30
0.0
 10
10.045732215
 20
11.0468811477
 30
0.0
 10
10.0394799137
 20
11.0426267738
 30
0.0
 10
10.0335984775
 20
11.0383368704
 30
0.0
 10
10.0280908065
 20
11.0340134103
 30
0.0
 10
10.0229599244
 20
11.029658741
 30
0.0
 10
10.0197282727
 20
11.026677277
 30
0.0
 10
10.0181794815
 20
11.0251812595
 30
0.0
  0
SPLINE
  5
384
100
AcDbEntity
  8
0
100
AcDbSpline
 62
7
  6
CONTINUOUS
 70
0
 71
3
 72
23
 73
19
 74
0
 42
0.0000001
 43
0.0000001
 44
0.0000000001
 40
0.0
 40
0.0
 40
0.0
 40
0.0
 40
0.0433590421
 40
0.0892116809
 40
0.1376139176
 40
0.1886037603
 40
0.2422033223
 40
0.2984218543
 40
0.3572568957
 40
0.4186961429
 40
0.4827186907
 40
0.5492956059
 40
0.6183914427
 40
0.6899641705
 40
0.7639663627
 40
0.8403454001
 40
0.919043795
 40
1.0
 40
1.0
 40
1.0
 40
1.0
 10
11.520553797
 20
10.1989056996
 30
0.0
 10
11.5179893015
 20
10.2010496433
 30
0.0
 10
11.5125846431
 20
10.2053090918
 30
0.0
 10
11.5039308232
 20
10.2114522243
 30
0.0
 10
11.494515767
 20
10.2175193957
 30
0.0
 10
11.484349312
 20
10.2235042341
 30
0.0
 10
11.4734417163
 20
10.2294009072
 30
0.0
 10
11.4618041106
 20
10.2352033112
 30
0.0
 10
11.4494484338
 20
10.2409055349
 30
0.0
 10
11.4363874013
 20
10.2465016802
 30
0.0
 10
11.422634485
 20
10.2519858929
 30
0.0
 10
11.4082039327
 20
10.2573525242
 30
0.0
 10
11.3931106918
 20
10.2625958959
 30
0.0
 10
11.3773704479
 20
10.267710581
 30
0.0
 10
11.3609995663
 20
10.2726911964
 30
0.0
 10
11.3440150725
 20
10.2775325163
 30
0.0
 10
11.3264347133
 20
10.2822294975
 30
0.0
 10
11.3144948734
 20
10.2852198274
 30
0.0
 10
11.3084298731
 20
10.2866917381
 30
0.0
  0
SPLINE
  5
385
100
AcDbEntity
  8
0
100
AcDbSpline
 62
7
  6
CONTINUOUS
 70
0
 71
3
 72
23
 73
19
 74
0
 42
0.0000001
 43
0.0000001
 44
0.0000000001
 40
0.0
 40
0.0
 40
0.0
 40
0.0
 40
0.0416102648
 40
0.0857552539
 40
0.1325600211
 40
0.1821186878
 40
0.2345000124
 40
0.2897505797
 40
0.3478989246
 40
0.408957824
 40
0.472926483
 40
0.5397928128
 40
0.6095340713
 40
0.6821189669
 40
0.7575078957
 40
0.8356541395
 40
0.916504624
 40
1.0
 40
1.0
 40
1.0
 40
1.0
 10
11.4897682542
 20
10.1817605087
 30
0.0
 10
11.4879077711
 20
10.1838504466
 30
0.0
 10
11.483907531
 20
10.1880118707
 30
0.0
 10
11.4773154907
 20
10.1940201084
 30
0.0
 10
11.4699672862
 20
10.1999674389
 30
0.0
 10
11.4618710968
 20
10.2058477927
 30
0.0
 10
11.453035128
 20
10.211655448
 30
0.0
 10
11.4434686578
 20
10.2173845734
 30
0.0
 10
11.4331816513
 20
10.2230292243
 30
0.0
 10
11.4221849282
 20
10.228583488
 30
0.0
 10
11.4104901147
 20
10.2340415328
 30
0.0
 10
11.3981095924
 20
10.2393974696
 30
0.0
 10
11.3850565582
 20
10.2446456424
 30
0.0
 10
11.3713449226
 20
10.2497803464
 30
0.0
 10
11.356989359
 20
10.2547960817
 30
0.0
 10
11.3420052284
 20
10.2596874458
 30
0.0
 10
11.326408652
 20
10.2644490968
 30
0.0
 10
11.3157819024
 20
10.2674856351
 30
0.0
 10
11.3103706879
 20
10.2689832689
 30
0.0
  0
SPLINE
  5
386
100
AcDbEntity
  8
0
100
AcDbSpline
 62
7
  6
CONTINUOUS
 70
0
 71
3
 72
20
 73
16
 74
0
 42
0.0000001
 43
0.0000001
 44
0.0000000001
 40
0.0
 40
0.0
 40
0.0
 40
0.0
 40
0.0474412424
 40
0.0968460401
 40
0.1482428143
 40
0.2016526371
 40
0.2570901889
 40
0.3145638087
 40
0.3740772101
 40
0.4356287427
 40
0.4992130092
 40
0.5648204907
 40
0.7020446328
 40
0.8471662215
 40
1.0
 40
1.0
 40
1.0
 40
1.0
 10
11.4562301402
 20
10.1731578968
 30
0.0
 10
11.4543796106
 20
10.1745873273
 30
0.0
 10
11.4505449046
 20
10.1774320985
 30
0.0
 10
11.4445263706
 20
10.1815774577
 30
0.0
 10
11.438129162
 20
10.1856845474
 30
0.0
 10
11.4313569445
 20
10.1897510293
 30
0.0
 10
11.4242134333
 20
10.1937746374
 30
0.0
 10
11.4167026481
 20
10.1977532051
 30
0.0
 10
11.4088287458
 20
10.2016844275
 30
0.0
 10
11.4005961632
 20
10.2055661745
 30
0.0
 10
11.3920094801
 20
10.2093962495
 30
0.0
 10
11.3799131664
 20
10.2145078835
 30
0.0
 10
11.3639300074
 20
10.2207370164
 30
0.0
 10
11.3436961228
 20
10.2278647711
 30
0.0
 10
11.3297040721
 20
10.2323328884
 30
0.0
 10
11.3224987372
 20
10.2345303766
 30
0.0
  0
SPLINE
  5
387
100
AcDbEntity
  8
0
100
AcDbSpline
 62
7
  6
CONTINUOUS
 70
0
 71
3
 72
23
 73
19
 74
0
 42
0.0000001
 43
0.0000001
 44
0.0000000001
 40
0.0
 40
0.0
 40
0.0
 40
0.0
 40
0.0755966894
 40
0.1466391965
 40
0.2134647074
 40
0.2765134986
 40
0.3363257304
 40
0.3935458535
 40
0.4489219493
 40
0.5032869296
 40
0.5575247817
 40
0.6125261135
 40
0.6691421681
 40
0.7281478382
 40
0.7902185594
 40
0.8559229117
 40
0.9257262624
 40
1.0
 40
1.0
 40
1.0
 40
1.0
 10
12.964204121
 20
8.7723785523
 30
0.0
 10
12.9627172011
 20
8.7709422979
 30
0.0
 10
12.9597453497
 20
8.7682445765
 30
0.0
 10
12.955146107
 20
8.7646406057
 30
0.0
 10
12.9505522689
 20
8.7616137719
 30
0.0
 10
12.9459680315
 20
8.7591686637
 30
0.0
 10
12.9413972561
 20
8.7573096277
 30
0.0
 10
12.9368446111
 20
8.756041373
 30
0.0
 10
12.9323161094
 20
8.7553682049
 30
0.0
 10
12.9278192731
 20
8.7552934837
 30
0.0
 10
12.9233627406
 20
8.7558181322
 30
0.0
 10
12.9189551771
 20
8.7569407713
 30
0.0
 10
12.9146040261
 20
8.7586574524
 30
0.0
 10
12.9103151
 20
8.7609632839
 30
0.0
 10
12.9060927127
 20
8.7638529268
 30
0.0
 10
12.9019402667
 20
8.7673213733
 30
0.0
 10
12.8978611606
 20
8.7713635386
 30
0.0
 10
12.8952758705
 20
8.7743417792
 30
0.0
 10
12.8939942941
 20
8.7759175474
 30
0.0
  0
SPLINE
  5
388
100
AcDbEntity
  8
0
100
AcDbSpline
 62
7
  6
CONTINUOUS
 70
0
 71
3
 72
71
 73
67
 74
0
 42
0.0000001
 43
0.0000001
 44
0.0000000001
 40
0.0
 40
0.0
 40
0.0
 40
0.0
 40
0.0077182325
 40
0.0113232019
 40
0.0147722188
 40
0.0212544076
 40
0.0243260006
 40
0.0273091778
 40
0.030226123
 40
0.0331007798
 40
0.0359582479
 40
0.0388241206
 40
0.0417237398
 40
0.0446814999
 40
0.047720284
 40
0.0508609779
 40
0.0575164285
 40
0.0610661945
 40
0.0647794657
 40
0.0686665157
 40
0.0727358581
 40
0.0769945889
 40
0.0814484305
 40
0.09095717
 40
0.1012890762
 40
0.1124566923
 40
0.1244627144
 40
0.1373021088
 40
0.1509635526
 40
0.1654303786
 40
0.1806814581
 40
0.1966918541
 40
0.2134332024
 40
0.2308741033
 40
0.2489805255
 40
0.2677160248
 40
0.2870419216
 40
0.3069176064
 40
0.3273007196
 40
0.3694107142
 40
0.4130051275
 40
0.4576982081
 40
0.5030914414
 40
0.5487782381
 40
0.5943486715
 40
0.6393941383
 40
0.683512056
 40
0.7263105395
 40
0.747097243
 40
0.7674144905
 40
0.7872185127
 40
0.8064671728
 40
0.8251200903
 40
0.8431388875
 40
0.8604874439
 40
0.877132046
 40
0.8930416766
 40
0.908188441
 40
0.9225478693
 40
0.9360993721
 40
0.9488269776
 40
0.9607201709
 40
0.9717747984
 40
0.9819946616
 40
0.99139442
 40
1.0
 40
1.0
 40
1.0
 40
1.0
 10
12.7060702827
 20
7.1977779596
 30
0.0
 10
12.7071993665
 20
7.1988287183
 30
0.0
 10
12.7089297794
 20
7.2002957134
 30
0.0
 10
12.7113450629
 20
7.2019960658
 30
0.0
 10
12.7136533199
 20
7.2034086756
 30
0.0
 10
12.7160081865
 20
7.2045351923
 30
0.0
 10
12.718388024
 20
7.2053265164
 30
0.0
 10
12.7201346225
 20
7.2057420762
 30
0.0
 10
12.7218732073
 20
7.2059893934
 30
0.0
 10
12.7236025193
 20
7.2060681592
 30
0.0
 10
12.7253211125
 20
7.2059781804
 30
0.0
 10
12.7270275155
 20
7.205719422
 30
0.0
 10
12.7287203169
 20
7.2052922927
 30
0.0
 10
12.7303981918
 20
7.2046973333
 30
0.0
 10
12.7320600249
 20
7.203935124
 30
0.0
 10
12.7342957066
 20
7.2026730087
 30
0.0
 10
12.7364545012
 20
7.2010880715
 30
0.0
 10
12.7385271023
 20
7.1992317153
 30
0.0
 10
12.7400949107
 20
7.1976464242
 30
0.0
 10
12.7416412565
 20
7.1958994581
 30
0.0
 10
12.7431656289
 20
7.1939917135
 30
0.0
 10
12.7446671329
 20
7.1919243276
 30
0.0
 10
12.7466816133
 20
7.1888899879
 30
0.0
 10
12.7491271461
 20
7.1846907509
 30
0.0
 10
12.7518958963
 20
7.1791433665
 30
0.0
 10
12.7545537687
 20
7.1729947021
 30
0.0
 10
12.7570946682
 20
7.1662590434
 30
0.0
 10
12.7595126834
 20
7.158951782
 30
0.0
 10
12.7618020269
 20
7.1510899587
 30
0.0
 10
12.7639572208
 20
7.1426920354
 30
0.0
 10
12.7659730664
 20
7.1337778524
 30
0.0
 10
12.7678446614
 20
7.1243685358
 30
0.0
 10
12.7695674665
 20
7.1144864552
 30
0.0
 10
12.7711373179
 20
7.1041551531
 30
0.0
 10
12.7725503939
 20
7.093399266
 30
0.0
 10
12.773803252
 20
7.0822444662
 30
0.0
 10
12.7748928615
 20
7.0707174117
 30
0.0
 10
12.7758166097
 20
7.0588456303
 30
0.0
 10
12.7768349991
 20
7.0424163989
 30
0.0
 10
12.7776661424
 20
7.0212294054
 30
0.0
 10
12.7779683552
 20
6.995170131
 30
0.0
 10
12.7775822579
 20
6.9684558543
 30
0.0
 10
12.7765112594
 20
6.9413419717
 30
0.0
 10
12.774765433
 20
6.9140875148
 30
0.0
 10
12.772361419
 20
6.8869529736
 30
0.0
 10
12.7693223052
 20
6.8601975826
 30
0.0
 10
12.7656773599
 20
6.8340771236
 30
0.0
 10
12.7621309248
 20
6.8128452956
 30
0.0
 10
12.7590077109
 20
6.7963715383
 30
0.0
 10
12.7565600307
 20
6.7844481091
 30
0.0
 10
12.7539903201
 20
6.7728649975
 30
0.0
 10
12.7513047373
 20
6.761649869
 30
0.0
 10
12.7485097393
 20
6.7508295319
 30
0.0
 10
12.7456120436
 20
6.7404298267
 30
0.0
 10
12.7426186435
 20
6.7304755617
 30
0.0
 10
12.7395367418
 20
6.7209904661
 30
0.0
 10
12.7363737368
 20
6.711997124
 30
0.0
 10
12.7331372568
 20
6.7035168866
 30
0.0
 10
12.7298350821
 20
6.6955698325
 30
0.0
 10
12.7264750989
 20
6.6881747162
 30
0.0
 10
12.7230653301
 20
6.6813488648
 30
0.0
 10
12.7196138168
 20
6.6751081193
 30
0.0
 10
12.7161286175
 20
6.6694668834
 30
0.0
 10
12.7126174019
 20
6.6644376312
 30
0.0
 10
12.7090881993
 20
6.6600321824
 30
0.0
 10
12.7066221913
 20
6.6574046573
 30
0.0
 10
12.7053852895
 20
6.6562099019
 30
0.0
  0
SPLINE
  5
389
100
AcDbEntity
  8
0
100
AcDbSpline
 62
7
  6
CONTINUOUS
 70
0
 71
3
 72
39
 73
35
 74
0
 42
0.0000001
 43
0.0000001
 44
0.0000000001
 40
0.0
 40
0.0
 40
0.0
 40
0.0
 40
0.0311159435
 40
0.0620233446
 40
0.0927351373
 40
0.1232711777
 40
0.1536587331
 40
0.1839312108
 40
0.2141268399
 40
0.2442870988
 40
0.274454976
 40
0.3046731308
 40
0.3349820902
 40
0.3654185441
 40
0.3960138642
 40
0.4267928828
 40
0.4577729963
 40
0.4889636214
 40
0.5203659689
 40
0.5519731787
 40
0.5837707188
 40
0.6157370636
 40
0.647844591
 40
0.6800606403
 40
0.712348731
 40
0.744669863
 40
0.7769838843
 40
0.8092508935
 40
0.8414326252
 40
0.8734938001
 40
0.9054034144
 40
0.9371358873
 40
0.968671823
 40
1.0
 40
1.0
 40
1.0
 40
1.0
 10
11.5980067325
 20
10.0827641305
 30
0.0
 10
11.5980067325
 20
10.0739469384
 30
0.0
 10
11.597145925
 20
10.0563588937
 30
0.0
 10
11.5932530183
 20
10.0303284651
 30
0.0
 10
11.5867993412
 20
10.0049780262
 30
0.0
 10
11.5778460683
 20
9.9805555988
 30
0.0
 10
11.5664788778
 20
9.9572964777
 30
0.0
 10
11.5528067926
 20
9.9354260786
 30
0.0
 10
11.5369616604
 20
9.9151560745
 30
0.0
 10
11.5190964149
 20
9.8966828847
 30
0.0
 10
11.4993839268
 20
9.8801853209
 30
0.0
 10
11.4780150928
 20
9.8658228519
 30
0.0
 10
11.4551968217
 20
9.8537341578
 30
0.0
 10
11.4311501135
 20
9.8440353967
 30
0.0
 10
11.4061075517
 20
9.836819609
 30
0.0
 10
11.3803111697
 20
9.8321554499
 30
0.0
 10
11.3540099283
 20
9.8300868637
 30
0.0
 10
11.3274573417
 20
9.8306328239
 30
0.0
 10
11.300909022
 20
9.833786908
 30
0.0
 10
11.2746202826
 20
9.8395179587
 30
0.0
 10
11.2488436859
 20
9.8477699364
 30
0.0
 10
11.223826707
 20
9.8584628475
 30
0.0
 10
11.1998094516
 20
9.8714934657
 30
0.0
 10
11.1770222675
 20
9.886736127
 30
0.0
 10
11.1556838286
 20
9.9040443227
 30
0.0
 10
11.1359987947
 20
9.9232516565
 30
0.0
 10
11.1181561173
 20
9.944173752
 30
0.0
 10
11.1023271893
 20
9.9666098573
 30
0.0
 10
11.088664078
 20
9.990344645
 30
0.0
 10
11.0772984343
 20
10.0151505521
 30
0.0
 10
11.068339777
 20
10.0407892585
 30
0.0
 10
11.0618749021
 20
10.0670155562
 30
0.0
 10
11.0579666043
 20
10.0935742504
 30
0.0
 10
11.0570882377
 20
10.1113996238
 30
0.0
 10
11.0570882377
 20
10.1202769555
 30
0.0
  0
SPLINE
  5
38A
100
AcDbEntity
  8
0
100
AcDbSpline
 62
7
  6
CONTINUOUS
 70
0
 71
3
 72
39
 73
35
 74
0
 42
0.0000001
 43
0.0000001
 44
0.0000000001
 40
0.0
 40
0.0
 40
0.0
 40
0.0
 40
0.0311159435
 40
0.0620233446
 40
0.0927351373
 40
0.1232711777
 40
0.1536587331
 40
0.1839312108
 40
0.2141268399
 40
0.2442870988
 40
0.274454976
 40
0.3046731308
 40
0.3349820902
 40
0.3654185441
 40
0.3960138642
 40
0.4267928828
 40
0.4577729963
 40
0.4889636214
 40
0.5203659689
 40
0.5519731787
 40
0.5837707188
 40
0.6157370636
 40
0.647844591
 40
0.6800606403
 40
0.712348731
 40
0.744669863
 40
0.7769838843
 40
0.8092508935
 40
0.8414326252
 40
0.8734938001
 40
0.9054034144
 40
0.9371358873
 40
0.968671823
 40
1.0
 40
1.0
 40
1.0
 40
1.0
 10
11.0570882377
 20
10.1202769555
 30
0.0
 10
11.0570882377
 20
10.1290941476
 30
0.0
 10
11.0579490451
 20
10.1466821923
 30
0.0
 10
11.0618419518
 20
10.1727126209
 30
0.0
 10
11.068295629
 20
10.1980630598
 30
0.0
 10
11.0772489018
 20
10.2224854872
 30
0.0
 10
11.0886160923
 20
10.2457446083
 30
0.0
 10
11.1022881776
 20
10.2676150075
 30
0.0
 10
11.1181333098
 20
10.2878850115
 30
0.0
 10
11.1359985553
 20
10.3063582013
 30
0.0
 10
11.1557110433
 20
10.3228557651
 30
0.0
 10
11.1770798773
 20
10.3372182341
 30
0.0
 10
11.1998981485
 20
10.3493069282
 30
0.0
 10
11.2239448566
 20
10.3590056893
 30
0.0
 10
11.2489874185
 20
10.366221477
 30
0.0
 10
11.2747838004
 20
10.3708856361
 30
0.0
 10
11.3010850418
 20
10.3729542223
 30
0.0
 10
11.3276376284
 20
10.3724082621
 30
0.0
 10
11.3541859481
 20
10.369254178
 30
0.0
 10
11.3804746875
 20
10.3635231273
 30
0.0
 10
11.4062512843
 20
10.3552711496
 30
0.0
 10
11.4312682632
 20
10.3445782385
 30
0.0
 10
11.4552855186
 20
10.3315476204
 30
0.0
 10
11.4780727026
 20
10.316304959
 30
0.0
 10
11.4994111415
 20
10.2989967633
 30
0.0
 10
11.5190961755
 20
10.2797894295
 30
0.0
 10
11.5369388529
 20
10.258867334
 30
0.0
 10
11.5527677809
 20
10.2364312287
 30
0.0
 10
11.5664308922
 20
10.212696441
 30
0.0
 10
11.5777965358
 20
10.1878905339
 30
0.0
 10
11.5867551932
 20
10.1622518275
 30
0.0
 10
11.593220068
 20
10.1360255298
 30
0.0
 10
11.5971283659
 20
10.1094668356
 30
0.0
 10
11.5980067325
 20
10.0916414623
 30
0.0
 10
11.5980067325
 20
10.0827641305
 30
0.0
  0
SPLINE
  5
38B
100
AcDbEntity
  8
0
100
AcDbSpline
 62
7
  6
CONTINUOUS
 70
0
 71
3
 72
88
 73
84
 74
0
 42
0.0000001
 43
0.0000001
 44
0.0000000001
 40
0.0
 40
0.0
 40
0.0
 40
0.0
 40
0.0039487881
 40
0.0077209402
 40
0.0113257129
 40
0.0147746375
 40
0.0212567925
 40
0.0243283513
 40
0.0273114477
 40
0.0302283303
 40
0.0331029257
 40
0.0359603334
 40
0.0388261373
 40
0.0417256852
 40
0.0446833683
 40
0.0477220643
 40
0.0508626716
 40
0.054123916
 40
0.0575222582
 40
0.0610719208
 40
0.0647850946
 40
0.0686720104
 40
0.0727412491
 40
0.0769998563
 40
0.0814535484
 40
0.086106926
 40
0.0909635104
 40
0.09602601
 40
0.1012962988
 40
0.1067755901
 40
0.1124645078
 40
0.1183630833
 40
0.1244709388
 40
0.1373099993
 40
0.1509710657
 40
0.1654375087
 40
0.1806882147
 40
0.1966982043
 40
0.2134391151
 40
0.2308795842
 40
0.2489855662
 40
0.267720598
 40
0.2870460298
 40
0.306921247
 40
0.3273038635
 40
0.3481499007
 40
0.3694139555
 40
0.3910493583
 40
0.4130083324
 40
0.4352421528
 40
0.4577012966
 40
0.5030934866
 40
0.5487792436
 40
0.594348648
 40
0.6393931064
 40
0.661592773
 40
0.6835109786
 40
0.7050991199
 40
0.7263095633
 40
0.7470957976
 40
0.7674125958
 40
0.7872161844
 40
0.8064644088
 40
0.8251169121
 40
0.843135329
 40
0.8604834991
 40
0.8771277157
 40
0.893037004
 40
0.9081834386
 40
0.922542536
 40
0.9360937482
 40
0.942561487
 40
0.9488217102
 40
0.9548732386
 40
0.9607153565
 40
0.9663477809
 40
0.97177069
 40
0.9769848516
 40
0.9819915972
 40
0.9867931343
 40
0.9913924631
 40
0.995793265
 40
1.0
 40
1.0
 40
1.0
 40
1.0
 10
12.9655124208
 20
9.8071598915
 30
0.0
 10
12.9666161789
 20
9.8081871041
 30
0.0
 10
12.9688227839
 20
9.8101445157
 30
0.0
 10
12.972208456
 20
9.8128384213
 30
0.0
 10
12.9755910946
 20
9.8152196251
 30
0.0
 10
12.9800013122
 20
9.8179187441
 30
0.0
 10
12.9845008911
 20
9.8200712571
 30
0.0
 10
12.9890480753
 20
9.8215834311
 30
0.0
 10
12.9923853576
 20
9.8223773877
 30
0.0
 10
12.9957072781
 20
9.8228500562
 30
0.0
 10
12.9990115113
 20
9.8230006006
 30
0.0
 10
13.0022952542
 20
9.8228286743
 30
0.0
 10
13.0055557274
 20
9.8223343922
 30
0.0
 10
13.0087901816
 20
9.8215182788
 30
0.0
 10
13.0119961515
 20
9.8203815072
 30
0.0
 10
13.0151713555
 20
9.8189252796
 30
0.0
 10
13.0183138815
 20
9.8171512345
 30
0.0
 10
13.0214219624
 20
9.8150609376
 30
0.0
 10
13.0244939737
 20
9.8126560523
 30
0.0
 10
13.0275284409
 20
9.8099383576
 30
0.0
 10
13.0305237672
 20
9.8069095585
 30
0.0
 10
13.0334785293
 20
9.8035716203
 30
0.0
 10
13.0363911314
 20
9.7999264934
 30
0.0
 10
13.0392600479
 20
9.7959763499
 30
0.0
 10
13.0420837421
 20
9.7917235097
 30
0.0
 10
13.0448605754
 20
9.7871704202
 30
0.0
 10
13.0475890625
 20
9.7823197796
 30
0.0
 10
13.0502675562
 20
9.777174389
 30
0.0
 10
13.0528945534
 20
9.7717372895
 30
0.0
 10
13.0554685088
 20
9.766011672
 30
0.0
 10
13.0579878638
 20
9.7600009082
 30
0.0
 10
13.0604512262
 20
9.7537085568
 30
0.0
 10
13.0637133337
 20
9.7447994031
 30
0.0
 10
13.0676258039
 20
9.7329754607
 30
0.0
 10
13.0720001293
 20
9.7179539663
 30
0.0
 10
13.0761181143
 20
9.701907932
 30
0.0
 10
13.0799698241
 20
9.6848755128
 30
0.0
 10
13.0835459282
 20
9.6668970217
 30
0.0
 10
13.0868377526
 20
9.648015222
 30
0.0
 10
13.0898373061
 20
9.6282750769
 30
0.0
 10
13.0925373036
 20
9.6077236632
 30
0.0
 10
13.0949311862
 20
9.5864100407
 30
0.0
 10
13.0970131461
 20
9.5643851287
 30
0.0
 10
13.0987781289
 20
9.5417015728
 30
0.0
 10
13.1002218468
 20
9.5184136104
 30
0.0
 10
13.1013407881
 20
9.4945769369
 30
0.0
 10
13.1021322233
 20
9.4702485741
 30
0.0
 10
13.1025942193
 20
9.4454867279
 30
0.0
 10
13.1027256324
 20
9.4203506661
 30
0.0
 10
13.102526153
 20
9.394900496
 30
0.0
 10
13.101816954
 20
9.3605091434
 30
0.0
 10
13.1001055468
 20
9.3171853553
 30
0.0
 10
13.0967698387
 20
9.2651099152
 30
0.0
 10
13.0921764245
 20
9.2132635824
 30
0.0
 10
13.0873143014
 20
9.1704574024
 30
0.0
 10
13.0828204465
 20
9.1367089528
 30
0.0
 10
13.0791828968
 20
9.1118842487
 30
0.0
 10
13.0752708414
 20
9.0874837965
 30
0.0
 10
13.0710936343
 20
9.0635659378
 30
0.0
 10
13.0666613194
 20
9.040187906
 30
0.0
 10
13.0619845437
 20
9.0174056175
 30
0.0
 10
13.0570745554
 20
8.9952735499
 30
0.0
 10
13.0519431639
 20
8.9738446061
 30
0.0
 10
13.046602714
 20
8.9531699888
 30
0.0
 10
13.0410660571
 20
8.9332990724
 30
0.0
 10
13.0353465167
 20
8.9142792787
 30
0.0
 10
13.0294578611
 20
8.8961559399
 30
0.0
 10
13.0234142684
 20
8.8789722044
 30
0.0
 10
13.0172302763
 20
8.8627688197
 30
0.0
 10
13.0109207436
 20
8.8475843726
 30
0.0
 10
13.0054896698
 20
8.8356305122
 30
0.0
 10
13.0010838473
 20
8.8266145089
 30
0.0
 10
12.9978089863
 20
8.8202347193
 30
0.0
 10
12.9945140812
 20
8.8141354236
 30
0.0
 10
12.9912010859
 20
8.8083202209
 30
0.0
 10
12.9878719772
 20
8.8027925491
 30
0.0
 10
12.9845286825
 20
8.7975557031
 30
0.0
 10
12.9811732599
 20
8.7926127467
 30
0.0
 10
12.9778075904
 20
8.787966608
 30
0.0
 10
12.9744336382
 20
8.7836199482
 30
0.0
 10
12.9710532523
 20
8.7795752894
 30
0.0
 10
12.9676685825
 20
8.775835235
 30
0.0
 10
12.965359452
 20
8.7734945165
 30
0.0
 10
12.964204121
 20
8.7723785523
 30
0.0
  0
SPLINE
  5
38C
100
AcDbEntity
  8
0
100
AcDbSpline
 62
7
  6
CONTINUOUS
 70
0
 71
3
 72
71
 73
67
 74
0
 42
0.0000001
 43
0.0000001
 44
0.0000000001
 40
0.0
 40
0.0
 40
0.0
 40
0.0
 40
0.0155842125
 40
0.0311159548
 40
0.0465952452
 40
0.0620238832
 40
0.077403449
 40
0.0927362827
 40
0.1080251236
 40
0.1232731733
 40
0.1384840551
 40
0.1536617757
 40
0.1688106896
 40
0.1839354533
 40
0.1990409787
 40
0.2141323824
 40
0.2292149319
 40
0.2442939892
 40
0.2593749538
 40
0.2744632042
 40
0.289564041
 40
0.3046826304
 40
0.3198239505
 40
0.3349927388
 40
0.3501934431
 40
0.365430177
 40
0.3807066786
 40
0.3960262757
 40
0.4113918552
 40
0.4268058381
 40
0.4422701582
 40
0.4577862482
 40
0.4733550295
 40
0.4889769098
 40
0.5046517844
 40
0.5203790421
 40
0.5361575756
 40
0.5519857966
 40
0.5678616546
 40
0.5837826615
 40
0.5997459176
 40
0.6157481409
 40
0.6317856994
 40
0.6478546448
 40
0.6639507505
 40
0.6800695509
 40
0.6962063814
 40
0.7123564195
 40
0.7285147271
 40
0.7446762936
 40
0.7608360803
 40
0.7769890646
 40
0.7931302831
 40
0.8092548749
 40
0.8253581239
 40
0.841435501
 40
0.8574827056
 40
0.873495705
 40
0.8894707701
 40
0.9054045133
 40
0.9212939187
 40
0.9371363615
 40
0.9529297228
 40
0.9686720688
 40
0.9843626653
 40
1.0
 40
1.0
 40
1.0
 40
1.0
 10
10.9991326847
 20
6.7435555944
 30
0.0
 10
10.9991326847
 20
6.7351152773
 30
0.0
 10
10.9987196207
 20
6.718260068
 30
0.0
 10
10.996855082
 20
6.6930834561
 30
0.0
 10
10.9937508422
 20
6.6681136426
 30
0.0
 10
10.9894145715
 20
6.6434118072
 30
0.0
 10
10.9838564807
 20
6.6190370956
 30
0.0
 10
10.9770899797
 20
6.5950483964
 30
0.0
 10
10.9691312793
 20
6.5715035133
 30
0.0
 10
10.9599995324
 20
6.5484592258
 30
0.0
 10
10.9497167091
 20
6.5259711041
 30
0.0
 10
10.9383075565
 20
6.504093388
 30
0.0
 10
10.9257995429
 20
6.4828788527
 30
0.0
 10
10.9122227873
 20
6.4623786841
 30
0.0
 10
10.8976100031
 20
6.4426423441
 30
0.0
 10
10.8819964272
 20
6.4237174401
 30
0.0
 10
10.8654197089
 20
6.4056496251
 30
0.0
 10
10.8479198241
 20
6.3884824843
 30
0.0
 10
10.8295389788
 20
6.3722574294
 30
0.0
 10
10.8103215036
 20
6.3570136023
 30
0.0
 10
10.7903137626
 20
6.3427877591
 30
0.0
 10
10.7695640337
 20
6.3296141813
 30
0.0
 10
10.7481223777
 20
6.3175246109
 30
0.0
 10
10.7260405191
 20
6.3065481708
 30
0.0
 10
10.7033717211
 20
6.2967112957
 30
0.0
 10
10.6801706553
 20
6.2880376739
 30
0.0
 10
10.6564932796
 20
6.280548161
 30
0.0
 10
10.6323966924
 20
6.2742607463
 30
0.0
 10
10.6079389901
 20
6.2691905238
 30
0.0
 10
10.5831791287
 20
6.2653496543
 30
0.0
 10
10.5581767821
 20
6.2627473383
 30
0.0
 10
10.5329922008
 20
6.2613897979
 30
0.0
 10
10.507686067
 20
6.261280229
 30
0.0
 10
10.4823193443
 20
6.2624188242
 30
0.0
 10
10.4569531321
 20
6.2648027779
 30
0.0
 10
10.4316485201
 20
6.2684262923
 30
0.0
 10
10.4064664436
 20
6.2732805941
 30
0.0
 10
10.3814675391
 20
6.2793539521
 30
0.0
 10
10.3567119905
 20
6.2866316785
 30
0.0
 10
10.3322593902
 20
6.2950961984
 30
0.0
 10
10.3081685977
 20
6.3047270898
 30
0.0
 10
10.2844975996
 20
6.3155011327
 30
0.0
 10
10.2613033737
 20
6.327392367
 30
0.0
 10
10.2386417484
 20
6.3403721434
 30
0.0
 10
10.2165672581
 20
6.3544091791
 30
0.0
 10
10.1951330269
 20
6.3694696598
 30
0.0
 10
10.1743906396
 20
6.3855173172
 30
0.0
 10
10.1543900203
 20
6.4025135145
 30
0.0
 10
10.135179316
 20
6.4204173418
 30
0.0
 10
10.1168047683
 20
6.4391856985
 30
0.0
 10
10.0993105972
 20
6.4587733961
 30
0.0
 10
10.0827389123
 20
6.4791332848
 30
0.0
 10
10.0671296098
 20
6.5002163615
 30
0.0
 10
10.0525202774
 20
6.5219718867
 30
0.0
 10
10.0389461091
 20
6.5443475068
 30
0.0
 10
10.0264397968
 20
6.5672893655
 30
0.0
 10
10.0150314586
 20
6.5907422408
 30
0.0
 10
10.004748582
 20
6.6146496852
 30
0.0
 10
9.9956159536
 20
6.6389541568
 30
0.0
 10
9.9876556015
 20
6.6635971585
 30
0.0
 10
9.9808867535
 20
6.6885193648
 30
0.0
 10
9.9753257123
 20
6.7136608131
 30
0.0
 10
9.9709859904
 20
6.7389608407
 30
0.0
 10
9.9678779169
 20
6.7643589277
 30
0.0
 10
9.9660092806
 20
6.7897928917
 30
0.0
 10
9.9655919893
 20
6.8067627973
 30
0.0
 10
9.9655919893
 20
6.8152318851
 30
0.0
  0
SPLINE
  5
38D
100
AcDbEntity
  8
0
100
AcDbSpline
 62
7
  6
CONTINUOUS
 70
0
 71
3
 72
39
 73
35
 74
0
 42
0.0000001
 43
0.0000001
 44
0.0000000001
 40
0.0
 40
0.0
 40
0.0
 40
0.0
 40
0.029942471
 40
0.0599093183
 40
0.0899243244
 40
0.1200101034
 40
0.1501875624
 40
0.1804754148
 40
0.2108897596
 40
0.2414437361
 40
0.2721472598
 40
0.3030068424
 40
0.3340254951
 40
0.3652027149
 40
0.3965345496
 40
0.4280137343
 40
0.459629891
 40
0.4913697854
 40
0.5232176334
 40
0.5551554501
 40
0.5871634341
 40
0.6192203766
 40
0.6513040925
 40
0.6833918636
 40
0.7154608915
 40
0.7474887505
 40
0.7794538351
 40
0.8113357956
 40
0.8431159562
 40
0.8747777121
 40
0.9063068677
 40
0.9376920929
 40
0.9689246489
 40
1.0
 40
1.0
 40
1.0
 40
1.0
 10
10.8183056902
 20
6.4740714075
 30
0.0
 10
10.8107905556
 20
6.4668123754
 30
0.0
 10
10.795169401
 20
6.4528801001
 30
0.0
 10
10.7701418476
 20
6.4338998684
 30
0.0
 10
10.743646441
 20
6.4169327597
 30
0.0
 10
10.7158312086
 20
6.4020739722
 30
0.0
 10
10.686849072
 20
6.3894046971
 30
0.0
 10
10.6568599853
 20
6.3789945719
 30
0.0
 10
10.6260292114
 20
6.3709005413
 30
0.0
 10
10.5945266054
 20
6.3651667919
 30
0.0
 10
10.5625256131
 20
6.3618244714
 30
0.0
 10
10.5302023277
 20
6.3608915603
 30
0.0
 10
10.4977345209
 20
6.3623727839
 30
0.0
 10
10.4653006672
 20
6.366259577
 30
0.0
 10
10.4330789698
 20
6.3725301918
 30
0.0
 10
10.401246395
 20
6.3811498277
 30
0.0
 10
10.3699777153
 20
6.3920708326
 30
0.0
 10
10.3394445682
 20
6.4052329773
 30
0.0
 10
10.3098145149
 20
6.4205637585
 30
0.0
 10
10.281250133
 20
6.4379788119
 30
0.0
 10
10.2539081463
 20
6.4573823942
 30
0.0
 10
10.2279385755
 20
6.4786679001
 30
0.0
 10
10.2034839275
 20
6.5017184441
 30
0.0
 10
10.1806784218
 20
6.5264074916
 30
0.0
 10
10.1596472337
 20
6.5525995248
 30
0.0
 10
10.1405058412
 20
6.5801508088
 30
0.0
 10
10.1233593968
 20
6.6089101672
 30
0.0
 10
10.1083021556
 20
6.6387198049
 30
0.0
 10
10.0954169638
 20
6.6694161444
 30
0.0
 10
10.0847747921
 20
6.70083077
 30
0.0
 10
10.0764342904
 20
6.7327910954
 30
0.0
 10
10.0704416509
 20
6.7651222158
 30
0.0
 10
10.0668299776
 20
6.7976443075
 30
0.0
 10
10.0660210559
 20
6.8193951164
 30
0.0
 10
10.0660210559
 20
6.83023892
 30
0.0
  0
SPLINE
  5
38E
100
AcDbEntity
  8
0
100
AcDbSpline
 62
7
  6
CONTINUOUS
 70
0
 71
3
 72
23
 73
19
 74
0
 42
0.0000001
 43
0.0000001
 44
0.0000000001
 40
0.0
 40
0.0
 40
0.0
 40
0.0
 40
0.0617101439
 40
0.1234413935
 40
0.1852146431
 40
0.2470503547
 40
0.3089683495
 40
0.3709876176
 40
0.4331261309
 40
0.4954006615
 40
0.5578266134
 40
0.6204179128
 40
0.6831867943
 40
0.7461438773
 40
0.8092980348
 40
0.872655047
 40
0.9362230873
 40
1.0
 40
1.0
 40
1.0
 40
1.0
 10
10.1888652722
 20
7.1257160406
 30
0.0
 10
10.1840011508
 20
7.1210176799
 30
0.0
 10
10.1745113227
 20
7.1113670881
 30
0.0
 10
10.1610372948
 20
7.0961756776
 30
0.0
 10
10.1483523984
 20
7.0803010855
 30
0.0
 10
10.1364864065
 20
7.0637804165
 30
0.0
 10
10.1254665251
 20
7.0466516648
 30
0.0
 10
10.1153181622
 20
7.0289543977
 30
0.0
 10
10.1060646851
 20
7.0107294298
 30
0.0
 10
10.097727433
 20
6.9920187903
 30
0.0
 10
10.0903255941
 20
6.9728656374
 30
0.0
 10
10.0838761707
 20
6.9533141576
 30
0.0
 10
10.0783939758
 20
6.9334094373
 30
0.0
 10
10.0738916203
 20
6.9131973315
 30
0.0
 10
10.0703795172
 20
6.8927245645
 30
0.0
 10
10.0678654964
 20
6.8720379282
 30
0.0
 10
10.0663555998
 20
6.8511860144
 30
0.0
 10
10.0660210559
 20
6.8372281255
 30
0.0
 10
10.0660210559
 20
6.83023892
 30
0.0
  0
SPLINE
  5
38F
100
AcDbEntity
  8
0
100
AcDbSpline
 62
7
  6
CONTINUOUS
 70
0
 71
3
 72
41
 73
37
 74
0
 42
0.0000001
 43
0.0000001
 44
0.0000000001
 40
0.0
 40
0.0
 40
0.0
 40
0.0
 40
0.0299421231
 40
0.0449237695
 40
0.0599145183
 40
0.0899291758
 40
0.1200146052
 40
0.1350933672
 40
0.1501974867
 40
0.1804849861
 40
0.2108989765
 40
0.2414525971
 40
0.2721557632
 40
0.3030149856
 40
0.3340332752
 40
0.3652101299
 40
0.396541598
 40
0.4280204146
 40
0.4596362012
 40
0.4913757235
 40
0.5232231978
 40
0.5551606402
 40
0.5871682493
 40
0.6192248165
 40
0.6513081566
 40
0.6833955523
 40
0.7154642055
 40
0.7474916905
 40
0.7794564022
 40
0.8113379898
 40
0.8431177829
 40
0.8747791608
 40
0.9063079861
 40
0.9376927275
 40
0.9689252295
 40
1.0
 40
1.0
 40
1.0
 40
1.0
 10
11.4919975194
 20
9.9670078144
 30
0.0
 10
11.4884970966
 20
9.9636266713
 30
0.0
 10
11.4830401682
 20
9.9587597905
 30
0.0
 10
11.4753977988
 20
9.9527211126
 30
0.0
 10
11.4675121026
 20
9.9469828678
 30
0.0
 10
11.4572225212
 20
9.9403935462
 30
0.0
 10
11.4464326613
 20
9.9346297721
 30
0.0
 10
11.4375338155
 20
9.930529418
 30
0.0
 10
11.4284511454
 20
9.9267675476
 30
0.0
 10
11.4167984858
 20
9.9227224686
 30
0.0
 10
11.4024383435
 20
9.9189525414
 30
0.0
 10
11.3877648549
 20
9.9162818204
 30
0.0
 10
11.3728593387
 20
9.9147250395
 30
0.0
 10
11.3578036744
 20
9.9142905067
 30
0.0
 10
11.3426807028
 20
9.9149804337
 30
0.0
 10
11.3275735436
 20
9.9167908351
 30
0.0
 10
11.3125652043
 20
9.9197115856
 30
0.0
 10
11.2977381128
 20
9.9237264754
 30
0.0
 10
11.2831736755
 20
9.9288133063
 30
0.0
 10
11.2689518352
 20
9.934944017
 30
0.0
 10
11.255150639
 20
9.942084839
 30
0.0
 10
11.2418458159
 20
9.9501964832
 30
0.0
 10
11.2291103664
 20
9.9592343551
 30
0.0
 10
11.2170141678
 20
9.9691487985
 30
0.0
 10
11.2056235947
 20
9.9798853663
 30
0.0
 10
11.1950011591
 20
9.9913851167
 30
0.0
 10
11.1852051709
 20
10.0035849337
 30
0.0
 10
11.176289421
 20
10.0164178699
 30
0.0
 10
11.1683028892
 20
10.0298135099
 30
0.0
 10
11.1612894744
 20
10.0436983534
 30
0.0
 10
11.1552877638
 20
10.0579962056
 30
0.0
 10
11.1503307993
 20
10.0726286256
 30
0.0
 10
11.1464459438
 20
10.087515211
 30
0.0
 10
11.1436546358
 20
10.1025745507
 30
0.0
 10
11.141972419
 20
10.1177228104
 30
0.0
 10
11.141595623
 20
10.1278539953
 30
0.0
 10
11.141595623
 20
10.1329048264
 30
0.0
  0
SPLINE
  5
390
100
AcDbEntity
  8
0
100
AcDbSpline
 62
7
  6
CONTINUOUS
 70
0
 71
3
 72
15
 73
11
 74
0
 42
0.0000001
 43
0.0000001
 44
0.0000000001
 40
0.0
 40
0.0
 40
0.0
 40
0.0
 40
0.1234394227
 40
0.2470466262
 40
0.3709825615
 40
0.4953948806
 40
0.6204121373
 40
0.7461393726
 40
0.8726516824
 40
1.0
 40
1.0
 40
1.0
 40
1.0
 10
11.1988144494
 20
10.2705332452
 30
0.0
 10
11.1942839219
 20
10.2661570992
 30
0.0
 10
11.1856612973
 20
10.2569247675
 30
0.0
 10
11.1742094969
 20
10.2418110338
 30
0.0
 10
11.1643356009
 20
10.225562122
 30
0.0
 10
11.1561324527
 20
10.2083302697
 30
0.0
 10
11.149674876
 20
10.1902745842
 30
0.0
 10
11.1450220757
 20
10.17156159
 30
0.0
 10
11.1422160911
 20
10.1523662899
 30
0.0
 10
11.141595623
 20
10.1394032063
 30
0.0
 10
11.141595623
 20
10.1329048264
 30
0.0
  0
SPLINE
  5
391
100
AcDbEntity
  8
0
100
AcDbSpline
 62
7
  6
CONTINUOUS
 70
0
 71
3
 72
15
 73
11
 74
0
 42
0.0000001
 43
0.0000001
 44
0.0000000001
 40
0.0
 40
0.0
 40
0.0
 40
0.0
 40
0.1453704723
 40
0.2840482116
 40
0.4163642545
 40
0.5427313609
 40
0.663651093
 40
0.7797073106
 40
0.8915710365
 40
1.0
 40
1.0
 40
1.0
 40
1.0
 10
12.8849981985
 20
8.8570774242
 30
0.0
 10
12.884035832
 20
8.8561478494
 30
0.0
 10
12.8821118651
 20
8.8543757317
 30
0.0
 10
12.8791571031
 20
8.8519323018
 30
0.0
 10
12.8762048698
 20
8.8497695431
 30
0.0
 10
12.8732569562
 20
8.8478892024
 30
0.0
 10
12.8703150138
 20
8.8462926078
 30
0.0
 10
12.8673804721
 20
8.8449811741
 30
0.0
 10
12.8644554587
 20
8.8439561751
 30
0.0
 10
12.8624865015
 20
8.8434580373
 30
0.0
 10
12.861508408
 20
8.8432597427
 30
0.0
  0
SPLINE
  5
392
100
AcDbEntity
  8
0
100
AcDbSpline
 62
7
  6
CONTINUOUS
 70
0
 71
3
 72
64
 73
60
 74
0
 42
0.0000001
 43
0.0000001
 44
0.0000000001
 40
0.0
 40
0.0
 40
0.0
 40
0.0
 40
0.0080089169
 40
0.0166792562
 40
0.0260321349
 40
0.0360808128
 40
0.0468306827
 40
0.058281289
 40
0.0704274454
 40
0.0832598607
 40
0.0967657678
 40
0.1109294622
 40
0.1257326285
 40
0.1411545797
 40
0.157172577
 40
0.1737620295
 40
0.1908965969
 40
0.208548394
 40
0.2266881501
 40
0.2452852769
 40
0.2643079935
 40
0.283723476
 40
0.3235958652
 40
0.364622951
 40
0.4065134459
 40
0.4489680352
 40
0.4916822075
 40
0.534349089
 40
0.5766622376
 40
0.6183184445
 40
0.6590205473
 40
0.6984803268
 40
0.7176578575
 40
0.736422289
 40
0.7547414282
 40
0.7725842052
 40
0.7899208382
 40
0.8067228971
 40
0.8229634204
 40
0.8386171313
 40
0.8536605631
 40
0.8680722076
 40
0.8818328035
 40
0.8949256141
 40
0.9073366929
 40
0.9190553432
 40
0.9300747195
 40
0.9403924524
 40
0.9500115906
 40
0.9589419415
 40
0.9631547734
 40
0.9672030668
 40
0.9710907655
 40
0.9748226984
 40
0.9818409336
 40
0.9883187414
 40
0.9943359152
 40
0.9972051482
 40
1.0
 40
1.0
 40
1.0
 40
1.0
 10
12.8849981985
 20
8.8570774242
 30
0.0
 10
12.8867803104
 20
8.8587988121
 30
0.0
 10
12.8903357539
 20
8.8625471444
 30
0.0
 10
12.8954500614
 20
8.8687752748
 30
0.0
 10
12.9005434051
 20
8.8758154175
 30
0.0
 10
12.905606388
 20
8.883654172
 30
0.0
 10
12.9106300929
 20
8.8922775686
 30
0.0
 10
12.9156051567
 20
8.9016696319
 30
0.0
 10
12.9205222186
 20
8.9118128972
 30
0.0
 10
12.9253719196
 20
8.9226883379
 30
0.0
 10
12.9301450122
 20
8.9342754178
 30
0.0
 10
12.9348323294
 20
8.9465521902
 30
0.0
 10
12.9394248434
 20
8.9594953347
 30
0.0
 10
12.9439137419
 20
8.9730801922
 30
0.0
 10
12.9482903829
 20
8.9872808522
 30
0.0
 10
12.9525463181
 20
9.0020702073
 30
0.0
 10
12.9566733689
 20
9.017419987
 30
0.0
 10
12.9606635986
 20
9.0333008313
 30
0.0
 10
12.9645093122
 20
9.0496823626
 30
0.0
 10
12.9682031016
 20
9.0665332189
 30
0.0
 10
12.9717379132
 20
9.0838211545
 30
0.0
 10
12.9762699082
 20
9.1076210802
 30
0.0
 10
12.9814759918
 20
9.1382194257
 30
0.0
 10
12.986936802
 20
9.1758158941
 30
0.0
 10
12.9916227575
 20
9.2143216009
 30
0.0
 10
12.9954977487
 20
9.2534417022
 30
0.0
 10
12.9985319778
 20
9.2928768383
 30
0.0
 10
13.0007021479
 20
9.3323251367
 30
0.0
 10
13.0019917384
 20
9.3714846186
 30
0.0
 10
13.0023911009
 20
9.4100556173
 30
0.0
 10
13.0018973947
 20
9.4477427746
 30
0.0
 10
13.0007348265
 20
9.4784571705
 30
0.0
 10
12.9993480012
 20
9.5023634103
 30
0.0
 10
12.9980989686
 20
9.5197246514
 30
0.0
 10
12.9966336836
 20
9.5366545584
 30
0.0
 10
12.994954936
 20
9.5531207427
 30
0.0
 10
12.9930660097
 20
9.5690916842
 30
0.0
 10
12.9909705673
 20
9.584536829
 30
0.0
 10
12.9886726487
 20
9.5994266369
 30
0.0
 10
12.9861767219
 20
9.6137326592
 30
0.0
 10
12.9834876371
 20
9.6274275907
 30
0.0
 10
12.9806105843
 20
9.6404853159
 30
0.0
 10
12.9775511308
 20
9.6528809848
 30
0.0
 10
12.9743152112
 20
9.6645910775
 30
0.0
 10
12.9709090499
 20
9.6755934357
 30
0.0
 10
12.9673391511
 20
9.6858673506
 30
0.0
 10
12.9636123337
 20
9.6953935957
 30
0.0
 10
12.9597355385
 20
9.7041546455
 30
0.0
 10
12.9557159175
 20
9.7121340912
 30
0.0
 10
12.9521874707
 20
9.7182342932
 30
0.0
 10
12.949290348
 20
9.7226957001
 30
0.0
 10
12.9471288841
 20
9.7257715749
 30
0.0
 10
12.9449373582
 20
9.7286413104
 30
0.0
 10
12.9420359505
 20
9.7321195861
 30
0.0
 10
12.9383432776
 20
9.7359764131
 30
0.0
 10
12.9337064732
 20
9.7398627584
 30
0.0
 10
12.9296877338
 20
9.7424329025
 30
0.0
 10
12.9264413655
 20
9.7440273414
 30
0.0
 10
12.9248109021
 20
9.7446755219
 30
0.0
 10
12.9239948855
 20
9.7449613997
 30
0.0
  0
SPLINE
  5
393
100
AcDbEntity
  8
0
100
AcDbSpline
 62
7
  6
CONTINUOUS
 70
0
 71
3
 72
18
 73
14
 74
0
 42
0.0000001
 43
0.0000001
 44
0.0000000001
 40
0.0
 40
0.0
 40
0.0
 40
0.0
 40
0.0548620599
 40
0.1099280451
 40
0.1653994776
 40
0.2214731111
 40
0.2783387003
 40
0.3361775499
 40
0.4554064184
 40
0.5804414564
 40
0.712334317
 40
0.8519586594
 40
1.0
 40
1.0
 40
1.0
 40
1.0
 10
9.9915335336
 20
10.9727972789
 30
0.0
 10
9.9915335395
 20
10.9739016811
 30
0.0
 10
9.9916036418
 20
10.9761152242
 30
0.0
 10
9.9919187988
 20
10.9794319419
 30
0.0
 10
9.9924439457
 20
10.9827467429
 30
0.0
 10
9.9931788502
 20
10.9860584223
 30
0.0
 10
9.9941232114
 20
10.9893661537
 30
0.0
 10
9.9956765199
 20
10.9938141538
 30
0.0
 10
9.998164871
 20
10.9993774083
 30
0.0
 10
10.0019522978
 20
11.0059476394
 30
0.0
 10
10.0065651868
 20
11.0124753612
 30
0.0
 10
10.0119965272
 20
11.0189539767
 30
0.0
 10
10.0160359948
 20
11.0231108103
 30
0.0
 10
10.0181794815
 20
11.0251812595
 30
0.0
  0
SPLINE
  5
394
100
AcDbEntity
  8
0
100
AcDbSpline
 62
7
  6
CONTINUOUS
 70
0
 71
3
 72
94
 73
90
 74
0
 42
0.0000001
 43
0.0000001
 44
0.0000000001
 40
0.0
 40
0.0
 40
0.0
 40
0.0
 40
0.0032619916
 40
0.0064151899
 40
0.0094765495
 40
0.0124648484
 40
0.0154004385
 40
0.0183048965
 40
0.0212005638
 40
0.0241100038
 40
0.0270554296
 40
0.0300581864
 40
0.0331382936
 40
0.0363141467
 40
0.0396023363
 40
0.0430175588
 40
0.0465726995
 40
0.0502788489
 40
0.054145521
 40
0.0581807253
 40
0.0623911702
 40
0.0667823979
 40
0.071358886
 40
0.0761242437
 40
0.0810812142
 40
0.0862318818
 40
0.0915776529
 40
0.0971193917
 40
0.1028574604
 40
0.1087917398
 40
0.1149217494
 40
0.1212465783
 40
0.1277650347
 40
0.1344755715
 40
0.1484649624
 40
0.1631976783
 40
0.178652484
 40
0.1948049441
 40
0.2116277885
 40
0.2290912139
 40
0.2471631353
 40
0.2658094089
 40
0.2849940313
 40
0.304679316
 40
0.3248260571
 40
0.3453936817
 40
0.3663403956
 40
0.3876233212
 40
0.4091986346
 40
0.4310217003
 40
0.4530472017
 40
0.475229269
 40
0.4975216074
 40
0.5198776229
 40
0.5422505491
 40
0.5645935745
 40
0.5868599686
 40
0.6090032083
 40
0.6309771037
 40
0.6527359252
 40
0.6742345307
 40
0.6954284967
 40
0.7162742506
 40
0.736729203
 40
0.7567518843
 40
0.776302085
 40
0.7953410039
 40
0.8138314027
 40
0.8317377754
 40
0.8490265332
 40
0.865666203
 40
0.8816276562
 40
0.8968843753
 40
0.9114127713
 40
0.9251925708
 40
0.9317966829
 40
0.9382078364
 40
0.9444246496
 40
0.9504460987
 40
0.9562715047
 40
0.9619005679
 40
0.9673334665
 40
0.9725707996
 40
0.9776137393
 40
0.9824640062
 40
0.9871241131
 40
0.9915973756
 40
0.995887774
 40
1.0
 40
1.0
 40
1.0
 40
1.0
 10
11.5555753841
 20
10.9631097413
 30
0.0
 10
11.5564994971
 20
10.9646784448
 30
0.0
 10
11.5582123758
 20
10.9678269042
 30
0.0
 10
11.5603884239
 20
10.9726533688
 30
0.0
 10
11.5621221843
 20
10.9774946116
 30
0.0
 10
11.5634118449
 20
10.9823474156
 30
0.0
 10
11.5642560207
 20
10.9872087062
 30
0.0
 10
11.5646536001
 20
10.9920750453
 30
0.0
 10
11.5646042052
 20
10.9969428189
 30
0.0
 10
11.5641077165
 20
11.0018083436
 30
0.0
 10
11.5631649611
 20
11.0066680534
 30
0.0
 10
11.5617769183
 20
11.0115185522
 30
0.0
 10
11.5599451895
 20
11.0163567627
 30
0.0
 10
11.5576715062
 20
11.0211798591
 30
0.0
 10
11.5549577458
 20
11.0259852041
 30
0.0
 10
11.5518060336
 20
11.0307704091
 30
0.0
 10
11.548218385
 20
11.0355330137
 30
0.0
 10
11.5441971687
 20
11.0402707824
 30
0.0
 10
11.539744674
 20
11.0449812891
 30
0.0
 10
11.5348635111
 20
11.0496622376
 30
0.0
 10
11.5295563937
 20
11.0543112291
 30
0.0
 10
11.5238262455
 20
11.0589258294
 30
0.0
 10
11.5176762627
 20
11.063503681
 30
0.0
 10
11.5111097705
 20
11.0680422488
 30
0.0
 10
11.504130436
 20
11.0725391903
 30
0.0
 10
11.4967420568
 20
11.0769919692
 30
0.0
 10
11.4889487396
 20
11.0813982073
 30
0.0
 10
11.480754781
 20
11.0857554549
 30
0.0
 10
11.472164715
 20
11.0900612807
 30
0.0
 10
11.4631833248
 20
11.0943133482
 30
0.0
 10
11.4538155767
 20
11.0985092111
 30
0.0
 10
11.4440667116
 20
11.1026466064
 30
0.0
 10
11.4339421271
 20
11.1067231784
 30
0.0
 10
11.4197519305
 20
11.1121498465
 30
0.0
 10
11.4011051141
 20
11.1187491375
 30
0.0
 10
11.3776244102
 20
11.1262845954
 30
0.0
 10
11.3527911928
 20
11.133525269
 30
0.0
 10
11.3266609477
 20
11.1404548345
 30
0.0
 10
11.2992918452
 20
11.1470576461
 30
0.0
 10
11.2707449981
 20
11.1533187912
 30
0.0
 10
11.2410841938
 20
11.159224131
 30
0.0
 10
11.2103757702
 20
11.1647603335
 30
0.0
 10
11.1786884453
 20
11.1699149016
 30
0.0
 10
11.1460931573
 20
11.1746762022
 30
0.0
 10
11.1126628996
 20
11.1790334918
 30
0.0
 10
11.0784725541
 20
11.1829769408
 30
0.0
 10
11.0435987208
 20
11.1864976535
 30
0.0
 10
11.0081195451
 20
11.1895876918
 30
0.0
 10
10.972114539
 20
11.1922400925
 30
0.0
 10
10.9356643995
 20
11.1944488782
 30
0.0
 10
10.8988508255
 20
11.1962090716
 30
0.0
 10
10.8617563341
 20
11.1975167061
 30
0.0
 10
10.8244640756
 20
11.1983688343
 30
0.0
 10
10.7870576463
 20
11.1987635342
 30
0.0
 10
10.7496209001
 20
11.1986999162
 30
0.0
 10
10.7122377592
 20
11.1981781259
 30
0.0
 10
10.6749920241
 20
11.1971993401
 30
0.0
 10
10.6379671857
 20
11.1957657644
 30
0.0
 10
10.6012462374
 20
11.1938806288
 30
0.0
 10
10.564911489
 20
11.1915481802
 30
0.0
 10
10.5290443813
 20
11.1887736732
 30
0.0
 10
10.4937253002
 20
11.1855633605
 30
0.0
 10
10.4590333941
 20
11.181924482
 30
0.0
 10
10.4250463953
 20
11.1778652437
 30
0.0
 10
10.3918404444
 20
11.1733948011
 30
0.0
 10
10.3594899177
 20
11.1685232387
 30
0.0
 10
10.3280672576
 20
11.1632615484
 30
0.0
 10
10.2976428046
 20
11.1576216044
 30
0.0
 10
10.2682846309
 20
11.151616138
 30
0.0
 10
10.2400583801
 20
11.1452587129
 30
0.0
 10
10.2130271019
 20
11.1385636873
 30
0.0
 10
10.1872511349
 20
11.1315461789
 30
0.0
 10
10.16278783
 20
11.1242220282
 30
0.0
 10
10.139691831
 20
11.1166077402
 30
0.0
 10
10.1213764959
 20
11.1099440584
 30
0.0
 10
10.1074588566
 20
11.1044679831
 30
0.0
 10
10.0975421352
 20
11.100357367
 30
0.0
 10
10.0880041699
 20
11.0961872223
 30
0.0
 10
10.0788502542
 20
11.0919598678
 30
0.0
 10
10.0700854768
 20
11.0876776819
 30
0.0
 10
10.0617147177
 20
11.083342994
 30
0.0
 10
10.0537425856
 20
11.0789582797
 30
0.0
 10
10.046173537
 20
11.074525866
 30
0.0
 10
10.0390117284
 20
11.0700483054
 30
0.0
 10
10.0322611229
 20
11.0655279711
 30
0.0
 10
10.0259253798
 20
11.0609672971
 30
0.0
 10
10.020007915
 20
11.056368635
 30
0.0
 10
10.0145123175
 20
11.051734679
 30
0.0
 10
10.0110600196
 20
11.0485574718
 30
0.0
 10
10.0094091741
 20
11.0469628774
 30
0.0
  0
SPLINE
  5
395
100
AcDbEntity
  8
0
100
AcDbSpline
 62
4
  6
CONTINUOUS
 70
0
 71
3
 72
313
 73
309
 74
0
 42
0.0000001
 43
0.0000001
 44
0.0000000001
 40
0.0
 40
0.0
 40
0.0
 40
0.0
 40
0.015625
 40
0.0234375
 40
0.03125
 40
0.0390625
 40
0.046875
 40
0.05078125
 40
0.0546875
 40
0.056640625
 40
0.05859375
 40
0.060546875
 40
0.0615234375
 40
0.0620117188
 40
0.0625
 40
0.0629882812
 40
0.0634765625
 40
0.064453125
 40
0.06640625
 40
0.068359375
 40
0.0703125
 40
0.07421875
 40
0.078125
 40
0.0859375
 40
0.09375
 40
0.1015625
 40
0.109375
 40
0.11328125
 40
0.1171875
 40
0.119140625
 40
0.12109375
 40
0.123046875
 40
0.1240234375
 40
0.1245117188
 40
0.125
 40
0.1254882812
 40
0.1259765625
 40
0.126953125
 40
0.12890625
 40
0.130859375
 40
0.1328125
 40
0.13671875
 40
0.140625
 40
0.1484375
 40
0.15625
 40
0.1640625
 40
0.171875
 40
0.17578125
 40
0.1796875
 40
0.181640625
 40
0.18359375
 40
0.185546875
 40
0.1865234375
 40
0.1870117188
 40
0.1875
 40
0.1879882812
 40
0.1884765625
 40
0.189453125
 40
0.19140625
 40
0.193359375
 40
0.1953125
 40
0.19921875
 40
0.203125
 40
0.2109375
 40
0.21875
 40
0.2265625
 40
0.234375
 40
0.23828125
 40
0.2421875
 40
0.244140625
 40
0.24609375
 40
0.248046875
 40
0.2490234375
 40
0.2495117188
 40
0.25
 40
0.2504882812
 40
0.2509765625
 40
0.251953125
 40
0.25390625
 40
0.255859375
 40
0.2578125
 40
0.26171875
 40
0.265625
 40
0.2734375
 40
0.28125
 40
0.2890625
 40
0.296875
 40
0.30078125
 40
0.3046875
 40
0.306640625
 40
0.30859375
 40
0.310546875
 40
0.3115234375
 40
0.3120117188
 40
0.3125
 40
0.3129882812
 40
0.3134765625
 40
0.314453125
 40
0.31640625
 40
0.318359375
 40
0.3203125
 40
0.32421875
 40
0.328125
 40
0.3359375
 40
0.34375
 40
0.3515625
 40
0.359375
 40
0.36328125
 40
0.3671875
 40
0.369140625
 40
0.37109375
 40
0.373046875
 40
0.3740234375
 40
0.3745117188
 40
0.375
 40
0.3754882812
 40
0.3759765625
 40
0.376953125
 40
0.37890625
 40
0.380859375
 40
0.3828125
 40
0.38671875
 40
0.390625
 40
0.3984375
 40
0.40625
 40
0.4140625
 40
0.421875
 40
0.42578125
 40
0.4296875
 40
0.431640625
 40
0.43359375
 40
0.435546875
 40
0.4365234375
 40
0.4370117188
 40
0.4375
 40
0.4379882812
 40
0.4384765625
 40
0.439453125
 40
0.44140625
 40
0.443359375
 40
0.4453125
 40
0.44921875
 40
0.453125
 40
0.4609375
 40
0.46875
 40
0.4765625
 40
0.484375
 40
0.48828125
 40
0.4921875
 40
0.494140625
 40
0.49609375
 40
0.498046875
 40
0.4990234375
 40
0.4995117188
 40
0.5
 40
0.5004882812
 40
0.5009765625
 40
0.501953125
 40
0.50390625
 40
0.505859375
 40
0.5078125
 40
0.51171875
 40
0.515625
 40
0.5234375
 40
0.53125
 40
0.5390625
 40
0.546875
 40
0.55078125
 40
0.5546875
 40
0.556640625
 40
0.55859375
 40
0.560546875
 40
0.5615234375
 40
0.5620117188
 40
0.5625
 40
0.5629882812
 40
0.5634765625
 40
0.564453125
 40
0.56640625
 40
0.568359375
 40
0.5703125
 40
0.57421875
 40
0.578125
 40
0.5859375
 40
0.59375
 40
0.6015625
 40
0.609375
 40
0.61328125
 40
0.6171875
 40
0.619140625
 40
0.62109375
 40
0.623046875
 40
0.6240234375
 40
0.6245117188
 40
0.625
 40
0.6254882812
 40
0.6259765625
 40
0.626953125
 40
0.62890625
 40
0.630859375
 40
0.6328125
 40
0.63671875
 40
0.640625
 40
0.6484375
 40
0.65625
 40
0.6640625
 40
0.671875
 40
0.67578125
 40
0.6796875
 40
0.681640625
 40
0.68359375
 40
0.685546875
 40
0.6865234375
 40
0.6870117188
 40
0.6875
 40
0.6879882812
 40
0.6884765625
 40
0.689453125
 40
0.69140625
 40
0.693359375
 40
0.6953125
 40
0.69921875
 40
0.703125
 40
0.7109375
 40
0.71875
 40
0.7265625
 40
0.734375
 40
0.73828125
 40
0.7421875
 40
0.744140625
 40
0.74609375
 40
0.748046875
 40
0.7490234375
 40
0.7495117188
 40
0.75
 40
0.7504882812
 40
0.7509765625
 40
0.751953125
 40
0.75390625
 40
0.755859375
 40
0.7578125
 40
0.76171875
 40
0.765625
 40
0.7734375
 40
0.78125
 40
0.7890625
 40
0.796875
 40
0.80078125
 40
0.8046875
 40
0.806640625
 40
0.80859375
 40
0.810546875
 40
0.8115234375
 40
0.8120117188
 40
0.8125
 40
0.8129882812
 40
0.8134765625
 40
0.814453125
 40
0.81640625
 40
0.818359375
 40
0.8203125
 40
0.82421875
 40
0.828125
 40
0.8359375
 40
0.84375
 40
0.8515625
 40
0.859375
 40
0.86328125
 40
0.8671875
 40
0.869140625
 40
0.87109375
 40
0.873046875
 40
0.8740234375
 40
0.8745117188
 40
0.875
 40
0.8754882812
 40
0.8759765625
 40
0.876953125
 40
0.87890625
 40
0.880859375
 40
0.8828125
 40
0.88671875
 40
0.890625
 40
0.8984375
 40
0.90625
 40
0.9140625
 40
0.921875
 40
0.92578125
 40
0.9296875
 40
0.931640625
 40
0.93359375
 40
0.935546875
 40
0.9365234375
 40
0.9370117188
 40
0.9375
 40
0.9379882812
 40
0.9384765625
 40
0.939453125
 40
0.94140625
 40
0.943359375
 40
0.9453125
 40
0.94921875
 40
0.953125
 40
0.9609375
 40
0.96875
 40
0.9765625
 40
0.984375
 40
1.0
 40
1.0
 40
1.0
 40
1.0
 10
10.0569685874
 20
8.9343182063
 30
0.0
 10
10.0538354005
 20
8.9342282819
 30
0.0
 10
10.0491356201
 20
8.9340933955
 30
0.0
 10
10.0428692463
 20
8.933913546
 30
0.0
 10
10.0381694656
 20
8.9337786614
 30
0.0
 10
10.0334696867
 20
8.9336437673
 30
0.0
 10
10.0295531985
 20
8.933531385
 30
0.0
 10
10.0264200208
 20
8.9334414132
 30
0.0
 10
10.0244617554
 20
8.933385331
 30
0.0
 10
10.0228952103
 20
8.9333401213
 30
0.0
 10
10.0217201175
 20
8.9333071558
 30
0.0
 10
10.0207414587
 20
8.9332766887
 30
0.0
 10
10.0200552492
 20
8.933261241
 30
0.0
 10
10.0196649225
 20
8.9332432337
 30
0.0
 10
10.0193671264
 20
8.9332555886
 30
0.0
 10
10.0190886383
 20
8.9331690918
 30
0.0
 10
10.018710586
 20
8.9330882432
 30
0.0
 10
10.0180521323
 20
8.9329306931
 30
0.0
 10
10.0171098437
 20
8.9327140206
 30
0.0
 10
10.0159797996
 20
8.9324504185
 30
0.0
 10
10.0144728289
 20
8.9321002047
 30
0.0
 10
10.0125891994
 20
8.9316620076
 30
0.0
 10
10.0095753454
 20
8.9309611325
 30
0.0
 10
10.0058080441
 20
8.9300849556
 30
0.0
 10
10.0012872747
 20
8.9290335812
 30
0.0
 10
9.9967665107
 20
8.9279821882
 30
0.0
 10
9.9929991957
 20
8.9271060577
 30
0.0
 10
9.9899853691
 20
8.9264050898
 30
0.0
 10
9.9881016699
 20
8.9259671285
 30
0.0
 10
9.9865948423
 20
8.9256164305
 30
0.0
 10
9.9854643607
 20
8.9253543077
 30
0.0
 10
9.9845234408
 20
8.925133007
 30
0.0
 10
9.9838625439
 20
8.9249837189
 30
0.0
 10
9.9834884064
 20
8.9248896325
 30
0.0
 10
9.9831978933
 20
8.9248437982
 30
0.0
 10
9.9829452609
 20
8.9247034314
 30
0.0
 10
9.9825952046
 20
8.9245492497
 30
0.0
 10
9.9819887622
 20
8.9242640684
 30
0.0
 10
9.9811191974
 20
8.9238646987
 30
0.0
 10
9.9800770973
 20
8.9233820171
 30
0.0
 10
9.9786871494
 20
8.9227396424
 30
0.0
 10
9.9769498792
 20
8.9219362628
 30
0.0
 10
9.9741701547
 20
8.9206510855
 30
0.0
 10
9.970695531
 20
8.9190445343
 30
0.0
 10
9.9665259677
 20
8.9171167092
 30
0.0
 10
9.9623564128
 20
8.9151888662
 30
0.0
 10
9.9588817683
 20
8.9135823599
 30
0.0
 10
9.9561020853
 20
8.9122970927
 30
0.0
 10
9.9543647097
 20
8.9114939415
 30
0.0
 10
9.9529749781
 20
8.9108510983
 30
0.0
 10
9.9519322169
 20
8.910369848
 30
0.0
 10
9.9510647207
 20
8.9099659999
 30
0.0
 10
9.9504545855
 20
8.9096888134
 30
0.0
 10
9.9501104461
 20
8.909521822
 30
0.0
 10
9.9498396385
 20
8.9094208022
 30
0.0
 10
9.9496173885
 20
8.9092271872
 30
0.0
 10
9.9493041178
 20
8.909001332
 30
0.0
 10
9.9487637854
 20
8.9085910371
 30
0.0
 10
9.9479877562
 20
8.9080127691
 30
0.0
 10
9.9470582872
 20
8.9073154798
 30
0.0
 10
9.9458183784
 20
8.9063869371
 30
0.0
 10
9.9442687035
 20
8.9052258559
 30
0.0
 10
9.9417891056
 20
8.9033683512
 30
0.0
 10
9.9386896492
 20
8.9010463926
 30
0.0
 10
9.9349702822
 20
8.8982600773
 30
0.0
 10
9.9312509272
 20
8.8954737463
 30
0.0
 10
9.9281514405
 20
8.8931518269
 30
0.0
 10
9.9256719033
 20
8.8912942438
 30
0.0
 10
9.9241220742
 20
8.8901333617
 30
0.0
 10
9.9228824819
 20
8.8892044103
 30
0.0
 10
9.9219520458
 20
8.8885083696
 30
0.0
 10
9.9211790424
 20
8.887926195
 30
0.0
 10
9.9206333086
 20
8.887522874
 30
0.0
 10
9.9203286922
 20
8.887285845
 30
0.0
 10
9.9200798586
 20
8.8871265523
 30
0.0
 10
9.9199088946
 20
8.8868966233
 30
0.0
 10
9.9196537809
 20
8.88661469
 30
0.0
 10
9.919219987
 20
8.8861098271
 30
0.0
 10
9.9185936652
 20
8.8853945961
 30
0.0
 10
9.917844911
 20
8.8845337499
 30
0.0
 10
9.9168455829
 20
8.8833868523
 30
0.0
 10
9.9155967615
 20
8.881952923
 30
0.0
 10
9.9135984578
 20
8.879658808
 30
0.0
 10
9.9111006437
 20
8.8767911049
 30
0.0
 10
9.9081032367
 20
8.8733498881
 30
0.0
 10
9.9051058452
 20
8.8699086587
 30
0.0
 10
9.9026079925
 20
8.8670409872
 30
0.0
 10
9.9006097659
 20
8.864746809
 30
0.0
 10
9.8993607487
 20
8.8633130403
 30
0.0
 10
9.8983618224
 20
8.8621658131
 30
0.0
 10
9.8976118407
 20
8.861305974
 30
0.0
 10
9.8969893594
 20
8.860587592
 30
0.0
 10
9.8965487095
 20
8.8600883542
 30
0.0
 10
9.8963045808
 20
8.859797408
 30
0.0
 10
9.8960998742
 20
8.8595951637
 30
0.0
 10
9.8959777724
 20
8.8593318917
 30
0.0
 10
9.8957861566
 20
8.8590021494
 30
0.0
 10
9.8954642535
 20
8.8584151825
 30
0.0
 10
9.8949973735
 20
8.8575818435
 30
0.0
 10
9.8944401216
 20
8.8565796172
 30
0.0
 10
9.8936960697
 20
8.8552440907
 30
0.0
 10
9.8927663642
 20
8.8535744172
 30
0.0
 10
9.8912786346
 20
8.850903088
 30
0.0
 10
9.8894190419
 20
8.8475638753
 30
0.0
 10
9.8871874988
 20
8.843556843
 30
0.0
 10
9.8849559723
 20
8.8395498006
 30
0.0
 10
9.8830963378
 20
8.8362106133
 30
0.0
 10
9.8816086919
 20
8.8335392334
 30
0.0
 10
9.8806787736
 20
8.8318696887
 30
0.0
 10
9.8799351584
 20
8.8305338978
 30
0.0
 10
9.8793765727
 20
8.8295324793
 30
0.0
 10
9.8789138659
 20
8.8286966132
 30
0.0
 10
9.8785845128
 20
8.8281141575
 30
0.0
 10
9.8784048338
 20
8.827777187
 30
0.0
 10
9.878246066
 20
8.8275361179
 30
0.0
 10
9.8781790708
 20
8.827250483
 30
0.0
 10
9.8780577326
 20
8.8268851816
 30
0.0
 10
9.8778603054
 20
8.8262386614
 30
0.0
 10
9.877570469
 20
8.8253188477
 30
0.0
 10
9.877226003
 20
8.8242134505
 30
0.0
 10
9.8767655491
 20
8.8227401536
 30
0.0
 10
9.876190381
 20
8.8208983387
 30
0.0
 10
9.8752698888
 20
8.8179515432
 30
0.0
 10
9.8741193507
 20
8.8142680114
 30
0.0
 10
9.8727386696
 20
8.8098477902
 30
0.0
 10
9.8713580066
 20
8.8054275613
 30
0.0
 10
9.8702074231
 20
8.8017440488
 30
0.0
 10
9.8692870217
 20
8.7987972148
 30
0.0
 10
9.8687116228
 20
8.7969554976
 30
0.0
 10
9.8682516427
 20
8.7954820002
 30
0.0
 10
9.8679057294
 20
8.7943772156
 30
0.0
 10
9.867620421
 20
8.7934554853
 30
0.0
 10
9.8674149105
 20
8.7928123864
 30
0.0
 10
9.8673065239
 20
8.7924416032
 30
0.0
 10
9.8671997457
 20
8.7921728068
 30
0.0
 10
9.8671903964
 20
8.7918684954
 30
0.0
 10
9.8671439464
 20
8.791475135
 30
0.0
 10
9.8670784928
 20
8.7907809824
 30
0.0
 10
9.8669767096
 20
8.7897923534
 30
0.0
 10
9.866858113
 20
8.788604707
 30
0.0
 10
9.8666987466
 20
8.7870216296
 30
0.0
 10
9.8664999624
 20
8.7850426283
 30
0.0
 10
9.8661816707
 20
8.7818763127
 30
0.0
 10
9.8657838879
 20
8.7779183885
 30
0.0
 10
9.8653065111
 20
8.7731688922
 30
0.0
 10
9.8648291533
 20
8.7684193926
 30
0.0
 10
9.8644313229
 20
8.7644614765
 30
0.0
 10
9.8641131265
 20
8.7612951447
 30
0.0
 10
9.8639141
 20
8.7593161845
 30
0.0
 10
9.8637552309
 20
8.7577330229
 30
0.0
 10
9.863635115
 20
8.7565456335
 30
0.0
 10
9.8635380852
 20
8.7555562004
 30
0.0
 10
9.8634641459
 20
8.7548634833
 30
0.0
 10
9.8634312922
 20
8.7544678229
 30
0.0
 10
9.8633801795
 20
8.7541705764
 30
0.0
 10
9.8634302578
 20
8.7538752455
 30
0.0
 10
9.8634617324
 20
8.7534808029
 30
0.0
 10
9.8635332582
 20
8.7527908396
 30
0.0
 10
9.8636268401
 20
8.7518050149
 30
0.0
 10
9.8637428185
 20
8.750622095
 30
0.0
 10
9.8638961709
 20
8.7490448442
 30
0.0
 10
9.8640883017
 20
8.747073289
 30
0.0
 10
9.8643954648
 20
8.7439187959
 30
0.0
 10
9.8647795036
 20
8.7399756813
 30
0.0
 10
9.8652403115
 20
8.7352439427
 30
0.0
 10
9.8657011384
 20
8.7305122055
 30
0.0
 10
9.8660851296
 20
8.7265690874
 30
0.0
 10
9.866392388
 20
8.7234146013
 30
0.0
 10
9.8665842764
 20
8.7214430284
 30
0.0
 10
9.8667381263
 20
8.7198658138
 30
0.0
 10
9.8668525848
 20
8.7186827833
 30
0.0
 10
9.8669509222
 20
8.7176973047
 30
0.0
 10
9.8670139586
 20
8.7170067236
 30
0.0
 10
9.8670590352
 20
8.7166132708
 30
0.0
 10
9.8670673325
 20
8.7163148993
 30
0.0
 10
9.8671731426
 20
8.7160290733
 30
0.0
 10
9.8672802091
 20
8.7156435959
 30
0.0
 10
9.8674834231
 20
8.7149710493
 30
0.0
 10
9.8677654436
 20
8.7140092025
 30
0.0
 10
9.8681074145
 20
8.7128554426
 30
0.0
 10
9.8685621371
 20
8.7113169368
 30
0.0
 10
9.8691309644
 20
8.709393859
 30
0.0
 10
9.870040851
 20
8.7063169041
 30
0.0
 10
9.8711782911
 20
8.7024707211
 30
0.0
 10
9.872543182
 20
8.6978552961
 30
0.0
 10
9.873908091
 20
8.6932398754
 30
0.0
 10
9.8750454856
 20
8.6893936818
 30
0.0
 10
9.8759554631
 20
8.686316748
 30
0.0
 10
9.8765240594
 20
8.6843936165
 30
0.0
 10
9.8769792562
 20
8.682855221
 30
0.0
 10
9.8773197782
 20
8.6817011241
 30
0.0
 10
9.8776063319
 20
8.6807403317
 30
0.0
 10
9.8778014533
 20
8.680065903
 30
0.0
 10
9.8779214863
 20
8.6796834412
 30
0.0
 10
9.8779874678
 20
8.6793883523
 30
0.0
 10
9.8781453547
 20
8.6791247704
 30
0.0
 10
9.8783238129
 20
8.6787623379
 30
0.0
 10
9.8786510511
 20
8.6781332015
 30
0.0
 10
9.8791107253
 20
8.6772317582
 30
0.0
 10
9.8796656768
 20
8.6761511721
 30
0.0
 10
9.8804044447
 20
8.6747099904
 30
0.0
 10
9.8813283044
 20
8.6729086503
 30
0.0
 10
9.8828062563
 20
8.6700264295
 30
0.0
 10
9.8846537734
 20
8.6664236801
 30
0.0
 10
9.8868707587
 20
8.6621003684
 30
0.0
 10
9.8890877614
 20
8.6577770638
 30
0.0
 10
9.890935235
 20
8.6541742966
 30
0.0
 10
9.8924132739
 20
8.6512921113
 30
0.0
 10
9.8933369126
 20
8.649490681
 30
0.0
 10
9.894076134
 20
8.6480496843
 30
0.0
 10
9.8946297
 20
8.6469685331
 30
0.0
 10
9.8950937092
 20
8.6460688578
 30
0.0
 10
9.8954132087
 20
8.6454365652
 30
0.0
 10
9.8956040662
 20
8.6450791898
 30
0.0
 10
9.8957238666
 20
8.6448000741
 30
0.0
 10
9.8959328947
 20
8.6445633279
 30
0.0
 10
9.8961804753
 20
8.6442328874
 30
0.0
 10
9.8966282423
 20
8.6436615022
 30
0.0
 10
9.8972603282
 20
8.6428416378
 30
0.0
 10
9.8980220763
 20
8.6418593414
 30
0.0
 10
9.899036607
 20
8.6405490746
 30
0.0
 10
9.9003051585
 20
8.6389114254
 30
0.0
 10
9.902334624
 20
8.6362910836
 30
0.0
 10
9.9048715306
 20
8.6330156921
 30
0.0
 10
9.9079157849
 20
8.6290852053
 30
0.0
 10
9.910960054
 20
8.6251547296
 30
0.0
 10
9.9134969236
 20
8.6218793103
 30
0.0
 10
9.9155264631
 20
8.6192590241
 30
0.0
 10
9.9167948262
 20
8.6176212337
 30
0.0
 10
9.9178097437
 20
8.6163112566
 30
0.0
 10
9.9185703103
 20
8.6153280751
 30
0.0
 10
9.9192060929
 20
8.61451098
 30
0.0
 10
9.9196472607
 20
8.6139346511
 30
0.0
 10
9.9199054149
 20
8.6136121317
 30
0.0
 10
9.9200819642
 20
8.6133510543
 30
0.0
 10
9.9203237496
 20
8.6131633225
 30
0.0
 10
9.9206233751
 20
8.6128874296
 30
0.0
 10
9.9211583217
 20
8.6124165371
 30
0.0
 10
9.9219169883
 20
8.6117376016
 30
0.0
 10
9.9228297608
 20
8.6109255464
 30
0.0
 10
9.924045962
 20
8.6098418744
 30
0.0
 10
9.9255664973
 20
8.6084876035
 30
0.0
 10
9.9279991952
 20
8.6063205917
 30
0.0
 10
9.9310401223
 20
8.6036118886
 30
0.0
 10
9.93468921
 20
8.6003614165
 30
0.0
 10
9.9383383092
 20
8.597110959
 30
0.0
 10
9.9413792074
 20
8.5944022194
 30
0.0
 10
9.9438119631
 20
8.5922352806
 30
0.0
 10
9.9453323513
 20
8.5908808241
 30
0.0
 10
9.9465488544
 20
8.5897975331
 30
0.0
 10
9.9474607048
 20
8.5889843143
 30
0.0
 10
9.9482222561
 20
8.5883090193
 30
0.0
 10
9.9487520531
 20
8.5878316278
 30
0.0
 10
9.9490599296
 20
8.5875661478
 30
0.0
 10
9.9492763704
 20
8.587346431
 30
0.0
 10
9.9495481102
 20
8.587205484
 30
0.0
 10
9.949891141
 20
8.5869900789
 30
0.0
 10
9.9505004321
 20
8.5866259214
 30
0.0
 10
9.9513661493
 20
8.5860990036
 30
0.0
 10
9.9524070211
 20
8.585469567
 30
0.0
 10
9.9537941478
 20
8.5846293176
 30
0.0
 10
9.9555282966
 20
8.5835793485
 30
0.0
 10
9.9583028002
 20
8.5818992063
 30
0.0
 10
9.9617709761
 20
8.5797990948
 30
0.0
 10
9.9659327664
 20
8.5772789305
 30
0.0
 10
9.9700945657
 20
8.5747587824
 30
0.0
 10
9.9735627191
 20
8.5726586306
 30
0.0
 10
9.9763372677
 20
8.570978569
 30
0.0
 10
9.9780713024
 20
8.5699283951
 30
0.0
 10
9.9794586631
 20
8.5690885661
 30
0.0
 10
9.9804988197
 20
8.5684578452
 30
0.0
 10
9.9813667747
 20
8.5679349455
 30
0.0
 10
9.9819720711
 20
8.5675636151
 30
0.0
 10
9.9823215023
 20
8.5673597028
 30
0.0
 10
9.982573582
 20
8.5671834533
 30
0.0
 10
9.982863863
 20
8.5670963271
 30
0.0
 10
9.9832375793
 20
8.5669490715
 30
0.0
 10
9.9838977911
 20
8.5667058585
 30
0.0
 10
9.984837705
 20
8.5663508389
 30
0.0
 10
9.985966991
 20
8.5659280566
 30
0.0
 10
9.9874722205
 20
8.5653632147
 30
0.0
 10
9.9893539234
 20
8.56465755
 30
0.0
 10
9.9923645553
 20
8.5635282698
 30
0.0
 10
9.9961278771
 20
8.5621167445
 30
0.0
 10
10.0006438489
 20
8.5604228796
 30
0.0
 10
10.0051598272
 20
8.5587290325
 30
0.0
 10
10.0089231329
 20
8.5573174629
 30
0.0
 10
10.0119337969
 20
8.5561882712
 30
0.0
 10
10.0138154182
 20
8.5554823814
 30
0.0
 10
10.0153208153
 20
8.5549180016
 30
0.0
 10
10.0164495891
 20
8.5544938076
 30
0.0
 10
10.0173911056
 20
8.5541432049
 30
0.0
 10
10.0180484566
 20
8.5538921069
 30
0.0
 10
10.0184267565
 20
8.5537574851
 30
0.0
 10
10.018702958
 20
8.5536315522
 30
0.0
 10
10.0190079179
 20
8.5536010539
 30
0.0
 10
10.0194044998
 20
8.5535271009
 30
0.0
 10
10.020103192
 20
8.5534131929
 30
0.0
 10
10.0210988801
 20
8.5532423584
 30
0.0
 10
10.0222947517
 20
8.5530408278
 30
0.0
 10
10.023888882
 20
8.5527709081
 30
0.0
 10
10.0258816698
 20
8.5524339236
 30
0.0
 10
10.0290700605
 20
8.5518945163
 30
0.0
 10
10.0330555728
 20
8.5512203368
 30
0.0
 10
10.0378381772
 20
8.5504112873
 30
0.0
 10
10.0426207845
 20
8.5496022469
 30
0.0
 10
10.0489975932
 20
8.5485235232
 30
0.0
 10
10.0537801999
 20
8.5477144812
 30
0.0
 10
10.0569686043
 20
8.5471751197
 30
0.0
  0
SPLINE
  5
396
100
AcDbEntity
  8
0
100
AcDbSpline
 62
4
  6
CONTINUOUS
 70
0
 71
3
 72
313
 73
309
 74
0
 42
0.0000001
 43
0.0000001
 44
0.0000000001
 40
0.0
 40
0.0
 40
0.0
 40
0.0
 40
0.015625
 40
0.0234375
 40
0.03125
 40
0.0390625
 40
0.046875
 40
0.05078125
 40
0.0546875
 40
0.056640625
 40
0.05859375
 40
0.060546875
 40
0.0615234375
 40
0.0620117188
 40
0.0625
 40
0.0629882812
 40
0.0634765625
 40
0.064453125
 40
0.06640625
 40
0.068359375
 40
0.0703125
 40
0.07421875
 40
0.078125
 40
0.0859375
 40
0.09375
 40
0.1015625
 40
0.109375
 40
0.11328125
 40
0.1171875
 40
0.119140625
 40
0.12109375
 40
0.123046875
 40
0.1240234375
 40
0.1245117188
 40
0.125
 40
0.1254882812
 40
0.1259765625
 40
0.126953125
 40
0.12890625
 40
0.130859375
 40
0.1328125
 40
0.13671875
 40
0.140625
 40
0.1484375
 40
0.15625
 40
0.1640625
 40
0.171875
 40
0.17578125
 40
0.1796875
 40
0.181640625
 40
0.18359375
 40
0.185546875
 40
0.1865234375
 40
0.1870117188
 40
0.1875
 40
0.1879882812
 40
0.1884765625
 40
0.189453125
 40
0.19140625
 40
0.193359375
 40
0.1953125
 40
0.19921875
 40
0.203125
 40
0.2109375
 40
0.21875
 40
0.2265625
 40
0.234375
 40
0.23828125
 40
0.2421875
 40
0.244140625
 40
0.24609375
 40
0.248046875
 40
0.2490234375
 40
0.2495117188
 40
0.25
 40
0.2504882812
 40
0.2509765625
 40
0.251953125
 40
0.25390625
 40
0.255859375
 40
0.2578125
 40
0.26171875
 40
0.265625
 40
0.2734375
 40
0.28125
 40
0.2890625
 40
0.296875
 40
0.30078125
 40
0.3046875
 40
0.306640625
 40
0.30859375
 40
0.310546875
 40
0.3115234375
 40
0.3120117188
 40
0.3125
 40
0.3129882812
 40
0.3134765625
 40
0.314453125
 40
0.31640625
 40
0.318359375
 40
0.3203125
 40
0.32421875
 40
0.328125
 40
0.3359375
 40
0.34375
 40
0.3515625
 40
0.359375
 40
0.36328125
 40
0.3671875
 40
0.369140625
 40
0.37109375
 40
0.373046875
 40
0.3740234375
 40
0.3745117188
 40
0.375
 40
0.3754882812
 40
0.3759765625
 40
0.376953125
 40
0.37890625
 40
0.380859375
 40
0.3828125
 40
0.38671875
 40
0.390625
 40
0.3984375
 40
0.40625
 40
0.4140625
 40
0.421875
 40
0.42578125
 40
0.4296875
 40
0.431640625
 40
0.43359375
 40
0.435546875
 40
0.4365234375
 40
0.4370117188
 40
0.4375
 40
0.4379882812
 40
0.4384765625
 40
0.439453125
 40
0.44140625
 40
0.443359375
 40
0.4453125
 40
0.44921875
 40
0.453125
 40
0.4609375
 40
0.46875
 40
0.4765625
 40
0.484375
 40
0.48828125
 40
0.4921875
 40
0.494140625
 40
0.49609375
 40
0.498046875
 40
0.4990234375
 40
0.4995117188
 40
0.5
 40
0.5004882812
 40
0.5009765625
 40
0.501953125
 40
0.50390625
 40
0.505859375
 40
0.5078125
 40
0.51171875
 40
0.515625
 40
0.5234375
 40
0.53125
 40
0.5390625
 40
0.546875
 40
0.55078125
 40
0.5546875
 40
0.556640625
 40
0.55859375
 40
0.560546875
 40
0.5615234375
 40
0.5620117188
 40
0.5625
 40
0.5629882812
 40
0.5634765625
 40
0.564453125
 40
0.56640625
 40
0.568359375
 40
0.5703125
 40
0.57421875
 40
0.578125
 40
0.5859375
 40
0.59375
 40
0.6015625
 40
0.609375
 40
0.61328125
 40
0.6171875
 40
0.619140625
 40
0.62109375
 40
0.623046875
 40
0.6240234375
 40
0.6245117188
 40
0.625
 40
0.6254882812
 40
0.6259765625
 40
0.626953125
 40
0.62890625
 40
0.630859375
 40
0.6328125
 40
0.63671875
 40
0.640625
 40
0.6484375
 40
0.65625
 40
0.6640625
 40
0.671875
 40
0.67578125
 40
0.6796875
 40
0.681640625
 40
0.68359375
 40
0.685546875
 40
0.6865234375
 40
0.6870117188
 40
0.6875
 40
0.6879882812
 40
0.6884765625
 40
0.689453125
 40
0.69140625
 40
0.693359375
 40
0.6953125
 40
0.69921875
 40
0.703125
 40
0.7109375
 40
0.71875
 40
0.7265625
 40
0.734375
 40
0.73828125
 40
0.7421875
 40
0.744140625
 40
0.74609375
 40
0.748046875
 40
0.7490234375
 40
0.7495117188
 40
0.75
 40
0.7504882812
 40
0.7509765625
 40
0.751953125
 40
0.75390625
 40
0.755859375
 40
0.7578125
 40
0.76171875
 40
0.765625
 40
0.7734375
 40
0.78125
 40
0.7890625
 40
0.796875
 40
0.80078125
 40
0.8046875
 40
0.806640625
 40
0.80859375
 40
0.810546875
 40
0.8115234375
 40
0.8120117188
 40
0.8125
 40
0.8129882812
 40
0.8134765625
 40
0.814453125
 40
0.81640625
 40
0.818359375
 40
0.8203125
 40
0.82421875
 40
0.828125
 40
0.8359375
 40
0.84375
 40
0.8515625
 40
0.859375
 40
0.86328125
 40
0.8671875
 40
0.869140625
 40
0.87109375
 40
0.873046875
 40
0.8740234375
 40
0.8745117188
 40
0.875
 40
0.8754882812
 40
0.8759765625
 40
0.876953125
 40
0.87890625
 40
0.880859375
 40
0.8828125
 40
0.88671875
 40
0.890625
 40
0.8984375
 40
0.90625
 40
0.9140625
 40
0.921875
 40
0.92578125
 40
0.9296875
 40
0.931640625
 40
0.93359375
 40
0.935546875
 40
0.9365234375
 40
0.9370117188
 40
0.9375
 40
0.9379882812
 40
0.9384765625
 40
0.939453125
 40
0.94140625
 40
0.943359375
 40
0.9453125
 40
0.94921875
 40
0.953125
 40
0.9609375
 40
0.96875
 40
0.9765625
 40
0.984375
 40
1.0
 40
1.0
 40
1.0
 40
1.0
 10
10.0569685874
 20
8.5471751208
 30
0.0
 10
10.0601017743
 20
8.5472650452
 30
0.0
 10
10.0648015547
 20
8.5473999316
 30
0.0
 10
10.0710679284
 20
8.5475797811
 30
0.0
 10
10.0757677092
 20
8.5477146657
 30
0.0
 10
10.0804674881
 20
8.5478495598
 30
0.0
 10
10.0843839763
 20
8.5479619421
 30
0.0
 10
10.087517154
 20
8.5480519139
 30
0.0
 10
10.0894754194
 20
8.5481079961
 30
0.0
 10
10.0910419645
 20
8.5481532058
 30
0.0
 10
10.0922170573
 20
8.5481861713
 30
0.0
 10
10.0931957161
 20
8.5482166384
 30
0.0
 10
10.0938819256
 20
8.5482320861
 30
0.0
 10
10.0942722523
 20
8.5482500934
 30
0.0
 10
10.0945700484
 20
8.5482377385
 30
0.0
 10
10.0948485365
 20
8.5483242353
 30
0.0
 10
10.0952265888
 20
8.5484050839
 30
0.0
 10
10.0958850425
 20
8.548562634
 30
0.0
 10
10.096827331
 20
8.5487793065
 30
0.0
 10
10.0979573752
 20
8.5490429086
 30
0.0
 10
10.0994643459
 20
8.5493931224
 30
0.0
 10
10.1013479753
 20
8.5498313196
 30
0.0
 10
10.1043618294
 20
8.5505321947
 30
0.0
 10
10.1081291307
 20
8.5514083715
 30
0.0
 10
10.1126499001
 20
8.552459746
 30
0.0
 10
10.1171706641
 20
8.5535111389
 30
0.0
 10
10.1209379791
 20
8.5543872694
 30
0.0
 10
10.1239518057
 20
8.5550882373
 30
0.0
 10
10.1258355049
 20
8.5555261986
 30
0.0
 10
10.1273423325
 20
8.5558768966
 30
0.0
 10
10.128472814
 20
8.5561390194
 30
0.0
 10
10.129413734
 20
8.5563603201
 30
0.0
 10
10.1300746309
 20
8.5565096082
 30
0.0
 10
10.1304487684
 20
8.5566036946
 30
0.0
 10
10.1307392815
 20
8.5566495289
 30
0.0
 10
10.1309919138
 20
8.5567898957
 30
0.0
 10
10.1313419702
 20
8.5569440775
 30
0.0
 10
10.1319484126
 20
8.5572292587
 30
0.0
 10
10.1328179773
 20
8.5576286284
 30
0.0
 10
10.1338600774
 20
8.55811131
 30
0.0
 10
10.1352500254
 20
8.5587536847
 30
0.0
 10
10.1369872956
 20
8.5595570643
 30
0.0
 10
10.1397670201
 20
8.5608422417
 30
0.0
 10
10.1432416438
 20
8.5624487928
 30
0.0
 10
10.1474112071
 20
8.5643766179
 30
0.0
 10
10.151580762
 20
8.566304461
 30
0.0
 10
10.1550554065
 20
8.5679109672
 30
0.0
 10
10.1578350894
 20
8.5691962344
 30
0.0
 10
10.1595724651
 20
8.5699993856
 30
0.0
 10
10.1609621967
 20
8.5706422289
 30
0.0
 10
10.1620049579
 20
8.5711234791
 30
0.0
 10
10.162872454
 20
8.5715273273
 30
0.0
 10
10.1634825893
 20
8.5718045137
 30
0.0
 10
10.1638267287
 20
8.5719715051
 30
0.0
 10
10.1640975362
 20
8.5720725249
 30
0.0
 10
10.1643197863
 20
8.5722661399
 30
0.0
 10
10.164633057
 20
8.5724919951
 30
0.0
 10
10.1651733894
 20
8.57290229
 30
0.0
 10
10.1659494186
 20
8.5734805581
 30
0.0
 10
10.1668788876
 20
8.5741778473
 30
0.0
 10
10.1681187964
 20
8.57510639
 30
0.0
 10
10.1696684713
 20
8.5762674712
 30
0.0
 10
10.1721480692
 20
8.578124976
 30
0.0
 10
10.1752475256
 20
8.5804469345
 30
0.0
 10
10.1789668926
 20
8.5832332499
 30
0.0
 10
10.1826862476
 20
8.5860195808
 30
0.0
 10
10.1857857343
 20
8.5883415003
 30
0.0
 10
10.1882652715
 20
8.5901990833
 30
0.0
 10
10.1898151006
 20
8.5913599654
 30
0.0
 10
10.1910546929
 20
8.5922889168
 30
0.0
 10
10.191985129
 20
8.5929849575
 30
0.0
 10
10.1927581324
 20
8.5935671321
 30
0.0
 10
10.1933038662
 20
8.5939704531
 30
0.0
 10
10.1936084826
 20
8.5942074821
 30
0.0
 10
10.1938573162
 20
8.5943667748
 30
0.0
 10
10.1940282801
 20
8.5945967038
 30
0.0
 10
10.1942833939
 20
8.5948786371
 30
0.0
 10
10.1947171878
 20
8.5953835
 30
0.0
 10
10.1953435096
 20
8.5960987311
 30
0.0
 10
10.1960922638
 20
8.5969595772
 30
0.0
 10
10.1970915919
 20
8.5981064748
 30
0.0
 10
10.1983404133
 20
8.5995404041
 30
0.0
 10
10.200338717
 20
8.6018345191
 30
0.0
 10
10.2028365311
 20
8.6047022222
 30
0.0
 10
10.2058339381
 20
8.608143439
 30
0.0
 10
10.2088313296
 20
8.6115846684
 30
0.0
 10
10.2113291823
 20
8.6144523399
 30
0.0
 10
10.2133274089
 20
8.6167465181
 30
0.0
 10
10.2145764261
 20
8.6181802868
 30
0.0
 10
10.2155753524
 20
8.619327514
 30
0.0
 10
10.2163253341
 20
8.6201873531
 30
0.0
 10
10.2169478154
 20
8.6209057352
 30
0.0
 10
10.2173884653
 20
8.6214049729
 30
0.0
 10
10.2176325939
 20
8.6216959191
 30
0.0
 10
10.2178373006
 20
8.6218981634
 30
0.0
 10
10.2179594024
 20
8.6221614354
 30
0.0
 10
10.2181510182
 20
8.6224911777
 30
0.0
 10
10.2184729212
 20
8.6230781447
 30
0.0
 10
10.2189398013
 20
8.6239114837
 30
0.0
 10
10.2194970532
 20
8.6249137099
 30
0.0
 10
10.220241105
 20
8.6262492364
 30
0.0
 10
10.2211708105
 20
8.6279189099
 30
0.0
 10
10.2226585402
 20
8.6305902391
 30
0.0
 10
10.2245181329
 20
8.6339294518
 30
0.0
 10
10.226749676
 20
8.6379364841
 30
0.0
 10
10.2289812024
 20
8.6419435265
 30
0.0
 10
10.230840837
 20
8.6452827138
 30
0.0
 10
10.2323284829
 20
8.6479540938
 30
0.0
 10
10.2332584012
 20
8.6496236385
 30
0.0
 10
10.2340020164
 20
8.6509594293
 30
0.0
 10
10.2345606021
 20
8.6519608479
 30
0.0
 10
10.2350233089
 20
8.652796714
 30
0.0
 10
10.235352662
 20
8.6533791696
 30
0.0
 10
10.235532341
 20
8.6537161401
 30
0.0
 10
10.2356911088
 20
8.6539572092
 30
0.0
 10
10.235758104
 20
8.6542428441
 30
0.0
 10
10.2358794422
 20
8.6546081455
 30
0.0
 10
10.2360768694
 20
8.6552546657
 30
0.0
 10
10.2363667058
 20
8.6561744794
 30
0.0
 10
10.2367111718
 20
8.6572798766
 30
0.0
 10
10.2371716257
 20
8.6587531735
 30
0.0
 10
10.2377467938
 20
8.6605949884
 30
0.0
 10
10.238667286
 20
8.6635417839
 30
0.0
 10
10.2398178241
 20
8.6672253157
 30
0.0
 10
10.2411985052
 20
8.6716455369
 30
0.0
 10
10.2425791682
 20
8.6760657658
 30
0.0
 10
10.2437297517
 20
8.6797492784
 30
0.0
 10
10.2446501531
 20
8.6826961123
 30
0.0
 10
10.245225552
 20
8.6845378295
 30
0.0
 10
10.2456855321
 20
8.6860113269
 30
0.0
 10
10.2460314454
 20
8.6871161116
 30
0.0
 10
10.2463167537
 20
8.6880378418
 30
0.0
 10
10.2465222643
 20
8.6886809407
 30
0.0
 10
10.2466306509
 20
8.6890517239
 30
0.0
 10
10.2467374291
 20
8.6893205203
 30
0.0
 10
10.2467467784
 20
8.6896248317
 30
0.0
 10
10.2467932284
 20
8.6900181921
 30
0.0
 10
10.246858682
 20
8.6907123447
 30
0.0
 10
10.2469604652
 20
8.6917009737
 30
0.0
 10
10.2470790618
 20
8.6928886201
 30
0.0
 10
10.2472384282
 20
8.6944716975
 30
0.0
 10
10.2474372124
 20
8.6964506988
 30
0.0
 10
10.2477555041
 20
8.6996170144
 30
0.0
 10
10.2481532869
 20
8.7035749386
 30
0.0
 10
10.2486306637
 20
8.7083244349
 30
0.0
 10
10.2491080215
 20
8.7130739345
 30
0.0
 10
10.2495058519
 20
8.7170318506
 30
0.0
 10
10.2498240483
 20
8.7201981824
 30
0.0
 10
10.2500230748
 20
8.7221771426
 30
0.0
 10
10.2501819439
 20
8.7237603042
 30
0.0
 10
10.2503020598
 20
8.7249476936
 30
0.0
 10
10.2503990896
 20
8.7259371267
 30
0.0
 10
10.2504730289
 20
8.7266298438
 30
0.0
 10
10.2505058826
 20
8.7270255043
 30
0.0
 10
10.2505569953
 20
8.7273227507
 30
0.0
 10
10.250506917
 20
8.7276180816
 30
0.0
 10
10.2504754424
 20
8.7280125242
 30
0.0
 10
10.2504039166
 20
8.7287024875
 30
0.0
 10
10.2503103347
 20
8.7296883122
 30
0.0
 10
10.2501943563
 20
8.7308712321
 30
0.0
 10
10.2500410039
 20
8.7324484829
 30
0.0
 10
10.2498488731
 20
8.7344200382
 30
0.0
 10
10.24954171
 20
8.7375745312
 30
0.0
 10
10.2491576712
 20
8.7415176458
 30
0.0
 10
10.2486968633
 20
8.7462493844
 30
0.0
 10
10.2482360364
 20
8.7509811216
 30
0.0
 10
10.2478520452
 20
8.7549242397
 30
0.0
 10
10.2475447868
 20
8.7580787258
 30
0.0
 10
10.2473528984
 20
8.7600502987
 30
0.0
 10
10.2471990485
 20
8.7616275133
 30
0.0
 10
10.24708459
 20
8.7628105439
 30
0.0
 10
10.2469862526
 20
8.7637960224
 30
0.0
 10
10.2469232161
 20
8.7644866035
 30
0.0
 10
10.2468781396
 20
8.7648800563
 30
0.0
 10
10.2468698423
 20
8.7651784278
 30
0.0
 10
10.2467640322
 20
8.7654642539
 30
0.0
 10
10.2466569657
 20
8.7658497313
 30
0.0
 10
10.2464537516
 20
8.7665222778
 30
0.0
 10
10.2461717312
 20
8.7674841246
 30
0.0
 10
10.2458297603
 20
8.7686378845
 30
0.0
 10
10.2453750377
 20
8.7701763904
 30
0.0
 10
10.2448062104
 20
8.7720994681
 30
0.0
 10
10.2438963238
 20
8.775176423
 30
0.0
 10
10.2427588837
 20
8.7790226061
 30
0.0
 10
10.2413939928
 20
8.783638031
 30
0.0
 10
10.2400290838
 20
8.7882534517
 30
0.0
 10
10.2388916892
 20
8.7920996453
 30
0.0
 10
10.2379817116
 20
8.7951765791
 30
0.0
 10
10.2374131154
 20
8.7970997106
 30
0.0
 10
10.2369579186
 20
8.7986381061
 30
0.0
 10
10.2366173966
 20
8.799792203
 30
0.0
 10
10.2363308429
 20
8.8007529955
 30
0.0
 10
10.2361357214
 20
8.8014274241
 30
0.0
 10
10.2360156885
 20
8.801809886
 30
0.0
 10
10.235949707
 20
8.8021049748
 30
0.0
 10
10.2357918201
 20
8.8023685567
 30
0.0
 10
10.2356133619
 20
8.8027309892
 30
0.0
 10
10.2352861237
 20
8.8033601256
 30
0.0
 10
10.2348264495
 20
8.8042615689
 30
0.0
 10
10.234271498
 20
8.805342155
 30
0.0
 10
10.2335327301
 20
8.8067833367
 30
0.0
 10
10.2326088704
 20
8.8085846768
 30
0.0
 10
10.2311309185
 20
8.8114668976
 30
0.0
 10
10.2292834014
 20
8.815069647
 30
0.0
 10
10.2270664161
 20
8.8193929587
 30
0.0
 10
10.2248494134
 20
8.8237162634
 30
0.0
 10
10.2230019398
 20
8.8273190305
 30
0.0
 10
10.2215239009
 20
8.8302012159
 30
0.0
 10
10.2206002622
 20
8.8320026461
 30
0.0
 10
10.2198610408
 20
8.8334436428
 30
0.0
 10
10.2193074748
 20
8.834524794
 30
0.0
 10
10.2188434656
 20
8.8354244693
 30
0.0
 10
10.2185239661
 20
8.8360567619
 30
0.0
 10
10.2183331086
 20
8.8364141373
 30
0.0
 10
10.2182133082
 20
8.836693253
 30
0.0
 10
10.2180042801
 20
8.8369299992
 30
0.0
 10
10.2177566995
 20
8.8372604397
 30
0.0
 10
10.2173089325
 20
8.8378318249
 30
0.0
 10
10.2166768466
 20
8.8386516893
 30
0.0
 10
10.2159150985
 20
8.8396339858
 30
0.0
 10
10.2149005677
 20
8.8409442526
 30
0.0
 10
10.2136320162
 20
8.8425819018
 30
0.0
 10
10.2116025508
 20
8.8452022435
 30
0.0
 10
10.2090656442
 20
8.848477635
 30
0.0
 10
10.2060213899
 20
8.8524081218
 30
0.0
 10
10.2029771208
 20
8.8563385976
 30
0.0
 10
10.2004402512
 20
8.8596140168
 30
0.0
 10
10.1984107116
 20
8.862234303
 30
0.0
 10
10.1971423486
 20
8.8638720934
 30
0.0
 10
10.1961274311
 20
8.8651820705
 30
0.0
 10
10.1953668645
 20
8.866165252
 30
0.0
 10
10.1947310819
 20
8.8669823471
 30
0.0
 10
10.1942899141
 20
8.867558676
 30
0.0
 10
10.1940317599
 20
8.8678811954
 30
0.0
 10
10.1938552106
 20
8.8681422728
 30
0.0
 10
10.1936134252
 20
8.8683300046
 30
0.0
 10
10.1933137997
 20
8.8686058975
 30
0.0
 10
10.1927788531
 20
8.86907679
 30
0.0
 10
10.1920201864
 20
8.8697557256
 30
0.0
 10
10.191107414
 20
8.8705677807
 30
0.0
 10
10.1898912128
 20
8.8716514527
 30
0.0
 10
10.1883706775
 20
8.8730057236
 30
0.0
 10
10.1859379796
 20
8.8751727354
 30
0.0
 10
10.1828970525
 20
8.8778814385
 30
0.0
 10
10.1792479648
 20
8.8811319106
 30
0.0
 10
10.1755988656
 20
8.8843823681
 30
0.0
 10
10.1725579674
 20
8.8870911077
 30
0.0
 10
10.1701252117
 20
8.8892580465
 30
0.0
 10
10.1686048234
 20
8.890612503
 30
0.0
 10
10.1673883204
 20
8.8916957941
 30
0.0
 10
10.16647647
 20
8.8925090128
 30
0.0
 10
10.1657149187
 20
8.8931843078
 30
0.0
 10
10.1651851217
 20
8.8936616993
 30
0.0
 10
10.1648772451
 20
8.8939271793
 30
0.0
 10
10.1646608044
 20
8.8941468961
 30
0.0
 10
10.1643890646
 20
8.8942878431
 30
0.0
 10
10.1640460337
 20
8.8945032483
 30
0.0
 10
10.1634367427
 20
8.8948674058
 30
0.0
 10
10.1625710255
 20
8.8953943235
 30
0.0
 10
10.1615301537
 20
8.8960237601
 30
0.0
 10
10.160143027
 20
8.8968640095
 30
0.0
 10
10.1584088782
 20
8.8979139786
 30
0.0
 10
10.1556343746
 20
8.8995941208
 30
0.0
 10
10.1521661987
 20
8.9016942323
 30
0.0
 10
10.1480044084
 20
8.9042143966
 30
0.0
 10
10.1438426091
 20
8.9067345447
 30
0.0
 10
10.1403744557
 20
8.9088346965
 30
0.0
 10
10.1375999071
 20
8.9105147581
 30
0.0
 10
10.1358658724
 20
8.911564932
 30
0.0
 10
10.1344785117
 20
8.912404761
 30
0.0
 10
10.133438355
 20
8.9130354819
 30
0.0
 10
10.1325704001
 20
8.9135583816
 30
0.0
 10
10.1319651037
 20
8.913929712
 30
0.0
 10
10.1316156724
 20
8.9141336243
 30
0.0
 10
10.1313635927
 20
8.9143098738
 30
0.0
 10
10.1310733118
 20
8.9143970001
 30
0.0
 10
10.1306995955
 20
8.9145442556
 30
0.0
 10
10.1300393837
 20
8.9147874686
 30
0.0
 10
10.1290994698
 20
8.9151424882
 30
0.0
 10
10.1279701838
 20
8.9155652705
 30
0.0
 10
10.1264649543
 20
8.9161301124
 30
0.0
 10
10.1245832514
 20
8.9168357771
 30
0.0
 10
10.1215726195
 20
8.9179650573
 30
0.0
 10
10.1178092977
 20
8.9193765827
 30
0.0
 10
10.1132933259
 20
8.9210704475
 30
0.0
 10
10.1087773476
 20
8.9227642946
 30
0.0
 10
10.1050140419
 20
8.9241758643
 30
0.0
 10
10.1020033779
 20
8.9253050559
 30
0.0
 10
10.1001217566
 20
8.9260109457
 30
0.0
 10
10.0986163595
 20
8.9265753255
 30
0.0
 10
10.0974875857
 20
8.9269995195
 30
0.0
 10
10.0965460692
 20
8.9273501222
 30
0.0
 10
10.0958887181
 20
8.9276012202
 30
0.0
 10
10.0955104183
 20
8.927735842
 30
0.0
 10
10.0952342168
 20
8.9278617749
 30
0.0
 10
10.0949292569
 20
8.9278922732
 30
0.0
 10
10.0945326749
 20
8.9279662262
 30
0.0
 10
10.0938339828
 20
8.9280801343
 30
0.0
 10
10.0928382947
 20
8.9282509687
 30
0.0
 10
10.0916424231
 20
8.9284524993
 30
0.0
 10
10.0900482928
 20
8.928722419
 30
0.0
 10
10.088055505
 20
8.9290594036
 30
0.0
 10
10.0848671143
 20
8.9295988108
 30
0.0
 10
10.080881602
 20
8.9302729903
 30
0.0
 10
10.0760989975
 20
8.9310820398
 30
0.0
 10
10.0713163903
 20
8.9318910802
 30
0.0
 10
10.0649395816
 20
8.9329698039
 30
0.0
 10
10.0601569749
 20
8.9337788459
 30
0.0
 10
10.0569685705
 20
8.9343182075
 30
0.0
  0
ENDSEC
  0
SECTION
  2
OBJECTS
  0
DICTIONARY
  5
C
100
AcDbDictionary
280
0
281
1
  3
ACAD_GROUP
350
D
  3
ACAD_MLINESTYLE
350
17
  3
ACAD_LAYOUT
350
1A
  3
ACAD_PLOTSETTINGS
350
19
  3
ACAD_PLOTSTYLENAME
350
E
  3
ACAD_IMAGE_DICT
350
       398
  3
ACAD_IMAGE_VARS
350
       399
  3
ACAD_TABLESTYLE
350
       39A
  0
IMAGEDEF_REACTOR
  5
397
100
AcDbRasterImageDefReactor
 90
2
330
28A
  0
DICTIONARY
  5
D
102
{ACAD_REACTORS
330
C
102
}
100
AcDbDictionary
280
0
281
1
  0
ACDBDICTIONARYWDFLT
  5
E
102
{ACAD_REACTORS
330
C
102
}
100
AcDbDictionary
281
1
  3
Normal
350
F
100
AcDbDictionaryWithDefault
340
F
  0
DICTIONARY
  5
398
330
C
100
AcDbDictionary
281
1
  3
H3D_assy_2_img_1
350
       39D
  0
RASTERVARIABLES
  5
399
330
C
100
AcDbRasterVariables
 90
0
 70
0
 71
1
 72
5
  0
DICTIONARY
  5
17
102
{ACAD_REACTORS
330
C
102
}
100
AcDbDictionary
280
0
281
1
  3
Standard
350
18
  0
DICTIONARY
  5
39A
330
C
100
AcDbDictionary
281
1
  3
Standard
350
       39E
  3
Standard1
350
       39F
  0
DICTIONARY
  5
19
102
{ACAD_REACTORS
330
C
102
}
100
AcDbDictionary
281
1
  0
DICTIONARY
  5
1A
102
{ACAD_REACTORS
330
C
102
}
100
AcDbDictionary
281
1
  3
Model
350
39B
  3
Layout1
350
39C
  0
ACDBPLACEHOLDER
  5
F
102
{ACAD_REACTORS
330
E
102
}
  0
MLINESTYLE
  5
18
102
{ACAD_REACTORS
330
17
102
}
100
AcDbMlineStyle
  2
STANDARD
 70
0
  3

 62
256
 51
90.0
 52
90.0
 71
2
 49
0.5
 62
256
  6
BYLAYER
 49
-0.5
 62
256
  6
BYLAYER
  0
LAYOUT
  5
39B
102
{ACAD_REACTORS
330
1A
102
}
100
AcDbPlotSettings
  1

  2
none_device
  4
ANSI_C_(22.00_x_17.00_Inches)
  6

 40
0.0
 41
0.0
 42
0.0
 43
0.0
 44
558.8
 45
431.8
 46
0.0
 47
0.0
 48
0.0
 49
0.0
140
0.0
141
0.0
142
1.0
143
1.0
 70
1024
 72
0
 73
0
 74
0
  7

 75
0
147
1.0
148
0.0
149
0.0
100
AcDbLayout
  1
Model
 70
0
 71
0
 10
0.0
 20
0.0
 11
22.0
 21
17.0
 12
0.0
 22
0.0
 32
0.0
 14
0.0
 24
0.0
 34
0.0
 15
0.0
 25
0.0
 35
0.0
146
0.0
 13
0.0
 23
0.0
 33
0.0
 16
1.0
 26
0.0
 36
0.0
 17
0.0
 27
1.0
 37
0.0
 76
0
330
204
345
0
346
0
  0
LAYOUT
  5
39C
102
{ACAD_REACTORS
330
1A
102
}
100
AcDbPlotSettings
  1

  2
none_device
  4
ANSI_C_(22.00_x_17.00_Inches)
  6

 40
0.0
 41
0.0
 42
0.0
 43
0.0
 44
558.8
 45
431.8
 46
0.0
 47
0.0
 48
0.0
 49
0.0
140
0.0
141
0.0
142
1.0
143
1.0
 70
0
 72
0
 73
0
 74
0
  7

 75
0
147
1.0
148
0.0
149
0.0
100
AcDbLayout
  1
Layout1
 70
0
 71
1
 10
0.0
 20
0.0
 11
22.0
 21
17.0
 12
0.0
 22
0.0
 32
0.0
 14
0.0
 24
0.0
 34
0.0
 15
0.0
 25
0.0
 35
0.0
146
0.0
 13
0.0
 23
0.0
 33
0.0
 16
1.0
 26
0.0
 36
0.0
 17
0.0
 27
1.0
 37
0.0
 76
0
330
205
345
0
346
0
  0
IMAGEDEF
  5
39D
102
{ACAD_REACTORS
330
398
330
397
102
}
100
AcDbRasterImageDef
 90
0
  1
H3D_assy_2_img_1.png
 10
369.0
 20
92.0
 11
0.0066666667
 21
0.0066666667
280
1
281
0
  0
TABLESTYLE
  5
39E
102
{ACAD_REACTORS
330
39A
330
28D
330
28E
102
}
330
39A
100
AcDbTableStyle
  3
Standard
 70
0
 71
0
 40
0.06
 41
0.06
280
1
281
1
  7
Standard
140
0.18
170
1
 62
0
 63
7
283
0
  7
Standard
140
0.18
170
1
 62
0
 63
7
283
0
  7
Standard
140
0.18
170
1
 62
0
 63
7
283
0
  0
TABLESTYLE
  5
39F
102
{ACAD_REACTORS
330
39A
330
28C
102
}
330
39A
100
AcDbTableStyle
  3
Standard1
 70
1
 71
0
 40
0.06
 41
0.06
280
1
281
1
  7
Standard
140
0.18
170
1
 62
0
 63
7
283
0
  7
Standard
140
0.18
170
1
 62
0
 63
7
283
0
  7
Standard
140
0.18
170
1
 62
0
 63
7
283
0
  0
ENDSEC
  0
EOF
