999
DXF file: H2L_assy_2.dxf
999
Pro/ENGINEER 2014200 by Parametric Technology Corporation
  0
SECTION
  2
HEADER
  9
$ACADVER
  1
AC1021
  9
$DWGCODEPAGE
  3
ANSI_1252
  9
$EXTMAX
 10
22.0
 20
17.0
 30
0.0
  9
$EXTMIN
 10
0.0
 20
0.0
 30
0.0
  9
$LIMMIN
 10
0.0
 20
0.0
  9
$LIMMAX
 10
22.0
 20
17.0
  9
$VIEWCTR
 10
11.0
 20
8.5
  9
$VIEWSIZE
 40
17.0
  9
$CLAYER
  8
0
  9
$LTSCALE
 40
1.21
  9
$CELTYPE
  6
BYLAYER
  9
$DIMSCALE
 40
1.0
  9
$DIMASZ
 40
0.1875
  9
$DIMEXO
 40
0.0625
  9
$DIMDLI
 40
0.836
  9
$DIMEXE
 40
0.125
  9
$DIMCEN
 40
0.198
  9
$DIMLFAC
 40
1.0
  9
$DIMBLK
  1
_FILLED
  9
$DIMTXT
 40
0.1
  9
$DIMTOL
 70
0
  9
$DIMLIM
 70
0
  9
$DIMTFAC
 40
1.0
  9
$DIMGAP
 40
0.09
  9
$DIMDSEP
 70
46
  9
$AUNITS
 70
0
  9
$PDMODE
 70
3
  9
$PDSIZE
 40
0.3125
  9
$HANDSEED
  5
3A4
  9
$TILEMODE
 70
1
  9
$MEASUREMENT
 70
0
  9
$INSUNITS
 70
1
  0
ENDSEC
  0
SECTION
  2
CLASSES
  0
CLASS
  1
ACDBDICTIONARYWDFLT
  2
AcDbDictionaryWithDefault
  3
AutoCAD 2000
 90
0
 91
1
280
0
281
0
  0
CLASS
  1
ACDBPLACEHOLDER
  2
AcDbPlaceHolder
  3
AutoCAD 2000
 90
0
 91
1
280
0
281
0
  0
CLASS
  1
LAYOUT
  2
AcDbLayout
  3
AutoCAD 2000
 90
0
 91
0
280
0
281
0
  0
CLASS
  1
RASTERVARIABLES
  2
AcDbRasterVariables
  3
ISM
 90
0
 91
1
280
0
281
0
  0
CLASS
  1
IMAGEDEF
  2
AcDbRasterImageDef
  3
ISM
 90
0
 91
1
280
0
281
0
  0
CLASS
  1
IMAGEDEF_REACTOR
  2
AcDbRasterImageDefReactor
  3
ISM
 90
0
 91
1
280
0
281
0
  0
CLASS
  1
IMAGE
  2
AcDbRasterImage
  3
ISM
 90
127
 91
1
280
0
281
1
  0
CLASS
  1
TABLESTYLE
  2
AcDbTableStyle
  3
ObjectDBX Classes
 90
2047
 91
1
280
0
281
0
  0
CLASS
  1
ACAD_TABLE
  2
AcDbTable
  3
ObjectDBX Classes
 90
1025
 91
3
280
0
281
1
  0
ENDSEC
  0
SECTION
  2
TABLES
  0
TABLE
  2
VPORT
  5
8
100
AcDbSymbolTable
 70
2
  0
VPORT
  5
1F4
100
AcDbSymbolTableRecord
100
AcDbViewportTableRecord
  2
*ACTIVE
 70
0
 10
0.0
 20
0.0
 11
1.0
 21
1.0
 12
11.0
 22
8.5
 13
0.0
 23
0.0
 14
1.0
 24
1.0
 15
0.0
 25
0.0
 16
0.0
 26
0.0
 36
1.0
 17
0.0
 27
0.0
 37
0.0
 40
17.0
 41
1.2941176471
 42
50.0
 43
0.0
 44
0.0
 50
0.0
 51
0.0
 71
0
 72
100
 73
1
 74
1
 75
0
 76
0
 77
0
 78
0
  0
ENDTAB
  0
TABLE
  2
LTYPE
  5
5
100
AcDbSymbolTable
 70
6
  0
LTYPE
  5
14
100
AcDbSymbolTableRecord
100
AcDbLinetypeTableRecord
  2
BYBLOCK
 70
0
  3

 72
65
 73
0
 40
0.0
  0
LTYPE
  5
15
100
AcDbSymbolTableRecord
100
AcDbLinetypeTableRecord
  2
BYLAYER
 70
0
  3

 72
65
 73
0
 40
0.0
  0
LTYPE
  5
16
100
AcDbSymbolTableRecord
100
AcDbLinetypeTableRecord
  2
CONTINUOUS
 70
64
  3
Solid line
 72
65
 73
0
 40
0.0
  0
LTYPE
  5
1F5
100
AcDbSymbolTableRecord
100
AcDbLinetypeTableRecord
  2
CENTER
 70
64
  3
____ _ ____ _ ____ _ ____ _ ____ _ ____ _ ____
 72
65
 73
4
 40
0.6
 49
0.375
 74
0
 49
-0.075
 74
0
 49
0.075
 74
0
 49
-0.075
 74
0
  0
LTYPE
  5
1F6
100
AcDbSymbolTableRecord
100
AcDbLinetypeTableRecord
  2
HIDDEN
 70
64
  3
- - - - - - - - - - - - - - - - - - - -
 72
65
 73
2
 40
0.2
 49
0.1
 74
0
 49
-0.1
 74
0
  0
LTYPE
  5
1F7
100
AcDbSymbolTableRecord
100
AcDbLinetypeTableRecord
  2
PHANTOM
 70
64
  3
_____ _ _ _____ _ _ _____ _ _ _____
 72
65
 73
6
 40
0.8
 49
0.45
 74
0
 49
-0.05
 74
0
 49
0.1
 74
0
 49
-0.05
 74
0
 49
0.1
 74
0
 49
-0.05
 74
0
  0
LTYPE
  5
1F8
100
AcDbSymbolTableRecord
100
AcDbLinetypeTableRecord
  2
DOT
 70
64
  3
. . . . . . . . . . . . . . . . . . . .
 72
65
 73
2
 40
0.2
 49
0.1
 74
0
 49
-0.1
 74
0
  0
LTYPE
  5
1F9
100
AcDbSymbolTableRecord
100
AcDbLinetypeTableRecord
  2
DASHED
 70
64
  3
- - - - - - - - - - - - - - - - - - - -
 72
65
 73
2
 40
0.2
 49
0.1
 74
0
 49
-0.1
 74
0
  0
ENDTAB
  0
TABLE
  2
LAYER
  5
2
100
AcDbSymbolTable
 70
36
  0
LAYER
  5
10
100
AcDbSymbolTableRecord
100
AcDbLayerTableRecord
  2
0
 70
0
 62
7
  6
CONTINUOUS
370
-3
390
F
  0
LAYER
  5
1FA
100
AcDbSymbolTableRecord
100
AcDbLayerTableRecord
  2
DEFAULT_1
 70
0
 62
7
  6
CENTER
370
-3
390
F
  0
LAYER
  5
1FB
100
AcDbSymbolTableRecord
100
AcDbLayerTableRecord
  2
DEFAULT_2
 70
0
 62
8
  6
HIDDEN
370
-3
390
F
  0
LAYER
  5
1FC
100
AcDbSymbolTableRecord
100
AcDbLayerTableRecord
  2
DEFAULT_3
 70
0
 62
7
  6
PHANTOM
370
-3
390
F
  0
LAYER
  5
1FD
100
AcDbSymbolTableRecord
100
AcDbLayerTableRecord
  2
DATUM_PLANES
 70
0
 62
7
  6
CONTINUOUS
370
-3
390
F
  0
LAYER
  5
1FE
100
AcDbSymbolTableRecord
100
AcDbLayerTableRecord
  2
PORT_AREAS
 70
0
 62
7
  6
CONTINUOUS
370
-3
390
F
  0
LAYER
  5
1FF
100
AcDbSymbolTableRecord
100
AcDbLayerTableRecord
  2
SUNNBOMCOSMETIC
 70
0
 62
7
  6
CONTINUOUS
370
-3
390
F
  0
LAYER
  5
200
100
AcDbSymbolTableRecord
100
AcDbLayerTableRecord
  2
SUNNBOMSTAMPING
 70
0
 62
7
  6
CONTINUOUS
370
-3
390
F
  0
LAYER
  5
201
100
AcDbSymbolTableRecord
100
AcDbLayerTableRecord
  2
THREADS
 70
0
 62
7
  6
CONTINUOUS
370
-3
390
F
  0
ENDTAB
  0
TABLE
  2
STYLE
  5
3
100
AcDbSymbolTable
 70
1
  0
STYLE
  5
11
100
AcDbSymbolTableRecord
100
AcDbTextStyleTableRecord
  2
STANDARD
 70
0
 40
0.0
 41
0.8
 50
0.0
 71
0
 42
0.2
  3
txt
  4

  0
STYLE
  5
202
100
AcDbSymbolTableRecord
100
AcDbTextStyleTableRecord
  2
TEXTSTYLE_1
 70
0
 40
0.0
 41
0.8
 50
0.0
 71
0
 42
0.2
  3
gdt
  4

  0
ENDTAB
  0
TABLE
  2
VIEW
  5
6
100
AcDbSymbolTable
 70
0
  0
ENDTAB
  0
TABLE
  2
UCS
  5
7
100
AcDbSymbolTable
 70
0
  0
ENDTAB
  0
TABLE
  2
APPID
  5
9
100
AcDbSymbolTable
 70
1
  0
APPID
  5
203
100
AcDbSymbolTableRecord
100
AcDbRegAppTableRecord
  2
ACAD
 70
0
  0
ENDTAB
  0
TABLE
  2
BLOCK_RECORD
  5
1
100
AcDbSymbolTable
 70
0
  0
BLOCK_RECORD
  5
204
100
AcDbSymbolTableRecord
100
AcDbBlockTableRecord
  2
*Model_Space
  0
BLOCK_RECORD
  5
205
100
AcDbSymbolTableRecord
100
AcDbBlockTableRecord
  2
*Paper_Space
  0
BLOCK_RECORD
  5
206
100
AcDbSymbolTableRecord
100
AcDbBlockTableRecord
  2
SUN_FIRST_THIRD_ANGLE_BL0
  0
BLOCK_RECORD
  5
207
100
AcDbSymbolTableRecord
100
AcDbBlockTableRecord
  2
*T1
  0
BLOCK_RECORD
  5
208
100
AcDbSymbolTableRecord
100
AcDbBlockTableRecord
  2
*T2
  0
BLOCK_RECORD
  5
209
100
AcDbSymbolTableRecord
100
AcDbBlockTableRecord
  2
*T3
  0
ENDTAB
  0
TABLE
  2
DIMSTYLE
  5
A
100
AcDbSymbolTable
 70
1
100
AcDbDimStyleTable
 71
0
  0
DIMSTYLE
105
20A
100
AcDbSymbolTableRecord
100
AcDbDimStyleTableRecord
  2
STANDARD
 70
0
  3

  4

 40
1.0
 41
0.1875
 42
0.0625
 43
0.38
 44
0.125
 45
0.0
 46
0.0
 47
0.001
 48
0.001
140
0.1
141
0.09
142
0.0
143
25.4
144
1.0
145
0.0
146
1.0
147
0.09
 71
0.0
 72
0.0
 73
1
 74
1
 75
0
 76
0
 77
0
 78
4
170
0
171
2
172
0
173
0
174
0
175
0
176
0
177
0
178
0
270
2
271
3
272
3
273
2
274
2
275
0
280
0
281
0
282
0
283
1
284
4
285
0
286
0
287
3
288
0
340
11
278
46
  0
ENDTAB
  0
ENDSEC
  0
SECTION
  2
BLOCKS
  0
BLOCK
  5
20
100
AcDbEntity
  8
0
100
AcDbBlockBegin
  2
*Model_Space
 70
0
 10
0.0
 20
0.0
 30
0.0
  3
*Model_Space
  1

  0
ENDBLK
  5
21
100
AcDbEntity
  8
0
100
AcDbBlockEnd
  0
BLOCK
  5
1C
100
AcDbEntity
  8
0
100
AcDbBlockBegin
  2
*Paper_Space
 70
0
 10
0.0
 20
0.0
 30
0.0
  3
*Paper_Space
  1

  0
ENDBLK
  5
1D
100
AcDbEntity
  8
0
100
AcDbBlockEnd
  0
BLOCK
  5
20B
100
AcDbEntity
  8
0
100
AcDbBlockBegin
 62
2
  6
CONTINUOUS
  2
SUN_FIRST_THIRD_ANGLE_BL0
 70
64
 10
20.4816717061
 20
1.2289683772
  3
SUN_FIRST_THIRD_ANGLE_BL0
  1

  0
TEXT
  5
20C
100
AcDbEntity
  8
0
100
AcDbText
 62
2
  6
CONTINUOUS
 10
19.4750896608
 20
1.4136269581
  7
STANDARD
 40
0.08
  1
FIRST ANGLE
 41
0.8
 72
0
100
AcDbText
  0
TEXT
  5
20D
100
AcDbEntity
  8
0
100
AcDbText
 62
2
  6
CONTINUOUS
 10
20.7842537513
 20
1.4047600029
  7
STANDARD
 40
0.08
  1
THIRD ANGLE
 41
0.8
 72
0
100
AcDbText
  0
LINE
  5
20E
100
AcDbEntity
  8
0
100
AcDbLine
 62
7
  6
CONTINUOUS
 10
19.4767170086
 20
1.1727031207
 11
19.6334271527
 21
1.1717972817
  0
LINE
  5
20F
100
AcDbEntity
  8
0
100
AcDbLine
 62
7
  6
CONTINUOUS
 10
19.6596964832
 20
1.1717972817
 11
19.6950230232
 21
1.171593082
  0
LINE
  5
210
100
AcDbEntity
  8
0
100
AcDbLine
 62
7
  6
CONTINUOUS
 10
19.7194818561
 20
1.1708914427
 11
19.8852396156
 21
1.1699333054
  0
LINE
  5
211
100
AcDbEntity
  8
0
100
AcDbLine
 62
7
  6
CONTINUOUS
 10
19.4758111696
 20
1.2723454088
 11
19.88525039
 21
1.3511534004
  0
LINE
  5
212
100
AcDbEntity
  8
0
100
AcDbLine
 62
7
  6
CONTINUOUS
 10
19.88525039
 20
1.3511534004
 11
19.8831348489
 21
0.9851647912
  0
LINE
  5
213
100
AcDbEntity
  8
0
100
AcDbLine
 62
7
  6
CONTINUOUS
 10
19.8831348489
 20
0.9851647912
 11
19.4767170086
 21
1.0658141206
  0
LINE
  5
214
100
AcDbEntity
  8
0
100
AcDbLine
 62
7
  6
CONTINUOUS
 10
19.4767170086
 20
1.0658141206
 11
19.4779056764
 21
1.2714536432
  0
CIRCLE
  5
215
100
AcDbEntity
  8
0
100
AcDbCircle
 62
7
  6
CONTINUOUS
 10
20.2068232291
 20
1.1717972817
 40
0.175742101
  0
CIRCLE
  5
216
100
AcDbEntity
  8
0
100
AcDbCircle
 62
7
  6
CONTINUOUS
 10
20.2068232291
 20
1.1717972817
 40
0.1005522074
  0
LINE
  5
217
100
AcDbEntity
  8
0
100
AcDbLine
 62
7
  6
CONTINUOUS
 10
20.2077290681
 20
1.3756110529
 11
20.2071171714
 21
1.2379342989
  0
LINE
  5
218
100
AcDbEntity
  8
0
100
AcDbLine
 62
7
  6
CONTINUOUS
 10
20.2077290681
 20
1.2016899681
 11
20.2074674401
 21
1.1428236749
  0
LINE
  5
219
100
AcDbEntity
  8
0
100
AcDbLine
 62
7
  6
CONTINUOUS
 10
20.208634907
 20
1.101141841
 11
20.2080230104
 21
0.963465087
  0
LINE
  5
21A
100
AcDbEntity
  8
0
100
AcDbLine
 62
7
  6
CONTINUOUS
 10
20.0066328138
 20
1.1745147986
 11
20.1443095678
 21
1.1739029019
  0
LINE
  5
21B
100
AcDbEntity
  8
0
100
AcDbLine
 62
7
  6
CONTINUOUS
 10
20.1832714155
 20
1.1727031207
 11
20.238153505
 21
1.172335442
  0
LINE
  5
21C
100
AcDbEntity
  8
0
100
AcDbLine
 62
7
  6
CONTINUOUS
 10
20.2756669918
 20
1.1717972817
 11
20.407916871
 21
1.1712095044
  0
CIRCLE
  5
21D
100
AcDbEntity
  8
0
100
AcDbCircle
 62
7
  6
CONTINUOUS
 10
20.7509457401
 20
1.1693297793
 40
0.1722024983
  0
CIRCLE
  5
21E
100
AcDbEntity
  8
0
100
AcDbCircle
 62
7
  6
CONTINUOUS
 10
20.7509457401
 20
1.1693297793
 40
0.0985164967
  0
LINE
  5
21F
100
AcDbEntity
  8
0
100
AcDbLine
 62
7
  6
CONTINUOUS
 10
20.7169767782
 20
1.170462078
 11
20.7825395137
 21
1.1682766535
  0
LINE
  5
220
100
AcDbEntity
  8
0
100
AcDbLine
 62
7
  6
CONTINUOUS
 10
20.8177513651
 20
1.1693297793
 11
20.947965719
 21
1.1693297793
  0
LINE
  5
221
100
AcDbEntity
  8
0
100
AcDbLine
 62
7
  6
CONTINUOUS
 10
20.6875370113
 20
1.170462078
 11
20.5573226574
 21
1.170462078
  0
LINE
  5
222
100
AcDbEntity
  8
0
100
AcDbLine
 62
7
  6
CONTINUOUS
 10
20.7486811426
 20
1.1987695462
 11
20.7486811426
 21
1.1432869085
  0
LINE
  5
223
100
AcDbEntity
  8
0
100
AcDbLine
 62
7
  6
CONTINUOUS
 10
20.7498134414
 20
1.1059210505
 11
20.7498134414
 21
0.9757066966
  0
LINE
  5
224
100
AcDbEntity
  8
0
100
AcDbLine
 62
7
  6
CONTINUOUS
 10
20.7486811426
 20
1.2338708068
 11
20.7486811426
 21
1.3640851607
  0
LINE
  5
225
100
AcDbEntity
  8
0
100
AcDbLine
 62
7
  6
CONTINUOUS
 10
21.0702539817
 20
1.2701043662
 11
21.4790138229
 21
1.3448360823
  0
LINE
  5
226
100
AcDbEntity
  8
0
100
AcDbLine
 62
7
  6
CONTINUOUS
 10
21.4790138229
 20
1.3448360823
 11
21.4790138229
 21
0.9779712941
  0
LINE
  5
227
100
AcDbEntity
  8
0
100
AcDbLine
 62
7
  6
CONTINUOUS
 10
21.4790138229
 20
0.9779712941
 11
21.069121683
 21
1.0617614
  0
LINE
  5
228
100
AcDbEntity
  8
0
100
AcDbLine
 62
7
  6
CONTINUOUS
 10
21.0702539817
 20
1.2701043662
 11
21.069121683
 21
1.0617614
  0
LINE
  5
229
100
AcDbEntity
  8
0
100
AcDbLine
 62
7
  6
CONTINUOUS
 10
21.4790138229
 20
1.1693297793
 11
21.3159628059
 21
1.1693297793
  0
LINE
  5
22A
100
AcDbEntity
  8
0
100
AcDbLine
 62
7
  6
CONTINUOUS
 10
21.2876553377
 20
1.1693297793
 11
21.2502894796
 21
1.1693297793
  0
LINE
  5
22B
100
AcDbEntity
  8
0
100
AcDbLine
 62
7
  6
CONTINUOUS
 10
21.2208497126
 20
1.1659328831
 11
21.0713862804
 21
1.1659328831
  0
LINE
  5
22C
100
AcDbEntity
  8
0
100
AcDbLine
 62
7
  6
CONTINUOUS
 10
20.4796138713
 20
1.5284908897
 11
20.4766766948
 21
0.9294458646
  0
ENDBLK
  5
22D
100
AcDbEntity
  8
0
  6
BYBLOCK
 62
0
100
AcDbBlockEnd
  0
BLOCK
  5
22E
100
AcDbEntity
  8
0
100
AcDbBlockBegin
  2
*T1
 70
1
 10
0.0
 20
0.0
  3
*T1
  1

  0
LINE
  5
22F
100
AcDbEntity
  8
0
100
AcDbLine
 62
2
  6
CONTINUOUS
 10
9.275
 20
0.0
 11
-0.0
 21
0.0
  0
LINE
  5
230
100
AcDbEntity
  8
0
100
AcDbLine
 62
2
  6
CONTINUOUS
 10
9.275
 20
0.0
 11
9.275
 21
1.25
  0
LINE
  5
231
100
AcDbEntity
  8
0
100
AcDbLine
 62
2
  6
CONTINUOUS
 10
9.275
 20
0.625
 11
-0.0
 21
0.625
  0
LINE
  5
232
100
AcDbEntity
  8
0
100
AcDbLine
 62
2
  6
CONTINUOUS
 10
9.275
 20
1.25
 11
-0.0
 21
1.25
  0
LINE
  5
233
100
AcDbEntity
  8
0
100
AcDbLine
 62
2
  6
CONTINUOUS
 10
6.8
 20
0.0
 11
6.8
 21
1.25
  0
LINE
  5
234
100
AcDbEntity
  8
0
100
AcDbLine
 62
2
  6
CONTINUOUS
 10
6.4
 20
0.0
 11
6.4
 21
0.625
  0
LINE
  5
235
100
AcDbEntity
  8
0
100
AcDbLine
 62
2
  6
CONTINUOUS
 10
5.9
 20
0.0
 11
5.9
 21
0.625
  0
LINE
  5
236
100
AcDbEntity
  8
0
100
AcDbLine
 62
2
  6
CONTINUOUS
 10
5.2
 20
0.0
 11
5.2
 21
0.625
  0
LINE
  5
237
100
AcDbEntity
  8
0
100
AcDbLine
 62
2
  6
CONTINUOUS
 10
4.1
 20
0.0
 11
4.1
 21
1.25
  0
LINE
  5
238
100
AcDbEntity
  8
0
100
AcDbLine
 62
2
  6
CONTINUOUS
 10
-0.0
 20
0.0
 11
-0.0
 21
1.25
  0
MTEXT
  5
239
100
AcDbEntity
  8
0
100
AcDbMText
 62
2
  6
CONTINUOUS
  7
STANDARD
 71
2
 72
1
 10
6.6
 20
0.325
 30
0.0
 11
1.0
 21
0.0
 31
0.0
 44
0.9
  1
2
 40
0.125
 41
0.2
  0
MTEXT
  5
23A
100
AcDbEntity
  8
0
100
AcDbMText
 62
2
  6
CONTINUOUS
  7
STANDARD
 71
2
 72
1
 10
6.15
 20
0.325
 30
0.0
 11
1.0
 21
0.0
 31
0.0
 44
0.9
  1
C
 40
0.125
 41
0.2
  0
MTEXT
  5
23B
100
AcDbEntity
  8
0
100
AcDbMText
 62
2
  6
CONTINUOUS
  7
STANDARD
 71
2
 72
1
 10
5.55
 20
0.325
 30
0.0
 11
1.0
 21
0.0
 31
0.0
 44
0.9
  1
1.000
 40
0.125
 41
1.0
  0
MTEXT
  5
23C
100
AcDbEntity
  8
0
100
AcDbMText
 62
2
  6
CONTINUOUS
  7
STANDARD
 71
2
 72
1
 10
4.65
 20
0.325
 30
0.0
 11
1.0
 21
0.0
 31
0.0
 44
0.9
  1
Mar-14-24
 40
0.125
 41
1.8
  0
MTEXT
  5
23D
100
AcDbEntity
  8
0
100
AcDbMText
 62
2
  6
CONTINUOUS
  7
STANDARD
 71
2
 72
1
 10
2.05
 20
0.4625
 30
0.0
 11
1.0
 21
0.0
 31
0.0
 44
0.9
  1
T-17A Line mount\P(See Technical Data for Body Features)
 40
0.125
 41
7.6
  0
MTEXT
  5
23E
100
AcDbEntity
  8
0
100
AcDbMText
 62
2
  6
CONTINUOUS
  7
STANDARD
 71
1
 72
1
 10
6.45
 20
0.5625
 30
0.0
 11
1.0
 21
0.0
 31
0.0
 44
0.9
  1
SHEET
 40
0.06
 41
0.48
  0
MTEXT
  5
23F
100
AcDbEntity
  8
0
100
AcDbMText
 62
2
  6
CONTINUOUS
  7
STANDARD
 71
1
 72
1
 10
5.95
 20
0.5625
 30
0.0
 11
1.0
 21
0.0
 31
0.0
 44
0.9
  1
DWG SIZE
 40
0.06
 41
0.768
  0
MTEXT
  5
240
100
AcDbEntity
  8
0
100
AcDbMText
 62
2
  6
CONTINUOUS
  7
STANDARD
 71
1
 72
1
 10
5.25
 20
0.5625
 30
0.0
 11
1.0
 21
0.0
 31
0.0
 44
0.9
  1
SCALE
 40
0.06
 41
0.48
  0
MTEXT
  5
241
100
AcDbEntity
  8
0
100
AcDbMText
 62
2
  6
CONTINUOUS
  7
STANDARD
 71
1
 72
1
 10
4.15
 20
0.5625
 30
0.0
 11
1.0
 21
0.0
 31
0.0
 44
0.9
  1
DATE
 40
0.06
 41
0.384
  0
MTEXT
  5
242
100
AcDbEntity
  8
0
100
AcDbMText
 62
2
  6
CONTINUOUS
  7
STANDARD
 71
1
 72
1
 10
0.05
 20
0.5625
 30
0.0
 11
1.0
 21
0.0
 31
0.0
 44
0.9
  1
DESCRIPTION
 40
0.06
 41
1.056
  0
MTEXT
  5
243
100
AcDbEntity
  8
0
100
AcDbMText
 62
2
  6
CONTINUOUS
  7
STANDARD
 71
2
 72
1
 10
5.45
 20
1.0375
 30
0.0
 11
1.0
 21
0.0
 31
0.0
 44
0.9
  1
ALL DIMENSIONS IN INCH\PVIEWS ARE THIRD ANGLE
 40
0.12
 41
4.224
  0
MTEXT
  5
244
100
AcDbEntity
  8
0
100
AcDbMText
 62
2
  6
CONTINUOUS
  7
STANDARD
 71
2
 72
1
 10
2.05
 20
0.95
 30
0.0
 11
1.0
 21
0.0
 31
0.0
 44
0.9
  1
H2L
 40
0.125
 41
0.6
  0
MTEXT
  5
245
100
AcDbEntity
  8
0
100
AcDbMText
 62
2
  6
CONTINUOUS
  7
STANDARD
 71
1
 72
1
 10
0.05
 20
1.1875
 30
0.0
 11
1.0
 21
0.0
 31
0.0
 44
0.9
  1
MODEL
 40
0.06
 41
0.48
  0
ENDBLK
  5
246
100
AcDbEntity
  8
0
  6
BYBLOCK
 62
0
100
AcDbBlockEnd
  0
BLOCK
  5
247
100
AcDbEntity
  8
0
100
AcDbBlockBegin
  2
*T2
 70
1
 10
0.0
 20
0.0
  3
*T2
  1

  0
LINE
  5
248
100
AcDbEntity
  8
0
100
AcDbLine
 62
2
  6
CONTINUOUS
 10
0.0
 20
0.0
 11
9.055
 21
0.0
  0
LINE
  5
249
100
AcDbEntity
  8
0
100
AcDbLine
 62
2
  6
CONTINUOUS
 10
0.0
 20
0.0
 11
0.0
 21
-2.844
  0
LINE
  5
24A
100
AcDbEntity
  8
0
100
AcDbLine
 62
2
  6
CONTINUOUS
 10
0.0
 20
-0.344
 11
9.055
 21
-0.344
  0
LINE
  5
24B
100
AcDbEntity
  8
0
100
AcDbLine
 62
2
  6
CONTINUOUS
 10
0.0
 20
-0.594
 11
9.055
 21
-0.594
  0
LINE
  5
24C
100
AcDbEntity
  8
0
100
AcDbLine
 62
2
  6
CONTINUOUS
 10
0.0
 20
-0.844
 11
9.055
 21
-0.844
  0
LINE
  5
24D
100
AcDbEntity
  8
0
100
AcDbLine
 62
2
  6
CONTINUOUS
 10
0.0
 20
-1.094
 11
9.055
 21
-1.094
  0
LINE
  5
24E
100
AcDbEntity
  8
0
100
AcDbLine
 62
2
  6
CONTINUOUS
 10
0.0
 20
-1.344
 11
9.055
 21
-1.344
  0
LINE
  5
24F
100
AcDbEntity
  8
0
100
AcDbLine
 62
2
  6
CONTINUOUS
 10
0.0
 20
-1.594
 11
9.055
 21
-1.594
  0
LINE
  5
250
100
AcDbEntity
  8
0
100
AcDbLine
 62
2
  6
CONTINUOUS
 10
0.0
 20
-1.844
 11
9.055
 21
-1.844
  0
LINE
  5
251
100
AcDbEntity
  8
0
100
AcDbLine
 62
2
  6
CONTINUOUS
 10
0.0
 20
-2.094
 11
9.055
 21
-2.094
  0
LINE
  5
252
100
AcDbEntity
  8
0
100
AcDbLine
 62
2
  6
CONTINUOUS
 10
0.0
 20
-2.344
 11
9.055
 21
-2.344
  0
LINE
  5
253
100
AcDbEntity
  8
0
100
AcDbLine
 62
2
  6
CONTINUOUS
 10
0.0
 20
-2.594
 11
9.055
 21
-2.594
  0
LINE
  5
254
100
AcDbEntity
  8
0
100
AcDbLine
 62
2
  6
CONTINUOUS
 10
0.0
 20
-2.844
 11
9.055
 21
-2.844
  0
LINE
  5
255
100
AcDbEntity
  8
0
100
AcDbLine
 62
2
  6
CONTINUOUS
 10
3.055
 20
0.0
 11
3.055
 21
-2.844
  0
LINE
  5
256
100
AcDbEntity
  8
0
100
AcDbLine
 62
2
  6
CONTINUOUS
 10
9.055
 20
0.0
 11
9.055
 21
-2.844
  0
MTEXT
  5
257
100
AcDbEntity
  8
0
100
AcDbMText
 62
2
  6
CONTINUOUS
  7
STANDARD
 71
2
 72
1
 10
1.5275
 20
-0.0995
 30
0.0
 11
1.0
 21
0.0
 31
0.0
 44
0.9
  1
Technical Data
 40
0.145
 41
3.248
  0
MTEXT
  5
258
100
AcDbEntity
  8
0
100
AcDbMText
 62
2
  6
CONTINUOUS
  7
STANDARD
 71
2
 72
1
 10
4.555
 20
-0.0995
 30
0.0
 11
1.0
 21
0.0
 31
0.0
 44
0.9
  1
U.S. Units
 40
0.145
 41
2.32
  0
MTEXT
  5
259
100
AcDbEntity
  8
0
100
AcDbMText
 62
2
  6
CONTINUOUS
  7
STANDARD
 71
2
 72
1
 10
7.555
 20
-0.0995
 30
0.0
 11
1.0
 21
0.0
 31
0.0
 44
0.9
  1
Metric Units
 40
0.145
 41
2.784
  0
MTEXT
  5
25A
100
AcDbEntity
  8
0
100
AcDbMText
 62
2
  6
CONTINUOUS
  7
STANDARD
 71
2
 72
1
 10
1.5275
 20
-0.4065
 30
0.0
 11
1.0
 21
0.0
 31
0.0
 44
0.9
  1
Cavity
 40
0.125
 41
1.2
  0
MTEXT
  5
25B
100
AcDbEntity
  8
0
100
AcDbMText
 62
2
  6
CONTINUOUS
  7
STANDARD
 71
2
 72
1
 10
6.055
 20
-0.4065
 30
0.0
 11
1.0
 21
0.0
 31
0.0
 44
0.9
  1
T-17A
 40
0.125
 41
1.0
  0
MTEXT
  5
25C
100
AcDbEntity
  8
0
100
AcDbMText
 62
2
  6
CONTINUOUS
  7
STANDARD
 71
2
 72
1
 10
1.5275
 20
-0.6565
 30
0.0
 11
1.0
 21
0.0
 31
0.0
 44
0.9
  1
Body Features
 40
0.125
 41
2.6
  0
MTEXT
  5
25D
100
AcDbEntity
  8
0
100
AcDbMText
 62
2
  6
CONTINUOUS
  7
STANDARD
 71
2
 72
1
 10
6.055
 20
-0.6565
 30
0.0
 11
1.0
 21
0.0
 31
0.0
 44
0.9
  1
Ninety degree with reverse flow check - reducing
 40
0.125
 41
9.6
  0
MTEXT
  5
25E
100
AcDbEntity
  8
0
100
AcDbMText
 62
2
  6
CONTINUOUS
  7
STANDARD
 71
2
 72
1
 10
1.5275
 20
-0.9065
 30
0.0
 11
1.0
 21
0.0
 31
0.0
 44
0.9
  1
Body Type
 40
0.125
 41
1.8
  0
MTEXT
  5
25F
100
AcDbEntity
  8
0
100
AcDbMText
 62
2
  6
CONTINUOUS
  7
STANDARD
 71
2
 72
1
 10
6.055
 20
-0.9065
 30
0.0
 11
1.0
 21
0.0
 31
0.0
 44
0.9
  1
Line mount
 40
0.125
 41
2.0
  0
MTEXT
  5
260
100
AcDbEntity
  8
0
100
AcDbMText
 62
2
  6
CONTINUOUS
  7
STANDARD
 71
2
 72
1
 10
1.5275
 20
-1.1565
 30
0.0
 11
1.0
 21
0.0
 31
0.0
 44
0.9
  1
Interface
 40
0.125
 41
1.8
  0
MTEXT
  5
261
100
AcDbEntity
  8
0
100
AcDbMText
 62
2
  6
CONTINUOUS
  7
STANDARD
 71
2
 72
1
 10
6.055
 20
-1.1565
 30
0.0
 11
1.0
 21
0.0
 31
0.0
 44
0.9
  1
None
 40
0.125
 41
0.8
  0
MTEXT
  5
262
100
AcDbEntity
  8
0
100
AcDbMText
 62
2
  6
CONTINUOUS
  7
STANDARD
 71
2
 72
1
 10
1.5275
 20
-1.4065
 30
0.0
 11
1.0
 21
0.0
 31
0.0
 44
0.9
  1
Open Cavity Quantity
 40
0.125
 41
4.0
  0
MTEXT
  5
263
100
AcDbEntity
  8
0
100
AcDbMText
 62
2
  6
CONTINUOUS
  7
STANDARD
 71
2
 72
1
 10
6.055
 20
-1.4065
 30
0.0
 11
1.0
 21
0.0
 31
0.0
 44
0.9
  1
1
 40
0.125
 41
0.2
  0
MTEXT
  5
264
100
AcDbEntity
  8
0
100
AcDbMText
 62
2
  6
CONTINUOUS
  7
STANDARD
 71
2
 72
1
 10
1.5275
 20
-1.6565
 30
0.0
 11
1.0
 21
0.0
 31
0.0
 44
0.9
  1
Weight
 40
0.125
 41
1.2
  0
MTEXT
  5
265
100
AcDbEntity
  8
0
100
AcDbMText
 62
2
  6
CONTINUOUS
  7
STANDARD
 71
2
 72
1
 10
4.555
 20
-1.6565
 30
0.0
 11
1.0
 21
0.0
 31
0.0
 44
0.9
  1
6.317 lb.
 40
0.125
 41
1.8
  0
MTEXT
  5
266
100
AcDbEntity
  8
0
100
AcDbMText
 62
2
  6
CONTINUOUS
  7
STANDARD
 71
2
 72
1
 10
7.555
 20
-1.6565
 30
0.0
 11
1.0
 21
0.0
 31
0.0
 44
0.9
  1
2,865 kg.
 40
0.125
 41
1.8
  0
MTEXT
  5
267
100
AcDbEntity
  8
0
100
AcDbMText
 62
2
  6
CONTINUOUS
  7
STANDARD
 71
2
 72
1
 10
1.5275
 20
-1.9065
 30
0.0
 11
1.0
 21
0.0
 31
0.0
 44
0.9
  1
Mounting Hole Diameter
 40
0.125
 41
4.4
  0
MTEXT
  5
268
100
AcDbEntity
  8
0
100
AcDbMText
 62
2
  6
CONTINUOUS
  7
STANDARD
 71
2
 72
1
 10
4.555
 20
-1.9065
 30
0.0
 11
1.0
 21
0.0
 31
0.0
 44
0.9
  1
.41 in.
 40
0.125
 41
1.4
  0
MTEXT
  5
269
100
AcDbEntity
  8
0
100
AcDbMText
 62
2
  6
CONTINUOUS
  7
STANDARD
 71
2
 72
1
 10
7.555
 20
-1.9065
 30
0.0
 11
1.0
 21
0.0
 31
0.0
 44
0.9
  1
10,4 mm
 40
0.125
 41
1.4
  0
MTEXT
  5
26A
100
AcDbEntity
  8
0
100
AcDbMText
 62
2
  6
CONTINUOUS
  7
STANDARD
 71
2
 72
1
 10
1.5275
 20
-2.1565
 30
0.0
 11
1.0
 21
0.0
 31
0.0
 44
0.9
  1
Mounting Hole Depth
 40
0.125
 41
3.8
  0
MTEXT
  5
26B
100
AcDbEntity
  8
0
100
AcDbMText
 62
2
  6
CONTINUOUS
  7
STANDARD
 71
2
 72
1
 10
6.055
 20
-2.1565
 30
0.0
 11
1.0
 21
0.0
 31
0.0
 44
0.9
  1
Through
 40
0.125
 41
1.4
  0
MTEXT
  5
26C
100
AcDbEntity
  8
0
100
AcDbMText
 62
2
  6
CONTINUOUS
  7
STANDARD
 71
2
 72
1
 10
1.5275
 20
-2.4065
 30
0.0
 11
1.0
 21
0.0
 31
0.0
 44
0.9
  1
Mounting Hole Quantity
 40
0.125
 41
4.4
  0
MTEXT
  5
26D
100
AcDbEntity
  8
0
100
AcDbMText
 62
2
  6
CONTINUOUS
  7
STANDARD
 71
2
 72
1
 10
6.055
 20
-2.4065
 30
0.0
 11
1.0
 21
0.0
 31
0.0
 44
0.9
  1
2
 40
0.125
 41
0.2
  0
MTEXT
  5
26E
100
AcDbEntity
  8
0
100
AcDbMText
 62
2
  6
CONTINUOUS
  7
STANDARD
 71
2
 72
1
 10
1.5275
 20
-2.6565
 30
0.0
 11
1.0
 21
0.0
 31
0.0
 44
0.9
  1
Includes integral cartridge(s)
 40
0.125
 41
6.0
  0
MTEXT
  5
26F
100
AcDbEntity
  8
0
100
AcDbMText
 62
2
  6
CONTINUOUS
  7
STANDARD
 71
2
 72
1
 10
6.055
 20
-2.6565
 30
0.0
 11
1.0
 21
0.0
 31
0.0
 44
0.9
  1
Yes (see Included Components)
 40
0.125
 41
5.8
  0
ENDBLK
  5
270
100
AcDbEntity
  8
0
  6
BYBLOCK
 62
0
100
AcDbBlockEnd
  0
BLOCK
  5
271
100
AcDbEntity
  8
0
100
AcDbBlockBegin
  2
*T3
 70
1
 10
0.0
 20
0.0
  3
*T3
  1

  0
LINE
  5
272
100
AcDbEntity
  8
0
100
AcDbLine
 62
2
  6
CONTINUOUS
 10
0.0
 20
0.0
 11
4.6
 21
0.0
  0
LINE
  5
273
100
AcDbEntity
  8
0
100
AcDbLine
 62
2
  6
CONTINUOUS
 10
0.0
 20
0.0
 11
0.0
 21
-1.43775
  0
LINE
  5
274
100
AcDbEntity
  8
0
100
AcDbLine
 62
2
  6
CONTINUOUS
 10
0.0
 20
-0.34375
 11
4.6
 21
-0.34375
  0
LINE
  5
275
100
AcDbEntity
  8
0
100
AcDbLine
 62
2
  6
CONTINUOUS
 10
0.0
 20
-0.68775
 11
4.6
 21
-0.68775
  0
LINE
  5
276
100
AcDbEntity
  8
0
100
AcDbLine
 62
2
  6
CONTINUOUS
 10
0.0
 20
-0.93775
 11
4.6
 21
-0.93775
  0
LINE
  5
277
100
AcDbEntity
  8
0
100
AcDbLine
 62
2
  6
CONTINUOUS
 10
0.0
 20
-1.18775
 11
4.6
 21
-1.18775
  0
LINE
  5
278
100
AcDbEntity
  8
0
100
AcDbLine
 62
2
  6
CONTINUOUS
 10
0.0
 20
-1.43775
 11
4.6
 21
-1.43775
  0
LINE
  5
279
100
AcDbEntity
  8
0
100
AcDbLine
 62
2
  6
CONTINUOUS
 10
1.3
 20
-0.34375
 11
1.3
 21
-1.43775
  0
LINE
  5
27A
100
AcDbEntity
  8
0
100
AcDbLine
 62
2
  6
CONTINUOUS
 10
3.3
 20
-0.34375
 11
3.3
 21
-1.43775
  0
LINE
  5
27B
100
AcDbEntity
  8
0
100
AcDbLine
 62
2
  6
CONTINUOUS
 10
4.6
 20
0.0
 11
4.6
 21
-1.43775
  0
MTEXT
  5
27C
100
AcDbEntity
  8
0
100
AcDbMText
 62
2
  6
CONTINUOUS
  7
STANDARD
 71
2
 72
1
 10
2.3
 20
-0.099375
 30
0.0
 11
1.0
 21
0.0
 31
0.0
 44
0.9
  1
Port Headings
 40
0.145
 41
3.016
  0
MTEXT
  5
27D
100
AcDbEntity
  8
0
100
AcDbMText
 62
2
  6
CONTINUOUS
  7
STANDARD
 71
2
 72
1
 10
0.65
 20
-0.44325
 30
0.0
 11
1.0
 21
0.0
 31
0.0
 44
0.9
  1
Product
 40
0.145
 41
1.624
  0
MTEXT
  5
27E
100
AcDbEntity
  8
0
100
AcDbMText
 62
2
  6
CONTINUOUS
  7
STANDARD
 71
2
 72
1
 10
2.3
 20
-0.44325
 30
0.0
 11
1.0
 21
0.0
 31
0.0
 44
0.9
  1
Port
 40
0.145
 41
0.928
  0
MTEXT
  5
27F
100
AcDbEntity
  8
0
100
AcDbMText
 62
2
  6
CONTINUOUS
  7
STANDARD
 71
2
 72
1
 10
3.95
 20
-0.44325
 30
0.0
 11
1.0
 21
0.0
 31
0.0
 44
0.9
  1
Size
 40
0.145
 41
0.928
  0
MTEXT
  5
280
100
AcDbEntity
  8
0
100
AcDbMText
 62
2
  6
CONTINUOUS
  7
STANDARD
 71
2
 72
1
 10
0.65
 20
-0.75025
 30
0.0
 11
1.0
 21
0.0
 31
0.0
 44
0.9
  1
H2L
 40
0.125
 41
0.6
  0
MTEXT
  5
281
100
AcDbEntity
  8
0
100
AcDbMText
 62
2
  6
CONTINUOUS
  7
STANDARD
 71
2
 72
1
 10
2.3
 20
-0.75025
 30
0.0
 11
1.0
 21
0.0
 31
0.0
 44
0.9
  1
Ports 1 &  2
 40
0.125
 41
2.4
  0
MTEXT
  5
282
100
AcDbEntity
  8
0
100
AcDbMText
 62
2
  6
CONTINUOUS
  7
STANDARD
 71
2
 72
1
 10
3.95
 20
-0.75025
 30
0.0
 11
1.0
 21
0.0
 31
0.0
 44
0.9
  1
SAE 12
 40
0.125
 41
1.2
  0
MTEXT
  5
283
100
AcDbEntity
  8
0
100
AcDbMText
 62
2
  6
CONTINUOUS
  7
STANDARD
 71
2
 72
1
 10
0.65
 20
-1.00025
 30
0.0
 11
1.0
 21
0.0
 31
0.0
 44
0.9
  1
H2L
 40
0.125
 41
0.6
  0
MTEXT
  5
284
100
AcDbEntity
  8
0
100
AcDbMText
 62
2
  6
CONTINUOUS
  7
STANDARD
 71
2
 72
1
 10
2.3
 20
-1.00025
 30
0.0
 11
1.0
 21
0.0
 31
0.0
 44
0.9
  1
Port 3
 40
0.125
 41
1.2
  0
MTEXT
  5
285
100
AcDbEntity
  8
0
100
AcDbMText
 62
2
  6
CONTINUOUS
  7
STANDARD
 71
2
 72
1
 10
3.95
 20
-1.00025
 30
0.0
 11
1.0
 21
0.0
 31
0.0
 44
0.9
  1
SAE 6
 40
0.125
 41
1.0
  0
MTEXT
  5
286
100
AcDbEntity
  8
0
100
AcDbMText
 62
2
  6
CONTINUOUS
  7
STANDARD
 71
2
 72
1
 10
0.65
 20
-1.25025
 30
0.0
 11
1.0
 21
0.0
 31
0.0
 44
0.9
  1
H2L
 40
0.125
 41
0.6
  0
MTEXT
  5
287
100
AcDbEntity
  8
0
100
AcDbMText
 62
2
  6
CONTINUOUS
  7
STANDARD
 71
2
 72
1
 10
2.3
 20
-1.25025
 30
0.0
 11
1.0
 21
0.0
 31
0.0
 44
0.9
  1
Gage Port
 40
0.125
 41
1.8
  0
MTEXT
  5
288
100
AcDbEntity
  8
0
100
AcDbMText
 62
2
  6
CONTINUOUS
  7
STANDARD
 71
2
 72
1
 10
3.95
 20
-1.25025
 30
0.0
 11
1.0
 21
0.0
 31
0.0
 44
0.9
  1
1/4" NPTF
 40
0.125
 41
1.8
  0
ENDBLK
  5
289
100
AcDbEntity
  8
0
  6
BYBLOCK
 62
0
100
AcDbBlockEnd
  0
ENDSEC
  0
SECTION
  2
ENTITIES
  0
IMAGE
  5
28A
100
AcDbEntity
  8
0
100
AcDbRasterImage
 62
7
  6
CONTINUOUS
 10
19.2297077316
 20
0.3094318264
 30
0.0
 11
0.0066666667
 21
0.0
 31
0.0
 12
0.0
 22
0.0066666667
 32
0.0
 13
369.0
 23
92.0
340
       3A1
 70
9
280
0
281
50
282
50
283
0
360
       39B
 71
1
 91
2
 14
-0.5
 24
-0.5
 14
368.5
 24
91.5
  0
INSERT
  5
28B
100
AcDbEntity
  8
0
100
AcDbBlockReference
 62
2
  6
CONTINUOUS
  2
SUN_FIRST_THIRD_ANGLE_BL0
 10
20.4816717061
 20
1.2289683772
  0
ACAD_TABLE
  5
28C
100
AcDbEntity
  8
0
 62
2
  6
CONTINUOUS
100
AcDbBlockReference
  2
*T1
 10
12.42375
 20
0.30125
 30
0.0
100
AcDbTable
342
       3A3
343
207
 11
1.0
 21
0.0
 31
0.0
 90
6
 91
4
 92
6
 93
20
 94
0
 95
0
 96
0
 70
1
 41
0.0
141
0.525
141
0.1
141
0.525
141
0.1
142
4.1
142
1.1
142
0.7
142
0.5
142
0.4
142
2.475
171
1
172
0
173
0
174
0
175
1
176
1
 91
33
178
0
145
0.0
301
CELL_VALUE
 90
4
  1
T-17A Line mount\P(See Technical Data for Body Features)
304
ACVALUE_END
170
2
140
0.125
171
1
172
0
173
0
174
0
175
1
176
1
 91
33
178
0
145
0.0
301
CELL_VALUE
 90
4
  1
Mar-14-24
304
ACVALUE_END
170
5
140
0.125
171
1
172
0
173
0
174
0
175
1
176
1
 91
33
178
0
145
0.0
301
CELL_VALUE
 90
4
  1
1.000
304
ACVALUE_END
170
5
140
0.125
171
1
172
0
173
0
174
0
175
1
176
1
 91
33
178
0
145
0.0
301
CELL_VALUE
 90
4
  1
C
304
ACVALUE_END
170
5
140
0.125
171
1
172
0
173
0
174
0
175
1
176
1
 91
33
178
0
145
0.0
301
CELL_VALUE
 90
4
  1
2
304
ACVALUE_END
170
5
140
0.125
171
1
172
0
173
0
174
0
175
1
176
1
 91
33
178
0
145
0.0
301
CELL_VALUE
 90
4
  1
 
304
ACVALUE_END
170
1
140
0.125
171
1
172
0
173
0
174
0
175
1
176
1
 91
33
178
0
145
0.0
301
CELL_VALUE
 90
4
  1
DESCRIPTION
304
ACVALUE_END
170
1
140
0.06
171
1
172
0
173
0
174
0
175
1
176
1
 91
33
178
0
145
0.0
301
CELL_VALUE
 90
4
  1
DATE
304
ACVALUE_END
170
1
140
0.06
171
1
172
0
173
0
174
0
175
1
176
1
 91
33
178
0
145
0.0
301
CELL_VALUE
 90
4
  1
SCALE
304
ACVALUE_END
170
1
140
0.06
171
1
172
0
173
0
174
0
175
1
176
1
 91
33
178
0
145
0.0
301
CELL_VALUE
 90
4
  1
DWG SIZE
304
ACVALUE_END
170
1
140
0.06
171
1
172
0
173
0
174
0
175
1
176
1
 91
33
178
0
145
0.0
301
CELL_VALUE
 90
4
  1
SHEET
304
ACVALUE_END
170
1
140
0.06
171
1
172
0
173
0
174
0
175
1
176
1
 91
33
178
0
145
0.0
301
CELL_VALUE
 90
4
  1
 
304
ACVALUE_END
170
1
140
0.125
171
1
172
0
173
0
174
0
175
1
176
1
 91
33
178
0
145
0.0
301
CELL_VALUE
 90
4
  1
H2L
304
ACVALUE_END
170
5
140
0.125
171
1
172
0
173
0
174
0
175
4
176
1
 91
33
178
0
145
0.0
301
CELL_VALUE
 90
4
  1
ALL DIMENSIONS IN INCH\PVIEWS ARE THIRD ANGLE
304
ACVALUE_END
170
5
140
0.12
171
1
172
0
173
1
174
0
175
1
176
1
 91
1
178
0
145
0.0
170
1
171
1
172
0
173
1
174
0
175
1
176
1
 91
1
178
0
145
0.0
170
1
171
1
172
0
173
1
174
0
175
1
176
1
 91
1
178
0
145
0.0
170
5
171
1
172
0
173
0
174
0
175
1
176
1
 91
33
178
0
145
0.0
301
CELL_VALUE
 90
4
  1
 
304
ACVALUE_END
170
1
140
0.125
171
1
172
0
173
0
174
0
175
1
176
1
 91
33
178
0
145
0.0
301
CELL_VALUE
 90
4
  1
MODEL
304
ACVALUE_END
170
1
140
0.06
171
1
172
0
173
0
174
0
175
1
176
1
 91
33
178
0
145
0.0
301
CELL_VALUE
 90
4
  1
 
304
ACVALUE_END
170
1
140
0.125
171
1
172
0
173
0
174
0
175
1
176
1
 91
33
178
0
145
0.0
301
CELL_VALUE
 90
4
  1
 
304
ACVALUE_END
170
1
140
0.125
171
1
172
0
173
0
174
0
175
1
176
1
 91
33
178
0
145
0.0
301
CELL_VALUE
 90
4
  1
 
304
ACVALUE_END
170
1
140
0.125
171
1
172
0
173
0
174
0
175
1
176
1
 91
33
178
0
145
0.0
301
CELL_VALUE
 90
4
  1
 
304
ACVALUE_END
170
1
140
0.125
171
1
172
0
173
0
174
0
175
1
176
1
 91
33
178
0
145
0.0
301
CELL_VALUE
 90
4
  1
 
304
ACVALUE_END
170
1
140
0.125
  0
ACAD_TABLE
  5
28D
100
AcDbEntity
  8
0
 62
2
  6
CONTINUOUS
100
AcDbBlockReference
  2
*T2
 10
12.4237499994
 20
16.47875
 30
0.0
100
AcDbTable
342
       3A2
343
208
 11
1.0
 21
0.0
 31
0.0
 90
22
 91
11
 92
3
 93
16
 94
0
 95
0
 96
0
 41
0.028
141
0.344
141
0.25
141
0.25
141
0.25
141
0.25
141
0.25
141
0.25
141
0.25
141
0.25
141
0.25
141
0.25
142
3.055
142
3.0
142
3.0
171
1
172
0
173
0
174
0
175
1
176
1
 91
33
178
0
145
0.0
301
CELL_VALUE
 90
4
  1
Technical Data
304
ACVALUE_END
170
5
140
0.145
171
1
172
0
173
0
174
0
175
1
176
1
 91
33
178
0
145
0.0
301
CELL_VALUE
 90
4
  1
U.S. Units
304
ACVALUE_END
170
5
140
0.145
171
1
172
0
173
0
174
0
175
1
176
1
 91
33
178
0
145
0.0
301
CELL_VALUE
 90
4
  1
Metric Units
304
ACVALUE_END
170
5
140
0.145
171
1
172
0
173
0
174
0
175
1
176
1
 91
33
178
0
145
0.0
301
CELL_VALUE
 90
4
  1
Cavity
304
ACVALUE_END
170
5
140
0.125
171
1
172
0
173
0
174
0
175
2
176
1
 91
33
178
0
145
0.0
301
CELL_VALUE
 90
4
  1
T-17A
304
ACVALUE_END
170
5
140
0.125
171
1
172
0
173
1
174
0
175
1
176
1
 91
1
178
0
145
0.0
170
1
171
1
172
0
173
0
174
0
175
1
176
1
 91
33
178
0
145
0.0
301
CELL_VALUE
 90
4
  1
Body Features
304
ACVALUE_END
170
5
140
0.125
171
1
172
0
173
0
174
0
175
2
176
1
 91
33
178
0
145
0.0
301
CELL_VALUE
 90
4
  1
Ninety degree with reverse flow check - reducing
304
ACVALUE_END
170
5
140
0.125
171
1
172
0
173
1
174
0
175
1
176
1
 91
1
178
0
145
0.0
170
1
171
1
172
0
173
0
174
0
175
1
176
1
 91
33
178
0
145
0.0
301
CELL_VALUE
 90
4
  1
Body Type
304
ACVALUE_END
170
5
140
0.125
171
1
172
0
173
0
174
0
175
2
176
1
 91
33
178
0
145
0.0
301
CELL_VALUE
 90
4
  1
Line mount
304
ACVALUE_END
170
5
140
0.125
171
1
172
0
173
1
174
0
175
1
176
1
 91
1
178
0
145
0.0
170
1
171
1
172
0
173
0
174
0
175
1
176
1
 91
33
178
0
145
0.0
301
CELL_VALUE
 90
4
  1
Interface
304
ACVALUE_END
170
5
140
0.125
171
1
172
0
173
0
174
0
175
2
176
1
 91
33
178
0
145
0.0
301
CELL_VALUE
 90
4
  1
None
304
ACVALUE_END
170
5
140
0.125
171
1
172
0
173
1
174
0
175
1
176
1
 91
1
178
0
145
0.0
170
1
171
1
172
0
173
0
174
0
175
1
176
1
 91
33
178
0
145
0.0
301
CELL_VALUE
 90
4
  1
Open Cavity Quantity
304
ACVALUE_END
170
5
140
0.125
171
1
172
0
173
0
174
0
175
2
176
1
 91
33
178
0
145
0.0
301
CELL_VALUE
 90
4
  1
1
304
ACVALUE_END
170
5
140
0.125
171
1
172
0
173
1
174
0
175
1
176
1
 91
1
178
0
145
0.0
170
1
171
1
172
0
173
0
174
0
175
1
176
1
 91
33
178
0
145
0.0
301
CELL_VALUE
 90
4
  1
Weight
304
ACVALUE_END
170
5
140
0.125
171
1
172
0
173
0
174
0
175
1
176
1
 91
33
178
0
145
0.0
301
CELL_VALUE
 90
4
  1
6.317 lb.
304
ACVALUE_END
170
5
140
0.125
171
1
172
0
173
0
174
0
175
1
176
1
 91
33
178
0
145
0.0
301
CELL_VALUE
 90
4
  1
2,865 kg.
304
ACVALUE_END
170
5
140
0.125
171
1
172
0
173
0
174
0
175
1
176
1
 91
33
178
0
145
0.0
301
CELL_VALUE
 90
4
  1
Mounting Hole Diameter
304
ACVALUE_END
170
5
140
0.125
171
1
172
0
173
0
174
0
175
1
176
1
 91
33
178
0
145
0.0
301
CELL_VALUE
 90
4
  1
.41 in.
304
ACVALUE_END
170
5
140
0.125
171
1
172
0
173
0
174
0
175
1
176
1
 91
33
178
0
145
0.0
301
CELL_VALUE
 90
4
  1
10,4 mm
304
ACVALUE_END
170
5
140
0.125
171
1
172
0
173
0
174
0
175
1
176
1
 91
33
178
0
145
0.0
301
CELL_VALUE
 90
4
  1
Mounting Hole Depth
304
ACVALUE_END
170
5
140
0.125
171
1
172
0
173
0
174
0
175
2
176
1
 91
33
178
0
145
0.0
301
CELL_VALUE
 90
4
  1
Through
304
ACVALUE_END
170
5
140
0.125
171
1
172
0
173
1
174
0
175
1
176
1
 91
1
178
0
145
0.0
170
1
171
1
172
0
173
0
174
0
175
1
176
1
 91
33
178
0
145
0.0
301
CELL_VALUE
 90
4
  1
Mounting Hole Quantity
304
ACVALUE_END
170
5
140
0.125
171
1
172
0
173
0
174
0
175
2
176
1
 91
33
178
0
145
0.0
301
CELL_VALUE
 90
4
  1
2
304
ACVALUE_END
170
5
140
0.125
171
1
172
0
173
1
174
0
175
1
176
1
 91
1
178
0
145
0.0
170
1
171
1
172
0
173
0
174
0
175
1
176
1
 91
33
178
0
145
0.0
301
CELL_VALUE
 90
4
  1
Includes integral cartridge(s)
304
ACVALUE_END
170
5
140
0.125
171
1
172
0
173
0
174
0
175
2
176
1
 91
33
178
0
145
0.0
301
CELL_VALUE
 90
4
  1
Yes (see Included Components)
304
ACVALUE_END
170
5
140
0.125
171
1
172
0
173
1
174
0
175
1
176
1
 91
1
178
0
145
0.0
170
1
  0
ACAD_TABLE
  5
28E
100
AcDbEntity
  8
0
 62
2
  6
CONTINUOUS
100
AcDbBlockReference
  2
*T3
 10
0.52125
 20
1.959
 30
0.0
100
AcDbTable
342
       3A2
343
209
 11
1.0
 21
0.0
 31
0.0
 90
22
 91
5
 92
3
 93
16
 94
0
 95
0
 96
0
 41
0.05
141
0.34375
141
0.344
141
0.25
141
0.25
141
0.25
142
1.3
142
2.0
142
1.3
171
1
172
0
173
0
174
0
175
3
176
1
 91
33
178
0
145
0.0
301
CELL_VALUE
 90
4
  1
Port Headings
304
ACVALUE_END
170
5
140
0.145
171
1
172
0
173
1
174
0
175
1
176
1
 91
1
178
0
145
0.0
170
1
171
1
172
0
173
1
174
0
175
1
176
1
 91
1
178
0
145
0.0
170
1
171
1
172
0
173
0
174
0
175
1
176
1
 91
33
178
0
145
0.0
301
CELL_VALUE
 90
4
  1
Product
304
ACVALUE_END
170
5
140
0.145
171
1
172
0
173
0
174
0
175
1
176
1
 91
33
178
0
145
0.0
301
CELL_VALUE
 90
4
  1
Port
304
ACVALUE_END
170
5
140
0.145
171
1
172
0
173
0
174
0
175
1
176
1
 91
33
178
0
145
0.0
301
CELL_VALUE
 90
4
  1
Size
304
ACVALUE_END
170
5
140
0.145
171
1
172
0
173
0
174
0
175
1
176
1
 91
33
178
0
145
0.0
301
CELL_VALUE
 90
4
  1
H2L
304
ACVALUE_END
170
5
140
0.125
171
1
172
0
173
0
174
0
175
1
176
1
 91
33
178
0
145
0.0
301
CELL_VALUE
 90
4
  1
Ports 1 &  2
304
ACVALUE_END
170
5
140
0.125
171
1
172
0
173
0
174
0
175
1
176
1
 91
33
178
0
145
0.0
301
CELL_VALUE
 90
4
  1
SAE 12
304
ACVALUE_END
170
5
140
0.125
171
1
172
0
173
0
174
0
175
1
176
1
 91
33
178
0
145
0.0
301
CELL_VALUE
 90
4
  1
H2L
304
ACVALUE_END
170
5
140
0.125
171
1
172
0
173
0
174
0
175
1
176
1
 91
33
178
0
145
0.0
301
CELL_VALUE
 90
4
  1
Port 3
304
ACVALUE_END
170
5
140
0.125
171
1
172
0
173
0
174
0
175
1
176
1
 91
33
178
0
145
0.0
301
CELL_VALUE
 90
4
  1
SAE 6
304
ACVALUE_END
170
5
140
0.125
171
1
172
0
173
0
174
0
175
1
176
1
 91
33
178
0
145
0.0
301
CELL_VALUE
 90
4
  1
H2L
304
ACVALUE_END
170
5
140
0.125
171
1
172
0
173
0
174
0
175
1
176
1
 91
33
178
0
145
0.0
301
CELL_VALUE
 90
4
  1
Gage Port
304
ACVALUE_END
170
5
140
0.125
171
1
172
0
173
0
174
0
175
1
176
1
 91
33
178
0
145
0.0
301
CELL_VALUE
 90
4
  1
1/4" NPTF
304
ACVALUE_END
170
5
140
0.125
  0
MTEXT
  5
28F
100
AcDbEntity
  8
0
100
AcDbMText
 62
2
  6
CONTINUOUS
  7
STANDARD
 71
1
 72
1
 10
0.52125
 20
5.75995
 30
0.0
 11
1.0
 21
0.0
 31
0.0
 44
0.6
  3
Notes\P \P1. Important: Carefully consider\P   the maximum system pressure. The\P   pressure rating of the manifold is\P   dependent on the manifold material,\P   with the port type/size a secondary\P   consideration. Manifolds\P   constructed of alu
  3
minum are not\P   rated for pressures higher than\P   3000 psi (210 bar), regardless of\P   the port type/size specified.\P2. This drawing is for reference\P   only. It is generated by an\P   automated process and does not fall\P   under Sun's docume
  1
nt control\P   process.
 40
0.1
 41
3.04
  0
LINE
  5
290
100
AcDbEntity
  8
0
100
AcDbLine
 62
7
  6
CONTINUOUS
 10
0.30125
 20
0.30125
 11
0.30125
 21
16.69875
  0
LINE
  5
291
100
AcDbEntity
  8
0
100
AcDbLine
 62
7
  6
CONTINUOUS
 10
0.30125
 20
0.30125
 11
21.69875
 21
0.30125
  0
LINE
  5
292
100
AcDbEntity
  8
0
100
AcDbLine
 62
7
  6
CONTINUOUS
 10
0.30125
 20
16.69875
 11
21.69875
 21
16.69875
  0
LINE
  5
293
100
AcDbEntity
  8
0
100
AcDbLine
 62
7
  6
CONTINUOUS
 10
21.69875
 20
0.30125
 11
21.69875
 21
16.69875
  0
LINE
  5
294
100
AcDbEntity
  8
0
100
AcDbLine
 62
7
  6
CONTINUOUS
 10
7.6636608247
 20
10.7865297139
 11
8.3107079034
 21
11.4115292352
  0
LINE
  5
295
100
AcDbEntity
  8
0
100
AcDbLine
 62
4
  6
CONTINUOUS
 10
8.2721941339
 20
6.1851574294
 11
8.2850731423
 21
6.1746050085
  0
LINE
  5
296
100
AcDbEntity
  8
0
100
AcDbLine
 62
4
  6
CONTINUOUS
 10
8.2464361078
 20
6.1193289442
 11
8.2335570994
 21
6.1395406238
  0
LINE
  5
297
100
AcDbEntity
  8
0
100
AcDbLine
 62
4
  6
CONTINUOUS
 10
8.2850731423
 20
6.1746050085
 11
8.2979521599
 21
6.1543933284
  0
LINE
  5
298
100
AcDbEntity
  8
0
100
AcDbLine
 62
7
  6
CONTINUOUS
 10
7.6636608247
 20
5.9569002963
 11
7.6636608247
 21
10.7865297139
  0
LINE
  5
299
100
AcDbEntity
  8
0
100
AcDbLine
 62
4
  6
CONTINUOUS
 10
8.3494682028
 20
6.1894577131
 11
8.3752262254
 21
6.168352871
  0
LINE
  5
29A
100
AcDbEntity
  8
0
100
AcDbLine
 62
4
  6
CONTINUOUS
 10
8.3752262254
 20
6.168352871
 11
8.3881052373
 21
6.1481411912
  0
LINE
  5
29B
100
AcDbEntity
  8
0
100
AcDbLine
 62
4
  6
CONTINUOUS
 10
8.2335570994
 20
6.1395406238
 11
8.2335570994
 21
6.158859141
  0
LINE
  5
29C
100
AcDbEntity
  8
0
100
AcDbLine
 62
4
  6
CONTINUOUS
 10
8.2979521599
 20
6.1350748111
 11
8.2979521599
 21
6.1543933284
  0
LINE
  5
29D
100
AcDbEntity
  8
0
100
AcDbLine
 62
7
  6
CONTINUOUS
 10
12.9762531841
 20
5.5884707648
 11
7.6636608247
 21
5.9569002963
  0
LINE
  5
29E
100
AcDbEntity
  8
0
100
AcDbLine
 62
4
  6
CONTINUOUS
 10
8.3881052373
 20
6.1481411912
 11
8.3881052373
 21
6.128822674
  0
LINE
  5
29F
100
AcDbEntity
  8
0
100
AcDbLine
 62
4
  6
CONTINUOUS
 10
9.4828212111
 20
10.3222964646
 11
9.4957002287
 21
10.3310625603
  0
LINE
  5
2A0
100
AcDbEntity
  8
0
100
AcDbLine
 62
4
  6
CONTINUOUS
 10
8.2593151255
 20
6.1860505917
 11
8.2721941339
 21
6.1851574294
  0
LINE
  5
2A1
100
AcDbEntity
  8
0
100
AcDbLine
 62
4
  6
CONTINUOUS
 10
11.4017939697
 20
5.9681189436
 11
11.5563421076
 21
5.9574009939
  0
LINE
  5
2A2
100
AcDbEntity
  8
0
100
AcDbLine
 62
4
  6
CONTINUOUS
 10
8.3365891898
 20
6.1903508757
 11
8.3494682028
 21
6.1894577131
  0
LINE
  5
2A3
100
AcDbEntity
  8
0
100
AcDbLine
 62
4
  6
CONTINUOUS
 10
9.4699422027
 20
10.3038711096
 11
9.4828212111
 21
10.3222964646
  0
LINE
  5
2A4
100
AcDbEntity
  8
0
100
AcDbLine
 62
4
  6
CONTINUOUS
 10
9.1511865932
 20
7.776898468
 11
9.1511865932
 21
7.718942915
  0
LINE
  5
2A5
100
AcDbEntity
  8
0
100
AcDbLine
 62
4
  6
CONTINUOUS
 10
9.1511865932
 20
7.892809574
 11
9.1511865932
 21
7.950765127
  0
LINE
  5
2A6
100
AcDbEntity
  8
0
100
AcDbLine
 62
4
  6
CONTINUOUS
 10
9.1801643697
 20
8.6843080717
 11
9.1801643697
 21
8.6987969599
  0
LINE
  5
2A7
100
AcDbEntity
  8
0
100
AcDbLine
 62
4
  6
CONTINUOUS
 10
9.2091421462
 20
8.5156762412
 11
9.2091421462
 21
8.4770392058
  0
LINE
  5
2A8
100
AcDbEntity
  8
0
100
AcDbLine
 62
4
  6
CONTINUOUS
 10
9.2091421462
 20
8.1206125548
 11
9.2091421462
 21
8.0626570018
  0
LINE
  5
2A9
100
AcDbEntity
  8
0
100
AcDbLine
 62
4
  6
CONTINUOUS
 10
9.2091421462
 20
7.7149236837
 11
9.2091421462
 21
7.7728792367
  0
LINE
  5
2AA
100
AcDbEntity
  8
0
100
AcDbLine
 62
4
  6
CONTINUOUS
 10
9.2091421462
 20
8.2645355114
 11
9.2091421462
 21
8.3224910645
  0
LINE
  5
2AB
100
AcDbEntity
  8
0
100
AcDbLine
 62
4
  6
CONTINUOUS
 10
9.2091421462
 20
8.3611280998
 11
9.2091421462
 21
8.4190836528
  0
LINE
  5
2AC
100
AcDbEntity
  8
0
100
AcDbLine
 62
4
  6
CONTINUOUS
 10
9.2091421462
 20
8.7281799355
 11
9.2091421462
 21
8.7861354885
  0
LINE
  5
2AD
100
AcDbEntity
  8
0
100
AcDbLine
 62
4
  6
CONTINUOUS
 10
9.2091421462
 20
8.8247725239
 11
9.2091421462
 21
8.8827280769
  0
LINE
  5
2AE
100
AcDbEntity
  8
0
100
AcDbLine
 62
4
  6
CONTINUOUS
 10
9.2284606639
 20
8.4563809444
 11
9.2284606639
 21
8.5143364974
  0
LINE
  5
2AF
100
AcDbEntity
  8
0
100
AcDbLine
 62
4
  6
CONTINUOUS
 10
9.2381199227
 20
8.8227629083
 11
9.2381199227
 21
8.8807184613
  0
LINE
  5
2B0
100
AcDbEntity
  8
0
100
AcDbLine
 62
4
  6
CONTINUOUS
 10
9.2670976992
 20
8.8787088456
 11
9.2670976992
 21
8.8207532926
  0
LINE
  5
2B1
100
AcDbEntity
  8
0
100
AcDbLine
 62
4
  6
CONTINUOUS
 10
9.2670976992
 20
8.5116570099
 11
9.2670976992
 21
8.4537014569
  0
LINE
  5
2B2
100
AcDbEntity
  8
0
100
AcDbLine
 62
4
  6
CONTINUOUS
 10
9.2670976992
 20
8.3184718332
 11
9.2670976992
 21
8.2605162802
  0
LINE
  5
2B3
100
AcDbEntity
  8
0
100
AcDbLine
 62
4
  6
CONTINUOUS
 10
9.2670976992
 20
8.2218792449
 11
9.2670976992
 21
8.1639236918
  0
LINE
  5
2B4
100
AcDbEntity
  8
0
100
AcDbLine
 62
4
  6
CONTINUOUS
 10
9.2670976992
 20
7.855793335
 11
9.2670976992
 21
7.797837782
  0
LINE
  5
2B5
100
AcDbEntity
  8
0
100
AcDbLine
 62
4
  6
CONTINUOUS
 10
9.2670976992
 20
7.7688600055
 11
9.2670976992
 21
7.7109044525
  0
LINE
  5
2B6
100
AcDbEntity
  8
0
100
AcDbLine
 62
4
  6
CONTINUOUS
 10
9.2670976992
 20
8.5502940452
 11
9.2670976992
 21
8.6082495983
  0
LINE
  5
2B7
100
AcDbEntity
  8
0
100
AcDbLine
 62
4
  6
CONTINUOUS
 10
9.2670976992
 20
8.7241607043
 11
9.2670976992
 21
8.7821162573
  0
LINE
  5
2B8
100
AcDbEntity
  8
0
100
AcDbLine
 62
4
  6
CONTINUOUS
 10
9.3250532522
 20
8.2178600136
 11
9.3250532522
 21
8.1792229783
  0
LINE
  5
2B9
100
AcDbEntity
  8
0
100
AcDbLine
 62
4
  6
CONTINUOUS
 10
9.4699422027
 20
10.2845525923
 11
9.4699422027
 21
10.3038711096
  0
LINE
  5
2BA
100
AcDbEntity
  8
0
100
AcDbLine
 62
4
  6
CONTINUOUS
 10
9.4873288007
 20
8.2659416157
 11
9.4873288007
 21
8.2411035127
  0
LINE
  5
2BB
100
AcDbEntity
  8
0
100
AcDbLine
 62
4
  6
CONTINUOUS
 10
9.537004986
 20
8.1300267192
 11
9.537004986
 21
8.1879822722
  0
LINE
  5
2BC
100
AcDbEntity
  8
0
100
AcDbLine
 62
4
  6
CONTINUOUS
 10
9.6032399067
 20
8.2744618748
 11
9.6032399067
 21
8.2165063218
  0
LINE
  5
2BD
100
AcDbEntity
  8
0
100
AcDbLine
 62
4
  6
CONTINUOUS
 10
9.6032399067
 20
8.3075793317
 11
9.6032399067
 21
8.3489761631
  0
LINE
  5
2BE
100
AcDbEntity
  8
0
100
AcDbLine
 62
4
  6
CONTINUOUS
 10
9.6244903406
 20
10.2448568667
 11
9.6244903406
 21
10.3221309357
  0
LINE
  5
2BF
100
AcDbEntity
  8
0
100
AcDbLine
 62
4
  6
CONTINUOUS
 10
9.7423332339
 20
7.8122104598
 11
9.7423332339
 21
7.8536072774
  0
LINE
  5
2C0
100
AcDbEntity
  8
0
100
AcDbLine
 62
4
  6
CONTINUOUS
 10
9.7423332339
 20
8.0164347773
 11
9.7423332339
 21
8.082669691
  0
LINE
  5
2C1
100
AcDbEntity
  8
0
100
AcDbLine
 62
4
  6
CONTINUOUS
 10
9.7423332339
 20
8.1157871617
 11
9.7423332339
 21
8.165463354
  0
LINE
  5
2C2
100
AcDbEntity
  8
0
100
AcDbLine
 62
4
  6
CONTINUOUS
 10
9.7423332339
 20
8.3062125699
 11
9.7423332339
 21
8.339330013
  0
LINE
  5
2C3
100
AcDbEntity
  8
0
100
AcDbLine
 62
4
  6
CONTINUOUS
 10
9.7423332339
 20
8.4028051214
 11
9.7423332339
 21
8.4276432314
  0
LINE
  5
2C4
100
AcDbEntity
  8
0
100
AcDbLine
 62
4
  6
CONTINUOUS
 10
9.7423332339
 20
8.477319396
 11
9.7423332339
 21
8.5187162275
  0
LINE
  5
2C5
100
AcDbEntity
  8
0
100
AcDbLine
 62
4
  6
CONTINUOUS
 10
9.7423332339
 20
8.5821913912
 11
9.7423332339
 21
8.6318675558
  0
LINE
  5
2C6
100
AcDbEntity
  8
0
100
AcDbLine
 62
4
  6
CONTINUOUS
 10
9.7920094192
 20
8.6118637791
 11
9.7920094192
 21
8.578746336
  0
LINE
  5
2C7
100
AcDbEntity
  8
0
100
AcDbLine
 62
4
  6
CONTINUOUS
 10
9.7920094192
 20
8.1454595773
 11
9.7920094192
 21
8.1123421066
  0
LINE
  5
2C8
100
AcDbEntity
  8
0
100
AcDbLine
 62
4
  6
CONTINUOUS
 10
9.8251268796
 20
7.9223798
 11
9.8251268796
 21
7.9665364092
  0
LINE
  5
2C9
100
AcDbEntity
  8
0
100
AcDbLine
 62
4
  6
CONTINUOUS
 10
9.8582443399
 20
8.510677765
 11
9.8582443399
 21
8.4692809335
  0
LINE
  5
2CA
100
AcDbEntity
  8
0
100
AcDbLine
 62
4
  6
CONTINUOUS
 10
9.8582443399
 20
8.4196047689
 11
9.8582443399
 21
8.3947666589
  0
LINE
  5
2CB
100
AcDbEntity
  8
0
100
AcDbLine
 62
4
  6
CONTINUOUS
 10
9.8582443399
 20
8.3312915505
 11
9.8582443399
 21
8.2981741074
  0
LINE
  5
2CC
100
AcDbEntity
  8
0
100
AcDbLine
 62
4
  6
CONTINUOUS
 10
9.8582443399
 20
7.8455688149
 11
9.8582443399
 21
7.8041719973
  0
LINE
  5
2CD
100
AcDbEntity
  8
0
100
AcDbLine
 62
4
  6
CONTINUOUS
 10
9.8582443399
 20
8.1077486992
 11
9.8582443399
 21
8.1574248915
  0
LINE
  5
2CE
100
AcDbEntity
  8
0
100
AcDbLine
 62
4
  6
CONTINUOUS
 10
9.8582443399
 20
8.5741529287
 11
9.8582443399
 21
8.6238290933
  0
LINE
  5
2CF
100
AcDbEntity
  8
0
100
AcDbLine
 62
4
  6
CONTINUOUS
 10
9.7864898431
 20
8.6619227276
 11
9.8085681511
 21
8.7045482009
  0
LINE
  5
2D0
100
AcDbEntity
  8
0
100
AcDbLine
 62
4
  6
CONTINUOUS
 10
9.8416856098
 20
7.8632758952
 11
9.8582443399
 21
7.8455688149
  0
LINE
  5
2D1
100
AcDbEntity
  8
0
100
AcDbLine
 62
4
  6
CONTINUOUS
 10
9.7864898431
 20
7.7870698805
 11
9.8085681511
 21
7.741382132
  0
LINE
  5
2D2
100
AcDbEntity
  8
0
100
AcDbLine
 62
4
  6
CONTINUOUS
 10
8.2335570994
 20
6.158859141
 11
8.2464361078
 21
6.177284496
  0
LINE
  5
2D3
100
AcDbEntity
  8
0
100
AcDbLine
 62
4
  6
CONTINUOUS
 10
8.2979521599
 20
6.1543933284
 11
8.3108311684
 21
6.1728186833
  0
LINE
  5
2D4
100
AcDbEntity
  8
0
100
AcDbLine
 62
4
  6
CONTINUOUS
 10
9.7423332339
 20
8.5187162275
 11
9.7588919623
 21
8.5341265973
  0
LINE
  5
2D5
100
AcDbEntity
  8
0
100
AcDbLine
 62
4
  6
CONTINUOUS
 10
9.5038875291
 20
8.2813519855
 11
9.4873288007
 21
8.2659416157
  0
LINE
  5
2D6
100
AcDbEntity
  8
0
100
AcDbLine
 62
4
  6
CONTINUOUS
 10
9.1511865932
 20
7.718942915
 11
9.2091421462
 21
7.7149236837
  0
LINE
  5
2D7
100
AcDbEntity
  8
0
100
AcDbLine
 62
4
  6
CONTINUOUS
 10
9.2091421462
 20
7.7728792367
 11
9.2670976992
 21
7.7688600055
  0
LINE
  5
2D8
100
AcDbEntity
  8
0
100
AcDbLine
 62
4
  6
CONTINUOUS
 10
9.8582443399
 20
7.9090439441
 11
9.7423332339
 21
7.9501998635
  0
LINE
  5
2D9
100
AcDbEntity
  8
0
100
AcDbLine
 62
4
  6
CONTINUOUS
 10
9.4873288007
 20
8.2411035127
 11
9.5121668968
 21
8.2228222564
  0
LINE
  5
2DA
100
AcDbEntity
  8
0
100
AcDbLine
 62
4
  6
CONTINUOUS
 10
9.6032399067
 20
8.2165063218
 11
9.5204462575
 21
8.2802036338
  0
LINE
  5
2DB
100
AcDbEntity
  8
0
100
AcDbLine
 62
4
  6
CONTINUOUS
 10
9.7588919623
 20
8.2885054967
 11
9.7423332339
 21
8.3062125699
  0
LINE
  5
2DC
100
AcDbEntity
  8
0
100
AcDbLine
 62
4
  6
CONTINUOUS
 10
9.7588919623
 20
8.3850980482
 11
9.7423332339
 21
8.4028051214
  0
LINE
  5
2DD
100
AcDbEntity
  8
0
100
AcDbLine
 62
4
  6
CONTINUOUS
 10
9.8416856098
 20
8.4373118423
 11
9.8582443399
 21
8.4196047689
  0
LINE
  5
2DE
100
AcDbEntity
  8
0
100
AcDbLine
 62
4
  6
CONTINUOUS
 10
9.8085681511
 20
8.7045482009
 11
9.8306464575
 21
8.658860456
  0
LINE
  5
2DF
100
AcDbEntity
  8
0
100
AcDbLine
 62
4
  6
CONTINUOUS
 10
9.8085681511
 20
7.741382132
 11
9.8306464575
 21
7.7840076089
  0
LINE
  5
2E0
100
AcDbEntity
  8
0
100
AcDbLine
 62
4
  6
CONTINUOUS
 10
8.3881052373
 20
6.128822674
 11
8.3752262254
 21
6.1103973193
  0
LINE
  5
2E1
100
AcDbEntity
  8
0
100
AcDbLine
 62
4
  6
CONTINUOUS
 10
9.7423332339
 20
8.4276432314
 11
9.7588919623
 21
8.4430536012
  0
LINE
  5
2E2
100
AcDbEntity
  8
0
100
AcDbLine
 62
4
  6
CONTINUOUS
 10
9.8582443399
 20
8.3947666589
 11
9.8416856098
 21
8.3793562892
  0
LINE
  5
2E3
100
AcDbEntity
  8
0
100
AcDbLine
 62
4
  6
CONTINUOUS
 10
9.8582443399
 20
8.2981741074
 11
9.8416856098
 21
8.2827637377
  0
LINE
  5
2E4
100
AcDbEntity
  8
0
100
AcDbLine
 62
4
  6
CONTINUOUS
 10
9.2670976992
 20
7.797837782
 11
9.1511865932
 21
7.8058762445
  0
LINE
  5
2E5
100
AcDbEntity
  8
0
100
AcDbLine
 62
4
  6
CONTINUOUS
 10
9.8582443399
 20
7.8041719973
 11
9.7423332339
 21
7.8122104598
  0
LINE
  5
2E6
100
AcDbEntity
  8
0
100
AcDbLine
 62
4
  6
CONTINUOUS
 10
9.1511865932
 20
7.8638317975
 11
9.2670976992
 21
7.855793335
  0
LINE
  5
2E7
100
AcDbEntity
  8
0
100
AcDbLine
 62
4
  6
CONTINUOUS
 10
9.1511865932
 20
7.892809574
 11
9.2670976992
 21
7.8847711115
  0
LINE
  5
2E8
100
AcDbEntity
  8
0
100
AcDbLine
 62
4
  6
CONTINUOUS
 10
9.7588919623
 20
7.8690176541
 11
9.8416856098
 21
7.8632758952
  0
LINE
  5
2E9
100
AcDbEntity
  8
0
100
AcDbLine
 62
4
  6
CONTINUOUS
 10
9.1511865932
 20
7.950765127
 11
9.2670976992
 21
7.9427266645
  0
LINE
  5
2EA
100
AcDbEntity
  8
0
100
AcDbLine
 62
4
  6
CONTINUOUS
 10
9.2670976992
 20
8.0586377705
 11
9.1511865932
 21
8.066676233
  0
LINE
  5
2EB
100
AcDbEntity
  8
0
100
AcDbLine
 62
4
  6
CONTINUOUS
 10
9.8416856098
 20
8.5283848383
 11
9.8582443399
 21
8.510677765
  0
LINE
  5
2EC
100
AcDbEntity
  8
0
100
AcDbLine
 62
4
  6
CONTINUOUS
 10
9.7423332339
 20
7.8536072774
 11
9.7588919623
 21
7.8690176541
  0
LINE
  5
2ED
100
AcDbEntity
  8
0
100
AcDbLine
 62
4
  6
CONTINUOUS
 10
9.7423332339
 20
7.9501998635
 11
9.8582443399
 21
7.9752788717
  0
LINE
  5
2EE
100
AcDbEntity
  8
0
100
AcDbLine
 62
4
  6
CONTINUOUS
 10
10.9767866337
 20
8.0550157303
 11
10.9381495992
 21
8.0480359591
  0
LINE
  5
2EF
100
AcDbEntity
  8
0
100
AcDbLine
 62
4
  6
CONTINUOUS
 10
9.8582443399
 20
8.0415137855
 11
9.7423332339
 21
8.049552248
  0
LINE
  5
2F0
100
AcDbEntity
  8
0
100
AcDbLine
 62
4
  6
CONTINUOUS
 10
9.2670976992
 20
8.1165933235
 11
9.2091421462
 21
8.1206125548
  0
LINE
  5
2F1
100
AcDbEntity
  8
0
100
AcDbLine
 62
4
  6
CONTINUOUS
 10
9.8582443399
 20
8.1077486992
 11
9.7423332339
 21
8.1157871617
  0
LINE
  5
2F2
100
AcDbEntity
  8
0
100
AcDbLine
 62
4
  6
CONTINUOUS
 10
9.6032399067
 20
8.1254333118
 11
9.4873288007
 21
8.1334717744
  0
LINE
  5
2F3
100
AcDbEntity
  8
0
100
AcDbLine
 62
4
  6
CONTINUOUS
 10
9.2670976992
 20
8.1639236918
 11
9.2091421462
 21
8.1679429231
  0
LINE
  5
2F4
100
AcDbEntity
  8
0
100
AcDbLine
 62
4
  6
CONTINUOUS
 10
9.4873288007
 20
8.1914273274
 11
9.6032399067
 21
8.1833888649
  0
LINE
  5
2F5
100
AcDbEntity
  8
0
100
AcDbLine
 62
4
  6
CONTINUOUS
 10
9.2091421462
 20
8.2258984761
 11
9.3250532522
 21
8.2178600136
  0
LINE
  5
2F6
100
AcDbEntity
  8
0
100
AcDbLine
 62
4
  6
CONTINUOUS
 10
9.2670976992
 20
8.2605162802
 11
9.2091421462
 21
8.2645355114
  0
LINE
  5
2F7
100
AcDbEntity
  8
0
100
AcDbLine
 62
4
  6
CONTINUOUS
 10
10.9381495992
 20
8.1446285453
 11
10.9896656444
 21
8.1410558954
  0
LINE
  5
2F8
100
AcDbEntity
  8
0
100
AcDbLine
 62
4
  6
CONTINUOUS
 10
9.5204462575
 20
8.2802036338
 11
9.5038875291
 21
8.2813519855
  0
LINE
  5
2F9
100
AcDbEntity
  8
0
100
AcDbLine
 62
4
  6
CONTINUOUS
 10
9.1511865932
 20
8.3265102957
 11
9.2670976992
 21
8.3184718332
  0
LINE
  5
2FA
100
AcDbEntity
  8
0
100
AcDbLine
 62
4
  6
CONTINUOUS
 10
9.8416856098
 20
8.2827637377
 11
9.7588919623
 21
8.2885054967
  0
LINE
  5
2FB
100
AcDbEntity
  8
0
100
AcDbLine
 62
4
  6
CONTINUOUS
 10
9.4873288007
 20
8.3156177942
 11
9.6032399067
 21
8.3075793317
  0
LINE
  5
2FC
100
AcDbEntity
  8
0
100
AcDbLine
 62
4
  6
CONTINUOUS
 10
9.2091421462
 20
8.3611280998
 11
9.2670976992
 21
8.3571088685
  0
LINE
  5
2FD
100
AcDbEntity
  8
0
100
AcDbLine
 62
4
  6
CONTINUOUS
 10
10.9381495992
 20
8.0480359591
 11
10.8995125647
 21
8.0603747051
  0
LINE
  5
2FE
100
AcDbEntity
  8
0
100
AcDbLine
 62
4
  6
CONTINUOUS
 10
10.8995125647
 20
8.0603747051
 11
10.8737545386
 21
8.0814795476
  0
LINE
  5
2FF
100
AcDbEntity
  8
0
100
AcDbLine
 62
4
  6
CONTINUOUS
 10
10.9896656444
 20
8.1410558954
 11
11.0025446563
 21
8.1305034743
  0
LINE
  5
300
100
AcDbEntity
  8
0
100
AcDbLine
 62
4
  6
CONTINUOUS
 10
9.4828212111
 20
10.2643409128
 11
9.4699422027
 21
10.2845525923
  0
LINE
  5
301
100
AcDbEntity
  8
0
100
AcDbLine
 62
4
  6
CONTINUOUS
 10
10.8737545386
 20
8.0814795476
 11
10.8608755302
 21
8.1016912271
  0
LINE
  5
302
100
AcDbEntity
  8
0
100
AcDbLine
 62
4
  6
CONTINUOUS
 10
9.5343372632
 20
10.3187238142
 11
9.5600952847
 21
10.2783004549
  0
LINE
  5
303
100
AcDbEntity
  8
0
100
AcDbLine
 62
4
  6
CONTINUOUS
 10
10.8608755302
 20
8.1016912271
 11
10.8608755302
 21
8.1210097443
  0
LINE
  5
304
100
AcDbEntity
  8
0
100
AcDbLine
 62
4
  6
CONTINUOUS
 10
10.9381495992
 20
8.1059915108
 11
10.9381495992
 21
8.1446285453
  0
LINE
  5
305
100
AcDbEntity
  8
0
100
AcDbLine
 62
4
  6
CONTINUOUS
 10
11.0154236681
 20
8.1102917945
 11
11.0154236681
 21
8.0909732773
  0
LINE
  5
306
100
AcDbEntity
  8
0
100
AcDbLine
 62
7
  6
CONTINUOUS
 10
12.9762531841
 20
10.4181001824
 11
13.6233002628
 21
11.0430997037
  0
LINE
  5
307
100
AcDbEntity
  8
0
100
AcDbLine
 62
4
  6
CONTINUOUS
 10
9.8416856098
 20
8.3793562892
 11
9.7588919623
 21
8.3850980482
  0
LINE
  5
308
100
AcDbEntity
  8
0
100
AcDbLine
 62
4
  6
CONTINUOUS
 10
9.2670976992
 20
8.4537014569
 11
9.2284606639
 21
8.4563809444
  0
LINE
  5
309
100
AcDbEntity
  8
0
100
AcDbLine
 62
4
  6
CONTINUOUS
 10
9.7588919623
 20
8.4430536012
 11
9.8416856098
 21
8.4373118423
  0
LINE
  5
30A
100
AcDbEntity
  8
0
100
AcDbLine
 62
4
  6
CONTINUOUS
 10
9.8582443399
 20
8.4692809335
 11
9.7423332339
 21
8.477319396
  0
LINE
  5
30B
100
AcDbEntity
  8
0
100
AcDbLine
 62
4
  6
CONTINUOUS
 10
9.2091421462
 20
8.5156762412
 11
9.2670976992
 21
8.5116570099
  0
LINE
  5
30C
100
AcDbEntity
  8
0
100
AcDbLine
 62
4
  6
CONTINUOUS
 10
9.2091421462
 20
8.5543132765
 11
9.2670976992
 21
8.5502940452
  0
LINE
  5
30D
100
AcDbEntity
  8
0
100
AcDbLine
 62
4
  6
CONTINUOUS
 10
9.7588919623
 20
8.5341265973
 11
9.8416856098
 21
8.5283848383
  0
LINE
  5
30E
100
AcDbEntity
  8
0
100
AcDbLine
 62
4
  6
CONTINUOUS
 10
9.2670976992
 20
8.6082495983
 11
9.2091421462
 21
8.6122688295
  0
LINE
  5
30F
100
AcDbEntity
  8
0
100
AcDbLine
 62
4
  6
CONTINUOUS
 10
9.8582443399
 20
8.5741529287
 11
9.7423332339
 21
8.5821913912
  0
LINE
  5
310
100
AcDbEntity
  8
0
100
AcDbLine
 62
4
  6
CONTINUOUS
 10
9.2670976992
 20
8.6468866336
 11
9.1511865932
 21
8.6549250961
  0
LINE
  5
311
100
AcDbEntity
  8
0
100
AcDbLine
 62
4
  6
CONTINUOUS
 10
11.0025446563
 20
8.1305034743
 11
11.0154236681
 21
8.1102917945
  0
LINE
  5
312
100
AcDbEntity
  8
0
100
AcDbLine
 62
4
  6
CONTINUOUS
 10
10.8608755302
 20
8.1210097443
 11
10.8737545386
 21
8.1394350993
  0
LINE
  5
313
100
AcDbEntity
  8
0
100
AcDbLine
 62
4
  6
CONTINUOUS
 10
11.0154236681
 20
8.0909732773
 11
11.0025446563
 21
8.0725479226
  0
LINE
  5
314
100
AcDbEntity
  8
0
100
AcDbLine
 62
4
  6
CONTINUOUS
 10
13.2454247758
 20
10.4366185192
 11
13.2506011523
 21
10.4416185152
  0
LINE
  5
315
100
AcDbEntity
  8
0
100
AcDbLine
 62
4
  6
CONTINUOUS
 10
13.3282468
 20
10.5166184561
 11
13.3334231766
 21
10.5216184522
  0
LINE
  5
316
100
AcDbEntity
  8
0
100
AcDbLine
 62
4
  6
CONTINUOUS
 10
13.3618932474
 20
10.5491184305
 11
13.3722460004
 21
10.5591184226
  0
LINE
  5
317
100
AcDbEntity
  8
0
100
AcDbLine
 62
4
  6
CONTINUOUS
 10
13.3308349883
 20
10.4418443852
 11
13.3411877413
 21
10.4518443773
  0
LINE
  5
318
100
AcDbEntity
  8
0
100
AcDbLine
 62
4
  6
CONTINUOUS
 10
13.3722460004
 20
10.4045702847
 11
13.3618932474
 21
10.3945702926
  0
LINE
  5
319
100
AcDbEntity
  8
0
100
AcDbLine
 62
4
  6
CONTINUOUS
 10
13.3334231766
 20
10.3670703142
 11
13.3282468
 21
10.3620703182
  0
LINE
  5
31A
100
AcDbEntity
  8
0
100
AcDbLine
 62
4
  6
CONTINUOUS
 10
13.2506011523
 20
10.2870703773
 11
13.2454247758
 21
10.2820703813
  0
LINE
  5
31B
100
AcDbEntity
  8
0
100
AcDbLine
 62
4
  6
CONTINUOUS
 10
10.8737545386
 20
8.1394350993
 11
10.8866335563
 21
8.148201195
  0
LINE
  5
31C
100
AcDbEntity
  8
0
100
AcDbLine
 62
4
  6
CONTINUOUS
 10
9.2670976992
 20
8.6855236689
 11
9.2091421462
 21
8.6895429002
  0
LINE
  5
31D
100
AcDbEntity
  8
0
100
AcDbLine
 62
4
  6
CONTINUOUS
 10
9.2091421462
 20
8.7281799355
 11
9.2670976992
 21
8.7241607043
  0
LINE
  5
31E
100
AcDbEntity
  8
0
100
AcDbLine
 62
4
  6
CONTINUOUS
 10
9.2091421462
 20
8.8247725239
 11
9.2381199227
 21
8.8227629083
  0
LINE
  5
31F
100
AcDbEntity
  8
0
100
AcDbLine
 62
4
  6
CONTINUOUS
 10
9.2381199227
 20
8.8807184613
 11
9.2670976992
 21
8.8787088456
  0
LINE
  5
320
100
AcDbEntity
  8
0
100
AcDbLine
 62
7
  6
CONTINUOUS
 10
13.2311412708
 20
8.6258395013
 11
13.3627247757
 21
8.6167141542
  0
LINE
  5
321
100
AcDbEntity
  8
0
100
AcDbLine
 62
4
  6
CONTINUOUS
 10
11.0025446563
 20
8.0725479226
 11
10.9767866337
 21
8.0550157303
  0
LINE
  5
322
100
AcDbEntity
  8
0
100
AcDbLine
 62
4
  6
CONTINUOUS
 10
8.2464361078
 20
6.177284496
 11
8.2593151255
 21
6.1860505917
  0
LINE
  5
323
100
AcDbEntity
  8
0
100
AcDbLine
 62
4
  6
CONTINUOUS
 10
8.3108311684
 20
6.1728186833
 11
8.3365891898
 21
6.1903508757
  0
LINE
  5
324
100
AcDbEntity
  8
0
100
AcDbLine
 62
4
  6
CONTINUOUS
 10
8.3752262254
 20
6.1103973193
 11
8.3623472136
 21
6.1016312231
  0
LINE
  5
325
100
AcDbEntity
  8
0
100
AcDbLine
 62
7
  6
CONTINUOUS
 10
13.3693361147
 20
8.7042240235
 11
14.0396042869
 21
8.6577407679
  0
LINE
  5
326
100
AcDbEntity
  8
0
100
AcDbLine
 62
7
  6
CONTINUOUS
 10
13.3591948156
 20
8.7162797622
 11
14.0294629878
 21
8.6697965066
  0
LINE
  5
327
100
AcDbEntity
  8
0
100
AcDbLine
 62
4
  6
CONTINUOUS
 10
9.4957002287
 20
10.2537884913
 11
9.4828212111
 21
10.2643409128
  0
LINE
  5
328
100
AcDbEntity
  8
0
100
AcDbLine
 62
4
  6
CONTINUOUS
 10
9.5600952847
 20
10.2783004549
 11
9.5858533061
 21
10.2571956128
  0
LINE
  5
329
100
AcDbEntity
  8
0
100
AcDbLine
 62
4
  6
CONTINUOUS
 10
9.5214582456
 20
10.3292762357
 11
9.5343372632
 21
10.3187238142
  0
LINE
  5
32A
100
AcDbEntity
  8
0
100
AcDbLine
 62
7
  6
CONTINUOUS
 10
13.5426039332
 20
10.0790155986
 11
13.3693361147
 21
9.9116517279
  0
LINE
  5
32B
100
AcDbEntity
  8
0
100
AcDbLine
 62
7
  6
CONTINUOUS
 10
13.2725609063
 20
9.192608715
 11
13.9428290785
 21
9.1461254594
  0
LINE
  5
32C
100
AcDbEntity
  8
0
100
AcDbLine
 62
7
  6
CONTINUOUS
 10
13.2725609063
 20
9.2363116791
 11
13.9428290785
 21
9.1898284234
  0
LINE
  5
32D
100
AcDbEntity
  8
0
100
AcDbLine
 62
4
  6
CONTINUOUS
 10
9.5858533061
 20
10.2571956128
 11
9.6244903406
 21
10.2448568667
  0
LINE
  5
32E
100
AcDbEntity
  8
0
100
AcDbLine
 62
4
  6
CONTINUOUS
 10
13.2402483993
 20
10.4187395147
 11
13.2454247758
 21
10.4366185192
  0
LINE
  5
32F
100
AcDbEntity
  8
0
100
AcDbLine
 62
4
  6
CONTINUOUS
 10
13.2557775288
 20
10.3049493852
 11
13.2506011523
 21
10.2870703773
  0
LINE
  5
330
100
AcDbEntity
  8
0
100
AcDbLine
 62
4
  6
CONTINUOUS
 10
13.3230704235
 20
10.4987394516
 11
13.3282468
 21
10.5166184561
  0
LINE
  5
331
100
AcDbEntity
  8
0
100
AcDbLine
 62
4
  6
CONTINUOUS
 10
13.3385995531
 20
10.3849493222
 11
13.3334231766
 21
10.3670703142
  0
LINE
  5
332
100
AcDbEntity
  8
0
100
AcDbLine
 62
4
  6
CONTINUOUS
 10
13.3774223769
 20
10.4224492926
 11
13.3722460004
 21
10.4045702847
  0
LINE
  5
333
100
AcDbEntity
  8
0
100
AcDbLine
 62
7
  6
CONTINUOUS
 10
13.3591948156
 20
9.8800045025
 11
14.0294629878
 21
9.8335212469
  0
LINE
  5
334
100
AcDbEntity
  8
0
100
AcDbLine
 62
7
  6
CONTINUOUS
 10
13.3693361147
 20
9.9116517279
 11
14.0396042869
 21
9.8651684723
  0
LINE
  5
335
100
AcDbEntity
  8
0
100
AcDbLine
 62
4
  6
CONTINUOUS
 10
9.4957002287
 20
10.3310625603
 11
9.5214582456
 21
10.3292762357
  0
LINE
  5
336
100
AcDbEntity
  8
0
100
AcDbLine
 62
7
  6
CONTINUOUS
 10
13.5426039332
 20
10.0790155986
 11
14.2128721054
 21
10.0325323429
  0
LINE
  5
337
100
AcDbEntity
  8
0
100
AcDbLine
 62
7
  6
CONTINUOUS
 10
12.9762531841
 20
10.4181001824
 11
12.9762531841
 21
5.5884707648
  0
LINE
  5
338
100
AcDbEntity
  8
0
100
AcDbLine
 62
4
  6
CONTINUOUS
 10
13.2790712232
 20
10.3145703556
 11
13.2997767292
 21
10.4891184778
  0
LINE
  5
339
100
AcDbEntity
  8
0
100
AcDbLine
 62
4
  6
CONTINUOUS
 10
13.2350720228
 20
10.3879814926
 11
13.2402483993
 21
10.4187395147
  0
LINE
  5
33A
100
AcDbEntity
  8
0
100
AcDbLine
 62
4
  6
CONTINUOUS
 10
13.2583657171
 20
10.3203283952
 11
13.2557775288
 21
10.3049493852
  0
LINE
  5
33B
100
AcDbEntity
  8
0
100
AcDbLine
 62
4
  6
CONTINUOUS
 10
13.317894047
 20
10.4679814295
 11
13.3230704235
 21
10.4987394516
  0
LINE
  5
33C
100
AcDbEntity
  8
0
100
AcDbLine
 62
4
  6
CONTINUOUS
 10
13.3411877413
 20
10.4003283321
 11
13.3385995531
 21
10.3849493222
  0
LINE
  5
33D
100
AcDbEntity
  8
0
100
AcDbLine
 62
4
  6
CONTINUOUS
 10
13.3825987534
 20
10.4532073113
 11
13.3774223769
 21
10.4224492926
  0
LINE
  5
33E
100
AcDbEntity
  8
0
100
AcDbLine
 62
7
  6
CONTINUOUS
 10
13.4553599906
 20
8.6927813994
 11
13.4584633108
 21
8.6980430315
  0
LINE
  5
33F
100
AcDbEntity
  8
0
100
AcDbLine
 62
7
  6
CONTINUOUS
 10
13.3390055897
 20
10.1811035588
 11
13.470582735
 21
10.1719786528
  0
LINE
  5
340
100
AcDbEntity
  8
0
100
AcDbLine
 62
7
  6
CONTINUOUS
 10
7.6636608247
 20
10.7865297139
 11
12.9762531841
 21
10.4181001824
  0
LINE
  5
341
100
AcDbEntity
  8
0
100
AcDbLine
 62
4
  6
CONTINUOUS
 10
13.2350720228
 20
10.3107074236
 11
13.2324838345
 21
10.3468444601
  0
LINE
  5
342
100
AcDbEntity
  8
0
100
AcDbLine
 62
4
  6
CONTINUOUS
 10
13.3411877413
 20
10.4518443773
 11
13.3411877413
 21
10.4003283321
  0
LINE
  5
343
100
AcDbEntity
  8
0
100
AcDbLine
 62
4
  6
CONTINUOUS
 10
13.3618932474
 20
10.3945702926
 11
13.3618932474
 21
10.5491184305
  0
LINE
  5
344
100
AcDbEntity
  8
0
100
AcDbLine
 62
4
  6
CONTINUOUS
 10
13.2324838345
 20
10.3468444601
 11
13.2350720228
 21
10.3879814926
  0
LINE
  5
345
100
AcDbEntity
  8
0
100
AcDbLine
 62
4
  6
CONTINUOUS
 10
13.3153058588
 20
10.426844397
 11
13.317894047
 21
10.4679814295
  0
LINE
  5
346
100
AcDbEntity
  8
0
100
AcDbLine
 62
4
  6
CONTINUOUS
 10
13.3851869417
 20
10.4943443438
 11
13.3825987534
 21
10.4532073113
  0
LINE
  5
347
100
AcDbEntity
  8
0
100
AcDbLine
 62
7
  6
CONTINUOUS
 10
13.3591948156
 20
9.8800045025
 11
13.2725609063
 21
9.2363116791
  0
LINE
  5
348
100
AcDbEntity
  8
0
100
AcDbLine
 62
7
  6
CONTINUOUS
 10
13.2725609063
 20
9.192608715
 11
13.3591948156
 21
8.7162797622
  0
LINE
  5
349
100
AcDbEntity
  8
0
100
AcDbLine
 62
4
  6
CONTINUOUS
 10
13.317894047
 20
10.3907073605
 11
13.3153058588
 21
10.426844397
  0
LINE
  5
34A
100
AcDbEntity
  8
0
100
AcDbLine
 62
4
  6
CONTINUOUS
 10
13.3825987534
 20
10.5304813802
 11
13.3851869417
 21
10.4943443438
  0
LINE
  5
34B
100
AcDbEntity
  8
0
100
AcDbLine
 62
7
  6
CONTINUOUS
 10
13.6233002628
 20
11.0430997037
 11
13.6233002628
 21
10.0734192891
  0
LINE
  5
34C
100
AcDbEntity
  8
0
100
AcDbLine
 62
7
  6
CONTINUOUS
 10
13.6233002628
 20
8.68661155
 11
13.6233002628
 21
6.2134702861
  0
LINE
  5
34D
100
AcDbEntity
  8
0
100
AcDbLine
 62
7
  6
CONTINUOUS
 10
14.1978842807
 20
8.7688072916
 11
14.2066577292
 21
8.7836825401
  0
LINE
  5
34E
100
AcDbEntity
  8
0
100
AcDbLine
 62
4
  6
CONTINUOUS
 10
13.2402483993
 20
10.2899493971
 11
13.2350720228
 21
10.3107074236
  0
LINE
  5
34F
100
AcDbEntity
  8
0
100
AcDbLine
 62
4
  6
CONTINUOUS
 10
13.2557775288
 20
10.4337395029
 11
13.2583657171
 21
10.4233604833
  0
LINE
  5
350
100
AcDbEntity
  8
0
100
AcDbLine
 62
4
  6
CONTINUOUS
 10
13.2790712232
 20
10.4691184935
 11
13.2997767292
 21
10.3345703399
  0
LINE
  5
351
100
AcDbEntity
  8
0
100
AcDbLine
 62
7
  6
CONTINUOUS
 10
8.3107079034
 20
11.4115292352
 11
13.6233002628
 21
11.0430997037
  0
LINE
  5
352
100
AcDbEntity
  8
0
100
AcDbLine
 62
4
  6
CONTINUOUS
 10
13.2454247758
 20
10.2820703813
 11
13.2402483993
 21
10.2899493971
  0
LINE
  5
353
100
AcDbEntity
  8
0
100
AcDbLine
 62
4
  6
CONTINUOUS
 10
13.2506011523
 20
10.4416185152
 11
13.2557775288
 21
10.4337395029
  0
LINE
  5
354
100
AcDbEntity
  8
0
100
AcDbLine
 62
4
  6
CONTINUOUS
 10
13.3282468
 20
10.3620703182
 11
13.3230704235
 21
10.369949334
  0
LINE
  5
355
100
AcDbEntity
  8
0
100
AcDbLine
 62
7
  6
CONTINUOUS
 10
13.5518311019
 20
10.0838525403
 11
13.5541784166
 21
10.0782129054
  0
LINE
  5
356
100
AcDbEntity
  8
0
100
AcDbLine
 62
4
  6
CONTINUOUS
 10
13.3230704235
 20
10.369949334
 11
13.317894047
 21
10.3907073605
  0
LINE
  5
357
100
AcDbEntity
  8
0
100
AcDbLine
 62
4
  6
CONTINUOUS
 10
13.3385995531
 20
10.5137394398
 11
13.3411877413
 21
10.5033604202
  0
LINE
  5
358
100
AcDbEntity
  8
0
100
AcDbLine
 62
4
  6
CONTINUOUS
 10
13.3774223769
 20
10.5512394102
 11
13.3825987534
 21
10.5304813802
  0
LINE
  5
359
100
AcDbEntity
  8
0
100
AcDbLine
 62
4
  6
CONTINUOUS
 10
13.3334231766
 20
10.5216184522
 11
13.3385995531
 21
10.5137394398
  0
LINE
  5
35A
100
AcDbEntity
  8
0
100
AcDbLine
 62
4
  6
CONTINUOUS
 10
13.3722460004
 20
10.5591184226
 11
13.3774223769
 21
10.5512394102
  0
LINE
  5
35B
100
AcDbEntity
  8
0
100
AcDbLine
 62
7
  6
CONTINUOUS
 10
12.9762531841
 20
5.5884707648
 11
13.6233002628
 21
6.2134702861
  0
LINE
  5
35C
100
AcDbEntity
  8
0
100
AcDbLine
 62
7
  6
CONTINUOUS
 10
14.2689864542
 20
9.9247186143
 11
14.2833890814
 21
9.8901150063
  0
ARC
  5
35D
100
AcDbEntity
  8
0
100
AcDbCircle
 62
7
  6
CONTINUOUS
 10
16.5343005318
 20
9.1678221656
 40
2.591564888
100
AcDbArc
 50
179.5134673813
 51
179.9985734312
  0
ARC
  5
35E
100
AcDbEntity
  8
0
100
AcDbCircle
 62
7
  6
CONTINUOUS
 10
15.854002939
 20
9.2143481292
 40
2.5815354666
100
AcDbArc
 50
179.5125250425
 51
179.99951577
  0
ARC
  5
35F
100
AcDbEntity
  8
0
100
AcDbCircle
 62
7
  6
CONTINUOUS
 10
16.4715069196
 20
9.1678633908
 40
2.5287712751
100
AcDbArc
 50
179.9994720696
 51
180.492534488
  0
ARC
  5
360
100
AcDbEntity
  8
0
100
AcDbCircle
 62
7
  6
CONTINUOUS
 10
15.8012387471
 20
9.2143466464
 40
2.5287712748
100
AcDbArc
 50
179.9994720696
 51
180.492534488
  0
ARC
  5
361
100
AcDbEntity
  8
0
100
AcDbCircle
 62
7
  6
CONTINUOUS
 10
14.4487628434
 20
9.5483027888
 40
1.1389400837
100
AcDbArc
 50
161.3961041614
 51
163.0679604749
  0
ARC
  5
362
100
AcDbEntity
  8
0
100
AcDbCircle
 62
7
  6
CONTINUOUS
 10
15.0893624761
 20
9.5113267658
 40
1.1077888829
100
AcDbArc
 50
161.3725959887
 51
163.0914686476
  0
ARC
  5
363
100
AcDbEntity
  8
0
100
AcDbCircle
 62
7
  6
CONTINUOUS
 10
11.266645666
 20
7.7598655138
 40
0.231500876
100
AcDbArc
 50
266.0262830493
 51
269.8133431647
  0
SPLINE
  5
364
100
AcDbEntity
  8
0
100
AcDbSpline
 62
7
  6
CONTINUOUS
 70
0
 71
3
 72
23
 73
19
 74
0
 42
0.0000001
 43
0.0000001
 44
0.0000000001
 40
0.0
 40
0.0
 40
0.0
 40
0.0
 40
0.0778915856
 40
0.1545454438
 40
0.2297388202
 40
0.3032879841
 40
0.3750174017
 40
0.4447505127
 40
0.512316206
 40
0.5775550501
 40
0.6403154135
 40
0.7004563918
 40
0.75784725
 40
0.8123710763
 40
0.8639245062
 40
0.9124214177
 40
0.9577945528
 40
1.0
 40
1.0
 40
1.0
 40
1.0
 10
14.3363391753
 20
9.4966943554
 30
0.0
 10
14.3363391753
 20
9.5070549475
 30
0.0
 10
14.3361961684
 20
9.5276118137
 30
0.0
 10
14.3355437102
 20
9.5581641386
 30
0.0
 10
14.3344557606
 20
9.5881262125
 30
0.0
 10
14.3329359511
 20
9.6174136723
 30
0.0
 10
14.3309881747
 20
9.645947951
 30
0.0
 10
14.3286182775
 20
9.6736516877
 30
0.0
 10
14.3258322769
 20
9.7004489828
 30
0.0
 10
14.322638433
 20
9.7262666205
 30
0.0
 10
14.3190451759
 20
9.7510343979
 30
0.0
 10
14.3150628881
 20
9.7746849284
 30
0.0
 10
14.3107022315
 20
9.7971539162
 30
0.0
 10
14.3059756504
 20
9.8183804483
 30
0.0
 10
14.3008959586
 20
9.8383070751
 30
0.0
 10
14.2954773591
 20
9.8568804089
 30
0.0
 10
14.2897347321
 20
9.8740500849
 30
0.0
 10
14.2855483838
 20
9.884926811
 30
0.0
 10
14.2833912383
 20
9.8901096951
 30
0.0
  0
SPLINE
  5
365
100
AcDbEntity
  8
0
100
AcDbSpline
 62
7
  6
CONTINUOUS
 70
0
 71
3
 72
9
 73
5
 74
0
 42
0.0000001
 43
0.0000001
 44
0.0000000001
 40
0.0
 40
0.0
 40
0.0
 40
0.0
 40
0.5149357862
 40
1.0
 40
1.0
 40
1.0
 40
1.0
 10
14.2230134046
 20
10.0204766042
 30
0.0
 10
14.2214034563
 20
10.0226510223
 30
0.0
 10
14.2181567544
 20
10.0267865907
 30
0.0
 10
14.2146449347
 20
10.0307013697
 30
0.0
 10
14.2128721054
 20
10.0325323429
 30
0.0
  0
SPLINE
  5
366
100
AcDbEntity
  8
0
100
AcDbSpline
 62
7
  6
CONTINUOUS
 70
0
 71
3
 72
22
 73
18
 74
0
 42
0.0000001
 43
0.0000001
 44
0.0000000001
 40
0.0
 40
0.0
 40
0.0
 40
0.0
 40
0.1581228667
 40
0.2341982852
 40
0.3081049186
 40
0.379717385
 40
0.4489184745
 40
0.5156040998
 40
0.5796927374
 40
0.6411263993
 40
0.6998833948
 40
0.755975683
 40
0.8094620448
 40
0.8604412683
 40
0.9090606462
 40
0.9555055836
 40
1.0
 40
1.0
 40
1.0
 40
1.0
 10
14.0396042869
 20
8.6577407679
 30
0.0
 10
14.049073948
 20
8.6619439542
 30
0.0
 10
14.0630173516
 20
8.6683596313
 30
0.0
 10
14.0811273355
 20
8.6772821336
 30
0.0
 10
14.094023675
 20
8.6839550812
 30
0.0
 10
14.1063736671
 20
8.6906966663
 30
0.0
 10
14.1181424827
 20
8.697507262
 30
0.0
 10
14.129295827
 20
8.7043875018
 30
0.0
 10
14.1398022768
 20
8.7113358782
 30
0.0
 10
14.1496325498
 20
8.7183519408
 30
0.0
 10
14.1587626984
 20
8.7254323366
 30
0.0
 10
14.1671723199
 20
8.7325753051
 30
0.0
 10
14.1748484508
 20
8.7397759503
 30
0.0
 10
14.181782577
 20
8.7470310627
 30
0.0
 10
14.1879746888
 20
8.7543348539
 30
0.0
 10
14.1934290042
 20
8.7616822487
 30
0.0
 10
14.1966456925
 20
8.7667050137
 30
0.0
 10
14.1981257198
 20
8.7692167702
 30
0.0
  0
SPLINE
  5
367
100
AcDbEntity
  8
0
100
AcDbSpline
 62
7
  6
CONTINUOUS
 70
0
 71
3
 72
9
 73
5
 74
0
 42
0.0000001
 43
0.0000001
 44
0.0000000001
 40
0.0
 40
0.0
 40
0.0
 40
0.0
 40
0.4955326499
 40
1.0
 40
1.0
 40
1.0
 40
1.0
 10
14.2691335786
 20
9.9243649126
 30
0.0
 10
14.2623619344
 20
9.9406252882
 30
0.0
 10
14.2477234076
 20
9.973039119
 30
0.0
 10
14.2315104358
 20
10.0046859613
 30
0.0
 10
14.2230134046
 20
10.0204766042
 30
0.0
  0
SPLINE
  5
368
100
AcDbEntity
  8
0
100
AcDbSpline
 62
7
  6
CONTINUOUS
 70
0
 71
3
 72
28
 73
24
 74
0
 42
0.0000001
 43
0.0000001
 44
0.0000000001
 40
0.0
 40
0.0
 40
0.0
 40
0.0
 40
0.0188524871
 40
0.0388801737
 40
0.0600715651
 40
0.0824089768
 40
0.1058699668
 40
0.1304265019
 40
0.1560475994
 40
0.1826975814
 40
0.2103382308
 40
0.2389280827
 40
0.2987741688
 40
0.3618564495
 40
0.4277601831
 40
0.4960432585
 40
0.5662412158
 40
0.6378720029
 40
0.7104405345
 40
0.7834444448
 40
0.8563742018
 40
0.9287292883
 40
1.0
 40
1.0
 40
1.0
 40
1.0
 10
14.2066568259
 20
8.7836811647
 30
0.0
 10
14.2089897665
 20
8.7876366147
 30
0.0
 10
14.2136211629
 20
8.7959010978
 30
0.0
 10
14.2202879329
 20
8.8089298858
 30
0.0
 10
14.2268734713
 20
8.8229437399
 30
0.0
 10
14.2333655624
 20
8.8379168238
 30
0.0
 10
14.239751851
 20
8.8538219496
 30
0.0
 10
14.2460210434
 20
8.8706297966
 30
0.0
 10
14.2521608698
 20
8.8883095833
 30
0.0
 10
14.2581604212
 20
8.9068286307
 30
0.0
 10
14.2640082828
 20
8.9261528582
 30
0.0
 10
14.2717061452
 20
8.9533606863
 30
0.0
 10
14.2808365667
 20
8.989128369
 30
0.0
 10
14.2908662189
 20
9.0340244492
 30
0.0
 10
14.3000538073
 20
9.0811955103
 30
0.0
 10
14.3083306081
 20
9.1302928395
 30
0.0
 10
14.3156346303
 20
9.1809537777
 30
0.0
 10
14.3219113119
 20
9.232803602
 30
0.0
 10
14.3271139666
 20
9.2854588889
 30
0.0
 10
14.3312036918
 20
9.3385295437
 30
0.0
 10
14.3341505912
 20
9.39162393
 30
0.0
 10
14.3359323427
 20
9.4443475552
 30
0.0
 10
14.3363391753
 20
9.4793338577
 30
0.0
 10
14.3363391753
 20
9.4966943554
 30
0.0
  0
SPLINE
  5
369
100
AcDbEntity
  8
0
100
AcDbSpline
 62
7
  6
CONTINUOUS
 70
0
 71
3
 72
23
 73
19
 74
0
 42
0.0000001
 43
0.0000001
 44
0.0000000001
 40
0.0
 40
0.0
 40
0.0
 40
0.0
 40
0.0450326416
 40
0.090627084
 40
0.1373223842
 40
0.1856173007
 40
0.2359593962
 40
0.2887361703
 40
0.344276113
 40
0.402854817
 40
0.4646973153
 40
0.5299824183
 40
0.5988535695
 40
0.671423373
 40
0.747772967
 40
0.8279612293
 40
0.9120297453
 40
1.0
 40
1.0
 40
1.0
 40
1.0
 10
13.4705830605
 20
10.1719785266
 30
0.0
 10
13.472463782
 20
10.1718481419
 30
0.0
 10
13.4762369709
 20
10.1713646024
 30
0.0
 10
13.4818287783
 20
10.1699807165
 30
0.0
 10
13.4873614292
 20
10.1679401848
 30
0.0
 10
13.4928284395
 20
10.1652469966
 30
0.0
 10
13.4982252346
 20
10.1619049677
 30
0.0
 10
13.5035480604
 20
10.157918986
 30
0.0
 10
13.508793656
 20
10.1532936772
 30
0.0
 10
13.5139584053
 20
10.1480331605
 30
0.0
 10
13.5190388353
 20
10.1421420632
 30
0.0
 10
13.5240317851
 20
10.1356256456
 30
0.0
 10
13.5289335606
 20
10.1284890839
 30
0.0
 10
13.5337401852
 20
10.120737941
 30
0.0
 10
13.5384482884
 20
10.1123787565
 30
0.0
 10
13.5430541973
 20
10.1034183108
 30
0.0
 10
13.5475538621
 20
10.0938638239
 30
0.0
 10
13.5504155859
 20
10.0872531859
 30
0.0
 10
13.5518307376
 20
10.0838531699
 30
0.0
  0
SPLINE
  5
36A
100
AcDbEntity
  8
0
100
AcDbSpline
 62
7
  6
CONTINUOUS
 70
0
 71
3
 72
23
 73
19
 74
0
 42
0.0000001
 43
0.0000001
 44
0.0000000001
 40
0.0
 40
0.0
 40
0.0
 40
0.0
 40
0.0450328014
 40
0.090626912
 40
0.1373220992
 40
0.1856177797
 40
0.2359593495
 40
0.2887351894
 40
0.3442762352
 40
0.4028552774
 40
0.4646962747
 40
0.5299819163
 40
0.5988545543
 40
0.6714232004
 40
0.7477722896
 40
0.8279625255
 40
0.9120310258
 40
1.0
 40
1.0
 40
1.0
 40
1.0
 10
13.3627244502
 20
8.6167142804
 30
0.0
 10
13.3646051944
 20
8.6165838941
 30
0.0
 10
13.3684090174
 20
8.6165421108
 30
0.0
 10
13.3741384063
 20
8.6171403345
 30
0.0
 10
13.3798998703
 20
8.6183975648
 30
0.0
 10
13.3856862192
 20
8.6203107411
 30
0.0
 10
13.3914927957
 20
8.6228755568
 30
0.0
 10
13.3973150868
 20
8.626088378
 30
0.0
 10
13.4031488034
 20
8.6299456744
 30
0.0
 10
13.40899027
 20
8.6344429626
 30
0.0
 10
13.414835537
 20
8.6395761201
 30
0.0
 10
13.4206801706
 20
8.6453411156
 30
0.0
 10
13.4265200081
 20
8.651732986
 30
0.0
 10
13.432350809
 20
8.6587463173
 30
0.0
 10
13.4381678468
 20
8.666375617
 30
0.0
 10
13.4439663726
 20
8.6746147934
 30
0.0
 10
13.4497419461
 20
8.6834567583
 30
0.0
 10
13.4534889046
 20
8.6896090275
 30
0.0
 10
13.4553598302
 20
8.6927811304
 30
0.0
  0
SPLINE
  5
36B
100
AcDbEntity
  8
0
100
AcDbSpline
 62
7
  6
CONTINUOUS
 70
0
 71
3
 72
21
 73
17
 74
0
 42
0.0000001
 43
0.0000001
 44
0.0000000001
 40
0.0
 40
0.0
 40
0.0
 40
0.0
 40
0.1231153359
 40
0.184837322
 40
0.2466817013
 40
0.3086598058
 40
0.3707815459
 40
0.4330548007
 40
0.4954844141
 40
0.558071395
 40
0.6208128987
 40
0.6837027994
 40
0.7467321283
 40
0.809889664
 40
0.8731630859
 40
1.0
 40
1.0
 40
1.0
 40
1.0
 10
14.0294629878
 20
9.8335212469
 30
0.0
 10
14.0331196
 20
9.8067604918
 30
0.0
 10
14.0376126402
 20
9.7664328878
 30
0.0
 10
14.0411942707
 20
9.7124268611
 30
0.0
 10
14.0425741224
 20
9.6717369449
 30
0.0
 10
14.0425442618
 20
9.63093539
 30
0.0
 10
14.0410186638
 20
9.5900671919
 30
0.0
 10
14.0379321425
 20
9.549187225
 30
0.0
 10
14.0332461026
 20
9.5083565433
 30
0.0
 10
14.0269525616
 20
9.4676387024
 30
0.0
 10
14.0190766368
 20
9.4270947316
 30
0.0
 10
14.0096727157
 20
9.3867787886
 30
0.0
 10
13.9988194713
 20
9.3467351633
 30
0.0
 10
13.986613364
 20
9.306995635
 30
0.0
 10
13.968665924
 20
9.2544045922
 30
0.0
 10
13.9535237321
 20
9.2155170115
 30
0.0
 10
13.9428290785
 20
9.1898284234
 30
0.0
  0
SPLINE
  5
36C
100
AcDbEntity
  8
0
100
AcDbSpline
 62
7
  6
CONTINUOUS
 70
0
 71
3
 72
23
 73
19
 74
0
 42
0.0000001
 43
0.0000001
 44
0.0000000001
 40
0.0
 40
0.0
 40
0.0
 40
0.0
 40
0.0681436223
 40
0.1355717925
 40
0.2022246133
 40
0.2680530577
 40
0.3330188589
 40
0.3971018651
 40
0.4603047619
 40
0.5226553367
 40
0.5842062484
 40
0.6450322154
 40
0.7052236803
 40
0.7648789131
 40
0.8240963959
 40
0.8829688942
 40
0.9415804852
 40
1.0
 40
1.0
 40
1.0
 40
1.0
 10
13.9428290785
 20
9.1461254594
 30
0.0
 10
13.9481577748
 20
9.1362227605
 30
0.0
 10
13.958509498
 20
9.1163853867
 30
0.0
 10
13.9730928487
 20
9.0863628772
 30
0.0
 10
13.986545135
 20
9.0562331899
 30
0.0
 10
13.9987548669
 20
9.0260153286
 30
0.0
 10
14.0096144248
 20
8.9957349848
 30
0.0
 10
14.0190269442
 20
8.9654259583
 30
0.0
 10
14.0269131471
 20
8.9351288622
 30
0.0
 10
14.0332176452
 20
8.9048892881
 30
0.0
 10
14.0379141683
 20
8.8747550225
 30
0.0
 10
14.041009627
 20
8.8447726597
 30
0.0
 10
14.042541957
 20
8.8149836798
 30
0.0
 10
14.0425761232
 20
8.7854217275
 30
0.0
 10
14.0411984516
 20
8.7561110664
 30
0.0
 10
14.0385100028
 20
8.7270657331
 30
0.0
 10
14.0346187632
 20
8.6982916271
 30
0.0
 10
14.0312909551
 20
8.6792622772
 30
0.0
 10
14.0294629878
 20
8.6697965066
 30
0.0
  0
SPLINE
  5
36D
100
AcDbEntity
  8
0
100
AcDbSpline
 62
7
  6
CONTINUOUS
 70
0
 71
3
 72
21
 73
17
 74
0
 42
0.0000001
 43
0.0000001
 44
0.0000000001
 40
0.0
 40
0.0
 40
0.0
 40
0.0
 40
0.0721750434
 40
0.1408704233
 40
0.2690156223
 40
0.3293895806
 40
0.3879136836
 40
0.4451490293
 40
0.5016982119
 40
0.5581866935
 40
0.6152406903
 40
0.6734670847
 40
0.733434797
 40
0.8604758414
 40
0.9285177531
 40
1.0
 40
1.0
 40
1.0
 40
1.0
 10
13.3693361147
 20
8.7042240235
 30
0.0
 10
13.3707709442
 20
8.7027421356
 30
0.0
 10
13.3736624422
 20
8.6999349234
 30
0.0
 10
13.3795420458
 20
8.6949761343
 30
0.0
 10
13.3856961573
 20
8.6908785183
 30
0.0
 10
13.3920732158
 20
8.687826469
 30
0.0
 10
13.3968143781
 20
8.6861089777
 30
0.0
 10
13.4016030158
 20
8.684921394
 30
0.0
 10
13.4064347195
 20
8.6842659906
 30
0.0
 10
13.4113039677
 20
8.6841435805
 30
0.0
 10
13.4162051879
 20
8.6845537557
 30
0.0
 10
13.4211334824
 20
8.6854958139
 30
0.0
 10
13.4278607069
 20
8.6874959575
 30
0.0
 10
13.4345198459
 20
8.690565836
 30
0.0
 10
13.4410271628
 20
8.6945337695
 30
0.0
 10
13.4442783304
 20
8.696849658
 30
0.0
 10
13.4459041002
 20
8.6980867154
 30
0.0
  0
SPLINE
  5
36E
100
AcDbEntity
  8
0
100
AcDbSpline
 62
7
  6
CONTINUOUS
 70
0
 71
3
 72
37
 73
33
 74
0
 42
0.0000001
 43
0.0000001
 44
0.0000000001
 40
0.0
 40
0.0
 40
0.0
 40
0.0
 40
0.0242160064
 40
0.0471276776
 40
0.0688728694
 40
0.0896181497
 40
0.1095643177
 40
0.1289412712
 40
0.1480010561
 40
0.1670091283
 40
0.1862325832
 40
0.2059292153
 40
0.2263374353
 40
0.2476687588
 40
0.2701059695
 40
0.2938027283
 40
0.3188839929
 40
0.3454511185
 40
0.3735850406
 40
0.4033469108
 40
0.4347832022
 40
0.4679286948
 40
0.5028057521
 40
0.5394275751
 40
0.5778008267
 40
0.6179236654
 40
0.6597872747
 40
0.7033790872
 40
0.7486826578
 40
0.7956778314
 40
0.8946424786
 40
1.0
 40
1.0
 40
1.0
 40
1.0
 10
13.5426039332
 20
10.0790155986
 30
0.0
 10
13.540993916
 20
10.0806784198
 30
0.0
 10
13.5377468144
 20
10.0838075002
 30
0.0
 10
13.5326518178
 20
10.087987609
 30
0.0
 10
13.5274781895
 20
10.0915125193
 30
0.0
 10
13.5222301352
 20
10.0943755897
 30
0.0
 10
13.5169125848
 20
10.0965718422
 30
0.0
 10
13.5115312378
 20
10.0980969547
 30
0.0
 10
13.5060928729
 20
10.0989466244
 30
0.0
 10
13.5006058155
 20
10.0991189383
 30
0.0
 10
13.4950786395
 20
10.0986144788
 30
0.0
 10
13.4895194071
 20
10.0974348421
 30
0.0
 10
13.4839351171
 20
10.0955835675
 30
0.0
 10
13.478331141
 20
10.0930656297
 30
0.0
 10
13.4727122242
 20
10.0898851522
 30
0.0
 10
13.4670828268
 20
10.0860462958
 30
0.0
 10
13.4614467799
 20
10.0815539968
 30
0.0
 10
13.4558083917
 20
10.076412667
 30
0.0
 10
13.450172426
 20
10.0706268852
 30
0.0
 10
13.4445431874
 20
10.0642023702
 30
0.0
 10
13.4389254547
 20
10.0571449762
 30
0.0
 10
13.4333244831
 20
10.0494608572
 30
0.0
 10
13.4277450617
 20
10.0411572092
 30
0.0
 10
13.4221921463
 20
10.0322416935
 30
0.0
 10
13.4166711561
 20
10.0227223189
 30
0.0
 10
13.4111871458
 20
10.0126080563
 30
0.0
 10
13.4057450797
 20
10.0019085851
 30
0.0
 10
13.4003502946
 20
9.9906338114
 30
0.0
 10
13.3950077831
 20
9.9787940247
 30
0.0
 10
13.3878364549
 20
9.9619773354
 30
0.0
 10
13.3790668617
 20
9.9396085421
 30
0.0
 10
13.3725546387
 20
9.921193522
 30
0.0
 10
13.3693361147
 20
9.9116517279
 30
0.0
  0
SPLINE
  5
36F
100
AcDbEntity
  8
0
100
AcDbSpline
 62
7
  6
CONTINUOUS
 70
0
 71
3
 72
29
 73
25
 74
0
 42
0.0000001
 43
0.0000001
 44
0.0000000001
 40
0.0
 40
0.0
 40
0.0
 40
0.0
 40
0.0844109308
 40
0.167021196
 40
0.2475180268
 40
0.3256369966
 40
0.401116176
 40
0.4737019132
 40
0.5431596849
 40
0.6092721542
 40
0.6718401978
 40
0.7306888572
 40
0.7586717622
 40
0.7856716262
 40
0.8116742211
 40
0.8366682477
 40
0.8606452028
 40
0.8835986256
 40
0.9055261083
 40
0.9264302219
 40
0.9463170845
 40
0.9651968369
 40
0.9830842384
 40
1.0
 40
1.0
 40
1.0
 40
1.0
 10
13.2725609063
 20
9.192608715
 30
0.0
 10
13.272679706
 20
9.178835096
 30
0.0
 10
13.2731408594
 20
9.1515830118
 30
0.0
 10
13.2745263987
 20
9.1112148824
 30
0.0
 10
13.2765945085
 20
9.0719037743
 30
0.0
 10
13.2793368532
 20
9.0338003264
 30
0.0
 10
13.2827425209
 20
8.9970464216
 30
0.0
 10
13.2867988677
 20
8.961780564
 30
0.0
 10
13.2914900292
 20
8.9281357102
 30
0.0
 10
13.2967976703
 20
8.8962379772
 30
0.0
 10
13.3027019108
 20
8.8662073464
 30
0.0
 10
13.3081877576
 20
8.8424478828
 30
0.0
 10
13.312881155
 20
8.8244745789
 30
0.0
 10
13.316476616
 20
8.8117569271
 30
0.0
 10
13.3202035146
 20
8.7995862792
 30
0.0
 10
13.3240583134
 20
8.7879740283
 30
0.0
 10
13.3280370805
 20
8.7769309856
 30
0.0
 10
13.3321362522
 20
8.7664675422
 30
0.0
 10
13.3363521743
 20
8.7565933675
 30
0.0
 10
13.3406808388
 20
8.7473172162
 30
0.0
 10
13.3451185444
 20
8.7386475688
 30
0.0
 10
13.3496614253
 20
8.7305927062
 30
0.0
 10
13.3543042204
 20
8.723160731
 30
0.0
 10
13.357552288
 20
8.7184981823
 30
0.0
 10
13.3591948156
 20
8.7162797622
 30
0.0
  0
SPLINE
  5
370
100
AcDbEntity
  8
0
100
AcDbSpline
 62
7
  6
CONTINUOUS
 70
0
 71
3
 72
23
 73
19
 74
0
 42
0.0000001
 43
0.0000001
 44
0.0000000001
 40
0.0
 40
0.0
 40
0.0
 40
0.0
 40
0.0517124017
 40
0.105817437
 40
0.1621248898
 40
0.2204554779
 40
0.2806133097
 40
0.342391697
 40
0.4055775525
 40
0.4699511935
 40
0.5352873143
 40
0.6013557937
 40
0.6679239017
 40
0.7347566859
 40
0.801615562
 40
0.8682649978
 40
0.9344779167
 40
1.0
 40
1.0
 40
1.0
 40
1.0
 10
13.3591948156
 20
9.8800045025
 30
0.0
 10
13.3559221756
 20
9.8692621752
 30
0.0
 10
13.3495282581
 20
9.8471873766
 30
0.0
 10
13.340561103
 20
9.8131386533
 30
0.0
 10
13.3320264412
 20
9.7774994688
 30
0.0
 10
13.3239569349
 20
9.7404061672
 30
0.0
 10
13.3163825896
 20
9.7019971245
 30
0.0
 10
13.3093326933
 20
9.6624171413
 30
0.0
 10
13.3028338271
 20
9.6218156784
 30
0.0
 10
13.2969105133
 20
9.5803457917
 30
0.0
 10
13.2915855366
 20
9.5381638923
 30
0.0
 10
13.2868787411
 20
9.4954291488
 30
0.0
 10
13.2828080709
 20
9.4523026969
 30
0.0
 10
13.2793891296
 20
9.4089475334
 30
0.0
 10
13.2766344002
 20
9.3655274198
 30
0.0
 10
13.2745545126
 20
9.3222044644
 30
0.0
 10
13.2731576305
 20
9.2791446453
 30
0.0
 10
13.2726816151
 20
9.250539824
 30
0.0
 10
13.2725609063
 20
9.2363116791
 30
0.0
  0
SPLINE
  5
371
100
AcDbEntity
  8
0
100
AcDbSpline
 62
7
  6
CONTINUOUS
 70
0
 71
3
 72
55
 73
51
 74
0
 42
0.0000001
 43
0.0000001
 44
0.0000000001
 40
0.0
 40
0.0
 40
0.0
 40
0.0
 40
0.0544796836
 40
0.1080730038
 40
0.1606188057
 40
0.2119841062
 40
0.2620411187
 40
0.3106614428
 40
0.3577215751
 40
0.4031061635
 40
0.4467061545
 40
0.4884199557
 40
0.5281545703
 40
0.5658265035
 40
0.6013637281
 40
0.6347062423
 40
0.6658099984
 40
0.694647824
 40
0.7082163713
 40
0.7212192512
 40
0.7336600645
 40
0.7455452452
 40
0.7568838525
 40
0.7676875652
 40
0.7779714304
 40
0.7877550967
 40
0.7970627058
 40
0.8059233995
 40
0.8143724103
 40
0.8224520268
 40
0.8302114288
 40
0.8377068764
 40
0.8450017153
 40
0.8521653036
 40
0.8592710663
 40
0.8663944188
 40
0.8736102248
 40
0.8809901605
 40
0.888600879
 40
0.8965027645
 40
0.9047487914
 40
0.9133845833
 40
0.92244909
 40
0.9319750597
 40
0.9419890353
 40
0.9525126212
 40
0.9635634308
 40
0.9751553269
 40
0.9872983602
 40
1.0
 40
1.0
 40
1.0
 40
1.0
 10
14.0154038243
 20
9.1866945929
 30
0.0
 10
14.0154038243
 20
9.176129628
 30
0.0
 10
14.0155524888
 20
9.1551712508
 30
0.0
 10
14.0162309932
 20
9.1240295522
 30
0.0
 10
14.0173623113
 20
9.0935052401
 30
0.0
 10
14.0189425742
 20
9.063687526
 30
0.0
 10
14.0209674723
 20
9.0346596442
 30
0.0
 10
14.023430842
 20
9.0065035277
 30
0.0
 10
14.0263259656
 20
8.979299416
 30
0.0
 10
14.0296441503
 20
8.9531245433
 30
0.0
 10
14.0333759873
 20
8.9280529453
 30
0.0
 10
14.0375106184
 20
8.904155542
 30
0.0
 10
14.042036089
 20
8.8814998769
 30
0.0
 10
14.0469394596
 20
8.8601497795
 30
0.0
 10
14.0522063483
 20
8.8401652354
 30
0.0
 10
14.0578220351
 20
8.8216019118
 30
0.0
 10
14.0637700231
 20
8.8045117592
 30
0.0
 10
14.0690929471
 20
8.7912796823
 30
0.0
 10
14.0735252229
 20
8.7814896538
 30
0.0
 10
14.0768542987
 20
8.7746945973
 30
0.0
 10
14.080253824
 20
8.7683018516
 30
0.0
 10
14.0837214231
 20
8.7623157594
 30
0.0
 10
14.0872546409
 20
8.7567403262
 30
0.0
 10
14.0908511903
 20
8.7515794464
 30
0.0
 10
14.0945089888
 20
8.7468368892
 30
0.0
 10
14.0982255472
 20
8.7425157746
 30
0.0
 10
14.1019985661
 20
8.7386190366
 30
0.0
 10
14.1058259475
 20
8.7351496737
 30
0.0
 10
14.1097056709
 20
8.7321106622
 30
0.0
 10
14.1136352903
 20
8.7295043576
 30
0.0
 10
14.1176124494
 20
8.7273332704
 30
0.0
 10
14.1216346501
 20
8.7256002518
 30
0.0
 10
14.1256988176
 20
8.7243078768
 30
0.0
 10
14.1298012116
 20
8.7234577855
 30
0.0
 10
14.1339377941
 20
8.7230513649
 30
0.0
 10
14.1381041929
 20
8.7230896149
 30
0.0
 10
14.1422959422
 20
8.7235720565
 30
0.0
 10
14.146508991
 20
8.7244971394
 30
0.0
 10
14.1507397557
 20
8.7258631908
 30
0.0
 10
14.1549849207
 20
8.7276685288
 30
0.0
 10
14.1592417285
 20
8.7299106267
 30
0.0
 10
14.1635076503
 20
8.7325870067
 30
0.0
 10
14.1677801243
 20
8.7356954574
 30
0.0
 10
14.1720564153
 20
8.739233775
 30
0.0
 10
14.1763341074
 20
8.7431990466
 30
0.0
 10
14.1806105684
 20
8.7475883816
 30
0.0
 10
14.1848829693
 20
8.7523988703
 30
0.0
 10
14.1891483825
 20
8.757627321
 30
0.0
 10
14.1934041068
 20
8.763269812
 30
0.0
 10
14.1961703968
 20
8.7672157956
 30
0.0
 10
14.1975527432
 20
8.7692544947
 30
0.0
  0
SPLINE
  5
372
100
AcDbEntity
  8
0
100
AcDbSpline
 62
7
  6
CONTINUOUS
 70
0
 71
3
 72
9
 73
5
 74
0
 42
0.0000001
 43
0.0000001
 44
0.0000000001
 40
0.0
 40
0.0
 40
0.0
 40
0.0
 40
0.2415810799
 40
1.0
 40
1.0
 40
1.0
 40
1.0
 10
14.1975527432
 20
8.7692544947
 30
0.0
 10
14.1983237579
 20
8.7703915954
 30
0.0
 10
14.2014742395
 20
8.7751262951
 30
0.0
 10
14.2044656901
 20
8.7799661416
 30
0.0
 10
14.2066568259
 20
8.7836811647
 30
0.0
  0
SPLINE
  5
373
100
AcDbEntity
  8
0
100
AcDbSpline
 62
7
  6
CONTINUOUS
 70
0
 71
3
 72
11
 73
7
 74
0
 42
0.0000001
 43
0.0000001
 44
0.0000000001
 40
0.0
 40
0.0
 40
0.0
 40
0.0
 40
0.2707423955
 40
0.5275743428
 40
0.7705940619
 40
1.0
 40
1.0
 40
1.0
 40
1.0
 10
14.2833912383
 20
9.8901096951
 30
0.0
 10
14.2820949324
 20
9.8932242756
 30
0.0
 10
14.279469912
 20
9.8992529542
 30
0.0
 10
14.2753127554
 20
9.9079110085
 30
0.0
 10
14.2710440283
 20
9.9159358627
 30
0.0
 10
14.2680413188
 20
9.9210023796
 30
0.0
 10
14.2665187953
 20
9.9234216717
 30
0.0
  0
SPLINE
  5
374
100
AcDbEntity
  8
0
100
AcDbSpline
 62
7
  6
CONTINUOUS
 70
0
 71
3
 72
55
 73
51
 74
0
 42
0.0000001
 43
0.0000001
 44
0.0000000001
 40
0.0
 40
0.0
 40
0.0
 40
0.0
 40
0.0091577868
 40
0.0177618445
 40
0.0258372884
 40
0.0334170679
 40
0.0405430748
 40
0.0472684852
 40
0.0536583613
 40
0.0597898466
 40
0.0657516837
 40
0.0716409717
 40
0.0775587123
 40
0.0836043685
 40
0.0898706698
 40
0.0964402932
 40
0.0998623988
 40
0.1033856202
 40
0.1107605558
 40
0.1186142058
 40
0.126983132
 40
0.1358954139
 40
0.14537248
 40
0.1554292655
 40
0.1660758699
 40
0.1773187873
 40
0.1891604404
 40
0.2016004246
 40
0.2146363091
 40
0.2282628502
 40
0.2424730097
 40
0.257258518
 40
0.2726089663
 40
0.3049559727
 40
0.3394089097
 40
0.3758441812
 40
0.4141231893
 40
0.4540951793
 40
0.4955985596
 40
0.5384619526
 40
0.5825062071
 40
0.6275453385
 40
0.6733874576
 40
0.7198363195
 40
0.7666923239
 40
0.8137540635
 40
0.8608176619
 40
0.9076794905
 40
0.9541447315
 40
1.0
 40
1.0
 40
1.0
 40
1.0
 10
14.2665187953
 20
9.9234216717
 30
0.0
 10
14.2650666087
 20
9.9257291983
 30
0.0
 10
14.2621352872
 20
9.9301342706
 30
0.0
 10
14.2574977593
 20
9.9362775811
 30
0.0
 10
14.2527637062
 20
9.9417404162
 30
0.0
 10
14.2479375952
 20
9.9465165493
 30
0.0
 10
14.2430227595
 20
9.9505995362
 30
0.0
 10
14.2380232981
 20
9.9539834971
 30
0.0
 10
14.2329436101
 20
9.9566624741
 30
0.0
 10
14.2277887254
 20
9.9586290861
 30
0.0
 10
14.2225662994
 20
9.9598774594
 30
0.0
 10
14.2172858548
 20
9.960403483
 30
0.0
 10
14.2119582766
 20
9.9602047319
 30
0.0
 10
14.2065943062
 20
9.9592836236
 30
0.0
 10
14.201203098
 20
9.9576450318
 30
0.0
 10
14.1967543711
 20
9.9557120001
 30
0.0
 10
14.1931960119
 20
9.9538310011
 30
0.0
 10
14.189527035
 20
9.951656494
 30
0.0
 10
14.1849284357
 20
9.9484774276
 30
0.0
 10
14.1794869461
 20
9.9440234704
 30
0.0
 10
14.17404445
 20
9.9388794616
 30
0.0
 10
14.1686062799
 20
9.9330516292
 30
0.0
 10
14.1631781234
 20
9.9265459846
 30
0.0
 10
14.1577653272
 20
9.9193700024
 30
0.0
 10
14.1523735678
 20
9.9115316341
 30
0.0
 10
14.1470091576
 20
9.903039319
 30
0.0
 10
14.1416777816
 20
9.8939027463
 30
0.0
 10
14.1363853637
 20
9.8841322139
 30
0.0
 10
14.1311382807
 20
9.8737385662
 30
0.0
 10
14.1259422482
 20
9.8627337312
 30
0.0
 10
14.1208031665
 20
9.8511302496
 30
0.0
 10
14.115727204
 20
9.8389411954
 30
0.0
 10
14.1089319395
 20
9.8216231713
 30
0.0
 10
14.1006655849
 20
9.7985984677
 30
0.0
 10
14.0912517613
 20
9.7693354762
 30
0.0
 10
14.0822223122
 20
9.73810921
 30
0.0
 10
14.0736188464
 20
9.7050627905
 30
0.0
 10
14.0654814313
 20
9.6703473043
 30
0.0
 10
14.0578480099
 20
9.6341218685
 30
0.0
 10
14.0507537449
 20
9.5965527306
 30
0.0
 10
14.0442315565
 20
9.5578123803
 30
0.0
 10
14.0383118128
 20
9.5180787311
 30
0.0
 10
14.0330216846
 20
9.4775344095
 30
0.0
 10
14.0283856485
 20
9.4363657985
 30
0.0
 10
14.0244252512
 20
9.3947620015
 30
0.0
 10
14.0211586465
 20
9.3529144351
 30
0.0
 10
14.0186008076
 20
9.3110158477
 30
0.0
 10
14.0167634906
 20
9.2692571792
 30
0.0
 10
14.0156554812
 20
9.2278327629
 30
0.0
 10
14.0154038243
 20
9.2003465876
 30
0.0
 10
14.0154038243
 20
9.1866945929
 30
0.0
  0
SPLINE
  5
375
100
AcDbEntity
  8
0
100
AcDbSpline
 62
7
  6
CONTINUOUS
 70
0
 71
3
 72
9
 73
5
 74
0
 42
0.0000001
 43
0.0000001
 44
0.0000000001
 40
0.0
 40
0.0
 40
0.0
 40
0.0
 40
0.5149357862
 40
1.0
 40
1.0
 40
1.0
 40
1.0
 10
13.3591948156
 20
8.7162797622
 30
0.0
 10
13.3608047638
 20
8.7141053442
 30
0.0
 10
13.3640514657
 20
8.7099697757
 30
0.0
 10
13.3675632854
 20
8.7060549967
 30
0.0
 10
13.3693361147
 20
8.7042240235
 30
0.0
  0
SPLINE
  5
376
100
AcDbEntity
  8
0
100
AcDbSpline
 62
7
  6
CONTINUOUS
 70
0
 71
3
 72
37
 73
33
 74
0
 42
0.0000001
 43
0.0000001
 44
0.0000000001
 40
0.0
 40
0.0
 40
0.0
 40
0.0
 40
0.0964112922
 40
0.1901906492
 40
0.2807583835
 40
0.3675835225
 40
0.4094323166
 40
0.450157461
 40
0.4897016084
 40
0.5280107694
 40
0.5650329334
 40
0.600720838
 40
0.6350299683
 40
0.6679203677
 40
0.6993569715
 40
0.7293088589
 40
0.7577523785
 40
0.7846691308
 40
0.8100495366
 40
0.8338928968
 40
0.8562090528
 40
0.8770224534
 40
0.8963726747
 40
0.9143213188
 40
0.9309549459
 40
0.9463922245
 40
0.9607907246
 40
0.9743509572
 40
0.9808967563
 40
0.9873288622
 40
0.9936838942
 40
1.0
 40
1.0
 40
1.0
 40
1.0
 10
13.2149044762
 20
9.1994715528
 30
0.0
 10
13.2149044762
 20
9.1793124881
 30
0.0
 10
13.2153316384
 20
9.1395431417
 30
0.0
 10
13.2172990512
 20
9.0808658753
 30
0.0
 10
13.2205727486
 20
9.0242540654
 30
0.0
 10
13.224415091
 20
8.9785667576
 30
0.0
 10
13.2281524227
 20
8.9433429387
 30
0.0
 10
13.2312314145
 20
8.9179939712
 30
0.0
 10
13.2346157593
 20
8.8934308108
 30
0.0
 10
13.2382994058
 20
8.8696938715
 30
0.0
 10
13.2422767924
 20
8.8468222541
 30
0.0
 10
13.2465407664
 20
8.8248535832
 30
0.0
 10
13.2510845177
 20
8.80382394
 30
0.0
 10
13.255900516
 20
8.7837678418
 30
0.0
 10
13.2609803749
 20
8.764718086
 30
0.0
 10
13.2663163152
 20
8.7467058704
 30
0.0
 10
13.2718987728
 20
8.7297604133
 30
0.0
 10
13.277719182
 20
8.7139092549
 30
0.0
 10
13.2837677667
 20
8.6991778788
 30
0.0
 10
13.2900346724
 20
8.6855897095
 30
0.0
 10
13.2965106649
 20
8.6731664226
 30
0.0
 10
13.3031850929
 20
8.6619269939
 30
0.0
 10
13.3100494063
 20
8.651889148
 30
0.0
 10
13.3170940009
 20
8.6430679345
 30
0.0
 10
13.3243110077
 20
8.6354774514
 30
0.0
 10
13.3316941165
 20
8.6291313849
 30
0.0
 10
13.3392345794
 20
8.6240434018
 30
0.0
 10
13.3457230392
 20
8.6208282379
 30
0.0
 10
13.3509446913
 20
8.6189368725
 30
0.0
 10
13.3548442925
 20
8.6178556498
 30
0.0
 10
13.3587700439
 20
8.6170966904
 30
0.0
 10
13.36140695
 20
8.6168056187
 30
0.0
 10
13.3627244502
 20
8.6167142804
 30
0.0
  0
SPLINE
  5
377
100
AcDbEntity
  8
0
100
AcDbSpline
 62
7
  6
CONTINUOUS
 70
0
 71
3
 72
48
 73
44
 74
0
 42
0.0000001
 43
0.0000001
 44
0.0000000001
 40
0.0
 40
0.0
 40
0.0
 40
0.0
 40
0.0417704112
 40
0.0840386256
 40
0.1266601605
 40
0.1695075437
 40
0.255350012
 40
0.3405015213
 40
0.3824895014
 40
0.4239116219
 40
0.464640564
 40
0.5045521279
 40
0.5435250537
 40
0.5814424351
 40
0.6181915682
 40
0.6536649563
 40
0.6877611854
 40
0.7203848469
 40
0.7514486498
 40
0.7808729855
 40
0.8085883399
 40
0.8217869473
 40
0.8345375105
 40
0.846834529
 40
0.8586738401
 40
0.8700524822
 40
0.8809683455
 40
0.8914207229
 40
0.9014108926
 40
0.9109416263
 40
0.9200175061
 40
0.9286459499
 40
0.936837114
 40
0.944604074
 40
0.9519639
 40
0.958938379
 40
0.9655541515
 40
0.9718436235
 40
0.9778460214
 40
0.9836072767
 40
0.9891799827
 40
0.9946230313
 40
1.0
 40
1.0
 40
1.0
 40
1.0
 10
13.2149044762
 20
9.1994715528
 30
0.0
 10
13.2149044762
 20
9.2140124505
 30
0.0
 10
13.2151315375
 20
9.2432679972
 30
0.0
 10
13.2161342241
 20
9.287350381
 30
0.0
 10
13.2177989976
 20
9.3317880619
 30
0.0
 10
13.2208956523
 20
9.3913453645
 30
0.0
 10
13.2263628548
 20
9.4655965438
 30
0.0
 10
13.2339324505
 20
9.5393626369
 30
0.0
 10
13.2412254674
 20
9.5975883517
 30
0.0
 10
13.2472487092
 20
9.6403829686
 30
0.0
 10
13.2538306451
 20
9.6823637207
 30
0.0
 10
13.2609491073
 20
9.7233918924
 30
0.0
 10
13.2685808774
 20
9.7633318006
 30
0.0
 10
13.2767001474
 20
9.8020514807
 30
0.0
 10
13.2852801234
 20
9.8394229884
 30
0.0
 10
13.2942922523
 20
9.87532294
 30
0.0
 10
13.3037062034
 20
9.9096329375
 30
0.0
 10
13.313491108
 20
9.9422398414
 30
0.0
 10
13.3236137377
 20
9.9730365877
 30
0.0
 10
13.3340408887
 20
10.0019216237
 30
0.0
 10
13.3430960882
 20
10.0246773734
 30
0.0
 10
13.3504861802
 20
10.041836026
 30
0.0
 10
13.3559926274
 20
10.0539590793
 30
0.0
 10
13.361549116
 20
10.0655366283
 30
0.0
 10
13.3671510502
 20
10.076559223
 30
0.0
 10
13.3727936267
 20
10.0870179745
 30
0.0
 10
13.3784723341
 20
10.0969042401
 30
0.0
 10
13.3841827131
 20
10.1062098375
 30
0.0
 10
13.3899198598
 20
10.1149274183
 30
0.0
 10
13.395679139
 20
10.1230499632
 30
0.0
 10
13.4014562689
 20
10.1305706675
 30
0.0
 10
13.4072465368
 20
10.1374836364
 30
0.0
 10
13.4130453549
 20
10.1437835143
 30
0.0
 10
13.4188486003
 20
10.1494649963
 30
0.0
 10
13.4246521528
 20
10.1545233005
 30
0.0
 10
13.4304516863
 20
10.1589544991
 30
0.0
 10
13.436243344
 20
10.1627545421
 30
0.0
 10
13.4420235042
 20
10.165919063
 30
0.0
 10
13.4477879386
 20
10.1684446558
 30
0.0
 10
13.4535322212
 20
10.1703277669
 30
0.0
 10
13.4592517741
 20
10.1715642035
 30
0.0
 10
13.4649395544
 20
10.1721510422
 30
0.0
 10
13.4687157402
 20
10.1721079823
 30
0.0
 10
13.4705830605
 20
10.1719785266
 30
0.0
  0
SPLINE
  5
378
100
AcDbEntity
  8
0
100
AcDbSpline
 62
7
  6
CONTINUOUS
 70
0
 71
3
 72
9
 73
5
 74
0
 42
0.0000001
 43
0.0000001
 44
0.0000000001
 40
0.0
 40
0.0
 40
0.0
 40
0.0
 40
0.5149357862
 40
1.0
 40
1.0
 40
1.0
 40
1.0
 10
14.0294629878
 20
8.6697965066
 30
0.0
 10
14.031072936
 20
8.6676220886
 30
0.0
 10
14.0343196379
 20
8.6634865201
 30
0.0
 10
14.0378314576
 20
8.6595717411
 30
0.0
 10
14.0396042869
 20
8.6577407679
 30
0.0
  0
SPLINE
  5
379
100
AcDbEntity
  8
0
100
AcDbSpline
 62
7
  6
CONTINUOUS
 70
0
 71
3
 72
23
 73
19
 74
0
 42
0.0000001
 43
0.0000001
 44
0.0000000001
 40
0.0
 40
0.0
 40
0.0
 40
0.0
 40
0.0430432041
 40
0.0864276157
 40
0.130656649
 40
0.1763288731
 40
0.2240992276
 40
0.2746265429
 40
0.3285147701
 40
0.3862610475
 40
0.4482190742
 40
0.5145822216
 40
0.585391119
 40
0.6605550141
 40
0.7398801137
 40
0.8231012882
 40
0.9099156628
 40
1.0
 40
1.0
 40
1.0
 40
1.0
 10
14.2128721054
 20
10.0325323429
 30
0.0
 10
14.212933054
 20
10.0288729125
 30
0.0
 10
14.2127123503
 20
10.0215136182
 30
0.0
 10
14.2112406669
 20
10.0104814696
 30
0.0
 10
14.2085157443
 20
9.9994560973
 30
0.0
 10
14.2044310905
 20
9.9884588984
 30
0.0
 10
14.1988933301
 20
9.9775132831
 30
0.0
 10
14.1918296596
 20
9.9666431378
 30
0.0
 10
14.1831914948
 20
9.9558694701
 30
0.0
 10
14.1729568637
 20
9.9452096682
 30
0.0
 10
14.1611321755
 20
9.934677577
 30
0.0
 10
14.1477527168
 20
9.9242830993
 30
0.0
 10
14.1328794571
 20
9.9140332358
 30
0.0
 10
14.1165947194
 20
9.9039320585
 30
0.0
 10
14.0989965741
 20
9.8939806131
 30
0.0
 10
14.0801923608
 20
9.8841768245
 30
0.0
 10
14.0602929153
 20
9.8745166226
 30
0.0
 10
14.046605439
 20
9.8682759907
 30
0.0
 10
14.0396042869
 20
9.8651684723
 30
0.0
  0
SPLINE
  5
37A
100
AcDbEntity
  8
0
100
AcDbSpline
 62
7
  6
CONTINUOUS
 70
0
 71
3
 72
41
 73
37
 74
0
 42
0.0000001
 43
0.0000001
 44
0.0000000001
 40
0.0
 40
0.0
 40
0.0
 40
0.0
 40
0.0310748272
 40
0.0623072483
 40
0.0936920359
 40
0.1252208484
 40
0.156882237
 40
0.188662033
 40
0.2205436266
 40
0.2525083437
 40
0.2845358343
 40
0.3166044929
 40
0.3486918936
 40
0.3807752384
 40
0.4128318095
 40
0.4448394218
 40
0.4767768664
 40
0.5086243418
 40
0.5403638639
 40
0.5719796493
 40
0.6034584635
 40
0.6347899281
 40
0.6659667781
 40
0.6969850622
 40
0.7278442783
 40
0.7585474376
 40
0.7891010512
 40
0.8195150346
 40
0.8498025274
 40
0.8649066426
 40
0.8799854039
 40
0.9100708284
 40
0.9400854823
 40
0.9550762294
 40
0.970057877
 40
1.0
 40
1.0
 40
1.0
 40
1.0
 10
8.2219659854
 20
9.2989222942
 30
0.0
 10
8.2219659854
 20
9.303781646
 30
0.0
 10
8.2216034779
 20
9.313528732
 30
0.0
 10
8.2199850234
 20
9.3281026896
 30
0.0
 10
8.2172995446
 20
9.3425910898
 30
0.0
 10
8.2135619565
 20
9.3569132952
 30
0.0
 10
8.2087929138
 20
9.3709909654
 30
0.0
 10
8.2030187257
 20
9.3847467515
 30
0.0
 10
8.1962711896
 20
9.3981051848
 30
0.0
 10
8.1885874265
 20
9.4109929587
 30
0.0
 10
8.1800096725
 20
9.4233393595
 30
0.0
 10
8.1705850504
 20
9.4350766407
 30
0.0
 10
8.1603653123
 20
9.4461403929
 30
0.0
 10
8.1494065579
 20
9.4564698925
 30
0.0
 10
8.1377689296
 20
9.4660084322
 30
0.0
 10
8.1255162862
 20
9.4747036288
 30
0.0
 10
8.1127158561
 20
9.4825077086
 30
0.0
 10
8.099437873
 20
9.4893777677
 30
0.0
 10
8.0857551954
 20
9.4952760063
 30
0.0
 10
8.0717429118
 20
9.5001699365
 30
0.0
 10
8.057477935
 20
9.5040325608
 30
0.0
 10
8.0430385855
 20
9.5068425229
 30
0.0
 10
8.0285041668
 20
9.5085842276
 30
0.0
 10
8.0139545399
 20
9.5092479341
 30
0.0
 10
7.9994696738
 20
9.5088298081
 30
0.0
 10
7.9851292688
 20
9.5073319785
 30
0.0
 10
7.9710121013
 20
9.5047624371
 30
0.0
 10
7.9571964045
 20
9.5011353664
 30
0.0
 10
7.9459855531
 20
9.4972435698
 30
0.0
 10
7.9372472385
 20
9.4936242962
 30
0.0
 10
7.9286858047
 20
9.4896793187
 30
0.0
 10
7.9183050374
 20
9.4841340174
 30
0.0
 10
7.9084056139
 20
9.4777944269
 30
0.0
 10
7.9008188895
 20
9.4722737217
 30
0.0
 10
7.8934663255
 20
9.4664638984
 30
0.0
 10
7.8882163113
 20
9.4617815005
 30
0.0
 10
7.8848486111
 20
9.4585285296
 30
0.0
  0
SPLINE
  5
37B
100
AcDbEntity
  8
0
100
AcDbSpline
 62
7
  6
CONTINUOUS
 70
0
 71
3
 72
41
 73
37
 74
0
 42
0.0000001
 43
0.0000001
 44
0.0000000001
 40
0.0
 40
0.0
 40
0.0
 40
0.0
 40
0.0310748272
 40
0.0623072483
 40
0.0936920359
 40
0.1252208484
 40
0.156882237
 40
0.188662033
 40
0.2205436266
 40
0.2525083437
 40
0.2845358343
 40
0.3166044929
 40
0.3486918936
 40
0.3807752384
 40
0.4128318095
 40
0.4448394218
 40
0.4767768664
 40
0.5086243418
 40
0.5403638639
 40
0.5719796493
 40
0.6034584635
 40
0.6347899281
 40
0.6659667781
 40
0.6969850622
 40
0.7278442783
 40
0.7585474376
 40
0.7891010512
 40
0.8195150346
 40
0.8498025274
 40
0.8649066426
 40
0.8799854039
 40
0.9100708284
 40
0.9400854823
 40
0.9550762294
 40
0.970057877
 40
1.0
 40
1.0
 40
1.0
 40
1.0
 10
12.8101139321
 20
7.0488813864
 30
0.0
 10
12.8101139321
 20
7.0537407382
 30
0.0
 10
12.8097514246
 20
7.0634878242
 30
0.0
 10
12.8081329701
 20
7.0780617818
 30
0.0
 10
12.8054474914
 20
7.092550182
 30
0.0
 10
12.8017099032
 20
7.1068723873
 30
0.0
 10
12.7969408606
 20
7.1209500575
 30
0.0
 10
12.7911666724
 20
7.1347058436
 30
0.0
 10
12.7844191364
 20
7.1480642769
 30
0.0
 10
12.7767353732
 20
7.1609520508
 30
0.0
 10
12.7681576192
 20
7.1732984517
 30
0.0
 10
12.7587329972
 20
7.1850357329
 30
0.0
 10
12.7485132591
 20
7.196099485
 30
0.0
 10
12.7375545046
 20
7.2064289847
 30
0.0
 10
12.7259168763
 20
7.2159675244
 30
0.0
 10
12.7136642329
 20
7.224662721
 30
0.0
 10
12.7008638029
 20
7.2324668008
 30
0.0
 10
12.6875858198
 20
7.2393368598
 30
0.0
 10
12.6739031421
 20
7.2452350985
 30
0.0
 10
12.6598908585
 20
7.2501290287
 30
0.0
 10
12.6456258817
 20
7.253991653
 30
0.0
 10
12.6311865322
 20
7.256801615
 30
0.0
 10
12.6166521135
 20
7.2585433198
 30
0.0
 10
12.6021024867
 20
7.2592070262
 30
0.0
 10
12.5876176205
 20
7.2587889003
 30
0.0
 10
12.5732772155
 20
7.2572910706
 30
0.0
 10
12.559160048
 20
7.2547215292
 30
0.0
 10
12.5453443513
 20
7.2510944585
 30
0.0
 10
12.5341334998
 20
7.2472026619
 30
0.0
 10
12.5253951852
 20
7.2435833884
 30
0.0
 10
12.5168337514
 20
7.2396384109
 30
0.0
 10
12.5064529842
 20
7.2340931095
 30
0.0
 10
12.4965535606
 20
7.227753519
 30
0.0
 10
12.4889668362
 20
7.2222328139
 30
0.0
 10
12.4816142722
 20
7.2164229905
 30
0.0
 10
12.476364258
 20
7.2117405926
 30
0.0
 10
12.4729965579
 20
7.2084876218
 30
0.0
  0
SPLINE
  5
37C
100
AcDbEntity
  8
0
100
AcDbSpline
 62
7
  6
CONTINUOUS
 70
0
 71
3
 72
53
 73
49
 74
0
 42
0.0000001
 43
0.0000001
 44
0.0000000001
 40
0.0
 40
0.0
 40
0.0
 40
0.0
 40
0.0417740478
 40
0.0840369835
 40
0.1266585592
 40
0.1695065657
 40
0.2124481957
 40
0.2553501644
 40
0.2980793779
 40
0.3405034127
 40
0.3824910553
 40
0.4239128269
 40
0.4646415185
 40
0.5045527309
 40
0.5435254266
 40
0.5814424966
 40
0.6181913512
 40
0.6536645436
 40
0.6877604426
 40
0.7203839756
 40
0.7361162401
 40
0.7514482063
 40
0.7663702194
 40
0.7808732533
 40
0.7949489098
 40
0.808589482
 40
0.8217880323
 40
0.8345384043
 40
0.8468353889
 40
0.8586746951
 40
0.8700532057
 40
0.8809689358
 40
0.8914213732
 40
0.9014114696
 40
0.9109420597
 40
0.9200179488
 40
0.9286464106
 40
0.9368374402
 40
0.9446043453
 40
0.9519642202
 40
0.9589386335
 40
0.9655543067
 40
0.9718438059
 40
0.9778461959
 40
0.9836073668
 40
0.9891800504
 40
0.9946230772
 40
1.0
 40
1.0
 40
1.0
 40
1.0
 10
13.0973803972
 20
9.206952003
 30
0.0
 10
13.0973803972
 20
9.2215409072
 30
0.0
 10
13.0976079992
 20
9.2508899102
 30
0.0
 10
13.0986141898
 20
9.2951134343
 30
0.0
 10
13.1002842158
 20
9.3396922657
 30
0.0
 10
13.1026126065
 20
9.3844788518
 30
0.0
 10
13.1055916651
 20
9.4293250044
 30
0.0
 10
13.1092115455
 20
9.4740823653
 30
0.0
 10
13.1134602559
 20
9.5186028559
 30
0.0
 10
13.118323712
 20
9.5627391925
 30
0.0
 10
13.1237857777
 20
9.6063453692
 30
0.0
 10
13.12982832
 20
9.6492771471
 30
0.0
 10
13.1364312673
 20
9.6913925352
 30
0.0
 10
13.1435726745
 20
9.7325522666
 30
0.0
 10
13.1512287947
 20
9.772620264
 30
0.0
 10
13.1593741549
 20
9.811464107
 30
0.0
 10
13.1679816424
 20
9.8489554535
 30
0.0
 10
13.1770225801
 20
9.8849705821
 30
0.0
 10
13.1864668683
 20
9.9193904635
 30
0.0
 10
13.1947438766
 20
9.9469735867
 30
0.0
 10
13.2015570583
 20
9.9681468978
 30
0.0
 10
13.206686155
 20
9.9833663516
 30
0.0
 10
13.2118920576
 20
9.9981052076
 30
0.0
 10
13.2171704668
 20
10.0123513173
 30
0.0
 10
13.2225170049
 20
10.0260929236
 30
0.0
 10
13.227927252
 20
10.0393186979
 30
0.0
 10
13.2333967044
 20
10.0520177509
 30
0.0
 10
13.2389208746
 20
10.0641796251
 30
0.0
 10
13.2444951444
 20
10.0757943397
 30
0.0
 10
13.2501149806
 20
10.0868523472
 30
0.0
 10
13.2557756786
 20
10.0973446175
 30
0.0
 10
13.2614726814
 20
10.1072625496
 30
0.0
 10
13.2672012409
 20
10.116598102
 30
0.0
 10
13.2729568035
 20
10.1253436559
 30
0.0
 10
13.2787346408
 20
10.1334921846
 30
0.0
 10
13.2845302457
 20
10.1410370784
 30
0.0
 10
13.2903389988
 20
10.1479723264
 30
0.0
 10
13.29615651
 20
10.1542923241
 30
0.0
 10
13.3019783832
 20
10.1599920149
 30
0.0
 10
13.3078004381
 20
10.1650667118
 30
0.0
 10
13.3136185973
 20
10.1695121177
 30
0.0
 10
13.3194289169
 20
10.1733242077
 30
0.0
 10
13.3252275294
 20
10.1764990547
 30
0.0
 10
13.3310104242
 20
10.1790328923
 30
0.0
 10
13.3367732049
 20
10.1809218205
 30
0.0
 10
13.3425110613
 20
10.1821623289
 30
0.0
 10
13.3482170755
 20
10.1827512508
 30
0.0
 10
13.3520053818
 20
10.1827080252
 30
0.0
 10
13.3538786849
 20
10.1825781108
 30
0.0
  0
SPLINE
  5
37D
100
AcDbEntity
  8
0
100
AcDbSpline
 62
7
  6
CONTINUOUS
 70
0
 71
3
 72
86
 73
82
 74
0
 42
0.0000001
 43
0.0000001
 44
0.0000000001
 40
0.0
 40
0.0
 40
0.0
 40
0.0
 40
0.0039801735
 40
0.0081241171
 40
0.0124359931
 40
0.016919361
 40
0.0215772361
 40
0.0264119817
 40
0.0314252561
 40
0.0366182449
 40
0.0419916453
 40
0.0475457694
 40
0.0532805541
 40
0.0591955582
 40
0.0652900785
 40
0.0715630739
 40
0.0846387684
 40
0.0984101018
 40
0.112860694
 40
0.1279712428
 40
0.1437198619
 40
0.1600823544
 40
0.1770324406
 40
0.1945419645
 40
0.2125810668
 40
0.2311183398
 40
0.2501209668
 40
0.2695548486
 40
0.289384725
 40
0.3095742955
 40
0.3300863312
 40
0.3508827821
 40
0.3719248818
 40
0.3931732491
 40
0.4145879914
 40
0.4577543474
 40
0.501099203
 40
0.5442952951
 40
0.5657359749
 40
0.587017582
 40
0.6081001434
 40
0.6289441761
 40
0.6495107926
 40
0.6697618048
 40
0.6896598276
 40
0.709168385
 40
0.7282520204
 40
0.7468764117
 40
0.7650084972
 40
0.7826166038
 40
0.7996705814
 40
0.8161419537
 40
0.8320040874
 40
0.8472323859
 40
0.8618045214
 40
0.8757007003
 40
0.8889039845
 40
0.9014006969
 40
0.9073810972
 40
0.9131815075
 40
0.9188013673
 40
0.9242405009
 40
0.9294990443
 40
0.9345775709
 40
0.9394770909
 40
0.9441990928
 40
0.9487456636
 40
0.9531194621
 40
0.9573238984
 40
0.9613631411
 40
0.9652422549
 40
0.9689673208
 40
0.9725454977
 40
0.9759852252
 40
0.9824864215
 40
0.9855752926
 40
0.9885737717
 40
0.9914977072
 40
0.9943643167
 40
0.9971920017
 40
1.0
 40
1.0
 40
1.0
 40
1.0
 10
10.7584257589
 20
10.9068432311
 30
0.0
 10
10.7568274512
 20
10.9052993843
 30
0.0
 10
10.753492486
 20
10.9022226031
 30
0.0
 10
10.7481975787
 20
10.8977287211
 30
0.0
 10
10.7425138407
 20
10.8932670564
 30
0.0
 10
10.7364443923
 20
10.8888400124
 30
0.0
 10
10.7299922137
 20
10.8844496353
 30
0.0
 10
10.7231604439
 20
10.8800980836
 30
0.0
 10
10.7159525072
 20
10.8757874125
 30
0.0
 10
10.7083719761
 20
10.8715198658
 30
0.0
 10
10.7004226746
 20
10.8672975173
 30
0.0
 10
10.6921085714
 20
10.8631224934
 30
0.0
 10
10.6834338244
 20
10.8589969072
 30
0.0
 10
10.6744028076
 20
10.8549227852
 30
0.0
 10
10.6650200266
 20
10.8509022236
 30
0.0
 10
10.6518645461
 20
10.8455413211
 30
0.0
 10
10.6345639862
 20
10.8390031832
 30
0.0
 10
10.6127564385
 20
10.8315071129
 30
0.0
 10
10.589667956
 20
10.8242713163
 30
0.0
 10
10.5653450881
 20
10.8173105007
 30
0.0
 10
10.5398366598
 20
10.810638836
 30
0.0
 10
10.513194056
 20
10.8042699124
 30
0.0
 10
10.48547099
 20
10.7982166991
 30
0.0
 10
10.4567234106
 20
10.7924915261
 30
0.0
 10
10.4270093668
 20
10.7871060545
 30
0.0
 10
10.3963888872
 20
10.7820712526
 30
0.0
 10
10.3649238549
 20
10.7773973747
 30
0.0
 10
10.3326778814
 20
10.7730939367
 30
0.0
 10
10.2997161755
 20
10.7691696925
 30
0.0
 10
10.266105404
 20
10.7656326252
 30
0.0
 10
10.2319135547
 20
10.7624899307
 30
0.0
 10
10.1972097914
 20
10.7597479994
 30
0.0
 10
10.1620643403
 20
10.7574124211
 30
0.0
 10
10.1265482504
 20
10.7554879076
 30
0.0
 10
10.0786703265
 20
10.7534701097
 30
0.0
 10
10.0184258667
 20
10.7520044678
 30
0.0
 10
9.9460028084
 20
10.7519280507
 30
0.0
 10
9.8857243085
 20
10.7532663065
 30
0.0
 10
9.8377925301
 20
10.7551823982
 30
0.0
 10
9.8022167438
 20
10.7570317005
 30
0.0
 10
9.7669985767
 20
10.7592928378
 30
0.0
 10
9.7322092267
 20
10.7619612544
 30
0.0
 10
9.6979190962
 20
10.7650315132
 30
0.0
 10
9.6641975493
 20
10.7684973686
 30
0.0
 10
9.6311127975
 20
10.7723517685
 30
0.0
 10
9.5987317557
 20
10.776586871
 30
0.0
 10
9.5671199074
 20
10.7811940586
 30
0.0
 10
9.5363411674
 20
10.7861639576
 30
0.0
 10
9.5064577457
 20
10.7914864481
 30
0.0
 10
9.477530017
 20
10.7971506879
 30
0.0
 10
9.4496163973
 20
10.8031451392
 30
0.0
 10
9.4227732216
 20
10.809457591
 30
0.0
 10
9.3970546247
 20
10.8160751849
 30
0.0
 10
9.3725124071
 20
10.8229844478
 30
0.0
 10
9.3491959474
 20
10.8301713126
 30
0.0
 10
9.327151952
 20
10.8376211665
 30
0.0
 10
9.3064248063
 20
10.8453188852
 30
0.0
 10
9.290052235
 20
10.8520218162
 30
0.0
 10
9.2776573317
 20
10.8575088779
 30
0.0
 10
9.2688524645
 20
10.8616159924
 30
0.0
 10
9.2604066947
 20
10.8657732931
 30
0.0
 10
9.2523242195
 20
10.8699786513
 30
0.0
 10
9.2446091125
 20
10.8742300155
 30
0.0
 10
9.2372652208
 20
10.8785252348
 30
0.0
 10
9.2302962026
 20
10.8828621615
 30
0.0
 10
9.2237055605
 20
10.8872387078
 30
0.0
 10
9.2174965294
 20
10.8916526423
 30
0.0
 10
9.2116722476
 20
10.8961019062
 30
0.0
 10
9.2062355675
 20
10.9005842893
 30
0.0
 10
9.2011892233
 20
10.9050976776
 30
0.0
 10
9.1965357351
 20
10.9096400144
 30
0.0
 10
9.1922775083
 20
10.9142089823
 30
0.0
 10
9.1884164762
 20
10.9188031347
 30
0.0
 10
9.1838870293
 20
10.9248438353
 30
0.0
 10
9.1800408476
 20
10.9310474177
 30
0.0
 10
9.1769870956
 20
10.9373834314
 30
0.0
 10
9.175142059
 20
10.9420694025
 30
0.0
 10
9.1737051892
 20
10.9467667526
 30
0.0
 10
9.1726778234
 20
10.9514732477
 30
0.0
 10
9.1720609177
 20
10.9561854891
 30
0.0
 10
9.1719235839
 20
10.9593336443
 30
0.0
 10
9.1719235769
 20
10.9609013791
 30
0.0
  0
SPLINE
  5
37E
100
AcDbEntity
  8
0
100
AcDbSpline
 62
7
  6
CONTINUOUS
 70
0
 71
3
 72
70
 73
66
 74
0
 42
0.0000001
 43
0.0000001
 44
0.0000000001
 40
0.0
 40
0.0
 40
0.0
 40
0.0
 40
0.0079841678
 40
0.0166120043
 40
0.0259080593
 40
0.0358882131
 40
0.0465601391
 40
0.0579253345
 40
0.0699801852
 40
0.0827167862
 40
0.0961235902
 40
0.1101858827
 40
0.1248862199
 40
0.1402047448
 40
0.156119415
 40
0.1726062192
 40
0.189639394
 40
0.2071915793
 40
0.2252339314
 40
0.2437362648
 40
0.2626671921
 40
0.2819942263
 40
0.3016838636
 40
0.3217017026
 40
0.3625797311
 40
0.4043396505
 40
0.4466836019
 40
0.4893082664
 40
0.5319077258
 40
0.574176292
 40
0.6158113481
 40
0.6565162129
 40
0.676429862
 40
0.6960038835
 40
0.7152041758
 40
0.7339975606
 40
0.7523518813
 40
0.7702361362
 40
0.7876205876
 40
0.804476862
 40
0.8207780835
 40
0.836499058
 40
0.8516164218
 40
0.8661088153
 40
0.8799571189
 40
0.893144769
 40
0.9056580649
 40
0.9174865788
 40
0.9286237164
 40
0.9390674579
 40
0.944030567
 40
0.9488221421
 40
0.9534436765
 40
0.9578972005
 40
0.9621852662
 40
0.966311132
 40
0.970278762
 40
0.9740929095
 40
0.9777592977
 40
0.9812846197
 40
0.9846767057
 40
0.9879446418
 40
0.9941474555
 40
0.9971108287
 40
1.0
 40
1.0
 40
1.0
 40
1.0
 10
10.5343309539
 20
10.8914746296
 30
0.0
 10
10.532067232
 20
10.889288042
 30
0.0
 10
10.5271494929
 20
10.8849510055
 30
0.0
 10
10.5190023289
 20
10.8787804228
 30
0.0
 10
10.509821645
 20
10.8727097511
 30
0.0
 10
10.4996250173
 20
10.8667500705
 30
0.0
 10
10.4884306526
 20
10.8609118317
 30
0.0
 10
10.4762593672
 20
10.8552058613
 30
0.0
 10
10.4631338611
 20
10.8496428705
 30
0.0
 10
10.4490788225
 20
10.8442334744
 30
0.0
 10
10.4341208528
 20
10.8389880515
 30
0.0
 10
10.418288396
 20
10.8339166897
 30
0.0
 10
10.4016116413
 20
10.8290291834
 30
0.0
 10
10.3841224495
 20
10.8243349974
 30
0.0
 10
10.3658542987
 20
10.8198432174
 30
0.0
 10
10.3468422093
 20
10.8155625263
 30
0.0
 10
10.3271226512
 20
10.8115012134
 30
0.0
 10
10.3067334714
 20
10.807667155
 30
0.0
 10
10.2857138309
 20
10.8040677684
 30
0.0
 10
10.2641041231
 20
10.8007100103
 30
0.0
 10
10.2419458764
 20
10.7976003773
 30
0.0
 10
10.219281693
 20
10.794744908
 30
0.0
 10
10.1961551166
 20
10.7921490812
 30
0.0
 10
10.1645425478
 20
10.7890192444
 30
0.0
 10
10.1241996258
 20
10.7858032178
 30
0.0
 10
10.0750038115
 20
10.7830708811
 30
0.0
 10
10.0250696144
 20
10.7814606718
 30
0.0
 10
9.9747809017
 20
10.7809851019
 30
0.0
 10
9.9245240204
 20
10.7816479241
 30
0.0
 10
9.8746850661
 20
10.7834439155
 30
0.0
 10
9.8256471686
 20
10.7863591303
 30
0.0
 10
9.7854755989
 20
10.7897260027
 30
0.0
 10
9.754030726
 20
10.7929745915
 30
0.0
 10
9.7310514892
 20
10.7956564882
 30
0.0
 10
9.7085490903
 20
10.7985962561
 30
0.0
 10
9.6865667577
 20
10.801788247
 30
0.0
 10
9.6651467626
 20
10.8052262892
 30
0.0
 10
9.6443302659
 20
10.8089037274
 30
0.0
 10
9.6241572535
 20
10.8128134342
 30
0.0
 10
9.604666466
 20
10.816947842
 30
0.0
 10
9.5858953178
 20
10.8212989619
 30
0.0
 10
9.5678798041
 20
10.8258583595
 30
0.0
 10
9.5506544329
 20
10.830617201
 30
0.0
 10
9.5342521651
 20
10.8355662803
 30
0.0
 10
9.5187043365
 20
10.8406960463
 30
0.0
 10
9.5040405511
 20
10.8459965861
 30
0.0
 10
9.4902886659
 20
10.8514576896
 30
0.0
 10
9.4774745823
 20
10.8570689283
 30
0.0
 10
9.4656226752
 20
10.8628195995
 30
0.0
 10
9.4564156343
 20
10.8678002448
 30
0.0
 10
9.4495628198
 20
10.8718557562
 30
0.0
 10
9.444765285
 20
10.8748736233
 30
0.0
 10
9.4402244397
 20
10.8779180567
 30
0.0
 10
9.4359423954
 20
10.8809876253
 30
0.0
 10
9.4319212219
 20
10.8840809658
 30
0.0
 10
9.4281627951
 20
10.887196617
 30
0.0
 10
9.4246688846
 20
10.8903331595
 30
0.0
 10
9.4214412127
 20
10.8934892375
 30
0.0
 10
9.418481259
 20
10.8966634218
 30
0.0
 10
9.4157905662
 20
10.8998542483
 30
0.0
 10
9.4133703155
 20
10.903060772
 30
0.0
 10
9.4105552335
 20
10.907280139
 30
0.0
 10
9.4082146659
 20
10.9116069277
 30
0.0
 10
9.4064202161
 20
10.9160109842
 30
0.0
 10
9.4057127537
 20
10.9182098583
 30
0.0
 10
9.4054075833
 20
10.9193071072
 30
0.0
  0
SPLINE
  5
37F
100
AcDbEntity
  8
0
100
AcDbSpline
 62
7
  6
CONTINUOUS
 70
0
 71
3
 72
14
 73
10
 74
0
 42
0.0000001
 43
0.0000001
 44
0.0000000001
 40
0.0
 40
0.0
 40
0.0
 40
0.0
 40
0.1431578903
 40
0.2803483611
 40
0.5380013835
 40
0.6594040829
 40
0.7764759283
 40
0.8897936931
 40
1.0
 40
1.0
 40
1.0
 40
1.0
 10
10.5343309539
 20
10.8914746296
 30
0.0
 10
10.5354836978
 20
10.8925880947
 30
0.0
 10
10.5376911778
 20
10.8948216211
 30
0.0
 10
10.5416994125
 20
10.8993192512
 30
0.0
 10
10.5451869322
 20
10.9039498043
 30
0.0
 10
10.5480652926
 20
10.9087045371
 30
0.0
 10
10.5498605556
 20
10.912214212
 30
0.0
 10
10.5513334379
 20
10.9157353629
 30
0.0
 10
10.5521089163
 20
10.9181182497
 30
0.0
 10
10.5524395175
 20
10.9193069218
 30
0.0
  0
SPLINE
  5
380
100
AcDbEntity
  8
0
100
AcDbSpline
 62
7
  6
CONTINUOUS
 70
0
 71
3
 72
41
 73
37
 74
0
 42
0.0000001
 43
0.0000001
 44
0.0000000001
 40
0.0
 40
0.0
 40
0.0
 40
0.0
 40
0.0311444435
 40
0.0624425082
 40
0.0938872491
 40
0.1254695823
 40
0.1571771047
 40
0.1889951244
 40
0.2209066755
 40
0.2528929806
 40
0.2849337954
 40
0.3170078208
 40
0.3490931155
 40
0.3811675209
 40
0.4132090884
 40
0.4451965039
 40
0.4771095035
 40
0.5089292748
 40
0.5406388381
 40
0.5722234001
 40
0.6036706745
 40
0.6349711617
 40
0.666118382
 40
0.6971090532
 40
0.7279432083
 40
0.7586242446
 40
0.7891589004
 40
0.819557156
 40
0.849832054
 40
0.8649308927
 40
0.8800050544
 40
0.9100832588
 40
0.9400926743
 40
0.955081275
 40
0.9700610362
 40
1.0
 40
1.0
 40
1.0
 40
1.0
 10
11.0622599164
 20
7.7546165197
 30
0.0
 10
11.0672367386
 20
7.7542713759
 30
0.0
 10
11.0771933693
 20
7.7532150861
 30
0.0
 10
11.0920075865
 20
7.7505543358
 30
0.0
 10
11.106663158
 20
7.7468273336
 30
0.0
 10
11.1210808634
 20
7.7420542497
 30
0.0
 10
11.1351841594
 20
7.7362605818
 30
0.0
 10
11.1488977999
 20
7.7294773641
 30
0.0
 10
11.1621487328
 20
7.7217408276
 30
0.0
 10
11.1748663496
 20
7.7130922878
 30
0.0
 10
11.1869828906
 20
7.7035778901
 30
0.0
 10
11.1984337943
 20
7.6932483799
 30
0.0
 10
11.2091580387
 20
7.6821588283
 30
0.0
 10
11.2190984628
 20
7.6703683436
 30
0.0
 10
11.228202069
 20
7.6579397586
 30
0.0
 10
11.2364203021
 20
7.644939299
 30
0.0
 10
11.243709307
 20
7.6314362351
 30
0.0
 10
11.2500301604
 20
7.6175025163
 30
0.0
 10
11.255349078
 20
7.6032123929
 30
0.0
 10
11.2596375948
 20
7.5886420256
 30
0.0
 10
11.2628727179
 20
7.5738690845
 30
0.0
 10
11.2650370515
 20
7.5589723416
 30
0.0
 10
11.2661188931
 20
7.5440312547
 30
0.0
 10
11.2661123033
 20
7.5291255533
 30
0.0
 10
11.2650171362
 20
7.5143348019
 30
0.0
 10
11.2628390777
 20
7.4997380364
 30
0.0
 10
11.2595895172
 20
7.4854131295
 30
0.0
 10
11.2552858917
 20
7.471437167
 30
0.0
 10
11.2508352286
 20
7.4601314305
 30
0.0
 10
11.2467737576
 20
7.4513394765
 30
0.0
 10
11.2423906649
 20
7.4427386809
 30
0.0
 10
11.2363049773
 20
7.4323355736
 30
0.0
 10
11.2294365613
 20
7.4224483651
 30
0.0
 10
11.2235012768
 20
7.4148908011
 30
0.0
 10
11.217282806
 20
7.4075799577
 30
0.0
 10
11.2123007514
 20
7.4023752403
 30
0.0
 10
11.2088514384
 20
7.3990434563
 30
0.0
  0
SPLINE
  5
381
100
AcDbEntity
  8
0
100
AcDbSpline
 62
7
  6
CONTINUOUS
 70
0
 71
3
 72
19
 73
15
 74
0
 42
0.0000001
 43
0.0000001
 44
0.0000000001
 40
0.0
 40
0.0
 40
0.0
 40
0.0
 40
0.1274847103
 40
0.2540882156
 40
0.3798556622
 40
0.504861426
 40
0.5671331007
 40
0.629257493
 40
0.6912525047
 40
0.7531374363
 40
0.8149327837
 40
0.8766600671
 40
0.9383415538
 40
1.0
 40
1.0
 40
1.0
 40
1.0
 10
11.0622599164
 20
7.7546165197
 30
0.0
 10
11.0554695055
 20
7.7550874363
 30
0.0
 10
11.0418787449
 20
7.7553525433
 30
0.0
 10
11.0216314589
 20
7.7536927512
 30
0.0
 10
11.0017892431
 20
7.7499914498
 30
0.0
 10
10.9857336932
 20
7.7452272325
 30
0.0
 10
10.9733015921
 20
7.7404419022
 30
0.0
 10
10.9642113109
 20
7.7363794548
 30
0.0
 10
10.9553679804
 20
7.7318499207
 30
0.0
 10
10.9467935724
 20
7.7268645492
 30
0.0
 10
10.938509822
 20
7.7214359098
 30
0.0
 10
10.930537456
 20
7.7155776728
 30
0.0
 10
10.9228968938
 20
7.7093047805
 30
0.0
 10
10.9180362478
 20
7.7048560334
 30
0.0
 10
10.9156683944
 20
7.7025688603
 30
0.0
  0
SPLINE
  5
382
100
AcDbEntity
  8
0
100
AcDbSpline
 62
7
  6
CONTINUOUS
 70
0
 71
3
 72
15
 73
11
 74
0
 42
0.0000001
 43
0.0000001
 44
0.0000000001
 40
0.0
 40
0.0
 40
0.0
 40
0.0
 40
0.1234394136
 40
0.2470466177
 40
0.370982561
 40
0.4953948844
 40
0.6204121622
 40
0.7461393429
 40
0.8726517211
 40
1.0
 40
1.0
 40
1.0
 40
1.0
 10
8.1669174509
 20
9.166512857
 30
0.0
 10
8.171276151
 20
9.1707230669
 30
0.0
 10
8.1795717313
 20
9.1796053346
 30
0.0
 10
8.1905891689
 20
9.1941459787
 30
0.0
 10
8.2000885348
 20
9.2097787437
 30
0.0
 10
8.2079805395
 20
9.2263571491
 30
0.0
 10
8.2141931888
 20
9.2437281298
 30
0.0
 10
8.2186695038
 20
9.2617314914
 30
0.0
 10
8.2213690493
 20
9.2801988594
 30
0.0
 10
8.2219659854
 20
9.2926703512
 30
0.0
 10
8.2219659854
 20
9.2989222942
 30
0.0
  0
SPLINE
  5
383
100
AcDbEntity
  8
0
100
AcDbSpline
 62
7
  6
CONTINUOUS
 70
0
 71
3
 72
15
 73
11
 74
0
 42
0.0000001
 43
0.0000001
 44
0.0000000001
 40
0.0
 40
0.0
 40
0.0
 40
0.0
 40
0.1234394136
 40
0.2470466177
 40
0.370982561
 40
0.4953948844
 40
0.6204121622
 40
0.7461393429
 40
0.8726517211
 40
1.0
 40
1.0
 40
1.0
 40
1.0
 10
12.7550653976
 20
6.9164719491
 30
0.0
 10
12.7594240977
 20
6.920682159
 30
0.0
 10
12.7677196781
 20
6.9295644267
 30
0.0
 10
12.7787371156
 20
6.9441050709
 30
0.0
 10
12.7882364815
 20
6.9597378358
 30
0.0
 10
12.7961284862
 20
6.9763162413
 30
0.0
 10
12.8023411355
 20
6.9936872219
 30
0.0
 10
12.8068174506
 20
7.0116905835
 30
0.0
 10
12.809516996
 20
7.0301579516
 30
0.0
 10
12.8101139321
 20
7.0426294433
 30
0.0
 10
12.8101139321
 20
7.0488813864
 30
0.0
  0
SPLINE
  5
384
100
AcDbEntity
  8
0
100
AcDbSpline
 62
7
  6
CONTINUOUS
 70
0
 71
3
 72
18
 73
14
 74
0
 42
0.0000001
 43
0.0000001
 44
0.0000000001
 40
0.0
 40
0.0
 40
0.0
 40
0.0
 40
0.0548621106
 40
0.1099281304
 40
0.165399556
 40
0.2214731722
 40
0.2783387379
 40
0.3361775111
 40
0.4554063056
 40
0.5804414047
 40
0.7123341351
 40
0.8519581983
 40
1.0
 40
1.0
 40
1.0
 40
1.0
 10
10.7859235649
 20
10.9609024037
 30
0.0
 10
10.7859235701
 20
10.9597626841
 30
0.0
 10
10.7858512426
 20
10.9574783542
 30
0.0
 10
10.7855260277
 20
10.9540555719
 30
0.0
 10
10.7849841266
 20
10.9506347646
 30
0.0
 10
10.7842257441
 20
10.9472171806
 30
0.0
 10
10.7832511995
 20
10.9438036736
 30
0.0
 10
10.7816482544
 20
10.9392134279
 30
0.0
 10
10.7790803529
 20
10.9334722645
 30
0.0
 10
10.7751718368
 20
10.9266919213
 30
0.0
 10
10.7704114525
 20
10.9199554555
 30
0.0
 10
10.7648064422
 20
10.9132696563
 30
0.0
 10
10.7606377964
 20
10.9089798954
 30
0.0
 10
10.7584257589
 20
10.9068432311
 30
0.0
  0
SPLINE
  5
385
100
AcDbEntity
  8
0
100
AcDbSpline
 62
7
  6
CONTINUOUS
 70
0
 71
3
 72
47
 73
43
 74
0
 42
0.0000001
 43
0.0000001
 44
0.0000000001
 40
0.0
 40
0.0
 40
0.0
 40
0.0
 40
0.0063158953
 40
0.0126706964
 40
0.0191025413
 40
0.0256481068
 40
0.0323419887
 40
0.0392163511
 40
0.0536141938
 40
0.0611949453
 40
0.0690567093
 40
0.0772178306
 40
0.0856942536
 40
0.094499648
 40
0.1036457893
 40
0.1131425899
 40
0.1229983503
 40
0.1332200167
 40
0.1438131323
 40
0.1547821683
 40
0.1661305713
 40
0.1899729423
 40
0.2153524409
 40
0.2422683478
 40
0.2707106917
 40
0.3006617255
 40
0.3320970385
 40
0.3649863926
 40
0.3992943516
 40
0.4349809011
 40
0.4720019229
 40
0.5103095575
 40
0.5498524869
 40
0.5905762826
 40
0.6324236706
 40
0.6753347453
 40
0.7192471563
 40
0.7640962954
 40
0.8098156376
 40
0.856336788
 40
0.9035890146
 40
1.0
 40
1.0
 40
1.0
 40
1.0
 10
13.245674762
 20
8.6223255956
 30
0.0
 10
13.2443530355
 20
8.622417258
 30
0.0
 10
13.2417076901
 20
8.6227093645
 30
0.0
 10
13.2377693117
 20
8.6234706515
 30
0.0
 10
13.2338572511
 20
8.6245550985
 30
0.0
 10
13.2299738291
 20
8.625961908
 30
0.0
 10
13.2261205105
 20
8.6276901295
 30
0.0
 10
13.2209465771
 20
8.6304636675
 30
0.0
 10
13.2159131107
 20
8.6338588374
 30
0.0
 10
13.2110420409
 20
8.6377933733
 30
0.0
 10
13.2073627221
 20
8.6411106255
 30
0.0
 10
13.2037226811
 20
8.6447413546
 30
0.0
 10
13.2001228809
 20
8.6486843092
 30
0.0
 10
13.1965647105
 20
8.6529377198
 30
0.0
 10
13.1930495482
 20
8.6574999141
 30
0.0
 10
13.1895787213
 20
8.6623690032
 30
0.0
 10
13.1861535499
 20
8.6675430012
 30
0.0
 10
13.1827754434
 20
8.6730198478
 30
0.0
 10
13.1794456862
 20
8.6787972824
 30
0.0
 10
13.1761655958
 20
8.6848729893
 30
0.0
 10
13.1717880236
 20
8.6935110511
 30
0.0
 10
13.1664646076
 20
8.7050534892
 30
0.0
 10
13.160396676
 20
8.71983191
 30
0.0
 10
13.154557667
 20
8.7357339773
 30
0.0
 10
13.1489571331
 20
8.7527337416
 30
0.0
 10
13.1436042631
 20
8.770803757
 30
0.0
 10
13.1385079182
 20
8.7899145882
 30
0.0
 10
13.1336765669
 20
8.8100350336
 30
0.0
 10
13.129118228
 20
8.8311321348
 30
0.0
 10
13.124840487
 20
8.8531712745
 30
0.0
 10
13.120850474
 20
8.8761162504
 30
0.0
 10
13.1171548495
 20
8.8999293313
 30
0.0
 10
13.113759759
 20
8.9245713185
 30
0.0
 10
13.1106708578
 20
8.9500016258
 30
0.0
 10
13.1078932978
 20
8.9761783585
 30
0.0
 10
13.1054317185
 20
9.0030583783
 30
0.0
 10
13.103290214
 20
9.0305973597
 30
0.0
 10
13.1014723454
 20
9.0587499005
 30
0.0
 10
13.0999811595
 20
9.0874695672
 30
0.0
 10
13.0988191352
 20
9.1167089671
 30
0.0
 10
13.0977039002
 20
9.1565894596
 30
0.0
 10
13.0973803972
 20
9.1867276309
 30
0.0
 10
13.0973803972
 20
9.206952003
 30
0.0
  0
SPLINE
  5
386
100
AcDbEntity
  8
0
100
AcDbSpline
 62
7
  6
CONTINUOUS
 70
0
 71
3
 72
32
 73
28
 74
0
 42
0.0000001
 43
0.0000001
 44
0.0000000001
 40
0.0
 40
0.0
 40
0.0
 40
0.0
 40
0.030992136
 40
0.0619159764
 40
0.0927761188
 40
0.1235793387
 40
0.1543344526
 40
0.185052317
 40
0.2157456281
 40
0.2464284576
 40
0.2771158425
 40
0.3078236341
 40
0.3385678691
 40
0.3693641888
 40
0.4002276167
 40
0.4311720938
 40
0.4622098407
 40
0.4933511078
 40
0.5559545551
 40
0.6190268267
 40
0.6507384626
 40
0.6825484323
 40
0.7463790904
 40
0.8103434167
 40
0.8741672979
 40
0.9375095478
 40
1.0
 40
1.0
 40
1.0
 40
1.0
 10
11.0357327347
 20
7.7546052452
 30
0.0
 10
11.0353550645
 20
7.7510378611
 30
0.0
 10
11.0348066649
 20
7.7438873468
 30
0.0
 10
11.0346117003
 20
7.7331444934
 30
0.0
 10
11.0350460798
 20
7.7224301384
 30
0.0
 10
11.036107576
 20
7.7117793715
 30
0.0
 10
11.0377905961
 20
7.7012256657
 30
0.0
 10
11.0400863132
 20
7.6908011904
 30
0.0
 10
11.0429829415
 20
7.6805362486
 30
0.0
 10
11.0464662158
 20
7.6704591219
 30
0.0
 10
11.050519746
 20
7.6605958954
 30
0.0
 10
11.0551252403
 20
7.6509703119
 30
0.0
 10
11.0602630681
 20
7.6416038488
 30
0.0
 10
11.0659126477
 20
7.6325158739
 30
0.0
 10
11.0720526507
 20
7.6237237097
 30
0.0
 10
11.078661192
 20
7.6152429242
 30
0.0
 10
11.0857164587
 20
7.6070873791
 30
0.0
 10
11.095705002
 20
7.5966475748
 30
0.0
 10
11.1092072696
 20
7.5844714313
 30
0.0
 10
11.1238440807
 20
7.5735797431
 30
0.0
 10
11.1361689432
 20
7.5656464616
 30
0.0
 10
11.1489111139
 20
7.5582264174
 30
0.0
 10
11.165477176
 20
7.5499922227
 30
0.0
 10
11.1861396561
 20
7.5418573544
 30
0.0
 10
11.2073691418
 20
7.5355348855
 30
0.0
 10
11.2288954989
 20
7.531098381
 30
0.0
 10
11.2433870212
 20
7.529421603
 30
0.0
 10
11.2506029196
 20
7.5289211787
 30
0.0
  0
SPLINE
  5
387
100
AcDbEntity
  8
0
100
AcDbSpline
 62
7
  6
CONTINUOUS
 70
0
 71
3
 72
41
 73
37
 74
0
 42
0.0000001
 43
0.0000001
 44
0.0000000001
 40
0.0
 40
0.0
 40
0.0
 40
0.0
 40
0.0112373538
 40
0.022857817
 40
0.0348550681
 40
0.0472219882
 40
0.073032637
 40
0.1002217112
 40
0.1287118276
 40
0.1584182254
 40
0.1892496573
 40
0.2211091616
 40
0.2538947544
 40
0.287500065
 40
0.3218149353
 40
0.3567259914
 40
0.3921171985
 40
0.4278704037
 40
0.4638658709
 40
0.4999828107
 40
0.5360999074
 40
0.5720958445
 40
0.6078498308
 40
0.6432421266
 40
0.6781545744
 40
0.7124711333
 40
0.746078422
 40
0.7788662732
 40
0.8107283061
 40
0.8415625246
 40
0.8712719532
 40
0.899765329
 40
0.9269578734
 40
0.9527721828
 40
0.9771392928
 40
1.0
 40
1.0
 40
1.0
 40
1.0
 10
10.380828958
 20
10.8235655143
 30
0.0
 10
10.3779671971
 20
10.8246241991
 30
0.0
 10
10.3721232291
 20
10.8267162483
 30
0.0
 10
10.3631520675
 20
10.82973301
 30
0.0
 10
10.3538351728
 20
10.8326789099
 30
0.0
 10
10.34077623
 20
10.8365641652
 30
0.0
 10
10.3236425998
 20
10.8412096665
 30
0.0
 10
10.3021265008
 20
10.8463850724
 30
0.0
 10
10.2794485271
 20
10.8512188481
 30
0.0
 10
10.2556901173
 20
10.8556934329
 30
0.0
 10
10.2309364235
 20
10.8597925303
 30
0.0
 10
10.2052763341
 20
10.8635012321
 30
0.0
 10
10.1788020323
 20
10.8668060532
 30
0.0
 10
10.1516086796
 20
10.8696949843
 30
0.0
 10
10.1237940546
 20
10.8721575321
 30
0.0
 10
10.0954581958
 20
10.8741847555
 30
0.0
 10
10.0667030348
 20
10.8757692963
 30
0.0
 10
10.0376320248
 20
10.8769054047
 30
0.0
 10
10.0083497647
 20
10.8775889591
 30
0.0
 10
9.9789616193
 20
10.8778174797
 30
0.0
 10
9.9495733372
 20
10.8775901377
 30
0.0
 10
9.9202906673
 20
10.8769077577
 30
0.0
 10
9.8912189761
 20
10.8757728151
 30
0.0
 10
9.8624628647
 20
10.8741894274
 30
0.0
 10
9.8341257899
 20
10.8721633403
 30
0.0
 10
9.8063096875
 20
10.8697019078
 30
0.0
 10
9.7791146013
 20
10.8668140669
 30
0.0
 10
9.7526383164
 20
10.863510307
 30
0.0
 10
9.7269760002
 20
10.8598026338
 30
0.0
 10
9.7022198482
 20
10.8557045275
 30
0.0
 10
9.6784587432
 20
10.8512308967
 30
0.0
 10
9.6557778974
 20
10.8463980202
 30
0.0
 10
9.6342585854
 20
10.8412235044
 30
0.0
 10
9.6139775813
 20
10.8357261499
 30
0.0
 10
9.5950076302
 20
10.8299260839
 30
0.0
 10
9.5828839163
 20
10.8257347894
 30
0.0
 10
9.577061867
 20
10.8235816678
 30
0.0
  0
SPLINE
  5
388
100
AcDbEntity
  8
0
100
AcDbSpline
 62
7
  6
CONTINUOUS
 70
0
 71
3
 72
86
 73
82
 74
0
 42
0.0000001
 43
0.0000001
 44
0.0000000001
 40
0.0
 40
0.0
 40
0.0
 40
0.0
 40
0.0039801735
 40
0.0081241171
 40
0.0124359931
 40
0.016919361
 40
0.0215772361
 40
0.0264119817
 40
0.0314252561
 40
0.0366182449
 40
0.0419916453
 40
0.0475457694
 40
0.0532805541
 40
0.0591955582
 40
0.0652900785
 40
0.0715630739
 40
0.0846387684
 40
0.0984101018
 40
0.112860694
 40
0.1279712428
 40
0.1437198619
 40
0.1600823544
 40
0.1770324406
 40
0.1945419645
 40
0.2125810668
 40
0.2311183398
 40
0.2501209668
 40
0.2695548486
 40
0.289384725
 40
0.3095742955
 40
0.3300863312
 40
0.3508827821
 40
0.3719248818
 40
0.3931732491
 40
0.4145879914
 40
0.4577543474
 40
0.501099203
 40
0.5442952951
 40
0.5657359749
 40
0.587017582
 40
0.6081001434
 40
0.6289441761
 40
0.6495107926
 40
0.6697618048
 40
0.6896598276
 40
0.709168385
 40
0.7282520204
 40
0.7468764117
 40
0.7650084972
 40
0.7826166038
 40
0.7996705814
 40
0.8161419537
 40
0.8320040874
 40
0.8472323859
 40
0.8618045214
 40
0.8757007003
 40
0.8889039845
 40
0.9014006969
 40
0.9073810972
 40
0.9131815075
 40
0.9188013673
 40
0.9242405009
 40
0.9294990443
 40
0.9345775709
 40
0.9394770909
 40
0.9441990928
 40
0.9487456636
 40
0.9531194621
 40
0.9573238984
 40
0.9613631411
 40
0.9652422549
 40
0.9689673208
 40
0.9725454977
 40
0.9759852252
 40
0.9824864215
 40
0.9855752926
 40
0.9885737717
 40
0.9914977072
 40
0.9943643167
 40
0.9971920017
 40
1.0
 40
1.0
 40
1.0
 40
1.0
 10
9.1994213829
 20
11.0149605518
 30
0.0
 10
9.2010196906
 20
11.0165043986
 30
0.0
 10
9.2043546558
 20
11.0195811797
 30
0.0
 10
9.2096495631
 20
11.0240750617
 30
0.0
 10
9.215333301
 20
11.0285367264
 30
0.0
 10
9.2214027495
 20
11.0329637704
 30
0.0
 10
9.227854928
 20
11.0373541475
 30
0.0
 10
9.2346866979
 20
11.0417056992
 30
0.0
 10
9.2418946346
 20
11.0460163703
 30
0.0
 10
9.2494751657
 20
11.050283917
 30
0.0
 10
9.2574244672
 20
11.0545062655
 30
0.0
 10
9.2657385704
 20
11.0586812894
 30
0.0
 10
9.2744133174
 20
11.0628068756
 30
0.0
 10
9.2834443342
 20
11.0668809976
 30
0.0
 10
9.2928271151
 20
11.0709015592
 30
0.0
 10
9.3059825957
 20
11.0762624617
 30
0.0
 10
9.3232831556
 20
11.0828005996
 30
0.0
 10
9.3450907032
 20
11.0902966699
 30
0.0
 10
9.3681791857
 20
11.0975324665
 30
0.0
 10
9.3925020537
 20
11.1044932821
 30
0.0
 10
9.418010482
 20
11.1111649468
 30
0.0
 10
9.4446530858
 20
11.1175338704
 30
0.0
 10
9.4723761517
 20
11.1235870837
 30
0.0
 10
9.5011237312
 20
11.1293122568
 30
0.0
 10
9.530837775
 20
11.1346977284
 30
0.0
 10
9.5614582545
 20
11.1397325302
 30
0.0
 10
9.5929232869
 20
11.1444064081
 30
0.0
 10
9.6251692604
 20
11.1487098461
 30
0.0
 10
9.6581309663
 20
11.1526340903
 30
0.0
 10
9.6917417378
 20
11.1561711576
 30
0.0
 10
9.7259335871
 20
11.1593138521
 30
0.0
 10
9.7606373504
 20
11.1620557834
 30
0.0
 10
9.7957828014
 20
11.1643913617
 30
0.0
 10
9.8312988914
 20
11.1663158752
 30
0.0
 10
9.8791768153
 20
11.1683336732
 30
0.0
 10
9.939421275
 20
11.169799315
 30
0.0
 10
10.0118443334
 20
11.1698757321
 30
0.0
 10
10.0721228333
 20
11.1685374763
 30
0.0
 10
10.1200546116
 20
11.1666213846
 30
0.0
 10
10.1556303979
 20
11.1647720823
 30
0.0
 10
10.190848565
 20
11.162510945
 30
0.0
 10
10.2256379151
 20
11.1598425284
 30
0.0
 10
10.2599280455
 20
11.1567722697
 30
0.0
 10
10.2936495924
 20
11.1533064142
 30
0.0
 10
10.3267343442
 20
11.1494520143
 30
0.0
 10
10.3591153861
 20
11.1452169118
 30
0.0
 10
10.3907272344
 20
11.1406097242
 30
0.0
 10
10.4215059744
 20
11.1356398253
 30
0.0
 10
10.4513893961
 20
11.1303173347
 30
0.0
 10
10.4803171248
 20
11.1246530949
 30
0.0
 10
10.5082307445
 20
11.1186586436
 30
0.0
 10
10.5350739202
 20
11.1123461918
 30
0.0
 10
10.560792517
 20
11.1057285979
 30
0.0
 10
10.5853347347
 20
11.098819335
 30
0.0
 10
10.6086511944
 20
11.0916324703
 30
0.0
 10
10.6306951898
 20
11.0841826163
 30
0.0
 10
10.6514223354
 20
11.0764848977
 30
0.0
 10
10.6677949068
 20
11.0697819666
 30
0.0
 10
10.6801898101
 20
11.0642949049
 30
0.0
 10
10.6889946773
 20
11.0601877904
 30
0.0
 10
10.6974404471
 20
11.0560304897
 30
0.0
 10
10.7055229223
 20
11.0518251316
 30
0.0
 10
10.7132380293
 20
11.0475737673
 30
0.0
 10
10.720581921
 20
11.043278548
 30
0.0
 10
10.7275509391
 20
11.0389416213
 30
0.0
 10
10.7341415813
 20
11.034565075
 30
0.0
 10
10.7403506124
 20
11.0301511405
 30
0.0
 10
10.7461748942
 20
11.0257018766
 30
0.0
 10
10.7516115742
 20
11.0212194935
 30
0.0
 10
10.7566579185
 20
11.0167061053
 30
0.0
 10
10.7613114067
 20
11.0121637684
 30
0.0
 10
10.7655696335
 20
11.0075948006
 30
0.0
 10
10.7694306655
 20
11.0030006481
 30
0.0
 10
10.7739601124
 20
10.9969599475
 30
0.0
 10
10.7778062942
 20
10.9907563651
 30
0.0
 10
10.7808600461
 20
10.9844203514
 30
0.0
 10
10.7827050828
 20
10.9797343804
 30
0.0
 10
10.7841419526
 20
10.9750370302
 30
0.0
 10
10.7851693184
 20
10.9703305351
 30
0.0
 10
10.7857862241
 20
10.9656182937
 30
0.0
 10
10.7859235578
 20
10.9624701385
 30
0.0
 10
10.7859235649
 20
10.9609024037
 30
0.0
  0
SPLINE
  5
389
100
AcDbEntity
  8
0
100
AcDbSpline
 62
7
  6
CONTINUOUS
 70
0
 71
3
 72
11
 73
7
 74
0
 42
0.0000001
 43
0.0000001
 44
0.0000000001
 40
0.0
 40
0.0
 40
0.0
 40
0.0
 40
0.2467504967
 40
0.4948140803
 40
0.7454812724
 40
1.0
 40
1.0
 40
1.0
 40
1.0
 10
13.3538786849
 20
10.1825781108
 30
0.0
 10
13.3551066172
 20
10.1824929531
 30
0.0
 10
13.3575635441
 20
10.1822288629
 30
0.0
 10
13.3612238987
 20
10.1815539082
 30
0.0
 10
13.3648616965
 20
10.1806001823
 30
0.0
 10
13.3672492635
 20
10.179786133
 30
0.0
 10
13.3684361282
 20
10.1793352243
 30
0.0
  0
SPLINE
  5
38A
100
AcDbEntity
  8
0
100
AcDbSpline
 62
7
  6
CONTINUOUS
 70
0
 71
3
 72
41
 73
37
 74
0
 42
0.0000001
 43
0.0000001
 44
0.0000000001
 40
0.0
 40
0.0
 40
0.0
 40
0.0
 40
0.0310748272
 40
0.0623072483
 40
0.0936920359
 40
0.1252208484
 40
0.156882237
 40
0.188662033
 40
0.2205436266
 40
0.2525083437
 40
0.2845358343
 40
0.3166044929
 40
0.3486918936
 40
0.3807752384
 40
0.4128318095
 40
0.4448394218
 40
0.4767768664
 40
0.5086243418
 40
0.5403638639
 40
0.5719796493
 40
0.6034584635
 40
0.6347899281
 40
0.6659667781
 40
0.6969850622
 40
0.7278442783
 40
0.7585474376
 40
0.7891010512
 40
0.8195150346
 40
0.8498025274
 40
0.8649066426
 40
0.8799854039
 40
0.9100708284
 40
0.9400854823
 40
0.9550762294
 40
0.970057877
 40
1.0
 40
1.0
 40
1.0
 40
1.0
 10
12.4179480234
 20
7.0760781845
 30
0.0
 10
12.4179480234
 20
7.0712188327
 30
0.0
 10
12.4183105308
 20
7.0614717467
 30
0.0
 10
12.4199289853
 20
7.0468977891
 30
0.0
 10
12.4226144641
 20
7.0324093889
 30
0.0
 10
12.4263520522
 20
7.0180871836
 30
0.0
 10
12.4311210949
 20
7.0040095134
 30
0.0
 10
12.436895283
 20
6.9902537273
 30
0.0
 10
12.4436428191
 20
6.976895294
 30
0.0
 10
12.4513265823
 20
6.9640075201
 30
0.0
 10
12.4599043363
 20
6.9516611192
 30
0.0
 10
12.4693289583
 20
6.939923838
 30
0.0
 10
12.4795486964
 20
6.9288600859
 30
0.0
 10
12.4905074508
 20
6.9185305862
 30
0.0
 10
12.5021450791
 20
6.9089920465
 30
0.0
 10
12.5143977225
 20
6.9002968499
 30
0.0
 10
12.5271981526
 20
6.8924927701
 30
0.0
 10
12.5404761357
 20
6.8856227111
 30
0.0
 10
12.5541588134
 20
6.8797244724
 30
0.0
 10
12.5681710969
 20
6.8748305422
 30
0.0
 10
12.5824360738
 20
6.8709679179
 30
0.0
 10
12.5968754233
 20
6.8681579559
 30
0.0
 10
12.6114098419
 20
6.8664162511
 30
0.0
 10
12.6259594688
 20
6.8657525447
 30
0.0
 10
12.6404443349
 20
6.8661706706
 30
0.0
 10
12.6547847399
 20
6.8676685003
 30
0.0
 10
12.6689019074
 20
6.8702380417
 30
0.0
 10
12.6827176042
 20
6.8738651124
 30
0.0
 10
12.6939284557
 20
6.877756909
 30
0.0
 10
12.7026667702
 20
6.8813761825
 30
0.0
 10
12.7112282041
 20
6.88532116
 30
0.0
 10
12.7216089713
 20
6.8908664614
 30
0.0
 10
12.7315083948
 20
6.8972060519
 30
0.0
 10
12.7390951193
 20
6.902726757
 30
0.0
 10
12.7464476832
 20
6.9085365804
 30
0.0
 10
12.7516976974
 20
6.9132189783
 30
0.0
 10
12.7550653976
 20
6.9164719491
 30
0.0
  0
SPLINE
  5
38B
100
AcDbEntity
  8
0
100
AcDbSpline
 62
7
  6
CONTINUOUS
 70
0
 71
3
 72
39
 73
35
 74
0
 42
0.0000001
 43
0.0000001
 44
0.0000000001
 40
0.0
 40
0.0
 40
0.0
 40
0.0
 40
0.0314025546
 40
0.0630095408
 40
0.0948070962
 40
0.1267734469
 40
0.1588809717
 40
0.1910970219
 40
0.2233851129
 40
0.2557062438
 40
0.2880202662
 40
0.3202872752
 40
0.3524690058
 40
0.3845301834
 40
0.4164397919
 40
0.4481722495
 40
0.4797084082
 40
0.5110363786
 40
0.5421521204
 40
0.5730597414
 40
0.6037715192
 40
0.6343075557
 40
0.6646951109
 40
0.6949675898
 40
0.7251632178
 40
0.7553234777
 40
0.7854913538
 40
0.8157095099
 40
0.8460184679
 40
0.8764549221
 40
0.9070502461
 40
0.9378292796
 40
0.9688091728
 40
1.0
 40
1.0
 40
1.0
 40
1.0
 10
11.044401417
 20
7.8040154189
 30
0.0
 10
11.0532785035
 20
7.8033997909
 30
0.0
 10
11.071041581
 20
7.8012896849
 30
0.0
 10
11.0973282221
 20
7.7955587721
 30
0.0
 10
11.1231053352
 20
7.7873067815
 30
0.0
 10
11.1481221486
 20
7.7766138438
 30
0.0
 10
11.1721394807
 20
7.7635832827
 30
0.0
 10
11.19492661
 20
7.7483405569
 30
0.0
 10
11.2162650883
 20
7.7310324092
 30
0.0
 10
11.2359501081
 20
7.7118250573
 30
0.0
 10
11.2537927664
 20
7.6909029489
 30
0.0
 10
11.2696217451
 20
7.6684668797
 30
0.0
 10
11.2832847882
 20
7.6447320416
 30
0.0
 10
11.2946504942
 20
7.6199262075
 30
0.0
 10
11.3036091135
 20
7.5942873365
 30
0.0
 10
11.3100740113
 20
7.5680615593
 30
0.0
 10
11.3139823013
 20
7.541500747
 30
0.0
 10
11.315295414
 20
7.5148601899
 30
0.0
 10
11.3139998683
 20
7.4883962065
 30
0.0
 10
11.3101069599
 20
7.4623637096
 30
0.0
 10
11.3036532613
 20
7.437013768
 30
0.0
 10
11.2947000278
 20
7.4125911834
 30
0.0
 10
11.2833327723
 20
7.3893321355
 30
0.0
 10
11.269660758
 20
7.3674616823
 30
0.0
 10
11.2538155733
 20
7.3471917183
 30
0.0
 10
11.2359503479
 20
7.3287185142
 30
0.0
 10
11.2162378726
 20
7.3122209294
 30
0.0
 10
11.1948690025
 20
7.2978585156
 30
0.0
 10
11.1720507801
 20
7.285769747
 30
0.0
 10
11.1480040038
 20
7.2760710558
 30
0.0
 10
11.1229615949
 20
7.268855218
 30
0.0
 10
11.0971647225
 20
7.2641911145
 30
0.0
 10
11.0708655299
 20
7.2621223876
 30
0.0
 10
11.0532186509
 20
7.2624854469
 30
0.0
 10
11.044401417
 20
7.2630969241
 30
0.0
  0
SPLINE
  5
38C
100
AcDbEntity
  8
0
100
AcDbSpline
 62
7
  6
CONTINUOUS
 70
0
 71
3
 72
11
 73
7
 74
0
 42
0.0000001
 43
0.0000001
 44
0.0000000001
 40
0.0
 40
0.0
 40
0.0
 40
0.0
 40
0.2545149704
 40
0.5051815903
 40
0.7532467758
 40
1.0
 40
1.0
 40
1.0
 40
1.0
 10
13.2605340707
 20
8.6235265008
 30
0.0
 10
13.2592968541
 20
8.6232440164
 30
0.0
 10
13.2568208348
 20
8.6227678119
 30
0.0
 10
13.2530878345
 20
8.6223258575
 30
0.0
 10
13.2493709618
 20
8.622162882
 30
0.0
 10
13.2469021682
 20
8.6222404745
 30
0.0
 10
13.245674762
 20
8.6223255956
 30
0.0
  0
SPLINE
  5
38D
100
AcDbEntity
  8
0
100
AcDbSpline
 62
7
  6
CONTINUOUS
 70
0
 71
3
 72
39
 73
35
 74
0
 42
0.0000001
 43
0.0000001
 44
0.0000000001
 40
0.0
 40
0.0
 40
0.0
 40
0.0
 40
0.0314025546
 40
0.0630095408
 40
0.0948070962
 40
0.1267734469
 40
0.1588809717
 40
0.1910970219
 40
0.2233851129
 40
0.2557062438
 40
0.2880202662
 40
0.3202872752
 40
0.3524690058
 40
0.3845301834
 40
0.4164397919
 40
0.4481722495
 40
0.4797084082
 40
0.5110363786
 40
0.5421521204
 40
0.5730597414
 40
0.6037715192
 40
0.6343075557
 40
0.6646951109
 40
0.6949675898
 40
0.7251632178
 40
0.7553234777
 40
0.7854913538
 40
0.8157095099
 40
0.8460184679
 40
0.8764549221
 40
0.9070502461
 40
0.9378292796
 40
0.9688091728
 40
1.0
 40
1.0
 40
1.0
 40
1.0
 10
11.044401417
 20
7.2630969241
 30
0.0
 10
11.0355243305
 20
7.2637125522
 30
0.0
 10
11.017761253
 20
7.2658226581
 30
0.0
 10
10.9914746119
 20
7.271553571
 30
0.0
 10
10.9656974988
 20
7.2798055615
 30
0.0
 10
10.9406806854
 20
7.2904984992
 30
0.0
 10
10.9166633533
 20
7.3035290603
 30
0.0
 10
10.893876224
 20
7.3187717861
 30
0.0
 10
10.8725377458
 20
7.3360799339
 30
0.0
 10
10.8528527259
 20
7.3552872857
 30
0.0
 10
10.8350100676
 20
7.3762093942
 30
0.0
 10
10.8191810889
 20
7.3986454634
 30
0.0
 10
10.8055180458
 20
7.4223803015
 30
0.0
 10
10.7941523398
 20
7.4471861355
 30
0.0
 10
10.7851937206
 20
7.4728250066
 30
0.0
 10
10.7787288227
 20
7.4990507838
 30
0.0
 10
10.7748205327
 20
7.525611596
 30
0.0
 10
10.77350742
 20
7.5522521531
 30
0.0
 10
10.7748029657
 20
7.5787161365
 30
0.0
 10
10.7786958741
 20
7.6047486334
 30
0.0
 10
10.7851495727
 20
7.6300985751
 30
0.0
 10
10.7941028062
 20
7.6545211597
 30
0.0
 10
10.8054700617
 20
7.6777802075
 30
0.0
 10
10.819142076
 20
7.6996506607
 30
0.0
 10
10.8349872607
 20
7.7199206248
 30
0.0
 10
10.8528524861
 20
7.7383938289
 30
0.0
 10
10.8725649614
 20
7.7548914136
 30
0.0
 10
10.8939338315
 20
7.7692538275
 30
0.0
 10
10.9167520539
 20
7.781342596
 30
0.0
 10
10.9407988302
 20
7.7910412873
 30
0.0
 10
10.9658412391
 20
7.798257125
 30
0.0
 10
10.9916381115
 20
7.8029212286
 30
0.0
 10
11.0179373041
 20
7.8049899554
 30
0.0
 10
11.0355841831
 20
7.8046268962
 30
0.0
 10
11.044401417
 20
7.8040154189
 30
0.0
  0
SPLINE
  5
38E
100
AcDbEntity
  8
0
100
AcDbSpline
 62
7
  6
CONTINUOUS
 70
0
 71
3
 72
15
 73
11
 74
0
 42
0.0000001
 43
0.0000001
 44
0.0000000001
 40
0.0
 40
0.0
 40
0.0
 40
0.0
 40
0.1234394136
 40
0.2470466177
 40
0.370982561
 40
0.4953948844
 40
0.6204121622
 40
0.7461393429
 40
0.8726517211
 40
1.0
 40
1.0
 40
1.0
 40
1.0
 10
7.8848486111
 20
9.4585285296
 30
0.0
 10
7.880489911
 20
9.4543183197
 30
0.0
 10
7.8721943307
 20
9.4454360521
 30
0.0
 10
7.8611768931
 20
9.4308954079
 30
0.0
 10
7.8516775272
 20
9.4152626429
 30
0.0
 10
7.8437855225
 20
9.3986842375
 30
0.0
 10
7.8375728732
 20
9.3813132569
 30
0.0
 10
7.8330965582
 20
9.3633098953
 30
0.0
 10
7.8303970127
 20
9.3448425272
 30
0.0
 10
7.8298000766
 20
9.3323710354
 30
0.0
 10
7.8298000766
 20
9.3261190924
 30
0.0
  0
SPLINE
  5
38F
100
AcDbEntity
  8
0
100
AcDbSpline
 62
7
  6
CONTINUOUS
 70
0
 71
3
 72
15
 73
11
 74
0
 42
0.0000001
 43
0.0000001
 44
0.0000000001
 40
0.0
 40
0.0
 40
0.0
 40
0.0
 40
0.1234394136
 40
0.2470466177
 40
0.370982561
 40
0.4953948844
 40
0.6204121622
 40
0.7461393429
 40
0.8726517211
 40
1.0
 40
1.0
 40
1.0
 40
1.0
 10
12.4729965579
 20
7.2084876218
 30
0.0
 10
12.4686378577
 20
7.2042774119
 30
0.0
 10
12.4603422774
 20
7.1953951442
 30
0.0
 10
12.4493248398
 20
7.1808545
 30
0.0
 10
12.439825474
 20
7.1652217351
 30
0.0
 10
12.4319334693
 20
7.1486433296
 30
0.0
 10
12.4257208199
 20
7.131272349
 30
0.0
 10
12.4212445049
 20
7.1132689874
 30
0.0
 10
12.4185449595
 20
7.0948016193
 30
0.0
 10
12.4179480234
 20
7.0823301276
 30
0.0
 10
12.4179480234
 20
7.0760781845
 30
0.0
  0
SPLINE
  5
390
100
AcDbEntity
  8
0
100
AcDbSpline
 62
7
  6
CONTINUOUS
 70
0
 71
3
 72
18
 73
14
 74
0
 42
0.0000001
 43
0.0000001
 44
0.0000000001
 40
0.0
 40
0.0
 40
0.0
 40
0.0
 40
0.0548621106
 40
0.1099281304
 40
0.165399556
 40
0.2214731722
 40
0.2783387379
 40
0.3361775111
 40
0.4554063056
 40
0.5804414047
 40
0.7123341351
 40
0.8519581983
 40
1.0
 40
1.0
 40
1.0
 40
1.0
 10
9.1719235769
 20
10.9609013791
 30
0.0
 10
9.1719235717
 20
10.9620410987
 30
0.0
 10
9.1719958991
 20
10.9643254286
 30
0.0
 10
9.172321114
 20
10.9677482109
 30
0.0
 10
9.1728630152
 20
10.9711690182
 30
0.0
 10
9.1736213977
 20
10.9745866022
 30
0.0
 10
9.1745959423
 20
10.9780001092
 30
0.0
 10
9.1761988873
 20
10.9825903549
 30
0.0
 10
9.1787667889
 20
10.9883315183
 30
0.0
 10
9.182675305
 20
10.9951118616
 30
0.0
 10
9.1874356893
 20
11.0018483273
 30
0.0
 10
9.1930406996
 20
11.0085341265
 30
0.0
 10
9.1972093453
 20
11.0128238874
 30
0.0
 10
9.1994213829
 20
11.0149605518
 30
0.0
  0
SPLINE
  5
391
100
AcDbEntity
  8
0
100
AcDbSpline
 62
7
  6
CONTINUOUS
 70
0
 71
3
 72
15
 73
11
 74
0
 42
0.0000001
 43
0.0000001
 44
0.0000000001
 40
0.0
 40
0.0
 40
0.0
 40
0.0
 40
0.1102414395
 40
0.2236030733
 40
0.3407143491
 40
0.462139381
 40
0.588377429
 40
0.719865135
 40
0.8569719886
 40
1.0
 40
1.0
 40
1.0
 40
1.0
 10
9.1740885157
 20
10.9452812271
 30
0.0
 10
9.1745581004
 20
10.9469371411
 30
0.0
 10
9.1756552493
 20
10.9502563997
 30
0.0
 10
9.1777286017
 20
10.9551608828
 30
0.0
 10
9.1802475884
 20
10.9600492478
 30
0.0
 10
9.1832102137
 20
10.9649184114
 30
0.0
 10
9.1866144238
 20
10.9697661692
 30
0.0
 10
9.1904581148
 20
10.9745901562
 30
0.0
 10
9.1947387026
 20
10.9793877356
 30
0.0
 10
9.1978152092
 20
10.982499478
 30
0.0
 10
9.1994213829
 20
10.9840509227
 30
0.0
  0
SPLINE
  5
392
100
AcDbEntity
  8
0
100
AcDbSpline
 62
7
  6
CONTINUOUS
 70
0
 71
3
 72
20
 73
16
 74
0
 42
0.0000001
 43
0.0000001
 44
0.0000000001
 40
0.0
 40
0.0
 40
0.0
 40
0.0
 40
0.0576572428
 40
0.1144985957
 40
0.170851472
 40
0.2270527813
 40
0.2834423053
 40
0.3403562682
 40
0.3981207173
 40
0.4570464355
 40
0.5174239692
 40
0.5795205151
 40
0.7097616507
 40
0.8494994978
 40
1.0
 40
1.0
 40
1.0
 40
1.0
 10
9.4054075833
 20
10.9193071072
 30
0.0
 10
9.4051232104
 20
10.9203295778
 30
0.0
 10
9.4046339906
 20
10.9223820472
 30
0.0
 10
9.4041446981
 20
10.9254917245
 30
0.0
 10
9.4039067664
 20
10.9286040469
 30
0.0
 10
9.4039203521
 20
10.9317170837
 30
0.0
 10
9.4041854894
 20
10.9348291848
 30
0.0
 10
9.404701981
 20
10.937938628
 30
0.0
 10
9.405469303
 20
10.9410438179
 30
0.0
 10
9.4064869344
 20
10.9441431717
 30
0.0
 10
9.4077541757
 20
10.9472353234
 30
0.0
 10
9.4098077098
 20
10.9514125315
 30
0.0
 10
9.4130345956
 20
10.9566232286
 30
0.0
 10
9.4178265732
 20
10.9627172331
 30
0.0
 10
9.4215236964
 20
10.9665852961
 30
0.0
 10
9.4235161879
 20
10.9685098952
 30
0.0
  0
SPLINE
  5
393
100
AcDbEntity
  8
0
100
AcDbSpline
 62
7
  6
CONTINUOUS
 70
0
 71
3
 72
19
 73
15
 74
0
 42
0.0000001
 43
0.0000001
 44
0.0000000001
 40
0.0
 40
0.0
 40
0.0
 40
0.0
 40
0.0616584462
 40
0.1233399329
 40
0.1850672163
 40
0.2468625637
 40
0.3087474953
 40
0.370742507
 40
0.4328668993
 40
0.495138574
 40
0.6201443378
 40
0.7459117844
 40
0.8725152897
 40
1.0
 40
1.0
 40
1.0
 40
1.0
 10
11.2088514384
 20
7.3990434563
 30
0.0
 10
11.2064835849
 20
7.3967562832
 30
0.0
 10
11.201622939
 20
7.3923075362
 30
0.0
 10
11.1939823768
 20
7.3860346438
 30
0.0
 10
11.1860100107
 20
7.3801764068
 30
0.0
 10
11.1777262603
 20
7.3747477674
 30
0.0
 10
11.1691518523
 20
7.3697623959
 30
0.0
 10
11.1603085218
 20
7.3652328618
 30
0.0
 10
11.1512182406
 20
7.3611704145
 30
0.0
 10
11.1387861396
 20
7.3563850842
 30
0.0
 10
11.1227305897
 20
7.3516208668
 30
0.0
 10
11.1028883739
 20
7.3479195654
 30
0.0
 10
11.0826410878
 20
7.3462597733
 30
0.0
 10
11.0690503272
 20
7.3465248803
 30
0.0
 10
11.0622599164
 20
7.3469957969
 30
0.0
  0
SPLINE
  5
394
100
AcDbEntity
  8
0
100
AcDbSpline
 62
7
  6
CONTINUOUS
 70
0
 71
3
 72
41
 73
37
 74
0
 42
0.0000001
 43
0.0000001
 44
0.0000000001
 40
0.0
 40
0.0
 40
0.0
 40
0.0
 40
0.0299389638
 40
0.044918725
 40
0.0599073257
 40
0.0899167412
 40
0.1199949456
 40
0.1350691073
 40
0.150167946
 40
0.180442844
 40
0.2108410996
 40
0.2413757554
 40
0.2720567917
 40
0.3028909468
 40
0.333881618
 40
0.3650288383
 40
0.3963293255
 40
0.4277765999
 40
0.4593611619
 40
0.4910707252
 40
0.5228904965
 40
0.5548034961
 40
0.5867909116
 40
0.6188324791
 40
0.6509068845
 40
0.6829921792
 40
0.7150662046
 40
0.7471070194
 40
0.7790933245
 40
0.8110048756
 40
0.8428228953
 40
0.8745304177
 40
0.9061127509
 40
0.9375574918
 40
0.9688555565
 40
1.0
 40
1.0
 40
1.0
 40
1.0
 10
10.9156683944
 20
7.7025688603
 30
0.0
 10
10.9122190814
 20
7.6992370764
 30
0.0
 10
10.9072370267
 20
7.6940323589
 30
0.0
 10
10.9010185559
 20
7.6867215155
 30
0.0
 10
10.8950832714
 20
7.6791639515
 30
0.0
 10
10.8882148554
 20
7.669276743
 30
0.0
 10
10.8821291679
 20
7.6588736358
 30
0.0
 10
10.8777460752
 20
7.6502728401
 30
0.0
 10
10.8736846042
 20
7.6414808861
 30
0.0
 10
10.8692339411
 20
7.6301751496
 30
0.0
 10
10.8649303155
 20
7.6161991872
 30
0.0
 10
10.8616807551
 20
7.6018742802
 30
0.0
 10
10.8595026966
 20
7.5872775147
 30
0.0
 10
10.8584075294
 20
7.5724867634
 30
0.0
 10
10.8584009396
 20
7.5575810619
 30
0.0
 10
10.8594827813
 20
7.542639975
 30
0.0
 10
10.8616471149
 20
7.5277432321
 30
0.0
 10
10.8648822379
 20
7.512970291
 30
0.0
 10
10.8691707548
 20
7.4983999237
 30
0.0
 10
10.8744896724
 20
7.4841098004
 30
0.0
 10
10.8808105258
 20
7.4701760816
 30
0.0
 10
10.8880995306
 20
7.4566730176
 30
0.0
 10
10.8963177638
 20
7.443672558
 30
0.0
 10
10.9054213699
 20
7.431243973
 30
0.0
 10
10.9153617941
 20
7.4194534883
 30
0.0
 10
10.9260860384
 20
7.4083639367
 30
0.0
 10
10.9375369421
 20
7.3980344265
 30
0.0
 10
10.9496534832
 20
7.3885200288
 30
0.0
 10
10.9623711
 20
7.379871489
 30
0.0
 10
10.9756220328
 20
7.3721349525
 30
0.0
 10
10.9893356733
 20
7.3653517348
 30
0.0
 10
11.0034389694
 20
7.3595580669
 30
0.0
 10
11.0178566748
 20
7.354784983
 30
0.0
 10
11.0325122463
 20
7.3510579808
 30
0.0
 10
11.0473264635
 20
7.3483972305
 30
0.0
 10
11.0572830941
 20
7.3473409407
 30
0.0
 10
11.0622599164
 20
7.3469957969
 30
0.0
  0
SPLINE
  5
395
100
AcDbEntity
  8
0
100
AcDbSpline
 62
7
  6
CONTINUOUS
 70
0
 71
3
 72
83
 73
79
 74
0
 42
0.0000001
 43
0.0000001
 44
0.0000000001
 40
0.0
 40
0.0
 40
0.0
 40
0.0
 40
0.0028978966
 40
0.0058722965
 40
0.0089375402
 40
0.0121065466
 40
0.0187977733
 40
0.0223417265
 40
0.026027569
 40
0.0298618095
 40
0.0338499733
 40
0.0379967096
 40
0.042305826
 40
0.0467804694
 40
0.0514231127
 40
0.0562356742
 40
0.0612195894
 40
0.066375792
 40
0.0717048612
 40
0.0772069697
 40
0.0828819637
 40
0.0887294129
 40
0.0947485579
 40
0.1072974001
 40
0.1205183598
 40
0.1343975704
 40
0.1489183424
 40
0.1640614934
 40
0.1798056055
 40
0.1961272608
 40
0.2130012398
 40
0.2304006848
 40
0.2482972435
 40
0.2666611899
 40
0.2854615569
 40
0.3046662516
 40
0.3242421604
 40
0.3441552463
 40
0.3643706417
 40
0.3848527518
 40
0.4055653491
 40
0.4264716624
 40
0.4687154558
 40
0.5112831801
 40
0.553870157
 40
0.5961715253
 40
0.6171208456
 40
0.6378858032
 40
0.6584294997
 40
0.6787155626
 40
0.6987082322
 40
0.7183724516
 40
0.7376739601
 40
0.7565793974
 40
0.7750564064
 40
0.7930737304
 40
0.8106013225
 40
0.827610463
 40
0.8440739005
 40
0.859965992
 40
0.8752628549
 40
0.8899425486
 40
0.9039852917
 40
0.9173737351
 40
0.9300932704
 40
0.9421324168
 40
0.9478944956
 40
0.9534838818
 40
0.9589002441
 40
0.9641436298
 40
0.9692143879
 40
0.9741132635
 40
0.9788414276
 40
0.9834005092
 40
0.9877928021
 40
0.9920211616
 40
0.9960889265
 40
1.0
 40
1.0
 40
1.0
 40
1.0
 10
10.7836261283
 20
10.9457415286
 30
0.0
 10
10.7831767093
 20
10.9472797248
 30
0.0
 10
10.7821418102
 20
10.9503617279
 30
0.0
 10
10.7802207874
 20
10.954919918
 30
0.0
 10
10.7779144268
 20
10.9594646566
 30
0.0
 10
10.7742620734
 20
10.9656136018
 30
0.0
 10
10.7698812345
 20
10.9716172871
 30
0.0
 10
10.7648701422
 20
10.9774636254
 30
0.0
 10
10.7606627277
 20
10.9819091946
 30
0.0
 10
10.7560811018
 20
10.9863288133
 30
0.0
 10
10.7511271055
 20
10.9907209327
 30
0.0
 10
10.745803157
 20
10.9950834198
 30
0.0
 10
10.7401118031
 20
10.9994144154
 30
0.0
 10
10.7340556839
 20
11.003711843
 30
0.0
 10
10.7276376875
 20
11.0079737665
 30
0.0
 10
10.7208608442
 20
11.0121982029
 30
0.0
 10
10.7137283346
 20
11.0163831162
 30
0.0
 10
10.7062435733
 20
11.0205266133
 30
0.0
 10
10.6984100798
 20
11.0246266579
 30
0.0
 10
10.6902315935
 20
11.0286813435
 30
0.0
 10
10.6817120095
 20
11.0326887396
 30
0.0
 10
10.672855358
 20
11.0366469148
 30
0.0
 10
10.6604296819
 20
11.0419298458
 30
0.0
 10
10.6440742507
 20
11.0483829145
 30
0.0
 10
10.6234371988
 20
11.0557971356
 30
0.0
 10
10.601565056
 20
11.0629713755
 30
0.0
 10
10.5784996218
 20
11.0698918168
 30
0.0
 10
10.5542847649
 20
11.0765451063
 30
0.0
 10
10.5289667246
 20
11.0829184082
 30
0.0
 10
10.5025938872
 20
11.0889994207
 30
0.0
 10
10.4752167052
 20
11.0947764003
 30
0.0
 10
10.4468875823
 20
11.1002381889
 30
0.0
 10
10.4176607778
 20
11.1053742328
 30
0.0
 10
10.3875923011
 20
11.1101746239
 30
0.0
 10
10.3567397945
 20
11.1146301008
 30
0.0
 10
10.3251624132
 20
11.1187320658
 30
0.0
 10
10.2929207099
 20
11.122472602
 30
0.0
 10
10.2600765249
 20
11.1258444874
 30
0.0
 10
10.2266928615
 20
11.1288412285
 30
0.0
 10
10.1928337818
 20
11.1314570404
 30
0.0
 10
10.1585641932
 20
11.1336869158
 30
0.0
 10
10.1122534675
 20
11.1361480056
 30
0.0
 10
10.0538238634
 20
11.1382248312
 30
0.0
 10
9.9833736616
 20
11.1391221493
 30
0.0
 10
9.9128893531
 20
11.138425727
 30
0.0
 10
9.8543877735
 20
11.1365159926
 30
0.0
 10
9.8079854931
 20
11.1341879659
 30
0.0
 10
9.7736227084
 20
11.1320561755
 30
0.0
 10
9.7396539173
 20
11.129537285
 30
0.0
 10
9.7061442375
 20
11.1266361221
 30
0.0
 10
9.6731579693
 20
11.1233582914
 30
0.0
 10
9.6407583885
 20
11.1197101108
 30
0.0
 10
9.609007646
 20
11.1156986108
 30
0.0
 10
9.5779666344
 20
11.1113315299
 30
0.0
 10
9.54769487
 20
11.1066173015
 30
0.0
 10
9.5182503808
 20
11.1015650245
 30
0.0
 10
9.489689598
 20
11.0961844508
 30
0.0
 10
9.4620672403
 20
11.0904859609
 30
0.0
 10
9.4354361949
 20
11.0844805609
 30
0.0
 10
9.4098474096
 20
11.0781798544
 30
0.0
 10
9.3853497991
 20
11.0715960086
 30
0.0
 10
9.3619901345
 20
11.0647417317
 30
0.0
 10
9.3398129722
 20
11.0576302372
 30
0.0
 10
9.3188604086
 20
11.050275223
 30
0.0
 10
9.2991724326
 20
11.042690842
 30
0.0
 10
9.2836311224
 20
11.0360986754
 30
0.0
 10
9.271871798
 20
11.0307093488
 30
0.0
 10
9.2635206948
 20
11.0266782843
 30
0.0
 10
9.2555126704
 20
11.0226008645
 30
0.0
 10
9.2478514882
 20
11.0184790634
 30
0.0
 10
9.240540809
 20
11.0143147898
 30
0.0
 10
9.2335841087
 20
11.0101100272
 30
0.0
 10
9.2269846691
 20
11.0058668196
 30
0.0
 10
9.2207456264
 20
11.0015870561
 30
0.0
 10
9.214869838
 20
10.9972727488
 30
0.0
 10
9.2093600715
 20
10.9929257709
 30
0.0
 10
9.2042191984
 20
10.9885483925
 30
0.0
 10
9.2009769736
 20
10.9855535081
 30
0.0
 10
9.1994213829
 20
10.9840509227
 30
0.0
  0
SPLINE
  5
396
100
AcDbEntity
  8
0
100
AcDbSpline
 62
7
  6
CONTINUOUS
 70
0
 71
3
 72
81
 73
77
 74
0
 42
0.0000001
 43
0.0000001
 44
0.0000000001
 40
0.0
 40
0.0
 40
0.0
 40
0.0
 40
0.0029209766
 40
0.00579812
 40
0.008651843
 40
0.0115031156
 40
0.0143729612
 40
0.0172819671
 40
0.0202498138
 40
0.0232949413
 40
0.0296789589
 40
0.0330506785
 40
0.0365572312
 40
0.0402089282
 40
0.0440145784
 40
0.0479816584
 40
0.0521164829
 40
0.056424235
 40
0.060909205
 40
0.0655748171
 40
0.0704237309
 40
0.0754580022
 40
0.0806790286
 40
0.0860877311
 40
0.0916845568
 40
0.1034415508
 40
0.1159464912
 40
0.1291899874
 40
0.1431583388
 40
0.1578341524
 40
0.1731968403
 40
0.1892229977
 40
0.2058867033
 40
0.22315976
 40
0.2410119381
 40
0.2594111709
 40
0.278323722
 40
0.2977143252
 40
0.3175463342
 40
0.3377818715
 40
0.3583819535
 40
0.3793066084
 40
0.4005149891
 40
0.4436150979
 40
0.4873435378
 40
0.5313541669
 40
0.5752979619
 40
0.6188265763
 40
0.6615959364
 40
0.6825908706
 40
0.7032707495
 40
0.7235953867
 40
0.7435255478
 40
0.7630230757
 40
0.7820510345
 40
0.8005738311
 40
0.8185573497
 40
0.835969103
 40
0.8527784157
 40
0.868956614
 40
0.8844772209
 40
0.8993162008
 40
0.9134522616
 40
0.9268672397
 40
0.9395465335
 40
0.9514796617
 40
0.9571647904
 40
0.9626617755
 40
0.9679708198
 40
0.9730926077
 40
0.9780282954
 40
0.9827795937
 40
0.9873489879
 40
0.9917396042
 40
0.9959551437
 40
1.0
 40
1.0
 40
1.0
 40
1.0
 10
10.5524395175
 20
10.9193069218
 30
0.0
 10
10.5527536968
 20
10.9204365492
 30
0.0
 10
10.5532852045
 20
10.9227058393
 30
0.0
 10
10.5537828529
 20
10.9261472206
 30
0.0
 10
10.5539726774
 20
10.9295915477
 30
0.0
 10
10.5538545015
 20
10.9330360894
 30
0.0
 10
10.5534284209
 20
10.9364785202
 30
0.0
 10
10.5526949207
 20
10.9399164028
 30
0.0
 10
10.5516547982
 20
10.9433477549
 30
0.0
 10
10.5498323976
 20
10.9479829834
 30
0.0
 10
10.547403492
 20
10.9525345986
 30
0.0
 10
10.5444510215
 20
10.9569669394
 30
0.0
 10
10.5418955799
 20
10.9603372533
 30
0.0
 10
10.5390414475
 20
10.9636899963
 30
0.0
 10
10.535890029
 20
10.9670241128
 30
0.0
 10
10.5324431118
 20
10.9703378925
 30
0.0
 10
10.5287024561
 20
10.9736297022
 30
0.0
 10
10.5246700964
 20
10.9768979906
 30
0.0
 10
10.5203480958
 20
10.98014107
 30
0.0
 10
10.5157387209
 20
10.9833573077
 30
0.0
 10
10.5108443979
 20
10.9865451007
 30
0.0
 10
10.505667645
 20
10.9897027325
 30
0.0
 10
10.5002112109
 20
10.9928286237
 30
0.0
 10
10.4944779301
 20
10.9959211439
 30
0.0
 10
10.4863342369
 20
11.0000659619
 30
0.0
 10
10.4754707771
 20
11.0051386965
 30
0.0
 10
10.4615880839
 20
11.0109714482
 30
0.0
 10
10.4466815643
 20
11.0166333001
 30
0.0
 10
10.4307826437
 20
11.0221122155
 30
0.0
 10
10.4139246246
 20
11.0273965424
 30
0.0
 10
10.3961430387
 20
11.0324749919
 30
0.0
 10
10.3774754146
 20
11.0373366998
 30
0.0
 10
10.3579612325
 20
11.0419712526
 30
0.0
 10
10.3376418233
 20
11.0463687395
 30
0.0
 10
10.3165602634
 20
11.0505197489
 30
0.0
 10
10.2947612672
 20
11.0544153952
 30
0.0
 10
10.2722910932
 20
11.0580473333
 30
0.0
 10
10.2491974495
 20
11.0614077944
 30
0.0
 10
10.2255293877
 20
11.0644895978
 30
0.0
 10
10.2013371831
 20
11.0672861557
 30
0.0
 10
10.1766722432
 20
11.0697914763
 30
0.0
 10
10.1515869352
 20
11.0720002333
 30
0.0
 10
10.1174685065
 20
11.0745570076
 30
0.0
 10
10.07416385
 20
11.0769703788
 30
0.0
 10
10.0216646242
 20
11.0786120286
 30
0.0
 10
9.9688024132
 20
11.0790001257
 30
0.0
 10
9.9160261134
 20
11.0781313836
 30
0.0
 10
9.8637838924
 20
11.0760132247
 30
0.0
 10
9.8208021822
 20
11.073205431
 30
0.0
 10
9.787026368
 20
11.0703366804
 30
0.0
 10
9.7622580047
 20
11.0679004793
 30
0.0
 10
9.7379502018
 20
11.0651717697
 30
0.0
 10
9.7141545676
 20
11.0621563432
 30
0.0
 10
9.6909216675
 20
11.0588606493
 30
0.0
 10
9.6683008403
 20
11.0552917427
 30
0.0
 10
9.6463401128
 20
11.051457262
 30
0.0
 10
9.6250860982
 20
11.0473654123
 30
0.0
 10
9.6045838926
 20
11.043024943
 30
0.0
 10
9.584876963
 20
11.0384451454
 30
0.0
 10
9.5660070462
 20
11.0336358319
 30
0.0
 10
9.5480140644
 20
11.0286072968
 30
0.0
 10
9.5309360241
 20
11.0233702938
 30
0.0
 10
9.5148089485
 20
11.0179360028
 30
0.0
 10
9.499666636
 20
11.0123160131
 30
0.0
 10
9.4855410271
 20
11.0065222774
 30
0.0
 10
9.4744691106
 20
11.0014814042
 30
0.0
 10
9.4661549056
 20
10.9973607001
 30
0.0
 10
9.4602927021
 20
10.9942844354
 30
0.0
 10
9.4547059557
 20
10.9911740077
 30
0.0
 10
9.4493975884
 20
10.9880310535
 30
0.0
 10
9.4443703809
 20
10.9848572532
 30
0.0
 10
9.4396269712
 20
10.9816541687
 30
0.0
 10
9.4351697557
 20
10.9784234703
 30
0.0
 10
9.4310010699
 20
10.9751666982
 30
0.0
 10
9.4271233144
 20
10.9718857511
 30
0.0
 10
9.4246839978
 20
10.9696379131
 30
0.0
 10
9.4235161879
 20
10.9685098952
 30
0.0
  0
SPLINE
  5
397
100
AcDbEntity
  8
0
100
AcDbSpline
 62
7
  6
CONTINUOUS
 70
0
 71
3
 72
54
 73
50
 74
0
 42
0.0000001
 43
0.0000001
 44
0.0000000001
 40
0.0
 40
0.0
 40
0.0
 40
0.0
 40
0.0092950661
 40
0.0191052502
 40
0.0294305592
 40
0.0402685824
 40
0.0516146648
 40
0.0634623385
 40
0.0758034521
 40
0.0886283472
 40
0.1019261031
 40
0.11568451
 40
0.129890328
 40
0.1445292804
 40
0.1595861489
 40
0.1750449128
 40
0.20709919
 40
0.2405496789
 40
0.2752430052
 40
0.3110171704
 40
0.3477029217
 40
0.3851250385
 40
0.4231035637
 40
0.4614550044
 40
0.4999935157
 40
0.5385320822
 40
0.5768836901
 40
0.614862496
 40
0.6522850006
 40
0.6889712404
 40
0.7247459949
 40
0.7594400146
 40
0.7928913005
 40
0.8091029509
 40
0.8249471916
 40
0.8404064083
 40
0.8554637766
 40
0.8701032373
 40
0.8843095703
 40
0.8980685372
 40
0.9113668295
 40
0.9241923096
 40
0.9365340047
 40
0.9483822622
 40
0.9597289669
 40
0.9705675778
 40
0.9808935128
 40
0.9907043067
 40
1.0
 40
1.0
 40
1.0
 40
1.0
 10
10.4709563496
 20
10.8530269878
 30
0.0
 10
10.4682651445
 20
10.8546015923
 30
0.0
 10
10.4626626544
 20
10.8577179046
 30
0.0
 10
10.4538576415
 20
10.8621872499
 30
0.0
 10
10.4444360747
 20
10.866571844
 30
0.0
 10
10.4344101618
 20
10.8708658592
 30
0.0
 10
10.4237927028
 20
10.8750638584
 30
0.0
 10
10.4125973509
 20
10.8791603475
 30
0.0
 10
10.400838529
 20
10.8831500021
 30
0.0
 10
10.3885314282
 20
10.8870276611
 30
0.0
 10
10.375691955
 20
10.8907882069
 30
0.0
 10
10.3623367439
 20
10.8944267893
 30
0.0
 10
10.3484830987
 20
10.8979386219
 30
0.0
 10
10.3341489938
 20
10.9013191119
 30
0.0
 10
10.3193530131
 20
10.9045639099
 30
0.0
 10
10.2987859681
 20
10.9087541893
 30
0.0
 10
10.2720599391
 20
10.9136050226
 30
0.0
 10
10.2388422855
 20
10.9187548502
 30
0.0
 10
10.204274331
 20
10.9232742285
 30
0.0
 10
10.1685356574
 20
10.9271393892
 30
0.0
 10
10.1318117403
 20
10.9303299567
 30
0.0
 10
10.0942933374
 20
10.9328291379
 30
0.0
 10
10.0561753649
 20
10.9346237796
 30
0.0
 10
10.0176559004
 20
10.9357044363
 30
0.0
 10
9.9789351309
 20
10.9360654283
 30
0.0
 10
9.9402143015
 20
10.935704862
 30
0.0
 10
9.9016946558
 20
10.9346246338
 30
0.0
 10
9.8635763835
 20
10.9328304225
 30
0.0
 10
9.8260575603
 20
10.9303316609
 30
0.0
 10
9.7893331273
 20
10.9271414938
 30
0.0
 10
9.7535937687
 20
10.9232767369
 30
0.0
 10
9.7190252216
 20
10.9187576987
 30
0.0
 10
9.6910586764
 20
10.9144225936
 30
0.0
 10
9.6694131588
 20
10.9106328525
 30
0.0
 10
9.6537511742
 20
10.9076722815
 30
0.0
 10
9.6385120418
 20
10.9045676691
 30
0.0
 10
9.623715532
 20
10.901323074
 30
0.0
 10
9.6093808614
 20
10.8979427371
 30
0.0
 10
9.5955266342
 20
10.8944310451
 30
0.0
 10
9.5821708151
 20
10.8907926368
 30
0.0
 10
9.569330721
 20
10.887032205
 30
0.0
 10
9.5570229722
 20
10.8831547026
 30
0.0
 10
9.5452634869
 20
10.8791651755
 30
0.0
 10
9.5340674571
 20
10.8750687956
 30
0.0
 10
9.5234492925
 20
10.8708709441
 30
0.0
 10
9.5134226779
 20
10.866577004
 30
0.0
 10
9.5040003742
 20
10.8621925448
 30
0.0
 10
9.4951946181
 20
10.8577232833
 30
0.0
 10
9.4895916163
 20
10.8546070377
 30
0.0
 10
9.4869001549
 20
10.8530324547
 30
0.0
  0
SPLINE
  5
398
100
AcDbEntity
  8
0
100
AcDbSpline
 62
7
  6
CONTINUOUS
 70
0
 71
3
 72
41
 73
37
 74
0
 42
0.0000001
 43
0.0000001
 44
0.0000000001
 40
0.0
 40
0.0
 40
0.0
 40
0.0
 40
0.0310748272
 40
0.0623072483
 40
0.0936920359
 40
0.1252208484
 40
0.156882237
 40
0.188662033
 40
0.2205436266
 40
0.2525083437
 40
0.2845358343
 40
0.3166044929
 40
0.3486918936
 40
0.3807752384
 40
0.4128318095
 40
0.4448394218
 40
0.4767768664
 40
0.5086243418
 40
0.5403638639
 40
0.5719796493
 40
0.6034584635
 40
0.6347899281
 40
0.6659667781
 40
0.6969850622
 40
0.7278442783
 40
0.7585474376
 40
0.7891010512
 40
0.8195150346
 40
0.8498025274
 40
0.8649066426
 40
0.8799854039
 40
0.9100708284
 40
0.9400854823
 40
0.9550762294
 40
0.970057877
 40
1.0
 40
1.0
 40
1.0
 40
1.0
 10
7.8298000766
 20
9.3261190924
 30
0.0
 10
7.8298000766
 20
9.3212597406
 30
0.0
 10
7.8301625841
 20
9.3115126546
 30
0.0
 10
7.8317810386
 20
9.296938697
 30
0.0
 10
7.8344665174
 20
9.2824502968
 30
0.0
 10
7.8382041055
 20
9.2681280915
 30
0.0
 10
7.8429731482
 20
9.2540504213
 30
0.0
 10
7.8487473363
 20
9.2402946352
 30
0.0
 10
7.8554948724
 20
9.2269362019
 30
0.0
 10
7.8631786355
 20
9.2140484279
 30
0.0
 10
7.8717563895
 20
9.2017020271
 30
0.0
 10
7.8811810116
 20
9.1899647459
 30
0.0
 10
7.8914007497
 20
9.1789009937
 30
0.0
 10
7.9023595041
 20
9.1685714941
 30
0.0
 10
7.9139971324
 20
9.1590329544
 30
0.0
 10
7.9262497758
 20
9.1503377578
 30
0.0
 10
7.9390502059
 20
9.142533678
 30
0.0
 10
7.952328189
 20
9.135663619
 30
0.0
 10
7.9660108666
 20
9.1297653803
 30
0.0
 10
7.9800231502
 20
9.1248714501
 30
0.0
 10
7.994288127
 20
9.1210088258
 30
0.0
 10
8.0087274765
 20
9.1181988638
 30
0.0
 10
8.0232618952
 20
9.116457159
 30
0.0
 10
8.0378115221
 20
9.1157934526
 30
0.0
 10
8.0522963882
 20
9.1162115785
 30
0.0
 10
8.0666367932
 20
9.1177094081
 30
0.0
 10
8.0807539607
 20
9.1202789496
 30
0.0
 10
8.0945696575
 20
9.1239060203
 30
0.0
 10
8.1057805089
 20
9.1277978169
 30
0.0
 10
8.1145188235
 20
9.1314170904
 30
0.0
 10
8.1230802573
 20
9.1353620679
 30
0.0
 10
8.1334610246
 20
9.1409073692
 30
0.0
 10
8.1433604481
 20
9.1472469598
 30
0.0
 10
8.1509471725
 20
9.1527676649
 30
0.0
 10
8.1582997365
 20
9.1585774882
 30
0.0
 10
8.1635497507
 20
9.1632598861
 30
0.0
 10
8.1669174509
 20
9.166512857
 30
0.0
  0
SPLINE
  5
399
100
AcDbEntity
  8
0
100
AcDbSpline
 62
4
  6
CONTINUOUS
 70
0
 71
3
 72
313
 73
309
 74
0
 42
0.0000001
 43
0.0000001
 44
0.0000000001
 40
0.0
 40
0.0
 40
0.0
 40
0.0
 40
0.015625
 40
0.0234375
 40
0.03125
 40
0.0390625
 40
0.046875
 40
0.05078125
 40
0.0546875
 40
0.056640625
 40
0.05859375
 40
0.060546875
 40
0.0615234375
 40
0.0620117188
 40
0.0625
 40
0.0629882812
 40
0.0634765625
 40
0.064453125
 40
0.06640625
 40
0.068359375
 40
0.0703125
 40
0.07421875
 40
0.078125
 40
0.0859375
 40
0.09375
 40
0.1015625
 40
0.109375
 40
0.11328125
 40
0.1171875
 40
0.119140625
 40
0.12109375
 40
0.123046875
 40
0.1240234375
 40
0.1245117188
 40
0.125
 40
0.1254882812
 40
0.1259765625
 40
0.126953125
 40
0.12890625
 40
0.130859375
 40
0.1328125
 40
0.13671875
 40
0.140625
 40
0.1484375
 40
0.15625
 40
0.1640625
 40
0.171875
 40
0.17578125
 40
0.1796875
 40
0.181640625
 40
0.18359375
 40
0.185546875
 40
0.1865234375
 40
0.1870117188
 40
0.1875
 40
0.1879882812
 40
0.1884765625
 40
0.189453125
 40
0.19140625
 40
0.193359375
 40
0.1953125
 40
0.19921875
 40
0.203125
 40
0.2109375
 40
0.21875
 40
0.2265625
 40
0.234375
 40
0.23828125
 40
0.2421875
 40
0.244140625
 40
0.24609375
 40
0.248046875
 40
0.2490234375
 40
0.2495117188
 40
0.25
 40
0.2504882812
 40
0.2509765625
 40
0.251953125
 40
0.25390625
 40
0.255859375
 40
0.2578125
 40
0.26171875
 40
0.265625
 40
0.2734375
 40
0.28125
 40
0.2890625
 40
0.296875
 40
0.30078125
 40
0.3046875
 40
0.306640625
 40
0.30859375
 40
0.310546875
 40
0.3115234375
 40
0.3120117188
 40
0.3125
 40
0.3129882812
 40
0.3134765625
 40
0.314453125
 40
0.31640625
 40
0.318359375
 40
0.3203125
 40
0.32421875
 40
0.328125
 40
0.3359375
 40
0.34375
 40
0.3515625
 40
0.359375
 40
0.36328125
 40
0.3671875
 40
0.369140625
 40
0.37109375
 40
0.373046875
 40
0.3740234375
 40
0.3745117188
 40
0.375
 40
0.3754882812
 40
0.3759765625
 40
0.376953125
 40
0.37890625
 40
0.380859375
 40
0.3828125
 40
0.38671875
 40
0.390625
 40
0.3984375
 40
0.40625
 40
0.4140625
 40
0.421875
 40
0.42578125
 40
0.4296875
 40
0.431640625
 40
0.43359375
 40
0.435546875
 40
0.4365234375
 40
0.4370117188
 40
0.4375
 40
0.4379882812
 40
0.4384765625
 40
0.439453125
 40
0.44140625
 40
0.443359375
 40
0.4453125
 40
0.44921875
 40
0.453125
 40
0.4609375
 40
0.46875
 40
0.4765625
 40
0.484375
 40
0.48828125
 40
0.4921875
 40
0.494140625
 40
0.49609375
 40
0.498046875
 40
0.4990234375
 40
0.4995117188
 40
0.5
 40
0.5004882812
 40
0.5009765625
 40
0.501953125
 40
0.50390625
 40
0.505859375
 40
0.5078125
 40
0.51171875
 40
0.515625
 40
0.5234375
 40
0.53125
 40
0.5390625
 40
0.546875
 40
0.55078125
 40
0.5546875
 40
0.556640625
 40
0.55859375
 40
0.560546875
 40
0.5615234375
 40
0.5620117188
 40
0.5625
 40
0.5629882812
 40
0.5634765625
 40
0.564453125
 40
0.56640625
 40
0.568359375
 40
0.5703125
 40
0.57421875
 40
0.578125
 40
0.5859375
 40
0.59375
 40
0.6015625
 40
0.609375
 40
0.61328125
 40
0.6171875
 40
0.619140625
 40
0.62109375
 40
0.623046875
 40
0.6240234375
 40
0.6245117188
 40
0.625
 40
0.6254882812
 40
0.6259765625
 40
0.626953125
 40
0.62890625
 40
0.630859375
 40
0.6328125
 40
0.63671875
 40
0.640625
 40
0.6484375
 40
0.65625
 40
0.6640625
 40
0.671875
 40
0.67578125
 40
0.6796875
 40
0.681640625
 40
0.68359375
 40
0.685546875
 40
0.6865234375
 40
0.6870117188
 40
0.6875
 40
0.6879882812
 40
0.6884765625
 40
0.689453125
 40
0.69140625
 40
0.693359375
 40
0.6953125
 40
0.69921875
 40
0.703125
 40
0.7109375
 40
0.71875
 40
0.7265625
 40
0.734375
 40
0.73828125
 40
0.7421875
 40
0.744140625
 40
0.74609375
 40
0.748046875
 40
0.7490234375
 40
0.7495117188
 40
0.75
 40
0.7504882812
 40
0.7509765625
 40
0.751953125
 40
0.75390625
 40
0.755859375
 40
0.7578125
 40
0.76171875
 40
0.765625
 40
0.7734375
 40
0.78125
 40
0.7890625
 40
0.796875
 40
0.80078125
 40
0.8046875
 40
0.806640625
 40
0.80859375
 40
0.810546875
 40
0.8115234375
 40
0.8120117188
 40
0.8125
 40
0.8129882812
 40
0.8134765625
 40
0.814453125
 40
0.81640625
 40
0.818359375
 40
0.8203125
 40
0.82421875
 40
0.828125
 40
0.8359375
 40
0.84375
 40
0.8515625
 40
0.859375
 40
0.86328125
 40
0.8671875
 40
0.869140625
 40
0.87109375
 40
0.873046875
 40
0.8740234375
 40
0.8745117188
 40
0.875
 40
0.8754882812
 40
0.8759765625
 40
0.876953125
 40
0.87890625
 40
0.880859375
 40
0.8828125
 40
0.88671875
 40
0.890625
 40
0.8984375
 40
0.90625
 40
0.9140625
 40
0.921875
 40
0.92578125
 40
0.9296875
 40
0.931640625
 40
0.93359375
 40
0.935546875
 40
0.9365234375
 40
0.9370117188
 40
0.9375
 40
0.9379882812
 40
0.9384765625
 40
0.939453125
 40
0.94140625
 40
0.943359375
 40
0.9453125
 40
0.94921875
 40
0.953125
 40
0.9609375
 40
0.96875
 40
0.9765625
 40
0.984375
 40
1.0
 40
1.0
 40
1.0
 40
1.0
 10
9.3830088052
 20
7.818777096
 30
0.0
 10
9.3827328666
 20
7.8216104722
 30
0.0
 10
9.3823189589
 20
7.8258605366
 30
0.0
 10
9.381767081
 20
7.8315272889
 30
0.0
 10
9.3813531749
 20
7.8357773535
 30
0.0
 10
9.3809392603
 20
7.840027417
 30
0.0
 10
9.3805943576
 20
7.8435691399
 30
0.0
 10
9.380318377
 20
7.8464025107
 30
0.0
 10
9.3801460222
 20
7.8481733846
 30
0.0
 10
9.3800078336
 20
7.8495900445
 30
0.0
 10
9.3799050266
 20
7.8506526467
 30
0.0
 10
9.3798166996
 20
7.8515378071
 30
0.0
 10
9.37976008
 20
7.8521580896
 30
0.0
 10
9.3797195921
 20
7.8525114903
 30
0.0
 10
9.3797121394
 20
7.8527794887
 30
0.0
 10
9.3796171004
 20
7.8530362187
 30
0.0
 10
9.3795209329
 20
7.8533824559
 30
0.0
 10
9.3793384053
 20
7.8539865396
 30
0.0
 10
9.3790850935
 20
7.8548504739
 30
0.0
 10
9.378777934
 20
7.8558867852
 30
0.0
 10
9.3783695006
 20
7.8572686767
 30
0.0
 10
9.3778585778
 20
7.8589959921
 30
0.0
 10
9.3770413144
 20
7.8617597241
 30
0.0
 10
9.3760196616
 20
7.8652143796
 30
0.0
 10
9.3747937117
 20
7.8693599709
 30
0.0
 10
9.3735677455
 20
7.8735055585
 30
0.0
 10
9.3725461335
 20
7.8769602235
 30
0.0
 10
9.3717287884
 20
7.8797239365
 30
0.0
 10
9.3712180732
 20
7.8814513002
 30
0.0
 10
9.3708092138
 20
7.8828330926
 30
0.0
 10
9.3705033556
 20
7.8838697066
 30
0.0
 10
9.3702459721
 20
7.8847326939
 30
0.0
 10
9.3700707133
 20
7.8853384681
 30
0.0
 10
9.3699628993
 20
7.8856819967
 30
0.0
 10
9.3699036345
 20
7.8859470466
 30
0.0
 10
9.3697618199
 20
7.8861837968
 30
0.0
 10
9.3696015281
 20
7.886509335
 30
0.0
 10
9.3693076016
 20
7.8870744275
 30
0.0
 10
9.3688947205
 20
7.8878841072
 30
0.0
 10
9.3683962611
 20
7.8888546935
 30
0.0
 10
9.367732697
 20
7.8901491681
 30
0.0
 10
9.366902883
 20
7.8917671383
 30
0.0
 10
9.3655753812
 20
7.8943559594
 30
0.0
 10
9.3639159347
 20
7.897591962
 30
0.0
 10
9.3619246305
 20
7.9014751762
 30
0.0
 10
9.3599333107
 20
7.905358384
 30
0.0
 10
9.3582739032
 20
7.9085944025
 30
0.0
 10
9.3569463233
 20
7.9111831918
 30
0.0
 10
9.3561167077
 20
7.9128012429
 30
0.0
 10
9.3554527364
 20
7.9140955514
 30
0.0
 10
9.3549555214
 20
7.9150666453
 30
0.0
 10
9.3545387466
 20
7.9158747369
 30
0.0
 10
9.354251771
 20
7.9164426645
 30
0.0
 10
9.3540803421
 20
7.9167636603
 30
0.0
 10
9.353972737
 20
7.9170143631
 30
0.0
 10
9.3537849872
 20
7.9172270093
 30
0.0
 10
9.3535626094
 20
7.9175238122
 30
0.0
 10
9.3531604234
 20
7.9180370324
 30
0.0
 10
9.3525926816
 20
7.9187734376
 30
0.0
 10
9.3519084767
 20
7.9196557398
 30
0.0
 10
9.3509972215
 20
7.9208326262
 30
0.0
 10
9.349857804
 20
7.9223035686
 30
0.0
 10
9.3480349308
 20
7.9246571691
 30
0.0
 10
9.3457562721
 20
7.9275991375
 30
0.0
 10
9.3430219119
 20
7.931129515
 30
0.0
 10
9.3402875384
 20
7.9346598825
 30
0.0
 10
9.338008913
 20
7.9376018759
 30
0.0
 10
9.3361859732
 20
7.9399554264
 30
0.0
 10
9.3350467249
 20
7.9414264957
 30
0.0
 10
9.3341351224
 20
7.9426031218
 30
0.0
 10
9.3334519787
 20
7.943486219
 30
0.0
 10
9.3328809165
 20
7.9442201368
 30
0.0
 10
9.332484658
 20
7.9447377975
 30
0.0
 10
9.332252783
 20
7.9450274856
 30
0.0
 10
9.3320942057
 20
7.9452619862
 30
0.0
 10
9.3318770332
 20
7.9454306076
 30
0.0
 10
9.3316079085
 20
7.9456784156
 30
0.0
 10
9.3311274175
 20
7.946101373
 30
0.0
 10
9.3304459804
 20
7.9467111953
 30
0.0
 10
9.3296261249
 20
7.9474405862
 30
0.0
 10
9.3285337285
 20
7.9484139443
 30
0.0
 10
9.3271679782
 20
7.9496303553
 30
0.0
 10
9.3249829202
 20
7.9515767731
 30
0.0
 10
9.3222515485
 20
7.9540097401
 30
0.0
 10
9.3189739248
 20
7.9569293258
 30
0.0
 10
9.3156962907
 20
7.9598488985
 30
0.0
 10
9.312964945
 20
7.9622818982
 30
0.0
 10
9.310779835
 20
7.9642282505
 30
0.0
 10
9.3094142167
 20
7.9654448282
 30
0.0
 10
9.3083215493
 20
7.9664178441
 30
0.0
 10
9.307502522
 20
7.9671482801
 30
0.0
 10
9.3068184938
 20
7.9677548326
 30
0.0
 10
9.3063426283
 20
7.9681836273
 30
0.0
 10
9.3060660924
 20
7.9684220824
 30
0.0
 10
9.3058716846
 20
7.9686194328
 30
0.0
 10
9.3056276069
 20
7.968746032
 30
0.0
 10
9.3053194954
 20
7.9689395096
 30
0.0
 10
9.3047722279
 20
7.9692665972
 30
0.0
 10
9.3039946376
 20
7.9697398766
 30
0.0
 10
9.3030597228
 20
7.9703052389
 30
0.0
 10
9.3018138006
 20
7.9710599539
 30
0.0
 10
9.3002561819
 20
7.97200304
 30
0.0
 10
9.2977641127
 20
7.9735121497
 30
0.0
 10
9.2946489846
 20
7.9753984775
 30
0.0
 10
9.2909108495
 20
7.9776620981
 30
0.0
 10
9.2871727064
 20
7.9799257043
 30
0.0
 10
9.2840575984
 20
7.9818120682
 30
0.0
 10
9.2815654889
 20
7.9833211056
 30
0.0
 10
9.2800079726
 20
7.9842643756
 30
0.0
 10
9.2787618402
 20
7.9850187131
 30
0.0
 10
9.2778275678
 20
7.9855852288
 30
0.0
 10
9.2770479675
 20
7.9860548992
 30
0.0
 10
9.2765042881
 20
7.9863884296
 30
0.0
 10
9.2761904277
 20
7.9865715843
 30
0.0
 10
9.2759640088
 20
7.9867298923
 30
0.0
 10
9.2757032774
 20
7.9868081494
 30
0.0
 10
9.2753676041
 20
7.9869404148
 30
0.0
 10
9.2747745994
 20
7.9871588696
 30
0.0
 10
9.2739303654
 20
7.9874777495
 30
0.0
 10
9.2729160366
 20
7.9878574941
 30
0.0
 10
9.271564034
 20
7.9883648371
 30
0.0
 10
9.2698738816
 20
7.9889986677
 30
0.0
 10
9.2671697212
 20
7.9900129913
 30
0.0
 10
9.263789492
 20
7.9912808284
 30
0.0
 10
9.2597332298
 20
7.992802264
 30
0.0
 10
9.2556769618
 20
7.9943236836
 30
0.0
 10
9.252296747
 20
7.9955915605
 30
0.0
 10
9.2495925577
 20
7.9966058045
 30
0.0
 10
9.2479024787
 20
7.9972398373
 30
0.0
 10
9.2465503256
 20
7.9977467653
 30
0.0
 10
9.2455364568
 20
7.9981277779
 30
0.0
 10
9.2446907834
 20
7.9984426905
 30
0.0
 10
9.2441003482
 20
7.9986682276
 30
0.0
 10
9.2437605579
 20
7.9987891454
 30
0.0
 10
9.2435124727
 20
7.9989022588
 30
0.0
 10
9.2432385568
 20
7.9989296524
 30
0.0
 10
9.2428823456
 20
7.9989960773
 30
0.0
 10
9.2422547781
 20
7.9990983899
 30
0.0
 10
9.2413604478
 20
7.999251834
 30
0.0
 10
9.2402863121
 20
7.9994328495
 30
0.0
 10
9.2388544592
 20
7.9996752923
 30
0.0
 10
9.2370645307
 20
7.999977973
 30
0.0
 10
9.234200708
 20
8.0004624705
 30
0.0
 10
9.2306209081
 20
8.0010680204
 30
0.0
 10
9.2263251572
 20
8.0017947133
 30
0.0
 10
9.2220294046
 20
8.0025213892
 30
0.0
 10
9.2184496089
 20
8.0031269816
 30
0.0
 10
9.2155857776
 20
8.0036113941
 30
0.0
 10
9.2137958709
 20
8.0039142909
 30
0.0
 10
9.2123639734
 20
8.0041562901
 30
0.0
 10
9.2112899739
 20
8.0043386608
 30
0.0
 10
9.2103952175
 20
8.0044878649
 30
0.0
 10
9.2097684107
 20
8.0045977466
 30
0.0
 10
9.2094109806
 20
8.0046520438
 30
0.0
 10
9.2091408089
 20
8.0047166899
 30
0.0
 10
9.2088786611
 20
8.0046898893
 30
0.0
 10
9.2085263318
 20
8.0046860529
 30
0.0
 10
9.2079110597
 20
8.0046644775
 30
0.0
 10
9.2070314177
 20
8.0046414252
 30
0.0
 10
9.2059761392
 20
8.0046104368
 30
0.0
 10
9.2045689992
 20
8.0045702806
 30
0.0
 10
9.2028101091
 20
8.0045196875
 30
0.0
 10
9.1999958654
 20
8.004438961
 30
0.0
 10
9.1964780676
 20
8.004337976
 30
0.0
 10
9.1922567069
 20
8.0042168291
 30
0.0
 10
9.1880353487
 20
8.0040956648
 30
0.0
 10
9.1845175448
 20
8.0039947231
 30
0.0
 10
9.1817033133
 20
8.0039139101
 30
0.0
 10
9.1799443923
 20
8.0038635369
 30
0.0
 10
9.1785373158
 20
8.0038229293
 30
0.0
 10
9.1774818432
 20
8.0037933196
 30
0.0
 10
9.1766028083
 20
8.0037659539
 30
0.0
 10
9.1759864524
 20
8.0037520787
 30
0.0
 10
9.1756358596
 20
8.0037359045
 30
0.0
 10
9.1753683781
 20
8.0037470018
 30
0.0
 10
9.1751182391
 20
8.00366931
 30
0.0
 10
9.1747786711
 20
8.0035966915
 30
0.0
 10
9.1741872457
 20
8.0034551794
 30
0.0
 10
9.1733408786
 20
8.0032605634
 30
0.0
 10
9.1723258689
 20
8.003023795
 30
0.0
 10
9.1709723024
 20
8.0027092318
 30
0.0
 10
9.1692804196
 20
8.0023156415
 30
0.0
 10
9.166573365
 20
8.0016861129
 30
0.0
 10
9.1631895614
 20
8.0008991277
 30
0.0
 10
9.1591289899
 20
7.9999547794
 30
0.0
 10
9.1550684234
 20
7.9990104144
 30
0.0
 10
9.1516846075
 20
7.9982234709
 30
0.0
 10
9.1489775775
 20
7.9975938589
 30
0.0
 10
9.1472856321
 20
7.9972004805
 30
0.0
 10
9.1459321941
 20
7.9968854824
 30
0.0
 10
9.1449167915
 20
7.9966500427
 30
0.0
 10
9.1440716538
 20
7.9964512696
 30
0.0
 10
9.1434780338
 20
7.9963171785
 30
0.0
 10
9.1431419821
 20
7.9962326698
 30
0.0
 10
9.1428810422
 20
7.9961915012
 30
0.0
 10
9.1426541269
 20
7.9960654232
 30
0.0
 10
9.1423397051
 20
7.9959269366
 30
0.0
 10
9.1417949963
 20
7.9956707858
 30
0.0
 10
9.1410139501
 20
7.9953120705
 30
0.0
 10
9.140077932
 20
7.9948785241
 30
0.0
 10
9.1388294757
 20
7.9943015408
 30
0.0
 10
9.1372690534
 20
7.9935799424
 30
0.0
 10
9.1347722948
 20
7.9924255915
 30
0.0
 10
9.1316513752
 20
7.9909825814
 30
0.0
 10
9.1279062585
 20
7.989251002
 30
0.0
 10
9.1241611491
 20
7.9875194064
 30
0.0
 10
9.1210402109
 20
7.9860764367
 30
0.0
 10
9.1185434896
 20
7.984922005
 30
0.0
 10
9.1169829725
 20
7.9842006117
 30
0.0
 10
9.1157347106
 20
7.9836232076
 30
0.0
 10
9.1147980987
 20
7.9831909468
 30
0.0
 10
9.1140189106
 20
7.982828209
 30
0.0
 10
9.1134708848
 20
7.9825792391
 30
0.0
 10
9.1131617776
 20
7.9824292469
 30
0.0
 10
9.1129185373
 20
7.9823385105
 30
0.0
 10
9.1127189115
 20
7.9821646048
 30
0.0
 10
9.1124375306
 20
7.9819617408
 30
0.0
 10
9.1119522021
 20
7.9815932125
 30
0.0
 10
9.1112551699
 20
7.98107381
 30
0.0
 10
9.1104203175
 20
7.9804475023
 30
0.0
 10
9.1093066269
 20
7.9796134819
 30
0.0
 10
9.1079147033
 20
7.9785705946
 30
0.0
 10
9.1056875195
 20
7.9769021771
 30
0.0
 10
9.1029035766
 20
7.9748165855
 30
0.0
 10
9.0995628277
 20
7.972313907
 30
0.0
 10
9.0962220896
 20
7.9698112144
 30
0.0
 10
9.0934381194
 20
7.967725658
 30
0.0
 10
9.0912109902
 20
7.9660571702
 30
0.0
 10
9.0898189281
 20
7.9650144617
 30
0.0
 10
9.0887055218
 20
7.9641800742
 30
0.0
 10
9.0878698007
 20
7.963554888
 30
0.0
 10
9.0871754863
 20
7.9630319766
 30
0.0
 10
9.0866853062
 20
7.9626697122
 30
0.0
 10
9.0864116987
 20
7.9624568119
 30
0.0
 10
9.0861881954
 20
7.9623137347
 30
0.0
 10
9.086034635
 20
7.9621072116
 30
0.0
 10
9.0858054909
 20
7.9618539781
 30
0.0
 10
9.0854158557
 20
7.9614005084
 30
0.0
 10
9.0848532911
 20
7.9607580853
 30
0.0
 10
9.0841807574
 20
7.9599848702
 30
0.0
 10
9.0832831573
 20
7.9589547226
 30
0.0
 10
9.0821614614
 20
7.9576667622
 30
0.0
 10
9.0803665778
 20
7.9556061798
 30
0.0
 10
9.0781230322
 20
7.9530303985
 30
0.0
 10
9.0754307504
 20
7.9499394851
 30
0.0
 10
9.0727384825
 20
7.9468485604
 30
0.0
 10
9.0704949022
 20
7.9442728075
 30
0.0
 10
9.0687000878
 20
7.9422121684
 30
0.0
 10
9.0675782161
 20
7.9409243522
 30
0.0
 10
9.0666809769
 20
7.9398939085
 30
0.0
 10
9.0660073406
 20
7.939121598
 30
0.0
 10
9.0654482256
 20
7.9384763446
 30
0.0
 10
9.0650524323
 20
7.9380279274
 30
0.0
 10
9.064833155
 20
7.9377665985
 30
0.0
 10
9.0646492868
 20
7.937584942
 30
0.0
 10
9.0645396146
 20
7.9373484701
 30
0.0
 10
9.0643675045
 20
7.9370522944
 30
0.0
 10
9.06407837
 20
7.9365250785
 30
0.0
 10
9.0636590167
 20
7.9357765704
 30
0.0
 10
9.063158491
 20
7.9348763672
 30
0.0
 10
9.062490181
 20
7.9336767925
 30
0.0
 10
9.0616551161
 20
7.9321770857
 30
0.0
 10
9.060318832
 20
7.9297776882
 30
0.0
 10
9.0586485391
 20
7.9267783952
 30
0.0
 10
9.056644159
 20
7.9231792644
 30
0.0
 10
9.0546397939
 20
7.9195801244
 30
0.0
 10
9.0529694635
 20
7.9165808543
 30
0.0
 10
9.0516332545
 20
7.9141814112
 30
0.0
 10
9.0507979986
 20
7.9126818201
 30
0.0
 10
9.0501300807
 20
7.9114820079
 30
0.0
 10
9.0496283569
 20
7.9105825302
 30
0.0
 10
9.049212752
 20
7.9098317522
 30
0.0
 10
9.0489169259
 20
7.9093085884
 30
0.0
 10
9.0487555375
 20
7.9090059203
 30
0.0
 10
9.0486129317
 20
7.9087893912
 30
0.0
 10
9.0485527565
 20
7.9085328329
 30
0.0
 10
9.04844377
 20
7.9082047179
 30
0.0
 10
9.0482664402
 20
7.9076240111
 30
0.0
 10
9.0480061081
 20
7.9067978311
 30
0.0
 10
9.0476967075
 20
7.9058049593
 30
0.0
 10
9.0472831262
 20
7.9044816388
 30
0.0
 10
9.0467665081
 20
7.9028273139
 30
0.0
 10
9.0459397187
 20
7.9001804916
 30
0.0
 10
9.0449063012
 20
7.89687193
 30
0.0
 10
9.0436661684
 20
7.8929016714
 30
0.0
 10
9.042426052
 20
7.8889314058
 30
0.0
 10
9.0413925937
 20
7.8856228615
 30
0.0
 10
9.0405658859
 20
7.8829760046
 30
0.0
 10
9.0400490605
 20
7.8813217675
 30
0.0
 10
9.0396359046
 20
7.8799982669
 30
0.0
 10
9.0393252041
 20
7.8790059453
 30
0.0
 10
9.0390689391
 20
7.8781780439
 30
0.0
 10
9.0388843488
 20
7.8776004102
 30
0.0
 10
9.0387869955
 20
7.8772673713
 30
0.0
 10
9.0386910869
 20
7.8770259374
 30
0.0
 10
9.0386826894
 20
7.8767526037
 30
0.0
 10
9.0386409678
 20
7.8763992858
 30
0.0
 10
9.0385821772
 20
7.8757757951
 30
0.0
 10
9.0384907551
 20
7.8748878046
 30
0.0
 10
9.0383842312
 20
7.8738210558
 30
0.0
 10
9.0382410878
 20
7.8723991293
 30
0.0
 10
9.038062539
 20
7.8706215825
 30
0.0
 10
9.0377766483
 20
7.8677775851
 30
0.0
 10
9.037419358
 20
7.8642225617
 30
0.0
 10
9.0369905782
 20
7.859956545
 30
0.0
 10
9.0365618069
 20
7.8556905253
 30
0.0
 10
9.0359901088
 20
7.8500025001
 30
0.0
 10
9.0355613359
 20
7.845736481
 30
0.0
 10
9.0352754872
 20
7.8428924683
 30
0.0
  0
SPLINE
  5
39A
100
AcDbEntity
  8
0
100
AcDbSpline
 62
4
  6
CONTINUOUS
 70
0
 71
3
 72
313
 73
309
 74
0
 42
0.0000001
 43
0.0000001
 44
0.0000000001
 40
0.0
 40
0.0
 40
0.0
 40
0.0
 40
0.015625
 40
0.0234375
 40
0.03125
 40
0.0390625
 40
0.046875
 40
0.05078125
 40
0.0546875
 40
0.056640625
 40
0.05859375
 40
0.060546875
 40
0.0615234375
 40
0.0620117188
 40
0.0625
 40
0.0629882812
 40
0.0634765625
 40
0.064453125
 40
0.06640625
 40
0.068359375
 40
0.0703125
 40
0.07421875
 40
0.078125
 40
0.0859375
 40
0.09375
 40
0.1015625
 40
0.109375
 40
0.11328125
 40
0.1171875
 40
0.119140625
 40
0.12109375
 40
0.123046875
 40
0.1240234375
 40
0.1245117188
 40
0.125
 40
0.1254882812
 40
0.1259765625
 40
0.126953125
 40
0.12890625
 40
0.130859375
 40
0.1328125
 40
0.13671875
 40
0.140625
 40
0.1484375
 40
0.15625
 40
0.1640625
 40
0.171875
 40
0.17578125
 40
0.1796875
 40
0.181640625
 40
0.18359375
 40
0.185546875
 40
0.1865234375
 40
0.1870117188
 40
0.1875
 40
0.1879882812
 40
0.1884765625
 40
0.189453125
 40
0.19140625
 40
0.193359375
 40
0.1953125
 40
0.19921875
 40
0.203125
 40
0.2109375
 40
0.21875
 40
0.2265625
 40
0.234375
 40
0.23828125
 40
0.2421875
 40
0.244140625
 40
0.24609375
 40
0.248046875
 40
0.2490234375
 40
0.2495117188
 40
0.25
 40
0.2504882812
 40
0.2509765625
 40
0.251953125
 40
0.25390625
 40
0.255859375
 40
0.2578125
 40
0.26171875
 40
0.265625
 40
0.2734375
 40
0.28125
 40
0.2890625
 40
0.296875
 40
0.30078125
 40
0.3046875
 40
0.306640625
 40
0.30859375
 40
0.310546875
 40
0.3115234375
 40
0.3120117188
 40
0.3125
 40
0.3129882812
 40
0.3134765625
 40
0.314453125
 40
0.31640625
 40
0.318359375
 40
0.3203125
 40
0.32421875
 40
0.328125
 40
0.3359375
 40
0.34375
 40
0.3515625
 40
0.359375
 40
0.36328125
 40
0.3671875
 40
0.369140625
 40
0.37109375
 40
0.373046875
 40
0.3740234375
 40
0.3745117188
 40
0.375
 40
0.3754882812
 40
0.3759765625
 40
0.376953125
 40
0.37890625
 40
0.380859375
 40
0.3828125
 40
0.38671875
 40
0.390625
 40
0.3984375
 40
0.40625
 40
0.4140625
 40
0.421875
 40
0.42578125
 40
0.4296875
 40
0.431640625
 40
0.43359375
 40
0.435546875
 40
0.4365234375
 40
0.4370117188
 40
0.4375
 40
0.4379882812
 40
0.4384765625
 40
0.439453125
 40
0.44140625
 40
0.443359375
 40
0.4453125
 40
0.44921875
 40
0.453125
 40
0.4609375
 40
0.46875
 40
0.4765625
 40
0.484375
 40
0.48828125
 40
0.4921875
 40
0.494140625
 40
0.49609375
 40
0.498046875
 40
0.4990234375
 40
0.4995117188
 40
0.5
 40
0.5004882812
 40
0.5009765625
 40
0.501953125
 40
0.50390625
 40
0.505859375
 40
0.5078125
 40
0.51171875
 40
0.515625
 40
0.5234375
 40
0.53125
 40
0.5390625
 40
0.546875
 40
0.55078125
 40
0.5546875
 40
0.556640625
 40
0.55859375
 40
0.560546875
 40
0.5615234375
 40
0.5620117188
 40
0.5625
 40
0.5629882812
 40
0.5634765625
 40
0.564453125
 40
0.56640625
 40
0.568359375
 40
0.5703125
 40
0.57421875
 40
0.578125
 40
0.5859375
 40
0.59375
 40
0.6015625
 40
0.609375
 40
0.61328125
 40
0.6171875
 40
0.619140625
 40
0.62109375
 40
0.623046875
 40
0.6240234375
 40
0.6245117188
 40
0.625
 40
0.6254882812
 40
0.6259765625
 40
0.626953125
 40
0.62890625
 40
0.630859375
 40
0.6328125
 40
0.63671875
 40
0.640625
 40
0.6484375
 40
0.65625
 40
0.6640625
 40
0.671875
 40
0.67578125
 40
0.6796875
 40
0.681640625
 40
0.68359375
 40
0.685546875
 40
0.6865234375
 40
0.6870117188
 40
0.6875
 40
0.6879882812
 40
0.6884765625
 40
0.689453125
 40
0.69140625
 40
0.693359375
 40
0.6953125
 40
0.69921875
 40
0.703125
 40
0.7109375
 40
0.71875
 40
0.7265625
 40
0.734375
 40
0.73828125
 40
0.7421875
 40
0.744140625
 40
0.74609375
 40
0.748046875
 40
0.7490234375
 40
0.7495117188
 40
0.75
 40
0.7504882812
 40
0.7509765625
 40
0.751953125
 40
0.75390625
 40
0.755859375
 40
0.7578125
 40
0.76171875
 40
0.765625
 40
0.7734375
 40
0.78125
 40
0.7890625
 40
0.796875
 40
0.80078125
 40
0.8046875
 40
0.806640625
 40
0.80859375
 40
0.810546875
 40
0.8115234375
 40
0.8120117188
 40
0.8125
 40
0.8129882812
 40
0.8134765625
 40
0.814453125
 40
0.81640625
 40
0.818359375
 40
0.8203125
 40
0.82421875
 40
0.828125
 40
0.8359375
 40
0.84375
 40
0.8515625
 40
0.859375
 40
0.86328125
 40
0.8671875
 40
0.869140625
 40
0.87109375
 40
0.873046875
 40
0.8740234375
 40
0.8745117188
 40
0.875
 40
0.8754882812
 40
0.8759765625
 40
0.876953125
 40
0.87890625
 40
0.880859375
 40
0.8828125
 40
0.88671875
 40
0.890625
 40
0.8984375
 40
0.90625
 40
0.9140625
 40
0.921875
 40
0.92578125
 40
0.9296875
 40
0.931640625
 40
0.93359375
 40
0.935546875
 40
0.9365234375
 40
0.9370117188
 40
0.9375
 40
0.9379882812
 40
0.9384765625
 40
0.939453125
 40
0.94140625
 40
0.943359375
 40
0.9453125
 40
0.94921875
 40
0.953125
 40
0.9609375
 40
0.96875
 40
0.9765625
 40
0.984375
 40
1.0
 40
1.0
 40
1.0
 40
1.0
 10
9.0352754872
 20
7.8428924835
 30
0.0
 10
9.0355514258
 20
7.8400591073
 30
0.0
 10
9.0359653335
 20
7.8358090429
 30
0.0
 10
9.0365172113
 20
7.8301422906
 30
0.0
 10
9.0369311175
 20
7.825892226
 30
0.0
 10
9.0373450321
 20
7.8216421625
 30
0.0
 10
9.0376899348
 20
7.8181004396
 30
0.0
 10
9.0379659154
 20
7.8152670688
 30
0.0
 10
9.0381382702
 20
7.8134961949
 30
0.0
 10
9.0382764588
 20
7.812079535
 30
0.0
 10
9.0383792658
 20
7.8110169327
 30
0.0
 10
9.0384675928
 20
7.8101317724
 30
0.0
 10
9.0385242124
 20
7.8095114899
 30
0.0
 10
9.0385647003
 20
7.8091580892
 30
0.0
 10
9.0385721529
 20
7.8088900908
 30
0.0
 10
9.0386671919
 20
7.8086333608
 30
0.0
 10
9.0387633595
 20
7.8082871236
 30
0.0
 10
9.0389458871
 20
7.8076830399
 30
0.0
 10
9.0391991989
 20
7.8068191056
 30
0.0
 10
9.0395063584
 20
7.8057827943
 30
0.0
 10
9.0399147918
 20
7.8044009028
 30
0.0
 10
9.0404257146
 20
7.8026735874
 30
0.0
 10
9.041242978
 20
7.7999098554
 30
0.0
 10
9.0422646308
 20
7.7964551999
 30
0.0
 10
9.0434905807
 20
7.7923096086
 30
0.0
 10
9.0447165469
 20
7.788164021
 30
0.0
 10
9.0457381589
 20
7.784709356
 30
0.0
 10
9.046555504
 20
7.781945643
 30
0.0
 10
9.0470662192
 20
7.7802182793
 30
0.0
 10
9.0474750786
 20
7.7788364869
 30
0.0
 10
9.0477809367
 20
7.7777998729
 30
0.0
 10
9.0480383203
 20
7.7769368856
 30
0.0
 10
9.0482135791
 20
7.7763311114
 30
0.0
 10
9.0483213931
 20
7.7759875828
 30
0.0
 10
9.0483806579
 20
7.7757225329
 30
0.0
 10
9.0485224725
 20
7.7754857827
 30
0.0
 10
9.0486827643
 20
7.7751602445
 30
0.0
 10
9.0489766908
 20
7.7745951519
 30
0.0
 10
9.0493895719
 20
7.7737854723
 30
0.0
 10
9.0498880313
 20
7.772814886
 30
0.0
 10
9.0505515954
 20
7.7715204113
 30
0.0
 10
9.0513814094
 20
7.7699024412
 30
0.0
 10
9.0527089112
 20
7.76731362
 30
0.0
 10
9.0543683577
 20
7.7640776175
 30
0.0
 10
9.0563596619
 20
7.7601944033
 30
0.0
 10
9.0583509817
 20
7.7563111954
 30
0.0
 10
9.0600103892
 20
7.7530751769
 30
0.0
 10
9.0613379691
 20
7.7504863877
 30
0.0
 10
9.0621675847
 20
7.7488683366
 30
0.0
 10
9.062831556
 20
7.7475740281
 30
0.0
 10
9.063328771
 20
7.7466029342
 30
0.0
 10
9.0637455458
 20
7.7457948426
 30
0.0
 10
9.0640325214
 20
7.745226915
 30
0.0
 10
9.0642039503
 20
7.7449059192
 30
0.0
 10
9.0643115554
 20
7.7446552164
 30
0.0
 10
9.0644993052
 20
7.7444425702
 30
0.0
 10
9.064721683
 20
7.7441457673
 30
0.0
 10
9.065123869
 20
7.7436325471
 30
0.0
 10
9.0656916108
 20
7.7428961419
 30
0.0
 10
9.0663758157
 20
7.7420138397
 30
0.0
 10
9.0672870709
 20
7.7408369533
 30
0.0
 10
9.0684264884
 20
7.7393660109
 30
0.0
 10
9.0702493616
 20
7.7370124104
 30
0.0
 10
9.0725280203
 20
7.734070442
 30
0.0
 10
9.0752623805
 20
7.7305400645
 30
0.0
 10
9.077996754
 20
7.727009697
 30
0.0
 10
9.0802753794
 20
7.7240677036
 30
0.0
 10
9.0820983192
 20
7.721714153
 30
0.0
 10
9.0832375675
 20
7.7202430838
 30
0.0
 10
9.08414917
 20
7.7190664577
 30
0.0
 10
9.0848323137
 20
7.7181833604
 30
0.0
 10
9.0854033759
 20
7.7174494427
 30
0.0
 10
9.0857996344
 20
7.716931782
 30
0.0
 10
9.0860315094
 20
7.7166420939
 30
0.0
 10
9.0861900867
 20
7.7164075933
 30
0.0
 10
9.0864072592
 20
7.7162389719
 30
0.0
 10
9.0866763839
 20
7.7159911639
 30
0.0
 10
9.0871568749
 20
7.7155682065
 30
0.0
 10
9.087838312
 20
7.7149583842
 30
0.0
 10
9.0886581675
 20
7.7142289932
 30
0.0
 10
9.0897505639
 20
7.7132556352
 30
0.0
 10
9.0911163142
 20
7.7120392242
 30
0.0
 10
9.0933013722
 20
7.7100928063
 30
0.0
 10
9.0960327439
 20
7.7076598394
 30
0.0
 10
9.0993103676
 20
7.7047402536
 30
0.0
 10
9.1025880017
 20
7.701820681
 30
0.0
 10
9.1053193474
 20
7.6993876813
 30
0.0
 10
9.1075044574
 20
7.697441329
 30
0.0
 10
9.1088700756
 20
7.6962247513
 30
0.0
 10
9.1099627431
 20
7.6952517354
 30
0.0
 10
9.1107817704
 20
7.6945212993
 30
0.0
 10
9.1114657986
 20
7.6939147469
 30
0.0
 10
9.1119416641
 20
7.6934859522
 30
0.0
 10
9.1122181999
 20
7.6932474971
 30
0.0
 10
9.1124126078
 20
7.6930501466
 30
0.0
 10
9.1126566855
 20
7.6929235475
 30
0.0
 10
9.112964797
 20
7.6927300699
 30
0.0
 10
9.1135120644
 20
7.6924029823
 30
0.0
 10
9.1142896548
 20
7.6919297028
 30
0.0
 10
9.1152245696
 20
7.6913643406
 30
0.0
 10
9.1164704918
 20
7.6906096256
 30
0.0
 10
9.1180281105
 20
7.6896665395
 30
0.0
 10
9.1205201797
 20
7.6881574297
 30
0.0
 10
9.1236353078
 20
7.686271102
 30
0.0
 10
9.1273734429
 20
7.6840074814
 30
0.0
 10
9.131111586
 20
7.6817438752
 30
0.0
 10
9.134226694
 20
7.6798575113
 30
0.0
 10
9.1367188035
 20
7.6783484739
 30
0.0
 10
9.1382763198
 20
7.6774052039
 30
0.0
 10
9.1395224522
 20
7.6766508664
 30
0.0
 10
9.1404567246
 20
7.6760843506
 30
0.0
 10
9.1412363249
 20
7.6756146803
 30
0.0
 10
9.1417800043
 20
7.6752811499
 30
0.0
 10
9.1420938647
 20
7.6750979952
 30
0.0
 10
9.1423202836
 20
7.6749396872
 30
0.0
 10
9.142581015
 20
7.6748614301
 30
0.0
 10
9.1429166883
 20
7.6747291647
 30
0.0
 10
9.1435096929
 20
7.6745107099
 30
0.0
 10
9.144353927
 20
7.6741918299
 30
0.0
 10
9.1453682558
 20
7.6738120853
 30
0.0
 10
9.1467202583
 20
7.6733047423
 30
0.0
 10
9.1484104107
 20
7.6726709118
 30
0.0
 10
9.1511145712
 20
7.6716565882
 30
0.0
 10
9.1544948004
 20
7.670388751
 30
0.0
 10
9.1585510626
 20
7.6688673155
 30
0.0
 10
9.1626073306
 20
7.6673458959
 30
0.0
 10
9.1659875454
 20
7.666078019
 30
0.0
 10
9.1686917347
 20
7.665063775
 30
0.0
 10
9.1703818137
 20
7.6644297422
 30
0.0
 10
9.1717339668
 20
7.6639228142
 30
0.0
 10
9.1727478356
 20
7.6635418016
 30
0.0
 10
9.173593509
 20
7.663226889
 30
0.0
 10
9.1741839441
 20
7.6630013519
 30
0.0
 10
9.1745237345
 20
7.6628804341
 30
0.0
 10
9.1747718197
 20
7.6627673207
 30
0.0
 10
9.1750457356
 20
7.6627399271
 30
0.0
 10
9.1754019468
 20
7.6626735022
 30
0.0
 10
9.1760295143
 20
7.6625711896
 30
0.0
 10
9.1769238446
 20
7.6624177455
 30
0.0
 10
9.1779979803
 20
7.66223673
 30
0.0
 10
9.1794298332
 20
7.6619942872
 30
0.0
 10
9.1812197617
 20
7.6616916065
 30
0.0
 10
9.1840835844
 20
7.661207109
 30
0.0
 10
9.1876633843
 20
7.6606015591
 30
0.0
 10
9.1919591352
 20
7.6598748662
 30
0.0
 10
9.1962548878
 20
7.6591481903
 30
0.0
 10
9.1998346835
 20
7.6585425979
 30
0.0
 10
9.2026985147
 20
7.6580581854
 30
0.0
 10
9.2044884215
 20
7.6577552886
 30
0.0
 10
9.2059203189
 20
7.6575132893
 30
0.0
 10
9.2069943185
 20
7.6573309187
 30
0.0
 10
9.2078890749
 20
7.6571817146
 30
0.0
 10
9.2085158817
 20
7.6570718329
 30
0.0
 10
9.2088733118
 20
7.6570175357
 30
0.0
 10
9.2091434835
 20
7.6569528896
 30
0.0
 10
9.2094056313
 20
7.6569796901
 30
0.0
 10
9.2097579606
 20
7.6569835266
 30
0.0
 10
9.2103732327
 20
7.657005102
 30
0.0
 10
9.2112528747
 20
7.6570281542
 30
0.0
 10
9.2123081532
 20
7.6570591426
 30
0.0
 10
9.2137152932
 20
7.6570992989
 30
0.0
 10
9.2154741833
 20
7.657149892
 30
0.0
 10
9.218288427
 20
7.6572306185
 30
0.0
 10
9.2218062248
 20
7.6573316035
 30
0.0
 10
9.2260275855
 20
7.6574527504
 30
0.0
 10
9.2302489437
 20
7.6575739146
 30
0.0
 10
9.2337667476
 20
7.6576748564
 30
0.0
 10
9.2365809791
 20
7.6577556694
 30
0.0
 10
9.2383399001
 20
7.6578060426
 30
0.0
 10
9.2397469766
 20
7.6578466501
 30
0.0
 10
9.2408024492
 20
7.6578762599
 30
0.0
 10
9.2416814841
 20
7.6579036256
 30
0.0
 10
9.24229784
 20
7.6579175007
 30
0.0
 10
9.2426484328
 20
7.657933675
 30
0.0
 10
9.2429159143
 20
7.6579225777
 30
0.0
 10
9.2431660533
 20
7.6580002695
 30
0.0
 10
9.2435056213
 20
7.658072888
 30
0.0
 10
9.2440970467
 20
7.6582144
 30
0.0
 10
9.2449434138
 20
7.6584090161
 30
0.0
 10
9.2459584235
 20
7.6586457844
 30
0.0
 10
9.24731199
 20
7.6589603477
 30
0.0
 10
9.2490038728
 20
7.659353938
 30
0.0
 10
9.2517109274
 20
7.6599834666
 30
0.0
 10
9.255094731
 20
7.6607704518
 30
0.0
 10
9.2591553025
 20
7.6617148001
 30
0.0
 10
9.263215869
 20
7.6626591651
 30
0.0
 10
9.2665996849
 20
7.6634461086
 30
0.0
 10
9.2693067149
 20
7.6640757205
 30
0.0
 10
9.2709986603
 20
7.6644690989
 30
0.0
 10
9.2723520983
 20
7.6647840971
 30
0.0
 10
9.2733675009
 20
7.6650195368
 30
0.0
 10
9.2742126386
 20
7.6652183099
 30
0.0
 10
9.2748062586
 20
7.665352401
 30
0.0
 10
9.2751423103
 20
7.6654369097
 30
0.0
 10
9.2754032502
 20
7.6654780783
 30
0.0
 10
9.2756301655
 20
7.6656041563
 30
0.0
 10
9.2759445873
 20
7.6657426428
 30
0.0
 10
9.2764892961
 20
7.6659987937
 30
0.0
 10
9.2772703423
 20
7.666357509
 30
0.0
 10
9.2782063604
 20
7.6667910554
 30
0.0
 10
9.2794548167
 20
7.6673680386
 30
0.0
 10
9.281015239
 20
7.668089637
 30
0.0
 10
9.2835119976
 20
7.669243988
 30
0.0
 10
9.2866329171
 20
7.670686998
 30
0.0
 10
9.2903780339
 20
7.6724185775
 30
0.0
 10
9.2941231433
 20
7.6741501731
 30
0.0
 10
9.2972440815
 20
7.6755931428
 30
0.0
 10
9.2997408028
 20
7.6767475745
 30
0.0
 10
9.3013013198
 20
7.6774689678
 30
0.0
 10
9.3025495818
 20
7.6780463719
 30
0.0
 10
9.3034861937
 20
7.6784786326
 30
0.0
 10
9.3042653818
 20
7.6788413705
 30
0.0
 10
9.3048134076
 20
7.6790903404
 30
0.0
 10
9.3051225148
 20
7.6792403326
 30
0.0
 10
9.3053657551
 20
7.679331069
 30
0.0
 10
9.3055653809
 20
7.6795049747
 30
0.0
 10
9.3058467618
 20
7.6797078386
 30
0.0
 10
9.3063320903
 20
7.680076367
 30
0.0
 10
9.3070291225
 20
7.6805957695
 30
0.0
 10
9.3078639749
 20
7.6812220772
 30
0.0
 10
9.3089776655
 20
7.6820560976
 30
0.0
 10
9.3103695891
 20
7.6830989849
 30
0.0
 10
9.3125967729
 20
7.6847674024
 30
0.0
 10
9.3153807158
 20
7.686852994
 30
0.0
 10
9.3187214647
 20
7.6893556725
 30
0.0
 10
9.3220622028
 20
7.691858365
 30
0.0
 10
9.324846173
 20
7.6939439214
 30
0.0
 10
9.3270733022
 20
7.6956124093
 30
0.0
 10
9.3284653643
 20
7.6966551177
 30
0.0
 10
9.3295787706
 20
7.6974895053
 30
0.0
 10
9.3304144917
 20
7.6981146915
 30
0.0
 10
9.3311088061
 20
7.6986376028
 30
0.0
 10
9.3315989862
 20
7.6989998673
 30
0.0
 10
9.3318725937
 20
7.6992127675
 30
0.0
 10
9.332096097
 20
7.6993558448
 30
0.0
 10
9.3322496574
 20
7.6995623679
 30
0.0
 10
9.3324788015
 20
7.6998156014
 30
0.0
 10
9.3328684367
 20
7.7002690711
 30
0.0
 10
9.3334310013
 20
7.7009114942
 30
0.0
 10
9.334103535
 20
7.7016847093
 30
0.0
 10
9.3350011351
 20
7.7027148569
 30
0.0
 10
9.336122831
 20
7.7040028173
 30
0.0
 10
9.3379177146
 20
7.7060633997
 30
0.0
 10
9.3401612602
 20
7.708639181
 30
0.0
 10
9.342853542
 20
7.7117300944
 30
0.0
 10
9.3455458099
 20
7.7148210191
 30
0.0
 10
9.3477893902
 20
7.717396772
 30
0.0
 10
9.3495842046
 20
7.7194574111
 30
0.0
 10
9.3507060763
 20
7.7207452273
 30
0.0
 10
9.3516033155
 20
7.721775671
 30
0.0
 10
9.3522769518
 20
7.7225479815
 30
0.0
 10
9.3528360667
 20
7.7231932349
 30
0.0
 10
9.3532318601
 20
7.723641652
 30
0.0
 10
9.3534511373
 20
7.723902981
 30
0.0
 10
9.3536350056
 20
7.7240846375
 30
0.0
 10
9.3537446778
 20
7.7243211094
 30
0.0
 10
9.3539167879
 20
7.7246172851
 30
0.0
 10
9.3542059224
 20
7.7251445009
 30
0.0
 10
9.3546252757
 20
7.725893009
 30
0.0
 10
9.3551258014
 20
7.7267932123
 30
0.0
 10
9.3557941114
 20
7.727992787
 30
0.0
 10
9.3566291763
 20
7.7294924938
 30
0.0
 10
9.3579654604
 20
7.7318918913
 30
0.0
 10
9.3596357533
 20
7.7348911843
 30
0.0
 10
9.3616401334
 20
7.7384903151
 30
0.0
 10
9.3636444985
 20
7.742089455
 30
0.0
 10
9.3653148289
 20
7.7450887252
 30
0.0
 10
9.3666510379
 20
7.7474881683
 30
0.0
 10
9.3674862938
 20
7.7489877594
 30
0.0
 10
9.3681542117
 20
7.7501875715
 30
0.0
 10
9.3686559355
 20
7.7510870493
 30
0.0
 10
9.3690715404
 20
7.7518378273
 30
0.0
 10
9.3693673665
 20
7.752360991
 30
0.0
 10
9.3695287548
 20
7.7526636592
 30
0.0
 10
9.3696713607
 20
7.7528801883
 30
0.0
 10
9.3697315359
 20
7.7531367466
 30
0.0
 10
9.3698405224
 20
7.7534648616
 30
0.0
 10
9.3700178522
 20
7.7540455684
 30
0.0
 10
9.3702781843
 20
7.7548717484
 30
0.0
 10
9.3705875849
 20
7.7558646202
 30
0.0
 10
9.3710011662
 20
7.7571879407
 30
0.0
 10
9.3715177843
 20
7.7588422655
 30
0.0
 10
9.3723445737
 20
7.7614890879
 30
0.0
 10
9.3733779912
 20
7.7647976494
 30
0.0
 10
9.374618124
 20
7.7687679081
 30
0.0
 10
9.3758582404
 20
7.7727381737
 30
0.0
 10
9.3768916987
 20
7.776046718
 30
0.0
 10
9.3777184065
 20
7.7786935749
 30
0.0
 10
9.3782352319
 20
7.7803478119
 30
0.0
 10
9.3786483878
 20
7.7816713126
 30
0.0
 10
9.3789590883
 20
7.7826636342
 30
0.0
 10
9.3792153533
 20
7.7834915356
 30
0.0
 10
9.3793999436
 20
7.7840691693
 30
0.0
 10
9.3794972969
 20
7.7844022082
 30
0.0
 10
9.3795932054
 20
7.7846436421
 30
0.0
 10
9.379601603
 20
7.7849169758
 30
0.0
 10
9.3796433245
 20
7.7852702937
 30
0.0
 10
9.3797021152
 20
7.7858937844
 30
0.0
 10
9.3797935373
 20
7.7867817749
 30
0.0
 10
9.3799000612
 20
7.7878485237
 30
0.0
 10
9.3800432046
 20
7.7892704501
 30
0.0
 10
9.3802217534
 20
7.791047997
 30
0.0
 10
9.3805076441
 20
7.7938919944
 30
0.0
 10
9.3808649344
 20
7.7974470178
 30
0.0
 10
9.3812937141
 20
7.8017130344
 30
0.0
 10
9.3817224855
 20
7.8059790541
 30
0.0
 10
9.3822941836
 20
7.8116670793
 30
0.0
 10
9.3827229565
 20
7.8159330985
 30
0.0
 10
9.3830088052
 20
7.8187771112
 30
0.0
  0
ENDSEC
  0
SECTION
  2
OBJECTS
  0
DICTIONARY
  5
C
100
AcDbDictionary
280
0
281
1
  3
ACAD_GROUP
350
D
  3
ACAD_MLINESTYLE
350
17
  3
ACAD_LAYOUT
350
1A
  3
ACAD_PLOTSETTINGS
350
19
  3
ACAD_PLOTSTYLENAME
350
E
  3
ACAD_IMAGE_DICT
350
       39C
  3
ACAD_IMAGE_VARS
350
       39D
  3
ACAD_TABLESTYLE
350
       39E
  0
IMAGEDEF_REACTOR
  5
39B
100
AcDbRasterImageDefReactor
 90
2
330
28A
  0
DICTIONARY
  5
D
102
{ACAD_REACTORS
330
C
102
}
100
AcDbDictionary
280
0
281
1
  0
ACDBDICTIONARYWDFLT
  5
E
102
{ACAD_REACTORS
330
C
102
}
100
AcDbDictionary
281
1
  3
Normal
350
F
100
AcDbDictionaryWithDefault
340
F
  0
DICTIONARY
  5
39C
330
C
100
AcDbDictionary
281
1
  3
H2L_assy_2_img_1
350
       3A1
  0
RASTERVARIABLES
  5
39D
330
C
100
AcDbRasterVariables
 90
0
 70
0
 71
1
 72
5
  0
DICTIONARY
  5
17
102
{ACAD_REACTORS
330
C
102
}
100
AcDbDictionary
280
0
281
1
  3
Standard
350
18
  0
DICTIONARY
  5
39E
330
C
100
AcDbDictionary
281
1
  3
Standard
350
       3A2
  3
Standard1
350
       3A3
  0
DICTIONARY
  5
19
102
{ACAD_REACTORS
330
C
102
}
100
AcDbDictionary
281
1
  0
DICTIONARY
  5
1A
102
{ACAD_REACTORS
330
C
102
}
100
AcDbDictionary
281
1
  3
Model
350
39F
  3
Layout1
350
3A0
  0
ACDBPLACEHOLDER
  5
F
102
{ACAD_REACTORS
330
E
102
}
  0
MLINESTYLE
  5
18
102
{ACAD_REACTORS
330
17
102
}
100
AcDbMlineStyle
  2
STANDARD
 70
0
  3

 62
256
 51
90.0
 52
90.0
 71
2
 49
0.5
 62
256
  6
BYLAYER
 49
-0.5
 62
256
  6
BYLAYER
  0
LAYOUT
  5
39F
102
{ACAD_REACTORS
330
1A
102
}
100
AcDbPlotSettings
  1

  2
none_device
  4
ANSI_C_(22.00_x_17.00_Inches)
  6

 40
0.0
 41
0.0
 42
0.0
 43
0.0
 44
558.8
 45
431.8
 46
0.0
 47
0.0
 48
0.0
 49
0.0
140
0.0
141
0.0
142
1.0
143
1.0
 70
1024
 72
0
 73
0
 74
0
  7

 75
0
147
1.0
148
0.0
149
0.0
100
AcDbLayout
  1
Model
 70
0
 71
0
 10
0.0
 20
0.0
 11
22.0
 21
17.0
 12
0.0
 22
0.0
 32
0.0
 14
0.0
 24
0.0
 34
0.0
 15
0.0
 25
0.0
 35
0.0
146
0.0
 13
0.0
 23
0.0
 33
0.0
 16
1.0
 26
0.0
 36
0.0
 17
0.0
 27
1.0
 37
0.0
 76
0
330
204
345
0
346
0
  0
LAYOUT
  5
3A0
102
{ACAD_REACTORS
330
1A
102
}
100
AcDbPlotSettings
  1

  2
none_device
  4
ANSI_C_(22.00_x_17.00_Inches)
  6

 40
0.0
 41
0.0
 42
0.0
 43
0.0
 44
558.8
 45
431.8
 46
0.0
 47
0.0
 48
0.0
 49
0.0
140
0.0
141
0.0
142
1.0
143
1.0
 70
0
 72
0
 73
0
 74
0
  7

 75
0
147
1.0
148
0.0
149
0.0
100
AcDbLayout
  1
Layout1
 70
0
 71
1
 10
0.0
 20
0.0
 11
22.0
 21
17.0
 12
0.0
 22
0.0
 32
0.0
 14
0.0
 24
0.0
 34
0.0
 15
0.0
 25
0.0
 35
0.0
146
0.0
 13
0.0
 23
0.0
 33
0.0
 16
1.0
 26
0.0
 36
0.0
 17
0.0
 27
1.0
 37
0.0
 76
0
330
205
345
0
346
0
  0
IMAGEDEF
  5
3A1
102
{ACAD_REACTORS
330
39C
330
39B
102
}
100
AcDbRasterImageDef
 90
0
  1
H2L_assy_2_img_1.png
 10
369.0
 20
92.0
 11
0.0066666667
 21
0.0066666667
280
1
281
0
  0
TABLESTYLE
  5
3A2
102
{ACAD_REACTORS
330
39E
330
28D
330
28E
102
}
330
39E
100
AcDbTableStyle
  3
Standard
 70
0
 71
0
 40
0.06
 41
0.06
280
1
281
1
  7
Standard
140
0.18
170
1
 62
0
 63
7
283
0
  7
Standard
140
0.18
170
1
 62
0
 63
7
283
0
  7
Standard
140
0.18
170
1
 62
0
 63
7
283
0
  0
TABLESTYLE
  5
3A3
102
{ACAD_REACTORS
330
39E
330
28C
102
}
330
39E
100
AcDbTableStyle
  3
Standard1
 70
1
 71
0
 40
0.06
 41
0.06
280
1
281
1
  7
Standard
140
0.18
170
1
 62
0
 63
7
283
0
  7
Standard
140
0.18
170
1
 62
0
 63
7
283
0
  7
Standard
140
0.18
170
1
 62
0
 63
7
283
0
  0
ENDSEC
  0
EOF
