999
DXF file: H25_assy_2.dxf
999
Pro/ENGINEER 2014200 by Parametric Technology Corporation
  0
SECTION
  2
HEADER
  9
$ACADVER
  1
AC1021
  9
$DWGCODEPAGE
  3
ANSI_1252
  9
$EXTMAX
 10
22.0
 20
17.0
 30
0.0
  9
$EXTMIN
 10
0.0
 20
0.0
 30
0.0
  9
$LIMMIN
 10
0.0
 20
0.0
  9
$LIMMAX
 10
22.0
 20
17.0
  9
$VIEWCTR
 10
11.0
 20
8.5
  9
$VIEWSIZE
 40
17.0
  9
$CLAYER
  8
0
  9
$LTSCALE
 40
1.21
  9
$CELTYPE
  6
BYLAYER
  9
$DIMSCALE
 40
1.0
  9
$DIMASZ
 40
0.1875
  9
$DIMEXO
 40
0.0625
  9
$DIMDLI
 40
0.836
  9
$DIMEXE
 40
0.125
  9
$DIMCEN
 40
0.198
  9
$DIMLFAC
 40
1.0
  9
$DIMBLK
  1
_FILLED
  9
$DIMTXT
 40
0.1
  9
$DIMTOL
 70
0
  9
$DIMLIM
 70
0
  9
$DIMTFAC
 40
1.0
  9
$DIMGAP
 40
0.09
  9
$DIMDSEP
 70
46
  9
$AUNITS
 70
0
  9
$PDMODE
 70
3
  9
$PDSIZE
 40
0.3125
  9
$HANDSEED
  5
3AE
  9
$TILEMODE
 70
1
  9
$MEASUREMENT
 70
0
  9
$INSUNITS
 70
1
  0
ENDSEC
  0
SECTION
  2
CLASSES
  0
CLASS
  1
ACDBDICTIONARYWDFLT
  2
AcDbDictionaryWithDefault
  3
AutoCAD 2000
 90
0
 91
1
280
0
281
0
  0
CLASS
  1
ACDBPLACEHOLDER
  2
AcDbPlaceHolder
  3
AutoCAD 2000
 90
0
 91
1
280
0
281
0
  0
CLASS
  1
LAYOUT
  2
AcDbLayout
  3
AutoCAD 2000
 90
0
 91
0
280
0
281
0
  0
CLASS
  1
RASTERVARIABLES
  2
AcDbRasterVariables
  3
ISM
 90
0
 91
1
280
0
281
0
  0
CLASS
  1
IMAGEDEF
  2
AcDbRasterImageDef
  3
ISM
 90
0
 91
1
280
0
281
0
  0
CLASS
  1
IMAGEDEF_REACTOR
  2
AcDbRasterImageDefReactor
  3
ISM
 90
0
 91
1
280
0
281
0
  0
CLASS
  1
IMAGE
  2
AcDbRasterImage
  3
ISM
 90
127
 91
1
280
0
281
1
  0
CLASS
  1
TABLESTYLE
  2
AcDbTableStyle
  3
ObjectDBX Classes
 90
2047
 91
1
280
0
281
0
  0
CLASS
  1
ACAD_TABLE
  2
AcDbTable
  3
ObjectDBX Classes
 90
1025
 91
3
280
0
281
1
  0
ENDSEC
  0
SECTION
  2
TABLES
  0
TABLE
  2
VPORT
  5
8
100
AcDbSymbolTable
 70
2
  0
VPORT
  5
1F4
100
AcDbSymbolTableRecord
100
AcDbViewportTableRecord
  2
*ACTIVE
 70
0
 10
0.0
 20
0.0
 11
1.0
 21
1.0
 12
11.0
 22
8.5
 13
0.0
 23
0.0
 14
1.0
 24
1.0
 15
0.0
 25
0.0
 16
0.0
 26
0.0
 36
1.0
 17
0.0
 27
0.0
 37
0.0
 40
17.0
 41
1.2941176471
 42
50.0
 43
0.0
 44
0.0
 50
0.0
 51
0.0
 71
0
 72
100
 73
1
 74
1
 75
0
 76
0
 77
0
 78
0
  0
ENDTAB
  0
TABLE
  2
LTYPE
  5
5
100
AcDbSymbolTable
 70
6
  0
LTYPE
  5
14
100
AcDbSymbolTableRecord
100
AcDbLinetypeTableRecord
  2
BYBLOCK
 70
0
  3

 72
65
 73
0
 40
0.0
  0
LTYPE
  5
15
100
AcDbSymbolTableRecord
100
AcDbLinetypeTableRecord
  2
BYLAYER
 70
0
  3

 72
65
 73
0
 40
0.0
  0
LTYPE
  5
16
100
AcDbSymbolTableRecord
100
AcDbLinetypeTableRecord
  2
CONTINUOUS
 70
64
  3
Solid line
 72
65
 73
0
 40
0.0
  0
LTYPE
  5
1F5
100
AcDbSymbolTableRecord
100
AcDbLinetypeTableRecord
  2
CENTER
 70
64
  3
____ _ ____ _ ____ _ ____ _ ____ _ ____ _ ____
 72
65
 73
4
 40
0.6
 49
0.375
 74
0
 49
-0.075
 74
0
 49
0.075
 74
0
 49
-0.075
 74
0
  0
LTYPE
  5
1F6
100
AcDbSymbolTableRecord
100
AcDbLinetypeTableRecord
  2
HIDDEN
 70
64
  3
- - - - - - - - - - - - - - - - - - - -
 72
65
 73
2
 40
0.2
 49
0.1
 74
0
 49
-0.1
 74
0
  0
LTYPE
  5
1F7
100
AcDbSymbolTableRecord
100
AcDbLinetypeTableRecord
  2
PHANTOM
 70
64
  3
_____ _ _ _____ _ _ _____ _ _ _____
 72
65
 73
6
 40
0.8
 49
0.45
 74
0
 49
-0.05
 74
0
 49
0.1
 74
0
 49
-0.05
 74
0
 49
0.1
 74
0
 49
-0.05
 74
0
  0
LTYPE
  5
1F8
100
AcDbSymbolTableRecord
100
AcDbLinetypeTableRecord
  2
DOT
 70
64
  3
. . . . . . . . . . . . . . . . . . . .
 72
65
 73
2
 40
0.2
 49
0.1
 74
0
 49
-0.1
 74
0
  0
LTYPE
  5
1F9
100
AcDbSymbolTableRecord
100
AcDbLinetypeTableRecord
  2
DASHED
 70
64
  3
- - - - - - - - - - - - - - - - - - - -
 72
65
 73
2
 40
0.2
 49
0.1
 74
0
 49
-0.1
 74
0
  0
ENDTAB
  0
TABLE
  2
LAYER
  5
2
100
AcDbSymbolTable
 70
36
  0
LAYER
  5
10
100
AcDbSymbolTableRecord
100
AcDbLayerTableRecord
  2
0
 70
0
 62
7
  6
CONTINUOUS
370
-3
390
F
  0
LAYER
  5
1FA
100
AcDbSymbolTableRecord
100
AcDbLayerTableRecord
  2
DEFAULT_1
 70
0
 62
7
  6
CENTER
370
-3
390
F
  0
LAYER
  5
1FB
100
AcDbSymbolTableRecord
100
AcDbLayerTableRecord
  2
DEFAULT_2
 70
0
 62
8
  6
HIDDEN
370
-3
390
F
  0
LAYER
  5
1FC
100
AcDbSymbolTableRecord
100
AcDbLayerTableRecord
  2
DEFAULT_3
 70
0
 62
7
  6
PHANTOM
370
-3
390
F
  0
LAYER
  5
1FD
100
AcDbSymbolTableRecord
100
AcDbLayerTableRecord
  2
DATUM_PLANES
 70
0
 62
7
  6
CONTINUOUS
370
-3
390
F
  0
LAYER
  5
1FE
100
AcDbSymbolTableRecord
100
AcDbLayerTableRecord
  2
PORT_AREAS
 70
0
 62
7
  6
CONTINUOUS
370
-3
390
F
  0
LAYER
  5
1FF
100
AcDbSymbolTableRecord
100
AcDbLayerTableRecord
  2
SUNNBOMCOSMETIC
 70
0
 62
7
  6
CONTINUOUS
370
-3
390
F
  0
LAYER
  5
200
100
AcDbSymbolTableRecord
100
AcDbLayerTableRecord
  2
SUNNBOMSTAMPING
 70
0
 62
7
  6
CONTINUOUS
370
-3
390
F
  0
LAYER
  5
201
100
AcDbSymbolTableRecord
100
AcDbLayerTableRecord
  2
THREADS
 70
0
 62
7
  6
CONTINUOUS
370
-3
390
F
  0
ENDTAB
  0
TABLE
  2
STYLE
  5
3
100
AcDbSymbolTable
 70
1
  0
STYLE
  5
11
100
AcDbSymbolTableRecord
100
AcDbTextStyleTableRecord
  2
STANDARD
 70
0
 40
0.0
 41
0.8
 50
0.0
 71
0
 42
0.2
  3
txt
  4

  0
STYLE
  5
202
100
AcDbSymbolTableRecord
100
AcDbTextStyleTableRecord
  2
TEXTSTYLE_1
 70
0
 40
0.0
 41
0.8
 50
0.0
 71
0
 42
0.2
  3
gdt
  4

  0
ENDTAB
  0
TABLE
  2
VIEW
  5
6
100
AcDbSymbolTable
 70
0
  0
ENDTAB
  0
TABLE
  2
UCS
  5
7
100
AcDbSymbolTable
 70
0
  0
ENDTAB
  0
TABLE
  2
APPID
  5
9
100
AcDbSymbolTable
 70
1
  0
APPID
  5
203
100
AcDbSymbolTableRecord
100
AcDbRegAppTableRecord
  2
ACAD
 70
0
  0
ENDTAB
  0
TABLE
  2
BLOCK_RECORD
  5
1
100
AcDbSymbolTable
 70
0
  0
BLOCK_RECORD
  5
204
100
AcDbSymbolTableRecord
100
AcDbBlockTableRecord
  2
*Model_Space
  0
BLOCK_RECORD
  5
205
100
AcDbSymbolTableRecord
100
AcDbBlockTableRecord
  2
*Paper_Space
  0
BLOCK_RECORD
  5
206
100
AcDbSymbolTableRecord
100
AcDbBlockTableRecord
  2
SUN_FIRST_THIRD_ANGLE_BL0
  0
BLOCK_RECORD
  5
207
100
AcDbSymbolTableRecord
100
AcDbBlockTableRecord
  2
*T1
  0
BLOCK_RECORD
  5
208
100
AcDbSymbolTableRecord
100
AcDbBlockTableRecord
  2
*T2
  0
BLOCK_RECORD
  5
209
100
AcDbSymbolTableRecord
100
AcDbBlockTableRecord
  2
*T3
  0
ENDTAB
  0
TABLE
  2
DIMSTYLE
  5
A
100
AcDbSymbolTable
 70
1
100
AcDbDimStyleTable
 71
0
  0
DIMSTYLE
105
20A
100
AcDbSymbolTableRecord
100
AcDbDimStyleTableRecord
  2
STANDARD
 70
0
  3

  4

 40
1.0
 41
0.1875
 42
0.0625
 43
0.38
 44
0.125
 45
0.0
 46
0.0
 47
0.001
 48
0.001
140
0.1
141
0.09
142
0.0
143
25.4
144
1.0
145
0.0
146
1.0
147
0.09
 71
0.0
 72
0.0
 73
1
 74
1
 75
0
 76
0
 77
0
 78
4
170
0
171
2
172
0
173
0
174
0
175
0
176
0
177
0
178
0
270
2
271
3
272
3
273
2
274
2
275
0
280
0
281
0
282
0
283
1
284
4
285
0
286
0
287
3
288
0
340
11
278
46
  0
ENDTAB
  0
ENDSEC
  0
SECTION
  2
BLOCKS
  0
BLOCK
  5
20
100
AcDbEntity
  8
0
100
AcDbBlockBegin
  2
*Model_Space
 70
0
 10
0.0
 20
0.0
 30
0.0
  3
*Model_Space
  1

  0
ENDBLK
  5
21
100
AcDbEntity
  8
0
100
AcDbBlockEnd
  0
BLOCK
  5
1C
100
AcDbEntity
  8
0
100
AcDbBlockBegin
  2
*Paper_Space
 70
0
 10
0.0
 20
0.0
 30
0.0
  3
*Paper_Space
  1

  0
ENDBLK
  5
1D
100
AcDbEntity
  8
0
100
AcDbBlockEnd
  0
BLOCK
  5
20B
100
AcDbEntity
  8
0
100
AcDbBlockBegin
 62
2
  6
CONTINUOUS
  2
SUN_FIRST_THIRD_ANGLE_BL0
 70
64
 10
20.4816717061
 20
1.2289683772
  3
SUN_FIRST_THIRD_ANGLE_BL0
  1

  0
TEXT
  5
20C
100
AcDbEntity
  8
0
100
AcDbText
 62
2
  6
CONTINUOUS
 10
19.4750896608
 20
1.4136269581
  7
STANDARD
 40
0.08
  1
FIRST ANGLE
 41
0.8
 72
0
100
AcDbText
  0
TEXT
  5
20D
100
AcDbEntity
  8
0
100
AcDbText
 62
2
  6
CONTINUOUS
 10
20.7842537513
 20
1.4047600029
  7
STANDARD
 40
0.08
  1
THIRD ANGLE
 41
0.8
 72
0
100
AcDbText
  0
LINE
  5
20E
100
AcDbEntity
  8
0
100
AcDbLine
 62
7
  6
CONTINUOUS
 10
19.4767170086
 20
1.1727031207
 11
19.6334271527
 21
1.1717972817
  0
LINE
  5
20F
100
AcDbEntity
  8
0
100
AcDbLine
 62
7
  6
CONTINUOUS
 10
19.6596964832
 20
1.1717972817
 11
19.6950230232
 21
1.171593082
  0
LINE
  5
210
100
AcDbEntity
  8
0
100
AcDbLine
 62
7
  6
CONTINUOUS
 10
19.7194818561
 20
1.1708914427
 11
19.8852396156
 21
1.1699333054
  0
LINE
  5
211
100
AcDbEntity
  8
0
100
AcDbLine
 62
7
  6
CONTINUOUS
 10
19.4758111696
 20
1.2723454088
 11
19.88525039
 21
1.3511534004
  0
LINE
  5
212
100
AcDbEntity
  8
0
100
AcDbLine
 62
7
  6
CONTINUOUS
 10
19.88525039
 20
1.3511534004
 11
19.8831348489
 21
0.9851647912
  0
LINE
  5
213
100
AcDbEntity
  8
0
100
AcDbLine
 62
7
  6
CONTINUOUS
 10
19.8831348489
 20
0.9851647912
 11
19.4767170086
 21
1.0658141206
  0
LINE
  5
214
100
AcDbEntity
  8
0
100
AcDbLine
 62
7
  6
CONTINUOUS
 10
19.4767170086
 20
1.0658141206
 11
19.4779056764
 21
1.2714536432
  0
CIRCLE
  5
215
100
AcDbEntity
  8
0
100
AcDbCircle
 62
7
  6
CONTINUOUS
 10
20.2068232291
 20
1.1717972817
 40
0.175742101
  0
CIRCLE
  5
216
100
AcDbEntity
  8
0
100
AcDbCircle
 62
7
  6
CONTINUOUS
 10
20.2068232291
 20
1.1717972817
 40
0.1005522074
  0
LINE
  5
217
100
AcDbEntity
  8
0
100
AcDbLine
 62
7
  6
CONTINUOUS
 10
20.2077290681
 20
1.3756110529
 11
20.2071171714
 21
1.2379342989
  0
LINE
  5
218
100
AcDbEntity
  8
0
100
AcDbLine
 62
7
  6
CONTINUOUS
 10
20.2077290681
 20
1.2016899681
 11
20.2074674401
 21
1.1428236749
  0
LINE
  5
219
100
AcDbEntity
  8
0
100
AcDbLine
 62
7
  6
CONTINUOUS
 10
20.208634907
 20
1.101141841
 11
20.2080230104
 21
0.963465087
  0
LINE
  5
21A
100
AcDbEntity
  8
0
100
AcDbLine
 62
7
  6
CONTINUOUS
 10
20.0066328138
 20
1.1745147986
 11
20.1443095678
 21
1.1739029019
  0
LINE
  5
21B
100
AcDbEntity
  8
0
100
AcDbLine
 62
7
  6
CONTINUOUS
 10
20.1832714155
 20
1.1727031207
 11
20.238153505
 21
1.172335442
  0
LINE
  5
21C
100
AcDbEntity
  8
0
100
AcDbLine
 62
7
  6
CONTINUOUS
 10
20.2756669918
 20
1.1717972817
 11
20.407916871
 21
1.1712095044
  0
CIRCLE
  5
21D
100
AcDbEntity
  8
0
100
AcDbCircle
 62
7
  6
CONTINUOUS
 10
20.7509457401
 20
1.1693297793
 40
0.1722024983
  0
CIRCLE
  5
21E
100
AcDbEntity
  8
0
100
AcDbCircle
 62
7
  6
CONTINUOUS
 10
20.7509457401
 20
1.1693297793
 40
0.0985164967
  0
LINE
  5
21F
100
AcDbEntity
  8
0
100
AcDbLine
 62
7
  6
CONTINUOUS
 10
20.7169767782
 20
1.170462078
 11
20.7825395137
 21
1.1682766535
  0
LINE
  5
220
100
AcDbEntity
  8
0
100
AcDbLine
 62
7
  6
CONTINUOUS
 10
20.8177513651
 20
1.1693297793
 11
20.947965719
 21
1.1693297793
  0
LINE
  5
221
100
AcDbEntity
  8
0
100
AcDbLine
 62
7
  6
CONTINUOUS
 10
20.6875370113
 20
1.170462078
 11
20.5573226574
 21
1.170462078
  0
LINE
  5
222
100
AcDbEntity
  8
0
100
AcDbLine
 62
7
  6
CONTINUOUS
 10
20.7486811426
 20
1.1987695462
 11
20.7486811426
 21
1.1432869085
  0
LINE
  5
223
100
AcDbEntity
  8
0
100
AcDbLine
 62
7
  6
CONTINUOUS
 10
20.7498134414
 20
1.1059210505
 11
20.7498134414
 21
0.9757066966
  0
LINE
  5
224
100
AcDbEntity
  8
0
100
AcDbLine
 62
7
  6
CONTINUOUS
 10
20.7486811426
 20
1.2338708068
 11
20.7486811426
 21
1.3640851607
  0
LINE
  5
225
100
AcDbEntity
  8
0
100
AcDbLine
 62
7
  6
CONTINUOUS
 10
21.0702539817
 20
1.2701043662
 11
21.4790138229
 21
1.3448360823
  0
LINE
  5
226
100
AcDbEntity
  8
0
100
AcDbLine
 62
7
  6
CONTINUOUS
 10
21.4790138229
 20
1.3448360823
 11
21.4790138229
 21
0.9779712941
  0
LINE
  5
227
100
AcDbEntity
  8
0
100
AcDbLine
 62
7
  6
CONTINUOUS
 10
21.4790138229
 20
0.9779712941
 11
21.069121683
 21
1.0617614
  0
LINE
  5
228
100
AcDbEntity
  8
0
100
AcDbLine
 62
7
  6
CONTINUOUS
 10
21.0702539817
 20
1.2701043662
 11
21.069121683
 21
1.0617614
  0
LINE
  5
229
100
AcDbEntity
  8
0
100
AcDbLine
 62
7
  6
CONTINUOUS
 10
21.4790138229
 20
1.1693297793
 11
21.3159628059
 21
1.1693297793
  0
LINE
  5
22A
100
AcDbEntity
  8
0
100
AcDbLine
 62
7
  6
CONTINUOUS
 10
21.2876553377
 20
1.1693297793
 11
21.2502894796
 21
1.1693297793
  0
LINE
  5
22B
100
AcDbEntity
  8
0
100
AcDbLine
 62
7
  6
CONTINUOUS
 10
21.2208497126
 20
1.1659328831
 11
21.0713862804
 21
1.1659328831
  0
LINE
  5
22C
100
AcDbEntity
  8
0
100
AcDbLine
 62
7
  6
CONTINUOUS
 10
20.4796138713
 20
1.5284908897
 11
20.4766766948
 21
0.9294458646
  0
ENDBLK
  5
22D
100
AcDbEntity
  8
0
  6
BYBLOCK
 62
0
100
AcDbBlockEnd
  0
BLOCK
  5
22E
100
AcDbEntity
  8
0
100
AcDbBlockBegin
  2
*T1
 70
1
 10
0.0
 20
0.0
  3
*T1
  1

  0
LINE
  5
22F
100
AcDbEntity
  8
0
100
AcDbLine
 62
2
  6
CONTINUOUS
 10
9.275
 20
0.0
 11
-0.0
 21
0.0
  0
LINE
  5
230
100
AcDbEntity
  8
0
100
AcDbLine
 62
2
  6
CONTINUOUS
 10
9.275
 20
0.0
 11
9.275
 21
1.25
  0
LINE
  5
231
100
AcDbEntity
  8
0
100
AcDbLine
 62
2
  6
CONTINUOUS
 10
9.275
 20
0.625
 11
-0.0
 21
0.625
  0
LINE
  5
232
100
AcDbEntity
  8
0
100
AcDbLine
 62
2
  6
CONTINUOUS
 10
9.275
 20
1.25
 11
-0.0
 21
1.25
  0
LINE
  5
233
100
AcDbEntity
  8
0
100
AcDbLine
 62
2
  6
CONTINUOUS
 10
6.8
 20
0.0
 11
6.8
 21
1.25
  0
LINE
  5
234
100
AcDbEntity
  8
0
100
AcDbLine
 62
2
  6
CONTINUOUS
 10
6.4
 20
0.0
 11
6.4
 21
0.625
  0
LINE
  5
235
100
AcDbEntity
  8
0
100
AcDbLine
 62
2
  6
CONTINUOUS
 10
5.9
 20
0.0
 11
5.9
 21
0.625
  0
LINE
  5
236
100
AcDbEntity
  8
0
100
AcDbLine
 62
2
  6
CONTINUOUS
 10
5.2
 20
0.0
 11
5.2
 21
0.625
  0
LINE
  5
237
100
AcDbEntity
  8
0
100
AcDbLine
 62
2
  6
CONTINUOUS
 10
4.1
 20
0.0
 11
4.1
 21
1.25
  0
LINE
  5
238
100
AcDbEntity
  8
0
100
AcDbLine
 62
2
  6
CONTINUOUS
 10
-0.0
 20
0.0
 11
-0.0
 21
1.25
  0
MTEXT
  5
239
100
AcDbEntity
  8
0
100
AcDbMText
 62
2
  6
CONTINUOUS
  7
STANDARD
 71
2
 72
1
 10
6.6
 20
0.325
 30
0.0
 11
1.0
 21
0.0
 31
0.0
 44
0.9
  1
2
 40
0.125
 41
0.2
  0
MTEXT
  5
23A
100
AcDbEntity
  8
0
100
AcDbMText
 62
2
  6
CONTINUOUS
  7
STANDARD
 71
2
 72
1
 10
6.15
 20
0.325
 30
0.0
 11
1.0
 21
0.0
 31
0.0
 44
0.9
  1
C
 40
0.125
 41
0.2
  0
MTEXT
  5
23B
100
AcDbEntity
  8
0
100
AcDbMText
 62
2
  6
CONTINUOUS
  7
STANDARD
 71
2
 72
1
 10
5.55
 20
0.325
 30
0.0
 11
1.0
 21
0.0
 31
0.0
 44
0.9
  1
1.000
 40
0.125
 41
1.0
  0
MTEXT
  5
23C
100
AcDbEntity
  8
0
100
AcDbMText
 62
2
  6
CONTINUOUS
  7
STANDARD
 71
2
 72
1
 10
4.65
 20
0.325
 30
0.0
 11
1.0
 21
0.0
 31
0.0
 44
0.9
  1
Dec-01-23
 40
0.125
 41
1.8
  0
MTEXT
  5
23D
100
AcDbEntity
  8
0
100
AcDbMText
 62
2
  6
CONTINUOUS
  7
STANDARD
 71
2
 72
1
 10
2.05
 20
0.4625
 30
0.0
 11
1.0
 21
0.0
 31
0.0
 44
0.9
  1
T-17A Line mount\P(See Technical Data for Body Features)
 40
0.125
 41
7.6
  0
MTEXT
  5
23E
100
AcDbEntity
  8
0
100
AcDbMText
 62
2
  6
CONTINUOUS
  7
STANDARD
 71
1
 72
1
 10
6.45
 20
0.5625
 30
0.0
 11
1.0
 21
0.0
 31
0.0
 44
0.9
  1
SHEET
 40
0.06
 41
0.48
  0
MTEXT
  5
23F
100
AcDbEntity
  8
0
100
AcDbMText
 62
2
  6
CONTINUOUS
  7
STANDARD
 71
1
 72
1
 10
5.95
 20
0.5625
 30
0.0
 11
1.0
 21
0.0
 31
0.0
 44
0.9
  1
DWG SIZE
 40
0.06
 41
0.768
  0
MTEXT
  5
240
100
AcDbEntity
  8
0
100
AcDbMText
 62
2
  6
CONTINUOUS
  7
STANDARD
 71
1
 72
1
 10
5.25
 20
0.5625
 30
0.0
 11
1.0
 21
0.0
 31
0.0
 44
0.9
  1
SCALE
 40
0.06
 41
0.48
  0
MTEXT
  5
241
100
AcDbEntity
  8
0
100
AcDbMText
 62
2
  6
CONTINUOUS
  7
STANDARD
 71
1
 72
1
 10
4.15
 20
0.5625
 30
0.0
 11
1.0
 21
0.0
 31
0.0
 44
0.9
  1
DATE
 40
0.06
 41
0.384
  0
MTEXT
  5
242
100
AcDbEntity
  8
0
100
AcDbMText
 62
2
  6
CONTINUOUS
  7
STANDARD
 71
1
 72
1
 10
0.05
 20
0.5625
 30
0.0
 11
1.0
 21
0.0
 31
0.0
 44
0.9
  1
DESCRIPTION
 40
0.06
 41
1.056
  0
MTEXT
  5
243
100
AcDbEntity
  8
0
100
AcDbMText
 62
2
  6
CONTINUOUS
  7
STANDARD
 71
2
 72
1
 10
5.45
 20
1.0375
 30
0.0
 11
1.0
 21
0.0
 31
0.0
 44
0.9
  1
ALL DIMENSIONS IN INCH\PVIEWS ARE THIRD ANGLE
 40
0.12
 41
4.224
  0
MTEXT
  5
244
100
AcDbEntity
  8
0
100
AcDbMText
 62
2
  6
CONTINUOUS
  7
STANDARD
 71
2
 72
1
 10
2.05
 20
0.95
 30
0.0
 11
1.0
 21
0.0
 31
0.0
 44
0.9
  1
H25
 40
0.125
 41
0.6
  0
MTEXT
  5
245
100
AcDbEntity
  8
0
100
AcDbMText
 62
2
  6
CONTINUOUS
  7
STANDARD
 71
1
 72
1
 10
0.05
 20
1.1875
 30
0.0
 11
1.0
 21
0.0
 31
0.0
 44
0.9
  1
MODEL
 40
0.06
 41
0.48
  0
ENDBLK
  5
246
100
AcDbEntity
  8
0
  6
BYBLOCK
 62
0
100
AcDbBlockEnd
  0
BLOCK
  5
247
100
AcDbEntity
  8
0
100
AcDbBlockBegin
  2
*T2
 70
1
 10
0.0
 20
0.0
  3
*T2
  1

  0
LINE
  5
248
100
AcDbEntity
  8
0
100
AcDbLine
 62
2
  6
CONTINUOUS
 10
0.0
 20
0.0
 11
9.055
 21
0.0
  0
LINE
  5
249
100
AcDbEntity
  8
0
100
AcDbLine
 62
2
  6
CONTINUOUS
 10
0.0
 20
0.0
 11
0.0
 21
-2.844
  0
LINE
  5
24A
100
AcDbEntity
  8
0
100
AcDbLine
 62
2
  6
CONTINUOUS
 10
0.0
 20
-0.344
 11
9.055
 21
-0.344
  0
LINE
  5
24B
100
AcDbEntity
  8
0
100
AcDbLine
 62
2
  6
CONTINUOUS
 10
0.0
 20
-0.594
 11
9.055
 21
-0.594
  0
LINE
  5
24C
100
AcDbEntity
  8
0
100
AcDbLine
 62
2
  6
CONTINUOUS
 10
0.0
 20
-0.844
 11
9.055
 21
-0.844
  0
LINE
  5
24D
100
AcDbEntity
  8
0
100
AcDbLine
 62
2
  6
CONTINUOUS
 10
0.0
 20
-1.094
 11
9.055
 21
-1.094
  0
LINE
  5
24E
100
AcDbEntity
  8
0
100
AcDbLine
 62
2
  6
CONTINUOUS
 10
0.0
 20
-1.344
 11
9.055
 21
-1.344
  0
LINE
  5
24F
100
AcDbEntity
  8
0
100
AcDbLine
 62
2
  6
CONTINUOUS
 10
0.0
 20
-1.594
 11
9.055
 21
-1.594
  0
LINE
  5
250
100
AcDbEntity
  8
0
100
AcDbLine
 62
2
  6
CONTINUOUS
 10
0.0
 20
-1.844
 11
9.055
 21
-1.844
  0
LINE
  5
251
100
AcDbEntity
  8
0
100
AcDbLine
 62
2
  6
CONTINUOUS
 10
0.0
 20
-2.094
 11
9.055
 21
-2.094
  0
LINE
  5
252
100
AcDbEntity
  8
0
100
AcDbLine
 62
2
  6
CONTINUOUS
 10
0.0
 20
-2.344
 11
9.055
 21
-2.344
  0
LINE
  5
253
100
AcDbEntity
  8
0
100
AcDbLine
 62
2
  6
CONTINUOUS
 10
0.0
 20
-2.594
 11
9.055
 21
-2.594
  0
LINE
  5
254
100
AcDbEntity
  8
0
100
AcDbLine
 62
2
  6
CONTINUOUS
 10
0.0
 20
-2.844
 11
9.055
 21
-2.844
  0
LINE
  5
255
100
AcDbEntity
  8
0
100
AcDbLine
 62
2
  6
CONTINUOUS
 10
3.055
 20
0.0
 11
3.055
 21
-2.844
  0
LINE
  5
256
100
AcDbEntity
  8
0
100
AcDbLine
 62
2
  6
CONTINUOUS
 10
9.055
 20
0.0
 11
9.055
 21
-2.844
  0
MTEXT
  5
257
100
AcDbEntity
  8
0
100
AcDbMText
 62
2
  6
CONTINUOUS
  7
STANDARD
 71
2
 72
1
 10
1.5275
 20
-0.0995
 30
0.0
 11
1.0
 21
0.0
 31
0.0
 44
0.9
  1
Technical Data
 40
0.145
 41
3.248
  0
MTEXT
  5
258
100
AcDbEntity
  8
0
100
AcDbMText
 62
2
  6
CONTINUOUS
  7
STANDARD
 71
2
 72
1
 10
4.555
 20
-0.0995
 30
0.0
 11
1.0
 21
0.0
 31
0.0
 44
0.9
  1
U.S. Units
 40
0.145
 41
2.32
  0
MTEXT
  5
259
100
AcDbEntity
  8
0
100
AcDbMText
 62
2
  6
CONTINUOUS
  7
STANDARD
 71
2
 72
1
 10
7.555
 20
-0.0995
 30
0.0
 11
1.0
 21
0.0
 31
0.0
 44
0.9
  1
Metric Units
 40
0.145
 41
2.784
  0
MTEXT
  5
25A
100
AcDbEntity
  8
0
100
AcDbMText
 62
2
  6
CONTINUOUS
  7
STANDARD
 71
2
 72
1
 10
1.5275
 20
-0.4065
 30
0.0
 11
1.0
 21
0.0
 31
0.0
 44
0.9
  1
Cavity
 40
0.125
 41
1.2
  0
MTEXT
  5
25B
100
AcDbEntity
  8
0
100
AcDbMText
 62
2
  6
CONTINUOUS
  7
STANDARD
 71
2
 72
1
 10
6.055
 20
-0.4065
 30
0.0
 11
1.0
 21
0.0
 31
0.0
 44
0.9
  1
T-17A
 40
0.125
 41
1.0
  0
MTEXT
  5
25C
100
AcDbEntity
  8
0
100
AcDbMText
 62
2
  6
CONTINUOUS
  7
STANDARD
 71
2
 72
1
 10
1.5275
 20
-0.6565
 30
0.0
 11
1.0
 21
0.0
 31
0.0
 44
0.9
  1
Body Features
 40
0.125
 41
2.6
  0
MTEXT
  5
25D
100
AcDbEntity
  8
0
100
AcDbMText
 62
2
  6
CONTINUOUS
  7
STANDARD
 71
2
 72
1
 10
6.055
 20
-0.6565
 30
0.0
 11
1.0
 21
0.0
 31
0.0
 44
0.9
  1
Ninety degree with reverse flow check - reducing
 40
0.125
 41
9.6
  0
MTEXT
  5
25E
100
AcDbEntity
  8
0
100
AcDbMText
 62
2
  6
CONTINUOUS
  7
STANDARD
 71
2
 72
1
 10
1.5275
 20
-0.9065
 30
0.0
 11
1.0
 21
0.0
 31
0.0
 44
0.9
  1
Body Type
 40
0.125
 41
1.8
  0
MTEXT
  5
25F
100
AcDbEntity
  8
0
100
AcDbMText
 62
2
  6
CONTINUOUS
  7
STANDARD
 71
2
 72
1
 10
6.055
 20
-0.9065
 30
0.0
 11
1.0
 21
0.0
 31
0.0
 44
0.9
  1
Line mount
 40
0.125
 41
2.0
  0
MTEXT
  5
260
100
AcDbEntity
  8
0
100
AcDbMText
 62
2
  6
CONTINUOUS
  7
STANDARD
 71
2
 72
1
 10
1.5275
 20
-1.1565
 30
0.0
 11
1.0
 21
0.0
 31
0.0
 44
0.9
  1
Interface
 40
0.125
 41
1.8
  0
MTEXT
  5
261
100
AcDbEntity
  8
0
100
AcDbMText
 62
2
  6
CONTINUOUS
  7
STANDARD
 71
2
 72
1
 10
6.055
 20
-1.1565
 30
0.0
 11
1.0
 21
0.0
 31
0.0
 44
0.9
  1
None
 40
0.125
 41
0.8
  0
MTEXT
  5
262
100
AcDbEntity
  8
0
100
AcDbMText
 62
2
  6
CONTINUOUS
  7
STANDARD
 71
2
 72
1
 10
1.5275
 20
-1.4065
 30
0.0
 11
1.0
 21
0.0
 31
0.0
 44
0.9
  1
Open Cavity Quantity
 40
0.125
 41
4.0
  0
MTEXT
  5
263
100
AcDbEntity
  8
0
100
AcDbMText
 62
2
  6
CONTINUOUS
  7
STANDARD
 71
2
 72
1
 10
6.055
 20
-1.4065
 30
0.0
 11
1.0
 21
0.0
 31
0.0
 44
0.9
  1
1
 40
0.125
 41
0.2
  0
MTEXT
  5
264
100
AcDbEntity
  8
0
100
AcDbMText
 62
2
  6
CONTINUOUS
  7
STANDARD
 71
2
 72
1
 10
1.5275
 20
-1.6565
 30
0.0
 11
1.0
 21
0.0
 31
0.0
 44
0.9
  1
Weight
 40
0.125
 41
1.2
  0
MTEXT
  5
265
100
AcDbEntity
  8
0
100
AcDbMText
 62
2
  6
CONTINUOUS
  7
STANDARD
 71
2
 72
1
 10
4.555
 20
-1.6565
 30
0.0
 11
1.0
 21
0.0
 31
0.0
 44
0.9
  1
8.752 lb.
 40
0.125
 41
1.8
  0
MTEXT
  5
266
100
AcDbEntity
  8
0
100
AcDbMText
 62
2
  6
CONTINUOUS
  7
STANDARD
 71
2
 72
1
 10
7.555
 20
-1.6565
 30
0.0
 11
1.0
 21
0.0
 31
0.0
 44
0.9
  1
3,970 kg.
 40
0.125
 41
1.8
  0
MTEXT
  5
267
100
AcDbEntity
  8
0
100
AcDbMText
 62
2
  6
CONTINUOUS
  7
STANDARD
 71
2
 72
1
 10
1.5275
 20
-1.9065
 30
0.0
 11
1.0
 21
0.0
 31
0.0
 44
0.9
  1
Mounting Hole Thread
 40
0.125
 41
4.0
  0
MTEXT
  5
268
100
AcDbEntity
  8
0
100
AcDbMText
 62
2
  6
CONTINUOUS
  7
STANDARD
 71
2
 72
1
 10
4.555
 20
-1.9065
 30
0.0
 11
1.0
 21
0.0
 31
0.0
 44
0.9
  1
.375-16 UNC - 2B in.
 40
0.125
 41
4.0
  0
MTEXT
  5
269
100
AcDbEntity
  8
0
100
AcDbMText
 62
2
  6
CONTINUOUS
  7
STANDARD
 71
2
 72
1
 10
1.5275
 20
-2.1565
 30
0.0
 11
1.0
 21
0.0
 31
0.0
 44
0.9
  1
Mounting Hole Depth
 40
0.125
 41
3.8
  0
MTEXT
  5
26A
100
AcDbEntity
  8
0
100
AcDbMText
 62
2
  6
CONTINUOUS
  7
STANDARD
 71
2
 72
1
 10
4.555
 20
-2.1565
 30
0.0
 11
1.0
 21
0.0
 31
0.0
 44
0.9
  1
.62 in.
 40
0.125
 41
1.4
  0
MTEXT
  5
26B
100
AcDbEntity
  8
0
100
AcDbMText
 62
2
  6
CONTINUOUS
  7
STANDARD
 71
2
 72
1
 10
7.555
 20
-2.1565
 30
0.0
 11
1.0
 21
0.0
 31
0.0
 44
0.9
  1
15,7 mm
 40
0.125
 41
1.4
  0
MTEXT
  5
26C
100
AcDbEntity
  8
0
100
AcDbMText
 62
2
  6
CONTINUOUS
  7
STANDARD
 71
2
 72
1
 10
1.5275
 20
-2.4065
 30
0.0
 11
1.0
 21
0.0
 31
0.0
 44
0.9
  1
Mounting Hole Quantity
 40
0.125
 41
4.4
  0
MTEXT
  5
26D
100
AcDbEntity
  8
0
100
AcDbMText
 62
2
  6
CONTINUOUS
  7
STANDARD
 71
2
 72
1
 10
6.055
 20
-2.4065
 30
0.0
 11
1.0
 21
0.0
 31
0.0
 44
0.9
  1
2
 40
0.125
 41
0.2
  0
MTEXT
  5
26E
100
AcDbEntity
  8
0
100
AcDbMText
 62
2
  6
CONTINUOUS
  7
STANDARD
 71
2
 72
1
 10
1.5275
 20
-2.6565
 30
0.0
 11
1.0
 21
0.0
 31
0.0
 44
0.9
  1
Includes integral cartridge(s)
 40
0.125
 41
6.0
  0
MTEXT
  5
26F
100
AcDbEntity
  8
0
100
AcDbMText
 62
2
  6
CONTINUOUS
  7
STANDARD
 71
2
 72
1
 10
6.055
 20
-2.6565
 30
0.0
 11
1.0
 21
0.0
 31
0.0
 44
0.9
  1
Yes (see Included Components)
 40
0.125
 41
5.8
  0
ENDBLK
  5
270
100
AcDbEntity
  8
0
  6
BYBLOCK
 62
0
100
AcDbBlockEnd
  0
BLOCK
  5
271
100
AcDbEntity
  8
0
100
AcDbBlockBegin
  2
*T3
 70
1
 10
0.0
 20
0.0
  3
*T3
  1

  0
LINE
  5
272
100
AcDbEntity
  8
0
100
AcDbLine
 62
2
  6
CONTINUOUS
 10
0.0
 20
0.0
 11
4.6
 21
0.0
  0
LINE
  5
273
100
AcDbEntity
  8
0
100
AcDbLine
 62
2
  6
CONTINUOUS
 10
0.0
 20
0.0
 11
0.0
 21
-1.43775
  0
LINE
  5
274
100
AcDbEntity
  8
0
100
AcDbLine
 62
2
  6
CONTINUOUS
 10
0.0
 20
-0.34375
 11
4.6
 21
-0.34375
  0
LINE
  5
275
100
AcDbEntity
  8
0
100
AcDbLine
 62
2
  6
CONTINUOUS
 10
0.0
 20
-0.68775
 11
4.6
 21
-0.68775
  0
LINE
  5
276
100
AcDbEntity
  8
0
100
AcDbLine
 62
2
  6
CONTINUOUS
 10
0.0
 20
-0.93775
 11
4.6
 21
-0.93775
  0
LINE
  5
277
100
AcDbEntity
  8
0
100
AcDbLine
 62
2
  6
CONTINUOUS
 10
0.0
 20
-1.18775
 11
4.6
 21
-1.18775
  0
LINE
  5
278
100
AcDbEntity
  8
0
100
AcDbLine
 62
2
  6
CONTINUOUS
 10
0.0
 20
-1.43775
 11
4.6
 21
-1.43775
  0
LINE
  5
279
100
AcDbEntity
  8
0
100
AcDbLine
 62
2
  6
CONTINUOUS
 10
1.3
 20
-0.34375
 11
1.3
 21
-1.43775
  0
LINE
  5
27A
100
AcDbEntity
  8
0
100
AcDbLine
 62
2
  6
CONTINUOUS
 10
3.3
 20
-0.34375
 11
3.3
 21
-1.43775
  0
LINE
  5
27B
100
AcDbEntity
  8
0
100
AcDbLine
 62
2
  6
CONTINUOUS
 10
4.6
 20
0.0
 11
4.6
 21
-1.43775
  0
MTEXT
  5
27C
100
AcDbEntity
  8
0
100
AcDbMText
 62
2
  6
CONTINUOUS
  7
STANDARD
 71
2
 72
1
 10
2.3
 20
-0.099375
 30
0.0
 11
1.0
 21
0.0
 31
0.0
 44
0.9
  1
Port Headings
 40
0.145
 41
3.016
  0
MTEXT
  5
27D
100
AcDbEntity
  8
0
100
AcDbMText
 62
2
  6
CONTINUOUS
  7
STANDARD
 71
2
 72
1
 10
0.65
 20
-0.44325
 30
0.0
 11
1.0
 21
0.0
 31
0.0
 44
0.9
  1
Product
 40
0.145
 41
1.624
  0
MTEXT
  5
27E
100
AcDbEntity
  8
0
100
AcDbMText
 62
2
  6
CONTINUOUS
  7
STANDARD
 71
2
 72
1
 10
2.3
 20
-0.44325
 30
0.0
 11
1.0
 21
0.0
 31
0.0
 44
0.9
  1
Port
 40
0.145
 41
0.928
  0
MTEXT
  5
27F
100
AcDbEntity
  8
0
100
AcDbMText
 62
2
  6
CONTINUOUS
  7
STANDARD
 71
2
 72
1
 10
3.95
 20
-0.44325
 30
0.0
 11
1.0
 21
0.0
 31
0.0
 44
0.9
  1
Size
 40
0.145
 41
0.928
  0
MTEXT
  5
280
100
AcDbEntity
  8
0
100
AcDbMText
 62
2
  6
CONTINUOUS
  7
STANDARD
 71
2
 72
1
 10
0.65
 20
-0.75025
 30
0.0
 11
1.0
 21
0.0
 31
0.0
 44
0.9
  1
H25
 40
0.125
 41
0.6
  0
MTEXT
  5
281
100
AcDbEntity
  8
0
100
AcDbMText
 62
2
  6
CONTINUOUS
  7
STANDARD
 71
2
 72
1
 10
2.3
 20
-0.75025
 30
0.0
 11
1.0
 21
0.0
 31
0.0
 44
0.9
  1
Ports 1 &  2
 40
0.125
 41
2.4
  0
MTEXT
  5
282
100
AcDbEntity
  8
0
100
AcDbMText
 62
2
  6
CONTINUOUS
  7
STANDARD
 71
2
 72
1
 10
3.95
 20
-0.75025
 30
0.0
 11
1.0
 21
0.0
 31
0.0
 44
0.9
  1
1 1/4 in. Code 62
 40
0.125
 41
3.4
  0
MTEXT
  5
283
100
AcDbEntity
  8
0
100
AcDbMText
 62
2
  6
CONTINUOUS
  7
STANDARD
 71
2
 72
1
 10
0.65
 20
-1.00025
 30
0.0
 11
1.0
 21
0.0
 31
0.0
 44
0.9
  1
H25
 40
0.125
 41
0.6
  0
MTEXT
  5
284
100
AcDbEntity
  8
0
100
AcDbMText
 62
2
  6
CONTINUOUS
  7
STANDARD
 71
2
 72
1
 10
2.3
 20
-1.00025
 30
0.0
 11
1.0
 21
0.0
 31
0.0
 44
0.9
  1
Port 3
 40
0.125
 41
1.2
  0
MTEXT
  5
285
100
AcDbEntity
  8
0
100
AcDbMText
 62
2
  6
CONTINUOUS
  7
STANDARD
 71
2
 72
1
 10
3.95
 20
-1.00025
 30
0.0
 11
1.0
 21
0.0
 31
0.0
 44
0.9
  1
SAE 6
 40
0.125
 41
1.0
  0
MTEXT
  5
286
100
AcDbEntity
  8
0
100
AcDbMText
 62
2
  6
CONTINUOUS
  7
STANDARD
 71
2
 72
1
 10
0.65
 20
-1.25025
 30
0.0
 11
1.0
 21
0.0
 31
0.0
 44
0.9
  1
H25
 40
0.125
 41
0.6
  0
MTEXT
  5
287
100
AcDbEntity
  8
0
100
AcDbMText
 62
2
  6
CONTINUOUS
  7
STANDARD
 71
2
 72
1
 10
2.3
 20
-1.25025
 30
0.0
 11
1.0
 21
0.0
 31
0.0
 44
0.9
  1
Gage Port
 40
0.125
 41
1.8
  0
MTEXT
  5
288
100
AcDbEntity
  8
0
100
AcDbMText
 62
2
  6
CONTINUOUS
  7
STANDARD
 71
2
 72
1
 10
3.95
 20
-1.25025
 30
0.0
 11
1.0
 21
0.0
 31
0.0
 44
0.9
  1
1/4" NPTF
 40
0.125
 41
1.8
  0
ENDBLK
  5
289
100
AcDbEntity
  8
0
  6
BYBLOCK
 62
0
100
AcDbBlockEnd
  0
ENDSEC
  0
SECTION
  2
ENTITIES
  0
IMAGE
  5
28A
100
AcDbEntity
  8
0
100
AcDbRasterImage
 62
7
  6
CONTINUOUS
 10
19.2297077316
 20
0.3094318264
 30
0.0
 11
0.0066666667
 21
0.0
 31
0.0
 12
0.0
 22
0.0066666667
 32
0.0
 13
369.0
 23
92.0
340
       3AB
 70
9
280
0
281
50
282
50
283
0
360
       3A5
 71
1
 91
2
 14
-0.5
 24
-0.5
 14
368.5
 24
91.5
  0
INSERT
  5
28B
100
AcDbEntity
  8
0
100
AcDbBlockReference
 62
2
  6
CONTINUOUS
  2
SUN_FIRST_THIRD_ANGLE_BL0
 10
20.4816717061
 20
1.2289683772
  0
ACAD_TABLE
  5
28C
100
AcDbEntity
  8
0
 62
2
  6
CONTINUOUS
100
AcDbBlockReference
  2
*T1
 10
12.42375
 20
0.30125
 30
0.0
100
AcDbTable
342
       3AD
343
207
 11
1.0
 21
0.0
 31
0.0
 90
6
 91
4
 92
6
 93
20
 94
0
 95
0
 96
0
 70
1
 41
0.0
141
0.525
141
0.1
141
0.525
141
0.1
142
4.1
142
1.1
142
0.7
142
0.5
142
0.4
142
2.475
171
1
172
0
173
0
174
0
175
1
176
1
 91
33
178
0
145
0.0
301
CELL_VALUE
 90
4
  1
T-17A Line mount\P(See Technical Data for Body Features)
304
ACVALUE_END
170
2
140
0.125
171
1
172
0
173
0
174
0
175
1
176
1
 91
33
178
0
145
0.0
301
CELL_VALUE
 90
4
  1
Dec-01-23
304
ACVALUE_END
170
5
140
0.125
171
1
172
0
173
0
174
0
175
1
176
1
 91
33
178
0
145
0.0
301
CELL_VALUE
 90
4
  1
1.000
304
ACVALUE_END
170
5
140
0.125
171
1
172
0
173
0
174
0
175
1
176
1
 91
33
178
0
145
0.0
301
CELL_VALUE
 90
4
  1
C
304
ACVALUE_END
170
5
140
0.125
171
1
172
0
173
0
174
0
175
1
176
1
 91
33
178
0
145
0.0
301
CELL_VALUE
 90
4
  1
2
304
ACVALUE_END
170
5
140
0.125
171
1
172
0
173
0
174
0
175
1
176
1
 91
33
178
0
145
0.0
301
CELL_VALUE
 90
4
  1
 
304
ACVALUE_END
170
1
140
0.125
171
1
172
0
173
0
174
0
175
1
176
1
 91
33
178
0
145
0.0
301
CELL_VALUE
 90
4
  1
DESCRIPTION
304
ACVALUE_END
170
1
140
0.06
171
1
172
0
173
0
174
0
175
1
176
1
 91
33
178
0
145
0.0
301
CELL_VALUE
 90
4
  1
DATE
304
ACVALUE_END
170
1
140
0.06
171
1
172
0
173
0
174
0
175
1
176
1
 91
33
178
0
145
0.0
301
CELL_VALUE
 90
4
  1
SCALE
304
ACVALUE_END
170
1
140
0.06
171
1
172
0
173
0
174
0
175
1
176
1
 91
33
178
0
145
0.0
301
CELL_VALUE
 90
4
  1
DWG SIZE
304
ACVALUE_END
170
1
140
0.06
171
1
172
0
173
0
174
0
175
1
176
1
 91
33
178
0
145
0.0
301
CELL_VALUE
 90
4
  1
SHEET
304
ACVALUE_END
170
1
140
0.06
171
1
172
0
173
0
174
0
175
1
176
1
 91
33
178
0
145
0.0
301
CELL_VALUE
 90
4
  1
 
304
ACVALUE_END
170
1
140
0.125
171
1
172
0
173
0
174
0
175
1
176
1
 91
33
178
0
145
0.0
301
CELL_VALUE
 90
4
  1
H25
304
ACVALUE_END
170
5
140
0.125
171
1
172
0
173
0
174
0
175
4
176
1
 91
33
178
0
145
0.0
301
CELL_VALUE
 90
4
  1
ALL DIMENSIONS IN INCH\PVIEWS ARE THIRD ANGLE
304
ACVALUE_END
170
5
140
0.12
171
1
172
0
173
1
174
0
175
1
176
1
 91
1
178
0
145
0.0
170
1
171
1
172
0
173
1
174
0
175
1
176
1
 91
1
178
0
145
0.0
170
1
171
1
172
0
173
1
174
0
175
1
176
1
 91
1
178
0
145
0.0
170
5
171
1
172
0
173
0
174
0
175
1
176
1
 91
33
178
0
145
0.0
301
CELL_VALUE
 90
4
  1
 
304
ACVALUE_END
170
1
140
0.125
171
1
172
0
173
0
174
0
175
1
176
1
 91
33
178
0
145
0.0
301
CELL_VALUE
 90
4
  1
MODEL
304
ACVALUE_END
170
1
140
0.06
171
1
172
0
173
0
174
0
175
1
176
1
 91
33
178
0
145
0.0
301
CELL_VALUE
 90
4
  1
 
304
ACVALUE_END
170
1
140
0.125
171
1
172
0
173
0
174
0
175
1
176
1
 91
33
178
0
145
0.0
301
CELL_VALUE
 90
4
  1
 
304
ACVALUE_END
170
1
140
0.125
171
1
172
0
173
0
174
0
175
1
176
1
 91
33
178
0
145
0.0
301
CELL_VALUE
 90
4
  1
 
304
ACVALUE_END
170
1
140
0.125
171
1
172
0
173
0
174
0
175
1
176
1
 91
33
178
0
145
0.0
301
CELL_VALUE
 90
4
  1
 
304
ACVALUE_END
170
1
140
0.125
171
1
172
0
173
0
174
0
175
1
176
1
 91
33
178
0
145
0.0
301
CELL_VALUE
 90
4
  1
 
304
ACVALUE_END
170
1
140
0.125
  0
ACAD_TABLE
  5
28D
100
AcDbEntity
  8
0
 62
2
  6
CONTINUOUS
100
AcDbBlockReference
  2
*T2
 10
12.4237499994
 20
16.47875
 30
0.0
100
AcDbTable
342
       3AC
343
208
 11
1.0
 21
0.0
 31
0.0
 90
22
 91
11
 92
3
 93
16
 94
0
 95
0
 96
0
 41
0.028
141
0.344
141
0.25
141
0.25
141
0.25
141
0.25
141
0.25
141
0.25
141
0.25
141
0.25
141
0.25
141
0.25
142
3.055
142
3.0
142
3.0
171
1
172
0
173
0
174
0
175
1
176
1
 91
33
178
0
145
0.0
301
CELL_VALUE
 90
4
  1
Technical Data
304
ACVALUE_END
170
5
140
0.145
171
1
172
0
173
0
174
0
175
1
176
1
 91
33
178
0
145
0.0
301
CELL_VALUE
 90
4
  1
U.S. Units
304
ACVALUE_END
170
5
140
0.145
171
1
172
0
173
0
174
0
175
1
176
1
 91
33
178
0
145
0.0
301
CELL_VALUE
 90
4
  1
Metric Units
304
ACVALUE_END
170
5
140
0.145
171
1
172
0
173
0
174
0
175
1
176
1
 91
33
178
0
145
0.0
301
CELL_VALUE
 90
4
  1
Cavity
304
ACVALUE_END
170
5
140
0.125
171
1
172
0
173
0
174
0
175
2
176
1
 91
33
178
0
145
0.0
301
CELL_VALUE
 90
4
  1
T-17A
304
ACVALUE_END
170
5
140
0.125
171
1
172
0
173
1
174
0
175
1
176
1
 91
1
178
0
145
0.0
170
1
171
1
172
0
173
0
174
0
175
1
176
1
 91
33
178
0
145
0.0
301
CELL_VALUE
 90
4
  1
Body Features
304
ACVALUE_END
170
5
140
0.125
171
1
172
0
173
0
174
0
175
2
176
1
 91
33
178
0
145
0.0
301
CELL_VALUE
 90
4
  1
Ninety degree with reverse flow check - reducing
304
ACVALUE_END
170
5
140
0.125
171
1
172
0
173
1
174
0
175
1
176
1
 91
1
178
0
145
0.0
170
1
171
1
172
0
173
0
174
0
175
1
176
1
 91
33
178
0
145
0.0
301
CELL_VALUE
 90
4
  1
Body Type
304
ACVALUE_END
170
5
140
0.125
171
1
172
0
173
0
174
0
175
2
176
1
 91
33
178
0
145
0.0
301
CELL_VALUE
 90
4
  1
Line mount
304
ACVALUE_END
170
5
140
0.125
171
1
172
0
173
1
174
0
175
1
176
1
 91
1
178
0
145
0.0
170
1
171
1
172
0
173
0
174
0
175
1
176
1
 91
33
178
0
145
0.0
301
CELL_VALUE
 90
4
  1
Interface
304
ACVALUE_END
170
5
140
0.125
171
1
172
0
173
0
174
0
175
2
176
1
 91
33
178
0
145
0.0
301
CELL_VALUE
 90
4
  1
None
304
ACVALUE_END
170
5
140
0.125
171
1
172
0
173
1
174
0
175
1
176
1
 91
1
178
0
145
0.0
170
1
171
1
172
0
173
0
174
0
175
1
176
1
 91
33
178
0
145
0.0
301
CELL_VALUE
 90
4
  1
Open Cavity Quantity
304
ACVALUE_END
170
5
140
0.125
171
1
172
0
173
0
174
0
175
2
176
1
 91
33
178
0
145
0.0
301
CELL_VALUE
 90
4
  1
1
304
ACVALUE_END
170
5
140
0.125
171
1
172
0
173
1
174
0
175
1
176
1
 91
1
178
0
145
0.0
170
1
171
1
172
0
173
0
174
0
175
1
176
1
 91
33
178
0
145
0.0
301
CELL_VALUE
 90
4
  1
Weight
304
ACVALUE_END
170
5
140
0.125
171
1
172
0
173
0
174
0
175
1
176
1
 91
33
178
0
145
0.0
301
CELL_VALUE
 90
4
  1
8.752 lb.
304
ACVALUE_END
170
5
140
0.125
171
1
172
0
173
0
174
0
175
1
176
1
 91
33
178
0
145
0.0
301
CELL_VALUE
 90
4
  1
3,970 kg.
304
ACVALUE_END
170
5
140
0.125
171
1
172
0
173
0
174
0
175
1
176
1
 91
33
178
0
145
0.0
301
CELL_VALUE
 90
4
  1
Mounting Hole Thread
304
ACVALUE_END
170
5
140
0.125
171
1
172
0
173
0
174
0
175
1
176
1
 91
33
178
0
145
0.0
301
CELL_VALUE
 90
4
  1
.375-16 UNC - 2B in.
304
ACVALUE_END
170
5
140
0.125
171
1
172
0
173
0
174
0
175
1
176
1
 91
33
178
0
145
0.0
301
CELL_VALUE
 90
4
  1
 
304
ACVALUE_END
170
5
140
0.125
171
1
172
0
173
0
174
0
175
1
176
1
 91
33
178
0
145
0.0
301
CELL_VALUE
 90
4
  1
Mounting Hole Depth
304
ACVALUE_END
170
5
140
0.125
171
1
172
0
173
0
174
0
175
1
176
1
 91
33
178
0
145
0.0
301
CELL_VALUE
 90
4
  1
.62 in.
304
ACVALUE_END
170
5
140
0.125
171
1
172
0
173
0
174
0
175
1
176
1
 91
33
178
0
145
0.0
301
CELL_VALUE
 90
4
  1
15,7 mm
304
ACVALUE_END
170
5
140
0.125
171
1
172
0
173
0
174
0
175
1
176
1
 91
33
178
0
145
0.0
301
CELL_VALUE
 90
4
  1
Mounting Hole Quantity
304
ACVALUE_END
170
5
140
0.125
171
1
172
0
173
0
174
0
175
2
176
1
 91
33
178
0
145
0.0
301
CELL_VALUE
 90
4
  1
2
304
ACVALUE_END
170
5
140
0.125
171
1
172
0
173
1
174
0
175
1
176
1
 91
1
178
0
145
0.0
170
1
171
1
172
0
173
0
174
0
175
1
176
1
 91
33
178
0
145
0.0
301
CELL_VALUE
 90
4
  1
Includes integral cartridge(s)
304
ACVALUE_END
170
5
140
0.125
171
1
172
0
173
0
174
0
175
2
176
1
 91
33
178
0
145
0.0
301
CELL_VALUE
 90
4
  1
Yes (see Included Components)
304
ACVALUE_END
170
5
140
0.125
171
1
172
0
173
1
174
0
175
1
176
1
 91
1
178
0
145
0.0
170
1
  0
ACAD_TABLE
  5
28E
100
AcDbEntity
  8
0
 62
2
  6
CONTINUOUS
100
AcDbBlockReference
  2
*T3
 10
0.52125
 20
1.959
 30
0.0
100
AcDbTable
342
       3AC
343
209
 11
1.0
 21
0.0
 31
0.0
 90
22
 91
5
 92
3
 93
16
 94
0
 95
0
 96
0
 41
0.05
141
0.34375
141
0.344
141
0.25
141
0.25
141
0.25
142
1.3
142
2.0
142
1.3
171
1
172
0
173
0
174
0
175
3
176
1
 91
33
178
0
145
0.0
301
CELL_VALUE
 90
4
  1
Port Headings
304
ACVALUE_END
170
5
140
0.145
171
1
172
0
173
1
174
0
175
1
176
1
 91
1
178
0
145
0.0
170
1
171
1
172
0
173
1
174
0
175
1
176
1
 91
1
178
0
145
0.0
170
1
171
1
172
0
173
0
174
0
175
1
176
1
 91
33
178
0
145
0.0
301
CELL_VALUE
 90
4
  1
Product
304
ACVALUE_END
170
5
140
0.145
171
1
172
0
173
0
174
0
175
1
176
1
 91
33
178
0
145
0.0
301
CELL_VALUE
 90
4
  1
Port
304
ACVALUE_END
170
5
140
0.145
171
1
172
0
173
0
174
0
175
1
176
1
 91
33
178
0
145
0.0
301
CELL_VALUE
 90
4
  1
Size
304
ACVALUE_END
170
5
140
0.145
171
1
172
0
173
0
174
0
175
1
176
1
 91
33
178
0
145
0.0
301
CELL_VALUE
 90
4
  1
H25
304
ACVALUE_END
170
5
140
0.125
171
1
172
0
173
0
174
0
175
1
176
1
 91
33
178
0
145
0.0
301
CELL_VALUE
 90
4
  1
Ports 1 &  2
304
ACVALUE_END
170
5
140
0.125
171
1
172
0
173
0
174
0
175
1
176
1
 91
33
178
0
145
0.0
301
CELL_VALUE
 90
4
  1
1 1/4 in. Code 62
304
ACVALUE_END
170
5
140
0.125
171
1
172
0
173
0
174
0
175
1
176
1
 91
33
178
0
145
0.0
301
CELL_VALUE
 90
4
  1
H25
304
ACVALUE_END
170
5
140
0.125
171
1
172
0
173
0
174
0
175
1
176
1
 91
33
178
0
145
0.0
301
CELL_VALUE
 90
4
  1
Port 3
304
ACVALUE_END
170
5
140
0.125
171
1
172
0
173
0
174
0
175
1
176
1
 91
33
178
0
145
0.0
301
CELL_VALUE
 90
4
  1
SAE 6
304
ACVALUE_END
170
5
140
0.125
171
1
172
0
173
0
174
0
175
1
176
1
 91
33
178
0
145
0.0
301
CELL_VALUE
 90
4
  1
H25
304
ACVALUE_END
170
5
140
0.125
171
1
172
0
173
0
174
0
175
1
176
1
 91
33
178
0
145
0.0
301
CELL_VALUE
 90
4
  1
Gage Port
304
ACVALUE_END
170
5
140
0.125
171
1
172
0
173
0
174
0
175
1
176
1
 91
33
178
0
145
0.0
301
CELL_VALUE
 90
4
  1
1/4" NPTF
304
ACVALUE_END
170
5
140
0.125
  0
MTEXT
  5
28F
100
AcDbEntity
  8
0
100
AcDbMText
 62
2
  6
CONTINUOUS
  7
STANDARD
 71
1
 72
1
 10
0.52125
 20
5.75995
 30
0.0
 11
1.0
 21
0.0
 31
0.0
 44
0.6
  3
Notes\P \P1. Important: Carefully consider\P   the maximum system pressure. The\P   pressure rating of the manifold is\P   dependent on the manifold material,\P   with the port type/size a secondary\P   consideration. Manifolds\P   constructed of alu
  3
minum are not\P   rated for pressures higher than\P   3000 psi (210 bar), regardless of\P   the port type/size specified.\P2. This drawing is for reference\P   only. It is generated by an\P   automated process and does not fall\P   under Sun's docume
  1
nt control\P   process.
 40
0.1
 41
3.04
  0
LINE
  5
290
100
AcDbEntity
  8
0
100
AcDbLine
 62
7
  6
CONTINUOUS
 10
0.30125
 20
0.30125
 11
0.30125
 21
16.69875
  0
LINE
  5
291
100
AcDbEntity
  8
0
100
AcDbLine
 62
7
  6
CONTINUOUS
 10
0.30125
 20
0.30125
 11
21.69875
 21
0.30125
  0
LINE
  5
292
100
AcDbEntity
  8
0
100
AcDbLine
 62
7
  6
CONTINUOUS
 10
0.30125
 20
16.69875
 11
21.69875
 21
16.69875
  0
LINE
  5
293
100
AcDbEntity
  8
0
100
AcDbLine
 62
7
  6
CONTINUOUS
 10
21.69875
 20
0.30125
 11
21.69875
 21
16.69875
  0
LINE
  5
294
100
AcDbEntity
  8
0
100
AcDbLine
 62
7
  6
CONTINUOUS
 10
9.6424672462
 20
11.8296913795
 11
8.4938292197
 21
10.7201921789
  0
LINE
  5
295
100
AcDbEntity
  8
0
100
AcDbLine
 62
7
  6
CONTINUOUS
 10
8.4938292197
 20
5.467487029
 11
12.3575327538
 21
5.1995382788
  0
LINE
  5
296
100
AcDbEntity
  8
0
100
AcDbLine
 62
4
  6
CONTINUOUS
 10
9.0051844034
 20
5.8161714457
 11
10.0096443737
 21
5.4520360925
  0
LINE
  5
297
100
AcDbEntity
  8
0
100
AcDbLine
 62
7
  6
CONTINUOUS
 10
10.6988981516
 20
5.2655639733
 11
10.717657237
 21
5.2562973443
  0
LINE
  5
298
100
AcDbEntity
  8
0
100
AcDbLine
 62
4
  6
CONTINUOUS
 10
10.8417175997
 20
5.3943316182
 11
11.8461775701
 21
5.6191479004
  0
LINE
  5
299
100
AcDbEntity
  8
0
100
AcDbLine
 62
7
  6
CONTINUOUS
 10
8.4938292197
 20
5.467487029
 11
8.4938292197
 21
10.7201921789
  0
LINE
  5
29A
100
AcDbEntity
  8
0
100
AcDbLine
 62
4
  6
CONTINUOUS
 10
8.6150529181
 20
6.3641527248
 11
8.6150529181
 21
7.5715600792
  0
LINE
  5
29B
100
AcDbEntity
  8
0
100
AcDbLine
 62
7
  6
CONTINUOUS
 10
10.7373421891
 20
7.3374473563
 11
10.7373421891
 21
7.2285368167
  0
LINE
  5
29C
100
AcDbEntity
  8
0
100
AcDbLine
 62
7
  6
CONTINUOUS
 10
10.7497624607
 20
5.3110375273
 11
10.7497624607
 21
5.254854197
  0
LINE
  5
29D
100
AcDbEntity
  8
0
100
AcDbLine
 62
7
  6
CONTINUOUS
 10
12.3575327538
 20
10.4522434287
 11
13.5061707803
 21
11.5617426293
  0
LINE
  5
29E
100
AcDbEntity
  8
0
100
AcDbLine
 62
4
  6
CONTINUOUS
 10
11.8461775701
 20
7.8684063923
 11
10.8417175997
 21
8.2325417455
  0
LINE
  5
29F
100
AcDbEntity
  8
0
100
AcDbLine
 62
7
  6
CONTINUOUS
 10
10.7817552561
 20
5.3088188194
 11
10.7817552561
 21
5.2465738628
  0
LINE
  5
2A0
100
AcDbEntity
  8
0
100
AcDbLine
 62
4
  6
CONTINUOUS
 10
12.4057377602
 20
9.9694783133
 11
12.4102670898
 21
9.9738533099
  0
LINE
  5
2A1
100
AcDbEntity
  8
0
100
AcDbLine
 62
4
  6
CONTINUOUS
 10
12.4057377602
 20
9.9131326338
 11
12.4102670898
 21
9.9175076305
  0
LINE
  5
2A2
100
AcDbEntity
  8
0
100
AcDbLine
 62
4
  6
CONTINUOUS
 10
12.4102670898
 20
9.8386236857
 11
12.4057377602
 21
9.834248689
  0
LINE
  5
2A3
100
AcDbEntity
  8
0
100
AcDbLine
 62
4
  6
CONTINUOUS
 10
10.0096443737
 20
8.2902462197
 11
9.0051844034
 21
8.0654299375
  0
LINE
  5
2A4
100
AcDbEntity
  8
0
100
AcDbLine
 62
7
  6
CONTINUOUS
 10
11.4284001301
 20
5.2639738451
 11
11.4284001301
 21
5.2017288885
  0
LINE
  5
2A5
100
AcDbEntity
  8
0
100
AcDbLine
 62
7
  6
CONTINUOUS
 10
11.4721030889
 20
5.2609430346
 11
11.4721030889
 21
5.2047597043
  0
LINE
  5
2A6
100
AcDbEntity
  8
0
100
AcDbLine
 62
4
  6
CONTINUOUS
 10
12.8476709222
 20
6.7354939171
 11
12.8431415926
 21
6.7423880561
  0
LINE
  5
2A7
100
AcDbEntity
  8
0
100
AcDbLine
 62
4
  6
CONTINUOUS
 10
13.4487776669
 20
9.7695702023
 11
13.4533069965
 21
9.773945199
  0
LINE
  5
2A8
100
AcDbEntity
  8
0
100
AcDbLine
 62
7
  6
CONTINUOUS
 10
10.6500985125
 20
7.3053936721
 11
10.6516965753
 21
7.3069070783
  0
LINE
  5
2A9
100
AcDbEntity
  8
0
100
AcDbLine
 62
7
  6
CONTINUOUS
 10
10.6516901484
 20
7.3069024782
 11
10.639165518
 21
7.2952469948
  0
LINE
  5
2AA
100
AcDbEntity
  8
0
100
AcDbLine
 62
4
  6
CONTINUOUS
 10
12.8522002517
 20
6.875098538
 11
12.8567295813
 21
6.868204402
  0
LINE
  5
2AB
100
AcDbEntity
  8
0
100
AcDbLine
 62
4
  6
CONTINUOUS
 10
12.4012084307
 20
9.9538341839
 11
12.4057377602
 21
9.9694783133
  0
LINE
  5
2AC
100
AcDbEntity
  8
0
100
AcDbLine
 62
4
  6
CONTINUOUS
 10
12.4147964194
 20
9.9331517679
 11
12.4102670898
 21
9.9175076305
  0
LINE
  5
2AD
100
AcDbEntity
  8
0
100
AcDbLine
 62
4
  6
CONTINUOUS
 10
12.4147964194
 20
9.854267818
 11
12.4102670898
 21
9.8386236857
  0
LINE
  5
2AE
100
AcDbEntity
  8
0
100
AcDbLine
 62
4
  6
CONTINUOUS
 10
13.4419836726
 20
9.627778083
 11
13.4601009909
 21
9.6452780697
  0
LINE
  5
2AF
100
AcDbEntity
  8
0
100
AcDbLine
 62
4
  6
CONTINUOUS
 10
12.8003717819
 20
8.921095129
 11
12.784842652
 21
8.9060951405
  0
LINE
  5
2B0
100
AcDbEntity
  8
0
100
AcDbLine
 62
4
  6
CONTINUOUS
 10
12.8314300417
 20
8.951095106
 11
12.8469591716
 21
8.9660950945
  0
LINE
  5
2B1
100
AcDbEntity
  8
0
100
AcDbLine
 62
4
  6
CONTINUOUS
 10
13.0440497117
 20
9.1274921722
 11
13.0479319942
 21
9.1312421693
  0
LINE
  5
2B2
100
AcDbEntity
  8
0
100
AcDbLine
 62
4
  6
CONTINUOUS
 10
12.9994034633
 20
9.0553894287
 11
12.98905071
 21
9.0453894364
  0
LINE
  5
2B3
100
AcDbEntity
  8
0
100
AcDbLine
 62
4
  6
CONTINUOUS
 10
12.8935465612
 20
8.953139507
 11
12.8780174313
 21
8.9381395185
  0
LINE
  5
2B4
100
AcDbEntity
  8
0
100
AcDbLine
 62
4
  6
CONTINUOUS
 10
12.784842652
 20
8.8481395875
 11
12.8003717819
 21
8.863139576
  0
LINE
  5
2B5
100
AcDbEntity
  8
0
100
AcDbLine
 62
4
  6
CONTINUOUS
 10
12.9321105671
 20
8.9903894785
 11
12.947639697
 21
9.005389467
  0
LINE
  5
2B6
100
AcDbEntity
  8
0
100
AcDbLine
 62
4
  6
CONTINUOUS
 10
12.9579924503
 20
9.0153894593
 11
12.9735215802
 21
9.0303894479
  0
LINE
  5
2B7
100
AcDbEntity
  8
0
100
AcDbLine
 62
4
  6
CONTINUOUS
 10
13.0563436062
 20
9.1103893866
 11
13.0718727361
 21
9.1253893751
  0
LINE
  5
2B8
100
AcDbEntity
  8
0
100
AcDbLine
 62
4
  6
CONTINUOUS
 10
13.0822254894
 20
9.1353893674
 11
13.0977546193
 21
9.1503893559
  0
LINE
  5
2B9
100
AcDbEntity
  8
0
100
AcDbLine
 62
4
  6
CONTINUOUS
 10
12.9838743334
 20
9.0210709225
 11
12.9994034633
 21
9.036070911
  0
LINE
  5
2BA
100
AcDbEntity
  8
0
100
AcDbLine
 62
4
  6
CONTINUOUS
 10
13.0822254894
 20
9.1064115909
 11
13.0977546193
 21
9.1214115794
  0
LINE
  5
2BB
100
AcDbEntity
  8
0
100
AcDbLine
 62
4
  6
CONTINUOUS
 10
13.0977546193
 20
9.0924338029
 11
13.0822254894
 21
9.0774338144
  0
LINE
  5
2BC
100
AcDbEntity
  8
0
100
AcDbLine
 62
4
  6
CONTINUOUS
 10
12.9994034633
 20
8.9974338757
 11
12.9838743334
 21
8.9824338872
  0
LINE
  5
2BD
100
AcDbEntity
  8
0
100
AcDbLine
 62
4
  6
CONTINUOUS
 10
12.947639697
 20
8.947433914
 11
12.9321105671
 21
8.9324339255
  0
LINE
  5
2BE
100
AcDbEntity
  8
0
100
AcDbLine
 62
4
  6
CONTINUOUS
 10
12.9217578139
 20
8.9224339331
 11
12.906228684
 21
8.9074339446
  0
LINE
  5
2BF
100
AcDbEntity
  8
0
100
AcDbLine
 62
4
  6
CONTINUOUS
 10
12.8236654767
 20
8.8276840057
 11
12.8081363468
 21
8.8126840172
  0
LINE
  5
2C0
100
AcDbEntity
  8
0
100
AcDbLine
 62
4
  6
CONTINUOUS
 10
12.8003717819
 20
8.805184023
 11
12.784842652
 21
8.7901840345
  0
LINE
  5
2C1
100
AcDbEntity
  8
0
100
AcDbLine
 62
4
  6
CONTINUOUS
 10
13.0097562166
 20
9.007433868
 11
13.0252853465
 21
9.0224338565
  0
LINE
  5
2C2
100
AcDbEntity
  8
0
100
AcDbLine
 62
4
  6
CONTINUOUS
 10
13.0563436062
 20
9.0524338336
 11
13.0718727361
 21
9.0674338221
  0
LINE
  5
2C3
100
AcDbEntity
  8
0
100
AcDbLine
 62
4
  6
CONTINUOUS
 10
12.9217578139
 20
8.8644783801
 11
12.9114050606
 21
8.8544783878
  0
LINE
  5
2C4
100
AcDbEntity
  8
0
100
AcDbLine
 62
4
  6
CONTINUOUS
 10
12.8030708933
 20
8.2663207126
 11
12.8149026115
 21
8.2556709692
  0
LINE
  5
2C5
100
AcDbEntity
  8
0
100
AcDbLine
 62
4
  6
CONTINUOUS
 10
12.2363090554
 20
7.3204251131
 11
12.2363090554
 21
6.1130177587
  0
LINE
  5
2C6
100
AcDbEntity
  8
0
100
AcDbLine
 62
7
  6
CONTINUOUS
 10
12.3575327538
 20
5.1995382788
 11
12.3575327538
 21
10.4522434287
  0
LINE
  5
2C7
100
AcDbEntity
  8
0
100
AcDbLine
 62
4
  6
CONTINUOUS
 10
12.4170610842
 20
9.9578775315
 11
12.4170610842
 21
9.9466083989
  0
LINE
  5
2C8
100
AcDbEntity
  8
0
100
AcDbLine
 62
4
  6
CONTINUOUS
 10
12.4170610842
 20
6.8991121812
 11
12.4170610842
 21
6.763882557
  0
LINE
  5
2C9
100
AcDbEntity
  8
0
100
AcDbLine
 62
4
  6
CONTINUOUS
 10
12.419325749
 20
9.8924502218
 11
12.419325749
 21
9.8811810851
  0
LINE
  5
2CA
100
AcDbEntity
  8
0
100
AcDbLine
 62
4
  6
CONTINUOUS
 10
12.4170610842
 20
9.9466083989
 11
12.4147964194
 21
9.9331517679
  0
LINE
  5
2CB
100
AcDbEntity
  8
0
100
AcDbLine
 62
4
  6
CONTINUOUS
 10
12.419325749
 20
9.8811810851
 11
12.4147964194
 21
9.854267818
  0
LINE
  5
2CC
100
AcDbEntity
  8
0
100
AcDbLine
 62
4
  6
CONTINUOUS
 10
12.9365474637
 20
8.7164885373
 11
12.9298921199
 21
8.7100599684
  0
LINE
  5
2CD
100
AcDbEntity
  8
0
100
AcDbLine
 62
4
  6
CONTINUOUS
 10
12.9498581438
 20
8.7293456677
 11
12.9631688276
 21
8.7422028017
  0
LINE
  5
2CE
100
AcDbEntity
  8
0
100
AcDbLine
 62
4
  6
CONTINUOUS
 10
12.9587319318
 20
8.6882409039
 11
12.9498581438
 21
8.6796694824
  0
LINE
  5
2CF
100
AcDbEntity
  8
0
100
AcDbLine
 62
4
  6
CONTINUOUS
 10
12.901052308
 20
8.6325266624
 11
12.9165814379
 21
8.6475266509
  0
LINE
  5
2D0
100
AcDbEntity
  8
0
100
AcDbLine
 62
4
  6
CONTINUOUS
 10
12.9409843558
 20
8.6048631402
 11
12.9254552259
 21
8.5898631517
  0
LINE
  5
2D1
100
AcDbEntity
  8
0
100
AcDbLine
 62
4
  6
CONTINUOUS
 10
12.9498581438
 20
8.6134345617
 11
12.9587319318
 21
8.6220059832
  0
LINE
  5
2D2
100
AcDbEntity
  8
0
100
AcDbLine
 62
4
  6
CONTINUOUS
 10
12.8208184711
 20
8.3496984746
 11
12.8319107052
 21
8.3604127506
  0
LINE
  5
2D3
100
AcDbEntity
  8
0
100
AcDbLine
 62
4
  6
CONTINUOUS
 10
12.8755401637
 20
8.4025555738
 11
12.8932877396
 21
8.4196984168
  0
LINE
  5
2D4
100
AcDbEntity
  8
0
100
AcDbLine
 62
4
  6
CONTINUOUS
 10
12.9021615313
 20
8.4282698419
 11
12.9154722151
 21
8.4411269759
  0
LINE
  5
2D5
100
AcDbEntity
  8
0
100
AcDbLine
 62
4
  6
CONTINUOUS
 10
12.9531858205
 20
8.4775555235
 11
12.9620596048
 21
8.4861269415
  0
LINE
  5
2D6
100
AcDbEntity
  8
0
100
AcDbLine
 62
4
  6
CONTINUOUS
 10
12.9790676938
 20
8.5025554949
 11
12.9857230394
 21
8.5089840655
  0
LINE
  5
2D7
100
AcDbEntity
  8
0
100
AcDbLine
 62
4
  6
CONTINUOUS
 10
12.9990337158
 20
8.5218411923
 11
13.0101259536
 21
8.5325554719
  0
LINE
  5
2D8
100
AcDbEntity
  8
0
100
AcDbLine
 62
4
  6
CONTINUOUS
 10
13.0271340574
 20
8.5489840396
 11
13.0404447338
 21
8.5618411665
  0
LINE
  5
2D9
100
AcDbEntity
  8
0
100
AcDbLine
 62
4
  6
CONTINUOUS
 10
13.0360078417
 20
8.5078792722
 11
13.0271340574
 21
8.4993078542
  0
LINE
  5
2DA
100
AcDbEntity
  8
0
100
AcDbLine
 62
4
  6
CONTINUOUS
 10
12.911035323
 20
8.3871650816
 11
12.9021615313
 21
8.3785936566
  0
LINE
  5
2DB
100
AcDbEntity
  8
0
100
AcDbLine
 62
4
  6
CONTINUOUS
 10
13.0493185181
 20
8.5262559752
 11
13.0611502354
 21
8.5156062291
  0
LINE
  5
2DC
100
AcDbEntity
  8
0
100
AcDbLine
 62
4
  6
CONTINUOUS
 10
12.8431415926
 20
6.7423880561
 11
12.838612263
 21
6.7605513298
  0
LINE
  5
2DD
100
AcDbEntity
  8
0
100
AcDbLine
 62
4
  6
CONTINUOUS
 10
12.8567295813
 20
6.868204402
 11
12.8589942461
 21
6.8591227596
  0
LINE
  5
2DE
100
AcDbEntity
  8
0
100
AcDbLine
 62
4
  6
CONTINUOUS
 10
12.851876729
 20
8.2969048042
 11
12.8637084463
 21
8.3083333662
  0
LINE
  5
2DF
100
AcDbEntity
  8
0
100
AcDbLine
 62
4
  6
CONTINUOUS
 10
13.0101259536
 20
8.4166443659
 11
12.9990337158
 21
8.4059300863
  0
LINE
  5
2E0
100
AcDbEntity
  8
0
100
AcDbLine
 62
4
  6
CONTINUOUS
 10
12.9857230394
 20
8.3930729594
 11
12.9790676938
 21
8.3866443888
  0
LINE
  5
2E1
100
AcDbEntity
  8
0
100
AcDbLine
 62
4
  6
CONTINUOUS
 10
12.9620596048
 20
8.3702158354
 11
12.9531858205
 21
8.3616444175
  0
LINE
  5
2E2
100
AcDbEntity
  8
0
100
AcDbLine
 62
4
  6
CONTINUOUS
 10
12.8319107052
 20
8.2445016446
 11
12.8208184711
 21
8.2337873686
  0
LINE
  5
2E3
100
AcDbEntity
  8
0
100
AcDbLine
 62
4
  6
CONTINUOUS
 10
12.9021615313
 20
8.3123587359
 11
12.9154722151
 21
8.3252158699
  0
LINE
  5
2E4
100
AcDbEntity
  8
0
100
AcDbLine
 62
4
  6
CONTINUOUS
 10
13.0271340574
 20
8.4330729336
 11
13.0404447338
 21
8.4459300604
  0
LINE
  5
2E5
100
AcDbEntity
  8
0
100
AcDbLine
 62
4
  6
CONTINUOUS
 10
12.8319107052
 20
8.3604127506
 11
12.8363475992
 21
8.3481397329
  0
LINE
  5
2E6
100
AcDbEntity
  8
0
100
AcDbLine
 62
4
  6
CONTINUOUS
 10
12.4012084307
 20
9.841142828
 11
12.3989437659
 21
9.8502244654
  0
LINE
  5
2E7
100
AcDbEntity
  8
0
100
AcDbLine
 62
4
  6
CONTINUOUS
 10
12.8577925877
 20
8.3854127309
 11
12.8666663794
 21
8.2780730499
  0
LINE
  5
2E8
100
AcDbEntity
  8
0
100
AcDbLine
 62
4
  6
CONTINUOUS
 10
12.838612263
 20
6.7605513298
 11
12.8363475982
 21
6.7921712375
  0
LINE
  5
2E9
100
AcDbEntity
  8
0
100
AcDbLine
 62
4
  6
CONTINUOUS
 10
12.784842652
 20
8.9060951405
 11
12.784842652
 21
8.8481395875
  0
LINE
  5
2EA
100
AcDbEntity
  8
0
100
AcDbLine
 62
4
  6
CONTINUOUS
 10
12.8003717819
 20
8.863139576
 11
12.8003717819
 21
8.805184023
  0
LINE
  5
2EB
100
AcDbEntity
  8
0
100
AcDbLine
 62
4
  6
CONTINUOUS
 10
12.8081363468
 20
8.8126840172
 11
12.8081363468
 21
8.9285951232
  0
LINE
  5
2EC
100
AcDbEntity
  8
0
100
AcDbLine
 62
4
  6
CONTINUOUS
 10
12.8208184711
 20
8.2337873686
 11
12.8208184711
 21
8.3496984746
  0
LINE
  5
2ED
100
AcDbEntity
  8
0
100
AcDbLine
 62
4
  6
CONTINUOUS
 10
12.8236654767
 20
8.9435951118
 11
12.8236654767
 21
8.8276840057
  0
LINE
  5
2EE
100
AcDbEntity
  8
0
100
AcDbLine
 62
4
  6
CONTINUOUS
 10
12.8314300417
 20
8.951095106
 11
12.8314300417
 21
8.835184
  0
LINE
  5
2EF
100
AcDbEntity
  8
0
100
AcDbLine
 62
4
  6
CONTINUOUS
 10
12.8363475992
 20
8.3481397329
 11
12.8363475992
 21
8.2653460855
  0
LINE
  5
2F0
100
AcDbEntity
  8
0
100
AcDbLine
 62
4
  6
CONTINUOUS
 10
12.8469591716
 20
8.9660950945
 11
12.8469591716
 21
8.8501839885
  0
LINE
  5
2F1
100
AcDbEntity
  8
0
100
AcDbLine
 62
4
  6
CONTINUOUS
 10
12.8589942461
 20
6.8140462209
 11
12.8589942461
 21
6.7689696801
  0
LINE
  5
2F2
100
AcDbEntity
  8
0
100
AcDbLine
 62
4
  6
CONTINUOUS
 10
12.8780174313
 20
8.8801839655
 11
12.8780174313
 21
8.9960950715
  0
LINE
  5
2F3
100
AcDbEntity
  8
0
100
AcDbLine
 62
4
  6
CONTINUOUS
 10
12.8844139553
 20
8.2952158929
 11
12.8844139553
 21
8.4111269989
  0
LINE
  5
2F4
100
AcDbEntity
  8
0
100
AcDbLine
 62
4
  6
CONTINUOUS
 10
12.8935465612
 20
8.895183954
 11
12.8935465612
 21
8.953139507
  0
LINE
  5
2F5
100
AcDbEntity
  8
0
100
AcDbLine
 62
4
  6
CONTINUOUS
 10
12.901052308
 20
8.5662917417
 11
12.901052308
 21
8.6822028477
  0
LINE
  5
2F6
100
AcDbEntity
  8
0
100
AcDbLine
 62
4
  6
CONTINUOUS
 10
12.9021615313
 20
8.3123587359
 11
12.9021615313
 21
8.4282698419
  0
LINE
  5
2F7
100
AcDbEntity
  8
0
100
AcDbLine
 62
4
  6
CONTINUOUS
 10
12.906228684
 20
8.9074339446
 11
12.906228684
 21
8.9653894976
  0
LINE
  5
2F8
100
AcDbEntity
  8
0
100
AcDbLine
 62
4
  6
CONTINUOUS
 10
12.9165814379
 20
8.6972028362
 11
12.9165814379
 21
8.5812917302
  0
LINE
  5
2F9
100
AcDbEntity
  8
0
100
AcDbLine
 62
4
  6
CONTINUOUS
 10
12.9217578139
 20
8.9803894862
 11
12.9217578139
 21
8.8644783801
  0
LINE
  5
2FA
100
AcDbEntity
  8
0
100
AcDbLine
 62
4
  6
CONTINUOUS
 10
12.9321105671
 20
8.9324339255
 11
12.9321105671
 21
8.9903894785
  0
LINE
  5
2FB
100
AcDbEntity
  8
0
100
AcDbLine
 62
4
  6
CONTINUOUS
 10
12.9409843558
 20
8.6876567893
 11
12.9409843558
 21
8.7042155178
  0
LINE
  5
2FC
100
AcDbEntity
  8
0
100
AcDbLine
 62
4
  6
CONTINUOUS
 10
12.947639697
 20
9.06334502
 11
12.947639697
 21
8.947433914
  0
LINE
  5
2FD
100
AcDbEntity
  8
0
100
AcDbLine
 62
4
  6
CONTINUOUS
 10
12.9487489284
 20
8.3739174387
 11
12.9487489284
 21
8.4567110861
  0
LINE
  5
2FE
100
AcDbEntity
  8
0
100
AcDbLine
 62
4
  6
CONTINUOUS
 10
12.9498581438
 20
8.6796694824
 11
12.9498581438
 21
8.7293456677
  0
LINE
  5
2FF
100
AcDbEntity
  8
0
100
AcDbLine
 62
4
  6
CONTINUOUS
 10
12.9579924503
 20
9.0153894593
 11
12.9579924503
 21
8.9574339063
  0
LINE
  5
300
100
AcDbEntity
  8
0
100
AcDbLine
 62
4
  6
CONTINUOUS
 10
12.9631688276
 20
8.6428504259
 11
12.9631688276
 21
8.6759678845
  0
LINE
  5
301
100
AcDbEntity
  8
0
100
AcDbLine
 62
4
  6
CONTINUOUS
 10
12.9746308016
 20
8.3989174101
 11
12.9746308016
 21
8.4817110575
  0
LINE
  5
302
100
AcDbEntity
  8
0
100
AcDbLine
 62
4
  6
CONTINUOUS
 10
12.8363475982
 20
6.7921712375
 11
12.838612263
 21
6.8281661419
  0
LINE
  5
303
100
AcDbEntity
  8
0
100
AcDbLine
 62
4
  6
CONTINUOUS
 10
12.8489187997
 20
8.2609302033
 11
12.8577925877
 21
8.3854127309
  0
LINE
  5
304
100
AcDbEntity
  8
0
100
AcDbLine
 62
4
  6
CONTINUOUS
 10
12.9298921199
 20
8.7100599684
 11
12.9254552259
 21
8.6809361616
  0
LINE
  5
305
100
AcDbEntity
  8
0
100
AcDbLine
 62
4
  6
CONTINUOUS
 10
12.9254552259
 20
8.5898631517
 11
12.9409843558
 21
8.6876567893
  0
LINE
  5
306
100
AcDbEntity
  8
0
100
AcDbLine
 62
4
  6
CONTINUOUS
 10
12.8363475992
 20
8.2653460855
 11
12.8319107052
 21
8.2445016446
  0
LINE
  5
307
100
AcDbEntity
  8
0
100
AcDbLine
 62
4
  6
CONTINUOUS
 10
12.9587319318
 20
8.6220059832
 11
12.9631688276
 21
8.6428504259
  0
LINE
  5
308
100
AcDbEntity
  8
0
100
AcDbLine
 62
4
  6
CONTINUOUS
 10
12.9487489284
 20
8.4567110861
 11
12.9531858205
 21
8.4775555235
  0
LINE
  5
309
100
AcDbEntity
  8
0
100
AcDbLine
 62
4
  6
CONTINUOUS
 10
12.9746308016
 20
8.4817110575
 11
12.9790676938
 21
8.5025554949
  0
LINE
  5
30A
100
AcDbEntity
  8
0
100
AcDbLine
 62
4
  6
CONTINUOUS
 10
12.9901599315
 20
8.4139173986
 11
12.9857230394
 21
8.3930729594
  0
LINE
  5
30B
100
AcDbEntity
  8
0
100
AcDbLine
 62
4
  6
CONTINUOUS
 10
12.8149026115
 20
8.2998275836
 11
12.8030708933
 21
8.2663207126
  0
LINE
  5
30C
100
AcDbEntity
  8
0
100
AcDbLine
 62
4
  6
CONTINUOUS
 10
13.0611502354
 20
8.5156062291
 11
13.0493185181
 21
8.4820993608
  0
LINE
  5
30D
100
AcDbEntity
  8
0
100
AcDbLine
 62
4
  6
CONTINUOUS
 10
12.4057377602
 20
9.834248689
 11
12.4012084307
 21
9.841142828
  0
LINE
  5
30E
100
AcDbEntity
  8
0
100
AcDbLine
 62
4
  6
CONTINUOUS
 10
12.4102670898
 20
9.9175076305
 11
12.4147964194
 21
9.9106134945
  0
LINE
  5
30F
100
AcDbEntity
  8
0
100
AcDbLine
 62
4
  6
CONTINUOUS
 10
12.9531858205
 20
8.3616444175
 11
12.9487489284
 21
8.3739174387
  0
LINE
  5
310
100
AcDbEntity
  8
0
100
AcDbLine
 62
4
  6
CONTINUOUS
 10
12.9790676938
 20
8.3866443888
 11
12.9746308016
 21
8.3989174101
  0
LINE
  5
311
100
AcDbEntity
  8
0
100
AcDbLine
 62
4
  6
CONTINUOUS
 10
12.9857230394
 20
8.5089840655
 11
12.9901599315
 21
8.496711046
  0
LINE
  5
312
100
AcDbEntity
  8
0
100
AcDbLine
 62
4
  6
CONTINUOUS
 10
12.9409843558
 20
8.7042155178
 11
12.9365474637
 21
8.7164885373
  0
LINE
  5
313
100
AcDbEntity
  8
0
100
AcDbLine
 62
4
  6
CONTINUOUS
 10
13.0101259536
 20
8.5325554719
 11
13.0145628457
 21
8.5202824524
  0
LINE
  5
314
100
AcDbEntity
  8
0
100
AcDbLine
 62
4
  6
CONTINUOUS
 10
12.9631688276
 20
8.6759678845
 11
12.9587319318
 21
8.6882409039
  0
LINE
  5
315
100
AcDbEntity
  8
0
100
AcDbLine
 62
4
  6
CONTINUOUS
 10
12.4147964194
 20
9.9106134945
 11
12.419325749
 21
9.8924502218
  0
LINE
  5
316
100
AcDbEntity
  8
0
100
AcDbLine
 62
4
  6
CONTINUOUS
 10
12.4147964194
 20
9.9669591739
 11
12.4170610842
 21
9.9578775315
  0
LINE
  5
317
100
AcDbEntity
  8
0
100
AcDbLine
 62
4
  6
CONTINUOUS
 10
12.9838743334
 20
8.9824338872
 11
12.9838743334
 21
9.0210709225
  0
LINE
  5
318
100
AcDbEntity
  8
0
100
AcDbLine
 62
4
  6
CONTINUOUS
 10
12.9901599315
 20
8.496711046
 11
12.9901599315
 21
8.4139173986
  0
LINE
  5
319
100
AcDbEntity
  8
0
100
AcDbLine
 62
4
  6
CONTINUOUS
 10
12.9990337158
 20
8.4059300863
 11
12.9990337158
 21
8.5218411923
  0
LINE
  5
31A
100
AcDbEntity
  8
0
100
AcDbLine
 62
4
  6
CONTINUOUS
 10
12.9994034633
 20
9.0553894287
 11
12.9994034633
 21
8.9974338757
  0
LINE
  5
31B
100
AcDbEntity
  8
0
100
AcDbLine
 62
4
  6
CONTINUOUS
 10
13.0097562166
 20
9.065389421
 11
13.0097562166
 21
9.007433868
  0
LINE
  5
31C
100
AcDbEntity
  8
0
100
AcDbLine
 62
4
  6
CONTINUOUS
 10
13.0145628457
 20
8.5202824524
 11
13.0145628457
 21
8.437488805
  0
LINE
  5
31D
100
AcDbEntity
  8
0
100
AcDbLine
 62
4
  6
CONTINUOUS
 10
13.0252853465
 20
9.0224338565
 11
13.0252853465
 21
9.0803894096
  0
LINE
  5
31E
100
AcDbEntity
  8
0
100
AcDbLine
 62
4
  6
CONTINUOUS
 10
13.0271340574
 20
8.4330729336
 11
13.0271340574
 21
8.5489840396
  0
LINE
  5
31F
100
AcDbEntity
  8
0
100
AcDbLine
 62
4
  6
CONTINUOUS
 10
13.0356380997
 20
9.0324338489
 11
13.0356380997
 21
9.1483449549
  0
LINE
  5
320
100
AcDbEntity
  8
0
100
AcDbLine
 62
4
  6
CONTINUOUS
 10
13.045990853
 20
9.0424338412
 11
13.045990853
 21
9.1003893942
  0
LINE
  5
321
100
AcDbEntity
  8
0
100
AcDbLine
 62
4
  6
CONTINUOUS
 10
13.0563436062
 20
9.1103893866
 11
13.0563436062
 21
9.0524338336
  0
LINE
  5
322
100
AcDbEntity
  8
0
100
AcDbLine
 62
4
  6
CONTINUOUS
 10
13.0822254894
 20
9.1353893674
 11
13.0822254894
 21
9.1064115909
  0
LINE
  5
323
100
AcDbEntity
  8
0
100
AcDbLine
 62
4
  6
CONTINUOUS
 10
13.0977546193
 20
9.1214115794
 11
13.0977546193
 21
9.0924338029
  0
LINE
  5
324
100
AcDbEntity
  8
0
100
AcDbLine
 62
4
  6
CONTINUOUS
 10
12.838612263
 20
6.8281661419
 11
12.8431415926
 21
6.855079412
  0
LINE
  5
325
100
AcDbEntity
  8
0
100
AcDbLine
 62
4
  6
CONTINUOUS
 10
12.8589942461
 20
6.7689696801
 11
12.8567295813
 21
6.7555130461
  0
LINE
  5
326
100
AcDbEntity
  8
0
100
AcDbLine
 62
4
  6
CONTINUOUS
 10
13.4419836726
 20
9.7404694339
 11
13.4442483374
 21
9.753926073
  0
LINE
  5
327
100
AcDbEntity
  8
0
100
AcDbLine
 62
4
  6
CONTINUOUS
 10
13.4487776669
 20
9.6906862535
 11
13.4442483374
 21
9.6637729874
  0
LINE
  5
328
100
AcDbEntity
  8
0
100
AcDbLine
 62
4
  6
CONTINUOUS
 10
13.4601009909
 20
9.7354311552
 11
13.4578363261
 21
9.7219745162
  0
LINE
  5
329
100
AcDbEntity
  8
0
100
AcDbLine
 62
4
  6
CONTINUOUS
 10
13.0145628457
 20
8.437488805
 11
13.0101259536
 21
8.4166443659
  0
LINE
  5
32A
100
AcDbEntity
  8
0
100
AcDbLine
 62
4
  6
CONTINUOUS
 10
13.4442483374
 20
9.753926073
 11
13.4487776669
 21
9.7695702023
  0
LINE
  5
32B
100
AcDbEntity
  8
0
100
AcDbLine
 62
4
  6
CONTINUOUS
 10
13.4578363261
 20
9.7219745162
 11
13.4487776669
 21
9.6906862535
  0
LINE
  5
32C
100
AcDbEntity
  8
0
100
AcDbLine
 62
4
  6
CONTINUOUS
 10
12.8431415926
 20
6.855079412
 11
12.8476709222
 21
6.8707235413
  0
LINE
  5
32D
100
AcDbEntity
  8
0
100
AcDbLine
 62
7
  6
CONTINUOUS
 10
12.745761001
 20
7.353773504
 11
12.7464459939
 21
7.3544229228
  0
LINE
  5
32E
100
AcDbEntity
  8
0
100
AcDbLine
 62
7
  6
CONTINUOUS
 10
8.4938292197
 20
10.7201921789
 11
12.3575327538
 21
10.4522434287
  0
LINE
  5
32F
100
AcDbEntity
  8
0
100
AcDbLine
 62
4
  6
CONTINUOUS
 10
12.4102670898
 20
9.9738533099
 11
12.4147964194
 21
9.9669591739
  0
LINE
  5
330
100
AcDbEntity
  8
0
100
AcDbLine
 62
4
  6
CONTINUOUS
 10
13.4601009909
 20
9.7579694206
 11
13.4601009909
 21
9.7354311552
  0
LINE
  5
331
100
AcDbEntity
  8
0
100
AcDbLine
 62
7
  6
CONTINUOUS
 10
13.5061707803
 20
6.3090374794
 11
13.5061707803
 21
11.5617426293
  0
LINE
  5
332
100
AcDbEntity
  8
0
100
AcDbLine
 62
4
  6
CONTINUOUS
 10
13.4442483374
 20
9.6637729874
 11
13.4419836726
 21
9.627778083
  0
LINE
  5
333
100
AcDbEntity
  8
0
100
AcDbLine
 62
4
  6
CONTINUOUS
 10
12.8567295813
 20
6.7555130461
 11
12.8522002517
 21
6.7398689137
  0
LINE
  5
334
100
AcDbEntity
  8
0
100
AcDbLine
 62
4
  6
CONTINUOUS
 10
12.8476709222
 20
6.8707235413
 11
12.8522002517
 21
6.875098538
  0
LINE
  5
335
100
AcDbEntity
  8
0
100
AcDbLine
 62
4
  6
CONTINUOUS
 10
12.8499355869
 20
6.8052962275
 11
12.8589942461
 21
6.8140462209
  0
LINE
  5
336
100
AcDbEntity
  8
0
100
AcDbLine
 62
4
  6
CONTINUOUS
 10
12.8522002517
 20
6.7398689137
 11
12.8476709222
 21
6.7354939171
  0
LINE
  5
337
100
AcDbEntity
  8
0
100
AcDbLine
 62
4
  6
CONTINUOUS
 10
13.4533069965
 20
9.773945199
 11
13.4578363261
 21
9.767051063
  0
LINE
  5
338
100
AcDbEntity
  8
0
100
AcDbLine
 62
4
  6
CONTINUOUS
 10
13.4578363261
 20
9.767051063
 11
13.4601009909
 21
9.7579694206
  0
LINE
  5
339
100
AcDbEntity
  8
0
100
AcDbLine
 62
7
  6
CONTINUOUS
 10
12.3575327538
 20
5.1995382788
 11
13.5061707803
 21
6.3090374794
  0
LINE
  5
33A
100
AcDbEntity
  8
0
100
AcDbLine
 62
7
  6
CONTINUOUS
 10
13.5061707803
 20
11.5617426293
 11
9.6424672462
 21
11.8296913795
  0
ARC
  5
33B
100
AcDbEntity
  8
0
100
AcDbCircle
 62
7
  6
CONTINUOUS
 10
11.2789594764
 20
7.6731974076
 40
2.4759824616
100
AcDbArc
 50
273.460253038
 51
274.4740090323
  0
ARC
  5
33C
100
AcDbEntity
  8
0
100
AcDbCircle
 62
7
  6
CONTINUOUS
 10
11.0368161148
 20
6.2980001748
 40
1.0819211298
100
AcDbArc
 50
254.6141230724
 51
256.3642747627
  0
ARC
  5
33D
100
AcDbEntity
  8
0
100
AcDbCircle
 62
7
  6
CONTINUOUS
 10
10.6521508643
 20
7.1878629152
 40
0.711230093
100
AcDbArc
 50
296.5177621761
 51
296.9973129653
  0
ARC
  5
33E
100
AcDbEntity
  8
0
100
AcDbCircle
 62
7
  6
CONTINUOUS
 10
10.4781499086
 20
9.9438049862
 40
0.4284006915
100
AcDbArc
 50
312.4670709875
 51
313.15909249
  0
ARC
  5
33F
100
AcDbEntity
  8
0
100
AcDbCircle
 62
7
  6
CONTINUOUS
 10
10.3896942699
 20
10.0353785058
 40
0.4282803802
100
AcDbArc
 50
135.0710105582
 51
135.5461605837
  0
ARC
  5
340
100
AcDbEntity
  8
0
100
AcDbCircle
 62
7
  6
CONTINUOUS
 10
10.4133685462
 20
9.9948605476
 40
0.2938788013
100
AcDbArc
 50
85.9815208982
 51
98.6608087097
  0
ARC
  5
341
100
AcDbEntity
  8
0
100
AcDbCircle
 62
7
  6
CONTINUOUS
 10
10.7223342667
 20
7.2058697582
 40
0.1220873621
100
AcDbArc
 50
132.9390987915
 51
133.2946962638
  0
ARC
  5
342
100
AcDbEntity
  8
0
100
AcDbCircle
 62
7
  6
CONTINUOUS
 10
10.7439103046
 20
5.3528276037
 40
0.0981089067
100
AcDbArc
 50
254.8737411391
 51
256.015771027
  0
ARC
  5
343
100
AcDbEntity
  8
0
100
AcDbCircle
 62
7
  6
CONTINUOUS
 10
10.7733017545
 20
7.2236618541
 40
0.0379835395
100
AcDbArc
 50
163.5583126529
 51
170.9215633388
  0
SPLINE
  5
344
100
AcDbEntity
  8
0
100
AcDbSpline
 62
7
  6
CONTINUOUS
 70
0
 71
3
 72
23
 73
19
 74
0
 42
0.0000001
 43
0.0000001
 44
0.0000000001
 40
0.0
 40
0.0
 40
0.0
 40
0.0
 40
0.09241475
 40
0.1812616892
 40
0.2663710153
 40
0.3475923753
 40
0.4247889055
 40
0.4978473293
 40
0.5666735261
 40
0.6312031786
 40
0.6914011597
 40
0.7472729756
 40
0.7988711967
 40
0.8463096351
 40
0.8897810212
 40
0.9295781837
 40
0.966124828
 40
1.0
 40
1.0
 40
1.0
 40
1.0
 10
10.920355547
 20
7.1533875543
 30
0.0
 10
10.9135735956
 20
7.1548285978
 30
0.0
 10
10.9002992224
 20
7.1577878414
 30
0.0
 10
10.8808918803
 20
7.1625621989
 30
0.0
 10
10.8624136938
 20
7.1675767689
 30
0.0
 10
10.8449089638
 20
7.1728186288
 30
0.0
 10
10.828419539
 20
7.1782757993
 30
0.0
 10
10.8129845723
 20
7.1839343816
 30
0.0
 10
10.7986407171
 20
7.1897813905
 30
0.0
 10
10.7854215939
 20
7.195802311
 30
0.0
 10
10.7733580715
 20
7.2019833801
 30
0.0
 10
10.762477775
 20
7.2083101373
 30
0.0
 10
10.7528052474
 20
7.2147687153
 30
0.0
 10
10.7443620085
 20
7.2213460867
 30
0.0
 10
10.7371666034
 20
7.2280297327
 30
0.0
 10
10.7312362353
 20
7.23481108
 30
0.0
 10
10.7265883793
 20
7.241678212
 30
0.0
 10
10.7242862986
 20
7.2464627269
 30
0.0
 10
10.7233864057
 20
7.248839538
 30
0.0
  0
SPLINE
  5
345
100
AcDbEntity
  8
0
100
AcDbSpline
 62
7
  6
CONTINUOUS
 70
0
 71
3
 72
15
 73
11
 74
0
 42
0.0000001
 43
0.0000001
 44
0.0000000001
 40
0.0
 40
0.0
 40
0.0
 40
0.0
 40
0.101880699
 40
0.2101135597
 40
0.3248817511
 40
0.4463174566
 40
0.5745114473
 40
0.7095193281
 40
0.8513571124
 40
1.0
 40
1.0
 40
1.0
 40
1.0
 10
10.651695238
 20
7.3069071746
 30
0.0
 10
10.6537013851
 20
7.3087738031
 30
0.0
 10
10.6579699999
 20
7.3124840017
 30
0.0
 10
10.6648899885
 20
7.3178263144
 30
0.0
 10
10.6725084408
 20
7.3231039577
 30
0.0
 10
10.6808160707
 20
7.3283101016
 30
0.0
 10
10.6898032981
 20
7.3334396244
 30
0.0
 10
10.6994603728
 20
7.3384867408
 30
0.0
 10
10.7097763972
 20
7.3434457433
 30
0.0
 10
10.7169188045
 20
7.3466156121
 30
0.0
 10
10.72059475
 20
7.3481876523
 30
0.0
  0
SPLINE
  5
346
100
AcDbEntity
  8
0
100
AcDbSpline
 62
7
  6
CONTINUOUS
 70
0
 71
3
 72
14
 73
10
 74
0
 42
0.0000001
 43
0.0000001
 44
0.0000000001
 40
0.0
 40
0.0
 40
0.0
 40
0.0
 40
0.1051407964
 40
0.2150252976
 40
0.451160561
 40
0.5784279548
 40
0.7122238768
 40
0.8527220288
 40
1.0
 40
1.0
 40
1.0
 40
1.0
 10
10.6994987852
 20
5.2652674385
 30
0.0
 10
10.696955527
 20
5.2665219677
 30
0.0
 10
10.6918498247
 20
5.2692860654
 30
0.0
 10
10.6815801584
 20
5.2758285076
 30
0.0
 10
10.6715374735
 20
5.2837719273
 30
0.0
 10
10.6617357917
 20
5.2929290371
 30
0.0
 10
10.6542056057
 20
5.3007207726
 30
0.0
 10
10.6466846409
 20
5.3092530001
 30
0.0
 10
10.6417945169
 20
5.3152836871
 30
0.0
 10
10.6393480979
 20
5.3184133333
 30
0.0
  0
SPLINE
  5
347
100
AcDbEntity
  8
0
100
AcDbSpline
 62
7
  6
CONTINUOUS
 70
0
 71
3
 72
41
 73
37
 74
0
 42
0.0000001
 43
0.0000001
 44
0.0000000001
 40
0.0
 40
0.0
 40
0.0
 40
0.0
 40
0.023256652
 40
0.0481659404
 40
0.0746583598
 40
0.1026525972
 40
0.1320569152
 40
0.1627701282
 40
0.1946836271
 40
0.2276816433
 40
0.2616423381
 40
0.2964389943
 40
0.3319402212
 40
0.3680111692
 40
0.404514125
 40
0.4413090395
 40
0.47825457
 40
0.5152085442
 40
0.5520288003
 40
0.5885737917
 40
0.6247033188
 40
0.6602794099
 40
0.6951666797
 40
0.7292334726
 40
0.7623523801
 40
0.7944008386
 40
0.8252625994
 40
0.8548278642
 40
0.8829945955
 40
0.9096700433
 40
0.9347712099
 40
0.9582274562
 40
0.9693212265
 40
0.9799839708
 40
0.9902111367
 40
1.0
 40
1.0
 40
1.0
 40
1.0
 10
11.7773411115
 20
5.2397080194
 30
0.0
 10
11.7695239548
 20
5.2367724605
 30
0.0
 10
11.7531911523
 20
5.2310695131
 30
0.0
 10
11.7275542663
 20
5.223221907
 30
0.0
 10
11.7000220961
 20
5.2158125386
 30
0.0
 10
11.6707076085
 20
5.208872761
 30
0.0
 10
11.6397305011
 20
5.2024316561
 30
0.0
 10
11.6072179198
 20
5.1965157954
 30
0.0
 10
11.5733033704
 20
5.1911501587
 30
0.0
 10
11.5381263131
 20
5.1863570912
 30
0.0
 10
11.5018315283
 20
5.1821563644
 30
0.0
 10
11.4645684445
 20
5.1785658083
 30
0.0
 10
11.4264905393
 20
5.1756001616
 30
0.0
 10
11.3877546953
 20
5.1732717318
 30
0.0
 10
11.348520516
 20
5.1715904712
 30
0.0
 10
11.3089496971
 20
5.1705630768
 30
0.0
 10
11.2692053422
 20
5.1701939542
 30
0.0
 10
11.2294512403
 20
5.1704847523
 30
0.0
 10
11.1898512417
 20
5.1714339875
 30
0.0
 10
11.1505685712
 20
5.1730379639
 30
0.0
 10
11.1117651072
 20
5.1752899426
 30
0.0
 10
11.0736007534
 20
5.1781803773
 30
0.0
 10
11.0362327481
 20
5.1816975447
 30
0.0
 10
10.999814992
 20
5.1858265635
 30
0.0
 10
10.9644974544
 20
5.1905502114
 30
0.0
 10
10.9304254928
 20
5.1958490602
 30
0.0
 10
10.8977392023
 20
5.2017006675
 30
0.0
 10
10.8665728714
 20
5.2080807768
 30
0.0
 10
10.8370544107
 20
5.214962862
 30
0.0
 10
10.8093044266
 20
5.2223178016
 30
0.0
 10
10.7834367081
 20
5.2301153466
 30
0.0
 10
10.7631754691
 20
5.2370781809
 30
0.0
 10
10.7480089449
 20
5.2428696875
 30
0.0
 10
10.7373810192
 20
5.2472226231
 30
0.0
 10
10.7272986054
 20
5.251661517
 30
0.0
 10
10.7208045704
 20
5.2547426709
 30
0.0
 10
10.7176534428
 20
5.2562992961
 30
0.0
  0
SPLINE
  5
348
100
AcDbEntity
  8
0
100
AcDbSpline
 62
7
  6
CONTINUOUS
 70
0
 71
3
 72
11
 73
7
 74
0
 42
0.0000001
 43
0.0000001
 44
0.0000000001
 40
0.0
 40
0.0
 40
0.0
 40
0.0
 40
0.2464179584
 40
0.4942839735
 40
0.7449565552
 40
1.0
 40
1.0
 40
1.0
 40
1.0
 10
10.7497624607
 20
5.254854197
 30
0.0
 10
10.747318507
 20
5.2547287322
 30
0.0
 10
10.7424060381
 20
5.2546407434
 30
0.0
 10
10.7350119651
 20
5.2550345179
 30
0.0
 10
10.7275823914
 20
5.2559898491
 30
0.0
 10
10.7226595826
 20
5.2570143606
 30
0.0
 10
10.7202018158
 20
5.2576264213
 30
0.0
  0
SPLINE
  5
349
100
AcDbEntity
  8
0
100
AcDbSpline
 62
7
  6
CONTINUOUS
 70
0
 71
3
 72
9
 73
5
 74
0
 42
0.0000001
 43
0.0000001
 44
0.0000000001
 40
0.0
 40
0.0
 40
0.0
 40
0.0
 40
0.4896161665
 40
1.0
 40
1.0
 40
1.0
 40
1.0
 10
10.7183090836
 20
5.2581178626
 30
0.0
 10
10.7151348779
 20
5.2589758444
 30
0.0
 10
10.7087362384
 20
5.2610552282
 30
0.0
 10
10.7025727345
 20
5.2637511319
 30
0.0
 10
10.6994987852
 20
5.2652674385
 30
0.0
  0
SPLINE
  5
34A
100
AcDbEntity
  8
0
100
AcDbSpline
 62
7
  6
CONTINUOUS
 70
0
 71
3
 72
15
 73
11
 74
0
 42
0.0000001
 43
0.0000001
 44
0.0000000001
 40
0.0
 40
0.0
 40
0.0
 40
0.0
 40
0.1454888964
 40
0.2858654504
 40
0.4207208804
 40
0.5496718549
 40
0.6723695521
 40
0.7884973877
 40
0.8977829353
 40
1.0
 40
1.0
 40
1.0
 40
1.0
 10
10.9406599666
 20
7.1205576157
 30
0.0
 10
10.9301469339
 20
7.122174586
 30
0.0
 10
10.9095207106
 20
7.1255543237
 30
0.0
 10
10.8792772864
 20
7.1311745258
 30
0.0
 10
10.8503538982
 20
7.1372401017
 30
0.0
 10
10.8228488922
 20
7.1437306457
 30
0.0
 10
10.7968554462
 20
7.1506231606
 30
0.0
 10
10.7724612836
 20
7.1578945623
 30
0.0
 10
10.749749111
 20
7.1655191461
 30
0.0
 10
10.7352871431
 20
7.1710073316
 30
0.0
 10
10.728363448
 20
7.173819648
 30
0.0
  0
SPLINE
  5
34B
100
AcDbEntity
  8
0
100
AcDbSpline
 62
7
  6
CONTINUOUS
 70
0
 71
3
 72
11
 73
7
 74
0
 42
0.0000001
 43
0.0000001
 44
0.0000000001
 40
0.0
 40
0.0
 40
0.0
 40
0.0
 40
0.2771998951
 40
0.5362858692
 40
0.7771814975
 40
1.0
 40
1.0
 40
1.0
 40
1.0
 10
10.728363448
 20
7.173819648
 30
0.0
 10
10.7228519227
 20
7.176058359
 30
0.0
 10
10.712267416
 20
7.1805869281
 30
0.0
 10
10.6972265066
 20
7.1878083075
 30
0.0
 10
10.6835889053
 20
7.1952135864
 30
0.0
 10
10.6751263226
 20
7.2004648459
 30
0.0
 10
10.6711550328
 20
7.2031283769
 30
0.0
  0
SPLINE
  5
34C
100
AcDbEntity
  8
0
100
AcDbSpline
 62
7
  6
CONTINUOUS
 70
0
 71
3
 72
9
 73
5
 74
0
 42
0.0000001
 43
0.0000001
 44
0.0000000001
 40
0.0
 40
0.0
 40
0.0
 40
0.0
 40
0.4821825259
 40
1.0
 40
1.0
 40
1.0
 40
1.0
 10
10.63882246
 20
7.2924406831
 30
0.0
 10
10.6404204479
 20
7.2946949806
 30
0.0
 10
10.6439936689
 20
7.2991893537
 30
0.0
 10
10.6479641685
 20
7.303332054
 30
0.0
 10
10.6500985125
 20
7.3053936721
 30
0.0
  0
SPLINE
  5
34D
100
AcDbEntity
  8
0
100
AcDbSpline
 62
7
  6
CONTINUOUS
 70
0
 71
3
 72
20
 73
16
 74
0
 42
0.0000001
 43
0.0000001
 44
0.0000000001
 40
0.0
 40
0.0
 40
0.0
 40
0.0
 40
0.152673703
 40
0.2986704408
 40
0.4372854551
 40
0.5036229507
 40
0.5678798724
 40
0.6299860161
 40
0.6898782318
 40
0.7474992129
 40
0.8027962923
 40
0.8557266042
 40
0.9062536844
 40
0.9543498371
 40
1.0
 40
1.0
 40
1.0
 40
1.0
 10
10.9510983962
 20
7.1025708062
 30
0.0
 10
10.9371217976
 20
7.1045750299
 30
0.0
 10
10.9098259296
 20
7.1088285187
 30
0.0
 10
10.8700443173
 20
7.1161289087
 30
0.0
 10
10.8383023248
 20
7.1229302662
 30
0.0
 10
10.8140961129
 20
7.1287590368
 30
0.0
 10
10.7968454088
 20
7.1332366771
 30
0.0
 10
10.7802562096
 20
7.1378783913
 30
0.0
 10
10.7643517357
 20
7.1426775545
 30
0.0
 10
10.7491542187
 20
7.147627134
 30
0.0
 10
10.7346850182
 20
7.1527206306
 30
0.0
 10
10.720964246
 20
7.1579504248
 30
0.0
 10
10.7080109357
 20
7.1633092887
 30
0.0
 10
10.6958434277
 20
7.1687899183
 30
0.0
 10
10.6880628299
 20
7.1726197786
 30
0.0
 10
10.6843122429
 20
7.1745580371
 30
0.0
  0
SPLINE
  5
34E
100
AcDbEntity
  8
0
100
AcDbSpline
 62
7
  6
CONTINUOUS
 70
0
 71
3
 72
15
 73
11
 74
0
 42
0.0000001
 43
0.0000001
 44
0.0000000001
 40
0.0
 40
0.0
 40
0.0
 40
0.0
 40
0.1188712634
 40
0.2340988406
 40
0.348493648
 40
0.4649309261
 40
0.5861276541
 40
0.7144638197
 40
0.8519087604
 40
1.0
 40
1.0
 40
1.0
 40
1.0
 10
10.7233864057
 20
7.248839538
 30
0.0
 10
10.7226462186
 20
7.2507945317
 30
0.0
 10
10.7214609675
 20
7.2547566563
 30
0.0
 10
10.7206575348
 20
7.2608588953
 30
0.0
 10
10.7208730982
 20
7.2669691097
 30
0.0
 10
10.7221068724
 20
7.273062592
 30
0.0
 10
10.7243483498
 20
7.2791202624
 30
0.0
 10
10.727583338
 20
7.2851296037
 30
0.0
 10
10.7317991364
 20
7.2910811043
 30
0.0
 10
10.7351235463
 20
7.2948567494
 30
0.0
 10
10.7369280084
 20
7.2967345604
 30
0.0
  0
SPLINE
  5
34F
100
AcDbEntity
  8
0
100
AcDbSpline
 62
7
  6
CONTINUOUS
 70
0
 71
3
 72
15
 73
11
 74
0
 42
0.0000001
 43
0.0000001
 44
0.0000000001
 40
0.0
 40
0.0
 40
0.0
 40
0.0
 40
0.1310598587
 40
0.2598896056
 40
0.3866706682
 40
0.5116676961
 40
0.6351930737
 40
0.7575668782
 40
0.8790855254
 40
1.0
 40
1.0
 40
1.0
 40
1.0
 10
11.7737604271
 20
5.2397415731
 30
0.0
 10
11.7612112783
 20
5.2350542908
 30
0.0
 10
11.7360534973
 20
5.2264682035
 30
0.0
 10
11.6979062687
 20
5.2160354692
 30
0.0
 10
11.6597710591
 20
5.2082061682
 30
0.0
 10
11.6217463695
 20
5.2029429456
 30
0.0
 10
11.5839164387
 20
5.2001298567
 30
0.0
 10
11.5463445974
 20
5.199591733
 30
0.0
 10
11.5090713942
 20
5.2011175083
 30
0.0
 10
11.4843831849
 20
5.2033656088
 30
0.0
 10
11.4721030889
 20
5.2047597043
 30
0.0
  0
SPLINE
  5
350
100
AcDbEntity
  8
0
100
AcDbSpline
 62
7
  6
CONTINUOUS
 70
0
 71
3
 72
21
 73
17
 74
0
 42
0.0000001
 43
0.0000001
 44
0.0000000001
 40
0.0
 40
0.0
 40
0.0
 40
0.0
 40
0.1229782982
 40
0.1846437121
 40
0.2464406137
 40
0.308381136
 40
0.3704758731
 40
0.4327332085
 40
0.4951582589
 40
0.5577520389
 40
0.6205114325
 40
0.6834297978
 40
0.7464974582
 40
0.8097023547
 40
0.8730312648
 40
1.0
 40
1.0
 40
1.0
 40
1.0
 10
11.4284001301
 20
5.2017288885
 30
0.0
 10
11.4020145559
 20
5.1963667004
 30
0.0
 10
11.3621837327
 20
5.1892995616
 30
0.0
 10
11.3086820815
 20
5.1822607636
 30
0.0
 10
11.2682785319
 20
5.178269959
 30
0.0
 10
11.2276666093
 20
5.1756754271
 30
0.0
 10
11.1868851791
 20
5.1745656968
 30
0.0
 10
11.1459843773
 20
5.1750091844
 30
0.0
 10
11.1050223183
 20
5.1770482279
 30
0.0
 10
11.06406171
 20
5.1806948481
 30
0.0
 10
11.0231650142
 20
5.1859279539
 30
0.0
 10
10.9823898679
 20
5.1926968763
 30
0.0
 10
10.9417857589
 20
5.2009261405
 30
0.0
 10
10.9013909548
 20
5.2105217599
 30
0.0
 10
10.8478059771
 20
5.2250072578
 30
0.0
 10
10.8080587378
 20
5.2375800525
 30
0.0
 10
10.7817552561
 20
5.2465738628
 30
0.0
  0
SPLINE
  5
351
100
AcDbEntity
  8
0
100
AcDbSpline
 62
7
  6
CONTINUOUS
 70
0
 71
3
 72
34
 73
30
 74
0
 42
0.0000001
 43
0.0000001
 44
0.0000000001
 40
0.0
 40
0.0
 40
0.0
 40
0.0
 40
0.084501673
 40
0.1673002759
 40
0.2480787414
 40
0.3265288535
 40
0.4023559636
 40
0.4391984045
 40
0.4752814239
 40
0.5105727153
 40
0.5450411518
 40
0.5786570052
 40
0.6113918477
 40
0.6432188222
 40
0.6741126933
 40
0.7040498985
 40
0.7330088893
 40
0.7609700757
 40
0.7879161735
 40
0.8138324243
 40
0.8387067279
 40
0.8625302071
 40
0.8852973789
 40
0.9070067457
 40
0.9276614399
 40
0.9472697611
 40
0.9658463146
 40
0.9834129211
 40
1.0
 40
1.0
 40
1.0
 40
1.0
 10
10.5954661341
 20
10.7502176723
 30
0.0
 10
10.5779947988
 20
10.7514293135
 30
0.0
 10
10.5434246202
 20
10.7541348183
 30
0.0
 10
10.4922463049
 20
10.7590958442
 30
0.0
 10
10.4424190637
 20
10.7649025325
 30
0.0
 10
10.3941523202
 20
10.7715303019
 30
0.0
 10
10.3550331642
 20
10.7777723387
 30
0.0
 10
10.3246791291
 20
10.7831698135
 30
0.0
 10
10.3026462243
 20
10.7873660663
 30
0.0
 10
10.2811507286
 20
10.7917447441
 30
0.0
 10
10.2602151927
 20
10.7963012948
 30
0.0
 10
10.239861598
 20
10.8010308552
 30
0.0
 10
10.2201113078
 20
10.8059284788
 30
0.0
 10
10.2009850407
 20
10.8109889819
 30
0.0
 10
10.18250285
 20
10.8162070086
 30
0.0
 10
10.1646841114
 20
10.8215771022
 30
0.0
 10
10.1475474753
 20
10.8270935479
 30
0.0
 10
10.1311108749
 20
10.8327505704
 30
0.0
 10
10.1153914852
 20
10.8385422139
 30
0.0
 10
10.1004056974
 20
10.8444623554
 30
0.0
 10
10.0861691323
 20
10.8505048465
 30
0.0
 10
10.072696562
 20
10.8566633115
 30
0.0
 10
10.0600019439
 20
10.8629313678
 30
0.0
 10
10.0480983871
 20
10.869302546
 30
0.0
 10
10.0369980824
 20
10.8757702692
 30
0.0
 10
10.0267124443
 20
10.8823280285
 30
0.0
 10
10.0172517743
 20
10.8889693686
 30
0.0
 10
10.008626106
 20
10.8956874446
 30
0.0
 10
10.003288313
 20
10.9003439302
 30
0.0
 10
10.0007717152
 20
10.902685888
 30
0.0
  0
SPLINE
  5
352
100
AcDbEntity
  8
0
100
AcDbSpline
 62
7
  6
CONTINUOUS
 70
0
 71
3
 72
39
 73
35
 74
0
 42
0.0000001
 43
0.0000001
 44
0.0000000001
 40
0.0
 40
0.0
 40
0.0
 40
0.0
 40
0.0311450468
 40
0.0624431066
 40
0.0938883481
 40
0.1254709924
 40
0.157178888
 40
0.1889972656
 40
0.2209091813
 40
0.2528958506
 40
0.2849370306
 40
0.3170114219
 40
0.3490970827
 40
0.3811718539
 40
0.4132137864
 40
0.4452015658
 40
0.4771149283
 40
0.5089350609
 40
0.5406449831
 40
0.5722299015
 40
0.6036775303
 40
0.6349783704
 40
0.6661259418
 40
0.6971169618
 40
0.7279514635
 40
0.7586328449
 40
0.7891678453
 40
0.8195664447
 40
0.8498416857
 40
0.880009417
 40
0.9100879626
 40
0.9400977191
 40
0.9700606947
 40
1.0
 40
1.0
 40
1.0
 40
1.0
 10
10.4256809867
 20
10.4567833448
 30
0.0
 10
10.4372858085
 20
10.4559785477
 30
0.0
 10
10.4605021937
 20
10.4535155778
 30
0.0
 10
10.4950453063
 20
10.447311253
 30
0.0
 10
10.5292184263
 20
10.438620897
 30
0.0
 10
10.5628370083
 20
10.4274911914
 30
0.0
 10
10.5957224339
 20
10.413981815
 30
0.0
 10
10.6276992794
 20
10.3981650019
 30
0.0
 10
10.6585971987
 20
10.3801252871
 30
0.0
 10
10.6882515568
 20
10.3599590035
 30
0.0
 10
10.7165043585
 20
10.3377737599
 30
0.0
 10
10.7432050602
 20
10.3136878762
 30
0.0
 10
10.7682113639
 20
10.2878297554
 30
0.0
 10
10.7913899763
 20
10.260337219
 30
0.0
 10
10.8126173331
 20
10.2313567914
 30
0.0
 10
10.8317802218
 20
10.2010428981
 30
0.0
 10
10.848776383
 20
10.1695570592
 30
0.0
 10
10.8635150506
 20
10.1370670391
 30
0.0
 10
10.8759174302
 20
10.1037459658
 30
0.0
 10
10.8859171626
 20
10.0697714348
 30
0.0
 10
10.8934606458
 20
10.0353245563
 30
0.0
 10
10.8985073198
 20
10.0005890057
 30
0.0
 10
10.9010298945
 20
9.9657500587
 30
0.0
 10
10.9010144992
 20
9.9309936184
 30
0.0
 10
10.8984608079
 20
9.8965052347
 30
0.0
 10
10.8933820539
 20
9.8624691142
 30
0.0
 10
10.8858049526
 20
9.8290671446
 30
0.0
 10
10.8757695852
 20
9.7964779199
 30
0.0
 10
10.8633292204
 20
9.7648757982
 30
0.0
 10
10.8485500031
 20
9.7344298957
 30
0.0
 10
10.8315108743
 20
9.7053033637
 30
0.0
 10
10.8123022757
 20
9.6776516977
 30
0.0
 10
10.791028815
 20
9.651624897
 30
0.0
 10
10.7755389143
 20
9.6354431
 30
0.0
 10
10.7674959536
 20
9.6276742054
 30
0.0
  0
SPLINE
  5
353
100
AcDbEntity
  8
0
100
AcDbSpline
 62
7
  6
CONTINUOUS
 70
0
 71
3
 72
39
 73
35
 74
0
 42
0.0000001
 43
0.0000001
 44
0.0000000001
 40
0.0
 40
0.0
 40
0.0
 40
0.0
 40
0.0311450437
 40
0.0624431125
 40
0.0938883331
 40
0.1254709822
 40
0.157178873
 40
0.1889972474
 40
0.2209091591
 40
0.2528958248
 40
0.2849370022
 40
0.3170113907
 40
0.3490970489
 40
0.3811718181
 40
0.4132137492
 40
0.4452015278
 40
0.4771148901
 40
0.5089350229
 40
0.5406449458
 40
0.5722298665
 40
0.6036774985
 40
0.6349783412
 40
0.6661259148
 40
0.6971169386
 40
0.7279514454
 40
0.7586328312
 40
0.789167835
 40
0.8195664378
 40
0.8498416821
 40
0.8800094162
 40
0.9100879636
 40
0.9400977212
 40
0.9700606965
 40
1.0
 40
1.0
 40
1.0
 40
1.0
 10
10.4256809867
 20
7.4459925962
 30
0.0
 10
10.4404228571
 20
7.444970244
 30
0.0
 10
10.4699151672
 20
7.4418414733
 30
0.0
 10
10.5137960735
 20
7.4339599964
 30
0.0
 10
10.5572069745
 20
7.4229204562
 30
0.0
 10
10.5999134336
 20
7.4087821693
 30
0.0
 10
10.6416885402
 20
7.3916208872
 30
0.0
 10
10.6823094688
 20
7.371528455
 30
0.0
 10
10.7215598345
 20
7.3486122501
 30
0.0
 10
10.7592304784
 20
7.3229946094
 30
0.0
 10
10.7951206731
 20
7.2948122047
 30
0.0
 10
10.8290392076
 20
7.2642153809
 30
0.0
 10
10.860805337
 20
7.2313672667
 30
0.0
 10
10.890249727
 20
7.1964429245
 30
0.0
 10
10.9172153754
 20
7.1596284589
 30
0.0
 10
10.9415584938
 20
7.1211200633
 30
0.0
 10
10.9631491848
 20
7.0811229201
 30
0.0
 10
10.9818721262
 20
7.0398501332
 30
0.0
 10
10.9976272346
 20
6.9975216365
 30
0.0
 10
11.0103302342
 20
6.9543630384
 30
0.0
 10
11.0199130216
 20
6.9106044006
 30
0.0
 10
11.0263240319
 20
6.8664790424
 30
0.0
 10
11.0295286016
 20
6.8222223294
 30
0.0
 10
11.0295091732
 20
6.7780704203
 30
0.0
 10
11.0262653285
 20
6.7342590148
 30
0.0
 10
11.0198138118
 20
6.6910221202
 30
0.0
 10
11.0101885647
 20
6.6485907978
 30
0.0
 10
10.9974405401
 20
6.6071919112
 30
0.0
 10
10.9816374173
 20
6.5670469427
 30
0.0
 10
10.962863192
 20
6.5283707333
 30
0.0
 10
10.941218138
 20
6.4913705437
 30
0.0
 10
10.9168171677
 20
6.4562438878
 30
0.0
 10
10.8897931406
 20
6.423181333
 30
0.0
 10
10.8701160712
 20
6.4026251203
 30
0.0
 10
10.8598989364
 20
6.3927560921
 30
0.0
  0
SPLINE
  5
354
100
AcDbEntity
  8
0
100
AcDbSpline
 62
7
  6
CONTINUOUS
 70
0
 71
3
 72
15
 73
11
 74
0
 42
0.0000001
 43
0.0000001
 44
0.0000000001
 40
0.0
 40
0.0
 40
0.0
 40
0.0
 40
0.124660469
 40
0.2494019641
 40
0.3742261366
 40
0.4991551608
 40
0.6241948117
 40
0.7493490696
 40
0.8746186288
 40
1.0
 40
1.0
 40
1.0
 40
1.0
 10
10.6115129077
 20
9.9272936088
 30
0.0
 10
10.6155261271
 20
9.9270152911
 30
0.0
 10
10.62357247
 20
9.9266820087
 30
0.0
 10
10.6356536268
 20
9.9268531758
 30
0.0
 10
10.6477157559
 20
9.9276936528
 30
0.0
 10
10.6597226362
 20
9.9291986993
 30
0.0
 10
10.6716394216
 20
9.9313613047
 30
0.0
 10
10.6834315355
 20
9.9341718434
 30
0.0
 10
10.695064751
 20
9.937618339
 30
0.0
 10
10.7026900961
 20
9.9403301202
 30
0.0
 10
10.7064649285
 20
9.9417867419
 30
0.0
  0
SPLINE
  5
355
100
AcDbEntity
  8
0
100
AcDbSpline
 62
7
  6
CONTINUOUS
 70
0
 71
3
 72
15
 73
11
 74
0
 42
0.0000001
 43
0.0000001
 44
0.0000000001
 40
0.0
 40
0.0
 40
0.0
 40
0.0
 40
0.1253924224
 40
0.2517506927
 40
0.378174033
 40
0.5040960026
 40
0.6292548888
 40
0.7535951134
 40
0.877159088
 40
1.0
 40
1.0
 40
1.0
 40
1.0
 10
10.4414112228
 20
6.5880938541
 30
0.0
 10
10.4522659298
 20
6.5834885136
 30
0.0
 10
10.474156067
 20
6.5744682318
 30
0.0
 10
10.5073853503
 20
6.5617879102
 30
0.0
 10
10.5410576712
 20
6.5501743601
 30
0.0
 10
10.5750451755
 20
6.5398929035
 30
0.0
 10
10.6092620592
 20
6.5311544004
 30
0.0
 10
10.6436449855
 20
6.5241167927
 30
0.0
 10
10.6781294912
 20
6.5188904269
 30
0.0
 10
10.7012053136
 20
6.5166514818
 30
0.0
 10
10.7127289651
 20
6.5158523139
 30
0.0
  0
SPLINE
  5
356
100
AcDbEntity
  8
0
100
AcDbSpline
 62
7
  6
CONTINUOUS
 70
0
 71
3
 72
15
 73
11
 74
0
 42
0.0000001
 43
0.0000001
 44
0.0000000001
 40
0.0
 40
0.0
 40
0.0
 40
0.0
 40
0.1318718293
 40
0.2628556137
 40
0.3926964086
 40
0.5209440206
 40
0.6469032772
 40
0.7695944954
 40
0.8877643373
 40
1.0
 40
1.0
 40
1.0
 40
1.0
 10
10.7127289651
 20
6.5158523139
 30
0.0
 10
10.7241847616
 20
6.5150578517
 30
0.0
 10
10.7470675649
 20
6.5140980046
 30
0.0
 10
10.7812766857
 20
6.5145446414
 30
0.0
 10
10.8150964236
 20
6.5168286608
 30
0.0
 10
10.8483110455
 20
6.5208569194
 30
0.0
 10
10.8806578787
 20
6.5264938297
 30
0.0
 10
10.9118229587
 20
6.5335587692
 30
0.0
 10
10.9414504275
 20
6.5418249174
 30
0.0
 10
10.9605013168
 20
6.5481479965
 30
0.0
 10
10.9696974828
 20
6.5514570776
 30
0.0
  0
SPLINE
  5
357
100
AcDbEntity
  8
0
100
AcDbSpline
 62
7
  6
CONTINUOUS
 70
0
 71
3
 72
34
 73
30
 74
0
 42
0.0000001
 43
0.0000001
 44
0.0000000001
 40
0.0
 40
0.0
 40
0.0
 40
0.0
 40
0.032888859
 40
0.0655355617
 40
0.0979420116
 40
0.1301133842
 40
0.1620581468
 40
0.1937875365
 40
0.2253150233
 40
0.2566558133
 40
0.2878266212
 40
0.3188452375
 40
0.3497299148
 40
0.3804992191
 40
0.4111720947
 40
0.4417671454
 40
0.4723028432
 40
0.5027976644
 40
0.5332693689
 40
0.5637359315
 40
0.594214815
 40
0.6247234626
 40
0.6858923142
 40
0.747393464
 40
0.7783183815
 40
0.8093832836
 40
0.8720147558
 40
0.9354819294
 40
1.0
 40
1.0
 40
1.0
 40
1.0
 10
11.0219882833
 20
6.8929587701
 30
0.0
 10
11.0145667296
 20
6.8946219243
 30
0.0
 10
10.9998574204
 20
6.898301679
 30
0.0
 10
10.9781762243
 20
6.9048832458
 30
0.0
 10
10.9570027865
 20
6.912473032
 30
0.0
 10
10.9363785091
 20
6.9210326613
 30
0.0
 10
10.9163378292
 20
6.9305206702
 30
0.0
 10
10.89690939
 20
6.9408933814
 30
0.0
 10
10.8781160262
 20
6.9521059089
 30
0.0
 10
10.8599751952
 20
6.9641129933
 30
0.0
 10
10.8424993038
 20
6.9768696302
 30
0.0
 10
10.8256962988
 20
6.9903317666
 30
0.0
 10
10.809570291
 20
7.0044568187
 30
0.0
 10
10.7941219498
 20
7.0192039273
 30
0.0
 10
10.7793490891
 20
7.034534287
 30
0.0
 10
10.7652471872
 20
7.0504113793
 30
0.0
 10
10.7518096643
 20
7.0668009477
 30
0.0
 10
10.7390285348
 20
7.0836712236
 30
0.0
 10
10.7268943706
 20
7.1009928041
 30
0.0
 10
10.7153970006
 20
7.1187386733
 30
0.0
 10
10.7045253148
 20
7.1368844722
 30
0.0
 10
10.6908380509
 20
7.1616012521
 30
0.0
 10
10.6752229262
 20
7.1934259778
 30
0.0
 10
10.6615773671
 20
7.2262435961
 30
0.0
 10
10.6517725739
 20
7.2530687496
 30
0.0
 10
10.6426455201
 20
7.2804077633
 30
0.0
 10
10.6325569274
 20
7.3153434504
 30
0.0
 10
10.6225001976
 20
7.3582784796
 30
0.0
 10
10.6171211501
 20
7.3873947016
 30
0.0
 10
10.6147274286
 20
7.4021213832
 30
0.0
  0
SPLINE
  5
358
100
AcDbEntity
  8
0
100
AcDbSpline
 62
7
  6
CONTINUOUS
 70
0
 71
3
 72
19
 73
15
 74
0
 42
0.0000001
 43
0.0000001
 44
0.0000000001
 40
0.0
 40
0.0
 40
0.0
 40
0.0
 40
0.1273276594
 40
0.2538196703
 40
0.3795264652
 40
0.5045235359
 40
0.5668075957
 40
0.6289556126
 40
0.6909843719
 40
0.7529118459
 40
0.8147570133
 40
0.8765397124
 40
0.9382804148
 40
1.0
 40
1.0
 40
1.0
 40
1.0
 10
11.9259905461
 20
6.1417729846
 30
0.0
 10
11.9259905461
 20
6.1345662543
 30
0.0
 10
11.9253024624
 20
6.1201901779
 30
0.0
 10
11.9221905191
 20
6.0989022789
 30
0.0
 10
11.9170309439
 20
6.078150271
 30
0.0
 10
11.911053996
 20
6.0614395166
 30
0.0
 10
11.9053058081
 20
6.0485396332
 30
0.0
 10
11.9005257904
 20
6.0391252192
 30
0.0
 10
11.8952836207
 20
6.0299836302
 30
0.0
 10
11.8895912302
 20
6.0211356488
 30
0.0
 10
11.8834617521
 20
6.012601817
 30
0.0
 10
11.8769093121
 20
6.0044016784
 30
0.0
 10
11.8699492287
 20
5.9965544488
 30
0.0
 10
11.8650471712
 20
5.9915694018
 30
0.0
 10
11.8625345845
 20
5.9891424282
 30
0.0
  0
SPLINE
  5
359
100
AcDbEntity
  8
0
100
AcDbSpline
 62
7
  6
CONTINUOUS
 70
0
 71
3
 72
19
 73
15
 74
0
 42
0.0000001
 43
0.0000001
 44
0.0000000001
 40
0.0
 40
0.0
 40
0.0
 40
0.0
 40
0.1273276594
 40
0.2538196703
 40
0.3795264652
 40
0.5045235359
 40
0.5668075957
 40
0.6289556126
 40
0.6909843719
 40
0.7529118459
 40
0.8147570133
 40
0.8765397124
 40
0.9382804148
 40
1.0
 40
1.0
 40
1.0
 40
1.0
 10
9.3914010153
 20
6.3175473656
 30
0.0
 10
9.3914010153
 20
6.3103406353
 30
0.0
 10
9.3907129316
 20
6.2959645588
 30
0.0
 10
9.3876009883
 20
6.2746766598
 30
0.0
 10
9.3824414131
 20
6.253924652
 30
0.0
 10
9.3764644652
 20
6.2372138976
 30
0.0
 10
9.3707162773
 20
6.2243140142
 30
0.0
 10
9.3659362596
 20
6.2148996002
 30
0.0
 10
9.3606940899
 20
6.2057580112
 30
0.0
 10
9.3550016994
 20
6.1969100298
 30
0.0
 10
9.3488722213
 20
6.188376198
 30
0.0
 10
9.3423197813
 20
6.1801760594
 30
0.0
 10
9.3353596979
 20
6.1723288298
 30
0.0
 10
9.3304576404
 20
6.1673437828
 30
0.0
 10
9.3279450537
 20
6.1649168092
 30
0.0
  0
SPLINE
  5
35A
100
AcDbEntity
  8
0
100
AcDbSpline
 62
7
  6
CONTINUOUS
 70
0
 71
3
 72
19
 73
15
 74
0
 42
0.0000001
 43
0.0000001
 44
0.0000000001
 40
0.0
 40
0.0
 40
0.0
 40
0.0
 40
0.1273276594
 40
0.2538196703
 40
0.3795264652
 40
0.5045235359
 40
0.5668075957
 40
0.6289556126
 40
0.6909843719
 40
0.7529118459
 40
0.8147570133
 40
0.8765397124
 40
0.9382804148
 40
1.0
 40
1.0
 40
1.0
 40
1.0
 10
9.3914010153
 20
7.5249547776
 30
0.0
 10
9.3914010153
 20
7.5177480473
 30
0.0
 10
9.3907129316
 20
7.5033719708
 30
0.0
 10
9.3876009883
 20
7.4820840718
 30
0.0
 10
9.3824414131
 20
7.461332064
 30
0.0
 10
9.3764644652
 20
7.4446213095
 30
0.0
 10
9.3707162773
 20
7.4317214262
 30
0.0
 10
9.3659362596
 20
7.4223070122
 30
0.0
 10
9.3606940899
 20
7.4131654232
 30
0.0
 10
9.3550016994
 20
7.4043174418
 30
0.0
 10
9.3488722213
 20
7.3957836099
 30
0.0
 10
9.3423197813
 20
7.3875834714
 30
0.0
 10
9.3353596979
 20
7.3797362418
 30
0.0
 10
9.3304576404
 20
7.3747511948
 30
0.0
 10
9.3279450537
 20
7.3723242212
 30
0.0
  0
SPLINE
  5
35B
100
AcDbEntity
  8
0
100
AcDbSpline
 62
7
  6
CONTINUOUS
 70
0
 71
3
 72
19
 73
15
 74
0
 42
0.0000001
 43
0.0000001
 44
0.0000000001
 40
0.0
 40
0.0
 40
0.0
 40
0.0
 40
0.1273276594
 40
0.2538196703
 40
0.3795264652
 40
0.5045235359
 40
0.5668075957
 40
0.6289556126
 40
0.6909843719
 40
0.7529118459
 40
0.8147570133
 40
0.8765397124
 40
0.9382804148
 40
1.0
 40
1.0
 40
1.0
 40
1.0
 10
11.9259905461
 20
7.3491803966
 30
0.0
 10
11.9259905461
 20
7.3419736663
 30
0.0
 10
11.9253024624
 20
7.3275975898
 30
0.0
 10
11.9221905191
 20
7.3063096909
 30
0.0
 10
11.9170309439
 20
7.285557683
 30
0.0
 10
11.911053996
 20
7.2688469286
 30
0.0
 10
11.9053058081
 20
7.2559470452
 30
0.0
 10
11.9005257904
 20
7.2465326312
 30
0.0
 10
11.8952836207
 20
7.2373910422
 30
0.0
 10
11.8895912302
 20
7.2285430608
 30
0.0
 10
11.8834617521
 20
7.220009229
 30
0.0
 10
11.8769093121
 20
7.2118090904
 30
0.0
 10
11.8699492287
 20
7.2039618608
 30
0.0
 10
11.8650471712
 20
7.1989768138
 30
0.0
 10
11.8625345845
 20
7.1965498402
 30
0.0
  0
SPLINE
  5
35C
100
AcDbEntity
  8
0
100
AcDbSpline
 62
7
  6
CONTINUOUS
 70
0
 71
3
 72
12
 73
8
 74
0
 42
0.0000001
 43
0.0000001
 44
0.0000000001
 40
0.0
 40
0.0
 40
0.0
 40
0.0
 40
0.2885476669
 40
0.4207016484
 40
0.546188244
 40
0.7808954867
 40
1.0
 40
1.0
 40
1.0
 40
1.0
 10
10.0345538084
 20
10.8774906666
 30
0.0
 10
10.034091951
 20
10.8785296109
 30
0.0
 10
10.0334845981
 20
10.8800758866
 30
0.0
 10
10.0328573863
 20
10.8821354387
 30
0.0
 10
10.032387625
 20
10.8840184665
 30
0.0
 10
10.03200783
 20
10.8862740127
 30
0.0
 10
10.031909234
 20
10.8880636542
 30
0.0
 10
10.031909234
 20
10.8889270015
 30
0.0
  0
SPLINE
  5
35D
100
AcDbEntity
  8
0
100
AcDbSpline
 62
7
  6
CONTINUOUS
 70
0
 71
3
 72
47
 73
43
 74
0
 42
0.0000001
 43
0.0000001
 44
0.0000000001
 40
0.0
 40
0.0
 40
0.0
 40
0.0
 40
0.0072739775
 40
0.0148704909
 40
0.0227980012
 40
0.0310632841
 40
0.0396714796
 40
0.0486264556
 40
0.0579307827
 40
0.0675860442
 40
0.0775928013
 40
0.0879508103
 40
0.0986590314
 40
0.109715732
 40
0.1211185671
 40
0.1328645699
 40
0.144950304
 40
0.157371765
 40
0.1832032037
 40
0.210319382
 40
0.2386740836
 40
0.2682158418
 40
0.2988885062
 40
0.3306317225
 40
0.3633813487
 40
0.3970698259
 40
0.4316265144
 40
0.4669780058
 40
0.5030484156
 40
0.5397596636
 40
0.5770317434
 40
0.6147829847
 40
0.6529303118
 40
0.691389497
 40
0.7300754128
 40
0.7689022769
 40
0.8077839132
 40
0.8466339567
 40
0.8853662304
 40
0.9238946264
 40
0.9621342508
 40
1.0
 40
1.0
 40
1.0
 40
1.0
 10
11.6270463464
 20
10.9026855058
 30
0.0
 10
11.6251666678
 20
10.9009362742
 30
0.0
 10
11.6212375253
 20
10.8974522358
 30
0.0
 10
11.6149899888
 20
10.8923761657
 30
0.0
 10
11.6082666304
 20
10.8873413504
 30
0.0
 10
11.6010714968
 20
10.8823508881
 30
0.0
 10
11.5934087846
 20
10.8774074718
 30
0.0
 10
11.5852829312
 20
10.8725140685
 30
0.0
 10
11.5766987298
 20
10.8676734168
 30
0.0
 10
11.56766118
 20
10.8628884309
 30
0.0
 10
11.5581756157
 20
10.8581618546
 30
0.0
 10
11.5482476052
 20
10.8534965166
 30
0.0
 10
11.5378830089
 20
10.8488951554
 30
0.0
 10
11.5270879465
 20
10.8443604926
 30
0.0
 10
11.5158687935
 20
10.8398952437
 30
0.0
 10
11.5042322013
 20
10.8355020246
 30
0.0
 10
11.492185037
 20
10.8311834734
 30
0.0
 10
11.4753642502
 20
10.8254535157
 30
0.0
 10
11.4533542854
 20
10.8185123697
 30
0.0
 10
11.4257567435
 20
10.810625277
 30
0.0
 10
11.3967050072
 20
10.8030944239
 30
0.0
 10
11.3662680417
 20
10.7959378429
 30
0.0
 10
11.3345178939
 20
10.7891726992
 30
0.0
 10
11.3015298876
 20
10.7828152117
 30
0.0
 10
11.2673823194
 20
10.7768806214
 30
0.0
 10
11.2321562918
 20
10.7713831512
 30
0.0
 10
11.1959355026
 20
10.766335973
 30
0.0
 10
11.158806042
 20
10.7617511762
 30
0.0
 10
11.1208561817
 20
10.7576397399
 30
0.0
 10
11.0821761611
 20
10.7540115072
 30
0.0
 10
11.0428579696
 20
10.7508751626
 30
0.0
 10
11.002995125
 20
10.7482382112
 30
0.0
 10
10.9626824491
 20
10.7461069617
 30
0.0
 10
10.9220158389
 20
10.7444865122
 30
0.0
 10
10.8810920387
 20
10.7433807393
 30
0.0
 10
10.8400084045
 20
10.7427922865
 30
0.0
 10
10.7988626838
 20
10.742722564
 30
0.0
 10
10.7577527437
 20
10.7431717324
 30
0.0
 10
10.7167764463
 20
10.7441387295
 30
0.0
 10
10.6760311385
 20
10.7456212238
 30
0.0
 10
10.6356139814
 20
10.7476156923
 30
0.0
 10
10.6088005612
 20
10.7492929266
 30
0.0
 10
10.5954661341
 20
10.7502176723
 30
0.0
  0
SPLINE
  5
35E
100
AcDbEntity
  8
0
100
AcDbSpline
 62
7
  6
CONTINUOUS
 70
0
 71
3
 72
12
 73
8
 74
0
 42
0.0000001
 43
0.0000001
 44
0.0000000001
 40
0.0
 40
0.0
 40
0.0
 40
0.0
 40
0.2185793056
 40
0.452992538
 40
0.5784699826
 40
0.7107399447
 40
1.0
 40
1.0
 40
1.0
 40
1.0
 10
11.595909234
 20
10.8889270015
 30
0.0
 10
11.595909234
 20
10.8880529303
 30
0.0
 10
11.5958080863
 20
10.886239947
 30
0.0
 10
11.5954184425
 20
10.8839548706
 30
0.0
 10
11.5949365102
 20
10.8820459336
 30
0.0
 10
11.5942918643
 20
10.8799548261
 30
0.0
 10
11.5936675431
 20
10.8783850839
 30
0.0
 10
11.5931929061
 20
10.8773302338
 30
0.0
  0
SPLINE
  5
35F
100
AcDbEntity
  8
0
100
AcDbSpline
 62
7
  6
CONTINUOUS
 70
0
 71
3
 72
27
 73
23
 74
0
 42
0.0000001
 43
0.0000001
 44
0.0000000001
 40
0.0
 40
0.0
 40
0.0
 40
0.0
 40
0.024050962
 40
0.048846346
 40
0.0743464138
 40
0.1005114928
 40
0.127302985
 40
0.1546823651
 40
0.1826153118
 40
0.2110672837
 40
0.2694036988
 40
0.3294772998
 40
0.3911073683
 40
0.4541470158
 40
0.5184793148
 40
0.584014716
 40
0.6506866817
 40
0.7184483471
 40
0.7872700944
 40
0.8571356296
 40
0.9280450934
 40
1.0
 40
1.0
 40
1.0
 40
1.0
 10
10.3138592455
 20
6.8342080214
 30
0.0
 10
10.3138585731
 20
6.8319264599
 30
0.0
 10
10.3139570458
 20
6.8272922326
 30
0.0
 10
10.3143821553
 20
6.8202507308
 30
0.0
 10
10.3150814226
 20
6.8130296752
 30
0.0
 10
10.3160496401
 20
6.8056488977
 30
0.0
 10
10.317281831
 20
6.7981269638
 30
0.0
 10
10.3187732979
 20
6.7904812872
 30
0.0
 10
10.3205199079
 20
6.7827283066
 30
0.0
 10
10.3232059482
 20
6.7721809143
 30
0.0
 10
10.3271903748
 20
6.7588236978
 30
0.0
 10
10.3328981117
 20
6.7427191983
 30
0.0
 10
10.3395556966
 20
6.7265001418
 30
0.0
 10
10.3471514674
 20
6.7102517934
 30
0.0
 10
10.3556782096
 20
6.6940521501
 30
0.0
 10
10.3651322253
 20
6.6779743763
 30
0.0
 10
10.3755126353
 20
6.6620882372
 30
0.0
 10
10.386820519
 20
6.6464615139
 30
0.0
 10
10.3990580233
 20
6.6311612952
 30
0.0
 10
10.412227863
 20
6.6162542694
 30
0.0
 10
10.4263313698
 20
6.6018091158
 30
0.0
 10
10.4362838899
 20
6.592599786
 30
0.0
 10
10.4414112228
 20
6.5880938541
 30
0.0
  0
SPLINE
  5
360
100
AcDbEntity
  8
0
100
AcDbSpline
 62
7
  6
CONTINUOUS
 70
0
 71
3
 72
55
 73
51
 74
0
 42
0.0000001
 43
0.0000001
 44
0.0000000001
 40
0.0
 40
0.0
 40
0.0
 40
0.0
 40
0.0075208348
 40
0.0156242142
 40
0.0243311711
 40
0.0336550089
 40
0.0436029388
 40
0.0541769762
 40
0.0653751272
 40
0.0771917851
 40
0.0896184164
 40
0.1026439451
 40
0.1162549389
 40
0.1304361071
 40
0.1451702248
 40
0.1604385562
 40
0.1762208541
 40
0.1924955039
 40
0.22642864
 40
0.2620435089
 40
0.299129289
 40
0.3374624062
 40
0.3768088186
 40
0.4169261772
 40
0.4575659138
 40
0.4984752898
 40
0.5393994327
 40
0.5800833565
 40
0.6202739771
 40
0.6597221367
 40
0.6981846509
 40
0.7354264063
 40
0.7712225103
 40
0.8053605541
 40
0.8217459585
 40
0.8376441629
 40
0.853033271
 40
0.8678927663
 40
0.8822034522
 40
0.8959478537
 40
0.9091101198
 40
0.9216764214
 40
0.9336351149
 40
0.9449769705
 40
0.9556958034
 40
0.9657885996
 40
0.9752563558
 40
0.9841051078
 40
0.9923470228
 40
1.0
 40
1.0
 40
1.0
 40
1.0
 10
12.709015535
 20
6.814707378
 30
0.0
 10
12.7081336599
 20
6.8157916965
 30
0.0
 10
12.7063960777
 20
6.8181221207
 30
0.0
 10
12.7039508665
 20
6.8219290153
 30
0.0
 10
12.7015754736
 20
6.8261682008
 30
0.0
 10
12.6992736334
 20
6.8308327222
 30
0.0
 10
12.6970488967
 20
6.835915348
 30
0.0
 10
12.6949047591
 20
6.841407905
 30
0.0
 10
12.6928447757
 20
6.847301557
 30
0.0
 10
12.6908723019
 20
6.8535867067
 30
0.0
 10
12.6889906194
 20
6.8602530786
 30
0.0
 10
12.6872028973
 20
6.8672897268
 30
0.0
 10
12.6855120734
 20
6.874685056
 30
0.0
 10
12.6839210441
 20
6.8824268606
 30
0.0
 10
12.682432423
 20
6.8905023366
 30
0.0
 10
12.6810487473
 20
6.8988981105
 30
0.0
 10
12.6797723054
 20
6.9076002831
 30
0.0
 10
12.678194309
 20
6.9197622907
 30
0.0
 10
12.6765180275
 20
6.93562571
 30
0.0
 10
12.6749893289
 20
6.9553855725
 30
0.0
 10
12.6739272831
 20
6.9759946825
 30
0.0
 10
12.6733391964
 20
6.9973162604
 30
0.0
 10
12.6732292481
 20
7.0192089233
 30
0.0
 10
12.6735983495
 20
7.041527367
 30
0.0
 10
12.6744441818
 20
7.0641234338
 30
0.0
 10
12.6757612004
 20
7.086847092
 30
0.0
 10
12.6775406839
 20
7.1095474541
 30
0.0
 10
12.679770795
 20
7.1320737903
 30
0.0
 10
12.6824366594
 20
7.1542765407
 30
0.0
 10
12.6855204607
 20
7.176008327
 30
0.0
 10
12.6890015626
 20
7.1971249277
 30
0.0
 10
12.6928566111
 20
7.2174863444
 30
0.0
 10
12.6970597667
 20
7.2369574712
 30
0.0
 10
12.7008791942
 20
7.2525402498
 30
0.0
 10
12.7040979691
 20
7.2644573534
 30
0.0
 10
12.7065480258
 20
7.272971701
 30
0.0
 10
12.709062967
 20
7.2811709716
 30
0.0
 10
12.7116385883
 20
7.2890415945
 30
0.0
 10
12.7142706389
 20
7.2965705284
 30
0.0
 10
12.7169546736
 20
7.3037453349
 30
0.0
 10
12.71968626
 20
7.3105541621
 30
0.0
 10
12.7224608365
 20
7.3169857955
 30
0.0
 10
12.7252737743
 20
7.3230296759
 30
0.0
 10
12.7281204666
 20
7.3286759038
 30
0.0
 10
12.7309961671
 20
7.3339153114
 30
0.0
 10
12.7338962615
 20
7.338739394
 30
0.0
 10
12.7368159945
 20
7.3431404455
 30
0.0
 10
12.739750973
 20
7.3471116344
 30
0.0
 10
12.7426964693
 20
7.3506462854
 30
0.0
 10
12.7447380657
 20
7.3527854243
 30
0.0
 10
12.745761001
 20
7.353773504
 30
0.0
  0
SPLINE
  5
361
100
AcDbEntity
  8
0
100
AcDbSpline
 62
7
  6
CONTINUOUS
 70
0
 71
3
 72
23
 73
19
 74
0
 42
0.0000001
 43
0.0000001
 44
0.0000000001
 40
0.0
 40
0.0
 40
0.0
 40
0.0
 40
0.0616482089
 40
0.1233194432
 40
0.1850364732
 40
0.2468215598
 40
0.3086962068
 40
0.3706809242
 40
0.4327950065
 40
0.4950563338
 40
0.5574811812
 40
0.6200840725
 40
0.6828776069
 40
0.7458723252
 40
0.8090769559
 40
0.8724968153
 40
0.9361384461
 40
1.0
 40
1.0
 40
1.0
 40
1.0
 10
10.0838660198
 20
10.3354214149
 30
0.0
 10
10.0893872692
 20
10.3407545262
 30
0.0
 10
10.1007211268
 20
10.3511278462
 30
0.0
 10
10.118537034
 20
10.3657546347
 30
0.0
 10
10.1371265757
 20
10.3794146141
 30
0.0
 10
10.1564422693
 20
10.39207278
 30
0.0
 10
10.176435608
 20
10.4036974209
 30
0.0
 10
10.197056168
 20
10.4142592199
 30
0.0
 10
10.2182519895
 20
10.4237316302
 30
0.0
 10
10.2399696548
 20
10.4320908452
 30
0.0
 10
10.2621544483
 20
10.4393158671
 30
0.0
 10
10.2847504887
 20
10.445388551
 30
0.0
 10
10.3077008599
 20
10.450293644
 30
0.0
 10
10.3309478048
 20
10.4540188796
 30
0.0
 10
10.3544326481
 20
10.4565548838
 30
0.0
 10
10.3780966856
 20
10.4578955037
 30
0.0
 10
10.4018793284
 20
10.4580372188
 30
0.0
 10
10.4177480929
 20
10.4573334929
 30
0.0
 10
10.4256809867
 20
10.4567833448
 30
0.0
  0
SPLINE
  5
362
100
AcDbEntity
  8
0
100
AcDbSpline
 62
7
  6
CONTINUOUS
 70
0
 71
3
 72
21
 73
17
 74
0
 42
0.0000001
 43
0.0000001
 44
0.0000000001
 40
0.0
 40
0.0
 40
0.0
 40
0.0
 40
0.061653231
 40
0.1233294833
 40
0.1850515395
 40
0.2468416632
 40
0.3087213442
 40
0.3707111022
 40
0.4328302462
 40
0.495096638
 40
0.5575265767
 40
0.6201345688
 40
0.6829331417
 40
0.7459332092
 40
0.8725262015
 40
1.0
 40
1.0
 40
1.0
 40
1.0
 10
10.2928591534
 20
10.2070903185
 30
0.0
 10
10.295715169
 20
10.2098490155
 30
0.0
 10
10.3015779119
 20
10.215214899
 30
0.0
 10
10.310793667
 20
10.2227810084
 30
0.0
 10
10.3204095871
 20
10.2298470373
 30
0.0
 10
10.3304011602
 20
10.2363948085
 30
0.0
 10
10.3407432614
 20
10.2424079593
 30
0.0
 10
10.3514097866
 20
10.2478713705
 30
0.0
 10
10.3623738977
 20
10.2527712402
 30
0.0
 10
10.3736079493
 20
10.2570952603
 30
0.0
 10
10.3850836431
 20
10.2608326212
 30
0.0
 10
10.3967719982
 20
10.2639738831
 30
0.0
 10
10.4086439185
 20
10.2665111716
 30
0.0
 10
10.4247005811
 20
10.2690843331
 30
0.0
 10
10.4450899892
 20
10.2707560718
 30
0.0
 10
10.4614818437
 20
10.270436167
 30
0.0
 10
10.4696721661
 20
10.2698681662
 30
0.0
  0
SPLINE
  5
363
100
AcDbEntity
  8
0
100
AcDbSpline
 62
7
  6
CONTINUOUS
 70
0
 71
3
 72
37
 73
33
 74
0
 42
0.0000001
 43
0.0000001
 44
0.0000000001
 40
0.0
 40
0.0
 40
0.0
 40
0.0
 40
0.0303137668
 40
0.0607401039
 40
0.0912816317
 40
0.1219395649
 40
0.1527137107
 40
0.1836024846
 40
0.2146029534
 40
0.2457108829
 40
0.2769207965
 40
0.3082260467
 40
0.3396189047
 40
0.3710906613
 40
0.4026317293
 40
0.4342317509
 40
0.4975432153
 40
0.5609524423
 40
0.5926735477
 40
0.6243822788
 40
0.6560664429
 40
0.6877141149
 40
0.7193137656
 40
0.7508543889
 40
0.7823256292
 40
0.8137179148
 40
0.8450225233
 40
0.8762317393
 40
0.9073390534
 40
0.938338366
 40
0.9692272226
 40
1.0
 40
1.0
 40
1.0
 40
1.0
 10
10.7273767293
 20
9.9144867248
 30
0.0
 10
10.7283787339
 20
9.9197907093
 30
0.0
 10
10.7300873058
 20
9.930477343
 30
0.0
 10
10.7317544607
 20
9.9466536316
 30
0.0
 10
10.7325260094
 20
9.9629590805
 30
0.0
 10
10.7323995715
 20
9.9793439812
 30
0.0
 10
10.7313755906
 20
9.9957592403
 30
0.0
 10
10.7294572236
 20
10.0121554552
 30
0.0
 10
10.7266503079
 20
10.028483354
 30
0.0
 10
10.7229633312
 20
10.0446938608
 30
0.0
 10
10.7184074006
 20
10.0607382597
 30
0.0
 10
10.7129962483
 20
10.0765683266
 30
0.0
 10
10.7067461812
 20
10.0921365381
 30
0.0
 10
10.6996761026
 20
10.1073960142
 30
0.0
 10
10.6918069686
 20
10.1223013335
 30
0.0
 10
10.6802763448
 20
10.1416513435
 30
0.0
 10
10.6639889957
 20
10.1647263271
 30
0.0
 10
10.6454123904
 20
10.1860298093
 30
0.0
 10
10.629301975
 20
10.2018706322
 30
0.0
 10
10.6166281143
 20
10.2131168468
 30
0.0
 10
10.6034053095
 20
10.2236906428
 30
0.0
 10
10.58967294
 20
10.2335606487
 30
0.0
 10
10.5754723351
 20
10.242697068
 30
0.0
 10
10.5608461242
 20
10.2510724471
 30
0.0
 10
10.5458382655
 20
10.2586616156
 30
0.0
 10
10.5304938407
 20
10.2654417428
 30
0.0
 10
10.5148589508
 20
10.2713924189
 30
0.0
 10
10.4989805294
 20
10.2764957129
 30
0.0
 10
10.4829064103
 20
10.280736167
 30
0.0
 10
10.466684541
 20
10.2841012264
 30
0.0
 10
10.4503645409
 20
10.2865803623
 30
0.0
 10
10.4394295954
 20
10.2876398056
 30
0.0
 10
10.4339631895
 20
10.2880189022
 30
0.0
  0
SPLINE
  5
364
100
AcDbEntity
  8
0
100
AcDbSpline
 62
7
  6
CONTINUOUS
 70
0
 71
3
 72
42
 73
38
 74
0
 42
0.0000001
 43
0.0000001
 44
0.0000000001
 40
0.0
 40
0.0
 40
0.0
 40
0.0
 40
0.029938815
 40
0.0449185003
 40
0.0599070253
 40
0.0899162913
 40
0.1199943456
 40
0.135068431
 40
0.1501671937
 40
0.1804419399
 40
0.2108400426
 40
0.2413745444
 40
0.2720554255
 40
0.3028894243
 40
0.3338799383
 40
0.3650270005
 40
0.396327329
 40
0.4277744443
 40
0.459358847
 40
0.4910682509
 40
0.5228878628
 40
0.5548007029
 40
0.586787959
 40
0.6188293671
 40
0.6509036131
 40
0.6829887484
 40
0.7150626143
 40
0.7471032696
 40
0.7790894148
 40
0.8110008073
 40
0.8428186634
 40
0.874526038
 40
0.906108178
 40
0.9375528439
 40
0.9532227642
 40
0.9688556082
 40
1.0
 40
1.0
 40
1.0
 40
1.0
 10
10.6464851787
 20
9.8409897393
 30
0.0
 10
10.6506456101
 20
9.8450084042
 30
0.0
 10
10.656654795
 20
9.8512861135
 30
0.0
 10
10.664155197
 20
9.8601042327
 30
0.0
 10
10.6713141834
 20
9.8692198124
 30
0.0
 10
10.679598554
 20
9.8811454146
 30
0.0
 10
10.6869389076
 20
9.8936932193
 30
0.0
 10
10.6922255714
 20
9.904067192
 30
0.0
 10
10.6971244086
 20
9.9146716826
 30
0.0
 10
10.7024925983
 20
9.9283082359
 30
0.0
 10
10.7076834693
 20
9.9451654964
 30
0.0
 10
10.711602958
 20
9.9624436446
 30
0.0
 10
10.714230046
 20
9.980049696
 30
0.0
 10
10.7155509927
 20
9.9978897256
 30
0.0
 10
10.7155589414
 20
10.0158684032
 30
0.0
 10
10.7142540676
 20
10.0338897616
 30
0.0
 10
10.7116435349
 20
10.0518576343
 30
0.0
 10
10.707741458
 20
10.0696761824
 30
0.0
 10
10.7025688186
 20
10.0872503945
 30
0.0
 10
10.6961533495
 20
10.1044865877
 30
0.0
 10
10.688529384
 20
10.1212928999
 30
0.0
 10
10.6797376711
 20
10.1375797732
 30
0.0
 10
10.6698251584
 20
10.1532604245
 30
0.0
 10
10.6588447424
 20
10.1682513029
 30
0.0
 10
10.6468549884
 20
10.182472529
 30
0.0
 10
10.6339198202
 20
10.1958483162
 30
0.0
 10
10.6201081833
 20
10.2083073706
 30
0.0
 10
10.6054936796
 20
10.2197832668
 30
0.0
 10
10.5901541837
 20
10.2302147987
 30
0.0
 10
10.5741714153
 20
10.239546306
 30
0.0
 10
10.5576305739
 20
10.2477279571
 30
0.0
 10
10.5406196485
 20
10.2547160587
 30
0.0
 10
10.5232298534
 20
10.2604731209
 30
0.0
 10
10.5084807371
 20
10.2642238521
 30
0.0
 10
10.4965861111
 20
10.2665789602
 30
0.0
 10
10.4846725741
 20
10.2684972794
 30
0.0
 10
10.4756750361
 20
10.2694518658
 30
0.0
 10
10.4696721661
 20
10.2698681662
 30
0.0
  0
SPLINE
  5
365
100
AcDbEntity
  8
0
100
AcDbSpline
 62
7
  6
CONTINUOUS
 70
0
 71
3
 72
35
 73
31
 74
0
 42
0.0000001
 43
0.0000001
 44
0.0000000001
 40
0.0
 40
0.0
 40
0.0
 40
0.0
 40
0.0292053389
 40
0.0587514783
 40
0.0886446815
 40
0.1188813518
 40
0.1803005918
 40
0.211457014
 40
0.2428594055
 40
0.3062250578
 40
0.338129089
 40
0.3701199911
 40
0.4021604401
 40
0.43421644
 40
0.4662581262
 40
0.4982601455
 40
0.5620442609
 40
0.6254817343
 40
0.6570684543
 40
0.688558827
 40
0.7199568833
 40
0.7512693761
 40
0.782505298
 40
0.8136754096
 40
0.8447916189
 40
0.8758664852
 40
0.9069129166
 40
0.9379427777
 40
0.9689689254
 40
1.0
 40
1.0
 40
1.0
 40
1.0
 10
10.4006133977
 20
10.2647084708
 30
0.0
 10
10.3991357802
 20
10.2605289131
 30
0.0
 10
10.3964265972
 20
10.2520254437
 30
0.0
 10
10.3931304936
 20
10.2389721923
 30
0.0
 10
10.3905898822
 20
10.2255909176
 30
0.0
 10
10.3882102987
 20
10.2072870301
 30
0.0
 10
10.3874021614
 20
10.1886163858
 30
0.0
 10
10.3881281137
 20
10.1698047614
 30
0.0
 10
10.3898935552
 20
10.1507647367
 30
0.0
 10
10.3931986044
 20
10.1317804855
 30
0.0
 10
10.3979852808
 20
10.1130595415
 30
0.0
 10
10.4023213522
 20
10.0991507898
 30
0.0
 10
10.4073799541
 20
10.0854642256
 30
0.0
 10
10.413145165
 20
10.0720514789
 30
0.0
 10
10.4195999839
 20
10.0589626402
 30
0.0
 10
10.4290887331
 20
10.0420296635
 30
0.0
 10
10.4425708268
 20
10.0219115357
 30
0.0
 10
10.4581309806
 20
10.0034308524
 30
0.0
 10
10.4717084647
 20
9.9898377867
 30
0.0
 10
10.4824167598
 20
9.9802869395
 30
0.0
 10
10.493634485
 20
9.9714070211
 30
0.0
 10
10.5053314675
 20
9.9632352331
 30
0.0
 10
10.5174743627
 20
9.9558076877
 30
0.0
 10
10.5300268783
 20
9.9491584053
 30
0.0
 10
10.5429494443
 20
9.9433190137
 30
0.0
 10
10.5561992188
 20
9.9383181361
 30
0.0
 10
10.5697300005
 20
9.9341810291
 30
0.0
 10
10.5834929474
 20
9.9309286473
 30
0.0
 10
10.59743531
 20
9.9285778853
 30
0.0
 10
10.6068140023
 20
9.927619479
 30
0.0
 10
10.6115129077
 20
9.9272936088
 30
0.0
  0
SPLINE
  5
366
100
AcDbEntity
  8
0
100
AcDbSpline
 62
7
  6
CONTINUOUS
 70
0
 71
3
 72
24
 73
20
 74
0
 42
0.0000001
 43
0.0000001
 44
0.0000000001
 40
0.0
 40
0.0
 40
0.0
 40
0.0
 40
0.0616478687
 40
0.0924817887
 40
0.1233243262
 40
0.1850410161
 40
0.2468257596
 40
0.308700059
 40
0.3706844256
 40
0.4327981575
 40
0.4950591363
 40
0.5574836398
 40
0.620086178
 40
0.6828793696
 40
0.7458737328
 40
0.8090779632
 40
0.8724976716
 40
0.9361384975
 40
1.0
 40
1.0
 40
1.0
 40
1.0
 10
9.991463037
 20
7.2918217458
 30
0.0
 10
9.9984768409
 20
7.2985965834
 30
0.0
 10
10.0092749512
 20
7.3084796718
 30
0.0
 10
10.0241856193
 20
7.321060654
 30
0.0
 10
10.0394375619
 20
7.3332438186
 30
0.0
 10
10.0591215408
 20
7.3477081354
 30
0.0
 10
10.0836586235
 20
7.3637881171
 30
0.0
 10
10.1090568156
 20
7.3785553777
 30
0.0
 10
10.1352517079
 20
7.3919724413
 30
0.0
 10
10.1621773964
 20
7.4040056407
 30
0.0
 10
10.1897660068
 20
7.4146246963
 30
0.0
 10
10.2179480399
 20
7.4238029249
 30
0.0
 10
10.2466525025
 20
7.4315172801
 30
0.0
 10
10.2758070829
 20
7.4377484073
 30
0.0
 10
10.3053384028
 20
7.4424807365
 30
0.0
 10
10.3351719659
 20
7.4457023583
 30
0.0
 10
10.3652331001
 20
7.4474053821
 30
0.0
 10
10.3954449573
 20
7.4475854513
 30
0.0
 10
10.415603531
 20
7.4466914701
 30
0.0
 10
10.4256809867
 20
7.4459925962
 30
0.0
  0
SPLINE
  5
367
100
AcDbEntity
  8
0
100
AcDbSpline
 62
7
  6
CONTINUOUS
 70
0
 71
3
 72
42
 73
38
 74
0
 42
0.0000001
 43
0.0000001
 44
0.0000000001
 40
0.0
 40
0.0
 40
0.0
 40
0.0
 40
0.0299419645
 40
0.0449235319
 40
0.0599142037
 40
0.0899287023
 40
0.1200139726
 40
0.1350926542
 40
0.1501966969
 40
0.1804840366
 40
0.2108978669
 40
0.2414513271
 40
0.2721543323
 40
0.3030133934
 40
0.3340315212
 40
0.3652082135
 40
0.3965395189
 40
0.4280181723
 40
0.4596337953
 40
0.4913731534
 40
0.5232204633
 40
0.5551577409
 40
0.5871651848
 40
0.6192215866
 40
0.6513047611
 40
0.6833919909
 40
0.7154604782
 40
0.7474877975
 40
0.779452343
 40
0.811333766
 40
0.8431133904
 40
0.8747746134
 40
0.9063032452
 40
0.9376878969
 40
0.9533257623
 40
0.9689252944
 40
1.0
 40
1.0
 40
1.0
 40
1.0
 10
11.5373931942
 20
6.3257535449
 30
0.0
 10
11.5412751753
 20
6.3295032525
 30
0.0
 10
11.5473269625
 20
6.334900611
 30
0.0
 10
11.5558023234
 20
6.3415976137
 30
0.0
 10
11.5645476568
 20
6.3479612739
 30
0.0
 10
11.5759588167
 20
6.3552689126
 30
0.0
 10
11.5879248449
 20
6.3616609202
 30
0.0
 10
11.5977936733
 20
6.3662083051
 30
0.0
 10
11.6078664272
 20
6.370380167
 30
0.0
 10
11.6207892661
 20
6.3748662157
 30
0.0
 10
11.6367147355
 20
6.3790470737
 30
0.0
 10
11.6529877016
 20
6.3820089214
 30
0.0
 10
11.6695179894
 20
6.3837354005
 30
0.0
 10
11.6862147922
 20
6.3842173021
 30
0.0
 10
11.7029862395
 20
6.383452172
 30
0.0
 10
11.7197401512
 20
6.3814444304
 30
0.0
 10
11.7363844714
 20
6.378205306
 30
0.0
 10
11.7528277871
 20
6.3737527756
 30
0.0
 10
11.7689798183
 20
6.3681114571
 30
0.0
 10
11.7847519077
 20
6.3613124705
 30
0.0
 10
11.8000575008
 20
6.3533932652
 30
0.0
 10
11.8148126138
 20
6.3443974131
 30
0.0
 10
11.8289362885
 20
6.3343743698
 30
0.0
 10
11.8423510307
 20
6.3233792042
 30
0.0
 10
11.8549832306
 20
6.3114722986
 30
0.0
 10
11.8667635621
 20
6.2987190196
 30
0.0
 10
11.8776273591
 20
6.2851893637
 30
0.0
 10
11.8875149673
 20
6.2709575748
 30
0.0
 10
11.8963720684
 20
6.2561017471
 30
0.0
 10
11.9041499768
 20
6.2407033831
 30
0.0
 10
11.9108059016
 20
6.2248470168
 30
0.0
 10
11.9163032009
 20
6.2086195187
 30
0.0
 10
11.9206114969
 20
6.192110501
 30
0.0
 10
11.9231944228
 20
6.1781751039
 30
0.0
 10
11.9246433629
 20
6.1669781704
 30
0.0
 10
11.9256774364
 20
6.1557919539
 30
0.0
 10
11.9259905461
 20
6.1473743977
 30
0.0
 10
11.9259905461
 20
6.1417729846
 30
0.0
  0
SPLINE
  5
368
100
AcDbEntity
  8
0
100
AcDbSpline
 62
7
  6
CONTINUOUS
 70
0
 71
3
 72
42
 73
38
 74
0
 42
0.0000001
 43
0.0000001
 44
0.0000000001
 40
0.0
 40
0.0
 40
0.0
 40
0.0
 40
0.0299419645
 40
0.0449235319
 40
0.0599142037
 40
0.0899287023
 40
0.1200139726
 40
0.1350926542
 40
0.1501966969
 40
0.1804840366
 40
0.2108978669
 40
0.2414513271
 40
0.2721543323
 40
0.3030133934
 40
0.3340315212
 40
0.3652082135
 40
0.3965395189
 40
0.4280181723
 40
0.4596337953
 40
0.4913731534
 40
0.5232204633
 40
0.5551577409
 40
0.5871651848
 40
0.6192215866
 40
0.6513047611
 40
0.6833919909
 40
0.7154604782
 40
0.7474877975
 40
0.779452343
 40
0.811333766
 40
0.8431133904
 40
0.8747746134
 40
0.9063032452
 40
0.9376878969
 40
0.9533257623
 40
0.9689252944
 40
1.0
 40
1.0
 40
1.0
 40
1.0
 10
9.0028036634
 20
6.5015279258
 30
0.0
 10
9.0066856445
 20
6.5052776335
 30
0.0
 10
9.0127374317
 20
6.510674992
 30
0.0
 10
9.0212127926
 20
6.5173719946
 30
0.0
 10
9.029958126
 20
6.5237356549
 30
0.0
 10
9.0413692859
 20
6.5310432936
 30
0.0
 10
9.0533353141
 20
6.5374353012
 30
0.0
 10
9.0632041425
 20
6.541982686
 30
0.0
 10
9.0732768964
 20
6.546154548
 30
0.0
 10
9.0861997353
 20
6.5506405967
 30
0.0
 10
9.1021252047
 20
6.5548214547
 30
0.0
 10
9.1183981708
 20
6.5577833024
 30
0.0
 10
9.1349284586
 20
6.5595097815
 30
0.0
 10
9.1516252614
 20
6.5599916831
 30
0.0
 10
9.1683967087
 20
6.559226553
 30
0.0
 10
9.1851506204
 20
6.5572188114
 30
0.0
 10
9.2017949406
 20
6.553979687
 30
0.0
 10
9.2182382563
 20
6.5495271566
 30
0.0
 10
9.2343902875
 20
6.543885838
 30
0.0
 10
9.2501623769
 20
6.5370868514
 30
0.0
 10
9.26546797
 20
6.5291676462
 30
0.0
 10
9.280223083
 20
6.5201717941
 30
0.0
 10
9.2943467577
 20
6.5101487508
 30
0.0
 10
9.3077614999
 20
6.4991535852
 30
0.0
 10
9.3203936998
 20
6.4872466796
 30
0.0
 10
9.3321740313
 20
6.4744934006
 30
0.0
 10
9.3430378283
 20
6.4609637446
 30
0.0
 10
9.3529254365
 20
6.4467319558
 30
0.0
 10
9.3617825376
 20
6.431876128
 30
0.0
 10
9.369560446
 20
6.4164777641
 30
0.0
 10
9.3762163708
 20
6.4006213978
 30
0.0
 10
9.3817136701
 20
6.3843938997
 30
0.0
 10
9.3860219661
 20
6.3678848819
 30
0.0
 10
9.388604892
 20
6.3539494849
 30
0.0
 10
9.3900538321
 20
6.3427525513
 30
0.0
 10
9.3910879056
 20
6.3315663349
 30
0.0
 10
9.3914010153
 20
6.3231487787
 30
0.0
 10
9.3914010153
 20
6.3175473656
 30
0.0
  0
SPLINE
  5
369
100
AcDbEntity
  8
0
100
AcDbSpline
 62
7
  6
CONTINUOUS
 70
0
 71
3
 72
42
 73
38
 74
0
 42
0.0000001
 43
0.0000001
 44
0.0000000001
 40
0.0
 40
0.0
 40
0.0
 40
0.0
 40
0.0299419645
 40
0.0449235319
 40
0.0599142037
 40
0.0899287023
 40
0.1200139726
 40
0.1350926542
 40
0.1501966969
 40
0.1804840366
 40
0.2108978669
 40
0.2414513271
 40
0.2721543323
 40
0.3030133934
 40
0.3340315212
 40
0.3652082135
 40
0.3965395189
 40
0.4280181723
 40
0.4596337953
 40
0.4913731534
 40
0.5232204633
 40
0.5551577409
 40
0.5871651848
 40
0.6192215866
 40
0.6513047611
 40
0.6833919909
 40
0.7154604782
 40
0.7474877975
 40
0.779452343
 40
0.811333766
 40
0.8431133904
 40
0.8747746134
 40
0.9063032452
 40
0.9376878969
 40
0.9533257623
 40
0.9689252944
 40
1.0
 40
1.0
 40
1.0
 40
1.0
 10
11.5373931942
 20
7.5331609568
 30
0.0
 10
11.5412751753
 20
7.5369106645
 30
0.0
 10
11.5473269625
 20
7.542308023
 30
0.0
 10
11.5558023234
 20
7.5490050257
 30
0.0
 10
11.5645476568
 20
7.5553686859
 30
0.0
 10
11.5759588167
 20
7.5626763246
 30
0.0
 10
11.5879248449
 20
7.5690683322
 30
0.0
 10
11.5977936733
 20
7.573615717
 30
0.0
 10
11.6078664272
 20
7.577787579
 30
0.0
 10
11.6207892661
 20
7.5822736277
 30
0.0
 10
11.6367147355
 20
7.5864544857
 30
0.0
 10
11.6529877016
 20
7.5894163334
 30
0.0
 10
11.6695179894
 20
7.5911428125
 30
0.0
 10
11.6862147922
 20
7.5916247141
 30
0.0
 10
11.7029862395
 20
7.590859584
 30
0.0
 10
11.7197401512
 20
7.5888518424
 30
0.0
 10
11.7363844714
 20
7.585612718
 30
0.0
 10
11.7528277871
 20
7.5811601876
 30
0.0
 10
11.7689798183
 20
7.575518869
 30
0.0
 10
11.7847519077
 20
7.5687198824
 30
0.0
 10
11.8000575008
 20
7.5608006772
 30
0.0
 10
11.8148126138
 20
7.5518048251
 30
0.0
 10
11.8289362885
 20
7.5417817818
 30
0.0
 10
11.8423510307
 20
7.5307866162
 30
0.0
 10
11.8549832306
 20
7.5188797106
 30
0.0
 10
11.8667635621
 20
7.5061264316
 30
0.0
 10
11.8776273591
 20
7.4925967756
 30
0.0
 10
11.8875149673
 20
7.4783649868
 30
0.0
 10
11.8963720684
 20
7.4635091591
 30
0.0
 10
11.9041499768
 20
7.4481107951
 30
0.0
 10
11.9108059016
 20
7.4322544288
 30
0.0
 10
11.9163032009
 20
7.4160269307
 30
0.0
 10
11.9206114969
 20
7.399517913
 30
0.0
 10
11.9231944228
 20
7.3855825159
 30
0.0
 10
11.9246433629
 20
7.3743855823
 30
0.0
 10
11.9256774364
 20
7.3631993659
 30
0.0
 10
11.9259905461
 20
7.3547818097
 30
0.0
 10
11.9259905461
 20
7.3491803966
 30
0.0
  0
SPLINE
  5
36A
100
AcDbEntity
  8
0
100
AcDbSpline
 62
7
  6
CONTINUOUS
 70
0
 71
3
 72
42
 73
38
 74
0
 42
0.0000001
 43
0.0000001
 44
0.0000000001
 40
0.0
 40
0.0
 40
0.0
 40
0.0
 40
0.0299419645
 40
0.0449235319
 40
0.0599142037
 40
0.0899287023
 40
0.1200139726
 40
0.1350926542
 40
0.1501966969
 40
0.1804840366
 40
0.2108978669
 40
0.2414513271
 40
0.2721543323
 40
0.3030133934
 40
0.3340315212
 40
0.3652082135
 40
0.3965395189
 40
0.4280181723
 40
0.4596337953
 40
0.4913731534
 40
0.5232204633
 40
0.5551577409
 40
0.5871651848
 40
0.6192215866
 40
0.6513047611
 40
0.6833919909
 40
0.7154604782
 40
0.7474877975
 40
0.779452343
 40
0.811333766
 40
0.8431133904
 40
0.8747746134
 40
0.9063032452
 40
0.9376878969
 40
0.9533257623
 40
0.9689252944
 40
1.0
 40
1.0
 40
1.0
 40
1.0
 10
9.0028036634
 20
7.7089353378
 30
0.0
 10
9.0066856445
 20
7.7126850455
 30
0.0
 10
9.0127374317
 20
7.7180824039
 30
0.0
 10
9.0212127926
 20
7.7247794066
 30
0.0
 10
9.029958126
 20
7.7311430668
 30
0.0
 10
9.0413692859
 20
7.7384507056
 30
0.0
 10
9.0533353141
 20
7.7448427131
 30
0.0
 10
9.0632041425
 20
7.749390098
 30
0.0
 10
9.0732768964
 20
7.7535619599
 30
0.0
 10
9.0861997353
 20
7.7580480087
 30
0.0
 10
9.1021252047
 20
7.7622288666
 30
0.0
 10
9.1183981708
 20
7.7651907144
 30
0.0
 10
9.1349284586
 20
7.7669171935
 30
0.0
 10
9.1516252614
 20
7.7673990951
 30
0.0
 10
9.1683967087
 20
7.766633965
 30
0.0
 10
9.1851506204
 20
7.7646262233
 30
0.0
 10
9.2017949406
 20
7.761387099
 30
0.0
 10
9.2182382563
 20
7.7569345686
 30
0.0
 10
9.2343902875
 20
7.75129325
 30
0.0
 10
9.2501623769
 20
7.7444942634
 30
0.0
 10
9.26546797
 20
7.7365750581
 30
0.0
 10
9.280223083
 20
7.7275792061
 30
0.0
 10
9.2943467577
 20
7.7175561628
 30
0.0
 10
9.3077614999
 20
7.7065609972
 30
0.0
 10
9.3203936998
 20
7.6946540915
 30
0.0
 10
9.3321740313
 20
7.6819008126
 30
0.0
 10
9.3430378283
 20
7.6683711566
 30
0.0
 10
9.3529254365
 20
7.6541393678
 30
0.0
 10
9.3617825376
 20
7.63928354
 30
0.0
 10
9.369560446
 20
7.6238851761
 30
0.0
 10
9.3762163708
 20
7.6080288097
 30
0.0
 10
9.3817136701
 20
7.5918013116
 30
0.0
 10
9.3860219661
 20
7.5752922939
 30
0.0
 10
9.388604892
 20
7.5613568969
 30
0.0
 10
9.3900538321
 20
7.5501599633
 30
0.0
 10
9.3910879056
 20
7.5389737468
 30
0.0
 10
9.3914010153
 20
7.5305561907
 30
0.0
 10
9.3914010153
 20
7.5249547776
 30
0.0
  0
SPLINE
  5
36B
100
AcDbEntity
  8
0
100
AcDbSpline
 62
7
  6
CONTINUOUS
 70
0
 71
3
 72
39
 73
35
 74
0
 42
0.0000001
 43
0.0000001
 44
0.0000000001
 40
0.0
 40
0.0
 40
0.0
 40
0.0
 40
0.0311159584
 40
0.0620233352
 40
0.0927351385
 40
0.1232711775
 40
0.1536587332
 40
0.1839312107
 40
0.2141268395
 40
0.244287099
 40
0.2744549757
 40
0.3046731314
 40
0.3349820893
 40
0.3654185446
 40
0.396013864
 40
0.426792882
 40
0.4577729977
 40
0.4889636199
 40
0.5203659696
 40
0.5519731789
 40
0.5837707176
 40
0.6157370646
 40
0.6478445906
 40
0.68006064
 40
0.7123487314
 40
0.7446698626
 40
0.7769838842
 40
0.8092508939
 40
0.8414326248
 40
0.8734937998
 40
0.9054034138
 40
0.9371358961
 40
0.9686718081
 40
1.0
 40
1.0
 40
1.0
 40
1.0
 10
11.9450824365
 20
7.3406217477
 30
0.0
 10
11.9450824365
 20
7.3324028612
 30
0.0
 10
11.9442800453
 20
7.3160082927
 30
0.0
 10
11.9406512837
 20
7.2917442175
 30
0.0
 10
11.934635558
 20
7.2681139853
 30
0.0
 10
11.9262898117
 20
7.2453487966
 30
0.0
 10
11.9156939657
 20
7.2236679756
 30
0.0
 10
11.902949649
 20
7.203281625
 30
0.0
 10
11.8881796889
 20
7.1843871126
 30
0.0
 10
11.8715267625
 20
7.1671674287
 30
0.0
 10
11.8531518895
 20
7.1517893596
 30
0.0
 10
11.833233077
 20
7.1384015028
 30
0.0
 10
11.8119632115
 20
7.127133065
 30
0.0
 10
11.7895482195
 20
7.1180924959
 30
0.0
 10
11.766204991
 20
7.1113663018
 30
0.0
 10
11.742159072
 20
7.1070186499
 30
0.0
 10
11.7176425584
 20
7.1050904694
 30
0.0
 10
11.6928917515
 20
7.1055993125
 30
0.0
 10
11.6681449323
 20
7.108539439
 30
0.0
 10
11.6436400666
 20
7.1138815596
 30
0.0
 10
11.6196125898
 20
7.1215735731
 30
0.0
 10
11.596293213
 20
7.1315409379
 30
0.0
 10
11.5739056696
 20
7.1436872801
 30
0.0
 10
11.5526647856
 20
7.1578956607
 30
0.0
 10
11.5327743041
 20
7.1740293574
 30
0.0
 10
11.5144250226
 20
7.1919333215
 30
0.0
 10
11.4977931323
 20
7.2114357312
 30
0.0
 10
11.4830382778
 20
7.2323493628
 30
0.0
 10
11.4703023253
 20
7.2544735881
 30
0.0
 10
11.4597079213
 20
7.277596235
 30
0.0
 10
11.4513571564
 20
7.3014951698
 30
0.0
 10
11.4453309922
 20
7.3259418273
 30
0.0
 10
11.4416878844
 20
7.3506983216
 30
0.0
 10
11.4408691253
 20
7.3673141143
 30
0.0
 10
11.4408691253
 20
7.3755890596
 30
0.0
  0
SPLINE
  5
36C
100
AcDbEntity
  8
0
100
AcDbSpline
 62
7
  6
CONTINUOUS
 70
0
 71
3
 72
56
 73
52
 74
0
 42
0.0000001
 43
0.0000001
 44
0.0000000001
 40
0.0
 40
0.0
 40
0.0
 40
0.0
 40
0.0528988271
 40
0.1050250719
 40
0.1562614639
 40
0.2064947077
 40
0.2556138829
 40
0.303511929
 40
0.3500856357
 40
0.3952362577
 40
0.4388699536
 40
0.4808983424
 40
0.5212391035
 40
0.559816674
 40
0.5965630688
 40
0.6142311541
 40
0.6314199762
 40
0.6481235914
 40
0.6643368937
 40
0.6800554208
 40
0.6952756589
 40
0.7099949147
 40
0.7242115719
 40
0.7379250817
 40
0.7511361471
 40
0.7638468651
 40
0.7760608417
 40
0.7877835006
 40
0.7990221567
 40
0.8097864855
 40
0.8200886071
 40
0.8299436832
 40
0.8393700718
 40
0.8483899809
 40
0.8570297157
 40
0.8732866686
 40
0.8809917874
 40
0.8884710602
 40
0.8957756545
 40
0.9029609235
 40
0.9100852828
 40
0.9172088054
 40
0.9243915891
 40
0.9316921106
 40
0.9391658361
 40
0.9468640412
 40
0.9631036479
 40
0.9717332763
 40
0.9807422625
 40
0.9901570785
 40
1.0
 40
1.0
 40
1.0
 40
1.0
 10
11.0323523338
 20
11.1722173607
 30
0.0
 10
11.0456844773
 20
11.1712927734
 30
0.0
 10
11.0721420116
 20
11.1692779472
 30
0.0
 10
11.1114608353
 20
11.1657298304
 30
0.0
 10
11.1500547083
 20
11.1616844384
 30
0.0
 10
11.1878294165
 20
11.1571517409
 30
0.0
 10
11.2246930774
 20
11.1521428241
 30
0.0
 10
11.2605558841
 20
11.1466699978
 30
0.0
 10
11.2953305619
 20
11.1407466872
 30
0.0
 10
11.3289324945
 20
11.13438744
 30
0.0
 10
11.3612799803
 20
11.1276078739
 30
0.0
 10
11.3922944012
 20
11.1204246418
 30
0.0
 10
11.4219005457
 20
11.1128553969
 30
0.0
 10
11.4500264168
 20
11.1049187084
 30
0.0
 10
11.4724586644
 20
11.0979265003
 30
0.0
 10
11.4896019091
 20
11.0921502051
 30
0.0
 10
11.5018789926
 20
11.0877950939
 30
0.0
 10
11.5137369208
 20
11.0833629642
 30
0.0
 10
11.5251685281
 20
11.0788565625
 30
0.0
 10
11.5361668655
 20
11.0742785631
 30
0.0
 10
11.5467252882
 20
11.0696318158
 30
0.0
 10
11.5568373968
 20
11.0649190865
 30
0.0
 10
11.5664970935
 20
11.0601432673
 30
0.0
 10
11.5756985495
 20
11.0553072236
 30
0.0
 10
11.5844362248
 20
11.0504138619
 30
0.0
 10
11.5927048838
 20
11.0454661369
 30
0.0
 10
11.6004995501
 20
11.040466944
 30
0.0
 10
11.6078155984
 20
11.0354193014
 30
0.0
 10
11.6146486133
 20
11.0303260711
 30
0.0
 10
11.6209945824
 20
11.0251902859
 30
0.0
 10
11.626849627
 20
11.02001477
 30
0.0
 10
11.6322103454
 20
11.0148024536
 30
0.0
 10
11.6370732363
 20
11.0095563173
 30
0.0
 10
11.6414358248
 20
11.004278431
 30
0.0
 10
11.6464777113
 20
10.9973461851
 30
0.0
 10
11.6506569781
 20
10.9902078802
 30
0.0
 10
11.653822239
 20
10.9829142155
 30
0.0
 10
11.6556408361
 20
10.9775238988
 30
0.0
 10
11.6569434962
 20
10.9721209476
 30
0.0
 10
11.6577287928
 20
10.9667090543
 30
0.0
 10
11.6579954289
 20
10.9612925892
 30
0.0
 10
11.6577431809
 20
10.9558760596
 30
0.0
 10
11.6569722298
 20
10.9504639831
 30
0.0
 10
11.6556839147
 20
10.9450607238
 30
0.0
 10
11.6538795576
 20
10.93967001
 30
0.0
 10
11.6507338058
 20
10.9323760915
 30
0.0
 10
11.6465733458
 20
10.9252367168
 30
0.0
 10
11.6415495628
 20
10.9183033043
 30
0.0
 10
11.6372008919
 20
10.9130245476
 30
0.0
 10
11.6323519191
 20
10.9077776242
 30
0.0
 10
11.6288667252
 20
10.904379553
 30
0.0
 10
11.6270463464
 20
10.9026855058
 30
0.0
  0
SPLINE
  5
36D
100
AcDbEntity
  8
0
100
AcDbSpline
 62
7
  6
CONTINUOUS
 70
0
 71
3
 72
53
 73
49
 74
0
 42
0.0000001
 43
0.0000001
 44
0.0000000001
 40
0.0
 40
0.0
 40
0.0
 40
0.0
 40
0.0055575349
 40
0.0111779574
 40
0.016921891
 40
0.0228457743
 40
0.029000552
 40
0.0354309505
 40
0.0421754055
 40
0.0492662478
 40
0.0567303114
 40
0.0645894105
 40
0.0728611098
 40
0.0815591384
 40
0.0906940943
 40
0.1002736987
 40
0.1103033823
 40
0.1207863994
 40
0.1317243013
 40
0.1431169598
 40
0.1549629426
 40
0.1672594916
 40
0.1800028137
 40
0.1931880477
 40
0.2068094793
 40
0.22086052
 40
0.2353338526
 40
0.2502214359
 40
0.2655145879
 40
0.2812040216
 40
0.3137310998
 40
0.3477184385
 40
0.3830735591
 40
0.4196973767
 40
0.4574849524
 40
0.4963261721
 40
0.5361063729
 40
0.5767069338
 40
0.6180058409
 40
0.6598782355
 40
0.70219695
 40
0.7448330363
 40
0.7876562855
 40
0.8305357583
 40
0.8733402655
 40
0.9159389973
 40
0.9582017405
 40
1.0
 40
1.0
 40
1.0
 40
1.0
 10
10.0319092446
 20
10.8889270015
 30
0.0
 10
10.0319092348
 20
10.8908615169
 30
0.0
 10
10.0321258524
 20
10.8947558049
 30
0.0
 10
10.033097922
 20
10.9005764571
 30
0.0
 10
10.0347156334
 20
10.9063841163
 30
0.0
 10
10.0369757521
 20
10.9121720731
 30
0.0
 10
10.0398746529
 20
10.9179355937
 30
0.0
 10
10.0434083313
 20
10.9236703201
 30
0.0
 10
10.0475728761
 20
10.9293722396
 30
0.0
 10
10.0523640918
 20
10.9350376023
 30
0.0
 10
10.0577778008
 20
10.9406624892
 30
0.0
 10
10.0638093656
 20
10.9462431054
 30
0.0
 10
10.0704539729
 20
10.951775342
 30
0.0
 10
10.0777062244
 20
10.957255235
 30
0.0
 10
10.0855604163
 20
10.9626785127
 30
0.0
 10
10.094010227
 20
10.9680411026
 30
0.0
 10
10.1030489618
 20
10.9733386728
 30
0.0
 10
10.1126693275
 20
10.9785671232
 30
0.0
 10
10.1228636246
 20
10.9837221513
 30
0.0
 10
10.1336235939
 20
10.9887996899
 30
0.0
 10
10.1449405538
 20
10.9937955279
 30
0.0
 10
10.156805305
 20
10.9987056723
 30
0.0
 10
10.1692082205
 20
11.0035260443
 30
0.0
 10
10.1821391941
 20
11.0082527543
 30
0.0
 10
10.1955876951
 20
11.0128818832
 30
0.0
 10
10.2095427469
 20
11.0174096663
 30
0.0
 10
10.2239929589
 20
11.0218323657
 30
0.0
 10
10.2389265187
 20
11.0261463518
 30
0.0
 10
10.2543312356
 20
11.0303481133
 30
0.0
 10
10.275740082
 20
11.035862462
 30
0.0
 10
10.3035934277
 20
11.0424326046
 30
0.0
 10
10.3382982755
 20
11.0497251939
 30
0.0
 10
10.3745606068
 20
11.0564937088
 30
0.0
 10
10.4122617134
 20
11.0627157756
 30
0.0
 10
10.4512783737
 20
11.0683707929
 30
0.0
 10
10.4914829058
 20
11.0734400573
 30
0.0
 10
10.5327437076
 20
11.077906807
 30
0.0
 10
10.5749256702
 20
11.0817562794
 30
0.0
 10
10.6178906385
 20
11.0849757562
 30
0.0
 10
10.6614978689
 20
11.0875546037
 30
0.0
 10
10.7056044962
 20
11.0894843064
 30
0.0
 10
10.7500660068
 20
11.0907584929
 30
0.0
 10
10.7947367172
 20
11.091372958
 30
0.0
 10
10.8394702497
 20
11.091325671
 30
0.0
 10
10.8841200286
 20
11.0906167931
 30
0.0
 10
10.9285397482
 20
11.0892486541
 30
0.0
 10
10.9725837641
 20
11.0872257903
 30
0.0
 10
11.001790918
 20
11.0854334456
 30
0.0
 10
11.0163055602
 20
11.0844268518
 30
0.0
  0
SPLINE
  5
36E
100
AcDbEntity
  8
0
100
AcDbSpline
 62
7
  6
CONTINUOUS
 70
0
 71
3
 72
11
 73
7
 74
0
 42
0.0000001
 43
0.0000001
 44
0.0000000001
 40
0.0
 40
0.0
 40
0.0
 40
0.0
 40
0.2395481624
 40
0.4866020426
 40
0.7403627707
 40
1.0
 40
1.0
 40
1.0
 40
1.0
 10
10.3907488459
 20
10.2253825138
 30
0.0
 10
10.4041500249
 20
10.2276144016
 30
0.0
 10
10.4314222316
 20
10.2318525122
 30
0.0
 10
10.4730363181
 20
10.237469934
 30
0.0
 10
10.5158806672
 20
10.2424319098
 30
0.0
 10
10.544861511
 20
10.2452616548
 30
0.0
 10
10.5595285872
 20
10.2465675298
 30
0.0
  0
SPLINE
  5
36F
100
AcDbEntity
  8
0
100
AcDbSpline
 62
7
  6
CONTINUOUS
 70
0
 71
3
 72
11
 73
7
 74
0
 42
0.0000001
 43
0.0000001
 44
0.0000000001
 40
0.0
 40
0.0
 40
0.0
 40
0.0
 40
0.2365616937
 40
0.4828799211
 40
0.7377733708
 40
1.0
 40
1.0
 40
1.0
 40
1.0
 10
10.3887702612
 20
10.210358514
 30
0.0
 10
10.4037804532
 20
10.2131132095
 30
0.0
 10
10.4345002807
 20
10.218305033
 30
0.0
 10
10.4816188508
 20
10.2250509832
 30
0.0
 10
10.5305262237
 20
10.2308877266
 30
0.0
 10
10.5637331497
 20
10.2341111553
 30
0.0
 10
10.5805865562
 20
10.2355713778
 30
0.0
  0
SPLINE
  5
370
100
AcDbEntity
  8
0
100
AcDbSpline
 62
7
  6
CONTINUOUS
 70
0
 71
3
 72
15
 73
11
 74
0
 42
0.0000001
 43
0.0000001
 44
0.0000000001
 40
0.0
 40
0.0
 40
0.0
 40
0.0
 40
0.1154268405
 40
0.234023755
 40
0.355582645
 40
0.4798873056
 40
0.6067142658
 40
0.7358335057
 40
0.8670091309
 40
1.0
 40
1.0
 40
1.0
 40
1.0
 10
10.3877512902
 20
10.1802853011
 30
0.0
 10
10.3965418518
 20
10.1819560178
 30
0.0
 10
10.4143942571
 20
10.1851879327
 30
0.0
 10
10.4415954894
 20
10.1896571869
 30
0.0
 10
10.4695431916
 20
10.1938073085
 30
0.0
 10
10.4981812611
 20
10.1976299116
 30
0.0
 10
10.527452337
 20
10.2011172944
 30
0.0
 10
10.5572977667
 20
10.2042624221
 30
0.0
 10
10.58765767
 20
10.2070589452
 30
0.0
 10
10.6080725421
 20
10.2086770254
 30
0.0
 10
10.6183546383
 20
10.2094280507
 30
0.0
  0
SPLINE
  5
371
100
AcDbEntity
  8
0
100
AcDbSpline
 62
7
  6
CONTINUOUS
 70
0
 71
3
 72
15
 73
11
 74
0
 42
0.0000001
 43
0.0000001
 44
0.0000000001
 40
0.0
 40
0.0
 40
0.0
 40
0.0
 40
0.116458779
 40
0.2359355517
 40
0.358151942
 40
0.4828203302
 40
0.6096449785
 40
0.7383231188
 40
0.8685460141
 40
1.0
 40
1.0
 40
1.0
 40
1.0
 10
10.435938422
 20
10.0321921295
 30
0.0
 10
10.4464996632
 20
10.033878075
 30
0.0
 10
10.4679269596
 20
10.0371012776
 30
0.0
 10
10.5005307978
 20
10.0414469855
 30
0.0
 10
10.5339488643
 20
10.0453577732
 30
0.0
 10
10.5680942437
 20
10.0488233952
 30
0.0
 10
10.6028782875
 20
10.0518347888
 30
0.0
 10
10.6382106539
 20
10.0543840764
 30
0.0
 10
10.6739994724
 20
10.056464593
 30
0.0
 10
10.6980076858
 20
10.0575313043
 30
0.0
 10
10.7100711501
 20
10.0579863551
 30
0.0
  0
SPLINE
  5
372
100
AcDbEntity
  8
0
100
AcDbSpline
 62
7
  6
CONTINUOUS
 70
0
 71
3
 72
14
 73
10
 74
0
 42
0.0000001
 43
0.0000001
 44
0.0000000001
 40
0.0
 40
0.0
 40
0.0
 40
0.0
 40
0.1177731342
 40
0.23808294
 40
0.3607006875
 40
0.4853914
 40
0.6119145275
 40
0.7400247098
 40
1.0
 40
1.0
 40
1.0
 40
1.0
 10
10.4826335239
 20
9.9804393618
 30
0.0
 10
10.4917123471
 20
9.9817668366
 30
0.0
 10
10.5100866177
 20
9.9843080791
 30
0.0
 10
10.5379771099
 20
9.9877497586
 30
0.0
 10
10.5664490554
 20
9.9908569643
 30
0.0
 10
10.5954423711
 20
9.993623087
 30
0.0
 10
10.6248961013
 20
9.9960423134
 30
0.0
 10
10.6648927238
 20
9.9988118516
 30
0.0
 10
10.6950931698
 20
10.0003315723
 30
0.0
 10
10.7153322473
 20
10.0011066194
 30
0.0
  0
SPLINE
  5
373
100
AcDbEntity
  8
0
100
AcDbSpline
 62
7
  6
CONTINUOUS
 70
0
 71
3
 72
17
 73
13
 74
0
 42
0.0000001
 43
0.0000001
 44
0.0000000001
 40
0.0
 40
0.0
 40
0.0
 40
0.0
 40
0.1260755619
 40
0.2523642226
 40
0.3787313094
 40
0.5049485659
 40
0.6306874177
 40
0.7555002921
 40
0.8173957268
 40
0.8788351995
 40
0.9397320971
 40
1.0
 40
1.0
 40
1.0
 40
1.0
 10
10.9150895029
 20
6.7113175951
 30
0.0
 10
10.9035877306
 20
6.7121152457
 30
0.0
 10
10.8806060598
 20
6.7143907092
 30
0.0
 10
10.8463827293
 20
6.7198363135
 30
0.0
 10
10.8125358135
 20
6.7273431258
 30
0.0
 10
10.7792751733
 20
6.7369539633
 30
0.0
 10
10.7468615776
 20
6.7487150555
 30
0.0
 10
10.7207407204
 20
6.7603666198
 30
0.0
 10
10.7005794155
 20
6.7707926729
 30
0.0
 10
10.6859284676
 20
6.7791206549
 30
0.0
 10
10.6717557514
 20
6.7879600421
 30
0.0
 10
10.6626039631
 20
6.7942134255
 30
0.0
 10
10.6581209851
 20
6.7974194227
 30
0.0
  0
SPLINE
  5
374
100
AcDbEntity
  8
0
100
AcDbSpline
 62
7
  6
CONTINUOUS
 70
0
 71
3
 72
51
 73
47
 74
0
 42
0.0000001
 43
0.0000001
 44
0.0000000001
 40
0.0
 40
0.0
 40
0.0
 40
0.0
 40
0.0083888522
 40
0.0173410458
 40
0.0268641187
 40
0.0369607104
 40
0.0476299625
 40
0.0588679036
 40
0.0706682579
 40
0.0830222743
 40
0.0959194553
 40
0.1093473589
 40
0.1232922028
 40
0.137738587
 40
0.1680676642
 40
0.2001896813
 40
0.2339425619
 40
0.2691506961
 40
0.3056269822
 40
0.3431746672
 40
0.381589064
 40
0.4206591952
 40
0.4601693916
 40
0.4999008651
 40
0.5396332682
 40
0.5791462468
 40
0.6182209932
 40
0.6566418054
 40
0.6941976596
 40
0.7306838092
 40
0.7659034272
 40
0.7996693229
 40
0.8318057816
 40
0.8621506035
 40
0.8766052982
 40
0.8905587318
 40
0.9039954619
 40
0.9169016999
 40
0.929264955
 40
0.9410747296
 40
0.9523222114
 40
0.9630010782
 40
0.9731072968
 40
0.9826400989
 40
0.9916019886
 40
1.0
 40
1.0
 40
1.0
 40
1.0
 10
12.6828655708
 20
6.8882335476
 30
0.0
 10
12.683588147
 20
6.8891172671
 30
0.0
 10
12.6850276533
 20
6.8909887737
 30
0.0
 10
12.6871084545
 20
6.8939958617
 30
0.0
 10
12.6891774028
 20
6.897288978
 30
0.0
 10
12.691231573
 20
6.9008632908
 30
0.0
 10
12.6932679178
 20
6.9047137387
 30
0.0
 10
12.6952835341
 20
6.9088346966
 30
0.0
 10
12.6972753883
 20
6.9132201971
 30
0.0
 10
12.6992406204
 20
6.9178638167
 30
0.0
 10
12.7011762456
 20
6.9227587701
 30
0.0
 10
12.7030794625
 20
6.927897853
 30
0.0
 10
12.7049474052
 20
6.9332735236
 30
0.0
 10
12.7074276159
 20
6.9408697054
 30
0.0
 10
12.7104090631
 20
6.9509021113
 30
0.0
 10
12.7137487898
 20
6.963561858
 30
0.0
 10
12.7168860275
 20
6.9769559983
 30
0.0
 10
12.7198020479
 20
6.991005508
 30
0.0
 10
12.7224794138
 20
7.005627595
 30
0.0
 10
12.7249021502
 20
7.0207359488
 30
0.0
 10
12.7270558155
 20
7.0362413511
 30
0.0
 10
12.7289275893
 20
7.0520521958
 30
0.0
 10
12.7305063445
 20
7.0680750484
 30
0.0
 10
12.7317827119
 20
7.0842152054
 30
0.0
 10
12.7327491341
 20
7.1003772619
 30
0.0
 10
12.7333999109
 20
7.1164656814
 30
0.0
 10
12.7337312333
 20
7.1323853678
 30
0.0
 10
12.7337412083
 20
7.1480422341
 30
0.0
 10
12.7334298722
 20
7.1633437659
 30
0.0
 10
12.7327991967
 20
7.178199585
 30
0.0
 10
12.7318530736
 20
7.1925219773
 30
0.0
 10
12.7305973292
 20
7.2062265066
 30
0.0
 10
12.7290395878
 20
7.2192322867
 30
0.0
 10
12.7274735969
 20
7.2295858116
 30
0.0
 10
12.7260673046
 20
7.2374564384
 30
0.0
 10
12.7249604389
 20
7.2430422905
 30
0.0
 10
12.7237859442
 20
7.2483988246
 30
0.0
 10
12.7225456293
 20
7.2535181692
 30
0.0
 10
12.721241259
 20
7.258392797
 30
0.0
 10
12.7198748641
 20
7.26301557
 30
0.0
 10
12.7184483738
 20
7.2673797199
 30
0.0
 10
12.7169639921
 20
7.2714789119
 30
0.0
 10
12.7154237941
 20
7.2753071772
 30
0.0
 10
12.7138300943
 20
7.2788590813
 30
0.0
 10
12.712185129
 20
7.2821293771
 30
0.0
 10
12.7110183428
 20
7.2841849603
 30
0.0
 10
12.7104249821
 20
7.2851616111
 30
0.0
  0
SPLINE
  5
375
100
AcDbEntity
  8
0
100
AcDbSpline
 62
7
  6
CONTINUOUS
 70
0
 71
3
 72
54
 73
50
 74
0
 42
0.0000001
 43
0.0000001
 44
0.0000000001
 40
0.0
 40
0.0
 40
0.0
 40
0.0
 40
0.0934589203
 40
0.1389831247
 40
0.1836485451
 40
0.2274166272
 40
0.2702485306
 40
0.3121061738
 40
0.3529500012
 40
0.3927384863
 40
0.431426513
 40
0.4689654797
 40
0.5053012572
 40
0.5403743621
 40
0.5741196705
 40
0.6064652883
 40
0.6373360554
 40
0.6521944358
 40
0.6666555458
 40
0.6807099764
 40
0.6943499464
 40
0.7075685382
 40
0.720360406
 40
0.732723258
 40
0.7446574347
 40
0.7561678228
 40
0.7672645535
 40
0.7779640186
 40
0.7882905324
 40
0.7982768792
 40
0.8079656573
 40
0.8174090734
 40
0.8266689617
 40
0.8358147912
 40
0.8449218493
 40
0.8540672318
 40
0.8633270374
 40
0.8727719236
 40
0.882465234
 40
0.8924601421
 40
0.9027996056
 40
0.9135157652
 40
0.9246309097
 40
0.9361586223
 40
0.9481046699
 40
0.9604689278
 40
0.9732460656
 40
0.9864269598
 40
1.0
 40
1.0
 40
1.0
 40
1.0
 10
10.6581209851
 20
6.7974194227
 30
0.0
 10
10.6460776545
 20
6.801384692
 30
0.0
 10
10.62824071
 20
6.8075051145
 30
0.0
 10
10.6048114893
 20
6.8159813306
 30
0.0
 10
10.5877842088
 20
6.8223347424
 30
0.0
 10
10.5711556314
 20
6.8287094944
 30
0.0
 10
10.5549319269
 20
6.8350745944
 30
0.0
 10
10.5391183139
 20
6.8413975786
 30
0.0
 10
10.5237192104
 20
6.8476444379
 30
0.0
 10
10.5087389661
 20
6.8537795703
 30
0.0
 10
10.4941816039
 20
6.8597641557
 30
0.0
 10
10.4800519961
 20
6.865557308
 30
0.0
 10
10.466355398
 20
6.8711136655
 30
0.0
 10
10.4530984579
 20
6.8763840391
 30
0.0
 10
10.4402895828
 20
6.8813145754
 30
0.0
 10
10.4279390016
 20
6.8858447661
 30
0.0
 10
10.4179160792
 20
6.8892746259
 30
0.0
 10
10.4101322625
 20
6.8917441649
 30
0.0
 10
10.4044934066
 20
6.893427515
 30
0.0
 10
10.3989816773
 20
6.8949552757
 30
0.0
 10
10.3936001858
 20
6.8963169579
 30
0.0
 10
10.3883522802
 20
6.8975015802
 30
0.0
 10
10.3832415828
 20
6.8984976713
 30
0.0
 10
10.3782721142
 20
6.8992937463
 30
0.0
 10
10.3734481364
 20
6.8998780997
 30
0.0
 10
10.3687742378
 20
6.9002388013
 30
0.0
 10
10.3642553076
 20
6.9003642346
 30
0.0
 10
10.3598964742
 20
6.9002429539
 30
0.0
 10
10.3557032094
 20
6.8998635932
 30
0.0
 10
10.3516811185
 20
6.8992162208
 30
0.0
 10
10.3478363309
 20
6.8982905811
 30
0.0
 10
10.3441748323
 20
6.897079215
 30
0.0
 10
10.340703358
 20
6.8955745605
 30
0.0
 10
10.3374279049
 20
6.8937728443
 30
0.0
 10
10.3343550639
 20
6.8916709367
 30
0.0
 10
10.3314897796
 20
6.889269733
 30
0.0
 10
10.3288370784
 20
6.8865712115
 30
0.0
 10
10.3263997324
 20
6.8835806682
 30
0.0
 10
10.3241803519
 20
6.88030438
 30
0.0
 10
10.322179501
 20
6.8767509003
 30
0.0
 10
10.3203975909
 20
6.8729296329
 30
0.0
 10
10.3188336916
 20
6.8688514216
 30
0.0
 10
10.3174865559
 20
6.8645278773
 30
0.0
 10
10.3163543612
 20
6.8599714173
 30
0.0
 10
10.3154346834
 20
6.8551950002
 30
0.0
 10
10.3147251022
 20
6.8502118956
 30
0.0
 10
10.3142225125
 20
6.8450355552
 30
0.0
 10
10.3139240059
 20
6.8396794544
 30
0.0
 10
10.3138597883
 20
6.8360494393
 30
0.0
 10
10.3138592455
 20
6.8342080214
 30
0.0
  0
SPLINE
  5
376
100
AcDbEntity
  8
0
100
AcDbSpline
 62
7
  6
CONTINUOUS
 70
0
 71
3
 72
64
 73
60
 74
0
 42
0.0000001
 43
0.0000001
 44
0.0000000001
 40
0.0
 40
0.0
 40
0.0
 40
0.0
 40
0.0082489535
 40
0.0160246572
 40
0.0233635319
 40
0.0303109148
 40
0.0369220085
 40
0.0401228007
 40
0.043264979
 40
0.0463582812
 40
0.0494129669
 40
0.052439721
 40
0.0554495623
 40
0.0584537148
 40
0.0614634696
 40
0.0644900528
 40
0.0675444814
 40
0.0706374469
 40
0.073779216
 40
0.0802450798
 40
0.0870154851
 40
0.0941508365
 40
0.1017013722
 40
0.1097078477
 40
0.1182026545
 40
0.1272110235
 40
0.1367520222
 40
0.1468396276
 40
0.1574834769
 40
0.1686895188
 40
0.1804606528
 40
0.1927970506
 40
0.2056966033
 40
0.2191552065
 40
0.2331669215
 40
0.247724289
 40
0.2628183945
 40
0.2784390342
 40
0.294574882
 40
0.3112134814
 40
0.3283414352
 40
0.3459444318
 40
0.3640072835
 40
0.3825140698
 40
0.401448095
 40
0.4207919974
 40
0.4606362243
 40
0.5018966286
 40
0.5444140943
 40
0.5880224264
 40
0.632549434
 40
0.6778179632
 40
0.7236469143
 40
0.7698522443
 40
0.816247944
 40
0.8626470031
 40
0.9088624801
 40
0.9547079655
 40
1.0
 40
1.0
 40
1.0
 40
1.0
 10
10.0007717152
 20
10.902685888
 30
0.0
 10
9.9983660398
 20
10.9049246209
 30
0.0
 10
9.9938244542
 20
10.9094190301
 30
0.0
 10
9.9876863867
 20
10.916427098
 30
0.0
 10
9.9824376254
 20
10.9234901514
 30
0.0
 10
9.9780857692
 20
10.9306012857
 30
0.0
 10
9.9751813012
 20
10.9366281117
 30
0.0
 10
9.9733340629
 20
10.9414493388
 30
0.0
 10
9.9721907964
 20
10.9450327783
 30
0.0
 10
9.9712754911
 20
10.9486210921
 30
0.0
 10
9.9705884087
 20
10.9522133095
 30
0.0
 10
9.9701299017
 20
10.9558083372
 30
0.0
 10
9.9699001862
 20
10.9594050672
 30
0.0
 10
9.9698992974
 20
10.9630023663
 30
0.0
 10
9.9701272625
 20
10.9665991046
 30
0.0
 10
9.9705840376
 20
10.9701941517
 30
0.0
 10
9.9712693343
 20
10.9737863776
 30
0.0
 10
9.9721829317
 20
10.9773748049
 30
0.0
 10
9.9737193324
 20
10.9821981582
 30
0.0
 10
9.9762350159
 20
10.9882341086
 30
0.0
 10
9.9801324427
 20
10.9953675137
 30
0.0
 10
9.9849302143
 20
11.0024558348
 30
0.0
 10
9.990621186
 20
11.0094923033
 30
0.0
 10
9.9971982526
 20
11.0164713814
 30
0.0
 10
10.0046539758
 20
11.0233870614
 30
0.0
 10
10.0129804414
 20
11.0302330814
 30
0.0
 10
10.02216889
 20
11.0370030547
 30
0.0
 10
10.0322098011
 20
11.0436903073
 30
0.0
 10
10.0430927151
 20
11.0502880828
 30
0.0
 10
10.054806219
 20
11.0567896284
 30
0.0
 10
10.0673380152
 20
11.0631880697
 30
0.0
 10
10.0806748288
 20
11.0694766811
 30
0.0
 10
10.0948024994
 20
11.0756487483
 30
0.0
 10
10.109705981
 20
11.0816976152
 30
0.0
 10
10.1253693298
 20
11.0876168275
 30
0.0
 10
10.1417757814
 20
11.0933999503
 30
0.0
 10
10.1589077283
 20
11.0990407469
 30
0.0
 10
10.1767467602
 20
11.1045331357
 30
0.0
 10
10.1952736991
 20
11.1098711194
 30
0.0
 10
10.2144685929
 20
11.1150489609
 30
0.0
 10
10.234310768
 20
11.1200610265
 30
0.0
 10
10.2547788399
 20
11.1249018689
 30
0.0
 10
10.2758507367
 20
11.1295662808
 30
0.0
 10
10.2975037273
 20
11.1340491518
 30
0.0
 10
10.3197144724
 20
11.1383456861
 30
0.0
 10
10.3503424645
 20
11.1438740767
 30
0.0
 10
10.3898490756
 20
11.1502673231
 30
0.0
 10
10.438631397
 20
11.1570540066
 30
0.0
 10
10.4890335138
 20
11.1629992364
 30
0.0
 10
10.5408378328
 20
11.1680770979
 30
0.0
 10
10.5938209269
 20
11.1722654015
 30
0.0
 10
10.6477541309
 20
11.175545878
 30
0.0
 10
10.7024046556
 20
11.1779042263
 30
0.0
 10
10.7575365784
 20
11.1793301641
 30
0.0
 10
10.8129118847
 20
11.1798174676
 30
0.0
 10
10.8682915065
 20
11.1793640136
 30
0.0
 10
10.9234363015
 20
11.1779717709
 30
0.0
 10
10.9781081173
 20
11.1756468544
 30
0.0
 10
11.0143521521
 20
11.1734656776
 30
0.0
 10
11.0323523338
 20
11.1722173607
 30
0.0
  0
SPLINE
  5
377
100
AcDbEntity
  8
0
100
AcDbSpline
 62
7
  6
CONTINUOUS
 70
0
 71
3
 72
61
 73
57
 74
0
 42
0.0000001
 43
0.0000001
 44
0.0000000001
 40
0.0
 40
0.0
 40
0.0
 40
0.0
 40
0.0065289246
 40
0.0127847722
 40
0.0188290368
 40
0.02179438
 40
0.0247332232
 40
0.0276550453
 40
0.0305695028
 40
0.0334863317
 40
0.0364152454
 40
0.0393658212
 40
0.042347409
 40
0.0484370932
 40
0.0547540531
 40
0.0613578412
 40
0.0647843913
 40
0.0683011107
 40
0.0756236405
 40
0.0833621546
 40
0.0915449942
 40
0.1001945952
 40
0.1093282453
 40
0.1189589864
 40
0.1290960899
 40
0.1397457782
 40
0.1509115243
 40
0.1625945215
 40
0.1747939521
 40
0.1875072
 40
0.2007301576
 40
0.2144572429
 40
0.2286817202
 40
0.2433956418
 40
0.2585900978
 40
0.2742552032
 40
0.2903802097
 40
0.3069535984
 40
0.3239630512
 40
0.3413956311
 40
0.3592376772
 40
0.396092111
 40
0.4344067025
 40
0.4740531008
 40
0.5148959969
 40
0.55679403
 40
0.5996006366
 40
0.6431648623
 40
0.6873321464
 40
0.7319450911
 40
0.7768442199
 40
0.8218687388
 40
0.8668572368
 40
0.9116486149
 40
0.9560822269
 40
1.0
 40
1.0
 40
1.0
 40
1.0
 10
10.0318563999
 20
10.8792580951
 30
0.0
 10
10.0306541074
 20
10.8813002631
 30
0.0
 10
10.0284757437
 20
10.8854070957
 30
0.0
 10
10.0258869762
 20
10.8917446177
 30
0.0
 10
10.0243544518
 20
10.8970826684
 30
0.0
 10
10.02352206
 20
10.9013410628
 30
0.0
 10
10.0230919343
 20
10.9045175724
 30
0.0
 10
10.0228523971
 20
10.9076955306
 30
0.0
 10
10.0228034555
 20
10.9108741725
 30
0.0
 10
10.0229451903
 20
10.9140526025
 30
0.0
 10
10.0232775486
 20
10.9172299213
 30
0.0
 10
10.0238004046
 20
10.9204053628
 30
0.0
 10
10.0247576584
 20
10.9246647316
 30
0.0
 10
10.0264472714
 20
10.9300015756
 30
0.0
 10
10.0292207349
 20
10.9363323323
 30
0.0
 10
10.0321254448
 20
10.9415169309
 30
0.0
 10
10.0348062508
 20
10.9456404336
 30
0.0
 10
10.0378101124
 20
10.9498598571
 30
0.0
 10
10.0420518848
 20
10.9551109722
 30
0.0
 10
10.0478139704
 20
10.9612820972
 30
0.0
 10
10.0543094476
 20
10.9674014873
 30
0.0
 10
10.0615319007
 20
10.9734637743
 30
0.0
 10
10.0694745924
 20
10.9794640182
 30
0.0
 10
10.0781301895
 20
10.985396834
 30
0.0
 10
10.0874905984
 20
10.9912570064
 30
0.0
 10
10.0975471319
 20
10.9970390761
 30
0.0
 10
10.1082903443
 20
11.0027377252
 30
0.0
 10
10.1197101387
 20
11.0083475783
 30
0.0
 10
10.1317957337
 20
11.0138633068
 30
0.0
 10
10.144535666
 20
11.0192797095
 30
0.0
 10
10.1579178507
 20
11.0245915366
 30
0.0
 10
10.171929529
 20
11.0297937827
 30
0.0
 10
10.1865573543
 20
11.0348813707
 30
0.0
 10
10.2017873454
 20
11.0398494775
 30
0.0
 10
10.2176049483
 20
11.0446932784
 30
0.0
 10
10.2339950253
 20
11.0494081257
 30
0.0
 10
10.2509418806
 20
11.0539894908
 30
0.0
 10
10.2684292822
 20
11.058432923
 30
0.0
 10
10.2864404584
 20
11.0627341896
 30
0.0
 10
10.3049581634
 20
11.0668891142
 30
0.0
 10
10.3305769843
 20
11.0722868114
 30
0.0
 10
10.3637410703
 20
11.0786220706
 30
0.0
 10
10.4048471497
 20
11.0855014883
 30
0.0
 10
10.4475230797
 20
11.091710838
 30
0.0
 10
10.4916050754
 20
11.0972260642
 30
0.0
 10
10.5369241565
 20
11.102025755
 30
0.0
 10
10.5833064516
 20
11.1060913013
 30
0.0
 10
10.6305739835
 20
11.1094069423
 30
0.0
 10
10.6785453349
 20
11.1119598293
 30
0.0
 10
10.727036363
 20
11.1137400747
 30
0.0
 10
10.7758609135
 20
11.1147407858
 30
0.0
 10
10.8248315359
 20
11.1149580848
 30
0.0
 10
10.8737602399
 20
11.1143911394
 30
0.0
 10
10.9224591341
 20
11.1130421253
 30
0.0
 10
10.9707411949
 20
11.1109163048
 30
0.0
 10
11.0027529346
 20
11.108973018
 30
0.0
 10
11.0186555549
 20
11.1078701675
 30
0.0
  0
SPLINE
  5
378
100
AcDbEntity
  8
0
100
AcDbSpline
 62
7
  6
CONTINUOUS
 70
0
 71
3
 72
47
 73
43
 74
0
 42
0.0000001
 43
0.0000001
 44
0.0000000001
 40
0.0
 40
0.0
 40
0.0
 40
0.0
 40
0.006481199
 40
0.0129999807
 40
0.0195932372
 40
0.0262964857
 40
0.033143369
 40
0.0401652475
 40
0.0548394282
 40
0.0625482082
 40
0.0705310048
 40
0.0788061409
 40
0.0873895173
 40
0.0962949375
 40
0.1055342884
 40
0.1151175908
 40
0.1250533742
 40
0.1353486968
 40
0.1460092864
 40
0.1570398259
 40
0.1684438518
 40
0.1923805289
 40
0.2178326631
 40
0.2448004847
 40
0.2732748369
 40
0.3032385833
 40
0.3346677903
 40
0.3675326008
 40
0.4017978707
 40
0.4374237486
 40
0.4743662075
 40
0.5125774317
 40
0.5520060966
 40
0.5925976963
 40
0.6342948463
 40
0.6770375132
 40
0.7207631909
 40
0.7654070832
 40
0.8109024877
 40
0.8571807897
 40
0.9041710584
 40
1.0
 40
1.0
 40
1.0
 40
1.0
 10
11.5959092234
 20
10.8889270015
 30
0.0
 10
11.5959092164
 20
10.8903078583
 30
0.0
 10
11.5957994187
 20
10.8930788136
 30
0.0
 10
11.5953060117
 20
10.8972280731
 30
0.0
 10
11.5944840146
 20
10.9013732909
 30
0.0
 10
11.5933342086
 20
10.9055120628
 30
0.0
 10
11.5918572671
 20
10.909642736
 30
0.0
 10
11.5894179645
 20
10.9152175678
 30
0.0
 10
11.5863392306
 20
10.9206956099
 30
0.0
 10
11.5827002043
 20
10.9260471491
 30
0.0
 10
11.5796043933
 20
10.9301111528
 30
0.0
 10
11.5761888408
 20
10.9341566946
 30
0.0
 10
11.5724548805
 20
10.9381827174
 30
0.0
 10
11.5684041528
 20
10.9421875471
 30
0.0
 10
11.5640383034
 20
10.946169619
 30
0.0
 10
11.5593592106
 20
10.9501274332
 30
0.0
 10
11.5543687652
 20
10.9540593712
 30
0.0
 10
11.5490690324
 20
10.9579638657
 30
0.0
 10
11.5434622258
 20
10.9618393778
 30
0.0
 10
11.5375506045
 20
10.9656843086
 30
0.0
 10
11.5291288704
 20
10.9708516031
 30
0.0
 10
11.5178385256
 20
10.9772095196
 30
0.0
 10
11.5033275494
 20
10.9845733259
 30
0.0
 10
11.487666427
 20
10.9917779578
 30
0.0
 10
11.4708810657
 20
10.9988114752
 30
0.0
 10
11.4529989346
 20
11.00566225
 30
0.0
 10
11.4340495571
 20
11.0123188424
 30
0.0
 10
11.4140642754
 20
11.018770095
 30
0.0
 10
11.3930762544
 20
11.0250051847
 30
0.0
 10
11.3711203935
 20
11.0310136502
 30
0.0
 10
11.3482332424
 20
11.0367853892
 30
0.0
 10
11.3244529348
 20
11.0423106813
 30
0.0
 10
11.2998191361
 20
11.0475802398
 30
0.0
 10
11.2743729655
 20
11.052585212
 30
0.0
 10
11.2481569081
 20
11.0573171794
 30
0.0
 10
11.2212147451
 20
11.0617681726
 30
0.0
 10
11.1935915025
 20
11.0659307142
 30
0.0
 10
11.1653333345
 20
11.0697978235
 30
0.0
 10
11.1364874816
 20
11.0733629852
 30
0.0
 10
11.1071021838
 20
11.0766202177
 30
0.0
 10
11.0670073508
 20
11.0805709129
 30
0.0
 10
11.036673547
 20
11.0830143271
 30
0.0
 10
11.0163055602
 20
11.0844268518
 30
0.0
  0
SPLINE
  5
379
100
AcDbEntity
  8
0
100
AcDbSpline
 62
7
  6
CONTINUOUS
 70
0
 71
3
 72
39
 73
35
 74
0
 42
0.0000001
 43
0.0000001
 44
0.0000000001
 40
0.0
 40
0.0
 40
0.0
 40
0.0
 40
0.0311159584
 40
0.0620233352
 40
0.0927351385
 40
0.1232711775
 40
0.1536587332
 40
0.1839312107
 40
0.2141268395
 40
0.244287099
 40
0.2744549757
 40
0.3046731314
 40
0.3349820893
 40
0.3654185446
 40
0.396013864
 40
0.426792882
 40
0.4577729977
 40
0.4889636199
 40
0.5203659696
 40
0.5519731789
 40
0.5837707176
 40
0.6157370646
 40
0.6478445906
 40
0.68006064
 40
0.7123487314
 40
0.7446698626
 40
0.7769838842
 40
0.8092508939
 40
0.8414326248
 40
0.8734937998
 40
0.9054034138
 40
0.9371358961
 40
0.9686718081
 40
1.0
 40
1.0
 40
1.0
 40
1.0
 10
8.9062795945
 20
7.5513634406
 30
0.0
 10
8.9062795945
 20
7.5595823271
 30
0.0
 10
8.9070819857
 20
7.5759768956
 30
0.0
 10
8.9107107473
 20
7.6002409708
 30
0.0
 10
8.916726473
 20
7.623871203
 30
0.0
 10
8.9250722193
 20
7.6466363918
 30
0.0
 10
8.9356680653
 20
7.6683172127
 30
0.0
 10
8.948412382
 20
7.6887035633
 30
0.0
 10
8.9631823421
 20
7.7075980758
 30
0.0
 10
8.9798352685
 20
7.7248177596
 30
0.0
 10
8.9982101415
 20
7.7401958288
 30
0.0
 10
9.018128954
 20
7.7535836855
 30
0.0
 10
9.0393988195
 20
7.7648521234
 30
0.0
 10
9.0618138116
 20
7.7738926924
 30
0.0
 10
9.0851570401
 20
7.7806188865
 30
0.0
 10
9.109202959
 20
7.7849665384
 30
0.0
 10
9.1337194726
 20
7.7868947189
 30
0.0
 10
9.1584702795
 20
7.7863858758
 30
0.0
 10
9.1832170987
 20
7.7834457494
 30
0.0
 10
9.2077219644
 20
7.7781036288
 30
0.0
 10
9.2317494412
 20
7.7704116152
 30
0.0
 10
9.255068818
 20
7.7604442505
 30
0.0
 10
9.2774563614
 20
7.7482979082
 30
0.0
 10
9.2986972455
 20
7.7340895277
 30
0.0
 10
9.318587727
 20
7.7179558309
 30
0.0
 10
9.3369370084
 20
7.7000518669
 30
0.0
 10
9.3535688987
 20
7.6805494571
 30
0.0
 10
9.3683237532
 20
7.6596358255
 30
0.0
 10
9.3810597057
 20
7.6375116002
 30
0.0
 10
9.3916541097
 20
7.6143889533
 30
0.0
 10
9.4000048746
 20
7.5904900185
 30
0.0
 10
9.4060310389
 20
7.566043361
 30
0.0
 10
9.4096741467
 20
7.5412868668
 30
0.0
 10
9.4104929057
 20
7.524671074
 30
0.0
 10
9.4104929057
 20
7.5163961287
 30
0.0
  0
SPLINE
  5
37A
100
AcDbEntity
  8
0
100
AcDbSpline
 62
7
  6
CONTINUOUS
 70
0
 71
3
 72
39
 73
35
 74
0
 42
0.0000001
 43
0.0000001
 44
0.0000000001
 40
0.0
 40
0.0
 40
0.0
 40
0.0
 40
0.0311159584
 40
0.0620233352
 40
0.0927351385
 40
0.1232711775
 40
0.1536587332
 40
0.1839312107
 40
0.2141268395
 40
0.244287099
 40
0.2744549757
 40
0.3046731314
 40
0.3349820893
 40
0.3654185446
 40
0.396013864
 40
0.426792882
 40
0.4577729977
 40
0.4889636199
 40
0.5203659696
 40
0.5519731789
 40
0.5837707176
 40
0.6157370646
 40
0.6478445906
 40
0.68006064
 40
0.7123487314
 40
0.7446698626
 40
0.7769838842
 40
0.8092508939
 40
0.8414326248
 40
0.8734937998
 40
0.9054034138
 40
0.9371358961
 40
0.9686718081
 40
1.0
 40
1.0
 40
1.0
 40
1.0
 10
9.4104929057
 20
7.5163961287
 30
0.0
 10
9.4104929057
 20
7.5081772422
 30
0.0
 10
9.4096905145
 20
7.4917826737
 30
0.0
 10
9.4060617529
 20
7.4675185985
 30
0.0
 10
9.4000460272
 20
7.4438883663
 30
0.0
 10
9.3917002809
 20
7.4211231775
 30
0.0
 10
9.3811044349
 20
7.3994423566
 30
0.0
 10
9.3683601182
 20
7.379056006
 30
0.0
 10
9.3535901581
 20
7.3601614935
 30
0.0
 10
9.3369372317
 20
7.3429418097
 30
0.0
 10
9.3185623587
 20
7.3275637405
 30
0.0
 10
9.2986435462
 20
7.3141758838
 30
0.0
 10
9.2773736807
 20
7.3029074459
 30
0.0
 10
9.2549586887
 20
7.2938668769
 30
0.0
 10
9.2316154602
 20
7.2871406828
 30
0.0
 10
9.2075695412
 20
7.2827930309
 30
0.0
 10
9.1830530276
 20
7.2808648504
 30
0.0
 10
9.1583022207
 20
7.2813736935
 30
0.0
 10
9.1335554015
 20
7.2843138199
 30
0.0
 10
9.1090505358
 20
7.2896559405
 30
0.0
 10
9.085023059
 20
7.2973479541
 30
0.0
 10
9.0617036822
 20
7.3073153188
 30
0.0
 10
9.0393161388
 20
7.3194616611
 30
0.0
 10
9.0180752548
 20
7.3336700416
 30
0.0
 10
8.9981847733
 20
7.3498037384
 30
0.0
 10
8.9798354918
 20
7.3677077024
 30
0.0
 10
8.9632036015
 20
7.3872101122
 30
0.0
 10
8.948448747
 20
7.4081237438
 30
0.0
 10
8.9357127945
 20
7.4302479691
 30
0.0
 10
8.9251183905
 20
7.453370616
 30
0.0
 10
8.9167676256
 20
7.4772695508
 30
0.0
 10
8.9107414614
 20
7.5017162083
 30
0.0
 10
8.9070983536
 20
7.5264727025
 30
0.0
 10
8.9062795945
 20
7.5430884953
 30
0.0
 10
8.9062795945
 20
7.5513634406
 30
0.0
  0
SPLINE
  5
37B
100
AcDbEntity
  8
0
100
AcDbSpline
 62
7
  6
CONTINUOUS
 70
0
 71
3
 72
54
 73
50
 74
0
 42
0.0000001
 43
0.0000001
 44
0.0000000001
 40
0.0
 40
0.0
 40
0.0
 40
0.0
 40
0.0077849847
 40
0.0153157378
 40
0.0226293199
 40
0.0297666199
 40
0.0367719875
 40
0.0436926148
 40
0.0505775923
 40
0.0574768585
 40
0.0644400123
 40
0.0715151818
 40
0.0787480147
 40
0.0861809787
 40
0.1017889367
 40
0.1100386657
 40
0.1186196171
 40
0.1275550733
 40
0.1368648731
 40
0.146565934
 40
0.1566723388
 40
0.1671958083
 40
0.1781459031
 40
0.1895302065
 40
0.2013547226
 40
0.2136238077
 40
0.2263405936
 40
0.2395069458
 40
0.2531236446
 40
0.2671905764
 40
0.281706619
 40
0.2966699888
 40
0.3120780566
 40
0.3442136446
 40
0.3780813717
 40
0.413639424
 40
0.4508385264
 40
0.4896228121
 40
0.5299305183
 40
0.5716945936
 40
0.6148432202
 40
0.6593002547
 40
0.7049856324
 40
0.7518157176
 40
0.7997035906
 40
0.8485596313
 40
0.8982908322
 40
0.9488039283
 40
1.0
 40
1.0
 40
1.0
 40
1.0
 10
11.5956968804
 20
10.878811007
 30
0.0
 10
11.5966014365
 20
10.8803249853
 30
0.0
 10
11.5982842588
 20
10.8833629047
 30
0.0
 10
11.6004436287
 20
10.8880173304
 30
0.0
 10
11.6021915777
 20
10.8926857004
 30
0.0
 10
11.6035264406
 20
10.8973652308
 30
0.0
 10
11.604446863
 20
10.9020532413
 30
0.0
 10
11.6049519946
 20
10.9067467069
 30
0.0
 10
11.6050410823
 20
10.9114424947
 30
0.0
 10
11.6047141724
 20
10.9161373483
 30
0.0
 10
11.6039715563
 20
10.9208280824
 30
0.0
 10
11.6028140909
 20
10.9255115554
 30
0.0
 10
11.6012429014
 20
10.9301851768
 30
0.0
 10
11.5985552966
 20
10.9365010329
 30
0.0
 10
11.595054696
 20
10.9426958151
 30
0.0
 10
11.5908530059
 20
10.9487280495
 30
0.0
 10
11.5872378282
 20
10.953315381
 30
0.0
 10
11.5832198245
 20
10.9578783516
 30
0.0
 10
11.5788009284
 20
10.962415554
 30
0.0
 10
11.5739834835
 20
10.9669245734
 30
0.0
 10
11.5687700324
 20
10.9714033763
 30
0.0
 10
11.5631632393
 20
10.9758497371
 30
0.0
 10
11.5571659723
 20
10.9802614495
 30
0.0
 10
11.5507813393
 20
10.9846363751
 30
0.0
 10
11.5440125659
 20
10.9889722195
 30
0.0
 10
11.5368631743
 20
10.9932668723
 30
0.0
 10
11.52933681
 20
10.9975180723
 30
0.0
 10
11.5214373642
 20
11.0017236601
 30
0.0
 10
11.5131689202
 20
11.005881488
 30
0.0
 10
11.5045357317
 20
11.0099893459
 30
0.0
 10
11.495542297
 20
11.0140451747
 30
0.0
 10
11.4861932417
 20
11.0180468236
 30
0.0
 10
11.4730757479
 20
11.0233822641
 30
0.0
 10
11.4558137795
 20
11.0298862838
 30
0.0
 10
11.4340425805
 20
11.037337269
 30
0.0
 10
11.4109786748
 20
11.0445242988
 30
0.0
 10
11.3866700189
 20
11.0514322993
 30
0.0
 10
11.3611669456
 20
11.0580467596
 30
0.0
 10
11.33452245
 20
11.0643537835
 30
0.0
 10
11.3067919425
 20
11.0703401189
 30
0.0
 10
11.2780331493
 20
11.0759931843
 30
0.0
 10
11.2483059707
 20
11.0813011003
 30
0.0
 10
11.2176723534
 20
11.0862527131
 30
0.0
 10
11.1861961675
 20
11.0908376143
 30
0.0
 10
11.1539430238
 20
11.095046191
 30
0.0
 10
11.1209803066
 20
11.0988695755
 30
0.0
 10
11.0873765351
 20
11.102299815
 30
0.0
 10
11.0532021724
 20
11.1053296073
 30
0.0
 10
11.0302257798
 20
11.1070677697
 30
0.0
 10
11.0186555549
 20
11.1078701675
 30
0.0
  0
SPLINE
  5
37C
100
AcDbEntity
  8
0
100
AcDbSpline
 62
7
  6
CONTINUOUS
 70
0
 71
3
 72
28
 73
24
 74
0
 42
0.0000001
 43
0.0000001
 44
0.0000000001
 40
0.0
 40
0.0
 40
0.0
 40
0.0
 40
0.0185358727
 40
0.0379635463
 40
0.0582934936
 40
0.0795319911
 40
0.1016818981
 40
0.1247429202
 40
0.1487120353
 40
0.1735838307
 40
0.199350618
 40
0.2260028789
 40
0.281914274
 40
0.3412106219
 40
0.4037596301
 40
0.4694098262
 40
0.537992978
 40
0.609326108
 40
0.6832131012
 40
0.7594464177
 40
0.8378077739
 40
0.9180709479
 40
1.0
 40
1.0
 40
1.0
 40
1.0
 10
10.3434785751
 20
6.7183192985
 30
0.0
 10
10.3451212867
 20
6.7194990036
 30
0.0
 10
10.3485381005
 20
6.7218429037
 30
0.0
 10
10.3539176987
 20
6.7252385487
 30
0.0
 10
10.35966699
 20
6.7285932742
 30
0.0
 10
10.3657812927
 20
6.7319044171
 30
0.0
 10
10.3722558243
 20
6.7351693593
 30
0.0
 10
10.3790854342
 20
6.7383855156
 30
0.0
 10
10.3862646972
 20
6.7415503269
 30
0.0
 10
10.3937878925
 20
6.7446612323
 30
0.0
 10
10.4016490196
 20
6.7477158053
 30
0.0
 10
10.4127506501
 20
6.7517750011
 30
0.0
 10
10.4274367181
 20
6.7566744093
 30
0.0
 10
10.4460304555
 20
6.7622014418
 30
0.0
 10
10.4658063923
 20
6.7674482784
 30
0.0
 10
10.4867011422
 20
6.7723978852
 30
0.0
 10
10.5086479236
 20
6.7770341604
 30
0.0
 10
10.5315763671
 20
6.7813420247
 30
0.0
 10
10.5554129141
 20
6.7853074788
 30
0.0
 10
10.5800809767
 20
6.7889176215
 30
0.0
 10
10.6055013639
 20
6.7921607521
 30
0.0
 10
10.6315921949
 20
6.7950263021
 30
0.0
 10
10.6492138213
 20
6.7966635873
 30
0.0
 10
10.6581209851
 20
6.7974194227
 30
0.0
  0
SPLINE
  5
37D
100
AcDbEntity
  8
0
100
AcDbSpline
 62
7
  6
CONTINUOUS
 70
0
 71
3
 72
71
 73
67
 74
0
 42
0.0000001
 43
0.0000001
 44
0.0000000001
 40
0.0
 40
0.0
 40
0.0
 40
0.0
 40
0.0077182325
 40
0.0113232019
 40
0.0147722188
 40
0.0212544076
 40
0.0243260006
 40
0.0273091778
 40
0.030226123
 40
0.0331007798
 40
0.0359582479
 40
0.0388241206
 40
0.0417237398
 40
0.0446814999
 40
0.047720284
 40
0.0508609779
 40
0.0575164285
 40
0.0610661945
 40
0.0647794657
 40
0.0686665157
 40
0.0727358581
 40
0.0769945889
 40
0.0814484305
 40
0.09095717
 40
0.1012890762
 40
0.1124566923
 40
0.1244627144
 40
0.1373021088
 40
0.1509635526
 40
0.1654303786
 40
0.1806814581
 40
0.1966918541
 40
0.2134332024
 40
0.2308741033
 40
0.2489805255
 40
0.2677160248
 40
0.2870419216
 40
0.3069176064
 40
0.3273007196
 40
0.3694107142
 40
0.4130051275
 40
0.4576982081
 40
0.5030914414
 40
0.5487782381
 40
0.5943486715
 40
0.6393941383
 40
0.683512056
 40
0.7263105395
 40
0.747097243
 40
0.7674144905
 40
0.7872185127
 40
0.8064671728
 40
0.8251200903
 40
0.8431388875
 40
0.8604874439
 40
0.877132046
 40
0.8930416766
 40
0.908188441
 40
0.9225478693
 40
0.9360993721
 40
0.9488269776
 40
0.9607201709
 40
0.9717747984
 40
0.9819946616
 40
0.99139442
 40
1.0
 40
1.0
 40
1.0
 40
1.0
 10
12.7464459942
 20
7.354423067
 30
0.0
 10
12.747575078
 20
7.3554738257
 30
0.0
 10
12.7493054909
 20
7.3569408207
 30
0.0
 10
12.7517207745
 20
7.3586411732
 30
0.0
 10
12.7540290314
 20
7.360053783
 30
0.0
 10
12.756383898
 20
7.3611802997
 30
0.0
 10
12.7587637355
 20
7.3619716237
 30
0.0
 10
12.7605103341
 20
7.3623871836
 30
0.0
 10
12.7622489188
 20
7.3626345008
 30
0.0
 10
12.7639782309
 20
7.3627132665
 30
0.0
 10
12.7656968241
 20
7.3626232878
 30
0.0
 10
12.767403227
 20
7.3623645293
 30
0.0
 10
12.7690960285
 20
7.3619374
 30
0.0
 10
12.7707739033
 20
7.3613424406
 30
0.0
 10
12.7724357365
 20
7.3605802314
 30
0.0
 10
12.7746714182
 20
7.3593181161
 30
0.0
 10
12.7768302128
 20
7.3577331789
 30
0.0
 10
12.7789028139
 20
7.3558768227
 30
0.0
 10
12.7804706222
 20
7.3542915316
 30
0.0
 10
12.7820169681
 20
7.3525445655
 30
0.0
 10
12.7835413404
 20
7.3506368208
 30
0.0
 10
12.7850428445
 20
7.348569435
 30
0.0
 10
12.7870573248
 20
7.3455350952
 30
0.0
 10
12.7895028577
 20
7.3413358583
 30
0.0
 10
12.7922716079
 20
7.3357884739
 30
0.0
 10
12.7949294802
 20
7.3296398094
 30
0.0
 10
12.7974703797
 20
7.3229041508
 30
0.0
 10
12.7998883949
 20
7.3155968894
 30
0.0
 10
12.8021777384
 20
7.3077350661
 30
0.0
 10
12.8043329323
 20
7.2993371427
 30
0.0
 10
12.8063487779
 20
7.2904229597
 30
0.0
 10
12.808220373
 20
7.2810136432
 30
0.0
 10
12.8099431781
 20
7.2711315626
 30
0.0
 10
12.8115130294
 20
7.2608002605
 30
0.0
 10
12.8129261055
 20
7.2500443734
 30
0.0
 10
12.8141789636
 20
7.2388895736
 30
0.0
 10
12.8152685731
 20
7.227362519
 30
0.0
 10
12.8161923212
 20
7.2154907377
 30
0.0
 10
12.8172107107
 20
7.1990615063
 30
0.0
 10
12.8180418539
 20
7.1778745128
 30
0.0
 10
12.8183440667
 20
7.1518152383
 30
0.0
 10
12.8179579694
 20
7.1251009617
 30
0.0
 10
12.816886971
 20
7.097987079
 30
0.0
 10
12.8151411445
 20
7.0707326222
 30
0.0
 10
12.8127371305
 20
7.043598081
 30
0.0
 10
12.8096980167
 20
7.0168426899
 30
0.0
 10
12.8060530715
 20
6.9907222309
 30
0.0
 10
12.8025066363
 20
6.969490403
 30
0.0
 10
12.7993834224
 20
6.9530166456
 30
0.0
 10
12.7969357423
 20
6.9410932165
 30
0.0
 10
12.7943660317
 20
6.9295101049
 30
0.0
 10
12.7916804489
 20
6.9182949763
 30
0.0
 10
12.7888854509
 20
6.9074746392
 30
0.0
 10
12.7859877551
 20
6.8970749341
 30
0.0
 10
12.782994355
 20
6.8871206691
 30
0.0
 10
12.7799124533
 20
6.8776355735
 30
0.0
 10
12.7767494484
 20
6.8686422314
 30
0.0
 10
12.7735129683
 20
6.8601619939
 30
0.0
 10
12.7702107936
 20
6.8522149399
 30
0.0
 10
12.7668508104
 20
6.8448198235
 30
0.0
 10
12.7634410416
 20
6.8379939722
 30
0.0
 10
12.7599895284
 20
6.8317532266
 30
0.0
 10
12.756504329
 20
6.8261119907
 30
0.0
 10
12.7529931134
 20
6.8210827385
 30
0.0
 10
12.7494639108
 20
6.8166772897
 30
0.0
 10
12.7469979028
 20
6.8140497647
 30
0.0
 10
12.745761001
 20
6.8128550092
 30
0.0
  0
SPLINE
  5
37E
100
AcDbEntity
  8
0
100
AcDbSpline
 62
7
  6
CONTINUOUS
 70
0
 71
3
 72
39
 73
35
 74
0
 42
0.0000001
 43
0.0000001
 44
0.0000000001
 40
0.0
 40
0.0
 40
0.0
 40
0.0
 40
0.0311450437
 40
0.0624431125
 40
0.0938883331
 40
0.1254709822
 40
0.157178873
 40
0.1889972474
 40
0.2209091591
 40
0.2528958248
 40
0.2849370022
 40
0.3170113907
 40
0.3490970489
 40
0.3811718181
 40
0.4132137492
 40
0.4452015278
 40
0.4771148901
 40
0.5089350229
 40
0.5406449458
 40
0.5722298665
 40
0.6036774985
 40
0.6349783412
 40
0.6661259148
 40
0.6971169386
 40
0.7279514454
 40
0.7586328312
 40
0.789167835
 40
0.8195664378
 40
0.8498416821
 40
0.8800094162
 40
0.9100879636
 40
0.9400977212
 40
0.9700606965
 40
1.0
 40
1.0
 40
1.0
 40
1.0
 10
10.4256809867
 20
6.2385852418
 30
0.0
 10
10.4109391163
 20
6.2396075939
 30
0.0
 10
10.3814468062
 20
6.2427363646
 30
0.0
 10
10.3375659
 20
6.2506178416
 30
0.0
 10
10.2941549989
 20
6.2616573817
 30
0.0
 10
10.2514485399
 20
6.2757956686
 30
0.0
 10
10.2096734333
 20
6.2929569508
 30
0.0
 10
10.1690525047
 20
6.313049383
 30
0.0
 10
10.129802139
 20
6.3359655878
 30
0.0
 10
10.092131495
 20
6.3615832286
 30
0.0
 10
10.0562413003
 20
6.3897656333
 30
0.0
 10
10.0223227658
 20
6.420362457
 30
0.0
 10
9.9905566365
 20
6.4532105712
 30
0.0
 10
9.9611122465
 20
6.4881349134
 30
0.0
 10
9.934146598
 20
6.524949379
 30
0.0
 10
9.9098034797
 20
6.5634577746
 30
0.0
 10
9.8882127886
 20
6.6034549178
 30
0.0
 10
9.8694898473
 20
6.6447277047
 30
0.0
 10
9.8537347389
 20
6.6870562014
 30
0.0
 10
9.8410317393
 20
6.7302147995
 30
0.0
 10
9.8314489519
 20
6.7739734373
 30
0.0
 10
9.8250379415
 20
6.8180987955
 30
0.0
 10
9.8218333719
 20
6.8623555085
 30
0.0
 10
9.8218528003
 20
6.9065074176
 30
0.0
 10
9.825096645
 20
6.9503188231
 30
0.0
 10
9.8315481616
 20
6.9935557177
 30
0.0
 10
9.8411734087
 20
7.0359870401
 30
0.0
 10
9.8539214334
 20
7.0773859267
 30
0.0
 10
9.8697245562
 20
7.1175308952
 30
0.0
 10
9.8884987815
 20
7.1562071046
 30
0.0
 10
9.9101438354
 20
7.1932072942
 30
0.0
 10
9.9345448057
 20
7.2283339501
 30
0.0
 10
9.9615688328
 20
7.2613965049
 30
0.0
 10
9.9812459023
 20
7.2819527176
 30
0.0
 10
9.991463037
 20
7.2918217458
 30
0.0
  0
SPLINE
  5
37F
100
AcDbEntity
  8
0
100
AcDbSpline
 62
7
  6
CONTINUOUS
 70
0
 71
3
 72
23
 73
19
 74
0
 42
0.0000001
 43
0.0000001
 44
0.0000000001
 40
0.0
 40
0.0
 40
0.0
 40
0.0
 40
0.063836559
 40
0.1274608663
 40
0.1908696611
 40
0.2540697364
 40
0.3170656864
 40
0.3798653477
 40
0.4424783553
 40
0.504916117
 40
0.5671918565
 40
0.6293204092
 40
0.6913181211
 40
0.7532026838
 40
0.8149929547
 40
0.8767087649
 40
0.9383707217
 40
1.0
 40
1.0
 40
1.0
 40
1.0
 10
10.4339631895
 20
9.5143122695
 30
0.0
 10
10.4416486881
 20
9.5137792783
 30
0.0
 10
10.4570224812
 20
9.5130855452
 30
0.0
 10
10.4800656962
 20
9.5131684831
 30
0.0
 10
10.5030010942
 20
9.5143767003
 30
0.0
 10
10.5257734722
 20
9.5167071458
 30
0.0
 10
10.5483294765
 20
9.5201545728
 30
0.0
 10
10.57061566
 20
9.5247108204
 30
0.0
 10
10.5925793977
 20
9.5303651543
 30
0.0
 10
10.614168775
 20
9.5371042718
 30
0.0
 10
10.6353327494
 20
9.544912306
 30
0.0
 10
10.6560212731
 20
9.5537708734
 30
0.0
 10
10.6761854369
 20
9.5636590348
 30
0.0
 10
10.6957775743
 20
9.5745534528
 30
0.0
 10
10.7147513063
 20
9.5864283685
 30
0.0
 10
10.7330618962
 20
9.599255902
 30
0.0
 10
10.7506654517
 20
9.6130051927
 30
0.0
 10
10.7619052034
 20
9.6227669777
 30
0.0
 10
10.7673916477
 20
9.6277885801
 30
0.0
  0
SPLINE
  5
380
100
AcDbEntity
  8
0
100
AcDbSpline
 62
7
  6
CONTINUOUS
 70
0
 71
3
 72
39
 73
35
 74
0
 42
0.0000001
 43
0.0000001
 44
0.0000000001
 40
0.0
 40
0.0
 40
0.0
 40
0.0
 40
0.0311300277
 40
0.0624114278
 40
0.0938385364
 40
0.1254018518
 40
0.1570895991
 40
0.188887434
 40
0.220778901
 40
0.2527457366
 40
0.284768238
 40
0.3168256454
 40
0.3488965394
 40
0.3809592458
 40
0.4129922447
 40
0.4449745772
 40
0.476886246
 40
0.5087086015
 40
0.5404247106
 40
0.5720196993
 40
0.603481066
 40
0.6347989571
 40
0.6659663993
 40
0.6969794831
 40
0.7278374871
 40
0.7585429411
 40
0.7891016205
 40
0.8195224695
 40
0.8498174502
 40
0.8800013177
 40
0.9100913224
 40
0.9401068436
 40
0.970068965
 40
1.0
 40
1.0
 40
1.0
 40
1.0
 10
10.4339631895
 20
9.5143122695
 30
0.0
 10
10.4224829812
 20
9.5151084246
 30
0.0
 10
10.3995160235
 20
9.5175358419
 30
0.0
 10
10.3653390011
 20
9.5236336438
 30
0.0
 10
10.3315202133
 20
9.5321653236
 30
0.0
 10
10.2982384097
 20
9.5430860332
 30
0.0
 10
10.2656666577
 20
9.5563384491
 30
0.0
 10
10.2339750053
 20
9.5718532143
 30
0.0
 10
10.2033286961
 20
9.5895491827
 30
0.0
 10
10.1738875633
 20
9.6093338826
 30
0.0
 10
10.145805128
 20
9.6311039759
 30
0.0
 10
10.1192278393
 20
9.6547458174
 30
0.0
 10
10.094294312
 20
9.6801360378
 30
0.0
 10
10.0711346144
 20
9.7071421826
 30
0.0
 10
10.0498695955
 20
9.7356233947
 30
0.0
 10
10.0306102646
 20
9.7654311427
 30
0.0
 10
10.0134571954
 20
9.7964099743
 30
0.0
 10
9.9985000147
 20
9.8283983283
 30
0.0
 10
9.9858169448
 20
9.8612293712
 30
0.0
 10
9.9754743939
 20
9.8947318541
 30
0.0
 10
9.9675266085
 20
9.9287309933
 30
0.0
 10
9.9620153862
 20
9.9630493691
 30
0.0
 10
9.9589698477
 20
9.9975078382
 30
0.0
 10
9.9584062511
 20
10.0319264569
 30
0.0
 10
9.9603279198
 20
10.0661254155
 30
0.0
 10
9.9647252062
 20
10.0999259682
 30
0.0
 10
9.9715755227
 20
10.13315136
 30
0.0
 10
9.9808434415
 20
10.1656277544
 30
0.0
 10
9.9924808454
 20
10.1971851293
 30
0.0
 10
10.0064271996
 20
10.2276582412
 30
0.0
 10
10.0226096343
 20
10.2568872944
 30
0.0
 10
10.0409441304
 20
10.2847195944
 30
0.0
 10
10.0613329726
 20
10.3110073838
 30
0.0
 10
10.0762324615
 20
10.3274199492
 30
0.0
 10
10.0839813496
 20
10.3353179905
 30
0.0
  0
SPLINE
  5
381
100
AcDbEntity
  8
0
100
AcDbSpline
 62
7
  6
CONTINUOUS
 70
0
 71
3
 72
39
 73
35
 74
0
 42
0.0000001
 43
0.0000001
 44
0.0000000001
 40
0.0
 40
0.0
 40
0.0
 40
0.0
 40
0.0313810669
 40
0.0629528764
 40
0.0947042976
 40
0.1266173584
 40
0.1586694053
 40
0.1908334352
 40
0.2230790158
 40
0.2553732407
 40
0.2876817343
 40
0.319969692
 40
0.3522029276
 40
0.3843489087
 40
0.4163777532
 40
0.4482631707
 40
0.4799833267
 40
0.5115215863
 40
0.542867129
 40
0.5740154125
 40
0.6049684325
 40
0.6357347762
 40
0.6663294578
 40
0.6967735026
 40
0.7270932913
 40
0.7573196876
 40
0.7874869617
 40
0.8176315538
 40
0.8477907422
 40
0.8780012664
 40
0.908297976
 40
0.9387125747
 40
0.9692725066
 40
1.0
 40
1.0
 40
1.0
 40
1.0
 10
10.4339631895
 20
9.6910767062
 30
0.0
 10
10.4248512729
 20
9.6917086197
 30
0.0
 10
10.4066194476
 20
9.6938111143
 30
0.0
 10
10.3795956109
 20
9.6994184865
 30
0.0
 10
10.3530247105
 20
9.7074424468
 30
0.0
 10
10.3271305769
 20
9.7178156989
 30
0.0
 10
10.3021276575
 20
9.7304514385
 30
0.0
 10
10.2782238688
 20
9.7452442018
 30
0.0
 10
10.2556177585
 20
9.7620708026
 30
0.0
 10
10.2344971494
 20
9.7807911975
 30
0.0
 10
10.2150374918
 20
9.8012496639
 30
0.0
 10
10.1974005693
 20
9.8232761882
 30
0.0
 10
10.1817331072
 20
9.8466877689
 30
0.0
 10
10.1681654706
 20
9.8712898649
 30
0.0
 10
10.1568107528
 20
9.8968780985
 30
0.0
 10
10.1477638261
 20
9.923239874
 30
0.0
 10
10.1411003693
 20
9.950156051
 30
0.0
 10
10.1368764059
 20
9.9774028083
 30
0.0
 10
10.1351278519
 20
10.0047534385
 30
0.0
 10
10.1358699763
 20
10.0319801745
 30
0.0
 10
10.13909735
 20
10.0588560926
 30
0.0
 10
10.1447839308
 20
10.0851569531
 30
0.0
 10
10.1528830357
 20
10.1106630817
 30
0.0
 10
10.1633276808
 20
10.1351612512
 30
0.0
 10
10.1760312307
 20
10.1584464413
 30
0.0
 10
10.1908879544
 20
10.1803236346
 30
0.0
 10
10.2077738028
 20
10.2006096059
 30
0.0
 10
10.2265476329
 20
10.2191344256
 30
0.0
 10
10.2470523346
 20
10.2357429535
 30
0.0
 10
10.2691161768
 20
10.2502963707
 30
0.0
 10
10.2925541289
 20
10.2626731727
 30
0.0
 10
10.3171707569
 20
10.272770349
 30
0.0
 10
10.3427570015
 20
10.2805036727
 30
0.0
 10
10.3602748332
 20
10.2840316308
 30
0.0
 10
10.3691152161
 20
10.2853862959
 30
0.0
  0
SPLINE
  5
382
100
AcDbEntity
  8
0
100
AcDbSpline
 62
7
  6
CONTINUOUS
 70
0
 71
3
 72
39
 73
35
 74
0
 42
0.0000001
 43
0.0000001
 44
0.0000000001
 40
0.0
 40
0.0
 40
0.0
 40
0.0
 40
0.0313680404
 40
0.0629228174
 40
0.0946539557
 40
0.126544449
 40
0.1585729947
 40
0.1907141005
 40
0.222938978
 40
0.2552164043
 40
0.2875136361
 40
0.319797359
 40
0.3520346486
 40
0.3841939212
 40
0.4162458585
 40
0.4481642887
 40
0.4799269933
 40
0.511516424
 40
0.5429203104
 40
0.5741321329
 40
0.6051514261
 40
0.6359839042
 40
0.6666413906
 40
0.6971415362
 40
0.7275073129
 40
0.7577663029
 40
0.7879497993
 40
0.8180917425
 40
0.848227538
 40
0.8783928081
 40
0.9086221356
 40
0.9389478509
 40
0.9693989216
 40
1.0
 40
1.0
 40
1.0
 40
1.0
 10
10.4613979857
 20
9.7393399576
 30
0.0
 10
10.453132705
 20
9.7399131568
 30
0.0
 10
10.4365951862
 20
9.741803786
 30
0.0
 10
10.4120718174
 20
9.7468183858
 30
0.0
 10
10.3879418848
 20
9.7539801477
 30
0.0
 10
10.3644000054
 20
9.7632315516
 30
0.0
 10
10.3416329135
 20
9.7744985182
 30
0.0
 10
10.3198219044
 20
9.7876909967
 30
0.0
 10
10.2991404248
 20
9.8027037254
 30
0.0
 10
10.279753019
 20
9.8194170718
 30
0.0
 10
10.2618139656
 20
9.8376979621
 30
0.0
 10
10.2454660138
 20
9.8574008548
 30
0.0
 10
10.2308393322
 20
9.8783689699
 30
0.0
 10
10.2180504941
 20
9.9004355053
 30
0.0
 10
10.2072015577
 20
9.9234249289
 30
0.0
 10
10.1983791643
 20
9.9471543093
 30
0.0
 10
10.1916539474
 20
9.9714348015
 30
0.0
 10
10.1870799666
 20
9.9960731062
 30
0.0
 10
10.1846942532
 20
10.0208729648
 30
0.0
 10
10.184516389
 20
10.0456366884
 30
0.0
 10
10.1865484312
 20
10.0701667284
 30
0.0
 10
10.19077485
 20
10.094267218
 30
0.0
 10
10.1971625834
 20
10.1177455197
 30
0.0
 10
10.2056611507
 20
10.1404138049
 30
0.0
 10
10.2162031204
 20
10.1620905579
 30
0.0
 10
10.2287045942
 20
10.1826020562
 30
0.0
 10
10.2430658225
 20
10.2017838175
 30
0.0
 10
10.259171925
 20
10.2194820473
 30
0.0
 10
10.2768939067
 20
10.2355548669
 30
0.0
 10
10.2960897914
 20
10.2498735157
 30
0.0
 10
10.3166054889
 20
10.2623233688
 30
0.0
 10
10.3382771752
 20
10.272805207
 30
0.0
 10
10.3609285369
 20
10.2812349649
 30
0.0
 10
10.3765265382
 20
10.2854323934
 30
0.0
 10
10.3844198686
 20
10.2871710917
 30
0.0
  0
SPLINE
  5
383
100
AcDbEntity
  8
0
100
AcDbSpline
 62
7
  6
CONTINUOUS
 70
0
 71
3
 72
42
 73
38
 74
0
 42
0.0000001
 43
0.0000001
 44
0.0000000001
 40
0.0
 40
0.0
 40
0.0
 40
0.0
 40
0.0311443918
 40
0.0467772358
 40
0.0624471561
 40
0.093891822
 40
0.125473962
 40
0.1571813366
 40
0.1889991927
 40
0.2209105852
 40
0.2528967304
 40
0.2849373857
 40
0.3170112516
 40
0.3490963869
 40
0.3811706329
 40
0.413212041
 40
0.4451992971
 40
0.4771121372
 40
0.5089317491
 40
0.540641153
 40
0.5722255557
 40
0.603672671
 40
0.6349729995
 40
0.6661200617
 40
0.6971105757
 40
0.7279445745
 40
0.7586254556
 40
0.7891599574
 40
0.8195580601
 40
0.8498328063
 40
0.864931569
 40
0.8800056544
 40
0.9100837087
 40
0.9400929747
 40
0.9550814997
 40
0.970061185
 40
1.0
 40
1.0
 40
1.0
 40
1.0
 10
10.4696721661
 20
9.7782118915
 30
0.0
 10
10.463669296
 20
9.778628192
 30
0.0
 10
10.454671758
 20
9.7795827783
 30
0.0
 10
10.442758221
 20
9.7815010976
 30
0.0
 10
10.430863595
 20
9.7838562056
 30
0.0
 10
10.4161144787
 20
9.7876069368
 30
0.0
 10
10.3987246836
 20
9.7933639991
 30
0.0
 10
10.3817137582
 20
9.8003521007
 30
0.0
 10
10.3651729168
 20
9.8085337517
 30
0.0
 10
10.3491901484
 20
9.817865259
 30
0.0
 10
10.3338506525
 20
9.8282967909
 30
0.0
 10
10.3192361488
 20
9.8397726872
 30
0.0
 10
10.3054245119
 20
9.8522317415
 30
0.0
 10
10.2924893437
 20
9.8656075287
 30
0.0
 10
10.2804995897
 20
9.8798287548
 30
0.0
 10
10.2695191737
 20
9.8948196332
 30
0.0
 10
10.259606661
 20
9.9105002846
 30
0.0
 10
10.2508149481
 20
9.9267871578
 30
0.0
 10
10.2431909826
 20
9.94359347
 30
0.0
 10
10.2367755135
 20
9.9608296632
 30
0.0
 10
10.2316028741
 20
9.9784038753
 30
0.0
 10
10.2277007972
 20
9.9962224235
 30
0.0
 10
10.2250902645
 20
10.0141902962
 30
0.0
 10
10.2237853907
 20
10.0322116545
 30
0.0
 10
10.2237933394
 20
10.0501903321
 30
0.0
 10
10.2251142861
 20
10.0680303618
 30
0.0
 10
10.2277413741
 20
10.0856364132
 30
0.0
 10
10.2316608628
 20
10.1029145613
 30
0.0
 10
10.2368517338
 20
10.1197718218
 30
0.0
 10
10.2422199235
 20
10.1334083751
 30
0.0
 10
10.2471187607
 20
10.1440128657
 30
0.0
 10
10.2524054245
 20
10.1543868385
 30
0.0
 10
10.2597457781
 20
10.1669346432
 30
0.0
 10
10.2680301487
 20
10.1788602453
 30
0.0
 10
10.2751891351
 20
10.187975825
 30
0.0
 10
10.2826895371
 20
10.1967939442
 30
0.0
 10
10.288698722
 20
10.2030716536
 30
0.0
 10
10.2928591534
 20
10.2070903185
 30
0.0
  0
SPLINE
  5
384
100
AcDbEntity
  8
0
100
AcDbSpline
 62
7
  6
CONTINUOUS
 70
0
 71
3
 72
39
 73
35
 74
0
 42
0.0000001
 43
0.0000001
 44
0.0000000001
 40
0.0
 40
0.0
 40
0.0
 40
0.0
 40
0.0309435837
 40
0.0620205678
 40
0.0932249756
 40
0.1245516591
 40
0.1559919501
 40
0.187536123
 40
0.2191726788
 40
0.250888804
 40
0.2826704988
 40
0.3145028054
 40
0.3463700306
 40
0.3782559754
 40
0.4101441699
 40
0.4420181115
 40
0.4738615025
 40
0.5056584868
 40
0.537393884
 40
0.5690534147
 40
0.6006239165
 40
0.6320935463
 40
0.6634519686
 40
0.6946905261
 40
0.7258023893
 40
0.7567826853
 40
0.787628599
 40
0.8183394435
 40
0.8489166985
 40
0.879364014
 40
0.9096871785
 40
0.9398940491
 40
0.9699944442
 40
1.0
 40
1.0
 40
1.0
 40
1.0
 10
10.5927095555
 20
9.9091309641
 30
0.0
 10
10.5877684169
 20
9.9094736332
 30
0.0
 10
10.5778837732
 20
9.9104733743
 30
0.0
 10
10.5631510081
 20
9.9128999024
 30
0.0
 10
10.5485363667
 20
9.9162471964
 30
0.0
 10
10.5340991981
 20
9.9205015067
 30
0.0
 10
10.5198969317
 20
9.9256459152
 30
0.0
 10
10.5059864496
 20
9.9316596938
 30
0.0
 10
10.4924233425
 20
9.9385187753
 30
0.0
 10
10.479261842
 20
9.9461956752
 30
0.0
 10
10.466554562
 20
9.9546596592
 30
0.0
 10
10.4543522969
 20
9.9638768457
 30
0.0
 10
10.4427038245
 20
9.9738103557
 30
0.0
 10
10.4316557119
 20
9.9844204563
 30
0.0
 10
10.4212521323
 20
9.9956647187
 30
0.0
 10
10.4115346895
 20
10.0074981858
 30
0.0
 10
10.402542254
 20
10.0198735502
 30
0.0
 10
10.3943108074
 20
10.0327413411
 30
0.0
 10
10.386873287
 20
10.0460501129
 30
0.0
 10
10.3802594663
 20
10.0597466599
 30
0.0
 10
10.374495837
 20
10.0737762251
 30
0.0
 10
10.3696055033
 20
10.0880827176
 30
0.0
 10
10.3656080896
 20
10.1026089331
 30
0.0
 10
10.3625196613
 20
10.1172967799
 30
0.0
 10
10.3603526614
 20
10.1320875086
 30
0.0
 10
10.3591158465
 20
10.146921943
 30
0.0
 10
10.3588142519
 20
10.1617407174
 30
0.0
 10
10.3594491791
 20
10.1764845146
 30
0.0
 10
10.3610181827
 20
10.1910942942
 30
0.0
 10
10.3635150889
 20
10.2055115515
 30
0.0
 10
10.3669299698
 20
10.2196784623
 30
0.0
 10
10.371249352
 20
10.2335384411
 30
0.0
 10
10.3764556216
 20
10.2470351574
 30
0.0
 10
10.3805106515
 20
10.2557690607
 30
0.0
 10
10.3826778922
 20
10.2600551468
 30
0.0
  0
SPLINE
  5
385
100
AcDbEntity
  8
0
100
AcDbSpline
 62
7
  6
CONTINUOUS
 70
0
 71
3
 72
39
 73
35
 74
0
 42
0.0000001
 43
0.0000001
 44
0.0000000001
 40
0.0
 40
0.0
 40
0.0
 40
0.0
 40
0.0309090422
 40
0.0619482041
 40
0.0931114601
 40
0.1243943341
 40
0.155788658
 40
0.187285414
 40
0.2188738978
 40
0.2505421589
 40
0.282277125
 40
0.3140647954
 40
0.3458904428
 40
0.3777388158
 40
0.4095943493
 40
0.441441378
 40
0.4732643542
 40
0.5050480625
 40
0.5367778298
 40
0.5684397296
 40
0.6000207786
 40
0.6315091243
 40
0.6628942249
 40
0.6941670122
 40
0.7253200366
 40
0.7563475916
 40
0.7872458177
 40
0.8180127812
 40
0.8486485299
 40
0.8791551198
 40
0.9095366085
 40
0.939799015
 40
0.9699502481
 40
1.0
 40
1.0
 40
1.0
 40
1.0
 10
10.5918426767
 20
9.89621955
 30
0.0
 10
10.5867804446
 20
9.896570617
 30
0.0
 10
10.5766536355
 20
9.8975865245
 30
0.0
 10
10.5615558587
 20
9.9000358045
 30
0.0
 10
10.5465729399
 20
9.9034047706
 30
0.0
 10
10.5317626651
 20
9.9076802364
 30
0.0
 10
10.5171809292
 20
9.9128461006
 30
0.0
 10
10.5028831808
 20
9.9188825959
 30
0.0
 10
10.4889236595
 20
9.9257668021
 30
0.0
 10
10.4753553462
 20
9.9334725266
 30
0.0
 10
10.4622297215
 20
9.9419704754
 30
0.0
 10
10.4495965889
 20
9.9512283616
 30
0.0
 10
10.4375038848
 20
9.9612110252
 30
0.0
 10
10.4259974998
 20
9.9718805669
 30
0.0
 10
10.415121108
 20
9.98319649
 30
0.0
 10
10.4049159987
 20
9.9951158486
 30
0.0
 10
10.3954209041
 20
10.0075933982
 30
0.0
 10
10.3866718728
 20
10.0205817856
 30
0.0
 10
10.3787021318
 20
10.0340317236
 30
0.0
 10
10.3715419628
 20
10.0478921765
 30
0.0
 10
10.3652185875
 20
10.0621105502
 30
0.0
 10
10.3597560681
 20
10.0766328899
 30
0.0
 10
10.3551751907
 20
10.0914040751
 30
0.0
 10
10.3514934007
 20
10.1063680351
 30
0.0
 10
10.3487247443
 20
10.1214679624
 30
0.0
 10
10.3468798122
 20
10.1366465235
 30
0.0
 10
10.3459656979
 20
10.1518460733
 30
0.0
 10
10.3459859725
 20
10.1670088727
 30
0.0
 10
10.3469406516
 20
10.1820772993
 30
0.0
 10
10.3488261937
 20
10.1969940931
 30
0.0
 10
10.3516354957
 20
10.2117024846
 30
0.0
 10
10.3553580554
 20
10.2261467364
 30
0.0
 10
10.3599794768
 20
10.2402711401
 30
0.0
 10
10.3636545547
 20
10.2494545304
 30
0.0
 10
10.3656352342
 20
10.2539727769
 30
0.0
  0
SPLINE
  5
386
100
AcDbEntity
  8
0
100
AcDbSpline
 62
7
  6
CONTINUOUS
 70
0
 71
3
 72
23
 73
19
 74
0
 42
0.0000001
 43
0.0000001
 44
0.0000000001
 40
0.0
 40
0.0
 40
0.0
 40
0.0
 40
0.0639437083
 40
0.1275045299
 40
0.1906968448
 40
0.2535439333
 40
0.3160809001
 40
0.3783525407
 40
0.4404122346
 40
0.5023202862
 40
0.5641419975
 40
0.625945536
 40
0.6877996719
 40
0.7497714946
 40
0.8119242021
 40
0.8743150516
 40
0.9369935559
 40
1.0
 40
1.0
 40
1.0
 40
1.0
 10
10.4339631895
 20
9.6910767062
 30
0.0
 10
10.4425558441
 20
9.6904808035
 30
0.0
 10
10.4597503767
 20
9.6900291228
 30
0.0
 10
10.4854210534
 20
9.6915979549
 30
0.0
 10
10.5107097611
 20
9.6954031715
 30
0.0
 10
10.5354241023
 20
9.7014171447
 30
0.0
 10
10.5593787635
 20
9.7095951726
 30
0.0
 10
10.5823932763
 20
9.7198762758
 30
0.0
 10
10.6042943372
 20
9.7321834952
 30
0.0
 10
10.6249168857
 20
9.7464245081
 30
0.0
 10
10.6441054584
 20
9.7624923019
 30
0.0
 10
10.6617154596
 20
9.7802659163
 30
0.0
 10
10.6776142809
 20
9.7996114136
 30
0.0
 10
10.6916823204
 20
9.8203830325
 30
0.0
 10
10.7038138368
 20
9.8424240415
 30
0.0
 10
10.7139180162
 20
9.8655690273
 30
0.0
 10
10.7219188724
 20
9.889641102
 30
0.0
 10
10.7258012629
 20
9.906147193
 30
0.0
 10
10.7273767293
 20
9.9144867248
 30
0.0
  0
SPLINE
  5
387
100
AcDbEntity
  8
0
100
AcDbSpline
 62
7
  6
CONTINUOUS
 70
0
 71
3
 72
26
 73
22
 74
0
 42
0.0000001
 43
0.0000001
 44
0.0000000001
 40
0.0
 40
0.0
 40
0.0
 40
0.0
 40
0.0639740323
 40
0.0958299311
 40
0.1275949033
 40
0.1908471247
 40
0.253764907
 40
0.2851150542
 40
0.3163939013
 40
0.3476066547
 40
0.3787590261
 40
0.4408925159
 40
0.5028630858
 40
0.5647294611
 40
0.6265535335
 40
0.6883984853
 40
0.7503268614
 40
0.8123986674
 40
0.8746695663
 40
0.9371892437
 40
1.0
 40
1.0
 40
1.0
 40
1.0
 10
10.4613979857
 20
9.7393399576
 30
0.0
 10
10.4690306423
 20
9.7388106311
 30
0.0
 10
10.4805043215
 20
9.738488702
 30
0.0
 10
10.4957580933
 20
9.7390186437
 30
0.0
 10
10.5108909119
 20
9.7401821707
 30
0.0
 10
10.5296180371
 20
9.7428219324
 30
0.0
 10
10.5480037853
 20
9.7470404174
 30
0.0
 10
10.5623938319
 20
9.7513403195
 30
0.0
 10
10.573001095
 20
9.7550178116
 30
0.0
 10
10.5834161645
 20
9.7591451681
 30
0.0
 10
10.5970088665
 20
9.765232012
 30
0.0
 10
10.6134426923
 20
9.7739308821
 30
0.0
 10
10.6321285037
 20
9.7860459862
 30
0.0
 10
10.6496386289
 20
9.7997473965
 30
0.0
 10
10.6658509727
 20
9.8149400947
 30
0.0
 10
10.6806537435
 20
9.8315191963
 30
0.0
 10
10.6939446346
 20
9.8493700803
 30
0.0
 10
10.7056319241
 20
9.8683691613
 30
0.0
 10
10.7156352475
 20
9.8883856107
 30
0.0
 10
10.7238853326
 20
9.9092789735
 30
0.0
 10
10.7281694414
 20
9.9236655047
 30
0.0
 10
10.7300035756
 20
9.9309500154
 30
0.0
  0
SPLINE
  5
388
100
AcDbEntity
  8
0
100
AcDbSpline
 62
7
  6
CONTINUOUS
 70
0
 71
3
 72
21
 73
17
 74
0
 42
0.0000001
 43
0.0000001
 44
0.0000000001
 40
0.0
 40
0.0
 40
0.0
 40
0.0
 40
0.1274737985
 40
0.2540667908
 40
0.3170668583
 40
0.3798654312
 40
0.4424734233
 40
0.504903362
 40
0.5671697538
 40
0.6292888978
 40
0.6912786558
 40
0.7531583368
 40
0.8149484605
 40
0.8766705167
 40
0.938346769
 40
1.0
 40
1.0
 40
1.0
 40
1.0
 10
10.4696721661
 20
9.7782118915
 30
0.0
 10
10.4778624884
 20
9.7776438907
 30
0.0
 10
10.4942543429
 20
9.7773239859
 30
0.0
 10
10.514643751
 20
9.7789957246
 30
0.0
 10
10.5307004136
 20
9.7815688861
 30
0.0
 10
10.5425723339
 20
9.7841061747
 30
0.0
 10
10.554260689
 20
9.7872474365
 30
0.0
 10
10.5657363828
 20
9.7909847974
 30
0.0
 10
10.5769704344
 20
9.7953088175
 30
0.0
 10
10.5879345455
 20
9.8002086872
 30
0.0
 10
10.5986010707
 20
9.8056720985
 30
0.0
 10
10.6089431719
 20
9.8116852492
 30
0.0
 10
10.618934745
 20
9.8182330204
 30
0.0
 10
10.6285506651
 20
9.8252990493
 30
0.0
 10
10.6377664202
 20
9.8328651587
 30
0.0
 10
10.6436291631
 20
9.8382310422
 30
0.0
 10
10.6464851787
 20
9.8409897393
 30
0.0
  0
SPLINE
  5
389
100
AcDbEntity
  8
0
100
AcDbSpline
 62
7
  6
CONTINUOUS
 70
0
 71
3
 72
15
 73
11
 74
0
 42
0.0000001
 43
0.0000001
 44
0.0000000001
 40
0.0
 40
0.0
 40
0.0
 40
0.0
 40
0.1265879346
 40
0.2527052045
 40
0.3783419536
 40
0.5035180982
 40
0.6282472654
 40
0.7525515287
 40
0.8764584154
 40
1.0
 40
1.0
 40
1.0
 40
1.0
 10
10.5918426767
 20
9.89621955
 30
0.0
 10
10.5963096083
 20
9.8959097672
 30
0.0
 10
10.6052455948
 20
9.8955332785
 30
0.0
 10
10.6186336332
 20
9.8957027888
 30
0.0
 10
10.6319425855
 20
9.8966073307
 30
0.0
 10
10.6451319546
 20
9.8982440234
 30
0.0
 10
10.6581626951
 20
9.9006082055
 30
0.0
 10
10.6709959415
 20
9.9036928458
 30
0.0
 10
10.6835928781
 20
9.90748855
 30
0.0
 10
10.6918208535
 20
9.9104902225
 30
0.0
 10
10.6958813353
 20
9.9121053258
 30
0.0
  0
SPLINE
  5
38A
100
AcDbEntity
  8
0
100
AcDbSpline
 62
7
  6
CONTINUOUS
 70
0
 71
3
 72
24
 73
20
 74
0
 42
0.0000001
 43
0.0000001
 44
0.0000000001
 40
0.0
 40
0.0
 40
0.0
 40
0.0
 40
0.0755925909
 40
0.1466352375
 40
0.2134610851
 40
0.2454346742
 40
0.2765272927
 40
0.3363373944
 40
0.3935565559
 40
0.4489316461
 40
0.5032955233
 40
0.5575322568
 40
0.6125325048
 40
0.6691475563
 40
0.7281521761
 40
0.7902217656
 40
0.8559251613
 40
0.9257271518
 40
1.0
 40
1.0
 40
1.0
 40
1.0
 10
12.745761001
 20
6.8128550092
 30
0.0
 10
12.7449828234
 20
6.8121033473
 30
0.0
 10
12.743427427
 20
6.8106914589
 30
0.0
 10
12.7410204533
 20
6.8088053038
 30
0.0
 10
12.7389876978
 20
6.8074659528
 30
0.0
 10
12.7373665213
 20
6.8065546314
 30
0.0
 10
12.7357925368
 20
6.8057688191
 30
0.0
 10
12.7338245758
 20
6.8049684586
 30
0.0
 10
12.7314419716
 20
6.8043046918
 30
0.0
 10
12.7290718745
 20
6.8039524122
 30
0.0
 10
12.7267183851
 20
6.8039132774
 30
0.0
 10
12.724385989
 20
6.8041879129
 30
0.0
 10
12.7220792133
 20
6.8047754481
 30
0.0
 10
12.7198019705
 20
6.805673929
 30
0.0
 10
12.7175572922
 20
6.8068807373
 30
0.0
 10
12.7153474286
 20
6.808393087
 30
0.0
 10
12.7131741972
 20
6.8102083908
 30
0.0
 10
12.7110393036
 20
6.8123239201
 30
0.0
 10
12.709686273
 20
6.8138826654
 30
0.0
 10
12.709015535
 20
6.814707378
 30
0.0
  0
SPLINE
  5
38B
100
AcDbEntity
  8
0
100
AcDbSpline
 62
7
  6
CONTINUOUS
 70
0
 71
3
 72
11
 73
7
 74
0
 42
0.0000001
 43
0.0000001
 44
0.0000000001
 40
0.0
 40
0.0
 40
0.0
 40
0.0
 40
0.2500079969
 40
0.4998241675
 40
0.7497555043
 40
1.0
 40
1.0
 40
1.0
 40
1.0
 10
11.0228494422
 20
6.7139439752
 30
0.0
 10
11.0139188467
 20
6.7128650905
 30
0.0
 10
10.9960084331
 20
6.7111475698
 30
0.0
 10
10.9690520235
 20
6.7098687039
 30
0.0
 10
10.9420570814
 20
6.7098627058
 30
0.0
 10
10.9240719661
 20
6.7106946592
 30
0.0
 10
10.9150895029
 20
6.7113175951
 30
0.0
  0
SPLINE
  5
38C
100
AcDbEntity
  8
0
100
AcDbSpline
 62
7
  6
CONTINUOUS
 70
0
 71
3
 72
19
 73
15
 74
0
 42
0.0000001
 43
0.0000001
 44
0.0000000001
 40
0.0
 40
0.0
 40
0.0
 40
0.0
 40
0.1273276594
 40
0.2538196703
 40
0.3795264652
 40
0.5045235359
 40
0.5668075957
 40
0.6289556126
 40
0.6909843719
 40
0.7529118459
 40
0.8147570133
 40
0.8765397124
 40
0.9382804148
 40
1.0
 40
1.0
 40
1.0
 40
1.0
 10
11.4739372326
 20
6.1731229884
 30
0.0
 10
11.4739372326
 20
6.1803297187
 30
0.0
 10
11.4746253164
 20
6.1947057952
 30
0.0
 10
11.4777372596
 20
6.2159936942
 30
0.0
 10
11.4828968348
 20
6.236745702
 30
0.0
 10
11.4888737828
 20
6.2534564565
 30
0.0
 10
11.4946219707
 20
6.2663563398
 30
0.0
 10
11.4994019883
 20
6.2757707538
 30
0.0
 10
11.504644158
 20
6.2849123428
 30
0.0
 10
11.5103365485
 20
6.2937603242
 30
0.0
 10
11.5164660266
 20
6.3022941561
 30
0.0
 10
11.5230184666
 20
6.3104942946
 30
0.0
 10
11.52997855
 20
6.3183415242
 30
0.0
 10
11.5348806076
 20
6.3233265713
 30
0.0
 10
11.5373931942
 20
6.3257535449
 30
0.0
  0
SPLINE
  5
38D
100
AcDbEntity
  8
0
100
AcDbSpline
 62
7
  6
CONTINUOUS
 70
0
 71
3
 72
19
 73
15
 74
0
 42
0.0000001
 43
0.0000001
 44
0.0000000001
 40
0.0
 40
0.0
 40
0.0
 40
0.0
 40
0.1273276594
 40
0.2538196703
 40
0.3795264652
 40
0.5045235359
 40
0.5668075957
 40
0.6289556126
 40
0.6909843719
 40
0.7529118459
 40
0.8147570133
 40
0.8765397124
 40
0.9382804148
 40
1.0
 40
1.0
 40
1.0
 40
1.0
 10
8.9393477018
 20
6.3488973694
 30
0.0
 10
8.9393477018
 20
6.3561040997
 30
0.0
 10
8.9400357856
 20
6.3704801762
 30
0.0
 10
8.9431477288
 20
6.3917680752
 30
0.0
 10
8.948307304
 20
6.412520083
 30
0.0
 10
8.954284252
 20
6.4292308374
 30
0.0
 10
8.9600324399
 20
6.4421307208
 30
0.0
 10
8.9648124575
 20
6.4515451348
 30
0.0
 10
8.9700546272
 20
6.4606867238
 30
0.0
 10
8.9757470177
 20
6.4695347052
 30
0.0
 10
8.9818764958
 20
6.478068537
 30
0.0
 10
8.9884289358
 20
6.4862686756
 30
0.0
 10
8.9953890192
 20
6.4941159052
 30
0.0
 10
9.0002910768
 20
6.4991009522
 30
0.0
 10
9.0028036634
 20
6.5015279258
 30
0.0
  0
SPLINE
  5
38E
100
AcDbEntity
  8
0
100
AcDbSpline
 62
7
  6
CONTINUOUS
 70
0
 71
3
 72
39
 73
35
 74
0
 42
0.0000001
 43
0.0000001
 44
0.0000000001
 40
0.0
 40
0.0
 40
0.0
 40
0.0
 40
0.0311159584
 40
0.0620233352
 40
0.0927351385
 40
0.1232711775
 40
0.1536587332
 40
0.1839312107
 40
0.2141268395
 40
0.244287099
 40
0.2744549757
 40
0.3046731314
 40
0.3349820893
 40
0.3654185446
 40
0.396013864
 40
0.426792882
 40
0.4577729977
 40
0.4889636199
 40
0.5203659696
 40
0.5519731789
 40
0.5837707176
 40
0.6157370646
 40
0.6478445906
 40
0.68006064
 40
0.7123487314
 40
0.7446698626
 40
0.7769838842
 40
0.8092508939
 40
0.8414326248
 40
0.8734937998
 40
0.9054034138
 40
0.9371358961
 40
0.9686718081
 40
1.0
 40
1.0
 40
1.0
 40
1.0
 10
9.4104929057
 20
6.3089887167
 30
0.0
 10
9.4104929057
 20
6.3007698302
 30
0.0
 10
9.4096905145
 20
6.2843752617
 30
0.0
 10
9.4060617529
 20
6.2601111865
 30
0.0
 10
9.4000460272
 20
6.2364809543
 30
0.0
 10
9.3917002809
 20
6.2137157655
 30
0.0
 10
9.3811044349
 20
6.1920349446
 30
0.0
 10
9.3683601182
 20
6.171648594
 30
0.0
 10
9.3535901581
 20
6.1527540815
 30
0.0
 10
9.3369372317
 20
6.1355343977
 30
0.0
 10
9.3185623587
 20
6.1201563285
 30
0.0
 10
9.2986435462
 20
6.1067684718
 30
0.0
 10
9.2773736807
 20
6.095500034
 30
0.0
 10
9.2549586887
 20
6.0864594649
 30
0.0
 10
9.2316154602
 20
6.0797332708
 30
0.0
 10
9.2075695412
 20
6.0753856189
 30
0.0
 10
9.1830530276
 20
6.0734574384
 30
0.0
 10
9.1583022207
 20
6.0739662815
 30
0.0
 10
9.1335554015
 20
6.076906408
 30
0.0
 10
9.1090505358
 20
6.0822485285
 30
0.0
 10
9.085023059
 20
6.0899405421
 30
0.0
 10
9.0617036822
 20
6.0999079069
 30
0.0
 10
9.0393161388
 20
6.1120542491
 30
0.0
 10
9.0180752548
 20
6.1262626297
 30
0.0
 10
8.9981847733
 20
6.1423963264
 30
0.0
 10
8.9798354918
 20
6.1603002905
 30
0.0
 10
8.9632036015
 20
6.1798027002
 30
0.0
 10
8.948448747
 20
6.2007163318
 30
0.0
 10
8.9357127945
 20
6.2228405571
 30
0.0
 10
8.9251183905
 20
6.245963204
 30
0.0
 10
8.9167676256
 20
6.2698621388
 30
0.0
 10
8.9107414614
 20
6.2943087963
 30
0.0
 10
8.9070983536
 20
6.3190652906
 30
0.0
 10
8.9062795945
 20
6.3356810833
 30
0.0
 10
8.9062795945
 20
6.3439560286
 30
0.0
  0
SPLINE
  5
38F
100
AcDbEntity
  8
0
100
AcDbSpline
 62
7
  6
CONTINUOUS
 70
0
 71
3
 72
39
 73
35
 74
0
 42
0.0000001
 43
0.0000001
 44
0.0000000001
 40
0.0
 40
0.0
 40
0.0
 40
0.0
 40
0.0311159584
 40
0.0620233352
 40
0.0927351385
 40
0.1232711775
 40
0.1536587332
 40
0.1839312107
 40
0.2141268395
 40
0.244287099
 40
0.2744549757
 40
0.3046731314
 40
0.3349820893
 40
0.3654185446
 40
0.396013864
 40
0.426792882
 40
0.4577729977
 40
0.4889636199
 40
0.5203659696
 40
0.5519731789
 40
0.5837707176
 40
0.6157370646
 40
0.6478445906
 40
0.68006064
 40
0.7123487314
 40
0.7446698626
 40
0.7769838842
 40
0.8092508939
 40
0.8414326248
 40
0.8734937998
 40
0.9054034138
 40
0.9371358961
 40
0.9686718081
 40
1.0
 40
1.0
 40
1.0
 40
1.0
 10
11.4408691253
 20
6.1681816476
 30
0.0
 10
11.4408691253
 20
6.1764005342
 30
0.0
 10
11.4416715165
 20
6.1927951026
 30
0.0
 10
11.4453002781
 20
6.2170591778
 30
0.0
 10
11.4513160038
 20
6.2406894101
 30
0.0
 10
11.4596617501
 20
6.2634545988
 30
0.0
 10
11.4702575961
 20
6.2851354198
 30
0.0
 10
11.4830019128
 20
6.3055217704
 30
0.0
 10
11.4977718729
 20
6.3244162828
 30
0.0
 10
11.5144247993
 20
6.3416359667
 30
0.0
 10
11.5327996723
 20
6.3570140358
 30
0.0
 10
11.5527184848
 20
6.3704018926
 30
0.0
 10
11.5739883503
 20
6.3816703304
 30
0.0
 10
11.5964033424
 20
6.3907108995
 30
0.0
 10
11.6197465709
 20
6.3974370935
 30
0.0
 10
11.6437924898
 20
6.4017847455
 30
0.0
 10
11.6683090034
 20
6.403712926
 30
0.0
 10
11.6930598103
 20
6.4032040829
 30
0.0
 10
11.7178066295
 20
6.4002639564
 30
0.0
 10
11.7423114952
 20
6.3949218358
 30
0.0
 10
11.766338972
 20
6.3872298223
 30
0.0
 10
11.7896583488
 20
6.3772624575
 30
0.0
 10
11.8120458922
 20
6.3651161152
 30
0.0
 10
11.8332867763
 20
6.3509077347
 30
0.0
 10
11.8531772578
 20
6.334774038
 30
0.0
 10
11.8715265392
 20
6.3168700739
 30
0.0
 10
11.8881584295
 20
6.2973676642
 30
0.0
 10
11.902913284
 20
6.2764540325
 30
0.0
 10
11.9156492365
 20
6.2543298073
 30
0.0
 10
11.9262436405
 20
6.2312071604
 30
0.0
 10
11.9345944054
 20
6.2073082256
 30
0.0
 10
11.9406205697
 20
6.1828615681
 30
0.0
 10
11.9442636775
 20
6.1581050738
 30
0.0
 10
11.9450824365
 20
6.1414892811
 30
0.0
 10
11.9450824365
 20
6.1332143358
 30
0.0
  0
SPLINE
  5
390
100
AcDbEntity
  8
0
100
AcDbSpline
 62
7
  6
CONTINUOUS
 70
0
 71
3
 72
19
 73
15
 74
0
 42
0.0000001
 43
0.0000001
 44
0.0000000001
 40
0.0
 40
0.0
 40
0.0
 40
0.0
 40
0.1273276594
 40
0.2538196703
 40
0.3795264652
 40
0.5045235359
 40
0.5668075957
 40
0.6289556126
 40
0.6909843719
 40
0.7529118459
 40
0.8147570133
 40
0.8765397124
 40
0.9382804148
 40
1.0
 40
1.0
 40
1.0
 40
1.0
 10
8.9393477018
 20
7.5563047814
 30
0.0
 10
8.9393477018
 20
7.5635115117
 30
0.0
 10
8.9400357856
 20
7.5778875882
 30
0.0
 10
8.9431477288
 20
7.5991754871
 30
0.0
 10
8.948307304
 20
7.619927495
 30
0.0
 10
8.954284252
 20
7.6366382494
 30
0.0
 10
8.9600324399
 20
7.6495381328
 30
0.0
 10
8.9648124575
 20
7.6589525468
 30
0.0
 10
8.9700546272
 20
7.6680941358
 30
0.0
 10
8.9757470177
 20
7.6769421172
 30
0.0
 10
8.9818764958
 20
7.685475949
 30
0.0
 10
8.9884289358
 20
7.6936760876
 30
0.0
 10
8.9953890192
 20
7.7015233172
 30
0.0
 10
9.0002910768
 20
7.7065083642
 30
0.0
 10
9.0028036634
 20
7.7089353378
 30
0.0
  0
SPLINE
  5
391
100
AcDbEntity
  8
0
100
AcDbSpline
 62
7
  6
CONTINUOUS
 70
0
 71
3
 72
19
 73
15
 74
0
 42
0.0000001
 43
0.0000001
 44
0.0000000001
 40
0.0
 40
0.0
 40
0.0
 40
0.0
 40
0.1273276594
 40
0.2538196703
 40
0.3795264652
 40
0.5045235359
 40
0.5668075957
 40
0.6289556126
 40
0.6909843719
 40
0.7529118459
 40
0.8147570133
 40
0.8765397124
 40
0.9382804148
 40
1.0
 40
1.0
 40
1.0
 40
1.0
 10
11.4739372326
 20
7.3805304004
 30
0.0
 10
11.4739372326
 20
7.3877371307
 30
0.0
 10
11.4746253164
 20
7.4021132072
 30
0.0
 10
11.4777372596
 20
7.4234011062
 30
0.0
 10
11.4828968348
 20
7.444153114
 30
0.0
 10
11.4888737828
 20
7.4608638685
 30
0.0
 10
11.4946219707
 20
7.4737637518
 30
0.0
 10
11.4994019883
 20
7.4831781658
 30
0.0
 10
11.504644158
 20
7.4923197548
 30
0.0
 10
11.5103365485
 20
7.5011677362
 30
0.0
 10
11.5164660266
 20
7.509701568
 30
0.0
 10
11.5230184666
 20
7.5179017066
 30
0.0
 10
11.52997855
 20
7.5257489362
 30
0.0
 10
11.5348806076
 20
7.5307339832
 30
0.0
 10
11.5373931942
 20
7.5331609568
 30
0.0
  0
SPLINE
  5
392
100
AcDbEntity
  8
0
100
AcDbSpline
 62
7
  6
CONTINUOUS
 70
0
 71
3
 72
39
 73
35
 74
0
 42
0.0000001
 43
0.0000001
 44
0.0000000001
 40
0.0
 40
0.0
 40
0.0
 40
0.0
 40
0.0311159584
 40
0.0620233352
 40
0.0927351385
 40
0.1232711775
 40
0.1536587332
 40
0.1839312107
 40
0.2141268395
 40
0.244287099
 40
0.2744549757
 40
0.3046731314
 40
0.3349820893
 40
0.3654185446
 40
0.396013864
 40
0.426792882
 40
0.4577729977
 40
0.4889636199
 40
0.5203659696
 40
0.5519731789
 40
0.5837707176
 40
0.6157370646
 40
0.6478445906
 40
0.68006064
 40
0.7123487314
 40
0.7446698626
 40
0.7769838842
 40
0.8092508939
 40
0.8414326248
 40
0.8734937998
 40
0.9054034138
 40
0.9371358961
 40
0.9686718081
 40
1.0
 40
1.0
 40
1.0
 40
1.0
 10
11.4408691253
 20
7.3755890596
 30
0.0
 10
11.4408691253
 20
7.3838079461
 30
0.0
 10
11.4416715165
 20
7.4002025146
 30
0.0
 10
11.4453002781
 20
7.4244665898
 30
0.0
 10
11.4513160038
 20
7.4480968221
 30
0.0
 10
11.4596617501
 20
7.4708620108
 30
0.0
 10
11.4702575961
 20
7.4925428317
 30
0.0
 10
11.4830019128
 20
7.5129291824
 30
0.0
 10
11.4977718729
 20
7.5318236948
 30
0.0
 10
11.5144247993
 20
7.5490433787
 30
0.0
 10
11.5327996723
 20
7.5644214478
 30
0.0
 10
11.5527184848
 20
7.5778093046
 30
0.0
 10
11.5739883503
 20
7.5890777424
 30
0.0
 10
11.5964033424
 20
7.5981183115
 30
0.0
 10
11.6197465709
 20
7.6048445055
 30
0.0
 10
11.6437924898
 20
7.6091921575
 30
0.0
 10
11.6683090034
 20
7.6111203379
 30
0.0
 10
11.6930598103
 20
7.6106114949
 30
0.0
 10
11.7178066295
 20
7.6076713684
 30
0.0
 10
11.7423114952
 20
7.6023292478
 30
0.0
 10
11.766338972
 20
7.5946372342
 30
0.0
 10
11.7896583488
 20
7.5846698695
 30
0.0
 10
11.8120458922
 20
7.5725235272
 30
0.0
 10
11.8332867763
 20
7.5583151467
 30
0.0
 10
11.8531772578
 20
7.5421814499
 30
0.0
 10
11.8715265392
 20
7.5242774859
 30
0.0
 10
11.8881584295
 20
7.5047750761
 30
0.0
 10
11.902913284
 20
7.4838614445
 30
0.0
 10
11.9156492365
 20
7.4617372192
 30
0.0
 10
11.9262436405
 20
7.4386145724
 30
0.0
 10
11.9345944054
 20
7.4147156375
 30
0.0
 10
11.9406205697
 20
7.3902689801
 30
0.0
 10
11.9442636775
 20
7.3655124858
 30
0.0
 10
11.9450824365
 20
7.348896693
 30
0.0
 10
11.9450824365
 20
7.3406217477
 30
0.0
  0
SPLINE
  5
393
100
AcDbEntity
  8
0
100
AcDbSpline
 62
7
  6
CONTINUOUS
 70
0
 71
3
 72
39
 73
35
 74
0
 42
0.0000001
 43
0.0000001
 44
0.0000000001
 40
0.0
 40
0.0
 40
0.0
 40
0.0
 40
0.0311159584
 40
0.0620233352
 40
0.0927351385
 40
0.1232711775
 40
0.1536587332
 40
0.1839312107
 40
0.2141268395
 40
0.244287099
 40
0.2744549757
 40
0.3046731314
 40
0.3349820893
 40
0.3654185446
 40
0.396013864
 40
0.426792882
 40
0.4577729977
 40
0.4889636199
 40
0.5203659696
 40
0.5519731789
 40
0.5837707176
 40
0.6157370646
 40
0.6478445906
 40
0.68006064
 40
0.7123487314
 40
0.7446698626
 40
0.7769838842
 40
0.8092508939
 40
0.8414326248
 40
0.8734937998
 40
0.9054034138
 40
0.9371358961
 40
0.9686718081
 40
1.0
 40
1.0
 40
1.0
 40
1.0
 10
11.9450824365
 20
6.1332143358
 30
0.0
 10
11.9450824365
 20
6.1249954492
 30
0.0
 10
11.9442800453
 20
6.1086008808
 30
0.0
 10
11.9406512837
 20
6.0843368056
 30
0.0
 10
11.934635558
 20
6.0607065733
 30
0.0
 10
11.9262898117
 20
6.0379413846
 30
0.0
 10
11.9156939657
 20
6.0162605636
 30
0.0
 10
11.902949649
 20
5.995874213
 30
0.0
 10
11.8881796889
 20
5.9769797006
 30
0.0
 10
11.8715267625
 20
5.9597600167
 30
0.0
 10
11.8531518895
 20
5.9443819476
 30
0.0
 10
11.833233077
 20
5.9309940908
 30
0.0
 10
11.8119632115
 20
5.919725653
 30
0.0
 10
11.7895482195
 20
5.9106850839
 30
0.0
 10
11.766204991
 20
5.9039588899
 30
0.0
 10
11.742159072
 20
5.8996112379
 30
0.0
 10
11.7176425584
 20
5.8976830574
 30
0.0
 10
11.6928917515
 20
5.8981919005
 30
0.0
 10
11.6681449323
 20
5.901132027
 30
0.0
 10
11.6436400666
 20
5.9064741476
 30
0.0
 10
11.6196125898
 20
5.9141661612
 30
0.0
 10
11.596293213
 20
5.9241335259
 30
0.0
 10
11.5739056696
 20
5.9362798682
 30
0.0
 10
11.5526647856
 20
5.9504882487
 30
0.0
 10
11.5327743041
 20
5.9666219454
 30
0.0
 10
11.5144250226
 20
5.9845259095
 30
0.0
 10
11.4977931323
 20
6.0040283192
 30
0.0
 10
11.4830382778
 20
6.0249419509
 30
0.0
 10
11.4703023253
 20
6.0470661761
 30
0.0
 10
11.4597079213
 20
6.070188823
 30
0.0
 10
11.4513571564
 20
6.0940877578
 30
0.0
 10
11.4453309922
 20
6.1185344153
 30
0.0
 10
11.4416878844
 20
6.1432909096
 30
0.0
 10
11.4408691253
 20
6.1599067023
 30
0.0
 10
11.4408691253
 20
6.1681816476
 30
0.0
  0
SPLINE
  5
394
100
AcDbEntity
  8
0
100
AcDbSpline
 62
7
  6
CONTINUOUS
 70
0
 71
3
 72
39
 73
35
 74
0
 42
0.0000001
 43
0.0000001
 44
0.0000000001
 40
0.0
 40
0.0
 40
0.0
 40
0.0
 40
0.0311159584
 40
0.0620233352
 40
0.0927351385
 40
0.1232711775
 40
0.1536587332
 40
0.1839312107
 40
0.2141268395
 40
0.244287099
 40
0.2744549757
 40
0.3046731314
 40
0.3349820893
 40
0.3654185446
 40
0.396013864
 40
0.426792882
 40
0.4577729977
 40
0.4889636199
 40
0.5203659696
 40
0.5519731789
 40
0.5837707176
 40
0.6157370646
 40
0.6478445906
 40
0.68006064
 40
0.7123487314
 40
0.7446698626
 40
0.7769838842
 40
0.8092508939
 40
0.8414326248
 40
0.8734937998
 40
0.9054034138
 40
0.9371358961
 40
0.9686718081
 40
1.0
 40
1.0
 40
1.0
 40
1.0
 10
8.9062795945
 20
6.3439560286
 30
0.0
 10
8.9062795945
 20
6.3521749151
 30
0.0
 10
8.9070819857
 20
6.3685694836
 30
0.0
 10
8.9107107473
 20
6.3928335588
 30
0.0
 10
8.916726473
 20
6.416463791
 30
0.0
 10
8.9250722193
 20
6.4392289798
 30
0.0
 10
8.9356680653
 20
6.4609098007
 30
0.0
 10
8.948412382
 20
6.4812961514
 30
0.0
 10
8.9631823421
 20
6.5001906638
 30
0.0
 10
8.9798352685
 20
6.5174103477
 30
0.0
 10
8.9982101415
 20
6.5327884168
 30
0.0
 10
9.018128954
 20
6.5461762736
 30
0.0
 10
9.0393988195
 20
6.5574447114
 30
0.0
 10
9.0618138116
 20
6.5664852804
 30
0.0
 10
9.0851570401
 20
6.5732114745
 30
0.0
 10
9.109202959
 20
6.5775591264
 30
0.0
 10
9.1337194726
 20
6.5794873069
 30
0.0
 10
9.1584702795
 20
6.5789784639
 30
0.0
 10
9.1832170987
 20
6.5760383374
 30
0.0
 10
9.2077219644
 20
6.5706962168
 30
0.0
 10
9.2317494412
 20
6.5630042032
 30
0.0
 10
9.255068818
 20
6.5530368385
 30
0.0
 10
9.2774563614
 20
6.5408904962
 30
0.0
 10
9.2986972455
 20
6.5266821157
 30
0.0
 10
9.318587727
 20
6.5105484189
 30
0.0
 10
9.3369370084
 20
6.4926444549
 30
0.0
 10
9.3535688987
 20
6.4731420451
 30
0.0
 10
9.3683237532
 20
6.4522284135
 30
0.0
 10
9.3810597057
 20
6.4301041882
 30
0.0
 10
9.3916541097
 20
6.4069815414
 30
0.0
 10
9.4000048746
 20
6.3830826065
 30
0.0
 10
9.4060310389
 20
6.358635949
 30
0.0
 10
9.4096741467
 20
6.3338794548
 30
0.0
 10
9.4104929057
 20
6.317263662
 30
0.0
 10
9.4104929057
 20
6.3089887167
 30
0.0
  0
SPLINE
  5
395
100
AcDbEntity
  8
0
100
AcDbSpline
 62
7
  6
CONTINUOUS
 70
0
 71
3
 72
23
 73
19
 74
0
 42
0.0000001
 43
0.0000001
 44
0.0000000001
 40
0.0
 40
0.0
 40
0.0
 40
0.0
 40
0.0616482089
 40
0.1233194432
 40
0.1850364732
 40
0.2468215598
 40
0.3086962068
 40
0.3706809242
 40
0.4327950065
 40
0.4950563338
 40
0.5574811812
 40
0.6200840725
 40
0.6828776069
 40
0.7458723252
 40
0.8090769559
 40
0.8724968153
 40
0.9361384461
 40
1.0
 40
1.0
 40
1.0
 40
1.0
 10
10.7674959536
 20
9.6276742054
 30
0.0
 10
10.7619747042
 20
9.622341094
 30
0.0
 10
10.7506408466
 20
9.6119677741
 30
0.0
 10
10.7328249395
 20
9.5973409855
 30
0.0
 10
10.7142353977
 20
9.5836810061
 30
0.0
 10
10.6949197041
 20
9.5710228403
 30
0.0
 10
10.6749263654
 20
9.5593981993
 30
0.0
 10
10.6543058055
 20
9.5488364004
 30
0.0
 10
10.633109984
 20
9.53936399
 30
0.0
 10
10.6113923187
 20
9.531004775
 30
0.0
 10
10.5892075252
 20
9.5237797531
 30
0.0
 10
10.5666114847
 20
9.5177070692
 30
0.0
 10
10.5436611136
 20
9.5128019762
 30
0.0
 10
10.5204141686
 20
9.5090767406
 30
0.0
 10
10.4969293254
 20
9.5065407365
 30
0.0
 10
10.4732652878
 20
9.5052001165
 30
0.0
 10
10.449482645
 20
9.5050584014
 30
0.0
 10
10.4336138806
 20
9.5057621274
 30
0.0
 10
10.4256809867
 20
9.5063122754
 30
0.0
  0
SPLINE
  5
396
100
AcDbEntity
  8
0
100
AcDbSpline
 62
7
  6
CONTINUOUS
 70
0
 71
3
 72
15
 73
11
 74
0
 42
0.0000001
 43
0.0000001
 44
0.0000000001
 40
0.0
 40
0.0
 40
0.0
 40
0.0
 40
0.1234333138
 40
0.2472418576
 40
0.3714706895
 40
0.4961579739
 40
0.6213355746
 40
0.7470245223
 40
0.8732463877
 40
1.0
 40
1.0
 40
1.0
 40
1.0
 10
10.7025553465
 20
9.928930436
 30
0.0
 10
10.6983444018
 20
9.926980735
 30
0.0
 10
10.6897807919
 20
9.923347295
 30
0.0
 10
10.6765924516
 20
9.9187267556
 30
0.0
 10
10.6630902827
 20
9.9149443067
 30
0.0
 10
10.6493254894
 20
9.9120143153
 30
0.0
 10
10.6353495006
 20
9.9099476442
 30
0.0
 10
10.6212143182
 20
9.9087518067
 30
0.0
 10
10.6069736502
 20
9.9084313775
 30
0.0
 10
10.5974633707
 20
9.9088012859
 30
0.0
 10
10.5927095555
 20
9.9091309641
 30
0.0
  0
SPLINE
  5
397
100
AcDbEntity
  8
0
100
AcDbSpline
 62
7
  6
CONTINUOUS
 70
0
 71
3
 72
24
 73
20
 74
0
 42
0.0000001
 43
0.0000001
 44
0.0000000001
 40
0.0
 40
0.0
 40
0.0
 40
0.0
 40
0.0616478687
 40
0.0924817887
 40
0.1233243262
 40
0.1850410161
 40
0.2468257596
 40
0.308700059
 40
0.3706844256
 40
0.4327981575
 40
0.4950591363
 40
0.5574836398
 40
0.620086178
 40
0.6828793696
 40
0.7458737328
 40
0.8090779632
 40
0.8724976716
 40
0.9361384975
 40
1.0
 40
1.0
 40
1.0
 40
1.0
 10
10.8598989364
 20
6.3927560921
 30
0.0
 10
10.8528851326
 20
6.3859812545
 30
0.0
 10
10.8420870223
 20
6.3760981661
 30
0.0
 10
10.8271763542
 20
6.3635171839
 30
0.0
 10
10.8119244116
 20
6.3513340194
 30
0.0
 10
10.7922404326
 20
6.3368697025
 30
0.0
 10
10.76770335
 20
6.3207897208
 30
0.0
 10
10.7423051579
 20
6.3060224602
 30
0.0
 10
10.7161102655
 20
6.2926053966
 30
0.0
 10
10.6891845771
 20
6.2805721973
 30
0.0
 10
10.6615959667
 20
6.2699531416
 30
0.0
 10
10.6334139336
 20
6.260774913
 30
0.0
 10
10.6047094709
 20
6.2530605578
 30
0.0
 10
10.5755548905
 20
6.2468294306
 30
0.0
 10
10.5460235706
 20
6.2420971014
 30
0.0
 10
10.5161900075
 20
6.2388754796
 30
0.0
 10
10.4861288734
 20
6.2371724558
 30
0.0
 10
10.4559170161
 20
6.2369923866
 30
0.0
 10
10.4357584425
 20
6.2378863678
 30
0.0
 10
10.4256809867
 20
6.2385852418
 30
0.0
  0
SPLINE
  5
398
100
AcDbEntity
  8
0
100
AcDbSpline
 62
7
  6
CONTINUOUS
 70
0
 71
3
 72
39
 73
35
 74
0
 42
0.0000001
 43
0.0000001
 44
0.0000000001
 40
0.0
 40
0.0
 40
0.0
 40
0.0
 40
0.0311450468
 40
0.0624431066
 40
0.0938883481
 40
0.1254709924
 40
0.157178888
 40
0.1889972656
 40
0.2209091813
 40
0.2528958506
 40
0.2849370306
 40
0.3170114219
 40
0.3490970827
 40
0.3811718539
 40
0.4132137864
 40
0.4452015658
 40
0.4771149283
 40
0.5089350609
 40
0.5406449831
 40
0.5722299015
 40
0.6036775303
 40
0.6349783704
 40
0.6661259418
 40
0.6971169618
 40
0.7279514635
 40
0.7586328449
 40
0.7891678453
 40
0.8195664447
 40
0.8498416857
 40
0.880009417
 40
0.9100879626
 40
0.9400977191
 40
0.9700606947
 40
1.0
 40
1.0
 40
1.0
 40
1.0
 10
10.4256809867
 20
9.5063122754
 30
0.0
 10
10.414076165
 20
9.5071170725
 30
0.0
 10
10.3908597798
 20
9.5095800424
 30
0.0
 10
10.3563166671
 20
9.5157843672
 30
0.0
 10
10.3221435471
 20
9.5244747233
 30
0.0
 10
10.2885249652
 20
9.5356044288
 30
0.0
 10
10.2556395395
 20
9.5491138052
 30
0.0
 10
10.2236626941
 20
9.5649306183
 30
0.0
 10
10.1927647748
 20
9.5829703331
 30
0.0
 10
10.1631104166
 20
9.6031366167
 30
0.0
 10
10.134857615
 20
9.6253218604
 30
0.0
 10
10.1081569133
 20
9.6494077441
 30
0.0
 10
10.0831506095
 20
9.6752658648
 30
0.0
 10
10.0599719972
 20
9.7027584012
 30
0.0
 10
10.0387446404
 20
9.7317388289
 30
0.0
 10
10.0195817516
 20
9.7620527221
 30
0.0
 10
10.0025855904
 20
9.7935385611
 30
0.0
 10
9.9878469229
 20
9.8260285811
 30
0.0
 10
9.9754445433
 20
9.8593496544
 30
0.0
 10
9.9654448108
 20
9.8933241855
 30
0.0
 10
9.9579013276
 20
9.9277710639
 30
0.0
 10
9.9528546537
 20
9.9625066146
 30
0.0
 10
9.9503320789
 20
9.9973455615
 30
0.0
 10
9.9503474742
 20
10.0321020018
 30
0.0
 10
9.9529011656
 20
10.0665903856
 30
0.0
 10
9.9579799196
 20
10.1006265061
 30
0.0
 10
9.9655570209
 20
10.1340284757
 30
0.0
 10
9.9755923883
 20
10.1666177003
 30
0.0
 10
9.988032753
 20
10.198219822
 30
0.0
 10
10.0028119704
 20
10.2286657245
 30
0.0
 10
10.0198510992
 20
10.2577922565
 30
0.0
 10
10.0390596977
 20
10.2854439225
 30
0.0
 10
10.0603331585
 20
10.3114707232
 30
0.0
 10
10.0758230592
 20
10.3276525202
 30
0.0
 10
10.0838660198
 20
10.3354214149
 30
0.0
  0
SPLINE
  5
399
100
AcDbEntity
  8
0
100
AcDbSpline
 62
7
  6
CONTINUOUS
 70
0
 71
3
 72
42
 73
38
 74
0
 42
0.0000001
 43
0.0000001
 44
0.0000000001
 40
0.0
 40
0.0
 40
0.0
 40
0.0
 40
0.0299419645
 40
0.0449235319
 40
0.0599142037
 40
0.0899287023
 40
0.1200139726
 40
0.1350926542
 40
0.1501966969
 40
0.1804840366
 40
0.2108978669
 40
0.2414513271
 40
0.2721543323
 40
0.3030133934
 40
0.3340315212
 40
0.3652082135
 40
0.3965395189
 40
0.4280181723
 40
0.4596337953
 40
0.4913731534
 40
0.5232204633
 40
0.5551577409
 40
0.5871651848
 40
0.6192215866
 40
0.6513047611
 40
0.6833919909
 40
0.7154604782
 40
0.7474877975
 40
0.779452343
 40
0.811333766
 40
0.8431133904
 40
0.8747746134
 40
0.9063032452
 40
0.9376878969
 40
0.9533257623
 40
0.9689252944
 40
1.0
 40
1.0
 40
1.0
 40
1.0
 10
11.8625345845
 20
5.9891424282
 30
0.0
 10
11.8586526034
 20
5.9853927205
 30
0.0
 10
11.8526008162
 20
5.9799953621
 30
0.0
 10
11.8441254553
 20
5.9732983594
 30
0.0
 10
11.8353801219
 20
5.9669346992
 30
0.0
 10
11.823968962
 20
5.9596270604
 30
0.0
 10
11.8120029338
 20
5.9532350529
 30
0.0
 10
11.8021341054
 20
5.948687668
 30
0.0
 10
11.7920613516
 20
5.9445158061
 30
0.0
 10
11.7791385126
 20
5.9400297574
 30
0.0
 10
11.7632130433
 20
5.9358488994
 30
0.0
 10
11.7469400771
 20
5.9328870517
 30
0.0
 10
11.7304097893
 20
5.9311605725
 30
0.0
 10
11.7137129865
 20
5.930678671
 30
0.0
 10
11.6969415392
 20
5.931443801
 30
0.0
 10
11.6801876276
 20
5.9334515427
 30
0.0
 10
11.6635433073
 20
5.936690667
 30
0.0
 10
11.6470999916
 20
5.9411431974
 30
0.0
 10
11.6309479605
 20
5.946784516
 30
0.0
 10
11.615175871
 20
5.9535835026
 30
0.0
 10
11.5998702779
 20
5.9615027079
 30
0.0
 10
11.5851151649
 20
5.9704985599
 30
0.0
 10
11.5709914902
 20
5.9805216032
 30
0.0
 10
11.557576748
 20
5.9915167688
 30
0.0
 10
11.5449445481
 20
6.0034236745
 30
0.0
 10
11.5331642167
 20
6.0161769534
 30
0.0
 10
11.5223004196
 20
6.0297066094
 30
0.0
 10
11.5124128114
 20
6.0439383982
 30
0.0
 10
11.5035557104
 20
6.058794226
 30
0.0
 10
11.4957778019
 20
6.0741925899
 30
0.0
 10
11.4891218771
 20
6.0900489563
 30
0.0
 10
11.4836245779
 20
6.1062764544
 30
0.0
 10
11.4793162819
 20
6.1227854721
 30
0.0
 10
11.4767333559
 20
6.1367208691
 30
0.0
 10
11.4752844159
 20
6.1479178027
 30
0.0
 10
11.4742503423
 20
6.1591040192
 30
0.0
 10
11.4739372326
 20
6.1675215753
 30
0.0
 10
11.4739372326
 20
6.1731229884
 30
0.0
  0
SPLINE
  5
39A
100
AcDbEntity
  8
0
100
AcDbSpline
 62
7
  6
CONTINUOUS
 70
0
 71
3
 72
42
 73
38
 74
0
 42
0.0000001
 43
0.0000001
 44
0.0000000001
 40
0.0
 40
0.0
 40
0.0
 40
0.0
 40
0.0299419645
 40
0.0449235319
 40
0.0599142037
 40
0.0899287023
 40
0.1200139726
 40
0.1350926542
 40
0.1501966969
 40
0.1804840366
 40
0.2108978669
 40
0.2414513271
 40
0.2721543323
 40
0.3030133934
 40
0.3340315212
 40
0.3652082135
 40
0.3965395189
 40
0.4280181723
 40
0.4596337953
 40
0.4913731534
 40
0.5232204633
 40
0.5551577409
 40
0.5871651848
 40
0.6192215866
 40
0.6513047611
 40
0.6833919909
 40
0.7154604782
 40
0.7474877975
 40
0.779452343
 40
0.811333766
 40
0.8431133904
 40
0.8747746134
 40
0.9063032452
 40
0.9376878969
 40
0.9533257623
 40
0.9689252944
 40
1.0
 40
1.0
 40
1.0
 40
1.0
 10
11.8625345845
 20
7.1965498402
 30
0.0
 10
11.8586526034
 20
7.1928001325
 30
0.0
 10
11.8526008162
 20
7.187402774
 30
0.0
 10
11.8441254553
 20
7.1807057714
 30
0.0
 10
11.8353801219
 20
7.1743421111
 30
0.0
 10
11.823968962
 20
7.1670344724
 30
0.0
 10
11.8120029338
 20
7.1606424649
 30
0.0
 10
11.8021341054
 20
7.15609508
 30
0.0
 10
11.7920613516
 20
7.151923218
 30
0.0
 10
11.7791385126
 20
7.1474371693
 30
0.0
 10
11.7632130433
 20
7.1432563113
 30
0.0
 10
11.7469400771
 20
7.1402944636
 30
0.0
 10
11.7304097893
 20
7.1385679845
 30
0.0
 10
11.7137129865
 20
7.1380860829
 30
0.0
 10
11.6969415392
 20
7.138851213
 30
0.0
 10
11.6801876276
 20
7.1408589547
 30
0.0
 10
11.6635433073
 20
7.144098079
 30
0.0
 10
11.6470999916
 20
7.1485506094
 30
0.0
 10
11.6309479605
 20
7.154191928
 30
0.0
 10
11.615175871
 20
7.1609909146
 30
0.0
 10
11.5998702779
 20
7.1689101198
 30
0.0
 10
11.5851151649
 20
7.1779059719
 30
0.0
 10
11.5709914902
 20
7.1879290152
 30
0.0
 10
11.557576748
 20
7.1989241808
 30
0.0
 10
11.5449445481
 20
7.2108310865
 30
0.0
 10
11.5331642167
 20
7.2235843654
 30
0.0
 10
11.5223004196
 20
7.2371140214
 30
0.0
 10
11.5124128114
 20
7.2513458102
 30
0.0
 10
11.5035557104
 20
7.266201638
 30
0.0
 10
11.4957778019
 20
7.2816000019
 30
0.0
 10
11.4891218771
 20
7.2974563682
 30
0.0
 10
11.4836245779
 20
7.3136838663
 30
0.0
 10
11.4793162819
 20
7.3301928841
 30
0.0
 10
11.4767333559
 20
7.3441282811
 30
0.0
 10
11.4752844159
 20
7.3553252147
 30
0.0
 10
11.4742503423
 20
7.3665114311
 30
0.0
 10
11.4739372326
 20
7.3749289873
 30
0.0
 10
11.4739372326
 20
7.3805304004
 30
0.0
  0
SPLINE
  5
39B
100
AcDbEntity
  8
0
100
AcDbSpline
 62
7
  6
CONTINUOUS
 70
0
 71
3
 72
42
 73
38
 74
0
 42
0.0000001
 43
0.0000001
 44
0.0000000001
 40
0.0
 40
0.0
 40
0.0
 40
0.0
 40
0.0299419645
 40
0.0449235319
 40
0.0599142037
 40
0.0899287023
 40
0.1200139726
 40
0.1350926542
 40
0.1501966969
 40
0.1804840366
 40
0.2108978669
 40
0.2414513271
 40
0.2721543323
 40
0.3030133934
 40
0.3340315212
 40
0.3652082135
 40
0.3965395189
 40
0.4280181723
 40
0.4596337953
 40
0.4913731534
 40
0.5232204633
 40
0.5551577409
 40
0.5871651848
 40
0.6192215866
 40
0.6513047611
 40
0.6833919909
 40
0.7154604782
 40
0.7474877975
 40
0.779452343
 40
0.811333766
 40
0.8431133904
 40
0.8747746134
 40
0.9063032452
 40
0.9376878969
 40
0.9533257623
 40
0.9689252944
 40
1.0
 40
1.0
 40
1.0
 40
1.0
 10
9.3279450537
 20
7.3723242212
 30
0.0
 10
9.3240630726
 20
7.3685745135
 30
0.0
 10
9.3180112854
 20
7.363177155
 30
0.0
 10
9.3095359245
 20
7.3564801523
 30
0.0
 10
9.3007905911
 20
7.3501164921
 30
0.0
 10
9.2893794312
 20
7.3428088534
 30
0.0
 10
9.277413403
 20
7.3364168458
 30
0.0
 10
9.2675445746
 20
7.3318694609
 30
0.0
 10
9.2574718208
 20
7.327697599
 30
0.0
 10
9.2445489818
 20
7.3232115503
 30
0.0
 10
9.2286235125
 20
7.3190306923
 30
0.0
 10
9.2123505463
 20
7.3160688446
 30
0.0
 10
9.1958202585
 20
7.3143423655
 30
0.0
 10
9.1791234557
 20
7.3138604639
 30
0.0
 10
9.1623520084
 20
7.314625594
 30
0.0
 10
9.1455980968
 20
7.3166333356
 30
0.0
 10
9.1289537765
 20
7.31987246
 30
0.0
 10
9.1125104608
 20
7.3243249904
 30
0.0
 10
9.0963584297
 20
7.329966309
 30
0.0
 10
9.0805863402
 20
7.3367652955
 30
0.0
 10
9.0652807471
 20
7.3446845008
 30
0.0
 10
9.0505256341
 20
7.3536803529
 30
0.0
 10
9.0364019594
 20
7.3637033962
 30
0.0
 10
9.0229872172
 20
7.3746985618
 30
0.0
 10
9.0103550173
 20
7.3866054674
 30
0.0
 10
8.9985746859
 20
7.3993587464
 30
0.0
 10
8.9877108888
 20
7.4128884023
 30
0.0
 10
8.9778232806
 20
7.4271201912
 30
0.0
 10
8.9689661796
 20
7.4419760189
 30
0.0
 10
8.9611882711
 20
7.4573743829
 30
0.0
 10
8.9545323463
 20
7.4732307492
 30
0.0
 10
8.9490350471
 20
7.4894582473
 30
0.0
 10
8.9447267511
 20
7.505967265
 30
0.0
 10
8.9421438251
 20
7.5199026621
 30
0.0
 10
8.9406948851
 20
7.5310995957
 30
0.0
 10
8.9396608115
 20
7.5422858121
 30
0.0
 10
8.9393477018
 20
7.5507033683
 30
0.0
 10
8.9393477018
 20
7.5563047814
 30
0.0
  0
SPLINE
  5
39C
100
AcDbEntity
  8
0
100
AcDbSpline
 62
7
  6
CONTINUOUS
 70
0
 71
3
 72
42
 73
38
 74
0
 42
0.0000001
 43
0.0000001
 44
0.0000000001
 40
0.0
 40
0.0
 40
0.0
 40
0.0
 40
0.0299419645
 40
0.0449235319
 40
0.0599142037
 40
0.0899287023
 40
0.1200139726
 40
0.1350926542
 40
0.1501966969
 40
0.1804840366
 40
0.2108978669
 40
0.2414513271
 40
0.2721543323
 40
0.3030133934
 40
0.3340315212
 40
0.3652082135
 40
0.3965395189
 40
0.4280181723
 40
0.4596337953
 40
0.4913731534
 40
0.5232204633
 40
0.5551577409
 40
0.5871651848
 40
0.6192215866
 40
0.6513047611
 40
0.6833919909
 40
0.7154604782
 40
0.7474877975
 40
0.779452343
 40
0.811333766
 40
0.8431133904
 40
0.8747746134
 40
0.9063032452
 40
0.9376878969
 40
0.9533257623
 40
0.9689252944
 40
1.0
 40
1.0
 40
1.0
 40
1.0
 10
9.3279450537
 20
6.1649168092
 30
0.0
 10
9.3240630726
 20
6.1611671015
 30
0.0
 10
9.3180112854
 20
6.155769743
 30
0.0
 10
9.3095359245
 20
6.1490727404
 30
0.0
 10
9.3007905911
 20
6.1427090801
 30
0.0
 10
9.2893794312
 20
6.1354014414
 30
0.0
 10
9.277413403
 20
6.1290094339
 30
0.0
 10
9.2675445746
 20
6.124462049
 30
0.0
 10
9.2574718208
 20
6.120290187
 30
0.0
 10
9.2445489818
 20
6.1158041383
 30
0.0
 10
9.2286235125
 20
6.1116232803
 30
0.0
 10
9.2123505463
 20
6.1086614326
 30
0.0
 10
9.1958202585
 20
6.1069349535
 30
0.0
 10
9.1791234557
 20
6.1064530519
 30
0.0
 10
9.1623520084
 20
6.107218182
 30
0.0
 10
9.1455980968
 20
6.1092259236
 30
0.0
 10
9.1289537765
 20
6.112465048
 30
0.0
 10
9.1125104608
 20
6.1169175784
 30
0.0
 10
9.0963584297
 20
6.122558897
 30
0.0
 10
9.0805863402
 20
6.1293578836
 30
0.0
 10
9.0652807471
 20
6.1372770888
 30
0.0
 10
9.0505256341
 20
6.1462729409
 30
0.0
 10
9.0364019594
 20
6.1562959842
 30
0.0
 10
9.0229872172
 20
6.1672911498
 30
0.0
 10
9.0103550173
 20
6.1791980554
 30
0.0
 10
8.9985746859
 20
6.1919513344
 30
0.0
 10
8.9877108888
 20
6.2054809904
 30
0.0
 10
8.9778232806
 20
6.2197127792
 30
0.0
 10
8.9689661796
 20
6.234568607
 30
0.0
 10
8.9611882711
 20
6.2499669709
 30
0.0
 10
8.9545323463
 20
6.2658233372
 30
0.0
 10
8.9490350471
 20
6.2820508353
 30
0.0
 10
8.9447267511
 20
6.2985598531
 30
0.0
 10
8.9421438251
 20
6.3124952501
 30
0.0
 10
8.9406948851
 20
6.3236921837
 30
0.0
 10
8.9396608115
 20
6.3348784001
 30
0.0
 10
8.9393477018
 20
6.3432959563
 30
0.0
 10
8.9393477018
 20
6.3488973694
 30
0.0
  0
SPLINE
  5
39D
100
AcDbEntity
  8
0
100
AcDbSpline
 62
4
  6
CONTINUOUS
 70
0
 71
3
 72
130
 73
126
 74
0
 42
0.0000001
 43
0.0000001
 44
0.0000000001
 40
0.0
 40
0.0
 40
0.0
 40
0.0
 40
0.03125
 40
0.0625
 40
0.078125
 40
0.09375
 40
0.109375
 40
0.125
 40
0.140625
 40
0.1484375
 40
0.15234375
 40
0.15625
 40
0.16015625
 40
0.1640625
 40
0.1650390625
 40
0.166015625
 40
0.1669921875
 40
0.16796875
 40
0.169921875
 40
0.171875
 40
0.17578125
 40
0.1796875
 40
0.1875
 40
0.1953125
 40
0.203125
 40
0.21875
 40
0.25
 40
0.28125
 40
0.296875
 40
0.3046875
 40
0.3125
 40
0.3203125
 40
0.32421875
 40
0.328125
 40
0.330078125
 40
0.33203125
 40
0.3330078125
 40
0.3334960938
 40
0.333984375
 40
0.3349609375
 40
0.3359375
 40
0.33984375
 40
0.34375
 40
0.34765625
 40
0.3515625
 40
0.359375
 40
0.375
 40
0.390625
 40
0.40625
 40
0.421875
 40
0.4375
 40
0.453125
 40
0.4609375
 40
0.46875
 40
0.4765625
 40
0.484375
 40
0.48828125
 40
0.4921875
 40
0.49609375
 40
0.498046875
 40
0.4990234375
 40
0.5
 40
0.5009765625
 40
0.501953125
 40
0.50390625
 40
0.5078125
 40
0.51171875
 40
0.515625
 40
0.5234375
 40
0.53125
 40
0.5390625
 40
0.546875
 40
0.5625
 40
0.578125
 40
0.59375
 40
0.609375
 40
0.625
 40
0.640625
 40
0.6484375
 40
0.65234375
 40
0.65625
 40
0.66015625
 40
0.6640625
 40
0.6650390625
 40
0.666015625
 40
0.6665039062
 40
0.6669921875
 40
0.66796875
 40
0.669921875
 40
0.671875
 40
0.67578125
 40
0.6796875
 40
0.6875
 40
0.6953125
 40
0.703125
 40
0.71875
 40
0.734375
 40
0.75
 40
0.765625
 40
0.78125
 40
0.796875
 40
0.8046875
 40
0.8125
 40
0.8203125
 40
0.82421875
 40
0.828125
 40
0.830078125
 40
0.83203125
 40
0.8330078125
 40
0.8334960938
 40
0.833984375
 40
0.8349609375
 40
0.8359375
 40
0.83984375
 40
0.84375
 40
0.84765625
 40
0.8515625
 40
0.859375
 40
0.875
 40
0.890625
 40
0.90625
 40
0.921875
 40
0.9375
 40
0.96875
 40
1.0
 40
1.0
 40
1.0
 40
1.0
 10
10.0096443737
 20
5.4520360925
 30
0.0
 10
10.0181066218
 20
5.4493958295
 30
0.0
 10
10.0350311179
 20
5.4441153035
 30
0.0
 10
10.0561867381
 20
5.437514646
 30
0.0
 10
10.0731112343
 20
5.4322341201
 30
0.0
 10
10.0858046063
 20
5.4282737253
 30
0.0
 10
10.0984979787
 20
5.4243133322
 30
0.0
 10
10.1111913498
 20
5.4203529325
 30
0.0
 10
10.1217691631
 20
5.4170526199
 30
0.0
 10
10.1291736245
 20
5.4147423611
 30
0.0
 10
10.1334047575
 20
5.4134222756
 30
0.0
 10
10.1365780728
 20
5.4124320355
 30
0.0
 10
10.13975152
 20
5.4114424685
 30
0.0
 10
10.1421312356
 20
5.4106984058
 30
0.0
 10
10.1437182878
 20
5.4102052994
 30
0.0
 10
10.144510787
 20
5.4099535045
 30
0.0
 10
10.1453072787
 20
5.4097220892
 30
0.0
 10
10.1463882649
 20
5.4095105047
 30
0.0
 10
10.1477329931
 20
5.4092128219
 30
0.0
 10
10.1498881933
 20
5.4087550844
 30
0.0
 10
10.1525809488
 20
5.4081765593
 30
0.0
 10
10.1568900533
 20
5.4072544699
 30
0.0
 10
10.1622761953
 20
5.4061006399
 30
0.0
 10
10.1687396678
 20
5.4047165654
 30
0.0
 10
10.1773575955
 20
5.4028709508
 30
0.0
 10
10.1924389857
 20
5.3996412101
 30
0.0
 10
10.2139838198
 20
5.3950272489
 30
0.0
 10
10.2355286578
 20
5.3904133099
 30
0.0
 10
10.2506100426
 20
5.3871835381
 30
0.0
 10
10.2592279787
 20
5.3853379725
 30
0.0
 10
10.2656914257
 20
5.3839537476
 30
0.0
 10
10.2710776473
 20
5.382800388
 30
0.0
 10
10.2753865894
 20
5.3818773391
 30
0.0
 10
10.2780797584
 20
5.3813012559
 30
0.0
 10
10.2802341098
 20
5.3808385058
 30
0.0
 10
10.281580999
 20
5.3805535848
 30
0.0
 10
10.2825229804
 20
5.3803455268
 30
0.0
 10
10.2830625714
 20
5.3802401129
 30
0.0
 10
10.2836071185
 20
5.3801854578
 30
0.0
 10
10.2842861083
 20
5.3800997893
 30
0.0
 10
10.2859170782
 20
5.3799084645
 30
0.0
 10
10.2883629475
 20
5.3796154798
 30
0.0
 10
10.2916244412
 20
5.3792282615
 30
0.0
 10
10.2948858453
 20
5.3788401261
 30
0.0
 10
10.2992344154
 20
5.3783229322
 30
0.0
 10
10.3068443986
 20
5.3774176939
 30
0.0
 10
10.3177158106
 20
5.3761245741
 30
0.0
 10
10.3307615019
 20
5.374572797
 30
0.0
 10
10.343807194
 20
5.3730210289
 30
0.0
 10
10.3568528859
 20
5.3714692582
 30
0.0
 10
10.3698985778
 20
5.369917489
 30
0.0
 10
10.3807699878
 20
5.368624345
 30
0.0
 10
10.3894671157
 20
5.3675898362
 30
0.0
 10
10.3959899616
 20
5.3668139372
 30
0.0
 10
10.4025128077
 20
5.3660381046
 30
0.0
 10
10.4079485123
 20
5.3653913708
 30
0.0
 10
10.4122970771
 20
5.3648744465
 30
0.0
 10
10.4155584976
 20
5.3644854889
 30
0.0
 10
10.4182763578
 20
5.3641653794
 30
0.0
 10
10.4201788408
 20
5.36393341
 30
0.0
 10
10.4212660039
 20
5.36381318
 30
0.0
 10
10.4220812917
 20
5.3636882906
 30
0.0
 10
10.4228969026
 20
5.363696107
 30
0.0
 10
10.4239842711
 20
5.3636602396
 30
0.0
 10
10.4258872184
 20
5.3636190387
 30
0.0
 10
10.4286056872
 20
5.3635489048
 30
0.0
 10
10.4318678615
 20
5.3634695704
 30
0.0
 10
10.4362174231
 20
5.3633621053
 30
0.0
 10
10.4416543766
 20
5.3632283524
 30
0.0
 10
10.4481787201
 20
5.363067601
 30
0.0
 10
10.4547030638
 20
5.3629069159
 30
0.0
 10
10.4634021887
 20
5.3626926459
 30
0.0
 10
10.4742760948
 20
5.3624248165
 30
0.0
 10
10.487324782
 20
5.3621034175
 30
0.0
 10
10.5003734695
 20
5.3617820202
 30
0.0
 10
10.5134221562
 20
5.36146062
 30
0.0
 10
10.5264708456
 20
5.3611392294
 30
0.0
 10
10.5373447452
 20
5.3608713744
 30
0.0
 10
10.5449564911
 20
5.3606839338
 30
0.0
 10
10.5493060348
 20
5.3605767345
 30
0.0
 10
10.5525682641
 20
5.3604965895
 30
0.0
 10
10.5558302201
 20
5.3604154718
 30
0.0
 10
10.5582774534
 20
5.3603573608
 30
0.0
 10
10.5599077505
 20
5.3603143786
 30
0.0
 10
10.5605888143
 20
5.3603027811
 30
0.0
 10
10.5611295285
 20
5.360278779
 30
0.0
 10
10.5616853715
 20
5.3603086237
 30
0.0
 10
10.562665126
 20
5.3603858701
 30
0.0
 10
10.5640611078
 20
5.3604831689
 30
0.0
 10
10.5662967282
 20
5.3606461417
 30
0.0
 10
10.5690905519
 20
5.36084736
 30
0.0
 10
10.573561062
 20
5.3611707053
 30
0.0
 10
10.5791490652
 20
5.3615744079
 30
0.0
 10
10.5858547265
 20
5.362059056
 30
0.0
 10
10.5947955882
 20
5.3627051819
 30
0.0
 10
10.6059716723
 20
5.3635128639
 30
0.0
 10
10.6193829701
 20
5.3644820717
 30
0.0
 10
10.6327942687
 20
5.3654512825
 30
0.0
 10
10.6462055674
 20
5.3664204918
 30
0.0
 10
10.659616865
 20
5.3673897041
 30
0.0
 10
10.67079295
 20
5.3681973724
 30
0.0
 10
10.6797338098
 20
5.3688435262
 30
0.0
 10
10.6864394768
 20
5.3693280893
 30
0.0
 10
10.6920274624
 20
5.3697320579
 30
0.0
 10
10.6964980083
 20
5.3700548605
 30
0.0
 10
10.699291741
 20
5.3702574597
 30
0.0
 10
10.7015275483
 20
5.370417598
 30
0.0
 10
10.7029230542
 20
5.3705221134
 30
0.0
 10
10.7039036634
 20
5.370586398
 30
0.0
 10
10.7044581363
 20
5.3706370196
 30
0.0
 10
10.7049904804
 20
5.3707399487
 30
0.0
 10
10.7056634743
 20
5.3708507311
 30
0.0
 10
10.7072724343
 20
5.371131324
 30
0.0
 10
10.7096884889
 20
5.3715460329
 30
0.0
 10
10.7129084007
 20
5.3721025106
 30
0.0
 10
10.7161287122
 20
5.3726580433
 30
0.0
 10
10.7204223215
 20
5.3733990833
 30
0.0
 10
10.7279362027
 20
5.3746957496
 30
0.0
 10
10.7386702846
 20
5.3765482103
 30
0.0
 10
10.7515511976
 20
5.3787711288
 30
0.0
 10
10.7644321066
 20
5.3809940565
 30
0.0
 10
10.7773130167
 20
5.3832169818
 30
0.0
 10
10.7944875631
 20
5.386180883
 30
0.0
 10
10.8159557463
 20
5.3898857592
 30
0.0
 10
10.8331302928
 20
5.3928496602
 30
0.0
 10
10.841717566
 20
5.3943316107
 30
0.0
  0
SPLINE
  5
39E
100
AcDbEntity
  8
0
100
AcDbSpline
 62
4
  6
CONTINUOUS
 70
0
 71
3
 72
157
 73
153
 74
0
 42
0.0000001
 43
0.0000001
 44
0.0000000001
 40
0.0
 40
0.0
 40
0.0
 40
0.0
 40
0.03125
 40
0.0625
 40
0.078125
 40
0.09375
 40
0.109375
 40
0.125
 40
0.1328125
 40
0.140625
 40
0.1484375
 40
0.15234375
 40
0.15625
 40
0.16015625
 40
0.162109375
 40
0.1640625
 40
0.1650390625
 40
0.166015625
 40
0.1665039062
 40
0.1669921875
 40
0.1674804688
 40
0.16796875
 40
0.169921875
 40
0.171875
 40
0.173828125
 40
0.17578125
 40
0.1796875
 40
0.1875
 40
0.1953125
 40
0.203125
 40
0.2109375
 40
0.21875
 40
0.234375
 40
0.25
 40
0.265625
 40
0.28125
 40
0.2890625
 40
0.296875
 40
0.3046875
 40
0.3125
 40
0.3203125
 40
0.32421875
 40
0.326171875
 40
0.328125
 40
0.330078125
 40
0.33203125
 40
0.3325195312
 40
0.3330078125
 40
0.3334960938
 40
0.333984375
 40
0.3349609375
 40
0.3359375
 40
0.337890625
 40
0.33984375
 40
0.34375
 40
0.34765625
 40
0.3515625
 40
0.359375
 40
0.3671875
 40
0.375
 40
0.390625
 40
0.40625
 40
0.421875
 40
0.4375
 40
0.453125
 40
0.4609375
 40
0.46875
 40
0.4765625
 40
0.484375
 40
0.48828125
 40
0.4921875
 40
0.494140625
 40
0.49609375
 40
0.498046875
 40
0.4990234375
 40
0.4995117188
 40
0.5
 40
0.5004882812
 40
0.5009765625
 40
0.501953125
 40
0.50390625
 40
0.505859375
 40
0.5078125
 40
0.51171875
 40
0.515625
 40
0.5234375
 40
0.53125
 40
0.5390625
 40
0.546875
 40
0.5625
 40
0.578125
 40
0.59375
 40
0.609375
 40
0.625
 40
0.6328125
 40
0.640625
 40
0.6484375
 40
0.65234375
 40
0.65625
 40
0.66015625
 40
0.662109375
 40
0.6640625
 40
0.6650390625
 40
0.666015625
 40
0.6665039062
 40
0.6669921875
 40
0.6674804688
 40
0.66796875
 40
0.669921875
 40
0.671875
 40
0.673828125
 40
0.67578125
 40
0.6796875
 40
0.6875
 40
0.6953125
 40
0.703125
 40
0.7109375
 40
0.71875
 40
0.734375
 40
0.75
 40
0.765625
 40
0.78125
 40
0.7890625
 40
0.796875
 40
0.8046875
 40
0.8125
 40
0.8203125
 40
0.82421875
 40
0.826171875
 40
0.828125
 40
0.830078125
 40
0.83203125
 40
0.8325195312
 40
0.8330078125
 40
0.8334960938
 40
0.833984375
 40
0.8349609375
 40
0.8359375
 40
0.837890625
 40
0.83984375
 40
0.84375
 40
0.84765625
 40
0.8515625
 40
0.859375
 40
0.8671875
 40
0.875
 40
0.890625
 40
0.90625
 40
0.921875
 40
0.9375
 40
0.96875
 40
1.0
 40
1.0
 40
1.0
 40
1.0
 10
8.6150529181
 20
6.3641527248
 30
0.0
 10
8.6158191549
 20
6.3569297274
 30
0.0
 10
8.6173516286
 20
6.3424837326
 30
0.0
 10
8.6192672208
 20
6.3244262391
 30
0.0
 10
8.6207996944
 20
6.3099802444
 30
0.0
 10
8.6219490498
 20
6.2991457483
 30
0.0
 10
8.6230984048
 20
6.2883112521
 30
0.0
 10
8.6240562017
 20
6.2792825055
 30
0.0
 10
8.6248224368
 20
6.2720595079
 30
0.0
 10
8.6253971198
 20
6.2666422606
 30
0.0
 10
8.6258760012
 20
6.2621278848
 30
0.0
 10
8.6262591535
 20
6.2585163911
 30
0.0
 10
8.6265463889
 20
6.2558077519
 30
0.0
 10
8.6267861613
 20
6.2535506127
 30
0.0
 10
8.6269770608
 20
6.2517447664
 30
0.0
 10
8.6270984644
 20
6.2506164197
 30
0.0
 10
8.6271907973
 20
6.2497130389
 30
0.0
 10
8.6272594346
 20
6.2491500309
 30
0.0
 10
8.6272893119
 20
6.2486959483
 30
0.0
 10
8.6273802598
 20
6.2483654519
 30
0.0
 10
8.6274904139
 20
6.2480377761
 30
0.0
 10
8.6277008423
 20
6.2473809736
 30
0.0
 10
8.6280206345
 20
6.2463963793
 30
0.0
 10
8.6284446524
 20
6.2450832385
 30
0.0
 10
8.6288693048
 20
6.2437701909
 30
0.0
 10
8.6294352866
 20
6.2420194283
 30
0.0
 10
8.6304258579
 20
6.2389556089
 30
0.0
 10
8.6318409058
 20
6.2345787161
 30
0.0
 10
8.6335389865
 20
6.2293264481
 30
0.0
 10
8.6352370609
 20
6.2240741792
 30
0.0
 10
8.636935137
 20
6.2188219106
 30
0.0
 10
8.6391992379
 20
6.2118188856
 30
0.0
 10
8.6420293642
 20
6.2030651045
 30
0.0
 10
8.6454255157
 20
6.1925605671
 30
0.0
 10
8.6488216672
 20
6.1820560297
 30
0.0
 10
8.6516517934
 20
6.1733022485
 30
0.0
 10
8.6539158945
 20
6.1662992236
 30
0.0
 10
8.65561397
 20
6.1610469548
 30
0.0
 10
8.657312047
 20
6.1557946865
 30
0.0
 10
8.659010118
 20
6.1505424164
 30
0.0
 10
8.660425196
 20
6.1461655302
 30
0.0
 10
8.6614157136
 20
6.1431016989
 30
0.0
 10
8.6619817814
 20
6.1413509553
 30
0.0
 10
8.6624061697
 20
6.1400378493
 30
0.0
 10
8.6628311792
 20
6.1387249281
 30
0.0
 10
8.6631481948
 20
6.1377397189
 30
0.0
 10
8.6633622469
 20
6.1370837188
 30
0.0
 10
8.6634644369
 20
6.1367542795
 30
0.0
 10
8.6635854293
 20
6.1364304361
 30
0.0
 10
8.6638362179
 20
6.1360252716
 30
0.0
 10
8.664119071
 20
6.1355096991
 30
0.0
 10
8.6645887548
 20
6.1346898781
 30
0.0
 10
8.6651699981
 20
6.1336633572
 30
0.0
 10
8.6661032634
 20
6.1320218989
 30
0.0
 10
8.667268721
 20
6.1299697414
 30
0.0
 10
8.6686677512
 20
6.1275072957
 30
0.0
 10
8.6705329568
 20
6.1242239847
 30
0.0
 10
8.6728645214
 20
6.1201198631
 30
0.0
 10
8.6756623743
 20
6.1151949098
 30
0.0
 10
8.6793928534
 20
6.108628308
 30
0.0
 10
8.6840559493
 20
6.1004200548
 30
0.0
 10
8.6896516657
 20
6.0905701515
 30
0.0
 10
8.6952473817
 20
6.080720248
 30
0.0
 10
8.700843098
 20
6.0708703446
 30
0.0
 10
8.7055061944
 20
6.0626620914
 30
0.0
 10
8.7092366725
 20
6.0560954896
 30
0.0
 10
8.7120345286
 20
6.0511705364
 30
0.0
 10
8.7148323939
 20
6.0462455904
 30
0.0
 10
8.7171639199
 20
6.042141446
 30
0.0
 10
8.7190292043
 20
6.0388581815
 30
0.0
 10
8.7201948622
 20
6.0368060251
 30
0.0
 10
8.7211277202
 20
6.0351645657
 30
0.0
 10
8.7218264558
 20
6.0339327436
 30
0.0
 10
8.7224116234
 20
6.0329085397
 30
0.0
 10
8.7228155732
 20
6.0321870548
 30
0.0
 10
8.7230552511
 20
6.0317818699
 30
0.0
 10
8.7232100804
 20
6.0314580025
 30
0.0
 10
8.7234602015
 20
6.0312105039
 30
0.0
 10
8.7237604575
 20
6.0308538674
 30
0.0
 10
8.724301392
 20
6.0302421648
 30
0.0
 10
8.725066059
 20
6.0293618153
 30
0.0
 10
8.725987125
 20
6.0283081732
 30
0.0
 10
8.7272140025
 20
6.026902347
 30
0.0
 10
8.7287480138
 20
6.0251453964
 30
0.0
 10
8.7312022004
 20
6.0223340898
 30
0.0
 10
8.7342700131
 20
6.0188200202
 30
0.0
 10
8.7379513542
 20
6.0146031095
 30
0.0
 10
8.7416327044
 20
6.010386206
 30
0.0
 10
8.7465411682
 20
6.0047636655
 30
0.0
 10
8.7526767491
 20
5.9977354908
 30
0.0
 10
8.7600394456
 20
5.9893016807
 30
0.0
 10
8.7674021424
 20
5.9808678708
 30
0.0
 10
8.7747648388
 20
5.9724340607
 30
0.0
 10
8.7809004199
 20
5.9654058863
 30
0.0
 10
8.7858088832
 20
5.9597833451
 30
0.0
 10
8.7894902351
 20
5.9555664439
 30
0.0
 10
8.7925580142
 20
5.9520523444
 30
0.0
 10
8.7950122692
 20
5.949241099
 30
0.0
 10
8.796852874
 20
5.9471325715
 30
0.0
 10
8.7983869862
 20
5.9453757624
 30
0.0
 10
8.7996136594
 20
5.9439696486
 30
0.0
 10
8.800381734
 20
5.9430923451
 30
0.0
 10
8.8009929786
 20
5.9423870267
 30
0.0
 10
8.8013823423
 20
5.9419541329
 30
0.0
 10
8.8016770311
 20
5.9415896543
 30
0.0
 10
8.8019440528
 20
5.9413660279
 30
0.0
 10
8.8022239661
 20
5.9411563374
 30
0.0
 10
8.8027771612
 20
5.9407297877
 30
0.0
 10
8.8036097392
 20
5.9400929741
 30
0.0
 10
8.8047182512
 20
5.9392421684
 30
0.0
 10
8.8058271891
 20
5.938391823
 30
0.0
 10
8.8073056243
 20
5.9372578685
 30
0.0
 10
8.8098929552
 20
5.9352735231
 30
0.0
 10
8.8135891061
 20
5.9324387048
 30
0.0
 10
8.8180245026
 20
5.9290369396
 30
0.0
 10
8.8224598949
 20
5.9256351699
 30
0.0
 10
8.8268952884
 20
5.9222334014
 30
0.0
 10
8.832809146
 20
5.9176977097
 30
0.0
 10
8.8402014681
 20
5.9120280951
 30
0.0
 10
8.8490722545
 20
5.9052245576
 30
0.0
 10
8.857943041
 20
5.8984210202
 30
0.0
 10
8.865335363
 20
5.8927514056
 30
0.0
 10
8.8712492207
 20
5.888215714
 30
0.0
 10
8.8756846138
 20
5.884813945
 30
0.0
 10
8.8801200078
 20
5.8814121773
 30
0.0
 10
8.8845553981
 20
5.8780104045
 30
0.0
 10
8.8882515681
 20
5.8751756098
 30
0.0
 10
8.8908388648
 20
5.8731912223
 30
0.0
 10
8.8923173549
 20
5.8720573353
 30
0.0
 10
8.8934261243
 20
5.8712067829
 30
0.0
 10
8.894535269
 20
5.8703567547
 30
0.0
 10
8.8953660752
 20
5.8697177637
 30
0.0
 10
8.8959215827
 20
5.8692940556
 30
0.0
 10
8.8961964137
 20
5.8690781197
 30
0.0
 10
8.8964826082
 20
5.8688780542
 30
0.0
 10
8.8969182706
 20
5.8686868149
 30
0.0
 10
8.8974443351
 20
5.8684219098
 30
0.0
 10
8.8982963845
 20
5.8680125111
 30
0.0
 10
8.8993579038
 20
5.8674958151
 30
0.0
 10
8.9010583145
 20
5.8666718668
 30
0.0
 10
8.9031831485
 20
5.8656409827
 30
0.0
 10
8.9057332402
 20
5.8644043279
 30
0.0
 10
8.9091332608
 20
5.862755313
 30
0.0
 10
8.9133833215
 20
5.8606940929
 30
0.0
 10
8.9184833793
 20
5.8582206081
 30
0.0
 10
8.9252834617
 20
5.8549226355
 30
0.0
 10
8.9337835628
 20
5.8508001674
 30
0.0
 10
8.943983685
 20
5.8458532066
 30
0.0
 10
8.9541838069
 20
5.8409062456
 30
0.0
 10
8.9677839696
 20
5.8343102977
 30
0.0
 10
8.9847841729
 20
5.8260653627
 30
0.0
 10
8.9983843355
 20
5.8194694148
 30
0.0
 10
9.0051844168
 20
5.8161714408
 30
0.0
  0
SPLINE
  5
39F
100
AcDbEntity
  8
0
100
AcDbSpline
 62
4
  6
CONTINUOUS
 70
0
 71
3
 72
159
 73
155
 74
0
 42
0.0000001
 43
0.0000001
 44
0.0000000001
 40
0.0
 40
0.0
 40
0.0
 40
0.0
 40
0.03125
 40
0.0625
 40
0.078125
 40
0.09375
 40
0.109375
 40
0.125
 40
0.1328125
 40
0.140625
 40
0.1484375
 40
0.15234375
 40
0.15625
 40
0.16015625
 40
0.162109375
 40
0.1640625
 40
0.1650390625
 40
0.166015625
 40
0.1665039062
 40
0.1669921875
 40
0.1674804688
 40
0.16796875
 40
0.169921875
 40
0.171875
 40
0.173828125
 40
0.17578125
 40
0.1796875
 40
0.1875
 40
0.1953125
 40
0.203125
 40
0.2109375
 40
0.21875
 40
0.234375
 40
0.25
 40
0.265625
 40
0.28125
 40
0.2890625
 40
0.296875
 40
0.3046875
 40
0.3125
 40
0.3203125
 40
0.32421875
 40
0.326171875
 40
0.328125
 40
0.330078125
 40
0.33203125
 40
0.3325195312
 40
0.3330078125
 40
0.3334960938
 40
0.333984375
 40
0.3349609375
 40
0.3359375
 40
0.337890625
 40
0.33984375
 40
0.34375
 40
0.34765625
 40
0.3515625
 40
0.359375
 40
0.3671875
 40
0.375
 40
0.390625
 40
0.40625
 40
0.421875
 40
0.4375
 40
0.453125
 40
0.4609375
 40
0.46875
 40
0.4765625
 40
0.48046875
 40
0.484375
 40
0.48828125
 40
0.4921875
 40
0.494140625
 40
0.49609375
 40
0.498046875
 40
0.4990234375
 40
0.4995117188
 40
0.5
 40
0.5004882812
 40
0.5009765625
 40
0.501953125
 40
0.50390625
 40
0.505859375
 40
0.5078125
 40
0.51171875
 40
0.515625
 40
0.51953125
 40
0.5234375
 40
0.53125
 40
0.5390625
 40
0.546875
 40
0.5625
 40
0.578125
 40
0.59375
 40
0.609375
 40
0.625
 40
0.6328125
 40
0.640625
 40
0.6484375
 40
0.65234375
 40
0.65625
 40
0.66015625
 40
0.662109375
 40
0.6640625
 40
0.6650390625
 40
0.666015625
 40
0.6665039062
 40
0.6669921875
 40
0.6674804688
 40
0.66796875
 40
0.669921875
 40
0.671875
 40
0.673828125
 40
0.67578125
 40
0.6796875
 40
0.6875
 40
0.6953125
 40
0.703125
 40
0.7109375
 40
0.71875
 40
0.734375
 40
0.75
 40
0.765625
 40
0.78125
 40
0.7890625
 40
0.796875
 40
0.8046875
 40
0.8125
 40
0.8203125
 40
0.82421875
 40
0.826171875
 40
0.828125
 40
0.830078125
 40
0.83203125
 40
0.8325195312
 40
0.8330078125
 40
0.8334960938
 40
0.833984375
 40
0.8349609375
 40
0.8359375
 40
0.837890625
 40
0.83984375
 40
0.84375
 40
0.84765625
 40
0.8515625
 40
0.859375
 40
0.8671875
 40
0.875
 40
0.890625
 40
0.90625
 40
0.921875
 40
0.9375
 40
0.96875
 40
1.0
 40
1.0
 40
1.0
 40
1.0
 10
9.0051844034
 20
8.0654299375
 30
0.0
 10
8.9985196865
 20
8.0631397672
 30
0.0
 10
8.9851902526
 20
8.0585594265
 30
0.0
 10
8.9685284603
 20
8.0528340007
 30
0.0
 10
8.9551990264
 20
8.0482536601
 30
0.0
 10
8.9452019511
 20
8.0448184045
 30
0.0
 10
8.9352048755
 20
8.0413831492
 30
0.0
 10
8.9268739798
 20
8.0385204355
 30
0.0
 10
8.920209262
 20
8.0362302668
 30
0.0
 10
8.9152107269
 20
8.0345126341
 30
0.0
 10
8.9110452707
 20
8.0330812931
 30
0.0
 10
8.9077129288
 20
8.0319361764
 30
0.0
 10
8.9052136094
 20
8.0310774589
 30
0.0
 10
8.9031310435
 20
8.0303614791
 30
0.0
 10
8.9014645417
 20
8.0297895519
 30
0.0
 10
8.9004240005
 20
8.0294301466
 30
0.0
 10
8.8995892261
 20
8.02914709
 30
0.0
 10
8.8990728343
 20
8.0289599861
 30
0.0
 10
8.898647485
 20
8.0288336505
 30
0.0
 10
8.8983619755
 20
8.0286749726
 30
0.0
 10
8.898085854
 20
8.0284983813
 30
0.0
 10
8.8975287818
 20
8.0281544136
 30
0.0
 10
8.8966952019
 20
8.0276345916
 30
0.0
 10
8.8955826027
 20
8.0269437078
 30
0.0
 10
8.8944703136
 20
8.0262522323
 30
0.0
 10
8.8929871534
 20
8.0253304713
 30
0.0
 10
8.8903916733
 20
8.0237172934
 30
0.0
 10
8.8866838182
 20
8.0214128038
 30
0.0
 10
8.8822344034
 20
8.0186473948
 30
0.0
 10
8.8777849856
 20
8.0158819915
 30
0.0
 10
8.8733355686
 20
8.0131165867
 30
0.0
 10
8.8674030123
 20
8.0094293808
 30
0.0
 10
8.8599873171
 20
8.0048203733
 30
0.0
 10
8.8510884827
 20
7.9992895643
 30
0.0
 10
8.8421896484
 20
7.9937587553
 30
0.0
 10
8.8347739531
 20
7.9891497479
 30
0.0
 10
8.8288413969
 20
7.9854625418
 30
0.0
 10
8.8243919796
 20
7.9826971376
 30
0.0
 10
8.8199425632
 20
7.979931732
 30
0.0
 10
8.815493143
 20
7.9771663318
 30
0.0
 10
8.8117853048
 20
7.9748618147
 30
0.0
 10
8.8091897946
 20
7.9732486859
 30
0.0
 10
8.8077066825
 20
7.9723268462
 30
0.0
 10
8.8065942455
 20
7.9716356126
 30
0.0
 10
8.8054822019
 20
7.9709438199
 30
0.0
 10
8.8046470661
 20
7.9704265432
 30
0.0
 10
8.8040920245
 20
7.9700792538
 30
0.0
 10
8.8038114402
 20
7.9699099629
 30
0.0
 10
8.8035427668
 20
7.9697237442
 30
0.0
 10
8.8032412098
 20
7.9693949064
 30
0.0
 10
8.8028448584
 20
7.9690114381
 30
0.0
 10
8.8022215408
 20
7.9683824763
 30
0.0
 10
8.8014386805
 20
7.9676015513
 30
0.0
 10
8.8001881793
 20
7.966349122
 30
0.0
 10
8.7986243409
 20
7.9647845972
 30
0.0
 10
8.7967480395
 20
7.9629067342
 30
0.0
 10
8.7942461979
 20
7.9604030683
 30
0.0
 10
8.7911189324
 20
7.957273434
 30
0.0
 10
8.7873661982
 20
7.9535178951
 30
0.0
 10
8.782362558
 20
7.9485105021
 30
0.0
 10
8.7761080059
 20
7.9422512635
 30
0.0
 10
8.7686025441
 20
7.934740176
 30
0.0
 10
8.7610970822
 20
7.9272290889
 30
0.0
 10
8.7535916203
 20
7.9197180017
 30
0.0
 10
8.7473370688
 20
7.9134587623
 30
0.0
 10
8.7423334274
 20
7.9084513709
 30
0.0
 10
8.738580697
 20
7.9046958269
 30
0.0
 10
8.7354534194
 20
7.9015662085
 30
0.0
 10
8.7329516024
 20
7.8990625102
 30
0.0
 10
8.7310752258
 20
7.8971847463
 30
0.0
 10
8.7291989023
 20
7.8953069447
 30
0.0
 10
8.7276351337
 20
7.8937422276
 30
0.0
 10
8.72638449
 20
7.8924901906
 30
0.0
 10
8.7254454931
 20
7.8915518821
 30
0.0
 10
8.7246662214
 20
7.8907676708
 30
0.0
 10
8.7241144009
 20
7.8902232121
 30
0.0
 10
8.7238089591
 20
7.8899050832
 30
0.0
 10
8.7235520337
 20
7.8896862329
 30
0.0
 10
8.7234015425
 20
7.889391902
 30
0.0
 10
8.7231637621
 20
7.8890257893
 30
0.0
 10
8.7227649438
 20
7.8883728252
 30
0.0
 10
8.7221861601
 20
7.8874464325
 30
0.0
 10
8.7214954905
 20
7.8863320163
 30
0.0
 10
8.7205732456
 20
7.8848470868
 30
0.0
 10
8.7194209034
 20
7.8829905959
 30
0.0
 10
8.7180378939
 20
7.880762948
 30
0.0
 10
8.7166549376
 20
7.8785352622
 30
0.0
 10
8.7148109773
 20
7.8755650278
 30
0.0
 10
8.7125060332
 20
7.8718522302
 30
0.0
 10
8.7097400977
 20
7.8673968751
 30
0.0
 10
8.7060521845
 20
7.8614564009
 30
0.0
 10
8.7014422928
 20
7.8540308083
 30
0.0
 10
8.6959104228
 20
7.8451200972
 30
0.0
 10
8.6903785529
 20
7.836209386
 30
0.0
 10
8.6848466826
 20
7.827298675
 30
0.0
 10
8.6802367917
 20
7.819873082
 30
0.0
 10
8.6765488768
 20
7.8139326088
 30
0.0
 10
8.6737829467
 20
7.8094772506
 30
0.0
 10
8.6714779855
 20
7.8057644625
 30
0.0
 10
8.6696340603
 20
7.8027942088
 30
0.0
 10
8.6682509967
 20
7.8005665818
 30
0.0
 10
8.6670988244
 20
7.7987100247
 30
0.0
 10
8.6661762326
 20
7.7972252304
 30
0.0
 10
8.6656015574
 20
7.7962962063
 30
0.0
 10
8.6651373636
 20
7.7955553406
 30
0.0
 10
8.6648574043
 20
7.7950869293
 30
0.0
 10
8.6646101618
 20
7.7947245004
 30
0.0
 10
8.664488458
 20
7.7944190007
 30
0.0
 10
8.6643846119
 20
7.7941040637
 30
0.0
 10
8.6641677337
 20
7.7934790444
 30
0.0
 10
8.6638462746
 20
7.7925394765
 30
0.0
 10
8.6634154573
 20
7.7912878846
 30
0.0
 10
8.6629852299
 20
7.7900359809
 30
0.0
 10
8.6624113876
 20
7.7883668849
 30
0.0
 10
8.6614072595
 20
7.785445916
 30
0.0
 10
8.6599727405
 20
7.7812731299
 30
0.0
 10
8.6582513393
 20
7.7762657752
 30
0.0
 10
8.6565299323
 20
7.7712584236
 30
0.0
 10
8.6548085269
 20
7.7662510711
 30
0.0
 10
8.6525133191
 20
7.7595746014
 30
0.0
 10
8.6496443095
 20
7.7512290142
 30
0.0
 10
8.646201498
 20
7.7412143097
 30
0.0
 10
8.6427586864
 20
7.7311996051
 30
0.0
 10
8.6398896768
 20
7.7228540179
 30
0.0
 10
8.6375944692
 20
7.7161775482
 30
0.0
 10
8.6358730631
 20
7.711170196
 30
0.0
 10
8.6341516586
 20
7.7061628432
 30
0.0
 10
8.632430248
 20
7.7011554928
 30
0.0
 10
8.6309957583
 20
7.6969826933
 30
0.0
 10
8.6299915779
 20
7.6940617484
 30
0.0
 10
8.6294178193
 20
7.6923926139
 30
0.0
 10
8.6289873347
 20
7.6911408283
 30
0.0
 10
8.6285574836
 20
7.6898887933
 30
0.0
 10
8.6282333187
 20
7.6889504661
 30
0.0
 10
8.6280199718
 20
7.6883238275
 30
0.0
 10
8.6279083646
 20
7.6880124496
 30
0.0
 10
8.6278159399
 20
7.6876935233
 30
0.0
 10
8.6277839814
 20
7.6872323719
 30
0.0
 10
8.627712781
 20
7.6866682304
 30
0.0
 10
8.6276163256
 20
7.6857587314
 30
0.0
 10
8.6274897763
 20
7.6846242107
 30
0.0
 10
8.6272906397
 20
7.6828076626
 30
0.0
 10
8.6270405722
 20
7.6805374286
 30
0.0
 10
8.6267409821
 20
7.6778129547
 30
0.0
 10
8.6263413571
 20
7.6741803903
 30
0.0
 10
8.6258418846
 20
7.6696396617
 30
0.0
 10
8.6252424925
 20
7.6641907972
 30
0.0
 10
8.6244433119
 20
7.6569256411
 30
0.0
 10
8.623444333
 20
7.6478441971
 30
0.0
 10
8.6222455597
 20
7.6369464639
 30
0.0
 10
8.621046786
 20
7.6260487308
 30
0.0
 10
8.6194484213
 20
7.61151842
 30
0.0
 10
8.6174504653
 20
7.5933555315
 30
0.0
 10
8.6158521005
 20
7.5788252206
 30
0.0
 10
8.6150529181
 20
7.5715600652
 30
0.0
  0
SPLINE
  5
3A0
100
AcDbEntity
  8
0
100
AcDbSpline
 62
4
  6
CONTINUOUS
 70
0
 71
3
 72
130
 73
126
 74
0
 42
0.0000001
 43
0.0000001
 44
0.0000000001
 40
0.0
 40
0.0
 40
0.0
 40
0.0
 40
0.03125
 40
0.0625
 40
0.078125
 40
0.09375
 40
0.109375
 40
0.125
 40
0.140625
 40
0.1484375
 40
0.15234375
 40
0.15625
 40
0.16015625
 40
0.1640625
 40
0.1650390625
 40
0.166015625
 40
0.1669921875
 40
0.16796875
 40
0.169921875
 40
0.171875
 40
0.17578125
 40
0.1796875
 40
0.1875
 40
0.1953125
 40
0.203125
 40
0.21875
 40
0.25
 40
0.28125
 40
0.296875
 40
0.3046875
 40
0.3125
 40
0.3203125
 40
0.32421875
 40
0.328125
 40
0.330078125
 40
0.33203125
 40
0.3330078125
 40
0.3334960938
 40
0.333984375
 40
0.3349609375
 40
0.3359375
 40
0.33984375
 40
0.34375
 40
0.34765625
 40
0.3515625
 40
0.359375
 40
0.375
 40
0.390625
 40
0.40625
 40
0.421875
 40
0.4375
 40
0.453125
 40
0.4609375
 40
0.46875
 40
0.4765625
 40
0.484375
 40
0.48828125
 40
0.4921875
 40
0.49609375
 40
0.498046875
 40
0.4990234375
 40
0.5
 40
0.5009765625
 40
0.501953125
 40
0.50390625
 40
0.5078125
 40
0.51171875
 40
0.515625
 40
0.5234375
 40
0.53125
 40
0.5390625
 40
0.546875
 40
0.5625
 40
0.578125
 40
0.59375
 40
0.609375
 40
0.625
 40
0.640625
 40
0.6484375
 40
0.65234375
 40
0.65625
 40
0.66015625
 40
0.6640625
 40
0.6650390625
 40
0.666015625
 40
0.6665039062
 40
0.6669921875
 40
0.66796875
 40
0.669921875
 40
0.671875
 40
0.67578125
 40
0.6796875
 40
0.6875
 40
0.6953125
 40
0.703125
 40
0.71875
 40
0.734375
 40
0.75
 40
0.765625
 40
0.78125
 40
0.796875
 40
0.8046875
 40
0.8125
 40
0.8203125
 40
0.82421875
 40
0.828125
 40
0.830078125
 40
0.83203125
 40
0.8330078125
 40
0.8334960938
 40
0.833984375
 40
0.8349609375
 40
0.8359375
 40
0.83984375
 40
0.84375
 40
0.84765625
 40
0.8515625
 40
0.859375
 40
0.875
 40
0.890625
 40
0.90625
 40
0.921875
 40
0.9375
 40
0.96875
 40
1.0
 40
1.0
 40
1.0
 40
1.0
 10
10.8417175997
 20
8.2325417455
 30
0.0
 10
10.8332553517
 20
8.2351820084
 30
0.0
 10
10.8163308555
 20
8.2404625344
 30
0.0
 10
10.7951752353
 20
8.2470631919
 30
0.0
 10
10.7782507392
 20
8.2523437178
 30
0.0
 10
10.7655573671
 20
8.2563041126
 30
0.0
 10
10.7528639947
 20
8.2602645057
 30
0.0
 10
10.7401706236
 20
8.2642249054
 30
0.0
 10
10.7295928104
 20
8.267525218
 30
0.0
 10
10.722188349
 20
8.2698354769
 30
0.0
 10
10.7179572159
 20
8.2711555623
 30
0.0
 10
10.7147839006
 20
8.2721458024
 30
0.0
 10
10.7116104534
 20
8.2731353694
 30
0.0
 10
10.7092307378
 20
8.2738794321
 30
0.0
 10
10.7076436857
 20
8.2743725385
 30
0.0
 10
10.7068511865
 20
8.2746243334
 30
0.0
 10
10.7060546948
 20
8.2748557487
 30
0.0
 10
10.7049737085
 20
8.2750673333
 30
0.0
 10
10.7036289803
 20
8.275365016
 30
0.0
 10
10.7014737802
 20
8.2758227535
 30
0.0
 10
10.6987810246
 20
8.2764012786
 30
0.0
 10
10.6944719201
 20
8.277323368
 30
0.0
 10
10.6890857782
 20
8.278477198
 30
0.0
 10
10.6826223056
 20
8.2798612725
 30
0.0
 10
10.6740043779
 20
8.2817068871
 30
0.0
 10
10.6589229878
 20
8.2849366278
 30
0.0
 10
10.6373781536
 20
8.289550589
 30
0.0
 10
10.6158333157
 20
8.294164528
 30
0.0
 10
10.6007519308
 20
8.2973942998
 30
0.0
 10
10.5921339948
 20
8.2992398655
 30
0.0
 10
10.5856705477
 20
8.3006240903
 30
0.0
 10
10.5802843261
 20
8.3017774499
 30
0.0
 10
10.5759753841
 20
8.3027004989
 30
0.0
 10
10.573282215
 20
8.303276582
 30
0.0
 10
10.5711278637
 20
8.3037393321
 30
0.0
 10
10.5697809745
 20
8.3040242531
 30
0.0
 10
10.568838993
 20
8.3042323111
 30
0.0
 10
10.5682994021
 20
8.304337725
 30
0.0
 10
10.567754855
 20
8.3043923801
 30
0.0
 10
10.5670758651
 20
8.3044780486
 30
0.0
 10
10.5654448952
 20
8.3046693734
 30
0.0
 10
10.562999026
 20
8.3049623581
 30
0.0
 10
10.5597375323
 20
8.3053495765
 30
0.0
 10
10.5564761281
 20
8.3057377118
 30
0.0
 10
10.552127558
 20
8.3062549057
 30
0.0
 10
10.5445175749
 20
8.3071601441
 30
0.0
 10
10.5336461628
 20
8.3084532638
 30
0.0
 10
10.5206004716
 20
8.3100050409
 30
0.0
 10
10.5075547795
 20
8.311556809
 30
0.0
 10
10.4945090876
 20
8.3131085798
 30
0.0
 10
10.4814633956
 20
8.3146603489
 30
0.0
 10
10.4705919857
 20
8.3159534929
 30
0.0
 10
10.4618948577
 20
8.3169880017
 30
0.0
 10
10.4553720118
 20
8.3177639007
 30
0.0
 10
10.4488491657
 20
8.3185397333
 30
0.0
 10
10.4434134611
 20
8.3191864672
 30
0.0
 10
10.4390648964
 20
8.3197033914
 30
0.0
 10
10.4358034758
 20
8.3200923491
 30
0.0
 10
10.4330856156
 20
8.3204124585
 30
0.0
 10
10.4311831327
 20
8.320644428
 30
0.0
 10
10.4300959696
 20
8.3207646579
 30
0.0
 10
10.4292806818
 20
8.3208895473
 30
0.0
 10
10.4284650709
 20
8.3208817309
 30
0.0
 10
10.4273777024
 20
8.3209175983
 30
0.0
 10
10.425474755
 20
8.3209587992
 30
0.0
 10
10.4227562862
 20
8.3210289331
 30
0.0
 10
10.4194941119
 20
8.3211082675
 30
0.0
 10
10.4151445503
 20
8.3212157326
 30
0.0
 10
10.4097075969
 20
8.3213494855
 30
0.0
 10
10.4031832533
 20
8.3215102369
 30
0.0
 10
10.3966589097
 20
8.321670922
 30
0.0
 10
10.3879597848
 20
8.321885192
 30
0.0
 10
10.3770858787
 20
8.3221530214
 30
0.0
 10
10.3640371914
 20
8.3224744204
 30
0.0
 10
10.350988504
 20
8.3227958177
 30
0.0
 10
10.3379398172
 20
8.3231172179
 30
0.0
 10
10.3248911278
 20
8.3234386085
 30
0.0
 10
10.3140172283
 20
8.3237064635
 30
0.0
 10
10.3064054823
 20
8.3238939042
 30
0.0
 10
10.3020559386
 20
8.3240011034
 30
0.0
 10
10.2987937093
 20
8.3240812484
 30
0.0
 10
10.2955317533
 20
8.3241623661
 30
0.0
 10
10.2930845201
 20
8.3242204771
 30
0.0
 10
10.2914542229
 20
8.3242634593
 30
0.0
 10
10.2907731591
 20
8.3242750568
 30
0.0
 10
10.2902324449
 20
8.3242990589
 30
0.0
 10
10.2896766019
 20
8.3242692143
 30
0.0
 10
10.2886968475
 20
8.3241919678
 30
0.0
 10
10.2873008657
 20
8.324094669
 30
0.0
 10
10.2850652453
 20
8.3239316962
 30
0.0
 10
10.2822714216
 20
8.3237304779
 30
0.0
 10
10.2778009114
 20
8.3234071326
 30
0.0
 10
10.2722129083
 20
8.32300343
 30
0.0
 10
10.2655072469
 20
8.3225187819
 30
0.0
 10
10.2565663852
 20
8.321872656
 30
0.0
 10
10.2453903012
 20
8.321064974
 30
0.0
 10
10.2319790033
 20
8.3200957662
 30
0.0
 10
10.2185677047
 20
8.3191265554
 30
0.0
 10
10.205156406
 20
8.3181573461
 30
0.0
 10
10.1917451084
 20
8.3171881338
 30
0.0
 10
10.1805690235
 20
8.3163804655
 30
0.0
 10
10.1716281636
 20
8.3157343117
 30
0.0
 10
10.1649224967
 20
8.3152497486
 30
0.0
 10
10.1593345111
 20
8.31484578
 30
0.0
 10
10.1548639651
 20
8.3145229774
 30
0.0
 10
10.1520702325
 20
8.3143203782
 30
0.0
 10
10.1498344252
 20
8.3141602399
 30
0.0
 10
10.1484389193
 20
8.3140557245
 30
0.0
 10
10.1474583101
 20
8.3139914399
 30
0.0
 10
10.1469038371
 20
8.3139408183
 30
0.0
 10
10.146371493
 20
8.3138378892
 30
0.0
 10
10.1456984991
 20
8.3137271068
 30
0.0
 10
10.1440895392
 20
8.3134465139
 30
0.0
 10
10.1416734845
 20
8.313031805
 30
0.0
 10
10.1384535727
 20
8.3124753273
 30
0.0
 10
10.1352332612
 20
8.3119197946
 30
0.0
 10
10.130939652
 20
8.3111787547
 30
0.0
 10
10.1234257708
 20
8.3098820883
 30
0.0
 10
10.1126916888
 20
8.3080296276
 30
0.0
 10
10.0998107759
 20
8.3058067091
 30
0.0
 10
10.0869298668
 20
8.3035837814
 30
0.0
 10
10.0740489567
 20
8.3013608561
 30
0.0
 10
10.0568744103
 20
8.2983969549
 30
0.0
 10
10.0354062272
 20
8.2946920788
 30
0.0
 10
10.0182316807
 20
8.2917281777
 30
0.0
 10
10.0096444074
 20
8.2902462272
 30
0.0
  0
SPLINE
  5
3A1
100
AcDbEntity
  8
0
100
AcDbSpline
 62
4
  6
CONTINUOUS
 70
0
 71
3
 72
157
 73
153
 74
0
 42
0.0000001
 43
0.0000001
 44
0.0000000001
 40
0.0
 40
0.0
 40
0.0
 40
0.0
 40
0.03125
 40
0.0625
 40
0.078125
 40
0.09375
 40
0.109375
 40
0.125
 40
0.1328125
 40
0.140625
 40
0.1484375
 40
0.15234375
 40
0.15625
 40
0.16015625
 40
0.162109375
 40
0.1640625
 40
0.1650390625
 40
0.166015625
 40
0.1665039062
 40
0.1669921875
 40
0.1674804688
 40
0.16796875
 40
0.169921875
 40
0.171875
 40
0.173828125
 40
0.17578125
 40
0.1796875
 40
0.1875
 40
0.1953125
 40
0.203125
 40
0.2109375
 40
0.21875
 40
0.234375
 40
0.25
 40
0.265625
 40
0.28125
 40
0.2890625
 40
0.296875
 40
0.3046875
 40
0.3125
 40
0.3203125
 40
0.32421875
 40
0.326171875
 40
0.328125
 40
0.330078125
 40
0.33203125
 40
0.3325195312
 40
0.3330078125
 40
0.3334960938
 40
0.333984375
 40
0.3349609375
 40
0.3359375
 40
0.337890625
 40
0.33984375
 40
0.34375
 40
0.34765625
 40
0.3515625
 40
0.359375
 40
0.3671875
 40
0.375
 40
0.390625
 40
0.40625
 40
0.421875
 40
0.4375
 40
0.453125
 40
0.4609375
 40
0.46875
 40
0.4765625
 40
0.484375
 40
0.48828125
 40
0.4921875
 40
0.494140625
 40
0.49609375
 40
0.498046875
 40
0.4990234375
 40
0.4995117188
 40
0.5
 40
0.5004882812
 40
0.5009765625
 40
0.501953125
 40
0.50390625
 40
0.505859375
 40
0.5078125
 40
0.51171875
 40
0.515625
 40
0.5234375
 40
0.53125
 40
0.5390625
 40
0.546875
 40
0.5625
 40
0.578125
 40
0.59375
 40
0.609375
 40
0.625
 40
0.6328125
 40
0.640625
 40
0.6484375
 40
0.65234375
 40
0.65625
 40
0.66015625
 40
0.662109375
 40
0.6640625
 40
0.6650390625
 40
0.666015625
 40
0.6665039062
 40
0.6669921875
 40
0.6674804688
 40
0.66796875
 40
0.669921875
 40
0.671875
 40
0.673828125
 40
0.67578125
 40
0.6796875
 40
0.6875
 40
0.6953125
 40
0.703125
 40
0.7109375
 40
0.71875
 40
0.734375
 40
0.75
 40
0.765625
 40
0.78125
 40
0.7890625
 40
0.796875
 40
0.8046875
 40
0.8125
 40
0.8203125
 40
0.82421875
 40
0.826171875
 40
0.828125
 40
0.830078125
 40
0.83203125
 40
0.8325195312
 40
0.8330078125
 40
0.8334960938
 40
0.833984375
 40
0.8349609375
 40
0.8359375
 40
0.837890625
 40
0.83984375
 40
0.84375
 40
0.84765625
 40
0.8515625
 40
0.859375
 40
0.8671875
 40
0.875
 40
0.890625
 40
0.90625
 40
0.921875
 40
0.9375
 40
0.96875
 40
1.0
 40
1.0
 40
1.0
 40
1.0
 10
12.2363090554
 20
7.3204251131
 30
0.0
 10
12.2355428185
 20
7.3276481105
 30
0.0
 10
12.2340103448
 20
7.3420941053
 30
0.0
 10
12.2320947527
 20
7.3601515988
 30
0.0
 10
12.230562279
 20
7.3745975936
 30
0.0
 10
12.2294129237
 20
7.3854320896
 30
0.0
 10
12.2282635687
 20
7.3962665858
 30
0.0
 10
12.2273057718
 20
7.4052953324
 30
0.0
 10
12.2265395366
 20
7.41251833
 30
0.0
 10
12.2259648537
 20
7.4179355773
 30
0.0
 10
12.2254859723
 20
7.4224499531
 30
0.0
 10
12.22510282
 20
7.4260614468
 30
0.0
 10
12.2248155845
 20
7.428770086
 30
0.0
 10
12.2245758121
 20
7.4310272252
 30
0.0
 10
12.2243849127
 20
7.4328330715
 30
0.0
 10
12.2242635091
 20
7.4339614182
 30
0.0
 10
12.2241711761
 20
7.4348647991
 30
0.0
 10
12.2241025389
 20
7.4354278071
 30
0.0
 10
12.2240726615
 20
7.4358818897
 30
0.0
 10
12.2239817137
 20
7.436212386
 30
0.0
 10
12.2238715596
 20
7.4365400618
 30
0.0
 10
12.2236611312
 20
7.4371968643
 30
0.0
 10
12.2233413389
 20
7.4381814586
 30
0.0
 10
12.222917321
 20
7.4394945994
 30
0.0
 10
12.2224926687
 20
7.440807647
 30
0.0
 10
12.2219266869
 20
7.4425584096
 30
0.0
 10
12.2209361156
 20
7.445622229
 30
0.0
 10
12.2195210676
 20
7.4499991218
 30
0.0
 10
12.217822987
 20
7.4552513898
 30
0.0
 10
12.2161249125
 20
7.4605036587
 30
0.0
 10
12.2144268364
 20
7.4657559273
 30
0.0
 10
12.2121627355
 20
7.4727589523
 30
0.0
 10
12.2093326092
 20
7.4815127335
 30
0.0
 10
12.2059364577
 20
7.4920172709
 30
0.0
 10
12.2025403062
 20
7.5025218082
 30
0.0
 10
12.19971018
 20
7.5112755894
 30
0.0
 10
12.1974460789
 20
7.5182786143
 30
0.0
 10
12.1957480035
 20
7.5235308831
 30
0.0
 10
12.1940499265
 20
7.5287831514
 30
0.0
 10
12.1923518555
 20
7.5340354216
 30
0.0
 10
12.1909367775
 20
7.5384123077
 30
0.0
 10
12.1899462598
 20
7.541476139
 30
0.0
 10
12.1893801921
 20
7.5432268826
 30
0.0
 10
12.1889558037
 20
7.5445399886
 30
0.0
 10
12.1885307943
 20
7.5458529098
 30
0.0
 10
12.1882137786
 20
7.546838119
 30
0.0
 10
12.1879997266
 20
7.5474941191
 30
0.0
 10
12.1878975366
 20
7.5478235584
 30
0.0
 10
12.1877765442
 20
7.5481474018
 30
0.0
 10
12.1875257555
 20
7.5485525663
 30
0.0
 10
12.1872429025
 20
7.5490681388
 30
0.0
 10
12.1867732186
 20
7.5498879598
 30
0.0
 10
12.1861919753
 20
7.5509144807
 30
0.0
 10
12.1852587101
 20
7.552555939
 30
0.0
 10
12.1840932525
 20
7.5546080965
 30
0.0
 10
12.1826942223
 20
7.5570705422
 30
0.0
 10
12.1808290167
 20
7.5603538532
 30
0.0
 10
12.1784974521
 20
7.5644579749
 30
0.0
 10
12.1756995992
 20
7.5693829281
 30
0.0
 10
12.1719691201
 20
7.5759495299
 30
0.0
 10
12.1673060241
 20
7.5841577831
 30
0.0
 10
12.1617103077
 20
7.5940076864
 30
0.0
 10
12.1561145917
 20
7.60385759
 30
0.0
 10
12.1505188755
 20
7.6137074933
 30
0.0
 10
12.145855779
 20
7.6219157465
 30
0.0
 10
12.142125301
 20
7.6284823483
 30
0.0
 10
12.1393274448
 20
7.6334073015
 30
0.0
 10
12.1365295796
 20
7.6383322475
 30
0.0
 10
12.1341980536
 20
7.6424363919
 30
0.0
 10
12.1323327692
 20
7.6457196565
 30
0.0
 10
12.1311671112
 20
7.6477718128
 30
0.0
 10
12.1302342533
 20
7.6494132722
 30
0.0
 10
12.1295355177
 20
7.6506450943
 30
0.0
 10
12.12895035
 20
7.6516692982
 30
0.0
 10
12.1285464002
 20
7.6523907831
 30
0.0
 10
12.1283067223
 20
7.652795968
 30
0.0
 10
12.128151893
 20
7.6531198354
 30
0.0
 10
12.1279017719
 20
7.653367334
 30
0.0
 10
12.127601516
 20
7.6537239705
 30
0.0
 10
12.1270605815
 20
7.6543356731
 30
0.0
 10
12.1262959145
 20
7.6552160226
 30
0.0
 10
12.1253748485
 20
7.6562696647
 30
0.0
 10
12.124147971
 20
7.6576754909
 30
0.0
 10
12.1226139596
 20
7.6594324415
 30
0.0
 10
12.1201597731
 20
7.6622437481
 30
0.0
 10
12.1170919604
 20
7.6657578177
 30
0.0
 10
12.1134106193
 20
7.6699747284
 30
0.0
 10
12.109729269
 20
7.6741916319
 30
0.0
 10
12.1048208052
 20
7.6798141724
 30
0.0
 10
12.0986852244
 20
7.6868423471
 30
0.0
 10
12.0913225278
 20
7.6952761572
 30
0.0
 10
12.0839598311
 20
7.7037099671
 30
0.0
 10
12.0765971346
 20
7.7121437773
 30
0.0
 10
12.0704615535
 20
7.7191719516
 30
0.0
 10
12.0655530902
 20
7.7247944929
 30
0.0
 10
12.0618717384
 20
7.729011394
 30
0.0
 10
12.0588039592
 20
7.7325254935
 30
0.0
 10
12.0563497043
 20
7.735336739
 30
0.0
 10
12.0545090995
 20
7.7374452665
 30
0.0
 10
12.0529749873
 20
7.7392020756
 30
0.0
 10
12.051748314
 20
7.7406081893
 30
0.0
 10
12.0509802394
 20
7.7414854928
 30
0.0
 10
12.0503689948
 20
7.7421908112
 30
0.0
 10
12.0499796311
 20
7.742623705
 30
0.0
 10
12.0496849424
 20
7.7429881836
 30
0.0
 10
12.0494179206
 20
7.74321181
 30
0.0
 10
12.0491380073
 20
7.7434215005
 30
0.0
 10
12.0485848122
 20
7.7438480502
 30
0.0
 10
12.0477522342
 20
7.7444848638
 30
0.0
 10
12.0466437222
 20
7.7453356696
 30
0.0
 10
12.0455347844
 20
7.746186015
 30
0.0
 10
12.0440563491
 20
7.7473199694
 30
0.0
 10
12.0414690182
 20
7.7493043148
 30
0.0
 10
12.0377728674
 20
7.7521391331
 30
0.0
 10
12.0333374709
 20
7.7555408983
 30
0.0
 10
12.0289020785
 20
7.758942668
 30
0.0
 10
12.0244666851
 20
7.7623444365
 30
0.0
 10
12.0185528275
 20
7.7668801282
 30
0.0
 10
12.0111605054
 20
7.7725497428
 30
0.0
 10
12.0022897189
 20
7.7793532803
 30
0.0
 10
11.9934189325
 20
7.7861568177
 30
0.0
 10
11.9860266104
 20
7.7918264324
 30
0.0
 10
11.9801127527
 20
7.7963621239
 30
0.0
 10
11.9756773597
 20
7.7997638929
 30
0.0
 10
11.9712419657
 20
7.8031656606
 30
0.0
 10
11.9668065753
 20
7.8065674334
 30
0.0
 10
11.9631104053
 20
7.8094022281
 30
0.0
 10
11.9605231087
 20
7.8113866156
 30
0.0
 10
11.9590446185
 20
7.8125205026
 30
0.0
 10
11.9579358492
 20
7.8133710551
 30
0.0
 10
11.9568267044
 20
7.8142210832
 30
0.0
 10
11.9559958983
 20
7.8148600742
 30
0.0
 10
11.9554403908
 20
7.8152837823
 30
0.0
 10
11.9551655598
 20
7.8154997182
 30
0.0
 10
11.9548793652
 20
7.8156997837
 30
0.0
 10
11.9544437029
 20
7.815891023
 30
0.0
 10
11.9539176383
 20
7.8161559282
 30
0.0
 10
11.9530655889
 20
7.8165653269
 30
0.0
 10
11.9520040697
 20
7.8170820228
 30
0.0
 10
11.950303659
 20
7.8179059711
 30
0.0
 10
11.9481788249
 20
7.8189368552
 30
0.0
 10
11.9456287333
 20
7.82017351
 30
0.0
 10
11.9422287126
 20
7.821822525
 30
0.0
 10
11.937978652
 20
7.823883745
 30
0.0
 10
11.9328785941
 20
7.8263572298
 30
0.0
 10
11.9260785118
 20
7.8296552024
 30
0.0
 10
11.9175784106
 20
7.8337776706
 30
0.0
 10
11.9073782885
 20
7.8387246313
 30
0.0
 10
11.8971781666
 20
7.8436715923
 30
0.0
 10
11.8835780039
 20
7.8502675403
 30
0.0
 10
11.8665778006
 20
7.8585124752
 30
0.0
 10
11.8529776379
 20
7.8651084232
 30
0.0
 10
11.8461775566
 20
7.8684063971
 30
0.0
  0
SPLINE
  5
3A2
100
AcDbEntity
  8
0
100
AcDbSpline
 62
4
  6
CONTINUOUS
 70
0
 71
3
 72
159
 73
155
 74
0
 42
0.0000001
 43
0.0000001
 44
0.0000000001
 40
0.0
 40
0.0
 40
0.0
 40
0.0
 40
0.03125
 40
0.0625
 40
0.078125
 40
0.09375
 40
0.109375
 40
0.125
 40
0.1328125
 40
0.140625
 40
0.1484375
 40
0.15234375
 40
0.15625
 40
0.16015625
 40
0.162109375
 40
0.1640625
 40
0.1650390625
 40
0.166015625
 40
0.1665039062
 40
0.1669921875
 40
0.1674804688
 40
0.16796875
 40
0.169921875
 40
0.171875
 40
0.173828125
 40
0.17578125
 40
0.1796875
 40
0.1875
 40
0.1953125
 40
0.203125
 40
0.2109375
 40
0.21875
 40
0.234375
 40
0.25
 40
0.265625
 40
0.28125
 40
0.2890625
 40
0.296875
 40
0.3046875
 40
0.3125
 40
0.3203125
 40
0.32421875
 40
0.326171875
 40
0.328125
 40
0.330078125
 40
0.33203125
 40
0.3325195312
 40
0.3330078125
 40
0.3334960938
 40
0.333984375
 40
0.3349609375
 40
0.3359375
 40
0.337890625
 40
0.33984375
 40
0.34375
 40
0.34765625
 40
0.3515625
 40
0.359375
 40
0.3671875
 40
0.375
 40
0.390625
 40
0.40625
 40
0.421875
 40
0.4375
 40
0.453125
 40
0.4609375
 40
0.46875
 40
0.4765625
 40
0.48046875
 40
0.484375
 40
0.48828125
 40
0.4921875
 40
0.494140625
 40
0.49609375
 40
0.498046875
 40
0.4990234375
 40
0.4995117188
 40
0.5
 40
0.5004882812
 40
0.5009765625
 40
0.501953125
 40
0.50390625
 40
0.505859375
 40
0.5078125
 40
0.51171875
 40
0.515625
 40
0.51953125
 40
0.5234375
 40
0.53125
 40
0.5390625
 40
0.546875
 40
0.5625
 40
0.578125
 40
0.59375
 40
0.609375
 40
0.625
 40
0.6328125
 40
0.640625
 40
0.6484375
 40
0.65234375
 40
0.65625
 40
0.66015625
 40
0.662109375
 40
0.6640625
 40
0.6650390625
 40
0.666015625
 40
0.6665039062
 40
0.6669921875
 40
0.6674804688
 40
0.66796875
 40
0.669921875
 40
0.671875
 40
0.673828125
 40
0.67578125
 40
0.6796875
 40
0.6875
 40
0.6953125
 40
0.703125
 40
0.7109375
 40
0.71875
 40
0.734375
 40
0.75
 40
0.765625
 40
0.78125
 40
0.7890625
 40
0.796875
 40
0.8046875
 40
0.8125
 40
0.8203125
 40
0.82421875
 40
0.826171875
 40
0.828125
 40
0.830078125
 40
0.83203125
 40
0.8325195312
 40
0.8330078125
 40
0.8334960938
 40
0.833984375
 40
0.8349609375
 40
0.8359375
 40
0.837890625
 40
0.83984375
 40
0.84375
 40
0.84765625
 40
0.8515625
 40
0.859375
 40
0.8671875
 40
0.875
 40
0.890625
 40
0.90625
 40
0.921875
 40
0.9375
 40
0.96875
 40
1.0
 40
1.0
 40
1.0
 40
1.0
 10
11.8461775701
 20
5.6191479004
 30
0.0
 10
11.852842287
 20
5.6214380707
 30
0.0
 10
11.8661717208
 20
5.6260184114
 30
0.0
 10
11.8828335132
 20
5.6317438372
 30
0.0
 10
11.896162947
 20
5.6363241779
 30
0.0
 10
11.9061600224
 20
5.6397594334
 30
0.0
 10
11.9161570979
 20
5.6431946887
 30
0.0
 10
11.9244879937
 20
5.6460574024
 30
0.0
 10
11.9311527114
 20
5.6483475711
 30
0.0
 10
11.9361512466
 20
5.6500652038
 30
0.0
 10
11.9403167027
 20
5.6514965448
 30
0.0
 10
11.9436490447
 20
5.6526416615
 30
0.0
 10
11.946148364
 20
5.653500379
 30
0.0
 10
11.94823093
 20
5.6542163588
 30
0.0
 10
11.9498974317
 20
5.6547882861
 30
0.0
 10
11.950937973
 20
5.6551476913
 30
0.0
 10
11.9517727474
 20
5.6554307479
 30
0.0
 10
11.9522891391
 20
5.6556178518
 30
0.0
 10
11.9527144885
 20
5.6557441875
 30
0.0
 10
11.952999998
 20
5.6559028654
 30
0.0
 10
11.9532761195
 20
5.6560794566
 30
0.0
 10
11.9538331916
 20
5.6564234243
 30
0.0
 10
11.9546667715
 20
5.6569432463
 30
0.0
 10
11.9557793707
 20
5.6576341301
 30
0.0
 10
11.9568916598
 20
5.6583256056
 30
0.0
 10
11.9583748201
 20
5.6592473666
 30
0.0
 10
11.9609703002
 20
5.6608605445
 30
0.0
 10
11.9646781553
 20
5.6631650341
 30
0.0
 10
11.96912757
 20
5.6659304431
 30
0.0
 10
11.9735769878
 20
5.6686958464
 30
0.0
 10
11.9780264048
 20
5.6714612512
 30
0.0
 10
11.9839589611
 20
5.6751484571
 30
0.0
 10
11.9913746564
 20
5.6797574646
 30
0.0
 10
12.0002734907
 20
5.6852882736
 30
0.0
 10
12.009172325
 20
5.6908190826
 30
0.0
 10
12.0165880204
 20
5.69542809
 30
0.0
 10
12.0225205765
 20
5.6991152961
 30
0.0
 10
12.0269699939
 20
5.7018807003
 30
0.0
 10
12.0314194102
 20
5.7046461059
 30
0.0
 10
12.0358688304
 20
5.7074115061
 30
0.0
 10
12.0395766687
 20
5.7097160232
 30
0.0
 10
12.0421721788
 20
5.711329152
 30
0.0
 10
12.0436552909
 20
5.7122509917
 30
0.0
 10
12.044767728
 20
5.7129422253
 30
0.0
 10
12.0458797715
 20
5.713634018
 30
0.0
 10
12.0467149074
 20
5.7141512947
 30
0.0
 10
12.047269949
 20
5.7144985842
 30
0.0
 10
12.0475505333
 20
5.714667875
 30
0.0
 10
12.0478192067
 20
5.7148540937
 30
0.0
 10
12.0481207636
 20
5.7151829315
 30
0.0
 10
12.048517115
 20
5.7155663999
 30
0.0
 10
12.0491404327
 20
5.7161953616
 30
0.0
 10
12.049923293
 20
5.7169762866
 30
0.0
 10
12.0511737941
 20
5.718228716
 30
0.0
 10
12.0527376326
 20
5.7197932408
 30
0.0
 10
12.0546139339
 20
5.7216711037
 30
0.0
 10
12.0571157756
 20
5.7241747696
 30
0.0
 10
12.0602430411
 20
5.7273044039
 30
0.0
 10
12.0639957753
 20
5.7310599428
 30
0.0
 10
12.0689994155
 20
5.7360673358
 30
0.0
 10
12.0752539676
 20
5.7423265744
 30
0.0
 10
12.0827594293
 20
5.7498376619
 30
0.0
 10
12.0902648912
 20
5.757348749
 30
0.0
 10
12.0977703531
 20
5.7648598362
 30
0.0
 10
12.1040249046
 20
5.7711190757
 30
0.0
 10
12.1090285461
 20
5.776126467
 30
0.0
 10
12.1127812765
 20
5.779882011
 30
0.0
 10
12.115908554
 20
5.7830116294
 30
0.0
 10
12.118410371
 20
5.7855153277
 30
0.0
 10
12.1202867477
 20
5.7873930916
 30
0.0
 10
12.1221630711
 20
5.7892708932
 30
0.0
 10
12.1237268398
 20
5.7908356103
 30
0.0
 10
12.1249774835
 20
5.7920876473
 30
0.0
 10
12.1259164804
 20
5.7930259558
 30
0.0
 10
12.1266957521
 20
5.7938101672
 30
0.0
 10
12.1272475726
 20
5.7943546258
 30
0.0
 10
12.1275530143
 20
5.7946727547
 30
0.0
 10
12.1278099397
 20
5.794891605
 30
0.0
 10
12.127960431
 20
5.7951859359
 30
0.0
 10
12.1281982114
 20
5.7955520486
 30
0.0
 10
12.1285970296
 20
5.7962050127
 30
0.0
 10
12.1291758133
 20
5.7971314054
 30
0.0
 10
12.1298664829
 20
5.7982458217
 30
0.0
 10
12.1307887279
 20
5.7997307511
 30
0.0
 10
12.13194107
 20
5.801587242
 30
0.0
 10
12.1333240796
 20
5.80381489
 30
0.0
 10
12.1347070359
 20
5.8060425757
 30
0.0
 10
12.1365509962
 20
5.8090128101
 30
0.0
 10
12.1388559402
 20
5.8127256077
 30
0.0
 10
12.1416218758
 20
5.8171809628
 30
0.0
 10
12.1453097889
 20
5.8231214371
 30
0.0
 10
12.1499196807
 20
5.8305470296
 30
0.0
 10
12.1554515507
 20
5.8394577407
 30
0.0
 10
12.1609834206
 20
5.8483684519
 30
0.0
 10
12.1665152908
 20
5.8572791629
 30
0.0
 10
12.1711251817
 20
5.8647047559
 30
0.0
 10
12.1748130967
 20
5.8706452291
 30
0.0
 10
12.1775790267
 20
5.8751005873
 30
0.0
 10
12.179883988
 20
5.8788133755
 30
0.0
 10
12.1817279132
 20
5.8817836291
 30
0.0
 10
12.1831109768
 20
5.8840112561
 30
0.0
 10
12.184263149
 20
5.8858678132
 30
0.0
 10
12.1851857408
 20
5.8873526075
 30
0.0
 10
12.185760416
 20
5.8882816316
 30
0.0
 10
12.1862246099
 20
5.8890224973
 30
0.0
 10
12.1865045692
 20
5.8894909086
 30
0.0
 10
12.1867518116
 20
5.8898533375
 30
0.0
 10
12.1868735155
 20
5.8901588373
 30
0.0
 10
12.1869773615
 20
5.8904737742
 30
0.0
 10
12.1871942398
 20
5.8910987935
 30
0.0
 10
12.1875156988
 20
5.8920383615
 30
0.0
 10
12.1879465161
 20
5.8932899534
 30
0.0
 10
12.1883767435
 20
5.894541857
 30
0.0
 10
12.1889505858
 20
5.8962109531
 30
0.0
 10
12.189954714
 20
5.8991319219
 30
0.0
 10
12.1913892329
 20
5.903304708
 30
0.0
 10
12.1931106341
 20
5.9083120627
 30
0.0
 10
12.1948320411
 20
5.9133194144
 30
0.0
 10
12.1965534466
 20
5.9183267668
 30
0.0
 10
12.1988486544
 20
5.9250032365
 30
0.0
 10
12.2017176639
 20
5.9333488237
 30
0.0
 10
12.2051604755
 20
5.9433635283
 30
0.0
 10
12.208603287
 20
5.9533782329
 30
0.0
 10
12.2114722967
 20
5.96172382
 30
0.0
 10
12.2137675043
 20
5.9684002898
 30
0.0
 10
12.2154889104
 20
5.9734076419
 30
0.0
 10
12.2172103148
 20
5.9784149947
 30
0.0
 10
12.2189317255
 20
5.9834223451
 30
0.0
 10
12.2203662151
 20
5.9875951447
 30
0.0
 10
12.2213703956
 20
5.9905160895
 30
0.0
 10
12.2219441541
 20
5.992185224
 30
0.0
 10
12.2223746388
 20
5.9934370097
 30
0.0
 10
12.2228044898
 20
5.9946890446
 30
0.0
 10
12.2231286547
 20
5.9956273718
 30
0.0
 10
12.2233420016
 20
5.9962540105
 30
0.0
 10
12.2234536089
 20
5.9965653883
 30
0.0
 10
12.2235460336
 20
5.9968843146
 30
0.0
 10
12.2235779921
 20
5.997345466
 30
0.0
 10
12.2236491924
 20
5.9979096075
 30
0.0
 10
12.2237456478
 20
5.9988191066
 30
0.0
 10
12.2238721971
 20
5.9999536272
 30
0.0
 10
12.2240713337
 20
6.0017701753
 30
0.0
 10
12.2243214012
 20
6.0040404093
 30
0.0
 10
12.2246209914
 20
6.0067648832
 30
0.0
 10
12.2250206164
 20
6.0103974476
 30
0.0
 10
12.2255200888
 20
6.0149381763
 30
0.0
 10
12.2261194809
 20
6.0203870407
 30
0.0
 10
12.2269186616
 20
6.0276521968
 30
0.0
 10
12.2279176404
 20
6.0367336408
 30
0.0
 10
12.2291164138
 20
6.047631374
 30
0.0
 10
12.2303151874
 20
6.0585291071
 30
0.0
 10
12.2319135522
 20
6.0730594179
 30
0.0
 10
12.2339115082
 20
6.0912223065
 30
0.0
 10
12.235509873
 20
6.1057526173
 30
0.0
 10
12.2363090554
 20
6.1130177727
 30
0.0
  0
SPLINE
  5
3A3
100
AcDbEntity
  8
0
100
AcDbSpline
 62
4
  6
CONTINUOUS
 70
0
 71
3
 72
271
 73
267
 74
0
 42
0.0000001
 43
0.0000001
 44
0.0000000001
 40
0.0
 40
0.0
 40
0.0
 40
0.0
 40
0.015625
 40
0.03125
 40
0.0390625
 40
0.046875
 40
0.05078125
 40
0.0546875
 40
0.05859375
 40
0.060546875
 40
0.0615234375
 40
0.0625
 40
0.0634765625
 40
0.064453125
 40
0.06640625
 40
0.0703125
 40
0.07421875
 40
0.078125
 40
0.0859375
 40
0.09375
 40
0.1015625
 40
0.109375
 40
0.11328125
 40
0.1171875
 40
0.12109375
 40
0.123046875
 40
0.1240234375
 40
0.125
 40
0.1259765625
 40
0.126953125
 40
0.12890625
 40
0.1328125
 40
0.13671875
 40
0.140625
 40
0.1484375
 40
0.15625
 40
0.1640625
 40
0.171875
 40
0.17578125
 40
0.1796875
 40
0.18359375
 40
0.185546875
 40
0.1865234375
 40
0.1875
 40
0.1884765625
 40
0.189453125
 40
0.19140625
 40
0.1953125
 40
0.19921875
 40
0.203125
 40
0.2109375
 40
0.21875
 40
0.2265625
 40
0.234375
 40
0.23828125
 40
0.2421875
 40
0.244140625
 40
0.24609375
 40
0.248046875
 40
0.2490234375
 40
0.2495117188
 40
0.25
 40
0.2504882812
 40
0.2509765625
 40
0.251953125
 40
0.25390625
 40
0.255859375
 40
0.2578125
 40
0.26171875
 40
0.265625
 40
0.2734375
 40
0.28125
 40
0.2890625
 40
0.296875
 40
0.30078125
 40
0.3046875
 40
0.306640625
 40
0.30859375
 40
0.310546875
 40
0.3115234375
 40
0.3120117188
 40
0.3125
 40
0.3129882812
 40
0.3134765625
 40
0.314453125
 40
0.31640625
 40
0.318359375
 40
0.3203125
 40
0.32421875
 40
0.328125
 40
0.3359375
 40
0.34375
 40
0.3515625
 40
0.359375
 40
0.36328125
 40
0.3671875
 40
0.369140625
 40
0.37109375
 40
0.373046875
 40
0.3740234375
 40
0.3745117188
 40
0.375
 40
0.3754882812
 40
0.3759765625
 40
0.376953125
 40
0.37890625
 40
0.380859375
 40
0.3828125
 40
0.38671875
 40
0.390625
 40
0.3984375
 40
0.40625
 40
0.4140625
 40
0.421875
 40
0.42578125
 40
0.4296875
 40
0.431640625
 40
0.43359375
 40
0.435546875
 40
0.4365234375
 40
0.4370117188
 40
0.4375
 40
0.4379882812
 40
0.4384765625
 40
0.439453125
 40
0.44140625
 40
0.443359375
 40
0.4453125
 40
0.44921875
 40
0.453125
 40
0.4609375
 40
0.46875
 40
0.4765625
 40
0.484375
 40
0.48828125
 40
0.4921875
 40
0.494140625
 40
0.49609375
 40
0.498046875
 40
0.4990234375
 40
0.4995117188
 40
0.5
 40
0.5004882812
 40
0.5009765625
 40
0.501953125
 40
0.50390625
 40
0.505859375
 40
0.5078125
 40
0.51171875
 40
0.515625
 40
0.5234375
 40
0.53125
 40
0.5390625
 40
0.546875
 40
0.55078125
 40
0.5546875
 40
0.556640625
 40
0.55859375
 40
0.560546875
 40
0.5615234375
 40
0.5620117188
 40
0.5625
 40
0.5629882812
 40
0.5634765625
 40
0.564453125
 40
0.56640625
 40
0.568359375
 40
0.5703125
 40
0.57421875
 40
0.578125
 40
0.5859375
 40
0.59375
 40
0.6015625
 40
0.609375
 40
0.61328125
 40
0.6171875
 40
0.619140625
 40
0.62109375
 40
0.623046875
 40
0.6240234375
 40
0.6245117188
 40
0.625
 40
0.6254882812
 40
0.6259765625
 40
0.626953125
 40
0.62890625
 40
0.630859375
 40
0.6328125
 40
0.63671875
 40
0.640625
 40
0.6484375
 40
0.65625
 40
0.6640625
 40
0.671875
 40
0.67578125
 40
0.6796875
 40
0.681640625
 40
0.68359375
 40
0.685546875
 40
0.6865234375
 40
0.6875
 40
0.6884765625
 40
0.689453125
 40
0.69140625
 40
0.693359375
 40
0.6953125
 40
0.69921875
 40
0.703125
 40
0.7109375
 40
0.71875
 40
0.7265625
 40
0.734375
 40
0.73828125
 40
0.7421875
 40
0.74609375
 40
0.748046875
 40
0.7490234375
 40
0.75
 40
0.7509765625
 40
0.751953125
 40
0.75390625
 40
0.7578125
 40
0.76171875
 40
0.765625
 40
0.7734375
 40
0.78125
 40
0.7890625
 40
0.796875
 40
0.80078125
 40
0.8046875
 40
0.80859375
 40
0.810546875
 40
0.8125
 40
0.814453125
 40
0.81640625
 40
0.8203125
 40
0.82421875
 40
0.828125
 40
0.8359375
 40
0.84375
 40
0.8515625
 40
0.859375
 40
0.8671875
 40
0.87109375
 40
0.873046875
 40
0.875
 40
0.876953125
 40
0.87890625
 40
0.8828125
 40
0.890625
 40
0.8984375
 40
0.90625
 40
0.9140625
 40
0.921875
 40
0.9296875
 40
0.93359375
 40
0.935546875
 40
0.9375
 40
0.939453125
 40
0.94140625
 40
0.9453125
 40
0.953125
 40
0.9609375
 40
0.96875
 40
0.984375
 40
1.0
 40
1.0
 40
1.0
 40
1.0
 10
12.7693135221
 20
8.833139599
 30
0.0
 10
12.7693874596
 20
8.8303967773
 30
0.0
 10
12.7695353375
 20
8.824911139
 30
0.0
 10
12.7697201699
 20
8.8180540655
 30
0.0
 10
12.7698680674
 20
8.8125684606
 30
0.0
 10
12.7699604319
 20
8.8091398358
 30
0.0
 10
12.7700344869
 20
8.8063972145
 30
0.0
 10
12.770089581
 20
8.8043394861
 30
0.0
 10
12.7701369152
 20
8.8026271377
 30
0.0
 10
12.7701672576
 20
8.8014237343
 30
0.0
 10
12.770188955
 20
8.8007435068
 30
0.0
 10
12.7701929488
 20
8.8002124014
 30
0.0
 10
12.77024388
 20
8.7997613192
 30
0.0
 10
12.770295416
 20
8.7991319632
 30
0.0
 10
12.7703932322
 20
8.7980435955
 30
0.0
 10
12.7705289814
 20
8.7964819852
 30
0.0
 10
12.7706935876
 20
8.7946109632
 30
0.0
 10
12.770912466
 20
8.7921152501
 30
0.0
 10
12.77118627
 20
8.788995961
 30
0.0
 10
12.7715147409
 20
8.7852526492
 30
0.0
 10
12.7718432576
 20
8.7815094331
 30
0.0
 10
12.7721169473
 20
8.7783899047
 30
0.0
 10
12.7723360544
 20
8.7758946702
 30
0.0
 10
12.7724999631
 20
8.7740221885
 30
0.0
 10
12.7726378944
 20
8.7724651446
 30
0.0
 10
12.7727318152
 20
8.7713686251
 30
0.0
 10
12.7727895925
 20
8.7707523304
 30
0.0
 10
12.7728213524
 20
8.7702611283
 30
0.0
 10
12.7728973505
 20
8.7698807063
 30
0.0
 10
12.7729832506
 20
8.7693348356
 30
0.0
 10
12.7731407652
 20
8.7683975656
 30
0.0
 10
12.7733620273
 20
8.7670491959
 30
0.0
 10
12.7736291507
 20
8.7654351812
 30
0.0
 10
12.7739847531
 20
8.7632817538
 30
0.0
 10
12.7744294502
 20
8.7605904563
 30
0.0
 10
12.7749629981
 20
8.7573606746
 30
0.0
 10
12.7754965898
 20
8.754131013
 30
0.0
 10
12.7759411775
 20
8.7514394151
 30
0.0
 10
12.7762969986
 20
8.7492865884
 30
0.0
 10
12.776563455
 20
8.7476707416
 30
0.0
 10
12.7767868038
 20
8.7463281037
 30
0.0
 10
12.7769405934
 20
8.7453806016
 30
0.0
 10
12.7770324618
 20
8.7448511252
 30
0.0
 10
12.7770901271
 20
8.744420345
 30
0.0
 10
12.7771907419
 20
8.7441182799
 30
0.0
 10
12.7773099137
 20
8.7436706291
 30
0.0
 10
12.7775254443
 20
8.7429081588
 30
0.0
 10
12.7778296959
 20
8.7418079789
 30
0.0
 10
12.7781963599
 20
8.7404924443
 30
0.0
 10
12.7786846996
 20
8.7387367629
 30
0.0
 10
12.7792953115
 20
8.7365427227
 30
0.0
 10
12.7800279651
 20
8.7339096317
 30
0.0
 10
12.7807606418
 20
8.7312766134
 30
0.0
 10
12.7813711961
 20
8.7290823914
 30
0.0
 10
12.7818596511
 20
8.7273270737
 30
0.0
 10
12.7821649114
 20
8.7262298704
 30
0.0
 10
12.7824091744
 20
8.725352404
 30
0.0
 10
12.782592222
 20
8.7246934934
 30
0.0
 10
12.7827452375
 20
8.7241469806
 30
0.0
 10
12.7828514146
 20
8.7237593597
 30
0.0
 10
12.7829135453
 20
8.7235457658
 30
0.0
 10
12.7829560359
 20
8.7233633054
 30
0.0
 10
12.783014227
 20
8.7232659532
 30
0.0
 10
12.7830863387
 20
8.7231064637
 30
0.0
 10
12.7832150858
 20
8.7228411886
 30
0.0
 10
12.7833976761
 20
8.7224549928
 30
0.0
 10
12.7836173555
 20
8.7219946531
 30
0.0
 10
12.783910062
 20
8.7213797857
 30
0.0
 10
12.7842760134
 20
8.7206115717
 30
0.0
 10
12.7848614974
 20
8.7193822223
 30
0.0
 10
12.7855933656
 20
8.7178456071
 30
0.0
 10
12.7864716014
 20
8.7160016361
 30
0.0
 10
12.7873498401
 20
8.7141576816
 30
0.0
 10
12.7880817013
 20
8.712621025
 30
0.0
 10
12.7886671992
 20
8.7113917583
 30
0.0
 10
12.7890331152
 20
8.7106233342
 30
0.0
 10
12.7893258943
 20
8.7100088979
 30
0.0
 10
12.7895453518
 20
8.7095472413
 30
0.0
 10
12.7897286365
 20
8.7091651658
 30
0.0
 10
12.7898561441
 20
8.7088925354
 30
0.0
 10
12.7899302416
 20
8.7087448308
 30
0.0
 10
12.789982333
 20
8.708611279
 30
0.0
 10
12.7900477334
 20
8.7085647787
 30
0.0
 10
12.7901302915
 20
8.7084724137
 30
0.0
 10
12.7902769313
 20
8.7083249223
 30
0.0
 10
12.7904852858
 20
8.708106824
 30
0.0
 10
12.7907357952
 20
8.7078482719
 30
0.0
 10
12.7910696388
 20
8.7075024299
 30
0.0
 10
12.7914870011
 20
8.7070705062
 30
0.0
 10
12.7921547484
 20
8.7063792164
 30
0.0
 10
12.7929894437
 20
8.7055151774
 30
0.0
 10
12.7939910731
 20
8.704478297
 30
0.0
 10
12.7949927047
 20
8.7034414338
 30
0.0
 10
12.7958273946
 20
8.7025773519
 30
0.0
 10
12.7964951527
 20
8.7018861478
 30
0.0
 10
12.7969124876
 20
8.7014540065
 30
0.0
 10
12.7972463875
 20
8.7011086111
 30
0.0
 10
12.7974967248
 20
8.7008486947
 30
0.0
 10
12.7977056179
 20
8.700634865
 30
0.0
 10
12.7978512962
 20
8.7004797534
 30
0.0
 10
12.7979353948
 20
8.700399598
 30
0.0
 10
12.7979960635
 20
8.7003155936
 30
0.0
 10
12.7980659262
 20
8.7003229005
 30
0.0
 10
12.7981558695
 20
8.7003007927
 30
0.0
 10
12.7983147645
 20
8.7002769437
 30
0.0
 10
12.7985409761
 20
8.7002351153
 30
0.0
 10
12.7988127645
 20
8.700188242
 30
0.0
 10
12.7991750321
 20
8.7001245844
 30
0.0
 10
12.7996279067
 20
8.7000454096
 30
0.0
 10
12.8003524837
 20
8.6999185078
 30
0.0
 10
12.8012582126
 20
8.6997599573
 30
0.0
 10
12.8023450838
 20
8.6995696616
 30
0.0
 10
12.8034319565
 20
8.6993793836
 30
0.0
 10
12.8043376816
 20
8.6992207886
 30
0.0
 10
12.8050622663
 20
8.6990939759
 30
0.0
 10
12.8055151212
 20
8.6990145748
 30
0.0
 10
12.8058774292
 20
8.6989513817
 30
0.0
 10
12.8061490943
 20
8.6989030894
 30
0.0
 10
12.8063756916
 20
8.6988657006
 30
0.0
 10
12.806533898
 20
8.6988339261
 30
0.0
 10
12.8066249445
 20
8.6988245169
 30
0.0
 10
12.8066914187
 20
8.6987928175
 30
0.0
 10
12.8067648142
 20
8.6988553145
 30
0.0
 10
12.8068602606
 20
8.6989057871
 30
0.0
 10
12.8070284166
 20
8.6990094228
 30
0.0
 10
12.8072680515
 20
8.6991494702
 30
0.0
 10
12.8075558651
 20
8.6993209529
 30
0.0
 10
12.8079395285
 20
8.6995483999
 30
0.0
 10
12.808419138
 20
8.6998331184
 30
0.0
 10
12.8091864963
 20
8.7002884389
 30
0.0
 10
12.8101457
 20
8.7008576686
 30
0.0
 10
12.8112967419
 20
8.7015407082
 30
0.0
 10
12.8124477843
 20
8.7022237655
 30
0.0
 10
12.8134069869
 20
8.7027929513
 30
0.0
 10
12.8141743475
 20
8.7032483596
 30
0.0
 10
12.8146539511
 20
8.7035328548
 30
0.0
 10
12.8150376265
 20
8.70376076
 30
0.0
 10
12.8153254036
 20
8.7039308428
 30
0.0
 10
12.8155651526
 20
8.7040752701
 30
0.0
 10
12.8157331048
 20
8.704171087
 30
0.0
 10
12.8158288779
 20
8.7042340873
 30
0.0
 10
12.8159012701
 20
8.7042581032
 30
0.0
 10
12.8159715123
 20
8.7043709325
 30
0.0
 10
12.8160659186
 20
8.7044903925
 30
0.0
 10
12.8162307801
 20
8.7047138813
 30
0.0
 10
12.8164664793
 20
8.7050256048
 30
0.0
 10
12.8167492401
 20
8.705402903
 30
0.0
 10
12.8171262817
 20
8.705904839
 30
0.0
 10
12.8175975745
 20
8.7065326454
 30
0.0
 10
12.8183516482
 20
8.7075369197
 30
0.0
 10
12.8192942384
 20
8.7087923371
 30
0.0
 10
12.8204253476
 20
8.710298804
 30
0.0
 10
12.8215564561
 20
8.7118052874
 30
0.0
 10
12.822499048
 20
8.7130606636
 30
0.0
 10
12.8232531184
 20
8.7140650203
 30
0.0
 10
12.8237244194
 20
8.714692617
 30
0.0
 10
12.8241014441
 20
8.7151949835
 30
0.0
 10
12.8243842569
 20
8.7155709667
 30
0.0
 10
12.8246197934
 20
8.7158868045
 30
0.0
 10
12.8247849453
 20
8.7161029486
 30
0.0
 10
12.8248788863
 20
8.7162341765
 30
0.0
 10
12.8249505577
 20
8.7163108584
 30
0.0
 10
12.8250175822
 20
8.7164706381
 30
0.0
 10
12.825108569
 20
8.7166546923
 30
0.0
 10
12.8252670409
 20
8.7169902919
 30
0.0
 10
12.825493824
 20
8.7174626594
 30
0.0
 10
12.8257657948
 20
8.7180325225
 30
0.0
 10
12.8261284816
 20
8.7187912845
 30
0.0
 10
12.8265818198
 20
8.7197400984
 30
0.0
 10
12.8273071722
 20
8.7212579985
 30
0.0
 10
12.8282138589
 20
8.7231554434
 30
0.0
 10
12.8293018848
 20
8.7254323457
 30
0.0
 10
12.8303899093
 20
8.727709263
 30
0.0
 10
12.8312965993
 20
8.7296066703
 30
0.0
 10
12.8320219451
 20
8.7311246457
 30
0.0
 10
12.8324753001
 20
8.7320732682
 30
0.0
 10
12.8328379524
 20
8.7328324229
 30
0.0
 10
12.8331100285
 20
8.7334010863
 30
0.0
 10
12.8333364822
 20
8.7338772074
 30
0.0
 10
12.8334955421
 20
8.7342061062
 30
0.0
 10
12.8335855868
 20
8.7344008967
 30
0.0
 10
12.8336555054
 20
8.7345276977
 30
0.0
 10
12.8337163071
 20
8.7347282422
 30
0.0
 10
12.8338005561
 20
8.7349699124
 30
0.0
 10
12.8339465102
 20
8.7354048197
 30
0.0
 10
12.8341557907
 20
8.7360198503
 30
0.0
 10
12.8344065958
 20
8.7367605688
 30
0.0
 10
12.8347411184
 20
8.7377472569
 30
0.0
 10
12.8351592319
 20
8.7389809376
 30
0.0
 10
12.8358282357
 20
8.7409546477
 30
0.0
 10
12.8366644831
 20
8.7434218456
 30
0.0
 10
12.8376679823
 20
8.746382462
 30
0.0
 10
12.8386714838
 20
8.7493430667
 30
0.0
 10
12.8395077255
 20
8.7518102936
 30
0.0
 10
12.8401767407
 20
8.7537839458
 30
0.0
 10
12.8405948252
 20
8.7550177736
 30
0.0
 10
12.8409294075
 20
8.7560041598
 30
0.0
 10
12.84118003
 20
8.7567458005
 30
0.0
 10
12.8413898816
 20
8.757357946
 30
0.0
 10
12.8415555213
 20
8.7578608689
 30
0.0
 10
12.8416858759
 20
8.7582019746
 30
0.0
 10
12.8417928524
 20
8.7586808231
 30
0.0
 10
12.8419436539
 20
8.7592711723
 30
0.0
 10
12.8421293541
 20
8.7600256169
 30
0.0
 10
12.8423533936
 20
8.7609238845
 30
0.0
 10
12.842651694
 20
8.7621240426
 30
0.0
 10
12.8430247129
 20
8.7636233952
 30
0.0
 10
12.8436214632
 20
8.7660228314
 30
0.0
 10
12.8443674274
 20
8.769021967
 30
0.0
 10
12.8452625778
 20
8.772620988
 30
0.0
 10
12.8461577126
 20
8.7762200311
 30
0.0
 10
12.8469037159
 20
8.7792191117
 30
0.0
 10
12.847500388
 20
8.7816186577
 30
0.0
 10
12.8479482492
 20
8.7834175458
 30
0.0
 10
12.8483203309
 20
8.7849190735
 30
0.0
 10
12.8485830173
 20
8.7859653263
 30
0.0
 10
12.848729643
 20
8.7865707058
 30
0.0
 10
12.848849418
 20
8.787003554
 30
0.0
 10
12.8489317107
 20
8.7875173878
 30
0.0
 10
12.8490545085
 20
8.7881742508
 30
0.0
 10
12.8492633132
 20
8.7893369227
 30
0.0
 10
12.8495647904
 20
8.7909910014
 30
0.0
 10
12.8499251999
 20
8.7929788411
 30
0.0
 10
12.8504062215
 20
8.795628266
 30
0.0
 10
12.8510073386
 20
8.7989403949
 30
0.0
 10
12.8517287337
 20
8.8029148219
 30
0.0
 10
12.8524501663
 20
8.8068892032
 30
0.0
 10
12.8530511897
 20
8.8102014462
 30
0.0
 10
12.8535323988
 20
8.8128506429
 30
0.0
 10
12.8538922367
 20
8.8148391784
 30
0.0
 10
12.8541955019
 20
8.8164910805
 30
0.0
 10
12.8544304879
 20
8.817824289
 30
0.0
 10
12.8546275657
 20
8.8187922614
 30
0.0
 10
12.8547451034
 20
8.8198821264
 30
0.0
 10
12.8549296047
 20
8.8212927011
 30
0.0
 10
12.8551506987
 20
8.8230705279
 30
0.0
 10
12.8554200914
 20
8.8251976674
 30
0.0
 10
12.8557778583
 20
8.8280360365
 30
0.0
 10
12.8562255423
 20
8.8315832564
 30
0.0
 10
12.8567626167
 20
8.8358402044
 30
0.0
 10
12.8572995158
 20
8.8400972023
 30
0.0
 10
12.8578372625
 20
8.8443537165
 30
0.0
 10
12.8582827058
 20
8.8479023825
 30
0.0
 10
12.858599771
 20
8.8503833616
 30
0.0
 10
12.8587727464
 20
8.8518058848
 30
0.0
 10
12.8589255907
 20
8.8528591966
 30
0.0
 10
12.8589900863
 20
8.8539644203
 30
0.0
 10
12.8591068975
 20
8.8554199443
 30
0.0
 10
12.8592969583
 20
8.8579755482
 30
0.0
 10
12.8595759856
 20
8.8616219989
 30
0.0
 10
12.8599075816
 20
8.8659996334
 30
0.0
 10
12.8602401059
 20
8.8703767522
 30
0.0
 10
12.8605721536
 20
8.8747540401
 30
0.0
 10
12.8609051791
 20
8.8791311673
 30
0.0
 10
12.8611798384
 20
8.882779168
 30
0.0
 10
12.8613776821
 20
8.88533201
 30
0.0
 10
12.8614820249
 20
8.8867919588
 30
0.0
 10
12.8615848193
 20
8.8878835912
 30
0.0
 10
12.8615938197
 20
8.8889879493
 30
0.0
 10
12.8616385367
 20
8.8904559879
 30
0.0
 10
12.8617015483
 20
8.8930271236
 30
0.0
 10
12.8617995341
 20
8.8966990933
 30
0.0
 10
12.8619137059
 20
8.9011059198
 30
0.0
 10
12.8620671269
 20
8.9069815267
 30
0.0
 10
12.8622584915
 20
8.9143260912
 30
0.0
 10
12.8624117086
 20
8.9202017258
 30
0.0
 10
12.8624883014
 20
8.9231395452
 30
0.0
  0
SPLINE
  5
3A4
100
AcDbEntity
  8
0
100
AcDbSpline
 62
4
  6
CONTINUOUS
 70
0
 71
3
 72
271
 73
267
 74
0
 42
0.0000001
 43
0.0000001
 44
0.0000000001
 40
0.0
 40
0.0
 40
0.0
 40
0.0
 40
0.015625
 40
0.03125
 40
0.0390625
 40
0.046875
 40
0.05078125
 40
0.0546875
 40
0.05859375
 40
0.060546875
 40
0.0615234375
 40
0.0625
 40
0.0634765625
 40
0.064453125
 40
0.06640625
 40
0.0703125
 40
0.07421875
 40
0.078125
 40
0.0859375
 40
0.09375
 40
0.1015625
 40
0.109375
 40
0.11328125
 40
0.1171875
 40
0.12109375
 40
0.123046875
 40
0.1240234375
 40
0.125
 40
0.1259765625
 40
0.126953125
 40
0.12890625
 40
0.1328125
 40
0.13671875
 40
0.140625
 40
0.1484375
 40
0.15625
 40
0.1640625
 40
0.171875
 40
0.17578125
 40
0.1796875
 40
0.18359375
 40
0.185546875
 40
0.1865234375
 40
0.1875
 40
0.1884765625
 40
0.189453125
 40
0.19140625
 40
0.1953125
 40
0.19921875
 40
0.203125
 40
0.2109375
 40
0.21875
 40
0.2265625
 40
0.234375
 40
0.23828125
 40
0.2421875
 40
0.244140625
 40
0.24609375
 40
0.248046875
 40
0.2490234375
 40
0.2495117188
 40
0.25
 40
0.2504882812
 40
0.2509765625
 40
0.251953125
 40
0.25390625
 40
0.255859375
 40
0.2578125
 40
0.26171875
 40
0.265625
 40
0.2734375
 40
0.28125
 40
0.2890625
 40
0.296875
 40
0.30078125
 40
0.3046875
 40
0.306640625
 40
0.30859375
 40
0.310546875
 40
0.3115234375
 40
0.3120117188
 40
0.3125
 40
0.3129882812
 40
0.3134765625
 40
0.314453125
 40
0.31640625
 40
0.318359375
 40
0.3203125
 40
0.32421875
 40
0.328125
 40
0.3359375
 40
0.34375
 40
0.3515625
 40
0.359375
 40
0.36328125
 40
0.3671875
 40
0.369140625
 40
0.37109375
 40
0.373046875
 40
0.3740234375
 40
0.3745117188
 40
0.375
 40
0.3754882812
 40
0.3759765625
 40
0.376953125
 40
0.37890625
 40
0.380859375
 40
0.3828125
 40
0.38671875
 40
0.390625
 40
0.3984375
 40
0.40625
 40
0.4140625
 40
0.421875
 40
0.42578125
 40
0.4296875
 40
0.431640625
 40
0.43359375
 40
0.435546875
 40
0.4365234375
 40
0.4370117188
 40
0.4375
 40
0.4379882812
 40
0.4384765625
 40
0.439453125
 40
0.44140625
 40
0.443359375
 40
0.4453125
 40
0.44921875
 40
0.453125
 40
0.4609375
 40
0.46875
 40
0.4765625
 40
0.484375
 40
0.48828125
 40
0.4921875
 40
0.494140625
 40
0.49609375
 40
0.498046875
 40
0.4990234375
 40
0.4995117188
 40
0.5
 40
0.5004882812
 40
0.5009765625
 40
0.501953125
 40
0.50390625
 40
0.505859375
 40
0.5078125
 40
0.51171875
 40
0.515625
 40
0.5234375
 40
0.53125
 40
0.5390625
 40
0.546875
 40
0.55078125
 40
0.5546875
 40
0.556640625
 40
0.55859375
 40
0.560546875
 40
0.5615234375
 40
0.5620117188
 40
0.5625
 40
0.5629882812
 40
0.5634765625
 40
0.564453125
 40
0.56640625
 40
0.568359375
 40
0.5703125
 40
0.57421875
 40
0.578125
 40
0.5859375
 40
0.59375
 40
0.6015625
 40
0.609375
 40
0.61328125
 40
0.6171875
 40
0.619140625
 40
0.62109375
 40
0.623046875
 40
0.6240234375
 40
0.6245117188
 40
0.625
 40
0.6254882812
 40
0.6259765625
 40
0.626953125
 40
0.62890625
 40
0.630859375
 40
0.6328125
 40
0.63671875
 40
0.640625
 40
0.6484375
 40
0.65625
 40
0.6640625
 40
0.671875
 40
0.67578125
 40
0.6796875
 40
0.681640625
 40
0.68359375
 40
0.685546875
 40
0.6865234375
 40
0.6875
 40
0.6884765625
 40
0.689453125
 40
0.69140625
 40
0.693359375
 40
0.6953125
 40
0.69921875
 40
0.703125
 40
0.7109375
 40
0.71875
 40
0.7265625
 40
0.734375
 40
0.73828125
 40
0.7421875
 40
0.74609375
 40
0.748046875
 40
0.7490234375
 40
0.75
 40
0.7509765625
 40
0.751953125
 40
0.75390625
 40
0.7578125
 40
0.76171875
 40
0.765625
 40
0.7734375
 40
0.78125
 40
0.7890625
 40
0.796875
 40
0.80078125
 40
0.8046875
 40
0.80859375
 40
0.810546875
 40
0.8125
 40
0.814453125
 40
0.81640625
 40
0.8203125
 40
0.82421875
 40
0.828125
 40
0.8359375
 40
0.84375
 40
0.8515625
 40
0.859375
 40
0.8671875
 40
0.87109375
 40
0.873046875
 40
0.875
 40
0.876953125
 40
0.87890625
 40
0.8828125
 40
0.890625
 40
0.8984375
 40
0.90625
 40
0.9140625
 40
0.921875
 40
0.9296875
 40
0.93359375
 40
0.935546875
 40
0.9375
 40
0.939453125
 40
0.94140625
 40
0.9453125
 40
0.953125
 40
0.9609375
 40
0.96875
 40
0.984375
 40
1.0
 40
1.0
 40
1.0
 40
1.0
 10
12.8624883014
 20
8.92313953
 30
0.0
 10
12.862414364
 20
8.9258823517
 30
0.0
 10
12.862266486
 20
8.93136799
 30
0.0
 10
12.8620816536
 20
8.9382250634
 30
0.0
 10
12.8619337562
 20
8.9437106684
 30
0.0
 10
12.8618413916
 20
8.9471392932
 30
0.0
 10
12.8617673366
 20
8.9498819145
 30
0.0
 10
12.8617122425
 20
8.9519396429
 30
0.0
 10
12.8616649083
 20
8.9536519913
 30
0.0
 10
12.861634566
 20
8.9548553947
 30
0.0
 10
12.8616128686
 20
8.9555356222
 30
0.0
 10
12.8616088747
 20
8.9560667276
 30
0.0
 10
12.8615579435
 20
8.9565178098
 30
0.0
 10
12.8615064075
 20
8.9571471658
 30
0.0
 10
12.8614085914
 20
8.9582355335
 30
0.0
 10
12.8612728421
 20
8.9597971438
 30
0.0
 10
12.861108236
 20
8.9616681658
 30
0.0
 10
12.8608893575
 20
8.9641638789
 30
0.0
 10
12.8606155536
 20
8.967283168
 30
0.0
 10
12.8602870826
 20
8.9710264798
 30
0.0
 10
12.8599585659
 20
8.9747696959
 30
0.0
 10
12.8596848763
 20
8.9778892243
 30
0.0
 10
12.8594657692
 20
8.9803844588
 30
0.0
 10
12.8593018605
 20
8.9822569404
 30
0.0
 10
12.8591639291
 20
8.9838139843
 30
0.0
 10
12.8590700083
 20
8.9849105039
 30
0.0
 10
12.859012231
 20
8.9855267986
 30
0.0
 10
12.8589804712
 20
8.9860180007
 30
0.0
 10
12.858904473
 20
8.9863984227
 30
0.0
 10
12.858818573
 20
8.9869442934
 30
0.0
 10
12.8586610584
 20
8.9878815634
 30
0.0
 10
12.8584397963
 20
8.9892299331
 30
0.0
 10
12.8581726728
 20
8.9908439477
 30
0.0
 10
12.8578170705
 20
8.9929973752
 30
0.0
 10
12.8573723734
 20
8.9956886726
 30
0.0
 10
12.8568388254
 20
8.9989184544
 30
0.0
 10
12.8563052338
 20
9.002148116
 30
0.0
 10
12.855860646
 20
9.0048397138
 30
0.0
 10
12.8555048249
 20
9.0069925406
 30
0.0
 10
12.8552383685
 20
9.0086083874
 30
0.0
 10
12.8550150198
 20
9.0099510253
 30
0.0
 10
12.8548612302
 20
9.0108985274
 30
0.0
 10
12.8547693618
 20
9.0114280037
 30
0.0
 10
12.8547116964
 20
9.0118587839
 30
0.0
 10
12.8546110817
 20
9.0121608491
 30
0.0
 10
12.8544919099
 20
9.0126084998
 30
0.0
 10
12.8542763793
 20
9.0133709702
 30
0.0
 10
12.8539721276
 20
9.01447115
 30
0.0
 10
12.8536054636
 20
9.0157866847
 30
0.0
 10
12.8531171239
 20
9.0175423661
 30
0.0
 10
12.852506512
 20
9.0197364062
 30
0.0
 10
12.8517738584
 20
9.0223694973
 30
0.0
 10
12.8510411817
 20
9.0250025156
 30
0.0
 10
12.8504306274
 20
9.0271967376
 30
0.0
 10
12.8499421725
 20
9.0289520553
 30
0.0
 10
12.8496369121
 20
9.0300492585
 30
0.0
 10
12.8493926492
 20
9.0309267249
 30
0.0
 10
12.8492096015
 20
9.0315856355
 30
0.0
 10
12.849056586
 20
9.0321321484
 30
0.0
 10
12.848950409
 20
9.0325197693
 30
0.0
 10
12.8488882783
 20
9.0327333631
 30
0.0
 10
12.8488457877
 20
9.0329158236
 30
0.0
 10
12.8487875965
 20
9.0330131757
 30
0.0
 10
12.8487154848
 20
9.0331726653
 30
0.0
 10
12.8485867378
 20
9.0334379404
 30
0.0
 10
12.8484041474
 20
9.0338241362
 30
0.0
 10
12.848184468
 20
9.0342844759
 30
0.0
 10
12.8478917615
 20
9.0348993432
 30
0.0
 10
12.8475258102
 20
9.0356675572
 30
0.0
 10
12.8469403262
 20
9.0368969066
 30
0.0
 10
12.846208458
 20
9.0384335219
 30
0.0
 10
12.8453302221
 20
9.0402774929
 30
0.0
 10
12.8444519835
 20
9.0421214474
 30
0.0
 10
12.8437201222
 20
9.0436581039
 30
0.0
 10
12.8431346243
 20
9.0448873707
 30
0.0
 10
12.8427687083
 20
9.0456557947
 30
0.0
 10
12.8424759292
 20
9.0462702311
 30
0.0
 10
12.8422564717
 20
9.0467318876
 30
0.0
 10
12.8420731871
 20
9.0471139632
 30
0.0
 10
12.8419456794
 20
9.0473865936
 30
0.0
 10
12.8418715819
 20
9.0475342981
 30
0.0
 10
12.8418194905
 20
9.04766785
 30
0.0
 10
12.8417540902
 20
9.0477143503
 30
0.0
 10
12.841671532
 20
9.0478067153
 30
0.0
 10
12.8415248923
 20
9.0479542067
 30
0.0
 10
12.8413165378
 20
9.048172305
 30
0.0
 10
12.8410660283
 20
9.0484308571
 30
0.0
 10
12.8407321848
 20
9.048776699
 30
0.0
 10
12.8403148225
 20
9.0492086228
 30
0.0
 10
12.8396470751
 20
9.0498999125
 30
0.0
 10
12.8388123798
 20
9.0507639516
 30
0.0
 10
12.8378107504
 20
9.0518008319
 30
0.0
 10
12.8368091189
 20
9.0528376952
 30
0.0
 10
12.8359744289
 20
9.053701777
 30
0.0
 10
12.8353066708
 20
9.0543929811
 30
0.0
 10
12.8348893359
 20
9.0548251225
 30
0.0
 10
12.8345554361
 20
9.0551705179
 30
0.0
 10
12.8343050987
 20
9.0554304343
 30
0.0
 10
12.8340962057
 20
9.055644264
 30
0.0
 10
12.8339505273
 20
9.0557993756
 30
0.0
 10
12.8338664288
 20
9.055879531
 30
0.0
 10
12.8338057601
 20
9.0559635353
 30
0.0
 10
12.8337358973
 20
9.0559562284
 30
0.0
 10
12.833645954
 20
9.0559783363
 30
0.0
 10
12.8334870591
 20
9.0560021853
 30
0.0
 10
12.8332608474
 20
9.0560440137
 30
0.0
 10
12.8329890591
 20
9.056090887
 30
0.0
 10
12.8326267914
 20
9.0561545446
 30
0.0
 10
12.8321739168
 20
9.0562337194
 30
0.0
 10
12.8314493399
 20
9.0563606212
 30
0.0
 10
12.830543611
 20
9.0565191717
 30
0.0
 10
12.8294567398
 20
9.0567094674
 30
0.0
 10
12.828369867
 20
9.0568997453
 30
0.0
 10
12.827464142
 20
9.0570583403
 30
0.0
 10
12.8267395573
 20
9.0571851531
 30
0.0
 10
12.8262867024
 20
9.0572645542
 30
0.0
 10
12.8259243944
 20
9.0573277473
 30
0.0
 10
12.8256527293
 20
9.0573760396
 30
0.0
 10
12.825426132
 20
9.0574134283
 30
0.0
 10
12.8252679255
 20
9.0574452029
 30
0.0
 10
12.825176879
 20
9.057454612
 30
0.0
 10
12.8251104049
 20
9.0574863115
 30
0.0
 10
12.8250370094
 20
9.0574238144
 30
0.0
 10
12.824941563
 20
9.0573733418
 30
0.0
 10
12.8247734069
 20
9.0572697062
 30
0.0
 10
12.824533772
 20
9.0571296587
 30
0.0
 10
12.8242459585
 20
9.0569581761
 30
0.0
 10
12.823862295
 20
9.0567307291
 30
0.0
 10
12.8233826855
 20
9.0564460106
 30
0.0
 10
12.8226153272
 20
9.0559906901
 30
0.0
 10
12.8216561236
 20
9.0554214604
 30
0.0
 10
12.8205050816
 20
9.0547384207
 30
0.0
 10
12.8193540392
 20
9.0540553635
 30
0.0
 10
12.8183948367
 20
9.0534861777
 30
0.0
 10
12.8176274761
 20
9.0530307694
 30
0.0
 10
12.8171478724
 20
9.0527462741
 30
0.0
 10
12.816764197
 20
9.0525183689
 30
0.0
 10
12.81647642
 20
9.0523482861
 30
0.0
 10
12.8162366709
 20
9.0522038588
 30
0.0
 10
12.8160687187
 20
9.052108042
 30
0.0
 10
12.8159729457
 20
9.0520450417
 30
0.0
 10
12.8159005534
 20
9.0520210258
 30
0.0
 10
12.8158303112
 20
9.0519081964
 30
0.0
 10
12.815735905
 20
9.0517887364
 30
0.0
 10
12.8155710434
 20
9.0515652477
 30
0.0
 10
12.8153353443
 20
9.0512535242
 30
0.0
 10
12.8150525835
 20
9.050876226
 30
0.0
 10
12.8146755418
 20
9.0503742899
 30
0.0
 10
12.814204249
 20
9.0497464835
 30
0.0
 10
12.8134501754
 20
9.0487422093
 30
0.0
 10
12.8125075851
 20
9.0474867919
 30
0.0
 10
12.811376476
 20
9.045980325
 30
0.0
 10
12.8102453674
 20
9.0444738415
 30
0.0
 10
12.8093027756
 20
9.0432184654
 30
0.0
 10
12.8085487052
 20
9.0422141086
 30
0.0
 10
12.8080774041
 20
9.0415865119
 30
0.0
 10
12.8077003794
 20
9.0410841454
 30
0.0
 10
12.8074175667
 20
9.0407081622
 30
0.0
 10
12.8071820302
 20
9.0403923245
 30
0.0
 10
12.8070168783
 20
9.0401761804
 30
0.0
 10
12.8069229373
 20
9.0400449524
 30
0.0
 10
12.8068512659
 20
9.0399682705
 30
0.0
 10
12.8067842414
 20
9.0398084908
 30
0.0
 10
12.8066932545
 20
9.0396244367
 30
0.0
 10
12.8065347827
 20
9.0392888371
 30
0.0
 10
12.8063079995
 20
9.0388164696
 30
0.0
 10
12.8060360287
 20
9.0382466064
 30
0.0
 10
12.805673342
 20
9.0374878445
 30
0.0
 10
12.8052200038
 20
9.0365390306
 30
0.0
 10
12.8044946513
 20
9.0350211305
 30
0.0
 10
12.8035879647
 20
9.0331236855
 30
0.0
 10
12.8024999388
 20
9.0308467833
 30
0.0
 10
12.8014119142
 20
9.028569866
 30
0.0
 10
12.8005052243
 20
9.0266724587
 30
0.0
 10
12.7997798784
 20
9.0251544833
 30
0.0
 10
12.7993265234
 20
9.0242058607
 30
0.0
 10
12.7989638711
 20
9.0234467061
 30
0.0
 10
12.7986917951
 20
9.0228780427
 30
0.0
 10
12.7984653413
 20
9.0224019216
 30
0.0
 10
12.7983062814
 20
9.0220730228
 30
0.0
 10
12.7982162367
 20
9.0218782322
 30
0.0
 10
12.7981463182
 20
9.0217514313
 30
0.0
 10
12.7980855165
 20
9.0215508867
 30
0.0
 10
12.7980012674
 20
9.0213092166
 30
0.0
 10
12.7978553133
 20
9.0208743092
 30
0.0
 10
12.7976460328
 20
9.0202592787
 30
0.0
 10
12.7973952277
 20
9.0195185601
 30
0.0
 10
12.7970607052
 20
9.0185318721
 30
0.0
 10
12.7966425916
 20
9.0172981914
 30
0.0
 10
12.7959735878
 20
9.0153244813
 30
0.0
 10
12.7951373404
 20
9.0128572833
 30
0.0
 10
12.7941338412
 20
9.009896667
 30
0.0
 10
12.7931303397
 20
9.0069360623
 30
0.0
 10
12.7922940981
 20
9.0044688353
 30
0.0
 10
12.7916250828
 20
9.0024951831
 30
0.0
 10
12.7912069984
 20
9.0012613554
 30
0.0
 10
12.7908724161
 20
9.0002749692
 30
0.0
 10
12.7906217935
 20
8.9995333285
 30
0.0
 10
12.790411942
 20
8.998921183
 30
0.0
 10
12.7902463022
 20
8.99841826
 30
0.0
 10
12.7901159477
 20
8.9980771543
 30
0.0
 10
12.7900089712
 20
8.9975983059
 30
0.0
 10
12.7898581696
 20
8.9970079567
 30
0.0
 10
12.7896724694
 20
8.996253512
 30
0.0
 10
12.78944843
 20
8.9953552445
 30
0.0
 10
12.7891501296
 20
8.9941550864
 30
0.0
 10
12.7887771106
 20
8.9926557337
 30
0.0
 10
12.7881803604
 20
8.9902562976
 30
0.0
 10
12.7874343961
 20
8.987257162
 30
0.0
 10
12.7865392457
 20
8.9836581409
 30
0.0
 10
12.7856441109
 20
8.9800590979
 30
0.0
 10
12.7848981076
 20
8.9770600173
 30
0.0
 10
12.7843014355
 20
8.9746604712
 30
0.0
 10
12.7838535743
 20
8.9728615832
 30
0.0
 10
12.7834814927
 20
8.9713600554
 30
0.0
 10
12.7832188062
 20
8.9703138027
 30
0.0
 10
12.7830721805
 20
8.9697084231
 30
0.0
 10
12.7829524056
 20
8.9692755749
 30
0.0
 10
12.7828701129
 20
8.9687617412
 30
0.0
 10
12.782747315
 20
8.9681048782
 30
0.0
 10
12.7825385103
 20
8.9669422063
 30
0.0
 10
12.7822370332
 20
8.9652881275
 30
0.0
 10
12.7818766237
 20
8.9633002878
 30
0.0
 10
12.781395602
 20
8.960650863
 30
0.0
 10
12.7807944849
 20
8.9573387341
 30
0.0
 10
12.7800730898
 20
8.9533643071
 30
0.0
 10
12.7793516572
 20
8.9493899258
 30
0.0
 10
12.7787506338
 20
8.9460776828
 30
0.0
 10
12.7782694247
 20
8.9434284861
 30
0.0
 10
12.7779095868
 20
8.9414399506
 30
0.0
 10
12.7776063216
 20
8.9397880485
 30
0.0
 10
12.7773713356
 20
8.9384548399
 30
0.0
 10
12.7771742578
 20
8.9374868676
 30
0.0
 10
12.7770567201
 20
8.9363970025
 30
0.0
 10
12.7768722189
 20
8.9349864279
 30
0.0
 10
12.7766511249
 20
8.933208601
 30
0.0
 10
12.7763817322
 20
8.9310814616
 30
0.0
 10
12.7760239652
 20
8.9282430925
 30
0.0
 10
12.7755762813
 20
8.9246958726
 30
0.0
 10
12.7750392068
 20
8.9204389246
 30
0.0
 10
12.7745023077
 20
8.9161819267
 30
0.0
 10
12.7739645611
 20
8.9119254125
 30
0.0
 10
12.7735191178
 20
8.9083767465
 30
0.0
 10
12.7732020526
 20
8.9058957674
 30
0.0
 10
12.7730290772
 20
8.9044732442
 30
0.0
 10
12.7728762329
 20
8.9034199323
 30
0.0
 10
12.7728117372
 20
8.9023147087
 30
0.0
 10
12.772694926
 20
8.9008591846
 30
0.0
 10
12.7725048652
 20
8.8983035808
 30
0.0
 10
12.7722258379
 20
8.8946571301
 30
0.0
 10
12.771894242
 20
8.8902794956
 30
0.0
 10
12.7715617177
 20
8.8859023768
 30
0.0
 10
12.7712296699
 20
8.8815250889
 30
0.0
 10
12.7708966445
 20
8.8771479616
 30
0.0
 10
12.7706219851
 20
8.8734999609
 30
0.0
 10
12.7704241414
 20
8.870947119
 30
0.0
 10
12.7703197987
 20
8.8694871702
 30
0.0
 10
12.7702170042
 20
8.8683955378
 30
0.0
 10
12.7702080038
 20
8.8672911797
 30
0.0
 10
12.7701632868
 20
8.8658231411
 30
0.0
 10
12.7701002753
 20
8.8632520054
 30
0.0
 10
12.7700022894
 20
8.8595800357
 30
0.0
 10
12.7698881176
 20
8.8551732092
 30
0.0
 10
12.7697346966
 20
8.8492976023
 30
0.0
 10
12.7695433321
 20
8.8419530378
 30
0.0
 10
12.769390115
 20
8.8360774032
 30
0.0
 10
12.7693135221
 20
8.8331395838
 30
0.0
  0
ENDSEC
  0
SECTION
  2
OBJECTS
  0
DICTIONARY
  5
C
100
AcDbDictionary
280
0
281
1
  3
ACAD_GROUP
350
D
  3
ACAD_MLINESTYLE
350
17
  3
ACAD_LAYOUT
350
1A
  3
ACAD_PLOTSETTINGS
350
19
  3
ACAD_PLOTSTYLENAME
350
E
  3
ACAD_IMAGE_DICT
350
       3A6
  3
ACAD_IMAGE_VARS
350
       3A7
  3
ACAD_TABLESTYLE
350
       3A8
  0
IMAGEDEF_REACTOR
  5
3A5
100
AcDbRasterImageDefReactor
 90
2
330
28A
  0
DICTIONARY
  5
D
102
{ACAD_REACTORS
330
C
102
}
100
AcDbDictionary
280
0
281
1
  0
ACDBDICTIONARYWDFLT
  5
E
102
{ACAD_REACTORS
330
C
102
}
100
AcDbDictionary
281
1
  3
Normal
350
F
100
AcDbDictionaryWithDefault
340
F
  0
DICTIONARY
  5
3A6
330
C
100
AcDbDictionary
281
1
  3
H25_assy_2_img_1
350
       3AB
  0
RASTERVARIABLES
  5
3A7
330
C
100
AcDbRasterVariables
 90
0
 70
0
 71
1
 72
5
  0
DICTIONARY
  5
17
102
{ACAD_REACTORS
330
C
102
}
100
AcDbDictionary
280
0
281
1
  3
Standard
350
18
  0
DICTIONARY
  5
3A8
330
C
100
AcDbDictionary
281
1
  3
Standard
350
       3AC
  3
Standard1
350
       3AD
  0
DICTIONARY
  5
19
102
{ACAD_REACTORS
330
C
102
}
100
AcDbDictionary
281
1
  0
DICTIONARY
  5
1A
102
{ACAD_REACTORS
330
C
102
}
100
AcDbDictionary
281
1
  3
Model
350
3A9
  3
Layout1
350
3AA
  0
ACDBPLACEHOLDER
  5
F
102
{ACAD_REACTORS
330
E
102
}
  0
MLINESTYLE
  5
18
102
{ACAD_REACTORS
330
17
102
}
100
AcDbMlineStyle
  2
STANDARD
 70
0
  3

 62
256
 51
90.0
 52
90.0
 71
2
 49
0.5
 62
256
  6
BYLAYER
 49
-0.5
 62
256
  6
BYLAYER
  0
LAYOUT
  5
3A9
102
{ACAD_REACTORS
330
1A
102
}
100
AcDbPlotSettings
  1

  2
none_device
  4
ANSI_C_(22.00_x_17.00_Inches)
  6

 40
0.0
 41
0.0
 42
0.0
 43
0.0
 44
558.8
 45
431.8
 46
0.0
 47
0.0
 48
0.0
 49
0.0
140
0.0
141
0.0
142
1.0
143
1.0
 70
1024
 72
0
 73
0
 74
0
  7

 75
0
147
1.0
148
0.0
149
0.0
100
AcDbLayout
  1
Model
 70
0
 71
0
 10
0.0
 20
0.0
 11
22.0
 21
17.0
 12
0.0
 22
0.0
 32
0.0
 14
0.0
 24
0.0
 34
0.0
 15
0.0
 25
0.0
 35
0.0
146
0.0
 13
0.0
 23
0.0
 33
0.0
 16
1.0
 26
0.0
 36
0.0
 17
0.0
 27
1.0
 37
0.0
 76
0
330
204
345
0
346
0
  0
LAYOUT
  5
3AA
102
{ACAD_REACTORS
330
1A
102
}
100
AcDbPlotSettings
  1

  2
none_device
  4
ANSI_C_(22.00_x_17.00_Inches)
  6

 40
0.0
 41
0.0
 42
0.0
 43
0.0
 44
558.8
 45
431.8
 46
0.0
 47
0.0
 48
0.0
 49
0.0
140
0.0
141
0.0
142
1.0
143
1.0
 70
0
 72
0
 73
0
 74
0
  7

 75
0
147
1.0
148
0.0
149
0.0
100
AcDbLayout
  1
Layout1
 70
0
 71
1
 10
0.0
 20
0.0
 11
22.0
 21
17.0
 12
0.0
 22
0.0
 32
0.0
 14
0.0
 24
0.0
 34
0.0
 15
0.0
 25
0.0
 35
0.0
146
0.0
 13
0.0
 23
0.0
 33
0.0
 16
1.0
 26
0.0
 36
0.0
 17
0.0
 27
1.0
 37
0.0
 76
0
330
205
345
0
346
0
  0
IMAGEDEF
  5
3AB
102
{ACAD_REACTORS
330
3A6
330
3A5
102
}
100
AcDbRasterImageDef
 90
0
  1
H25_assy_2_img_1.png
 10
369.0
 20
92.0
 11
0.0066666667
 21
0.0066666667
280
1
281
0
  0
TABLESTYLE
  5
3AC
102
{ACAD_REACTORS
330
3A8
330
28D
330
28E
102
}
330
3A8
100
AcDbTableStyle
  3
Standard
 70
0
 71
0
 40
0.06
 41
0.06
280
1
281
1
  7
Standard
140
0.18
170
1
 62
0
 63
7
283
0
  7
Standard
140
0.18
170
1
 62
0
 63
7
283
0
  7
Standard
140
0.18
170
1
 62
0
 63
7
283
0
  0
TABLESTYLE
  5
3AD
102
{ACAD_REACTORS
330
3A8
330
28C
102
}
330
3A8
100
AcDbTableStyle
  3
Standard1
 70
1
 71
0
 40
0.06
 41
0.06
280
1
281
1
  7
Standard
140
0.18
170
1
 62
0
 63
7
283
0
  7
Standard
140
0.18
170
1
 62
0
 63
7
283
0
  7
Standard
140
0.18
170
1
 62
0
 63
7
283
0
  0
ENDSEC
  0
EOF
