999
DXF file: H24_assy_2.dxf
999
Pro/ENGINEER 2014200 by Parametric Technology Corporation
  0
SECTION
  2
HEADER
  9
$ACADVER
  1
AC1021
  9
$DWGCODEPAGE
  3
ANSI_1252
  9
$EXTMAX
 10
22.0
 20
17.0
 30
0.0
  9
$EXTMIN
 10
0.0
 20
0.0
 30
0.0
  9
$LIMMIN
 10
0.0
 20
0.0
  9
$LIMMAX
 10
22.0
 20
17.0
  9
$VIEWCTR
 10
11.0
 20
8.5
  9
$VIEWSIZE
 40
17.0
  9
$CLAYER
  8
0
  9
$LTSCALE
 40
1.21
  9
$CELTYPE
  6
BYLAYER
  9
$DIMSCALE
 40
1.0
  9
$DIMASZ
 40
0.1875
  9
$DIMEXO
 40
0.0625
  9
$DIMDLI
 40
0.836
  9
$DIMEXE
 40
0.125
  9
$DIMCEN
 40
0.198
  9
$DIMLFAC
 40
1.0
  9
$DIMBLK
  1
_FILLED
  9
$DIMTXT
 40
0.1
  9
$DIMTOL
 70
0
  9
$DIMLIM
 70
0
  9
$DIMTFAC
 40
1.0
  9
$DIMGAP
 40
0.09
  9
$DIMDSEP
 70
46
  9
$AUNITS
 70
0
  9
$PDMODE
 70
3
  9
$PDSIZE
 40
0.3125
  9
$HANDSEED
  5
3A6
  9
$TILEMODE
 70
1
  9
$MEASUREMENT
 70
0
  9
$INSUNITS
 70
1
  0
ENDSEC
  0
SECTION
  2
CLASSES
  0
CLASS
  1
ACDBDICTIONARYWDFLT
  2
AcDbDictionaryWithDefault
  3
AutoCAD 2000
 90
0
 91
1
280
0
281
0
  0
CLASS
  1
ACDBPLACEHOLDER
  2
AcDbPlaceHolder
  3
AutoCAD 2000
 90
0
 91
1
280
0
281
0
  0
CLASS
  1
LAYOUT
  2
AcDbLayout
  3
AutoCAD 2000
 90
0
 91
0
280
0
281
0
  0
CLASS
  1
RASTERVARIABLES
  2
AcDbRasterVariables
  3
ISM
 90
0
 91
1
280
0
281
0
  0
CLASS
  1
IMAGEDEF
  2
AcDbRasterImageDef
  3
ISM
 90
0
 91
1
280
0
281
0
  0
CLASS
  1
IMAGEDEF_REACTOR
  2
AcDbRasterImageDefReactor
  3
ISM
 90
0
 91
1
280
0
281
0
  0
CLASS
  1
IMAGE
  2
AcDbRasterImage
  3
ISM
 90
127
 91
1
280
0
281
1
  0
CLASS
  1
TABLESTYLE
  2
AcDbTableStyle
  3
ObjectDBX Classes
 90
2047
 91
1
280
0
281
0
  0
CLASS
  1
ACAD_TABLE
  2
AcDbTable
  3
ObjectDBX Classes
 90
1025
 91
3
280
0
281
1
  0
ENDSEC
  0
SECTION
  2
TABLES
  0
TABLE
  2
VPORT
  5
8
100
AcDbSymbolTable
 70
2
  0
VPORT
  5
1F4
100
AcDbSymbolTableRecord
100
AcDbViewportTableRecord
  2
*ACTIVE
 70
0
 10
0.0
 20
0.0
 11
1.0
 21
1.0
 12
11.0
 22
8.5
 13
0.0
 23
0.0
 14
1.0
 24
1.0
 15
0.0
 25
0.0
 16
0.0
 26
0.0
 36
1.0
 17
0.0
 27
0.0
 37
0.0
 40
17.0
 41
1.2941176471
 42
50.0
 43
0.0
 44
0.0
 50
0.0
 51
0.0
 71
0
 72
100
 73
1
 74
1
 75
0
 76
0
 77
0
 78
0
  0
ENDTAB
  0
TABLE
  2
LTYPE
  5
5
100
AcDbSymbolTable
 70
6
  0
LTYPE
  5
14
100
AcDbSymbolTableRecord
100
AcDbLinetypeTableRecord
  2
BYBLOCK
 70
0
  3

 72
65
 73
0
 40
0.0
  0
LTYPE
  5
15
100
AcDbSymbolTableRecord
100
AcDbLinetypeTableRecord
  2
BYLAYER
 70
0
  3

 72
65
 73
0
 40
0.0
  0
LTYPE
  5
16
100
AcDbSymbolTableRecord
100
AcDbLinetypeTableRecord
  2
CONTINUOUS
 70
64
  3
Solid line
 72
65
 73
0
 40
0.0
  0
LTYPE
  5
1F5
100
AcDbSymbolTableRecord
100
AcDbLinetypeTableRecord
  2
CENTER
 70
64
  3
____ _ ____ _ ____ _ ____ _ ____ _ ____ _ ____
 72
65
 73
4
 40
0.6
 49
0.375
 74
0
 49
-0.075
 74
0
 49
0.075
 74
0
 49
-0.075
 74
0
  0
LTYPE
  5
1F6
100
AcDbSymbolTableRecord
100
AcDbLinetypeTableRecord
  2
HIDDEN
 70
64
  3
- - - - - - - - - - - - - - - - - - - -
 72
65
 73
2
 40
0.2
 49
0.1
 74
0
 49
-0.1
 74
0
  0
LTYPE
  5
1F7
100
AcDbSymbolTableRecord
100
AcDbLinetypeTableRecord
  2
PHANTOM
 70
64
  3
_____ _ _ _____ _ _ _____ _ _ _____
 72
65
 73
6
 40
0.8
 49
0.45
 74
0
 49
-0.05
 74
0
 49
0.1
 74
0
 49
-0.05
 74
0
 49
0.1
 74
0
 49
-0.05
 74
0
  0
LTYPE
  5
1F8
100
AcDbSymbolTableRecord
100
AcDbLinetypeTableRecord
  2
DOT
 70
64
  3
. . . . . . . . . . . . . . . . . . . .
 72
65
 73
2
 40
0.2
 49
0.1
 74
0
 49
-0.1
 74
0
  0
LTYPE
  5
1F9
100
AcDbSymbolTableRecord
100
AcDbLinetypeTableRecord
  2
DASHED
 70
64
  3
- - - - - - - - - - - - - - - - - - - -
 72
65
 73
2
 40
0.2
 49
0.1
 74
0
 49
-0.1
 74
0
  0
ENDTAB
  0
TABLE
  2
LAYER
  5
2
100
AcDbSymbolTable
 70
36
  0
LAYER
  5
10
100
AcDbSymbolTableRecord
100
AcDbLayerTableRecord
  2
0
 70
0
 62
7
  6
CONTINUOUS
370
-3
390
F
  0
LAYER
  5
1FA
100
AcDbSymbolTableRecord
100
AcDbLayerTableRecord
  2
DEFAULT_1
 70
0
 62
7
  6
CENTER
370
-3
390
F
  0
LAYER
  5
1FB
100
AcDbSymbolTableRecord
100
AcDbLayerTableRecord
  2
DEFAULT_2
 70
0
 62
8
  6
HIDDEN
370
-3
390
F
  0
LAYER
  5
1FC
100
AcDbSymbolTableRecord
100
AcDbLayerTableRecord
  2
DEFAULT_3
 70
0
 62
7
  6
PHANTOM
370
-3
390
F
  0
LAYER
  5
1FD
100
AcDbSymbolTableRecord
100
AcDbLayerTableRecord
  2
DATUM_PLANES
 70
0
 62
7
  6
CONTINUOUS
370
-3
390
F
  0
LAYER
  5
1FE
100
AcDbSymbolTableRecord
100
AcDbLayerTableRecord
  2
PORT_AREAS
 70
0
 62
7
  6
CONTINUOUS
370
-3
390
F
  0
LAYER
  5
1FF
100
AcDbSymbolTableRecord
100
AcDbLayerTableRecord
  2
SUNNBOMCOSMETIC
 70
0
 62
7
  6
CONTINUOUS
370
-3
390
F
  0
LAYER
  5
200
100
AcDbSymbolTableRecord
100
AcDbLayerTableRecord
  2
SUNNBOMSTAMPING
 70
0
 62
7
  6
CONTINUOUS
370
-3
390
F
  0
LAYER
  5
201
100
AcDbSymbolTableRecord
100
AcDbLayerTableRecord
  2
THREADS
 70
0
 62
7
  6
CONTINUOUS
370
-3
390
F
  0
ENDTAB
  0
TABLE
  2
STYLE
  5
3
100
AcDbSymbolTable
 70
1
  0
STYLE
  5
11
100
AcDbSymbolTableRecord
100
AcDbTextStyleTableRecord
  2
STANDARD
 70
0
 40
0.0
 41
0.8
 50
0.0
 71
0
 42
0.2
  3
txt
  4

  0
STYLE
  5
202
100
AcDbSymbolTableRecord
100
AcDbTextStyleTableRecord
  2
TEXTSTYLE_1
 70
0
 40
0.0
 41
0.8
 50
0.0
 71
0
 42
0.2
  3
gdt
  4

  0
ENDTAB
  0
TABLE
  2
VIEW
  5
6
100
AcDbSymbolTable
 70
0
  0
ENDTAB
  0
TABLE
  2
UCS
  5
7
100
AcDbSymbolTable
 70
0
  0
ENDTAB
  0
TABLE
  2
APPID
  5
9
100
AcDbSymbolTable
 70
1
  0
APPID
  5
203
100
AcDbSymbolTableRecord
100
AcDbRegAppTableRecord
  2
ACAD
 70
0
  0
ENDTAB
  0
TABLE
  2
BLOCK_RECORD
  5
1
100
AcDbSymbolTable
 70
0
  0
BLOCK_RECORD
  5
204
100
AcDbSymbolTableRecord
100
AcDbBlockTableRecord
  2
*Model_Space
  0
BLOCK_RECORD
  5
205
100
AcDbSymbolTableRecord
100
AcDbBlockTableRecord
  2
*Paper_Space
  0
BLOCK_RECORD
  5
206
100
AcDbSymbolTableRecord
100
AcDbBlockTableRecord
  2
SUN_FIRST_THIRD_ANGLE_BL0
  0
BLOCK_RECORD
  5
207
100
AcDbSymbolTableRecord
100
AcDbBlockTableRecord
  2
*T1
  0
BLOCK_RECORD
  5
208
100
AcDbSymbolTableRecord
100
AcDbBlockTableRecord
  2
*T2
  0
BLOCK_RECORD
  5
209
100
AcDbSymbolTableRecord
100
AcDbBlockTableRecord
  2
*T3
  0
ENDTAB
  0
TABLE
  2
DIMSTYLE
  5
A
100
AcDbSymbolTable
 70
1
100
AcDbDimStyleTable
 71
0
  0
DIMSTYLE
105
20A
100
AcDbSymbolTableRecord
100
AcDbDimStyleTableRecord
  2
STANDARD
 70
0
  3

  4

 40
1.0
 41
0.1875
 42
0.0625
 43
0.38
 44
0.125
 45
0.0
 46
0.0
 47
0.001
 48
0.001
140
0.1
141
0.09
142
0.0
143
25.4
144
1.0
145
0.0
146
1.0
147
0.09
 71
0.0
 72
0.0
 73
1
 74
1
 75
0
 76
0
 77
0
 78
4
170
0
171
2
172
0
173
0
174
0
175
0
176
0
177
0
178
0
270
2
271
3
272
3
273
2
274
2
275
0
280
0
281
0
282
0
283
1
284
4
285
0
286
0
287
3
288
0
340
11
278
46
  0
ENDTAB
  0
ENDSEC
  0
SECTION
  2
BLOCKS
  0
BLOCK
  5
20
100
AcDbEntity
  8
0
100
AcDbBlockBegin
  2
*Model_Space
 70
0
 10
0.0
 20
0.0
 30
0.0
  3
*Model_Space
  1

  0
ENDBLK
  5
21
100
AcDbEntity
  8
0
100
AcDbBlockEnd
  0
BLOCK
  5
1C
100
AcDbEntity
  8
0
100
AcDbBlockBegin
  2
*Paper_Space
 70
0
 10
0.0
 20
0.0
 30
0.0
  3
*Paper_Space
  1

  0
ENDBLK
  5
1D
100
AcDbEntity
  8
0
100
AcDbBlockEnd
  0
BLOCK
  5
20B
100
AcDbEntity
  8
0
100
AcDbBlockBegin
 62
2
  6
CONTINUOUS
  2
SUN_FIRST_THIRD_ANGLE_BL0
 70
64
 10
20.4816717061
 20
1.2289683772
  3
SUN_FIRST_THIRD_ANGLE_BL0
  1

  0
TEXT
  5
20C
100
AcDbEntity
  8
0
100
AcDbText
 62
2
  6
CONTINUOUS
 10
19.4750896608
 20
1.4136269581
  7
STANDARD
 40
0.08
  1
FIRST ANGLE
 41
0.8
 72
0
100
AcDbText
  0
TEXT
  5
20D
100
AcDbEntity
  8
0
100
AcDbText
 62
2
  6
CONTINUOUS
 10
20.7842537513
 20
1.4047600029
  7
STANDARD
 40
0.08
  1
THIRD ANGLE
 41
0.8
 72
0
100
AcDbText
  0
LINE
  5
20E
100
AcDbEntity
  8
0
100
AcDbLine
 62
7
  6
CONTINUOUS
 10
19.4767170086
 20
1.1727031207
 11
19.6334271527
 21
1.1717972817
  0
LINE
  5
20F
100
AcDbEntity
  8
0
100
AcDbLine
 62
7
  6
CONTINUOUS
 10
19.6596964832
 20
1.1717972817
 11
19.6950230232
 21
1.171593082
  0
LINE
  5
210
100
AcDbEntity
  8
0
100
AcDbLine
 62
7
  6
CONTINUOUS
 10
19.7194818561
 20
1.1708914427
 11
19.8852396156
 21
1.1699333054
  0
LINE
  5
211
100
AcDbEntity
  8
0
100
AcDbLine
 62
7
  6
CONTINUOUS
 10
19.4758111696
 20
1.2723454088
 11
19.88525039
 21
1.3511534004
  0
LINE
  5
212
100
AcDbEntity
  8
0
100
AcDbLine
 62
7
  6
CONTINUOUS
 10
19.88525039
 20
1.3511534004
 11
19.8831348489
 21
0.9851647912
  0
LINE
  5
213
100
AcDbEntity
  8
0
100
AcDbLine
 62
7
  6
CONTINUOUS
 10
19.8831348489
 20
0.9851647912
 11
19.4767170086
 21
1.0658141206
  0
LINE
  5
214
100
AcDbEntity
  8
0
100
AcDbLine
 62
7
  6
CONTINUOUS
 10
19.4767170086
 20
1.0658141206
 11
19.4779056764
 21
1.2714536432
  0
CIRCLE
  5
215
100
AcDbEntity
  8
0
100
AcDbCircle
 62
7
  6
CONTINUOUS
 10
20.2068232291
 20
1.1717972817
 40
0.175742101
  0
CIRCLE
  5
216
100
AcDbEntity
  8
0
100
AcDbCircle
 62
7
  6
CONTINUOUS
 10
20.2068232291
 20
1.1717972817
 40
0.1005522074
  0
LINE
  5
217
100
AcDbEntity
  8
0
100
AcDbLine
 62
7
  6
CONTINUOUS
 10
20.2077290681
 20
1.3756110529
 11
20.2071171714
 21
1.2379342989
  0
LINE
  5
218
100
AcDbEntity
  8
0
100
AcDbLine
 62
7
  6
CONTINUOUS
 10
20.2077290681
 20
1.2016899681
 11
20.2074674401
 21
1.1428236749
  0
LINE
  5
219
100
AcDbEntity
  8
0
100
AcDbLine
 62
7
  6
CONTINUOUS
 10
20.208634907
 20
1.101141841
 11
20.2080230104
 21
0.963465087
  0
LINE
  5
21A
100
AcDbEntity
  8
0
100
AcDbLine
 62
7
  6
CONTINUOUS
 10
20.0066328138
 20
1.1745147986
 11
20.1443095678
 21
1.1739029019
  0
LINE
  5
21B
100
AcDbEntity
  8
0
100
AcDbLine
 62
7
  6
CONTINUOUS
 10
20.1832714155
 20
1.1727031207
 11
20.238153505
 21
1.172335442
  0
LINE
  5
21C
100
AcDbEntity
  8
0
100
AcDbLine
 62
7
  6
CONTINUOUS
 10
20.2756669918
 20
1.1717972817
 11
20.407916871
 21
1.1712095044
  0
CIRCLE
  5
21D
100
AcDbEntity
  8
0
100
AcDbCircle
 62
7
  6
CONTINUOUS
 10
20.7509457401
 20
1.1693297793
 40
0.1722024983
  0
CIRCLE
  5
21E
100
AcDbEntity
  8
0
100
AcDbCircle
 62
7
  6
CONTINUOUS
 10
20.7509457401
 20
1.1693297793
 40
0.0985164967
  0
LINE
  5
21F
100
AcDbEntity
  8
0
100
AcDbLine
 62
7
  6
CONTINUOUS
 10
20.7169767782
 20
1.170462078
 11
20.7825395137
 21
1.1682766535
  0
LINE
  5
220
100
AcDbEntity
  8
0
100
AcDbLine
 62
7
  6
CONTINUOUS
 10
20.8177513651
 20
1.1693297793
 11
20.947965719
 21
1.1693297793
  0
LINE
  5
221
100
AcDbEntity
  8
0
100
AcDbLine
 62
7
  6
CONTINUOUS
 10
20.6875370113
 20
1.170462078
 11
20.5573226574
 21
1.170462078
  0
LINE
  5
222
100
AcDbEntity
  8
0
100
AcDbLine
 62
7
  6
CONTINUOUS
 10
20.7486811426
 20
1.1987695462
 11
20.7486811426
 21
1.1432869085
  0
LINE
  5
223
100
AcDbEntity
  8
0
100
AcDbLine
 62
7
  6
CONTINUOUS
 10
20.7498134414
 20
1.1059210505
 11
20.7498134414
 21
0.9757066966
  0
LINE
  5
224
100
AcDbEntity
  8
0
100
AcDbLine
 62
7
  6
CONTINUOUS
 10
20.7486811426
 20
1.2338708068
 11
20.7486811426
 21
1.3640851607
  0
LINE
  5
225
100
AcDbEntity
  8
0
100
AcDbLine
 62
7
  6
CONTINUOUS
 10
21.0702539817
 20
1.2701043662
 11
21.4790138229
 21
1.3448360823
  0
LINE
  5
226
100
AcDbEntity
  8
0
100
AcDbLine
 62
7
  6
CONTINUOUS
 10
21.4790138229
 20
1.3448360823
 11
21.4790138229
 21
0.9779712941
  0
LINE
  5
227
100
AcDbEntity
  8
0
100
AcDbLine
 62
7
  6
CONTINUOUS
 10
21.4790138229
 20
0.9779712941
 11
21.069121683
 21
1.0617614
  0
LINE
  5
228
100
AcDbEntity
  8
0
100
AcDbLine
 62
7
  6
CONTINUOUS
 10
21.0702539817
 20
1.2701043662
 11
21.069121683
 21
1.0617614
  0
LINE
  5
229
100
AcDbEntity
  8
0
100
AcDbLine
 62
7
  6
CONTINUOUS
 10
21.4790138229
 20
1.1693297793
 11
21.3159628059
 21
1.1693297793
  0
LINE
  5
22A
100
AcDbEntity
  8
0
100
AcDbLine
 62
7
  6
CONTINUOUS
 10
21.2876553377
 20
1.1693297793
 11
21.2502894796
 21
1.1693297793
  0
LINE
  5
22B
100
AcDbEntity
  8
0
100
AcDbLine
 62
7
  6
CONTINUOUS
 10
21.2208497126
 20
1.1659328831
 11
21.0713862804
 21
1.1659328831
  0
LINE
  5
22C
100
AcDbEntity
  8
0
100
AcDbLine
 62
7
  6
CONTINUOUS
 10
20.4796138713
 20
1.5284908897
 11
20.4766766948
 21
0.9294458646
  0
ENDBLK
  5
22D
100
AcDbEntity
  8
0
  6
BYBLOCK
 62
0
100
AcDbBlockEnd
  0
BLOCK
  5
22E
100
AcDbEntity
  8
0
100
AcDbBlockBegin
  2
*T1
 70
1
 10
0.0
 20
0.0
  3
*T1
  1

  0
LINE
  5
22F
100
AcDbEntity
  8
0
100
AcDbLine
 62
2
  6
CONTINUOUS
 10
9.275
 20
0.0
 11
-0.0
 21
0.0
  0
LINE
  5
230
100
AcDbEntity
  8
0
100
AcDbLine
 62
2
  6
CONTINUOUS
 10
9.275
 20
0.0
 11
9.275
 21
1.25
  0
LINE
  5
231
100
AcDbEntity
  8
0
100
AcDbLine
 62
2
  6
CONTINUOUS
 10
9.275
 20
0.625
 11
-0.0
 21
0.625
  0
LINE
  5
232
100
AcDbEntity
  8
0
100
AcDbLine
 62
2
  6
CONTINUOUS
 10
9.275
 20
1.25
 11
-0.0
 21
1.25
  0
LINE
  5
233
100
AcDbEntity
  8
0
100
AcDbLine
 62
2
  6
CONTINUOUS
 10
6.8
 20
0.0
 11
6.8
 21
1.25
  0
LINE
  5
234
100
AcDbEntity
  8
0
100
AcDbLine
 62
2
  6
CONTINUOUS
 10
6.4
 20
0.0
 11
6.4
 21
0.625
  0
LINE
  5
235
100
AcDbEntity
  8
0
100
AcDbLine
 62
2
  6
CONTINUOUS
 10
5.9
 20
0.0
 11
5.9
 21
0.625
  0
LINE
  5
236
100
AcDbEntity
  8
0
100
AcDbLine
 62
2
  6
CONTINUOUS
 10
5.2
 20
0.0
 11
5.2
 21
0.625
  0
LINE
  5
237
100
AcDbEntity
  8
0
100
AcDbLine
 62
2
  6
CONTINUOUS
 10
4.1
 20
0.0
 11
4.1
 21
1.25
  0
LINE
  5
238
100
AcDbEntity
  8
0
100
AcDbLine
 62
2
  6
CONTINUOUS
 10
-0.0
 20
0.0
 11
-0.0
 21
1.25
  0
MTEXT
  5
239
100
AcDbEntity
  8
0
100
AcDbMText
 62
2
  6
CONTINUOUS
  7
STANDARD
 71
2
 72
1
 10
6.6
 20
0.325
 30
0.0
 11
1.0
 21
0.0
 31
0.0
 44
0.9
  1
2
 40
0.125
 41
0.2
  0
MTEXT
  5
23A
100
AcDbEntity
  8
0
100
AcDbMText
 62
2
  6
CONTINUOUS
  7
STANDARD
 71
2
 72
1
 10
6.15
 20
0.325
 30
0.0
 11
1.0
 21
0.0
 31
0.0
 44
0.9
  1
C
 40
0.125
 41
0.2
  0
MTEXT
  5
23B
100
AcDbEntity
  8
0
100
AcDbMText
 62
2
  6
CONTINUOUS
  7
STANDARD
 71
2
 72
1
 10
5.55
 20
0.325
 30
0.0
 11
1.0
 21
0.0
 31
0.0
 44
0.9
  1
1.000
 40
0.125
 41
1.0
  0
MTEXT
  5
23C
100
AcDbEntity
  8
0
100
AcDbMText
 62
2
  6
CONTINUOUS
  7
STANDARD
 71
2
 72
1
 10
4.65
 20
0.325
 30
0.0
 11
1.0
 21
0.0
 31
0.0
 44
0.9
  1
Feb-19-20
 40
0.125
 41
1.8
  0
MTEXT
  5
23D
100
AcDbEntity
  8
0
100
AcDbMText
 62
2
  6
CONTINUOUS
  7
STANDARD
 71
2
 72
1
 10
2.05
 20
0.4625
 30
0.0
 11
1.0
 21
0.0
 31
0.0
 44
0.9
  1
T-17A Line mount\P(See Technical Data for Body Features)
 40
0.125
 41
7.6
  0
MTEXT
  5
23E
100
AcDbEntity
  8
0
100
AcDbMText
 62
2
  6
CONTINUOUS
  7
STANDARD
 71
1
 72
1
 10
6.45
 20
0.5625
 30
0.0
 11
1.0
 21
0.0
 31
0.0
 44
0.9
  1
SHEET
 40
0.06
 41
0.48
  0
MTEXT
  5
23F
100
AcDbEntity
  8
0
100
AcDbMText
 62
2
  6
CONTINUOUS
  7
STANDARD
 71
1
 72
1
 10
5.95
 20
0.5625
 30
0.0
 11
1.0
 21
0.0
 31
0.0
 44
0.9
  1
DWG SIZE
 40
0.06
 41
0.768
  0
MTEXT
  5
240
100
AcDbEntity
  8
0
100
AcDbMText
 62
2
  6
CONTINUOUS
  7
STANDARD
 71
1
 72
1
 10
5.25
 20
0.5625
 30
0.0
 11
1.0
 21
0.0
 31
0.0
 44
0.9
  1
SCALE
 40
0.06
 41
0.48
  0
MTEXT
  5
241
100
AcDbEntity
  8
0
100
AcDbMText
 62
2
  6
CONTINUOUS
  7
STANDARD
 71
1
 72
1
 10
4.15
 20
0.5625
 30
0.0
 11
1.0
 21
0.0
 31
0.0
 44
0.9
  1
DATE
 40
0.06
 41
0.384
  0
MTEXT
  5
242
100
AcDbEntity
  8
0
100
AcDbMText
 62
2
  6
CONTINUOUS
  7
STANDARD
 71
1
 72
1
 10
0.05
 20
0.5625
 30
0.0
 11
1.0
 21
0.0
 31
0.0
 44
0.9
  1
DESCRIPTION
 40
0.06
 41
1.056
  0
MTEXT
  5
243
100
AcDbEntity
  8
0
100
AcDbMText
 62
2
  6
CONTINUOUS
  7
STANDARD
 71
2
 72
1
 10
5.45
 20
1.0375
 30
0.0
 11
1.0
 21
0.0
 31
0.0
 44
0.9
  1
ALL DIMENSIONS IN INCH\PVIEWS ARE THIRD ANGLE
 40
0.12
 41
4.224
  0
MTEXT
  5
244
100
AcDbEntity
  8
0
100
AcDbMText
 62
2
  6
CONTINUOUS
  7
STANDARD
 71
2
 72
1
 10
2.05
 20
0.95
 30
0.0
 11
1.0
 21
0.0
 31
0.0
 44
0.9
  1
H24
 40
0.125
 41
0.6
  0
MTEXT
  5
245
100
AcDbEntity
  8
0
100
AcDbMText
 62
2
  6
CONTINUOUS
  7
STANDARD
 71
1
 72
1
 10
0.05
 20
1.1875
 30
0.0
 11
1.0
 21
0.0
 31
0.0
 44
0.9
  1
MODEL
 40
0.06
 41
0.48
  0
ENDBLK
  5
246
100
AcDbEntity
  8
0
  6
BYBLOCK
 62
0
100
AcDbBlockEnd
  0
BLOCK
  5
247
100
AcDbEntity
  8
0
100
AcDbBlockBegin
  2
*T2
 70
1
 10
0.0
 20
0.0
  3
*T2
  1

  0
LINE
  5
248
100
AcDbEntity
  8
0
100
AcDbLine
 62
2
  6
CONTINUOUS
 10
0.0
 20
0.0
 11
9.055
 21
0.0
  0
LINE
  5
249
100
AcDbEntity
  8
0
100
AcDbLine
 62
2
  6
CONTINUOUS
 10
0.0
 20
0.0
 11
0.0
 21
-1.844
  0
LINE
  5
24A
100
AcDbEntity
  8
0
100
AcDbLine
 62
2
  6
CONTINUOUS
 10
0.0
 20
-0.344
 11
9.055
 21
-0.344
  0
LINE
  5
24B
100
AcDbEntity
  8
0
100
AcDbLine
 62
2
  6
CONTINUOUS
 10
0.0
 20
-0.594
 11
9.055
 21
-0.594
  0
LINE
  5
24C
100
AcDbEntity
  8
0
100
AcDbLine
 62
2
  6
CONTINUOUS
 10
0.0
 20
-0.844
 11
9.055
 21
-0.844
  0
LINE
  5
24D
100
AcDbEntity
  8
0
100
AcDbLine
 62
2
  6
CONTINUOUS
 10
0.0
 20
-1.094
 11
9.055
 21
-1.094
  0
LINE
  5
24E
100
AcDbEntity
  8
0
100
AcDbLine
 62
2
  6
CONTINUOUS
 10
0.0
 20
-1.344
 11
9.055
 21
-1.344
  0
LINE
  5
24F
100
AcDbEntity
  8
0
100
AcDbLine
 62
2
  6
CONTINUOUS
 10
0.0
 20
-1.594
 11
9.055
 21
-1.594
  0
LINE
  5
250
100
AcDbEntity
  8
0
100
AcDbLine
 62
2
  6
CONTINUOUS
 10
0.0
 20
-1.844
 11
9.055
 21
-1.844
  0
LINE
  5
251
100
AcDbEntity
  8
0
100
AcDbLine
 62
2
  6
CONTINUOUS
 10
3.055
 20
0.0
 11
3.055
 21
-1.844
  0
LINE
  5
252
100
AcDbEntity
  8
0
100
AcDbLine
 62
2
  6
CONTINUOUS
 10
9.055
 20
0.0
 11
9.055
 21
-1.844
  0
MTEXT
  5
253
100
AcDbEntity
  8
0
100
AcDbMText
 62
2
  6
CONTINUOUS
  7
STANDARD
 71
2
 72
1
 10
1.5275
 20
-0.0995
 30
0.0
 11
1.0
 21
0.0
 31
0.0
 44
0.9
  1
Technical Data
 40
0.145
 41
3.248
  0
MTEXT
  5
254
100
AcDbEntity
  8
0
100
AcDbMText
 62
2
  6
CONTINUOUS
  7
STANDARD
 71
2
 72
1
 10
4.555
 20
-0.0995
 30
0.0
 11
1.0
 21
0.0
 31
0.0
 44
0.9
  1
U.S. Units
 40
0.145
 41
2.32
  0
MTEXT
  5
255
100
AcDbEntity
  8
0
100
AcDbMText
 62
2
  6
CONTINUOUS
  7
STANDARD
 71
2
 72
1
 10
7.555
 20
-0.0995
 30
0.0
 11
1.0
 21
0.0
 31
0.0
 44
0.9
  1
Metric Units
 40
0.145
 41
2.784
  0
MTEXT
  5
256
100
AcDbEntity
  8
0
100
AcDbMText
 62
2
  6
CONTINUOUS
  7
STANDARD
 71
2
 72
1
 10
1.5275
 20
-0.4065
 30
0.0
 11
1.0
 21
0.0
 31
0.0
 44
0.9
  1
Cavity
 40
0.125
 41
1.2
  0
MTEXT
  5
257
100
AcDbEntity
  8
0
100
AcDbMText
 62
2
  6
CONTINUOUS
  7
STANDARD
 71
2
 72
1
 10
6.055
 20
-0.4065
 30
0.0
 11
1.0
 21
0.0
 31
0.0
 44
0.9
  1
T-17A
 40
0.125
 41
1.0
  0
MTEXT
  5
258
100
AcDbEntity
  8
0
100
AcDbMText
 62
2
  6
CONTINUOUS
  7
STANDARD
 71
2
 72
1
 10
1.5275
 20
-0.6565
 30
0.0
 11
1.0
 21
0.0
 31
0.0
 44
0.9
  1
Body Features
 40
0.125
 41
2.6
  0
MTEXT
  5
259
100
AcDbEntity
  8
0
100
AcDbMText
 62
2
  6
CONTINUOUS
  7
STANDARD
 71
2
 72
1
 10
6.055
 20
-0.6565
 30
0.0
 11
1.0
 21
0.0
 31
0.0
 44
0.9
  1
Ninety degree with reverse flow check - reducing
 40
0.125
 41
9.6
  0
MTEXT
  5
25A
100
AcDbEntity
  8
0
100
AcDbMText
 62
2
  6
CONTINUOUS
  7
STANDARD
 71
2
 72
1
 10
1.5275
 20
-0.9065
 30
0.0
 11
1.0
 21
0.0
 31
0.0
 44
0.9
  1
Body Type
 40
0.125
 41
1.8
  0
MTEXT
  5
25B
100
AcDbEntity
  8
0
100
AcDbMText
 62
2
  6
CONTINUOUS
  7
STANDARD
 71
2
 72
1
 10
6.055
 20
-0.9065
 30
0.0
 11
1.0
 21
0.0
 31
0.0
 44
0.9
  1
Line mount
 40
0.125
 41
2.0
  0
MTEXT
  5
25C
100
AcDbEntity
  8
0
100
AcDbMText
 62
2
  6
CONTINUOUS
  7
STANDARD
 71
2
 72
1
 10
1.5275
 20
-1.1565
 30
0.0
 11
1.0
 21
0.0
 31
0.0
 44
0.9
  1
Interface
 40
0.125
 41
1.8
  0
MTEXT
  5
25D
100
AcDbEntity
  8
0
100
AcDbMText
 62
2
  6
CONTINUOUS
  7
STANDARD
 71
2
 72
1
 10
6.055
 20
-1.1565
 30
0.0
 11
1.0
 21
0.0
 31
0.0
 44
0.9
  1
None
 40
0.125
 41
0.8
  0
MTEXT
  5
25E
100
AcDbEntity
  8
0
100
AcDbMText
 62
2
  6
CONTINUOUS
  7
STANDARD
 71
2
 72
1
 10
1.5275
 20
-1.4065
 30
0.0
 11
1.0
 21
0.0
 31
0.0
 44
0.9
  1
Open Cavity Quantity
 40
0.125
 41
4.0
  0
MTEXT
  5
25F
100
AcDbEntity
  8
0
100
AcDbMText
 62
2
  6
CONTINUOUS
  7
STANDARD
 71
2
 72
1
 10
6.055
 20
-1.4065
 30
0.0
 11
1.0
 21
0.0
 31
0.0
 44
0.9
  1
1
 40
0.125
 41
0.2
  0
MTEXT
  5
260
100
AcDbEntity
  8
0
100
AcDbMText
 62
2
  6
CONTINUOUS
  7
STANDARD
 71
2
 72
1
 10
1.5275
 20
-1.6565
 30
0.0
 11
1.0
 21
0.0
 31
0.0
 44
0.9
  1
Weight
 40
0.125
 41
1.2
  0
MTEXT
  5
261
100
AcDbEntity
  8
0
100
AcDbMText
 62
2
  6
CONTINUOUS
  7
STANDARD
 71
2
 72
1
 10
4.555
 20
-1.6565
 30
0.0
 11
1.0
 21
0.0
 31
0.0
 44
0.9
  1
7.687 lb.
 40
0.125
 41
1.8
  0
MTEXT
  5
262
100
AcDbEntity
  8
0
100
AcDbMText
 62
2
  6
CONTINUOUS
  7
STANDARD
 71
2
 72
1
 10
7.555
 20
-1.6565
 30
0.0
 11
1.0
 21
0.0
 31
0.0
 44
0.9
  1
3,487 kg.
 40
0.125
 41
1.8
  0
ENDBLK
  5
263
100
AcDbEntity
  8
0
  6
BYBLOCK
 62
0
100
AcDbBlockEnd
  0
BLOCK
  5
264
100
AcDbEntity
  8
0
100
AcDbBlockBegin
  2
*T3
 70
1
 10
0.0
 20
0.0
  3
*T3
  1

  0
LINE
  5
265
100
AcDbEntity
  8
0
100
AcDbLine
 62
2
  6
CONTINUOUS
 10
0.0
 20
0.0
 11
4.6
 21
0.0
  0
LINE
  5
266
100
AcDbEntity
  8
0
100
AcDbLine
 62
2
  6
CONTINUOUS
 10
0.0
 20
0.0
 11
0.0
 21
-1.43775
  0
LINE
  5
267
100
AcDbEntity
  8
0
100
AcDbLine
 62
2
  6
CONTINUOUS
 10
0.0
 20
-0.34375
 11
4.6
 21
-0.34375
  0
LINE
  5
268
100
AcDbEntity
  8
0
100
AcDbLine
 62
2
  6
CONTINUOUS
 10
0.0
 20
-0.68775
 11
4.6
 21
-0.68775
  0
LINE
  5
269
100
AcDbEntity
  8
0
100
AcDbLine
 62
2
  6
CONTINUOUS
 10
0.0
 20
-0.93775
 11
4.6
 21
-0.93775
  0
LINE
  5
26A
100
AcDbEntity
  8
0
100
AcDbLine
 62
2
  6
CONTINUOUS
 10
0.0
 20
-1.18775
 11
4.6
 21
-1.18775
  0
LINE
  5
26B
100
AcDbEntity
  8
0
100
AcDbLine
 62
2
  6
CONTINUOUS
 10
0.0
 20
-1.43775
 11
4.6
 21
-1.43775
  0
LINE
  5
26C
100
AcDbEntity
  8
0
100
AcDbLine
 62
2
  6
CONTINUOUS
 10
1.3
 20
-0.34375
 11
1.3
 21
-1.43775
  0
LINE
  5
26D
100
AcDbEntity
  8
0
100
AcDbLine
 62
2
  6
CONTINUOUS
 10
3.3
 20
-0.34375
 11
3.3
 21
-1.43775
  0
LINE
  5
26E
100
AcDbEntity
  8
0
100
AcDbLine
 62
2
  6
CONTINUOUS
 10
4.6
 20
0.0
 11
4.6
 21
-1.43775
  0
MTEXT
  5
26F
100
AcDbEntity
  8
0
100
AcDbMText
 62
2
  6
CONTINUOUS
  7
STANDARD
 71
2
 72
1
 10
2.3
 20
-0.099375
 30
0.0
 11
1.0
 21
0.0
 31
0.0
 44
0.9
  1
Port Headings
 40
0.145
 41
3.016
  0
MTEXT
  5
270
100
AcDbEntity
  8
0
100
AcDbMText
 62
2
  6
CONTINUOUS
  7
STANDARD
 71
2
 72
1
 10
0.65
 20
-0.44325
 30
0.0
 11
1.0
 21
0.0
 31
0.0
 44
0.9
  1
Product
 40
0.145
 41
1.624
  0
MTEXT
  5
271
100
AcDbEntity
  8
0
100
AcDbMText
 62
2
  6
CONTINUOUS
  7
STANDARD
 71
2
 72
1
 10
2.3
 20
-0.44325
 30
0.0
 11
1.0
 21
0.0
 31
0.0
 44
0.9
  1
Port
 40
0.145
 41
0.928
  0
MTEXT
  5
272
100
AcDbEntity
  8
0
100
AcDbMText
 62
2
  6
CONTINUOUS
  7
STANDARD
 71
2
 72
1
 10
3.95
 20
-0.44325
 30
0.0
 11
1.0
 21
0.0
 31
0.0
 44
0.9
  1
Size
 40
0.145
 41
0.928
  0
MTEXT
  5
273
100
AcDbEntity
  8
0
100
AcDbMText
 62
2
  6
CONTINUOUS
  7
STANDARD
 71
2
 72
1
 10
0.65
 20
-0.75025
 30
0.0
 11
1.0
 21
0.0
 31
0.0
 44
0.9
  1
H24
 40
0.125
 41
0.6
  0
MTEXT
  5
274
100
AcDbEntity
  8
0
100
AcDbMText
 62
2
  6
CONTINUOUS
  7
STANDARD
 71
2
 72
1
 10
2.3
 20
-0.75025
 30
0.0
 11
1.0
 21
0.0
 31
0.0
 44
0.9
  1
Ports 1 &  2
 40
0.125
 41
2.4
  0
MTEXT
  5
275
100
AcDbEntity
  8
0
100
AcDbMText
 62
2
  6
CONTINUOUS
  7
STANDARD
 71
2
 72
1
 10
3.95
 20
-0.75025
 30
0.0
 11
1.0
 21
0.0
 31
0.0
 44
0.9
  1
1" Code 62
 40
0.125
 41
2.0
  0
MTEXT
  5
276
100
AcDbEntity
  8
0
100
AcDbMText
 62
2
  6
CONTINUOUS
  7
STANDARD
 71
2
 72
1
 10
0.65
 20
-1.00025
 30
0.0
 11
1.0
 21
0.0
 31
0.0
 44
0.9
  1
H24
 40
0.125
 41
0.6
  0
MTEXT
  5
277
100
AcDbEntity
  8
0
100
AcDbMText
 62
2
  6
CONTINUOUS
  7
STANDARD
 71
2
 72
1
 10
2.3
 20
-1.00025
 30
0.0
 11
1.0
 21
0.0
 31
0.0
 44
0.9
  1
Port 3
 40
0.125
 41
1.2
  0
MTEXT
  5
278
100
AcDbEntity
  8
0
100
AcDbMText
 62
2
  6
CONTINUOUS
  7
STANDARD
 71
2
 72
1
 10
3.95
 20
-1.00025
 30
0.0
 11
1.0
 21
0.0
 31
0.0
 44
0.9
  1
SAE 6
 40
0.125
 41
1.0
  0
MTEXT
  5
279
100
AcDbEntity
  8
0
100
AcDbMText
 62
2
  6
CONTINUOUS
  7
STANDARD
 71
2
 72
1
 10
0.65
 20
-1.25025
 30
0.0
 11
1.0
 21
0.0
 31
0.0
 44
0.9
  1
H24
 40
0.125
 41
0.6
  0
MTEXT
  5
27A
100
AcDbEntity
  8
0
100
AcDbMText
 62
2
  6
CONTINUOUS
  7
STANDARD
 71
2
 72
1
 10
2.3
 20
-1.25025
 30
0.0
 11
1.0
 21
0.0
 31
0.0
 44
0.9
  1
Gage Port
 40
0.125
 41
1.8
  0
MTEXT
  5
27B
100
AcDbEntity
  8
0
100
AcDbMText
 62
2
  6
CONTINUOUS
  7
STANDARD
 71
2
 72
1
 10
3.95
 20
-1.25025
 30
0.0
 11
1.0
 21
0.0
 31
0.0
 44
0.9
  1
1/4" NPTF
 40
0.125
 41
1.8
  0
ENDBLK
  5
27C
100
AcDbEntity
  8
0
  6
BYBLOCK
 62
0
100
AcDbBlockEnd
  0
ENDSEC
  0
SECTION
  2
ENTITIES
  0
IMAGE
  5
27D
100
AcDbEntity
  8
0
100
AcDbRasterImage
 62
7
  6
CONTINUOUS
 10
19.2297077316
 20
0.3094318264
 30
0.0
 11
0.0066666667
 21
0.0
 31
0.0
 12
0.0
 22
0.0066666667
 32
0.0
 13
369.0
 23
92.0
340
       3A3
 70
9
280
0
281
50
282
50
283
0
360
       39D
 71
1
 91
2
 14
-0.5
 24
-0.5
 14
368.5
 24
91.5
  0
INSERT
  5
27E
100
AcDbEntity
  8
0
100
AcDbBlockReference
 62
2
  6
CONTINUOUS
  2
SUN_FIRST_THIRD_ANGLE_BL0
 10
20.4816717061
 20
1.2289683772
  0
ACAD_TABLE
  5
27F
100
AcDbEntity
  8
0
 62
2
  6
CONTINUOUS
100
AcDbBlockReference
  2
*T1
 10
12.42375
 20
0.30125
 30
0.0
100
AcDbTable
342
       3A5
343
207
 11
1.0
 21
0.0
 31
0.0
 90
6
 91
4
 92
6
 93
20
 94
0
 95
0
 96
0
 70
1
 41
0.0
141
0.525
141
0.1
141
0.525
141
0.1
142
4.1
142
1.1
142
0.7
142
0.5
142
0.4
142
2.475
171
1
172
0
173
0
174
0
175
1
176
1
 91
33
178
0
145
0.0
301
CELL_VALUE
 90
4
  1
T-17A Line mount\P(See Technical Data for Body Features)
304
ACVALUE_END
170
2
140
0.125
171
1
172
0
173
0
174
0
175
1
176
1
 91
33
178
0
145
0.0
301
CELL_VALUE
 90
4
  1
Feb-19-20
304
ACVALUE_END
170
5
140
0.125
171
1
172
0
173
0
174
0
175
1
176
1
 91
33
178
0
145
0.0
301
CELL_VALUE
 90
4
  1
1.000
304
ACVALUE_END
170
5
140
0.125
171
1
172
0
173
0
174
0
175
1
176
1
 91
33
178
0
145
0.0
301
CELL_VALUE
 90
4
  1
C
304
ACVALUE_END
170
5
140
0.125
171
1
172
0
173
0
174
0
175
1
176
1
 91
33
178
0
145
0.0
301
CELL_VALUE
 90
4
  1
2
304
ACVALUE_END
170
5
140
0.125
171
1
172
0
173
0
174
0
175
1
176
1
 91
33
178
0
145
0.0
301
CELL_VALUE
 90
4
  1
 
304
ACVALUE_END
170
1
140
0.125
171
1
172
0
173
0
174
0
175
1
176
1
 91
33
178
0
145
0.0
301
CELL_VALUE
 90
4
  1
DESCRIPTION
304
ACVALUE_END
170
1
140
0.06
171
1
172
0
173
0
174
0
175
1
176
1
 91
33
178
0
145
0.0
301
CELL_VALUE
 90
4
  1
DATE
304
ACVALUE_END
170
1
140
0.06
171
1
172
0
173
0
174
0
175
1
176
1
 91
33
178
0
145
0.0
301
CELL_VALUE
 90
4
  1
SCALE
304
ACVALUE_END
170
1
140
0.06
171
1
172
0
173
0
174
0
175
1
176
1
 91
33
178
0
145
0.0
301
CELL_VALUE
 90
4
  1
DWG SIZE
304
ACVALUE_END
170
1
140
0.06
171
1
172
0
173
0
174
0
175
1
176
1
 91
33
178
0
145
0.0
301
CELL_VALUE
 90
4
  1
SHEET
304
ACVALUE_END
170
1
140
0.06
171
1
172
0
173
0
174
0
175
1
176
1
 91
33
178
0
145
0.0
301
CELL_VALUE
 90
4
  1
 
304
ACVALUE_END
170
1
140
0.125
171
1
172
0
173
0
174
0
175
1
176
1
 91
33
178
0
145
0.0
301
CELL_VALUE
 90
4
  1
H24
304
ACVALUE_END
170
5
140
0.125
171
1
172
0
173
0
174
0
175
4
176
1
 91
33
178
0
145
0.0
301
CELL_VALUE
 90
4
  1
ALL DIMENSIONS IN INCH\PVIEWS ARE THIRD ANGLE
304
ACVALUE_END
170
5
140
0.12
171
1
172
0
173
1
174
0
175
1
176
1
 91
1
178
0
145
0.0
170
1
171
1
172
0
173
1
174
0
175
1
176
1
 91
1
178
0
145
0.0
170
1
171
1
172
0
173
1
174
0
175
1
176
1
 91
1
178
0
145
0.0
170
5
171
1
172
0
173
0
174
0
175
1
176
1
 91
33
178
0
145
0.0
301
CELL_VALUE
 90
4
  1
 
304
ACVALUE_END
170
1
140
0.125
171
1
172
0
173
0
174
0
175
1
176
1
 91
33
178
0
145
0.0
301
CELL_VALUE
 90
4
  1
MODEL
304
ACVALUE_END
170
1
140
0.06
171
1
172
0
173
0
174
0
175
1
176
1
 91
33
178
0
145
0.0
301
CELL_VALUE
 90
4
  1
 
304
ACVALUE_END
170
1
140
0.125
171
1
172
0
173
0
174
0
175
1
176
1
 91
33
178
0
145
0.0
301
CELL_VALUE
 90
4
  1
 
304
ACVALUE_END
170
1
140
0.125
171
1
172
0
173
0
174
0
175
1
176
1
 91
33
178
0
145
0.0
301
CELL_VALUE
 90
4
  1
 
304
ACVALUE_END
170
1
140
0.125
171
1
172
0
173
0
174
0
175
1
176
1
 91
33
178
0
145
0.0
301
CELL_VALUE
 90
4
  1
 
304
ACVALUE_END
170
1
140
0.125
171
1
172
0
173
0
174
0
175
1
176
1
 91
33
178
0
145
0.0
301
CELL_VALUE
 90
4
  1
 
304
ACVALUE_END
170
1
140
0.125
  0
ACAD_TABLE
  5
280
100
AcDbEntity
  8
0
 62
2
  6
CONTINUOUS
100
AcDbBlockReference
  2
*T2
 10
12.4237499994
 20
16.47875
 30
0.0
100
AcDbTable
342
       3A4
343
208
 11
1.0
 21
0.0
 31
0.0
 90
22
 91
7
 92
3
 93
16
 94
0
 95
0
 96
0
 41
0.028
141
0.344
141
0.25
141
0.25
141
0.25
141
0.25
141
0.25
141
0.25
142
3.055
142
3.0
142
3.0
171
1
172
0
173
0
174
0
175
1
176
1
 91
33
178
0
145
0.0
301
CELL_VALUE
 90
4
  1
Technical Data
304
ACVALUE_END
170
5
140
0.145
171
1
172
0
173
0
174
0
175
1
176
1
 91
33
178
0
145
0.0
301
CELL_VALUE
 90
4
  1
U.S. Units
304
ACVALUE_END
170
5
140
0.145
171
1
172
0
173
0
174
0
175
1
176
1
 91
33
178
0
145
0.0
301
CELL_VALUE
 90
4
  1
Metric Units
304
ACVALUE_END
170
5
140
0.145
171
1
172
0
173
0
174
0
175
1
176
1
 91
33
178
0
145
0.0
301
CELL_VALUE
 90
4
  1
Cavity
304
ACVALUE_END
170
5
140
0.125
171
1
172
0
173
0
174
0
175
2
176
1
 91
33
178
0
145
0.0
301
CELL_VALUE
 90
4
  1
T-17A
304
ACVALUE_END
170
5
140
0.125
171
1
172
0
173
1
174
0
175
1
176
1
 91
1
178
0
145
0.0
170
1
171
1
172
0
173
0
174
0
175
1
176
1
 91
33
178
0
145
0.0
301
CELL_VALUE
 90
4
  1
Body Features
304
ACVALUE_END
170
5
140
0.125
171
1
172
0
173
0
174
0
175
2
176
1
 91
33
178
0
145
0.0
301
CELL_VALUE
 90
4
  1
Ninety degree with reverse flow check - reducing
304
ACVALUE_END
170
5
140
0.125
171
1
172
0
173
1
174
0
175
1
176
1
 91
1
178
0
145
0.0
170
1
171
1
172
0
173
0
174
0
175
1
176
1
 91
33
178
0
145
0.0
301
CELL_VALUE
 90
4
  1
Body Type
304
ACVALUE_END
170
5
140
0.125
171
1
172
0
173
0
174
0
175
2
176
1
 91
33
178
0
145
0.0
301
CELL_VALUE
 90
4
  1
Line mount
304
ACVALUE_END
170
5
140
0.125
171
1
172
0
173
1
174
0
175
1
176
1
 91
1
178
0
145
0.0
170
1
171
1
172
0
173
0
174
0
175
1
176
1
 91
33
178
0
145
0.0
301
CELL_VALUE
 90
4
  1
Interface
304
ACVALUE_END
170
5
140
0.125
171
1
172
0
173
0
174
0
175
2
176
1
 91
33
178
0
145
0.0
301
CELL_VALUE
 90
4
  1
None
304
ACVALUE_END
170
5
140
0.125
171
1
172
0
173
1
174
0
175
1
176
1
 91
1
178
0
145
0.0
170
1
171
1
172
0
173
0
174
0
175
1
176
1
 91
33
178
0
145
0.0
301
CELL_VALUE
 90
4
  1
Open Cavity Quantity
304
ACVALUE_END
170
5
140
0.125
171
1
172
0
173
0
174
0
175
2
176
1
 91
33
178
0
145
0.0
301
CELL_VALUE
 90
4
  1
1
304
ACVALUE_END
170
5
140
0.125
171
1
172
0
173
1
174
0
175
1
176
1
 91
1
178
0
145
0.0
170
1
171
1
172
0
173
0
174
0
175
1
176
1
 91
33
178
0
145
0.0
301
CELL_VALUE
 90
4
  1
Weight
304
ACVALUE_END
170
5
140
0.125
171
1
172
0
173
0
174
0
175
1
176
1
 91
33
178
0
145
0.0
301
CELL_VALUE
 90
4
  1
7.687 lb.
304
ACVALUE_END
170
5
140
0.125
171
1
172
0
173
0
174
0
175
1
176
1
 91
33
178
0
145
0.0
301
CELL_VALUE
 90
4
  1
3,487 kg.
304
ACVALUE_END
170
5
140
0.125
  0
ACAD_TABLE
  5
281
100
AcDbEntity
  8
0
 62
2
  6
CONTINUOUS
100
AcDbBlockReference
  2
*T3
 10
0.52125
 20
1.959
 30
0.0
100
AcDbTable
342
       3A4
343
209
 11
1.0
 21
0.0
 31
0.0
 90
22
 91
5
 92
3
 93
16
 94
0
 95
0
 96
0
 41
0.05
141
0.34375
141
0.344
141
0.25
141
0.25
141
0.25
142
1.3
142
2.0
142
1.3
171
1
172
0
173
0
174
0
175
3
176
1
 91
33
178
0
145
0.0
301
CELL_VALUE
 90
4
  1
Port Headings
304
ACVALUE_END
170
5
140
0.145
171
1
172
0
173
1
174
0
175
1
176
1
 91
1
178
0
145
0.0
170
1
171
1
172
0
173
1
174
0
175
1
176
1
 91
1
178
0
145
0.0
170
1
171
1
172
0
173
0
174
0
175
1
176
1
 91
33
178
0
145
0.0
301
CELL_VALUE
 90
4
  1
Product
304
ACVALUE_END
170
5
140
0.145
171
1
172
0
173
0
174
0
175
1
176
1
 91
33
178
0
145
0.0
301
CELL_VALUE
 90
4
  1
Port
304
ACVALUE_END
170
5
140
0.145
171
1
172
0
173
0
174
0
175
1
176
1
 91
33
178
0
145
0.0
301
CELL_VALUE
 90
4
  1
Size
304
ACVALUE_END
170
5
140
0.145
171
1
172
0
173
0
174
0
175
1
176
1
 91
33
178
0
145
0.0
301
CELL_VALUE
 90
4
  1
H24
304
ACVALUE_END
170
5
140
0.125
171
1
172
0
173
0
174
0
175
1
176
1
 91
33
178
0
145
0.0
301
CELL_VALUE
 90
4
  1
Ports 1 &  2
304
ACVALUE_END
170
5
140
0.125
171
1
172
0
173
0
174
0
175
1
176
1
 91
33
178
0
145
0.0
301
CELL_VALUE
 90
4
  1
1" Code 62
304
ACVALUE_END
170
5
140
0.125
171
1
172
0
173
0
174
0
175
1
176
1
 91
33
178
0
145
0.0
301
CELL_VALUE
 90
4
  1
H24
304
ACVALUE_END
170
5
140
0.125
171
1
172
0
173
0
174
0
175
1
176
1
 91
33
178
0
145
0.0
301
CELL_VALUE
 90
4
  1
Port 3
304
ACVALUE_END
170
5
140
0.125
171
1
172
0
173
0
174
0
175
1
176
1
 91
33
178
0
145
0.0
301
CELL_VALUE
 90
4
  1
SAE 6
304
ACVALUE_END
170
5
140
0.125
171
1
172
0
173
0
174
0
175
1
176
1
 91
33
178
0
145
0.0
301
CELL_VALUE
 90
4
  1
H24
304
ACVALUE_END
170
5
140
0.125
171
1
172
0
173
0
174
0
175
1
176
1
 91
33
178
0
145
0.0
301
CELL_VALUE
 90
4
  1
Gage Port
304
ACVALUE_END
170
5
140
0.125
171
1
172
0
173
0
174
0
175
1
176
1
 91
33
178
0
145
0.0
301
CELL_VALUE
 90
4
  1
1/4" NPTF
304
ACVALUE_END
170
5
140
0.125
  0
MTEXT
  5
282
100
AcDbEntity
  8
0
100
AcDbMText
 62
2
  6
CONTINUOUS
  7
STANDARD
 71
1
 72
1
 10
0.52125
 20
5.75995
 30
0.0
 11
1.0
 21
0.0
 31
0.0
 44
0.6
  3
Notes\P \P1. Important: Carefully consider\P   the maximum system pressure. The\P   pressure rating of the manifold is\P   dependent on the manifold material,\P   with the port type/size a secondary\P   consideration. Manifolds\P   constructed of alu
  1
minum are not\P   rated for pressures higher than\P   3000 psi (210 bar), regardless of\P   the port type/size specified.
 40
0.1
 41
3.04
  0
LINE
  5
283
100
AcDbEntity
  8
0
100
AcDbLine
 62
7
  6
CONTINUOUS
 10
0.30125
 20
0.30125
 11
0.30125
 21
16.69875
  0
LINE
  5
284
100
AcDbEntity
  8
0
100
AcDbLine
 62
7
  6
CONTINUOUS
 10
0.30125
 20
0.30125
 11
21.69875
 21
0.30125
  0
LINE
  5
285
100
AcDbEntity
  8
0
100
AcDbLine
 62
7
  6
CONTINUOUS
 10
0.30125
 20
16.69875
 11
21.69875
 21
16.69875
  0
LINE
  5
286
100
AcDbEntity
  8
0
100
AcDbLine
 62
7
  6
CONTINUOUS
 10
21.69875
 20
0.30125
 11
21.69875
 21
16.69875
  0
LINE
  5
287
100
AcDbEntity
  8
0
100
AcDbLine
 62
7
  6
CONTINUOUS
 10
9.8839487171
 20
11.8213178834
 11
8.7353106906
 21
10.7118186828
  0
LINE
  5
288
100
AcDbEntity
  8
0
100
AcDbLine
 62
7
  6
CONTINUOUS
 10
8.7353106906
 20
5.5199670588
 11
12.1160512829
 21
5.2855119024
  0
LINE
  5
289
100
AcDbEntity
  8
0
100
AcDbLine
 62
4
  6
CONTINUOUS
 10
9.1805324677
 20
5.9852246015
 11
9.9610485506
 21
5.6396263993
  0
LINE
  5
28A
100
AcDbEntity
  8
0
100
AcDbLine
 62
7
  6
CONTINUOUS
 10
10.6988981516
 20
5.2739374694
 11
10.717657237
 21
5.2646708404
  0
LINE
  5
28B
100
AcDbEntity
  8
0
100
AcDbLine
 62
7
  6
CONTINUOUS
 10
8.7353106906
 20
5.5199670588
 11
8.7353106906
 21
10.7118186828
  0
LINE
  5
28C
100
AcDbEntity
  8
0
100
AcDbLine
 62
4
  6
CONTINUOUS
 10
8.8859951284
 20
6.4300444246
 11
8.8859951284
 21
7.4867673412
  0
LINE
  5
28D
100
AcDbEntity
  8
0
100
AcDbLine
 62
7
  6
CONTINUOUS
 10
12.1160512829
 20
10.4773635264
 11
13.2646893094
 21
11.586862727
  0
LINE
  5
28E
100
AcDbEntity
  8
0
100
AcDbLine
 62
7
  6
CONTINUOUS
 10
10.7497624607
 20
5.3802643541
 11
10.7497624607
 21
5.2632276931
  0
LINE
  5
28F
100
AcDbEntity
  8
0
100
AcDbLine
 62
4
  6
CONTINUOUS
 10
12.1636092451
 20
10.035508484
 11
12.169432669
 21
10.0411334799
  0
LINE
  5
290
100
AcDbEntity
  8
0
100
AcDbLine
 62
4
  6
CONTINUOUS
 10
12.1636092451
 20
9.9630640364
 11
12.169432669
 21
9.9686890323
  0
LINE
  5
291
100
AcDbEntity
  8
0
100
AcDbLine
 62
4
  6
CONTINUOUS
 10
12.9052638453
 20
9.6410770314
 11
12.8919531684
 21
9.6364992685
  0
LINE
  5
292
100
AcDbEntity
  8
0
100
AcDbLine
 62
4
  6
CONTINUOUS
 10
11.6708295057
 20
7.7180320104
 11
10.8903134229
 21
8.0636302126
  0
LINE
  5
293
100
AcDbEntity
  8
0
100
AcDbLine
 62
7
  6
CONTINUOUS
 10
10.7817552561
 20
5.3780456462
 11
10.7817552561
 21
5.2549473589
  0
LINE
  5
294
100
AcDbEntity
  8
0
100
AcDbLine
 62
4
  6
CONTINUOUS
 10
12.169432669
 20
9.867266814
 11
12.1636092451
 21
9.8616418181
  0
LINE
  5
295
100
AcDbEntity
  8
0
100
AcDbLine
 62
4
  6
CONTINUOUS
 10
9.9610485506
 20
8.1280749503
 11
9.1805324677
 21
7.8907346965
  0
LINE
  5
296
100
AcDbEntity
  8
0
100
AcDbLine
 62
7
  6
CONTINUOUS
 10
11.4284001301
 20
5.3332006719
 11
11.4284001301
 21
5.2101023846
  0
LINE
  5
297
100
AcDbEntity
  8
0
100
AcDbLine
 62
7
  6
CONTINUOUS
 10
11.4721030889
 20
5.3301698614
 11
11.4721030889
 21
5.2131332004
  0
LINE
  5
298
100
AcDbEntity
  8
0
100
AcDbLine
 62
4
  6
CONTINUOUS
 10
12.4793219866
 20
9.3455598741
 11
12.4926326698
 21
9.3584170075
  0
LINE
  5
299
100
AcDbEntity
  8
0
100
AcDbLine
 62
4
  6
CONTINUOUS
 10
12.8409288771
 20
9.6948453293
 11
12.8420380965
 21
9.695916753
  0
LINE
  5
29A
100
AcDbEntity
  8
0
100
AcDbLine
 62
4
  6
CONTINUOUS
 10
12.7610647932
 20
9.5680263562
 11
12.7444264359
 21
9.5519549362
  0
LINE
  5
29B
100
AcDbEntity
  8
0
100
AcDbLine
 62
4
  6
CONTINUOUS
 10
12.6190841577
 20
9.4308835854
 11
12.635722515
 21
9.4469550053
  0
LINE
  5
29C
100
AcDbEntity
  8
0
100
AcDbLine
 62
4
  6
CONTINUOUS
 10
12.6878560256
 20
9.4973121126
 11
12.7011667025
 21
9.51016924
  0
LINE
  5
29D
100
AcDbEntity
  8
0
100
AcDbLine
 62
4
  6
CONTINUOUS
 10
12.7144774017
 20
9.5230263889
 11
12.7277880787
 21
9.5358835162
  0
LINE
  5
29E
100
AcDbEntity
  8
0
100
AcDbLine
 62
4
  6
CONTINUOUS
 10
12.8620041119
 20
9.6655262567
 11
12.8753148333
 21
9.6783834271
  0
LINE
  5
29F
100
AcDbEntity
  8
0
100
AcDbLine
 62
4
  6
CONTINUOUS
 10
12.8919531684
 20
9.6944548256
 11
12.9052638453
 21
9.7073119529
  0
LINE
  5
2A0
100
AcDbEntity
  8
0
100
AcDbLine
 62
4
  6
CONTINUOUS
 10
12.7510817744
 20
9.4962882606
 11
12.7643924514
 21
9.509145388
  0
LINE
  5
2A1
100
AcDbEntity
  8
0
100
AcDbLine
 62
4
  6
CONTINUOUS
 10
12.8753148333
 20
9.5541929484
 11
12.8620041119
 21
9.5413357781
  0
LINE
  5
2A2
100
AcDbEntity
  8
0
100
AcDbLine
 62
4
  6
CONTINUOUS
 10
12.8209628617
 20
9.5016929722
 11
12.8143075232
 21
9.4952644085
  0
LINE
  5
2A3
100
AcDbEntity
  8
0
100
AcDbLine
 62
4
  6
CONTINUOUS
 10
12.7643924514
 20
9.4470501487
 11
12.7510817744
 21
9.4341930213
  0
LINE
  5
2A4
100
AcDbEntity
  8
0
100
AcDbLine
 62
4
  6
CONTINUOUS
 10
12.7011667025
 20
9.3859787614
 11
12.6878560256
 21
9.373121634
  0
LINE
  5
2A5
100
AcDbEntity
  8
0
100
AcDbLine
 62
4
  6
CONTINUOUS
 10
12.4759943156
 20
9.1684789246
 11
12.4893049992
 21
9.1813360584
  0
LINE
  5
2A6
100
AcDbEntity
  8
0
100
AcDbLine
 62
4
  6
CONTINUOUS
 10
12.5159263642
 20
9.2070503239
 11
12.5259093802
 21
9.2166931774
  0
LINE
  5
2A7
100
AcDbEntity
  8
0
100
AcDbLine
 62
4
  6
CONTINUOUS
 10
12.7810308086
 20
9.4631215686
 11
12.7976691659
 21
9.4791929886
  0
LINE
  5
2A8
100
AcDbEntity
  8
0
100
AcDbLine
 62
4
  6
CONTINUOUS
 10
12.8919531684
 20
9.5702643469
 11
12.9052638453
 21
9.5831214743
  0
LINE
  5
2A9
100
AcDbEntity
  8
0
100
AcDbLine
 62
4
  6
CONTINUOUS
 10
12.1577858211
 20
10.0153946027
 11
12.1636092451
 21
10.035508484
  0
LINE
  5
2AA
100
AcDbEntity
  8
0
100
AcDbLine
 62
4
  6
CONTINUOUS
 10
12.175256093
 20
9.988802924
 11
12.169432669
 21
9.9686890323
  0
LINE
  5
2AB
100
AcDbEntity
  8
0
100
AcDbLine
 62
4
  6
CONTINUOUS
 10
12.175256093
 20
9.8873806992
 11
12.169432669
 21
9.867266814
  0
LINE
  5
2AC
100
AcDbEntity
  8
0
100
AcDbLine
 62
4
  6
CONTINUOUS
 10
13.2118254618
 20
9.8406003048
 11
13.2176488857
 21
9.8462253007
  0
LINE
  5
2AD
100
AcDbEntity
  8
0
100
AcDbLine
 62
4
  6
CONTINUOUS
 10
12.6523608723
 20
9.2974391213
 11
12.6590162107
 21
9.303867685
  0
LINE
  5
2AE
100
AcDbEntity
  8
0
100
AcDbLine
 62
4
  6
CONTINUOUS
 10
13.2030903258
 20
9.658296145
 11
13.2263840216
 21
9.6807961287
  0
LINE
  5
2AF
100
AcDbEntity
  8
0
100
AcDbLine
 62
4
  6
CONTINUOUS
 10
12.6956206131
 20
9.0502749847
 11
12.6856375971
 21
9.0406321312
  0
LINE
  5
2B0
100
AcDbEntity
  8
0
100
AcDbLine
 62
4
  6
CONTINUOUS
 10
12.6423778776
 20
8.9243321674
 11
12.6656715733
 21
8.9468321511
  0
LINE
  5
2B1
100
AcDbEntity
  8
0
100
AcDbLine
 62
4
  6
CONTINUOUS
 10
12.6094246872
 20
7.4524443401
 11
12.6036012633
 21
7.4613082334
  0
LINE
  5
2B2
100
AcDbEntity
  8
0
100
AcDbLine
 62
4
  6
CONTINUOUS
 10
11.9653668451
 20
7.2732121873
 11
11.9653668451
 21
6.2164892707
  0
LINE
  5
2B3
100
AcDbEntity
  8
0
100
AcDbLine
 62
4
  6
CONTINUOUS
 10
12.1781678049
 20
10.0061043073
 11
12.175256093
 21
9.988802924
  0
LINE
  5
2B4
100
AcDbEntity
  8
0
100
AcDbLine
 62
4
  6
CONTINUOUS
 10
12.1810795169
 20
9.9219834723
 11
12.175256093
 21
9.8873806992
  0
LINE
  5
2B5
100
AcDbEntity
  8
0
100
AcDbLine
 62
4
  6
CONTINUOUS
 10
12.7388803298
 20
8.955451142
 11
12.7155866341
 21
8.9329511583
  0
LINE
  5
2B6
100
AcDbEntity
  8
0
100
AcDbLine
 62
4
  6
CONTINUOUS
 10
12.7022759516
 20
8.8828368825
 11
12.6789822558
 21
8.8603368988
  0
LINE
  5
2B7
100
AcDbEntity
  8
0
100
AcDbLine
 62
4
  6
CONTINUOUS
 10
12.523690934
 20
8.5016969925
 11
12.5403292857
 21
8.5177684071
  0
LINE
  5
2B8
100
AcDbEntity
  8
0
100
AcDbLine
 62
4
  6
CONTINUOUS
 10
12.6057734761
 20
8.5809826445
 11
12.6323948411
 21
8.60669691
  0
LINE
  5
2B9
100
AcDbEntity
  8
0
100
AcDbLine
 62
4
  6
CONTINUOUS
 10
12.6457055291
 20
8.6195540481
 11
12.6656715557
 21
8.6388397499
  0
LINE
  5
2BA
100
AcDbEntity
  8
0
100
AcDbLine
 62
4
  6
CONTINUOUS
 10
12.722241966
 20
8.6934825735
 11
12.7355526429
 21
8.7063397009
  0
LINE
  5
2BB
100
AcDbEntity
  8
0
100
AcDbLine
 62
4
  6
CONTINUOUS
 10
12.7610647775
 20
8.7309825319
 11
12.7710477963
 21
8.7406253882
  0
LINE
  5
2BC
100
AcDbEntity
  8
0
100
AcDbLine
 62
4
  6
CONTINUOUS
 10
12.7910138117
 20
8.7599110793
 11
12.807652169
 21
8.7759824992
  0
LINE
  5
2BD
100
AcDbEntity
  8
0
100
AcDbLine
 62
4
  6
CONTINUOUS
 10
12.8331643257
 20
8.8006253518
 11
12.8531303411
 21
8.8199110429
  0
LINE
  5
2BE
100
AcDbEntity
  8
0
100
AcDbLine
 62
4
  6
CONTINUOUS
 10
12.4970695662
 20
8.3766303445
 11
12.5148171443
 21
8.3606557287
  0
LINE
  5
2BF
100
AcDbEntity
  8
0
100
AcDbLine
 62
4
  6
CONTINUOUS
 10
12.6152481111
 20
7.6319360019
 11
12.6210715351
 21
7.6230721125
  0
LINE
  5
2C0
100
AcDbEntity
  8
0
100
AcDbLine
 62
7
  6
CONTINUOUS
 10
12.1160512829
 20
5.2855119024
 11
12.1160512829
 21
10.4773635264
  0
LINE
  5
2C1
100
AcDbEntity
  8
0
100
AcDbLine
 62
4
  6
CONTINUOUS
 10
12.1781678049
 20
10.0205931927
 11
12.1781678049
 21
10.0061043073
  0
LINE
  5
2C2
100
AcDbEntity
  8
0
100
AcDbLine
 62
4
  6
CONTINUOUS
 10
12.1781678049
 20
6.9682673501
 11
12.1781678049
 21
6.7944006841
  0
LINE
  5
2C3
100
AcDbEntity
  8
0
100
AcDbLine
 62
4
  6
CONTINUOUS
 10
12.1810795169
 20
9.9364723629
 11
12.1810795169
 21
9.9219834723
  0
LINE
  5
2C4
100
AcDbEntity
  8
0
100
AcDbLine
 62
4
  6
CONTINUOUS
 10
12.4726666447
 20
9.3142932134
 11
12.4793219866
 21
9.3455598741
  0
LINE
  5
2C5
100
AcDbEntity
  8
0
100
AcDbLine
 62
4
  6
CONTINUOUS
 10
12.4893049992
 20
9.1813360584
 11
12.4959603404
 21
9.212602721
  0
LINE
  5
2C6
100
AcDbEntity
  8
0
100
AcDbLine
 62
4
  6
CONTINUOUS
 10
12.5259093802
 20
9.2166931774
 11
12.5325647187
 21
9.2479598374
  0
LINE
  5
2C7
100
AcDbEntity
  8
0
100
AcDbLine
 62
4
  6
CONTINUOUS
 10
12.6812006871
 20
9.4784644969
 11
12.6878560256
 21
9.4973121126
  0
LINE
  5
2C8
100
AcDbEntity
  8
0
100
AcDbLine
 62
4
  6
CONTINUOUS
 10
12.7444264359
 20
9.4774406501
 11
12.7510817744
 21
9.4962882606
  0
LINE
  5
2C9
100
AcDbEntity
  8
0
100
AcDbLine
 62
4
  6
CONTINUOUS
 10
12.8464750026
 20
8.7389681982
 11
12.8331643257
 21
8.7261110708
  0
LINE
  5
2CA
100
AcDbEntity
  8
0
100
AcDbLine
 62
4
  6
CONTINUOUS
 10
12.6590162172
 20
8.5578969052
 11
12.6457055291
 21
8.5450397671
  0
LINE
  5
2CB
100
AcDbEntity
  8
0
100
AcDbLine
 62
4
  6
CONTINUOUS
 10
12.5702783227
 20
8.4225064837
 11
12.5880258994
 21
8.4396493273
  0
LINE
  5
2CC
100
AcDbEntity
  8
0
100
AcDbLine
 62
4
  6
CONTINUOUS
 10
12.807652169
 20
8.6021158333
 11
12.7910138117
 21
8.5860444133
  0
LINE
  5
2CD
100
AcDbEntity
  8
0
100
AcDbLine
 62
4
  6
CONTINUOUS
 10
12.7710477963
 20
8.5667587223
 11
12.7610647775
 21
8.557115866
  0
LINE
  5
2CE
100
AcDbEntity
  8
0
100
AcDbLine
 62
4
  6
CONTINUOUS
 10
12.7355526429
 20
8.5324730349
 11
12.722241966
 21
8.5196159075
  0
LINE
  5
2CF
100
AcDbEntity
  8
0
100
AcDbLine
 62
4
  6
CONTINUOUS
 10
12.5403292857
 20
8.3439017411
 11
12.523690934
 21
8.3278303265
  0
LINE
  5
2D0
100
AcDbEntity
  8
0
100
AcDbLine
 62
4
  6
CONTINUOUS
 10
12.6457055291
 20
8.4456873821
 11
12.6656715557
 21
8.4649730839
  0
LINE
  5
2D1
100
AcDbEntity
  8
0
100
AcDbLine
 62
4
  6
CONTINUOUS
 10
12.8331643257
 20
8.6267586858
 11
12.8531303411
 21
8.6460443769
  0
LINE
  5
2D2
100
AcDbEntity
  8
0
100
AcDbLine
 62
4
  6
CONTINUOUS
 10
12.6036012633
 20
7.4613082334
 11
12.5977778393
 21
7.4846610147
  0
LINE
  5
2D3
100
AcDbEntity
  8
0
100
AcDbLine
 62
4
  6
CONTINUOUS
 10
12.6210715351
 20
7.6230721125
 11
12.623983247
 21
7.6113957147
  0
LINE
  5
2D4
100
AcDbEntity
  8
0
100
AcDbLine
 62
4
  6
CONTINUOUS
 10
12.5791521111
 20
8.5552683789
 11
12.5924627991
 21
8.3942588511
  0
LINE
  5
2D5
100
AcDbEntity
  8
0
100
AcDbLine
 62
4
  6
CONTINUOUS
 10
12.5977778393
 20
7.4846610147
 11
12.5948661273
 21
7.5253151833
  0
LINE
  5
2D6
100
AcDbEntity
  8
0
100
AcDbLine
 62
4
  6
CONTINUOUS
 10
12.4726666447
 20
9.2894551197
 11
12.4726666447
 21
9.3142932134
  0
LINE
  5
2D7
100
AcDbEntity
  8
0
100
AcDbLine
 62
4
  6
CONTINUOUS
 10
12.4959603404
 20
9.212602721
 11
12.4959603404
 21
9.2374408172
  0
LINE
  5
2D8
100
AcDbEntity
  8
0
100
AcDbLine
 62
4
  6
CONTINUOUS
 10
12.5092710229
 20
9.3744884234
 11
12.5092710229
 21
9.2254598537
  0
LINE
  5
2D9
100
AcDbEntity
  8
0
100
AcDbLine
 62
4
  6
CONTINUOUS
 10
12.523690934
 20
8.3278303265
 11
12.523690934
 21
8.5016969925
  0
LINE
  5
2DA
100
AcDbEntity
  8
0
100
AcDbLine
 62
4
  6
CONTINUOUS
 10
12.5325647187
 20
9.2479598374
 11
12.5325647187
 21
9.3969884071
  0
LINE
  5
2DB
100
AcDbEntity
  8
0
100
AcDbLine
 62
4
  6
CONTINUOUS
 10
12.5458754012
 20
9.2359788739
 11
12.5458754012
 21
9.4098455398
  0
LINE
  5
2DC
100
AcDbEntity
  8
0
100
AcDbLine
 62
4
  6
CONTINUOUS
 10
12.546984627
 20
8.4993588798
 11
12.546984627
 21
8.3751684038
  0
LINE
  5
2DD
100
AcDbEntity
  8
0
100
AcDbLine
 62
4
  6
CONTINUOUS
 10
12.5691690969
 20
9.2584788576
 11
12.5691690969
 21
9.4323455235
  0
LINE
  5
2DE
100
AcDbEntity
  8
0
100
AcDbLine
 62
4
  6
CONTINUOUS
 10
12.6190841641
 20
8.4199731166
 11
12.6190841641
 21
8.5938397826
  0
LINE
  5
2DF
100
AcDbEntity
  8
0
100
AcDbLine
 62
4
  6
CONTINUOUS
 10
12.6190841577
 20
9.3066931067
 11
12.6190841577
 21
9.4805597727
  0
LINE
  5
2E0
100
AcDbEntity
  8
0
100
AcDbLine
 62
4
  6
CONTINUOUS
 10
12.623983247
 20
7.5534401628
 11
12.623983247
 21
7.4954846084
  0
LINE
  5
2E1
100
AcDbEntity
  8
0
100
AcDbLine
 62
4
  6
CONTINUOUS
 10
12.6390501842
 20
9.4377502352
 11
12.6390501842
 21
9.3259788085
  0
LINE
  5
2E2
100
AcDbEntity
  8
0
100
AcDbLine
 62
4
  6
CONTINUOUS
 10
12.6423778776
 20
8.8249797824
 11
12.6423778776
 21
8.9988464484
  0
LINE
  5
2E3
100
AcDbEntity
  8
0
100
AcDbLine
 62
4
  6
CONTINUOUS
 10
12.5658414286
 20
8.3685445802
 11
12.5791521111
 21
8.5552683789
  0
LINE
  5
2E4
100
AcDbEntity
  8
0
100
AcDbLine
 62
4
  6
CONTINUOUS
 10
12.6590162107
 20
9.303867685
 11
12.6723268877
 21
9.4823121164
  0
LINE
  5
2E5
100
AcDbEntity
  8
0
100
AcDbLine
 62
4
  6
CONTINUOUS
 10
12.6856375971
 20
9.0406321312
 11
12.6789822558
 21
8.9969464191
  0
LINE
  5
2E6
100
AcDbEntity
  8
0
100
AcDbLine
 62
4
  6
CONTINUOUS
 10
12.6789822558
 20
8.8603368988
 11
12.7022759516
 21
9.0070273611
  0
LINE
  5
2E7
100
AcDbEntity
  8
0
100
AcDbLine
 62
4
  6
CONTINUOUS
 10
12.546984627
 20
8.3751684038
 11
12.5403292857
 21
8.3439017411
  0
LINE
  5
2E8
100
AcDbEntity
  8
0
100
AcDbLine
 62
4
  6
CONTINUOUS
 10
12.8586764538
 20
9.6498929336
 11
12.8620041119
 21
9.6655262567
  0
LINE
  5
2E9
100
AcDbEntity
  8
0
100
AcDbLine
 62
4
  6
CONTINUOUS
 10
12.8886255102
 20
9.6788215024
 11
12.8919531684
 21
9.6944548256
  0
LINE
  5
2EA
100
AcDbEntity
  8
0
100
AcDbLine
 62
4
  6
CONTINUOUS
 10
12.9052638453
 20
9.5831214743
 11
12.9085915034
 21
9.5987547936
  0
LINE
  5
2EB
100
AcDbEntity
  8
0
100
AcDbLine
 62
4
  6
CONTINUOUS
 10
12.5148171443
 20
8.4268906529
 11
12.4970695662
 21
8.3766303445
  0
LINE
  5
2EC
100
AcDbEntity
  8
0
100
AcDbLine
 62
4
  6
CONTINUOUS
 10
12.8664410181
 20
8.7665332538
 11
12.8841885947
 21
8.7505586341
  0
LINE
  5
2ED
100
AcDbEntity
  8
0
100
AcDbLine
 62
4
  6
CONTINUOUS
 10
12.5403292857
 20
8.5177684071
 11
12.546984627
 21
8.4993588798
  0
LINE
  5
2EE
100
AcDbEntity
  8
0
100
AcDbLine
 62
4
  6
CONTINUOUS
 10
12.4726666447
 20
9.1776836892
 11
12.4759943156
 21
9.1684789246
  0
LINE
  5
2EF
100
AcDbEntity
  8
0
100
AcDbLine
 62
4
  6
CONTINUOUS
 10
12.722241966
 20
8.5196159075
 11
12.7155866275
 21
8.5380254401
  0
LINE
  5
2F0
100
AcDbEntity
  8
0
100
AcDbLine
 62
4
  6
CONTINUOUS
 10
12.1577858211
 20
9.8705057114
 11
12.1548741092
 21
9.8821821027
  0
LINE
  5
2F1
100
AcDbEntity
  8
0
100
AcDbLine
 62
4
  6
CONTINUOUS
 10
12.175256093
 20
9.9598251429
 11
12.1810795169
 21
9.9364723629
  0
LINE
  5
2F2
100
AcDbEntity
  8
0
100
AcDbLine
 62
4
  6
CONTINUOUS
 10
12.175256093
 20
10.0322695905
 11
12.1781678049
 21
10.0205931927
  0
LINE
  5
2F3
100
AcDbEntity
  8
0
100
AcDbLine
 62
4
  6
CONTINUOUS
 10
12.6523608723
 20
9.4630264253
 11
12.6623438911
 21
9.3484788029
  0
LINE
  5
2F4
100
AcDbEntity
  8
0
100
AcDbLine
 62
4
  6
CONTINUOUS
 10
12.6457055291
 20
8.4456873821
 11
12.6457055291
 21
8.6195540481
  0
LINE
  5
2F5
100
AcDbEntity
  8
0
100
AcDbLine
 62
4
  6
CONTINUOUS
 10
12.6656715733
 20
9.021346432
 11
12.6656715733
 21
8.8474797661
  0
LINE
  5
2F6
100
AcDbEntity
  8
0
100
AcDbLine
 62
4
  6
CONTINUOUS
 10
12.6812006871
 20
9.3791121184
 11
12.6812006871
 21
9.4784644969
  0
LINE
  5
2F7
100
AcDbEntity
  8
0
100
AcDbLine
 62
4
  6
CONTINUOUS
 10
12.7011667025
 20
9.5598454273
 11
12.7011667025
 21
9.3859787614
  0
LINE
  5
2F8
100
AcDbEntity
  8
0
100
AcDbLine
 62
4
  6
CONTINUOUS
 10
12.7022759516
 20
9.0070273611
 11
12.7022759516
 21
9.0318654548
  0
LINE
  5
2F9
100
AcDbEntity
  8
0
100
AcDbLine
 62
4
  6
CONTINUOUS
 10
12.7144774017
 20
9.3988359102
 11
12.7144774017
 21
9.5230263889
  0
LINE
  5
2FA
100
AcDbEntity
  8
0
100
AcDbLine
 62
4
  6
CONTINUOUS
 10
12.7155866275
 20
8.5380254401
 11
12.7155866275
 21
8.6622159161
  0
LINE
  5
2FB
100
AcDbEntity
  8
0
100
AcDbLine
 62
4
  6
CONTINUOUS
 10
12.7300065174
 20
9.5256073116
 11
12.7300065174
 21
9.500769218
  0
LINE
  5
2FC
100
AcDbEntity
  8
0
100
AcDbLine
 62
4
  6
CONTINUOUS
 10
12.7311157664
 20
8.9106940061
 11
12.7311157664
 21
8.9976273391
  0
LINE
  5
2FD
100
AcDbEntity
  8
0
100
AcDbLine
 62
4
  6
CONTINUOUS
 10
12.7444264359
 20
9.4401835057
 11
12.7444264359
 21
9.4774406501
  0
LINE
  5
2FE
100
AcDbEntity
  8
0
100
AcDbLine
 62
4
  6
CONTINUOUS
 10
12.754409439
 20
8.5755253985
 11
12.754409439
 21
8.6997158746
  0
LINE
  5
2FF
100
AcDbEntity
  8
0
100
AcDbLine
 62
4
  6
CONTINUOUS
 10
12.7643924514
 20
9.4470501487
 11
12.7643924514
 21
9.5464025336
  0
LINE
  5
300
100
AcDbEntity
  8
0
100
AcDbLine
 62
4
  6
CONTINUOUS
 10
12.7777031283
 20
9.5840977547
 11
12.7777031283
 21
9.4723263242
  0
LINE
  5
301
100
AcDbEntity
  8
0
100
AcDbLine
 62
4
  6
CONTINUOUS
 10
12.7777031347
 20
8.7222158582
 11
12.7777031347
 21
8.5980253822
  0
LINE
  5
302
100
AcDbEntity
  8
0
100
AcDbLine
 62
4
  6
CONTINUOUS
 10
12.7910138117
 20
8.5860444133
 11
12.7910138117
 21
8.7599110793
  0
LINE
  5
303
100
AcDbEntity
  8
0
100
AcDbLine
 62
4
  6
CONTINUOUS
 10
12.7976691659
 20
9.4791929886
 11
12.7976691659
 21
9.6033834672
  0
LINE
  5
304
100
AcDbEntity
  8
0
100
AcDbLine
 62
4
  6
CONTINUOUS
 10
12.8109798429
 20
9.5044691641
 11
12.8109798429
 21
9.6659167819
  0
LINE
  5
305
100
AcDbEntity
  8
0
100
AcDbLine
 62
4
  6
CONTINUOUS
 10
12.8143075074
 20
8.7575729693
 11
12.8143075074
 21
8.6333824932
  0
LINE
  5
306
100
AcDbEntity
  8
0
100
AcDbLine
 62
4
  6
CONTINUOUS
 10
12.8331643257
 20
8.6267586858
 11
12.8331643257
 21
8.8006253518
  0
LINE
  5
307
100
AcDbEntity
  8
0
100
AcDbLine
 62
4
  6
CONTINUOUS
 10
12.8409288771
 20
9.5209786633
 11
12.8409288771
 21
9.645169142
  0
LINE
  5
308
100
AcDbEntity
  8
0
100
AcDbLine
 62
4
  6
CONTINUOUS
 10
12.8409288771
 20
9.6824262773
 11
12.8409288771
 21
9.6948453293
  0
LINE
  5
309
100
AcDbEntity
  8
0
100
AcDbLine
 62
4
  6
CONTINUOUS
 10
12.8586764538
 20
9.5505405551
 11
12.8586764538
 21
9.6498929336
  0
LINE
  5
30A
100
AcDbEntity
  8
0
100
AcDbLine
 62
4
  6
CONTINUOUS
 10
12.8886255102
 20
9.641564362
 11
12.8886255102
 21
9.6788215024
  0
LINE
  5
30B
100
AcDbEntity
  8
0
100
AcDbLine
 62
4
  6
CONTINUOUS
 10
12.9085915034
 20
9.5987547936
 11
12.9085915034
 21
9.6360119379
  0
LINE
  5
30C
100
AcDbEntity
  8
0
100
AcDbLine
 62
4
  6
CONTINUOUS
 10
12.5948661273
 20
7.5253151833
 11
12.5977778393
 21
7.5715943477
  0
LINE
  5
30D
100
AcDbEntity
  8
0
100
AcDbLine
 62
4
  6
CONTINUOUS
 10
12.7155866341
 20
8.9329511583
 11
12.7255696473
 21
9.0792035321
  0
LINE
  5
30E
100
AcDbEntity
  8
0
100
AcDbLine
 62
4
  6
CONTINUOUS
 10
12.8420380965
 20
9.695916753
 11
12.8409288771
 21
9.6824262773
  0
LINE
  5
30F
100
AcDbEntity
  8
0
100
AcDbLine
 62
4
  6
CONTINUOUS
 10
12.5977778393
 20
7.5715943477
 11
12.6036012633
 21
7.6061971247
  0
LINE
  5
310
100
AcDbEntity
  8
0
100
AcDbLine
 62
4
  6
CONTINUOUS
 10
12.623983247
 20
7.4954846084
 11
12.6210715351
 21
7.4781832212
  0
LINE
  5
311
100
AcDbEntity
  8
0
100
AcDbLine
 62
4
  6
CONTINUOUS
 10
12.7155866275
 20
8.6622159161
 11
12.722241966
 21
8.6934825735
  0
LINE
  5
312
100
AcDbEntity
  8
0
100
AcDbLine
 62
4
  6
CONTINUOUS
 10
12.754409439
 20
8.6997158746
 11
12.7610647775
 21
8.7309825319
  0
LINE
  5
313
100
AcDbEntity
  8
0
100
AcDbLine
 62
4
  6
CONTINUOUS
 10
12.7777031347
 20
8.5980253822
 11
12.7710477963
 21
8.5667587223
  0
LINE
  5
314
100
AcDbEntity
  8
0
100
AcDbLine
 62
4
  6
CONTINUOUS
 10
12.8143075074
 20
8.6333824932
 11
12.807652169
 21
8.6021158333
  0
LINE
  5
315
100
AcDbEntity
  8
0
100
AcDbLine
 62
4
  6
CONTINUOUS
 10
13.2060020378
 20
9.8204864235
 11
13.2118254618
 21
9.8406003048
  0
LINE
  5
316
100
AcDbEntity
  8
0
100
AcDbLine
 62
4
  6
CONTINUOUS
 10
13.2234723096
 20
9.7794058491
 11
13.2118254618
 21
9.7391780813
  0
LINE
  5
317
100
AcDbEntity
  8
0
100
AcDbLine
 62
4
  6
CONTINUOUS
 10
12.6036012633
 20
7.6061971247
 11
12.6094246872
 21
7.626311006
  0
LINE
  5
318
100
AcDbEntity
  8
0
100
AcDbLine
 62
4
  6
CONTINUOUS
 10
12.6210715351
 20
7.4781832212
 11
12.6152481111
 21
7.458069336
  0
LINE
  5
319
100
AcDbEntity
  8
0
100
AcDbLine
 62
4
  6
CONTINUOUS
 10
12.8841885947
 20
8.7505586341
 11
12.8664410181
 21
8.7002983297
  0
LINE
  5
31A
100
AcDbEntity
  8
0
100
AcDbLine
 62
4
  6
CONTINUOUS
 10
12.6094246872
 20
7.626311006
 11
12.6152481111
 21
7.6319360019
  0
LINE
  5
31B
100
AcDbEntity
  8
0
100
AcDbLine
 62
4
  6
CONTINUOUS
 10
12.6123363992
 20
7.542190171
 11
12.623983247
 21
7.5534401628
  0
LINE
  5
31C
100
AcDbEntity
  8
0
100
AcDbLine
 62
4
  6
CONTINUOUS
 10
12.6152481111
 20
7.458069336
 11
12.6094246872
 21
7.4524443401
  0
LINE
  5
31D
100
AcDbEntity
  8
0
100
AcDbLine
 62
7
  6
CONTINUOUS
 10
12.5042795301
 20
7.3798596879
 11
12.504964523
 21
7.3805091066
  0
LINE
  5
31E
100
AcDbEntity
  8
0
100
AcDbLine
 62
4
  6
CONTINUOUS
 10
12.6878560256
 20
9.373121634
 11
12.6812006871
 21
9.3791121184
  0
LINE
  5
31F
100
AcDbEntity
  8
0
100
AcDbLine
 62
4
  6
CONTINUOUS
 10
12.7510817744
 20
9.4341930213
 11
12.7444264359
 21
9.4401835057
  0
LINE
  5
320
100
AcDbEntity
  8
0
100
AcDbLine
 62
4
  6
CONTINUOUS
 10
12.1636092451
 20
9.8616418181
 11
12.1577858211
 21
9.8705057114
  0
LINE
  5
321
100
AcDbEntity
  8
0
100
AcDbLine
 62
4
  6
CONTINUOUS
 10
12.169432669
 20
9.9686890323
 11
12.175256093
 21
9.9598251429
  0
LINE
  5
322
100
AcDbEntity
  8
0
100
AcDbLine
 62
4
  6
CONTINUOUS
 10
12.169432669
 20
10.0411334799
 11
12.175256093
 21
10.0322695905
  0
LINE
  5
323
100
AcDbEntity
  8
0
100
AcDbLine
 62
4
  6
CONTINUOUS
 10
12.4959603404
 20
9.2374408172
 11
12.4726666447
 21
9.2894551197
  0
LINE
  5
324
100
AcDbEntity
  8
0
100
AcDbLine
 62
4
  6
CONTINUOUS
 10
12.5092710229
 20
9.2254598537
 11
12.5159263642
 21
9.2070503239
  0
LINE
  5
325
100
AcDbEntity
  8
0
100
AcDbLine
 62
4
  6
CONTINUOUS
 10
12.7610647775
 20
8.557115866
 11
12.754409439
 21
8.5755253985
  0
LINE
  5
326
100
AcDbEntity
  8
0
100
AcDbLine
 62
4
  6
CONTINUOUS
 10
12.4926326698
 20
9.3584170075
 11
12.4959603404
 21
9.3492122387
  0
LINE
  5
327
100
AcDbEntity
  8
0
100
AcDbLine
 62
4
  6
CONTINUOUS
 10
12.7710477963
 20
8.7406253882
 11
12.7777031347
 21
8.7222158582
  0
LINE
  5
328
100
AcDbEntity
  8
0
100
AcDbLine
 62
4
  6
CONTINUOUS
 10
12.7022759516
 20
9.0318654548
 11
12.6956206131
 21
9.0502749847
  0
LINE
  5
329
100
AcDbEntity
  8
0
100
AcDbLine
 62
4
  6
CONTINUOUS
 10
12.807652169
 20
8.7759824992
 11
12.8143075074
 21
8.7575729693
  0
LINE
  5
32A
100
AcDbEntity
  8
0
100
AcDbLine
 62
4
  6
CONTINUOUS
 10
12.635722515
 20
9.4469550053
 11
12.6390501842
 21
9.4377502352
  0
LINE
  5
32B
100
AcDbEntity
  8
0
100
AcDbLine
 62
4
  6
CONTINUOUS
 10
12.7277880787
 20
9.5358835162
 11
12.7300065174
 21
9.5256073116
  0
LINE
  5
32C
100
AcDbEntity
  8
0
100
AcDbLine
 62
4
  6
CONTINUOUS
 10
12.5458754012
 20
9.4098455398
 11
12.5691690969
 21
9.2584788576
  0
LINE
  5
32D
100
AcDbEntity
  8
0
100
AcDbLine
 62
4
  6
CONTINUOUS
 10
12.7643924514
 20
9.5464025336
 11
12.7610647932
 21
9.5680263562
  0
LINE
  5
32E
100
AcDbEntity
  8
0
100
AcDbLine
 62
4
  6
CONTINUOUS
 10
13.2060020378
 20
9.7045753095
 11
13.2030903258
 21
9.658296145
  0
LINE
  5
32F
100
AcDbEntity
  8
0
100
AcDbLine
 62
4
  6
CONTINUOUS
 10
13.2030903258
 20
9.8031850299
 11
13.2060020378
 21
9.8204864235
  0
LINE
  5
330
100
AcDbEntity
  8
0
100
AcDbLine
 62
4
  6
CONTINUOUS
 10
13.2118254618
 20
9.7391780813
 11
13.2060020378
 21
9.7045753095
  0
LINE
  5
331
100
AcDbEntity
  8
0
100
AcDbLine
 62
4
  6
CONTINUOUS
 10
13.2263840216
 20
9.7967072428
 11
13.2234723096
 21
9.7794058491
  0
LINE
  5
332
100
AcDbEntity
  8
0
100
AcDbLine
 62
7
  6
CONTINUOUS
 10
8.7353106906
 20
10.7118186828
 11
12.1160512829
 21
10.4773635264
  0
LINE
  5
333
100
AcDbEntity
  8
0
100
AcDbLine
 62
4
  6
CONTINUOUS
 10
12.7777031283
 20
9.4723263242
 11
12.7810308086
 21
9.4631215686
  0
LINE
  5
334
100
AcDbEntity
  8
0
100
AcDbLine
 62
4
  6
CONTINUOUS
 10
12.8143075232
 20
9.4952644085
 11
12.8109798429
 21
9.5044691641
  0
LINE
  5
335
100
AcDbEntity
  8
0
100
AcDbLine
 62
4
  6
CONTINUOUS
 10
12.8620041119
 20
9.5413357781
 11
12.8586764538
 21
9.5505405551
  0
LINE
  5
336
100
AcDbEntity
  8
0
100
AcDbLine
 62
4
  6
CONTINUOUS
 10
12.8886255102
 20
9.5794691239
 11
12.8919531684
 21
9.5702643469
  0
LINE
  5
337
100
AcDbEntity
  8
0
100
AcDbLine
 62
4
  6
CONTINUOUS
 10
13.2263840216
 20
9.8256850135
 11
13.2263840216
 21
9.7967072428
  0
LINE
  5
338
100
AcDbEntity
  8
0
100
AcDbLine
 62
7
  6
CONTINUOUS
 10
13.2646893094
 20
6.3950111031
 11
13.2646893094
 21
11.586862727
  0
LINE
  5
339
100
AcDbEntity
  8
0
100
AcDbLine
 62
4
  6
CONTINUOUS
 10
12.8919531684
 20
9.6364992685
 11
12.8886255102
 21
9.641564362
  0
LINE
  5
33A
100
AcDbEntity
  8
0
100
AcDbLine
 62
4
  6
CONTINUOUS
 10
12.9085915034
 20
9.6360119379
 11
12.9052638453
 21
9.6410770314
  0
LINE
  5
33B
100
AcDbEntity
  8
0
100
AcDbLine
 62
4
  6
CONTINUOUS
 10
12.9052638453
 20
9.7073119529
 11
12.9085915034
 21
9.6981071721
  0
LINE
  5
33C
100
AcDbEntity
  8
0
100
AcDbLine
 62
4
  6
CONTINUOUS
 10
13.2176488857
 20
9.8462253007
 11
13.2234723096
 21
9.8373614113
  0
LINE
  5
33D
100
AcDbEntity
  8
0
100
AcDbLine
 62
4
  6
CONTINUOUS
 10
13.2234723096
 20
9.8373614113
 11
13.2263840216
 21
9.8256850135
  0
LINE
  5
33E
100
AcDbEntity
  8
0
100
AcDbLine
 62
4
  6
CONTINUOUS
 10
10.8903134229
 20
5.5751816615
 11
11.6708295057
 21
5.8125219153
  0
LINE
  5
33F
100
AcDbEntity
  8
0
100
AcDbLine
 62
7
  6
CONTINUOUS
 10
12.1160512829
 20
5.2855119024
 11
13.2646893094
 21
6.3950111031
  0
LINE
  5
340
100
AcDbEntity
  8
0
100
AcDbLine
 62
7
  6
CONTINUOUS
 10
13.2646893094
 20
11.586862727
 11
9.8839487171
 21
11.8213178834
  0
LINE
  5
341
100
AcDbEntity
  8
0
100
AcDbLine
 62
7
  6
CONTINUOUS
 10
11.8474098916
 20
5.2801733182
 11
11.8160271412
 21
5.2646708404
  0
ARC
  5
342
100
AcDbEntity
  8
0
100
AcDbCircle
 62
7
  6
CONTINUOUS
 10
11.2789594764
 20
7.6815709037
 40
2.4759824616
100
AcDbArc
 50
273.460253038
 51
274.4740090323
  0
ARC
  5
343
100
AcDbEntity
  8
0
100
AcDbCircle
 62
7
  6
CONTINUOUS
 10
11.0368161148
 20
6.3063736708
 40
1.0819211298
100
AcDbArc
 50
254.6141230724
 51
256.3642747627
  0
ARC
  5
344
100
AcDbEntity
  8
0
100
AcDbCircle
 62
7
  6
CONTINUOUS
 10
11.4116756788
 20
6.1587152788
 40
0.9806625028
100
AcDbArc
 50
296.3557842195
 51
299.0137226122
  0
ARC
  5
345
100
AcDbEntity
  8
0
100
AcDbCircle
 62
7
  6
CONTINUOUS
 10
11.4691783092
 20
6.0440863955
 40
0.8524210625
100
AcDbArc
 50
293.9860710649
 51
296.3129872661
  0
ARC
  5
346
100
AcDbEntity
  8
0
100
AcDbCircle
 62
7
  6
CONTINUOUS
 10
10.3897472757
 20
10.0446653733
 40
0.4283551478
100
AcDbArc
 50
134.419000331
 51
135.5465391715
  0
ARC
  5
347
100
AcDbEntity
  8
0
100
AcDbCircle
 62
7
  6
CONTINUOUS
 10
10.4781881475
 20
9.9531046097
 40
0.4283453733
100
AcDbArc
 50
312.4672294925
 51
313.3840328633
  0
ARC
  5
348
100
AcDbEntity
  8
0
100
AcDbCircle
 62
7
  6
CONTINUOUS
 10
10.4133685462
 20
10.0042001649
 40
0.2938788013
100
AcDbArc
 50
85.9815208982
 51
98.6608087097
  0
ARC
  5
349
100
AcDbEntity
  8
0
100
AcDbCircle
 62
7
  6
CONTINUOUS
 10
10.7439103046
 20
5.3612010998
 40
0.0981089067
100
AcDbArc
 50
254.8737411392
 51
256.015771027
  0
SPLINE
  5
34A
100
AcDbEntity
  8
0
100
AcDbSpline
 62
7
  6
CONTINUOUS
 70
0
 71
3
 72
21
 73
17
 74
0
 42
0.0000001
 43
0.0000001
 44
0.0000000001
 40
0.0
 40
0.0
 40
0.0
 40
0.0
 40
0.0458291229
 40
0.0933847509
 40
0.1943718119
 40
0.2481547481
 40
0.3042814814
 40
0.3628407946
 40
0.4238856824
 40
0.4874467536
 40
0.5535199349
 40
0.6220823525
 40
0.69308544
 40
0.7664643857
 40
0.8421397245
 40
1.0
 40
1.0
 40
1.0
 40
1.0
 10
10.6994987852
 20
5.2736409346
 30
0.0
 10
10.697346417
 20
5.274702647
 30
0.0
 10
10.6930288782
 20
5.2770075097
 30
0.0
 10
10.6843531377
 20
5.2823403473
 30
0.0
 10
10.6758297141
 20
5.2886763996
 30
0.0
 10
10.6674769916
 20
5.2959056349
 30
0.0
 10
10.6610800304
 20
5.3019861695
 30
0.0
 10
10.6546867437
 20
5.3086089192
 30
0.0
 10
10.6482984934
 20
5.3157671743
 30
0.0
 10
10.6419195752
 20
5.3234520974
 30
0.0
 10
10.6355514309
 20
5.3316501649
 30
0.0
 10
10.6291975775
 20
5.3403466094
 30
0.0
 10
10.6228595704
 20
5.3495232983
 30
0.0
 10
10.616539607
 20
5.3591609475
 30
0.0
 10
10.6080192342
 20
5.3727902949
 30
0.0
 10
10.6018452127
 20
5.3833512894
 30
0.0
 10
10.5977839354
 20
5.3905517544
 30
0.0
  0
SPLINE
  5
34B
100
AcDbEntity
  8
0
100
AcDbSpline
 62
7
  6
CONTINUOUS
 70
0
 71
3
 72
46
 73
42
 74
0
 42
0.0000001
 43
0.0000001
 44
0.0000000001
 40
0.0
 40
0.0
 40
0.0
 40
0.0
 40
0.009987442
 40
0.0204476137
 40
0.0313771087
 40
0.042770719
 40
0.0546216827
 40
0.0669224299
 40
0.0796639586
 40
0.092836054
 40
0.1204269473
 40
0.1495982457
 40
0.1802404493
 40
0.2122336402
 40
0.2454488195
 40
0.2797495924
 40
0.3149928343
 40
0.3510297406
 40
0.3877071311
 40
0.4248680709
 40
0.4623528245
 40
0.4999999707
 40
0.5376471181
 40
0.5751319032
 40
0.6122928703
 40
0.6489702712
 40
0.6850072643
 40
0.7202505753
 40
0.7545513746
 40
0.7877666801
 40
0.8197599616
 40
0.8504022183
 40
0.879573693
 40
0.9071646914
 40
0.9330772419
 40
0.9453781444
 40
0.9572291907
 40
0.9686227884
 40
0.9795523871
 40
0.9900125566
 40
1.0
 40
1.0
 40
1.0
 40
1.0
 10
11.8160324777
 20
5.2646735397
 30
0.0
 10
11.8126917148
 20
5.2630232377
 30
0.0
 10
11.805795012
 20
5.2597590727
 30
0.0
 10
11.7950682773
 20
5.2550677374
 30
0.0
 10
11.7837315802
 20
5.2504732984
 30
0.0
 10
11.7717981033
 20
5.2459810856
 30
0.0
 10
11.7592815577
 20
5.2415959946
 30
0.0
 10
11.7461962024
 20
5.2373234155
 30
0.0
 10
11.7325570783
 20
5.2331681474
 30
0.0
 10
11.7133563088
 20
5.2277058913
 30
0.0
 10
11.6880755902
 20
5.2212316921
 30
0.0
 10
11.6562475099
 20
5.2141171431
 30
0.0
 10
11.6226222657
 20
5.2075756745
 30
0.0
 10
11.5873548622
 20
5.2016378822
 30
0.0
 10
11.5506076548
 20
5.1963313918
 30
0.0
 10
11.5125500805
 20
5.1916811931
 30
0.0
 10
11.4733577058
 20
5.1877091177
 30
0.0
 10
11.4332114666
 20
5.1844335158
 30
0.0
 10
11.3922967222
 20
5.1818698201
 30
0.0
 10
11.3508024224
 20
5.1800301009
 30
0.0
 10
11.3089202543
 20
5.1789227314
 30
0.0
 10
11.2668437044
 20
5.1785529885
 30
0.0
 10
11.2247671432
 20
5.1789227125
 30
0.0
 10
11.1828849495
 20
5.1800299631
 30
0.0
 10
11.1413906221
 20
5.1818696566
 30
0.0
 10
11.1004758312
 20
5.1844333424
 30
0.0
 10
11.0603295203
 20
5.1877088277
 30
0.0
 10
11.0211370738
 20
5.1916808718
 30
0.0
 10
10.9830794153
 20
5.1963310753
 30
0.0
 10
10.9463321071
 20
5.2016374505
 30
0.0
 10
10.9110645682
 20
5.2075752013
 30
0.0
 10
10.8774393003
 20
5.2141167193
 30
0.0
 10
10.8456107484
 20
5.221231072
 30
0.0
 10
10.8157254234
 20
5.2288849588
 30
0.0
 10
10.792161612
 20
5.2357977926
 30
0.0
 10
10.7744046514
 20
5.2415953132
 30
0.0
 10
10.7618880016
 20
5.2459804395
 30
0.0
 10
10.7499544915
 20
5.2504727271
 30
0.0
 10
10.7386176972
 20
5.2550670159
 30
0.0
 10
10.7278908924
 20
5.2597582901
 30
0.0
 10
10.7209942057
 20
5.263022489
 30
0.0
 10
10.7176534428
 20
5.2646727922
 30
0.0
  0
SPLINE
  5
34C
100
AcDbEntity
  8
0
100
AcDbSpline
 62
7
  6
CONTINUOUS
 70
0
 71
3
 72
11
 73
7
 74
0
 42
0.0000001
 43
0.0000001
 44
0.0000000001
 40
0.0
 40
0.0
 40
0.0
 40
0.0
 40
0.2464179584
 40
0.4942839735
 40
0.7449565552
 40
1.0
 40
1.0
 40
1.0
 40
1.0
 10
10.7497624607
 20
5.2632276931
 30
0.0
 10
10.747318507
 20
5.2631022283
 30
0.0
 10
10.7424060381
 20
5.2630142395
 30
0.0
 10
10.7350119651
 20
5.263408014
 30
0.0
 10
10.7275823914
 20
5.2643633452
 30
0.0
 10
10.7226595826
 20
5.2653878567
 30
0.0
 10
10.7202018158
 20
5.2659999174
 30
0.0
  0
SPLINE
  5
34D
100
AcDbEntity
  8
0
100
AcDbSpline
 62
7
  6
CONTINUOUS
 70
0
 71
3
 72
9
 73
5
 74
0
 42
0.0000001
 43
0.0000001
 44
0.0000000001
 40
0.0
 40
0.0
 40
0.0
 40
0.0
 40
0.4896161665
 40
1.0
 40
1.0
 40
1.0
 40
1.0
 10
10.7183090836
 20
5.2664913587
 30
0.0
 10
10.7151348779
 20
5.2673493405
 30
0.0
 10
10.7087362384
 20
5.2694287243
 30
0.0
 10
10.7025727345
 20
5.272124628
 30
0.0
 10
10.6994987852
 20
5.2736409346
 30
0.0
  0
SPLINE
  5
34E
100
AcDbEntity
  8
0
100
AcDbSpline
 62
7
  6
CONTINUOUS
 70
0
 71
3
 72
21
 73
17
 74
0
 42
0.0000001
 43
0.0000001
 44
0.0000000001
 40
0.0
 40
0.0
 40
0.0
 40
0.0
 40
0.066508053
 40
0.1323638847
 40
0.1975675177
 40
0.2621277743
 40
0.3260642674
 40
0.3894049724
 40
0.4521874815
 40
0.5144551981
 40
0.5762571041
 40
0.6376446408
 40
0.698669726
 40
0.7593834445
 40
0.8800506697
 40
1.0
 40
1.0
 40
1.0
 40
1.0
 10
11.8156998678
 20
5.2652767414
 30
0.0
 10
11.8085687253
 20
5.2621087879
 30
0.0
 10
11.7942831736
 20
5.2560109432
 30
0.0
 10
11.7726867069
 20
5.247580282
 30
0.0
 10
11.7510399632
 20
5.2399393407
 30
0.0
 10
11.7293578963
 20
5.2331146524
 30
0.0
 10
11.7076579714
 20
5.2271209989
 30
0.0
 10
11.685957035
 20
5.2219694721
 30
0.0
 10
11.6642733366
 20
5.2176576502
 30
0.0
 10
11.6426234512
 20
5.2141785913
 30
0.0
 10
11.621023392
 20
5.2115138818
 30
0.0
 10
11.5994870361
 20
5.2096399542
 30
0.0
 10
11.5780260287
 20
5.2085261928
 30
0.0
 10
11.5495855655
 20
5.2080087096
 30
0.0
 10
11.514223839
 20
5.2090708891
 30
0.0
 10
11.4860864883
 20
5.2115457377
 30
0.0
 10
11.4721030889
 20
5.2131332004
 30
0.0
  0
SPLINE
  5
34F
100
AcDbEntity
  8
0
100
AcDbSpline
 62
7
  6
CONTINUOUS
 70
0
 71
3
 72
21
 73
17
 74
0
 42
0.0000001
 43
0.0000001
 44
0.0000000001
 40
0.0
 40
0.0
 40
0.0
 40
0.0
 40
0.1229782982
 40
0.1846437121
 40
0.2464406137
 40
0.308381136
 40
0.3704758731
 40
0.4327332085
 40
0.4951582589
 40
0.5577520389
 40
0.6205114325
 40
0.6834297978
 40
0.7464974582
 40
0.8097023547
 40
0.8730312648
 40
1.0
 40
1.0
 40
1.0
 40
1.0
 10
11.4284001301
 20
5.2101023846
 30
0.0
 10
11.4020145559
 20
5.2047401965
 30
0.0
 10
11.3621837327
 20
5.1976730577
 30
0.0
 10
11.3086820815
 20
5.1906342597
 30
0.0
 10
11.2682785319
 20
5.1866434551
 30
0.0
 10
11.2276666093
 20
5.1840489232
 30
0.0
 10
11.1868851791
 20
5.1829391928
 30
0.0
 10
11.1459843773
 20
5.1833826805
 30
0.0
 10
11.1050223183
 20
5.185421724
 30
0.0
 10
11.06406171
 20
5.1890683442
 30
0.0
 10
11.0231650142
 20
5.19430145
 30
0.0
 10
10.9823898679
 20
5.2010703724
 30
0.0
 10
10.9417857589
 20
5.2092996366
 30
0.0
 10
10.9013909548
 20
5.2188952559
 30
0.0
 10
10.8478059771
 20
5.2333807539
 30
0.0
 10
10.8080587378
 20
5.2459535486
 30
0.0
 10
10.7817552561
 20
5.2549473589
 30
0.0
  0
SPLINE
  5
350
100
AcDbEntity
  8
0
100
AcDbSpline
 62
7
  6
CONTINUOUS
 70
0
 71
3
 72
34
 73
30
 74
0
 42
0.0000001
 43
0.0000001
 44
0.0000000001
 40
0.0
 40
0.0
 40
0.0
 40
0.0
 40
0.084501673
 40
0.1673002759
 40
0.2480787414
 40
0.3265288535
 40
0.4023559636
 40
0.4391984045
 40
0.4752814239
 40
0.5105727153
 40
0.5450411518
 40
0.5786570052
 40
0.6113918477
 40
0.6432188222
 40
0.6741126933
 40
0.7040498985
 40
0.7330088893
 40
0.7609700757
 40
0.7879161735
 40
0.8138324243
 40
0.8387067279
 40
0.8625302071
 40
0.8852973789
 40
0.9070067457
 40
0.9276614399
 40
0.9472697611
 40
0.9658463146
 40
0.9834129211
 40
1.0
 40
1.0
 40
1.0
 40
1.0
 10
10.5954661341
 20
10.7585909731
 30
0.0
 10
10.5779947988
 20
10.7598026143
 30
0.0
 10
10.5434246202
 20
10.762508119
 30
0.0
 10
10.4922463049
 20
10.767469145
 30
0.0
 10
10.4424190637
 20
10.7732758333
 30
0.0
 10
10.3941523202
 20
10.7799036027
 30
0.0
 10
10.3550331642
 20
10.7861456395
 30
0.0
 10
10.3246791291
 20
10.7915431143
 30
0.0
 10
10.3026462243
 20
10.7957393671
 30
0.0
 10
10.2811507286
 20
10.8001180449
 30
0.0
 10
10.2602151927
 20
10.8046745956
 30
0.0
 10
10.239861598
 20
10.809404156
 30
0.0
 10
10.2201113078
 20
10.8143017796
 30
0.0
 10
10.2009850407
 20
10.8193622827
 30
0.0
 10
10.18250285
 20
10.8245803094
 30
0.0
 10
10.1646841114
 20
10.829950403
 30
0.0
 10
10.1475474753
 20
10.8354668487
 30
0.0
 10
10.1311108749
 20
10.8411238712
 30
0.0
 10
10.1153914852
 20
10.8469155147
 30
0.0
 10
10.1004056974
 20
10.8528356562
 30
0.0
 10
10.0861691323
 20
10.8588781473
 30
0.0
 10
10.072696562
 20
10.8650366123
 30
0.0
 10
10.0600019439
 20
10.8713046686
 30
0.0
 10
10.0480983871
 20
10.8776758468
 30
0.0
 10
10.0369980824
 20
10.88414357
 30
0.0
 10
10.0267124443
 20
10.8907013293
 30
0.0
 10
10.0172517743
 20
10.8973426694
 30
0.0
 10
10.008626106
 20
10.9040607454
 30
0.0
 10
10.003288313
 20
10.908717231
 30
0.0
 10
10.0007717152
 20
10.9110591888
 30
0.0
  0
SPLINE
  5
351
100
AcDbEntity
  8
0
100
AcDbSpline
 62
7
  6
CONTINUOUS
 70
0
 71
3
 72
39
 73
35
 74
0
 42
0.0000001
 43
0.0000001
 44
0.0000000001
 40
0.0
 40
0.0
 40
0.0
 40
0.0
 40
0.0311450496
 40
0.0624431124
 40
0.0938883501
 40
0.1254709987
 40
0.1571788953
 40
0.1889972749
 40
0.2209091922
 40
0.2528958629
 40
0.2849370446
 40
0.3170114373
 40
0.3490970993
 40
0.3811718714
 40
0.4132138048
 40
0.4452015851
 40
0.4771149473
 40
0.508935079
 40
0.5406450006
 40
0.572229919
 40
0.6036775474
 40
0.6349783854
 40
0.6661259539
 40
0.697116972
 40
0.7279514727
 40
0.758632853
 40
0.7891678509
 40
0.8195664476
 40
0.8498416867
 40
0.8800094173
 40
0.9100879625
 40
0.9400977185
 40
0.9700606941
 40
1.0
 40
1.0
 40
1.0
 40
1.0
 10
10.4256809867
 20
7.334639544
 30
0.0
 10
10.4374756953
 20
7.3338215782
 30
0.0
 10
10.4610719644
 20
7.3313183054
 30
0.0
 10
10.4961802948
 20
7.3250124593
 30
0.0
 10
10.5309125781
 20
7.3161799009
 30
0.0
 10
10.5650812497
 20
7.304868082
 30
0.0
 10
10.5985047649
 20
7.2911376392
 30
0.0
 10
10.6310048282
 20
7.2750620003
 30
0.0
 10
10.6624083162
 20
7.2567270982
 30
0.0
 10
10.6925478959
 20
7.2362308336
 30
0.0
 10
10.7212629839
 20
7.213682571
 30
0.0
 10
10.7484005601
 20
7.1892025526
 30
0.0
 10
10.7738160044
 20
7.1629212944
 30
0.0
 10
10.7973738666
 20
7.1349788943
 30
0.0
 10
10.8189485499
 20
7.1055242614
 30
0.0
 10
10.8384249801
 20
7.0747143418
 30
0.0
 10
10.8556992022
 20
7.0427132877
 30
0.0
 10
10.8706789803
 20
7.0096916213
 30
0.0
 10
10.8832842661
 20
6.9758253167
 30
0.0
 10
10.8934476023
 20
6.9412948669
 30
0.0
 10
10.9011144902
 20
6.9062843403
 30
0.0
 10
10.9062436797
 20
6.8709804159
 30
0.0
 10
10.9088074595
 20
6.8355714088
 30
0.0
 10
10.9087917642
 20
6.8002462635
 30
0.0
 10
10.9061962604
 20
6.7651935616
 30
0.0
 10
10.901034365
 20
6.7306005264
 30
0.0
 10
10.8933332095
 20
6.69665203
 30
0.0
 10
10.88313356
 20
6.6635295855
 30
0.0
 10
10.8704895773
 20
6.6314103956
 30
0.0
 10
10.8554684977
 20
6.6004663356
 30
0.0
 10
10.8381505157
 20
6.5708632435
 30
0.0
 10
10.8186275421
 20
6.5427591723
 30
0.0
 10
10.797005926
 20
6.516306556
 30
0.0
 10
10.7812625201
 20
6.4998600298
 30
0.0
 10
10.7730879461
 20
6.4919640244
 30
0.0
  0
SPLINE
  5
352
100
AcDbEntity
  8
0
100
AcDbSpline
 62
7
  6
CONTINUOUS
 70
0
 71
3
 72
39
 73
35
 74
0
 42
0.0000001
 43
0.0000001
 44
0.0000000001
 40
0.0
 40
0.0
 40
0.0
 40
0.0
 40
0.0311450496
 40
0.0624431124
 40
0.0938883501
 40
0.1254709987
 40
0.1571788953
 40
0.1889972749
 40
0.2209091922
 40
0.2528958629
 40
0.2849370446
 40
0.3170114373
 40
0.3490970993
 40
0.3811718714
 40
0.4132138048
 40
0.4452015851
 40
0.4771149473
 40
0.508935079
 40
0.5406450006
 40
0.572229919
 40
0.6036775474
 40
0.6349783854
 40
0.6661259539
 40
0.697116972
 40
0.7279514727
 40
0.758632853
 40
0.7891678509
 40
0.8195664476
 40
0.8498416867
 40
0.8800094173
 40
0.9100879625
 40
0.9400977185
 40
0.9700606941
 40
1.0
 40
1.0
 40
1.0
 40
1.0
 10
10.4256809867
 20
10.4661229621
 30
0.0
 10
10.4372858195
 20
10.4653181642
 30
0.0
 10
10.4605022266
 20
10.46285519
 30
0.0
 10
10.4950453694
 20
10.4566508579
 30
0.0
 10
10.5292185188
 20
10.4479604895
 30
0.0
 10
10.5628371298
 20
10.4368307727
 30
0.0
 10
10.5957225803
 20
10.4233213679
 30
0.0
 10
10.6276994449
 20
10.4075045209
 30
0.0
 10
10.6585973872
 20
10.3894647813
 30
0.0
 10
10.6882517683
 20
10.3692984735
 30
0.0
 10
10.7165045896
 20
10.3471132016
 30
0.0
 10
10.7432052945
 20
10.3230272722
 30
0.0
 10
10.768211591
 20
10.2971690999
 30
0.0
 10
10.7913902096
 20
10.2696765274
 30
0.0
 10
10.8126175752
 20
10.2406960667
 30
0.0
 10
10.8317804662
 20
10.2103821372
 30
0.0
 10
10.8487766012
 20
10.1788962485
 30
0.0
 10
10.863515229
 20
10.1464061778
 30
0.0
 10
10.87591759
 20
10.1130850662
 30
0.0
 10
10.8859173128
 20
10.079110501
 30
0.0
 10
10.8934607762
 20
10.0446635876
 30
0.0
 10
10.898507394
 20
10.0099279995
 30
0.0
 10
10.9010299011
 20
9.9750890204
 30
0.0
 10
10.9010144585
 20
9.9403325531
 30
0.0
 10
10.898460738
 20
9.9058441433
 30
0.0
 10
10.8933819408
 20
9.8718080003
 30
0.0
 10
10.8858047616
 20
9.83840602
 30
0.0
 10
10.87576931
 20
9.8058167935
 30
0.0
 10
10.8633288751
 20
9.7742146709
 30
0.0
 10
10.8485496107
 20
9.7437687605
 30
0.0
 10
10.8315104203
 20
9.7146422304
 30
0.0
 10
10.8123017352
 20
9.6869905896
 30
0.0
 10
10.7910281922
 20
9.6609638178
 30
0.0
 10
10.7755382298
 20
9.6447820542
 30
0.0
 10
10.7674952534
 20
9.6370131617
 30
0.0
  0
SPLINE
  5
353
100
AcDbEntity
  8
0
100
AcDbSpline
 62
7
  6
CONTINUOUS
 70
0
 71
3
 72
15
 73
11
 74
0
 42
0.0000001
 43
0.0000001
 44
0.0000000001
 40
0.0
 40
0.0
 40
0.0
 40
0.0
 40
0.124660469
 40
0.2494019642
 40
0.3742261367
 40
0.4991551609
 40
0.6241948118
 40
0.7493490697
 40
0.8746186288
 40
1.0
 40
1.0
 40
1.0
 40
1.0
 10
10.6115129077
 20
9.9366332261
 30
0.0
 10
10.6155261271
 20
9.9363549083
 30
0.0
 10
10.6235724701
 20
9.936021626
 30
0.0
 10
10.6356536271
 20
9.936192793
 30
0.0
 10
10.6477157562
 20
9.9370332701
 30
0.0
 10
10.6597226367
 20
9.9385383167
 30
0.0
 10
10.6716394221
 20
9.9407009221
 30
0.0
 10
10.6834315361
 20
9.9435114608
 30
0.0
 10
10.6950647517
 20
9.9469579565
 30
0.0
 10
10.7026900969
 20
9.9496697378
 30
0.0
 10
10.7064649293
 20
9.9511263595
 30
0.0
  0
SPLINE
  5
354
100
AcDbEntity
  8
0
100
AcDbSpline
 62
7
  6
CONTINUOUS
 70
0
 71
3
 72
15
 73
11
 74
0
 42
0.0000001
 43
0.0000001
 44
0.0000000001
 40
0.0
 40
0.0
 40
0.0
 40
0.0
 40
0.1273482888
 40
0.2538606703
 40
0.3795878487
 40
0.5046051206
 40
0.6290174369
 40
0.7529533749
 40
0.8765605786
 40
1.0
 40
1.0
 40
1.0
 40
1.0
 10
11.7147115614
 20
6.2413748532
 30
0.0
 10
11.7147115614
 20
6.2351536567
 30
0.0
 10
11.7141175562
 20
6.2227434988
 30
0.0
 10
11.7114312647
 20
6.2043669555
 30
0.0
 10
11.7069769275
 20
6.1864521432
 30
0.0
 10
11.7007947819
 20
6.1691666111
 30
0.0
 10
11.6929415281
 20
6.152669768
 30
0.0
 10
11.683488808
 20
6.1371139289
 30
0.0
 10
11.672525474
 20
6.1226448554
 30
0.0
 10
11.6642706343
 20
6.1138063228
 30
0.0
 10
11.6599333415
 20
6.109616848
 30
0.0
  0
SPLINE
  5
355
100
AcDbEntity
  8
0
100
AcDbSpline
 62
7
  6
CONTINUOUS
 70
0
 71
3
 72
15
 73
11
 74
0
 42
0.0000001
 43
0.0000001
 44
0.0000000001
 40
0.0
 40
0.0
 40
0.0
 40
0.0
 40
0.1273482888
 40
0.2538606703
 40
0.3795878487
 40
0.5046051206
 40
0.6290174369
 40
0.7529533749
 40
0.8765605786
 40
1.0
 40
1.0
 40
1.0
 40
1.0
 10
9.5413783235
 20
6.3920960251
 30
0.0
 10
9.5413783235
 20
6.3858748286
 30
0.0
 10
9.5407843182
 20
6.3734646708
 30
0.0
 10
9.5380980268
 20
6.3550881274
 30
0.0
 10
9.5336436896
 20
6.3371733151
 30
0.0
 10
9.527461544
 20
6.319887783
 30
0.0
 10
9.5196082902
 20
6.30339094
 30
0.0
 10
9.5101555701
 20
6.2878351008
 30
0.0
 10
9.4991922361
 20
6.2733660274
 30
0.0
 10
9.4909373964
 20
6.2645274948
 30
0.0
 10
9.4866001036
 20
6.26033802
 30
0.0
  0
SPLINE
  5
356
100
AcDbEntity
  8
0
100
AcDbSpline
 62
7
  6
CONTINUOUS
 70
0
 71
3
 72
15
 73
11
 74
0
 42
0.0000001
 43
0.0000001
 44
0.0000000001
 40
0.0
 40
0.0
 40
0.0
 40
0.0
 40
0.1273482888
 40
0.2538606703
 40
0.3795878487
 40
0.5046051206
 40
0.6290174369
 40
0.7529533749
 40
0.8765605786
 40
1.0
 40
1.0
 40
1.0
 40
1.0
 10
9.5413783235
 20
7.4488188666
 30
0.0
 10
9.5413783235
 20
7.4425976701
 30
0.0
 10
9.5407843182
 20
7.4301875123
 30
0.0
 10
9.5380980268
 20
7.4118109689
 30
0.0
 10
9.5336436896
 20
7.3938961566
 30
0.0
 10
9.527461544
 20
7.3766106245
 30
0.0
 10
9.5196082902
 20
7.3601137815
 30
0.0
 10
9.5101555701
 20
7.3445579423
 30
0.0
 10
9.4991922361
 20
7.3300888689
 30
0.0
 10
9.4909373964
 20
7.3212503363
 30
0.0
 10
9.4866001036
 20
7.3170608614
 30
0.0
  0
SPLINE
  5
357
100
AcDbEntity
  8
0
100
AcDbSpline
 62
7
  6
CONTINUOUS
 70
0
 71
3
 72
15
 73
11
 74
0
 42
0.0000001
 43
0.0000001
 44
0.0000000001
 40
0.0
 40
0.0
 40
0.0
 40
0.0
 40
0.1273482888
 40
0.2538606703
 40
0.3795878487
 40
0.5046051206
 40
0.6290174369
 40
0.7529533749
 40
0.8765605786
 40
1.0
 40
1.0
 40
1.0
 40
1.0
 10
11.7147115614
 20
7.2980976947
 30
0.0
 10
11.7147115614
 20
7.2918764982
 30
0.0
 10
11.7141175562
 20
7.2794663403
 30
0.0
 10
11.7114312647
 20
7.261089797
 30
0.0
 10
11.7069769275
 20
7.2431749847
 30
0.0
 10
11.7007947819
 20
7.2258894526
 30
0.0
 10
11.6929415281
 20
7.2093926095
 30
0.0
 10
11.683488808
 20
7.1938367704
 30
0.0
 10
11.672525474
 20
7.1793676969
 30
0.0
 10
11.6642706343
 20
7.1705291643
 30
0.0
 10
11.6599333415
 20
7.1663396895
 30
0.0
  0
SPLINE
  5
358
100
AcDbEntity
  8
0
100
AcDbSpline
 62
7
  6
CONTINUOUS
 70
0
 71
3
 72
13
 73
9
 74
0
 42
0.0000001
 43
0.0000001
 44
0.0000000001
 40
0.0
 40
0.0
 40
0.0
 40
0.0
 40
0.2885265592
 40
0.4206702591
 40
0.5461443449
 40
0.6659195479
 40
0.7809102388
 40
1.0
 40
1.0
 40
1.0
 40
1.0
 10
10.0345538492
 20
10.8858638729
 30
0.0
 10
10.0340919846
 20
10.8869028416
 30
0.0
 10
10.0334846347
 20
10.8884491751
 30
0.0
 10
10.032857394
 20
10.890508702
 30
0.0
 10
10.0324972864
 20
10.891952351
 30
0.0
 10
10.0322266581
 20
10.8933466718
 30
0.0
 10
10.0319819476
 20
10.8951189855
 30
0.0
 10
10.031909234
 20
10.8964369307
 30
0.0
 10
10.031909234
 20
10.8973003023
 30
0.0
  0
SPLINE
  5
359
100
AcDbEntity
  8
0
100
AcDbSpline
 62
7
  6
CONTINUOUS
 70
0
 71
3
 72
47
 73
43
 74
0
 42
0.0000001
 43
0.0000001
 44
0.0000000001
 40
0.0
 40
0.0
 40
0.0
 40
0.0
 40
0.0072739775
 40
0.0148704909
 40
0.0227980012
 40
0.0310632841
 40
0.0396714796
 40
0.0486264556
 40
0.0579307827
 40
0.0675860442
 40
0.0775928013
 40
0.0879508103
 40
0.0986590314
 40
0.109715732
 40
0.1211185671
 40
0.1328645699
 40
0.144950304
 40
0.157371765
 40
0.1832032037
 40
0.210319382
 40
0.2386740836
 40
0.2682158418
 40
0.2988885062
 40
0.3306317225
 40
0.3633813487
 40
0.3970698259
 40
0.4316265144
 40
0.4669780058
 40
0.5030484156
 40
0.5397596636
 40
0.5770317434
 40
0.6147829847
 40
0.6529303118
 40
0.691389497
 40
0.7300754128
 40
0.7689022769
 40
0.8077839132
 40
0.8466339567
 40
0.8853662304
 40
0.9238946264
 40
0.9621342508
 40
1.0
 40
1.0
 40
1.0
 40
1.0
 10
11.6270463464
 20
10.9110588066
 30
0.0
 10
11.6251666678
 20
10.909309575
 30
0.0
 10
11.6212375253
 20
10.9058255366
 30
0.0
 10
11.6149899888
 20
10.9007494665
 30
0.0
 10
11.6082666304
 20
10.8957146512
 30
0.0
 10
11.6010714968
 20
10.8907241889
 30
0.0
 10
11.5934087846
 20
10.8857807726
 30
0.0
 10
11.5852829312
 20
10.8808873693
 30
0.0
 10
11.5766987298
 20
10.8760467176
 30
0.0
 10
11.56766118
 20
10.8712617317
 30
0.0
 10
11.5581756157
 20
10.8665351554
 30
0.0
 10
11.5482476052
 20
10.8618698174
 30
0.0
 10
11.5378830089
 20
10.8572684562
 30
0.0
 10
11.5270879465
 20
10.8527337933
 30
0.0
 10
11.5158687935
 20
10.8482685444
 30
0.0
 10
11.5042322013
 20
10.8438753254
 30
0.0
 10
11.492185037
 20
10.8395567742
 30
0.0
 10
11.4753642502
 20
10.8338268165
 30
0.0
 10
11.4533542854
 20
10.8268856705
 30
0.0
 10
11.4257567435
 20
10.8189985778
 30
0.0
 10
11.3967050072
 20
10.8114677247
 30
0.0
 10
11.3662680417
 20
10.8043111437
 30
0.0
 10
11.3345178939
 20
10.797546
 30
0.0
 10
11.3015298876
 20
10.7911885125
 30
0.0
 10
11.2673823194
 20
10.7852539222
 30
0.0
 10
11.2321562918
 20
10.779756452
 30
0.0
 10
11.1959355026
 20
10.7747092738
 30
0.0
 10
11.158806042
 20
10.770124477
 30
0.0
 10
11.1208561817
 20
10.7660130407
 30
0.0
 10
11.0821761611
 20
10.762384808
 30
0.0
 10
11.0428579696
 20
10.7592484634
 30
0.0
 10
11.002995125
 20
10.756611512
 30
0.0
 10
10.9626824491
 20
10.7544802624
 30
0.0
 10
10.9220158389
 20
10.752859813
 30
0.0
 10
10.8810920387
 20
10.7517540401
 30
0.0
 10
10.8400084045
 20
10.7511655873
 30
0.0
 10
10.7988626838
 20
10.7510958648
 30
0.0
 10
10.7577527437
 20
10.7515450332
 30
0.0
 10
10.7167764463
 20
10.7525120303
 30
0.0
 10
10.6760311385
 20
10.7539945246
 30
0.0
 10
10.6356139814
 20
10.7559889931
 30
0.0
 10
10.6088005612
 20
10.7576662274
 30
0.0
 10
10.5954661341
 20
10.7585909731
 30
0.0
  0
SPLINE
  5
35A
100
AcDbEntity
  8
0
100
AcDbSpline
 62
7
  6
CONTINUOUS
 70
0
 71
3
 72
14
 73
10
 74
0
 42
0.0000001
 43
0.0000001
 44
0.0000000001
 40
0.0
 40
0.0
 40
0.0
 40
0.0
 40
0.1077811533
 40
0.2186292853
 40
0.3334252586
 40
0.4530829675
 40
0.5785373552
 40
0.7107858586
 40
1.0
 40
1.0
 40
1.0
 40
1.0
 10
11.595909234
 20
10.8973003023
 30
0.0
 10
11.595909234
 20
10.8968692199
 30
0.0
 10
11.5958853775
 20
10.895994598
 30
0.0
 10
11.5957749458
 20
10.8946649427
 30
0.0
 10
11.5955837615
 20
10.8932964336
 30
0.0
 10
11.5953060704
 20
10.8918832731
 30
0.0
 10
11.5949364989
 20
10.890419175
 30
0.0
 10
11.594291819
 20
10.8883280963
 30
0.0
 10
11.5936674994
 20
10.8867582874
 30
0.0
 10
11.5931928525
 20
10.8857034105
 30
0.0
  0
SPLINE
  5
35B
100
AcDbEntity
  8
0
100
AcDbSpline
 62
7
  6
CONTINUOUS
 70
0
 71
3
 72
55
 73
51
 74
0
 42
0.0000001
 43
0.0000001
 44
0.0000000001
 40
0.0
 40
0.0
 40
0.0
 40
0.0
 40
0.0075208348
 40
0.0156242142
 40
0.0243311711
 40
0.0336550089
 40
0.0436029388
 40
0.0541769762
 40
0.0653751272
 40
0.0771917851
 40
0.0896184164
 40
0.1026439451
 40
0.1162549389
 40
0.1304361071
 40
0.1451702248
 40
0.1604385562
 40
0.1762208541
 40
0.1924955039
 40
0.22642864
 40
0.2620435089
 40
0.299129289
 40
0.3374624062
 40
0.3768088186
 40
0.4169261772
 40
0.4575659138
 40
0.4984752898
 40
0.5393994327
 40
0.5800833565
 40
0.6202739771
 40
0.6597221367
 40
0.6981846509
 40
0.7354264063
 40
0.7712225103
 40
0.8053605541
 40
0.8217459585
 40
0.8376441629
 40
0.853033271
 40
0.8678927663
 40
0.8822034522
 40
0.8959478537
 40
0.9091101198
 40
0.9216764214
 40
0.9336351149
 40
0.9449769705
 40
0.9556958034
 40
0.9657885996
 40
0.9752563558
 40
0.9841051078
 40
0.9923470228
 40
1.0
 40
1.0
 40
1.0
 40
1.0
 10
12.4675340641
 20
6.8407935619
 30
0.0
 10
12.466652189
 20
6.8418778803
 30
0.0
 10
12.4649146068
 20
6.8442083046
 30
0.0
 10
12.4624693956
 20
6.8480151992
 30
0.0
 10
12.4600940027
 20
6.8522543847
 30
0.0
 10
12.4577921625
 20
6.856918906
 30
0.0
 10
12.4555674259
 20
6.8620015319
 30
0.0
 10
12.4534232882
 20
6.8674940888
 30
0.0
 10
12.4513633049
 20
6.8733877408
 30
0.0
 10
12.4493908311
 20
6.8796728906
 30
0.0
 10
12.4475091485
 20
6.8863392625
 30
0.0
 10
12.4457214264
 20
6.8933759106
 30
0.0
 10
12.4440306025
 20
6.9007712399
 30
0.0
 10
12.4424395733
 20
6.9085130444
 30
0.0
 10
12.4409509522
 20
6.9165885205
 30
0.0
 10
12.4395672764
 20
6.9249842944
 30
0.0
 10
12.4382908345
 20
6.933686467
 30
0.0
 10
12.4367128381
 20
6.9458484745
 30
0.0
 10
12.4350365566
 20
6.9617118939
 30
0.0
 10
12.433507858
 20
6.9814717563
 30
0.0
 10
12.4324458122
 20
7.0020808664
 30
0.0
 10
12.4318577255
 20
7.0234024443
 30
0.0
 10
12.4317477773
 20
7.0452951072
 30
0.0
 10
12.4321168786
 20
7.0676135509
 30
0.0
 10
12.4329627109
 20
7.0902096176
 30
0.0
 10
12.4342797295
 20
7.1129332759
 30
0.0
 10
12.436059213
 20
7.1356336379
 30
0.0
 10
12.4382893242
 20
7.1581599742
 30
0.0
 10
12.4409551885
 20
7.1803627245
 30
0.0
 10
12.4440389898
 20
7.2020945108
 30
0.0
 10
12.4475200917
 20
7.2232111115
 30
0.0
 10
12.4513751402
 20
7.2435725282
 30
0.0
 10
12.4555782958
 20
7.263043655
 30
0.0
 10
12.4593977233
 20
7.2786264337
 30
0.0
 10
12.4626164982
 20
7.2905435373
 30
0.0
 10
12.4650665549
 20
7.2990578848
 30
0.0
 10
12.4675814961
 20
7.3072571555
 30
0.0
 10
12.4701571174
 20
7.3151277783
 30
0.0
 10
12.4727891681
 20
7.3226567123
 30
0.0
 10
12.4754732027
 20
7.3298315188
 30
0.0
 10
12.4782047891
 20
7.3366403459
 30
0.0
 10
12.4809793657
 20
7.3430719794
 30
0.0
 10
12.4837923034
 20
7.3491158597
 30
0.0
 10
12.4866389957
 20
7.3547620877
 30
0.0
 10
12.4895146962
 20
7.3600014952
 30
0.0
 10
12.4924147906
 20
7.3648255779
 30
0.0
 10
12.4953345236
 20
7.3692266293
 30
0.0
 10
12.4982695021
 20
7.3731978182
 30
0.0
 10
12.5012149984
 20
7.3767324692
 30
0.0
 10
12.5032565948
 20
7.3788716081
 30
0.0
 10
12.5042795301
 20
7.3798596879
 30
0.0
  0
SPLINE
  5
35C
100
AcDbEntity
  8
0
100
AcDbSpline
 62
7
  6
CONTINUOUS
 70
0
 71
3
 72
23
 73
19
 74
0
 42
0.0000001
 43
0.0000001
 44
0.0000000001
 40
0.0
 40
0.0
 40
0.0
 40
0.0
 40
0.0616482046
 40
0.1233194369
 40
0.1850364679
 40
0.2468215571
 40
0.3086962063
 40
0.3706809237
 40
0.4327950053
 40
0.495056333
 40
0.5574811833
 40
0.6200840745
 40
0.6828776148
 40
0.745872329
 40
0.8090769454
 40
0.8724968733
 40
0.9361383371
 40
1.0
 40
1.0
 40
1.0
 40
1.0
 10
10.0782740273
 20
7.2112925875
 30
0.0
 10
10.0838856055
 20
7.2167129374
 30
0.0
 10
10.0954049061
 20
7.227255922
 30
0.0
 10
10.1135122843
 20
7.2421219693
 30
0.0
 10
10.1324059578
 20
7.2560053852
 30
0.0
 10
10.1520376631
 20
7.2688705946
 30
0.0
 10
10.1723581045
 20
7.2806853578
 30
0.0
 10
10.1933160171
 20
7.2914199047
 30
0.0
 10
10.2148585943
 20
7.3010472538
 30
0.0
 10
10.2369315501
 20
7.3095432
 30
0.0
 10
10.2594792755
 20
7.3168863968
 30
0.0
 10
10.282444976
 20
7.3230584015
 30
0.0
 10
10.305770802
 20
7.3280437108
 30
0.0
 10
10.3293980477
 20
7.3318298764
 30
0.0
 10
10.3532670905
 20
7.3344073637
 30
0.0
 10
10.3773182385
 20
7.3357698998
 30
0.0
 10
10.4014899468
 20
7.3359139378
 30
0.0
 10
10.4176183036
 20
7.335198693
 30
0.0
 10
10.4256809867
 20
7.334639544
 30
0.0
  0
SPLINE
  5
35D
100
AcDbEntity
  8
0
100
AcDbSpline
 62
7
  6
CONTINUOUS
 70
0
 71
3
 72
41
 73
37
 74
0
 42
0.0000001
 43
0.0000001
 44
0.0000000001
 40
0.0
 40
0.0
 40
0.0
 40
0.0
 40
0.0299421207
 40
0.0449237678
 40
0.059914515
 40
0.0899291702
 40
0.1200145975
 40
0.1350933607
 40
0.1501974781
 40
0.1804849759
 40
0.210898965
 40
0.2414525847
 40
0.2721557502
 40
0.3030149724
 40
0.3340332622
 40
0.3652101173
 40
0.3965415863
 40
0.428020404
 40
0.4596361919
 40
0.4913757156
 40
0.5232231916
 40
0.5551606357
 40
0.5871682465
 40
0.6192248153
 40
0.651308157
 40
0.6833955539
 40
0.7154642081
 40
0.747491694
 40
0.779456406
 40
0.8113379944
 40
0.8431177853
 40
0.8747791687
 40
0.9063079764
 40
0.9376927595
 40
0.9689251765
 40
1.0
 40
1.0
 40
1.0
 40
1.0
 10
11.3792557244
 20
6.4001956821
 30
0.0
 10
11.3826068481
 20
6.4034325971
 30
0.0
 10
11.3878310177
 20
6.4080918818
 30
0.0
 10
11.3951473808
 20
6.4138730224
 30
0.0
 10
11.4026967482
 20
6.4193664696
 30
0.0
 10
11.4125474207
 20
6.4256747532
 30
0.0
 10
11.4228770586
 20
6.4311926621
 30
0.0
 10
11.4313963198
 20
6.4351181471
 30
0.0
 10
11.4400915881
 20
6.4387195334
 30
0.0
 10
11.4512472082
 20
6.442592088
 30
0.0
 10
11.4649948336
 20
6.4462012105
 30
0.0
 10
11.4790424379
 20
6.4487580177
 30
0.0
 10
11.4933121737
 20
6.4502483976
 30
0.0
 10
11.5077256535
 20
6.4506643979
 30
0.0
 10
11.52220357
 20
6.4500039009
 30
0.0
 10
11.5366663488
 20
6.448270722
 30
0.0
 10
11.551034523
 20
6.4454745546
 30
0.0
 10
11.5652291805
 20
6.441630917
 30
0.0
 10
11.5791723872
 20
6.4367610604
 30
0.0
 10
11.5927876099
 20
6.4308918494
 30
0.0
 10
11.6060001306
 20
6.424055612
 30
0.0
 10
11.6187374505
 20
6.4162899615
 30
0.0
 10
11.6309296826
 20
6.4076375903
 30
0.0
 10
11.6425099301
 20
6.3981460367
 30
0.0
 10
11.6534146496
 20
6.3878674254
 30
0.0
 10
11.6635839955
 20
6.3768581843
 30
0.0
 10
11.672962145
 20
6.3651787372
 30
0.0
 10
11.6814976015
 20
6.352893176
 30
0.0
 10
11.6891434748
 20
6.3400689128
 30
0.0
 10
11.6958577373
 20
6.3267763127
 30
0.0
 10
11.7016034513
 20
6.3130883204
 30
0.0
 10
11.7063489762
 20
6.2990800325
 30
0.0
 10
11.7100681329
 20
6.2848284161
 30
0.0
 10
11.7127403685
 20
6.2704114251
 30
0.0
 10
11.7143508417
 20
6.255909299
 30
0.0
 10
11.7147115614
 20
6.2462102543
 30
0.0
 10
11.7147115614
 20
6.2413748532
 30
0.0
  0
SPLINE
  5
35E
100
AcDbEntity
  8
0
100
AcDbSpline
 62
7
  6
CONTINUOUS
 70
0
 71
3
 72
41
 73
37
 74
0
 42
0.0000001
 43
0.0000001
 44
0.0000000001
 40
0.0
 40
0.0
 40
0.0
 40
0.0
 40
0.0299421207
 40
0.0449237678
 40
0.059914515
 40
0.0899291702
 40
0.1200145975
 40
0.1350933607
 40
0.1501974781
 40
0.1804849759
 40
0.210898965
 40
0.2414525847
 40
0.2721557502
 40
0.3030149724
 40
0.3340332622
 40
0.3652101173
 40
0.3965415863
 40
0.428020404
 40
0.4596361919
 40
0.4913757156
 40
0.5232231916
 40
0.5551606357
 40
0.5871682465
 40
0.6192248153
 40
0.651308157
 40
0.6833955539
 40
0.7154642081
 40
0.747491694
 40
0.779456406
 40
0.8113379944
 40
0.8431177853
 40
0.8747791687
 40
0.9063079764
 40
0.9376927595
 40
0.9689251765
 40
1.0
 40
1.0
 40
1.0
 40
1.0
 10
9.2059224865
 20
6.5509168541
 30
0.0
 10
9.2092736102
 20
6.5541537691
 30
0.0
 10
9.2144977797
 20
6.5588130537
 30
0.0
 10
9.2218141428
 20
6.5645941944
 30
0.0
 10
9.2293635103
 20
6.5700876415
 30
0.0
 10
9.2392141828
 20
6.5763959252
 30
0.0
 10
9.2495438207
 20
6.5819138341
 30
0.0
 10
9.2580630819
 20
6.585839319
 30
0.0
 10
9.2667583501
 20
6.5894407054
 30
0.0
 10
9.2779139703
 20
6.5933132599
 30
0.0
 10
9.2916615957
 20
6.5969223824
 30
0.0
 10
9.3057091999
 20
6.5994791897
 30
0.0
 10
9.3199789358
 20
6.6009695696
 30
0.0
 10
9.3343924156
 20
6.6013855699
 30
0.0
 10
9.3488703321
 20
6.6007250729
 30
0.0
 10
9.3633331109
 20
6.598991894
 30
0.0
 10
9.3777012851
 20
6.5961957266
 30
0.0
 10
9.3918959426
 20
6.5923520889
 30
0.0
 10
9.4058391492
 20
6.5874822324
 30
0.0
 10
9.419454372
 20
6.5816130214
 30
0.0
 10
9.4326668927
 20
6.5747767839
 30
0.0
 10
9.4454042126
 20
6.5670111334
 30
0.0
 10
9.4575964446
 20
6.5583587623
 30
0.0
 10
9.4691766922
 20
6.5488672087
 30
0.0
 10
9.4800814117
 20
6.5385885974
 30
0.0
 10
9.4902507576
 20
6.5275793563
 30
0.0
 10
9.499628907
 20
6.5158999092
 30
0.0
 10
9.5081643636
 20
6.503614348
 30
0.0
 10
9.5158102369
 20
6.4907900848
 30
0.0
 10
9.5225244994
 20
6.4774974846
 30
0.0
 10
9.5282702134
 20
6.4638094924
 30
0.0
 10
9.5330157383
 20
6.4498012044
 30
0.0
 10
9.536734895
 20
6.4355495881
 30
0.0
 10
9.5394071306
 20
6.421132597
 30
0.0
 10
9.5410176037
 20
6.406630471
 30
0.0
 10
9.5413783235
 20
6.3969314263
 30
0.0
 10
9.5413783235
 20
6.3920960251
 30
0.0
  0
SPLINE
  5
35F
100
AcDbEntity
  8
0
100
AcDbSpline
 62
7
  6
CONTINUOUS
 70
0
 71
3
 72
41
 73
37
 74
0
 42
0.0000001
 43
0.0000001
 44
0.0000000001
 40
0.0
 40
0.0
 40
0.0
 40
0.0
 40
0.0299421207
 40
0.0449237678
 40
0.059914515
 40
0.0899291702
 40
0.1200145975
 40
0.1350933607
 40
0.1501974781
 40
0.1804849759
 40
0.210898965
 40
0.2414525847
 40
0.2721557502
 40
0.3030149724
 40
0.3340332622
 40
0.3652101173
 40
0.3965415863
 40
0.428020404
 40
0.4596361919
 40
0.4913757156
 40
0.5232231916
 40
0.5551606357
 40
0.5871682465
 40
0.6192248153
 40
0.651308157
 40
0.6833955539
 40
0.7154642081
 40
0.747491694
 40
0.779456406
 40
0.8113379944
 40
0.8431177853
 40
0.8747791687
 40
0.9063079764
 40
0.9376927595
 40
0.9689251765
 40
1.0
 40
1.0
 40
1.0
 40
1.0
 10
9.2059224865
 20
7.6076396956
 30
0.0
 10
9.2092736102
 20
7.6108766106
 30
0.0
 10
9.2144977797
 20
7.6155358952
 30
0.0
 10
9.2218141428
 20
7.6213170359
 30
0.0
 10
9.2293635103
 20
7.626810483
 30
0.0
 10
9.2392141828
 20
7.6331187667
 30
0.0
 10
9.2495438207
 20
7.6386366756
 30
0.0
 10
9.2580630819
 20
7.6425621605
 30
0.0
 10
9.2667583501
 20
7.6461635469
 30
0.0
 10
9.2779139703
 20
7.6500361014
 30
0.0
 10
9.2916615957
 20
7.6536452239
 30
0.0
 10
9.3057091999
 20
7.6562020312
 30
0.0
 10
9.3199789358
 20
7.6576924111
 30
0.0
 10
9.3343924156
 20
7.6581084114
 30
0.0
 10
9.3488703321
 20
7.6574479144
 30
0.0
 10
9.3633331109
 20
7.6557147355
 30
0.0
 10
9.3777012851
 20
7.6529185681
 30
0.0
 10
9.3918959426
 20
7.6490749304
 30
0.0
 10
9.4058391492
 20
7.6442050739
 30
0.0
 10
9.419454372
 20
7.6383358629
 30
0.0
 10
9.4326668927
 20
7.6314996254
 30
0.0
 10
9.4454042126
 20
7.6237339749
 30
0.0
 10
9.4575964446
 20
7.6150816038
 30
0.0
 10
9.4691766922
 20
7.6055900502
 30
0.0
 10
9.4800814117
 20
7.5953114389
 30
0.0
 10
9.4902507576
 20
7.5843021978
 30
0.0
 10
9.499628907
 20
7.5726227507
 30
0.0
 10
9.5081643636
 20
7.5603371894
 30
0.0
 10
9.5158102369
 20
7.5475129263
 30
0.0
 10
9.5225244994
 20
7.5342203261
 30
0.0
 10
9.5282702134
 20
7.5205323339
 30
0.0
 10
9.5330157383
 20
7.5065240459
 30
0.0
 10
9.536734895
 20
7.4922724296
 30
0.0
 10
9.5394071306
 20
7.4778554385
 30
0.0
 10
9.5410176037
 20
7.4633533125
 30
0.0
 10
9.5413783235
 20
7.4536542678
 30
0.0
 10
9.5413783235
 20
7.4488188666
 30
0.0
  0
SPLINE
  5
360
100
AcDbEntity
  8
0
100
AcDbSpline
 62
7
  6
CONTINUOUS
 70
0
 71
3
 72
41
 73
37
 74
0
 42
0.0000001
 43
0.0000001
 44
0.0000000001
 40
0.0
 40
0.0
 40
0.0
 40
0.0
 40
0.0299421207
 40
0.0449237678
 40
0.059914515
 40
0.0899291702
 40
0.1200145975
 40
0.1350933607
 40
0.1501974781
 40
0.1804849759
 40
0.210898965
 40
0.2414525847
 40
0.2721557502
 40
0.3030149724
 40
0.3340332622
 40
0.3652101173
 40
0.3965415863
 40
0.428020404
 40
0.4596361919
 40
0.4913757156
 40
0.5232231916
 40
0.5551606357
 40
0.5871682465
 40
0.6192248153
 40
0.651308157
 40
0.6833955539
 40
0.7154642081
 40
0.747491694
 40
0.779456406
 40
0.8113379944
 40
0.8431177853
 40
0.8747791687
 40
0.9063079764
 40
0.9376927595
 40
0.9689251765
 40
1.0
 40
1.0
 40
1.0
 40
1.0
 10
11.3792557244
 20
7.4569185236
 30
0.0
 10
11.3826068481
 20
7.4601554386
 30
0.0
 10
11.3878310177
 20
7.4648147233
 30
0.0
 10
11.3951473808
 20
7.4705958639
 30
0.0
 10
11.4026967482
 20
7.4760893111
 30
0.0
 10
11.4125474207
 20
7.4823975947
 30
0.0
 10
11.4228770586
 20
7.4879155036
 30
0.0
 10
11.4313963198
 20
7.4918409886
 30
0.0
 10
11.4400915881
 20
7.4954423749
 30
0.0
 10
11.4512472082
 20
7.4993149294
 30
0.0
 10
11.4649948336
 20
7.502924052
 30
0.0
 10
11.4790424379
 20
7.5054808592
 30
0.0
 10
11.4933121737
 20
7.5069712391
 30
0.0
 10
11.5077256535
 20
7.5073872394
 30
0.0
 10
11.52220357
 20
7.5067267424
 30
0.0
 10
11.5366663488
 20
7.5049935635
 30
0.0
 10
11.551034523
 20
7.5021973961
 30
0.0
 10
11.5652291805
 20
7.4983537585
 30
0.0
 10
11.5791723872
 20
7.4934839019
 30
0.0
 10
11.5927876099
 20
7.4876146909
 30
0.0
 10
11.6060001306
 20
7.4807784535
 30
0.0
 10
11.6187374505
 20
7.473012803
 30
0.0
 10
11.6309296826
 20
7.4643604318
 30
0.0
 10
11.6425099301
 20
7.4548688782
 30
0.0
 10
11.6534146496
 20
7.4445902669
 30
0.0
 10
11.6635839955
 20
7.4335810258
 30
0.0
 10
11.672962145
 20
7.4219015787
 30
0.0
 10
11.6814976015
 20
7.4096160175
 30
0.0
 10
11.6891434748
 20
7.3967917543
 30
0.0
 10
11.6958577373
 20
7.3834991541
 30
0.0
 10
11.7016034513
 20
7.3698111619
 30
0.0
 10
11.7063489762
 20
7.355802874
 30
0.0
 10
11.7100681329
 20
7.3415512576
 30
0.0
 10
11.7127403685
 20
7.3271342666
 30
0.0
 10
11.7143508417
 20
7.3126321405
 30
0.0
 10
11.7147115614
 20
7.3029330958
 30
0.0
 10
11.7147115614
 20
7.2980976947
 30
0.0
  0
SPLINE
  5
361
100
AcDbEntity
  8
0
100
AcDbSpline
 62
7
  6
CONTINUOUS
 70
0
 71
3
 72
23
 73
19
 74
0
 42
0.0000001
 43
0.0000001
 44
0.0000000001
 40
0.0
 40
0.0
 40
0.0
 40
0.0
 40
0.0616482046
 40
0.1233194369
 40
0.1850364679
 40
0.2468215571
 40
0.3086962063
 40
0.3706809237
 40
0.4327950053
 40
0.495056333
 40
0.5574811833
 40
0.6200840745
 40
0.6828776148
 40
0.745872329
 40
0.8090769454
 40
0.8724968733
 40
0.9361383371
 40
1.0
 40
1.0
 40
1.0
 40
1.0
 10
10.0838667201
 20
10.344761693
 30
0.0
 10
10.0893879609
 20
10.350094784
 30
0.0
 10
10.1007218193
 20
10.3604680435
 30
0.0
 10
10.1185376979
 20
10.3750947714
 30
0.0
 10
10.1371272136
 20
10.3887546867
 30
0.0
 10
10.1564428801
 20
10.4014127869
 30
0.0
 10
10.176436195
 20
10.4130373515
 30
0.0
 10
10.197056719
 20
10.4235990894
 30
0.0
 10
10.2182524954
 20
10.4330714537
 30
0.0
 10
10.2399701122
 20
10.4414306289
 30
0.0
 10
10.2621548555
 20
10.448655612
 30
0.0
 10
10.2847508452
 20
10.4547282574
 30
0.0
 10
10.307701163
 20
10.4596333112
 30
0.0
 10
10.330948048
 20
10.4633585256
 30
0.0
 10
10.3544328376
 20
10.4658945195
 30
0.0
 10
10.3780968009
 20
10.467235121
 30
0.0
 10
10.4018793836
 20
10.4673768402
 30
0.0
 10
10.4177480998
 20
10.4666731096
 30
0.0
 10
10.4256809867
 20
10.4661229621
 30
0.0
  0
SPLINE
  5
362
100
AcDbEntity
  8
0
100
AcDbSpline
 62
7
  6
CONTINUOUS
 70
0
 71
3
 72
21
 73
17
 74
0
 42
0.0000001
 43
0.0000001
 44
0.0000000001
 40
0.0
 40
0.0
 40
0.0
 40
0.0
 40
0.061653231
 40
0.1233294833
 40
0.1850515395
 40
0.2468416632
 40
0.3087213442
 40
0.3707111022
 40
0.4328302462
 40
0.495096638
 40
0.5575265767
 40
0.6201345688
 40
0.6829331417
 40
0.7459332092
 40
0.8725262015
 40
1.0
 40
1.0
 40
1.0
 40
1.0
 10
10.2928591534
 20
10.2164299357
 30
0.0
 10
10.295715169
 20
10.2191886328
 30
0.0
 10
10.3015779119
 20
10.2245545163
 30
0.0
 10
10.310793667
 20
10.2321206257
 30
0.0
 10
10.3204095871
 20
10.2391866546
 30
0.0
 10
10.3304011602
 20
10.2457344258
 30
0.0
 10
10.3407432614
 20
10.2517475765
 30
0.0
 10
10.3514097866
 20
10.2572109878
 30
0.0
 10
10.3623738977
 20
10.2621108575
 30
0.0
 10
10.3736079493
 20
10.2664348775
 30
0.0
 10
10.3850836431
 20
10.2701722385
 30
0.0
 10
10.3967719982
 20
10.2733135003
 30
0.0
 10
10.4086439185
 20
10.2758507889
 30
0.0
 10
10.4247005811
 20
10.2784239504
 30
0.0
 10
10.4450899892
 20
10.2800956891
 30
0.0
 10
10.4614818437
 20
10.2797757843
 30
0.0
 10
10.4696721661
 20
10.2792077835
 30
0.0
  0
SPLINE
  5
363
100
AcDbEntity
  8
0
100
AcDbSpline
 62
7
  6
CONTINUOUS
 70
0
 71
3
 72
37
 73
33
 74
0
 42
0.0000001
 43
0.0000001
 44
0.0000000001
 40
0.0
 40
0.0
 40
0.0
 40
0.0
 40
0.0303137639
 40
0.0607400981
 40
0.0912816229
 40
0.1219395532
 40
0.152713696
 40
0.183602467
 40
0.2146029329
 40
0.2457108593
 40
0.27692077
 40
0.3082260172
 40
0.3396188721
 40
0.3710906258
 40
0.4026316907
 40
0.4342317094
 40
0.4658796713
 40
0.4975640438
 40
0.5609732647
 40
0.6243823148
 40
0.6560664758
 40
0.6877141448
 40
0.7193137924
 40
0.7508544128
 40
0.7823256501
 40
0.8137179326
 40
0.8450225381
 40
0.8762317511
 40
0.9073390623
 40
0.9383383719
 40
0.9692272256
 40
1.0
 40
1.0
 40
1.0
 40
1.0
 10
10.7273767293
 20
9.923826342
 30
0.0
 10
10.7283787339
 20
9.9291303266
 30
0.0
 10
10.7300873058
 20
9.9398169602
 30
0.0
 10
10.7317544607
 20
9.9559932489
 30
0.0
 10
10.7325260094
 20
9.9722986978
 30
0.0
 10
10.7323995715
 20
9.9886835985
 30
0.0
 10
10.7313755906
 20
10.0050988576
 30
0.0
 10
10.7294572236
 20
10.0214950724
 30
0.0
 10
10.7266503079
 20
10.0378229712
 30
0.0
 10
10.722963331
 20
10.0540334783
 30
0.0
 10
10.7184074013
 20
10.070077876
 30
0.0
 10
10.7129962456
 20
10.0859079475
 30
0.0
 10
10.7067461913
 20
10.1014761416
 30
0.0
 10
10.6996760649
 20
10.116735683
 30
0.0
 10
10.6918071099
 20
10.131640758
 30
0.0
 10
10.6831630644
 20
10.1461464734
 30
0.0
 10
10.6737695763
 20
10.1602096456
 30
0.0
 10
10.6602829878
 20
10.1783150904
 30
0.0
 10
10.6417002794
 20
10.1996277316
 30
0.0
 10
10.6210375988
 20
10.2189305103
 30
0.0
 10
10.6034054823
 20
10.2330300937
 30
0.0
 10
10.5896728939
 20
10.2429003105
 30
0.0
 10
10.5754723474
 20
10.2520366734
 30
0.0
 10
10.5608461209
 20
10.2604120675
 30
0.0
 10
10.5458382664
 20
10.268001232
 30
0.0
 10
10.5304938405
 20
10.2747813603
 30
0.0
 10
10.5148589509
 20
10.2807320361
 30
0.0
 10
10.4989805294
 20
10.2858353302
 30
0.0
 10
10.4829064103
 20
10.2900757843
 30
0.0
 10
10.466684541
 20
10.2934408437
 30
0.0
 10
10.4503645409
 20
10.2959199796
 30
0.0
 10
10.4394295954
 20
10.2969794229
 30
0.0
 10
10.4339631895
 20
10.2973585194
 30
0.0
  0
SPLINE
  5
364
100
AcDbEntity
  8
0
100
AcDbSpline
 62
7
  6
CONTINUOUS
 70
0
 71
3
 72
42
 73
38
 74
0
 42
0.0000001
 43
0.0000001
 44
0.0000000001
 40
0.0
 40
0.0
 40
0.0
 40
0.0
 40
0.029938815
 40
0.0449185003
 40
0.0599070253
 40
0.0899162913
 40
0.1199943456
 40
0.135068431
 40
0.1501671937
 40
0.1804419399
 40
0.2108400426
 40
0.2413745444
 40
0.2720554255
 40
0.3028894243
 40
0.3338799383
 40
0.3650270005
 40
0.396327329
 40
0.4277744443
 40
0.459358847
 40
0.4910682509
 40
0.5228878628
 40
0.5548007029
 40
0.586787959
 40
0.6188293671
 40
0.6509036131
 40
0.6829887484
 40
0.7150626143
 40
0.7471032696
 40
0.7790894148
 40
0.8110008073
 40
0.8428186634
 40
0.874526038
 40
0.906108178
 40
0.9375528439
 40
0.9532227642
 40
0.9688556082
 40
1.0
 40
1.0
 40
1.0
 40
1.0
 10
10.6464851787
 20
9.8503293565
 30
0.0
 10
10.6506456101
 20
9.8543480214
 30
0.0
 10
10.656654795
 20
9.8606257308
 30
0.0
 10
10.664155197
 20
9.86944385
 30
0.0
 10
10.6713141834
 20
9.8785594297
 30
0.0
 10
10.679598554
 20
9.8904850318
 30
0.0
 10
10.6869389076
 20
9.9030328365
 30
0.0
 10
10.6922255714
 20
9.9134068093
 30
0.0
 10
10.6971244086
 20
9.9240112999
 30
0.0
 10
10.7024925983
 20
9.9376478532
 30
0.0
 10
10.7076834693
 20
9.9545051137
 30
0.0
 10
10.711602958
 20
9.9717832618
 30
0.0
 10
10.714230046
 20
9.9893893132
 30
0.0
 10
10.7155509927
 20
10.0072293429
 30
0.0
 10
10.7155589414
 20
10.0252080205
 30
0.0
 10
10.7142540676
 20
10.0432293788
 30
0.0
 10
10.7116435349
 20
10.0611972515
 30
0.0
 10
10.707741458
 20
10.0790157997
 30
0.0
 10
10.7025688186
 20
10.0965900118
 30
0.0
 10
10.6961533495
 20
10.113826205
 30
0.0
 10
10.688529384
 20
10.1306325172
 30
0.0
 10
10.6797376711
 20
10.1469193904
 30
0.0
 10
10.6698251584
 20
10.1626000418
 30
0.0
 10
10.6588447424
 20
10.1775909202
 30
0.0
 10
10.6468549884
 20
10.1918121463
 30
0.0
 10
10.6339198202
 20
10.2051879335
 30
0.0
 10
10.6201081833
 20
10.2176469878
 30
0.0
 10
10.6054936796
 20
10.2291228841
 30
0.0
 10
10.5901541837
 20
10.239554416
 30
0.0
 10
10.5741714153
 20
10.2488859233
 30
0.0
 10
10.5576305739
 20
10.2570675743
 30
0.0
 10
10.5406196485
 20
10.2640556759
 30
0.0
 10
10.5232298534
 20
10.2698127382
 30
0.0
 10
10.5084807371
 20
10.2735634694
 30
0.0
 10
10.4965861111
 20
10.2759185774
 30
0.0
 10
10.4846725741
 20
10.2778368967
 30
0.0
 10
10.4756750361
 20
10.278791483
 30
0.0
 10
10.4696721661
 20
10.2792077835
 30
0.0
  0
SPLINE
  5
365
100
AcDbEntity
  8
0
100
AcDbSpline
 62
7
  6
CONTINUOUS
 70
0
 71
3
 72
37
 73
33
 74
0
 42
0.0000001
 43
0.0000001
 44
0.0000000001
 40
0.0
 40
0.0
 40
0.0
 40
0.0
 40
0.0292039447
 40
0.0587486736
 40
0.0886404496
 40
0.1188756765
 40
0.1802919843
 40
0.2114469191
 40
0.2428478115
 40
0.3062104387
 40
0.3381129468
 40
0.3701023216
 40
0.402141241
 40
0.4341957105
 40
0.4662358671
 40
0.4982363586
 40
0.530176563
 40
0.5620406133
 40
0.593817259
 40
0.625499614
 40
0.6570848259
 40
0.6885736953
 40
0.7199702526
 40
0.7512812506
 40
0.7825156813
 40
0.8136843048
 40
0.8447990286
 40
0.8758724113
 40
0.9069173606
 40
0.9379457403
 40
0.9689704068
 40
1.0
 40
1.0
 40
1.0
 40
1.0
 10
10.4006133974
 20
10.2740480872
 30
0.0
 10
10.3991357799
 20
10.2698685294
 30
0.0
 10
10.396426597
 20
10.26136506
 30
0.0
 10
10.3931304934
 20
10.2483118086
 30
0.0
 10
10.390589882
 20
10.234930534
 30
0.0
 10
10.3882102986
 20
10.2166266464
 30
0.0
 10
10.3874021614
 20
10.1979560022
 30
0.0
 10
10.3881281138
 20
10.1791443778
 30
0.0
 10
10.3898935553
 20
10.1601043532
 30
0.0
 10
10.3931986049
 20
10.1411201014
 30
0.0
 10
10.3979852803
 20
10.1223991592
 30
0.0
 10
10.4023213551
 20
10.1084904023
 30
0.0
 10
10.4073799444
 20
10.0948038579
 30
0.0
 10
10.4131452023
 20
10.0813910375
 30
0.0
 10
10.4195998458
 20
10.0683024734
 30
0.0
 10
10.4267255656
 20
10.055586542
 30
0.0
 10
10.4345030705
 20
10.0432899188
 30
0.0
 10
10.4429121016
 20
10.0314576574
 30
0.0
 10
10.451931332
 20
10.0201333927
 30
0.0
 10
10.4615381944
 20
10.0093595028
 30
0.0
 10
10.4717086167
 20
9.99917721
 30
0.0
 10
10.4824167195
 20
9.9896266082
 30
0.0
 10
10.4936344961
 20
9.9807466244
 30
0.0
 10
10.5053314649
 20
9.9725748539
 30
0.0
 10
10.5174743636
 20
9.9651473038
 30
0.0
 10
10.5300268782
 20
9.9584980227
 30
0.0
 10
10.5429494445
 20
9.9526586308
 30
0.0
 10
10.5561992189
 20
9.9476577534
 30
0.0
 10
10.5697300006
 20
9.9435206464
 30
0.0
 10
10.5834929475
 20
9.9402682645
 30
0.0
 10
10.59743531
 20
9.9379175026
 30
0.0
 10
10.6068140023
 20
9.9369590963
 30
0.0
 10
10.6115129077
 20
9.9366332261
 30
0.0
  0
SPLINE
  5
366
100
AcDbEntity
  8
0
100
AcDbSpline
 62
7
  6
CONTINUOUS
 70
0
 71
3
 72
53
 73
49
 74
0
 42
0.0000001
 43
0.0000001
 44
0.0000000001
 40
0.0
 40
0.0
 40
0.0
 40
0.0
 40
0.0055575349
 40
0.0111779574
 40
0.016921891
 40
0.0228457743
 40
0.029000552
 40
0.0354309505
 40
0.0421754055
 40
0.0492662478
 40
0.0567303114
 40
0.0645894105
 40
0.0728611098
 40
0.0815591384
 40
0.0906940943
 40
0.1002736987
 40
0.1103033823
 40
0.1207863994
 40
0.1317243013
 40
0.1431169598
 40
0.1549629426
 40
0.1672594916
 40
0.1800028137
 40
0.1931880477
 40
0.2068094793
 40
0.22086052
 40
0.2353338526
 40
0.2502214359
 40
0.2655145879
 40
0.2812040216
 40
0.3137310998
 40
0.3477184385
 40
0.3830735591
 40
0.4196973767
 40
0.4574849524
 40
0.4963261721
 40
0.5361063729
 40
0.5767069338
 40
0.6180058409
 40
0.6598782355
 40
0.70219695
 40
0.7448330363
 40
0.7876562855
 40
0.8305357583
 40
0.8733402655
 40
0.9159389973
 40
0.9582017405
 40
1.0
 40
1.0
 40
1.0
 40
1.0
 10
10.0319092446
 20
10.8973003023
 30
0.0
 10
10.0319092348
 20
10.8992348177
 30
0.0
 10
10.0321258524
 20
10.9031291057
 30
0.0
 10
10.033097922
 20
10.9089497579
 30
0.0
 10
10.0347156334
 20
10.9147574171
 30
0.0
 10
10.0369757521
 20
10.9205453738
 30
0.0
 10
10.0398746529
 20
10.9263088945
 30
0.0
 10
10.0434083313
 20
10.9320436209
 30
0.0
 10
10.0475728761
 20
10.9377455403
 30
0.0
 10
10.0523640918
 20
10.9434109031
 30
0.0
 10
10.0577778008
 20
10.94903579
 30
0.0
 10
10.0638093656
 20
10.9546164062
 30
0.0
 10
10.0704539729
 20
10.9601486428
 30
0.0
 10
10.0777062244
 20
10.9656285358
 30
0.0
 10
10.0855604163
 20
10.9710518135
 30
0.0
 10
10.094010227
 20
10.9764144034
 30
0.0
 10
10.1030489618
 20
10.9817119736
 30
0.0
 10
10.1126693275
 20
10.986940424
 30
0.0
 10
10.1228636246
 20
10.9920954521
 30
0.0
 10
10.1336235939
 20
10.9971729907
 30
0.0
 10
10.1449405538
 20
11.0021688287
 30
0.0
 10
10.156805305
 20
11.0070789731
 30
0.0
 10
10.1692082205
 20
11.0118993451
 30
0.0
 10
10.1821391941
 20
11.0166260551
 30
0.0
 10
10.1955876951
 20
11.021255184
 30
0.0
 10
10.2095427469
 20
11.0257829671
 30
0.0
 10
10.2239929589
 20
11.0302056665
 30
0.0
 10
10.2389265187
 20
11.0345196526
 30
0.0
 10
10.2543312356
 20
11.0387214141
 30
0.0
 10
10.275740082
 20
11.0442357628
 30
0.0
 10
10.3035934277
 20
11.0508059054
 30
0.0
 10
10.3382982755
 20
11.0580984947
 30
0.0
 10
10.3745606068
 20
11.0648670096
 30
0.0
 10
10.4122617134
 20
11.0710890764
 30
0.0
 10
10.4512783737
 20
11.0767440937
 30
0.0
 10
10.4914829058
 20
11.081813358
 30
0.0
 10
10.5327437076
 20
11.0862801078
 30
0.0
 10
10.5749256702
 20
11.0901295802
 30
0.0
 10
10.6178906385
 20
11.093349057
 30
0.0
 10
10.6614978689
 20
11.0959279045
 30
0.0
 10
10.7056044962
 20
11.0978576072
 30
0.0
 10
10.7500660068
 20
11.0991317937
 30
0.0
 10
10.7947367172
 20
11.0997462588
 30
0.0
 10
10.8394702497
 20
11.0996989718
 30
0.0
 10
10.8841200286
 20
11.0989900939
 30
0.0
 10
10.9285397482
 20
11.0976219549
 30
0.0
 10
10.9725837641
 20
11.0955990911
 30
0.0
 10
11.001790918
 20
11.0938067464
 30
0.0
 10
11.0163055602
 20
11.0928001526
 30
0.0
  0
SPLINE
  5
367
100
AcDbEntity
  8
0
100
AcDbSpline
 62
7
  6
CONTINUOUS
 70
0
 71
3
 72
11
 73
7
 74
0
 42
0.0000001
 43
0.0000001
 44
0.0000000001
 40
0.0
 40
0.0
 40
0.0
 40
0.0
 40
0.2394599504
 40
0.4864957511
 40
0.7402917706
 40
1.0
 40
1.0
 40
1.0
 40
1.0
 10
10.3905812542
 20
10.2337278953
 30
0.0
 10
10.404121983
 20
10.2359842877
 30
0.0
 10
10.4316828921
 20
10.2402665036
 30
0.0
 10
10.4737437388
 20
10.2459345506
 30
0.0
 10
10.5170579334
 20
10.2509331778
 30
0.0
 10
10.5463595107
 20
10.2537774218
 30
0.0
 10
10.5611899042
 20
10.2550882053
 30
0.0
  0
SPLINE
  5
368
100
AcDbEntity
  8
0
100
AcDbSpline
 62
7
  6
CONTINUOUS
 70
0
 71
3
 72
11
 73
7
 74
0
 42
0.0000001
 43
0.0000001
 44
0.0000000001
 40
0.0
 40
0.0
 40
0.0
 40
0.0
 40
0.2364844228
 40
0.4827891748
 40
0.737714832
 40
1.0
 40
1.0
 40
1.0
 40
1.0
 10
10.3886746994
 20
10.2187142742
 30
0.0
 10
10.4037996012
 20
10.2214909591
 30
0.0
 10
10.4347591626
 20
10.2267216643
 30
0.0
 10
10.4822517091
 20
10.2335100083
 30
0.0
 10
10.5315567931
 20
10.2393749306
 30
0.0
 10
10.5650364088
 20
10.2426070549
 30
0.0
 10
10.582029006
 20
10.2440692269
 30
0.0
  0
SPLINE
  5
369
100
AcDbEntity
  8
0
100
AcDbSpline
 62
7
  6
CONTINUOUS
 70
0
 71
3
 72
15
 73
11
 74
0
 42
0.0000001
 43
0.0000001
 44
0.0000000001
 40
0.0
 40
0.0
 40
0.0
 40
0.0
 40
0.1154076443
 40
0.233994226
 40
0.3555500186
 40
0.4798571742
 40
0.6066904911
 40
0.7358181371
 40
0.8670023168
 40
1.0
 40
1.0
 40
1.0
 40
1.0
 10
10.3879025299
 20
10.1886873432
 30
0.0
 10
10.3967286909
 20
10.1903639118
 30
0.0
 10
10.414654205
 20
10.1936066325
 30
0.0
 10
10.4419679447
 20
10.1980892095
 30
0.0
 10
10.4700330935
 20
10.2022501104
 30
0.0
 10
10.4987928875
 20
10.2060808578
 30
0.0
 10
10.5281892875
 20
10.2095736714
 30
0.0
 10
10.5581629389
 20
10.2127214481
 30
0.0
 10
10.5886532413
 20
10.2155177929
 30
0.0
 10
10.6091557065
 20
10.21713388
 30
0.0
 10
10.6194818325
 20
10.2178834277
 30
0.0
  0
SPLINE
  5
36A
100
AcDbEntity
  8
0
100
AcDbSpline
 62
7
  6
CONTINUOUS
 70
0
 71
3
 72
15
 73
11
 74
0
 42
0.0000001
 43
0.0000001
 44
0.0000000001
 40
0.0
 40
0.0
 40
0.0
 40
0.0
 40
0.1164877464
 40
0.2359834942
 40
0.3582096558
 40
0.4828794618
 40
0.6096980781
 40
0.7383636873
 40
0.8685685412
 40
1.0
 40
1.0
 40
1.0
 40
1.0
 10
10.4365086685
 20
10.0406563646
 30
0.0
 10
10.4470587226
 20
10.0423370143
 30
0.0
 10
10.4684621967
 20
10.0455500783
 30
0.0
 10
10.50102808
 20
10.0498821327
 30
0.0
 10
10.5344043317
 20
10.0537804803
 30
0.0
 10
10.5685044205
 20
10.0572349346
 30
0.0
 10
10.6032400944
 20
10.0602364925
 30
0.0
 10
10.6385214212
 20
10.0627773262
 30
0.0
 10
10.6742569522
 20
10.0648508155
 30
0.0
 10
10.6982289019
 20
10.0659138458
 30
0.0
 10
10.7102739374
 20
10.066367296
 30
0.0
  0
SPLINE
  5
36B
100
AcDbEntity
  8
0
100
AcDbSpline
 62
7
  6
CONTINUOUS
 70
0
 71
3
 72
39
 73
35
 74
0
 42
0.0000001
 43
0.0000001
 44
0.0000000001
 40
0.0
 40
0.0
 40
0.0
 40
0.0
 40
0.0311450496
 40
0.0624431124
 40
0.0938883501
 40
0.1254709987
 40
0.1571788953
 40
0.1889972749
 40
0.2209091922
 40
0.2528958629
 40
0.2849370446
 40
0.3170114373
 40
0.3490970993
 40
0.3811718714
 40
0.4132138048
 40
0.4452015851
 40
0.4771149473
 40
0.508935079
 40
0.5406450006
 40
0.572229919
 40
0.6036775474
 40
0.6349783854
 40
0.6661259539
 40
0.697116972
 40
0.7279514727
 40
0.758632853
 40
0.7891678509
 40
0.8195664476
 40
0.8498416867
 40
0.8800094173
 40
0.9100879625
 40
0.9400977185
 40
0.9700606941
 40
1.0
 40
1.0
 40
1.0
 40
1.0
 10
10.4256809867
 20
9.5156518927
 30
0.0
 10
10.414076154
 20
9.5164566906
 30
0.0
 10
10.3908597468
 20
9.5189196647
 30
0.0
 10
10.3563166041
 20
9.5251239968
 30
0.0
 10
10.3221434546
 20
9.5338143652
 30
0.0
 10
10.2885248436
 20
9.5449440821
 30
0.0
 10
10.2556393932
 20
9.5584534868
 30
0.0
 10
10.2236625285
 20
9.5742703339
 30
0.0
 10
10.1927645862
 20
9.5923100735
 30
0.0
 10
10.1631102051
 20
9.6124763812
 30
0.0
 10
10.1348573839
 20
9.6346616532
 30
0.0
 10
10.1081566789
 20
9.6587475826
 30
0.0
 10
10.0831503824
 20
9.6846057549
 30
0.0
 10
10.0599717638
 20
9.7120983273
 30
0.0
 10
10.0387443982
 20
9.741078788
 30
0.0
 10
10.0195815072
 20
9.7713927176
 30
0.0
 10
10.0025853723
 20
9.8028786062
 30
0.0
 10
9.9878467445
 20
9.835368677
 30
0.0
 10
9.9754443835
 20
9.8686897885
 30
0.0
 10
9.9654446606
 20
9.9026643537
 30
0.0
 10
9.9579011973
 20
9.9371112672
 30
0.0
 10
9.9528545795
 20
9.9718468552
 30
0.0
 10
9.9503320724
 20
10.0066858343
 30
0.0
 10
9.950347515
 20
10.0414423017
 30
0.0
 10
9.9529012354
 20
10.0759307114
 30
0.0
 10
9.9579800326
 20
10.1099668545
 30
0.0
 10
9.9655572119
 20
10.1433688347
 30
0.0
 10
9.9755926634
 20
10.1759580612
 30
0.0
 10
9.9880330984
 20
10.2075601839
 30
0.0
 10
10.0028123628
 20
10.2380060943
 30
0.0
 10
10.0198515532
 20
10.2671326243
 30
0.0
 10
10.0390602383
 20
10.2947842652
 30
0.0
 10
10.0603337812
 20
10.3208110369
 30
0.0
 10
10.0758237436
 20
10.3369928005
 30
0.0
 10
10.0838667201
 20
10.344761693
 30
0.0
  0
SPLINE
  5
36C
100
AcDbEntity
  8
0
100
AcDbSpline
 62
7
  6
CONTINUOUS
 70
0
 71
3
 72
14
 73
10
 74
0
 42
0.0000001
 43
0.0000001
 44
0.0000000001
 40
0.0
 40
0.0
 40
0.0
 40
0.0
 40
0.1178265665
 40
0.2381703792
 40
0.360804674
 40
0.4854965047
 40
0.6120074965
 40
0.7400945556
 40
1.0
 40
1.0
 40
1.0
 40
1.0
 10
10.4836052731
 20
9.9889544729
 30
0.0
 10
10.4926501197
 20
9.9902718643
 30
0.0
 10
10.5109538276
 20
9.9927939599
 30
0.0
 10
10.5387345229
 20
9.9962103118
 30
0.0
 10
10.5670897834
 20
9.9992950518
 30
0.0
 10
10.595960315
 20
10.0020416854
 30
0.0
 10
10.6252859729
 20
10.0044444922
 30
0.0
 10
10.6651038596
 20
10.0071961722
 30
0.0
 10
10.6951680398
 20
10.0087075969
 30
0.0
 10
10.7153151826
 20
10.0094792654
 30
0.0
  0
SPLINE
  5
36D
100
AcDbEntity
  8
0
100
AcDbSpline
 62
7
  6
CONTINUOUS
 70
0
 71
3
 72
56
 73
52
 74
0
 42
0.0000001
 43
0.0000001
 44
0.0000000001
 40
0.0
 40
0.0
 40
0.0
 40
0.0
 40
0.0528988271
 40
0.1050250719
 40
0.1562614639
 40
0.2064947077
 40
0.2556138829
 40
0.303511929
 40
0.3500856357
 40
0.3952362577
 40
0.4388699536
 40
0.4808983424
 40
0.5212391035
 40
0.559816674
 40
0.5965630688
 40
0.6142311541
 40
0.6314199762
 40
0.6481235914
 40
0.6643368937
 40
0.6800554208
 40
0.6952756589
 40
0.7099949147
 40
0.7242115719
 40
0.7379250817
 40
0.7511361471
 40
0.7638468651
 40
0.7760608417
 40
0.7877835006
 40
0.7990221567
 40
0.8097864855
 40
0.8200886071
 40
0.8299436832
 40
0.8393700718
 40
0.8483899809
 40
0.8570297157
 40
0.8732866686
 40
0.8809917874
 40
0.8884710602
 40
0.8957756545
 40
0.9029609235
 40
0.9100852828
 40
0.9172088054
 40
0.9243915891
 40
0.9316921106
 40
0.9391658361
 40
0.9468640412
 40
0.9631036479
 40
0.9717332763
 40
0.9807422625
 40
0.9901570785
 40
1.0
 40
1.0
 40
1.0
 40
1.0
 10
11.0323523338
 20
11.1805906615
 30
0.0
 10
11.0456844773
 20
11.1796660742
 30
0.0
 10
11.0721420116
 20
11.177651248
 30
0.0
 10
11.1114608353
 20
11.1741031312
 30
0.0
 10
11.1500547083
 20
11.1700577392
 30
0.0
 10
11.1878294165
 20
11.1655250417
 30
0.0
 10
11.2246930774
 20
11.1605161249
 30
0.0
 10
11.2605558841
 20
11.1550432986
 30
0.0
 10
11.2953305619
 20
11.149119988
 30
0.0
 10
11.3289324945
 20
11.1427607408
 30
0.0
 10
11.3612799803
 20
11.1359811746
 30
0.0
 10
11.3922944012
 20
11.1287979426
 30
0.0
 10
11.4219005457
 20
11.1212286977
 30
0.0
 10
11.4500264168
 20
11.1132920092
 30
0.0
 10
11.4724586644
 20
11.1062998011
 30
0.0
 10
11.4896019091
 20
11.1005235059
 30
0.0
 10
11.5018789926
 20
11.0961683947
 30
0.0
 10
11.5137369208
 20
11.091736265
 30
0.0
 10
11.5251685281
 20
11.0872298633
 30
0.0
 10
11.5361668655
 20
11.0826518639
 30
0.0
 10
11.5467252882
 20
11.0780051166
 30
0.0
 10
11.5568373968
 20
11.0732923872
 30
0.0
 10
11.5664970935
 20
11.0685165681
 30
0.0
 10
11.5756985495
 20
11.0636805244
 30
0.0
 10
11.5844362248
 20
11.0587871627
 30
0.0
 10
11.5927048838
 20
11.0538394377
 30
0.0
 10
11.6004995501
 20
11.0488402448
 30
0.0
 10
11.6078155984
 20
11.0437926022
 30
0.0
 10
11.6146486133
 20
11.0386993719
 30
0.0
 10
11.6209945824
 20
11.0335635867
 30
0.0
 10
11.626849627
 20
11.0283880708
 30
0.0
 10
11.6322103454
 20
11.0231757544
 30
0.0
 10
11.6370732363
 20
11.0179296181
 30
0.0
 10
11.6414358248
 20
11.0126517318
 30
0.0
 10
11.6464777113
 20
11.0057194859
 30
0.0
 10
11.6506569781
 20
10.998581181
 30
0.0
 10
11.653822239
 20
10.9912875163
 30
0.0
 10
11.6556408361
 20
10.9858971996
 30
0.0
 10
11.6569434962
 20
10.9804942484
 30
0.0
 10
11.6577287928
 20
10.9750823551
 30
0.0
 10
11.6579954289
 20
10.96966589
 30
0.0
 10
11.6577431809
 20
10.9642493604
 30
0.0
 10
11.6569722298
 20
10.9588372839
 30
0.0
 10
11.6556839147
 20
10.9534340246
 30
0.0
 10
11.6538795576
 20
10.9480433108
 30
0.0
 10
11.6507338058
 20
10.9407493923
 30
0.0
 10
11.6465733458
 20
10.9336100176
 30
0.0
 10
11.6415495628
 20
10.9266766051
 30
0.0
 10
11.6372008919
 20
10.9213978484
 30
0.0
 10
11.6323519191
 20
10.916150925
 30
0.0
 10
11.6288667252
 20
10.9127528538
 30
0.0
 10
11.6270463464
 20
10.9110588066
 30
0.0
  0
SPLINE
  5
36E
100
AcDbEntity
  8
0
100
AcDbSpline
 62
7
  6
CONTINUOUS
 70
0
 71
3
 72
51
 73
47
 74
0
 42
0.0000001
 43
0.0000001
 44
0.0000000001
 40
0.0
 40
0.0
 40
0.0
 40
0.0
 40
0.0083888522
 40
0.0173410458
 40
0.0268641187
 40
0.0369607104
 40
0.0476299625
 40
0.0588679036
 40
0.0706682579
 40
0.0830222743
 40
0.0959194553
 40
0.1093473589
 40
0.1232922028
 40
0.137738587
 40
0.1680676642
 40
0.2001896813
 40
0.2339425619
 40
0.2691506961
 40
0.3056269822
 40
0.3431746672
 40
0.381589064
 40
0.4206591952
 40
0.4601693916
 40
0.4999008651
 40
0.5396332682
 40
0.5791462468
 40
0.6182209932
 40
0.6566418054
 40
0.6941976596
 40
0.7306838092
 40
0.7659034272
 40
0.7996693229
 40
0.8318057816
 40
0.8621506035
 40
0.8766052982
 40
0.8905587318
 40
0.9039954619
 40
0.9169016999
 40
0.929264955
 40
0.9410747296
 40
0.9523222114
 40
0.9630010782
 40
0.9731072968
 40
0.9826400989
 40
0.9916019886
 40
1.0
 40
1.0
 40
1.0
 40
1.0
 10
12.4413841
 20
6.9143197314
 30
0.0
 10
12.4421066761
 20
6.915203451
 30
0.0
 10
12.4435461825
 20
6.9170749576
 30
0.0
 10
12.4456269837
 20
6.9200820455
 30
0.0
 10
12.4476959319
 20
6.9233751619
 30
0.0
 10
12.4497501021
 20
6.9269494746
 30
0.0
 10
12.4517864469
 20
6.9307999225
 30
0.0
 10
12.4538020633
 20
6.9349208804
 30
0.0
 10
12.4557939174
 20
6.939306381
 30
0.0
 10
12.4577591496
 20
6.9439500005
 30
0.0
 10
12.4596947747
 20
6.9488449539
 30
0.0
 10
12.4615979916
 20
6.9539840369
 30
0.0
 10
12.4634659343
 20
6.9593597074
 30
0.0
 10
12.465946145
 20
6.9669558893
 30
0.0
 10
12.4689275922
 20
6.9769882951
 30
0.0
 10
12.4722673189
 20
6.9896480419
 30
0.0
 10
12.4754045566
 20
7.0030421821
 30
0.0
 10
12.478320577
 20
7.0170916918
 30
0.0
 10
12.4809979429
 20
7.0317137788
 30
0.0
 10
12.4834206793
 20
7.0468221327
 30
0.0
 10
12.4855743446
 20
7.062327535
 30
0.0
 10
12.4874461184
 20
7.0781383796
 30
0.0
 10
12.4890248737
 20
7.0941612322
 30
0.0
 10
12.490301241
 20
7.1103013893
 30
0.0
 10
12.4912676632
 20
7.1264634457
 30
0.0
 10
12.49191844
 20
7.1425518653
 30
0.0
 10
12.4922497624
 20
7.1584715516
 30
0.0
 10
12.4922597374
 20
7.1741284179
 30
0.0
 10
12.4919484013
 20
7.1894299497
 30
0.0
 10
12.4913177258
 20
7.2042857688
 30
0.0
 10
12.4903716028
 20
7.2186081611
 30
0.0
 10
12.4891158584
 20
7.2323126905
 30
0.0
 10
12.4875581169
 20
7.2453184706
 30
0.0
 10
12.485992126
 20
7.2556719954
 30
0.0
 10
12.4845858338
 20
7.2635426223
 30
0.0
 10
12.483478968
 20
7.2691284743
 30
0.0
 10
12.4823044734
 20
7.2744850085
 30
0.0
 10
12.4810641584
 20
7.2796043531
 30
0.0
 10
12.4797597881
 20
7.2844789808
 30
0.0
 10
12.4783933932
 20
7.2891017538
 30
0.0
 10
12.4769669029
 20
7.2934659037
 30
0.0
 10
12.4754825212
 20
7.2975650958
 30
0.0
 10
12.4739423233
 20
7.301393361
 30
0.0
 10
12.4723486234
 20
7.3049452652
 30
0.0
 10
12.4707036581
 20
7.3082155609
 30
0.0
 10
12.4695368719
 20
7.3102711442
 30
0.0
 10
12.4689435113
 20
7.3112477949
 30
0.0
  0
SPLINE
  5
36F
100
AcDbEntity
  8
0
100
AcDbSpline
 62
7
  6
CONTINUOUS
 70
0
 71
3
 72
72
 73
68
 74
0
 42
0.0000001
 43
0.0000001
 44
0.0000000001
 40
0.0
 40
0.0
 40
0.0
 40
0.0
 40
0.0492867906
 40
0.0988866329
 40
0.1488115722
 40
0.1738981989
 40
0.1990666884
 40
0.2243152078
 40
0.2496401781
 40
0.2750353857
 40
0.3004904729
 40
0.3259882447
 40
0.3387447532
 40
0.3514995638
 40
0.3642453671
 40
0.3769721108
 40
0.3896656467
 40
0.4023054558
 40
0.4148606932
 40
0.4272828939
 40
0.4394915186
 40
0.4513430212
 40
0.4570571795
 40
0.4625595229
 40
0.4677641491
 40
0.4702169815
 40
0.4725438112
 40
0.474719715
 40
0.476720218
 40
0.4785279981
 40
0.4801559243
 40
0.4809280724
 40
0.481696794
 40
0.4824904833
 40
0.4833396396
 40
0.4853120552
 40
0.4864794677
 40
0.4877782598
 40
0.4892107172
 40
0.4907714817
 40
0.4942419377
 40
0.4981103592
 40
0.5022900914
 40
0.5067122909
 40
0.5113187563
 40
0.5209331842
 40
0.5309112655
 40
0.5411272872
 40
0.5515069618
 40
0.5620041401
 40
0.5725887028
 40
0.5832401494
 40
0.5939440828
 40
0.604690279
 40
0.6262805833
 40
0.6479692644
 40
0.6697309414
 40
0.6915493179
 40
0.7134134495
 40
0.7353157086
 40
0.7572506155
 40
0.7792141659
 40
0.8232157509
 40
0.8673037572
 40
0.9114678638
 40
0.9557014225
 40
1.0
 40
1.0
 40
1.0
 40
1.0
 10
10.3150013753
 20
7.329334655
 30
0.0
 10
10.3152139736
 20
7.3271245137
 30
0.0
 10
10.3157011156
 20
7.3226957897
 30
0.0
 10
10.3166125498
 20
7.3160534186
 30
0.0
 10
10.317522443
 20
7.3105132522
 30
0.0
 10
10.3183407889
 20
7.3060749069
 30
0.0
 10
10.3190010134
 20
7.3027380981
 30
0.0
 10
10.3197067019
 20
7.2993996388
 30
0.0
 10
10.3204579275
 20
7.2960606586
 30
0.0
 10
10.3212548315
 20
7.2927227143
 30
0.0
 10
10.3220976671
 20
7.2893880412
 30
0.0
 10
10.3228385086
 20
7.2866151293
 30
0.0
 10
10.3234550865
 20
7.2844014453
 30
0.0
 10
10.3239296137
 20
7.2827445798
 30
0.0
 10
10.3244163523
 20
7.2810926574
 30
0.0
 10
10.324915586
 20
7.2794473498
 30
0.0
 10
10.3254277006
 20
7.2778110048
 30
0.0
 10
10.3259532292
 20
7.2761870298
 30
0.0
 10
10.3264929329
 20
7.2745805911
 30
0.0
 10
10.3270478452
 20
7.2729998811
 30
0.0
 10
10.3276195371
 20
7.2714589146
 30
0.0
 10
10.328117391
 20
7.270213117
 30
0.0
 10
10.3285335662
 20
7.2692607632
 30
0.0
 10
10.3288499266
 20
7.2685919329
 30
0.0
 10
10.3291265217
 20
7.2680671439
 30
0.0
 10
10.3293577278
 20
7.2676811875
 30
0.0
 10
10.3295315728
 20
7.2674202946
 30
0.0
 10
10.3297099585
 20
7.2671875408
 30
0.0
 10
10.3298938642
 20
7.2669896003
 30
0.0
 10
10.3300847475
 20
7.2668345197
 30
0.0
 10
10.3302569577
 20
7.2667489206
 30
0.0
 10
10.3303973289
 20
7.2667191033
 30
0.0
 10
10.3305031858
 20
7.2667171883
 30
0.0
 10
10.3306106786
 20
7.2667373811
 30
0.0
 10
10.3307628034
 20
7.2667980513
 30
0.0
 10
10.3309082347
 20
7.2669088054
 30
0.0
 10
10.3310456714
 20
7.2670540026
 30
0.0
 10
10.3311544629
 20
7.2671922498
 30
0.0
 10
10.331262557
 20
7.267352696
 30
0.0
 10
10.331411225
 20
7.2676032221
 30
0.0
 10
10.3315913513
 20
7.2679618897
 30
0.0
 10
10.3317966902
 20
7.2684386105
 30
0.0
 10
10.3319982367
 20
7.268963116
 30
0.0
 10
10.3321957749
 20
7.2695244568
 30
0.0
 10
10.3324584774
 20
7.2703222188
 30
0.0
 10
10.3327757613
 20
7.2713652973
 30
0.0
 10
10.3331446368
 20
7.272656525
 30
0.0
 10
10.3335087726
 20
7.2739848702
 30
0.0
 10
10.333869916
 20
7.2753382361
 30
0.0
 10
10.3342293224
 20
7.2767092322
 30
0.0
 10
10.3345879614
 20
7.2780930785
 30
0.0
 10
10.3349465546
 20
7.2794865556
 30
0.0
 10
10.3353056588
 20
7.2808874191
 30
0.0
 10
10.3357864013
 20
7.2827658242
 30
0.0
 10
10.3363900287
 20
7.285123586
 30
0.0
 10
10.3371202329
 20
7.287961187
 30
0.0
 10
10.3378584346
 20
7.2908073348
 30
0.0
 10
10.3386053441
 20
7.2936593819
 30
0.0
 10
10.3393614543
 20
7.2965155562
 30
0.0
 10
10.3401271206
 20
7.299374619
 30
0.0
 10
10.3409026067
 20
7.3022356753
 30
0.0
 10
10.3419505283
 20
7.3060543536
 30
0.0
 10
10.3432857042
 20
7.3108290584
 30
0.0
 10
10.3449285708
 20
7.3165560789
 30
0.0
 10
10.3466134849
 20
7.3222817682
 30
0.0
 10
10.3483407686
 20
7.3280047258
 30
0.0
 10
10.3495198509
 20
7.3318148181
 30
0.0
 10
10.3501165195
 20
7.3337191584
 30
0.0
  0
SPLINE
  5
370
100
AcDbEntity
  8
0
100
AcDbSpline
 62
7
  6
CONTINUOUS
 70
0
 71
3
 72
64
 73
60
 74
0
 42
0.0000001
 43
0.0000001
 44
0.0000000001
 40
0.0
 40
0.0
 40
0.0
 40
0.0
 40
0.0082489535
 40
0.0160246572
 40
0.0233635319
 40
0.0303109148
 40
0.0369220085
 40
0.0401228007
 40
0.043264979
 40
0.0463582812
 40
0.0494129669
 40
0.052439721
 40
0.0554495623
 40
0.0584537148
 40
0.0614634696
 40
0.0644900528
 40
0.0675444814
 40
0.0706374469
 40
0.073779216
 40
0.0802450798
 40
0.0870154851
 40
0.0941508365
 40
0.1017013722
 40
0.1097078477
 40
0.1182026545
 40
0.1272110235
 40
0.1367520222
 40
0.1468396276
 40
0.1574834769
 40
0.1686895188
 40
0.1804606528
 40
0.1927970506
 40
0.2056966033
 40
0.2191552065
 40
0.2331669215
 40
0.247724289
 40
0.2628183945
 40
0.2784390342
 40
0.294574882
 40
0.3112134814
 40
0.3283414352
 40
0.3459444318
 40
0.3640072835
 40
0.3825140698
 40
0.401448095
 40
0.4207919974
 40
0.4606362243
 40
0.5018966286
 40
0.5444140943
 40
0.5880224264
 40
0.632549434
 40
0.6778179632
 40
0.7236469143
 40
0.7698522443
 40
0.816247944
 40
0.8626470031
 40
0.9088624801
 40
0.9547079655
 40
1.0
 40
1.0
 40
1.0
 40
1.0
 10
10.0007717152
 20
10.9110591888
 30
0.0
 10
9.9983660398
 20
10.9132979217
 30
0.0
 10
9.9938244542
 20
10.9177923309
 30
0.0
 10
9.9876863867
 20
10.9248003988
 30
0.0
 10
9.9824376254
 20
10.9318634522
 30
0.0
 10
9.9780857692
 20
10.9389745865
 30
0.0
 10
9.9751813012
 20
10.9450014125
 30
0.0
 10
9.9733340629
 20
10.9498226396
 30
0.0
 10
9.9721907964
 20
10.9534060791
 30
0.0
 10
9.9712754911
 20
10.9569943929
 30
0.0
 10
9.9705884087
 20
10.9605866103
 30
0.0
 10
9.9701299017
 20
10.964181638
 30
0.0
 10
9.9699001862
 20
10.967778368
 30
0.0
 10
9.9698992974
 20
10.9713756671
 30
0.0
 10
9.9701272625
 20
10.9749724054
 30
0.0
 10
9.9705840376
 20
10.9785674525
 30
0.0
 10
9.9712693343
 20
10.9821596784
 30
0.0
 10
9.9721829317
 20
10.9857481057
 30
0.0
 10
9.9737193324
 20
10.990571459
 30
0.0
 10
9.9762350159
 20
10.9966074094
 30
0.0
 10
9.9801324427
 20
11.0037408145
 30
0.0
 10
9.9849302143
 20
11.0108291356
 30
0.0
 10
9.990621186
 20
11.0178656041
 30
0.0
 10
9.9971982526
 20
11.0248446822
 30
0.0
 10
10.0046539758
 20
11.0317603622
 30
0.0
 10
10.0129804414
 20
11.0386063822
 30
0.0
 10
10.02216889
 20
11.0453763555
 30
0.0
 10
10.0322098011
 20
11.0520636081
 30
0.0
 10
10.0430927151
 20
11.0586613836
 30
0.0
 10
10.054806219
 20
11.0651629292
 30
0.0
 10
10.0673380152
 20
11.0715613705
 30
0.0
 10
10.0806748288
 20
11.0778499819
 30
0.0
 10
10.0948024994
 20
11.0840220491
 30
0.0
 10
10.109705981
 20
11.090070916
 30
0.0
 10
10.1253693298
 20
11.0959901283
 30
0.0
 10
10.1417757814
 20
11.1017732511
 30
0.0
 10
10.1589077283
 20
11.1074140477
 30
0.0
 10
10.1767467602
 20
11.1129064365
 30
0.0
 10
10.1952736991
 20
11.1182444202
 30
0.0
 10
10.2144685929
 20
11.1234222617
 30
0.0
 10
10.234310768
 20
11.1284343273
 30
0.0
 10
10.2547788399
 20
11.1332751697
 30
0.0
 10
10.2758507367
 20
11.1379395816
 30
0.0
 10
10.2975037273
 20
11.1424224526
 30
0.0
 10
10.3197144724
 20
11.1467189869
 30
0.0
 10
10.3503424645
 20
11.1522473775
 30
0.0
 10
10.3898490756
 20
11.1586406239
 30
0.0
 10
10.438631397
 20
11.1654273074
 30
0.0
 10
10.4890335138
 20
11.1713725372
 30
0.0
 10
10.5408378328
 20
11.1764503987
 30
0.0
 10
10.5938209269
 20
11.1806387023
 30
0.0
 10
10.6477541309
 20
11.1839191788
 30
0.0
 10
10.7024046556
 20
11.1862775271
 30
0.0
 10
10.7575365784
 20
11.1877034649
 30
0.0
 10
10.8129118847
 20
11.1881907684
 30
0.0
 10
10.8682915065
 20
11.1877373144
 30
0.0
 10
10.9234363015
 20
11.1863450717
 30
0.0
 10
10.9781081173
 20
11.1840201552
 30
0.0
 10
11.0143521521
 20
11.1818389784
 30
0.0
 10
11.0323523338
 20
11.1805906615
 30
0.0
  0
SPLINE
  5
371
100
AcDbEntity
  8
0
100
AcDbSpline
 62
7
  6
CONTINUOUS
 70
0
 71
3
 72
61
 73
57
 74
0
 42
0.0000001
 43
0.0000001
 44
0.0000000001
 40
0.0
 40
0.0
 40
0.0
 40
0.0
 40
0.0065289246
 40
0.0127847722
 40
0.0188290368
 40
0.02179438
 40
0.0247332232
 40
0.0276550453
 40
0.0305695028
 40
0.0334863317
 40
0.0364152454
 40
0.0393658212
 40
0.042347409
 40
0.0484370932
 40
0.0547540531
 40
0.0613578412
 40
0.0647843913
 40
0.0683011107
 40
0.0756236405
 40
0.0833621546
 40
0.0915449942
 40
0.1001945952
 40
0.1093282453
 40
0.1189589864
 40
0.1290960899
 40
0.1397457782
 40
0.1509115243
 40
0.1625945215
 40
0.1747939521
 40
0.1875072
 40
0.2007301576
 40
0.2144572429
 40
0.2286817202
 40
0.2433956418
 40
0.2585900978
 40
0.2742552032
 40
0.2903802097
 40
0.3069535984
 40
0.3239630512
 40
0.3413956311
 40
0.3592376772
 40
0.396092111
 40
0.4344067025
 40
0.4740531008
 40
0.5148959969
 40
0.55679403
 40
0.5996006366
 40
0.6431648623
 40
0.6873321464
 40
0.7319450911
 40
0.7768442199
 40
0.8218687388
 40
0.8668572368
 40
0.9116486149
 40
0.9560822269
 40
1.0
 40
1.0
 40
1.0
 40
1.0
 10
10.0318563999
 20
10.8876313959
 30
0.0
 10
10.0306541074
 20
10.8896735639
 30
0.0
 10
10.0284757437
 20
10.8937803965
 30
0.0
 10
10.0258869762
 20
10.9001179185
 30
0.0
 10
10.0243544518
 20
10.9054559692
 30
0.0
 10
10.02352206
 20
10.9097143636
 30
0.0
 10
10.0230919343
 20
10.9128908732
 30
0.0
 10
10.0228523971
 20
10.9160688314
 30
0.0
 10
10.0228034555
 20
10.9192474733
 30
0.0
 10
10.0229451903
 20
10.9224259033
 30
0.0
 10
10.0232775486
 20
10.9256032221
 30
0.0
 10
10.0238004046
 20
10.9287786636
 30
0.0
 10
10.0247576584
 20
10.9330380324
 30
0.0
 10
10.0264472714
 20
10.9383748764
 30
0.0
 10
10.0292207349
 20
10.9447056331
 30
0.0
 10
10.0321254448
 20
10.9498902317
 30
0.0
 10
10.0348062508
 20
10.9540137344
 30
0.0
 10
10.0378101124
 20
10.9582331579
 30
0.0
 10
10.0420518848
 20
10.963484273
 30
0.0
 10
10.0478139704
 20
10.969655398
 30
0.0
 10
10.0543094476
 20
10.9757747881
 30
0.0
 10
10.0615319007
 20
10.9818370751
 30
0.0
 10
10.0694745924
 20
10.987837319
 30
0.0
 10
10.0781301895
 20
10.9937701348
 30
0.0
 10
10.0874905984
 20
10.9996303072
 30
0.0
 10
10.0975471319
 20
11.0054123769
 30
0.0
 10
10.1082903443
 20
11.011111026
 30
0.0
 10
10.1197101387
 20
11.0167208791
 30
0.0
 10
10.1317957337
 20
11.0222366076
 30
0.0
 10
10.144535666
 20
11.0276530103
 30
0.0
 10
10.1579178507
 20
11.0329648374
 30
0.0
 10
10.171929529
 20
11.0381670835
 30
0.0
 10
10.1865573543
 20
11.0432546714
 30
0.0
 10
10.2017873454
 20
11.0482227783
 30
0.0
 10
10.2176049483
 20
11.0530665792
 30
0.0
 10
10.2339950253
 20
11.0577814265
 30
0.0
 10
10.2509418806
 20
11.0623627916
 30
0.0
 10
10.2684292822
 20
11.0668062238
 30
0.0
 10
10.2864404584
 20
11.0711074904
 30
0.0
 10
10.3049581634
 20
11.075262415
 30
0.0
 10
10.3305769843
 20
11.0806601122
 30
0.0
 10
10.3637410703
 20
11.0869953714
 30
0.0
 10
10.4048471497
 20
11.0938747891
 30
0.0
 10
10.4475230797
 20
11.1000841388
 30
0.0
 10
10.4916050754
 20
11.105599365
 30
0.0
 10
10.5369241565
 20
11.1103990558
 30
0.0
 10
10.5833064516
 20
11.1144646021
 30
0.0
 10
10.6305739835
 20
11.1177802431
 30
0.0
 10
10.6785453349
 20
11.1203331301
 30
0.0
 10
10.727036363
 20
11.1221133755
 30
0.0
 10
10.7758609135
 20
11.1231140866
 30
0.0
 10
10.8248315359
 20
11.1233313856
 30
0.0
 10
10.8737602399
 20
11.1227644402
 30
0.0
 10
10.9224591341
 20
11.1214154261
 30
0.0
 10
10.9707411949
 20
11.1192896056
 30
0.0
 10
11.0027529346
 20
11.1173463188
 30
0.0
 10
11.0186555549
 20
11.1162434683
 30
0.0
  0
SPLINE
  5
372
100
AcDbEntity
  8
0
100
AcDbSpline
 62
7
  6
CONTINUOUS
 70
0
 71
3
 72
47
 73
43
 74
0
 42
0.0000001
 43
0.0000001
 44
0.0000000001
 40
0.0
 40
0.0
 40
0.0
 40
0.0
 40
0.006481199
 40
0.0129999807
 40
0.0195932372
 40
0.0262964857
 40
0.033143369
 40
0.0401652475
 40
0.0548394282
 40
0.0625482082
 40
0.0705310048
 40
0.0788061409
 40
0.0873895173
 40
0.0962949375
 40
0.1055342884
 40
0.1151175908
 40
0.1250533742
 40
0.1353486968
 40
0.1460092864
 40
0.1570398259
 40
0.1684438518
 40
0.1923805289
 40
0.2178326631
 40
0.2448004847
 40
0.2732748369
 40
0.3032385833
 40
0.3346677903
 40
0.3675326008
 40
0.4017978707
 40
0.4374237486
 40
0.4743662075
 40
0.5125774317
 40
0.5520060966
 40
0.5925976963
 40
0.6342948463
 40
0.6770375132
 40
0.7207631909
 40
0.7654070832
 40
0.8109024877
 40
0.8571807897
 40
0.9041710584
 40
1.0
 40
1.0
 40
1.0
 40
1.0
 10
11.5959092234
 20
10.8973003023
 30
0.0
 10
11.5959092164
 20
10.8986811591
 30
0.0
 10
11.5957994187
 20
10.9014521144
 30
0.0
 10
11.5953060117
 20
10.9056013739
 30
0.0
 10
11.5944840146
 20
10.9097465917
 30
0.0
 10
11.5933342086
 20
10.9138853636
 30
0.0
 10
11.5918572671
 20
10.9180160368
 30
0.0
 10
11.5894179645
 20
10.9235908686
 30
0.0
 10
11.5863392306
 20
10.9290689107
 30
0.0
 10
11.5827002043
 20
10.9344204499
 30
0.0
 10
11.5796043933
 20
10.9384844536
 30
0.0
 10
11.5761888408
 20
10.9425299954
 30
0.0
 10
11.5724548805
 20
10.9465560182
 30
0.0
 10
11.5684041528
 20
10.9505608479
 30
0.0
 10
11.5640383034
 20
10.9545429198
 30
0.0
 10
11.5593592106
 20
10.958500734
 30
0.0
 10
11.5543687652
 20
10.962432672
 30
0.0
 10
11.5490690324
 20
10.9663371665
 30
0.0
 10
11.5434622258
 20
10.9702126786
 30
0.0
 10
11.5375506045
 20
10.9740576094
 30
0.0
 10
11.5291288704
 20
10.9792249039
 30
0.0
 10
11.5178385256
 20
10.9855828204
 30
0.0
 10
11.5033275494
 20
10.9929466267
 30
0.0
 10
11.487666427
 20
11.0001512586
 30
0.0
 10
11.4708810657
 20
11.007184776
 30
0.0
 10
11.4529989346
 20
11.0140355508
 30
0.0
 10
11.4340495571
 20
11.0206921432
 30
0.0
 10
11.4140642754
 20
11.0271433958
 30
0.0
 10
11.3930762544
 20
11.0333784855
 30
0.0
 10
11.3711203935
 20
11.039386951
 30
0.0
 10
11.3482332424
 20
11.04515869
 30
0.0
 10
11.3244529348
 20
11.0506839821
 30
0.0
 10
11.2998191361
 20
11.0559535406
 30
0.0
 10
11.2743729655
 20
11.0609585128
 30
0.0
 10
11.2481569081
 20
11.0656904802
 30
0.0
 10
11.2212147451
 20
11.0701414734
 30
0.0
 10
11.1935915025
 20
11.074304015
 30
0.0
 10
11.1653333345
 20
11.0781711243
 30
0.0
 10
11.1364874816
 20
11.081736286
 30
0.0
 10
11.1071021838
 20
11.0849935185
 30
0.0
 10
11.0670073508
 20
11.0889442137
 30
0.0
 10
11.036673547
 20
11.0913876279
 30
0.0
 10
11.0163055602
 20
11.0928001526
 30
0.0
  0
SPLINE
  5
373
100
AcDbEntity
  8
0
100
AcDbSpline
 62
7
  6
CONTINUOUS
 70
0
 71
3
 72
39
 73
35
 74
0
 42
0.0000001
 43
0.0000001
 44
0.0000000001
 40
0.0
 40
0.0
 40
0.0
 40
0.0
 40
0.0311159723
 40
0.0620233248
 40
0.0927351404
 40
0.1232711776
 40
0.1536587326
 40
0.1839312111
 40
0.2141268393
 40
0.2442870992
 40
0.2744549754
 40
0.3046731314
 40
0.3349820899
 40
0.3654185435
 40
0.3960138648
 40
0.4267928822
 40
0.4577729963
 40
0.4889636214
 40
0.5203659689
 40
0.551973178
 40
0.5837707188
 40
0.6157370639
 40
0.6478445901
 40
0.6800606405
 40
0.7123487311
 40
0.7446698622
 40
0.7769838843
 40
0.8092508939
 40
0.8414326243
 40
0.8734937998
 40
0.9054034123
 40
0.9371359058
 40
0.9686717941
 40
1.0
 40
1.0
 40
1.0
 40
1.0
 10
9.561177321
 20
7.4399432307
 30
0.0
 10
9.561177321
 20
7.4327005306
 30
0.0
 10
9.560470237
 20
7.4182532116
 30
0.0
 10
9.5572724631
 20
7.3968710785
 30
0.0
 10
9.5519712662
 20
7.3760475018
 30
0.0
 10
9.5446167735
 20
7.3559862218
 30
0.0
 10
9.5352794197
 20
7.3368805282
 30
0.0
 10
9.5240488249
 20
7.3189155272
 30
0.0
 10
9.5110331349
 20
7.3022652006
 30
0.0
 10
9.4963581312
 20
7.2870907811
 30
0.0
 10
9.4801657439
 20
7.2735391893
 30
0.0
 10
9.4626127424
 20
7.2617414953
 30
0.0
 10
9.4438691882
 20
7.2518114513
 30
0.0
 10
9.4241165254
 20
7.2438446296
 30
0.0
 10
9.4035458484
 20
7.2379173871
 30
0.0
 10
9.3823559671
 20
7.234086089
 30
0.0
 10
9.3607513744
 20
7.2323869117
 30
0.0
 10
9.3389403213
 20
7.2328353723
 30
0.0
 10
9.3171327743
 20
7.2354262335
 30
0.0
 10
9.2955384486
 20
7.2401338647
 30
0.0
 10
9.2743648226
 20
7.2469122982
 30
0.0
 10
9.2538151585
 20
7.2556957495
 30
0.0
 10
9.2340866881
 20
7.2663994561
 30
0.0
 10
9.2153686722
 20
7.2789202535
 30
0.0
 10
9.1978406359
 20
7.2931376576
 30
0.0
 10
9.1816708013
 20
7.308915129
 30
0.0
 10
9.1670143348
 20
7.3261011481
 30
0.0
 10
9.154011957
 20
7.3445307761
 30
0.0
 10
9.1427887317
 20
7.3640272356
 30
0.0
 10
9.1334526496
 20
7.3844035048
 30
0.0
 10
9.1260937342
 20
7.4054638713
 30
0.0
 10
9.1207833382
 20
7.427006903
 30
0.0
 10
9.1175729225
 20
7.4488229687
 30
0.0
 10
9.1168514146
 20
7.4634652364
 30
0.0
 10
9.1168514146
 20
7.470757337
 30
0.0
  0
SPLINE
  5
374
100
AcDbEntity
  8
0
100
AcDbSpline
 62
7
  6
CONTINUOUS
 70
0
 71
3
 72
54
 73
50
 74
0
 42
0.0000001
 43
0.0000001
 44
0.0000000001
 40
0.0
 40
0.0
 40
0.0
 40
0.0
 40
0.0077849847
 40
0.0153157378
 40
0.0226293199
 40
0.0297666199
 40
0.0367719875
 40
0.0436926148
 40
0.0505775923
 40
0.0574768585
 40
0.0644400123
 40
0.0715151818
 40
0.0787480147
 40
0.0861809787
 40
0.1017889367
 40
0.1100386657
 40
0.1186196171
 40
0.1275550733
 40
0.1368648731
 40
0.146565934
 40
0.1566723388
 40
0.1671958083
 40
0.1781459031
 40
0.1895302065
 40
0.2013547226
 40
0.2136238077
 40
0.2263405936
 40
0.2395069458
 40
0.2531236446
 40
0.2671905764
 40
0.281706619
 40
0.2966699888
 40
0.3120780566
 40
0.3442136446
 40
0.3780813717
 40
0.413639424
 40
0.4508385264
 40
0.4896228121
 40
0.5299305183
 40
0.5716945936
 40
0.6148432202
 40
0.6593002547
 40
0.7049856324
 40
0.7518157176
 40
0.7997035906
 40
0.8485596313
 40
0.8982908322
 40
0.9488039283
 40
1.0
 40
1.0
 40
1.0
 40
1.0
 10
11.5956968804
 20
10.8871843078
 30
0.0
 10
11.5966014365
 20
10.8886982861
 30
0.0
 10
11.5982842588
 20
10.8917362055
 30
0.0
 10
11.6004436287
 20
10.8963906312
 30
0.0
 10
11.6021915777
 20
10.9010590012
 30
0.0
 10
11.6035264406
 20
10.9057385316
 30
0.0
 10
11.604446863
 20
10.9104265421
 30
0.0
 10
11.6049519946
 20
10.9151200077
 30
0.0
 10
11.6050410823
 20
10.9198157955
 30
0.0
 10
11.6047141724
 20
10.9245106491
 30
0.0
 10
11.6039715563
 20
10.9292013832
 30
0.0
 10
11.6028140909
 20
10.9338848562
 30
0.0
 10
11.6012429014
 20
10.9385584776
 30
0.0
 10
11.5985552966
 20
10.9448743337
 30
0.0
 10
11.595054696
 20
10.9510691159
 30
0.0
 10
11.5908530059
 20
10.9571013503
 30
0.0
 10
11.5872378282
 20
10.9616886818
 30
0.0
 10
11.5832198245
 20
10.9662516524
 30
0.0
 10
11.5788009284
 20
10.9707888548
 30
0.0
 10
11.5739834835
 20
10.9752978742
 30
0.0
 10
11.5687700324
 20
10.9797766771
 30
0.0
 10
11.5631632393
 20
10.9842230379
 30
0.0
 10
11.5571659723
 20
10.9886347503
 30
0.0
 10
11.5507813393
 20
10.9930096759
 30
0.0
 10
11.5440125659
 20
10.9973455203
 30
0.0
 10
11.5368631743
 20
11.0016401731
 30
0.0
 10
11.52933681
 20
11.0058913731
 30
0.0
 10
11.5214373642
 20
11.0100969609
 30
0.0
 10
11.5131689202
 20
11.0142547888
 30
0.0
 10
11.5045357317
 20
11.0183626467
 30
0.0
 10
11.495542297
 20
11.0224184755
 30
0.0
 10
11.4861932417
 20
11.0264201244
 30
0.0
 10
11.4730757479
 20
11.0317555649
 30
0.0
 10
11.4558137795
 20
11.0382595846
 30
0.0
 10
11.4340425805
 20
11.0457105698
 30
0.0
 10
11.4109786748
 20
11.0528975996
 30
0.0
 10
11.3866700189
 20
11.0598056001
 30
0.0
 10
11.3611669456
 20
11.0664200604
 30
0.0
 10
11.33452245
 20
11.0727270843
 30
0.0
 10
11.3067919425
 20
11.0787134197
 30
0.0
 10
11.2780331493
 20
11.0843664851
 30
0.0
 10
11.2483059707
 20
11.0896744011
 30
0.0
 10
11.2176723534
 20
11.0946260139
 30
0.0
 10
11.1861961675
 20
11.0992109151
 30
0.0
 10
11.1539430238
 20
11.1034194918
 30
0.0
 10
11.1209803066
 20
11.1072428763
 30
0.0
 10
11.0873765351
 20
11.1106731158
 30
0.0
 10
11.0532021724
 20
11.1137029081
 30
0.0
 10
11.0302257798
 20
11.1154410705
 30
0.0
 10
11.0186555549
 20
11.1162434683
 30
0.0
  0
SPLINE
  5
375
100
AcDbEntity
  8
0
100
AcDbSpline
 62
7
  6
CONTINUOUS
 70
0
 71
3
 72
71
 73
67
 74
0
 42
0.0000001
 43
0.0000001
 44
0.0000000001
 40
0.0
 40
0.0
 40
0.0
 40
0.0
 40
0.0077182325
 40
0.0113232019
 40
0.0147722188
 40
0.0212544076
 40
0.0243260006
 40
0.0273091778
 40
0.030226123
 40
0.0331007798
 40
0.0359582479
 40
0.0388241206
 40
0.0417237398
 40
0.0446814999
 40
0.047720284
 40
0.0508609779
 40
0.0575164285
 40
0.0610661945
 40
0.0647794657
 40
0.0686665157
 40
0.0727358581
 40
0.0769945889
 40
0.0814484305
 40
0.09095717
 40
0.1012890762
 40
0.1124566923
 40
0.1244627144
 40
0.1373021088
 40
0.1509635526
 40
0.1654303786
 40
0.1806814581
 40
0.1966918541
 40
0.2134332024
 40
0.2308741033
 40
0.2489805255
 40
0.2677160248
 40
0.2870419216
 40
0.3069176064
 40
0.3273007196
 40
0.3694107142
 40
0.4130051275
 40
0.4576982081
 40
0.5030914414
 40
0.5487782381
 40
0.5943486715
 40
0.6393941383
 40
0.683512056
 40
0.7263105395
 40
0.747097243
 40
0.7674144905
 40
0.7872185127
 40
0.8064671728
 40
0.8251200903
 40
0.8431388875
 40
0.8604874439
 40
0.877132046
 40
0.8930416766
 40
0.908188441
 40
0.9225478693
 40
0.9360993721
 40
0.9488269776
 40
0.9607201709
 40
0.9717747984
 40
0.9819946616
 40
0.99139442
 40
1.0
 40
1.0
 40
1.0
 40
1.0
 10
12.5049645233
 20
7.3805092508
 30
0.0
 10
12.5060936072
 20
7.3815600095
 30
0.0
 10
12.50782402
 20
7.3830270046
 30
0.0
 10
12.5102393036
 20
7.384727357
 30
0.0
 10
12.5125475605
 20
7.3861399669
 30
0.0
 10
12.5149024272
 20
7.3872664835
 30
0.0
 10
12.5172822647
 20
7.3880578076
 30
0.0
 10
12.5190288632
 20
7.3884733675
 30
0.0
 10
12.5207674479
 20
7.3887206846
 30
0.0
 10
12.52249676
 20
7.3887994504
 30
0.0
 10
12.5242153532
 20
7.3887094716
 30
0.0
 10
12.5259217561
 20
7.3884507132
 30
0.0
 10
12.5276145576
 20
7.3880235839
 30
0.0
 10
12.5292924325
 20
7.3874286245
 30
0.0
 10
12.5309542656
 20
7.3866664152
 30
0.0
 10
12.5331899473
 20
7.3854043
 30
0.0
 10
12.5353487419
 20
7.3838193628
 30
0.0
 10
12.537421343
 20
7.3819630066
 30
0.0
 10
12.5389891513
 20
7.3803777154
 30
0.0
 10
12.5405354972
 20
7.3786307493
 30
0.0
 10
12.5420598696
 20
7.3767230047
 30
0.0
 10
12.5435613736
 20
7.3746556188
 30
0.0
 10
12.5455758539
 20
7.3716212791
 30
0.0
 10
12.5480213868
 20
7.3674220421
 30
0.0
 10
12.550790137
 20
7.3618746577
 30
0.0
 10
12.5534480093
 20
7.3557259933
 30
0.0
 10
12.5559889088
 20
7.3489903347
 30
0.0
 10
12.5584069241
 20
7.3416830732
 30
0.0
 10
12.5606962675
 20
7.3338212499
 30
0.0
 10
12.5628514614
 20
7.3254233266
 30
0.0
 10
12.5648673071
 20
7.3165091436
 30
0.0
 10
12.5667389021
 20
7.3070998271
 30
0.0
 10
12.5684617072
 20
7.2972177464
 30
0.0
 10
12.5700315586
 20
7.2868864443
 30
0.0
 10
12.5714446346
 20
7.2761305572
 30
0.0
 10
12.5726974927
 20
7.2649757574
 30
0.0
 10
12.5737871022
 20
7.2534487029
 30
0.0
 10
12.5747108503
 20
7.2415769216
 30
0.0
 10
12.5757292398
 20
7.2251476902
 30
0.0
 10
12.576560383
 20
7.2039606966
 30
0.0
 10
12.5768625959
 20
7.1779014222
 30
0.0
 10
12.5764764986
 20
7.1511871456
 30
0.0
 10
12.5754055001
 20
7.1240732629
 30
0.0
 10
12.5736596736
 20
7.096818806
 30
0.0
 10
12.5712556597
 20
7.0696842648
 30
0.0
 10
12.5682165459
 20
7.0429288738
 30
0.0
 10
12.5645716006
 20
7.0168084148
 30
0.0
 10
12.5610251654
 20
6.9955765868
 30
0.0
 10
12.5579019515
 20
6.9791028295
 30
0.0
 10
12.5554542714
 20
6.9671794004
 30
0.0
 10
12.5528845608
 20
6.9555962887
 30
0.0
 10
12.550198978
 20
6.9443811602
 30
0.0
 10
12.54740398
 20
6.9335608231
 30
0.0
 10
12.5445062843
 20
6.9231611179
 30
0.0
 10
12.5415128842
 20
6.9132068529
 30
0.0
 10
12.5384309824
 20
6.9037217574
 30
0.0
 10
12.5352679775
 20
6.8947284152
 30
0.0
 10
12.5320314974
 20
6.8862481778
 30
0.0
 10
12.5287293227
 20
6.8783011237
 30
0.0
 10
12.5253693395
 20
6.8709060074
 30
0.0
 10
12.5219595708
 20
6.864080156
 30
0.0
 10
12.5185080575
 20
6.8578394105
 30
0.0
 10
12.5150228581
 20
6.8521981746
 30
0.0
 10
12.5115116426
 20
6.8471689224
 30
0.0
 10
12.50798244
 20
6.8427634736
 30
0.0
 10
12.505516432
 20
6.8401359486
 30
0.0
 10
12.5042795301
 20
6.8389411931
 30
0.0
  0
SPLINE
  5
376
100
AcDbEntity
  8
0
100
AcDbSpline
 62
7
  6
CONTINUOUS
 70
0
 71
3
 72
39
 73
35
 74
0
 42
0.0000001
 43
0.0000001
 44
0.0000000001
 40
0.0
 40
0.0
 40
0.0
 40
0.0
 40
0.0311159723
 40
0.0620233248
 40
0.0927351404
 40
0.1232711776
 40
0.1536587326
 40
0.1839312111
 40
0.2141268393
 40
0.2442870992
 40
0.2744549754
 40
0.3046731314
 40
0.3349820899
 40
0.3654185435
 40
0.3960138648
 40
0.4267928822
 40
0.4577729963
 40
0.4889636214
 40
0.5203659689
 40
0.551973178
 40
0.5837707188
 40
0.6157370639
 40
0.6478445901
 40
0.6800606405
 40
0.7123487311
 40
0.7446698622
 40
0.7769838843
 40
0.8092508939
 40
0.8414326243
 40
0.8734937998
 40
0.9054034123
 40
0.9371359058
 40
0.9686717941
 40
1.0
 40
1.0
 40
1.0
 40
1.0
 10
11.2901846525
 20
6.2633133235
 30
0.0
 10
11.2901846525
 20
6.2705560237
 30
0.0
 10
11.2908917365
 20
6.2850033427
 30
0.0
 10
11.2940895104
 20
6.3063854758
 30
0.0
 10
11.2993907073
 20
6.3272090525
 30
0.0
 10
11.3067452
 20
6.3472703325
 30
0.0
 10
11.3160825537
 20
6.366376026
 30
0.0
 10
11.3273131486
 20
6.384341027
 30
0.0
 10
11.3403288385
 20
6.4009913537
 30
0.0
 10
11.3550038423
 20
6.4161657732
 30
0.0
 10
11.3711962295
 20
6.4297173649
 30
0.0
 10
11.388749231
 20
6.441515059
 30
0.0
 10
11.4074927853
 20
6.451445103
 30
0.0
 10
11.4272454481
 20
6.4594119247
 30
0.0
 10
11.4478161251
 20
6.4653391672
 30
0.0
 10
11.4690060064
 20
6.4691704653
 30
0.0
 10
11.4906105991
 20
6.4708696426
 30
0.0
 10
11.5124216522
 20
6.4704211819
 30
0.0
 10
11.5342291991
 20
6.4678303208
 30
0.0
 10
11.5558235249
 20
6.4631226896
 30
0.0
 10
11.5769971509
 20
6.4563442561
 30
0.0
 10
11.597546815
 20
6.4475608048
 30
0.0
 10
11.6172752854
 20
6.4368570981
 30
0.0
 10
11.6359933012
 20
6.4243363008
 30
0.0
 10
11.6535213376
 20
6.4101188967
 30
0.0
 10
11.6696911721
 20
6.3943414253
 30
0.0
 10
11.6843476387
 20
6.3771554062
 30
0.0
 10
11.6973500165
 20
6.3587257781
 30
0.0
 10
11.7085732418
 20
6.3392293187
 30
0.0
 10
11.7179093238
 20
6.3188530494
 30
0.0
 10
11.7252682392
 20
6.297792683
 30
0.0
 10
11.7305786352
 20
6.2762496513
 30
0.0
 10
11.733789051
 20
6.2544335856
 30
0.0
 10
11.7345105589
 20
6.2397913179
 30
0.0
 10
11.7345105589
 20
6.2324992173
 30
0.0
  0
SPLINE
  5
377
100
AcDbEntity
  8
0
100
AcDbSpline
 62
7
  6
CONTINUOUS
 70
0
 71
3
 72
15
 73
11
 74
0
 42
0.0000001
 43
0.0000001
 44
0.0000000001
 40
0.0
 40
0.0
 40
0.0
 40
0.0
 40
0.1273482888
 40
0.2538606703
 40
0.3795878487
 40
0.5046051206
 40
0.6290174369
 40
0.7529533749
 40
0.8765605786
 40
1.0
 40
1.0
 40
1.0
 40
1.0
 10
11.3244775045
 20
6.2684376769
 30
0.0
 10
11.3244775045
 20
6.2746588734
 30
0.0
 10
11.3250715098
 20
6.2870690313
 30
0.0
 10
11.3277578012
 20
6.3054455746
 30
0.0
 10
11.3322121385
 20
6.3233603869
 30
0.0
 10
11.338394284
 20
6.340645919
 30
0.0
 10
11.3462475378
 20
6.3571427621
 30
0.0
 10
11.355700258
 20
6.3726986012
 30
0.0
 10
11.366663592
 20
6.3871676746
 30
0.0
 10
11.3749184316
 20
6.3960062072
 30
0.0
 10
11.3792557244
 20
6.4001956821
 30
0.0
  0
SPLINE
  5
378
100
AcDbEntity
  8
0
100
AcDbSpline
 62
7
  6
CONTINUOUS
 70
0
 71
3
 72
15
 73
11
 74
0
 42
0.0000001
 43
0.0000001
 44
0.0000000001
 40
0.0
 40
0.0
 40
0.0
 40
0.0
 40
0.1273482888
 40
0.2538606703
 40
0.3795878487
 40
0.5046051206
 40
0.6290174369
 40
0.7529533749
 40
0.8765605786
 40
1.0
 40
1.0
 40
1.0
 40
1.0
 10
9.1511442666
 20
6.4191588489
 30
0.0
 10
9.1511442666
 20
6.4253800454
 30
0.0
 10
9.1517382719
 20
6.4377902032
 30
0.0
 10
9.1544245633
 20
6.4561667466
 30
0.0
 10
9.1588789005
 20
6.4740815589
 30
0.0
 10
9.1650610461
 20
6.491367091
 30
0.0
 10
9.1729142999
 20
6.507863934
 30
0.0
 10
9.18236702
 20
6.5234197732
 30
0.0
 10
9.193330354
 20
6.5378888466
 30
0.0
 10
9.2015851937
 20
6.5467273792
 30
0.0
 10
9.2059224865
 20
6.5509168541
 30
0.0
  0
SPLINE
  5
379
100
AcDbEntity
  8
0
100
AcDbSpline
 62
7
  6
CONTINUOUS
 70
0
 71
3
 72
39
 73
35
 74
0
 42
0.0000001
 43
0.0000001
 44
0.0000000001
 40
0.0
 40
0.0
 40
0.0
 40
0.0
 40
0.0311159723
 40
0.0620233248
 40
0.0927351404
 40
0.1232711776
 40
0.1536587326
 40
0.1839312111
 40
0.2141268393
 40
0.2442870992
 40
0.2744549754
 40
0.3046731314
 40
0.3349820899
 40
0.3654185435
 40
0.3960138648
 40
0.4267928822
 40
0.4577729963
 40
0.4889636214
 40
0.5203659689
 40
0.551973178
 40
0.5837707188
 40
0.6157370639
 40
0.6478445901
 40
0.6800606405
 40
0.7123487311
 40
0.7446698622
 40
0.7769838843
 40
0.8092508939
 40
0.8414326243
 40
0.8734937998
 40
0.9054034123
 40
0.9371359058
 40
0.9686717941
 40
1.0
 40
1.0
 40
1.0
 40
1.0
 10
11.7345105589
 20
6.2324992173
 30
0.0
 10
11.7345105589
 20
6.2252565171
 30
0.0
 10
11.7338034749
 20
6.2108091981
 30
0.0
 10
11.730605701
 20
6.189427065
 30
0.0
 10
11.7253045041
 20
6.1686034883
 30
0.0
 10
11.7179500114
 20
6.1485422083
 30
0.0
 10
11.7086126577
 20
6.1294365148
 30
0.0
 10
11.6973820628
 20
6.1114715138
 30
0.0
 10
11.6843663729
 20
6.0948211872
 30
0.0
 10
11.6696913691
 20
6.0796467676
 30
0.0
 10
11.6534989818
 20
6.0660951759
 30
0.0
 10
11.6359459803
 20
6.0542974818
 30
0.0
 10
11.6172024261
 20
6.0443674378
 30
0.0
 10
11.5974497633
 20
6.0364006161
 30
0.0
 10
11.5768790863
 20
6.0304733736
 30
0.0
 10
11.555689205
 20
6.0266420756
 30
0.0
 10
11.5340846123
 20
6.0249428982
 30
0.0
 10
11.5122735592
 20
6.0253913589
 30
0.0
 10
11.4904660122
 20
6.0279822201
 30
0.0
 10
11.4688716865
 20
6.0326898512
 30
0.0
 10
11.4476980605
 20
6.0394682847
 30
0.0
 10
11.4271483964
 20
6.048251736
 30
0.0
 10
11.407419926
 20
6.0589554427
 30
0.0
 10
11.3887019101
 20
6.07147624
 30
0.0
 10
11.3711738738
 20
6.0856936442
 30
0.0
 10
11.3550040392
 20
6.1014711155
 30
0.0
 10
11.3403475727
 20
6.1186571347
 30
0.0
 10
11.3273451949
 20
6.1370867627
 30
0.0
 10
11.3161219696
 20
6.1565832221
 30
0.0
 10
11.3067858876
 20
6.1769594914
 30
0.0
 10
11.2994269721
 20
6.1980198578
 30
0.0
 10
11.2941165761
 20
6.2195628896
 30
0.0
 10
11.2909061604
 20
6.2413789552
 30
0.0
 10
11.2901846525
 20
6.2560212229
 30
0.0
 10
11.2901846525
 20
6.2633133235
 30
0.0
  0
SPLINE
  5
37A
100
AcDbEntity
  8
0
100
AcDbSpline
 62
7
  6
CONTINUOUS
 70
0
 71
3
 72
15
 73
11
 74
0
 42
0.0000001
 43
0.0000001
 44
0.0000000001
 40
0.0
 40
0.0
 40
0.0
 40
0.0
 40
0.1273482888
 40
0.2538606703
 40
0.3795878487
 40
0.5046051206
 40
0.6290174369
 40
0.7529533749
 40
0.8765605786
 40
1.0
 40
1.0
 40
1.0
 40
1.0
 10
9.1511442666
 20
7.4758816904
 30
0.0
 10
9.1511442666
 20
7.4821028869
 30
0.0
 10
9.1517382719
 20
7.4945130447
 30
0.0
 10
9.1544245633
 20
7.5128895881
 30
0.0
 10
9.1588789005
 20
7.5308044004
 30
0.0
 10
9.1650610461
 20
7.5480899325
 30
0.0
 10
9.1729142999
 20
7.5645867755
 30
0.0
 10
9.18236702
 20
7.5801426147
 30
0.0
 10
9.193330354
 20
7.5946116881
 30
0.0
 10
9.2015851937
 20
7.6034502207
 30
0.0
 10
9.2059224865
 20
7.6076396956
 30
0.0
  0
SPLINE
  5
37B
100
AcDbEntity
  8
0
100
AcDbSpline
 62
7
  6
CONTINUOUS
 70
0
 71
3
 72
15
 73
11
 74
0
 42
0.0000001
 43
0.0000001
 44
0.0000000001
 40
0.0
 40
0.0
 40
0.0
 40
0.0
 40
0.1273482888
 40
0.2538606703
 40
0.3795878487
 40
0.5046051206
 40
0.6290174369
 40
0.7529533749
 40
0.8765605786
 40
1.0
 40
1.0
 40
1.0
 40
1.0
 10
11.3244775045
 20
7.3251605184
 30
0.0
 10
11.3244775045
 20
7.3313817149
 30
0.0
 10
11.3250715098
 20
7.3437918728
 30
0.0
 10
11.3277578012
 20
7.3621684161
 30
0.0
 10
11.3322121385
 20
7.3800832284
 30
0.0
 10
11.338394284
 20
7.3973687605
 30
0.0
 10
11.3462475378
 20
7.4138656036
 30
0.0
 10
11.355700258
 20
7.4294214427
 30
0.0
 10
11.366663592
 20
7.4438905161
 30
0.0
 10
11.3749184316
 20
7.4527290487
 30
0.0
 10
11.3792557244
 20
7.4569185236
 30
0.0
  0
SPLINE
  5
37C
100
AcDbEntity
  8
0
100
AcDbSpline
 62
7
  6
CONTINUOUS
 70
0
 71
3
 72
23
 73
19
 74
0
 42
0.0000001
 43
0.0000001
 44
0.0000000001
 40
0.0
 40
0.0
 40
0.0
 40
0.0
 40
0.0638366963
 40
0.1274608181
 40
0.1908696788
 40
0.2540697554
 40
0.3170656913
 40
0.379865362
 40
0.4424783646
 40
0.5049161218
 40
0.5671918575
 40
0.629320409
 40
0.6913181197
 40
0.753202679
 40
0.8149929458
 40
0.8767087557
 40
0.9383707167
 40
1.0
 40
1.0
 40
1.0
 40
1.0
 10
10.4339631895
 20
9.5236518867
 30
0.0
 10
10.4416487554
 20
9.5231188909
 30
0.0
 10
10.4570226443
 20
9.5224251494
 30
0.0
 10
10.4800660136
 20
9.5225081093
 30
0.0
 10
10.503001548
 20
9.523716349
 30
0.0
 10
10.5257740796
 20
9.5260468423
 30
0.0
 10
10.5483302283
 20
9.5294943184
 30
0.0
 10
10.5706165506
 20
9.5340506326
 30
0.0
 10
10.5925804195
 20
9.5397050589
 30
0.0
 10
10.6141699179
 20
9.546444284
 30
0.0
 10
10.6353340096
 20
9.5542524268
 30
0.0
 10
10.6560226473
 20
9.5631111041
 30
0.0
 10
10.6761869057
 20
9.572999409
 30
0.0
 10
10.6957791221
 20
9.5838939876
 30
0.0
 10
10.7147529223
 20
9.595769071
 30
0.0
 10
10.733063584
 20
9.6085967581
 30
0.0
 10
10.7506672021
 20
9.6223462128
 30
0.0
 10
10.7619069462
 20
9.6321081572
 30
0.0
 10
10.7673934117
 20
9.6371298101
 30
0.0
  0
SPLINE
  5
37D
100
AcDbEntity
  8
0
100
AcDbSpline
 62
7
  6
CONTINUOUS
 70
0
 71
3
 72
39
 73
35
 74
0
 42
0.0000001
 43
0.0000001
 44
0.0000000001
 40
0.0
 40
0.0
 40
0.0
 40
0.0
 40
0.0311300282
 40
0.0624114199
 40
0.0938385199
 40
0.1254018319
 40
0.1570895724
 40
0.1888874018
 40
0.2207788628
 40
0.2527456924
 40
0.284768188
 40
0.3168255904
 40
0.3488964803
 40
0.3809591832
 40
0.412992179
 40
0.4449745094
 40
0.4768861776
 40
0.5087085343
 40
0.5404246458
 40
0.5720196372
 40
0.6034810068
 40
0.6347989019
 40
0.66596635
 40
0.6969794412
 40
0.7278374531
 40
0.7585429141
 40
0.7891015995
 40
0.8195224542
 40
0.8498174407
 40
0.8800013137
 40
0.9100913225
 40
0.9401068459
 40
0.9700689673
 40
1.0
 40
1.0
 40
1.0
 40
1.0
 10
10.4339631895
 20
9.5236518867
 30
0.0
 10
10.4224830157
 20
9.5244480395
 30
0.0
 10
10.3995161304
 20
9.526875447
 30
0.0
 10
10.3653392158
 20
9.5329732186
 30
0.0
 10
10.3315205329
 20
9.5415048509
 30
0.0
 10
10.2982388267
 20
9.5524254942
 30
0.0
 10
10.2656671649
 20
9.5656778336
 30
0.0
 10
10.233975598
 20
9.5811925153
 30
0.0
 10
10.2033293687
 20
9.5988883943
 30
0.0
 10
10.1738882987
 20
9.6186729826
 30
0.0
 10
10.1458059094
 20
9.6404429491
 30
0.0
 10
10.1192286506
 20
9.6640846536
 30
0.0
 10
10.0942951401
 20
9.689474733
 30
0.0
 10
10.0711354553
 20
9.716480742
 30
0.0
 10
10.0498704425
 20
9.7449618199
 30
0.0
 10
10.0306110882
 20
9.7747694217
 30
0.0
 10
10.0134579651
 20
9.8057480997
 30
0.0
 10
9.9985007077
 20
9.8377363008
 30
0.0
 10
9.9858175468
 20
9.870567197
 30
0.0
 10
9.9754749073
 20
9.9040695449
 30
0.0
 10
9.9675270259
 20
9.9380685565
 30
0.0
 10
9.962015681
 20
9.9723868101
 30
0.0
 10
9.9589699806
 20
10.0068451656
 30
0.0
 10
9.958406197
 20
10.0412636845
 30
0.0
 10
9.9603276692
 20
10.0754625588
 30
0.0
 10
9.9647247685
 20
10.1092630398
 30
0.0
 10
9.9715748925
 20
10.1424883733
 30
0.0
 10
9.9808426016
 20
10.1749647273
 30
0.0
 10
9.9924797674
 20
10.2065220874
 30
0.0
 10
10.00642586
 20
10.2369952133
 30
0.0
 10
10.0226080342
 20
10.2662243002
 30
0.0
 10
10.0409422811
 20
10.294056647
 30
0.0
 10
10.0613308824
 20
10.3203444943
 30
0.0
 10
10.0762301896
 20
10.3367571335
 30
0.0
 10
10.083979003
 20
10.3446551999
 30
0.0
  0
SPLINE
  5
37E
100
AcDbEntity
  8
0
100
AcDbSpline
 62
7
  6
CONTINUOUS
 70
0
 71
3
 72
51
 73
47
 74
0
 42
0.0000001
 43
0.0000001
 44
0.0000000001
 40
0.0
 40
0.0
 40
0.0
 40
0.0
 40
0.0313777371
 40
0.0629461967
 40
0.0946942488
 40
0.1266039234
 40
0.1586525693
 40
0.1908131864
 40
0.2230553455
 40
0.2553461437
 40
0.2876512091
 40
0.3199357409
 40
0.3521655563
 40
0.3843081265
 40
0.4163335725
 40
0.4482156067
 40
0.479932397
 40
0.5114673102
 40
0.5428095269
 40
0.5739545053
 40
0.6049042409
 40
0.6356673201
 40
0.6509876151
 40
0.6662673902
 40
0.6815094598
 40
0.6967169686
 40
0.7118933716
 40
0.7270424108
 40
0.7421680718
 40
0.7572745538
 40
0.7723662373
 40
0.7874476344
 40
0.8025233521
 40
0.8175980544
 40
0.8326764108
 40
0.8477630562
 40
0.8628625536
 40
0.8779793437
 40
0.8931177065
 40
0.9082817301
 40
0.9234752649
 40
0.9387018897
 40
0.9539648954
 40
0.9692672438
 40
0.9846115231
 40
1.0
 40
1.0
 40
1.0
 40
1.0
 10
10.4339631895
 20
9.7004163234
 30
0.0
 10
10.4248512729
 20
9.701048237
 30
0.0
 10
10.4066194476
 20
9.7031507316
 30
0.0
 10
10.3795956109
 20
9.7087581038
 30
0.0
 10
10.3530247105
 20
9.716782064
 30
0.0
 10
10.3271305769
 20
9.7271553162
 30
0.0
 10
10.3021276575
 20
9.7397910558
 30
0.0
 10
10.2782238688
 20
9.7545838191
 30
0.0
 10
10.2556177585
 20
9.7714104198
 30
0.0
 10
10.2344971494
 20
9.7901308148
 30
0.0
 10
10.2150374918
 20
9.8105892811
 30
0.0
 10
10.1974005693
 20
9.8326158054
 30
0.0
 10
10.1817331072
 20
9.8560273861
 30
0.0
 10
10.1681654707
 20
9.8806294823
 30
0.0
 10
10.1568107527
 20
9.9062177154
 30
0.0
 10
10.1477638264
 20
9.9325794923
 30
0.0
 10
10.141100368
 20
9.9594956642
 30
0.0
 10
10.1368764108
 20
9.9867424404
 30
0.0
 10
10.1351278334
 20
10.0140930007
 30
0.0
 10
10.1358700445
 20
10.0413199951
 30
0.0
 10
10.1390970977
 20
10.0681949579
 30
0.0
 10
10.1438438599
 20
10.0901474603
 30
0.0
 10
10.1488493032
 20
10.1072998651
 30
0.0
 10
10.1531933583
 20
10.1199228473
 30
0.0
 10
10.1581228733
 20
10.1322933009
 30
0.0
 10
10.1636277339
 20
10.1443857472
 30
0.0
 10
10.1696964256
 20
10.1561748572
 30
0.0
 10
10.1763162509
 20
10.1676360833
 30
0.0
 10
10.1834735019
 20
10.1787454399
 30
0.0
 10
10.1911532023
 20
10.1894797651
 30
0.0
 10
10.199339301
 20
10.1998166795
 30
0.0
 10
10.2080148049
 20
10.2097345351
 30
0.0
 10
10.2171615473
 20
10.2192126782
 30
0.0
 10
10.2267604285
 20
10.2282313435
 30
0.0
 10
10.2367914833
 20
10.2367716298
 30
0.0
 10
10.2472337071
 20
10.244815787
 30
0.0
 10
10.2580653089
 20
10.2523470324
 30
0.0
 10
10.2692637273
 20
10.2593495779
 30
0.0
 10
10.2808055266
 20
10.2658089095
 30
0.0
 10
10.2926666332
 20
10.2717115401
 30
0.0
 10
10.3048223161
 20
10.2770450991
 30
0.0
 10
10.3172471673
 20
10.2817985772
 30
0.0
 10
10.3299152534
 20
10.2859620293
 30
0.0
 10
10.3428002501
 20
10.289526748
 30
0.0
 10
10.3558748626
 20
10.2924853877
 30
0.0
 10
10.3646874399
 20
10.2940474184
 30
0.0
 10
10.3691152161
 20
10.2947259132
 30
0.0
  0
SPLINE
  5
37F
100
AcDbEntity
  8
0
100
AcDbSpline
 62
7
  6
CONTINUOUS
 70
0
 71
3
 72
39
 73
35
 74
0
 42
0.0000001
 43
0.0000001
 44
0.0000000001
 40
0.0
 40
0.0
 40
0.0
 40
0.0
 40
0.0313680404
 40
0.0629228174
 40
0.0946539557
 40
0.126544449
 40
0.1585729947
 40
0.1907141005
 40
0.222938978
 40
0.2552164043
 40
0.2875136361
 40
0.319797359
 40
0.3520346486
 40
0.3841939212
 40
0.4162458585
 40
0.4481642887
 40
0.4799269933
 40
0.511516424
 40
0.5429203104
 40
0.5741321329
 40
0.6051514261
 40
0.6359839042
 40
0.6666413906
 40
0.6971415362
 40
0.7275073129
 40
0.7577663029
 40
0.7879497993
 40
0.8180917425
 40
0.848227538
 40
0.8783928081
 40
0.9086221356
 40
0.9389478509
 40
0.9693989216
 40
1.0
 40
1.0
 40
1.0
 40
1.0
 10
10.4613979857
 20
9.7486795749
 30
0.0
 10
10.453132705
 20
9.7492527741
 30
0.0
 10
10.4365951862
 20
9.7511434033
 30
0.0
 10
10.4120718174
 20
9.7561580031
 30
0.0
 10
10.3879418848
 20
9.7633197649
 30
0.0
 10
10.3644000054
 20
9.7725711689
 30
0.0
 10
10.3416329135
 20
9.7838381355
 30
0.0
 10
10.3198219044
 20
9.7970306139
 30
0.0
 10
10.2991404248
 20
9.8120433426
 30
0.0
 10
10.279753019
 20
9.828756689
 30
0.0
 10
10.2618139656
 20
9.8470375793
 30
0.0
 10
10.2454660138
 20
9.8667404721
 30
0.0
 10
10.2308393322
 20
9.8877085872
 30
0.0
 10
10.2180504941
 20
9.9097751226
 30
0.0
 10
10.2072015577
 20
9.9327645462
 30
0.0
 10
10.1983791643
 20
9.9564939266
 30
0.0
 10
10.1916539474
 20
9.9807744188
 30
0.0
 10
10.1870799666
 20
10.0054127235
 30
0.0
 10
10.1846942532
 20
10.0302125821
 30
0.0
 10
10.184516389
 20
10.0549763057
 30
0.0
 10
10.1865484312
 20
10.0795063457
 30
0.0
 10
10.19077485
 20
10.1036068352
 30
0.0
 10
10.1971625834
 20
10.127085137
 30
0.0
 10
10.2056611507
 20
10.1497534222
 30
0.0
 10
10.2162031204
 20
10.1714301752
 30
0.0
 10
10.2287045942
 20
10.1919416735
 30
0.0
 10
10.2430658225
 20
10.2111234348
 30
0.0
 10
10.259171925
 20
10.2288216646
 30
0.0
 10
10.2768939067
 20
10.2448944842
 30
0.0
 10
10.2960897914
 20
10.2592131329
 30
0.0
 10
10.3166054889
 20
10.271662986
 30
0.0
 10
10.3382771752
 20
10.2821448242
 30
0.0
 10
10.3609285369
 20
10.2905745821
 30
0.0
 10
10.3765265382
 20
10.2947720107
 30
0.0
 10
10.3844198686
 20
10.296510709
 30
0.0
  0
SPLINE
  5
380
100
AcDbEntity
  8
0
100
AcDbSpline
 62
7
  6
CONTINUOUS
 70
0
 71
3
 72
42
 73
38
 74
0
 42
0.0000001
 43
0.0000001
 44
0.0000000001
 40
0.0
 40
0.0
 40
0.0
 40
0.0
 40
0.0311443918
 40
0.0467772358
 40
0.0624471561
 40
0.093891822
 40
0.125473962
 40
0.1571813366
 40
0.1889991927
 40
0.2209105852
 40
0.2528967304
 40
0.2849373857
 40
0.3170112516
 40
0.3490963869
 40
0.3811706329
 40
0.413212041
 40
0.4451992971
 40
0.4771121372
 40
0.5089317491
 40
0.540641153
 40
0.5722255557
 40
0.603672671
 40
0.6349729995
 40
0.6661200617
 40
0.6971105757
 40
0.7279445745
 40
0.7586254556
 40
0.7891599574
 40
0.8195580601
 40
0.8498328063
 40
0.864931569
 40
0.8800056544
 40
0.9100837087
 40
0.9400929747
 40
0.9550814997
 40
0.970061185
 40
1.0
 40
1.0
 40
1.0
 40
1.0
 10
10.4696721661
 20
9.7875515088
 30
0.0
 10
10.463669296
 20
9.7879678092
 30
0.0
 10
10.454671758
 20
9.7889223955
 30
0.0
 10
10.442758221
 20
9.7908407148
 30
0.0
 10
10.430863595
 20
9.7931958229
 30
0.0
 10
10.4161144787
 20
9.7969465541
 30
0.0
 10
10.3987246836
 20
9.8027036163
 30
0.0
 10
10.3817137582
 20
9.8096917179
 30
0.0
 10
10.3651729168
 20
9.817873369
 30
0.0
 10
10.3491901484
 20
9.8272048763
 30
0.0
 10
10.3338506525
 20
9.8376364082
 30
0.0
 10
10.3192361488
 20
9.8491123044
 30
0.0
 10
10.3054245119
 20
9.8615713587
 30
0.0
 10
10.2924893437
 20
9.874947146
 30
0.0
 10
10.2804995897
 20
9.8891683721
 30
0.0
 10
10.2695191737
 20
9.9041592505
 30
0.0
 10
10.259606661
 20
9.9198399018
 30
0.0
 10
10.2508149481
 20
9.9361267751
 30
0.0
 10
10.2431909826
 20
9.9529330873
 30
0.0
 10
10.2367755135
 20
9.9701692805
 30
0.0
 10
10.2316028741
 20
9.9877434926
 30
0.0
 10
10.2277007972
 20
10.0055620407
 30
0.0
 10
10.2250902645
 20
10.0235299134
 30
0.0
 10
10.2237853907
 20
10.0415512718
 30
0.0
 10
10.2237933394
 20
10.0595299494
 30
0.0
 10
10.2251142861
 20
10.077369979
 30
0.0
 10
10.2277413741
 20
10.0949760304
 30
0.0
 10
10.2316608628
 20
10.1122541786
 30
0.0
 10
10.2368517338
 20
10.1291114391
 30
0.0
 10
10.2422199235
 20
10.1427479924
 30
0.0
 10
10.2471187607
 20
10.153352483
 30
0.0
 10
10.2524054245
 20
10.1637264557
 30
0.0
 10
10.2597457781
 20
10.1762742604
 30
0.0
 10
10.2680301487
 20
10.1881998626
 30
0.0
 10
10.2751891351
 20
10.1973154423
 30
0.0
 10
10.2826895371
 20
10.2061335615
 30
0.0
 10
10.288698722
 20
10.2124112708
 30
0.0
 10
10.2928591534
 20
10.2164299357
 30
0.0
  0
SPLINE
  5
381
100
AcDbEntity
  8
0
100
AcDbSpline
 62
7
  6
CONTINUOUS
 70
0
 71
3
 72
39
 73
35
 74
0
 42
0.0000001
 43
0.0000001
 44
0.0000000001
 40
0.0
 40
0.0
 40
0.0
 40
0.0
 40
0.0309435837
 40
0.0620205678
 40
0.0932249756
 40
0.1245516591
 40
0.1559919501
 40
0.187536123
 40
0.2191726788
 40
0.250888804
 40
0.2826704988
 40
0.3145028054
 40
0.3463700306
 40
0.3782559754
 40
0.4101441699
 40
0.4420181115
 40
0.4738615025
 40
0.5056584868
 40
0.537393884
 40
0.5690534147
 40
0.6006239165
 40
0.6320935463
 40
0.6634519686
 40
0.6946905261
 40
0.7258023893
 40
0.7567826853
 40
0.787628599
 40
0.8183394435
 40
0.8489166985
 40
0.879364014
 40
0.9096871785
 40
0.9398940491
 40
0.9699944442
 40
1.0
 40
1.0
 40
1.0
 40
1.0
 10
10.5927095555
 20
9.9184705814
 30
0.0
 10
10.5877684169
 20
9.9188132505
 30
0.0
 10
10.5778837732
 20
9.9198129916
 30
0.0
 10
10.5631510081
 20
9.9222395197
 30
0.0
 10
10.5485363667
 20
9.9255868136
 30
0.0
 10
10.5340991981
 20
9.929841124
 30
0.0
 10
10.5198969317
 20
9.9349855325
 30
0.0
 10
10.5059864496
 20
9.940999311
 30
0.0
 10
10.4924233425
 20
9.9478583926
 30
0.0
 10
10.479261842
 20
9.9555352925
 30
0.0
 10
10.466554562
 20
9.9639992765
 30
0.0
 10
10.4543522969
 20
9.973216463
 30
0.0
 10
10.4427038245
 20
9.983149973
 30
0.0
 10
10.4316557119
 20
9.9937600736
 30
0.0
 10
10.4212521323
 20
10.005004336
 30
0.0
 10
10.4115346895
 20
10.016837803
 30
0.0
 10
10.402542254
 20
10.0292131675
 30
0.0
 10
10.3943108074
 20
10.0420809583
 30
0.0
 10
10.386873287
 20
10.0553897302
 30
0.0
 10
10.3802594663
 20
10.0690862771
 30
0.0
 10
10.374495837
 20
10.0831158424
 30
0.0
 10
10.3696055033
 20
10.0974223349
 30
0.0
 10
10.3656080896
 20
10.1119485504
 30
0.0
 10
10.3625196613
 20
10.1266363972
 30
0.0
 10
10.3603526614
 20
10.1414271259
 30
0.0
 10
10.3591158465
 20
10.1562615603
 30
0.0
 10
10.3588142519
 20
10.1710803347
 30
0.0
 10
10.3594491791
 20
10.1858241318
 30
0.0
 10
10.3610181827
 20
10.2004339114
 30
0.0
 10
10.3635150889
 20
10.2148511688
 30
0.0
 10
10.3669299698
 20
10.2290180796
 30
0.0
 10
10.371249352
 20
10.2428780583
 30
0.0
 10
10.3764556216
 20
10.2563747747
 30
0.0
 10
10.3805106515
 20
10.2651086779
 30
0.0
 10
10.3826778922
 20
10.2693947641
 30
0.0
  0
SPLINE
  5
382
100
AcDbEntity
  8
0
100
AcDbSpline
 62
7
  6
CONTINUOUS
 70
0
 71
3
 72
39
 73
35
 74
0
 42
0.0000001
 43
0.0000001
 44
0.0000000001
 40
0.0
 40
0.0
 40
0.0
 40
0.0
 40
0.0309090422
 40
0.0619482041
 40
0.0931114601
 40
0.1243943341
 40
0.155788658
 40
0.187285414
 40
0.2188738978
 40
0.2505421589
 40
0.282277125
 40
0.3140647954
 40
0.3458904428
 40
0.3777388158
 40
0.4095943493
 40
0.441441378
 40
0.4732643542
 40
0.5050480625
 40
0.5367778298
 40
0.5684397296
 40
0.6000207786
 40
0.6315091243
 40
0.6628942249
 40
0.6941670122
 40
0.7253200366
 40
0.7563475916
 40
0.7872458177
 40
0.8180127812
 40
0.8486485299
 40
0.8791551198
 40
0.9095366085
 40
0.939799015
 40
0.9699502481
 40
1.0
 40
1.0
 40
1.0
 40
1.0
 10
10.5918426767
 20
9.9055591673
 30
0.0
 10
10.5867804446
 20
9.9059102343
 30
0.0
 10
10.5766536355
 20
9.9069261418
 30
0.0
 10
10.5615558587
 20
9.9093754218
 30
0.0
 10
10.5465729399
 20
9.9127443878
 30
0.0
 10
10.5317626651
 20
9.9170198536
 30
0.0
 10
10.5171809292
 20
9.9221857178
 30
0.0
 10
10.5028831808
 20
9.9282222132
 30
0.0
 10
10.4889236595
 20
9.9351064194
 30
0.0
 10
10.4753553462
 20
9.9428121438
 30
0.0
 10
10.4622297215
 20
9.9513100927
 30
0.0
 10
10.4495965889
 20
9.9605679788
 30
0.0
 10
10.4375038848
 20
9.9705506424
 30
0.0
 10
10.4259974998
 20
9.9812201841
 30
0.0
 10
10.415121108
 20
9.9925361073
 30
0.0
 10
10.4049159987
 20
10.0044554659
 30
0.0
 10
10.3954209041
 20
10.0169330155
 30
0.0
 10
10.3866718728
 20
10.0299214028
 30
0.0
 10
10.3787021318
 20
10.0433713409
 30
0.0
 10
10.3715419628
 20
10.0572317938
 30
0.0
 10
10.3652185875
 20
10.0714501674
 30
0.0
 10
10.3597560681
 20
10.0859725072
 30
0.0
 10
10.3551751907
 20
10.1007436923
 30
0.0
 10
10.3514934007
 20
10.1157076524
 30
0.0
 10
10.3487247443
 20
10.1308075796
 30
0.0
 10
10.3468798122
 20
10.1459861407
 30
0.0
 10
10.3459656979
 20
10.1611856905
 30
0.0
 10
10.3459859725
 20
10.17634849
 30
0.0
 10
10.3469406516
 20
10.1914169166
 30
0.0
 10
10.3488261937
 20
10.2063337103
 30
0.0
 10
10.3516354957
 20
10.2210421019
 30
0.0
 10
10.3553580554
 20
10.2354863536
 30
0.0
 10
10.3599794768
 20
10.2496107574
 30
0.0
 10
10.3636545547
 20
10.2587941477
 30
0.0
 10
10.3656352342
 20
10.2633123942
 30
0.0
  0
SPLINE
  5
383
100
AcDbEntity
  8
0
100
AcDbSpline
 62
7
  6
CONTINUOUS
 70
0
 71
3
 72
39
 73
35
 74
0
 42
0.0000001
 43
0.0000001
 44
0.0000000001
 40
0.0
 40
0.0
 40
0.0
 40
0.0
 40
0.0311159723
 40
0.0620233248
 40
0.0927351404
 40
0.1232711776
 40
0.1536587326
 40
0.1839312111
 40
0.2141268393
 40
0.2442870992
 40
0.2744549754
 40
0.3046731314
 40
0.3349820899
 40
0.3654185435
 40
0.3960138648
 40
0.4267928822
 40
0.4577729963
 40
0.4889636214
 40
0.5203659689
 40
0.551973178
 40
0.5837707188
 40
0.6157370639
 40
0.6478445901
 40
0.6800606405
 40
0.7123487311
 40
0.7446698622
 40
0.7769838843
 40
0.8092508939
 40
0.8414326243
 40
0.8734937998
 40
0.9054034123
 40
0.9371359058
 40
0.9686717941
 40
1.0
 40
1.0
 40
1.0
 40
1.0
 10
9.1168514146
 20
6.4140344955
 30
0.0
 10
9.1168514146
 20
6.4212771957
 30
0.0
 10
9.1175584985
 20
6.4357245147
 30
0.0
 10
9.1207562725
 20
6.4571066477
 30
0.0
 10
9.1260574694
 20
6.4779302245
 30
0.0
 10
9.1334119621
 20
6.4979915045
 30
0.0
 10
9.1427493158
 20
6.517097198
 30
0.0
 10
9.1539799107
 20
6.535062199
 30
0.0
 10
9.1669956006
 20
6.5517125256
 30
0.0
 10
9.1816706043
 20
6.5668869451
 30
0.0
 10
9.1978629916
 20
6.5804385369
 30
0.0
 10
9.2154159931
 20
6.5922362309
 30
0.0
 10
9.2341595474
 20
6.602166275
 30
0.0
 10
9.2539122102
 20
6.6101330966
 30
0.0
 10
9.2744828871
 20
6.6160603391
 30
0.0
 10
9.2956727684
 20
6.6198916372
 30
0.0
 10
9.3172773612
 20
6.6215908146
 30
0.0
 10
9.3390884142
 20
6.6211423539
 30
0.0
 10
9.3608959612
 20
6.6185514927
 30
0.0
 10
9.3824902869
 20
6.6138438615
 30
0.0
 10
9.403663913
 20
6.6070654281
 30
0.0
 10
9.4242135771
 20
6.5982819768
 30
0.0
 10
9.4439420475
 20
6.5875782701
 30
0.0
 10
9.4626600633
 20
6.5750574728
 30
0.0
 10
9.4801880996
 20
6.5608400686
 30
0.0
 10
9.4963579342
 20
6.5450625973
 30
0.0
 10
9.5110144008
 20
6.5278765781
 30
0.0
 10
9.5240167785
 20
6.5094469501
 30
0.0
 10
9.5352400038
 20
6.4899504907
 30
0.0
 10
9.5445760859
 20
6.4695742214
 30
0.0
 10
9.5519350013
 20
6.448513855
 30
0.0
 10
9.5572453973
 20
6.4269708232
 30
0.0
 10
9.5604558131
 20
6.4051547576
 30
0.0
 10
9.561177321
 20
6.3905124899
 30
0.0
 10
9.561177321
 20
6.3832203892
 30
0.0
  0
SPLINE
  5
384
100
AcDbEntity
  8
0
100
AcDbSpline
 62
7
  6
CONTINUOUS
 70
0
 71
3
 72
23
 73
19
 74
0
 42
0.0000001
 43
0.0000001
 44
0.0000000001
 40
0.0
 40
0.0
 40
0.0
 40
0.0
 40
0.0639437083
 40
0.1275045299
 40
0.1906968448
 40
0.2535439333
 40
0.3160809001
 40
0.3783525407
 40
0.4404122346
 40
0.5023202862
 40
0.5641419975
 40
0.625945536
 40
0.6877996719
 40
0.7497714946
 40
0.8119242021
 40
0.8743150516
 40
0.9369935559
 40
1.0
 40
1.0
 40
1.0
 40
1.0
 10
10.4339631895
 20
9.7004163234
 30
0.0
 10
10.4425558441
 20
9.6998204208
 30
0.0
 10
10.4597503767
 20
9.6993687401
 30
0.0
 10
10.4854210534
 20
9.7009375721
 30
0.0
 10
10.5107097611
 20
9.7047427888
 30
0.0
 10
10.5354241023
 20
9.710756762
 30
0.0
 10
10.5593787635
 20
9.7189347898
 30
0.0
 10
10.5823932763
 20
9.729215893
 30
0.0
 10
10.6042943372
 20
9.7415231125
 30
0.0
 10
10.6249168857
 20
9.7557641254
 30
0.0
 10
10.6441054584
 20
9.7718319191
 30
0.0
 10
10.6617154596
 20
9.7896055336
 30
0.0
 10
10.6776142809
 20
9.8089510308
 30
0.0
 10
10.6916823204
 20
9.8297226498
 30
0.0
 10
10.7038138368
 20
9.8517636588
 30
0.0
 10
10.7139180162
 20
9.8749086446
 30
0.0
 10
10.7219188724
 20
9.8989807192
 30
0.0
 10
10.7258012629
 20
9.9154868102
 30
0.0
 10
10.7273767293
 20
9.923826342
 30
0.0
  0
SPLINE
  5
385
100
AcDbEntity
  8
0
100
AcDbSpline
 62
7
  6
CONTINUOUS
 70
0
 71
3
 72
23
 73
19
 74
0
 42
0.0000001
 43
0.0000001
 44
0.0000000001
 40
0.0
 40
0.0
 40
0.0
 40
0.0
 40
0.0639768268
 40
0.1275864303
 40
0.1908414147
 40
0.2537619454
 40
0.3163789505
 40
0.3787318888
 40
0.4408680928
 40
0.5028413697
 40
0.5647104474
 40
0.6265372205
 40
0.6883848739
 40
0.7503159551
 40
0.8123904726
 40
0.8746640915
 40
0.9371865
 40
1.0
 40
1.0
 40
1.0
 40
1.0
 10
10.4613979857
 20
9.7486795749
 30
0.0
 10
10.4690306423
 20
9.7481502484
 30
0.0
 10
10.4843034324
 20
9.7477215502
 30
0.0
 10
10.5071165697
 20
9.7489896242
 30
0.0
 10
10.5296181666
 20
9.7521617001
 30
0.0
 10
10.5516511368
 20
9.7572166621
 30
0.0
 10
10.573063904
 20
9.7641199667
 30
0.0
 10
10.593708467
 20
9.7728244286
 30
0.0
 10
10.6134421911
 20
9.7832702899
 30
0.0
 10
10.6321286376
 20
9.7953856594
 30
0.0
 10
10.6496385931
 20
9.8090869988
 30
0.0
 10
10.6658509823
 20
9.824279716
 30
0.0
 10
10.680653741
 20
9.8408588125
 30
0.0
 10
10.6939446353
 20
9.8587096978
 30
0.0
 10
10.7056319239
 20
9.8777087784
 30
0.0
 10
10.7156352476
 20
9.897725228
 30
0.0
 10
10.7238853325
 20
9.9186185908
 30
0.0
 10
10.7281694414
 20
9.933005122
 30
0.0
 10
10.7300035756
 20
9.9402896326
 30
0.0
  0
SPLINE
  5
386
100
AcDbEntity
  8
0
100
AcDbSpline
 62
7
  6
CONTINUOUS
 70
0
 71
3
 72
21
 73
17
 74
0
 42
0.0000001
 43
0.0000001
 44
0.0000000001
 40
0.0
 40
0.0
 40
0.0
 40
0.0
 40
0.1274737985
 40
0.2540667908
 40
0.3170668583
 40
0.3798654312
 40
0.4424734233
 40
0.504903362
 40
0.5671697538
 40
0.6292888978
 40
0.6912786558
 40
0.7531583368
 40
0.8149484605
 40
0.8766705167
 40
0.938346769
 40
1.0
 40
1.0
 40
1.0
 40
1.0
 10
10.4696721661
 20
9.7875515088
 30
0.0
 10
10.4778624884
 20
9.786983508
 30
0.0
 10
10.4942543429
 20
9.7866636032
 30
0.0
 10
10.514643751
 20
9.7883353419
 30
0.0
 10
10.5307004136
 20
9.7909085034
 30
0.0
 10
10.5425723339
 20
9.7934457919
 30
0.0
 10
10.554260689
 20
9.7965870538
 30
0.0
 10
10.5657363828
 20
9.8003244147
 30
0.0
 10
10.5769704344
 20
9.8046484348
 30
0.0
 10
10.5879345455
 20
9.8095483045
 30
0.0
 10
10.5986010707
 20
9.8150117157
 30
0.0
 10
10.6089431719
 20
9.8210248665
 30
0.0
 10
10.618934745
 20
9.8275726377
 30
0.0
 10
10.6285506651
 20
9.8346386665
 30
0.0
 10
10.6377664202
 20
9.8422047759
 30
0.0
 10
10.6436291631
 20
9.8475706595
 30
0.0
 10
10.6464851787
 20
9.8503293565
 30
0.0
  0
SPLINE
  5
387
100
AcDbEntity
  8
0
100
AcDbSpline
 62
7
  6
CONTINUOUS
 70
0
 71
3
 72
24
 73
20
 74
0
 42
0.0000001
 43
0.0000001
 44
0.0000000001
 40
0.0
 40
0.0
 40
0.0
 40
0.0
 40
0.0755925909
 40
0.1466352375
 40
0.2134610851
 40
0.2454346742
 40
0.2765272927
 40
0.3363373944
 40
0.3935565559
 40
0.4489316461
 40
0.5032955233
 40
0.5575322568
 40
0.6125325048
 40
0.6691475563
 40
0.7281521761
 40
0.7902217656
 40
0.8559251613
 40
0.9257271518
 40
1.0
 40
1.0
 40
1.0
 40
1.0
 10
12.5042795301
 20
6.8389411931
 30
0.0
 10
12.5035013525
 20
6.8381895311
 30
0.0
 10
12.5019459561
 20
6.8367776428
 30
0.0
 10
12.4995389824
 20
6.8348914877
 30
0.0
 10
12.4975062269
 20
6.8335521366
 30
0.0
 10
12.4958850504
 20
6.8326408152
 30
0.0
 10
12.4943110659
 20
6.8318550029
 30
0.0
 10
12.4923431049
 20
6.8310546424
 30
0.0
 10
12.4899605007
 20
6.8303908757
 30
0.0
 10
12.4875904036
 20
6.8300385961
 30
0.0
 10
12.4852369142
 20
6.8299994612
 30
0.0
 10
12.4829045182
 20
6.8302740968
 30
0.0
 10
12.4805977424
 20
6.830861632
 30
0.0
 10
12.4783204996
 20
6.8317601129
 30
0.0
 10
12.4760758214
 20
6.8329669211
 30
0.0
 10
12.4738659577
 20
6.8344792709
 30
0.0
 10
12.4716927263
 20
6.8362945747
 30
0.0
 10
12.4695578327
 20
6.8384101039
 30
0.0
 10
12.4682048021
 20
6.8399688492
 30
0.0
 10
12.4675340641
 20
6.8407935619
 30
0.0
  0
SPLINE
  5
388
100
AcDbEntity
  8
0
100
AcDbSpline
 62
7
  6
CONTINUOUS
 70
0
 71
3
 72
23
 73
19
 74
0
 42
0.0000001
 43
0.0000001
 44
0.0000000001
 40
0.0
 40
0.0
 40
0.0
 40
0.0
 40
0.0616482046
 40
0.1233194369
 40
0.1850364679
 40
0.2468215571
 40
0.3086962063
 40
0.3706809237
 40
0.4327950053
 40
0.495056333
 40
0.5574811833
 40
0.6200840745
 40
0.6828776148
 40
0.745872329
 40
0.8090769454
 40
0.8724968733
 40
0.9361383371
 40
1.0
 40
1.0
 40
1.0
 40
1.0
 10
10.7730879461
 20
6.4919640244
 30
0.0
 10
10.767476368
 20
6.4865436744
 30
0.0
 10
10.7559570673
 20
6.4760006899
 30
0.0
 10
10.7378496891
 20
6.4611346425
 30
0.0
 10
10.7189560157
 20
6.4472512266
 30
0.0
 10
10.6993243103
 20
6.4343860172
 30
0.0
 10
10.679003869
 20
6.422571254
 30
0.0
 10
10.6580459564
 20
6.4118367072
 30
0.0
 10
10.6365033792
 20
6.4022093581
 30
0.0
 10
10.6144304234
 20
6.3937134118
 30
0.0
 10
10.5918826979
 20
6.386370215
 30
0.0
 10
10.5689169975
 20
6.3801982103
 30
0.0
 10
10.5455911714
 20
6.375212901
 30
0.0
 10
10.5219639258
 20
6.3714267354
 30
0.0
 10
10.498094883
 20
6.3688492482
 30
0.0
 10
10.474043735
 20
6.3674867121
 30
0.0
 10
10.4498720266
 20
6.3673426741
 30
0.0
 10
10.4337436699
 20
6.3680579189
 30
0.0
 10
10.4256809867
 20
6.3686170679
 30
0.0
  0
SPLINE
  5
389
100
AcDbEntity
  8
0
100
AcDbSpline
 62
7
  6
CONTINUOUS
 70
0
 71
3
 72
15
 73
11
 74
0
 42
0.0000001
 43
0.0000001
 44
0.0000000001
 40
0.0
 40
0.0
 40
0.0
 40
0.0
 40
0.1265879346
 40
0.2527052045
 40
0.3783419536
 40
0.5035180982
 40
0.6282472654
 40
0.7525515287
 40
0.8764584154
 40
1.0
 40
1.0
 40
1.0
 40
1.0
 10
10.5918426767
 20
9.9055591673
 30
0.0
 10
10.5963096083
 20
9.9052493845
 30
0.0
 10
10.6052455948
 20
9.9048728958
 30
0.0
 10
10.6186336332
 20
9.905042406
 30
0.0
 10
10.6319425855
 20
9.905946948
 30
0.0
 10
10.6451319546
 20
9.9075836407
 30
0.0
 10
10.6581626951
 20
9.9099478227
 30
0.0
 10
10.6709959415
 20
9.9130324631
 30
0.0
 10
10.6835928781
 20
9.9168281672
 30
0.0
 10
10.6918208535
 20
9.9198298398
 30
0.0
 10
10.6958813353
 20
9.9214449431
 30
0.0
  0
SPLINE
  5
38A
100
AcDbEntity
  8
0
100
AcDbSpline
 62
7
  6
CONTINUOUS
 70
0
 71
3
 72
41
 73
37
 74
0
 42
0.0000001
 43
0.0000001
 44
0.0000000001
 40
0.0
 40
0.0
 40
0.0
 40
0.0
 40
0.0299421207
 40
0.0449237678
 40
0.059914515
 40
0.0899291702
 40
0.1200145975
 40
0.1350933607
 40
0.1501974781
 40
0.1804849759
 40
0.210898965
 40
0.2414525847
 40
0.2721557502
 40
0.3030149724
 40
0.3340332622
 40
0.3652101173
 40
0.3965415863
 40
0.428020404
 40
0.4596361919
 40
0.4913757156
 40
0.5232231916
 40
0.5551606357
 40
0.5871682465
 40
0.6192248153
 40
0.651308157
 40
0.6833955539
 40
0.7154642081
 40
0.747491694
 40
0.779456406
 40
0.8113379944
 40
0.8431177853
 40
0.8747791687
 40
0.9063079764
 40
0.9376927595
 40
0.9689251765
 40
1.0
 40
1.0
 40
1.0
 40
1.0
 10
11.6599333415
 20
6.109616848
 30
0.0
 10
11.6565822178
 20
6.1063799329
 30
0.0
 10
11.6513580483
 20
6.1017206483
 30
0.0
 10
11.6440416852
 20
6.0959395076
 30
0.0
 10
11.6364923178
 20
6.0904460605
 30
0.0
 10
11.6266416452
 20
6.0841377768
 30
0.0
 10
11.6163120073
 20
6.078619868
 30
0.0
 10
11.6077927461
 20
6.074694383
 30
0.0
 10
11.5990974779
 20
6.0710929966
 30
0.0
 10
11.5879418577
 20
6.0672204421
 30
0.0
 10
11.5741942324
 20
6.0636113196
 30
0.0
 10
11.5601466281
 20
6.0610545124
 30
0.0
 10
11.5458768922
 20
6.0595641325
 30
0.0
 10
11.5314634124
 20
6.0591481322
 30
0.0
 10
11.516985496
 20
6.0598086292
 30
0.0
 10
11.5025227171
 20
6.0615418081
 30
0.0
 10
11.4881545429
 20
6.0643379755
 30
0.0
 10
11.4739598854
 20
6.0681816131
 30
0.0
 10
11.4600166788
 20
6.0730514697
 30
0.0
 10
11.446401456
 20
6.0789206807
 30
0.0
 10
11.4331889353
 20
6.0857569181
 30
0.0
 10
11.4204516154
 20
6.0935225686
 30
0.0
 10
11.4082593834
 20
6.1021749398
 30
0.0
 10
11.3966791358
 20
6.1116664934
 30
0.0
 10
11.3857744163
 20
6.1219451046
 30
0.0
 10
11.3756050704
 20
6.1329543458
 30
0.0
 10
11.366226921
 20
6.1446337929
 30
0.0
 10
11.3576914645
 20
6.1569193541
 30
0.0
 10
11.3500455911
 20
6.1697436173
 30
0.0
 10
11.3433313286
 20
6.1830362174
 30
0.0
 10
11.3375856147
 20
6.1967242096
 30
0.0
 10
11.3328400897
 20
6.2107324976
 30
0.0
 10
11.329120933
 20
6.224984114
 30
0.0
 10
11.3264486975
 20
6.239401105
 30
0.0
 10
11.3248382243
 20
6.2539032311
 30
0.0
 10
11.3244775045
 20
6.2636022758
 30
0.0
 10
11.3244775045
 20
6.2684376769
 30
0.0
  0
SPLINE
  5
38B
100
AcDbEntity
  8
0
100
AcDbSpline
 62
7
  6
CONTINUOUS
 70
0
 71
3
 72
39
 73
35
 74
0
 42
0.0000001
 43
0.0000001
 44
0.0000000001
 40
0.0
 40
0.0
 40
0.0
 40
0.0
 40
0.0311159723
 40
0.0620233248
 40
0.0927351404
 40
0.1232711776
 40
0.1536587326
 40
0.1839312111
 40
0.2141268393
 40
0.2442870992
 40
0.2744549754
 40
0.3046731314
 40
0.3349820899
 40
0.3654185435
 40
0.3960138648
 40
0.4267928822
 40
0.4577729963
 40
0.4889636214
 40
0.5203659689
 40
0.551973178
 40
0.5837707188
 40
0.6157370639
 40
0.6478445901
 40
0.6800606405
 40
0.7123487311
 40
0.7446698622
 40
0.7769838843
 40
0.8092508939
 40
0.8414326243
 40
0.8734937998
 40
0.9054034123
 40
0.9371359058
 40
0.9686717941
 40
1.0
 40
1.0
 40
1.0
 40
1.0
 10
9.561177321
 20
6.3832203892
 30
0.0
 10
9.561177321
 20
6.3759776891
 30
0.0
 10
9.560470237
 20
6.3615303701
 30
0.0
 10
9.5572724631
 20
6.340148237
 30
0.0
 10
9.5519712662
 20
6.3193246603
 30
0.0
 10
9.5446167735
 20
6.2992633803
 30
0.0
 10
9.5352794197
 20
6.2801576867
 30
0.0
 10
9.5240488249
 20
6.2621926857
 30
0.0
 10
9.5110331349
 20
6.2455423591
 30
0.0
 10
9.4963581312
 20
6.2303679396
 30
0.0
 10
9.4801657439
 20
6.2168163478
 30
0.0
 10
9.4626127424
 20
6.2050186538
 30
0.0
 10
9.4438691882
 20
6.1950886098
 30
0.0
 10
9.4241165254
 20
6.1871217881
 30
0.0
 10
9.4035458484
 20
6.1811945456
 30
0.0
 10
9.3823559671
 20
6.1773632475
 30
0.0
 10
9.3607513744
 20
6.1756640702
 30
0.0
 10
9.3389403213
 20
6.1761125308
 30
0.0
 10
9.3171327743
 20
6.178703392
 30
0.0
 10
9.2955384486
 20
6.1834110232
 30
0.0
 10
9.2743648226
 20
6.1901894567
 30
0.0
 10
9.2538151585
 20
6.198972908
 30
0.0
 10
9.2340866881
 20
6.2096766146
 30
0.0
 10
9.2153686722
 20
6.222197412
 30
0.0
 10
9.1978406359
 20
6.2364148161
 30
0.0
 10
9.1816708013
 20
6.2521922875
 30
0.0
 10
9.1670143348
 20
6.2693783066
 30
0.0
 10
9.154011957
 20
6.2878079347
 30
0.0
 10
9.1427887317
 20
6.3073043941
 30
0.0
 10
9.1334526496
 20
6.3276806634
 30
0.0
 10
9.1260937342
 20
6.3487410298
 30
0.0
 10
9.1207833382
 20
6.3702840615
 30
0.0
 10
9.1175729225
 20
6.3921001272
 30
0.0
 10
9.1168514146
 20
6.4067423949
 30
0.0
 10
9.1168514146
 20
6.4140344955
 30
0.0
  0
SPLINE
  5
38C
100
AcDbEntity
  8
0
100
AcDbSpline
 62
7
  6
CONTINUOUS
 70
0
 71
3
 72
41
 73
37
 74
0
 42
0.0000001
 43
0.0000001
 44
0.0000000001
 40
0.0
 40
0.0
 40
0.0
 40
0.0
 40
0.0299421207
 40
0.0449237678
 40
0.059914515
 40
0.0899291702
 40
0.1200145975
 40
0.1350933607
 40
0.1501974781
 40
0.1804849759
 40
0.210898965
 40
0.2414525847
 40
0.2721557502
 40
0.3030149724
 40
0.3340332622
 40
0.3652101173
 40
0.3965415863
 40
0.428020404
 40
0.4596361919
 40
0.4913757156
 40
0.5232231916
 40
0.5551606357
 40
0.5871682465
 40
0.6192248153
 40
0.651308157
 40
0.6833955539
 40
0.7154642081
 40
0.747491694
 40
0.779456406
 40
0.8113379944
 40
0.8431177853
 40
0.8747791687
 40
0.9063079764
 40
0.9376927595
 40
0.9689251765
 40
1.0
 40
1.0
 40
1.0
 40
1.0
 10
9.4866001036
 20
6.26033802
 30
0.0
 10
9.4832489799
 20
6.2571011049
 30
0.0
 10
9.4780248104
 20
6.2524418203
 30
0.0
 10
9.4707084473
 20
6.2466606796
 30
0.0
 10
9.4631590798
 20
6.2411672325
 30
0.0
 10
9.4533084073
 20
6.2348589488
 30
0.0
 10
9.4429787694
 20
6.2293410399
 30
0.0
 10
9.4344595082
 20
6.225415555
 30
0.0
 10
9.4257642399
 20
6.2218141686
 30
0.0
 10
9.4146086198
 20
6.2179416141
 30
0.0
 10
9.4008609944
 20
6.2143324916
 30
0.0
 10
9.3868133902
 20
6.2117756843
 30
0.0
 10
9.3725436543
 20
6.2102853045
 30
0.0
 10
9.3581301745
 20
6.2098693041
 30
0.0
 10
9.343652258
 20
6.2105298011
 30
0.0
 10
9.3291894792
 20
6.21226298
 30
0.0
 10
9.314821305
 20
6.2150591475
 30
0.0
 10
9.3006266475
 20
6.2189027851
 30
0.0
 10
9.2866834409
 20
6.2237726416
 30
0.0
 10
9.2730682181
 20
6.2296418527
 30
0.0
 10
9.2598556974
 20
6.2364780901
 30
0.0
 10
9.2471183775
 20
6.2442437406
 30
0.0
 10
9.2349261455
 20
6.2528961117
 30
0.0
 10
9.2233458979
 20
6.2623876654
 30
0.0
 10
9.2124411784
 20
6.2726662766
 30
0.0
 10
9.2022718325
 20
6.2836755178
 30
0.0
 10
9.1928936831
 20
6.2953549648
 30
0.0
 10
9.1843582265
 20
6.3076405261
 30
0.0
 10
9.1767123532
 20
6.3204647892
 30
0.0
 10
9.1699980907
 20
6.3337573894
 30
0.0
 10
9.1642523767
 20
6.3474453816
 30
0.0
 10
9.1595068518
 20
6.3614536696
 30
0.0
 10
9.1557876951
 20
6.375705286
 30
0.0
 10
9.1531154595
 20
6.390122277
 30
0.0
 10
9.1515049863
 20
6.4046244031
 30
0.0
 10
9.1511442666
 20
6.4143234478
 30
0.0
 10
9.1511442666
 20
6.4191588489
 30
0.0
  0
SPLINE
  5
38D
100
AcDbEntity
  8
0
100
AcDbSpline
 62
7
  6
CONTINUOUS
 70
0
 71
3
 72
39
 73
35
 74
0
 42
0.0000001
 43
0.0000001
 44
0.0000000001
 40
0.0
 40
0.0
 40
0.0
 40
0.0
 40
0.0311159723
 40
0.0620233248
 40
0.0927351404
 40
0.1232711776
 40
0.1536587326
 40
0.1839312111
 40
0.2141268393
 40
0.2442870992
 40
0.2744549754
 40
0.3046731314
 40
0.3349820899
 40
0.3654185435
 40
0.3960138648
 40
0.4267928822
 40
0.4577729963
 40
0.4889636214
 40
0.5203659689
 40
0.551973178
 40
0.5837707188
 40
0.6157370639
 40
0.6478445901
 40
0.6800606405
 40
0.7123487311
 40
0.7446698622
 40
0.7769838843
 40
0.8092508939
 40
0.8414326243
 40
0.8734937998
 40
0.9054034123
 40
0.9371359058
 40
0.9686717941
 40
1.0
 40
1.0
 40
1.0
 40
1.0
 10
9.1168514146
 20
7.470757337
 30
0.0
 10
9.1168514146
 20
7.4780000372
 30
0.0
 10
9.1175584985
 20
7.4924473562
 30
0.0
 10
9.1207562725
 20
7.5138294892
 30
0.0
 10
9.1260574694
 20
7.534653066
 30
0.0
 10
9.1334119621
 20
7.554714346
 30
0.0
 10
9.1427493158
 20
7.5738200395
 30
0.0
 10
9.1539799107
 20
7.5917850405
 30
0.0
 10
9.1669956006
 20
7.6084353671
 30
0.0
 10
9.1816706043
 20
7.6236097866
 30
0.0
 10
9.1978629916
 20
7.6371613784
 30
0.0
 10
9.2154159931
 20
7.6489590724
 30
0.0
 10
9.2341595474
 20
7.6588891165
 30
0.0
 10
9.2539122102
 20
7.6668559381
 30
0.0
 10
9.2744828871
 20
7.6727831806
 30
0.0
 10
9.2956727684
 20
7.6766144787
 30
0.0
 10
9.3172773612
 20
7.6783136561
 30
0.0
 10
9.3390884142
 20
7.6778651954
 30
0.0
 10
9.3608959612
 20
7.6752743342
 30
0.0
 10
9.3824902869
 20
7.670566703
 30
0.0
 10
9.403663913
 20
7.6637882696
 30
0.0
 10
9.4242135771
 20
7.6550048183
 30
0.0
 10
9.4439420475
 20
7.6443011116
 30
0.0
 10
9.4626600633
 20
7.6317803143
 30
0.0
 10
9.4801880996
 20
7.6175629101
 30
0.0
 10
9.4963579342
 20
7.6017854388
 30
0.0
 10
9.5110144008
 20
7.5845994196
 30
0.0
 10
9.5240167785
 20
7.5661697916
 30
0.0
 10
9.5352400038
 20
7.5466733322
 30
0.0
 10
9.5445760859
 20
7.5262970629
 30
0.0
 10
9.5519350013
 20
7.5052366965
 30
0.0
 10
9.5572453973
 20
7.4836936647
 30
0.0
 10
9.5604558131
 20
7.4618775991
 30
0.0
 10
9.561177321
 20
7.4472353314
 30
0.0
 10
9.561177321
 20
7.4399432307
 30
0.0
  0
SPLINE
  5
38E
100
AcDbEntity
  8
0
100
AcDbSpline
 62
7
  6
CONTINUOUS
 70
0
 71
3
 72
39
 73
35
 74
0
 42
0.0000001
 43
0.0000001
 44
0.0000000001
 40
0.0
 40
0.0
 40
0.0
 40
0.0
 40
0.0311159723
 40
0.0620233248
 40
0.0927351404
 40
0.1232711776
 40
0.1536587326
 40
0.1839312111
 40
0.2141268393
 40
0.2442870992
 40
0.2744549754
 40
0.3046731314
 40
0.3349820899
 40
0.3654185435
 40
0.3960138648
 40
0.4267928822
 40
0.4577729963
 40
0.4889636214
 40
0.5203659689
 40
0.551973178
 40
0.5837707188
 40
0.6157370639
 40
0.6478445901
 40
0.6800606405
 40
0.7123487311
 40
0.7446698622
 40
0.7769838843
 40
0.8092508939
 40
0.8414326243
 40
0.8734937998
 40
0.9054034123
 40
0.9371359058
 40
0.9686717941
 40
1.0
 40
1.0
 40
1.0
 40
1.0
 10
11.2901846525
 20
7.320036165
 30
0.0
 10
11.2901846525
 20
7.3272788652
 30
0.0
 10
11.2908917365
 20
7.3417261842
 30
0.0
 10
11.2940895104
 20
7.3631083173
 30
0.0
 10
11.2993907073
 20
7.383931894
 30
0.0
 10
11.3067452
 20
7.403993174
 30
0.0
 10
11.3160825537
 20
7.4230988675
 30
0.0
 10
11.3273131486
 20
7.4410638685
 30
0.0
 10
11.3403288385
 20
7.4577141951
 30
0.0
 10
11.3550038423
 20
7.4728886147
 30
0.0
 10
11.3711962295
 20
7.4864402064
 30
0.0
 10
11.388749231
 20
7.4982379005
 30
0.0
 10
11.4074927853
 20
7.5081679445
 30
0.0
 10
11.4272454481
 20
7.5161347662
 30
0.0
 10
11.4478161251
 20
7.5220620087
 30
0.0
 10
11.4690060064
 20
7.5258933068
 30
0.0
 10
11.4906105991
 20
7.5275924841
 30
0.0
 10
11.5124216522
 20
7.5271440234
 30
0.0
 10
11.5342291991
 20
7.5245531623
 30
0.0
 10
11.5558235249
 20
7.5198455311
 30
0.0
 10
11.5769971509
 20
7.5130670976
 30
0.0
 10
11.597546815
 20
7.5042836463
 30
0.0
 10
11.6172752854
 20
7.4935799396
 30
0.0
 10
11.6359933012
 20
7.4810591423
 30
0.0
 10
11.6535213376
 20
7.4668417381
 30
0.0
 10
11.6696911721
 20
7.4510642668
 30
0.0
 10
11.6843476387
 20
7.4338782477
 30
0.0
 10
11.6973500165
 20
7.4154486196
 30
0.0
 10
11.7085732418
 20
7.3959521602
 30
0.0
 10
11.7179093238
 20
7.3755758909
 30
0.0
 10
11.7252682392
 20
7.3545155245
 30
0.0
 10
11.7305786352
 20
7.3329724928
 30
0.0
 10
11.733789051
 20
7.3111564271
 30
0.0
 10
11.7345105589
 20
7.2965141594
 30
0.0
 10
11.7345105589
 20
7.2892220588
 30
0.0
  0
SPLINE
  5
38F
100
AcDbEntity
  8
0
100
AcDbSpline
 62
7
  6
CONTINUOUS
 70
0
 71
3
 72
41
 73
37
 74
0
 42
0.0000001
 43
0.0000001
 44
0.0000000001
 40
0.0
 40
0.0
 40
0.0
 40
0.0
 40
0.0299421207
 40
0.0449237678
 40
0.059914515
 40
0.0899291702
 40
0.1200145975
 40
0.1350933607
 40
0.1501974781
 40
0.1804849759
 40
0.210898965
 40
0.2414525847
 40
0.2721557502
 40
0.3030149724
 40
0.3340332622
 40
0.3652101173
 40
0.3965415863
 40
0.428020404
 40
0.4596361919
 40
0.4913757156
 40
0.5232231916
 40
0.5551606357
 40
0.5871682465
 40
0.6192248153
 40
0.651308157
 40
0.6833955539
 40
0.7154642081
 40
0.747491694
 40
0.779456406
 40
0.8113379944
 40
0.8431177853
 40
0.8747791687
 40
0.9063079764
 40
0.9376927595
 40
0.9689251765
 40
1.0
 40
1.0
 40
1.0
 40
1.0
 10
9.4866001036
 20
7.3170608614
 30
0.0
 10
9.4832489799
 20
7.3138239464
 30
0.0
 10
9.4780248104
 20
7.3091646618
 30
0.0
 10
9.4707084473
 20
7.3033835211
 30
0.0
 10
9.4631590798
 20
7.297890074
 30
0.0
 10
9.4533084073
 20
7.2915817903
 30
0.0
 10
9.4429787694
 20
7.2860638814
 30
0.0
 10
9.4344595082
 20
7.2821383965
 30
0.0
 10
9.4257642399
 20
7.2785370101
 30
0.0
 10
9.4146086198
 20
7.2746644556
 30
0.0
 10
9.4008609944
 20
7.2710553331
 30
0.0
 10
9.3868133902
 20
7.2684985258
 30
0.0
 10
9.3725436543
 20
7.267008146
 30
0.0
 10
9.3581301745
 20
7.2665921456
 30
0.0
 10
9.343652258
 20
7.2672526426
 30
0.0
 10
9.3291894792
 20
7.2689858215
 30
0.0
 10
9.314821305
 20
7.271781989
 30
0.0
 10
9.3006266475
 20
7.2756256266
 30
0.0
 10
9.2866834409
 20
7.2804954831
 30
0.0
 10
9.2730682181
 20
7.2863646942
 30
0.0
 10
9.2598556974
 20
7.2932009316
 30
0.0
 10
9.2471183775
 20
7.3009665821
 30
0.0
 10
9.2349261455
 20
7.3096189532
 30
0.0
 10
9.2233458979
 20
7.3191105068
 30
0.0
 10
9.2124411784
 20
7.3293891181
 30
0.0
 10
9.2022718325
 20
7.3403983592
 30
0.0
 10
9.1928936831
 20
7.3520778063
 30
0.0
 10
9.1843582265
 20
7.3643633676
 30
0.0
 10
9.1767123532
 20
7.3771876307
 30
0.0
 10
9.1699980907
 20
7.3904802309
 30
0.0
 10
9.1642523767
 20
7.4041682231
 30
0.0
 10
9.1595068518
 20
7.4181765111
 30
0.0
 10
9.1557876951
 20
7.4324281275
 30
0.0
 10
9.1531154595
 20
7.4468451185
 30
0.0
 10
9.1515049863
 20
7.4613472446
 30
0.0
 10
9.1511442666
 20
7.4710462893
 30
0.0
 10
9.1511442666
 20
7.4758816904
 30
0.0
  0
SPLINE
  5
390
100
AcDbEntity
  8
0
100
AcDbSpline
 62
7
  6
CONTINUOUS
 70
0
 71
3
 72
41
 73
37
 74
0
 42
0.0000001
 43
0.0000001
 44
0.0000000001
 40
0.0
 40
0.0
 40
0.0
 40
0.0
 40
0.0299421207
 40
0.0449237678
 40
0.059914515
 40
0.0899291702
 40
0.1200145975
 40
0.1350933607
 40
0.1501974781
 40
0.1804849759
 40
0.210898965
 40
0.2414525847
 40
0.2721557502
 40
0.3030149724
 40
0.3340332622
 40
0.3652101173
 40
0.3965415863
 40
0.428020404
 40
0.4596361919
 40
0.4913757156
 40
0.5232231916
 40
0.5551606357
 40
0.5871682465
 40
0.6192248153
 40
0.651308157
 40
0.6833955539
 40
0.7154642081
 40
0.747491694
 40
0.779456406
 40
0.8113379944
 40
0.8431177853
 40
0.8747791687
 40
0.9063079764
 40
0.9376927595
 40
0.9689251765
 40
1.0
 40
1.0
 40
1.0
 40
1.0
 10
11.6599333415
 20
7.1663396895
 30
0.0
 10
11.6565822178
 20
7.1631027744
 30
0.0
 10
11.6513580483
 20
7.1584434898
 30
0.0
 10
11.6440416852
 20
7.1526623491
 30
0.0
 10
11.6364923178
 20
7.147168902
 30
0.0
 10
11.6266416452
 20
7.1408606183
 30
0.0
 10
11.6163120073
 20
7.1353427095
 30
0.0
 10
11.6077927461
 20
7.1314172245
 30
0.0
 10
11.5990974779
 20
7.1278158381
 30
0.0
 10
11.5879418577
 20
7.1239432836
 30
0.0
 10
11.5741942324
 20
7.1203341611
 30
0.0
 10
11.5601466281
 20
7.1177773538
 30
0.0
 10
11.5458768922
 20
7.116286974
 30
0.0
 10
11.5314634124
 20
7.1158709737
 30
0.0
 10
11.516985496
 20
7.1165314707
 30
0.0
 10
11.5025227171
 20
7.1182646496
 30
0.0
 10
11.4881545429
 20
7.121060817
 30
0.0
 10
11.4739598854
 20
7.1249044546
 30
0.0
 10
11.4600166788
 20
7.1297743112
 30
0.0
 10
11.446401456
 20
7.1356435222
 30
0.0
 10
11.4331889353
 20
7.1424797596
 30
0.0
 10
11.4204516154
 20
7.1502454101
 30
0.0
 10
11.4082593834
 20
7.1588977813
 30
0.0
 10
11.3966791358
 20
7.1683893349
 30
0.0
 10
11.3857744163
 20
7.1786679461
 30
0.0
 10
11.3756050704
 20
7.1896771873
 30
0.0
 10
11.366226921
 20
7.2013566344
 30
0.0
 10
11.3576914645
 20
7.2136421956
 30
0.0
 10
11.3500455911
 20
7.2264664588
 30
0.0
 10
11.3433313286
 20
7.2397590589
 30
0.0
 10
11.3375856147
 20
7.2534470511
 30
0.0
 10
11.3328400897
 20
7.2674553391
 30
0.0
 10
11.329120933
 20
7.2817069555
 30
0.0
 10
11.3264486975
 20
7.2961239465
 30
0.0
 10
11.3248382243
 20
7.3106260726
 30
0.0
 10
11.3244775045
 20
7.3203251173
 30
0.0
 10
11.3244775045
 20
7.3251605184
 30
0.0
  0
SPLINE
  5
391
100
AcDbEntity
  8
0
100
AcDbSpline
 62
7
  6
CONTINUOUS
 70
0
 71
3
 72
39
 73
35
 74
0
 42
0.0000001
 43
0.0000001
 44
0.0000000001
 40
0.0
 40
0.0
 40
0.0
 40
0.0
 40
0.0311450496
 40
0.0624431124
 40
0.0938883501
 40
0.1254709987
 40
0.1571788953
 40
0.1889972749
 40
0.2209091922
 40
0.2528958629
 40
0.2849370446
 40
0.3170114373
 40
0.3490970993
 40
0.3811718714
 40
0.4132138048
 40
0.4452015851
 40
0.4771149473
 40
0.508935079
 40
0.5406450006
 40
0.572229919
 40
0.6036775474
 40
0.6349783854
 40
0.6661259539
 40
0.697116972
 40
0.7279514727
 40
0.758632853
 40
0.7891678509
 40
0.8195664476
 40
0.8498416867
 40
0.8800094173
 40
0.9100879625
 40
0.9400977185
 40
0.9700606941
 40
1.0
 40
1.0
 40
1.0
 40
1.0
 10
10.4256809867
 20
6.3686170679
 30
0.0
 10
10.4138862782
 20
6.3694350337
 30
0.0
 10
10.3902900091
 20
6.3719383065
 30
0.0
 10
10.3551816787
 20
6.3782441526
 30
0.0
 10
10.3204493954
 20
6.3870767109
 30
0.0
 10
10.2862807238
 20
6.3983885299
 30
0.0
 10
10.2528572085
 20
6.4121189726
 30
0.0
 10
10.2203571452
 20
6.4281946116
 30
0.0
 10
10.1889536573
 20
6.4465295136
 30
0.0
 10
10.1588140775
 20
6.4670257782
 30
0.0
 10
10.1300989895
 20
6.4895740409
 30
0.0
 10
10.1029614133
 20
6.5140540592
 30
0.0
 10
10.0775459691
 20
6.5403353174
 30
0.0
 10
10.0539881068
 20
6.5682777175
 30
0.0
 10
10.0324134236
 20
6.5977323504
 30
0.0
 10
10.0129369934
 20
6.6285422701
 30
0.0
 10
9.9956627712
 20
6.6605433242
 30
0.0
 10
9.9806829931
 20
6.6935649906
 30
0.0
 10
9.9680777074
 20
6.7274312951
 30
0.0
 10
9.9579143712
 20
6.761961745
 30
0.0
 10
9.9502474832
 20
6.7969722716
 30
0.0
 10
9.9451182937
 20
6.8322761959
 30
0.0
 10
9.9425545139
 20
6.8676852031
 30
0.0
 10
9.9425702092
 20
6.9030103484
 30
0.0
 10
9.9451657131
 20
6.9380630502
 30
0.0
 10
9.9503276085
 20
6.9726560854
 30
0.0
 10
9.9580287639
 20
7.0066045818
 30
0.0
 10
9.9682284134
 20
7.0397270264
 30
0.0
 10
9.9808723961
 20
7.0718462163
 30
0.0
 10
9.9958934758
 20
7.1027902762
 30
0.0
 10
10.0132114578
 20
7.1323933684
 30
0.0
 10
10.0327344313
 20
7.1604974395
 30
0.0
 10
10.0543560475
 20
7.1869500558
 30
0.0
 10
10.0700994534
 20
7.203396582
 30
0.0
 10
10.0782740273
 20
7.2112925875
 30
0.0
  0
SPLINE
  5
392
100
AcDbEntity
  8
0
100
AcDbSpline
 62
7
  6
CONTINUOUS
 70
0
 71
3
 72
23
 73
19
 74
0
 42
0.0000001
 43
0.0000001
 44
0.0000000001
 40
0.0
 40
0.0
 40
0.0
 40
0.0
 40
0.0616482046
 40
0.1233194369
 40
0.1850364679
 40
0.2468215571
 40
0.3086962063
 40
0.3706809237
 40
0.4327950053
 40
0.495056333
 40
0.5574811833
 40
0.6200840745
 40
0.6828776148
 40
0.745872329
 40
0.8090769454
 40
0.8724968733
 40
0.9361383371
 40
1.0
 40
1.0
 40
1.0
 40
1.0
 10
10.7674952534
 20
9.6370131617
 30
0.0
 10
10.7619740126
 20
9.6316800707
 30
0.0
 10
10.7506401541
 20
9.6213068112
 30
0.0
 10
10.7328242755
 20
9.6066800833
 30
0.0
 10
10.7142347598
 20
9.5930201681
 30
0.0
 10
10.6949190933
 20
9.5803620678
 30
0.0
 10
10.6749257784
 20
9.5687375033
 30
0.0
 10
10.6543052544
 20
9.5581757654
 30
0.0
 10
10.633109478
 20
9.5487034011
 30
0.0
 10
10.6113918613
 20
9.5403442259
 30
0.0
 10
10.5892071179
 20
9.5331192427
 30
0.0
 10
10.5666111283
 20
9.5270465974
 30
0.0
 10
10.5436608105
 20
9.5221415435
 30
0.0
 10
10.5204139254
 20
9.5184163291
 30
0.0
 10
10.4969291358
 20
9.5158803352
 30
0.0
 10
10.4732651726
 20
9.5145397338
 30
0.0
 10
10.4494825898
 20
9.5143980146
 30
0.0
 10
10.4336138737
 20
9.5151017451
 30
0.0
 10
10.4256809867
 20
9.5156518927
 30
0.0
  0
SPLINE
  5
393
100
AcDbEntity
  8
0
100
AcDbSpline
 62
7
  6
CONTINUOUS
 70
0
 71
3
 72
39
 73
35
 74
0
 42
0.0000001
 43
0.0000001
 44
0.0000000001
 40
0.0
 40
0.0
 40
0.0
 40
0.0
 40
0.0311159723
 40
0.0620233248
 40
0.0927351404
 40
0.1232711776
 40
0.1536587326
 40
0.1839312111
 40
0.2141268393
 40
0.2442870992
 40
0.2744549754
 40
0.3046731314
 40
0.3349820899
 40
0.3654185435
 40
0.3960138648
 40
0.4267928822
 40
0.4577729963
 40
0.4889636214
 40
0.5203659689
 40
0.551973178
 40
0.5837707188
 40
0.6157370639
 40
0.6478445901
 40
0.6800606405
 40
0.7123487311
 40
0.7446698622
 40
0.7769838843
 40
0.8092508939
 40
0.8414326243
 40
0.8734937998
 40
0.9054034123
 40
0.9371359058
 40
0.9686717941
 40
1.0
 40
1.0
 40
1.0
 40
1.0
 10
11.7345105589
 20
7.2892220588
 30
0.0
 10
11.7345105589
 20
7.2819793586
 30
0.0
 10
11.7338034749
 20
7.2675320396
 30
0.0
 10
11.730605701
 20
7.2461499065
 30
0.0
 10
11.7253045041
 20
7.2253263298
 30
0.0
 10
11.7179500114
 20
7.2052650498
 30
0.0
 10
11.7086126577
 20
7.1861593563
 30
0.0
 10
11.6973820628
 20
7.1681943553
 30
0.0
 10
11.6843663729
 20
7.1515440287
 30
0.0
 10
11.6696913691
 20
7.1363696091
 30
0.0
 10
11.6534989818
 20
7.1228180174
 30
0.0
 10
11.6359459803
 20
7.1110203233
 30
0.0
 10
11.6172024261
 20
7.1010902793
 30
0.0
 10
11.5974497633
 20
7.0931234576
 30
0.0
 10
11.5768790863
 20
7.0871962151
 30
0.0
 10
11.555689205
 20
7.0833649171
 30
0.0
 10
11.5340846123
 20
7.0816657397
 30
0.0
 10
11.5122735592
 20
7.0821142004
 30
0.0
 10
11.4904660122
 20
7.0847050616
 30
0.0
 10
11.4688716865
 20
7.0894126927
 30
0.0
 10
11.4476980605
 20
7.0961911262
 30
0.0
 10
11.4271483964
 20
7.1049745775
 30
0.0
 10
11.407419926
 20
7.1156782842
 30
0.0
 10
11.3887019101
 20
7.1281990815
 30
0.0
 10
11.3711738738
 20
7.1424164857
 30
0.0
 10
11.3550040392
 20
7.158193957
 30
0.0
 10
11.3403475727
 20
7.1753799762
 30
0.0
 10
11.3273451949
 20
7.1938096042
 30
0.0
 10
11.3161219696
 20
7.2133060636
 30
0.0
 10
11.3067858876
 20
7.2336823329
 30
0.0
 10
11.2994269721
 20
7.2547426993
 30
0.0
 10
11.2941165761
 20
7.2762857311
 30
0.0
 10
11.2909061604
 20
7.2981017967
 30
0.0
 10
11.2901846525
 20
7.3127440644
 30
0.0
 10
11.2901846525
 20
7.320036165
 30
0.0
  0
SPLINE
  5
394
100
AcDbEntity
  8
0
100
AcDbSpline
 62
7
  6
CONTINUOUS
 70
0
 71
3
 72
15
 73
11
 74
0
 42
0.0000001
 43
0.0000001
 44
0.0000000001
 40
0.0
 40
0.0
 40
0.0
 40
0.0
 40
0.1234333138
 40
0.2472418576
 40
0.3714706895
 40
0.4961579739
 40
0.6213355746
 40
0.7470245223
 40
0.8732463877
 40
1.0
 40
1.0
 40
1.0
 40
1.0
 10
10.7025553465
 20
9.9382700533
 30
0.0
 10
10.6983444018
 20
9.9363203522
 30
0.0
 10
10.6897807919
 20
9.9326869122
 30
0.0
 10
10.6765924516
 20
9.9280663729
 30
0.0
 10
10.6630902827
 20
9.924283924
 30
0.0
 10
10.6493254894
 20
9.9213539326
 30
0.0
 10
10.6353495006
 20
9.9192872614
 30
0.0
 10
10.6212143182
 20
9.918091424
 30
0.0
 10
10.6069736502
 20
9.9177709948
 30
0.0
 10
10.5974633707
 20
9.9181409032
 30
0.0
 10
10.5927095555
 20
9.9184705814
 30
0.0
  0
SPLINE
  5
395
100
AcDbEntity
  8
0
100
AcDbSpline
 62
4
  6
CONTINUOUS
 70
0
 71
3
 72
141
 73
137
 74
0
 42
0.0000001
 43
0.0000001
 44
0.0000000001
 40
0.0
 40
0.0
 40
0.0
 40
0.0
 40
0.03125
 40
0.0625
 40
0.078125
 40
0.09375
 40
0.109375
 40
0.125
 40
0.140625
 40
0.1484375
 40
0.15234375
 40
0.15625
 40
0.16015625
 40
0.162109375
 40
0.1640625
 40
0.1650390625
 40
0.166015625
 40
0.1665039062
 40
0.1669921875
 40
0.16796875
 40
0.169921875
 40
0.171875
 40
0.17578125
 40
0.1796875
 40
0.1875
 40
0.1953125
 40
0.203125
 40
0.21875
 40
0.234375
 40
0.25
 40
0.265625
 40
0.28125
 40
0.296875
 40
0.3046875
 40
0.3125
 40
0.3203125
 40
0.32421875
 40
0.328125
 40
0.330078125
 40
0.33203125
 40
0.3330078125
 40
0.3334960938
 40
0.333984375
 40
0.3349609375
 40
0.3359375
 40
0.337890625
 40
0.33984375
 40
0.34375
 40
0.34765625
 40
0.3515625
 40
0.359375
 40
0.375
 40
0.390625
 40
0.40625
 40
0.421875
 40
0.4375
 40
0.453125
 40
0.4609375
 40
0.46875
 40
0.4765625
 40
0.484375
 40
0.48828125
 40
0.4921875
 40
0.494140625
 40
0.49609375
 40
0.498046875
 40
0.4990234375
 40
0.4995117188
 40
0.5
 40
0.5004882812
 40
0.5009765625
 40
0.501953125
 40
0.50390625
 40
0.505859375
 40
0.5078125
 40
0.51171875
 40
0.515625
 40
0.5234375
 40
0.53125
 40
0.5390625
 40
0.546875
 40
0.5625
 40
0.578125
 40
0.59375
 40
0.609375
 40
0.625
 40
0.640625
 40
0.6484375
 40
0.65234375
 40
0.65625
 40
0.66015625
 40
0.662109375
 40
0.6640625
 40
0.6650390625
 40
0.666015625
 40
0.6665039062
 40
0.6669921875
 40
0.66796875
 40
0.669921875
 40
0.671875
 40
0.67578125
 40
0.6796875
 40
0.6875
 40
0.6953125
 40
0.703125
 40
0.71875
 40
0.734375
 40
0.75
 40
0.765625
 40
0.78125
 40
0.796875
 40
0.8046875
 40
0.8125
 40
0.8203125
 40
0.82421875
 40
0.828125
 40
0.830078125
 40
0.83203125
 40
0.8330078125
 40
0.8334960938
 40
0.833984375
 40
0.8349609375
 40
0.8359375
 40
0.837890625
 40
0.83984375
 40
0.84375
 40
0.84765625
 40
0.8515625
 40
0.859375
 40
0.875
 40
0.890625
 40
0.90625
 40
0.921875
 40
0.9375
 40
0.96875
 40
1.0
 40
1.0
 40
1.0
 40
1.0
 10
9.9610485506
 20
5.6396263993
 30
0.0
 10
9.9704603971
 20
5.6360823206
 30
0.0
 10
9.9892840902
 20
5.6289941632
 30
0.0
 10
10.0128137066
 20
5.6201339665
 30
0.0
 10
10.0316373997
 20
5.6130458091
 30
0.0
 10
10.0457551695
 20
5.6077296909
 30
0.0
 10
10.0598729395
 20
5.6024135736
 30
0.0
 10
10.0739907086
 20
5.5970974527
 30
0.0
 10
10.085755519
 20
5.5926673633
 30
0.0
 10
10.0939908808
 20
5.5895662784
 30
0.0
 10
10.0986968104
 20
5.5877942648
 30
0.0
 10
10.1022262333
 20
5.5864651563
 30
0.0
 10
10.1051674965
 20
5.5853578788
 30
0.0
 10
10.1075203334
 20
5.584471355
 30
0.0
 10
10.108991252
 20
5.5839188757
 30
0.0
 10
10.1101670809
 20
5.5834732325
 30
0.0
 10
10.110904041
 20
5.5832030557
 30
0.0
 10
10.1114888748
 20
5.5829677886
 30
0.0
 10
10.1120909919
 20
5.5828023443
 30
0.0
 10
10.1131527256
 20
5.5825452524
 30
0.0
 10
10.114665299
 20
5.5821610549
 30
0.0
 10
10.1170877574
 20
5.5815557966
 30
0.0
 10
10.1201150289
 20
5.5807959853
 30
0.0
 10
10.1249591113
 20
5.5795820972
 30
0.0
 10
10.1310140605
 20
5.5780641161
 30
0.0
 10
10.1382800654
 20
5.5762428046
 30
0.0
 10
10.147968049
 20
5.5738142964
 30
0.0
 10
10.1600780363
 20
5.570778693
 30
0.0
 10
10.1746100177
 20
5.5671359552
 30
0.0
 10
10.189142
 20
5.5634932213
 30
0.0
 10
10.2036739819
 20
5.5598504854
 30
0.0
 10
10.2182059644
 20
5.5562077536
 30
0.0
 10
10.2303159484
 20
5.5531721319
 30
0.0
 10
10.2400039388
 20
5.5507436609
 30
0.0
 10
10.2472699228
 20
5.5489222359
 30
0.0
 10
10.2533249373
 20
5.5474046099
 30
0.0
 10
10.2581688866
 20
5.5461899972
 30
0.0
 10
10.2611964967
 20
5.5454320301
 30
0.0
 10
10.26361826
 20
5.5448229864
 30
0.0
 10
10.2651326031
 20
5.5444484261
 30
0.0
 10
10.2661911582
 20
5.5441740248
 30
0.0
 10
10.2667983703
 20
5.5440363263
 30
0.0
 10
10.2674143347
 20
5.5439705891
 30
0.0
 10
10.2681812935
 20
5.5438637782
 30
0.0
 10
10.2694101023
 20
5.5437066504
 30
0.0
 10
10.2709455398
 20
5.5435055259
 30
0.0
 10
10.2734025604
 20
5.5431863617
 30
0.0
 10
10.2764737261
 20
5.5427865025
 30
0.0
 10
10.280159172
 20
5.5423070583
 30
0.0
 10
10.2850730835
 20
5.5416676644
 30
0.0
 10
10.2936724363
 20
5.5405487881
 30
0.0
 10
10.305957222
 20
5.5389503604
 30
0.0
 10
10.3206989665
 20
5.5370322613
 30
0.0
 10
10.3354407106
 20
5.5351141584
 30
0.0
 10
10.3501824548
 20
5.5331960564
 30
0.0
 10
10.364924199
 20
5.5312779544
 30
0.0
 10
10.3772089858
 20
5.5296795357
 30
0.0
 10
10.3870368152
 20
5.5284008015
 30
0.0
 10
10.3944076873
 20
5.5274417486
 30
0.0
 10
10.4017785594
 20
5.5264827047
 30
0.0
 10
10.4079209528
 20
5.5256834733
 30
0.0
 10
10.4128348675
 20
5.5250441512
 30
0.0
 10
10.4159060641
 20
5.5246444313
 30
0.0
 10
10.4183630218
 20
5.5243249842
 30
0.0
 10
10.4202057388
 20
5.5240844988
 30
0.0
 10
10.4217413402
 20
5.5238869573
 30
0.0
 10
10.4228162536
 20
5.5237430599
 30
0.0
 10
10.4234305017
 20
5.5236696053
 30
0.0
 10
10.4238911544
 20
5.523589802
 30
0.0
 10
10.4243519345
 20
5.523604462
 30
0.0
 10
10.4249662634
 20
5.5235910588
 30
0.0
 10
10.4260413599
 20
5.5235829552
 30
0.0
 10
10.4275772011
 20
5.5235633524
 30
0.0
 10
10.4294202152
 20
5.5235432645
 30
0.0
 10
10.4318775656
 20
5.5235152807
 30
0.0
 10
10.4349492543
 20
5.5234807119
 30
0.0
 10
10.4398639559
 20
5.5234251721
 30
0.0
 10
10.4460073329
 20
5.5233558261
 30
0.0
 10
10.4533793854
 20
5.5232725772
 30
0.0
 10
10.4607514378
 20
5.5231893373
 30
0.0
 10
10.4705808411
 20
5.5230783476
 30
0.0
 10
10.4828675951
 20
5.5229396115
 30
0.0
 10
10.4976117
 20
5.5227731279
 30
0.0
 10
10.5123558049
 20
5.5226066441
 30
0.0
 10
10.5270999096
 20
5.5224401613
 30
0.0
 10
10.5418440149
 20
5.5222736746
 30
0.0
 10
10.5541307678
 20
5.5221349477
 30
0.0
 10
10.5627314976
 20
5.5220378155
 30
0.0
 10
10.5676461961
 20
5.5219823479
 30
0.0
 10
10.571332232
 20
5.5219406442
 30
0.0
 10
10.5744038902
 20
5.5219062191
 30
0.0
 10
10.5768613028
 20
5.5218779435
 30
0.0
 10
10.5783969899
 20
5.5218619461
 30
0.0
 10
10.579625988
 20
5.5218453123
 30
0.0
 10
10.5803930885
 20
5.5218436685
 30
0.0
 10
10.5810091128
 20
5.5218223068
 30
0.0
 10
10.5816165802
 20
5.5218741301
 30
0.0
 10
10.5826756732
 20
5.5219988182
 30
0.0
 10
10.5841907373
 20
5.522159206
 30
0.0
 10
10.5866136806
 20
5.5224257394
 30
0.0
 10
10.5896427567
 20
5.522755512
 30
0.0
 10
10.5944890567
 20
5.523285045
 30
0.0
 10
10.6005470077
 20
5.5239463105
 30
0.0
 10
10.6078165163
 20
5.5247401077
 30
0.0
 10
10.6175092059
 20
5.5257984066
 30
0.0
 10
10.629625064
 20
5.5271213136
 30
0.0
 10
10.6441640953
 20
5.5287087877
 30
0.0
 10
10.6587031262
 20
5.5302962659
 30
0.0
 10
10.6732421573
 20
5.531883742
 30
0.0
 10
10.6877811881
 20
5.5334712223
 30
0.0
 10
10.6998970478
 20
5.5347941101
 30
0.0
 10
10.7095897341
 20
5.5358524482
 30
0.0
 10
10.7168592528
 20
5.5366461258
 30
0.0
 10
10.7229171724
 20
5.5373077655
 30
0.0
 10
10.7277635364
 20
5.537836535
 30
0.0
 10
10.7307924496
 20
5.5381682508
 30
0.0
 10
10.7332157273
 20
5.5384307954
 30
0.0
 10
10.73472994
 20
5.5386013385
 30
0.0
 10
10.7357905621
 20
5.5387077864
 30
0.0
 10
10.7363955786
 20
5.5387888476
 30
0.0
 10
10.7369966278
 20
5.5389461326
 30
0.0
 10
10.7377492976
 20
5.5391166399
 30
0.0
 10
10.7389528103
 20
5.5394040369
 30
0.0
 10
10.740457461
 20
5.5397582892
 30
0.0
 10
10.7428647568
 20
5.5403278839
 30
0.0
 10
10.7458739265
 20
5.5410389197
 30
0.0
 10
10.7494849088
 20
5.5418925725
 30
0.0
 10
10.7542995592
 20
5.5430306332
 30
0.0
 10
10.7627251941
 20
5.5450223062
 30
0.0
 10
10.7747618171
 20
5.5478675184
 30
0.0
 10
10.7892057639
 20
5.551281788
 30
0.0
 10
10.803649711
 20
5.5546960536
 30
0.0
 10
10.818093658
 20
5.5581103203
 30
0.0
 10
10.837352254
 20
5.5626626754
 30
0.0
 10
10.8614254991
 20
5.5683531196
 30
0.0
 10
10.8806840951
 20
5.5729054748
 30
0.0
 10
10.8903133931
 20
5.5751816524
 30
0.0
  0
SPLINE
  5
396
100
AcDbEntity
  8
0
100
AcDbSpline
 62
4
  6
CONTINUOUS
 70
0
 71
3
 72
141
 73
137
 74
0
 42
0.0000001
 43
0.0000001
 44
0.0000000001
 40
0.0
 40
0.0
 40
0.0
 40
0.0
 40
0.03125
 40
0.0625
 40
0.078125
 40
0.09375
 40
0.109375
 40
0.125
 40
0.140625
 40
0.1484375
 40
0.15234375
 40
0.15625
 40
0.16015625
 40
0.162109375
 40
0.1640625
 40
0.1650390625
 40
0.166015625
 40
0.1665039062
 40
0.1669921875
 40
0.16796875
 40
0.169921875
 40
0.171875
 40
0.17578125
 40
0.1796875
 40
0.1875
 40
0.1953125
 40
0.203125
 40
0.21875
 40
0.234375
 40
0.25
 40
0.265625
 40
0.28125
 40
0.296875
 40
0.3046875
 40
0.3125
 40
0.3203125
 40
0.32421875
 40
0.328125
 40
0.330078125
 40
0.33203125
 40
0.3330078125
 40
0.3334960938
 40
0.333984375
 40
0.3349609375
 40
0.3359375
 40
0.337890625
 40
0.33984375
 40
0.34375
 40
0.34765625
 40
0.3515625
 40
0.359375
 40
0.375
 40
0.390625
 40
0.40625
 40
0.421875
 40
0.4375
 40
0.453125
 40
0.4609375
 40
0.46875
 40
0.4765625
 40
0.484375
 40
0.48828125
 40
0.4921875
 40
0.494140625
 40
0.49609375
 40
0.498046875
 40
0.4990234375
 40
0.4995117188
 40
0.5
 40
0.5004882812
 40
0.5009765625
 40
0.501953125
 40
0.50390625
 40
0.505859375
 40
0.5078125
 40
0.51171875
 40
0.515625
 40
0.5234375
 40
0.53125
 40
0.5390625
 40
0.546875
 40
0.5625
 40
0.578125
 40
0.59375
 40
0.609375
 40
0.625
 40
0.640625
 40
0.6484375
 40
0.65234375
 40
0.65625
 40
0.66015625
 40
0.662109375
 40
0.6640625
 40
0.6650390625
 40
0.666015625
 40
0.6665039062
 40
0.6669921875
 40
0.66796875
 40
0.669921875
 40
0.671875
 40
0.67578125
 40
0.6796875
 40
0.6875
 40
0.6953125
 40
0.703125
 40
0.71875
 40
0.734375
 40
0.75
 40
0.765625
 40
0.78125
 40
0.796875
 40
0.8046875
 40
0.8125
 40
0.8203125
 40
0.82421875
 40
0.828125
 40
0.830078125
 40
0.83203125
 40
0.8330078125
 40
0.8334960938
 40
0.833984375
 40
0.8349609375
 40
0.8359375
 40
0.837890625
 40
0.83984375
 40
0.84375
 40
0.84765625
 40
0.8515625
 40
0.859375
 40
0.875
 40
0.890625
 40
0.90625
 40
0.921875
 40
0.9375
 40
0.96875
 40
1.0
 40
1.0
 40
1.0
 40
1.0
 10
8.8859951284
 20
6.4300444246
 30
0.0
 10
8.8865537245
 20
6.4244092747
 30
0.0
 10
8.8876709167
 20
6.4131389749
 30
0.0
 10
8.8890674069
 20
6.3990511002
 30
0.0
 10
8.8901845991
 20
6.3877808004
 30
0.0
 10
8.8910224931
 20
6.3793280755
 30
0.0
 10
8.891860388
 20
6.3708753507
 30
0.0
 10
8.8926982792
 20
6.3624226257
 30
0.0
 10
8.8933965334
 20
6.3553786888
 30
0.0
 10
8.8938852887
 20
6.3504479319
 30
0.0
 10
8.8941646129
 20
6.3476303581
 30
0.0
 10
8.8943740062
 20
6.3455171733
 30
0.0
 10
8.8945488185
 20
6.3437562003
 30
0.0
 10
8.8946879553
 20
6.3423473897
 30
0.0
 10
8.8947765396
 20
6.3414669563
 30
0.0
 10
8.8948436882
 20
6.3407624418
 30
0.0
 10
8.8948941412
 20
6.3403225032
 30
0.0
 10
8.894915069
 20
6.3399696752
 30
0.0
 10
8.8950069474
 20
6.3396200493
 30
0.0
 10
8.8952006943
 20
6.3390096915
 30
0.0
 10
8.8954602789
 20
6.3381369756
 30
0.0
 10
8.8958852246
 20
6.3367410639
 30
0.0
 10
8.8964131161
 20
6.3349960258
 30
0.0
 10
8.8972595816
 20
6.3322040478
 30
0.0
 10
8.8983170325
 20
6.3287140469
 30
0.0
 10
8.8995862437
 20
6.324526058
 30
0.0
 10
8.9012784309
 20
6.3189420685
 30
0.0
 10
8.9033936974
 20
6.3119620831
 30
0.0
 10
8.9059320031
 20
6.3035860999
 30
0.0
 10
8.9084703129
 20
6.295210117
 30
0.0
 10
8.9110086207
 20
6.2868341338
 30
0.0
 10
8.9135469322
 20
6.2784581517
 30
0.0
 10
8.9156621809
 20
6.2714781629
 30
0.0
 10
8.9173544042
 20
6.2658941804
 30
0.0
 10
8.9186235053
 20
6.26170617
 30
0.0
 10
8.9196813008
 20
6.2582162363
 30
0.0
 10
8.9205270632
 20
6.2554241211
 30
0.0
 10
8.9210567442
 20
6.2536794324
 30
0.0
 10
8.9214780167
 20
6.2522828035
 30
0.0
 10
8.9217469531
 20
6.2514119137
 30
0.0
 10
8.9219239031
 20
6.250798276
 30
0.0
 10
8.9220427058
 20
6.2504539074
 30
0.0
 10
8.9222281436
 20
6.2501332027
 30
0.0
 10
8.9224371251
 20
6.2497242193
 30
0.0
 10
8.9227842461
 20
6.2490743739
 30
0.0
 10
8.9232137815
 20
6.2482605168
 30
0.0
 10
8.9239034781
 20
6.2469592119
 30
0.0
 10
8.9247647618
 20
6.2453322835
 30
0.0
 10
8.9257986605
 20
6.2433800966
 30
0.0
 10
8.9271770671
 20
6.2407771364
 30
0.0
 10
8.929589337
 20
6.2362219767
 30
0.0
 10
8.9330354063
 20
6.229714595
 30
0.0
 10
8.9371707025
 20
6.2219057415
 30
0.0
 10
8.9413059952
 20
6.2140968868
 30
0.0
 10
8.9454412889
 20
6.2062880323
 30
0.0
 10
8.9495765824
 20
6.1984791779
 30
0.0
 10
8.95302266
 20
6.191971799
 30
0.0
 10
8.9557795228
 20
6.1867658964
 30
0.0
 10
8.957847168
 20
6.1828614682
 30
0.0
 10
8.9599148206
 20
6.1789570446
 30
0.0
 10
8.9616378414
 20
6.175703344
 30
0.0
 10
8.9630163095
 20
6.1731004154
 30
0.0
 10
8.963877735
 20
6.1714735124
 30
0.0
 10
8.9645671434
 20
6.1701721563
 30
0.0
 10
8.965083466
 20
6.169195684
 30
0.0
 10
8.9655160689
 20
6.1683834053
 30
0.0
 10
8.9658143104
 20
6.167811968
 30
0.0
 10
8.9659918862
 20
6.1674898703
 30
0.0
 10
8.9661049205
 20
6.1672357954
 30
0.0
 10
8.9662949689
 20
6.167029508
 30
0.0
 10
8.9665215034
 20
6.1667377894
 30
0.0
 10
8.9669304549
 20
6.166235048
 30
0.0
 10
8.9675081278
 20
6.1655127858
 30
0.0
 10
8.968204136
 20
6.1646478091
 30
0.0
 10
8.9691311688
 20
6.1634938997
 30
0.0
 10
8.9702902947
 20
6.1620517209
 30
0.0
 10
8.972144709
 20
6.1597441186
 30
0.0
 10
8.974462791
 20
6.1568596557
 30
0.0
 10
8.977244462
 20
6.153398283
 30
0.0
 10
8.9800261403
 20
6.1499369149
 30
0.0
 10
8.9837350421
 20
6.1453217558
 30
0.0
 10
8.9883711703
 20
6.1395528075
 30
0.0
 10
8.9939345237
 20
6.1326300694
 30
0.0
 10
8.9994978771
 20
6.1257073311
 30
0.0
 10
9.0050612312
 20
6.1187845935
 30
0.0
 10
9.0106245826
 20
6.1118618533
 30
0.0
 10
9.015260717
 20
6.1060929112
 30
0.0
 10
9.018505995
 20
6.1020546361
 30
0.0
 10
9.0203604646
 20
6.0997470746
 30
0.0
 10
9.0217512464
 20
6.098016335
 30
0.0
 10
9.0229104556
 20
6.0965742704
 30
0.0
 10
9.0238373195
 20
6.0954201286
 30
0.0
 10
9.0244177561
 20
6.0946999062
 30
0.0
 10
9.0248794792
 20
6.0941211719
 30
0.0
 10
9.0251740482
 20
6.0937652958
 30
0.0
 10
9.025395979
 20
6.0934672351
 30
0.0
 10
9.0256680138
 20
6.0932179476
 30
0.0
 10
9.0261673502
 20
6.0928043518
 30
0.0
 10
9.0268685439
 20
6.0922016792
 30
0.0
 10
9.0279972404
 20
6.0912440095
 30
0.0
 10
9.0294057874
 20
6.0900446602
 30
0.0
 10
9.0316607612
 20
6.0881269657
 30
0.0
 10
9.0344790329
 20
6.0857294138
 30
0.0
 10
9.0378611497
 20
6.0828525371
 30
0.0
 10
9.0423705721
 20
6.0790166367
 30
0.0
 10
9.048007373
 20
6.0742217835
 30
0.0
 10
9.0547715243
 20
6.06846795
 30
0.0
 10
9.0615356783
 20
6.0627141193
 30
0.0
 10
9.068299831
 20
6.0569602872
 30
0.0
 10
9.0750639861
 20
6.0512064582
 30
0.0
 10
9.0807007751
 20
6.0464115913
 30
0.0
 10
9.0852102217
 20
6.0425757187
 30
0.0
 10
9.0885922647
 20
6.0396987573
 30
0.0
 10
9.0914107674
 20
6.0373014704
 30
0.0
 10
9.0936652699
 20
6.0353832352
 30
0.0
 10
9.0950750165
 20
6.0341852618
 30
0.0
 10
9.0962012506
 20
6.0332247681
 30
0.0
 10
9.0969087135
 20
6.032629285
 30
0.0
 10
9.0973967896
 20
6.0322027759
 30
0.0
 10
9.097686874
 20
6.0319741876
 30
0.0
 10
9.0980190894
 20
6.0318026008
 30
0.0
 10
9.0984199331
 20
6.0315686001
 30
0.0
 10
9.0990693448
 20
6.031205106
 30
0.0
 10
9.099878349
 20
6.0307470038
 30
0.0
 10
9.1011742986
 20
6.0300161276
 30
0.0
 10
9.1027937062
 20
6.0291018162
 30
0.0
 10
9.1047372219
 20
6.028004949
 30
0.0
 10
9.1073284971
 20
6.0265423525
 30
0.0
 10
9.1118632656
 20
6.0239828585
 30
0.0
 10
9.118341487
 20
6.0203264124
 30
0.0
 10
9.126115361
 20
6.0159386883
 30
0.0
 10
9.1338892327
 20
6.0115509611
 30
0.0
 10
9.141663105
 20
6.0071632348
 30
0.0
 10
9.1520282679
 20
6.0013129327
 30
0.0
 10
9.1649847216
 20
5.9940000552
 30
0.0
 10
9.1753498846
 20
5.9881497532
 30
0.0
 10
9.1805324661
 20
5.9852246022
 30
0.0
  0
SPLINE
  5
397
100
AcDbEntity
  8
0
100
AcDbSpline
 62
4
  6
CONTINUOUS
 70
0
 71
3
 72
141
 73
137
 74
0
 42
0.0000001
 43
0.0000001
 44
0.0000000001
 40
0.0
 40
0.0
 40
0.0
 40
0.0
 40
0.03125
 40
0.0625
 40
0.078125
 40
0.09375
 40
0.109375
 40
0.125
 40
0.140625
 40
0.1484375
 40
0.15234375
 40
0.15625
 40
0.16015625
 40
0.162109375
 40
0.1640625
 40
0.1650390625
 40
0.166015625
 40
0.1665039062
 40
0.1669921875
 40
0.16796875
 40
0.169921875
 40
0.171875
 40
0.17578125
 40
0.1796875
 40
0.1875
 40
0.1953125
 40
0.203125
 40
0.21875
 40
0.234375
 40
0.25
 40
0.265625
 40
0.28125
 40
0.296875
 40
0.3046875
 40
0.3125
 40
0.3203125
 40
0.32421875
 40
0.328125
 40
0.330078125
 40
0.33203125
 40
0.3330078125
 40
0.3334960938
 40
0.333984375
 40
0.3349609375
 40
0.3359375
 40
0.337890625
 40
0.33984375
 40
0.34375
 40
0.34765625
 40
0.3515625
 40
0.359375
 40
0.375
 40
0.390625
 40
0.40625
 40
0.421875
 40
0.4375
 40
0.453125
 40
0.4609375
 40
0.46875
 40
0.4765625
 40
0.484375
 40
0.48828125
 40
0.4921875
 40
0.494140625
 40
0.49609375
 40
0.498046875
 40
0.4990234375
 40
0.4995117188
 40
0.5
 40
0.5004882812
 40
0.5009765625
 40
0.501953125
 40
0.50390625
 40
0.505859375
 40
0.5078125
 40
0.51171875
 40
0.515625
 40
0.5234375
 40
0.53125
 40
0.5390625
 40
0.546875
 40
0.5625
 40
0.578125
 40
0.59375
 40
0.609375
 40
0.625
 40
0.640625
 40
0.6484375
 40
0.65234375
 40
0.65625
 40
0.66015625
 40
0.662109375
 40
0.6640625
 40
0.6650390625
 40
0.666015625
 40
0.6665039062
 40
0.6669921875
 40
0.66796875
 40
0.669921875
 40
0.671875
 40
0.67578125
 40
0.6796875
 40
0.6875
 40
0.6953125
 40
0.703125
 40
0.71875
 40
0.734375
 40
0.75
 40
0.765625
 40
0.78125
 40
0.796875
 40
0.8046875
 40
0.8125
 40
0.8203125
 40
0.82421875
 40
0.828125
 40
0.830078125
 40
0.83203125
 40
0.8330078125
 40
0.8334960938
 40
0.833984375
 40
0.8349609375
 40
0.8359375
 40
0.837890625
 40
0.83984375
 40
0.84375
 40
0.84765625
 40
0.8515625
 40
0.859375
 40
0.875
 40
0.890625
 40
0.90625
 40
0.921875
 40
0.9375
 40
0.96875
 40
1.0
 40
1.0
 40
1.0
 40
1.0
 10
9.1805324677
 20
7.8907346965
 30
0.0
 10
9.1754851023
 20
7.8886036139
 30
0.0
 10
9.1653903715
 20
7.8843414486
 30
0.0
 10
9.152771958
 20
7.8790137421
 30
0.0
 10
9.1426772272
 20
7.8747515767
 30
0.0
 10
9.135106179
 20
7.871554953
 30
0.0
 10
9.1275351313
 20
7.8683583283
 30
0.0
 10
9.1199640819
 20
7.865161707
 30
0.0
 10
9.1136548793
 20
7.8624978453
 30
0.0
 10
9.1092384271
 20
7.8606331631
 30
0.0
 10
9.1067147564
 20
7.8595675975
 30
0.0
 10
9.1048219577
 20
7.858768516
 30
0.0
 10
9.1032447707
 20
7.8581023196
 30
0.0
 10
9.1019826952
 20
7.8575700245
 30
0.0
 10
9.1011946403
 20
7.8572358325
 30
0.0
 10
9.1005624965
 20
7.8569719316
 30
0.0
 10
9.100171285
 20
7.8567991155
 30
0.0
 10
9.0998494326
 20
7.8566789069
 30
0.0
 10
9.0995600105
 20
7.8564928234
 30
0.0
 10
9.0990685871
 20
7.8561365755
 30
0.0
 10
9.0983586934
 20
7.8556436164
 30
0.0
 10
9.0972272561
 20
7.854845959
 30
0.0
 10
9.0958114554
 20
7.8538519425
 30
0.0
 10
9.093547015
 20
7.8522598086
 30
0.0
 10
9.090716176
 20
7.850270227
 30
0.0
 10
9.0873192927
 20
7.8478824783
 30
0.0
 10
9.0827900719
 20
7.844698901
 30
0.0
 10
9.0771285606
 20
7.8407193993
 30
0.0
 10
9.0703347407
 20
7.8359440102
 30
0.0
 10
9.0635409226
 20
7.8311686174
 30
0.0
 10
9.0567471034
 20
7.8263932264
 30
0.0
 10
9.049953287
 20
7.8216178322
 30
0.0
 10
9.0442917651
 20
7.8176383461
 30
0.0
 10
9.0397625658
 20
7.8144547369
 30
0.0
 10
9.0363656167
 20
7.8120670858
 30
0.0
 10
9.0335349837
 20
7.8100771989
 30
0.0
 10
9.031270123
 20
7.8084856878
 30
0.0
 10
9.0298553919
 20
7.8074900863
 30
0.0
 10
9.0287217591
 20
7.8066956823
 30
0.0
 10
9.0280174552
 20
7.8061944404
 30
0.0
 10
9.0275159918
 20
7.8058530694
 30
0.0
 10
9.0272426631
 20
7.8056431392
 30
0.0
 10
9.0270191434
 20
7.8053772254
 30
0.0
 10
9.0267226892
 20
7.8050640018
 30
0.0
 10
9.0262578934
 20
7.8045521316
 30
0.0
 10
9.0256736353
 20
7.8039159618
 30
0.0
 10
9.0247406462
 20
7.8028960402
 30
0.0
 10
9.0235737841
 20
7.8016218415
 30
0.0
 10
9.0221738174
 20
7.8000925021
 30
0.0
 10
9.0203071017
 20
7.7980534878
 30
0.0
 10
9.0170403927
 20
7.7944851639
 30
0.0
 10
9.0123736428
 20
7.789387584
 30
0.0
 10
9.0067735527
 20
7.783270477
 30
0.0
 10
9.0011734599
 20
7.777153373
 30
0.0
 10
8.9955733679
 20
7.7710362683
 30
0.0
 10
8.9899732757
 20
7.7649191636
 30
0.0
 10
8.985306532
 20
7.7598215766
 30
0.0
 10
8.9815731377
 20
7.7557435065
 30
0.0
 10
8.9787730901
 20
7.7526849554
 30
0.0
 10
8.9759730498
 20
7.7496263986
 30
0.0
 10
8.9736396601
 20
7.7470776189
 30
0.0
 10
8.9717729994
 20
7.7450385558
 30
0.0
 10
8.97060622
 20
7.7437642308
 30
0.0
 10
8.9696730634
 20
7.742744566
 30
0.0
 10
8.968972465
 20
7.7419803783
 30
0.0
 10
8.9683909581
 20
7.7413417707
 30
0.0
 10
8.9679793405
 20
7.7408982475
 30
0.0
 10
8.9677512547
 20
7.7406393374
 30
0.0
 10
8.9675601214
 20
7.7404605588
 30
0.0
 10
8.9674457017
 20
7.7402228986
 30
0.0
 10
8.9672663835
 20
7.7399265569
 30
0.0
 10
8.9669650439
 20
7.7393983897
 30
0.0
 10
8.9665280408
 20
7.738648868
 30
0.0
 10
8.966006427
 20
7.7377473005
 30
0.0
 10
8.9653099674
 20
7.7365459585
 30
0.0
 10
8.9644397267
 20
7.7350440248
 30
0.0
 10
8.9630471549
 20
7.7326410742
 30
0.0
 10
8.9613065043
 20
7.7296373367
 30
0.0
 10
8.9592176961
 20
7.7260328728
 30
0.0
 10
8.9571288952
 20
7.7224284033
 30
0.0
 10
8.9543438248
 20
7.7176224459
 30
0.0
 10
8.9508624877
 20
7.7116149984
 30
0.0
 10
8.9466848828
 20
7.7044060618
 30
0.0
 10
8.9425072778
 20
7.6971971252
 30
0.0
 10
8.9383296737
 20
7.6899881881
 30
0.0
 10
8.9341520661
 20
7.6827792528
 30
0.0
 10
8.9306707373
 20
7.6767718013
 30
0.0
 10
8.9282337859
 20
7.6725665959
 30
0.0
 10
8.9268412754
 20
7.6701636047
 30
0.0
 10
8.925796799
 20
7.6683614082
 30
0.0
 10
8.9249266999
 20
7.6668594286
 30
0.0
 10
8.9242299525
 20
7.6656581794
 30
0.0
 10
8.9237960067
 20
7.6649066372
 30
0.0
 10
8.9234453659
 20
7.6643071472
 30
0.0
 10
8.9232341652
 20
7.6639284872
 30
0.0
 10
8.9230469961
 20
7.6636346724
 30
0.0
 10
8.9229263016
 20
7.6633075877
 30
0.0
 10
8.9227459665
 20
7.6627197342
 30
0.0
 10
8.9224722331
 20
7.6618880073
 30
0.0
 10
8.9220432637
 20
7.6605527379
 30
0.0
 10
8.921503969
 20
7.6588851941
 30
0.0
 10
8.9206428206
 20
7.6562162616
 30
0.0
 10
8.9195657939
 20
7.6528803919
 30
0.0
 10
8.9182736149
 20
7.6488772216
 30
0.0
 10
8.9165506212
 20
7.6435397055
 30
0.0
 10
8.9143969094
 20
7.6368677951
 30
0.0
 10
8.9118124422
 20
7.6288615092
 30
0.0
 10
8.9092279787
 20
7.6208552215
 30
0.0
 10
8.9066435133
 20
7.6128489345
 30
0.0
 10
8.9040590518
 20
7.6048426462
 30
0.0
 10
8.9019053223
 20
7.5981707432
 30
0.0
 10
8.9001823646
 20
7.5928332122
 30
0.0
 10
8.8988900757
 20
7.5888300873
 30
0.0
 10
8.897813393
 20
7.5854940756
 30
0.0
 10
8.8969515427
 20
7.5828254328
 30
0.0
 10
8.8964140344
 20
7.5811571517
 30
0.0
 10
8.8959813981
 20
7.5798233957
 30
0.0
 10
8.8957170006
 20
7.5789878156
 30
0.0
 10
8.8955198973
 20
7.5784068831
 30
0.0
 10
8.895426081
 20
7.5780687045
 30
0.0
 10
8.8954031405
 20
7.5777071051
 30
0.0
 10
8.8953501971
 20
7.5772631251
 30
0.0
 10
8.8952790495
 20
7.5765482755
 30
0.0
 10
8.8951854715
 20
7.575656248
 30
0.0
 10
8.8950383419
 20
7.5742281464
 30
0.0
 10
8.8948535396
 20
7.5724433137
 30
0.0
 10
8.8946321578
 20
7.5703013885
 30
0.0
 10
8.8943368493
 20
7.5674455321
 30
0.0
 10
8.8938201212
 20
7.562447763
 30
0.0
 10
8.8930819058
 20
7.5553081035
 30
0.0
 10
8.8921960613
 20
7.5467405076
 30
0.0
 10
8.891310213
 20
7.5381729128
 30
0.0
 10
8.8904243658
 20
7.5296053178
 30
0.0
 10
8.8892432358
 20
7.5181818579
 30
0.0
 10
8.8877668233
 20
7.5039025329
 30
0.0
 10
8.8865856934
 20
7.4924790729
 30
0.0
 10
8.8859951284
 20
7.4867673429
 30
0.0
  0
SPLINE
  5
398
100
AcDbEntity
  8
0
100
AcDbSpline
 62
4
  6
CONTINUOUS
 70
0
 71
3
 72
141
 73
137
 74
0
 42
0.0000001
 43
0.0000001
 44
0.0000000001
 40
0.0
 40
0.0
 40
0.0
 40
0.0
 40
0.03125
 40
0.0625
 40
0.078125
 40
0.09375
 40
0.109375
 40
0.125
 40
0.140625
 40
0.1484375
 40
0.15234375
 40
0.15625
 40
0.16015625
 40
0.162109375
 40
0.1640625
 40
0.1650390625
 40
0.166015625
 40
0.1665039062
 40
0.1669921875
 40
0.16796875
 40
0.169921875
 40
0.171875
 40
0.17578125
 40
0.1796875
 40
0.1875
 40
0.1953125
 40
0.203125
 40
0.21875
 40
0.234375
 40
0.25
 40
0.265625
 40
0.28125
 40
0.296875
 40
0.3046875
 40
0.3125
 40
0.3203125
 40
0.32421875
 40
0.328125
 40
0.330078125
 40
0.33203125
 40
0.3330078125
 40
0.3334960938
 40
0.333984375
 40
0.3349609375
 40
0.3359375
 40
0.337890625
 40
0.33984375
 40
0.34375
 40
0.34765625
 40
0.3515625
 40
0.359375
 40
0.375
 40
0.390625
 40
0.40625
 40
0.421875
 40
0.4375
 40
0.453125
 40
0.4609375
 40
0.46875
 40
0.4765625
 40
0.484375
 40
0.48828125
 40
0.4921875
 40
0.494140625
 40
0.49609375
 40
0.498046875
 40
0.4990234375
 40
0.4995117188
 40
0.5
 40
0.5004882812
 40
0.5009765625
 40
0.501953125
 40
0.50390625
 40
0.505859375
 40
0.5078125
 40
0.51171875
 40
0.515625
 40
0.5234375
 40
0.53125
 40
0.5390625
 40
0.546875
 40
0.5625
 40
0.578125
 40
0.59375
 40
0.609375
 40
0.625
 40
0.640625
 40
0.6484375
 40
0.65234375
 40
0.65625
 40
0.66015625
 40
0.662109375
 40
0.6640625
 40
0.6650390625
 40
0.666015625
 40
0.6665039062
 40
0.6669921875
 40
0.66796875
 40
0.669921875
 40
0.671875
 40
0.67578125
 40
0.6796875
 40
0.6875
 40
0.6953125
 40
0.703125
 40
0.71875
 40
0.734375
 40
0.75
 40
0.765625
 40
0.78125
 40
0.796875
 40
0.8046875
 40
0.8125
 40
0.8203125
 40
0.82421875
 40
0.828125
 40
0.830078125
 40
0.83203125
 40
0.8330078125
 40
0.8334960938
 40
0.833984375
 40
0.8349609375
 40
0.8359375
 40
0.837890625
 40
0.83984375
 40
0.84375
 40
0.84765625
 40
0.8515625
 40
0.859375
 40
0.875
 40
0.890625
 40
0.90625
 40
0.921875
 40
0.9375
 40
0.96875
 40
1.0
 40
1.0
 40
1.0
 40
1.0
 10
10.8903134229
 20
8.0636302126
 30
0.0
 10
10.8809015763
 20
8.0671742913
 30
0.0
 10
10.8620778832
 20
8.0742624486
 30
0.0
 10
10.8385482669
 20
8.0831226454
 30
0.0
 10
10.8197245738
 20
8.0902108027
 30
0.0
 10
10.805606804
 20
8.095526921
 30
0.0
 10
10.791489034
 20
8.1008430382
 30
0.0
 10
10.7773712649
 20
8.1061591591
 30
0.0
 10
10.7656064544
 20
8.1105892485
 30
0.0
 10
10.7573710927
 20
8.1136903334
 30
0.0
 10
10.7526651631
 20
8.1154623471
 30
0.0
 10
10.7491357401
 20
8.1167914555
 30
0.0
 10
10.7461944769
 20
8.117898733
 30
0.0
 10
10.7438416401
 20
8.1187852568
 30
0.0
 10
10.7423707215
 20
8.1193377362
 30
0.0
 10
10.7411948925
 20
8.1197833794
 30
0.0
 10
10.7404579325
 20
8.1200535561
 30
0.0
 10
10.7398730986
 20
8.1202888233
 30
0.0
 10
10.7392709815
 20
8.1204542676
 30
0.0
 10
10.7382092478
 20
8.1207113595
 30
0.0
 10
10.7366966745
 20
8.1210955569
 30
0.0
 10
10.734274216
 20
8.1217008153
 30
0.0
 10
10.7312469445
 20
8.1224606265
 30
0.0
 10
10.7264028622
 20
8.1236745146
 30
0.0
 10
10.7203479129
 20
8.1251924957
 30
0.0
 10
10.713081908
 20
8.1270138073
 30
0.0
 10
10.7033939245
 20
8.1294423155
 30
0.0
 10
10.6912839372
 20
8.1324779189
 30
0.0
 10
10.6767519558
 20
8.1361206567
 30
0.0
 10
10.6622199735
 20
8.1397633906
 30
0.0
 10
10.6476879915
 20
8.1434061264
 30
0.0
 10
10.633156009
 20
8.1470488583
 30
0.0
 10
10.6210460251
 20
8.1500844799
 30
0.0
 10
10.6113580347
 20
8.1525129509
 30
0.0
 10
10.6040920507
 20
8.154334376
 30
0.0
 10
10.5980370362
 20
8.1558520019
 30
0.0
 10
10.5931930869
 20
8.1570666146
 30
0.0
 10
10.5901654768
 20
8.1578245818
 30
0.0
 10
10.5877437134
 20
8.1584336255
 30
0.0
 10
10.5862293704
 20
8.1588081858
 30
0.0
 10
10.5851708152
 20
8.1590825871
 30
0.0
 10
10.5845636032
 20
8.1592202855
 30
0.0
 10
10.5839476387
 20
8.1592860228
 30
0.0
 10
10.58318068
 20
8.1593928337
 30
0.0
 10
10.5819518712
 20
8.1595499615
 30
0.0
 10
10.5804164336
 20
8.159751086
 30
0.0
 10
10.5779594131
 20
8.1600702501
 30
0.0
 10
10.5748882474
 20
8.1604701094
 30
0.0
 10
10.5712028014
 20
8.1609495536
 30
0.0
 10
10.5662888899
 20
8.1615889474
 30
0.0
 10
10.5576895371
 20
8.1627078238
 30
0.0
 10
10.5454047515
 20
8.1643062515
 30
0.0
 10
10.5306630069
 20
8.1662243506
 30
0.0
 10
10.5159212629
 20
8.1681424535
 30
0.0
 10
10.5011795187
 20
8.1700605554
 30
0.0
 10
10.4864377745
 20
8.1719786575
 30
0.0
 10
10.4741529877
 20
8.1735770762
 30
0.0
 10
10.4643251582
 20
8.1748558103
 30
0.0
 10
10.4569542862
 20
8.1758148633
 30
0.0
 10
10.4495834141
 20
8.1767739072
 30
0.0
 10
10.4434410207
 20
8.1775731386
 30
0.0
 10
10.4385271059
 20
8.1782124607
 30
0.0
 10
10.4354559094
 20
8.1786121805
 30
0.0
 10
10.4329989517
 20
8.1789316277
 30
0.0
 10
10.4311562346
 20
8.179172113
 30
0.0
 10
10.4296206332
 20
8.1793696546
 30
0.0
 10
10.4285457198
 20
8.179513552
 30
0.0
 10
10.4279314718
 20
8.1795870065
 30
0.0
 10
10.427470819
 20
8.1796668099
 30
0.0
 10
10.427010039
 20
8.1796521499
 30
0.0
 10
10.42639571
 20
8.179665553
 30
0.0
 10
10.4253206136
 20
8.1796736567
 30
0.0
 10
10.4237847724
 20
8.1796932594
 30
0.0
 10
10.4219417583
 20
8.1797133473
 30
0.0
 10
10.4194844078
 20
8.1797413311
 30
0.0
 10
10.4164127191
 20
8.1797759
 30
0.0
 10
10.4114980176
 20
8.1798314398
 30
0.0
 10
10.4053546405
 20
8.1799007858
 30
0.0
 10
10.3979825881
 20
8.1799840347
 30
0.0
 10
10.3906105356
 20
8.1800672746
 30
0.0
 10
10.3807811324
 20
8.1801782643
 30
0.0
 10
10.3684943783
 20
8.1803170003
 30
0.0
 10
10.3537502735
 20
8.180483484
 30
0.0
 10
10.3390061686
 20
8.1806499678
 30
0.0
 10
10.3242620638
 20
8.1808164506
 30
0.0
 10
10.3095179586
 20
8.1809829372
 30
0.0
 10
10.2972312056
 20
8.1811216641
 30
0.0
 10
10.2886304758
 20
8.1812187964
 30
0.0
 10
10.2837157773
 20
8.181274264
 30
0.0
 10
10.2800297414
 20
8.1813159676
 30
0.0
 10
10.2769580832
 20
8.1813503927
 30
0.0
 10
10.2745006706
 20
8.1813786684
 30
0.0
 10
10.2729649836
 20
8.1813946657
 30
0.0
 10
10.2717359855
 20
8.1814112995
 30
0.0
 10
10.270968885
 20
8.1814129433
 30
0.0
 10
10.2703528607
 20
8.181434305
 30
0.0
 10
10.2697453932
 20
8.1813824818
 30
0.0
 10
10.2686863002
 20
8.1812577936
 30
0.0
 10
10.2671712362
 20
8.1810974058
 30
0.0
 10
10.2647482928
 20
8.1808308724
 30
0.0
 10
10.2617192167
 20
8.1805010999
 30
0.0
 10
10.2568729168
 20
8.1799715668
 30
0.0
 10
10.2508149658
 20
8.1793103013
 30
0.0
 10
10.2435454571
 20
8.1785165042
 30
0.0
 10
10.2338527675
 20
8.1774582053
 30
0.0
 10
10.2217369095
 20
8.1761352982
 30
0.0
 10
10.2071978781
 20
8.1745478241
 30
0.0
 10
10.1926588472
 20
8.172960346
 30
0.0
 10
10.1781198162
 20
8.1713728699
 30
0.0
 10
10.1635807853
 20
8.1697853895
 30
0.0
 10
10.1514649257
 20
8.1684625017
 30
0.0
 10
10.1417722394
 20
8.1674041636
 30
0.0
 10
10.1345027207
 20
8.1666104861
 30
0.0
 10
10.128444801
 20
8.1659488463
 30
0.0
 10
10.1235984371
 20
8.1654200768
 30
0.0
 10
10.1205695239
 20
8.165088361
 30
0.0
 10
10.1181462461
 20
8.1648258165
 30
0.0
 10
10.1166320334
 20
8.1646552733
 30
0.0
 10
10.1155714114
 20
8.1645488254
 30
0.0
 10
10.1149663948
 20
8.1644677642
 30
0.0
 10
10.1143653457
 20
8.1643104792
 30
0.0
 10
10.1136126758
 20
8.1641399719
 30
0.0
 10
10.1124091632
 20
8.1638525749
 30
0.0
 10
10.1109045125
 20
8.1634983227
 30
0.0
 10
10.1084972166
 20
8.162928728
 30
0.0
 10
10.105488047
 20
8.1622176922
 30
0.0
 10
10.1018770647
 20
8.1613640394
 30
0.0
 10
10.0970624142
 20
8.1602259786
 30
0.0
 10
10.0886367794
 20
8.1582343057
 30
0.0
 10
10.0766001564
 20
8.1553890935
 30
0.0
 10
10.0621562095
 20
8.1519748239
 30
0.0
 10
10.0477122624
 20
8.1485605583
 30
0.0
 10
10.0332683154
 20
8.1451462916
 30
0.0
 10
10.0140097194
 20
8.1405939364
 30
0.0
 10
9.9899364744
 20
8.1349034923
 30
0.0
 10
9.9706778784
 20
8.130351137
 30
0.0
 10
9.9610485804
 20
8.1280749594
 30
0.0
  0
SPLINE
  5
399
100
AcDbEntity
  8
0
100
AcDbSpline
 62
4
  6
CONTINUOUS
 70
0
 71
3
 72
141
 73
137
 74
0
 42
0.0000001
 43
0.0000001
 44
0.0000000001
 40
0.0
 40
0.0
 40
0.0
 40
0.0
 40
0.03125
 40
0.0625
 40
0.078125
 40
0.09375
 40
0.109375
 40
0.125
 40
0.140625
 40
0.1484375
 40
0.15234375
 40
0.15625
 40
0.16015625
 40
0.162109375
 40
0.1640625
 40
0.1650390625
 40
0.166015625
 40
0.1665039062
 40
0.1669921875
 40
0.16796875
 40
0.169921875
 40
0.171875
 40
0.17578125
 40
0.1796875
 40
0.1875
 40
0.1953125
 40
0.203125
 40
0.21875
 40
0.234375
 40
0.25
 40
0.265625
 40
0.28125
 40
0.296875
 40
0.3046875
 40
0.3125
 40
0.3203125
 40
0.32421875
 40
0.328125
 40
0.330078125
 40
0.33203125
 40
0.3330078125
 40
0.3334960938
 40
0.333984375
 40
0.3349609375
 40
0.3359375
 40
0.337890625
 40
0.33984375
 40
0.34375
 40
0.34765625
 40
0.3515625
 40
0.359375
 40
0.375
 40
0.390625
 40
0.40625
 40
0.421875
 40
0.4375
 40
0.453125
 40
0.4609375
 40
0.46875
 40
0.4765625
 40
0.484375
 40
0.48828125
 40
0.4921875
 40
0.494140625
 40
0.49609375
 40
0.498046875
 40
0.4990234375
 40
0.4995117188
 40
0.5
 40
0.5004882812
 40
0.5009765625
 40
0.501953125
 40
0.50390625
 40
0.505859375
 40
0.5078125
 40
0.51171875
 40
0.515625
 40
0.5234375
 40
0.53125
 40
0.5390625
 40
0.546875
 40
0.5625
 40
0.578125
 40
0.59375
 40
0.609375
 40
0.625
 40
0.640625
 40
0.6484375
 40
0.65234375
 40
0.65625
 40
0.66015625
 40
0.662109375
 40
0.6640625
 40
0.6650390625
 40
0.666015625
 40
0.6665039062
 40
0.6669921875
 40
0.66796875
 40
0.669921875
 40
0.671875
 40
0.67578125
 40
0.6796875
 40
0.6875
 40
0.6953125
 40
0.703125
 40
0.71875
 40
0.734375
 40
0.75
 40
0.765625
 40
0.78125
 40
0.796875
 40
0.8046875
 40
0.8125
 40
0.8203125
 40
0.82421875
 40
0.828125
 40
0.830078125
 40
0.83203125
 40
0.8330078125
 40
0.8334960938
 40
0.833984375
 40
0.8349609375
 40
0.8359375
 40
0.837890625
 40
0.83984375
 40
0.84375
 40
0.84765625
 40
0.8515625
 40
0.859375
 40
0.875
 40
0.890625
 40
0.90625
 40
0.921875
 40
0.9375
 40
0.96875
 40
1.0
 40
1.0
 40
1.0
 40
1.0
 10
11.9653668451
 20
7.2732121873
 30
0.0
 10
11.964808249
 20
7.2788473372
 30
0.0
 10
11.9636910568
 20
7.290117637
 30
0.0
 10
11.9622945666
 20
7.3042055117
 30
0.0
 10
11.9611773743
 20
7.3154758115
 30
0.0
 10
11.9603394804
 20
7.3239285363
 30
0.0
 10
11.9595015855
 20
7.3323812611
 30
0.0
 10
11.9586636943
 20
7.3408339861
 30
0.0
 10
11.95796544
 20
7.3478779231
 30
0.0
 10
11.9574766847
 20
7.35280868
 30
0.0
 10
11.9571973606
 20
7.3556262537
 30
0.0
 10
11.9569879673
 20
7.3577394386
 30
0.0
 10
11.9568131549
 20
7.3595004116
 30
0.0
 10
11.9566740181
 20
7.3609092222
 30
0.0
 10
11.9565854339
 20
7.3617896555
 30
0.0
 10
11.9565182853
 20
7.36249417
 30
0.0
 10
11.9564678322
 20
7.3629341086
 30
0.0
 10
11.9564469045
 20
7.3632869366
 30
0.0
 10
11.9563550261
 20
7.3636365626
 30
0.0
 10
11.9561612792
 20
7.3642469204
 30
0.0
 10
11.9559016946
 20
7.3651196363
 30
0.0
 10
11.9554767489
 20
7.3665155479
 30
0.0
 10
11.9549488574
 20
7.368260586
 30
0.0
 10
11.9541023919
 20
7.371052564
 30
0.0
 10
11.9530449409
 20
7.374542565
 30
0.0
 10
11.9517757298
 20
7.3787305539
 30
0.0
 10
11.9500835425
 20
7.3843145434
 30
0.0
 10
11.9479682761
 20
7.3912945288
 30
0.0
 10
11.9454299703
 20
7.3996705119
 30
0.0
 10
11.9428916606
 20
7.4080464948
 30
0.0
 10
11.9403533528
 20
7.4164224781
 30
0.0
 10
11.9378150412
 20
7.4247984601
 30
0.0
 10
11.9356997925
 20
7.431778449
 30
0.0
 10
11.9340075692
 20
7.4373624314
 30
0.0
 10
11.9327384682
 20
7.4415504419
 30
0.0
 10
11.9316806726
 20
7.4450403755
 30
0.0
 10
11.9308349102
 20
7.4478324908
 30
0.0
 10
11.9303052292
 20
7.4495771795
 30
0.0
 10
11.9298839568
 20
7.4509738084
 30
0.0
 10
11.9296150204
 20
7.4518446982
 30
0.0
 10
11.9294380704
 20
7.4524583359
 30
0.0
 10
11.9293192676
 20
7.4528027044
 30
0.0
 10
11.9291338298
 20
7.4531234092
 30
0.0
 10
11.9289248483
 20
7.4535323925
 30
0.0
 10
11.9285777274
 20
7.4541822379
 30
0.0
 10
11.928148192
 20
7.4549960951
 30
0.0
 10
11.9274584953
 20
7.4562974
 30
0.0
 10
11.9265972116
 20
7.4579243284
 30
0.0
 10
11.9255633129
 20
7.4598765152
 30
0.0
 10
11.9241849063
 20
7.4624794754
 30
0.0
 10
11.9217726365
 20
7.4670346351
 30
0.0
 10
11.9183265672
 20
7.4735420169
 30
0.0
 10
11.9141912709
 20
7.4813508704
 30
0.0
 10
11.9100559782
 20
7.4891597251
 30
0.0
 10
11.9059206846
 20
7.4969685795
 30
0.0
 10
11.9017853911
 20
7.5047774339
 30
0.0
 10
11.8983393134
 20
7.5112848128
 30
0.0
 10
11.8955824506
 20
7.5164907155
 30
0.0
 10
11.8935148054
 20
7.5203951437
 30
0.0
 10
11.8914471529
 20
7.5242995673
 30
0.0
 10
11.889724132
 20
7.5275532679
 30
0.0
 10
11.888345664
 20
7.5301561965
 30
0.0
 10
11.8874842384
 20
7.5317830994
 30
0.0
 10
11.88679483
 20
7.5330844555
 30
0.0
 10
11.8862785074
 20
7.5340609279
 30
0.0
 10
11.8858459046
 20
7.5348732066
 30
0.0
 10
11.8855476631
 20
7.5354446438
 30
0.0
 10
11.8853700873
 20
7.5357667415
 30
0.0
 10
11.8852570529
 20
7.5360208164
 30
0.0
 10
11.8850670045
 20
7.5362271038
 30
0.0
 10
11.8848404701
 20
7.5365188225
 30
0.0
 10
11.8844315185
 20
7.5370215638
 30
0.0
 10
11.8838538457
 20
7.537743826
 30
0.0
 10
11.8831578374
 20
7.5386088028
 30
0.0
 10
11.8822308046
 20
7.5397627121
 30
0.0
 10
11.8810716787
 20
7.5412048909
 30
0.0
 10
11.8792172645
 20
7.5435124932
 30
0.0
 10
11.8768991824
 20
7.5463969562
 30
0.0
 10
11.8741175115
 20
7.5498583289
 30
0.0
 10
11.8713358332
 20
7.553319697
 30
0.0
 10
11.8676269313
 20
7.557934856
 30
0.0
 10
11.8629908032
 20
7.5637038043
 30
0.0
 10
11.8574274497
 20
7.5706265425
 30
0.0
 10
11.8518640963
 20
7.5775492808
 30
0.0
 10
11.8463007423
 20
7.5844720184
 30
0.0
 10
11.8407373908
 20
7.5913947585
 30
0.0
 10
11.8361012565
 20
7.5971637007
 30
0.0
 10
11.8328559784
 20
7.6012019758
 30
0.0
 10
11.8310015088
 20
7.6035095372
 30
0.0
 10
11.8296107271
 20
7.6052402769
 30
0.0
 10
11.8284515178
 20
7.6066823414
 30
0.0
 10
11.827524654
 20
7.6078364832
 30
0.0
 10
11.8269442174
 20
7.6085567056
 30
0.0
 10
11.8264824943
 20
7.60913544
 30
0.0
 10
11.8261879252
 20
7.609491316
 30
0.0
 10
11.8259659945
 20
7.6097893767
 30
0.0
 10
11.8256939596
 20
7.6100386642
 30
0.0
 10
11.8251946233
 20
7.61045226
 30
0.0
 10
11.8244934296
 20
7.6110549326
 30
0.0
 10
11.823364733
 20
7.6120126024
 30
0.0
 10
11.8219561861
 20
7.6132119516
 30
0.0
 10
11.8197012122
 20
7.6151296462
 30
0.0
 10
11.8168829405
 20
7.6175271981
 30
0.0
 10
11.8135008237
 20
7.6204040747
 30
0.0
 10
11.8089914013
 20
7.6242399751
 30
0.0
 10
11.8033546004
 20
7.6290348283
 30
0.0
 10
11.7965904492
 20
7.6347886618
 30
0.0
 10
11.7898262952
 20
7.6405424925
 30
0.0
 10
11.7830621425
 20
7.6462963247
 30
0.0
 10
11.7762979874
 20
7.6520501537
 30
0.0
 10
11.7706611983
 20
7.6568450205
 30
0.0
 10
11.7661517517
 20
7.6606808932
 30
0.0
 10
11.7627697088
 20
7.6635578545
 30
0.0
 10
11.759951206
 20
7.6659551415
 30
0.0
 10
11.7576967036
 20
7.6678733766
 30
0.0
 10
11.756286957
 20
7.6690713501
 30
0.0
 10
11.7551607229
 20
7.6700318438
 30
0.0
 10
11.7544532599
 20
7.6706273268
 30
0.0
 10
11.7539651839
 20
7.6710538359
 30
0.0
 10
11.7536750995
 20
7.6712824242
 30
0.0
 10
11.753342884
 20
7.6714540111
 30
0.0
 10
11.7529420403
 20
7.6716880118
 30
0.0
 10
11.7522926286
 20
7.6720515059
 30
0.0
 10
11.7514836244
 20
7.672509608
 30
0.0
 10
11.7501876749
 20
7.6732404843
 30
0.0
 10
11.7485682672
 20
7.6741547956
 30
0.0
 10
11.7466247516
 20
7.6752516628
 30
0.0
 10
11.7440334763
 20
7.6767142593
 30
0.0
 10
11.7394987079
 20
7.6792737533
 30
0.0
 10
11.7330204864
 20
7.6829301994
 30
0.0
 10
11.7252466125
 20
7.6873179236
 30
0.0
 10
11.7174727407
 20
7.6917056507
 30
0.0
 10
11.7096988684
 20
7.6960933771
 30
0.0
 10
11.6993337055
 20
7.7019436791
 30
0.0
 10
11.6863772518
 20
7.7092565566
 30
0.0
 10
11.6760120889
 20
7.7151068586
 30
0.0
 10
11.6708295074
 20
7.7180320096
 30
0.0
  0
SPLINE
  5
39A
100
AcDbEntity
  8
0
100
AcDbSpline
 62
4
  6
CONTINUOUS
 70
0
 71
3
 72
141
 73
137
 74
0
 42
0.0000001
 43
0.0000001
 44
0.0000000001
 40
0.0
 40
0.0
 40
0.0
 40
0.0
 40
0.03125
 40
0.0625
 40
0.078125
 40
0.09375
 40
0.109375
 40
0.125
 40
0.140625
 40
0.1484375
 40
0.15234375
 40
0.15625
 40
0.16015625
 40
0.162109375
 40
0.1640625
 40
0.1650390625
 40
0.166015625
 40
0.1665039062
 40
0.1669921875
 40
0.16796875
 40
0.169921875
 40
0.171875
 40
0.17578125
 40
0.1796875
 40
0.1875
 40
0.1953125
 40
0.203125
 40
0.21875
 40
0.234375
 40
0.25
 40
0.265625
 40
0.28125
 40
0.296875
 40
0.3046875
 40
0.3125
 40
0.3203125
 40
0.32421875
 40
0.328125
 40
0.330078125
 40
0.33203125
 40
0.3330078125
 40
0.3334960938
 40
0.333984375
 40
0.3349609375
 40
0.3359375
 40
0.337890625
 40
0.33984375
 40
0.34375
 40
0.34765625
 40
0.3515625
 40
0.359375
 40
0.375
 40
0.390625
 40
0.40625
 40
0.421875
 40
0.4375
 40
0.453125
 40
0.4609375
 40
0.46875
 40
0.4765625
 40
0.484375
 40
0.48828125
 40
0.4921875
 40
0.494140625
 40
0.49609375
 40
0.498046875
 40
0.4990234375
 40
0.4995117188
 40
0.5
 40
0.5004882812
 40
0.5009765625
 40
0.501953125
 40
0.50390625
 40
0.505859375
 40
0.5078125
 40
0.51171875
 40
0.515625
 40
0.5234375
 40
0.53125
 40
0.5390625
 40
0.546875
 40
0.5625
 40
0.578125
 40
0.59375
 40
0.609375
 40
0.625
 40
0.640625
 40
0.6484375
 40
0.65234375
 40
0.65625
 40
0.66015625
 40
0.662109375
 40
0.6640625
 40
0.6650390625
 40
0.666015625
 40
0.6665039062
 40
0.6669921875
 40
0.66796875
 40
0.669921875
 40
0.671875
 40
0.67578125
 40
0.6796875
 40
0.6875
 40
0.6953125
 40
0.703125
 40
0.71875
 40
0.734375
 40
0.75
 40
0.765625
 40
0.78125
 40
0.796875
 40
0.8046875
 40
0.8125
 40
0.8203125
 40
0.82421875
 40
0.828125
 40
0.830078125
 40
0.83203125
 40
0.8330078125
 40
0.8334960938
 40
0.833984375
 40
0.8349609375
 40
0.8359375
 40
0.837890625
 40
0.83984375
 40
0.84375
 40
0.84765625
 40
0.8515625
 40
0.859375
 40
0.875
 40
0.890625
 40
0.90625
 40
0.921875
 40
0.9375
 40
0.96875
 40
1.0
 40
1.0
 40
1.0
 40
1.0
 10
11.6708295057
 20
5.8125219153
 30
0.0
 10
11.6758768711
 20
5.8146529979
 30
0.0
 10
11.6859716019
 20
5.8189151632
 30
0.0
 10
11.6985900154
 20
5.8242428698
 30
0.0
 10
11.7086847462
 20
5.8285050351
 30
0.0
 10
11.7162557944
 20
5.8317016589
 30
0.0
 10
11.7238268421
 20
5.8348982836
 30
0.0
 10
11.7313978916
 20
5.8380949048
 30
0.0
 10
11.7377070942
 20
5.8407587666
 30
0.0
 10
11.7421235463
 20
5.8426234488
 30
0.0
 10
11.7446472171
 20
5.8436890143
 30
0.0
 10
11.7465400158
 20
5.8444880958
 30
0.0
 10
11.7481172027
 20
5.8451542923
 30
0.0
 10
11.7493792782
 20
5.8456865873
 30
0.0
 10
11.7501673332
 20
5.8460207794
 30
0.0
 10
11.750799477
 20
5.8462846802
 30
0.0
 10
11.7511906884
 20
5.8464574964
 30
0.0
 10
11.7515125408
 20
5.846577705
 30
0.0
 10
11.7518019629
 20
5.8467637885
 30
0.0
 10
11.7522933863
 20
5.8471200364
 30
0.0
 10
11.7530032801
 20
5.8476129955
 30
0.0
 10
11.7541347174
 20
5.8484106528
 30
0.0
 10
11.755550518
 20
5.8494046693
 30
0.0
 10
11.7578149585
 20
5.8509968033
 30
0.0
 10
11.7606457974
 20
5.8529863849
 30
0.0
 10
11.7640426807
 20
5.8553741335
 30
0.0
 10
11.7685719016
 20
5.8585577109
 30
0.0
 10
11.7742334129
 20
5.8625372126
 30
0.0
 10
11.7810272328
 20
5.8673126017
 30
0.0
 10
11.7878210508
 20
5.8720879944
 30
0.0
 10
11.79461487
 20
5.8768633855
 30
0.0
 10
11.8014086865
 20
5.8816387797
 30
0.0
 10
11.8070702083
 20
5.8856182657
 30
0.0
 10
11.8115994076
 20
5.888801875
 30
0.0
 10
11.8149963568
 20
5.8911895261
 30
0.0
 10
11.8178269897
 20
5.8931794129
 30
0.0
 10
11.8200918505
 20
5.8947709241
 30
0.0
 10
11.8215065815
 20
5.8957665256
 30
0.0
 10
11.8226402144
 20
5.8965609296
 30
0.0
 10
11.8233445183
 20
5.8970621715
 30
0.0
 10
11.8238459817
 20
5.8974035425
 30
0.0
 10
11.8241193103
 20
5.8976134726
 30
0.0
 10
11.8243428301
 20
5.8978793865
 30
0.0
 10
11.8246392842
 20
5.8981926101
 30
0.0
 10
11.82510408
 20
5.8987044802
 30
0.0
 10
11.8256883381
 20
5.89934065
 30
0.0
 10
11.8266213272
 20
5.9003605716
 30
0.0
 10
11.8277881893
 20
5.9016347703
 30
0.0
 10
11.8291881561
 20
5.9031641098
 30
0.0
 10
11.8310548718
 20
5.905203124
 30
0.0
 10
11.8343215808
 20
5.9087714479
 30
0.0
 10
11.8389883307
 20
5.9138690279
 30
0.0
 10
11.8445884208
 20
5.9199861348
 30
0.0
 10
11.8501885135
 20
5.9261032388
 30
0.0
 10
11.8557886056
 20
5.9322203436
 30
0.0
 10
11.8613886977
 20
5.9383374482
 30
0.0
 10
11.8660554414
 20
5.9434350352
 30
0.0
 10
11.8697888357
 20
5.9475131053
 30
0.0
 10
11.8725888833
 20
5.9505716564
 30
0.0
 10
11.8753889236
 20
5.9536302132
 30
0.0
 10
11.8777223134
 20
5.956178993
 30
0.0
 10
11.879588974
 20
5.958218056
 30
0.0
 10
11.8807557535
 20
5.959492381
 30
0.0
 10
11.8816889101
 20
5.9605120459
 30
0.0
 10
11.8823895084
 20
5.9612762336
 30
0.0
 10
11.8829710154
 20
5.9619148411
 30
0.0
 10
11.8833826329
 20
5.9623583644
 30
0.0
 10
11.8836107188
 20
5.9626172744
 30
0.0
 10
11.8838018521
 20
5.962796053
 30
0.0
 10
11.8839162718
 20
5.9630337132
 30
0.0
 10
11.88409559
 20
5.9633300549
 30
0.0
 10
11.8843969296
 20
5.9638582222
 30
0.0
 10
11.8848339327
 20
5.9646077439
 30
0.0
 10
11.8853555465
 20
5.9655093114
 30
0.0
 10
11.886052006
 20
5.9667106534
 30
0.0
 10
11.8869222468
 20
5.968212587
 30
0.0
 10
11.8883148185
 20
5.9706155377
 30
0.0
 10
11.8900554692
 20
5.9736192752
 30
0.0
 10
11.8921442774
 20
5.9772237391
 30
0.0
 10
11.8942330782
 20
5.9808282086
 30
0.0
 10
11.8970181486
 20
5.985634166
 30
0.0
 10
11.9004994858
 20
5.9916416134
 30
0.0
 10
11.9046770906
 20
5.9988505501
 30
0.0
 10
11.9088546957
 20
6.0060594867
 30
0.0
 10
11.9130322998
 20
6.0132684237
 30
0.0
 10
11.9172099074
 20
6.020477359
 30
0.0
 10
11.9206912362
 20
6.0264848106
 30
0.0
 10
11.9231281876
 20
6.030690016
 30
0.0
 10
11.9245206981
 20
6.0330930071
 30
0.0
 10
11.9255651744
 20
6.0348952037
 30
0.0
 10
11.9264352736
 20
6.0363971832
 30
0.0
 10
11.927132021
 20
6.0375984325
 30
0.0
 10
11.9275659667
 20
6.0383499747
 30
0.0
 10
11.9279166076
 20
6.0389494646
 30
0.0
 10
11.9281278082
 20
6.0393281247
 30
0.0
 10
11.9283149774
 20
6.0396219395
 30
0.0
 10
11.9284356719
 20
6.0399490242
 30
0.0
 10
11.928616007
 20
6.0405368776
 30
0.0
 10
11.9288897404
 20
6.0413686045
 30
0.0
 10
11.9293187097
 20
6.042703874
 30
0.0
 10
11.9298580044
 20
6.0443714178
 30
0.0
 10
11.9307191528
 20
6.0470403502
 30
0.0
 10
11.9317961795
 20
6.0503762199
 30
0.0
 10
11.9330883585
 20
6.0543793902
 30
0.0
 10
11.9348113522
 20
6.0597169064
 30
0.0
 10
11.936965064
 20
6.0663888167
 30
0.0
 10
11.9395495313
 20
6.0743951026
 30
0.0
 10
11.9421339948
 20
6.0824013904
 30
0.0
 10
11.9447184602
 20
6.0904076773
 30
0.0
 10
11.9473029216
 20
6.0984139656
 30
0.0
 10
11.9494566511
 20
6.1050858687
 30
0.0
 10
11.9511796088
 20
6.1104233997
 30
0.0
 10
11.9524718978
 20
6.1144265246
 30
0.0
 10
11.9535485804
 20
6.1177625363
 30
0.0
 10
11.9544104308
 20
6.120431179
 30
0.0
 10
11.954947939
 20
6.1220994602
 30
0.0
 10
11.9553805753
 20
6.1234332161
 30
0.0
 10
11.9556449729
 20
6.1242687963
 30
0.0
 10
11.9558420762
 20
6.1248497288
 30
0.0
 10
11.9559358924
 20
6.1251879073
 30
0.0
 10
11.955958833
 20
6.1255495068
 30
0.0
 10
11.9560117764
 20
6.1259934868
 30
0.0
 10
11.9560829239
 20
6.1267083364
 30
0.0
 10
11.956176502
 20
6.1276003638
 30
0.0
 10
11.9563236315
 20
6.1290284654
 30
0.0
 10
11.9565084339
 20
6.1308132982
 30
0.0
 10
11.9567298156
 20
6.1329552234
 30
0.0
 10
11.9570251242
 20
6.1358110798
 30
0.0
 10
11.9575418523
 20
6.1408088489
 30
0.0
 10
11.9582800676
 20
6.1479485083
 30
0.0
 10
11.9591659122
 20
6.1565161043
 30
0.0
 10
11.9600517604
 20
6.165083699
 30
0.0
 10
11.9609376077
 20
6.1736512941
 30
0.0
 10
11.9621187377
 20
6.185074754
 30
0.0
 10
11.9635951501
 20
6.199354079
 30
0.0
 10
11.9647762801
 20
6.2107775389
 30
0.0
 10
11.9653668451
 20
6.2164892689
 30
0.0
  0
SPLINE
  5
39B
100
AcDbEntity
  8
0
100
AcDbSpline
 62
4
  6
CONTINUOUS
 70
0
 71
3
 72
334
 73
330
 74
0
 42
0.0000001
 43
0.0000001
 44
0.0000000001
 40
0.0
 40
0.0
 40
0.0
 40
0.0
 40
0.015625
 40
0.0234375
 40
0.03125
 40
0.0390625
 40
0.046875
 40
0.05078125
 40
0.0546875
 40
0.056640625
 40
0.05859375
 40
0.060546875
 40
0.0615234375
 40
0.0620117188
 40
0.0625
 40
0.0629882812
 40
0.0634765625
 40
0.064453125
 40
0.06640625
 40
0.068359375
 40
0.0703125
 40
0.07421875
 40
0.078125
 40
0.0859375
 40
0.09375
 40
0.1015625
 40
0.109375
 40
0.11328125
 40
0.1171875
 40
0.119140625
 40
0.12109375
 40
0.123046875
 40
0.1240234375
 40
0.1245117188
 40
0.125
 40
0.1254882812
 40
0.1259765625
 40
0.126953125
 40
0.12890625
 40
0.130859375
 40
0.1328125
 40
0.13671875
 40
0.140625
 40
0.1484375
 40
0.15625
 40
0.1640625
 40
0.171875
 40
0.17578125
 40
0.1796875
 40
0.181640625
 40
0.18359375
 40
0.185546875
 40
0.1865234375
 40
0.1870117188
 40
0.1875
 40
0.1879882812
 40
0.1884765625
 40
0.189453125
 40
0.19140625
 40
0.193359375
 40
0.1953125
 40
0.19921875
 40
0.203125
 40
0.2109375
 40
0.21875
 40
0.2265625
 40
0.23046875
 40
0.234375
 40
0.23828125
 40
0.2421875
 40
0.244140625
 40
0.24609375
 40
0.2470703125
 40
0.248046875
 40
0.2490234375
 40
0.2495117188
 40
0.2497558594
 40
0.25
 40
0.2502441406
 40
0.2504882812
 40
0.2509765625
 40
0.251953125
 40
0.2529296875
 40
0.25390625
 40
0.255859375
 40
0.2578125
 40
0.26171875
 40
0.265625
 40
0.26953125
 40
0.2734375
 40
0.28125
 40
0.2890625
 40
0.29296875
 40
0.296875
 40
0.30078125
 40
0.3046875
 40
0.306640625
 40
0.30859375
 40
0.3095703125
 40
0.310546875
 40
0.3115234375
 40
0.3120117188
 40
0.3122558594
 40
0.3125
 40
0.3127441406
 40
0.3129882812
 40
0.3134765625
 40
0.314453125
 40
0.3154296875
 40
0.31640625
 40
0.318359375
 40
0.3203125
 40
0.32421875
 40
0.328125
 40
0.33203125
 40
0.3359375
 40
0.34375
 40
0.3515625
 40
0.35546875
 40
0.359375
 40
0.36328125
 40
0.3671875
 40
0.369140625
 40
0.37109375
 40
0.3720703125
 40
0.373046875
 40
0.3740234375
 40
0.3745117188
 40
0.3747558594
 40
0.375
 40
0.3752441406
 40
0.3754882812
 40
0.3759765625
 40
0.376953125
 40
0.3779296875
 40
0.37890625
 40
0.380859375
 40
0.3828125
 40
0.38671875
 40
0.390625
 40
0.39453125
 40
0.3984375
 40
0.40625
 40
0.4140625
 40
0.41796875
 40
0.421875
 40
0.42578125
 40
0.4296875
 40
0.431640625
 40
0.43359375
 40
0.4345703125
 40
0.435546875
 40
0.4365234375
 40
0.4370117188
 40
0.4372558594
 40
0.4375
 40
0.4377441406
 40
0.4379882812
 40
0.4384765625
 40
0.439453125
 40
0.4404296875
 40
0.44140625
 40
0.443359375
 40
0.4453125
 40
0.44921875
 40
0.453125
 40
0.45703125
 40
0.4609375
 40
0.46875
 40
0.4765625
 40
0.48046875
 40
0.484375
 40
0.48828125
 40
0.4921875
 40
0.494140625
 40
0.49609375
 40
0.4970703125
 40
0.498046875
 40
0.4990234375
 40
0.4995117188
 40
0.4997558594
 40
0.5
 40
0.5002441406
 40
0.5004882812
 40
0.5009765625
 40
0.501953125
 40
0.5029296875
 40
0.50390625
 40
0.505859375
 40
0.5078125
 40
0.51171875
 40
0.515625
 40
0.51953125
 40
0.5234375
 40
0.53125
 40
0.5390625
 40
0.54296875
 40
0.546875
 40
0.55078125
 40
0.5546875
 40
0.556640625
 40
0.55859375
 40
0.5595703125
 40
0.560546875
 40
0.5615234375
 40
0.5620117188
 40
0.5625
 40
0.5629882812
 40
0.5634765625
 40
0.564453125
 40
0.5654296875
 40
0.56640625
 40
0.568359375
 40
0.5703125
 40
0.57421875
 40
0.578125
 40
0.58203125
 40
0.5859375
 40
0.59375
 40
0.6015625
 40
0.609375
 40
0.61328125
 40
0.6171875
 40
0.619140625
 40
0.62109375
 40
0.623046875
 40
0.6240234375
 40
0.6245117188
 40
0.625
 40
0.6254882812
 40
0.6259765625
 40
0.626953125
 40
0.62890625
 40
0.630859375
 40
0.6328125
 40
0.63671875
 40
0.640625
 40
0.6484375
 40
0.65625
 40
0.6640625
 40
0.671875
 40
0.67578125
 40
0.6796875
 40
0.681640625
 40
0.68359375
 40
0.685546875
 40
0.6865234375
 40
0.6870117188
 40
0.6875
 40
0.6879882812
 40
0.6884765625
 40
0.689453125
 40
0.69140625
 40
0.693359375
 40
0.6953125
 40
0.69921875
 40
0.703125
 40
0.7109375
 40
0.71875
 40
0.7265625
 40
0.734375
 40
0.73828125
 40
0.7421875
 40
0.744140625
 40
0.74609375
 40
0.748046875
 40
0.7490234375
 40
0.7495117188
 40
0.75
 40
0.7504882812
 40
0.7509765625
 40
0.751953125
 40
0.75390625
 40
0.755859375
 40
0.7578125
 40
0.76171875
 40
0.765625
 40
0.7734375
 40
0.78125
 40
0.7890625
 40
0.796875
 40
0.80078125
 40
0.8046875
 40
0.80859375
 40
0.810546875
 40
0.8115234375
 40
0.8125
 40
0.8134765625
 40
0.814453125
 40
0.81640625
 40
0.8203125
 40
0.82421875
 40
0.828125
 40
0.8359375
 40
0.84375
 40
0.8515625
 40
0.859375
 40
0.86328125
 40
0.8671875
 40
0.87109375
 40
0.873046875
 40
0.8740234375
 40
0.875
 40
0.8759765625
 40
0.876953125
 40
0.87890625
 40
0.8828125
 40
0.88671875
 40
0.890625
 40
0.8984375
 40
0.90625
 40
0.9140625
 40
0.921875
 40
0.92578125
 40
0.9296875
 40
0.93359375
 40
0.935546875
 40
0.9365234375
 40
0.9375
 40
0.9384765625
 40
0.939453125
 40
0.94140625
 40
0.9453125
 40
0.94921875
 40
0.953125
 40
0.9609375
 40
0.96875
 40
0.984375
 40
1.0
 40
1.0
 40
1.0
 40
1.0
 10
12.4418524255
 20
9.2224337222
 30
0.0
 10
12.4419759011
 20
9.2178532098
 30
0.0
 10
12.4421611143
 20
9.210982441
 30
0.0
 10
12.4424080658
 20
9.2018214166
 30
0.0
 10
12.4425932783
 20
9.1949506466
 30
0.0
 10
12.4427784947
 20
9.1880798831
 30
0.0
 10
12.4429328299
 20
9.1823542268
 30
0.0
 10
12.4430563243
 20
9.1777737464
 30
0.0
 10
12.4431334487
 20
9.1749108447
 30
0.0
 10
12.4431952846
 20
9.1726207558
 30
0.0
 10
12.4432412882
 20
9.1709025525
 30
0.0
 10
12.4432808123
 20
9.1694727415
 30
0.0
 10
12.4433061481
 20
9.1684678997
 30
0.0
 10
12.4433242654
 20
9.1678999097
 30
0.0
 10
12.4433276003
 20
9.1674564366
 30
0.0
 10
12.4433701278
 20
9.167079783
 30
0.0
 10
12.4434131604
 20
9.1665542707
 30
0.0
 10
12.4434948369
 20
9.1656454836
 30
0.0
 10
12.4436081875
 20
9.164341539
 30
0.0
 10
12.4437456337
 20
9.1627792355
 30
0.0
 10
12.4439283973
 20
9.1606953154
 30
0.0
 10
12.4441570224
 20
9.1580907059
 30
0.0
 10
12.4445227271
 20
9.1539231682
 30
0.0
 10
12.444979891
 20
9.1487138023
 30
0.0
 10
12.4455284726
 20
9.142462537
 30
0.0
 10
12.4460770616
 20
9.1362112869
 30
0.0
 10
12.4465342072
 20
9.1310018828
 30
0.0
 10
12.4468999485
 20
9.1268344216
 30
0.0
 10
12.4471284807
 20
9.1242296177
 30
0.0
 10
12.4473114349
 20
9.1221460965
 30
0.0
 10
12.4474482987
 20
9.1205825743
 30
0.0
 10
12.4475634714
 20
9.1192824426
 30
0.0
 10
12.4476418953
 20
9.1183668488
 30
0.0
 10
12.4476901393
 20
9.1178522427
 30
0.0
 10
12.4477166588
 20
9.1174420889
 30
0.0
 10
12.4477801173
 20
9.1171244365
 30
0.0
 10
12.4478518438
 20
9.1166686345
 30
0.0
 10
12.4479833685
 20
9.115886014
 30
0.0
 10
12.4481681224
 20
9.1147601253
 30
0.0
 10
12.4483911704
 20
9.1134124229
 30
0.0
 10
12.4486880986
 20
9.1116143114
 30
0.0
 10
12.4490594194
 20
9.1093670743
 30
0.0
 10
12.449653443
 20
9.1057712701
 30
0.0
 10
12.4503960034
 20
9.1012765926
 30
0.0
 10
12.4512870618
 20
9.0958829437
 30
0.0
 10
12.4521781272
 20
9.090489314
 30
0.0
 10
12.4529206702
 20
9.0859945885
 30
0.0
 10
12.4535147287
 20
9.0823988802
 30
0.0
 10
12.4538859607
 20
9.0801513992
 30
0.0
 10
12.4541830712
 20
9.0783537884
 30
0.0
 10
12.4544055623
 20
9.0770045564
 30
0.0
 10
12.4545920585
 20
9.0758834536
 30
0.0
 10
12.4547204729
 20
9.0750922894
 30
0.0
 10
12.454797183
 20
9.0746501766
 30
0.0
 10
12.4548453336
 20
9.0742904751
 30
0.0
 10
12.4549293469
 20
9.0740382507
 30
0.0
 10
12.4550288553
 20
9.0736644623
 30
0.0
 10
12.4552088234
 20
9.0730277995
 30
0.0
 10
12.4554628735
 20
9.0721091493
 30
0.0
 10
12.455769038
 20
9.0710106779
 30
0.0
 10
12.4561768017
 20
9.069544684
 30
0.0
 10
12.4566866623
 20
9.0677126591
 30
0.0
 10
12.4575023521
 20
9.064781158
 30
0.0
 10
12.4585219942
 20
9.0611168713
 30
0.0
 10
12.459745552
 20
9.0567196888
 30
0.0
 10
12.4607651863
 20
9.0530553786
 30
0.0
 10
12.4615808933
 20
9.0501239292
 30
0.0
 10
12.4621926732
 20
9.0479253407
 30
0.0
 10
12.4628044545
 20
9.0457267589
 30
0.0
 10
12.4633142682
 20
9.0438945862
 30
0.0
 10
12.463722128
 20
9.0424288954
 30
0.0
 10
12.4639770205
 20
9.0415127308
 30
0.0
 10
12.46418098
 20
9.0407800463
 30
0.0
 10
12.4643338248
 20
9.0402298559
 30
0.0
 10
12.4644615928
 20
9.0397735177
 30
0.0
 10
12.4645502506
 20
9.0394498542
 30
0.0
 10
12.4646021297
 20
9.0392715033
 30
0.0
 10
12.4646376094
 20
9.0391191488
 30
0.0
 10
12.464686199
 20
9.0390378598
 30
0.0
 10
12.4647464123
 20
9.038904686
 30
0.0
 10
12.4648539161
 20
9.0386831813
 30
0.0
 10
12.465006379
 20
9.0383607078
 30
0.0
 10
12.4651898113
 20
9.0379763242
 30
0.0
 10
12.4654342212
 20
9.0374629099
 30
0.0
 10
12.4657397906
 20
9.0368214512
 30
0.0
 10
12.4662286698
 20
9.0357949444
 30
0.0
 10
12.4668397797
 20
9.0345118703
 30
0.0
 10
12.4675731069
 20
9.0329721559
 30
0.0
 10
12.4683064354
 20
9.0314324483
 30
0.0
 10
12.4692842062
 20
9.0293795025
 30
0.0
 10
12.4705064199
 20
9.0268133211
 30
0.0
 10
12.4717286335
 20
9.0242471391
 30
0.0
 10
12.4727064045
 20
9.0221941943
 30
0.0
 10
12.4734397325
 20
9.0206544838
 30
0.0
 10
12.4741730615
 20
9.0191147803
 30
0.0
 10
12.4747841657
 20
9.0178316724
 30
0.0
 10
12.4752730565
 20
9.0168052345
 30
0.0
 10
12.4755785964
 20
9.0161636004
 30
0.0
 10
12.4758230669
 20
9.0156505461
 30
0.0
 10
12.476006314
 20
9.0152650628
 30
0.0
 10
12.4761593566
 20
9.0149460297
 30
0.0
 10
12.4762658255
 20
9.0147183834
 30
0.0
 10
12.4763276969
 20
9.01459505
 30
0.0
 10
12.4763711932
 20
9.0144835343
 30
0.0
 10
12.4764258026
 20
9.0144447065
 30
0.0
 10
12.4764947386
 20
9.0143675817
 30
0.0
 10
12.4766171828
 20
9.0142444264
 30
0.0
 10
12.4767911588
 20
9.0140623143
 30
0.0
 10
12.4770003342
 20
9.0138464233
 30
0.0
 10
12.4772790936
 20
9.0135576453
 30
0.0
 10
12.4776275911
 20
9.0131969889
 30
0.0
 10
12.4781851602
 20
9.012619762
 30
0.0
 10
12.4788821308
 20
9.011898289
 30
0.0
 10
12.4797184915
 20
9.0110324954
 30
0.0
 10
12.4805548533
 20
9.0101667088
 30
0.0
 10
12.481670002
 20
9.0090123242
 30
0.0
 10
12.483063938
 20
9.0075693443
 30
0.0
 10
12.4844578739
 20
9.0061263638
 30
0.0
 10
12.4855730227
 20
9.0049719802
 30
0.0
 10
12.4864093841
 20
9.0041061906
 30
0.0
 10
12.4872457463
 20
9.0032404083
 30
0.0
 10
12.4879427125
 20
9.0025189003
 30
0.0
 10
12.4885002905
 20
9.0019417448
 30
0.0
 10
12.4888487651
 20
9.0015809067
 30
0.0
 10
12.4891275715
 20
9.0012925016
 30
0.0
 10
12.4893366032
 20
9.0010754714
 30
0.0
 10
12.4895110289
 20
9.0008969236
 30
0.0
 10
12.4896326703
 20
9.0007674053
 30
0.0
 10
12.4897028927
 20
9.0007004756
 30
0.0
 10
12.489753551
 20
9.000630332
 30
0.0
 10
12.4898118864
 20
9.0006364332
 30
0.0
 10
12.4898869891
 20
9.0006179732
 30
0.0
 10
12.4900196664
 20
9.0005980592
 30
0.0
 10
12.4902085531
 20
9.0005631325
 30
0.0
 10
12.4904354964
 20
9.0005239933
 30
0.0
 10
12.4907379899
 20
9.0004708392
 30
0.0
 10
12.4911161402
 20
9.0004047283
 30
0.0
 10
12.491721162
 20
9.0002987653
 30
0.0
 10
12.4924774456
 20
9.0001663753
 30
0.0
 10
12.4933849832
 20
9.0000074799
 30
0.0
 10
12.4942925216
 20
8.9998485919
 30
0.0
 10
12.4955025724
 20
8.9996367386
 30
0.0
 10
12.4970151361
 20
8.999371923
 30
0.0
 10
12.4985276998
 20
8.9991071067
 30
0.0
 10
12.4997377507
 20
8.9988952545
 30
0.0
 10
12.5006452888
 20
8.9987363633
 30
0.0
 10
12.5015528275
 20
8.9985774797
 30
0.0
 10
12.5023091079
 20
8.9984450532
 30
0.0
 10
12.5029141362
 20
8.9983391645
 30
0.0
 10
12.50329227
 20
8.9982728646
 30
0.0
 10
12.5035947972
 20
8.9982200983
 30
0.0
 10
12.5038216376
 20
8.9981797743
 30
0.0
 10
12.5040108464
 20
8.9981485547
 30
0.0
 10
12.5041429488
 20
8.9981220229
 30
0.0
 10
12.5042189726
 20
8.9981141663
 30
0.0
 10
12.5042744785
 20
8.9980876972
 30
0.0
 10
12.5043357637
 20
8.9981398823
 30
0.0
 10
12.5044154615
 20
8.9981820269
 30
0.0
 10
12.5045558718
 20
8.9982685627
 30
0.0
 10
12.5047559669
 20
8.9983855023
 30
0.0
 10
12.5049962912
 20
8.9985286903
 30
0.0
 10
12.5053166503
 20
8.9987186086
 30
0.0
 10
12.5057171242
 20
8.9989563485
 30
0.0
 10
12.5063578684
 20
8.9993365412
 30
0.0
 10
12.5071588035
 20
8.9998118477
 30
0.0
 10
12.5081199235
 20
9.0003821873
 30
0.0
 10
12.5090810441
 20
9.0009525345
 30
0.0
 10
12.5103625381
 20
9.0017129947
 30
0.0
 10
12.5119644055
 20
9.002663571
 30
0.0
 10
12.513566273
 20
9.0036141466
 30
0.0
 10
12.514847767
 20
9.0043746079
 30
0.0
 10
12.5158088875
 20
9.004944952
 30
0.0
 10
12.5167700078
 20
9.0055153032
 30
0.0
 10
12.517570942
 20
9.0059905737
 30
0.0
 10
12.5182116881
 20
9.0063708397
 30
0.0
 10
12.5186121571
 20
9.0066083932
 30
0.0
 10
12.5189325261
 20
9.0067986941
 30
0.0
 10
12.51917282
 20
9.0069407132
 30
0.0
 10
12.5193730105
 20
9.00706131
 30
0.0
 10
12.5195132506
 20
9.0071413171
 30
0.0
 10
12.519593221
 20
9.0071939223
 30
0.0
 10
12.5196536686
 20
9.0072139756
 30
0.0
 10
12.5197123208
 20
9.0073081881
 30
0.0
 10
12.51979115
 20
9.0074079372
 30
0.0
 10
12.5199288094
 20
9.0075945503
 30
0.0
 10
12.5201256182
 20
9.0078548395
 30
0.0
 10
12.5203617235
 20
9.0081698834
 30
0.0
 10
12.5206765533
 20
9.0085890001
 30
0.0
 10
12.5210700828
 20
9.0091132184
 30
0.0
 10
12.5216997343
 20
9.0099517875
 30
0.0
 10
12.5224867972
 20
9.0110000607
 30
0.0
 10
12.5234312733
 20
9.0122579621
 30
0.0
 10
12.5243757493
 20
9.0135158705
 30
0.0
 10
12.5256350506
 20
9.0151930793
 30
0.0
 10
12.5272091773
 20
9.017289591
 30
0.0
 10
12.5287833039
 20
9.0193861031
 30
0.0
 10
12.5300426053
 20
9.0210633111
 30
0.0
 10
12.5309870811
 20
9.022321222
 30
0.0
 10
12.5319315579
 20
9.0235791141
 30
0.0
 10
12.5327186186
 20
9.024627416
 30
0.0
 10
12.5333482745
 20
9.0254659267
 30
0.0
 10
12.5337417929
 20
9.0259902935
 30
0.0
 10
12.5340566456
 20
9.0264091056
 30
0.0
 10
12.5342926808
 20
9.0267250799
 30
0.0
 10
12.5344897087
 20
9.0269824582
 30
0.0
 10
12.5346465868
 20
9.027201669
 30
0.0
 10
12.5347662789
 20
9.0273297128
 30
0.0
 10
12.5348782089
 20
9.0275965599
 30
0.0
 10
12.5350301604
 20
9.0279038702
 30
0.0
 10
12.5352191694
 20
9.0283046434
 30
0.0
 10
12.5354463785
 20
9.0287784507
 30
0.0
 10
12.5357491848
 20
9.0294126809
 30
0.0
 10
12.5361277403
 20
9.0302046171
 30
0.0
 10
12.5367334025
 20
9.0314721909
 30
0.0
 10
12.5374904894
 20
9.0330564948
 30
0.0
 10
12.5383989898
 20
9.0349577296
 30
0.0
 10
12.5393074912
 20
9.0368589455
 30
0.0
 10
12.540518826
 20
9.0393939071
 30
0.0
 10
12.542032995
 20
9.0425626041
 30
0.0
 10
12.5438499962
 20
9.0463650535
 30
0.0
 10
12.5453641685
 20
9.0495337245
 30
0.0
 10
12.5465754961
 20
9.0520687434
 30
0.0
 10
12.547332599
 20
9.0536529432
 30
0.0
 10
12.5479382283
 20
9.0549207315
 30
0.0
 10
12.5483925954
 20
9.0558703994
 30
0.0
 10
12.5487707732
 20
9.0566655217
 30
0.0
 10
12.5490364032
 20
9.0572147827
 30
0.0
 10
12.5491867778
 20
9.0575400829
 30
0.0
 10
12.5493035418
 20
9.0577518405
 30
0.0
 10
12.5494050807
 20
9.0580867499
 30
0.0
 10
12.5495457766
 20
9.0584903391
 30
0.0
 10
12.54978952
 20
9.0592166344
 30
0.0
 10
12.5501390185
 20
9.0602437354
 30
0.0
 10
12.5505578629
 20
9.0614807355
 30
0.0
 10
12.5511165156
 20
9.0631285045
 30
0.0
 10
12.5518147653
 20
9.0651887515
 30
0.0
 10
12.5529320017
 20
9.0684848472
 30
0.0
 10
12.5543285345
 20
9.0726050701
 30
0.0
 10
12.5560043798
 20
9.0775492906
 30
0.0
 10
12.5576802218
 20
9.082493534
 30
0.0
 10
12.5590767629
 20
9.0866136998
 30
0.0
 10
12.5601939827
 20
9.0899099097
 30
0.0
 10
12.5608922747
 20
9.0919698662
 30
0.0
 10
12.5614508404
 20
9.0936182315
 30
0.0
 10
12.5618699506
 20
9.0948534099
 30
0.0
 10
12.5622186177
 20
9.0958862103
 30
0.0
 10
12.5624638453
 20
9.0966023314
 30
0.0
 10
12.562602163
 20
9.0970222222
 30
0.0
 10
12.5627110069
 20
9.097307058
 30
0.0
 10
12.5628003344
 20
9.0977068839
 30
0.0
 10
12.5629262453
 20
9.0981998754
 30
0.0
 10
12.5631434176
 20
9.0990812983
 30
0.0
 10
12.5634553219
 20
9.1003307036
 30
0.0
 10
12.5638288973
 20
9.101834172
 30
0.0
 10
12.5643272457
 20
9.1038373359
 30
0.0
 10
12.5649500964
 20
9.1063417908
 30
0.0
 10
12.565946705
 20
9.1103486392
 30
0.0
 10
12.5671924492
 20
9.1153572959
 30
0.0
 10
12.5686873501
 20
9.1213676411
 30
0.0
 10
12.5701822461
 20
9.1273780039
 30
0.0
 10
12.5714280025
 20
9.1323866168
 30
0.0
 10
12.5724245867
 20
9.1363935528
 30
0.0
 10
12.5730474993
 20
9.138897785
 30
0.0
 10
12.5735457206
 20
9.140901406
 30
0.0
 10
12.5739196846
 20
9.1424034776
 30
0.0
 10
12.5742303729
 20
9.1436572533
 30
0.0
 10
12.5744497161
 20
9.1445308744
 30
0.0
 10
12.5745721485
 20
9.1450363664
 30
0.0
 10
12.5746721606
 20
9.1453977946
 30
0.0
 10
12.574740875
 20
9.1458268458
 30
0.0
 10
12.5748434112
 20
9.1463753265
 30
0.0
 10
12.5750177632
 20
9.1473461575
 30
0.0
 10
12.5752694966
 20
9.1487273133
 30
0.0
 10
12.5755704385
 20
9.1503871596
 30
0.0
 10
12.5759720919
 20
9.152599429
 30
0.0
 10
12.5764740225
 20
9.1553650599
 30
0.0
 10
12.5772771878
 20
9.1597899046
 30
0.0
 10
12.5782811163
 20
9.1653210199
 30
0.0
 10
12.5794858509
 20
9.1719583201
 30
0.0
 10
12.5806905492
 20
9.1785956779
 30
0.0
 10
12.5816945685
 20
9.1841266493
 30
0.0
 10
12.5824975522
 20
9.1885517817
 30
0.0
 10
12.5831004227
 20
9.1918696614
 30
0.0
 10
12.5836008024
 20
9.1946376451
 30
0.0
 10
12.5839550175
 20
9.1965691815
 30
0.0
 10
12.5841512595
 20
9.1976823666
 30
0.0
 10
12.5843158123
 20
9.1984906346
 30
0.0
 10
12.5844139635
 20
9.1994006609
 30
0.0
 10
12.5845679933
 20
9.2005785349
 30
0.0
 10
12.584826754
 20
9.2026563518
 30
0.0
 10
12.5852020542
 20
9.2056160158
 30
0.0
 10
12.5856499993
 20
9.2091713133
 30
0.0
 10
12.5862481034
 20
9.2139104171
 30
0.0
 10
12.5869954418
 20
9.2198347418
 30
0.0
 10
12.5878923822
 20
9.2269437352
 30
0.0
 10
12.5887892523
 20
9.2340528015
 30
0.0
 10
12.5895367665
 20
9.2399769441
 30
0.0
 10
12.590134519
 20
9.2447164119
 30
0.0
 10
12.5905835365
 20
9.2482705994
 30
0.0
 10
12.5909554819
 20
9.2512337361
 30
0.0
 10
12.5912202313
 20
9.2533053536
 30
0.0
 10
12.5913646658
 20
9.2544931606
 30
0.0
 10
12.5914922908
 20
9.255372676
 30
0.0
 10
12.5915461446
 20
9.2562955378
 30
0.0
 10
12.591643682
 20
9.2575109004
 30
0.0
 10
12.5918023832
 20
9.2596448296
 30
0.0
 10
12.5920353673
 20
9.262689617
 30
0.0
 10
12.5923122652
 20
9.2663449382
 30
0.0
 10
12.5926824
 20
9.2712181491
 30
0.0
 10
12.5931447445
 20
9.2773098521
 30
0.0
 10
12.5936997065
 20
9.2846198131
 30
0.0
 10
12.5942545922
 20
9.2919298012
 30
0.0
 10
12.5947171275
 20
9.2980214365
 30
0.0
 10
12.5950868807
 20
9.3028947828
 30
0.0
 10
12.5953649421
 20
9.3065496911
 30
0.0
 10
12.5955942863
 20
9.3095957702
 30
0.0
 10
12.5957594854
 20
9.3117273935
 30
0.0
 10
12.5958466116
 20
9.3129464507
 30
0.0
 10
12.5959324449
 20
9.3138579639
 30
0.0
 10
12.5959399603
 20
9.3147801029
 30
0.0
 10
12.595977299
 20
9.3160059152
 30
0.0
 10
12.5960299137
 20
9.3181528135
 30
0.0
 10
12.5961117318
 20
9.3212189084
 30
0.0
 10
12.5962070653
 20
9.3248986086
 30
0.0
 10
12.5963351715
 20
9.3298047407
 30
0.0
 10
12.5964949636
 20
9.3359374519
 30
0.0
 10
12.5967508214
 20
9.3457497641
 30
0.0
 10
12.5970705779
 20
9.3580151632
 30
0.0
 10
12.5973264031
 20
9.3678274798
 30
0.0
 10
12.5974543132
 20
9.3727336384
 30
0.0
  0
SPLINE
  5
39C
100
AcDbEntity
  8
0
100
AcDbSpline
 62
4
  6
CONTINUOUS
 70
0
 71
3
 72
334
 73
330
 74
0
 42
0.0000001
 43
0.0000001
 44
0.0000000001
 40
0.0
 40
0.0
 40
0.0
 40
0.0
 40
0.015625
 40
0.0234375
 40
0.03125
 40
0.0390625
 40
0.046875
 40
0.05078125
 40
0.0546875
 40
0.056640625
 40
0.05859375
 40
0.060546875
 40
0.0615234375
 40
0.0620117188
 40
0.0625
 40
0.0629882812
 40
0.0634765625
 40
0.064453125
 40
0.06640625
 40
0.068359375
 40
0.0703125
 40
0.07421875
 40
0.078125
 40
0.0859375
 40
0.09375
 40
0.1015625
 40
0.109375
 40
0.11328125
 40
0.1171875
 40
0.119140625
 40
0.12109375
 40
0.123046875
 40
0.1240234375
 40
0.1245117188
 40
0.125
 40
0.1254882812
 40
0.1259765625
 40
0.126953125
 40
0.12890625
 40
0.130859375
 40
0.1328125
 40
0.13671875
 40
0.140625
 40
0.1484375
 40
0.15625
 40
0.1640625
 40
0.171875
 40
0.17578125
 40
0.1796875
 40
0.181640625
 40
0.18359375
 40
0.185546875
 40
0.1865234375
 40
0.1870117188
 40
0.1875
 40
0.1879882812
 40
0.1884765625
 40
0.189453125
 40
0.19140625
 40
0.193359375
 40
0.1953125
 40
0.19921875
 40
0.203125
 40
0.2109375
 40
0.21875
 40
0.2265625
 40
0.23046875
 40
0.234375
 40
0.23828125
 40
0.2421875
 40
0.244140625
 40
0.24609375
 40
0.2470703125
 40
0.248046875
 40
0.2490234375
 40
0.2495117188
 40
0.2497558594
 40
0.25
 40
0.2502441406
 40
0.2504882812
 40
0.2509765625
 40
0.251953125
 40
0.2529296875
 40
0.25390625
 40
0.255859375
 40
0.2578125
 40
0.26171875
 40
0.265625
 40
0.26953125
 40
0.2734375
 40
0.28125
 40
0.2890625
 40
0.29296875
 40
0.296875
 40
0.30078125
 40
0.3046875
 40
0.306640625
 40
0.30859375
 40
0.3095703125
 40
0.310546875
 40
0.3115234375
 40
0.3120117188
 40
0.3122558594
 40
0.3125
 40
0.3127441406
 40
0.3129882812
 40
0.3134765625
 40
0.314453125
 40
0.3154296875
 40
0.31640625
 40
0.318359375
 40
0.3203125
 40
0.32421875
 40
0.328125
 40
0.33203125
 40
0.3359375
 40
0.34375
 40
0.3515625
 40
0.35546875
 40
0.359375
 40
0.36328125
 40
0.3671875
 40
0.369140625
 40
0.37109375
 40
0.3720703125
 40
0.373046875
 40
0.3740234375
 40
0.3745117188
 40
0.3747558594
 40
0.375
 40
0.3752441406
 40
0.3754882812
 40
0.3759765625
 40
0.376953125
 40
0.3779296875
 40
0.37890625
 40
0.380859375
 40
0.3828125
 40
0.38671875
 40
0.390625
 40
0.39453125
 40
0.3984375
 40
0.40625
 40
0.4140625
 40
0.41796875
 40
0.421875
 40
0.42578125
 40
0.4296875
 40
0.431640625
 40
0.43359375
 40
0.4345703125
 40
0.435546875
 40
0.4365234375
 40
0.4370117188
 40
0.4372558594
 40
0.4375
 40
0.4377441406
 40
0.4379882812
 40
0.4384765625
 40
0.439453125
 40
0.4404296875
 40
0.44140625
 40
0.443359375
 40
0.4453125
 40
0.44921875
 40
0.453125
 40
0.45703125
 40
0.4609375
 40
0.46875
 40
0.4765625
 40
0.48046875
 40
0.484375
 40
0.48828125
 40
0.4921875
 40
0.494140625
 40
0.49609375
 40
0.4970703125
 40
0.498046875
 40
0.4990234375
 40
0.4995117188
 40
0.4997558594
 40
0.5
 40
0.5002441406
 40
0.5004882812
 40
0.5009765625
 40
0.501953125
 40
0.5029296875
 40
0.50390625
 40
0.505859375
 40
0.5078125
 40
0.51171875
 40
0.515625
 40
0.51953125
 40
0.5234375
 40
0.53125
 40
0.5390625
 40
0.54296875
 40
0.546875
 40
0.55078125
 40
0.5546875
 40
0.556640625
 40
0.55859375
 40
0.5595703125
 40
0.560546875
 40
0.5615234375
 40
0.5620117188
 40
0.5625
 40
0.5629882812
 40
0.5634765625
 40
0.564453125
 40
0.5654296875
 40
0.56640625
 40
0.568359375
 40
0.5703125
 40
0.57421875
 40
0.578125
 40
0.58203125
 40
0.5859375
 40
0.59375
 40
0.6015625
 40
0.609375
 40
0.61328125
 40
0.6171875
 40
0.619140625
 40
0.62109375
 40
0.623046875
 40
0.6240234375
 40
0.6245117188
 40
0.625
 40
0.6254882812
 40
0.6259765625
 40
0.626953125
 40
0.62890625
 40
0.630859375
 40
0.6328125
 40
0.63671875
 40
0.640625
 40
0.6484375
 40
0.65625
 40
0.6640625
 40
0.671875
 40
0.67578125
 40
0.6796875
 40
0.681640625
 40
0.68359375
 40
0.685546875
 40
0.6865234375
 40
0.6870117188
 40
0.6875
 40
0.6879882812
 40
0.6884765625
 40
0.689453125
 40
0.69140625
 40
0.693359375
 40
0.6953125
 40
0.69921875
 40
0.703125
 40
0.7109375
 40
0.71875
 40
0.7265625
 40
0.734375
 40
0.73828125
 40
0.7421875
 40
0.744140625
 40
0.74609375
 40
0.748046875
 40
0.7490234375
 40
0.7495117188
 40
0.75
 40
0.7504882812
 40
0.7509765625
 40
0.751953125
 40
0.75390625
 40
0.755859375
 40
0.7578125
 40
0.76171875
 40
0.765625
 40
0.7734375
 40
0.78125
 40
0.7890625
 40
0.796875
 40
0.80078125
 40
0.8046875
 40
0.80859375
 40
0.810546875
 40
0.8115234375
 40
0.8125
 40
0.8134765625
 40
0.814453125
 40
0.81640625
 40
0.8203125
 40
0.82421875
 40
0.828125
 40
0.8359375
 40
0.84375
 40
0.8515625
 40
0.859375
 40
0.86328125
 40
0.8671875
 40
0.87109375
 40
0.873046875
 40
0.8740234375
 40
0.875
 40
0.8759765625
 40
0.876953125
 40
0.87890625
 40
0.8828125
 40
0.88671875
 40
0.890625
 40
0.8984375
 40
0.90625
 40
0.9140625
 40
0.921875
 40
0.92578125
 40
0.9296875
 40
0.93359375
 40
0.935546875
 40
0.9365234375
 40
0.9375
 40
0.9384765625
 40
0.939453125
 40
0.94140625
 40
0.9453125
 40
0.94921875
 40
0.953125
 40
0.9609375
 40
0.96875
 40
0.984375
 40
1.0
 40
1.0
 40
1.0
 40
1.0
 10
12.5974543132
 20
9.372733613
 30
0.0
 10
12.5973308376
 20
9.3773141254
 30
0.0
 10
12.5971456244
 20
9.3841848942
 30
0.0
 10
12.5968986729
 20
9.3933459186
 30
0.0
 10
12.5967134604
 20
9.4002166886
 30
0.0
 10
12.5965282441
 20
9.4070874522
 30
0.0
 10
12.5963739088
 20
9.4128131084
 30
0.0
 10
12.5962504144
 20
9.4173935888
 30
0.0
 10
12.59617329
 20
9.4202564905
 30
0.0
 10
12.5961114541
 20
9.4225465795
 30
0.0
 10
12.5960654505
 20
9.4242647827
 30
0.0
 10
12.5960259264
 20
9.4256945937
 30
0.0
 10
12.5960005906
 20
9.4266994355
 30
0.0
 10
12.5959824733
 20
9.4272674256
 30
0.0
 10
12.5959791384
 20
9.4277108986
 30
0.0
 10
12.5959366109
 20
9.4280875523
 30
0.0
 10
12.5958935783
 20
9.4286130645
 30
0.0
 10
12.5958119018
 20
9.4295218516
 30
0.0
 10
12.5956985512
 20
9.4308257962
 30
0.0
 10
12.595561105
 20
9.4323880997
 30
0.0
 10
12.5953783414
 20
9.4344720198
 30
0.0
 10
12.5951497163
 20
9.4370766293
 30
0.0
 10
12.5947840116
 20
9.441244167
 30
0.0
 10
12.5943268477
 20
9.4464535329
 30
0.0
 10
12.5937782661
 20
9.4527047983
 30
0.0
 10
12.5932296771
 20
9.4589560483
 30
0.0
 10
12.5927725315
 20
9.4641654524
 30
0.0
 10
12.5924067902
 20
9.4683329137
 30
0.0
 10
12.592178258
 20
9.4709377175
 30
0.0
 10
12.5919953038
 20
9.4730212387
 30
0.0
 10
12.59185844
 20
9.4745847609
 30
0.0
 10
12.5917432673
 20
9.4758848926
 30
0.0
 10
12.5916648434
 20
9.4768004864
 30
0.0
 10
12.5916165994
 20
9.4773150926
 30
0.0
 10
12.5915900799
 20
9.4777252463
 30
0.0
 10
12.5915266214
 20
9.4780428987
 30
0.0
 10
12.5914548949
 20
9.4784987007
 30
0.0
 10
12.5913233702
 20
9.4792813212
 30
0.0
 10
12.5911386163
 20
9.4804072099
 30
0.0
 10
12.5909155683
 20
9.4817549123
 30
0.0
 10
12.5906186401
 20
9.4835530238
 30
0.0
 10
12.5902473193
 20
9.4858002609
 30
0.0
 10
12.5896532957
 20
9.4893960651
 30
0.0
 10
12.5889107353
 20
9.4938907426
 30
0.0
 10
12.5880196769
 20
9.4992843915
 30
0.0
 10
12.5871286115
 20
9.5046780212
 30
0.0
 10
12.5863860685
 20
9.5091727467
 30
0.0
 10
12.58579201
 20
9.512768455
 30
0.0
 10
12.585420778
 20
9.515015936
 30
0.0
 10
12.5851236675
 20
9.5168135468
 30
0.0
 10
12.5849011764
 20
9.5181627788
 30
0.0
 10
12.5847146802
 20
9.5192838816
 30
0.0
 10
12.5845862658
 20
9.5200750458
 30
0.0
 10
12.5845095557
 20
9.5205171586
 30
0.0
 10
12.5844614051
 20
9.5208768601
 30
0.0
 10
12.5843773918
 20
9.5211290845
 30
0.0
 10
12.5842778834
 20
9.5215028729
 30
0.0
 10
12.5840979153
 20
9.5221395357
 30
0.0
 10
12.5838438652
 20
9.5230581859
 30
0.0
 10
12.5835377007
 20
9.5241566574
 30
0.0
 10
12.583129937
 20
9.5256226512
 30
0.0
 10
12.5826200764
 20
9.5274546761
 30
0.0
 10
12.5818043866
 20
9.5303861772
 30
0.0
 10
12.5807847445
 20
9.5340504639
 30
0.0
 10
12.5795611867
 20
9.5384476464
 30
0.0
 10
12.5785415524
 20
9.5421119566
 30
0.0
 10
12.5777258454
 20
9.545043406
 30
0.0
 10
12.5771140655
 20
9.5472419945
 30
0.0
 10
12.5765022842
 20
9.5494405764
 30
0.0
 10
12.5759924705
 20
9.551272749
 30
0.0
 10
12.5755846107
 20
9.5527384398
 30
0.0
 10
12.5753297182
 20
9.5536546044
 30
0.0
 10
12.5751257587
 20
9.5543872889
 30
0.0
 10
12.5749729139
 20
9.5549374793
 30
0.0
 10
12.5748451459
 20
9.5553938175
 30
0.0
 10
12.5747564881
 20
9.555717481
 30
0.0
 10
12.574704609
 20
9.5558958319
 30
0.0
 10
12.5746691293
 20
9.5560481864
 30
0.0
 10
12.5746205397
 20
9.5561294754
 30
0.0
 10
12.5745603264
 20
9.5562626492
 30
0.0
 10
12.5744528226
 20
9.5564841539
 30
0.0
 10
12.5743003597
 20
9.5568066274
 30
0.0
 10
12.5741169274
 20
9.557191011
 30
0.0
 10
12.5738725175
 20
9.5577044253
 30
0.0
 10
12.5735669481
 20
9.5583458841
 30
0.0
 10
12.5730780689
 20
9.5593723908
 30
0.0
 10
12.572466959
 20
9.5606554649
 30
0.0
 10
12.5717336318
 20
9.5621951793
 30
0.0
 10
12.5710003033
 20
9.5637348869
 30
0.0
 10
12.5700225325
 20
9.5657878327
 30
0.0
 10
12.5688003188
 20
9.5683540141
 30
0.0
 10
12.5675781052
 20
9.5709201961
 30
0.0
 10
12.5666003342
 20
9.5729731409
 30
0.0
 10
12.5658670062
 20
9.5745128514
 30
0.0
 10
12.5651336772
 20
9.5760525549
 30
0.0
 10
12.564522573
 20
9.5773356628
 30
0.0
 10
12.5640336822
 20
9.5783621007
 30
0.0
 10
12.5637281423
 20
9.5790037348
 30
0.0
 10
12.5634836718
 20
9.5795167891
 30
0.0
 10
12.5633004247
 20
9.5799022724
 30
0.0
 10
12.5631473821
 20
9.5802213055
 30
0.0
 10
12.5630409132
 20
9.5804489519
 30
0.0
 10
12.5629790418
 20
9.5805722852
 30
0.0
 10
12.5629355455
 20
9.5806838009
 30
0.0
 10
12.5628809362
 20
9.5807226287
 30
0.0
 10
12.5628120001
 20
9.5807997535
 30
0.0
 10
12.5626895559
 20
9.5809229088
 30
0.0
 10
12.5625155799
 20
9.5811050209
 30
0.0
 10
12.5623064045
 20
9.5813209119
 30
0.0
 10
12.5620276451
 20
9.58160969
 30
0.0
 10
12.5616791476
 20
9.5819703463
 30
0.0
 10
12.5611215785
 20
9.5825475732
 30
0.0
 10
12.5604246079
 20
9.5832690462
 30
0.0
 10
12.5595882472
 20
9.5841348398
 30
0.0
 10
12.5587518854
 20
9.5850006264
 30
0.0
 10
12.5576367367
 20
9.5861550111
 30
0.0
 10
12.5562428007
 20
9.5875979909
 30
0.0
 10
12.5548488648
 20
9.5890409714
 30
0.0
 10
12.553733716
 20
9.590195355
 30
0.0
 10
12.5528973546
 20
9.5910611446
 30
0.0
 10
12.5520609924
 20
9.5919269269
 30
0.0
 10
12.5513640262
 20
9.5926484349
 30
0.0
 10
12.5508064482
 20
9.5932255905
 30
0.0
 10
12.5504579736
 20
9.5935864285
 30
0.0
 10
12.5501791672
 20
9.5938748336
 30
0.0
 10
12.5499701355
 20
9.5940918639
 30
0.0
 10
12.5497957098
 20
9.5942704117
 30
0.0
 10
12.5496740684
 20
9.5943999299
 30
0.0
 10
12.549603846
 20
9.5944668596
 30
0.0
 10
12.5495531877
 20
9.5945370032
 30
0.0
 10
12.5494948523
 20
9.594530902
 30
0.0
 10
12.5494197496
 20
9.594549362
 30
0.0
 10
12.5492870723
 20
9.594569276
 30
0.0
 10
12.5490981856
 20
9.5946042027
 30
0.0
 10
12.5488712423
 20
9.5946433419
 30
0.0
 10
12.5485687488
 20
9.594696496
 30
0.0
 10
12.5481905985
 20
9.594762607
 30
0.0
 10
12.5475855768
 20
9.5948685699
 30
0.0
 10
12.5468292931
 20
9.5950009599
 30
0.0
 10
12.5459217555
 20
9.5951598553
 30
0.0
 10
12.5450142171
 20
9.5953187433
 30
0.0
 10
12.5438041663
 20
9.5955305966
 30
0.0
 10
12.5422916026
 20
9.5957954122
 30
0.0
 10
12.5407790389
 20
9.5960602285
 30
0.0
 10
12.539568988
 20
9.5962720808
 30
0.0
 10
12.5386614499
 20
9.5964309719
 30
0.0
 10
12.5377539112
 20
9.5965898556
 30
0.0
 10
12.5369976308
 20
9.596722282
 30
0.0
 10
12.5363926025
 20
9.5968281707
 30
0.0
 10
12.5360144687
 20
9.5968944706
 30
0.0
 10
12.5357119415
 20
9.5969472369
 30
0.0
 10
12.5354851011
 20
9.5969875609
 30
0.0
 10
12.5352958923
 20
9.5970187805
 30
0.0
 10
12.5351637899
 20
9.5970453123
 30
0.0
 10
12.5350877661
 20
9.5970531689
 30
0.0
 10
12.5350322602
 20
9.597079638
 30
0.0
 10
12.534970975
 20
9.5970274529
 30
0.0
 10
12.5348912772
 20
9.5969853083
 30
0.0
 10
12.5347508669
 20
9.5968987725
 30
0.0
 10
12.5345507718
 20
9.5967818329
 30
0.0
 10
12.5343104475
 20
9.5966386449
 30
0.0
 10
12.5339900884
 20
9.5964487266
 30
0.0
 10
12.5335896145
 20
9.5962109867
 30
0.0
 10
12.5329488703
 20
9.595830794
 30
0.0
 10
12.5321479352
 20
9.5953554876
 30
0.0
 10
12.5311868152
 20
9.5947851479
 30
0.0
 10
12.5302256946
 20
9.5942148008
 30
0.0
 10
12.5289442006
 20
9.5934543405
 30
0.0
 10
12.5273423332
 20
9.5925037642
 30
0.0
 10
12.5257404657
 20
9.5915531886
 30
0.0
 10
12.5244589717
 20
9.5907927273
 30
0.0
 10
12.5234978512
 20
9.5902223832
 30
0.0
 10
12.5225367309
 20
9.589652032
 30
0.0
 10
12.5217357967
 20
9.5891767615
 30
0.0
 10
12.5210950506
 20
9.5887964956
 30
0.0
 10
12.5206945816
 20
9.588558942
 30
0.0
 10
12.5203742126
 20
9.5883686412
 30
0.0
 10
12.5201339187
 20
9.588226622
 30
0.0
 10
12.5199337282
 20
9.5881060252
 30
0.0
 10
12.5197934881
 20
9.5880260182
 30
0.0
 10
12.5197135177
 20
9.5879734129
 30
0.0
 10
12.5196530701
 20
9.5879533596
 30
0.0
 10
12.5195944179
 20
9.5878591471
 30
0.0
 10
12.5195155887
 20
9.587759398
 30
0.0
 10
12.5193779293
 20
9.5875727849
 30
0.0
 10
12.5191811205
 20
9.5873124958
 30
0.0
 10
12.5189450152
 20
9.5869974518
 30
0.0
 10
12.5186301854
 20
9.5865783351
 30
0.0
 10
12.5182366559
 20
9.5860541168
 30
0.0
 10
12.5176070044
 20
9.5852155477
 30
0.0
 10
12.5168199415
 20
9.5841672745
 30
0.0
 10
12.5158754654
 20
9.5829093731
 30
0.0
 10
12.5149309894
 20
9.5816514647
 30
0.0
 10
12.5136716881
 20
9.5799742559
 30
0.0
 10
12.5120975614
 20
9.5778777442
 30
0.0
 10
12.5105234348
 20
9.5757812321
 30
0.0
 10
12.5092641334
 20
9.5741040241
 30
0.0
 10
12.5083196576
 20
9.5728461132
 30
0.0
 10
12.5073751808
 20
9.5715882211
 30
0.0
 10
12.5065881201
 20
9.5705399193
 30
0.0
 10
12.5059584642
 20
9.5697014085
 30
0.0
 10
12.5055649459
 20
9.5691770418
 30
0.0
 10
12.5052500931
 20
9.5687582296
 30
0.0
 10
12.5050140579
 20
9.5684422553
 30
0.0
 10
12.50481703
 20
9.568184877
 30
0.0
 10
12.5046601519
 20
9.5679656662
 30
0.0
 10
12.5045404598
 20
9.5678376225
 30
0.0
 10
12.5044285298
 20
9.5675707753
 30
0.0
 10
12.5042765783
 20
9.567263465
 30
0.0
 10
12.5040875693
 20
9.5668626918
 30
0.0
 10
12.5038603602
 20
9.5663888845
 30
0.0
 10
12.5035575539
 20
9.5657546543
 30
0.0
 10
12.5031789984
 20
9.5649627181
 30
0.0
 10
12.5025733362
 20
9.5636951443
 30
0.0
 10
12.5018162493
 20
9.5621108404
 30
0.0
 10
12.5009077489
 20
9.5602096056
 30
0.0
 10
12.4999992475
 20
9.5583083897
 30
0.0
 10
12.4987879127
 20
9.5557734282
 30
0.0
 10
12.4972737437
 20
9.5526047311
 30
0.0
 10
12.4954567425
 20
9.5488022817
 30
0.0
 10
12.4939425702
 20
9.5456336108
 30
0.0
 10
12.4927312426
 20
9.5430985918
 30
0.0
 10
12.4919741397
 20
9.5415143921
 30
0.0
 10
12.4913685104
 20
9.5402466037
 30
0.0
 10
12.4909141433
 20
9.5392969358
 30
0.0
 10
12.4905359655
 20
9.5385018135
 30
0.0
 10
12.4902703355
 20
9.5379525525
 30
0.0
 10
12.4901199609
 20
9.5376272523
 30
0.0
 10
12.4900031969
 20
9.5374154947
 30
0.0
 10
12.489901658
 20
9.5370805853
 30
0.0
 10
12.4897609621
 20
9.5366769961
 30
0.0
 10
12.4895172187
 20
9.5359507008
 30
0.0
 10
12.4891677202
 20
9.5349235998
 30
0.0
 10
12.4887488758
 20
9.5336865997
 30
0.0
 10
12.4881902231
 20
9.5320388307
 30
0.0
 10
12.4874919734
 20
9.5299785837
 30
0.0
 10
12.486374737
 20
9.5266824881
 30
0.0
 10
12.4849782042
 20
9.5225622651
 30
0.0
 10
12.4833023589
 20
9.5176180446
 30
0.0
 10
12.4816265169
 20
9.5126738012
 30
0.0
 10
12.4802299758
 20
9.5085536354
 30
0.0
 10
12.479112756
 20
9.5052574255
 30
0.0
 10
12.478414464
 20
9.503197469
 30
0.0
 10
12.4778558983
 20
9.5015491037
 30
0.0
 10
12.4774367881
 20
9.5003139253
 30
0.0
 10
12.477088121
 20
9.4992811249
 30
0.0
 10
12.4768428934
 20
9.4985650038
 30
0.0
 10
12.4767045757
 20
9.498145113
 30
0.0
 10
12.4765957318
 20
9.4978602772
 30
0.0
 10
12.4765064043
 20
9.4974604513
 30
0.0
 10
12.4763804934
 20
9.4969674598
 30
0.0
 10
12.4761633211
 20
9.4960860369
 30
0.0
 10
12.4758514168
 20
9.4948366316
 30
0.0
 10
12.4754778414
 20
9.4933331632
 30
0.0
 10
12.474979493
 20
9.4913299993
 30
0.0
 10
12.4743566423
 20
9.4888255444
 30
0.0
 10
12.4733600337
 20
9.484818696
 30
0.0
 10
12.4721142895
 20
9.4798100393
 30
0.0
 10
12.4706193886
 20
9.4737996941
 30
0.0
 10
12.4691244926
 20
9.4677893314
 30
0.0
 10
12.4678787362
 20
9.4627807184
 30
0.0
 10
12.466882152
 20
9.4587737824
 30
0.0
 10
12.4662592394
 20
9.4562695502
 30
0.0
 10
12.4657610181
 20
9.4542659292
 30
0.0
 10
12.4653870541
 20
9.4527638576
 30
0.0
 10
12.4650763658
 20
9.4515100819
 30
0.0
 10
12.4648570226
 20
9.4506364608
 30
0.0
 10
12.4647345902
 20
9.4501309689
 30
0.0
 10
12.4646345781
 20
9.4497695406
 30
0.0
 10
12.4645658637
 20
9.4493404894
 30
0.0
 10
12.4644633275
 20
9.4487920088
 30
0.0
 10
12.4642889755
 20
9.4478211777
 30
0.0
 10
12.4640372421
 20
9.4464400219
 30
0.0
 10
12.4637363002
 20
9.4447801756
 30
0.0
 10
12.4633346468
 20
9.4425679062
 30
0.0
 10
12.4628327162
 20
9.4398022753
 30
0.0
 10
12.4620295509
 20
9.4353774306
 30
0.0
 10
12.4610256224
 20
9.4298463153
 30
0.0
 10
12.4598208878
 20
9.4232090151
 30
0.0
 10
12.4586161895
 20
9.4165716573
 30
0.0
 10
12.4576121702
 20
9.4110406859
 30
0.0
 10
12.4568091865
 20
9.4066155535
 30
0.0
 10
12.456206316
 20
9.4032976738
 30
0.0
 10
12.4557059363
 20
9.4005296901
 30
0.0
 10
12.4553517212
 20
9.3985981537
 30
0.0
 10
12.4551554792
 20
9.3974849686
 30
0.0
 10
12.4549909264
 20
9.3966767006
 30
0.0
 10
12.4548927752
 20
9.3957666743
 30
0.0
 10
12.4547387454
 20
9.3945888003
 30
0.0
 10
12.4544799847
 20
9.3925109834
 30
0.0
 10
12.4541046845
 20
9.3895513194
 30
0.0
 10
12.4536567394
 20
9.3859960219
 30
0.0
 10
12.4530586353
 20
9.3812569181
 30
0.0
 10
12.4523112969
 20
9.3753325934
 30
0.0
 10
12.4514143565
 20
9.3682236
 30
0.0
 10
12.4505174864
 20
9.3611145338
 30
0.0
 10
12.4497699722
 20
9.3551903911
 30
0.0
 10
12.4491722197
 20
9.3504509233
 30
0.0
 10
12.4487232022
 20
9.3468967358
 30
0.0
 10
12.4483512568
 20
9.3439335992
 30
0.0
 10
12.4480865074
 20
9.3418619816
 30
0.0
 10
12.4479420729
 20
9.3406741746
 30
0.0
 10
12.4478144479
 20
9.3397946592
 30
0.0
 10
12.4477605941
 20
9.3388717974
 30
0.0
 10
12.4476630567
 20
9.3376564348
 30
0.0
 10
12.4475043555
 20
9.3355225056
 30
0.0
 10
12.4472713714
 20
9.3324777183
 30
0.0
 10
12.4469944735
 20
9.328822397
 30
0.0
 10
12.4466243387
 20
9.3239491861
 30
0.0
 10
12.4461619942
 20
9.3178574831
 30
0.0
 10
12.4456070322
 20
9.3105475221
 30
0.0
 10
12.4450521465
 20
9.303237534
 30
0.0
 10
12.4445896112
 20
9.2971458987
 30
0.0
 10
12.444219858
 20
9.2922725524
 30
0.0
 10
12.4439417966
 20
9.2886176441
 30
0.0
 10
12.4437124524
 20
9.2855715651
 30
0.0
 10
12.4435472533
 20
9.2834399417
 30
0.0
 10
12.4434601271
 20
9.2822208845
 30
0.0
 10
12.4433742938
 20
9.2813093714
 30
0.0
 10
12.4433667784
 20
9.2803872323
 30
0.0
 10
12.4433294397
 20
9.27916142
 30
0.0
 10
12.443276825
 20
9.2770145217
 30
0.0
 10
12.4431950069
 20
9.2739484268
 30
0.0
 10
12.4430996734
 20
9.2702687266
 30
0.0
 10
12.4429715672
 20
9.2653625945
 30
0.0
 10
12.4428117751
 20
9.2592298833
 30
0.0
 10
12.4425559173
 20
9.2494175711
 30
0.0
 10
12.4422361608
 20
9.237152172
 30
0.0
 10
12.4419803356
 20
9.2273398554
 30
0.0
 10
12.4418524255
 20
9.2224336968
 30
0.0
  0
ENDSEC
  0
SECTION
  2
OBJECTS
  0
DICTIONARY
  5
C
100
AcDbDictionary
280
0
281
1
  3
ACAD_GROUP
350
D
  3
ACAD_MLINESTYLE
350
17
  3
ACAD_LAYOUT
350
1A
  3
ACAD_PLOTSETTINGS
350
19
  3
ACAD_PLOTSTYLENAME
350
E
  3
ACAD_IMAGE_DICT
350
       39E
  3
ACAD_IMAGE_VARS
350
       39F
  3
ACAD_TABLESTYLE
350
       3A0
  0
IMAGEDEF_REACTOR
  5
39D
100
AcDbRasterImageDefReactor
 90
2
330
27D
  0
DICTIONARY
  5
D
102
{ACAD_REACTORS
330
C
102
}
100
AcDbDictionary
280
0
281
1
  0
ACDBDICTIONARYWDFLT
  5
E
102
{ACAD_REACTORS
330
C
102
}
100
AcDbDictionary
281
1
  3
Normal
350
F
100
AcDbDictionaryWithDefault
340
F
  0
DICTIONARY
  5
39E
330
C
100
AcDbDictionary
281
1
  3
H24_assy_2_img_1
350
       3A3
  0
RASTERVARIABLES
  5
39F
330
C
100
AcDbRasterVariables
 90
0
 70
0
 71
1
 72
5
  0
DICTIONARY
  5
17
102
{ACAD_REACTORS
330
C
102
}
100
AcDbDictionary
280
0
281
1
  3
Standard
350
18
  0
DICTIONARY
  5
3A0
330
C
100
AcDbDictionary
281
1
  3
Standard
350
       3A4
  3
Standard1
350
       3A5
  0
DICTIONARY
  5
19
102
{ACAD_REACTORS
330
C
102
}
100
AcDbDictionary
281
1
  0
DICTIONARY
  5
1A
102
{ACAD_REACTORS
330
C
102
}
100
AcDbDictionary
281
1
  3
Model
350
3A1
  3
Layout1
350
3A2
  0
ACDBPLACEHOLDER
  5
F
102
{ACAD_REACTORS
330
E
102
}
  0
MLINESTYLE
  5
18
102
{ACAD_REACTORS
330
17
102
}
100
AcDbMlineStyle
  2
STANDARD
 70
0
  3

 62
256
 51
90.0
 52
90.0
 71
2
 49
0.5
 62
256
  6
BYLAYER
 49
-0.5
 62
256
  6
BYLAYER
  0
LAYOUT
  5
3A1
102
{ACAD_REACTORS
330
1A
102
}
100
AcDbPlotSettings
  1

  2
none_device
  4
ANSI_C_(22.00_x_17.00_Inches)
  6

 40
0.0
 41
0.0
 42
0.0
 43
0.0
 44
558.8
 45
431.8
 46
0.0
 47
0.0
 48
0.0
 49
0.0
140
0.0
141
0.0
142
1.0
143
1.0
 70
1024
 72
0
 73
0
 74
0
  7

 75
0
147
1.0
148
0.0
149
0.0
100
AcDbLayout
  1
Model
 70
0
 71
0
 10
0.0
 20
0.0
 11
22.0
 21
17.0
 12
0.0
 22
0.0
 32
0.0
 14
0.0
 24
0.0
 34
0.0
 15
0.0
 25
0.0
 35
0.0
146
0.0
 13
0.0
 23
0.0
 33
0.0
 16
1.0
 26
0.0
 36
0.0
 17
0.0
 27
1.0
 37
0.0
 76
0
330
204
345
0
346
0
  0
LAYOUT
  5
3A2
102
{ACAD_REACTORS
330
1A
102
}
100
AcDbPlotSettings
  1

  2
none_device
  4
ANSI_C_(22.00_x_17.00_Inches)
  6

 40
0.0
 41
0.0
 42
0.0
 43
0.0
 44
558.8
 45
431.8
 46
0.0
 47
0.0
 48
0.0
 49
0.0
140
0.0
141
0.0
142
1.0
143
1.0
 70
0
 72
0
 73
0
 74
0
  7

 75
0
147
1.0
148
0.0
149
0.0
100
AcDbLayout
  1
Layout1
 70
0
 71
1
 10
0.0
 20
0.0
 11
22.0
 21
17.0
 12
0.0
 22
0.0
 32
0.0
 14
0.0
 24
0.0
 34
0.0
 15
0.0
 25
0.0
 35
0.0
146
0.0
 13
0.0
 23
0.0
 33
0.0
 16
1.0
 26
0.0
 36
0.0
 17
0.0
 27
1.0
 37
0.0
 76
0
330
205
345
0
346
0
  0
IMAGEDEF
  5
3A3
102
{ACAD_REACTORS
330
39E
330
39D
102
}
100
AcDbRasterImageDef
 90
0
  1
H24_assy_2_img_1.png
 10
369.0
 20
92.0
 11
0.0066666667
 21
0.0066666667
280
1
281
0
  0
TABLESTYLE
  5
3A4
102
{ACAD_REACTORS
330
3A0
330
280
330
281
102
}
330
3A0
100
AcDbTableStyle
  3
Standard
 70
0
 71
0
 40
0.06
 41
0.06
280
1
281
1
  7
Standard
140
0.18
170
1
 62
0
 63
7
283
0
  7
Standard
140
0.18
170
1
 62
0
 63
7
283
0
  7
Standard
140
0.18
170
1
 62
0
 63
7
283
0
  0
TABLESTYLE
  5
3A5
102
{ACAD_REACTORS
330
3A0
330
27F
102
}
330
3A0
100
AcDbTableStyle
  3
Standard1
 70
1
 71
0
 40
0.06
 41
0.06
280
1
281
1
  7
Standard
140
0.18
170
1
 62
0
 63
7
283
0
  7
Standard
140
0.18
170
1
 62
0
 63
7
283
0
  7
Standard
140
0.18
170
1
 62
0
 63
7
283
0
  0
ENDSEC
  0
EOF
