999
DXF file: GNN_assy_2.dxf
999
Pro/ENGINEER 2014200 by Parametric Technology Corporation
  0
SECTION
  2
HEADER
  9
$ACADVER
  1
AC1021
  9
$DWGCODEPAGE
  3
ANSI_1252
  9
$EXTMAX
 10
22.0
 20
17.0
 30
0.0
  9
$EXTMIN
 10
0.0
 20
0.0
 30
0.0
  9
$LIMMIN
 10
0.0
 20
0.0
  9
$LIMMAX
 10
22.0
 20
17.0
  9
$VIEWCTR
 10
11.0
 20
8.5
  9
$VIEWSIZE
 40
17.0
  9
$CLAYER
  8
0
  9
$LTSCALE
 40
1.21
  9
$CELTYPE
  6
BYLAYER
  9
$DIMSCALE
 40
1.0
  9
$DIMASZ
 40
0.1875
  9
$DIMEXO
 40
0.0625
  9
$DIMDLI
 40
0.836
  9
$DIMEXE
 40
0.125
  9
$DIMCEN
 40
0.198
  9
$DIMLFAC
 40
1.0
  9
$DIMBLK
  1
_FILLED
  9
$DIMTXT
 40
0.1
  9
$DIMTOL
 70
0
  9
$DIMLIM
 70
0
  9
$DIMTFAC
 40
1.0
  9
$DIMGAP
 40
0.09
  9
$DIMDSEP
 70
46
  9
$AUNITS
 70
0
  9
$PDMODE
 70
3
  9
$PDSIZE
 40
0.3125
  9
$HANDSEED
  5
359
  9
$TILEMODE
 70
1
  9
$MEASUREMENT
 70
0
  9
$INSUNITS
 70
1
  0
ENDSEC
  0
SECTION
  2
CLASSES
  0
CLASS
  1
ACDBDICTIONARYWDFLT
  2
AcDbDictionaryWithDefault
  3
AutoCAD 2000
 90
0
 91
1
280
0
281
0
  0
CLASS
  1
ACDBPLACEHOLDER
  2
AcDbPlaceHolder
  3
AutoCAD 2000
 90
0
 91
1
280
0
281
0
  0
CLASS
  1
LAYOUT
  2
AcDbLayout
  3
AutoCAD 2000
 90
0
 91
0
280
0
281
0
  0
CLASS
  1
RASTERVARIABLES
  2
AcDbRasterVariables
  3
ISM
 90
0
 91
1
280
0
281
0
  0
CLASS
  1
IMAGEDEF
  2
AcDbRasterImageDef
  3
ISM
 90
0
 91
1
280
0
281
0
  0
CLASS
  1
IMAGEDEF_REACTOR
  2
AcDbRasterImageDefReactor
  3
ISM
 90
0
 91
1
280
0
281
0
  0
CLASS
  1
IMAGE
  2
AcDbRasterImage
  3
ISM
 90
127
 91
1
280
0
281
1
  0
CLASS
  1
TABLESTYLE
  2
AcDbTableStyle
  3
ObjectDBX Classes
 90
2047
 91
1
280
0
281
0
  0
CLASS
  1
ACAD_TABLE
  2
AcDbTable
  3
ObjectDBX Classes
 90
1025
 91
3
280
0
281
1
  0
ENDSEC
  0
SECTION
  2
TABLES
  0
TABLE
  2
VPORT
  5
8
100
AcDbSymbolTable
 70
2
  0
VPORT
  5
1F4
100
AcDbSymbolTableRecord
100
AcDbViewportTableRecord
  2
*ACTIVE
 70
0
 10
0.0
 20
0.0
 11
1.0
 21
1.0
 12
11.0
 22
8.5
 13
0.0
 23
0.0
 14
1.0
 24
1.0
 15
0.0
 25
0.0
 16
0.0
 26
0.0
 36
1.0
 17
0.0
 27
0.0
 37
0.0
 40
17.0
 41
1.2941176471
 42
50.0
 43
0.0
 44
0.0
 50
0.0
 51
0.0
 71
0
 72
100
 73
1
 74
1
 75
0
 76
0
 77
0
 78
0
  0
ENDTAB
  0
TABLE
  2
LTYPE
  5
5
100
AcDbSymbolTable
 70
6
  0
LTYPE
  5
14
100
AcDbSymbolTableRecord
100
AcDbLinetypeTableRecord
  2
BYBLOCK
 70
0
  3

 72
65
 73
0
 40
0.0
  0
LTYPE
  5
15
100
AcDbSymbolTableRecord
100
AcDbLinetypeTableRecord
  2
BYLAYER
 70
0
  3

 72
65
 73
0
 40
0.0
  0
LTYPE
  5
16
100
AcDbSymbolTableRecord
100
AcDbLinetypeTableRecord
  2
CONTINUOUS
 70
64
  3
Solid line
 72
65
 73
0
 40
0.0
  0
LTYPE
  5
1F5
100
AcDbSymbolTableRecord
100
AcDbLinetypeTableRecord
  2
CENTER
 70
64
  3
____ _ ____ _ ____ _ ____ _ ____ _ ____ _ ____
 72
65
 73
4
 40
0.6
 49
0.375
 74
0
 49
-0.075
 74
0
 49
0.075
 74
0
 49
-0.075
 74
0
  0
LTYPE
  5
1F6
100
AcDbSymbolTableRecord
100
AcDbLinetypeTableRecord
  2
HIDDEN
 70
64
  3
- - - - - - - - - - - - - - - - - - - -
 72
65
 73
2
 40
0.2
 49
0.1
 74
0
 49
-0.1
 74
0
  0
LTYPE
  5
1F7
100
AcDbSymbolTableRecord
100
AcDbLinetypeTableRecord
  2
PHANTOM
 70
64
  3
_____ _ _ _____ _ _ _____ _ _ _____
 72
65
 73
6
 40
0.8
 49
0.45
 74
0
 49
-0.05
 74
0
 49
0.1
 74
0
 49
-0.05
 74
0
 49
0.1
 74
0
 49
-0.05
 74
0
  0
LTYPE
  5
1F8
100
AcDbSymbolTableRecord
100
AcDbLinetypeTableRecord
  2
DOT
 70
64
  3
. . . . . . . . . . . . . . . . . . . .
 72
65
 73
2
 40
0.2
 49
0.1
 74
0
 49
-0.1
 74
0
  0
LTYPE
  5
1F9
100
AcDbSymbolTableRecord
100
AcDbLinetypeTableRecord
  2
DASHED
 70
64
  3
- - - - - - - - - - - - - - - - - - - -
 72
65
 73
2
 40
0.2
 49
0.1
 74
0
 49
-0.1
 74
0
  0
ENDTAB
  0
TABLE
  2
LAYER
  5
2
100
AcDbSymbolTable
 70
36
  0
LAYER
  5
10
100
AcDbSymbolTableRecord
100
AcDbLayerTableRecord
  2
0
 70
0
 62
7
  6
CONTINUOUS
370
-3
390
F
  0
LAYER
  5
1FA
100
AcDbSymbolTableRecord
100
AcDbLayerTableRecord
  2
DEFAULT_1
 70
0
 62
7
  6
CENTER
370
-3
390
F
  0
LAYER
  5
1FB
100
AcDbSymbolTableRecord
100
AcDbLayerTableRecord
  2
DEFAULT_2
 70
0
 62
8
  6
HIDDEN
370
-3
390
F
  0
LAYER
  5
1FC
100
AcDbSymbolTableRecord
100
AcDbLayerTableRecord
  2
DEFAULT_3
 70
0
 62
7
  6
PHANTOM
370
-3
390
F
  0
LAYER
  5
1FD
100
AcDbSymbolTableRecord
100
AcDbLayerTableRecord
  2
01___PRT_ALL_DTM_PLN
 70
0
 62
7
  6
CONTINUOUS
370
-3
390
F
  0
LAYER
  5
1FE
100
AcDbSymbolTableRecord
100
AcDbLayerTableRecord
  2
01___PRT_DEF_DTM_PLN
 70
0
 62
7
  6
CONTINUOUS
370
-3
390
F
  0
LAYER
  5
1FF
100
AcDbSymbolTableRecord
100
AcDbLayerTableRecord
  2
02___PRT_ALL_AXES
 70
0
 62
7
  6
CONTINUOUS
370
-3
390
F
  0
LAYER
  5
200
100
AcDbSymbolTableRecord
100
AcDbLayerTableRecord
  2
03___PRT_ALL_CURVES
 70
0
 62
7
  6
CONTINUOUS
370
-3
390
F
  0
LAYER
  5
201
100
AcDbSymbolTableRecord
100
AcDbLayerTableRecord
  2
04___PRT_ALL_DTM_PNT
 70
0
 62
7
  6
CONTINUOUS
370
-3
390
F
  0
LAYER
  5
202
100
AcDbSymbolTableRecord
100
AcDbLayerTableRecord
  2
05___PRT_ALL_DTM_CSYS
 70
0
 62
7
  6
CONTINUOUS
370
-3
390
F
  0
LAYER
  5
203
100
AcDbSymbolTableRecord
100
AcDbLayerTableRecord
  2
05___PRT_DEF_DTM_CSYS
 70
0
 62
7
  6
CONTINUOUS
370
-3
390
F
  0
LAYER
  5
204
100
AcDbSymbolTableRecord
100
AcDbLayerTableRecord
  2
06___PRT_ALL_SURFS
 70
0
 62
7
  6
CONTINUOUS
370
-3
390
F
  0
LAYER
  5
205
100
AcDbSymbolTableRecord
100
AcDbLayerTableRecord
  2
DATUM_PLANES
 70
0
 62
7
  6
CONTINUOUS
370
-3
390
F
  0
LAYER
  5
206
100
AcDbSymbolTableRecord
100
AcDbLayerTableRecord
  2
PORT_AREAS
 70
0
 62
7
  6
CONTINUOUS
370
-3
390
F
  0
LAYER
  5
207
100
AcDbSymbolTableRecord
100
AcDbLayerTableRecord
  2
SUNNBOMCOSMETIC
 70
0
 62
7
  6
CONTINUOUS
370
-3
390
F
  0
LAYER
  5
208
100
AcDbSymbolTableRecord
100
AcDbLayerTableRecord
  2
SUNNBOMSTAMPING
 70
0
 62
7
  6
CONTINUOUS
370
-3
390
F
  0
LAYER
  5
209
100
AcDbSymbolTableRecord
100
AcDbLayerTableRecord
  2
THREADS
 70
0
 62
7
  6
CONTINUOUS
370
-3
390
F
  0
ENDTAB
  0
TABLE
  2
STYLE
  5
3
100
AcDbSymbolTable
 70
1
  0
STYLE
  5
11
100
AcDbSymbolTableRecord
100
AcDbTextStyleTableRecord
  2
STANDARD
 70
0
 40
0.0
 41
0.8
 50
0.0
 71
0
 42
0.2
  3
txt
  4

  0
STYLE
  5
20A
100
AcDbSymbolTableRecord
100
AcDbTextStyleTableRecord
  2
TEXTSTYLE_1
 70
0
 40
0.0
 41
0.8
 50
0.0
 71
0
 42
0.2
  3
gdt
  4

  0
ENDTAB
  0
TABLE
  2
VIEW
  5
6
100
AcDbSymbolTable
 70
0
  0
ENDTAB
  0
TABLE
  2
UCS
  5
7
100
AcDbSymbolTable
 70
0
  0
ENDTAB
  0
TABLE
  2
APPID
  5
9
100
AcDbSymbolTable
 70
1
  0
APPID
  5
20B
100
AcDbSymbolTableRecord
100
AcDbRegAppTableRecord
  2
ACAD
 70
0
  0
ENDTAB
  0
TABLE
  2
BLOCK_RECORD
  5
1
100
AcDbSymbolTable
 70
0
  0
BLOCK_RECORD
  5
20C
100
AcDbSymbolTableRecord
100
AcDbBlockTableRecord
  2
*Model_Space
  0
BLOCK_RECORD
  5
20D
100
AcDbSymbolTableRecord
100
AcDbBlockTableRecord
  2
*Paper_Space
  0
BLOCK_RECORD
  5
20E
100
AcDbSymbolTableRecord
100
AcDbBlockTableRecord
  2
SUN_FIRST_THIRD_ANGLE_BL0
  0
BLOCK_RECORD
  5
20F
100
AcDbSymbolTableRecord
100
AcDbBlockTableRecord
  2
*T1
  0
BLOCK_RECORD
  5
210
100
AcDbSymbolTableRecord
100
AcDbBlockTableRecord
  2
*T2
  0
BLOCK_RECORD
  5
211
100
AcDbSymbolTableRecord
100
AcDbBlockTableRecord
  2
*T3
  0
ENDTAB
  0
TABLE
  2
DIMSTYLE
  5
A
100
AcDbSymbolTable
 70
1
100
AcDbDimStyleTable
 71
0
  0
DIMSTYLE
105
212
100
AcDbSymbolTableRecord
100
AcDbDimStyleTableRecord
  2
STANDARD
 70
0
  3

  4

 40
1.0
 41
0.1875
 42
0.0625
 43
0.38
 44
0.125
 45
0.0
 46
0.0
 47
0.001
 48
0.001
140
0.1
141
0.09
142
0.0
143
25.4
144
1.0
145
0.0
146
1.0
147
0.09
 71
0.0
 72
0.0
 73
1
 74
1
 75
0
 76
0
 77
0
 78
4
170
0
171
2
172
0
173
0
174
0
175
0
176
0
177
0
178
0
270
2
271
3
272
3
273
2
274
2
275
0
280
0
281
0
282
0
283
1
284
4
285
0
286
0
287
3
288
0
340
11
278
46
  0
ENDTAB
  0
ENDSEC
  0
SECTION
  2
BLOCKS
  0
BLOCK
  5
20
100
AcDbEntity
  8
0
100
AcDbBlockBegin
  2
*Model_Space
 70
0
 10
0.0
 20
0.0
 30
0.0
  3
*Model_Space
  1

  0
ENDBLK
  5
21
100
AcDbEntity
  8
0
100
AcDbBlockEnd
  0
BLOCK
  5
1C
100
AcDbEntity
  8
0
100
AcDbBlockBegin
  2
*Paper_Space
 70
0
 10
0.0
 20
0.0
 30
0.0
  3
*Paper_Space
  1

  0
ENDBLK
  5
1D
100
AcDbEntity
  8
0
100
AcDbBlockEnd
  0
BLOCK
  5
213
100
AcDbEntity
  8
0
100
AcDbBlockBegin
 62
2
  6
CONTINUOUS
  2
SUN_FIRST_THIRD_ANGLE_BL0
 70
64
 10
20.4816717061
 20
1.2289683772
  3
SUN_FIRST_THIRD_ANGLE_BL0
  1

  0
TEXT
  5
214
100
AcDbEntity
  8
0
100
AcDbText
 62
2
  6
CONTINUOUS
 10
19.4750896608
 20
1.4136269581
  7
STANDARD
 40
0.08
  1
FIRST ANGLE
 41
0.8
 72
0
100
AcDbText
  0
TEXT
  5
215
100
AcDbEntity
  8
0
100
AcDbText
 62
2
  6
CONTINUOUS
 10
20.7842537513
 20
1.4047600029
  7
STANDARD
 40
0.08
  1
THIRD ANGLE
 41
0.8
 72
0
100
AcDbText
  0
LINE
  5
216
100
AcDbEntity
  8
0
100
AcDbLine
 62
7
  6
CONTINUOUS
 10
19.4767170086
 20
1.1727031207
 11
19.6334271527
 21
1.1717972817
  0
LINE
  5
217
100
AcDbEntity
  8
0
100
AcDbLine
 62
7
  6
CONTINUOUS
 10
19.6596964832
 20
1.1717972817
 11
19.6950230232
 21
1.171593082
  0
LINE
  5
218
100
AcDbEntity
  8
0
100
AcDbLine
 62
7
  6
CONTINUOUS
 10
19.7194818561
 20
1.1708914427
 11
19.8852396156
 21
1.1699333054
  0
LINE
  5
219
100
AcDbEntity
  8
0
100
AcDbLine
 62
7
  6
CONTINUOUS
 10
19.4758111696
 20
1.2723454088
 11
19.88525039
 21
1.3511534004
  0
LINE
  5
21A
100
AcDbEntity
  8
0
100
AcDbLine
 62
7
  6
CONTINUOUS
 10
19.88525039
 20
1.3511534004
 11
19.8831348489
 21
0.9851647912
  0
LINE
  5
21B
100
AcDbEntity
  8
0
100
AcDbLine
 62
7
  6
CONTINUOUS
 10
19.8831348489
 20
0.9851647912
 11
19.4767170086
 21
1.0658141206
  0
LINE
  5
21C
100
AcDbEntity
  8
0
100
AcDbLine
 62
7
  6
CONTINUOUS
 10
19.4767170086
 20
1.0658141206
 11
19.4779056764
 21
1.2714536432
  0
CIRCLE
  5
21D
100
AcDbEntity
  8
0
100
AcDbCircle
 62
7
  6
CONTINUOUS
 10
20.2068232291
 20
1.1717972817
 40
0.175742101
  0
CIRCLE
  5
21E
100
AcDbEntity
  8
0
100
AcDbCircle
 62
7
  6
CONTINUOUS
 10
20.2068232291
 20
1.1717972817
 40
0.1005522074
  0
LINE
  5
21F
100
AcDbEntity
  8
0
100
AcDbLine
 62
7
  6
CONTINUOUS
 10
20.2077290681
 20
1.3756110529
 11
20.2071171714
 21
1.2379342989
  0
LINE
  5
220
100
AcDbEntity
  8
0
100
AcDbLine
 62
7
  6
CONTINUOUS
 10
20.2077290681
 20
1.2016899681
 11
20.2074674401
 21
1.1428236749
  0
LINE
  5
221
100
AcDbEntity
  8
0
100
AcDbLine
 62
7
  6
CONTINUOUS
 10
20.208634907
 20
1.101141841
 11
20.2080230104
 21
0.963465087
  0
LINE
  5
222
100
AcDbEntity
  8
0
100
AcDbLine
 62
7
  6
CONTINUOUS
 10
20.0066328138
 20
1.1745147986
 11
20.1443095678
 21
1.1739029019
  0
LINE
  5
223
100
AcDbEntity
  8
0
100
AcDbLine
 62
7
  6
CONTINUOUS
 10
20.1832714155
 20
1.1727031207
 11
20.238153505
 21
1.172335442
  0
LINE
  5
224
100
AcDbEntity
  8
0
100
AcDbLine
 62
7
  6
CONTINUOUS
 10
20.2756669918
 20
1.1717972817
 11
20.407916871
 21
1.1712095044
  0
CIRCLE
  5
225
100
AcDbEntity
  8
0
100
AcDbCircle
 62
7
  6
CONTINUOUS
 10
20.7509457401
 20
1.1693297793
 40
0.1722024983
  0
CIRCLE
  5
226
100
AcDbEntity
  8
0
100
AcDbCircle
 62
7
  6
CONTINUOUS
 10
20.7509457401
 20
1.1693297793
 40
0.0985164967
  0
LINE
  5
227
100
AcDbEntity
  8
0
100
AcDbLine
 62
7
  6
CONTINUOUS
 10
20.7169767782
 20
1.170462078
 11
20.7825395137
 21
1.1682766535
  0
LINE
  5
228
100
AcDbEntity
  8
0
100
AcDbLine
 62
7
  6
CONTINUOUS
 10
20.8177513651
 20
1.1693297793
 11
20.947965719
 21
1.1693297793
  0
LINE
  5
229
100
AcDbEntity
  8
0
100
AcDbLine
 62
7
  6
CONTINUOUS
 10
20.6875370113
 20
1.170462078
 11
20.5573226574
 21
1.170462078
  0
LINE
  5
22A
100
AcDbEntity
  8
0
100
AcDbLine
 62
7
  6
CONTINUOUS
 10
20.7486811426
 20
1.1987695462
 11
20.7486811426
 21
1.1432869085
  0
LINE
  5
22B
100
AcDbEntity
  8
0
100
AcDbLine
 62
7
  6
CONTINUOUS
 10
20.7498134414
 20
1.1059210505
 11
20.7498134414
 21
0.9757066966
  0
LINE
  5
22C
100
AcDbEntity
  8
0
100
AcDbLine
 62
7
  6
CONTINUOUS
 10
20.7486811426
 20
1.2338708068
 11
20.7486811426
 21
1.3640851607
  0
LINE
  5
22D
100
AcDbEntity
  8
0
100
AcDbLine
 62
7
  6
CONTINUOUS
 10
21.0702539817
 20
1.2701043662
 11
21.4790138229
 21
1.3448360823
  0
LINE
  5
22E
100
AcDbEntity
  8
0
100
AcDbLine
 62
7
  6
CONTINUOUS
 10
21.4790138229
 20
1.3448360823
 11
21.4790138229
 21
0.9779712941
  0
LINE
  5
22F
100
AcDbEntity
  8
0
100
AcDbLine
 62
7
  6
CONTINUOUS
 10
21.4790138229
 20
0.9779712941
 11
21.069121683
 21
1.0617614
  0
LINE
  5
230
100
AcDbEntity
  8
0
100
AcDbLine
 62
7
  6
CONTINUOUS
 10
21.0702539817
 20
1.2701043662
 11
21.069121683
 21
1.0617614
  0
LINE
  5
231
100
AcDbEntity
  8
0
100
AcDbLine
 62
7
  6
CONTINUOUS
 10
21.4790138229
 20
1.1693297793
 11
21.3159628059
 21
1.1693297793
  0
LINE
  5
232
100
AcDbEntity
  8
0
100
AcDbLine
 62
7
  6
CONTINUOUS
 10
21.2876553377
 20
1.1693297793
 11
21.2502894796
 21
1.1693297793
  0
LINE
  5
233
100
AcDbEntity
  8
0
100
AcDbLine
 62
7
  6
CONTINUOUS
 10
21.2208497126
 20
1.1659328831
 11
21.0713862804
 21
1.1659328831
  0
LINE
  5
234
100
AcDbEntity
  8
0
100
AcDbLine
 62
7
  6
CONTINUOUS
 10
20.4796138713
 20
1.5284908897
 11
20.4766766948
 21
0.9294458646
  0
ENDBLK
  5
235
100
AcDbEntity
  8
0
  6
BYBLOCK
 62
0
100
AcDbBlockEnd
  0
BLOCK
  5
236
100
AcDbEntity
  8
0
100
AcDbBlockBegin
  2
*T1
 70
1
 10
0.0
 20
0.0
  3
*T1
  1

  0
LINE
  5
237
100
AcDbEntity
  8
0
100
AcDbLine
 62
2
  6
CONTINUOUS
 10
9.275
 20
0.0
 11
-0.0
 21
0.0
  0
LINE
  5
238
100
AcDbEntity
  8
0
100
AcDbLine
 62
2
  6
CONTINUOUS
 10
9.275
 20
0.0
 11
9.275
 21
1.25
  0
LINE
  5
239
100
AcDbEntity
  8
0
100
AcDbLine
 62
2
  6
CONTINUOUS
 10
9.275
 20
0.625
 11
-0.0
 21
0.625
  0
LINE
  5
23A
100
AcDbEntity
  8
0
100
AcDbLine
 62
2
  6
CONTINUOUS
 10
9.275
 20
1.25
 11
-0.0
 21
1.25
  0
LINE
  5
23B
100
AcDbEntity
  8
0
100
AcDbLine
 62
2
  6
CONTINUOUS
 10
6.8
 20
0.0
 11
6.8
 21
1.25
  0
LINE
  5
23C
100
AcDbEntity
  8
0
100
AcDbLine
 62
2
  6
CONTINUOUS
 10
6.4
 20
0.0
 11
6.4
 21
0.625
  0
LINE
  5
23D
100
AcDbEntity
  8
0
100
AcDbLine
 62
2
  6
CONTINUOUS
 10
5.9
 20
0.0
 11
5.9
 21
0.625
  0
LINE
  5
23E
100
AcDbEntity
  8
0
100
AcDbLine
 62
2
  6
CONTINUOUS
 10
5.2
 20
0.0
 11
5.2
 21
0.625
  0
LINE
  5
23F
100
AcDbEntity
  8
0
100
AcDbLine
 62
2
  6
CONTINUOUS
 10
4.1
 20
0.0
 11
4.1
 21
1.25
  0
LINE
  5
240
100
AcDbEntity
  8
0
100
AcDbLine
 62
2
  6
CONTINUOUS
 10
-0.0
 20
0.0
 11
-0.0
 21
1.25
  0
MTEXT
  5
241
100
AcDbEntity
  8
0
100
AcDbMText
 62
2
  6
CONTINUOUS
  7
STANDARD
 71
2
 72
1
 10
6.6
 20
0.325
 30
0.0
 11
1.0
 21
0.0
 31
0.0
 44
0.9
  1
2
 40
0.125
 41
0.2
  0
MTEXT
  5
242
100
AcDbEntity
  8
0
100
AcDbMText
 62
2
  6
CONTINUOUS
  7
STANDARD
 71
2
 72
1
 10
6.15
 20
0.325
 30
0.0
 11
1.0
 21
0.0
 31
0.0
 44
0.9
  1
C
 40
0.125
 41
0.2
  0
MTEXT
  5
243
100
AcDbEntity
  8
0
100
AcDbMText
 62
2
  6
CONTINUOUS
  7
STANDARD
 71
2
 72
1
 10
5.55
 20
0.325
 30
0.0
 11
1.0
 21
0.0
 31
0.0
 44
0.9
  1
1.000
 40
0.125
 41
1.0
  0
MTEXT
  5
244
100
AcDbEntity
  8
0
100
AcDbMText
 62
2
  6
CONTINUOUS
  7
STANDARD
 71
2
 72
1
 10
4.65
 20
0.325
 30
0.0
 11
1.0
 21
0.0
 31
0.0
 44
0.9
  1
Jan-30-24
 40
0.125
 41
1.8
  0
MTEXT
  5
245
100
AcDbEntity
  8
0
100
AcDbMText
 62
2
  6
CONTINUOUS
  7
STANDARD
 71
2
 72
1
 10
2.05
 20
0.4625
 30
0.0
 11
1.0
 21
0.0
 31
0.0
 44
0.9
  1
T-13A Line mount\PNinety degree with reverse flow check
 40
0.125
 41
7.4
  0
MTEXT
  5
246
100
AcDbEntity
  8
0
100
AcDbMText
 62
2
  6
CONTINUOUS
  7
STANDARD
 71
1
 72
1
 10
6.45
 20
0.5625
 30
0.0
 11
1.0
 21
0.0
 31
0.0
 44
0.9
  1
SHEET
 40
0.06
 41
0.48
  0
MTEXT
  5
247
100
AcDbEntity
  8
0
100
AcDbMText
 62
2
  6
CONTINUOUS
  7
STANDARD
 71
1
 72
1
 10
5.95
 20
0.5625
 30
0.0
 11
1.0
 21
0.0
 31
0.0
 44
0.9
  1
DWG SIZE
 40
0.06
 41
0.768
  0
MTEXT
  5
248
100
AcDbEntity
  8
0
100
AcDbMText
 62
2
  6
CONTINUOUS
  7
STANDARD
 71
1
 72
1
 10
5.25
 20
0.5625
 30
0.0
 11
1.0
 21
0.0
 31
0.0
 44
0.9
  1
SCALE
 40
0.06
 41
0.48
  0
MTEXT
  5
249
100
AcDbEntity
  8
0
100
AcDbMText
 62
2
  6
CONTINUOUS
  7
STANDARD
 71
1
 72
1
 10
4.15
 20
0.5625
 30
0.0
 11
1.0
 21
0.0
 31
0.0
 44
0.9
  1
DATE
 40
0.06
 41
0.384
  0
MTEXT
  5
24A
100
AcDbEntity
  8
0
100
AcDbMText
 62
2
  6
CONTINUOUS
  7
STANDARD
 71
1
 72
1
 10
0.05
 20
0.5625
 30
0.0
 11
1.0
 21
0.0
 31
0.0
 44
0.9
  1
DESCRIPTION
 40
0.06
 41
1.056
  0
MTEXT
  5
24B
100
AcDbEntity
  8
0
100
AcDbMText
 62
2
  6
CONTINUOUS
  7
STANDARD
 71
2
 72
1
 10
5.45
 20
1.0375
 30
0.0
 11
1.0
 21
0.0
 31
0.0
 44
0.9
  1
ALL DIMENSIONS IN INCH\PVIEWS ARE THIRD ANGLE
 40
0.12
 41
4.224
  0
MTEXT
  5
24C
100
AcDbEntity
  8
0
100
AcDbMText
 62
2
  6
CONTINUOUS
  7
STANDARD
 71
2
 72
1
 10
2.05
 20
0.95
 30
0.0
 11
1.0
 21
0.0
 31
0.0
 44
0.9
  1
GNN
 40
0.125
 41
0.6
  0
MTEXT
  5
24D
100
AcDbEntity
  8
0
100
AcDbMText
 62
2
  6
CONTINUOUS
  7
STANDARD
 71
1
 72
1
 10
0.05
 20
1.1875
 30
0.0
 11
1.0
 21
0.0
 31
0.0
 44
0.9
  1
MODEL
 40
0.06
 41
0.48
  0
ENDBLK
  5
24E
100
AcDbEntity
  8
0
  6
BYBLOCK
 62
0
100
AcDbBlockEnd
  0
BLOCK
  5
24F
100
AcDbEntity
  8
0
100
AcDbBlockBegin
  2
*T2
 70
1
 10
0.0
 20
0.0
  3
*T2
  1

  0
LINE
  5
250
100
AcDbEntity
  8
0
100
AcDbLine
 62
2
  6
CONTINUOUS
 10
0.0
 20
0.0
 11
9.055
 21
0.0
  0
LINE
  5
251
100
AcDbEntity
  8
0
100
AcDbLine
 62
2
  6
CONTINUOUS
 10
0.0
 20
0.0
 11
0.0
 21
-2.844
  0
LINE
  5
252
100
AcDbEntity
  8
0
100
AcDbLine
 62
2
  6
CONTINUOUS
 10
0.0
 20
-0.344
 11
9.055
 21
-0.344
  0
LINE
  5
253
100
AcDbEntity
  8
0
100
AcDbLine
 62
2
  6
CONTINUOUS
 10
0.0
 20
-0.594
 11
9.055
 21
-0.594
  0
LINE
  5
254
100
AcDbEntity
  8
0
100
AcDbLine
 62
2
  6
CONTINUOUS
 10
0.0
 20
-0.844
 11
9.055
 21
-0.844
  0
LINE
  5
255
100
AcDbEntity
  8
0
100
AcDbLine
 62
2
  6
CONTINUOUS
 10
0.0
 20
-1.094
 11
9.055
 21
-1.094
  0
LINE
  5
256
100
AcDbEntity
  8
0
100
AcDbLine
 62
2
  6
CONTINUOUS
 10
0.0
 20
-1.344
 11
9.055
 21
-1.344
  0
LINE
  5
257
100
AcDbEntity
  8
0
100
AcDbLine
 62
2
  6
CONTINUOUS
 10
0.0
 20
-1.594
 11
9.055
 21
-1.594
  0
LINE
  5
258
100
AcDbEntity
  8
0
100
AcDbLine
 62
2
  6
CONTINUOUS
 10
0.0
 20
-1.844
 11
9.055
 21
-1.844
  0
LINE
  5
259
100
AcDbEntity
  8
0
100
AcDbLine
 62
2
  6
CONTINUOUS
 10
0.0
 20
-2.094
 11
9.055
 21
-2.094
  0
LINE
  5
25A
100
AcDbEntity
  8
0
100
AcDbLine
 62
2
  6
CONTINUOUS
 10
0.0
 20
-2.344
 11
9.055
 21
-2.344
  0
LINE
  5
25B
100
AcDbEntity
  8
0
100
AcDbLine
 62
2
  6
CONTINUOUS
 10
0.0
 20
-2.594
 11
9.055
 21
-2.594
  0
LINE
  5
25C
100
AcDbEntity
  8
0
100
AcDbLine
 62
2
  6
CONTINUOUS
 10
0.0
 20
-2.844
 11
9.055
 21
-2.844
  0
LINE
  5
25D
100
AcDbEntity
  8
0
100
AcDbLine
 62
2
  6
CONTINUOUS
 10
3.055
 20
0.0
 11
3.055
 21
-2.844
  0
LINE
  5
25E
100
AcDbEntity
  8
0
100
AcDbLine
 62
2
  6
CONTINUOUS
 10
9.055
 20
0.0
 11
9.055
 21
-2.844
  0
MTEXT
  5
25F
100
AcDbEntity
  8
0
100
AcDbMText
 62
2
  6
CONTINUOUS
  7
STANDARD
 71
2
 72
1
 10
1.5275
 20
-0.0995
 30
0.0
 11
1.0
 21
0.0
 31
0.0
 44
0.9
  1
Technical Data
 40
0.145
 41
3.248
  0
MTEXT
  5
260
100
AcDbEntity
  8
0
100
AcDbMText
 62
2
  6
CONTINUOUS
  7
STANDARD
 71
2
 72
1
 10
4.555
 20
-0.0995
 30
0.0
 11
1.0
 21
0.0
 31
0.0
 44
0.9
  1
U.S. Units
 40
0.145
 41
2.32
  0
MTEXT
  5
261
100
AcDbEntity
  8
0
100
AcDbMText
 62
2
  6
CONTINUOUS
  7
STANDARD
 71
2
 72
1
 10
7.555
 20
-0.0995
 30
0.0
 11
1.0
 21
0.0
 31
0.0
 44
0.9
  1
Metric Units
 40
0.145
 41
2.784
  0
MTEXT
  5
262
100
AcDbEntity
  8
0
100
AcDbMText
 62
2
  6
CONTINUOUS
  7
STANDARD
 71
2
 72
1
 10
1.5275
 20
-0.4065
 30
0.0
 11
1.0
 21
0.0
 31
0.0
 44
0.9
  1
Cavity
 40
0.125
 41
1.2
  0
MTEXT
  5
263
100
AcDbEntity
  8
0
100
AcDbMText
 62
2
  6
CONTINUOUS
  7
STANDARD
 71
2
 72
1
 10
6.055
 20
-0.4065
 30
0.0
 11
1.0
 21
0.0
 31
0.0
 44
0.9
  1
T-13A
 40
0.125
 41
1.0
  0
MTEXT
  5
264
100
AcDbEntity
  8
0
100
AcDbMText
 62
2
  6
CONTINUOUS
  7
STANDARD
 71
2
 72
1
 10
1.5275
 20
-0.6565
 30
0.0
 11
1.0
 21
0.0
 31
0.0
 44
0.9
  1
Body Features
 40
0.125
 41
2.6
  0
MTEXT
  5
265
100
AcDbEntity
  8
0
100
AcDbMText
 62
2
  6
CONTINUOUS
  7
STANDARD
 71
2
 72
1
 10
6.055
 20
-0.6565
 30
0.0
 11
1.0
 21
0.0
 31
0.0
 44
0.9
  1
Ninety degree with reverse flow check
 40
0.125
 41
7.4
  0
MTEXT
  5
266
100
AcDbEntity
  8
0
100
AcDbMText
 62
2
  6
CONTINUOUS
  7
STANDARD
 71
2
 72
1
 10
1.5275
 20
-0.9065
 30
0.0
 11
1.0
 21
0.0
 31
0.0
 44
0.9
  1
Body Type
 40
0.125
 41
1.8
  0
MTEXT
  5
267
100
AcDbEntity
  8
0
100
AcDbMText
 62
2
  6
CONTINUOUS
  7
STANDARD
 71
2
 72
1
 10
6.055
 20
-0.9065
 30
0.0
 11
1.0
 21
0.0
 31
0.0
 44
0.9
  1
Line mount
 40
0.125
 41
2.0
  0
MTEXT
  5
268
100
AcDbEntity
  8
0
100
AcDbMText
 62
2
  6
CONTINUOUS
  7
STANDARD
 71
2
 72
1
 10
1.5275
 20
-1.1565
 30
0.0
 11
1.0
 21
0.0
 31
0.0
 44
0.9
  1
Interface
 40
0.125
 41
1.8
  0
MTEXT
  5
269
100
AcDbEntity
  8
0
100
AcDbMText
 62
2
  6
CONTINUOUS
  7
STANDARD
 71
2
 72
1
 10
6.055
 20
-1.1565
 30
0.0
 11
1.0
 21
0.0
 31
0.0
 44
0.9
  1
None
 40
0.125
 41
0.8
  0
MTEXT
  5
26A
100
AcDbEntity
  8
0
100
AcDbMText
 62
2
  6
CONTINUOUS
  7
STANDARD
 71
2
 72
1
 10
1.5275
 20
-1.4065
 30
0.0
 11
1.0
 21
0.0
 31
0.0
 44
0.9
  1
Open Cavity Quantity
 40
0.125
 41
4.0
  0
MTEXT
  5
26B
100
AcDbEntity
  8
0
100
AcDbMText
 62
2
  6
CONTINUOUS
  7
STANDARD
 71
2
 72
1
 10
6.055
 20
-1.4065
 30
0.0
 11
1.0
 21
0.0
 31
0.0
 44
0.9
  1
1
 40
0.125
 41
0.2
  0
MTEXT
  5
26C
100
AcDbEntity
  8
0
100
AcDbMText
 62
2
  6
CONTINUOUS
  7
STANDARD
 71
2
 72
1
 10
1.5275
 20
-1.6565
 30
0.0
 11
1.0
 21
0.0
 31
0.0
 44
0.9
  1
Weight
 40
0.125
 41
1.2
  0
MTEXT
  5
26D
100
AcDbEntity
  8
0
100
AcDbMText
 62
2
  6
CONTINUOUS
  7
STANDARD
 71
2
 72
1
 10
4.555
 20
-1.6565
 30
0.0
 11
1.0
 21
0.0
 31
0.0
 44
0.9
  1
1.112 lb.
 40
0.125
 41
1.8
  0
MTEXT
  5
26E
100
AcDbEntity
  8
0
100
AcDbMText
 62
2
  6
CONTINUOUS
  7
STANDARD
 71
2
 72
1
 10
7.555
 20
-1.6565
 30
0.0
 11
1.0
 21
0.0
 31
0.0
 44
0.9
  1
0,504 kg.
 40
0.125
 41
1.8
  0
MTEXT
  5
26F
100
AcDbEntity
  8
0
100
AcDbMText
 62
2
  6
CONTINUOUS
  7
STANDARD
 71
2
 72
1
 10
1.5275
 20
-1.9065
 30
0.0
 11
1.0
 21
0.0
 31
0.0
 44
0.9
  1
Mounting Hole Diameter
 40
0.125
 41
4.4
  0
MTEXT
  5
270
100
AcDbEntity
  8
0
100
AcDbMText
 62
2
  6
CONTINUOUS
  7
STANDARD
 71
2
 72
1
 10
4.555
 20
-1.9065
 30
0.0
 11
1.0
 21
0.0
 31
0.0
 44
0.9
  1
.34 in.
 40
0.125
 41
1.4
  0
MTEXT
  5
271
100
AcDbEntity
  8
0
100
AcDbMText
 62
2
  6
CONTINUOUS
  7
STANDARD
 71
2
 72
1
 10
7.555
 20
-1.9065
 30
0.0
 11
1.0
 21
0.0
 31
0.0
 44
0.9
  1
8.6 mm
 40
0.125
 41
1.2
  0
MTEXT
  5
272
100
AcDbEntity
  8
0
100
AcDbMText
 62
2
  6
CONTINUOUS
  7
STANDARD
 71
2
 72
1
 10
1.5275
 20
-2.1565
 30
0.0
 11
1.0
 21
0.0
 31
0.0
 44
0.9
  1
Mounting Hole Depth
 40
0.125
 41
3.8
  0
MTEXT
  5
273
100
AcDbEntity
  8
0
100
AcDbMText
 62
2
  6
CONTINUOUS
  7
STANDARD
 71
2
 72
1
 10
6.055
 20
-2.1565
 30
0.0
 11
1.0
 21
0.0
 31
0.0
 44
0.9
  1
Through
 40
0.125
 41
1.4
  0
MTEXT
  5
274
100
AcDbEntity
  8
0
100
AcDbMText
 62
2
  6
CONTINUOUS
  7
STANDARD
 71
2
 72
1
 10
1.5275
 20
-2.4065
 30
0.0
 11
1.0
 21
0.0
 31
0.0
 44
0.9
  1
Mounting Hole Quantity
 40
0.125
 41
4.4
  0
MTEXT
  5
275
100
AcDbEntity
  8
0
100
AcDbMText
 62
2
  6
CONTINUOUS
  7
STANDARD
 71
2
 72
1
 10
6.055
 20
-2.4065
 30
0.0
 11
1.0
 21
0.0
 31
0.0
 44
0.9
  1
2
 40
0.125
 41
0.2
  0
MTEXT
  5
276
100
AcDbEntity
  8
0
100
AcDbMText
 62
2
  6
CONTINUOUS
  7
STANDARD
 71
2
 72
1
 10
1.5275
 20
-2.6565
 30
0.0
 11
1.0
 21
0.0
 31
0.0
 44
0.9
  1
Includes integral cartridge(s)
 40
0.125
 41
6.0
  0
MTEXT
  5
277
100
AcDbEntity
  8
0
100
AcDbMText
 62
2
  6
CONTINUOUS
  7
STANDARD
 71
2
 72
1
 10
6.055
 20
-2.6565
 30
0.0
 11
1.0
 21
0.0
 31
0.0
 44
0.9
  1
Yes (see Included Components)
 40
0.125
 41
5.8
  0
ENDBLK
  5
278
100
AcDbEntity
  8
0
  6
BYBLOCK
 62
0
100
AcDbBlockEnd
  0
BLOCK
  5
279
100
AcDbEntity
  8
0
100
AcDbBlockBegin
  2
*T3
 70
1
 10
0.0
 20
0.0
  3
*T3
  1

  0
LINE
  5
27A
100
AcDbEntity
  8
0
100
AcDbLine
 62
2
  6
CONTINUOUS
 10
0.0
 20
0.0
 11
4.6
 21
0.0
  0
LINE
  5
27B
100
AcDbEntity
  8
0
100
AcDbLine
 62
2
  6
CONTINUOUS
 10
0.0
 20
0.0
 11
0.0
 21
-0.93775
  0
LINE
  5
27C
100
AcDbEntity
  8
0
100
AcDbLine
 62
2
  6
CONTINUOUS
 10
0.0
 20
-0.34375
 11
4.6
 21
-0.34375
  0
LINE
  5
27D
100
AcDbEntity
  8
0
100
AcDbLine
 62
2
  6
CONTINUOUS
 10
0.0
 20
-0.68775
 11
4.6
 21
-0.68775
  0
LINE
  5
27E
100
AcDbEntity
  8
0
100
AcDbLine
 62
2
  6
CONTINUOUS
 10
0.0
 20
-0.93775
 11
4.6
 21
-0.93775
  0
LINE
  5
27F
100
AcDbEntity
  8
0
100
AcDbLine
 62
2
  6
CONTINUOUS
 10
1.3
 20
-0.34375
 11
1.3
 21
-0.93775
  0
LINE
  5
280
100
AcDbEntity
  8
0
100
AcDbLine
 62
2
  6
CONTINUOUS
 10
3.3
 20
-0.34375
 11
3.3
 21
-0.93775
  0
LINE
  5
281
100
AcDbEntity
  8
0
100
AcDbLine
 62
2
  6
CONTINUOUS
 10
4.6
 20
0.0
 11
4.6
 21
-0.93775
  0
MTEXT
  5
282
100
AcDbEntity
  8
0
100
AcDbMText
 62
2
  6
CONTINUOUS
  7
STANDARD
 71
2
 72
1
 10
2.3
 20
-0.099375
 30
0.0
 11
1.0
 21
0.0
 31
0.0
 44
0.9
  1
Port Headings
 40
0.145
 41
3.016
  0
MTEXT
  5
283
100
AcDbEntity
  8
0
100
AcDbMText
 62
2
  6
CONTINUOUS
  7
STANDARD
 71
2
 72
1
 10
0.65
 20
-0.44325
 30
0.0
 11
1.0
 21
0.0
 31
0.0
 44
0.9
  1
Product
 40
0.145
 41
1.624
  0
MTEXT
  5
284
100
AcDbEntity
  8
0
100
AcDbMText
 62
2
  6
CONTINUOUS
  7
STANDARD
 71
2
 72
1
 10
2.3
 20
-0.44325
 30
0.0
 11
1.0
 21
0.0
 31
0.0
 44
0.9
  1
Port
 40
0.145
 41
0.928
  0
MTEXT
  5
285
100
AcDbEntity
  8
0
100
AcDbMText
 62
2
  6
CONTINUOUS
  7
STANDARD
 71
2
 72
1
 10
3.95
 20
-0.44325
 30
0.0
 11
1.0
 21
0.0
 31
0.0
 44
0.9
  1
Size
 40
0.145
 41
0.928
  0
MTEXT
  5
286
100
AcDbEntity
  8
0
100
AcDbMText
 62
2
  6
CONTINUOUS
  7
STANDARD
 71
2
 72
1
 10
0.65
 20
-0.75025
 30
0.0
 11
1.0
 21
0.0
 31
0.0
 44
0.9
  1
GNN
 40
0.125
 41
0.6
  0
MTEXT
  5
287
100
AcDbEntity
  8
0
100
AcDbMText
 62
2
  6
CONTINUOUS
  7
STANDARD
 71
2
 72
1
 10
2.3
 20
-0.75025
 30
0.0
 11
1.0
 21
0.0
 31
0.0
 44
0.9
  1
All Ports
 40
0.125
 41
1.8
  0
MTEXT
  5
288
100
AcDbEntity
  8
0
100
AcDbMText
 62
2
  6
CONTINUOUS
  7
STANDARD
 71
2
 72
1
 10
3.95
 20
-0.75025
 30
0.0
 11
1.0
 21
0.0
 31
0.0
 44
0.9
  1
SAE 6
 40
0.125
 41
1.0
  0
ENDBLK
  5
289
100
AcDbEntity
  8
0
  6
BYBLOCK
 62
0
100
AcDbBlockEnd
  0
ENDSEC
  0
SECTION
  2
ENTITIES
  0
IMAGE
  5
28A
100
AcDbEntity
  8
0
100
AcDbRasterImage
 62
7
  6
CONTINUOUS
 10
19.2297077316
 20
0.3094318264
 30
0.0
 11
0.0066666667
 21
0.0
 31
0.0
 12
0.0
 22
0.0066666667
 32
0.0
 13
369.0
 23
92.0
340
       356
 70
9
280
0
281
50
282
50
283
0
360
       350
 71
1
 91
2
 14
-0.5
 24
-0.5
 14
368.5
 24
91.5
  0
INSERT
  5
28B
100
AcDbEntity
  8
0
100
AcDbBlockReference
 62
2
  6
CONTINUOUS
  2
SUN_FIRST_THIRD_ANGLE_BL0
 10
20.4816717061
 20
1.2289683772
  0
ACAD_TABLE
  5
28C
100
AcDbEntity
  8
0
 62
2
  6
CONTINUOUS
100
AcDbBlockReference
  2
*T1
 10
12.42375
 20
0.30125
 30
0.0
100
AcDbTable
342
       358
343
20F
 11
1.0
 21
0.0
 31
0.0
 90
6
 91
4
 92
6
 93
20
 94
0
 95
0
 96
0
 70
1
 41
0.0
141
0.525
141
0.1
141
0.525
141
0.1
142
4.1
142
1.1
142
0.7
142
0.5
142
0.4
142
2.475
171
1
172
0
173
0
174
0
175
1
176
1
 91
33
178
0
145
0.0
301
CELL_VALUE
 90
4
  1
T-13A Line mount\PNinety degree with reverse flow check
304
ACVALUE_END
170
2
140
0.125
171
1
172
0
173
0
174
0
175
1
176
1
 91
33
178
0
145
0.0
301
CELL_VALUE
 90
4
  1
Jan-30-24
304
ACVALUE_END
170
5
140
0.125
171
1
172
0
173
0
174
0
175
1
176
1
 91
33
178
0
145
0.0
301
CELL_VALUE
 90
4
  1
1.000
304
ACVALUE_END
170
5
140
0.125
171
1
172
0
173
0
174
0
175
1
176
1
 91
33
178
0
145
0.0
301
CELL_VALUE
 90
4
  1
C
304
ACVALUE_END
170
5
140
0.125
171
1
172
0
173
0
174
0
175
1
176
1
 91
33
178
0
145
0.0
301
CELL_VALUE
 90
4
  1
2
304
ACVALUE_END
170
5
140
0.125
171
1
172
0
173
0
174
0
175
1
176
1
 91
33
178
0
145
0.0
301
CELL_VALUE
 90
4
  1
 
304
ACVALUE_END
170
1
140
0.125
171
1
172
0
173
0
174
0
175
1
176
1
 91
33
178
0
145
0.0
301
CELL_VALUE
 90
4
  1
DESCRIPTION
304
ACVALUE_END
170
1
140
0.06
171
1
172
0
173
0
174
0
175
1
176
1
 91
33
178
0
145
0.0
301
CELL_VALUE
 90
4
  1
DATE
304
ACVALUE_END
170
1
140
0.06
171
1
172
0
173
0
174
0
175
1
176
1
 91
33
178
0
145
0.0
301
CELL_VALUE
 90
4
  1
SCALE
304
ACVALUE_END
170
1
140
0.06
171
1
172
0
173
0
174
0
175
1
176
1
 91
33
178
0
145
0.0
301
CELL_VALUE
 90
4
  1
DWG SIZE
304
ACVALUE_END
170
1
140
0.06
171
1
172
0
173
0
174
0
175
1
176
1
 91
33
178
0
145
0.0
301
CELL_VALUE
 90
4
  1
SHEET
304
ACVALUE_END
170
1
140
0.06
171
1
172
0
173
0
174
0
175
1
176
1
 91
33
178
0
145
0.0
301
CELL_VALUE
 90
4
  1
 
304
ACVALUE_END
170
1
140
0.125
171
1
172
0
173
0
174
0
175
1
176
1
 91
33
178
0
145
0.0
301
CELL_VALUE
 90
4
  1
GNN
304
ACVALUE_END
170
5
140
0.125
171
1
172
0
173
0
174
0
175
4
176
1
 91
33
178
0
145
0.0
301
CELL_VALUE
 90
4
  1
ALL DIMENSIONS IN INCH\PVIEWS ARE THIRD ANGLE
304
ACVALUE_END
170
5
140
0.12
171
1
172
0
173
1
174
0
175
1
176
1
 91
1
178
0
145
0.0
170
1
171
1
172
0
173
1
174
0
175
1
176
1
 91
1
178
0
145
0.0
170
1
171
1
172
0
173
1
174
0
175
1
176
1
 91
1
178
0
145
0.0
170
5
171
1
172
0
173
0
174
0
175
1
176
1
 91
33
178
0
145
0.0
301
CELL_VALUE
 90
4
  1
 
304
ACVALUE_END
170
1
140
0.125
171
1
172
0
173
0
174
0
175
1
176
1
 91
33
178
0
145
0.0
301
CELL_VALUE
 90
4
  1
MODEL
304
ACVALUE_END
170
1
140
0.06
171
1
172
0
173
0
174
0
175
1
176
1
 91
33
178
0
145
0.0
301
CELL_VALUE
 90
4
  1
 
304
ACVALUE_END
170
1
140
0.125
171
1
172
0
173
0
174
0
175
1
176
1
 91
33
178
0
145
0.0
301
CELL_VALUE
 90
4
  1
 
304
ACVALUE_END
170
1
140
0.125
171
1
172
0
173
0
174
0
175
1
176
1
 91
33
178
0
145
0.0
301
CELL_VALUE
 90
4
  1
 
304
ACVALUE_END
170
1
140
0.125
171
1
172
0
173
0
174
0
175
1
176
1
 91
33
178
0
145
0.0
301
CELL_VALUE
 90
4
  1
 
304
ACVALUE_END
170
1
140
0.125
171
1
172
0
173
0
174
0
175
1
176
1
 91
33
178
0
145
0.0
301
CELL_VALUE
 90
4
  1
 
304
ACVALUE_END
170
1
140
0.125
  0
ACAD_TABLE
  5
28D
100
AcDbEntity
  8
0
 62
2
  6
CONTINUOUS
100
AcDbBlockReference
  2
*T2
 10
12.4237499994
 20
16.47875
 30
0.0
100
AcDbTable
342
       357
343
210
 11
1.0
 21
0.0
 31
0.0
 90
22
 91
11
 92
3
 93
16
 94
0
 95
0
 96
0
 41
0.028
141
0.344
141
0.25
141
0.25
141
0.25
141
0.25
141
0.25
141
0.25
141
0.25
141
0.25
141
0.25
141
0.25
142
3.055
142
3.0
142
3.0
171
1
172
0
173
0
174
0
175
1
176
1
 91
33
178
0
145
0.0
301
CELL_VALUE
 90
4
  1
Technical Data
304
ACVALUE_END
170
5
140
0.145
171
1
172
0
173
0
174
0
175
1
176
1
 91
33
178
0
145
0.0
301
CELL_VALUE
 90
4
  1
U.S. Units
304
ACVALUE_END
170
5
140
0.145
171
1
172
0
173
0
174
0
175
1
176
1
 91
33
178
0
145
0.0
301
CELL_VALUE
 90
4
  1
Metric Units
304
ACVALUE_END
170
5
140
0.145
171
1
172
0
173
0
174
0
175
1
176
1
 91
33
178
0
145
0.0
301
CELL_VALUE
 90
4
  1
Cavity
304
ACVALUE_END
170
5
140
0.125
171
1
172
0
173
0
174
0
175
2
176
1
 91
33
178
0
145
0.0
301
CELL_VALUE
 90
4
  1
T-13A
304
ACVALUE_END
170
5
140
0.125
171
1
172
0
173
1
174
0
175
1
176
1
 91
1
178
0
145
0.0
170
1
171
1
172
0
173
0
174
0
175
1
176
1
 91
33
178
0
145
0.0
301
CELL_VALUE
 90
4
  1
Body Features
304
ACVALUE_END
170
5
140
0.125
171
1
172
0
173
0
174
0
175
2
176
1
 91
33
178
0
145
0.0
301
CELL_VALUE
 90
4
  1
Ninety degree with reverse flow check
304
ACVALUE_END
170
5
140
0.125
171
1
172
0
173
1
174
0
175
1
176
1
 91
1
178
0
145
0.0
170
1
171
1
172
0
173
0
174
0
175
1
176
1
 91
33
178
0
145
0.0
301
CELL_VALUE
 90
4
  1
Body Type
304
ACVALUE_END
170
5
140
0.125
171
1
172
0
173
0
174
0
175
2
176
1
 91
33
178
0
145
0.0
301
CELL_VALUE
 90
4
  1
Line mount
304
ACVALUE_END
170
5
140
0.125
171
1
172
0
173
1
174
0
175
1
176
1
 91
1
178
0
145
0.0
170
1
171
1
172
0
173
0
174
0
175
1
176
1
 91
33
178
0
145
0.0
301
CELL_VALUE
 90
4
  1
Interface
304
ACVALUE_END
170
5
140
0.125
171
1
172
0
173
0
174
0
175
2
176
1
 91
33
178
0
145
0.0
301
CELL_VALUE
 90
4
  1
None
304
ACVALUE_END
170
5
140
0.125
171
1
172
0
173
1
174
0
175
1
176
1
 91
1
178
0
145
0.0
170
1
171
1
172
0
173
0
174
0
175
1
176
1
 91
33
178
0
145
0.0
301
CELL_VALUE
 90
4
  1
Open Cavity Quantity
304
ACVALUE_END
170
5
140
0.125
171
1
172
0
173
0
174
0
175
2
176
1
 91
33
178
0
145
0.0
301
CELL_VALUE
 90
4
  1
1
304
ACVALUE_END
170
5
140
0.125
171
1
172
0
173
1
174
0
175
1
176
1
 91
1
178
0
145
0.0
170
1
171
1
172
0
173
0
174
0
175
1
176
1
 91
33
178
0
145
0.0
301
CELL_VALUE
 90
4
  1
Weight
304
ACVALUE_END
170
5
140
0.125
171
1
172
0
173
0
174
0
175
1
176
1
 91
33
178
0
145
0.0
301
CELL_VALUE
 90
4
  1
1.112 lb.
304
ACVALUE_END
170
5
140
0.125
171
1
172
0
173
0
174
0
175
1
176
1
 91
33
178
0
145
0.0
301
CELL_VALUE
 90
4
  1
0,504 kg.
304
ACVALUE_END
170
5
140
0.125
171
1
172
0
173
0
174
0
175
1
176
1
 91
33
178
0
145
0.0
301
CELL_VALUE
 90
4
  1
Mounting Hole Diameter
304
ACVALUE_END
170
5
140
0.125
171
1
172
0
173
0
174
0
175
1
176
1
 91
33
178
0
145
0.0
301
CELL_VALUE
 90
4
  1
.34 in.
304
ACVALUE_END
170
5
140
0.125
171
1
172
0
173
0
174
0
175
1
176
1
 91
33
178
0
145
0.0
301
CELL_VALUE
 90
4
  1
8.6 mm
304
ACVALUE_END
170
5
140
0.125
171
1
172
0
173
0
174
0
175
1
176
1
 91
33
178
0
145
0.0
301
CELL_VALUE
 90
4
  1
Mounting Hole Depth
304
ACVALUE_END
170
5
140
0.125
171
1
172
0
173
0
174
0
175
2
176
1
 91
33
178
0
145
0.0
301
CELL_VALUE
 90
4
  1
Through
304
ACVALUE_END
170
5
140
0.125
171
1
172
0
173
1
174
0
175
1
176
1
 91
1
178
0
145
0.0
170
1
171
1
172
0
173
0
174
0
175
1
176
1
 91
33
178
0
145
0.0
301
CELL_VALUE
 90
4
  1
Mounting Hole Quantity
304
ACVALUE_END
170
5
140
0.125
171
1
172
0
173
0
174
0
175
2
176
1
 91
33
178
0
145
0.0
301
CELL_VALUE
 90
4
  1
2
304
ACVALUE_END
170
5
140
0.125
171
1
172
0
173
1
174
0
175
1
176
1
 91
1
178
0
145
0.0
170
1
171
1
172
0
173
0
174
0
175
1
176
1
 91
33
178
0
145
0.0
301
CELL_VALUE
 90
4
  1
Includes integral cartridge(s)
304
ACVALUE_END
170
5
140
0.125
171
1
172
0
173
0
174
0
175
2
176
1
 91
33
178
0
145
0.0
301
CELL_VALUE
 90
4
  1
Yes (see Included Components)
304
ACVALUE_END
170
5
140
0.125
171
1
172
0
173
1
174
0
175
1
176
1
 91
1
178
0
145
0.0
170
1
  0
ACAD_TABLE
  5
28E
100
AcDbEntity
  8
0
 62
2
  6
CONTINUOUS
100
AcDbBlockReference
  2
*T3
 10
0.52125
 20
1.459
 30
0.0
100
AcDbTable
342
       357
343
211
 11
1.0
 21
0.0
 31
0.0
 90
22
 91
3
 92
3
 93
16
 94
0
 95
0
 96
0
 41
0.05
141
0.34375
141
0.344
141
0.25
142
1.3
142
2.0
142
1.3
171
1
172
0
173
0
174
0
175
3
176
1
 91
33
178
0
145
0.0
301
CELL_VALUE
 90
4
  1
Port Headings
304
ACVALUE_END
170
5
140
0.145
171
1
172
0
173
1
174
0
175
1
176
1
 91
1
178
0
145
0.0
170
1
171
1
172
0
173
1
174
0
175
1
176
1
 91
1
178
0
145
0.0
170
1
171
1
172
0
173
0
174
0
175
1
176
1
 91
33
178
0
145
0.0
301
CELL_VALUE
 90
4
  1
Product
304
ACVALUE_END
170
5
140
0.145
171
1
172
0
173
0
174
0
175
1
176
1
 91
33
178
0
145
0.0
301
CELL_VALUE
 90
4
  1
Port
304
ACVALUE_END
170
5
140
0.145
171
1
172
0
173
0
174
0
175
1
176
1
 91
33
178
0
145
0.0
301
CELL_VALUE
 90
4
  1
Size
304
ACVALUE_END
170
5
140
0.145
171
1
172
0
173
0
174
0
175
1
176
1
 91
33
178
0
145
0.0
301
CELL_VALUE
 90
4
  1
GNN
304
ACVALUE_END
170
5
140
0.125
171
1
172
0
173
0
174
0
175
1
176
1
 91
33
178
0
145
0.0
301
CELL_VALUE
 90
4
  1
All Ports
304
ACVALUE_END
170
5
140
0.125
171
1
172
0
173
0
174
0
175
1
176
1
 91
33
178
0
145
0.0
301
CELL_VALUE
 90
4
  1
SAE 6
304
ACVALUE_END
170
5
140
0.125
  0
MTEXT
  5
28F
100
AcDbEntity
  8
0
100
AcDbMText
 62
2
  6
CONTINUOUS
  7
STANDARD
 71
1
 72
1
 10
0.52125
 20
5.75995
 30
0.0
 11
1.0
 21
0.0
 31
0.0
 44
0.6
  3
Notes\P \P1. Important: Carefully consider\P   the maximum system pressure. The\P   pressure rating of the manifold is\P   dependent on the manifold material,\P   with the port type/size a secondary\P   consideration. Manifolds\P   constructed of alu
  3
minum are not\P   rated for pressures higher than\P   3000 psi (210 bar), regardless of\P   the port type/size specified.\P2. This drawing is for reference\P   only. It is generated by an\P   automated process and does not fall\P   under Sun's docume
  1
nt control\P   process.
 40
0.1
 41
3.04
  0
LINE
  5
290
100
AcDbEntity
  8
0
100
AcDbLine
 62
7
  6
CONTINUOUS
 10
0.30125
 20
0.30125
 11
0.30125
 21
16.69875
  0
LINE
  5
291
100
AcDbEntity
  8
0
100
AcDbLine
 62
7
  6
CONTINUOUS
 10
0.30125
 20
0.30125
 11
21.69875
 21
0.30125
  0
LINE
  5
292
100
AcDbEntity
  8
0
100
AcDbLine
 62
7
  6
CONTINUOUS
 10
0.30125
 20
16.69875
 11
21.69875
 21
16.69875
  0
LINE
  5
293
100
AcDbEntity
  8
0
100
AcDbLine
 62
7
  6
CONTINUOUS
 10
21.69875
 20
0.30125
 11
21.69875
 21
16.69875
  0
LINE
  5
294
100
AcDbEntity
  8
0
100
AcDbLine
 62
7
  6
CONTINUOUS
 10
9.7128729444
 20
10.4948205731
 11
9.389349405
 21
10.1823208125
  0
LINE
  5
295
100
AcDbEntity
  8
0
100
AcDbLine
 62
7
  6
CONTINUOUS
 10
11.025864973
 20
6.5728842063
 11
11.0421891642
 21
6.5648203684
  0
LINE
  5
296
100
AcDbEntity
  8
0
100
AcDbLine
 62
7
  6
CONTINUOUS
 10
9.389349405
 20
7.2845431619
 11
9.389349405
 21
10.1823208125
  0
LINE
  5
297
100
AcDbEntity
  8
0
100
AcDbLine
 62
4
  6
CONTINUOUS
 10
9.572875317
 20
8.0522837305
 11
9.572875317
 21
7.9363726271
  0
LINE
  5
298
100
AcDbEntity
  8
0
100
AcDbLine
 62
7
  6
CONTINUOUS
 10
9.389349405
 20
7.2845431619
 11
12.2871270556
 21
7.0835815993
  0
LINE
  5
299
100
AcDbEntity
  8
0
100
AcDbLine
 62
4
  6
CONTINUOUS
 10
10.2886264026
 20
8.9705039395
 11
10.2886264026
 21
8.9125483865
  0
LINE
  5
29A
100
AcDbEntity
  8
0
100
AcDbLine
 62
4
  6
CONTINUOUS
 10
10.3465819556
 20
8.9085291552
 11
10.3465819556
 21
8.8505736022
  0
LINE
  5
29B
100
AcDbEntity
  8
0
100
AcDbLine
 62
4
  6
CONTINUOUS
 10
10.3755597321
 20
8.8485639866
 11
10.3755597321
 21
8.9644750926
  0
LINE
  5
29C
100
AcDbEntity
  8
0
100
AcDbLine
 62
4
  6
CONTINUOUS
 10
10.4228901062
 20
8.2541349733
 11
10.4228901062
 21
8.3700460793
  0
LINE
  5
29D
100
AcDbEntity
  8
0
100
AcDbLine
 62
4
  6
CONTINUOUS
 10
10.4335152851
 20
8.9604558614
 11
10.4335152851
 21
8.8445447553
  0
LINE
  5
29E
100
AcDbEntity
  8
0
100
AcDbLine
 62
4
  6
CONTINUOUS
 10
10.4624930616
 20
8.9584462457
 11
10.4624930616
 21
8.8425351397
  0
LINE
  5
29F
100
AcDbEntity
  8
0
100
AcDbLine
 62
4
  6
CONTINUOUS
 10
10.4808456523
 20
8.3494681201
 11
10.4808456523
 21
8.2666744727
  0
LINE
  5
2A0
100
AcDbEntity
  8
0
100
AcDbLine
 62
4
  6
CONTINUOUS
 10
10.5204486146
 20
8.9544270145
 11
10.5204486146
 21
8.8385159084
  0
LINE
  5
2A1
100
AcDbEntity
  8
0
100
AcDbLine
 62
4
  6
CONTINUOUS
 10
10.6363597207
 20
8.8304774459
 11
10.6363597207
 21
8.946388552
  0
LINE
  5
2A2
100
AcDbEntity
  8
0
100
AcDbLine
 62
4
  6
CONTINUOUS
 10
10.6602318943
 20
8.2376752644
 11
10.6602318943
 21
8.3535863704
  0
LINE
  5
2A3
100
AcDbEntity
  8
0
100
AcDbLine
 62
4
  6
CONTINUOUS
 10
10.527762053
 20
8.2468620791
 11
10.5608795099
 21
8.3604764816
  0
LINE
  5
2A4
100
AcDbEntity
  8
0
100
AcDbLine
 62
4
  6
CONTINUOUS
 10
10.3566551855
 20
8.3084045694
 11
10.4008117981
 21
8.2832639916
  0
LINE
  5
2A5
100
AcDbEntity
  8
0
100
AcDbLine
 62
4
  6
CONTINUOUS
 10
10.4642869238
 20
8.3671752002
 11
10.4808456523
 21
8.3494681201
  0
LINE
  5
2A6
100
AcDbEntity
  8
0
100
AcDbLine
 62
4
  6
CONTINUOUS
 10
10.5608795099
 20
8.3604764816
 11
10.5939969806
 21
8.2422686712
  0
LINE
  5
2A7
100
AcDbEntity
  8
0
100
AcDbLine
 62
4
  6
CONTINUOUS
 10
10.6943152737
 20
8.8264582147
 11
10.6943152737
 21
8.8844137677
  0
LINE
  5
2A8
100
AcDbEntity
  8
0
100
AcDbLine
 62
4
  6
CONTINUOUS
 10
10.7181874433
 20
8.5052191968
 11
10.7181874433
 21
8.5880128442
  0
LINE
  5
2A9
100
AcDbEntity
  8
0
100
AcDbLine
 62
4
  6
CONTINUOUS
 10
10.7264668081
 20
8.2330818575
 11
10.7264668081
 21
8.3489929635
  0
LINE
  5
2AA
100
AcDbEntity
  8
0
100
AcDbLine
 62
4
  6
CONTINUOUS
 10
10.741645642
 20
8.8231758425
 11
10.741645642
 21
8.8811313955
  0
LINE
  5
2AB
100
AcDbEntity
  8
0
100
AcDbLine
 62
4
  6
CONTINUOUS
 10
10.7761429963
 20
8.5508761561
 11
10.7761429963
 21
8.4846412354
  0
LINE
  5
2AC
100
AcDbEntity
  8
0
100
AcDbLine
 62
4
  6
CONTINUOUS
 10
10.799601195
 20
8.8771121643
 11
10.799601195
 21
8.7612010582
  0
LINE
  5
2AD
100
AcDbEntity
  8
0
100
AcDbLine
 62
4
  6
CONTINUOUS
 10
10.8092604532
 20
8.4823445319
 11
10.8092604532
 21
8.598255638
  0
LINE
  5
2AE
100
AcDbEntity
  8
0
100
AcDbLine
 62
4
  6
CONTINUOUS
 10
10.8382382303
 20
8.8164771237
 11
10.8382382303
 21
8.8744326768
  0
LINE
  5
2AF
100
AcDbEntity
  8
0
100
AcDbLine
 62
7
  6
CONTINUOUS
 10
12.2871270556
 20
9.9813592499
 11
12.610650595
 21
10.2938590105
  0
LINE
  5
2B0
100
AcDbEntity
  8
0
100
AcDbLine
 62
4
  6
CONTINUOUS
 10
10.7181874433
 20
8.5880128442
 11
10.7347461735
 21
8.6034232208
  0
LINE
  5
2B1
100
AcDbEntity
  8
0
100
AcDbLine
 62
4
  6
CONTINUOUS
 10
10.4808456523
 20
8.2666744727
 11
10.4642869238
 21
8.2512640942
  0
LINE
  5
2B2
100
AcDbEntity
  8
0
100
AcDbLine
 62
4
  6
CONTINUOUS
 10
12.0528900287
 20
9.3195236375
 11
12.0673789166
 21
9.3281780861
  0
LINE
  5
2B3
100
AcDbEntity
  8
0
100
AcDbLine
 62
4
  6
CONTINUOUS
 10
11.1293958739
 20
8.2051386319
 11
11.0879990424
 21
8.2080095119
  0
LINE
  5
2B4
100
AcDbEntity
  8
0
100
AcDbLine
 62
4
  6
CONTINUOUS
 10
11.0383228778
 20
8.2114545656
 11
11.0134847678
 21
8.2131770944
  0
LINE
  5
2B5
100
AcDbEntity
  8
0
100
AcDbLine
 62
4
  6
CONTINUOUS
 10
10.9500096594
 20
8.2175791081
 11
10.9168922163
 21
8.2198758106
  0
LINE
  5
2B6
100
AcDbEntity
  8
0
100
AcDbLine
 62
4
  6
CONTINUOUS
 10
10.4642869238
 20
8.2512640942
 11
10.4228901062
 21
8.2541349733
  0
LINE
  5
2B7
100
AcDbEntity
  8
0
100
AcDbLine
 62
4
  6
CONTINUOUS
 10
10.7264668081
 20
8.2330818575
 11
10.7761430004
 21
8.2296368019
  0
LINE
  5
2B8
100
AcDbEntity
  8
0
100
AcDbLine
 62
4
  6
CONTINUOUS
 10
11.1928710376
 20
8.2007366143
 11
11.2425472022
 21
8.1972915606
  0
LINE
  5
2B9
100
AcDbEntity
  8
0
100
AcDbLine
 62
4
  6
CONTINUOUS
 10
10.5388012053
 20
8.2792139716
 11
10.5829578145
 21
8.2761517003
  0
LINE
  5
2BA
100
AcDbEntity
  8
0
100
AcDbLine
 62
4
  6
CONTINUOUS
 10
11.2259884806
 20
8.2646748325
 11
11.1928710376
 21
8.266971535
  0
LINE
  5
2BB
100
AcDbEntity
  8
0
100
AcDbLine
 62
4
  6
CONTINUOUS
 10
10.7595842788
 20
8.2970200738
 11
10.7264668081
 21
8.2993167782
  0
LINE
  5
2BC
100
AcDbEntity
  8
0
100
AcDbLine
 62
4
  6
CONTINUOUS
 10
10.4228901062
 20
8.3700460793
 11
10.4642869238
 21
8.3671752002
  0
LINE
  5
2BD
100
AcDbEntity
  8
0
100
AcDbLine
 62
4
  6
CONTINUOUS
 10
10.6271144236
 20
8.3558830748
 11
10.6933493374
 21
8.3512896679
  0
LINE
  5
2BE
100
AcDbEntity
  8
0
100
AcDbLine
 62
4
  6
CONTINUOUS
 10
10.7264668081
 20
8.3489929635
 11
10.7761430004
 21
8.3455479079
  0
LINE
  5
2BF
100
AcDbEntity
  8
0
100
AcDbLine
 62
4
  6
CONTINUOUS
 10
10.9168922163
 20
8.3357869166
 11
10.9500096594
 21
8.3334902141
  0
LINE
  5
2C0
100
AcDbEntity
  8
0
100
AcDbLine
 62
4
  6
CONTINUOUS
 10
11.0134847678
 20
8.3290882004
 11
11.0383228778
 21
8.3273656716
  0
LINE
  5
2C1
100
AcDbEntity
  8
0
100
AcDbLine
 62
4
  6
CONTINUOUS
 10
11.0879990424
 20
8.3239206179
 11
11.1293958739
 21
8.3210497379
  0
LINE
  5
2C2
100
AcDbEntity
  8
0
100
AcDbLine
 62
4
  6
CONTINUOUS
 10
11.1928710376
 20
8.3166477203
 11
11.2425472022
 21
8.3132026666
  0
LINE
  5
2C3
100
AcDbEntity
  8
0
100
AcDbLine
 62
4
  6
CONTINUOUS
 10
10.9168922163
 20
8.2198758106
 11
10.9003334948
 21
8.237582892
  0
LINE
  5
2C4
100
AcDbEntity
  8
0
100
AcDbLine
 62
4
  6
CONTINUOUS
 10
10.7347461735
 20
8.4875121148
 11
10.7181874433
 21
8.5052191968
  0
LINE
  5
2C5
100
AcDbEntity
  8
0
100
AcDbLine
 62
4
  6
CONTINUOUS
 10
11.0134847678
 20
8.2131770944
 11
10.9969260463
 21
8.2308841758
  0
LINE
  5
2C6
100
AcDbEntity
  8
0
100
AcDbLine
 62
4
  6
CONTINUOUS
 10
10.8672160062
 20
8.4783253007
 11
10.8672160062
 21
8.5942364067
  0
LINE
  5
2C7
100
AcDbEntity
  8
0
100
AcDbLine
 62
4
  6
CONTINUOUS
 10
10.8961937833
 20
8.9283689985
 11
10.8961937833
 21
8.8124578925
  0
LINE
  5
2C8
100
AcDbEntity
  8
0
100
AcDbLine
 62
4
  6
CONTINUOUS
 10
10.9003334631
 20
8.4760285973
 11
10.9003334631
 21
8.5919397033
  0
LINE
  5
2C9
100
AcDbEntity
  8
0
100
AcDbLine
 62
4
  6
CONTINUOUS
 10
10.9003334948
 20
8.237582892
 11
10.9003334948
 21
8.3203765394
  0
LINE
  5
2CA
100
AcDbEntity
  8
0
100
AcDbLine
 62
4
  6
CONTINUOUS
 10
10.9348308187
 20
8.867733958
 11
10.9348308187
 21
8.809778405
  0
LINE
  5
2CB
100
AcDbEntity
  8
0
100
AcDbLine
 62
7
  6
CONTINUOUS
 10
10.9439400844
 20
7.0952665382
 11
10.9439400844
 21
6.6746673125
  0
LINE
  5
2CC
100
AcDbEntity
  8
0
100
AcDbLine
 62
4
  6
CONTINUOUS
 10
10.9582890161
 20
8.472009366
 11
10.9582890161
 21
8.587920472
  0
LINE
  5
2CD
100
AcDbEntity
  8
0
100
AcDbLine
 62
7
  6
CONTINUOUS
 10
10.995575502
 20
7.1731510037
 11
10.995575502
 21
7.1293778091
  0
LINE
  5
2CE
100
AcDbEntity
  8
0
100
AcDbLine
 62
4
  6
CONTINUOUS
 10
10.9969260463
 20
8.2308841758
 11
10.9969260463
 21
8.3136778232
  0
LINE
  5
2CF
100
AcDbEntity
  8
0
100
AcDbLine
 62
4
  6
CONTINUOUS
 10
12.0963566925
 20
9.2778721751
 11
12.0673789166
 21
9.2605632746
  0
LINE
  5
2D0
100
AcDbEntity
  8
0
100
AcDbLine
 62
4
  6
CONTINUOUS
 10
10.4008117981
 20
8.327420606
 11
10.3566551855
 21
8.3084045694
  0
LINE
  5
2D1
100
AcDbEntity
  8
0
100
AcDbLine
 62
4
  6
CONTINUOUS
 10
10.7761429963
 20
8.4846412354
 11
10.7347461735
 21
8.4875121148
  0
LINE
  5
2D2
100
AcDbEntity
  8
0
100
AcDbLine
 62
4
  6
CONTINUOUS
 10
11.2756646452
 20
8.266749355
 11
11.3198212544
 21
8.2416087757
  0
LINE
  5
2D3
100
AcDbEntity
  8
0
100
AcDbLine
 62
4
  6
CONTINUOUS
 10
11.0383228778
 20
8.3273656716
 11
11.0548815993
 21
8.3096585919
  0
LINE
  5
2D4
100
AcDbEntity
  8
0
100
AcDbLine
 62
4
  6
CONTINUOUS
 10
11.1293958739
 20
8.3210497379
 11
11.1459545954
 21
8.3033426582
  0
LINE
  5
2D5
100
AcDbEntity
  8
0
100
AcDbLine
 62
4
  6
CONTINUOUS
 10
10.8092604532
 20
8.598255638
 11
10.8672160062
 21
8.4783253007
  0
LINE
  5
2D6
100
AcDbEntity
  8
0
100
AcDbLine
 62
4
  6
CONTINUOUS
 10
10.9003334631
 20
8.5919397033
 11
10.9582890161
 21
8.472009366
  0
LINE
  5
2D7
100
AcDbEntity
  8
0
100
AcDbLine
 62
4
  6
CONTINUOUS
 10
11.031423407
 20
8.8030796862
 11
11.031423407
 21
8.8417167216
  0
LINE
  5
2D8
100
AcDbEntity
  8
0
100
AcDbLine
 62
4
  6
CONTINUOUS
 10
11.0548815993
 20
8.3096585919
 11
11.0548815993
 21
8.2268649445
  0
LINE
  5
2D9
100
AcDbEntity
  8
0
100
AcDbLine
 62
7
  6
CONTINUOUS
 10
11.0569948963
 20
6.9860641623
 11
11.0569948963
 21
6.5654649365
  0
LINE
  5
2DA
100
AcDbEntity
  8
0
100
AcDbLine
 62
4
  6
CONTINUOUS
 10
11.0879990424
 20
8.2080095119
 11
11.0879990424
 21
8.3239206179
  0
LINE
  5
2DB
100
AcDbEntity
  8
0
100
AcDbLine
 62
4
  6
CONTINUOUS
 10
11.08937896
 20
8.857016008
 11
11.08937896
 21
8.799060455
  0
LINE
  5
2DC
100
AcDbEntity
  8
0
100
AcDbLine
 62
7
  6
CONTINUOUS
 10
11.0988751238
 20
6.9752247755
 11
11.0988751238
 21
6.5546255498
  0
LINE
  5
2DD
100
AcDbEntity
  8
0
100
AcDbLine
 62
4
  6
CONTINUOUS
 10
11.1280159954
 20
8.8543365205
 11
11.1280159954
 21
8.7963809675
  0
LINE
  5
2DE
100
AcDbEntity
  8
0
100
AcDbLine
 62
4
  6
CONTINUOUS
 10
11.1459545954
 20
8.3033426582
 11
11.1459545954
 21
8.2205490108
  0
LINE
  5
2DF
100
AcDbEntity
  8
0
100
AcDbLine
 62
4
  6
CONTINUOUS
 10
11.1859715484
 20
8.7923617362
 11
11.1859715484
 21
8.8503172892
  0
LINE
  5
2E0
100
AcDbEntity
  8
0
100
AcDbLine
 62
4
  6
CONTINUOUS
 10
11.1928710376
 20
8.2007366143
 11
11.1928710376
 21
8.3166477203
  0
LINE
  5
2E1
100
AcDbEntity
  8
0
100
AcDbLine
 62
4
  6
CONTINUOUS
 10
10.9003334948
 20
8.3203765394
 11
10.9168922163
 21
8.3357869166
  0
LINE
  5
2E2
100
AcDbEntity
  8
0
100
AcDbLine
 62
4
  6
CONTINUOUS
 10
10.9969260463
 20
8.3136778232
 11
11.0134847678
 21
8.3290882004
  0
LINE
  5
2E3
100
AcDbEntity
  8
0
100
AcDbLine
 62
4
  6
CONTINUOUS
 10
10.7513049037
 20
8.5525986836
 11
10.7761429963
 21
8.5508761561
  0
LINE
  5
2E4
100
AcDbEntity
  8
0
100
AcDbLine
 62
4
  6
CONTINUOUS
 10
10.7347461735
 20
8.6034232208
 11
10.7761429963
 21
8.6005523414
  0
LINE
  5
2E5
100
AcDbEntity
  8
0
100
AcDbLine
 62
4
  6
CONTINUOUS
 10
11.2246085837
 20
8.7896822487
 11
11.2246085837
 21
8.9055933548
  0
LINE
  5
2E6
100
AcDbEntity
  8
0
100
AcDbLine
 62
4
  6
CONTINUOUS
 10
11.2632456191
 20
8.7870027612
 11
11.2632456191
 21
8.8449583142
  0
LINE
  5
2E7
100
AcDbEntity
  8
0
100
AcDbLine
 62
4
  6
CONTINUOUS
 10
11.3018826544
 20
8.8422788267
 11
11.3018826544
 21
8.7843232737
  0
LINE
  5
2E8
100
AcDbEntity
  8
0
100
AcDbLine
 62
4
  6
CONTINUOUS
 10
12.0456455847
 20
9.3103667782
 11
12.0528900287
 21
9.3195236375
  0
LINE
  5
2E9
100
AcDbEntity
  8
0
100
AcDbLine
 62
4
  6
CONTINUOUS
 10
11.0548815993
 20
8.2268649445
 11
11.0383228778
 21
8.2114545656
  0
LINE
  5
2EA
100
AcDbEntity
  8
0
100
AcDbLine
 62
4
  6
CONTINUOUS
 10
11.1459545954
 20
8.2205490108
 11
11.1293958739
 21
8.2051386319
  0
LINE
  5
2EB
100
AcDbEntity
  8
0
100
AcDbLine
 62
4
  6
CONTINUOUS
 10
11.3198212544
 20
8.2416087757
 11
11.2756646452
 21
8.2225927406
  0
LINE
  5
2EC
100
AcDbEntity
  8
0
100
AcDbLine
 62
4
  6
CONTINUOUS
 10
10.799601195
 20
8.7612010582
 11
10.7609641596
 21
8.7638805457
  0
LINE
  5
2ED
100
AcDbEntity
  8
0
100
AcDbLine
 62
4
  6
CONTINUOUS
 10
11.4564307958
 20
8.7736053237
 11
11.3984752428
 21
8.777624555
  0
LINE
  5
2EE
100
AcDbEntity
  8
0
100
AcDbLine
 62
4
  6
CONTINUOUS
 10
11.08937896
 20
8.799060455
 11
11.031423407
 21
8.8030796862
  0
LINE
  5
2EF
100
AcDbEntity
  8
0
100
AcDbLine
 62
4
  6
CONTINUOUS
 10
10.8961937833
 20
8.8124578925
 11
10.8382382303
 21
8.8164771237
  0
LINE
  5
2F0
100
AcDbEntity
  8
0
100
AcDbLine
 62
4
  6
CONTINUOUS
 10
10.799601195
 20
8.8191566112
 11
10.741645642
 21
8.8231758425
  0
LINE
  5
2F1
100
AcDbEntity
  8
0
100
AcDbLine
 62
4
  6
CONTINUOUS
 10
10.4335152851
 20
8.8445447553
 11
10.3755597321
 21
8.8485639866
  0
LINE
  5
2F2
100
AcDbEntity
  8
0
100
AcDbLine
 62
4
  6
CONTINUOUS
 10
10.3465819556
 20
8.8505736022
 11
10.2886264026
 21
8.8545928335
  0
LINE
  5
2F3
100
AcDbEntity
  8
0
100
AcDbLine
 62
4
  6
CONTINUOUS
 10
11.1280159954
 20
8.7963809675
 11
11.1859715484
 21
8.7923617362
  0
LINE
  5
2F4
100
AcDbEntity
  8
0
100
AcDbLine
 62
4
  6
CONTINUOUS
 10
11.3018826544
 20
8.7843232737
 11
11.3598382074
 21
8.7803040425
  0
LINE
  5
2F5
100
AcDbEntity
  8
0
100
AcDbLine
 62
4
  6
CONTINUOUS
 10
11.3984752428
 20
8.8066023315
 11
11.4564307958
 21
8.8025831002
  0
LINE
  5
2F6
100
AcDbEntity
  8
0
100
AcDbLine
 62
4
  6
CONTINUOUS
 10
11.031423407
 20
8.8417167216
 11
11.08937896
 21
8.8376974903
  0
LINE
  5
2F7
100
AcDbEntity
  8
0
100
AcDbLine
 62
4
  6
CONTINUOUS
 10
11.08937896
 20
8.857016008
 11
11.0507419247
 21
8.8596954955
  0
LINE
  5
2F8
100
AcDbEntity
  8
0
100
AcDbLine
 62
4
  6
CONTINUOUS
 10
10.6943152737
 20
8.8844137677
 11
10.6363597207
 21
8.888432999
  0
LINE
  5
2F9
100
AcDbEntity
  8
0
100
AcDbLine
 62
4
  6
CONTINUOUS
 10
10.2886264026
 20
8.9125483865
 11
10.3465819556
 21
8.9085291552
  0
LINE
  5
2FA
100
AcDbEntity
  8
0
100
AcDbLine
 62
4
  6
CONTINUOUS
 10
10.8382382303
 20
8.8744326768
 11
10.8961937833
 21
8.8704134455
  0
LINE
  5
2FB
100
AcDbEntity
  8
0
100
AcDbLine
 62
4
  6
CONTINUOUS
 10
10.9348308187
 20
8.867733958
 11
10.9927863717
 21
8.8637147268
  0
LINE
  5
2FC
100
AcDbEntity
  8
0
100
AcDbLine
 62
4
  6
CONTINUOUS
 10
11.3018826544
 20
8.8422788267
 11
11.3598382074
 21
8.8382595955
  0
LINE
  5
2FD
100
AcDbEntity
  8
0
100
AcDbLine
 62
4
  6
CONTINUOUS
 10
11.3984752428
 20
8.835580108
 11
11.4564307958
 21
8.8315608767
  0
LINE
  5
2FE
100
AcDbEntity
  8
0
100
AcDbLine
 62
4
  6
CONTINUOUS
 10
11.3984752428
 20
8.835580108
 11
11.3984752428
 21
8.8066023315
  0
LINE
  5
2FF
100
AcDbEntity
  8
0
100
AcDbLine
 62
4
  6
CONTINUOUS
 10
11.4564307958
 20
8.8025831002
 11
11.4564307958
 21
8.7736053237
  0
LINE
  5
300
100
AcDbEntity
  8
0
100
AcDbLine
 62
7
  6
CONTINUOUS
 10
11.5208011028
 20
6.9459641095
 11
11.5208011028
 21
6.5253648838
  0
LINE
  5
301
100
AcDbEntity
  8
0
100
AcDbLine
 62
4
  6
CONTINUOUS
 10
12.0673789166
 20
9.2605632746
 11
12.0528900287
 21
9.2422495663
  0
LINE
  5
302
100
AcDbEntity
  8
0
100
AcDbLine
 62
4
  6
CONTINUOUS
 10
12.1036011364
 20
9.2870290344
 11
12.0963566925
 21
9.2778721751
  0
LINE
  5
303
100
AcDbEntity
  8
0
100
AcDbLine
 62
4
  6
CONTINUOUS
 10
11.2560011749
 20
8.8744384947
 11
11.2704900632
 21
8.8734336868
  0
LINE
  5
304
100
AcDbEntity
  8
0
100
AcDbLine
 62
4
  6
CONTINUOUS
 10
10.3465819556
 20
8.9664847082
 11
10.2886264026
 21
8.9705039395
  0
LINE
  5
305
100
AcDbEntity
  8
0
100
AcDbLine
 62
4
  6
CONTINUOUS
 10
10.4624930616
 20
8.9584462457
 11
10.5204486146
 21
8.9544270145
  0
LINE
  5
306
100
AcDbEntity
  8
0
100
AcDbLine
 62
7
  6
CONTINUOUS
 10
11.5780105414
 20
6.9499316046
 11
11.5780105414
 21
6.5293323788
  0
LINE
  5
307
100
AcDbEntity
  8
0
100
AcDbLine
 62
4
  6
CONTINUOUS
 10
12.0528900287
 20
9.2422495663
 11
12.0456455847
 21
9.2137741943
  0
LINE
  5
308
100
AcDbEntity
  8
0
100
AcDbLine
 62
4
  6
CONTINUOUS
 10
12.0456455847
 20
9.2137741943
 11
12.1036011364
 21
9.2097549631
  0
LINE
  5
309
100
AcDbEntity
  8
0
100
AcDbLine
 62
7
  6
CONTINUOUS
 10
11.8868817084
 20
7.0298733145
 11
11.8868817084
 21
6.6092740887
  0
LINE
  5
30A
100
AcDbEntity
  8
0
100
AcDbLine
 62
7
  6
CONTINUOUS
 10
11.9022109195
 20
7.0446801963
 11
11.9022109195
 21
6.6240809705
  0
LINE
  5
30B
100
AcDbEntity
  8
0
100
AcDbLine
 62
7
  6
CONTINUOUS
 10
10.9507377449
 20
7.102730102
 11
10.9519567154
 21
7.1038856363
  0
LINE
  5
30C
100
AcDbEntity
  8
0
100
AcDbLine
 62
7
  6
CONTINUOUS
 10
10.995575502
 20
7.1444774962
 11
10.9519567112
 21
7.1038856324
  0
LINE
  5
30D
100
AcDbEntity
  8
0
100
AcDbLine
 62
4
  6
CONTINUOUS
 10
12.0673789166
 20
9.3281780861
 11
12.0818678045
 21
9.3271732783
  0
LINE
  5
30E
100
AcDbEntity
  8
0
100
AcDbLine
 62
4
  6
CONTINUOUS
 10
12.1036011364
 20
9.306347547
 11
12.1036011364
 21
9.2870290344
  0
LINE
  5
30F
100
AcDbEntity
  8
0
100
AcDbLine
 62
7
  6
CONTINUOUS
 10
12.2871270556
 20
7.0835815993
 11
12.2871270556
 21
9.9813592499
  0
LINE
  5
310
100
AcDbEntity
  8
0
100
AcDbLine
 62
4
  6
CONTINUOUS
 10
12.0818678045
 20
9.3271732783
 11
12.0963566925
 21
9.3165092142
  0
LINE
  5
311
100
AcDbEntity
  8
0
100
AcDbLine
 62
4
  6
CONTINUOUS
 10
12.0963566925
 20
9.3165092142
 11
12.1036011364
 21
9.306347547
  0
LINE
  5
312
100
AcDbEntity
  8
0
100
AcDbLine
 62
7
  6
CONTINUOUS
 10
12.610650595
 20
7.3960813599
 11
12.610650595
 21
10.2938590105
  0
LINE
  5
313
100
AcDbEntity
  8
0
100
AcDbLine
 62
7
  6
CONTINUOUS
 10
9.389349405
 20
10.1823208125
 11
12.2871270556
 21
9.9813592499
  0
LINE
  5
314
100
AcDbEntity
  8
0
100
AcDbLine
 62
7
  6
CONTINUOUS
 10
12.610650595
 20
10.2938590105
 11
9.7128729444
 21
10.4948205731
  0
LINE
  5
315
100
AcDbEntity
  8
0
100
AcDbLine
 62
7
  6
CONTINUOUS
 10
12.2871270556
 20
7.0835815993
 11
12.610650595
 21
7.3960813599
  0
LINE
  5
316
100
AcDbEntity
  8
0
100
AcDbLine
 62
7
  6
CONTINUOUS
 10
11.8291241925
 20
6.5772500889
 11
11.8039618397
 21
6.5648203684
  0
ARC
  5
317
100
AcDbEntity
  8
0
100
AcDbCircle
 62
7
  6
CONTINUOUS
 10
11.4308772006
 20
8.6570756033
 40
1.7134727463
100
AcDbArc
 50
273.0082929995
 51
274.9259690708
  0
ARC
  5
318
100
AcDbEntity
  8
0
100
AcDbCircle
 62
7
  6
CONTINUOUS
 10
11.4308772006
 20
8.2364763775
 40
1.7134727463
100
AcDbArc
 50
273.0082929995
 51
274.9259690708
  0
ARC
  5
319
100
AcDbEntity
  8
0
100
AcDbCircle
 62
7
  6
CONTINUOUS
 10
11.4601155445
 20
9.4882370969
 40
0.890465214
100
AcDbArc
 50
359.9960311257
 51
1.3273015966
  0
ARC
  5
31A
100
AcDbEntity
  8
0
100
AcDbCircle
 62
7
  6
CONTINUOUS
 10
11.4876582894
 20
9.4708441264
 40
0.8616790994
100
AcDbArc
 50
350.7188475582
 51
351.122260975
  0
SPLINE
  5
31B
100
AcDbEntity
  8
0
100
AcDbSpline
 62
7
  6
CONTINUOUS
 70
0
 71
3
 72
11
 73
7
 74
0
 42
0.0000001
 43
0.0000001
 44
0.0000000001
 40
0.0
 40
0.0
 40
0.0
 40
0.0
 40
0.2602888324
 40
0.5135712263
 40
0.7600617157
 40
1.0
 40
1.0
 40
1.0
 40
1.0
 10
10.9507377449
 20
7.102730102
 30
0.0
 10
10.9501073083
 20
7.1021211469
 30
0.0
 10
10.9488812432
 20
7.1009009698
 30
0.0
 10
10.9471253775
 20
7.0990381266
 30
0.0
 10
10.9454786531
 20
7.0971684984
 30
0.0
 10
10.94444019
 20
7.0959011505
 30
0.0
 10
10.9439400844
 20
7.0952665382
 30
0.0
  0
SPLINE
  5
31C
100
AcDbEntity
  8
0
100
AcDbSpline
 62
7
  6
CONTINUOUS
 70
0
 71
3
 72
11
 73
7
 74
0
 42
0.0000001
 43
0.0000001
 44
0.0000000001
 40
0.0
 40
0.0
 40
0.0
 40
0.0
 40
0.2399382843
 40
0.4864287737
 40
0.7397111676
 40
1.0
 40
1.0
 40
1.0
 40
1.0
 10
11.9022109195
 20
6.6240809705
 30
0.0
 10
11.9017108139
 20
6.6234463583
 30
0.0
 10
11.9006723508
 20
6.6221790103
 30
0.0
 10
11.8990256264
 20
6.6203093821
 30
0.0
 10
11.8972697608
 20
6.618446539
 30
0.0
 10
11.8960436957
 20
6.6172263619
 30
0.0
 10
11.895413259
 20
6.6166174068
 30
0.0
  0
SPLINE
  5
31D
100
AcDbEntity
  8
0
100
AcDbSpline
 62
7
  6
CONTINUOUS
 70
0
 71
3
 72
11
 73
7
 74
0
 42
0.0000001
 43
0.0000001
 44
0.0000000001
 40
0.0
 40
0.0
 40
0.0
 40
0.0
 40
0.2399502312
 40
0.4865132022
 40
0.7398237866
 40
1.0
 40
1.0
 40
1.0
 40
1.0
 10
11.895413259
 20
6.6166174068
 30
0.0
 10
11.8947653838
 20
6.6159916074
 30
0.0
 10
11.8934322449
 20
6.6147428425
 30
0.0
 10
11.8913515128
 20
6.6129028417
 30
0.0
 10
11.8891634026
 20
6.6110712651
 30
0.0
 10
11.8876537749
 20
6.6098722773
 30
0.0
 10
11.8868817084
 20
6.6092740887
 30
0.0
  0
SPLINE
  5
31E
100
AcDbEntity
  8
0
100
AcDbSpline
 62
7
  6
CONTINUOUS
 70
0
 71
3
 72
11
 73
7
 74
0
 42
0.0000001
 43
0.0000001
 44
0.0000000001
 40
0.0
 40
0.0
 40
0.0
 40
0.0
 40
0.2529398012
 40
0.5039896517
 40
0.7530425508
 40
1.0
 40
1.0
 40
1.0
 40
1.0
 10
11.8868817084
 20
6.6092740887
 30
0.0
 10
11.8821270373
 20
6.6063686535
 30
0.0
 10
11.8725980662
 20
6.6006690902
 30
0.0
 10
11.8581874146
 20
6.5924488553
 30
0.0
 10
11.8437122945
 20
6.5846156201
 30
0.0
 10
11.8339783911
 20
6.5796481072
 30
0.0
 10
11.8291007828
 20
6.5772385256
 30
0.0
  0
SPLINE
  5
31F
100
AcDbEntity
  8
0
100
AcDbSpline
 62
7
  6
CONTINUOUS
 70
0
 71
3
 72
19
 73
15
 74
0
 42
0.0000001
 43
0.0000001
 44
0.0000000001
 40
0.0
 40
0.0
 40
0.0
 40
0.0
 40
0.0549442326
 40
0.1110417782
 40
0.1682629064
 40
0.2265768493
 40
0.2859520695
 40
0.3463565254
 40
0.4077579428
 40
0.4701239744
 40
0.5976202717
 40
0.7285932107
 40
0.8627976794
 40
1.0
 40
1.0
 40
1.0
 40
1.0
 10
11.8719627675
 20
7.1123962736
 30
0.0
 10
11.8726202618
 20
7.1112064672
 30
0.0
 10
11.8739321823
 20
7.1087925219
 30
0.0
 10
11.8758723264
 20
7.1051091056
 30
0.0
 10
11.8778052819
 20
7.1013280352
 30
0.0
 10
11.8797308298
 20
7.0974524352
 30
0.0
 10
11.8816487895
 20
7.093485415
 30
0.0
 10
11.8835590093
 20
7.0894300707
 30
0.0
 10
11.885461374
 20
7.0852894659
 30
0.0
 10
11.8880058958
 20
7.079617419
 30
0.0
 10
11.8911623083
 20
7.0723336893
 30
0.0
 10
11.8948908658
 20
7.0633620779
 30
0.0
 10
11.898587554
 20
7.0541182024
 30
0.0
 10
11.9010055978
 20
7.0478535561
 30
0.0
 10
11.9022109195
 20
7.0446801963
 30
0.0
  0
SPLINE
  5
320
100
AcDbEntity
  8
0
100
AcDbSpline
 62
7
  6
CONTINUOUS
 70
0
 71
3
 72
79
 73
75
 74
0
 42
0.0000001
 43
0.0000001
 44
0.0000000001
 40
0.0
 40
0.0
 40
0.0
 40
0.0
 40
0.0049346149
 40
0.0099877251
 40
0.0151590499
 40
0.0204481992
 40
0.0258546713
 40
0.0313778714
 40
0.0370171043
 40
0.0427715926
 40
0.0546226141
 40
0.066923307
 40
0.0796646949
 40
0.0928367656
 40
0.10642856
 40
0.1204282499
 40
0.1348232052
 40
0.1496000531
 40
0.1647447325
 40
0.1802425411
 40
0.1960781811
 40
0.2122357989
 40
0.2286990254
 40
0.2454510106
 40
0.26247446
 40
0.2797516671
 40
0.2972645466
 40
0.3149946648
 40
0.3329232712
 40
0.3510313283
 40
0.3692995407
 40
0.3877083857
 40
0.4062381408
 40
0.424868914
 40
0.443580671
 40
0.462353265
 40
0.4811664639
 40
0.4999999795
 40
0.5188334952
 40
0.5376466942
 40
0.5564192885
 40
0.5751310457
 40
0.5937618193
 40
0.6122915748
 40
0.6307004205
 40
0.6489686336
 40
0.6670766916
 40
0.685005299
 40
0.7027354182
 40
0.7202482986
 40
0.7375255067
 40
0.7545489571
 40
0.7713009434
 40
0.7877641713
 40
0.8039217908
 40
0.8197574325
 40
0.8352552428
 40
0.8503999238
 40
0.8651767734
 40
0.8795717301
 40
0.8935714217
 40
0.9071632179
 40
0.9203352906
 40
0.9330766807
 40
0.945377376
 40
0.9572283997
 40
0.9629828881
 40
0.9686221229
 40
0.9741453233
 40
0.979551797
 40
0.9848409473
 40
0.990012273
 40
0.9950653848
 40
1.0
 40
1.0
 40
1.0
 40
1.0
 10
11.8039618841
 20
6.5648203906
 30
0.0
 10
11.802817094
 20
6.5642548862
 30
0.0
 10
11.8004904792
 20
6.5631295231
 30
0.0
 10
11.7969329849
 20
6.5614769489
 30
0.0
 10
11.7932674557
 20
6.5598402508
 30
0.0
 10
11.7894949589
 20
6.558219911
 30
0.0
 10
11.7856165788
 20
6.5566163906
 30
0.0
 10
11.7816334339
 20
6.5550301592
 30
0.0
 10
11.7775466694
 20
6.5534616646
 30
0.0
 10
11.7719057646
 20
6.5513741564
 30
0.0
 10
11.7646019435
 20
6.5488154784
 30
0.0
 10
11.7555265909
 20
6.5458522871
 30
0.0
 10
11.7460671794
 20
6.5429704613
 30
0.0
 10
11.7362346358
 20
6.5401733449
 30
0.0
 10
11.7260402737
 20
6.5374641814
 30
0.0
 10
11.715495847
 20
6.5348461142
 30
0.0
 10
11.7046135153
 20
6.5323221812
 30
0.0
 10
11.693405835
 20
6.5298953112
 30
0.0
 10
11.6818857421
 20
6.5275683207
 30
0.0
 10
11.6700665369
 20
6.5253439096
 30
0.0
 10
11.6579618686
 20
6.5232246591
 30
0.0
 10
11.6455857183
 20
6.521213028
 30
0.0
 10
11.6329523833
 20
6.5193113497
 30
0.0
 10
11.6200764597
 20
6.5175218301
 30
0.0
 10
11.6069728256
 20
6.5158465448
 30
0.0
 10
11.5936566233
 20
6.5142874365
 30
0.0
 10
11.580143242
 20
6.5128463133
 30
0.0
 10
11.5664482996
 20
6.5115248462
 30
0.0
 10
11.5525876246
 20
6.5103245673
 30
0.0
 10
11.5385772377
 20
6.5092468682
 30
0.0
 10
11.5244333333
 20
6.5082929985
 30
0.0
 10
11.5101722605
 20
6.5074640637
 30
0.0
 10
11.4958105043
 20
6.5067610247
 30
0.0
 10
11.4813646665
 20
6.5061846963
 30
0.0
 10
11.4668514461
 20
6.5057357467
 30
0.0
 10
11.4522876204
 20
6.505414696
 30
0.0
 10
11.4376900251
 20
6.5052219164
 30
0.0
 10
11.4230755352
 20
6.5051576315
 30
0.0
 10
11.4084610453
 20
6.5052219157
 30
0.0
 10
11.3938634499
 20
6.5054146947
 30
0.0
 10
11.379299624
 20
6.5057357448
 30
0.0
 10
11.3647864033
 20
6.506184694
 30
0.0
 10
11.3503405652
 20
6.5067610218
 30
0.0
 10
11.3359788087
 20
6.5074640603
 30
0.0
 10
11.3217177354
 20
6.5082929946
 30
0.0
 10
11.3075738303
 20
6.5092468637
 30
0.0
 10
11.2935634427
 20
6.510324562
 30
0.0
 10
11.2797027669
 20
6.5115248403
 30
0.0
 10
11.2660078237
 20
6.5128463069
 30
0.0
 10
11.2524944416
 20
6.5142874296
 30
0.0
 10
11.2391782385
 20
6.5158465374
 30
0.0
 10
11.2260746035
 20
6.5175218223
 30
0.0
 10
11.2131986789
 20
6.5193113414
 30
0.0
 10
11.2005653428
 20
6.5212130192
 30
0.0
 10
11.1881891911
 20
6.5232246498
 30
0.0
 10
11.1760845213
 20
6.5253438997
 30
0.0
 10
11.1642653147
 20
6.5275683102
 30
0.0
 10
11.1527452204
 20
6.5298953003
 30
0.0
 10
11.1415375388
 20
6.5323221698
 30
0.0
 10
11.1306552058
 20
6.5348461025
 30
0.0
 10
11.1201107776
 20
6.5374641693
 30
0.0
 10
11.109916414
 20
6.5401733325
 30
0.0
 10
11.1000838687
 20
6.5429704485
 30
0.0
 10
11.0906244552
 20
6.5458522738
 30
0.0
 10
11.0815491007
 20
6.5488154648
 30
0.0
 10
11.0742452779
 20
6.5513741419
 30
0.0
 10
11.0686043723
 20
6.5534616509
 30
0.0
 10
11.0645176067
 20
6.5550301443
 30
0.0
 10
11.060534461
 20
6.5566163765
 30
0.0
 10
11.0566560798
 20
6.5582198962
 30
0.0
 10
11.0528835821
 20
6.559840236
 30
0.0
 10
11.049218052
 20
6.5614769342
 30
0.0
 10
11.0456605565
 20
6.5631295076
 30
0.0
 10
11.0433339413
 20
6.564254871
 30
0.0
 10
11.042189151
 20
6.5648203754
 30
0.0
  0
SPLINE
  5
321
100
AcDbEntity
  8
0
100
AcDbSpline
 62
7
  6
CONTINUOUS
 70
0
 71
3
 72
34
 73
30
 74
0
 42
0.0000001
 43
0.0000001
 44
0.0000000001
 40
0.0
 40
0.0
 40
0.0
 40
0.0
 40
0.0217726103
 40
0.043998712
 40
0.0899309812
 40
0.1380396824
 40
0.1885283882
 40
0.2147207498
 40
0.2415663873
 40
0.2690791435
 40
0.2972700689
 40
0.3261474357
 40
0.3557167999
 40
0.3859810872
 40
0.4169407062
 40
0.4485936851
 40
0.4809358243
 40
0.5139608702
 40
0.5476607044
 40
0.5820255323
 40
0.6170440742
 40
0.6527037538
 40
0.6889908834
 40
0.7258908481
 40
0.7633882775
 40
0.8014672032
 40
0.8401112084
 40
0.9190266208
 40
1.0
 40
1.0
 40
1.0
 40
1.0
 10
11.0258896314
 20
6.5728720259
 30
0.0
 10
11.0250265283
 20
6.5732983434
 30
0.0
 10
11.0232980333
 20
6.5741920461
 30
0.0
 10
11.0198327726
 20
6.5761432864
 30
0.0
 10
11.0154888746
 20
6.5789003107
 30
0.0
 10
11.0103253986
 20
6.5826718339
 30
0.0
 10
11.00607238
 20
6.586191901
 30
0.0
 10
11.0026688829
 20
6.5892532287
 30
0.0
 10
11.0000847383
 20
6.5917045958
 30
0.0
 10
10.9975008268
 20
6.5942828118
 30
0.0
 10
10.9949175461
 20
6.5969872889
 30
0.0
 10
10.992335335
 20
6.5998171158
 30
0.0
 10
10.9897546116
 20
6.6027711261
 30
0.0
 10
10.9871757864
 20
6.6058478943
 30
0.0
 10
10.9845992544
 20
6.6090457542
 30
0.0
 10
10.9820253942
 20
6.6123628146
 30
0.0
 10
10.9794545645
 20
6.6157969773
 30
0.0
 10
10.9768871019
 20
6.6193459569
 30
0.0
 10
10.9743233201
 20
6.6230073036
 30
0.0
 10
10.9717635081
 20
6.6267784241
 30
0.0
 10
10.9692079294
 20
6.6306566036
 30
0.0
 10
10.9666568216
 20
6.6346390273
 30
0.0
 10
10.9641103952
 20
6.638722801
 30
0.0
 10
10.9615688346
 20
6.642904972
 30
0.0
 10
10.9590323
 20
6.6471825479
 30
0.0
 10
10.95650092
 20
6.6515525157
 30
0.0
 10
10.9531091575
 20
6.6575400268
 30
0.0
 10
10.9488875407
 20
6.6652366085
 30
0.0
 10
10.9455882734
 20
6.6714891262
 30
0.0
 10
10.9439400844
 20
6.6746673125
 30
0.0
  0
SPLINE
  5
322
100
AcDbEntity
  8
0
100
AcDbSpline
 62
7
  6
CONTINUOUS
 70
0
 71
3
 72
11
 73
7
 74
0
 42
0.0000001
 43
0.0000001
 44
0.0000000001
 40
0.0
 40
0.0
 40
0.0
 40
0.0
 40
0.2399382843
 40
0.4864287737
 40
0.7397111676
 40
1.0
 40
1.0
 40
1.0
 40
1.0
 10
11.9022109195
 20
7.0446801963
 30
0.0
 10
11.9017108139
 20
7.044045584
 30
0.0
 10
11.9006723508
 20
7.0427782361
 30
0.0
 10
11.8990256264
 20
7.0409086079
 30
0.0
 10
11.8972697608
 20
7.0390457647
 30
0.0
 10
11.8960436957
 20
7.0378255876
 30
0.0
 10
11.895413259
 20
7.0372166325
 30
0.0
  0
SPLINE
  5
323
100
AcDbEntity
  8
0
100
AcDbSpline
 62
7
  6
CONTINUOUS
 70
0
 71
3
 72
11
 73
7
 74
0
 42
0.0000001
 43
0.0000001
 44
0.0000000001
 40
0.0
 40
0.0
 40
0.0
 40
0.0
 40
0.2399786797
 40
0.4867532124
 40
0.7401537026
 40
1.0
 40
1.0
 40
1.0
 40
1.0
 10
11.0569948963
 20
6.9860641623
 30
0.0
 10
11.0603169109
 20
6.9850932938
 30
0.0
 10
11.067071522
 20
6.9831801504
 30
0.0
 10
11.0773862494
 20
6.9804306365
 30
0.0
 10
11.0880181289
 20
6.9777631257
 30
0.0
 10
11.0952223398
 20
6.9760620281
 30
0.0
 10
11.0988751238
 20
6.9752247755
 30
0.0
  0
SPLINE
  5
324
100
AcDbEntity
  8
0
100
AcDbSpline
 62
7
  6
CONTINUOUS
 70
0
 71
3
 72
11
 73
7
 74
0
 42
0.0000001
 43
0.0000001
 44
0.0000000001
 40
0.0
 40
0.0
 40
0.0
 40
0.0
 40
0.2601762134
 40
0.5134867978
 40
0.7600497688
 40
1.0
 40
1.0
 40
1.0
 40
1.0
 10
11.8868817084
 20
7.0298733145
 30
0.0
 10
11.8876537749
 20
7.030471503
 30
0.0
 10
11.8891634026
 20
7.0316704909
 30
0.0
 10
11.8913515128
 20
7.0335020675
 30
0.0
 10
11.8934322449
 20
7.0353420683
 30
0.0
 10
11.8947653838
 20
7.0365908331
 30
0.0
 10
11.895413259
 20
7.0372166325
 30
0.0
  0
SPLINE
  5
325
100
AcDbEntity
  8
0
100
AcDbSpline
 62
7
  6
CONTINUOUS
 70
0
 71
3
 72
11
 73
7
 74
0
 42
0.0000001
 43
0.0000001
 44
0.0000000001
 40
0.0
 40
0.0
 40
0.0
 40
0.0
 40
0.2598462974
 40
0.5132467876
 40
0.7600213203
 40
1.0
 40
1.0
 40
1.0
 40
1.0
 10
11.0988751238
 20
6.5546255498
 30
0.0
 10
11.0952223398
 20
6.5554628024
 30
0.0
 10
11.0880181289
 20
6.5571638999
 30
0.0
 10
11.0773862494
 20
6.5598314107
 30
0.0
 10
11.067071522
 20
6.5625809247
 30
0.0
 10
11.0603169109
 20
6.5644940681
 30
0.0
 10
11.0569948963
 20
6.5654649365
 30
0.0
  0
SPLINE
  5
326
100
AcDbEntity
  8
0
100
AcDbSpline
 62
7
  6
CONTINUOUS
 70
0
 71
3
 72
34
 73
30
 74
0
 42
0.0000001
 43
0.0000001
 44
0.0000000001
 40
0.0
 40
0.0
 40
0.0
 40
0.0
 40
0.0614928409
 40
0.1230891667
 40
0.153930456
 40
0.1848018751
 40
0.2157048016
 40
0.2466405691
 40
0.2776104456
 40
0.308615611
 40
0.339657133
 40
0.3707359447
 40
0.4018528241
 40
0.433008375
 40
0.4642030116
 40
0.4954369474
 40
0.5267101883
 40
0.5580225326
 40
0.5893735753
 40
0.6207627182
 40
0.6521891835
 40
0.6836520324
 40
0.7151501852
 40
0.7466824453
 40
0.7782475226
 40
0.8098440566
 40
0.8731242422
 40
0.9365133522
 40
1.0
 40
1.0
 40
1.0
 40
1.0
 10
11.5208011028
 20
6.5253648838
 30
0.0
 10
11.5121811053
 20
6.523739884
 30
0.0
 10
11.4948860474
 20
6.520697794
 30
0.0
 10
11.4731636702
 20
6.5174701344
 30
0.0
 10
11.4557126278
 20
6.5152608332
 30
0.0
 10
11.4425819962
 20
6.5137971839
 30
0.0
 10
11.4294169091
 20
6.5125350709
 30
0.0
 10
11.4162193561
 20
6.5114816109
 30
0.0
 10
11.4029917323
 20
6.5106435409
 30
0.0
 10
11.3897367962
 20
6.5100271015
 30
0.0
 10
11.3764576685
 20
6.5096379307
 30
0.0
 10
11.3631578062
 20
6.5094809585
 30
0.0
 10
11.3498409688
 20
6.5095603104
 30
0.0
 10
11.3365111729
 20
6.5098792206
 30
0.0
 10
11.3231726373
 20
6.510439962
 30
0.0
 10
11.3098297202
 20
6.5112437942
 30
0.0
 10
11.2964868502
 20
6.5122909331
 30
0.0
 10
11.2831484548
 20
6.5135805425
 30
0.0
 10
11.2698188881
 20
6.5151107529
 30
0.0
 10
11.2565023631
 20
6.5168787012
 30
0.0
 10
11.2432028884
 20
6.5188805924
 30
0.0
 10
11.2299242145
 20
6.5211117764
 30
0.0
 10
11.216669786
 20
6.5235668429
 30
0.0
 10
11.2034427207
 20
6.5262397175
 30
0.0
 10
11.1902457369
 20
6.5291237878
 30
0.0
 10
11.1726852023
 20
6.533243208
 30
0.0
 10
11.1508216719
 20
6.53888484
 30
0.0
 10
11.1247484416
 20
6.5463766452
 30
0.0
 10
11.1074822949
 20
6.5518091493
 30
0.0
 10
11.0988751238
 20
6.5546255498
 30
0.0
  0
SPLINE
  5
327
100
AcDbEntity
  8
0
100
AcDbSpline
 62
7
  6
CONTINUOUS
 70
0
 71
3
 72
37
 73
33
 74
0
 42
0.0000001
 43
0.0000001
 44
0.0000000001
 40
0.0
 40
0.0
 40
0.0
 40
0.0
 40
0.0320287472
 40
0.0640311205
 40
0.0960043923
 40
0.1279455611
 40
0.159851441
 40
0.1917186505
 40
0.2235436484
 40
0.2553227761
 40
0.2870523307
 40
0.318728644
 40
0.3503481602
 40
0.381907556
 40
0.4134038501
 40
0.444834504
 40
0.4761975334
 40
0.5074915881
 40
0.5387160101
 40
0.5698708592
 40
0.6009569109
 40
0.6319756141
 40
0.6629290159
 40
0.6938196881
 40
0.7246506078
 40
0.755425049
 40
0.7861464927
 40
0.8168185117
 40
0.847444686
 40
0.8780285427
 40
0.9390791653
 40
1.0
 40
1.0
 40
1.0
 40
1.0
 10
11.5208011028
 20
6.9459641095
 30
0.0
 10
11.5166485353
 20
6.9481067767
 30
0.0
 10
11.5083109254
 20
6.9523212495
 30
0.0
 10
11.4957001348
 20
6.9584177828
 30
0.0
 10
11.4829884925
 20
6.9642709832
 30
0.0
 10
11.4701756005
 20
6.9698642318
 30
0.0
 10
11.45726183
 20
6.9751802485
 30
0.0
 10
11.4442485315
 20
6.9802011942
 30
0.0
 10
11.4311381631
 20
6.9849088689
 30
0.0
 10
11.4179344317
 20
6.9892849553
 30
0.0
 10
11.4046424064
 20
6.9933113181
 30
0.0
 10
11.3912686033
 20
6.99697035
 30
0.0
 10
11.3778210304
 20
7.0002453853
 30
0.0
 10
11.3643091689
 20
7.0031211194
 30
0.0
 10
11.3507438875
 20
7.0055840389
 30
0.0
 10
11.3371372934
 20
7.0076228823
 30
0.0
 10
11.3235024979
 20
7.0092289845
 30
0.0
 10
11.3098533271
 20
7.010396597
 30
0.0
 10
11.2962039841
 20
7.0111231226
 30
0.0
 10
11.2825686785
 20
7.011409151
 30
0.0
 10
11.2689612629
 20
7.0112584773
 30
0.0
 10
11.255394888
 20
7.0106779179
 30
0.0
 10
11.2418817085
 20
7.0096770313
 30
0.0
 10
11.2284326488
 20
7.0082678091
 30
0.0
 10
11.2150572442
 20
7.0064642339
 30
0.0
 10
11.2017635556
 20
7.0042818619
 30
0.0
 10
11.1885581417
 20
7.0017374022
 30
0.0
 10
11.1754461258
 20
6.998848303
 30
0.0
 10
11.1624311867
 20
6.9956323632
 30
0.0
 10
11.1452221358
 20
6.9909356245
 30
0.0
 10
11.1239582167
 20
6.984336482
 30
0.0
 10
11.1071908915
 20
6.9783621953
 30
0.0
 10
11.0988751238
 20
6.9752247755
 30
0.0
  0
SPLINE
  5
328
100
AcDbEntity
  8
0
100
AcDbSpline
 62
7
  6
CONTINUOUS
 70
0
 71
3
 72
15
 73
11
 74
0
 42
0.0000001
 43
0.0000001
 44
0.0000000001
 40
0.0
 40
0.0
 40
0.0
 40
0.0
 40
0.1192556975
 40
0.2392875357
 40
0.3604859033
 40
0.483279967
 40
0.6081324973
 40
0.7355322617
 40
0.8659845135
 40
1.0
 40
1.0
 40
1.0
 40
1.0
 10
11.0569948963
 20
6.5654649365
 30
0.0
 10
11.0557126613
 20
6.5654694992
 30
0.0
 10
11.053139532
 20
6.565546177
 30
0.0
 10
11.0492754445
 20
6.5658727542
 30
0.0
 10
11.0453979491
 20
6.5664216427
 30
0.0
 10
11.0415076228
 20
6.5672032615
 30
0.0
 10
11.0376050467
 20
6.5682278163
 30
0.0
 10
11.0336909639
 20
6.5695051694
 30
0.0
 10
11.0297664448
 20
6.5710445553
 30
0.0
 10
11.027181567
 20
6.5722338926
 30
0.0
 10
11.0258896314
 20
6.5728720259
 30
0.0
  0
SPLINE
  5
329
100
AcDbEntity
  8
0
100
AcDbSpline
 62
7
  6
CONTINUOUS
 70
0
 71
3
 72
60
 73
56
 74
0
 42
0.0000001
 43
0.0000001
 44
0.0000000001
 40
0.0
 40
0.0
 40
0.0
 40
0.0
 40
0.0511308685
 40
0.1012482554
 40
0.1502799616
 40
0.1981504086
 40
0.2447814194
 40
0.2900930985
 40
0.334005102
 40
0.3554116938
 40
0.3764389177
 40
0.3970774048
 40
0.4173181471
 40
0.4371525703
 40
0.4565726459
 40
0.4755709803
 40
0.4941409094
 40
0.5122766399
 40
0.5299733374
 40
0.5472272329
 40
0.5640357845
 40
0.5803977617
 40
0.5963133463
 40
0.6117842975
 40
0.6268140312
 40
0.6414076931
 40
0.6555722996
 40
0.6693168061
 40
0.6826521282
 40
0.6955912233
 40
0.7081491259
 40
0.7203428892
 40
0.7321915704
 40
0.7437161865
 40
0.7549395494
 40
0.7658861172
 40
0.7765818254
 40
0.787053797
 40
0.7973300544
 40
0.8074392245
 40
0.817410158
 40
0.8272715672
 40
0.8370516875
 40
0.846777913
 40
0.8564764879
 40
0.8661722543
 40
0.8758884209
 40
0.8856464115
 40
0.8954657729
 40
0.9053641127
 40
0.915357115
 40
0.935676592
 40
0.9565180238
 40
0.9779450877
 40
1.0
 40
1.0
 40
1.0
 40
1.0
 10
11.0569948963
 20
6.9860641623
 30
0.0
 10
11.0558922107
 20
6.9889673029
 30
0.0
 10
11.0536804243
 20
6.9947053608
 30
0.0
 10
11.05030466
 20
7.0031858181
 30
0.0
 10
11.0469022345
 20
7.011441877
 30
0.0
 10
11.0434730571
 20
7.0194570901
 30
0.0
 10
11.0400172483
 20
7.0272142132
 30
0.0
 10
11.036535182
 20
7.0346952586
 30
0.0
 10
11.0335877075
 20
7.0407340918
 30
0.0
 10
11.0312139574
 20
7.0454105446
 30
0.0
 10
11.0294426577
 20
7.0488073105
 30
0.0
 10
11.0276654751
 20
7.0521208698
 30
0.0
 10
11.0258826091
 20
7.0553488662
 30
0.0
 10
11.0240942868
 20
7.0584889684
 30
0.0
 10
11.0223007628
 20
7.06153889
 30
0.0
 10
11.0205023145
 20
7.0644963973
 30
0.0
 10
11.018699239
 20
7.0673593229
 30
0.0
 10
11.0168918631
 20
7.0701255853
 30
0.0
 10
11.0150805334
 20
7.0727931979
 30
0.0
 10
11.0132656124
 20
7.0753602816
 30
0.0
 10
11.0114474894
 20
7.0778250868
 30
0.0
 10
11.0096265693
 20
7.0801860005
 30
0.0
 10
11.0078032661
 20
7.0824415551
 30
0.0
 10
11.0059780142
 20
7.0845904509
 30
0.0
 10
11.0041512578
 20
7.0866315606
 30
0.0
 10
11.0023234422
 20
7.0885639314
 30
0.0
 10
11.0004950229
 20
7.0903868031
 30
0.0
 10
10.9986664598
 20
7.0920996127
 30
0.0
 10
10.9968382055
 20
7.0937019858
 30
0.0
 10
10.9950107121
 20
7.0951937484
 30
0.0
 10
10.9931844315
 20
7.0965749314
 30
0.0
 10
10.9913598025
 20
7.0978457534
 30
0.0
 10
10.9895372552
 20
7.0990066219
 30
0.0
 10
10.9877172166
 20
7.100058142
 30
0.0
 10
10.9859000986
 20
7.1010010908
 30
0.0
 10
10.9840863004
 20
7.1018364118
 30
0.0
 10
10.9822762159
 20
7.1025652256
 30
0.0
 10
10.9804702229
 20
7.1031888013
 30
0.0
 10
10.9786686841
 20
7.1037085467
 30
0.0
 10
10.9768719508
 20
7.104126019
 30
0.0
 10
10.9750803535
 20
7.104442894
 30
0.0
 10
10.9732942013
 20
7.1046609552
 30
0.0
 10
10.9715137803
 20
7.1047820998
 30
0.0
 10
10.9697393479
 20
7.1048083048
 30
0.0
 10
10.9679711316
 20
7.1047416189
 30
0.0
 10
10.9662093271
 20
7.1045841586
 30
0.0
 10
10.9644540983
 20
7.1043380773
 30
0.0
 10
10.9627055749
 20
7.1040055618
 30
0.0
 10
10.960963865
 20
7.1035888225
 30
0.0
 10
10.9592290157
 20
7.1030900581
 30
0.0
 10
10.9569125291
 20
7.102314428
 30
0.0
 10
10.9540300136
 20
7.1011457196
 30
0.0
 10
10.9506202779
 20
7.0994583741
 30
0.0
 10
10.947239557
 20
7.0974954259
 30
0.0
 10
10.9450369881
 20
7.0960354044
 30
0.0
 10
10.9439400844
 20
7.0952665382
 30
0.0
  0
SPLINE
  5
32A
100
AcDbEntity
  8
0
100
AcDbSpline
 62
7
  6
CONTINUOUS
 70
0
 71
3
 72
39
 73
35
 74
0
 42
0.0000001
 43
0.0000001
 44
0.0000000001
 40
0.0
 40
0.0
 40
0.0
 40
0.0
 40
0.0286511884
 40
0.0572782361
 40
0.0858921417
 40
0.1145060505
 40
0.1431355148
 40
0.1717986058
 40
0.2005159875
 40
0.2293108812
 40
0.2582089184
 40
0.2872378355
 40
0.3164269836
 40
0.3458067076
 40
0.3754075642
 40
0.4052594083
 40
0.4353904729
 40
0.4658264387
 40
0.4965896003
 40
0.5276982233
 40
0.5591660839
 40
0.5910022716
 40
0.6232112248
 40
0.6557929779
 40
0.6887435812
 40
0.7220556324
 40
0.7557188854
 40
0.7897208525
 40
0.8240473912
 40
0.8586832503
 40
0.8936125338
 40
0.9288190984
 40
0.9642868337
 40
1.0
 40
1.0
 40
1.0
 40
1.0
 10
11.8868817084
 20
7.0298733145
 30
0.0
 10
11.8838423123
 20
7.0309410458
 30
0.0
 10
11.8777383559
 20
7.0329977467
 30
0.0
 10
11.868504474
 20
7.0358310005
 30
0.0
 10
11.8591962979
 20
7.0383948043
 30
0.0
 10
11.8498135453
 20
7.0406723773
 30
0.0
 10
11.84035645
 20
7.0426464857
 30
0.0
 10
11.8308259952
 20
7.0442995755
 30
0.0
 10
11.8212239946
 20
7.0456140121
 30
0.0
 10
11.8115532068
 20
7.0465723635
 30
0.0
 10
11.801817422
 20
7.0471577359
 30
0.0
 10
11.7920215285
 20
7.04735415
 30
0.0
 10
11.7821715412
 20
7.0471469756
 30
0.0
 10
11.7722745825
 20
7.0465233552
 30
0.0
 10
11.7623388121
 20
7.0454726191
 30
0.0
 10
11.752373293
 20
7.0439867098
 30
0.0
 10
11.7423878103
 20
7.0420604633
 30
0.0
 10
11.7323926406
 20
7.0396918475
 30
0.0
 10
11.7223982808
 20
7.0368820929
 30
0.0
 10
11.7124151864
 20
7.0336356228
 30
0.0
 10
11.7024534868
 20
7.0299599576
 30
0.0
 10
11.6925227473
 20
7.0258654304
 30
0.0
 10
11.6826317681
 20
7.0213648279
 30
0.0
 10
11.6727884139
 20
7.0164730108
 30
0.0
 10
11.6629995242
 20
7.011206439
 30
0.0
 10
11.6532708572
 20
7.0055827346
 30
0.0
 10
11.6436070813
 20
6.9996202628
 30
0.0
 10
11.6340118169
 20
6.993337732
 30
0.0
 10
11.6244877001
 20
6.9867538614
 30
0.0
 10
11.6150364663
 20
6.9798871008
 30
0.0
 10
11.6056590538
 20
6.9727554059
 30
0.0
 10
11.5963556976
 20
6.9653760604
 30
0.0
 10
11.5871260781
 20
6.9577655965
 30
0.0
 10
11.5810416227
 20
6.9525654174
 30
0.0
 10
11.5780105414
 20
6.9499316046
 30
0.0
  0
SPLINE
  5
32B
100
AcDbEntity
  8
0
100
AcDbSpline
 62
7
  6
CONTINUOUS
 70
0
 71
3
 72
14
 73
10
 74
0
 42
0.0000001
 43
0.0000001
 44
0.0000000001
 40
0.0
 40
0.0
 40
0.0
 40
0.0
 40
0.2305165134
 40
0.3502439692
 40
0.4731767868
 40
0.599478273
 40
0.7292970445
 40
0.8627663234
 40
1.0
 40
1.0
 40
1.0
 40
1.0
 10
11.8465017414
 20
7.1141394017
 30
0.0
 10
11.8458804786
 20
7.1129830082
 30
0.0
 10
11.8448509356
 20
7.1112706215
 30
0.0
 10
11.8433186859
 20
7.1090535817
 30
0.0
 10
11.8420545071
 20
7.1073745539
 30
0.0
 10
11.8406903794
 20
7.105701026
 30
0.0
 10
11.8392265682
 20
7.1040332562
 30
0.0
 10
11.8376634736
 20
7.1023716907
 30
0.0
 10
11.8365709136
 20
7.1012837299
 30
0.0
 10
11.8360088172
 20
7.1007407864
 30
0.0
  0
SPLINE
  5
32C
100
AcDbEntity
  8
0
100
AcDbSpline
 62
7
  6
CONTINUOUS
 70
0
 71
3
 72
110
 73
106
 74
0
 42
0.0000001
 43
0.0000001
 44
0.0000000001
 40
0.0
 40
0.0
 40
0.0
 40
0.0
 40
0.0014030775
 40
0.0028086244
 40
0.004219096
 40
0.0056369192
 40
0.0070644805
 40
0.0085041121
 40
0.0114280028
 40
0.01442644
 40
0.0175152602
 40
0.0207087818
 40
0.024019763
 40
0.0274594303
 40
0.0310375548
 40
0.0347625543
 40
0.038641609
 40
0.0426807848
 40
0.0468851507
 40
0.0512588857
 40
0.055805377
 40
0.0605273108
 40
0.0654267497
 40
0.070505199
 40
0.0757636652
 40
0.0812027097
 40
0.0868224931
 40
0.0926228105
 40
0.0986031262
 40
0.1047626041
 40
0.1111001327
 40
0.1176143438
 40
0.1243036342
 40
0.1311661835
 40
0.1381999688
 40
0.1454027747
 40
0.1527722084
 40
0.1603057108
 40
0.168000565
 40
0.1758539029
 40
0.1838627161
 40
0.1920238636
 40
0.2003340763
 40
0.2087899627
 40
0.2173880174
 40
0.2261246264
 40
0.2349960693
 40
0.2531279235
 40
0.2717520782
 40
0.2908354696
 40
0.3103437816
 40
0.330241557
 40
0.3504923218
 40
0.3710586878
 40
0.3919024673
 40
0.4129847728
 40
0.4342661242
 40
0.4557065486
 40
0.4772656827
 40
0.4989028731
 40
0.5205772753
 40
0.5422479554
 40
0.5638739874
 40
0.5854145548
 40
0.6068290491
 40
0.6280771705
 40
0.6491190287
 40
0.6699152426
 40
0.6904270459
 40
0.7106163861
 40
0.7304460359
 40
0.7498796945
 40
0.7688821073
 40
0.7874191726
 40
0.8054580737
 40
0.8142809223
 40
0.8229675733
 40
0.8315143444
 40
0.8399176582
 40
0.8481740509
 40
0.8562801766
 40
0.8642328111
 40
0.872028859
 40
0.8796653636
 40
0.8871395121
 40
0.8944486424
 40
0.9015902534
 40
0.9085620175
 40
0.9153617887
 40
0.9219876142
 40
0.9284377499
 40
0.9347106783
 40
0.9408051225
 40
0.9467200661
 40
0.9524547794
 40
0.9580088454
 40
0.9633821877
 40
0.9685751059
 40
0.9735883186
 40
0.9784230084
 40
0.983080877
 40
0.9875642035
 40
0.9918759069
 40
0.9960197037
 40
1.0
 40
1.0
 40
1.0
 40
1.0
 10
10.9955755029
 20
7.1293778446
 30
0.0
 10
10.9955755022
 20
7.1289628662
 30
0.0
 10
10.9955935698
 20
7.1281320659
 30
0.0
 10
10.9956748557
 20
7.126886492
 30
0.0
 10
10.9958103165
 20
7.125641232
 30
0.0
 10
10.9959999273
 20
7.124396491
 30
0.0
 10
10.9962436728
 20
7.1231524073
 30
0.0
 10
10.9966427683
 20
7.1214863404
 30
0.0
 10
10.9972803622
 20
7.1194017059
 30
0.0
 10
10.9982576944
 20
7.1169195178
 30
0.0
 10
10.9994504595
 20
7.1144446663
 30
0.0
 10
11.0008577717
 20
7.1119784817
 30
0.0
 10
11.0024787123
 20
7.1095220725
 30
0.0
 10
11.0043123058
 20
7.1070765598
 30
0.0
 10
11.0063575245
 20
7.104643039
 30
0.0
 10
11.008613276
 20
7.1022226089
 30
0.0
 10
11.0110783912
 20
7.0998163714
 30
0.0
 10
11.0137516197
 20
7.0974254391
 30
0.0
 10
11.0166316222
 20
7.0950509349
 30
0.0
 10
11.0197169635
 20
7.0926939889
 30
0.0
 10
11.0230061082
 20
7.0903557351
 30
0.0
 10
11.026497421
 20
7.0880373114
 30
0.0
 10
11.0301891654
 20
7.0857398565
 30
0.0
 10
11.0340795012
 20
7.0834645055
 30
0.0
 10
11.0381664855
 20
7.0812123884
 30
0.0
 10
11.0424480746
 20
7.0789846293
 30
0.0
 10
11.0469221246
 20
7.0767823452
 30
0.0
 10
11.051586391
 20
7.0746066417
 30
0.0
 10
11.0564385307
 20
7.0724586134
 30
0.0
 10
11.0614761043
 20
7.0703393437
 30
0.0
 10
11.0666965772
 20
7.0682499034
 30
0.0
 10
11.0720973194
 20
7.0661913478
 30
0.0
 10
11.0776756084
 20
7.0641647178
 30
0.0
 10
11.0834286312
 20
7.0621710395
 30
0.0
 10
11.0893534855
 20
7.0602113231
 30
0.0
 10
11.0954471799
 20
7.0582865603
 30
0.0
 10
11.1017066369
 20
7.0563977263
 30
0.0
 10
11.1081286952
 20
7.0545457788
 30
0.0
 10
11.11471011
 20
7.0527316567
 30
0.0
 10
11.1214475548
 20
7.0509562788
 30
0.0
 10
11.1283376239
 20
7.0492205451
 30
0.0
 10
11.1353768343
 20
7.0475253361
 30
0.0
 10
11.1425616268
 20
7.0458715114
 30
0.0
 10
11.1498883679
 20
7.0442599082
 30
0.0
 10
11.1573533509
 20
7.0426913451
 30
0.0
 10
11.1649528055
 20
7.0411666128
 30
0.0
 10
11.1753348588
 20
7.0391787152
 30
0.0
 10
11.1886213649
 20
7.0368122868
 30
0.0
 10
11.2049260624
 20
7.0341795223
 30
0.0
 10
11.2216721207
 20
7.0317389001
 30
0.0
 10
11.2388256452
 20
7.0294953876
 30
0.0
 10
11.2563519587
 20
7.0274535483
 30
0.0
 10
11.27421561
 20
7.0256175393
 30
0.0
 10
11.2923804652
 20
7.0239910927
 30
0.0
 10
11.3108097758
 20
7.0225775192
 30
0.0
 10
11.3294662557
 20
7.0213796911
 30
0.0
 10
11.3483121566
 20
7.020400046
 30
0.0
 10
11.3673093455
 20
7.0196405741
 30
0.0
 10
11.3864193814
 20
7.0191028205
 30
0.0
 10
11.4056035942
 20
7.0187878778
 30
0.0
 10
11.4248231632
 20
7.0186963863
 30
0.0
 10
11.4440391955
 20
7.0188285323
 30
0.0
 10
11.4632128059
 20
7.0191840465
 30
0.0
 10
11.4823051948
 20
7.0197622073
 30
0.0
 10
11.5012777282
 20
7.0205618378
 30
0.0
 10
11.5200920153
 20
7.0215813143
 30
0.0
 10
11.5387099871
 20
7.0228185617
 30
0.0
 10
11.5570939737
 20
7.0242710668
 30
0.0
 10
11.5752067813
 20
7.0259358729
 30
0.0
 10
11.5930117673
 20
7.0278095968
 30
0.0
 10
11.6104729171
 20
7.0298884236
 30
0.0
 10
11.6275549125
 20
7.032168127
 30
0.0
 10
11.6442232221
 20
7.0346440632
 30
0.0
 10
11.6604441095
 20
7.0373111993
 30
0.0
 10
11.6736568429
 20
7.0397058938
 30
0.0
 10
11.683976935
 20
7.0417159355
 30
0.0
 10
11.691527934
 20
7.0432566983
 30
0.0
 10
11.6989430806
 20
7.0448410044
 30
0.0
 10
11.7062186293
 20
7.0464680568
 30
0.0
 10
11.7133508994
 20
7.0481370288
 30
0.0
 10
11.720336285
 20
7.0498470743
 30
0.0
 10
11.7271712539
 20
7.0515973263
 30
0.0
 10
11.7338523505
 20
7.0533868985
 30
0.0
 10
11.7403761982
 20
7.055214883
 30
0.0
 10
11.7467395005
 20
7.0570803529
 30
0.0
 10
11.7529390423
 20
7.0589823631
 30
0.0
 10
11.7589716918
 20
7.0609199505
 30
0.0
 10
11.7648344036
 20
7.0628921327
 30
0.0
 10
11.7705242189
 20
7.0648979105
 30
0.0
 10
11.7760382667
 20
7.0669362689
 30
0.0
 10
11.7813737664
 20
7.0690061772
 30
0.0
 10
11.7865280301
 20
7.0711065876
 30
0.0
 10
11.7914984625
 20
7.0732364388
 30
0.0
 10
11.7962825623
 20
7.0753946566
 30
0.0
 10
11.8008779248
 20
7.0775801537
 30
0.0
 10
11.805282244
 20
7.0797918299
 30
0.0
 10
11.8094933116
 20
7.0820285752
 30
0.0
 10
11.8135090188
 20
7.0842892715
 30
0.0
 10
11.8173273587
 20
7.0865727922
 30
0.0
 10
11.8209464269
 20
7.088878003
 30
0.0
 10
11.8243644224
 20
7.0912037698
 30
0.0
 10
11.8275796344
 20
7.0935489485
 30
0.0
 10
11.8305904976
 20
7.0959124246
 30
0.0
 10
11.8333954241
 20
7.0982929915
 30
0.0
 10
11.8351620931
 20
7.0999229137
 30
0.0
 10
11.8360088172
 20
7.1007407864
 30
0.0
  0
SPLINE
  5
32D
100
AcDbEntity
  8
0
100
AcDbSpline
 62
7
  6
CONTINUOUS
 70
0
 71
3
 72
32
 73
28
 74
0
 42
0.0000001
 43
0.0000001
 44
0.0000000001
 40
0.0
 40
0.0
 40
0.0
 40
0.0
 40
0.0668467461
 40
0.1330343711
 40
0.1985498456
 40
0.2633895225
 40
0.2955589434
 40
0.3275629011
 40
0.3594039835
 40
0.3910854601
 40
0.4226112559
 40
0.4539859114
 40
0.4852145321
 40
0.5163027271
 40
0.54725654
 40
0.5780823734
 40
0.6087869096
 40
0.6393770305
 40
0.6698597382
 40
0.7002420785
 40
0.7305310697
 40
0.7607336373
 40
0.790856557
 40
0.8209064041
 40
0.880809966
 40
0.940493758
 40
1.0
 40
1.0
 40
1.0
 40
1.0
 10
11.8291007828
 20
6.5772385256
 30
0.0
 10
11.8239227408
 20
6.574680527
 30
0.0
 10
11.813546573
 20
6.5697320431
 30
0.0
 10
11.7978468147
 20
6.5628126378
 30
0.0
 10
11.7820949309
 20
6.5564620267
 30
0.0
 10
11.768899012
 20
6.5516530755
 30
0.0
 10
11.7583279394
 20
6.5481165255
 30
0.0
 10
11.7504143668
 20
6.5456269916
 30
0.0
 10
11.7424968314
 20
6.5432952156
 30
0.0
 10
11.7345770111
 20
6.5411224277
 30
0.0
 10
11.7266566421
 20
6.5391094332
 30
0.0
 10
11.7187374587
 20
6.5372565805
 30
0.0
 10
11.7108211855
 20
6.5355637632
 30
0.0
 10
11.7029095165
 20
6.5340304217
 30
0.0
 10
11.6950040978
 20
6.532655554
 30
0.0
 10
11.6871065117
 20
6.5314377319
 30
0.0
 10
11.6792182617
 20
6.5303751226
 30
0.0
 10
11.6713407604
 20
6.5294655161
 30
0.0
 10
11.6634753188
 20
6.5287063556
 30
0.0
 10
11.6556231388
 20
6.5280947722
 30
0.0
 10
11.6477853051
 20
6.5276276209
 30
0.0
 10
11.6399627929
 20
6.5273015168
 30
0.0
 10
11.6321564245
 20
6.5271128785
 30
0.0
 10
11.6217819246
 20
6.5270397097
 30
0.0
 10
11.6088531352
 20
6.5272719528
 30
0.0
 10
11.5933965736
 20
6.5280386172
 30
0.0
 10
11.5831294628
 20
6.528854109
 30
0.0
 10
11.5780105414
 20
6.5293323788
 30
0.0
  0
SPLINE
  5
32E
100
AcDbEntity
  8
0
100
AcDbSpline
 62
7
  6
CONTINUOUS
 70
0
 71
3
 72
85
 73
81
 74
0
 42
0.0000001
 43
0.0000001
 44
0.0000000001
 40
0.0
 40
0.0
 40
0.0
 40
0.0
 40
0.0039801755
 40
0.0081241211
 40
0.0124359992
 40
0.0169193694
 40
0.0215772468
 40
0.0264119948
 40
0.0314252716
 40
0.036618263
 40
0.0419916661
 40
0.0475457929
 40
0.0532805805
 40
0.0591955875
 40
0.0715626143
 40
0.0846383153
 40
0.0984096556
 40
0.1128602549
 40
0.1279708112
 40
0.1437194381
 40
0.1600819386
 40
0.1770320333
 40
0.1945415658
 40
0.2125806771
 40
0.2311179593
 40
0.2501205956
 40
0.2695544871
 40
0.2893843733
 40
0.3095739538
 40
0.3300859996
 40
0.3508824608
 40
0.3719245709
 40
0.3931729488
 40
0.4145877017
 40
0.457754079
 40
0.5010989561
 40
0.5442950696
 40
0.5657357599
 40
0.5870173776
 40
0.6080999494
 40
0.6289439925
 40
0.6495106191
 40
0.6697616414
 40
0.689659674
 40
0.709168241
 40
0.7282518859
 40
0.7468762864
 40
0.7650083809
 40
0.7826164962
 40
0.7996704822
 40
0.8161418627
 40
0.8320040043
 40
0.8472323103
 40
0.861804453
 40
0.8757006387
 40
0.8889039295
 40
0.9014006481
 40
0.9073810513
 40
0.9131814645
 40
0.9188013272
 40
0.9242404634
 40
0.9294990094
 40
0.9345775386
 40
0.9394770609
 40
0.9441990652
 40
0.9487456382
 40
0.9531194389
 40
0.9573238773
 40
0.961363122
 40
0.9652422377
 40
0.9689673054
 40
0.9725454842
 40
0.9759852134
 40
0.9824864129
 40
0.9855752855
 40
0.9885737661
 40
0.9914977029
 40
0.9943643139
 40
0.9971920003
 40
1.0
 40
1.0
 40
1.0
 40
1.0
 10
10.9927555909
 20
10.238592313
 30
0.0
 10
10.991902962
 20
10.2377687367
 30
0.0
 10
10.9901239007
 20
10.2361274055
 30
0.0
 10
10.987299294
 20
10.2337301115
 30
0.0
 10
10.9842672628
 20
10.2313500041
 30
0.0
 10
10.9810294715
 20
10.2289883655
 30
0.0
 10
10.9775875101
 20
10.226646287
 30
0.0
 10
10.9739430529
 20
10.2243249202
 30
0.0
 10
10.9700979268
 20
10.2220253614
 30
0.0
 10
10.9660540377
 20
10.2197488079
 30
0.0
 10
10.9618134249
 20
10.2174963646
 30
0.0
 10
10.9573782072
 20
10.2152691713
 30
0.0
 10
10.9527505969
 20
10.2130683337
 30
0.0
 10
10.9462299419
 20
10.210126764
 30
0.0
 10
10.9376076008
 20
10.206532114
 30
0.0
 10
10.9266807111
 20
10.2024025485
 30
0.0
 10
10.9150472127
 20
10.1984037144
 30
0.0
 10
10.9027305243
 20
10.1945437265
 30
0.0
 10
10.8897553055
 20
10.1908304289
 30
0.0
 10
10.8761476519
 20
10.187271381
 30
0.0
 10
10.8619349611
 20
10.1838738325
 30
0.0
 10
10.8471458908
 20
10.180644702
 30
0.0
 10
10.8318102861
 20
10.177590567
 30
0.0
 10
10.8159591141
 20
10.1747176481
 30
0.0
 10
10.7996243973
 20
10.1720317966
 30
0.0
 10
10.7828391477
 20
10.1695384825
 30
0.0
 10
10.7656372994
 20
10.1672427823
 30
0.0
 10
10.7480536384
 20
10.1651493658
 30
0.0
 10
10.7301237287
 20
10.1632624916
 30
0.0
 10
10.7118838388
 20
10.1615859984
 30
0.0
 10
10.6933708647
 20
10.1601232953
 30
0.0
 10
10.6746222691
 20
10.1588773642
 30
0.0
 10
10.6556759534
 20
10.1578507185
 30
0.0
 10
10.6301351279
 20
10.1567743095
 30
0.0
 10
10.5979972841
 20
10.1559924523
 30
0.0
 10
10.5593626786
 20
10.155951687
 30
0.0
 10
10.5272066759
 20
10.1566655893
 30
0.0
 10
10.5016371213
 20
10.1576877423
 30
0.0
 10
10.4826589602
 20
10.158674266
 30
0.0
 10
10.4638715736
 20
10.1598804861
 30
0.0
 10
10.4453129427
 20
10.1613039722
 30
0.0
 10
10.427020624
 20
10.162941824
 30
0.0
 10
10.4090316204
 20
10.1647907097
 30
0.0
 10
10.3913823197
 20
10.1668468673
 30
0.0
 10
10.3741084182
 20
10.1691061134
 30
0.0
 10
10.3572448485
 20
10.1715638511
 30
0.0
 10
10.3408257066
 20
10.1742150797
 30
0.0
 10
10.3248841786
 20
10.1770544008
 30
0.0
 10
10.309452472
 20
10.1800760307
 30
0.0
 10
10.2945617493
 20
10.1832738141
 30
0.0
 10
10.2802420626
 20
10.1866412373
 30
0.0
 10
10.2665222907
 20
10.1901714407
 30
0.0
 10
10.2534300668
 20
10.1938572371
 30
0.0
 10
10.2409917323
 20
10.1976911222
 30
0.0
 10
10.2292322032
 20
10.2016653008
 30
0.0
 10
10.2181751571
 20
10.2057717046
 30
0.0
 10
10.2094410902
 20
10.2093474318
 30
0.0
 10
10.2028289392
 20
10.2122745446
 30
0.0
 10
10.198131919
 20
10.2144655146
 30
0.0
 10
10.1936264619
 20
10.2166832568
 30
0.0
 10
10.1893148068
 20
10.2189266356
 30
0.0
 10
10.1851991271
 20
10.2211945567
 30
0.0
 10
10.1812814748
 20
10.2234858726
 30
0.0
 10
10.1775638016
 20
10.2257994376
 30
0.0
 10
10.1740479758
 20
10.2281341379
 30
0.0
 10
10.1707357231
 20
10.2304887832
 30
0.0
 10
10.1676287178
 20
10.2328622754
 30
0.0
 10
10.1647284814
 20
10.2352534351
 30
0.0
 10
10.1620364724
 20
10.2376611348
 30
0.0
 10
10.1595540354
 20
10.2400842773
 30
0.0
 10
10.1572824535
 20
10.2425216263
 30
0.0
 10
10.1552227579
 20
10.2449724102
 30
0.0
 10
10.1528064917
 20
10.2481948658
 30
0.0
 10
10.1507547181
 20
10.2515042118
 30
0.0
 10
10.149125672
 20
10.2548842042
 30
0.0
 10
10.1481414239
 20
10.2573839694
 30
0.0
 10
10.1473749152
 20
10.2598898049
 30
0.0
 10
10.1468268595
 20
10.2624005188
 30
0.0
 10
10.1464977667
 20
10.2649142982
 30
0.0
 10
10.146424505
 20
10.2665937044
 30
0.0
 10
10.1464245012
 20
10.2674300239
 30
0.0
  0
SPLINE
  5
32F
100
AcDbEntity
  8
0
100
AcDbSpline
 62
7
  6
CONTINUOUS
 70
0
 71
3
 72
40
 73
36
 74
0
 42
0.0000001
 43
0.0000001
 44
0.0000000001
 40
0.0
 40
0.0
 40
0.0
 40
0.0
 40
0.0311448352
 40
0.0467776712
 40
0.0624478163
 40
0.0938928931
 40
0.1254753683
 40
0.1571831038
 40
0.1890013145
 40
0.2209130644
 40
0.2528995674
 40
0.2849405815
 40
0.3170148072
 40
0.349100303
 40
0.3811749104
 40
0.4132166804
 40
0.4452042987
 40
0.4771175008
 40
0.5089374741
 40
0.5406472387
 40
0.5722320012
 40
0.6036794751
 40
0.6349801612
 40
0.6661275796
 40
0.6971184487
 40
0.7279528012
 40
0.7586340346
 40
0.7891688873
 40
0.8195673392
 40
0.849842433
 40
0.8800100174
 40
0.9100884154
 40
0.9400980228
 40
0.9700608475
 40
1.0
 40
1.0
 40
1.0
 40
1.0
 10
9.7515716113
 20
9.9611176628
 30
0.0
 10
9.7556285642
 20
9.9608363122
 30
0.0
 10
9.7617093905
 20
9.960191175
 30
0.0
 10
9.7697609524
 20
9.9588947103
 30
0.0
 10
9.7777997282
 20
9.9573030464
 30
0.0
 10
9.7877676891
 20
9.9547681858
 30
0.0
 10
9.7995203
 20
9.9508773667
 30
0.0
 10
9.8110168546
 20
9.9461545834
 30
0.0
 10
9.8221957129
 20
9.9406251565
 30
0.0
 10
9.8329974086
 20
9.934318622
 30
0.0
 10
9.8433643612
 20
9.9272686551
 30
0.0
 10
9.8532413423
 20
9.9195128733
 30
0.0
 10
9.8625757216
 20
9.9110926413
 30
0.0
 10
9.8713177569
 20
9.9020528508
 30
0.0
 10
9.8794208522
 20
9.8924416844
 30
0.0
 10
9.8868418055
 20
9.8823103606
 30
0.0
 10
9.893541036
 20
9.871712864
 30
0.0
 10
9.8994827939
 20
9.8607056608
 30
0.0
 10
9.9046353507
 20
9.8493474018
 30
0.0
 10
9.9089711671
 20
9.8376986134
 30
0.0
 10
9.91246704
 20
9.825821379
 30
0.0
 10
9.9151042268
 20
9.8137790122
 30
0.0
 10
9.9168685475
 20
9.8016357247
 30
0.0
 10
9.9177504633
 20
9.7894562877
 30
0.0
 10
9.9177451315
 20
9.7773056911
 30
0.0
 10
9.9168524373
 20
9.7652488004
 30
0.0
 10
9.9150770002
 20
9.7533500129
 30
0.0
 10
9.9124281578
 20
9.7416729158
 30
0.0
 10
9.9089199225
 20
9.7302799444
 30
0.0
 10
9.9045709204
 20
9.7192320514
 30
0.0
 10
9.8994042784
 20
9.7085883561
 30
0.0
 10
9.8934475854
 20
9.6984058986
 30
0.0
 10
9.8867324591
 20
9.6887390388
 30
0.0
 10
9.8792954619
 20
9.6796402235
 30
0.0
 10
9.8738803528
 20
9.6739831426
 30
0.0
 10
9.8710686023
 20
9.6712671853
 30
0.0
  0
SPLINE
  5
330
100
AcDbEntity
  8
0
100
AcDbSpline
 62
7
  6
CONTINUOUS
 70
0
 71
3
 72
40
 73
36
 74
0
 42
0.0000001
 43
0.0000001
 44
0.0000000001
 40
0.0
 40
0.0
 40
0.0
 40
0.0
 40
0.0311448352
 40
0.0467776712
 40
0.0624478163
 40
0.0938928931
 40
0.1254753683
 40
0.1571831038
 40
0.1890013145
 40
0.2209130644
 40
0.2528995674
 40
0.2849405815
 40
0.3170148072
 40
0.349100303
 40
0.3811749104
 40
0.4132166804
 40
0.4452042987
 40
0.4771175008
 40
0.5089374741
 40
0.5406472387
 40
0.5722320012
 40
0.6036794751
 40
0.6349801612
 40
0.6661275796
 40
0.6971184487
 40
0.7279528012
 40
0.7586340346
 40
0.7891688873
 40
0.8195673392
 40
0.849842433
 40
0.8800100174
 40
0.9100884154
 40
0.9400980228
 40
0.9700608475
 40
1.0
 40
1.0
 40
1.0
 40
1.0
 10
11.9249048493
 20
7.6370632529
 30
0.0
 10
11.9289618021
 20
7.6367819023
 30
0.0
 10
11.9350426284
 20
7.6361367651
 30
0.0
 10
11.9430941904
 20
7.6348403004
 30
0.0
 10
11.9511329661
 20
7.6332486365
 30
0.0
 10
11.961100927
 20
7.6307137759
 30
0.0
 10
11.9728535379
 20
7.6268229568
 30
0.0
 10
11.9843500925
 20
7.6221001735
 30
0.0
 10
11.9955289509
 20
7.6165707466
 30
0.0
 10
12.0063306465
 20
7.6102642121
 30
0.0
 10
12.0166975991
 20
7.6032142452
 30
0.0
 10
12.0265745802
 20
7.5954584635
 30
0.0
 10
12.0359089596
 20
7.5870382314
 30
0.0
 10
12.0446509948
 20
7.5779984409
 30
0.0
 10
12.0527540902
 20
7.5683872745
 30
0.0
 10
12.0601750434
 20
7.5582559507
 30
0.0
 10
12.066874274
 20
7.5476584541
 30
0.0
 10
12.0728160319
 20
7.5366512509
 30
0.0
 10
12.0779685886
 20
7.5252929919
 30
0.0
 10
12.082304405
 20
7.5136442035
 30
0.0
 10
12.0858002779
 20
7.5017669691
 30
0.0
 10
12.0884374647
 20
7.4897246023
 30
0.0
 10
12.0902017854
 20
7.4775813148
 30
0.0
 10
12.0910837012
 20
7.4654018778
 30
0.0
 10
12.0910783695
 20
7.4532512812
 30
0.0
 10
12.0901856752
 20
7.4411943905
 30
0.0
 10
12.0884102381
 20
7.429295603
 30
0.0
 10
12.0857613957
 20
7.4176185059
 30
0.0
 10
12.0822531604
 20
7.4062255345
 30
0.0
 10
12.0779041583
 20
7.3951776415
 30
0.0
 10
12.0727375163
 20
7.3845339462
 30
0.0
 10
12.0667808234
 20
7.3743514887
 30
0.0
 10
12.060065697
 20
7.3646846289
 30
0.0
 10
12.0526286999
 20
7.3555858136
 30
0.0
 10
12.0472135908
 20
7.3499287327
 30
0.0
 10
12.0444018402
 20
7.3472127755
 30
0.0
  0
SPLINE
  5
331
100
AcDbEntity
  8
0
100
AcDbSpline
 62
7
  6
CONTINUOUS
 70
0
 71
3
 72
53
 73
49
 74
0
 42
0.0000001
 43
0.0000001
 44
0.0000000001
 40
0.0
 40
0.0
 40
0.0
 40
0.0
 40
0.0417740371
 40
0.0840369047
 40
0.1266584536
 40
0.1695064221
 40
0.212448016
 40
0.2553499502
 40
0.2980791306
 40
0.3405031348
 40
0.382490749
 40
0.4239124945
 40
0.4646411616
 40
0.5045523515
 40
0.5435250275
 40
0.5814420819
 40
0.6181909261
 40
0.6536641145
 40
0.6877600167
 40
0.72038356
 40
0.7361158328
 40
0.7514478069
 40
0.7663698229
 40
0.7808728747
 40
0.7949485304
 40
0.808589127
 40
0.8217876764
 40
0.8345380756
 40
0.8468350633
 40
0.8586743964
 40
0.8700529164
 40
0.8809686715
 40
0.8914211252
 40
0.901411244
 40
0.9109418555
 40
0.9200177659
 40
0.9286462506
 40
0.9368373022
 40
0.9446042293
 40
0.951964127
 40
0.9589385596
 40
0.9655542544
 40
0.9718437693
 40
0.9778461758
 40
0.9836073577
 40
0.9891800489
 40
0.9946230796
 40
1.0
 40
1.0
 40
1.0
 40
1.0
 10
12.3215499602
 20
9.2901648117
 30
0.0
 10
12.3215499602
 20
9.2993435021
 30
0.0
 10
12.3216931567
 20
9.3178085785
 30
0.0
 10
12.3223262073
 20
9.3456320392
 30
0.0
 10
12.3233769109
 20
9.3736790376
 30
0.0
 10
12.3248418286
 20
9.4018567532
 30
0.0
 10
12.3267161162
 20
9.4300719437
 30
0.0
 10
12.3289935795
 20
9.4582312717
 30
0.0
 10
12.3316666739
 20
9.4862415726
 30
0.0
 10
12.3347265382
 20
9.5140101825
 30
0.0
 10
12.3381630208
 20
9.5414452408
 30
0.0
 10
12.3419647134
 20
9.5684559988
 30
0.0
 10
12.3461189881
 20
9.5949531217
 30
0.0
 10
12.3506120379
 20
9.6208489893
 30
0.0
 10
12.3554289219
 20
9.6460579883
 30
0.0
 10
12.3605536135
 20
9.6704968065
 30
0.0
 10
12.3659690545
 20
9.6940846976
 30
0.0
 10
12.3716572025
 20
9.7167438223
 30
0.0
 10
12.37759912
 20
9.7383992932
 30
0.0
 10
12.3828066384
 20
9.755753381
 30
0.0
 10
12.3870931824
 20
9.7690747
 30
0.0
 10
12.3903201767
 20
9.7786501133
 30
0.0
 10
12.3935955001
 20
9.7879231557
 30
0.0
 10
12.396916428
 20
9.7968861871
 30
0.0
 10
12.4002802397
 20
9.8055318047
 30
0.0
 10
12.4036841094
 20
9.8138528895
 30
0.0
 10
12.4071252565
 20
9.8218425795
 30
0.0
 10
12.4106008008
 20
9.8294943081
 30
0.0
 10
12.4141078935
 20
9.8368017821
 30
0.0
 10
12.4176436293
 20
9.843759009
 30
0.0
 10
12.4212050953
 20
9.8503602934
 30
0.0
 10
12.4247893858
 20
9.8566002368
 30
0.0
 10
12.4283935425
 20
9.8624737692
 30
0.0
 10
12.4320146813
 20
9.8679761046
 30
0.0
 10
12.4356498375
 20
9.873102818
 30
0.0
 10
12.4392961724
 20
9.8778497518
 30
0.0
 10
12.4429507786
 20
9.8822131252
 30
0.0
 10
12.4466108961
 20
9.8861894109
 30
0.0
 10
12.4502737586
 20
9.8897754274
 30
0.0
 10
12.4539367331
 20
9.892968229
 30
0.0
 10
12.4575972612
 20
9.8957651045
 30
0.0
 10
12.4612528513
 20
9.8981635344
 30
0.0
 10
12.4649010823
 20
9.9001610306
 30
0.0
 10
12.4685394191
 20
9.901755243
 30
0.0
 10
12.472165105
 20
9.9029437004
 30
0.0
 10
12.4757751085
 20
9.9037242034
 30
0.0
 10
12.4793650782
 20
9.904094763
 30
0.0
 10
12.4817485139
 20
9.9040675889
 30
0.0
 10
12.4829271132
 20
9.903985858
 30
0.0
  0
SPLINE
  5
332
100
AcDbEntity
  8
0
100
AcDbSpline
 62
7
  6
CONTINUOUS
 70
0
 71
3
 72
17
 73
13
 74
0
 42
0.0000001
 43
0.0000001
 44
0.0000000001
 40
0.0
 40
0.0
 40
0.0
 40
0.0
 40
0.0548647409
 40
0.1099334006
 40
0.1654074856
 40
0.2214837901
 40
0.3361456859
 40
0.4553801965
 40
0.5804212901
 40
0.7123203437
 40
0.8519511008
 40
1.0
 40
1.0
 40
1.0
 40
1.0
 10
11.0074244948
 20
10.2674305705
 30
0.0
 10
11.0074244976
 20
10.2668225788
 30
0.0
 10
11.0073859127
 20
10.2656039843
 30
0.0
 10
11.0072124302
 20
10.2637780858
 30
0.0
 10
11.0069233279
 20
10.261953196
 30
0.0
 10
11.0063800434
 20
10.2595046244
 30
0.0
 10
11.0054012549
 20
10.2564355954
 30
0.0
 10
11.0037739855
 20
10.252798005
 30
0.0
 10
11.0016888925
 20
10.2491806708
 30
0.0
 10
10.9991494504
 20
10.2455871446
 30
0.0
 10
10.9961594113
 20
10.2420205297
 30
0.0
 10
10.9939356183
 20
10.239732132
 30
0.0
 10
10.9927555909
 20
10.238592313
 30
0.0
  0
SPLINE
  5
333
100
AcDbEntity
  8
0
100
AcDbSpline
 62
7
  6
CONTINUOUS
 70
0
 71
3
 72
21
 73
17
 74
0
 42
0.0000001
 43
0.0000001
 44
0.0000000001
 40
0.0
 40
0.0
 40
0.0
 40
0.0
 40
0.0616532342
 40
0.1233294953
 40
0.1850515501
 40
0.2468416649
 40
0.3087213494
 40
0.3707111104
 40
0.4328302434
 40
0.4950966323
 40
0.5575265657
 40
0.6201345673
 40
0.682933156
 40
0.7459330948
 40
0.8725263949
 40
1.0
 40
1.0
 40
1.0
 40
1.0
 10
9.6320746204
 20
9.9186896363
 30
0.0
 10
9.6340048218
 20
9.9205540778
 30
0.0
 10
9.6379670542
 20
9.9241805945
 30
0.0
 10
9.6441954059
 20
9.9292940898
 30
0.0
 10
9.6506942123
 20
9.9340695994
 30
0.0
 10
9.6574468784
 20
9.9384948837
 30
0.0
 10
9.6644364527
 20
9.9425588462
 30
0.0
 10
9.6716453084
 20
9.9462512321
 30
0.0
 10
9.6790552712
 20
9.9495627808
 30
0.0
 10
9.6866476652
 20
9.9524851673
 30
0.0
 10
9.6944033868
 20
9.9550110282
 30
0.0
 10
9.7023028347
 20
9.9571340172
 30
0.0
 10
9.7103263315
 20
9.9588488474
 30
0.0
 10
9.7211780576
 20
9.9605879153
 30
0.0
 10
9.7349580179
 20
9.9617177341
 30
0.0
 10
9.7460362794
 20
9.9615015394
 30
0.0
 10
9.7515716113
 20
9.9611176628
 30
0.0
  0
SPLINE
  5
334
100
AcDbEntity
  8
0
100
AcDbSpline
 62
7
  6
CONTINUOUS
 70
0
 71
3
 72
21
 73
17
 74
0
 42
0.0000001
 43
0.0000001
 44
0.0000000001
 40
0.0
 40
0.0
 40
0.0
 40
0.0
 40
0.0616532342
 40
0.1233294953
 40
0.1850515501
 40
0.2468416649
 40
0.3087213494
 40
0.3707111104
 40
0.4328302434
 40
0.4950966323
 40
0.5575265657
 40
0.6201345673
 40
0.682933156
 40
0.7459330948
 40
0.8725263949
 40
1.0
 40
1.0
 40
1.0
 40
1.0
 10
11.8054078583
 20
7.5946352264
 30
0.0
 10
11.8073380598
 20
7.5964996679
 30
0.0
 10
11.8113002921
 20
7.6001261846
 30
0.0
 10
11.8175286438
 20
7.6052396799
 30
0.0
 10
11.8240274502
 20
7.6100151895
 30
0.0
 10
11.8307801163
 20
7.6144404738
 30
0.0
 10
11.8377696906
 20
7.6185044363
 30
0.0
 10
11.8449785464
 20
7.6221968223
 30
0.0
 10
11.8523885091
 20
7.6255083709
 30
0.0
 10
11.8599809031
 20
7.6284307574
 30
0.0
 10
11.8677366247
 20
7.6309566184
 30
0.0
 10
11.8756360726
 20
7.6330796073
 30
0.0
 10
11.8836595694
 20
7.6347944375
 30
0.0
 10
11.8945112955
 20
7.6365335054
 30
0.0
 10
11.9082912558
 20
7.6376633242
 30
0.0
 10
11.9193695173
 20
7.6374471295
 30
0.0
 10
11.9249048493
 20
7.6370632529
 30
0.0
  0
SPLINE
  5
335
100
AcDbEntity
  8
0
100
AcDbSpline
 62
7
  6
CONTINUOUS
 70
0
 71
3
 72
48
 73
44
 74
0
 42
0.0000001
 43
0.0000001
 44
0.0000000001
 40
0.0
 40
0.0
 40
0.0
 40
0.0
 40
0.0063158899
 40
0.0126706797
 40
0.0191025165
 40
0.025648058
 40
0.0323419221
 40
0.0392162652
 40
0.0536140552
 40
0.0611947659
 40
0.0690564915
 40
0.0772175997
 40
0.0856939645
 40
0.0944993396
 40
0.103645447
 40
0.1131421893
 40
0.122997946
 40
0.1332195527
 40
0.1438126331
 40
0.1547816545
 40
0.1661299881
 40
0.1778601838
 40
0.1899738557
 40
0.215353302
 40
0.2422691224
 40
0.2707113841
 40
0.3006623731
 40
0.332097648
 40
0.3649869327
 40
0.3992948208
 40
0.434981328
 40
0.4720023222
 40
0.5103099054
 40
0.5498527799
 40
0.590576537
 40
0.632423903
 40
0.6753349407
 40
0.7192473098
 40
0.7640964278
 40
0.8098157282
 40
0.8563368617
 40
0.9035891153
 40
1.0
 40
1.0
 40
1.0
 40
1.0
 10
12.4148505374
 20
8.922343577
 30
0.0
 10
12.4140189638
 20
8.9224012431
 30
0.0
 10
12.4123546254
 20
8.9225850016
 30
0.0
 10
12.4098767609
 20
8.9230639362
 30
0.0
 10
12.4074154657
 20
8.9237462262
 30
0.0
 10
12.4049721729
 20
8.9246312855
 30
0.0
 10
12.4025478318
 20
8.9257185976
 30
0.0
 10
12.3992926128
 20
8.9274635632
 30
0.0
 10
12.3961257716
 20
8.9295996353
 30
0.0
 10
12.3930610952
 20
8.9320750415
 30
0.0
 10
12.3907462167
 20
8.9341620894
 30
0.0
 10
12.3884560747
 20
8.9364463857
 30
0.0
 10
12.386191211
 20
8.9389270879
 30
0.0
 10
12.3839525741
 20
8.9416031447
 30
0.0
 10
12.3817409832
 20
8.9444734636
 30
0.0
 10
12.3795572686
 20
8.9475368592
 30
0.0
 10
12.3774023185
 20
8.9507921141
 30
0.0
 10
12.3752769396
 20
8.9542378851
 30
0.0
 10
12.3731819946
 20
8.9578727865
 30
0.0
 10
12.3711183293
 20
8.961695346
 30
0.0
 10
12.3690867485
 20
8.9657039951
 30
0.0
 10
12.3670880916
 20
8.9698971252
 30
0.0
 10
12.364426788
 20
8.9758240064
 30
0.0
 10
12.3611971586
 20
8.9836900488
 30
0.0
 10
12.3575235082
 20
8.9936947732
 30
0.0
 10
12.3539998781
 20
9.0043903113
 30
0.0
 10
12.3506320826
 20
9.0157591614
 30
0.0
 10
12.3474256812
 20
9.0277828663
 30
0.0
 10
12.3443859932
 20
9.0404417671
 30
0.0
 10
12.3415180729
 20
9.0537151393
 30
0.0
 10
12.3388266989
 20
9.0675812088
 30
0.0
 10
12.3363163556
 20
9.0820171953
 30
0.0
 10
12.3339912205
 20
9.0969993535
 30
0.0
 10
12.3318551683
 20
9.112503023
 30
0.0
 10
12.3299117604
 20
9.1285026743
 30
0.0
 10
12.3281642406
 20
9.1449719477
 30
0.0
 10
12.3266155164
 20
9.1618836984
 30
0.0
 10
12.3252681688
 20
9.1792100399
 30
0.0
 10
12.3241244419
 20
9.1969224064
 30
0.0
 10
12.3231862518
 20
9.2149915878
 30
0.0
 10
12.3224551542
 20
9.2333877694
 30
0.0
 10
12.3217534945
 20
9.258478866
 30
0.0
 10
12.3215499602
 20
9.2774405109
 30
0.0
 10
12.3215499602
 20
9.2901648117
 30
0.0
  0
SPLINE
  5
336
100
AcDbEntity
  8
0
100
AcDbSpline
 62
7
  6
CONTINUOUS
 70
0
 71
3
 72
37
 73
33
 74
0
 42
0.0000001
 43
0.0000001
 44
0.0000000001
 40
0.0
 40
0.0
 40
0.0
 40
0.0
 40
0.0063398436
 40
0.0128074085
 40
0.0262345872
 40
0.0404983052
 40
0.0557682835
 40
0.0721776403
 40
0.0898274268
 40
0.1087922354
 40
0.1291250433
 40
0.1508612246
 40
0.1740221495
 40
0.1986175498
 40
0.2246475106
 40
0.2521042458
 40
0.2809730062
 40
0.3112331466
 40
0.3428589962
 40
0.3758201632
 40
0.4100822489
 40
0.4456072559
 40
0.4823536978
 40
0.5202771536
 40
0.5593304187
 40
0.5994636044
 40
0.6406245806
 40
0.6827589951
 40
0.7258103779
 40
0.8144282064
 40
0.90599351
 40
1.0
 40
1.0
 40
1.0
 40
1.0
 10
12.3924042294
 20
9.1078065702
 30
0.0
 10
12.3919086912
 20
9.1079521013
 30
0.0
 10
12.3909183041
 20
9.108283864
 30
0.0
 10
12.3889445024
 20
9.1091072102
 30
0.0
 10
12.38649451
 20
9.1104452479
 30
0.0
 10
12.38364697
 20
9.1124926809
 30
0.0
 10
12.3808568139
 20
9.1149967951
 30
0.0
 10
12.3781270513
 20
9.1179527038
 30
0.0
 10
12.3754601095
 20
9.1213557569
 30
0.0
 10
12.3728589889
 20
9.1252010225
 30
0.0
 10
12.3703268799
 20
9.1294830634
 30
0.0
 10
12.3678671067
 20
9.1341957806
 30
0.0
 10
12.3654831251
 20
9.1393324237
 30
0.0
 10
12.3631783711
 20
9.1448855306
 30
0.0
 10
12.3609562174
 20
9.1508469497
 30
0.0
 10
12.3588200126
 20
9.1572078774
 30
0.0
 10
12.356772962
 20
9.1639588499
 30
0.0
 10
12.3548181566
 20
9.1710897815
 30
0.0
 10
12.3529585949
 20
9.1785899913
 30
0.0
 10
12.3511970894
 20
9.1864482077
 30
0.0
 10
12.3495363272
 20
9.1946526047
 30
0.0
 10
12.3479788634
 20
9.2031908209
 30
0.0
 10
12.346527054
 20
9.2120499731
 30
0.0
 10
12.3451831246
 20
9.2212166874
 30
0.0
 10
12.3439491399
 20
9.2306771168
 30
0.0
 10
12.3428269627
 20
9.2404169637
 30
0.0
 10
12.341818326
 20
9.2504215003
 30
0.0
 10
12.3409247562
 20
9.2606756104
 30
0.0
 10
12.3398785532
 20
9.2747958957
 30
0.0
 10
12.3388760271
 20
9.2929556708
 30
0.0
 10
12.3381597654
 20
9.3152823655
 30
0.0
 10
12.3380041773
 20
9.3304002626
 30
0.0
 10
12.3380041773
 20
9.3380583667
 30
0.0
  0
SPLINE
  5
337
100
AcDbEntity
  8
0
100
AcDbSpline
 62
7
  6
CONTINUOUS
 70
0
 71
3
 72
50
 73
46
 74
0
 42
0.0000001
 43
0.0000001
 44
0.0000000001
 40
0.0
 40
0.0
 40
0.0
 40
0.0
 40
0.0054464999
 40
0.0110657923
 40
0.0169073219
 40
0.0230145274
 40
0.0294246487
 40
0.0361690469
 40
0.0432737047
 40
0.0507597799
 40
0.0586443259
 40
0.0669406986
 40
0.0756592844
 40
0.0848076791
 40
0.0943913461
 40
0.1044136326
 40
0.1148763118
 40
0.1257795433
 40
0.1371222611
 40
0.1489021686
 40
0.1611159515
 40
0.1737593617
 40
0.1868272572
 40
0.20031379
 40
0.2285147349
 40
0.2583027247
 40
0.2896081617
 40
0.3223534961
 40
0.3564541613
 40
0.3918193618
 40
0.4283527584
 40
0.4659530818
 40
0.5045146956
 40
0.5439281249
 40
0.5840805618
 40
0.6248563528
 40
0.6661374744
 40
0.7078040014
 40
0.7497345644
 40
0.7918068251
 40
0.8338978789
 40
0.8758848737
 40
0.9176450098
 40
0.959057109
 40
1.0
 40
1.0
 40
1.0
 40
1.0
 10
12.4350954922
 20
9.7233966434
 30
0.0
 10
12.4343596904
 20
9.7232875639
 30
0.0
 10
12.4328757304
 20
9.7229846842
 30
0.0
 10
12.4306684627
 20
9.7222947909
 30
0.0
 10
12.4284530503
 20
9.7213648973
 30
0.0
 10
12.4262314781
 20
9.720196324
 30
0.0
 10
12.424005108
 20
9.7187904427
 30
0.0
 10
12.4217753945
 20
9.7171486257
 30
0.0
 10
12.4195437719
 20
9.7152722932
 30
0.0
 10
12.4173116867
 20
9.7131629855
 30
0.0
 10
12.4150806935
 20
9.7108223101
 30
0.0
 10
12.4128523064
 20
9.7082520877
 30
0.0
 10
12.4106281856
 20
9.7054542248
 30
0.0
 10
12.4084099024
 20
9.7024308758
 30
0.0
 10
12.4061991746
 20
9.6991842983
 30
0.0
 10
12.4039976135
 20
9.6957169923
 30
0.0
 10
12.4018069488
 20
9.6920315814
 30
0.0
 10
12.3996288194
 20
9.6881309069
 30
0.0
 10
12.3974649356
 20
9.6840179537
 30
0.0
 10
12.3953169535
 20
9.6796958969
 30
0.0
 10
12.3931865445
 20
9.675168069
 30
0.0
 10
12.3910753754
 20
9.670437971
 30
0.0
 10
12.3889850528
 20
9.6655092631
 30
0.0
 10
12.3861862411
 20
9.6585743335
 30
0.0
 10
12.3827598697
 20
9.6494319581
 30
0.0
 10
12.3788154889
 20
9.6378907056
 30
0.0
 10
12.3749918854
 20
9.6256571372
 30
0.0
 10
12.3713010478
 20
9.612769235
 30
0.0
 10
12.3677545569
 20
9.5992669179
 30
0.0
 10
12.3643635348
 20
9.5851921096
 30
0.0
 10
12.3611386121
 20
9.5705885375
 30
0.0
 10
12.3580898934
 20
9.5555016052
 30
0.0
 10
12.3552269266
 20
9.5399782401
 30
0.0
 10
12.3525586731
 20
9.5240667447
 30
0.0
 10
12.3500934807
 20
9.5078166417
 30
0.0
 10
12.3478390582
 20
9.491278517
 30
0.0
 10
12.3458024516
 20
9.4745038602
 30
0.0
 10
12.3439900234
 20
9.4575449031
 30
0.0
 10
12.3424074312
 20
9.4404544536
 30
0.0
 10
12.341059614
 20
9.4232857363
 30
0.0
 10
12.3399507686
 20
9.4060922072
 30
0.0
 10
12.3390843549
 20
9.3889274385
 30
0.0
 10
12.3384630489
 20
9.3718448188
 30
0.0
 10
12.3380887935
 20
9.3548976575
 30
0.0
 10
12.3380041773
 20
9.343650048
 30
0.0
 10
12.3380041773
 20
9.3380583667
 30
0.0
  0
SPLINE
  5
338
100
AcDbEntity
  8
0
100
AcDbSpline
 62
7
  6
CONTINUOUS
 70
0
 71
3
 72
17
 73
13
 74
0
 42
0.0000001
 43
0.0000001
 44
0.0000000001
 40
0.0
 40
0.0
 40
0.0
 40
0.0
 40
0.0548647409
 40
0.1099334006
 40
0.1654074856
 40
0.2214837901
 40
0.3361456859
 40
0.4553801965
 40
0.5804212901
 40
0.7123203437
 40
0.8519511008
 40
1.0
 40
1.0
 40
1.0
 40
1.0
 10
10.1464245012
 20
10.2674300239
 30
0.0
 10
10.1464244985
 20
10.2680380156
 30
0.0
 10
10.1464630833
 20
10.26925661
 30
0.0
 10
10.1466365658
 20
10.2710825085
 30
0.0
 10
10.1469256682
 20
10.2729073984
 30
0.0
 10
10.1474689527
 20
10.27535597
 30
0.0
 10
10.1484477411
 20
10.278424999
 30
0.0
 10
10.1500750105
 20
10.2820625894
 30
0.0
 10
10.1521601035
 20
10.2856799236
 30
0.0
 10
10.1546995456
 20
10.2892734498
 30
0.0
 10
10.1576895848
 20
10.2928400647
 30
0.0
 10
10.1599133777
 20
10.2951284624
 30
0.0
 10
10.1610934052
 20
10.2962682814
 30
0.0
  0
SPLINE
  5
339
100
AcDbEntity
  8
0
100
AcDbSpline
 62
7
  6
CONTINUOUS
 70
0
 71
3
 72
84
 73
80
 74
0
 42
0.0000001
 43
0.0000001
 44
0.0000000001
 40
0.0
 40
0.0
 40
0.0
 40
0.0
 40
0.0039572558
 40
0.00807594
 40
0.0123601222
 40
0.0168132688
 40
0.0214383312
 40
0.0262376665
 40
0.0312129297
 40
0.0363652933
 40
0.0416954815
 40
0.0472038012
 40
0.0528902434
 40
0.0587544004
 40
0.0710123942
 40
0.0839696529
 40
0.0976136734
 40
0.1119286809
 40
0.1268960358
 40
0.142494556
 40
0.1587008046
 40
0.1754893165
 40
0.1928327906
 40
0.2107022491
 40
0.229067186
 40
0.2478957163
 40
0.2671547012
 40
0.2868098641
 40
0.3068258957
 40
0.3271665633
 40
0.3477948232
 40
0.3686729207
 40
0.3897624877
 40
0.4110246371
 40
0.4539084154
 40
0.4970073025
 40
0.5400015204
 40
0.5825723001
 40
0.6036006968
 40
0.6244057173
 40
0.6449491724
 40
0.6651935164
 40
0.6851019446
 40
0.704638497
 40
0.7237681731
 40
0.7424570357
 40
0.7606723199
 40
0.7783825517
 40
0.7955576808
 40
0.8121692329
 40
0.8281904546
 40
0.8435964846
 40
0.8583645549
 40
0.8724742366
 40
0.8859077389
 40
0.8986502483
 40
0.9106903685
 40
0.9164448278
 40
0.9220213061
 40
0.9274195954
 40
0.9326398973
 40
0.9376827741
 40
0.9425492167
 40
0.9472407387
 40
0.9517593385
 40
0.9561076723
 40
0.9602890515
 40
0.9643075439
 40
0.9681681165
 40
0.9718766508
 40
0.9754401493
 40
0.9788667883
 40
0.9821660405
 40
0.9853488169
 40
0.9884274718
 40
0.9914158987
 40
0.9943294567
 40
0.9971848619
 40
1.0
 40
1.0
 40
1.0
 40
1.0
 10
10.1736504417
 20
10.2654537461
 30
0.0
 10
10.1744699989
 20
10.2662453777
 30
0.0
 10
10.1761794298
 20
10.267823107
 30
0.0
 10
10.1788923055
 20
10.2701280534
 30
0.0
 10
10.1818029
 20
10.2724166566
 30
0.0
 10
10.1849096424
 20
10.2746876791
 30
0.0
 10
10.1882110171
 20
10.2769401008
 30
0.0
 10
10.191705458
 20
10.2791728242
 30
0.0
 10
10.1953912447
 20
10.2813848202
 30
0.0
 10
10.199266576
 20
10.283574974
 30
0.0
 10
10.2033295428
 20
10.2857422047
 30
0.0
 10
10.2075781336
 20
10.2878854724
 30
0.0
 10
10.2120102791
 20
10.2900037009
 30
0.0
 10
10.2182541186
 20
10.2928351337
 30
0.0
 10
10.2265090064
 20
10.296296302
 30
0.0
 10
10.2369689997
 20
10.3002744884
 30
0.0
 10
10.2481039407
 20
10.3041286181
 30
0.0
 10
10.2598918066
 20
10.3078510027
 30
0.0
 10
10.2723094058
 20
10.3114342084
 30
0.0
 10
10.2853321902
 20
10.3148710741
 30
0.0
 10
10.2989343909
 20
10.318154723
 30
0.0
 10
10.3130890599
 20
10.3212785822
 30
0.0
 10
10.3277681322
 20
10.3242363953
 30
0.0
 10
10.3429424801
 20
10.3270222407
 30
0.0
 10
10.3585819741
 20
10.3296305481
 30
0.0
 10
10.3746555507
 20
10.3320560993
 30
0.0
 10
10.3911312783
 20
10.3342940421
 30
0.0
 10
10.407976419
 20
10.3363398972
 30
0.0
 10
10.4251574924
 20
10.3381895741
 30
0.0
 10
10.4426403433
 20
10.3398393787
 30
0.0
 10
10.4603902167
 20
10.3412860151
 30
0.0
 10
10.4783718156
 20
10.3425265868
 30
0.0
 10
10.4965494174
 20
10.3435586301
 30
0.0
 10
10.5210680508
 20
10.3446568886
 30
0.0
 10
10.5519399039
 20
10.3454927498
 30
0.0
 10
10.5890804799
 20
10.3456404381
 30
0.0
 10
10.6261245099
 20
10.3449342116
 30
0.0
 10
10.6567926267
 20
10.3436337895
 30
0.0
 10
10.6810521191
 20
10.3421656818
 30
0.0
 10
10.698965982
 20
10.3408611823
 30
0.0
 10
10.7166371412
 20
10.3393514882
 30
0.0
 10
10.7340304932
 20
10.3376395955
 30
0.0
 10
10.7511114515
 20
10.3357289302
 30
0.0
 10
10.7678460642
 20
10.3336233065
 30
0.0
 10
10.7842010728
 20
10.3313269386
 30
0.0
 10
10.8001439819
 20
10.328844421
 30
0.0
 10
10.8156431208
 20
10.32618072
 30
0.0
 10
10.830667707
 20
10.3233411634
 30
0.0
 10
10.8451879136
 20
10.32033143
 30
0.0
 10
10.8591749352
 20
10.3171575485
 30
0.0
 10
10.8726010463
 20
10.3138258735
 30
0.0
 10
10.8854396545
 20
10.3103430736
 30
0.0
 10
10.8976653661
 20
10.3067161146
 30
0.0
 10
10.9092540277
 20
10.302952244
 30
0.0
 10
10.9201828651
 20
10.2990589763
 30
0.0
 10
10.9304302751
 20
10.2950440687
 30
0.0
 10
10.9385027934
 20
10.2915529035
 30
0.0
 10
10.9445973902
 20
10.2886985794
 30
0.0
 10
10.9489164408
 20
10.2865647661
 30
0.0
 10
10.9530506334
 20
10.2844065677
 30
0.0
 10
10.9569979508
 20
10.2822250564
 30
0.0
 10
10.9607564497
 20
10.2800213007
 30
0.0
 10
10.964324275
 20
10.2777963543
 30
0.0
 10
10.9676997001
 20
10.2755513402
 30
0.0
 10
10.970881049
 20
10.2732872946
 30
0.0
 10
10.9738667845
 20
10.2710053336
 30
0.0
 10
10.9766554471
 20
10.2687065335
 30
0.0
 10
10.9792456493
 20
10.2663919445
 30
0.0
 10
10.9816361515
 20
10.2640626816
 30
0.0
 10
10.9838257227
 20
10.2617197572
 30
0.0
 10
10.9858132767
 20
10.2593642548
 30
0.0
 10
10.987597775
 20
10.256997218
 30
0.0
 10
10.9891782007
 20
10.2546196669
 30
0.0
 10
10.9905536872
 20
10.2522327034
 30
0.0
 10
10.9917232961
 20
10.2498373699
 30
0.0
 10
10.9926862382
 20
10.2474348501
 30
0.0
 10
10.9934417677
 20
10.2450262918
 30
0.0
 10
10.9939891449
 20
10.2426132327
 30
0.0
 10
10.9942161555
 20
10.2409939729
 30
0.0
 10
10.9942940923
 20
10.2401871364
 30
0.0
  0
SPLINE
  5
33A
100
AcDbEntity
  8
0
100
AcDbSpline
 62
7
  6
CONTINUOUS
 70
0
 71
3
 72
78
 73
74
 74
0
 42
0.0000001
 43
0.0000001
 44
0.0000000001
 40
0.0
 40
0.0
 40
0.0
 40
0.0
 40
0.0038941659
 40
0.0079433148
 40
0.0121512859
 40
0.0165213566
 40
0.021056338
 40
0.0257585085
 40
0.0306294986
 40
0.0356704677
 40
0.0408821773
 40
0.0462649805
 40
0.0575432144
 40
0.0695024907
 40
0.0821352538
 40
0.0954303932
 40
0.1093737166
 40
0.123948323
 40
0.139134934
 40
0.1549121507
 40
0.1712566631
 40
0.1881434129
 40
0.205545759
 40
0.2234356284
 40
0.2417836409
 40
0.2605592161
 40
0.2797306748
 40
0.299265356
 40
0.3191297154
 40
0.339289416
 40
0.3597094113
 40
0.4011864125
 40
0.4432704807
 40
0.4856650075
 40
0.5280705556
 40
0.5701875815
 40
0.6117191847
 40
0.6321744378
 40
0.6523746007
 40
0.6722845374
 40
0.6918697961
 40
0.711096701
 40
0.729932459
 40
0.7483452518
 40
0.7663043296
 40
0.7837801165
 40
0.8007443358
 40
0.8171701416
 40
0.8330322409
 40
0.8483070447
 40
0.8629728474
 40
0.8770100541
 40
0.8904014126
 40
0.9031323055
 40
0.9151911225
 40
0.9265697517
 40
0.9372641907
 40
0.9423552826
 40
0.947276123
 40
0.9520277692
 40
0.9566117399
 40
0.9610300191
 40
0.9652852143
 40
0.9693805257
 40
0.9733198757
 40
0.9771080098
 40
0.9807505197
 40
0.9842540363
 40
0.9876262631
 40
0.990876094
 40
0.9940137404
 40
0.9970507303
 40
1.0
 40
1.0
 40
1.0
 40
1.0
 10
10.1837926634
 20
10.2471835372
 30
0.0
 10
10.1845718938
 20
10.2479362159
 30
0.0
 10
10.1861955536
 20
10.2494364632
 30
0.0
 10
10.1887691902
 20
10.251629639
 30
0.0
 10
10.1915264348
 20
10.2538077088
 30
0.0
 10
10.1944658693
 20
10.2559695368
 30
0.0
 10
10.1975861187
 20
10.2581141999
 30
0.0
 10
10.2008857767
 20
10.2602407025
 30
0.0
 10
10.2043633002
 20
10.2623481089
 30
0.0
 10
10.2080170635
 20
10.264435418
 30
0.0
 10
10.2118453653
 20
10.2665016508
 30
0.0
 10
10.2172646394
 20
10.2692703902
 30
0.0
 10
10.2244703264
 20
10.2726637962
 30
0.0
 10
10.2336531404
 20
10.2765757397
 30
0.0
 10
10.2434846693
 20
10.2803810967
 30
0.0
 10
10.2539464364
 20
10.2840726664
 30
0.0
 10
10.2650189214
 20
10.2876434506
 30
0.0
 10
10.2766813272
 20
10.291086669
 30
0.0
 10
10.2889117194
 20
10.2943957697
 30
0.0
 10
10.301687058
 20
10.2975644496
 30
0.0
 10
10.3149832495
 20
10.300586666
 30
0.0
 10
10.3287751895
 20
10.3034566618
 30
0.0
 10
10.3430368172
 20
10.306168973
 30
0.0
 10
10.3577411739
 20
10.3087184321
 30
0.0
 10
10.3728604562
 20
10.3111001805
 30
0.0
 10
10.3883660653
 20
10.3133096789
 30
0.0
 10
10.4042286603
 20
10.3153427257
 30
0.0
 10
10.4204182224
 20
10.3171954532
 30
0.0
 10
10.4369041041
 20
10.3188643292
 30
0.0
 10
10.4536551263
 20
10.3203461939
 30
0.0
 10
10.476418623
 20
10.322077755
 30
0.0
 10
10.505301525
 20
10.32374967
 30
0.0
 10
10.5403251795
 20
10.3249652862
 30
0.0
 10
10.5756257289
 20
10.3253909824
 30
0.0
 10
10.6109360997
 20
10.3250235334
 30
0.0
 10
10.6459891469
 20
10.3238657069
 30
0.0
 10
10.6749089912
 20
10.3222416823
 30
0.0
 10
10.6977116935
 20
10.3205480291
 30
0.0
 10
10.7144990155
 20
10.3190938942
 30
0.0
 10
10.73102583
 20
10.3174523166
 30
0.0
 10
10.747260877
 20
10.3156263985
 30
0.0
 10
10.7631734189
 20
10.3136196147
 30
0.0
 10
10.7787333438
 20
10.3114357876
 30
0.0
 10
10.7939112127
 20
10.3090790779
 30
0.0
 10
10.8086783134
 20
10.3065539733
 30
0.0
 10
10.823006716
 20
10.3038652793
 30
0.0
 10
10.836869333
 20
10.3010181163
 30
0.0
 10
10.850239975
 20
10.2980179143
 30
0.0
 10
10.8630933976
 20
10.2948703907
 30
0.0
 10
10.8754053491
 20
10.2915815414
 30
0.0
 10
10.887152626
 20
10.2881576248
 30
0.0
 10
10.8983131289
 20
10.2846051632
 30
0.0
 10
10.9088659153
 20
10.280930911
 30
0.0
 10
10.9187912158
 20
10.2771418397
 30
0.0
 10
10.9280705785
 20
10.2732450895
 30
0.0
 10
10.9366866058
 20
10.2692480079
 30
0.0
 10
10.9434069121
 20
10.2657850994
 30
0.0
 10
10.948429984
 20
10.2629637613
 30
0.0
 10
10.9519594861
 20
10.2608621481
 30
0.0
 10
10.9553115874
 20
10.25874114
 30
0.0
 10
10.9584847428
 20
10.2566017155
 30
0.0
 10
10.9614774476
 20
10.2544448216
 30
0.0
 10
10.9642883327
 20
10.2522714813
 30
0.0
 10
10.9669160774
 20
10.2500826552
 30
0.0
 10
10.9693594443
 20
10.2478793103
 30
0.0
 10
10.9716173155
 20
10.2456624538
 30
0.0
 10
10.9736885792
 20
10.2434330039
 30
0.0
 10
10.9755722623
 20
10.2411919531
 30
0.0
 10
10.9772674263
 20
10.2389402439
 30
0.0
 10
10.97877315
 20
10.2366788214
 30
0.0
 10
10.9800886729
 20
10.2344086371
 30
0.0
 10
10.9812130908
 20
10.2321308251
 30
0.0
 10
10.9818432029
 20
10.2305873045
 30
0.0
 10
10.9821242718
 20
10.2298164381
 30
0.0
  0
SPLINE
  5
33B
100
AcDbEntity
  8
0
100
AcDbSpline
 62
7
  6
CONTINUOUS
 70
0
 71
3
 72
27
 73
23
 74
0
 42
0.0000001
 43
0.0000001
 44
0.0000000001
 40
0.0
 40
0.0
 40
0.0
 40
0.0
 40
0.0279825274
 40
0.0565820447
 40
0.0857626881
 40
0.1154874429
 40
0.1764153315
 40
0.2390519437
 40
0.3030700897
 40
0.3681327782
 40
0.4338957472
 40
0.5000099055
 40
0.5661237422
 40
0.6318857529
 40
0.6969468411
 40
0.7609627663
 40
0.8235965623
 40
0.8845210269
 40
0.9142438746
 40
0.9434224494
 40
0.9720197759
 40
1.0
 40
1.0
 40
1.0
 40
1.0
 10
10.3457519392
 20
10.1734999913
 30
0.0
 10
10.3500167247
 20
10.17426175
 30
0.0
 10
10.3586513169
 20
10.1757411585
 30
0.0
 10
10.3717675865
 20
10.1778086474
 30
0.0
 10
10.3851762229
 20
10.1797466859
 30
0.0
 10
10.4035698075
 20
10.1821743072
 30
0.0
 10
10.4271524252
 20
10.1848569834
 30
0.0
 10
10.4560762924
 20
10.1874952256
 30
0.0
 10
10.4856882355
 20
10.189562995
 30
0.0
 10
10.5158195917
 20
10.1910484026
 30
0.0
 10
10.5462988678
 20
10.1919428721
 30
0.0
 10
10.5769525209
 20
10.1922412325
 30
0.0
 10
10.6076060148
 20
10.1919417763
 30
0.0
 10
10.6380848133
 20
10.1910462307
 30
0.0
 10
10.6682153757
 20
10.1895597449
 30
0.0
 10
10.6978262149
 20
10.1874909183
 30
0.0
 10
10.7267486743
 20
10.184851658
 30
0.0
 10
10.7503299251
 20
10.1821681234
 30
0.0
 10
10.7687222681
 20
10.17973985
 30
0.0
 10
10.7821298699
 20
10.1778013258
 30
0.0
 10
10.795245037
 20
10.1757333684
 30
0.0
 10
10.803878871
 20
10.1742536539
 30
0.0
 10
10.8081432664
 20
10.1734917391
 30
0.0
  0
SPLINE
  5
33C
100
AcDbEntity
  8
0
100
AcDbSpline
 62
7
  6
CONTINUOUS
 70
0
 71
3
 72
37
 73
33
 74
0
 42
0.0000001
 43
0.0000001
 44
0.0000000001
 40
0.0
 40
0.0
 40
0.0
 40
0.0
 40
0.0908198883
 40
0.1794470143
 40
0.2228023136
 40
0.2654470419
 40
0.3073295194
 40
0.3483992608
 40
0.3886072699
 40
0.4279060862
 40
0.4662499356
 40
0.5035949165
 40
0.5398990508
 40
0.57512247
 40
0.609227675
 40
0.6421796272
 40
0.6739459727
 40
0.7044974185
 40
0.7338079433
 40
0.7618551286
 40
0.7886207273
 40
0.814091151
 40
0.8382580766
 40
0.8611194107
 40
0.8826803683
 40
0.9029547495
 40
0.9219667815
 40
0.9397534108
 40
0.9563669916
 40
0.9718787437
 40
0.9863827672
 40
1.0
 40
1.0
 40
1.0
 40
1.0
 10
12.5453180614
 20
9.5383082133
 30
0.0
 10
12.5453180614
 20
9.5498029306
 30
0.0
 10
12.5450976244
 20
9.5725154895
 30
0.0
 10
12.5442471636
 20
9.6007040826
 30
0.0
 10
12.543219902
 20
9.6227824636
 30
0.0
 10
12.5422870107
 20
9.6389415031
 30
0.0
 10
12.5411873675
 20
9.6548001018
 30
0.0
 10
12.539922444
 20
9.6703369931
 30
0.0
 10
12.5384939681
 20
9.6855313108
 30
0.0
 10
12.5369038655
 20
9.7003626574
 30
0.0
 10
12.5351542855
 20
9.7148111277
 30
0.0
 10
12.5332476101
 20
9.7288573375
 30
0.0
 10
12.5311864168
 20
9.7424824448
 30
0.0
 10
12.5289734867
 20
9.7556681795
 30
0.0
 10
12.5266118303
 20
9.768396875
 30
0.0
 10
12.5241046454
 20
9.7806514857
 30
0.0
 10
12.5214553102
 20
9.7924156111
 30
0.0
 10
12.5186674213
 20
9.8036735329
 30
0.0
 10
12.515744751
 20
9.8144102305
 30
0.0
 10
12.5126912251
 20
9.8246113998
 30
0.0
 10
12.5095109593
 20
9.8342634941
 30
0.0
 10
12.5062082247
 20
9.8433537437
 30
0.0
 10
12.5027874008
 20
9.8518701668
 30
0.0
 10
12.4992529934
 20
9.8598016109
 30
0.0
 10
12.495609604
 20
9.8671377795
 30
0.0
 10
12.4918618355
 20
9.8738692238
 30
0.0
 10
12.4880142688
 20
9.8799873498
 30
0.0
 10
12.4840713699
 20
9.8854844387
 30
0.0
 10
12.4800374721
 20
9.8903534499
 30
0.0
 10
12.4759162243
 20
9.8945881072
 30
0.0
 10
12.4717122345
 20
9.8981817829
 30
0.0
 10
12.4687724207
 20
9.9002037853
 30
0.0
 10
12.4672957155
 20
9.9010924497
 30
0.0
  0
SPLINE
  5
33D
100
AcDbEntity
  8
0
100
AcDbSpline
 62
7
  6
CONTINUOUS
 70
0
 71
3
 72
51
 73
47
 74
0
 42
0.0000001
 43
0.0000001
 44
0.0000000001
 40
0.0
 40
0.0
 40
0.0
 40
0.0
 40
0.0398601651
 40
0.0801629884
 40
0.1208005673
 40
0.1616637852
 40
0.2026427896
 40
0.2436273182
 40
0.2845070946
 40
0.3251721985
 40
0.3655134449
 40
0.4054227612
 40
0.4447935691
 40
0.4835211683
 40
0.5215031266
 40
0.5586396777
 40
0.5948341301
 40
0.6299932921
 40
0.6640279192
 40
0.6968531942
 40
0.728389251
 40
0.7585617627
 40
0.7731154551
 40
0.7873032867
 40
0.8011178232
 40
0.8145521841
 40
0.8275999702
 40
0.8402554136
 40
0.852513317
 40
0.8643692148
 40
0.8758193314
 40
0.8868607581
 40
0.897491439
 40
0.9077103721
 40
0.9175176354
 40
0.926914625
 40
0.9359041392
 40
0.9444906724
 40
0.9526805804
 40
0.9604824541
 40
0.9679073922
 40
0.9749694738
 40
0.9816861509
 40
0.9880788038
 40
0.9941731985
 40
1.0
 40
1.0
 40
1.0
 40
1.0
 10
12.5453180614
 20
9.5383082133
 30
0.0
 10
12.5453180614
 20
9.5297650645
 30
0.0
 10
12.545194028
 20
9.5125836585
 30
0.0
 10
12.5446450208
 20
9.4866977546
 30
0.0
 10
12.5437334124
 20
9.4606069322
 30
0.0
 10
12.5424618004
 20
9.4343861089
 30
0.0
 10
12.5408338232
 20
9.4081104956
 30
0.0
 10
12.5388541475
 20
9.38185548
 30
0.0
 10
12.536528456
 20
9.355696386
 30
0.0
 10
12.5338634306
 20
9.3297082618
 30
0.0
 10
12.5308667334
 20
9.3039656618
 30
0.0
 10
12.5275469849
 20
9.2785424321
 30
0.0
 10
12.5239137397
 20
9.2535114965
 30
0.0
 10
12.519977459
 20
9.2289446457
 30
0.0
 10
12.515749482
 20
9.2049123292
 30
0.0
 10
12.5112419929
 20
9.1814834497
 30
0.0
 10
12.5064679874
 20
9.1587251634
 30
0.0
 10
12.5014412357
 20
9.136702678
 30
0.0
 10
12.4961762425
 20
9.1154790755
 30
0.0
 10
12.4906882109
 20
9.0951150666
 30
0.0
 10
12.4849929774
 20
9.0756690056
 30
0.0
 10
12.4800302586
 20
9.0600935308
 30
0.0
 10
12.4759613651
 20
9.0481398038
 30
0.0
 10
12.4729049048
 20
9.0395458854
 30
0.0
 10
12.4698091382
 20
9.0312215266
 30
0.0
 10
12.4666762993
 20
9.0231726716
 30
0.0
 10
12.4635086136
 20
9.0154050845
 30
0.0
 10
12.4603083845
 20
9.00792431
 30
0.0
 10
12.4570778786
 20
9.0007356972
 30
0.0
 10
12.4538194419
 20
8.9938443669
 30
0.0
 10
12.4505353777
 20
8.9872552374
 30
0.0
 10
12.4472280636
 20
8.9809729875
 30
0.0
 10
12.4438998285
 20
8.9750020886
 30
0.0
 10
12.4405530686
 20
8.9693467609
 30
0.0
 10
12.4371901238
 20
8.9640110137
 30
0.0
 10
12.4338133906
 20
8.9589985944
 30
0.0
 10
12.4304251991
 20
8.9543130388
 30
0.0
 10
12.4270279206
 20
8.9499576131
 30
0.0
 10
12.4236238455
 20
8.9459353773
 30
0.0
 10
12.4202152833
 20
8.9422491223
 30
0.0
 10
12.4168044475
 20
8.9389014542
 30
0.0
 10
12.4133935365
 20
8.9358947254
 30
0.0
 10
12.4099846796
 20
8.9332311668
 30
0.0
 10
12.4065798583
 20
8.9309127576
 30
0.0
 10
12.4031814622
 20
8.9289416218
 30
0.0
 10
12.4008734871
 20
8.9278373502
 30
0.0
 10
12.3997242678
 20
8.927348563
 30
0.0
  0
SPLINE
  5
33E
100
AcDbEntity
  8
0
100
AcDbSpline
 62
7
  6
CONTINUOUS
 70
0
 71
3
 72
52
 73
48
 74
0
 42
0.0000001
 43
0.0000001
 44
0.0000000001
 40
0.0
 40
0.0
 40
0.0
 40
0.0
 40
0.0425884831
 40
0.0856863561
 40
0.1291522207
 40
0.1728434201
 40
0.2166161839
 40
0.2603264737
 40
0.3038304852
 40
0.3469852854
 40
0.3896494046
 40
0.4316834478
 40
0.4729507063
 40
0.5133177819
 40
0.5526552232
 40
0.5908381847
 40
0.6277471161
 40
0.6632684977
 40
0.6972956429
 40
0.7297295982
 40
0.7604801863
 40
0.775199245
 40
0.7894682964
 40
0.8032792031
 40
0.816624576
 40
0.8294980622
 40
0.8418942132
 40
0.8538088326
 40
0.8652388545
 40
0.8761827636
 40
0.8866405101
 40
0.8966140218
 40
0.9061071944
 40
0.9151265246
 40
0.9236812302
 40
0.9317840419
 40
0.939451511
 40
0.9467049812
 40
0.9535710969
 40
0.9600828657
 40
0.9662801856
 40
0.9722105914
 40
0.977929188
 40
0.983498215
 40
0.9889854999
 40
0.994462222
 40
1.0
 40
1.0
 40
1.0
 40
1.0
 10
12.4979542152
 20
9.4925582484
 30
0.0
 10
12.4979542152
 20
9.4866205794
 30
0.0
 10
12.4978587931
 20
9.4746740252
 30
0.0
 10
12.4974371864
 20
9.45667195
 30
0.0
 10
12.4967375471
 20
9.4385246498
 30
0.0
 10
12.4957623193
 20
9.4202958666
 30
0.0
 10
12.4945149128
 20
9.4020495272
 30
0.0
 10
12.4929997055
 20
9.3838496583
 30
0.0
 10
12.4912220196
 20
9.3657601095
 30
0.0
 10
12.4891881072
 20
9.3478443447
 30
0.0
 10
12.4869051266
 20
9.3301652124
 30
0.0
 10
12.4843811181
 20
9.3127847249
 30
0.0
 10
12.4816249764
 20
9.2957638377
 30
0.0
 10
12.4786464199
 20
9.2791622336
 30
0.0
 10
12.4754559574
 20
9.2630381081
 30
0.0
 10
12.4720648517
 20
9.2474479631
 30
0.0
 10
12.4684850817
 20
9.232446396
 30
0.0
 10
12.4647292987
 20
9.2180859178
 30
0.0
 10
12.4608107878
 20
9.2044166951
 30
0.0
 10
12.456743399
 20
9.1914865711
 30
0.0
 10
12.453192
 20
9.181220382
 30
0.0
 10
12.4502800965
 20
9.1734169019
 30
0.0
 10
12.4480998118
 20
9.1678621389
 30
0.0
 10
12.4458932321
 20
9.1625244195
 30
0.0
 10
12.4436622366
 20
9.1574084066
 30
0.0
 10
12.4414088287
 20
9.152518553
 30
0.0
 10
12.4391349369
 20
9.1478591278
 30
0.0
 10
12.4368425973
 20
9.1434341669
 30
0.0
 10
12.4345337575
 20
9.1392475233
 30
0.0
 10
12.4322104765
 20
9.1353027981
 30
0.0
 10
12.429874704
 20
9.1316034132
 30
0.0
 10
12.4275285013
 20
9.1281525174
 30
0.0
 10
12.4251737954
 20
9.1249530913
 30
0.0
 10
12.4228126186
 20
9.1220078221
 30
0.0
 10
12.4204468384
 20
9.119319252
 30
0.0
 10
12.4180784112
 20
9.1168896187
 30
0.0
 10
12.4157090982
 20
9.1147210649
 30
0.0
 10
12.413340729
 20
9.1128154451
 30
0.0
 10
12.4109749339
 20
9.1111746175
 30
0.0
 10
12.4086134304
 20
9.1098002135
 30
0.0
 10
12.4062578384
 20
9.1086940068
 30
0.0
 10
12.4039100186
 20
9.1078575919
 30
0.0
 10
12.4015720155
 20
9.1072927188
 30
0.0
 10
12.3992463897
 20
9.1070007303
 30
0.0
 10
12.3969359746
 20
9.1069827651
 30
0.0
 10
12.3946443825
 20
9.1072389266
 30
0.0
 10
12.3931450184
 20
9.1075890131
 30
0.0
 10
12.3924042294
 20
9.1078065702
 30
0.0
  0
SPLINE
  5
33F
100
AcDbEntity
  8
0
100
AcDbSpline
 62
7
  6
CONTINUOUS
 70
0
 71
3
 72
26
 73
22
 74
0
 42
0.0000001
 43
0.0000001
 44
0.0000000001
 40
0.0
 40
0.0
 40
0.0
 40
0.0
 40
0.0665046654
 40
0.1339004882
 40
0.2018797708
 40
0.2701296013
 40
0.3383363766
 40
0.4061864731
 40
0.4733684155
 40
0.5395746353
 40
0.6045033448
 40
0.6678604148
 40
0.7293612915
 40
0.7887329822
 40
0.8457161479
 40
0.8732358859
 40
0.9000686596
 40
0.9261868855
 40
0.9515644559
 40
0.9761765363
 40
1.0
 40
1.0
 40
1.0
 40
1.0
 10
12.3897346256
 20
9.4940261457
 30
0.0
 10
12.3897346256
 20
9.487511152
 30
0.0
 10
12.3896106742
 20
9.4743935662
 30
0.0
 10
12.3890648631
 20
9.4546233571
 30
0.0
 10
12.388160293
 20
9.4346951261
 30
0.0
 10
12.3869013519
 20
9.4147065712
 30
0.0
 10
12.3852942155
 20
9.3947556843
 30
0.0
 10
12.383346767
 20
9.3749402368
 30
0.0
 10
12.3810685841
 20
9.3553573424
 30
0.0
 10
12.3784708817
 20
9.3361029616
 30
0.0
 10
12.3755664646
 20
9.3172714242
 30
0.0
 10
12.3723696617
 20
9.2989549723
 30
0.0
 10
12.3688962667
 20
9.2812432494
 30
0.0
 10
12.3651634265
 20
9.264223024
 30
0.0
 10
12.3618142805
 20
9.2505306458
 30
0.0
 10
12.3590124675
 20
9.2399895926
 30
0.0
 10
12.356882396
 20
9.2323993913
 30
0.0
 10
12.3547018344
 20
9.2250421513
 30
0.0
 10
12.3524734794
 20
9.2179268569
 30
0.0
 10
12.3502000484
 20
9.211062253
 30
0.0
 10
12.3486302166
 20
9.2065842517
 30
0.0
 10
12.3478373526
 20
9.2043892418
 30
0.0
  0
SPLINE
  5
340
100
AcDbEntity
  8
0
100
AcDbSpline
 62
7
  6
CONTINUOUS
 70
0
 71
3
 72
15
 73
11
 74
0
 42
0.0000001
 43
0.0000001
 44
0.0000000001
 40
0.0
 40
0.0
 40
0.0
 40
0.0
 40
0.1236003279
 40
0.2489324675
 40
0.3753368397
 40
0.5021427893
 40
0.6286786768
 40
0.7542742487
 40
0.8782656697
 40
1.0
 40
1.0
 40
1.0
 40
1.0
 10
12.3505807564
 20
9.4881754144
 30
0.0
 10
12.3505807564
 20
9.4819583599
 30
0.0
 10
12.3504536925
 20
9.4694368161
 30
0.0
 10
12.3498950926
 20
9.4505646688
 30
0.0
 10
12.3489699466
 20
9.4315454505
 30
0.0
 10
12.3476834292
 20
9.4124865994
 30
0.0
 10
12.3460428154
 20
9.3934957865
 30
0.0
 10
12.3440573827
 20
9.3746802239
 30
0.0
 10
12.3417384118
 20
9.3561462685
 30
0.0
 10
12.3399594034
 20
9.3439140171
 30
0.0
 10
12.3390143874
 20
9.3378641851
 30
0.0
  0
SPLINE
  5
341
100
AcDbEntity
  8
0
100
AcDbSpline
 62
7
  6
CONTINUOUS
 70
0
 71
3
 72
42
 73
38
 74
0
 42
0.0000001
 43
0.0000001
 44
0.0000000001
 40
0.0
 40
0.0
 40
0.0
 40
0.0
 40
0.0987344792
 40
0.1946242307
 40
0.2413062846
 40
0.2870437859
 40
0.3317632678
 40
0.3753934571
 40
0.4178658381
 40
0.4591147487
 40
0.4990776236
 40
0.5376954438
 40
0.5749129452
 40
0.6106789351
 40
0.6449468714
 40
0.6776753475
 40
0.708828591
 40
0.7383773268
 40
0.7662998415
 40
0.7925830535
 40
0.8172241429
 40
0.8402328492
 40
0.861634131
 40
0.8814718313
 40
0.8998137108
 40
0.9167576142
 40
0.9247489563
 40
0.932445287
 40
0.947044261
 40
0.9540129696
 40
0.9608025715
 40
0.9674500972
 40
0.9739952095
 40
0.9804796326
 40
0.9869463971
 40
0.9934389004
 40
1.0
 40
1.0
 40
1.0
 40
1.0
 10
12.4979542152
 20
9.4925582484
 30
0.0
 10
12.4979542152
 20
9.5008827262
 30
0.0
 10
12.4977706677
 20
9.5172924766
 30
0.0
 10
12.4970592398
 20
9.5376271776
 30
0.0
 10
12.4961987944
 20
9.5534809297
 30
0.0
 10
12.4954192272
 20
9.5650174164
 30
0.0
 10
12.4945011521
 20
9.5762855781
 30
0.0
 10
12.4934462041
 20
9.5872652579
 30
0.0
 10
12.4922563121
 20
9.5979367925
 30
0.0
 10
12.4909336296
 20
9.608281082
 30
0.0
 10
12.4894805406
 20
9.6182796173
 30
0.0
 10
12.4878996886
 20
9.6279145228
 30
0.0
 10
12.4861939417
 20
9.6371685858
 30
0.0
 10
12.4843663766
 20
9.6460252847
 30
0.0
 10
12.4824203046
 20
9.6544688338
 30
0.0
 10
12.4803592552
 20
9.6624842158
 30
0.0
 10
12.4781869409
 20
9.6700572036
 30
0.0
 10
12.47590726
 20
9.6771744027
 30
0.0
 10
12.4735243062
 20
9.683823297
 30
0.0
 10
12.4710423014
 20
9.689992268
 30
0.0
 10
12.4684655602
 20
9.6956706227
 30
0.0
 10
12.4657984733
 20
9.7008486651
 30
0.0
 10
12.46304543
 20
9.7055176469
 30
0.0
 10
12.4602105333
 20
9.7096698993
 30
0.0
 10
12.4572979835
 20
9.7132982061
 30
0.0
 10
12.4547610558
 20
9.7159298407
 30
0.0
 10
12.452695838
 20
9.7177497588
 30
0.0
 10
12.4506853943
 20
9.7193255982
 30
0.0
 10
12.4486053542
 20
9.7206687811
 30
0.0
 10
12.4464671645
 20
9.7217425768
 30
0.0
 10
12.4448745274
 20
9.7223979392
 30
0.0
 10
12.4432692418
 20
9.7229150959
 30
0.0
 10
12.4416520541
 20
9.7232936906
 30
0.0
 10
12.4400238819
 20
9.7235333427
 30
0.0
 10
12.4383856418
 20
9.7236339203
 30
0.0
 10
12.4367384357
 20
9.7235953679
 30
0.0
 10
12.4356426899
 20
9.7234777631
 30
0.0
 10
12.4350954922
 20
9.7233966434
 30
0.0
  0
SPLINE
  5
342
100
AcDbEntity
  8
0
100
AcDbSpline
 62
7
  6
CONTINUOUS
 70
0
 71
3
 72
18
 73
14
 74
0
 42
0.0000001
 43
0.0000001
 44
0.0000000001
 40
0.0
 40
0.0
 40
0.0
 40
0.0
 40
0.1411258274
 40
0.2788920875
 40
0.412638027
 40
0.54172533
 40
0.6655494179
 40
0.7253100698
 40
0.7835454482
 40
0.8401912892
 40
0.895186769
 40
0.9484742998
 40
1.0
 40
1.0
 40
1.0
 40
1.0
 10
12.3897346256
 20
9.4940261457
 30
0.0
 10
12.3897346256
 20
9.500641721
 30
0.0
 10
12.3896092099
 20
9.5137157877
 30
0.0
 10
12.3890327498
 20
9.5330518071
 30
0.0
 10
12.388073132
 20
9.5518077798
 30
0.0
 10
12.3867355048
 20
9.5698853581
 30
0.0
 10
12.3852954745
 20
9.584473423
 30
0.0
 10
12.3839520457
 20
9.595729688
 30
0.0
 10
12.3828668418
 20
9.6038444549
 30
0.0
 10
12.3816935399
 20
9.6117211906
 30
0.0
 10
12.3804336964
 20
9.6193495995
 30
0.0
 10
12.379088977
 20
9.6267196543
 30
0.0
 10
12.3781204951
 20
9.6315369474
 30
0.0
 10
12.3776212958
 20
9.6339001758
 30
0.0
  0
SPLINE
  5
343
100
AcDbEntity
  8
0
100
AcDbSpline
 62
7
  6
CONTINUOUS
 70
0
 71
3
 72
53
 73
49
 74
0
 42
0.0000001
 43
0.0000001
 44
0.0000000001
 40
0.0
 40
0.0
 40
0.0
 40
0.0
 40
0.0417740371
 40
0.0840369047
 40
0.1266584536
 40
0.1695064221
 40
0.212448016
 40
0.2553499502
 40
0.2980791306
 40
0.3405031348
 40
0.382490749
 40
0.4239124945
 40
0.4646411616
 40
0.5045523515
 40
0.5435250275
 40
0.5814420819
 40
0.6181909261
 40
0.6536641145
 40
0.6877600167
 40
0.72038356
 40
0.7361158328
 40
0.7514478069
 40
0.7663698229
 40
0.7808728747
 40
0.7949485304
 40
0.808589127
 40
0.8217876764
 40
0.8345380756
 40
0.8468350633
 40
0.8586743964
 40
0.8700529164
 40
0.8809686715
 40
0.8914211252
 40
0.901411244
 40
0.9109418555
 40
0.9200177659
 40
0.9286462506
 40
0.9368373022
 40
0.9446042293
 40
0.951964127
 40
0.9589385596
 40
0.9655542544
 40
0.9718437693
 40
0.9778461758
 40
0.9836073577
 40
0.9891800489
 40
0.9946230796
 40
1.0
 40
1.0
 40
1.0
 40
1.0
 10
12.5762276904
 20
9.5361646233
 30
0.0
 10
12.5762276904
 20
9.5269859329
 30
0.0
 10
12.5760844939
 20
9.5085208565
 30
0.0
 10
12.5754514433
 20
9.4806973958
 30
0.0
 10
12.5744007396
 20
9.4526503974
 30
0.0
 10
12.5729358219
 20
9.4244726819
 30
0.0
 10
12.5710615344
 20
9.3962574913
 30
0.0
 10
12.5687840711
 20
9.3680981634
 30
0.0
 10
12.5661109767
 20
9.3400878624
 30
0.0
 10
12.5630511123
 20
9.3123192526
 30
0.0
 10
12.5596146297
 20
9.2848841942
 30
0.0
 10
12.5558129372
 20
9.2578734363
 30
0.0
 10
12.5516586625
 20
9.2313763134
 30
0.0
 10
12.5471656127
 20
9.2054804458
 30
0.0
 10
12.5423487286
 20
9.1802714467
 30
0.0
 10
12.5372240371
 20
9.1558326285
 30
0.0
 10
12.5318085961
 20
9.1322447374
 30
0.0
 10
12.5261204481
 20
9.1095856127
 30
0.0
 10
12.5201785306
 20
9.0879301418
 30
0.0
 10
12.5149710122
 20
9.070576054
 30
0.0
 10
12.5106844681
 20
9.0572547351
 30
0.0
 10
12.5074574739
 20
9.0476793218
 30
0.0
 10
12.5041821504
 20
9.0384062793
 30
0.0
 10
12.5008612226
 20
9.0294432479
 30
0.0
 10
12.4974974108
 20
9.0207976303
 30
0.0
 10
12.4940935412
 20
9.0124765456
 30
0.0
 10
12.4906523941
 20
9.0044868556
 30
0.0
 10
12.4871768498
 20
8.9968351269
 30
0.0
 10
12.483669757
 20
8.9895276529
 30
0.0
 10
12.4801340213
 20
8.982570426
 30
0.0
 10
12.4765725552
 20
8.9759691416
 30
0.0
 10
12.4729882648
 20
8.9697291982
 30
0.0
 10
12.4693841081
 20
8.9638556658
 30
0.0
 10
12.4657629693
 20
8.9583533304
 30
0.0
 10
12.462127813
 20
8.9532266171
 30
0.0
 10
12.4584814782
 20
8.9484796832
 30
0.0
 10
12.454826872
 20
8.9441163098
 30
0.0
 10
12.4511667545
 20
8.9401400241
 30
0.0
 10
12.447503892
 20
8.9365540077
 30
0.0
 10
12.4438409175
 20
8.933361206
 30
0.0
 10
12.4401803894
 20
8.9305643306
 30
0.0
 10
12.4365247993
 20
8.9281659006
 30
0.0
 10
12.4328765682
 20
8.9261684044
 30
0.0
 10
12.4292382315
 20
8.924574192
 30
0.0
 10
12.4256125456
 20
8.9233857346
 30
0.0
 10
12.4220025421
 20
8.9226052316
 30
0.0
 10
12.4184125724
 20
8.922234672
 30
0.0
 10
12.4160291366
 20
8.9222618461
 30
0.0
 10
12.4148505374
 20
8.922343577
 30
0.0
  0
SPLINE
  5
344
100
AcDbEntity
  8
0
100
AcDbSpline
 62
7
  6
CONTINUOUS
 70
0
 71
3
 72
85
 73
81
 74
0
 42
0.0000001
 43
0.0000001
 44
0.0000000001
 40
0.0
 40
0.0
 40
0.0
 40
0.0
 40
0.0039801755
 40
0.0081241211
 40
0.0124359992
 40
0.0169193694
 40
0.0215772468
 40
0.0264119948
 40
0.0314252716
 40
0.036618263
 40
0.0419916661
 40
0.0475457929
 40
0.0532805805
 40
0.0591955875
 40
0.0715626143
 40
0.0846383153
 40
0.0984096556
 40
0.1128602549
 40
0.1279708112
 40
0.1437194381
 40
0.1600819386
 40
0.1770320333
 40
0.1945415658
 40
0.2125806771
 40
0.2311179593
 40
0.2501205956
 40
0.2695544871
 40
0.2893843733
 40
0.3095739538
 40
0.3300859996
 40
0.3508824608
 40
0.3719245709
 40
0.3931729488
 40
0.4145877017
 40
0.457754079
 40
0.5010989561
 40
0.5442950696
 40
0.5657357599
 40
0.5870173776
 40
0.6080999494
 40
0.6289439925
 40
0.6495106191
 40
0.6697616414
 40
0.689659674
 40
0.709168241
 40
0.7282518859
 40
0.7468762864
 40
0.7650083809
 40
0.7826164962
 40
0.7996704822
 40
0.8161418627
 40
0.8320040043
 40
0.8472323103
 40
0.861804453
 40
0.8757006387
 40
0.8889039295
 40
0.9014006481
 40
0.9073810513
 40
0.9131814645
 40
0.9188013272
 40
0.9242404634
 40
0.9294990094
 40
0.9345775386
 40
0.9394770609
 40
0.9441990652
 40
0.9487456382
 40
0.9531194389
 40
0.9573238773
 40
0.961363122
 40
0.9652422377
 40
0.9689673054
 40
0.9725454842
 40
0.9759852134
 40
0.9824864129
 40
0.9855752855
 40
0.9885737661
 40
0.9914977029
 40
0.9943643139
 40
0.9971920003
 40
1.0
 40
1.0
 40
1.0
 40
1.0
 10
10.1610934052
 20
10.2962682814
 30
0.0
 10
10.161946034
 20
10.2970918577
 30
0.0
 10
10.1637250954
 20
10.2987331889
 30
0.0
 10
10.166549702
 20
10.3011304828
 30
0.0
 10
10.1695817333
 20
10.3035105902
 30
0.0
 10
10.1728195245
 20
10.3058722289
 30
0.0
 10
10.1762614859
 20
10.3082143074
 30
0.0
 10
10.1799059431
 20
10.3105356742
 30
0.0
 10
10.1837510692
 20
10.312835233
 30
0.0
 10
10.1877949584
 20
10.3151117865
 30
0.0
 10
10.1920355711
 20
10.3173642298
 30
0.0
 10
10.1964707888
 20
10.3195914231
 30
0.0
 10
10.2010983991
 20
10.3217922607
 30
0.0
 10
10.2076190541
 20
10.3247338304
 30
0.0
 10
10.2162413952
 20
10.3283284804
 30
0.0
 10
10.227168285
 20
10.3324580459
 30
0.0
 10
10.2388017834
 20
10.33645688
 30
0.0
 10
10.2511184718
 20
10.3403168679
 30
0.0
 10
10.2640936906
 20
10.3440301655
 30
0.0
 10
10.2777013441
 20
10.3475892133
 30
0.0
 10
10.2919140349
 20
10.3509867618
 30
0.0
 10
10.3067031052
 20
10.3542158924
 30
0.0
 10
10.32203871
 20
10.3572700274
 30
0.0
 10
10.337889882
 20
10.3601429463
 30
0.0
 10
10.3542245988
 20
10.3628287978
 30
0.0
 10
10.3710098484
 20
10.3653221119
 30
0.0
 10
10.3882116967
 20
10.3676178121
 30
0.0
 10
10.4057953577
 20
10.3697112286
 30
0.0
 10
10.4237252674
 20
10.3715981028
 30
0.0
 10
10.4419651572
 20
10.3732745959
 30
0.0
 10
10.4604781313
 20
10.374737299
 30
0.0
 10
10.479226727
 20
10.3759832302
 30
0.0
 10
10.4981730426
 20
10.3770098759
 30
0.0
 10
10.5237138682
 20
10.3780862849
 30
0.0
 10
10.555851712
 20
10.3788681421
 30
0.0
 10
10.5944863174
 20
10.3789089074
 30
0.0
 10
10.6266423201
 20
10.3781950051
 30
0.0
 10
10.6522118748
 20
10.3771728521
 30
0.0
 10
10.6711900359
 20
10.3761863284
 30
0.0
 10
10.6899774224
 20
10.3749801083
 30
0.0
 10
10.7085360534
 20
10.3735566221
 30
0.0
 10
10.726828372
 20
10.3719187703
 30
0.0
 10
10.7448173757
 20
10.3700698847
 30
0.0
 10
10.7624666764
 20
10.3680137271
 30
0.0
 10
10.7797405779
 20
10.3657544809
 30
0.0
 10
10.7966041475
 20
10.3632967433
 30
0.0
 10
10.8130232895
 20
10.3606455147
 30
0.0
 10
10.8289648174
 20
10.3578061935
 30
0.0
 10
10.844396524
 20
10.3547845637
 30
0.0
 10
10.8592872468
 20
10.3515867802
 30
0.0
 10
10.8736069334
 20
10.3482193571
 30
0.0
 10
10.8873267054
 20
10.3446891536
 30
0.0
 10
10.9004189293
 20
10.3410033572
 30
0.0
 10
10.9128572637
 20
10.3371694722
 30
0.0
 10
10.9246167929
 20
10.3331952936
 30
0.0
 10
10.935673839
 20
10.3290888897
 30
0.0
 10
10.9444079058
 20
10.3255131626
 30
0.0
 10
10.9510200568
 20
10.3225860497
 30
0.0
 10
10.9557170771
 20
10.3203950797
 30
0.0
 10
10.9602225342
 20
10.3181773375
 30
0.0
 10
10.9645341892
 20
10.3159339588
 30
0.0
 10
10.968649869
 20
10.3136660377
 30
0.0
 10
10.9725675212
 20
10.3113747218
 30
0.0
 10
10.9762851945
 20
10.3090611568
 30
0.0
 10
10.9798010203
 20
10.3067264565
 30
0.0
 10
10.9831132729
 20
10.3043718111
 30
0.0
 10
10.9862202783
 20
10.301998319
 30
0.0
 10
10.9891205147
 20
10.2996071593
 30
0.0
 10
10.9918125236
 20
10.2971994596
 30
0.0
 10
10.9942949606
 20
10.2947763171
 30
0.0
 10
10.9965665426
 20
10.2923389681
 30
0.0
 10
10.9986262381
 20
10.2898881841
 30
0.0
 10
11.0010425044
 20
10.2866657286
 30
0.0
 10
11.0030942779
 20
10.2833563826
 30
0.0
 10
11.004723324
 20
10.2799763902
 30
0.0
 10
11.0057075722
 20
10.2774766249
 30
0.0
 10
11.0064740808
 20
10.2749707894
 30
0.0
 10
11.0070221365
 20
10.2724600755
 30
0.0
 10
11.0073512294
 20
10.2699462962
 30
0.0
 10
11.0074244911
 20
10.26826689
 30
0.0
 10
11.0074244948
 20
10.2674305705
 30
0.0
  0
SPLINE
  5
345
100
AcDbEntity
  8
0
100
AcDbSpline
 62
7
  6
CONTINUOUS
 70
0
 71
3
 72
21
 73
17
 74
0
 42
0.0000001
 43
0.0000001
 44
0.0000000001
 40
0.0
 40
0.0
 40
0.0
 40
0.0
 40
0.0616532342
 40
0.1233294953
 40
0.1850515501
 40
0.2468416649
 40
0.3087213494
 40
0.3707111104
 40
0.4328302434
 40
0.4950966323
 40
0.5575265657
 40
0.6201345673
 40
0.682933156
 40
0.7459330948
 40
0.8725263949
 40
1.0
 40
1.0
 40
1.0
 40
1.0
 10
9.8710686023
 20
9.6712671853
 30
0.0
 10
9.8691384008
 20
9.6694027438
 30
0.0
 10
9.8651761685
 20
9.6657762271
 30
0.0
 10
9.8589478168
 20
9.6606627319
 30
0.0
 10
9.8524490104
 20
9.6558872222
 30
0.0
 10
9.8456963443
 20
9.651461938
 30
0.0
 10
9.83870677
 20
9.6473979755
 30
0.0
 10
9.8314979142
 20
9.6437055895
 30
0.0
 10
9.8240879515
 20
9.6403940409
 30
0.0
 10
9.8164955575
 20
9.6374716543
 30
0.0
 10
9.8087398359
 20
9.6349457934
 30
0.0
 10
9.800840388
 20
9.6328228044
 30
0.0
 10
9.7928168912
 20
9.6311079743
 30
0.0
 10
9.7819651651
 20
9.6293689064
 30
0.0
 10
9.7681852048
 20
9.6282390875
 30
0.0
 10
9.7571069433
 20
9.6284552823
 30
0.0
 10
9.7515716113
 20
9.6288391589
 30
0.0
  0
SPLINE
  5
346
100
AcDbEntity
  8
0
100
AcDbSpline
 62
7
  6
CONTINUOUS
 70
0
 71
3
 72
21
 73
17
 74
0
 42
0.0000001
 43
0.0000001
 44
0.0000000001
 40
0.0
 40
0.0
 40
0.0
 40
0.0
 40
0.0616532342
 40
0.1233294953
 40
0.1850515501
 40
0.2468416649
 40
0.3087213494
 40
0.3707111104
 40
0.4328302434
 40
0.4950966323
 40
0.5575265657
 40
0.6201345673
 40
0.682933156
 40
0.7459330948
 40
0.8725263949
 40
1.0
 40
1.0
 40
1.0
 40
1.0
 10
12.0444018402
 20
7.3472127755
 30
0.0
 10
12.0424716388
 20
7.3453483339
 30
0.0
 10
12.0385094065
 20
7.3417218172
 30
0.0
 10
12.0322810547
 20
7.336608322
 30
0.0
 10
12.0257822484
 20
7.3318328123
 30
0.0
 10
12.0190295823
 20
7.3274075281
 30
0.0
 10
12.0120400079
 20
7.3233435656
 30
0.0
 10
12.0048311522
 20
7.3196511796
 30
0.0
 10
11.9974211894
 20
7.316339631
 30
0.0
 10
11.9898287955
 20
7.3134172444
 30
0.0
 10
11.9820730738
 20
7.3108913835
 30
0.0
 10
11.9741736259
 20
7.3087683945
 30
0.0
 10
11.9661501291
 20
7.3070535644
 30
0.0
 10
11.955298403
 20
7.3053144965
 30
0.0
 10
11.9415184427
 20
7.3041846776
 30
0.0
 10
11.9304401812
 20
7.3044008724
 30
0.0
 10
11.9249048493
 20
7.304784749
 30
0.0
  0
SPLINE
  5
347
100
AcDbEntity
  8
0
100
AcDbSpline
 62
7
  6
CONTINUOUS
 70
0
 71
3
 72
15
 73
11
 74
0
 42
0.0000001
 43
0.0000001
 44
0.0000000001
 40
0.0
 40
0.0
 40
0.0
 40
0.0
 40
0.1465982768
 40
0.2856222817
 40
0.4176038884
 40
0.5432156743
 40
0.6632605863
 40
0.7786740988
 40
0.8905247272
 40
1.0
 40
1.0
 40
1.0
 40
1.0
 10
10.1736504417
 20
10.2654537461
 30
0.0
 10
10.172611616
 20
10.2644503175
 30
0.0
 10
10.1706431903
 20
10.2624364087
 30
0.0
 10
10.1679647323
 20
10.2593092047
 30
0.0
 10
10.1656440692
 20
10.2561606064
 30
0.0
 10
10.1636837852
 20
10.2529930972
 30
0.0
 10
10.1620862611
 20
10.2498089335
 30
0.0
 10
10.1608538062
 20
10.2466105255
 30
0.0
 10
10.1599888085
 20
10.2434013808
 30
0.0
 10
10.1596559298
 20
10.241240903
 30
0.0
 10
10.1595529949
 20
10.2401672589
 30
0.0
  0
SPLINE
  5
348
100
AcDbEntity
  8
0
100
AcDbSpline
 62
7
  6
CONTINUOUS
 70
0
 71
3
 72
48
 73
44
 74
0
 42
0.0000001
 43
0.0000001
 44
0.0000000001
 40
0.0
 40
0.0
 40
0.0
 40
0.0
 40
0.0063158899
 40
0.0126706797
 40
0.0191025165
 40
0.025648058
 40
0.0323419221
 40
0.0392162652
 40
0.0536140552
 40
0.0611947659
 40
0.0690564915
 40
0.0772175997
 40
0.0856939645
 40
0.0944993396
 40
0.103645447
 40
0.1131421893
 40
0.122997946
 40
0.1332195527
 40
0.1438126331
 40
0.1547816545
 40
0.1661299881
 40
0.1778601838
 40
0.1899738557
 40
0.215353302
 40
0.2422691224
 40
0.2707113841
 40
0.3006623731
 40
0.332097648
 40
0.3649869327
 40
0.3992948208
 40
0.434981328
 40
0.4720023222
 40
0.5103099054
 40
0.5498527799
 40
0.590576537
 40
0.632423903
 40
0.6753349407
 40
0.7192473098
 40
0.7640964278
 40
0.8098157282
 40
0.8563368617
 40
0.9035891153
 40
1.0
 40
1.0
 40
1.0
 40
1.0
 10
12.4829271132
 20
9.903985858
 30
0.0
 10
12.4837586868
 20
9.9039281919
 30
0.0
 10
12.4854230251
 20
9.9037444335
 30
0.0
 10
12.4879008897
 20
9.9032654989
 30
0.0
 10
12.4903621848
 20
9.9025832088
 30
0.0
 10
12.4928054777
 20
9.9016981496
 30
0.0
 10
12.4952298187
 20
9.9006108374
 30
0.0
 10
12.4984850378
 20
9.8988658719
 30
0.0
 10
12.5016518789
 20
9.8967297997
 30
0.0
 10
12.5047165554
 20
9.8942543935
 30
0.0
 10
12.5070314339
 20
9.8921673456
 30
0.0
 10
12.5093215759
 20
9.8898830493
 30
0.0
 10
12.5115864396
 20
9.8874023472
 30
0.0
 10
12.5138250764
 20
9.8847262903
 30
0.0
 10
12.5160366674
 20
9.8818559714
 30
0.0
 10
12.518220382
 20
9.8787925758
 30
0.0
 10
12.520375332
 20
9.8755373209
 30
0.0
 10
12.522500711
 20
9.8720915499
 30
0.0
 10
12.5245956559
 20
9.8684566485
 30
0.0
 10
12.5266593213
 20
9.864634089
 30
0.0
 10
12.5286909021
 20
9.8606254399
 30
0.0
 10
12.530689559
 20
9.8564323099
 30
0.0
 10
12.5333508626
 20
9.8505054286
 30
0.0
 10
12.5365804919
 20
9.8426393862
 30
0.0
 10
12.5402541424
 20
9.8326346618
 30
0.0
 10
12.5437777724
 20
9.8219391237
 30
0.0
 10
12.5471455679
 20
9.8105702736
 30
0.0
 10
12.5503519694
 20
9.7985465688
 30
0.0
 10
12.5533916574
 20
9.785887668
 30
0.0
 10
12.5562595777
 20
9.7726142958
 30
0.0
 10
12.5589509516
 20
9.7587482263
 30
0.0
 10
12.561461295
 20
9.7443122398
 30
0.0
 10
12.5637864301
 20
9.7293300816
 30
0.0
 10
12.5659224823
 20
9.7138264121
 30
0.0
 10
12.5678658902
 20
9.6978267608
 30
0.0
 10
12.56961341
 20
9.6813574873
 30
0.0
 10
12.5711621342
 20
9.6644457366
 30
0.0
 10
12.5725094818
 20
9.6471193952
 30
0.0
 10
12.5736532086
 20
9.6294070287
 30
0.0
 10
12.5745913988
 20
9.6113378472
 30
0.0
 10
12.5753224963
 20
9.5929416656
 30
0.0
 10
12.5760241561
 20
9.5678505691
 30
0.0
 10
12.5762276904
 20
9.5488889242
 30
0.0
 10
12.5762276904
 20
9.5361646233
 30
0.0
  0
SPLINE
  5
349
100
AcDbEntity
  8
0
100
AcDbSpline
 62
7
  6
CONTINUOUS
 70
0
 71
3
 72
14
 73
10
 74
0
 42
0.0000001
 43
0.0000001
 44
0.0000000001
 40
0.0
 40
0.0
 40
0.0
 40
0.0
 40
0.1412489762
 40
0.2772925309
 40
0.4083577772
 40
0.5347146432
 40
0.7745175481
 40
0.8888421592
 40
1.0
 40
1.0
 40
1.0
 40
1.0
 10
10.1837926634
 20
10.2471835372
 30
0.0
 10
10.1830718491
 20
10.246487284
 30
0.0
 10
10.1816845802
 20
10.2450912001
 30
0.0
 10
10.1797362907
 20
10.2429454524
 30
0.0
 10
10.1779613584
 20
10.240788949
 30
0.0
 10
10.1758642903
 20
10.2379508286
 30
0.0
 10
10.1740669554
 20
10.2350423032
 30
0.0
 10
10.1726137249
 20
10.2320759914
 30
0.0
 10
10.1720089355
 20
10.2305931583
 30
0.0
 10
10.1717378972
 20
10.2298525239
 30
0.0
  0
SPLINE
  5
34A
100
AcDbEntity
  8
0
100
AcDbSpline
 62
7
  6
CONTINUOUS
 70
0
 71
3
 72
40
 73
36
 74
0
 42
0.0000001
 43
0.0000001
 44
0.0000000001
 40
0.0
 40
0.0
 40
0.0
 40
0.0
 40
0.0311448352
 40
0.0467776712
 40
0.0624478163
 40
0.0938928931
 40
0.1254753683
 40
0.1571831038
 40
0.1890013145
 40
0.2209130644
 40
0.2528995674
 40
0.2849405815
 40
0.3170148072
 40
0.349100303
 40
0.3811749104
 40
0.4132166804
 40
0.4452042987
 40
0.4771175008
 40
0.5089374741
 40
0.5406472387
 40
0.5722320012
 40
0.6036794751
 40
0.6349801612
 40
0.6661275796
 40
0.6971184487
 40
0.7279528012
 40
0.7586340346
 40
0.7891688873
 40
0.8195673392
 40
0.849842433
 40
0.8800100174
 40
0.9100884154
 40
0.9400980228
 40
0.9700608475
 40
1.0
 40
1.0
 40
1.0
 40
1.0
 10
11.9249048493
 20
7.304784749
 30
0.0
 10
11.9208478964
 20
7.3050660996
 30
0.0
 10
11.9147670702
 20
7.3057112367
 30
0.0
 10
11.9067155082
 20
7.3070077015
 30
0.0
 10
11.8986767324
 20
7.3085993654
 30
0.0
 10
11.8887087715
 20
7.3111342259
 30
0.0
 10
11.8769561606
 20
7.3150250451
 30
0.0
 10
11.865459606
 20
7.3197478284
 30
0.0
 10
11.8542807477
 20
7.3252772552
 30
0.0
 10
11.843479052
 20
7.3315837897
 30
0.0
 10
11.8331120994
 20
7.3386337567
 30
0.0
 10
11.8232351183
 20
7.3463895384
 30
0.0
 10
11.813900739
 20
7.3548097705
 30
0.0
 10
11.8051587037
 20
7.3638495609
 30
0.0
 10
11.7970556084
 20
7.3734607273
 30
0.0
 10
11.7896346551
 20
7.3835920512
 30
0.0
 10
11.7829354246
 20
7.3941895478
 30
0.0
 10
11.7769936667
 20
7.405196751
 30
0.0
 10
11.7718411099
 20
7.41655501
 30
0.0
 10
11.7675052935
 20
7.4282037983
 30
0.0
 10
11.7640094206
 20
7.4400810328
 30
0.0
 10
11.7613722338
 20
7.4521233995
 30
0.0
 10
11.7596079131
 20
7.464266687
 30
0.0
 10
11.7587259973
 20
7.4764461241
 30
0.0
 10
11.7587313291
 20
7.4885967207
 30
0.0
 10
11.7596240233
 20
7.5006536114
 30
0.0
 10
11.7613994605
 20
7.5125523988
 30
0.0
 10
11.7640483028
 20
7.5242294959
 30
0.0
 10
11.7675565381
 20
7.5356224674
 30
0.0
 10
11.7719055402
 20
7.5466703604
 30
0.0
 10
11.7770721822
 20
7.5573140557
 30
0.0
 10
11.7830288752
 20
7.5674965132
 30
0.0
 10
11.7897440016
 20
7.577163373
 30
0.0
 10
11.7971809987
 20
7.5862621883
 30
0.0
 10
11.8025961078
 20
7.5919192692
 30
0.0
 10
11.8054078583
 20
7.5946352264
 30
0.0
  0
SPLINE
  5
34B
100
AcDbEntity
  8
0
100
AcDbSpline
 62
7
  6
CONTINUOUS
 70
0
 71
3
 72
10
 73
6
 74
0
 42
0.0000001
 43
0.0000001
 44
0.0000000001
 40
0.0
 40
0.0
 40
0.0
 40
0.0
 40
0.2713478222
 40
0.5277108691
 40
1.0
 40
1.0
 40
1.0
 40
1.0
 10
10.1610934052
 20
10.2663245795
 30
0.0
 10
10.1599477161
 20
10.2652179288
 30
0.0
 10
10.1577845387
 20
10.2629958188
 30
0.0
 10
10.1539967447
 20
10.2585087858
 30
0.0
 10
10.1516179966
 20
10.2549185942
 30
0.0
 10
10.1503310394
 20
10.2524629291
 30
0.0
  0
SPLINE
  5
34C
100
AcDbEntity
  8
0
100
AcDbSpline
 62
7
  6
CONTINUOUS
 70
0
 71
3
 72
77
 73
73
 74
0
 42
0.0000001
 43
0.0000001
 44
0.0000000001
 40
0.0
 40
0.0
 40
0.0
 40
0.0
 40
0.0038574264
 40
0.0078660834
 40
0.0120296802
 40
0.0163513953
 40
0.0208339649
 40
0.0254796143
 40
0.0302899495
 40
0.0352661278
 40
0.040408923
 40
0.04571872
 40
0.0568388589
 40
0.0686243337
 40
0.0810682335
 40
0.0941602237
 40
0.1078870018
 40
0.1222326551
 40
0.1371789767
 40
0.1527057143
 40
0.1687907715
 40
0.1854103676
 40
0.2025391893
 40
0.2201505384
 40
0.2382164505
 40
0.2567077998
 40
0.2755943913
 40
0.2948450717
 40
0.3144278232
 40
0.3343098507
 40
0.3544576604
 40
0.3954129833
 40
0.4370159042
 40
0.4789819788
 40
0.5210235426
 40
0.5628522596
 40
0.6041816861
 40
0.6245711477
 40
0.6447305351
 40
0.6646257236
 40
0.6842231906
 40
0.703490098
 40
0.722394386
 40
0.7409048666
 40
0.7589913062
 40
0.7766245198
 40
0.7937764745
 40
0.8104204155
 40
0.826530975
 40
0.8420842982
 40
0.857058191
 40
0.8714323061
 40
0.8851883492
 40
0.8983103057
 40
0.9107847323
 40
0.9226011294
 40
0.9337524253
 40
0.9390778475
 40
0.9442362129
 40
0.9492279209
 40
0.954053699
 40
0.9587146719
 40
0.9632124442
 40
0.9675490644
 40
0.971727179
 40
0.9757500371
 40
0.9796215623
 40
0.9833464966
 40
0.986930401
 40
0.9903798242
 40
0.9937023711
 40
1.0
 40
1.0
 40
1.0
 40
1.0
 10
10.1610934052
 20
10.2663245795
 30
0.0
 10
10.1619052482
 20
10.2671087597
 30
0.0
 10
10.1635958341
 20
10.2686718873
 30
0.0
 10
10.1662736137
 20
10.2709578653
 30
0.0
 10
10.1691399663
 20
10.2732283658
 30
0.0
 10
10.1721934598
 20
10.2754822403
 30
0.0
 10
10.1754327082
 20
10.2777185528
 30
0.0
 10
10.1788562933
 20
10.2799362953
 30
0.0
 10
10.1824626598
 20
10.2821345206
 30
0.0
 10
10.1862501713
 20
10.2843122129
 30
0.0
 10
10.1902171147
 20
10.2864683833
 30
0.0
 10
10.1958298998
 20
10.2893578596
 30
0.0
 10
10.203289885
 20
10.2929008515
 30
0.0
 10
10.2127939498
 20
10.2969882177
 30
0.0
 10
10.2229660349
 20
10.3009668982
 30
0.0
 10
10.233787581
 20
10.3048295873
 30
0.0
 10
10.24523899
 20
10.3085691798
 30
0.0
 10
10.2572993844
 20
10.312178784
 30
0.0
 10
10.2699467468
 20
10.3156517352
 30
0.0
 10
10.2831579495
 20
10.3189816133
 30
0.0
 10
10.2969088079
 20
10.3221622561
 30
0.0
 10
10.3111741209
 20
10.3251877813
 30
0.0
 10
10.3259277233
 20
10.3280525986
 30
0.0
 10
10.3411425427
 20
10.3307514105
 30
0.0
 10
10.3567906528
 20
10.3332792259
 30
0.0
 10
10.3728433219
 20
10.3356313676
 30
0.0
 10
10.3892710638
 20
10.337803493
 30
0.0
 10
10.4060436998
 20
10.339791592
 30
0.0
 10
10.4231304073
 20
10.3415919858
 30
0.0
 10
10.4404998173
 20
10.3432013663
 30
0.0
 10
10.4641214354
 20
10.3450987439
 30
0.0
 10
10.4941193794
 20
10.3469661518
 30
0.0
 10
10.5305316064
 20
10.3483960933
 30
0.0
 10
10.5672845485
 20
10.3490162646
 30
0.0
 10
10.6041082635
 20
10.3488220973
 30
0.0
 10
10.6407322949
 20
10.3478149741
 30
0.0
 10
10.6709964673
 20
10.3462979144
 30
0.0
 10
10.694900658
 20
10.3446780356
 30
0.0
 10
10.712531749
 20
10.3432717804
 30
0.0
 10
10.7299135619
 20
10.3416714126
 30
0.0
 10
10.7470141804
 20
10.3398798681
 30
0.0
 10
10.7638021722
 20
10.3379004569
 30
0.0
 10
10.7802466934
 20
10.3357368336
 30
0.0
 10
10.7963175364
 20
10.3333930008
 30
0.0
 10
10.8119851857
 20
10.3308732904
 30
0.0
 10
10.8272208688
 20
10.3281823587
 30
0.0
 10
10.8419966155
 20
10.3253251752
 30
0.0
 10
10.8562853146
 20
10.3223070275
 30
0.0
 10
10.8700607645
 20
10.3191334994
 30
0.0
 10
10.8832977179
 20
10.3158104601
 30
0.0
 10
10.8959719334
 20
10.3123440501
 30
0.0
 10
10.9080602303
 20
10.308740676
 30
0.0
 10
10.9195405459
 20
10.3050069979
 30
0.0
 10
10.9303919547
 20
10.3011499045
 30
0.0
 10
10.9405947921
 20
10.2971764827
 30
0.0
 10
10.9501304356
 20
10.2930940298
 30
0.0
 10
10.9576174491
 20
10.2895550295
 30
0.0
 10
10.9632523167
 20
10.2866686238
 30
0.0
 10
10.9672359155
 20
10.2845144957
 30
0.0
 10
10.9710402573
 20
10.2823387848
 30
0.0
 10
10.9746636175
 20
10.2801424445
 30
0.0
 10
10.9781043401
 20
10.2779264524
 30
0.0
 10
10.9813608875
 20
10.2756918394
 30
0.0
 10
10.984431763
 20
10.2734395596
 30
0.0
 10
10.9873155912
 20
10.2711706339
 30
0.0
 10
10.9900110732
 20
10.2688860577
 30
0.0
 10
10.992516955
 20
10.2665867947
 30
0.0
 10
10.994832143
 20
10.2642738488
 30
0.0
 10
10.9969554827
 20
10.261948246
 30
0.0
 10
10.9988861716
 20
10.2596106652
 30
0.0
 10
11.001161018
 20
10.2565353059
 30
0.0
 10
11.0026419768
 20
10.2541303348
 30
0.0
 10
11.003499032
 20
10.2524990096
 30
0.0
  0
SPLINE
  5
34D
100
AcDbEntity
  8
0
100
AcDbSpline
 62
7
  6
CONTINUOUS
 70
0
 71
3
 72
40
 73
36
 74
0
 42
0.0000001
 43
0.0000001
 44
0.0000000001
 40
0.0
 40
0.0
 40
0.0
 40
0.0
 40
0.0311448352
 40
0.0467776712
 40
0.0624478163
 40
0.0938928931
 40
0.1254753683
 40
0.1571831038
 40
0.1890013145
 40
0.2209130644
 40
0.2528995674
 40
0.2849405815
 40
0.3170148072
 40
0.349100303
 40
0.3811749104
 40
0.4132166804
 40
0.4452042987
 40
0.4771175008
 40
0.5089374741
 40
0.5406472387
 40
0.5722320012
 40
0.6036794751
 40
0.6349801612
 40
0.6661275796
 40
0.6971184487
 40
0.7279528012
 40
0.7586340346
 40
0.7891688873
 40
0.8195673392
 40
0.849842433
 40
0.8800100174
 40
0.9100884154
 40
0.9400980228
 40
0.9700608475
 40
1.0
 40
1.0
 40
1.0
 40
1.0
 10
9.7515716113
 20
9.6288391589
 30
0.0
 10
9.7475146585
 20
9.6291205095
 30
0.0
 10
9.7414338322
 20
9.6297656466
 30
0.0
 10
9.7333822703
 20
9.6310621114
 30
0.0
 10
9.7253434945
 20
9.6326537753
 30
0.0
 10
9.7153755336
 20
9.6351886358
 30
0.0
 10
9.7036229227
 20
9.639079455
 30
0.0
 10
9.6921263681
 20
9.6438022383
 30
0.0
 10
9.6809475097
 20
9.6493316651
 30
0.0
 10
9.6701458141
 20
9.6556381996
 30
0.0
 10
9.6597788615
 20
9.6626881666
 30
0.0
 10
9.6499018804
 20
9.6704439483
 30
0.0
 10
9.640567501
 20
9.6788641804
 30
0.0
 10
9.6318254658
 20
9.6879039708
 30
0.0
 10
9.6237223705
 20
9.6975151372
 30
0.0
 10
9.6163014172
 20
9.7076464611
 30
0.0
 10
9.6096021867
 20
9.7182439577
 30
0.0
 10
9.6036604288
 20
9.7292511609
 30
0.0
 10
9.598507872
 20
9.7406094199
 30
0.0
 10
9.5941720556
 20
9.7522582082
 30
0.0
 10
9.5906761827
 20
9.7641354427
 30
0.0
 10
9.5880389959
 20
9.7761778094
 30
0.0
 10
9.5862746752
 20
9.7883210969
 30
0.0
 10
9.5853927594
 20
9.8005005339
 30
0.0
 10
9.5853980912
 20
9.8126511305
 30
0.0
 10
9.5862907854
 20
9.8247080213
 30
0.0
 10
9.5880662225
 20
9.8366068087
 30
0.0
 10
9.5907150649
 20
9.8482839058
 30
0.0
 10
9.5942233002
 20
9.8596768773
 30
0.0
 10
9.5985723023
 20
9.8707247703
 30
0.0
 10
9.6037389443
 20
9.8813684655
 30
0.0
 10
9.6096956373
 20
9.8915509231
 30
0.0
 10
9.6164107636
 20
9.9012177829
 30
0.0
 10
9.6238477608
 20
9.9103165981
 30
0.0
 10
9.6292628699
 20
9.9159736791
 30
0.0
 10
9.6320746204
 20
9.9186896363
 30
0.0
  0
SPLINE
  5
34E
100
AcDbEntity
  8
0
100
AcDbSpline
 62
4
  6
CONTINUOUS
 70
0
 71
3
 72
615
 73
611
 74
0
 42
0.0000001
 43
0.0000001
 44
0.0000000001
 40
0.0
 40
0.0
 40
0.0
 40
0.0
 40
0.0078125
 40
0.015625
 40
0.0234375
 40
0.03125
 40
0.03515625
 40
0.0390625
 40
0.04296875
 40
0.046875
 40
0.05078125
 40
0.052734375
 40
0.0546875
 40
0.056640625
 40
0.0576171875
 40
0.05859375
 40
0.0595703125
 40
0.060546875
 40
0.0610351562
 40
0.0615234375
 40
0.0617675781
 40
0.0620117188
 40
0.0622558594
 40
0.0623779297
 40
0.0624389648
 40
0.0625
 40
0.0625610352
 40
0.0626220703
 40
0.0627441406
 40
0.0629882812
 40
0.0632324219
 40
0.0634765625
 40
0.0639648438
 40
0.064453125
 40
0.0654296875
 40
0.06640625
 40
0.0673828125
 40
0.068359375
 40
0.0703125
 40
0.072265625
 40
0.07421875
 40
0.078125
 40
0.08203125
 40
0.0859375
 40
0.08984375
 40
0.09375
 40
0.09765625
 40
0.1015625
 40
0.10546875
 40
0.109375
 40
0.11328125
 40
0.115234375
 40
0.1171875
 40
0.119140625
 40
0.1201171875
 40
0.12109375
 40
0.1220703125
 40
0.123046875
 40
0.1235351562
 40
0.1240234375
 40
0.1242675781
 40
0.1245117188
 40
0.1247558594
 40
0.1248779297
 40
0.1249389648
 40
0.125
 40
0.1250610352
 40
0.1251220703
 40
0.1252441406
 40
0.1254882812
 40
0.1257324219
 40
0.1259765625
 40
0.1264648438
 40
0.126953125
 40
0.1279296875
 40
0.12890625
 40
0.1298828125
 40
0.130859375
 40
0.1328125
 40
0.134765625
 40
0.13671875
 40
0.140625
 40
0.14453125
 40
0.1484375
 40
0.15234375
 40
0.15625
 40
0.16015625
 40
0.1640625
 40
0.16796875
 40
0.171875
 40
0.17578125
 40
0.177734375
 40
0.1796875
 40
0.181640625
 40
0.1826171875
 40
0.18359375
 40
0.1845703125
 40
0.185546875
 40
0.1860351562
 40
0.1865234375
 40
0.1867675781
 40
0.1870117188
 40
0.1872558594
 40
0.1873779297
 40
0.1874389648
 40
0.1875
 40
0.1875610352
 40
0.1876220703
 40
0.1877441406
 40
0.1879882812
 40
0.1882324219
 40
0.1884765625
 40
0.1889648438
 40
0.189453125
 40
0.1904296875
 40
0.19140625
 40
0.1923828125
 40
0.193359375
 40
0.1953125
 40
0.197265625
 40
0.19921875
 40
0.203125
 40
0.20703125
 40
0.2109375
 40
0.21484375
 40
0.21875
 40
0.22265625
 40
0.2265625
 40
0.23046875
 40
0.234375
 40
0.23828125
 40
0.240234375
 40
0.2421875
 40
0.244140625
 40
0.2451171875
 40
0.24609375
 40
0.2470703125
 40
0.248046875
 40
0.2485351562
 40
0.2490234375
 40
0.2492675781
 40
0.2495117188
 40
0.2497558594
 40
0.2498779297
 40
0.2499389648
 40
0.25
 40
0.2500610352
 40
0.2501220703
 40
0.2502441406
 40
0.2504882812
 40
0.2507324219
 40
0.2509765625
 40
0.2514648438
 40
0.251953125
 40
0.2529296875
 40
0.25390625
 40
0.2548828125
 40
0.255859375
 40
0.2578125
 40
0.259765625
 40
0.26171875
 40
0.265625
 40
0.26953125
 40
0.2734375
 40
0.27734375
 40
0.28125
 40
0.28515625
 40
0.2890625
 40
0.29296875
 40
0.296875
 40
0.30078125
 40
0.302734375
 40
0.3046875
 40
0.306640625
 40
0.3076171875
 40
0.30859375
 40
0.3095703125
 40
0.310546875
 40
0.3110351562
 40
0.3115234375
 40
0.3117675781
 40
0.3120117188
 40
0.3122558594
 40
0.3123779297
 40
0.3124389648
 40
0.3125
 40
0.3125610352
 40
0.3126220703
 40
0.3127441406
 40
0.3129882812
 40
0.3132324219
 40
0.3134765625
 40
0.3139648438
 40
0.314453125
 40
0.3154296875
 40
0.31640625
 40
0.3173828125
 40
0.318359375
 40
0.3203125
 40
0.322265625
 40
0.32421875
 40
0.328125
 40
0.33203125
 40
0.3359375
 40
0.33984375
 40
0.34375
 40
0.34765625
 40
0.3515625
 40
0.35546875
 40
0.359375
 40
0.36328125
 40
0.365234375
 40
0.3671875
 40
0.369140625
 40
0.3701171875
 40
0.37109375
 40
0.3720703125
 40
0.373046875
 40
0.3735351562
 40
0.3740234375
 40
0.3742675781
 40
0.3745117188
 40
0.3747558594
 40
0.3748779297
 40
0.3749389648
 40
0.375
 40
0.3750610352
 40
0.3751220703
 40
0.3752441406
 40
0.3754882812
 40
0.3757324219
 40
0.3759765625
 40
0.3764648438
 40
0.376953125
 40
0.3779296875
 40
0.37890625
 40
0.3798828125
 40
0.380859375
 40
0.3828125
 40
0.384765625
 40
0.38671875
 40
0.390625
 40
0.39453125
 40
0.3984375
 40
0.40234375
 40
0.40625
 40
0.41015625
 40
0.4140625
 40
0.41796875
 40
0.421875
 40
0.42578125
 40
0.427734375
 40
0.4296875
 40
0.431640625
 40
0.4326171875
 40
0.43359375
 40
0.4345703125
 40
0.435546875
 40
0.4360351562
 40
0.4365234375
 40
0.4367675781
 40
0.4370117188
 40
0.4372558594
 40
0.4373779297
 40
0.4374389648
 40
0.4375
 40
0.4375610352
 40
0.4376220703
 40
0.4377441406
 40
0.4379882812
 40
0.4382324219
 40
0.4384765625
 40
0.4389648438
 40
0.439453125
 40
0.4404296875
 40
0.44140625
 40
0.4423828125
 40
0.443359375
 40
0.4453125
 40
0.447265625
 40
0.44921875
 40
0.453125
 40
0.45703125
 40
0.4609375
 40
0.46484375
 40
0.46875
 40
0.47265625
 40
0.4765625
 40
0.48046875
 40
0.484375
 40
0.48828125
 40
0.490234375
 40
0.4921875
 40
0.494140625
 40
0.4951171875
 40
0.49609375
 40
0.4970703125
 40
0.498046875
 40
0.4985351562
 40
0.4990234375
 40
0.4992675781
 40
0.4995117188
 40
0.4997558594
 40
0.4998779297
 40
0.4999389648
 40
0.5
 40
0.5000610352
 40
0.5001220703
 40
0.5002441406
 40
0.5004882812
 40
0.5007324219
 40
0.5009765625
 40
0.5014648438
 40
0.501953125
 40
0.5029296875
 40
0.50390625
 40
0.5048828125
 40
0.505859375
 40
0.5078125
 40
0.509765625
 40
0.51171875
 40
0.515625
 40
0.51953125
 40
0.5234375
 40
0.52734375
 40
0.53125
 40
0.53515625
 40
0.5390625
 40
0.54296875
 40
0.546875
 40
0.55078125
 40
0.552734375
 40
0.5546875
 40
0.556640625
 40
0.5576171875
 40
0.55859375
 40
0.5595703125
 40
0.560546875
 40
0.5610351562
 40
0.5615234375
 40
0.5617675781
 40
0.5620117188
 40
0.5622558594
 40
0.5623779297
 40
0.5624389648
 40
0.5625
 40
0.5625610352
 40
0.5626220703
 40
0.5627441406
 40
0.5629882812
 40
0.5632324219
 40
0.5634765625
 40
0.5639648438
 40
0.564453125
 40
0.5654296875
 40
0.56640625
 40
0.5673828125
 40
0.568359375
 40
0.5703125
 40
0.572265625
 40
0.57421875
 40
0.578125
 40
0.58203125
 40
0.5859375
 40
0.58984375
 40
0.59375
 40
0.59765625
 40
0.6015625
 40
0.60546875
 40
0.609375
 40
0.61328125
 40
0.615234375
 40
0.6171875
 40
0.619140625
 40
0.6201171875
 40
0.62109375
 40
0.6220703125
 40
0.623046875
 40
0.6235351562
 40
0.6240234375
 40
0.6242675781
 40
0.6245117188
 40
0.6247558594
 40
0.6248779297
 40
0.6249389648
 40
0.625
 40
0.6250610352
 40
0.6251220703
 40
0.6252441406
 40
0.6254882812
 40
0.6257324219
 40
0.6259765625
 40
0.6264648438
 40
0.626953125
 40
0.6279296875
 40
0.62890625
 40
0.6298828125
 40
0.630859375
 40
0.6328125
 40
0.634765625
 40
0.63671875
 40
0.640625
 40
0.64453125
 40
0.6484375
 40
0.65234375
 40
0.65625
 40
0.66015625
 40
0.6640625
 40
0.66796875
 40
0.671875
 40
0.67578125
 40
0.677734375
 40
0.6796875
 40
0.681640625
 40
0.6826171875
 40
0.68359375
 40
0.6845703125
 40
0.685546875
 40
0.6860351562
 40
0.6865234375
 40
0.6867675781
 40
0.6870117188
 40
0.6872558594
 40
0.6873779297
 40
0.6874389648
 40
0.6875
 40
0.6875610352
 40
0.6876220703
 40
0.6877441406
 40
0.6879882812
 40
0.6882324219
 40
0.6884765625
 40
0.6889648438
 40
0.689453125
 40
0.6904296875
 40
0.69140625
 40
0.6923828125
 40
0.693359375
 40
0.6953125
 40
0.697265625
 40
0.69921875
 40
0.703125
 40
0.70703125
 40
0.7109375
 40
0.71484375
 40
0.71875
 40
0.72265625
 40
0.7265625
 40
0.73046875
 40
0.734375
 40
0.73828125
 40
0.740234375
 40
0.7421875
 40
0.744140625
 40
0.7451171875
 40
0.74609375
 40
0.7470703125
 40
0.748046875
 40
0.7485351562
 40
0.7490234375
 40
0.7492675781
 40
0.7495117188
 40
0.7497558594
 40
0.7498779297
 40
0.7499389648
 40
0.75
 40
0.7500610352
 40
0.7501220703
 40
0.7502441406
 40
0.7504882812
 40
0.7507324219
 40
0.7509765625
 40
0.7514648438
 40
0.751953125
 40
0.7529296875
 40
0.75390625
 40
0.7548828125
 40
0.755859375
 40
0.7578125
 40
0.759765625
 40
0.76171875
 40
0.765625
 40
0.76953125
 40
0.7734375
 40
0.77734375
 40
0.78125
 40
0.78515625
 40
0.7890625
 40
0.79296875
 40
0.796875
 40
0.80078125
 40
0.802734375
 40
0.8046875
 40
0.806640625
 40
0.8076171875
 40
0.80859375
 40
0.8095703125
 40
0.810546875
 40
0.8110351562
 40
0.8115234375
 40
0.8117675781
 40
0.8120117188
 40
0.8122558594
 40
0.8123779297
 40
0.8124389648
 40
0.8125
 40
0.8125610352
 40
0.8126220703
 40
0.8127441406
 40
0.8129882812
 40
0.8132324219
 40
0.8134765625
 40
0.8139648438
 40
0.814453125
 40
0.8154296875
 40
0.81640625
 40
0.8173828125
 40
0.818359375
 40
0.8203125
 40
0.822265625
 40
0.82421875
 40
0.828125
 40
0.83203125
 40
0.8359375
 40
0.83984375
 40
0.84375
 40
0.84765625
 40
0.8515625
 40
0.85546875
 40
0.859375
 40
0.86328125
 40
0.865234375
 40
0.8671875
 40
0.869140625
 40
0.8701171875
 40
0.87109375
 40
0.8720703125
 40
0.873046875
 40
0.8735351562
 40
0.8740234375
 40
0.8742675781
 40
0.8745117188
 40
0.8747558594
 40
0.8748779297
 40
0.8749389648
 40
0.875
 40
0.8750610352
 40
0.8751220703
 40
0.8752441406
 40
0.8754882812
 40
0.8757324219
 40
0.8759765625
 40
0.8764648438
 40
0.876953125
 40
0.8779296875
 40
0.87890625
 40
0.8798828125
 40
0.880859375
 40
0.8828125
 40
0.884765625
 40
0.88671875
 40
0.890625
 40
0.89453125
 40
0.8984375
 40
0.90234375
 40
0.90625
 40
0.91015625
 40
0.9140625
 40
0.91796875
 40
0.921875
 40
0.92578125
 40
0.927734375
 40
0.9296875
 40
0.931640625
 40
0.9326171875
 40
0.93359375
 40
0.9345703125
 40
0.935546875
 40
0.9360351562
 40
0.9365234375
 40
0.9367675781
 40
0.9370117188
 40
0.9372558594
 40
0.9373779297
 40
0.9374389648
 40
0.9375
 40
0.9375610352
 40
0.9376220703
 40
0.9377441406
 40
0.9379882812
 40
0.9382324219
 40
0.9384765625
 40
0.9389648438
 40
0.939453125
 40
0.9404296875
 40
0.94140625
 40
0.9423828125
 40
0.943359375
 40
0.9453125
 40
0.947265625
 40
0.94921875
 40
0.953125
 40
0.95703125
 40
0.9609375
 40
0.96484375
 40
0.96875
 40
0.9765625
 40
0.984375
 40
0.9921875
 40
1.0
 40
1.0
 40
1.0
 40
1.0
 10
10.2306708496
 20
8.9165676177
 30
0.0
 10
10.2308088189
 20
8.9151509296
 30
0.0
 10
10.2310847575
 20
8.9123175534
 30
0.0
 10
10.2314986655
 20
8.9080674891
 30
0.0
 10
10.2319125734
 20
8.9038174247
 30
0.0
 10
10.2322574967
 20
8.9002757045
 30
0.0
 10
10.2325334353
 20
8.8974423282
 30
0.0
 10
10.2327403893
 20
8.8953172961
 30
0.0
 10
10.2329473432
 20
8.8931922639
 30
0.0
 10
10.2331542972
 20
8.8910672318
 30
0.0
 10
10.2333267588
 20
8.8892963716
 30
0.0
 10
10.2334647282
 20
8.8878796835
 30
0.0
 10
10.2335682052
 20
8.8868171674
 30
0.0
 10
10.2336544359
 20
8.8859317374
 30
0.0
 10
10.2337234207
 20
8.8852233933
 30
0.0
 10
10.2337751589
 20
8.8846921352
 30
0.0
 10
10.2338268983
 20
8.8841608773
 30
0.0
 10
10.2338700111
 20
8.8837181619
 30
0.0
 10
10.2339045087
 20
8.8833639906
 30
0.0
 10
10.233926053
 20
8.8831426314
 30
0.0
 10
10.2339433266
 20
8.8829655489
 30
0.0
 10
10.2339561775
 20
8.8828327236
 30
0.0
 10
10.2339672183
 20
8.8827220785
 30
0.0
 10
10.2339742958
 20
8.8826445432
 30
0.0
 10
10.2339793568
 20
8.8826003681
 30
0.0
 10
10.2339802884
 20
8.8825668683
 30
0.0
 10
10.2339921682
 20
8.8825347771
 30
0.0
 10
10.2340041892
 20
8.8824914974
 30
0.0
 10
10.2340270051
 20
8.882415987
 30
0.0
 10
10.2340586691
 20
8.8823079952
 30
0.0
 10
10.234097064
 20
8.8821784563
 30
0.0
 10
10.2341481182
 20
8.8820057198
 30
0.0
 10
10.2342119836
 20
8.8817898054
 30
0.0
 10
10.2343141415
 20
8.8814443389
 30
0.0
 10
10.2344418481
 20
8.881012507
 30
0.0
 10
10.234595092
 20
8.8804943081
 30
0.0
 10
10.234748337
 20
8.8799761094
 30
0.0
 10
10.2349526633
 20
8.8792851777
 30
0.0
 10
10.2352080713
 20
8.8784215132
 30
0.0
 10
10.2355145608
 20
8.8773851157
 30
0.0
 10
10.2359232136
 20
8.8760032524
 30
0.0
 10
10.2364340295
 20
8.8742759233
 30
0.0
 10
10.2370470086
 20
8.8722031283
 30
0.0
 10
10.2376599877
 20
8.8701303333
 30
0.0
 10
10.2382729668
 20
8.8680575384
 30
0.0
 10
10.2388859459
 20
8.8659847434
 30
0.0
 10
10.2394989249
 20
8.8639119484
 30
0.0
 10
10.240111904
 20
8.8618391535
 30
0.0
 10
10.2407248831
 20
8.8597663585
 30
0.0
 10
10.2413378622
 20
8.8576935636
 30
0.0
 10
10.2418486782
 20
8.8559662344
 30
0.0
 10
10.2422573309
 20
8.8545843711
 30
0.0
 10
10.2425638204
 20
8.8535479736
 30
0.0
 10
10.2428192284
 20
8.8526843091
 30
0.0
 10
10.2430235548
 20
8.8519933774
 30
0.0
 10
10.2431767994
 20
8.8514751786
 30
0.0
 10
10.2433300449
 20
8.8509569801
 30
0.0
 10
10.2434577465
 20
8.850525147
 30
0.0
 10
10.2435599146
 20
8.8501796829
 30
0.0
 10
10.243623754
 20
8.8499637624
 30
0.0
 10
10.2436748614
 20
8.8497910384
 30
0.0
 10
10.2437130937
 20
8.8496614616
 30
0.0
 10
10.2437452666
 20
8.8495535882
 30
0.0
 10
10.243767174
 20
8.8494778664
 30
0.0
 10
10.2437806507
 20
8.8494349254
 30
0.0
 10
10.2437880588
 20
8.8494017941
 30
0.0
 10
10.2438057857
 20
8.8493722004
 30
0.0
 10
10.2438258221
 20
8.8493315081
 30
0.0
 10
10.2438625629
 20
8.8492608715
 30
0.0
 10
10.2439141731
 20
8.8491596616
 30
0.0
 10
10.2439764805
 20
8.8490383383
 30
0.0
 10
10.244059426
 20
8.8488765289
 30
0.0
 10
10.2441631528
 20
8.8486742827
 30
0.0
 10
10.2443290905
 20
8.84835068
 30
0.0
 10
10.2445365213
 20
8.8479461797
 30
0.0
 10
10.2447854345
 20
8.847460778
 30
0.0
 10
10.2450343487
 20
8.8469753767
 30
0.0
 10
10.245366234
 20
8.8463281748
 30
0.0
 10
10.2457810907
 20
8.8455191724
 30
0.0
 10
10.2462789187
 20
8.8445483696
 30
0.0
 10
10.2469426894
 20
8.8432539658
 30
0.0
 10
10.2477724028
 20
8.8416359611
 30
0.0
 10
10.2487680588
 20
8.8396943555
 30
0.0
 10
10.2497637149
 20
8.8377527498
 30
0.0
 10
10.2507593709
 20
8.8358111442
 30
0.0
 10
10.2517550269
 20
8.8338695386
 30
0.0
 10
10.252750683
 20
8.8319279329
 30
0.0
 10
10.253746339
 20
8.8299863273
 30
0.0
 10
10.2547419951
 20
8.8280447216
 30
0.0
 10
10.2557376511
 20
8.826103116
 30
0.0
 10
10.2565673645
 20
8.8244851113
 30
0.0
 10
10.2572311351
 20
8.8231907075
 30
0.0
 10
10.2577289632
 20
8.8222199047
 30
0.0
 10
10.2581438198
 20
8.8214109023
 30
0.0
 10
10.2584757052
 20
8.8207637005
 30
0.0
 10
10.258724619
 20
8.820278299
 30
0.0
 10
10.2589735338
 20
8.8197928979
 30
0.0
 10
10.2591809598
 20
8.8193883956
 30
0.0
 10
10.2593469073
 20
8.819064797
 30
0.0
 10
10.2594506092
 20
8.8188625406
 30
0.0
 10
10.2595336056
 20
8.818700752
 30
0.0
 10
10.2595957575
 20
8.8185793653
 30
0.0
 10
10.2596478544
 20
8.8184783538
 30
0.0
 10
10.2596837263
 20
8.8184073629
 30
0.0
 10
10.2597051549
 20
8.8183672384
 30
0.0
 10
10.2597186056
 20
8.8183359006
 30
0.0
 10
10.2597420743
 20
8.8183093198
 30
0.0
 10
10.2597698715
 20
8.8182722194
 30
0.0
 10
10.2598201448
 20
8.8182080669
 30
0.0
 10
10.2598911125
 20
8.8181160162
 30
0.0
 10
10.2599766381
 20
8.8180057285
 30
0.0
 10
10.260090545
 20
8.8178586177
 30
0.0
 10
10.2602329722
 20
8.8176747499
 30
0.0
 10
10.2604608313
 20
8.8173805498
 30
0.0
 10
10.2607456636
 20
8.8170128037
 30
0.0
 10
10.2610874588
 20
8.8165715067
 30
0.0
 10
10.261429255
 20
8.8161302101
 30
0.0
 10
10.2618849828
 20
8.8155418146
 30
0.0
 10
10.2624546427
 20
8.8148063202
 30
0.0
 10
10.2631382346
 20
8.8139237268
 30
0.0
 10
10.2640496904
 20
8.8127469358
 30
0.0
 10
10.2651890102
 20
8.8112759469
 30
0.0
 10
10.2665561939
 20
8.8095107603
 30
0.0
 10
10.2679233776
 20
8.8077455736
 30
0.0
 10
10.2692905614
 20
8.805980387
 30
0.0
 10
10.2706577451
 20
8.8042152004
 30
0.0
 10
10.2720249288
 20
8.8024500138
 30
0.0
 10
10.2733921126
 20
8.8006848271
 30
0.0
 10
10.2747592963
 20
8.7989196405
 30
0.0
 10
10.27612648
 20
8.7971544539
 30
0.0
 10
10.2772657998
 20
8.795683465
 30
0.0
 10
10.2781772556
 20
8.7945066739
 30
0.0
 10
10.2788608475
 20
8.7936240806
 30
0.0
 10
10.2794305074
 20
8.7928885862
 30
0.0
 10
10.2798862353
 20
8.7923001907
 30
0.0
 10
10.2802280311
 20
8.7918588939
 30
0.0
 10
10.2805698276
 20
8.7914175978
 30
0.0
 10
10.2808546558
 20
8.7910498487
 30
0.0
 10
10.2810825233
 20
8.7907556548
 30
0.0
 10
10.2812249293
 20
8.7905717712
 30
0.0
 10
10.2813388797
 20
8.7904246929
 30
0.0
 10
10.2814242726
 20
8.7903143058
 30
0.0
 10
10.2814956554
 20
8.7902225661
 30
0.0
 10
10.2815451877
 20
8.7901578585
 30
0.0
 10
10.2815741721
 20
8.7901216475
 30
0.0
 10
10.2815939942
 20
8.7900923349
 30
0.0
 10
10.2816211408
 20
8.7900712572
 30
0.0
 10
10.2816547814
 20
8.7900402812
 30
0.0
 10
10.2817148428
 20
8.7899874115
 30
0.0
 10
10.2818000224
 20
8.7899111837
 30
0.0
 10
10.2819025043
 20
8.7898200099
 30
0.0
 10
10.2820390539
 20
8.7896983401
 30
0.0
 10
10.2822097727
 20
8.7895462887
 30
0.0
 10
10.2824829049
 20
8.7893029865
 30
0.0
 10
10.2828243264
 20
8.7889988656
 30
0.0
 10
10.2832340295
 20
8.7886339176
 30
0.0
 10
10.2836437333
 20
8.7882689703
 30
0.0
 10
10.2841900047
 20
8.7877823737
 30
0.0
 10
10.2848728442
 20
8.787174128
 30
0.0
 10
10.2856922515
 20
8.7864442332
 30
0.0
 10
10.2867847945
 20
8.7854710401
 30
0.0
 10
10.2881504734
 20
8.7842545487
 30
0.0
 10
10.289789288
 20
8.782794759
 30
0.0
 10
10.2914281026
 20
8.7813349694
 30
0.0
 10
10.2930669171
 20
8.7798751797
 30
0.0
 10
10.2947057317
 20
8.7784153901
 30
0.0
 10
10.2963445463
 20
8.7769556004
 30
0.0
 10
10.2979833609
 20
8.7754958107
 30
0.0
 10
10.2996221755
 20
8.7740360211
 30
0.0
 10
10.3012609901
 20
8.7725762314
 30
0.0
 10
10.302626669
 20
8.77135974
 30
0.0
 10
10.303719212
 20
8.7703865469
 30
0.0
 10
10.3045386193
 20
8.7696566521
 30
0.0
 10
10.3052214587
 20
8.7690484064
 30
0.0
 10
10.3057677303
 20
8.7685618099
 30
0.0
 10
10.3061774338
 20
8.7681968623
 30
0.0
 10
10.3065871379
 20
8.7678319155
 30
0.0
 10
10.3069285562
 20
8.7675277906
 30
0.0
 10
10.3072016949
 20
8.7672844966
 30
0.0
 10
10.3073723972
 20
8.7671324244
 30
0.0
 10
10.3075089806
 20
8.7670107974
 30
0.0
 10
10.307611359
 20
8.7669194929
 30
0.0
 10
10.3076968626
 20
8.7668436738
 30
0.0
 10
10.3077563458
 20
8.7667900745
 30
0.0
 10
10.3077909127
 20
8.7667602676
 30
0.0
 10
10.3078152137
 20
8.7667355988
 30
0.0
 10
10.3078457234
 20
8.7667197739
 30
0.0
 10
10.3078842374
 20
8.7666955892
 30
0.0
 10
10.3079526458
 20
8.7666547032
 30
0.0
 10
10.3080498446
 20
8.7665955433
 30
0.0
 10
10.3081667089
 20
8.766524873
 30
0.0
 10
10.3083224492
 20
8.7664305336
 30
0.0
 10
10.3085171516
 20
8.7663126479
 30
0.0
 10
10.3088286602
 20
8.7661240092
 30
0.0
 10
10.3092180512
 20
8.7658882181
 30
0.0
 10
10.3096853182
 20
8.7656052658
 30
0.0
 10
10.3101525857
 20
8.7653223142
 30
0.0
 10
10.310775609
 20
8.7649450452
 30
0.0
 10
10.311554388
 20
8.7644734591
 30
0.0
 10
10.3124889229
 20
8.7639075556
 30
0.0
 10
10.3137349694
 20
8.7631530177
 30
0.0
 10
10.3152925276
 20
8.7622098454
 30
0.0
 10
10.3171615973
 20
8.7610780385
 30
0.0
 10
10.3190306671
 20
8.7599462317
 30
0.0
 10
10.3208997369
 20
8.7588144248
 30
0.0
 10
10.3227688066
 20
8.757682618
 30
0.0
 10
10.3246378764
 20
8.7565508112
 30
0.0
 10
10.3265069462
 20
8.7554190043
 30
0.0
 10
10.3283760159
 20
8.7542871975
 30
0.0
 10
10.3302450857
 20
8.7531553906
 30
0.0
 10
10.3318026438
 20
8.7522122183
 30
0.0
 10
10.3330486904
 20
8.7514576804
 30
0.0
 10
10.3339832252
 20
8.7508917769
 30
0.0
 10
10.3347620043
 20
8.7504201907
 30
0.0
 10
10.3353850276
 20
8.7500429218
 30
0.0
 10
10.3358522949
 20
8.7497599699
 30
0.0
 10
10.3363195627
 20
8.749477019
 30
0.0
 10
10.3367089512
 20
8.7492412235
 30
0.0
 10
10.3370204649
 20
8.7490525939
 30
0.0
 10
10.3372151545
 20
8.7489346851
 30
0.0
 10
10.337370921
 20
8.7488403929
 30
0.0
 10
10.3374877051
 20
8.7487695784
 30
0.0
 10
10.3375851551
 20
8.7487108697
 30
0.0
 10
10.337653115
 20
8.7486691784
 30
0.0
 10
10.3376923476
 20
8.748646284
 30
0.0
 10
10.3377206499
 20
8.7486264955
 30
0.0
 10
10.3377532414
 20
8.7486167134
 30
0.0
 10
10.3377952005
 20
8.7486001802
 30
0.0
 10
10.3378693261
 20
8.7485728733
 30
0.0
 10
10.3379748554
 20
8.7485330134
 30
0.0
 10
10.3381016465
 20
8.7484855453
 30
0.0
 10
10.3382706468
 20
8.7484221274
 30
0.0
 10
10.3384819158
 20
8.7483428986
 30
0.0
 10
10.3388199359
 20
8.7482161081
 30
0.0
 10
10.3392424645
 20
8.7480576284
 30
0.0
 10
10.3397494974
 20
8.7478674492
 30
0.0
 10
10.3402565306
 20
8.747677271
 30
0.0
 10
10.3409325748
 20
8.7474236996
 30
0.0
 10
10.3417776301
 20
8.7471067355
 30
0.0
 10
10.3427916964
 20
8.7467263786
 30
0.0
 10
10.3441437848
 20
8.746219236
 30
0.0
 10
10.3458338954
 20
8.7455853078
 30
0.0
 10
10.347862028
 20
8.744824594
 30
0.0
 10
10.3498901607
 20
8.7440638801
 30
0.0
 10
10.3519182933
 20
8.7433031663
 30
0.0
 10
10.353946426
 20
8.7425424524
 30
0.0
 10
10.3559745586
 20
8.7417817385
 30
0.0
 10
10.3580026913
 20
8.7410210247
 30
0.0
 10
10.3600308239
 20
8.7402603108
 30
0.0
 10
10.3620589566
 20
8.739499597
 30
0.0
 10
10.3637490671
 20
8.7388656688
 30
0.0
 10
10.3651011556
 20
8.7383585262
 30
0.0
 10
10.3661152219
 20
8.7379781693
 30
0.0
 10
10.3669602772
 20
8.7376612051
 30
0.0
 10
10.3676363214
 20
8.7374076339
 30
0.0
 10
10.3681433545
 20
8.7372174553
 30
0.0
 10
10.3686503879
 20
8.7370272776
 30
0.0
 10
10.3690729148
 20
8.736868793
 30
0.0
 10
10.3694109384
 20
8.7367420125
 30
0.0
 10
10.3696221983
 20
8.7366627584
 30
0.0
 10
10.3697912175
 20
8.7365993924
 30
0.0
 10
10.369917951
 20
8.7365517659
 30
0.0
 10
10.3700236602
 20
8.7365124018
 30
0.0
 10
10.3700974646
 20
8.7364842096
 30
0.0
 10
10.3701399384
 20
8.7364690949
 30
0.0
 10
10.3701709491
 20
8.7364549557
 30
0.0
 10
10.3702051886
 20
8.7364515315
 30
0.0
 10
10.3702497149
 20
8.7364432284
 30
0.0
 10
10.3703281609
 20
8.7364304393
 30
0.0
 10
10.3704399522
 20
8.7364112588
 30
0.0
 10
10.3705742191
 20
8.7363886319
 30
0.0
 10
10.3707532008
 20
8.7363583265
 30
0.0
 10
10.3709769418
 20
8.7363204915
 30
0.0
 10
10.3713349197
 20
8.7362599293
 30
0.0
 10
10.3717823946
 20
8.7361842355
 30
0.0
 10
10.3723193635
 20
8.7360933991
 30
0.0
 10
10.3728563326
 20
8.7360025637
 30
0.0
 10
10.3735722914
 20
8.7358814496
 30
0.0
 10
10.3744672399
 20
8.735730057
 30
0.0
 10
10.375541178
 20
8.7355483858
 30
0.0
 10
10.3769730956
 20
8.7353061577
 30
0.0
 10
10.3787629926
 20
8.7350033724
 30
0.0
 10
10.3809108689
 20
8.7346400301
 30
0.0
 10
10.3830587452
 20
8.7342766878
 30
0.0
 10
10.3852066216
 20
8.7339133455
 30
0.0
 10
10.3873544979
 20
8.7335500032
 30
0.0
 10
10.3895023742
 20
8.733186661
 30
0.0
 10
10.3916502506
 20
8.7328233187
 30
0.0
 10
10.3937981269
 20
8.7324599764
 30
0.0
 10
10.3959460033
 20
8.7320966341
 30
0.0
 10
10.3977359002
 20
8.7317938489
 30
0.0
 10
10.3991678178
 20
8.7315516207
 30
0.0
 10
10.4002417559
 20
8.7313699495
 30
0.0
 10
10.4011367044
 20
8.7312185569
 30
0.0
 10
10.4018526632
 20
8.7310974428
 30
0.0
 10
10.4023896323
 20
8.731006607
 30
0.0
 10
10.4029266013
 20
8.7309157723
 30
0.0
 10
10.4033740758
 20
8.7308400733
 30
0.0
 10
10.4037320547
 20
8.7307795218
 30
0.0
 10
10.403955793
 20
8.7307416597
 30
0.0
 10
10.4041347802
 20
8.7307114098
 30
0.0
 10
10.4042690301
 20
8.7306886134
 30
0.0
 10
10.4043808747
 20
8.7306699629
 30
0.0
 10
10.4044592255
 20
8.7306562277
 30
0.0
 10
10.4045039043
 20
8.7306494406
 30
0.0
 10
10.4045376758
 20
8.7306413598
 30
0.0
 10
10.4045704442
 20
8.7306447099
 30
0.0
 10
10.4046144854
 20
8.7306451894
 30
0.0
 10
10.4046913944
 20
8.7306478863
 30
0.0
 10
10.4048013497
 20
8.7306507679
 30
0.0
 10
10.4049332595
 20
8.7306546414
 30
0.0
 10
10.405109152
 20
8.730659661
 30
0.0
 10
10.4053290132
 20
8.7306659851
 30
0.0
 10
10.4056807937
 20
8.7306760759
 30
0.0
 10
10.4061205184
 20
8.730688699
 30
0.0
 10
10.4066481885
 20
8.7307038426
 30
0.0
 10
10.4071758584
 20
8.7307189873
 30
0.0
 10
10.4078794184
 20
8.7307391798
 30
0.0
 10
10.4087588683
 20
8.7307644206
 30
0.0
 10
10.4098142083
 20
8.7307947095
 30
0.0
 10
10.4112213282
 20
8.7308350947
 30
0.0
 10
10.412980228
 20
8.7308855762
 30
0.0
 10
10.4150909079
 20
8.7309461541
 30
0.0
 10
10.4172015878
 20
8.7310067319
 30
0.0
 10
10.4193122676
 20
8.7310673097
 30
0.0
 10
10.4214229475
 20
8.7311278875
 30
0.0
 10
10.4235336273
 20
8.7311884653
 30
0.0
 10
10.4256443072
 20
8.7312490432
 30
0.0
 10
10.427754987
 20
8.731309621
 30
0.0
 10
10.4298656669
 20
8.7313701988
 30
0.0
 10
10.4316245668
 20
8.7314206803
 30
0.0
 10
10.4330316867
 20
8.7314610656
 30
0.0
 10
10.4340870266
 20
8.7314913545
 30
0.0
 10
10.4349664766
 20
8.7315165952
 30
0.0
 10
10.4356700365
 20
8.7315367879
 30
0.0
 10
10.4361977065
 20
8.7315519321
 30
0.0
 10
10.4367253763
 20
8.7315670774
 30
0.0
 10
10.4371651018
 20
8.7315796952
 30
0.0
 10
10.4375168807
 20
8.7315897968
 30
0.0
 10
10.4377367458
 20
8.7315960935
 30
0.0
 10
10.4379126304
 20
8.7316011694
 30
0.0
 10
10.4380445645
 20
8.7316048706
 30
0.0
 10
10.4381544438
 20
8.7316082913
 30
0.0
 10
10.4382314883
 20
8.7316100257
 30
0.0
 10
10.4382753124
 20
8.7316120475
 30
0.0
 10
10.4383087476
 20
8.7316106603
 30
0.0
 10
10.438340015
 20
8.7316203718
 30
0.0
 10
10.438382461
 20
8.7316294491
 30
0.0
 10
10.4384563892
 20
8.7316471381
 30
0.0
 10
10.4385621851
 20
8.7316714651
 30
0.0
 10
10.4386890613
 20
8.7317010612
 30
0.0
 10
10.4388582571
 20
8.7317403816
 30
0.0
 10
10.4390697424
 20
8.7317895804
 30
0.0
 10
10.4394081243
 20
8.7318682715
 30
0.0
 10
10.4398310997
 20
8.7319666446
 30
0.0
 10
10.4403386711
 20
8.7320846883
 30
0.0
 10
10.4408462422
 20
8.7322027331
 30
0.0
 10
10.4415230038
 20
8.7323601258
 30
0.0
 10
10.4423689558
 20
8.7325568669
 30
0.0
 10
10.4433840981
 20
8.732792956
 30
0.0
 10
10.4447376213
 20
8.7331077416
 30
0.0
 10
10.4464295252
 20
8.7335012236
 30
0.0
 10
10.4484598099
 20
8.733973402
 30
0.0
 10
10.4504900946
 20
8.7344455804
 30
0.0
 10
10.4525203793
 20
8.7349177587
 30
0.0
 10
10.4545506641
 20
8.7353899371
 30
0.0
 10
10.4565809488
 20
8.7358621155
 30
0.0
 10
10.4586112335
 20
8.7363342938
 30
0.0
 10
10.4606415182
 20
8.7368064722
 30
0.0
 10
10.4626718029
 20
8.7372786506
 30
0.0
 10
10.4643637069
 20
8.7376721326
 30
0.0
 10
10.46571723
 20
8.7379869181
 30
0.0
 10
10.4667323724
 20
8.7382230073
 30
0.0
 10
10.4675783243
 20
8.7384197483
 30
0.0
 10
10.4682550859
 20
8.7385771412
 30
0.0
 10
10.4687626572
 20
8.7386951855
 30
0.0
 10
10.469270228
 20
8.7388132309
 30
0.0
 10
10.469693205
 20
8.7389115989
 30
0.0
 10
10.4700315837
 20
8.7389903004
 30
0.0
 10
10.4702430769
 20
8.7390394727
 30
0.0
 10
10.4704122567
 20
8.7390788475
 30
0.0
 10
10.470539182
 20
8.7391082775
 30
0.0
 10
10.4706448242
 20
8.7391331241
 30
0.0
 10
10.4707190267
 20
8.7391498855
 30
0.0
 10
10.4707610332
 20
8.7391604491
 30
0.0
 10
10.4707936506
 20
8.7391655951
 30
0.0
 10
10.4708220151
 20
8.7391813549
 30
0.0
 10
10.4708613178
 20
8.7391986657
 30
0.0
 10
10.4709294064
 20
8.7392306846
 30
0.0
 10
10.4710270372
 20
8.739275524
 30
0.0
 10
10.4711440394
 20
8.7393297173
 30
0.0
 10
10.4713000965
 20
8.7394018402
 30
0.0
 10
10.4714951493
 20
8.73949204
 30
0.0
 10
10.4718072441
 20
8.7396363339
 30
0.0
 10
10.472197359
 20
8.7398167101
 30
0.0
 10
10.4726654985
 20
8.7400331577
 30
0.0
 10
10.4731336376
 20
8.7402496064
 30
0.0
 10
10.4737578232
 20
8.7405382042
 30
0.0
 10
10.4745380551
 20
8.7408989517
 30
0.0
 10
10.4754743335
 20
8.7413318486
 30
0.0
 10
10.4767227046
 20
8.7419090444
 30
0.0
 10
10.4782831685
 20
8.7426305393
 30
0.0
 10
10.4801557251
 20
8.743496333
 30
0.0
 10
10.4820282818
 20
8.7443621268
 30
0.0
 10
10.4839008384
 20
8.7452279206
 30
0.0
 10
10.4857733951
 20
8.7460937144
 30
0.0
 10
10.4876459518
 20
8.7469595082
 30
0.0
 10
10.4895185084
 20
8.747825302
 30
0.0
 10
10.4913910651
 20
8.7486910958
 30
0.0
 10
10.4932636218
 20
8.7495568896
 30
0.0
 10
10.4948240856
 20
8.7502783844
 30
0.0
 10
10.4960724568
 20
8.7508555803
 30
0.0
 10
10.4970087351
 20
8.7512884772
 30
0.0
 10
10.497788967
 20
8.7516492246
 30
0.0
 10
10.4984131526
 20
8.7519378226
 30
0.0
 10
10.4988812918
 20
8.7521542708
 30
0.0
 10
10.4993494306
 20
8.7523707201
 30
0.0
 10
10.4997395478
 20
8.7525510913
 30
0.0
 10
10.500051638
 20
8.7526953953
 30
0.0
 10
10.5002467026
 20
8.7527855694
 30
0.0
 10
10.5004027354
 20
8.7528577449
 30
0.0
 10
10.5005198119
 20
8.7529117775
 30
0.0
 10
10.5006172104
 20
8.7529571198
 30
0.0
 10
10.5006857136
 20
8.752988241
 30
0.0
 10
10.500724352
 20
8.75300699
 30
0.0
 10
10.500754757
 20
8.7530183321
 30
0.0
 10
10.5007797103
 20
8.7530400703
 30
0.0
 10
10.5008148829
 20
8.7530654283
 30
0.0
 10
10.5008755489
 20
8.7531114943
 30
0.0
 10
10.500962678
 20
8.7531764196
 30
0.0
 10
10.5010670345
 20
8.7532547081
 30
0.0
 10
10.5012062459
 20
8.7533589607
 30
0.0
 10
10.5013802363
 20
8.7534893216
 30
0.0
 10
10.5016586343
 20
8.7536978738
 30
0.0
 10
10.5020066272
 20
8.7539585727
 30
0.0
 10
10.5024242206
 20
8.7542714076
 30
0.0
 10
10.5028418135
 20
8.7545842436
 30
0.0
 10
10.5033986043
 20
8.7550013579
 30
0.0
 10
10.5040945926
 20
8.7555227509
 30
0.0
 10
10.5049297787
 20
8.7561484224
 30
0.0
 10
10.5060433601
 20
8.7569826511
 30
0.0
 10
10.5074353369
 20
8.7580254369
 30
0.0
 10
10.509105709
 20
8.7592767799
 30
0.0
 10
10.5107760811
 20
8.760528123
 30
0.0
 10
10.5124464532
 20
8.761779466
 30
0.0
 10
10.5141168253
 20
8.763030809
 30
0.0
 10
10.5157871974
 20
8.7642821521
 30
0.0
 10
10.5174575696
 20
8.7655334951
 30
0.0
 10
10.5191279417
 20
8.7667848381
 30
0.0
 10
10.5207983138
 20
8.7680361812
 30
0.0
 10
10.5221902905
 20
8.769078967
 30
0.0
 10
10.523303872
 20
8.7699131957
 30
0.0
 10
10.524139058
 20
8.7705388673
 30
0.0
 10
10.5248350464
 20
8.7710602602
 30
0.0
 10
10.5253918371
 20
8.7714773746
 30
0.0
 10
10.5258094303
 20
8.7717902102
 30
0.0
 10
10.5262270226
 20
8.7721030465
 30
0.0
 10
10.5265750189
 20
8.7723637411
 30
0.0
 10
10.52685341
 20
8.7725723021
 30
0.0
 10
10.5270274178
 20
8.7727026407
 30
0.0
 10
10.5271665936
 20
8.7728069391
 30
0.0
 10
10.5272710587
 20
8.7728850874
 30
0.0
 10
10.527357848
 20
8.7729504513
 30
0.0
 10
10.5274191205
 20
8.7729957343
 30
0.0
 10
10.5274533215
 20
8.7730223469
 30
0.0
 10
10.5274812594
 20
8.7730402315
 30
0.0
 10
10.5275004544
 20
8.7730660469
 30
0.0
 10
10.5275290974
 20
8.7730977011
 30
0.0
 10
10.5275778018
 20
8.7731543848
 30
0.0
 10
10.5276481224
 20
8.7732346877
 30
0.0
 10
10.5277321891
 20
8.7733313396
 30
0.0
 10
10.5278443891
 20
8.773460108
 30
0.0
 10
10.5279846011
 20
8.7736211031
 30
0.0
 10
10.5282089616
 20
8.7738786759
 30
0.0
 10
10.5284894048
 20
8.7742006485
 30
0.0
 10
10.5288259399
 20
8.7745870128
 30
0.0
 10
10.5291624741
 20
8.7749733779
 30
0.0
 10
10.5296111866
 20
8.7754885311
 30
0.0
 10
10.5301720772
 20
8.7761324726
 30
0.0
 10
10.5308451459
 20
8.7769052024
 30
0.0
 10
10.5317425709
 20
8.7779355089
 30
0.0
 10
10.5328643522
 20
8.7792233919
 30
0.0
 10
10.5342104897
 20
8.7807688515
 30
0.0
 10
10.5355566271
 20
8.7823143112
 30
0.0
 10
10.5369027646
 20
8.7838597708
 30
0.0
 10
10.5382489021
 20
8.7854052305
 30
0.0
 10
10.5395950396
 20
8.7869506901
 30
0.0
 10
10.5409411771
 20
8.7884961498
 30
0.0
 10
10.5422873146
 20
8.7900416094
 30
0.0
 10
10.5436334521
 20
8.791587069
 30
0.0
 10
10.5447552333
 20
8.7928749521
 30
0.0
 10
10.5456526583
 20
8.7939052585
 30
0.0
 10
10.546325727
 20
8.7946779883
 30
0.0
 10
10.5468866177
 20
8.7953219298
 30
0.0
 10
10.5473353301
 20
8.7958370831
 30
0.0
 10
10.5476718647
 20
8.7962234479
 30
0.0
 10
10.5480083983
 20
8.7966098133
 30
0.0
 10
10.5482888458
 20
8.7969317824
 30
0.0
 10
10.5485131976
 20
8.7971893623
 30
0.0
 10
10.5486534316
 20
8.7973503394
 30
0.0
 10
10.5487655865
 20
8.7974791448
 30
0.0
 10
10.548849791
 20
8.7975756836
 30
0.0
 10
10.5489196804
 20
8.7976563403
 30
0.0
 10
10.5489691546
 20
8.7977123924
 30
0.0
 10
10.5489965642
 20
8.7977450586
 30
0.0
 10
10.5490195477
 20
8.7977677656
 30
0.0
 10
10.5490332568
 20
8.7977973246
 30
0.0
 10
10.5490547705
 20
8.7978343466
 30
0.0
 10
10.5490909123
 20
8.7979002486
 30
0.0
 10
10.5491433315
 20
8.7979938121
 30
0.0
 10
10.5492058972
 20
8.7981063375
 30
0.0
 10
10.549289436
 20
8.7982562843
 30
0.0
 10
10.5493938191
 20
8.7984437477
 30
0.0
 10
10.5495608546
 20
8.7987436724
 30
0.0
 10
10.5497696412
 20
8.799118584
 30
0.0
 10
10.5500201886
 20
8.7995684754
 30
0.0
 10
10.550270735
 20
8.8000183675
 30
0.0
 10
10.5506047972
 20
8.8006182234
 30
0.0
 10
10.5510223748
 20
8.8013680434
 30
0.0
 10
10.551523468
 20
8.8022678274
 30
0.0
 10
10.5521915923
 20
8.8034675393
 30
0.0
 10
10.5530267477
 20
8.8049671792
 30
0.0
 10
10.5540289341
 20
8.8067667471
 30
0.0
 10
10.5550311205
 20
8.808566315
 30
0.0
 10
10.5560333069
 20
8.8103658829
 30
0.0
 10
10.5570354933
 20
8.8121654508
 30
0.0
 10
10.5580376797
 20
8.8139650187
 30
0.0
 10
10.5590398661
 20
8.8157645866
 30
0.0
 10
10.5600420526
 20
8.8175641545
 30
0.0
 10
10.561044239
 20
8.8193637224
 30
0.0
 10
10.5618793943
 20
8.8208633624
 30
0.0
 10
10.5625475186
 20
8.8220630743
 30
0.0
 10
10.5630486118
 20
8.8229628583
 30
0.0
 10
10.5634661895
 20
8.8237126782
 30
0.0
 10
10.5638002516
 20
8.8243125342
 30
0.0
 10
10.5640507984
 20
8.8247624261
 30
0.0
 10
10.5643013442
 20
8.8252123184
 30
0.0
 10
10.5645101355
 20
8.8255872272
 30
0.0
 10
10.5646771616
 20
8.8258871576
 30
0.0
 10
10.5647815686
 20
8.8260746065
 30
0.0
 10
10.5648650583
 20
8.826224583
 30
0.0
 10
10.5649277738
 20
8.8263370177
 30
0.0
 10
10.5649797244
 20
8.826430865
 30
0.0
 10
10.5650167027
 20
8.8264962605
 30
0.0
 10
10.5650368762
 20
8.826534094
 30
0.0
 10
10.5650547019
 20
8.8265611601
 30
0.0
 10
10.5650622239
 20
8.8265932299
 30
0.0
 10
10.5650758472
 20
8.8266342443
 30
0.0
 10
10.5650980134
 20
8.8267068326
 30
0.0
 10
10.5651305549
 20
8.8268101051
 30
0.0
 10
10.56516923
 20
8.8269342141
 30
0.0
 10
10.5652209276
 20
8.8270996292
 30
0.0
 10
10.5652855049
 20
8.8273064198
 30
0.0
 10
10.5653888536
 20
8.8276372726
 30
0.0
 10
10.5655180308
 20
8.8280508427
 30
0.0
 10
10.5656730472
 20
8.8285471252
 30
0.0
 10
10.5658280626
 20
8.8290434081
 30
0.0
 10
10.5660347501
 20
8.8297051184
 30
0.0
 10
10.5662931094
 20
8.8305322564
 30
0.0
 10
10.5666031406
 20
8.831524822
 30
0.0
 10
10.5670165155
 20
8.8328482428
 30
0.0
 10
10.5675332342
 20
8.8345025188
 30
0.0
 10
10.5681532965
 20
8.83648765
 30
0.0
 10
10.5687733589
 20
8.8384727811
 30
0.0
 10
10.5693934213
 20
8.8404579123
 30
0.0
 10
10.5700134837
 20
8.8424430435
 30
0.0
 10
10.570633546
 20
8.8444281747
 30
0.0
 10
10.5712536084
 20
8.8464133059
 30
0.0
 10
10.5718736708
 20
8.848398437
 30
0.0
 10
10.5724937332
 20
8.8503835682
 30
0.0
 10
10.5730104518
 20
8.8520378442
 30
0.0
 10
10.5734238267
 20
8.853361265
 30
0.0
 10
10.5737338579
 20
8.8543538306
 30
0.0
 10
10.5739922173
 20
8.8551809686
 30
0.0
 10
10.5741989047
 20
8.855842679
 30
0.0
 10
10.5743539205
 20
8.8563389617
 30
0.0
 10
10.5745089353
 20
8.8568352448
 30
0.0
 10
10.5746381175
 20
8.8572488128
 30
0.0
 10
10.574741456
 20
8.85757967
 30
0.0
 10
10.5748060591
 20
8.8577864496
 30
0.0
 10
10.5748577036
 20
8.8579518872
 30
0.0
 10
10.5748965412
 20
8.8580759274
 30
0.0
 10
10.5749285743
 20
8.858179415
 30
0.0
 10
10.5749516481
 20
8.8582516193
 30
0.0
 10
10.5749638173
 20
8.8582932491
 30
0.0
 10
10.5749758058
 20
8.8583234284
 30
0.0
 10
10.5749768555
 20
8.8583575951
 30
0.0
 10
10.5749820707
 20
8.8584017598
 30
0.0
 10
10.5749894196
 20
8.8584796961
 30
0.0
 10
10.5750008473
 20
8.858590695
 30
0.0
 10
10.5750141628
 20
8.8587240386
 30
0.0
 10
10.5750320557
 20
8.8589017794
 30
0.0
 10
10.5750543743
 20
8.8591239727
 30
0.0
 10
10.5750901107
 20
8.8594794724
 30
0.0
 10
10.575134772
 20
8.8599238503
 30
0.0
 10
10.5751883694
 20
8.8604571024
 30
0.0
 10
10.5752419658
 20
8.8609903549
 30
0.0
 10
10.5753134281
 20
8.861701358
 30
0.0
 10
10.5754027558
 20
8.862590112
 30
0.0
 10
10.5755099491
 20
8.8636566168
 30
0.0
 10
10.5756528735
 20
8.8650786231
 30
0.0
 10
10.5758315289
 20
8.8668561311
 30
0.0
 10
10.5760459155
 20
8.8689891406
 30
0.0
 10
10.576260302
 20
8.8711221501
 30
0.0
 10
10.5764746886
 20
8.8732551596
 30
0.0
 10
10.5767605374
 20
8.8760991723
 30
0.0
 10
10.5771178483
 20
8.8796541882
 30
0.0
 10
10.5775466214
 20
8.8839202073
 30
0.0
 10
10.5779753945
 20
8.8881862263
 30
0.0
 10
10.5782612433
 20
8.8910302391
 30
0.0
 10
10.5784041676
 20
8.8924522454
 30
0.0
  0
SPLINE
  5
34F
100
AcDbEntity
  8
0
100
AcDbSpline
 62
4
  6
CONTINUOUS
 70
0
 71
3
 72
615
 73
611
 74
0
 42
0.0000001
 43
0.0000001
 44
0.0000000001
 40
0.0
 40
0.0
 40
0.0
 40
0.0
 40
0.0078125
 40
0.015625
 40
0.0234375
 40
0.03125
 40
0.03515625
 40
0.0390625
 40
0.04296875
 40
0.046875
 40
0.05078125
 40
0.052734375
 40
0.0546875
 40
0.056640625
 40
0.0576171875
 40
0.05859375
 40
0.0595703125
 40
0.060546875
 40
0.0610351562
 40
0.0615234375
 40
0.0617675781
 40
0.0620117188
 40
0.0622558594
 40
0.0623779297
 40
0.0624389648
 40
0.0625
 40
0.0625610352
 40
0.0626220703
 40
0.0627441406
 40
0.0629882812
 40
0.0632324219
 40
0.0634765625
 40
0.0639648438
 40
0.064453125
 40
0.0654296875
 40
0.06640625
 40
0.0673828125
 40
0.068359375
 40
0.0703125
 40
0.072265625
 40
0.07421875
 40
0.078125
 40
0.08203125
 40
0.0859375
 40
0.08984375
 40
0.09375
 40
0.09765625
 40
0.1015625
 40
0.10546875
 40
0.109375
 40
0.11328125
 40
0.115234375
 40
0.1171875
 40
0.119140625
 40
0.1201171875
 40
0.12109375
 40
0.1220703125
 40
0.123046875
 40
0.1235351562
 40
0.1240234375
 40
0.1242675781
 40
0.1245117188
 40
0.1247558594
 40
0.1248779297
 40
0.1249389648
 40
0.125
 40
0.1250610352
 40
0.1251220703
 40
0.1252441406
 40
0.1254882812
 40
0.1257324219
 40
0.1259765625
 40
0.1264648438
 40
0.126953125
 40
0.1279296875
 40
0.12890625
 40
0.1298828125
 40
0.130859375
 40
0.1328125
 40
0.134765625
 40
0.13671875
 40
0.140625
 40
0.14453125
 40
0.1484375
 40
0.15234375
 40
0.15625
 40
0.16015625
 40
0.1640625
 40
0.16796875
 40
0.171875
 40
0.17578125
 40
0.177734375
 40
0.1796875
 40
0.181640625
 40
0.1826171875
 40
0.18359375
 40
0.1845703125
 40
0.185546875
 40
0.1860351562
 40
0.1865234375
 40
0.1867675781
 40
0.1870117188
 40
0.1872558594
 40
0.1873779297
 40
0.1874389648
 40
0.1875
 40
0.1875610352
 40
0.1876220703
 40
0.1877441406
 40
0.1879882812
 40
0.1882324219
 40
0.1884765625
 40
0.1889648438
 40
0.189453125
 40
0.1904296875
 40
0.19140625
 40
0.1923828125
 40
0.193359375
 40
0.1953125
 40
0.197265625
 40
0.19921875
 40
0.203125
 40
0.20703125
 40
0.2109375
 40
0.21484375
 40
0.21875
 40
0.22265625
 40
0.2265625
 40
0.23046875
 40
0.234375
 40
0.23828125
 40
0.240234375
 40
0.2421875
 40
0.244140625
 40
0.2451171875
 40
0.24609375
 40
0.2470703125
 40
0.248046875
 40
0.2485351562
 40
0.2490234375
 40
0.2492675781
 40
0.2495117188
 40
0.2497558594
 40
0.2498779297
 40
0.2499389648
 40
0.25
 40
0.2500610352
 40
0.2501220703
 40
0.2502441406
 40
0.2504882812
 40
0.2507324219
 40
0.2509765625
 40
0.2514648438
 40
0.251953125
 40
0.2529296875
 40
0.25390625
 40
0.2548828125
 40
0.255859375
 40
0.2578125
 40
0.259765625
 40
0.26171875
 40
0.265625
 40
0.26953125
 40
0.2734375
 40
0.27734375
 40
0.28125
 40
0.28515625
 40
0.2890625
 40
0.29296875
 40
0.296875
 40
0.30078125
 40
0.302734375
 40
0.3046875
 40
0.306640625
 40
0.3076171875
 40
0.30859375
 40
0.3095703125
 40
0.310546875
 40
0.3110351562
 40
0.3115234375
 40
0.3117675781
 40
0.3120117188
 40
0.3122558594
 40
0.3123779297
 40
0.3124389648
 40
0.3125
 40
0.3125610352
 40
0.3126220703
 40
0.3127441406
 40
0.3129882812
 40
0.3132324219
 40
0.3134765625
 40
0.3139648438
 40
0.314453125
 40
0.3154296875
 40
0.31640625
 40
0.3173828125
 40
0.318359375
 40
0.3203125
 40
0.322265625
 40
0.32421875
 40
0.328125
 40
0.33203125
 40
0.3359375
 40
0.33984375
 40
0.34375
 40
0.34765625
 40
0.3515625
 40
0.35546875
 40
0.359375
 40
0.36328125
 40
0.365234375
 40
0.3671875
 40
0.369140625
 40
0.3701171875
 40
0.37109375
 40
0.3720703125
 40
0.373046875
 40
0.3735351562
 40
0.3740234375
 40
0.3742675781
 40
0.3745117188
 40
0.3747558594
 40
0.3748779297
 40
0.3749389648
 40
0.375
 40
0.3750610352
 40
0.3751220703
 40
0.3752441406
 40
0.3754882812
 40
0.3757324219
 40
0.3759765625
 40
0.3764648438
 40
0.376953125
 40
0.3779296875
 40
0.37890625
 40
0.3798828125
 40
0.380859375
 40
0.3828125
 40
0.384765625
 40
0.38671875
 40
0.390625
 40
0.39453125
 40
0.3984375
 40
0.40234375
 40
0.40625
 40
0.41015625
 40
0.4140625
 40
0.41796875
 40
0.421875
 40
0.42578125
 40
0.427734375
 40
0.4296875
 40
0.431640625
 40
0.4326171875
 40
0.43359375
 40
0.4345703125
 40
0.435546875
 40
0.4360351562
 40
0.4365234375
 40
0.4367675781
 40
0.4370117188
 40
0.4372558594
 40
0.4373779297
 40
0.4374389648
 40
0.4375
 40
0.4375610352
 40
0.4376220703
 40
0.4377441406
 40
0.4379882812
 40
0.4382324219
 40
0.4384765625
 40
0.4389648438
 40
0.439453125
 40
0.4404296875
 40
0.44140625
 40
0.4423828125
 40
0.443359375
 40
0.4453125
 40
0.447265625
 40
0.44921875
 40
0.453125
 40
0.45703125
 40
0.4609375
 40
0.46484375
 40
0.46875
 40
0.47265625
 40
0.4765625
 40
0.48046875
 40
0.484375
 40
0.48828125
 40
0.490234375
 40
0.4921875
 40
0.494140625
 40
0.4951171875
 40
0.49609375
 40
0.4970703125
 40
0.498046875
 40
0.4985351562
 40
0.4990234375
 40
0.4992675781
 40
0.4995117188
 40
0.4997558594
 40
0.4998779297
 40
0.4999389648
 40
0.5
 40
0.5000610352
 40
0.5001220703
 40
0.5002441406
 40
0.5004882812
 40
0.5007324219
 40
0.5009765625
 40
0.5014648438
 40
0.501953125
 40
0.5029296875
 40
0.50390625
 40
0.5048828125
 40
0.505859375
 40
0.5078125
 40
0.509765625
 40
0.51171875
 40
0.515625
 40
0.51953125
 40
0.5234375
 40
0.52734375
 40
0.53125
 40
0.53515625
 40
0.5390625
 40
0.54296875
 40
0.546875
 40
0.55078125
 40
0.552734375
 40
0.5546875
 40
0.556640625
 40
0.5576171875
 40
0.55859375
 40
0.5595703125
 40
0.560546875
 40
0.5610351562
 40
0.5615234375
 40
0.5617675781
 40
0.5620117188
 40
0.5622558594
 40
0.5623779297
 40
0.5624389648
 40
0.5625
 40
0.5625610352
 40
0.5626220703
 40
0.5627441406
 40
0.5629882812
 40
0.5632324219
 40
0.5634765625
 40
0.5639648438
 40
0.564453125
 40
0.5654296875
 40
0.56640625
 40
0.5673828125
 40
0.568359375
 40
0.5703125
 40
0.572265625
 40
0.57421875
 40
0.578125
 40
0.58203125
 40
0.5859375
 40
0.58984375
 40
0.59375
 40
0.59765625
 40
0.6015625
 40
0.60546875
 40
0.609375
 40
0.61328125
 40
0.615234375
 40
0.6171875
 40
0.619140625
 40
0.6201171875
 40
0.62109375
 40
0.6220703125
 40
0.623046875
 40
0.6235351562
 40
0.6240234375
 40
0.6242675781
 40
0.6245117188
 40
0.6247558594
 40
0.6248779297
 40
0.6249389648
 40
0.625
 40
0.6250610352
 40
0.6251220703
 40
0.6252441406
 40
0.6254882812
 40
0.6257324219
 40
0.6259765625
 40
0.6264648438
 40
0.626953125
 40
0.6279296875
 40
0.62890625
 40
0.6298828125
 40
0.630859375
 40
0.6328125
 40
0.634765625
 40
0.63671875
 40
0.640625
 40
0.64453125
 40
0.6484375
 40
0.65234375
 40
0.65625
 40
0.66015625
 40
0.6640625
 40
0.66796875
 40
0.671875
 40
0.67578125
 40
0.677734375
 40
0.6796875
 40
0.681640625
 40
0.6826171875
 40
0.68359375
 40
0.6845703125
 40
0.685546875
 40
0.6860351562
 40
0.6865234375
 40
0.6867675781
 40
0.6870117188
 40
0.6872558594
 40
0.6873779297
 40
0.6874389648
 40
0.6875
 40
0.6875610352
 40
0.6876220703
 40
0.6877441406
 40
0.6879882812
 40
0.6882324219
 40
0.6884765625
 40
0.6889648438
 40
0.689453125
 40
0.6904296875
 40
0.69140625
 40
0.6923828125
 40
0.693359375
 40
0.6953125
 40
0.697265625
 40
0.69921875
 40
0.703125
 40
0.70703125
 40
0.7109375
 40
0.71484375
 40
0.71875
 40
0.72265625
 40
0.7265625
 40
0.73046875
 40
0.734375
 40
0.73828125
 40
0.740234375
 40
0.7421875
 40
0.744140625
 40
0.7451171875
 40
0.74609375
 40
0.7470703125
 40
0.748046875
 40
0.7485351562
 40
0.7490234375
 40
0.7492675781
 40
0.7495117188
 40
0.7497558594
 40
0.7498779297
 40
0.7499389648
 40
0.75
 40
0.7500610352
 40
0.7501220703
 40
0.7502441406
 40
0.7504882812
 40
0.7507324219
 40
0.7509765625
 40
0.7514648438
 40
0.751953125
 40
0.7529296875
 40
0.75390625
 40
0.7548828125
 40
0.755859375
 40
0.7578125
 40
0.759765625
 40
0.76171875
 40
0.765625
 40
0.76953125
 40
0.7734375
 40
0.77734375
 40
0.78125
 40
0.78515625
 40
0.7890625
 40
0.79296875
 40
0.796875
 40
0.80078125
 40
0.802734375
 40
0.8046875
 40
0.806640625
 40
0.8076171875
 40
0.80859375
 40
0.8095703125
 40
0.810546875
 40
0.8110351562
 40
0.8115234375
 40
0.8117675781
 40
0.8120117188
 40
0.8122558594
 40
0.8123779297
 40
0.8124389648
 40
0.8125
 40
0.8125610352
 40
0.8126220703
 40
0.8127441406
 40
0.8129882812
 40
0.8132324219
 40
0.8134765625
 40
0.8139648438
 40
0.814453125
 40
0.8154296875
 40
0.81640625
 40
0.8173828125
 40
0.818359375
 40
0.8203125
 40
0.822265625
 40
0.82421875
 40
0.828125
 40
0.83203125
 40
0.8359375
 40
0.83984375
 40
0.84375
 40
0.84765625
 40
0.8515625
 40
0.85546875
 40
0.859375
 40
0.86328125
 40
0.865234375
 40
0.8671875
 40
0.869140625
 40
0.8701171875
 40
0.87109375
 40
0.8720703125
 40
0.873046875
 40
0.8735351562
 40
0.8740234375
 40
0.8742675781
 40
0.8745117188
 40
0.8747558594
 40
0.8748779297
 40
0.8749389648
 40
0.875
 40
0.8750610352
 40
0.8751220703
 40
0.8752441406
 40
0.8754882812
 40
0.8757324219
 40
0.8759765625
 40
0.8764648438
 40
0.876953125
 40
0.8779296875
 40
0.87890625
 40
0.8798828125
 40
0.880859375
 40
0.8828125
 40
0.884765625
 40
0.88671875
 40
0.890625
 40
0.89453125
 40
0.8984375
 40
0.90234375
 40
0.90625
 40
0.91015625
 40
0.9140625
 40
0.91796875
 40
0.921875
 40
0.92578125
 40
0.927734375
 40
0.9296875
 40
0.931640625
 40
0.9326171875
 40
0.93359375
 40
0.9345703125
 40
0.935546875
 40
0.9360351562
 40
0.9365234375
 40
0.9367675781
 40
0.9370117188
 40
0.9372558594
 40
0.9373779297
 40
0.9374389648
 40
0.9375
 40
0.9375610352
 40
0.9376220703
 40
0.9377441406
 40
0.9379882812
 40
0.9382324219
 40
0.9384765625
 40
0.9389648438
 40
0.939453125
 40
0.9404296875
 40
0.94140625
 40
0.9423828125
 40
0.943359375
 40
0.9453125
 40
0.947265625
 40
0.94921875
 40
0.953125
 40
0.95703125
 40
0.9609375
 40
0.96484375
 40
0.96875
 40
0.9765625
 40
0.984375
 40
0.9921875
 40
1.0
 40
1.0
 40
1.0
 40
1.0
 10
10.5784041676
 20
8.8924522302
 30
0.0
 10
10.5782661983
 20
8.8938689183
 30
0.0
 10
10.5779902597
 20
8.8967022945
 30
0.0
 10
10.5775763518
 20
8.9009523589
 30
0.0
 10
10.5771624438
 20
8.9052024232
 30
0.0
 10
10.5768175205
 20
8.9087441435
 30
0.0
 10
10.5765415819
 20
8.9115775197
 30
0.0
 10
10.5763346279
 20
8.9137025518
 30
0.0
 10
10.576127674
 20
8.915827584
 30
0.0
 10
10.57592072
 20
8.9179526162
 30
0.0
 10
10.5757482584
 20
8.9197234763
 30
0.0
 10
10.5756102891
 20
8.9211401644
 30
0.0
 10
10.5755068121
 20
8.9222026805
 30
0.0
 10
10.5754205813
 20
8.9230881106
 30
0.0
 10
10.5753515965
 20
8.9237964546
 30
0.0
 10
10.5752998583
 20
8.9243277127
 30
0.0
 10
10.575248119
 20
8.9248589706
 30
0.0
 10
10.5752050061
 20
8.925301686
 30
0.0
 10
10.5751705085
 20
8.9256558573
 30
0.0
 10
10.5751489642
 20
8.9258772166
 30
0.0
 10
10.5751316906
 20
8.9260542991
 30
0.0
 10
10.5751188397
 20
8.9261871243
 30
0.0
 10
10.5751077989
 20
8.9262977694
 30
0.0
 10
10.5751007214
 20
8.9263753047
 30
0.0
 10
10.5750956604
 20
8.9264194798
 30
0.0
 10
10.5750947288
 20
8.9264529796
 30
0.0
 10
10.575082849
 20
8.9264850708
 30
0.0
 10
10.575070828
 20
8.9265283505
 30
0.0
 10
10.5750480121
 20
8.926603861
 30
0.0
 10
10.5750163481
 20
8.9267118527
 30
0.0
 10
10.5749779532
 20
8.9268413916
 30
0.0
 10
10.574926899
 20
8.9270141281
 30
0.0
 10
10.5748630336
 20
8.9272300425
 30
0.0
 10
10.5747608757
 20
8.927575509
 30
0.0
 10
10.5746331692
 20
8.928007341
 30
0.0
 10
10.5744799252
 20
8.9285255398
 30
0.0
 10
10.5743266802
 20
8.9290437385
 30
0.0
 10
10.5741223539
 20
8.9297346702
 30
0.0
 10
10.5738669459
 20
8.9305983348
 30
0.0
 10
10.5735604564
 20
8.9316347322
 30
0.0
 10
10.5731518037
 20
8.9330165955
 30
0.0
 10
10.5726409877
 20
8.9347439247
 30
0.0
 10
10.5720280087
 20
8.9368167196
 30
0.0
 10
10.5714150296
 20
8.9388895146
 30
0.0
 10
10.5708020505
 20
8.9409623096
 30
0.0
 10
10.5701890714
 20
8.9430351045
 30
0.0
 10
10.5695760923
 20
8.9451078995
 30
0.0
 10
10.5689631132
 20
8.9471806944
 30
0.0
 10
10.5683501341
 20
8.9492534894
 30
0.0
 10
10.567737155
 20
8.9513262844
 30
0.0
 10
10.5672263391
 20
8.9530536135
 30
0.0
 10
10.5668176863
 20
8.9544354768
 30
0.0
 10
10.5665111968
 20
8.9554718743
 30
0.0
 10
10.5662557889
 20
8.9563355389
 30
0.0
 10
10.5660514624
 20
8.9570264705
 30
0.0
 10
10.5658982179
 20
8.9575446693
 30
0.0
 10
10.5657449723
 20
8.9580628678
 30
0.0
 10
10.5656172707
 20
8.9584947009
 30
0.0
 10
10.5655151026
 20
8.958840165
 30
0.0
 10
10.5654512632
 20
8.9590560855
 30
0.0
 10
10.5654001558
 20
8.9592288095
 30
0.0
 10
10.5653619235
 20
8.9593583863
 30
0.0
 10
10.5653297506
 20
8.9594662597
 30
0.0
 10
10.5653078432
 20
8.9595419815
 30
0.0
 10
10.5652943665
 20
8.9595849226
 30
0.0
 10
10.5652869584
 20
8.9596180538
 30
0.0
 10
10.5652692316
 20
8.9596476476
 30
0.0
 10
10.5652491951
 20
8.9596883398
 30
0.0
 10
10.5652124543
 20
8.9597589764
 30
0.0
 10
10.5651608441
 20
8.9598601864
 30
0.0
 10
10.5650985367
 20
8.9599815097
 30
0.0
 10
10.5650155912
 20
8.960143319
 30
0.0
 10
10.5649118644
 20
8.9603455653
 30
0.0
 10
10.5647459267
 20
8.9606691679
 30
0.0
 10
10.564538496
 20
8.9610736682
 30
0.0
 10
10.5642895827
 20
8.9615590699
 30
0.0
 10
10.5640406685
 20
8.9620444713
 30
0.0
 10
10.5637087832
 20
8.9626916732
 30
0.0
 10
10.5632939265
 20
8.9635006755
 30
0.0
 10
10.5627960985
 20
8.9644714783
 30
0.0
 10
10.5621323278
 20
8.9657658821
 30
0.0
 10
10.5613026144
 20
8.9673838868
 30
0.0
 10
10.5603069584
 20
8.9693254924
 30
0.0
 10
10.5593113024
 20
8.9712670981
 30
0.0
 10
10.5583156463
 20
8.9732087037
 30
0.0
 10
10.5573199903
 20
8.9751503094
 30
0.0
 10
10.5563243342
 20
8.977091915
 30
0.0
 10
10.5553286782
 20
8.9790335207
 30
0.0
 10
10.5543330222
 20
8.9809751263
 30
0.0
 10
10.5533373661
 20
8.9829167319
 30
0.0
 10
10.5525076528
 20
8.9845347367
 30
0.0
 10
10.5518438821
 20
8.9858291404
 30
0.0
 10
10.551346054
 20
8.9867999432
 30
0.0
 10
10.5509311974
 20
8.9876089456
 30
0.0
 10
10.550599312
 20
8.9882561475
 30
0.0
 10
10.5503503982
 20
8.988741549
 30
0.0
 10
10.5501014834
 20
8.98922695
 30
0.0
 10
10.5498940574
 20
8.9896314523
 30
0.0
 10
10.5497281099
 20
8.989955051
 30
0.0
 10
10.549624408
 20
8.9901573074
 30
0.0
 10
10.5495414116
 20
8.9903190959
 30
0.0
 10
10.5494792597
 20
8.9904404827
 30
0.0
 10
10.5494271629
 20
8.9905414941
 30
0.0
 10
10.5493912909
 20
8.990612485
 30
0.0
 10
10.5493698623
 20
8.9906526095
 30
0.0
 10
10.5493564117
 20
8.9906839474
 30
0.0
 10
10.5493329429
 20
8.9907105282
 30
0.0
 10
10.5493051457
 20
8.9907476285
 30
0.0
 10
10.5492548725
 20
8.990811781
 30
0.0
 10
10.5491839047
 20
8.9909038317
 30
0.0
 10
10.5490983791
 20
8.9910141195
 30
0.0
 10
10.5489844722
 20
8.9911612303
 30
0.0
 10
10.548842045
 20
8.9913450981
 30
0.0
 10
10.5486141859
 20
8.9916392981
 30
0.0
 10
10.5483293536
 20
8.9920070442
 30
0.0
 10
10.5479875584
 20
8.9924483412
 30
0.0
 10
10.5476457623
 20
8.9928896378
 30
0.0
 10
10.5471900344
 20
8.9934780334
 30
0.0
 10
10.5466203745
 20
8.9942135278
 30
0.0
 10
10.5459367826
 20
8.9950961211
 30
0.0
 10
10.5450253268
 20
8.9962729122
 30
0.0
 10
10.543886007
 20
8.997743901
 30
0.0
 10
10.5425188233
 20
8.9995090877
 30
0.0
 10
10.5411516396
 20
9.0012742743
 30
0.0
 10
10.5397844558
 20
9.0030394609
 30
0.0
 10
10.5384172721
 20
9.0048046475
 30
0.0
 10
10.5370500884
 20
9.0065698342
 30
0.0
 10
10.5356829046
 20
9.0083350208
 30
0.0
 10
10.5343157209
 20
9.0101002074
 30
0.0
 10
10.5329485372
 20
9.0118653941
 30
0.0
 10
10.5318092174
 20
9.0133363829
 30
0.0
 10
10.5308977616
 20
9.014513174
 30
0.0
 10
10.5302141697
 20
9.0153957673
 30
0.0
 10
10.5296445098
 20
9.0161312618
 30
0.0
 10
10.5291887819
 20
9.0167196573
 30
0.0
 10
10.5288469861
 20
9.0171609541
 30
0.0
 10
10.5285051896
 20
9.0176022501
 30
0.0
 10
10.5282203614
 20
9.0179699993
 30
0.0
 10
10.5279924939
 20
9.0182641931
 30
0.0
 10
10.5278500879
 20
9.0184480767
 30
0.0
 10
10.5277361376
 20
9.018595155
 30
0.0
 10
10.5276507446
 20
9.0187055422
 30
0.0
 10
10.5275793618
 20
9.0187972819
 30
0.0
 10
10.5275298295
 20
9.0188619895
 30
0.0
 10
10.5275008451
 20
9.0188982005
 30
0.0
 10
10.527481023
 20
9.0189275131
 30
0.0
 10
10.5274538764
 20
9.0189485907
 30
0.0
 10
10.5274202358
 20
9.0189795667
 30
0.0
 10
10.5273601744
 20
9.0190324364
 30
0.0
 10
10.5272749948
 20
9.0191086642
 30
0.0
 10
10.5271725129
 20
9.0191998381
 30
0.0
 10
10.5270359633
 20
9.0193215078
 30
0.0
 10
10.5268652445
 20
9.0194735592
 30
0.0
 10
10.5265921123
 20
9.0197168614
 30
0.0
 10
10.5262506909
 20
9.0200209823
 30
0.0
 10
10.5258409878
 20
9.0203859304
 30
0.0
 10
10.525431284
 20
9.0207508776
 30
0.0
 10
10.5248850125
 20
9.0212374742
 30
0.0
 10
10.524202173
 20
9.0218457199
 30
0.0
 10
10.5233827657
 20
9.0225756147
 30
0.0
 10
10.5222902227
 20
9.0235488078
 30
0.0
 10
10.5209245439
 20
9.0247652992
 30
0.0
 10
10.5192857293
 20
9.0262250889
 30
0.0
 10
10.5176469147
 20
9.0276848785
 30
0.0
 10
10.5160081001
 20
9.0291446682
 30
0.0
 10
10.5143692855
 20
9.0306044579
 30
0.0
 10
10.5127304709
 20
9.0320642475
 30
0.0
 10
10.5110916563
 20
9.0335240372
 30
0.0
 10
10.5094528417
 20
9.0349838269
 30
0.0
 10
10.5078140271
 20
9.0364436165
 30
0.0
 10
10.5064483483
 20
9.0376601079
 30
0.0
 10
10.5053558052
 20
9.038633301
 30
0.0
 10
10.5045363979
 20
9.0393631958
 30
0.0
 10
10.5038535585
 20
9.0399714416
 30
0.0
 10
10.5033072869
 20
9.0404580381
 30
0.0
 10
10.5028975834
 20
9.0408229857
 30
0.0
 10
10.5024878793
 20
9.0411879324
 30
0.0
 10
10.502146461
 20
9.0414920573
 30
0.0
 10
10.5018733223
 20
9.0417353514
 30
0.0
 10
10.50170262
 20
9.0418874236
 30
0.0
 10
10.5015660366
 20
9.0420090506
 30
0.0
 10
10.5014636582
 20
9.0421003551
 30
0.0
 10
10.5013781547
 20
9.0421761741
 30
0.0
 10
10.5013186715
 20
9.0422297735
 30
0.0
 10
10.5012841045
 20
9.0422595804
 30
0.0
 10
10.5012598035
 20
9.0422842492
 30
0.0
 10
10.5012292938
 20
9.0423000741
 30
0.0
 10
10.5011907798
 20
9.0423242588
 30
0.0
 10
10.5011223714
 20
9.0423651447
 30
0.0
 10
10.5010251726
 20
9.0424243046
 30
0.0
 10
10.5009083083
 20
9.0424949749
 30
0.0
 10
10.500752568
 20
9.0425893143
 30
0.0
 10
10.5005578657
 20
9.0427072001
 30
0.0
 10
10.500246357
 20
9.0428958388
 30
0.0
 10
10.499856966
 20
9.0431316298
 30
0.0
 10
10.499389699
 20
9.0434145822
 30
0.0
 10
10.4989224315
 20
9.0436975337
 30
0.0
 10
10.4982994083
 20
9.0440748027
 30
0.0
 10
10.4975206292
 20
9.0445463889
 30
0.0
 10
10.4965860943
 20
9.0451122923
 30
0.0
 10
10.4953400478
 20
9.0458668302
 30
0.0
 10
10.4937824896
 20
9.0468100026
 30
0.0
 10
10.4919134199
 20
9.0479418094
 30
0.0
 10
10.4900443501
 20
9.0490736162
 30
0.0
 10
10.4881752803
 20
9.0502054231
 30
0.0
 10
10.4863062106
 20
9.0513372299
 30
0.0
 10
10.4844371408
 20
9.0524690368
 30
0.0
 10
10.482568071
 20
9.0536008436
 30
0.0
 10
10.4806990013
 20
9.0547326505
 30
0.0
 10
10.4788299315
 20
9.0558644573
 30
0.0
 10
10.4772723734
 20
9.0568076297
 30
0.0
 10
10.4760263269
 20
9.0575621676
 30
0.0
 10
10.475091792
 20
9.058128071
 30
0.0
 10
10.4743130129
 20
9.0585996572
 30
0.0
 10
10.4736899896
 20
9.0589769261
 30
0.0
 10
10.4732227223
 20
9.059259878
 30
0.0
 10
10.4727554545
 20
9.059542829
 30
0.0
 10
10.472366066
 20
9.0597786244
 30
0.0
 10
10.4720545523
 20
9.0599672541
 30
0.0
 10
10.4718598628
 20
9.0600851628
 30
0.0
 10
10.4717040962
 20
9.060179455
 30
0.0
 10
10.4715873122
 20
9.0602502695
 30
0.0
 10
10.4714898621
 20
9.0603089783
 30
0.0
 10
10.4714219022
 20
9.0603506696
 30
0.0
 10
10.4713826696
 20
9.0603735639
 30
0.0
 10
10.4713543673
 20
9.0603933524
 30
0.0
 10
10.4713217759
 20
9.0604031346
 30
0.0
 10
10.4712798167
 20
9.0604196677
 30
0.0
 10
10.4712056911
 20
9.0604469746
 30
0.0
 10
10.4711001619
 20
9.0604868346
 30
0.0
 10
10.4709733708
 20
9.0605343026
 30
0.0
 10
10.4708043704
 20
9.0605977205
 30
0.0
 10
10.4705931014
 20
9.0606769493
 30
0.0
 10
10.4702550813
 20
9.0608037398
 30
0.0
 10
10.4698325527
 20
9.0609622195
 30
0.0
 10
10.4693255199
 20
9.0611523987
 30
0.0
 10
10.4688184866
 20
9.061342577
 30
0.0
 10
10.4681424424
 20
9.0615961483
 30
0.0
 10
10.4672973871
 20
9.0619131124
 30
0.0
 10
10.4662833208
 20
9.0622934693
 30
0.0
 10
10.4649312324
 20
9.0628006119
 30
0.0
 10
10.4632411218
 20
9.0634345401
 30
0.0
 10
10.4612129892
 20
9.064195254
 30
0.0
 10
10.4591848565
 20
9.0649559678
 30
0.0
 10
10.4571567239
 20
9.0657166817
 30
0.0
 10
10.4551285912
 20
9.0664773955
 30
0.0
 10
10.4531004586
 20
9.0672381094
 30
0.0
 10
10.4510723259
 20
9.0679988232
 30
0.0
 10
10.4490441933
 20
9.0687595371
 30
0.0
 10
10.4470160606
 20
9.0695202509
 30
0.0
 10
10.4453259501
 20
9.0701541792
 30
0.0
 10
10.4439738616
 20
9.0706613217
 30
0.0
 10
10.4429597953
 20
9.0710416786
 30
0.0
 10
10.4421147401
 20
9.0713586428
 30
0.0
 10
10.4414386958
 20
9.071612214
 30
0.0
 10
10.4409316627
 20
9.0718023927
 30
0.0
 10
10.4404246293
 20
9.0719925703
 30
0.0
 10
10.4400021024
 20
9.0721510549
 30
0.0
 10
10.4396640788
 20
9.0722778354
 30
0.0
 10
10.4394528189
 20
9.0723570895
 30
0.0
 10
10.4392837998
 20
9.0724204555
 30
0.0
 10
10.4391570662
 20
9.0724680821
 30
0.0
 10
10.439051357
 20
9.0725074462
 30
0.0
 10
10.4389775526
 20
9.0725356383
 30
0.0
 10
10.4389350788
 20
9.072550753
 30
0.0
 10
10.4389040682
 20
9.0725648922
 30
0.0
 10
10.4388698287
 20
9.0725683164
 30
0.0
 10
10.4388253023
 20
9.0725766195
 30
0.0
 10
10.4387468563
 20
9.0725894086
 30
0.0
 10
10.438635065
 20
9.0726085891
 30
0.0
 10
10.4385007981
 20
9.072631216
 30
0.0
 10
10.4383218165
 20
9.0726615214
 30
0.0
 10
10.4380980754
 20
9.0726993565
 30
0.0
 10
10.4377400976
 20
9.0727599187
 30
0.0
 10
10.4372926226
 20
9.0728356124
 30
0.0
 10
10.4367556537
 20
9.0729264488
 30
0.0
 10
10.4362186846
 20
9.0730172842
 30
0.0
 10
10.4355027258
 20
9.0731383983
 30
0.0
 10
10.4346077773
 20
9.0732897909
 30
0.0
 10
10.4335338392
 20
9.0734714621
 30
0.0
 10
10.4321019216
 20
9.0737136903
 30
0.0
 10
10.4303120247
 20
9.0740164755
 30
0.0
 10
10.4281641483
 20
9.0743798178
 30
0.0
 10
10.426016272
 20
9.0747431601
 30
0.0
 10
10.4238683956
 20
9.0751065024
 30
0.0
 10
10.4217205193
 20
9.0754698447
 30
0.0
 10
10.419572643
 20
9.075833187
 30
0.0
 10
10.4174247666
 20
9.0761965293
 30
0.0
 10
10.4152768903
 20
9.0765598716
 30
0.0
 10
10.413129014
 20
9.0769232138
 30
0.0
 10
10.411339117
 20
9.0772259991
 30
0.0
 10
10.4099071995
 20
9.0774682273
 30
0.0
 10
10.4088332613
 20
9.0776498984
 30
0.0
 10
10.4079383128
 20
9.0778012911
 30
0.0
 10
10.407222354
 20
9.0779224051
 30
0.0
 10
10.4066853849
 20
9.0780132409
 30
0.0
 10
10.4061484159
 20
9.0781040756
 30
0.0
 10
10.4057009414
 20
9.0781797746
 30
0.0
 10
10.4053429625
 20
9.0782403262
 30
0.0
 10
10.4051192242
 20
9.0782781883
 30
0.0
 10
10.404940237
 20
9.0783084382
 30
0.0
 10
10.4048059871
 20
9.0783312345
 30
0.0
 10
10.4046941425
 20
9.078349885
 30
0.0
 10
10.4046157917
 20
9.0783636202
 30
0.0
 10
10.4045711129
 20
9.0783704074
 30
0.0
 10
10.4045373414
 20
9.0783784881
 30
0.0
 10
10.404504573
 20
9.0783751381
 30
0.0
 10
10.4044605318
 20
9.0783746585
 30
0.0
 10
10.4043836228
 20
9.0783719616
 30
0.0
 10
10.4042736675
 20
9.0783690801
 30
0.0
 10
10.4041417577
 20
9.0783652065
 30
0.0
 10
10.4039658652
 20
9.078360187
 30
0.0
 10
10.403746004
 20
9.0783538628
 30
0.0
 10
10.4033942235
 20
9.078343772
 30
0.0
 10
10.4029544988
 20
9.078331149
 30
0.0
 10
10.4024268287
 20
9.0783160054
 30
0.0
 10
10.4018991588
 20
9.0783008607
 30
0.0
 10
10.4011955988
 20
9.0782806681
 30
0.0
 10
10.4003161489
 20
9.0782554273
 30
0.0
 10
10.399260809
 20
9.0782251384
 30
0.0
 10
10.3978536891
 20
9.0781847532
 30
0.0
 10
10.3960947892
 20
9.0781342717
 30
0.0
 10
10.3939841093
 20
9.0780736939
 30
0.0
 10
10.3918734295
 20
9.0780131161
 30
0.0
 10
10.3897627496
 20
9.0779525382
 30
0.0
 10
10.3876520697
 20
9.0778919604
 30
0.0
 10
10.3855413899
 20
9.0778313826
 30
0.0
 10
10.38343071
 20
9.0777708048
 30
0.0
 10
10.3813200302
 20
9.0777102269
 30
0.0
 10
10.3792093503
 20
9.0776496491
 30
0.0
 10
10.3774504504
 20
9.0775991676
 30
0.0
 10
10.3760433305
 20
9.0775587824
 30
0.0
 10
10.3749879906
 20
9.0775284935
 30
0.0
 10
10.3741085407
 20
9.0775032527
 30
0.0
 10
10.3734049807
 20
9.07748306
 30
0.0
 10
10.3728773107
 20
9.0774679158
 30
0.0
 10
10.3723496409
 20
9.0774527705
 30
0.0
 10
10.3719099154
 20
9.0774401527
 30
0.0
 10
10.3715581365
 20
9.0774300511
 30
0.0
 10
10.3713382714
 20
9.0774237545
 30
0.0
 10
10.3711623868
 20
9.0774186785
 30
0.0
 10
10.3710304527
 20
9.0774149773
 30
0.0
 10
10.3709205734
 20
9.0774115566
 30
0.0
 10
10.3708435289
 20
9.0774098222
 30
0.0
 10
10.3707997048
 20
9.0774078004
 30
0.0
 10
10.3707662696
 20
9.0774091876
 30
0.0
 10
10.3707350022
 20
9.0773994761
 30
0.0
 10
10.3706925562
 20
9.0773903988
 30
0.0
 10
10.370618628
 20
9.0773727098
 30
0.0
 10
10.3705128322
 20
9.0773483828
 30
0.0
 10
10.3703859559
 20
9.0773187867
 30
0.0
 10
10.3702167601
 20
9.0772794663
 30
0.0
 10
10.3700052748
 20
9.0772302676
 30
0.0
 10
10.369666893
 20
9.0771515765
 30
0.0
 10
10.3692439175
 20
9.0770532034
 30
0.0
 10
10.3687363461
 20
9.0769351596
 30
0.0
 10
10.368228775
 20
9.0768171148
 30
0.0
 10
10.3675520134
 20
9.0766597221
 30
0.0
 10
10.3667060615
 20
9.0764629811
 30
0.0
 10
10.3656909191
 20
9.0762268919
 30
0.0
 10
10.364337396
 20
9.0759121063
 30
0.0
 10
10.362645492
 20
9.0755186243
 30
0.0
 10
10.3606152073
 20
9.0750464459
 30
0.0
 10
10.3585849226
 20
9.0745742676
 30
0.0
 10
10.3565546379
 20
9.0741020892
 30
0.0
 10
10.3545243532
 20
9.0736299108
 30
0.0
 10
10.3524940684
 20
9.0731577325
 30
0.0
 10
10.3504637837
 20
9.0726855541
 30
0.0
 10
10.348433499
 20
9.0722133757
 30
0.0
 10
10.3464032143
 20
9.0717411973
 30
0.0
 10
10.3447113104
 20
9.0713477154
 30
0.0
 10
10.3433577872
 20
9.0710329298
 30
0.0
 10
10.3423426449
 20
9.0707968406
 30
0.0
 10
10.3414966929
 20
9.0706000996
 30
0.0
 10
10.3408199313
 20
9.0704427068
 30
0.0
 10
10.3403123601
 20
9.0703246624
 30
0.0
 10
10.3398047892
 20
9.070206617
 30
0.0
 10
10.3393818122
 20
9.070108249
 30
0.0
 10
10.3390434335
 20
9.0700295475
 30
0.0
 10
10.3388319403
 20
9.0699803752
 30
0.0
 10
10.3386627606
 20
9.0699410004
 30
0.0
 10
10.3385358352
 20
9.0699115705
 30
0.0
 10
10.338430193
 20
9.0698867238
 30
0.0
 10
10.3383559905
 20
9.0698699625
 30
0.0
 10
10.3383139841
 20
9.0698593989
 30
0.0
 10
10.3382813666
 20
9.0698542528
 30
0.0
 10
10.3382530022
 20
9.0698384931
 30
0.0
 10
10.3382136994
 20
9.0698211822
 30
0.0
 10
10.3381456108
 20
9.0697891634
 30
0.0
 10
10.3380479801
 20
9.069744324
 30
0.0
 10
10.3379309778
 20
9.0696901307
 30
0.0
 10
10.3377749208
 20
9.0696180078
 30
0.0
 10
10.337579868
 20
9.069527808
 30
0.0
 10
10.3372677731
 20
9.0693835141
 30
0.0
 10
10.3368776582
 20
9.0692031379
 30
0.0
 10
10.3364095187
 20
9.0689866902
 30
0.0
 10
10.3359413796
 20
9.0687702416
 30
0.0
 10
10.335317194
 20
9.0684816437
 30
0.0
 10
10.3345369621
 20
9.0681208963
 30
0.0
 10
10.3336006838
 20
9.0676879994
 30
0.0
 10
10.3323523126
 20
9.0671108035
 30
0.0
 10
10.3307918488
 20
9.0663893087
 30
0.0
 10
10.3289192921
 20
9.0655235149
 30
0.0
 10
10.3270467354
 20
9.0646577211
 30
0.0
 10
10.3251741788
 20
9.0637919273
 30
0.0
 10
10.3233016221
 20
9.0629261335
 30
0.0
 10
10.3214290654
 20
9.0620603397
 30
0.0
 10
10.3195565088
 20
9.0611945459
 30
0.0
 10
10.3176839521
 20
9.0603287521
 30
0.0
 10
10.3158113955
 20
9.0594629583
 30
0.0
 10
10.3142509316
 20
9.0587414635
 30
0.0
 10
10.3130025605
 20
9.0581642676
 30
0.0
 10
10.3120662821
 20
9.0577313707
 30
0.0
 10
10.3112860502
 20
9.0573706234
 30
0.0
 10
10.3106618647
 20
9.0570820254
 30
0.0
 10
10.3101937254
 20
9.0568655771
 30
0.0
 10
10.3097255866
 20
9.0566491279
 30
0.0
 10
10.3093354694
 20
9.0564687566
 30
0.0
 10
10.3090233792
 20
9.0563244527
 30
0.0
 10
10.3088283146
 20
9.0562342785
 30
0.0
 10
10.3086722818
 20
9.056162103
 30
0.0
 10
10.3085552053
 20
9.0561080704
 30
0.0
 10
10.3084578068
 20
9.0560627282
 30
0.0
 10
10.3083893036
 20
9.0560316069
 30
0.0
 10
10.3083506652
 20
9.0560128579
 30
0.0
 10
10.3083202602
 20
9.0560015159
 30
0.0
 10
10.3082953069
 20
9.0559797776
 30
0.0
 10
10.3082601343
 20
9.0559544196
 30
0.0
 10
10.3081994683
 20
9.0559083536
 30
0.0
 10
10.3081123392
 20
9.0558434283
 30
0.0
 10
10.3080079827
 20
9.0557651398
 30
0.0
 10
10.3078687714
 20
9.0556608873
 30
0.0
 10
10.3076947809
 20
9.0555305264
 30
0.0
 10
10.307416383
 20
9.0553219742
 30
0.0
 10
10.30706839
 20
9.0550612753
 30
0.0
 10
10.3066507966
 20
9.0547484403
 30
0.0
 10
10.3062332037
 20
9.0544356043
 30
0.0
 10
10.3056764129
 20
9.05401849
 30
0.0
 10
10.3049804246
 20
9.0534970971
 30
0.0
 10
10.3041452385
 20
9.0528714256
 30
0.0
 10
10.3030316571
 20
9.0520371969
 30
0.0
 10
10.3016396803
 20
9.050994411
 30
0.0
 10
10.2999693082
 20
9.049743068
 30
0.0
 10
10.2982989361
 20
9.048491725
 30
0.0
 10
10.296628564
 20
9.0472403819
 30
0.0
 10
10.2949581919
 20
9.0459890389
 30
0.0
 10
10.2932878198
 20
9.0447376958
 30
0.0
 10
10.2916174477
 20
9.0434863528
 30
0.0
 10
10.2899470756
 20
9.0422350098
 30
0.0
 10
10.2882767034
 20
9.0409836667
 30
0.0
 10
10.2868847267
 20
9.0399408809
 30
0.0
 10
10.2857711453
 20
9.0391066522
 30
0.0
 10
10.2849359592
 20
9.0384809807
 30
0.0
 10
10.2842399708
 20
9.0379595878
 30
0.0
 10
10.2836831802
 20
9.0375424734
 30
0.0
 10
10.283265587
 20
9.0372296378
 30
0.0
 10
10.2828479946
 20
9.0369168014
 30
0.0
 10
10.2824999983
 20
9.0366561068
 30
0.0
 10
10.2822216072
 20
9.0364475458
 30
0.0
 10
10.2820475994
 20
9.0363172073
 30
0.0
 10
10.2819084236
 20
9.0362129088
 30
0.0
 10
10.2818039585
 20
9.0361347606
 30
0.0
 10
10.2817171692
 20
9.0360693966
 30
0.0
 10
10.2816558967
 20
9.0360241136
 30
0.0
 10
10.2816216957
 20
9.0359975011
 30
0.0
 10
10.2815937578
 20
9.0359796164
 30
0.0
 10
10.2815745628
 20
9.035953801
 30
0.0
 10
10.2815459198
 20
9.0359221468
 30
0.0
 10
10.2814972154
 20
9.0358654631
 30
0.0
 10
10.2814268948
 20
9.0357851602
 30
0.0
 10
10.2813428281
 20
9.0356885083
 30
0.0
 10
10.2812306281
 20
9.0355597399
 30
0.0
 10
10.2810904161
 20
9.0353987448
 30
0.0
 10
10.2808660556
 20
9.035141172
 30
0.0
 10
10.2805856124
 20
9.0348191994
 30
0.0
 10
10.2802490774
 20
9.0344328351
 30
0.0
 10
10.2799125432
 20
9.03404647
 30
0.0
 10
10.2794638306
 20
9.0335313169
 30
0.0
 10
10.27890294
 20
9.0328873753
 30
0.0
 10
10.2782298713
 20
9.0321146455
 30
0.0
 10
10.2773324463
 20
9.0310843391
 30
0.0
 10
10.276210665
 20
9.029796456
 30
0.0
 10
10.2748645276
 20
9.0282509964
 30
0.0
 10
10.2735183901
 20
9.0267055368
 30
0.0
 10
10.2721722526
 20
9.0251600771
 30
0.0
 10
10.2708261151
 20
9.0236146175
 30
0.0
 10
10.2694799776
 20
9.0220691578
 30
0.0
 10
10.2681338401
 20
9.0205236982
 30
0.0
 10
10.2667877027
 20
9.0189782385
 30
0.0
 10
10.2654415652
 20
9.0174327789
 30
0.0
 10
10.2643197839
 20
9.0161448959
 30
0.0
 10
10.2634223589
 20
9.0151145894
 30
0.0
 10
10.2627492902
 20
9.0143418596
 30
0.0
 10
10.2621883996
 20
9.0136979181
 30
0.0
 10
10.2617396871
 20
9.0131827648
 30
0.0
 10
10.2614031526
 20
9.0127964001
 30
0.0
 10
10.2610666189
 20
9.0124100346
 30
0.0
 10
10.2607861714
 20
9.0120880655
 30
0.0
 10
10.2605618196
 20
9.0118304856
 30
0.0
 10
10.2604215856
 20
9.0116695086
 30
0.0
 10
10.2603094307
 20
9.0115407031
 30
0.0
 10
10.2602252262
 20
9.0114441643
 30
0.0
 10
10.2601553368
 20
9.0113635076
 30
0.0
 10
10.2601058627
 20
9.0113074555
 30
0.0
 10
10.260078453
 20
9.0112747894
 30
0.0
 10
10.2600554695
 20
9.0112520823
 30
0.0
 10
10.2600417604
 20
9.0112225233
 30
0.0
 10
10.2600202467
 20
9.0111855014
 30
0.0
 10
10.2599841049
 20
9.0111195994
 30
0.0
 10
10.2599316857
 20
9.0110260359
 30
0.0
 10
10.25986912
 20
9.0109135105
 30
0.0
 10
10.2597855812
 20
9.0107635636
 30
0.0
 10
10.2596811981
 20
9.0105761003
 30
0.0
 10
10.2595141626
 20
9.0102761756
 30
0.0
 10
10.259305376
 20
9.009901264
 30
0.0
 10
10.2590548287
 20
9.0094513725
 30
0.0
 10
10.2588042822
 20
9.0090014804
 30
0.0
 10
10.25847022
 20
9.0084016245
 30
0.0
 10
10.2580526424
 20
9.0076518045
 30
0.0
 10
10.2575515492
 20
9.0067520206
 30
0.0
 10
10.2568834249
 20
9.0055523086
 30
0.0
 10
10.2560482696
 20
9.0040526687
 30
0.0
 10
10.2550460831
 20
9.0022531008
 30
0.0
 10
10.2540438967
 20
9.0004535329
 30
0.0
 10
10.2530417103
 20
8.998653965
 30
0.0
 10
10.2520395239
 20
8.9968543971
 30
0.0
 10
10.2510373375
 20
8.9950548292
 30
0.0
 10
10.2500351511
 20
8.9932552613
 30
0.0
 10
10.2490329647
 20
8.9914556934
 30
0.0
 10
10.2480307782
 20
8.9896561255
 30
0.0
 10
10.2471956229
 20
8.9881564856
 30
0.0
 10
10.2465274986
 20
8.9869567736
 30
0.0
 10
10.2460264054
 20
8.9860569897
 30
0.0
 10
10.2456088277
 20
8.9853071697
 30
0.0
 10
10.2452747656
 20
8.9847073137
 30
0.0
 10
10.2450242188
 20
8.9842574219
 30
0.0
 10
10.244773673
 20
8.9838075295
 30
0.0
 10
10.2445648817
 20
8.9834326207
 30
0.0
 10
10.2443978556
 20
8.9831326903
 30
0.0
 10
10.2442934486
 20
8.9829452414
 30
0.0
 10
10.2442099589
 20
8.9827952649
 30
0.0
 10
10.2441472434
 20
8.9826828302
 30
0.0
 10
10.2440952928
 20
8.9825889829
 30
0.0
 10
10.2440583145
 20
8.9825235875
 30
0.0
 10
10.244038141
 20
8.982485754
 30
0.0
 10
10.2440203153
 20
8.9824586878
 30
0.0
 10
10.2440127934
 20
8.982426618
 30
0.0
 10
10.2439991701
 20
8.9823856036
 30
0.0
 10
10.2439770038
 20
8.9823130153
 30
0.0
 10
10.2439444623
 20
8.9822097428
 30
0.0
 10
10.2439057872
 20
8.9820856338
 30
0.0
 10
10.2438540896
 20
8.9819202188
 30
0.0
 10
10.2437895123
 20
8.9817134282
 30
0.0
 10
10.2436861636
 20
8.9813825754
 30
0.0
 10
10.2435569864
 20
8.9809690052
 30
0.0
 10
10.24340197
 20
8.9804727228
 30
0.0
 10
10.2432469546
 20
8.9799764399
 30
0.0
 10
10.2430402671
 20
8.9793147295
 30
0.0
 10
10.2427819078
 20
8.9784875915
 30
0.0
 10
10.2424718766
 20
8.9774950259
 30
0.0
 10
10.2420585017
 20
8.9761716051
 30
0.0
 10
10.2415417831
 20
8.9745173292
 30
0.0
 10
10.2409217207
 20
8.972532198
 30
0.0
 10
10.2403016583
 20
8.9705470668
 30
0.0
 10
10.2396815959
 20
8.9685619356
 30
0.0
 10
10.2390615336
 20
8.9665768044
 30
0.0
 10
10.2384414712
 20
8.9645916733
 30
0.0
 10
10.2378214088
 20
8.9626065421
 30
0.0
 10
10.2372013464
 20
8.9606214109
 30
0.0
 10
10.236581284
 20
8.9586362797
 30
0.0
 10
10.2360645654
 20
8.9569820037
 30
0.0
 10
10.2356511905
 20
8.9556585829
 30
0.0
 10
10.2353411593
 20
8.9546660174
 30
0.0
 10
10.2350827999
 20
8.9538388794
 30
0.0
 10
10.2348761125
 20
8.953177169
 30
0.0
 10
10.2347210967
 20
8.9526808862
 30
0.0
 10
10.234566082
 20
8.9521846031
 30
0.0
 10
10.2344368997
 20
8.9517710351
 30
0.0
 10
10.2343335612
 20
8.951440178
 30
0.0
 10
10.2342689581
 20
8.9512333983
 30
0.0
 10
10.2342173136
 20
8.9510679608
 30
0.0
 10
10.234178476
 20
8.9509439206
 30
0.0
 10
10.2341464429
 20
8.9508404329
 30
0.0
 10
10.2341233691
 20
8.9507682287
 30
0.0
 10
10.2341112
 20
8.9507265988
 30
0.0
 10
10.2340992114
 20
8.9506964196
 30
0.0
 10
10.2340981617
 20
8.9506622529
 30
0.0
 10
10.2340929465
 20
8.9506180881
 30
0.0
 10
10.2340855977
 20
8.9505401518
 30
0.0
 10
10.2340741699
 20
8.950429153
 30
0.0
 10
10.2340608544
 20
8.9502958094
 30
0.0
 10
10.2340429615
 20
8.9501180686
 30
0.0
 10
10.2340206429
 20
8.9498958752
 30
0.0
 10
10.2339849066
 20
8.9495403755
 30
0.0
 10
10.2339402453
 20
8.9490959976
 30
0.0
 10
10.2338866478
 20
8.9485627455
 30
0.0
 10
10.2338330514
 20
8.9480294931
 30
0.0
 10
10.2337615891
 20
8.9473184899
 30
0.0
 10
10.2336722614
 20
8.9464297359
 30
0.0
 10
10.2335650681
 20
8.9453632312
 30
0.0
 10
10.2334221438
 20
8.9439412248
 30
0.0
 10
10.2332434883
 20
8.9421637169
 30
0.0
 10
10.2330291017
 20
8.9400307073
 30
0.0
 10
10.2328147152
 20
8.9378976978
 30
0.0
 10
10.2326003286
 20
8.9357646883
 30
0.0
 10
10.2323144799
 20
8.9329206756
 30
0.0
 10
10.2319571689
 20
8.9293656597
 30
0.0
 10
10.2315283958
 20
8.9250996406
 30
0.0
 10
10.2310996227
 20
8.9208336216
 30
0.0
 10
10.2308137739
 20
8.9179896089
 30
0.0
 10
10.2306708496
 20
8.9165676025
 30
0.0
  0
ENDSEC
  0
SECTION
  2
OBJECTS
  0
DICTIONARY
  5
C
100
AcDbDictionary
280
0
281
1
  3
ACAD_GROUP
350
D
  3
ACAD_MLINESTYLE
350
17
  3
ACAD_LAYOUT
350
1A
  3
ACAD_PLOTSETTINGS
350
19
  3
ACAD_PLOTSTYLENAME
350
E
  3
ACAD_IMAGE_DICT
350
       351
  3
ACAD_IMAGE_VARS
350
       352
  3
ACAD_TABLESTYLE
350
       353
  0
IMAGEDEF_REACTOR
  5
350
100
AcDbRasterImageDefReactor
 90
2
330
28A
  0
DICTIONARY
  5
D
102
{ACAD_REACTORS
330
C
102
}
100
AcDbDictionary
280
0
281
1
  0
ACDBDICTIONARYWDFLT
  5
E
102
{ACAD_REACTORS
330
C
102
}
100
AcDbDictionary
281
1
  3
Normal
350
F
100
AcDbDictionaryWithDefault
340
F
  0
DICTIONARY
  5
351
330
C
100
AcDbDictionary
281
1
  3
GNN_assy_2_img_1
350
       356
  0
RASTERVARIABLES
  5
352
330
C
100
AcDbRasterVariables
 90
0
 70
0
 71
1
 72
5
  0
DICTIONARY
  5
17
102
{ACAD_REACTORS
330
C
102
}
100
AcDbDictionary
280
0
281
1
  3
Standard
350
18
  0
DICTIONARY
  5
353
330
C
100
AcDbDictionary
281
1
  3
Standard
350
       357
  3
Standard1
350
       358
  0
DICTIONARY
  5
19
102
{ACAD_REACTORS
330
C
102
}
100
AcDbDictionary
281
1
  0
DICTIONARY
  5
1A
102
{ACAD_REACTORS
330
C
102
}
100
AcDbDictionary
281
1
  3
Model
350
354
  3
Layout1
350
355
  0
ACDBPLACEHOLDER
  5
F
102
{ACAD_REACTORS
330
E
102
}
  0
MLINESTYLE
  5
18
102
{ACAD_REACTORS
330
17
102
}
100
AcDbMlineStyle
  2
STANDARD
 70
0
  3

 62
256
 51
90.0
 52
90.0
 71
2
 49
0.5
 62
256
  6
BYLAYER
 49
-0.5
 62
256
  6
BYLAYER
  0
LAYOUT
  5
354
102
{ACAD_REACTORS
330
1A
102
}
100
AcDbPlotSettings
  1

  2
none_device
  4
ANSI_C_(22.00_x_17.00_Inches)
  6

 40
0.0
 41
0.0
 42
0.0
 43
0.0
 44
558.8
 45
431.8
 46
0.0
 47
0.0
 48
0.0
 49
0.0
140
0.0
141
0.0
142
1.0
143
1.0
 70
1024
 72
0
 73
0
 74
0
  7

 75
0
147
1.0
148
0.0
149
0.0
100
AcDbLayout
  1
Model
 70
0
 71
0
 10
0.0
 20
0.0
 11
22.0
 21
17.0
 12
0.0
 22
0.0
 32
0.0
 14
0.0
 24
0.0
 34
0.0
 15
0.0
 25
0.0
 35
0.0
146
0.0
 13
0.0
 23
0.0
 33
0.0
 16
1.0
 26
0.0
 36
0.0
 17
0.0
 27
1.0
 37
0.0
 76
0
330
20C
345
0
346
0
  0
LAYOUT
  5
355
102
{ACAD_REACTORS
330
1A
102
}
100
AcDbPlotSettings
  1

  2
none_device
  4
ANSI_C_(22.00_x_17.00_Inches)
  6

 40
0.0
 41
0.0
 42
0.0
 43
0.0
 44
558.8
 45
431.8
 46
0.0
 47
0.0
 48
0.0
 49
0.0
140
0.0
141
0.0
142
1.0
143
1.0
 70
0
 72
0
 73
0
 74
0
  7

 75
0
147
1.0
148
0.0
149
0.0
100
AcDbLayout
  1
Layout1
 70
0
 71
1
 10
0.0
 20
0.0
 11
22.0
 21
17.0
 12
0.0
 22
0.0
 32
0.0
 14
0.0
 24
0.0
 34
0.0
 15
0.0
 25
0.0
 35
0.0
146
0.0
 13
0.0
 23
0.0
 33
0.0
 16
1.0
 26
0.0
 36
0.0
 17
0.0
 27
1.0
 37
0.0
 76
0
330
20D
345
0
346
0
  0
IMAGEDEF
  5
356
102
{ACAD_REACTORS
330
351
330
350
102
}
100
AcDbRasterImageDef
 90
0
  1
GNN_assy_2_img_1.png
 10
369.0
 20
92.0
 11
0.0066666667
 21
0.0066666667
280
1
281
0
  0
TABLESTYLE
  5
357
102
{ACAD_REACTORS
330
353
330
28D
330
28E
102
}
330
353
100
AcDbTableStyle
  3
Standard
 70
0
 71
0
 40
0.06
 41
0.06
280
1
281
1
  7
Standard
140
0.18
170
1
 62
0
 63
7
283
0
  7
Standard
140
0.18
170
1
 62
0
 63
7
283
0
  7
Standard
140
0.18
170
1
 62
0
 63
7
283
0
  0
TABLESTYLE
  5
358
102
{ACAD_REACTORS
330
353
330
28C
102
}
330
353
100
AcDbTableStyle
  3
Standard1
 70
1
 71
0
 40
0.06
 41
0.06
280
1
281
1
  7
Standard
140
0.18
170
1
 62
0
 63
7
283
0
  7
Standard
140
0.18
170
1
 62
0
 63
7
283
0
  7
Standard
140
0.18
170
1
 62
0
 63
7
283
0
  0
ENDSEC
  0
EOF
