999
DXF file: GNM_assy_2.dxf
999
Pro/ENGINEER 2014200 by Parametric Technology Corporation
  0
SECTION
  2
HEADER
  9
$ACADVER
  1
AC1021
  9
$DWGCODEPAGE
  3
ANSI_1252
  9
$EXTMAX
 10
22.0
 20
17.0
 30
0.0
  9
$EXTMIN
 10
0.0
 20
0.0
 30
0.0
  9
$LIMMIN
 10
0.0
 20
0.0
  9
$LIMMAX
 10
22.0
 20
17.0
  9
$VIEWCTR
 10
11.0
 20
8.5
  9
$VIEWSIZE
 40
17.0
  9
$CLAYER
  8
0
  9
$LTSCALE
 40
1.21
  9
$CELTYPE
  6
BYLAYER
  9
$DIMSCALE
 40
1.0
  9
$DIMASZ
 40
0.1875
  9
$DIMEXO
 40
0.0625
  9
$DIMDLI
 40
0.836
  9
$DIMEXE
 40
0.125
  9
$DIMCEN
 40
0.198
  9
$DIMLFAC
 40
1.0
  9
$DIMBLK
  1
_FILLED
  9
$DIMTXT
 40
0.1
  9
$DIMTOL
 70
0
  9
$DIMLIM
 70
0
  9
$DIMTFAC
 40
1.0
  9
$DIMGAP
 40
0.09
  9
$DIMDSEP
 70
46
  9
$AUNITS
 70
0
  9
$PDMODE
 70
3
  9
$PDSIZE
 40
0.3125
  9
$HANDSEED
  5
368
  9
$TILEMODE
 70
1
  9
$MEASUREMENT
 70
0
  9
$INSUNITS
 70
1
  0
ENDSEC
  0
SECTION
  2
CLASSES
  0
CLASS
  1
ACDBDICTIONARYWDFLT
  2
AcDbDictionaryWithDefault
  3
AutoCAD 2000
 90
0
 91
1
280
0
281
0
  0
CLASS
  1
ACDBPLACEHOLDER
  2
AcDbPlaceHolder
  3
AutoCAD 2000
 90
0
 91
1
280
0
281
0
  0
CLASS
  1
LAYOUT
  2
AcDbLayout
  3
AutoCAD 2000
 90
0
 91
0
280
0
281
0
  0
CLASS
  1
RASTERVARIABLES
  2
AcDbRasterVariables
  3
ISM
 90
0
 91
1
280
0
281
0
  0
CLASS
  1
IMAGEDEF
  2
AcDbRasterImageDef
  3
ISM
 90
0
 91
1
280
0
281
0
  0
CLASS
  1
IMAGEDEF_REACTOR
  2
AcDbRasterImageDefReactor
  3
ISM
 90
0
 91
1
280
0
281
0
  0
CLASS
  1
IMAGE
  2
AcDbRasterImage
  3
ISM
 90
127
 91
1
280
0
281
1
  0
CLASS
  1
TABLESTYLE
  2
AcDbTableStyle
  3
ObjectDBX Classes
 90
2047
 91
1
280
0
281
0
  0
CLASS
  1
ACAD_TABLE
  2
AcDbTable
  3
ObjectDBX Classes
 90
1025
 91
3
280
0
281
1
  0
ENDSEC
  0
SECTION
  2
TABLES
  0
TABLE
  2
VPORT
  5
8
100
AcDbSymbolTable
 70
2
  0
VPORT
  5
1F4
100
AcDbSymbolTableRecord
100
AcDbViewportTableRecord
  2
*ACTIVE
 70
0
 10
0.0
 20
0.0
 11
1.0
 21
1.0
 12
11.0
 22
8.5
 13
0.0
 23
0.0
 14
1.0
 24
1.0
 15
0.0
 25
0.0
 16
0.0
 26
0.0
 36
1.0
 17
0.0
 27
0.0
 37
0.0
 40
17.0
 41
1.2941176471
 42
50.0
 43
0.0
 44
0.0
 50
0.0
 51
0.0
 71
0
 72
100
 73
1
 74
1
 75
0
 76
0
 77
0
 78
0
  0
ENDTAB
  0
TABLE
  2
LTYPE
  5
5
100
AcDbSymbolTable
 70
6
  0
LTYPE
  5
14
100
AcDbSymbolTableRecord
100
AcDbLinetypeTableRecord
  2
BYBLOCK
 70
0
  3

 72
65
 73
0
 40
0.0
  0
LTYPE
  5
15
100
AcDbSymbolTableRecord
100
AcDbLinetypeTableRecord
  2
BYLAYER
 70
0
  3

 72
65
 73
0
 40
0.0
  0
LTYPE
  5
16
100
AcDbSymbolTableRecord
100
AcDbLinetypeTableRecord
  2
CONTINUOUS
 70
64
  3
Solid line
 72
65
 73
0
 40
0.0
  0
LTYPE
  5
1F5
100
AcDbSymbolTableRecord
100
AcDbLinetypeTableRecord
  2
CENTER
 70
64
  3
____ _ ____ _ ____ _ ____ _ ____ _ ____ _ ____
 72
65
 73
4
 40
0.6
 49
0.375
 74
0
 49
-0.075
 74
0
 49
0.075
 74
0
 49
-0.075
 74
0
  0
LTYPE
  5
1F6
100
AcDbSymbolTableRecord
100
AcDbLinetypeTableRecord
  2
HIDDEN
 70
64
  3
- - - - - - - - - - - - - - - - - - - -
 72
65
 73
2
 40
0.2
 49
0.1
 74
0
 49
-0.1
 74
0
  0
LTYPE
  5
1F7
100
AcDbSymbolTableRecord
100
AcDbLinetypeTableRecord
  2
PHANTOM
 70
64
  3
_____ _ _ _____ _ _ _____ _ _ _____
 72
65
 73
6
 40
0.8
 49
0.45
 74
0
 49
-0.05
 74
0
 49
0.1
 74
0
 49
-0.05
 74
0
 49
0.1
 74
0
 49
-0.05
 74
0
  0
LTYPE
  5
1F8
100
AcDbSymbolTableRecord
100
AcDbLinetypeTableRecord
  2
DOT
 70
64
  3
. . . . . . . . . . . . . . . . . . . .
 72
65
 73
2
 40
0.2
 49
0.1
 74
0
 49
-0.1
 74
0
  0
LTYPE
  5
1F9
100
AcDbSymbolTableRecord
100
AcDbLinetypeTableRecord
  2
DASHED
 70
64
  3
- - - - - - - - - - - - - - - - - - - -
 72
65
 73
2
 40
0.2
 49
0.1
 74
0
 49
-0.1
 74
0
  0
ENDTAB
  0
TABLE
  2
LAYER
  5
2
100
AcDbSymbolTable
 70
36
  0
LAYER
  5
10
100
AcDbSymbolTableRecord
100
AcDbLayerTableRecord
  2
0
 70
0
 62
7
  6
CONTINUOUS
370
-3
390
F
  0
LAYER
  5
1FA
100
AcDbSymbolTableRecord
100
AcDbLayerTableRecord
  2
DEFAULT_1
 70
0
 62
7
  6
CENTER
370
-3
390
F
  0
LAYER
  5
1FB
100
AcDbSymbolTableRecord
100
AcDbLayerTableRecord
  2
DEFAULT_2
 70
0
 62
8
  6
HIDDEN
370
-3
390
F
  0
LAYER
  5
1FC
100
AcDbSymbolTableRecord
100
AcDbLayerTableRecord
  2
DEFAULT_3
 70
0
 62
7
  6
PHANTOM
370
-3
390
F
  0
LAYER
  5
1FD
100
AcDbSymbolTableRecord
100
AcDbLayerTableRecord
  2
01___PRT_ALL_DTM_PLN
 70
0
 62
7
  6
CONTINUOUS
370
-3
390
F
  0
LAYER
  5
1FE
100
AcDbSymbolTableRecord
100
AcDbLayerTableRecord
  2
01___PRT_DEF_DTM_PLN
 70
0
 62
7
  6
CONTINUOUS
370
-3
390
F
  0
LAYER
  5
1FF
100
AcDbSymbolTableRecord
100
AcDbLayerTableRecord
  2
02___PRT_ALL_AXES
 70
0
 62
7
  6
CONTINUOUS
370
-3
390
F
  0
LAYER
  5
200
100
AcDbSymbolTableRecord
100
AcDbLayerTableRecord
  2
03___PRT_ALL_CURVES
 70
0
 62
7
  6
CONTINUOUS
370
-3
390
F
  0
LAYER
  5
201
100
AcDbSymbolTableRecord
100
AcDbLayerTableRecord
  2
04___PRT_ALL_DTM_PNT
 70
0
 62
7
  6
CONTINUOUS
370
-3
390
F
  0
LAYER
  5
202
100
AcDbSymbolTableRecord
100
AcDbLayerTableRecord
  2
05___PRT_ALL_DTM_CSYS
 70
0
 62
7
  6
CONTINUOUS
370
-3
390
F
  0
LAYER
  5
203
100
AcDbSymbolTableRecord
100
AcDbLayerTableRecord
  2
05___PRT_DEF_DTM_CSYS
 70
0
 62
7
  6
CONTINUOUS
370
-3
390
F
  0
LAYER
  5
204
100
AcDbSymbolTableRecord
100
AcDbLayerTableRecord
  2
06___PRT_ALL_SURFS
 70
0
 62
7
  6
CONTINUOUS
370
-3
390
F
  0
LAYER
  5
205
100
AcDbSymbolTableRecord
100
AcDbLayerTableRecord
  2
DATUM_PLANES
 70
0
 62
7
  6
CONTINUOUS
370
-3
390
F
  0
LAYER
  5
206
100
AcDbSymbolTableRecord
100
AcDbLayerTableRecord
  2
PORT_AREAS
 70
0
 62
7
  6
CONTINUOUS
370
-3
390
F
  0
LAYER
  5
207
100
AcDbSymbolTableRecord
100
AcDbLayerTableRecord
  2
SUNNBOMCOSMETIC
 70
0
 62
7
  6
CONTINUOUS
370
-3
390
F
  0
LAYER
  5
208
100
AcDbSymbolTableRecord
100
AcDbLayerTableRecord
  2
SUNNBOMSTAMPING
 70
0
 62
7
  6
CONTINUOUS
370
-3
390
F
  0
LAYER
  5
209
100
AcDbSymbolTableRecord
100
AcDbLayerTableRecord
  2
THREADS
 70
0
 62
7
  6
CONTINUOUS
370
-3
390
F
  0
ENDTAB
  0
TABLE
  2
STYLE
  5
3
100
AcDbSymbolTable
 70
1
  0
STYLE
  5
11
100
AcDbSymbolTableRecord
100
AcDbTextStyleTableRecord
  2
STANDARD
 70
0
 40
0.0
 41
0.8
 50
0.0
 71
0
 42
0.2
  3
txt
  4

  0
STYLE
  5
20A
100
AcDbSymbolTableRecord
100
AcDbTextStyleTableRecord
  2
TEXTSTYLE_1
 70
0
 40
0.0
 41
0.8
 50
0.0
 71
0
 42
0.2
  3
gdt
  4

  0
ENDTAB
  0
TABLE
  2
VIEW
  5
6
100
AcDbSymbolTable
 70
0
  0
ENDTAB
  0
TABLE
  2
UCS
  5
7
100
AcDbSymbolTable
 70
0
  0
ENDTAB
  0
TABLE
  2
APPID
  5
9
100
AcDbSymbolTable
 70
1
  0
APPID
  5
20B
100
AcDbSymbolTableRecord
100
AcDbRegAppTableRecord
  2
ACAD
 70
0
  0
ENDTAB
  0
TABLE
  2
BLOCK_RECORD
  5
1
100
AcDbSymbolTable
 70
0
  0
BLOCK_RECORD
  5
20C
100
AcDbSymbolTableRecord
100
AcDbBlockTableRecord
  2
*Model_Space
  0
BLOCK_RECORD
  5
20D
100
AcDbSymbolTableRecord
100
AcDbBlockTableRecord
  2
*Paper_Space
  0
BLOCK_RECORD
  5
20E
100
AcDbSymbolTableRecord
100
AcDbBlockTableRecord
  2
SUN_FIRST_THIRD_ANGLE_BL0
  0
BLOCK_RECORD
  5
20F
100
AcDbSymbolTableRecord
100
AcDbBlockTableRecord
  2
*T1
  0
BLOCK_RECORD
  5
210
100
AcDbSymbolTableRecord
100
AcDbBlockTableRecord
  2
*T2
  0
BLOCK_RECORD
  5
211
100
AcDbSymbolTableRecord
100
AcDbBlockTableRecord
  2
*T3
  0
ENDTAB
  0
TABLE
  2
DIMSTYLE
  5
A
100
AcDbSymbolTable
 70
1
100
AcDbDimStyleTable
 71
0
  0
DIMSTYLE
105
212
100
AcDbSymbolTableRecord
100
AcDbDimStyleTableRecord
  2
STANDARD
 70
0
  3

  4

 40
1.0
 41
0.1875
 42
0.0625
 43
0.38
 44
0.125
 45
0.0
 46
0.0
 47
0.001
 48
0.001
140
0.1
141
0.09
142
0.0
143
25.4
144
1.0
145
0.0
146
1.0
147
0.09
 71
0.0
 72
0.0
 73
1
 74
1
 75
0
 76
0
 77
0
 78
4
170
0
171
2
172
0
173
0
174
0
175
0
176
0
177
0
178
0
270
2
271
3
272
3
273
2
274
2
275
0
280
0
281
0
282
0
283
1
284
4
285
0
286
0
287
3
288
0
340
11
278
46
  0
ENDTAB
  0
ENDSEC
  0
SECTION
  2
BLOCKS
  0
BLOCK
  5
20
100
AcDbEntity
  8
0
100
AcDbBlockBegin
  2
*Model_Space
 70
0
 10
0.0
 20
0.0
 30
0.0
  3
*Model_Space
  1

  0
ENDBLK
  5
21
100
AcDbEntity
  8
0
100
AcDbBlockEnd
  0
BLOCK
  5
1C
100
AcDbEntity
  8
0
100
AcDbBlockBegin
  2
*Paper_Space
 70
0
 10
0.0
 20
0.0
 30
0.0
  3
*Paper_Space
  1

  0
ENDBLK
  5
1D
100
AcDbEntity
  8
0
100
AcDbBlockEnd
  0
BLOCK
  5
213
100
AcDbEntity
  8
0
100
AcDbBlockBegin
 62
2
  6
CONTINUOUS
  2
SUN_FIRST_THIRD_ANGLE_BL0
 70
64
 10
20.4816717061
 20
1.2289683772
  3
SUN_FIRST_THIRD_ANGLE_BL0
  1

  0
TEXT
  5
214
100
AcDbEntity
  8
0
100
AcDbText
 62
2
  6
CONTINUOUS
 10
19.4750896608
 20
1.4136269581
  7
STANDARD
 40
0.08
  1
FIRST ANGLE
 41
0.8
 72
0
100
AcDbText
  0
TEXT
  5
215
100
AcDbEntity
  8
0
100
AcDbText
 62
2
  6
CONTINUOUS
 10
20.7842537513
 20
1.4047600029
  7
STANDARD
 40
0.08
  1
THIRD ANGLE
 41
0.8
 72
0
100
AcDbText
  0
LINE
  5
216
100
AcDbEntity
  8
0
100
AcDbLine
 62
7
  6
CONTINUOUS
 10
19.4767170086
 20
1.1727031207
 11
19.6334271527
 21
1.1717972817
  0
LINE
  5
217
100
AcDbEntity
  8
0
100
AcDbLine
 62
7
  6
CONTINUOUS
 10
19.6596964832
 20
1.1717972817
 11
19.6950230232
 21
1.171593082
  0
LINE
  5
218
100
AcDbEntity
  8
0
100
AcDbLine
 62
7
  6
CONTINUOUS
 10
19.7194818561
 20
1.1708914427
 11
19.8852396156
 21
1.1699333054
  0
LINE
  5
219
100
AcDbEntity
  8
0
100
AcDbLine
 62
7
  6
CONTINUOUS
 10
19.4758111696
 20
1.2723454088
 11
19.88525039
 21
1.3511534004
  0
LINE
  5
21A
100
AcDbEntity
  8
0
100
AcDbLine
 62
7
  6
CONTINUOUS
 10
19.88525039
 20
1.3511534004
 11
19.8831348489
 21
0.9851647912
  0
LINE
  5
21B
100
AcDbEntity
  8
0
100
AcDbLine
 62
7
  6
CONTINUOUS
 10
19.8831348489
 20
0.9851647912
 11
19.4767170086
 21
1.0658141206
  0
LINE
  5
21C
100
AcDbEntity
  8
0
100
AcDbLine
 62
7
  6
CONTINUOUS
 10
19.4767170086
 20
1.0658141206
 11
19.4779056764
 21
1.2714536432
  0
CIRCLE
  5
21D
100
AcDbEntity
  8
0
100
AcDbCircle
 62
7
  6
CONTINUOUS
 10
20.2068232291
 20
1.1717972817
 40
0.175742101
  0
CIRCLE
  5
21E
100
AcDbEntity
  8
0
100
AcDbCircle
 62
7
  6
CONTINUOUS
 10
20.2068232291
 20
1.1717972817
 40
0.1005522074
  0
LINE
  5
21F
100
AcDbEntity
  8
0
100
AcDbLine
 62
7
  6
CONTINUOUS
 10
20.2077290681
 20
1.3756110529
 11
20.2071171714
 21
1.2379342989
  0
LINE
  5
220
100
AcDbEntity
  8
0
100
AcDbLine
 62
7
  6
CONTINUOUS
 10
20.2077290681
 20
1.2016899681
 11
20.2074674401
 21
1.1428236749
  0
LINE
  5
221
100
AcDbEntity
  8
0
100
AcDbLine
 62
7
  6
CONTINUOUS
 10
20.208634907
 20
1.101141841
 11
20.2080230104
 21
0.963465087
  0
LINE
  5
222
100
AcDbEntity
  8
0
100
AcDbLine
 62
7
  6
CONTINUOUS
 10
20.0066328138
 20
1.1745147986
 11
20.1443095678
 21
1.1739029019
  0
LINE
  5
223
100
AcDbEntity
  8
0
100
AcDbLine
 62
7
  6
CONTINUOUS
 10
20.1832714155
 20
1.1727031207
 11
20.238153505
 21
1.172335442
  0
LINE
  5
224
100
AcDbEntity
  8
0
100
AcDbLine
 62
7
  6
CONTINUOUS
 10
20.2756669918
 20
1.1717972817
 11
20.407916871
 21
1.1712095044
  0
CIRCLE
  5
225
100
AcDbEntity
  8
0
100
AcDbCircle
 62
7
  6
CONTINUOUS
 10
20.7509457401
 20
1.1693297793
 40
0.1722024983
  0
CIRCLE
  5
226
100
AcDbEntity
  8
0
100
AcDbCircle
 62
7
  6
CONTINUOUS
 10
20.7509457401
 20
1.1693297793
 40
0.0985164967
  0
LINE
  5
227
100
AcDbEntity
  8
0
100
AcDbLine
 62
7
  6
CONTINUOUS
 10
20.7169767782
 20
1.170462078
 11
20.7825395137
 21
1.1682766535
  0
LINE
  5
228
100
AcDbEntity
  8
0
100
AcDbLine
 62
7
  6
CONTINUOUS
 10
20.8177513651
 20
1.1693297793
 11
20.947965719
 21
1.1693297793
  0
LINE
  5
229
100
AcDbEntity
  8
0
100
AcDbLine
 62
7
  6
CONTINUOUS
 10
20.6875370113
 20
1.170462078
 11
20.5573226574
 21
1.170462078
  0
LINE
  5
22A
100
AcDbEntity
  8
0
100
AcDbLine
 62
7
  6
CONTINUOUS
 10
20.7486811426
 20
1.1987695462
 11
20.7486811426
 21
1.1432869085
  0
LINE
  5
22B
100
AcDbEntity
  8
0
100
AcDbLine
 62
7
  6
CONTINUOUS
 10
20.7498134414
 20
1.1059210505
 11
20.7498134414
 21
0.9757066966
  0
LINE
  5
22C
100
AcDbEntity
  8
0
100
AcDbLine
 62
7
  6
CONTINUOUS
 10
20.7486811426
 20
1.2338708068
 11
20.7486811426
 21
1.3640851607
  0
LINE
  5
22D
100
AcDbEntity
  8
0
100
AcDbLine
 62
7
  6
CONTINUOUS
 10
21.0702539817
 20
1.2701043662
 11
21.4790138229
 21
1.3448360823
  0
LINE
  5
22E
100
AcDbEntity
  8
0
100
AcDbLine
 62
7
  6
CONTINUOUS
 10
21.4790138229
 20
1.3448360823
 11
21.4790138229
 21
0.9779712941
  0
LINE
  5
22F
100
AcDbEntity
  8
0
100
AcDbLine
 62
7
  6
CONTINUOUS
 10
21.4790138229
 20
0.9779712941
 11
21.069121683
 21
1.0617614
  0
LINE
  5
230
100
AcDbEntity
  8
0
100
AcDbLine
 62
7
  6
CONTINUOUS
 10
21.0702539817
 20
1.2701043662
 11
21.069121683
 21
1.0617614
  0
LINE
  5
231
100
AcDbEntity
  8
0
100
AcDbLine
 62
7
  6
CONTINUOUS
 10
21.4790138229
 20
1.1693297793
 11
21.3159628059
 21
1.1693297793
  0
LINE
  5
232
100
AcDbEntity
  8
0
100
AcDbLine
 62
7
  6
CONTINUOUS
 10
21.2876553377
 20
1.1693297793
 11
21.2502894796
 21
1.1693297793
  0
LINE
  5
233
100
AcDbEntity
  8
0
100
AcDbLine
 62
7
  6
CONTINUOUS
 10
21.2208497126
 20
1.1659328831
 11
21.0713862804
 21
1.1659328831
  0
LINE
  5
234
100
AcDbEntity
  8
0
100
AcDbLine
 62
7
  6
CONTINUOUS
 10
20.4796138713
 20
1.5284908897
 11
20.4766766948
 21
0.9294458646
  0
ENDBLK
  5
235
100
AcDbEntity
  8
0
  6
BYBLOCK
 62
0
100
AcDbBlockEnd
  0
BLOCK
  5
236
100
AcDbEntity
  8
0
100
AcDbBlockBegin
  2
*T1
 70
1
 10
0.0
 20
0.0
  3
*T1
  1

  0
LINE
  5
237
100
AcDbEntity
  8
0
100
AcDbLine
 62
2
  6
CONTINUOUS
 10
9.275
 20
0.0
 11
-0.0
 21
0.0
  0
LINE
  5
238
100
AcDbEntity
  8
0
100
AcDbLine
 62
2
  6
CONTINUOUS
 10
9.275
 20
0.0
 11
9.275
 21
1.25
  0
LINE
  5
239
100
AcDbEntity
  8
0
100
AcDbLine
 62
2
  6
CONTINUOUS
 10
9.275
 20
0.625
 11
-0.0
 21
0.625
  0
LINE
  5
23A
100
AcDbEntity
  8
0
100
AcDbLine
 62
2
  6
CONTINUOUS
 10
9.275
 20
1.25
 11
-0.0
 21
1.25
  0
LINE
  5
23B
100
AcDbEntity
  8
0
100
AcDbLine
 62
2
  6
CONTINUOUS
 10
6.8
 20
0.0
 11
6.8
 21
1.25
  0
LINE
  5
23C
100
AcDbEntity
  8
0
100
AcDbLine
 62
2
  6
CONTINUOUS
 10
6.4
 20
0.0
 11
6.4
 21
0.625
  0
LINE
  5
23D
100
AcDbEntity
  8
0
100
AcDbLine
 62
2
  6
CONTINUOUS
 10
5.9
 20
0.0
 11
5.9
 21
0.625
  0
LINE
  5
23E
100
AcDbEntity
  8
0
100
AcDbLine
 62
2
  6
CONTINUOUS
 10
5.2
 20
0.0
 11
5.2
 21
0.625
  0
LINE
  5
23F
100
AcDbEntity
  8
0
100
AcDbLine
 62
2
  6
CONTINUOUS
 10
4.1
 20
0.0
 11
4.1
 21
1.25
  0
LINE
  5
240
100
AcDbEntity
  8
0
100
AcDbLine
 62
2
  6
CONTINUOUS
 10
-0.0
 20
0.0
 11
-0.0
 21
1.25
  0
MTEXT
  5
241
100
AcDbEntity
  8
0
100
AcDbMText
 62
2
  6
CONTINUOUS
  7
STANDARD
 71
2
 72
1
 10
6.6
 20
0.325
 30
0.0
 11
1.0
 21
0.0
 31
0.0
 44
0.9
  1
2
 40
0.125
 41
0.2
  0
MTEXT
  5
242
100
AcDbEntity
  8
0
100
AcDbMText
 62
2
  6
CONTINUOUS
  7
STANDARD
 71
2
 72
1
 10
6.15
 20
0.325
 30
0.0
 11
1.0
 21
0.0
 31
0.0
 44
0.9
  1
C
 40
0.125
 41
0.2
  0
MTEXT
  5
243
100
AcDbEntity
  8
0
100
AcDbMText
 62
2
  6
CONTINUOUS
  7
STANDARD
 71
2
 72
1
 10
5.55
 20
0.325
 30
0.0
 11
1.0
 21
0.0
 31
0.0
 44
0.9
  1
1.000
 40
0.125
 41
1.0
  0
MTEXT
  5
244
100
AcDbEntity
  8
0
100
AcDbMText
 62
2
  6
CONTINUOUS
  7
STANDARD
 71
2
 72
1
 10
4.65
 20
0.325
 30
0.0
 11
1.0
 21
0.0
 31
0.0
 44
0.9
  1
Mar-08-21
 40
0.125
 41
1.8
  0
MTEXT
  5
245
100
AcDbEntity
  8
0
100
AcDbMText
 62
2
  6
CONTINUOUS
  7
STANDARD
 71
2
 72
1
 10
2.05
 20
0.4625
 30
0.0
 11
1.0
 21
0.0
 31
0.0
 44
0.9
  1
T-13A Line mount\PNinety degree with reverse flow check
 40
0.125
 41
7.4
  0
MTEXT
  5
246
100
AcDbEntity
  8
0
100
AcDbMText
 62
2
  6
CONTINUOUS
  7
STANDARD
 71
1
 72
1
 10
6.45
 20
0.5625
 30
0.0
 11
1.0
 21
0.0
 31
0.0
 44
0.9
  1
SHEET
 40
0.06
 41
0.48
  0
MTEXT
  5
247
100
AcDbEntity
  8
0
100
AcDbMText
 62
2
  6
CONTINUOUS
  7
STANDARD
 71
1
 72
1
 10
5.95
 20
0.5625
 30
0.0
 11
1.0
 21
0.0
 31
0.0
 44
0.9
  1
DWG SIZE
 40
0.06
 41
0.768
  0
MTEXT
  5
248
100
AcDbEntity
  8
0
100
AcDbMText
 62
2
  6
CONTINUOUS
  7
STANDARD
 71
1
 72
1
 10
5.25
 20
0.5625
 30
0.0
 11
1.0
 21
0.0
 31
0.0
 44
0.9
  1
SCALE
 40
0.06
 41
0.48
  0
MTEXT
  5
249
100
AcDbEntity
  8
0
100
AcDbMText
 62
2
  6
CONTINUOUS
  7
STANDARD
 71
1
 72
1
 10
4.15
 20
0.5625
 30
0.0
 11
1.0
 21
0.0
 31
0.0
 44
0.9
  1
DATE
 40
0.06
 41
0.384
  0
MTEXT
  5
24A
100
AcDbEntity
  8
0
100
AcDbMText
 62
2
  6
CONTINUOUS
  7
STANDARD
 71
1
 72
1
 10
0.05
 20
0.5625
 30
0.0
 11
1.0
 21
0.0
 31
0.0
 44
0.9
  1
DESCRIPTION
 40
0.06
 41
1.056
  0
MTEXT
  5
24B
100
AcDbEntity
  8
0
100
AcDbMText
 62
2
  6
CONTINUOUS
  7
STANDARD
 71
2
 72
1
 10
5.45
 20
1.0375
 30
0.0
 11
1.0
 21
0.0
 31
0.0
 44
0.9
  1
ALL DIMENSIONS IN INCH\PVIEWS ARE THIRD ANGLE
 40
0.12
 41
4.224
  0
MTEXT
  5
24C
100
AcDbEntity
  8
0
100
AcDbMText
 62
2
  6
CONTINUOUS
  7
STANDARD
 71
2
 72
1
 10
2.05
 20
0.95
 30
0.0
 11
1.0
 21
0.0
 31
0.0
 44
0.9
  1
GNM
 40
0.125
 41
0.6
  0
MTEXT
  5
24D
100
AcDbEntity
  8
0
100
AcDbMText
 62
2
  6
CONTINUOUS
  7
STANDARD
 71
1
 72
1
 10
0.05
 20
1.1875
 30
0.0
 11
1.0
 21
0.0
 31
0.0
 44
0.9
  1
MODEL
 40
0.06
 41
0.48
  0
ENDBLK
  5
24E
100
AcDbEntity
  8
0
  6
BYBLOCK
 62
0
100
AcDbBlockEnd
  0
BLOCK
  5
24F
100
AcDbEntity
  8
0
100
AcDbBlockBegin
  2
*T2
 70
1
 10
0.0
 20
0.0
  3
*T2
  1

  0
LINE
  5
250
100
AcDbEntity
  8
0
100
AcDbLine
 62
2
  6
CONTINUOUS
 10
0.0
 20
0.0
 11
9.055
 21
0.0
  0
LINE
  5
251
100
AcDbEntity
  8
0
100
AcDbLine
 62
2
  6
CONTINUOUS
 10
0.0
 20
0.0
 11
0.0
 21
-2.594
  0
LINE
  5
252
100
AcDbEntity
  8
0
100
AcDbLine
 62
2
  6
CONTINUOUS
 10
0.0
 20
-0.344
 11
9.055
 21
-0.344
  0
LINE
  5
253
100
AcDbEntity
  8
0
100
AcDbLine
 62
2
  6
CONTINUOUS
 10
0.0
 20
-0.594
 11
9.055
 21
-0.594
  0
LINE
  5
254
100
AcDbEntity
  8
0
100
AcDbLine
 62
2
  6
CONTINUOUS
 10
0.0
 20
-0.844
 11
9.055
 21
-0.844
  0
LINE
  5
255
100
AcDbEntity
  8
0
100
AcDbLine
 62
2
  6
CONTINUOUS
 10
0.0
 20
-1.094
 11
9.055
 21
-1.094
  0
LINE
  5
256
100
AcDbEntity
  8
0
100
AcDbLine
 62
2
  6
CONTINUOUS
 10
0.0
 20
-1.344
 11
9.055
 21
-1.344
  0
LINE
  5
257
100
AcDbEntity
  8
0
100
AcDbLine
 62
2
  6
CONTINUOUS
 10
0.0
 20
-1.594
 11
9.055
 21
-1.594
  0
LINE
  5
258
100
AcDbEntity
  8
0
100
AcDbLine
 62
2
  6
CONTINUOUS
 10
0.0
 20
-1.844
 11
9.055
 21
-1.844
  0
LINE
  5
259
100
AcDbEntity
  8
0
100
AcDbLine
 62
2
  6
CONTINUOUS
 10
0.0
 20
-2.094
 11
9.055
 21
-2.094
  0
LINE
  5
25A
100
AcDbEntity
  8
0
100
AcDbLine
 62
2
  6
CONTINUOUS
 10
0.0
 20
-2.344
 11
9.055
 21
-2.344
  0
LINE
  5
25B
100
AcDbEntity
  8
0
100
AcDbLine
 62
2
  6
CONTINUOUS
 10
0.0
 20
-2.594
 11
9.055
 21
-2.594
  0
LINE
  5
25C
100
AcDbEntity
  8
0
100
AcDbLine
 62
2
  6
CONTINUOUS
 10
3.055
 20
0.0
 11
3.055
 21
-2.594
  0
LINE
  5
25D
100
AcDbEntity
  8
0
100
AcDbLine
 62
2
  6
CONTINUOUS
 10
9.055
 20
0.0
 11
9.055
 21
-2.594
  0
MTEXT
  5
25E
100
AcDbEntity
  8
0
100
AcDbMText
 62
2
  6
CONTINUOUS
  7
STANDARD
 71
2
 72
1
 10
1.5275
 20
-0.0995
 30
0.0
 11
1.0
 21
0.0
 31
0.0
 44
0.9
  1
Technical Data
 40
0.145
 41
3.248
  0
MTEXT
  5
25F
100
AcDbEntity
  8
0
100
AcDbMText
 62
2
  6
CONTINUOUS
  7
STANDARD
 71
2
 72
1
 10
4.555
 20
-0.0995
 30
0.0
 11
1.0
 21
0.0
 31
0.0
 44
0.9
  1
U.S. Units
 40
0.145
 41
2.32
  0
MTEXT
  5
260
100
AcDbEntity
  8
0
100
AcDbMText
 62
2
  6
CONTINUOUS
  7
STANDARD
 71
2
 72
1
 10
7.555
 20
-0.0995
 30
0.0
 11
1.0
 21
0.0
 31
0.0
 44
0.9
  1
Metric Units
 40
0.145
 41
2.784
  0
MTEXT
  5
261
100
AcDbEntity
  8
0
100
AcDbMText
 62
2
  6
CONTINUOUS
  7
STANDARD
 71
2
 72
1
 10
1.5275
 20
-0.4065
 30
0.0
 11
1.0
 21
0.0
 31
0.0
 44
0.9
  1
Cavity
 40
0.125
 41
1.2
  0
MTEXT
  5
262
100
AcDbEntity
  8
0
100
AcDbMText
 62
2
  6
CONTINUOUS
  7
STANDARD
 71
2
 72
1
 10
6.055
 20
-0.4065
 30
0.0
 11
1.0
 21
0.0
 31
0.0
 44
0.9
  1
T-13A
 40
0.125
 41
1.0
  0
MTEXT
  5
263
100
AcDbEntity
  8
0
100
AcDbMText
 62
2
  6
CONTINUOUS
  7
STANDARD
 71
2
 72
1
 10
1.5275
 20
-0.6565
 30
0.0
 11
1.0
 21
0.0
 31
0.0
 44
0.9
  1
Body Features
 40
0.125
 41
2.6
  0
MTEXT
  5
264
100
AcDbEntity
  8
0
100
AcDbMText
 62
2
  6
CONTINUOUS
  7
STANDARD
 71
2
 72
1
 10
6.055
 20
-0.6565
 30
0.0
 11
1.0
 21
0.0
 31
0.0
 44
0.9
  1
Ninety degree with reverse flow check
 40
0.125
 41
7.4
  0
MTEXT
  5
265
100
AcDbEntity
  8
0
100
AcDbMText
 62
2
  6
CONTINUOUS
  7
STANDARD
 71
2
 72
1
 10
1.5275
 20
-0.9065
 30
0.0
 11
1.0
 21
0.0
 31
0.0
 44
0.9
  1
Body Type
 40
0.125
 41
1.8
  0
MTEXT
  5
266
100
AcDbEntity
  8
0
100
AcDbMText
 62
2
  6
CONTINUOUS
  7
STANDARD
 71
2
 72
1
 10
6.055
 20
-0.9065
 30
0.0
 11
1.0
 21
0.0
 31
0.0
 44
0.9
  1
Line mount
 40
0.125
 41
2.0
  0
MTEXT
  5
267
100
AcDbEntity
  8
0
100
AcDbMText
 62
2
  6
CONTINUOUS
  7
STANDARD
 71
2
 72
1
 10
1.5275
 20
-1.1565
 30
0.0
 11
1.0
 21
0.0
 31
0.0
 44
0.9
  1
Interface
 40
0.125
 41
1.8
  0
MTEXT
  5
268
100
AcDbEntity
  8
0
100
AcDbMText
 62
2
  6
CONTINUOUS
  7
STANDARD
 71
2
 72
1
 10
6.055
 20
-1.1565
 30
0.0
 11
1.0
 21
0.0
 31
0.0
 44
0.9
  1
None
 40
0.125
 41
0.8
  0
MTEXT
  5
269
100
AcDbEntity
  8
0
100
AcDbMText
 62
2
  6
CONTINUOUS
  7
STANDARD
 71
2
 72
1
 10
1.5275
 20
-1.4065
 30
0.0
 11
1.0
 21
0.0
 31
0.0
 44
0.9
  1
Open Cavity Quantity
 40
0.125
 41
4.0
  0
MTEXT
  5
26A
100
AcDbEntity
  8
0
100
AcDbMText
 62
2
  6
CONTINUOUS
  7
STANDARD
 71
2
 72
1
 10
6.055
 20
-1.4065
 30
0.0
 11
1.0
 21
0.0
 31
0.0
 44
0.9
  1
1
 40
0.125
 41
0.2
  0
MTEXT
  5
26B
100
AcDbEntity
  8
0
100
AcDbMText
 62
2
  6
CONTINUOUS
  7
STANDARD
 71
2
 72
1
 10
1.5275
 20
-1.6565
 30
0.0
 11
1.0
 21
0.0
 31
0.0
 44
0.9
  1
Weight
 40
0.125
 41
1.2
  0
MTEXT
  5
26C
100
AcDbEntity
  8
0
100
AcDbMText
 62
2
  6
CONTINUOUS
  7
STANDARD
 71
2
 72
1
 10
4.555
 20
-1.6565
 30
0.0
 11
1.0
 21
0.0
 31
0.0
 44
0.9
  1
1.097 lb.
 40
0.125
 41
1.8
  0
MTEXT
  5
26D
100
AcDbEntity
  8
0
100
AcDbMText
 62
2
  6
CONTINUOUS
  7
STANDARD
 71
2
 72
1
 10
7.555
 20
-1.6565
 30
0.0
 11
1.0
 21
0.0
 31
0.0
 44
0.9
  1
0,498 kg.
 40
0.125
 41
1.8
  0
MTEXT
  5
26E
100
AcDbEntity
  8
0
100
AcDbMText
 62
2
  6
CONTINUOUS
  7
STANDARD
 71
2
 72
1
 10
1.5275
 20
-1.9065
 30
0.0
 11
1.0
 21
0.0
 31
0.0
 44
0.9
  1
Mounting Hole Diameter
 40
0.125
 41
4.4
  0
MTEXT
  5
26F
100
AcDbEntity
  8
0
100
AcDbMText
 62
2
  6
CONTINUOUS
  7
STANDARD
 71
2
 72
1
 10
4.555
 20
-1.9065
 30
0.0
 11
1.0
 21
0.0
 31
0.0
 44
0.9
  1
.34 in.
 40
0.125
 41
1.4
  0
MTEXT
  5
270
100
AcDbEntity
  8
0
100
AcDbMText
 62
2
  6
CONTINUOUS
  7
STANDARD
 71
2
 72
1
 10
7.555
 20
-1.9065
 30
0.0
 11
1.0
 21
0.0
 31
0.0
 44
0.9
  1
8.6 mm
 40
0.125
 41
1.2
  0
MTEXT
  5
271
100
AcDbEntity
  8
0
100
AcDbMText
 62
2
  6
CONTINUOUS
  7
STANDARD
 71
2
 72
1
 10
1.5275
 20
-2.1565
 30
0.0
 11
1.0
 21
0.0
 31
0.0
 44
0.9
  1
Mounting Hole Depth
 40
0.125
 41
3.8
  0
MTEXT
  5
272
100
AcDbEntity
  8
0
100
AcDbMText
 62
2
  6
CONTINUOUS
  7
STANDARD
 71
2
 72
1
 10
6.055
 20
-2.1565
 30
0.0
 11
1.0
 21
0.0
 31
0.0
 44
0.9
  1
Through
 40
0.125
 41
1.4
  0
MTEXT
  5
273
100
AcDbEntity
  8
0
100
AcDbMText
 62
2
  6
CONTINUOUS
  7
STANDARD
 71
2
 72
1
 10
1.5275
 20
-2.4065
 30
0.0
 11
1.0
 21
0.0
 31
0.0
 44
0.9
  1
Mounting Hole Quantity
 40
0.125
 41
4.4
  0
MTEXT
  5
274
100
AcDbEntity
  8
0
100
AcDbMText
 62
2
  6
CONTINUOUS
  7
STANDARD
 71
2
 72
1
 10
6.055
 20
-2.4065
 30
0.0
 11
1.0
 21
0.0
 31
0.0
 44
0.9
  1
2
 40
0.125
 41
0.2
  0
ENDBLK
  5
275
100
AcDbEntity
  8
0
  6
BYBLOCK
 62
0
100
AcDbBlockEnd
  0
BLOCK
  5
276
100
AcDbEntity
  8
0
100
AcDbBlockBegin
  2
*T3
 70
1
 10
0.0
 20
0.0
  3
*T3
  1

  0
LINE
  5
277
100
AcDbEntity
  8
0
100
AcDbLine
 62
2
  6
CONTINUOUS
 10
0.0
 20
0.0
 11
4.6
 21
0.0
  0
LINE
  5
278
100
AcDbEntity
  8
0
100
AcDbLine
 62
2
  6
CONTINUOUS
 10
0.0
 20
0.0
 11
0.0
 21
-0.93775
  0
LINE
  5
279
100
AcDbEntity
  8
0
100
AcDbLine
 62
2
  6
CONTINUOUS
 10
0.0
 20
-0.34375
 11
4.6
 21
-0.34375
  0
LINE
  5
27A
100
AcDbEntity
  8
0
100
AcDbLine
 62
2
  6
CONTINUOUS
 10
0.0
 20
-0.68775
 11
4.6
 21
-0.68775
  0
LINE
  5
27B
100
AcDbEntity
  8
0
100
AcDbLine
 62
2
  6
CONTINUOUS
 10
0.0
 20
-0.93775
 11
4.6
 21
-0.93775
  0
LINE
  5
27C
100
AcDbEntity
  8
0
100
AcDbLine
 62
2
  6
CONTINUOUS
 10
1.3
 20
-0.34375
 11
1.3
 21
-0.93775
  0
LINE
  5
27D
100
AcDbEntity
  8
0
100
AcDbLine
 62
2
  6
CONTINUOUS
 10
3.3
 20
-0.34375
 11
3.3
 21
-0.93775
  0
LINE
  5
27E
100
AcDbEntity
  8
0
100
AcDbLine
 62
2
  6
CONTINUOUS
 10
4.6
 20
0.0
 11
4.6
 21
-0.93775
  0
MTEXT
  5
27F
100
AcDbEntity
  8
0
100
AcDbMText
 62
2
  6
CONTINUOUS
  7
STANDARD
 71
2
 72
1
 10
2.3
 20
-0.099375
 30
0.0
 11
1.0
 21
0.0
 31
0.0
 44
0.9
  1
Port Headings
 40
0.145
 41
3.016
  0
MTEXT
  5
280
100
AcDbEntity
  8
0
100
AcDbMText
 62
2
  6
CONTINUOUS
  7
STANDARD
 71
2
 72
1
 10
0.65
 20
-0.44325
 30
0.0
 11
1.0
 21
0.0
 31
0.0
 44
0.9
  1
Product
 40
0.145
 41
1.624
  0
MTEXT
  5
281
100
AcDbEntity
  8
0
100
AcDbMText
 62
2
  6
CONTINUOUS
  7
STANDARD
 71
2
 72
1
 10
2.3
 20
-0.44325
 30
0.0
 11
1.0
 21
0.0
 31
0.0
 44
0.9
  1
Port
 40
0.145
 41
0.928
  0
MTEXT
  5
282
100
AcDbEntity
  8
0
100
AcDbMText
 62
2
  6
CONTINUOUS
  7
STANDARD
 71
2
 72
1
 10
3.95
 20
-0.44325
 30
0.0
 11
1.0
 21
0.0
 31
0.0
 44
0.9
  1
Size
 40
0.145
 41
0.928
  0
MTEXT
  5
283
100
AcDbEntity
  8
0
100
AcDbMText
 62
2
  6
CONTINUOUS
  7
STANDARD
 71
2
 72
1
 10
0.65
 20
-0.75025
 30
0.0
 11
1.0
 21
0.0
 31
0.0
 44
0.9
  1
GNM
 40
0.125
 41
0.6
  0
MTEXT
  5
284
100
AcDbEntity
  8
0
100
AcDbMText
 62
2
  6
CONTINUOUS
  7
STANDARD
 71
2
 72
1
 10
2.3
 20
-0.75025
 30
0.0
 11
1.0
 21
0.0
 31
0.0
 44
0.9
  1
All Ports
 40
0.125
 41
1.8
  0
MTEXT
  5
285
100
AcDbEntity
  8
0
100
AcDbMText
 62
2
  6
CONTINUOUS
  7
STANDARD
 71
2
 72
1
 10
3.95
 20
-0.75025
 30
0.0
 11
1.0
 21
0.0
 31
0.0
 44
0.9
  1
3/8" NPTF
 40
0.125
 41
1.8
  0
ENDBLK
  5
286
100
AcDbEntity
  8
0
  6
BYBLOCK
 62
0
100
AcDbBlockEnd
  0
ENDSEC
  0
SECTION
  2
ENTITIES
  0
IMAGE
  5
287
100
AcDbEntity
  8
0
100
AcDbRasterImage
 62
7
  6
CONTINUOUS
 10
19.2297077316
 20
0.3094318264
 30
0.0
 11
0.0066666667
 21
0.0
 31
0.0
 12
0.0
 22
0.0066666667
 32
0.0
 13
369.0
 23
92.0
340
       365
 70
9
280
0
281
50
282
50
283
0
360
       35F
 71
1
 91
2
 14
-0.5
 24
-0.5
 14
368.5
 24
91.5
  0
INSERT
  5
288
100
AcDbEntity
  8
0
100
AcDbBlockReference
 62
2
  6
CONTINUOUS
  2
SUN_FIRST_THIRD_ANGLE_BL0
 10
20.4816717061
 20
1.2289683772
  0
ACAD_TABLE
  5
289
100
AcDbEntity
  8
0
 62
2
  6
CONTINUOUS
100
AcDbBlockReference
  2
*T1
 10
12.42375
 20
0.30125
 30
0.0
100
AcDbTable
342
       367
343
20F
 11
1.0
 21
0.0
 31
0.0
 90
6
 91
4
 92
6
 93
20
 94
0
 95
0
 96
0
 70
1
 41
0.0
141
0.525
141
0.1
141
0.525
141
0.1
142
4.1
142
1.1
142
0.7
142
0.5
142
0.4
142
2.475
171
1
172
0
173
0
174
0
175
1
176
1
 91
33
178
0
145
0.0
301
CELL_VALUE
 90
4
  1
T-13A Line mount\PNinety degree with reverse flow check
304
ACVALUE_END
170
2
140
0.125
171
1
172
0
173
0
174
0
175
1
176
1
 91
33
178
0
145
0.0
301
CELL_VALUE
 90
4
  1
Mar-08-21
304
ACVALUE_END
170
5
140
0.125
171
1
172
0
173
0
174
0
175
1
176
1
 91
33
178
0
145
0.0
301
CELL_VALUE
 90
4
  1
1.000
304
ACVALUE_END
170
5
140
0.125
171
1
172
0
173
0
174
0
175
1
176
1
 91
33
178
0
145
0.0
301
CELL_VALUE
 90
4
  1
C
304
ACVALUE_END
170
5
140
0.125
171
1
172
0
173
0
174
0
175
1
176
1
 91
33
178
0
145
0.0
301
CELL_VALUE
 90
4
  1
2
304
ACVALUE_END
170
5
140
0.125
171
1
172
0
173
0
174
0
175
1
176
1
 91
33
178
0
145
0.0
301
CELL_VALUE
 90
4
  1
 
304
ACVALUE_END
170
1
140
0.125
171
1
172
0
173
0
174
0
175
1
176
1
 91
33
178
0
145
0.0
301
CELL_VALUE
 90
4
  1
DESCRIPTION
304
ACVALUE_END
170
1
140
0.06
171
1
172
0
173
0
174
0
175
1
176
1
 91
33
178
0
145
0.0
301
CELL_VALUE
 90
4
  1
DATE
304
ACVALUE_END
170
1
140
0.06
171
1
172
0
173
0
174
0
175
1
176
1
 91
33
178
0
145
0.0
301
CELL_VALUE
 90
4
  1
SCALE
304
ACVALUE_END
170
1
140
0.06
171
1
172
0
173
0
174
0
175
1
176
1
 91
33
178
0
145
0.0
301
CELL_VALUE
 90
4
  1
DWG SIZE
304
ACVALUE_END
170
1
140
0.06
171
1
172
0
173
0
174
0
175
1
176
1
 91
33
178
0
145
0.0
301
CELL_VALUE
 90
4
  1
SHEET
304
ACVALUE_END
170
1
140
0.06
171
1
172
0
173
0
174
0
175
1
176
1
 91
33
178
0
145
0.0
301
CELL_VALUE
 90
4
  1
 
304
ACVALUE_END
170
1
140
0.125
171
1
172
0
173
0
174
0
175
1
176
1
 91
33
178
0
145
0.0
301
CELL_VALUE
 90
4
  1
GNM
304
ACVALUE_END
170
5
140
0.125
171
1
172
0
173
0
174
0
175
4
176
1
 91
33
178
0
145
0.0
301
CELL_VALUE
 90
4
  1
ALL DIMENSIONS IN INCH\PVIEWS ARE THIRD ANGLE
304
ACVALUE_END
170
5
140
0.12
171
1
172
0
173
1
174
0
175
1
176
1
 91
1
178
0
145
0.0
170
1
171
1
172
0
173
1
174
0
175
1
176
1
 91
1
178
0
145
0.0
170
1
171
1
172
0
173
1
174
0
175
1
176
1
 91
1
178
0
145
0.0
170
5
171
1
172
0
173
0
174
0
175
1
176
1
 91
33
178
0
145
0.0
301
CELL_VALUE
 90
4
  1
 
304
ACVALUE_END
170
1
140
0.125
171
1
172
0
173
0
174
0
175
1
176
1
 91
33
178
0
145
0.0
301
CELL_VALUE
 90
4
  1
MODEL
304
ACVALUE_END
170
1
140
0.06
171
1
172
0
173
0
174
0
175
1
176
1
 91
33
178
0
145
0.0
301
CELL_VALUE
 90
4
  1
 
304
ACVALUE_END
170
1
140
0.125
171
1
172
0
173
0
174
0
175
1
176
1
 91
33
178
0
145
0.0
301
CELL_VALUE
 90
4
  1
 
304
ACVALUE_END
170
1
140
0.125
171
1
172
0
173
0
174
0
175
1
176
1
 91
33
178
0
145
0.0
301
CELL_VALUE
 90
4
  1
 
304
ACVALUE_END
170
1
140
0.125
171
1
172
0
173
0
174
0
175
1
176
1
 91
33
178
0
145
0.0
301
CELL_VALUE
 90
4
  1
 
304
ACVALUE_END
170
1
140
0.125
171
1
172
0
173
0
174
0
175
1
176
1
 91
33
178
0
145
0.0
301
CELL_VALUE
 90
4
  1
 
304
ACVALUE_END
170
1
140
0.125
  0
ACAD_TABLE
  5
28A
100
AcDbEntity
  8
0
 62
2
  6
CONTINUOUS
100
AcDbBlockReference
  2
*T2
 10
12.4237499994
 20
16.47875
 30
0.0
100
AcDbTable
342
       366
343
210
 11
1.0
 21
0.0
 31
0.0
 90
22
 91
10
 92
3
 93
16
 94
0
 95
0
 96
0
 41
0.028
141
0.344
141
0.25
141
0.25
141
0.25
141
0.25
141
0.25
141
0.25
141
0.25
141
0.25
141
0.25
142
3.055
142
3.0
142
3.0
171
1
172
0
173
0
174
0
175
1
176
1
 91
33
178
0
145
0.0
301
CELL_VALUE
 90
4
  1
Technical Data
304
ACVALUE_END
170
5
140
0.145
171
1
172
0
173
0
174
0
175
1
176
1
 91
33
178
0
145
0.0
301
CELL_VALUE
 90
4
  1
U.S. Units
304
ACVALUE_END
170
5
140
0.145
171
1
172
0
173
0
174
0
175
1
176
1
 91
33
178
0
145
0.0
301
CELL_VALUE
 90
4
  1
Metric Units
304
ACVALUE_END
170
5
140
0.145
171
1
172
0
173
0
174
0
175
1
176
1
 91
33
178
0
145
0.0
301
CELL_VALUE
 90
4
  1
Cavity
304
ACVALUE_END
170
5
140
0.125
171
1
172
0
173
0
174
0
175
2
176
1
 91
33
178
0
145
0.0
301
CELL_VALUE
 90
4
  1
T-13A
304
ACVALUE_END
170
5
140
0.125
171
1
172
0
173
1
174
0
175
1
176
1
 91
1
178
0
145
0.0
170
1
171
1
172
0
173
0
174
0
175
1
176
1
 91
33
178
0
145
0.0
301
CELL_VALUE
 90
4
  1
Body Features
304
ACVALUE_END
170
5
140
0.125
171
1
172
0
173
0
174
0
175
2
176
1
 91
33
178
0
145
0.0
301
CELL_VALUE
 90
4
  1
Ninety degree with reverse flow check
304
ACVALUE_END
170
5
140
0.125
171
1
172
0
173
1
174
0
175
1
176
1
 91
1
178
0
145
0.0
170
1
171
1
172
0
173
0
174
0
175
1
176
1
 91
33
178
0
145
0.0
301
CELL_VALUE
 90
4
  1
Body Type
304
ACVALUE_END
170
5
140
0.125
171
1
172
0
173
0
174
0
175
2
176
1
 91
33
178
0
145
0.0
301
CELL_VALUE
 90
4
  1
Line mount
304
ACVALUE_END
170
5
140
0.125
171
1
172
0
173
1
174
0
175
1
176
1
 91
1
178
0
145
0.0
170
1
171
1
172
0
173
0
174
0
175
1
176
1
 91
33
178
0
145
0.0
301
CELL_VALUE
 90
4
  1
Interface
304
ACVALUE_END
170
5
140
0.125
171
1
172
0
173
0
174
0
175
2
176
1
 91
33
178
0
145
0.0
301
CELL_VALUE
 90
4
  1
None
304
ACVALUE_END
170
5
140
0.125
171
1
172
0
173
1
174
0
175
1
176
1
 91
1
178
0
145
0.0
170
1
171
1
172
0
173
0
174
0
175
1
176
1
 91
33
178
0
145
0.0
301
CELL_VALUE
 90
4
  1
Open Cavity Quantity
304
ACVALUE_END
170
5
140
0.125
171
1
172
0
173
0
174
0
175
2
176
1
 91
33
178
0
145
0.0
301
CELL_VALUE
 90
4
  1
1
304
ACVALUE_END
170
5
140
0.125
171
1
172
0
173
1
174
0
175
1
176
1
 91
1
178
0
145
0.0
170
1
171
1
172
0
173
0
174
0
175
1
176
1
 91
33
178
0
145
0.0
301
CELL_VALUE
 90
4
  1
Weight
304
ACVALUE_END
170
5
140
0.125
171
1
172
0
173
0
174
0
175
1
176
1
 91
33
178
0
145
0.0
301
CELL_VALUE
 90
4
  1
1.097 lb.
304
ACVALUE_END
170
5
140
0.125
171
1
172
0
173
0
174
0
175
1
176
1
 91
33
178
0
145
0.0
301
CELL_VALUE
 90
4
  1
0,498 kg.
304
ACVALUE_END
170
5
140
0.125
171
1
172
0
173
0
174
0
175
1
176
1
 91
33
178
0
145
0.0
301
CELL_VALUE
 90
4
  1
Mounting Hole Diameter
304
ACVALUE_END
170
5
140
0.125
171
1
172
0
173
0
174
0
175
1
176
1
 91
33
178
0
145
0.0
301
CELL_VALUE
 90
4
  1
.34 in.
304
ACVALUE_END
170
5
140
0.125
171
1
172
0
173
0
174
0
175
1
176
1
 91
33
178
0
145
0.0
301
CELL_VALUE
 90
4
  1
8.6 mm
304
ACVALUE_END
170
5
140
0.125
171
1
172
0
173
0
174
0
175
1
176
1
 91
33
178
0
145
0.0
301
CELL_VALUE
 90
4
  1
Mounting Hole Depth
304
ACVALUE_END
170
5
140
0.125
171
1
172
0
173
0
174
0
175
2
176
1
 91
33
178
0
145
0.0
301
CELL_VALUE
 90
4
  1
Through
304
ACVALUE_END
170
5
140
0.125
171
1
172
0
173
1
174
0
175
1
176
1
 91
1
178
0
145
0.0
170
1
171
1
172
0
173
0
174
0
175
1
176
1
 91
33
178
0
145
0.0
301
CELL_VALUE
 90
4
  1
Mounting Hole Quantity
304
ACVALUE_END
170
5
140
0.125
171
1
172
0
173
0
174
0
175
2
176
1
 91
33
178
0
145
0.0
301
CELL_VALUE
 90
4
  1
2
304
ACVALUE_END
170
5
140
0.125
171
1
172
0
173
1
174
0
175
1
176
1
 91
1
178
0
145
0.0
170
1
  0
ACAD_TABLE
  5
28B
100
AcDbEntity
  8
0
 62
2
  6
CONTINUOUS
100
AcDbBlockReference
  2
*T3
 10
0.52125
 20
1.459
 30
0.0
100
AcDbTable
342
       366
343
211
 11
1.0
 21
0.0
 31
0.0
 90
22
 91
3
 92
3
 93
16
 94
0
 95
0
 96
0
 41
0.05
141
0.34375
141
0.344
141
0.25
142
1.3
142
2.0
142
1.3
171
1
172
0
173
0
174
0
175
3
176
1
 91
33
178
0
145
0.0
301
CELL_VALUE
 90
4
  1
Port Headings
304
ACVALUE_END
170
5
140
0.145
171
1
172
0
173
1
174
0
175
1
176
1
 91
1
178
0
145
0.0
170
1
171
1
172
0
173
1
174
0
175
1
176
1
 91
1
178
0
145
0.0
170
1
171
1
172
0
173
0
174
0
175
1
176
1
 91
33
178
0
145
0.0
301
CELL_VALUE
 90
4
  1
Product
304
ACVALUE_END
170
5
140
0.145
171
1
172
0
173
0
174
0
175
1
176
1
 91
33
178
0
145
0.0
301
CELL_VALUE
 90
4
  1
Port
304
ACVALUE_END
170
5
140
0.145
171
1
172
0
173
0
174
0
175
1
176
1
 91
33
178
0
145
0.0
301
CELL_VALUE
 90
4
  1
Size
304
ACVALUE_END
170
5
140
0.145
171
1
172
0
173
0
174
0
175
1
176
1
 91
33
178
0
145
0.0
301
CELL_VALUE
 90
4
  1
GNM
304
ACVALUE_END
170
5
140
0.125
171
1
172
0
173
0
174
0
175
1
176
1
 91
33
178
0
145
0.0
301
CELL_VALUE
 90
4
  1
All Ports
304
ACVALUE_END
170
5
140
0.125
171
1
172
0
173
0
174
0
175
1
176
1
 91
33
178
0
145
0.0
301
CELL_VALUE
 90
4
  1
3/8" NPTF
304
ACVALUE_END
170
5
140
0.125
  0
MTEXT
  5
28C
100
AcDbEntity
  8
0
100
AcDbMText
 62
2
  6
CONTINUOUS
  7
STANDARD
 71
1
 72
1
 10
0.52125
 20
5.75995
 30
0.0
 11
1.0
 21
0.0
 31
0.0
 44
0.6
  3
Notes\P \P1. Important: Carefully consider\P   the maximum system pressure. The\P   pressure rating of the manifold is\P   dependent on the manifold material,\P   with the port type/size a secondary\P   consideration. Manifolds\P   constructed of alu
  1
minum are not\P   rated for pressures higher than\P   3000 psi (210 bar), regardless of\P   the port type/size specified.
 40
0.1
 41
3.04
  0
LINE
  5
28D
100
AcDbEntity
  8
0
100
AcDbLine
 62
7
  6
CONTINUOUS
 10
0.30125
 20
0.30125
 11
0.30125
 21
16.69875
  0
LINE
  5
28E
100
AcDbEntity
  8
0
100
AcDbLine
 62
7
  6
CONTINUOUS
 10
0.30125
 20
0.30125
 11
21.69875
 21
0.30125
  0
LINE
  5
28F
100
AcDbEntity
  8
0
100
AcDbLine
 62
7
  6
CONTINUOUS
 10
0.30125
 20
16.69875
 11
21.69875
 21
16.69875
  0
LINE
  5
290
100
AcDbEntity
  8
0
100
AcDbLine
 62
7
  6
CONTINUOUS
 10
21.69875
 20
0.30125
 11
21.69875
 21
16.69875
  0
LINE
  5
291
100
AcDbEntity
  8
0
100
AcDbLine
 62
7
  6
CONTINUOUS
 10
9.7128729444
 20
10.4948205731
 11
9.389349405
 21
10.1823208125
  0
LINE
  5
292
100
AcDbEntity
  8
0
100
AcDbLine
 62
7
  6
CONTINUOUS
 10
11.025864973
 20
6.5728842063
 11
11.0421891642
 21
6.5648203684
  0
LINE
  5
293
100
AcDbEntity
  8
0
100
AcDbLine
 62
7
  6
CONTINUOUS
 10
9.389349405
 20
7.2845431619
 11
9.389349405
 21
10.1823208125
  0
LINE
  5
294
100
AcDbEntity
  8
0
100
AcDbLine
 62
4
  6
CONTINUOUS
 10
9.6288990166
 20
8.0483984738
 11
9.6288990166
 21
7.9324873704
  0
LINE
  5
295
100
AcDbEntity
  8
0
100
AcDbLine
 62
7
  6
CONTINUOUS
 10
9.389349405
 20
7.2845431619
 11
12.2871270556
 21
7.0835815993
  0
LINE
  5
296
100
AcDbEntity
  8
0
100
AcDbLine
 62
4
  6
CONTINUOUS
 10
10.2959398651
 20
8.9368792917
 11
10.2959398651
 21
8.9534380198
  0
LINE
  5
297
100
AcDbEntity
  8
0
100
AcDbLine
 62
4
  6
CONTINUOUS
 10
10.2959398651
 20
8.9534380198
 11
10.3124985949
 21
8.968848396
  0
LINE
  5
298
100
AcDbEntity
  8
0
100
AcDbLine
 62
4
  6
CONTINUOUS
 10
10.3373366887
 20
8.8512147649
 11
10.3538954168
 21
8.866625143
  0
LINE
  5
299
100
AcDbEntity
  8
0
100
AcDbLine
 62
4
  6
CONTINUOUS
 10
10.3538954168
 20
8.866625143
 11
10.3538954168
 21
8.8831838728
  0
LINE
  5
29A
100
AcDbEntity
  8
0
100
AcDbLine
 62
4
  6
CONTINUOUS
 10
10.387012873
 20
8.9636808133
 11
10.387012873
 21
8.8643284397
  0
LINE
  5
29B
100
AcDbEntity
  8
0
100
AcDbLine
 62
4
  6
CONTINUOUS
 10
10.4228901335
 20
8.2541349859
 11
10.4228901335
 21
8.3700460893
  0
LINE
  5
29C
100
AcDbEntity
  8
0
100
AcDbLine
 62
4
  6
CONTINUOUS
 10
10.4449684247
 20
8.8603092085
 11
10.4449684247
 21
8.9596615821
  0
LINE
  5
29D
100
AcDbEntity
  8
0
100
AcDbLine
 62
4
  6
CONTINUOUS
 10
10.4780858808
 20
8.8414537753
 11
10.4780858808
 21
8.9573648787
  0
LINE
  5
29E
100
AcDbEntity
  8
0
100
AcDbLine
 62
4
  6
CONTINUOUS
 10
10.4808456783
 20
8.3494681306
 11
10.4808456783
 21
8.266674485
  0
LINE
  5
29F
100
AcDbEntity
  8
0
100
AcDbLine
 62
4
  6
CONTINUOUS
 10
10.4284097035
 20
8.8448988299
 11
10.4449684247
 21
8.8603092085
  0
LINE
  5
2A0
100
AcDbEntity
  8
0
100
AcDbLine
 62
4
  6
CONTINUOUS
 10
10.5360414326
 20
8.8374345441
 11
10.5360414326
 21
8.9533456476
  0
LINE
  5
2A1
100
AcDbEntity
  8
0
100
AcDbLine
 62
4
  6
CONTINUOUS
 10
10.6602318966
 20
8.8288219062
 11
10.6602318966
 21
8.9447330096
  0
LINE
  5
2A2
100
AcDbEntity
  8
0
100
AcDbLine
 62
4
  6
CONTINUOUS
 10
10.6602319163
 20
8.2376752773
 11
10.6602319163
 21
8.3535863808
  0
LINE
  5
2A3
100
AcDbEntity
  8
0
100
AcDbLine
 62
4
  6
CONTINUOUS
 10
10.5277620779
 20
8.2468620918
 11
10.5608795341
 21
8.3604764919
  0
LINE
  5
2A4
100
AcDbEntity
  8
0
100
AcDbLine
 62
4
  6
CONTINUOUS
 10
10.8147800529
 20
8.892618235
 11
10.8313387741
 21
8.8997492512
  0
LINE
  5
2A5
100
AcDbEntity
  8
0
100
AcDbLine
 62
4
  6
CONTINUOUS
 10
10.9720879869
 20
8.8403120725
 11
10.988646708
 21
8.8474430853
  0
LINE
  5
2A6
100
AcDbEntity
  8
0
100
AcDbLine
 62
4
  6
CONTINUOUS
 10
10.3566552143
 20
8.3084045808
 11
10.4008118259
 21
8.2832640036
  0
LINE
  5
2A7
100
AcDbEntity
  8
0
100
AcDbLine
 62
4
  6
CONTINUOUS
 10
10.4642869502
 20
8.3671752103
 11
10.4808456783
 21
8.3494681306
  0
LINE
  5
2A8
100
AcDbEntity
  8
0
100
AcDbLine
 62
4
  6
CONTINUOUS
 10
10.5608795341
 20
8.3604764919
 11
10.593997004
 21
8.2422686841
  0
LINE
  5
2A9
100
AcDbEntity
  8
0
100
AcDbLine
 62
4
  6
CONTINUOUS
 10
10.7099080877
 20
8.8998911305
 11
10.7099080877
 21
8.8253768507
  0
LINE
  5
2AA
100
AcDbEntity
  8
0
100
AcDbLine
 62
4
  6
CONTINUOUS
 10
10.7140477382
 20
8.5055062948
 11
10.7140477382
 21
8.5882999403
  0
LINE
  5
2AB
100
AcDbEntity
  8
0
100
AcDbLine
 62
4
  6
CONTINUOUS
 10
10.7264668286
 20
8.2330818706
 11
10.7264668286
 21
8.348992974
  0
LINE
  5
2AC
100
AcDbEntity
  8
0
100
AcDbLine
 62
4
  6
CONTINUOUS
 10
10.7720032899
 20
8.551163253
 11
10.7720032899
 21
8.4849283338
  0
LINE
  5
2AD
100
AcDbEntity
  8
0
100
AcDbLine
 62
4
  6
CONTINUOUS
 10
10.8051207461
 20
8.4826316304
 11
10.8051207461
 21
8.5985427339
  0
LINE
  5
2AE
100
AcDbEntity
  8
0
100
AcDbLine
 62
4
  6
CONTINUOUS
 10
10.8147800529
 20
8.8263833201
 11
10.8147800529
 21
8.892618235
  0
LINE
  5
2AF
100
AcDbEntity
  8
0
100
AcDbLine
 62
4
  6
CONTINUOUS
 10
10.7595842788
 20
8.7943339133
 11
10.7927017212
 21
8.90242874
  0
LINE
  5
2B0
100
AcDbEntity
  8
0
100
AcDbLine
 62
7
  6
CONTINUOUS
 10
12.2871270556
 20
9.9813592499
 11
12.610650595
 21
10.2938590105
  0
LINE
  5
2B1
100
AcDbEntity
  8
0
100
AcDbLine
 62
4
  6
CONTINUOUS
 10
10.7140477382
 20
8.5882999403
 11
10.730606468
 21
8.6037103166
  0
LINE
  5
2B2
100
AcDbEntity
  8
0
100
AcDbLine
 62
4
  6
CONTINUOUS
 10
10.4808456783
 20
8.266674485
 11
10.4642869502
 21
8.2512641069
  0
LINE
  5
2B3
100
AcDbEntity
  8
0
100
AcDbLine
 62
4
  6
CONTINUOUS
 10
12.0528900287
 20
9.3195236375
 11
12.0673789166
 21
9.3281780861
  0
LINE
  5
2B4
100
AcDbEntity
  8
0
100
AcDbLine
 62
4
  6
CONTINUOUS
 10
11.1293958854
 20
8.2051386456
 11
11.0879990548
 21
8.2080095255
  0
LINE
  5
2B5
100
AcDbEntity
  8
0
100
AcDbLine
 62
4
  6
CONTINUOUS
 10
11.0383228913
 20
8.2114545792
 11
11.0134847819
 21
8.2131771079
  0
LINE
  5
2B6
100
AcDbEntity
  8
0
100
AcDbLine
 62
4
  6
CONTINUOUS
 10
10.9500096749
 20
8.2175791215
 11
10.9168922326
 21
8.219875824
  0
LINE
  5
2B7
100
AcDbEntity
  8
0
100
AcDbLine
 62
4
  6
CONTINUOUS
 10
10.4642869502
 20
8.2512641069
 11
10.4228901335
 21
8.2541349859
  0
LINE
  5
2B8
100
AcDbEntity
  8
0
100
AcDbLine
 62
4
  6
CONTINUOUS
 10
10.7264668286
 20
8.2330818706
 11
10.7761430198
 21
8.229636815
  0
LINE
  5
2B9
100
AcDbEntity
  8
0
100
AcDbLine
 62
4
  6
CONTINUOUS
 10
11.1928710477
 20
8.2007366281
 11
11.2425472112
 21
8.1972915745
  0
LINE
  5
2BA
100
AcDbEntity
  8
0
100
AcDbLine
 62
4
  6
CONTINUOUS
 10
10.53880123
 20
8.2792139836
 11
10.5829578382
 21
8.2761517125
  0
LINE
  5
2BB
100
AcDbEntity
  8
0
100
AcDbLine
 62
4
  6
CONTINUOUS
 10
11.22598849
 20
8.2646748449
 11
11.1928710477
 21
8.2669715473
  0
LINE
  5
2BC
100
AcDbEntity
  8
0
100
AcDbLine
 62
4
  6
CONTINUOUS
 10
10.7595842986
 20
8.2970200854
 11
10.7264668286
 21
8.2993167898
  0
LINE
  5
2BD
100
AcDbEntity
  8
0
100
AcDbLine
 62
4
  6
CONTINUOUS
 10
10.4228901335
 20
8.3700460893
 11
10.4642869502
 21
8.3671752103
  0
LINE
  5
2BE
100
AcDbEntity
  8
0
100
AcDbLine
 62
4
  6
CONTINUOUS
 10
10.6271144464
 20
8.3558830851
 11
10.6933493587
 21
8.3512896783
  0
LINE
  5
2BF
100
AcDbEntity
  8
0
100
AcDbLine
 62
4
  6
CONTINUOUS
 10
10.7264668286
 20
8.348992974
 11
10.7761430198
 21
8.3455479184
  0
LINE
  5
2C0
100
AcDbEntity
  8
0
100
AcDbLine
 62
4
  6
CONTINUOUS
 10
10.9168922326
 20
8.3357869274
 11
10.9500096749
 21
8.333490225
  0
LINE
  5
2C1
100
AcDbEntity
  8
0
100
AcDbLine
 62
4
  6
CONTINUOUS
 10
11.0134847819
 20
8.3290882113
 11
11.0383228913
 21
8.3273656826
  0
LINE
  5
2C2
100
AcDbEntity
  8
0
100
AcDbLine
 62
4
  6
CONTINUOUS
 10
11.0879990548
 20
8.323920629
 11
11.1293958854
 21
8.321049749
  0
LINE
  5
2C3
100
AcDbEntity
  8
0
100
AcDbLine
 62
4
  6
CONTINUOUS
 10
11.1928710477
 20
8.3166477316
 11
11.2425472112
 21
8.3132026779
  0
LINE
  5
2C4
100
AcDbEntity
  8
0
100
AcDbLine
 62
4
  6
CONTINUOUS
 10
10.3538954168
 20
8.8831838728
 11
10.2959398651
 21
8.9368792917
  0
LINE
  5
2C5
100
AcDbEntity
  8
0
100
AcDbLine
 62
4
  6
CONTINUOUS
 10
10.2959398651
 20
8.8623650093
 11
10.30421923
 21
8.8535114685
  0
LINE
  5
2C6
100
AcDbEntity
  8
0
100
AcDbLine
 62
4
  6
CONTINUOUS
 10
10.9168922326
 20
8.219875824
 11
10.9003335114
 21
8.237582905
  0
LINE
  5
2C7
100
AcDbEntity
  8
0
100
AcDbLine
 62
4
  6
CONTINUOUS
 10
10.730606468
 20
8.4877992132
 11
10.7140477382
 21
8.5055062948
  0
LINE
  5
2C8
100
AcDbEntity
  8
0
100
AcDbLine
 62
4
  6
CONTINUOUS
 10
10.387012873
 20
8.8643284397
 11
10.403571601
 21
8.8466213582
  0
LINE
  5
2C9
100
AcDbEntity
  8
0
100
AcDbLine
 62
4
  6
CONTINUOUS
 10
11.0134847819
 20
8.2131771079
 11
10.9969260608
 21
8.2308841889
  0
LINE
  5
2CA
100
AcDbEntity
  8
0
100
AcDbLine
 62
4
  6
CONTINUOUS
 10
10.3456160528
 20
8.9665516925
 11
10.3538954168
 21
8.9576981492
  0
LINE
  5
2CB
100
AcDbEntity
  8
0
100
AcDbLine
 62
4
  6
CONTINUOUS
 10
10.4780858808
 20
8.9573648787
 11
10.5360414326
 21
8.8374345441
  0
LINE
  5
2CC
100
AcDbEntity
  8
0
100
AcDbLine
 62
4
  6
CONTINUOUS
 10
10.8630762978
 20
8.4786123993
 11
10.8630762978
 21
8.5945235027
  0
LINE
  5
2CD
100
AcDbEntity
  8
0
100
AcDbLine
 62
4
  6
CONTINUOUS
 10
10.8644562164
 20
8.930570005
 11
10.8644562164
 21
8.8146589015
  0
LINE
  5
2CE
100
AcDbEntity
  8
0
100
AcDbLine
 62
4
  6
CONTINUOUS
 10
10.8961937539
 20
8.4763156959
 11
10.8961937539
 21
8.5922267993
  0
LINE
  5
2CF
100
AcDbEntity
  8
0
100
AcDbLine
 62
4
  6
CONTINUOUS
 10
10.897573714
 20
8.8123621953
 11
10.897573714
 21
8.8951558426
  0
LINE
  5
2D0
100
AcDbEntity
  8
0
100
AcDbLine
 62
4
  6
CONTINUOUS
 10
10.9003335114
 20
8.237582905
 11
10.9003335114
 21
8.3203765505
  0
LINE
  5
2D1
100
AcDbEntity
  8
0
100
AcDbLine
 62
4
  6
CONTINUOUS
 10
10.9362107116
 20
8.8841969902
 11
10.9362107116
 21
8.8676382621
  0
LINE
  5
2D2
100
AcDbEntity
  8
0
100
AcDbLine
 62
7
  6
CONTINUOUS
 10
10.9439400844
 20
7.0952665382
 11
10.9439400844
 21
6.6746673125
  0
LINE
  5
2D3
100
AcDbEntity
  8
0
100
AcDbLine
 62
4
  6
CONTINUOUS
 10
10.9624286662
 20
8.5876333925
 11
10.9624286662
 21
8.4717222891
  0
LINE
  5
2D4
100
AcDbEntity
  8
0
100
AcDbLine
 62
4
  6
CONTINUOUS
 10
10.9720879869
 20
8.8154739778
 11
10.9720879869
 21
8.8403120725
  0
LINE
  5
2D5
100
AcDbEntity
  8
0
100
AcDbLine
 62
7
  6
CONTINUOUS
 10
10.995575502
 20
7.1731510037
 11
10.995575502
 21
7.1293778091
  0
LINE
  5
2D6
100
AcDbEntity
  8
0
100
AcDbLine
 62
4
  6
CONTINUOUS
 10
10.9969260608
 20
8.2308841889
 11
10.9969260608
 21
8.3136778345
  0
LINE
  5
2D7
100
AcDbEntity
  8
0
100
AcDbLine
 62
4
  6
CONTINUOUS
 10
11.0217641504
 20
8.8037495593
 11
11.0217641504
 21
8.8699844785
  0
LINE
  5
2D8
100
AcDbEntity
  8
0
100
AcDbLine
 62
4
  6
CONTINUOUS
 10
10.9293112101
 20
8.5236951802
 11
10.9624286662
 21
8.5876333925
  0
LINE
  5
2D9
100
AcDbEntity
  8
0
100
AcDbLine
 62
4
  6
CONTINUOUS
 10
11.2563461349
 20
8.8619955232
 11
11.2646254678
 21
8.869700717
  0
LINE
  5
2DA
100
AcDbEntity
  8
0
100
AcDbLine
 62
4
  6
CONTINUOUS
 10
11.330860463
 20
8.856827937
 11
11.339139796
 21
8.8645331308
  0
LINE
  5
2DB
100
AcDbEntity
  8
0
100
AcDbLine
 62
4
  6
CONTINUOUS
 10
12.0963566925
 20
9.2778721751
 11
12.0673789166
 21
9.2605632746
  0
LINE
  5
2DC
100
AcDbEntity
  8
0
100
AcDbLine
 62
4
  6
CONTINUOUS
 10
10.4008118259
 20
8.327420617
 11
10.3566552143
 21
8.3084045808
  0
LINE
  5
2DD
100
AcDbEntity
  8
0
100
AcDbLine
 62
4
  6
CONTINUOUS
 10
10.7720032899
 20
8.4849283338
 11
10.730606468
 21
8.4877992132
  0
LINE
  5
2DE
100
AcDbEntity
  8
0
100
AcDbLine
 62
4
  6
CONTINUOUS
 10
11.2756646535
 20
8.2667493673
 11
11.3198212617
 21
8.2416087886
  0
LINE
  5
2DF
100
AcDbEntity
  8
0
100
AcDbLine
 62
4
  6
CONTINUOUS
 10
11.0383228913
 20
8.3273656826
 11
11.0548816125
 21
8.3096586033
  0
LINE
  5
2E0
100
AcDbEntity
  8
0
100
AcDbLine
 62
4
  6
CONTINUOUS
 10
11.1293958854
 20
8.321049749
 11
11.1459546065
 21
8.3033426697
  0
LINE
  5
2E1
100
AcDbEntity
  8
0
100
AcDbLine
 62
4
  6
CONTINUOUS
 10
10.8051207461
 20
8.5985427339
 11
10.8630762978
 21
8.4786123993
  0
LINE
  5
2E2
100
AcDbEntity
  8
0
100
AcDbLine
 62
4
  6
CONTINUOUS
 10
10.8961937539
 20
8.5922267993
 11
10.9293112101
 21
8.5236951802
  0
LINE
  5
2E3
100
AcDbEntity
  8
0
100
AcDbLine
 62
4
  6
CONTINUOUS
 10
10.7430255577
 20
8.9058737936
 11
10.7678636671
 21
8.8213576176
  0
LINE
  5
2E4
100
AcDbEntity
  8
0
100
AcDbLine
 62
4
  6
CONTINUOUS
 10
11.0548815927
 20
8.8842465041
 11
11.0548815927
 21
8.8097322217
  0
LINE
  5
2E5
100
AcDbEntity
  8
0
100
AcDbLine
 62
4
  6
CONTINUOUS
 10
11.0548816125
 20
8.3096586033
 11
11.0548816125
 21
8.2268649578
  0
LINE
  5
2E6
100
AcDbEntity
  8
0
100
AcDbLine
 62
7
  6
CONTINUOUS
 10
11.0569948963
 20
6.9860641623
 11
11.0569948963
 21
6.5654649365
  0
LINE
  5
2E7
100
AcDbEntity
  8
0
100
AcDbLine
 62
4
  6
CONTINUOUS
 10
11.0879990548
 20
8.2080095255
 11
11.0879990548
 21
8.323920629
  0
LINE
  5
2E8
100
AcDbEntity
  8
0
100
AcDbLine
 62
7
  6
CONTINUOUS
 10
11.0988751238
 20
6.9752247755
 11
11.0988751238
 21
6.5546255498
  0
LINE
  5
2E9
100
AcDbEntity
  8
0
100
AcDbLine
 62
4
  6
CONTINUOUS
 10
11.1045578115
 20
8.7980077994
 11
11.1045578115
 21
8.8808014466
  0
LINE
  5
2EA
100
AcDbEntity
  8
0
100
AcDbLine
 62
4
  6
CONTINUOUS
 10
11.1376752538
 20
8.8039904618
 11
11.1376752538
 21
8.9116222004
  0
LINE
  5
2EB
100
AcDbEntity
  8
0
100
AcDbLine
 62
4
  6
CONTINUOUS
 10
11.1459546065
 20
8.3033426697
 11
11.1459546065
 21
8.2205490242
  0
LINE
  5
2EC
100
AcDbEntity
  8
0
100
AcDbLine
 62
4
  6
CONTINUOUS
 10
11.1928710477
 20
8.2007366281
 11
11.1928710477
 21
8.3166477316
  0
LINE
  5
2ED
100
AcDbEntity
  8
0
100
AcDbLine
 62
4
  6
CONTINUOUS
 10
11.2149493043
 20
8.9062632268
 11
11.2121895267
 21
8.8981752505
  0
LINE
  5
2EE
100
AcDbEntity
  8
0
100
AcDbLine
 62
4
  6
CONTINUOUS
 10
11.3722572383
 20
8.7794427811
 11
11.3805365713
 21
8.7871479723
  0
LINE
  5
2EF
100
AcDbEntity
  8
0
100
AcDbLine
 62
4
  6
CONTINUOUS
 10
10.9003335114
 20
8.3203765505
 11
10.9168922326
 21
8.3357869274
  0
LINE
  5
2F0
100
AcDbEntity
  8
0
100
AcDbLine
 62
4
  6
CONTINUOUS
 10
10.9969260608
 20
8.3136778345
 11
11.0134847819
 21
8.3290882113
  0
LINE
  5
2F1
100
AcDbEntity
  8
0
100
AcDbLine
 62
4
  6
CONTINUOUS
 10
10.7471651978
 20
8.5528857806
 11
10.7720032899
 21
8.551163253
  0
LINE
  5
2F2
100
AcDbEntity
  8
0
100
AcDbLine
 62
4
  6
CONTINUOUS
 10
10.730606468
 20
8.6037103166
 11
10.7720032899
 21
8.6008394372
  0
LINE
  5
2F3
100
AcDbEntity
  8
0
100
AcDbLine
 62
4
  6
CONTINUOUS
 10
10.8313387741
 20
8.816955604
 11
10.8147800529
 21
8.8263833201
  0
LINE
  5
2F4
100
AcDbEntity
  8
0
100
AcDbLine
 62
4
  6
CONTINUOUS
 10
10.7016287271
 20
8.9087446736
 11
10.7099080877
 21
8.8998911305
  0
LINE
  5
2F5
100
AcDbEntity
  8
0
100
AcDbLine
 62
4
  6
CONTINUOUS
 10
10.9306911563
 20
8.8928591401
 11
10.9362107116
 21
8.8841969902
  0
LINE
  5
2F6
100
AcDbEntity
  8
0
100
AcDbLine
 62
4
  6
CONTINUOUS
 10
11.0217641504
 20
8.8699844785
 11
11.0134848174
 21
8.8871173802
  0
LINE
  5
2F7
100
AcDbEntity
  8
0
100
AcDbLine
 62
4
  6
CONTINUOUS
 10
11.2121895267
 20
8.7905435146
 11
11.2121895267
 21
8.8733371618
  0
LINE
  5
2F8
100
AcDbEntity
  8
0
100
AcDbLine
 62
4
  6
CONTINUOUS
 10
11.2121895267
 20
8.8981752505
 11
11.2121895267
 21
8.906454618
  0
LINE
  5
2F9
100
AcDbEntity
  8
0
100
AcDbLine
 62
4
  6
CONTINUOUS
 10
11.2563461349
 20
8.7957606083
 11
11.2563461349
 21
8.8619955232
  0
LINE
  5
2FA
100
AcDbEntity
  8
0
100
AcDbLine
 62
4
  6
CONTINUOUS
 10
11.330860463
 20
8.8319898448
 11
11.330860463
 21
8.856827937
  0
LINE
  5
2FB
100
AcDbEntity
  8
0
100
AcDbLine
 62
4
  6
CONTINUOUS
 10
12.0456455847
 20
9.3103667782
 11
12.0528900287
 21
9.3195236375
  0
LINE
  5
2FC
100
AcDbEntity
  8
0
100
AcDbLine
 62
4
  6
CONTINUOUS
 10
11.0548816125
 20
8.2268649578
 11
11.0383228913
 21
8.2114545792
  0
LINE
  5
2FD
100
AcDbEntity
  8
0
100
AcDbLine
 62
4
  6
CONTINUOUS
 10
11.1459546065
 20
8.2205490242
 11
11.1293958854
 21
8.2051386456
  0
LINE
  5
2FE
100
AcDbEntity
  8
0
100
AcDbLine
 62
4
  6
CONTINUOUS
 10
11.3198212617
 20
8.2416087886
 11
11.2756646535
 21
8.2225927539
  0
LINE
  5
2FF
100
AcDbEntity
  8
0
100
AcDbLine
 62
4
  6
CONTINUOUS
 10
10.7430255577
 20
8.7954822645
 11
10.7595842788
 21
8.7943339133
  0
LINE
  5
300
100
AcDbEntity
  8
0
100
AcDbLine
 62
4
  6
CONTINUOUS
 10
11.2977430207
 20
8.7846103596
 11
11.2646254678
 21
8.7869070697
  0
LINE
  5
301
100
AcDbEntity
  8
0
100
AcDbLine
 62
4
  6
CONTINUOUS
 10
11.1625133632
 20
8.7939885682
 11
11.145954642
 21
8.7951369194
  0
LINE
  5
302
100
AcDbEntity
  8
0
100
AcDbLine
 62
4
  6
CONTINUOUS
 10
11.0217641504
 20
8.8037495593
 11
10.988646708
 21
8.8060462617
  0
LINE
  5
303
100
AcDbEntity
  8
0
100
AcDbLine
 62
4
  6
CONTINUOUS
 10
10.8644562164
 20
8.8146589015
 11
10.8313387741
 21
8.816955604
  0
LINE
  5
304
100
AcDbEntity
  8
0
100
AcDbLine
 62
4
  6
CONTINUOUS
 10
10.30421923
 20
8.8535114685
 11
10.3373366887
 21
8.8512147649
  0
LINE
  5
305
100
AcDbEntity
  8
0
100
AcDbLine
 62
4
  6
CONTINUOUS
 10
10.403571601
 20
8.8466213582
 11
10.4284097035
 21
8.8448988299
  0
LINE
  5
306
100
AcDbEntity
  8
0
100
AcDbLine
 62
4
  6
CONTINUOUS
 10
11.0631609809
 20
8.8008786793
 11
11.1045578115
 21
8.7980077994
  0
LINE
  5
307
100
AcDbEntity
  8
0
100
AcDbLine
 62
4
  6
CONTINUOUS
 10
11.339139796
 20
8.7817394835
 11
11.3722572383
 21
8.7794427811
  0
LINE
  5
308
100
AcDbEntity
  8
0
100
AcDbLine
 62
4
  6
CONTINUOUS
 10
10.988646708
 20
8.8474430853
 11
11.0217641504
 21
8.8451463829
  0
LINE
  5
309
100
AcDbEntity
  8
0
100
AcDbLine
 62
4
  6
CONTINUOUS
 10
10.988646708
 20
8.8060462617
 11
10.9720879869
 21
8.8154739778
  0
LINE
  5
30A
100
AcDbEntity
  8
0
100
AcDbLine
 62
4
  6
CONTINUOUS
 10
11.0548815927
 20
8.8097322217
 11
11.0631609809
 21
8.8008786793
  0
LINE
  5
30B
100
AcDbEntity
  8
0
100
AcDbLine
 62
4
  6
CONTINUOUS
 10
11.145954642
 20
8.7951369194
 11
11.1376752538
 21
8.8039904618
  0
LINE
  5
30C
100
AcDbEntity
  8
0
100
AcDbLine
 62
4
  6
CONTINUOUS
 10
11.3805365713
 20
8.7871479723
 11
11.3805365713
 21
8.811986067
  0
LINE
  5
30D
100
AcDbEntity
  8
0
100
AcDbLine
 62
7
  6
CONTINUOUS
 10
11.5208011028
 20
6.9459641095
 11
11.5208011028
 21
6.5253648838
  0
LINE
  5
30E
100
AcDbEntity
  8
0
100
AcDbLine
 62
4
  6
CONTINUOUS
 10
12.0673789166
 20
9.2605632746
 11
12.0528900287
 21
9.2422495663
  0
LINE
  5
30F
100
AcDbEntity
  8
0
100
AcDbLine
 62
4
  6
CONTINUOUS
 10
12.1036011364
 20
9.2870290344
 11
12.0963566925
 21
9.2778721751
  0
LINE
  5
310
100
AcDbEntity
  8
0
100
AcDbLine
 62
4
  6
CONTINUOUS
 10
11.0134848174
 20
8.8871173802
 11
10.9720879869
 21
8.8899882602
  0
LINE
  5
311
100
AcDbEntity
  8
0
100
AcDbLine
 62
4
  6
CONTINUOUS
 10
10.6602318966
 20
8.9116155535
 11
10.7016287271
 21
8.9087446736
  0
LINE
  5
312
100
AcDbEntity
  8
0
100
AcDbLine
 62
4
  6
CONTINUOUS
 10
10.8313387741
 20
8.8997492512
 11
10.8644562164
 21
8.8974525488
  0
LINE
  5
313
100
AcDbEntity
  8
0
100
AcDbLine
 62
4
  6
CONTINUOUS
 10
10.897573714
 20
8.8951558426
 11
10.9306911563
 21
8.8928591401
  0
LINE
  5
314
100
AcDbEntity
  8
0
100
AcDbLine
 62
4
  6
CONTINUOUS
 10
11.2646254678
 20
8.869700717
 11
11.2977430207
 21
8.8674040069
  0
LINE
  5
315
100
AcDbEntity
  8
0
100
AcDbLine
 62
4
  6
CONTINUOUS
 10
11.339139796
 20
8.8645331308
 11
11.3722572383
 21
8.8622364283
  0
LINE
  5
316
100
AcDbEntity
  8
0
100
AcDbLine
 62
4
  6
CONTINUOUS
 10
10.3124985949
 20
8.968848396
 11
10.3456160528
 21
8.9665516925
  0
LINE
  5
317
100
AcDbEntity
  8
0
100
AcDbLine
 62
4
  6
CONTINUOUS
 10
11.2121895267
 20
8.906454618
 11
11.2149493043
 21
8.9062632268
  0
LINE
  5
318
100
AcDbEntity
  8
0
100
AcDbLine
 62
4
  6
CONTINUOUS
 10
11.3722572383
 20
8.8180798167
 11
11.339139796
 21
8.8258960951
  0
LINE
  5
319
100
AcDbEntity
  8
0
100
AcDbLine
 62
4
  6
CONTINUOUS
 10
11.339139796
 20
8.8258960951
 11
11.330860463
 21
8.8319898448
  0
LINE
  5
31A
100
AcDbEntity
  8
0
100
AcDbLine
 62
4
  6
CONTINUOUS
 10
11.3805365713
 20
8.811986067
 11
11.3722572383
 21
8.8180798167
  0
LINE
  5
31B
100
AcDbEntity
  8
0
100
AcDbLine
 62
4
  6
CONTINUOUS
 10
11.2646254678
 20
8.7869070697
 11
11.2563461349
 21
8.7957606083
  0
LINE
  5
31C
100
AcDbEntity
  8
0
100
AcDbLine
 62
4
  6
CONTINUOUS
 10
11.330860463
 20
8.7905930221
 11
11.339139796
 21
8.7817394835
  0
LINE
  5
31D
100
AcDbEntity
  8
0
100
AcDbLine
 62
4
  6
CONTINUOUS
 10
11.3722572383
 20
8.8622364283
 11
11.3805365713
 21
8.8533828872
  0
LINE
  5
31E
100
AcDbEntity
  8
0
100
AcDbLine
 62
7
  6
CONTINUOUS
 10
11.5780105414
 20
6.9499316046
 11
11.5780105414
 21
6.5293323788
  0
LINE
  5
31F
100
AcDbEntity
  8
0
100
AcDbLine
 62
4
  6
CONTINUOUS
 10
12.0528900287
 20
9.2422495663
 11
12.0456455847
 21
9.2137741943
  0
LINE
  5
320
100
AcDbEntity
  8
0
100
AcDbLine
 62
4
  6
CONTINUOUS
 10
12.0456455847
 20
9.2137741943
 11
12.1036011364
 21
9.2097549631
  0
LINE
  5
321
100
AcDbEntity
  8
0
100
AcDbLine
 62
7
  6
CONTINUOUS
 10
11.8868817084
 20
7.0298733145
 11
11.8868817084
 21
6.6092740887
  0
LINE
  5
322
100
AcDbEntity
  8
0
100
AcDbLine
 62
7
  6
CONTINUOUS
 10
11.9022109195
 20
7.0446801963
 11
11.9022109195
 21
6.6240809705
  0
LINE
  5
323
100
AcDbEntity
  8
0
100
AcDbLine
 62
7
  6
CONTINUOUS
 10
10.9507377449
 20
7.102730102
 11
10.9519567154
 21
7.1038856363
  0
LINE
  5
324
100
AcDbEntity
  8
0
100
AcDbLine
 62
7
  6
CONTINUOUS
 10
10.995575502
 20
7.1444774962
 11
10.9519567112
 21
7.1038856324
  0
LINE
  5
325
100
AcDbEntity
  8
0
100
AcDbLine
 62
4
  6
CONTINUOUS
 10
12.0673789166
 20
9.3281780861
 11
12.0818678045
 21
9.3271732783
  0
LINE
  5
326
100
AcDbEntity
  8
0
100
AcDbLine
 62
4
  6
CONTINUOUS
 10
12.1036011364
 20
9.306347547
 11
12.1036011364
 21
9.2870290344
  0
LINE
  5
327
100
AcDbEntity
  8
0
100
AcDbLine
 62
7
  6
CONTINUOUS
 10
12.2871270556
 20
7.0835815993
 11
12.2871270556
 21
9.9813592499
  0
LINE
  5
328
100
AcDbEntity
  8
0
100
AcDbLine
 62
4
  6
CONTINUOUS
 10
12.0818678045
 20
9.3271732783
 11
12.0963566925
 21
9.3165092142
  0
LINE
  5
329
100
AcDbEntity
  8
0
100
AcDbLine
 62
4
  6
CONTINUOUS
 10
12.0963566925
 20
9.3165092142
 11
12.1036011364
 21
9.306347547
  0
LINE
  5
32A
100
AcDbEntity
  8
0
100
AcDbLine
 62
7
  6
CONTINUOUS
 10
12.610650595
 20
7.3960813599
 11
12.610650595
 21
10.2938590105
  0
LINE
  5
32B
100
AcDbEntity
  8
0
100
AcDbLine
 62
7
  6
CONTINUOUS
 10
9.389349405
 20
10.1823208125
 11
12.2871270556
 21
9.9813592499
  0
LINE
  5
32C
100
AcDbEntity
  8
0
100
AcDbLine
 62
7
  6
CONTINUOUS
 10
12.610650595
 20
10.2938590105
 11
9.7128729444
 21
10.4948205731
  0
LINE
  5
32D
100
AcDbEntity
  8
0
100
AcDbLine
 62
7
  6
CONTINUOUS
 10
12.2871270556
 20
7.0835815993
 11
12.610650595
 21
7.3960813599
  0
LINE
  5
32E
100
AcDbEntity
  8
0
100
AcDbLine
 62
7
  6
CONTINUOUS
 10
11.8291241925
 20
6.5772500889
 11
11.8039618397
 21
6.5648203684
  0
ARC
  5
32F
100
AcDbEntity
  8
0
100
AcDbCircle
 62
7
  6
CONTINUOUS
 10
11.4308772006
 20
8.6570756033
 40
1.7134727463
100
AcDbArc
 50
273.0082929995
 51
274.9259690708
  0
ARC
  5
330
100
AcDbEntity
  8
0
100
AcDbCircle
 62
7
  6
CONTINUOUS
 10
11.4308772006
 20
8.2364763775
 40
1.7134727463
100
AcDbArc
 50
273.0082929995
 51
274.9259690708
  0
SPLINE
  5
331
100
AcDbEntity
  8
0
100
AcDbSpline
 62
7
  6
CONTINUOUS
 70
0
 71
3
 72
11
 73
7
 74
0
 42
0.0000001
 43
0.0000001
 44
0.0000000001
 40
0.0
 40
0.0
 40
0.0
 40
0.0
 40
0.2602888324
 40
0.5135712263
 40
0.7600617157
 40
1.0
 40
1.0
 40
1.0
 40
1.0
 10
10.9507377449
 20
7.102730102
 30
0.0
 10
10.9501073083
 20
7.1021211469
 30
0.0
 10
10.9488812432
 20
7.1009009698
 30
0.0
 10
10.9471253775
 20
7.0990381266
 30
0.0
 10
10.9454786531
 20
7.0971684984
 30
0.0
 10
10.94444019
 20
7.0959011505
 30
0.0
 10
10.9439400844
 20
7.0952665382
 30
0.0
  0
SPLINE
  5
332
100
AcDbEntity
  8
0
100
AcDbSpline
 62
7
  6
CONTINUOUS
 70
0
 71
3
 72
11
 73
7
 74
0
 42
0.0000001
 43
0.0000001
 44
0.0000000001
 40
0.0
 40
0.0
 40
0.0
 40
0.0
 40
0.2399382843
 40
0.4864287737
 40
0.7397111676
 40
1.0
 40
1.0
 40
1.0
 40
1.0
 10
11.9022109195
 20
6.6240809705
 30
0.0
 10
11.9017108139
 20
6.6234463583
 30
0.0
 10
11.9006723508
 20
6.6221790103
 30
0.0
 10
11.8990256264
 20
6.6203093821
 30
0.0
 10
11.8972697608
 20
6.618446539
 30
0.0
 10
11.8960436957
 20
6.6172263619
 30
0.0
 10
11.895413259
 20
6.6166174068
 30
0.0
  0
SPLINE
  5
333
100
AcDbEntity
  8
0
100
AcDbSpline
 62
7
  6
CONTINUOUS
 70
0
 71
3
 72
11
 73
7
 74
0
 42
0.0000001
 43
0.0000001
 44
0.0000000001
 40
0.0
 40
0.0
 40
0.0
 40
0.0
 40
0.2399502312
 40
0.4865132022
 40
0.7398237866
 40
1.0
 40
1.0
 40
1.0
 40
1.0
 10
11.895413259
 20
6.6166174068
 30
0.0
 10
11.8947653838
 20
6.6159916074
 30
0.0
 10
11.8934322449
 20
6.6147428425
 30
0.0
 10
11.8913515128
 20
6.6129028417
 30
0.0
 10
11.8891634026
 20
6.6110712651
 30
0.0
 10
11.8876537749
 20
6.6098722773
 30
0.0
 10
11.8868817084
 20
6.6092740887
 30
0.0
  0
SPLINE
  5
334
100
AcDbEntity
  8
0
100
AcDbSpline
 62
7
  6
CONTINUOUS
 70
0
 71
3
 72
11
 73
7
 74
0
 42
0.0000001
 43
0.0000001
 44
0.0000000001
 40
0.0
 40
0.0
 40
0.0
 40
0.0
 40
0.2529398012
 40
0.5039896517
 40
0.7530425508
 40
1.0
 40
1.0
 40
1.0
 40
1.0
 10
11.8868817084
 20
6.6092740887
 30
0.0
 10
11.8821270373
 20
6.6063686535
 30
0.0
 10
11.8725980662
 20
6.6006690902
 30
0.0
 10
11.8581874146
 20
6.5924488553
 30
0.0
 10
11.8437122945
 20
6.5846156201
 30
0.0
 10
11.8339783911
 20
6.5796481072
 30
0.0
 10
11.8291007828
 20
6.5772385256
 30
0.0
  0
SPLINE
  5
335
100
AcDbEntity
  8
0
100
AcDbSpline
 62
7
  6
CONTINUOUS
 70
0
 71
3
 72
19
 73
15
 74
0
 42
0.0000001
 43
0.0000001
 44
0.0000000001
 40
0.0
 40
0.0
 40
0.0
 40
0.0
 40
0.0549442326
 40
0.1110417782
 40
0.1682629064
 40
0.2265768493
 40
0.2859520695
 40
0.3463565254
 40
0.4077579428
 40
0.4701239744
 40
0.5976202717
 40
0.7285932107
 40
0.8627976794
 40
1.0
 40
1.0
 40
1.0
 40
1.0
 10
11.8719627675
 20
7.1123962736
 30
0.0
 10
11.8726202618
 20
7.1112064672
 30
0.0
 10
11.8739321823
 20
7.1087925219
 30
0.0
 10
11.8758723264
 20
7.1051091056
 30
0.0
 10
11.8778052819
 20
7.1013280352
 30
0.0
 10
11.8797308298
 20
7.0974524352
 30
0.0
 10
11.8816487895
 20
7.093485415
 30
0.0
 10
11.8835590093
 20
7.0894300707
 30
0.0
 10
11.885461374
 20
7.0852894659
 30
0.0
 10
11.8880058958
 20
7.079617419
 30
0.0
 10
11.8911623083
 20
7.0723336893
 30
0.0
 10
11.8948908658
 20
7.0633620779
 30
0.0
 10
11.898587554
 20
7.0541182024
 30
0.0
 10
11.9010055978
 20
7.0478535561
 30
0.0
 10
11.9022109195
 20
7.0446801963
 30
0.0
  0
SPLINE
  5
336
100
AcDbEntity
  8
0
100
AcDbSpline
 62
7
  6
CONTINUOUS
 70
0
 71
3
 72
79
 73
75
 74
0
 42
0.0000001
 43
0.0000001
 44
0.0000000001
 40
0.0
 40
0.0
 40
0.0
 40
0.0
 40
0.0049346149
 40
0.0099877251
 40
0.0151590499
 40
0.0204481992
 40
0.0258546713
 40
0.0313778714
 40
0.0370171043
 40
0.0427715926
 40
0.0546226141
 40
0.066923307
 40
0.0796646949
 40
0.0928367656
 40
0.10642856
 40
0.1204282499
 40
0.1348232052
 40
0.1496000531
 40
0.1647447325
 40
0.1802425411
 40
0.1960781811
 40
0.2122357989
 40
0.2286990254
 40
0.2454510106
 40
0.26247446
 40
0.2797516671
 40
0.2972645466
 40
0.3149946648
 40
0.3329232712
 40
0.3510313283
 40
0.3692995407
 40
0.3877083857
 40
0.4062381408
 40
0.424868914
 40
0.443580671
 40
0.462353265
 40
0.4811664639
 40
0.4999999795
 40
0.5188334952
 40
0.5376466942
 40
0.5564192885
 40
0.5751310457
 40
0.5937618193
 40
0.6122915748
 40
0.6307004205
 40
0.6489686336
 40
0.6670766916
 40
0.685005299
 40
0.7027354182
 40
0.7202482986
 40
0.7375255067
 40
0.7545489571
 40
0.7713009434
 40
0.7877641713
 40
0.8039217908
 40
0.8197574325
 40
0.8352552428
 40
0.8503999238
 40
0.8651767734
 40
0.8795717301
 40
0.8935714217
 40
0.9071632179
 40
0.9203352906
 40
0.9330766807
 40
0.945377376
 40
0.9572283997
 40
0.9629828881
 40
0.9686221229
 40
0.9741453233
 40
0.979551797
 40
0.9848409473
 40
0.990012273
 40
0.9950653848
 40
1.0
 40
1.0
 40
1.0
 40
1.0
 10
11.8039618841
 20
6.5648203906
 30
0.0
 10
11.802817094
 20
6.5642548862
 30
0.0
 10
11.8004904792
 20
6.5631295231
 30
0.0
 10
11.7969329849
 20
6.5614769489
 30
0.0
 10
11.7932674557
 20
6.5598402508
 30
0.0
 10
11.7894949589
 20
6.558219911
 30
0.0
 10
11.7856165788
 20
6.5566163906
 30
0.0
 10
11.7816334339
 20
6.5550301592
 30
0.0
 10
11.7775466694
 20
6.5534616646
 30
0.0
 10
11.7719057646
 20
6.5513741564
 30
0.0
 10
11.7646019435
 20
6.5488154784
 30
0.0
 10
11.7555265909
 20
6.5458522871
 30
0.0
 10
11.7460671794
 20
6.5429704613
 30
0.0
 10
11.7362346358
 20
6.5401733449
 30
0.0
 10
11.7260402737
 20
6.5374641814
 30
0.0
 10
11.715495847
 20
6.5348461142
 30
0.0
 10
11.7046135153
 20
6.5323221812
 30
0.0
 10
11.693405835
 20
6.5298953112
 30
0.0
 10
11.6818857421
 20
6.5275683207
 30
0.0
 10
11.6700665369
 20
6.5253439096
 30
0.0
 10
11.6579618686
 20
6.5232246591
 30
0.0
 10
11.6455857183
 20
6.521213028
 30
0.0
 10
11.6329523833
 20
6.5193113497
 30
0.0
 10
11.6200764597
 20
6.5175218301
 30
0.0
 10
11.6069728256
 20
6.5158465448
 30
0.0
 10
11.5936566233
 20
6.5142874365
 30
0.0
 10
11.580143242
 20
6.5128463133
 30
0.0
 10
11.5664482996
 20
6.5115248462
 30
0.0
 10
11.5525876246
 20
6.5103245673
 30
0.0
 10
11.5385772377
 20
6.5092468682
 30
0.0
 10
11.5244333333
 20
6.5082929985
 30
0.0
 10
11.5101722605
 20
6.5074640637
 30
0.0
 10
11.4958105043
 20
6.5067610247
 30
0.0
 10
11.4813646665
 20
6.5061846963
 30
0.0
 10
11.4668514461
 20
6.5057357467
 30
0.0
 10
11.4522876204
 20
6.505414696
 30
0.0
 10
11.4376900251
 20
6.5052219164
 30
0.0
 10
11.4230755352
 20
6.5051576315
 30
0.0
 10
11.4084610453
 20
6.5052219157
 30
0.0
 10
11.3938634499
 20
6.5054146947
 30
0.0
 10
11.379299624
 20
6.5057357448
 30
0.0
 10
11.3647864033
 20
6.506184694
 30
0.0
 10
11.3503405652
 20
6.5067610218
 30
0.0
 10
11.3359788087
 20
6.5074640603
 30
0.0
 10
11.3217177354
 20
6.5082929946
 30
0.0
 10
11.3075738303
 20
6.5092468637
 30
0.0
 10
11.2935634427
 20
6.510324562
 30
0.0
 10
11.2797027669
 20
6.5115248403
 30
0.0
 10
11.2660078237
 20
6.5128463069
 30
0.0
 10
11.2524944416
 20
6.5142874296
 30
0.0
 10
11.2391782385
 20
6.5158465374
 30
0.0
 10
11.2260746035
 20
6.5175218223
 30
0.0
 10
11.2131986789
 20
6.5193113414
 30
0.0
 10
11.2005653428
 20
6.5212130192
 30
0.0
 10
11.1881891911
 20
6.5232246498
 30
0.0
 10
11.1760845213
 20
6.5253438997
 30
0.0
 10
11.1642653147
 20
6.5275683102
 30
0.0
 10
11.1527452204
 20
6.5298953003
 30
0.0
 10
11.1415375388
 20
6.5323221698
 30
0.0
 10
11.1306552058
 20
6.5348461025
 30
0.0
 10
11.1201107776
 20
6.5374641693
 30
0.0
 10
11.109916414
 20
6.5401733325
 30
0.0
 10
11.1000838687
 20
6.5429704485
 30
0.0
 10
11.0906244552
 20
6.5458522738
 30
0.0
 10
11.0815491007
 20
6.5488154648
 30
0.0
 10
11.0742452779
 20
6.5513741419
 30
0.0
 10
11.0686043723
 20
6.5534616509
 30
0.0
 10
11.0645176067
 20
6.5550301443
 30
0.0
 10
11.060534461
 20
6.5566163765
 30
0.0
 10
11.0566560798
 20
6.5582198962
 30
0.0
 10
11.0528835821
 20
6.559840236
 30
0.0
 10
11.049218052
 20
6.5614769342
 30
0.0
 10
11.0456605565
 20
6.5631295076
 30
0.0
 10
11.0433339413
 20
6.564254871
 30
0.0
 10
11.042189151
 20
6.5648203754
 30
0.0
  0
SPLINE
  5
337
100
AcDbEntity
  8
0
100
AcDbSpline
 62
7
  6
CONTINUOUS
 70
0
 71
3
 72
34
 73
30
 74
0
 42
0.0000001
 43
0.0000001
 44
0.0000000001
 40
0.0
 40
0.0
 40
0.0
 40
0.0
 40
0.0217726103
 40
0.043998712
 40
0.0899309812
 40
0.1380396824
 40
0.1885283882
 40
0.2147207498
 40
0.2415663873
 40
0.2690791435
 40
0.2972700689
 40
0.3261474357
 40
0.3557167999
 40
0.3859810872
 40
0.4169407062
 40
0.4485936851
 40
0.4809358243
 40
0.5139608702
 40
0.5476607044
 40
0.5820255323
 40
0.6170440742
 40
0.6527037538
 40
0.6889908834
 40
0.7258908481
 40
0.7633882775
 40
0.8014672032
 40
0.8401112084
 40
0.9190266208
 40
1.0
 40
1.0
 40
1.0
 40
1.0
 10
11.0258896314
 20
6.5728720259
 30
0.0
 10
11.0250265283
 20
6.5732983434
 30
0.0
 10
11.0232980333
 20
6.5741920461
 30
0.0
 10
11.0198327726
 20
6.5761432864
 30
0.0
 10
11.0154888746
 20
6.5789003107
 30
0.0
 10
11.0103253986
 20
6.5826718339
 30
0.0
 10
11.00607238
 20
6.586191901
 30
0.0
 10
11.0026688829
 20
6.5892532287
 30
0.0
 10
11.0000847383
 20
6.5917045958
 30
0.0
 10
10.9975008268
 20
6.5942828118
 30
0.0
 10
10.9949175461
 20
6.5969872889
 30
0.0
 10
10.992335335
 20
6.5998171158
 30
0.0
 10
10.9897546116
 20
6.6027711261
 30
0.0
 10
10.9871757864
 20
6.6058478943
 30
0.0
 10
10.9845992544
 20
6.6090457542
 30
0.0
 10
10.9820253942
 20
6.6123628146
 30
0.0
 10
10.9794545645
 20
6.6157969773
 30
0.0
 10
10.9768871019
 20
6.6193459569
 30
0.0
 10
10.9743233201
 20
6.6230073036
 30
0.0
 10
10.9717635081
 20
6.6267784241
 30
0.0
 10
10.9692079294
 20
6.6306566036
 30
0.0
 10
10.9666568216
 20
6.6346390273
 30
0.0
 10
10.9641103952
 20
6.638722801
 30
0.0
 10
10.9615688346
 20
6.642904972
 30
0.0
 10
10.9590323
 20
6.6471825479
 30
0.0
 10
10.95650092
 20
6.6515525157
 30
0.0
 10
10.9531091575
 20
6.6575400268
 30
0.0
 10
10.9488875407
 20
6.6652366085
 30
0.0
 10
10.9455882734
 20
6.6714891262
 30
0.0
 10
10.9439400844
 20
6.6746673125
 30
0.0
  0
SPLINE
  5
338
100
AcDbEntity
  8
0
100
AcDbSpline
 62
7
  6
CONTINUOUS
 70
0
 71
3
 72
11
 73
7
 74
0
 42
0.0000001
 43
0.0000001
 44
0.0000000001
 40
0.0
 40
0.0
 40
0.0
 40
0.0
 40
0.2399382843
 40
0.4864287737
 40
0.7397111676
 40
1.0
 40
1.0
 40
1.0
 40
1.0
 10
11.9022109195
 20
7.0446801963
 30
0.0
 10
11.9017108139
 20
7.044045584
 30
0.0
 10
11.9006723508
 20
7.0427782361
 30
0.0
 10
11.8990256264
 20
7.0409086079
 30
0.0
 10
11.8972697608
 20
7.0390457647
 30
0.0
 10
11.8960436957
 20
7.0378255876
 30
0.0
 10
11.895413259
 20
7.0372166325
 30
0.0
  0
SPLINE
  5
339
100
AcDbEntity
  8
0
100
AcDbSpline
 62
7
  6
CONTINUOUS
 70
0
 71
3
 72
11
 73
7
 74
0
 42
0.0000001
 43
0.0000001
 44
0.0000000001
 40
0.0
 40
0.0
 40
0.0
 40
0.0
 40
0.2399786797
 40
0.4867532124
 40
0.7401537026
 40
1.0
 40
1.0
 40
1.0
 40
1.0
 10
11.0569948963
 20
6.9860641623
 30
0.0
 10
11.0603169109
 20
6.9850932938
 30
0.0
 10
11.067071522
 20
6.9831801504
 30
0.0
 10
11.0773862494
 20
6.9804306365
 30
0.0
 10
11.0880181289
 20
6.9777631257
 30
0.0
 10
11.0952223398
 20
6.9760620281
 30
0.0
 10
11.0988751238
 20
6.9752247755
 30
0.0
  0
SPLINE
  5
33A
100
AcDbEntity
  8
0
100
AcDbSpline
 62
7
  6
CONTINUOUS
 70
0
 71
3
 72
11
 73
7
 74
0
 42
0.0000001
 43
0.0000001
 44
0.0000000001
 40
0.0
 40
0.0
 40
0.0
 40
0.0
 40
0.2601762134
 40
0.5134867978
 40
0.7600497688
 40
1.0
 40
1.0
 40
1.0
 40
1.0
 10
11.8868817084
 20
7.0298733145
 30
0.0
 10
11.8876537749
 20
7.030471503
 30
0.0
 10
11.8891634026
 20
7.0316704909
 30
0.0
 10
11.8913515128
 20
7.0335020675
 30
0.0
 10
11.8934322449
 20
7.0353420683
 30
0.0
 10
11.8947653838
 20
7.0365908331
 30
0.0
 10
11.895413259
 20
7.0372166325
 30
0.0
  0
SPLINE
  5
33B
100
AcDbEntity
  8
0
100
AcDbSpline
 62
7
  6
CONTINUOUS
 70
0
 71
3
 72
11
 73
7
 74
0
 42
0.0000001
 43
0.0000001
 44
0.0000000001
 40
0.0
 40
0.0
 40
0.0
 40
0.0
 40
0.2598462974
 40
0.5132467876
 40
0.7600213203
 40
1.0
 40
1.0
 40
1.0
 40
1.0
 10
11.0988751238
 20
6.5546255498
 30
0.0
 10
11.0952223398
 20
6.5554628024
 30
0.0
 10
11.0880181289
 20
6.5571638999
 30
0.0
 10
11.0773862494
 20
6.5598314107
 30
0.0
 10
11.067071522
 20
6.5625809247
 30
0.0
 10
11.0603169109
 20
6.5644940681
 30
0.0
 10
11.0569948963
 20
6.5654649365
 30
0.0
  0
SPLINE
  5
33C
100
AcDbEntity
  8
0
100
AcDbSpline
 62
7
  6
CONTINUOUS
 70
0
 71
3
 72
34
 73
30
 74
0
 42
0.0000001
 43
0.0000001
 44
0.0000000001
 40
0.0
 40
0.0
 40
0.0
 40
0.0
 40
0.0614928409
 40
0.1230891667
 40
0.153930456
 40
0.1848018751
 40
0.2157048016
 40
0.2466405691
 40
0.2776104456
 40
0.308615611
 40
0.339657133
 40
0.3707359447
 40
0.4018528241
 40
0.433008375
 40
0.4642030116
 40
0.4954369474
 40
0.5267101883
 40
0.5580225326
 40
0.5893735753
 40
0.6207627182
 40
0.6521891835
 40
0.6836520324
 40
0.7151501852
 40
0.7466824453
 40
0.7782475226
 40
0.8098440566
 40
0.8731242422
 40
0.9365133522
 40
1.0
 40
1.0
 40
1.0
 40
1.0
 10
11.5208011028
 20
6.5253648838
 30
0.0
 10
11.5121811053
 20
6.523739884
 30
0.0
 10
11.4948860474
 20
6.520697794
 30
0.0
 10
11.4731636702
 20
6.5174701344
 30
0.0
 10
11.4557126278
 20
6.5152608332
 30
0.0
 10
11.4425819962
 20
6.5137971839
 30
0.0
 10
11.4294169091
 20
6.5125350709
 30
0.0
 10
11.4162193561
 20
6.5114816109
 30
0.0
 10
11.4029917323
 20
6.5106435409
 30
0.0
 10
11.3897367962
 20
6.5100271015
 30
0.0
 10
11.3764576685
 20
6.5096379307
 30
0.0
 10
11.3631578062
 20
6.5094809585
 30
0.0
 10
11.3498409688
 20
6.5095603104
 30
0.0
 10
11.3365111729
 20
6.5098792206
 30
0.0
 10
11.3231726373
 20
6.510439962
 30
0.0
 10
11.3098297202
 20
6.5112437942
 30
0.0
 10
11.2964868502
 20
6.5122909331
 30
0.0
 10
11.2831484548
 20
6.5135805425
 30
0.0
 10
11.2698188881
 20
6.5151107529
 30
0.0
 10
11.2565023631
 20
6.5168787012
 30
0.0
 10
11.2432028884
 20
6.5188805924
 30
0.0
 10
11.2299242145
 20
6.5211117764
 30
0.0
 10
11.216669786
 20
6.5235668429
 30
0.0
 10
11.2034427207
 20
6.5262397175
 30
0.0
 10
11.1902457369
 20
6.5291237878
 30
0.0
 10
11.1726852023
 20
6.533243208
 30
0.0
 10
11.1508216719
 20
6.53888484
 30
0.0
 10
11.1247484416
 20
6.5463766452
 30
0.0
 10
11.1074822949
 20
6.5518091493
 30
0.0
 10
11.0988751238
 20
6.5546255498
 30
0.0
  0
SPLINE
  5
33D
100
AcDbEntity
  8
0
100
AcDbSpline
 62
7
  6
CONTINUOUS
 70
0
 71
3
 72
37
 73
33
 74
0
 42
0.0000001
 43
0.0000001
 44
0.0000000001
 40
0.0
 40
0.0
 40
0.0
 40
0.0
 40
0.0320287472
 40
0.0640311205
 40
0.0960043923
 40
0.1279455611
 40
0.159851441
 40
0.1917186505
 40
0.2235436484
 40
0.2553227761
 40
0.2870523307
 40
0.318728644
 40
0.3503481602
 40
0.381907556
 40
0.4134038501
 40
0.444834504
 40
0.4761975334
 40
0.5074915881
 40
0.5387160101
 40
0.5698708592
 40
0.6009569109
 40
0.6319756141
 40
0.6629290159
 40
0.6938196881
 40
0.7246506078
 40
0.755425049
 40
0.7861464927
 40
0.8168185117
 40
0.847444686
 40
0.8780285427
 40
0.9390791653
 40
1.0
 40
1.0
 40
1.0
 40
1.0
 10
11.5208011028
 20
6.9459641095
 30
0.0
 10
11.5166485353
 20
6.9481067767
 30
0.0
 10
11.5083109254
 20
6.9523212495
 30
0.0
 10
11.4957001348
 20
6.9584177828
 30
0.0
 10
11.4829884925
 20
6.9642709832
 30
0.0
 10
11.4701756005
 20
6.9698642318
 30
0.0
 10
11.45726183
 20
6.9751802485
 30
0.0
 10
11.4442485315
 20
6.9802011942
 30
0.0
 10
11.4311381631
 20
6.9849088689
 30
0.0
 10
11.4179344317
 20
6.9892849553
 30
0.0
 10
11.4046424064
 20
6.9933113181
 30
0.0
 10
11.3912686033
 20
6.99697035
 30
0.0
 10
11.3778210304
 20
7.0002453853
 30
0.0
 10
11.3643091689
 20
7.0031211194
 30
0.0
 10
11.3507438875
 20
7.0055840389
 30
0.0
 10
11.3371372934
 20
7.0076228823
 30
0.0
 10
11.3235024979
 20
7.0092289845
 30
0.0
 10
11.3098533271
 20
7.010396597
 30
0.0
 10
11.2962039841
 20
7.0111231226
 30
0.0
 10
11.2825686785
 20
7.011409151
 30
0.0
 10
11.2689612629
 20
7.0112584773
 30
0.0
 10
11.255394888
 20
7.0106779179
 30
0.0
 10
11.2418817085
 20
7.0096770313
 30
0.0
 10
11.2284326488
 20
7.0082678091
 30
0.0
 10
11.2150572442
 20
7.0064642339
 30
0.0
 10
11.2017635556
 20
7.0042818619
 30
0.0
 10
11.1885581417
 20
7.0017374022
 30
0.0
 10
11.1754461258
 20
6.998848303
 30
0.0
 10
11.1624311867
 20
6.9956323632
 30
0.0
 10
11.1452221358
 20
6.9909356245
 30
0.0
 10
11.1239582167
 20
6.984336482
 30
0.0
 10
11.1071908915
 20
6.9783621953
 30
0.0
 10
11.0988751238
 20
6.9752247755
 30
0.0
  0
SPLINE
  5
33E
100
AcDbEntity
  8
0
100
AcDbSpline
 62
7
  6
CONTINUOUS
 70
0
 71
3
 72
15
 73
11
 74
0
 42
0.0000001
 43
0.0000001
 44
0.0000000001
 40
0.0
 40
0.0
 40
0.0
 40
0.0
 40
0.1192556975
 40
0.2392875357
 40
0.3604859033
 40
0.483279967
 40
0.6081324973
 40
0.7355322617
 40
0.8659845135
 40
1.0
 40
1.0
 40
1.0
 40
1.0
 10
11.0569948963
 20
6.5654649365
 30
0.0
 10
11.0557126613
 20
6.5654694992
 30
0.0
 10
11.053139532
 20
6.565546177
 30
0.0
 10
11.0492754445
 20
6.5658727542
 30
0.0
 10
11.0453979491
 20
6.5664216427
 30
0.0
 10
11.0415076228
 20
6.5672032615
 30
0.0
 10
11.0376050467
 20
6.5682278163
 30
0.0
 10
11.0336909639
 20
6.5695051694
 30
0.0
 10
11.0297664448
 20
6.5710445553
 30
0.0
 10
11.027181567
 20
6.5722338926
 30
0.0
 10
11.0258896314
 20
6.5728720259
 30
0.0
  0
SPLINE
  5
33F
100
AcDbEntity
  8
0
100
AcDbSpline
 62
7
  6
CONTINUOUS
 70
0
 71
3
 72
60
 73
56
 74
0
 42
0.0000001
 43
0.0000001
 44
0.0000000001
 40
0.0
 40
0.0
 40
0.0
 40
0.0
 40
0.0511308685
 40
0.1012482554
 40
0.1502799616
 40
0.1981504086
 40
0.2447814194
 40
0.2900930985
 40
0.334005102
 40
0.3554116938
 40
0.3764389177
 40
0.3970774048
 40
0.4173181471
 40
0.4371525703
 40
0.4565726459
 40
0.4755709803
 40
0.4941409094
 40
0.5122766399
 40
0.5299733374
 40
0.5472272329
 40
0.5640357845
 40
0.5803977617
 40
0.5963133463
 40
0.6117842975
 40
0.6268140312
 40
0.6414076931
 40
0.6555722996
 40
0.6693168061
 40
0.6826521282
 40
0.6955912233
 40
0.7081491259
 40
0.7203428892
 40
0.7321915704
 40
0.7437161865
 40
0.7549395494
 40
0.7658861172
 40
0.7765818254
 40
0.787053797
 40
0.7973300544
 40
0.8074392245
 40
0.817410158
 40
0.8272715672
 40
0.8370516875
 40
0.846777913
 40
0.8564764879
 40
0.8661722543
 40
0.8758884209
 40
0.8856464115
 40
0.8954657729
 40
0.9053641127
 40
0.915357115
 40
0.935676592
 40
0.9565180238
 40
0.9779450877
 40
1.0
 40
1.0
 40
1.0
 40
1.0
 10
11.0569948963
 20
6.9860641623
 30
0.0
 10
11.0558922107
 20
6.9889673029
 30
0.0
 10
11.0536804243
 20
6.9947053608
 30
0.0
 10
11.05030466
 20
7.0031858181
 30
0.0
 10
11.0469022345
 20
7.011441877
 30
0.0
 10
11.0434730571
 20
7.0194570901
 30
0.0
 10
11.0400172483
 20
7.0272142132
 30
0.0
 10
11.036535182
 20
7.0346952586
 30
0.0
 10
11.0335877075
 20
7.0407340918
 30
0.0
 10
11.0312139574
 20
7.0454105446
 30
0.0
 10
11.0294426577
 20
7.0488073105
 30
0.0
 10
11.0276654751
 20
7.0521208698
 30
0.0
 10
11.0258826091
 20
7.0553488662
 30
0.0
 10
11.0240942868
 20
7.0584889684
 30
0.0
 10
11.0223007628
 20
7.06153889
 30
0.0
 10
11.0205023145
 20
7.0644963973
 30
0.0
 10
11.018699239
 20
7.0673593229
 30
0.0
 10
11.0168918631
 20
7.0701255853
 30
0.0
 10
11.0150805334
 20
7.0727931979
 30
0.0
 10
11.0132656124
 20
7.0753602816
 30
0.0
 10
11.0114474894
 20
7.0778250868
 30
0.0
 10
11.0096265693
 20
7.0801860005
 30
0.0
 10
11.0078032661
 20
7.0824415551
 30
0.0
 10
11.0059780142
 20
7.0845904509
 30
0.0
 10
11.0041512578
 20
7.0866315606
 30
0.0
 10
11.0023234422
 20
7.0885639314
 30
0.0
 10
11.0004950229
 20
7.0903868031
 30
0.0
 10
10.9986664598
 20
7.0920996127
 30
0.0
 10
10.9968382055
 20
7.0937019858
 30
0.0
 10
10.9950107121
 20
7.0951937484
 30
0.0
 10
10.9931844315
 20
7.0965749314
 30
0.0
 10
10.9913598025
 20
7.0978457534
 30
0.0
 10
10.9895372552
 20
7.0990066219
 30
0.0
 10
10.9877172166
 20
7.100058142
 30
0.0
 10
10.9859000986
 20
7.1010010908
 30
0.0
 10
10.9840863004
 20
7.1018364118
 30
0.0
 10
10.9822762159
 20
7.1025652256
 30
0.0
 10
10.9804702229
 20
7.1031888013
 30
0.0
 10
10.9786686841
 20
7.1037085467
 30
0.0
 10
10.9768719508
 20
7.104126019
 30
0.0
 10
10.9750803535
 20
7.104442894
 30
0.0
 10
10.9732942013
 20
7.1046609552
 30
0.0
 10
10.9715137803
 20
7.1047820998
 30
0.0
 10
10.9697393479
 20
7.1048083048
 30
0.0
 10
10.9679711316
 20
7.1047416189
 30
0.0
 10
10.9662093271
 20
7.1045841586
 30
0.0
 10
10.9644540983
 20
7.1043380773
 30
0.0
 10
10.9627055749
 20
7.1040055618
 30
0.0
 10
10.960963865
 20
7.1035888225
 30
0.0
 10
10.9592290157
 20
7.1030900581
 30
0.0
 10
10.9569125291
 20
7.102314428
 30
0.0
 10
10.9540300136
 20
7.1011457196
 30
0.0
 10
10.9506202779
 20
7.0994583741
 30
0.0
 10
10.947239557
 20
7.0974954259
 30
0.0
 10
10.9450369881
 20
7.0960354044
 30
0.0
 10
10.9439400844
 20
7.0952665382
 30
0.0
  0
SPLINE
  5
340
100
AcDbEntity
  8
0
100
AcDbSpline
 62
7
  6
CONTINUOUS
 70
0
 71
3
 72
39
 73
35
 74
0
 42
0.0000001
 43
0.0000001
 44
0.0000000001
 40
0.0
 40
0.0
 40
0.0
 40
0.0
 40
0.0286511884
 40
0.0572782361
 40
0.0858921417
 40
0.1145060505
 40
0.1431355148
 40
0.1717986058
 40
0.2005159875
 40
0.2293108812
 40
0.2582089184
 40
0.2872378355
 40
0.3164269836
 40
0.3458067076
 40
0.3754075642
 40
0.4052594083
 40
0.4353904729
 40
0.4658264387
 40
0.4965896003
 40
0.5276982233
 40
0.5591660839
 40
0.5910022716
 40
0.6232112248
 40
0.6557929779
 40
0.6887435812
 40
0.7220556324
 40
0.7557188854
 40
0.7897208525
 40
0.8240473912
 40
0.8586832503
 40
0.8936125338
 40
0.9288190984
 40
0.9642868337
 40
1.0
 40
1.0
 40
1.0
 40
1.0
 10
11.8868817084
 20
7.0298733145
 30
0.0
 10
11.8838423123
 20
7.0309410458
 30
0.0
 10
11.8777383559
 20
7.0329977467
 30
0.0
 10
11.868504474
 20
7.0358310005
 30
0.0
 10
11.8591962979
 20
7.0383948043
 30
0.0
 10
11.8498135453
 20
7.0406723773
 30
0.0
 10
11.84035645
 20
7.0426464857
 30
0.0
 10
11.8308259952
 20
7.0442995755
 30
0.0
 10
11.8212239946
 20
7.0456140121
 30
0.0
 10
11.8115532068
 20
7.0465723635
 30
0.0
 10
11.801817422
 20
7.0471577359
 30
0.0
 10
11.7920215285
 20
7.04735415
 30
0.0
 10
11.7821715412
 20
7.0471469756
 30
0.0
 10
11.7722745825
 20
7.0465233552
 30
0.0
 10
11.7623388121
 20
7.0454726191
 30
0.0
 10
11.752373293
 20
7.0439867098
 30
0.0
 10
11.7423878103
 20
7.0420604633
 30
0.0
 10
11.7323926406
 20
7.0396918475
 30
0.0
 10
11.7223982808
 20
7.0368820929
 30
0.0
 10
11.7124151864
 20
7.0336356228
 30
0.0
 10
11.7024534868
 20
7.0299599576
 30
0.0
 10
11.6925227473
 20
7.0258654304
 30
0.0
 10
11.6826317681
 20
7.0213648279
 30
0.0
 10
11.6727884139
 20
7.0164730108
 30
0.0
 10
11.6629995242
 20
7.011206439
 30
0.0
 10
11.6532708572
 20
7.0055827346
 30
0.0
 10
11.6436070813
 20
6.9996202628
 30
0.0
 10
11.6340118169
 20
6.993337732
 30
0.0
 10
11.6244877001
 20
6.9867538614
 30
0.0
 10
11.6150364663
 20
6.9798871008
 30
0.0
 10
11.6056590538
 20
6.9727554059
 30
0.0
 10
11.5963556976
 20
6.9653760604
 30
0.0
 10
11.5871260781
 20
6.9577655965
 30
0.0
 10
11.5810416227
 20
6.9525654174
 30
0.0
 10
11.5780105414
 20
6.9499316046
 30
0.0
  0
SPLINE
  5
341
100
AcDbEntity
  8
0
100
AcDbSpline
 62
7
  6
CONTINUOUS
 70
0
 71
3
 72
14
 73
10
 74
0
 42
0.0000001
 43
0.0000001
 44
0.0000000001
 40
0.0
 40
0.0
 40
0.0
 40
0.0
 40
0.2305165134
 40
0.3502439692
 40
0.4731767868
 40
0.599478273
 40
0.7292970445
 40
0.8627663234
 40
1.0
 40
1.0
 40
1.0
 40
1.0
 10
11.8465017414
 20
7.1141394017
 30
0.0
 10
11.8458804786
 20
7.1129830082
 30
0.0
 10
11.8448509356
 20
7.1112706215
 30
0.0
 10
11.8433186859
 20
7.1090535817
 30
0.0
 10
11.8420545071
 20
7.1073745539
 30
0.0
 10
11.8406903794
 20
7.105701026
 30
0.0
 10
11.8392265682
 20
7.1040332562
 30
0.0
 10
11.8376634736
 20
7.1023716907
 30
0.0
 10
11.8365709136
 20
7.1012837299
 30
0.0
 10
11.8360088172
 20
7.1007407864
 30
0.0
  0
SPLINE
  5
342
100
AcDbEntity
  8
0
100
AcDbSpline
 62
7
  6
CONTINUOUS
 70
0
 71
3
 72
110
 73
106
 74
0
 42
0.0000001
 43
0.0000001
 44
0.0000000001
 40
0.0
 40
0.0
 40
0.0
 40
0.0
 40
0.0014030775
 40
0.0028086244
 40
0.004219096
 40
0.0056369192
 40
0.0070644805
 40
0.0085041121
 40
0.0114280028
 40
0.01442644
 40
0.0175152602
 40
0.0207087818
 40
0.024019763
 40
0.0274594303
 40
0.0310375548
 40
0.0347625543
 40
0.038641609
 40
0.0426807848
 40
0.0468851507
 40
0.0512588857
 40
0.055805377
 40
0.0605273108
 40
0.0654267497
 40
0.070505199
 40
0.0757636652
 40
0.0812027097
 40
0.0868224931
 40
0.0926228105
 40
0.0986031262
 40
0.1047626041
 40
0.1111001327
 40
0.1176143438
 40
0.1243036342
 40
0.1311661835
 40
0.1381999688
 40
0.1454027747
 40
0.1527722084
 40
0.1603057108
 40
0.168000565
 40
0.1758539029
 40
0.1838627161
 40
0.1920238636
 40
0.2003340763
 40
0.2087899627
 40
0.2173880174
 40
0.2261246264
 40
0.2349960693
 40
0.2531279235
 40
0.2717520782
 40
0.2908354696
 40
0.3103437816
 40
0.330241557
 40
0.3504923218
 40
0.3710586878
 40
0.3919024673
 40
0.4129847728
 40
0.4342661242
 40
0.4557065486
 40
0.4772656827
 40
0.4989028731
 40
0.5205772753
 40
0.5422479554
 40
0.5638739874
 40
0.5854145548
 40
0.6068290491
 40
0.6280771705
 40
0.6491190287
 40
0.6699152426
 40
0.6904270459
 40
0.7106163861
 40
0.7304460359
 40
0.7498796945
 40
0.7688821073
 40
0.7874191726
 40
0.8054580737
 40
0.8142809223
 40
0.8229675733
 40
0.8315143444
 40
0.8399176582
 40
0.8481740509
 40
0.8562801766
 40
0.8642328111
 40
0.872028859
 40
0.8796653636
 40
0.8871395121
 40
0.8944486424
 40
0.9015902534
 40
0.9085620175
 40
0.9153617887
 40
0.9219876142
 40
0.9284377499
 40
0.9347106783
 40
0.9408051225
 40
0.9467200661
 40
0.9524547794
 40
0.9580088454
 40
0.9633821877
 40
0.9685751059
 40
0.9735883186
 40
0.9784230084
 40
0.983080877
 40
0.9875642035
 40
0.9918759069
 40
0.9960197037
 40
1.0
 40
1.0
 40
1.0
 40
1.0
 10
10.9955755029
 20
7.1293778446
 30
0.0
 10
10.9955755022
 20
7.1289628662
 30
0.0
 10
10.9955935698
 20
7.1281320659
 30
0.0
 10
10.9956748557
 20
7.126886492
 30
0.0
 10
10.9958103165
 20
7.125641232
 30
0.0
 10
10.9959999273
 20
7.124396491
 30
0.0
 10
10.9962436728
 20
7.1231524073
 30
0.0
 10
10.9966427683
 20
7.1214863404
 30
0.0
 10
10.9972803622
 20
7.1194017059
 30
0.0
 10
10.9982576944
 20
7.1169195178
 30
0.0
 10
10.9994504595
 20
7.1144446663
 30
0.0
 10
11.0008577717
 20
7.1119784817
 30
0.0
 10
11.0024787123
 20
7.1095220725
 30
0.0
 10
11.0043123058
 20
7.1070765598
 30
0.0
 10
11.0063575245
 20
7.104643039
 30
0.0
 10
11.008613276
 20
7.1022226089
 30
0.0
 10
11.0110783912
 20
7.0998163714
 30
0.0
 10
11.0137516197
 20
7.0974254391
 30
0.0
 10
11.0166316222
 20
7.0950509349
 30
0.0
 10
11.0197169635
 20
7.0926939889
 30
0.0
 10
11.0230061082
 20
7.0903557351
 30
0.0
 10
11.026497421
 20
7.0880373114
 30
0.0
 10
11.0301891654
 20
7.0857398565
 30
0.0
 10
11.0340795012
 20
7.0834645055
 30
0.0
 10
11.0381664855
 20
7.0812123884
 30
0.0
 10
11.0424480746
 20
7.0789846293
 30
0.0
 10
11.0469221246
 20
7.0767823452
 30
0.0
 10
11.051586391
 20
7.0746066417
 30
0.0
 10
11.0564385307
 20
7.0724586134
 30
0.0
 10
11.0614761043
 20
7.0703393437
 30
0.0
 10
11.0666965772
 20
7.0682499034
 30
0.0
 10
11.0720973194
 20
7.0661913478
 30
0.0
 10
11.0776756084
 20
7.0641647178
 30
0.0
 10
11.0834286312
 20
7.0621710395
 30
0.0
 10
11.0893534855
 20
7.0602113231
 30
0.0
 10
11.0954471799
 20
7.0582865603
 30
0.0
 10
11.1017066369
 20
7.0563977263
 30
0.0
 10
11.1081286952
 20
7.0545457788
 30
0.0
 10
11.11471011
 20
7.0527316567
 30
0.0
 10
11.1214475548
 20
7.0509562788
 30
0.0
 10
11.1283376239
 20
7.0492205451
 30
0.0
 10
11.1353768343
 20
7.0475253361
 30
0.0
 10
11.1425616268
 20
7.0458715114
 30
0.0
 10
11.1498883679
 20
7.0442599082
 30
0.0
 10
11.1573533509
 20
7.0426913451
 30
0.0
 10
11.1649528055
 20
7.0411666128
 30
0.0
 10
11.1753348588
 20
7.0391787152
 30
0.0
 10
11.1886213649
 20
7.0368122868
 30
0.0
 10
11.2049260624
 20
7.0341795223
 30
0.0
 10
11.2216721207
 20
7.0317389001
 30
0.0
 10
11.2388256452
 20
7.0294953876
 30
0.0
 10
11.2563519587
 20
7.0274535483
 30
0.0
 10
11.27421561
 20
7.0256175393
 30
0.0
 10
11.2923804652
 20
7.0239910927
 30
0.0
 10
11.3108097758
 20
7.0225775192
 30
0.0
 10
11.3294662557
 20
7.0213796911
 30
0.0
 10
11.3483121566
 20
7.020400046
 30
0.0
 10
11.3673093455
 20
7.0196405741
 30
0.0
 10
11.3864193814
 20
7.0191028205
 30
0.0
 10
11.4056035942
 20
7.0187878778
 30
0.0
 10
11.4248231632
 20
7.0186963863
 30
0.0
 10
11.4440391955
 20
7.0188285323
 30
0.0
 10
11.4632128059
 20
7.0191840465
 30
0.0
 10
11.4823051948
 20
7.0197622073
 30
0.0
 10
11.5012777282
 20
7.0205618378
 30
0.0
 10
11.5200920153
 20
7.0215813143
 30
0.0
 10
11.5387099871
 20
7.0228185617
 30
0.0
 10
11.5570939737
 20
7.0242710668
 30
0.0
 10
11.5752067813
 20
7.0259358729
 30
0.0
 10
11.5930117673
 20
7.0278095968
 30
0.0
 10
11.6104729171
 20
7.0298884236
 30
0.0
 10
11.6275549125
 20
7.032168127
 30
0.0
 10
11.6442232221
 20
7.0346440632
 30
0.0
 10
11.6604441095
 20
7.0373111993
 30
0.0
 10
11.6736568429
 20
7.0397058938
 30
0.0
 10
11.683976935
 20
7.0417159355
 30
0.0
 10
11.691527934
 20
7.0432566983
 30
0.0
 10
11.6989430806
 20
7.0448410044
 30
0.0
 10
11.7062186293
 20
7.0464680568
 30
0.0
 10
11.7133508994
 20
7.0481370288
 30
0.0
 10
11.720336285
 20
7.0498470743
 30
0.0
 10
11.7271712539
 20
7.0515973263
 30
0.0
 10
11.7338523505
 20
7.0533868985
 30
0.0
 10
11.7403761982
 20
7.055214883
 30
0.0
 10
11.7467395005
 20
7.0570803529
 30
0.0
 10
11.7529390423
 20
7.0589823631
 30
0.0
 10
11.7589716918
 20
7.0609199505
 30
0.0
 10
11.7648344036
 20
7.0628921327
 30
0.0
 10
11.7705242189
 20
7.0648979105
 30
0.0
 10
11.7760382667
 20
7.0669362689
 30
0.0
 10
11.7813737664
 20
7.0690061772
 30
0.0
 10
11.7865280301
 20
7.0711065876
 30
0.0
 10
11.7914984625
 20
7.0732364388
 30
0.0
 10
11.7962825623
 20
7.0753946566
 30
0.0
 10
11.8008779248
 20
7.0775801537
 30
0.0
 10
11.805282244
 20
7.0797918299
 30
0.0
 10
11.8094933116
 20
7.0820285752
 30
0.0
 10
11.8135090188
 20
7.0842892715
 30
0.0
 10
11.8173273587
 20
7.0865727922
 30
0.0
 10
11.8209464269
 20
7.088878003
 30
0.0
 10
11.8243644224
 20
7.0912037698
 30
0.0
 10
11.8275796344
 20
7.0935489485
 30
0.0
 10
11.8305904976
 20
7.0959124246
 30
0.0
 10
11.8333954241
 20
7.0982929915
 30
0.0
 10
11.8351620931
 20
7.0999229137
 30
0.0
 10
11.8360088172
 20
7.1007407864
 30
0.0
  0
SPLINE
  5
343
100
AcDbEntity
  8
0
100
AcDbSpline
 62
7
  6
CONTINUOUS
 70
0
 71
3
 72
32
 73
28
 74
0
 42
0.0000001
 43
0.0000001
 44
0.0000000001
 40
0.0
 40
0.0
 40
0.0
 40
0.0
 40
0.0668467461
 40
0.1330343711
 40
0.1985498456
 40
0.2633895225
 40
0.2955589434
 40
0.3275629011
 40
0.3594039835
 40
0.3910854601
 40
0.4226112559
 40
0.4539859114
 40
0.4852145321
 40
0.5163027271
 40
0.54725654
 40
0.5780823734
 40
0.6087869096
 40
0.6393770305
 40
0.6698597382
 40
0.7002420785
 40
0.7305310697
 40
0.7607336373
 40
0.790856557
 40
0.8209064041
 40
0.880809966
 40
0.940493758
 40
1.0
 40
1.0
 40
1.0
 40
1.0
 10
11.8291007828
 20
6.5772385256
 30
0.0
 10
11.8239227408
 20
6.574680527
 30
0.0
 10
11.813546573
 20
6.5697320431
 30
0.0
 10
11.7978468147
 20
6.5628126378
 30
0.0
 10
11.7820949309
 20
6.5564620267
 30
0.0
 10
11.768899012
 20
6.5516530755
 30
0.0
 10
11.7583279394
 20
6.5481165255
 30
0.0
 10
11.7504143668
 20
6.5456269916
 30
0.0
 10
11.7424968314
 20
6.5432952156
 30
0.0
 10
11.7345770111
 20
6.5411224277
 30
0.0
 10
11.7266566421
 20
6.5391094332
 30
0.0
 10
11.7187374587
 20
6.5372565805
 30
0.0
 10
11.7108211855
 20
6.5355637632
 30
0.0
 10
11.7029095165
 20
6.5340304217
 30
0.0
 10
11.6950040978
 20
6.532655554
 30
0.0
 10
11.6871065117
 20
6.5314377319
 30
0.0
 10
11.6792182617
 20
6.5303751226
 30
0.0
 10
11.6713407604
 20
6.5294655161
 30
0.0
 10
11.6634753188
 20
6.5287063556
 30
0.0
 10
11.6556231388
 20
6.5280947722
 30
0.0
 10
11.6477853051
 20
6.5276276209
 30
0.0
 10
11.6399627929
 20
6.5273015168
 30
0.0
 10
11.6321564245
 20
6.5271128785
 30
0.0
 10
11.6217819246
 20
6.5270397097
 30
0.0
 10
11.6088531352
 20
6.5272719528
 30
0.0
 10
11.5933965736
 20
6.5280386172
 30
0.0
 10
11.5831294628
 20
6.528854109
 30
0.0
 10
11.5780105414
 20
6.5293323788
 30
0.0
  0
SPLINE
  5
344
100
AcDbEntity
  8
0
100
AcDbSpline
 62
7
  6
CONTINUOUS
 70
0
 71
3
 72
85
 73
81
 74
0
 42
0.0000001
 43
0.0000001
 44
0.0000000001
 40
0.0
 40
0.0
 40
0.0
 40
0.0
 40
0.0039801755
 40
0.0081241211
 40
0.0124359992
 40
0.0169193694
 40
0.0215772468
 40
0.0264119948
 40
0.0314252716
 40
0.036618263
 40
0.0419916661
 40
0.0475457929
 40
0.0532805805
 40
0.0591955875
 40
0.0715626143
 40
0.0846383153
 40
0.0984096556
 40
0.1128602549
 40
0.1279708112
 40
0.1437194381
 40
0.1600819386
 40
0.1770320333
 40
0.1945415658
 40
0.2125806771
 40
0.2311179593
 40
0.2501205956
 40
0.2695544871
 40
0.2893843733
 40
0.3095739538
 40
0.3300859996
 40
0.3508824608
 40
0.3719245709
 40
0.3931729488
 40
0.4145877017
 40
0.457754079
 40
0.5010989561
 40
0.5442950696
 40
0.5657357599
 40
0.5870173776
 40
0.6080999494
 40
0.6289439925
 40
0.6495106191
 40
0.6697616414
 40
0.689659674
 40
0.709168241
 40
0.7282518859
 40
0.7468762864
 40
0.7650083809
 40
0.7826164962
 40
0.7996704822
 40
0.8161418627
 40
0.8320040043
 40
0.8472323103
 40
0.861804453
 40
0.8757006387
 40
0.8889039295
 40
0.9014006481
 40
0.9073810513
 40
0.9131814645
 40
0.9188013272
 40
0.9242404634
 40
0.9294990094
 40
0.9345775386
 40
0.9394770609
 40
0.9441990652
 40
0.9487456382
 40
0.9531194389
 40
0.9573238773
 40
0.961363122
 40
0.9652422377
 40
0.9689673054
 40
0.9725454842
 40
0.9759852134
 40
0.9824864129
 40
0.9855752855
 40
0.9885737661
 40
0.9914977029
 40
0.9943643139
 40
0.9971920003
 40
1.0
 40
1.0
 40
1.0
 40
1.0
 10
10.9927555909
 20
10.238592313
 30
0.0
 10
10.991902962
 20
10.2377687367
 30
0.0
 10
10.9901239007
 20
10.2361274055
 30
0.0
 10
10.987299294
 20
10.2337301115
 30
0.0
 10
10.9842672628
 20
10.2313500041
 30
0.0
 10
10.9810294715
 20
10.2289883655
 30
0.0
 10
10.9775875101
 20
10.226646287
 30
0.0
 10
10.9739430529
 20
10.2243249202
 30
0.0
 10
10.9700979268
 20
10.2220253614
 30
0.0
 10
10.9660540377
 20
10.2197488079
 30
0.0
 10
10.9618134249
 20
10.2174963646
 30
0.0
 10
10.9573782072
 20
10.2152691713
 30
0.0
 10
10.9527505969
 20
10.2130683337
 30
0.0
 10
10.9462299419
 20
10.210126764
 30
0.0
 10
10.9376076008
 20
10.206532114
 30
0.0
 10
10.9266807111
 20
10.2024025485
 30
0.0
 10
10.9150472127
 20
10.1984037144
 30
0.0
 10
10.9027305243
 20
10.1945437265
 30
0.0
 10
10.8897553055
 20
10.1908304289
 30
0.0
 10
10.8761476519
 20
10.187271381
 30
0.0
 10
10.8619349611
 20
10.1838738325
 30
0.0
 10
10.8471458908
 20
10.180644702
 30
0.0
 10
10.8318102861
 20
10.177590567
 30
0.0
 10
10.8159591141
 20
10.1747176481
 30
0.0
 10
10.7996243973
 20
10.1720317966
 30
0.0
 10
10.7828391477
 20
10.1695384825
 30
0.0
 10
10.7656372994
 20
10.1672427823
 30
0.0
 10
10.7480536384
 20
10.1651493658
 30
0.0
 10
10.7301237287
 20
10.1632624916
 30
0.0
 10
10.7118838388
 20
10.1615859984
 30
0.0
 10
10.6933708647
 20
10.1601232953
 30
0.0
 10
10.6746222691
 20
10.1588773642
 30
0.0
 10
10.6556759534
 20
10.1578507185
 30
0.0
 10
10.6301351279
 20
10.1567743095
 30
0.0
 10
10.5979972841
 20
10.1559924523
 30
0.0
 10
10.5593626786
 20
10.155951687
 30
0.0
 10
10.5272066759
 20
10.1566655893
 30
0.0
 10
10.5016371213
 20
10.1576877423
 30
0.0
 10
10.4826589602
 20
10.158674266
 30
0.0
 10
10.4638715736
 20
10.1598804861
 30
0.0
 10
10.4453129427
 20
10.1613039722
 30
0.0
 10
10.427020624
 20
10.162941824
 30
0.0
 10
10.4090316204
 20
10.1647907097
 30
0.0
 10
10.3913823197
 20
10.1668468673
 30
0.0
 10
10.3741084182
 20
10.1691061134
 30
0.0
 10
10.3572448485
 20
10.1715638511
 30
0.0
 10
10.3408257066
 20
10.1742150797
 30
0.0
 10
10.3248841786
 20
10.1770544008
 30
0.0
 10
10.309452472
 20
10.1800760307
 30
0.0
 10
10.2945617493
 20
10.1832738141
 30
0.0
 10
10.2802420626
 20
10.1866412373
 30
0.0
 10
10.2665222907
 20
10.1901714407
 30
0.0
 10
10.2534300668
 20
10.1938572371
 30
0.0
 10
10.2409917323
 20
10.1976911222
 30
0.0
 10
10.2292322032
 20
10.2016653008
 30
0.0
 10
10.2181751571
 20
10.2057717046
 30
0.0
 10
10.2094410902
 20
10.2093474318
 30
0.0
 10
10.2028289392
 20
10.2122745446
 30
0.0
 10
10.198131919
 20
10.2144655146
 30
0.0
 10
10.1936264619
 20
10.2166832568
 30
0.0
 10
10.1893148068
 20
10.2189266356
 30
0.0
 10
10.1851991271
 20
10.2211945567
 30
0.0
 10
10.1812814748
 20
10.2234858726
 30
0.0
 10
10.1775638016
 20
10.2257994376
 30
0.0
 10
10.1740479758
 20
10.2281341379
 30
0.0
 10
10.1707357231
 20
10.2304887832
 30
0.0
 10
10.1676287178
 20
10.2328622754
 30
0.0
 10
10.1647284814
 20
10.2352534351
 30
0.0
 10
10.1620364724
 20
10.2376611348
 30
0.0
 10
10.1595540354
 20
10.2400842773
 30
0.0
 10
10.1572824535
 20
10.2425216263
 30
0.0
 10
10.1552227579
 20
10.2449724102
 30
0.0
 10
10.1528064917
 20
10.2481948658
 30
0.0
 10
10.1507547181
 20
10.2515042118
 30
0.0
 10
10.149125672
 20
10.2548842042
 30
0.0
 10
10.1481414239
 20
10.2573839694
 30
0.0
 10
10.1473749152
 20
10.2598898049
 30
0.0
 10
10.1468268595
 20
10.2624005188
 30
0.0
 10
10.1464977667
 20
10.2649142982
 30
0.0
 10
10.146424505
 20
10.2665937044
 30
0.0
 10
10.1464245012
 20
10.2674300239
 30
0.0
  0
SPLINE
  5
345
100
AcDbEntity
  8
0
100
AcDbSpline
 62
7
  6
CONTINUOUS
 70
0
 71
3
 72
40
 73
36
 74
0
 42
0.0000001
 43
0.0000001
 44
0.0000000001
 40
0.0
 40
0.0
 40
0.0
 40
0.0
 40
0.0311448352
 40
0.0467776712
 40
0.0624478163
 40
0.0938928931
 40
0.1254753683
 40
0.1571831038
 40
0.1890013145
 40
0.2209130644
 40
0.2528995674
 40
0.2849405815
 40
0.3170148072
 40
0.349100303
 40
0.3811749104
 40
0.4132166804
 40
0.4452042987
 40
0.4771175008
 40
0.5089374741
 40
0.5406472387
 40
0.5722320012
 40
0.6036794751
 40
0.6349801612
 40
0.6661275796
 40
0.6971184487
 40
0.7279528012
 40
0.7586340346
 40
0.7891688873
 40
0.8195673392
 40
0.849842433
 40
0.8800100174
 40
0.9100884154
 40
0.9400980228
 40
0.9700608475
 40
1.0
 40
1.0
 40
1.0
 40
1.0
 10
9.7515716113
 20
9.9611176628
 30
0.0
 10
9.7556285642
 20
9.9608363122
 30
0.0
 10
9.7617093905
 20
9.960191175
 30
0.0
 10
9.7697609524
 20
9.9588947103
 30
0.0
 10
9.7777997282
 20
9.9573030464
 30
0.0
 10
9.7877676891
 20
9.9547681858
 30
0.0
 10
9.7995203
 20
9.9508773667
 30
0.0
 10
9.8110168546
 20
9.9461545834
 30
0.0
 10
9.8221957129
 20
9.9406251565
 30
0.0
 10
9.8329974086
 20
9.934318622
 30
0.0
 10
9.8433643612
 20
9.9272686551
 30
0.0
 10
9.8532413423
 20
9.9195128733
 30
0.0
 10
9.8625757216
 20
9.9110926413
 30
0.0
 10
9.8713177569
 20
9.9020528508
 30
0.0
 10
9.8794208522
 20
9.8924416844
 30
0.0
 10
9.8868418055
 20
9.8823103606
 30
0.0
 10
9.893541036
 20
9.871712864
 30
0.0
 10
9.8994827939
 20
9.8607056608
 30
0.0
 10
9.9046353507
 20
9.8493474018
 30
0.0
 10
9.9089711671
 20
9.8376986134
 30
0.0
 10
9.91246704
 20
9.825821379
 30
0.0
 10
9.9151042268
 20
9.8137790122
 30
0.0
 10
9.9168685475
 20
9.8016357247
 30
0.0
 10
9.9177504633
 20
9.7894562877
 30
0.0
 10
9.9177451315
 20
9.7773056911
 30
0.0
 10
9.9168524373
 20
9.7652488004
 30
0.0
 10
9.9150770002
 20
9.7533500129
 30
0.0
 10
9.9124281578
 20
9.7416729158
 30
0.0
 10
9.9089199225
 20
9.7302799444
 30
0.0
 10
9.9045709204
 20
9.7192320514
 30
0.0
 10
9.8994042784
 20
9.7085883561
 30
0.0
 10
9.8934475854
 20
9.6984058986
 30
0.0
 10
9.8867324591
 20
9.6887390388
 30
0.0
 10
9.8792954619
 20
9.6796402235
 30
0.0
 10
9.8738803528
 20
9.6739831426
 30
0.0
 10
9.8710686023
 20
9.6712671853
 30
0.0
  0
SPLINE
  5
346
100
AcDbEntity
  8
0
100
AcDbSpline
 62
7
  6
CONTINUOUS
 70
0
 71
3
 72
40
 73
36
 74
0
 42
0.0000001
 43
0.0000001
 44
0.0000000001
 40
0.0
 40
0.0
 40
0.0
 40
0.0
 40
0.0311448352
 40
0.0467776712
 40
0.0624478163
 40
0.0938928931
 40
0.1254753683
 40
0.1571831038
 40
0.1890013145
 40
0.2209130644
 40
0.2528995674
 40
0.2849405815
 40
0.3170148072
 40
0.349100303
 40
0.3811749104
 40
0.4132166804
 40
0.4452042987
 40
0.4771175008
 40
0.5089374741
 40
0.5406472387
 40
0.5722320012
 40
0.6036794751
 40
0.6349801612
 40
0.6661275796
 40
0.6971184487
 40
0.7279528012
 40
0.7586340346
 40
0.7891688873
 40
0.8195673392
 40
0.849842433
 40
0.8800100174
 40
0.9100884154
 40
0.9400980228
 40
0.9700608475
 40
1.0
 40
1.0
 40
1.0
 40
1.0
 10
11.9249048493
 20
7.6370632529
 30
0.0
 10
11.9289618021
 20
7.6367819023
 30
0.0
 10
11.9350426284
 20
7.6361367651
 30
0.0
 10
11.9430941904
 20
7.6348403004
 30
0.0
 10
11.9511329661
 20
7.6332486365
 30
0.0
 10
11.961100927
 20
7.6307137759
 30
0.0
 10
11.9728535379
 20
7.6268229568
 30
0.0
 10
11.9843500925
 20
7.6221001735
 30
0.0
 10
11.9955289509
 20
7.6165707466
 30
0.0
 10
12.0063306465
 20
7.6102642121
 30
0.0
 10
12.0166975991
 20
7.6032142452
 30
0.0
 10
12.0265745802
 20
7.5954584635
 30
0.0
 10
12.0359089596
 20
7.5870382314
 30
0.0
 10
12.0446509948
 20
7.5779984409
 30
0.0
 10
12.0527540902
 20
7.5683872745
 30
0.0
 10
12.0601750434
 20
7.5582559507
 30
0.0
 10
12.066874274
 20
7.5476584541
 30
0.0
 10
12.0728160319
 20
7.5366512509
 30
0.0
 10
12.0779685886
 20
7.5252929919
 30
0.0
 10
12.082304405
 20
7.5136442035
 30
0.0
 10
12.0858002779
 20
7.5017669691
 30
0.0
 10
12.0884374647
 20
7.4897246023
 30
0.0
 10
12.0902017854
 20
7.4775813148
 30
0.0
 10
12.0910837012
 20
7.4654018778
 30
0.0
 10
12.0910783695
 20
7.4532512812
 30
0.0
 10
12.0901856752
 20
7.4411943905
 30
0.0
 10
12.0884102381
 20
7.429295603
 30
0.0
 10
12.0857613957
 20
7.4176185059
 30
0.0
 10
12.0822531604
 20
7.4062255345
 30
0.0
 10
12.0779041583
 20
7.3951776415
 30
0.0
 10
12.0727375163
 20
7.3845339462
 30
0.0
 10
12.0667808234
 20
7.3743514887
 30
0.0
 10
12.060065697
 20
7.3646846289
 30
0.0
 10
12.0526286999
 20
7.3555858136
 30
0.0
 10
12.0472135908
 20
7.3499287327
 30
0.0
 10
12.0444018402
 20
7.3472127755
 30
0.0
  0
SPLINE
  5
347
100
AcDbEntity
  8
0
100
AcDbSpline
 62
7
  6
CONTINUOUS
 70
0
 71
3
 72
42
 73
38
 74
0
 42
0.0000001
 43
0.0000001
 44
0.0000000001
 40
0.0
 40
0.0
 40
0.0
 40
0.0
 40
0.076275799
 40
0.1537853745
 40
0.2318223408
 40
0.2708165421
 40
0.3096752104
 40
0.3483096375
 40
0.3866317704
 40
0.4245544704
 40
0.4619917735
 40
0.4988591553
 40
0.5350737977
 40
0.5705548621
 40
0.605223772
 40
0.6390045072
 40
0.6718239039
 40
0.7036119749
 40
0.7343022563
 40
0.7638321892
 40
0.7921435485
 40
0.8191829401
 40
0.8449023965
 40
0.8692600875
 40
0.8922212128
 40
0.9031699272
 40
0.9137602619
 40
0.9239904693
 40
0.9338594653
 40
0.9433669965
 40
0.9525137411
 40
0.9613013189
 40
0.9697325982
 40
0.9778116287
 40
0.985544046
 40
0.9929370969
 40
1.0
 40
1.0
 40
1.0
 40
1.0
 10
12.3583022343
 20
9.3256647845
 30
0.0
 10
12.3583022343
 20
9.3369197719
 30
0.0
 10
12.3586050203
 20
9.359612799
 30
0.0
 10
12.359926066
 20
9.3937974255
 30
0.0
 10
12.3617433103
 20
9.4224488225
 30
0.0
 10
12.3636235321
 20
9.4453748761
 30
0.0
 10
12.3652408818
 20
9.4624875376
 30
0.0
 10
12.3670616672
 20
9.4794799966
 30
0.0
 10
12.3690814647
 20
9.4963108786
 30
0.0
 10
12.3712953334
 20
9.5129391615
 30
0.0
 10
12.3736978646
 20
9.5293243313
 30
0.0
 10
12.3762831844
 20
9.5454264665
 30
0.0
 10
12.3790449711
 20
9.5612063398
 30
0.0
 10
12.3819764691
 20
9.5766255143
 30
0.0
 10
12.3850705051
 20
9.5916464394
 30
0.0
 10
12.3883195037
 20
9.6062325451
 30
0.0
 10
12.3917155082
 20
9.6203483327
 30
0.0
 10
12.3952501991
 20
9.6339594636
 30
0.0
 10
12.3989149148
 20
9.6470328466
 30
0.0
 10
12.4027006729
 20
9.6595367221
 30
0.0
 10
12.4065981938
 20
9.6714407517
 30
0.0
 10
12.4105979259
 20
9.6827160826
 30
0.0
 10
12.4146900746
 20
9.6933355023
 30
0.0
 10
12.4188646231
 20
9.7032732766
 30
0.0
 10
12.4224583265
 20
9.7110861931
 30
0.0
 10
12.4253733083
 20
9.7169704053
 30
0.0
 10
12.4275390959
 20
9.7211282583
 30
0.0
 10
12.4297178234
 20
9.7250985644
 30
0.0
 10
12.431908208
 20
9.7288789283
 30
0.0
 10
12.4341089266
 20
9.7324670691
 30
0.0
 10
12.436318635
 20
9.7358608423
 30
0.0
 10
12.4385360499
 20
9.7390581932
 30
0.0
 10
12.4407598083
 20
9.742057237
 30
0.0
 10
12.4429886435
 20
9.7448561506
 30
0.0
 10
12.4452212406
 20
9.7474533125
 30
0.0
 10
12.4474562612
 20
9.7498470853
 30
0.0
 10
12.4489812612
 20
9.7513398661
 30
0.0
 10
12.4497441553
 20
9.7520498841
 30
0.0
  0
SPLINE
  5
348
100
AcDbEntity
  8
0
100
AcDbSpline
 62
7
  6
CONTINUOUS
 70
0
 71
3
 72
17
 73
13
 74
0
 42
0.0000001
 43
0.0000001
 44
0.0000000001
 40
0.0
 40
0.0
 40
0.0
 40
0.0
 40
0.0548647409
 40
0.1099334006
 40
0.1654074856
 40
0.2214837901
 40
0.3361456859
 40
0.4553801965
 40
0.5804212901
 40
0.7123203437
 40
0.8519511008
 40
1.0
 40
1.0
 40
1.0
 40
1.0
 10
11.0074244948
 20
10.2674305705
 30
0.0
 10
11.0074244976
 20
10.2668225788
 30
0.0
 10
11.0073859127
 20
10.2656039843
 30
0.0
 10
11.0072124302
 20
10.2637780858
 30
0.0
 10
11.0069233279
 20
10.261953196
 30
0.0
 10
11.0063800434
 20
10.2595046244
 30
0.0
 10
11.0054012549
 20
10.2564355954
 30
0.0
 10
11.0037739855
 20
10.252798005
 30
0.0
 10
11.0016888925
 20
10.2491806708
 30
0.0
 10
10.9991494504
 20
10.2455871446
 30
0.0
 10
10.9961594113
 20
10.2420205297
 30
0.0
 10
10.9939356183
 20
10.239732132
 30
0.0
 10
10.9927555909
 20
10.238592313
 30
0.0
  0
SPLINE
  5
349
100
AcDbEntity
  8
0
100
AcDbSpline
 62
7
  6
CONTINUOUS
 70
0
 71
3
 72
21
 73
17
 74
0
 42
0.0000001
 43
0.0000001
 44
0.0000000001
 40
0.0
 40
0.0
 40
0.0
 40
0.0
 40
0.0616532342
 40
0.1233294953
 40
0.1850515501
 40
0.2468416649
 40
0.3087213494
 40
0.3707111104
 40
0.4328302434
 40
0.4950966323
 40
0.5575265657
 40
0.6201345673
 40
0.682933156
 40
0.7459330948
 40
0.8725263949
 40
1.0
 40
1.0
 40
1.0
 40
1.0
 10
9.6320746204
 20
9.9186896363
 30
0.0
 10
9.6340048218
 20
9.9205540778
 30
0.0
 10
9.6379670542
 20
9.9241805945
 30
0.0
 10
9.6441954059
 20
9.9292940898
 30
0.0
 10
9.6506942123
 20
9.9340695994
 30
0.0
 10
9.6574468784
 20
9.9384948837
 30
0.0
 10
9.6644364527
 20
9.9425588462
 30
0.0
 10
9.6716453084
 20
9.9462512321
 30
0.0
 10
9.6790552712
 20
9.9495627808
 30
0.0
 10
9.6866476652
 20
9.9524851673
 30
0.0
 10
9.6944033868
 20
9.9550110282
 30
0.0
 10
9.7023028347
 20
9.9571340172
 30
0.0
 10
9.7103263315
 20
9.9588488474
 30
0.0
 10
9.7211780576
 20
9.9605879153
 30
0.0
 10
9.7349580179
 20
9.9617177341
 30
0.0
 10
9.7460362794
 20
9.9615015394
 30
0.0
 10
9.7515716113
 20
9.9611176628
 30
0.0
  0
SPLINE
  5
34A
100
AcDbEntity
  8
0
100
AcDbSpline
 62
7
  6
CONTINUOUS
 70
0
 71
3
 72
21
 73
17
 74
0
 42
0.0000001
 43
0.0000001
 44
0.0000000001
 40
0.0
 40
0.0
 40
0.0
 40
0.0
 40
0.0616532342
 40
0.1233294953
 40
0.1850515501
 40
0.2468416649
 40
0.3087213494
 40
0.3707111104
 40
0.4328302434
 40
0.4950966323
 40
0.5575265657
 40
0.6201345673
 40
0.682933156
 40
0.7459330948
 40
0.8725263949
 40
1.0
 40
1.0
 40
1.0
 40
1.0
 10
11.8054078583
 20
7.5946352264
 30
0.0
 10
11.8073380598
 20
7.5964996679
 30
0.0
 10
11.8113002921
 20
7.6001261846
 30
0.0
 10
11.8175286438
 20
7.6052396799
 30
0.0
 10
11.8240274502
 20
7.6100151895
 30
0.0
 10
11.8307801163
 20
7.6144404738
 30
0.0
 10
11.8377696906
 20
7.6185044363
 30
0.0
 10
11.8449785464
 20
7.6221968223
 30
0.0
 10
11.8523885091
 20
7.6255083709
 30
0.0
 10
11.8599809031
 20
7.6284307574
 30
0.0
 10
11.8677366247
 20
7.6309566184
 30
0.0
 10
11.8756360726
 20
7.6330796073
 30
0.0
 10
11.8836595694
 20
7.6347944375
 30
0.0
 10
11.8945112955
 20
7.6365335054
 30
0.0
 10
11.9082912558
 20
7.6376633242
 30
0.0
 10
11.9193695173
 20
7.6374471295
 30
0.0
 10
11.9249048493
 20
7.6370632529
 30
0.0
  0
SPLINE
  5
34B
100
AcDbEntity
  8
0
100
AcDbSpline
 62
7
  6
CONTINUOUS
 70
0
 71
3
 72
33
 73
29
 74
0
 42
0.0000001
 43
0.0000001
 44
0.0000000001
 40
0.0
 40
0.0
 40
0.0
 40
0.0
 40
0.0162144692
 40
0.0334275894
 40
0.0516720786
 40
0.0709712473
 40
0.091340872
 40
0.1127900333
 40
0.1353223936
 40
0.1589368226
 40
0.183628034
 40
0.2093872636
 40
0.2362023918
 40
0.2640586644
 40
0.2929385944
 40
0.3228225234
 40
0.3536886216
 40
0.3855131152
 40
0.4182705339
 40
0.4519336172
 40
0.486473739
 40
0.521860682
 40
0.5950467061
 40
0.6712269155
 40
0.7501175304
 40
0.8314199122
 40
0.9148213441
 40
1.0
 40
1.0
 40
1.0
 40
1.0
 10
12.4029570038
 20
9.0774060882
 30
0.0
 10
12.4020859863
 20
9.0784770561
 30
0.0
 10
12.4003636419
 20
9.0807452949
 30
0.0
 10
12.3979073436
 20
9.084397278
 30
0.0
 10
12.3955050747
 20
9.0883946352
 30
0.0
 10
12.3931592433
 20
9.0927331037
 30
0.0
 10
12.3908721713
 20
9.0974083679
 30
0.0
 10
12.388646143
 20
9.1024156236
 30
0.0
 10
12.3864834596
 20
9.1077497411
 30
0.0
 10
12.3843863642
 20
9.1134052094
 30
0.0
 10
12.3823570293
 20
9.1193761613
 30
0.0
 10
12.3803976193
 20
9.1256563882
 30
0.0
 10
12.378510158
 20
9.1322393313
 30
0.0
 10
12.3766966804
 20
9.1391181117
 30
0.0
 10
12.3749590713
 20
9.1462855213
 30
0.0
 10
12.3732991917
 20
9.1537340447
 30
0.0
 10
12.3717187955
 20
9.1614558621
 30
0.0
 10
12.3702195483
 20
9.1694428605
 30
0.0
 10
12.3688030619
 20
9.1776866442
 30
0.0
 10
12.367470812
 20
9.18617854
 30
0.0
 10
12.3662242279
 20
9.1949096224
 30
0.0
 10
12.3646605879
 20
9.206993379
 30
0.0
 10
12.3629380883
 20
9.2226297875
 30
0.0
 10
12.361253603
 20
9.241991259
 30
0.0
 10
12.3599365398
 20
9.2620736475
 30
0.0
 10
12.3589925777
 20
9.2827923516
 30
0.0
 10
12.3584258058
 20
9.3040601876
 30
0.0
 10
12.3583022343
 20
9.3184129329
 30
0.0
 10
12.3583022343
 20
9.3256647845
 30
0.0
  0
SPLINE
  5
34C
100
AcDbEntity
  8
0
100
AcDbSpline
 62
7
  6
CONTINUOUS
 70
0
 71
3
 72
21
 73
17
 74
0
 42
0.0000001
 43
0.0000001
 44
0.0000000001
 40
0.0
 40
0.0
 40
0.0
 40
0.0
 40
0.0616532342
 40
0.1233294953
 40
0.1850515501
 40
0.2468416649
 40
0.3087213494
 40
0.3707111104
 40
0.4328302434
 40
0.4950966323
 40
0.5575265657
 40
0.6201345673
 40
0.682933156
 40
0.7459330948
 40
0.8725263949
 40
1.0
 40
1.0
 40
1.0
 40
1.0
 10
9.8710686023
 20
9.6712671853
 30
0.0
 10
9.8691384008
 20
9.6694027438
 30
0.0
 10
9.8651761685
 20
9.6657762271
 30
0.0
 10
9.8589478168
 20
9.6606627319
 30
0.0
 10
9.8524490104
 20
9.6558872222
 30
0.0
 10
9.8456963443
 20
9.651461938
 30
0.0
 10
9.83870677
 20
9.6473979755
 30
0.0
 10
9.8314979142
 20
9.6437055895
 30
0.0
 10
9.8240879515
 20
9.6403940409
 30
0.0
 10
9.8164955575
 20
9.6374716543
 30
0.0
 10
9.8087398359
 20
9.6349457934
 30
0.0
 10
9.800840388
 20
9.6328228044
 30
0.0
 10
9.7928168912
 20
9.6311079743
 30
0.0
 10
9.7819651651
 20
9.6293689064
 30
0.0
 10
9.7681852048
 20
9.6282390875
 30
0.0
 10
9.7571069433
 20
9.6284552823
 30
0.0
 10
9.7515716113
 20
9.6288391589
 30
0.0
  0
SPLINE
  5
34D
100
AcDbEntity
  8
0
100
AcDbSpline
 62
7
  6
CONTINUOUS
 70
0
 71
3
 72
21
 73
17
 74
0
 42
0.0000001
 43
0.0000001
 44
0.0000000001
 40
0.0
 40
0.0
 40
0.0
 40
0.0
 40
0.0616532342
 40
0.1233294953
 40
0.1850515501
 40
0.2468416649
 40
0.3087213494
 40
0.3707111104
 40
0.4328302434
 40
0.4950966323
 40
0.5575265657
 40
0.6201345673
 40
0.682933156
 40
0.7459330948
 40
0.8725263949
 40
1.0
 40
1.0
 40
1.0
 40
1.0
 10
12.0444018402
 20
7.3472127755
 30
0.0
 10
12.0424716388
 20
7.3453483339
 30
0.0
 10
12.0385094065
 20
7.3417218172
 30
0.0
 10
12.0322810547
 20
7.336608322
 30
0.0
 10
12.0257822484
 20
7.3318328123
 30
0.0
 10
12.0190295823
 20
7.3274075281
 30
0.0
 10
12.0120400079
 20
7.3233435656
 30
0.0
 10
12.0048311522
 20
7.3196511796
 30
0.0
 10
11.9974211894
 20
7.316339631
 30
0.0
 10
11.9898287955
 20
7.3134172444
 30
0.0
 10
11.9820730738
 20
7.3108913835
 30
0.0
 10
11.9741736259
 20
7.3087683945
 30
0.0
 10
11.9661501291
 20
7.3070535644
 30
0.0
 10
11.955298403
 20
7.3053144965
 30
0.0
 10
11.9415184427
 20
7.3041846776
 30
0.0
 10
11.9304401812
 20
7.3044008724
 30
0.0
 10
11.9249048493
 20
7.304784749
 30
0.0
  0
SPLINE
  5
34E
100
AcDbEntity
  8
0
100
AcDbSpline
 62
7
  6
CONTINUOUS
 70
0
 71
3
 72
55
 73
51
 74
0
 42
0.0000001
 43
0.0000001
 44
0.0000000001
 40
0.0
 40
0.0
 40
0.0
 40
0.0
 40
0.0095825819
 40
0.0187371424
 40
0.0274870077
 40
0.0358597765
 40
0.0515981845
 40
0.0590560109
 40
0.0662987855
 40
0.0733799977
 40
0.0803572919
 40
0.0872911216
 40
0.0942431942
 40
0.1012746911
 40
0.1084445784
 40
0.115808164
 40
0.1234161365
 40
0.1313138569
 40
0.1395413357
 40
0.1481331538
 40
0.1571189369
 40
0.166523697
 40
0.176368282
 40
0.1866699867
 40
0.1974427542
 40
0.2086978719
 40
0.2204440349
 40
0.2326878727
 40
0.2454341107
 40
0.2586857537
 40
0.2724444547
 40
0.2867103953
 40
0.3014827497
 40
0.3167595002
 40
0.332537753
 40
0.3655816089
 40
0.4005762908
 40
0.4374714424
 40
0.4762073351
 40
0.5167160364
 40
0.5589223426
 40
0.6027445495
 40
0.6480951047
 40
0.6948811777
 40
0.7430051698
 40
0.792365118
 40
0.8428554393
 40
0.8943663173
 40
0.946786822
 40
1.0
 40
1.0
 40
1.0
 40
1.0
 10
12.4497441553
 20
9.7520498841
 30
0.0
 10
12.4504641188
 20
9.7527199469
 30
0.0
 10
12.4519034014
 20
9.7539969375
 30
0.0
 10
12.4541116522
 20
9.7557548652
 30
0.0
 10
12.4563178731
 20
9.7573095254
 30
0.0
 10
12.4591945565
 20
9.7590729062
 30
0.0
 10
12.4621293127
 20
9.7604809869
 30
0.0
 10
12.4650952901
 20
9.7614728018
 30
0.0
 10
12.4672721304
 20
9.7619954508
 30
0.0
 10
12.4694390352
 20
9.762309114
 30
0.0
 10
12.4715944709
 20
9.7624134133
 30
0.0
 10
12.4737366402
 20
9.7623079748
 30
0.0
 10
12.4758637355
 20
9.7619929374
 30
0.0
 10
12.4779739894
 20
9.761468639
 30
0.0
 10
12.4800657681
 20
9.7607357479
 30
0.0
 10
12.4821376375
 20
9.7597951584
 30
0.0
 10
12.4841882875
 20
9.7586477939
 30
0.0
 10
12.4862166253
 20
9.757294772
 30
0.0
 10
12.4882215571
 20
9.755737106
 30
0.0
 10
12.4902021262
 20
9.7539759599
 30
0.0
 10
12.49215733
 20
9.7520124624
 30
0.0
 10
12.4940861853
 20
9.7498478341
 30
0.0
 10
12.4959877258
 20
9.747483386
 30
0.0
 10
12.4978609023
 20
9.7449204772
 30
0.0
 10
12.4997047563
 20
9.7421606305
 30
0.0
 10
12.5015182158
 20
9.7392054173
 30
0.0
 10
12.5033003016
 20
9.7360565728
 30
0.0
 10
12.5050499772
 20
9.7327159172
 30
0.0
 10
12.5067662304
 20
9.7291853985
 30
0.0
 10
12.5084480881
 20
9.7254670873
 30
0.0
 10
12.5100945248
 20
9.7215631517
 30
0.0
 10
12.5117046201
 20
9.7174758974
 30
0.0
 10
12.5132773743
 20
9.7132077219
 30
0.0
 10
12.5148119079
 20
9.7087611433
 30
0.0
 10
12.5168369561
 20
9.7025012639
 30
0.0
 10
12.5192575801
 20
9.6942441454
 30
0.0
 10
12.5219530597
 20
9.6838151539
 30
0.0
 10
12.524475732
 20
9.672743134
 30
0.0
 10
12.5268195379
 20
9.6610543118
 30
0.0
 10
12.5289788233
 20
9.6487762678
 30
0.0
 10
12.5309483801
 20
9.6359380785
 30
0.0
 10
12.5327234551
 20
9.6225701726
 30
0.0
 10
12.534299764
 20
9.6087042685
 30
0.0
 10
12.5356735017
 20
9.5943732886
 30
0.0
 10
12.5368413517
 20
9.5796112844
 30
0.0
 10
12.5378005007
 20
9.5644533249
 30
0.0
 10
12.538548618
 20
9.548935493
 30
0.0
 10
12.5390839178
 20
9.5330945777
 30
0.0
 10
12.5394050655
 20
9.5169684064
 30
0.0
 10
12.5394754163
 20
9.5061263067
 30
0.0
 10
12.5394754163
 20
9.5006646505
 30
0.0
  0
SPLINE
  5
34F
100
AcDbEntity
  8
0
100
AcDbSpline
 62
7
  6
CONTINUOUS
 70
0
 71
3
 72
15
 73
11
 74
0
 42
0.0000001
 43
0.0000001
 44
0.0000000001
 40
0.0
 40
0.0
 40
0.0
 40
0.0
 40
0.1465982768
 40
0.2856222817
 40
0.4176038884
 40
0.5432156743
 40
0.6632605863
 40
0.7786740988
 40
0.8905247272
 40
1.0
 40
1.0
 40
1.0
 40
1.0
 10
10.1736504417
 20
10.2654537461
 30
0.0
 10
10.172611616
 20
10.2644503175
 30
0.0
 10
10.1706431903
 20
10.2624364087
 30
0.0
 10
10.1679647323
 20
10.2593092047
 30
0.0
 10
10.1656440692
 20
10.2561606064
 30
0.0
 10
10.1636837852
 20
10.2529930972
 30
0.0
 10
10.1620862611
 20
10.2498089335
 30
0.0
 10
10.1608538062
 20
10.2466105255
 30
0.0
 10
10.1599888085
 20
10.2434013808
 30
0.0
 10
10.1596559298
 20
10.241240903
 30
0.0
 10
10.1595529949
 20
10.2401672589
 30
0.0
  0
SPLINE
  5
350
100
AcDbEntity
  8
0
100
AcDbSpline
 62
7
  6
CONTINUOUS
 70
0
 71
3
 72
57
 73
53
 74
0
 42
0.0000001
 43
0.0000001
 44
0.0000000001
 40
0.0
 40
0.0
 40
0.0
 40
0.0
 40
0.0452111151
 40
0.0910028922
 40
0.1371914731
 40
0.183589865
 40
0.2300105241
 40
0.2762656379
 40
0.3221682775
 40
0.3675333237
 40
0.4121784488
 40
0.4559250957
 40
0.4985994741
 40
0.5400335829
 40
0.5800662712
 40
0.6185443608
 40
0.637155417
 40
0.6553246567
 40
0.6730357378
 40
0.6902730659
 40
0.7070219026
 40
0.7232683064
 40
0.7389993698
 40
0.7542031206
 40
0.7688687611
 40
0.7829866902
 40
0.7965486293
 40
0.8095478594
 40
0.8219792442
 40
0.8338396478
 40
0.8451280137
 40
0.8558458432
 40
0.8659975471
 40
0.8755909364
 40
0.8846379793
 40
0.8931554241
 40
0.9011659533
 40
0.9086991512
 40
0.9157928765
 40
0.9224945133
 40
0.9288620062
 40
0.9349644242
 40
0.9408812842
 40
0.946700577
 40
0.9525151341
 40
0.9584180353
 40
0.9644979297
 40
0.9708353444
 40
0.9775004039
 40
0.9845522178
 40
0.9920391601
 40
1.0
 40
1.0
 40
1.0
 40
1.0
 10
12.5394754163
 20
9.5006646505
 30
0.0
 10
12.5394754163
 20
9.4932023674
 30
0.0
 10
12.5393423309
 20
9.4781816584
 30
0.0
 10
12.5387554912
 20
9.4555442239
 30
0.0
 10
12.5377824029
 20
9.43272391
 30
0.0
 10
12.5364272179
 20
9.4098191485
 30
0.0
 10
12.5346957817
 20
9.3869287358
 30
0.0
 10
12.5325955614
 20
9.3641513718
 30
0.0
 10
12.5301356361
 20
9.3415852768
 30
0.0
 10
12.5273266511
 20
9.3193277493
 30
0.0
 10
12.5241807759
 20
9.297474745
 30
0.0
 10
12.5207116505
 20
9.2761204543
 30
0.0
 10
12.516934326
 20
9.2553569036
 30
0.0
 10
12.5128652102
 20
9.2352735009
 30
0.0
 10
12.508521967
 20
9.2159568157
 30
0.0
 10
12.5046482125
 20
9.2003997934
 30
0.0
 10
12.5014194808
 20
9.188404732
 30
0.0
 10
12.4989682673
 20
9.1797508832
 30
0.0
 10
12.4964631817
 20
9.1713488023
 30
0.0
 10
12.4939069056
 20
9.1632075311
 30
0.0
 10
12.491302232
 20
9.1553358338
 30
0.0
 10
12.4886519452
 20
9.1477421849
 30
0.0
 10
12.4859589457
 20
9.1404347447
 30
0.0
 10
12.4832261166
 20
9.1334213699
 30
0.0
 10
12.480456427
 20
9.1267095856
 30
0.0
 10
12.4776528673
 20
9.1203065862
 30
0.0
 10
12.4748184426
 20
9.1142192297
 30
0.0
 10
12.471956235
 20
9.1084540077
 30
0.0
 10
12.4690692743
 20
9.1030170742
 30
0.0
 10
12.466160685
 20
9.0979141868
 30
0.0
 10
12.4632335239
 20
9.0931507505
 30
0.0
 10
12.4602908831
 20
9.0887317708
 30
0.0
 10
12.4573358248
 20
9.0846618629
 30
0.0
 10
12.4543713305
 20
9.0809452763
 30
0.0
 10
12.4514003847
 20
9.0775858306
 30
0.0
 10
12.4484257799
 20
9.074587049
 30
0.0
 10
12.4454502767
 20
9.0719520603
 30
0.0
 10
12.4424764177
 20
9.0696838016
 30
0.0
 10
12.4395066578
 20
9.0677850353
 30
0.0
 10
12.4365434177
 20
9.0662584832
 30
0.0
 10
12.4335892461
 20
9.0651070302
 30
0.0
 10
12.4306472306
 20
9.0643334877
 30
0.0
 10
12.4277212237
 20
9.0639406086
 30
0.0
 10
12.4248160599
 20
9.0639302141
 30
0.0
 10
12.4219371761
 20
9.0643028668
 30
0.0
 10
12.4190899511
 20
9.0650574533
 30
0.0
 10
12.4162789804
 20
9.0661914984
 30
0.0
 10
12.413507867
 20
9.067701925
 30
0.0
 10
12.4107792738
 20
9.0695853629
 30
0.0
 10
12.4080954067
 20
9.0718387443
 30
0.0
 10
12.4054583644
 20
9.074458802
 30
0.0
 10
12.4037860742
 20
9.0763866967
 30
0.0
 10
12.4029570038
 20
9.0774060882
 30
0.0
  0
SPLINE
  5
351
100
AcDbEntity
  8
0
100
AcDbSpline
 62
7
  6
CONTINUOUS
 70
0
 71
3
 72
40
 73
36
 74
0
 42
0.0000001
 43
0.0000001
 44
0.0000000001
 40
0.0
 40
0.0
 40
0.0
 40
0.0
 40
0.0311448352
 40
0.0467776712
 40
0.0624478163
 40
0.0938928931
 40
0.1254753683
 40
0.1571831038
 40
0.1890013145
 40
0.2209130644
 40
0.2528995674
 40
0.2849405815
 40
0.3170148072
 40
0.349100303
 40
0.3811749104
 40
0.4132166804
 40
0.4452042987
 40
0.4771175008
 40
0.5089374741
 40
0.5406472387
 40
0.5722320012
 40
0.6036794751
 40
0.6349801612
 40
0.6661275796
 40
0.6971184487
 40
0.7279528012
 40
0.7586340346
 40
0.7891688873
 40
0.8195673392
 40
0.849842433
 40
0.8800100174
 40
0.9100884154
 40
0.9400980228
 40
0.9700608475
 40
1.0
 40
1.0
 40
1.0
 40
1.0
 10
9.7515716113
 20
9.6288391589
 30
0.0
 10
9.7475146585
 20
9.6291205095
 30
0.0
 10
9.7414338322
 20
9.6297656466
 30
0.0
 10
9.7333822703
 20
9.6310621114
 30
0.0
 10
9.7253434945
 20
9.6326537753
 30
0.0
 10
9.7153755336
 20
9.6351886358
 30
0.0
 10
9.7036229227
 20
9.639079455
 30
0.0
 10
9.6921263681
 20
9.6438022383
 30
0.0
 10
9.6809475097
 20
9.6493316651
 30
0.0
 10
9.6701458141
 20
9.6556381996
 30
0.0
 10
9.6597788615
 20
9.6626881666
 30
0.0
 10
9.6499018804
 20
9.6704439483
 30
0.0
 10
9.640567501
 20
9.6788641804
 30
0.0
 10
9.6318254658
 20
9.6879039708
 30
0.0
 10
9.6237223705
 20
9.6975151372
 30
0.0
 10
9.6163014172
 20
9.7076464611
 30
0.0
 10
9.6096021867
 20
9.7182439577
 30
0.0
 10
9.6036604288
 20
9.7292511609
 30
0.0
 10
9.598507872
 20
9.7406094199
 30
0.0
 10
9.5941720556
 20
9.7522582082
 30
0.0
 10
9.5906761827
 20
9.7641354427
 30
0.0
 10
9.5880389959
 20
9.7761778094
 30
0.0
 10
9.5862746752
 20
9.7883210969
 30
0.0
 10
9.5853927594
 20
9.8005005339
 30
0.0
 10
9.5853980912
 20
9.8126511305
 30
0.0
 10
9.5862907854
 20
9.8247080213
 30
0.0
 10
9.5880662225
 20
9.8366068087
 30
0.0
 10
9.5907150649
 20
9.8482839058
 30
0.0
 10
9.5942233002
 20
9.8596768773
 30
0.0
 10
9.5985723023
 20
9.8707247703
 30
0.0
 10
9.6037389443
 20
9.8813684655
 30
0.0
 10
9.6096956373
 20
9.8915509231
 30
0.0
 10
9.6164107636
 20
9.9012177829
 30
0.0
 10
9.6238477608
 20
9.9103165981
 30
0.0
 10
9.6292628699
 20
9.9159736791
 30
0.0
 10
9.6320746204
 20
9.9186896363
 30
0.0
  0
SPLINE
  5
352
100
AcDbEntity
  8
0
100
AcDbSpline
 62
7
  6
CONTINUOUS
 70
0
 71
3
 72
85
 73
81
 74
0
 42
0.0000001
 43
0.0000001
 44
0.0000000001
 40
0.0
 40
0.0
 40
0.0
 40
0.0
 40
0.0039801755
 40
0.0081241211
 40
0.0124359992
 40
0.0169193694
 40
0.0215772468
 40
0.0264119948
 40
0.0314252716
 40
0.036618263
 40
0.0419916661
 40
0.0475457929
 40
0.0532805805
 40
0.0591955875
 40
0.0715626143
 40
0.0846383153
 40
0.0984096556
 40
0.1128602549
 40
0.1279708112
 40
0.1437194381
 40
0.1600819386
 40
0.1770320333
 40
0.1945415658
 40
0.2125806771
 40
0.2311179593
 40
0.2501205956
 40
0.2695544871
 40
0.2893843733
 40
0.3095739538
 40
0.3300859996
 40
0.3508824608
 40
0.3719245709
 40
0.3931729488
 40
0.4145877017
 40
0.457754079
 40
0.5010989561
 40
0.5442950696
 40
0.5657357599
 40
0.5870173776
 40
0.6080999494
 40
0.6289439925
 40
0.6495106191
 40
0.6697616414
 40
0.689659674
 40
0.709168241
 40
0.7282518859
 40
0.7468762864
 40
0.7650083809
 40
0.7826164962
 40
0.7996704822
 40
0.8161418627
 40
0.8320040043
 40
0.8472323103
 40
0.861804453
 40
0.8757006387
 40
0.8889039295
 40
0.9014006481
 40
0.9073810513
 40
0.9131814645
 40
0.9188013272
 40
0.9242404634
 40
0.9294990094
 40
0.9345775386
 40
0.9394770609
 40
0.9441990652
 40
0.9487456382
 40
0.9531194389
 40
0.9573238773
 40
0.961363122
 40
0.9652422377
 40
0.9689673054
 40
0.9725454842
 40
0.9759852134
 40
0.9824864129
 40
0.9855752855
 40
0.9885737661
 40
0.9914977029
 40
0.9943643139
 40
0.9971920003
 40
1.0
 40
1.0
 40
1.0
 40
1.0
 10
10.1610934052
 20
10.2962682814
 30
0.0
 10
10.161946034
 20
10.2970918577
 30
0.0
 10
10.1637250954
 20
10.2987331889
 30
0.0
 10
10.166549702
 20
10.3011304828
 30
0.0
 10
10.1695817333
 20
10.3035105902
 30
0.0
 10
10.1728195245
 20
10.3058722289
 30
0.0
 10
10.1762614859
 20
10.3082143074
 30
0.0
 10
10.1799059431
 20
10.3105356742
 30
0.0
 10
10.1837510692
 20
10.312835233
 30
0.0
 10
10.1877949584
 20
10.3151117865
 30
0.0
 10
10.1920355711
 20
10.3173642298
 30
0.0
 10
10.1964707888
 20
10.3195914231
 30
0.0
 10
10.2010983991
 20
10.3217922607
 30
0.0
 10
10.2076190541
 20
10.3247338304
 30
0.0
 10
10.2162413952
 20
10.3283284804
 30
0.0
 10
10.227168285
 20
10.3324580459
 30
0.0
 10
10.2388017834
 20
10.33645688
 30
0.0
 10
10.2511184718
 20
10.3403168679
 30
0.0
 10
10.2640936906
 20
10.3440301655
 30
0.0
 10
10.2777013441
 20
10.3475892133
 30
0.0
 10
10.2919140349
 20
10.3509867618
 30
0.0
 10
10.3067031052
 20
10.3542158924
 30
0.0
 10
10.32203871
 20
10.3572700274
 30
0.0
 10
10.337889882
 20
10.3601429463
 30
0.0
 10
10.3542245988
 20
10.3628287978
 30
0.0
 10
10.3710098484
 20
10.3653221119
 30
0.0
 10
10.3882116967
 20
10.3676178121
 30
0.0
 10
10.4057953577
 20
10.3697112286
 30
0.0
 10
10.4237252674
 20
10.3715981028
 30
0.0
 10
10.4419651572
 20
10.3732745959
 30
0.0
 10
10.4604781313
 20
10.374737299
 30
0.0
 10
10.479226727
 20
10.3759832302
 30
0.0
 10
10.4981730426
 20
10.3770098759
 30
0.0
 10
10.5237138682
 20
10.3780862849
 30
0.0
 10
10.555851712
 20
10.3788681421
 30
0.0
 10
10.5944863174
 20
10.3789089074
 30
0.0
 10
10.6266423201
 20
10.3781950051
 30
0.0
 10
10.6522118748
 20
10.3771728521
 30
0.0
 10
10.6711900359
 20
10.3761863284
 30
0.0
 10
10.6899774224
 20
10.3749801083
 30
0.0
 10
10.7085360534
 20
10.3735566221
 30
0.0
 10
10.726828372
 20
10.3719187703
 30
0.0
 10
10.7448173757
 20
10.3700698847
 30
0.0
 10
10.7624666764
 20
10.3680137271
 30
0.0
 10
10.7797405779
 20
10.3657544809
 30
0.0
 10
10.7966041475
 20
10.3632967433
 30
0.0
 10
10.8130232895
 20
10.3606455147
 30
0.0
 10
10.8289648174
 20
10.3578061935
 30
0.0
 10
10.844396524
 20
10.3547845637
 30
0.0
 10
10.8592872468
 20
10.3515867802
 30
0.0
 10
10.8736069334
 20
10.3482193571
 30
0.0
 10
10.8873267054
 20
10.3446891536
 30
0.0
 10
10.9004189293
 20
10.3410033572
 30
0.0
 10
10.9128572637
 20
10.3371694722
 30
0.0
 10
10.9246167929
 20
10.3331952936
 30
0.0
 10
10.935673839
 20
10.3290888897
 30
0.0
 10
10.9444079058
 20
10.3255131626
 30
0.0
 10
10.9510200568
 20
10.3225860497
 30
0.0
 10
10.9557170771
 20
10.3203950797
 30
0.0
 10
10.9602225342
 20
10.3181773375
 30
0.0
 10
10.9645341892
 20
10.3159339588
 30
0.0
 10
10.968649869
 20
10.3136660377
 30
0.0
 10
10.9725675212
 20
10.3113747218
 30
0.0
 10
10.9762851945
 20
10.3090611568
 30
0.0
 10
10.9798010203
 20
10.3067264565
 30
0.0
 10
10.9831132729
 20
10.3043718111
 30
0.0
 10
10.9862202783
 20
10.301998319
 30
0.0
 10
10.9891205147
 20
10.2996071593
 30
0.0
 10
10.9918125236
 20
10.2971994596
 30
0.0
 10
10.9942949606
 20
10.2947763171
 30
0.0
 10
10.9965665426
 20
10.2923389681
 30
0.0
 10
10.9986262381
 20
10.2898881841
 30
0.0
 10
11.0010425044
 20
10.2866657286
 30
0.0
 10
11.0030942779
 20
10.2833563826
 30
0.0
 10
11.004723324
 20
10.2799763902
 30
0.0
 10
11.0057075722
 20
10.2774766249
 30
0.0
 10
11.0064740808
 20
10.2749707894
 30
0.0
 10
11.0070221365
 20
10.2724600755
 30
0.0
 10
11.0073512294
 20
10.2699462962
 30
0.0
 10
11.0074244911
 20
10.26826689
 30
0.0
 10
11.0074244948
 20
10.2674305705
 30
0.0
  0
SPLINE
  5
353
100
AcDbEntity
  8
0
100
AcDbSpline
 62
7
  6
CONTINUOUS
 70
0
 71
3
 72
14
 73
10
 74
0
 42
0.0000001
 43
0.0000001
 44
0.0000000001
 40
0.0
 40
0.0
 40
0.0
 40
0.0
 40
0.1412489762
 40
0.2772925309
 40
0.4083577772
 40
0.5347146432
 40
0.7745175481
 40
0.8888421592
 40
1.0
 40
1.0
 40
1.0
 40
1.0
 10
10.1837926634
 20
10.2471835372
 30
0.0
 10
10.1830718491
 20
10.246487284
 30
0.0
 10
10.1816845802
 20
10.2450912001
 30
0.0
 10
10.1797362907
 20
10.2429454524
 30
0.0
 10
10.1779613584
 20
10.240788949
 30
0.0
 10
10.1758642903
 20
10.2379508286
 30
0.0
 10
10.1740669554
 20
10.2350423032
 30
0.0
 10
10.1726137249
 20
10.2320759914
 30
0.0
 10
10.1720089355
 20
10.2305931583
 30
0.0
 10
10.1717378972
 20
10.2298525239
 30
0.0
  0
SPLINE
  5
354
100
AcDbEntity
  8
0
100
AcDbSpline
 62
7
  6
CONTINUOUS
 70
0
 71
3
 72
17
 73
13
 74
0
 42
0.0000001
 43
0.0000001
 44
0.0000000001
 40
0.0
 40
0.0
 40
0.0
 40
0.0
 40
0.0548647409
 40
0.1099334006
 40
0.1654074856
 40
0.2214837901
 40
0.3361456859
 40
0.4553801965
 40
0.5804212901
 40
0.7123203437
 40
0.8519511008
 40
1.0
 40
1.0
 40
1.0
 40
1.0
 10
10.1464245012
 20
10.2674300239
 30
0.0
 10
10.1464244985
 20
10.2680380156
 30
0.0
 10
10.1464630833
 20
10.26925661
 30
0.0
 10
10.1466365658
 20
10.2710825085
 30
0.0
 10
10.1469256682
 20
10.2729073984
 30
0.0
 10
10.1474689527
 20
10.27535597
 30
0.0
 10
10.1484477411
 20
10.278424999
 30
0.0
 10
10.1500750105
 20
10.2820625894
 30
0.0
 10
10.1521601035
 20
10.2856799236
 30
0.0
 10
10.1546995456
 20
10.2892734498
 30
0.0
 10
10.1576895848
 20
10.2928400647
 30
0.0
 10
10.1599133777
 20
10.2951284624
 30
0.0
 10
10.1610934052
 20
10.2962682814
 30
0.0
  0
SPLINE
  5
355
100
AcDbEntity
  8
0
100
AcDbSpline
 62
7
  6
CONTINUOUS
 70
0
 71
3
 72
10
 73
6
 74
0
 42
0.0000001
 43
0.0000001
 44
0.0000000001
 40
0.0
 40
0.0
 40
0.0
 40
0.0
 40
0.2713478222
 40
0.5277108691
 40
1.0
 40
1.0
 40
1.0
 40
1.0
 10
10.1610934052
 20
10.2663245795
 30
0.0
 10
10.1599477161
 20
10.2652179288
 30
0.0
 10
10.1577845387
 20
10.2629958188
 30
0.0
 10
10.1539967447
 20
10.2585087858
 30
0.0
 10
10.1516179966
 20
10.2549185942
 30
0.0
 10
10.1503310394
 20
10.2524629291
 30
0.0
  0
SPLINE
  5
356
100
AcDbEntity
  8
0
100
AcDbSpline
 62
7
  6
CONTINUOUS
 70
0
 71
3
 72
44
 73
40
 74
0
 42
0.0000001
 43
0.0000001
 44
0.0000000001
 40
0.0
 40
0.0
 40
0.0
 40
0.0
 40
0.0783773841
 40
0.1580458618
 40
0.2382095664
 40
0.2782270272
 40
0.318067296
 40
0.35763073
 40
0.3968185687
 40
0.4355332602
 40
0.4736787801
 40
0.51116096
 40
0.5478878298
 40
0.5837699627
 40
0.6187208211
 40
0.6526571239
 40
0.6854992347
 40
0.717171582
 40
0.7476031309
 40
0.7767279148
 40
0.8044856255
 40
0.8308223312
 40
0.8556913612
 40
0.8675636527
 40
0.8790554866
 40
0.8901635603
 40
0.900885456
 40
0.9112194416
 40
0.9211647548
 40
0.930721643
 40
0.9398914112
 40
0.9486767757
 40
0.9570817642
 40
0.9651122075
 40
0.9727757747
 40
0.9800823606
 40
0.9870444638
 40
0.9936774095
 40
1.0
 40
1.0
 40
1.0
 40
1.0
 10
12.454968031
 20
9.4880367796
 30
0.0
 10
12.454968031
 20
9.4785717027
 30
0.0
 10
12.4547013405
 20
9.4594847159
 30
0.0
 10
12.4535395321
 20
9.4307383266
 30
0.0
 10
12.4519420605
 20
9.4066538621
 30
0.0
 10
12.4502897297
 20
9.3873995477
 30
0.0
 10
12.4488696715
 20
9.373047557
 30
0.0
 10
12.4472720299
 20
9.3588150787
 30
0.0
 10
12.4455010605
 20
9.3447400971
 30
0.0
 10
12.4435615137
 20
9.3308602143
 30
0.0
 10
12.4414585851
 20
9.317212498
 30
0.0
 10
12.4391979114
 20
9.303833395
 30
0.0
 10
12.4367855561
 20
9.2907586279
 30
0.0
 10
12.4342279935
 20
9.2780230977
 30
0.0
 10
12.4315320892
 20
9.2656607904
 30
0.0
 10
12.4287050823
 20
9.2537046854
 30
0.0
 10
12.4257545668
 20
9.2421866639
 30
0.0
 10
12.4226884702
 20
9.2311374212
 30
0.0
 10
12.4195150338
 20
9.2205863718
 30
0.0
 10
12.416242791
 20
9.2105615782
 30
0.0
 10
12.412880539
 20
9.2010896122
 30
0.0
 10
12.4094373048
 20
9.1921956672
 30
0.0
 10
12.4064639762
 20
9.1851807018
 30
0.0
 10
12.4040462329
 20
9.1798810866
 30
0.0
 10
12.4022465355
 20
9.1761269395
 30
0.0
 10
12.4004335146
 20
9.1725341423
 30
0.0
 10
12.3986083992
 20
9.1691050592
 30
0.0
 10
12.3967723781
 20
9.1658419682
 30
0.0
 10
12.394926673
 20
9.1627470214
 30
0.0
 10
12.3930725172
 20
9.1598222492
 30
0.0
 10
12.3912110907
 20
9.157069591
 30
0.0
 10
12.3893436542
 20
9.1544908249
 30
0.0
 10
12.3874713643
 20
9.1520876618
 30
0.0
 10
12.3855954523
 20
9.1498616476
 30
0.0
 10
12.3837170786
 20
9.1478142377
 30
0.0
 10
12.3818374005
 20
9.1459467891
 30
0.0
 10
12.3799575471
 20
9.1442604793
 30
0.0
 10
12.378078706
 20
9.1427565781
 30
0.0
 10
12.3767980694
 20
9.1418555206
 30
0.0
 10
12.3761587013
 20
9.1414381565
 30
0.0
  0
SPLINE
  5
357
100
AcDbEntity
  8
0
100
AcDbSpline
 62
7
  6
CONTINUOUS
 70
0
 71
3
 72
77
 73
73
 74
0
 42
0.0000001
 43
0.0000001
 44
0.0000000001
 40
0.0
 40
0.0
 40
0.0
 40
0.0
 40
0.0038574264
 40
0.0078660834
 40
0.0120296802
 40
0.0163513953
 40
0.0208339649
 40
0.0254796143
 40
0.0302899495
 40
0.0352661278
 40
0.040408923
 40
0.04571872
 40
0.0568388589
 40
0.0686243337
 40
0.0810682335
 40
0.0941602237
 40
0.1078870018
 40
0.1222326551
 40
0.1371789767
 40
0.1527057143
 40
0.1687907715
 40
0.1854103676
 40
0.2025391893
 40
0.2201505384
 40
0.2382164505
 40
0.2567077998
 40
0.2755943913
 40
0.2948450717
 40
0.3144278232
 40
0.3343098507
 40
0.3544576604
 40
0.3954129833
 40
0.4370159042
 40
0.4789819788
 40
0.5210235426
 40
0.5628522596
 40
0.6041816861
 40
0.6245711477
 40
0.6447305351
 40
0.6646257236
 40
0.6842231906
 40
0.703490098
 40
0.722394386
 40
0.7409048666
 40
0.7589913062
 40
0.7766245198
 40
0.7937764745
 40
0.8104204155
 40
0.826530975
 40
0.8420842982
 40
0.857058191
 40
0.8714323061
 40
0.8851883492
 40
0.8983103057
 40
0.9107847323
 40
0.9226011294
 40
0.9337524253
 40
0.9390778475
 40
0.9442362129
 40
0.9492279209
 40
0.954053699
 40
0.9587146719
 40
0.9632124442
 40
0.9675490644
 40
0.971727179
 40
0.9757500371
 40
0.9796215623
 40
0.9833464966
 40
0.986930401
 40
0.9903798242
 40
0.9937023711
 40
1.0
 40
1.0
 40
1.0
 40
1.0
 10
10.1610934052
 20
10.2663245795
 30
0.0
 10
10.1619052482
 20
10.2671087597
 30
0.0
 10
10.1635958341
 20
10.2686718873
 30
0.0
 10
10.1662736137
 20
10.2709578653
 30
0.0
 10
10.1691399663
 20
10.2732283658
 30
0.0
 10
10.1721934598
 20
10.2754822403
 30
0.0
 10
10.1754327082
 20
10.2777185528
 30
0.0
 10
10.1788562933
 20
10.2799362953
 30
0.0
 10
10.1824626598
 20
10.2821345206
 30
0.0
 10
10.1862501713
 20
10.2843122129
 30
0.0
 10
10.1902171147
 20
10.2864683833
 30
0.0
 10
10.1958298998
 20
10.2893578596
 30
0.0
 10
10.203289885
 20
10.2929008515
 30
0.0
 10
10.2127939498
 20
10.2969882177
 30
0.0
 10
10.2229660349
 20
10.3009668982
 30
0.0
 10
10.233787581
 20
10.3048295873
 30
0.0
 10
10.24523899
 20
10.3085691798
 30
0.0
 10
10.2572993844
 20
10.312178784
 30
0.0
 10
10.2699467468
 20
10.3156517352
 30
0.0
 10
10.2831579495
 20
10.3189816133
 30
0.0
 10
10.2969088079
 20
10.3221622561
 30
0.0
 10
10.3111741209
 20
10.3251877813
 30
0.0
 10
10.3259277233
 20
10.3280525986
 30
0.0
 10
10.3411425427
 20
10.3307514105
 30
0.0
 10
10.3567906528
 20
10.3332792259
 30
0.0
 10
10.3728433219
 20
10.3356313676
 30
0.0
 10
10.3892710638
 20
10.337803493
 30
0.0
 10
10.4060436998
 20
10.339791592
 30
0.0
 10
10.4231304073
 20
10.3415919858
 30
0.0
 10
10.4404998173
 20
10.3432013663
 30
0.0
 10
10.4641214354
 20
10.3450987439
 30
0.0
 10
10.4941193794
 20
10.3469661518
 30
0.0
 10
10.5305316064
 20
10.3483960933
 30
0.0
 10
10.5672845485
 20
10.3490162646
 30
0.0
 10
10.6041082635
 20
10.3488220973
 30
0.0
 10
10.6407322949
 20
10.3478149741
 30
0.0
 10
10.6709964673
 20
10.3462979144
 30
0.0
 10
10.694900658
 20
10.3446780356
 30
0.0
 10
10.712531749
 20
10.3432717804
 30
0.0
 10
10.7299135619
 20
10.3416714126
 30
0.0
 10
10.7470141804
 20
10.3398798681
 30
0.0
 10
10.7638021722
 20
10.3379004569
 30
0.0
 10
10.7802466934
 20
10.3357368336
 30
0.0
 10
10.7963175364
 20
10.3333930008
 30
0.0
 10
10.8119851857
 20
10.3308732904
 30
0.0
 10
10.8272208688
 20
10.3281823587
 30
0.0
 10
10.8419966155
 20
10.3253251752
 30
0.0
 10
10.8562853146
 20
10.3223070275
 30
0.0
 10
10.8700607645
 20
10.3191334994
 30
0.0
 10
10.8832977179
 20
10.3158104601
 30
0.0
 10
10.8959719334
 20
10.3123440501
 30
0.0
 10
10.9080602303
 20
10.308740676
 30
0.0
 10
10.9195405459
 20
10.3050069979
 30
0.0
 10
10.9303919547
 20
10.3011499045
 30
0.0
 10
10.9405947921
 20
10.2971764827
 30
0.0
 10
10.9501304356
 20
10.2930940298
 30
0.0
 10
10.9576174491
 20
10.2895550295
 30
0.0
 10
10.9632523167
 20
10.2866686238
 30
0.0
 10
10.9672359155
 20
10.2845144957
 30
0.0
 10
10.9710402573
 20
10.2823387848
 30
0.0
 10
10.9746636175
 20
10.2801424445
 30
0.0
 10
10.9781043401
 20
10.2779264524
 30
0.0
 10
10.9813608875
 20
10.2756918394
 30
0.0
 10
10.984431763
 20
10.2734395596
 30
0.0
 10
10.9873155912
 20
10.2711706339
 30
0.0
 10
10.9900110732
 20
10.2688860577
 30
0.0
 10
10.992516955
 20
10.2665867947
 30
0.0
 10
10.994832143
 20
10.2642738488
 30
0.0
 10
10.9969554827
 20
10.261948246
 30
0.0
 10
10.9988861716
 20
10.2596106652
 30
0.0
 10
11.001161018
 20
10.2565353059
 30
0.0
 10
11.0026419768
 20
10.2541303348
 30
0.0
 10
11.003499032
 20
10.2524990096
 30
0.0
  0
SPLINE
  5
358
100
AcDbEntity
  8
0
100
AcDbSpline
 62
7
  6
CONTINUOUS
 70
0
 71
3
 72
84
 73
80
 74
0
 42
0.0000001
 43
0.0000001
 44
0.0000000001
 40
0.0
 40
0.0
 40
0.0
 40
0.0
 40
0.0039572558
 40
0.00807594
 40
0.0123601222
 40
0.0168132688
 40
0.0214383312
 40
0.0262376665
 40
0.0312129297
 40
0.0363652933
 40
0.0416954815
 40
0.0472038012
 40
0.0528902434
 40
0.0587544004
 40
0.0710123942
 40
0.0839696529
 40
0.0976136734
 40
0.1119286809
 40
0.1268960358
 40
0.142494556
 40
0.1587008046
 40
0.1754893165
 40
0.1928327906
 40
0.2107022491
 40
0.229067186
 40
0.2478957163
 40
0.2671547012
 40
0.2868098641
 40
0.3068258957
 40
0.3271665633
 40
0.3477948232
 40
0.3686729207
 40
0.3897624877
 40
0.4110246371
 40
0.4539084154
 40
0.4970073025
 40
0.5400015204
 40
0.5825723001
 40
0.6036006968
 40
0.6244057173
 40
0.6449491724
 40
0.6651935164
 40
0.6851019446
 40
0.704638497
 40
0.7237681731
 40
0.7424570357
 40
0.7606723199
 40
0.7783825517
 40
0.7955576808
 40
0.8121692329
 40
0.8281904546
 40
0.8435964846
 40
0.8583645549
 40
0.8724742366
 40
0.8859077389
 40
0.8986502483
 40
0.9106903685
 40
0.9164448278
 40
0.9220213061
 40
0.9274195954
 40
0.9326398973
 40
0.9376827741
 40
0.9425492167
 40
0.9472407387
 40
0.9517593385
 40
0.9561076723
 40
0.9602890515
 40
0.9643075439
 40
0.9681681165
 40
0.9718766508
 40
0.9754401493
 40
0.9788667883
 40
0.9821660405
 40
0.9853488169
 40
0.9884274718
 40
0.9914158987
 40
0.9943294567
 40
0.9971848619
 40
1.0
 40
1.0
 40
1.0
 40
1.0
 10
10.1736504417
 20
10.2654537461
 30
0.0
 10
10.1744699989
 20
10.2662453777
 30
0.0
 10
10.1761794298
 20
10.267823107
 30
0.0
 10
10.1788923055
 20
10.2701280534
 30
0.0
 10
10.1818029
 20
10.2724166566
 30
0.0
 10
10.1849096424
 20
10.2746876791
 30
0.0
 10
10.1882110171
 20
10.2769401008
 30
0.0
 10
10.191705458
 20
10.2791728242
 30
0.0
 10
10.1953912447
 20
10.2813848202
 30
0.0
 10
10.199266576
 20
10.283574974
 30
0.0
 10
10.2033295428
 20
10.2857422047
 30
0.0
 10
10.2075781336
 20
10.2878854724
 30
0.0
 10
10.2120102791
 20
10.2900037009
 30
0.0
 10
10.2182541186
 20
10.2928351337
 30
0.0
 10
10.2265090064
 20
10.296296302
 30
0.0
 10
10.2369689997
 20
10.3002744884
 30
0.0
 10
10.2481039407
 20
10.3041286181
 30
0.0
 10
10.2598918066
 20
10.3078510027
 30
0.0
 10
10.2723094058
 20
10.3114342084
 30
0.0
 10
10.2853321902
 20
10.3148710741
 30
0.0
 10
10.2989343909
 20
10.318154723
 30
0.0
 10
10.3130890599
 20
10.3212785822
 30
0.0
 10
10.3277681322
 20
10.3242363953
 30
0.0
 10
10.3429424801
 20
10.3270222407
 30
0.0
 10
10.3585819741
 20
10.3296305481
 30
0.0
 10
10.3746555507
 20
10.3320560993
 30
0.0
 10
10.3911312783
 20
10.3342940421
 30
0.0
 10
10.407976419
 20
10.3363398972
 30
0.0
 10
10.4251574924
 20
10.3381895741
 30
0.0
 10
10.4426403433
 20
10.3398393787
 30
0.0
 10
10.4603902167
 20
10.3412860151
 30
0.0
 10
10.4783718156
 20
10.3425265868
 30
0.0
 10
10.4965494174
 20
10.3435586301
 30
0.0
 10
10.5210680508
 20
10.3446568886
 30
0.0
 10
10.5519399039
 20
10.3454927498
 30
0.0
 10
10.5890804799
 20
10.3456404381
 30
0.0
 10
10.6261245099
 20
10.3449342116
 30
0.0
 10
10.6567926267
 20
10.3436337895
 30
0.0
 10
10.6810521191
 20
10.3421656818
 30
0.0
 10
10.698965982
 20
10.3408611823
 30
0.0
 10
10.7166371412
 20
10.3393514882
 30
0.0
 10
10.7340304932
 20
10.3376395955
 30
0.0
 10
10.7511114515
 20
10.3357289302
 30
0.0
 10
10.7678460642
 20
10.3336233065
 30
0.0
 10
10.7842010728
 20
10.3313269386
 30
0.0
 10
10.8001439819
 20
10.328844421
 30
0.0
 10
10.8156431208
 20
10.32618072
 30
0.0
 10
10.830667707
 20
10.3233411634
 30
0.0
 10
10.8451879136
 20
10.32033143
 30
0.0
 10
10.8591749352
 20
10.3171575485
 30
0.0
 10
10.8726010463
 20
10.3138258735
 30
0.0
 10
10.8854396545
 20
10.3103430736
 30
0.0
 10
10.8976653661
 20
10.3067161146
 30
0.0
 10
10.9092540277
 20
10.302952244
 30
0.0
 10
10.9201828651
 20
10.2990589763
 30
0.0
 10
10.9304302751
 20
10.2950440687
 30
0.0
 10
10.9385027934
 20
10.2915529035
 30
0.0
 10
10.9445973902
 20
10.2886985794
 30
0.0
 10
10.9489164408
 20
10.2865647661
 30
0.0
 10
10.9530506334
 20
10.2844065677
 30
0.0
 10
10.9569979508
 20
10.2822250564
 30
0.0
 10
10.9607564497
 20
10.2800213007
 30
0.0
 10
10.964324275
 20
10.2777963543
 30
0.0
 10
10.9676997001
 20
10.2755513402
 30
0.0
 10
10.970881049
 20
10.2732872946
 30
0.0
 10
10.9738667845
 20
10.2710053336
 30
0.0
 10
10.9766554471
 20
10.2687065335
 30
0.0
 10
10.9792456493
 20
10.2663919445
 30
0.0
 10
10.9816361515
 20
10.2640626816
 30
0.0
 10
10.9838257227
 20
10.2617197572
 30
0.0
 10
10.9858132767
 20
10.2593642548
 30
0.0
 10
10.987597775
 20
10.256997218
 30
0.0
 10
10.9891782007
 20
10.2546196669
 30
0.0
 10
10.9905536872
 20
10.2522327034
 30
0.0
 10
10.9917232961
 20
10.2498373699
 30
0.0
 10
10.9926862382
 20
10.2474348501
 30
0.0
 10
10.9934417677
 20
10.2450262918
 30
0.0
 10
10.9939891449
 20
10.2426132327
 30
0.0
 10
10.9942161555
 20
10.2409939729
 30
0.0
 10
10.9942940923
 20
10.2401871364
 30
0.0
  0
SPLINE
  5
359
100
AcDbEntity
  8
0
100
AcDbSpline
 62
7
  6
CONTINUOUS
 70
0
 71
3
 72
33
 73
29
 74
0
 42
0.0000001
 43
0.0000001
 44
0.0000000001
 40
0.0
 40
0.0
 40
0.0
 40
0.0
 40
0.0882263151
 40
0.174453575
 40
0.2583003434
 40
0.3393973383
 40
0.4173936829
 40
0.4919582442
 40
0.5278573403
 40
0.5627852106
 40
0.5967075565
 40
0.6295922259
 40
0.6614089468
 40
0.692129977
 40
0.7217298867
 40
0.7501861164
 40
0.7774791258
 40
0.8035926892
 40
0.8285145711
 40
0.8522366356
 40
0.8747560086
 40
0.8960753618
 40
0.9162043825
 40
0.9351607583
 40
0.9529719045
 40
0.9696770765
 40
0.9853295651
 40
1.0
 40
1.0
 40
1.0
 40
1.0
 10
12.454968031
 20
9.4880367796
 30
0.0
 10
12.454968031
 20
9.4942690498
 30
0.0
 10
12.4548544794
 20
9.5065927245
 30
0.0
 10
12.4543329832
 20
9.524832646
 30
0.0
 10
12.4534646768
 20
9.5425553124
 30
0.0
 10
12.4522538911
 20
9.5596751889
 30
0.0
 10
12.4507066318
 20
9.5761095567
 30
0.0
 10
12.4491240252
 20
9.5893296452
 30
0.0
 10
12.4476876785
 20
9.5994994194
 30
0.0
 10
12.4465450374
 20
9.6068104044
 30
0.0
 10
12.445324798
 20
9.6138928714
 30
0.0
 10
12.444028463
 20
9.6207382856
 30
0.0
 10
12.4426575769
 20
9.6273383909
 30
0.0
 10
12.4412138436
 20
9.6336852373
 30
0.0
 10
12.4396989933
 20
9.6397711854
 30
0.0
 10
12.4381148799
 20
9.6455889209
 30
0.0
 10
12.4364634311
 20
9.6511314644
 30
0.0
 10
12.4347466242
 20
9.6563921774
 30
0.0
 10
12.4329665694
 20
9.6613647867
 30
0.0
 10
12.4311253543
 20
9.6660433701
 30
0.0
 10
12.4292252234
 20
9.6704224033
 30
0.0
 10
12.4272683662
 20
9.6744967265
 30
0.0
 10
12.4252570782
 20
9.6782615915
 30
0.0
 10
12.4231936061
 20
9.6817126464
 30
0.0
 10
12.4210802007
 20
9.6848458948
 30
0.0
 10
12.4189189815
 20
9.6876578418
 30
0.0
 10
12.416712265
 20
9.69014492
 30
0.0
 10
12.4151643955
 20
9.6916301209
 30
0.0
 10
12.4143836679
 20
9.692311597
 30
0.0
  0
SPLINE
  5
35A
100
AcDbEntity
  8
0
100
AcDbSpline
 62
7
  6
CONTINUOUS
 70
0
 71
3
 72
40
 73
36
 74
0
 42
0.0000001
 43
0.0000001
 44
0.0000000001
 40
0.0
 40
0.0
 40
0.0
 40
0.0
 40
0.0311448352
 40
0.0467776712
 40
0.0624478163
 40
0.0938928931
 40
0.1254753683
 40
0.1571831038
 40
0.1890013145
 40
0.2209130644
 40
0.2528995674
 40
0.2849405815
 40
0.3170148072
 40
0.349100303
 40
0.3811749104
 40
0.4132166804
 40
0.4452042987
 40
0.4771175008
 40
0.5089374741
 40
0.5406472387
 40
0.5722320012
 40
0.6036794751
 40
0.6349801612
 40
0.6661275796
 40
0.6971184487
 40
0.7279528012
 40
0.7586340346
 40
0.7891688873
 40
0.8195673392
 40
0.849842433
 40
0.8800100174
 40
0.9100884154
 40
0.9400980228
 40
0.9700608475
 40
1.0
 40
1.0
 40
1.0
 40
1.0
 10
11.9249048493
 20
7.304784749
 30
0.0
 10
11.9208478964
 20
7.3050660996
 30
0.0
 10
11.9147670702
 20
7.3057112367
 30
0.0
 10
11.9067155082
 20
7.3070077015
 30
0.0
 10
11.8986767324
 20
7.3085993654
 30
0.0
 10
11.8887087715
 20
7.3111342259
 30
0.0
 10
11.8769561606
 20
7.3150250451
 30
0.0
 10
11.865459606
 20
7.3197478284
 30
0.0
 10
11.8542807477
 20
7.3252772552
 30
0.0
 10
11.843479052
 20
7.3315837897
 30
0.0
 10
11.8331120994
 20
7.3386337567
 30
0.0
 10
11.8232351183
 20
7.3463895384
 30
0.0
 10
11.813900739
 20
7.3548097705
 30
0.0
 10
11.8051587037
 20
7.3638495609
 30
0.0
 10
11.7970556084
 20
7.3734607273
 30
0.0
 10
11.7896346551
 20
7.3835920512
 30
0.0
 10
11.7829354246
 20
7.3941895478
 30
0.0
 10
11.7769936667
 20
7.405196751
 30
0.0
 10
11.7718411099
 20
7.41655501
 30
0.0
 10
11.7675052935
 20
7.4282037983
 30
0.0
 10
11.7640094206
 20
7.4400810328
 30
0.0
 10
11.7613722338
 20
7.4521233995
 30
0.0
 10
11.7596079131
 20
7.464266687
 30
0.0
 10
11.7587259973
 20
7.4764461241
 30
0.0
 10
11.7587313291
 20
7.4885967207
 30
0.0
 10
11.7596240233
 20
7.5006536114
 30
0.0
 10
11.7613994605
 20
7.5125523988
 30
0.0
 10
11.7640483028
 20
7.5242294959
 30
0.0
 10
11.7675565381
 20
7.5356224674
 30
0.0
 10
11.7719055402
 20
7.5466703604
 30
0.0
 10
11.7770721822
 20
7.5573140557
 30
0.0
 10
11.7830288752
 20
7.5674965132
 30
0.0
 10
11.7897440016
 20
7.577163373
 30
0.0
 10
11.7971809987
 20
7.5862621883
 30
0.0
 10
11.8025961078
 20
7.5919192692
 30
0.0
 10
11.8054078583
 20
7.5946352264
 30
0.0
  0
SPLINE
  5
35B
100
AcDbEntity
  8
0
100
AcDbSpline
 62
7
  6
CONTINUOUS
 70
0
 71
3
 72
78
 73
74
 74
0
 42
0.0000001
 43
0.0000001
 44
0.0000000001
 40
0.0
 40
0.0
 40
0.0
 40
0.0
 40
0.0038941659
 40
0.0079433148
 40
0.0121512859
 40
0.0165213566
 40
0.021056338
 40
0.0257585085
 40
0.0306294986
 40
0.0356704677
 40
0.0408821773
 40
0.0462649805
 40
0.0575432144
 40
0.0695024907
 40
0.0821352538
 40
0.0954303932
 40
0.1093737166
 40
0.123948323
 40
0.139134934
 40
0.1549121507
 40
0.1712566631
 40
0.1881434129
 40
0.205545759
 40
0.2234356284
 40
0.2417836409
 40
0.2605592161
 40
0.2797306748
 40
0.299265356
 40
0.3191297154
 40
0.339289416
 40
0.3597094113
 40
0.4011864125
 40
0.4432704807
 40
0.4856650075
 40
0.5280705556
 40
0.5701875815
 40
0.6117191847
 40
0.6321744378
 40
0.6523746007
 40
0.6722845374
 40
0.6918697961
 40
0.711096701
 40
0.729932459
 40
0.7483452518
 40
0.7663043296
 40
0.7837801165
 40
0.8007443358
 40
0.8171701416
 40
0.8330322409
 40
0.8483070447
 40
0.8629728474
 40
0.8770100541
 40
0.8904014126
 40
0.9031323055
 40
0.9151911225
 40
0.9265697517
 40
0.9372641907
 40
0.9423552826
 40
0.947276123
 40
0.9520277692
 40
0.9566117399
 40
0.9610300191
 40
0.9652852143
 40
0.9693805257
 40
0.9733198757
 40
0.9771080098
 40
0.9807505197
 40
0.9842540363
 40
0.9876262631
 40
0.990876094
 40
0.9940137404
 40
0.9970507303
 40
1.0
 40
1.0
 40
1.0
 40
1.0
 10
10.1837926634
 20
10.2471835372
 30
0.0
 10
10.1845718938
 20
10.2479362159
 30
0.0
 10
10.1861955536
 20
10.2494364632
 30
0.0
 10
10.1887691902
 20
10.251629639
 30
0.0
 10
10.1915264348
 20
10.2538077088
 30
0.0
 10
10.1944658693
 20
10.2559695368
 30
0.0
 10
10.1975861187
 20
10.2581141999
 30
0.0
 10
10.2008857767
 20
10.2602407025
 30
0.0
 10
10.2043633002
 20
10.2623481089
 30
0.0
 10
10.2080170635
 20
10.264435418
 30
0.0
 10
10.2118453653
 20
10.2665016508
 30
0.0
 10
10.2172646394
 20
10.2692703902
 30
0.0
 10
10.2244703264
 20
10.2726637962
 30
0.0
 10
10.2336531404
 20
10.2765757397
 30
0.0
 10
10.2434846693
 20
10.2803810967
 30
0.0
 10
10.2539464364
 20
10.2840726664
 30
0.0
 10
10.2650189214
 20
10.2876434506
 30
0.0
 10
10.2766813272
 20
10.291086669
 30
0.0
 10
10.2889117194
 20
10.2943957697
 30
0.0
 10
10.301687058
 20
10.2975644496
 30
0.0
 10
10.3149832495
 20
10.300586666
 30
0.0
 10
10.3287751895
 20
10.3034566618
 30
0.0
 10
10.3430368172
 20
10.306168973
 30
0.0
 10
10.3577411739
 20
10.3087184321
 30
0.0
 10
10.3728604562
 20
10.3111001805
 30
0.0
 10
10.3883660653
 20
10.3133096789
 30
0.0
 10
10.4042286603
 20
10.3153427257
 30
0.0
 10
10.4204182224
 20
10.3171954532
 30
0.0
 10
10.4369041041
 20
10.3188643292
 30
0.0
 10
10.4536551263
 20
10.3203461939
 30
0.0
 10
10.476418623
 20
10.322077755
 30
0.0
 10
10.505301525
 20
10.32374967
 30
0.0
 10
10.5403251795
 20
10.3249652862
 30
0.0
 10
10.5756257289
 20
10.3253909824
 30
0.0
 10
10.6109360997
 20
10.3250235334
 30
0.0
 10
10.6459891469
 20
10.3238657069
 30
0.0
 10
10.6749089912
 20
10.3222416823
 30
0.0
 10
10.6977116935
 20
10.3205480291
 30
0.0
 10
10.7144990155
 20
10.3190938942
 30
0.0
 10
10.73102583
 20
10.3174523166
 30
0.0
 10
10.747260877
 20
10.3156263985
 30
0.0
 10
10.7631734189
 20
10.3136196147
 30
0.0
 10
10.7787333438
 20
10.3114357876
 30
0.0
 10
10.7939112127
 20
10.3090790779
 30
0.0
 10
10.8086783134
 20
10.3065539733
 30
0.0
 10
10.823006716
 20
10.3038652793
 30
0.0
 10
10.836869333
 20
10.3010181163
 30
0.0
 10
10.850239975
 20
10.2980179143
 30
0.0
 10
10.8630933976
 20
10.2948703907
 30
0.0
 10
10.8754053491
 20
10.2915815414
 30
0.0
 10
10.887152626
 20
10.2881576248
 30
0.0
 10
10.8983131289
 20
10.2846051632
 30
0.0
 10
10.9088659153
 20
10.280930911
 30
0.0
 10
10.9187912158
 20
10.2771418397
 30
0.0
 10
10.9280705785
 20
10.2732450895
 30
0.0
 10
10.9366866058
 20
10.2692480079
 30
0.0
 10
10.9434069121
 20
10.2657850994
 30
0.0
 10
10.948429984
 20
10.2629637613
 30
0.0
 10
10.9519594861
 20
10.2608621481
 30
0.0
 10
10.9553115874
 20
10.25874114
 30
0.0
 10
10.9584847428
 20
10.2566017155
 30
0.0
 10
10.9614774476
 20
10.2544448216
 30
0.0
 10
10.9642883327
 20
10.2522714813
 30
0.0
 10
10.9669160774
 20
10.2500826552
 30
0.0
 10
10.9693594443
 20
10.2478793103
 30
0.0
 10
10.9716173155
 20
10.2456624538
 30
0.0
 10
10.9736885792
 20
10.2434330039
 30
0.0
 10
10.9755722623
 20
10.2411919531
 30
0.0
 10
10.9772674263
 20
10.2389402439
 30
0.0
 10
10.97877315
 20
10.2366788214
 30
0.0
 10
10.9800886729
 20
10.2344086371
 30
0.0
 10
10.9812130908
 20
10.2321308251
 30
0.0
 10
10.9818432029
 20
10.2305873045
 30
0.0
 10
10.9821242718
 20
10.2298164381
 30
0.0
  0
SPLINE
  5
35C
100
AcDbEntity
  8
0
100
AcDbSpline
 62
7
  6
CONTINUOUS
 70
0
 71
3
 72
27
 73
23
 74
0
 42
0.0000001
 43
0.0000001
 44
0.0000000001
 40
0.0
 40
0.0
 40
0.0
 40
0.0
 40
0.0279825274
 40
0.0565820447
 40
0.0857626881
 40
0.1154874429
 40
0.1764153315
 40
0.2390519437
 40
0.3030700897
 40
0.3681327782
 40
0.4338957472
 40
0.5000099055
 40
0.5661237422
 40
0.6318857529
 40
0.6969468411
 40
0.7609627663
 40
0.8235965623
 40
0.8845210269
 40
0.9142438746
 40
0.9434224494
 40
0.9720197759
 40
1.0
 40
1.0
 40
1.0
 40
1.0
 10
10.3457519392
 20
10.1734999913
 30
0.0
 10
10.3500167247
 20
10.17426175
 30
0.0
 10
10.3586513169
 20
10.1757411585
 30
0.0
 10
10.3717675865
 20
10.1778086474
 30
0.0
 10
10.3851762229
 20
10.1797466859
 30
0.0
 10
10.4035698075
 20
10.1821743072
 30
0.0
 10
10.4271524252
 20
10.1848569834
 30
0.0
 10
10.4560762924
 20
10.1874952256
 30
0.0
 10
10.4856882355
 20
10.189562995
 30
0.0
 10
10.5158195917
 20
10.1910484026
 30
0.0
 10
10.5462988678
 20
10.1919428721
 30
0.0
 10
10.5769525209
 20
10.1922412325
 30
0.0
 10
10.6076060148
 20
10.1919417763
 30
0.0
 10
10.6380848133
 20
10.1910462307
 30
0.0
 10
10.6682153757
 20
10.1895597449
 30
0.0
 10
10.6978262149
 20
10.1874909183
 30
0.0
 10
10.7267486743
 20
10.184851658
 30
0.0
 10
10.7503299251
 20
10.1821681234
 30
0.0
 10
10.7687222681
 20
10.17973985
 30
0.0
 10
10.7821298699
 20
10.1778013258
 30
0.0
 10
10.795245037
 20
10.1757333684
 30
0.0
 10
10.803878871
 20
10.1742536539
 30
0.0
 10
10.8081432664
 20
10.1734917391
 30
0.0
  0
SPLINE
  5
35D
100
AcDbEntity
  8
0
100
AcDbSpline
 62
4
  6
CONTINUOUS
 70
0
 71
3
 72
615
 73
611
 74
0
 42
0.0000001
 43
0.0000001
 44
0.0000000001
 40
0.0
 40
0.0
 40
0.0
 40
0.0
 40
0.0078125
 40
0.015625
 40
0.0234375
 40
0.03125
 40
0.03515625
 40
0.0390625
 40
0.04296875
 40
0.046875
 40
0.05078125
 40
0.052734375
 40
0.0546875
 40
0.056640625
 40
0.0576171875
 40
0.05859375
 40
0.0595703125
 40
0.060546875
 40
0.0610351562
 40
0.0615234375
 40
0.0617675781
 40
0.0620117188
 40
0.0622558594
 40
0.0623779297
 40
0.0624389648
 40
0.0625
 40
0.0625610352
 40
0.0626220703
 40
0.0627441406
 40
0.0629882812
 40
0.0632324219
 40
0.0634765625
 40
0.0639648438
 40
0.064453125
 40
0.0654296875
 40
0.06640625
 40
0.0673828125
 40
0.068359375
 40
0.0703125
 40
0.072265625
 40
0.07421875
 40
0.078125
 40
0.08203125
 40
0.0859375
 40
0.08984375
 40
0.09375
 40
0.09765625
 40
0.1015625
 40
0.10546875
 40
0.109375
 40
0.11328125
 40
0.115234375
 40
0.1171875
 40
0.119140625
 40
0.1201171875
 40
0.12109375
 40
0.1220703125
 40
0.123046875
 40
0.1235351562
 40
0.1240234375
 40
0.1242675781
 40
0.1245117188
 40
0.1247558594
 40
0.1248779297
 40
0.1249389648
 40
0.125
 40
0.1250610352
 40
0.1251220703
 40
0.1252441406
 40
0.1254882812
 40
0.1257324219
 40
0.1259765625
 40
0.1264648438
 40
0.126953125
 40
0.1279296875
 40
0.12890625
 40
0.1298828125
 40
0.130859375
 40
0.1328125
 40
0.134765625
 40
0.13671875
 40
0.140625
 40
0.14453125
 40
0.1484375
 40
0.15234375
 40
0.15625
 40
0.16015625
 40
0.1640625
 40
0.16796875
 40
0.171875
 40
0.17578125
 40
0.177734375
 40
0.1796875
 40
0.181640625
 40
0.1826171875
 40
0.18359375
 40
0.1845703125
 40
0.185546875
 40
0.1860351562
 40
0.1865234375
 40
0.1867675781
 40
0.1870117188
 40
0.1872558594
 40
0.1873779297
 40
0.1874389648
 40
0.1875
 40
0.1875610352
 40
0.1876220703
 40
0.1877441406
 40
0.1879882812
 40
0.1882324219
 40
0.1884765625
 40
0.1889648438
 40
0.189453125
 40
0.1904296875
 40
0.19140625
 40
0.1923828125
 40
0.193359375
 40
0.1953125
 40
0.197265625
 40
0.19921875
 40
0.203125
 40
0.20703125
 40
0.2109375
 40
0.21484375
 40
0.21875
 40
0.22265625
 40
0.2265625
 40
0.23046875
 40
0.234375
 40
0.23828125
 40
0.240234375
 40
0.2421875
 40
0.244140625
 40
0.2451171875
 40
0.24609375
 40
0.2470703125
 40
0.248046875
 40
0.2485351562
 40
0.2490234375
 40
0.2492675781
 40
0.2495117188
 40
0.2497558594
 40
0.2498779297
 40
0.2499389648
 40
0.25
 40
0.2500610352
 40
0.2501220703
 40
0.2502441406
 40
0.2504882812
 40
0.2507324219
 40
0.2509765625
 40
0.2514648438
 40
0.251953125
 40
0.2529296875
 40
0.25390625
 40
0.2548828125
 40
0.255859375
 40
0.2578125
 40
0.259765625
 40
0.26171875
 40
0.265625
 40
0.26953125
 40
0.2734375
 40
0.27734375
 40
0.28125
 40
0.28515625
 40
0.2890625
 40
0.29296875
 40
0.296875
 40
0.30078125
 40
0.302734375
 40
0.3046875
 40
0.306640625
 40
0.3076171875
 40
0.30859375
 40
0.3095703125
 40
0.310546875
 40
0.3110351562
 40
0.3115234375
 40
0.3117675781
 40
0.3120117188
 40
0.3122558594
 40
0.3123779297
 40
0.3124389648
 40
0.3125
 40
0.3125610352
 40
0.3126220703
 40
0.3127441406
 40
0.3129882812
 40
0.3132324219
 40
0.3134765625
 40
0.3139648438
 40
0.314453125
 40
0.3154296875
 40
0.31640625
 40
0.3173828125
 40
0.318359375
 40
0.3203125
 40
0.322265625
 40
0.32421875
 40
0.328125
 40
0.33203125
 40
0.3359375
 40
0.33984375
 40
0.34375
 40
0.34765625
 40
0.3515625
 40
0.35546875
 40
0.359375
 40
0.36328125
 40
0.365234375
 40
0.3671875
 40
0.369140625
 40
0.3701171875
 40
0.37109375
 40
0.3720703125
 40
0.373046875
 40
0.3735351562
 40
0.3740234375
 40
0.3742675781
 40
0.3745117188
 40
0.3747558594
 40
0.3748779297
 40
0.3749389648
 40
0.375
 40
0.3750610352
 40
0.3751220703
 40
0.3752441406
 40
0.3754882812
 40
0.3757324219
 40
0.3759765625
 40
0.3764648438
 40
0.376953125
 40
0.3779296875
 40
0.37890625
 40
0.3798828125
 40
0.380859375
 40
0.3828125
 40
0.384765625
 40
0.38671875
 40
0.390625
 40
0.39453125
 40
0.3984375
 40
0.40234375
 40
0.40625
 40
0.41015625
 40
0.4140625
 40
0.41796875
 40
0.421875
 40
0.42578125
 40
0.427734375
 40
0.4296875
 40
0.431640625
 40
0.4326171875
 40
0.43359375
 40
0.4345703125
 40
0.435546875
 40
0.4360351562
 40
0.4365234375
 40
0.4367675781
 40
0.4370117188
 40
0.4372558594
 40
0.4373779297
 40
0.4374389648
 40
0.4375
 40
0.4375610352
 40
0.4376220703
 40
0.4377441406
 40
0.4379882812
 40
0.4382324219
 40
0.4384765625
 40
0.4389648438
 40
0.439453125
 40
0.4404296875
 40
0.44140625
 40
0.4423828125
 40
0.443359375
 40
0.4453125
 40
0.447265625
 40
0.44921875
 40
0.453125
 40
0.45703125
 40
0.4609375
 40
0.46484375
 40
0.46875
 40
0.47265625
 40
0.4765625
 40
0.48046875
 40
0.484375
 40
0.48828125
 40
0.490234375
 40
0.4921875
 40
0.494140625
 40
0.4951171875
 40
0.49609375
 40
0.4970703125
 40
0.498046875
 40
0.4985351562
 40
0.4990234375
 40
0.4992675781
 40
0.4995117188
 40
0.4997558594
 40
0.4998779297
 40
0.4999389648
 40
0.5
 40
0.5000610352
 40
0.5001220703
 40
0.5002441406
 40
0.5004882812
 40
0.5007324219
 40
0.5009765625
 40
0.5014648438
 40
0.501953125
 40
0.5029296875
 40
0.50390625
 40
0.5048828125
 40
0.505859375
 40
0.5078125
 40
0.509765625
 40
0.51171875
 40
0.515625
 40
0.51953125
 40
0.5234375
 40
0.52734375
 40
0.53125
 40
0.53515625
 40
0.5390625
 40
0.54296875
 40
0.546875
 40
0.55078125
 40
0.552734375
 40
0.5546875
 40
0.556640625
 40
0.5576171875
 40
0.55859375
 40
0.5595703125
 40
0.560546875
 40
0.5610351562
 40
0.5615234375
 40
0.5617675781
 40
0.5620117188
 40
0.5622558594
 40
0.5623779297
 40
0.5624389648
 40
0.5625
 40
0.5625610352
 40
0.5626220703
 40
0.5627441406
 40
0.5629882812
 40
0.5632324219
 40
0.5634765625
 40
0.5639648438
 40
0.564453125
 40
0.5654296875
 40
0.56640625
 40
0.5673828125
 40
0.568359375
 40
0.5703125
 40
0.572265625
 40
0.57421875
 40
0.578125
 40
0.58203125
 40
0.5859375
 40
0.58984375
 40
0.59375
 40
0.59765625
 40
0.6015625
 40
0.60546875
 40
0.609375
 40
0.61328125
 40
0.615234375
 40
0.6171875
 40
0.619140625
 40
0.6201171875
 40
0.62109375
 40
0.6220703125
 40
0.623046875
 40
0.6235351562
 40
0.6240234375
 40
0.6242675781
 40
0.6245117188
 40
0.6247558594
 40
0.6248779297
 40
0.6249389648
 40
0.625
 40
0.6250610352
 40
0.6251220703
 40
0.6252441406
 40
0.6254882812
 40
0.6257324219
 40
0.6259765625
 40
0.6264648438
 40
0.626953125
 40
0.6279296875
 40
0.62890625
 40
0.6298828125
 40
0.630859375
 40
0.6328125
 40
0.634765625
 40
0.63671875
 40
0.640625
 40
0.64453125
 40
0.6484375
 40
0.65234375
 40
0.65625
 40
0.66015625
 40
0.6640625
 40
0.66796875
 40
0.671875
 40
0.67578125
 40
0.677734375
 40
0.6796875
 40
0.681640625
 40
0.6826171875
 40
0.68359375
 40
0.6845703125
 40
0.685546875
 40
0.6860351562
 40
0.6865234375
 40
0.6867675781
 40
0.6870117188
 40
0.6872558594
 40
0.6873779297
 40
0.6874389648
 40
0.6875
 40
0.6875610352
 40
0.6876220703
 40
0.6877441406
 40
0.6879882812
 40
0.6882324219
 40
0.6884765625
 40
0.6889648438
 40
0.689453125
 40
0.6904296875
 40
0.69140625
 40
0.6923828125
 40
0.693359375
 40
0.6953125
 40
0.697265625
 40
0.69921875
 40
0.703125
 40
0.70703125
 40
0.7109375
 40
0.71484375
 40
0.71875
 40
0.72265625
 40
0.7265625
 40
0.73046875
 40
0.734375
 40
0.73828125
 40
0.740234375
 40
0.7421875
 40
0.744140625
 40
0.7451171875
 40
0.74609375
 40
0.7470703125
 40
0.748046875
 40
0.7485351562
 40
0.7490234375
 40
0.7492675781
 40
0.7495117188
 40
0.7497558594
 40
0.7498779297
 40
0.7499389648
 40
0.75
 40
0.7500610352
 40
0.7501220703
 40
0.7502441406
 40
0.7504882812
 40
0.7507324219
 40
0.7509765625
 40
0.7514648438
 40
0.751953125
 40
0.7529296875
 40
0.75390625
 40
0.7548828125
 40
0.755859375
 40
0.7578125
 40
0.759765625
 40
0.76171875
 40
0.765625
 40
0.76953125
 40
0.7734375
 40
0.77734375
 40
0.78125
 40
0.78515625
 40
0.7890625
 40
0.79296875
 40
0.796875
 40
0.80078125
 40
0.802734375
 40
0.8046875
 40
0.806640625
 40
0.8076171875
 40
0.80859375
 40
0.8095703125
 40
0.810546875
 40
0.8110351562
 40
0.8115234375
 40
0.8117675781
 40
0.8120117188
 40
0.8122558594
 40
0.8123779297
 40
0.8124389648
 40
0.8125
 40
0.8125610352
 40
0.8126220703
 40
0.8127441406
 40
0.8129882812
 40
0.8132324219
 40
0.8134765625
 40
0.8139648438
 40
0.814453125
 40
0.8154296875
 40
0.81640625
 40
0.8173828125
 40
0.818359375
 40
0.8203125
 40
0.822265625
 40
0.82421875
 40
0.828125
 40
0.83203125
 40
0.8359375
 40
0.83984375
 40
0.84375
 40
0.84765625
 40
0.8515625
 40
0.85546875
 40
0.859375
 40
0.86328125
 40
0.865234375
 40
0.8671875
 40
0.869140625
 40
0.8701171875
 40
0.87109375
 40
0.8720703125
 40
0.873046875
 40
0.8735351562
 40
0.8740234375
 40
0.8742675781
 40
0.8745117188
 40
0.8747558594
 40
0.8748779297
 40
0.8749389648
 40
0.875
 40
0.8750610352
 40
0.8751220703
 40
0.8752441406
 40
0.8754882812
 40
0.8757324219
 40
0.8759765625
 40
0.8764648438
 40
0.876953125
 40
0.8779296875
 40
0.87890625
 40
0.8798828125
 40
0.880859375
 40
0.8828125
 40
0.884765625
 40
0.88671875
 40
0.890625
 40
0.89453125
 40
0.8984375
 40
0.90234375
 40
0.90625
 40
0.91015625
 40
0.9140625
 40
0.91796875
 40
0.921875
 40
0.92578125
 40
0.927734375
 40
0.9296875
 40
0.931640625
 40
0.9326171875
 40
0.93359375
 40
0.9345703125
 40
0.935546875
 40
0.9360351562
 40
0.9365234375
 40
0.9367675781
 40
0.9370117188
 40
0.9372558594
 40
0.9373779297
 40
0.9374389648
 40
0.9375
 40
0.9375610352
 40
0.9376220703
 40
0.9377441406
 40
0.9379882812
 40
0.9382324219
 40
0.9384765625
 40
0.9389648438
 40
0.939453125
 40
0.9404296875
 40
0.94140625
 40
0.9423828125
 40
0.943359375
 40
0.9453125
 40
0.947265625
 40
0.94921875
 40
0.953125
 40
0.95703125
 40
0.9609375
 40
0.96484375
 40
0.96875
 40
0.9765625
 40
0.984375
 40
0.9921875
 40
1.0
 40
1.0
 40
1.0
 40
1.0
 10
10.6064160234
 20
8.8905096014
 30
0.0
 10
10.6062624176
 20
8.8920868475
 30
0.0
 10
10.605955206
 20
8.8952413396
 30
0.0
 10
10.6054943885
 20
8.8999730778
 30
0.0
 10
10.605033571
 20
8.9047048159
 30
0.0
 10
10.6046495564
 20
8.9086479311
 30
0.0
 10
10.6043423447
 20
8.9118024232
 30
0.0
 10
10.604111936
 20
8.9141682923
 30
0.0
 10
10.6038815272
 20
8.9165341614
 30
0.0
 10
10.6036511185
 20
8.9189000305
 30
0.0
 10
10.6034591112
 20
8.9208715881
 30
0.0
 10
10.6033055054
 20
8.9224488341
 30
0.0
 10
10.603190301
 20
8.9236317687
 30
0.0
 10
10.6030942974
 20
8.9246175475
 30
0.0
 10
10.6030174944
 20
8.9254061705
 30
0.0
 10
10.6029598924
 20
8.9259976378
 30
0.0
 10
10.6029022893
 20
8.9265891049
 30
0.0
 10
10.6028542904
 20
8.9270819947
 30
0.0
 10
10.6028158831
 20
8.9274763055
 30
0.0
 10
10.602791897
 20
8.9277227521
 30
0.0
 10
10.6027726658
 20
8.9279199039
 30
0.0
 10
10.6027583585
 20
8.9280677827
 30
0.0
 10
10.6027460663
 20
8.9281909675
 30
0.0
 10
10.6027381867
 20
8.9282772902
 30
0.0
 10
10.6027325522
 20
8.9283264718
 30
0.0
 10
10.602731515
 20
8.9283637682
 30
0.0
 10
10.6027182887
 20
8.9283994965
 30
0.0
 10
10.6027049054
 20
8.9284476811
 30
0.0
 10
10.6026795037
 20
8.9285317495
 30
0.0
 10
10.6026442511
 20
8.9286519803
 30
0.0
 10
10.6026015047
 20
8.9287962003
 30
0.0
 10
10.6025446644
 20
8.9289885135
 30
0.0
 10
10.602473561
 20
8.9292288982
 30
0.0
 10
10.6023598252
 20
8.9296135176
 30
0.0
 10
10.6022176452
 20
8.9300942905
 30
0.0
 10
10.6020470336
 20
8.9306712185
 30
0.0
 10
10.6018764209
 20
8.9312481464
 30
0.0
 10
10.6016489376
 20
8.9320173837
 30
0.0
 10
10.6013645834
 20
8.9329789302
 30
0.0
 10
10.6010233584
 20
8.934132786
 30
0.0
 10
10.6005683917
 20
8.9356712605
 30
0.0
 10
10.5999996833
 20
8.9375943535
 30
0.0
 10
10.5993172333
 20
8.9399020652
 30
0.0
 10
10.5986347832
 20
8.9422097769
 30
0.0
 10
10.5979523332
 20
8.9445174886
 30
0.0
 10
10.5972698831
 20
8.9468252002
 30
0.0
 10
10.5965874331
 20
8.9491329119
 30
0.0
 10
10.595904983
 20
8.9514406236
 30
0.0
 10
10.595222533
 20
8.9537483352
 30
0.0
 10
10.5945400829
 20
8.9560560469
 30
0.0
 10
10.5939713746
 20
8.95797914
 30
0.0
 10
10.5935164079
 20
8.9595176144
 30
0.0
 10
10.5931751828
 20
8.9606714703
 30
0.0
 10
10.5928908287
 20
8.9616330168
 30
0.0
 10
10.5926633453
 20
8.962402254
 30
0.0
 10
10.592492733
 20
8.962979182
 30
0.0
 10
10.5923221196
 20
8.9635561096
 30
0.0
 10
10.5921799452
 20
8.9640368838
 30
0.0
 10
10.592066198
 20
8.9644215005
 30
0.0
 10
10.5919951235
 20
8.964661892
 30
0.0
 10
10.5919382239
 20
8.9648541914
 30
0.0
 10
10.5918956587
 20
8.9649984535
 30
0.0
 10
10.5918598394
 20
8.9651185526
 30
0.0
 10
10.5918354493
 20
8.9652028562
 30
0.0
 10
10.5918204451
 20
8.9652506639
 30
0.0
 10
10.5918121975
 20
8.96528755
 30
0.0
 10
10.5917924616
 20
8.9653204977
 30
0.0
 10
10.5917701543
 20
8.9653658018
 30
0.0
 10
10.5917292496
 20
8.9654444438
 30
0.0
 10
10.5916717903
 20
8.9655571243
 30
0.0
 10
10.5916024213
 20
8.9656921975
 30
0.0
 10
10.5915100753
 20
8.9658723452
 30
0.0
 10
10.5913945929
 20
8.9660975127
 30
0.0
 10
10.5912098489
 20
8.9664577903
 30
0.0
 10
10.5909789093
 20
8.966908134
 30
0.0
 10
10.5907017859
 20
8.9674485479
 30
0.0
 10
10.5904246614
 20
8.9679889614
 30
0.0
 10
10.5900551625
 20
8.9687095128
 30
0.0
 10
10.5895932887
 20
8.9696102021
 30
0.0
 10
10.5890390402
 20
8.9706910292
 30
0.0
 10
10.5883000422
 20
8.972132132
 30
0.0
 10
10.5873762946
 20
8.9739335105
 30
0.0
 10
10.5862677976
 20
8.9760951648
 30
0.0
 10
10.5851593006
 20
8.978256819
 30
0.0
 10
10.5840508035
 20
8.9804184733
 30
0.0
 10
10.5829423065
 20
8.9825801275
 30
0.0
 10
10.5818338095
 20
8.9847417817
 30
0.0
 10
10.5807253124
 20
8.986903436
 30
0.0
 10
10.5796168154
 20
8.9890650902
 30
0.0
 10
10.5785083184
 20
8.9912267444
 30
0.0
 10
10.5775845709
 20
8.993028123
 30
0.0
 10
10.5768455728
 20
8.9944692258
 30
0.0
 10
10.5762913243
 20
8.9955500529
 30
0.0
 10
10.5758294506
 20
8.9964507422
 30
0.0
 10
10.5754599515
 20
8.9971712936
 30
0.0
 10
10.5751828275
 20
8.9977117072
 30
0.0
 10
10.5749057024
 20
8.9982521204
 30
0.0
 10
10.5746747681
 20
8.9987024663
 30
0.0
 10
10.5744900133
 20
8.9990627394
 30
0.0
 10
10.5743745584
 20
8.9992879182
 30
0.0
 10
10.5742821557
 20
8.9994680428
 30
0.0
 10
10.57421296
 20
8.9996031867
 30
0.0
 10
10.5741549588
 20
8.9997156461
 30
0.0
 10
10.5741150214
 20
8.9997946827
 30
0.0
 10
10.5740911642
 20
8.9998393546
 30
0.0
 10
10.5740761892
 20
8.9998742441
 30
0.0
 10
10.5740500606
 20
8.9999038373
 30
0.0
 10
10.5740191131
 20
8.9999451424
 30
0.0
 10
10.5739631422
 20
9.0000165656
 30
0.0
 10
10.5738841315
 20
9.0001190486
 30
0.0
 10
10.5737889129
 20
9.0002418357
 30
0.0
 10
10.5736620966
 20
9.000405619
 30
0.0
 10
10.5735035277
 20
9.0006103252
 30
0.0
 10
10.5732498445
 20
9.0009378679
 30
0.0
 10
10.5729327312
 20
9.0013472919
 30
0.0
 10
10.5725521992
 20
9.0018386025
 30
0.0
 10
10.5721716662
 20
9.0023299127
 30
0.0
 10
10.5716642892
 20
9.0029849931
 30
0.0
 10
10.5710300679
 20
9.0038038435
 30
0.0
 10
10.5702690023
 20
9.004786464
 30
0.0
 10
10.5692542482
 20
9.0060966248
 30
0.0
 10
10.5679858055
 20
9.0077343256
 30
0.0
 10
10.5664636743
 20
9.0096995667
 30
0.0
 10
10.5649415431
 20
9.0116648078
 30
0.0
 10
10.5634194119
 20
9.0136300489
 30
0.0
 10
10.5618972807
 20
9.0155952899
 30
0.0
 10
10.5603751495
 20
9.017560531
 30
0.0
 10
10.5588530184
 20
9.0195257721
 30
0.0
 10
10.5573308872
 20
9.0214910131
 30
0.0
 10
10.555808756
 20
9.0234562542
 30
0.0
 10
10.5545403133
 20
9.0250939551
 30
0.0
 10
10.5535255592
 20
9.0264041158
 30
0.0
 10
10.5527644936
 20
9.0273867363
 30
0.0
 10
10.5521302723
 20
9.0282055868
 30
0.0
 10
10.5516228952
 20
9.0288606671
 30
0.0
 10
10.5512423625
 20
9.0293519775
 30
0.0
 10
10.5508618291
 20
9.0298432871
 30
0.0
 10
10.5505447204
 20
9.0302527145
 30
0.0
 10
10.5502910279
 20
9.0305802503
 30
0.0
 10
10.5501324826
 20
9.0307849741
 30
0.0
 10
10.5500056179
 20
9.0309487212
 30
0.0
 10
10.5499105471
 20
9.0310716189
 30
0.0
 10
10.5498310742
 20
9.0311737558
 30
0.0
 10
10.5497759282
 20
9.0312457969
 30
0.0
 10
10.549743659
 20
9.0312861118
 30
0.0
 10
10.5497215903
 20
9.0313187465
 30
0.0
 10
10.5496913671
 20
9.031342213
 30
0.0
 10
10.5496539139
 20
9.0313766996
 30
0.0
 10
10.5495870456
 20
9.0314355612
 30
0.0
 10
10.5494922123
 20
9.0315204281
 30
0.0
 10
10.5493781157
 20
9.031621935
 30
0.0
 10
10.5492260906
 20
9.031757394
 30
0.0
 10
10.5490360237
 20
9.0319266779
 30
0.0
 10
10.5487319364
 20
9.0321975543
 30
0.0
 10
10.5483518206
 20
9.0325361423
 30
0.0
 10
10.5478956845
 20
9.0329424511
 30
0.0
 10
10.5474395476
 20
9.033348759
 30
0.0
 10
10.5468313654
 20
9.0338905032
 30
0.0
 10
10.5460711375
 20
9.0345676834
 30
0.0
 10
10.545158864
 20
9.0353802996
 30
0.0
 10
10.5439424995
 20
9.0364637879
 30
0.0
 10
10.5424220437
 20
9.0378181483
 30
0.0
 10
10.5405974968
 20
9.0394433807
 30
0.0
 10
10.53877295
 20
9.0410686132
 30
0.0
 10
10.5369484031
 20
9.0426938457
 30
0.0
 10
10.5351238562
 20
9.0443190781
 30
0.0
 10
10.5332993093
 20
9.0459443106
 30
0.0
 10
10.5314747625
 20
9.047569543
 30
0.0
 10
10.5296502156
 20
9.0491947755
 30
0.0
 10
10.5278256687
 20
9.0508200079
 30
0.0
 10
10.526305213
 20
9.0521743683
 30
0.0
 10
10.5250888484
 20
9.0532578566
 30
0.0
 10
10.524176575
 20
9.0540704728
 30
0.0
 10
10.5234163471
 20
9.0547476531
 30
0.0
 10
10.5228081648
 20
9.0552893971
 30
0.0
 10
10.5223520282
 20
9.0556957054
 30
0.0
 10
10.521895891
 20
9.0561020128
 30
0.0
 10
10.5215157787
 20
9.0564406052
 30
0.0
 10
10.5212116842
 20
9.0567114726
 30
0.0
 10
10.5210216357
 20
9.0568807796
 30
0.0
 10
10.5208695728
 20
9.057016191
 30
0.0
 10
10.5207555915
 20
9.0571178434
 30
0.0
 10
10.5206603976
 20
9.0572022553
 30
0.0
 10
10.5205941729
 20
9.0572619292
 30
0.0
 10
10.5205556884
 20
9.0572951142
 30
0.0
 10
10.5205286333
 20
9.0573225788
 30
0.0
 10
10.5204946658
 20
9.0573401972
 30
0.0
 10
10.520451787
 20
9.0573671228
 30
0.0
 10
10.5203756256
 20
9.0574126425
 30
0.0
 10
10.5202674109
 20
9.0574785072
 30
0.0
 10
10.5201373019
 20
9.0575571868
 30
0.0
 10
10.5199639111
 20
9.057662218
 30
0.0
 10
10.5197471425
 20
9.0577934641
 30
0.0
 10
10.5194003296
 20
9.0580034819
 30
0.0
 10
10.5189668076
 20
9.0582659959
 30
0.0
 10
10.5184465837
 20
9.0585810162
 30
0.0
 10
10.5179263592
 20
9.0588960355
 30
0.0
 10
10.5172327267
 20
9.0593160617
 30
0.0
 10
10.516365686
 20
9.0598410943
 30
0.0
 10
10.5153252372
 20
9.0604711334
 30
0.0
 10
10.5139379721
 20
9.0613111856
 30
0.0
 10
10.5122038907
 20
9.0623612508
 30
0.0
 10
10.5101229931
 20
9.063621329
 30
0.0
 10
10.5080420955
 20
9.0648814073
 30
0.0
 10
10.5059611978
 20
9.0661414856
 30
0.0
 10
10.5038803002
 20
9.0674015638
 30
0.0
 10
10.5017994026
 20
9.0686616421
 30
0.0
 10
10.4997185049
 20
9.0699217203
 30
0.0
 10
10.4976376073
 20
9.0711817986
 30
0.0
 10
10.4955567097
 20
9.0724418769
 30
0.0
 10
10.4938226283
 20
9.0734919421
 30
0.0
 10
10.4924353633
 20
9.0743319942
 30
0.0
 10
10.4913949144
 20
9.0749620334
 30
0.0
 10
10.4905278738
 20
9.075487066
 30
0.0
 10
10.4898342412
 20
9.075907092
 30
0.0
 10
10.4893140169
 20
9.0762221118
 30
0.0
 10
10.4887937921
 20
9.0765371305
 30
0.0
 10
10.4883602729
 20
9.0767996494
 30
0.0
 10
10.4880134543
 20
9.0770096572
 30
0.0
 10
10.4877967
 20
9.0771409289
 30
0.0
 10
10.4876232799
 20
9.0772459075
 30
0.0
 10
10.4874932603
 20
9.0773247476
 30
0.0
 10
10.487384766
 20
9.0773901101
 30
0.0
 10
10.4873091039
 20
9.0774365264
 30
0.0
 10
10.487265425
 20
9.0774620154
 30
0.0
 10
10.487233915
 20
9.0774840466
 30
0.0
 10
10.4871976299
 20
9.0774949374
 30
0.0
 10
10.4871509154
 20
9.0775133443
 30
0.0
 10
10.4870683889
 20
9.077543746
 30
0.0
 10
10.4869508997
 20
9.0775881234
 30
0.0
 10
10.4868097389
 20
9.0776409712
 30
0.0
 10
10.4866215852
 20
9.0777115764
 30
0.0
 10
10.4863863724
 20
9.0777997845
 30
0.0
 10
10.4860100434
 20
9.0779409445
 30
0.0
 10
10.4855396282
 20
9.0781173853
 30
0.0
 10
10.4849751316
 20
9.0783291181
 30
0.0
 10
10.4844106346
 20
9.0785408499
 30
0.0
 10
10.4836579721
 20
9.0788231594
 30
0.0
 10
10.4827171439
 20
9.079176046
 30
0.0
 10
10.4815881501
 20
9.0795995101
 30
0.0
 10
10.480082825
 20
9.0801641288
 30
0.0
 10
10.4782011686
 20
9.0808699022
 30
0.0
 10
10.475943181
 20
9.0817168302
 30
0.0
 10
10.4736851934
 20
9.0825637583
 30
0.0
 10
10.4714272057
 20
9.0834106864
 30
0.0
 10
10.4691692181
 20
9.0842576145
 30
0.0
 10
10.4669112305
 20
9.0851045425
 30
0.0
 10
10.4646532428
 20
9.0859514706
 30
0.0
 10
10.4623952552
 20
9.0867983987
 30
0.0
 10
10.4601372676
 20
9.0876453268
 30
0.0
 10
10.4582556112
 20
9.0883511002
 30
0.0
 10
10.4567502861
 20
9.0889157189
 30
0.0
 10
10.4556212923
 20
9.0893391829
 30
0.0
 10
10.4546804641
 20
9.0896920696
 30
0.0
 10
10.4539278016
 20
9.0899743789
 30
0.0
 10
10.4533633047
 20
9.0901861112
 30
0.0
 10
10.4527988075
 20
9.0903978423
 30
0.0
 10
10.4523283943
 20
9.0905742884
 30
0.0
 10
10.4519520613
 20
9.0907154374
 30
0.0
 10
10.4517168586
 20
9.0908036736
 30
0.0
 10
10.451528684
 20
9.0908742211
 30
0.0
 10
10.4513875873
 20
9.0909272453
 30
0.0
 10
10.4512698977
 20
9.0909710707
 30
0.0
 10
10.4511877288
 20
9.0910024579
 30
0.0
 10
10.4511404413
 20
9.0910192857
 30
0.0
 10
10.4511059162
 20
9.0910350273
 30
0.0
 10
10.4510677962
 20
9.0910388396
 30
0.0
 10
10.4510182235
 20
9.0910480837
 30
0.0
 10
10.450930887
 20
9.0910623222
 30
0.0
 10
10.450806426
 20
9.0910836765
 30
0.0
 10
10.4506569421
 20
9.0911088678
 30
0.0
 10
10.450457676
 20
9.0911426078
 30
0.0
 10
10.4502085776
 20
9.0911847308
 30
0.0
 10
10.4498100289
 20
9.0912521567
 30
0.0
 10
10.4493118401
 20
9.0913364291
 30
0.0
 10
10.4487140148
 20
9.0914375603
 30
0.0
 10
10.4481161892
 20
9.0915386903
 30
0.0
 10
10.4473190884
 20
9.0916735308
 30
0.0
 10
10.4463227125
 20
9.0918420812
 30
0.0
 10
10.4451270614
 20
9.0920443417
 30
0.0
 10
10.4435328598
 20
9.0923140224
 30
0.0
 10
10.4415401079
 20
9.0926511233
 30
0.0
 10
10.4391488057
 20
9.0930556444
 30
0.0
 10
10.4367575034
 20
9.0934601655
 30
0.0
 10
10.4343662011
 20
9.0938646866
 30
0.0
 10
10.4319748989
 20
9.0942692076
 30
0.0
 10
10.4295835966
 20
9.0946737287
 30
0.0
 10
10.4271922943
 20
9.0950782498
 30
0.0
 10
10.4248009921
 20
9.0954827709
 30
0.0
 10
10.4224096898
 20
9.0958872919
 30
0.0
 10
10.4204169379
 20
9.0962243928
 30
0.0
 10
10.4188227364
 20
9.0964940735
 30
0.0
 10
10.4176270853
 20
9.0966963341
 30
0.0
 10
10.4166307093
 20
9.0968648846
 30
0.0
 10
10.4158336086
 20
9.0969997248
 30
0.0
 10
10.415235783
 20
9.0971008554
 30
0.0
 10
10.4146379575
 20
9.0972019847
 30
0.0
 10
10.4141397692
 20
9.0972862629
 30
0.0
 10
10.4137412194
 20
9.097353677
 30
0.0
 10
10.4134921241
 20
9.0973958301
 30
0.0
 10
10.4132928517
 20
9.0974295083
 30
0.0
 10
10.4131433867
 20
9.0974548882
 30
0.0
 10
10.4130188665
 20
9.0974756525
 30
0.0
 10
10.4129316359
 20
9.0974909443
 30
0.0
 10
10.4128818935
 20
9.0974985007
 30
0.0
 10
10.4128442946
 20
9.0975074973
 30
0.0
 10
10.4128078124
 20
9.0975037675
 30
0.0
 10
10.4127587799
 20
9.0975032336
 30
0.0
 10
10.4126731545
 20
9.097500231
 30
0.0
 10
10.4125507377
 20
9.0974970229
 30
0.0
 10
10.4124038781
 20
9.0974927104
 30
0.0
 10
10.4122080511
 20
9.097487122
 30
0.0
 10
10.4119632722
 20
9.0974800811
 30
0.0
 10
10.4115716233
 20
9.0974688467
 30
0.0
 10
10.4110820631
 20
9.097454793
 30
0.0
 10
10.4104945905
 20
9.0974379331
 30
0.0
 10
10.409907118
 20
9.097421072
 30
0.0
 10
10.4091238212
 20
9.097398591
 30
0.0
 10
10.4081447003
 20
9.0973704896
 30
0.0
 10
10.4069697552
 20
9.097336768
 30
0.0
 10
10.4054031618
 20
9.0972918057
 30
0.0
 10
10.40344492
 20
9.097235603
 30
0.0
 10
10.4010950298
 20
9.0971681597
 30
0.0
 10
10.3987451396
 20
9.0971007164
 30
0.0
 10
10.3963952494
 20
9.0970332731
 30
0.0
 10
10.3940453592
 20
9.0969658297
 30
0.0
 10
10.391695469
 20
9.0968983864
 30
0.0
 10
10.3893455788
 20
9.0968309431
 30
0.0
 10
10.3869956886
 20
9.0967634998
 30
0.0
 10
10.3846457985
 20
9.0966960565
 30
0.0
 10
10.3826875566
 20
9.0966398538
 30
0.0
 10
10.3811209632
 20
9.0965948916
 30
0.0
 10
10.3799460181
 20
9.0965611699
 30
0.0
 10
10.3789668972
 20
9.0965330685
 30
0.0
 10
10.3781836004
 20
9.0965105874
 30
0.0
 10
10.3775961278
 20
9.0964937268
 30
0.0
 10
10.3770086555
 20
9.096476865
 30
0.0
 10
10.3765190945
 20
9.0964628172
 30
0.0
 10
10.3761274473
 20
9.0964515708
 30
0.0
 10
10.3758826641
 20
9.0964445605
 30
0.0
 10
10.3756868459
 20
9.0964389093
 30
0.0
 10
10.3755399593
 20
9.0964347886
 30
0.0
 10
10.375417627
 20
9.0964309802
 30
0.0
 10
10.3753318508
 20
9.0964290492
 30
0.0
 10
10.37528306
 20
9.0964267983
 30
0.0
 10
10.3752458354
 20
9.0964283427
 30
0.0
 10
10.3752110244
 20
9.0964175306
 30
0.0
 10
10.3751637679
 20
9.0964074245
 30
0.0
 10
10.3750814612
 20
9.0963877307
 30
0.0
 10
10.3749636751
 20
9.0963606467
 30
0.0
 10
10.3748224196
 20
9.0963276964
 30
0.0
 10
10.3746340483
 20
9.0962839197
 30
0.0
 10
10.3743985946
 20
9.0962291451
 30
0.0
 10
10.3740218628
 20
9.0961415357
 30
0.0
 10
10.3735509501
 20
9.0960320136
 30
0.0
 10
10.3729858541
 20
9.0959005916
 30
0.0
 10
10.3724207582
 20
9.0957691683
 30
0.0
 10
10.371667297
 20
9.0955939378
 30
0.0
 10
10.3707254705
 20
9.0953748994
 30
0.0
 10
10.3695952787
 20
9.0951120535
 30
0.0
 10
10.3680883563
 20
9.0947615922
 30
0.0
 10
10.3662047033
 20
9.0943235156
 30
0.0
 10
10.3639443197
 20
9.0937978237
 30
0.0
 10
10.3616839361
 20
9.0932721318
 30
0.0
 10
10.3594235525
 20
9.0927464399
 30
0.0
 10
10.3571631689
 20
9.092220748
 30
0.0
 10
10.3549027853
 20
9.0916950561
 30
0.0
 10
10.3526424017
 20
9.0911693642
 30
0.0
 10
10.3503820181
 20
9.0906436723
 30
0.0
 10
10.3481216345
 20
9.0901179804
 30
0.0
 10
10.3462379815
 20
9.0896799038
 30
0.0
 10
10.3447310591
 20
9.0893294425
 30
0.0
 10
10.3436008673
 20
9.0890665965
 30
0.0
 10
10.3426590408
 20
9.0888475583
 30
0.0
 10
10.3419055796
 20
9.0886723276
 30
0.0
 10
10.3413404836
 20
9.0885409048
 30
0.0
 10
10.3407753881
 20
9.0884094809
 30
0.0
 10
10.3403044737
 20
9.0882999646
 30
0.0
 10
10.3399277454
 20
9.0882123436
 30
0.0
 10
10.339692283
 20
9.0881575984
 30
0.0
 10
10.3395039295
 20
9.0881137612
 30
0.0
 10
10.3393626193
 20
9.0880809958
 30
0.0
 10
10.3392450043
 20
9.0880533332
 30
0.0
 10
10.3391623922
 20
9.0880346722
 30
0.0
 10
10.339115625
 20
9.0880229114
 30
0.0
 10
10.3390793109
 20
9.0880171821
 30
0.0
 10
10.3390477318
 20
9.0879996363
 30
0.0
 10
10.3390039748
 20
9.0879803636
 30
0.0
 10
10.3389281695
 20
9.0879447159
 30
0.0
 10
10.3388194739
 20
9.0878947947
 30
0.0
 10
10.3386892114
 20
9.0878344595
 30
0.0
 10
10.3385154679
 20
9.0877541627
 30
0.0
 10
10.3382983091
 20
9.0876537402
 30
0.0
 10
10.3379508436
 20
9.087493093
 30
0.0
 10
10.3375165156
 20
9.0872922742
 30
0.0
 10
10.3369953203
 20
9.0870512958
 30
0.0
 10
10.3364741255
 20
9.0868103163
 30
0.0
 10
10.3357791989
 20
9.0864890107
 30
0.0
 10
10.3349105407
 20
9.0860873786
 30
0.0
 10
10.3338681508
 20
9.08560542
 30
0.0
 10
10.3324782977
 20
9.0849628087
 30
0.0
 10
10.3307409813
 20
9.0841595444
 30
0.0
 10
10.3286562015
 20
9.0831956274
 30
0.0
 10
10.3265714218
 20
9.0822317103
 30
0.0
 10
10.3244866421
 20
9.0812677932
 30
0.0
 10
10.3224018624
 20
9.0803038762
 30
0.0
 10
10.3203170827
 20
9.0793399591
 30
0.0
 10
10.318232303
 20
9.078376042
 30
0.0
 10
10.3161475233
 20
9.077412125
 30
0.0
 10
10.3140627436
 20
9.0764482079
 30
0.0
 10
10.3123254272
 20
9.0756449437
 30
0.0
 10
10.3109355741
 20
9.0750023323
 30
0.0
 10
10.3098931842
 20
9.0745203737
 30
0.0
 10
10.309024526
 20
9.0741187417
 30
0.0
 10
10.3083295994
 20
9.0737974359
 30
0.0
 10
10.3078084044
 20
9.0735564569
 30
0.0
 10
10.3072872099
 20
9.0733154767
 30
0.0
 10
10.3068528794
 20
9.0731146634
 30
0.0
 10
10.306505419
 20
9.072954005
 30
0.0
 10
10.3062882471
 20
9.0728536111
 30
0.0
 10
10.3061145306
 20
9.0727732557
 30
0.0
 10
10.3059841855
 20
9.0727130994
 30
0.0
 10
10.3058757485
 20
9.0726626184
 30
0.0
 10
10.3057994815
 20
9.0726279701
 30
0.0
 10
10.3057564641
 20
9.0726070962
 30
0.0
 10
10.3057226132
 20
9.0725944687
 30
0.0
 10
10.3056948319
 20
9.0725702668
 30
0.0
 10
10.3056556731
 20
9.0725420349
 30
0.0
 10
10.3055881315
 20
9.0724907481
 30
0.0
 10
10.3054911279
 20
9.0724184645
 30
0.0
 10
10.3053749443
 20
9.0723313034
 30
0.0
 10
10.3052199557
 20
9.0722152355
 30
0.0
 10
10.3050262463
 20
9.0720701004
 30
0.0
 10
10.3047162966
 20
9.0718379123
 30
0.0
 10
10.3043288645
 20
9.0715476675
 30
0.0
 10
10.3038639438
 20
9.0711993779
 30
0.0
 10
10.3033990237
 20
9.0708510872
 30
0.0
 10
10.30277913
 20
9.0703867
 30
0.0
 10
10.302004263
 20
9.0698062159
 30
0.0
 10
10.3010744225
 20
9.0691096349
 30
0.0
 10
10.2998346352
 20
9.0681808603
 30
0.0
 10
10.2982849011
 20
9.0670198921
 30
0.0
 10
10.2964252202
 20
9.0656267302
 30
0.0
 10
10.2945655393
 20
9.0642335683
 30
0.0
 10
10.2927058584
 20
9.0628404065
 30
0.0
 10
10.2908461775
 20
9.0614472446
 30
0.0
 10
10.2889864966
 20
9.0600540827
 30
0.0
 10
10.2871268157
 20
9.0586609208
 30
0.0
 10
10.2852671348
 20
9.0572677589
 30
0.0
 10
10.2834074539
 20
9.0558745971
 30
0.0
 10
10.2818577198
 20
9.0547136288
 30
0.0
 10
10.2806179325
 20
9.0537848542
 30
0.0
 10
10.279688092
 20
9.0530882733
 30
0.0
 10
10.278913225
 20
9.0525077892
 30
0.0
 10
10.2782933314
 20
9.0520434019
 30
0.0
 10
10.277828411
 20
9.0516951116
 30
0.0
 10
10.2773634915
 20
9.0513468204
 30
0.0
 10
10.2769760557
 20
9.0510565804
 30
0.0
 10
10.2766661135
 20
9.0508243826
 30
0.0
 10
10.2764723849
 20
9.0506792723
 30
0.0
 10
10.2763174358
 20
9.0505631534
 30
0.0
 10
10.2762011313
 20
9.0504761483
 30
0.0
 10
10.2761045059
 20
9.0504033765
 30
0.0
 10
10.2760362892
 20
9.0503529613
 30
0.0
 10
10.2759982121
 20
9.0503233327
 30
0.0
 10
10.2759671079
 20
9.0503034211
 30
0.0
 10
10.2759457374
 20
9.05027468
 30
0.0
 10
10.2759138482
 20
9.0502394383
 30
0.0
 10
10.275859624
 20
9.0501763305
 30
0.0
 10
10.2757813337
 20
9.0500869266
 30
0.0
 10
10.2756877395
 20
9.0499793208
 30
0.0
 10
10.2755628235
 20
9.0498359586
 30
0.0
 10
10.2754067208
 20
9.0496567175
 30
0.0
 10
10.2751569328
 20
9.0493699531
 30
0.0
 10
10.274844706
 20
9.0490114902
 30
0.0
 10
10.2744700303
 20
9.048581338
 30
0.0
 10
10.2740953556
 20
9.0481511849
 30
0.0
 10
10.273595789
 20
9.0475776477
 30
0.0
 10
10.2729713308
 20
9.0468607261
 30
0.0
 10
10.272221981
 20
9.0460004203
 30
0.0
 10
10.2712228478
 20
9.0448533458
 30
0.0
 10
10.2699739314
 20
9.0434195028
 30
0.0
 10
10.2684752317
 20
9.0416988911
 30
0.0
 10
10.266976532
 20
9.0399782794
 30
0.0
 10
10.2654778323
 20
9.0382576677
 30
0.0
 10
10.2639791326
 20
9.036537056
 30
0.0
 10
10.2624804329
 20
9.0348164443
 30
0.0
 10
10.2609817332
 20
9.0330958326
 30
0.0
 10
10.2594830335
 20
9.0313752209
 30
0.0
 10
10.2579843338
 20
9.0296546092
 30
0.0
 10
10.2567354174
 20
9.0282207661
 30
0.0
 10
10.2557362843
 20
9.0270736916
 30
0.0
 10
10.2549869344
 20
9.0262133858
 30
0.0
 10
10.2543624762
 20
9.0254964642
 30
0.0
 10
10.2538629097
 20
9.024922927
 30
0.0
 10
10.2534882345
 20
9.0244927742
 30
0.0
 10
10.2531135604
 20
9.0240626207
 30
0.0
 10
10.2528013289
 20
9.0237041617
 30
0.0
 10
10.2525515505
 20
9.0234173894
 30
0.0
 10
10.2523954234
 20
9.0232381684
 30
0.0
 10
10.2522705576
 20
9.023094765
 30
0.0
 10
10.2521768099
 20
9.0229872851
 30
0.0
 10
10.2520989997
 20
9.0228974873
 30
0.0
 10
10.2520439185
 20
9.0228350826
 30
0.0
 10
10.2520134024
 20
9.0227987143
 30
0.0
 10
10.2519878141
 20
9.0227734338
 30
0.0
 10
10.2519725514
 20
9.0227405248
 30
0.0
 10
10.2519485994
 20
9.022699307
 30
0.0
 10
10.2519083615
 20
9.0226259361
 30
0.0
 10
10.2518500015
 20
9.0225217688
 30
0.0
 10
10.251780345
 20
9.0223964905
 30
0.0
 10
10.2516873385
 20
9.0222295497
 30
0.0
 10
10.2515711253
 20
9.0220208405
 30
0.0
 10
10.2513851591
 20
9.0216869243
 30
0.0
 10
10.25115271
 20
9.0212695228
 30
0.0
 10
10.2508737673
 20
9.0207686436
 30
0.0
 10
10.2505948257
 20
9.0202677637
 30
0.0
 10
10.2502229031
 20
9.0195999242
 30
0.0
 10
10.249758
 20
9.0187651246
 30
0.0
 10
10.2492001162
 20
9.0177633652
 30
0.0
 10
10.2484562712
 20
9.0164276859
 30
0.0
 10
10.2475264649
 20
9.0147580868
 30
0.0
 10
10.2464106974
 20
9.0127545679
 30
0.0
 10
10.2452949299
 20
9.0107510491
 30
0.0
 10
10.2441791624
 20
9.0087475302
 30
0.0
 10
10.2430633949
 20
9.0067440113
 30
0.0
 10
10.2419476273
 20
9.0047404924
 30
0.0
 10
10.2408318598
 20
9.0027369735
 30
0.0
 10
10.2397160923
 20
9.0007334546
 30
0.0
 10
10.2386003248
 20
8.9987299357
 30
0.0
 10
10.2376705185
 20
8.9970603367
 30
0.0
 10
10.2369266735
 20
8.9957246574
 30
0.0
 10
10.2363687898
 20
8.994722898
 30
0.0
 10
10.2359038866
 20
8.9938880984
 30
0.0
 10
10.2355319642
 20
8.9932202588
 30
0.0
 10
10.2352530221
 20
8.9927193792
 30
0.0
 10
10.234974081
 20
8.992218499
 30
0.0
 10
10.2347416268
 20
8.9918011006
 30
0.0
 10
10.234555671
 20
8.9914671781
 30
0.0
 10
10.2344394313
 20
8.991258485
 30
0.0
 10
10.2343464793
 20
8.9910915111
 30
0.0
 10
10.2342766561
 20
8.9909663338
 30
0.0
 10
10.2342188178
 20
8.9908618505
 30
0.0
 10
10.2341776487
 20
8.9907890436
 30
0.0
 10
10.2341551888
 20
8.9907469223
 30
0.0
 10
10.2341353428
 20
8.9907167886
 30
0.0
 10
10.2341269684
 20
8.9906810843
 30
0.0
 10
10.2341118011
 20
8.9906354216
 30
0.0
 10
10.2340871227
 20
8.9905546066
 30
0.0
 10
10.2340508932
 20
8.9904396299
 30
0.0
 10
10.2340078349
 20
8.9903014552
 30
0.0
 10
10.2339502782
 20
8.9901172931
 30
0.0
 10
10.2338783822
 20
8.9898870662
 30
0.0
 10
10.2337633207
 20
8.9895187168
 30
0.0
 10
10.2336195033
 20
8.9890582754
 30
0.0
 10
10.2334469184
 20
8.9885057476
 30
0.0
 10
10.2332743346
 20
8.9879532193
 30
0.0
 10
10.2330442225
 20
8.9872165151
 30
0.0
 10
10.2327565825
 20
8.9862956348
 30
0.0
 10
10.2324114145
 20
8.9851905785
 30
0.0
 10
10.2319511904
 20
8.9837171701
 30
0.0
 10
10.2313759103
 20
8.9818754095
 30
0.0
 10
10.2306855742
 20
8.9796652969
 30
0.0
 10
10.2299952381
 20
8.9774551842
 30
0.0
 10
10.229304902
 20
8.9752450715
 30
0.0
 10
10.2286145659
 20
8.9730349589
 30
0.0
 10
10.2279242298
 20
8.9708248462
 30
0.0
 10
10.2272338937
 20
8.9686147335
 30
0.0
 10
10.2265435576
 20
8.9664046209
 30
0.0
 10
10.2258532215
 20
8.9641945082
 30
0.0
 10
10.2252779415
 20
8.9623527477
 30
0.0
 10
10.2248177174
 20
8.9608793392
 30
0.0
 10
10.2244725494
 20
8.9597742829
 30
0.0
 10
10.2241849093
 20
8.9588534026
 30
0.0
 10
10.2239547973
 20
8.9581166984
 30
0.0
 10
10.2237822131
 20
8.9575641703
 30
0.0
 10
10.2236096299
 20
8.9570116418
 30
0.0
 10
10.2234658071
 20
8.9565512027
 30
0.0
 10
10.2233507569
 20
8.9561828485
 30
0.0
 10
10.223278832
 20
8.9559526338
 30
0.0
 10
10.2232213345
 20
8.9557684466
 30
0.0
 10
10.2231780953
 20
8.9556303485
 30
0.0
 10
10.2231424318
 20
8.9555151323
 30
0.0
 10
10.223116743
 20
8.9554347449
 30
0.0
 10
10.2231031947
 20
8.955388397
 30
0.0
 10
10.2230898474
 20
8.9553547975
 30
0.0
 10
10.2230886787
 20
8.9553167585
 30
0.0
 10
10.2230828725
 20
8.9552675884
 30
0.0
 10
10.2230746908
 20
8.9551808193
 30
0.0
 10
10.2230619679
 20
8.9550572406
 30
0.0
 10
10.2230471433
 20
8.9549087848
 30
0.0
 10
10.2230272225
 20
8.9547109
 30
0.0
 10
10.2230023745
 20
8.9544635247
 30
0.0
 10
10.222962588
 20
8.9540677351
 30
0.0
 10
10.2229128651
 20
8.9535729944
 30
0.0
 10
10.2228531933
 20
8.9529793071
 30
0.0
 10
10.2227935226
 20
8.9523856193
 30
0.0
 10
10.2227139613
 20
8.9515940359
 30
0.0
 10
10.2226145098
 20
8.9506045564
 30
0.0
 10
10.2224951679
 20
8.9494171812
 30
0.0
 10
10.2223360454
 20
8.9478340141
 30
0.0
 10
10.2221371424
 20
8.9458550553
 30
0.0
 10
10.2218984587
 20
8.9434803048
 30
0.0
 10
10.221659775
 20
8.9411055542
 30
0.0
 10
10.2214210913
 20
8.9387308037
 30
0.0
 10
10.2211028463
 20
8.9355644696
 30
0.0
 10
10.2207050402
 20
8.931606552
 30
0.0
 10
10.2202276728
 20
8.9268570509
 30
0.0
 10
10.2197503054
 20
8.9221075498
 30
0.0
 10
10.2194320604
 20
8.9189412157
 30
0.0
 10
10.219272938
 20
8.9173580487
 30
0.0
  0
SPLINE
  5
35E
100
AcDbEntity
  8
0
100
AcDbSpline
 62
4
  6
CONTINUOUS
 70
0
 71
3
 72
615
 73
611
 74
0
 42
0.0000001
 43
0.0000001
 44
0.0000000001
 40
0.0
 40
0.0
 40
0.0
 40
0.0
 40
0.0078125
 40
0.015625
 40
0.0234375
 40
0.03125
 40
0.03515625
 40
0.0390625
 40
0.04296875
 40
0.046875
 40
0.05078125
 40
0.052734375
 40
0.0546875
 40
0.056640625
 40
0.0576171875
 40
0.05859375
 40
0.0595703125
 40
0.060546875
 40
0.0610351562
 40
0.0615234375
 40
0.0617675781
 40
0.0620117188
 40
0.0622558594
 40
0.0623779297
 40
0.0624389648
 40
0.0625
 40
0.0625610352
 40
0.0626220703
 40
0.0627441406
 40
0.0629882812
 40
0.0632324219
 40
0.0634765625
 40
0.0639648438
 40
0.064453125
 40
0.0654296875
 40
0.06640625
 40
0.0673828125
 40
0.068359375
 40
0.0703125
 40
0.072265625
 40
0.07421875
 40
0.078125
 40
0.08203125
 40
0.0859375
 40
0.08984375
 40
0.09375
 40
0.09765625
 40
0.1015625
 40
0.10546875
 40
0.109375
 40
0.11328125
 40
0.115234375
 40
0.1171875
 40
0.119140625
 40
0.1201171875
 40
0.12109375
 40
0.1220703125
 40
0.123046875
 40
0.1235351562
 40
0.1240234375
 40
0.1242675781
 40
0.1245117188
 40
0.1247558594
 40
0.1248779297
 40
0.1249389648
 40
0.125
 40
0.1250610352
 40
0.1251220703
 40
0.1252441406
 40
0.1254882812
 40
0.1257324219
 40
0.1259765625
 40
0.1264648438
 40
0.126953125
 40
0.1279296875
 40
0.12890625
 40
0.1298828125
 40
0.130859375
 40
0.1328125
 40
0.134765625
 40
0.13671875
 40
0.140625
 40
0.14453125
 40
0.1484375
 40
0.15234375
 40
0.15625
 40
0.16015625
 40
0.1640625
 40
0.16796875
 40
0.171875
 40
0.17578125
 40
0.177734375
 40
0.1796875
 40
0.181640625
 40
0.1826171875
 40
0.18359375
 40
0.1845703125
 40
0.185546875
 40
0.1860351562
 40
0.1865234375
 40
0.1867675781
 40
0.1870117188
 40
0.1872558594
 40
0.1873779297
 40
0.1874389648
 40
0.1875
 40
0.1875610352
 40
0.1876220703
 40
0.1877441406
 40
0.1879882812
 40
0.1882324219
 40
0.1884765625
 40
0.1889648438
 40
0.189453125
 40
0.1904296875
 40
0.19140625
 40
0.1923828125
 40
0.193359375
 40
0.1953125
 40
0.197265625
 40
0.19921875
 40
0.203125
 40
0.20703125
 40
0.2109375
 40
0.21484375
 40
0.21875
 40
0.22265625
 40
0.2265625
 40
0.23046875
 40
0.234375
 40
0.23828125
 40
0.240234375
 40
0.2421875
 40
0.244140625
 40
0.2451171875
 40
0.24609375
 40
0.2470703125
 40
0.248046875
 40
0.2485351562
 40
0.2490234375
 40
0.2492675781
 40
0.2495117188
 40
0.2497558594
 40
0.2498779297
 40
0.2499389648
 40
0.25
 40
0.2500610352
 40
0.2501220703
 40
0.2502441406
 40
0.2504882812
 40
0.2507324219
 40
0.2509765625
 40
0.2514648438
 40
0.251953125
 40
0.2529296875
 40
0.25390625
 40
0.2548828125
 40
0.255859375
 40
0.2578125
 40
0.259765625
 40
0.26171875
 40
0.265625
 40
0.26953125
 40
0.2734375
 40
0.27734375
 40
0.28125
 40
0.28515625
 40
0.2890625
 40
0.29296875
 40
0.296875
 40
0.30078125
 40
0.302734375
 40
0.3046875
 40
0.306640625
 40
0.3076171875
 40
0.30859375
 40
0.3095703125
 40
0.310546875
 40
0.3110351562
 40
0.3115234375
 40
0.3117675781
 40
0.3120117188
 40
0.3122558594
 40
0.3123779297
 40
0.3124389648
 40
0.3125
 40
0.3125610352
 40
0.3126220703
 40
0.3127441406
 40
0.3129882812
 40
0.3132324219
 40
0.3134765625
 40
0.3139648438
 40
0.314453125
 40
0.3154296875
 40
0.31640625
 40
0.3173828125
 40
0.318359375
 40
0.3203125
 40
0.322265625
 40
0.32421875
 40
0.328125
 40
0.33203125
 40
0.3359375
 40
0.33984375
 40
0.34375
 40
0.34765625
 40
0.3515625
 40
0.35546875
 40
0.359375
 40
0.36328125
 40
0.365234375
 40
0.3671875
 40
0.369140625
 40
0.3701171875
 40
0.37109375
 40
0.3720703125
 40
0.373046875
 40
0.3735351562
 40
0.3740234375
 40
0.3742675781
 40
0.3745117188
 40
0.3747558594
 40
0.3748779297
 40
0.3749389648
 40
0.375
 40
0.3750610352
 40
0.3751220703
 40
0.3752441406
 40
0.3754882812
 40
0.3757324219
 40
0.3759765625
 40
0.3764648438
 40
0.376953125
 40
0.3779296875
 40
0.37890625
 40
0.3798828125
 40
0.380859375
 40
0.3828125
 40
0.384765625
 40
0.38671875
 40
0.390625
 40
0.39453125
 40
0.3984375
 40
0.40234375
 40
0.40625
 40
0.41015625
 40
0.4140625
 40
0.41796875
 40
0.421875
 40
0.42578125
 40
0.427734375
 40
0.4296875
 40
0.431640625
 40
0.4326171875
 40
0.43359375
 40
0.4345703125
 40
0.435546875
 40
0.4360351562
 40
0.4365234375
 40
0.4367675781
 40
0.4370117188
 40
0.4372558594
 40
0.4373779297
 40
0.4374389648
 40
0.4375
 40
0.4375610352
 40
0.4376220703
 40
0.4377441406
 40
0.4379882812
 40
0.4382324219
 40
0.4384765625
 40
0.4389648438
 40
0.439453125
 40
0.4404296875
 40
0.44140625
 40
0.4423828125
 40
0.443359375
 40
0.4453125
 40
0.447265625
 40
0.44921875
 40
0.453125
 40
0.45703125
 40
0.4609375
 40
0.46484375
 40
0.46875
 40
0.47265625
 40
0.4765625
 40
0.48046875
 40
0.484375
 40
0.48828125
 40
0.490234375
 40
0.4921875
 40
0.494140625
 40
0.4951171875
 40
0.49609375
 40
0.4970703125
 40
0.498046875
 40
0.4985351562
 40
0.4990234375
 40
0.4992675781
 40
0.4995117188
 40
0.4997558594
 40
0.4998779297
 40
0.4999389648
 40
0.5
 40
0.5000610352
 40
0.5001220703
 40
0.5002441406
 40
0.5004882812
 40
0.5007324219
 40
0.5009765625
 40
0.5014648438
 40
0.501953125
 40
0.5029296875
 40
0.50390625
 40
0.5048828125
 40
0.505859375
 40
0.5078125
 40
0.509765625
 40
0.51171875
 40
0.515625
 40
0.51953125
 40
0.5234375
 40
0.52734375
 40
0.53125
 40
0.53515625
 40
0.5390625
 40
0.54296875
 40
0.546875
 40
0.55078125
 40
0.552734375
 40
0.5546875
 40
0.556640625
 40
0.5576171875
 40
0.55859375
 40
0.5595703125
 40
0.560546875
 40
0.5610351562
 40
0.5615234375
 40
0.5617675781
 40
0.5620117188
 40
0.5622558594
 40
0.5623779297
 40
0.5624389648
 40
0.5625
 40
0.5625610352
 40
0.5626220703
 40
0.5627441406
 40
0.5629882812
 40
0.5632324219
 40
0.5634765625
 40
0.5639648438
 40
0.564453125
 40
0.5654296875
 40
0.56640625
 40
0.5673828125
 40
0.568359375
 40
0.5703125
 40
0.572265625
 40
0.57421875
 40
0.578125
 40
0.58203125
 40
0.5859375
 40
0.58984375
 40
0.59375
 40
0.59765625
 40
0.6015625
 40
0.60546875
 40
0.609375
 40
0.61328125
 40
0.615234375
 40
0.6171875
 40
0.619140625
 40
0.6201171875
 40
0.62109375
 40
0.6220703125
 40
0.623046875
 40
0.6235351562
 40
0.6240234375
 40
0.6242675781
 40
0.6245117188
 40
0.6247558594
 40
0.6248779297
 40
0.6249389648
 40
0.625
 40
0.6250610352
 40
0.6251220703
 40
0.6252441406
 40
0.6254882812
 40
0.6257324219
 40
0.6259765625
 40
0.6264648438
 40
0.626953125
 40
0.6279296875
 40
0.62890625
 40
0.6298828125
 40
0.630859375
 40
0.6328125
 40
0.634765625
 40
0.63671875
 40
0.640625
 40
0.64453125
 40
0.6484375
 40
0.65234375
 40
0.65625
 40
0.66015625
 40
0.6640625
 40
0.66796875
 40
0.671875
 40
0.67578125
 40
0.677734375
 40
0.6796875
 40
0.681640625
 40
0.6826171875
 40
0.68359375
 40
0.6845703125
 40
0.685546875
 40
0.6860351562
 40
0.6865234375
 40
0.6867675781
 40
0.6870117188
 40
0.6872558594
 40
0.6873779297
 40
0.6874389648
 40
0.6875
 40
0.6875610352
 40
0.6876220703
 40
0.6877441406
 40
0.6879882812
 40
0.6882324219
 40
0.6884765625
 40
0.6889648438
 40
0.689453125
 40
0.6904296875
 40
0.69140625
 40
0.6923828125
 40
0.693359375
 40
0.6953125
 40
0.697265625
 40
0.69921875
 40
0.703125
 40
0.70703125
 40
0.7109375
 40
0.71484375
 40
0.71875
 40
0.72265625
 40
0.7265625
 40
0.73046875
 40
0.734375
 40
0.73828125
 40
0.740234375
 40
0.7421875
 40
0.744140625
 40
0.7451171875
 40
0.74609375
 40
0.7470703125
 40
0.748046875
 40
0.7485351562
 40
0.7490234375
 40
0.7492675781
 40
0.7495117188
 40
0.7497558594
 40
0.7498779297
 40
0.7499389648
 40
0.75
 40
0.7500610352
 40
0.7501220703
 40
0.7502441406
 40
0.7504882812
 40
0.7507324219
 40
0.7509765625
 40
0.7514648438
 40
0.751953125
 40
0.7529296875
 40
0.75390625
 40
0.7548828125
 40
0.755859375
 40
0.7578125
 40
0.759765625
 40
0.76171875
 40
0.765625
 40
0.76953125
 40
0.7734375
 40
0.77734375
 40
0.78125
 40
0.78515625
 40
0.7890625
 40
0.79296875
 40
0.796875
 40
0.80078125
 40
0.802734375
 40
0.8046875
 40
0.806640625
 40
0.8076171875
 40
0.80859375
 40
0.8095703125
 40
0.810546875
 40
0.8110351562
 40
0.8115234375
 40
0.8117675781
 40
0.8120117188
 40
0.8122558594
 40
0.8123779297
 40
0.8124389648
 40
0.8125
 40
0.8125610352
 40
0.8126220703
 40
0.8127441406
 40
0.8129882812
 40
0.8132324219
 40
0.8134765625
 40
0.8139648438
 40
0.814453125
 40
0.8154296875
 40
0.81640625
 40
0.8173828125
 40
0.818359375
 40
0.8203125
 40
0.822265625
 40
0.82421875
 40
0.828125
 40
0.83203125
 40
0.8359375
 40
0.83984375
 40
0.84375
 40
0.84765625
 40
0.8515625
 40
0.85546875
 40
0.859375
 40
0.86328125
 40
0.865234375
 40
0.8671875
 40
0.869140625
 40
0.8701171875
 40
0.87109375
 40
0.8720703125
 40
0.873046875
 40
0.8735351562
 40
0.8740234375
 40
0.8742675781
 40
0.8745117188
 40
0.8747558594
 40
0.8748779297
 40
0.8749389648
 40
0.875
 40
0.8750610352
 40
0.8751220703
 40
0.8752441406
 40
0.8754882812
 40
0.8757324219
 40
0.8759765625
 40
0.8764648438
 40
0.876953125
 40
0.8779296875
 40
0.87890625
 40
0.8798828125
 40
0.880859375
 40
0.8828125
 40
0.884765625
 40
0.88671875
 40
0.890625
 40
0.89453125
 40
0.8984375
 40
0.90234375
 40
0.90625
 40
0.91015625
 40
0.9140625
 40
0.91796875
 40
0.921875
 40
0.92578125
 40
0.927734375
 40
0.9296875
 40
0.931640625
 40
0.9326171875
 40
0.93359375
 40
0.9345703125
 40
0.935546875
 40
0.9360351562
 40
0.9365234375
 40
0.9367675781
 40
0.9370117188
 40
0.9372558594
 40
0.9373779297
 40
0.9374389648
 40
0.9375
 40
0.9375610352
 40
0.9376220703
 40
0.9377441406
 40
0.9379882812
 40
0.9382324219
 40
0.9384765625
 40
0.9389648438
 40
0.939453125
 40
0.9404296875
 40
0.94140625
 40
0.9423828125
 40
0.943359375
 40
0.9453125
 40
0.947265625
 40
0.94921875
 40
0.953125
 40
0.95703125
 40
0.9609375
 40
0.96484375
 40
0.96875
 40
0.9765625
 40
0.984375
 40
0.9921875
 40
1.0
 40
1.0
 40
1.0
 40
1.0
 10
10.219272938
 20
8.9173580656
 30
0.0
 10
10.2194265438
 20
8.9157808195
 30
0.0
 10
10.2197337555
 20
8.9126263274
 30
0.0
 10
10.220194573
 20
8.9078945892
 30
0.0
 10
10.2206553905
 20
8.903162851
 30
0.0
 10
10.221039405
 20
8.8992197359
 30
0.0
 10
10.2213466167
 20
8.8960652438
 30
0.0
 10
10.2215770255
 20
8.8936993747
 30
0.0
 10
10.2218074342
 20
8.8913335056
 30
0.0
 10
10.222037843
 20
8.8889676365
 30
0.0
 10
10.2222298502
 20
8.8869960789
 30
0.0
 10
10.2223834561
 20
8.8854188329
 30
0.0
 10
10.2224986605
 20
8.8842358983
 30
0.0
 10
10.2225946641
 20
8.8832501195
 30
0.0
 10
10.2226714671
 20
8.8824614965
 30
0.0
 10
10.222729069
 20
8.8818700292
 30
0.0
 10
10.2227866721
 20
8.8812785621
 30
0.0
 10
10.2228346711
 20
8.8807856723
 30
0.0
 10
10.2228730784
 20
8.8803913615
 30
0.0
 10
10.2228970644
 20
8.8801449149
 30
0.0
 10
10.2229162957
 20
8.8799477631
 30
0.0
 10
10.222930603
 20
8.8797998843
 30
0.0
 10
10.2229428951
 20
8.8796766995
 30
0.0
 10
10.2229507747
 20
8.8795903768
 30
0.0
 10
10.2229564093
 20
8.8795411952
 30
0.0
 10
10.2229574464
 20
8.8795038988
 30
0.0
 10
10.2229706727
 20
8.8794681705
 30
0.0
 10
10.222984056
 20
8.8794199859
 30
0.0
 10
10.2230094578
 20
8.8793359175
 30
0.0
 10
10.2230447103
 20
8.8792156867
 30
0.0
 10
10.2230874567
 20
8.8790714667
 30
0.0
 10
10.223144297
 20
8.8788791535
 30
0.0
 10
10.2232154004
 20
8.8786387687
 30
0.0
 10
10.2233291362
 20
8.8782541494
 30
0.0
 10
10.2234713162
 20
8.8777733765
 30
0.0
 10
10.2236419278
 20
8.8771964484
 30
0.0
 10
10.2238125406
 20
8.8766195206
 30
0.0
 10
10.2240400238
 20
8.8758502833
 30
0.0
 10
10.224324378
 20
8.8748887368
 30
0.0
 10
10.2246656031
 20
8.873734881
 30
0.0
 10
10.2251205698
 20
8.8721964065
 30
0.0
 10
10.2256892781
 20
8.8702733135
 30
0.0
 10
10.2263717282
 20
8.8679656018
 30
0.0
 10
10.2270541782
 20
8.8656578901
 30
0.0
 10
10.2277366283
 20
8.8633501784
 30
0.0
 10
10.2284190783
 20
8.8610424668
 30
0.0
 10
10.2291015283
 20
8.8587347551
 30
0.0
 10
10.2297839784
 20
8.8564270434
 30
0.0
 10
10.2304664284
 20
8.8541193317
 30
0.0
 10
10.2311488785
 20
8.8518116201
 30
0.0
 10
10.2317175869
 20
8.849888527
 30
0.0
 10
10.2321725535
 20
8.8483500526
 30
0.0
 10
10.2325137786
 20
8.8471961967
 30
0.0
 10
10.2327981327
 20
8.8462346502
 30
0.0
 10
10.2330256162
 20
8.845465413
 30
0.0
 10
10.2331962284
 20
8.844888485
 30
0.0
 10
10.2333668418
 20
8.8443115574
 30
0.0
 10
10.2335090162
 20
8.8438307832
 30
0.0
 10
10.2336227634
 20
8.8434461665
 30
0.0
 10
10.2336938379
 20
8.843205775
 30
0.0
 10
10.2337507375
 20
8.8430134756
 30
0.0
 10
10.2337933028
 20
8.8428692135
 30
0.0
 10
10.233829122
 20
8.8427491144
 30
0.0
 10
10.2338535122
 20
8.8426648108
 30
0.0
 10
10.2338685163
 20
8.8426170031
 30
0.0
 10
10.233876764
 20
8.842580117
 30
0.0
 10
10.2338964998
 20
8.8425471693
 30
0.0
 10
10.2339188071
 20
8.8425018652
 30
0.0
 10
10.2339597119
 20
8.8424232231
 30
0.0
 10
10.2340171712
 20
8.8423105427
 30
0.0
 10
10.2340865401
 20
8.8421754695
 30
0.0
 10
10.2341788861
 20
8.8419953218
 30
0.0
 10
10.2342943685
 20
8.8417701542
 30
0.0
 10
10.2344791125
 20
8.8414098766
 30
0.0
 10
10.2347100521
 20
8.8409595329
 30
0.0
 10
10.2349871755
 20
8.8404191191
 30
0.0
 10
10.2352643
 20
8.8398787056
 30
0.0
 10
10.2356337989
 20
8.8391581542
 30
0.0
 10
10.2360956727
 20
8.8382574649
 30
0.0
 10
10.2366499212
 20
8.8371766378
 30
0.0
 10
10.2373889193
 20
8.835735535
 30
0.0
 10
10.2383126668
 20
8.8339341564
 30
0.0
 10
10.2394211638
 20
8.8317725022
 30
0.0
 10
10.2405296609
 20
8.829610848
 30
0.0
 10
10.2416381579
 20
8.8274491937
 30
0.0
 10
10.2427466549
 20
8.8252875395
 30
0.0
 10
10.243855152
 20
8.8231258853
 30
0.0
 10
10.244963649
 20
8.820964231
 30
0.0
 10
10.246072146
 20
8.8188025768
 30
0.0
 10
10.247180643
 20
8.8166409226
 30
0.0
 10
10.2481043906
 20
8.814839544
 30
0.0
 10
10.2488433886
 20
8.8133984412
 30
0.0
 10
10.2493976371
 20
8.8123176141
 30
0.0
 10
10.2498595108
 20
8.8114169248
 30
0.0
 10
10.2502290099
 20
8.8106963734
 30
0.0
 10
10.250506134
 20
8.8101559598
 30
0.0
 10
10.2507832591
 20
8.8096155466
 30
0.0
 10
10.2510141933
 20
8.8091652007
 30
0.0
 10
10.2511989482
 20
8.8088049276
 30
0.0
 10
10.251314403
 20
8.8085797488
 30
0.0
 10
10.2514068057
 20
8.8083996242
 30
0.0
 10
10.2514760014
 20
8.8082644803
 30
0.0
 10
10.2515340026
 20
8.8081520209
 30
0.0
 10
10.25157394
 20
8.8080729843
 30
0.0
 10
10.2515977972
 20
8.8080283124
 30
0.0
 10
10.2516127723
 20
8.8079934229
 30
0.0
 10
10.2516389008
 20
8.8079638296
 30
0.0
 10
10.2516698484
 20
8.8079225246
 30
0.0
 10
10.2517258192
 20
8.8078511014
 30
0.0
 10
10.25180483
 20
8.8077486184
 30
0.0
 10
10.2519000485
 20
8.8076258313
 30
0.0
 10
10.2520268648
 20
8.807462048
 30
0.0
 10
10.2521854338
 20
8.8072573418
 30
0.0
 10
10.2524391169
 20
8.8069297991
 30
0.0
 10
10.2527562302
 20
8.8065203751
 30
0.0
 10
10.2531367622
 20
8.8060290645
 30
0.0
 10
10.2535172952
 20
8.8055377543
 30
0.0
 10
10.2540246722
 20
8.8048826739
 30
0.0
 10
10.2546588936
 20
8.8040638235
 30
0.0
 10
10.2554199591
 20
8.8030812029
 30
0.0
 10
10.2564347133
 20
8.8017710422
 30
0.0
 10
10.2577031559
 20
8.8001333413
 30
0.0
 10
10.2592252871
 20
8.7981681003
 30
0.0
 10
10.2607474183
 20
8.7962028592
 30
0.0
 10
10.2622695495
 20
8.7942376181
 30
0.0
 10
10.2637916807
 20
8.7922723771
 30
0.0
 10
10.2653138119
 20
8.790307136
 30
0.0
 10
10.2668359431
 20
8.7883418949
 30
0.0
 10
10.2683580743
 20
8.7863766539
 30
0.0
 10
10.2698802054
 20
8.7844114128
 30
0.0
 10
10.2711486481
 20
8.7827737119
 30
0.0
 10
10.2721634022
 20
8.7814635512
 30
0.0
 10
10.2729244678
 20
8.7804809307
 30
0.0
 10
10.2735586891
 20
8.7796620802
 30
0.0
 10
10.2740660663
 20
8.7790069999
 30
0.0
 10
10.2744465989
 20
8.7785156894
 30
0.0
 10
10.2748271323
 20
8.7780243799
 30
0.0
 10
10.275144241
 20
8.7776149525
 30
0.0
 10
10.2753979335
 20
8.7772874167
 30
0.0
 10
10.2755564789
 20
8.7770826929
 30
0.0
 10
10.2756833436
 20
8.7769189458
 30
0.0
 10
10.2757784144
 20
8.7767960481
 30
0.0
 10
10.2758578872
 20
8.7766939112
 30
0.0
 10
10.2759130332
 20
8.7766218701
 30
0.0
 10
10.2759453025
 20
8.7765815552
 30
0.0
 10
10.2759673711
 20
8.7765489205
 30
0.0
 10
10.2759975943
 20
8.776525454
 30
0.0
 10
10.2760350475
 20
8.7764909674
 30
0.0
 10
10.2761019158
 20
8.7764321058
 30
0.0
 10
10.2761967491
 20
8.7763472389
 30
0.0
 10
10.2763108457
 20
8.776245732
 30
0.0
 10
10.2764628708
 20
8.776110273
 30
0.0
 10
10.2766529378
 20
8.7759409891
 30
0.0
 10
10.276957025
 20
8.7756701127
 30
0.0
 10
10.2773371408
 20
8.7753315247
 30
0.0
 10
10.2777932769
 20
8.7749252159
 30
0.0
 10
10.2782494138
 20
8.774518908
 30
0.0
 10
10.2788575961
 20
8.7739771638
 30
0.0
 10
10.279617824
 20
8.7732999836
 30
0.0
 10
10.2805300974
 20
8.7724873674
 30
0.0
 10
10.281746462
 20
8.7714038791
 30
0.0
 10
10.2832669177
 20
8.7700495187
 30
0.0
 10
10.2850914646
 20
8.7684242862
 30
0.0
 10
10.2869160115
 20
8.7667990538
 30
0.0
 10
10.2887405583
 20
8.7651738213
 30
0.0
 10
10.2905651052
 20
8.7635485889
 30
0.0
 10
10.2923896521
 20
8.7619233564
 30
0.0
 10
10.294214199
 20
8.760298124
 30
0.0
 10
10.2960387458
 20
8.7586728915
 30
0.0
 10
10.2978632927
 20
8.7570476591
 30
0.0
 10
10.2993837484
 20
8.7556932987
 30
0.0
 10
10.300600113
 20
8.7546098104
 30
0.0
 10
10.3015123865
 20
8.7537971942
 30
0.0
 10
10.3022726143
 20
8.7531200139
 30
0.0
 10
10.3028807966
 20
8.7525782698
 30
0.0
 10
10.3033369332
 20
8.7521719615
 30
0.0
 10
10.3037930705
 20
8.7517656542
 30
0.0
 10
10.3041731828
 20
8.7514270618
 30
0.0
 10
10.3044772772
 20
8.7511561944
 30
0.0
 10
10.3046673258
 20
8.7509868873
 30
0.0
 10
10.3048193886
 20
8.750851476
 30
0.0
 10
10.3049333699
 20
8.7507498236
 30
0.0
 10
10.3050285639
 20
8.7506654117
 30
0.0
 10
10.3050947885
 20
8.7506057378
 30
0.0
 10
10.3051332731
 20
8.7505725528
 30
0.0
 10
10.3051603281
 20
8.7505450882
 30
0.0
 10
10.3051942956
 20
8.7505274698
 30
0.0
 10
10.3052371745
 20
8.7505005442
 30
0.0
 10
10.3053133359
 20
8.7504550245
 30
0.0
 10
10.3054215505
 20
8.7503891598
 30
0.0
 10
10.3055516595
 20
8.7503104802
 30
0.0
 10
10.3057250503
 20
8.750205449
 30
0.0
 10
10.3059418189
 20
8.7500742029
 30
0.0
 10
10.3062886319
 20
8.7498641851
 30
0.0
 10
10.3067221538
 20
8.7496016711
 30
0.0
 10
10.3072423777
 20
8.7492866508
 30
0.0
 10
10.3077626023
 20
8.7489716315
 30
0.0
 10
10.3084562348
 20
8.7485516053
 30
0.0
 10
10.3093232755
 20
8.7480265727
 30
0.0
 10
10.3103637243
 20
8.7473965336
 30
0.0
 10
10.3117509894
 20
8.7465564814
 30
0.0
 10
10.3134850707
 20
8.7455064162
 30
0.0
 10
10.3155659683
 20
8.7442463379
 30
0.0
 10
10.317646866
 20
8.7429862597
 30
0.0
 10
10.3197277636
 20
8.7417261814
 30
0.0
 10
10.3218086612
 20
8.7404661032
 30
0.0
 10
10.3238895589
 20
8.7392060249
 30
0.0
 10
10.3259704565
 20
8.7379459467
 30
0.0
 10
10.3280513541
 20
8.7366858684
 30
0.0
 10
10.3301322517
 20
8.7354257901
 30
0.0
 10
10.3318663331
 20
8.7343757249
 30
0.0
 10
10.3332535982
 20
8.7335356727
 30
0.0
 10
10.334294047
 20
8.7329056336
 30
0.0
 10
10.3351610877
 20
8.732380601
 30
0.0
 10
10.3358547202
 20
8.731960575
 30
0.0
 10
10.3363749445
 20
8.7316455552
 30
0.0
 10
10.3368951693
 20
8.7313305365
 30
0.0
 10
10.3373286885
 20
8.7310680175
 30
0.0
 10
10.3376755071
 20
8.7308580098
 30
0.0
 10
10.3378922614
 20
8.7307267381
 30
0.0
 10
10.3380656815
 20
8.7306217595
 30
0.0
 10
10.3381957011
 20
8.7305429194
 30
0.0
 10
10.3383041955
 20
8.7304775569
 30
0.0
 10
10.3383798575
 20
8.7304311406
 30
0.0
 10
10.3384235364
 20
8.7304056516
 30
0.0
 10
10.3384550464
 20
8.7303836204
 30
0.0
 10
10.3384913315
 20
8.7303727296
 30
0.0
 10
10.338538046
 20
8.7303543226
 30
0.0
 10
10.3386205725
 20
8.730323921
 30
0.0
 10
10.3387380618
 20
8.7302795436
 30
0.0
 10
10.3388792225
 20
8.7302266958
 30
0.0
 10
10.3390673762
 20
8.7301560905
 30
0.0
 10
10.3393025891
 20
8.7300678825
 30
0.0
 10
10.339678918
 20
8.7299267224
 30
0.0
 10
10.3401493333
 20
8.7297502817
 30
0.0
 10
10.3407138298
 20
8.7295385489
 30
0.0
 10
10.3412783268
 20
8.7293268171
 30
0.0
 10
10.3420309893
 20
8.7290445076
 30
0.0
 10
10.3429718175
 20
8.728691621
 30
0.0
 10
10.3441008113
 20
8.7282681569
 30
0.0
 10
10.3456061364
 20
8.7277035382
 30
0.0
 10
10.3474877928
 20
8.7269977648
 30
0.0
 10
10.3497457804
 20
8.7261508367
 30
0.0
 10
10.3520037681
 20
8.7253039087
 30
0.0
 10
10.3542617557
 20
8.7244569806
 30
0.0
 10
10.3565197433
 20
8.7236100525
 30
0.0
 10
10.358777731
 20
8.7227631244
 30
0.0
 10
10.3610357186
 20
8.7219161964
 30
0.0
 10
10.3632937062
 20
8.7210692683
 30
0.0
 10
10.3655516939
 20
8.7202223402
 30
0.0
 10
10.3674333502
 20
8.7195165668
 30
0.0
 10
10.3689386753
 20
8.7189519481
 30
0.0
 10
10.3700676691
 20
8.7185284841
 30
0.0
 10
10.3710084973
 20
8.7181755974
 30
0.0
 10
10.3717611599
 20
8.7178932881
 30
0.0
 10
10.3723256567
 20
8.7176815558
 30
0.0
 10
10.3728901539
 20
8.7174698247
 30
0.0
 10
10.3733605671
 20
8.7172933786
 30
0.0
 10
10.3737369001
 20
8.7171522296
 30
0.0
 10
10.3739721028
 20
8.7170639934
 30
0.0
 10
10.3741602774
 20
8.7169934459
 30
0.0
 10
10.3743013742
 20
8.7169404216
 30
0.0
 10
10.3744190637
 20
8.7168965963
 30
0.0
 10
10.3745012326
 20
8.7168652091
 30
0.0
 10
10.3745485201
 20
8.7168483813
 30
0.0
 10
10.3745830453
 20
8.7168326397
 30
0.0
 10
10.3746211652
 20
8.7168288274
 30
0.0
 10
10.374670738
 20
8.7168195833
 30
0.0
 10
10.3747580744
 20
8.7168053448
 30
0.0
 10
10.3748825354
 20
8.7167839905
 30
0.0
 10
10.3750320193
 20
8.7167587992
 30
0.0
 10
10.3752312855
 20
8.7167250592
 30
0.0
 10
10.3754803838
 20
8.7166829362
 30
0.0
 10
10.3758789325
 20
8.7166155103
 30
0.0
 10
10.3763771213
 20
8.7165312378
 30
0.0
 10
10.3769749466
 20
8.7164301067
 30
0.0
 10
10.3775727723
 20
8.7163289766
 30
0.0
 10
10.378369873
 20
8.7161941362
 30
0.0
 10
10.3793662489
 20
8.7160255858
 30
0.0
 10
10.3805619001
 20
8.7158233253
 30
0.0
 10
10.3821561016
 20
8.7155536445
 30
0.0
 10
10.3841488535
 20
8.7152165436
 30
0.0
 10
10.3865401558
 20
8.7148120226
 30
0.0
 10
10.388931458
 20
8.7144075015
 30
0.0
 10
10.3913227603
 20
8.7140029804
 30
0.0
 10
10.3937140626
 20
8.7135984593
 30
0.0
 10
10.3961053648
 20
8.7131939383
 30
0.0
 10
10.3984966671
 20
8.7127894172
 30
0.0
 10
10.4008879694
 20
8.7123848961
 30
0.0
 10
10.4032792716
 20
8.7119803751
 30
0.0
 10
10.4052720235
 20
8.7116432742
 30
0.0
 10
10.406866225
 20
8.7113735934
 30
0.0
 10
10.4080618762
 20
8.7111713329
 30
0.0
 10
10.4090582521
 20
8.7110027824
 30
0.0
 10
10.4098553529
 20
8.7108679422
 30
0.0
 10
10.4104531785
 20
8.7107668116
 30
0.0
 10
10.4110510039
 20
8.7106656823
 30
0.0
 10
10.4115491922
 20
8.7105814041
 30
0.0
 10
10.411947742
 20
8.71051399
 30
0.0
 10
10.4121968374
 20
8.7104718369
 30
0.0
 10
10.4123961098
 20
8.7104381587
 30
0.0
 10
10.4125455747
 20
8.7104127788
 30
0.0
 10
10.412670095
 20
8.7103920145
 30
0.0
 10
10.4127573256
 20
8.7103767226
 30
0.0
 10
10.4128070679
 20
8.7103691663
 30
0.0
 10
10.4128446668
 20
8.7103601697
 30
0.0
 10
10.4128811491
 20
8.7103638994
 30
0.0
 10
10.4129301815
 20
8.7103644334
 30
0.0
 10
10.4130158069
 20
8.7103674359
 30
0.0
 10
10.4131382238
 20
8.710370644
 30
0.0
 10
10.4132850834
 20
8.7103749566
 30
0.0
 10
10.4134809103
 20
8.710380545
 30
0.0
 10
10.4137256892
 20
8.7103875859
 30
0.0
 10
10.4141173381
 20
8.7103988203
 30
0.0
 10
10.4146068983
 20
8.710412874
 30
0.0
 10
10.4151943709
 20
8.7104297339
 30
0.0
 10
10.4157818434
 20
8.710446595
 30
0.0
 10
10.4165651402
 20
8.710469076
 30
0.0
 10
10.4175442611
 20
8.7104971774
 30
0.0
 10
10.4187192062
 20
8.710530899
 30
0.0
 10
10.4202857996
 20
8.7105758612
 30
0.0
 10
10.4222440415
 20
8.710632064
 30
0.0
 10
10.4245939317
 20
8.7106995073
 30
0.0
 10
10.4269438218
 20
8.7107669506
 30
0.0
 10
10.429293712
 20
8.7108343939
 30
0.0
 10
10.4316436022
 20
8.7109018372
 30
0.0
 10
10.4339934924
 20
8.7109692805
 30
0.0
 10
10.4363433826
 20
8.7110367239
 30
0.0
 10
10.4386932728
 20
8.7111041672
 30
0.0
 10
10.441043163
 20
8.7111716105
 30
0.0
 10
10.4430014048
 20
8.7112278132
 30
0.0
 10
10.4445679983
 20
8.7112727754
 30
0.0
 10
10.4457429434
 20
8.7113064971
 30
0.0
 10
10.4467220643
 20
8.7113345984
 30
0.0
 10
10.447505361
 20
8.7113570796
 30
0.0
 10
10.4480928336
 20
8.7113739402
 30
0.0
 10
10.4486803059
 20
8.711390802
 30
0.0
 10
10.449169867
 20
8.7114048498
 30
0.0
 10
10.4495615142
 20
8.7114160962
 30
0.0
 10
10.4498062973
 20
8.7114231065
 30
0.0
 10
10.4500021155
 20
8.7114287577
 30
0.0
 10
10.4501490021
 20
8.7114328784
 30
0.0
 10
10.4502713344
 20
8.7114366868
 30
0.0
 10
10.4503571106
 20
8.7114386178
 30
0.0
 10
10.4504059015
 20
8.7114408687
 30
0.0
 10
10.450443126
 20
8.7114393243
 30
0.0
 10
10.450477937
 20
8.7114501364
 30
0.0
 10
10.4505251935
 20
8.7114602425
 30
0.0
 10
10.4506075002
 20
8.7114799362
 30
0.0
 10
10.4507252863
 20
8.7115070203
 30
0.0
 10
10.4508665418
 20
8.7115399706
 30
0.0
 10
10.4510549132
 20
8.7115837473
 30
0.0
 10
10.4512903668
 20
8.7116385219
 30
0.0
 10
10.4516670986
 20
8.7117261313
 30
0.0
 10
10.4521380113
 20
8.7118356534
 30
0.0
 10
10.4527031074
 20
8.7119670754
 30
0.0
 10
10.4532682032
 20
8.7120984987
 30
0.0
 10
10.4540216644
 20
8.7122737292
 30
0.0
 10
10.4549634909
 20
8.7124927675
 30
0.0
 10
10.4560936827
 20
8.7127556135
 30
0.0
 10
10.4576006051
 20
8.7131060748
 30
0.0
 10
10.4594842581
 20
8.7135441514
 30
0.0
 10
10.4617446417
 20
8.7140698433
 30
0.0
 10
10.4640050253
 20
8.7145955352
 30
0.0
 10
10.4662654089
 20
8.7151212271
 30
0.0
 10
10.4685257925
 20
8.715646919
 30
0.0
 10
10.4707861761
 20
8.7161726109
 30
0.0
 10
10.4730465597
 20
8.7166983028
 30
0.0
 10
10.4753069433
 20
8.7172239947
 30
0.0
 10
10.4775673269
 20
8.7177496866
 30
0.0
 10
10.4794509799
 20
8.7181877632
 30
0.0
 10
10.4809579024
 20
8.7185382245
 30
0.0
 10
10.4820880941
 20
8.7188010705
 30
0.0
 10
10.4830299207
 20
8.7190201087
 30
0.0
 10
10.4837833818
 20
8.7191953394
 30
0.0
 10
10.4843484778
 20
8.7193267622
 30
0.0
 10
10.4849135734
 20
8.719458186
 30
0.0
 10
10.4853844877
 20
8.7195677024
 30
0.0
 10
10.4857612161
 20
8.7196553234
 30
0.0
 10
10.4859966785
 20
8.7197100686
 30
0.0
 10
10.4861850319
 20
8.7197539058
 30
0.0
 10
10.4863263421
 20
8.7197866712
 30
0.0
 10
10.4864439571
 20
8.7198143337
 30
0.0
 10
10.4865265692
 20
8.7198329947
 30
0.0
 10
10.4865733364
 20
8.7198447556
 30
0.0
 10
10.4866096505
 20
8.7198504848
 30
0.0
 10
10.4866412296
 20
8.7198680307
 30
0.0
 10
10.4866849866
 20
8.7198873034
 30
0.0
 10
10.4867607919
 20
8.7199229511
 30
0.0
 10
10.4868694875
 20
8.7199728723
 30
0.0
 10
10.48699975
 20
8.7200332075
 30
0.0
 10
10.4871734935
 20
8.7201135043
 30
0.0
 10
10.4873906523
 20
8.7202139268
 30
0.0
 10
10.4877381179
 20
8.7203745739
 30
0.0
 10
10.4881724459
 20
8.7205753928
 30
0.0
 10
10.4886936411
 20
8.7208163711
 30
0.0
 10
10.489214836
 20
8.7210573507
 30
0.0
 10
10.4899097626
 20
8.7213786563
 30
0.0
 10
10.4907784208
 20
8.7217802884
 30
0.0
 10
10.4918208106
 20
8.7222622469
 30
0.0
 10
10.4932106638
 20
8.7229048583
 30
0.0
 10
10.4949479802
 20
8.7237081225
 30
0.0
 10
10.4970327599
 20
8.7246720396
 30
0.0
 10
10.4991175396
 20
8.7256359567
 30
0.0
 10
10.5012023193
 20
8.7265998737
 30
0.0
 10
10.503287099
 20
8.7275637908
 30
0.0
 10
10.5053718787
 20
8.7285277079
 30
0.0
 10
10.5074566584
 20
8.729491625
 30
0.0
 10
10.5095414381
 20
8.730455542
 30
0.0
 10
10.5116262178
 20
8.7314194591
 30
0.0
 10
10.5133635342
 20
8.7322227233
 30
0.0
 10
10.5147533874
 20
8.7328653347
 30
0.0
 10
10.5157957772
 20
8.7333472932
 30
0.0
 10
10.5166644355
 20
8.7337489253
 30
0.0
 10
10.517359362
 20
8.7340702311
 30
0.0
 10
10.517880557
 20
8.7343112101
 30
0.0
 10
10.5184017515
 20
8.7345521903
 30
0.0
 10
10.518836082
 20
8.7347530036
 30
0.0
 10
10.5191835424
 20
8.734913662
 30
0.0
 10
10.5194007144
 20
8.7350140559
 30
0.0
 10
10.5195744308
 20
8.7350944113
 30
0.0
 10
10.519704776
 20
8.7351545676
 30
0.0
 10
10.519813213
 20
8.7352050486
 30
0.0
 10
10.5198894799
 20
8.7352396969
 30
0.0
 10
10.5199324973
 20
8.7352605708
 30
0.0
 10
10.5199663483
 20
8.7352731983
 30
0.0
 10
10.5199941295
 20
8.7352974002
 30
0.0
 10
10.5200332883
 20
8.7353256321
 30
0.0
 10
10.5201008299
 20
8.7353769189
 30
0.0
 10
10.5201978335
 20
8.7354492024
 30
0.0
 10
10.5203140172
 20
8.7355363636
 30
0.0
 10
10.5204690058
 20
8.7356524314
 30
0.0
 10
10.5206627151
 20
8.7357975666
 30
0.0
 10
10.5209726649
 20
8.7360297547
 30
0.0
 10
10.521360097
 20
8.7363199995
 30
0.0
 10
10.5218250176
 20
8.7366682891
 30
0.0
 10
10.5222899378
 20
8.7370165798
 30
0.0
 10
10.5229098314
 20
8.737480967
 30
0.0
 10
10.5236846985
 20
8.7380614511
 30
0.0
 10
10.5246145389
 20
8.7387580321
 30
0.0
 10
10.5258543262
 20
8.7396868067
 30
0.0
 10
10.5274040603
 20
8.7408477749
 30
0.0
 10
10.5292637412
 20
8.7422409368
 30
0.0
 10
10.5311234221
 20
8.7436340986
 30
0.0
 10
10.532983103
 20
8.7450272605
 30
0.0
 10
10.5348427839
 20
8.7464204224
 30
0.0
 10
10.5367024648
 20
8.7478135843
 30
0.0
 10
10.5385621458
 20
8.7492067462
 30
0.0
 10
10.5404218267
 20
8.750599908
 30
0.0
 10
10.5422815076
 20
8.7519930699
 30
0.0
 10
10.5438312417
 20
8.7531540382
 30
0.0
 10
10.5450710289
 20
8.7540828127
 30
0.0
 10
10.5460008694
 20
8.7547793937
 30
0.0
 10
10.5467757365
 20
8.7553598778
 30
0.0
 10
10.54739563
 20
8.7558242651
 30
0.0
 10
10.5478605505
 20
8.7561725554
 30
0.0
 10
10.54832547
 20
8.7565208466
 30
0.0
 10
10.5487129058
 20
8.7568110865
 30
0.0
 10
10.5490228479
 20
8.7570432844
 30
0.0
 10
10.5492165766
 20
8.7571883947
 30
0.0
 10
10.5493715256
 20
8.7573045136
 30
0.0
 10
10.5494878301
 20
8.7573915187
 30
0.0
 10
10.5495844555
 20
8.7574642905
 30
0.0
 10
10.5496526723
 20
8.7575147056
 30
0.0
 10
10.5496907493
 20
8.7575443343
 30
0.0
 10
10.5497218535
 20
8.7575642459
 30
0.0
 10
10.549743224
 20
8.757592987
 30
0.0
 10
10.5497751132
 20
8.7576282286
 30
0.0
 10
10.5498293375
 20
8.7576913365
 30
0.0
 10
10.5499076277
 20
8.7577807404
 30
0.0
 10
10.550001222
 20
8.7578883462
 30
0.0
 10
10.550126138
 20
8.7580317084
 30
0.0
 10
10.5502822407
 20
8.7582109495
 30
0.0
 10
10.5505320286
 20
8.7584977139
 30
0.0
 10
10.5508442554
 20
8.7588561767
 30
0.0
 10
10.5512189311
 20
8.759286329
 30
0.0
 10
10.5515936058
 20
8.7597164821
 30
0.0
 10
10.5520931724
 20
8.7602900193
 30
0.0
 10
10.5527176306
 20
8.7610069408
 30
0.0
 10
10.5534669805
 20
8.7618672467
 30
0.0
 10
10.5544661136
 20
8.7630143212
 30
0.0
 10
10.55571503
 20
8.7644481642
 30
0.0
 10
10.5572137297
 20
8.7661687759
 30
0.0
 10
10.5587124294
 20
8.7678893876
 30
0.0
 10
10.5602111291
 20
8.7696099993
 30
0.0
 10
10.5617098288
 20
8.771330611
 30
0.0
 10
10.5632085285
 20
8.7730512227
 30
0.0
 10
10.5647072282
 20
8.7747718344
 30
0.0
 10
10.5662059279
 20
8.7764924461
 30
0.0
 10
10.5677046276
 20
8.7782130578
 30
0.0
 10
10.568953544
 20
8.7796469009
 30
0.0
 10
10.5699526772
 20
8.7807939754
 30
0.0
 10
10.570702027
 20
8.7816542812
 30
0.0
 10
10.5713264853
 20
8.7823712027
 30
0.0
 10
10.5718260517
 20
8.78294474
 30
0.0
 10
10.5722007269
 20
8.7833748928
 30
0.0
 10
10.572575401
 20
8.7838050463
 30
0.0
 10
10.5728876326
 20
8.7841635053
 30
0.0
 10
10.5731374109
 20
8.7844502775
 30
0.0
 10
10.573293538
 20
8.7846294986
 30
0.0
 10
10.5734184038
 20
8.784772902
 30
0.0
 10
10.5735121515
 20
8.7848803819
 30
0.0
 10
10.5735899617
 20
8.7849701797
 30
0.0
 10
10.5736450429
 20
8.7850325844
 30
0.0
 10
10.573675559
 20
8.7850689527
 30
0.0
 10
10.5737011474
 20
8.7850942332
 30
0.0
 10
10.5737164101
 20
8.7851271422
 30
0.0
 10
10.5737403621
 20
8.78516836
 30
0.0
 10
10.5737805999
 20
8.7852417309
 30
0.0
 10
10.5738389599
 20
8.7853458982
 30
0.0
 10
10.5739086164
 20
8.7854711765
 30
0.0
 10
10.5740016229
 20
8.7856381173
 30
0.0
 10
10.5741178361
 20
8.7858468265
 30
0.0
 10
10.5743038023
 20
8.7861807427
 30
0.0
 10
10.5745362514
 20
8.7865981442
 30
0.0
 10
10.5748151941
 20
8.7870990234
 30
0.0
 10
10.5750941358
 20
8.7875999033
 30
0.0
 10
10.5754660583
 20
8.7882677428
 30
0.0
 10
10.5759309614
 20
8.7891025424
 30
0.0
 10
10.5764888452
 20
8.7901043018
 30
0.0
 10
10.5772326902
 20
8.7914399811
 30
0.0
 10
10.5781624965
 20
8.7931095802
 30
0.0
 10
10.579278264
 20
8.795113099
 30
0.0
 10
10.5803940315
 20
8.7971166179
 30
0.0
 10
10.581509799
 20
8.7991201368
 30
0.0
 10
10.5826255666
 20
8.8011236557
 30
0.0
 10
10.5837413341
 20
8.8031271746
 30
0.0
 10
10.5848571016
 20
8.8051306935
 30
0.0
 10
10.5859728691
 20
8.8071342124
 30
0.0
 10
10.5870886366
 20
8.8091377313
 30
0.0
 10
10.5880184429
 20
8.8108073303
 30
0.0
 10
10.5887622879
 20
8.8121430096
 30
0.0
 10
10.5893201717
 20
8.813144769
 30
0.0
 10
10.5897850748
 20
8.8139795686
 30
0.0
 10
10.5901569973
 20
8.8146474082
 30
0.0
 10
10.5904359394
 20
8.8151482878
 30
0.0
 10
10.5907148804
 20
8.815649168
 30
0.0
 10
10.5909473346
 20
8.8160665664
 30
0.0
 10
10.5911332904
 20
8.8164004889
 30
0.0
 10
10.5912495302
 20
8.816609182
 30
0.0
 10
10.5913424821
 20
8.8167761559
 30
0.0
 10
10.5914123053
 20
8.8169013332
 30
0.0
 10
10.5914701436
 20
8.8170058164
 30
0.0
 10
10.5915113128
 20
8.8170786234
 30
0.0
 10
10.5915337727
 20
8.8171207447
 30
0.0
 10
10.5915536186
 20
8.8171508784
 30
0.0
 10
10.591561993
 20
8.8171865827
 30
0.0
 10
10.5915771603
 20
8.8172322454
 30
0.0
 10
10.5916018387
 20
8.8173130604
 30
0.0
 10
10.5916380683
 20
8.8174280371
 30
0.0
 10
10.5916811265
 20
8.8175662118
 30
0.0
 10
10.5917386832
 20
8.8177503739
 30
0.0
 10
10.5918105793
 20
8.8179806007
 30
0.0
 10
10.5919256408
 20
8.8183489502
 30
0.0
 10
10.5920694581
 20
8.8188093916
 30
0.0
 10
10.592242043
 20
8.8193619194
 30
0.0
 10
10.5924146268
 20
8.8199144477
 30
0.0
 10
10.5926447389
 20
8.8206511518
 30
0.0
 10
10.5929323789
 20
8.8215720321
 30
0.0
 10
10.593277547
 20
8.8226770885
 30
0.0
 10
10.593737771
 20
8.8241504969
 30
0.0
 10
10.5943130511
 20
8.8259922575
 30
0.0
 10
10.5950033872
 20
8.8282023701
 30
0.0
 10
10.5956937233
 20
8.8304124828
 30
0.0
 10
10.5963840594
 20
8.8326225955
 30
0.0
 10
10.5970743955
 20
8.8348327081
 30
0.0
 10
10.5977647316
 20
8.8370428208
 30
0.0
 10
10.5984550677
 20
8.8392529334
 30
0.0
 10
10.5991454038
 20
8.8414630461
 30
0.0
 10
10.5998357399
 20
8.8436731588
 30
0.0
 10
10.60041102
 20
8.8455149193
 30
0.0
 10
10.600871244
 20
8.8469883278
 30
0.0
 10
10.6012164121
 20
8.8480933841
 30
0.0
 10
10.6015040522
 20
8.8490142644
 30
0.0
 10
10.6017341641
 20
8.8497509686
 30
0.0
 10
10.6019067484
 20
8.8503034967
 30
0.0
 10
10.6020793315
 20
8.8508560252
 30
0.0
 10
10.6022231544
 20
8.8513164643
 30
0.0
 10
10.6023382045
 20
8.8516848185
 30
0.0
 10
10.6024101294
 20
8.8519150332
 30
0.0
 10
10.6024676269
 20
8.8520992204
 30
0.0
 10
10.6025108661
 20
8.8522373184
 30
0.0
 10
10.6025465296
 20
8.8523525347
 30
0.0
 10
10.6025722184
 20
8.8524329221
 30
0.0
 10
10.6025857668
 20
8.85247927
 30
0.0
 10
10.6025991141
 20
8.8525128695
 30
0.0
 10
10.6026002827
 20
8.8525509085
 30
0.0
 10
10.602606089
 20
8.8526000785
 30
0.0
 10
10.6026142707
 20
8.8526868477
 30
0.0
 10
10.6026269936
 20
8.8528104263
 30
0.0
 10
10.6026418181
 20
8.8529588822
 30
0.0
 10
10.6026617389
 20
8.853156767
 30
0.0
 10
10.602686587
 20
8.8534041422
 30
0.0
 10
10.6027263734
 20
8.8537999319
 30
0.0
 10
10.6027760963
 20
8.8542946726
 30
0.0
 10
10.6028357682
 20
8.8548883599
 30
0.0
 10
10.6028954389
 20
8.8554820476
 30
0.0
 10
10.6029750002
 20
8.8562736311
 30
0.0
 10
10.6030744517
 20
8.8572631105
 30
0.0
 10
10.6031937935
 20
8.8584504858
 30
0.0
 10
10.603352916
 20
8.8600336529
 30
0.0
 10
10.6035518191
 20
8.8620126117
 30
0.0
 10
10.6037905028
 20
8.8643873622
 30
0.0
 10
10.6040291865
 20
8.8667621128
 30
0.0
 10
10.6042678702
 20
8.8691368633
 30
0.0
 10
10.6045861151
 20
8.8723031974
 30
0.0
 10
10.6049839213
 20
8.876261115
 30
0.0
 10
10.6054612887
 20
8.8810106161
 30
0.0
 10
10.6059386561
 20
8.8857601172
 30
0.0
 10
10.606256901
 20
8.8889264513
 30
0.0
 10
10.6064160234
 20
8.8905096183
 30
0.0
  0
ENDSEC
  0
SECTION
  2
OBJECTS
  0
DICTIONARY
  5
C
100
AcDbDictionary
280
0
281
1
  3
ACAD_GROUP
350
D
  3
ACAD_MLINESTYLE
350
17
  3
ACAD_LAYOUT
350
1A
  3
ACAD_PLOTSETTINGS
350
19
  3
ACAD_PLOTSTYLENAME
350
E
  3
ACAD_IMAGE_DICT
350
       360
  3
ACAD_IMAGE_VARS
350
       361
  3
ACAD_TABLESTYLE
350
       362
  0
IMAGEDEF_REACTOR
  5
35F
100
AcDbRasterImageDefReactor
 90
2
330
287
  0
DICTIONARY
  5
D
102
{ACAD_REACTORS
330
C
102
}
100
AcDbDictionary
280
0
281
1
  0
ACDBDICTIONARYWDFLT
  5
E
102
{ACAD_REACTORS
330
C
102
}
100
AcDbDictionary
281
1
  3
Normal
350
F
100
AcDbDictionaryWithDefault
340
F
  0
DICTIONARY
  5
360
330
C
100
AcDbDictionary
281
1
  3
GNM_assy_2_img_1
350
       365
  0
RASTERVARIABLES
  5
361
330
C
100
AcDbRasterVariables
 90
0
 70
0
 71
1
 72
5
  0
DICTIONARY
  5
17
102
{ACAD_REACTORS
330
C
102
}
100
AcDbDictionary
280
0
281
1
  3
Standard
350
18
  0
DICTIONARY
  5
362
330
C
100
AcDbDictionary
281
1
  3
Standard
350
       366
  3
Standard1
350
       367
  0
DICTIONARY
  5
19
102
{ACAD_REACTORS
330
C
102
}
100
AcDbDictionary
281
1
  0
DICTIONARY
  5
1A
102
{ACAD_REACTORS
330
C
102
}
100
AcDbDictionary
281
1
  3
Model
350
363
  3
Layout1
350
364
  0
ACDBPLACEHOLDER
  5
F
102
{ACAD_REACTORS
330
E
102
}
  0
MLINESTYLE
  5
18
102
{ACAD_REACTORS
330
17
102
}
100
AcDbMlineStyle
  2
STANDARD
 70
0
  3

 62
256
 51
90.0
 52
90.0
 71
2
 49
0.5
 62
256
  6
BYLAYER
 49
-0.5
 62
256
  6
BYLAYER
  0
LAYOUT
  5
363
102
{ACAD_REACTORS
330
1A
102
}
100
AcDbPlotSettings
  1

  2
none_device
  4
ANSI_C_(22.00_x_17.00_Inches)
  6

 40
0.0
 41
0.0
 42
0.0
 43
0.0
 44
558.8
 45
431.8
 46
0.0
 47
0.0
 48
0.0
 49
0.0
140
0.0
141
0.0
142
1.0
143
1.0
 70
1024
 72
0
 73
0
 74
0
  7

 75
0
147
1.0
148
0.0
149
0.0
100
AcDbLayout
  1
Model
 70
0
 71
0
 10
0.0
 20
0.0
 11
22.0
 21
17.0
 12
0.0
 22
0.0
 32
0.0
 14
0.0
 24
0.0
 34
0.0
 15
0.0
 25
0.0
 35
0.0
146
0.0
 13
0.0
 23
0.0
 33
0.0
 16
1.0
 26
0.0
 36
0.0
 17
0.0
 27
1.0
 37
0.0
 76
0
330
20C
345
0
346
0
  0
LAYOUT
  5
364
102
{ACAD_REACTORS
330
1A
102
}
100
AcDbPlotSettings
  1

  2
none_device
  4
ANSI_C_(22.00_x_17.00_Inches)
  6

 40
0.0
 41
0.0
 42
0.0
 43
0.0
 44
558.8
 45
431.8
 46
0.0
 47
0.0
 48
0.0
 49
0.0
140
0.0
141
0.0
142
1.0
143
1.0
 70
0
 72
0
 73
0
 74
0
  7

 75
0
147
1.0
148
0.0
149
0.0
100
AcDbLayout
  1
Layout1
 70
0
 71
1
 10
0.0
 20
0.0
 11
22.0
 21
17.0
 12
0.0
 22
0.0
 32
0.0
 14
0.0
 24
0.0
 34
0.0
 15
0.0
 25
0.0
 35
0.0
146
0.0
 13
0.0
 23
0.0
 33
0.0
 16
1.0
 26
0.0
 36
0.0
 17
0.0
 27
1.0
 37
0.0
 76
0
330
20D
345
0
346
0
  0
IMAGEDEF
  5
365
102
{ACAD_REACTORS
330
360
330
35F
102
}
100
AcDbRasterImageDef
 90
0
  1
GNM_assy_2_img_1.png
 10
369.0
 20
92.0
 11
0.0066666667
 21
0.0066666667
280
1
281
0
  0
TABLESTYLE
  5
366
102
{ACAD_REACTORS
330
362
330
28A
330
28B
102
}
330
362
100
AcDbTableStyle
  3
Standard
 70
0
 71
0
 40
0.06
 41
0.06
280
1
281
1
  7
Standard
140
0.18
170
1
 62
0
 63
7
283
0
  7
Standard
140
0.18
170
1
 62
0
 63
7
283
0
  7
Standard
140
0.18
170
1
 62
0
 63
7
283
0
  0
TABLESTYLE
  5
367
102
{ACAD_REACTORS
330
362
330
289
102
}
330
362
100
AcDbTableStyle
  3
Standard1
 70
1
 71
0
 40
0.06
 41
0.06
280
1
281
1
  7
Standard
140
0.18
170
1
 62
0
 63
7
283
0
  7
Standard
140
0.18
170
1
 62
0
 63
7
283
0
  7
Standard
140
0.18
170
1
 62
0
 63
7
283
0
  0
ENDSEC
  0
EOF
