999
DXF file: GDD_assy_2.dxf
999
Pro/ENGINEER 2014200 by Parametric Technology Corporation
  0
SECTION
  2
HEADER
  9
$ACADVER
  1
AC1021
  9
$DWGCODEPAGE
  3
ANSI_1252
  9
$EXTMAX
 10
22.0
 20
17.0
 30
0.0
  9
$EXTMIN
 10
0.0
 20
0.0
 30
0.0
  9
$LIMMIN
 10
0.0
 20
0.0
  9
$LIMMAX
 10
22.0
 20
17.0
  9
$VIEWCTR
 10
11.0
 20
8.5
  9
$VIEWSIZE
 40
17.0
  9
$CLAYER
  8
0
  9
$LTSCALE
 40
1.21
  9
$CELTYPE
  6
BYLAYER
  9
$DIMSCALE
 40
1.0
  9
$DIMASZ
 40
0.1875
  9
$DIMEXO
 40
0.0625
  9
$DIMDLI
 40
0.836
  9
$DIMEXE
 40
0.125
  9
$DIMCEN
 40
0.198
  9
$DIMLFAC
 40
1.0
  9
$DIMBLK
  1
_FILLED
  9
$DIMTXT
 40
0.1
  9
$DIMTOL
 70
0
  9
$DIMLIM
 70
0
  9
$DIMTFAC
 40
1.0
  9
$DIMGAP
 40
0.09
  9
$DIMDSEP
 70
46
  9
$AUNITS
 70
0
  9
$PDMODE
 70
3
  9
$PDSIZE
 40
0.3125
  9
$HANDSEED
  5
374
  9
$TILEMODE
 70
1
  9
$MEASUREMENT
 70
0
  9
$INSUNITS
 70
1
  0
ENDSEC
  0
SECTION
  2
CLASSES
  0
CLASS
  1
ACDBDICTIONARYWDFLT
  2
AcDbDictionaryWithDefault
  3
AutoCAD 2000
 90
0
 91
1
280
0
281
0
  0
CLASS
  1
ACDBPLACEHOLDER
  2
AcDbPlaceHolder
  3
AutoCAD 2000
 90
0
 91
1
280
0
281
0
  0
CLASS
  1
LAYOUT
  2
AcDbLayout
  3
AutoCAD 2000
 90
0
 91
0
280
0
281
0
  0
CLASS
  1
RASTERVARIABLES
  2
AcDbRasterVariables
  3
ISM
 90
0
 91
1
280
0
281
0
  0
CLASS
  1
IMAGEDEF
  2
AcDbRasterImageDef
  3
ISM
 90
0
 91
1
280
0
281
0
  0
CLASS
  1
IMAGEDEF_REACTOR
  2
AcDbRasterImageDefReactor
  3
ISM
 90
0
 91
1
280
0
281
0
  0
CLASS
  1
IMAGE
  2
AcDbRasterImage
  3
ISM
 90
127
 91
1
280
0
281
1
  0
CLASS
  1
TABLESTYLE
  2
AcDbTableStyle
  3
ObjectDBX Classes
 90
2047
 91
1
280
0
281
0
  0
CLASS
  1
ACAD_TABLE
  2
AcDbTable
  3
ObjectDBX Classes
 90
1025
 91
2
280
0
281
1
  0
ENDSEC
  0
SECTION
  2
TABLES
  0
TABLE
  2
VPORT
  5
8
100
AcDbSymbolTable
 70
2
  0
VPORT
  5
1F4
100
AcDbSymbolTableRecord
100
AcDbViewportTableRecord
  2
*ACTIVE
 70
0
 10
0.0
 20
0.0
 11
1.0
 21
1.0
 12
11.0
 22
8.5
 13
0.0
 23
0.0
 14
1.0
 24
1.0
 15
0.0
 25
0.0
 16
0.0
 26
0.0
 36
1.0
 17
0.0
 27
0.0
 37
0.0
 40
17.0
 41
1.2941176471
 42
50.0
 43
0.0
 44
0.0
 50
0.0
 51
0.0
 71
0
 72
100
 73
1
 74
1
 75
0
 76
0
 77
0
 78
0
  0
ENDTAB
  0
TABLE
  2
LTYPE
  5
5
100
AcDbSymbolTable
 70
6
  0
LTYPE
  5
14
100
AcDbSymbolTableRecord
100
AcDbLinetypeTableRecord
  2
BYBLOCK
 70
0
  3

 72
65
 73
0
 40
0.0
  0
LTYPE
  5
15
100
AcDbSymbolTableRecord
100
AcDbLinetypeTableRecord
  2
BYLAYER
 70
0
  3

 72
65
 73
0
 40
0.0
  0
LTYPE
  5
16
100
AcDbSymbolTableRecord
100
AcDbLinetypeTableRecord
  2
CONTINUOUS
 70
64
  3
Solid line
 72
65
 73
0
 40
0.0
  0
LTYPE
  5
1F5
100
AcDbSymbolTableRecord
100
AcDbLinetypeTableRecord
  2
CENTER
 70
64
  3
____ _ ____ _ ____ _ ____ _ ____ _ ____ _ ____
 72
65
 73
4
 40
0.6
 49
0.375
 74
0
 49
-0.075
 74
0
 49
0.075
 74
0
 49
-0.075
 74
0
  0
LTYPE
  5
1F6
100
AcDbSymbolTableRecord
100
AcDbLinetypeTableRecord
  2
HIDDEN
 70
64
  3
- - - - - - - - - - - - - - - - - - - -
 72
65
 73
2
 40
0.2
 49
0.1
 74
0
 49
-0.1
 74
0
  0
LTYPE
  5
1F7
100
AcDbSymbolTableRecord
100
AcDbLinetypeTableRecord
  2
PHANTOM
 70
64
  3
_____ _ _ _____ _ _ _____ _ _ _____
 72
65
 73
6
 40
0.8
 49
0.45
 74
0
 49
-0.05
 74
0
 49
0.1
 74
0
 49
-0.05
 74
0
 49
0.1
 74
0
 49
-0.05
 74
0
  0
LTYPE
  5
1F8
100
AcDbSymbolTableRecord
100
AcDbLinetypeTableRecord
  2
DOT
 70
64
  3
. . . . . . . . . . . . . . . . . . . .
 72
65
 73
2
 40
0.2
 49
0.1
 74
0
 49
-0.1
 74
0
  0
LTYPE
  5
1F9
100
AcDbSymbolTableRecord
100
AcDbLinetypeTableRecord
  2
DASHED
 70
64
  3
- - - - - - - - - - - - - - - - - - - -
 72
65
 73
2
 40
0.2
 49
0.1
 74
0
 49
-0.1
 74
0
  0
ENDTAB
  0
TABLE
  2
LAYER
  5
2
100
AcDbSymbolTable
 70
36
  0
LAYER
  5
10
100
AcDbSymbolTableRecord
100
AcDbLayerTableRecord
  2
0
 70
0
 62
7
  6
CONTINUOUS
370
-3
390
F
  0
LAYER
  5
1FA
100
AcDbSymbolTableRecord
100
AcDbLayerTableRecord
  2
DEFAULT_1
 70
0
 62
7
  6
CENTER
370
-3
390
F
  0
LAYER
  5
1FB
100
AcDbSymbolTableRecord
100
AcDbLayerTableRecord
  2
DEFAULT_2
 70
0
 62
8
  6
HIDDEN
370
-3
390
F
  0
LAYER
  5
1FC
100
AcDbSymbolTableRecord
100
AcDbLayerTableRecord
  2
DEFAULT_3
 70
0
 62
7
  6
PHANTOM
370
-3
390
F
  0
LAYER
  5
1FD
100
AcDbSymbolTableRecord
100
AcDbLayerTableRecord
  2
DATUM_PLANES
 70
0
 62
7
  6
CONTINUOUS
370
-3
390
F
  0
LAYER
  5
1FE
100
AcDbSymbolTableRecord
100
AcDbLayerTableRecord
  2
DIMENSIONS
 70
0
 62
7
  6
CONTINUOUS
370
-3
390
F
  0
LAYER
  5
1FF
100
AcDbSymbolTableRecord
100
AcDbLayerTableRecord
  2
PARAMETERDIMENSIONS
 70
0
 62
7
  6
CONTINUOUS
370
-3
390
F
  0
LAYER
  5
200
100
AcDbSymbolTableRecord
100
AcDbLayerTableRecord
  2
PLANE
 70
0
 62
7
  6
CONTINUOUS
370
-3
390
F
  0
LAYER
  5
201
100
AcDbSymbolTableRecord
100
AcDbLayerTableRecord
  2
PORT_AREAS
 70
0
 62
7
  6
CONTINUOUS
370
-3
390
F
  0
LAYER
  5
202
100
AcDbSymbolTableRecord
100
AcDbLayerTableRecord
  2
SUNNBOMCOSMETIC
 70
0
 62
7
  6
CONTINUOUS
370
-3
390
F
  0
LAYER
  5
203
100
AcDbSymbolTableRecord
100
AcDbLayerTableRecord
  2
SUNNBOMSTAMPING
 70
0
 62
7
  6
CONTINUOUS
370
-3
390
F
  0
LAYER
  5
204
100
AcDbSymbolTableRecord
100
AcDbLayerTableRecord
  2
THREADS
 70
0
 62
7
  6
CONTINUOUS
370
-3
390
F
  0
ENDTAB
  0
TABLE
  2
STYLE
  5
3
100
AcDbSymbolTable
 70
1
  0
STYLE
  5
11
100
AcDbSymbolTableRecord
100
AcDbTextStyleTableRecord
  2
STANDARD
 70
0
 40
0.0
 41
0.8
 50
0.0
 71
0
 42
0.2
  3
txt
  4

  0
STYLE
  5
205
100
AcDbSymbolTableRecord
100
AcDbTextStyleTableRecord
  2
TEXTSTYLE_1
 70
0
 40
0.0
 41
0.8
 50
0.0
 71
0
 42
0.2
  3
gdt
  4

  0
ENDTAB
  0
TABLE
  2
VIEW
  5
6
100
AcDbSymbolTable
 70
0
  0
ENDTAB
  0
TABLE
  2
UCS
  5
7
100
AcDbSymbolTable
 70
0
  0
ENDTAB
  0
TABLE
  2
APPID
  5
9
100
AcDbSymbolTable
 70
1
  0
APPID
  5
206
100
AcDbSymbolTableRecord
100
AcDbRegAppTableRecord
  2
ACAD
 70
0
  0
ENDTAB
  0
TABLE
  2
BLOCK_RECORD
  5
1
100
AcDbSymbolTable
 70
0
  0
BLOCK_RECORD
  5
207
100
AcDbSymbolTableRecord
100
AcDbBlockTableRecord
  2
*Model_Space
  0
BLOCK_RECORD
  5
208
100
AcDbSymbolTableRecord
100
AcDbBlockTableRecord
  2
*Paper_Space
  0
BLOCK_RECORD
  5
209
100
AcDbSymbolTableRecord
100
AcDbBlockTableRecord
  2
SUN_FIRST_THIRD_ANGLE_BL0
  0
BLOCK_RECORD
  5
20A
100
AcDbSymbolTableRecord
100
AcDbBlockTableRecord
  2
*T1
  0
BLOCK_RECORD
  5
20B
100
AcDbSymbolTableRecord
100
AcDbBlockTableRecord
  2
*T2
  0
ENDTAB
  0
TABLE
  2
DIMSTYLE
  5
A
100
AcDbSymbolTable
 70
1
100
AcDbDimStyleTable
 71
0
  0
DIMSTYLE
105
20C
100
AcDbSymbolTableRecord
100
AcDbDimStyleTableRecord
  2
STANDARD
 70
0
  3

  4

 40
1.0
 41
0.1875
 42
0.0625
 43
0.38
 44
0.125
 45
0.0
 46
0.0
 47
0.001
 48
0.001
140
0.1
141
0.09
142
0.0
143
25.4
144
1.0
145
0.0
146
1.0
147
0.09
 71
0.0
 72
0.0
 73
1
 74
1
 75
0
 76
0
 77
0
 78
4
170
0
171
2
172
0
173
0
174
0
175
0
176
0
177
0
178
0
270
2
271
3
272
3
273
2
274
2
275
0
280
0
281
0
282
0
283
1
284
4
285
0
286
0
287
3
288
0
340
11
278
46
  0
ENDTAB
  0
ENDSEC
  0
SECTION
  2
BLOCKS
  0
BLOCK
  5
20
100
AcDbEntity
  8
0
100
AcDbBlockBegin
  2
*Model_Space
 70
0
 10
0.0
 20
0.0
 30
0.0
  3
*Model_Space
  1

  0
ENDBLK
  5
21
100
AcDbEntity
  8
0
100
AcDbBlockEnd
  0
BLOCK
  5
1C
100
AcDbEntity
  8
0
100
AcDbBlockBegin
  2
*Paper_Space
 70
0
 10
0.0
 20
0.0
 30
0.0
  3
*Paper_Space
  1

  0
ENDBLK
  5
1D
100
AcDbEntity
  8
0
100
AcDbBlockEnd
  0
BLOCK
  5
20D
100
AcDbEntity
  8
0
100
AcDbBlockBegin
 62
2
  6
CONTINUOUS
  2
SUN_FIRST_THIRD_ANGLE_BL0
 70
64
 10
20.4816717061
 20
1.2289683772
  3
SUN_FIRST_THIRD_ANGLE_BL0
  1

  0
TEXT
  5
20E
100
AcDbEntity
  8
0
100
AcDbText
 62
2
  6
CONTINUOUS
 10
19.4750896608
 20
1.4136269581
  7
STANDARD
 40
0.08
  1
FIRST ANGLE
 41
0.8
 72
0
100
AcDbText
  0
TEXT
  5
20F
100
AcDbEntity
  8
0
100
AcDbText
 62
2
  6
CONTINUOUS
 10
20.7842537513
 20
1.4047600029
  7
STANDARD
 40
0.08
  1
THIRD ANGLE
 41
0.8
 72
0
100
AcDbText
  0
LINE
  5
210
100
AcDbEntity
  8
0
100
AcDbLine
 62
7
  6
CONTINUOUS
 10
19.4767170086
 20
1.1727031207
 11
19.6334271527
 21
1.1717972817
  0
LINE
  5
211
100
AcDbEntity
  8
0
100
AcDbLine
 62
7
  6
CONTINUOUS
 10
19.6596964832
 20
1.1717972817
 11
19.6950230232
 21
1.171593082
  0
LINE
  5
212
100
AcDbEntity
  8
0
100
AcDbLine
 62
7
  6
CONTINUOUS
 10
19.7194818561
 20
1.1708914427
 11
19.8852396156
 21
1.1699333054
  0
LINE
  5
213
100
AcDbEntity
  8
0
100
AcDbLine
 62
7
  6
CONTINUOUS
 10
19.4758111696
 20
1.2723454088
 11
19.88525039
 21
1.3511534004
  0
LINE
  5
214
100
AcDbEntity
  8
0
100
AcDbLine
 62
7
  6
CONTINUOUS
 10
19.88525039
 20
1.3511534004
 11
19.8831348489
 21
0.9851647912
  0
LINE
  5
215
100
AcDbEntity
  8
0
100
AcDbLine
 62
7
  6
CONTINUOUS
 10
19.8831348489
 20
0.9851647912
 11
19.4767170086
 21
1.0658141206
  0
LINE
  5
216
100
AcDbEntity
  8
0
100
AcDbLine
 62
7
  6
CONTINUOUS
 10
19.4767170086
 20
1.0658141206
 11
19.4779056764
 21
1.2714536432
  0
CIRCLE
  5
217
100
AcDbEntity
  8
0
100
AcDbCircle
 62
7
  6
CONTINUOUS
 10
20.2068232291
 20
1.1717972817
 40
0.175742101
  0
CIRCLE
  5
218
100
AcDbEntity
  8
0
100
AcDbCircle
 62
7
  6
CONTINUOUS
 10
20.2068232291
 20
1.1717972817
 40
0.1005522074
  0
LINE
  5
219
100
AcDbEntity
  8
0
100
AcDbLine
 62
7
  6
CONTINUOUS
 10
20.2077290681
 20
1.3756110529
 11
20.2071171714
 21
1.2379342989
  0
LINE
  5
21A
100
AcDbEntity
  8
0
100
AcDbLine
 62
7
  6
CONTINUOUS
 10
20.2077290681
 20
1.2016899681
 11
20.2074674401
 21
1.1428236749
  0
LINE
  5
21B
100
AcDbEntity
  8
0
100
AcDbLine
 62
7
  6
CONTINUOUS
 10
20.208634907
 20
1.101141841
 11
20.2080230104
 21
0.963465087
  0
LINE
  5
21C
100
AcDbEntity
  8
0
100
AcDbLine
 62
7
  6
CONTINUOUS
 10
20.0066328138
 20
1.1745147986
 11
20.1443095678
 21
1.1739029019
  0
LINE
  5
21D
100
AcDbEntity
  8
0
100
AcDbLine
 62
7
  6
CONTINUOUS
 10
20.1832714155
 20
1.1727031207
 11
20.238153505
 21
1.172335442
  0
LINE
  5
21E
100
AcDbEntity
  8
0
100
AcDbLine
 62
7
  6
CONTINUOUS
 10
20.2756669918
 20
1.1717972817
 11
20.407916871
 21
1.1712095044
  0
CIRCLE
  5
21F
100
AcDbEntity
  8
0
100
AcDbCircle
 62
7
  6
CONTINUOUS
 10
20.7509457401
 20
1.1693297793
 40
0.1722024983
  0
CIRCLE
  5
220
100
AcDbEntity
  8
0
100
AcDbCircle
 62
7
  6
CONTINUOUS
 10
20.7509457401
 20
1.1693297793
 40
0.0985164967
  0
LINE
  5
221
100
AcDbEntity
  8
0
100
AcDbLine
 62
7
  6
CONTINUOUS
 10
20.7169767782
 20
1.170462078
 11
20.7825395137
 21
1.1682766535
  0
LINE
  5
222
100
AcDbEntity
  8
0
100
AcDbLine
 62
7
  6
CONTINUOUS
 10
20.8177513651
 20
1.1693297793
 11
20.947965719
 21
1.1693297793
  0
LINE
  5
223
100
AcDbEntity
  8
0
100
AcDbLine
 62
7
  6
CONTINUOUS
 10
20.6875370113
 20
1.170462078
 11
20.5573226574
 21
1.170462078
  0
LINE
  5
224
100
AcDbEntity
  8
0
100
AcDbLine
 62
7
  6
CONTINUOUS
 10
20.7486811426
 20
1.1987695462
 11
20.7486811426
 21
1.1432869085
  0
LINE
  5
225
100
AcDbEntity
  8
0
100
AcDbLine
 62
7
  6
CONTINUOUS
 10
20.7498134414
 20
1.1059210505
 11
20.7498134414
 21
0.9757066966
  0
LINE
  5
226
100
AcDbEntity
  8
0
100
AcDbLine
 62
7
  6
CONTINUOUS
 10
20.7486811426
 20
1.2338708068
 11
20.7486811426
 21
1.3640851607
  0
LINE
  5
227
100
AcDbEntity
  8
0
100
AcDbLine
 62
7
  6
CONTINUOUS
 10
21.0702539817
 20
1.2701043662
 11
21.4790138229
 21
1.3448360823
  0
LINE
  5
228
100
AcDbEntity
  8
0
100
AcDbLine
 62
7
  6
CONTINUOUS
 10
21.4790138229
 20
1.3448360823
 11
21.4790138229
 21
0.9779712941
  0
LINE
  5
229
100
AcDbEntity
  8
0
100
AcDbLine
 62
7
  6
CONTINUOUS
 10
21.4790138229
 20
0.9779712941
 11
21.069121683
 21
1.0617614
  0
LINE
  5
22A
100
AcDbEntity
  8
0
100
AcDbLine
 62
7
  6
CONTINUOUS
 10
21.0702539817
 20
1.2701043662
 11
21.069121683
 21
1.0617614
  0
LINE
  5
22B
100
AcDbEntity
  8
0
100
AcDbLine
 62
7
  6
CONTINUOUS
 10
21.4790138229
 20
1.1693297793
 11
21.3159628059
 21
1.1693297793
  0
LINE
  5
22C
100
AcDbEntity
  8
0
100
AcDbLine
 62
7
  6
CONTINUOUS
 10
21.2876553377
 20
1.1693297793
 11
21.2502894796
 21
1.1693297793
  0
LINE
  5
22D
100
AcDbEntity
  8
0
100
AcDbLine
 62
7
  6
CONTINUOUS
 10
21.2208497126
 20
1.1659328831
 11
21.0713862804
 21
1.1659328831
  0
LINE
  5
22E
100
AcDbEntity
  8
0
100
AcDbLine
 62
7
  6
CONTINUOUS
 10
20.4796138713
 20
1.5284908897
 11
20.4766766948
 21
0.9294458646
  0
ENDBLK
  5
22F
100
AcDbEntity
  8
0
  6
BYBLOCK
 62
0
100
AcDbBlockEnd
  0
BLOCK
  5
230
100
AcDbEntity
  8
0
100
AcDbBlockBegin
  2
*T1
 70
1
 10
0.0
 20
0.0
  3
*T1
  1

  0
LINE
  5
231
100
AcDbEntity
  8
0
100
AcDbLine
 62
2
  6
CONTINUOUS
 10
9.275
 20
0.0
 11
-0.0
 21
0.0
  0
LINE
  5
232
100
AcDbEntity
  8
0
100
AcDbLine
 62
2
  6
CONTINUOUS
 10
9.275
 20
0.0
 11
9.275
 21
1.25
  0
LINE
  5
233
100
AcDbEntity
  8
0
100
AcDbLine
 62
2
  6
CONTINUOUS
 10
9.275
 20
0.625
 11
-0.0
 21
0.625
  0
LINE
  5
234
100
AcDbEntity
  8
0
100
AcDbLine
 62
2
  6
CONTINUOUS
 10
9.275
 20
1.25
 11
-0.0
 21
1.25
  0
LINE
  5
235
100
AcDbEntity
  8
0
100
AcDbLine
 62
2
  6
CONTINUOUS
 10
6.8
 20
0.0
 11
6.8
 21
1.25
  0
LINE
  5
236
100
AcDbEntity
  8
0
100
AcDbLine
 62
2
  6
CONTINUOUS
 10
6.4
 20
0.0
 11
6.4
 21
0.625
  0
LINE
  5
237
100
AcDbEntity
  8
0
100
AcDbLine
 62
2
  6
CONTINUOUS
 10
5.9
 20
0.0
 11
5.9
 21
0.625
  0
LINE
  5
238
100
AcDbEntity
  8
0
100
AcDbLine
 62
2
  6
CONTINUOUS
 10
5.2
 20
0.0
 11
5.2
 21
0.625
  0
LINE
  5
239
100
AcDbEntity
  8
0
100
AcDbLine
 62
2
  6
CONTINUOUS
 10
4.1
 20
0.0
 11
4.1
 21
1.25
  0
LINE
  5
23A
100
AcDbEntity
  8
0
100
AcDbLine
 62
2
  6
CONTINUOUS
 10
-0.0
 20
0.0
 11
-0.0
 21
1.25
  0
MTEXT
  5
23B
100
AcDbEntity
  8
0
100
AcDbMText
 62
2
  6
CONTINUOUS
  7
STANDARD
 71
2
 72
1
 10
6.6
 20
0.325
 30
0.0
 11
1.0
 21
0.0
 31
0.0
 44
0.9
  1
2
 40
0.125
 41
0.2
  0
MTEXT
  5
23C
100
AcDbEntity
  8
0
100
AcDbMText
 62
2
  6
CONTINUOUS
  7
STANDARD
 71
2
 72
1
 10
6.15
 20
0.325
 30
0.0
 11
1.0
 21
0.0
 31
0.0
 44
0.9
  1
C
 40
0.125
 41
0.2
  0
MTEXT
  5
23D
100
AcDbEntity
  8
0
100
AcDbMText
 62
2
  6
CONTINUOUS
  7
STANDARD
 71
2
 72
1
 10
5.55
 20
0.325
 30
0.0
 11
1.0
 21
0.0
 31
0.0
 44
0.9
  1
2.000
 40
0.125
 41
1.0
  0
MTEXT
  5
23E
100
AcDbEntity
  8
0
100
AcDbMText
 62
2
  6
CONTINUOUS
  7
STANDARD
 71
2
 72
1
 10
4.65
 20
0.325
 30
0.0
 11
1.0
 21
0.0
 31
0.0
 44
0.9
  1
Dec-03-19
 40
0.125
 41
1.8
  0
MTEXT
  5
23F
100
AcDbEntity
  8
0
100
AcDbMText
 62
2
  6
CONTINUOUS
  7
STANDARD
 71
2
 72
1
 10
2.05
 20
0.4625
 30
0.0
 11
1.0
 21
0.0
 31
0.0
 44
0.9
  1
T-5A Sandwich ISO 03\PFlow into or out of workport A or B
 40
0.125
 41
7.0
  0
MTEXT
  5
240
100
AcDbEntity
  8
0
100
AcDbMText
 62
2
  6
CONTINUOUS
  7
STANDARD
 71
1
 72
1
 10
6.45
 20
0.5625
 30
0.0
 11
1.0
 21
0.0
 31
0.0
 44
0.9
  1
SHEET
 40
0.06
 41
0.48
  0
MTEXT
  5
241
100
AcDbEntity
  8
0
100
AcDbMText
 62
2
  6
CONTINUOUS
  7
STANDARD
 71
1
 72
1
 10
5.95
 20
0.5625
 30
0.0
 11
1.0
 21
0.0
 31
0.0
 44
0.9
  1
DWG SIZE
 40
0.06
 41
0.768
  0
MTEXT
  5
242
100
AcDbEntity
  8
0
100
AcDbMText
 62
2
  6
CONTINUOUS
  7
STANDARD
 71
1
 72
1
 10
5.25
 20
0.5625
 30
0.0
 11
1.0
 21
0.0
 31
0.0
 44
0.9
  1
SCALE
 40
0.06
 41
0.48
  0
MTEXT
  5
243
100
AcDbEntity
  8
0
100
AcDbMText
 62
2
  6
CONTINUOUS
  7
STANDARD
 71
1
 72
1
 10
4.15
 20
0.5625
 30
0.0
 11
1.0
 21
0.0
 31
0.0
 44
0.9
  1
DATE
 40
0.06
 41
0.384
  0
MTEXT
  5
244
100
AcDbEntity
  8
0
100
AcDbMText
 62
2
  6
CONTINUOUS
  7
STANDARD
 71
1
 72
1
 10
0.05
 20
0.5625
 30
0.0
 11
1.0
 21
0.0
 31
0.0
 44
0.9
  1
DESCRIPTION
 40
0.06
 41
1.056
  0
MTEXT
  5
245
100
AcDbEntity
  8
0
100
AcDbMText
 62
2
  6
CONTINUOUS
  7
STANDARD
 71
2
 72
1
 10
5.45
 20
1.0375
 30
0.0
 11
1.0
 21
0.0
 31
0.0
 44
0.9
  1
ALL DIMENSIONS IN INCH\PVIEWS ARE THIRD ANGLE
 40
0.12
 41
4.224
  0
MTEXT
  5
246
100
AcDbEntity
  8
0
100
AcDbMText
 62
2
  6
CONTINUOUS
  7
STANDARD
 71
2
 72
1
 10
2.05
 20
0.95
 30
0.0
 11
1.0
 21
0.0
 31
0.0
 44
0.9
  1
GDD
 40
0.125
 41
0.6
  0
MTEXT
  5
247
100
AcDbEntity
  8
0
100
AcDbMText
 62
2
  6
CONTINUOUS
  7
STANDARD
 71
1
 72
1
 10
0.05
 20
1.1875
 30
0.0
 11
1.0
 21
0.0
 31
0.0
 44
0.9
  1
MODEL
 40
0.06
 41
0.48
  0
ENDBLK
  5
248
100
AcDbEntity
  8
0
  6
BYBLOCK
 62
0
100
AcDbBlockEnd
  0
BLOCK
  5
249
100
AcDbEntity
  8
0
100
AcDbBlockBegin
  2
*T2
 70
1
 10
0.0
 20
0.0
  3
*T2
  1

  0
LINE
  5
24A
100
AcDbEntity
  8
0
100
AcDbLine
 62
2
  6
CONTINUOUS
 10
0.0
 20
0.0
 11
9.055
 21
0.0
  0
LINE
  5
24B
100
AcDbEntity
  8
0
100
AcDbLine
 62
2
  6
CONTINUOUS
 10
0.0
 20
0.0
 11
0.0
 21
-2.344
  0
LINE
  5
24C
100
AcDbEntity
  8
0
100
AcDbLine
 62
2
  6
CONTINUOUS
 10
0.0
 20
-0.344
 11
9.055
 21
-0.344
  0
LINE
  5
24D
100
AcDbEntity
  8
0
100
AcDbLine
 62
2
  6
CONTINUOUS
 10
0.0
 20
-0.594
 11
9.055
 21
-0.594
  0
LINE
  5
24E
100
AcDbEntity
  8
0
100
AcDbLine
 62
2
  6
CONTINUOUS
 10
0.0
 20
-0.844
 11
9.055
 21
-0.844
  0
LINE
  5
24F
100
AcDbEntity
  8
0
100
AcDbLine
 62
2
  6
CONTINUOUS
 10
0.0
 20
-1.094
 11
9.055
 21
-1.094
  0
LINE
  5
250
100
AcDbEntity
  8
0
100
AcDbLine
 62
2
  6
CONTINUOUS
 10
0.0
 20
-1.344
 11
9.055
 21
-1.344
  0
LINE
  5
251
100
AcDbEntity
  8
0
100
AcDbLine
 62
2
  6
CONTINUOUS
 10
0.0
 20
-1.594
 11
9.055
 21
-1.594
  0
LINE
  5
252
100
AcDbEntity
  8
0
100
AcDbLine
 62
2
  6
CONTINUOUS
 10
0.0
 20
-1.844
 11
9.055
 21
-1.844
  0
LINE
  5
253
100
AcDbEntity
  8
0
100
AcDbLine
 62
2
  6
CONTINUOUS
 10
0.0
 20
-2.094
 11
9.055
 21
-2.094
  0
LINE
  5
254
100
AcDbEntity
  8
0
100
AcDbLine
 62
2
  6
CONTINUOUS
 10
0.0
 20
-2.344
 11
9.055
 21
-2.344
  0
LINE
  5
255
100
AcDbEntity
  8
0
100
AcDbLine
 62
2
  6
CONTINUOUS
 10
3.055
 20
0.0
 11
3.055
 21
-2.344
  0
LINE
  5
256
100
AcDbEntity
  8
0
100
AcDbLine
 62
2
  6
CONTINUOUS
 10
9.055
 20
0.0
 11
9.055
 21
-2.344
  0
MTEXT
  5
257
100
AcDbEntity
  8
0
100
AcDbMText
 62
2
  6
CONTINUOUS
  7
STANDARD
 71
2
 72
1
 10
1.5275
 20
-0.0995
 30
0.0
 11
1.0
 21
0.0
 31
0.0
 44
0.9
  1
Technical Data
 40
0.145
 41
3.248
  0
MTEXT
  5
258
100
AcDbEntity
  8
0
100
AcDbMText
 62
2
  6
CONTINUOUS
  7
STANDARD
 71
2
 72
1
 10
4.555
 20
-0.0995
 30
0.0
 11
1.0
 21
0.0
 31
0.0
 44
0.9
  1
U.S. Units
 40
0.145
 41
2.32
  0
MTEXT
  5
259
100
AcDbEntity
  8
0
100
AcDbMText
 62
2
  6
CONTINUOUS
  7
STANDARD
 71
2
 72
1
 10
7.555
 20
-0.0995
 30
0.0
 11
1.0
 21
0.0
 31
0.0
 44
0.9
  1
Metric Units
 40
0.145
 41
2.784
  0
MTEXT
  5
25A
100
AcDbEntity
  8
0
100
AcDbMText
 62
2
  6
CONTINUOUS
  7
STANDARD
 71
2
 72
1
 10
1.5275
 20
-0.4065
 30
0.0
 11
1.0
 21
0.0
 31
0.0
 44
0.9
  1
Cavity
 40
0.125
 41
1.2
  0
MTEXT
  5
25B
100
AcDbEntity
  8
0
100
AcDbMText
 62
2
  6
CONTINUOUS
  7
STANDARD
 71
2
 72
1
 10
6.055
 20
-0.4065
 30
0.0
 11
1.0
 21
0.0
 31
0.0
 44
0.9
  1
T-5A
 40
0.125
 41
0.8
  0
MTEXT
  5
25C
100
AcDbEntity
  8
0
100
AcDbMText
 62
2
  6
CONTINUOUS
  7
STANDARD
 71
2
 72
1
 10
1.5275
 20
-0.6565
 30
0.0
 11
1.0
 21
0.0
 31
0.0
 44
0.9
  1
Body Features
 40
0.125
 41
2.6
  0
MTEXT
  5
25D
100
AcDbEntity
  8
0
100
AcDbMText
 62
2
  6
CONTINUOUS
  7
STANDARD
 71
2
 72
1
 10
6.055
 20
-0.6565
 30
0.0
 11
1.0
 21
0.0
 31
0.0
 44
0.9
  1
Flow into or out of workport A or B
 40
0.125
 41
7.0
  0
MTEXT
  5
25E
100
AcDbEntity
  8
0
100
AcDbMText
 62
2
  6
CONTINUOUS
  7
STANDARD
 71
2
 72
1
 10
1.5275
 20
-0.9065
 30
0.0
 11
1.0
 21
0.0
 31
0.0
 44
0.9
  1
Body Type
 40
0.125
 41
1.8
  0
MTEXT
  5
25F
100
AcDbEntity
  8
0
100
AcDbMText
 62
2
  6
CONTINUOUS
  7
STANDARD
 71
2
 72
1
 10
6.055
 20
-0.9065
 30
0.0
 11
1.0
 21
0.0
 31
0.0
 44
0.9
  1
Sandwich
 40
0.125
 41
1.6
  0
MTEXT
  5
260
100
AcDbEntity
  8
0
100
AcDbMText
 62
2
  6
CONTINUOUS
  7
STANDARD
 71
2
 72
1
 10
1.5275
 20
-1.1565
 30
0.0
 11
1.0
 21
0.0
 31
0.0
 44
0.9
  1
Interface
 40
0.125
 41
1.8
  0
MTEXT
  5
261
100
AcDbEntity
  8
0
100
AcDbMText
 62
2
  6
CONTINUOUS
  7
STANDARD
 71
2
 72
1
 10
6.055
 20
-1.1565
 30
0.0
 11
1.0
 21
0.0
 31
0.0
 44
0.9
  1
ISO 03
 40
0.125
 41
1.2
  0
MTEXT
  5
262
100
AcDbEntity
  8
0
100
AcDbMText
 62
2
  6
CONTINUOUS
  7
STANDARD
 71
2
 72
1
 10
1.5275
 20
-1.4065
 30
0.0
 11
1.0
 21
0.0
 31
0.0
 44
0.9
  1
Open Cavity Quantity
 40
0.125
 41
4.0
  0
MTEXT
  5
263
100
AcDbEntity
  8
0
100
AcDbMText
 62
2
  6
CONTINUOUS
  7
STANDARD
 71
2
 72
1
 10
6.055
 20
-1.4065
 30
0.0
 11
1.0
 21
0.0
 31
0.0
 44
0.9
  1
1
 40
0.125
 41
0.2
  0
MTEXT
  5
264
100
AcDbEntity
  8
0
100
AcDbMText
 62
2
  6
CONTINUOUS
  7
STANDARD
 71
2
 72
1
 10
1.5275
 20
-1.6565
 30
0.0
 11
1.0
 21
0.0
 31
0.0
 44
0.9
  1
Stack Height
 40
0.125
 41
2.4
  0
MTEXT
  5
265
100
AcDbEntity
  8
0
100
AcDbMText
 62
2
  6
CONTINUOUS
  7
STANDARD
 71
2
 72
1
 10
4.555
 20
-1.6565
 30
0.0
 11
1.0
 21
0.0
 31
0.0
 44
0.9
  1
1.75 in.
 40
0.125
 41
1.6
  0
MTEXT
  5
266
100
AcDbEntity
  8
0
100
AcDbMText
 62
2
  6
CONTINUOUS
  7
STANDARD
 71
2
 72
1
 10
7.555
 20
-1.6565
 30
0.0
 11
1.0
 21
0.0
 31
0.0
 44
0.9
  1
44,5 mm
 40
0.125
 41
1.4
  0
MTEXT
  5
267
100
AcDbEntity
  8
0
100
AcDbMText
 62
2
  6
CONTINUOUS
  7
STANDARD
 71
2
 72
1
 10
1.5275
 20
-1.9065
 30
0.0
 11
1.0
 21
0.0
 31
0.0
 44
0.9
  1
Weight
 40
0.125
 41
1.2
  0
MTEXT
  5
268
100
AcDbEntity
  8
0
100
AcDbMText
 62
2
  6
CONTINUOUS
  7
STANDARD
 71
2
 72
1
 10
4.555
 20
-1.9065
 30
0.0
 11
1.0
 21
0.0
 31
0.0
 44
0.9
  1
0.869 lb.
 40
0.125
 41
1.8
  0
MTEXT
  5
269
100
AcDbEntity
  8
0
100
AcDbMText
 62
2
  6
CONTINUOUS
  7
STANDARD
 71
2
 72
1
 10
7.555
 20
-1.9065
 30
0.0
 11
1.0
 21
0.0
 31
0.0
 44
0.9
  1
0,394 kg.
 40
0.125
 41
1.8
  0
MTEXT
  5
26A
100
AcDbEntity
  8
0
100
AcDbMText
 62
2
  6
CONTINUOUS
  7
STANDARD
 71
2
 72
1
 10
1.5275
 20
-2.1565
 30
0.0
 11
1.0
 21
0.0
 31
0.0
 44
0.9
  1
Seal Plate Included (see notes)
 40
0.125
 41
6.2
  0
MTEXT
  5
26B
100
AcDbEntity
  8
0
100
AcDbMText
 62
2
  6
CONTINUOUS
  7
STANDARD
 71
2
 72
1
 10
6.055
 20
-2.1565
 30
0.0
 11
1.0
 21
0.0
 31
0.0
 44
0.9
  1
Yes
 40
0.125
 41
0.6
  0
ENDBLK
  5
26C
100
AcDbEntity
  8
0
  6
BYBLOCK
 62
0
100
AcDbBlockEnd
  0
ENDSEC
  0
SECTION
  2
ENTITIES
  0
IMAGE
  5
26D
100
AcDbEntity
  8
0
100
AcDbRasterImage
 62
7
  6
CONTINUOUS
 10
19.2297077316
 20
0.3094318264
 30
0.0
 11
0.0066666667
 21
0.0
 31
0.0
 12
0.0
 22
0.0066666667
 32
0.0
 13
369.0
 23
92.0
340
       371
 70
9
280
0
281
50
282
50
283
0
360
       36B
 71
1
 91
2
 14
-0.5
 24
-0.5
 14
368.5
 24
91.5
  0
INSERT
  5
26E
100
AcDbEntity
  8
0
100
AcDbBlockReference
 62
2
  6
CONTINUOUS
  2
SUN_FIRST_THIRD_ANGLE_BL0
 10
20.4816717061
 20
1.2289683772
  0
ACAD_TABLE
  5
26F
100
AcDbEntity
  8
0
 62
2
  6
CONTINUOUS
100
AcDbBlockReference
  2
*T1
 10
12.42375
 20
0.30125
 30
0.0
100
AcDbTable
342
       373
343
20A
 11
1.0
 21
0.0
 31
0.0
 90
6
 91
4
 92
6
 93
20
 94
0
 95
0
 96
0
 70
1
 41
0.0
141
0.525
141
0.1
141
0.525
141
0.1
142
4.1
142
1.1
142
0.7
142
0.5
142
0.4
142
2.475
171
1
172
0
173
0
174
0
175
1
176
1
 91
33
178
0
145
0.0
301
CELL_VALUE
 90
4
  1
T-5A Sandwich ISO 03\PFlow into or out of workport A or B
304
ACVALUE_END
170
2
140
0.125
171
1
172
0
173
0
174
0
175
1
176
1
 91
33
178
0
145
0.0
301
CELL_VALUE
 90
4
  1
Dec-03-19
304
ACVALUE_END
170
5
140
0.125
171
1
172
0
173
0
174
0
175
1
176
1
 91
33
178
0
145
0.0
301
CELL_VALUE
 90
4
  1
2.000
304
ACVALUE_END
170
5
140
0.125
171
1
172
0
173
0
174
0
175
1
176
1
 91
33
178
0
145
0.0
301
CELL_VALUE
 90
4
  1
C
304
ACVALUE_END
170
5
140
0.125
171
1
172
0
173
0
174
0
175
1
176
1
 91
33
178
0
145
0.0
301
CELL_VALUE
 90
4
  1
2
304
ACVALUE_END
170
5
140
0.125
171
1
172
0
173
0
174
0
175
1
176
1
 91
33
178
0
145
0.0
301
CELL_VALUE
 90
4
  1
 
304
ACVALUE_END
170
1
140
0.125
171
1
172
0
173
0
174
0
175
1
176
1
 91
33
178
0
145
0.0
301
CELL_VALUE
 90
4
  1
DESCRIPTION
304
ACVALUE_END
170
1
140
0.06
171
1
172
0
173
0
174
0
175
1
176
1
 91
33
178
0
145
0.0
301
CELL_VALUE
 90
4
  1
DATE
304
ACVALUE_END
170
1
140
0.06
171
1
172
0
173
0
174
0
175
1
176
1
 91
33
178
0
145
0.0
301
CELL_VALUE
 90
4
  1
SCALE
304
ACVALUE_END
170
1
140
0.06
171
1
172
0
173
0
174
0
175
1
176
1
 91
33
178
0
145
0.0
301
CELL_VALUE
 90
4
  1
DWG SIZE
304
ACVALUE_END
170
1
140
0.06
171
1
172
0
173
0
174
0
175
1
176
1
 91
33
178
0
145
0.0
301
CELL_VALUE
 90
4
  1
SHEET
304
ACVALUE_END
170
1
140
0.06
171
1
172
0
173
0
174
0
175
1
176
1
 91
33
178
0
145
0.0
301
CELL_VALUE
 90
4
  1
 
304
ACVALUE_END
170
1
140
0.125
171
1
172
0
173
0
174
0
175
1
176
1
 91
33
178
0
145
0.0
301
CELL_VALUE
 90
4
  1
GDD
304
ACVALUE_END
170
5
140
0.125
171
1
172
0
173
0
174
0
175
4
176
1
 91
33
178
0
145
0.0
301
CELL_VALUE
 90
4
  1
ALL DIMENSIONS IN INCH\PVIEWS ARE THIRD ANGLE
304
ACVALUE_END
170
5
140
0.12
171
1
172
0
173
1
174
0
175
1
176
1
 91
1
178
0
145
0.0
170
1
171
1
172
0
173
1
174
0
175
1
176
1
 91
1
178
0
145
0.0
170
1
171
1
172
0
173
1
174
0
175
1
176
1
 91
1
178
0
145
0.0
170
5
171
1
172
0
173
0
174
0
175
1
176
1
 91
33
178
0
145
0.0
301
CELL_VALUE
 90
4
  1
 
304
ACVALUE_END
170
1
140
0.125
171
1
172
0
173
0
174
0
175
1
176
1
 91
33
178
0
145
0.0
301
CELL_VALUE
 90
4
  1
MODEL
304
ACVALUE_END
170
1
140
0.06
171
1
172
0
173
0
174
0
175
1
176
1
 91
33
178
0
145
0.0
301
CELL_VALUE
 90
4
  1
 
304
ACVALUE_END
170
1
140
0.125
171
1
172
0
173
0
174
0
175
1
176
1
 91
33
178
0
145
0.0
301
CELL_VALUE
 90
4
  1
 
304
ACVALUE_END
170
1
140
0.125
171
1
172
0
173
0
174
0
175
1
176
1
 91
33
178
0
145
0.0
301
CELL_VALUE
 90
4
  1
 
304
ACVALUE_END
170
1
140
0.125
171
1
172
0
173
0
174
0
175
1
176
1
 91
33
178
0
145
0.0
301
CELL_VALUE
 90
4
  1
 
304
ACVALUE_END
170
1
140
0.125
171
1
172
0
173
0
174
0
175
1
176
1
 91
33
178
0
145
0.0
301
CELL_VALUE
 90
4
  1
 
304
ACVALUE_END
170
1
140
0.125
  0
ACAD_TABLE
  5
270
100
AcDbEntity
  8
0
 62
2
  6
CONTINUOUS
100
AcDbBlockReference
  2
*T2
 10
12.4237499994
 20
16.47875
 30
0.0
100
AcDbTable
342
       372
343
20B
 11
1.0
 21
0.0
 31
0.0
 90
22
 91
9
 92
3
 93
16
 94
0
 95
0
 96
0
 41
0.028
141
0.344
141
0.25
141
0.25
141
0.25
141
0.25
141
0.25
141
0.25
141
0.25
141
0.25
142
3.055
142
3.0
142
3.0
171
1
172
0
173
0
174
0
175
1
176
1
 91
33
178
0
145
0.0
301
CELL_VALUE
 90
4
  1
Technical Data
304
ACVALUE_END
170
5
140
0.145
171
1
172
0
173
0
174
0
175
1
176
1
 91
33
178
0
145
0.0
301
CELL_VALUE
 90
4
  1
U.S. Units
304
ACVALUE_END
170
5
140
0.145
171
1
172
0
173
0
174
0
175
1
176
1
 91
33
178
0
145
0.0
301
CELL_VALUE
 90
4
  1
Metric Units
304
ACVALUE_END
170
5
140
0.145
171
1
172
0
173
0
174
0
175
1
176
1
 91
33
178
0
145
0.0
301
CELL_VALUE
 90
4
  1
Cavity
304
ACVALUE_END
170
5
140
0.125
171
1
172
0
173
0
174
0
175
2
176
1
 91
33
178
0
145
0.0
301
CELL_VALUE
 90
4
  1
T-5A
304
ACVALUE_END
170
5
140
0.125
171
1
172
0
173
1
174
0
175
1
176
1
 91
1
178
0
145
0.0
170
1
171
1
172
0
173
0
174
0
175
1
176
1
 91
33
178
0
145
0.0
301
CELL_VALUE
 90
4
  1
Body Features
304
ACVALUE_END
170
5
140
0.125
171
1
172
0
173
0
174
0
175
2
176
1
 91
33
178
0
145
0.0
301
CELL_VALUE
 90
4
  1
Flow into or out of workport A or B
304
ACVALUE_END
170
5
140
0.125
171
1
172
0
173
1
174
0
175
1
176
1
 91
1
178
0
145
0.0
170
1
171
1
172
0
173
0
174
0
175
1
176
1
 91
33
178
0
145
0.0
301
CELL_VALUE
 90
4
  1
Body Type
304
ACVALUE_END
170
5
140
0.125
171
1
172
0
173
0
174
0
175
2
176
1
 91
33
178
0
145
0.0
301
CELL_VALUE
 90
4
  1
Sandwich
304
ACVALUE_END
170
5
140
0.125
171
1
172
0
173
1
174
0
175
1
176
1
 91
1
178
0
145
0.0
170
1
171
1
172
0
173
0
174
0
175
1
176
1
 91
33
178
0
145
0.0
301
CELL_VALUE
 90
4
  1
Interface
304
ACVALUE_END
170
5
140
0.125
171
1
172
0
173
0
174
0
175
2
176
1
 91
33
178
0
145
0.0
301
CELL_VALUE
 90
4
  1
ISO 03
304
ACVALUE_END
170
5
140
0.125
171
1
172
0
173
1
174
0
175
1
176
1
 91
1
178
0
145
0.0
170
1
171
1
172
0
173
0
174
0
175
1
176
1
 91
33
178
0
145
0.0
301
CELL_VALUE
 90
4
  1
Open Cavity Quantity
304
ACVALUE_END
170
5
140
0.125
171
1
172
0
173
0
174
0
175
2
176
1
 91
33
178
0
145
0.0
301
CELL_VALUE
 90
4
  1
1
304
ACVALUE_END
170
5
140
0.125
171
1
172
0
173
1
174
0
175
1
176
1
 91
1
178
0
145
0.0
170
1
171
1
172
0
173
0
174
0
175
1
176
1
 91
33
178
0
145
0.0
301
CELL_VALUE
 90
4
  1
Stack Height
304
ACVALUE_END
170
5
140
0.125
171
1
172
0
173
0
174
0
175
1
176
1
 91
33
178
0
145
0.0
301
CELL_VALUE
 90
4
  1
1.75 in.
304
ACVALUE_END
170
5
140
0.125
171
1
172
0
173
0
174
0
175
1
176
1
 91
33
178
0
145
0.0
301
CELL_VALUE
 90
4
  1
44,5 mm
304
ACVALUE_END
170
5
140
0.125
171
1
172
0
173
0
174
0
175
1
176
1
 91
33
178
0
145
0.0
301
CELL_VALUE
 90
4
  1
Weight
304
ACVALUE_END
170
5
140
0.125
171
1
172
0
173
0
174
0
175
1
176
1
 91
33
178
0
145
0.0
301
CELL_VALUE
 90
4
  1
0.869 lb.
304
ACVALUE_END
170
5
140
0.125
171
1
172
0
173
0
174
0
175
1
176
1
 91
33
178
0
145
0.0
301
CELL_VALUE
 90
4
  1
0,394 kg.
304
ACVALUE_END
170
5
140
0.125
171
1
172
0
173
0
174
0
175
1
176
1
 91
33
178
0
145
0.0
301
CELL_VALUE
 90
4
  1
Seal Plate Included (see notes)
304
ACVALUE_END
170
5
140
0.125
171
1
172
0
173
0
174
0
175
2
176
1
 91
33
178
0
145
0.0
301
CELL_VALUE
 90
4
  1
Yes
304
ACVALUE_END
170
5
140
0.125
171
1
172
0
173
1
174
0
175
1
176
1
 91
1
178
0
145
0.0
170
1
  0
MTEXT
  5
271
100
AcDbEntity
  8
0
100
AcDbMText
 62
2
  6
CONTINUOUS
  7
STANDARD
 71
1
 72
1
 10
0.52125
 20
5.75995
 30
0.0
 11
1.0
 21
0.0
 31
0.0
 44
0.6
  3
Notes\P \P1. For check valve application, use\P   only with CX*A check valves - free\P   flow nose to side.\P2. Stack height value in technical\P   data table includes seal retainer\P   plate.\P3. Important: Carefully consider\P   the maximum system 
  3
pressure. The\P   pressure rating of the manifold is\P   dependent on the manifold material,\P   with the port type/size a secondary\P   consideration. Manifolds\P   constructed of aluminum are not\P   rated for pressures higher than\P   3000 psi (21
  1
0 bar), regardless of\P   the port type/size specified.\P4. Items without balloons are\P   shipped loose.
 40
0.1
 41
3.04
  0
LINE
  5
272
100
AcDbEntity
  8
0
100
AcDbLine
 62
7
  6
CONTINUOUS
 10
0.30125
 20
0.30125
 11
0.30125
 21
16.69875
  0
LINE
  5
273
100
AcDbEntity
  8
0
100
AcDbLine
 62
7
  6
CONTINUOUS
 10
0.30125
 20
0.30125
 11
21.69875
 21
0.30125
  0
LINE
  5
274
100
AcDbEntity
  8
0
100
AcDbLine
 62
7
  6
CONTINUOUS
 10
0.30125
 20
16.69875
 11
21.69875
 21
16.69875
  0
LINE
  5
275
100
AcDbEntity
  8
0
100
AcDbLine
 62
7
  6
CONTINUOUS
 10
21.69875
 20
0.30125
 11
21.69875
 21
16.69875
  0
LINE
  5
276
100
AcDbEntity
  8
0
100
AcDbLine
 62
7
  6
CONTINUOUS
 10
6.8900629624
 20
9.9160917818
 11
6.8900629624
 21
6.5353511894
  0
LINE
  5
277
100
AcDbEntity
  8
0
100
AcDbLine
 62
7
  6
CONTINUOUS
 10
6.8900629624
 20
9.9160917818
 11
7.7700470142
 21
10.7660911545
  0
LINE
  5
278
100
AcDbEntity
  8
0
100
AcDbLine
 62
4
  6
CONTINUOUS
 10
7.1139596512
 20
9.9273593896
 11
7.1760761694
 21
9.9873593423
  0
LINE
  5
279
100
AcDbEntity
  8
0
100
AcDbLine
 62
4
  6
CONTINUOUS
 10
7.8663415989
 20
9.8591045863
 11
7.8663415621
 21
9.90219078
  0
LINE
  5
27A
100
AcDbEntity
  8
0
100
AcDbLine
 62
4
  6
CONTINUOUS
 10
8.684209087
 20
10.6491039623
 11
8.6836914493
 21
10.6486039627
  0
LINE
  5
27B
100
AcDbEntity
  8
0
100
AcDbLine
 62
4
  6
CONTINUOUS
 10
8.0475147807
 20
10.0341044511
 11
7.9853982625
 21
9.9741044984
  0
LINE
  5
27C
100
AcDbEntity
  8
0
100
AcDbLine
 62
4
  6
CONTINUOUS
 10
7.8663415989
 20
9.8591045863
 11
7.9719396798
 21
9.9611045059
  0
LINE
  5
27D
100
AcDbEntity
  8
0
100
AcDbLine
 62
4
  6
CONTINUOUS
 10
8.7041695979
 20
10.6683843365
 11
8.7352278577
 21
10.6983843135
  0
LINE
  5
27E
100
AcDbEntity
  8
0
100
AcDbLine
 62
4
  6
CONTINUOUS
 10
8.2306442804
 20
9.8659939835
 11
8.231684522
 21
9.8819987795
  0
LINE
  5
27F
100
AcDbEntity
  8
0
100
AcDbLine
 62
4
  6
CONTINUOUS
 10
7.9977818319
 20
9.8660661122
 11
8.0598983501
 21
9.9260660649
  0
LINE
  5
280
100
AcDbEntity
  8
0
100
AcDbLine
 62
4
  6
CONTINUOUS
 10
8.1427203793
 20
10.0060660057
 11
8.1582495089
 21
10.0210659939
  0
LINE
  5
281
100
AcDbEntity
  8
0
100
AcDbLine
 62
4
  6
CONTINUOUS
 10
8.1261510072
 20
9.9750612207
 11
8.1416801358
 21
9.990061208
  0
LINE
  5
282
100
AcDbEntity
  8
0
100
AcDbLine
 62
4
  6
CONTINUOUS
 10
8.1136929353
 20
9.8580276499
 11
8.1758094535
 21
9.9180276026
  0
LINE
  5
283
100
AcDbEntity
  8
0
100
AcDbLine
 62
4
  6
CONTINUOUS
 10
8.4065914187
 20
9.885945882
 11
8.4055511771
 21
9.869941086
  0
LINE
  5
284
100
AcDbEntity
  8
0
100
AcDbLine
 62
4
  6
CONTINUOUS
 10
8.5814983155
 20
9.8898929844
 11
8.5193817973
 21
9.8298930317
  0
LINE
  5
285
100
AcDbEntity
  8
0
100
AcDbLine
 62
4
  6
CONTINUOUS
 10
7.8663415989
 20
9.8591045863
 11
7.9495777701
 21
9.8964183293
  0
LINE
  5
286
100
AcDbEntity
  8
0
100
AcDbLine
 62
4
  6
CONTINUOUS
 10
8.6942886941
 20
9.8338401342
 11
8.6953289357
 21
9.8498449302
  0
LINE
  5
287
100
AcDbEntity
  8
0
100
AcDbLine
 62
4
  6
CONTINUOUS
 10
8.9871871775
 20
9.8617583663
 11
8.9250706593
 21
9.8017584136
  0
LINE
  5
288
100
AcDbEntity
  8
0
100
AcDbLine
 62
4
  6
CONTINUOUS
 10
9.1030982809
 20
9.853719904
 11
9.0409817628
 21
9.7937199513
  0
LINE
  5
289
100
AcDbEntity
  8
0
100
AcDbLine
 62
4
  6
CONTINUOUS
 10
9.9036781194
 20
10.5270206381
 11
9.9657946375
 21
10.5870205908
  0
LINE
  5
28A
100
AcDbEntity
  8
0
100
AcDbLine
 62
4
  6
CONTINUOUS
 10
8.231684522
 20
9.8819987795
 11
8.2617025395
 21
9.8959939599
  0
LINE
  5
28B
100
AcDbEntity
  8
0
100
AcDbLine
 62
4
  6
CONTINUOUS
 10
8.4055511771
 20
9.869941086
 11
8.3755331597
 21
9.8559459056
  0
LINE
  5
28C
100
AcDbEntity
  8
0
100
AcDbLine
 62
4
  6
CONTINUOUS
 10
8.6953289357
 20
9.8498449302
 11
8.7253469532
 21
9.8638401106
  0
LINE
  5
28D
100
AcDbEntity
  8
0
100
AcDbLine
 62
7
  6
CONTINUOUS
 10
11.2367294382
 20
6.2339088455
 11
6.8900629624
 21
6.5353511894
  0
LINE
  5
28E
100
AcDbEntity
  8
0
100
AcDbLine
 62
4
  6
CONTINUOUS
 10
10.0195892228
 20
10.5189821757
 11
10.081705741
 21
10.5789821284
  0
LINE
  5
28F
100
AcDbEntity
  8
0
100
AcDbLine
 62
4
  6
CONTINUOUS
 10
10.3114474646
 20
10.5308956119
 11
10.2814294471
 21
10.5169004315
  0
LINE
  5
290
100
AcDbEntity
  8
0
100
AcDbLine
 62
4
  6
CONTINUOUS
 10
10.6012252232
 20
10.510799456
 11
10.6312432407
 21
10.5247946364
  0
LINE
  5
291
100
AcDbEntity
  8
0
100
AcDbLine
 62
4
  6
CONTINUOUS
 10
10.7750918783
 20
10.4987417626
 11
10.7450738609
 21
10.4847465822
  0
LINE
  5
292
100
AcDbEntity
  8
0
100
AcDbLine
 62
7
  6
CONTINUOUS
 10
14.2786109508
 20
6.8923600829
 11
14.2026767785
 21
6.8810133004
  0
LINE
  5
293
100
AcDbEntity
  8
0
100
AcDbLine
 62
7
  6
CONTINUOUS
 10
11.3872377271
 20
6.525424996
 11
14.3449028524
 21
6.3203102229
  0
LINE
  5
294
100
AcDbEntity
  8
0
100
AcDbLine
 62
4
  6
CONTINUOUS
 10
10.4252780848
 20
10.4908475576
 11
10.487394603
 21
10.5508475103
  0
LINE
  5
295
100
AcDbEntity
  8
0
100
AcDbLine
 62
4
  6
CONTINUOUS
 10
10.893083465
 20
10.5227128922
 11
10.8309669468
 21
10.4627129395
  0
LINE
  5
296
100
AcDbEntity
  8
0
100
AcDbLine
 62
4
  6
CONTINUOUS
 10
11.1404348014
 20
10.5216359557
 11
11.0571986302
 21
10.4843222127
  0
LINE
  5
297
100
AcDbEntity
  8
0
100
AcDbLine
 62
4
  6
CONTINUOUS
 10
11.0162018181
 20
10.4016361025
 11
10.8816408603
 21
10.3466601888
  0
LINE
  5
298
100
AcDbEntity
  8
0
100
AcDbLine
 62
4
  6
CONTINUOUS
 10
11.0089945684
 20
10.5146744298
 11
10.9468780502
 21
10.4546744771
  0
LINE
  5
299
100
AcDbEntity
  8
0
100
AcDbLine
 62
4
  6
CONTINUOUS
 10
11.1404348014
 20
10.5216359557
 11
11.0348367205
 21
10.4196360361
  0
LINE
  5
29A
100
AcDbEntity
  8
0
100
AcDbLine
 62
4
  6
CONTINUOUS
 10
10.3691547082
 20
9.7766365502
 11
10.3686370705
 21
9.7761365506
  0
LINE
  5
29B
100
AcDbEntity
  8
0
100
AcDbLine
 62
4
  6
CONTINUOUS
 10
10.3891152191
 20
9.7959169244
 11
10.4201734789
 21
9.8259169014
  0
LINE
  5
29C
100
AcDbEntity
  8
0
100
AcDbLine
 62
7
  6
CONTINUOUS
 10
14.2026767785
 20
6.8810133004
 11
11.2450116532
 21
7.0861280735
  0
LINE
  5
29D
100
AcDbEntity
  8
0
100
AcDbLine
 62
4
  6
CONTINUOUS
 10
8.0598983501
 20
9.9260660649
 11
8.1136929353
 21
9.8580276499
  0
LINE
  5
29E
100
AcDbEntity
  8
0
100
AcDbLine
 62
4
  6
CONTINUOUS
 10
10.3124877062
 20
10.5469004078
 11
10.3114474646
 21
10.5308956119
  0
LINE
  5
29F
100
AcDbEntity
  8
0
100
AcDbLine
 62
4
  6
CONTINUOUS
 10
11.8431335756
 20
10.4353907916
 11
11.8483099527
 21
10.4403907883
  0
LINE
  5
2A0
100
AcDbEntity
  8
0
100
AcDbLine
 62
4
  6
CONTINUOUS
 10
11.8265642063
 20
10.4043860092
 11
11.8317405815
 21
10.4093860041
  0
LINE
  5
2A1
100
AcDbEntity
  8
0
100
AcDbLine
 62
7
  6
CONTINUOUS
 10
12.11671349
 20
10.4646488106
 11
11.2367294382
 21
9.6146494378
  0
LINE
  5
2A2
100
AcDbEntity
  8
0
100
AcDbLine
 62
4
  6
CONTINUOUS
 10
10.6001849816
 20
10.4947946601
 11
10.6012252232
 21
10.510799456
  0
LINE
  5
2A3
100
AcDbEntity
  8
0
100
AcDbLine
 62
4
  6
CONTINUOUS
 10
10.7761321199
 20
10.5147465585
 11
10.7750918783
 21
10.4987417626
  0
LINE
  5
2A4
100
AcDbEntity
  8
0
100
AcDbLine
 62
7
  6
CONTINUOUS
 10
11.4391257768
 20
9.6884426387
 11
11.9143171514
 21
10.1474422871
  0
LINE
  5
2A5
100
AcDbEntity
  8
0
100
AcDbLine
 62
7
  6
CONTINUOUS
 10
14.2786109508
 20
8.5827303791
 11
14.2026767785
 21
8.5713835966
  0
LINE
  5
2A6
100
AcDbEntity
  8
0
100
AcDbLine
 62
4
  6
CONTINUOUS
 10
8.2492693033
 20
9.853984376
 11
8.2306442804
 21
9.8659939835
  0
LINE
  5
2A7
100
AcDbEntity
  8
0
100
AcDbLine
 62
4
  6
CONTINUOUS
 10
8.1416801358
 20
9.990061208
 11
8.1230551124
 21
10.0020708151
  0
LINE
  5
2A8
100
AcDbEntity
  8
0
100
AcDbLine
 62
4
  6
CONTINUOUS
 10
8.1582495089
 20
10.0210659939
 11
8.1489369962
 21
10.0270707966
  0
LINE
  5
2A9
100
AcDbEntity
  8
0
100
AcDbLine
 62
4
  6
CONTINUOUS
 10
8.3879663971
 20
9.8979554908
 11
8.4065914187
 21
9.885945882
  0
LINE
  5
2AA
100
AcDbEntity
  8
0
100
AcDbLine
 62
4
  6
CONTINUOUS
 10
8.7129137171
 20
9.8218305267
 11
8.6942886941
 21
9.8338401342
  0
LINE
  5
2AB
100
AcDbEntity
  8
0
100
AcDbLine
 62
4
  6
CONTINUOUS
 10
8.8516108109
 20
9.8658016415
 11
8.8609233198
 21
9.8597968353
  0
LINE
  5
2AC
100
AcDbEntity
  8
0
100
AcDbLine
 62
4
  6
CONTINUOUS
 10
11.1404348014
 20
10.5216359557
 11
11.1404348382
 21
10.4785497621
  0
LINE
  5
2AD
100
AcDbEntity
  8
0
100
AcDbLine
 62
7
  6
CONTINUOUS
 10
11.2367294382
 20
9.6146494378
 11
11.2367294382
 21
6.2339088455
  0
LINE
  5
2AE
100
AcDbEntity
  8
0
100
AcDbLine
 62
7
  6
CONTINUOUS
 10
11.2450116532
 20
7.0861280735
 11
11.2450116532
 21
8.7764983697
  0
LINE
  5
2AF
100
AcDbEntity
  8
0
100
AcDbLine
 62
7
  6
CONTINUOUS
 10
14.2026767785
 20
8.5713835966
 11
11.2450116532
 21
8.7764983697
  0
LINE
  5
2B0
100
AcDbEntity
  8
0
100
AcDbLine
 62
4
  6
CONTINUOUS
 10
10.8816408603
 20
10.3466601888
 11
10.8713129389
 21
10.4116841804
  0
LINE
  5
2B1
100
AcDbEntity
  8
0
100
AcDbLine
 62
4
  6
CONTINUOUS
 10
8.2730707025
 20
9.8469747642
 11
8.2492693033
 21
9.853984376
  0
LINE
  5
2B2
100
AcDbEntity
  8
0
100
AcDbLine
 62
4
  6
CONTINUOUS
 10
8.3641649966
 20
9.9049651013
 11
8.3879663971
 21
9.8979554908
  0
LINE
  5
2B3
100
AcDbEntity
  8
0
100
AcDbLine
 62
4
  6
CONTINUOUS
 10
8.7367151163
 20
9.8148209149
 11
8.7129137171
 21
9.8218305267
  0
LINE
  5
2B4
100
AcDbEntity
  8
0
100
AcDbLine
 62
4
  6
CONTINUOUS
 10
8.7041695979
 20
10.6683843365
 11
8.8266283616
 21
10.5918667688
  0
LINE
  5
2B5
100
AcDbEntity
  8
0
100
AcDbLine
 62
4
  6
CONTINUOUS
 10
8.8278094103
 20
9.872811252
 11
8.8516108109
 21
9.8658016415
  0
LINE
  5
2B6
100
AcDbEntity
  8
0
100
AcDbLine
 62
4
  6
CONTINUOUS
 10
10.3891152191
 20
9.7959169244
 11
10.5115739829
 21
9.7193993567
  0
LINE
  5
2B7
100
AcDbEntity
  8
0
100
AcDbLine
 62
7
  6
CONTINUOUS
 10
12.11671349
 20
10.4646488106
 11
12.11671349
 21
10.160763023
  0
LINE
  5
2B8
100
AcDbEntity
  8
0
100
AcDbLine
 62
7
  6
CONTINUOUS
 10
11.2367294382
 20
9.6146494378
 11
6.8900629624
 21
9.9160917818
  0
LINE
  5
2B9
100
AcDbEntity
  8
0
100
AcDbLine
 62
4
  6
CONTINUOUS
 10
8.7656928921
 20
9.8128112993
 11
8.7367151163
 21
9.8148209149
  0
LINE
  5
2BA
100
AcDbEntity
  8
0
100
AcDbLine
 62
4
  6
CONTINUOUS
 10
8.3020484784
 20
9.8449651486
 11
8.2730707025
 21
9.8469747642
  0
LINE
  5
2BB
100
AcDbEntity
  8
0
100
AcDbLine
 62
4
  6
CONTINUOUS
 10
7.0280665652
 20
9.9493930323
 11
7.1584665566
 21
9.9403497622
  0
LINE
  5
2BC
100
AcDbEntity
  8
0
100
AcDbLine
 62
4
  6
CONTINUOUS
 10
8.9561289184
 20
9.8317583899
 11
9.0720400219
 21
9.8237199276
  0
LINE
  5
2BD
100
AcDbEntity
  8
0
100
AcDbLine
 62
7
  6
CONTINUOUS
 10
14.3967909021
 20
9.4833278656
 11
11.4391257768
 21
9.6884426387
  0
LINE
  5
2BE
100
AcDbEntity
  8
0
100
AcDbLine
 62
4
  6
CONTINUOUS
 10
8.3351872207
 20
9.9069747169
 11
8.3641649966
 21
9.9049651013
  0
LINE
  5
2BF
100
AcDbEntity
  8
0
100
AcDbLine
 62
4
  6
CONTINUOUS
 10
8.5090538759
 20
9.8949170234
 11
8.6539427551
 21
9.8848689455
  0
LINE
  5
2C0
100
AcDbEntity
  8
0
100
AcDbLine
 62
4
  6
CONTINUOUS
 10
8.7988316344
 20
9.8748208676
 11
8.8278094103
 21
9.872811252
  0
LINE
  5
2C1
100
AcDbEntity
  8
0
100
AcDbLine
 62
4
  6
CONTINUOUS
 10
7.9719396798
 20
9.9611045059
 11
9.362872921
 21
9.864642958
  0
LINE
  5
2C2
100
AcDbEntity
  8
0
100
AcDbLine
 62
4
  6
CONTINUOUS
 10
7.9853982625
 20
9.9741044984
 11
8.086820478
 21
9.9670708439
  0
LINE
  5
2C3
100
AcDbEntity
  8
0
100
AcDbLine
 62
4
  6
CONTINUOUS
 10
10.1551655894
 20
10.5149389005
 11
10.1458530805
 21
10.5209437067
  0
LINE
  5
2C4
100
AcDbEntity
  8
0
100
AcDbLine
 62
4
  6
CONTINUOUS
 10
10.9468780502
 20
10.4546744771
 11
10.893083465
 21
10.5227128922
  0
LINE
  5
2C5
100
AcDbEntity
  8
0
100
AcDbLine
 62
4
  6
CONTINUOUS
 10
10.3891152191
 20
9.7959169244
 11
10.1352421933
 21
9.7454980549
  0
LINE
  5
2C6
100
AcDbEntity
  8
0
100
AcDbLine
 62
4
  6
CONTINUOUS
 10
8.7998470446
 20
9.8158016799
 11
8.7656928921
 21
9.8128112993
  0
LINE
  5
2C7
100
AcDbEntity
  8
0
100
AcDbLine
 62
4
  6
CONTINUOUS
 10
8.7646774833
 20
9.8718304883
 11
8.7988316344
 21
9.8748208676
  0
LINE
  5
2C8
100
AcDbEntity
  8
0
100
AcDbLine
 62
4
  6
CONTINUOUS
 10
8.3362026309
 20
9.8479555292
 11
8.3020484784
 21
9.8449651486
  0
LINE
  5
2C9
100
AcDbEntity
  8
0
100
AcDbLine
 62
4
  6
CONTINUOUS
 10
8.0216328969
 20
10.0091044696
 11
8.1230551124
 21
10.0020708151
  0
LINE
  5
2CA
100
AcDbEntity
  8
0
100
AcDbLine
 62
4
  6
CONTINUOUS
 10
8.1489369962
 20
10.0270707966
 11
8.0475147807
 21
10.0341044511
  0
LINE
  5
2CB
100
AcDbEntity
  8
0
100
AcDbLine
 62
4
  6
CONTINUOUS
 10
10.2938626832
 20
10.5589100154
 11
10.3124877062
 21
10.5469004078
  0
LINE
  5
2CC
100
AcDbEntity
  8
0
100
AcDbLine
 62
4
  6
CONTINUOUS
 10
10.6188100032
 20
10.4827850512
 11
10.6001849816
 21
10.4947946601
  0
LINE
  5
2CD
100
AcDbEntity
  8
0
100
AcDbLine
 62
4
  6
CONTINUOUS
 10
10.757507097
 20
10.5267561661
 11
10.7761321199
 21
10.5147465585
  0
LINE
  5
2CE
100
AcDbEntity
  8
0
100
AcDbLine
 62
7
  6
CONTINUOUS
 10
14.3967909021
 20
9.4833278656
 11
14.8719822768
 21
9.942327514
  0
LINE
  5
2CF
100
AcDbEntity
  8
0
100
AcDbLine
 62
7
  6
CONTINUOUS
 10
14.4566783069
 20
9.4192872552
 11
14.9318696816
 21
9.8782869036
  0
LINE
  5
2D0
100
AcDbEntity
  8
0
100
AcDbLine
 62
7
  6
CONTINUOUS
 10
11.5283945604
 20
6.5156357363
 11
11.2367294382
 21
6.2339088455
  0
LINE
  5
2D1
100
AcDbEntity
  8
0
100
AcDbLine
 62
4
  6
CONTINUOUS
 10
11.8317405815
 20
10.4093860041
 11
11.8514058447
 21
10.4133811912
  0
LINE
  5
2D2
100
AcDbEntity
  8
0
100
AcDbLine
 62
4
  6
CONTINUOUS
 10
8.8195123092
 20
9.8197968683
 11
8.7998470446
 21
9.8158016799
  0
LINE
  5
2D3
100
AcDbEntity
  8
0
100
AcDbLine
 62
4
  6
CONTINUOUS
 10
11.8483099527
 20
10.4403907883
 11
11.8876404814
 21
10.4483811646
  0
LINE
  5
2D4
100
AcDbEntity
  8
0
100
AcDbLine
 62
4
  6
CONTINUOUS
 10
8.7253469532
 20
9.8638401106
 11
8.7646774833
 21
9.8718304883
  0
LINE
  5
2D5
100
AcDbEntity
  8
0
100
AcDbLine
 62
4
  6
CONTINUOUS
 10
8.3755331597
 20
9.8559459056
 11
8.3362026309
 21
9.8479555292
  0
LINE
  5
2D6
100
AcDbEntity
  8
0
100
AcDbLine
 62
4
  6
CONTINUOUS
 10
8.2617025395
 20
9.8959939599
 11
8.3010330696
 21
9.9039843376
  0
LINE
  5
2D7
100
AcDbEntity
  8
0
100
AcDbLine
 62
4
  6
CONTINUOUS
 10
8.3010330696
 20
9.9039843376
 11
8.3351872207
 21
9.9069747169
  0
LINE
  5
2D8
100
AcDbEntity
  8
0
100
AcDbLine
 62
4
  6
CONTINUOUS
 10
11.9228100428
 20
10.3923523563
 11
11.8886558916
 21
10.389361977
  0
LINE
  5
2D9
100
AcDbEntity
  8
0
100
AcDbLine
 62
4
  6
CONTINUOUS
 10
11.8514058447
 20
10.4133811912
 11
11.8855599996
 21
10.416371574
  0
LINE
  5
2DA
100
AcDbEntity
  8
0
100
AcDbLine
 62
4
  6
CONTINUOUS
 10
11.8876404814
 20
10.4483811646
 11
11.921794634
 21
10.4513715453
  0
LINE
  5
2DB
100
AcDbEntity
  8
0
100
AcDbLine
 62
7
  6
CONTINUOUS
 10
14.8719822768
 20
9.942327514
 11
11.9143171514
 21
10.1474422871
  0
LINE
  5
2DC
100
AcDbEntity
  8
0
100
AcDbLine
 62
7
  6
CONTINUOUS
 10
11.9662052011
 20
10.1712008083
 11
14.9238703265
 21
9.9660860352
  0
LINE
  5
2DD
100
AcDbEntity
  8
0
100
AcDbLine
 62
4
  6
CONTINUOUS
 10
10.9665185356
 20
10.3836457333
 11
10.879585208
 21
10.38967458
  0
LINE
  5
2DE
100
AcDbEntity
  8
0
100
AcDbLine
 62
4
  6
CONTINUOUS
 10
11.0348367205
 20
10.4196360361
 11
9.6439034793
 21
10.516097584
  0
LINE
  5
2DF
100
AcDbEntity
  8
0
100
AcDbLine
 62
4
  6
CONTINUOUS
 10
10.17896699
 20
10.50792929
 11
10.1551655894
 21
10.5149389005
  0
LINE
  5
2E0
100
AcDbEntity
  8
0
100
AcDbLine
 62
4
  6
CONTINUOUS
 10
10.270061284
 20
10.5659196272
 11
10.2938626832
 21
10.5589100154
  0
LINE
  5
2E1
100
AcDbEntity
  8
0
100
AcDbLine
 62
4
  6
CONTINUOUS
 10
10.6426114037
 20
10.4757754407
 11
10.6188100032
 21
10.4827850512
  0
LINE
  5
2E2
100
AcDbEntity
  8
0
100
AcDbLine
 62
4
  6
CONTINUOUS
 10
10.7337056978
 20
10.5337657779
 11
10.757507097
 21
10.5267561661
  0
LINE
  5
2E3
100
AcDbEntity
  8
0
100
AcDbLine
 62
4
  6
CONTINUOUS
 10
10.7450738609
 20
10.4847465822
 11
10.7057433307
 21
10.4767562045
  0
LINE
  5
2E4
100
AcDbEntity
  8
0
100
AcDbLine
 62
4
  6
CONTINUOUS
 10
8.086820478
 20
9.9670708439
 11
8.1261510072
 21
9.9750612207
  0
LINE
  5
2E5
100
AcDbEntity
  8
0
100
AcDbLine
 62
4
  6
CONTINUOUS
 10
8.1230551124
 20
10.0020708151
 11
8.1427203793
 21
10.0060660057
  0
LINE
  5
2E6
100
AcDbEntity
  8
0
100
AcDbLine
 62
4
  6
CONTINUOUS
 10
10.6312432407
 20
10.5247946364
 11
10.6705737694
 21
10.5327850128
  0
LINE
  5
2E7
100
AcDbEntity
  8
0
100
AcDbLine
 62
4
  6
CONTINUOUS
 10
10.2814294471
 20
10.5169004315
 11
10.242098917
 21
10.5089100538
  0
LINE
  5
2E8
100
AcDbEntity
  8
0
100
AcDbLine
 62
4
  6
CONTINUOUS
 10
10.1872640911
 20
10.5609436737
 11
10.2069293557
 21
10.5649388621
  0
LINE
  5
2E9
100
AcDbEntity
  8
0
100
AcDbLine
 62
4
  6
CONTINUOUS
 10
10.7057433307
 20
10.4767562045
 11
10.6715891796
 21
10.4737658252
  0
LINE
  5
2EA
100
AcDbEntity
  8
0
100
AcDbLine
 62
4
  6
CONTINUOUS
 10
10.6705737694
 20
10.5327850128
 11
10.7047279219
 21
10.5357753934
  0
LINE
  5
2EB
100
AcDbEntity
  8
0
100
AcDbLine
 62
4
  6
CONTINUOUS
 10
10.242098917
 20
10.5089100538
 11
10.2079447659
 21
10.5059196745
  0
LINE
  5
2EC
100
AcDbEntity
  8
0
100
AcDbLine
 62
4
  6
CONTINUOUS
 10
10.2069293557
 20
10.5649388621
 11
10.2410835082
 21
10.5679292427
  0
LINE
  5
2ED
100
AcDbEntity
  8
0
100
AcDbLine
 62
4
  6
CONTINUOUS
 10
11.8886558916
 20
10.389361977
 11
11.8596781158
 21
10.3913715926
  0
LINE
  5
2EE
100
AcDbEntity
  8
0
100
AcDbLine
 62
4
  6
CONTINUOUS
 10
10.6715891796
 20
10.4737658252
 11
10.6426114037
 21
10.4757754407
  0
LINE
  5
2EF
100
AcDbEntity
  8
0
100
AcDbLine
 62
4
  6
CONTINUOUS
 10
10.4977225244
 20
10.4858235187
 11
10.3528336452
 21
10.4958715966
  0
LINE
  5
2F0
100
AcDbEntity
  8
0
100
AcDbLine
 62
4
  6
CONTINUOUS
 10
10.2079447659
 20
10.5059196745
 11
10.17896699
 21
10.50792929
  0
LINE
  5
2F1
100
AcDbEntity
  8
0
100
AcDbLine
 62
4
  6
CONTINUOUS
 10
11.9145377754
 20
10.4143619585
 11
11.8855599996
 21
10.416371574
  0
LINE
  5
2F2
100
AcDbEntity
  8
0
100
AcDbLine
 62
4
  6
CONTINUOUS
 10
10.0506474819
 20
10.5489821521
 11
9.9347363784
 21
10.5570206144
  0
LINE
  5
2F3
100
AcDbEntity
  8
0
100
AcDbLine
 62
4
  6
CONTINUOUS
 10
10.2410835082
 20
10.5679292427
 11
10.270061284
 21
10.5659196272
  0
LINE
  5
2F4
100
AcDbEntity
  8
0
100
AcDbLine
 62
4
  6
CONTINUOUS
 10
10.7047279219
 20
10.5357753934
 11
10.7337056978
 21
10.5337657779
  0
LINE
  5
2F5
100
AcDbEntity
  8
0
100
AcDbLine
 62
4
  6
CONTINUOUS
 10
11.921794634
 20
10.4513715453
 11
11.9507724098
 21
10.4493619297
  0
LINE
  5
2F6
100
AcDbEntity
  8
0
100
AcDbLine
 62
7
  6
CONTINUOUS
 10
7.7700470142
 20
10.7660911545
 11
12.11671349
 21
10.4646488106
  0
LINE
  5
2F7
100
AcDbEntity
  8
0
100
AcDbLine
 62
4
  6
CONTINUOUS
 10
11.8596781158
 20
10.3913715926
 11
11.8358767152
 21
10.398381203
  0
LINE
  5
2F8
100
AcDbEntity
  8
0
100
AcDbLine
 62
4
  6
CONTINUOUS
 10
11.8855599996
 20
10.416371574
 11
11.861758599
 21
10.4233811845
  0
LINE
  5
2F9
100
AcDbEntity
  8
0
100
AcDbLine
 62
4
  6
CONTINUOUS
 10
11.9507724098
 20
10.4493619297
 11
11.974573809
 21
10.4423523179
  0
LINE
  5
2FA
100
AcDbEntity
  8
0
100
AcDbLine
 62
4
  6
CONTINUOUS
 10
11.8358767152
 20
10.398381203
 11
11.8265642063
 21
10.4043860092
  0
LINE
  5
2FB
100
AcDbEntity
  8
0
100
AcDbLine
 62
4
  6
CONTINUOUS
 10
11.861758599
 20
10.4233811845
 11
11.8431335756
 21
10.4353907916
  0
LINE
  5
2FC
100
AcDbEntity
  8
0
100
AcDbLine
 62
4
  6
CONTINUOUS
 10
11.974573809
 20
10.4423523179
 11
11.9838863203
 21
10.4363475139
  0
LINE
  5
2FD
100
AcDbEntity
  8
0
100
AcDbLine
 62
4
  6
CONTINUOUS
 10
7.1760761694
 20
9.9873593423
 11
7.0280665652
 21
9.9493930323
  0
LINE
  5
2FE
100
AcDbEntity
  8
0
100
AcDbLine
 62
4
  6
CONTINUOUS
 10
8.7041695979
 20
10.6683843365
 11
8.4502965721
 21
10.617965467
  0
LINE
  5
2FF
100
AcDbEntity
  8
0
100
AcDbLine
 62
7
  6
CONTINUOUS
 10
14.4566783069
 20
9.4192872552
 11
14.3967909021
 21
9.4833278656
  0
LINE
  5
300
100
AcDbEntity
  8
0
100
AcDbLine
 62
7
  6
CONTINUOUS
 10
14.2026767785
 20
6.8810133004
 11
14.2026767785
 21
8.5713835966
  0
LINE
  5
301
100
AcDbEntity
  8
0
100
AcDbLine
 62
7
  6
CONTINUOUS
 10
14.2786109508
 20
6.8923600829
 11
14.2786109508
 21
8.5827303791
  0
LINE
  5
302
100
AcDbEntity
  8
0
100
AcDbLine
 62
7
  6
CONTINUOUS
 10
14.9318696816
 20
6.8588025917
 11
14.4566783069
 21
6.3998029433
  0
LINE
  5
303
100
AcDbEntity
  8
0
100
AcDbLine
 62
7
  6
CONTINUOUS
 10
14.4566783069
 20
6.3998029433
 11
14.4549957911
 21
6.3982076507
  0
LINE
  5
304
100
AcDbEntity
  8
0
100
AcDbLine
 62
7
  6
CONTINUOUS
 10
14.394958496
 20
6.3423310542
 11
14.4549973797
 21
6.3982089023
  0
LINE
  5
305
100
AcDbEntity
  8
0
100
AcDbLine
 62
7
  6
CONTINUOUS
 10
14.9318696816
 20
9.8782869036
 11
14.8719822768
 21
9.942327514
  0
LINE
  5
306
100
AcDbEntity
  8
0
100
AcDbLine
 62
7
  6
CONTINUOUS
 10
14.9704071134
 20
9.9373664961
 11
15.022158065
 21
9.8737359965
  0
LINE
  5
307
100
AcDbEntity
  8
0
100
AcDbLine
 62
7
  6
CONTINUOUS
 10
15.1099370376
 20
9.3857297639
 11
15.1099370376
 21
7.6953594678
  0
ARC
  5
308
100
AcDbEntity
  8
0
100
AcDbCircle
 62
7
  6
CONTINUOUS
 10
9.2686135978
 20
6.9986017857
 40
0.2503431329
100
AcDbArc
 50
169.0236251045
 51
182.865022799
  0
ARC
  5
309
100
AcDbEntity
  8
0
100
AcDbCircle
 62
7
  6
CONTINUOUS
 10
9.2602756439
 20
7.0494981832
 40
0.2215881437
100
AcDbArc
 50
78.6554202228
 51
86.0255766523
  0
SPLINE
  5
30A
100
AcDbEntity
  8
0
100
AcDbSpline
 62
7
  6
CONTINUOUS
 70
0
 71
3
 72
61
 73
57
 74
0
 42
0.0000001
 43
0.0000001
 44
0.0000000001
 40
0.0
 40
0.0
 40
0.0
 40
0.0
 40
0.041773683
 40
0.0840361744
 40
0.126657356
 40
0.1695049536
 40
0.2124461739
 40
0.255347734
 40
0.2980765393
 40
0.3405001682
 40
0.3824874064
 40
0.4239087759
 40
0.4646370687
 40
0.5045478875
 40
0.5435201962
 40
0.5814368877
 40
0.5999642174
 40
0.6181858165
 40
0.6360884225
 40
0.6536591429
 40
0.6708854449
 40
0.6877552479
 40
0.7042568506
 40
0.7203790744
 40
0.7361111744
 40
0.7514429752
 40
0.7663648323
 40
0.7808677049
 40
0.7949432137
 40
0.8085836306
 40
0.8217820383
 40
0.8345322654
 40
0.8468291079
 40
0.8586682842
 40
0.8700466517
 40
0.8809622685
 40
0.8914145636
 40
0.9014045599
 40
0.9109350136
 40
0.9200108095
 40
0.9286391477
 40
0.9368300847
 40
0.9445968849
 40
0.951956666
 40
0.9589309937
 40
0.9655465745
 40
0.9718360038
 40
0.977838309
 40
0.9807467497
 40
0.9836012173
 40
0.9864085083
 40
0.9891758169
 40
0.9919106779
 40
0.9946209207
 40
0.9973146171
 40
1.0
 40
1.0
 40
1.0
 40
1.0
 10
14.4820425499
 20
8.116605035
 30
0.0
 10
14.4820425499
 20
8.1367534321
 30
0.0
 10
14.4823568851
 20
8.1772866228
 30
0.0
 10
14.4837465159
 20
8.2383626588
 30
0.0
 10
14.486052949
 20
8.2999293847
 30
0.0
 10
14.4892686368
 20
8.3617830553
 30
0.0
 10
14.4933829452
 20
8.423718986
 30
0.0
 10
14.4983822772
 20
8.4855322884
 30
0.0
 10
14.5042500718
 20
8.5470184542
 30
0.0
 10
14.5109668779
 20
8.6079740722
 30
0.0
 10
14.518510412
 20
8.668197495
 30
0.0
 10
14.5268556304
 20
8.7274895198
 30
0.0
 10
14.5359748124
 20
8.785654034
 30
0.0
 10
14.5458376445
 20
8.8424987445
 30
0.0
 10
14.5564113478
 20
8.8978355592
 30
0.0
 10
14.5658569084
 20
8.942880226
 30
0.0
 10
14.5737530071
 20
8.9780173434
 30
0.0
 10
14.5797848258
 20
9.0036780854
 30
0.0
 10
14.5859668551
 20
9.0288281805
 30
0.0
 10
14.5922939761
 20
9.0534468476
 30
0.0
 10
14.5987609748
 20
9.0775137197
 30
0.0
 10
14.6053624344
 20
9.1010089021
 30
0.0
 10
14.6120929466
 20
9.1239129643
 30
0.0
 10
14.6189468618
 20
9.1462069819
 30
0.0
 10
14.6259185562
 20
9.1678725257
 30
0.0
 10
14.6330022048
 20
9.1888917034
 30
0.0
 10
14.6401919543
 20
9.2092471552
 30
0.0
 10
14.6474818501
 20
9.2289220785
 30
0.0
 10
14.6548658162
 20
9.2479002485
 30
0.0
 10
14.6623377925
 20
9.2661660084
 30
0.0
 10
14.6698915152
 20
9.2837043295
 30
0.0
 10
14.6775208188
 20
9.300500761
 30
0.0
 10
14.6852193165
 20
9.3165415215
 30
0.0
 10
14.6929807223
 20
9.3318134326
 30
0.0
 10
14.7007986055
 20
9.3463040015
 30
0.0
 10
14.7086665608
 20
9.3600013901
 30
0.0
 10
14.7165781861
 20
9.3728944305
 30
0.0
 10
14.7245269999
 20
9.3849726847
 30
0.0
 10
14.7325066902
 20
9.396226343
 30
0.0
 10
14.740510805
 20
9.4066463976
 30
0.0
 10
14.748533181
 20
9.4162244201
 30
0.0
 10
14.7565675706
 20
9.4249527898
 30
0.0
 10
14.7646080352
 20
9.4328244271
 30
0.0
 10
14.7726487403
 20
9.4398329172
 30
0.0
 10
14.7806840125
 20
9.4459723143
 30
0.0
 10
14.7887086395
 20
9.4512370368
 30
0.0
 10
14.7967165463
 20
9.4556216316
 30
0.0
 10
14.8034422782
 20
9.4585682993
 30
0.0
 10
14.8087937849
 20
9.4604618054
 30
0.0
 10
14.8127564375
 20
9.4616447145
 30
0.0
 10
14.8167089154
 20
9.4626047229
 30
0.0
 10
14.8206504274
 20
9.4633416387
 30
0.0
 10
14.8245800665
 20
9.4638552185
 30
0.0
 10
14.8284969925
 20
9.4641452217
 30
0.0
 10
14.8324001162
 20
9.4642115719
 30
0.0
 10
14.8349941394
 20
9.4641066163
 30
0.0
 10
14.8362862568
 20
9.4640170021
 30
0.0
  0
SPLINE
  5
30B
100
AcDbEntity
  8
0
100
AcDbSpline
 62
7
  6
CONTINUOUS
 70
0
 71
3
 72
23
 73
19
 74
0
 42
0.0000001
 43
0.0000001
 44
0.0000000001
 40
0.0
 40
0.0
 40
0.0
 40
0.0
 40
0.0857355009
 40
0.1692304468
 40
0.250236005
 40
0.3285439342
 40
0.4039494671
 40
0.4762568777
 40
0.5452876307
 40
0.6108791642
 40
0.6728858902
 40
0.7311842657
 40
0.7856748204
 40
0.8362866032
 40
0.8829852015
 40
0.9257797615
 40
0.9647369634
 40
1.0
 40
1.0
 40
1.0
 40
1.0
 10
14.4238110181
 20
8.9216793059
 30
0.0
 10
14.4241855145
 20
8.9237066847
 30
0.0
 10
14.4249571895
 20
8.9277025554
 30
0.0
 10
14.4261998465
 20
8.9335905665
 30
0.0
 10
14.4275096552
 20
8.9392809149
 30
0.0
 10
14.4288825267
 20
8.9447560732
 30
0.0
 10
14.4303142653
 20
8.9499996595
 30
0.0
 10
14.4318005394
 20
8.9549957796
 30
0.0
 10
14.4333367822
 20
8.9597293105
 30
0.0
 10
14.434918268
 20
8.9641859996
 30
0.0
 10
14.4365402132
 20
8.9683524375
 30
0.0
 10
14.4381976403
 20
8.9722161624
 30
0.0
 10
14.4398855115
 20
8.9757656915
 30
0.0
 10
14.4415988116
 20
8.9789905732
 30
0.0
 10
14.4433324004
 20
8.9818814514
 30
0.0
 10
14.4450814933
 20
8.9844302388
 30
0.0
 10
14.4468410915
 20
8.9866295246
 30
0.0
 10
14.4480780576
 20
8.9879210422
 30
0.0
 10
14.448698781
 20
8.9884987557
 30
0.0
  0
SPLINE
  5
30C
100
AcDbEntity
  8
0
100
AcDbSpline
 62
7
  6
CONTINUOUS
 70
0
 71
3
 72
23
 73
19
 74
0
 42
0.0000001
 43
0.0000001
 44
0.0000000001
 40
0.0
 40
0.0
 40
0.0
 40
0.0
 40
0.0637757517
 40
0.1273453038
 40
0.1907021142
 40
0.2538559682
 40
0.3168132565
 40
0.3795821027
 40
0.442173382
 40
0.5045993411
 40
0.5668738656
 40
0.6290123776
 40
0.6910316412
 40
0.7529496359
 40
0.8147853464
 40
0.8765585919
 40
0.9382898467
 40
1.0
 40
1.0
 40
1.0
 40
1.0
 10
7.809624421
 20
9.3693570363
 30
0.0
 10
7.809624421
 20
9.3647901877
 30
0.0
 10
7.8094057846
 20
9.3556697101
 30
0.0
 10
7.8084192203
 20
9.3420445053
 30
0.0
 10
7.8067764862
 20
9.3285272366
 30
0.0
 10
7.8044815132
 20
9.3151498236
 30
0.0
 10
7.801539558
 20
9.3019427095
 30
0.0
 10
7.7979573493
 20
9.2889364263
 30
0.0
 10
7.7937430685
 20
9.276160994
 30
0.0
 10
7.7889064612
 20
9.2636458391
 30
0.0
 10
7.7834586705
 20
9.2514198167
 30
0.0
 10
7.7774121504
 20
9.239511168
 30
0.0
 10
7.7707808879
 20
9.2279473377
 30
0.0
 10
7.7635801761
 20
9.2167549778
 30
0.0
 10
7.7558265515
 20
9.2059599867
 30
0.0
 10
7.747537847
 20
9.1955871567
 30
0.0
 10
7.7387335454
 20
9.1856606977
 30
0.0
 10
7.7325325579
 20
9.1793548264
 30
0.0
 10
7.729354209
 20
9.1762847958
 30
0.0
  0
SPLINE
  5
30D
100
AcDbEntity
  8
0
100
AcDbSpline
 62
7
  6
CONTINUOUS
 70
0
 71
3
 72
23
 73
19
 74
0
 42
0.0000001
 43
0.0000001
 44
0.0000000001
 40
0.0
 40
0.0
 40
0.0
 40
0.0
 40
0.0637757517
 40
0.1273453038
 40
0.1907021142
 40
0.2538559682
 40
0.3168132565
 40
0.3795821027
 40
0.442173382
 40
0.5045993411
 40
0.5668738656
 40
0.6290123776
 40
0.6910316412
 40
0.7529496359
 40
0.8147853464
 40
0.8765585919
 40
0.9382898467
 40
1.0
 40
1.0
 40
1.0
 40
1.0
 10
10.8889962178
 20
9.1558018768
 30
0.0
 10
10.8889962178
 20
9.1512350283
 30
0.0
 10
10.8887775814
 20
9.1421145507
 30
0.0
 10
10.8877910171
 20
9.1284893459
 30
0.0
 10
10.886148283
 20
9.1149720772
 30
0.0
 10
10.88385331
 20
9.1015946641
 30
0.0
 10
10.8809113548
 20
9.0883875501
 30
0.0
 10
10.8773291461
 20
9.0753812668
 30
0.0
 10
10.8731148653
 20
9.0626058345
 30
0.0
 10
10.868278258
 20
9.0500906796
 30
0.0
 10
10.8628304674
 20
9.0378646573
 30
0.0
 10
10.8567839472
 20
9.0259560086
 30
0.0
 10
10.8501526847
 20
9.0143921783
 30
0.0
 10
10.8429519729
 20
9.0031998184
 30
0.0
 10
10.8351983483
 20
8.9924048273
 30
0.0
 10
10.8269096438
 20
8.9820319973
 30
0.0
 10
10.8181053422
 20
8.9721055382
 30
0.0
 10
10.8119043547
 20
8.965799667
 30
0.0
 10
10.8087260058
 20
8.9627296364
 30
0.0
  0
SPLINE
  5
30E
100
AcDbEntity
  8
0
100
AcDbSpline
 62
7
  6
CONTINUOUS
 70
0
 71
3
 72
23
 73
19
 74
0
 42
0.0000001
 43
0.0000001
 44
0.0000000001
 40
0.0
 40
0.0
 40
0.0
 40
0.0
 40
0.0637757517
 40
0.1273453038
 40
0.1907021142
 40
0.2538559682
 40
0.3168132565
 40
0.3795821027
 40
0.442173382
 40
0.5045993411
 40
0.5668738656
 40
0.6290123776
 40
0.6910316412
 40
0.7529496359
 40
0.8147853464
 40
0.8765585919
 40
0.9382898467
 40
1.0
 40
1.0
 40
1.0
 40
1.0
 10
10.8889962178
 20
6.740987168
 30
0.0
 10
10.8889962178
 20
6.7364203195
 30
0.0
 10
10.8887775814
 20
6.7272998419
 30
0.0
 10
10.8877910171
 20
6.7136746371
 30
0.0
 10
10.886148283
 20
6.7001573684
 30
0.0
 10
10.88385331
 20
6.6867799553
 30
0.0
 10
10.8809113548
 20
6.6735728413
 30
0.0
 10
10.8773291461
 20
6.660566558
 30
0.0
 10
10.8731148653
 20
6.6477911257
 30
0.0
 10
10.868278258
 20
6.6352759708
 30
0.0
 10
10.8628304674
 20
6.6230499485
 30
0.0
 10
10.8567839472
 20
6.6111412997
 30
0.0
 10
10.8501526847
 20
6.5995774695
 30
0.0
 10
10.8429519729
 20
6.5883851095
 30
0.0
 10
10.8351983483
 20
6.5775901185
 30
0.0
 10
10.8269096438
 20
6.5672172884
 30
0.0
 10
10.8181053422
 20
6.5572908294
 30
0.0
 10
10.8119043547
 20
6.5509849582
 30
0.0
 10
10.8087260058
 20
6.5479149276
 30
0.0
  0
SPLINE
  5
30F
100
AcDbEntity
  8
0
100
AcDbSpline
 62
7
  6
CONTINUOUS
 70
0
 71
3
 72
23
 73
19
 74
0
 42
0.0000001
 43
0.0000001
 44
0.0000000001
 40
0.0
 40
0.0
 40
0.0
 40
0.0
 40
0.0637757517
 40
0.1273453038
 40
0.1907021142
 40
0.2538559682
 40
0.3168132565
 40
0.3795821027
 40
0.442173382
 40
0.5045993411
 40
0.5668738656
 40
0.6290123776
 40
0.6910316412
 40
0.7529496359
 40
0.8147853464
 40
0.8765585919
 40
0.9382898467
 40
1.0
 40
1.0
 40
1.0
 40
1.0
 10
7.809624421
 20
6.9545423275
 30
0.0
 10
7.809624421
 20
6.9499754789
 30
0.0
 10
7.8094057846
 20
6.9408550013
 30
0.0
 10
7.8084192203
 20
6.9272297965
 30
0.0
 10
7.8067764862
 20
6.9137125278
 30
0.0
 10
7.8044815132
 20
6.9003351148
 30
0.0
 10
7.801539558
 20
6.8871280007
 30
0.0
 10
7.7979573493
 20
6.8741217175
 30
0.0
 10
7.7937430685
 20
6.8613462852
 30
0.0
 10
7.7889064612
 20
6.8488311303
 30
0.0
 10
7.7834586705
 20
6.8366051079
 30
0.0
 10
7.7774121504
 20
6.8246964592
 30
0.0
 10
7.7707808879
 20
6.8131326289
 30
0.0
 10
7.7635801761
 20
6.801940269
 30
0.0
 10
7.7558265515
 20
6.7911452779
 30
0.0
 10
7.747537847
 20
6.7807724479
 30
0.0
 10
7.7387335454
 20
6.7708459889
 30
0.0
 10
7.7325325579
 20
6.7645401176
 30
0.0
 10
7.729354209
 20
6.761470087
 30
0.0
  0
SPLINE
  5
310
100
AcDbEntity
  8
0
100
AcDbSpline
 62
7
  6
CONTINUOUS
 70
0
 71
3
 72
23
 73
19
 74
0
 42
0.0000001
 43
0.0000001
 44
0.0000000001
 40
0.0
 40
0.0
 40
0.0
 40
0.0
 40
0.0612097703
 40
0.1226734208
 40
0.1843757138
 40
0.2463087212
 40
0.3084550567
 40
0.3707963209
 40
0.4333118269
 40
0.4959791644
 40
0.5587748591
 40
0.6216751163
 40
0.6846564602
 40
0.7476956572
 40
0.8107701177
 40
0.8738588527
 40
0.9369418176
 40
1.0
 40
1.0
 40
1.0
 40
1.0
 10
9.0633962003
 20
6.9780384216
 30
0.0
 10
9.0592179879
 20
6.9783281816
 30
0.0
 10
9.0508596293
 20
6.9791616435
 30
0.0
 10
9.0383959513
 20
6.981159754
 30
0.0
 10
9.0260227712
 20
6.9838982777
 30
0.0
 10
9.0137844178
 20
6.987361743
 30
0.0
 10
9.0017221598
 20
6.9915311707
 30
0.0
 10
8.9898752591
 20
6.9963835524
 30
0.0
 10
8.9782800023
 20
7.0018928439
 30
0.0
 10
8.9669696733
 20
7.0080305461
 30
0.0
 10
8.9559743834
 20
7.0147662797
 30
0.0
 10
8.9453209498
 20
7.0220682506
 30
0.0
 10
8.9350329715
 20
7.0299038183
 30
0.0
 10
8.9251310445
 20
7.0382400564
 30
0.0
 10
8.9156329036
 20
7.0470440471
 30
0.0
 10
8.9065534664
 20
7.0562832318
 30
0.0
 10
8.8979055636
 20
7.0659254242
 30
0.0
 10
8.8924329163
 20
7.0726040363
 30
0.0
 10
8.889771731
 20
7.076000349
 30
0.0
  0
SPLINE
  5
311
100
AcDbEntity
  8
0
100
AcDbSpline
 62
7
  6
CONTINUOUS
 70
0
 71
3
 72
23
 73
19
 74
0
 42
0.0000001
 43
0.0000001
 44
0.0000000001
 40
0.0
 40
0.0
 40
0.0
 40
0.0
 40
0.0637757517
 40
0.1273453038
 40
0.1907021142
 40
0.2538559682
 40
0.3168132565
 40
0.3795821027
 40
0.442173382
 40
0.5045993411
 40
0.5668738656
 40
0.6290123776
 40
0.6910316412
 40
0.7529496359
 40
0.8147853464
 40
0.8765585919
 40
0.9382898467
 40
1.0
 40
1.0
 40
1.0
 40
1.0
 10
9.3493102618
 20
8.8704135343
 30
0.0
 10
9.3493102618
 20
8.8658466858
 30
0.0
 10
9.3490916254
 20
8.8567262082
 30
0.0
 10
9.3481050611
 20
8.8431010034
 30
0.0
 10
9.346462327
 20
8.8295837347
 30
0.0
 10
9.344167354
 20
8.8162063216
 30
0.0
 10
9.3412253988
 20
8.8029992076
 30
0.0
 10
9.3376431901
 20
8.7899929243
 30
0.0
 10
9.3334289093
 20
8.777217492
 30
0.0
 10
9.3285923021
 20
8.7647023371
 30
0.0
 10
9.3231445114
 20
8.7524763148
 30
0.0
 10
9.3170979912
 20
8.7405676661
 30
0.0
 10
9.3104667287
 20
8.7290038358
 30
0.0
 10
9.303266017
 20
8.7178114759
 30
0.0
 10
9.2955123924
 20
8.7070164848
 30
0.0
 10
9.2872236878
 20
8.6966436548
 30
0.0
 10
9.2784193862
 20
8.6867171957
 30
0.0
 10
9.2722183987
 20
8.6804113245
 30
0.0
 10
9.2690400498
 20
8.6773412939
 30
0.0
  0
SPLINE
  5
312
100
AcDbEntity
  8
0
100
AcDbSpline
 62
7
  6
CONTINUOUS
 70
0
 71
3
 72
23
 73
19
 74
0
 42
0.0000001
 43
0.0000001
 44
0.0000000001
 40
0.0
 40
0.0
 40
0.0
 40
0.0
 40
0.0611503549
 40
0.1226405047
 40
0.1844500037
 40
0.2465476897
 40
0.308896167
 40
0.3401563749
 40
0.3714633729
 40
0.4341862961
 40
0.4970317194
 40
0.5599587181
 40
0.6229295364
 40
0.685910174
 40
0.7488705575
 40
0.8117843903
 40
0.8746288616
 40
1.0
 40
1.0
 40
1.0
 40
1.0
 10
9.756930922
 20
7.7204591322
 30
0.0
 10
9.7516309027
 20
7.7208266898
 30
0.0
 10
9.7410270526
 20
7.722006911
 30
0.0
 10
9.7252820137
 20
7.7250772565
 30
0.0
 10
9.7097525449
 20
7.7294166456
 30
0.0
 10
9.6945378947
 20
7.7349723765
 30
0.0
 10
9.6822022978
 20
7.7405573592
 30
0.0
 10
9.6725706088
 20
7.7455626724
 30
0.0
 10
9.6630934996
 20
7.7509213679
 30
0.0
 10
9.651584508
 20
7.7582435358
 30
0.0
 10
9.6383715429
 20
7.7679375189
 30
0.0
 10
9.6257839065
 20
7.7784634482
 30
0.0
 10
9.6138503236
 20
7.7897411286
 30
0.0
 10
9.6025904119
 20
7.801694472
 30
0.0
 10
9.5920171173
 20
7.8142516014
 30
0.0
 10
9.582137272
 20
7.8273465588
 30
0.0
 10
9.5699056676
 20
7.845421661
 30
0.0
 10
9.561755714
 20
7.8596365919
 30
0.0
 10
9.5567838519
 20
7.8693279211
 30
0.0
  0
SPLINE
  5
313
100
AcDbEntity
  8
0
100
AcDbSpline
 62
7
  6
CONTINUOUS
 70
0
 71
3
 72
21
 73
17
 74
0
 42
0.0000001
 43
0.0000001
 44
0.0000000001
 40
0.0
 40
0.0
 40
0.0
 40
0.0
 40
0.1273176253
 40
0.2537997538
 40
0.3167617031
 40
0.3795356349
 40
0.4421315552
 40
0.5045621127
 40
0.5668413504
 40
0.6289845238
 40
0.6910084429
 40
0.7529310808
 40
0.8147714271
 40
0.8765493234
 40
0.9382852026
 40
1.0
 40
1.0
 40
1.0
 40
1.0
 10
10.0621634662
 20
9.2440525562
 30
0.0
 10
10.0621634662
 20
9.2401103629
 30
0.0
 10
10.0617871637
 20
9.2322467709
 30
0.0
 10
10.0603659313
 20
9.2225256776
 30
0.0
 10
10.0586672652
 20
9.2149003203
 30
0.0
 10
10.0571181665
 20
9.2092758526
 30
0.0
 10
10.0552957796
 20
9.2037513185
 30
0.0
 10
10.0532042138
 20
9.1983393412
 30
0.0
 10
10.0508484173
 20
9.1930523742
 30
0.0
 10
10.0482336354
 20
9.1879026824
 30
0.0
 10
10.0453660769
 20
9.1829020575
 30
0.0
 10
10.0422521656
 20
9.1780621333
 30
0.0
 10
10.038899245
 20
9.1733939872
 30
0.0
 10
10.0353148829
 20
9.168908438
 30
0.0
 10
10.0315075705
 20
9.1646159089
 30
0.0
 10
10.0288260343
 20
9.1618890399
 30
0.0
 10
10.0274516009
 20
9.1605614542
 30
0.0
  0
SPLINE
  5
314
100
AcDbEntity
  8
0
100
AcDbSpline
 62
7
  6
CONTINUOUS
 70
0
 71
3
 72
21
 73
17
 74
0
 42
0.0000001
 43
0.0000001
 44
0.0000000001
 40
0.0
 40
0.0
 40
0.0
 40
0.0
 40
0.1273176253
 40
0.2537997538
 40
0.3167617031
 40
0.3795356349
 40
0.4421315552
 40
0.5045621127
 40
0.5668413504
 40
0.6289845238
 40
0.6910084429
 40
0.7529310808
 40
0.8147714271
 40
0.8765493234
 40
0.9382852026
 40
1.0
 40
1.0
 40
1.0
 40
1.0
 10
9.1870347134
 20
8.0664259536
 30
0.0
 10
9.1870347134
 20
8.0624837603
 30
0.0
 10
9.1866584108
 20
8.0546201683
 30
0.0
 10
9.1852371785
 20
8.044899075
 30
0.0
 10
9.1835385124
 20
8.0372737177
 30
0.0
 10
9.1819894136
 20
8.03164925
 30
0.0
 10
9.1801670268
 20
8.0261247159
 30
0.0
 10
9.178075461
 20
8.0207127386
 30
0.0
 10
9.1757196645
 20
8.0154257716
 30
0.0
 10
9.1731048826
 20
8.0102760798
 30
0.0
 10
9.1702373241
 20
8.0052754549
 30
0.0
 10
9.1671234128
 20
8.0004355307
 30
0.0
 10
9.1637704922
 20
7.9957673846
 30
0.0
 10
9.1601861301
 20
7.9912818354
 30
0.0
 10
9.1563788177
 20
7.9869893063
 30
0.0
 10
9.1536972815
 20
7.9842624373
 30
0.0
 10
9.152322848
 20
7.9829348516
 30
0.0
  0
SPLINE
  5
315
100
AcDbEntity
  8
0
100
AcDbSpline
 62
7
  6
CONTINUOUS
 70
0
 71
3
 72
21
 73
17
 74
0
 42
0.0000001
 43
0.0000001
 44
0.0000000001
 40
0.0
 40
0.0
 40
0.0
 40
0.0
 40
0.1273176253
 40
0.2537997538
 40
0.3167617031
 40
0.3795356349
 40
0.4421315552
 40
0.5045621127
 40
0.5668413504
 40
0.6289845238
 40
0.6910084429
 40
0.7529310808
 40
0.8147714271
 40
0.8765493234
 40
0.9382852026
 40
1.0
 40
1.0
 40
1.0
 40
1.0
 10
8.3119058454
 20
6.8887993014
 30
0.0
 10
8.3119058454
 20
6.8848571081
 30
0.0
 10
8.3115295429
 20
6.8769935161
 30
0.0
 10
8.3101083105
 20
6.8672724228
 30
0.0
 10
8.3084096444
 20
6.8596470655
 30
0.0
 10
8.3068605457
 20
6.8540225978
 30
0.0
 10
8.3050381588
 20
6.8484980637
 30
0.0
 10
8.302946593
 20
6.8430860864
 30
0.0
 10
8.3005907965
 20
6.8377991194
 30
0.0
 10
8.2979760146
 20
6.8326494276
 30
0.0
 10
8.2951084561
 20
6.8276488027
 30
0.0
 10
8.2919945448
 20
6.8228088785
 30
0.0
 10
8.2886416242
 20
6.8181407325
 30
0.0
 10
8.2850572621
 20
6.8136551832
 30
0.0
 10
8.2812499497
 20
6.8093626541
 30
0.0
 10
8.2785684135
 20
6.8066357851
 30
0.0
 10
8.2771939801
 20
6.8053081994
 30
0.0
  0
SPLINE
  5
316
100
AcDbEntity
  8
0
100
AcDbSpline
 62
7
  6
CONTINUOUS
 70
0
 71
3
 72
15
 73
11
 74
0
 42
0.0000001
 43
0.0000001
 44
0.0000000001
 40
0.0
 40
0.0
 40
0.0
 40
0.0
 40
0.1273482228
 40
0.253860527
 40
0.3795879206
 40
0.5046050801
 40
0.6290174363
 40
0.7529533709
 40
0.8765605784
 40
1.0
 40
1.0
 40
1.0
 40
1.0
 10
8.3389517701
 20
9.3635576933
 30
0.0
 10
8.3389517701
 20
9.3587532325
 30
0.0
 10
8.3384930453
 20
9.3491692055
 30
0.0
 10
8.3364184959
 20
9.334977491
 30
0.0
 10
8.3329785413
 20
9.3211423582
 30
0.0
 10
8.3282042456
 20
9.3077931974
 30
0.0
 10
8.3221394434
 20
9.2950531057
 30
0.0
 10
8.3148393963
 20
9.2830397244
 30
0.0
 10
8.3063727439
 20
9.2718656201
 30
0.0
 10
8.2999977848
 20
9.265039829
 30
0.0
 10
8.296648228
 20
9.2618043913
 30
0.0
  0
SPLINE
  5
317
100
AcDbEntity
  8
0
100
AcDbSpline
 62
7
  6
CONTINUOUS
 70
0
 71
3
 72
15
 73
11
 74
0
 42
0.0000001
 43
0.0000001
 44
0.0000000001
 40
0.0
 40
0.0
 40
0.0
 40
0.0
 40
0.1273482228
 40
0.253860527
 40
0.3795879206
 40
0.5046050801
 40
0.6290174363
 40
0.7529533709
 40
0.8765605784
 40
1.0
 40
1.0
 40
1.0
 40
1.0
 10
10.0892093909
 20
6.7655428819
 30
0.0
 10
10.0892093909
 20
6.7607384212
 30
0.0
 10
10.0887506661
 20
6.7511543942
 30
0.0
 10
10.0866761167
 20
6.7369626796
 30
0.0
 10
10.0832361621
 20
6.7231275469
 30
0.0
 10
10.0784618664
 20
6.7097783861
 30
0.0
 10
10.0723970642
 20
6.6970382944
 30
0.0
 10
10.0650970171
 20
6.6850249131
 30
0.0
 10
10.0566303647
 20
6.6738508088
 30
0.0
 10
10.0502554056
 20
6.6670250177
 30
0.0
 10
10.0469058488
 20
6.6637895799
 30
0.0
  0
SPLINE
  5
318
100
AcDbEntity
  8
0
100
AcDbSpline
 62
7
  6
CONTINUOUS
 70
0
 71
3
 72
38
 73
34
 74
0
 42
0.0000001
 43
0.0000001
 44
0.0000000001
 40
0.0
 40
0.0
 40
0.0
 40
0.0
 40
0.0319260656
 40
0.0643078412
 40
0.0969169703
 40
0.1295561266
 40
0.1620745168
 40
0.1943694439
 40
0.2263798914
 40
0.258076879
 40
0.320510759
 40
0.351292392
 40
0.3818154946
 40
0.4121145984
 40
0.4422281736
 40
0.4721985345
 40
0.5020714346
 40
0.5318952377
 40
0.5617207354
 40
0.5916005042
 40
0.6215876023
 40
0.6517337404
 40
0.6820867956
 40
0.7126880641
 40
0.7435693377
 40
0.7747499506
 40
0.8062346868
 40
0.8380126957
 40
0.8700580062
 40
0.9023315689
 40
0.9347842465
 40
0.9673601734
 40
1.0
 40
1.0
 40
1.0
 40
1.0
 10
9.9243628883
 20
8.0068766063
 30
0.0
 10
9.9197205441
 20
8.007198554
 30
0.0
 10
9.9103601028
 20
8.0077168446
 30
0.0
 10
9.8962377817
 20
8.0081195724
 30
0.0
 10
9.8820056064
 20
8.0081423457
 30
0.0
 10
9.8677582553
 20
8.0077699342
 30
0.0
 10
9.853573258
 20
8.0069854603
 30
0.0
 10
9.8395104157
 20
8.0057709404
 30
0.0
 10
9.8256134397
 20
8.0041073978
 30
0.0
 10
9.8074435701
 20
8.0012791032
 30
0.0
 10
9.7896159493
 20
7.9974660846
 30
0.0
 10
9.7722555495
 20
7.9925578044
 30
0.0
 10
9.7595823341
 20
7.9883382676
 30
0.0
 10
9.7472204315
 20
7.9835407605
 30
0.0
 10
9.7351964344
 20
7.9781421316
 30
0.0
 10
9.7235414108
 20
7.9721199393
 30
0.0
 10
9.7122910572
 20
7.9654528654
 30
0.0
 10
9.7014862636
 20
7.958121679
 30
0.0
 10
9.6911731497
 20
7.9501105766
 30
0.0
 10
9.6814028617
 20
7.9414086262
 30
0.0
 10
9.6722309903
 20
7.9320115097
 30
0.0
 10
9.6637164437
 20
7.9219235215
 30
0.0
 10
9.6559196409
 20
7.9111595691
 30
0.0
 10
9.6489000552
 20
7.8997468677
 30
0.0
 10
9.6427132296
 20
7.8877260347
 30
0.0
 10
9.6374074265
 20
7.8751513174
 30
0.0
 10
9.6330203782
 20
7.8620896839
 30
0.0
 10
9.6295764979
 20
7.8486187105
 30
0.0
 10
9.6270850708
 20
7.834823373
 30
0.0
 10
9.6255396438
 20
7.8207922589
 30
0.0
 10
9.6249187239
 20
7.8066133552
 30
0.0
 10
9.6251874789
 20
7.7923714427
 30
0.0
 10
9.6259291651
 20
7.7828885238
 30
0.0
 10
9.6264320693
 20
7.7781576477
 30
0.0
  0
SPLINE
  5
319
100
AcDbEntity
  8
0
100
AcDbSpline
 62
7
  6
CONTINUOUS
 70
0
 71
3
 72
48
 73
44
 74
0
 42
0.0000001
 43
0.0000001
 44
0.0000000001
 40
0.0
 40
0.0
 40
0.0
 40
0.0
 40
0.0378126882
 40
0.0760192244
 40
0.1145316533
 40
0.1532646684
 40
0.192130348
 40
0.2310410943
 40
0.2699090056
 40
0.308646322
 40
0.3471656717
 40
0.3853802996
 40
0.4232043291
 40
0.4605530172
 40
0.4973430216
 40
0.5334926543
 40
0.5689221418
 40
0.6035538949
 40
0.6373127924
 40
0.6701264944
 40
0.7019257413
 40
0.7326446802
 40
0.7622212296
 40
0.7905974914
 40
0.8177202481
 40
0.8307966625
 40
0.8435421432
 40
0.8559516828
 40
0.8680205675
 40
0.8797446449
 40
0.8911201969
 40
0.9021440081
 40
0.9128135267
 40
0.9231267006
 40
0.9330823085
 40
0.9426798206
 40
0.9519195346
 40
0.9608027361
 40
0.969331691
 40
0.9775101852
 40
0.9853433287
 40
0.9928373926
 40
1.0
 40
1.0
 40
1.0
 40
1.0
 10
15.1099370376
 20
7.6953594678
 30
0.0
 10
15.1099370376
 20
7.6844208762
 30
0.0
 10
15.1097916409
 20
7.6624295061
 30
0.0
 10
15.1091472474
 20
7.6293027953
 30
0.0
 10
15.1080766988
 20
7.5959207048
 30
0.0
 10
15.1065826528
 20
7.5623640476
 30
0.0
 10
15.1046686294
 20
7.5287133146
 30
0.0
 10
15.1023392554
 20
7.4950496674
 30
0.0
 10
15.0996001329
 20
7.4614541342
 30
0.0
 10
15.09645787
 20
7.4280076203
 30
0.0
 10
15.0929200459
 20
7.3947906638
 30
0.0
 10
15.0889951946
 20
7.3618832468
 30
0.0
 10
15.0846927848
 20
7.3293646067
 30
0.0
 10
15.0800232023
 20
7.2973130378
 30
0.0
 10
15.074997733
 20
7.2658056997
 30
0.0
 10
15.0696285212
 20
7.2349184319
 30
0.0
 10
15.0639285439
 20
7.2047255735
 30
0.0
 10
15.0579115803
 20
7.1752997834
 30
0.0
 10
15.0515921767
 20
7.1467118563
 30
0.0
 10
15.0449856292
 20
7.1190305433
 30
0.0
 10
15.0381079306
 20
7.0923223784
 30
0.0
 10
15.0309757324
 20
7.0666515389
 30
0.0
 10
15.0236063057
 20
7.042079613
 30
0.0
 10
15.016017491
 20
7.0186656842
 30
0.0
 10
15.0094485238
 20
6.9999446275
 30
0.0
 10
15.0040883695
 20
6.9855967398
 30
0.0
 10
15.0000738328
 20
6.9752909337
 30
0.0
 10
14.9960183911
 20
6.96531508
 30
0.0
 10
14.9919243867
 20
6.9556751751
 30
0.0
 10
14.9877943422
 20
6.9463769918
 30
0.0
 10
14.9836307363
 20
6.9374261022
 30
0.0
 10
14.9794360295
 20
6.9288278835
 30
0.0
 10
14.9752128242
 20
6.9205874539
 30
0.0
 10
14.9709635626
 20
6.9127097669
 30
0.0
 10
14.9666908532
 20
6.9051994929
 30
0.0
 10
14.9623972171
 20
6.8980611112
 30
0.0
 10
14.9580851862
 20
6.8912988931
 30
0.0
 10
14.9537574197
 20
6.8849168223
 30
0.0
 10
14.9494163495
 20
6.8789187028
 30
0.0
 10
14.9450645333
 20
6.8733079791
 30
0.0
 10
14.9407043594
 20
6.8680879395
 30
0.0
 10
14.936338637
 20
6.863261963
 30
0.0
 10
14.9333599951
 20
6.860242124
 30
0.0
 10
14.9318696816
 20
6.8588025917
 30
0.0
  0
SPLINE
  5
31A
100
AcDbEntity
  8
0
100
AcDbSpline
 62
7
  6
CONTINUOUS
 70
0
 71
3
 72
54
 73
50
 74
0
 42
0.0000001
 43
0.0000001
 44
0.0000000001
 40
0.0
 40
0.0
 40
0.0
 40
0.0
 40
0.006315801
 40
0.0126705149
 40
0.0191022706
 40
0.0256477484
 40
0.032341551
 40
0.0392158204
 40
0.0462999708
 40
0.0536205126
 40
0.0612011682
 40
0.0690628433
 40
0.0772238661
 40
0.0857001864
 40
0.0945054776
 40
0.1036515094
 40
0.1131481904
 40
0.1230038358
 40
0.1332253738
 40
0.1438183509
 40
0.1547872622
 40
0.166135509
 40
0.1778655635
 40
0.1899791306
 40
0.2024770524
 40
0.2153595812
 40
0.2286262965
 40
0.2422761845
 40
0.2563077875
 40
0.270719054
 40
0.2855075702
 40
0.3006704762
 40
0.3321053637
 40
0.3649942371
 40
0.3993017004
 40
0.4349877593
 40
0.4720082649
 40
0.510315332
 40
0.5498576721
 40
0.59058088
 40
0.6324276692
 40
0.6753381043
 40
0.7192498515
 40
0.7640983387
 40
0.8098169819
 40
0.8563374463
 40
0.9035890453
 40
0.9515016569
 40
1.0
 40
1.0
 40
1.0
 40
1.0
 10
14.6868475191
 20
7.3091926544
 30
0.0
 10
14.68502212
 20
7.3093192541
 30
0.0
 10
14.6813687034
 20
7.3097226666
 30
0.0
 10
14.6759295295
 20
7.3107741556
 30
0.0
 10
14.6705267012
 20
7.3122718677
 30
0.0
 10
14.6651633761
 20
7.3142148314
 30
0.0
 10
14.6598418313
 20
7.3166016057
 30
0.0
 10
14.6545643662
 20
7.3194307129
 30
0.0
 10
14.6493331149
 20
7.3227005678
 30
0.0
 10
14.6441499942
 20
7.3264093334
 30
0.0
 10
14.6390170004
 20
7.3305552994
 30
0.0
 10
14.6339359495
 20
7.3351364812
 30
0.0
 10
14.628908695
 20
7.3401508765
 30
0.0
 10
14.6239371423
 20
7.3455963964
 30
0.0
 10
14.6190230521
 20
7.3514707047
 30
0.0
 10
14.6141683684
 20
7.3577714564
 30
0.0
 10
14.6093749039
 20
7.364496048
 30
0.0
 10
14.6046445082
 20
7.371641749
 30
0.0
 10
14.5999791053
 20
7.3792056965
 30
0.0
 10
14.5953804563
 20
7.3871847789
 30
0.0
 10
14.590850476
 20
7.3955757936
 30
0.0
 10
14.5863909574
 20
7.4043753128
 30
0.0
 10
14.5820036815
 20
7.4135797474
 30
0.0
 10
14.577690502
 20
7.4231853666
 30
0.0
 10
14.5734530975
 20
7.4331882201
 30
0.0
 10
14.5692932627
 20
7.4435842353
 30
0.0
 10
14.5652126893
 20
7.4543691486
 30
0.0
 10
14.5612130208
 20
7.4655385326
 30
0.0
 10
14.5572959703
 20
7.4770878199
 30
0.0
 10
14.553463087
 20
7.4890122488
 30
0.0
 10
14.5497159713
 20
7.5013069431
 30
0.0
 10
14.5447769001
 20
7.5183924376
 30
0.0
 10
14.5388425507
 20
7.5406462055
 30
0.0
 10
14.5321700956
 20
7.5684338994
 30
0.0
 10
14.5258747056
 20
7.5975705721
 30
0.0
 10
14.5199668547
 20
7.6280082371
 30
0.0
 10
14.5144563768
 20
7.6596969345
 30
0.0
 10
14.5093524516
 20
7.692584529
 30
0.0
 10
14.5046635857
 20
7.7266168992
 30
0.0
 10
14.500397601
 20
7.7617380037
 30
0.0
 10
14.4965616075
 20
7.7978899762
 30
0.0
 10
14.4931619894
 20
7.8350132283
 30
0.0
 10
14.4902044144
 20
7.8730465532
 30
0.0
 10
14.4876938145
 20
7.9119272371
 30
0.0
 10
14.4856343808
 20
7.9515911911
 30
0.0
 10
14.4840295701
 20
7.9919728615
 30
0.0
 10
14.4828820039
 20
8.0330059598
 30
0.0
 10
14.482193693
 20
8.0746223436
 30
0.0
 10
14.4820425499
 20
8.1025543247
 30
0.0
 10
14.4820425499
 20
8.116605035
 30
0.0
  0
SPLINE
  5
31B
100
AcDbEntity
  8
0
100
AcDbSpline
 62
7
  6
CONTINUOUS
 70
0
 71
3
 72
21
 73
17
 74
0
 42
0.0000001
 43
0.0000001
 44
0.0000000001
 40
0.0
 40
0.0
 40
0.0
 40
0.0
 40
0.0544271769
 40
0.1090711423
 40
0.1641460005
 40
0.2198602711
 40
0.2764147232
 40
0.3340007126
 40
0.4529311233
 40
0.5146428127
 40
0.5780318937
 40
0.6432279731
 40
0.7103481044
 40
0.7794980642
 40
0.8507728294
 40
1.0
 40
1.0
 40
1.0
 40
1.0
 10
14.9238703246
 20
9.9660860078
 30
0.0
 10
14.9248885217
 20
9.9660153949
 30
0.0
 10
14.9269249662
 20
9.9658071002
 30
0.0
 10
14.9299622661
 20
9.9652948866
 30
0.0
 10
14.932983904
 20
9.9645827849
 30
0.0
 10
14.9359887733
 20
9.9636711877
 30
0.0
 10
14.9389761581
 20
9.962560389
 30
0.0
 10
14.9429769858
 20
9.9607957687
 30
0.0
 10
14.9469023059
 20
9.958640614
 30
0.0
 10
14.9507329224
 20
9.95613476
 30
0.0
 10
14.9536203787
 20
9.954035265
 30
0.0
 10
14.956485439
 20
9.9517398405
 30
0.0
 10
14.9593276256
 20
9.9492490884
 30
0.0
 10
14.9621462396
 20
9.9465636613
 30
0.0
 10
14.9659296491
 20
9.9426649459
 30
0.0
 10
14.9686414186
 20
9.9395374827
 30
0.0
 10
14.970407112
 20
9.937366486
 30
0.0
  0
SPLINE
  5
31C
100
AcDbEntity
  8
0
100
AcDbSpline
 62
7
  6
CONTINUOUS
 70
0
 71
3
 72
35
 73
31
 74
0
 42
0.0000001
 43
0.0000001
 44
0.0000000001
 40
0.0
 40
0.0
 40
0.0
 40
0.0
 40
0.0162144409
 40
0.0334275327
 40
0.0516719875
 40
0.0709711135
 40
0.091340711
 40
0.1127898042
 40
0.1353221518
 40
0.1589364893
 40
0.1836276936
 40
0.2093868207
 40
0.236201926
 40
0.264058106
 40
0.2929379774
 40
0.3228218401
 40
0.3536878396
 40
0.3855122911
 40
0.4182695809
 40
0.4519326284
 40
0.4864726132
 40
0.521859505
 40
0.5580617218
 40
0.5950466408
 40
0.6327803091
 40
0.6712278106
 40
0.7501182067
 40
0.831420351
 40
0.9148216555
 40
1.0
 40
1.0
 40
1.0
 40
1.0
 10
15.022158605
 20
9.8737353218
 30
0.0
 10
15.0238707761
 20
9.8716301028
 30
0.0
 10
15.0272564088
 20
9.8671713866
 30
0.0
 10
15.0320847849
 20
9.8599926235
 30
0.0
 10
15.0368069532
 20
9.852134955
 30
0.0
 10
15.0414181907
 20
9.8436067624
 30
0.0
 10
15.0459139015
 20
9.8344165202
 30
0.0
 10
15.0502896574
 20
9.8245736886
 30
0.0
 10
15.0545408386
 20
9.8140883273
 30
0.0
 10
15.0586631628
 20
9.8029712969
 30
0.0
 10
15.0626522112
 20
9.7912341029
 30
0.0
 10
15.0665038856
 20
9.7788889753
 30
0.0
 10
15.0702140601
 20
9.7659487867
 30
0.0
 10
15.0737788564
 20
9.7524270728
 30
0.0
 10
15.0771944883
 20
9.738337995
 30
0.0
 10
15.0804573282
 20
9.7236963287
 30
0.0
 10
15.0835639511
 20
9.7085174455
 30
0.0
 10
15.0865110106
 20
9.6928172924
 30
0.0
 10
15.0892954504
 20
9.6766123739
 30
0.0
 10
15.0919142364
 20
9.6599197364
 30
0.0
 10
15.0943646788
 20
9.6427569405
 30
0.0
 10
15.0966440886
 20
9.6251420561
 30
0.0
 10
15.0987501354
 20
9.607093622
 30
0.0
 10
15.1006805028
 20
9.5886306536
 30
0.0
 10
15.1024332286
 20
9.56977257
 30
0.0
 10
15.1045488264
 20
9.5439064543
 30
0.0
 10
15.1067244477
 20
9.5107316482
 30
0.0
 10
15.108580029
 20
9.4700046829
 30
0.0
 10
15.1096941294
 20
9.4281981918
 30
0.0
 10
15.1099370376
 20
9.3999848117
 30
0.0
 10
15.1099370376
 20
9.3857297639
 30
0.0
  0
SPLINE
  5
31D
100
AcDbEntity
  8
0
100
AcDbSpline
 62
7
  6
CONTINUOUS
 70
0
 71
3
 72
21
 73
17
 74
0
 42
0.0000001
 43
0.0000001
 44
0.0000000001
 40
0.0
 40
0.0
 40
0.0
 40
0.0
 40
0.149226784
 40
0.2205052919
 40
0.2896570525
 40
0.3567768666
 40
0.4219716229
 40
0.485359442
 40
0.5470704577
 40
0.6660006152
 40
0.7235865793
 40
0.7801408245
 40
0.8358548012
 40
0.8909293648
 40
0.9455730638
 40
1.0
 40
1.0
 40
1.0
 40
1.0
 10
14.394958496
 20
6.3423310685
 30
0.0
 10
14.3929100271
 20
6.3404245966
 30
0.0
 10
14.3897924475
 20
6.3377013757
 30
0.0
 10
14.385507035
 20
6.3343621454
 30
0.0
 10
14.3823446459
 20
6.3320914261
 30
0.0
 10
14.3791858432
 20
6.3300168507
 30
0.0
 10
14.3760313906
 20
6.328138933
 30
0.0
 10
14.372881814
 20
6.3264581551
 30
0.0
 10
14.3687419975
 20
6.3245050873
 30
0.0
 10
14.3645567781
 20
6.3229124168
 30
0.0
 10
14.3603506806
 20
6.3217169361
 30
0.0
 10
14.3572385706
 20
6.3210291472
 30
0.0
 10
14.3541366458
 20
6.3205410714
 30
0.0
 10
14.3510456533
 20
6.320252888
 30
0.0
 10
14.3479667398
 20
6.3201648309
 30
0.0
 10
14.345921047
 20
6.3202396377
 30
0.0
 10
14.3449028543
 20
6.3203102503
 30
0.0
  0
SPLINE
  5
31E
100
AcDbEntity
  8
0
100
AcDbSpline
 62
7
  6
CONTINUOUS
 70
0
 71
3
 72
32
 73
28
 74
0
 42
0.0000001
 43
0.0000001
 44
0.0000000001
 40
0.0
 40
0.0
 40
0.0
 40
0.0
 40
0.0142884638
 40
0.03005102
 40
0.0473445324
 40
0.0661964537
 40
0.0866113066
 40
0.1085765625
 40
0.1320655871
 40
0.1570401191
 40
0.1834526788
 40
0.2112471293
 40
0.2403603432
 40
0.2707229876
 40
0.3022597797
 40
0.3348907681
 40
0.3685313491
 40
0.403092886
 40
0.4384834226
 40
0.4746076336
 40
0.5486613086
 40
0.6244473404
 40
0.7011323064
 40
0.7778700741
 40
0.8538141034
 40
0.9281273045
 40
1.0
 40
1.0
 40
1.0
 40
1.0
 10
14.4321233973
 20
8.7494820594
 30
0.0
 10
14.4315969679
 20
8.7501293217
 30
0.0
 10
14.4305664609
 20
8.7515537342
 30
0.0
 10
14.4291478479
 20
8.753929518
 30
0.0
 10
14.4277859357
 20
8.756639815
 30
0.0
 10
14.4264845696
 20
8.7596770265
 30
0.0
 10
14.425247171
 20
8.7630328945
 30
0.0
 10
14.4240773684
 20
8.7666979563
 30
0.0
 10
14.4229785839
 20
8.770661751
 30
0.0
 10
14.4219540432
 20
8.7749128356
 30
0.0
 10
14.4210068553
 20
8.779438872
 30
0.0
 10
14.4201398158
 20
8.7842266547
 30
0.0
 10
14.4193555254
 20
8.7892621793
 30
0.0
 10
14.4186563644
 20
8.7945306885
 30
0.0
 10
14.4180443842
 20
8.8000167187
 30
0.0
 10
14.4175214513
 20
8.8057041521
 30
0.0
 10
14.4170891276
 20
8.8115762708
 30
0.0
 10
14.4167486902
 20
8.8176158001
 30
0.0
 10
14.4165011854
 20
8.8238049831
 30
0.0
 10
14.4162944106
 20
8.8323025797
 30
0.0
 10
14.4162768925
 20
8.84316281
 30
0.0
 10
14.4166298857
 20
8.8563866496
 30
0.0
 10
14.4173529296
 20
8.8697524023
 30
0.0
 10
14.41843755
 20
8.8831029028
 30
0.0
 10
14.4198709666
 20
8.8962812699
 30
0.0
 10
14.4216361208
 20
8.9091325933
 30
0.0
 10
14.4230487044
 20
8.9175524331
 30
0.0
 10
14.4238110181
 20
8.9216793059
 30
0.0
  0
SPLINE
  5
31F
100
AcDbEntity
  8
0
100
AcDbSpline
 62
7
  6
CONTINUOUS
 70
0
 71
3
 72
39
 73
35
 74
0
 42
0.0000001
 43
0.0000001
 44
0.0000000001
 40
0.0
 40
0.0
 40
0.0
 40
0.0
 40
0.0299424689
 40
0.059909316
 40
0.0899243238
 40
0.120010106
 40
0.150187569
 40
0.1804754262
 40
0.2108897768
 40
0.2414437599
 40
0.2721472906
 40
0.3030068794
 40
0.3340255372
 40
0.3652027613
 40
0.3965346002
 40
0.4280137884
 40
0.4596299473
 40
0.4913698423
 40
0.5232176895
 40
0.5551555049
 40
0.5871634868
 40
0.6192204263
 40
0.6513041383
 40
0.683391905
 40
0.7154609283
 40
0.7474887827
 40
0.7794538622
 40
0.8113358179
 40
0.8431159726
 40
0.8747777271
 40
0.9063068788
 40
0.9376920781
 40
0.9689247389
 40
1.0
 40
1.0
 40
1.0
 40
1.0
 10
7.3180665099
 20
9.6020856917
 30
0.0
 10
7.3229770542
 20
9.6068288844
 30
0.0
 10
7.3331843148
 20
9.6159324211
 30
0.0
 10
7.3495378793
 20
9.6283344063
 30
0.0
 10
7.36685058
 20
9.6394209526
 30
0.0
 10
7.3850256684
 20
9.6491298813
 30
0.0
 10
7.4039632232
 20
9.6574081465
 30
0.0
 10
7.4235587298
 20
9.6642102433
 30
0.0
 10
7.4437042058
 20
9.6694989543
 30
0.0
 10
7.4642886642
 20
9.6732454055
 30
0.0
 10
7.485198771
 20
9.6754292466
 30
0.0
 10
7.5063194624
 20
9.6760387374
 30
0.0
 10
7.5275345802
 20
9.6750707991
 30
0.0
 10
7.5487275069
 20
9.6725310169
 30
0.0
 10
7.5697818006
 20
9.6684335969
 30
0.0
 10
7.5905818274
 20
9.662801279
 30
0.0
 10
7.6110133883
 20
9.6556652039
 30
0.0
 10
7.6309643367
 20
9.6470647376
 30
0.0
 10
7.6503251857
 20
9.6370472518
 30
0.0
 10
7.6689897005
 20
9.6256678631
 30
0.0
 10
7.6868554732
 20
9.6129891304
 30
0.0
 10
7.7038244782
 20
9.5990807132
 30
0.0
 10
7.719803603
 20
9.5840189923
 30
0.0
 10
7.734705154
 20
9.5678866531
 30
0.0
 10
7.7484473322
 20
9.5507722372
 30
0.0
 10
7.7609546779
 20
9.5327696604
 30
0.0
 10
7.772158482
 20
9.5139777045
 30
0.0
 10
7.7819971578
 20
9.4944994775
 30
0.0
 10
7.7904165847
 20
9.4744418681
 30
0.0
 10
7.7973703856
 20
9.4539149198
 30
0.0
 10
7.8028202274
 20
9.4330314053
 30
0.0
 10
7.8067359406
 20
9.4119055835
 30
0.0
 10
7.8090958524
 20
9.3906549939
 30
0.0
 10
7.809624421
 20
9.3764425752
 30
0.0
 10
7.809624421
 20
9.3693570363
 30
0.0
  0
SPLINE
  5
320
100
AcDbEntity
  8
0
100
AcDbSpline
 62
7
  6
CONTINUOUS
 70
0
 71
3
 72
39
 73
35
 74
0
 42
0.0000001
 43
0.0000001
 44
0.0000000001
 40
0.0
 40
0.0
 40
0.0
 40
0.0
 40
0.0299424689
 40
0.059909316
 40
0.0899243238
 40
0.120010106
 40
0.150187569
 40
0.1804754262
 40
0.2108897768
 40
0.2414437599
 40
0.2721472906
 40
0.3030068794
 40
0.3340255372
 40
0.3652027613
 40
0.3965346002
 40
0.4280137884
 40
0.4596299473
 40
0.4913698423
 40
0.5232176895
 40
0.5551555049
 40
0.5871634868
 40
0.6192204263
 40
0.6513041383
 40
0.683391905
 40
0.7154609283
 40
0.7474887827
 40
0.7794538622
 40
0.8113358179
 40
0.8431159726
 40
0.8747777271
 40
0.9063068788
 40
0.9376920781
 40
0.9689247389
 40
1.0
 40
1.0
 40
1.0
 40
1.0
 10
10.3974383067
 20
9.3885305323
 30
0.0
 10
10.402348851
 20
9.3932737249
 30
0.0
 10
10.4125561116
 20
9.4023772616
 30
0.0
 10
10.4289096761
 20
9.4147792469
 30
0.0
 10
10.4462223768
 20
9.4258657932
 30
0.0
 10
10.4643974652
 20
9.4355747219
 30
0.0
 10
10.48333502
 20
9.443852987
 30
0.0
 10
10.5029305266
 20
9.4506550839
 30
0.0
 10
10.5230760026
 20
9.4559437949
 30
0.0
 10
10.543660461
 20
9.459690246
 30
0.0
 10
10.5645705678
 20
9.4618740872
 30
0.0
 10
10.5856912592
 20
9.462483578
 30
0.0
 10
10.606906377
 20
9.4615156397
 30
0.0
 10
10.6280993037
 20
9.4589758574
 30
0.0
 10
10.6491535974
 20
9.4548784375
 30
0.0
 10
10.6699536243
 20
9.4492461195
 30
0.0
 10
10.6903851851
 20
9.4421100445
 30
0.0
 10
10.7103361335
 20
9.4335095781
 30
0.0
 10
10.7296969825
 20
9.4234920923
 30
0.0
 10
10.7483614973
 20
9.4121127036
 30
0.0
 10
10.76622727
 20
9.3994339709
 30
0.0
 10
10.783196275
 20
9.3855255538
 30
0.0
 10
10.7991753998
 20
9.3704638328
 30
0.0
 10
10.8140769508
 20
9.3543314936
 30
0.0
 10
10.827819129
 20
9.3372170777
 30
0.0
 10
10.8403264747
 20
9.319214501
 30
0.0
 10
10.8515302788
 20
9.3004225451
 30
0.0
 10
10.8613689547
 20
9.2809443181
 30
0.0
 10
10.8697883815
 20
9.2608867087
 30
0.0
 10
10.8767421824
 20
9.2403597604
 30
0.0
 10
10.8821920242
 20
9.2194762459
 30
0.0
 10
10.8861077374
 20
9.198350424
 30
0.0
 10
10.8884676492
 20
9.1770998345
 30
0.0
 10
10.8889962178
 20
9.1628874157
 30
0.0
 10
10.8889962178
 20
9.1558018768
 30
0.0
  0
SPLINE
  5
321
100
AcDbEntity
  8
0
100
AcDbSpline
 62
7
  6
CONTINUOUS
 70
0
 71
3
 72
39
 73
35
 74
0
 42
0.0000001
 43
0.0000001
 44
0.0000000001
 40
0.0
 40
0.0
 40
0.0
 40
0.0
 40
0.0299424689
 40
0.059909316
 40
0.0899243238
 40
0.120010106
 40
0.150187569
 40
0.1804754262
 40
0.2108897768
 40
0.2414437599
 40
0.2721472906
 40
0.3030068794
 40
0.3340255372
 40
0.3652027613
 40
0.3965346002
 40
0.4280137884
 40
0.4596299473
 40
0.4913698423
 40
0.5232176895
 40
0.5551555049
 40
0.5871634868
 40
0.6192204263
 40
0.6513041383
 40
0.683391905
 40
0.7154609283
 40
0.7474887827
 40
0.7794538622
 40
0.8113358179
 40
0.8431159726
 40
0.8747777271
 40
0.9063068788
 40
0.9376920781
 40
0.9689247389
 40
1.0
 40
1.0
 40
1.0
 40
1.0
 10
10.3974383067
 20
6.9737158235
 30
0.0
 10
10.402348851
 20
6.9784590161
 30
0.0
 10
10.4125561116
 20
6.9875625528
 30
0.0
 10
10.4289096761
 20
6.9999645381
 30
0.0
 10
10.4462223768
 20
7.0110510844
 30
0.0
 10
10.4643974652
 20
7.0207600131
 30
0.0
 10
10.48333502
 20
7.0290382782
 30
0.0
 10
10.5029305266
 20
7.0358403751
 30
0.0
 10
10.5230760026
 20
7.0411290861
 30
0.0
 10
10.543660461
 20
7.0448755372
 30
0.0
 10
10.5645705678
 20
7.0470593784
 30
0.0
 10
10.5856912592
 20
7.0476688692
 30
0.0
 10
10.606906377
 20
7.0467009309
 30
0.0
 10
10.6280993037
 20
7.0441611486
 30
0.0
 10
10.6491535974
 20
7.0400637287
 30
0.0
 10
10.6699536243
 20
7.0344314107
 30
0.0
 10
10.6903851851
 20
7.0272953356
 30
0.0
 10
10.7103361335
 20
7.0186948693
 30
0.0
 10
10.7296969825
 20
7.0086773835
 30
0.0
 10
10.7483614973
 20
6.9972979948
 30
0.0
 10
10.76622727
 20
6.9846192621
 30
0.0
 10
10.783196275
 20
6.970710845
 30
0.0
 10
10.7991753998
 20
6.955649124
 30
0.0
 10
10.8140769508
 20
6.9395167848
 30
0.0
 10
10.827819129
 20
6.9224023689
 30
0.0
 10
10.8403264747
 20
6.9043997922
 30
0.0
 10
10.8515302788
 20
6.8856078363
 30
0.0
 10
10.8613689547
 20
6.8661296093
 30
0.0
 10
10.8697883815
 20
6.8460719999
 30
0.0
 10
10.8767421824
 20
6.8255450516
 30
0.0
 10
10.8821920242
 20
6.8046615371
 30
0.0
 10
10.8861077374
 20
6.7835357152
 30
0.0
 10
10.8884676492
 20
6.7622851257
 30
0.0
 10
10.8889962178
 20
6.7480727069
 30
0.0
 10
10.8889962178
 20
6.740987168
 30
0.0
  0
SPLINE
  5
322
100
AcDbEntity
  8
0
100
AcDbSpline
 62
7
  6
CONTINUOUS
 70
0
 71
3
 72
39
 73
35
 74
0
 42
0.0000001
 43
0.0000001
 44
0.0000000001
 40
0.0
 40
0.0
 40
0.0
 40
0.0
 40
0.0299424689
 40
0.059909316
 40
0.0899243238
 40
0.120010106
 40
0.150187569
 40
0.1804754262
 40
0.2108897768
 40
0.2414437599
 40
0.2721472906
 40
0.3030068794
 40
0.3340255372
 40
0.3652027613
 40
0.3965346002
 40
0.4280137884
 40
0.4596299473
 40
0.4913698423
 40
0.5232176895
 40
0.5551555049
 40
0.5871634868
 40
0.6192204263
 40
0.6513041383
 40
0.683391905
 40
0.7154609283
 40
0.7474887827
 40
0.7794538622
 40
0.8113358179
 40
0.8431159726
 40
0.8747777271
 40
0.9063068788
 40
0.9376920781
 40
0.9689247389
 40
1.0
 40
1.0
 40
1.0
 40
1.0
 10
7.3180665099
 20
7.1872709829
 30
0.0
 10
7.3229770542
 20
7.1920141755
 30
0.0
 10
7.3331843148
 20
7.2011177123
 30
0.0
 10
7.3495378793
 20
7.2135196975
 30
0.0
 10
7.36685058
 20
7.2246062438
 30
0.0
 10
7.3850256684
 20
7.2343151725
 30
0.0
 10
7.4039632232
 20
7.2425934377
 30
0.0
 10
7.4235587298
 20
7.2493955345
 30
0.0
 10
7.4437042058
 20
7.2546842455
 30
0.0
 10
7.4642886642
 20
7.2584306967
 30
0.0
 10
7.485198771
 20
7.2606145378
 30
0.0
 10
7.5063194624
 20
7.2612240286
 30
0.0
 10
7.5275345802
 20
7.2602560903
 30
0.0
 10
7.5487275069
 20
7.2577163081
 30
0.0
 10
7.5697818006
 20
7.2536188881
 30
0.0
 10
7.5905818274
 20
7.2479865702
 30
0.0
 10
7.6110133883
 20
7.2408504951
 30
0.0
 10
7.6309643367
 20
7.2322500287
 30
0.0
 10
7.6503251857
 20
7.222232543
 30
0.0
 10
7.6689897005
 20
7.2108531543
 30
0.0
 10
7.6868554732
 20
7.1981744216
 30
0.0
 10
7.7038244782
 20
7.1842660044
 30
0.0
 10
7.719803603
 20
7.1692042835
 30
0.0
 10
7.734705154
 20
7.1530719443
 30
0.0
 10
7.7484473322
 20
7.1359575284
 30
0.0
 10
7.7609546779
 20
7.1179549516
 30
0.0
 10
7.772158482
 20
7.0991629957
 30
0.0
 10
7.7819971578
 20
7.0796847687
 30
0.0
 10
7.7904165847
 20
7.0596271593
 30
0.0
 10
7.7973703856
 20
7.039100211
 30
0.0
 10
7.8028202274
 20
7.0182166965
 30
0.0
 10
7.8067359406
 20
6.9970908747
 30
0.0
 10
7.8090958524
 20
6.9758402851
 30
0.0
 10
7.809624421
 20
6.9616278664
 30
0.0
 10
7.809624421
 20
6.9545423275
 30
0.0
  0
SPLINE
  5
323
100
AcDbEntity
  8
0
100
AcDbSpline
 62
7
  6
CONTINUOUS
 70
0
 71
3
 72
47
 73
43
 74
0
 42
0.0000001
 43
0.0000001
 44
0.0000000001
 40
0.0
 40
0.0
 40
0.0
 40
0.0
 40
0.0325406479
 40
0.0650286644
 40
0.0974473615
 40
0.1297825752
 40
0.1620224565
 40
0.1941572501
 40
0.2261790844
 40
0.2580817883
 40
0.2898607446
 40
0.3215127811
 40
0.3530360819
 40
0.3844301482
 40
0.4156958102
 40
0.4468352813
 40
0.4778522515
 40
0.5087520176
 40
0.5395416443
 40
0.5702301597
 40
0.6008287922
 40
0.6313512131
 40
0.6618137617
 40
0.692235623
 40
0.7226389084
 40
0.7530485763
 40
0.7682677441
 40
0.7834990966
 40
0.7987463855
 40
0.8140133402
 40
0.829303862
 40
0.8446216112
 40
0.8599704122
 40
0.8753537243
 40
0.8907749806
 40
0.9062372451
 40
0.9217433444
 40
0.9372957878
 40
0.9528961689
 40
0.9685463568
 40
0.9842485352
 40
1.0
 40
1.0
 40
1.0
 40
1.0
 10
9.2370206696
 20
7.4435171916
 30
0.0
 10
9.2411570767
 20
7.4382381409
 30
0.0
 10
9.2490672945
 20
7.4274044216
 30
0.0
 10
9.2598232316
 20
7.4104278085
 30
0.0
 10
9.2694486387
 20
7.3928336078
 30
0.0
 10
9.2779318975
 20
7.3747185508
 30
0.0
 10
9.2852666384
 20
7.3561721834
 30
0.0
 10
9.2914492687
 20
7.3372789915
 30
0.0
 10
9.2964782775
 20
7.318118692
 30
0.0
 10
9.3003533531
 20
7.2987671129
 30
0.0
 10
9.3030748006
 20
7.2792969646
 30
0.0
 10
9.3046430922
 20
7.2597786627
 30
0.0
 10
9.3050585716
 20
7.240281143
 30
0.0
 10
9.3043212882
 20
7.2208726741
 30
0.0
 10
9.3024309523
 20
7.2016216572
 30
0.0
 10
9.2993870071
 20
7.1825974173
 30
0.0
 10
9.2951888212
 20
7.1638709875
 30
0.0
 10
9.2898360151
 20
7.1455158863
 30
0.0
 10
9.2833289403
 20
7.1276088772
 30
0.0
 10
9.2756693334
 20
7.1102306884
 30
0.0
 10
9.2668611808
 20
7.0934666716
 30
0.0
 10
9.2569117874
 20
7.0774073301
 30
0.0
 10
9.2458332214
 20
7.0621487528
 30
0.0
 10
9.2336436421
 20
7.0477925009
 30
0.0
 10
9.2203704404
 20
7.0344461742
 30
0.0
 10
9.2084373902
 20
7.0242592792
 30
0.0
 10
9.198399706
 20
7.0167322824
 30
0.0
 10
9.1906272369
 20
7.0114078406
 30
0.0
 10
9.1826223395
 20
7.0064211623
 30
0.0
 10
9.1743946506
 20
7.0017861703
 30
0.0
 10
9.1659549598
 20
6.997517035
 30
0.0
 10
9.1573153557
 20
6.9936270344
 30
0.0
 10
9.1484889425
 20
6.9901293924
 30
0.0
 10
9.139490175
 20
6.9870361669
 30
0.0
 10
9.1303345941
 20
6.9843588596
 30
0.0
 10
9.1210389027
 20
6.982107837
 30
0.0
 10
9.1116208996
 20
6.9802920986
 30
0.0
 10
9.1020993564
 20
6.9789197403
 30
0.0
 10
9.0924939746
 20
6.9779967127
 30
0.0
 10
9.0828247755
 20
6.9775279356
 30
0.0
 10
9.0731133221
 20
6.9775164912
 30
0.0
 10
9.0666347765
 20
6.9778138255
 30
0.0
 10
9.0633962003
 20
6.9780384216
 30
0.0
  0
SPLINE
  5
324
100
AcDbEntity
  8
0
100
AcDbSpline
 62
7
  6
CONTINUOUS
 70
0
 71
3
 72
39
 73
35
 74
0
 42
0.0000001
 43
0.0000001
 44
0.0000000001
 40
0.0
 40
0.0
 40
0.0
 40
0.0
 40
0.0299424689
 40
0.059909316
 40
0.0899243238
 40
0.120010106
 40
0.150187569
 40
0.1804754262
 40
0.2108897768
 40
0.2414437599
 40
0.2721472906
 40
0.3030068794
 40
0.3340255372
 40
0.3652027613
 40
0.3965346002
 40
0.4280137884
 40
0.4596299473
 40
0.4913698423
 40
0.5232176895
 40
0.5551555049
 40
0.5871634868
 40
0.6192204263
 40
0.6513041383
 40
0.683391905
 40
0.7154609283
 40
0.7474887827
 40
0.7794538622
 40
0.8113358179
 40
0.8431159726
 40
0.8747777271
 40
0.9063068788
 40
0.9376920781
 40
0.9689247389
 40
1.0
 40
1.0
 40
1.0
 40
1.0
 10
8.8577523508
 20
9.1031421898
 30
0.0
 10
8.862662895
 20
9.1078853824
 30
0.0
 10
8.8728701556
 20
9.1169889191
 30
0.0
 10
8.8892237202
 20
9.1293909044
 30
0.0
 10
8.9065364209
 20
9.1404774507
 30
0.0
 10
8.9247115092
 20
9.1501863794
 30
0.0
 10
8.9436490641
 20
9.1584646445
 30
0.0
 10
8.9632445706
 20
9.1652667414
 30
0.0
 10
8.9833900466
 20
9.1705554524
 30
0.0
 10
9.003974505
 20
9.1743019035
 30
0.0
 10
9.0248846118
 20
9.1764857447
 30
0.0
 10
9.0460053032
 20
9.1770952355
 30
0.0
 10
9.067220421
 20
9.1761272972
 30
0.0
 10
9.0884133477
 20
9.1735875149
 30
0.0
 10
9.1094676414
 20
9.169490095
 30
0.0
 10
9.1302676683
 20
9.163857777
 30
0.0
 10
9.1506992291
 20
9.156721702
 30
0.0
 10
9.1706501775
 20
9.1481212356
 30
0.0
 10
9.1900110266
 20
9.1381037498
 30
0.0
 10
9.2086755413
 20
9.1267243611
 30
0.0
 10
9.226541314
 20
9.1140456284
 30
0.0
 10
9.243510319
 20
9.1001372113
 30
0.0
 10
9.2594894438
 20
9.0850754903
 30
0.0
 10
9.2743909948
 20
9.0689431511
 30
0.0
 10
9.288133173
 20
9.0518287352
 30
0.0
 10
9.3006405187
 20
9.0338261585
 30
0.0
 10
9.3118443228
 20
9.0150342026
 30
0.0
 10
9.3216829987
 20
8.9955559756
 30
0.0
 10
9.3301024255
 20
8.9754983662
 30
0.0
 10
9.3370562265
 20
8.9549714179
 30
0.0
 10
9.3425060682
 20
8.9340879034
 30
0.0
 10
9.3464217814
 20
8.9129620815
 30
0.0
 10
9.3487816932
 20
8.891711492
 30
0.0
 10
9.3493102618
 20
8.8774990732
 30
0.0
 10
9.3493102618
 20
8.8704135343
 30
0.0
  0
SPLINE
  5
325
100
AcDbEntity
  8
0
100
AcDbSpline
 62
7
  6
CONTINUOUS
 70
0
 71
3
 72
44
 73
40
 74
0
 42
0.0000001
 43
0.0000001
 44
0.0000000001
 40
0.0
 40
0.0
 40
0.0
 40
0.0
 40
0.0324530878
 40
0.0648239347
 40
0.0971057944
 40
0.1292933856
 40
0.1933502733
 40
0.2252336567
 40
0.2570113076
 40
0.3202267497
 40
0.3516830505
 40
0.3830327827
 40
0.4142771792
 40
0.4454182243
 40
0.4764587576
 40
0.5074024861
 40
0.5382542779
 40
0.5690204459
 40
0.599709024
 40
0.6303300607
 40
0.6608959684
 40
0.6914219794
 40
0.7219265244
 40
0.7524315138
 40
0.7829624327
 40
0.7982500894
 40
0.8135554532
 40
0.8288825482
 40
0.8442353939
 40
0.8596182418
 40
0.8750350058
 40
0.8904898007
 40
0.9059862124
 40
0.921527766
 40
0.9371175911
 40
0.9527578423
 40
0.9684507525
 40
0.984198995
 40
1.0
 40
1.0
 40
1.0
 40
1.0
 10
9.9570779923
 20
8.1844791133
 30
0.0
 10
9.9600580331
 20
8.1786703125
 30
0.0
 10
9.9656875339
 20
8.1668986078
 30
0.0
 10
9.973152958
 20
8.1488371962
 30
0.0
 10
9.9796408853
 20
8.130457851
 30
0.0
 10
9.9869871729
 20
8.1056588346
 30
0.0
 10
9.9924371436
 20
8.0804142093
 30
0.0
 10
9.9959955596
 20
8.0549604506
 30
0.0
 10
9.9982929306
 20
8.0295320473
 30
0.0
 10
9.9987300014
 20
8.0040493863
 30
0.0
 10
9.9972900396
 20
7.9787305505
 30
0.0
 10
9.9952750275
 20
7.9599094617
 30
0.0
 10
9.9923193237
 20
7.9412775687
 30
0.0
 10
9.9884172447
 20
7.9228837164
 30
0.0
 10
9.9835615555
 20
7.9047805029
 30
0.0
 10
9.9777436445
 20
7.8870238452
 30
0.0
 10
9.9709539711
 20
7.8696741424
 30
0.0
 10
9.9631825202
 20
7.8527970629
 30
0.0
 10
9.9544194668
 20
7.8364645178
 30
0.0
 10
9.9446561096
 20
7.8207556394
 30
0.0
 10
9.9338861153
 20
7.8057576902
 30
0.0
 10
9.9221072939
 20
7.7915668968
 30
0.0
 10
9.9093234057
 20
7.7782887639
 30
0.0
 10
9.8955481743
 20
7.7660389046
 30
0.0
 10
9.8832656654
 20
7.7567926973
 30
0.0
 10
9.8729849266
 20
7.7500409398
 30
0.0
 10
9.8650460978
 20
7.7453112624
 30
0.0
 10
9.8568918641
 20
7.740935703
 30
0.0
 10
9.8485319433
 20
7.7369306053
 30
0.0
 10
9.8399776483
 20
7.7333125818
 30
0.0
 10
9.8312420445
 20
7.7300971459
 30
0.0
 10
9.822339718
 20
7.7272995793
 30
0.0
 10
9.8132870319
 20
7.7249336433
 30
0.0
 10
9.8041019046
 20
7.7230119366
 30
0.0
 10
9.7948038004
 20
7.7215456458
 30
0.0
 10
9.7854136415
 20
7.7205434651
 30
0.0
 10
9.7759530698
 20
7.7200126214
 30
0.0
 10
9.7664456812
 20
7.7199577635
 30
0.0
 10
9.7601020069
 20
7.7202392167
 30
0.0
 10
9.756930922
 20
7.7204591322
 30
0.0
  0
SPLINE
  5
326
100
AcDbEntity
  8
0
100
AcDbSpline
 62
7
  6
CONTINUOUS
 70
0
 71
3
 72
15
 73
11
 74
0
 42
0.0000001
 43
0.0000001
 44
0.0000000001
 40
0.0
 40
0.0
 40
0.0
 40
0.0
 40
0.1130268592
 40
0.229386938
 40
0.349247521
 40
0.4726939585
 40
0.5997068988
 40
0.7301329682
 40
0.8637047246
 40
1.0
 40
1.0
 40
1.0
 40
1.0
 10
9.9981292675
 20
7.9947878702
 30
0.0
 10
9.9954208411
 20
7.9955784475
 30
0.0
 10
9.9898946912
 20
7.9970835839
 30
0.0
 10
9.9814103829
 20
7.9990952187
 30
0.0
 10
9.9726137078
 20
8.0008983092
 30
0.0
 10
9.9635078346
 20
8.0024978927
 30
0.0
 10
9.9541025288
 20
8.0038977763
 30
0.0
 10
9.9444153316
 20
8.0051004424
 30
0.0
 10
9.9344729619
 20
8.0061065952
 30
0.0
 10
9.9277570286
 20
8.0066412219
 30
0.0
 10
9.9243628883
 20
8.0068766063
 30
0.0
  0
SPLINE
  5
327
100
AcDbEntity
  8
0
100
AcDbSpline
 62
7
  6
CONTINUOUS
 70
0
 71
3
 72
41
 73
37
 74
0
 42
0.0000001
 43
0.0000001
 44
0.0000000001
 40
0.0
 40
0.0
 40
0.0
 40
0.0
 40
0.0299421172
 40
0.04492376
 40
0.059914511
 40
0.089929166
 40
0.1200145972
 40
0.135093366
 40
0.1501974852
 40
0.1804849961
 40
0.2108989984
 40
0.2414526287
 40
0.272155802
 40
0.3030150309
 40
0.334033329
 40
0.3652101953
 40
0.3965416763
 40
0.4280205023
 40
0.459636293
 40
0.4913758157
 40
0.5232232898
 40
0.5551607336
 40
0.5871683456
 40
0.6192249134
 40
0.6513082489
 40
0.6833956359
 40
0.7154642792
 40
0.7474917569
 40
0.7794564628
 40
0.8113380448
 40
0.8431178358
 40
0.8747791645
 40
0.9063081103
 40
0.9376924636
 40
0.9689257188
 40
1.0
 40
1.0
 40
1.0
 40
1.0
 10
9.8495983054
 20
9.3446923783
 30
0.0
 10
9.8517217849
 20
9.3467434788
 30
0.0
 10
9.8550322065
 20
9.3496958034
 30
0.0
 10
9.859668307
 20
9.3533590711
 30
0.0
 10
9.8644521088
 20
9.3568399638
 30
0.0
 10
9.8706941211
 20
9.360837226
 30
0.0
 10
9.8772396357
 20
9.3643336572
 30
0.0
 10
9.8826379911
 20
9.3668210079
 30
0.0
 10
9.8881478501
 20
9.3691030452
 30
0.0
 10
9.8952167593
 20
9.3715568501
 30
0.0
 10
9.9039281122
 20
9.3738437279
 30
0.0
 10
9.912829544
 20
9.375463793
 30
0.0
 10
9.9218717233
 20
9.3764081152
 30
0.0
 10
9.9310049815
 20
9.3766716548
 30
0.0
 10
9.9401790668
 20
9.3762530676
 30
0.0
 10
9.9493435567
 20
9.3751547646
 30
0.0
 10
9.9584480934
 20
9.3733828785
 30
0.0
 10
9.9674426738
 20
9.3709472534
 30
0.0
 10
9.9762779162
 20
9.3678613621
 30
0.0
 10
9.9849053273
 20
9.3641422301
 30
0.0
 10
9.9932775629
 20
9.3598103414
 30
0.0
 10
10.0013486832
 20
9.3548895259
 30
0.0
 10
10.0090743987
 20
9.3494068283
 30
0.0
 10
10.0164123161
 20
9.3433923697
 30
0.0
 10
10.0233221769
 20
9.336879189
 30
0.0
 10
10.0297660635
 20
9.3299030452
 30
0.0
 10
10.0357086063
 20
9.3225022267
 30
0.0
 10
10.0411171735
 20
9.3147173429
 30
0.0
 10
10.0459620493
 20
9.3065911072
 30
0.0
 10
10.0502165948
 20
9.2981681017
 30
0.0
 10
10.0538573953
 20
9.2894945539
 30
0.0
 10
10.0568644462
 20
9.2806180437
 30
0.0
 10
10.0592210751
 20
9.2715873783
 30
0.0
 10
10.0609144301
 20
9.2624518559
 30
0.0
 10
10.0619348623
 20
9.2532624354
 30
0.0
 10
10.0621634662
 20
9.247116506
 30
0.0
 10
10.0621634662
 20
9.2440525562
 30
0.0
  0
SPLINE
  5
328
100
AcDbEntity
  8
0
100
AcDbSpline
 62
7
  6
CONTINUOUS
 70
0
 71
3
 72
41
 73
37
 74
0
 42
0.0000001
 43
0.0000001
 44
0.0000000001
 40
0.0
 40
0.0
 40
0.0
 40
0.0
 40
0.0299421172
 40
0.04492376
 40
0.059914511
 40
0.089929166
 40
0.1200145972
 40
0.135093366
 40
0.1501974852
 40
0.1804849961
 40
0.2108989984
 40
0.2414526287
 40
0.272155802
 40
0.3030150309
 40
0.334033329
 40
0.3652101953
 40
0.3965416763
 40
0.4280205023
 40
0.459636293
 40
0.4913758157
 40
0.5232232898
 40
0.5551607336
 40
0.5871683456
 40
0.6192249134
 40
0.6513082489
 40
0.6833956359
 40
0.7154642792
 40
0.7474917569
 40
0.7794564628
 40
0.8113380448
 40
0.8431178358
 40
0.8747791645
 40
0.9063081103
 40
0.9376924636
 40
0.9689257188
 40
1.0
 40
1.0
 40
1.0
 40
1.0
 10
8.9744695525
 20
8.1670657757
 30
0.0
 10
8.976593032
 20
8.1691168762
 30
0.0
 10
8.9799034536
 20
8.1720692008
 30
0.0
 10
8.9845395542
 20
8.1757324685
 30
0.0
 10
8.989323356
 20
8.1792133612
 30
0.0
 10
8.9955653682
 20
8.1832106234
 30
0.0
 10
9.0021108829
 20
8.1867070546
 30
0.0
 10
9.0075092383
 20
8.1891944053
 30
0.0
 10
9.0130190973
 20
8.1914764426
 30
0.0
 10
9.0200880064
 20
8.1939302475
 30
0.0
 10
9.0287993594
 20
8.1962171253
 30
0.0
 10
9.0377007912
 20
8.1978371904
 30
0.0
 10
9.0467429704
 20
8.1987815126
 30
0.0
 10
9.0558762287
 20
8.1990450522
 30
0.0
 10
9.065050314
 20
8.198626465
 30
0.0
 10
9.0742148038
 20
8.197528162
 30
0.0
 10
9.0833193406
 20
8.1957562759
 30
0.0
 10
9.092313921
 20
8.1933206508
 30
0.0
 10
9.1011491634
 20
8.1902347595
 30
0.0
 10
9.1097765745
 20
8.1865156275
 30
0.0
 10
9.11814881
 20
8.1821837388
 30
0.0
 10
9.1262199303
 20
8.1772629233
 30
0.0
 10
9.1339456459
 20
8.1717802257
 30
0.0
 10
9.1412835633
 20
8.1657657671
 30
0.0
 10
9.1481934241
 20
8.1592525864
 30
0.0
 10
9.1546373107
 20
8.1522764426
 30
0.0
 10
9.1605798534
 20
8.1448756241
 30
0.0
 10
9.1659884206
 20
8.1370907403
 30
0.0
 10
9.1708332964
 20
8.1289645046
 30
0.0
 10
9.175087842
 20
8.1205414991
 30
0.0
 10
9.1787286425
 20
8.1118679513
 30
0.0
 10
9.1817356934
 20
8.1029914411
 30
0.0
 10
9.1840923223
 20
8.0939607757
 30
0.0
 10
9.1857856773
 20
8.0848252533
 30
0.0
 10
9.1868061095
 20
8.0756358328
 30
0.0
 10
9.1870347134
 20
8.0694899034
 30
0.0
 10
9.1870347134
 20
8.0664259536
 30
0.0
  0
SPLINE
  5
329
100
AcDbEntity
  8
0
100
AcDbSpline
 62
7
  6
CONTINUOUS
 70
0
 71
3
 72
41
 73
37
 74
0
 42
0.0000001
 43
0.0000001
 44
0.0000000001
 40
0.0
 40
0.0
 40
0.0
 40
0.0
 40
0.0299421172
 40
0.04492376
 40
0.059914511
 40
0.089929166
 40
0.1200145972
 40
0.135093366
 40
0.1501974852
 40
0.1804849961
 40
0.2108989984
 40
0.2414526287
 40
0.272155802
 40
0.3030150309
 40
0.334033329
 40
0.3652101953
 40
0.3965416763
 40
0.4280205023
 40
0.459636293
 40
0.4913758157
 40
0.5232232898
 40
0.5551607336
 40
0.5871683456
 40
0.6192249134
 40
0.6513082489
 40
0.6833956359
 40
0.7154642792
 40
0.7474917569
 40
0.7794564628
 40
0.8113380448
 40
0.8431178358
 40
0.8747791645
 40
0.9063081103
 40
0.9376924636
 40
0.9689257188
 40
1.0
 40
1.0
 40
1.0
 40
1.0
 10
8.0993406846
 20
6.9894391235
 30
0.0
 10
8.1014641641
 20
6.991490224
 30
0.0
 10
8.1047745857
 20
6.9944425486
 30
0.0
 10
8.1094106862
 20
6.9981058163
 30
0.0
 10
8.114194488
 20
7.0015867091
 30
0.0
 10
8.1204365003
 20
7.0055839712
 30
0.0
 10
8.1269820149
 20
7.0090804024
 30
0.0
 10
8.1323803703
 20
7.0115677531
 30
0.0
 10
8.1378902293
 20
7.0138497904
 30
0.0
 10
8.1449591385
 20
7.0163035953
 30
0.0
 10
8.1536704914
 20
7.0185904731
 30
0.0
 10
8.1625719232
 20
7.0202105383
 30
0.0
 10
8.1716141025
 20
7.0211548604
 30
0.0
 10
8.1807473607
 20
7.0214184
 30
0.0
 10
8.189921446
 20
7.0209998128
 30
0.0
 10
8.1990859359
 20
7.0199015098
 30
0.0
 10
8.2081904726
 20
7.0181296237
 30
0.0
 10
8.217185053
 20
7.0156939986
 30
0.0
 10
8.2260202954
 20
7.0126081073
 30
0.0
 10
8.2346477065
 20
7.0088889754
 30
0.0
 10
8.2430199421
 20
7.0045570866
 30
0.0
 10
8.2510910624
 20
6.9996362711
 30
0.0
 10
8.2588167779
 20
6.9941535735
 30
0.0
 10
8.2661546953
 20
6.9881391149
 30
0.0
 10
8.2730645561
 20
6.9816259343
 30
0.0
 10
8.2795084427
 20
6.9746497904
 30
0.0
 10
8.2854509855
 20
6.9672489719
 30
0.0
 10
8.2908595527
 20
6.9594640881
 30
0.0
 10
8.2957044285
 20
6.9513378524
 30
0.0
 10
8.299958974
 20
6.9429148469
 30
0.0
 10
8.3035997745
 20
6.9342412991
 30
0.0
 10
8.3066068254
 20
6.9253647889
 30
0.0
 10
8.3089634543
 20
6.9163341235
 30
0.0
 10
8.3106568093
 20
6.9071986011
 30
0.0
 10
8.3116772415
 20
6.8980091806
 30
0.0
 10
8.3119058454
 20
6.8918632512
 30
0.0
 10
8.3119058454
 20
6.8887993014
 30
0.0
  0
SPLINE
  5
32A
100
AcDbEntity
  8
0
100
AcDbSpline
 62
7
  6
CONTINUOUS
 70
0
 71
3
 72
42
 73
38
 74
0
 42
0.0000001
 43
0.0000001
 44
0.0000000001
 40
0.0
 40
0.0
 40
0.0
 40
0.0
 40
0.029941955
 40
0.0449235146
 40
0.0599141798
 40
0.0899286634
 40
0.1200139157
 40
0.1350925878
 40
0.1501966212
 40
0.1653282758
 40
0.1804896539
 40
0.2109034651
 40
0.2414569083
 40
0.2721598983
 40
0.3030189436
 40
0.3340370534
 40
0.3652137254
 40
0.3965450095
 40
0.4280236423
 40
0.4596392473
 40
0.4913785906
 40
0.5232258876
 40
0.5551631515
 40
0.5871705795
 40
0.6192269638
 40
0.6513101206
 40
0.6833973347
 40
0.715465809
 40
0.7474931176
 40
0.7794576526
 40
0.8113390598
 40
0.8431186797
 40
0.8747798435
 40
0.9063085928
 40
0.9376928743
 40
0.9689257558
 40
1.0
 40
1.0
 40
1.0
 40
1.0
 10
8.0798864367
 20
9.4862109977
 30
0.0
 10
8.0824744238
 20
9.4887108124
 30
0.0
 10
8.0865089182
 20
9.4923091016
 30
0.0
 10
8.0921591931
 20
9.4967737457
 30
0.0
 10
8.0979893746
 20
9.5010162627
 30
0.0
 10
8.1055968172
 20
9.50588803
 30
0.0
 10
8.113574204
 20
9.5101494057
 30
0.0
 10
8.1201533363
 20
9.513181031
 30
0.0
 10
8.1251857116
 20
9.5152652651
 30
0.0
 10
8.1303048001
 20
9.5171552539
 30
0.0
 10
8.1372428719
 20
9.5194147494
 30
0.0
 10
8.1461010207
 20
9.5217404226
 30
0.0
 10
8.1569493549
 20
9.5237149045
 30
0.0
 10
8.1679696476
 20
9.5248659573
 30
0.0
 10
8.1791008432
 20
9.5251872395
 30
0.0
 10
8.1902818324
 20
9.5246771768
 30
0.0
 10
8.2014511244
 20
9.5233387042
 30
0.0
 10
8.2125473597
 20
9.5211793129
 30
0.0
 10
8.2235095945
 20
9.5182109854
 30
0.0
 10
8.2342776425
 20
9.5144501309
 30
0.0
 10
8.2447923974
 20
9.509917492
 30
0.0
 10
8.2549961515
 20
9.5046380284
 30
0.0
 10
8.2648329158
 20
9.4986407932
 30
0.0
 10
8.2742487203
 20
9.4919587624
 30
0.0
 10
8.2831919043
 20
9.4846286508
 30
0.0
 10
8.2916133959
 20
9.4766907137
 30
0.0
 10
8.2994669779
 20
9.4681885278
 30
0.0
 10
8.3067095377
 20
9.4591687547
 30
0.0
 10
8.3133013022
 20
9.4496808887
 30
0.0
 10
8.3192060508
 20
9.4397769879
 30
0.0
 10
8.3243913348
 20
9.4295113984
 30
0.0
 10
8.3288286183
 20
9.4189404579
 30
0.0
 10
8.3324935079
 20
9.408122154
 30
0.0
 10
8.3353656989
 20
9.3971159598
 30
0.0
 10
8.3374294822
 20
9.3859819874
 30
0.0
 10
8.3386731655
 20
9.3747823112
 30
0.0
 10
8.3389517701
 20
9.3672919211
 30
0.0
 10
8.3389517701
 20
9.3635576933
 30
0.0
  0
SPLINE
  5
32B
100
AcDbEntity
  8
0
100
AcDbSpline
 62
7
  6
CONTINUOUS
 70
0
 71
3
 72
42
 73
38
 74
0
 42
0.0000001
 43
0.0000001
 44
0.0000000001
 40
0.0
 40
0.0
 40
0.0
 40
0.0
 40
0.029941955
 40
0.0449235146
 40
0.0599141798
 40
0.0899286634
 40
0.1200139157
 40
0.1350925878
 40
0.1501966212
 40
0.1653282758
 40
0.1804896539
 40
0.2109034651
 40
0.2414569083
 40
0.2721598983
 40
0.3030189436
 40
0.3340370534
 40
0.3652137254
 40
0.3965450095
 40
0.4280236423
 40
0.4596392473
 40
0.4913785906
 40
0.5232258876
 40
0.5551631515
 40
0.5871705795
 40
0.6192269638
 40
0.6513101206
 40
0.6833973347
 40
0.715465809
 40
0.7474931176
 40
0.7794576526
 40
0.8113390598
 40
0.8431186797
 40
0.8747798435
 40
0.9063085928
 40
0.9376928743
 40
0.9689257558
 40
1.0
 40
1.0
 40
1.0
 40
1.0
 10
9.8301440575
 20
6.8881961864
 30
0.0
 10
9.8327320446
 20
6.8906960011
 30
0.0
 10
9.836766539
 20
6.8942942903
 30
0.0
 10
9.8424168139
 20
6.8987589344
 30
0.0
 10
9.8482469954
 20
6.9030014514
 30
0.0
 10
9.855854438
 20
6.9078732187
 30
0.0
 10
9.8638318248
 20
6.9121345943
 30
0.0
 10
9.8704109571
 20
6.9151662196
 30
0.0
 10
9.8754433324
 20
6.9172504538
 30
0.0
 10
9.8805624209
 20
6.9191404425
 30
0.0
 10
9.8875004927
 20
6.9213999381
 30
0.0
 10
9.8963586415
 20
6.9237256112
 30
0.0
 10
9.9072069757
 20
6.9257000931
 30
0.0
 10
9.9182272684
 20
6.926851146
 30
0.0
 10
9.929358464
 20
6.9271724282
 30
0.0
 10
9.9405394532
 20
6.9266623655
 30
0.0
 10
9.9517087452
 20
6.9253238929
 30
0.0
 10
9.9628049805
 20
6.9231645016
 30
0.0
 10
9.9737672153
 20
6.9201961741
 30
0.0
 10
9.9845352633
 20
6.9164353196
 30
0.0
 10
9.9950500182
 20
6.9119026807
 30
0.0
 10
10.0052537723
 20
6.906623217
 30
0.0
 10
10.0150905366
 20
6.9006259819
 30
0.0
 10
10.0245063411
 20
6.893943951
 30
0.0
 10
10.0334495251
 20
6.8866138394
 30
0.0
 10
10.0418710167
 20
6.8786759024
 30
0.0
 10
10.0497245987
 20
6.8701737164
 30
0.0
 10
10.0569671585
 20
6.8611539434
 30
0.0
 10
10.063558923
 20
6.8516660774
 30
0.0
 10
10.0694636716
 20
6.8417621765
 30
0.0
 10
10.0746489556
 20
6.831496587
 30
0.0
 10
10.0790862391
 20
6.8209256466
 30
0.0
 10
10.0827511287
 20
6.8101073427
 30
0.0
 10
10.0856233197
 20
6.7991011485
 30
0.0
 10
10.087687103
 20
6.7879671761
 30
0.0
 10
10.0889307863
 20
6.7767674998
 30
0.0
 10
10.0892093909
 20
6.7692771098
 30
0.0
 10
10.0892093909
 20
6.7655428819
 30
0.0
  0
SPLINE
  5
32C
100
AcDbEntity
  8
0
100
AcDbSpline
 62
7
  6
CONTINUOUS
 70
0
 71
3
 72
25
 73
21
 74
0
 42
0.0000001
 43
0.0000001
 44
0.0000000001
 40
0.0
 40
0.0
 40
0.0
 40
0.0
 40
0.0631702207
 40
0.0947076161
 40
0.1262111653
 40
0.1891106172
 40
0.2518815019
 40
0.2832251879
 40
0.314539748
 40
0.3770786192
 40
0.4395186985
 40
0.5018745869
 40
0.5641629798
 40
0.626402521
 40
0.6886134638
 40
0.7508171405
 40
0.8130358473
 40
0.8752913116
 40
0.9376062503
 40
1.0
 40
1.0
 40
1.0
 40
1.0
 10
9.0624258177
 20
7.1558939799
 30
0.0
 10
9.0652365612
 20
7.160458166
 30
0.0
 10
9.0696598011
 20
7.1671755568
 30
0.0
 10
9.0759576761
 20
7.1758390752
 30
0.0
 10
9.0825077947
 20
7.1842848467
 30
0.0
 10
9.0911728917
 20
7.1944354926
 30
0.0
 10
9.10045727
 20
7.2040046824
 30
0.0
 10
9.1082319077
 20
7.2112756332
 30
0.0
 10
9.1162246296
 20
7.2182762206
 30
0.0
 10
9.1266279984
 20
7.2265183528
 30
0.0
 10
9.1397288053
 20
7.2355420837
 30
0.0
 10
9.1533935393
 20
7.2436463737
 30
0.0
 10
9.1675682041
 20
7.250784334
 30
0.0
 10
9.1821945338
 20
7.2569131304
 30
0.0
 10
9.1972096457
 20
7.2619942979
 30
0.0
 10
9.2125465545
 20
7.2659946391
 30
0.0
 10
9.2281344387
 20
7.2688868339
 30
0.0
 10
9.2438998338
 20
7.270650239
 30
0.0
 10
9.2597654608
 20
7.2712712374
 30
0.0
 10
9.270352516
 20
7.2709197116
 30
0.0
 10
9.2756341746
 20
7.2705534273
 30
0.0
  0
SPLINE
  5
32D
100
AcDbEntity
  8
0
100
AcDbSpline
 62
7
  6
CONTINUOUS
 70
0
 71
3
 72
11
 73
7
 74
0
 42
0.0000001
 43
0.0000001
 44
0.0000000001
 40
0.0
 40
0.0
 40
0.0
 40
0.0
 40
0.2467160136
 40
0.4955393873
 40
0.7466009302
 40
1.0
 40
1.0
 40
1.0
 40
1.0
 10
9.0228489211
 20
7.0462684414
 30
0.0
 10
9.0225466764
 20
7.0410738887
 30
0.0
 10
9.0223328083
 20
7.0306135377
 30
0.0
 10
9.0231742283
 20
7.01487639
 30
0.0
 10
9.0251718659
 20
6.9991020569
 30
0.0
 10
9.0272585767
 20
6.9886588414
 30
0.0
 10
9.0284873814
 20
6.9834577416
 30
0.0
  0
SPLINE
  5
32E
100
AcDbEntity
  8
0
100
AcDbSpline
 62
7
  6
CONTINUOUS
 70
0
 71
3
 72
18
 73
14
 74
0
 42
0.0000001
 43
0.0000001
 44
0.0000000001
 40
0.0
 40
0.0
 40
0.0
 40
0.0
 40
0.1504655604
 40
0.2917104522
 40
0.4244369587
 40
0.5495624319
 40
0.6682139564
 40
0.7255497878
 40
0.7817912235
 40
0.8371401983
 40
0.8918093099
 40
0.9460200145
 40
1.0
 40
1.0
 40
1.0
 40
1.0
 10
11.9143171514
 20
10.1474422871
 30
0.0
 10
11.91643747
 20
10.1494903576
 30
0.0
 10
11.9206751815
 20
10.1533330992
 30
0.0
 10
11.9272371962
 20
10.1584542717
 30
0.0
 10
11.9337915648
 20
10.1627373197
 30
0.0
 10
11.9403314023
 20
10.1661752156
 30
0.0
 10
11.9458280428
 20
10.168355224
 30
0.0
 10
11.9501921456
 20
10.1696504508
 30
0.0
 10
11.9534187483
 20
10.1703969372
 30
0.0
 10
11.9566346266
 20
10.1709290236
 30
0.0
 10
11.9598389047
 20
10.1712464388
 30
0.0
 10
11.9630303038
 20
10.1713489502
 30
0.0
 10
11.9651505738
 20
10.171273932
 30
0.0
 10
11.9662056216
 20
10.1712007596
 30
0.0
  0
SPLINE
  5
32F
100
AcDbEntity
  8
0
100
AcDbSpline
 62
7
  6
CONTINUOUS
 70
0
 71
3
 72
41
 73
37
 74
0
 42
0.0000001
 43
0.0000001
 44
0.0000000001
 40
0.0
 40
0.0
 40
0.0
 40
0.0
 40
0.0299421172
 40
0.04492376
 40
0.059914511
 40
0.089929166
 40
0.1200145972
 40
0.135093366
 40
0.1501974852
 40
0.1804849961
 40
0.2108989984
 40
0.2414526287
 40
0.272155802
 40
0.3030150309
 40
0.334033329
 40
0.3652101953
 40
0.3965416763
 40
0.4280205023
 40
0.459636293
 40
0.4913758157
 40
0.5232232898
 40
0.5551607336
 40
0.5871683456
 40
0.6192249134
 40
0.6513082489
 40
0.6833956359
 40
0.7154642792
 40
0.7474917569
 40
0.7794564628
 40
0.8113380448
 40
0.8431178358
 40
0.8747791645
 40
0.9063081103
 40
0.9376924636
 40
0.9689257188
 40
1.0
 40
1.0
 40
1.0
 40
1.0
 10
9.152322848
 20
7.9829348516
 30
0.0
 10
9.1501993685
 20
7.9808837511
 30
0.0
 10
9.1468889469
 20
7.9779314265
 30
0.0
 10
9.1422528464
 20
7.9742681588
 30
0.0
 10
9.1374690446
 20
7.970787266
 30
0.0
 10
9.1312270323
 20
7.9667900039
 30
0.0
 10
9.1246815177
 20
7.9632935726
 30
0.0
 10
9.1192831623
 20
7.9608062219
 30
0.0
 10
9.1137733033
 20
7.9585241846
 30
0.0
 10
9.1067043941
 20
7.9560703798
 30
0.0
 10
9.0979930412
 20
7.953783502
 30
0.0
 10
9.0890916094
 20
7.9521634368
 30
0.0
 10
9.0800494301
 20
7.9512191147
 30
0.0
 10
9.0709161718
 20
7.9509555751
 30
0.0
 10
9.0617420866
 20
7.9513741623
 30
0.0
 10
9.0525775967
 20
7.9524724653
 30
0.0
 10
9.04347306
 20
7.9542443513
 30
0.0
 10
9.0344784796
 20
7.9566799765
 30
0.0
 10
9.0256432372
 20
7.9597658678
 30
0.0
 10
9.0170158261
 20
7.9634849997
 30
0.0
 10
9.0086435905
 20
7.9678168885
 30
0.0
 10
9.0005724702
 20
7.972737704
 30
0.0
 10
8.9928467547
 20
7.9782204015
 30
0.0
 10
8.9855088373
 20
7.9842348602
 30
0.0
 10
8.9785989765
 20
7.9907480408
 30
0.0
 10
8.9721550899
 20
7.9977241846
 30
0.0
 10
8.9662125471
 20
8.0051250032
 30
0.0
 10
8.9608039799
 20
8.012909887
 30
0.0
 10
8.9559591041
 20
8.0210361227
 30
0.0
 10
8.9517045586
 20
8.0294591282
 30
0.0
 10
8.9480637581
 20
8.038132676
 30
0.0
 10
8.9450567072
 20
8.0470091862
 30
0.0
 10
8.9427000783
 20
8.0560398516
 30
0.0
 10
8.9410067233
 20
8.065175374
 30
0.0
 10
8.9399862911
 20
8.0743647945
 30
0.0
 10
8.9397576872
 20
8.0805107239
 30
0.0
 10
8.9397576872
 20
8.0835746736
 30
0.0
  0
SPLINE
  5
330
100
AcDbEntity
  8
0
100
AcDbSpline
 62
7
  6
CONTINUOUS
 70
0
 71
3
 72
41
 73
37
 74
0
 42
0.0000001
 43
0.0000001
 44
0.0000000001
 40
0.0
 40
0.0
 40
0.0
 40
0.0
 40
0.0299421172
 40
0.04492376
 40
0.059914511
 40
0.089929166
 40
0.1200145972
 40
0.135093366
 40
0.1501974852
 40
0.1804849961
 40
0.2108989984
 40
0.2414526287
 40
0.272155802
 40
0.3030150309
 40
0.334033329
 40
0.3652101953
 40
0.3965416763
 40
0.4280205023
 40
0.459636293
 40
0.4913758157
 40
0.5232232898
 40
0.5551607336
 40
0.5871683456
 40
0.6192249134
 40
0.6513082489
 40
0.6833956359
 40
0.7154642792
 40
0.7474917569
 40
0.7794564628
 40
0.8113380448
 40
0.8431178358
 40
0.8747791645
 40
0.9063081103
 40
0.9376924636
 40
0.9689257188
 40
1.0
 40
1.0
 40
1.0
 40
1.0
 10
8.2771939801
 20
6.8053081994
 30
0.0
 10
8.2750705006
 20
6.8032570989
 30
0.0
 10
8.271760079
 20
6.8003047743
 30
0.0
 10
8.2671239784
 20
6.7966415066
 30
0.0
 10
8.2623401766
 20
6.7931606138
 30
0.0
 10
8.2560981643
 20
6.7891633517
 30
0.0
 10
8.2495526497
 20
6.7856669205
 30
0.0
 10
8.2441542943
 20
6.7831795698
 30
0.0
 10
8.2386444353
 20
6.7808975325
 30
0.0
 10
8.2315755262
 20
6.7784437276
 30
0.0
 10
8.2228641732
 20
6.7761568498
 30
0.0
 10
8.2139627414
 20
6.7745367846
 30
0.0
 10
8.2049205622
 20
6.7735924625
 30
0.0
 10
8.1957873039
 20
6.7733289229
 30
0.0
 10
8.1866132186
 20
6.7737475101
 30
0.0
 10
8.1774487288
 20
6.7748458131
 30
0.0
 10
8.168344192
 20
6.7766176992
 30
0.0
 10
8.1593496116
 20
6.7790533243
 30
0.0
 10
8.1505143692
 20
6.7821392156
 30
0.0
 10
8.1418869581
 20
6.7858583475
 30
0.0
 10
8.1335147226
 20
6.7901902363
 30
0.0
 10
8.1254436023
 20
6.7951110518
 30
0.0
 10
8.1177178867
 20
6.8005937494
 30
0.0
 10
8.1103799693
 20
6.806608208
 30
0.0
 10
8.1034701085
 20
6.8131213886
 30
0.0
 10
8.0970262219
 20
6.8200975325
 30
0.0
 10
8.0910836792
 20
6.827498351
 30
0.0
 10
8.085675112
 20
6.8352832348
 30
0.0
 10
8.0808302362
 20
6.8434094705
 30
0.0
 10
8.0765756906
 20
6.851832476
 30
0.0
 10
8.0729348901
 20
6.8605060238
 30
0.0
 10
8.0699278392
 20
6.869382534
 30
0.0
 10
8.0675712103
 20
6.8784131994
 30
0.0
 10
8.0658778553
 20
6.8875487218
 30
0.0
 10
8.0648574231
 20
6.8967381423
 30
0.0
 10
8.0646288192
 20
6.9028840717
 30
0.0
 10
8.0646288192
 20
6.9059480215
 30
0.0
  0
SPLINE
  5
331
100
AcDbEntity
  8
0
100
AcDbSpline
 62
7
  6
CONTINUOUS
 70
0
 71
3
 72
48
 73
44
 74
0
 42
0.0000001
 43
0.0000001
 44
0.0000000001
 40
0.0
 40
0.0
 40
0.0
 40
0.0
 40
0.0378128049
 40
0.0760191634
 40
0.114531669
 40
0.1532646687
 40
0.1921303453
 40
0.2310410956
 40
0.2699090056
 40
0.3086463241
 40
0.347165672
 40
0.3853802961
 40
0.4232043248
 40
0.4605530193
 40
0.4973430301
 40
0.5334926606
 40
0.5689221386
 40
0.6035538838
 40
0.6373127868
 40
0.6701265016
 40
0.701925756
 40
0.7326446872
 40
0.7622212211
 40
0.7905974793
 40
0.817720246
 40
0.8307966593
 40
0.8435421524
 40
0.8559516716
 40
0.8680205801
 40
0.8797446401
 40
0.891120199
 40
0.9021440122
 40
0.9128135202
 40
0.9231267123
 40
0.933082304
 40
0.9426798185
 40
0.9519195308
 40
0.9608027428
 40
0.9693317176
 40
0.9775101859
 40
0.9853432874
 40
0.9928373451
 40
1.0
 40
1.0
 40
1.0
 40
1.0
 10
11.2450116532
 20
8.7764983697
 30
0.0
 10
11.2450116532
 20
8.7884227432
 30
0.0
 10
11.2451701484
 20
8.8123958746
 30
0.0
 10
11.2458726187
 20
8.8485078461
 30
0.0
 10
11.2470396353
 20
8.88489817
 30
0.0
 10
11.2486683247
 20
8.9214788464
 30
0.0
 10
11.2507548342
 20
8.9581620536
 30
0.0
 10
11.2532941179
 20
8.9948593436
 30
0.0
 10
11.2562800765
 20
9.0314823832
 30
0.0
 10
11.2597055093
 20
9.0679429721
 30
0.0
 10
11.2635621531
 20
9.1041533156
 30
0.0
 10
11.267840702
 20
9.140026224
 30
0.0
 10
11.2725308286
 20
9.1754753236
 30
0.0
 10
11.2776212092
 20
9.2104152654
 30
0.0
 10
11.2830995509
 20
9.2447619317
 30
0.0
 10
11.2889526193
 20
9.278432643
 30
0.0
 10
11.2951662633
 20
9.3113463621
 30
0.0
 10
11.3017254579
 20
9.3434238901
 30
0.0
 10
11.3086143383
 20
9.3745880591
 30
0.0
 10
11.3158162374
 20
9.4047639189
 30
0.0
 10
11.3233137254
 20
9.4338789291
 30
0.0
 10
11.3310886547
 20
9.461863123
 30
0.0
 10
11.3391221933
 20
9.4886493687
 30
0.0
 10
11.3473948864
 20
9.5141732696
 30
0.0
 10
11.3545558129
 20
9.5345814043
 30
0.0
 10
11.3603990156
 20
9.5502222731
 30
0.0
 10
11.3647753083
 20
9.5614568046
 30
0.0
 10
11.3691962405
 20
9.5723316385
 30
0.0
 10
11.3736591501
 20
9.5828402642
 30
0.0
 10
11.3781614026
 20
9.5929763595
 30
0.0
 10
11.3827002063
 20
9.6027338718
 30
0.0
 10
11.3872729201
 20
9.6121069317
 30
0.0
 10
11.3918767233
 20
9.621089952
 30
0.0
 10
11.39650889
 20
9.629677556
 30
0.0
 10
11.4011666596
 20
9.6378646185
 30
0.0
 10
11.4058472044
 20
9.6456462894
 30
0.0
 10
11.4105478253
 20
9.6530178943
 30
0.0
 10
11.4152656082
 20
9.6599750946
 30
0.0
 10
11.4199978723
 20
9.6665137494
 30
0.0
 10
11.4247418556
 20
9.6726300732
 30
0.0
 10
11.4294949264
 20
9.6783205144
 30
0.0
 10
11.434254073
 20
9.6835813885
 30
0.0
 10
11.437501151
 20
9.6868733706
 30
0.0
 10
11.4391257768
 20
9.6884426387
 30
0.0
  0
SPLINE
  5
332
100
AcDbEntity
  8
0
100
AcDbSpline
 62
7
  6
CONTINUOUS
 70
0
 71
3
 72
23
 73
19
 74
0
 42
0.0000001
 43
0.0000001
 44
0.0000000001
 40
0.0
 40
0.0
 40
0.0
 40
0.0
 40
0.0637757517
 40
0.1273453038
 40
0.1907021142
 40
0.2538559682
 40
0.3168132565
 40
0.3795821027
 40
0.442173382
 40
0.5045993411
 40
0.5668738656
 40
0.6290123776
 40
0.6910316412
 40
0.7529496359
 40
0.8147853464
 40
0.8765585919
 40
0.9382898467
 40
1.0
 40
1.0
 40
1.0
 40
1.0
 10
10.3171680947
 20
6.780643583
 30
0.0
 10
10.3171680947
 20
6.7852104316
 30
0.0
 10
10.3173867311
 20
6.7943309092
 30
0.0
 10
10.3183732954
 20
6.807956114
 30
0.0
 10
10.3200160295
 20
6.8214733827
 30
0.0
 10
10.3223110025
 20
6.8348507957
 30
0.0
 10
10.3252529577
 20
6.8480579098
 30
0.0
 10
10.3288351664
 20
6.861064193
 30
0.0
 10
10.3330494472
 20
6.8738396253
 30
0.0
 10
10.3378860545
 20
6.8863547802
 30
0.0
 10
10.3433338452
 20
6.8985808026
 30
0.0
 10
10.3493803653
 20
6.9104894513
 30
0.0
 10
10.3560116278
 20
6.9220532816
 30
0.0
 10
10.3632123396
 20
6.9332456415
 30
0.0
 10
10.3709659642
 20
6.9440406325
 30
0.0
 10
10.3792546687
 20
6.9544134626
 30
0.0
 10
10.3880589704
 20
6.9643399216
 30
0.0
 10
10.3942599578
 20
6.9706457929
 30
0.0
 10
10.3974383067
 20
6.9737158235
 30
0.0
  0
SPLINE
  5
333
100
AcDbEntity
  8
0
100
AcDbSpline
 62
7
  6
CONTINUOUS
 70
0
 71
3
 72
61
 73
57
 74
0
 42
0.0000001
 43
0.0000001
 44
0.0000000001
 40
0.0
 40
0.0
 40
0.0
 40
0.0
 40
0.041773683
 40
0.0840361744
 40
0.126657356
 40
0.1695049536
 40
0.2124461739
 40
0.255347734
 40
0.2980765393
 40
0.3405001682
 40
0.3824874064
 40
0.4239087759
 40
0.4646370687
 40
0.5045478875
 40
0.5435201962
 40
0.5814368877
 40
0.5999642174
 40
0.6181858165
 40
0.6360884225
 40
0.6536591429
 40
0.6708854449
 40
0.6877552479
 40
0.7042568506
 40
0.7203790744
 40
0.7361111744
 40
0.7514429752
 40
0.7663648323
 40
0.7808677049
 40
0.7949432137
 40
0.8085836306
 40
0.8217820383
 40
0.8345322654
 40
0.8468291079
 40
0.8586682842
 40
0.8700466517
 40
0.8809622685
 40
0.8914145636
 40
0.9014045599
 40
0.9109350136
 40
0.9200108095
 40
0.9286391477
 40
0.9368300847
 40
0.9445968849
 40
0.951956666
 40
0.9589309937
 40
0.9655465745
 40
0.9718360038
 40
0.977838309
 40
0.9807467497
 40
0.9836012173
 40
0.9864085083
 40
0.9891758169
 40
0.9919106779
 40
0.9946209207
 40
0.9973146171
 40
1.0
 40
1.0
 40
1.0
 40
1.0
 10
15.041091226
 20
8.6566046214
 30
0.0
 10
15.041091226
 20
8.6364562244
 30
0.0
 10
15.0407768909
 20
8.5959230336
 30
0.0
 10
15.03938726
 20
8.5348469977
 30
0.0
 10
15.0370808269
 20
8.4732802717
 30
0.0
 10
15.0338651391
 20
8.4114266012
 30
0.0
 10
15.0297508307
 20
8.3494906704
 30
0.0
 10
15.0247514987
 20
8.2876773681
 30
0.0
 10
15.0188837041
 20
8.2261912022
 30
0.0
 10
15.012166898
 20
8.1652355842
 30
0.0
 10
15.0046233639
 20
8.1050121614
 30
0.0
 10
14.9962781455
 20
8.0457201367
 30
0.0
 10
14.9871589635
 20
7.9875556224
 30
0.0
 10
14.9772961314
 20
7.9307109119
 30
0.0
 10
14.9667224281
 20
7.8753740972
 30
0.0
 10
14.9572768676
 20
7.8303294304
 30
0.0
 10
14.9493807688
 20
7.7951923131
 30
0.0
 10
14.9433489502
 20
7.769531571
 30
0.0
 10
14.9371669209
 20
7.744381476
 30
0.0
 10
14.9308397998
 20
7.7197628089
 30
0.0
 10
14.9243728011
 20
7.6956959367
 30
0.0
 10
14.9177713415
 20
7.6722007543
 30
0.0
 10
14.9110408293
 20
7.6492966921
 30
0.0
 10
14.9041869141
 20
7.6270026746
 30
0.0
 10
14.8972152197
 20
7.6053371308
 30
0.0
 10
14.8901315711
 20
7.584317953
 30
0.0
 10
14.8829418216
 20
7.5639625012
 30
0.0
 10
14.8756519258
 20
7.5442875779
 30
0.0
 10
14.8682679598
 20
7.525309408
 30
0.0
 10
14.8607959835
 20
7.507043648
 30
0.0
 10
14.8532422607
 20
7.4895053269
 30
0.0
 10
14.8456129571
 20
7.4727088954
 30
0.0
 10
14.8379144594
 20
7.4566681349
 30
0.0
 10
14.8301530537
 20
7.4413962238
 30
0.0
 10
14.8223351704
 20
7.4269056549
 30
0.0
 10
14.8144672151
 20
7.4132082663
 30
0.0
 10
14.8065555898
 20
7.400315226
 30
0.0
 10
14.798606776
 20
7.3882369717
 30
0.0
 10
14.7906270857
 20
7.3769833134
 30
0.0
 10
14.782622971
 20
7.3665632589
 30
0.0
 10
14.774600595
 20
7.3569852364
 30
0.0
 10
14.7665662053
 20
7.3482568666
 30
0.0
 10
14.7585257407
 20
7.3403852293
 30
0.0
 10
14.7504850356
 20
7.3333767392
 30
0.0
 10
14.7424497634
 20
7.3272373421
 30
0.0
 10
14.7344251365
 20
7.3219726196
 30
0.0
 10
14.7264172297
 20
7.3175880248
 30
0.0
 10
14.7196914977
 20
7.3146413571
 30
0.0
 10
14.714339991
 20
7.3127478511
 30
0.0
 10
14.7103773384
 20
7.3115649419
 30
0.0
 10
14.7064248606
 20
7.3106049336
 30
0.0
 10
14.7024833485
 20
7.3098680177
 30
0.0
 10
14.6985537094
 20
7.3093544379
 30
0.0
 10
14.6946367835
 20
7.3090644347
 30
0.0
 10
14.6907336598
 20
7.3089980845
 30
0.0
 10
14.6881396365
 20
7.3091030401
 30
0.0
 10
14.6868475191
 20
7.3091926544
 30
0.0
  0
SPLINE
  5
334
100
AcDbEntity
  8
0
100
AcDbSpline
 62
7
  6
CONTINUOUS
 70
0
 71
3
 72
42
 73
38
 74
0
 42
0.0000001
 43
0.0000001
 44
0.0000000001
 40
0.0
 40
0.0
 40
0.0
 40
0.0
 40
0.029941955
 40
0.0449235146
 40
0.0599141798
 40
0.0899286634
 40
0.1200139157
 40
0.1350925878
 40
0.1501966212
 40
0.1653282758
 40
0.1804896539
 40
0.2109034651
 40
0.2414569083
 40
0.2721598983
 40
0.3030189436
 40
0.3340370534
 40
0.3652137254
 40
0.3965450095
 40
0.4280236423
 40
0.4596392473
 40
0.4913785906
 40
0.5232258876
 40
0.5551631515
 40
0.5871705795
 40
0.6192269638
 40
0.6513101206
 40
0.6833973347
 40
0.715465809
 40
0.7474931176
 40
0.7794576526
 40
0.8113390598
 40
0.8431186797
 40
0.8747798435
 40
0.9063085928
 40
0.9376928743
 40
0.9689257558
 40
1.0
 40
1.0
 40
1.0
 40
1.0
 10
8.296648228
 20
9.2618043913
 30
0.0
 10
8.2940602408
 20
9.2593045766
 30
0.0
 10
8.2900257464
 20
9.2557062874
 30
0.0
 10
8.2843754716
 20
9.2512416433
 30
0.0
 10
8.2785452901
 20
9.2469991263
 30
0.0
 10
8.2709378474
 20
9.242127359
 30
0.0
 10
8.2629604606
 20
9.2378659834
 30
0.0
 10
8.2563813284
 20
9.2348343581
 30
0.0
 10
8.2513489531
 20
9.2327501239
 30
0.0
 10
8.2462298646
 20
9.2308601351
 30
0.0
 10
8.2392917927
 20
9.2286006396
 30
0.0
 10
8.230433644
 20
9.2262749665
 30
0.0
 10
8.2195853097
 20
9.2243004846
 30
0.0
 10
8.208565017
 20
9.2231494317
 30
0.0
 10
8.1974338215
 20
9.2228281495
 30
0.0
 10
8.1862528322
 20
9.2233382122
 30
0.0
 10
8.1750835402
 20
9.2246766848
 30
0.0
 10
8.1639873049
 20
9.2268360761
 30
0.0
 10
8.1530250702
 20
9.2298044036
 30
0.0
 10
8.1422570221
 20
9.2335652581
 30
0.0
 10
8.1317422672
 20
9.238097897
 30
0.0
 10
8.1215385131
 20
9.2433773607
 30
0.0
 10
8.1117017488
 20
9.2493745958
 30
0.0
 10
8.1022859443
 20
9.2560566267
 30
0.0
 10
8.0933427604
 20
9.2633867383
 30
0.0
 10
8.0849212687
 20
9.2713246753
 30
0.0
 10
8.0770676868
 20
9.2798268613
 30
0.0
 10
8.0698251269
 20
9.2888466343
 30
0.0
 10
8.0632333624
 20
9.2983345003
 30
0.0
 10
8.0573286139
 20
9.3082384012
 30
0.0
 10
8.0521433298
 20
9.3185039906
 30
0.0
 10
8.0477060463
 20
9.3290749311
 30
0.0
 10
8.0440411568
 20
9.339893235
 30
0.0
 10
8.0411689657
 20
9.3508994292
 30
0.0
 10
8.0391051824
 20
9.3620334016
 30
0.0
 10
8.0378614991
 20
9.3732330779
 30
0.0
 10
8.0375828945
 20
9.3807234679
 30
0.0
 10
8.0375828945
 20
9.3844576958
 30
0.0
  0
SPLINE
  5
335
100
AcDbEntity
  8
0
100
AcDbSpline
 62
7
  6
CONTINUOUS
 70
0
 71
3
 72
42
 73
38
 74
0
 42
0.0000001
 43
0.0000001
 44
0.0000000001
 40
0.0
 40
0.0
 40
0.0
 40
0.0
 40
0.029941955
 40
0.0449235146
 40
0.0599141798
 40
0.0899286634
 40
0.1200139157
 40
0.1350925878
 40
0.1501966212
 40
0.1653282758
 40
0.1804896539
 40
0.2109034651
 40
0.2414569083
 40
0.2721598983
 40
0.3030189436
 40
0.3340370534
 40
0.3652137254
 40
0.3965450095
 40
0.4280236423
 40
0.4596392473
 40
0.4913785906
 40
0.5232258876
 40
0.5551631515
 40
0.5871705795
 40
0.6192269638
 40
0.6513101206
 40
0.6833973347
 40
0.715465809
 40
0.7474931176
 40
0.7794576526
 40
0.8113390598
 40
0.8431186797
 40
0.8747798435
 40
0.9063085928
 40
0.9376928743
 40
0.9689257558
 40
1.0
 40
1.0
 40
1.0
 40
1.0
 10
10.0469058488
 20
6.6637895799
 30
0.0
 10
10.0443178616
 20
6.6612897653
 30
0.0
 10
10.0402833672
 20
6.6576914761
 30
0.0
 10
10.0346330924
 20
6.653226832
 30
0.0
 10
10.0288029109
 20
6.6489843149
 30
0.0
 10
10.0211954682
 20
6.6441125477
 30
0.0
 10
10.0132180814
 20
6.639851172
 30
0.0
 10
10.0066389492
 20
6.6368195467
 30
0.0
 10
10.0016065739
 20
6.6347353126
 30
0.0
 10
9.9964874854
 20
6.6328453238
 30
0.0
 10
9.9895494135
 20
6.6305858283
 30
0.0
 10
9.9806912648
 20
6.6282601551
 30
0.0
 10
9.9698429305
 20
6.6262856732
 30
0.0
 10
9.9588226378
 20
6.6251346204
 30
0.0
 10
9.9476914423
 20
6.6248133382
 30
0.0
 10
9.936510453
 20
6.6253234009
 30
0.0
 10
9.925341161
 20
6.6266618735
 30
0.0
 10
9.9142449257
 20
6.6288212648
 30
0.0
 10
9.903282691
 20
6.6317895923
 30
0.0
 10
9.8925146429
 20
6.6355504468
 30
0.0
 10
9.881999888
 20
6.6400830857
 30
0.0
 10
9.8717961339
 20
6.6453625493
 30
0.0
 10
9.8619593696
 20
6.6513597845
 30
0.0
 10
9.8525435651
 20
6.6580418153
 30
0.0
 10
9.8436003812
 20
6.6653719269
 30
0.0
 10
9.8351788895
 20
6.673309864
 30
0.0
 10
9.8273253076
 20
6.6818120499
 30
0.0
 10
9.8200827477
 20
6.690831823
 30
0.0
 10
9.8134909832
 20
6.700319689
 30
0.0
 10
9.8075862347
 20
6.7102235898
 30
0.0
 10
9.8024009506
 20
6.7204891793
 30
0.0
 10
9.7979636671
 20
6.7310601198
 30
0.0
 10
9.7942987776
 20
6.7418784237
 30
0.0
 10
9.7914265865
 20
6.7528846179
 30
0.0
 10
9.7893628032
 20
6.7640185902
 30
0.0
 10
9.7881191199
 20
6.7752182665
 30
0.0
 10
9.7878405153
 20
6.7827086566
 30
0.0
 10
9.7878405153
 20
6.7864428844
 30
0.0
  0
SPLINE
  5
336
100
AcDbEntity
  8
0
100
AcDbSpline
 62
7
  6
CONTINUOUS
 70
0
 71
3
 72
23
 73
19
 74
0
 42
0.0000001
 43
0.0000001
 44
0.0000000001
 40
0.0
 40
0.0
 40
0.0
 40
0.0
 40
0.0637757517
 40
0.1273453038
 40
0.1907021142
 40
0.2538559682
 40
0.3168132565
 40
0.3795821027
 40
0.442173382
 40
0.5045993411
 40
0.5668738656
 40
0.6290123776
 40
0.6910316412
 40
0.7529496359
 40
0.8147853464
 40
0.8765585919
 40
0.9382898467
 40
1.0
 40
1.0
 40
1.0
 40
1.0
 10
7.2377962979
 20
6.9941987425
 30
0.0
 10
7.2377962979
 20
6.998765591
 30
0.0
 10
7.2380149343
 20
7.0078860686
 30
0.0
 10
7.2390014986
 20
7.0215112734
 30
0.0
 10
7.2406442327
 20
7.0350285421
 30
0.0
 10
7.2429392057
 20
7.0484059552
 30
0.0
 10
7.2458811609
 20
7.0616130692
 30
0.0
 10
7.2494633696
 20
7.0746193525
 30
0.0
 10
7.2536776504
 20
7.0873947847
 30
0.0
 10
7.2585142577
 20
7.0999099397
 30
0.0
 10
7.2639620484
 20
7.112135962
 30
0.0
 10
7.2700085685
 20
7.1240446107
 30
0.0
 10
7.276639831
 20
7.135608441
 30
0.0
 10
7.2838405428
 20
7.1468008009
 30
0.0
 10
7.2915941674
 20
7.157595792
 30
0.0
 10
7.2998828719
 20
7.167968622
 30
0.0
 10
7.3086871735
 20
7.1778950811
 30
0.0
 10
7.314888161
 20
7.1842009523
 30
0.0
 10
7.3180665099
 20
7.1872709829
 30
0.0
  0
SPLINE
  5
337
100
AcDbEntity
  8
0
100
AcDbSpline
 62
7
  6
CONTINUOUS
 70
0
 71
3
 72
48
 73
44
 74
0
 42
0.0000001
 43
0.0000001
 44
0.0000000001
 40
0.0
 40
0.0
 40
0.0
 40
0.0
 40
0.0378126882
 40
0.0760192244
 40
0.1145316533
 40
0.1532646684
 40
0.192130348
 40
0.2310410943
 40
0.2699090056
 40
0.308646322
 40
0.3471656717
 40
0.3853802996
 40
0.4232043291
 40
0.4605530172
 40
0.4973430216
 40
0.5334926543
 40
0.5689221418
 40
0.6035538949
 40
0.6373127924
 40
0.6701264944
 40
0.7019257413
 40
0.7326446802
 40
0.7622212296
 40
0.7905974914
 40
0.8177202481
 40
0.8307966625
 40
0.8435421432
 40
0.8559516828
 40
0.8680205675
 40
0.8797446449
 40
0.8911201969
 40
0.9021440081
 40
0.9128135267
 40
0.9231267006
 40
0.9330823085
 40
0.9426798206
 40
0.9519195346
 40
0.9608027361
 40
0.969331691
 40
0.9775101852
 40
0.9853433287
 40
0.9928373926
 40
1.0
 40
1.0
 40
1.0
 40
1.0
 10
14.2786109508
 20
8.5827303791
 30
0.0
 10
14.2786109508
 20
8.5936689706
 30
0.0
 10
14.2787563475
 20
8.6156603407
 30
0.0
 10
14.279400741
 20
8.6487870515
 30
0.0
 10
14.2804712897
 20
8.6821691421
 30
0.0
 10
14.2819653357
 20
8.7157257992
 30
0.0
 10
14.2838793591
 20
8.7493765322
 30
0.0
 10
14.286208733
 20
8.7830401794
 30
0.0
 10
14.2889478556
 20
8.8166357126
 30
0.0
 10
14.2920901185
 20
8.8500822265
 30
0.0
 10
14.2956279426
 20
8.8832991831
 30
0.0
 10
14.2995527939
 20
8.9162066001
 30
0.0
 10
14.3038552037
 20
8.9487252402
 30
0.0
 10
14.3085247862
 20
8.980776809
 30
0.0
 10
14.3135502555
 20
9.0122841471
 30
0.0
 10
14.3189194673
 20
9.0431714149
 30
0.0
 10
14.3246194445
 20
9.0733642733
 30
0.0
 10
14.3306364082
 20
9.1027900634
 30
0.0
 10
14.3369558118
 20
9.1313779905
 30
0.0
 10
14.3435623593
 20
9.1590593036
 30
0.0
 10
14.3504400579
 20
9.1857674684
 30
0.0
 10
14.3575722561
 20
9.2114383079
 30
0.0
 10
14.3649416828
 20
9.2360102338
 30
0.0
 10
14.3725304975
 20
9.2594241626
 30
0.0
 10
14.3790994647
 20
9.2781452193
 30
0.0
 10
14.3844596189
 20
9.2924931071
 30
0.0
 10
14.3884741557
 20
9.3027989132
 30
0.0
 10
14.3925295974
 20
9.3127747668
 30
0.0
 10
14.3966236017
 20
9.3224146717
 30
0.0
 10
14.4007536463
 20
9.3317128551
 30
0.0
 10
14.4049172522
 20
9.3406637446
 30
0.0
 10
14.409111959
 20
9.3492619633
 30
0.0
 10
14.4133351643
 20
9.357502393
 30
0.0
 10
14.4175844259
 20
9.3653800799
 30
0.0
 10
14.4218571353
 20
9.3728903539
 30
0.0
 10
14.4261507713
 20
9.3800287356
 30
0.0
 10
14.4304628023
 20
9.3867909537
 30
0.0
 10
14.4347905688
 20
9.3931730245
 30
0.0
 10
14.4391316389
 20
9.399171144
 30
0.0
 10
14.4434834551
 20
9.4047818677
 30
0.0
 10
14.4478436291
 20
9.4100019073
 30
0.0
 10
14.4522093514
 20
9.4148278838
 30
0.0
 10
14.4551879934
 20
9.4178477228
 30
0.0
 10
14.4566783069
 20
9.4192872552
 30
0.0
  0
SPLINE
  5
338
100
AcDbEntity
  8
0
100
AcDbSpline
 62
7
  6
CONTINUOUS
 70
0
 71
3
 72
23
 73
19
 74
0
 42
0.0000001
 43
0.0000001
 44
0.0000000001
 40
0.0
 40
0.0
 40
0.0
 40
0.0
 40
0.0612097696
 40
0.1226734192
 40
0.1843757123
 40
0.2463087193
 40
0.3084550546
 40
0.3707963188
 40
0.4333118247
 40
0.4959791623
 40
0.5587748572
 40
0.6216751146
 40
0.6846564587
 40
0.747695656
 40
0.8107701168
 40
0.8738588521
 40
0.9369418173
 40
1.0
 40
1.0
 40
1.0
 40
1.0
 10
9.0633961606
 20
7.5414791203
 30
0.0
 10
9.0675743737
 20
7.5411893602
 30
0.0
 10
9.0759327341
 20
7.5403559018
 30
0.0
 10
9.0883964149
 20
7.5383577938
 30
0.0
 10
9.1007695976
 20
7.5356192707
 30
0.0
 10
9.113007954
 20
7.5321558068
 30
0.0
 10
9.1250702147
 20
7.5279863797
 30
0.0
 10
9.1369171182
 20
7.5231339985
 30
0.0
 10
9.1485123778
 20
7.5176247072
 30
0.0
 10
9.1598227097
 20
7.5114870048
 30
0.0
 10
9.1708180022
 20
7.5047512707
 30
0.0
 10
9.1814714384
 20
7.4974492991
 30
0.0
 10
9.1917594191
 20
7.4896137303
 30
0.0
 10
9.2016613484
 20
7.481277491
 30
0.0
 10
9.2111594915
 20
7.4724734989
 30
0.0
 10
9.2202389307
 20
7.4632343125
 30
0.0
 10
9.2288868353
 20
7.4535921184
 30
0.0
 10
9.2343594838
 20
7.446913505
 30
0.0
 10
9.2370206696
 20
7.4435171916
 30
0.0
  0
SPLINE
  5
339
100
AcDbEntity
  8
0
100
AcDbSpline
 62
7
  6
CONTINUOUS
 70
0
 71
3
 72
50
 73
46
 74
0
 42
0.0000001
 43
0.0000001
 44
0.0000000001
 40
0.0
 40
0.0
 40
0.0
 40
0.0
 40
0.0378126499
 40
0.0760191474
 40
0.1145315372
 40
0.1532645131
 40
0.1921301534
 40
0.2310408602
 40
0.2699087322
 40
0.3086460094
 40
0.3471653201
 40
0.3853799093
 40
0.4232039004
 40
0.4605525506
 40
0.4973425179
 40
0.5334921139
 40
0.5689215656
 40
0.6035532836
 40
0.6373121468
 40
0.6701258156
 40
0.7019250303
 40
0.7326439381
 40
0.7622204575
 40
0.7765622631
 40
0.7905971627
 40
0.8043186005
 40
0.8177204327
 40
0.8307968339
 40
0.8435423017
 40
0.8559518287
 40
0.8680207011
 40
0.8797447667
 40
0.8911203072
 40
0.9021441073
 40
0.9128136151
 40
0.9231267785
 40
0.9330823763
 40
0.9426798787
 40
0.9519195833
 40
0.9608027758
 40
0.969331722
 40
0.977510208
 40
0.9853433435
 40
0.9928373999
 40
1.0
 40
1.0
 40
1.0
 40
1.0
 10
14.2026767785
 20
8.5713835966
 30
0.0
 10
14.2026767785
 20
8.5833079333
 30
0.0
 10
14.2028352778
 20
8.6072810838
 30
0.0
 10
14.2035377417
 20
8.6433930506
 30
0.0
 10
14.2047047642
 20
8.6797834109
 30
0.0
 10
14.206333448
 20
8.7163640691
 30
0.0
 10
14.2084199561
 20
8.7530472809
 30
0.0
 10
14.2109592446
 20
8.7897445707
 30
0.0
 10
14.2139452066
 20
8.8263676084
 30
0.0
 10
14.2173706386
 20
8.8628281977
 30
0.0
 10
14.2212272782
 20
8.8990385428
 30
0.0
 10
14.2255058225
 20
8.9349114538
 30
0.0
 10
14.2301959495
 20
8.9703605527
 30
0.0
 10
14.2352863374
 20
9.0053004896
 30
0.0
 10
14.2407646833
 20
9.0396471518
 30
0.0
 10
14.2466177485
 20
9.0733178653
 30
0.0
 10
14.2528313865
 20
9.1062315918
 30
0.0
 10
14.2593905766
 20
9.1383091242
 30
0.0
 10
14.2662794611
 20
9.1694732904
 30
0.0
 10
14.2734813667
 20
9.1996491352
 30
0.0
 10
14.2809788555
 20
9.2287641592
 30
0.0
 10
14.2887537896
 20
9.2567482929
 30
0.0
 10
14.2955157957
 20
9.2792951753
 30
0.0
 10
14.301057984
 20
9.29671065
 30
0.0
 10
14.3052295254
 20
9.3093143399
 30
0.0
 10
14.3094561148
 20
9.3215865894
 30
0.0
 10
14.3137351879
 20
9.3335200353
 30
0.0
 10
14.3180641481
 20
9.3451075057
 30
0.0
 10
14.3224404431
 20
9.3563420263
 30
0.0
 10
14.3268613505
 20
9.3672168684
 30
0.0
 10
14.3313242902
 20
9.3777254853
 30
0.0
 10
14.3358265192
 20
9.3878615864
 30
0.0
 10
14.3403653338
 20
9.3976190968
 30
0.0
 10
14.3449380519
 20
9.406992155
 30
0.0
 10
14.3495418368
 20
9.4159751815
 30
0.0
 10
14.354174026
 20
9.4245627763
 30
0.0
 10
14.3588317761
 20
9.4327498482
 30
0.0
 10
14.3635123387
 20
9.4405315143
 30
0.0
 10
14.3682129537
 20
9.4479031184
 30
0.0
 10
14.3729307225
 20
9.4548603176
 30
0.0
 10
14.3776629937
 20
9.4613989654
 30
0.0
 10
14.3824069794
 20
9.4675153066
 30
0.0
 10
14.387160076
 20
9.4732057568
 30
0.0
 10
14.391919221
 20
9.4784666322
 30
0.0
 10
14.3951662872
 20
9.4817586079
 30
0.0
 10
14.3967909021
 20
9.4833278656
 30
0.0
  0
SPLINE
  5
33A
100
AcDbEntity
  8
0
100
AcDbSpline
 62
7
  6
CONTINUOUS
 70
0
 71
3
 72
29
 73
25
 74
0
 42
0.0000001
 43
0.0000001
 44
0.0000000001
 40
0.0
 40
0.0
 40
0.0
 40
0.0
 40
0.0755836755
 40
0.1466143562
 40
0.2134286572
 40
0.2764666867
 40
0.3362686904
 40
0.3651658039
 40
0.3935045519
 40
0.4213816903
 40
0.4488992609
 40
0.4761636692
 40
0.503284649
 40
0.5303738152
 40
0.5575431712
 40
0.5849037119
 40
0.6125638739
 40
0.6406282505
 40
0.6691966684
 40
0.7281925824
 40
0.7902529585
 40
0.8559465767
 40
0.925738346
 40
1.0
 40
1.0
 40
1.0
 40
1.0
 10
14.9318696816
 20
9.8782869036
 30
0.0
 10
14.9337818357
 20
9.8801339027
 30
0.0
 10
14.9376036102
 20
9.883603134
 30
0.0
 10
14.9435181397
 20
9.8882377924
 30
0.0
 10
14.9494258893
 20
9.8921302793
 30
0.0
 10
14.955320745
 20
9.8952745706
 30
0.0
 10
14.9602755874
 20
9.8972895385
 30
0.0
 10
14.9642109752
 20
9.8985044881
 30
0.0
 10
14.9671208599
 20
9.8992159435
 30
0.0
 10
14.9700214258
 20
9.8997375849
 30
0.0
 10
14.9729118701
 20
9.900069219
 30
0.0
 10
14.9757912659
 20
9.9002106003
 30
0.0
 10
14.9786586778
 20
9.9001616265
 30
0.0
 10
14.9815131602
 20
9.8999223529
 30
0.0
 10
14.984353775
 20
9.899492856
 30
0.0
 10
14.9871795852
 20
9.8988732357
 30
0.0
 10
14.9899896753
 20
9.8980638192
 30
0.0
 10
14.9927832683
 20
9.8970649198
 30
0.0
 10
14.996524342
 20
9.8954641536
 30
0.0
 10
15.0011705838
 20
9.8929664125
 30
0.0
 10
15.0066001331
 20
9.8892504843
 30
0.0
 10
15.0119402091
 20
9.884789984
 30
0.0
 10
15.0171858813
 20
9.8795917992
 30
0.0
 10
15.0205105087
 20
9.8757617568
 30
0.0
 10
15.022158605
 20
9.8737353218
 30
0.0
  0
SPLINE
  5
33B
100
AcDbEntity
  8
0
100
AcDbSpline
 62
7
  6
CONTINUOUS
 70
0
 71
3
 72
18
 73
14
 74
0
 42
0.0000001
 43
0.0000001
 44
0.0000000001
 40
0.0
 40
0.0
 40
0.0
 40
0.0
 40
0.1504645181
 40
0.2917101655
 40
0.4244370866
 40
0.5495623595
 40
0.6682137793
 40
0.7255498063
 40
0.7817912969
 40
0.8371402695
 40
0.8918094031
 40
0.9460200802
 40
1.0
 40
1.0
 40
1.0
 40
1.0
 10
14.8719822768
 20
9.942327514
 30
0.0
 10
14.8741025654
 20
9.9443755556
 30
0.0
 10
14.8783402488
 20
9.9482182576
 30
0.0
 10
14.8849022007
 20
9.9533394175
 30
0.0
 10
14.8914565361
 20
9.9576224463
 30
0.0
 10
14.8979963103
 20
9.9610603559
 30
0.0
 10
14.9034929137
 20
9.9632403319
 30
0.0
 10
14.9078569698
 20
9.9645356093
 30
0.0
 10
14.9110835523
 20
9.9652821024
 30
0.0
 10
14.9142994078
 20
9.9658141889
 30
0.0
 10
14.9175036581
 20
9.9661316412
 30
0.0
 10
14.9206950322
 20
9.9662341927
 30
0.0
 10
14.9228152854
 20
9.9661591757
 30
0.0
 10
14.9238703246
 20
9.9660860078
 30
0.0
  0
SPLINE
  5
33C
100
AcDbEntity
  8
0
100
AcDbSpline
 62
7
  6
CONTINUOUS
 70
0
 71
3
 72
23
 73
19
 74
0
 42
0.0000001
 43
0.0000001
 44
0.0000000001
 40
0.0
 40
0.0
 40
0.0
 40
0.0
 40
0.0637757517
 40
0.1273453038
 40
0.1907021142
 40
0.2538559682
 40
0.3168132565
 40
0.3795821027
 40
0.442173382
 40
0.5045993411
 40
0.5668738656
 40
0.6290123776
 40
0.6910316412
 40
0.7529496359
 40
0.8147853464
 40
0.8765585919
 40
0.9382898467
 40
1.0
 40
1.0
 40
1.0
 40
1.0
 10
8.7774821388
 20
8.9100699493
 30
0.0
 10
8.7774821388
 20
8.9146367979
 30
0.0
 10
8.7777007751
 20
8.9237572755
 30
0.0
 10
8.7786873394
 20
8.9373824803
 30
0.0
 10
8.7803300735
 20
8.950899749
 30
0.0
 10
8.7826250466
 20
8.964277162
 30
0.0
 10
8.7855670017
 20
8.9774842761
 30
0.0
 10
8.7891492104
 20
8.9904905593
 30
0.0
 10
8.7933634912
 20
9.0032659916
 30
0.0
 10
8.7982000985
 20
9.0157811465
 30
0.0
 10
8.8036478892
 20
9.0280071689
 30
0.0
 10
8.8096944094
 20
9.0399158176
 30
0.0
 10
8.8163256718
 20
9.0514796479
 30
0.0
 10
8.8235263836
 20
9.0626720078
 30
0.0
 10
8.8312800082
 20
9.0734669989
 30
0.0
 10
8.8395687127
 20
9.0838398289
 30
0.0
 10
8.8483730144
 20
9.0937662879
 30
0.0
 10
8.8545740019
 20
9.1000721592
 30
0.0
 10
8.8577523508
 20
9.1031421898
 30
0.0
  0
SPLINE
  5
33D
100
AcDbEntity
  8
0
100
AcDbSpline
 62
7
  6
CONTINUOUS
 70
0
 71
3
 72
54
 73
50
 74
0
 42
0.0000001
 43
0.0000001
 44
0.0000000001
 40
0.0
 40
0.0
 40
0.0
 40
0.0
 40
0.006315801
 40
0.0126705149
 40
0.0191022706
 40
0.0256477484
 40
0.032341551
 40
0.0392158204
 40
0.0462999708
 40
0.0536205126
 40
0.0612011682
 40
0.0690628433
 40
0.0772238661
 40
0.0857001864
 40
0.0945054776
 40
0.1036515094
 40
0.1131481904
 40
0.1230038358
 40
0.1332253738
 40
0.1438183509
 40
0.1547872622
 40
0.166135509
 40
0.1778655635
 40
0.1899791306
 40
0.2024770524
 40
0.2153595812
 40
0.2286262965
 40
0.2422761845
 40
0.2563077875
 40
0.270719054
 40
0.2855075702
 40
0.3006704762
 40
0.3321053637
 40
0.3649942371
 40
0.3993017004
 40
0.4349877593
 40
0.4720082649
 40
0.510315332
 40
0.5498576721
 40
0.59058088
 40
0.6324276692
 40
0.6753381043
 40
0.7192498515
 40
0.7640983387
 40
0.8098169819
 40
0.8563374463
 40
0.9035890453
 40
0.9515016569
 40
1.0
 40
1.0
 40
1.0
 40
1.0
 10
14.8362862568
 20
9.4640170021
 30
0.0
 10
14.8381116559
 20
9.4638904024
 30
0.0
 10
14.8417650725
 20
9.4634869899
 30
0.0
 10
14.8472042464
 20
9.4624355008
 30
0.0
 10
14.8526070748
 20
9.4609377887
 30
0.0
 10
14.8579703998
 20
9.458994825
 30
0.0
 10
14.8632919447
 20
9.4566080507
 30
0.0
 10
14.8685694097
 20
9.4537789435
 30
0.0
 10
14.8738006611
 20
9.4505090886
 30
0.0
 10
14.8789837818
 20
9.446800323
 30
0.0
 10
14.8841167755
 20
9.442654357
 30
0.0
 10
14.8891978265
 20
9.4380731752
 30
0.0
 10
14.8942250809
 20
9.4330587799
 30
0.0
 10
14.8991966336
 20
9.42761326
 30
0.0
 10
14.9041107238
 20
9.4217389517
 30
0.0
 10
14.9089654075
 20
9.4154382
 30
0.0
 10
14.913758872
 20
9.4087136084
 30
0.0
 10
14.9184892678
 20
9.4015679074
 30
0.0
 10
14.9231546706
 20
9.3940039599
 30
0.0
 10
14.9277533196
 20
9.3860248775
 30
0.0
 10
14.9322832999
 20
9.3776338628
 30
0.0
 10
14.9367428186
 20
9.3688343436
 30
0.0
 10
14.9411300944
 20
9.359629909
 30
0.0
 10
14.945443274
 20
9.3500242898
 30
0.0
 10
14.9496806784
 20
9.3400214363
 30
0.0
 10
14.9538405132
 20
9.3296254212
 30
0.0
 10
14.9579210867
 20
9.3188405078
 30
0.0
 10
14.9619207551
 20
9.3076711239
 30
0.0
 10
14.9658378057
 20
9.2961218365
 30
0.0
 10
14.9696706889
 20
9.2841974077
 30
0.0
 10
14.9734178047
 20
9.2719027133
 30
0.0
 10
14.9783568758
 20
9.2548172188
 30
0.0
 10
14.9842912253
 20
9.2325634509
 30
0.0
 10
14.9909636804
 20
9.204775757
 30
0.0
 10
14.9972590703
 20
9.1756390843
 30
0.0
 10
15.0031669212
 20
9.1452014194
 30
0.0
 10
15.0086773991
 20
9.1135127219
 30
0.0
 10
15.0137813243
 20
9.0806251275
 30
0.0
 10
15.0184701903
 20
9.0465927572
 30
0.0
 10
15.0227361749
 20
9.0114716527
 30
0.0
 10
15.0265721684
 20
8.9753196802
 30
0.0
 10
15.0299717866
 20
8.9381964281
 30
0.0
 10
15.0329293615
 20
8.9001631033
 30
0.0
 10
15.0354399614
 20
8.8612824194
 30
0.0
 10
15.0374993951
 20
8.8216184654
 30
0.0
 10
15.0391042058
 20
8.7812367949
 30
0.0
 10
15.0402517721
 20
8.7402036966
 30
0.0
 10
15.0409400829
 20
8.6985873128
 30
0.0
 10
15.041091226
 20
8.6706553318
 30
0.0
 10
15.041091226
 20
8.6566046214
 30
0.0
  0
SPLINE
  5
33E
100
AcDbEntity
  8
0
100
AcDbSpline
 62
7
  6
CONTINUOUS
 70
0
 71
3
 72
51
 73
47
 74
0
 42
0.0000001
 43
0.0000001
 44
0.0000000001
 40
0.0
 40
0.0
 40
0.0
 40
0.0
 40
0.0066031231
 40
0.0133977886
 40
0.0204042286
 40
0.0276405593
 40
0.0351229628
 40
0.0428657775
 40
0.050881535
 40
0.0591812365
 40
0.0677744129
 40
0.0766692117
 40
0.0858726633
 40
0.0953906663
 40
0.1052281124
 40
0.1153890941
 40
0.1258768253
 40
0.1366938054
 40
0.1478419484
 40
0.1593224716
 40
0.1711360932
 40
0.1832830752
 40
0.1957631225
 40
0.2085755916
 40
0.2217194546
 40
0.2351932421
 40
0.2631227236
 40
0.2923470449
 40
0.3228440776
 40
0.3545877509
 40
0.3875484067
 40
0.4216932308
 40
0.456986533
 40
0.4933899101
 40
0.530862514
 40
0.5693612802
 40
0.6088410433
 40
0.6492546683
 40
0.6905532749
 40
0.7326863409
 40
0.775601739
 40
0.819246095
 40
0.8635645632
 40
0.9085008103
 40
0.9539996986
 40
1.0
 40
1.0
 40
1.0
 40
1.0
 10
14.8059255106
 20
9.4593903981
 30
0.0
 10
14.807552675
 20
9.4585212725
 30
0.0
 10
14.8107989788
 20
9.4566525521
 30
0.0
 10
14.8155644784
 20
9.453519137
 30
0.0
 10
14.8202896205
 20
9.4500191469
 30
0.0
 10
14.8249727205
 20
9.4461541849
 30
0.0
 10
14.8296123808
 20
9.4419256329
 30
0.0
 10
14.8342070889
 20
9.4373349941
 30
0.0
 10
14.8387554836
 20
9.4323839578
 30
0.0
 10
14.8432560792
 20
9.4270742022
 30
0.0
 10
14.8477074187
 20
9.4214075441
 30
0.0
 10
14.8521081265
 20
9.4153859636
 30
0.0
 10
14.8564567022
 20
9.4090114661
 30
0.0
 10
14.8607517256
 20
9.4022862305
 30
0.0
 10
14.8649918133
 20
9.3952125648
 30
0.0
 10
14.8691754772
 20
9.3877928363
 30
0.0
 10
14.8733013486
 20
9.380029593
 30
0.0
 10
14.8773680512
 20
9.3719254865
 30
0.0
 10
14.8813741401
 20
9.3634832537
 30
0.0
 10
14.8853183065
 20
9.3547058032
 30
0.0
 10
14.8891991968
 20
9.3455961323
 30
0.0
 10
14.8930154338
 20
9.3361573427
 30
0.0
 10
14.8967657706
 20
9.326392689
 30
0.0
 10
14.9004488854
 20
9.3163055134
 30
0.0
 10
14.9040635096
 20
9.3058992573
 30
0.0
 10
14.9088473581
 20
9.2914301099
 30
0.0
 10
14.9146349549
 20
9.2725637217
 30
0.0
 10
14.9212070503
 20
9.248972363
 30
0.0
 10
14.9274774894
 20
9.2241984958
 30
0.0
 10
14.9334375673
 20
9.1982762061
 30
0.0
 10
14.9390790324
 20
9.1712410042
 30
0.0
 10
14.9443940437
 20
9.1431300257
 30
0.0
 10
14.9493751878
 20
9.1139818955
 30
0.0
 10
14.9540155541
 20
9.0838367116
 30
0.0
 10
14.958308701
 20
9.0527359667
 30
0.0
 10
14.9622486431
 20
9.0207224764
 30
0.0
 10
14.965829893
 20
8.9878403338
 30
0.0
 10
14.9690474924
 20
8.9541348469
 30
0.0
 10
14.9718969622
 20
8.9196524609
 30
0.0
 10
14.9743743165
 20
8.8844407063
 30
0.0
 10
14.9764761318
 20
8.8485481044
 30
0.0
 10
14.9781994795
 20
8.8120241465
 30
0.0
 10
14.9795419417
 20
8.7749192975
 30
0.0
 10
14.9805016829
 20
8.7372843194
 30
0.0
 10
14.9810772898
 20
8.699171658
 30
0.0
 10
14.9812038222
 20
8.6736090663
 30
0.0
 10
14.9812038222
 20
8.660757827
 30
0.0
  0
SPLINE
  5
33F
100
AcDbEntity
  8
0
100
AcDbSpline
 62
7
  6
CONTINUOUS
 70
0
 71
3
 72
23
 73
19
 74
0
 42
0.0000001
 43
0.0000001
 44
0.0000000001
 40
0.0
 40
0.0
 40
0.0
 40
0.0
 40
0.0637757517
 40
0.1273453038
 40
0.1907021142
 40
0.2538559682
 40
0.3168132565
 40
0.3795821027
 40
0.442173382
 40
0.5045993411
 40
0.5668738656
 40
0.6290123776
 40
0.6910316412
 40
0.7529496359
 40
0.8147853464
 40
0.8765585919
 40
0.9382898467
 40
1.0
 40
1.0
 40
1.0
 40
1.0
 10
7.2377962979
 20
9.4090134513
 30
0.0
 10
7.2377962979
 20
9.4135802998
 30
0.0
 10
7.2380149343
 20
9.4227007774
 30
0.0
 10
7.2390014986
 20
9.4363259822
 30
0.0
 10
7.2406442327
 20
9.4498432509
 30
0.0
 10
7.2429392057
 20
9.463220664
 30
0.0
 10
7.2458811609
 20
9.476427778
 30
0.0
 10
7.2494633696
 20
9.4894340613
 30
0.0
 10
7.2536776504
 20
9.5022094936
 30
0.0
 10
7.2585142577
 20
9.5147246485
 30
0.0
 10
7.2639620484
 20
9.5269506708
 30
0.0
 10
7.2700085685
 20
9.5388593195
 30
0.0
 10
7.276639831
 20
9.5504231498
 30
0.0
 10
7.2838405428
 20
9.5616155097
 30
0.0
 10
7.2915941674
 20
9.5724105008
 30
0.0
 10
7.2998828719
 20
9.5827833308
 30
0.0
 10
7.3086871735
 20
9.5927097899
 30
0.0
 10
7.314888161
 20
9.5990156611
 30
0.0
 10
7.3180665099
 20
9.6020856917
 30
0.0
  0
SPLINE
  5
340
100
AcDbEntity
  8
0
100
AcDbSpline
 62
7
  6
CONTINUOUS
 70
0
 71
3
 72
55
 73
51
 74
0
 42
0.0000001
 43
0.0000001
 44
0.0000000001
 40
0.0
 40
0.0
 40
0.0
 40
0.0
 40
0.0063080587
 40
0.0126630692
 40
0.0191025654
 40
0.0256625142
 40
0.0323767514
 40
0.0392765765
 40
0.0463906003
 40
0.0537445427
 40
0.0613613466
 40
0.0692612841
 40
0.0774620166
 40
0.0859789493
 40
0.0948252995
 40
0.1040123355
 40
0.1135496692
 40
0.1234452471
 40
0.1337056932
 40
0.1443363895
 40
0.1553415233
 40
0.1667243899
 40
0.1784872979
 40
0.1906317561
 40
0.2031586072
 40
0.2160679092
 40
0.2293592055
 40
0.2430314551
 40
0.2570830481
 40
0.2715120078
 40
0.2863158145
 40
0.3014915823
 40
0.3170360878
 40
0.3329456491
 40
0.3658433383
 40
0.4001499429
 40
0.4358256069
 40
0.4728264296
 40
0.5111048011
 40
0.5506097345
 40
0.5912871879
 40
0.6330803108
 40
0.6759296413
 40
0.719773324
 40
0.7645472879
 40
0.8101855444
 40
0.8566202996
 40
0.9037814308
 40
0.9515997304
 40
1.0
 40
1.0
 40
1.0
 40
1.0
 10
14.7757662802
 20
9.4421412014
 30
0.0
 10
14.7775406311
 20
9.4419864428
 30
0.0
 10
14.7810915672
 20
9.4415308672
 30
0.0
 10
14.7863741663
 20
9.4404155277
 30
0.0
 10
14.7916209872
 20
9.4388678869
 30
0.0
 10
14.7968290399
 20
9.436888983
 30
0.0
 10
14.8019961184
 20
9.434480136
 30
0.0
 10
14.8071200922
 20
9.4316429195
 30
0.0
 10
14.8121988859
 20
9.428378801
 30
0.0
 10
14.8172306527
 20
9.4246895714
 30
0.0
 10
14.8222135462
 20
9.4205769788
 30
0.0
 10
14.8271457054
 20
9.4160428333
 30
0.0
 10
14.8320254322
 20
9.411089189
 30
0.0
 10
14.8368508604
 20
9.4057180529
 30
0.0
 10
14.8416202243
 20
9.3999316659
 30
0.0
 10
14.8463317722
 20
9.3937324074
 30
0.0
 10
14.850983615
 20
9.3871227248
 30
0.0
 10
14.8555740416
 20
9.3801053376
 30
0.0
 10
14.8601012205
 20
9.3726830462
 30
0.0
 10
14.8645633347
 20
9.3648588284
 30
0.0
 10
14.8689586866
 20
9.3566358741
 30
0.0
 10
14.8732854335
 20
9.3480174678
 30
0.0
 10
14.8775418786
 20
9.3390071172
 30
0.0
 10
14.8817263181
 20
9.3296084762
 30
0.0
 10
14.8858369865
 20
9.3198253364
 30
0.0
 10
14.8898722917
 20
9.3096616986
 30
0.0
 10
14.8938305402
 20
9.2991216825
 30
0.0
 10
14.8977101101
 20
9.2882095804
 30
0.0
 10
14.9015094686
 20
9.2769298511
 30
0.0
 10
14.9052269874
 20
9.2652870799
 30
0.0
 10
14.9088611972
 20
9.2532860302
 30
0.0
 10
14.9124105983
 20
9.2409316047
 30
0.0
 10
14.9158737123
 20
9.2282288309
 30
0.0
 10
14.9204250593
 20
9.2106378719
 30
0.0
 10
14.9258761066
 20
9.1878099409
 30
0.0
 10
14.9319806532
 20
9.1594081049
 30
0.0
 10
14.9377090848
 20
9.1297473568
 30
0.0
 10
14.9430519319
 20
9.0988762428
 30
0.0
 10
14.9480003492
 20
9.0668451485
 30
0.0
 10
14.9525461606
 20
9.0337064569
 30
0.0
 10
14.9566818414
 20
8.9995143691
 30
0.0
 10
14.9604005371
 20
8.9643248316
 30
0.0
 10
14.9636960891
 20
8.928195445
 30
0.0
 10
14.9665630527
 20
8.8911853797
 30
0.0
 10
14.9689966857
 20
8.8533552453
 30
0.0
 10
14.9709929494
 20
8.814766979
 30
0.0
 10
14.9725485069
 20
8.7754839319
 30
0.0
 10
14.9736608469
 20
8.7355700861
 30
0.0
 10
14.9743280204
 20
8.6950913615
 30
0.0
 10
14.9744745326
 20
8.6679236994
 30
0.0
 10
14.9744745326
 20
8.6542578319
 30
0.0
  0
SPLINE
  5
341
100
AcDbEntity
  8
0
100
AcDbSpline
 62
7
  6
CONTINUOUS
 70
0
 71
3
 72
53
 73
49
 74
0
 42
0.0000001
 43
0.0000001
 44
0.0000000001
 40
0.0
 40
0.0
 40
0.0
 40
0.0
 40
0.0063477567
 40
0.0128272677
 40
0.0194675767
 40
0.0262954753
 40
0.0333353477
 40
0.0406090953
 40
0.0481363072
 40
0.0559342616
 40
0.0640180952
 40
0.0724010609
 40
0.0810945355
 40
0.0901083077
 40
0.0994507489
 40
0.1091288134
 40
0.1191483531
 40
0.1295141465
 40
0.1402299449
 40
0.1512987387
 40
0.1627226704
 40
0.1745031635
 40
0.1866410889
 40
0.1991366257
 40
0.2119894662
 40
0.2251988557
 40
0.2387634815
 40
0.2526817029
 40
0.2669514733
 40
0.2815703196
 40
0.3118433939
 40
0.3434758057
 40
0.3764372611
 40
0.4106934664
 40
0.4462064491
 40
0.4829349393
 40
0.5208346904
 40
0.5598586957
 40
0.5999573607
 40
0.6410787645
 40
0.683168855
 40
0.7261715734
 40
0.770028955
 40
0.8146815042
 40
0.860068081
 40
0.9061256487
 40
0.9527923329
 40
1.0
 40
1.0
 40
1.0
 40
1.0
 10
14.7527854165
 20
9.4209635669
 30
0.0
 10
14.754437045
 20
9.4204583991
 30
0.0
 10
14.7577376248
 20
9.4193125542
 30
0.0
 10
14.7626086147
 20
9.4172211552
 30
0.0
 10
14.7674420494
 20
9.4147431723
 30
0.0
 10
14.7722357452
 20
9.4118799568
 30
0.0
 10
14.7769880804
 20
9.4086328421
 30
0.0
 10
14.7816974637
 20
9.4050033952
 30
0.0
 10
14.7863622473
 20
9.400993074
 30
0.0
 10
14.7909808785
 20
9.3966035404
 30
0.0
 10
14.795551843
 20
9.3918365525
 30
0.0
 10
14.8000734997
 20
9.3866938656
 30
0.0
 10
14.804544352
 20
9.3811774769
 30
0.0
 10
14.8089628367
 20
9.3752894405
 30
0.0
 10
14.8133273285
 20
9.3690319063
 30
0.0
 10
14.8176363473
 20
9.3624072464
 30
0.0
 10
14.8218882931
 20
9.3554178877
 30
0.0
 10
14.8260815987
 20
9.3480664151
 30
0.0
 10
14.8302147933
 20
9.3403555886
 30
0.0
 10
14.8342862845
 20
9.3322882422
 30
0.0
 10
14.8382945897
 20
9.3238673928
 30
0.0
 10
14.8422382519
 20
9.3150961901
 30
0.0
 10
14.8461157304
 20
9.3059778825
 30
0.0
 10
14.8499256323
 20
9.2965158991
 30
0.0
 10
14.8536665243
 20
9.2867137758
 30
0.0
 10
14.8573369544
 20
9.2765751699
 30
0.0
 10
14.8609356097
 20
9.2661038985
 30
0.0
 10
14.8644610919
 20
9.2553038814
 30
0.0
 10
14.8679120854
 20
9.2441791568
 30
0.0
 10
14.8724654043
 20
9.2287388384
 30
0.0
 10
14.877949562
 20
9.2086499875
 30
0.0
 10
14.8841391196
 20
9.1835884726
 30
0.0
 10
14.8900020357
 20
9.1573370601
 30
0.0
 10
14.8955294011
 20
9.1299352261
 30
0.0
 10
14.9007128272
 20
9.1014240336
 30
0.0
 10
14.9055444464
 20
9.0718463135
 30
0.0
 10
14.9100169053
 20
9.0412465017
 30
0.0
 10
14.9141233886
 20
9.0096706031
 30
0.0
 10
14.9178576722
 20
8.9771661216
 30
0.0
 10
14.921214082
 20
8.9437819716
 30
0.0
 10
14.9241875017
 20
8.9095683939
 30
0.0
 10
14.9267734028
 20
8.8745769045
 30
0.0
 10
14.9289678751
 20
8.838860183
 30
0.0
 10
14.9307675709
 20
8.8024720101
 30
0.0
 10
14.9321697244
 20
8.7654673102
 30
0.0
 10
14.9331722528
 20
8.7279014285
 30
0.0
 10
14.9337735392
 20
8.6898314925
 30
0.0
 10
14.9339056503
 20
8.6642890688
 30
0.0
 10
14.9339056503
 20
8.6514443654
 30
0.0
  0
SPLINE
  5
342
100
AcDbEntity
  8
0
100
AcDbSpline
 62
7
  6
CONTINUOUS
 70
0
 71
3
 72
23
 73
19
 74
0
 42
0.0000001
 43
0.0000001
 44
0.0000000001
 40
0.0
 40
0.0
 40
0.0
 40
0.0
 40
0.0518696804
 40
0.1054458442
 40
0.1606758109
 40
0.2175035797
 40
0.2758700575
 40
0.33571312
 40
0.3969680073
 40
0.4595674924
 40
0.5234419288
 40
0.5885195249
 40
0.6547265357
 40
0.7219875148
 40
0.7902247274
 40
0.8593591128
 40
0.9293133808
 40
1.0
 40
1.0
 40
1.0
 40
1.0
 10
14.6256208831
 20
9.1664549959
 30
0.0
 10
14.6273545533
 20
9.1580012725
 30
0.0
 10
14.6307179056
 20
9.1407823332
 30
0.0
 10
14.6353896052
 20
9.1144605775
 30
0.0
 10
14.6397653783
 20
9.0872522028
 30
0.0
 10
14.6438396291
 20
9.0591915914
 30
0.0
 10
14.6476071544
 20
9.0303140546
 30
0.0
 10
14.6510631948
 20
9.000655998
 30
0.0
 10
14.6542033535
 20
8.9702548047
 30
0.0
 10
14.6570236088
 20
8.939148801
 30
0.0
 10
14.6595204036
 20
8.9073772178
 30
0.0
 10
14.6616905612
 20
8.8749801317
 30
0.0
 10
14.6635312971
 20
8.8419983774
 30
0.0
 10
14.6650402834
 20
8.8084735983
 30
0.0
 10
14.666215609
 20
8.7744481648
 30
0.0
 10
14.667055769
 20
8.7399645979
 30
0.0
 10
14.6675596406
 20
8.7050669753
 30
0.0
 10
14.6676704615
 20
8.6816681109
 30
0.0
 10
14.6676704615
 20
8.6699078385
 30
0.0
  0
SPLINE
  5
343
100
AcDbEntity
  8
0
100
AcDbSpline
 62
7
  6
CONTINUOUS
 70
0
 71
3
 72
23
 73
19
 74
0
 42
0.0000001
 43
0.0000001
 44
0.0000000001
 40
0.0
 40
0.0
 40
0.0
 40
0.0
 40
0.0611503561
 40
0.1226405063
 40
0.1844500058
 40
0.246547692
 40
0.3088961695
 40
0.3401563773
 40
0.3714633754
 40
0.4341862985
 40
0.4970317217
 40
0.5599587202
 40
0.6229295382
 40
0.6859101755
 40
0.7488705587
 40
0.8117843912
 40
0.8746288622
 40
1.0
 40
1.0
 40
1.0
 40
1.0
 10
9.7569309633
 20
8.3333479013
 30
0.0
 10
9.7622309819
 20
8.3329803437
 30
0.0
 10
9.7728348298
 20
8.3318001162
 30
0.0
 10
9.788579866
 20
8.3287297701
 30
0.0
 10
9.8041093316
 20
8.3243903784
 30
0.0
 10
9.8193239787
 20
8.3188346462
 30
0.0
 10
9.8316595729
 20
8.3132496626
 30
0.0
 10
9.8412912597
 20
8.3082443489
 30
0.0
 10
9.8507683669
 20
8.3028856532
 30
0.0
 10
9.8622773559
 20
8.2955634852
 30
0.0
 10
9.875490318
 20
8.2858695024
 30
0.0
 10
9.8880779516
 20
8.2753435738
 30
0.0
 10
9.9000115318
 20
8.2640658945
 30
0.0
 10
9.9112714412
 20
8.2521125524
 30
0.0
 10
9.9218447335
 20
8.2395554247
 30
0.0
 10
9.9317245768
 20
8.2264604691
 30
0.0
 10
9.9439561788
 20
8.2083853695
 30
0.0
 10
9.952106131
 20
8.1941704409
 30
0.0
 10
9.9570779923
 20
8.1844791133
 30
0.0
  0
SPLINE
  5
344
100
AcDbEntity
  8
0
100
AcDbSpline
 62
7
  6
CONTINUOUS
 70
0
 71
3
 72
11
 73
7
 74
0
 42
0.0000001
 43
0.0000001
 44
0.0000000001
 40
0.0
 40
0.0
 40
0.0
 40
0.0
 40
0.2425057325
 40
0.4904240427
 40
0.7431350771
 40
1.0
 40
1.0
 40
1.0
 40
1.0
 10
14.5448012689
 20
8.8352986522
 30
0.0
 10
14.5456909865
 20
8.8205275372
 30
0.0
 10
14.5472434722
 20
8.7906402736
 30
0.0
 10
14.5488904569
 20
8.7453218431
 30
0.0
 10
14.5498787169
 20
8.6991079137
 30
0.0
 10
14.5500949688
 20
8.6680127219
 30
0.0
 10
14.5500949688
 20
8.6523386269
 30
0.0
  0
SPLINE
  5
345
100
AcDbEntity
  8
0
100
AcDbSpline
 62
7
  6
CONTINUOUS
 70
0
 71
3
 72
23
 73
19
 74
0
 42
0.0000001
 43
0.0000001
 44
0.0000000001
 40
0.0
 40
0.0
 40
0.0
 40
0.0
 40
0.0637757517
 40
0.1273453038
 40
0.1907021142
 40
0.2538559682
 40
0.3168132565
 40
0.3795821027
 40
0.442173382
 40
0.5045993411
 40
0.5668738656
 40
0.6290123776
 40
0.6910316412
 40
0.7529496359
 40
0.8147853464
 40
0.8765585919
 40
0.9382898467
 40
1.0
 40
1.0
 40
1.0
 40
1.0
 10
10.3171680947
 20
9.1954582918
 30
0.0
 10
10.3171680947
 20
9.2000251404
 30
0.0
 10
10.3173867311
 20
9.209145618
 30
0.0
 10
10.3183732954
 20
9.2227708228
 30
0.0
 10
10.3200160295
 20
9.2362880915
 30
0.0
 10
10.3223110025
 20
9.2496655045
 30
0.0
 10
10.3252529577
 20
9.2628726186
 30
0.0
 10
10.3288351664
 20
9.2758789018
 30
0.0
 10
10.3330494472
 20
9.2886543341
 30
0.0
 10
10.3378860545
 20
9.301169489
 30
0.0
 10
10.3433338452
 20
9.3133955114
 30
0.0
 10
10.3493803653
 20
9.3253041601
 30
0.0
 10
10.3560116278
 20
9.3368679904
 30
0.0
 10
10.3632123396
 20
9.3480603503
 30
0.0
 10
10.3709659642
 20
9.3588553414
 30
0.0
 10
10.3792546687
 20
9.3692281714
 30
0.0
 10
10.3880589704
 20
9.3791546304
 30
0.0
 10
10.3942599578
 20
9.3854605017
 30
0.0
 10
10.3974383067
 20
9.3885305323
 30
0.0
  0
SPLINE
  5
346
100
AcDbEntity
  8
0
100
AcDbSpline
 62
7
  6
CONTINUOUS
 70
0
 71
3
 72
21
 73
17
 74
0
 42
0.0000001
 43
0.0000001
 44
0.0000000001
 40
0.0
 40
0.0
 40
0.0
 40
0.0
 40
0.1273176253
 40
0.2537997538
 40
0.3167617031
 40
0.3795356349
 40
0.4421315552
 40
0.5045621127
 40
0.5668413504
 40
0.6289845238
 40
0.6910084429
 40
0.7529310808
 40
0.8147714271
 40
0.8765493234
 40
0.9382852026
 40
1.0
 40
1.0
 40
1.0
 40
1.0
 10
9.81488644
 20
9.2612012762
 30
0.0
 10
9.81488644
 20
9.2651434695
 30
0.0
 10
9.8152627426
 20
9.2730070616
 30
0.0
 10
9.8166839749
 20
9.2827281548
 30
0.0
 10
9.818382641
 20
9.2903535122
 30
0.0
 10
9.8199317398
 20
9.2959779799
 30
0.0
 10
9.8217541266
 20
9.301502514
 30
0.0
 10
9.8238456924
 20
9.3069144913
 30
0.0
 10
9.8262014889
 20
9.3122014583
 30
0.0
 10
9.8288162708
 20
9.3173511501
 30
0.0
 10
9.8316838293
 20
9.322351775
 30
0.0
 10
9.8347977406
 20
9.3271916992
 30
0.0
 10
9.8381506612
 20
9.3318598452
 30
0.0
 10
9.8417350233
 20
9.3363453945
 30
0.0
 10
9.8455423357
 20
9.3406379236
 30
0.0
 10
9.8482238719
 20
9.3433647926
 30
0.0
 10
9.8495983054
 20
9.3446923783
 30
0.0
  0
SPLINE
  5
347
100
AcDbEntity
  8
0
100
AcDbSpline
 62
7
  6
CONTINUOUS
 70
0
 71
3
 72
54
 73
50
 74
0
 42
0.0000001
 43
0.0000001
 44
0.0000000001
 40
0.0
 40
0.0
 40
0.0
 40
0.0
 40
0.0057245753
 40
0.0117011113
 40
0.0179639112
 40
0.0245419674
 40
0.0314595176
 40
0.0387364227
 40
0.0463888412
 40
0.0544295815
 40
0.0628686973
 40
0.0717137348
 40
0.0809702023
 40
0.0906417237
 40
0.1007303897
 40
0.1112368513
 40
0.1221605723
 40
0.1334998935
 40
0.1452522048
 40
0.1574140016
 40
0.1699809909
 40
0.1829481546
 40
0.1963097998
 40
0.2100596365
 40
0.224190782
 40
0.2386958559
 40
0.2535669468
 40
0.2687957243
 40
0.2843733755
 40
0.300290732
 40
0.3165381842
 40
0.3331058179
 40
0.3671596774
 40
0.4023666804
 40
0.4386360871
 40
0.4758730193
 40
0.5139789304
 40
0.5528520504
 40
0.5923878132
 40
0.632479272
 40
0.6730175059
 40
0.7138920203
 40
0.754991145
 40
0.796202425
 40
0.8374130227
 40
0.8785100814
 40
0.9193812016
 40
0.9599146104
 40
1.0
 40
1.0
 40
1.0
 40
1.0
 10
14.6574435511
 20
7.3179754511
 30
0.0
 10
14.6599793224
 20
7.3189080395
 30
0.0
 10
14.6650761004
 20
7.3210562974
 30
0.0
 10
14.6725923787
 20
7.3249976034
 30
0.0
 10
14.6801254332
 20
7.3297169989
 30
0.0
 10
14.6876698899
 20
7.3352096932
 30
0.0
 10
14.695221291
 20
7.3414714414
 30
0.0
 10
14.7027749884
 20
7.3484973193
 30
0.0
 10
14.7103260424
 20
7.35628231
 30
0.0
 10
14.7178695955
 20
7.3648207328
 30
0.0
 10
14.7254004468
 20
7.3741065952
 30
0.0
 10
14.7329135175
 20
7.3841332346
 30
0.0
 10
14.7404034621
 20
7.3948935709
 30
0.0
 10
14.7478650655
 20
7.4063798829
 30
0.0
 10
14.7552929306
 20
7.4185839802
 30
0.0
 10
14.7626817793
 20
7.4314970731
 30
0.0
 10
14.7700262285
 20
7.4451098799
 30
0.0
 10
14.7773209904
 20
7.4594125612
 30
0.0
 10
14.7845607392
 20
7.4743947785
 30
0.0
 10
14.791740216
 20
7.4900456726
 30
0.0
 10
14.7988541828
 20
7.5063538887
 30
0.0
 10
14.8058974388
 20
7.5233075826
 30
0.0
 10
14.8128648556
 20
7.5408944247
 30
0.0
 10
14.8197513146
 20
7.5591016241
 30
0.0
 10
14.8265518146
 20
7.5779159193
 30
0.0
 10
14.8332613404
 20
7.5973236123
 30
0.0
 10
14.8398750324
 20
7.6173105537
 30
0.0
 10
14.8463879975
 20
7.6378621801
 30
0.0
 10
14.8527955325
 20
7.6589635005
 30
0.0
 10
14.8590928784
 20
7.6805991261
 30
0.0
 10
14.865275522
 20
7.7027532859
 30
0.0
 10
14.8734345474
 20
7.7332410146
 30
0.0
 10
14.8832993148
 20
7.7725329549
 30
0.0
 10
14.8945040042
 20
7.8210661503
 30
0.0
 10
14.9051482977
 20
7.8712619715
 30
0.0
 10
14.9152009604
 20
7.922973892
 30
0.0
 10
14.9246324901
 20
7.9760511286
 30
0.0
 10
14.9334152246
 20
8.0303388114
 30
0.0
 10
14.9415234145
 20
8.0856785232
 30
0.0
 10
14.9489332992
 20
8.1419087473
 30
0.0
 10
14.9556231741
 20
8.1988653499
 30
0.0
 10
14.9615734536
 20
8.2563820626
 30
0.0
 10
14.9667667265
 20
8.3142909712
 30
0.0
 10
14.9711878091
 20
8.3724230113
 30
0.0
 10
14.9748237835
 20
8.4306084592
 30
0.0
 10
14.977664047
 20
8.4886774419
 30
0.0
 10
14.9797003215
 20
8.5464604277
 30
0.0
 10
14.980926713
 20
8.6037886077
 30
0.0
 10
14.9812038222
 20
8.6418387468
 30
0.0
 10
14.9812038222
 20
8.660757827
 30
0.0
  0
SPLINE
  5
348
100
AcDbEntity
  8
0
100
AcDbSpline
 62
7
  6
CONTINUOUS
 70
0
 71
3
 72
61
 73
57
 74
0
 42
0.0000001
 43
0.0000001
 44
0.0000000001
 40
0.0
 40
0.0
 40
0.0
 40
0.0
 40
0.0026835356
 40
0.0053770906
 40
0.0080888367
 40
0.0108267623
 40
0.0135986078
 40
0.0164118139
 40
0.0221884696
 40
0.0282105014
 40
0.0345229542
 40
0.0411640539
 40
0.0481656562
 40
0.0555538588
 40
0.0633496839
 40
0.0715698199
 40
0.0802271561
 40
0.0893314539
 40
0.0988896593
 40
0.1089064614
 40
0.1193844375
 40
0.1303244913
 40
0.141725918
 40
0.1535867132
 40
0.1659036316
 40
0.1786723655
 40
0.1918876395
 40
0.2055432693
 40
0.2196323074
 40
0.2341470046
 40
0.2490789979
 40
0.2644192099
 40
0.2801580512
 40
0.2962853028
 40
0.312790295
 40
0.3296618162
 40
0.3468882384
 40
0.3644574776
 40
0.3823570534
 40
0.4005741099
 40
0.4190954105
 40
0.4379074127
 40
0.4569962138
 40
0.4959468988
 40
0.5358311837
 40
0.5765284915
 40
0.6179149144
 40
0.6598637605
 40
0.7022460901
 40
0.744931246
 40
0.7877873747
 40
0.8306819613
 40
0.8734823043
 40
0.9160561894
 40
0.9582719621
 40
1.0
 40
1.0
 40
1.0
 40
1.0
 10
14.6295572505
 20
7.3392330685
 30
0.0
 10
14.6308176462
 20
7.3391610153
 30
0.0
 10
14.6333478936
 20
7.3390892766
 30
0.0
 10
14.6371536059
 20
7.3391993654
 30
0.0
 10
14.6409725596
 20
7.3395270269
 30
0.0
 10
14.6448036843
 20
7.3400720713
 30
0.0
 10
14.6486462547
 20
7.340834342
 30
0.0
 10
14.6538286779
 20
7.3421513724
 30
0.0
 10
14.6603510569
 20
7.3443611639
 30
0.0
 10
14.6681343982
 20
7.3478552707
 30
0.0
 10
14.6759388422
 20
7.3522101881
 30
0.0
 10
14.6837584089
 20
7.3574205968
 30
0.0
 10
14.6915880668
 20
7.3634813318
 30
0.0
 10
14.6994224447
 20
7.3703869512
 30
0.0
 10
14.7072561319
 20
7.3781316083
 30
0.0
 10
14.7150833805
 20
7.3867090569
 30
0.0
 10
14.7228984451
 20
7.3961123444
 30
0.0
 10
14.7306952195
 20
7.4063340283
 30
0.0
 10
14.7384677324
 20
7.4173658541
 30
0.0
 10
14.7462096862
 20
7.4291990287
 30
0.0
 10
14.7539149828
 20
7.4418239551
 30
0.0
 10
14.7615772798
 20
7.4552304603
 30
0.0
 10
14.7691904189
 20
7.4694076254
 30
0.0
 10
14.7767481129
 20
7.4843439262
 30
0.0
 10
14.7842441921
 20
7.5000271597
 30
0.0
 10
14.7916724843
 20
7.5164445017
 30
0.0
 10
14.7990268511
 20
7.5335825083
 30
0.0
 10
14.8063012683
 20
7.5514271142
 30
0.0
 10
14.8134896707
 20
7.5699636806
 30
0.0
 10
14.8205861975
 20
7.5891769622
 30
0.0
 10
14.8275849
 20
7.6090511744
 30
0.0
 10
14.8344800846
 20
7.6295699534
 30
0.0
 10
14.8412659646
 20
7.6507164216
 30
0.0
 10
14.8479370121
 20
7.6724731581
 30
0.0
 10
14.8544876442
 20
7.6948222497
 30
0.0
 10
14.8609124999
 20
7.7177452799
 30
0.0
 10
14.8672062332
 20
7.741223362
 30
0.0
 10
14.8733636594
 20
7.7652371459
 30
0.0
 10
14.8793796914
 20
7.7897668364
 30
0.0
 10
14.8852493389
 20
7.814792215
 30
0.0
 10
14.8909677824
 20
7.8402926419
 30
0.0
 10
14.8965302688
 20
7.8662471129
 30
0.0
 10
14.9037814209
 20
7.9016672621
 30
0.0
 10
14.9124117256
 20
7.9469219198
 30
0.0
 10
14.9220078847
 20
8.0023328716
 30
0.0
 10
14.9308801025
 20
8.0590244072
 30
0.0
 10
14.9389990095
 20
8.1168095341
 30
0.0
 10
14.9463377212
 20
8.1754978021
 30
0.0
 10
14.9528719565
 20
8.2348957118
 30
0.0
 10
14.9585801075
 20
8.2948074199
 30
0.0
 10
14.9634433147
 20
8.3550353763
 30
0.0
 10
14.9674455203
 20
8.4153809737
 30
0.0
 10
14.9705735412
 20
8.475645239
 30
0.0
 10
14.9728170692
 20
8.5356294175
 30
0.0
 10
14.9741687826
 20
8.5951356335
 30
0.0
 10
14.9744745326
 20
8.6346271215
 30
0.0
 10
14.9744745326
 20
8.6542578319
 30
0.0
  0
SPLINE
  5
349
100
AcDbEntity
  8
0
100
AcDbSpline
 62
7
  6
CONTINUOUS
 70
0
 71
3
 72
57
 73
53
 74
0
 42
0.0000001
 43
0.0000001
 44
0.0000000001
 40
0.0
 40
0.0
 40
0.0
 40
0.0
 40
0.0027106853
 40
0.0054594151
 40
0.0110954088
 40
0.0169583175
 40
0.0230906537
 40
0.0295287709
 40
0.0363032682
 40
0.0434394083
 40
0.0509578115
 40
0.0588749807
 40
0.0672039271
 40
0.0759546242
 40
0.0851344569
 40
0.0947485876
 40
0.104800229
 40
0.1152909512
 40
0.1262208109
 40
0.1375886279
 40
0.149392006
 40
0.1616275959
 40
0.1742910404
 40
0.1873772281
 40
0.200880192
 40
0.21479335
 40
0.2291093835
 40
0.2438204543
 40
0.2589180873
 40
0.2743933532
 40
0.290236772
 40
0.3064384546
 40
0.3229880376
 40
0.3398747808
 40
0.3570875388
 40
0.3746148138
 40
0.3924447642
 40
0.4289633238
 40
0.4665427567
 40
0.5050778511
 40
0.5444595964
 40
0.5845756829
 40
0.6253109843
 40
0.6665480291
 40
0.7081674639
 40
0.7500485119
 40
0.7920694247
 40
0.8341079461
 40
0.8760417263
 40
0.9177488884
 40
0.9591081681
 40
1.0
 40
1.0
 40
1.0
 40
1.0
 10
14.6102041673
 20
7.3633783481
 30
0.0
 10
14.6114251844
 20
7.3635754086
 30
0.0
 10
14.6138742639
 20
7.3640380381
 30
0.0
 10
14.6187953519
 20
7.3652340411
 30
0.0
 10
14.6249883455
 20
7.3672478299
 30
0.0
 10
14.6323826293
 20
7.370442918
 30
0.0
 10
14.6397976115
 20
7.3744325286
 30
0.0
 10
14.6472278691
 20
7.3792119054
 30
0.0
 10
14.6546687655
 20
7.3847766121
 30
0.0
 10
14.6621155556
 20
7.3911217659
 30
0.0
 10
14.6695632835
 20
7.398242356
 30
0.0
 10
14.6770069339
 20
7.4061328376
 30
0.0
 10
14.6844412602
 20
7.4147872549
 30
0.0
 10
14.6918609363
 20
7.4241990704
 30
0.0
 10
14.6992605263
 20
7.4343611893
 30
0.0
 10
14.706634499
 20
7.4452659426
 30
0.0
 10
14.7139773374
 20
7.4569050436
 30
0.0
 10
14.7212834074
 20
7.4692696576
 30
0.0
 10
14.7285471878
 20
7.4823503183
 30
0.0
 10
14.7357630179
 20
7.496137038
 30
0.0
 10
14.7429254211
 20
7.510619207
 30
0.0
 10
14.7500287656
 20
7.5257857156
 30
0.0
 10
14.7570676496
 20
7.541624855
 30
0.0
 10
14.764036513
 20
7.5581244324
 30
0.0
 10
14.7709300485
 20
7.5752716857
 30
0.0
 10
14.7777428028
 20
7.5930533819
 30
0.0
 10
14.784469577
 20
7.6114557526
 30
0.0
 10
14.7911050547
 20
7.6304645706
 30
0.0
 10
14.7976441573
 20
7.6500651081
 30
0.0
 10
14.8040817304
 20
7.6702421924
 30
0.0
 10
14.8104128286
 20
7.6909801843
 30
0.0
 10
14.8166324802
 20
7.7122630168
 30
0.0
 10
14.8227358864
 20
7.7340741891
 30
0.0
 10
14.828718277
 20
7.7563967935
 30
0.0
 10
14.8345750098
 20
7.7792135155
 30
0.0
 10
14.8403015502
 20
7.8025066775
 30
0.0
 10
14.8478171209
 20
7.8344294434
 30
0.0
 10
14.8568417013
 20
7.8753941697
 30
0.0
 10
14.8669992273
 20
7.9257745205
 30
0.0
 10
14.8765373393
 20
7.9776046344
 30
0.0
 10
14.8854263106
 20
8.0307236943
 30
0.0
 10
14.893638432
 20
8.0849670366
 30
0.0
 10
14.9011481216
 20
8.140166427
 30
0.0
 10
14.9079319962
 20
8.196150657
 30
0.0
 10
14.9139689438
 20
8.2527460623
 30
0.0
 10
14.9192401879
 20
8.3097770704
 30
0.0
 10
14.9237293469
 20
8.3670667506
 30
0.0
 10
14.9274224786
 20
8.4244373585
 30
0.0
 10
14.9303081383
 20
8.4817109116
 30
0.0
 10
14.9323773844
 20
8.5387097115
 30
0.0
 10
14.9336238568
 20
8.5952568242
 30
0.0
 10
14.9339056503
 20
8.6327864637
 30
0.0
 10
14.9339056503
 20
8.6514443654
 30
0.0
  0
SPLINE
  5
34A
100
AcDbEntity
  8
0
100
AcDbSpline
 62
7
  6
CONTINUOUS
 70
0
 71
3
 72
31
 73
27
 74
0
 42
0.0000001
 43
0.0000001
 44
0.0000000001
 40
0.0
 40
0.0
 40
0.0
 40
0.0
 40
0.0240111307
 40
0.0487944474
 40
0.0743267694
 40
0.1005835046
 40
0.1275386485
 40
0.1551649353
 40
0.1834339695
 40
0.212316208
 40
0.2417811089
 40
0.271797215
 40
0.3023321419
 40
0.3333527214
 40
0.3648250508
 40
0.3967145005
 40
0.4289858442
 40
0.4616032864
 40
0.5277300147
 40
0.5947997906
 40
0.6625114972
 40
0.7305603212
 40
0.7986395272
 40
0.8664422635
 40
0.9336627624
 40
1.0
 40
1.0
 40
1.0
 40
1.0
 10
14.5192344468
 20
7.6328728638
 30
0.0
 10
14.5220488008
 20
7.6408077583
 30
0.0
 10
14.5276205699
 20
7.6569853636
 30
0.0
 10
14.5356908916
 20
7.6817672761
 30
0.0
 10
14.543599054
 20
7.7074265296
 30
0.0
 10
14.5513354381
 20
7.733932242
 30
0.0
 10
14.5588907445
 20
7.7612526253
 30
0.0
 10
14.5662558764
 20
7.7893548643
 30
0.0
 10
14.5734219158
 20
7.818205218
 30
0.0
 10
14.5803802491
 20
7.8477690228
 30
0.0
 10
14.5871224954
 20
7.8780107559
 30
0.0
 10
14.5936404933
 20
7.9088940824
 30
0.0
 10
14.599926419
 20
7.9403818802
 30
0.0
 10
14.6059726948
 20
7.9724363014
 30
0.0
 10
14.6117720089
 20
8.0050188212
 30
0.0
 10
14.6173174017
 20
8.038090258
 30
0.0
 10
14.6226022065
 20
8.0716108842
 30
0.0
 10
14.6293230049
 20
8.1170561901
 30
0.0
 10
14.6370184114
 20
8.1746889488
 30
0.0
 10
14.6450788936
 20
8.2446759737
 30
0.0
 10
14.651967798
 20
8.3154652212
 30
0.0
 10
14.6576519521
 20
8.3867163652
 30
0.0
 10
14.6621039876
 20
8.4580870636
 30
0.0
 10
14.6653025101
 20
8.5292342913
 30
0.0
 10
14.6672323034
 20
8.5998160405
 30
0.0
 10
14.6676704615
 20
8.6466474887
 30
0.0
 10
14.6676704615
 20
8.6699078385
 30
0.0
  0
SPLINE
  5
34B
100
AcDbEntity
  8
0
100
AcDbSpline
 62
7
  6
CONTINUOUS
 70
0
 71
3
 72
21
 73
17
 74
0
 42
0.0000001
 43
0.0000001
 44
0.0000000001
 40
0.0
 40
0.0
 40
0.0
 40
0.0
 40
0.1273176253
 40
0.2537997538
 40
0.3167617031
 40
0.3795356349
 40
0.4421315552
 40
0.5045621127
 40
0.5668413504
 40
0.6289845238
 40
0.6910084429
 40
0.7529310808
 40
0.8147714271
 40
0.8765493234
 40
0.9382852026
 40
1.0
 40
1.0
 40
1.0
 40
1.0
 10
8.9397576872
 20
8.0835746736
 30
0.0
 10
8.9397576872
 20
8.0875168669
 30
0.0
 10
8.9401339897
 20
8.095380459
 30
0.0
 10
8.9415552221
 20
8.1051015522
 30
0.0
 10
8.9432538882
 20
8.1127269096
 30
0.0
 10
8.9448029869
 20
8.1183513773
 30
0.0
 10
8.9466253738
 20
8.1238759114
 30
0.0
 10
8.9487169396
 20
8.1292878887
 30
0.0
 10
8.9510727361
 20
8.1345748557
 30
0.0
 10
8.953687518
 20
8.1397245475
 30
0.0
 10
8.9565550765
 20
8.1447251724
 30
0.0
 10
8.9596689878
 20
8.1495650966
 30
0.0
 10
8.9630219084
 20
8.1542332426
 30
0.0
 10
8.9666062705
 20
8.1587187919
 30
0.0
 10
8.9704135829
 20
8.163011321
 30
0.0
 10
8.9730951191
 20
8.16573819
 30
0.0
 10
8.9744695525
 20
8.1670657757
 30
0.0
  0
SPLINE
  5
34C
100
AcDbEntity
  8
0
100
AcDbSpline
 62
7
  6
CONTINUOUS
 70
0
 71
3
 72
23
 73
19
 74
0
 42
0.0000001
 43
0.0000001
 44
0.0000000001
 40
0.0
 40
0.0
 40
0.0
 40
0.0
 40
0.058073914
 40
0.1173248077
 40
0.1776335809
 40
0.2388782244
 40
0.3009341904
 40
0.3636747535
 40
0.4269713648
 40
0.4906940052
 40
0.5547115322
 40
0.6188920265
 40
0.6831031576
 40
0.7472124486
 40
0.8110879368
 40
0.8745975218
 40
0.9376119151
 40
1.0
 40
1.0
 40
1.0
 40
1.0
 10
14.4849403449
 20
7.9721287374
 30
0.0
 10
14.4875546927
 20
7.9851164588
 30
0.0
 10
14.4926422934
 20
8.0113945546
 30
0.0
 10
14.499786198
 20
8.0512841383
 30
0.0
 10
14.5065085161
 20
8.091980266
 30
0.0
 10
14.5127943927
 20
8.1333933641
 30
0.0
 10
14.5186299724
 20
8.1754324199
 30
0.0
 10
14.524002387
 20
8.218004998
 30
0.0
 10
14.5288997951
 20
8.2610174952
 30
0.0
 10
14.5333114047
 20
8.3043753334
 30
0.0
 10
14.5372274964
 20
8.347983171
 30
0.0
 10
14.5406394498
 20
8.3917451163
 30
0.0
 10
14.5435397559
 20
8.4355649241
 30
0.0
 10
14.5459220507
 20
8.479346268
 30
0.0
 10
14.5477810771
 20
8.5229927699
 30
0.0
 10
14.5491128087
 20
8.5664086857
 30
0.0
 10
14.5499142675
 20
8.6094982048
 30
0.0
 10
14.5500949688
 20
8.6381062128
 30
0.0
 10
14.5500949688
 20
8.6523386269
 30
0.0
  0
SPLINE
  5
34D
100
AcDbEntity
  8
0
100
AcDbSpline
 62
7
  6
CONTINUOUS
 70
0
 71
3
 72
21
 73
17
 74
0
 42
0.0000001
 43
0.0000001
 44
0.0000000001
 40
0.0
 40
0.0
 40
0.0
 40
0.0
 40
0.1273176253
 40
0.2537997538
 40
0.3167617031
 40
0.3795356349
 40
0.4421315552
 40
0.5045621127
 40
0.5668413504
 40
0.6289845238
 40
0.6910084429
 40
0.7529310808
 40
0.8147714271
 40
0.8765493234
 40
0.9382852026
 40
1.0
 40
1.0
 40
1.0
 40
1.0
 10
8.0646288192
 20
6.9059480215
 30
0.0
 10
8.0646288192
 20
6.9098902148
 30
0.0
 10
8.0650051218
 20
6.9177538068
 30
0.0
 10
8.0664263541
 20
6.9274749001
 30
0.0
 10
8.0681250202
 20
6.9351002574
 30
0.0
 10
8.069674119
 20
6.9407247251
 30
0.0
 10
8.0714965058
 20
6.9462492592
 30
0.0
 10
8.0735880716
 20
6.9516612365
 30
0.0
 10
8.0759438681
 20
6.9569482035
 30
0.0
 10
8.07855865
 20
6.9620978953
 30
0.0
 10
8.0814262085
 20
6.9670985202
 30
0.0
 10
8.0845401198
 20
6.9719384444
 30
0.0
 10
8.0878930404
 20
6.9766065904
 30
0.0
 10
8.0914774025
 20
6.9810921397
 30
0.0
 10
8.0952847149
 20
6.9853846688
 30
0.0
 10
8.0979662511
 20
6.9881115378
 30
0.0
 10
8.0993406846
 20
6.9894391235
 30
0.0
  0
SPLINE
  5
34E
100
AcDbEntity
  8
0
100
AcDbSpline
 62
7
  6
CONTINUOUS
 70
0
 71
3
 72
15
 73
11
 74
0
 42
0.0000001
 43
0.0000001
 44
0.0000000001
 40
0.0
 40
0.0
 40
0.0
 40
0.0
 40
0.1266012085
 40
0.2527761618
 40
0.3784910588
 40
0.5037415803
 40
0.6285168898
 40
0.7528149283
 40
0.8766395474
 40
1.0
 40
1.0
 40
1.0
 40
1.0
 10
9.0336858373
 20
7.0919507899
 30
0.0
 10
9.0319093814
 20
7.0877929788
 30
0.0
 10
9.0285829443
 20
7.0793950915
 30
0.0
 10
9.0242847796
 20
7.0665727058
 30
0.0
 10
9.0206990035
 20
7.0535827033
 30
0.0
 10
9.0178366441
 20
7.0404655579
 30
0.0
 10
9.0157065538
 20
7.0272609689
 30
0.0
 10
9.0143152544
 20
7.0140092499
 30
0.0
 10
9.0136670002
 20
7.0007514213
 30
0.0
 10
9.0137317351
 20
6.9919181908
 30
0.0
 10
9.013888891
 20
6.98751532
 30
0.0
  0
SPLINE
  5
34F
100
AcDbEntity
  8
0
100
AcDbSpline
 62
7
  6
CONTINUOUS
 70
0
 71
3
 72
14
 73
10
 74
0
 42
0.0000001
 43
0.0000001
 44
0.0000000001
 40
0.0
 40
0.0
 40
0.0
 40
0.0
 40
0.1247657314
 40
0.2500632798
 40
0.3755132074
 40
0.5009051778
 40
0.6261112863
 40
0.7510571167
 40
1.0
 40
1.0
 40
1.0
 40
1.0
 10
9.0228489211
 20
7.0462684414
 30
0.0
 10
9.0232196424
 20
7.0481864814
 30
0.0
 10
9.0239658779
 20
7.0520301268
 30
0.0
 10
9.0251251053
 20
7.0577944434
 30
0.0
 10
9.0263444525
 20
7.0635564273
 30
0.0
 10
9.0276356151
 20
7.0693013197
 30
0.0
 10
9.0290074282
 20
7.07501946
 30
0.0
 10
9.0309505449
 20
7.0825888846
 30
0.0
 10
9.0325504799
 20
7.0882219455
 30
0.0
 10
9.0336858373
 20
7.0919507899
 30
0.0
  0
SPLINE
  5
350
100
AcDbEntity
  8
0
100
AcDbSpline
 62
7
  6
CONTINUOUS
 70
0
 71
3
 72
11
 73
7
 74
0
 42
0.0000001
 43
0.0000001
 44
0.0000000001
 40
0.0
 40
0.0
 40
0.0
 40
0.0
 40
0.250841479
 40
0.5011390872
 40
0.7508609927
 40
1.0
 40
1.0
 40
1.0
 40
1.0
 10
9.0336858373
 20
7.0919507899
 30
0.0
 10
9.0353976201
 20
7.0975727836
 30
0.0
 10
9.0391691588
 20
7.1087010194
 30
0.0
 10
9.045861094
 20
7.1249823636
 30
0.0
 10
9.0535635509
 20
7.1407665792
 30
0.0
 10
9.0593651055
 20
7.1509238856
 30
0.0
 10
9.0624258177
 20
7.1558939799
 30
0.0
  0
SPLINE
  5
351
100
AcDbEntity
  8
0
100
AcDbSpline
 62
7
  6
CONTINUOUS
 70
0
 71
3
 72
15
 73
11
 74
0
 42
0.0000001
 43
0.0000001
 44
0.0000000001
 40
0.0
 40
0.0
 40
0.0
 40
0.0
 40
0.1273482228
 40
0.253860527
 40
0.3795879206
 40
0.5046050801
 40
0.6290174363
 40
0.7529533709
 40
0.8765605784
 40
1.0
 40
1.0
 40
1.0
 40
1.0
 10
8.0375828945
 20
9.3844576958
 30
0.0
 10
8.0375828945
 20
9.3892621565
 30
0.0
 10
8.0380416194
 20
9.3988461835
 30
0.0
 10
8.0401161687
 20
9.4130378981
 30
0.0
 10
8.0435561233
 20
9.4268730308
 30
0.0
 10
8.048330419
 20
9.4402221916
 30
0.0
 10
8.0543952213
 20
9.4529622833
 30
0.0
 10
8.0616952683
 20
9.4649756646
 30
0.0
 10
8.0701619207
 20
9.4761497689
 30
0.0
 10
8.0765368798
 20
9.48297556
 30
0.0
 10
8.0798864367
 20
9.4862109977
 30
0.0
  0
SPLINE
  5
352
100
AcDbEntity
  8
0
100
AcDbSpline
 62
7
  6
CONTINUOUS
 70
0
 71
3
 72
37
 73
33
 74
0
 42
0.0000001
 43
0.0000001
 44
0.0000000001
 40
0.0
 40
0.0
 40
0.0
 40
0.0
 40
0.1077033761
 40
0.2105935959
 40
0.2600139308
 40
0.3079738256
 40
0.3543935298
 40
0.3991998347
 40
0.442323566
 40
0.4837016243
 40
0.5232757361
 40
0.5609954413
 40
0.5968166475
 40
0.6307049281
 40
0.6626345863
 40
0.6925927419
 40
0.7205792891
 40
0.7466122882
 40
0.7707297627
 40
0.7929974271
 40
0.8135136923
 40
0.8324207584
 40
0.849913082
 40
0.8662487879
 40
0.8817529278
 40
0.8968117776
 40
0.911849218
 40
0.9272910567
 40
0.9435286156
 40
0.9608935369
 40
0.9796505542
 40
1.0
 40
1.0
 40
1.0
 40
1.0
 10
14.4729811658
 20
8.8151944997
 30
0.0
 10
14.4723894665
 20
8.8119912677
 30
0.0
 10
14.471152398
 20
8.8057423929
 30
0.0
 10
14.4694077088
 20
8.7980731283
 30
0.0
 10
14.4679239828
 20
8.7922003632
 30
0.0
 10
14.4667887169
 20
8.7880017811
 30
0.0
 10
14.4656181721
 20
8.7839579643
 30
0.0
 10
14.4644146767
 20
8.7800766845
 30
0.0
 10
14.4631804872
 20
8.776365383
 30
0.0
 10
14.4619180656
 20
8.7728311541
 30
0.0
 10
14.4606297698
 20
8.7694807728
 30
0.0
 10
14.4593181723
 20
8.7663206184
 30
0.0
 10
14.4579857123
 20
8.7633567206
 30
0.0
 10
14.4566350389
 20
8.7605946708
 30
0.0
 10
14.4552686338
 20
8.758039699
 30
0.0
 10
14.4538891763
 20
8.755696544
 30
0.0
 10
14.4524991247
 20
8.753569578
 30
0.0
 10
14.4511010933
 20
8.7516626284
 30
0.0
 10
14.449697382
 20
8.7499791863
 30
0.0
 10
14.4482903465
 20
8.7485221844
 30
0.0
 10
14.4468818845
 20
8.7472943855
 30
0.0
 10
14.4454738269
 20
8.7462981899
 30
0.0
 10
14.4440675946
 20
8.7455363708
 30
0.0
 10
14.4426649688
 20
8.7450118819
 30
0.0
 10
14.441268552
 20
8.7447284558
 30
0.0
 10
14.4398828313
 20
8.7446890707
 30
0.0
 10
14.4385138132
 20
8.7448950668
 30
0.0
 10
14.437167381
 20
8.7453445501
 30
0.0
 10
14.4358477758
 20
8.7460340378
 30
0.0
 10
14.434557185
 20
8.7469594733
 30
0.0
 10
14.433297112
 20
8.7481174883
 30
0.0
 10
14.4325117345
 20
8.7490045859
 30
0.0
 10
14.4321233973
 20
8.7494820594
 30
0.0
  0
SPLINE
  5
353
100
AcDbEntity
  8
0
100
AcDbSpline
 62
7
  6
CONTINUOUS
 70
0
 71
3
 72
51
 73
47
 74
0
 42
0.0000001
 43
0.0000001
 44
0.0000000001
 40
0.0
 40
0.0
 40
0.0
 40
0.0
 40
0.0063158563
 40
0.0126706275
 40
0.0191024426
 40
0.0256479667
 40
0.0323418396
 40
0.039216169
 40
0.0536139777
 40
0.0611946825
 40
0.0690564228
 40
0.077217543
 40
0.085693909
 40
0.0944992921
 40
0.103645413
 40
0.1131421541
 40
0.1229979076
 40
0.1332195316
 40
0.1438125903
 40
0.1547816094
 40
0.1661299566
 40
0.1778601045
 40
0.1899737833
 40
0.2024718248
 40
0.2153544436
 40
0.2286212918
 40
0.2422713076
 40
0.2707135166
 40
0.3006643912
 40
0.3320995589
 40
0.3649887452
 40
0.3992964972
 40
0.4349828494
 40
0.4720036907
 40
0.51031109
 40
0.5498537661
 40
0.5905773424
 40
0.6324244885
 40
0.6753352842
 40
0.7192474223
 40
0.7640962813
 40
0.8098154002
 40
0.8563361693
 40
0.9035880242
 40
0.951501774
 40
1.0
 40
1.0
 40
1.0
 40
1.0
 10
11.3872373066
 20
6.5254250447
 30
0.0
 10
11.3859696683
 20
6.5255129611
 30
0.0
 10
11.3834325704
 20
6.5257930871
 30
0.0
 10
11.3796553686
 20
6.5265233033
 30
0.0
 10
11.3759034077
 20
6.5275634101
 30
0.0
 10
11.3721788834
 20
6.5289126243
 30
0.0
 10
11.3684832848
 20
6.5305702195
 30
0.0
 10
11.3635210546
 20
6.5332302506
 30
0.0
 10
11.3586936099
 20
6.5364865709
 30
0.0
 10
11.3540218503
 20
6.5402600902
 30
0.0
 10
11.3504931015
 20
6.543441623
 30
0.0
 10
11.3470020515
 20
6.5469238263
 30
0.0
 10
11.3435495286
 20
6.5507054195
 30
0.0
 10
11.340136992
 20
6.5547848139
 30
0.0
 10
11.3367656892
 20
6.5591603414
 30
0.0
 10
11.333436871
 20
6.5638301817
 30
0.0
 10
11.3301518976
 20
6.5687924891
 30
0.0
 10
11.3269120275
 20
6.5740452273
 30
0.0
 10
11.3237185144
 20
6.5795862524
 30
0.0
 10
11.3205727046
 20
6.5854133517
 30
0.0
 10
11.3174758162
 20
6.5915241293
 30
0.0
 10
11.3144290914
 20
6.5979160947
 30
0.0
 10
11.3114338309
 20
6.6045866664
 30
0.0
 10
11.3084911979
 20
6.6115330955
 30
0.0
 10
11.30560241
 20
6.6187525424
 30
0.0
 10
11.3027686755
 20
6.6262420784
 30
0.0
 10
11.2990137524
 20
6.636728212
 30
0.0
 10
11.2944776821
 20
6.6504973411
 30
0.0
 10
11.2893438591
 20
6.6678278004
 30
0.0
 10
11.2844560844
 20
6.686156637
 30
0.0
 10
11.2798224525
 20
6.7054537225
 30
0.0
 10
11.2754506478
 20
6.725687501
 30
0.0
 10
11.271347966
 20
6.7468247686
 30
0.0
 10
11.2675212549
 20
6.7688308065
 30
0.0
 10
11.2639768619
 20
6.7916694138
 30
0.0
 10
11.2607206995
 20
6.8153030032
 30
0.0
 10
11.2577582196
 20
6.8396926588
 30
0.0
 10
11.2550943345
 20
6.8647981925
 30
0.0
 10
11.2527334793
 20
6.8905782244
 30
0.0
 10
11.2506796139
 20
6.9169902501
 30
0.0
 10
11.2489361474
 20
6.9439907378
 30
0.0
 10
11.2475059842
 20
6.9715351406
 30
0.0
 10
11.2463915242
 20
6.9995779298
 30
0.0
 10
11.2455946028
 20
7.0280732293
 30
0.0
 10
11.2451166238
 20
7.0569735
 30
0.0
 10
11.2450116532
 20
7.0763707447
 30
0.0
 10
11.2450116532
 20
7.0861280735
 30
0.0
  0
SPLINE
  5
354
100
AcDbEntity
  8
0
100
AcDbSpline
 62
7
  6
CONTINUOUS
 70
0
 71
3
 72
52
 73
48
 74
0
 42
0.0000001
 43
0.0000001
 44
0.0000000001
 40
0.0
 40
0.0
 40
0.0
 40
0.0
 40
0.0063158553
 40
0.0126706174
 40
0.01910243
 40
0.0256479406
 40
0.0323417857
 40
0.0392161126
 40
0.053613856
 40
0.0611945619
 40
0.0690562627
 40
0.0772173394
 40
0.0856937117
 40
0.0944990433
 40
0.1036451224
 40
0.1131418745
 40
0.1229975663
 40
0.1332191544
 40
0.1438122273
 40
0.1547811769
 40
0.1661294967
 40
0.1778596595
 40
0.1899732643
 40
0.2024712882
 40
0.21535392
 40
0.2286206932
 40
0.2422707016
 40
0.2563024051
 40
0.2707137575
 40
0.3006646369
 40
0.3320997476
 40
0.3649888706
 40
0.3992966303
 40
0.4349829523
 40
0.4720037374
 40
0.5103111432
 40
0.5498538098
 40
0.5905773434
 40
0.6324244938
 40
0.6753352948
 40
0.7192474009
 40
0.764096263
 40
0.8098154275
 40
0.8563361116
 40
0.903587964
 40
0.9515019894
 40
1.0
 40
1.0
 40
1.0
 40
1.0
 10
14.3449028543
 20
6.3203102503
 30
0.0
 10
14.3436352139
 20
6.3203981623
 30
0.0
 10
14.3410981131
 20
6.3206782689
 30
0.0
 10
14.337320892
 20
6.3214084096
 30
0.0
 10
14.3335689319
 20
6.3224485281
 30
0.0
 10
14.3298443997
 20
6.3237977069
 30
0.0
 10
14.3261487726
 20
6.3254552372
 30
0.0
 10
14.3211865667
 20
6.3281152907
 30
0.0
 10
14.3163590599
 20
6.3313715098
 30
0.0
 10
14.3116873292
 20
6.3351450495
 30
0.0
 10
14.3081585554
 20
6.3383265389
 30
0.0
 10
14.3046674777
 20
6.3418087059
 30
0.0
 10
14.3012149837
 20
6.3455903122
 30
0.0
 10
14.2978024124
 20
6.3496696648
 30
0.0
 10
14.2944310884
 20
6.3540451676
 30
0.0
 10
14.2911023002
 20
6.3587150174
 30
0.0
 10
14.2878172853
 20
6.3636772871
 30
0.0
 10
14.2845774013
 20
6.3689300097
 30
0.0
 10
14.2813839164
 20
6.3744710413
 30
0.0
 10
14.2782380607
 20
6.3802981086
 30
0.0
 10
14.2751411658
 20
6.3864088776
 30
0.0
 10
14.2720944653
 20
6.3928008475
 30
0.0
 10
14.2690991569
 20
6.3994713936
 30
0.0
 10
14.2661565251
 20
6.406417819
 30
0.0
 10
14.2632677521
 20
6.413637271
 30
0.0
 10
14.2604339855
 20
6.4211267811
 30
0.0
 10
14.2576564546
 20
6.428883298
 30
0.0
 10
14.2549362557
 20
6.4369036399
 30
0.0
 10
14.2513410566
 20
6.4480887177
 30
0.0
 10
14.2470091533
 20
6.4627126078
 30
0.0
 10
14.2421213415
 20
6.4810413176
 30
0.0
 10
14.2374876812
 20
6.5003384417
 30
0.0
 10
14.2331158842
 20
6.5205722282
 30
0.0
 10
14.2290131872
 20
6.5417095146
 30
0.0
 10
14.2251864444
 20
6.5637155664
 30
0.0
 10
14.221642056
 20
6.5865542003
 30
0.0
 10
14.2183858869
 20
6.6101878179
 30
0.0
 10
14.2154233794
 20
6.6345775003
 30
0.0
 10
14.2127594956
 20
6.6596830684
 30
0.0
 10
14.2103986386
 20
6.6854631372
 30
0.0
 10
14.2083447533
 20
6.7118751994
 30
0.0
 10
14.2066012855
 20
6.738875734
 30
0.0
 10
14.2051711246
 20
6.7664201739
 30
0.0
 10
14.204056651
 20
6.7944629993
 30
0.0
 10
14.2032597283
 20
6.8229583825
 30
0.0
 10
14.2027817538
 20
6.8518587114
 30
0.0
 10
14.2026767785
 20
6.8712559992
 30
0.0
 10
14.2026767785
 20
6.8810133004
 30
0.0
  0
SPLINE
  5
355
100
AcDbEntity
  8
0
100
AcDbSpline
 62
7
  6
CONTINUOUS
 70
0
 71
3
 72
15
 73
11
 74
0
 42
0.0000001
 43
0.0000001
 44
0.0000000001
 40
0.0
 40
0.0
 40
0.0
 40
0.0
 40
0.1273482228
 40
0.253860527
 40
0.3795879206
 40
0.5046050801
 40
0.6290174363
 40
0.7529533709
 40
0.8765605784
 40
1.0
 40
1.0
 40
1.0
 40
1.0
 10
9.7878405153
 20
6.7864428844
 30
0.0
 10
9.7878405153
 20
6.7912473451
 30
0.0
 10
9.7882992402
 20
6.8008313722
 30
0.0
 10
9.7903737895
 20
6.8150230867
 30
0.0
 10
9.7938137441
 20
6.8288582195
 30
0.0
 10
9.7985880398
 20
6.8422073803
 30
0.0
 10
9.8046528421
 20
6.854947472
 30
0.0
 10
9.8119528891
 20
6.8669608533
 30
0.0
 10
9.8204195415
 20
6.8781349576
 30
0.0
 10
9.8267945006
 20
6.8849607487
 30
0.0
 10
9.8301440575
 20
6.8881961864
 30
0.0
  0
SPLINE
  5
356
100
AcDbEntity
  8
0
100
AcDbSpline
 62
7
  6
CONTINUOUS
 70
0
 71
3
 72
59
 73
55
 74
0
 42
0.0000001
 43
0.0000001
 44
0.0000000001
 40
0.0
 40
0.0
 40
0.0
 40
0.0
 40
0.0095821467
 40
0.0187369712
 40
0.0274867415
 40
0.0358591934
 40
0.0438870998
 40
0.0516083199
 40
0.0590660033
 40
0.0663085998
 40
0.0733896609
 40
0.0803668098
 40
0.087300521
 40
0.09425249
 40
0.101283904
 40
0.1084537049
 40
0.1158172299
 40
0.1234251353
 40
0.131322794
 40
0.1395502227
 40
0.1481419754
 40
0.1571277033
 40
0.1665323992
 40
0.1763769094
 40
0.1866785429
 40
0.1974512268
 40
0.2087062439
 40
0.2204523196
 40
0.2326960261
 40
0.2454421585
 40
0.2586936669
 40
0.2724522139
 40
0.2867180262
 40
0.3014901792
 40
0.3167667858
 40
0.3325448312
 40
0.3488206197
 40
0.3655895205
 40
0.3828462148
 40
0.4005847778
 40
0.418798505
 40
0.437480288
 40
0.4762156161
 40
0.5167237306
 40
0.55892943
 40
0.6027509884
 40
0.6481008402
 40
0.6948861679
 40
0.7430093738
 40
0.7923685352
 40
0.8428580748
 40
0.89436795
 40
0.9467879518
 40
1.0
 40
1.0
 40
1.0
 40
1.0
 10
14.4549957905
 20
6.3982074365
 30
0.0
 10
14.453580566
 20
6.3968903606
 30
0.0
 10
14.4507513032
 20
6.3943802489
 30
0.0
 10
14.4464103869
 20
6.3909245807
 30
0.0
 10
14.4420739201
 20
6.3878688703
 30
0.0
 10
14.4377444351
 20
6.3852152532
 30
0.0
 10
14.4334240436
 20
6.3829655962
 30
0.0
 10
14.429114984
 20
6.3811217348
 30
0.0
 10
14.4248197123
 20
6.3796853248
 30
0.0
 10
14.4205408215
 20
6.3786582242
 30
0.0
 10
14.4162813051
 20
6.378041678
 30
0.0
 10
14.4120443689
 20
6.3778368213
 30
0.0
 10
14.4078335064
 20
6.3780441822
 30
0.0
 10
14.4036522658
 20
6.3786635265
 30
0.0
 10
14.3995041528
 20
6.3796942977
 30
0.0
 10
14.3953923254
 20
6.3811349976
 30
0.0
 10
14.3913196693
 20
6.3829840567
 30
0.0
 10
14.3872886989
 20
6.385239515
 30
0.0
 10
14.3833015941
 20
6.387899249
 30
0.0
 10
14.3793605112
 20
6.3909612632
 30
0.0
 10
14.3754672971
 20
6.3944232341
 30
0.0
 10
14.3716239629
 20
6.3982829847
 30
0.0
 10
14.3678324136
 20
6.4025380878
 30
0.0
 10
14.3640945536
 20
6.4071859728
 30
0.0
 10
14.3604124584
 20
6.4122239777
 30
0.0
 10
14.3567879992
 20
6.4176490981
 30
0.0
 10
14.3532232753
 20
6.4234582447
 30
0.0
 10
14.3497202509
 20
6.4296480215
 30
0.0
 10
14.3462808961
 20
6.436214824
 30
0.0
 10
14.3429072778
 20
6.4431548546
 30
0.0
 10
14.3396012508
 20
6.4504640186
 30
0.0
 10
14.3363648427
 20
6.4581380626
 30
0.0
 10
14.3331999105
 20
6.4661724611
 30
0.0
 10
14.3301083113
 20
6.474562484
 30
0.0
 10
14.3270919409
 20
6.4833031961
 30
0.0
 10
14.324152499
 20
6.4923894173
 30
0.0
 10
14.3212918179
 20
6.5018157896
 30
0.0
 10
14.3185115511
 20
6.5115767229
 30
0.0
 10
14.315813353
 20
6.5216664368
 30
0.0
 10
14.3131988871
 20
6.5320789507
 30
0.0
 10
14.3106696139
 20
6.5428080932
 30
0.0
 10
14.3073732299
 20
6.5577073197
 30
0.0
 10
14.3034885579
 20
6.5770811766
 30
0.0
 10
14.2992440458
 20
6.6012161499
 30
0.0
 10
14.2953725067
 20
6.6264523215
 30
0.0
 10
14.2918832539
 20
6.6527297178
 30
0.0
 10
14.2887847113
 20
6.6799860269
 30
0.0
 10
14.2860843566
 20
6.7081565206
 30
0.0
 10
14.2837887139
 20
6.7371742779
 30
0.0
 10
14.2819033216
 20
6.7669703715
 30
0.0
 10
14.2804327587
 20
6.7974738356
 30
0.0
 10
14.2793805141
 20
6.828612453
 30
0.0
 10
14.2787492447
 20
6.8603117385
 30
0.0
 10
14.2786109508
 20
6.8816241292
 30
0.0
 10
14.2786109508
 20
6.8923600829
 30
0.0
  0
SPLINE
  5
357
100
AcDbEntity
  8
0
100
AcDbSpline
 62
7
  6
CONTINUOUS
 70
0
 71
3
 72
52
 73
48
 74
0
 42
0.0000001
 43
0.0000001
 44
0.0000000001
 40
0.0
 40
0.0
 40
0.0
 40
0.0
 40
0.0077274427
 40
0.0149622724
 40
0.0217490033
 40
0.0281443255
 40
0.0342178313
 40
0.0400523611
 40
0.0457425518
 40
0.051390933
 40
0.0571025403
 40
0.062978704
 40
0.0691118745
 40
0.0755821691
 40
0.0824566333
 40
0.0897891263
 40
0.0976221929
 40
0.1059884712
 40
0.1149121444
 40
0.1244109791
 40
0.134496668
 40
0.1451766071
 40
0.1564542054
 40
0.1683294453
 40
0.180799913
 40
0.1938603129
 40
0.2075036472
 40
0.2217208961
 40
0.2518314565
 40
0.2840916316
 40
0.3183795227
 40
0.3545566141
 40
0.3924700828
 40
0.4319548233
 40
0.4728351879
 40
0.5149264962
 40
0.5580364335
 40
0.6019663618
 40
0.6465126566
 40
0.6914680106
 40
0.7366227085
 40
0.7817658107
 40
0.8266864018
 40
0.871175285
 40
0.9150242248
 40
0.9580334463
 40
1.0
 40
1.0
 40
1.0
 40
1.0
 10
14.448698781
 20
8.9884987557
 30
0.0
 10
14.449064142
 20
8.9888388007
 30
0.0
 10
14.449794347
 20
8.989473476
 30
0.0
 10
14.4509264411
 20
8.9903079979
 30
0.0
 10
14.4520568969
 20
8.9909911388
 30
0.0
 10
14.4531845776
 20
8.99152163
 30
0.0
 10
14.4543083588
 20
8.9918981307
 30
0.0
 10
14.4554267454
 20
8.9921191891
 30
0.0
 10
14.4565377156
 20
8.992183792
 30
0.0
 10
14.4576388261
 20
8.9920912074
 30
0.0
 10
14.4587275032
 20
8.9918418328
 30
0.0
 10
14.459801495
 20
8.991436655
 30
0.0
 10
14.4608590623
 20
8.9908771182
 30
0.0
 10
14.4618990588
 20
8.9901648786
 30
0.0
 10
14.4629204791
 20
8.9893012996
 30
0.0
 10
14.463922578
 20
8.9882878641
 30
0.0
 10
14.4649044701
 20
8.9871258899
 30
0.0
 10
14.4658652387
 20
8.9858168117
 30
0.0
 10
14.4668039797
 20
8.984362215
 30
0.0
 10
14.467719592
 20
8.9827637691
 30
0.0
 10
14.4686111257
 20
8.9810234093
 30
0.0
 10
14.4694774842
 20
8.9791431906
 30
0.0
 10
14.4703176329
 20
8.9771253846
 30
0.0
 10
14.4711305897
 20
8.9749724487
 30
0.0
 10
14.4719152837
 20
8.9726869958
 30
0.0
 10
14.4726708113
 20
8.9702718462
 30
0.0
 10
14.4733961985
 20
8.9677299596
 30
0.0
 10
14.4743400889
 20
8.9641062143
 30
0.0
 10
14.4754308534
 20
8.9592796253
 30
0.0
 10
14.476582845
 20
8.9531424299
 30
0.0
 10
14.4775957647
 20
8.9465840897
 30
0.0
 10
14.4784644484
 20
8.9396371175
 30
0.0
 10
14.4791844356
 20
8.9323358967
 30
0.0
 10
14.4797520406
 20
8.9247166773
 30
0.0
 10
14.480164348
 20
8.9168173147
 30
0.0
 10
14.4804192321
 20
8.9086770864
 30
0.0
 10
14.4805153613
 20
8.9003364883
 30
0.0
 10
14.4804522129
 20
8.8918370305
 30
0.0
 10
14.4802300739
 20
8.8832210251
 30
0.0
 10
14.4798500295
 20
8.8745313675
 30
0.0
 10
14.4793139581
 20
8.8658113232
 30
0.0
 10
14.4786245207
 20
8.8571043149
 30
0.0
 10
14.4777851559
 20
8.8484536775
 30
0.0
 10
14.4768000508
 20
8.8399025501
 30
0.0
 10
14.4756741558
 20
8.8314933283
 30
0.0
 10
14.474413073
 20
8.8232681101
 30
0.0
 10
14.4734735432
 20
8.8178600412
 30
0.0
 10
14.4729811658
 20
8.8151944997
 30
0.0
  0
SPLINE
  5
358
100
AcDbEntity
  8
0
100
AcDbSpline
 62
7
  6
CONTINUOUS
 70
0
 71
3
 72
39
 73
35
 74
0
 42
0.0000001
 43
0.0000001
 44
0.0000000001
 40
0.0
 40
0.0
 40
0.0
 40
0.0
 40
0.0299424689
 40
0.059909316
 40
0.0899243238
 40
0.120010106
 40
0.150187569
 40
0.1804754262
 40
0.2108897768
 40
0.2414437599
 40
0.2721472906
 40
0.3030068794
 40
0.3340255372
 40
0.3652027613
 40
0.3965346002
 40
0.4280137884
 40
0.4596299473
 40
0.4913698423
 40
0.5232176895
 40
0.5551555049
 40
0.5871634868
 40
0.6192204263
 40
0.6513041383
 40
0.683391905
 40
0.7154609283
 40
0.7474887827
 40
0.7794538622
 40
0.8113358179
 40
0.8431159726
 40
0.8747777271
 40
0.9063068788
 40
0.9376920781
 40
0.9689247389
 40
1.0
 40
1.0
 40
1.0
 40
1.0
 10
7.729354209
 20
9.1762847958
 30
0.0
 10
7.7244436647
 20
9.1715416032
 30
0.0
 10
7.7142364041
 20
9.1624380665
 30
0.0
 10
7.6978828396
 20
9.1500360812
 30
0.0
 10
7.6805701389
 20
9.1389495349
 30
0.0
 10
7.6623950505
 20
9.1292406062
 30
0.0
 10
7.6434574957
 20
9.1209623411
 30
0.0
 10
7.6238619891
 20
9.1141602442
 30
0.0
 10
7.6037165131
 20
9.1088715332
 30
0.0
 10
7.5831320547
 20
9.1051250821
 30
0.0
 10
7.5622219479
 20
9.1029412409
 30
0.0
 10
7.5411012565
 20
9.1023317501
 30
0.0
 10
7.5198861387
 20
9.1032996884
 30
0.0
 10
7.498693212
 20
9.1058394707
 30
0.0
 10
7.4776389183
 20
9.1099368906
 30
0.0
 10
7.4568388915
 20
9.1155692086
 30
0.0
 10
7.4364073306
 20
9.1227052836
 30
0.0
 10
7.4164563822
 20
9.13130575
 30
0.0
 10
7.3970955332
 20
9.1413232358
 30
0.0
 10
7.3784310184
 20
9.1527026245
 30
0.0
 10
7.3605652457
 20
9.1653813572
 30
0.0
 10
7.3435962407
 20
9.1792897743
 30
0.0
 10
7.3276171159
 20
9.1943514953
 30
0.0
 10
7.3127155649
 20
9.2104838345
 30
0.0
 10
7.2989733867
 20
9.2275982504
 30
0.0
 10
7.286466041
 20
9.2456008271
 30
0.0
 10
7.2752622369
 20
9.264392783
 30
0.0
 10
7.2654235611
 20
9.28387101
 30
0.0
 10
7.2570041342
 20
9.3039286194
 30
0.0
 10
7.2500503333
 20
9.3244555677
 30
0.0
 10
7.2446004915
 20
9.3453390822
 30
0.0
 10
7.2406847783
 20
9.3664649041
 30
0.0
 10
7.2383248665
 20
9.3877154936
 30
0.0
 10
7.2377962979
 20
9.4019279124
 30
0.0
 10
7.2377962979
 20
9.4090134513
 30
0.0
  0
SPLINE
  5
359
100
AcDbEntity
  8
0
100
AcDbSpline
 62
7
  6
CONTINUOUS
 70
0
 71
3
 72
39
 73
35
 74
0
 42
0.0000001
 43
0.0000001
 44
0.0000000001
 40
0.0
 40
0.0
 40
0.0
 40
0.0
 40
0.0299424689
 40
0.059909316
 40
0.0899243238
 40
0.120010106
 40
0.150187569
 40
0.1804754262
 40
0.2108897768
 40
0.2414437599
 40
0.2721472906
 40
0.3030068794
 40
0.3340255372
 40
0.3652027613
 40
0.3965346002
 40
0.4280137884
 40
0.4596299473
 40
0.4913698423
 40
0.5232176895
 40
0.5551555049
 40
0.5871634868
 40
0.6192204263
 40
0.6513041383
 40
0.683391905
 40
0.7154609283
 40
0.7474887827
 40
0.7794538622
 40
0.8113358179
 40
0.8431159726
 40
0.8747777271
 40
0.9063068788
 40
0.9376920781
 40
0.9689247389
 40
1.0
 40
1.0
 40
1.0
 40
1.0
 10
10.8087260058
 20
8.9627296364
 30
0.0
 10
10.8038154615
 20
8.9579864437
 30
0.0
 10
10.7936082009
 20
8.948882907
 30
0.0
 10
10.7772546364
 20
8.9364809218
 30
0.0
 10
10.7599419357
 20
8.9253943755
 30
0.0
 10
10.7417668473
 20
8.9156854468
 30
0.0
 10
10.7228292925
 20
8.9074071816
 30
0.0
 10
10.703233786
 20
8.9006050848
 30
0.0
 10
10.68308831
 20
8.8953163738
 30
0.0
 10
10.6625038515
 20
8.8915699226
 30
0.0
 10
10.6415937447
 20
8.8893860815
 30
0.0
 10
10.6204730533
 20
8.8887765907
 30
0.0
 10
10.5992579355
 20
8.889744529
 30
0.0
 10
10.5780650088
 20
8.8922843112
 30
0.0
 10
10.5570107152
 20
8.8963817312
 30
0.0
 10
10.5362106883
 20
8.9020140491
 30
0.0
 10
10.5157791274
 20
8.9091501242
 30
0.0
 10
10.495828179
 20
8.9177505905
 30
0.0
 10
10.47646733
 20
8.9277680763
 30
0.0
 10
10.4578028153
 20
8.939147465
 30
0.0
 10
10.4399370425
 20
8.9518261977
 30
0.0
 10
10.4229680376
 20
8.9657346149
 30
0.0
 10
10.4069889127
 20
8.9807963358
 30
0.0
 10
10.3920873617
 20
8.996928675
 30
0.0
 10
10.3783451835
 20
9.0140430909
 30
0.0
 10
10.3658378378
 20
9.0320456677
 30
0.0
 10
10.3546340337
 20
9.0508376236
 30
0.0
 10
10.3447953579
 20
9.0703158506
 30
0.0
 10
10.3363759311
 20
9.09037346
 30
0.0
 10
10.3294221301
 20
9.1109004083
 30
0.0
 10
10.3239722883
 20
9.1317839228
 30
0.0
 10
10.3200565752
 20
9.1529097446
 30
0.0
 10
10.3176966634
 20
9.1741603342
 30
0.0
 10
10.3171680947
 20
9.1883727529
 30
0.0
 10
10.3171680947
 20
9.1954582918
 30
0.0
  0
SPLINE
  5
35A
100
AcDbEntity
  8
0
100
AcDbSpline
 62
7
  6
CONTINUOUS
 70
0
 71
3
 72
39
 73
35
 74
0
 42
0.0000001
 43
0.0000001
 44
0.0000000001
 40
0.0
 40
0.0
 40
0.0
 40
0.0
 40
0.0309583214
 40
0.0620642095
 40
0.0933085438
 40
0.1246880012
 40
0.1561925852
 40
0.1878112271
 40
0.2195308194
 40
0.2513363965
 40
0.2832115798
 40
0.3151387706
 40
0.3470995025
 40
0.3790747541
 40
0.4110452494
 40
0.4429917815
 40
0.4748955586
 40
0.5067385209
 40
0.5385036325
 40
0.5701751761
 40
0.6017390593
 40
0.6331830705
 40
0.6644970961
 40
0.6956733191
 40
0.7267064168
 40
0.7575936871
 40
0.7883351186
 40
0.8189334211
 40
0.8493940373
 40
0.8797250768
 40
0.9099371788
 40
0.9400433231
 40
0.9700586129
 40
1.0
 40
1.0
 40
1.0
 40
1.0
 10
8.9718512218
 20
8.1145746494
 30
0.0
 10
8.9718512218
 20
8.1117538627
 30
0.0
 10
8.9720449528
 20
8.1060970023
 30
0.0
 10
8.9729102118
 20
8.0976331434
 30
0.0
 10
8.9743470692
 20
8.0892081251
 30
0.0
 10
8.9763484289
 20
8.0808619272
 30
0.0
 10
8.9789051564
 20
8.0726331076
 30
0.0
 10
8.9820051947
 20
8.0645600776
 30
0.0
 10
8.985634045
 20
8.0566803817
 30
0.0
 10
8.9897747905
 20
8.0490306993
 30
0.0
 10
8.9944081519
 20
8.0416466539
 30
0.0
 10
8.9995125248
 20
8.0345626089
 30
0.0
 10
9.0050641045
 20
8.0278115165
 30
0.0
 10
9.0110370411
 20
8.0214247981
 30
0.0
 10
9.0174035526
 20
8.0154322104
 30
0.0
 10
9.0241340032
 20
8.0098616629
 30
0.0
 10
9.0311970409
 20
8.00473907
 30
0.0
 10
9.0385597961
 20
8.0000882938
 30
0.0
 10
9.0461880178
 20
7.9959310352
 30
0.0
 10
9.0540462097
 20
7.9922867053
 30
0.0
 10
9.0620977752
 20
7.9891722744
 30
0.0
 10
9.0703052349
 20
7.9866022868
 30
0.0
 10
9.0786303821
 20
7.9845887845
 30
0.0
 10
9.0870344507
 20
7.983141246
 30
0.0
 10
9.0954782811
 20
7.9822664403
 30
0.0
 10
9.1039225288
 20
7.9819685047
 30
0.0
 10
9.1123278336
 20
7.9822489149
 30
0.0
 10
9.1206549928
 20
7.9831064874
 30
0.0
 10
9.1288651535
 20
7.9845372618
 30
0.0
 10
9.1369200102
 20
7.9865346255
 30
0.0
 10
9.1447819173
 20
7.9890893141
 30
0.0
 10
9.1524142627
 20
7.9921895897
 30
0.0
 10
9.1597808921
 20
7.9958207144
 30
0.0
 10
9.1644979488
 20
7.9985876429
 30
0.0
 10
9.16679924
 20
8.0000528192
 30
0.0
  0
SPLINE
  5
35B
100
AcDbEntity
  8
0
100
AcDbSpline
 62
7
  6
CONTINUOUS
 70
0
 71
3
 72
16
 73
12
 74
0
 42
0.0000001
 43
0.0000001
 44
0.0000000001
 40
0.0
 40
0.0
 40
0.0
 40
0.0
 40
0.1269618978
 40
0.2532967102
 40
0.3790091979
 40
0.5041438901
 40
0.5665183155
 40
0.628765968
 40
0.752890273
 40
0.8766086731
 40
1.0
 40
1.0
 40
1.0
 40
1.0
 10
8.9718512218
 20
8.1145746494
 30
0.0
 10
8.9718512218
 20
8.1175673735
 30
0.0
 10
8.9720682393
 20
8.1235403832
 30
0.0
 10
8.9730486965
 20
8.1324282191
 30
0.0
 10
8.9746783969
 20
8.1411767559
 30
0.0
 10
8.9765725441
 20
8.1483207021
 30
0.0
 10
8.9784025531
 20
8.1539175777
 30
0.0
 10
8.9804354551
 20
8.1594185684
 30
0.0
 10
8.9833600361
 20
8.1661259616
 30
0.0
 10
8.9874668558
 20
8.1738621768
 30
0.0
 10
8.9905910078
 20
8.1787865316
 30
0.0
 10
8.9922434217
 20
8.1811801157
 30
0.0
  0
SPLINE
  5
35C
100
AcDbEntity
  8
0
100
AcDbSpline
 62
7
  6
CONTINUOUS
 70
0
 71
3
 72
39
 73
35
 74
0
 42
0.0000001
 43
0.0000001
 44
0.0000000001
 40
0.0
 40
0.0
 40
0.0
 40
0.0
 40
0.0299424689
 40
0.059909316
 40
0.0899243238
 40
0.120010106
 40
0.150187569
 40
0.1804754262
 40
0.2108897768
 40
0.2414437599
 40
0.2721472906
 40
0.3030068794
 40
0.3340255372
 40
0.3652027613
 40
0.3965346002
 40
0.4280137884
 40
0.4596299473
 40
0.4913698423
 40
0.5232176895
 40
0.5551555049
 40
0.5871634868
 40
0.6192204263
 40
0.6513041383
 40
0.683391905
 40
0.7154609283
 40
0.7474887827
 40
0.7794538622
 40
0.8113358179
 40
0.8431159726
 40
0.8747777271
 40
0.9063068788
 40
0.9376920781
 40
0.9689247389
 40
1.0
 40
1.0
 40
1.0
 40
1.0
 10
10.8087260058
 20
6.5479149276
 30
0.0
 10
10.8038154615
 20
6.5431717349
 30
0.0
 10
10.7936082009
 20
6.5340681982
 30
0.0
 10
10.7772546364
 20
6.521666213
 30
0.0
 10
10.7599419357
 20
6.5105796667
 30
0.0
 10
10.7417668473
 20
6.500870738
 30
0.0
 10
10.7228292925
 20
6.4925924728
 30
0.0
 10
10.703233786
 20
6.485790376
 30
0.0
 10
10.68308831
 20
6.480501665
 30
0.0
 10
10.6625038515
 20
6.4767552138
 30
0.0
 10
10.6415937447
 20
6.4745713727
 30
0.0
 10
10.6204730533
 20
6.4739618819
 30
0.0
 10
10.5992579355
 20
6.4749298201
 30
0.0
 10
10.5780650088
 20
6.4774696024
 30
0.0
 10
10.5570107152
 20
6.4815670224
 30
0.0
 10
10.5362106883
 20
6.4871993403
 30
0.0
 10
10.5157791274
 20
6.4943354154
 30
0.0
 10
10.495828179
 20
6.5029358817
 30
0.0
 10
10.47646733
 20
6.5129533675
 30
0.0
 10
10.4578028153
 20
6.5243327562
 30
0.0
 10
10.4399370425
 20
6.5370114889
 30
0.0
 10
10.4229680376
 20
6.550919906
 30
0.0
 10
10.4069889127
 20
6.565981627
 30
0.0
 10
10.3920873617
 20
6.5821139662
 30
0.0
 10
10.3783451835
 20
6.5992283821
 30
0.0
 10
10.3658378378
 20
6.6172309589
 30
0.0
 10
10.3546340337
 20
6.6360229148
 30
0.0
 10
10.3447953579
 20
6.6555011418
 30
0.0
 10
10.3363759311
 20
6.6755587512
 30
0.0
 10
10.3294221301
 20
6.6960856995
 30
0.0
 10
10.3239722883
 20
6.716969214
 30
0.0
 10
10.3200565752
 20
6.7380950358
 30
0.0
 10
10.3176966634
 20
6.7593456254
 30
0.0
 10
10.3171680947
 20
6.7735580441
 30
0.0
 10
10.3171680947
 20
6.780643583
 30
0.0
  0
SPLINE
  5
35D
100
AcDbEntity
  8
0
100
AcDbSpline
 62
7
  6
CONTINUOUS
 70
0
 71
3
 72
39
 73
35
 74
0
 42
0.0000001
 43
0.0000001
 44
0.0000000001
 40
0.0
 40
0.0
 40
0.0
 40
0.0
 40
0.0299424689
 40
0.059909316
 40
0.0899243238
 40
0.120010106
 40
0.150187569
 40
0.1804754262
 40
0.2108897768
 40
0.2414437599
 40
0.2721472906
 40
0.3030068794
 40
0.3340255372
 40
0.3652027613
 40
0.3965346002
 40
0.4280137884
 40
0.4596299473
 40
0.4913698423
 40
0.5232176895
 40
0.5551555049
 40
0.5871634868
 40
0.6192204263
 40
0.6513041383
 40
0.683391905
 40
0.7154609283
 40
0.7474887827
 40
0.7794538622
 40
0.8113358179
 40
0.8431159726
 40
0.8747777271
 40
0.9063068788
 40
0.9376920781
 40
0.9689247389
 40
1.0
 40
1.0
 40
1.0
 40
1.0
 10
7.729354209
 20
6.761470087
 30
0.0
 10
7.7244436647
 20
6.7567268944
 30
0.0
 10
7.7142364041
 20
6.7476233576
 30
0.0
 10
7.6978828396
 20
6.7352213724
 30
0.0
 10
7.6805701389
 20
6.7241348261
 30
0.0
 10
7.6623950505
 20
6.7144258974
 30
0.0
 10
7.6434574957
 20
6.7061476323
 30
0.0
 10
7.6238619891
 20
6.6993455354
 30
0.0
 10
7.6037165131
 20
6.6940568244
 30
0.0
 10
7.5831320547
 20
6.6903103733
 30
0.0
 10
7.5622219479
 20
6.6881265321
 30
0.0
 10
7.5411012565
 20
6.6875170413
 30
0.0
 10
7.5198861387
 20
6.6884849796
 30
0.0
 10
7.498693212
 20
6.6910247619
 30
0.0
 10
7.4776389183
 20
6.6951221818
 30
0.0
 10
7.4568388915
 20
6.7007544998
 30
0.0
 10
7.4364073306
 20
6.7078905748
 30
0.0
 10
7.4164563822
 20
6.7164910412
 30
0.0
 10
7.3970955332
 20
6.726508527
 30
0.0
 10
7.3784310184
 20
6.7378879157
 30
0.0
 10
7.3605652457
 20
6.7505666484
 30
0.0
 10
7.3435962407
 20
6.7644750655
 30
0.0
 10
7.3276171159
 20
6.7795367865
 30
0.0
 10
7.3127155649
 20
6.7956691257
 30
0.0
 10
7.2989733867
 20
6.8127835416
 30
0.0
 10
7.286466041
 20
6.8307861183
 30
0.0
 10
7.2752622369
 20
6.8495780742
 30
0.0
 10
7.2654235611
 20
6.8690563012
 30
0.0
 10
7.2570041342
 20
6.8891139106
 30
0.0
 10
7.2500503333
 20
6.9096408589
 30
0.0
 10
7.2446004915
 20
6.9305243734
 30
0.0
 10
7.2406847783
 20
6.9516501953
 30
0.0
 10
7.2383248665
 20
6.9729007848
 30
0.0
 10
7.2377962979
 20
6.9871132036
 30
0.0
 10
7.2377962979
 20
6.9941987425
 30
0.0
  0
SPLINE
  5
35E
100
AcDbEntity
  8
0
100
AcDbSpline
 62
7
  6
CONTINUOUS
 70
0
 71
3
 72
39
 73
35
 74
0
 42
0.0000001
 43
0.0000001
 44
0.0000000001
 40
0.0
 40
0.0
 40
0.0
 40
0.0
 40
0.0308169995
 40
0.0617674182
 40
0.0928422046
 40
0.1240400473
 40
0.1553536841
 40
0.1867746668
 40
0.2182934461
 40
0.2498988089
 40
0.2815783903
 40
0.3133188287
 40
0.3451058958
 40
0.3769247156
 40
0.4087600001
 40
0.4405962318
 40
0.4724178615
 40
0.5042095579
 40
0.535956404
 40
0.5676440749
 40
0.5992590737
 40
0.6307889251
 40
0.6622223214
 40
0.6935493131
 40
0.7247614864
 40
0.7558520629
 40
0.7868160146
 40
0.8176502008
 40
0.8483534108
 40
0.8789263823
 40
0.9093718573
 40
0.9396945618
 40
0.9699011219
 40
1.0
 40
1.0
 40
1.0
 40
1.0
 10
8.1204049187
 20
9.4644576327
 30
0.0
 10
8.1204049187
 20
9.4613645249
 30
0.0
 10
8.1205960011
 20
9.4551632784
 30
0.0
 10
8.1214500704
 20
9.4458784536
 30
0.0
 10
8.1228693174
 20
9.4366241054
 30
0.0
 10
8.1248480649
 20
9.4274359268
 30
0.0
 10
8.1273789316
 20
9.4183482144
 30
0.0
 10
8.1304522698
 20
9.4093953402
 30
0.0
 10
8.1340564562
 20
9.4006110655
 30
0.0
 10
8.1381779289
 20
9.3920285363
 30
0.0
 10
8.1428010361
 20
9.3836800868
 30
0.0
 10
8.1479083256
 20
9.3755971923
 30
0.0
 10
8.1534805874
 20
9.3678103774
 30
0.0
 10
8.1594967418
 20
9.3603489743
 30
0.0
 10
8.1659340685
 20
9.3532410949
 30
0.0
 10
8.1727683358
 20
9.346513589
 30
0.0
 10
8.1799737683
 20
9.3401918396
 30
0.0
 10
8.1875231486
 20
9.3342996425
 30
0.0
 10
8.195388031
 20
9.3288592499
 30
0.0
 10
8.2035387937
 20
9.3238912537
 30
0.0
 10
8.2119446585
 20
9.3194143454
 30
0.0
 10
8.2205739297
 20
9.3154454241
 30
0.0
 10
8.2293940982
 20
9.3119995649
 30
0.0
 10
8.2383718808
 20
9.3090897685
 30
0.0
 10
8.2474734028
 20
9.3067270031
 30
0.0
 10
8.2566643453
 20
9.3049202784
 30
0.0
 10
8.2659100295
 20
9.3036764936
 30
0.0
 10
8.2751755509
 20
9.3030003146
 30
0.0
 10
8.2844259376
 20
9.3028943589
 30
0.0
 10
8.2936262656
 20
9.3033591671
 30
0.0
 10
8.3027417481
 20
9.3043929553
 30
0.0
 10
8.3117380791
 20
9.3059918943
 30
0.0
 10
8.3205807758
 20
9.3081499044
 30
0.0
 10
8.3263620193
 20
9.309959324
 30
0.0
 10
8.3292145555
 20
9.3109541397
 30
0.0
  0
SPLINE
  5
35F
100
AcDbEntity
  8
0
100
AcDbSpline
 62
7
  6
CONTINUOUS
 70
0
 71
3
 72
11
 73
7
 74
0
 42
0.0000001
 43
0.0000001
 44
0.0000000001
 40
0.0
 40
0.0
 40
0.0
 40
0.0
 40
0.2522450887
 40
0.5029322618
 40
0.7521421404
 40
1.0
 40
1.0
 40
1.0
 40
1.0
 10
8.1204049187
 20
9.4644576327
 30
0.0
 10
8.1204049187
 20
9.4689767222
 30
0.0
 10
8.1208107643
 20
9.4779924461
 30
0.0
 10
8.1226460309
 20
9.4913604255
 30
0.0
 10
8.1256907006
 20
9.5044253561
 30
0.0
 10
8.1285188761
 20
9.5128859018
 30
0.0
 10
8.1301246332
 20
9.5170258894
 30
0.0
  0
SPLINE
  5
360
100
AcDbEntity
  8
0
100
AcDbSpline
 62
7
  6
CONTINUOUS
 70
0
 71
3
 72
39
 73
35
 74
0
 42
0.0000001
 43
0.0000001
 44
0.0000000001
 40
0.0
 40
0.0
 40
0.0
 40
0.0
 40
0.0308169995
 40
0.0617674182
 40
0.0928422046
 40
0.1240400473
 40
0.1553536841
 40
0.1867746668
 40
0.2182934461
 40
0.2498988089
 40
0.2815783903
 40
0.3133188287
 40
0.3451058958
 40
0.3769247156
 40
0.4087600001
 40
0.4405962318
 40
0.4724178615
 40
0.5042095579
 40
0.535956404
 40
0.5676440749
 40
0.5992590737
 40
0.6307889251
 40
0.6622223214
 40
0.6935493131
 40
0.7247614864
 40
0.7558520629
 40
0.7868160146
 40
0.8176502008
 40
0.8483534108
 40
0.8789263823
 40
0.9093718573
 40
0.9396945618
 40
0.9699011219
 40
1.0
 40
1.0
 40
1.0
 40
1.0
 10
9.8706625395
 20
6.8664428214
 30
0.0
 10
9.8706625395
 20
6.8633497135
 30
0.0
 10
9.8708536219
 20
6.8571484671
 30
0.0
 10
9.8717076912
 20
6.8478636423
 30
0.0
 10
9.8731269382
 20
6.8386092941
 30
0.0
 10
9.8751056857
 20
6.8294211154
 30
0.0
 10
9.8776365524
 20
6.8203334031
 30
0.0
 10
9.8807098906
 20
6.8113805288
 30
0.0
 10
9.884314077
 20
6.8025962542
 30
0.0
 10
9.8884355497
 20
6.794013725
 30
0.0
 10
9.8930586569
 20
6.7856652755
 30
0.0
 10
9.8981659464
 20
6.777582381
 30
0.0
 10
9.9037382082
 20
6.7697955661
 30
0.0
 10
9.9097543626
 20
6.7623341629
 30
0.0
 10
9.9161916893
 20
6.7552262835
 30
0.0
 10
9.9230259566
 20
6.7484987776
 30
0.0
 10
9.9302313891
 20
6.7421770283
 30
0.0
 10
9.9377807694
 20
6.7362848312
 30
0.0
 10
9.9456456518
 20
6.7308444386
 30
0.0
 10
9.9537964145
 20
6.7258764423
 30
0.0
 10
9.9622022793
 20
6.721399534
 30
0.0
 10
9.9708315505
 20
6.7174306128
 30
0.0
 10
9.979651719
 20
6.7139847536
 30
0.0
 10
9.9886295016
 20
6.7110749572
 30
0.0
 10
9.9977310236
 20
6.7087121918
 30
0.0
 10
10.0069219661
 20
6.706905467
 30
0.0
 10
10.0161676503
 20
6.7056616822
 30
0.0
 10
10.0254331717
 20
6.7049855032
 30
0.0
 10
10.0346835584
 20
6.7048795476
 30
0.0
 10
10.0438838864
 20
6.7053443558
 30
0.0
 10
10.0529993689
 20
6.7063781439
 30
0.0
 10
10.0619956999
 20
6.707977083
 30
0.0
 10
10.0708383966
 20
6.7101350931
 30
0.0
 10
10.0766196401
 20
6.7119445127
 30
0.0
 10
10.0794721763
 20
6.7129393284
 30
0.0
  0
SPLINE
  5
361
100
AcDbEntity
  8
0
100
AcDbSpline
 62
7
  6
CONTINUOUS
 70
0
 71
3
 72
11
 73
7
 74
0
 42
0.0000001
 43
0.0000001
 44
0.0000000001
 40
0.0
 40
0.0
 40
0.0
 40
0.0
 40
0.2522450887
 40
0.5029322618
 40
0.7521421404
 40
1.0
 40
1.0
 40
1.0
 40
1.0
 10
9.8706625395
 20
6.8664428214
 30
0.0
 10
9.8706625395
 20
6.8709619109
 30
0.0
 10
9.8710683851
 20
6.8799776348
 30
0.0
 10
9.8729036517
 20
6.8933456142
 30
0.0
 10
9.8759483214
 20
6.9064105448
 30
0.0
 10
9.8787764969
 20
6.9148710905
 30
0.0
 10
9.880382254
 20
6.9190110781
 30
0.0
  0
SPLINE
  5
362
100
AcDbEntity
  8
0
100
AcDbSpline
 62
7
  6
CONTINUOUS
 70
0
 71
3
 72
47
 73
43
 74
0
 42
0.0000001
 43
0.0000001
 44
0.0000000001
 40
0.0
 40
0.0
 40
0.0
 40
0.0
 40
0.0325406479
 40
0.0650286644
 40
0.0974473616
 40
0.1297825753
 40
0.1620224566
 40
0.1941572503
 40
0.2261790846
 40
0.2580817886
 40
0.289860745
 40
0.3215127816
 40
0.3530360825
 40
0.3844301489
 40
0.415695811
 40
0.4468352822
 40
0.4778522526
 40
0.5087520188
 40
0.5395416457
 40
0.5702301611
 40
0.6008287938
 40
0.6313512147
 40
0.6618137634
 40
0.6922356248
 40
0.7226389102
 40
0.7530485781
 40
0.7682677458
 40
0.7834990983
 40
0.7987463872
 40
0.8140133418
 40
0.8293038636
 40
0.8446216126
 40
0.8599704136
 40
0.8753537255
 40
0.8907749816
 40
0.906237246
 40
0.9217433452
 40
0.9372957884
 40
0.9528961693
 40
0.968546357
 40
0.9842485353
 40
1.0
 40
1.0
 40
1.0
 40
1.0
 10
8.889771731
 20
7.076000349
 30
0.0
 10
8.8856353241
 20
7.0812793994
 30
0.0
 10
8.8777251068
 20
7.0921131179
 30
0.0
 10
8.8669691703
 20
7.1090897299
 30
0.0
 10
8.8573437636
 20
7.1266839294
 30
0.0
 10
8.8488605051
 20
7.1447989851
 30
0.0
 10
8.8415257644
 20
7.1633453512
 30
0.0
 10
8.8353431341
 20
7.1822385418
 30
0.0
 10
8.8303141251
 20
7.20139884
 30
0.0
 10
8.8264390492
 20
7.2207504178
 30
0.0
 10
8.8237176012
 20
7.2402205648
 30
0.0
 10
8.822149309
 20
7.2597388655
 30
0.0
 10
8.8217338289
 20
7.279236384
 30
0.0
 10
8.8224711114
 20
7.2986448517
 30
0.0
 10
8.8243614462
 20
7.3178958675
 30
0.0
 10
8.8274053903
 20
7.3369201065
 30
0.0
 10
8.8316035748
 20
7.3556465353
 30
0.0
 10
8.8369563794
 20
7.3740016357
 30
0.0
 10
8.8434634526
 20
7.3919086443
 30
0.0
 10
8.8511230578
 20
7.4092868326
 30
0.0
 10
8.8599312084
 20
7.4260508491
 30
0.0
 10
8.8698805998
 20
7.4421101905
 30
0.0
 10
8.8809591636
 20
7.4573687679
 30
0.0
 10
8.8931487406
 20
7.4717250202
 30
0.0
 10
8.90642194
 20
7.4850713476
 30
0.0
 10
8.9183549881
 20
7.4952582434
 30
0.0
 10
8.9283926706
 20
7.5027852411
 30
0.0
 10
8.9361651385
 20
7.5081096836
 30
0.0
 10
8.9441700347
 20
7.5130963627
 30
0.0
 10
8.9523977223
 20
7.5177313555
 30
0.0
 10
8.9608374119
 20
7.5220004918
 30
0.0
 10
8.9694770148
 20
7.5258904934
 30
0.0
 10
8.9783034267
 20
7.5293881366
 30
0.0
 10
8.9873021931
 20
7.5324813634
 30
0.0
 10
8.9964577729
 20
7.535158672
 30
0.0
 10
9.0057534632
 20
7.5374096961
 30
0.0
 10
9.0151714653
 20
7.539225436
 30
0.0
 10
9.0246930075
 20
7.5405977958
 30
0.0
 10
9.0342983884
 20
7.5415208252
 30
0.0
 10
9.0439675867
 20
7.5419896042
 30
0.0
 10
9.0536790394
 20
7.5420010502
 30
0.0
 10
9.0601575845
 20
7.5417037163
 30
0.0
 10
9.0633961606
 20
7.5414791203
 30
0.0
  0
SPLINE
  5
363
100
AcDbEntity
  8
0
100
AcDbSpline
 62
7
  6
CONTINUOUS
 70
0
 71
3
 72
39
 73
35
 74
0
 42
0.0000001
 43
0.0000001
 44
0.0000000001
 40
0.0
 40
0.0
 40
0.0
 40
0.0
 40
0.0299424689
 40
0.059909316
 40
0.0899243238
 40
0.120010106
 40
0.150187569
 40
0.1804754262
 40
0.2108897768
 40
0.2414437599
 40
0.2721472906
 40
0.3030068794
 40
0.3340255372
 40
0.3652027613
 40
0.3965346002
 40
0.4280137884
 40
0.4596299473
 40
0.4913698423
 40
0.5232176895
 40
0.5551555049
 40
0.5871634868
 40
0.6192204263
 40
0.6513041383
 40
0.683391905
 40
0.7154609283
 40
0.7474887827
 40
0.7794538622
 40
0.8113358179
 40
0.8431159726
 40
0.8747777271
 40
0.9063068788
 40
0.9376920781
 40
0.9689247389
 40
1.0
 40
1.0
 40
1.0
 40
1.0
 10
9.2690400498
 20
8.6773412939
 30
0.0
 10
9.2641295056
 20
8.6725981012
 30
0.0
 10
9.2539222449
 20
8.6634945645
 30
0.0
 10
9.2375686804
 20
8.6510925793
 30
0.0
 10
9.2202559797
 20
8.640006033
 30
0.0
 10
9.2020808913
 20
8.6302971043
 30
0.0
 10
9.1831433365
 20
8.6220188391
 30
0.0
 10
9.16354783
 20
8.6152167423
 30
0.0
 10
9.143402354
 20
8.6099280313
 30
0.0
 10
9.1228178956
 20
8.6061815801
 30
0.0
 10
9.1019077887
 20
8.603997739
 30
0.0
 10
9.0807870974
 20
8.6033882482
 30
0.0
 10
9.0595719795
 20
8.6043561865
 30
0.0
 10
9.0383790529
 20
8.6068959687
 30
0.0
 10
9.0173247592
 20
8.6109933887
 30
0.0
 10
8.9965247323
 20
8.6166257066
 30
0.0
 10
8.9760931714
 20
8.6237617817
 30
0.0
 10
8.956142223
 20
8.632362248
 30
0.0
 10
8.936781374
 20
8.6423797338
 30
0.0
 10
8.9181168593
 20
8.6537591225
 30
0.0
 10
8.9002510865
 20
8.6664378552
 30
0.0
 10
8.8832820816
 20
8.6803462724
 30
0.0
 10
8.8673029567
 20
8.6954079933
 30
0.0
 10
8.8524014058
 20
8.7115403325
 30
0.0
 10
8.8386592275
 20
8.7286547484
 30
0.0
 10
8.8261518818
 20
8.7466573252
 30
0.0
 10
8.8149480777
 20
8.7654492811
 30
0.0
 10
8.8051094019
 20
8.7849275081
 30
0.0
 10
8.7966899751
 20
8.8049851175
 30
0.0
 10
8.7897361741
 20
8.8255120658
 30
0.0
 10
8.7842863324
 20
8.8463955803
 30
0.0
 10
8.7803706192
 20
8.8675214021
 30
0.0
 10
8.7780107074
 20
8.8887719917
 30
0.0
 10
8.7774821388
 20
8.9029844104
 30
0.0
 10
8.7774821388
 20
8.9100699493
 30
0.0
  0
SPLINE
  5
364
100
AcDbEntity
  8
0
100
AcDbSpline
 62
7
  6
CONTINUOUS
 70
0
 71
3
 72
44
 73
40
 74
0
 42
0.0000001
 43
0.0000001
 44
0.0000000001
 40
0.0
 40
0.0
 40
0.0
 40
0.0
 40
0.0324530878
 40
0.0648239347
 40
0.0971057943
 40
0.1292933855
 40
0.193350273
 40
0.2252336563
 40
0.2570113072
 40
0.3202267491
 40
0.3516830499
 40
0.383032782
 40
0.4142771783
 40
0.4454182233
 40
0.4764587564
 40
0.5074024849
 40
0.5382542766
 40
0.5690204444
 40
0.5997090224
 40
0.630330059
 40
0.6608959666
 40
0.6914219776
 40
0.7219265226
 40
0.7524315119
 40
0.7829624308
 40
0.7982500876
 40
0.8135554515
 40
0.8288825466
 40
0.8442353923
 40
0.8596182404
 40
0.8750350045
 40
0.8904897995
 40
0.9059862114
 40
0.9215277651
 40
0.9371175904
 40
0.9527578418
 40
0.9684507522
 40
0.9841989949
 40
1.0
 40
1.0
 40
1.0
 40
1.0
 10
9.5567838519
 20
7.8693279211
 30
0.0
 10
9.5538038109
 20
7.8751367223
 30
0.0
 10
9.5481743097
 20
7.8869084277
 30
0.0
 10
9.5407088851
 20
7.9049698407
 30
0.0
 10
9.5342209576
 20
7.9233491871
 30
0.0
 10
9.5268746698
 20
7.9481482053
 30
0.0
 10
9.5214246991
 20
7.9733928323
 30
0.0
 10
9.5178662834
 20
7.9988465928
 30
0.0
 10
9.5155689128
 20
8.0242749979
 30
0.0
 10
9.5151318427
 20
8.0497576606
 30
0.0
 10
9.5165718056
 20
8.075076498
 30
0.0
 10
9.5185868185
 20
8.093897588
 30
0.0
 10
9.5215425233
 20
8.1125294821
 30
0.0
 10
9.5254446034
 20
8.1309233354
 30
0.0
 10
9.5303002939
 20
8.1490265498
 30
0.0
 10
9.5361182062
 20
8.1667832083
 30
0.0
 10
9.5429078812
 20
8.1841329119
 30
0.0
 10
9.5506793338
 20
8.2010099919
 30
0.0
 10
9.5594423891
 20
8.2173425373
 30
0.0
 10
9.5692057482
 20
8.233051416
 30
0.0
 10
9.5799757447
 20
8.2480493651
 30
0.0
 10
9.5917545683
 20
8.2622401583
 30
0.0
 10
9.6045384589
 20
8.2755182906
 30
0.0
 10
9.6183136928
 20
8.287768149
 30
0.0
 10
9.6305962038
 20
8.2970143553
 30
0.0
 10
9.6408769444
 20
8.3037661117
 30
0.0
 10
9.6488157745
 20
8.3084957882
 30
0.0
 10
9.6569700095
 20
8.3128713467
 30
0.0
 10
9.6653299316
 20
8.3168764433
 30
0.0
 10
9.6738842279
 20
8.3204944656
 30
0.0
 10
9.6826198329
 20
8.3237099002
 30
0.0
 10
9.6915221607
 20
8.3265074653
 30
0.0
 10
9.7005748479
 20
8.3288733998
 30
0.0
 10
9.7097599764
 20
8.3307951048
 30
0.0
 10
9.7190580816
 20
8.3322613939
 30
0.0
 10
9.7284482415
 20
8.3332635727
 30
0.0
 10
9.7379088141
 20
8.3337944144
 30
0.0
 10
9.7474162034
 20
8.3338492706
 30
0.0
 10
9.7537598781
 20
8.3335678168
 30
0.0
 10
9.7569309633
 20
8.3333479013
 30
0.0
  0
SPLINE
  5
365
100
AcDbEntity
  8
0
100
AcDbSpline
 62
7
  6
CONTINUOUS
 70
0
 71
3
 72
41
 73
37
 74
0
 42
0.0000001
 43
0.0000001
 44
0.0000000001
 40
0.0
 40
0.0
 40
0.0
 40
0.0
 40
0.0299421172
 40
0.04492376
 40
0.059914511
 40
0.089929166
 40
0.1200145972
 40
0.135093366
 40
0.1501974852
 40
0.1804849961
 40
0.2108989984
 40
0.2414526287
 40
0.272155802
 40
0.3030150309
 40
0.334033329
 40
0.3652101953
 40
0.3965416763
 40
0.4280205023
 40
0.459636293
 40
0.4913758157
 40
0.5232232898
 40
0.5551607336
 40
0.5871683456
 40
0.6192249134
 40
0.6513082489
 40
0.6833956359
 40
0.7154642792
 40
0.7474917569
 40
0.7794564628
 40
0.8113380448
 40
0.8431178358
 40
0.8747791645
 40
0.9063081103
 40
0.9376924636
 40
0.9689257188
 40
1.0
 40
1.0
 40
1.0
 40
1.0
 10
10.0274516009
 20
9.1605614542
 30
0.0
 10
10.0253281214
 20
9.1585103537
 30
0.0
 10
10.0220176998
 20
9.1555580291
 30
0.0
 10
10.0173815992
 20
9.1518947614
 30
0.0
 10
10.0125977974
 20
9.1484138686
 30
0.0
 10
10.0063557851
 20
9.1444166065
 30
0.0
 10
9.9998102705
 20
9.1409201752
 30
0.0
 10
9.9944119151
 20
9.1384328245
 30
0.0
 10
9.9889020561
 20
9.1361507872
 30
0.0
 10
9.981833147
 20
9.1336969824
 30
0.0
 10
9.973121794
 20
9.1314101046
 30
0.0
 10
9.9642203622
 20
9.1297900394
 30
0.0
 10
9.955178183
 20
9.1288457173
 30
0.0
 10
9.9460449247
 20
9.1285821777
 30
0.0
 10
9.9368708394
 20
9.1290007649
 30
0.0
 10
9.9277063496
 20
9.1300990679
 30
0.0
 10
9.9186018128
 20
9.131870954
 30
0.0
 10
9.9096072324
 20
9.1343065791
 30
0.0
 10
9.90077199
 20
9.1373924704
 30
0.0
 10
9.8921445789
 20
9.1411116023
 30
0.0
 10
9.8837723434
 20
9.1454434911
 30
0.0
 10
9.8757012231
 20
9.1503643066
 30
0.0
 10
9.8679755075
 20
9.1558470041
 30
0.0
 10
9.8606375901
 20
9.1618614628
 30
0.0
 10
9.8537277293
 20
9.1683746434
 30
0.0
 10
9.8472838427
 20
9.1753507872
 30
0.0
 10
9.8413413
 20
9.1827516058
 30
0.0
 10
9.8359327328
 20
9.1905364896
 30
0.0
 10
9.831087857
 20
9.1986627253
 30
0.0
 10
9.8268333114
 20
9.2070857308
 30
0.0
 10
9.8231925109
 20
9.2157592786
 30
0.0
 10
9.82018546
 20
9.2246357888
 30
0.0
 10
9.8178288311
 20
9.2336664542
 30
0.0
 10
9.8161354761
 20
9.2428019766
 30
0.0
 10
9.8151150439
 20
9.2519913971
 30
0.0
 10
9.81488644
 20
9.2581373265
 30
0.0
 10
9.81488644
 20
9.2612012762
 30
0.0
  0
SPLINE
  5
366
100
AcDbEntity
  8
0
100
AcDbSpline
 62
4
  6
CONTINUOUS
 70
0
 71
3
 72
211
 73
207
 74
0
 42
0.0000001
 43
0.0000001
 44
0.0000000001
 40
0.0
 40
0.0
 40
0.0
 40
0.0
 40
0.015625
 40
0.03125
 40
0.0390625
 40
0.046875
 40
0.05078125
 40
0.0546875
 40
0.05859375
 40
0.060546875
 40
0.0615234375
 40
0.0625
 40
0.0634765625
 40
0.064453125
 40
0.06640625
 40
0.0703125
 40
0.07421875
 40
0.078125
 40
0.0859375
 40
0.09375
 40
0.1015625
 40
0.109375
 40
0.11328125
 40
0.1171875
 40
0.12109375
 40
0.123046875
 40
0.1240234375
 40
0.125
 40
0.1259765625
 40
0.126953125
 40
0.12890625
 40
0.1328125
 40
0.13671875
 40
0.140625
 40
0.1484375
 40
0.15625
 40
0.1640625
 40
0.171875
 40
0.17578125
 40
0.1796875
 40
0.18359375
 40
0.185546875
 40
0.1865234375
 40
0.1875
 40
0.1884765625
 40
0.189453125
 40
0.19140625
 40
0.1953125
 40
0.19921875
 40
0.203125
 40
0.2109375
 40
0.21875
 40
0.2265625
 40
0.234375
 40
0.23828125
 40
0.2421875
 40
0.24609375
 40
0.248046875
 40
0.2490234375
 40
0.25
 40
0.2509765625
 40
0.251953125
 40
0.25390625
 40
0.2578125
 40
0.26171875
 40
0.265625
 40
0.2734375
 40
0.28125
 40
0.2890625
 40
0.296875
 40
0.30078125
 40
0.3046875
 40
0.30859375
 40
0.310546875
 40
0.3115234375
 40
0.3125
 40
0.3134765625
 40
0.314453125
 40
0.31640625
 40
0.3203125
 40
0.32421875
 40
0.328125
 40
0.3359375
 40
0.34375
 40
0.3515625
 40
0.359375
 40
0.36328125
 40
0.3671875
 40
0.37109375
 40
0.373046875
 40
0.375
 40
0.376953125
 40
0.37890625
 40
0.3828125
 40
0.38671875
 40
0.390625
 40
0.3984375
 40
0.40625
 40
0.4140625
 40
0.421875
 40
0.4296875
 40
0.43359375
 40
0.435546875
 40
0.4375
 40
0.439453125
 40
0.44140625
 40
0.4453125
 40
0.453125
 40
0.4609375
 40
0.46875
 40
0.484375
 40
0.4921875
 40
0.49609375
 40
0.5
 40
0.50390625
 40
0.5078125
 40
0.515625
 40
0.53125
 40
0.546875
 40
0.5546875
 40
0.55859375
 40
0.5625
 40
0.56640625
 40
0.5703125
 40
0.578125
 40
0.59375
 40
0.609375
 40
0.6171875
 40
0.62109375
 40
0.625
 40
0.62890625
 40
0.6328125
 40
0.640625
 40
0.65625
 40
0.671875
 40
0.6796875
 40
0.68359375
 40
0.685546875
 40
0.6875
 40
0.689453125
 40
0.69140625
 40
0.6953125
 40
0.703125
 40
0.71875
 40
0.7265625
 40
0.734375
 40
0.7421875
 40
0.74609375
 40
0.748046875
 40
0.75
 40
0.751953125
 40
0.75390625
 40
0.7578125
 40
0.765625
 40
0.7734375
 40
0.78125
 40
0.7890625
 40
0.796875
 40
0.80078125
 40
0.8046875
 40
0.80859375
 40
0.810546875
 40
0.8115234375
 40
0.8125
 40
0.8134765625
 40
0.814453125
 40
0.81640625
 40
0.8203125
 40
0.82421875
 40
0.828125
 40
0.8359375
 40
0.84375
 40
0.8515625
 40
0.859375
 40
0.86328125
 40
0.8671875
 40
0.87109375
 40
0.873046875
 40
0.8740234375
 40
0.875
 40
0.8759765625
 40
0.876953125
 40
0.87890625
 40
0.8828125
 40
0.88671875
 40
0.890625
 40
0.8984375
 40
0.90625
 40
0.9140625
 40
0.921875
 40
0.92578125
 40
0.9296875
 40
0.93359375
 40
0.935546875
 40
0.9365234375
 40
0.9375
 40
0.9384765625
 40
0.939453125
 40
0.94140625
 40
0.9453125
 40
0.94921875
 40
0.953125
 40
0.9609375
 40
0.96875
 40
0.984375
 40
1.0
 40
1.0
 40
1.0
 40
1.0
 10
8.7690619332
 20
10.6110655228
 30
0.0
 10
8.7693806892
 20
10.6115638659
 30
0.0
 10
8.7700181933
 20
10.6125605523
 30
0.0
 10
8.7708151128
 20
10.6138064096
 30
0.0
 10
8.7714525658
 20
10.6148030968
 30
0.0
 10
8.7718511608
 20
10.6154260231
 30
0.0
 10
8.7721696089
 20
10.6159243715
 30
0.0
 10
8.7724096165
 20
10.6162981127
 30
0.0
 10
8.7726058959
 20
10.6166096277
 30
0.0
 10
8.7727506057
 20
10.6168275625
 30
0.0
 10
8.7728218764
 20
10.616952293
 30
0.0
 10
8.7729075014
 20
10.6170452878
 30
0.0
 10
8.7728701487
 20
10.6171403967
 30
0.0
 10
8.7728632411
 20
10.6172664711
 30
0.0
 10
8.7728311668
 20
10.617487445
 30
0.0
 10
8.7727957953
 20
10.6178029422
 30
0.0
 10
8.7727488769
 20
10.6181816158
 30
0.0
 10
8.7726878819
 20
10.6186864871
 30
0.0
 10
8.7726110983
 20
10.6193175854
 30
0.0
 10
8.7725192047
 20
10.6200748999
 30
0.0
 10
8.7724271881
 20
10.6208322133
 30
0.0
 10
8.772350712
 20
10.6214633141
 30
0.0
 10
8.7722891019
 20
10.6219681804
 30
0.0
 10
8.7722440593
 20
10.6223468692
 30
0.0
 10
8.7722028195
 20
10.6226623188
 30
0.0
 10
8.772181221
 20
10.6228833778
 30
0.0
 10
8.7721575286
 20
10.6230093157
 30
0.0
 10
8.7721717336
 20
10.623104844
 30
0.0
 10
8.7720637164
 20
10.6231962637
 30
0.0
 10
8.771962326
 20
10.6233195899
 30
0.0
 10
8.7717650295
 20
10.6235347428
 30
0.0
 10
8.7714935622
 20
10.6238424533
 30
0.0
 10
8.7711633562
 20
10.6242115565
 30
0.0
 10
8.7707246348
 20
10.6247037463
 30
0.0
 10
8.7701756966
 20
10.6253189654
 30
0.0
 10
8.769517216
 20
10.6260572371
 30
0.0
 10
8.7688586127
 20
10.6267955028
 30
0.0
 10
8.7683099813
 20
10.6274107366
 30
0.0
 10
8.7678706463
 20
10.627902897
 30
0.0
 10
8.767542312
 20
10.62827209
 30
0.0
 10
8.7672649892
 20
10.6285795193
 30
0.0
 10
8.7670781456
 20
10.6287951743
 30
0.0
 10
8.766960007
 20
10.6289176961
 30
0.0
 10
8.7669034348
 20
10.6290115863
 30
0.0
 10
8.7667244211
 20
10.6290978362
 30
0.0
 10
8.766528445
 20
10.629215501
 30
0.0
 10
8.7661655881
 20
10.6294201728
 30
0.0
 10
8.7656576244
 20
10.6297132103
 30
0.0
 10
8.7650436149
 20
10.6300645773
 30
0.0
 10
8.7642264915
 20
10.6305331639
 30
0.0
 10
8.7632045503
 20
10.6311188632
 30
0.0
 10
8.761978464
 20
10.6318217192
 30
0.0
 10
8.7607522645
 20
10.6325245621
 30
0.0
 10
8.7597306062
 20
10.6331102944
 30
0.0
 10
8.7589129171
 20
10.6335788149
 30
0.0
 10
8.7583006331
 20
10.6339303836
 30
0.0
 10
8.7577872712
 20
10.6342227902
 30
0.0
 10
8.7574340508
 20
10.6344285881
 30
0.0
 10
8.7572226346
 20
10.6345444486
 30
0.0
 10
8.7570910482
 20
10.6346362409
 30
0.0
 10
8.7568563466
 20
10.6347093147
 30
0.0
 10
8.7565793789
 20
10.6348132755
 30
0.0
 10
8.7560779274
 20
10.634992165
 30
0.0
 10
8.7553703294
 20
10.6352493118
 30
0.0
 10
8.7545174616
 20
10.6355572072
 30
0.0
 10
8.7533816149
 20
10.6359679723
 30
0.0
 10
8.7519613543
 20
10.6364813465
 30
0.0
 10
8.7502572469
 20
10.6370974333
 30
0.0
 10
8.7485530414
 20
10.6377135002
 30
0.0
 10
8.7471330263
 20
10.6382269242
 30
0.0
 10
8.7459966884
 20
10.6386375897
 30
0.0
 10
8.7451453188
 20
10.638945789
 30
0.0
 10
8.7444330336
 20
10.639201985
 30
0.0
 10
8.7439399495
 20
10.6393825719
 30
0.0
 10
8.7436495752
 20
10.6394838131
 30
0.0
 10
8.7434560544
 20
10.6395652408
 30
0.0
 10
8.7431697996
 20
10.6396256569
 30
0.0
 10
8.7428204732
 20
10.6397135408
 30
0.0
 10
8.742194081
 20
10.6398639229
 30
0.0
 10
8.7413071142
 20
10.6400805397
 30
0.0
 10
8.7402393817
 20
10.6403397158
 30
0.0
 10
8.7388169155
 20
10.6406855506
 30
0.0
 10
8.7370384349
 20
10.6411177545
 30
0.0
 10
8.7349044023
 20
10.6416364288
 30
0.0
 10
8.7327704296
 20
10.6421551282
 30
0.0
 10
8.7309917992
 20
10.6425872691
 30
0.0
 10
8.7295696327
 20
10.64293323
 30
0.0
 10
8.7285009863
 20
10.6431920213
 30
0.0
 10
8.7276168784
 20
10.643409842
 30
0.0
 10
8.726895169
 20
10.6435792511
 30
0.0
 10
8.7263932978
 20
10.6437195533
 30
0.0
 10
8.7257409948
 20
10.643809298
 30
0.0
 10
8.7249238053
 20
10.6439466179
 30
0.0
 10
8.7238842896
 20
10.6441122086
 30
0.0
 10
8.7226445872
 20
10.6443135108
 30
0.0
 10
8.720988958
 20
10.6445810089
 30
0.0
 10
8.7189203259
 20
10.6449156838
 30
0.0
 10
8.716437665
 20
10.6453172003
 30
0.0
 10
8.7139547662
 20
10.6457186068
 30
0.0
 10
8.7114731218
 20
10.6461205468
 30
0.0
 10
8.7094011016
 20
10.6464538102
 30
0.0
 10
8.7079585034
 20
10.6466904029
 30
0.0
 10
8.7071219577
 20
10.6468204333
 30
0.0
 10
8.7065289268
 20
10.6469325072
 30
0.0
 10
8.7058044846
 20
10.6469889594
 30
0.0
 10
8.7048843996
 20
10.6470836307
 30
0.0
 10
8.7032528921
 20
10.6472402629
 30
0.0
 10
8.7009333501
 20
10.6474687748
 30
0.0
 10
8.6981450414
 20
10.6477408501
 30
0.0
 10
8.6944293505
 20
10.648104888
 30
0.0
 10
8.6907110519
 20
10.6484655789
 30
0.0
 10
8.6874630378
 20
10.6487891354
 30
0.0
 10
8.6855989099
 20
10.6489620665
 30
0.0
 10
8.6842236028
 20
10.6491253679
 30
0.0
 10
8.6827612004
 20
10.6491602359
 30
0.0
 10
8.6808417137
 20
10.6492515382
 30
0.0
 10
8.6774684222
 20
10.6493903128
 30
0.0
 10
8.6726571241
 20
10.6496005561
 30
0.0
 10
8.6678420949
 20
10.6498028321
 30
0.0
 10
8.6644740269
 20
10.6499527611
 30
0.0
 10
8.6625463317
 20
10.650026535
 30
0.0
 10
8.6611091143
 20
10.6501151832
 30
0.0
 10
8.6596392237
 20
10.6500765102
 30
0.0
 10
8.6576907603
 20
10.6500693697
 30
0.0
 10
8.6542757025
 20
10.650036051
 30
0.0
 10
8.649399307
 20
10.6500003457
 30
0.0
 10
8.6445238716
 20
10.649956732
 30
0.0
 10
8.6411074696
 20
10.649934485
 30
0.0
 10
8.6391611185
 20
10.6499099462
 30
0.0
 10
8.6376847469
 20
10.6499246543
 30
0.0
 10
8.6362718694
 20
10.6498128269
 30
0.0
 10
8.6343658892
 20
10.6497078567
 30
0.0
 10
8.6310407023
 20
10.6495036363
 30
0.0
 10
8.6262853721
 20
10.6492223015
 30
0.0
 10
8.6215307169
 20
10.6489384232
 30
0.0
 10
8.6182045849
 20
10.6487377637
 30
0.0
 10
8.6165381517
 20
10.6486410187
 30
0.0
 10
8.6155913727
 20
10.6485798683
 30
0.0
 10
8.6148658451
 20
10.6485505838
 30
0.0
 10
8.6141993563
 20
10.64845792
 30
0.0
 10
8.6132901132
 20
10.6483564738
 30
0.0
 10
8.6117085117
 20
10.6481686631
 30
0.0
 10
8.6085385248
 20
10.6478003446
 30
0.0
 10
8.6049184347
 20
10.6473763247
 30
0.0
 10
8.6012978416
 20
10.6469532123
 30
0.0
 10
8.5985811538
 20
10.6466362399
 30
0.0
 10
8.5963216002
 20
10.646370512
 30
0.0
 10
8.5947313153
 20
10.6461876709
 30
0.0
 10
8.5938360135
 20
10.646078234
 30
0.0
 10
8.5931266965
 20
10.6460101199
 30
0.0
 10
8.5925620256
 20
10.6458886295
 30
0.0
 10
8.5917586768
 20
10.6457452606
 30
0.0
 10
8.5903763243
 20
10.6454856903
 30
0.0
 10
8.5883892423
 20
10.6451194118
 30
0.0
 10
8.5860100168
 20
10.644677932
 30
0.0
 10
8.5836293681
 20
10.6442369765
 30
0.0
 10
8.5812491392
 20
10.6437958691
 30
0.0
 10
8.579265402
 20
10.643428349
 30
0.0
 10
8.5776787136
 20
10.6431342425
 30
0.0
 10
8.5764879213
 20
10.6429138922
 30
0.0
 10
8.5754980554
 20
10.6427295393
 30
0.0
 10
8.5748003207
 20
10.6426019199
 30
0.0
 10
8.5744091544
 20
10.6425267655
 30
0.0
 10
8.5740945416
 20
10.6424766787
 30
0.0
 10
8.5738611114
 20
10.6424025906
 30
0.0
 10
8.5735215537
 20
10.6423121783
 30
0.0
 10
8.5729405215
 20
10.6421500562
 30
0.0
 10
8.5721035776
 20
10.6419204925
 30
0.0
 10
8.5711021975
 20
10.6416441432
 30
0.0
 10
8.5697659923
 20
10.6412759824
 30
0.0
 10
8.5680960927
 20
10.6408156762
 30
0.0
 10
8.5660920479
 20
10.6402633563
 30
0.0
 10
8.5640880929
 20
10.6397110146
 30
0.0
 10
8.562417969
 20
10.6392507629
 30
0.0
 10
8.5610822123
 20
10.6388824931
 30
0.0
 10
8.5600794642
 20
10.6386064763
 30
0.0
 10
8.5592468002
 20
10.6383758724
 30
0.0
 10
8.5586581276
 20
10.6382156073
 30
0.0
 10
8.5583308117
 20
10.6381222197
 30
0.0
 10
8.558059779
 20
10.6380572707
 30
0.0
 10
8.557886395
 20
10.6379728587
 30
0.0
 10
8.5576211554
 20
10.6378670982
 30
0.0
 10
8.5571728557
 20
10.6376788544
 30
0.0
 10
8.5565241307
 20
10.6374115883
 30
0.0
 10
8.5557492121
 20
10.6370901611
 30
0.0
 10
8.5547147463
 20
10.6366618388
 30
0.0
 10
8.553422093
 20
10.6361263506
 30
0.0
 10
8.5518707118
 20
10.6354838035
 30
0.0
 10
8.5503194335
 20
10.6348412381
 30
0.0
 10
8.549026523
 20
10.6343057957
 30
0.0
 10
8.5479925716
 20
10.633877382
 30
0.0
 10
8.547216084
 20
10.6335562338
 30
0.0
 10
8.5465722677
 20
10.6332880948
 30
0.0
 10
8.5461152053
 20
10.633101409
 30
0.0
 10
8.5458640056
 20
10.6329931522
 30
0.0
 10
8.5456474953
 20
10.6329164084
 30
0.0
 10
8.5455384379
 20
10.6328226587
 30
0.0
 10
8.5453555472
 20
10.632703591
 30
0.0
 10
8.5450529515
 20
10.6324924587
 30
0.0
 10
8.5446115421
 20
10.632192286
 30
0.0
 10
8.5440857587
 20
10.6318314604
 30
0.0
 10
8.5433833492
 20
10.6313505756
 30
0.0
 10
8.5425058047
 20
10.6307493956
 30
0.0
 10
8.5411014721
 20
10.6297875489
 30
0.0
 10
8.5393461467
 20
10.6285852263
 30
0.0
 10
8.5379418589
 20
10.6276233726
 30
0.0
 10
8.5372397184
 20
10.6271424452
 30
0.0
  0
SPLINE
  5
367
100
AcDbEntity
  8
0
100
AcDbSpline
 62
4
  6
CONTINUOUS
 70
0
 71
3
 72
211
 73
207
 74
0
 42
0.0000001
 43
0.0000001
 44
0.0000000001
 40
0.0
 40
0.0
 40
0.0
 40
0.0
 40
0.015625
 40
0.03125
 40
0.0390625
 40
0.046875
 40
0.05078125
 40
0.0546875
 40
0.05859375
 40
0.060546875
 40
0.0615234375
 40
0.0625
 40
0.0634765625
 40
0.064453125
 40
0.06640625
 40
0.0703125
 40
0.07421875
 40
0.078125
 40
0.0859375
 40
0.09375
 40
0.1015625
 40
0.109375
 40
0.11328125
 40
0.1171875
 40
0.12109375
 40
0.123046875
 40
0.1240234375
 40
0.125
 40
0.1259765625
 40
0.126953125
 40
0.12890625
 40
0.1328125
 40
0.13671875
 40
0.140625
 40
0.1484375
 40
0.15625
 40
0.1640625
 40
0.171875
 40
0.17578125
 40
0.1796875
 40
0.18359375
 40
0.185546875
 40
0.1865234375
 40
0.1875
 40
0.1884765625
 40
0.189453125
 40
0.19140625
 40
0.1953125
 40
0.19921875
 40
0.203125
 40
0.2109375
 40
0.21875
 40
0.2265625
 40
0.234375
 40
0.23828125
 40
0.2421875
 40
0.24609375
 40
0.248046875
 40
0.2490234375
 40
0.25
 40
0.2509765625
 40
0.251953125
 40
0.25390625
 40
0.2578125
 40
0.26171875
 40
0.265625
 40
0.2734375
 40
0.28125
 40
0.2890625
 40
0.296875
 40
0.30078125
 40
0.3046875
 40
0.30859375
 40
0.310546875
 40
0.3115234375
 40
0.3125
 40
0.3134765625
 40
0.314453125
 40
0.31640625
 40
0.3203125
 40
0.32421875
 40
0.328125
 40
0.3359375
 40
0.34375
 40
0.3515625
 40
0.359375
 40
0.36328125
 40
0.3671875
 40
0.37109375
 40
0.373046875
 40
0.375
 40
0.376953125
 40
0.37890625
 40
0.3828125
 40
0.38671875
 40
0.390625
 40
0.3984375
 40
0.40625
 40
0.4140625
 40
0.421875
 40
0.4296875
 40
0.43359375
 40
0.435546875
 40
0.4375
 40
0.439453125
 40
0.44140625
 40
0.4453125
 40
0.453125
 40
0.4609375
 40
0.46875
 40
0.484375
 40
0.4921875
 40
0.49609375
 40
0.5
 40
0.50390625
 40
0.5078125
 40
0.515625
 40
0.53125
 40
0.546875
 40
0.5546875
 40
0.55859375
 40
0.5625
 40
0.56640625
 40
0.5703125
 40
0.578125
 40
0.59375
 40
0.609375
 40
0.6171875
 40
0.62109375
 40
0.625
 40
0.62890625
 40
0.6328125
 40
0.640625
 40
0.65625
 40
0.671875
 40
0.6796875
 40
0.68359375
 40
0.685546875
 40
0.6875
 40
0.689453125
 40
0.69140625
 40
0.6953125
 40
0.703125
 40
0.71875
 40
0.7265625
 40
0.734375
 40
0.7421875
 40
0.74609375
 40
0.748046875
 40
0.75
 40
0.751953125
 40
0.75390625
 40
0.7578125
 40
0.765625
 40
0.7734375
 40
0.78125
 40
0.7890625
 40
0.796875
 40
0.80078125
 40
0.8046875
 40
0.80859375
 40
0.810546875
 40
0.8115234375
 40
0.8125
 40
0.8134765625
 40
0.814453125
 40
0.81640625
 40
0.8203125
 40
0.82421875
 40
0.828125
 40
0.8359375
 40
0.84375
 40
0.8515625
 40
0.859375
 40
0.86328125
 40
0.8671875
 40
0.87109375
 40
0.873046875
 40
0.8740234375
 40
0.875
 40
0.8759765625
 40
0.876953125
 40
0.87890625
 40
0.8828125
 40
0.88671875
 40
0.890625
 40
0.8984375
 40
0.90625
 40
0.9140625
 40
0.921875
 40
0.92578125
 40
0.9296875
 40
0.93359375
 40
0.935546875
 40
0.9365234375
 40
0.9375
 40
0.9384765625
 40
0.939453125
 40
0.94140625
 40
0.9453125
 40
0.94921875
 40
0.953125
 40
0.9609375
 40
0.96875
 40
0.984375
 40
1.0
 40
1.0
 40
1.0
 40
1.0
 10
8.5372397211
 20
10.6271424478
 30
0.0
 10
8.5369209652
 20
10.6266441047
 30
0.0
 10
8.536283461
 20
10.6256474184
 30
0.0
 10
8.5354865415
 20
10.6244015611
 30
0.0
 10
8.5348490886
 20
10.6234048738
 30
0.0
 10
8.5344504936
 20
10.6227819475
 30
0.0
 10
8.5341320455
 20
10.6222835991
 30
0.0
 10
8.5338920378
 20
10.621909858
 30
0.0
 10
8.5336957585
 20
10.6215983429
 30
0.0
 10
8.5335510487
 20
10.6213804081
 30
0.0
 10
8.533479778
 20
10.6212556776
 30
0.0
 10
8.5333941529
 20
10.6211626828
 30
0.0
 10
8.5334315056
 20
10.6210675739
 30
0.0
 10
8.5334384132
 20
10.6209414995
 30
0.0
 10
8.5334704875
 20
10.6207205257
 30
0.0
 10
8.533505859
 20
10.6204050284
 30
0.0
 10
8.5335527774
 20
10.6200263548
 30
0.0
 10
8.5336137725
 20
10.6195214835
 30
0.0
 10
8.533690556
 20
10.6188903853
 30
0.0
 10
8.5337824497
 20
10.6181330708
 30
0.0
 10
8.5338744663
 20
10.6173757573
 30
0.0
 10
8.5339509424
 20
10.6167446566
 30
0.0
 10
8.5340125524
 20
10.6162397903
 30
0.0
 10
8.534057595
 20
10.6158611014
 30
0.0
 10
8.5340988348
 20
10.6155456518
 30
0.0
 10
8.5341204333
 20
10.6153245928
 30
0.0
 10
8.5341441258
 20
10.6151986549
 30
0.0
 10
8.5341299207
 20
10.6151031267
 30
0.0
 10
8.5342379379
 20
10.6150117069
 30
0.0
 10
8.5343393283
 20
10.6148883808
 30
0.0
 10
8.5345366248
 20
10.6146732278
 30
0.0
 10
8.5348080922
 20
10.6143655173
 30
0.0
 10
8.5351382981
 20
10.6139964141
 30
0.0
 10
8.5355770195
 20
10.6135042243
 30
0.0
 10
8.5361259577
 20
10.6128890052
 30
0.0
 10
8.5367844383
 20
10.6121507336
 30
0.0
 10
8.5374430416
 20
10.6114124678
 30
0.0
 10
8.537991673
 20
10.610797234
 30
0.0
 10
8.5384310081
 20
10.6103050737
 30
0.0
 10
8.5387593423
 20
10.6099358806
 30
0.0
 10
8.5390366652
 20
10.6096284513
 30
0.0
 10
8.5392235087
 20
10.6094127964
 30
0.0
 10
8.5393416473
 20
10.6092902745
 30
0.0
 10
8.5393982195
 20
10.6091963843
 30
0.0
 10
8.5395772333
 20
10.6091101345
 30
0.0
 10
8.5397732093
 20
10.6089924696
 30
0.0
 10
8.5401360663
 20
10.6087877978
 30
0.0
 10
8.5406440299
 20
10.6084947604
 30
0.0
 10
8.5412580395
 20
10.6081433933
 30
0.0
 10
8.5420751629
 20
10.6076748068
 30
0.0
 10
8.543097104
 20
10.6070891074
 30
0.0
 10
8.5443231904
 20
10.6063862514
 30
0.0
 10
8.5455493898
 20
10.6056834086
 30
0.0
 10
8.5465710481
 20
10.6050976762
 30
0.0
 10
8.5473887373
 20
10.6046291558
 30
0.0
 10
8.5480010212
 20
10.604277587
 30
0.0
 10
8.5485143831
 20
10.6039851804
 30
0.0
 10
8.5488676035
 20
10.6037793825
 30
0.0
 10
8.5490790197
 20
10.603663522
 30
0.0
 10
8.5492106061
 20
10.6035717297
 30
0.0
 10
8.5494453077
 20
10.603498656
 30
0.0
 10
8.5497222754
 20
10.6033946951
 30
0.0
 10
8.5502237269
 20
10.6032158056
 30
0.0
 10
8.5509313249
 20
10.6029586588
 30
0.0
 10
8.5517841927
 20
10.6026507634
 30
0.0
 10
8.5529200394
 20
10.6022399983
 30
0.0
 10
8.5543403001
 20
10.6017266242
 30
0.0
 10
8.5560444074
 20
10.6011105373
 30
0.0
 10
8.557748613
 20
10.6004944704
 30
0.0
 10
8.559168628
 20
10.5999810464
 30
0.0
 10
8.560304966
 20
10.599570381
 30
0.0
 10
8.5611563355
 20
10.5992621816
 30
0.0
 10
8.5618686207
 20
10.5990059857
 30
0.0
 10
8.5623617048
 20
10.5988253988
 30
0.0
 10
8.5626520792
 20
10.5987241576
 30
0.0
 10
8.5628455999
 20
10.5986427299
 30
0.0
 10
8.5631318547
 20
10.5985823137
 30
0.0
 10
8.5634811812
 20
10.5984944298
 30
0.0
 10
8.5641075734
 20
10.5983440477
 30
0.0
 10
8.5649945401
 20
10.5981274309
 30
0.0
 10
8.5660622727
 20
10.5978682548
 30
0.0
 10
8.5674847388
 20
10.5975224201
 30
0.0
 10
8.5692632195
 20
10.5970902161
 30
0.0
 10
8.571397252
 20
10.5965715419
 30
0.0
 10
8.5735312247
 20
10.5960528424
 30
0.0
 10
8.5753098551
 20
10.5956207015
 30
0.0
 10
8.5767320217
 20
10.5952747406
 30
0.0
 10
8.5778006681
 20
10.5950159493
 30
0.0
 10
8.5786847759
 20
10.5947981287
 30
0.0
 10
8.5794064853
 20
10.5946287195
 30
0.0
 10
8.5799083566
 20
10.5944884173
 30
0.0
 10
8.5805606595
 20
10.5943986727
 30
0.0
 10
8.581377849
 20
10.5942613528
 30
0.0
 10
8.5824173647
 20
10.594095762
 30
0.0
 10
8.5836570671
 20
10.5938944599
 30
0.0
 10
8.5853126964
 20
10.5936269617
 30
0.0
 10
8.5873813285
 20
10.5932922868
 30
0.0
 10
8.5898639893
 20
10.5928907703
 30
0.0
 10
8.5923468882
 20
10.5924893638
 30
0.0
 10
8.5948285326
 20
10.5920874239
 30
0.0
 10
8.5969005528
 20
10.5917541605
 30
0.0
 10
8.598343151
 20
10.5915175677
 30
0.0
 10
8.5991796966
 20
10.5913875373
 30
0.0
 10
8.5997727276
 20
10.5912754634
 30
0.0
 10
8.6004971697
 20
10.5912190113
 30
0.0
 10
8.6014172547
 20
10.59112434
 30
0.0
 10
8.6030487622
 20
10.5909677078
 30
0.0
 10
8.6053683042
 20
10.5907391959
 30
0.0
 10
8.6081566129
 20
10.5904671205
 30
0.0
 10
8.6118723038
 20
10.5901030826
 30
0.0
 10
8.6155906024
 20
10.5897423917
 30
0.0
 10
8.6188386165
 20
10.5894188352
 30
0.0
 10
8.6207027444
 20
10.5892459042
 30
0.0
 10
8.6220780515
 20
10.5890826027
 30
0.0
 10
8.6235404539
 20
10.5890477347
 30
0.0
 10
8.6254599406
 20
10.5889564324
 30
0.0
 10
8.6288332322
 20
10.5888176578
 30
0.0
 10
8.6336445303
 20
10.5886074145
 30
0.0
 10
8.6384595595
 20
10.5884051386
 30
0.0
 10
8.6418276275
 20
10.5882552096
 30
0.0
 10
8.6437553226
 20
10.5881814357
 30
0.0
 10
8.6451925401
 20
10.5880927874
 30
0.0
 10
8.6466624307
 20
10.5881314605
 30
0.0
 10
8.648610894
 20
10.588138601
 30
0.0
 10
8.6520259518
 20
10.5881719196
 30
0.0
 10
8.6569023474
 20
10.588207625
 30
0.0
 10
8.6617777827
 20
10.5882512387
 30
0.0
 10
8.6651941848
 20
10.5882734857
 30
0.0
 10
8.6671405358
 20
10.5882980244
 30
0.0
 10
8.6686169074
 20
10.5882833164
 30
0.0
 10
8.6700297849
 20
10.5883951438
 30
0.0
 10
8.6719357651
 20
10.588500114
 30
0.0
 10
8.675260952
 20
10.5887043343
 30
0.0
 10
8.6800162823
 20
10.5889856691
 30
0.0
 10
8.6847709374
 20
10.5892695474
 30
0.0
 10
8.6880970695
 20
10.5894702069
 30
0.0
 10
8.6897635026
 20
10.5895669519
 30
0.0
 10
8.6907102817
 20
10.5896281023
 30
0.0
 10
8.6914358092
 20
10.5896573868
 30
0.0
 10
8.692102298
 20
10.5897500506
 30
0.0
 10
8.6930115412
 20
10.5898514969
 30
0.0
 10
8.6945931426
 20
10.5900393076
 30
0.0
 10
8.6977631295
 20
10.590407626
 30
0.0
 10
8.7013832196
 20
10.5908316459
 30
0.0
 10
8.7050038127
 20
10.5912547583
 30
0.0
 10
8.7077205006
 20
10.5915717308
 30
0.0
 10
8.7099800542
 20
10.5918374586
 30
0.0
 10
8.711570339
 20
10.5920202997
 30
0.0
 10
8.7124656409
 20
10.5921297367
 30
0.0
 10
8.7131749578
 20
10.5921978507
 30
0.0
 10
8.7137396288
 20
10.5923193411
 30
0.0
 10
8.7145429775
 20
10.59246271
 30
0.0
 10
8.71592533
 20
10.5927222803
 30
0.0
 10
8.717912412
 20
10.5930885589
 30
0.0
 10
8.7202916375
 20
10.5935300387
 30
0.0
 10
8.7226722862
 20
10.5939709941
 30
0.0
 10
8.7250525152
 20
10.5944121015
 30
0.0
 10
8.7270362523
 20
10.5947796216
 30
0.0
 10
8.7286229407
 20
10.5950737281
 30
0.0
 10
8.729813733
 20
10.5952940784
 30
0.0
 10
8.730803599
 20
10.5954784313
 30
0.0
 10
8.7315013337
 20
10.5956060508
 30
0.0
 10
8.7318925
 20
10.5956812051
 30
0.0
 10
8.7322071128
 20
10.5957312919
 30
0.0
 10
8.732440543
 20
10.5958053801
 30
0.0
 10
8.7327801006
 20
10.5958957923
 30
0.0
 10
8.7333611329
 20
10.5960579144
 30
0.0
 10
8.7341980767
 20
10.5962874781
 30
0.0
 10
8.7351994568
 20
10.5965638274
 30
0.0
 10
8.736535662
 20
10.5969319882
 30
0.0
 10
8.7382055617
 20
10.5973922944
 30
0.0
 10
8.7402096064
 20
10.5979446143
 30
0.0
 10
8.7422135615
 20
10.598496956
 30
0.0
 10
8.7438836854
 20
10.5989572077
 30
0.0
 10
8.745219442
 20
10.5993254775
 30
0.0
 10
8.7462221902
 20
10.5996014943
 30
0.0
 10
8.7470548541
 20
10.5998320982
 30
0.0
 10
8.7476435267
 20
10.5999923634
 30
0.0
 10
8.7479708427
 20
10.6000857509
 30
0.0
 10
8.7482418753
 20
10.6001506999
 30
0.0
 10
8.7484152593
 20
10.6002351119
 30
0.0
 10
8.748680499
 20
10.6003408724
 30
0.0
 10
8.7491287987
 20
10.6005291163
 30
0.0
 10
8.7497775237
 20
10.6007963824
 30
0.0
 10
8.7505524422
 20
10.6011178096
 30
0.0
 10
8.751586908
 20
10.6015461318
 30
0.0
 10
8.7528795613
 20
10.60208162
 30
0.0
 10
8.7544309425
 20
10.6027241671
 30
0.0
 10
8.7559822209
 20
10.6033667325
 30
0.0
 10
8.7572751314
 20
10.6039021749
 30
0.0
 10
8.7583090827
 20
10.6043305887
 30
0.0
 10
8.7590855703
 20
10.6046517369
 30
0.0
 10
8.7597293867
 20
10.6049198758
 30
0.0
 10
8.7601864491
 20
10.6051065616
 30
0.0
 10
8.7604376487
 20
10.6052148185
 30
0.0
 10
8.760654159
 20
10.6052915622
 30
0.0
 10
8.7607632164
 20
10.6053853119
 30
0.0
 10
8.7609461071
 20
10.6055043797
 30
0.0
 10
8.7612487028
 20
10.605715512
 30
0.0
 10
8.7616901122
 20
10.6060156846
 30
0.0
 10
8.7622158957
 20
10.6063765102
 30
0.0
 10
8.7629183052
 20
10.6068573951
 30
0.0
 10
8.7637958497
 20
10.6074585751
 30
0.0
 10
8.7652001822
 20
10.6084204217
 30
0.0
 10
8.7669555076
 20
10.6096227443
 30
0.0
 10
8.7683597954
 20
10.610584598
 30
0.0
 10
8.7690619359
 20
10.6110655254
 30
0.0
  0
SPLINE
  5
368
100
AcDbEntity
  8
0
100
AcDbSpline
 62
4
  6
CONTINUOUS
 70
0
 71
3
 72
211
 73
207
 74
0
 42
0.0000001
 43
0.0000001
 44
0.0000000001
 40
0.0
 40
0.0
 40
0.0
 40
0.0
 40
0.015625
 40
0.03125
 40
0.0390625
 40
0.046875
 40
0.05078125
 40
0.0546875
 40
0.05859375
 40
0.060546875
 40
0.0615234375
 40
0.0625
 40
0.0634765625
 40
0.064453125
 40
0.06640625
 40
0.0703125
 40
0.07421875
 40
0.078125
 40
0.0859375
 40
0.09375
 40
0.1015625
 40
0.109375
 40
0.11328125
 40
0.1171875
 40
0.12109375
 40
0.123046875
 40
0.1240234375
 40
0.125
 40
0.1259765625
 40
0.126953125
 40
0.12890625
 40
0.1328125
 40
0.13671875
 40
0.140625
 40
0.1484375
 40
0.15625
 40
0.1640625
 40
0.171875
 40
0.17578125
 40
0.1796875
 40
0.18359375
 40
0.185546875
 40
0.1865234375
 40
0.1875
 40
0.1884765625
 40
0.189453125
 40
0.19140625
 40
0.1953125
 40
0.19921875
 40
0.203125
 40
0.2109375
 40
0.21875
 40
0.2265625
 40
0.234375
 40
0.23828125
 40
0.2421875
 40
0.24609375
 40
0.248046875
 40
0.2490234375
 40
0.25
 40
0.2509765625
 40
0.251953125
 40
0.25390625
 40
0.2578125
 40
0.26171875
 40
0.265625
 40
0.2734375
 40
0.28125
 40
0.2890625
 40
0.296875
 40
0.30078125
 40
0.3046875
 40
0.30859375
 40
0.310546875
 40
0.3115234375
 40
0.3125
 40
0.3134765625
 40
0.314453125
 40
0.31640625
 40
0.3203125
 40
0.32421875
 40
0.328125
 40
0.3359375
 40
0.34375
 40
0.3515625
 40
0.359375
 40
0.36328125
 40
0.3671875
 40
0.37109375
 40
0.373046875
 40
0.375
 40
0.376953125
 40
0.37890625
 40
0.3828125
 40
0.38671875
 40
0.390625
 40
0.3984375
 40
0.40625
 40
0.4140625
 40
0.421875
 40
0.4296875
 40
0.43359375
 40
0.435546875
 40
0.4375
 40
0.439453125
 40
0.44140625
 40
0.4453125
 40
0.453125
 40
0.4609375
 40
0.46875
 40
0.484375
 40
0.4921875
 40
0.49609375
 40
0.5
 40
0.50390625
 40
0.5078125
 40
0.515625
 40
0.53125
 40
0.546875
 40
0.5546875
 40
0.55859375
 40
0.5625
 40
0.56640625
 40
0.5703125
 40
0.578125
 40
0.59375
 40
0.609375
 40
0.6171875
 40
0.62109375
 40
0.625
 40
0.62890625
 40
0.6328125
 40
0.640625
 40
0.65625
 40
0.671875
 40
0.6796875
 40
0.68359375
 40
0.685546875
 40
0.6875
 40
0.689453125
 40
0.69140625
 40
0.6953125
 40
0.703125
 40
0.71875
 40
0.7265625
 40
0.734375
 40
0.7421875
 40
0.74609375
 40
0.748046875
 40
0.75
 40
0.751953125
 40
0.75390625
 40
0.7578125
 40
0.765625
 40
0.7734375
 40
0.78125
 40
0.7890625
 40
0.796875
 40
0.80078125
 40
0.8046875
 40
0.80859375
 40
0.810546875
 40
0.8115234375
 40
0.8125
 40
0.8134765625
 40
0.814453125
 40
0.81640625
 40
0.8203125
 40
0.82421875
 40
0.828125
 40
0.8359375
 40
0.84375
 40
0.8515625
 40
0.859375
 40
0.86328125
 40
0.8671875
 40
0.87109375
 40
0.873046875
 40
0.8740234375
 40
0.875
 40
0.8759765625
 40
0.876953125
 40
0.87890625
 40
0.8828125
 40
0.88671875
 40
0.890625
 40
0.8984375
 40
0.90625
 40
0.9140625
 40
0.921875
 40
0.92578125
 40
0.9296875
 40
0.93359375
 40
0.935546875
 40
0.9365234375
 40
0.9375
 40
0.9384765625
 40
0.939453125
 40
0.94140625
 40
0.9453125
 40
0.94921875
 40
0.953125
 40
0.9609375
 40
0.96875
 40
0.984375
 40
1.0
 40
1.0
 40
1.0
 40
1.0
 10
10.4540075544
 20
9.7385981107
 30
0.0
 10
10.4543263104
 20
9.7390964538
 30
0.0
 10
10.4549638145
 20
9.7400931402
 30
0.0
 10
10.455760734
 20
9.7413389974
 30
0.0
 10
10.456398187
 20
9.7423356847
 30
0.0
 10
10.456796782
 20
9.742958611
 30
0.0
 10
10.4571152301
 20
9.7434569594
 30
0.0
 10
10.4573552378
 20
9.7438307006
 30
0.0
 10
10.4575515171
 20
9.7441422156
 30
0.0
 10
10.4576962269
 20
9.7443601504
 30
0.0
 10
10.4577674976
 20
9.7444848809
 30
0.0
 10
10.4578531227
 20
9.7445778757
 30
0.0
 10
10.45781577
 20
9.7446729846
 30
0.0
 10
10.4578088624
 20
9.744799059
 30
0.0
 10
10.4577767881
 20
9.7450200328
 30
0.0
 10
10.4577414166
 20
9.7453355301
 30
0.0
 10
10.4576944982
 20
9.7457142037
 30
0.0
 10
10.4576335031
 20
9.746219075
 30
0.0
 10
10.4575567195
 20
9.7468501733
 30
0.0
 10
10.4574648259
 20
9.7476074877
 30
0.0
 10
10.4573728093
 20
9.7483648012
 30
0.0
 10
10.4572963332
 20
9.748995902
 30
0.0
 10
10.4572347232
 20
9.7495007683
 30
0.0
 10
10.4571896806
 20
9.7498794571
 30
0.0
 10
10.4571484408
 20
9.7501949067
 30
0.0
 10
10.4571268423
 20
9.7504159657
 30
0.0
 10
10.4571031498
 20
9.7505419036
 30
0.0
 10
10.4571173548
 20
9.7506374319
 30
0.0
 10
10.4570093377
 20
9.7507288516
 30
0.0
 10
10.4569079473
 20
9.7508521777
 30
0.0
 10
10.4567106508
 20
9.7510673307
 30
0.0
 10
10.4564391834
 20
9.7513750412
 30
0.0
 10
10.4561089774
 20
9.7517441444
 30
0.0
 10
10.4556702561
 20
9.7522363342
 30
0.0
 10
10.4551213179
 20
9.7528515533
 30
0.0
 10
10.4544628373
 20
9.7535898249
 30
0.0
 10
10.453804234
 20
9.7543280907
 30
0.0
 10
10.4532556026
 20
9.7549433245
 30
0.0
 10
10.4528162675
 20
9.7554354848
 30
0.0
 10
10.4524879333
 20
9.7558046779
 30
0.0
 10
10.4522106104
 20
9.7561121072
 30
0.0
 10
10.4520237668
 20
9.7563277622
 30
0.0
 10
10.4519056283
 20
9.756450284
 30
0.0
 10
10.4518490561
 20
9.7565441742
 30
0.0
 10
10.4516700423
 20
9.756630424
 30
0.0
 10
10.4514740663
 20
9.7567480889
 30
0.0
 10
10.4511112093
 20
9.7569527607
 30
0.0
 10
10.4506032456
 20
9.7572457981
 30
0.0
 10
10.4499892361
 20
9.7575971652
 30
0.0
 10
10.4491721127
 20
9.7580657518
 30
0.0
 10
10.4481501716
 20
9.7586514511
 30
0.0
 10
10.4469240852
 20
9.7593543071
 30
0.0
 10
10.4456978858
 20
9.7600571499
 30
0.0
 10
10.4446762275
 20
9.7606428823
 30
0.0
 10
10.4438585383
 20
9.7611114028
 30
0.0
 10
10.4432462543
 20
9.7614629715
 30
0.0
 10
10.4427328925
 20
9.7617553781
 30
0.0
 10
10.4423796721
 20
9.761961176
 30
0.0
 10
10.4421682558
 20
9.7620770365
 30
0.0
 10
10.4420366695
 20
9.7621688288
 30
0.0
 10
10.4418019679
 20
9.7622419025
 30
0.0
 10
10.4415250002
 20
9.7623458634
 30
0.0
 10
10.4410235487
 20
9.7625247529
 30
0.0
 10
10.4403159507
 20
9.7627818997
 30
0.0
 10
10.4394630829
 20
9.7630897951
 30
0.0
 10
10.4383272362
 20
9.7635005602
 30
0.0
 10
10.4369069755
 20
9.7640139344
 30
0.0
 10
10.4352028682
 20
9.7646300212
 30
0.0
 10
10.4334986626
 20
9.7652460881
 30
0.0
 10
10.4320786475
 20
9.7657595121
 30
0.0
 10
10.4309423096
 20
9.7661701775
 30
0.0
 10
10.4300909401
 20
9.7664783769
 30
0.0
 10
10.4293786549
 20
9.7667345729
 30
0.0
 10
10.4288855707
 20
9.7669151597
 30
0.0
 10
10.4285951964
 20
9.7670164009
 30
0.0
 10
10.4284016757
 20
9.7670978287
 30
0.0
 10
10.4281154208
 20
9.7671582448
 30
0.0
 10
10.4277660944
 20
9.7672461287
 30
0.0
 10
10.4271397022
 20
9.7673965108
 30
0.0
 10
10.4262527354
 20
9.7676131276
 30
0.0
 10
10.4251850029
 20
9.7678723037
 30
0.0
 10
10.4237625367
 20
9.7682181384
 30
0.0
 10
10.4219840561
 20
9.7686503424
 30
0.0
 10
10.4198500235
 20
9.7691690166
 30
0.0
 10
10.4177160509
 20
9.7696877161
 30
0.0
 10
10.4159374204
 20
9.770119857
 30
0.0
 10
10.4145152539
 20
9.7704658179
 30
0.0
 10
10.4134466075
 20
9.7707246092
 30
0.0
 10
10.4125624996
 20
9.7709424298
 30
0.0
 10
10.4118407902
 20
9.771111839
 30
0.0
 10
10.411338919
 20
9.7712521412
 30
0.0
 10
10.4106866161
 20
9.7713418858
 30
0.0
 10
10.4098694265
 20
9.7714792057
 30
0.0
 10
10.4088299109
 20
9.7716447965
 30
0.0
 10
10.4075902085
 20
9.7718460986
 30
0.0
 10
10.4059345792
 20
9.7721135968
 30
0.0
 10
10.4038659471
 20
9.7724482717
 30
0.0
 10
10.4013832863
 20
9.7728497882
 30
0.0
 10
10.3989003874
 20
9.7732511947
 30
0.0
 10
10.396418743
 20
9.7736531346
 30
0.0
 10
10.3943467228
 20
9.7739863981
 30
0.0
 10
10.3929041246
 20
9.7742229908
 30
0.0
 10
10.392067579
 20
9.7743530212
 30
0.0
 10
10.391474548
 20
9.7744650951
 30
0.0
 10
10.3907501058
 20
9.7745215472
 30
0.0
 10
10.3898300209
 20
9.7746162186
 30
0.0
 10
10.3881985134
 20
9.7747728507
 30
0.0
 10
10.3858789714
 20
9.7750013626
 30
0.0
 10
10.3830906627
 20
9.775273438
 30
0.0
 10
10.3793749717
 20
9.7756374759
 30
0.0
 10
10.3756566732
 20
9.7759981668
 30
0.0
 10
10.3724086591
 20
9.7763217233
 30
0.0
 10
10.3705445312
 20
9.7764946544
 30
0.0
 10
10.3691692241
 20
9.7766579558
 30
0.0
 10
10.3677068217
 20
9.7766928238
 30
0.0
 10
10.3657873349
 20
9.7767841261
 30
0.0
 10
10.3624140434
 20
9.7769229007
 30
0.0
 10
10.3576027453
 20
9.777133144
 30
0.0
 10
10.3527877161
 20
9.77733542
 30
0.0
 10
10.3494196481
 20
9.777485349
 30
0.0
 10
10.347491953
 20
9.7775591229
 30
0.0
 10
10.3460547355
 20
9.7776477711
 30
0.0
 10
10.3445848449
 20
9.7776090981
 30
0.0
 10
10.3426363816
 20
9.7776019576
 30
0.0
 10
10.3392213237
 20
9.7775686389
 30
0.0
 10
10.3343449282
 20
9.7775329335
 30
0.0
 10
10.3294694928
 20
9.7774893199
 30
0.0
 10
10.3260530908
 20
9.7774670729
 30
0.0
 10
10.3241067398
 20
9.7774425341
 30
0.0
 10
10.3226303681
 20
9.7774572421
 30
0.0
 10
10.3212174907
 20
9.7773454147
 30
0.0
 10
10.3193115104
 20
9.7772404446
 30
0.0
 10
10.3159863236
 20
9.7770362242
 30
0.0
 10
10.3112309933
 20
9.7767548894
 30
0.0
 10
10.3064763381
 20
9.7764710111
 30
0.0
 10
10.3031502061
 20
9.7762703516
 30
0.0
 10
10.301483773
 20
9.7761736066
 30
0.0
 10
10.3005369939
 20
9.7761124562
 30
0.0
 10
10.2998114664
 20
9.7760831717
 30
0.0
 10
10.2991449775
 20
9.7759905079
 30
0.0
 10
10.2982357344
 20
9.7758890616
 30
0.0
 10
10.296654133
 20
9.7757012509
 30
0.0
 10
10.2934841461
 20
9.7753329325
 30
0.0
 10
10.289864056
 20
9.7749089126
 30
0.0
 10
10.2862434629
 20
9.7744858002
 30
0.0
 10
10.283526775
 20
9.7741688278
 30
0.0
 10
10.2812672214
 20
9.7739030999
 30
0.0
 10
10.2796769366
 20
9.7737202588
 30
0.0
 10
10.2787816347
 20
9.7736108219
 30
0.0
 10
10.2780723178
 20
9.7735427078
 30
0.0
 10
10.2775076468
 20
9.7734212174
 30
0.0
 10
10.2767042981
 20
9.7732778485
 30
0.0
 10
10.2753219456
 20
9.7730182782
 30
0.0
 10
10.2733348636
 20
9.7726519997
 30
0.0
 10
10.270955638
 20
9.7722105198
 30
0.0
 10
10.2685749894
 20
9.7717695644
 30
0.0
 10
10.2661947604
 20
9.771328457
 30
0.0
 10
10.2642110233
 20
9.7709609369
 30
0.0
 10
10.2626243348
 20
9.7706668304
 30
0.0
 10
10.2614335426
 20
9.7704464801
 30
0.0
 10
10.2604436766
 20
9.7702621272
 30
0.0
 10
10.2597459419
 20
9.7701345078
 30
0.0
 10
10.2593547756
 20
9.7700593534
 30
0.0
 10
10.2590401628
 20
9.7700092666
 30
0.0
 10
10.2588067326
 20
9.7699351785
 30
0.0
 10
10.258467175
 20
9.7698447662
 30
0.0
 10
10.2578861427
 20
9.7696826441
 30
0.0
 10
10.2570491989
 20
9.7694530804
 30
0.0
 10
10.2560478188
 20
9.7691767311
 30
0.0
 10
10.2547116136
 20
9.7688085703
 30
0.0
 10
10.2530417139
 20
9.7683482641
 30
0.0
 10
10.2510376692
 20
9.7677959442
 30
0.0
 10
10.2490337141
 20
9.7672436025
 30
0.0
 10
10.2473635902
 20
9.7667833508
 30
0.0
 10
10.2460278335
 20
9.766415081
 30
0.0
 10
10.2450250854
 20
9.7661390642
 30
0.0
 10
10.2441924214
 20
9.7659084603
 30
0.0
 10
10.2436037489
 20
9.7657481951
 30
0.0
 10
10.2432764329
 20
9.7656548076
 30
0.0
 10
10.2430054002
 20
9.7655898586
 30
0.0
 10
10.2428320162
 20
9.7655054466
 30
0.0
 10
10.2425667766
 20
9.7653996861
 30
0.0
 10
10.2421184769
 20
9.7652114423
 30
0.0
 10
10.2414697519
 20
9.7649441761
 30
0.0
 10
10.2406948333
 20
9.7646227489
 30
0.0
 10
10.2396603676
 20
9.7641944267
 30
0.0
 10
10.2383677143
 20
9.7636589385
 30
0.0
 10
10.2368163331
 20
9.7630163914
 30
0.0
 10
10.2352650547
 20
9.762373826
 30
0.0
 10
10.2339721442
 20
9.7618383836
 30
0.0
 10
10.2329381929
 20
9.7614099698
 30
0.0
 10
10.2321617053
 20
9.7610888216
 30
0.0
 10
10.2315178889
 20
9.7608206827
 30
0.0
 10
10.2310608265
 20
9.7606339969
 30
0.0
 10
10.2308096269
 20
9.76052574
 30
0.0
 10
10.2305931166
 20
9.7604489963
 30
0.0
 10
10.2304840591
 20
9.7603552466
 30
0.0
 10
10.2303011685
 20
9.7602361788
 30
0.0
 10
10.2299985728
 20
9.7600250466
 30
0.0
 10
10.2295571634
 20
9.7597248739
 30
0.0
 10
10.2290313799
 20
9.7593640483
 30
0.0
 10
10.2283289704
 20
9.7588831635
 30
0.0
 10
10.2274514259
 20
9.7582819835
 30
0.0
 10
10.2260470934
 20
9.7573201368
 30
0.0
 10
10.224291768
 20
9.7561178142
 30
0.0
 10
10.2228874801
 20
9.7551559605
 30
0.0
 10
10.2221853397
 20
9.7546750331
 30
0.0
  0
SPLINE
  5
369
100
AcDbEntity
  8
0
100
AcDbSpline
 62
4
  6
CONTINUOUS
 70
0
 71
3
 72
211
 73
207
 74
0
 42
0.0000001
 43
0.0000001
 44
0.0000000001
 40
0.0
 40
0.0
 40
0.0
 40
0.0
 40
0.015625
 40
0.03125
 40
0.0390625
 40
0.046875
 40
0.05078125
 40
0.0546875
 40
0.05859375
 40
0.060546875
 40
0.0615234375
 40
0.0625
 40
0.0634765625
 40
0.064453125
 40
0.06640625
 40
0.0703125
 40
0.07421875
 40
0.078125
 40
0.0859375
 40
0.09375
 40
0.1015625
 40
0.109375
 40
0.11328125
 40
0.1171875
 40
0.12109375
 40
0.123046875
 40
0.1240234375
 40
0.125
 40
0.1259765625
 40
0.126953125
 40
0.12890625
 40
0.1328125
 40
0.13671875
 40
0.140625
 40
0.1484375
 40
0.15625
 40
0.1640625
 40
0.171875
 40
0.17578125
 40
0.1796875
 40
0.18359375
 40
0.185546875
 40
0.1865234375
 40
0.1875
 40
0.1884765625
 40
0.189453125
 40
0.19140625
 40
0.1953125
 40
0.19921875
 40
0.203125
 40
0.2109375
 40
0.21875
 40
0.2265625
 40
0.234375
 40
0.23828125
 40
0.2421875
 40
0.24609375
 40
0.248046875
 40
0.2490234375
 40
0.25
 40
0.2509765625
 40
0.251953125
 40
0.25390625
 40
0.2578125
 40
0.26171875
 40
0.265625
 40
0.2734375
 40
0.28125
 40
0.2890625
 40
0.296875
 40
0.30078125
 40
0.3046875
 40
0.30859375
 40
0.310546875
 40
0.3115234375
 40
0.3125
 40
0.3134765625
 40
0.314453125
 40
0.31640625
 40
0.3203125
 40
0.32421875
 40
0.328125
 40
0.3359375
 40
0.34375
 40
0.3515625
 40
0.359375
 40
0.36328125
 40
0.3671875
 40
0.37109375
 40
0.373046875
 40
0.375
 40
0.376953125
 40
0.37890625
 40
0.3828125
 40
0.38671875
 40
0.390625
 40
0.3984375
 40
0.40625
 40
0.4140625
 40
0.421875
 40
0.4296875
 40
0.43359375
 40
0.435546875
 40
0.4375
 40
0.439453125
 40
0.44140625
 40
0.4453125
 40
0.453125
 40
0.4609375
 40
0.46875
 40
0.484375
 40
0.4921875
 40
0.49609375
 40
0.5
 40
0.50390625
 40
0.5078125
 40
0.515625
 40
0.53125
 40
0.546875
 40
0.5546875
 40
0.55859375
 40
0.5625
 40
0.56640625
 40
0.5703125
 40
0.578125
 40
0.59375
 40
0.609375
 40
0.6171875
 40
0.62109375
 40
0.625
 40
0.62890625
 40
0.6328125
 40
0.640625
 40
0.65625
 40
0.671875
 40
0.6796875
 40
0.68359375
 40
0.685546875
 40
0.6875
 40
0.689453125
 40
0.69140625
 40
0.6953125
 40
0.703125
 40
0.71875
 40
0.7265625
 40
0.734375
 40
0.7421875
 40
0.74609375
 40
0.748046875
 40
0.75
 40
0.751953125
 40
0.75390625
 40
0.7578125
 40
0.765625
 40
0.7734375
 40
0.78125
 40
0.7890625
 40
0.796875
 40
0.80078125
 40
0.8046875
 40
0.80859375
 40
0.810546875
 40
0.8115234375
 40
0.8125
 40
0.8134765625
 40
0.814453125
 40
0.81640625
 40
0.8203125
 40
0.82421875
 40
0.828125
 40
0.8359375
 40
0.84375
 40
0.8515625
 40
0.859375
 40
0.86328125
 40
0.8671875
 40
0.87109375
 40
0.873046875
 40
0.8740234375
 40
0.875
 40
0.8759765625
 40
0.876953125
 40
0.87890625
 40
0.8828125
 40
0.88671875
 40
0.890625
 40
0.8984375
 40
0.90625
 40
0.9140625
 40
0.921875
 40
0.92578125
 40
0.9296875
 40
0.93359375
 40
0.935546875
 40
0.9365234375
 40
0.9375
 40
0.9384765625
 40
0.939453125
 40
0.94140625
 40
0.9453125
 40
0.94921875
 40
0.953125
 40
0.9609375
 40
0.96875
 40
0.984375
 40
1.0
 40
1.0
 40
1.0
 40
1.0
 10
10.2221853424
 20
9.7546750357
 30
0.0
 10
10.2218665864
 20
9.7541766926
 30
0.0
 10
10.2212290823
 20
9.7531800062
 30
0.0
 10
10.2204321628
 20
9.751934149
 30
0.0
 10
10.2197947098
 20
9.7509374617
 30
0.0
 10
10.2193961148
 20
9.7503145354
 30
0.0
 10
10.2190776667
 20
9.749816187
 30
0.0
 10
10.218837659
 20
9.7494424458
 30
0.0
 10
10.2186413797
 20
9.7491309308
 30
0.0
 10
10.2184966699
 20
9.748912996
 30
0.0
 10
10.2184253992
 20
9.7487882655
 30
0.0
 10
10.2183397742
 20
9.7486952707
 30
0.0
 10
10.2183771269
 20
9.7486001618
 30
0.0
 10
10.2183840344
 20
9.7484740874
 30
0.0
 10
10.2184161088
 20
9.7482531136
 30
0.0
 10
10.2184514803
 20
9.7479376163
 30
0.0
 10
10.2184983987
 20
9.7475589427
 30
0.0
 10
10.2185593937
 20
9.7470540714
 30
0.0
 10
10.2186361773
 20
9.7464229731
 30
0.0
 10
10.2187280709
 20
9.7456656587
 30
0.0
 10
10.2188200875
 20
9.7449083452
 30
0.0
 10
10.2188965636
 20
9.7442772444
 30
0.0
 10
10.2189581736
 20
9.7437723781
 30
0.0
 10
10.2190032163
 20
9.7433936893
 30
0.0
 10
10.219044456
 20
9.7430782397
 30
0.0
 10
10.2190660546
 20
9.7428571807
 30
0.0
 10
10.219089747
 20
9.7427312428
 30
0.0
 10
10.219075542
 20
9.7426357145
 30
0.0
 10
10.2191835591
 20
9.7425442948
 30
0.0
 10
10.2192849496
 20
9.7424209687
 30
0.0
 10
10.219482246
 20
9.7422058157
 30
0.0
 10
10.2197537134
 20
9.7418981052
 30
0.0
 10
10.2200839194
 20
9.741529002
 30
0.0
 10
10.2205226408
 20
9.7410368122
 30
0.0
 10
10.221071579
 20
9.7404215931
 30
0.0
 10
10.2217300596
 20
9.7396833215
 30
0.0
 10
10.2223886629
 20
9.7389450557
 30
0.0
 10
10.2229372942
 20
9.7383298219
 30
0.0
 10
10.2233766293
 20
9.7378376616
 30
0.0
 10
10.2237049636
 20
9.7374684685
 30
0.0
 10
10.2239822864
 20
9.7371610392
 30
0.0
 10
10.22416913
 20
9.7369453842
 30
0.0
 10
10.2242872686
 20
9.7368228624
 30
0.0
 10
10.2243438407
 20
9.7367289722
 30
0.0
 10
10.2245228545
 20
9.7366427224
 30
0.0
 10
10.2247188305
 20
9.7365250575
 30
0.0
 10
10.2250816875
 20
9.7363203857
 30
0.0
 10
10.2255896512
 20
9.7360273483
 30
0.0
 10
10.2262036607
 20
9.7356759812
 30
0.0
 10
10.2270207841
 20
9.7352073946
 30
0.0
 10
10.2280427253
 20
9.7346216953
 30
0.0
 10
10.2292688116
 20
9.7339188393
 30
0.0
 10
10.2304950111
 20
9.7332159965
 30
0.0
 10
10.2315166693
 20
9.7326302641
 30
0.0
 10
10.2323343585
 20
9.7321617436
 30
0.0
 10
10.2329466425
 20
9.7318101749
 30
0.0
 10
10.2334600044
 20
9.7315177683
 30
0.0
 10
10.2338132247
 20
9.7313119704
 30
0.0
 10
10.234024641
 20
9.7311961099
 30
0.0
 10
10.2341562274
 20
9.7311043176
 30
0.0
 10
10.2343909289
 20
9.7310312439
 30
0.0
 10
10.2346678966
 20
9.730927283
 30
0.0
 10
10.2351693481
 20
9.7307483935
 30
0.0
 10
10.2358769461
 20
9.7304912467
 30
0.0
 10
10.2367298139
 20
9.7301833513
 30
0.0
 10
10.2378656606
 20
9.7297725862
 30
0.0
 10
10.2392859213
 20
9.729259212
 30
0.0
 10
10.2409900286
 20
9.7286431252
 30
0.0
 10
10.2426942342
 20
9.7280270583
 30
0.0
 10
10.2441142493
 20
9.7275136343
 30
0.0
 10
10.2452505872
 20
9.7271029689
 30
0.0
 10
10.2461019568
 20
9.7267947695
 30
0.0
 10
10.2468142419
 20
9.7265385735
 30
0.0
 10
10.2473073261
 20
9.7263579867
 30
0.0
 10
10.2475977004
 20
9.7262567455
 30
0.0
 10
10.2477912211
 20
9.7261753177
 30
0.0
 10
10.248077476
 20
9.7261149016
 30
0.0
 10
10.2484268024
 20
9.7260270177
 30
0.0
 10
10.2490531946
 20
9.7258766356
 30
0.0
 10
10.2499401614
 20
9.7256600188
 30
0.0
 10
10.2510078939
 20
9.7254008427
 30
0.0
 10
10.2524303601
 20
9.725055008
 30
0.0
 10
10.2542088407
 20
9.724622804
 30
0.0
 10
10.2563428733
 20
9.7241041298
 30
0.0
 10
10.2584768459
 20
9.7235854303
 30
0.0
 10
10.2602554764
 20
9.7231532894
 30
0.0
 10
10.2616776429
 20
9.7228073285
 30
0.0
 10
10.2627462893
 20
9.7225485372
 30
0.0
 10
10.2636303972
 20
9.7223307166
 30
0.0
 10
10.2643521066
 20
9.7221613074
 30
0.0
 10
10.2648539778
 20
9.7220210052
 30
0.0
 10
10.2655062808
 20
9.7219312606
 30
0.0
 10
10.2663234703
 20
9.7217939407
 30
0.0
 10
10.2673629859
 20
9.7216283499
 30
0.0
 10
10.2686026883
 20
9.7214270478
 30
0.0
 10
10.2702583176
 20
9.7211595496
 30
0.0
 10
10.2723269497
 20
9.7208248747
 30
0.0
 10
10.2748096105
 20
9.7204233582
 30
0.0
 10
10.2772925094
 20
9.7200219517
 30
0.0
 10
10.2797741538
 20
9.7196200118
 30
0.0
 10
10.281846174
 20
9.7192867483
 30
0.0
 10
10.2832887722
 20
9.7190501556
 30
0.0
 10
10.2841253179
 20
9.7189201252
 30
0.0
 10
10.2847183488
 20
9.7188080513
 30
0.0
 10
10.285442791
 20
9.7187515992
 30
0.0
 10
10.286362876
 20
9.7186569278
 30
0.0
 10
10.2879943835
 20
9.7185002957
 30
0.0
 10
10.2903139254
 20
9.7182717838
 30
0.0
 10
10.2931022342
 20
9.7179997084
 30
0.0
 10
10.2968179251
 20
9.7176356705
 30
0.0
 10
10.3005362236
 20
9.7172749796
 30
0.0
 10
10.3037842378
 20
9.7169514231
 30
0.0
 10
10.3056483656
 20
9.716778492
 30
0.0
 10
10.3070236727
 20
9.7166151906
 30
0.0
 10
10.3084860752
 20
9.7165803226
 30
0.0
 10
10.3104055619
 20
9.7164890203
 30
0.0
 10
10.3137788534
 20
9.7163502457
 30
0.0
 10
10.3185901515
 20
9.7161400024
 30
0.0
 10
10.3234051807
 20
9.7159377264
 30
0.0
 10
10.3267732487
 20
9.7157877974
 30
0.0
 10
10.3287009438
 20
9.7157140235
 30
0.0
 10
10.3301381613
 20
9.7156253753
 30
0.0
 10
10.3316080519
 20
9.7156640483
 30
0.0
 10
10.3335565153
 20
9.7156711888
 30
0.0
 10
10.3369715731
 20
9.7157045075
 30
0.0
 10
10.3418479686
 20
9.7157402129
 30
0.0
 10
10.346723404
 20
9.7157838265
 30
0.0
 10
10.350139806
 20
9.7158060736
 30
0.0
 10
10.352086157
 20
9.7158306123
 30
0.0
 10
10.3535625287
 20
9.7158159043
 30
0.0
 10
10.3549754061
 20
9.7159277317
 30
0.0
 10
10.3568813864
 20
9.7160327018
 30
0.0
 10
10.3602065732
 20
9.7162369222
 30
0.0
 10
10.3649619035
 20
9.716518257
 30
0.0
 10
10.3697165587
 20
9.7168021353
 30
0.0
 10
10.3730426907
 20
9.7170027948
 30
0.0
 10
10.3747091238
 20
9.7170995398
 30
0.0
 10
10.3756559029
 20
9.7171606902
 30
0.0
 10
10.3763814305
 20
9.7171899747
 30
0.0
 10
10.3770479193
 20
9.7172826385
 30
0.0
 10
10.3779571624
 20
9.7173840848
 30
0.0
 10
10.3795387638
 20
9.7175718955
 30
0.0
 10
10.3827087507
 20
9.7179402139
 30
0.0
 10
10.3863288408
 20
9.7183642338
 30
0.0
 10
10.389949434
 20
9.7187873462
 30
0.0
 10
10.3926661218
 20
9.7191043187
 30
0.0
 10
10.3949256754
 20
9.7193700465
 30
0.0
 10
10.3965159602
 20
9.7195528876
 30
0.0
 10
10.3974112621
 20
9.7196623245
 30
0.0
 10
10.3981205791
 20
9.7197304386
 30
0.0
 10
10.39868525
 20
9.719851929
 30
0.0
 10
10.3994885988
 20
9.7199952979
 30
0.0
 10
10.4008709513
 20
9.7202548682
 30
0.0
 10
10.4028580333
 20
9.7206211467
 30
0.0
 10
10.4052372588
 20
9.7210626266
 30
0.0
 10
10.4076179074
 20
9.721503582
 30
0.0
 10
10.4099981364
 20
9.7219446894
 30
0.0
 10
10.4119818735
 20
9.7223122095
 30
0.0
 10
10.413568562
 20
9.722606316
 30
0.0
 10
10.4147593543
 20
9.7228266663
 30
0.0
 10
10.4157492202
 20
9.7230110192
 30
0.0
 10
10.4164469549
 20
9.7231386386
 30
0.0
 10
10.4168381212
 20
9.723213793
 30
0.0
 10
10.417152734
 20
9.7232638798
 30
0.0
 10
10.4173861642
 20
9.7233379679
 30
0.0
 10
10.4177257218
 20
9.7234283802
 30
0.0
 10
10.4183067541
 20
9.7235905023
 30
0.0
 10
10.419143698
 20
9.723820066
 30
0.0
 10
10.420145078
 20
9.7240964153
 30
0.0
 10
10.4214812832
 20
9.7244645761
 30
0.0
 10
10.4231511829
 20
9.7249248823
 30
0.0
 10
10.4251552276
 20
9.7254772022
 30
0.0
 10
10.4271591827
 20
9.7260295439
 30
0.0
 10
10.4288293066
 20
9.7264897956
 30
0.0
 10
10.4301650633
 20
9.7268580654
 30
0.0
 10
10.4311678114
 20
9.7271340822
 30
0.0
 10
10.4320004754
 20
9.7273646861
 30
0.0
 10
10.4325891479
 20
9.7275249513
 30
0.0
 10
10.4329164639
 20
9.7276183388
 30
0.0
 10
10.4331874966
 20
9.7276832878
 30
0.0
 10
10.4333608806
 20
9.7277676998
 30
0.0
 10
10.4336261202
 20
9.7278734603
 30
0.0
 10
10.4340744199
 20
9.7280617041
 30
0.0
 10
10.4347231449
 20
9.7283289703
 30
0.0
 10
10.4354980635
 20
9.7286503975
 30
0.0
 10
10.4365325292
 20
9.7290787197
 30
0.0
 10
10.4378251825
 20
9.7296142079
 30
0.0
 10
10.4393765638
 20
9.730256755
 30
0.0
 10
10.4409278421
 20
9.7308993204
 30
0.0
 10
10.4422207526
 20
9.7314347628
 30
0.0
 10
10.4432547039
 20
9.7318631766
 30
0.0
 10
10.4440311916
 20
9.7321843248
 30
0.0
 10
10.4446750079
 20
9.7324524637
 30
0.0
 10
10.4451320703
 20
9.7326391495
 30
0.0
 10
10.4453832699
 20
9.7327474064
 30
0.0
 10
10.4455997803
 20
9.7328241501
 30
0.0
 10
10.4457088377
 20
9.7329178998
 30
0.0
 10
10.4458917284
 20
9.7330369676
 30
0.0
 10
10.4461943241
 20
9.7332480998
 30
0.0
 10
10.4466357335
 20
9.7335482725
 30
0.0
 10
10.4471615169
 20
9.7339090981
 30
0.0
 10
10.4478639264
 20
9.7343899829
 30
0.0
 10
10.4487414709
 20
9.7349911629
 30
0.0
 10
10.4501458034
 20
9.7359530096
 30
0.0
 10
10.4519011288
 20
9.7371553322
 30
0.0
 10
10.4533054167
 20
9.7381171859
 30
0.0
 10
10.4540075571
 20
9.7385981133
 30
0.0
  0
ELLIPSE
  5
36A
100
AcDbEntity
  8
0
100
AcDbEllipse
 62
7
  6
CONTINUOUS
 10
8.3698613634
 20
8.1230971179
 30
0.0
 11
-0.0510920615
 21
0.2788857873
 31
0.0
 40
0.8462769822
 41
0.0
 42
6.2831853072
  0
ENDSEC
  0
SECTION
  2
OBJECTS
  0
DICTIONARY
  5
C
100
AcDbDictionary
280
0
281
1
  3
ACAD_GROUP
350
D
  3
ACAD_MLINESTYLE
350
17
  3
ACAD_LAYOUT
350
1A
  3
ACAD_PLOTSETTINGS
350
19
  3
ACAD_PLOTSTYLENAME
350
E
  3
ACAD_IMAGE_DICT
350
       36C
  3
ACAD_IMAGE_VARS
350
       36D
  3
ACAD_TABLESTYLE
350
       36E
  0
IMAGEDEF_REACTOR
  5
36B
100
AcDbRasterImageDefReactor
 90
2
330
26D
  0
DICTIONARY
  5
D
102
{ACAD_REACTORS
330
C
102
}
100
AcDbDictionary
280
0
281
1
  0
ACDBDICTIONARYWDFLT
  5
E
102
{ACAD_REACTORS
330
C
102
}
100
AcDbDictionary
281
1
  3
Normal
350
F
100
AcDbDictionaryWithDefault
340
F
  0
DICTIONARY
  5
36C
330
C
100
AcDbDictionary
281
1
  3
GDD_assy_2_img_1
350
       371
  0
RASTERVARIABLES
  5
36D
330
C
100
AcDbRasterVariables
 90
0
 70
0
 71
1
 72
5
  0
DICTIONARY
  5
17
102
{ACAD_REACTORS
330
C
102
}
100
AcDbDictionary
280
0
281
1
  3
Standard
350
18
  0
DICTIONARY
  5
36E
330
C
100
AcDbDictionary
281
1
  3
Standard
350
       372
  3
Standard1
350
       373
  0
DICTIONARY
  5
19
102
{ACAD_REACTORS
330
C
102
}
100
AcDbDictionary
281
1
  0
DICTIONARY
  5
1A
102
{ACAD_REACTORS
330
C
102
}
100
AcDbDictionary
281
1
  3
Model
350
36F
  3
Layout1
350
370
  0
ACDBPLACEHOLDER
  5
F
102
{ACAD_REACTORS
330
E
102
}
  0
MLINESTYLE
  5
18
102
{ACAD_REACTORS
330
17
102
}
100
AcDbMlineStyle
  2
STANDARD
 70
0
  3

 62
256
 51
90.0
 52
90.0
 71
2
 49
0.5
 62
256
  6
BYLAYER
 49
-0.5
 62
256
  6
BYLAYER
  0
LAYOUT
  5
36F
102
{ACAD_REACTORS
330
1A
102
}
100
AcDbPlotSettings
  1

  2
none_device
  4
ANSI_C_(22.00_x_17.00_Inches)
  6

 40
0.0
 41
0.0
 42
0.0
 43
0.0
 44
558.8
 45
431.8
 46
0.0
 47
0.0
 48
0.0
 49
0.0
140
0.0
141
0.0
142
1.0
143
1.0
 70
1024
 72
0
 73
0
 74
0
  7

 75
0
147
1.0
148
0.0
149
0.0
100
AcDbLayout
  1
Model
 70
0
 71
0
 10
0.0
 20
0.0
 11
22.0
 21
17.0
 12
0.0
 22
0.0
 32
0.0
 14
0.0
 24
0.0
 34
0.0
 15
0.0
 25
0.0
 35
0.0
146
0.0
 13
0.0
 23
0.0
 33
0.0
 16
1.0
 26
0.0
 36
0.0
 17
0.0
 27
1.0
 37
0.0
 76
0
330
207
345
0
346
0
  0
LAYOUT
  5
370
102
{ACAD_REACTORS
330
1A
102
}
100
AcDbPlotSettings
  1

  2
none_device
  4
ANSI_C_(22.00_x_17.00_Inches)
  6

 40
0.0
 41
0.0
 42
0.0
 43
0.0
 44
558.8
 45
431.8
 46
0.0
 47
0.0
 48
0.0
 49
0.0
140
0.0
141
0.0
142
1.0
143
1.0
 70
0
 72
0
 73
0
 74
0
  7

 75
0
147
1.0
148
0.0
149
0.0
100
AcDbLayout
  1
Layout1
 70
0
 71
1
 10
0.0
 20
0.0
 11
22.0
 21
17.0
 12
0.0
 22
0.0
 32
0.0
 14
0.0
 24
0.0
 34
0.0
 15
0.0
 25
0.0
 35
0.0
146
0.0
 13
0.0
 23
0.0
 33
0.0
 16
1.0
 26
0.0
 36
0.0
 17
0.0
 27
1.0
 37
0.0
 76
0
330
208
345
0
346
0
  0
IMAGEDEF
  5
371
102
{ACAD_REACTORS
330
36C
330
36B
102
}
100
AcDbRasterImageDef
 90
0
  1
GDD_assy_2_img_1.png
 10
369.0
 20
92.0
 11
0.0066666667
 21
0.0066666667
280
1
281
0
  0
TABLESTYLE
  5
372
102
{ACAD_REACTORS
330
36E
330
270
102
}
330
36E
100
AcDbTableStyle
  3
Standard
 70
0
 71
0
 40
0.06
 41
0.06
280
1
281
1
  7
Standard
140
0.18
170
1
 62
0
 63
7
283
0
  7
Standard
140
0.18
170
1
 62
0
 63
7
283
0
  7
Standard
140
0.18
170
1
 62
0
 63
7
283
0
  0
TABLESTYLE
  5
373
102
{ACAD_REACTORS
330
36E
330
26F
102
}
330
36E
100
AcDbTableStyle
  3
Standard1
 70
1
 71
0
 40
0.06
 41
0.06
280
1
281
1
  7
Standard
140
0.18
170
1
 62
0
 63
7
283
0
  7
Standard
140
0.18
170
1
 62
0
 63
7
283
0
  7
Standard
140
0.18
170
1
 62
0
 63
7
283
0
  0
ENDSEC
  0
EOF
