999
DXF file: GDA_assy_2.dxf
999
Pro/ENGINEER 2014200 by Parametric Technology Corporation
  0
SECTION
  2
HEADER
  9
$ACADVER
  1
AC1021
  9
$DWGCODEPAGE
  3
ANSI_1252
  9
$EXTMAX
 10
22.0
 20
17.0
 30
0.0
  9
$EXTMIN
 10
0.0
 20
0.0
 30
0.0
  9
$LIMMIN
 10
0.0
 20
0.0
  9
$LIMMAX
 10
22.0
 20
17.0
  9
$VIEWCTR
 10
11.0
 20
8.5
  9
$VIEWSIZE
 40
17.0
  9
$CLAYER
  8
0
  9
$LTSCALE
 40
1.21
  9
$CELTYPE
  6
BYLAYER
  9
$DIMSCALE
 40
1.0
  9
$DIMASZ
 40
0.1875
  9
$DIMEXO
 40
0.0625
  9
$DIMDLI
 40
0.836
  9
$DIMEXE
 40
0.125
  9
$DIMCEN
 40
0.198
  9
$DIMLFAC
 40
1.0
  9
$DIMBLK
  1
_FILLED
  9
$DIMTXT
 40
0.1
  9
$DIMTOL
 70
0
  9
$DIMLIM
 70
0
  9
$DIMTFAC
 40
1.0
  9
$DIMGAP
 40
0.09
  9
$DIMDSEP
 70
46
  9
$AUNITS
 70
0
  9
$PDMODE
 70
3
  9
$PDSIZE
 40
0.3125
  9
$HANDSEED
  5
371
  9
$TILEMODE
 70
1
  9
$MEASUREMENT
 70
0
  9
$INSUNITS
 70
1
  0
ENDSEC
  0
SECTION
  2
CLASSES
  0
CLASS
  1
ACDBDICTIONARYWDFLT
  2
AcDbDictionaryWithDefault
  3
AutoCAD 2000
 90
0
 91
1
280
0
281
0
  0
CLASS
  1
ACDBPLACEHOLDER
  2
AcDbPlaceHolder
  3
AutoCAD 2000
 90
0
 91
1
280
0
281
0
  0
CLASS
  1
LAYOUT
  2
AcDbLayout
  3
AutoCAD 2000
 90
0
 91
0
280
0
281
0
  0
CLASS
  1
RASTERVARIABLES
  2
AcDbRasterVariables
  3
ISM
 90
0
 91
1
280
0
281
0
  0
CLASS
  1
IMAGEDEF
  2
AcDbRasterImageDef
  3
ISM
 90
0
 91
1
280
0
281
0
  0
CLASS
  1
IMAGEDEF_REACTOR
  2
AcDbRasterImageDefReactor
  3
ISM
 90
0
 91
1
280
0
281
0
  0
CLASS
  1
IMAGE
  2
AcDbRasterImage
  3
ISM
 90
127
 91
1
280
0
281
1
  0
CLASS
  1
TABLESTYLE
  2
AcDbTableStyle
  3
ObjectDBX Classes
 90
2047
 91
1
280
0
281
0
  0
CLASS
  1
ACAD_TABLE
  2
AcDbTable
  3
ObjectDBX Classes
 90
1025
 91
2
280
0
281
1
  0
ENDSEC
  0
SECTION
  2
TABLES
  0
TABLE
  2
VPORT
  5
8
100
AcDbSymbolTable
 70
2
  0
VPORT
  5
1F4
100
AcDbSymbolTableRecord
100
AcDbViewportTableRecord
  2
*ACTIVE
 70
0
 10
0.0
 20
0.0
 11
1.0
 21
1.0
 12
11.0
 22
8.5
 13
0.0
 23
0.0
 14
1.0
 24
1.0
 15
0.0
 25
0.0
 16
0.0
 26
0.0
 36
1.0
 17
0.0
 27
0.0
 37
0.0
 40
17.0
 41
1.2941176471
 42
50.0
 43
0.0
 44
0.0
 50
0.0
 51
0.0
 71
0
 72
100
 73
1
 74
1
 75
0
 76
0
 77
0
 78
0
  0
ENDTAB
  0
TABLE
  2
LTYPE
  5
5
100
AcDbSymbolTable
 70
6
  0
LTYPE
  5
14
100
AcDbSymbolTableRecord
100
AcDbLinetypeTableRecord
  2
BYBLOCK
 70
0
  3

 72
65
 73
0
 40
0.0
  0
LTYPE
  5
15
100
AcDbSymbolTableRecord
100
AcDbLinetypeTableRecord
  2
BYLAYER
 70
0
  3

 72
65
 73
0
 40
0.0
  0
LTYPE
  5
16
100
AcDbSymbolTableRecord
100
AcDbLinetypeTableRecord
  2
CONTINUOUS
 70
64
  3
Solid line
 72
65
 73
0
 40
0.0
  0
LTYPE
  5
1F5
100
AcDbSymbolTableRecord
100
AcDbLinetypeTableRecord
  2
CENTER
 70
64
  3
____ _ ____ _ ____ _ ____ _ ____ _ ____ _ ____
 72
65
 73
4
 40
0.6
 49
0.375
 74
0
 49
-0.075
 74
0
 49
0.075
 74
0
 49
-0.075
 74
0
  0
LTYPE
  5
1F6
100
AcDbSymbolTableRecord
100
AcDbLinetypeTableRecord
  2
HIDDEN
 70
64
  3
- - - - - - - - - - - - - - - - - - - -
 72
65
 73
2
 40
0.2
 49
0.1
 74
0
 49
-0.1
 74
0
  0
LTYPE
  5
1F7
100
AcDbSymbolTableRecord
100
AcDbLinetypeTableRecord
  2
PHANTOM
 70
64
  3
_____ _ _ _____ _ _ _____ _ _ _____
 72
65
 73
6
 40
0.8
 49
0.45
 74
0
 49
-0.05
 74
0
 49
0.1
 74
0
 49
-0.05
 74
0
 49
0.1
 74
0
 49
-0.05
 74
0
  0
LTYPE
  5
1F8
100
AcDbSymbolTableRecord
100
AcDbLinetypeTableRecord
  2
DOT
 70
64
  3
. . . . . . . . . . . . . . . . . . . .
 72
65
 73
2
 40
0.2
 49
0.1
 74
0
 49
-0.1
 74
0
  0
LTYPE
  5
1F9
100
AcDbSymbolTableRecord
100
AcDbLinetypeTableRecord
  2
DASHED
 70
64
  3
- - - - - - - - - - - - - - - - - - - -
 72
65
 73
2
 40
0.2
 49
0.1
 74
0
 49
-0.1
 74
0
  0
ENDTAB
  0
TABLE
  2
LAYER
  5
2
100
AcDbSymbolTable
 70
36
  0
LAYER
  5
10
100
AcDbSymbolTableRecord
100
AcDbLayerTableRecord
  2
0
 70
0
 62
7
  6
CONTINUOUS
370
-3
390
F
  0
LAYER
  5
1FA
100
AcDbSymbolTableRecord
100
AcDbLayerTableRecord
  2
DEFAULT_1
 70
0
 62
7
  6
CENTER
370
-3
390
F
  0
LAYER
  5
1FB
100
AcDbSymbolTableRecord
100
AcDbLayerTableRecord
  2
DEFAULT_2
 70
0
 62
8
  6
HIDDEN
370
-3
390
F
  0
LAYER
  5
1FC
100
AcDbSymbolTableRecord
100
AcDbLayerTableRecord
  2
DEFAULT_3
 70
0
 62
7
  6
PHANTOM
370
-3
390
F
  0
LAYER
  5
1FD
100
AcDbSymbolTableRecord
100
AcDbLayerTableRecord
  2
DATUM_PLANES
 70
0
 62
7
  6
CONTINUOUS
370
-3
390
F
  0
LAYER
  5
1FE
100
AcDbSymbolTableRecord
100
AcDbLayerTableRecord
  2
DIMENSIONS
 70
0
 62
7
  6
CONTINUOUS
370
-3
390
F
  0
LAYER
  5
1FF
100
AcDbSymbolTableRecord
100
AcDbLayerTableRecord
  2
PARAMETERDIMENSIONS
 70
0
 62
7
  6
CONTINUOUS
370
-3
390
F
  0
LAYER
  5
200
100
AcDbSymbolTableRecord
100
AcDbLayerTableRecord
  2
PLANE
 70
0
 62
7
  6
CONTINUOUS
370
-3
390
F
  0
LAYER
  5
201
100
AcDbSymbolTableRecord
100
AcDbLayerTableRecord
  2
PORT_AREAS
 70
0
 62
7
  6
CONTINUOUS
370
-3
390
F
  0
LAYER
  5
202
100
AcDbSymbolTableRecord
100
AcDbLayerTableRecord
  2
SUNNBOMCOSMETIC
 70
0
 62
7
  6
CONTINUOUS
370
-3
390
F
  0
LAYER
  5
203
100
AcDbSymbolTableRecord
100
AcDbLayerTableRecord
  2
SUNNBOMSTAMPING
 70
0
 62
7
  6
CONTINUOUS
370
-3
390
F
  0
LAYER
  5
204
100
AcDbSymbolTableRecord
100
AcDbLayerTableRecord
  2
THREADS
 70
0
 62
7
  6
CONTINUOUS
370
-3
390
F
  0
ENDTAB
  0
TABLE
  2
STYLE
  5
3
100
AcDbSymbolTable
 70
1
  0
STYLE
  5
11
100
AcDbSymbolTableRecord
100
AcDbTextStyleTableRecord
  2
STANDARD
 70
0
 40
0.0
 41
0.8
 50
0.0
 71
0
 42
0.2
  3
txt
  4

  0
STYLE
  5
205
100
AcDbSymbolTableRecord
100
AcDbTextStyleTableRecord
  2
TEXTSTYLE_1
 70
0
 40
0.0
 41
0.8
 50
0.0
 71
0
 42
0.2
  3
gdt
  4

  0
ENDTAB
  0
TABLE
  2
VIEW
  5
6
100
AcDbSymbolTable
 70
0
  0
ENDTAB
  0
TABLE
  2
UCS
  5
7
100
AcDbSymbolTable
 70
0
  0
ENDTAB
  0
TABLE
  2
APPID
  5
9
100
AcDbSymbolTable
 70
1
  0
APPID
  5
206
100
AcDbSymbolTableRecord
100
AcDbRegAppTableRecord
  2
ACAD
 70
0
  0
ENDTAB
  0
TABLE
  2
BLOCK_RECORD
  5
1
100
AcDbSymbolTable
 70
0
  0
BLOCK_RECORD
  5
207
100
AcDbSymbolTableRecord
100
AcDbBlockTableRecord
  2
*Model_Space
  0
BLOCK_RECORD
  5
208
100
AcDbSymbolTableRecord
100
AcDbBlockTableRecord
  2
*Paper_Space
  0
BLOCK_RECORD
  5
209
100
AcDbSymbolTableRecord
100
AcDbBlockTableRecord
  2
SUN_FIRST_THIRD_ANGLE_BL0
  0
BLOCK_RECORD
  5
20A
100
AcDbSymbolTableRecord
100
AcDbBlockTableRecord
  2
*T1
  0
BLOCK_RECORD
  5
20B
100
AcDbSymbolTableRecord
100
AcDbBlockTableRecord
  2
*T2
  0
ENDTAB
  0
TABLE
  2
DIMSTYLE
  5
A
100
AcDbSymbolTable
 70
1
100
AcDbDimStyleTable
 71
0
  0
DIMSTYLE
105
20C
100
AcDbSymbolTableRecord
100
AcDbDimStyleTableRecord
  2
STANDARD
 70
0
  3

  4

 40
1.0
 41
0.1875
 42
0.0625
 43
0.38
 44
0.125
 45
0.0
 46
0.0
 47
0.001
 48
0.001
140
0.1
141
0.09
142
0.0
143
25.4
144
1.0
145
0.0
146
1.0
147
0.09
 71
0.0
 72
0.0
 73
1
 74
1
 75
0
 76
0
 77
0
 78
4
170
0
171
2
172
0
173
0
174
0
175
0
176
0
177
0
178
0
270
2
271
3
272
3
273
2
274
2
275
0
280
0
281
0
282
0
283
1
284
4
285
0
286
0
287
3
288
0
340
11
278
46
  0
ENDTAB
  0
ENDSEC
  0
SECTION
  2
BLOCKS
  0
BLOCK
  5
20
100
AcDbEntity
  8
0
100
AcDbBlockBegin
  2
*Model_Space
 70
0
 10
0.0
 20
0.0
 30
0.0
  3
*Model_Space
  1

  0
ENDBLK
  5
21
100
AcDbEntity
  8
0
100
AcDbBlockEnd
  0
BLOCK
  5
1C
100
AcDbEntity
  8
0
100
AcDbBlockBegin
  2
*Paper_Space
 70
0
 10
0.0
 20
0.0
 30
0.0
  3
*Paper_Space
  1

  0
ENDBLK
  5
1D
100
AcDbEntity
  8
0
100
AcDbBlockEnd
  0
BLOCK
  5
20D
100
AcDbEntity
  8
0
100
AcDbBlockBegin
 62
2
  6
CONTINUOUS
  2
SUN_FIRST_THIRD_ANGLE_BL0
 70
64
 10
20.4816717061
 20
1.2289683772
  3
SUN_FIRST_THIRD_ANGLE_BL0
  1

  0
TEXT
  5
20E
100
AcDbEntity
  8
0
100
AcDbText
 62
2
  6
CONTINUOUS
 10
19.4750896608
 20
1.4136269581
  7
STANDARD
 40
0.08
  1
FIRST ANGLE
 41
0.8
 72
0
100
AcDbText
  0
TEXT
  5
20F
100
AcDbEntity
  8
0
100
AcDbText
 62
2
  6
CONTINUOUS
 10
20.7842537513
 20
1.4047600029
  7
STANDARD
 40
0.08
  1
THIRD ANGLE
 41
0.8
 72
0
100
AcDbText
  0
LINE
  5
210
100
AcDbEntity
  8
0
100
AcDbLine
 62
7
  6
CONTINUOUS
 10
19.4767170086
 20
1.1727031207
 11
19.6334271527
 21
1.1717972817
  0
LINE
  5
211
100
AcDbEntity
  8
0
100
AcDbLine
 62
7
  6
CONTINUOUS
 10
19.6596964832
 20
1.1717972817
 11
19.6950230232
 21
1.171593082
  0
LINE
  5
212
100
AcDbEntity
  8
0
100
AcDbLine
 62
7
  6
CONTINUOUS
 10
19.7194818561
 20
1.1708914427
 11
19.8852396156
 21
1.1699333054
  0
LINE
  5
213
100
AcDbEntity
  8
0
100
AcDbLine
 62
7
  6
CONTINUOUS
 10
19.4758111696
 20
1.2723454088
 11
19.88525039
 21
1.3511534004
  0
LINE
  5
214
100
AcDbEntity
  8
0
100
AcDbLine
 62
7
  6
CONTINUOUS
 10
19.88525039
 20
1.3511534004
 11
19.8831348489
 21
0.9851647912
  0
LINE
  5
215
100
AcDbEntity
  8
0
100
AcDbLine
 62
7
  6
CONTINUOUS
 10
19.8831348489
 20
0.9851647912
 11
19.4767170086
 21
1.0658141206
  0
LINE
  5
216
100
AcDbEntity
  8
0
100
AcDbLine
 62
7
  6
CONTINUOUS
 10
19.4767170086
 20
1.0658141206
 11
19.4779056764
 21
1.2714536432
  0
CIRCLE
  5
217
100
AcDbEntity
  8
0
100
AcDbCircle
 62
7
  6
CONTINUOUS
 10
20.2068232291
 20
1.1717972817
 40
0.175742101
  0
CIRCLE
  5
218
100
AcDbEntity
  8
0
100
AcDbCircle
 62
7
  6
CONTINUOUS
 10
20.2068232291
 20
1.1717972817
 40
0.1005522074
  0
LINE
  5
219
100
AcDbEntity
  8
0
100
AcDbLine
 62
7
  6
CONTINUOUS
 10
20.2077290681
 20
1.3756110529
 11
20.2071171714
 21
1.2379342989
  0
LINE
  5
21A
100
AcDbEntity
  8
0
100
AcDbLine
 62
7
  6
CONTINUOUS
 10
20.2077290681
 20
1.2016899681
 11
20.2074674401
 21
1.1428236749
  0
LINE
  5
21B
100
AcDbEntity
  8
0
100
AcDbLine
 62
7
  6
CONTINUOUS
 10
20.208634907
 20
1.101141841
 11
20.2080230104
 21
0.963465087
  0
LINE
  5
21C
100
AcDbEntity
  8
0
100
AcDbLine
 62
7
  6
CONTINUOUS
 10
20.0066328138
 20
1.1745147986
 11
20.1443095678
 21
1.1739029019
  0
LINE
  5
21D
100
AcDbEntity
  8
0
100
AcDbLine
 62
7
  6
CONTINUOUS
 10
20.1832714155
 20
1.1727031207
 11
20.238153505
 21
1.172335442
  0
LINE
  5
21E
100
AcDbEntity
  8
0
100
AcDbLine
 62
7
  6
CONTINUOUS
 10
20.2756669918
 20
1.1717972817
 11
20.407916871
 21
1.1712095044
  0
CIRCLE
  5
21F
100
AcDbEntity
  8
0
100
AcDbCircle
 62
7
  6
CONTINUOUS
 10
20.7509457401
 20
1.1693297793
 40
0.1722024983
  0
CIRCLE
  5
220
100
AcDbEntity
  8
0
100
AcDbCircle
 62
7
  6
CONTINUOUS
 10
20.7509457401
 20
1.1693297793
 40
0.0985164967
  0
LINE
  5
221
100
AcDbEntity
  8
0
100
AcDbLine
 62
7
  6
CONTINUOUS
 10
20.7169767782
 20
1.170462078
 11
20.7825395137
 21
1.1682766535
  0
LINE
  5
222
100
AcDbEntity
  8
0
100
AcDbLine
 62
7
  6
CONTINUOUS
 10
20.8177513651
 20
1.1693297793
 11
20.947965719
 21
1.1693297793
  0
LINE
  5
223
100
AcDbEntity
  8
0
100
AcDbLine
 62
7
  6
CONTINUOUS
 10
20.6875370113
 20
1.170462078
 11
20.5573226574
 21
1.170462078
  0
LINE
  5
224
100
AcDbEntity
  8
0
100
AcDbLine
 62
7
  6
CONTINUOUS
 10
20.7486811426
 20
1.1987695462
 11
20.7486811426
 21
1.1432869085
  0
LINE
  5
225
100
AcDbEntity
  8
0
100
AcDbLine
 62
7
  6
CONTINUOUS
 10
20.7498134414
 20
1.1059210505
 11
20.7498134414
 21
0.9757066966
  0
LINE
  5
226
100
AcDbEntity
  8
0
100
AcDbLine
 62
7
  6
CONTINUOUS
 10
20.7486811426
 20
1.2338708068
 11
20.7486811426
 21
1.3640851607
  0
LINE
  5
227
100
AcDbEntity
  8
0
100
AcDbLine
 62
7
  6
CONTINUOUS
 10
21.0702539817
 20
1.2701043662
 11
21.4790138229
 21
1.3448360823
  0
LINE
  5
228
100
AcDbEntity
  8
0
100
AcDbLine
 62
7
  6
CONTINUOUS
 10
21.4790138229
 20
1.3448360823
 11
21.4790138229
 21
0.9779712941
  0
LINE
  5
229
100
AcDbEntity
  8
0
100
AcDbLine
 62
7
  6
CONTINUOUS
 10
21.4790138229
 20
0.9779712941
 11
21.069121683
 21
1.0617614
  0
LINE
  5
22A
100
AcDbEntity
  8
0
100
AcDbLine
 62
7
  6
CONTINUOUS
 10
21.0702539817
 20
1.2701043662
 11
21.069121683
 21
1.0617614
  0
LINE
  5
22B
100
AcDbEntity
  8
0
100
AcDbLine
 62
7
  6
CONTINUOUS
 10
21.4790138229
 20
1.1693297793
 11
21.3159628059
 21
1.1693297793
  0
LINE
  5
22C
100
AcDbEntity
  8
0
100
AcDbLine
 62
7
  6
CONTINUOUS
 10
21.2876553377
 20
1.1693297793
 11
21.2502894796
 21
1.1693297793
  0
LINE
  5
22D
100
AcDbEntity
  8
0
100
AcDbLine
 62
7
  6
CONTINUOUS
 10
21.2208497126
 20
1.1659328831
 11
21.0713862804
 21
1.1659328831
  0
LINE
  5
22E
100
AcDbEntity
  8
0
100
AcDbLine
 62
7
  6
CONTINUOUS
 10
20.4796138713
 20
1.5284908897
 11
20.4766766948
 21
0.9294458646
  0
ENDBLK
  5
22F
100
AcDbEntity
  8
0
  6
BYBLOCK
 62
0
100
AcDbBlockEnd
  0
BLOCK
  5
230
100
AcDbEntity
  8
0
100
AcDbBlockBegin
  2
*T1
 70
1
 10
0.0
 20
0.0
  3
*T1
  1

  0
LINE
  5
231
100
AcDbEntity
  8
0
100
AcDbLine
 62
2
  6
CONTINUOUS
 10
9.275
 20
0.0
 11
-0.0
 21
0.0
  0
LINE
  5
232
100
AcDbEntity
  8
0
100
AcDbLine
 62
2
  6
CONTINUOUS
 10
9.275
 20
0.0
 11
9.275
 21
1.25
  0
LINE
  5
233
100
AcDbEntity
  8
0
100
AcDbLine
 62
2
  6
CONTINUOUS
 10
9.275
 20
0.625
 11
-0.0
 21
0.625
  0
LINE
  5
234
100
AcDbEntity
  8
0
100
AcDbLine
 62
2
  6
CONTINUOUS
 10
9.275
 20
1.25
 11
-0.0
 21
1.25
  0
LINE
  5
235
100
AcDbEntity
  8
0
100
AcDbLine
 62
2
  6
CONTINUOUS
 10
6.8
 20
0.0
 11
6.8
 21
1.25
  0
LINE
  5
236
100
AcDbEntity
  8
0
100
AcDbLine
 62
2
  6
CONTINUOUS
 10
6.4
 20
0.0
 11
6.4
 21
0.625
  0
LINE
  5
237
100
AcDbEntity
  8
0
100
AcDbLine
 62
2
  6
CONTINUOUS
 10
5.9
 20
0.0
 11
5.9
 21
0.625
  0
LINE
  5
238
100
AcDbEntity
  8
0
100
AcDbLine
 62
2
  6
CONTINUOUS
 10
5.2
 20
0.0
 11
5.2
 21
0.625
  0
LINE
  5
239
100
AcDbEntity
  8
0
100
AcDbLine
 62
2
  6
CONTINUOUS
 10
4.1
 20
0.0
 11
4.1
 21
1.25
  0
LINE
  5
23A
100
AcDbEntity
  8
0
100
AcDbLine
 62
2
  6
CONTINUOUS
 10
-0.0
 20
0.0
 11
-0.0
 21
1.25
  0
MTEXT
  5
23B
100
AcDbEntity
  8
0
100
AcDbMText
 62
2
  6
CONTINUOUS
  7
STANDARD
 71
2
 72
1
 10
6.6
 20
0.325
 30
0.0
 11
1.0
 21
0.0
 31
0.0
 44
0.9
  1
2
 40
0.125
 41
0.2
  0
MTEXT
  5
23C
100
AcDbEntity
  8
0
100
AcDbMText
 62
2
  6
CONTINUOUS
  7
STANDARD
 71
2
 72
1
 10
6.15
 20
0.325
 30
0.0
 11
1.0
 21
0.0
 31
0.0
 44
0.9
  1
C
 40
0.125
 41
0.2
  0
MTEXT
  5
23D
100
AcDbEntity
  8
0
100
AcDbMText
 62
2
  6
CONTINUOUS
  7
STANDARD
 71
2
 72
1
 10
5.55
 20
0.325
 30
0.0
 11
1.0
 21
0.0
 31
0.0
 44
0.9
  1
2.000
 40
0.125
 41
1.0
  0
MTEXT
  5
23E
100
AcDbEntity
  8
0
100
AcDbMText
 62
2
  6
CONTINUOUS
  7
STANDARD
 71
2
 72
1
 10
4.65
 20
0.325
 30
0.0
 11
1.0
 21
0.0
 31
0.0
 44
0.9
  1
Aug-23-22
 40
0.125
 41
1.8
  0
MTEXT
  5
23F
100
AcDbEntity
  8
0
100
AcDbMText
 62
2
  6
CONTINUOUS
  7
STANDARD
 71
2
 72
1
 10
2.05
 20
0.4625
 30
0.0
 11
1.0
 21
0.0
 31
0.0
 44
0.9
  1
T-13A Sandwich ISO 03\PFlow into or out of workport A or B
 40
0.125
 41
7.0
  0
MTEXT
  5
240
100
AcDbEntity
  8
0
100
AcDbMText
 62
2
  6
CONTINUOUS
  7
STANDARD
 71
1
 72
1
 10
6.45
 20
0.5625
 30
0.0
 11
1.0
 21
0.0
 31
0.0
 44
0.9
  1
SHEET
 40
0.06
 41
0.48
  0
MTEXT
  5
241
100
AcDbEntity
  8
0
100
AcDbMText
 62
2
  6
CONTINUOUS
  7
STANDARD
 71
1
 72
1
 10
5.95
 20
0.5625
 30
0.0
 11
1.0
 21
0.0
 31
0.0
 44
0.9
  1
DWG SIZE
 40
0.06
 41
0.768
  0
MTEXT
  5
242
100
AcDbEntity
  8
0
100
AcDbMText
 62
2
  6
CONTINUOUS
  7
STANDARD
 71
1
 72
1
 10
5.25
 20
0.5625
 30
0.0
 11
1.0
 21
0.0
 31
0.0
 44
0.9
  1
SCALE
 40
0.06
 41
0.48
  0
MTEXT
  5
243
100
AcDbEntity
  8
0
100
AcDbMText
 62
2
  6
CONTINUOUS
  7
STANDARD
 71
1
 72
1
 10
4.15
 20
0.5625
 30
0.0
 11
1.0
 21
0.0
 31
0.0
 44
0.9
  1
DATE
 40
0.06
 41
0.384
  0
MTEXT
  5
244
100
AcDbEntity
  8
0
100
AcDbMText
 62
2
  6
CONTINUOUS
  7
STANDARD
 71
1
 72
1
 10
0.05
 20
0.5625
 30
0.0
 11
1.0
 21
0.0
 31
0.0
 44
0.9
  1
DESCRIPTION
 40
0.06
 41
1.056
  0
MTEXT
  5
245
100
AcDbEntity
  8
0
100
AcDbMText
 62
2
  6
CONTINUOUS
  7
STANDARD
 71
2
 72
1
 10
5.45
 20
1.0375
 30
0.0
 11
1.0
 21
0.0
 31
0.0
 44
0.9
  1
ALL DIMENSIONS IN INCH\PVIEWS ARE THIRD ANGLE
 40
0.12
 41
4.224
  0
MTEXT
  5
246
100
AcDbEntity
  8
0
100
AcDbMText
 62
2
  6
CONTINUOUS
  7
STANDARD
 71
2
 72
1
 10
2.05
 20
0.95
 30
0.0
 11
1.0
 21
0.0
 31
0.0
 44
0.9
  1
GDA
 40
0.125
 41
0.6
  0
MTEXT
  5
247
100
AcDbEntity
  8
0
100
AcDbMText
 62
2
  6
CONTINUOUS
  7
STANDARD
 71
1
 72
1
 10
0.05
 20
1.1875
 30
0.0
 11
1.0
 21
0.0
 31
0.0
 44
0.9
  1
MODEL
 40
0.06
 41
0.48
  0
ENDBLK
  5
248
100
AcDbEntity
  8
0
  6
BYBLOCK
 62
0
100
AcDbBlockEnd
  0
BLOCK
  5
249
100
AcDbEntity
  8
0
100
AcDbBlockBegin
  2
*T2
 70
1
 10
0.0
 20
0.0
  3
*T2
  1

  0
LINE
  5
24A
100
AcDbEntity
  8
0
100
AcDbLine
 62
2
  6
CONTINUOUS
 10
0.0
 20
0.0
 11
9.055
 21
0.0
  0
LINE
  5
24B
100
AcDbEntity
  8
0
100
AcDbLine
 62
2
  6
CONTINUOUS
 10
0.0
 20
0.0
 11
0.0
 21
-2.344
  0
LINE
  5
24C
100
AcDbEntity
  8
0
100
AcDbLine
 62
2
  6
CONTINUOUS
 10
0.0
 20
-0.344
 11
9.055
 21
-0.344
  0
LINE
  5
24D
100
AcDbEntity
  8
0
100
AcDbLine
 62
2
  6
CONTINUOUS
 10
0.0
 20
-0.594
 11
9.055
 21
-0.594
  0
LINE
  5
24E
100
AcDbEntity
  8
0
100
AcDbLine
 62
2
  6
CONTINUOUS
 10
0.0
 20
-0.844
 11
9.055
 21
-0.844
  0
LINE
  5
24F
100
AcDbEntity
  8
0
100
AcDbLine
 62
2
  6
CONTINUOUS
 10
0.0
 20
-1.094
 11
9.055
 21
-1.094
  0
LINE
  5
250
100
AcDbEntity
  8
0
100
AcDbLine
 62
2
  6
CONTINUOUS
 10
0.0
 20
-1.344
 11
9.055
 21
-1.344
  0
LINE
  5
251
100
AcDbEntity
  8
0
100
AcDbLine
 62
2
  6
CONTINUOUS
 10
0.0
 20
-1.594
 11
9.055
 21
-1.594
  0
LINE
  5
252
100
AcDbEntity
  8
0
100
AcDbLine
 62
2
  6
CONTINUOUS
 10
0.0
 20
-1.844
 11
9.055
 21
-1.844
  0
LINE
  5
253
100
AcDbEntity
  8
0
100
AcDbLine
 62
2
  6
CONTINUOUS
 10
0.0
 20
-2.094
 11
9.055
 21
-2.094
  0
LINE
  5
254
100
AcDbEntity
  8
0
100
AcDbLine
 62
2
  6
CONTINUOUS
 10
0.0
 20
-2.344
 11
9.055
 21
-2.344
  0
LINE
  5
255
100
AcDbEntity
  8
0
100
AcDbLine
 62
2
  6
CONTINUOUS
 10
3.055
 20
0.0
 11
3.055
 21
-2.344
  0
LINE
  5
256
100
AcDbEntity
  8
0
100
AcDbLine
 62
2
  6
CONTINUOUS
 10
9.055
 20
0.0
 11
9.055
 21
-2.344
  0
MTEXT
  5
257
100
AcDbEntity
  8
0
100
AcDbMText
 62
2
  6
CONTINUOUS
  7
STANDARD
 71
2
 72
1
 10
1.5275
 20
-0.0995
 30
0.0
 11
1.0
 21
0.0
 31
0.0
 44
0.9
  1
Technical Data
 40
0.145
 41
3.248
  0
MTEXT
  5
258
100
AcDbEntity
  8
0
100
AcDbMText
 62
2
  6
CONTINUOUS
  7
STANDARD
 71
2
 72
1
 10
4.555
 20
-0.0995
 30
0.0
 11
1.0
 21
0.0
 31
0.0
 44
0.9
  1
U.S. Units
 40
0.145
 41
2.32
  0
MTEXT
  5
259
100
AcDbEntity
  8
0
100
AcDbMText
 62
2
  6
CONTINUOUS
  7
STANDARD
 71
2
 72
1
 10
7.555
 20
-0.0995
 30
0.0
 11
1.0
 21
0.0
 31
0.0
 44
0.9
  1
Metric Units
 40
0.145
 41
2.784
  0
MTEXT
  5
25A
100
AcDbEntity
  8
0
100
AcDbMText
 62
2
  6
CONTINUOUS
  7
STANDARD
 71
2
 72
1
 10
1.5275
 20
-0.4065
 30
0.0
 11
1.0
 21
0.0
 31
0.0
 44
0.9
  1
Cavity
 40
0.125
 41
1.2
  0
MTEXT
  5
25B
100
AcDbEntity
  8
0
100
AcDbMText
 62
2
  6
CONTINUOUS
  7
STANDARD
 71
2
 72
1
 10
6.055
 20
-0.4065
 30
0.0
 11
1.0
 21
0.0
 31
0.0
 44
0.9
  1
T-13A
 40
0.125
 41
1.0
  0
MTEXT
  5
25C
100
AcDbEntity
  8
0
100
AcDbMText
 62
2
  6
CONTINUOUS
  7
STANDARD
 71
2
 72
1
 10
1.5275
 20
-0.6565
 30
0.0
 11
1.0
 21
0.0
 31
0.0
 44
0.9
  1
Body Features
 40
0.125
 41
2.6
  0
MTEXT
  5
25D
100
AcDbEntity
  8
0
100
AcDbMText
 62
2
  6
CONTINUOUS
  7
STANDARD
 71
2
 72
1
 10
6.055
 20
-0.6565
 30
0.0
 11
1.0
 21
0.0
 31
0.0
 44
0.9
  1
Flow into or out of workport A or B
 40
0.125
 41
7.0
  0
MTEXT
  5
25E
100
AcDbEntity
  8
0
100
AcDbMText
 62
2
  6
CONTINUOUS
  7
STANDARD
 71
2
 72
1
 10
1.5275
 20
-0.9065
 30
0.0
 11
1.0
 21
0.0
 31
0.0
 44
0.9
  1
Body Type
 40
0.125
 41
1.8
  0
MTEXT
  5
25F
100
AcDbEntity
  8
0
100
AcDbMText
 62
2
  6
CONTINUOUS
  7
STANDARD
 71
2
 72
1
 10
6.055
 20
-0.9065
 30
0.0
 11
1.0
 21
0.0
 31
0.0
 44
0.9
  1
Sandwich
 40
0.125
 41
1.6
  0
MTEXT
  5
260
100
AcDbEntity
  8
0
100
AcDbMText
 62
2
  6
CONTINUOUS
  7
STANDARD
 71
2
 72
1
 10
1.5275
 20
-1.1565
 30
0.0
 11
1.0
 21
0.0
 31
0.0
 44
0.9
  1
Interface
 40
0.125
 41
1.8
  0
MTEXT
  5
261
100
AcDbEntity
  8
0
100
AcDbMText
 62
2
  6
CONTINUOUS
  7
STANDARD
 71
2
 72
1
 10
6.055
 20
-1.1565
 30
0.0
 11
1.0
 21
0.0
 31
0.0
 44
0.9
  1
ISO 03
 40
0.125
 41
1.2
  0
MTEXT
  5
262
100
AcDbEntity
  8
0
100
AcDbMText
 62
2
  6
CONTINUOUS
  7
STANDARD
 71
2
 72
1
 10
1.5275
 20
-1.4065
 30
0.0
 11
1.0
 21
0.0
 31
0.0
 44
0.9
  1
Open Cavity Quantity
 40
0.125
 41
4.0
  0
MTEXT
  5
263
100
AcDbEntity
  8
0
100
AcDbMText
 62
2
  6
CONTINUOUS
  7
STANDARD
 71
2
 72
1
 10
6.055
 20
-1.4065
 30
0.0
 11
1.0
 21
0.0
 31
0.0
 44
0.9
  1
1
 40
0.125
 41
0.2
  0
MTEXT
  5
264
100
AcDbEntity
  8
0
100
AcDbMText
 62
2
  6
CONTINUOUS
  7
STANDARD
 71
2
 72
1
 10
1.5275
 20
-1.6565
 30
0.0
 11
1.0
 21
0.0
 31
0.0
 44
0.9
  1
Stack Height
 40
0.125
 41
2.4
  0
MTEXT
  5
265
100
AcDbEntity
  8
0
100
AcDbMText
 62
2
  6
CONTINUOUS
  7
STANDARD
 71
2
 72
1
 10
4.555
 20
-1.6565
 30
0.0
 11
1.0
 21
0.0
 31
0.0
 44
0.9
  1
1.75 in.
 40
0.125
 41
1.6
  0
MTEXT
  5
266
100
AcDbEntity
  8
0
100
AcDbMText
 62
2
  6
CONTINUOUS
  7
STANDARD
 71
2
 72
1
 10
7.555
 20
-1.6565
 30
0.0
 11
1.0
 21
0.0
 31
0.0
 44
0.9
  1
44,5 mm
 40
0.125
 41
1.4
  0
MTEXT
  5
267
100
AcDbEntity
  8
0
100
AcDbMText
 62
2
  6
CONTINUOUS
  7
STANDARD
 71
2
 72
1
 10
1.5275
 20
-1.9065
 30
0.0
 11
1.0
 21
0.0
 31
0.0
 44
0.9
  1
Weight
 40
0.125
 41
1.2
  0
MTEXT
  5
268
100
AcDbEntity
  8
0
100
AcDbMText
 62
2
  6
CONTINUOUS
  7
STANDARD
 71
2
 72
1
 10
4.555
 20
-1.9065
 30
0.0
 11
1.0
 21
0.0
 31
0.0
 44
0.9
  1
0.674 lb.
 40
0.125
 41
1.8
  0
MTEXT
  5
269
100
AcDbEntity
  8
0
100
AcDbMText
 62
2
  6
CONTINUOUS
  7
STANDARD
 71
2
 72
1
 10
7.555
 20
-1.9065
 30
0.0
 11
1.0
 21
0.0
 31
0.0
 44
0.9
  1
0,305 kg.
 40
0.125
 41
1.8
  0
MTEXT
  5
26A
100
AcDbEntity
  8
0
100
AcDbMText
 62
2
  6
CONTINUOUS
  7
STANDARD
 71
2
 72
1
 10
1.5275
 20
-2.1565
 30
0.0
 11
1.0
 21
0.0
 31
0.0
 44
0.9
  1
Seal Plate Included (see notes)
 40
0.125
 41
6.2
  0
MTEXT
  5
26B
100
AcDbEntity
  8
0
100
AcDbMText
 62
2
  6
CONTINUOUS
  7
STANDARD
 71
2
 72
1
 10
6.055
 20
-2.1565
 30
0.0
 11
1.0
 21
0.0
 31
0.0
 44
0.9
  1
Yes
 40
0.125
 41
0.6
  0
ENDBLK
  5
26C
100
AcDbEntity
  8
0
  6
BYBLOCK
 62
0
100
AcDbBlockEnd
  0
ENDSEC
  0
SECTION
  2
ENTITIES
  0
IMAGE
  5
26D
100
AcDbEntity
  8
0
100
AcDbRasterImage
 62
7
  6
CONTINUOUS
 10
19.2297077316
 20
0.3094318264
 30
0.0
 11
0.0066666667
 21
0.0
 31
0.0
 12
0.0
 22
0.0066666667
 32
0.0
 13
369.0
 23
92.0
340
       36E
 70
9
280
0
281
50
282
50
283
0
360
       368
 71
1
 91
2
 14
-0.5
 24
-0.5
 14
368.5
 24
91.5
  0
INSERT
  5
26E
100
AcDbEntity
  8
0
100
AcDbBlockReference
 62
2
  6
CONTINUOUS
  2
SUN_FIRST_THIRD_ANGLE_BL0
 10
20.4816717061
 20
1.2289683772
  0
ACAD_TABLE
  5
26F
100
AcDbEntity
  8
0
 62
2
  6
CONTINUOUS
100
AcDbBlockReference
  2
*T1
 10
12.42375
 20
0.30125
 30
0.0
100
AcDbTable
342
       370
343
20A
 11
1.0
 21
0.0
 31
0.0
 90
6
 91
4
 92
6
 93
20
 94
0
 95
0
 96
0
 70
1
 41
0.0
141
0.525
141
0.1
141
0.525
141
0.1
142
4.1
142
1.1
142
0.7
142
0.5
142
0.4
142
2.475
171
1
172
0
173
0
174
0
175
1
176
1
 91
33
178
0
145
0.0
301
CELL_VALUE
 90
4
  1
T-13A Sandwich ISO 03\PFlow into or out of workport A or B
304
ACVALUE_END
170
2
140
0.125
171
1
172
0
173
0
174
0
175
1
176
1
 91
33
178
0
145
0.0
301
CELL_VALUE
 90
4
  1
Aug-23-22
304
ACVALUE_END
170
5
140
0.125
171
1
172
0
173
0
174
0
175
1
176
1
 91
33
178
0
145
0.0
301
CELL_VALUE
 90
4
  1
2.000
304
ACVALUE_END
170
5
140
0.125
171
1
172
0
173
0
174
0
175
1
176
1
 91
33
178
0
145
0.0
301
CELL_VALUE
 90
4
  1
C
304
ACVALUE_END
170
5
140
0.125
171
1
172
0
173
0
174
0
175
1
176
1
 91
33
178
0
145
0.0
301
CELL_VALUE
 90
4
  1
2
304
ACVALUE_END
170
5
140
0.125
171
1
172
0
173
0
174
0
175
1
176
1
 91
33
178
0
145
0.0
301
CELL_VALUE
 90
4
  1
 
304
ACVALUE_END
170
1
140
0.125
171
1
172
0
173
0
174
0
175
1
176
1
 91
33
178
0
145
0.0
301
CELL_VALUE
 90
4
  1
DESCRIPTION
304
ACVALUE_END
170
1
140
0.06
171
1
172
0
173
0
174
0
175
1
176
1
 91
33
178
0
145
0.0
301
CELL_VALUE
 90
4
  1
DATE
304
ACVALUE_END
170
1
140
0.06
171
1
172
0
173
0
174
0
175
1
176
1
 91
33
178
0
145
0.0
301
CELL_VALUE
 90
4
  1
SCALE
304
ACVALUE_END
170
1
140
0.06
171
1
172
0
173
0
174
0
175
1
176
1
 91
33
178
0
145
0.0
301
CELL_VALUE
 90
4
  1
DWG SIZE
304
ACVALUE_END
170
1
140
0.06
171
1
172
0
173
0
174
0
175
1
176
1
 91
33
178
0
145
0.0
301
CELL_VALUE
 90
4
  1
SHEET
304
ACVALUE_END
170
1
140
0.06
171
1
172
0
173
0
174
0
175
1
176
1
 91
33
178
0
145
0.0
301
CELL_VALUE
 90
4
  1
 
304
ACVALUE_END
170
1
140
0.125
171
1
172
0
173
0
174
0
175
1
176
1
 91
33
178
0
145
0.0
301
CELL_VALUE
 90
4
  1
GDA
304
ACVALUE_END
170
5
140
0.125
171
1
172
0
173
0
174
0
175
4
176
1
 91
33
178
0
145
0.0
301
CELL_VALUE
 90
4
  1
ALL DIMENSIONS IN INCH\PVIEWS ARE THIRD ANGLE
304
ACVALUE_END
170
5
140
0.12
171
1
172
0
173
1
174
0
175
1
176
1
 91
1
178
0
145
0.0
170
1
171
1
172
0
173
1
174
0
175
1
176
1
 91
1
178
0
145
0.0
170
1
171
1
172
0
173
1
174
0
175
1
176
1
 91
1
178
0
145
0.0
170
5
171
1
172
0
173
0
174
0
175
1
176
1
 91
33
178
0
145
0.0
301
CELL_VALUE
 90
4
  1
 
304
ACVALUE_END
170
1
140
0.125
171
1
172
0
173
0
174
0
175
1
176
1
 91
33
178
0
145
0.0
301
CELL_VALUE
 90
4
  1
MODEL
304
ACVALUE_END
170
1
140
0.06
171
1
172
0
173
0
174
0
175
1
176
1
 91
33
178
0
145
0.0
301
CELL_VALUE
 90
4
  1
 
304
ACVALUE_END
170
1
140
0.125
171
1
172
0
173
0
174
0
175
1
176
1
 91
33
178
0
145
0.0
301
CELL_VALUE
 90
4
  1
 
304
ACVALUE_END
170
1
140
0.125
171
1
172
0
173
0
174
0
175
1
176
1
 91
33
178
0
145
0.0
301
CELL_VALUE
 90
4
  1
 
304
ACVALUE_END
170
1
140
0.125
171
1
172
0
173
0
174
0
175
1
176
1
 91
33
178
0
145
0.0
301
CELL_VALUE
 90
4
  1
 
304
ACVALUE_END
170
1
140
0.125
171
1
172
0
173
0
174
0
175
1
176
1
 91
33
178
0
145
0.0
301
CELL_VALUE
 90
4
  1
 
304
ACVALUE_END
170
1
140
0.125
  0
ACAD_TABLE
  5
270
100
AcDbEntity
  8
0
 62
2
  6
CONTINUOUS
100
AcDbBlockReference
  2
*T2
 10
12.4237499994
 20
16.47875
 30
0.0
100
AcDbTable
342
       36F
343
20B
 11
1.0
 21
0.0
 31
0.0
 90
22
 91
9
 92
3
 93
16
 94
0
 95
0
 96
0
 41
0.028
141
0.344
141
0.25
141
0.25
141
0.25
141
0.25
141
0.25
141
0.25
141
0.25
141
0.25
142
3.055
142
3.0
142
3.0
171
1
172
0
173
0
174
0
175
1
176
1
 91
33
178
0
145
0.0
301
CELL_VALUE
 90
4
  1
Technical Data
304
ACVALUE_END
170
5
140
0.145
171
1
172
0
173
0
174
0
175
1
176
1
 91
33
178
0
145
0.0
301
CELL_VALUE
 90
4
  1
U.S. Units
304
ACVALUE_END
170
5
140
0.145
171
1
172
0
173
0
174
0
175
1
176
1
 91
33
178
0
145
0.0
301
CELL_VALUE
 90
4
  1
Metric Units
304
ACVALUE_END
170
5
140
0.145
171
1
172
0
173
0
174
0
175
1
176
1
 91
33
178
0
145
0.0
301
CELL_VALUE
 90
4
  1
Cavity
304
ACVALUE_END
170
5
140
0.125
171
1
172
0
173
0
174
0
175
2
176
1
 91
33
178
0
145
0.0
301
CELL_VALUE
 90
4
  1
T-13A
304
ACVALUE_END
170
5
140
0.125
171
1
172
0
173
1
174
0
175
1
176
1
 91
1
178
0
145
0.0
170
1
171
1
172
0
173
0
174
0
175
1
176
1
 91
33
178
0
145
0.0
301
CELL_VALUE
 90
4
  1
Body Features
304
ACVALUE_END
170
5
140
0.125
171
1
172
0
173
0
174
0
175
2
176
1
 91
33
178
0
145
0.0
301
CELL_VALUE
 90
4
  1
Flow into or out of workport A or B
304
ACVALUE_END
170
5
140
0.125
171
1
172
0
173
1
174
0
175
1
176
1
 91
1
178
0
145
0.0
170
1
171
1
172
0
173
0
174
0
175
1
176
1
 91
33
178
0
145
0.0
301
CELL_VALUE
 90
4
  1
Body Type
304
ACVALUE_END
170
5
140
0.125
171
1
172
0
173
0
174
0
175
2
176
1
 91
33
178
0
145
0.0
301
CELL_VALUE
 90
4
  1
Sandwich
304
ACVALUE_END
170
5
140
0.125
171
1
172
0
173
1
174
0
175
1
176
1
 91
1
178
0
145
0.0
170
1
171
1
172
0
173
0
174
0
175
1
176
1
 91
33
178
0
145
0.0
301
CELL_VALUE
 90
4
  1
Interface
304
ACVALUE_END
170
5
140
0.125
171
1
172
0
173
0
174
0
175
2
176
1
 91
33
178
0
145
0.0
301
CELL_VALUE
 90
4
  1
ISO 03
304
ACVALUE_END
170
5
140
0.125
171
1
172
0
173
1
174
0
175
1
176
1
 91
1
178
0
145
0.0
170
1
171
1
172
0
173
0
174
0
175
1
176
1
 91
33
178
0
145
0.0
301
CELL_VALUE
 90
4
  1
Open Cavity Quantity
304
ACVALUE_END
170
5
140
0.125
171
1
172
0
173
0
174
0
175
2
176
1
 91
33
178
0
145
0.0
301
CELL_VALUE
 90
4
  1
1
304
ACVALUE_END
170
5
140
0.125
171
1
172
0
173
1
174
0
175
1
176
1
 91
1
178
0
145
0.0
170
1
171
1
172
0
173
0
174
0
175
1
176
1
 91
33
178
0
145
0.0
301
CELL_VALUE
 90
4
  1
Stack Height
304
ACVALUE_END
170
5
140
0.125
171
1
172
0
173
0
174
0
175
1
176
1
 91
33
178
0
145
0.0
301
CELL_VALUE
 90
4
  1
1.75 in.
304
ACVALUE_END
170
5
140
0.125
171
1
172
0
173
0
174
0
175
1
176
1
 91
33
178
0
145
0.0
301
CELL_VALUE
 90
4
  1
44,5 mm
304
ACVALUE_END
170
5
140
0.125
171
1
172
0
173
0
174
0
175
1
176
1
 91
33
178
0
145
0.0
301
CELL_VALUE
 90
4
  1
Weight
304
ACVALUE_END
170
5
140
0.125
171
1
172
0
173
0
174
0
175
1
176
1
 91
33
178
0
145
0.0
301
CELL_VALUE
 90
4
  1
0.674 lb.
304
ACVALUE_END
170
5
140
0.125
171
1
172
0
173
0
174
0
175
1
176
1
 91
33
178
0
145
0.0
301
CELL_VALUE
 90
4
  1
0,305 kg.
304
ACVALUE_END
170
5
140
0.125
171
1
172
0
173
0
174
0
175
1
176
1
 91
33
178
0
145
0.0
301
CELL_VALUE
 90
4
  1
Seal Plate Included (see notes)
304
ACVALUE_END
170
5
140
0.125
171
1
172
0
173
0
174
0
175
2
176
1
 91
33
178
0
145
0.0
301
CELL_VALUE
 90
4
  1
Yes
304
ACVALUE_END
170
5
140
0.125
171
1
172
0
173
1
174
0
175
1
176
1
 91
1
178
0
145
0.0
170
1
  0
MTEXT
  5
271
100
AcDbEntity
  8
0
100
AcDbMText
 62
2
  6
CONTINUOUS
  7
STANDARD
 71
1
 72
1
 10
0.52125
 20
5.75995
 30
0.0
 11
1.0
 21
0.0
 31
0.0
 44
0.6
  3
Notes\P \P1. For check valve application, use\P   only with CX*A check valves - free\P   flow nose to side.\P2. Stack height value in technical\P   data table includes seal retainer\P   plate.\P3. Important: Carefully consider\P   the maximum system 
  3
pressure. The\P   pressure rating of the manifold is\P   dependent on the manifold material,\P   with the port type/size a secondary\P   consideration. Manifolds\P   constructed of aluminum are not\P   rated for pressures higher than\P   3000 psi (21
  1
0 bar), regardless of\P   the port type/size specified.\P4. Items without balloons are\P   shipped loose.
 40
0.1
 41
3.04
  0
LINE
  5
272
100
AcDbEntity
  8
0
100
AcDbLine
 62
7
  6
CONTINUOUS
 10
0.30125
 20
0.30125
 11
0.30125
 21
16.69875
  0
LINE
  5
273
100
AcDbEntity
  8
0
100
AcDbLine
 62
7
  6
CONTINUOUS
 10
0.30125
 20
0.30125
 11
21.69875
 21
0.30125
  0
LINE
  5
274
100
AcDbEntity
  8
0
100
AcDbLine
 62
7
  6
CONTINUOUS
 10
0.30125
 20
16.69875
 11
21.69875
 21
16.69875
  0
LINE
  5
275
100
AcDbEntity
  8
0
100
AcDbLine
 62
7
  6
CONTINUOUS
 10
21.69875
 20
0.30125
 11
21.69875
 21
16.69875
  0
LINE
  5
276
100
AcDbEntity
  8
0
100
AcDbLine
 62
7
  6
CONTINUOUS
 10
7.9158762857
 20
6.5353511894
 11
7.9158762857
 21
9.9160917818
  0
LINE
  5
277
100
AcDbEntity
  8
0
100
AcDbLine
 62
7
  6
CONTINUOUS
 10
7.9158762857
 20
9.9160917818
 11
8.7958603375
 21
10.7660911545
  0
LINE
  5
278
100
AcDbEntity
  8
0
100
AcDbLine
 62
4
  6
CONTINUOUS
 10
8.2083586807
 20
9.9376080967
 11
8.2704751988
 21
9.9976080494
  0
LINE
  5
279
100
AcDbEntity
  8
0
100
AcDbLine
 62
4
  6
CONTINUOUS
 10
9.3029465931
 20
10.6558988702
 11
9.3024289554
 21
10.6553988705
  0
LINE
  5
27A
100
AcDbEntity
  8
0
100
AcDbLine
 62
4
  6
CONTINUOUS
 10
9.3229071041
 20
10.6751792443
 11
9.3539653638
 21
10.7051792214
  0
LINE
  5
27B
100
AcDbEntity
  8
0
100
AcDbLine
 62
4
  6
CONTINUOUS
 10
8.9025076752
 20
9.8691045785
 11
9.0081057561
 21
9.971104498
  0
LINE
  5
27C
100
AcDbEntity
  8
0
100
AcDbLine
 62
4
  6
CONTINUOUS
 10
9.0339479082
 20
9.8760661043
 11
9.0960644264
 21
9.936066057
  0
LINE
  5
27D
100
AcDbEntity
  8
0
100
AcDbLine
 62
4
  6
CONTINUOUS
 10
9.1498590117
 20
9.868027642
 11
9.2119755298
 21
9.9280275947
  0
LINE
  5
27E
100
AcDbEntity
  8
0
100
AcDbLine
 62
4
  6
CONTINUOUS
 10
8.9025076752
 20
9.8691045785
 11
8.9025076384
 21
9.9121907721
  0
LINE
  5
27F
100
AcDbEntity
  8
0
100
AcDbLine
 62
4
  6
CONTINUOUS
 10
8.9025076752
 20
9.8691045785
 11
8.9857438464
 21
9.9064183215
  0
LINE
  5
280
100
AcDbEntity
  8
0
100
AcDbLine
 62
4
  6
CONTINUOUS
 10
10.4827631022
 20
10.5955142466
 11
10.3482021444
 21
10.5405383328
  0
LINE
  5
281
100
AcDbEntity
  8
0
100
AcDbLine
 62
7
  6
CONTINUOUS
 10
12.2625427615
 20
6.2339088455
 11
7.9158762857
 21
6.5353511894
  0
LINE
  5
282
100
AcDbEntity
  8
0
100
AcDbLine
 62
4
  6
CONTINUOUS
 10
9.2668103567
 20
9.8759939756
 11
9.2678505983
 21
9.8919987716
  0
LINE
  5
283
100
AcDbEntity
  8
0
100
AcDbLine
 62
4
  6
CONTINUOUS
 10
9.6176643918
 20
9.8998929765
 11
9.5555478737
 21
9.8398930238
  0
LINE
  5
284
100
AcDbEntity
  8
0
100
AcDbLine
 62
4
  6
CONTINUOUS
 10
9.2678505983
 20
9.8919987716
 11
9.2978686158
 21
9.905993952
  0
LINE
  5
285
100
AcDbEntity
  8
0
100
AcDbLine
 62
4
  6
CONTINUOUS
 10
9.4417172535
 20
9.8799410781
 11
9.411699236
 21
9.8659458977
  0
LINE
  5
286
100
AcDbEntity
  8
0
100
AcDbLine
 62
4
  6
CONTINUOUS
 10
9.731495012
 20
9.8598449223
 11
9.7615130295
 21
9.8738401027
  0
LINE
  5
287
100
AcDbEntity
  8
0
100
AcDbLine
 62
7
  6
CONTINUOUS
 10
13.2527976275
 20
7.0346408741
 11
13.1768634552
 21
7.0232940916
  0
LINE
  5
288
100
AcDbEntity
  8
0
100
AcDbLine
 62
7
  6
CONTINUOUS
 10
12.4130510504
 20
6.525424996
 11
13.3190895291
 21
6.4625910141
  0
LINE
  5
289
100
AcDbEntity
  8
0
100
AcDbLine
 62
4
  6
CONTINUOUS
 10
9.4427574951
 20
9.8959458741
 11
9.4417172535
 21
9.8799410781
  0
LINE
  5
28A
100
AcDbEntity
  8
0
100
AcDbLine
 62
4
  6
CONTINUOUS
 10
10.0233532538
 20
9.8717583584
 11
9.9612367357
 21
9.8117584057
  0
LINE
  5
28B
100
AcDbEntity
  8
0
100
AcDbLine
 62
4
  6
CONTINUOUS
 10
10.1392643573
 20
9.8637198961
 11
10.0771478391
 21
9.8037199434
  0
LINE
  5
28C
100
AcDbEntity
  8
0
100
AcDbLine
 62
4
  6
CONTINUOUS
 10
10.9087859559
 20
10.5070206725
 11
10.9709024741
 21
10.5670206252
  0
LINE
  5
28D
100
AcDbEntity
  8
0
100
AcDbLine
 62
4
  6
CONTINUOUS
 10
11.3165553011
 20
10.5108956463
 11
11.2865372837
 21
10.4969004659
  0
LINE
  5
28E
100
AcDbEntity
  8
0
100
AcDbLine
 62
4
  6
CONTINUOUS
 10
11.6063330597
 20
10.4907994904
 11
11.6363510772
 21
10.5047946708
  0
LINE
  5
28F
100
AcDbEntity
  8
0
100
AcDbLine
 62
4
  6
CONTINUOUS
 10
9.7304547704
 20
9.8438401263
 11
9.731495012
 21
9.8598449223
  0
LINE
  5
290
100
AcDbEntity
  8
0
100
AcDbLine
 62
4
  6
CONTINUOUS
 10
11.0246970593
 20
10.4989822101
 11
11.0868135775
 21
10.5589821628
  0
LINE
  5
291
100
AcDbEntity
  8
0
100
AcDbLine
 62
4
  6
CONTINUOUS
 10
11.7801997149
 20
10.478741797
 11
11.7501816974
 21
10.4647466166
  0
LINE
  5
292
100
AcDbEntity
  8
0
100
AcDbLine
 62
4
  6
CONTINUOUS
 10
12.1455426379
 20
10.5016359901
 11
12.0623064668
 21
10.4643222471
  0
LINE
  5
293
100
AcDbEntity
  8
0
100
AcDbLine
 62
7
  6
CONTINUOUS
 10
13.1768634552
 20
7.0232940916
 11
12.2708249765
 21
7.0861280735
  0
LINE
  5
294
100
AcDbEntity
  8
0
100
AcDbLine
 62
4
  6
CONTINUOUS
 10
10.7136434916
 20
9.8185275888
 11
10.6515269735
 21
9.7585276361
  0
LINE
  5
295
100
AcDbEntity
  8
0
100
AcDbLine
 62
4
  6
CONTINUOUS
 10
11.4303859213
 20
10.470847592
 11
11.4925024395
 21
10.5308475447
  0
LINE
  5
296
100
AcDbEntity
  8
0
100
AcDbLine
 62
4
  6
CONTINUOUS
 10
10.8088490902
 20
9.7904891435
 11
10.8243782198
 21
9.8054891316
  0
LINE
  5
297
100
AcDbEntity
  8
0
100
AcDbLine
 62
4
  6
CONTINUOUS
 10
10.7922797182
 20
9.7594843584
 11
10.8078088468
 21
9.7744843457
  0
LINE
  5
298
100
AcDbEntity
  8
0
100
AcDbLine
 62
4
  6
CONTINUOUS
 10
11.8981913015
 20
10.5027129266
 11
11.8360747833
 21
10.4427129739
  0
LINE
  5
299
100
AcDbEntity
  8
0
100
AcDbLine
 62
4
  6
CONTINUOUS
 10
12.0141024049
 20
10.4946744642
 11
11.9519858868
 21
10.4346745115
  0
LINE
  5
29A
100
AcDbEntity
  8
0
100
AcDbLine
 62
4
  6
CONTINUOUS
 10
12.1455426379
 20
10.5016359901
 11
12.039944557
 21
10.3996360705
  0
LINE
  5
29B
100
AcDbEntity
  8
0
100
AcDbLine
 62
4
  6
CONTINUOUS
 10
9.0960644264
 20
9.936066057
 11
9.1498590117
 21
9.868027642
  0
LINE
  5
29C
100
AcDbEntity
  8
0
100
AcDbLine
 62
4
  6
CONTINUOUS
 10
11.8624018466
 20
9.7281429711
 11
11.8618842089
 21
9.7276429715
  0
LINE
  5
29D
100
AcDbEntity
  8
0
100
AcDbLine
 62
4
  6
CONTINUOUS
 10
11.8823623576
 20
9.7474233453
 11
11.9134206173
 21
9.7774233223
  0
LINE
  5
29E
100
AcDbEntity
  8
0
100
AcDbLine
 62
4
  6
CONTINUOUS
 10
10.3482021444
 20
10.5405383328
 11
10.3378742229
 21
10.6055623245
  0
LINE
  5
29F
100
AcDbEntity
  8
0
100
AcDbLine
 62
4
  6
CONTINUOUS
 10
12.8302354005
 20
10.4219985211
 11
12.8354117776
 21
10.4269985178
  0
LINE
  5
2A0
100
AcDbEntity
  8
0
100
AcDbLine
 62
4
  6
CONTINUOUS
 10
12.8136660312
 20
10.3909937388
 11
12.8188424064
 21
10.3959937337
  0
LINE
  5
2A1
100
AcDbEntity
  8
0
100
AcDbLine
 62
7
  6
CONTINUOUS
 10
13.2527976275
 20
8.7250111702
 11
13.1768634552
 21
8.7136643877
  0
LINE
  5
2A2
100
AcDbEntity
  8
0
100
AcDbLine
 62
4
  6
CONTINUOUS
 10
11.3175955427
 20
10.5269004422
 11
11.3165553011
 21
10.5108956463
  0
LINE
  5
2A3
100
AcDbEntity
  8
0
100
AcDbLine
 62
7
  6
CONTINUOUS
 10
12.2625427615
 20
9.6146494378
 11
13.1425268133
 21
10.4646488106
  0
LINE
  5
2A4
100
AcDbEntity
  8
0
100
AcDbLine
 62
7
  6
CONTINUOUS
 10
12.4649391001
 20
9.6884426387
 11
12.9401304747
 21
10.1474422871
  0
LINE
  5
2A5
100
AcDbEntity
  8
0
100
AcDbLine
 62
4
  6
CONTINUOUS
 10
9.2854353797
 20
9.8639843681
 11
9.2668103567
 21
9.8759939756
  0
LINE
  5
2A6
100
AcDbEntity
  8
0
100
AcDbLine
 62
4
  6
CONTINUOUS
 10
11.6052928181
 20
10.4747946945
 11
11.6063330597
 21
10.4907994904
  0
LINE
  5
2A7
100
AcDbEntity
  8
0
100
AcDbLine
 62
7
  6
CONTINUOUS
 10
13.1768634552
 20
8.7136643877
 11
12.2708249765
 21
8.7764983697
  0
LINE
  5
2A8
100
AcDbEntity
  8
0
100
AcDbLine
 62
4
  6
CONTINUOUS
 10
9.4241324735
 20
9.907955483
 11
9.4427574951
 21
9.8959458741
  0
LINE
  5
2A9
100
AcDbEntity
  8
0
100
AcDbLine
 62
4
  6
CONTINUOUS
 10
9.7490797934
 20
9.8318305188
 11
9.7304547704
 21
9.8438401263
  0
LINE
  5
2AA
100
AcDbEntity
  8
0
100
AcDbLine
 62
4
  6
CONTINUOUS
 10
11.7812399565
 20
10.4947465929
 11
11.7801997149
 21
10.478741797
  0
LINE
  5
2AB
100
AcDbEntity
  8
0
100
AcDbLine
 62
4
  6
CONTINUOUS
 10
9.8877768872
 20
9.8758016337
 11
9.8970893962
 21
9.8697968274
  0
LINE
  5
2AC
100
AcDbEntity
  8
0
100
AcDbLine
 62
7
  6
CONTINUOUS
 10
13.3709775788
 20
9.6256086568
 11
13.8461689535
 21
10.0846083052
  0
LINE
  5
2AD
100
AcDbEntity
  8
0
100
AcDbLine
 62
7
  6
CONTINUOUS
 10
13.4308649836
 20
9.5615680464
 11
13.9060563583
 21
10.0205676947
  0
LINE
  5
2AE
100
AcDbEntity
  8
0
100
AcDbLine
 62
4
  6
CONTINUOUS
 10
11.8823623576
 20
9.7474233453
 11
11.6284893317
 21
9.6970044758
  0
LINE
  5
2AF
100
AcDbEntity
  8
0
100
AcDbLine
 62
4
  6
CONTINUOUS
 10
9.3092367789
 20
9.8569747563
 11
9.2854353797
 21
9.8639843681
  0
LINE
  5
2B0
100
AcDbEntity
  8
0
100
AcDbLine
 62
4
  6
CONTINUOUS
 10
9.4003310729
 20
9.9149650934
 11
9.4241324735
 21
9.907955483
  0
LINE
  5
2B1
100
AcDbEntity
  8
0
100
AcDbLine
 62
4
  6
CONTINUOUS
 10
9.7728811926
 20
9.824820907
 11
9.7490797934
 21
9.8318305188
  0
LINE
  5
2B2
100
AcDbEntity
  8
0
100
AcDbLine
 62
4
  6
CONTINUOUS
 10
9.8639754866
 20
9.8828112441
 11
9.8877768872
 21
9.8758016337
  0
LINE
  5
2B3
100
AcDbEntity
  8
0
100
AcDbLine
 62
4
  6
CONTINUOUS
 10
9.3229071041
 20
10.6751792443
 11
9.4453658678
 21
10.5986616766
  0
LINE
  5
2B4
100
AcDbEntity
  8
0
100
AcDbLine
 62
4
  6
CONTINUOUS
 10
10.8078088468
 20
9.7744843457
 11
10.7891838233
 21
9.7864939528
  0
LINE
  5
2B5
100
AcDbEntity
  8
0
100
AcDbLine
 62
4
  6
CONTINUOUS
 10
10.8243782198
 20
9.8054891316
 11
10.8150657071
 21
9.8114939343
  0
LINE
  5
2B6
100
AcDbEntity
  8
0
100
AcDbLine
 62
4
  6
CONTINUOUS
 10
12.1455426379
 20
10.5016359901
 11
12.1455426747
 21
10.4585497965
  0
LINE
  5
2B7
100
AcDbEntity
  8
0
100
AcDbLine
 62
7
  6
CONTINUOUS
 10
12.2625427615
 20
9.6146494378
 11
12.2625427615
 21
6.2339088455
  0
LINE
  5
2B8
100
AcDbEntity
  8
0
100
AcDbLine
 62
7
  6
CONTINUOUS
 10
12.2708249765
 20
7.0861280735
 11
12.2708249765
 21
8.7764983697
  0
LINE
  5
2B9
100
AcDbEntity
  8
0
100
AcDbLine
 62
4
  6
CONTINUOUS
 10
10.752949189
 20
9.7514939816
 11
10.7922797182
 21
9.7594843584
  0
LINE
  5
2BA
100
AcDbEntity
  8
0
100
AcDbLine
 62
4
  6
CONTINUOUS
 10
10.7891838233
 20
9.7864939528
 11
10.8088490902
 21
9.7904891435
  0
LINE
  5
2BB
100
AcDbEntity
  8
0
100
AcDbLine
 62
7
  6
CONTINUOUS
 10
7.9158762857
 20
9.9160917818
 11
12.2625427615
 21
9.6146494378
  0
LINE
  5
2BC
100
AcDbEntity
  8
0
100
AcDbLine
 62
4
  6
CONTINUOUS
 10
10.6515269735
 20
9.7585276361
 11
10.752949189
 21
9.7514939816
  0
LINE
  5
2BD
100
AcDbEntity
  8
0
100
AcDbLine
 62
4
  6
CONTINUOUS
 10
9.8018589685
 20
9.8228112914
 11
9.7728811926
 21
9.824820907
  0
LINE
  5
2BE
100
AcDbEntity
  8
0
100
AcDbLine
 62
4
  6
CONTINUOUS
 10
9.3382145547
 20
9.8549651407
 11
9.3092367789
 21
9.8569747563
  0
LINE
  5
2BF
100
AcDbEntity
  8
0
100
AcDbLine
 62
4
  6
CONTINUOUS
 10
8.1224655947
 20
9.9596417394
 11
8.2528655861
 21
9.9505984693
  0
LINE
  5
2C0
100
AcDbEntity
  8
0
100
AcDbLine
 62
4
  6
CONTINUOUS
 10
9.9922949948
 20
9.8417583821
 11
10.1082060982
 21
9.8337199197
  0
LINE
  5
2C1
100
AcDbEntity
  8
0
100
AcDbLine
 62
4
  6
CONTINUOUS
 10
10.6877616078
 20
9.7935276074
 11
10.7891838233
 21
9.7864939528
  0
LINE
  5
2C2
100
AcDbEntity
  8
0
100
AcDbLine
 62
7
  6
CONTINUOUS
 10
13.3709775788
 20
9.6256086568
 11
12.4649391001
 21
9.6884426387
  0
LINE
  5
2C3
100
AcDbEntity
  8
0
100
AcDbLine
 62
4
  6
CONTINUOUS
 10
10.8150657071
 20
9.8114939343
 11
10.7136434916
 21
9.8185275888
  0
LINE
  5
2C4
100
AcDbEntity
  8
0
100
AcDbLine
 62
4
  6
CONTINUOUS
 10
9.371353297
 20
9.916974709
 11
9.4003310729
 21
9.9149650934
  0
LINE
  5
2C5
100
AcDbEntity
  8
0
100
AcDbLine
 62
4
  6
CONTINUOUS
 10
9.5452199522
 20
9.9049170155
 11
9.6901088315
 21
9.8948689376
  0
LINE
  5
2C6
100
AcDbEntity
  8
0
100
AcDbLine
 62
4
  6
CONTINUOUS
 10
9.8349977108
 20
9.8848208597
 11
9.8639754866
 21
9.8828112441
  0
LINE
  5
2C7
100
AcDbEntity
  8
0
100
AcDbLine
 62
4
  6
CONTINUOUS
 10
12.8188424064
 20
10.3959937337
 11
12.8385076696
 21
10.3999889207
  0
LINE
  5
2C8
100
AcDbEntity
  8
0
100
AcDbLine
 62
4
  6
CONTINUOUS
 10
12.8354117776
 20
10.4269985178
 11
12.8747423063
 21
10.4349888942
  0
LINE
  5
2C9
100
AcDbEntity
  8
0
100
AcDbLine
 62
4
  6
CONTINUOUS
 10
9.8556783856
 20
9.8297968604
 11
9.836013121
 21
9.825801672
  0
LINE
  5
2CA
100
AcDbEntity
  8
0
100
AcDbLine
 62
4
  6
CONTINUOUS
 10
9.836013121
 20
9.825801672
 11
9.8018589685
 21
9.8228112914
  0
LINE
  5
2CB
100
AcDbEntity
  8
0
100
AcDbLine
 62
4
  6
CONTINUOUS
 10
9.8008435596
 20
9.8818304804
 11
9.8349977108
 21
9.8848208597
  0
LINE
  5
2CC
100
AcDbEntity
  8
0
100
AcDbLine
 62
4
  6
CONTINUOUS
 10
9.3723687073
 20
9.8579555213
 11
9.3382145547
 21
9.8549651407
  0
LINE
  5
2CD
100
AcDbEntity
  8
0
100
AcDbLine
 62
4
  6
CONTINUOUS
 10
9.3371991459
 20
9.9139843297
 11
9.371353297
 21
9.916974709
  0
LINE
  5
2CE
100
AcDbEntity
  8
0
100
AcDbLine
 62
4
  6
CONTINUOUS
 10
9.0081057561
 20
9.971104498
 11
10.3990389973
 21
9.8746429501
  0
LINE
  5
2CF
100
AcDbEntity
  8
0
100
AcDbLine
 62
4
  6
CONTINUOUS
 10
11.8823623576
 20
9.7474233453
 11
12.0048211213
 21
9.6709057775
  0
LINE
  5
2D0
100
AcDbEntity
  8
0
100
AcDbLine
 62
4
  6
CONTINUOUS
 10
9.7615130295
 20
9.8738401027
 11
9.8008435596
 21
9.8818304804
  0
LINE
  5
2D1
100
AcDbEntity
  8
0
100
AcDbLine
 62
4
  6
CONTINUOUS
 10
9.411699236
 20
9.8659458977
 11
9.3723687073
 21
9.8579555213
  0
LINE
  5
2D2
100
AcDbEntity
  8
0
100
AcDbLine
 62
4
  6
CONTINUOUS
 10
9.2978686158
 20
9.905993952
 11
9.3371991459
 21
9.9139843297
  0
LINE
  5
2D3
100
AcDbEntity
  8
0
100
AcDbLine
 62
4
  6
CONTINUOUS
 10
11.7501816974
 20
10.4647466166
 11
11.7108511673
 21
10.4567562388
  0
LINE
  5
2D4
100
AcDbEntity
  8
0
100
AcDbLine
 62
4
  6
CONTINUOUS
 10
12.9099118677
 20
10.3789600858
 11
12.8757577165
 21
10.3759697065
  0
LINE
  5
2D5
100
AcDbEntity
  8
0
100
AcDbLine
 62
4
  6
CONTINUOUS
 10
12.8385076696
 20
10.3999889207
 11
12.8726618245
 21
10.4029793036
  0
LINE
  5
2D6
100
AcDbEntity
  8
0
100
AcDbLine
 62
4
  6
CONTINUOUS
 10
12.8747423063
 20
10.4349888942
 11
12.9088964588
 21
10.4379792748
  0
LINE
  5
2D7
100
AcDbEntity
  8
0
100
AcDbLine
 62
7
  6
CONTINUOUS
 10
13.8461689535
 20
10.0846083052
 11
12.9401304747
 21
10.1474422871
  0
LINE
  5
2D8
100
AcDbEntity
  8
0
100
AcDbLine
 62
7
  6
CONTINUOUS
 10
12.9920185244
 20
10.1712008083
 11
13.8980570032
 21
10.1083668264
  0
LINE
  5
2D9
100
AcDbEntity
  8
0
100
AcDbLine
 62
4
  6
CONTINUOUS
 10
11.160273426
 20
10.4949389349
 11
11.150960917
 21
10.5009437411
  0
LINE
  5
2DA
100
AcDbEntity
  8
0
100
AcDbLine
 62
4
  6
CONTINUOUS
 10
11.6363510772
 20
10.5047946708
 11
11.6756816059
 21
10.5127850472
  0
LINE
  5
2DB
100
AcDbEntity
  8
0
100
AcDbLine
 62
4
  6
CONTINUOUS
 10
11.2865372837
 20
10.4969004659
 11
11.2472067535
 21
10.4889100881
  0
LINE
  5
2DC
100
AcDbEntity
  8
0
100
AcDbLine
 62
4
  6
CONTINUOUS
 10
11.1923719276
 20
10.5409437081
 11
11.2120371922
 21
10.5449388965
  0
LINE
  5
2DD
100
AcDbEntity
  8
0
100
AcDbLine
 62
4
  6
CONTINUOUS
 10
11.7108511673
 20
10.4567562388
 11
11.6766970161
 21
10.4537658596
  0
LINE
  5
2DE
100
AcDbEntity
  8
0
100
AcDbLine
 62
4
  6
CONTINUOUS
 10
11.6756816059
 20
10.5127850472
 11
11.7098357584
 21
10.5157754278
  0
LINE
  5
2DF
100
AcDbEntity
  8
0
100
AcDbLine
 62
4
  6
CONTINUOUS
 10
11.2472067535
 20
10.4889100881
 11
11.2130526024
 21
10.4859197089
  0
LINE
  5
2E0
100
AcDbEntity
  8
0
100
AcDbLine
 62
4
  6
CONTINUOUS
 10
11.2120371922
 20
10.5449388965
 11
11.2461913447
 21
10.5479292771
  0
LINE
  5
2E1
100
AcDbEntity
  8
0
100
AcDbLine
 62
4
  6
CONTINUOUS
 10
12.039944557
 20
10.3996360705
 11
10.6490113158
 21
10.4960976184
  0
LINE
  5
2E2
100
AcDbEntity
  8
0
100
AcDbLine
 62
4
  6
CONTINUOUS
 10
11.6766970161
 20
10.4537658596
 11
11.6477192403
 21
10.4557754751
  0
LINE
  5
2E3
100
AcDbEntity
  8
0
100
AcDbLine
 62
4
  6
CONTINUOUS
 10
11.502830361
 20
10.465823553
 11
11.3579414817
 21
10.475871631
  0
LINE
  5
2E4
100
AcDbEntity
  8
0
100
AcDbLine
 62
4
  6
CONTINUOUS
 10
11.2130526024
 20
10.4859197089
 11
11.1840748265
 21
10.4879293244
  0
LINE
  5
2E5
100
AcDbEntity
  8
0
100
AcDbLine
 62
4
  6
CONTINUOUS
 10
12.8757577165
 20
10.3759697065
 11
12.8467799407
 21
10.3779793221
  0
LINE
  5
2E6
100
AcDbEntity
  8
0
100
AcDbLine
 62
4
  6
CONTINUOUS
 10
12.9016396003
 20
10.400969688
 11
12.8726618245
 21
10.4029793036
  0
LINE
  5
2E7
100
AcDbEntity
  8
0
100
AcDbLine
 62
4
  6
CONTINUOUS
 10
11.0557553184
 20
10.5289821865
 11
10.939844215
 21
10.5370206488
  0
LINE
  5
2E8
100
AcDbEntity
  8
0
100
AcDbLine
 62
4
  6
CONTINUOUS
 10
10.4330798197
 20
10.5775238773
 11
10.3461464921
 21
10.5835527241
  0
LINE
  5
2E9
100
AcDbEntity
  8
0
100
AcDbLine
 62
4
  6
CONTINUOUS
 10
11.2461913447
 20
10.5479292771
 11
11.2751691206
 21
10.5459196616
  0
LINE
  5
2EA
100
AcDbEntity
  8
0
100
AcDbLine
 62
4
  6
CONTINUOUS
 10
11.7098357584
 20
10.5157754278
 11
11.7388135343
 21
10.5137658123
  0
LINE
  5
2EB
100
AcDbEntity
  8
0
100
AcDbLine
 62
4
  6
CONTINUOUS
 10
12.9088964588
 20
10.4379792748
 11
12.9378742347
 21
10.4359696592
  0
LINE
  5
2EC
100
AcDbEntity
  8
0
100
AcDbLine
 62
4
  6
CONTINUOUS
 10
11.1840748265
 20
10.4879293244
 11
11.160273426
 21
10.4949389349
  0
LINE
  5
2ED
100
AcDbEntity
  8
0
100
AcDbLine
 62
4
  6
CONTINUOUS
 10
11.2751691206
 20
10.5459196616
 11
11.2989705198
 21
10.5389100498
  0
LINE
  5
2EE
100
AcDbEntity
  8
0
100
AcDbLine
 62
4
  6
CONTINUOUS
 10
11.6477192403
 20
10.4557754751
 11
11.6239178397
 21
10.4627850856
  0
LINE
  5
2EF
100
AcDbEntity
  8
0
100
AcDbLine
 62
4
  6
CONTINUOUS
 10
11.2989705198
 20
10.5389100498
 11
11.3175955427
 21
10.5269004422
  0
LINE
  5
2F0
100
AcDbEntity
  8
0
100
AcDbLine
 62
4
  6
CONTINUOUS
 10
11.6239178397
 20
10.4627850856
 11
11.6052928181
 21
10.4747946945
  0
LINE
  5
2F1
100
AcDbEntity
  8
0
100
AcDbLine
 62
4
  6
CONTINUOUS
 10
11.9519858868
 20
10.4346745115
 11
11.8981913015
 21
10.5027129266
  0
LINE
  5
2F2
100
AcDbEntity
  8
0
100
AcDbLine
 62
7
  6
CONTINUOUS
 10
13.1425268133
 20
10.4646488106
 11
13.1425268133
 21
10.160763023
  0
LINE
  5
2F3
100
AcDbEntity
  8
0
100
AcDbLine
 62
7
  6
CONTINUOUS
 10
13.1768634552
 20
7.0232940916
 11
13.1768634552
 21
8.7136643877
  0
LINE
  5
2F4
100
AcDbEntity
  8
0
100
AcDbLine
 62
7
  6
CONTINUOUS
 10
13.2527976275
 20
7.0346408741
 11
13.2527976275
 21
8.7250111702
  0
LINE
  5
2F5
100
AcDbEntity
  8
0
100
AcDbLine
 62
4
  6
CONTINUOUS
 10
8.2704751988
 20
9.9976080494
 11
8.1224655947
 21
9.9596417394
  0
LINE
  5
2F6
100
AcDbEntity
  8
0
100
AcDbLine
 62
7
  6
CONTINUOUS
 10
8.7958603375
 20
10.7660911545
 11
13.1425268133
 21
10.4646488106
  0
LINE
  5
2F7
100
AcDbEntity
  8
0
100
AcDbLine
 62
4
  6
CONTINUOUS
 10
11.7388135343
 20
10.5137658123
 11
11.7626149335
 21
10.5067562005
  0
LINE
  5
2F8
100
AcDbEntity
  8
0
100
AcDbLine
 62
4
  6
CONTINUOUS
 10
12.8467799407
 20
10.3779793221
 11
12.8229785401
 21
10.3849889326
  0
LINE
  5
2F9
100
AcDbEntity
  8
0
100
AcDbLine
 62
4
  6
CONTINUOUS
 10
11.7626149335
 20
10.5067562005
 11
11.7812399565
 21
10.4947465929
  0
LINE
  5
2FA
100
AcDbEntity
  8
0
100
AcDbLine
 62
7
  6
CONTINUOUS
 10
12.2625427615
 20
6.2339088455
 11
12.5542078837
 21
6.5156357363
  0
LINE
  5
2FB
100
AcDbEntity
  8
0
100
AcDbLine
 62
4
  6
CONTINUOUS
 10
9.3229071041
 20
10.6751792443
 11
9.0690340782
 21
10.6247603749
  0
LINE
  5
2FC
100
AcDbEntity
  8
0
100
AcDbLine
 62
4
  6
CONTINUOUS
 10
12.8726618245
 20
10.4029793036
 11
12.8488604239
 21
10.409988914
  0
LINE
  5
2FD
100
AcDbEntity
  8
0
100
AcDbLine
 62
4
  6
CONTINUOUS
 10
12.9378742347
 20
10.4359696592
 11
12.9616756339
 21
10.4289600474
  0
LINE
  5
2FE
100
AcDbEntity
  8
0
100
AcDbLine
 62
4
  6
CONTINUOUS
 10
12.8229785401
 20
10.3849889326
 11
12.8136660312
 21
10.3909937388
  0
LINE
  5
2FF
100
AcDbEntity
  8
0
100
AcDbLine
 62
7
  6
CONTINUOUS
 10
13.4308649836
 20
9.5615680464
 11
13.3709775788
 21
9.6256086568
  0
LINE
  5
300
100
AcDbEntity
  8
0
100
AcDbLine
 62
4
  6
CONTINUOUS
 10
12.8488604239
 20
10.409988914
 11
12.8302354005
 21
10.4219985211
  0
LINE
  5
301
100
AcDbEntity
  8
0
100
AcDbLine
 62
4
  6
CONTINUOUS
 10
12.9616756339
 20
10.4289600474
 11
12.9709881452
 21
10.4229552434
  0
LINE
  5
302
100
AcDbEntity
  8
0
100
AcDbLine
 62
7
  6
CONTINUOUS
 10
14.0841237143
 20
9.5280105551
 11
14.0841237143
 21
7.837640259
  0
LINE
  5
303
100
AcDbEntity
  8
0
100
AcDbLine
 62
7
  6
CONTINUOUS
 10
13.4308649836
 20
6.5420837345
 11
13.4291825984
 21
6.5404885357
  0
LINE
  5
304
100
AcDbEntity
  8
0
100
AcDbLine
 62
7
  6
CONTINUOUS
 10
13.3691451727
 20
6.4846118453
 11
13.4291840564
 21
6.5404896935
  0
LINE
  5
305
100
AcDbEntity
  8
0
100
AcDbLine
 62
7
  6
CONTINUOUS
 10
13.9060563583
 20
7.0010833829
 11
13.4308649836
 21
6.5420837345
  0
LINE
  5
306
100
AcDbEntity
  8
0
100
AcDbLine
 62
7
  6
CONTINUOUS
 10
13.9060563583
 20
10.0205676947
 11
13.8461689535
 21
10.0846083052
  0
LINE
  5
307
100
AcDbEntity
  8
0
100
AcDbLine
 62
7
  6
CONTINUOUS
 10
13.9445937901
 20
10.0796472873
 11
13.9963447417
 21
10.0160167877
  0
ARC
  5
308
100
AcDbEntity
  8
0
100
AcDbCircle
 62
7
  6
CONTINUOUS
 10
10.073010746
 20
7.2756537539
 40
0.2335415744
100
AcDbArc
 50
86.0226865724
 51
92.0176722275
  0
ARC
  5
309
100
AcDbEntity
  8
0
100
AcDbCircle
 62
7
  6
CONTINUOUS
 10
10.1054083033
 20
7.2438636803
 40
0.233541468
100
AcDbArc
 50
266.0226869454
 51
272.0176724238
  0
ARC
  5
30A
100
AcDbEntity
  8
0
100
AcDbCircle
 62
7
  6
CONTINUOUS
 10
11.1480027226
 20
9.430033038
 40
0.1391492098
100
AcDbArc
 50
213.1249929898
 51
234.8286822952
  0
ARC
  5
30B
100
AcDbEntity
  8
0
100
AcDbCircle
 62
7
  6
CONTINUOUS
 10
9.3977451018
 20
7.0747797832
 40
0.1391492098
100
AcDbArc
 50
213.1249929898
 51
234.8286822952
  0
SPLINE
  5
30C
100
AcDbEntity
  8
0
100
AcDbSpline
 62
7
  6
CONTINUOUS
 70
0
 71
3
 72
23
 73
19
 74
0
 42
0.0000001
 43
0.0000001
 44
0.0000000001
 40
0.0
 40
0.0
 40
0.0
 40
0.0
 40
0.0637762098
 40
0.1273451791
 40
0.1907020044
 40
0.2538560229
 40
0.3168132268
 40
0.3795820734
 40
0.4421733797
 40
0.5045993379
 40
0.5668738619
 40
0.6290123843
 40
0.6910316585
 40
0.7529496507
 40
0.8147853611
 40
0.8765586136
 40
0.9382898615
 40
1.0
 40
1.0
 40
1.0
 40
1.0
 10
8.8354377443
 20
9.3693570363
 30
0.0
 10
8.8354377443
 20
9.3647902179
 30
0.0
 10
8.8352191282
 20
9.3556698747
 30
0.0
 10
8.8342325712
 20
9.3420448659
 30
0.0
 10
8.8325898787
 20
9.3285278116
 30
0.0
 10
8.8302950003
 20
9.3151505654
 30
0.0
 10
8.827353104
 20
9.301943623
 30
0.0
 10
8.8237709806
 20
9.2889375147
 30
0.0
 10
8.8195568529
 20
9.2761622256
 30
0.0
 10
8.8147203611
 20
9.2636472216
 30
0.0
 10
8.8092726919
 20
9.2514213479
 30
0.0
 10
8.8032263767
 20
9.2395128008
 30
0.0
 10
8.7965952839
 20
9.2279490823
 30
0.0
 10
8.7893947279
 20
9.2167568409
 30
0.0
 10
8.7816413407
 20
9.2059619064
 30
0.0
 10
8.7733528633
 20
9.1955891267
 30
0.0
 10
8.7645487331
 20
9.1856627645
 30
0.0
 10
8.7583479538
 20
9.1793568615
 30
0.0
 10
8.7551696672
 20
9.1762868557
 30
0.0
  0
SPLINE
  5
30D
100
AcDbEntity
  8
0
100
AcDbSpline
 62
7
  6
CONTINUOUS
 70
0
 71
3
 72
23
 73
19
 74
0
 42
0.0000001
 43
0.0000001
 44
0.0000000001
 40
0.0
 40
0.0
 40
0.0
 40
0.0
 40
0.0637762098
 40
0.1273451791
 40
0.1907020044
 40
0.2538560229
 40
0.3168132268
 40
0.3795820734
 40
0.4421733797
 40
0.5045993379
 40
0.5668738619
 40
0.6290123843
 40
0.6910316585
 40
0.7529496507
 40
0.8147853611
 40
0.8765586136
 40
0.9382898615
 40
1.0
 40
1.0
 40
1.0
 40
1.0
 10
11.9148095411
 20
9.1558018768
 30
0.0
 10
11.9148095411
 20
9.1512350585
 30
0.0
 10
11.914590925
 20
9.1421147152
 30
0.0
 10
11.913604368
 20
9.1284897065
 30
0.0
 10
11.9119616755
 20
9.1149726521
 30
0.0
 10
11.9096667971
 20
9.1015954059
 30
0.0
 10
11.9067249008
 20
9.0883884635
 30
0.0
 10
11.9031427774
 20
9.0753823553
 30
0.0
 10
11.8989286497
 20
9.0626070662
 30
0.0
 10
11.8940921579
 20
9.0500920622
 30
0.0
 10
11.8886444887
 20
9.0378661884
 30
0.0
 10
11.8825981735
 20
9.0259576413
 30
0.0
 10
11.8759670807
 20
9.0143939228
 30
0.0
 10
11.8687665247
 20
9.0032016814
 30
0.0
 10
11.8610131375
 20
8.9924067469
 30
0.0
 10
11.8527246601
 20
8.9820339673
 30
0.0
 10
11.84392053
 20
8.9721076051
 30
0.0
 10
11.8377197506
 20
8.9658017021
 30
0.0
 10
11.834541464
 20
8.9627316963
 30
0.0
  0
SPLINE
  5
30E
100
AcDbEntity
  8
0
100
AcDbSpline
 62
7
  6
CONTINUOUS
 70
0
 71
3
 72
23
 73
19
 74
0
 42
0.0000001
 43
0.0000001
 44
0.0000000001
 40
0.0
 40
0.0
 40
0.0
 40
0.0
 40
0.0637762098
 40
0.1273451791
 40
0.1907020044
 40
0.2538560229
 40
0.3168132268
 40
0.3795820734
 40
0.4421733797
 40
0.5045993379
 40
0.5668738619
 40
0.6290123843
 40
0.6910316585
 40
0.7529496507
 40
0.8147853611
 40
0.8765586136
 40
0.9382898615
 40
1.0
 40
1.0
 40
1.0
 40
1.0
 10
11.9148095411
 20
6.740987168
 30
0.0
 10
11.9148095411
 20
6.7364203497
 30
0.0
 10
11.914590925
 20
6.7273000064
 30
0.0
 10
11.913604368
 20
6.7136749977
 30
0.0
 10
11.9119616755
 20
6.7001579433
 30
0.0
 10
11.9096667971
 20
6.6867806971
 30
0.0
 10
11.9067249008
 20
6.6735737547
 30
0.0
 10
11.9031427774
 20
6.6605676465
 30
0.0
 10
11.8989286497
 20
6.6477923574
 30
0.0
 10
11.8940921579
 20
6.6352773534
 30
0.0
 10
11.8886444887
 20
6.6230514796
 30
0.0
 10
11.8825981735
 20
6.6111429325
 30
0.0
 10
11.8759670807
 20
6.599579214
 30
0.0
 10
11.8687665247
 20
6.5883869726
 30
0.0
 10
11.8610131375
 20
6.5775920381
 30
0.0
 10
11.8527246601
 20
6.5672192585
 30
0.0
 10
11.84392053
 20
6.5572928962
 30
0.0
 10
11.8377197506
 20
6.5509869933
 30
0.0
 10
11.834541464
 20
6.5479169875
 30
0.0
  0
SPLINE
  5
30F
100
AcDbEntity
  8
0
100
AcDbSpline
 62
7
  6
CONTINUOUS
 70
0
 71
3
 72
23
 73
19
 74
0
 42
0.0000001
 43
0.0000001
 44
0.0000000001
 40
0.0
 40
0.0
 40
0.0
 40
0.0
 40
0.0637762098
 40
0.1273451791
 40
0.1907020044
 40
0.2538560229
 40
0.3168132268
 40
0.3795820734
 40
0.4421733797
 40
0.5045993379
 40
0.5668738619
 40
0.6290123843
 40
0.6910316585
 40
0.7529496507
 40
0.8147853611
 40
0.8765586136
 40
0.9382898615
 40
1.0
 40
1.0
 40
1.0
 40
1.0
 10
8.8354377443
 20
6.9545423275
 30
0.0
 10
8.8354377443
 20
6.9499755091
 30
0.0
 10
8.8352191282
 20
6.9408551659
 30
0.0
 10
8.8342325712
 20
6.9272301571
 30
0.0
 10
8.8325898787
 20
6.9137131028
 30
0.0
 10
8.8302950003
 20
6.9003358566
 30
0.0
 10
8.827353104
 20
6.8871289142
 30
0.0
 10
8.8237709806
 20
6.8741228059
 30
0.0
 10
8.8195568529
 20
6.8613475168
 30
0.0
 10
8.8147203611
 20
6.8488325128
 30
0.0
 10
8.8092726919
 20
6.8366066391
 30
0.0
 10
8.8032263767
 20
6.824698092
 30
0.0
 10
8.7965952839
 20
6.8131343735
 30
0.0
 10
8.7893947279
 20
6.8019421321
 30
0.0
 10
8.7816413407
 20
6.7911471976
 30
0.0
 10
8.7733528633
 20
6.7807744179
 30
0.0
 10
8.7645487331
 20
6.7708480557
 30
0.0
 10
8.7583479538
 20
6.7645421527
 30
0.0
 10
8.7551696672
 20
6.7614721469
 30
0.0
  0
SPLINE
  5
310
100
AcDbEntity
  8
0
100
AcDbSpline
 62
7
  6
CONTINUOUS
 70
0
 71
3
 72
21
 73
17
 74
0
 42
0.0000001
 43
0.0000001
 44
0.0000000001
 40
0.0
 40
0.0
 40
0.0
 40
0.0
 40
0.1273177709
 40
0.2537997
 40
0.316761822
 40
0.3795355919
 40
0.4421314898
 40
0.5045621236
 40
0.5668413499
 40
0.6289845405
 40
0.6910084572
 40
0.7529311131
 40
0.8147714634
 40
0.876549347
 40
0.938285237
 40
1.0
 40
1.0
 40
1.0
 40
1.0
 10
11.0899086413
 20
9.2439185819
 30
0.0
 10
11.0899086413
 20
9.2399148837
 30
0.0
 10
11.0895264839
 20
9.231928616
 30
0.0
 10
11.0880830865
 20
9.2220558667
 30
0.0
 10
11.086358007
 20
9.2143115364
 30
0.0
 10
11.0847847464
 20
9.2085993228
 30
0.0
 10
11.0829339886
 20
9.2029885883
 30
0.0
 10
11.0808098515
 20
9.1974921562
 30
0.0
 10
11.0784173277
 20
9.1921226976
 30
0.0
 10
11.075761866
 20
9.1868926099
 30
0.0
 10
11.0728495726
 20
9.1818139721
 30
0.0
 10
11.0696872251
 20
9.1768984503
 30
0.0
 10
11.0662820067
 20
9.1721574712
 30
0.0
 10
11.0626418525
 20
9.1676018454
 30
0.0
 10
11.0587751924
 20
9.1632423091
 30
0.0
 10
11.0560518996
 20
9.160472825
 30
0.0
 10
11.0546560386
 20
9.159124515
 30
0.0
  0
SPLINE
  5
311
100
AcDbEntity
  8
0
100
AcDbSpline
 62
7
  6
CONTINUOUS
 70
0
 71
3
 72
21
 73
17
 74
0
 42
0.0000001
 43
0.0000001
 44
0.0000000001
 40
0.0
 40
0.0
 40
0.0
 40
0.0
 40
0.1273177709
 40
0.2537997
 40
0.316761822
 40
0.3795355919
 40
0.4421314898
 40
0.5045621236
 40
0.5668413499
 40
0.6289845405
 40
0.6910084572
 40
0.7529311131
 40
0.8147714634
 40
0.876549347
 40
0.938285237
 40
1.0
 40
1.0
 40
1.0
 40
1.0
 10
10.2147798884
 20
8.0662919793
 30
0.0
 10
10.2147798884
 20
8.0622882811
 30
0.0
 10
10.2143977311
 20
8.0543020134
 30
0.0
 10
10.2129543337
 20
8.0444292641
 30
0.0
 10
10.2112292541
 20
8.0366849338
 30
0.0
 10
10.2096559935
 20
8.0309727202
 30
0.0
 10
10.2078052358
 20
8.0253619857
 30
0.0
 10
10.2056810987
 20
8.0198655536
 30
0.0
 10
10.2032885748
 20
8.014496095
 30
0.0
 10
10.2006331132
 20
8.0092660073
 30
0.0
 10
10.1977208198
 20
8.0041873695
 30
0.0
 10
10.1945584723
 20
7.9992718477
 30
0.0
 10
10.1911532539
 20
7.9945308686
 30
0.0
 10
10.1875130997
 20
7.9899752428
 30
0.0
 10
10.1836464396
 20
7.9856157065
 30
0.0
 10
10.1809231468
 20
7.9828462224
 30
0.0
 10
10.1795272858
 20
7.9814979124
 30
0.0
  0
SPLINE
  5
312
100
AcDbEntity
  8
0
100
AcDbSpline
 62
7
  6
CONTINUOUS
 70
0
 71
3
 72
21
 73
17
 74
0
 42
0.0000001
 43
0.0000001
 44
0.0000000001
 40
0.0
 40
0.0
 40
0.0
 40
0.0
 40
0.1273177709
 40
0.2537997
 40
0.316761822
 40
0.3795355919
 40
0.4421314898
 40
0.5045621236
 40
0.5668413499
 40
0.6289845405
 40
0.6910084572
 40
0.7529311131
 40
0.8147714634
 40
0.876549347
 40
0.938285237
 40
1.0
 40
1.0
 40
1.0
 40
1.0
 10
9.3396510205
 20
6.8886653271
 30
0.0
 10
9.3396510205
 20
6.8846616289
 30
0.0
 10
9.3392688631
 20
6.8766753612
 30
0.0
 10
9.3378254657
 20
6.8668026119
 30
0.0
 10
9.3361003862
 20
6.8590582816
 30
0.0
 10
9.3345271256
 20
6.853346068
 30
0.0
 10
9.3326763678
 20
6.8477353335
 30
0.0
 10
9.3305522307
 20
6.8422389015
 30
0.0
 10
9.3281597069
 20
6.8368694428
 30
0.0
 10
9.3255042452
 20
6.8316393551
 30
0.0
 10
9.3225919518
 20
6.8265607173
 30
0.0
 10
9.3194296043
 20
6.8216451955
 30
0.0
 10
9.3160243859
 20
6.8169042164
 30
0.0
 10
9.3123842317
 20
6.8123485906
 30
0.0
 10
9.3085175716
 20
6.8079890543
 30
0.0
 10
9.3057942788
 20
6.8052195703
 30
0.0
 10
9.3043984178
 20
6.8038712602
 30
0.0
  0
SPLINE
  5
313
100
AcDbEntity
  8
0
100
AcDbSpline
 62
7
  6
CONTINUOUS
 70
0
 71
3
 72
23
 73
19
 74
0
 42
0.0000001
 43
0.0000001
 44
0.0000000001
 40
0.0
 40
0.0
 40
0.0
 40
0.0
 40
0.0637744828
 40
0.1273454316
 40
0.1907025265
 40
0.2538558004
 40
0.316813226
 40
0.3795821625
 40
0.4421733656
 40
0.5045993404
 40
0.5668738661
 40
0.6290123724
 40
0.6910316429
 40
0.7529496283
 40
0.8147853425
 40
0.8765585905
 40
0.938289842
 40
1.0
 40
1.0
 40
1.0
 40
1.0
 10
9.3647650934
 20
9.3635576933
 30
0.0
 10
9.3647650934
 20
9.3611508823
 30
0.0
 10
9.364649844
 20
9.3563441277
 30
0.0
 10
9.364129929
 20
9.3491632406
 30
0.0
 10
9.3632641517
 20
9.3420392144
 30
0.0
 10
9.362054603
 20
9.3349889506
 30
0.0
 10
9.360504152
 20
9.3280284305
 30
0.0
 10
9.3586161811
 20
9.3211737559
 30
0.0
 10
9.3563951431
 20
9.314440738
 30
0.0
 10
9.3538461292
 20
9.3078448913
 30
0.0
 10
9.3509749374
 20
9.3014014534
 30
0.0
 10
9.3477882806
 20
9.2951252423
 30
0.0
 10
9.3442933978
 20
9.2890307855
 30
0.0
 10
9.3404983899
 20
9.2831321135
 30
0.0
 10
9.3364120313
 20
9.2774428311
 30
0.0
 10
9.3320436164
 20
9.2719760804
 30
0.0
 10
9.327403497
 20
9.2667445574
 30
0.0
 10
9.3241353916
 20
9.2634211928
 30
0.0
 10
9.3224603096
 20
9.2618032012
 30
0.0
  0
SPLINE
  5
314
100
AcDbEntity
  8
0
100
AcDbSpline
 62
7
  6
CONTINUOUS
 70
0
 71
3
 72
23
 73
19
 74
0
 42
0.0000001
 43
0.0000001
 44
0.0000000001
 40
0.0
 40
0.0
 40
0.0
 40
0.0
 40
0.0637744828
 40
0.1273454316
 40
0.1907025265
 40
0.2538558004
 40
0.316813226
 40
0.3795821625
 40
0.4421733656
 40
0.5045993404
 40
0.5668738661
 40
0.6290123724
 40
0.6910316429
 40
0.7529496283
 40
0.8147853425
 40
0.8765585905
 40
0.938289842
 40
1.0
 40
1.0
 40
1.0
 40
1.0
 10
11.1150227142
 20
6.7655428819
 30
0.0
 10
11.1150227142
 20
6.763136071
 30
0.0
 10
11.1149074648
 20
6.7583293164
 30
0.0
 10
11.1143875498
 20
6.7511484292
 30
0.0
 10
11.1135217725
 20
6.7440244031
 30
0.0
 10
11.1123122238
 20
6.7369741393
 30
0.0
 10
11.1107617728
 20
6.7300136192
 30
0.0
 10
11.1088738019
 20
6.7231589446
 30
0.0
 10
11.1066527639
 20
6.7164259267
 30
0.0
 10
11.10410375
 20
6.70983008
 30
0.0
 10
11.1012325582
 20
6.703386642
 30
0.0
 10
11.0980459014
 20
6.697110431
 30
0.0
 10
11.0945510186
 20
6.6910159742
 30
0.0
 10
11.0907560107
 20
6.6851173022
 30
0.0
 10
11.0866696521
 20
6.6794280197
 30
0.0
 10
11.0823012372
 20
6.673961269
 30
0.0
 10
11.0776611178
 20
6.668729746
 30
0.0
 10
11.0743930124
 20
6.6654063814
 30
0.0
 10
11.0727179304
 20
6.6637883899
 30
0.0
  0
SPLINE
  5
315
100
AcDbEntity
  8
0
100
AcDbSpline
 62
7
  6
CONTINUOUS
 70
0
 71
3
 72
24
 73
20
 74
0
 42
0.0000001
 43
0.0000001
 44
0.0000000001
 40
0.0
 40
0.0
 40
0.0
 40
0.0
 40
0.061148032
 40
0.1226355019
 40
0.1844425922
 40
0.2465377982
 40
0.2776874662
 40
0.3088944037
 40
0.3714493994
 40
0.4341699275
 40
0.4970130092
 40
0.559937749
 40
0.6229063835
 40
0.6858848613
 40
0.7488430352
 40
0.811754582
 40
0.8745968818
 40
0.9373507668
 40
1.0
 40
1.0
 40
1.0
 40
1.0
 10
9.3956746867
 20
7.8166527328
 30
0.0
 10
9.3903745484
 20
7.8170202986
 30
0.0
 10
9.3797705122
 20
7.8182005387
 30
0.0
 10
9.3640250636
 20
7.8212710571
 30
0.0
 10
9.3484956829
 20
7.8256104029
 30
0.0
 10
9.3358280496
 20
7.8302363085
 30
0.0
 10
9.3258935275
 20
7.8345109162
 30
0.0
 10
9.3160869464
 20
7.8391654661
 30
0.0
 10
9.304127124
 20
7.8456579686
 30
0.0
 10
9.2903265956
 20
7.8544383353
 30
0.0
 10
9.2771130545
 20
7.8641328728
 30
0.0
 10
9.2645253194
 20
7.8746591375
 30
0.0
 10
9.2525915336
 20
7.8859372697
 30
0.0
 10
9.2413315166
 20
7.897891032
 30
0.0
 10
9.230758062
 20
7.9104487613
 30
0.0
 10
9.2208784385
 20
7.9235437135
 30
0.0
 10
9.2116955384
 20
7.9371143541
 30
0.0
 10
9.2032093194
 20
7.9511035651
 30
0.0
 10
9.198009371
 20
7.9606837915
 30
0.0
 10
9.1955248167
 20
7.965526984
 30
0.0
  0
SPLINE
  5
316
100
AcDbEntity
  8
0
100
AcDbSpline
 62
7
  6
CONTINUOUS
 70
0
 71
3
 72
67
 73
63
 74
0
 42
0.0000001
 43
0.0000001
 44
0.0000000001
 40
0.0
 40
0.0
 40
0.0
 40
0.0
 40
0.0156744789
 40
0.0314032751
 40
0.0471829531
 40
0.0630130433
 40
0.0788911749
 40
0.0948145968
 40
0.1107803264
 40
0.1267849022
 40
0.1428245536
 40
0.1588952205
 40
0.174992594
 40
0.1911121929
 40
0.2072493762
 40
0.2233994022
 40
0.2395575014
 40
0.2557188761
 40
0.2880245827
 40
0.320287557
 40
0.3524730662
 40
0.3845495668
 40
0.4005420102
 40
0.4164972295
 40
0.4324125282
 40
0.4482855102
 40
0.4641141341
 40
0.4798967065
 40
0.4956318796
 40
0.5113186893
 40
0.5269565412
 40
0.5425452194
 40
0.5580849012
 40
0.5735761508
 40
0.589019924
 40
0.6044175651
 40
0.6197708113
 40
0.6350817792
 40
0.6503529556
 40
0.6655872037
 40
0.6807877256
 40
0.6959580543
 40
0.7111020507
 40
0.726223842
 40
0.7413278166
 40
0.7564186034
 40
0.771500991
 40
0.7865799219
 40
0.801660453
 40
0.8167476621
 40
0.8318466366
 40
0.846962423
 40
0.8620999261
 40
0.877263894
 40
0.8924588648
 40
0.9076890689
 40
0.9229584182
 40
0.9382704522
 40
0.953628245
 40
0.9690345018
 40
0.9844913006
 40
1.0
 40
1.0
 40
1.0
 40
1.0
 10
10.0892095347
 20
7.5086328651
 30
0.0
 10
10.0931001919
 20
7.5083630471
 30
0.0
 10
10.1008829242
 20
7.5076290211
 30
0.0
 10
10.1125069091
 20
7.5059532723
 30
0.0
 10
10.1240735625
 20
7.5037050782
 30
0.0
 10
10.1355537892
 20
7.5008908262
 30
0.0
 10
10.1469198437
 20
7.4975182357
 30
0.0
 10
10.1581440462
 20
7.4935966638
 30
0.0
 10
10.1691993466
 20
7.4891368913
 30
0.0
 10
10.1800593967
 20
7.4841511623
 30
0.0
 10
10.1906986156
 20
7.4786531102
 30
0.0
 10
10.2010922073
 20
7.4726575205
 30
0.0
 10
10.2112163037
 20
7.4661804038
 30
0.0
 10
10.2210480375
 20
7.4592389216
 30
0.0
 10
10.2305655003
 20
7.4518511013
 30
0.0
 10
10.2397477813
 20
7.4440359861
 30
0.0
 10
10.2485753582
 20
7.4358132029
 30
0.0
 10
10.2598441884
 20
7.4243369139
 30
0.0
 10
10.272951683
 20
7.4090786489
 30
0.0
 10
10.286987966
 20
7.3894830116
 30
0.0
 10
10.2992245664
 20
7.3687824274
 30
0.0
 10
10.3078550355
 20
7.350744668
 30
0.0
 10
10.313772123
 20
7.3359498529
 30
0.0
 10
10.3177062103
 20
7.3247052854
 30
0.0
 10
10.3211332295
 20
7.3133272216
 30
0.0
 10
10.3240472567
 20
7.3018395139
 30
0.0
 10
10.3264432586
 20
7.2902664202
 30
0.0
 10
10.3283171662
 20
7.2786321119
 30
0.0
 10
10.3296656988
 20
7.2669607647
 30
0.0
 10
10.33048663
 20
7.2552765522
 30
0.0
 10
10.3307785617
 20
7.2436036004
 30
0.0
 10
10.330540915
 20
7.2319659944
 30
0.0
 10
10.3297741517
 20
7.2203877598
 30
0.0
 10
10.3284795093
 20
7.2088928484
 30
0.0
 10
10.3266591099
 20
7.1975051387
 30
0.0
 10
10.3243161022
 20
7.1862483871
 30
0.0
 10
10.3214544101
 20
7.1751462562
 30
0.0
 10
10.3180789347
 20
7.1642222709
 30
0.0
 10
10.3141955971
 20
7.1534997678
 30
0.0
 10
10.3098111416
 20
7.1430019473
 30
0.0
 10
10.3049333888
 20
7.1327517673
 30
0.0
 10
10.2995711894
 20
7.1227719134
 30
0.0
 10
10.2937342969
 20
7.113084851
 30
0.0
 10
10.2874336264
 20
7.1037126525
 30
0.0
 10
10.2806811501
 20
7.0946770009
 30
0.0
 10
10.2734898256
 20
7.0859992204
 30
0.0
 10
10.2658738289
 20
7.0777000481
 30
0.0
 10
10.2578484207
 20
7.0697996659
 30
0.0
 10
10.2494299028
 20
7.0623177066
 30
0.0
 10
10.2406358058
 20
7.0552729816
 30
0.0
 10
10.2314847468
 20
7.0486835295
 30
0.0
 10
10.2219963851
 20
7.0425666101
 30
0.0
 10
10.2121915518
 20
7.0369384026
 30
0.0
 10
10.2020921112
 20
7.0318140546
 30
0.0
 10
10.1917208943
 20
7.0272076887
 30
0.0
 10
10.1811017611
 20
7.0231320905
 30
0.0
 10
10.1702594731
 20
7.0195987433
 30
0.0
 10
10.1592195905
 20
7.0166178712
 30
0.0
 10
10.1480084912
 20
7.0141981366
 30
0.0
 10
10.1366531068
 20
7.0123466871
 30
0.0
 10
10.1251814716
 20
7.0110691977
 30
0.0
 10
10.1174871092
 20
7.0106035758
 30
0.0
 10
10.1136307728
 20
7.0104670045
 30
0.0
  0
SPLINE
  5
317
100
AcDbEntity
  8
0
100
AcDbSpline
 62
7
  6
CONTINUOUS
 70
0
 71
3
 72
34
 73
30
 74
0
 42
0.0000001
 43
0.0000001
 44
0.0000000001
 40
0.0
 40
0.0
 40
0.0
 40
0.0
 40
0.0319820335
 40
0.0638460002
 40
0.0955901253
 40
0.1272215896
 40
0.158745833
 40
0.1901702893
 40
0.2215036291
 40
0.2527550389
 40
0.2839346008
 40
0.3150524866
 40
0.3461187837
 40
0.3771438556
 40
0.4081373121
 40
0.439108521
 40
0.4700665027
 40
0.5010191629
 40
0.5319744996
 40
0.5629391638
 40
0.5939197695
 40
0.6249219051
 40
0.6870003144
 40
0.7492212942
 40
0.7803985966
 40
0.8116210667
 40
0.874203045
 40
0.9369920757
 40
1.0
 40
1.0
 40
1.0
 40
1.0
 10
11.0891886305
 20
8.005651527
 30
0.0
 10
11.0891886305
 20
8.0021869963
 30
0.0
 10
11.0889995302
 20
7.9952691985
 30
0.0
 10
11.088146955
 20
7.9849443072
 30
0.0
 10
11.0867310732
 20
7.9747195101
 30
0.0
 10
11.0847608364
 20
7.9646245493
 30
0.0
 10
11.0822480675
 20
7.9546865561
 30
0.0
 10
11.0792076217
 20
7.9449310488
 30
0.0
 10
11.0756565843
 20
7.9353812586
 30
0.0
 10
11.0716139576
 20
7.9260580418
 30
0.0
 10
11.067100455
 20
7.9169797113
 30
0.0
 10
11.0621376471
 20
7.9081622086
 30
0.0
 10
11.0567477975
 20
7.8996190851
 30
0.0
 10
11.0509536274
 20
7.8913615505
 30
0.0
 10
11.0447776266
 20
7.88339885
 30
0.0
 10
11.0382421835
 20
7.8757382251
 30
0.0
 10
11.0313691699
 20
7.8683852601
 30
0.0
 10
11.0241797649
 20
7.8613440583
 30
0.0
 10
11.0166945183
 20
7.8546173658
 30
0.0
 10
11.0089330564
 20
7.8482069065
 30
0.0
 10
11.000914094
 20
7.8421133059
 30
0.0
 10
10.9898992334
 20
7.8344085335
 30
0.0
 10
10.9755676797
 20
7.8255653165
 30
0.0
 10
10.9606172186
 20
7.8177778439
 30
0.0
 10
10.9483359028
 20
7.8121675705
 30
0.0
 10
10.9358365705
 20
7.8069589669
 30
0.0
 10
10.9198631502
 20
7.8012104552
 30
0.0
 10
10.9002537593
 20
7.7955191192
 30
0.0
 10
10.8869513559
 20
7.7925177051
 30
0.0
 10
10.8802522224
 20
7.7912104728
 30
0.0
  0
SPLINE
  5
318
100
AcDbEntity
  8
0
100
AcDbSpline
 62
7
  6
CONTINUOUS
 70
0
 71
3
 72
43
 73
39
 74
0
 42
0.0000001
 43
0.0000001
 44
0.0000000001
 40
0.0
 40
0.0
 40
0.0
 40
0.0
 40
0.0309658249
 40
0.0465044951
 40
0.0620771117
 40
0.0933194004
 40
0.1246897364
 40
0.1404218225
 40
0.1561819972
 40
0.1877762927
 40
0.2194630355
 40
0.2512272603
 40
0.2830529266
 40
0.3149232527
 40
0.3468210226
 40
0.3787288848
 40
0.4106296316
 40
0.4425064575
 40
0.4743431948
 40
0.5061245209
 40
0.5378361435
 40
0.5694649633
 40
0.600999216
 40
0.6324285961
 40
0.6637443631
 40
0.6949394332
 40
0.7260084587
 40
0.7569478896
 40
0.7877560234
 40
0.8184330435
 40
0.8489810433
 40
0.8642097415
 40
0.8794078526
 40
0.9097117571
 40
0.9399043747
 40
0.954963891
 40
0.9699993467
 40
1.0
 40
1.0
 40
1.0
 40
1.0
 10
10.0892095236
 20
9.139115837
 30
0.0
 10
10.0944818357
 20
9.1387502009
 30
0.0
 10
10.1023845946
 20
9.1379346116
 30
0.0
 10
10.1128576108
 20
9.1363240702
 30
0.0
 10
10.1233185371
 20
9.1343598206
 30
0.0
 10
10.1363056899
 20
9.1312509454
 30
0.0
 10
10.1490890637
 20
9.1272963657
 30
0.0
 10
10.1591754044
 20
9.1236346617
 30
0.0
 10
10.1691748585
 20
9.1196378266
 30
0.0
 10
10.1814567015
 20
9.1140339377
 30
0.0
 10
10.1957701664
 20
9.1063789744
 30
0.0
 10
10.2096119979
 20
9.0978252726
 30
0.0
 10
10.2229241273
 20
9.0884145521
 30
0.0
 10
10.2356523546
 20
9.0781917322
 30
0.0
 10
10.2477458861
 20
9.067204751
 30
0.0
 10
10.2591576221
 20
9.0555041011
 30
0.0
 10
10.269844175
 20
9.0431424611
 30
0.0
 10
10.2797659052
 20
9.0301743336
 30
0.0
 10
10.2888869009
 20
9.016655717
 30
0.0
 10
10.2971749279
 20
9.0026438056
 30
0.0
 10
10.3046013589
 20
8.9881967296
 30
0.0
 10
10.3111410887
 20
8.9733733282
 30
0.0
 10
10.3167724409
 20
8.9582329573
 30
0.0
 10
10.3214770736
 20
8.9428353285
 30
0.0
 10
10.3252398892
 20
8.9272403741
 30
0.0
 10
10.3280489515
 20
8.9115081419
 30
0.0
 10
10.3298954242
 20
8.8956986946
 30
0.0
 10
10.3307735202
 20
8.8798720802
 30
0.0
 10
10.3306804296
 20
8.8640880991
 30
0.0
 10
10.3296164242
 20
8.8484068797
 30
0.0
 10
10.327921304
 20
8.8354595987
 30
0.0
 10
10.3260833451
 20
8.8252150163
 30
0.0
 10
10.3239305088
 20
8.81507452
 30
0.0
 10
10.320645437
 20
8.8025705974
 30
0.0
 10
10.3165702252
 20
8.7903261525
 30
0.0
 10
10.312847759
 20
8.7807319464
 30
0.0
 10
10.3088268628
 20
8.7712949765
 30
0.0
 10
10.305466198
 20
8.76437404
 30
0.0
 10
10.3030778538
 20
8.759844939
 30
0.0
  0
SPLINE
  5
319
100
AcDbEntity
  8
0
100
AcDbSpline
 62
7
  6
CONTINUOUS
 70
0
 71
3
 72
61
 73
57
 74
0
 42
0.0000001
 43
0.0000001
 44
0.0000000001
 40
0.0
 40
0.0
 40
0.0
 40
0.0
 40
0.0417736088
 40
0.0840360431
 40
0.126657155
 40
0.1695046842
 40
0.2124458378
 40
0.2553473321
 40
0.2980760744
 40
0.3404996436
 40
0.3824868274
 40
0.4239081481
 40
0.4646363976
 40
0.5045471783
 40
0.5435194547
 40
0.5814361204
 40
0.5999634452
 40
0.6181850312
 40
0.6360876424
 40
0.6536583488
 40
0.6708846631
 40
0.6877544565
 40
0.7042560738
 40
0.7203782989
 40
0.7361104104
 40
0.7514422273
 40
0.7663640903
 40
0.7808669935
 40
0.7949425048
 40
0.8085829615
 40
0.8217813757
 40
0.8345316441
 40
0.8468285057
 40
0.8586677174
 40
0.8700461208
 40
0.8809617639
 40
0.8914141105
 40
0.9014041268
 40
0.9109346407
 40
0.9200104579
 40
0.9286388542
 40
0.9368298218
 40
0.9445966692
 40
0.9519564915
 40
0.9589308526
 40
0.9655464796
 40
0.97183593
 40
0.9778382749
 40
0.9807467215
 40
0.9836011958
 40
0.9864085004
 40
0.9891758164
 40
0.9919106777
 40
0.9946209229
 40
0.9973146203
 40
1.0
 40
1.0
 40
1.0
 40
1.0
 10
13.445617657
 20
8.0670418054
 30
0.0
 10
13.445617657
 20
8.0831045136
 30
0.0
 10
13.4458682509
 20
8.1154183972
 30
0.0
 10
13.4469760895
 20
8.1641094535
 30
0.0
 10
13.4488148208
 20
8.2131917007
 30
0.0
 10
13.4513784268
 20
8.2625027029
 30
0.0
 10
13.45465843
 20
8.3118792864
 30
0.0
 10
13.4586439908
 20
8.3611581102
 30
0.0
 10
13.463321906
 20
8.4101761369
 30
0.0
 10
13.4686766686
 20
8.4587712042
 30
0.0
 10
13.4746905132
 20
8.5067825559
 30
0.0
 10
13.481343475
 20
8.5540513839
 30
0.0
 10
13.4886134563
 20
8.6004213431
 30
0.0
 10
13.4964762915
 20
8.6457391329
 30
0.0
 10
13.5049058456
 20
8.6898548036
 30
0.0
 10
13.5124360306
 20
8.7257653629
 30
0.0
 10
13.5187309405
 20
8.7537774205
 30
0.0
 10
13.5235396329
 20
8.7742347133
 30
0.0
 10
13.5284680461
 20
8.7942849113
 30
0.0
 10
13.5335121687
 20
8.8139114439
 30
0.0
 10
13.5386677605
 20
8.8330980796
 30
0.0
 10
13.5439305917
 20
8.8518289513
 30
0.0
 10
13.5492962668
 20
8.8700885764
 30
0.0
 10
13.5547603506
 20
8.8878618609
 30
0.0
 10
13.560318316
 20
8.9051341177
 30
0.0
 10
13.5659655307
 20
8.921891081
 30
0.0
 10
13.5716973533
 20
8.9381189079
 30
0.0
 10
13.5775089753
 20
8.9538042122
 30
0.0
 10
13.5833956463
 20
8.9689340432
 30
0.0
 10
13.5893524181
 20
8.9834959414
 30
0.0
 10
13.5953744255
 20
8.9974778989
 30
0.0
 10
13.6014566281
 20
9.010868424
 30
0.0
 10
13.6075940403
 20
9.0236565035
 30
0.0
 10
13.6137815779
 20
9.0358316506
 30
0.0
 10
13.6200141436
 20
9.0473838983
 30
0.0
 10
13.6262866518
 20
9.0583037992
 30
0.0
 10
13.632593926
 20
9.0685824809
 30
0.0
 10
13.6389309189
 20
9.0782115679
 30
0.0
 10
13.6452924424
 20
9.0871833163
 30
0.0
 10
13.6516735284
 20
9.0954904505
 30
0.0
 10
13.6580690891
 20
9.1031263539
 30
0.0
 10
13.6644742953
 20
9.1100848541
 30
0.0
 10
13.6708843025
 20
9.1163603822
 30
0.0
 10
13.6772945153
 20
9.1219477873
 30
0.0
 10
13.6837004142
 20
9.1268423118
 30
0.0
 10
13.690097784
 20
9.1310395904
 30
0.0
 10
13.6964818864
 20
9.1345351181
 30
0.0
 10
13.7018437503
 20
9.1368844073
 30
0.0
 10
13.7061100966
 20
9.1383939874
 30
0.0
 10
13.7092692096
 20
9.1393370571
 30
0.0
 10
13.7124202006
 20
9.1401024793
 30
0.0
 10
13.7155624567
 20
9.1406900273
 30
0.0
 10
13.7186952522
 20
9.1410994757
 30
0.0
 10
13.721817906
 20
9.1413307314
 30
0.0
 10
13.7249295593
 20
9.1413837153
 30
0.0
 10
13.7269975715
 20
9.1413000697
 30
0.0
 10
13.7280276748
 20
9.1412286364
 30
0.0
  0
SPLINE
  5
31A
100
AcDbEntity
  8
0
100
AcDbSpline
 62
7
  6
CONTINUOUS
 70
0
 71
3
 72
23
 73
19
 74
0
 42
0.0000001
 43
0.0000001
 44
0.0000000001
 40
0.0
 40
0.0
 40
0.0
 40
0.0
 40
0.0857344251
 40
0.1692314737
 40
0.2502379509
 40
0.3285455215
 40
0.4039514576
 40
0.4762591106
 40
0.545290144
 40
0.6108815347
 40
0.6728882924
 40
0.7311867818
 40
0.7856767736
 40
0.8362886259
 40
0.8829867363
 40
0.9257807616
 40
0.9647378283
 40
1.0
 40
1.0
 40
1.0
 40
1.0
 10
13.3400340546
 20
6.8135281858
 30
0.0
 10
13.3403058649
 20
6.814999662
 30
0.0
 10
13.3408659634
 20
6.817899927
 30
0.0
 10
13.3417678992
 20
6.8221735469
 30
0.0
 10
13.342718588
 20
6.826303711
 30
0.0
 10
13.3437150445
 20
6.8302776577
 30
0.0
 10
13.3447542166
 20
6.8340835177
 30
0.0
 10
13.345832992
 20
6.8377097691
 30
0.0
 10
13.3469480107
 20
6.8411454279
 30
0.0
 10
13.3480958922
 20
6.8443801395
 30
0.0
 10
13.3492731287
 20
6.8474041832
 30
0.0
 10
13.3504761024
 20
6.8502085137
 30
0.0
 10
13.3517012155
 20
6.8527847773
 30
0.0
 10
13.3529447337
 20
6.8551254211
 30
0.0
 10
13.3542030112
 20
6.8572236241
 30
0.0
 10
13.3554725455
 20
6.8590735207
 30
0.0
 10
13.3567496567
 20
6.860669776
 30
0.0
 10
13.3576474985
 20
6.8616071138
 30
0.0
 10
13.3580980203
 20
6.8620264094
 30
0.0
  0
SPLINE
  5
31B
100
AcDbEntity
  8
0
100
AcDbSpline
 62
7
  6
CONTINUOUS
 70
0
 71
3
 72
49
 73
45
 74
0
 42
0.0000001
 43
0.0000001
 44
0.0000000001
 40
0.0
 40
0.0
 40
0.0
 40
0.0
 40
0.0378127845
 40
0.0760191223
 40
0.114531607
 40
0.1532645858
 40
0.1921302413
 40
0.2310409706
 40
0.2699088597
 40
0.3086461572
 40
0.3471654842
 40
0.3853800876
 40
0.4232040959
 40
0.4605527702
 40
0.4973427611
 40
0.533492372
 40
0.5689218309
 40
0.6035535573
 40
0.637312442
 40
0.6701261391
 40
0.7019253763
 40
0.7326442909
 40
0.7622208088
 40
0.7905970516
 40
0.80431852
 40
0.8177203446
 40
0.8307967508
 40
0.843542237
 40
0.8559517495
 40
0.8680206515
 40
0.8797447052
 40
0.8911202579
 40
0.9021440651
 40
0.9128135674
 40
0.9231267538
 40
0.9330823402
 40
0.9426798495
 40
0.9519195568
 40
0.960802764
 40
0.9693317342
 40
0.977510198
 40
0.9853432953
 40
0.992837349
 40
1.0
 40
1.0
 40
1.0
 40
1.0
 10
14.0841237143
 20
7.837640259
 30
0.0
 10
14.0841237143
 20
7.8267016336
 30
0.0
 10
14.0839783214
 20
7.8047102811
 30
0.0
 10
14.083333922
 20
7.7715835659
 30
0.0
 10
14.0822633787
 20
7.7382015088
 30
0.0
 10
14.0807693277
 20
7.704644835
 30
0.0
 10
14.0788553029
 20
7.6709941062
 30
0.0
 10
14.0765259333
 20
7.6373304588
 30
0.0
 10
14.073786814
 20
7.6037349239
 30
0.0
 10
14.0706445503
 20
7.5702884103
 30
0.0
 10
14.0671067223
 20
7.5370714552
 30
0.0
 10
14.0631818669
 20
7.5041640406
 30
0.0
 10
14.0588794574
 20
7.4716453999
 30
0.0
 10
14.0542098816
 20
7.4395938266
 30
0.0
 10
14.0491844161
 20
7.4080864847
 30
0.0
 10
14.0438152014
 20
7.3771992189
 30
0.0
 10
14.0381152187
 20
7.3470063673
 30
0.0
 10
14.0320982508
 20
7.3175805814
 30
0.0
 10
14.0257788512
 20
7.288992651
 30
0.0
 10
14.0191723091
 20
7.2613113267
 30
0.0
 10
14.0122946133
 20
7.2346031655
 30
0.0
 10
14.005162412
 20
7.2089323023
 30
0.0
 10
13.9977929774
 20
7.1843604898
 30
0.0
 10
13.9913995732
 20
7.1646344724
 30
0.0
 10
13.9861714911
 20
7.1494540475
 30
0.0
 10
13.9822461277
 20
7.1385070967
 30
0.0
 10
13.9782750297
 20
7.1278775269
 30
0.0
 10
13.9742605242
 20
7.1175717225
 30
0.0
 10
13.9702050522
 20
7.1075958734
 30
0.0
 10
13.9661110773
 20
7.0979559611
 30
0.0
 10
13.9619810108
 20
7.0886577829
 30
0.0
 10
13.957817415
 20
7.0797068917
 30
0.0
 10
13.9536227121
 20
7.0711086714
 30
0.0
 10
13.94939949
 20
7.0628682474
 30
0.0
 10
13.945150249
 20
7.054990552
 30
0.0
 10
13.9408775218
 20
7.0474802867
 30
0.0
 10
13.936583902
 20
7.0403419006
 30
0.0
 10
13.9322718657
 20
7.0335796817
 30
0.0
 10
13.9279440863
 20
7.0271976099
 30
0.0
 10
13.9236030227
 20
7.0211994839
 30
0.0
 10
13.9192512087
 20
7.0155887762
 30
0.0
 10
13.9148910584
 20
7.0103687449
 30
0.0
 10
13.9105253346
 20
7.0055427697
 30
0.0
 10
13.9075466816
 20
7.0025229248
 30
0.0
 10
13.9060563583
 20
7.0010833829
 30
0.0
  0
SPLINE
  5
31C
100
AcDbEntity
  8
0
100
AcDbSpline
 62
7
  6
CONTINUOUS
 70
0
 71
3
 72
45
 73
41
 74
0
 42
0.0000001
 43
0.0000001
 44
0.0000000001
 40
0.0
 40
0.0
 40
0.0
 40
0.0
 40
0.01497214
 40
0.0299473369
 40
0.0449286345
 40
0.0599190336
 40
0.0749214831
 40
0.089938858
 40
0.1049739401
 40
0.1200294101
 40
0.1351078174
 40
0.1502115844
 40
0.1653429709
 40
0.180504084
 40
0.2109173596
 40
0.2414702626
 40
0.272172708
 40
0.3030312068
 40
0.3340487697
 40
0.3652248943
 40
0.3965556293
 40
0.4280337098
 40
0.4596487579
 40
0.4913875395
 40
0.5232342716
 40
0.5551709708
 40
0.5871778361
 40
0.6192336592
 40
0.6513162553
 40
0.6834029069
 40
0.7154708163
 40
0.7474975582
 40
0.7794615275
 40
0.8113423757
 40
0.8431214263
 40
0.8747820819
 40
0.906310132
 40
0.937694264
 40
0.9689257723
 40
1.0
 40
1.0
 40
1.0
 40
1.0
 10
8.3438776984
 20
9.6020836318
 30
0.0
 10
8.3463332019
 20
9.604455479
 30
0.0
 10
8.3513395592
 20
9.6091025847
 30
0.0
 10
8.3591210273
 20
9.6157700253
 30
0.0
 10
8.3671644739
 20
9.622125943
 30
0.0
 10
8.3754587505
 20
9.6281613486
 30
0.0
 10
8.3839923948
 20
9.6338681004
 30
0.0
 10
8.3927537458
 20
9.6392381924
 30
0.0
 10
8.4017306523
 20
9.6442644004
 30
0.0
 10
8.4109108443
 20
9.6489396502
 30
0.0
 10
8.4202816245
 20
9.6532576669
 30
0.0
 10
8.4298301042
 20
9.6572123771
 30
0.0
 10
8.4395432966
 20
9.66079848
 30
0.0
 10
8.4527078195
 20
9.6650857837
 30
0.0
 10
8.4695156087
 20
9.6694985809
 30
0.0
 10
8.490099629
 20
9.6732450486
 30
0.0
 10
8.5110099334
 20
9.675429117
 30
0.0
 10
8.5321306695
 20
9.6760387576
 30
0.0
 10
8.5533458896
 20
9.6750709698
 30
0.0
 10
8.574538917
 20
9.6725313182
 30
0.0
 10
8.5955933239
 20
9.6684340152
 30
0.0
 10
8.6163934708
 20
9.6628017991
 30
0.0
 10
8.6368251584
 20
9.6556658109
 30
0.0
 10
8.6567762384
 20
9.6470654162
 30
0.0
 10
8.6761372225
 20
9.6370479864
 30
0.0
 10
8.6948018738
 20
9.6256686375
 30
0.0
 10
8.7126677824
 20
9.6129899277
 30
0.0
 10
8.7296369201
 20
9.5990815165
 30
0.0
 10
8.7456161712
 20
9.5840197837
 30
0.0
 10
8.7605178403
 20
9.5678874166
 30
0.0
 10
8.7742601283
 20
9.5507729595
 30
0.0
 10
8.7867675749
 20
9.53277033
 30
0.0
 10
8.7979714708
 20
9.5139783117
 30
0.0
 10
8.8078102289
 20
9.4945000138
 30
0.0
 10
8.8162297285
 20
9.4744423263
 30
0.0
 10
8.8231835896
 20
9.4539152947
 30
0.0
 10
8.8286334865
 20
9.4330316877
 30
0.0
 10
8.8325492278
 20
9.4119057826
 30
0.0
 10
8.8349091747
 20
9.3906550978
 30
0.0
 10
8.8354377443
 20
9.3764426182
 30
0.0
 10
8.8354377443
 20
9.3693570363
 30
0.0
  0
SPLINE
  5
31D
100
AcDbEntity
  8
0
100
AcDbSpline
 62
7
  6
CONTINUOUS
 70
0
 71
3
 72
45
 73
41
 74
0
 42
0.0000001
 43
0.0000001
 44
0.0000000001
 40
0.0
 40
0.0
 40
0.0
 40
0.0
 40
0.01497214
 40
0.0299473369
 40
0.0449286345
 40
0.0599190336
 40
0.0749214831
 40
0.089938858
 40
0.1049739401
 40
0.1200294101
 40
0.1351078174
 40
0.1502115844
 40
0.1653429709
 40
0.180504084
 40
0.2109173596
 40
0.2414702626
 40
0.272172708
 40
0.3030312068
 40
0.3340487697
 40
0.3652248943
 40
0.3965556293
 40
0.4280337098
 40
0.4596487579
 40
0.4913875395
 40
0.5232342716
 40
0.5551709708
 40
0.5871778361
 40
0.6192336592
 40
0.6513162553
 40
0.6834029069
 40
0.7154708163
 40
0.7474975582
 40
0.7794615275
 40
0.8113423757
 40
0.8431214263
 40
0.8747820819
 40
0.906310132
 40
0.937694264
 40
0.9689257723
 40
1.0
 40
1.0
 40
1.0
 40
1.0
 10
11.4232494952
 20
9.3885284724
 30
0.0
 10
11.4257049987
 20
9.3909003195
 30
0.0
 10
11.430711356
 20
9.3955474252
 30
0.0
 10
11.4384928241
 20
9.4022148658
 30
0.0
 10
11.4465362707
 20
9.4085707836
 30
0.0
 10
11.4548305473
 20
9.4146061891
 30
0.0
 10
11.4633641916
 20
9.420312941
 30
0.0
 10
11.4721255427
 20
9.4256830329
 30
0.0
 10
11.4811024491
 20
9.4307092409
 30
0.0
 10
11.4902826411
 20
9.4353844908
 30
0.0
 10
11.4996534213
 20
9.4397025075
 30
0.0
 10
11.509201901
 20
9.4436572177
 30
0.0
 10
11.5189150934
 20
9.4472433205
 30
0.0
 10
11.5320796163
 20
9.4515306242
 30
0.0
 10
11.5488874055
 20
9.4559434215
 30
0.0
 10
11.5694714258
 20
9.4596898892
 30
0.0
 10
11.5903817302
 20
9.4618739576
 30
0.0
 10
11.6115024663
 20
9.4624835981
 30
0.0
 10
11.6327176864
 20
9.4615158103
 30
0.0
 10
11.6539107138
 20
9.4589761588
 30
0.0
 10
11.6749651207
 20
9.4548788558
 30
0.0
 10
11.6957652676
 20
9.4492466397
 30
0.0
 10
11.7161969552
 20
9.4421106515
 30
0.0
 10
11.7361480352
 20
9.4335102568
 30
0.0
 10
11.7555090193
 20
9.423492827
 30
0.0
 10
11.7741736706
 20
9.412113478
 30
0.0
 10
11.7920395792
 20
9.3994347683
 30
0.0
 10
11.8090087169
 20
9.3855263571
 30
0.0
 10
11.824987968
 20
9.3704646242
 30
0.0
 10
11.8398896371
 20
9.3543322572
 30
0.0
 10
11.8536319251
 20
9.3372178
 30
0.0
 10
11.8661393717
 20
9.3192151706
 30
0.0
 10
11.8773432676
 20
9.3004231522
 30
0.0
 10
11.8871820257
 20
9.2809448544
 30
0.0
 10
11.8956015253
 20
9.2608871669
 30
0.0
 10
11.9025553864
 20
9.2403601352
 30
0.0
 10
11.9080052833
 20
9.2194765283
 30
0.0
 10
11.9119210246
 20
9.1983506231
 30
0.0
 10
11.9142809716
 20
9.1770999383
 30
0.0
 10
11.9148095411
 20
9.1628874587
 30
0.0
 10
11.9148095411
 20
9.1558018768
 30
0.0
  0
SPLINE
  5
31E
100
AcDbEntity
  8
0
100
AcDbSpline
 62
7
  6
CONTINUOUS
 70
0
 71
3
 72
45
 73
41
 74
0
 42
0.0000001
 43
0.0000001
 44
0.0000000001
 40
0.0
 40
0.0
 40
0.0
 40
0.0
 40
0.01497214
 40
0.0299473369
 40
0.0449286345
 40
0.0599190336
 40
0.0749214831
 40
0.089938858
 40
0.1049739401
 40
0.1200294101
 40
0.1351078174
 40
0.1502115844
 40
0.1653429709
 40
0.180504084
 40
0.2109173596
 40
0.2414702626
 40
0.272172708
 40
0.3030312068
 40
0.3340487697
 40
0.3652248943
 40
0.3965556293
 40
0.4280337098
 40
0.4596487579
 40
0.4913875395
 40
0.5232342716
 40
0.5551709708
 40
0.5871778361
 40
0.6192336592
 40
0.6513162553
 40
0.6834029069
 40
0.7154708163
 40
0.7474975582
 40
0.7794615275
 40
0.8113423757
 40
0.8431214263
 40
0.8747820819
 40
0.906310132
 40
0.937694264
 40
0.9689257723
 40
1.0
 40
1.0
 40
1.0
 40
1.0
 10
11.4232494952
 20
6.9737137636
 30
0.0
 10
11.4257049987
 20
6.9760856107
 30
0.0
 10
11.430711356
 20
6.9807327164
 30
0.0
 10
11.4384928241
 20
6.987400157
 30
0.0
 10
11.4465362707
 20
6.9937560748
 30
0.0
 10
11.4548305473
 20
6.9997914803
 30
0.0
 10
11.4633641916
 20
7.0054982322
 30
0.0
 10
11.4721255427
 20
7.0108683241
 30
0.0
 10
11.4811024491
 20
7.0158945321
 30
0.0
 10
11.4902826411
 20
7.020569782
 30
0.0
 10
11.4996534213
 20
7.0248877987
 30
0.0
 10
11.509201901
 20
7.0288425089
 30
0.0
 10
11.5189150934
 20
7.0324286117
 30
0.0
 10
11.5320796163
 20
7.0367159154
 30
0.0
 10
11.5488874055
 20
7.0411287127
 30
0.0
 10
11.5694714258
 20
7.0448751804
 30
0.0
 10
11.5903817302
 20
7.0470592488
 30
0.0
 10
11.6115024663
 20
7.0476688893
 30
0.0
 10
11.6327176864
 20
7.0467011015
 30
0.0
 10
11.6539107138
 20
7.04416145
 30
0.0
 10
11.6749651207
 20
7.040064147
 30
0.0
 10
11.6957652676
 20
7.0344319308
 30
0.0
 10
11.7161969552
 20
7.0272959427
 30
0.0
 10
11.7361480352
 20
7.018695548
 30
0.0
 10
11.7555090193
 20
7.0086781182
 30
0.0
 10
11.7741736706
 20
6.9972987692
 30
0.0
 10
11.7920395792
 20
6.9846200595
 30
0.0
 10
11.8090087169
 20
6.9707116482
 30
0.0
 10
11.824987968
 20
6.9556499154
 30
0.0
 10
11.8398896371
 20
6.9395175484
 30
0.0
 10
11.8536319251
 20
6.9224030912
 30
0.0
 10
11.8661393717
 20
6.9044004618
 30
0.0
 10
11.8773432676
 20
6.8856084434
 30
0.0
 10
11.8871820257
 20
6.8661301456
 30
0.0
 10
11.8956015253
 20
6.8460724581
 30
0.0
 10
11.9025553864
 20
6.8255454264
 30
0.0
 10
11.9080052833
 20
6.8046618195
 30
0.0
 10
11.9119210246
 20
6.7835359143
 30
0.0
 10
11.9142809716
 20
6.7622852295
 30
0.0
 10
11.9148095411
 20
6.7480727499
 30
0.0
 10
11.9148095411
 20
6.740987168
 30
0.0
  0
SPLINE
  5
31F
100
AcDbEntity
  8
0
100
AcDbSpline
 62
7
  6
CONTINUOUS
 70
0
 71
3
 72
45
 73
41
 74
0
 42
0.0000001
 43
0.0000001
 44
0.0000000001
 40
0.0
 40
0.0
 40
0.0
 40
0.0
 40
0.01497214
 40
0.0299473369
 40
0.0449286345
 40
0.0599190336
 40
0.0749214831
 40
0.089938858
 40
0.1049739401
 40
0.1200294101
 40
0.1351078174
 40
0.1502115844
 40
0.1653429709
 40
0.180504084
 40
0.2109173596
 40
0.2414702626
 40
0.272172708
 40
0.3030312068
 40
0.3340487697
 40
0.3652248943
 40
0.3965556293
 40
0.4280337098
 40
0.4596487579
 40
0.4913875395
 40
0.5232342716
 40
0.5551709708
 40
0.5871778361
 40
0.6192336592
 40
0.6513162553
 40
0.6834029069
 40
0.7154708163
 40
0.7474975582
 40
0.7794615275
 40
0.8113423757
 40
0.8431214263
 40
0.8747820819
 40
0.906310132
 40
0.937694264
 40
0.9689257723
 40
1.0
 40
1.0
 40
1.0
 40
1.0
 10
8.3438776984
 20
7.187268923
 30
0.0
 10
8.3463332019
 20
7.1896407702
 30
0.0
 10
8.3513395592
 20
7.1942878759
 30
0.0
 10
8.3591210273
 20
7.2009553165
 30
0.0
 10
8.3671644739
 20
7.2073112342
 30
0.0
 10
8.3754587505
 20
7.2133466398
 30
0.0
 10
8.3839923948
 20
7.2190533916
 30
0.0
 10
8.3927537458
 20
7.2244234835
 30
0.0
 10
8.4017306523
 20
7.2294496916
 30
0.0
 10
8.4109108443
 20
7.2341249414
 30
0.0
 10
8.4202816245
 20
7.2384429581
 30
0.0
 10
8.4298301042
 20
7.2423976683
 30
0.0
 10
8.4395432966
 20
7.2459837712
 30
0.0
 10
8.4527078195
 20
7.2502710749
 30
0.0
 10
8.4695156087
 20
7.2546838721
 30
0.0
 10
8.490099629
 20
7.2584303398
 30
0.0
 10
8.5110099334
 20
7.2606144082
 30
0.0
 10
8.5321306695
 20
7.2612240488
 30
0.0
 10
8.5533458896
 20
7.260256261
 30
0.0
 10
8.574538917
 20
7.2577166094
 30
0.0
 10
8.5955933239
 20
7.2536193064
 30
0.0
 10
8.6163934708
 20
7.2479870903
 30
0.0
 10
8.6368251584
 20
7.2408511021
 30
0.0
 10
8.6567762384
 20
7.2322507074
 30
0.0
 10
8.6761372225
 20
7.2222332776
 30
0.0
 10
8.6948018738
 20
7.2108539287
 30
0.0
 10
8.7126677824
 20
7.1981752189
 30
0.0
 10
8.7296369201
 20
7.1842668077
 30
0.0
 10
8.7456161712
 20
7.1692050749
 30
0.0
 10
8.7605178403
 20
7.1530727078
 30
0.0
 10
8.7742601283
 20
7.1359582507
 30
0.0
 10
8.7867675749
 20
7.1179556212
 30
0.0
 10
8.7979714708
 20
7.0991636029
 30
0.0
 10
8.8078102289
 20
7.079685305
 30
0.0
 10
8.8162297285
 20
7.0596276175
 30
0.0
 10
8.8231835896
 20
7.0391005859
 30
0.0
 10
8.8286334865
 20
7.0182169789
 30
0.0
 10
8.8325492278
 20
6.9970910738
 30
0.0
 10
8.8349091747
 20
6.975840389
 30
0.0
 10
8.8354377443
 20
6.9616279094
 30
0.0
 10
8.8354377443
 20
6.9545423275
 30
0.0
  0
SPLINE
  5
320
100
AcDbEntity
  8
0
100
AcDbSpline
 62
7
  6
CONTINUOUS
 70
0
 71
3
 72
43
 73
39
 74
0
 42
0.0000001
 43
0.0000001
 44
0.0000000001
 40
0.0
 40
0.0
 40
0.0
 40
0.0
 40
0.0149723247
 40
0.0299477031
 40
0.0449291853
 40
0.0599197654
 40
0.0899340882
 40
0.1200191806
 40
0.1350977717
 40
0.1502017219
 40
0.1804888772
 40
0.2109025199
 40
0.2414557901
 40
0.272158604
 40
0.3030174734
 40
0.3340354105
 40
0.3652119137
 40
0.3965430314
 40
0.4280214974
 40
0.459636932
 40
0.4913761003
 40
0.5232232193
 40
0.555160306
 40
0.58716756
 40
0.619223774
 40
0.6513067632
 40
0.6833938101
 40
0.7154621155
 40
0.7474892522
 40
0.7794536147
 40
0.8113348502
 40
0.8431143001
 40
0.8747753042
 40
0.9063038579
 40
0.93768806
 40
0.9533258676
 40
0.9689258095
 40
1.0
 40
1.0
 40
1.0
 40
1.0
 10
10.8740205142
 20
9.3461293175
 30
0.0
 10
10.8750989446
 20
9.3471710103
 30
0.0
 10
10.8772976808
 20
9.3492119803
 30
0.0
 10
10.8807151892
 20
9.3521402695
 30
0.0
 10
10.8842478445
 20
9.3549317347
 30
0.0
 10
10.8891062204
 20
9.3584671021
 30
0.0
 10
10.8954458066
 20
9.3625269879
 30
0.0
 10
10.9020935695
 20
9.3660781736
 30
0.0
 10
10.9075762707
 20
9.3686045093
 30
0.0
 10
10.9131722307
 20
9.3709222916
 30
0.0
 10
10.9203515993
 20
9.3734145773
 30
0.0
 10
10.9291990915
 20
9.3757373453
 30
0.0
 10
10.9382396453
 20
9.3773828768
 30
0.0
 10
10.9474231595
 20
9.3783420929
 30
0.0
 10
10.956699187
 20
9.3786098742
 30
0.0
 10
10.9660166886
 20
9.3781848562
 30
0.0
 10
10.9753244525
 20
9.3770694925
 30
0.0
 10
10.9845713352
 20
9.3752700179
 30
0.0
 10
10.9937065502
 20
9.3727964194
 30
0.0
 10
11.0026799412
 20
9.3696623768
 30
0.0
 10
11.0114422544
 20
9.3658851807
 30
0.0
 10
11.019945404
 20
9.3614856375
 30
0.0
 10
11.0281427325
 20
9.3564879542
 30
0.0
 10
11.0359892631
 20
9.3509196059
 30
0.0
 10
11.0434419431
 20
9.3448111855
 30
0.0
 10
11.0504598769
 20
9.3381962379
 30
0.0
 10
11.0570045481
 20
9.3311110767
 30
0.0
 10
11.0630400277
 20
9.3235945875
 30
0.0
 10
11.0685331748
 20
9.3156880191
 30
0.0
 10
11.0734538129
 20
9.3074347592
 30
0.0
 10
11.0777748998
 20
9.2988800886
 30
0.0
 10
11.081472652
 20
9.2900709715
 30
0.0
 10
11.084526742
 20
9.2810556638
 30
0.0
 10
11.0869202324
 20
9.2718839731
 30
0.0
 10
11.0883552265
 20
9.2641420793
 30
0.0
 10
11.0891602076
 20
9.2579215138
 30
0.0
 10
11.0897346709
 20
9.2517069061
 30
0.0
 10
11.0899086413
 20
9.247030455
 30
0.0
 10
11.0899086413
 20
9.2439185819
 30
0.0
  0
SPLINE
  5
321
100
AcDbEntity
  8
0
100
AcDbSpline
 62
7
  6
CONTINUOUS
 70
0
 71
3
 72
43
 73
39
 74
0
 42
0.0000001
 43
0.0000001
 44
0.0000000001
 40
0.0
 40
0.0
 40
0.0
 40
0.0
 40
0.0149723247
 40
0.0299477031
 40
0.0449291853
 40
0.0599197654
 40
0.0899340882
 40
0.1200191806
 40
0.1350977717
 40
0.1502017219
 40
0.1804888772
 40
0.2109025199
 40
0.2414557901
 40
0.272158604
 40
0.3030174734
 40
0.3340354105
 40
0.3652119137
 40
0.3965430314
 40
0.4280214974
 40
0.459636932
 40
0.4913761003
 40
0.5232232193
 40
0.555160306
 40
0.58716756
 40
0.619223774
 40
0.6513067632
 40
0.6833938101
 40
0.7154621155
 40
0.7474892522
 40
0.7794536147
 40
0.8113348502
 40
0.8431143001
 40
0.8747753042
 40
0.9063038579
 40
0.93768806
 40
0.9533258676
 40
0.9689258095
 40
1.0
 40
1.0
 40
1.0
 40
1.0
 10
9.9988917614
 20
8.1685027149
 30
0.0
 10
9.9999701917
 20
8.1695444077
 30
0.0
 10
10.002168928
 20
8.1715853777
 30
0.0
 10
10.0055864364
 20
8.1745136669
 30
0.0
 10
10.0091190917
 20
8.1773051321
 30
0.0
 10
10.0139774675
 20
8.1808404995
 30
0.0
 10
10.0203170537
 20
8.1849003853
 30
0.0
 10
10.0269648166
 20
8.188451571
 30
0.0
 10
10.0324475179
 20
8.1909779067
 30
0.0
 10
10.0380434778
 20
8.193295689
 30
0.0
 10
10.0452228464
 20
8.1957879747
 30
0.0
 10
10.0540703387
 20
8.1981107427
 30
0.0
 10
10.0631108925
 20
8.1997562742
 30
0.0
 10
10.0722944066
 20
8.2007154903
 30
0.0
 10
10.0815704342
 20
8.2009832716
 30
0.0
 10
10.0908879358
 20
8.2005582536
 30
0.0
 10
10.1001956997
 20
8.1994428899
 30
0.0
 10
10.1094425824
 20
8.1976434153
 30
0.0
 10
10.1185777973
 20
8.1951698168
 30
0.0
 10
10.1275511884
 20
8.1920357742
 30
0.0
 10
10.1363135016
 20
8.1882585781
 30
0.0
 10
10.1448166512
 20
8.1838590349
 30
0.0
 10
10.1530139797
 20
8.1788613516
 30
0.0
 10
10.1608605103
 20
8.1732930033
 30
0.0
 10
10.1683131903
 20
8.1671845829
 30
0.0
 10
10.1753311241
 20
8.1605696353
 30
0.0
 10
10.1818757953
 20
8.1534844741
 30
0.0
 10
10.1879112749
 20
8.1459679849
 30
0.0
 10
10.193404422
 20
8.1380614165
 30
0.0
 10
10.19832506
 20
8.1298081566
 30
0.0
 10
10.202646147
 20
8.121253486
 30
0.0
 10
10.2063438992
 20
8.1124443689
 30
0.0
 10
10.2093979892
 20
8.1034290612
 30
0.0
 10
10.2117914796
 20
8.0942573705
 30
0.0
 10
10.2132264737
 20
8.0865154767
 30
0.0
 10
10.2140314548
 20
8.0802949112
 30
0.0
 10
10.2146059181
 20
8.0740803035
 30
0.0
 10
10.2147798884
 20
8.0694038524
 30
0.0
 10
10.2147798884
 20
8.0662919793
 30
0.0
  0
SPLINE
  5
322
100
AcDbEntity
  8
0
100
AcDbSpline
 62
7
  6
CONTINUOUS
 70
0
 71
3
 72
43
 73
39
 74
0
 42
0.0000001
 43
0.0000001
 44
0.0000000001
 40
0.0
 40
0.0
 40
0.0
 40
0.0
 40
0.0149723247
 40
0.0299477031
 40
0.0449291853
 40
0.0599197654
 40
0.0899340882
 40
0.1200191806
 40
0.1350977717
 40
0.1502017219
 40
0.1804888772
 40
0.2109025199
 40
0.2414557901
 40
0.272158604
 40
0.3030174734
 40
0.3340354105
 40
0.3652119137
 40
0.3965430314
 40
0.4280214974
 40
0.459636932
 40
0.4913761003
 40
0.5232232193
 40
0.555160306
 40
0.58716756
 40
0.619223774
 40
0.6513067632
 40
0.6833938101
 40
0.7154621155
 40
0.7474892522
 40
0.7794536147
 40
0.8113348502
 40
0.8431143001
 40
0.8747753042
 40
0.9063038579
 40
0.93768806
 40
0.9533258676
 40
0.9689258095
 40
1.0
 40
1.0
 40
1.0
 40
1.0
 10
9.1237628934
 20
6.9908760627
 30
0.0
 10
9.1248413238
 20
6.9919177555
 30
0.0
 10
9.12704006
 20
6.9939587255
 30
0.0
 10
9.1304575684
 20
6.9968870147
 30
0.0
 10
9.1339902237
 20
6.9996784799
 30
0.0
 10
9.1388485996
 20
7.0032138473
 30
0.0
 10
9.1451881858
 20
7.0072737332
 30
0.0
 10
9.1518359487
 20
7.0108249188
 30
0.0
 10
9.1573186499
 20
7.0133512545
 30
0.0
 10
9.1629146099
 20
7.0156690368
 30
0.0
 10
9.1700939785
 20
7.0181613225
 30
0.0
 10
9.1789414707
 20
7.0204840906
 30
0.0
 10
9.1879820245
 20
7.022129622
 30
0.0
 10
9.1971655387
 20
7.0230888381
 30
0.0
 10
9.2064415662
 20
7.0233566194
 30
0.0
 10
9.2157590678
 20
7.0229316014
 30
0.0
 10
9.2250668317
 20
7.0218162377
 30
0.0
 10
9.2343137144
 20
7.0200167631
 30
0.0
 10
9.2434489294
 20
7.0175431646
 30
0.0
 10
9.2524223204
 20
7.014409122
 30
0.0
 10
9.2611846336
 20
7.0106319259
 30
0.0
 10
9.2696877832
 20
7.0062323827
 30
0.0
 10
9.2778851117
 20
7.0012346994
 30
0.0
 10
9.2857316423
 20
6.9956663511
 30
0.0
 10
9.2931843223
 20
6.9895579307
 30
0.0
 10
9.3002022561
 20
6.9829429831
 30
0.0
 10
9.3067469273
 20
6.9758578219
 30
0.0
 10
9.3127824069
 20
6.9683413327
 30
0.0
 10
9.318275554
 20
6.9604347643
 30
0.0
 10
9.3231961921
 20
6.9521815044
 30
0.0
 10
9.327517279
 20
6.9436268338
 30
0.0
 10
9.3312150312
 20
6.9348177167
 30
0.0
 10
9.3342691212
 20
6.925802409
 30
0.0
 10
9.3366626116
 20
6.9166307183
 30
0.0
 10
9.3380976057
 20
6.9088888245
 30
0.0
 10
9.3389025868
 20
6.902668259
 30
0.0
 10
9.3394770501
 20
6.8964536513
 30
0.0
 10
9.3396510205
 20
6.8917772002
 30
0.0
 10
9.3396510205
 20
6.8886653271
 30
0.0
  0
SPLINE
  5
323
100
AcDbEntity
  8
0
100
AcDbSpline
 62
7
  6
CONTINUOUS
 70
0
 71
3
 72
41
 73
37
 74
0
 42
0.0000001
 43
0.0000001
 44
0.0000000001
 40
0.0
 40
0.0
 40
0.0
 40
0.0
 40
0.0299421756
 40
0.0599087291
 40
0.0899234427
 40
0.12000893
 40
0.1501860972
 40
0.1804736576
 40
0.2108877103
 40
0.2414413945
 40
0.2721446252
 40
0.3030039132
 40
0.3340222692
 40
0.3651991907
 40
0.3965307261
 40
0.4280096099
 40
0.4596254632
 40
0.491365051
 40
0.5232125895
 40
0.5551500944
 40
0.5871577641
 40
0.61921439
 40
0.6512977872
 40
0.6833852384
 40
0.715453946
 40
0.7314766505
 40
0.7474863166
 40
0.7794510815
 40
0.8113327211
 40
0.8272389267
 40
0.8431175145
 40
0.8747789379
 40
0.9063078385
 40
0.9376925801
 40
0.9689252405
 40
1.0
 40
1.0
 40
1.0
 40
1.0
 10
9.1057010016
 20
9.4862121878
 30
0.0
 10
9.1082889917
 20
9.4887119736
 30
0.0
 10
9.1136685065
 20
9.4935097605
 30
0.0
 10
9.122287283
 20
9.5000459178
 30
0.0
 10
9.13141155
 20
9.5058888011
 30
0.0
 10
9.1409903151
 20
9.5110056444
 30
0.0
 10
9.1509709181
 20
9.5153684907
 30
0.0
 10
9.161298277
 20
9.5189533584
 30
0.0
 10
9.1719154825
 20
9.5217406331
 30
0.0
 10
9.1827640419
 20
9.5237150974
 30
0.0
 10
9.1937842256
 20
9.5248660262
 30
0.0
 10
9.204915392
 20
9.5251872318
 30
0.0
 10
9.2160963231
 20
9.5246770911
 30
0.0
 10
9.2272655583
 20
9.5233385475
 30
0.0
 10
9.2383617297
 20
9.5211790876
 30
0.0
 10
9.2493238951
 20
9.5182106954
 30
0.0
 10
9.2600918681
 20
9.5144497825
 30
0.0
 10
9.2706065444
 20
9.5099170965
 30
0.0
 10
9.2808102218
 20
9.5046376035
 30
0.0
 10
9.2906469108
 20
9.4986403535
 30
0.0
 10
9.3000626438
 20
9.4919583113
 30
0.0
 10
9.3090057449
 20
9.4846282105
 30
0.0
 10
9.3174271939
 20
9.4766902275
 30
0.0
 10
9.3252805795
 20
9.4681882322
 30
0.0
 10
9.3313183029
 20
9.4606687858
 30
0.0
 10
9.3358230438
 20
9.4544186556
 30
0.0
 10
9.3401010854
 20
9.4480262191
 30
0.0
 10
9.3450195893
 20
9.4397766568
 30
0.0
 10
9.349344252
 20
9.4312146725
 30
0.0
 10
9.3524292077
 20
9.4242119016
 30
0.0
 10
9.355255473
 20
9.4171293209
 30
0.0
 10
9.3583069669
 20
9.4081217833
 30
0.0
 10
9.3611790721
 20
9.397115828
 30
0.0
 10
9.3632428094
 20
9.3859818838
 30
0.0
 10
9.3644865105
 20
9.3747822744
 30
0.0
 10
9.3647650934
 20
9.3672919368
 30
0.0
 10
9.3647650934
 20
9.3635576933
 30
0.0
  0
SPLINE
  5
324
100
AcDbEntity
  8
0
100
AcDbSpline
 62
7
  6
CONTINUOUS
 70
0
 71
3
 72
41
 73
37
 74
0
 42
0.0000001
 43
0.0000001
 44
0.0000000001
 40
0.0
 40
0.0
 40
0.0
 40
0.0
 40
0.0299421756
 40
0.0599087291
 40
0.0899234427
 40
0.12000893
 40
0.1501860972
 40
0.1804736576
 40
0.2108877103
 40
0.2414413945
 40
0.2721446252
 40
0.3030039132
 40
0.3340222692
 40
0.3651991907
 40
0.3965307261
 40
0.4280096099
 40
0.4596254632
 40
0.491365051
 40
0.5232125895
 40
0.5551500944
 40
0.5871577641
 40
0.61921439
 40
0.6512977872
 40
0.6833852384
 40
0.715453946
 40
0.7314766505
 40
0.7474863166
 40
0.7794510815
 40
0.8113327211
 40
0.8272389267
 40
0.8431175145
 40
0.8747789379
 40
0.9063078385
 40
0.9376925801
 40
0.9689252405
 40
1.0
 40
1.0
 40
1.0
 40
1.0
 10
10.8559586224
 20
6.8881973765
 30
0.0
 10
10.8585466125
 20
6.8906971623
 30
0.0
 10
10.8639261273
 20
6.8954949491
 30
0.0
 10
10.8725449038
 20
6.9020311065
 30
0.0
 10
10.8816691708
 20
6.9078739897
 30
0.0
 10
10.8912479359
 20
6.9129908331
 30
0.0
 10
10.9012285389
 20
6.9173536794
 30
0.0
 10
10.9115558978
 20
6.9209385471
 30
0.0
 10
10.9221731033
 20
6.9237258218
 30
0.0
 10
10.9330216627
 20
6.9257002861
 30
0.0
 10
10.9440418464
 20
6.9268512149
 30
0.0
 10
10.9551730128
 20
6.9271724204
 30
0.0
 10
10.9663539439
 20
6.9266622798
 30
0.0
 10
10.9775231791
 20
6.9253237362
 30
0.0
 10
10.9886193505
 20
6.9231642763
 30
0.0
 10
10.9995815159
 20
6.9201958841
 30
0.0
 10
11.0103494889
 20
6.9164349712
 30
0.0
 10
11.0208641652
 20
6.9119022851
 30
0.0
 10
11.0310678426
 20
6.9066227922
 30
0.0
 10
11.0409045316
 20
6.9006255422
 30
0.0
 10
11.0503202646
 20
6.8939434999
 30
0.0
 10
11.0592633657
 20
6.8866133991
 30
0.0
 10
11.0676848147
 20
6.8786754162
 30
0.0
 10
11.0755382003
 20
6.8701734209
 30
0.0
 10
11.0815759237
 20
6.8626539745
 30
0.0
 10
11.0860806646
 20
6.8564038443
 30
0.0
 10
11.0903587062
 20
6.8500114077
 30
0.0
 10
11.0952772101
 20
6.8417618455
 30
0.0
 10
11.0996018728
 20
6.8331998612
 30
0.0
 10
11.1026868285
 20
6.8261970903
 30
0.0
 10
11.1055130938
 20
6.8191145096
 30
0.0
 10
11.1085645877
 20
6.810106972
 30
0.0
 10
11.1114366929
 20
6.7991010167
 30
0.0
 10
11.1135004302
 20
6.7879670725
 30
0.0
 10
11.1147441313
 20
6.7767674631
 30
0.0
 10
11.1150227142
 20
6.7692771255
 30
0.0
 10
11.1150227142
 20
6.7655428819
 30
0.0
  0
SPLINE
  5
325
100
AcDbEntity
  8
0
100
AcDbSpline
 62
7
  6
CONTINUOUS
 70
0
 71
3
 72
46
 73
42
 74
0
 42
0.0000001
 43
0.0000001
 44
0.0000000001
 40
0.0
 40
0.0
 40
0.0
 40
0.0
 40
0.0324522681
 40
0.064822336
 40
0.0971034428
 40
0.1292902609
 40
0.1933456194
 40
0.2252282965
 40
0.2570052142
 40
0.2886753192
 40
0.3202381345
 40
0.3516937176
 40
0.3830427057
 40
0.4142863874
 40
0.445426748
 40
0.47646655
 40
0.5074095227
 40
0.5382605697
 40
0.5690260058
 40
0.5997138378
 40
0.6303340938
 40
0.6608992022
 40
0.6914244024
 40
0.7219281245
 40
0.7524322799
 40
0.7676956457
 40
0.7829690272
 40
0.7982562851
 40
0.8135612069
 40
0.8288878174
 40
0.8442402783
 40
0.8596225907
 40
0.8750389505
 40
0.8904932429
 40
0.9059891806
 40
0.9215302661
 40
0.9371195478
 40
0.9527594221
 40
0.9684517904
 40
0.9841992685
 40
1.0
 40
1.0
 40
1.0
 40
1.0
 10
9.595824557
 20
8.2806672514
 30
0.0
 10
9.5988044655
 20
8.2748584549
 30
0.0
 10
9.60443372
 20
8.2630867659
 30
0.0
 10
9.6118987885
 20
8.2450253959
 30
0.0
 10
9.6183863732
 20
8.2266460934
 30
0.0
 10
9.6257322338
 20
8.2018472252
 30
0.0
 10
9.6311818644
 20
8.1766024466
 30
0.0
 10
9.634739871
 20
8.1511495128
 30
0.0
 10
9.6364658693
 20
8.1320413123
 30
0.0
 10
9.6372560059
 20
8.1129367044
 30
0.0
 10
9.6371119826
 20
8.0938807141
 30
0.0
 10
9.6360334358
 20
8.0749193554
 30
0.0
 10
9.634018208
 20
8.0560989259
 30
0.0
 10
9.6310623267
 20
8.0374670734
 30
0.0
 10
9.6271600881
 20
8.0190734312
 30
0.0
 10
9.6223042205
 20
8.0009704092
 30
0.0
 10
9.6164861529
 20
7.983213975
 30
0.0
 10
9.6096963471
 20
7.9658644977
 30
0.0
 10
9.6019247806
 20
7.9489876478
 30
0.0
 10
9.59316163
 20
7.9326553499
 30
0.0
 10
9.5833981834
 20
7.9169467282
 30
0.0
 10
9.5726281815
 20
7.901949084
 30
0.0
 10
9.5608491931
 20
7.8877584659
 30
0.0
 10
9.5480658763
 20
7.8744810119
 30
0.0
 10
9.536586382
 20
7.8642731852
 30
0.0
 10
9.5269260521
 20
7.8566873696
 30
0.0
 10
9.5194418991
 20
7.8513001
 30
0.0
 10
9.5117270536
 20
7.8462334857
 30
0.0
 10
9.5037883601
 20
7.8415040505
 30
0.0
 10
9.4956342102
 20
7.837128524
 30
0.0
 10
9.487274343
 20
7.8331236582
 30
0.0
 10
9.4787201814
 20
7.829505632
 30
0.0
 10
9.4699846619
 20
7.8262903881
 30
0.0
 10
9.4610824573
 20
7.8234928894
 30
0.0
 10
9.4520299108
 20
7.8211269895
 30
0.0
 10
9.4428449074
 20
7.8192054483
 30
0.0
 10
9.4335469455
 20
7.8177391231
 30
0.0
 10
9.4241569244
 20
7.8167370338
 30
0.0
 10
9.4146965455
 20
7.8162062308
 30
0.0
 10
9.4051893278
 20
7.8161513325
 30
0.0
 10
9.3988457656
 20
7.8164328177
 30
0.0
 10
9.3956746867
 20
7.8166527328
 30
0.0
  0
SPLINE
  5
326
100
AcDbEntity
  8
0
100
AcDbSpline
 62
7
  6
CONTINUOUS
 70
0
 71
3
 72
38
 73
34
 74
0
 42
0.0000001
 43
0.0000001
 44
0.0000000001
 40
0.0
 40
0.0
 40
0.0
 40
0.0
 40
0.0606756936
 40
0.0911554291
 40
0.1217257875
 40
0.1831253012
 40
0.2139681019
 40
0.2449007071
 40
0.3070167209
 40
0.369473161
 40
0.4008302124
 40
0.4322638189
 40
0.495326248
 40
0.5269606857
 40
0.5586490062
 40
0.5903826432
 40
0.6221513878
 40
0.6539432195
 40
0.6857441899
 40
0.7175382641
 40
0.7493072582
 40
0.7810309321
 40
0.8126873025
 40
0.8284856107
 40
0.8442585474
 40
0.8600030681
 40
0.8757164474
 40
0.8913957818
 40
0.9070385942
 40
0.9226424641
 40
0.9382052768
 40
0.9691932967
 40
1.0
 40
1.0
 40
1.0
 40
1.0
 10
10.6852362682
 20
8.2625965619
 30
0.0
 10
10.6959468414
 20
8.2646865645
 30
0.0
 10
10.7121961012
 20
8.2670768532
 30
0.0
 10
10.7340245565
 20
8.2688127332
 30
0.0
 10
10.7560392632
 20
8.2695965061
 30
0.0
 10
10.7781496928
 20
8.2689499963
 30
0.0
 10
10.8002128375
 20
8.266898931
 30
0.0
 10
10.8222982401
 20
8.2639010557
 30
0.0
 10
10.8497527123
 20
8.2583854555
 30
0.0
 10
10.8767137256
 20
8.2505344627
 30
0.0
 10
10.8978910227
 20
8.2428381244
 30
0.0
 10
10.9188065638
 20
8.2341703675
 30
0.0
 10
10.9391609726
 20
8.2240680807
 30
0.0
 10
10.9587572987
 20
8.2125366716
 30
0.0
 10
10.973055541
 20
8.2031511606
 30
0.0
 10
10.986879658
 20
8.1930393143
 30
0.0
 10
11.0001685956
 20
8.182203116
 30
0.0
 10
11.0128551076
 20
8.1706484741
 30
0.0
 10
11.0248664714
 20
8.1583859675
 30
0.0
 10
11.0361242806
 20
8.1454324821
 30
0.0
 10
11.0465450415
 20
8.1318125962
 30
0.0
 10
11.0560406931
 20
8.1175612884
 30
0.0
 10
11.0631132629
 20
8.1051866689
 30
0.0
 10
11.0682173463
 20
8.0950226022
 30
0.0
 10
11.0717554171
 20
8.0872809538
 30
0.0
 10
11.0749949552
 20
8.0794262493
 30
0.0
 10
11.0779253558
 20
8.0714688791
 30
0.0
 10
11.0805370776
 20
8.0634204386
 30
0.0
 10
11.0828207051
 20
8.0552932397
 30
0.0
 10
11.0847682298
 20
8.0471003457
 30
0.0
 10
11.0869035506
 20
8.0361248533
 30
0.0
 10
11.0887024156
 20
8.0223114525
 30
0.0
 10
11.0891886305
 20
8.0111921434
 30
0.0
 10
11.0891886305
 20
8.005651527
 30
0.0
  0
SPLINE
  5
327
100
AcDbEntity
  8
0
100
AcDbSpline
 62
7
  6
CONTINUOUS
 70
0
 71
3
 72
23
 73
19
 74
0
 42
0.0000001
 43
0.0000001
 44
0.0000000001
 40
0.0
 40
0.0
 40
0.0
 40
0.0
 40
0.0621660784
 40
0.1241967415
 40
0.1861283627
 40
0.247999865
 40
0.3098520613
 40
0.3717269016
 40
0.4336666388
 40
0.4957129312
 40
0.5579059076
 40
0.6202832196
 40
0.6828791318
 40
0.7457236325
 40
0.8088417581
 40
0.8722527216
 40
0.9359700087
 40
1.0
 40
1.0
 40
1.0
 40
1.0
 10
9.8753411934
 20
9.0206385446
 30
0.0
 10
9.8778429177
 20
9.0253826522
 30
0.0
 10
9.8831729081
 20
9.0346898288
 30
0.0
 10
9.8921209923
 20
9.0480390942
 30
0.0
 10
9.9019795669
 20
9.0606999067
 30
0.0
 10
9.912709378
 20
9.0726106016
 30
0.0
 10
9.9242672294
 20
9.0837128622
 30
0.0
 10
9.9366051496
 20
9.0939506915
 30
0.0
 10
9.9496706015
 20
9.1032712505
 30
0.0
 10
9.9634064848
 20
9.1116252381
 30
0.0
 10
9.9777512781
 20
9.1189674187
 30
0.0
 10
9.992639242
 20
9.1252571243
 30
0.0
 10
10.0080006978
 20
9.1304587464
 30
0.0
 10
10.023762433
 20
9.1345422166
 30
0.0
 10
10.0398480245
 20
9.1374834089
 30
0.0
 10
10.0561788496
 20
9.1392645272
 30
0.0
 10
10.0726729205
 20
9.1398744167
 30
0.0
 10
10.0836986346
 20
9.1394980184
 30
0.0
 10
10.0892095236
 20
9.139115837
 30
0.0
  0
SPLINE
  5
328
100
AcDbEntity
  8
0
100
AcDbSpline
 62
7
  6
CONTINUOUS
 70
0
 71
3
 72
54
 73
50
 74
0
 42
0.0000001
 43
0.0000001
 44
0.0000000001
 40
0.0
 40
0.0
 40
0.0
 40
0.0
 40
0.0063158507
 40
0.0126706009
 40
0.0191023977
 40
0.0256478986
 40
0.0323417211
 40
0.0392160215
 40
0.0536137219
 40
0.0611943855
 40
0.0690560622
 40
0.0772171197
 40
0.0856934318
 40
0.0944987522
 40
0.1036448027
 40
0.113141486
 40
0.1229971814
 40
0.1332187245
 40
0.1438117391
 40
0.1547806923
 40
0.1661289554
 40
0.1778590781
 40
0.1899726748
 40
0.2024706471
 40
0.2153532452
 40
0.2286199987
 40
0.2422699729
 40
0.2563016345
 40
0.2707129683
 40
0.2855015805
 40
0.3006645508
 40
0.3161986637
 40
0.3321003047
 40
0.364989385
 40
0.3992970598
 40
0.4349833452
 40
0.4720041093
 40
0.5103114544
 40
0.549854083
 40
0.590577587
 40
0.6324246928
 40
0.6753354638
 40
0.7192475599
 40
0.7640963991
 40
0.8098154153
 40
0.8563362597
 40
0.9035882195
 40
0.9515013118
 40
1.0
 40
1.0
 40
1.0
 40
1.0
 10
13.6088936671
 20
7.4233546446
 30
0.0
 10
13.6074384133
 20
7.4234555603
 30
0.0
 10
13.6045258212
 20
7.4237771376
 30
0.0
 10
13.6001895583
 20
7.4246152731
 30
0.0
 10
13.5958822917
 20
7.4258092807
 30
0.0
 10
13.5916065292
 20
7.4273581344
 30
0.0
 10
13.5873639324
 20
7.4292609306
 30
0.0
 10
13.5816672991
 20
7.4323146204
 30
0.0
 10
13.576125327
 20
7.4360527467
 30
0.0
 10
13.5707621433
 20
7.4403847075
 30
0.0
 10
13.5667111059
 20
7.4440370413
 30
0.0
 10
13.5627033574
 20
7.4480345598
 30
0.0
 10
13.5587398459
 20
7.4523757886
 30
0.0
 10
13.5548222314
 20
7.4570588881
 30
0.0
 10
13.5509519473
 20
7.4620819462
 30
0.0
 10
13.5471304468
 20
7.4674428885
 30
0.0
 10
13.5433592841
 20
7.4731395846
 30
0.0
 10
13.539639871
 20
7.4791696837
 30
0.0
 10
13.535973717
 20
7.4855307614
 30
0.0
 10
13.5323623042
 20
7.4922202399
 30
0.0
 10
13.5288070314
 20
7.4992353781
 30
0.0
 10
13.5253094071
 20
7.5065733468
 30
0.0
 10
13.5218708043
 20
7.5142311332
 30
0.0
 10
13.5184926339
 20
7.5222056137
 30
0.0
 10
13.5151763154
 20
7.5304935369
 30
0.0
 10
13.5119231491
 20
7.5390914922
 30
0.0
 10
13.5087345278
 20
7.5479959695
 30
0.0
 10
13.5056117385
 20
7.5572033076
 30
0.0
 10
13.5025560528
 20
7.5667097234
 30
0.0
 10
13.4995687785
 20
7.5765113205
 30
0.0
 10
13.4966510967
 20
7.5866040554
 30
0.0
 10
13.493804233
 20
7.5969837939
 30
0.0
 10
13.4900623986
 20
7.6113621017
 30
0.0
 10
13.4855807199
 20
7.6300265371
 30
0.0
 10
13.4805618528
 20
7.6532548615
 30
0.0
 10
13.4758519502
 20
7.677520505
 30
0.0
 10
13.4714588488
 20
7.7027834752
 30
0.0
 10
13.4673898626
 20
7.7290022538
 30
0.0
 10
13.4636517712
 20
7.7561336749
 30
0.0
 10
13.4602508073
 20
7.7841330648
 30
0.0
 10
13.4571926477
 20
7.8129542934
 30
0.0
 10
13.4544823804
 20
7.8425498568
 30
0.0
 10
13.4521245217
 20
7.8728709554
 30
0.0
 10
13.4501230013
 20
7.9038675929
 30
0.0
 10
13.4484811626
 20
7.9354886752
 30
0.0
 10
13.4472017646
 20
7.9676819365
 30
0.0
 10
13.4462868921
 20
8.0003945529
 30
0.0
 10
13.4457381537
 20
8.0335721674
 30
0.0
 10
13.445617657
 20
8.055840243
 30
0.0
 10
13.445617657
 20
8.0670418054
 30
0.0
  0
SPLINE
  5
329
100
AcDbEntity
  8
0
100
AcDbSpline
 62
7
  6
CONTINUOUS
 70
0
 71
3
 72
22
 73
18
 74
0
 42
0.0000001
 43
0.0000001
 44
0.0000000001
 40
0.0
 40
0.0
 40
0.0
 40
0.0
 40
0.0544247541
 40
0.1090663284
 40
0.164138675
 40
0.2198503819
 40
0.2764024548
 40
0.3339859508
 40
0.3927808219
 40
0.4529552254
 40
0.514664436
 40
0.5780505852
 40
0.6432434982
 40
0.7103608664
 40
0.7795079629
 40
0.8507792288
 40
1.0
 40
1.0
 40
1.0
 40
1.0
 10
13.8980570027
 20
10.1083668194
 30
0.0
 10
13.8990752003
 20
10.1082962131
 30
0.0
 10
13.9011116457
 20
10.1080879103
 30
0.0
 10
13.9041489373
 20
10.1075756459
 30
0.0
 10
13.9071705753
 20
10.1068635833
 30
0.0
 10
13.9101754738
 20
10.1059520056
 30
0.0
 10
13.9131627759
 20
10.1048412084
 30
0.0
 10
13.9161316403
 20
10.1035316705
 30
0.0
 10
13.919081273
 20
10.1020238771
 30
0.0
 10
13.9220108737
 20
10.1003182933
 30
0.0
 10
13.9249196917
 20
10.0984154796
 30
0.0
 10
13.927807021
 20
10.0963160679
 30
0.0
 10
13.9306721411
 20
10.0940206557
 30
0.0
 10
13.9335142992
 20
10.0915298822
 30
0.0
 10
13.9363328995
 20
10.0888444344
 30
0.0
 10
13.9401163509
 20
10.0849457578
 30
0.0
 10
13.9428280996
 20
10.0818182758
 30
0.0
 10
13.9445937876
 20
10.0796472688
 30
0.0
  0
SPLINE
  5
32A
100
AcDbEntity
  8
0
100
AcDbSpline
 62
7
  6
CONTINUOUS
 70
0
 71
3
 72
36
 73
32
 74
0
 42
0.0000001
 43
0.0000001
 44
0.0000000001
 40
0.0
 40
0.0
 40
0.0
 40
0.0
 40
0.0162142856
 40
0.0334272372
 40
0.0516715081
 40
0.0709705327
 40
0.0913399311
 40
0.1127889547
 40
0.1353211135
 40
0.1589353933
 40
0.1836264466
 40
0.2093855085
 40
0.2362005154
 40
0.2640566163
 40
0.2929364437
 40
0.3228202192
 40
0.3536862189
 40
0.3855105919
 40
0.4182679067
 40
0.4519309009
 40
0.4864709172
 40
0.5218577903
 40
0.5580600379
 40
0.5950449752
 40
0.6327786677
 40
0.6712262206
 40
0.7103515405
 40
0.7501177712
 40
0.8314200588
 40
0.9148214324
 40
1.0
 40
1.0
 40
1.0
 40
1.0
 10
13.9963443042
 20
10.0160173204
 30
0.0
 10
13.9980564794
 20
10.0139121237
 30
0.0
 10
14.0014421723
 20
10.0094534865
 30
0.0
 10
14.0062705689
 20
10.00227479
 30
0.0
 10
14.0109928242
 20
9.9944172123
 30
0.0
 10
14.0156040593
 20
9.9858890648
 30
0.0
 10
14.0200998766
 20
9.9766988965
 30
0.0
 10
14.0244756167
 20
9.9668560923
 30
0.0
 10
14.0287269038
 20
9.9563707808
 30
0.0
 10
14.0328492206
 20
9.9452537655
 30
0.0
 10
14.0368383533
 20
9.9335165948
 30
0.0
 10
14.0406900443
 20
9.9211714709
 30
0.0
 10
14.0444002714
 20
9.9082312819
 30
0.0
 10
14.0479651119
 20
9.8947095577
 30
0.0
 10
14.0513807661
 20
9.8806204598
 30
0.0
 10
14.0546436706
 20
9.8659787665
 30
0.0
 10
14.0577502954
 20
9.8507998465
 30
0.0
 10
14.0606974262
 20
9.8350996484
 30
0.0
 10
14.0634818618
 20
9.8188946782
 30
0.0
 10
14.0661007115
 20
9.8022019793
 30
0.0
 10
14.0685511559
 20
9.7850391178
 30
0.0
 10
14.0708306127
 20
9.7674241578
 30
0.0
 10
14.0729366726
 20
9.749375645
 30
0.0
 10
14.07486707
 20
9.7309125867
 30
0.0
 10
14.076619808
 20
9.7120544224
 30
0.0
 10
14.0781929607
 20
9.6928210303
 30
0.0
 10
14.0795849418
 20
9.6732326497
 30
0.0
 10
14.0812091795
 20
9.6464721055
 30
0.0
 10
14.0827666649
 20
9.6122859004
 30
0.0
 10
14.0838808103
 20
9.5704792695
 30
0.0
 10
14.0841237143
 20
9.5422656993
 30
0.0
 10
14.0841237143
 20
9.5280105551
 30
0.0
  0
SPLINE
  5
32B
100
AcDbEntity
  8
0
100
AcDbSpline
 62
7
  6
CONTINUOUS
 70
0
 71
3
 72
22
 73
18
 74
0
 42
0.0000001
 43
0.0000001
 44
0.0000000001
 40
0.0
 40
0.0
 40
0.0
 40
0.0
 40
0.1492211409
 40
0.2204956624
 40
0.2896434584
 40
0.3567599937
 40
0.4219519367
 40
0.4853372437
 40
0.5470459503
 40
0.6072203975
 40
0.6660153819
 40
0.7235986022
 40
0.7801503907
 40
0.8358619542
 40
0.8909340655
 40
0.945575415
 40
1.0
 40
1.0
 40
1.0
 40
1.0
 10
13.3691451727
 20
6.4846118574
 30
0.0
 10
13.3670966926
 20
6.4827053705
 30
0.0
 10
13.3639791195
 20
6.4799821365
 30
0.0
 10
13.3596937089
 20
6.4766429277
 30
0.0
 10
13.3565313411
 20
6.4743722385
 30
0.0
 10
13.3533725717
 20
6.4722976717
 30
0.0
 10
13.3502180805
 20
6.4704197347
 30
0.0
 10
13.3470686265
 20
6.4687390108
 30
0.0
 10
13.3439250008
 20
6.467255985
 30
0.0
 10
13.3407880245
 20
6.4659711107
 30
0.0
 10
13.3376585115
 20
6.4648848738
 30
0.0
 10
13.3345373011
 20
6.4639977198
 30
0.0
 10
13.3314252745
 20
6.4633099412
 30
0.0
 10
13.3283233301
 20
6.4628218338
 30
0.0
 10
13.3252323358
 20
6.4625336993
 30
0.0
 10
13.3221534202
 20
6.4624456355
 30
0.0
 10
13.3201077239
 20
6.4625204149
 30
0.0
 10
13.3190895296
 20
6.462591021
 30
0.0
  0
SPLINE
  5
32C
100
AcDbEntity
  8
0
100
AcDbSpline
 62
7
  6
CONTINUOUS
 70
0
 71
3
 72
31
 73
27
 74
0
 42
0.0000001
 43
0.0000001
 44
0.0000000001
 40
0.0
 40
0.0
 40
0.0
 40
0.0
 40
0.0142883535
 40
0.0300508685
 40
0.0473442921
 40
0.06619618
 40
0.086610954
 40
0.1085762259
 40
0.132065187
 40
0.1570397274
 40
0.183452319
 40
0.2112467104
 40
0.2403600627
 40
0.2707226697
 40
0.3022595463
 40
0.3348906352
 40
0.3685312155
 40
0.4030929389
 40
0.4746056578
 40
0.5486595539
 40
0.6244458666
 40
0.7011311398
 40
0.7778691624
 40
0.8538135817
 40
0.9281270386
 40
1.0
 40
1.0
 40
1.0
 40
1.0
 10
13.3460673343
 20
6.6885461882
 30
0.0
 10
13.3456852494
 20
6.6890159694
 30
0.0
 10
13.3449372859
 20
6.690049797
 30
0.0
 10
13.3439076518
 20
6.6917741454
 30
0.0
 10
13.3429191526
 20
6.6937412788
 30
0.0
 10
13.3419746135
 20
6.6959456954
 30
0.0
 10
13.3410764869
 20
6.6983813937
 30
0.0
 10
13.3402274397
 20
6.701041512
 30
0.0
 10
13.3394299213
 20
6.7039184513
 30
0.0
 10
13.3386862988
 20
6.707003911
 30
0.0
 10
13.337998824
 20
6.7102889334
 30
0.0
 10
13.3373695014
 20
6.7137639349
 30
0.0
 10
13.3368002707
 20
6.7174187516
 30
0.0
 10
13.3362927965
 20
6.7212426711
 30
0.0
 10
13.3358486156
 20
6.7252244702
 30
0.0
 10
13.3354690729
 20
6.7293524488
 30
0.0
 10
13.3351552598
 20
6.7336144829
 30
0.0
 10
13.334822075
 20
6.7395264977
 30
0.0
 10
13.3345809486
 20
6.7471579508
 30
0.0
 10
13.3345657096
 20
6.7565401949
 30
0.0
 10
13.3348219406
 20
6.7661382244
 30
0.0
 10
13.3353467273
 20
6.7758391852
 30
0.0
 10
13.3361339502
 20
6.7855291005
 30
0.0
 10
13.3371743334
 20
6.7950940727
 30
0.0
 10
13.3384554952
 20
6.8044216765
 30
0.0
 10
13.3394807608
 20
6.8105328666
 30
0.0
 10
13.3400340546
 20
6.8135281858
 30
0.0
  0
SPLINE
  5
32D
100
AcDbEntity
  8
0
100
AcDbSpline
 62
7
  6
CONTINUOUS
 70
0
 71
3
 72
23
 73
19
 74
0
 42
0.0000001
 43
0.0000001
 44
0.0000000001
 40
0.0
 40
0.0
 40
0.0
 40
0.0
 40
0.0637744828
 40
0.1273454316
 40
0.1907025265
 40
0.2538558004
 40
0.316813226
 40
0.3795821625
 40
0.4421733656
 40
0.5045993404
 40
0.5668738661
 40
0.6290123724
 40
0.6910316429
 40
0.7529496283
 40
0.8147853425
 40
0.8765585905
 40
0.938289842
 40
1.0
 40
1.0
 40
1.0
 40
1.0
 10
9.0633962178
 20
9.3844576958
 30
0.0
 10
9.0633962178
 20
9.3868645067
 30
0.0
 10
9.0635114672
 20
9.3916712613
 30
0.0
 10
9.0640313822
 20
9.3988521485
 30
0.0
 10
9.0648971595
 20
9.4059761746
 30
0.0
 10
9.0661067082
 20
9.4130264384
 30
0.0
 10
9.0676571593
 20
9.4199869585
 30
0.0
 10
9.0695451302
 20
9.4268416331
 30
0.0
 10
9.0717661681
 20
9.433574651
 30
0.0
 10
9.0743151821
 20
9.4401704977
 30
0.0
 10
9.0771863739
 20
9.4466139357
 30
0.0
 10
9.0803730306
 20
9.4528901467
 30
0.0
 10
9.0838679135
 20
9.4589846035
 30
0.0
 10
9.0876629214
 20
9.4648832755
 30
0.0
 10
9.0917492799
 20
9.470572558
 30
0.0
 10
9.0961176948
 20
9.4760393087
 30
0.0
 10
9.1007578143
 20
9.4812708317
 30
0.0
 10
9.1040259197
 20
9.4845941963
 30
0.0
 10
9.1057010016
 20
9.4862121878
 30
0.0
  0
SPLINE
  5
32E
100
AcDbEntity
  8
0
100
AcDbSpline
 62
7
  6
CONTINUOUS
 70
0
 71
3
 72
13
 73
9
 74
0
 42
0.0000001
 43
0.0000001
 44
0.0000000001
 40
0.0
 40
0.0
 40
0.0
 40
0.0
 40
0.2522164779
 40
0.50286933
 40
0.6276685287
 40
0.7521113673
 40
0.8762148096
 40
1.0
 40
1.0
 40
1.0
 40
1.0
 10
9.146218242
 20
9.4644576327
 30
0.0
 10
9.146218242
 20
9.4689878531
 30
0.0
 10
9.1466259994
 20
9.4780253789
 30
0.0
 10
9.1481656158
 20
9.4892105808
 30
0.0
 10
9.1500067566
 20
9.4980015461
 30
0.0
 10
9.1516866478
 20
9.5044962743
 30
0.0
 10
9.153663825
 20
9.5108874329
 30
0.0
 10
9.1551795551
 20
9.5150760766
 30
0.0
 10
9.1559854934
 20
9.5171482498
 30
0.0
  0
SPLINE
  5
32F
100
AcDbEntity
  8
0
100
AcDbSpline
 62
7
  6
CONTINUOUS
 70
0
 71
3
 72
22
 73
18
 74
0
 42
0.0000001
 43
0.0000001
 44
0.0000000001
 40
0.0
 40
0.0
 40
0.0
 40
0.0
 40
0.0764232545
 40
0.1504695904
 40
0.2222093747
 40
0.2917229258
 40
0.3591052293
 40
0.4244650752
 40
0.5495745629
 40
0.6096452701
 40
0.6682571278
 40
0.7255853937
 40
0.7818195315
 40
0.8371613214
 40
0.8918233081
 40
0.9460270045
 40
1.0
 40
1.0
 40
1.0
 40
1.0
 10
12.9401304747
 20
10.1474422871
 30
0.0
 10
12.9412075515
 20
10.1484826634
 30
0.0
 10
12.9433613066
 20
10.1504971843
 30
0.0
 10
12.9466432964
 20
10.1533598244
 30
0.0
 10
12.9499238533
 20
10.1560139678
 30
0.0
 10
12.9532019119
 20
10.1584585927
 30
0.0
 10
12.9564767574
 20
10.1606930617
 30
0.0
 10
12.9607742619
 20
10.1633521003
 30
0.0
 10
12.9651286115
 20
10.1656408415
 30
0.0
 10
12.9695244848
 20
10.1675157761
 30
0.0
 10
12.9727694061
 20
10.1686899884
 30
0.0
 10
12.9760055812
 20
10.169650481
 30
0.0
 10
12.9792321318
 20
10.1703969506
 30
0.0
 10
12.9824480289
 20
10.1709290493
 30
0.0
 10
12.9856523122
 20
10.1712464287
 30
0.0
 10
12.9888437169
 20
10.1713489498
 30
0.0
 10
12.9909639918
 20
10.171273939
 30
0.0
 10
12.9920190416
 20
10.1712007655
 30
0.0
  0
SPLINE
  5
330
100
AcDbEntity
  8
0
100
AcDbSpline
 62
7
  6
CONTINUOUS
 70
0
 71
3
 72
41
 73
37
 74
0
 42
0.0000001
 43
0.0000001
 44
0.0000000001
 40
0.0
 40
0.0
 40
0.0
 40
0.0
 40
0.0299421756
 40
0.0599087291
 40
0.0899234427
 40
0.12000893
 40
0.1501860972
 40
0.1804736576
 40
0.2108877103
 40
0.2414413945
 40
0.2721446252
 40
0.3030039132
 40
0.3340222692
 40
0.3651991907
 40
0.3965307261
 40
0.4280096099
 40
0.4596254632
 40
0.491365051
 40
0.5232125895
 40
0.5551500944
 40
0.5871577641
 40
0.61921439
 40
0.6512977872
 40
0.6833852384
 40
0.715453946
 40
0.7314766505
 40
0.7474863166
 40
0.7794510815
 40
0.8113327211
 40
0.8272389267
 40
0.8431175145
 40
0.8747789379
 40
0.9063078385
 40
0.9376925801
 40
0.9689252405
 40
1.0
 40
1.0
 40
1.0
 40
1.0
 10
11.0727179304
 20
6.6637883899
 30
0.0
 10
11.0701299404
 20
6.6612886041
 30
0.0
 10
11.0647504256
 20
6.6564908172
 30
0.0
 10
11.056131649
 20
6.6499546599
 30
0.0
 10
11.047007382
 20
6.6441117766
 30
0.0
 10
11.0374286169
 20
6.6389949333
 30
0.0
 10
11.0274480139
 20
6.6346320869
 30
0.0
 10
11.0171206551
 20
6.6310472193
 30
0.0
 10
11.0065034495
 20
6.6282599446
 30
0.0
 10
10.9956548901
 20
6.6262854802
 30
0.0
 10
10.9846347065
 20
6.6251345515
 30
0.0
 10
10.97350354
 20
6.6248133459
 30
0.0
 10
10.9623226089
 20
6.6253234865
 30
0.0
 10
10.9511533737
 20
6.6266620302
 30
0.0
 10
10.9400572023
 20
6.6288214901
 30
0.0
 10
10.9290950369
 20
6.6317898823
 30
0.0
 10
10.918327064
 20
6.6355507952
 30
0.0
 10
10.9078123877
 20
6.6400834812
 30
0.0
 10
10.8976087103
 20
6.6453629741
 30
0.0
 10
10.8877720212
 20
6.6513602242
 30
0.0
 10
10.8783562882
 20
6.6580422664
 30
0.0
 10
10.8694131871
 20
6.6653723672
 30
0.0
 10
10.8609917381
 20
6.6733103502
 30
0.0
 10
10.8531383526
 20
6.6818123455
 30
0.0
 10
10.8471006291
 20
6.6893317919
 30
0.0
 10
10.8425958883
 20
6.6955819221
 30
0.0
 10
10.8383178467
 20
6.7019743586
 30
0.0
 10
10.8333993427
 20
6.7102239209
 30
0.0
 10
10.82907468
 20
6.7187859052
 30
0.0
 10
10.8259897243
 20
6.7257886761
 30
0.0
 10
10.823163459
 20
6.7328712568
 30
0.0
 10
10.8201119652
 20
6.7418787944
 30
0.0
 10
10.8172398599
 20
6.7528847497
 30
0.0
 10
10.8151761226
 20
6.7640186939
 30
0.0
 10
10.8139324215
 20
6.7752183033
 30
0.0
 10
10.8136538386
 20
6.7827086409
 30
0.0
 10
10.8136538386
 20
6.7864428844
 30
0.0
  0
SPLINE
  5
331
100
AcDbEntity
  8
0
100
AcDbSpline
 62
7
  6
CONTINUOUS
 70
0
 71
3
 72
50
 73
46
 74
0
 42
0.0000001
 43
0.0000001
 44
0.0000000001
 40
0.0
 40
0.0
 40
0.0
 40
0.0
 40
0.0378128611
 40
0.0760190334
 40
0.1145315696
 40
0.1532645103
 40
0.1921301506
 40
0.2310408617
 40
0.269908731
 40
0.3086460126
 40
0.347165323
 40
0.3853799084
 40
0.4232038959
 40
0.4605525481
 40
0.4973425198
 40
0.5334921181
 40
0.5689215678
 40
0.6035532829
 40
0.637312149
 40
0.6701258217
 40
0.7019250349
 40
0.7326439348
 40
0.7622204463
 40
0.7765622752
 40
0.7905971572
 40
0.8043186022
 40
0.8177204426
 40
0.8307968217
 40
0.84354232
 40
0.8559518158
 40
0.868020713
 40
0.8797447678
 40
0.8911203013
 40
0.9021441194
 40
0.912813603
 40
0.9231267987
 40
0.9330823728
 40
0.9426798717
 40
0.951919577
 40
0.960802784
 40
0.9693317719
 40
0.9775102131
 40
0.9853432686
 40
0.9928373107
 40
1.0
 40
1.0
 40
1.0
 40
1.0
 10
12.2708249765
 20
8.7764983697
 30
0.0
 10
12.2708249765
 20
8.788422773
 30
0.0
 10
12.2709834684
 20
8.8123958877
 30
0.0
 10
12.2716859441
 20
8.8485078644
 30
0.0
 10
12.2728529546
 20
8.8848981577
 30
0.0
 10
12.2744816488
 20
8.9214788507
 30
0.0
 10
12.2765681591
 20
8.9581620526
 30
0.0
 10
12.2791074442
 20
8.9948593432
 30
0.0
 10
12.2820934005
 20
9.0314823833
 30
0.0
 10
12.285518829
 20
9.0679429734
 30
0.0
 10
12.2893754719
 20
9.1041533184
 30
0.0
 10
12.2936540224
 20
9.1400262262
 30
0.0
 10
12.2983441524
 20
9.175475323
 30
0.0
 10
12.3034345364
 20
9.2104152615
 30
0.0
 10
12.3089128789
 20
9.244761927
 30
0.0
 10
12.3147659433
 20
9.2784326422
 30
0.0
 10
12.3209795831
 20
9.3113463676
 30
0.0
 10
12.3275387757
 20
9.3434238989
 30
0.0
 10
12.3344276581
 20
9.3745880669
 30
0.0
 10
12.3416295615
 20
9.4047639139
 30
0.0
 10
12.3491270522
 20
9.4338789356
 30
0.0
 10
12.3569019844
 20
9.4618630645
 30
0.0
 10
12.3636640097
 20
9.4844099434
 30
0.0
 10
12.369206169
 20
9.5018254267
 30
0.0
 10
12.3733777303
 20
9.5144291143
 30
0.0
 10
12.3776043141
 20
9.5267013649
 30
0.0
 10
12.3818833735
 20
9.5386348136
 30
0.0
 10
12.3862123654
 20
9.5502222777
 30
0.0
 10
12.3905886178
 20
9.5614568073
 30
0.0
 10
12.3950095683
 20
9.5723316401
 30
0.0
 10
12.3994724759
 20
9.5828402645
 30
0.0
 10
12.4039747179
 20
9.5929763626
 30
0.0
 10
12.4085135412
 20
9.6027338687
 30
0.0
 10
12.4130862305
 20
9.6121069367
 30
0.0
 10
12.4176900573
 20
9.6210899508
 30
0.0
 10
12.4223222071
 20
9.6296775613
 30
0.0
 10
12.4269799856
 20
9.6378646191
 30
0.0
 10
12.4316605271
 20
9.6456462877
 30
0.0
 10
12.4363611409
 20
9.6530178975
 30
0.0
 10
12.4410789415
 20
9.6599750965
 30
0.0
 10
12.4458111985
 20
9.666513759
 30
0.0
 10
12.4505551813
 20
9.6726300693
 30
0.0
 10
12.4553082304
 20
9.6783205017
 30
0.0
 10
12.4600673768
 20
9.6835813745
 30
0.0
 10
12.4633144649
 20
9.6868733615
 30
0.0
 10
12.4649391001
 20
9.6884426387
 30
0.0
  0
SPLINE
  5
332
100
AcDbEntity
  8
0
100
AcDbSpline
 62
7
  6
CONTINUOUS
 70
0
 71
3
 72
46
 73
42
 74
0
 42
0.0000001
 43
0.0000001
 44
0.0000000001
 40
0.0
 40
0.0
 40
0.0
 40
0.0
 40
0.0324522681
 40
0.0648223361
 40
0.0971034428
 40
0.129290261
 40
0.1933456196
 40
0.2252282966
 40
0.2570052144
 40
0.2886753194
 40
0.3202381347
 40
0.3516937179
 40
0.383042706
 40
0.4142863878
 40
0.4454267485
 40
0.4764665504
 40
0.5074095233
 40
0.5382605703
 40
0.5690260064
 40
0.5997138384
 40
0.6303340945
 40
0.6608992029
 40
0.6914244031
 40
0.7219281252
 40
0.7524322807
 40
0.7676956465
 40
0.782969028
 40
0.7982562859
 40
0.8135612077
 40
0.8288878182
 40
0.844240279
 40
0.8596225914
 40
0.8750389512
 40
0.8904932436
 40
0.9059891813
 40
0.9215302666
 40
0.9371195483
 40
0.9527594226
 40
0.9684517908
 40
0.9841992688
 40
1.0
 40
1.0
 40
1.0
 40
1.0
 10
9.1955248167
 20
7.965526984
 30
0.0
 10
9.1925449082
 20
7.9713357804
 30
0.0
 10
9.1869156538
 20
7.9831074692
 30
0.0
 10
9.1794505854
 20
8.0011688388
 30
0.0
 10
9.1729630007
 20
8.0195481411
 30
0.0
 10
9.1656171401
 20
8.0443470088
 30
0.0
 10
9.1601675094
 20
8.069591787
 30
0.0
 10
9.1566095028
 20
8.0950447204
 30
0.0
 10
9.1548835043
 20
8.1141529205
 30
0.0
 10
9.1540933676
 20
8.1332575281
 30
0.0
 10
9.1542373907
 20
8.1523135181
 30
0.0
 10
9.1553159373
 20
8.1712748765
 30
0.0
 10
9.1573311649
 20
8.1900953057
 30
0.0
 10
9.1602870459
 20
8.208727158
 30
0.0
 10
9.1641892842
 20
8.2271208
 30
0.0
 10
9.1690451515
 20
8.2452238218
 30
0.0
 10
9.1748632187
 20
8.2629802558
 30
0.0
 10
9.1816530242
 20
8.2803297329
 30
0.0
 10
9.1894245902
 20
8.2972065827
 30
0.0
 10
9.1981877403
 20
8.3135388806
 30
0.0
 10
9.2079511864
 20
8.3292475023
 30
0.0
 10
9.2187211878
 20
8.3442451464
 30
0.0
 10
9.2305001756
 20
8.3584357647
 30
0.0
 10
9.2432834918
 20
8.3717132189
 30
0.0
 10
9.2547629856
 20
8.3819210457
 30
0.0
 10
9.264423315
 20
8.3895068615
 30
0.0
 10
9.2719074677
 20
8.3948941314
 30
0.0
 10
9.2796223129
 20
8.3999607458
 30
0.0
 10
9.287561006
 20
8.4046901813
 30
0.0
 10
9.2957151557
 20
8.409065708
 30
0.0
 10
9.3040750225
 20
8.4130705741
 30
0.0
 10
9.3126291837
 20
8.4166886006
 30
0.0
 10
9.321364703
 20
8.4199038448
 30
0.0
 10
9.3302669073
 20
8.4227013439
 30
0.0
 10
9.3393194535
 20
8.4250672442
 30
0.0
 10
9.3485044567
 20
8.4269887858
 30
0.0
 10
9.3578024182
 20
8.4284551115
 30
0.0
 10
9.3671924391
 20
8.4294572015
 30
0.0
 10
9.3766528178
 20
8.4299880036
 30
0.0
 10
9.3861600352
 20
8.4300429047
 30
0.0
 10
9.3925035973
 20
8.4297614225
 30
0.0
 10
9.3956746761
 20
8.4295415074
 30
0.0
  0
SPLINE
  5
333
100
AcDbEntity
  8
0
100
AcDbSpline
 62
7
  6
CONTINUOUS
 70
0
 71
3
 72
49
 73
45
 74
0
 42
0.0000001
 43
0.0000001
 44
0.0000000001
 40
0.0
 40
0.0
 40
0.0
 40
0.0
 40
0.0378127845
 40
0.0760191223
 40
0.114531607
 40
0.1532645858
 40
0.1921302413
 40
0.2310409706
 40
0.2699088597
 40
0.3086461572
 40
0.3471654842
 40
0.3853800876
 40
0.4232040959
 40
0.4605527702
 40
0.4973427611
 40
0.533492372
 40
0.5689218309
 40
0.6035535573
 40
0.637312442
 40
0.6701261391
 40
0.7019253763
 40
0.7326442909
 40
0.7622208088
 40
0.7905970516
 40
0.80431852
 40
0.8177203446
 40
0.8307967508
 40
0.843542237
 40
0.8559517495
 40
0.8680206515
 40
0.8797447052
 40
0.8911202579
 40
0.9021440651
 40
0.9128135674
 40
0.9231267538
 40
0.9330823402
 40
0.9426798495
 40
0.9519195568
 40
0.960802764
 40
0.9693317342
 40
0.977510198
 40
0.9853432953
 40
0.992837349
 40
1.0
 40
1.0
 40
1.0
 40
1.0
 10
13.2527976275
 20
8.7250111702
 30
0.0
 10
13.2527976275
 20
8.7359497956
 30
0.0
 10
13.2529430205
 20
8.7579411481
 30
0.0
 10
13.2535874199
 20
8.7910678633
 30
0.0
 10
13.2546579632
 20
8.8244499204
 30
0.0
 10
13.2561520142
 20
8.8580065942
 30
0.0
 10
13.258066039
 20
8.891657323
 30
0.0
 10
13.2603954085
 20
8.9253209704
 30
0.0
 10
13.2631345279
 20
8.9589165053
 30
0.0
 10
13.2662767916
 20
8.9923630189
 30
0.0
 10
13.2698146195
 20
9.025579974
 30
0.0
 10
13.273739475
 20
9.0584873886
 30
0.0
 10
13.2780418844
 20
9.0910060293
 30
0.0
 10
13.2827114603
 20
9.1230576026
 30
0.0
 10
13.2877369258
 20
9.1545649445
 30
0.0
 10
13.2931061405
 20
9.1854522104
 30
0.0
 10
13.2988061232
 20
9.2156450619
 30
0.0
 10
13.3048230911
 20
9.2450708478
 30
0.0
 10
13.3111424907
 20
9.2736587782
 30
0.0
 10
13.3177490328
 20
9.3013401025
 30
0.0
 10
13.3246267286
 20
9.3280482637
 30
0.0
 10
13.3317589299
 20
9.3537191269
 30
0.0
 10
13.3391283645
 20
9.3782909394
 30
0.0
 10
13.3455217687
 20
9.3980169569
 30
0.0
 10
13.3507498507
 20
9.4131973817
 30
0.0
 10
13.3546752142
 20
9.4241443325
 30
0.0
 10
13.3586463122
 20
9.4347739023
 30
0.0
 10
13.3626608177
 20
9.4450797067
 30
0.0
 10
13.3667162897
 20
9.4550555558
 30
0.0
 10
13.3708102646
 20
9.4646954681
 30
0.0
 10
13.374940331
 20
9.4739936463
 30
0.0
 10
13.3791039269
 20
9.4829445375
 30
0.0
 10
13.3832986298
 20
9.4915427579
 30
0.0
 10
13.3875218519
 20
9.4997831818
 30
0.0
 10
13.3917710928
 20
9.5076608772
 30
0.0
 10
13.3960438201
 20
9.5151711425
 30
0.0
 10
13.4003374399
 20
9.5223095287
 30
0.0
 10
13.4046494761
 20
9.5290717475
 30
0.0
 10
13.4089772556
 20
9.5354538193
 30
0.0
 10
13.4133183192
 20
9.5414519453
 30
0.0
 10
13.4176701332
 20
9.547062653
 30
0.0
 10
13.4220302835
 20
9.5522826844
 30
0.0
 10
13.4263960073
 20
9.5571086595
 30
0.0
 10
13.4293746602
 20
9.5601285044
 30
0.0
 10
13.4308649836
 20
9.5615680464
 30
0.0
  0
SPLINE
  5
334
100
AcDbEntity
  8
0
100
AcDbSpline
 62
7
  6
CONTINUOUS
 70
0
 71
3
 72
50
 73
46
 74
0
 42
0.0000001
 43
0.0000001
 44
0.0000000001
 40
0.0
 40
0.0
 40
0.0
 40
0.0
 40
0.0378128611
 40
0.0760190334
 40
0.1145315696
 40
0.1532645103
 40
0.1921301506
 40
0.2310408617
 40
0.269908731
 40
0.3086460126
 40
0.347165323
 40
0.3853799084
 40
0.4232038959
 40
0.4605525481
 40
0.4973425198
 40
0.5334921181
 40
0.5689215678
 40
0.6035532829
 40
0.637312149
 40
0.6701258217
 40
0.7019250349
 40
0.7326439348
 40
0.7622204463
 40
0.7765622752
 40
0.7905971572
 40
0.8043186022
 40
0.8177204426
 40
0.8307968217
 40
0.84354232
 40
0.8559518158
 40
0.868020713
 40
0.8797447678
 40
0.8911203013
 40
0.9021441194
 40
0.912813603
 40
0.9231267987
 40
0.9330823728
 40
0.9426798717
 40
0.951919577
 40
0.960802784
 40
0.9693317719
 40
0.9775102131
 40
0.9853432686
 40
0.9928373107
 40
1.0
 40
1.0
 40
1.0
 40
1.0
 10
13.1768634552
 20
8.7136643877
 30
0.0
 10
13.1768634552
 20
8.7255887911
 30
0.0
 10
13.1770219472
 20
8.7495619058
 30
0.0
 10
13.1777244229
 20
8.7856738825
 30
0.0
 10
13.1788914334
 20
8.8220641758
 30
0.0
 10
13.1805201275
 20
8.8586448688
 30
0.0
 10
13.1826066378
 20
8.8953280707
 30
0.0
 10
13.1851459229
 20
8.9320253613
 30
0.0
 10
13.1881318793
 20
8.9686484014
 30
0.0
 10
13.1915573077
 20
9.0051089915
 30
0.0
 10
13.1954139507
 20
9.0413193365
 30
0.0
 10
13.1996925012
 20
9.0771922443
 30
0.0
 10
13.2043826311
 20
9.1126413411
 30
0.0
 10
13.2094730151
 20
9.1475812796
 30
0.0
 10
13.2149513576
 20
9.1819279451
 30
0.0
 10
13.220804422
 20
9.2155986603
 30
0.0
 10
13.2270180619
 20
9.2485123857
 30
0.0
 10
13.2335772545
 20
9.280589917
 30
0.0
 10
13.2404661369
 20
9.311754085
 30
0.0
 10
13.2476680402
 20
9.341929932
 30
0.0
 10
13.2551655309
 20
9.3710449537
 30
0.0
 10
13.2629404631
 20
9.3990290826
 30
0.0
 10
13.2697024884
 20
9.4215759615
 30
0.0
 10
13.2752446477
 20
9.4389914447
 30
0.0
 10
13.2794162091
 20
9.4515951324
 30
0.0
 10
13.2836427928
 20
9.463867383
 30
0.0
 10
13.2879218522
 20
9.4758008317
 30
0.0
 10
13.2922508442
 20
9.4873882958
 30
0.0
 10
13.2966270965
 20
9.4986228254
 30
0.0
 10
13.301048047
 20
9.5094976582
 30
0.0
 10
13.3055109546
 20
9.5200062825
 30
0.0
 10
13.3100131966
 20
9.5301423807
 30
0.0
 10
13.3145520199
 20
9.5398998868
 30
0.0
 10
13.3191247093
 20
9.5492729548
 30
0.0
 10
13.323728536
 20
9.5582559689
 30
0.0
 10
13.3283606859
 20
9.5668435793
 30
0.0
 10
13.3330184644
 20
9.5750306371
 30
0.0
 10
13.3376990059
 20
9.5828123058
 30
0.0
 10
13.3423996196
 20
9.5901839156
 30
0.0
 10
13.3471174202
 20
9.5971411145
 30
0.0
 10
13.3518496773
 20
9.6036797771
 30
0.0
 10
13.3565936601
 20
9.6097960873
 30
0.0
 10
13.3613467092
 20
9.6154865198
 30
0.0
 10
13.3661058555
 20
9.6207473925
 30
0.0
 10
13.3693529436
 20
9.6240393795
 30
0.0
 10
13.3709775788
 20
9.6256086568
 30
0.0
  0
SPLINE
  5
335
100
AcDbEntity
  8
0
100
AcDbSpline
 62
7
  6
CONTINUOUS
 70
0
 71
3
 72
38
 73
34
 74
0
 42
0.0000001
 43
0.0000001
 44
0.0000000001
 40
0.0
 40
0.0
 40
0.0
 40
0.0
 40
0.0606756937
 40
0.0911554292
 40
0.1217257877
 40
0.1831253015
 40
0.2139681023
 40
0.2449007076
 40
0.3070167217
 40
0.369473162
 40
0.4008302134
 40
0.4322638201
 40
0.4953262494
 40
0.5269606872
 40
0.5586490078
 40
0.590382645
 40
0.6221513896
 40
0.6539432214
 40
0.6857441918
 40
0.717538266
 40
0.7493072601
 40
0.781030934
 40
0.8126873042
 40
0.8284856123
 40
0.844258549
 40
0.8600030695
 40
0.8757164487
 40
0.8913957829
 40
0.9070385951
 40
0.9226424649
 40
0.9382052774
 40
0.9691932969
 40
1.0
 40
1.0
 40
1.0
 40
1.0
 10
10.8802522224
 20
7.7912104728
 30
0.0
 10
10.8695416483
 20
7.78912047
 30
0.0
 10
10.8532923871
 20
7.7867301811
 30
0.0
 10
10.83146393
 20
7.7849943012
 30
0.0
 10
10.8094492214
 20
7.7842105285
 30
0.0
 10
10.78733879
 20
7.7848570387
 30
0.0
 10
10.7652756435
 20
7.7869081047
 30
0.0
 10
10.7431902391
 20
7.7899059808
 30
0.0
 10
10.7157357647
 20
7.7954215824
 30
0.0
 10
10.6887747494
 20
7.803272577
 30
0.0
 10
10.6675974507
 20
7.8109689169
 30
0.0
 10
10.6466819084
 20
7.8196366756
 30
0.0
 10
10.6263274984
 20
7.8297389644
 30
0.0
 10
10.6067311713
 20
7.8412703758
 30
0.0
 10
10.5924329284
 20
7.8506558887
 30
0.0
 10
10.5786088111
 20
7.860767737
 30
0.0
 10
10.5653198733
 20
7.8716039373
 30
0.0
 10
10.5526333613
 20
7.8831585814
 30
0.0
 10
10.5406219978
 20
7.8954210903
 30
0.0
 10
10.5293641891
 20
7.9083745781
 30
0.0
 10
10.5189434291
 20
7.9219944663
 30
0.0
 10
10.5094477787
 20
7.9362457766
 30
0.0
 10
10.5023752103
 20
7.9486203982
 30
0.0
 10
10.497271128
 20
7.9587844664
 30
0.0
 10
10.4937330582
 20
7.966526116
 30
0.0
 10
10.4904935213
 20
7.9743808217
 30
0.0
 10
10.4875631218
 20
7.982338193
 30
0.0
 10
10.4849514013
 20
7.9903866345
 30
0.0
 10
10.4826677753
 20
7.9985138345
 30
0.0
 10
10.4807202521
 20
8.0067067295
 30
0.0
 10
10.4785849333
 20
8.0176822231
 30
0.0
 10
10.4767860716
 20
8.0314956253
 30
0.0
 10
10.4762998585
 20
8.0426149352
 30
0.0
 10
10.4762998585
 20
8.048155552
 30
0.0
  0
SPLINE
  5
336
100
AcDbEntity
  8
0
100
AcDbSpline
 62
7
  6
CONTINUOUS
 70
0
 71
3
 72
23
 73
19
 74
0
 42
0.0000001
 43
0.0000001
 44
0.0000000001
 40
0.0
 40
0.0
 40
0.0
 40
0.0
 40
0.0637762098
 40
0.1273451791
 40
0.1907020044
 40
0.2538560229
 40
0.3168132268
 40
0.3795820734
 40
0.4421733797
 40
0.5045993379
 40
0.5668738619
 40
0.6290123843
 40
0.6910316585
 40
0.7529496507
 40
0.8147853611
 40
0.8765586136
 40
0.9382898615
 40
1.0
 40
1.0
 40
1.0
 40
1.0
 10
8.2636096212
 20
9.4090134513
 30
0.0
 10
8.2636096212
 20
9.4135802696
 30
0.0
 10
8.2638282373
 20
9.4227006129
 30
0.0
 10
8.2648147943
 20
9.4363256216
 30
0.0
 10
8.2664574868
 20
9.449842676
 30
0.0
 10
8.2687523652
 20
9.4632199222
 30
0.0
 10
8.2716942616
 20
9.4764268646
 30
0.0
 10
8.2752763849
 20
9.4894329728
 30
0.0
 10
8.2794905126
 20
9.5022082619
 30
0.0
 10
8.2843270044
 20
9.5147232659
 30
0.0
 10
8.2897746736
 20
9.5269491397
 30
0.0
 10
8.2958209888
 20
9.5388576868
 30
0.0
 10
8.3024520816
 20
9.5504214053
 30
0.0
 10
8.3096526376
 20
9.5616136467
 30
0.0
 10
8.3174060248
 20
9.5724085812
 30
0.0
 10
8.3256945022
 20
9.5827813608
 30
0.0
 10
8.3344986324
 20
9.592707723
 30
0.0
 10
8.3406994117
 20
9.599013626
 30
0.0
 10
8.3438776984
 20
9.6020836318
 30
0.0
  0
SPLINE
  5
337
100
AcDbEntity
  8
0
100
AcDbSpline
 62
7
  6
CONTINUOUS
 70
0
 71
3
 72
32
 73
28
 74
0
 42
0.0000001
 43
0.0000001
 44
0.0000000001
 40
0.0
 40
0.0
 40
0.0
 40
0.0
 40
0.0755802988
 40
0.1466070296
 40
0.2134178084
 40
0.2764528785
 40
0.3362520969
 40
0.365147732
 40
0.3934850739
 40
0.4213608579
 40
0.4488770652
 40
0.4761401077
 40
0.5032597277
 40
0.5303475014
 40
0.5575154472
 40
0.5848745363
 40
0.6125331648
 40
0.6405959873
 40
0.6691628713
 40
0.6983277853
 40
0.7281784349
 40
0.7902352629
 40
0.8226032845
 40
0.8559415084
 40
0.8903051219
 40
0.9257430809
 40
1.0
 40
1.0
 40
1.0
 40
1.0
 10
13.9060563583
 20
10.0205676947
 30
0.0
 10
13.907968502
 20
10.0224146838
 30
0.0
 10
13.9117902273
 20
10.0258838873
 30
0.0
 10
13.9177046929
 20
10.030518485
 30
0.0
 10
13.923612352
 20
10.0344109467
 30
0.0
 10
13.9295071462
 20
10.0375552128
 30
0.0
 10
13.9344619213
 20
10.0395702289
 30
0.0
 10
13.9383972735
 20
10.0407851668
 30
0.0
 10
13.9413071204
 20
10.04149664
 30
0.0
 10
13.9442076495
 20
10.042018319
 30
0.0
 10
13.9470980618
 20
10.0423499786
 30
0.0
 10
13.9499774261
 20
10.0424913656
 30
0.0
 10
13.9528448056
 20
10.0424424472
 30
0.0
 10
13.9556992595
 20
10.0422032336
 30
0.0
 10
13.9585398402
 20
10.0417737514
 30
0.0
 10
13.9613656141
 20
10.041154178
 30
0.0
 10
13.9641756916
 20
10.040344833
 30
0.0
 10
13.9669692149
 20
10.0393460282
 30
0.0
 10
13.9697453109
 20
10.038158122
 30
0.0
 10
13.9725032959
 20
10.0367815675
 30
0.0
 10
13.9762027335
 20
10.0346683543
 30
0.0
 10
13.9798176729
 20
10.0321945914
 30
0.0
 10
13.9833383266
 20
10.029399916
 30
0.0
 10
13.9859945683
 20
10.0270884294
 30
0.0
 10
13.9886282735
 20
10.0245918582
 30
0.0
 10
13.9921640525
 20
10.0209607558
 30
0.0
 10
13.9946962355
 20
10.0180436952
 30
0.0
 10
13.9963443042
 20
10.0160173204
 30
0.0
  0
SPLINE
  5
338
100
AcDbEntity
  8
0
100
AcDbSpline
 62
7
  6
CONTINUOUS
 70
0
 71
3
 72
22
 73
18
 74
0
 42
0.0000001
 43
0.0000001
 44
0.0000000001
 40
0.0
 40
0.0
 40
0.0
 40
0.0
 40
0.0764231594
 40
0.1504694273
 40
0.2222091687
 40
0.2917227003
 40
0.3591050047
 40
0.4244648692
 40
0.5495744344
 40
0.6096451912
 40
0.6682571001
 40
0.7255854133
 40
0.7818195891
 40
0.837161402
 40
0.8918233905
 40
0.946027062
 40
1.0
 40
1.0
 40
1.0
 40
1.0
 10
13.8461689535
 20
10.0846083052
 30
0.0
 10
13.8472460194
 20
10.085648671
 30
0.0
 10
13.8493997528
 20
10.0876631723
 30
0.0
 10
13.8526817091
 20
10.0905257862
 30
0.0
 10
13.8559622325
 20
10.0931799078
 30
0.0
 10
13.8592402576
 20
10.0956245151
 30
0.0
 10
13.8625150698
 20
10.0978589708
 30
0.0
 10
13.8668125311
 20
10.100517998
 30
0.0
 10
13.8711668364
 20
10.1028067357
 30
0.0
 10
13.8755626652
 20
10.1046816759
 30
0.0
 10
13.8788075541
 20
10.1058558968
 30
0.0
 10
13.882043697
 20
10.1068164025
 30
0.0
 10
13.8852702157
 20
10.1075628896
 30
0.0
 10
13.8884860812
 20
10.1080950102
 30
0.0
 10
13.8916903332
 20
10.1084124161
 30
0.0
 10
13.8948817071
 20
10.108514968
 30
0.0
 10
13.8970019624
 20
10.1084399806
 30
0.0
 10
13.8980570027
 20
10.1083668194
 30
0.0
  0
SPLINE
  5
339
100
AcDbEntity
  8
0
100
AcDbSpline
 62
7
  6
CONTINUOUS
 70
0
 71
3
 72
23
 73
19
 74
0
 42
0.0000001
 43
0.0000001
 44
0.0000000001
 40
0.0
 40
0.0
 40
0.0
 40
0.0
 40
0.0621660789
 40
0.1241967426
 40
0.1861283643
 40
0.247999867
 40
0.3098520638
 40
0.3717269046
 40
0.4336666421
 40
0.4957129346
 40
0.557905911
 40
0.6202832229
 40
0.6828791349
 40
0.7457236352
 40
0.8088417601
 40
0.8722527229
 40
0.935970009
 40
1.0
 40
1.0
 40
1.0
 40
1.0
 10
10.3030778538
 20
8.759844939
 30
0.0
 10
10.3005761303
 20
8.755100833
 30
0.0
 10
10.2952461416
 20
8.7457936591
 30
0.0
 10
10.2862980606
 20
8.7324443976
 30
0.0
 10
10.2764394898
 20
8.7197835885
 30
0.0
 10
10.2657096829
 20
8.7078728964
 30
0.0
 10
10.2541518362
 20
8.696770638
 30
0.0
 10
10.2418139211
 20
8.6865328104
 30
0.0
 10
10.2287484747
 20
8.6772122524
 30
0.0
 10
10.2150125972
 20
8.6688582651
 30
0.0
 10
10.2006678098
 20
8.661516084
 30
0.0
 10
10.185779852
 20
8.6552263773
 30
0.0
 10
10.1704184024
 20
8.6500247532
 30
0.0
 10
10.1546566734
 20
8.6459412803
 30
0.0
 10
10.1385710879
 20
8.6430000844
 30
0.0
 10
10.1222402688
 20
8.6412189619
 30
0.0
 10
10.1057462035
 20
8.6406090667
 30
0.0
 10
10.0947204929
 20
8.6409854627
 30
0.0
 10
10.0892096056
 20
8.641367644
 30
0.0
  0
SPLINE
  5
33A
100
AcDbEntity
  8
0
100
AcDbSpline
 62
7
  6
CONTINUOUS
 70
0
 71
3
 72
54
 73
50
 74
0
 42
0.0000001
 43
0.0000001
 44
0.0000000001
 40
0.0
 40
0.0
 40
0.0
 40
0.0
 40
0.0063158507
 40
0.0126706009
 40
0.0191023977
 40
0.0256478986
 40
0.0323417211
 40
0.0392160215
 40
0.0536137219
 40
0.0611943855
 40
0.0690560622
 40
0.0772171197
 40
0.0856934318
 40
0.0944987522
 40
0.1036448027
 40
0.113141486
 40
0.1229971814
 40
0.1332187245
 40
0.1438117391
 40
0.1547806923
 40
0.1661289554
 40
0.1778590781
 40
0.1899726748
 40
0.2024706471
 40
0.2153532452
 40
0.2286199987
 40
0.2422699729
 40
0.2563016345
 40
0.2707129683
 40
0.2855015805
 40
0.3006645508
 40
0.3161986637
 40
0.3321003047
 40
0.364989385
 40
0.3992970598
 40
0.4349833452
 40
0.4720041093
 40
0.5103114544
 40
0.549854083
 40
0.590577587
 40
0.6324246928
 40
0.6753354638
 40
0.7192475599
 40
0.7640963991
 40
0.8098154153
 40
0.8563362597
 40
0.9035882195
 40
0.9515013118
 40
1.0
 40
1.0
 40
1.0
 40
1.0
 10
13.7280276748
 20
9.1412286364
 30
0.0
 10
13.7294829285
 20
9.1411277207
 30
0.0
 10
13.7323955207
 20
9.1408061434
 30
0.0
 10
13.7367317836
 20
9.1399680079
 30
0.0
 10
13.7410390501
 20
9.1387740003
 30
0.0
 10
13.7453148127
 20
9.1372251466
 30
0.0
 10
13.7495574095
 20
9.1353223504
 30
0.0
 10
13.7552540428
 20
9.1322686606
 30
0.0
 10
13.7607960148
 20
9.1285305343
 30
0.0
 10
13.7661591986
 20
9.1241985735
 30
0.0
 10
13.770210236
 20
9.1205462396
 30
0.0
 10
13.7742179845
 20
9.1165487212
 30
0.0
 10
13.778181496
 20
9.1122074924
 30
0.0
 10
13.7820991105
 20
9.1075243929
 30
0.0
 10
13.7859693946
 20
9.1025013348
 30
0.0
 10
13.7897908951
 20
9.0971403925
 30
0.0
 10
13.7935620578
 20
9.0914436964
 30
0.0
 10
13.7972814709
 20
9.0854135972
 30
0.0
 10
13.8009476249
 20
9.0790525196
 30
0.0
 10
13.8045590376
 20
9.0723630411
 30
0.0
 10
13.8081143105
 20
9.0653479029
 30
0.0
 10
13.8116119347
 20
9.0580099342
 30
0.0
 10
13.8150505375
 20
9.0503521478
 30
0.0
 10
13.818428708
 20
9.0423776672
 30
0.0
 10
13.8217450265
 20
9.0340897441
 30
0.0
 10
13.8249981927
 20
9.0254917887
 30
0.0
 10
13.8281868141
 20
9.0165873115
 30
0.0
 10
13.8313096034
 20
9.0073799734
 30
0.0
 10
13.8343652891
 20
8.9978735575
 30
0.0
 10
13.8373525634
 20
8.9880719605
 30
0.0
 10
13.8402702452
 20
8.9779792256
 30
0.0
 10
13.8431171089
 20
8.9675994871
 30
0.0
 10
13.8468589433
 20
8.9532211793
 30
0.0
 10
13.851340622
 20
8.9345567439
 30
0.0
 10
13.8563594891
 20
8.9113284194
 30
0.0
 10
13.8610693916
 20
8.887062776
 30
0.0
 10
13.865462493
 20
8.8617998058
 30
0.0
 10
13.8695314793
 20
8.8355810272
 30
0.0
 10
13.8732695707
 20
8.808449606
 30
0.0
 10
13.8766705346
 20
8.7804502161
 30
0.0
 10
13.8797286942
 20
8.7516289876
 30
0.0
 10
13.8824389614
 20
8.7220334242
 30
0.0
 10
13.8847968201
 20
8.6917123256
 30
0.0
 10
13.8867983406
 20
8.660715688
 30
0.0
 10
13.8884401792
 20
8.6290946058
 30
0.0
 10
13.8897195772
 20
8.5969013445
 30
0.0
 10
13.8906344498
 20
8.564188728
 30
0.0
 10
13.8911831882
 20
8.5310111136
 30
0.0
 10
13.8913036849
 20
8.508743038
 30
0.0
 10
13.8913036849
 20
8.4975414756
 30
0.0
  0
SPLINE
  5
33B
100
AcDbEntity
  8
0
100
AcDbSpline
 62
7
  6
CONTINUOUS
 70
0
 71
3
 72
49
 73
45
 74
0
 42
0.0000001
 43
0.0000001
 44
0.0000000001
 40
0.0
 40
0.0
 40
0.0
 40
0.0
 40
0.0138257411
 40
0.021076778
 40
0.0285713316
 40
0.036322046
 40
0.0443400983
 40
0.0526351863
 40
0.0612157253
 40
0.0700890292
 40
0.0792612679
 40
0.0887376682
 40
0.0985226548
 40
0.1086197721
 40
0.1190318818
 40
0.129761259
 40
0.14080949
 40
0.1521776656
 40
0.1638664373
 40
0.1758759036
 40
0.1882057999
 40
0.2008555207
 40
0.2138240047
 40
0.2407110098
 40
0.2688532404
 40
0.2982320822
 40
0.3288249995
 40
0.3606060307
 40
0.3935461745
 40
0.4276135493
 40
0.4627736885
 40
0.4989898187
 40
0.5362229392
 40
0.5744320059
 40
0.6135741579
 40
0.6536047733
 40
0.6944775968
 40
0.7361449093
 40
0.7785575941
 40
0.8216653838
 40
0.8654165281
 40
0.9097581911
 40
0.9546387256
 40
1.0
 40
1.0
 40
1.0
 40
1.0
 10
13.6975847815
 20
9.134858901
 30
0.0
 10
13.7001281587
 20
9.1331798948
 30
0.0
 10
13.7038606092
 20
9.1303944563
 30
0.0
 10
13.7086202221
 20
9.1262682286
 30
0.0
 10
13.7122138152
 20
9.1228484106
 30
0.0
 10
13.7157726188
 20
9.1191544873
 30
0.0
 10
13.7192958355
 20
9.1151873838
 30
0.0
 10
13.7227823341
 20
9.1109485107
 30
0.0
 10
13.7262310901
 20
9.1064392431
 30
0.0
 10
13.7296409724
 20
9.1016610122
 30
0.0
 10
13.7330109543
 20
9.0966153942
 30
0.0
 10
13.7363399844
 20
9.0913040283
 30
0.0
 10
13.7396269539
 20
9.0857286039
 30
0.0
 10
13.7428708535
 20
9.0798909534
 30
0.0
 10
13.7460706465
 20
9.0737929709
 30
0.0
 10
13.7492252532
 20
9.0674366136
 30
0.0
 10
13.7523336953
 20
9.0608239699
 30
0.0
 10
13.7553949626
 20
9.05395719
 30
0.0
 10
13.7584080159
 20
9.0468384943
 30
0.0
 10
13.7613719171
 20
9.0394702219
 30
0.0
 10
13.7642856868
 20
9.0318547771
 30
0.0
 10
13.7671483533
 20
9.0239946244
 30
0.0
 10
13.7709415524
 20
9.0130598051
 30
0.0
 10
13.7755392978
 20
8.9987914566
 30
0.0
 10
13.7807738895
 20
8.9809349958
 30
0.0
 10
13.785783125
 20
8.9621673402
 30
0.0
 10
13.7905604202
 20
8.9425130845
 30
0.0
 10
13.7950994736
 20
8.9219978438
 30
0.0
 10
13.799394255
 20
8.9006484342
 30
0.0
 10
13.8034390941
 20
8.8784927878
 30
0.0
 10
13.8072286537
 20
8.8555599203
 30
0.0
 10
13.8107578943
 20
8.8318798741
 30
0.0
 10
13.8140221475
 20
8.8074836913
 30
0.0
 10
13.8170171115
 20
8.782403369
 30
0.0
 10
13.8197388036
 20
8.7566718045
 30
0.0
 10
13.8221836166
 20
8.7303227582
 30
0.0
 10
13.8243483344
 20
8.703390814
 30
0.0
 10
13.8262300777
 20
8.6759113258
 30
0.0
 10
13.8278263477
 20
8.6479203437
 30
0.0
 10
13.8291350403
 20
8.6194546403
 30
0.0
 10
13.8301544193
 20
8.5905516638
 30
0.0
 10
13.830883138
 20
8.5612490254
 30
0.0
 10
13.8313201801
 20
8.5315856744
 30
0.0
 10
13.8314162811
 20
8.5116936206
 30
0.0
 10
13.8314162811
 20
8.5016946812
 30
0.0
  0
SPLINE
  5
33C
100
AcDbEntity
  8
0
100
AcDbSpline
 62
7
  6
CONTINUOUS
 70
0
 71
3
 72
39
 73
35
 74
0
 42
0.0000001
 43
0.0000001
 44
0.0000000001
 40
0.0
 40
0.0
 40
0.0
 40
0.0
 40
0.0308173671
 40
0.061766911
 40
0.0928416526
 40
0.1240393887
 40
0.1553527208
 40
0.1867735163
 40
0.2182920637
 40
0.2498971878
 40
0.2815765556
 40
0.3133167772
 40
0.3451036314
 40
0.3769222656
 40
0.4087573881
 40
0.4405934738
 40
0.4724149896
 40
0.5042066083
 40
0.5359534079
 40
0.5676410716
 40
0.5992561032
 40
0.6307860209
 40
0.6622195276
 40
0.693546674
 40
0.7247590277
 40
0.7558498132
 40
0.786814018
 40
0.8176484794
 40
0.8483519673
 40
0.8789252344
 40
0.9093710193
 40
0.9396940214
 40
0.9699008591
 40
1.0
 40
1.0
 40
1.0
 40
1.0
 10
9.146218242
 20
9.4644576327
 30
0.0
 10
9.146218242
 20
9.4613648608
 30
0.0
 10
9.1464092484
 20
9.4551644119
 30
0.0
 10
9.1472631431
 20
9.4458807558
 30
0.0
 10
9.148682037
 20
9.4366276021
 30
0.0
 10
9.1506602604
 20
9.4274405176
 30
0.0
 10
9.153190503
 20
9.4183538748
 30
0.0
 10
9.1562631046
 20
9.4094020319
 30
0.0
 10
9.1598664263
 20
9.4006187133
 30
0.0
 10
9.1639868605
 20
9.3920370365
 30
0.0
 10
9.1686088654
 20
9.3836893679
 30
0.0
 10
9.1737149874
 20
9.3756071774
 30
0.0
 10
9.1792859331
 20
9.3678209189
 30
0.0
 10
9.1853006864
 20
9.3603599431
 30
0.0
 10
9.1917365806
 20
9.3532523937
 30
0.0
 10
9.1985693521
 20
9.3465250794
 30
0.0
 10
9.2057732142
 20
9.3402033456
 30
0.0
 10
9.2133210072
 20
9.3343110311
 30
0.0
 10
9.2211842881
 20
9.3288703757
 30
0.0
 10
9.2293334265
 20
9.3239019327
 30
0.0
 10
9.2377376832
 20
9.3194244289
 30
0.0
 10
9.2463653738
 20
9.3154547657
 30
0.0
 10
9.2551839766
 20
9.3120079502
 30
0.0
 10
9.2641602517
 20
9.3090970492
 30
0.0
 10
9.2732603388
 20
9.3067330556
 30
0.0
 10
9.2824499151
 20
9.3049249157
 30
0.0
 10
9.2916943184
 20
9.3036795021
 30
0.0
 10
9.3009586721
 20
9.3030015998
 30
0.0
 10
9.3102080052
 20
9.3028938056
 30
0.0
 10
9.3194074107
 20
9.3033565612
 30
0.0
 10
9.3285221182
 20
9.3043881652
 30
0.0
 10
9.3375178203
 20
9.3059848499
 30
0.0
 10
9.3463600505
 20
9.3081404836
 30
0.0
 10
9.3521411168
 20
9.3099482021
 30
0.0
 10
9.354993588
 20
9.3109421782
 30
0.0
  0
SPLINE
  5
33D
100
AcDbEntity
  8
0
100
AcDbSpline
 62
7
  6
CONTINUOUS
 70
0
 71
3
 72
53
 73
49
 74
0
 42
0.0000001
 43
0.0000001
 44
0.0000000001
 40
0.0
 40
0.0
 40
0.0
 40
0.0
 40
0.0063009564
 40
0.0126990571
 40
0.0192273547
 40
0.0259167384
 40
0.0327957046
 40
0.0398902036
 40
0.0472235187
 40
0.054816444
 40
0.0626873038
 40
0.0708521091
 40
0.0793248474
 40
0.0881174995
 40
0.0972403428
 40
0.1067021349
 40
0.1165101283
 40
0.1266704049
 40
0.1371878895
 40
0.1480664377
 40
0.1593090952
 40
0.170917991
 40
0.1828945312
 40
0.1952395115
 40
0.2079529984
 40
0.2210345829
 40
0.2344833305
 40
0.2482977598
 40
0.262476057
 40
0.2770159205
 40
0.3071686791
 40
0.3387314336
 40
0.3716738175
 40
0.4059609793
 40
0.441554052
 40
0.4784105808
 40
0.5164848359
 40
0.555728036
 40
0.5960886252
 40
0.6375125242
 40
0.6799433217
 40
0.7233224224
 40
0.7675891989
 40
0.8126813303
 40
0.8585347882
 40
0.9050834453
 40
0.95226225
 40
1.0
 40
1.0
 40
1.0
 40
1.0
 10
13.6734330433
 20
9.1184623149
 30
0.0
 10
13.6748000395
 20
9.1181776157
 30
0.0
 10
13.6775337358
 20
9.1174956379
 30
0.0
 10
13.6815812949
 20
9.116152333
 30
0.0
 10
13.6855991585
 20
9.114483257
 30
0.0
 10
13.6895853705
 20
9.1124895856
 30
0.0
 10
13.6935384771
 20
9.1101723921
 30
0.0
 10
13.6974569561
 20
9.1075328232
 30
0.0
 10
13.7013394824
 20
9.104572221
 30
0.0
 10
13.7051846487
 20
9.1012918424
 30
0.0
 10
13.7089911232
 20
9.0976930938
 30
0.0
 10
13.7127576227
 20
9.0937774845
 30
0.0
 10
13.7164827489
 20
9.0895465131
 30
0.0
 10
13.7201652243
 20
9.0850018843
 30
0.0
 10
13.7238037156
 20
9.0801453546
 30
0.0
 10
13.7273968387
 20
9.0749787667
 30
0.0
 10
13.7309433306
 20
9.0695041517
 30
0.0
 10
13.7344418182
 20
9.0637235876
 30
0.0
 10
13.7378909756
 20
9.0576392999
 30
0.0
 10
13.7412895392
 20
9.0512536539
 30
0.0
 10
13.7446361448
 20
9.0445690854
 30
0.0
 10
13.7479295445
 20
9.0375881957
 30
0.0
 10
13.7511684755
 20
9.0303136876
 30
0.0
 10
13.7543516324
 20
9.0227483629
 30
0.0
 10
13.7574778378
 20
9.0148951769
 30
0.0
 10
13.7605458441
 20
9.00675717
 30
0.0
 10
13.763554443
 20
8.998337503
 30
0.0
 10
13.7665025018
 20
8.9896394663
 30
0.0
 10
13.7693888368
 20
8.9806664234
 30
0.0
 10
13.7731996997
 20
8.9681888719
 30
0.0
 10
13.777790412
 20
8.9519234073
 30
0.0
 10
13.7829710456
 20
8.9315944048
 30
0.0
 10
13.7878798917
 20
8.9102569847
 30
0.0
 10
13.7925092219
 20
8.8879444598
 30
0.0
 10
13.7968517403
 20
8.8646915324
 30
0.0
 10
13.8009005901
 20
8.840534453
 30
0.0
 10
13.8046493641
 20
8.8155108946
 30
0.0
 10
13.8080921489
 20
8.78965992
 30
0.0
 10
13.8112235159
 20
8.7630219071
 30
0.0
 10
13.8140385178
 20
8.7356384704
 30
0.0
 10
13.8165326963
 20
8.7075523983
 30
0.0
 10
13.818702118
 20
8.6788076022
 30
0.0
 10
13.8205433662
 20
8.6494490189
 30
0.0
 10
13.8220535243
 20
8.6195225416
 30
0.0
 10
13.8232301808
 20
8.5890750731
 30
0.0
 10
13.824071524
 20
8.5581539226
 30
0.0
 10
13.8245761444
 20
8.5268078816
 30
0.0
 10
13.8246869914
 20
8.5057736457
 30
0.0
 10
13.8246869914
 20
8.4951946861
 30
0.0
  0
SPLINE
  5
33E
100
AcDbEntity
  8
0
100
AcDbSpline
 62
7
  6
CONTINUOUS
 70
0
 71
3
 72
61
 73
57
 74
0
 42
0.0000001
 43
0.0000001
 44
0.0000000001
 40
0.0
 40
0.0
 40
0.0
 40
0.0
 40
0.0417736088
 40
0.0840360431
 40
0.126657155
 40
0.1695046842
 40
0.2124458378
 40
0.2553473321
 40
0.2980760744
 40
0.3404996436
 40
0.3824868274
 40
0.4239081481
 40
0.4646363976
 40
0.5045471783
 40
0.5435194547
 40
0.5814361204
 40
0.5999634452
 40
0.6181850312
 40
0.6360876424
 40
0.6536583488
 40
0.6708846631
 40
0.6877544565
 40
0.7042560738
 40
0.7203782989
 40
0.7361104104
 40
0.7514422273
 40
0.7663640903
 40
0.7808669935
 40
0.7949425048
 40
0.8085829615
 40
0.8217813757
 40
0.8345316441
 40
0.8468285057
 40
0.8586677174
 40
0.8700461208
 40
0.8809617639
 40
0.8914141105
 40
0.9014041268
 40
0.9109346407
 40
0.9200104579
 40
0.9286388542
 40
0.9368298218
 40
0.9445966692
 40
0.9519564915
 40
0.9589308526
 40
0.9655464796
 40
0.97183593
 40
0.9778382749
 40
0.9807467215
 40
0.9836011958
 40
0.9864085004
 40
0.9891758164
 40
0.9919106777
 40
0.9946209229
 40
0.9973146203
 40
1.0
 40
1.0
 40
1.0
 40
1.0
 10
13.8913036849
 20
8.4975414756
 30
0.0
 10
13.8913036849
 20
8.4814787674
 30
0.0
 10
13.891053091
 20
8.4491648838
 30
0.0
 10
13.8899452524
 20
8.4004738275
 30
0.0
 10
13.8881065211
 20
8.3513915803
 30
0.0
 10
13.8855429151
 20
8.3020805781
 30
0.0
 10
13.8822629119
 20
8.2527039946
 30
0.0
 10
13.8782773511
 20
8.2034251707
 30
0.0
 10
13.8735994359
 20
8.1544071441
 30
0.0
 10
13.8682446733
 20
8.1058120767
 30
0.0
 10
13.8622308287
 20
8.0578007251
 30
0.0
 10
13.8555778669
 20
8.010531897
 30
0.0
 10
13.8483078856
 20
7.9641619379
 30
0.0
 10
13.8404450504
 20
7.918844148
 30
0.0
 10
13.8320154962
 20
7.8747284774
 30
0.0
 10
13.8244853113
 20
7.8388179181
 30
0.0
 10
13.8181904014
 20
7.8108058605
 30
0.0
 10
13.813381709
 20
7.7903485677
 30
0.0
 10
13.8084532958
 20
7.7702983697
 30
0.0
 10
13.8034091732
 20
7.7506718371
 30
0.0
 10
13.7982535814
 20
7.7314852014
 30
0.0
 10
13.7929907502
 20
7.7127543297
 30
0.0
 10
13.7876250751
 20
7.6944947046
 30
0.0
 10
13.7821609912
 20
7.6767214201
 30
0.0
 10
13.7766030258
 20
7.6594491633
 30
0.0
 10
13.7709558111
 20
7.6426922
 30
0.0
 10
13.7652239886
 20
7.6264643731
 30
0.0
 10
13.7594123666
 20
7.6107790688
 30
0.0
 10
13.7535256956
 20
7.5956492378
 30
0.0
 10
13.7475689237
 20
7.5810873396
 30
0.0
 10
13.7415469164
 20
7.5671053821
 30
0.0
 10
13.7354647138
 20
7.5537148569
 30
0.0
 10
13.7293273015
 20
7.5409267775
 30
0.0
 10
13.7231397639
 20
7.5287516304
 30
0.0
 10
13.7169071983
 20
7.5171993827
 30
0.0
 10
13.7106346901
 20
7.5062794818
 30
0.0
 10
13.7043274159
 20
7.4960008
 30
0.0
 10
13.6979904229
 20
7.4863717131
 30
0.0
 10
13.6916288995
 20
7.4773999647
 30
0.0
 10
13.6852478134
 20
7.4690928305
 30
0.0
 10
13.6788522528
 20
7.461456927
 30
0.0
 10
13.6724470466
 20
7.4544984269
 30
0.0
 10
13.6660370394
 20
7.4482228987
 30
0.0
 10
13.6596268266
 20
7.4426354937
 30
0.0
 10
13.6532209277
 20
7.4377409692
 30
0.0
 10
13.6468235578
 20
7.4335436906
 30
0.0
 10
13.6404394554
 20
7.4300481629
 30
0.0
 10
13.6350775916
 20
7.4276988737
 30
0.0
 10
13.6308112453
 20
7.4261892936
 30
0.0
 10
13.6276521323
 20
7.4252462238
 30
0.0
 10
13.6245011413
 20
7.4244808017
 30
0.0
 10
13.6213588852
 20
7.4238932536
 30
0.0
 10
13.6182260896
 20
7.4234838053
 30
0.0
 10
13.6151034359
 20
7.4232525496
 30
0.0
 10
13.6119917826
 20
7.4231995657
 30
0.0
 10
13.6099237703
 20
7.4232832113
 30
0.0
 10
13.6088936671
 20
7.4233546446
 30
0.0
  0
SPLINE
  5
33F
100
AcDbEntity
  8
0
100
AcDbSpline
 62
7
  6
CONTINUOUS
 70
0
 71
3
 72
50
 73
46
 74
0
 42
0.0000001
 43
0.0000001
 44
0.0000000001
 40
0.0
 40
0.0
 40
0.0
 40
0.0
 40
0.0065811938
 40
0.0133508562
 40
0.0203297222
 40
0.0275364796
 40
0.0349877302
 40
0.0426982179
 40
0.0506809366
 40
0.0589471582
 40
0.0675067231
 40
0.0763681218
 40
0.0855385286
 40
0.095024086
 40
0.1048299232
 40
0.1149601875
 40
0.1254182982
 40
0.1362069032
 40
0.1473279175
 40
0.1587827408
 40
0.1705721649
 40
0.1826964291
 40
0.195155401
 40
0.2079484488
 40
0.2345315242
 40
0.262434139
 40
0.291638744
 40
0.3221232007
 40
0.353861425
 40
0.3868237728
 40
0.4209772768
 40
0.4562860599
 40
0.492711591
 40
0.5302127883
 40
0.5687462975
 40
0.6082667005
 40
0.6487265734
 40
0.6900766832
 40
0.7322661546
 40
0.7752425232
 40
0.8189520442
 40
0.8633393725
 40
0.9083478697
 40
0.9539221378
 40
1.0
 40
1.0
 40
1.0
 40
1.0
 10
13.6513311749
 20
9.094671139
 30
0.0
 10
13.652562593
 20
9.0940319056
 30
0.0
 10
13.6550195907
 20
9.0926544761
 30
0.0
 10
13.6586273282
 20
9.090336519
 30
0.0
 10
13.6622047174
 20
9.0877405302
 30
0.0
 10
13.6657503753
 20
9.0848675966
 30
0.0
 10
13.6692633039
 20
9.0817188491
 30
0.0
 10
13.6727423752
 20
9.0782954289
 30
0.0
 10
13.6761864586
 20
9.0745985212
 30
0.0
 10
13.6795945165
 20
9.0706294752
 30
0.0
 10
13.6829654304
 20
9.0663896405
 30
0.0
 10
13.6862980764
 20
9.0618804555
 30
0.0
 10
13.6895914172
 20
9.0571035042
 30
0.0
 10
13.692844329
 20
9.0520603949
 30
0.0
 10
13.6960557082
 20
9.046752843
 30
0.0
 10
13.6992245254
 20
9.0411826915
 30
0.0
 10
13.7023496693
 20
9.035351824
 30
0.0
 10
13.7054300717
 20
9.0292622376
 30
0.0
 10
13.7084647242
 20
9.0229160409
 30
0.0
 10
13.7114525439
 20
9.016315394
 30
0.0
 10
13.7143925109
 20
9.00946257
 30
0.0
 10
13.7172836424
 20
9.0023599434
 30
0.0
 10
13.7201249171
 20
8.995009934
 30
0.0
 10
13.723893713
 20
8.9847520604
 30
0.0
 10
13.7284631091
 20
8.9713220003
 30
0.0
 10
13.7336644371
 20
8.9544602985
 30
0.0
 10
13.7386443599
 20
8.9366763618
 30
0.0
 10
13.7433959703
 20
8.917994787
 30
0.0
 10
13.7479126336
 20
8.8984412485
 30
0.0
 10
13.7521880166
 20
8.8780427216
 30
0.0
 10
13.7562161696
 20
8.856827381
 30
0.0
 10
13.7599914611
 20
8.8348245567
 30
0.0
 10
13.7635085855
 20
8.8120646822
 30
0.0
 10
13.7667626408
 20
8.7885792668
 30
0.0
 10
13.7697490843
 20
8.7644008381
 30
0.0
 10
13.7724637162
 20
8.7395628884
 30
0.0
 10
13.7749027464
 20
8.7140998372
 30
0.0
 10
13.7770627774
 20
8.6880469821
 30
0.0
 10
13.7789407697
 20
8.6614404444
 30
0.0
 10
13.7805340961
 20
8.6343170933
 30
0.0
 10
13.7818405341
 20
8.6067145605
 30
0.0
 10
13.7828582481
 20
8.5786712034
 30
0.0
 10
13.7835858232
 20
8.5502255774
 30
0.0
 10
13.7840221858
 20
8.5214176035
 30
0.0
 10
13.7841181091
 20
8.5020953542
 30
0.0
 10
13.7841181091
 20
8.4923812196
 30
0.0
  0
SPLINE
  5
340
100
AcDbEntity
  8
0
100
AcDbSpline
 62
7
  6
CONTINUOUS
 70
0
 71
3
 72
14
 73
10
 74
0
 42
0.0000001
 43
0.0000001
 44
0.0000000001
 40
0.0
 40
0.0
 40
0.0
 40
0.0
 40
0.1186072064
 40
0.239298651
 40
0.3619490813
 40
0.4864304545
 40
0.6126103939
 40
0.7403560751
 40
1.0
 40
1.0
 40
1.0
 40
1.0
 10
13.510144709
 20
8.7145091164
 30
0.0
 10
13.5107914875
 20
8.7064751894
 30
0.0
 10
13.5120038355
 20
8.6902585719
 30
0.0
 10
13.5135697562
 20
8.6657118747
 30
0.0
 10
13.5148977043
 20
8.6407513888
 30
0.0
 10
13.5159861071
 20
8.6154060318
 30
0.0
 10
13.5168337642
 20
8.5897050199
 30
0.0
 10
13.5176458926
 20
8.5548146185
 30
0.0
 10
13.5178829203
 20
8.5284887234
 30
0.0
 10
13.5178829203
 20
8.5108446927
 30
0.0
  0
SPLINE
  5
341
100
AcDbEntity
  8
0
100
AcDbSpline
 62
7
  6
CONTINUOUS
 70
0
 71
3
 72
13
 73
9
 74
0
 42
0.0000001
 43
0.0000001
 44
0.0000000001
 40
0.0
 40
0.0
 40
0.0
 40
0.0
 40
0.2522164779
 40
0.50286933
 40
0.6276685287
 40
0.7521113673
 40
0.8762148096
 40
1.0
 40
1.0
 40
1.0
 40
1.0
 10
10.8964758628
 20
6.8664428214
 30
0.0
 10
10.8964758628
 20
6.8709730418
 30
0.0
 10
10.8968836202
 20
6.8800105676
 30
0.0
 10
10.8984232366
 20
6.8911957694
 30
0.0
 10
10.9002643774
 20
6.8999867348
 30
0.0
 10
10.9019442686
 20
6.906481463
 30
0.0
 10
10.9039214458
 20
6.9128726215
 30
0.0
 10
10.9054371759
 20
6.9170612652
 30
0.0
 10
10.9062431142
 20
6.9191334385
 30
0.0
  0
SPLINE
  5
342
100
AcDbEntity
  8
0
100
AcDbSpline
 62
7
  6
CONTINUOUS
 70
0
 71
3
 72
23
 73
19
 74
0
 42
0.0000001
 43
0.0000001
 44
0.0000000001
 40
0.0
 40
0.0
 40
0.0
 40
0.0
 40
0.0637744828
 40
0.1273454316
 40
0.1907025265
 40
0.2538558004
 40
0.316813226
 40
0.3795821625
 40
0.4421733656
 40
0.5045993404
 40
0.5668738661
 40
0.6290123724
 40
0.6910316429
 40
0.7529496283
 40
0.8147853425
 40
0.8765585905
 40
0.938289842
 40
1.0
 40
1.0
 40
1.0
 40
1.0
 10
10.8136538386
 20
6.7864428844
 30
0.0
 10
10.8136538386
 20
6.7888496954
 30
0.0
 10
10.813769088
 20
6.79365645
 30
0.0
 10
10.814289003
 20
6.8008373371
 30
0.0
 10
10.8151547803
 20
6.8079613633
 30
0.0
 10
10.816364329
 20
6.8150116271
 30
0.0
 10
10.8179147801
 20
6.8219721472
 30
0.0
 10
10.819802751
 20
6.8288268218
 30
0.0
 10
10.8220237889
 20
6.8355598397
 30
0.0
 10
10.8245728029
 20
6.8421556864
 30
0.0
 10
10.8274439947
 20
6.8485991243
 30
0.0
 10
10.8306306514
 20
6.8548753353
 30
0.0
 10
10.8341255343
 20
6.8609697922
 30
0.0
 10
10.8379205422
 20
6.8668684642
 30
0.0
 10
10.8420069007
 20
6.8725577466
 30
0.0
 10
10.8463753156
 20
6.8780244973
 30
0.0
 10
10.8510154351
 20
6.8832560203
 30
0.0
 10
10.8542835405
 20
6.8865793849
 30
0.0
 10
10.8559586224
 20
6.8881973765
 30
0.0
  0
SPLINE
  5
343
100
AcDbEntity
  8
0
100
AcDbSpline
 62
7
  6
CONTINUOUS
 70
0
 71
3
 72
24
 73
20
 74
0
 42
0.0000001
 43
0.0000001
 44
0.0000000001
 40
0.0
 40
0.0
 40
0.0
 40
0.0
 40
0.061148033
 40
0.1226355025
 40
0.1844425928
 40
0.2465377986
 40
0.2776874665
 40
0.3088944039
 40
0.3714493996
 40
0.4341699275
 40
0.4970130093
 40
0.5599377491
 40
0.6229063835
 40
0.6858848613
 40
0.7488430352
 40
0.811754582
 40
0.8745968818
 40
0.9373507668
 40
1.0
 40
1.0
 40
1.0
 40
1.0
 10
9.3956746761
 20
8.4295415074
 30
0.0
 10
9.4009748148
 20
8.4291739415
 30
0.0
 10
9.4115788509
 20
8.4279936967
 30
0.0
 10
9.4273243008
 20
8.4249231817
 30
0.0
 10
9.4428536822
 20
8.4205838354
 30
0.0
 10
9.4555213162
 20
8.4159579305
 30
0.0
 10
9.4654558389
 20
8.4116833228
 30
0.0
 10
9.4752624206
 20
8.4070287731
 30
0.0
 10
9.4872222437
 20
8.4005362706
 30
0.0
 10
9.5010227729
 20
8.391755904
 30
0.0
 10
9.5142363148
 20
8.3820613663
 30
0.0
 10
9.5268240507
 20
8.3715351014
 30
0.0
 10
9.5387578372
 20
8.3602569689
 30
0.0
 10
9.5500178548
 20
8.3483032062
 30
0.0
 10
9.56059131
 20
8.3357454765
 30
0.0
 10
9.570470934
 20
8.3226505237
 30
0.0
 10
9.5796538346
 20
8.3090798825
 30
0.0
 10
9.5881400539
 20
8.295090671
 30
0.0
 10
9.5933400026
 20
8.2855104441
 30
0.0
 10
9.595824557
 20
8.2806672514
 30
0.0
  0
SPLINE
  5
344
100
AcDbEntity
  8
0
100
AcDbSpline
 62
7
  6
CONTINUOUS
 70
0
 71
3
 72
36
 73
32
 74
0
 42
0.0000001
 43
0.0000001
 44
0.0000000001
 40
0.0
 40
0.0
 40
0.0
 40
0.0
 40
0.1077029741
 40
0.2105944545
 40
0.3079710431
 40
0.3543911008
 40
0.3991975171
 40
0.4423214162
 40
0.4836994998
 40
0.5232739307
 40
0.5609936267
 40
0.5968151982
 40
0.6307034107
 40
0.6626335073
 40
0.6925915544
 40
0.7205785837
 40
0.7466114485
 40
0.7707294175
 40
0.7929969501
 40
0.8135136699
 40
0.8324206396
 40
0.8499133138
 40
0.8662489846
 40
0.881753308
 40
0.8968121797
 40
0.9118496141
 40
0.9272914886
 40
0.9435289011
 40
0.960893818
 40
0.9796506296
 40
1.0
 40
1.0
 40
1.0
 40
1.0
 10
13.375722067
 20
6.7362408221
 30
0.0
 10
13.3752926119
 20
6.7339159177
 30
0.0
 10
13.3743947542
 20
6.729380407
 30
0.0
 10
13.3728948382
 20
6.722787563
 30
0.0
 10
13.3715291516
 20
6.7175462809
 30
0.0
 10
13.3703779913
 20
6.7135692174
 30
0.0
 10
13.3695044718
 20
6.7107521623
 30
0.0
 10
13.3686087054
 20
6.7080584816
 30
0.0
 10
13.3676924216
 20
6.7054933236
 30
0.0
 10
13.3667573896
 20
6.703061595
 30
0.0
 10
13.3658054068
 20
6.7007679411
 30
0.0
 10
13.3648383274
 20
6.6986167197
 30
0.0
 10
13.3638579752
 20
6.6966120148
 30
0.0
 10
13.3628662665
 20
6.6947575867
 30
0.0
 10
13.3618650145
 20
6.6930569222
 30
0.0
 10
13.3608561506
 20
6.6915131328
 30
0.0
 10
13.3598414104
 20
6.6901290763
 30
0.0
 10
13.3588226376
 20
6.6889071853
 30
0.0
 10
13.3578013589
 20
6.6878497147
 30
0.0
 10
13.3567791375
 20
6.6869585151
 30
0.0
 10
13.3557571216
 20
6.6862355137
 30
0.0
 10
13.3547365082
 20
6.6856825082
 30
0.0
 10
13.3537184505
 20
6.6853018833
 30
0.0
 10
13.3527049402
 20
6.6850960893
 30
0.0
 10
13.3516991749
 20
6.685067552
 30
0.0
 10
13.3507055275
 20
6.6852169902
 30
0.0
 10
13.3497282951
 20
6.6855432583
 30
0.0
 10
13.3487704997
 20
6.6860436358
 30
0.0
 10
13.3478338008
 20
6.68671533
 30
0.0
 10
13.3469192158
 20
6.6875557851
 30
0.0
 10
13.346349191
 20
6.6881996396
 30
0.0
 10
13.3460673343
 20
6.6885461882
 30
0.0
  0
SPLINE
  5
345
100
AcDbEntity
  8
0
100
AcDbSpline
 62
7
  6
CONTINUOUS
 70
0
 71
3
 72
67
 73
63
 74
0
 42
0.0000001
 43
0.0000001
 44
0.0000000001
 40
0.0
 40
0.0
 40
0.0
 40
0.0
 40
0.0156744788
 40
0.0314032749
 40
0.047182953
 40
0.063013043
 40
0.0788911746
 40
0.0948145965
 40
0.1107803261
 40
0.1267849018
 40
0.1428245531
 40
0.15889522
 40
0.1749925935
 40
0.1911121924
 40
0.2072493757
 40
0.2233994018
 40
0.239557501
 40
0.2557188756
 40
0.2880245822
 40
0.3202875566
 40
0.3524730657
 40
0.3845495664
 40
0.4005420098
 40
0.4164972292
 40
0.4324125279
 40
0.4482855099
 40
0.4641141338
 40
0.4798967063
 40
0.4956318794
 40
0.5113186891
 40
0.5269565411
 40
0.5425452192
 40
0.5580849011
 40
0.5735761507
 40
0.5890199239
 40
0.6044175651
 40
0.6197708113
 40
0.6350817792
 40
0.6503529556
 40
0.6655872037
 40
0.6807877256
 40
0.6959580543
 40
0.7111020508
 40
0.726223842
 40
0.7413278166
 40
0.7564186034
 40
0.771500991
 40
0.7865799219
 40
0.8016604531
 40
0.8167476621
 40
0.8318466367
 40
0.8469624231
 40
0.8620999262
 40
0.8772638941
 40
0.8924588649
 40
0.9076890689
 40
0.9229584182
 40
0.9382704523
 40
0.953628245
 40
0.9690345018
 40
0.9844913006
 40
1.0
 40
1.0
 40
1.0
 40
1.0
 10
10.0892095236
 20
7.0108846752
 30
0.0
 10
10.0853188663
 20
7.0111544932
 30
0.0
 10
10.0775361339
 20
7.0118885184
 30
0.0
 10
10.0659121488
 20
7.0135642663
 30
0.0
 10
10.0543454951
 20
7.0158124602
 30
0.0
 10
10.0428652682
 20
7.0186267116
 30
0.0
 10
10.0314992134
 20
7.0219993016
 30
0.0
 10
10.0202750106
 20
7.0259208732
 30
0.0
 10
10.00921971
 20
7.0303806453
 30
0.0
 10
9.9983596595
 20
7.0353663739
 30
0.0
 10
9.9877204403
 20
7.0408644257
 30
0.0
 10
9.9773268482
 20
7.0468600151
 30
0.0
 10
9.9672027515
 20
7.0533371314
 30
0.0
 10
9.9573710172
 20
7.0602786134
 30
0.0
 10
9.9478535541
 20
7.0676664335
 30
0.0
 10
9.9386712727
 20
7.0754815485
 30
0.0
 10
9.9298436954
 20
7.0837043315
 30
0.0
 10
9.9185748647
 20
7.0951806202
 30
0.0
 10
9.9054673694
 20
7.110438885
 30
0.0
 10
9.8914310856
 20
7.1300345222
 30
0.0
 10
9.8791944844
 20
7.1507351064
 30
0.0
 10
9.8705640147
 20
7.1687728658
 30
0.0
 10
9.8646469267
 20
7.1835676809
 30
0.0
 10
9.860712839
 20
7.1948122485
 30
0.0
 10
9.8572858195
 20
7.2061903124
 30
0.0
 10
9.854371792
 20
7.2176780202
 30
0.0
 10
9.8519757897
 20
7.229251114
 30
0.0
 10
9.8501018819
 20
7.2408854225
 30
0.0
 10
9.848753349
 20
7.2525567698
 30
0.0
 10
9.8479324174
 20
7.2642409825
 30
0.0
 10
9.8476404855
 20
7.2759139345
 30
0.0
 10
9.8478781319
 20
7.2875515406
 30
0.0
 10
9.848644895
 20
7.2991297754
 30
0.0
 10
9.8499395372
 20
7.310624687
 30
0.0
 10
9.8517599364
 20
7.3220123969
 30
0.0
 10
9.8541029439
 20
7.3332691487
 30
0.0
 10
9.8569646357
 20
7.3443712799
 30
0.0
 10
9.860340111
 20
7.3552952654
 30
0.0
 10
9.8642234485
 20
7.3660177688
 30
0.0
 10
9.8686079038
 20
7.3765155895
 30
0.0
 10
9.8734856566
 20
7.3867657697
 30
0.0
 10
9.8788478558
 20
7.3967456238
 30
0.0
 10
9.8846847483
 20
7.4064326865
 30
0.0
 10
9.8909854187
 20
7.4158048852
 30
0.0
 10
9.897737895
 20
7.4248405371
 30
0.0
 10
9.9049292195
 20
7.4335183178
 30
0.0
 10
9.9125452161
 20
7.4418174903
 30
0.0
 10
9.9205706244
 20
7.4497178727
 30
0.0
 10
9.9289891423
 20
7.4571998322
 30
0.0
 10
9.9377832393
 20
7.4642445574
 30
0.0
 10
9.9469342983
 20
7.4708340097
 30
0.0
 10
9.9564226601
 20
7.4769509293
 30
0.0
 10
9.9662274935
 20
7.482579137
 30
0.0
 10
9.9763269342
 20
7.4877034852
 30
0.0
 10
9.9866981512
 20
7.4923098512
 30
0.0
 10
9.9973172845
 20
7.4963854496
 30
0.0
 10
10.0081595726
 20
7.4999187969
 30
0.0
 10
10.0191994553
 20
7.5028996691
 30
0.0
 10
10.0304105548
 20
7.5053194038
 30
0.0
 10
10.0417659393
 20
7.5071708533
 30
0.0
 10
10.0532375747
 20
7.5084483428
 30
0.0
 10
10.0609319371
 20
7.5089139648
 30
0.0
 10
10.0647882737
 20
7.5090505361
 30
0.0
  0
SPLINE
  5
346
100
AcDbEntity
  8
0
100
AcDbSpline
 62
7
  6
CONTINUOUS
 70
0
 71
3
 72
39
 73
35
 74
0
 42
0.0000001
 43
0.0000001
 44
0.0000000001
 40
0.0
 40
0.0
 40
0.0
 40
0.0
 40
0.0308173671
 40
0.061766911
 40
0.0928416526
 40
0.1240393887
 40
0.1553527208
 40
0.1867735163
 40
0.2182920637
 40
0.2498971878
 40
0.2815765556
 40
0.3133167772
 40
0.3451036314
 40
0.3769222656
 40
0.4087573881
 40
0.4405934738
 40
0.4724149896
 40
0.5042066083
 40
0.5359534079
 40
0.5676410716
 40
0.5992561032
 40
0.6307860209
 40
0.6622195276
 40
0.693546674
 40
0.7247590277
 40
0.7558498132
 40
0.786814018
 40
0.8176484794
 40
0.8483519673
 40
0.8789252344
 40
0.9093710193
 40
0.9396940214
 40
0.9699008591
 40
1.0
 40
1.0
 40
1.0
 40
1.0
 10
10.8964758628
 20
6.8664428214
 30
0.0
 10
10.8964758628
 20
6.8633500495
 30
0.0
 10
10.8966668692
 20
6.8571496005
 30
0.0
 10
10.8975207639
 20
6.8478659445
 30
0.0
 10
10.8989396578
 20
6.8386127907
 30
0.0
 10
10.9009178812
 20
6.8294257063
 30
0.0
 10
10.9034481238
 20
6.8203390634
 30
0.0
 10
10.9065207254
 20
6.8113872205
 30
0.0
 10
10.9101240471
 20
6.802603902
 30
0.0
 10
10.9142444813
 20
6.7940222252
 30
0.0
 10
10.9188664862
 20
6.7856745566
 30
0.0
 10
10.9239726082
 20
6.7775923661
 30
0.0
 10
10.9295435539
 20
6.7698061076
 30
0.0
 10
10.9355583072
 20
6.7623451318
 30
0.0
 10
10.9419942014
 20
6.7552375823
 30
0.0
 10
10.9488269729
 20
6.748510268
 30
0.0
 10
10.956030835
 20
6.7421885343
 30
0.0
 10
10.963578628
 20
6.7362962198
 30
0.0
 10
10.9714419089
 20
6.7308555644
 30
0.0
 10
10.9795910473
 20
6.7258871214
 30
0.0
 10
10.987995304
 20
6.7214096176
 30
0.0
 10
10.9966229946
 20
6.7174399544
 30
0.0
 10
11.0054415974
 20
6.7139931388
 30
0.0
 10
11.0144178725
 20
6.7110822379
 30
0.0
 10
11.0235179596
 20
6.7087182443
 30
0.0
 10
11.0327075359
 20
6.7069101044
 30
0.0
 10
11.0419519392
 20
6.7056646907
 30
0.0
 10
11.0512162929
 20
6.7049867885
 30
0.0
 10
11.060465626
 20
6.7048789943
 30
0.0
 10
11.0696650315
 20
6.7053417499
 30
0.0
 10
11.078779739
 20
6.7063733539
 30
0.0
 10
11.0877754411
 20
6.7079700385
 30
0.0
 10
11.0966176713
 20
6.7101256722
 30
0.0
 10
11.1023987376
 20
6.7119333908
 30
0.0
 10
11.1052512088
 20
6.7129273669
 30
0.0
  0
SPLINE
  5
347
100
AcDbEntity
  8
0
100
AcDbSpline
 62
7
  6
CONTINUOUS
 70
0
 71
3
 72
55
 73
51
 74
0
 42
0.0000001
 43
0.0000001
 44
0.0000000001
 40
0.0
 40
0.0
 40
0.0
 40
0.0
 40
0.0059275094
 40
0.0121348951
 40
0.0186497893
 40
0.0254952305
 40
0.0326902851
 40
0.040250385
 40
0.0481879515
 40
0.0565126449
 40
0.0652319005
 40
0.0743510638
 40
0.0838738337
 40
0.0938023015
 40
0.1041373209
 40
0.1148784777
 40
0.1260244059
 40
0.137572712
 40
0.1495202522
 40
0.161863027
 40
0.1745964311
 40
0.1877151299
 40
0.2012132884
 40
0.2150844378
 40
0.229321688
 40
0.2439175895
 40
0.2588643324
 40
0.2741536079
 40
0.2897767946
 40
0.3057248228
 40
0.3219883492
 40
0.3385576262
 40
0.3554226653
 40
0.3725731125
 40
0.4076872826
 40
0.4438126309
 40
0.4808574818
 40
0.5187268067
 40
0.5573226315
 40
0.5965444292
 40
0.6362895029
 40
0.6764533607
 40
0.7169300861
 40
0.7576127046
 40
0.7983935484
 40
0.8391646196
 40
0.8798179543
 40
0.9202459803
 40
0.9603418942
 40
1.0
 40
1.0
 40
1.0
 40
1.0
 10
13.5796291244
 20
7.4338698077
 30
0.0
 10
13.581629879
 20
7.4348242594
 30
0.0
 10
13.5856452154
 20
7.436950988
 30
0.0
 10
13.5915509033
 20
7.4406719522
 30
0.0
 10
13.5974659158
 20
7.444989474
 30
0.0
 10
13.6033862526
 20
7.4498997743
 30
0.0
 10
13.6093083948
 20
7.4553994296
 30
0.0
 10
13.6152287191
 20
7.4614844288
 30
0.0
 10
13.6211433498
 20
7.4681506416
 30
0.0
 10
13.6270485262
 20
7.475393398
 30
0.0
 10
13.6329402074
 20
7.4832077867
 30
0.0
 10
13.6388145151
 20
7.4915883663
 30
0.0
 10
13.6446673259
 20
7.5005294038
 30
0.0
 10
13.6504947023
 20
7.5100246592
 30
0.0
 10
13.6562924954
 20
7.520067578
 30
0.0
 10
13.6620567544
 20
7.5306511276
 30
0.0
 10
13.6677833446
 20
7.5417679512
 30
0.0
 10
13.6734683347
 20
7.5534102429
 30
0.0
 10
13.6791076313
 20
7.5655698701
 30
0.0
 10
13.6846973463
 20
7.5782382782
 30
0.0
 10
13.6902334479
 20
7.591406588
 30
0.0
 10
13.6957121094
 20
7.6050655234
 30
0.0
 10
13.7011293763
 20
7.6192054887
 30
0.0
 10
13.7064814985
 20
7.633816515
 30
0.0
 10
13.7117646123
 20
7.6488883216
 30
0.0
 10
13.7169750571
 20
7.6644102765
 30
0.0
 10
13.7221090718
 20
7.6803714462
 30
0.0
 10
13.7271630975
 20
7.6967605673
 30
0.0
 10
13.7321334865
 20
7.7135660864
 30
0.0
 10
13.7370167925
 20
7.7307761412
 30
0.0
 10
13.7418094927
 20
7.7483785938
 30
0.0
 10
13.7465082592
 20
7.7663610142
 30
0.0
 10
13.75110972
 20
7.7847107268
 30
0.0
 10
13.7571583317
 20
7.8098464502
 30
0.0
 10
13.764443106
 20
7.8420916013
 30
0.0
 10
13.7726796105
 20
7.8817429343
 30
0.0
 10
13.7804544901
 20
7.9225367011
 30
0.0
 10
13.7877457008
 20
7.964357702
 30
0.0
 10
13.7945325602
 20
8.0070879523
 30
0.0
 10
13.8007958298
 20
8.0506068393
 30
0.0
 10
13.8065177612
 20
8.0947915186
 30
0.0
 10
13.8116821479
 20
8.1395172499
 30
0.0
 10
13.8162743691
 20
8.1846577567
 30
0.0
 10
13.8202814314
 20
8.2300855842
 30
0.0
 10
13.8236920045
 20
8.2756724609
 30
0.0
 10
13.8264964537
 20
8.3212896672
 30
0.0
 10
13.8286868663
 20
8.3668083847
 30
0.0
 10
13.830257076
 20
8.412100119
 30
0.0
 10
13.8312026762
 20
8.4570368614
 30
0.0
 10
13.8314162811
 20
8.4868634515
 30
0.0
 10
13.8314162811
 20
8.5016946812
 30
0.0
  0
SPLINE
  5
348
100
AcDbEntity
  8
0
100
AcDbSpline
 62
7
  6
CONTINUOUS
 70
0
 71
3
 72
59
 73
55
 74
0
 42
0.0000001
 43
0.0000001
 44
0.0000000001
 40
0.0
 40
0.0
 40
0.0
 40
0.0
 40
0.0026849296
 40
0.0053963601
 40
0.0081416563
 40
0.010927896
 40
0.0166480836
 40
0.0226080963
 40
0.0288508731
 40
0.0354129446
 40
0.0423248531
 40
0.0496117076
 40
0.0572938292
 40
0.0653874186
 40
0.0739050784
 40
0.082856415
 40
0.0922483562
 40
0.1020856616
 40
0.1123710644
 40
0.1231057012
 40
0.134289139
 40
0.1459197301
 40
0.1579945847
 40
0.1705098479
 40
0.1834606668
 40
0.1968413853
 40
0.2106455376
 40
0.2248659601
 40
0.2394948288
 40
0.2545236929
 40
0.2699435604
 40
0.2857448653
 40
0.3019175945
 40
0.3184512057
 40
0.3353347823
 40
0.3525569226
 40
0.3701059034
 40
0.3879695654
 40
0.4061354627
 40
0.4245907673
 40
0.4623165304
 40
0.5010389851
 40
0.540645764
 40
0.5810209488
 40
0.6220455865
 40
0.6635981929
 40
0.7055552471
 40
0.7477916803
 40
0.7901813573
 40
0.832597571
 40
0.8749134807
 40
0.9170027288
 40
0.9587395424
 40
1.0
 40
1.0
 40
1.0
 40
1.0
 10
13.5579105097
 20
7.4534356347
 30
0.0
 10
13.558903217
 20
7.4535011113
 30
0.0
 10
13.5608951816
 20
7.4536884152
 30
0.0
 10
13.5638801712
 20
7.4541346657
 30
0.0
 10
13.5668739451
 20
7.4547472383
 30
0.0
 10
13.570911071
 20
7.4557944899
 30
0.0
 10
13.5759909284
 20
7.4575348015
 30
0.0
 10
13.582053042
 20
7.4602677065
 30
0.0
 10
13.5881314513
 20
7.463659762
 30
0.0
 10
13.5942216309
 20
7.4677069984
 30
0.0
 10
13.6003197554
 20
7.4724055598
 30
0.0
 10
13.6064217658
 20
7.4777513578
 30
0.0
 10
13.6125235564
 20
7.4837400227
 30
0.0
 10
13.6186208054
 20
7.4903668637
 30
0.0
 10
13.6247091644
 20
7.4976266924
 30
0.0
 10
13.6307840487
 20
7.5055139385
 30
0.0
 10
13.6368409518
 20
7.5140224464
 30
0.0
 10
13.6428751338
 20
7.5231456569
 30
0.0
 10
13.6488820111
 20
7.5328764122
 30
0.0
 10
13.6548567868
 20
7.5432071414
 30
0.0
 10
13.6607948532
 20
7.5541296993
 30
0.0
 10
13.6666914295
 20
7.565635519
 30
0.0
 10
13.6725419168
 20
7.5777154986
 30
0.0
 10
13.6783416005
 20
7.5903601076
 30
0.0
 10
13.684085914
 20
7.603559322
 30
0.0
 10
13.6897702429
 20
7.6173026866
 30
0.0
 10
13.6953900737
 20
7.6315792911
 30
0.0
 10
13.7009409146
 20
7.6463777977
 30
0.0
 10
13.7064183254
 20
7.6616864465
 30
0.0
 10
13.7118179526
 20
7.6774930608
 30
0.0
 10
13.7171354497
 20
7.6937850697
 30
0.0
 10
13.7223666122
 20
7.7105495017
 30
0.0
 10
13.7275072086
 20
7.727773016
 30
0.0
 10
13.7325531906
 20
7.7454418915
 30
0.0
 10
13.7375004642
 20
7.7635420607
 30
0.0
 10
13.7423451413
 20
7.7820590993
 30
0.0
 10
13.7470832894
 20
7.8009782589
 30
0.0
 10
13.7517111793
 20
7.820284457
 30
0.0
 10
13.7562250777
 20
7.8399623247
 30
0.0
 10
13.7621299279
 20
7.8668706547
 30
0.0
 10
13.7691909261
 20
7.9013217741
 30
0.0
 10
13.777093695
 20
7.9435939988
 30
0.0
 10
13.7844613083
 20
7.9869588287
 30
0.0
 10
13.7912701839
 20
8.0312780083
 30
0.0
 10
13.7974985204
 20
8.0764103599
 30
0.0
 10
13.8031263907
 20
8.1222120526
 30
0.0
 10
13.8081357971
 20
8.1685371177
 30
0.0
 10
13.8125107296
 20
8.2152379033
 30
0.0
 10
13.8162372178
 20
8.2621655549
 30
0.0
 10
13.819303369
 20
8.309170484
 30
0.0
 10
13.8216994211
 20
8.3561028697
 30
0.0
 10
13.8234177434
 20
8.4028130967
 30
0.0
 10
13.8244529126
 20
8.4491522036
 30
0.0
 10
13.8246869914
 20
8.4799061823
 30
0.0
 10
13.8246869914
 20
8.4951946861
 30
0.0
  0
SPLINE
  5
349
100
AcDbEntity
  8
0
100
AcDbSpline
 62
7
  6
CONTINUOUS
 70
0
 71
3
 72
55
 73
51
 74
0
 42
0.0000001
 43
0.0000001
 44
0.0000000001
 40
0.0
 40
0.0
 40
0.0
 40
0.0
 40
0.0057000131
 40
0.0116476157
 40
0.0178780821
 40
0.0244212776
 40
0.0313022165
 40
0.0385414179
 40
0.0461556119
 40
0.0541580713
 40
0.0625592585
 40
0.0713670354
 40
0.080587203
 40
0.0902235919
 40
0.1002785073
 40
0.1107527278
 40
0.1216458791
 40
0.132956371
 40
0.1446817201
 40
0.1568184465
 40
0.1693623601
 40
0.1823084325
 40
0.1956510566
 40
0.209383905
 40
0.2235001679
 40
0.2379924054
 40
0.2528527688
 40
0.2680728506
 40
0.2836438913
 40
0.2995566319
 40
0.3158015068
 40
0.3323685013
 40
0.3492473317
 40
0.3664273099
 40
0.4016462622
 40
0.4379346559
 40
0.475197178
 40
0.5133348031
 40
0.5522452428
 40
0.5918233786
 40
0.6319616817
 40
0.6725506236
 40
0.7134790818
 40
0.7546347401
 40
0.7959044877
 40
0.8371748155
 40
0.8783322123
 40
0.9192635613
 40
0.9598565359
 40
1.0
 40
1.0
 40
1.0
 40
1.0
 10
13.539293104
 20
7.4800308335
 30
0.0
 10
13.5412066855
 20
7.4807062024
 30
0.0
 10
13.5450537396
 20
7.4822711973
 30
0.0
 10
13.5507295354
 20
7.4851660119
 30
0.0
 10
13.556418507
 20
7.4886503548
 30
0.0
 10
13.5621165717
 20
7.4927205878
 30
0.0
 10
13.5678203458
 20
7.4973735287
 30
0.0
 10
13.5735263347
 20
7.5026054538
 30
0.0
 10
13.5792307855
 20
7.5084126168
 30
0.0
 10
13.5849300525
 20
7.5147907322
 30
0.0
 10
13.5906201707
 20
7.5217353245
 30
0.0
 10
13.5962973312
 20
7.5292413658
 30
0.0
 10
13.6019574425
 20
7.5373035588
 30
0.0
 10
13.6075965995
 20
7.54591607
 30
0.0
 10
13.6132106548
 20
7.5550727593
 30
0.0
 10
13.6187956652
 20
7.5647669793
 30
0.0
 10
13.6243474786
 20
7.5749917588
 30
0.0
 10
13.6298621547
 20
7.5857396511
 30
0.0
 10
13.6353355712
 20
7.5970028791
 30
0.0
 10
13.6407638202
 20
7.6087732203
 30
0.0
 10
13.6461428337
 20
7.6210421211
 30
0.0
 10
13.6514687575
 20
7.6338006103
 30
0.0
 10
13.6567375962
 20
7.6470393895
 30
0.0
 10
13.6619455667
 20
7.6607487682
 30
0.0
 10
13.6670887609
 20
7.6749187351
 30
0.0
 10
13.6721634816
 20
7.6895389109
 30
0.0
 10
13.6771659208
 20
7.704598605
 30
0.0
 10
13.6820924798
 20
7.7200867812
 30
0.0
 10
13.6869394628
 20
7.7359921037
 30
0.0
 10
13.6917033814
 20
7.7523029131
 30
0.0
 10
13.6963806636
 20
7.7690072643
 30
0.0
 10
13.700967938
 20
7.7860929067
 30
0.0
 10
13.7054617839
 20
7.8035473337
 30
0.0
 10
13.7113734405
 20
7.8274923341
 30
0.0
 10
13.7184959859
 20
7.8582541705
 30
0.0
 10
13.7265506609
 20
7.8961323733
 30
0.0
 10
13.7341581361
 20
7.9351620277
 30
0.0
 10
13.7412960038
 20
7.9752286686
 30
0.0
 10
13.747943229
 20
8.0162149084
 30
0.0
 10
13.754080237
 20
8.0580005982
 30
0.0
 10
13.7596889619
 20
8.1004632375
 30
0.0
 10
13.7647529012
 20
8.1434783239
 30
0.0
 10
13.7692571626
 20
8.1869197246
 30
0.0
 10
13.7731885071
 20
8.2306600492
 30
0.0
 10
13.776535388
 20
8.2745710247
 30
0.0
 10
13.779287984
 20
8.3185238774
 30
0.0
 10
13.7814382284
 20
8.3623896992
 30
0.0
 10
13.7829798333
 20
8.4060398796
 30
0.0
 10
13.7839083063
 20
8.4493462903
 30
0.0
 10
13.7841181091
 20
8.4780897201
 30
0.0
 10
13.7841181091
 20
8.4923812196
 30
0.0
  0
SPLINE
  5
34A
100
AcDbEntity
  8
0
100
AcDbSpline
 62
7
  6
CONTINUOUS
 70
0
 71
3
 72
23
 73
19
 74
0
 42
0.0000001
 43
0.0000001
 44
0.0000000001
 40
0.0
 40
0.0
 40
0.0
 40
0.0
 40
0.0568032531
 40
0.1150471671
 40
0.1745957701
 40
0.2353088028
 40
0.2970422449
 40
0.3596488266
 40
0.4229785292
 40
0.4868790772
 40
0.551196428
 40
0.6157752496
 40
0.6804594202
 40
0.7450924536
 40
0.8095181414
 40
0.8735805851
 40
0.937125765
 40
1.0
 40
1.0
 40
1.0
 40
1.0
 10
13.4520378482
 20
7.876242463
 30
0.0
 10
13.4546639704
 20
7.8880568583
 30
0.0
 10
13.4597779439
 20
7.912031259
 30
0.0
 10
13.4669548862
 20
7.9485339589
 30
0.0
 10
13.4737212027
 20
7.9859618644
 30
0.0
 10
13.4800593438
 20
8.0242183708
 30
0.0
 10
13.4859529095
 20
8.0632049014
 30
0.0
 10
13.4913866466
 20
8.1028209335
 30
0.0
 10
13.4963464997
 20
8.1429643247
 30
0.0
 10
13.5008196438
 20
8.1835315608
 30
0.0
 10
13.504794517
 20
8.224418029
 30
0.0
 10
13.5082608523
 20
8.2655182908
 30
0.0
 10
13.511209698
 20
8.3067263465
 30
0.0
 10
13.5136334536
 20
8.3479359384
 30
0.0
 10
13.515525863
 20
8.3890407439
 30
0.0
 10
13.5168820813
 20
8.4299348633
 30
0.0
 10
13.517698605
 20
8.4705126411
 30
0.0
 10
13.5178829203
 20
8.4974484374
 30
0.0
 10
13.5178829203
 20
8.5108446927
 30
0.0
  0
SPLINE
  5
34B
100
AcDbEntity
  8
0
100
AcDbSpline
 62
7
  6
CONTINUOUS
 70
0
 71
3
 72
21
 73
17
 74
0
 42
0.0000001
 43
0.0000001
 44
0.0000000001
 40
0.0
 40
0.0
 40
0.0
 40
0.0
 40
0.1273177709
 40
0.2537997
 40
0.316761822
 40
0.3795355919
 40
0.4421314898
 40
0.5045621236
 40
0.5668413499
 40
0.6289845405
 40
0.6910084572
 40
0.7529311131
 40
0.8147714634
 40
0.876549347
 40
0.938285237
 40
1.0
 40
1.0
 40
1.0
 40
1.0
 10
10.8387679116
 20
9.2613352506
 30
0.0
 10
10.8387679116
 20
9.2653389488
 30
0.0
 10
10.8391500689
 20
9.2733252165
 30
0.0
 10
10.8405934664
 20
9.2831979658
 30
0.0
 10
10.8423185459
 20
9.2909422961
 30
0.0
 10
10.8438918065
 20
9.2966545097
 30
0.0
 10
10.8457425642
 20
9.3022652442
 30
0.0
 10
10.8478667013
 20
9.3077616762
 30
0.0
 10
10.8502592252
 20
9.3131311349
 30
0.0
 10
10.8529146868
 20
9.3183612226
 30
0.0
 10
10.8558269802
 20
9.3234398604
 30
0.0
 10
10.8589893277
 20
9.3283553822
 30
0.0
 10
10.8623945461
 20
9.3330963613
 30
0.0
 10
10.8660347003
 20
9.3376519871
 30
0.0
 10
10.8699013604
 20
9.3420115234
 30
0.0
 10
10.8726246532
 20
9.3447810074
 30
0.0
 10
10.8740205142
 20
9.3461293175
 30
0.0
  0
SPLINE
  5
34C
100
AcDbEntity
  8
0
100
AcDbSpline
 62
7
  6
CONTINUOUS
 70
0
 71
3
 72
53
 73
49
 74
0
 42
0.0000001
 43
0.0000001
 44
0.0000000001
 40
0.0
 40
0.0
 40
0.0
 40
0.0
 40
0.0063158453
 40
0.0126706042
 40
0.0191024045
 40
0.0256479299
 40
0.0323417859
 40
0.0392161006
 40
0.0536138955
 40
0.0611945924
 40
0.0690563441
 40
0.0772174269
 40
0.0856937979
 40
0.0944991832
 40
0.1036452597
 40
0.11314202
 40
0.1229977594
 40
0.1332193388
 40
0.1438124264
 40
0.1547814124
 40
0.1661297233
 40
0.1778599004
 40
0.1899735286
 40
0.2024715483
 40
0.215354187
 40
0.228620972
 40
0.2422709821
 40
0.2563026805
 40
0.2707140376
 40
0.2855026779
 40
0.3006656825
 40
0.3321007985
 40
0.3649898971
 40
0.3992976059
 40
0.4349839202
 40
0.4720046721
 40
0.5103119941
 40
0.5498546252
 40
0.5905781203
 40
0.632425176
 40
0.6753358984
 40
0.7192479643
 40
0.7640967369
 40
0.809815732
 40
0.8563364699
 40
0.9035882635
 40
0.9515016805
 40
1.0
 40
1.0
 40
1.0
 40
1.0
 10
12.4130505332
 20
6.5254250388
 30
0.0
 10
12.4117828953
 20
6.5255129565
 30
0.0
 10
12.4092458017
 20
6.525793118
 30
0.0
 10
12.4054686026
 20
6.5265233277
 30
0.0
 10
12.4017166331
 20
6.5275634132
 30
0.0
 10
12.3979921292
 20
6.5289126832
 30
0.0
 10
12.3942965204
 20
6.5305702528
 30
0.0
 10
12.3893342909
 20
6.5332302871
 30
0.0
 10
12.3845068561
 20
6.536486623
 30
0.0
 10
12.3798350882
 20
6.5402601447
 30
0.0
 10
12.3763063693
 20
6.5434417107
 30
0.0
 10
12.3728152859
 20
6.5469238846
 30
0.0
 10
12.3693627837
 20
6.5507055006
 30
0.0
 10
12.3659502624
 20
6.5547849074
 30
0.0
 10
12.3625789252
 20
6.5591604136
 30
0.0
 10
12.359250142
 20
6.5638302806
 30
0.0
 10
12.3559651675
 20
6.5687925876
 30
0.0
 10
12.3527252695
 20
6.5740453133
 30
0.0
 10
12.3495317988
 20
6.579586363
 30
0.0
 10
12.346385972
 20
6.5854134547
 30
0.0
 10
12.3432890689
 20
6.5915242283
 30
0.0
 10
12.3402423849
 20
6.5979162122
 30
0.0
 10
12.337247096
 20
6.6045867737
 30
0.0
 10
12.3343044652
 20
6.6115332045
 30
0.0
 10
12.3314157052
 20
6.6187526646
 30
0.0
 10
12.3285819532
 20
6.6262421832
 30
0.0
 10
12.3258044284
 20
6.6339987063
 30
0.0
 10
12.3230842499
 20
6.6420190439
 30
0.0
 10
12.3204225199
 20
6.6502998953
 30
0.0
 10
12.3178203719
 20
6.6588378808
 30
0.0
 10
12.3143904522
 20
6.6707028066
 30
0.0
 10
12.31026939
 20
6.6861568114
 30
0.0
 10
12.3056357375
 20
6.7054538176
 30
0.0
 10
12.301263946
 20
6.7256876164
 30
0.0
 10
12.2971612788
 20
6.7468248799
 30
0.0
 10
12.2933345577
 20
6.7688309106
 30
0.0
 10
12.2897901623
 20
6.79166951
 30
0.0
 10
12.2865340175
 20
6.8153030976
 30
0.0
 10
12.2835715346
 20
6.8396927468
 30
0.0
 10
12.2809076443
 20
6.8647982695
 30
0.0
 10
12.2785467962
 20
6.8905782943
 30
0.0
 10
12.2764929364
 20
6.9169903145
 30
0.0
 10
12.2747494664
 20
6.9439907867
 30
0.0
 10
12.2733193012
 20
6.9715351832
 30
0.0
 10
12.2722048491
 20
6.9995779723
 30
0.0
 10
12.271407927
 20
7.02807323
 30
0.0
 10
12.2709299435
 20
7.0569734846
 30
0.0
 10
12.2708249765
 20
7.0763707109
 30
0.0
 10
12.2708249765
 20
7.0861280735
 30
0.0
  0
SPLINE
  5
34D
100
AcDbEntity
  8
0
100
AcDbSpline
 62
7
  6
CONTINUOUS
 70
0
 71
3
 72
53
 73
49
 74
0
 42
0.0000001
 43
0.0000001
 44
0.0000000001
 40
0.0
 40
0.0
 40
0.0
 40
0.0
 40
0.0063158507
 40
0.0126706099
 40
0.0191024059
 40
0.0256479227
 40
0.0323417663
 40
0.0392160653
 40
0.0536138211
 40
0.0611944956
 40
0.0690562236
 40
0.0772172816
 40
0.0856936274
 40
0.0944989871
 40
0.1036450381
 40
0.113141773
 40
0.1229974875
 40
0.1332190426
 40
0.1438121066
 40
0.1547810699
 40
0.1661293591
 40
0.1778595157
 40
0.1899731245
 40
0.2024711261
 40
0.215353748
 40
0.2286205176
 40
0.2422705136
 40
0.2563021995
 40
0.2707135455
 40
0.2855021761
 40
0.3006651726
 40
0.3321002769
 40
0.3649893698
 40
0.399297079
 40
0.4349833995
 40
0.4720041635
 40
0.5103115033
 40
0.5498541576
 40
0.590577681
 40
0.63242477
 40
0.6753355304
 40
0.7192476386
 40
0.7640964575
 40
0.8098155027
 40
0.8563362939
 40
0.9035881437
 40
0.9515016196
 40
1.0
 40
1.0
 40
1.0
 40
1.0
 10
13.3190895296
 20
6.462591021
 30
0.0
 10
13.3178218886
 20
6.4626789248
 30
0.0
 10
13.3152847886
 20
6.4629590587
 30
0.0
 10
13.3115075781
 20
6.4636892288
 30
0.0
 10
13.3077555971
 20
6.464729276
 30
0.0
 10
13.3040310816
 20
6.4660785091
 30
0.0
 10
13.3003354611
 20
6.4677360434
 30
0.0
 10
13.2953732165
 20
6.4703960312
 30
0.0
 10
13.2905457655
 20
6.4736523249
 30
0.0
 10
13.2858739819
 20
6.4774258081
 30
0.0
 10
13.2823452512
 20
6.4806073458
 30
0.0
 10
13.278854156
 20
6.484089493
 30
0.0
 10
13.2754016421
 20
6.4878710838
 30
0.0
 10
13.2719891091
 20
6.4919504667
 30
0.0
 10
13.2686177602
 20
6.4963259505
 30
0.0
 10
13.2652889654
 20
6.5009957965
 30
0.0
 10
13.2620039793
 20
6.505958084
 30
0.0
 10
13.2587640698
 20
6.5112107916
 30
0.0
 10
13.2555705876
 20
6.5167518247
 30
0.0
 10
13.2524247495
 20
6.5225789013
 30
0.0
 10
13.2493278351
 20
6.5286896611
 30
0.0
 10
13.24628114
 20
6.5350816327
 30
0.0
 10
13.24328584
 20
6.5417521833
 30
0.0
 10
13.2403431982
 20
6.5486986047
 30
0.0
 10
13.2374544274
 20
6.5559180567
 30
0.0
 10
13.2346206646
 20
6.5634075687
 30
0.0
 10
13.2318431293
 20
6.5711640865
 30
0.0
 10
13.2291229404
 20
6.5791844203
 30
0.0
 10
13.2264612002
 20
6.5874652692
 30
0.0
 10
13.2238590421
 20
6.5960032536
 30
0.0
 10
13.2204291089
 20
6.6078681803
 30
0.0
 10
13.2163080303
 20
6.6233221897
 30
0.0
 10
13.2116743594
 20
6.6426192055
 30
0.0
 10
13.2073025505
 20
6.6628530189
 30
0.0
 10
13.2031998668
 20
6.683990302
 30
0.0
 10
13.1993731302
 20
6.7059963568
 30
0.0
 10
13.1958287202
 20
6.7288349849
 30
0.0
 10
13.192572562
 20
6.7524686054
 30
0.0
 10
13.1896100669
 20
6.7768582916
 30
0.0
 10
13.1869461655
 20
6.8019638551
 30
0.0
 10
13.1845853075
 20
6.8277439243
 30
0.0
 10
13.1825314391
 20
6.8541559922
 30
0.0
 10
13.1807879617
 20
6.8811565151
 30
0.0
 10
13.1793577905
 20
6.9087009653
 30
0.0
 10
13.1782433337
 20
6.9367438105
 30
0.0
 10
13.1774464082
 20
6.9652391264
 30
0.0
 10
13.1769684226
 20
6.9941394412
 30
0.0
 10
13.1768634552
 20
7.0135367083
 30
0.0
 10
13.1768634552
 20
7.0232940916
 30
0.0
  0
SPLINE
  5
34E
100
AcDbEntity
  8
0
100
AcDbSpline
 62
7
  6
CONTINUOUS
 70
0
 71
3
 72
60
 73
56
 74
0
 42
0.0000001
 43
0.0000001
 44
0.0000000001
 40
0.0
 40
0.0
 40
0.0
 40
0.0
 40
0.0095822002
 40
0.0187369924
 40
0.0274867135
 40
0.0358591658
 40
0.0438870963
 40
0.0516083429
 40
0.0590660196
 40
0.0663086121
 40
0.0733896747
 40
0.0803668217
 40
0.0873005313
 40
0.0942524971
 40
0.1012839011
 40
0.1084536914
 40
0.115817217
 40
0.123425094
 40
0.1313227642
 40
0.1395501611
 40
0.1481419045
 40
0.1571276302
 40
0.1665322814
 40
0.1763768182
 40
0.1866783986
 40
0.1974510881
 40
0.20870609
 40
0.2204521222
 40
0.2326958587
 40
0.2454419251
 40
0.2586934556
 40
0.2724519705
 40
0.2867177534
 40
0.3014899277
 40
0.3167664669
 40
0.3325445437
 40
0.3488202857
 40
0.365589175
 40
0.3828458756
 40
0.400584382
 40
0.4187981383
 40
0.4374798679
 40
0.4566219099
 40
0.4762159462
 40
0.5167240395
 40
0.5589296956
 40
0.6027512093
 40
0.648101029
 40
0.6948863323
 40
0.7430095268
 40
0.7923686515
 40
0.8428581366
 40
0.894368089
 40
0.9467878086
 40
1.0
 40
1.0
 40
1.0
 40
1.0
 10
13.4291825979
 20
6.5404883482
 30
0.0
 10
13.4277673668
 20
6.5391712606
 30
0.0
 10
13.4249381053
 20
6.5366611348
 30
0.0
 10
13.4205971912
 20
6.5332054631
 30
0.0
 10
13.4162607346
 20
6.5301497577
 30
0.0
 10
13.4119312597
 20
6.5274961227
 30
0.0
 10
13.4076108526
 20
6.5252464633
 30
0.0
 10
13.4033017964
 20
6.5234025586
 30
0.0
 10
13.3990065129
 20
6.5219661559
 30
0.0
 10
13.3947276239
 20
6.5209390431
 30
0.0
 10
13.390468107
 20
6.5203224626
 30
0.0
 10
13.3862311666
 20
6.5201176365
 30
0.0
 10
13.3820202975
 20
6.5203249317
 30
0.0
 10
13.37783906
 20
6.5209443155
 30
0.0
 10
13.3736909404
 20
6.5219750488
 30
0.0
 10
13.369579103
 20
6.5234157299
 30
0.0
 10
13.365506465
 20
6.5252648172
 30
0.0
 10
13.3614754566
 20
6.527520212
 30
0.0
 10
13.3574883889
 20
6.5301799946
 30
0.0
 10
13.3535472716
 20
6.5332419603
 30
0.0
 10
13.3496540632
 20
6.5367039359
 30
0.0
 10
13.345810744
 20
6.5405636912
 30
0.0
 10
13.3420191483
 20
6.5448187567
 30
0.0
 10
13.3382813416
 20
6.5494666744
 30
0.0
 10
13.334599192
 20
6.5545046415
 30
0.0
 10
13.3309747599
 20
6.5599297745
 30
0.0
 10
13.3274100321
 20
6.5657389132
 30
0.0
 10
13.3239069748
 20
6.5719286743
 30
0.0
 10
13.3204676677
 20
6.5784954921
 30
0.0
 10
13.3170939911
 20
6.5854355001
 30
0.0
 10
13.3137880042
 20
6.5927446753
 30
0.0
 10
13.3105515742
 20
6.6004187103
 30
0.0
 10
13.307386629
 20
6.6084531053
 30
0.0
 10
13.3042950617
 20
6.6168431334
 30
0.0
 10
13.3012786406
 20
6.6255838353
 30
0.0
 10
13.2983392416
 20
6.6346700637
 30
0.0
 10
13.2954785276
 20
6.6440964308
 30
0.0
 10
13.2926982647
 20
6.6538573661
 30
0.0
 10
13.290000082
 20
6.6639470817
 30
0.0
 10
13.287385576
 20
6.6743595956
 30
0.0
 10
13.2848563533
 20
6.6850887347
 30
0.0
 10
13.2824138584
 20
6.6961281241
 30
0.0
 10
13.280059604
 20
6.7074712246
 30
0.0
 10
13.277006251
 20
6.7231654692
 30
0.0
 10
13.2734307659
 20
6.7434968963
 30
0.0
 10
13.2695591975
 20
6.7687329711
 30
0.0
 10
13.2660699425
 20
6.7950103986
 30
0.0
 10
13.2629713936
 20
6.8222667077
 30
0.0
 10
13.2602710389
 20
6.8504372198
 30
0.0
 10
13.2579753996
 20
6.879454993
 30
0.0
 10
13.2560900037
 20
6.9092510973
 30
0.0
 10
13.2546194341
 20
6.9397545906
 30
0.0
 10
13.2535671939
 20
6.9708931886
 30
0.0
 10
13.2529359176
 20
7.0025924949
 30
0.0
 10
13.2527976275
 20
7.0239048802
 30
0.0
 10
13.2527976275
 20
7.0346408741
 30
0.0
  0
SPLINE
  5
34F
100
AcDbEntity
  8
0
100
AcDbSpline
 62
7
  6
CONTINUOUS
 70
0
 71
3
 72
52
 73
48
 74
0
 42
0.0000001
 43
0.0000001
 44
0.0000000001
 40
0.0
 40
0.0
 40
0.0
 40
0.0
 40
0.0077273827
 40
0.0149619435
 40
0.0217485637
 40
0.0281437874
 40
0.0342171405
 40
0.0400516376
 40
0.0457417716
 40
0.0513901432
 40
0.0571017543
 40
0.0629779978
 40
0.069111195
 40
0.0755815933
 40
0.0824561621
 40
0.089788717
 40
0.097621943
 40
0.1059883077
 40
0.1149120909
 40
0.1244110574
 40
0.1344968404
 40
0.1451768856
 40
0.1564546037
 40
0.168329924
 40
0.1808004841
 40
0.1938610018
 40
0.2075043612
 40
0.2217217312
 40
0.2518323774
 40
0.2840926449
 40
0.3183806816
 40
0.3545578397
 40
0.392471282
 40
0.4319559839
 40
0.4728363635
 40
0.5149276713
 40
0.5580375324
 40
0.6019673528
 40
0.6465135623
 40
0.6914688276
 40
0.7366234204
 40
0.7817663637
 40
0.8266868987
 40
0.8711756614
 40
0.9150242141
 40
0.9580340522
 40
1.0
 40
1.0
 40
1.0
 40
1.0
 10
13.3580980203
 20
6.8620264094
 30
0.0
 10
13.3583632017
 20
6.8622732107
 30
0.0
 10
13.3588931677
 20
6.8627338622
 30
0.0
 10
13.3597148728
 20
6.8633394936
 30
0.0
 10
13.3605353489
 20
6.8638352955
 30
0.0
 10
13.3613538157
 20
6.8642203153
 30
0.0
 10
13.3621694726
 20
6.8644934996
 30
0.0
 10
13.3629811874
 20
6.8646539639
 30
0.0
 10
13.3637875366
 20
6.8647007814
 30
0.0
 10
13.3645867192
 20
6.8646335584
 30
0.0
 10
13.3653768907
 20
6.8644525548
 30
0.0
 10
13.3661563778
 20
6.8641584054
 30
0.0
 10
13.3669239762
 20
6.8637522939
 30
0.0
 10
13.3676787957
 20
6.863235303
 30
0.0
 10
13.3684201397
 20
6.8626084872
 30
0.0
 10
13.3691474744
 20
6.8618729153
 30
0.0
 10
13.369860116
 20
6.861029513
 30
0.0
 10
13.3705574501
 20
6.8600793606
 30
0.0
 10
13.3712387854
 20
6.8590235841
 30
0.0
 10
13.3719033322
 20
6.8578634016
 30
0.0
 10
13.3725504091
 20
6.8566002217
 30
0.0
 10
13.3731792101
 20
6.8552355309
 30
0.0
 10
13.3737889853
 20
6.8537709788
 30
0.0
 10
13.3743790303
 20
6.8522083523
 30
0.0
 10
13.3749485597
 20
6.8505495436
 30
0.0
 10
13.3754969131
 20
6.8487966016
 30
0.0
 10
13.376023407
 20
6.8469516769
 30
0.0
 10
13.3767084671
 20
6.8443215292
 30
0.0
 10
13.3775001494
 20
6.8408183544
 30
0.0
 10
13.3783362597
 20
6.8363639318
 30
0.0
 10
13.3790714246
 20
6.831603841
 30
0.0
 10
13.3797019077
 20
6.8265616861
 30
0.0
 10
13.3802244728
 20
6.8212624255
 30
0.0
 10
13.38063644
 20
6.8157323627
 30
0.0
 10
13.3809356832
 20
6.8099989691
 30
0.0
 10
13.3811206658
 20
6.804090756
 30
0.0
 10
13.381190431
 20
6.7980371197
 30
0.0
 10
13.381144599
 20
6.7918681864
 30
0.0
 10
13.3809833663
 20
6.7856146628
 30
0.0
 10
13.3807075199
 20
6.7793076823
 30
0.0
 10
13.3803184306
 20
6.7729786506
 30
0.0
 10
13.3798180353
 20
6.7666590784
 30
0.0
 10
13.3792088228
 20
6.7603804211
 30
0.0
 10
13.3784938268
 20
6.7541739999
 30
0.0
 10
13.3776766472
 20
6.7480705424
 30
0.0
 10
13.376761343
 20
6.7421006593
 30
0.0
 10
13.3760794316
 20
6.7381754566
 30
0.0
 10
13.375722067
 20
6.7362408221
 30
0.0
  0
SPLINE
  5
350
100
AcDbEntity
  8
0
100
AcDbSpline
 62
7
  6
CONTINUOUS
 70
0
 71
3
 72
23
 73
19
 74
0
 42
0.0000001
 43
0.0000001
 44
0.0000000001
 40
0.0
 40
0.0
 40
0.0
 40
0.0
 40
0.0637762098
 40
0.1273451791
 40
0.1907020044
 40
0.2538560229
 40
0.3168132268
 40
0.3795820734
 40
0.4421733797
 40
0.5045993379
 40
0.5668738619
 40
0.6290123843
 40
0.6910316585
 40
0.7529496507
 40
0.8147853611
 40
0.8765586136
 40
0.9382898615
 40
1.0
 40
1.0
 40
1.0
 40
1.0
 10
11.342981418
 20
6.780643583
 30
0.0
 10
11.342981418
 20
6.7852104013
 30
0.0
 10
11.3432000341
 20
6.7943307446
 30
0.0
 10
11.3441865911
 20
6.8079557534
 30
0.0
 10
11.3458292836
 20
6.8214728077
 30
0.0
 10
11.348124162
 20
6.8348500539
 30
0.0
 10
11.3510660584
 20
6.8480569963
 30
0.0
 10
11.3546481817
 20
6.8610631046
 30
0.0
 10
11.3588623095
 20
6.8738383937
 30
0.0
 10
11.3636988012
 20
6.8863533977
 30
0.0
 10
11.3691464704
 20
6.8985792714
 30
0.0
 10
11.3751927856
 20
6.9104878185
 30
0.0
 10
11.3818238784
 20
6.922051537
 30
0.0
 10
11.3890244344
 20
6.9332437784
 30
0.0
 10
11.3967778217
 20
6.9440387129
 30
0.0
 10
11.4050662991
 20
6.9544114926
 30
0.0
 10
11.4138704292
 20
6.9643378548
 30
0.0
 10
11.4200712086
 20
6.9706437578
 30
0.0
 10
11.4232494952
 20
6.9737137636
 30
0.0
  0
SPLINE
  5
351
100
AcDbEntity
  8
0
100
AcDbSpline
 62
7
  6
CONTINUOUS
 70
0
 71
3
 72
45
 73
41
 74
0
 42
0.0000001
 43
0.0000001
 44
0.0000000001
 40
0.0
 40
0.0
 40
0.0
 40
0.0
 40
0.01497214
 40
0.0299473369
 40
0.0449286345
 40
0.0599190336
 40
0.0749214831
 40
0.089938858
 40
0.1049739401
 40
0.1200294101
 40
0.1351078174
 40
0.1502115844
 40
0.1653429709
 40
0.180504084
 40
0.2109173596
 40
0.2414702626
 40
0.272172708
 40
0.3030312068
 40
0.3340487697
 40
0.3652248943
 40
0.3965556293
 40
0.4280337098
 40
0.4596487579
 40
0.4913875395
 40
0.5232342716
 40
0.5551709708
 40
0.5871778361
 40
0.6192336592
 40
0.6513162553
 40
0.6834029069
 40
0.7154708163
 40
0.7474975582
 40
0.7794615275
 40
0.8113423757
 40
0.8431214263
 40
0.8747820819
 40
0.906310132
 40
0.937694264
 40
0.9689257723
 40
1.0
 40
1.0
 40
1.0
 40
1.0
 10
8.7551696672
 20
9.1762868557
 30
0.0
 10
8.7527141636
 20
9.1739150086
 30
0.0
 10
8.7477078063
 20
9.1692679029
 30
0.0
 10
8.7399263382
 20
9.1626004623
 30
0.0
 10
8.7318828916
 20
9.1562445445
 30
0.0
 10
8.723588615
 20
9.150209139
 30
0.0
 10
8.7150549707
 20
9.1445023871
 30
0.0
 10
8.7062936197
 20
9.1391322952
 30
0.0
 10
8.6973167132
 20
9.1341060872
 30
0.0
 10
8.6881365213
 20
9.1294308373
 30
0.0
 10
8.678765741
 20
9.1251128206
 30
0.0
 10
8.6692172613
 20
9.1211581104
 30
0.0
 10
8.6595040689
 20
9.1175720076
 30
0.0
 10
8.6463395461
 20
9.1132847039
 30
0.0
 10
8.6295317568
 20
9.1088719066
 30
0.0
 10
8.6089477365
 20
9.1051254389
 30
0.0
 10
8.5880374321
 20
9.1029413705
 30
0.0
 10
8.566916696
 20
9.10233173
 30
0.0
 10
8.5457014759
 20
9.1032995178
 30
0.0
 10
8.5245084485
 20
9.1058391693
 30
0.0
 10
8.5034540417
 20
9.1099364723
 30
0.0
 10
8.4826538947
 20
9.1155686884
 30
0.0
 10
8.4622222071
 20
9.1227046766
 30
0.0
 10
8.4422711271
 20
9.1313050713
 30
0.0
 10
8.422910143
 20
9.1413225011
 30
0.0
 10
8.4042454918
 20
9.1527018501
 30
0.0
 10
8.3863795831
 20
9.1653805598
 30
0.0
 10
8.3694104454
 20
9.179288971
 30
0.0
 10
8.3534311943
 20
9.1943507039
 30
0.0
 10
8.3385295252
 20
9.2104830709
 30
0.0
 10
8.3247872373
 20
9.2275975281
 30
0.0
 10
8.3122797906
 20
9.2456001575
 30
0.0
 10
8.3010758947
 20
9.2643921759
 30
0.0
 10
8.2912371366
 20
9.2838704737
 30
0.0
 10
8.282817637
 20
9.3039281612
 30
0.0
 10
8.2758637759
 20
9.3244551929
 30
0.0
 10
8.270413879
 20
9.3453387998
 30
0.0
 10
8.2664981377
 20
9.366464705
 30
0.0
 10
8.2641381908
 20
9.3877153898
 30
0.0
 10
8.2636096212
 20
9.4019278694
 30
0.0
 10
8.2636096212
 20
9.4090134513
 30
0.0
  0
SPLINE
  5
352
100
AcDbEntity
  8
0
100
AcDbSpline
 62
7
  6
CONTINUOUS
 70
0
 71
3
 72
34
 73
30
 74
0
 42
0.0000001
 43
0.0000001
 44
0.0000000001
 40
0.0
 40
0.0
 40
0.0
 40
0.0
 40
0.0319820329
 40
0.0638459993
 40
0.0955901239
 40
0.127221588
 40
0.1587458311
 40
0.1901702871
 40
0.2215036268
 40
0.2527550365
 40
0.2839345982
 40
0.315052484
 40
0.3461187811
 40
0.3771438529
 40
0.4081373095
 40
0.4391085185
 40
0.4700665002
 40
0.5010191605
 40
0.5319744974
 40
0.5629391618
 40
0.5939197676
 40
0.6249219034
 40
0.687000313
 40
0.7492212931
 40
0.7803985957
 40
0.8116210659
 40
0.8742030445
 40
0.9369920754
 40
1.0
 40
1.0
 40
1.0
 40
1.0
 10
10.4762998585
 20
8.048155552
 30
0.0
 10
10.4762998585
 20
8.0516200822
 30
0.0
 10
10.4764889622
 20
8.0585378789
 30
0.0
 10
10.477341541
 20
8.0688627683
 30
0.0
 10
10.4787574237
 20
8.0790875637
 30
0.0
 10
10.4807276626
 20
8.0891825226
 30
0.0
 10
10.4832404331
 20
8.0991205139
 30
0.0
 10
10.4862808803
 20
8.1088760191
 30
0.0
 10
10.4898319189
 20
8.1184258074
 30
0.0
 10
10.4938745467
 20
8.1277490221
 30
0.0
 10
10.4983880502
 20
8.1368273507
 30
0.0
 10
10.5033508587
 20
8.1456448514
 30
0.0
 10
10.5087407087
 20
8.1541879729
 30
0.0
 10
10.5145348792
 20
8.1624455057
 30
0.0
 10
10.5207108801
 20
8.1704082044
 30
0.0
 10
10.5272463232
 20
8.1780688274
 30
0.0
 10
10.5341193366
 20
8.1854217908
 30
0.0
 10
10.5413087413
 20
8.192462991
 30
0.0
 10
10.5487939875
 20
8.199189682
 30
0.0
 10
10.5565554489
 20
8.2056001398
 30
0.0
 10
10.5645744107
 20
8.211693739
 30
0.0
 10
10.5755892703
 20
8.2193985097
 30
0.0
 10
10.5899208226
 20
8.2282417247
 30
0.0
 10
10.6048712821
 20
8.2360291957
 30
0.0
 10
10.6171525965
 20
8.2416394679
 30
0.0
 10
10.6296519273
 20
8.2468480705
 30
0.0
 10
10.6456253456
 20
8.2525965811
 30
0.0
 10
10.665234734
 20
8.2582879161
 30
0.0
 10
10.6785371356
 20
8.2612893298
 30
0.0
 10
10.6852362682
 20
8.2625965619
 30
0.0
  0
SPLINE
  5
353
100
AcDbEntity
  8
0
100
AcDbSpline
 62
7
  6
CONTINUOUS
 70
0
 71
3
 72
15
 73
11
 74
0
 42
0.0000001
 43
0.0000001
 44
0.0000000001
 40
0.0
 40
0.0
 40
0.0
 40
0.0
 40
0.1269643254
 40
0.2532991934
 40
0.3790150169
 40
0.5041525704
 40
0.6287555431
 40
0.7528834621
 40
0.8766053931
 40
1.0
 40
1.0
 40
1.0
 40
1.0
 10
9.9957326933
 20
8.1147086238
 30
0.0
 10
9.9957326933
 20
8.1177446902
 30
0.0
 10
9.9959525877
 20
8.1238041555
 30
0.0
 10
9.9969461165
 20
8.1328207274
 30
0.0
 10
9.9985975687
 20
8.1416964689
 30
0.0
 10
10.0008980941
 20
8.1503836753
 30
0.0
 10
10.0038357467
 20
8.1588365489
 30
0.0
 10
10.0073950944
 20
8.1670103728
 30
0.0
 10
10.0115569929
 20
8.1748612619
 30
0.0
 10
10.014723109
 20
8.1798590007
 30
0.0
 10
10.0163977372
 20
8.1822884612
 30
0.0
  0
SPLINE
  5
354
100
AcDbEntity
  8
0
100
AcDbSpline
 62
7
  6
CONTINUOUS
 70
0
 71
3
 72
45
 73
41
 74
0
 42
0.0000001
 43
0.0000001
 44
0.0000000001
 40
0.0
 40
0.0
 40
0.0
 40
0.0
 40
0.01497214
 40
0.0299473369
 40
0.0449286345
 40
0.0599190336
 40
0.0749214831
 40
0.089938858
 40
0.1049739401
 40
0.1200294101
 40
0.1351078174
 40
0.1502115844
 40
0.1653429709
 40
0.180504084
 40
0.2109173596
 40
0.2414702626
 40
0.272172708
 40
0.3030312068
 40
0.3340487697
 40
0.3652248943
 40
0.3965556293
 40
0.4280337098
 40
0.4596487579
 40
0.4913875395
 40
0.5232342716
 40
0.5551709708
 40
0.5871778361
 40
0.6192336592
 40
0.6513162553
 40
0.6834029069
 40
0.7154708163
 40
0.7474975582
 40
0.7794615275
 40
0.8113423757
 40
0.8431214263
 40
0.8747820819
 40
0.906310132
 40
0.937694264
 40
0.9689257723
 40
1.0
 40
1.0
 40
1.0
 40
1.0
 10
11.834541464
 20
8.9627316963
 30
0.0
 10
11.8320859604
 20
8.9603598491
 30
0.0
 10
11.8270796031
 20
8.9557127434
 30
0.0
 10
11.819298135
 20
8.9490453028
 30
0.0
 10
11.8112546884
 20
8.9426893851
 30
0.0
 10
11.8029604118
 20
8.9366539795
 30
0.0
 10
11.7944267675
 20
8.9309472277
 30
0.0
 10
11.7856654165
 20
8.9255771357
 30
0.0
 10
11.77668851
 20
8.9205509277
 30
0.0
 10
11.7675083181
 20
8.9158756779
 30
0.0
 10
11.7581375378
 20
8.9115576612
 30
0.0
 10
11.7485890581
 20
8.907602951
 30
0.0
 10
11.7388758657
 20
8.9040168481
 30
0.0
 10
11.7257113429
 20
8.8997295444
 30
0.0
 10
11.7089035537
 20
8.8953167472
 30
0.0
 10
11.6883195333
 20
8.8915702795
 30
0.0
 10
11.667409229
 20
8.8893862111
 30
0.0
 10
11.6462884928
 20
8.8887765705
 30
0.0
 10
11.6250732727
 20
8.8897443583
 30
0.0
 10
11.6038802453
 20
8.8922840099
 30
0.0
 10
11.5828258385
 20
8.8963813129
 30
0.0
 10
11.5620256915
 20
8.902013529
 30
0.0
 10
11.5415940039
 20
8.9091495172
 30
0.0
 10
11.5216429239
 20
8.9177499119
 30
0.0
 10
11.5022819399
 20
8.9277673417
 30
0.0
 10
11.4836172886
 20
8.9391466906
 30
0.0
 10
11.4657513799
 20
8.9518254004
 30
0.0
 10
11.4487822423
 20
8.9657338116
 30
0.0
 10
11.4328029911
 20
8.9807955444
 30
0.0
 10
11.417901322
 20
8.9969279115
 30
0.0
 10
11.4041590341
 20
9.0140423686
 30
0.0
 10
11.3916515874
 20
9.0320449981
 30
0.0
 10
11.3804476915
 20
9.0508370164
 30
0.0
 10
11.3706089335
 20
9.0703153143
 30
0.0
 10
11.3621894338
 20
9.0903730018
 30
0.0
 10
11.3552355727
 20
9.1109000334
 30
0.0
 10
11.3497856758
 20
9.1317836404
 30
0.0
 10
11.3458699345
 20
9.1529095455
 30
0.0
 10
11.3435099876
 20
9.1741602303
 30
0.0
 10
11.342981418
 20
9.1883727099
 30
0.0
 10
11.342981418
 20
9.1954582918
 30
0.0
  0
SPLINE
  5
355
100
AcDbEntity
  8
0
100
AcDbSpline
 62
7
  6
CONTINUOUS
 70
0
 71
3
 72
23
 73
19
 74
0
 42
0.0000001
 43
0.0000001
 44
0.0000000001
 40
0.0
 40
0.0
 40
0.0
 40
0.0
 40
0.0637762098
 40
0.1273451791
 40
0.1907020044
 40
0.2538560229
 40
0.3168132268
 40
0.3795820734
 40
0.4421733797
 40
0.5045993379
 40
0.5668738619
 40
0.6290123843
 40
0.6910316585
 40
0.7529496507
 40
0.8147853611
 40
0.8765586136
 40
0.9382898615
 40
1.0
 40
1.0
 40
1.0
 40
1.0
 10
11.342981418
 20
9.1954582918
 30
0.0
 10
11.342981418
 20
9.2000251102
 30
0.0
 10
11.3432000341
 20
9.2091454534
 30
0.0
 10
11.3441865911
 20
9.2227704622
 30
0.0
 10
11.3458292836
 20
9.2362875165
 30
0.0
 10
11.348124162
 20
9.2496647627
 30
0.0
 10
11.3510660584
 20
9.2628717051
 30
0.0
 10
11.3546481817
 20
9.2758778134
 30
0.0
 10
11.3588623095
 20
9.2886531025
 30
0.0
 10
11.3636988012
 20
9.3011681065
 30
0.0
 10
11.3691464704
 20
9.3133939802
 30
0.0
 10
11.3751927856
 20
9.3253025273
 30
0.0
 10
11.3818238784
 20
9.3368662458
 30
0.0
 10
11.3890244344
 20
9.3480584872
 30
0.0
 10
11.3967778217
 20
9.3588534217
 30
0.0
 10
11.4050662991
 20
9.3692262014
 30
0.0
 10
11.4138704292
 20
9.3791525636
 30
0.0
 10
11.4200712086
 20
9.3854584666
 30
0.0
 10
11.4232494952
 20
9.3885284724
 30
0.0
  0
SPLINE
  5
356
100
AcDbEntity
  8
0
100
AcDbSpline
 62
7
  6
CONTINUOUS
 70
0
 71
3
 72
45
 73
41
 74
0
 42
0.0000001
 43
0.0000001
 44
0.0000000001
 40
0.0
 40
0.0
 40
0.0
 40
0.0
 40
0.01497214
 40
0.0299473369
 40
0.0449286345
 40
0.0599190336
 40
0.0749214831
 40
0.089938858
 40
0.1049739401
 40
0.1200294101
 40
0.1351078174
 40
0.1502115844
 40
0.1653429709
 40
0.180504084
 40
0.2109173596
 40
0.2414702626
 40
0.272172708
 40
0.3030312068
 40
0.3340487697
 40
0.3652248943
 40
0.3965556293
 40
0.4280337098
 40
0.4596487579
 40
0.4913875395
 40
0.5232342716
 40
0.5551709708
 40
0.5871778361
 40
0.6192336592
 40
0.6513162553
 40
0.6834029069
 40
0.7154708163
 40
0.7474975582
 40
0.7794615275
 40
0.8113423757
 40
0.8431214263
 40
0.8747820819
 40
0.906310132
 40
0.937694264
 40
0.9689257723
 40
1.0
 40
1.0
 40
1.0
 40
1.0
 10
11.834541464
 20
6.5479169875
 30
0.0
 10
11.8320859604
 20
6.5455451403
 30
0.0
 10
11.8270796031
 20
6.5408980346
 30
0.0
 10
11.819298135
 20
6.534230594
 30
0.0
 10
11.8112546884
 20
6.5278746763
 30
0.0
 10
11.8029604118
 20
6.5218392707
 30
0.0
 10
11.7944267675
 20
6.5161325189
 30
0.0
 10
11.7856654165
 20
6.5107624269
 30
0.0
 10
11.77668851
 20
6.5057362189
 30
0.0
 10
11.7675083181
 20
6.5010609691
 30
0.0
 10
11.7581375378
 20
6.4967429523
 30
0.0
 10
11.7485890581
 20
6.4927882422
 30
0.0
 10
11.7388758657
 20
6.4892021393
 30
0.0
 10
11.7257113429
 20
6.4849148356
 30
0.0
 10
11.7089035537
 20
6.4805020384
 30
0.0
 10
11.6883195333
 20
6.4767555707
 30
0.0
 10
11.667409229
 20
6.4745715023
 30
0.0
 10
11.6462884928
 20
6.4739618617
 30
0.0
 10
11.6250732727
 20
6.4749296495
 30
0.0
 10
11.6038802453
 20
6.4774693011
 30
0.0
 10
11.5828258385
 20
6.4815666041
 30
0.0
 10
11.5620256915
 20
6.4871988202
 30
0.0
 10
11.5415940039
 20
6.4943348084
 30
0.0
 10
11.5216429239
 20
6.5029352031
 30
0.0
 10
11.5022819399
 20
6.5129526329
 30
0.0
 10
11.4836172886
 20
6.5243319818
 30
0.0
 10
11.4657513799
 20
6.5370106915
 30
0.0
 10
11.4487822423
 20
6.5509191028
 30
0.0
 10
11.4328029911
 20
6.5659808356
 30
0.0
 10
11.417901322
 20
6.5821132026
 30
0.0
 10
11.4041590341
 20
6.5992276598
 30
0.0
 10
11.3916515874
 20
6.6172302893
 30
0.0
 10
11.3804476915
 20
6.6360223076
 30
0.0
 10
11.3706089335
 20
6.6555006055
 30
0.0
 10
11.3621894338
 20
6.675558293
 30
0.0
 10
11.3552355727
 20
6.6960853246
 30
0.0
 10
11.3497856758
 20
6.7169689316
 30
0.0
 10
11.3458699345
 20
6.7380948367
 30
0.0
 10
11.3435099876
 20
6.7593455215
 30
0.0
 10
11.342981418
 20
6.7735580011
 30
0.0
 10
11.342981418
 20
6.780643583
 30
0.0
  0
SPLINE
  5
357
100
AcDbEntity
  8
0
100
AcDbSpline
 62
7
  6
CONTINUOUS
 70
0
 71
3
 72
43
 73
39
 74
0
 42
0.0000001
 43
0.0000001
 44
0.0000000001
 40
0.0
 40
0.0
 40
0.0
 40
0.0
 40
0.030965824
 40
0.0465044936
 40
0.06207711
 40
0.0933193983
 40
0.1246897337
 40
0.1404218196
 40
0.1561819942
 40
0.1877762893
 40
0.2194630318
 40
0.2512272564
 40
0.2830529226
 40
0.3149232486
 40
0.3468210184
 40
0.3787288808
 40
0.4106296277
 40
0.4425064538
 40
0.4743431913
 40
0.5061245176
 40
0.5378361404
 40
0.5694649605
 40
0.6009992135
 40
0.6324285939
 40
0.6637443612
 40
0.6949394316
 40
0.7260084573
 40
0.7569478884
 40
0.7877560225
 40
0.8184330428
 40
0.8489810427
 40
0.864209741
 40
0.8794078522
 40
0.9097117569
 40
0.9399043746
 40
0.9549638909
 40
0.9699993466
 40
1.0
 40
1.0
 40
1.0
 40
1.0
 10
10.0892096056
 20
8.641367644
 30
0.0
 10
10.0839372928
 20
8.6417332801
 30
0.0
 10
10.0760345322
 20
8.6425488622
 30
0.0
 10
10.0655615139
 20
8.6441593993
 30
0.0
 10
10.0551005857
 20
8.6461236469
 30
0.0
 10
10.04211343
 20
8.6492325184
 30
0.0
 10
10.0293300532
 20
8.6531870947
 30
0.0
 10
10.01924371
 20
8.6568487964
 30
0.0
 10
10.0092442532
 20
8.6608456292
 30
0.0
 10
9.9969624069
 20
8.6664495155
 30
0.0
 10
9.9826489378
 20
8.6741044763
 30
0.0
 10
9.9688071021
 20
8.682658176
 30
0.0
 10
9.9554949684
 20
8.6920688949
 30
0.0
 10
9.9427667368
 20
8.7022917135
 30
0.0
 10
9.9306732011
 20
8.713278694
 30
0.0
 10
9.9192614609
 20
8.7249793435
 30
0.0
 10
9.9085749039
 20
8.7373409835
 30
0.0
 10
9.8986531698
 20
8.7503091114
 30
0.0
 10
9.8895321702
 20
8.7638277287
 30
0.0
 10
9.8812441397
 20
8.7778396411
 30
0.0
 10
9.8738177052
 20
8.7922867184
 30
0.0
 10
9.8672779723
 20
8.8071101214
 30
0.0
 10
9.8616466172
 20
8.8222504941
 30
0.0
 10
9.8569419818
 20
8.837648125
 30
0.0
 10
9.8531791638
 20
8.8532430816
 30
0.0
 10
9.8503700994
 20
8.8689753161
 30
0.0
 10
9.8485236249
 20
8.884784766
 30
0.0
 10
9.8476455275
 20
8.9006113829
 30
0.0
 10
9.8477386168
 20
8.9163953667
 30
0.0
 10
9.8488026214
 20
8.9320765888
 30
0.0
 10
9.8504977412
 20
8.945023872
 30
0.0
 10
9.8523356999
 20
8.9552684562
 30
0.0
 10
9.8544885361
 20
8.9654089543
 30
0.0
 10
9.857773608
 20
8.977912879
 30
0.0
 10
9.8618488201
 20
8.9901573261
 30
0.0
 10
9.8655712868
 20
8.9997515338
 30
0.0
 10
9.8695921835
 20
9.0091885053
 30
0.0
 10
9.8729528488
 20
9.016109443
 30
0.0
 10
9.8753411934
 20
9.0206385446
 30
0.0
  0
SPLINE
  5
358
100
AcDbEntity
  8
0
100
AcDbSpline
 62
7
  6
CONTINUOUS
 70
0
 71
3
 72
39
 73
35
 74
0
 42
0.0000001
 43
0.0000001
 44
0.0000000001
 40
0.0
 40
0.0
 40
0.0
 40
0.0
 40
0.0309613626
 40
0.0620697052
 40
0.0933174444
 40
0.1247003547
 40
0.1562085199
 40
0.1878309248
 40
0.21955429
 40
0.2513635999
 40
0.2832423867
 40
0.3151729803
 40
0.3471368288
 40
0.3791148114
 40
0.4110875741
 40
0.4430358561
 40
0.4749408096
 40
0.5067843161
 40
0.538549302
 40
0.5702200483
 40
0.6017824699
 40
0.6332243717
 40
0.6645356789
 40
0.6957086458
 40
0.7267380353
 40
0.7576212452
 40
0.7883583874
 40
0.8189523209
 40
0.8494086382
 40
0.8797356051
 40
0.909944031
 40
0.9400470813
 40
0.9700600358
 40
1.0
 40
1.0
 40
1.0
 40
1.0
 10
9.9957326933
 20
8.1147086238
 30
0.0
 10
9.9957326933
 20
8.1118382212
 30
0.0
 10
9.9959301906
 20
8.1060819077
 30
0.0
 10
9.9968123725
 20
8.09746935
 30
0.0
 10
9.998277248
 20
8.0888965748
 30
0.0
 10
10.0003176334
 20
8.0804043519
 30
0.0
 10
10.0029241118
 20
8.0720321082
 30
0.0
 10
10.0060843842
 20
8.0638190678
 30
0.0
 10
10.0097836415
 20
8.0558035834
 30
0.0
 10
10.0140045408
 20
8.0480231063
 30
0.0
 10
10.0187273225
 20
8.0405139836
 30
0.0
 10
10.0239298995
 20
8.0333113
 30
0.0
 10
10.0295879586
 20
8.0264487205
 30
0.0
 10
10.0356750416
 20
8.0199583076
 30
0.0
 10
10.0421626885
 20
8.0138703814
 30
0.0
 10
10.0490205841
 20
8.0082133945
 30
0.0
 10
10.0562166907
 20
8.0030137974
 30
0.0
 10
10.0637173993
 20
7.9982959252
 30
0.0
 10
10.0714876642
 20
7.9940818534
 30
0.0
 10
10.0794911735
 20
7.9903912961
 30
0.0
 10
10.087690532
 20
7.9872415418
 30
0.0
 10
10.0960474265
 20
7.9846473662
 30
0.0
 10
10.1045228021
 20
7.9826209719
 30
0.0
 10
10.113077035
 20
7.9811719043
 30
0.0
 10
10.1216701188
 20
7.9803069903
 30
0.0
 10
10.1302618581
 20
7.9800303456
 30
0.0
 10
10.1388120492
 20
7.9803433446
 30
0.0
 10
10.1472806643
 20
7.9812446177
 30
0.0
 10
10.1556280335
 20
7.982730035
 30
0.0
 10
10.1638150562
 20
7.9847927021
 30
0.0
 10
10.171803323
 20
7.9874229987
 30
0.0
 10
10.1795555037
 20
7.9906087554
 30
0.0
 10
10.1870347443
 20
7.9943347766
 30
0.0
 10
10.1918215718
 20
7.9971710471
 30
0.0
 10
10.1941563247
 20
7.9986722109
 30
0.0
  0
SPLINE
  5
359
100
AcDbEntity
  8
0
100
AcDbSpline
 62
7
  6
CONTINUOUS
 70
0
 71
3
 72
45
 73
41
 74
0
 42
0.0000001
 43
0.0000001
 44
0.0000000001
 40
0.0
 40
0.0
 40
0.0
 40
0.0
 40
0.01497214
 40
0.0299473369
 40
0.0449286345
 40
0.0599190336
 40
0.0749214831
 40
0.089938858
 40
0.1049739401
 40
0.1200294101
 40
0.1351078174
 40
0.1502115844
 40
0.1653429709
 40
0.180504084
 40
0.2109173596
 40
0.2414702626
 40
0.272172708
 40
0.3030312068
 40
0.3340487697
 40
0.3652248943
 40
0.3965556293
 40
0.4280337098
 40
0.4596487579
 40
0.4913875395
 40
0.5232342716
 40
0.5551709708
 40
0.5871778361
 40
0.6192336592
 40
0.6513162553
 40
0.6834029069
 40
0.7154708163
 40
0.7474975582
 40
0.7794615275
 40
0.8113423757
 40
0.8431214263
 40
0.8747820819
 40
0.906310132
 40
0.937694264
 40
0.9689257723
 40
1.0
 40
1.0
 40
1.0
 40
1.0
 10
8.7551696672
 20
6.7614721469
 30
0.0
 10
8.7527141636
 20
6.7591002998
 30
0.0
 10
8.7477078063
 20
6.7544531941
 30
0.0
 10
8.7399263382
 20
6.7477857535
 30
0.0
 10
8.7318828916
 20
6.7414298357
 30
0.0
 10
8.723588615
 20
6.7353944302
 30
0.0
 10
8.7150549707
 20
6.7296876783
 30
0.0
 10
8.7062936197
 20
6.7243175864
 30
0.0
 10
8.6973167132
 20
6.7192913784
 30
0.0
 10
8.6881365213
 20
6.7146161285
 30
0.0
 10
8.678765741
 20
6.7102981118
 30
0.0
 10
8.6692172613
 20
6.7063434016
 30
0.0
 10
8.6595040689
 20
6.7027572988
 30
0.0
 10
8.6463395461
 20
6.6984699951
 30
0.0
 10
8.6295317568
 20
6.6940571978
 30
0.0
 10
8.6089477365
 20
6.6903107301
 30
0.0
 10
8.5880374321
 20
6.6881266617
 30
0.0
 10
8.566916696
 20
6.6875170212
 30
0.0
 10
8.5457014759
 20
6.688484809
 30
0.0
 10
8.5245084485
 20
6.6910244605
 30
0.0
 10
8.5034540417
 20
6.6951217635
 30
0.0
 10
8.4826538947
 20
6.7007539796
 30
0.0
 10
8.4622222071
 20
6.7078899678
 30
0.0
 10
8.4422711271
 20
6.7164903625
 30
0.0
 10
8.422910143
 20
6.7265077923
 30
0.0
 10
8.4042454918
 20
6.7378871413
 30
0.0
 10
8.3863795831
 20
6.750565851
 30
0.0
 10
8.3694104454
 20
6.7644742622
 30
0.0
 10
8.3534311943
 20
6.7795359951
 30
0.0
 10
8.3385295252
 20
6.7956683621
 30
0.0
 10
8.3247872373
 20
6.8127828192
 30
0.0
 10
8.3122797906
 20
6.8307854487
 30
0.0
 10
8.3010758947
 20
6.8495774671
 30
0.0
 10
8.2912371366
 20
6.8690557649
 30
0.0
 10
8.282817637
 20
6.8891134524
 30
0.0
 10
8.2758637759
 20
6.909640484
 30
0.0
 10
8.270413879
 20
6.930524091
 30
0.0
 10
8.2664981377
 20
6.9516499961
 30
0.0
 10
8.2641381908
 20
6.972900681
 30
0.0
 10
8.2636096212
 20
6.9871131605
 30
0.0
 10
8.2636096212
 20
6.9941987425
 30
0.0
  0
SPLINE
  5
35A
100
AcDbEntity
  8
0
100
AcDbSpline
 62
7
  6
CONTINUOUS
 70
0
 71
3
 72
21
 73
17
 74
0
 42
0.0000001
 43
0.0000001
 44
0.0000000001
 40
0.0
 40
0.0
 40
0.0
 40
0.0
 40
0.1273177709
 40
0.2537997
 40
0.316761822
 40
0.3795355919
 40
0.4421314898
 40
0.5045621236
 40
0.5668413499
 40
0.6289845405
 40
0.6910084572
 40
0.7529311131
 40
0.8147714634
 40
0.876549347
 40
0.938285237
 40
1.0
 40
1.0
 40
1.0
 40
1.0
 10
9.0885102908
 20
6.9060819958
 30
0.0
 10
9.0885102908
 20
6.910085694
 30
0.0
 10
9.0888924481
 20
6.9180719617
 30
0.0
 10
9.0903358456
 20
6.927944711
 30
0.0
 10
9.0920609251
 20
6.9356890413
 30
0.0
 10
9.0936341857
 20
6.9414012549
 30
0.0
 10
9.0954849434
 20
6.9470119894
 30
0.0
 10
9.0976090805
 20
6.9525084214
 30
0.0
 10
9.1000016044
 20
6.9578778801
 30
0.0
 10
9.102657066
 20
6.9631079678
 30
0.0
 10
9.1055693594
 20
6.9681866056
 30
0.0
 10
9.1087317069
 20
6.9731021274
 30
0.0
 10
9.1121369253
 20
6.9778431065
 30
0.0
 10
9.1157770795
 20
6.9823987323
 30
0.0
 10
9.1196437396
 20
6.9867582686
 30
0.0
 10
9.1223670324
 20
6.9895277526
 30
0.0
 10
9.1237628934
 20
6.9908760627
 30
0.0
  0
SPLINE
  5
35B
100
AcDbEntity
  8
0
100
AcDbSpline
 62
7
  6
CONTINUOUS
 70
0
 71
3
 72
17
 73
13
 74
0
 42
0.0000001
 43
0.0000001
 44
0.0000000001
 40
0.0
 40
0.0
 40
0.0
 40
0.0
 40
0.1251918672
 40
0.1878070855
 40
0.2504194281
 40
0.3756083687
 40
0.5007394788
 40
0.6257758947
 40
0.7506829451
 40
0.8130865993
 40
0.8754460042
 40
1.0
 40
1.0
 40
1.0
 40
1.0
 10
10.2877200786
 20
7.2920902106
 30
0.0
 10
10.2873582087
 20
7.2863240389
 30
0.0
 10
10.2871059076
 20
7.2776519667
 30
0.0
 10
10.2873516492
 20
7.2660963549
 30
0.0
 10
10.2879849212
 20
7.2545552188
 30
0.0
 10
10.2895020464
 20
7.2401817166
 30
0.0
 10
10.292474758
 20
7.2231032359
 30
0.0
 10
10.2965852553
 20
7.2062757202
 30
0.0
 10
10.3009443617
 20
7.192523628
 30
0.0
 10
10.3049783957
 20
7.1817286775
 30
0.0
 10
10.3093685406
 20
7.1710916665
 30
0.0
 10
10.3130636383
 20
7.163287621
 30
0.0
 10
10.3156986308
 20
7.1581790774
 30
0.0
  0
SPLINE
  5
35C
100
AcDbEntity
  8
0
100
AcDbSpline
 62
7
  6
CONTINUOUS
 70
0
 71
3
 72
43
 73
39
 74
0
 42
0.0000001
 43
0.0000001
 44
0.0000000001
 40
0.0
 40
0.0
 40
0.0
 40
0.0
 40
0.0149723247
 40
0.0299477031
 40
0.0449291853
 40
0.0599197654
 40
0.0899340882
 40
0.1200191806
 40
0.1350977717
 40
0.1502017219
 40
0.1804888772
 40
0.2109025199
 40
0.2414557901
 40
0.272158604
 40
0.3030174734
 40
0.3340354105
 40
0.3652119137
 40
0.3965430314
 40
0.4280214974
 40
0.459636932
 40
0.4913761003
 40
0.5232232193
 40
0.555160306
 40
0.58716756
 40
0.619223774
 40
0.6513067632
 40
0.6833938101
 40
0.7154621155
 40
0.7474892522
 40
0.7794536147
 40
0.8113348502
 40
0.8431143001
 40
0.8747753042
 40
0.9063038579
 40
0.93768806
 40
0.9533258676
 40
0.9689258095
 40
1.0
 40
1.0
 40
1.0
 40
1.0
 10
11.0546560386
 20
9.159124515
 30
0.0
 10
11.0535776083
 20
9.1580828222
 30
0.0
 10
11.051378872
 20
9.1560418521
 30
0.0
 10
11.0479613636
 20
9.153113563
 30
0.0
 10
11.0444287083
 20
9.1503220978
 30
0.0
 10
11.0395703325
 20
9.1467867304
 30
0.0
 10
11.0332307463
 20
9.1427268445
 30
0.0
 10
11.0265829834
 20
9.1391756589
 30
0.0
 10
11.0211002821
 20
9.1366493232
 30
0.0
 10
11.0155043222
 20
9.1343315408
 30
0.0
 10
11.0083249536
 20
9.1318392552
 30
0.0
 10
10.9994774613
 20
9.1295164871
 30
0.0
 10
10.9904369075
 20
9.1278709557
 30
0.0
 10
10.9812533934
 20
9.1269117396
 30
0.0
 10
10.9719773658
 20
9.1266439583
 30
0.0
 10
10.9626598643
 20
9.1270689763
 30
0.0
 10
10.9533521004
 20
9.12818434
 30
0.0
 10
10.9441052176
 20
9.1299838146
 30
0.0
 10
10.9349700027
 20
9.132457413
 30
0.0
 10
10.9259966116
 20
9.1355914557
 30
0.0
 10
10.9172342984
 20
9.1393686518
 30
0.0
 10
10.9087311488
 20
9.143768195
 30
0.0
 10
10.9005338203
 20
9.1487658782
 30
0.0
 10
10.8926872897
 20
9.1543342266
 30
0.0
 10
10.8852346097
 20
9.1604426469
 30
0.0
 10
10.8782166759
 20
9.1670575946
 30
0.0
 10
10.8716720047
 20
9.1741427558
 30
0.0
 10
10.8656365251
 20
9.181659245
 30
0.0
 10
10.860143378
 20
9.1895658133
 30
0.0
 10
10.85522274
 20
9.1978190733
 30
0.0
 10
10.850901653
 20
9.2063737439
 30
0.0
 10
10.8472039008
 20
9.215182861
 30
0.0
 10
10.8441498108
 20
9.2241981686
 30
0.0
 10
10.8417563204
 20
9.2333698594
 30
0.0
 10
10.8403213263
 20
9.2411117532
 30
0.0
 10
10.8395163452
 20
9.2473323187
 30
0.0
 10
10.8389418819
 20
9.2535469264
 30
0.0
 10
10.8387679116
 20
9.2582233775
 30
0.0
 10
10.8387679116
 20
9.2613352506
 30
0.0
  0
SPLINE
  5
35D
100
AcDbEntity
  8
0
100
AcDbSpline
 62
7
  6
CONTINUOUS
 70
0
 71
3
 72
16
 73
12
 74
0
 42
0.0000001
 43
0.0000001
 44
0.0000000001
 40
0.0
 40
0.0
 40
0.0
 40
0.0
 40
0.120517858
 40
0.2422581817
 40
0.3652708658
 40
0.4895954555
 40
0.6152445529
 40
0.7422128948
 40
0.8061915127
 40
0.8704887048
 40
1.0
 40
1.0
 40
1.0
 40
1.0
 10
10.2877200786
 20
7.2920902106
 30
0.0
 10
10.2880439766
 20
7.2875548209
 30
0.0
 10
10.2890041553
 20
7.2784572985
 30
0.0
 10
10.2913541264
 20
7.2648686049
 30
0.0
 10
10.2946119234
 20
7.2513204445
 30
0.0
 10
10.2987646551
 20
7.237865312
 30
0.0
 10
10.3037963119
 20
7.2245544104
 30
0.0
 10
10.3086935522
 20
7.2136513244
 30
0.0
 10
10.3130268446
 20
7.2050500354
 30
0.0
 10
10.3176570896
 20
7.196495877
 30
0.0
 10
10.32141923
 20
7.1902196278
 30
0.0
 10
10.3240497565
 20
7.1861018913
 30
0.0
  0
SPLINE
  5
35E
100
AcDbEntity
  8
0
100
AcDbSpline
 62
7
  6
CONTINUOUS
 70
0
 71
3
 72
43
 73
39
 74
0
 42
0.0000001
 43
0.0000001
 44
0.0000000001
 40
0.0
 40
0.0
 40
0.0
 40
0.0
 40
0.0149723247
 40
0.0299477031
 40
0.0449291853
 40
0.0599197654
 40
0.0899340882
 40
0.1200191806
 40
0.1350977717
 40
0.1502017219
 40
0.1804888772
 40
0.2109025199
 40
0.2414557901
 40
0.272158604
 40
0.3030174734
 40
0.3340354105
 40
0.3652119137
 40
0.3965430314
 40
0.4280214974
 40
0.459636932
 40
0.4913761003
 40
0.5232232193
 40
0.555160306
 40
0.58716756
 40
0.619223774
 40
0.6513067632
 40
0.6833938101
 40
0.7154621155
 40
0.7474892522
 40
0.7794536147
 40
0.8113348502
 40
0.8431143001
 40
0.8747753042
 40
0.9063038579
 40
0.93768806
 40
0.9533258676
 40
0.9689258095
 40
1.0
 40
1.0
 40
1.0
 40
1.0
 10
10.1795272858
 20
7.9814979124
 30
0.0
 10
10.1784488555
 20
7.9804562196
 30
0.0
 10
10.1762501192
 20
7.9784152495
 30
0.0
 10
10.1728326108
 20
7.9754869604
 30
0.0
 10
10.1692999555
 20
7.9726954952
 30
0.0
 10
10.1644415796
 20
7.9691601278
 30
0.0
 10
10.1581019934
 20
7.9651002419
 30
0.0
 10
10.1514542305
 20
7.9615490563
 30
0.0
 10
10.1459715293
 20
7.9590227206
 30
0.0
 10
10.1403755693
 20
7.9567049382
 30
0.0
 10
10.1331962007
 20
7.9542126526
 30
0.0
 10
10.1243487085
 20
7.9518898845
 30
0.0
 10
10.1153081547
 20
7.9502443531
 30
0.0
 10
10.1061246405
 20
7.9492851369
 30
0.0
 10
10.096848613
 20
7.9490173557
 30
0.0
 10
10.0875311114
 20
7.9494423737
 30
0.0
 10
10.0782233475
 20
7.9505577374
 30
0.0
 10
10.0689764648
 20
7.9523572119
 30
0.0
 10
10.0598412499
 20
7.9548308104
 30
0.0
 10
10.0508678588
 20
7.9579648531
 30
0.0
 10
10.0421055456
 20
7.9617420492
 30
0.0
 10
10.033602396
 20
7.9661415923
 30
0.0
 10
10.0254050675
 20
7.9711392756
 30
0.0
 10
10.0175585369
 20
7.976707624
 30
0.0
 10
10.0101058569
 20
7.9828160443
 30
0.0
 10
10.0030879231
 20
7.989430992
 30
0.0
 10
9.9965432519
 20
7.9965161532
 30
0.0
 10
9.9905077723
 20
8.0040326424
 30
0.0
 10
9.9850146252
 20
8.0119392107
 30
0.0
 10
9.9800939871
 20
8.0201924707
 30
0.0
 10
9.9757729002
 20
8.0287471413
 30
0.0
 10
9.972075148
 20
8.0375562584
 30
0.0
 10
9.969021058
 20
8.046571566
 30
0.0
 10
9.9666275676
 20
8.0557432568
 30
0.0
 10
9.9651925735
 20
8.0634851506
 30
0.0
 10
9.9643875924
 20
8.0697057161
 30
0.0
 10
9.9638131291
 20
8.0759203238
 30
0.0
 10
9.9636391587
 20
8.0805967749
 30
0.0
 10
9.9636391587
 20
8.083708648
 30
0.0
  0
SPLINE
  5
35F
100
AcDbEntity
  8
0
100
AcDbSpline
 62
7
  6
CONTINUOUS
 70
0
 71
3
 72
11
 73
7
 74
0
 42
0.0000001
 43
0.0000001
 44
0.0000000001
 40
0.0
 40
0.0
 40
0.0
 40
0.0
 40
0.2519103565
 40
0.5025112035
 40
0.7518515823
 40
1.0
 40
1.0
 40
1.0
 40
1.0
 10
10.2877200786
 20
7.2920902106
 30
0.0
 10
10.2877193673
 20
7.2985242362
 30
0.0
 10
10.2882037744
 20
7.3113642347
 30
0.0
 10
10.2903885211
 20
7.3304608445
 30
0.0
 10
10.2940218945
 20
7.3492379671
 30
0.0
 10
10.2974069375
 20
7.361501162
 30
0.0
 10
10.2993343882
 20
7.3675389136
 30
0.0
  0
SPLINE
  5
360
100
AcDbEntity
  8
0
100
AcDbSpline
 62
7
  6
CONTINUOUS
 70
0
 71
3
 72
21
 73
17
 74
0
 42
0.0000001
 43
0.0000001
 44
0.0000000001
 40
0.0
 40
0.0
 40
0.0
 40
0.0
 40
0.1273177709
 40
0.2537997
 40
0.316761822
 40
0.3795355919
 40
0.4421314898
 40
0.5045621236
 40
0.5668413499
 40
0.6289845405
 40
0.6910084572
 40
0.7529311131
 40
0.8147714634
 40
0.876549347
 40
0.938285237
 40
1.0
 40
1.0
 40
1.0
 40
1.0
 10
9.9636391587
 20
8.083708648
 30
0.0
 10
9.9636391587
 20
8.0877123461
 30
0.0
 10
9.9640213161
 20
8.0956986139
 30
0.0
 10
9.9654647135
 20
8.1055713632
 30
0.0
 10
9.967189793
 20
8.1133156935
 30
0.0
 10
9.9687630536
 20
8.1190279071
 30
0.0
 10
9.9706138114
 20
8.1246386416
 30
0.0
 10
9.9727379485
 20
8.1301350736
 30
0.0
 10
9.9751304724
 20
8.1355045323
 30
0.0
 10
9.977785934
 20
8.14073462
 30
0.0
 10
9.9806982274
 20
8.1458132578
 30
0.0
 10
9.9838605749
 20
8.1507287796
 30
0.0
 10
9.9872657933
 20
8.1554697587
 30
0.0
 10
9.9909059475
 20
8.1600253845
 30
0.0
 10
9.9947726076
 20
8.1643849208
 30
0.0
 10
9.9974959004
 20
8.1671544048
 30
0.0
 10
9.9988917614
 20
8.1685027149
 30
0.0
  0
SPLINE
  5
361
100
AcDbEntity
  8
0
100
AcDbSpline
 62
7
  6
CONTINUOUS
 70
0
 71
3
 72
43
 73
39
 74
0
 42
0.0000001
 43
0.0000001
 44
0.0000000001
 40
0.0
 40
0.0
 40
0.0
 40
0.0
 40
0.0149723247
 40
0.0299477031
 40
0.0449291853
 40
0.0599197654
 40
0.0899340882
 40
0.1200191806
 40
0.1350977717
 40
0.1502017219
 40
0.1804888772
 40
0.2109025199
 40
0.2414557901
 40
0.272158604
 40
0.3030174734
 40
0.3340354105
 40
0.3652119137
 40
0.3965430314
 40
0.4280214974
 40
0.459636932
 40
0.4913761003
 40
0.5232232193
 40
0.555160306
 40
0.58716756
 40
0.619223774
 40
0.6513067632
 40
0.6833938101
 40
0.7154621155
 40
0.7474892522
 40
0.7794536147
 40
0.8113348502
 40
0.8431143001
 40
0.8747753042
 40
0.9063038579
 40
0.93768806
 40
0.9533258676
 40
0.9689258095
 40
1.0
 40
1.0
 40
1.0
 40
1.0
 10
9.3043984178
 20
6.8038712602
 30
0.0
 10
9.3033199875
 20
6.8028295674
 30
0.0
 10
9.3011212512
 20
6.8007885974
 30
0.0
 10
9.2977037428
 20
6.7978603082
 30
0.0
 10
9.2941710875
 20
6.795068843
 30
0.0
 10
9.2893127117
 20
6.7915334756
 30
0.0
 10
9.2829731255
 20
6.7874735897
 30
0.0
 10
9.2763253626
 20
6.7839224041
 30
0.0
 10
9.2708426613
 20
6.7813960684
 30
0.0
 10
9.2652467014
 20
6.7790782861
 30
0.0
 10
9.2580673328
 20
6.7765860004
 30
0.0
 10
9.2492198405
 20
6.7742632323
 30
0.0
 10
9.2401792867
 20
6.7726177009
 30
0.0
 10
9.2309957726
 20
6.7716584848
 30
0.0
 10
9.221719745
 20
6.7713907035
 30
0.0
 10
9.2124022435
 20
6.7718157215
 30
0.0
 10
9.2030944796
 20
6.7729310852
 30
0.0
 10
9.1938475968
 20
6.7747305598
 30
0.0
 10
9.1847123819
 20
6.7772041583
 30
0.0
 10
9.1757389908
 20
6.7803382009
 30
0.0
 10
9.1669766776
 20
6.784115397
 30
0.0
 10
9.158473528
 20
6.7885149402
 30
0.0
 10
9.1502761995
 20
6.7935126235
 30
0.0
 10
9.1424296689
 20
6.7990809718
 30
0.0
 10
9.1349769889
 20
6.8051893922
 30
0.0
 10
9.1279590551
 20
6.8118043398
 30
0.0
 10
9.1214143839
 20
6.818889501
 30
0.0
 10
9.1153789043
 20
6.8264059902
 30
0.0
 10
9.1098857572
 20
6.8343125586
 30
0.0
 10
9.1049651192
 20
6.8425658185
 30
0.0
 10
9.1006440322
 20
6.8511204891
 30
0.0
 10
9.09694628
 20
6.8599296062
 30
0.0
 10
9.09389219
 20
6.8689449139
 30
0.0
 10
9.0914986996
 20
6.8781166046
 30
0.0
 10
9.0900637055
 20
6.8858584984
 30
0.0
 10
9.0892587244
 20
6.8920790639
 30
0.0
 10
9.0886842611
 20
6.8982936716
 30
0.0
 10
9.0885102908
 20
6.9029701227
 30
0.0
 10
9.0885102908
 20
6.9060819958
 30
0.0
  0
SPLINE
  5
362
100
AcDbEntity
  8
0
100
AcDbSpline
 62
7
  6
CONTINUOUS
 70
0
 71
3
 72
23
 73
19
 74
0
 42
0.0000001
 43
0.0000001
 44
0.0000000001
 40
0.0
 40
0.0
 40
0.0
 40
0.0
 40
0.0637762098
 40
0.1273451791
 40
0.1907020044
 40
0.2538560229
 40
0.3168132268
 40
0.3795820734
 40
0.4421733797
 40
0.5045993379
 40
0.5668738619
 40
0.6290123843
 40
0.6910316585
 40
0.7529496507
 40
0.8147853611
 40
0.8765586136
 40
0.9382898615
 40
1.0
 40
1.0
 40
1.0
 40
1.0
 10
8.2636096212
 20
6.9941987425
 30
0.0
 10
8.2636096212
 20
6.9987655608
 30
0.0
 10
8.2638282373
 20
7.0078859041
 30
0.0
 10
8.2648147943
 20
7.0215109128
 30
0.0
 10
8.2664574868
 20
7.0350279672
 30
0.0
 10
8.2687523652
 20
7.0484052134
 30
0.0
 10
8.2716942616
 20
7.0616121558
 30
0.0
 10
8.2752763849
 20
7.074618264
 30
0.0
 10
8.2794905126
 20
7.0873935531
 30
0.0
 10
8.2843270044
 20
7.0999085571
 30
0.0
 10
8.2897746736
 20
7.1121344309
 30
0.0
 10
8.2958209888
 20
7.124042978
 30
0.0
 10
8.3024520816
 20
7.1356066965
 30
0.0
 10
8.3096526376
 20
7.1467989379
 30
0.0
 10
8.3174060248
 20
7.1575938724
 30
0.0
 10
8.3256945022
 20
7.167966652
 30
0.0
 10
8.3344986324
 20
7.1778930142
 30
0.0
 10
8.3406994117
 20
7.1841989172
 30
0.0
 10
8.3438776984
 20
7.187268923
 30
0.0
  0
SPLINE
  5
363
100
AcDbEntity
  8
0
100
AcDbSpline
 62
7
  6
CONTINUOUS
 70
0
 71
3
 72
41
 73
37
 74
0
 42
0.0000001
 43
0.0000001
 44
0.0000000001
 40
0.0
 40
0.0
 40
0.0
 40
0.0
 40
0.0299421756
 40
0.0599087291
 40
0.0899234427
 40
0.12000893
 40
0.1501860972
 40
0.1804736576
 40
0.2108877103
 40
0.2414413945
 40
0.2721446252
 40
0.3030039132
 40
0.3340222692
 40
0.3651991907
 40
0.3965307261
 40
0.4280096099
 40
0.4596254632
 40
0.491365051
 40
0.5232125895
 40
0.5551500944
 40
0.5871577641
 40
0.61921439
 40
0.6512977872
 40
0.6833852384
 40
0.715453946
 40
0.7314766505
 40
0.7474863166
 40
0.7794510815
 40
0.8113327211
 40
0.8272389267
 40
0.8431175145
 40
0.8747789379
 40
0.9063078385
 40
0.9376925801
 40
0.9689252405
 40
1.0
 40
1.0
 40
1.0
 40
1.0
 10
9.3224603096
 20
9.2618032012
 30
0.0
 10
9.3198723196
 20
9.2593034154
 30
0.0
 10
9.3144928048
 20
9.2545056286
 30
0.0
 10
9.3058740282
 20
9.2479694712
 30
0.0
 10
9.2967497612
 20
9.242126588
 30
0.0
 10
9.2871709961
 20
9.2370097446
 30
0.0
 10
9.2771903931
 20
9.2326468983
 30
0.0
 10
9.2668630343
 20
9.2290620306
 30
0.0
 10
9.2562458287
 20
9.2262747559
 30
0.0
 10
9.2453972693
 20
9.2243002916
 30
0.0
 10
9.2343770857
 20
9.2231493628
 30
0.0
 10
9.2232459192
 20
9.2228281573
 30
0.0
 10
9.2120649881
 20
9.2233382979
 30
0.0
 10
9.2008957529
 20
9.2246768415
 30
0.0
 10
9.1897995815
 20
9.2268363014
 30
0.0
 10
9.1788374161
 20
9.2298046936
 30
0.0
 10
9.1680694432
 20
9.2335656065
 30
0.0
 10
9.1575547669
 20
9.2380982925
 30
0.0
 10
9.1473510895
 20
9.2433777855
 30
0.0
 10
9.1375144004
 20
9.2493750355
 30
0.0
 10
9.1280986674
 20
9.2560570778
 30
0.0
 10
9.1191555663
 20
9.2633871786
 30
0.0
 10
9.1107341173
 20
9.2713251615
 30
0.0
 10
9.1028807318
 20
9.2798271568
 30
0.0
 10
9.0968430083
 20
9.2873466032
 30
0.0
 10
9.0923382675
 20
9.2935967334
 30
0.0
 10
9.0880602259
 20
9.2999891699
 30
0.0
 10
9.0831417219
 20
9.3082387322
 30
0.0
 10
9.0788170592
 20
9.3168007165
 30
0.0
 10
9.0757321035
 20
9.3238034874
 30
0.0
 10
9.0729058382
 20
9.3308860681
 30
0.0
 10
9.0698543444
 20
9.3398936057
 30
0.0
 10
9.0669822391
 20
9.350899561
 30
0.0
 10
9.0649185018
 20
9.3620335052
 30
0.0
 10
9.0636748007
 20
9.3732331146
 30
0.0
 10
9.0633962178
 20
9.3807234522
 30
0.0
 10
9.0633962178
 20
9.3844576958
 30
0.0
  0
SPLINE
  5
364
100
AcDbEntity
  8
0
100
AcDbSpline
 62
4
  6
CONTINUOUS
 70
0
 71
3
 72
227
 73
223
 74
0
 42
0.0000001
 43
0.0000001
 44
0.0000000001
 40
0.0
 40
0.0
 40
0.0
 40
0.0
 40
0.015625
 40
0.0234375
 40
0.03125
 40
0.0390625
 40
0.046875
 40
0.05078125
 40
0.0546875
 40
0.05859375
 40
0.060546875
 40
0.0615234375
 40
0.0625
 40
0.0634765625
 40
0.064453125
 40
0.06640625
 40
0.0703125
 40
0.07421875
 40
0.078125
 40
0.0859375
 40
0.09375
 40
0.1015625
 40
0.109375
 40
0.11328125
 40
0.1171875
 40
0.12109375
 40
0.123046875
 40
0.1240234375
 40
0.125
 40
0.1259765625
 40
0.126953125
 40
0.12890625
 40
0.1328125
 40
0.13671875
 40
0.140625
 40
0.1484375
 40
0.15625
 40
0.1640625
 40
0.171875
 40
0.17578125
 40
0.1796875
 40
0.18359375
 40
0.185546875
 40
0.1865234375
 40
0.1875
 40
0.1884765625
 40
0.189453125
 40
0.19140625
 40
0.1953125
 40
0.19921875
 40
0.203125
 40
0.2109375
 40
0.21875
 40
0.2265625
 40
0.234375
 40
0.23828125
 40
0.2421875
 40
0.24609375
 40
0.248046875
 40
0.2490234375
 40
0.25
 40
0.2509765625
 40
0.251953125
 40
0.25390625
 40
0.2578125
 40
0.26171875
 40
0.265625
 40
0.2734375
 40
0.28125
 40
0.2890625
 40
0.296875
 40
0.30078125
 40
0.3046875
 40
0.30859375
 40
0.310546875
 40
0.3115234375
 40
0.3125
 40
0.3134765625
 40
0.314453125
 40
0.31640625
 40
0.3203125
 40
0.32421875
 40
0.328125
 40
0.3359375
 40
0.34375
 40
0.3515625
 40
0.359375
 40
0.36328125
 40
0.3671875
 40
0.37109375
 40
0.373046875
 40
0.3740234375
 40
0.375
 40
0.3759765625
 40
0.376953125
 40
0.37890625
 40
0.3828125
 40
0.38671875
 40
0.390625
 40
0.3984375
 40
0.40625
 40
0.4140625
 40
0.421875
 40
0.42578125
 40
0.4296875
 40
0.43359375
 40
0.435546875
 40
0.4365234375
 40
0.4375
 40
0.4384765625
 40
0.439453125
 40
0.44140625
 40
0.4453125
 40
0.44921875
 40
0.453125
 40
0.4609375
 40
0.46875
 40
0.484375
 40
0.4921875
 40
0.49609375
 40
0.498046875
 40
0.5
 40
0.501953125
 40
0.50390625
 40
0.5078125
 40
0.515625
 40
0.53125
 40
0.546875
 40
0.5546875
 40
0.55859375
 40
0.5625
 40
0.56640625
 40
0.5703125
 40
0.578125
 40
0.59375
 40
0.609375
 40
0.6171875
 40
0.62109375
 40
0.623046875
 40
0.625
 40
0.626953125
 40
0.62890625
 40
0.6328125
 40
0.640625
 40
0.65625
 40
0.6640625
 40
0.671875
 40
0.6796875
 40
0.68359375
 40
0.685546875
 40
0.6875
 40
0.689453125
 40
0.69140625
 40
0.6953125
 40
0.703125
 40
0.71875
 40
0.7265625
 40
0.734375
 40
0.73828125
 40
0.7421875
 40
0.74609375
 40
0.748046875
 40
0.7490234375
 40
0.75
 40
0.7509765625
 40
0.751953125
 40
0.75390625
 40
0.7578125
 40
0.76171875
 40
0.765625
 40
0.7734375
 40
0.78125
 40
0.7890625
 40
0.796875
 40
0.80078125
 40
0.8046875
 40
0.80859375
 40
0.810546875
 40
0.8115234375
 40
0.8125
 40
0.8134765625
 40
0.814453125
 40
0.81640625
 40
0.8203125
 40
0.82421875
 40
0.828125
 40
0.8359375
 40
0.84375
 40
0.8515625
 40
0.859375
 40
0.86328125
 40
0.8671875
 40
0.87109375
 40
0.873046875
 40
0.8740234375
 40
0.875
 40
0.8759765625
 40
0.876953125
 40
0.87890625
 40
0.8828125
 40
0.88671875
 40
0.890625
 40
0.8984375
 40
0.90625
 40
0.9140625
 40
0.921875
 40
0.92578125
 40
0.9296875
 40
0.93359375
 40
0.935546875
 40
0.9365234375
 40
0.9375
 40
0.9384765625
 40
0.939453125
 40
0.94140625
 40
0.9453125
 40
0.94921875
 40
0.953125
 40
0.9609375
 40
0.96875
 40
0.984375
 40
1.0
 40
1.0
 40
1.0
 40
1.0
 10
9.3877994393
 20
10.6178604306
 30
0.0
 10
9.3881181953
 20
10.6183587737
 30
0.0
 10
9.3885963309
 20
10.6191062884
 30
0.0
 10
9.3892338386
 20
10.6201029747
 30
0.0
 10
9.3897119856
 20
10.6208504891
 30
0.0
 10
9.390190071
 20
10.6215980046
 30
0.0
 10
9.390588667
 20
10.6222209309
 30
0.0
 10
9.390907115
 20
10.6227192793
 30
0.0
 10
9.3911471227
 20
10.6230930205
 30
0.0
 10
9.391343402
 20
10.6234045355
 30
0.0
 10
9.3914881118
 20
10.6236224703
 30
0.0
 10
9.3915593825
 20
10.6237472008
 30
0.0
 10
9.3916450076
 20
10.6238401956
 30
0.0
 10
9.3916076549
 20
10.6239353045
 30
0.0
 10
9.3916007473
 20
10.6240613789
 30
0.0
 10
9.391568673
 20
10.6242823528
 30
0.0
 10
9.3915333015
 20
10.62459785
 30
0.0
 10
9.3914863831
 20
10.6249765236
 30
0.0
 10
9.391425388
 20
10.625481395
 30
0.0
 10
9.3913486045
 20
10.6261124932
 30
0.0
 10
9.3912567108
 20
10.6268698077
 30
0.0
 10
9.3911646942
 20
10.6276271212
 30
0.0
 10
9.3910882181
 20
10.6282582219
 30
0.0
 10
9.3910266081
 20
10.6287630882
 30
0.0
 10
9.3909815655
 20
10.6291417771
 30
0.0
 10
9.3909403257
 20
10.6294572266
 30
0.0
 10
9.3909187272
 20
10.6296782856
 30
0.0
 10
9.3908950347
 20
10.6298042235
 30
0.0
 10
9.3909092398
 20
10.6298997518
 30
0.0
 10
9.3908012226
 20
10.6299911716
 30
0.0
 10
9.3906998322
 20
10.6301144977
 30
0.0
 10
9.3905025357
 20
10.6303296507
 30
0.0
 10
9.3902310683
 20
10.6306373612
 30
0.0
 10
9.3899008624
 20
10.6310064643
 30
0.0
 10
9.389462141
 20
10.6314986541
 30
0.0
 10
9.3889132028
 20
10.6321138732
 30
0.0
 10
9.3882547222
 20
10.6328521449
 30
0.0
 10
9.3875961189
 20
10.6335904106
 30
0.0
 10
9.3870474875
 20
10.6342056445
 30
0.0
 10
9.3866081524
 20
10.6346978048
 30
0.0
 10
9.3862798182
 20
10.6350669978
 30
0.0
 10
9.3860024953
 20
10.6353744271
 30
0.0
 10
9.3858156518
 20
10.6355900821
 30
0.0
 10
9.3856975132
 20
10.6357126039
 30
0.0
 10
9.385640941
 20
10.6358064941
 30
0.0
 10
9.3854619272
 20
10.635892744
 30
0.0
 10
9.3852659512
 20
10.6360104088
 30
0.0
 10
9.3849030942
 20
10.6362150806
 30
0.0
 10
9.3843951305
 20
10.6365081181
 30
0.0
 10
9.383781121
 20
10.6368594851
 30
0.0
 10
9.3829639976
 20
10.6373280717
 30
0.0
 10
9.3819420565
 20
10.637913771
 30
0.0
 10
9.3807159701
 20
10.6386166271
 30
0.0
 10
9.3794897707
 20
10.6393194699
 30
0.0
 10
9.3784681124
 20
10.6399052023
 30
0.0
 10
9.3776504232
 20
10.6403737227
 30
0.0
 10
9.3770381392
 20
10.6407252914
 30
0.0
 10
9.3765247774
 20
10.641017698
 30
0.0
 10
9.376171557
 20
10.641223496
 30
0.0
 10
9.3759601408
 20
10.6413393564
 30
0.0
 10
9.3758285544
 20
10.6414311487
 30
0.0
 10
9.3755938528
 20
10.6415042225
 30
0.0
 10
9.3753168851
 20
10.6416081834
 30
0.0
 10
9.3748154336
 20
10.6417870728
 30
0.0
 10
9.3741078356
 20
10.6420442196
 30
0.0
 10
9.3732549678
 20
10.6423521151
 30
0.0
 10
9.3721191211
 20
10.6427628802
 30
0.0
 10
9.3706988604
 20
10.6432762543
 30
0.0
 10
9.3689947531
 20
10.6438923411
 30
0.0
 10
9.3672905475
 20
10.6445084081
 30
0.0
 10
9.3658705325
 20
10.645021832
 30
0.0
 10
9.3647341945
 20
10.6454324975
 30
0.0
 10
9.363882825
 20
10.6457406968
 30
0.0
 10
9.3631705398
 20
10.6459968928
 30
0.0
 10
9.3626774556
 20
10.6461774797
 30
0.0
 10
9.3623870813
 20
10.6462787209
 30
0.0
 10
9.3621935606
 20
10.6463601486
 30
0.0
 10
9.3619073057
 20
10.6464205647
 30
0.0
 10
9.3615579793
 20
10.6465084486
 30
0.0
 10
9.3609315871
 20
10.6466588307
 30
0.0
 10
9.3600446204
 20
10.6468754476
 30
0.0
 10
9.3589768877
 20
10.6471346236
 30
0.0
 10
9.3575544225
 20
10.6474804586
 30
0.0
 10
9.3557759344
 20
10.6479126601
 30
0.0
 10
9.3536419325
 20
10.6484313446
 30
0.0
 10
9.3515078463
 20
10.6489500059
 30
0.0
 10
9.3497295688
 20
10.6493822655
 30
0.0
 10
9.3483066824
 20
10.6497279844
 30
0.0
 10
9.3472402344
 20
10.6499875146
 30
0.0
 10
9.3463492486
 20
10.6502030237
 30
0.0
 10
9.3457300311
 20
10.6503553832
 30
0.0
 10
9.345369209
 20
10.6504400987
 30
0.0
 10
9.3451182652
 20
10.6505102471
 30
0.0
 10
9.3447921219
 20
10.6505551222
 30
0.0
 10
9.3443834946
 20
10.6506237712
 30
0.0
 10
9.3436561755
 20
10.6507397996
 30
0.0
 10
9.3426235377
 20
10.6509077018
 30
0.0
 10
9.3413816373
 20
10.6511082653
 30
0.0
 10
9.3397267259
 20
10.6513760046
 30
0.0
 10
9.3376577567
 20
10.6517105676
 30
0.0
 10
9.3351751433
 20
10.6521120942
 30
0.0
 10
9.3326924592
 20
10.6525135943
 30
0.0
 10
9.3306236668
 20
10.6528482239
 30
0.0
 10
9.3289684018
 20
10.65311583
 30
0.0
 10
9.3277275794
 20
10.6533167996
 30
0.0
 10
9.3266915694
 20
10.6534834314
 30
0.0
 10
9.3259702703
 20
10.6536017277
 30
0.0
 10
9.3255519975
 20
10.6536667429
 30
0.0
 10
9.325255482
 20
10.6537227799
 30
0.0
 10
9.3248932609
 20
10.653751006
 30
0.0
 10
9.3244332183
 20
10.6537983415
 30
0.0
 10
9.3236174655
 20
10.653876659
 30
0.0
 10
9.322457687
 20
10.6539909038
 30
0.0
 10
9.3210635638
 20
10.6541269872
 30
0.0
 10
9.3192055642
 20
10.6543087802
 30
0.0
 10
9.3168828016
 20
10.6545359338
 30
0.0
 10
9.3131664032
 20
10.6548992435
 30
0.0
 10
9.3094507162
 20
10.6552636499
 30
0.0
 10
9.3061976084
 20
10.655579716
 30
0.0
 10
9.3045735657
 20
10.6557414534
 30
0.0
 10
9.3036415052
 20
10.6558279229
 30
0.0
 10
9.3029538508
 20
10.6559095724
 30
0.0
 10
9.3022226503
 20
10.6559270082
 30
0.0
 10
9.3012629041
 20
10.6559726514
 30
0.0
 10
9.2995762884
 20
10.6560421235
 30
0.0
 10
9.2962080387
 20
10.6561883325
 30
0.0
 10
9.2913938954
 20
10.6563943803
 30
0.0
 10
9.2865796952
 20
10.6565978789
 30
0.0
 10
9.283211525
 20
10.6567476569
 30
0.0
 10
9.2812838393
 20
10.6568214452
 30
0.0
 10
9.2798466203
 20
10.6569100898
 30
0.0
 10
9.2783767288
 20
10.6568714203
 30
0.0
 10
9.2764282723
 20
10.6568642657
 30
0.0
 10
9.27301314
 20
10.6568310958
 30
0.0
 10
9.2681373489
 20
10.6567941858
 30
0.0
 10
9.2632598391
 20
10.6567547057
 30
0.0
 10
9.259847113
 20
10.6567251341
 30
0.0
 10
9.258138905
 20
10.6567139261
 30
0.0
 10
9.2571657302
 20
10.6567016647
 30
0.0
 10
9.2564275442
 20
10.6567090171
 30
0.0
 10
9.2557211056
 20
10.6566531038
 30
0.0
 10
9.2547681147
 20
10.6566006186
 30
0.0
 10
9.2531055294
 20
10.6564985084
 30
0.0
 10
9.2497767069
 20
10.6563015758
 30
0.0
 10
9.2459738421
 20
10.6560734438
 30
0.0
 10
9.2421706393
 20
10.6558461813
 30
0.0
 10
9.2393177476
 20
10.655676192
 30
0.0
 10
9.2369421105
 20
10.6555326468
 30
0.0
 10
9.2352756562
 20
10.6554359286
 30
0.0
 10
9.2343288791
 20
10.6553747758
 30
0.0
 10
9.2336033512
 20
10.6553454918
 30
0.0
 10
9.2329368625
 20
10.6552528278
 30
0.0
 10
9.2320276192
 20
10.6551513816
 30
0.0
 10
9.2304460197
 20
10.6549635702
 30
0.0
 10
9.2272760107
 20
10.65459526
 30
0.0
 10
9.223656063
 20
10.6541711872
 30
0.0
 10
9.2200351392
 20
10.6537481975
 30
0.0
 10
9.2177720689
 20
10.6534837438
 30
0.0
 10
9.2159618398
 20
10.6532721143
 30
0.0
 10
9.2146034822
 20
10.6531136429
 30
0.0
 10
9.2134737087
 20
10.6529807753
 30
0.0
 10
9.2126785659
 20
10.6528893552
 30
0.0
 10
9.212230915
 20
10.6528346367
 30
0.0
 10
9.2118762565
 20
10.6528005797
 30
0.0
 10
9.211593921
 20
10.6527398345
 30
0.0
 10
9.2111922467
 20
10.65266815
 30
0.0
 10
9.2105010703
 20
10.652538365
 30
0.0
 10
9.2095075304
 20
10.6523552253
 30
0.0
 10
9.2083179129
 20
10.652134487
 30
0.0
 10
9.2067308372
 20
10.6518405085
 30
0.0
 10
9.2047473102
 20
10.6514729183
 30
0.0
 10
9.2023669314
 20
10.6510318632
 30
0.0
 10
9.1999866297
 20
10.6505907827
 30
0.0
 10
9.1980029101
 20
10.6502232561
 30
0.0
 10
9.1964162194
 20
10.6499291504
 30
0.0
 10
9.1952254276
 20
10.6497088
 30
0.0
 10
9.1942355615
 20
10.6495244471
 30
0.0
 10
9.1935378268
 20
10.6493968277
 30
0.0
 10
9.1931466605
 20
10.6493216733
 30
0.0
 10
9.1928320477
 20
10.6492715865
 30
0.0
 10
9.1925986175
 20
10.6491974984
 30
0.0
 10
9.1922590599
 20
10.6491070861
 30
0.0
 10
9.1916780276
 20
10.648944964
 30
0.0
 10
9.1908410838
 20
10.6487154003
 30
0.0
 10
9.1898397037
 20
10.648439051
 30
0.0
 10
9.1885034985
 20
10.6480708902
 30
0.0
 10
9.1868335988
 20
10.647610584
 30
0.0
 10
9.1848295541
 20
10.6470582641
 30
0.0
 10
9.182825599
 20
10.6465059224
 30
0.0
 10
9.1811554751
 20
10.6460456708
 30
0.0
 10
9.1798197185
 20
10.645677401
 30
0.0
 10
9.1788169703
 20
10.6454013841
 30
0.0
 10
9.1779843064
 20
10.6451707802
 30
0.0
 10
9.1773956338
 20
10.6450105151
 30
0.0
 10
9.1770683178
 20
10.6449171275
 30
0.0
 10
9.1767972851
 20
10.6448521785
 30
0.0
 10
9.1766239011
 20
10.6447677665
 30
0.0
 10
9.1763586615
 20
10.6446620061
 30
0.0
 10
9.1759103618
 20
10.6444737622
 30
0.0
 10
9.1752616368
 20
10.6442064961
 30
0.0
 10
9.1744867182
 20
10.6438850689
 30
0.0
 10
9.1734522525
 20
10.6434567466
 30
0.0
 10
9.1721595992
 20
10.6429212584
 30
0.0
 10
9.170608218
 20
10.6422787113
 30
0.0
 10
9.1690569396
 20
10.6416361459
 30
0.0
 10
9.1677640291
 20
10.6411007035
 30
0.0
 10
9.1667300778
 20
10.6406722898
 30
0.0
 10
9.1659535902
 20
10.6403511416
 30
0.0
 10
9.1653097738
 20
10.6400830027
 30
0.0
 10
9.1648527114
 20
10.6398963169
 30
0.0
 10
9.1646015118
 20
10.63978806
 30
0.0
 10
9.1643850015
 20
10.6397113162
 30
0.0
 10
9.1642759441
 20
10.6396175665
 30
0.0
 10
9.1640930534
 20
10.6394984988
 30
0.0
 10
9.1637904577
 20
10.6392873665
 30
0.0
 10
9.1633490483
 20
10.6389871939
 30
0.0
 10
9.1628232648
 20
10.6386263682
 30
0.0
 10
9.1621208553
 20
10.6381454834
 30
0.0
 10
9.1612433108
 20
10.6375443034
 30
0.0
 10
9.1598389783
 20
10.6365824567
 30
0.0
 10
9.1580836529
 20
10.6353801341
 30
0.0
 10
9.1566793651
 20
10.6344182804
 30
0.0
 10
9.1559772246
 20
10.633937353
 30
0.0
  0
SPLINE
  5
365
100
AcDbEntity
  8
0
100
AcDbSpline
 62
4
  6
CONTINUOUS
 70
0
 71
3
 72
227
 73
223
 74
0
 42
0.0000001
 43
0.0000001
 44
0.0000000001
 40
0.0
 40
0.0
 40
0.0
 40
0.0
 40
0.015625
 40
0.0234375
 40
0.03125
 40
0.0390625
 40
0.046875
 40
0.05078125
 40
0.0546875
 40
0.05859375
 40
0.060546875
 40
0.0615234375
 40
0.0625
 40
0.0634765625
 40
0.064453125
 40
0.06640625
 40
0.0703125
 40
0.07421875
 40
0.078125
 40
0.0859375
 40
0.09375
 40
0.1015625
 40
0.109375
 40
0.11328125
 40
0.1171875
 40
0.12109375
 40
0.123046875
 40
0.1240234375
 40
0.125
 40
0.1259765625
 40
0.126953125
 40
0.12890625
 40
0.1328125
 40
0.13671875
 40
0.140625
 40
0.1484375
 40
0.15625
 40
0.1640625
 40
0.171875
 40
0.17578125
 40
0.1796875
 40
0.18359375
 40
0.185546875
 40
0.1865234375
 40
0.1875
 40
0.1884765625
 40
0.189453125
 40
0.19140625
 40
0.1953125
 40
0.19921875
 40
0.203125
 40
0.2109375
 40
0.21875
 40
0.2265625
 40
0.234375
 40
0.23828125
 40
0.2421875
 40
0.24609375
 40
0.248046875
 40
0.2490234375
 40
0.25
 40
0.2509765625
 40
0.251953125
 40
0.25390625
 40
0.2578125
 40
0.26171875
 40
0.265625
 40
0.2734375
 40
0.28125
 40
0.2890625
 40
0.296875
 40
0.30078125
 40
0.3046875
 40
0.30859375
 40
0.310546875
 40
0.3115234375
 40
0.3125
 40
0.3134765625
 40
0.314453125
 40
0.31640625
 40
0.3203125
 40
0.32421875
 40
0.328125
 40
0.3359375
 40
0.34375
 40
0.3515625
 40
0.359375
 40
0.36328125
 40
0.3671875
 40
0.37109375
 40
0.373046875
 40
0.3740234375
 40
0.375
 40
0.3759765625
 40
0.376953125
 40
0.37890625
 40
0.3828125
 40
0.38671875
 40
0.390625
 40
0.3984375
 40
0.40625
 40
0.4140625
 40
0.421875
 40
0.42578125
 40
0.4296875
 40
0.43359375
 40
0.435546875
 40
0.4365234375
 40
0.4375
 40
0.4384765625
 40
0.439453125
 40
0.44140625
 40
0.4453125
 40
0.44921875
 40
0.453125
 40
0.4609375
 40
0.46875
 40
0.484375
 40
0.4921875
 40
0.49609375
 40
0.498046875
 40
0.5
 40
0.501953125
 40
0.50390625
 40
0.5078125
 40
0.515625
 40
0.53125
 40
0.546875
 40
0.5546875
 40
0.55859375
 40
0.5625
 40
0.56640625
 40
0.5703125
 40
0.578125
 40
0.59375
 40
0.609375
 40
0.6171875
 40
0.62109375
 40
0.623046875
 40
0.625
 40
0.626953125
 40
0.62890625
 40
0.6328125
 40
0.640625
 40
0.65625
 40
0.6640625
 40
0.671875
 40
0.6796875
 40
0.68359375
 40
0.685546875
 40
0.6875
 40
0.689453125
 40
0.69140625
 40
0.6953125
 40
0.703125
 40
0.71875
 40
0.7265625
 40
0.734375
 40
0.73828125
 40
0.7421875
 40
0.74609375
 40
0.748046875
 40
0.7490234375
 40
0.75
 40
0.7509765625
 40
0.751953125
 40
0.75390625
 40
0.7578125
 40
0.76171875
 40
0.765625
 40
0.7734375
 40
0.78125
 40
0.7890625
 40
0.796875
 40
0.80078125
 40
0.8046875
 40
0.80859375
 40
0.810546875
 40
0.8115234375
 40
0.8125
 40
0.8134765625
 40
0.814453125
 40
0.81640625
 40
0.8203125
 40
0.82421875
 40
0.828125
 40
0.8359375
 40
0.84375
 40
0.8515625
 40
0.859375
 40
0.86328125
 40
0.8671875
 40
0.87109375
 40
0.873046875
 40
0.8740234375
 40
0.875
 40
0.8759765625
 40
0.876953125
 40
0.87890625
 40
0.8828125
 40
0.88671875
 40
0.890625
 40
0.8984375
 40
0.90625
 40
0.9140625
 40
0.921875
 40
0.92578125
 40
0.9296875
 40
0.93359375
 40
0.935546875
 40
0.9365234375
 40
0.9375
 40
0.9384765625
 40
0.939453125
 40
0.94140625
 40
0.9453125
 40
0.94921875
 40
0.953125
 40
0.9609375
 40
0.96875
 40
0.984375
 40
1.0
 40
1.0
 40
1.0
 40
1.0
 10
9.1559772273
 20
10.6339373556
 30
0.0
 10
9.1556584713
 20
10.6334390125
 30
0.0
 10
9.1551803357
 20
10.6326914979
 30
0.0
 10
9.154542828
 20
10.6316948116
 30
0.0
 10
9.1540646811
 20
10.6309472971
 30
0.0
 10
9.1535865956
 20
10.6301997816
 30
0.0
 10
9.1531879996
 20
10.6295768553
 30
0.0
 10
9.1528695516
 20
10.6290785069
 30
0.0
 10
9.1526295439
 20
10.6287047658
 30
0.0
 10
9.1524332646
 20
10.6283932507
 30
0.0
 10
9.1522885548
 20
10.6281753159
 30
0.0
 10
9.1522172841
 20
10.6280505855
 30
0.0
 10
9.1521316591
 20
10.6279575906
 30
0.0
 10
9.1521690118
 20
10.6278624818
 30
0.0
 10
9.1521759194
 20
10.6277364073
 30
0.0
 10
9.1522079937
 20
10.6275154335
 30
0.0
 10
9.1522433652
 20
10.6271999362
 30
0.0
 10
9.1522902836
 20
10.6268212626
 30
0.0
 10
9.1523512786
 20
10.6263163913
 30
0.0
 10
9.1524280622
 20
10.6256852931
 30
0.0
 10
9.1525199558
 20
10.6249279786
 30
0.0
 10
9.1526119724
 20
10.6241706651
 30
0.0
 10
9.1526884485
 20
10.6235395644
 30
0.0
 10
9.1527500586
 20
10.6230346981
 30
0.0
 10
9.1527951012
 20
10.6226560092
 30
0.0
 10
9.152836341
 20
10.6223405597
 30
0.0
 10
9.1528579395
 20
10.6221195006
 30
0.0
 10
9.1528816319
 20
10.6219935627
 30
0.0
 10
9.1528674269
 20
10.6218980345
 30
0.0
 10
9.1529754441
 20
10.6218066147
 30
0.0
 10
9.1530768345
 20
10.6216832886
 30
0.0
 10
9.153274131
 20
10.6214681356
 30
0.0
 10
9.1535455983
 20
10.6211604251
 30
0.0
 10
9.1538758043
 20
10.6207913219
 30
0.0
 10
9.1543145257
 20
10.6202991321
 30
0.0
 10
9.1548634639
 20
10.619683913
 30
0.0
 10
9.1555219445
 20
10.6189456414
 30
0.0
 10
9.1561805478
 20
10.6182073756
 30
0.0
 10
9.1567291792
 20
10.6175921418
 30
0.0
 10
9.1571685142
 20
10.6170999815
 30
0.0
 10
9.1574968485
 20
10.6167307884
 30
0.0
 10
9.1577741713
 20
10.6164233591
 30
0.0
 10
9.1579610149
 20
10.6162077042
 30
0.0
 10
9.1580791535
 20
10.6160851823
 30
0.0
 10
9.1581357257
 20
10.6159912922
 30
0.0
 10
9.1583147394
 20
10.6159050423
 30
0.0
 10
9.1585107154
 20
10.6157873774
 30
0.0
 10
9.1588735724
 20
10.6155827056
 30
0.0
 10
9.1593815361
 20
10.6152896682
 30
0.0
 10
9.1599955456
 20
10.6149383011
 30
0.0
 10
9.160812669
 20
10.6144697146
 30
0.0
 10
9.1618346102
 20
10.6138840153
 30
0.0
 10
9.1630606965
 20
10.6131811592
 30
0.0
 10
9.164286896
 20
10.6124783164
 30
0.0
 10
9.1653085542
 20
10.611892584
 30
0.0
 10
9.1661262434
 20
10.6114240636
 30
0.0
 10
9.1667385274
 20
10.6110724949
 30
0.0
 10
9.1672518893
 20
10.6107800882
 30
0.0
 10
9.1676051097
 20
10.6105742903
 30
0.0
 10
9.1678165259
 20
10.6104584298
 30
0.0
 10
9.1679481123
 20
10.6103666375
 30
0.0
 10
9.1681828138
 20
10.6102935638
 30
0.0
 10
9.1684597815
 20
10.6101896029
 30
0.0
 10
9.1689612331
 20
10.6100107134
 30
0.0
 10
9.169668831
 20
10.6097535666
 30
0.0
 10
9.1705216989
 20
10.6094456712
 30
0.0
 10
9.1716575456
 20
10.6090349061
 30
0.0
 10
9.1730778062
 20
10.608521532
 30
0.0
 10
9.1747819136
 20
10.6079054451
 30
0.0
 10
9.1764861191
 20
10.6072893782
 30
0.0
 10
9.1779061342
 20
10.6067759542
 30
0.0
 10
9.1790424721
 20
10.6063652888
 30
0.0
 10
9.1798938417
 20
10.6060570894
 30
0.0
 10
9.1806061269
 20
10.6058008935
 30
0.0
 10
9.181099211
 20
10.6056203066
 30
0.0
 10
9.1813895853
 20
10.6055190654
 30
0.0
 10
9.181583106
 20
10.6054376377
 30
0.0
 10
9.1818693609
 20
10.6053772215
 30
0.0
 10
9.1822186873
 20
10.6052893376
 30
0.0
 10
9.1828450795
 20
10.6051389555
 30
0.0
 10
9.1837320462
 20
10.6049223387
 30
0.0
 10
9.184799779
 20
10.6046631627
 30
0.0
 10
9.1862222442
 20
10.6043173276
 30
0.0
 10
9.1880007322
 20
10.6038851261
 30
0.0
 10
9.1901347342
 20
10.6033664416
 30
0.0
 10
9.1922688204
 20
10.6028477803
 30
0.0
 10
9.1940470978
 20
10.6024155208
 30
0.0
 10
9.1954699842
 20
10.6020698018
 30
0.0
 10
9.1965364322
 20
10.6018102717
 30
0.0
 10
9.1974274181
 20
10.6015947626
 30
0.0
 10
9.1980466355
 20
10.6014424031
 30
0.0
 10
9.1984074577
 20
10.6013576875
 30
0.0
 10
9.1986584014
 20
10.6012875392
 30
0.0
 10
9.1989845447
 20
10.6012426641
 30
0.0
 10
9.1993931721
 20
10.6011740151
 30
0.0
 10
9.2001204911
 20
10.6010579867
 30
0.0
 10
9.201153129
 20
10.6008900845
 30
0.0
 10
9.2023950293
 20
10.6006895209
 30
0.0
 10
9.2040499408
 20
10.6004217817
 30
0.0
 10
9.20611891
 20
10.6000872187
 30
0.0
 10
9.2086015234
 20
10.599685692
 30
0.0
 10
9.2110842074
 20
10.599284192
 30
0.0
 10
9.2131529999
 20
10.5989495624
 30
0.0
 10
9.2148082648
 20
10.5986819563
 30
0.0
 10
9.2160490872
 20
10.5984809867
 30
0.0
 10
9.2170850973
 20
10.5983143549
 30
0.0
 10
9.2178063964
 20
10.5981960585
 30
0.0
 10
9.2182246692
 20
10.5981310433
 30
0.0
 10
9.2185211847
 20
10.5980750064
 30
0.0
 10
9.2188834057
 20
10.5980467803
 30
0.0
 10
9.2193434483
 20
10.5979994448
 30
0.0
 10
9.2201592011
 20
10.5979211273
 30
0.0
 10
9.2213189797
 20
10.5978068825
 30
0.0
 10
9.2227131029
 20
10.5976707991
 30
0.0
 10
9.2245711024
 20
10.5974890061
 30
0.0
 10
9.226893865
 20
10.5972618525
 30
0.0
 10
9.2306102634
 20
10.5968985428
 30
0.0
 10
9.2343259505
 20
10.5965341364
 30
0.0
 10
9.2375790583
 20
10.5962180703
 30
0.0
 10
9.2392031009
 20
10.5960563328
 30
0.0
 10
9.2401351615
 20
10.5959698634
 30
0.0
 10
9.2408228159
 20
10.5958882138
 30
0.0
 10
9.2415540163
 20
10.595870778
 30
0.0
 10
9.2425137626
 20
10.5958251349
 30
0.0
 10
9.2442003782
 20
10.5957556628
 30
0.0
 10
9.247568628
 20
10.5956094538
 30
0.0
 10
9.2523827713
 20
10.5954034059
 30
0.0
 10
9.2571969714
 20
10.5951999073
 30
0.0
 10
9.2605651416
 20
10.5950501294
 30
0.0
 10
9.2624928273
 20
10.5949763411
 30
0.0
 10
9.2639300463
 20
10.5948876964
 30
0.0
 10
9.2653999378
 20
10.5949263659
 30
0.0
 10
9.2673483944
 20
10.5949335206
 30
0.0
 10
9.2707635267
 20
10.5949666904
 30
0.0
 10
9.2756393178
 20
10.5950036004
 30
0.0
 10
9.2805168275
 20
10.5950430806
 30
0.0
 10
9.2839295537
 20
10.5950726522
 30
0.0
 10
9.2856377616
 20
10.5950838601
 30
0.0
 10
9.2866109365
 20
10.5950961216
 30
0.0
 10
9.2873491225
 20
10.5950887692
 30
0.0
 10
9.288055561
 20
10.5951446824
 30
0.0
 10
9.2890085519
 20
10.5951971676
 30
0.0
 10
9.2906711373
 20
10.5952992779
 30
0.0
 10
9.2939999598
 20
10.5954962105
 30
0.0
 10
9.2978028245
 20
10.5957243425
 30
0.0
 10
9.3016060274
 20
10.5959516049
 30
0.0
 10
9.304458919
 20
10.5961215943
 30
0.0
 10
9.3068345561
 20
10.5962651394
 30
0.0
 10
9.3085010104
 20
10.5963618577
 30
0.0
 10
9.3094477875
 20
10.5964230105
 30
0.0
 10
9.3101733155
 20
10.5964522945
 30
0.0
 10
9.3108398041
 20
10.5965449585
 30
0.0
 10
9.3117490475
 20
10.5966464046
 30
0.0
 10
9.3133306469
 20
10.5968342161
 30
0.0
 10
9.3165006559
 20
10.5972025263
 30
0.0
 10
9.3201206037
 20
10.597626599
 30
0.0
 10
9.3237415274
 20
10.5980495888
 30
0.0
 10
9.3260045978
 20
10.5983140425
 30
0.0
 10
9.3278148269
 20
10.598525672
 30
0.0
 10
9.3291731844
 20
10.5986841434
 30
0.0
 10
9.3303029579
 20
10.5988170109
 30
0.0
 10
9.3310981008
 20
10.598908431
 30
0.0
 10
9.3315457517
 20
10.5989631495
 30
0.0
 10
9.3319004101
 20
10.5989972066
 30
0.0
 10
9.3321827456
 20
10.5990579518
 30
0.0
 10
9.33258442
 20
10.5991296362
 30
0.0
 10
9.3332755964
 20
10.5992594213
 30
0.0
 10
9.3342691362
 20
10.599442561
 30
0.0
 10
9.3354587537
 20
10.5996632992
 30
0.0
 10
9.3370458295
 20
10.5999572778
 30
0.0
 10
9.3390293565
 20
10.600324868
 30
0.0
 10
9.3414097352
 20
10.600765923
 30
0.0
 10
9.343790037
 20
10.6012070035
 30
0.0
 10
9.3457737565
 20
10.6015745302
 30
0.0
 10
9.3473604473
 20
10.6018686358
 30
0.0
 10
9.3485512391
 20
10.6020889863
 30
0.0
 10
9.3495411051
 20
10.6022733391
 30
0.0
 10
9.3502388398
 20
10.6024009586
 30
0.0
 10
9.3506300061
 20
10.6024761129
 30
0.0
 10
9.3509446189
 20
10.6025261997
 30
0.0
 10
9.3511780491
 20
10.6026002879
 30
0.0
 10
9.3515176067
 20
10.6026907001
 30
0.0
 10
9.352098639
 20
10.6028528222
 30
0.0
 10
9.3529355829
 20
10.6030823859
 30
0.0
 10
9.3539369629
 20
10.6033587353
 30
0.0
 10
9.3552731681
 20
10.603726896
 30
0.0
 10
9.3569430678
 20
10.6041872022
 30
0.0
 10
9.3589471126
 20
10.6047395221
 30
0.0
 10
9.3609510676
 20
10.6052918638
 30
0.0
 10
9.3626211915
 20
10.6057521155
 30
0.0
 10
9.3639569482
 20
10.6061203853
 30
0.0
 10
9.3649596963
 20
10.6063964021
 30
0.0
 10
9.3657923603
 20
10.606627006
 30
0.0
 10
9.3663810329
 20
10.6067872712
 30
0.0
 10
9.3667083488
 20
10.6068806588
 30
0.0
 10
9.3669793815
 20
10.6069456077
 30
0.0
 10
9.3671527655
 20
10.6070300198
 30
0.0
 10
9.3674180051
 20
10.6071357802
 30
0.0
 10
9.3678663048
 20
10.6073240241
 30
0.0
 10
9.3685150298
 20
10.6075912902
 30
0.0
 10
9.3692899484
 20
10.6079127174
 30
0.0
 10
9.3703244142
 20
10.6083410396
 30
0.0
 10
9.3716170674
 20
10.6088765278
 30
0.0
 10
9.3731684487
 20
10.6095190749
 30
0.0
 10
9.374719727
 20
10.6101616403
 30
0.0
 10
9.3760126375
 20
10.6106970828
 30
0.0
 10
9.3770465889
 20
10.6111254965
 30
0.0
 10
9.3778230765
 20
10.6114466447
 30
0.0
 10
9.3784668928
 20
10.6117147836
 30
0.0
 10
9.3789239552
 20
10.6119014694
 30
0.0
 10
9.3791751549
 20
10.6120097263
 30
0.0
 10
9.3793916652
 20
10.6120864701
 30
0.0
 10
9.3795007226
 20
10.6121802198
 30
0.0
 10
9.3796836133
 20
10.6122992875
 30
0.0
 10
9.379986209
 20
10.6125104198
 30
0.0
 10
9.3804276184
 20
10.6128105924
 30
0.0
 10
9.3809534018
 20
10.613171418
 30
0.0
 10
9.3816558113
 20
10.6136523029
 30
0.0
 10
9.3825333558
 20
10.6142534829
 30
0.0
 10
9.3839376884
 20
10.6152153295
 30
0.0
 10
9.3856930138
 20
10.6164176521
 30
0.0
 10
9.3870973016
 20
10.6173795058
 30
0.0
 10
9.3877994421
 20
10.6178604332
 30
0.0
  0
SPLINE
  5
366
100
AcDbEntity
  8
0
100
AcDbSpline
 62
4
  6
CONTINUOUS
 70
0
 71
3
 72
227
 73
223
 74
0
 42
0.0000001
 43
0.0000001
 44
0.0000000001
 40
0.0
 40
0.0
 40
0.0
 40
0.0
 40
0.015625
 40
0.0234375
 40
0.03125
 40
0.0390625
 40
0.046875
 40
0.05078125
 40
0.0546875
 40
0.05859375
 40
0.060546875
 40
0.0615234375
 40
0.0625
 40
0.0634765625
 40
0.064453125
 40
0.06640625
 40
0.0703125
 40
0.07421875
 40
0.078125
 40
0.0859375
 40
0.09375
 40
0.1015625
 40
0.109375
 40
0.11328125
 40
0.1171875
 40
0.12109375
 40
0.123046875
 40
0.1240234375
 40
0.125
 40
0.1259765625
 40
0.126953125
 40
0.12890625
 40
0.1328125
 40
0.13671875
 40
0.140625
 40
0.1484375
 40
0.15625
 40
0.1640625
 40
0.171875
 40
0.17578125
 40
0.1796875
 40
0.18359375
 40
0.185546875
 40
0.1865234375
 40
0.1875
 40
0.1884765625
 40
0.189453125
 40
0.19140625
 40
0.1953125
 40
0.19921875
 40
0.203125
 40
0.2109375
 40
0.21875
 40
0.2265625
 40
0.234375
 40
0.23828125
 40
0.2421875
 40
0.24609375
 40
0.248046875
 40
0.2490234375
 40
0.25
 40
0.2509765625
 40
0.251953125
 40
0.25390625
 40
0.2578125
 40
0.26171875
 40
0.265625
 40
0.2734375
 40
0.28125
 40
0.2890625
 40
0.296875
 40
0.30078125
 40
0.3046875
 40
0.30859375
 40
0.310546875
 40
0.3115234375
 40
0.3125
 40
0.3134765625
 40
0.314453125
 40
0.31640625
 40
0.3203125
 40
0.32421875
 40
0.328125
 40
0.3359375
 40
0.34375
 40
0.3515625
 40
0.359375
 40
0.36328125
 40
0.3671875
 40
0.37109375
 40
0.373046875
 40
0.3740234375
 40
0.375
 40
0.3759765625
 40
0.376953125
 40
0.37890625
 40
0.3828125
 40
0.38671875
 40
0.390625
 40
0.3984375
 40
0.40625
 40
0.4140625
 40
0.421875
 40
0.42578125
 40
0.4296875
 40
0.43359375
 40
0.435546875
 40
0.4365234375
 40
0.4375
 40
0.4384765625
 40
0.439453125
 40
0.44140625
 40
0.4453125
 40
0.44921875
 40
0.453125
 40
0.4609375
 40
0.46875
 40
0.484375
 40
0.4921875
 40
0.49609375
 40
0.498046875
 40
0.5
 40
0.501953125
 40
0.50390625
 40
0.5078125
 40
0.515625
 40
0.53125
 40
0.546875
 40
0.5546875
 40
0.55859375
 40
0.5625
 40
0.56640625
 40
0.5703125
 40
0.578125
 40
0.59375
 40
0.609375
 40
0.6171875
 40
0.62109375
 40
0.623046875
 40
0.625
 40
0.626953125
 40
0.62890625
 40
0.6328125
 40
0.640625
 40
0.65625
 40
0.6640625
 40
0.671875
 40
0.6796875
 40
0.68359375
 40
0.685546875
 40
0.6875
 40
0.689453125
 40
0.69140625
 40
0.6953125
 40
0.703125
 40
0.71875
 40
0.7265625
 40
0.734375
 40
0.73828125
 40
0.7421875
 40
0.74609375
 40
0.748046875
 40
0.7490234375
 40
0.75
 40
0.7509765625
 40
0.751953125
 40
0.75390625
 40
0.7578125
 40
0.76171875
 40
0.765625
 40
0.7734375
 40
0.78125
 40
0.7890625
 40
0.796875
 40
0.80078125
 40
0.8046875
 40
0.80859375
 40
0.810546875
 40
0.8115234375
 40
0.8125
 40
0.8134765625
 40
0.814453125
 40
0.81640625
 40
0.8203125
 40
0.82421875
 40
0.828125
 40
0.8359375
 40
0.84375
 40
0.8515625
 40
0.859375
 40
0.86328125
 40
0.8671875
 40
0.87109375
 40
0.873046875
 40
0.8740234375
 40
0.875
 40
0.8759765625
 40
0.876953125
 40
0.87890625
 40
0.8828125
 40
0.88671875
 40
0.890625
 40
0.8984375
 40
0.90625
 40
0.9140625
 40
0.921875
 40
0.92578125
 40
0.9296875
 40
0.93359375
 40
0.935546875
 40
0.9365234375
 40
0.9375
 40
0.9384765625
 40
0.939453125
 40
0.94140625
 40
0.9453125
 40
0.94921875
 40
0.953125
 40
0.9609375
 40
0.96875
 40
0.984375
 40
1.0
 40
1.0
 40
1.0
 40
1.0
 10
11.9472546928
 20
9.6901045315
 30
0.0
 10
11.9475734488
 20
9.6906028747
 30
0.0
 10
11.9480515845
 20
9.6913503893
 30
0.0
 10
11.9486890921
 20
9.6923470756
 30
0.0
 10
11.9491672391
 20
9.69309459
 30
0.0
 10
11.9496453245
 20
9.6938421055
 30
0.0
 10
11.9500439205
 20
9.6944650318
 30
0.0
 10
11.9503623685
 20
9.6949633802
 30
0.0
 10
11.9506023762
 20
9.6953371214
 30
0.0
 10
11.9507986555
 20
9.6956486364
 30
0.0
 10
11.9509433653
 20
9.6958665712
 30
0.0
 10
11.951014636
 20
9.6959913017
 30
0.0
 10
11.9511002611
 20
9.6960842965
 30
0.0
 10
11.9510629084
 20
9.6961794054
 30
0.0
 10
11.9510560008
 20
9.6963054799
 30
0.0
 10
11.9510239265
 20
9.6965264537
 30
0.0
 10
11.950988555
 20
9.696841951
 30
0.0
 10
11.9509416366
 20
9.6972206246
 30
0.0
 10
11.9508806415
 20
9.6977254959
 30
0.0
 10
11.950803858
 20
9.6983565941
 30
0.0
 10
11.9507119643
 20
9.6991139086
 30
0.0
 10
11.9506199477
 20
9.6998712221
 30
0.0
 10
11.9505434716
 20
9.7005023228
 30
0.0
 10
11.9504818616
 20
9.7010071891
 30
0.0
 10
11.950436819
 20
9.701385878
 30
0.0
 10
11.9503955792
 20
9.7017013275
 30
0.0
 10
11.9503739807
 20
9.7019223866
 30
0.0
 10
11.9503502882
 20
9.7020483245
 30
0.0
 10
11.9503644933
 20
9.7021438527
 30
0.0
 10
11.9502564761
 20
9.7022352725
 30
0.0
 10
11.9501550857
 20
9.7023585986
 30
0.0
 10
11.9499577892
 20
9.7025737516
 30
0.0
 10
11.9496863218
 20
9.7028814621
 30
0.0
 10
11.9493561159
 20
9.7032505652
 30
0.0
 10
11.9489173945
 20
9.703742755
 30
0.0
 10
11.9483684563
 20
9.7043579741
 30
0.0
 10
11.9477099757
 20
9.7050962458
 30
0.0
 10
11.9470513724
 20
9.7058345115
 30
0.0
 10
11.946502741
 20
9.7064497454
 30
0.0
 10
11.9460634059
 20
9.7069419057
 30
0.0
 10
11.9457350717
 20
9.7073110987
 30
0.0
 10
11.9454577488
 20
9.7076185281
 30
0.0
 10
11.9452709053
 20
9.707834183
 30
0.0
 10
11.9451527667
 20
9.7079567049
 30
0.0
 10
11.9450961945
 20
9.708050595
 30
0.0
 10
11.9449171807
 20
9.7081368449
 30
0.0
 10
11.9447212047
 20
9.7082545097
 30
0.0
 10
11.9443583477
 20
9.7084591815
 30
0.0
 10
11.9438503841
 20
9.708752219
 30
0.0
 10
11.9432363745
 20
9.709103586
 30
0.0
 10
11.9424192511
 20
9.7095721726
 30
0.0
 10
11.94139731
 20
9.7101578719
 30
0.0
 10
11.9401712236
 20
9.710860728
 30
0.0
 10
11.9389450242
 20
9.7115635708
 30
0.0
 10
11.9379233659
 20
9.7121493032
 30
0.0
 10
11.9371056767
 20
9.7126178236
 30
0.0
 10
11.9364933927
 20
9.7129693923
 30
0.0
 10
11.9359800309
 20
9.7132617989
 30
0.0
 10
11.9356268105
 20
9.7134675969
 30
0.0
 10
11.9354153943
 20
9.7135834574
 30
0.0
 10
11.9352838079
 20
9.7136752496
 30
0.0
 10
11.9350491063
 20
9.7137483234
 30
0.0
 10
11.9347721386
 20
9.7138522843
 30
0.0
 10
11.9342706871
 20
9.7140311737
 30
0.0
 10
11.9335630891
 20
9.7142883206
 30
0.0
 10
11.9327102213
 20
9.714596216
 30
0.0
 10
11.9315743746
 20
9.7150069811
 30
0.0
 10
11.9301541139
 20
9.7155203552
 30
0.0
 10
11.9284500066
 20
9.7161364421
 30
0.0
 10
11.926745801
 20
9.716752509
 30
0.0
 10
11.925325786
 20
9.7172659329
 30
0.0
 10
11.924189448
 20
9.7176765984
 30
0.0
 10
11.9233380785
 20
9.7179847977
 30
0.0
 10
11.9226257933
 20
9.7182409937
 30
0.0
 10
11.9221327091
 20
9.7184215806
 30
0.0
 10
11.9218423348
 20
9.7185228218
 30
0.0
 10
11.9216488141
 20
9.7186042495
 30
0.0
 10
11.9213625592
 20
9.7186646656
 30
0.0
 10
11.9210132328
 20
9.7187525496
 30
0.0
 10
11.9203868406
 20
9.7189029316
 30
0.0
 10
11.9194998739
 20
9.7191195485
 30
0.0
 10
11.9184321412
 20
9.7193787245
 30
0.0
 10
11.917009676
 20
9.7197245596
 30
0.0
 10
11.9152311879
 20
9.720156761
 30
0.0
 10
11.913097186
 20
9.7206754456
 30
0.0
 10
11.9109630998
 20
9.7211941069
 30
0.0
 10
11.9091848224
 20
9.7216263664
 30
0.0
 10
11.9077619359
 20
9.7219720854
 30
0.0
 10
11.9066954879
 20
9.7222316155
 30
0.0
 10
11.9058045021
 20
9.7224471246
 30
0.0
 10
11.9051852846
 20
9.7225994841
 30
0.0
 10
11.9048244625
 20
9.7226841997
 30
0.0
 10
11.9045735187
 20
9.722754348
 30
0.0
 10
11.9042473754
 20
9.7227992231
 30
0.0
 10
11.9038387481
 20
9.7228678721
 30
0.0
 10
11.903111429
 20
9.7229839005
 30
0.0
 10
11.9020787912
 20
9.7231518027
 30
0.0
 10
11.9008368908
 20
9.7233523663
 30
0.0
 10
11.8991819794
 20
9.7236201055
 30
0.0
 10
11.8971130102
 20
9.7239546685
 30
0.0
 10
11.8946303968
 20
9.7243561952
 30
0.0
 10
11.8921477127
 20
9.7247576952
 30
0.0
 10
11.8900789203
 20
9.7250923248
 30
0.0
 10
11.8884236553
 20
9.7253599309
 30
0.0
 10
11.887182833
 20
9.7255609005
 30
0.0
 10
11.8861468229
 20
9.7257275323
 30
0.0
 10
11.8854255238
 20
9.7258458286
 30
0.0
 10
11.885007251
 20
9.7259108438
 30
0.0
 10
11.8847107355
 20
9.7259668808
 30
0.0
 10
11.8843485144
 20
9.7259951069
 30
0.0
 10
11.8838884718
 20
9.7260424424
 30
0.0
 10
11.883072719
 20
9.7261207599
 30
0.0
 10
11.8819129405
 20
9.7262350047
 30
0.0
 10
11.8805188173
 20
9.7263710881
 30
0.0
 10
11.8786608177
 20
9.7265528811
 30
0.0
 10
11.8763380551
 20
9.7267800347
 30
0.0
 10
11.8726216567
 20
9.7271433444
 30
0.0
 10
11.8689059697
 20
9.7275077508
 30
0.0
 10
11.8656528619
 20
9.7278238169
 30
0.0
 10
11.8640288192
 20
9.7279855544
 30
0.0
 10
11.8630967587
 20
9.7280720238
 30
0.0
 10
11.8624091043
 20
9.7281536734
 30
0.0
 10
11.8616779038
 20
9.7281711092
 30
0.0
 10
11.8607181576
 20
9.7282167523
 30
0.0
 10
11.8590315419
 20
9.7282862244
 30
0.0
 10
11.8556632922
 20
9.7284324334
 30
0.0
 10
11.8508491489
 20
9.7286384812
 30
0.0
 10
11.8460349487
 20
9.7288419799
 30
0.0
 10
11.8426667785
 20
9.7289917578
 30
0.0
 10
11.8407390928
 20
9.7290655461
 30
0.0
 10
11.8393018738
 20
9.7291541907
 30
0.0
 10
11.8378319823
 20
9.7291155213
 30
0.0
 10
11.8358835258
 20
9.7291083666
 30
0.0
 10
11.8324683935
 20
9.7290751968
 30
0.0
 10
11.8275926024
 20
9.7290382868
 30
0.0
 10
11.8227150926
 20
9.7289988066
 30
0.0
 10
11.8193023665
 20
9.728969235
 30
0.0
 10
11.8175941585
 20
9.7289580271
 30
0.0
 10
11.8166209837
 20
9.7289457656
 30
0.0
 10
11.8158827977
 20
9.728953118
 30
0.0
 10
11.8151763591
 20
9.7288972048
 30
0.0
 10
11.8142233683
 20
9.7288447195
 30
0.0
 10
11.8125607829
 20
9.7287426093
 30
0.0
 10
11.8092319604
 20
9.7285456767
 30
0.0
 10
11.8054290956
 20
9.7283175447
 30
0.0
 10
11.8016258928
 20
9.7280902822
 30
0.0
 10
11.7987730011
 20
9.7279202929
 30
0.0
 10
11.796397364
 20
9.7277767478
 30
0.0
 10
11.7947309097
 20
9.7276800295
 30
0.0
 10
11.7937841326
 20
9.7276188767
 30
0.0
 10
11.7930586047
 20
9.7275895927
 30
0.0
 10
11.792392116
 20
9.7274969287
 30
0.0
 10
11.7914828727
 20
9.7273954826
 30
0.0
 10
11.7899012732
 20
9.7272076711
 30
0.0
 10
11.7867312642
 20
9.7268393609
 30
0.0
 10
11.7831113165
 20
9.7264152882
 30
0.0
 10
11.7794903927
 20
9.7259922984
 30
0.0
 10
11.7772273224
 20
9.7257278447
 30
0.0
 10
11.7754170933
 20
9.7255162152
 30
0.0
 10
11.7740587357
 20
9.7253577438
 30
0.0
 10
11.7729289622
 20
9.7252248763
 30
0.0
 10
11.7721338194
 20
9.7251334561
 30
0.0
 10
11.7716861685
 20
9.7250787376
 30
0.0
 10
11.77133151
 20
9.7250446806
 30
0.0
 10
11.7710491745
 20
9.7249839354
 30
0.0
 10
11.7706475002
 20
9.724912251
 30
0.0
 10
11.7699563238
 20
9.7247824659
 30
0.0
 10
11.7689627839
 20
9.7245993262
 30
0.0
 10
11.7677731665
 20
9.7243785879
 30
0.0
 10
11.7661860907
 20
9.7240846094
 30
0.0
 10
11.7642025637
 20
9.7237170192
 30
0.0
 10
11.7618221849
 20
9.7232759641
 30
0.0
 10
11.7594418832
 20
9.7228348836
 30
0.0
 10
11.7574581636
 20
9.722467357
 30
0.0
 10
11.7558714729
 20
9.7221732514
 30
0.0
 10
11.7546806811
 20
9.7219529009
 30
0.0
 10
11.753690815
 20
9.7217685481
 30
0.0
 10
11.7529930803
 20
9.7216409286
 30
0.0
 10
11.752601914
 20
9.7215657743
 30
0.0
 10
11.7522873012
 20
9.7215156875
 30
0.0
 10
11.752053871
 20
9.7214415993
 30
0.0
 10
11.7517143134
 20
9.721351187
 30
0.0
 10
11.7511332811
 20
9.721189065
 30
0.0
 10
11.7502963373
 20
9.7209595013
 30
0.0
 10
11.7492949572
 20
9.7206831519
 30
0.0
 10
11.747958752
 20
9.7203149911
 30
0.0
 10
11.7462888523
 20
9.719854685
 30
0.0
 10
11.7442848076
 20
9.7193023651
 30
0.0
 10
11.7422808525
 20
9.7187500234
 30
0.0
 10
11.7406107286
 20
9.7182897717
 30
0.0
 10
11.739274972
 20
9.7179215019
 30
0.0
 10
11.7382722238
 20
9.717645485
 30
0.0
 10
11.7374395599
 20
9.7174148811
 30
0.0
 10
11.7368508873
 20
9.717254616
 30
0.0
 10
11.7365235713
 20
9.7171612284
 30
0.0
 10
11.7362525387
 20
9.7170962795
 30
0.0
 10
11.7360791547
 20
9.7170118674
 30
0.0
 10
11.735813915
 20
9.716906107
 30
0.0
 10
11.7353656153
 20
9.7167178631
 30
0.0
 10
11.7347168903
 20
9.716450597
 30
0.0
 10
11.7339419718
 20
9.7161291698
 30
0.0
 10
11.732907506
 20
9.7157008475
 30
0.0
 10
11.7316148527
 20
9.7151653594
 30
0.0
 10
11.7300634715
 20
9.7145228123
 30
0.0
 10
11.7285121931
 20
9.7138802469
 30
0.0
 10
11.7272192826
 20
9.7133448044
 30
0.0
 10
11.7261853313
 20
9.7129163907
 30
0.0
 10
11.7254088437
 20
9.7125952425
 30
0.0
 10
11.7247650273
 20
9.7123271036
 30
0.0
 10
11.7243079649
 20
9.7121404178
 30
0.0
 10
11.7240567653
 20
9.7120321609
 30
0.0
 10
11.723840255
 20
9.7119554171
 30
0.0
 10
11.7237311976
 20
9.7118616674
 30
0.0
 10
11.7235483069
 20
9.7117425997
 30
0.0
 10
11.7232457112
 20
9.7115314674
 30
0.0
 10
11.7228043018
 20
9.7112312948
 30
0.0
 10
11.7222785183
 20
9.7108704691
 30
0.0
 10
11.7215761088
 20
9.7103895843
 30
0.0
 10
11.7206985643
 20
9.7097884043
 30
0.0
 10
11.7192942318
 20
9.7088265577
 30
0.0
 10
11.7175389064
 20
9.7076242351
 30
0.0
 10
11.7161346186
 20
9.7066623813
 30
0.0
 10
11.7154324781
 20
9.7061814539
 30
0.0
  0
SPLINE
  5
367
100
AcDbEntity
  8
0
100
AcDbSpline
 62
4
  6
CONTINUOUS
 70
0
 71
3
 72
227
 73
223
 74
0
 42
0.0000001
 43
0.0000001
 44
0.0000000001
 40
0.0
 40
0.0
 40
0.0
 40
0.0
 40
0.015625
 40
0.0234375
 40
0.03125
 40
0.0390625
 40
0.046875
 40
0.05078125
 40
0.0546875
 40
0.05859375
 40
0.060546875
 40
0.0615234375
 40
0.0625
 40
0.0634765625
 40
0.064453125
 40
0.06640625
 40
0.0703125
 40
0.07421875
 40
0.078125
 40
0.0859375
 40
0.09375
 40
0.1015625
 40
0.109375
 40
0.11328125
 40
0.1171875
 40
0.12109375
 40
0.123046875
 40
0.1240234375
 40
0.125
 40
0.1259765625
 40
0.126953125
 40
0.12890625
 40
0.1328125
 40
0.13671875
 40
0.140625
 40
0.1484375
 40
0.15625
 40
0.1640625
 40
0.171875
 40
0.17578125
 40
0.1796875
 40
0.18359375
 40
0.185546875
 40
0.1865234375
 40
0.1875
 40
0.1884765625
 40
0.189453125
 40
0.19140625
 40
0.1953125
 40
0.19921875
 40
0.203125
 40
0.2109375
 40
0.21875
 40
0.2265625
 40
0.234375
 40
0.23828125
 40
0.2421875
 40
0.24609375
 40
0.248046875
 40
0.2490234375
 40
0.25
 40
0.2509765625
 40
0.251953125
 40
0.25390625
 40
0.2578125
 40
0.26171875
 40
0.265625
 40
0.2734375
 40
0.28125
 40
0.2890625
 40
0.296875
 40
0.30078125
 40
0.3046875
 40
0.30859375
 40
0.310546875
 40
0.3115234375
 40
0.3125
 40
0.3134765625
 40
0.314453125
 40
0.31640625
 40
0.3203125
 40
0.32421875
 40
0.328125
 40
0.3359375
 40
0.34375
 40
0.3515625
 40
0.359375
 40
0.36328125
 40
0.3671875
 40
0.37109375
 40
0.373046875
 40
0.3740234375
 40
0.375
 40
0.3759765625
 40
0.376953125
 40
0.37890625
 40
0.3828125
 40
0.38671875
 40
0.390625
 40
0.3984375
 40
0.40625
 40
0.4140625
 40
0.421875
 40
0.42578125
 40
0.4296875
 40
0.43359375
 40
0.435546875
 40
0.4365234375
 40
0.4375
 40
0.4384765625
 40
0.439453125
 40
0.44140625
 40
0.4453125
 40
0.44921875
 40
0.453125
 40
0.4609375
 40
0.46875
 40
0.484375
 40
0.4921875
 40
0.49609375
 40
0.498046875
 40
0.5
 40
0.501953125
 40
0.50390625
 40
0.5078125
 40
0.515625
 40
0.53125
 40
0.546875
 40
0.5546875
 40
0.55859375
 40
0.5625
 40
0.56640625
 40
0.5703125
 40
0.578125
 40
0.59375
 40
0.609375
 40
0.6171875
 40
0.62109375
 40
0.623046875
 40
0.625
 40
0.626953125
 40
0.62890625
 40
0.6328125
 40
0.640625
 40
0.65625
 40
0.6640625
 40
0.671875
 40
0.6796875
 40
0.68359375
 40
0.685546875
 40
0.6875
 40
0.689453125
 40
0.69140625
 40
0.6953125
 40
0.703125
 40
0.71875
 40
0.7265625
 40
0.734375
 40
0.73828125
 40
0.7421875
 40
0.74609375
 40
0.748046875
 40
0.7490234375
 40
0.75
 40
0.7509765625
 40
0.751953125
 40
0.75390625
 40
0.7578125
 40
0.76171875
 40
0.765625
 40
0.7734375
 40
0.78125
 40
0.7890625
 40
0.796875
 40
0.80078125
 40
0.8046875
 40
0.80859375
 40
0.810546875
 40
0.8115234375
 40
0.8125
 40
0.8134765625
 40
0.814453125
 40
0.81640625
 40
0.8203125
 40
0.82421875
 40
0.828125
 40
0.8359375
 40
0.84375
 40
0.8515625
 40
0.859375
 40
0.86328125
 40
0.8671875
 40
0.87109375
 40
0.873046875
 40
0.8740234375
 40
0.875
 40
0.8759765625
 40
0.876953125
 40
0.87890625
 40
0.8828125
 40
0.88671875
 40
0.890625
 40
0.8984375
 40
0.90625
 40
0.9140625
 40
0.921875
 40
0.92578125
 40
0.9296875
 40
0.93359375
 40
0.935546875
 40
0.9365234375
 40
0.9375
 40
0.9384765625
 40
0.939453125
 40
0.94140625
 40
0.9453125
 40
0.94921875
 40
0.953125
 40
0.9609375
 40
0.96875
 40
0.984375
 40
1.0
 40
1.0
 40
1.0
 40
1.0
 10
11.7154324808
 20
9.7061814566
 30
0.0
 10
11.7151137248
 20
9.7056831134
 30
0.0
 10
11.7146355892
 20
9.7049355988
 30
0.0
 10
11.7139980815
 20
9.7039389125
 30
0.0
 10
11.7135199346
 20
9.7031913981
 30
0.0
 10
11.7130418491
 20
9.7024438826
 30
0.0
 10
11.7126432531
 20
9.7018209563
 30
0.0
 10
11.7123248051
 20
9.7013226079
 30
0.0
 10
11.7120847974
 20
9.7009488667
 30
0.0
 10
11.7118885181
 20
9.7006373517
 30
0.0
 10
11.7117438083
 20
9.7004194169
 30
0.0
 10
11.7116725376
 20
9.7002946864
 30
0.0
 10
11.7115869126
 20
9.7002016916
 30
0.0
 10
11.7116242653
 20
9.7001065827
 30
0.0
 10
11.7116311729
 20
9.6999805082
 30
0.0
 10
11.7116632472
 20
9.6997595344
 30
0.0
 10
11.7116986187
 20
9.6994440371
 30
0.0
 10
11.7117455371
 20
9.6990653635
 30
0.0
 10
11.7118065321
 20
9.6985604922
 30
0.0
 10
11.7118833157
 20
9.697929394
 30
0.0
 10
11.7119752093
 20
9.6971720795
 30
0.0
 10
11.7120672259
 20
9.696414766
 30
0.0
 10
11.712143702
 20
9.6957836653
 30
0.0
 10
11.7122053121
 20
9.695278799
 30
0.0
 10
11.7122503547
 20
9.6949001101
 30
0.0
 10
11.7122915945
 20
9.6945846606
 30
0.0
 10
11.712313193
 20
9.6943636015
 30
0.0
 10
11.7123368854
 20
9.6942376636
 30
0.0
 10
11.7123226804
 20
9.6941421354
 30
0.0
 10
11.7124306976
 20
9.6940507156
 30
0.0
 10
11.712532088
 20
9.6939273895
 30
0.0
 10
11.7127293845
 20
9.6937122365
 30
0.0
 10
11.7130008518
 20
9.693404526
 30
0.0
 10
11.7133310578
 20
9.6930354229
 30
0.0
 10
11.7137697792
 20
9.6925432331
 30
0.0
 10
11.7143187174
 20
9.691928014
 30
0.0
 10
11.714977198
 20
9.6911897423
 30
0.0
 10
11.7156358013
 20
9.6904514766
 30
0.0
 10
11.7161844327
 20
9.6898362427
 30
0.0
 10
11.7166237677
 20
9.6893440824
 30
0.0
 10
11.716952102
 20
9.6889748894
 30
0.0
 10
11.7172294248
 20
9.68866746
 30
0.0
 10
11.7174162684
 20
9.6884518051
 30
0.0
 10
11.717534407
 20
9.6883292832
 30
0.0
 10
11.7175909792
 20
9.6882353931
 30
0.0
 10
11.7177699929
 20
9.6881491432
 30
0.0
 10
11.717965969
 20
9.6880314784
 30
0.0
 10
11.7183288259
 20
9.6878268066
 30
0.0
 10
11.7188367896
 20
9.6875337691
 30
0.0
 10
11.7194507991
 20
9.6871824021
 30
0.0
 10
11.7202679225
 20
9.6867138155
 30
0.0
 10
11.7212898637
 20
9.6861281162
 30
0.0
 10
11.72251595
 20
9.6854252601
 30
0.0
 10
11.7237421495
 20
9.6847224173
 30
0.0
 10
11.7247638077
 20
9.6841366849
 30
0.0
 10
11.7255814969
 20
9.6836681645
 30
0.0
 10
11.7261937809
 20
9.6833165958
 30
0.0
 10
11.7267071428
 20
9.6830241892
 30
0.0
 10
11.7270603632
 20
9.6828183912
 30
0.0
 10
11.7272717794
 20
9.6827025307
 30
0.0
 10
11.7274033658
 20
9.6826107385
 30
0.0
 10
11.7276380674
 20
9.6825376647
 30
0.0
 10
11.7279150351
 20
9.6824337038
 30
0.0
 10
11.7284164866
 20
9.6822548144
 30
0.0
 10
11.7291240846
 20
9.6819976675
 30
0.0
 10
11.7299769524
 20
9.6816897721
 30
0.0
 10
11.7311127991
 20
9.681279007
 30
0.0
 10
11.7325330597
 20
9.6807656329
 30
0.0
 10
11.7342371671
 20
9.680149546
 30
0.0
 10
11.7359413726
 20
9.6795334791
 30
0.0
 10
11.7373613877
 20
9.6790200552
 30
0.0
 10
11.7384977256
 20
9.6786093897
 30
0.0
 10
11.7393490952
 20
9.6783011904
 30
0.0
 10
11.7400613804
 20
9.6780449944
 30
0.0
 10
11.7405544645
 20
9.6778644075
 30
0.0
 10
11.7408448388
 20
9.6777631663
 30
0.0
 10
11.7410383595
 20
9.6776817386
 30
0.0
 10
11.7413246144
 20
9.6776213225
 30
0.0
 10
11.7416739408
 20
9.6775334385
 30
0.0
 10
11.742300333
 20
9.6773830565
 30
0.0
 10
11.7431872997
 20
9.6771664396
 30
0.0
 10
11.7442550325
 20
9.6769072636
 30
0.0
 10
11.7456774977
 20
9.6765614285
 30
0.0
 10
11.7474559857
 20
9.6761292271
 30
0.0
 10
11.7495899877
 20
9.6756105425
 30
0.0
 10
11.7517240739
 20
9.6750918812
 30
0.0
 10
11.7535023513
 20
9.6746596217
 30
0.0
 10
11.7549252377
 20
9.6743139027
 30
0.0
 10
11.7559916857
 20
9.6740543726
 30
0.0
 10
11.7568826716
 20
9.6738388635
 30
0.0
 10
11.757501889
 20
9.673686504
 30
0.0
 10
11.7578627112
 20
9.6736017884
 30
0.0
 10
11.7581136549
 20
9.6735316401
 30
0.0
 10
11.7584397983
 20
9.673486765
 30
0.0
 10
11.7588484256
 20
9.673418116
 30
0.0
 10
11.7595757447
 20
9.6733020876
 30
0.0
 10
11.7606083825
 20
9.6731341854
 30
0.0
 10
11.7618502828
 20
9.6729336218
 30
0.0
 10
11.7635051943
 20
9.6726658826
 30
0.0
 10
11.7655741635
 20
9.6723313196
 30
0.0
 10
11.7680567769
 20
9.6719297929
 30
0.0
 10
11.7705394609
 20
9.6715282929
 30
0.0
 10
11.7726082534
 20
9.6711936633
 30
0.0
 10
11.7742635183
 20
9.6709260572
 30
0.0
 10
11.7755043407
 20
9.6707250876
 30
0.0
 10
11.7765403508
 20
9.6705584558
 30
0.0
 10
11.7772616499
 20
9.6704401595
 30
0.0
 10
11.7776799227
 20
9.6703751443
 30
0.0
 10
11.7779764382
 20
9.6703191073
 30
0.0
 10
11.7783386592
 20
9.6702908812
 30
0.0
 10
11.7787987018
 20
9.6702435457
 30
0.0
 10
11.7796144546
 20
9.6701652282
 30
0.0
 10
11.7807742332
 20
9.6700509834
 30
0.0
 10
11.7821683564
 20
9.6699149
 30
0.0
 10
11.7840263559
 20
9.669733107
 30
0.0
 10
11.7863491186
 20
9.6695059534
 30
0.0
 10
11.7900655169
 20
9.6691426437
 30
0.0
 10
11.793781204
 20
9.6687782373
 30
0.0
 10
11.7970343118
 20
9.6684621712
 30
0.0
 10
11.7986583544
 20
9.6683004337
 30
0.0
 10
11.799590415
 20
9.6682139643
 30
0.0
 10
11.8002780694
 20
9.6681323147
 30
0.0
 10
11.8010092698
 20
9.6681148789
 30
0.0
 10
11.8019690161
 20
9.6680692358
 30
0.0
 10
11.8036556317
 20
9.6679997637
 30
0.0
 10
11.8070238815
 20
9.6678535547
 30
0.0
 10
11.8118380248
 20
9.6676475069
 30
0.0
 10
11.8166522249
 20
9.6674440082
 30
0.0
 10
11.8200203951
 20
9.6672942303
 30
0.0
 10
11.8219480808
 20
9.667220442
 30
0.0
 10
11.8233852998
 20
9.6671317974
 30
0.0
 10
11.8248551913
 20
9.6671704668
 30
0.0
 10
11.8268036479
 20
9.6671776215
 30
0.0
 10
11.8302187802
 20
9.6672107913
 30
0.0
 10
11.8350945713
 20
9.6672477013
 30
0.0
 10
11.839972081
 20
9.6672871815
 30
0.0
 10
11.8433848072
 20
9.6673167531
 30
0.0
 10
11.8450930151
 20
9.667327961
 30
0.0
 10
11.84606619
 20
9.6673402225
 30
0.0
 10
11.846804376
 20
9.6673328701
 30
0.0
 10
11.8475108145
 20
9.6673887833
 30
0.0
 10
11.8484638054
 20
9.6674412686
 30
0.0
 10
11.8501263908
 20
9.6675433788
 30
0.0
 10
11.8534552133
 20
9.6677403114
 30
0.0
 10
11.857258078
 20
9.6679684434
 30
0.0
 10
11.8610612809
 20
9.6681957059
 30
0.0
 10
11.8639141725
 20
9.6683656952
 30
0.0
 10
11.8662898096
 20
9.6685092403
 30
0.0
 10
11.8679562639
 20
9.6686059586
 30
0.0
 10
11.868903041
 20
9.6686671114
 30
0.0
 10
11.869628569
 20
9.6686963954
 30
0.0
 10
11.8702950576
 20
9.6687890594
 30
0.0
 10
11.871204301
 20
9.6688905055
 30
0.0
 10
11.8727859005
 20
9.669078317
 30
0.0
 10
11.8759559094
 20
9.6694466272
 30
0.0
 10
11.8795758572
 20
9.6698706999
 30
0.0
 10
11.8831967809
 20
9.6702936897
 30
0.0
 10
11.8854598513
 20
9.6705581434
 30
0.0
 10
11.8872700804
 20
9.6707697729
 30
0.0
 10
11.8886284379
 20
9.6709282443
 30
0.0
 10
11.8897582114
 20
9.6710611118
 30
0.0
 10
11.8905533543
 20
9.671152532
 30
0.0
 10
11.8910010052
 20
9.6712072505
 30
0.0
 10
11.8913556636
 20
9.6712413075
 30
0.0
 10
11.8916379991
 20
9.6713020527
 30
0.0
 10
11.8920396735
 20
9.6713737371
 30
0.0
 10
11.8927308499
 20
9.6715035222
 30
0.0
 10
11.8937243897
 20
9.6716866619
 30
0.0
 10
11.8949140072
 20
9.6719074002
 30
0.0
 10
11.896501083
 20
9.6722013787
 30
0.0
 10
11.89848461
 20
9.6725689689
 30
0.0
 10
11.9008649887
 20
9.673010024
 30
0.0
 10
11.9032452905
 20
9.6734511045
 30
0.0
 10
11.90522901
 20
9.6738186311
 30
0.0
 10
11.9068157008
 20
9.6741127367
 30
0.0
 10
11.9080064926
 20
9.6743330872
 30
0.0
 10
11.9089963586
 20
9.67451744
 30
0.0
 10
11.9096940933
 20
9.6746450595
 30
0.0
 10
11.9100852596
 20
9.6747202138
 30
0.0
 10
11.9103998724
 20
9.6747703006
 30
0.0
 10
11.9106333026
 20
9.6748443888
 30
0.0
 10
11.9109728603
 20
9.6749348011
 30
0.0
 10
11.9115538925
 20
9.6750969231
 30
0.0
 10
11.9123908364
 20
9.6753264868
 30
0.0
 10
11.9133922165
 20
9.6756028362
 30
0.0
 10
11.9147284216
 20
9.675970997
 30
0.0
 10
11.9163983213
 20
9.6764313031
 30
0.0
 10
11.9184023661
 20
9.676983623
 30
0.0
 10
11.9204063211
 20
9.6775359647
 30
0.0
 10
11.922076445
 20
9.6779962164
 30
0.0
 10
11.9234122017
 20
9.6783644862
 30
0.0
 10
11.9244149498
 20
9.6786405031
 30
0.0
 10
11.9252476138
 20
9.678871107
 30
0.0
 10
11.9258362864
 20
9.6790313721
 30
0.0
 10
11.9261636023
 20
9.6791247597
 30
0.0
 10
11.926434635
 20
9.6791897086
 30
0.0
 10
11.926608019
 20
9.6792741207
 30
0.0
 10
11.9268732586
 20
9.6793798811
 30
0.0
 10
11.9273215583
 20
9.679568125
 30
0.0
 10
11.9279702833
 20
9.6798353911
 30
0.0
 10
11.9287452019
 20
9.6801568183
 30
0.0
 10
11.9297796677
 20
9.6805851406
 30
0.0
 10
11.931072321
 20
9.6811206287
 30
0.0
 10
11.9326237022
 20
9.6817631758
 30
0.0
 10
11.9341749805
 20
9.6824057412
 30
0.0
 10
11.935467891
 20
9.6829411837
 30
0.0
 10
11.9365018424
 20
9.6833695974
 30
0.0
 10
11.93727833
 20
9.6836907456
 30
0.0
 10
11.9379221463
 20
9.6839588845
 30
0.0
 10
11.9383792087
 20
9.6841455703
 30
0.0
 10
11.9386304084
 20
9.6842538272
 30
0.0
 10
11.9388469187
 20
9.684330571
 30
0.0
 10
11.9389559761
 20
9.6844243207
 30
0.0
 10
11.9391388668
 20
9.6845433884
 30
0.0
 10
11.9394414625
 20
9.6847545207
 30
0.0
 10
11.9398828719
 20
9.6850546933
 30
0.0
 10
11.9404086553
 20
9.685415519
 30
0.0
 10
11.9411110648
 20
9.6858964038
 30
0.0
 10
11.9419886093
 20
9.6864975838
 30
0.0
 10
11.9433929419
 20
9.6874594304
 30
0.0
 10
11.9451482673
 20
9.688661753
 30
0.0
 10
11.9465525551
 20
9.6896236068
 30
0.0
 10
11.9472546956
 20
9.6901045342
 30
0.0
  0
ENDSEC
  0
SECTION
  2
OBJECTS
  0
DICTIONARY
  5
C
100
AcDbDictionary
280
0
281
1
  3
ACAD_GROUP
350
D
  3
ACAD_MLINESTYLE
350
17
  3
ACAD_LAYOUT
350
1A
  3
ACAD_PLOTSETTINGS
350
19
  3
ACAD_PLOTSTYLENAME
350
E
  3
ACAD_IMAGE_DICT
350
       369
  3
ACAD_IMAGE_VARS
350
       36A
  3
ACAD_TABLESTYLE
350
       36B
  0
IMAGEDEF_REACTOR
  5
368
100
AcDbRasterImageDefReactor
 90
2
330
26D
  0
DICTIONARY
  5
D
102
{ACAD_REACTORS
330
C
102
}
100
AcDbDictionary
280
0
281
1
  0
ACDBDICTIONARYWDFLT
  5
E
102
{ACAD_REACTORS
330
C
102
}
100
AcDbDictionary
281
1
  3
Normal
350
F
100
AcDbDictionaryWithDefault
340
F
  0
DICTIONARY
  5
369
330
C
100
AcDbDictionary
281
1
  3
GDA_assy_2_img_1
350
       36E
  0
RASTERVARIABLES
  5
36A
330
C
100
AcDbRasterVariables
 90
0
 70
0
 71
1
 72
5
  0
DICTIONARY
  5
17
102
{ACAD_REACTORS
330
C
102
}
100
AcDbDictionary
280
0
281
1
  3
Standard
350
18
  0
DICTIONARY
  5
36B
330
C
100
AcDbDictionary
281
1
  3
Standard
350
       36F
  3
Standard1
350
       370
  0
DICTIONARY
  5
19
102
{ACAD_REACTORS
330
C
102
}
100
AcDbDictionary
281
1
  0
DICTIONARY
  5
1A
102
{ACAD_REACTORS
330
C
102
}
100
AcDbDictionary
281
1
  3
Model
350
36C
  3
Layout1
350
36D
  0
ACDBPLACEHOLDER
  5
F
102
{ACAD_REACTORS
330
E
102
}
  0
MLINESTYLE
  5
18
102
{ACAD_REACTORS
330
17
102
}
100
AcDbMlineStyle
  2
STANDARD
 70
0
  3

 62
256
 51
90.0
 52
90.0
 71
2
 49
0.5
 62
256
  6
BYLAYER
 49
-0.5
 62
256
  6
BYLAYER
  0
LAYOUT
  5
36C
102
{ACAD_REACTORS
330
1A
102
}
100
AcDbPlotSettings
  1

  2
none_device
  4
ANSI_C_(22.00_x_17.00_Inches)
  6

 40
0.0
 41
0.0
 42
0.0
 43
0.0
 44
558.8
 45
431.8
 46
0.0
 47
0.0
 48
0.0
 49
0.0
140
0.0
141
0.0
142
1.0
143
1.0
 70
1024
 72
0
 73
0
 74
0
  7

 75
0
147
1.0
148
0.0
149
0.0
100
AcDbLayout
  1
Model
 70
0
 71
0
 10
0.0
 20
0.0
 11
22.0
 21
17.0
 12
0.0
 22
0.0
 32
0.0
 14
0.0
 24
0.0
 34
0.0
 15
0.0
 25
0.0
 35
0.0
146
0.0
 13
0.0
 23
0.0
 33
0.0
 16
1.0
 26
0.0
 36
0.0
 17
0.0
 27
1.0
 37
0.0
 76
0
330
207
345
0
346
0
  0
LAYOUT
  5
36D
102
{ACAD_REACTORS
330
1A
102
}
100
AcDbPlotSettings
  1

  2
none_device
  4
ANSI_C_(22.00_x_17.00_Inches)
  6

 40
0.0
 41
0.0
 42
0.0
 43
0.0
 44
558.8
 45
431.8
 46
0.0
 47
0.0
 48
0.0
 49
0.0
140
0.0
141
0.0
142
1.0
143
1.0
 70
0
 72
0
 73
0
 74
0
  7

 75
0
147
1.0
148
0.0
149
0.0
100
AcDbLayout
  1
Layout1
 70
0
 71
1
 10
0.0
 20
0.0
 11
22.0
 21
17.0
 12
0.0
 22
0.0
 32
0.0
 14
0.0
 24
0.0
 34
0.0
 15
0.0
 25
0.0
 35
0.0
146
0.0
 13
0.0
 23
0.0
 33
0.0
 16
1.0
 26
0.0
 36
0.0
 17
0.0
 27
1.0
 37
0.0
 76
0
330
208
345
0
346
0
  0
IMAGEDEF
  5
36E
102
{ACAD_REACTORS
330
369
330
368
102
}
100
AcDbRasterImageDef
 90
0
  1
GDA_assy_2_img_1.png
 10
369.0
 20
92.0
 11
0.0066666667
 21
0.0066666667
280
1
281
0
  0
TABLESTYLE
  5
36F
102
{ACAD_REACTORS
330
36B
330
270
102
}
330
36B
100
AcDbTableStyle
  3
Standard
 70
0
 71
0
 40
0.06
 41
0.06
280
1
281
1
  7
Standard
140
0.18
170
1
 62
0
 63
7
283
0
  7
Standard
140
0.18
170
1
 62
0
 63
7
283
0
  7
Standard
140
0.18
170
1
 62
0
 63
7
283
0
  0
TABLESTYLE
  5
370
102
{ACAD_REACTORS
330
36B
330
26F
102
}
330
36B
100
AcDbTableStyle
  3
Standard1
 70
1
 71
0
 40
0.06
 41
0.06
280
1
281
1
  7
Standard
140
0.18
170
1
 62
0
 63
7
283
0
  7
Standard
140
0.18
170
1
 62
0
 63
7
283
0
  7
Standard
140
0.18
170
1
 62
0
 63
7
283
0
  0
ENDSEC
  0
EOF
