999
DXF file: GBX_2.dxf
999
Pro/ENGINEER 2006240 by Parametric Technology Corporation
  0
SECTION
  2
HEADER
  9
$ACADVER
  1
AC1015
  9
$DWGCODEPAGE
  3
ANSI_1252
  9
$EXTMAX
 10
22.0
 20
17.0
 30
0.0
  9
$EXTMIN
 10
0.0
 20
0.0
 30
0.0
  9
$LIMMIN
 10
0.0
 20
0.0
  9
$LIMMAX
 10
22.0
 20
17.0
  9
$VIEWCTR
 10
11.0
 20
8.5
  9
$VIEWSIZE
 40
17.0
  9
$CLAYER
  8
0
  9
$LTSCALE
 40
1.21
  9
$CELTYPE
  6
BYLAYER
  9
$DIMSCALE
 40
1.0
  9
$DIMASZ
 40
0.1875
  9
$DIMEXO
 40
0.1375
  9
$DIMDLI
 40
0.836
  9
$DIMEXE
 40
0.396
  9
$DIMCEN
 40
0.198
  9
$DIMLFAC
 40
1.0
  9
$DIMBLK
  1
_CLOSED
  9
$DIMTXT
 40
0.15625
  9
$DIMTOL
 70
0
  9
$DIMLIM
 70
0
  9
$DIMTFAC
 40
1.0
  9
$PDMODE
 70
3
  9
$PDSIZE
 40
0.3125
  9
$HANDSEED
  5
5CA
  9
$MEASUREMENT
 70
0
  9
$INSUNITS
 70
1
  0
ENDSEC
  0
SECTION
  2
CLASSES
  0
CLASS
  1
ACDBDICTIONARYWDFLT
  2
AcDbDictionaryWithDefault
  3
AutoCAD 2000
 90
0
280
0
281
0
  0
CLASS
  1
ACDBPLACEHOLDER
  2
AcDbPlaceHolder
  3
AutoCAD 2000
 90
0
280
0
281
0
  0
CLASS
  1
LAYOUT
  2
AcDbLayout
  3
AutoCAD 2000
 90
0
280
0
281
0
  0
ENDSEC
  0
SECTION
  2
TABLES
  0
TABLE
  2
VPORT
  5
8
100
AcDbSymbolTable
 70
2
  0
VPORT
  5
1F4
100
AcDbSymbolTableRecord
100
AcDbViewportTableRecord
  2
*ACTIVE
 70
0
 10
0.0
 20
0.0
 11
1.0
 21
1.0
 12
11.0
 22
8.5
 13
0.0
 23
0.0
 14
1.0
 24
1.0
 15
0.0
 25
0.0
 16
0.0
 26
0.0
 36
1.0
 17
0.0
 27
0.0
 37
0.0
 40
17.0
 41
1.2941176471
 42
50.0
 43
0.0
 44
0.0
 50
0.0
 51
0.0
 71
0
 72
100
 73
1
 74
1
 75
0
 76
0
 77
0
 78
0
  0
ENDTAB
  0
TABLE
  2
LTYPE
  5
5
100
AcDbSymbolTable
 70
6
  0
LTYPE
  5
14
100
AcDbSymbolTableRecord
100
AcDbLinetypeTableRecord
  2
BYBLOCK
 70
0
  3

 72
65
 73
0
 40
0.0
  0
LTYPE
  5
15
100
AcDbSymbolTableRecord
100
AcDbLinetypeTableRecord
  2
BYLAYER
 70
0
  3

 72
65
 73
0
 40
0.0
  0
LTYPE
  5
16
100
AcDbSymbolTableRecord
100
AcDbLinetypeTableRecord
  2
CONTINUOUS
 70
64
  3
Solid line
 72
65
 73
0
 40
0.0
  0
LTYPE
  5
1F5
100
AcDbSymbolTableRecord
100
AcDbLinetypeTableRecord
  2
CENTER
 70
64
  3
____ _ ____ _ ____ _ ____ _ ____ _ ____ _ ____
 72
65
 73
4
 40
0.6
 49
0.375
 74
0
 49
-0.075
 74
0
 49
0.075
 74
0
 49
-0.075
 74
0
  0
LTYPE
  5
1F6
100
AcDbSymbolTableRecord
100
AcDbLinetypeTableRecord
  2
HIDDEN
 70
64
  3
- - - - - - - - - - - - - - - - - - - -
 72
65
 73
2
 40
0.2
 49
0.1
 74
0
 49
-0.1
 74
0
  0
LTYPE
  5
1F7
100
AcDbSymbolTableRecord
100
AcDbLinetypeTableRecord
  2
PHANTOM
 70
64
  3
_____ _ _ _____ _ _ _____ _ _ _____
 72
65
 73
6
 40
0.8
 49
0.45
 74
0
 49
-0.05
 74
0
 49
0.1
 74
0
 49
-0.05
 74
0
 49
0.1
 74
0
 49
-0.05
 74
0
  0
LTYPE
  5
1F8
100
AcDbSymbolTableRecord
100
AcDbLinetypeTableRecord
  2
DOT
 70
64
  3
. . . . . . . . . . . . . . . . . . . .
 72
65
 73
2
 40
0.2
 49
0.1
 74
0
 49
-0.1
 74
0
  0
LTYPE
  5
1F9
100
AcDbSymbolTableRecord
100
AcDbLinetypeTableRecord
  2
DASHED
 70
64
  3
- - - - - - - - - - - - - - - - - - - -
 72
65
 73
2
 40
0.2
 49
0.1
 74
0
 49
-0.1
 74
0
  0
ENDTAB
  0
TABLE
  2
LAYER
  5
2
100
AcDbSymbolTable
 70
36
  0
LAYER
  5
10
100
AcDbSymbolTableRecord
100
AcDbLayerTableRecord
  2
0
 70
0
 62
7
  6
CONTINUOUS
370
-3
390
F
  0
LAYER
  5
1FA
100
AcDbSymbolTableRecord
100
AcDbLayerTableRecord
  2
DEFAULT_1
 70
0
 62
7
  6
CENTER
370
-3
390
F
  0
LAYER
  5
1FB
100
AcDbSymbolTableRecord
100
AcDbLayerTableRecord
  2
DEFAULT_2
 70
0
 62
8
  6
HIDDEN
370
-3
390
F
  0
LAYER
  5
1FC
100
AcDbSymbolTableRecord
100
AcDbLayerTableRecord
  2
DEFAULT_3
 70
0
 62
7
  6
PHANTOM
370
-3
390
F
  0
LAYER
  5
1FD
100
AcDbSymbolTableRecord
100
AcDbLayerTableRecord
  2
01_ALL_DTM_PLN
 70
0
 62
7
  6
CONTINUOUS
370
-3
390
F
  0
LAYER
  5
1FE
100
AcDbSymbolTableRecord
100
AcDbLayerTableRecord
  2
01__ASM_ALL_DTM_PLN
 70
0
 62
7
  6
CONTINUOUS
370
-3
390
F
  0
LAYER
  5
1FF
100
AcDbSymbolTableRecord
100
AcDbLayerTableRecord
  2
01__ASM_DEF_DTM_PLN
 70
0
 62
7
  6
CONTINUOUS
370
-3
390
F
  0
LAYER
  5
200
100
AcDbSymbolTableRecord
100
AcDbLayerTableRecord
  2
01___PRT_ALL_DTM_PLN
 70
0
 62
7
  6
CONTINUOUS
370
-3
390
F
  0
LAYER
  5
201
100
AcDbSymbolTableRecord
100
AcDbLayerTableRecord
  2
01___PRT_DEF_DTM_PLN
 70
0
 62
7
  6
CONTINUOUS
370
-3
390
F
  0
LAYER
  5
202
100
AcDbSymbolTableRecord
100
AcDbLayerTableRecord
  2
02_ALL_AXES
 70
0
 62
7
  6
CONTINUOUS
370
-3
390
F
  0
LAYER
  5
203
100
AcDbSymbolTableRecord
100
AcDbLayerTableRecord
  2
02__ASM_ALL_AXES
 70
0
 62
7
  6
CONTINUOUS
370
-3
390
F
  0
LAYER
  5
204
100
AcDbSymbolTableRecord
100
AcDbLayerTableRecord
  2
02___PRT_ALL_AXES
 70
0
 62
7
  6
CONTINUOUS
370
-3
390
F
  0
LAYER
  5
205
100
AcDbSymbolTableRecord
100
AcDbLayerTableRecord
  2
03_ALL_CURVES
 70
0
 62
7
  6
CONTINUOUS
370
-3
390
F
  0
LAYER
  5
206
100
AcDbSymbolTableRecord
100
AcDbLayerTableRecord
  2
03__ASM_ALL_CURVES
 70
0
 62
7
  6
CONTINUOUS
370
-3
390
F
  0
LAYER
  5
207
100
AcDbSymbolTableRecord
100
AcDbLayerTableRecord
  2
03___PRT_ALL_CURVES
 70
0
 62
7
  6
CONTINUOUS
370
-3
390
F
  0
LAYER
  5
208
100
AcDbSymbolTableRecord
100
AcDbLayerTableRecord
  2
04_ALL_DTM_PNT
 70
0
 62
7
  6
CONTINUOUS
370
-3
390
F
  0
LAYER
  5
209
100
AcDbSymbolTableRecord
100
AcDbLayerTableRecord
  2
04__ASM_ALL_DTM_PNT
 70
0
 62
7
  6
CONTINUOUS
370
-3
390
F
  0
LAYER
  5
20A
100
AcDbSymbolTableRecord
100
AcDbLayerTableRecord
  2
04___PRT_ALL_DTM_PNT
 70
0
 62
7
  6
CONTINUOUS
370
-3
390
F
  0
LAYER
  5
20B
100
AcDbSymbolTableRecord
100
AcDbLayerTableRecord
  2
05_ALL_DTM_CSYS
 70
0
 62
7
  6
CONTINUOUS
370
-3
390
F
  0
LAYER
  5
20C
100
AcDbSymbolTableRecord
100
AcDbLayerTableRecord
  2
05__ASM_ALL_DTM_CSYS
 70
0
 62
7
  6
CONTINUOUS
370
-3
390
F
  0
LAYER
  5
20D
100
AcDbSymbolTableRecord
100
AcDbLayerTableRecord
  2
05__ASM_DEF_DTM_CSYS
 70
0
 62
7
  6
CONTINUOUS
370
-3
390
F
  0
LAYER
  5
20E
100
AcDbSymbolTableRecord
100
AcDbLayerTableRecord
  2
05___PRT_ALL_DTM_CSYS
 70
0
 62
7
  6
CONTINUOUS
370
-3
390
F
  0
LAYER
  5
20F
100
AcDbSymbolTableRecord
100
AcDbLayerTableRecord
  2
05___PRT_DEF_DTM_CSYS
 70
0
 62
7
  6
CONTINUOUS
370
-3
390
F
  0
LAYER
  5
210
100
AcDbSymbolTableRecord
100
AcDbLayerTableRecord
  2
06_ALL_SURFS
 70
0
 62
7
  6
CONTINUOUS
370
-3
390
F
  0
LAYER
  5
211
100
AcDbSymbolTableRecord
100
AcDbLayerTableRecord
  2
06__ASM_ALL_SURFS
 70
0
 62
7
  6
CONTINUOUS
370
-3
390
F
  0
LAYER
  5
212
100
AcDbSymbolTableRecord
100
AcDbLayerTableRecord
  2
06___PRT_ALL_SURFS
 70
0
 62
7
  6
CONTINUOUS
370
-3
390
F
  0
LAYER
  5
213
100
AcDbSymbolTableRecord
100
AcDbLayerTableRecord
  2
07__ASM_ALL_SKELETONS
 70
0
 62
7
  6
CONTINUOUS
370
-3
390
F
  0
LAYER
  5
214
100
AcDbSymbolTableRecord
100
AcDbLayerTableRecord
  2
COPY_GEO_FET
 70
0
 62
7
  6
CONTINUOUS
370
-3
390
F
  0
LAYER
  5
215
100
AcDbSymbolTableRecord
100
AcDbLayerTableRecord
  2
COSMETIC
 70
0
 62
7
  6
CONTINUOUS
370
-3
390
F
  0
LAYER
  5
216
100
AcDbSymbolTableRecord
100
AcDbLayerTableRecord
  2
CUT_REF_SURF
 70
0
 62
7
  6
CONTINUOUS
370
-3
390
F
  0
LAYER
  5
217
100
AcDbSymbolTableRecord
100
AcDbLayerTableRecord
  2
DATESTAMP
 70
0
 62
7
  6
CONTINUOUS
370
-3
390
F
  0
LAYER
  5
218
100
AcDbSymbolTableRecord
100
AcDbLayerTableRecord
  2
DATUM
 70
0
 62
7
  6
CONTINUOUS
370
-3
390
F
  0
LAYER
  5
219
100
AcDbSymbolTableRecord
100
AcDbLayerTableRecord
  2
DATUM_B
 70
0
 62
7
  6
CONTINUOUS
370
-3
390
F
  0
LAYER
  5
21A
100
AcDbSymbolTableRecord
100
AcDbLayerTableRecord
  2
DATUM_PLANES
 70
0
 62
7
  6
CONTINUOUS
370
-3
390
F
  0
LAYER
  5
21B
100
AcDbSymbolTableRecord
100
AcDbLayerTableRecord
  2
DIM
 70
0
 62
7
  6
CONTINUOUS
370
-3
390
F
  0
LAYER
  5
21C
100
AcDbSymbolTableRecord
100
AcDbLayerTableRecord
  2
DIM_1
 70
0
 62
7
  6
CONTINUOUS
370
-3
390
F
  0
LAYER
  5
21D
100
AcDbSymbolTableRecord
100
AcDbLayerTableRecord
  2
DIM_2
 70
0
 62
7
  6
CONTINUOUS
370
-3
390
F
  0
LAYER
  5
21E
100
AcDbSymbolTableRecord
100
AcDbLayerTableRecord
  2
DIM_3
 70
0
 62
7
  6
CONTINUOUS
370
-3
390
F
  0
LAYER
  5
21F
100
AcDbSymbolTableRecord
100
AcDbLayerTableRecord
  2
DIM_4
 70
0
 62
7
  6
CONTINUOUS
370
-3
390
F
  0
LAYER
  5
220
100
AcDbSymbolTableRecord
100
AcDbLayerTableRecord
  2
DIM_5
 70
0
 62
7
  6
CONTINUOUS
370
-3
390
F
  0
LAYER
  5
221
100
AcDbSymbolTableRecord
100
AcDbLayerTableRecord
  2
DTM
 70
0
 62
7
  6
CONTINUOUS
370
-3
390
F
  0
LAYER
  5
222
100
AcDbSymbolTableRecord
100
AcDbLayerTableRecord
  2
EXT_COPY_GEO
 70
0
 62
7
  6
CONTINUOUS
370
-3
390
F
  0
LAYER
  5
223
100
AcDbSymbolTableRecord
100
AcDbLayerTableRecord
  2
GBX_10
 70
0
 62
7
  6
CONTINUOUS
370
-3
390
F
  0
LAYER
  5
224
100
AcDbSymbolTableRecord
100
AcDbLayerTableRecord
  2
GBX_2
 70
0
 62
7
  6
CONTINUOUS
370
-3
390
F
  0
LAYER
  5
225
100
AcDbSymbolTableRecord
100
AcDbLayerTableRecord
  2
GBX_5
 70
0
 62
7
  6
CONTINUOUS
370
-3
390
F
  0
LAYER
  5
226
100
AcDbSymbolTableRecord
100
AcDbLayerTableRecord
  2
GBX_6
 70
0
 62
7
  6
CONTINUOUS
370
-3
390
F
  0
LAYER
  5
227
100
AcDbSymbolTableRecord
100
AcDbLayerTableRecord
  2
GBX_7
 70
0
 62
7
  6
CONTINUOUS
370
-3
390
F
  0
LAYER
  5
228
100
AcDbSymbolTableRecord
100
AcDbLayerTableRecord
  2
GBX_8
 70
0
 62
7
  6
CONTINUOUS
370
-3
390
F
  0
LAYER
  5
229
100
AcDbSymbolTableRecord
100
AcDbLayerTableRecord
  2
LS
 70
0
 62
7
  6
CONTINUOUS
370
-3
390
F
  0
LAYER
  5
22A
100
AcDbSymbolTableRecord
100
AcDbLayerTableRecord
  2
LS_1
 70
0
 62
7
  6
CONTINUOUS
370
-3
390
F
  0
LAYER
  5
22B
100
AcDbSymbolTableRecord
100
AcDbLayerTableRecord
  2
ORIGIN
 70
0
 62
7
  6
CONTINUOUS
370
-3
390
F
  0
LAYER
  5
22C
100
AcDbSymbolTableRecord
100
AcDbLayerTableRecord
  2
PARTNUMBER
 70
0
 62
7
  6
CONTINUOUS
370
-3
390
F
  0
LAYER
  5
22D
100
AcDbSymbolTableRecord
100
AcDbLayerTableRecord
  2
PORT_AREAS
 70
0
 62
7
  6
CONTINUOUS
370
-3
390
F
  0
LAYER
  5
22E
100
AcDbSymbolTableRecord
100
AcDbLayerTableRecord
  2
TEXT
 70
0
 62
7
  6
CONTINUOUS
370
-3
390
F
  0
LAYER
  5
22F
100
AcDbSymbolTableRecord
100
AcDbLayerTableRecord
  2
THREAD
 70
0
 62
7
  6
CONTINUOUS
370
-3
390
F
  0
LAYER
  5
230
100
AcDbSymbolTableRecord
100
AcDbLayerTableRecord
  2
THREADS
 70
0
 62
7
  6
CONTINUOUS
370
-3
390
F
  0
ENDTAB
  0
TABLE
  2
STYLE
  5
3
100
AcDbSymbolTable
 70
1
  0
STYLE
  5
11
100
AcDbSymbolTableRecord
100
AcDbTextStyleTableRecord
  2
STANDARD
 70
0
 40
0.0
 41
0.8
 50
0.0
 71
0
 42
0.2
  3
txt
  4

  0
ENDTAB
  0
TABLE
  2
VIEW
  5
6
100
AcDbSymbolTable
 70
0
  0
ENDTAB
  0
TABLE
  2
UCS
  5
7
100
AcDbSymbolTable
 70
0
  0
ENDTAB
  0
TABLE
  2
APPID
  5
9
100
AcDbSymbolTable
 70
1
  0
APPID
  5
231
100
AcDbSymbolTableRecord
100
AcDbRegAppTableRecord
  2
ACAD
 70
0
  0
ENDTAB
  0
TABLE
  2
BLOCK_RECORD
  5
1
100
AcDbSymbolTable
 70
0
  0
BLOCK_RECORD
  5
1F
100
AcDbSymbolTableRecord
100
AcDbBlockTableRecord
  2
*MODEL_SPACE
  0
BLOCK_RECORD
  5
1B
100
AcDbSymbolTableRecord
100
AcDbBlockTableRecord
  2
*PAPER_SPACE
  0
ENDTAB
  0
TABLE
  2
DIMSTYLE
  5
A
100
AcDbSymbolTable
 70
1
100
AcDbDimStyleTable
 71
0
  0
DIMSTYLE
105
232
100
AcDbSymbolTableRecord
100
AcDbDimStyleTableRecord
  2
STANDARD
 70
0
  3

  4

 40
1.0
 41
0.1875
 42
0.0625
 43
0.38
 44
0.18
 45
0.0
 46
0.0
 47
0.01
 48
0.01
140
0.15625
141
0.09
142
0.0
143
25.4
144
1.0
145
0.0
146
1.0
147
0.09
 71
0.0
 72
0.0
 73
1
 74
1
 75
0
 76
0
 77
0
 78
4
170
0
171
2
172
0
173
0
174
0
175
0
176
0
177
0
178
0
270
2
271
2
272
2
273
2
274
2
275
0
280
0
281
0
282
0
283
1
284
4
285
0
286
0
287
3
288
0
340
11
  0
ENDTAB
  0
ENDSEC
  0
SECTION
  2
BLOCKS
  0
BLOCK
  5
20
100
AcDbEntity
  8
0
100
AcDbBlockBegin
  2
*MODEL_SPACE
 70
0
 10
0.0
 20
0.0
 30
0.0
  3
*MODEL_SPACE
  1

  0
ENDBLK
  5
21
100
AcDbEntity
  8
0
100
AcDbBlockEnd
  0
BLOCK
  5
1C
100
AcDbEntity
  8
0
100
AcDbBlockBegin
  2
*PAPER_SPACE
 70
0
 10
0.0
 20
0.0
 30
0.0
  3
*PAPER_SPACE
  1

  0
ENDBLK
  5
1D
100
AcDbEntity
  8
0
100
AcDbBlockEnd
  0
ENDSEC
  0
SECTION
  2
ENTITIES
  0
LINE
  5
233
100
AcDbEntity
  8
03__ASM_ALL_CURVES
100
AcDbLine
 62
4
  6
CONTINUOUS
 10
8.0727787934
 20
6.7269675506
 11
8.0802787934
 21
6.7169675503
  0
LINE
  5
234
100
AcDbEntity
  8
03__ASM_ALL_CURVES
100
AcDbLine
 62
4
  6
CONTINUOUS
 10
8.2052787934
 20
6.7236342171
 11
8.2002787934
 21
6.730300884
  0
LINE
  5
235
100
AcDbEntity
  8
03__ASM_ALL_CURVES
100
AcDbLine
 62
4
  6
CONTINUOUS
 10
8.2152787934
 20
6.7169675503
 11
8.2052787934
 21
6.7236342171
  0
LINE
  5
236
100
AcDbEntity
  8
03__ASM_ALL_CURVES
100
AcDbLine
 62
4
  6
CONTINUOUS
 10
8.2252787934
 20
6.7703008852
 11
8.2352787934
 21
6.7636342154
  0
LINE
  5
237
100
AcDbEntity
  8
03__ASM_ALL_CURVES
100
AcDbLine
 62
4
  6
CONTINUOUS
 10
8.2352787934
 20
6.7636342154
 11
8.2402787934
 21
6.7569675503
  0
LINE
  5
238
100
AcDbEntity
  8
03__ASM_ALL_CURVES
100
AcDbLine
 62
4
  6
CONTINUOUS
 10
8.1527787934
 20
6.9769675506
 11
8.1602787934
 21
6.9669675503
  0
LINE
  5
239
100
AcDbEntity
  8
03__ASM_ALL_CURVES
100
AcDbLine
 62
4
  6
CONTINUOUS
 10
8.3752787934
 20
6.730300884
 11
8.3852787934
 21
6.7169675503
  0
LINE
  5
23A
100
AcDbEntity
  8
03__ASM_ALL_CURVES
100
AcDbLine
 62
4
  6
CONTINUOUS
 10
8.2052787934
 20
6.9736342171
 11
8.2002787934
 21
6.980300884
  0
LINE
  5
23B
100
AcDbEntity
  8
03__ASM_ALL_CURVES
100
AcDbLine
 62
4
  6
CONTINUOUS
 10
8.2352787934
 20
7.0136342154
 11
8.2402787934
 21
7.0069675503
  0
LINE
  5
23C
100
AcDbEntity
  8
03__ASM_ALL_CURVES
100
AcDbLine
 62
4
  6
CONTINUOUS
 10
8.2402787934
 20
6.7569675503
 11
8.2452787934
 21
6.7436342177
  0
LINE
  5
23D
100
AcDbEntity
  8
03__ASM_ALL_CURVES
100
AcDbLine
 62
4
  6
CONTINUOUS
 10
8.2402787934
 20
7.0069675503
 11
8.2452787934
 21
6.9936342177
  0
LINE
  5
23E
100
AcDbEntity
  8
03__ASM_ALL_CURVES
100
AcDbLine
 62
4
  6
CONTINUOUS
 10
7.9802787934
 20
6.7969675503
 11
7.9802787934
 21
6.7169675503
  0
LINE
  5
23F
100
AcDbEntity
  8
03__ASM_ALL_CURVES
100
AcDbLine
 62
4
  6
CONTINUOUS
 10
8.0402787934
 20
8.2436342177
 11
8.0402787934
 21
8.2703008852
  0
LINE
  5
240
100
AcDbEntity
  8
03__ASM_ALL_CURVES
100
AcDbLine
 62
4
  6
CONTINUOUS
 10
8.0602787934
 20
7.0469675503
 11
8.0602787934
 21
6.9669675503
  0
LINE
  5
241
100
AcDbEntity
  8
03__ASM_ALL_CURVES
100
AcDbLine
 62
4
  6
CONTINUOUS
 10
8.0727787934
 20
6.7169675503
 11
8.0727787934
 21
6.7269675506
  0
LINE
  5
242
100
AcDbEntity
  8
03__ASM_ALL_CURVES
100
AcDbLine
 62
4
  6
CONTINUOUS
 10
8.2152787934
 20
6.9669675503
 11
8.2052787934
 21
6.9736342171
  0
LINE
  5
243
100
AcDbEntity
  8
03__ASM_ALL_CURVES
100
AcDbLine
 62
4
  6
CONTINUOUS
 10
8.2252787934
 20
7.0203008852
 11
8.2352787934
 21
7.0136342154
  0
LINE
  5
244
100
AcDbEntity
  8
03__ASM_ALL_CURVES
100
AcDbLine
 62
4
  6
CONTINUOUS
 10
8.3752787934
 20
6.980300884
 11
8.3852787934
 21
6.9669675503
  0
LINE
  5
245
100
AcDbEntity
  8
03__ASM_ALL_CURVES
100
AcDbLine
 62
4
  6
CONTINUOUS
 10
8.4452787934
 20
6.9736342171
 11
8.4402787934
 21
6.980300884
  0
LINE
  5
246
100
AcDbEntity
  8
03__ASM_ALL_CURVES
100
AcDbLine
 62
4
  6
CONTINUOUS
 10
8.6327787934
 20
6.7269675506
 11
8.6402787934
 21
6.7169675503
  0
LINE
  5
247
100
AcDbEntity
  8
03__ASM_ALL_CURVES
100
AcDbLine
 62
4
  6
CONTINUOUS
 10
8.4752787934
 20
7.0069675503
 11
8.4852787934
 21
6.9936342177
  0
LINE
  5
248
100
AcDbEntity
  8
03__ASM_ALL_CURVES
100
AcDbLine
 62
4
  6
CONTINUOUS
 10
8.4752787934
 20
7.0403008852
 11
8.4802787934
 21
7.0336342154
  0
LINE
  5
249
100
AcDbEntity
  8
03__ASM_ALL_CURVES
100
AcDbLine
 62
4
  6
CONTINUOUS
 10
8.5252787934
 20
6.9736342171
 11
8.5152787934
 21
6.9869675503
  0
LINE
  5
24A
100
AcDbEntity
  8
03__ASM_ALL_CURVES
100
AcDbLine
 62
4
  6
CONTINUOUS
 10
8.5252787934
 20
7.0203008852
 11
8.5202787934
 21
7.0269675503
  0
LINE
  5
24B
100
AcDbEntity
  8
03__ASM_ALL_CURVES
100
AcDbLine
 62
4
  6
CONTINUOUS
 10
8.5552787934
 20
7.0069675503
 11
8.5652787934
 21
6.9936342177
  0
LINE
  5
24C
100
AcDbEntity
  8
03__ASM_ALL_CURVES
100
AcDbLine
 62
4
  6
CONTINUOUS
 10
8.3702787934
 20
6.7503008828
 11
8.3752787934
 21
6.730300884
  0
LINE
  5
24D
100
AcDbEntity
  8
03__ASM_ALL_CURVES
100
AcDbLine
 62
4
  6
CONTINUOUS
 10
8.3702787934
 20
7.0003008828
 11
8.3752787934
 21
6.980300884
  0
LINE
  5
24E
100
AcDbEntity
  8
03__ASM_ALL_CURVES
100
AcDbLine
 62
4
  6
CONTINUOUS
 10
8.0802787934
 20
8.2703008852
 11
8.0802787934
 21
8.2436342177
  0
LINE
  5
24F
100
AcDbEntity
  8
03__ASM_ALL_CURVES
100
AcDbLine
 62
4
  6
CONTINUOUS
 10
8.1527787934
 20
6.9669675503
 11
8.1527787934
 21
6.9769675506
  0
LINE
  5
250
100
AcDbEntity
  8
03__ASM_ALL_CURVES
100
AcDbLine
 62
4
  6
CONTINUOUS
 10
8.1527787934
 20
8.2169675503
 11
8.1527787934
 21
8.2269675506
  0
LINE
  5
251
100
AcDbEntity
  8
03__ASM_ALL_CURVES
100
AcDbLine
 62
4
  6
CONTINUOUS
 10
8.2402787934
 20
8.2836342154
 11
8.2402787934
 21
8.2703008852
  0
LINE
  5
252
100
AcDbEntity
  8
03__ASM_ALL_CURVES
100
AcDbLine
 62
4
  6
CONTINUOUS
 10
8.4552787934
 20
6.9669675503
 11
8.4452787934
 21
6.9736342171
  0
LINE
  5
253
100
AcDbEntity
  8
03__ASM_ALL_CURVES
100
AcDbLine
 62
4
  6
CONTINUOUS
 10
8.5352787934
 20
6.9669675503
 11
8.5252787934
 21
6.9736342171
  0
LINE
  5
254
100
AcDbEntity
  8
03__ASM_ALL_CURVES
100
AcDbLine
 62
4
  6
CONTINUOUS
 10
8.4652787934
 20
7.0136342154
 11
8.4752787934
 21
7.0069675503
  0
LINE
  5
255
100
AcDbEntity
  8
03__ASM_ALL_CURVES
100
AcDbLine
 62
4
  6
CONTINUOUS
 10
8.4652787934
 20
7.0469675503
 11
8.4752787934
 21
7.0403008852
  0
LINE
  5
256
100
AcDbEntity
  8
03__ASM_ALL_CURVES
100
AcDbLine
 62
4
  6
CONTINUOUS
 10
8.5352787934
 20
7.0136342154
 11
8.5252787934
 21
7.0203008852
  0
LINE
  5
257
100
AcDbEntity
  8
03__ASM_ALL_CURVES
100
AcDbLine
 62
4
  6
CONTINUOUS
 10
8.5452787934
 20
7.0136342154
 11
8.5552787934
 21
7.0069675503
  0
LINE
  5
258
100
AcDbEntity
  8
03__ASM_ALL_CURVES
100
AcDbLine
 62
4
  6
CONTINUOUS
 10
8.5452787934
 20
7.0469675503
 11
8.5552787934
 21
7.0403008852
  0
LINE
  5
259
100
AcDbEntity
  8
03__ASM_ALL_CURVES
100
AcDbLine
 62
4
  6
CONTINUOUS
 10
8.7002787934
 20
6.9669675503
 11
8.6902787934
 21
6.9736342171
  0
LINE
  5
25A
100
AcDbEntity
  8
03__ASM_ALL_CURVES
100
AcDbLine
 62
4
  6
CONTINUOUS
 10
8.5552787934
 20
7.0403008852
 11
8.5602787934
 21
7.0336342154
  0
LINE
  5
25B
100
AcDbEntity
  8
03__ASM_ALL_CURVES
100
AcDbLine
 62
4
  6
CONTINUOUS
 10
8.6327787934
 20
6.9769675506
 11
8.6402787934
 21
6.9669675503
  0
LINE
  5
25C
100
AcDbEntity
  8
03__ASM_ALL_CURVES
100
AcDbLine
 62
4
  6
CONTINUOUS
 10
8.6902787934
 20
6.9736342171
 11
8.6852787934
 21
6.980300884
  0
LINE
  5
25D
100
AcDbEntity
  8
03__ASM_ALL_CURVES
100
AcDbLine
 62
4
  6
CONTINUOUS
 10
8.8552787934
 20
6.7969675503
 11
8.8652787934
 21
6.7836342154
  0
LINE
  5
25E
100
AcDbEntity
  8
03__ASM_ALL_CURVES
100
AcDbLine
 62
4
  6
CONTINUOUS
 10
8.7102787934
 20
7.0403008852
 11
8.7152787934
 21
7.0336342154
  0
LINE
  5
25F
100
AcDbEntity
  8
03__ASM_ALL_CURVES
100
AcDbLine
 62
4
  6
CONTINUOUS
 10
8.7702787934
 20
6.9736342171
 11
8.7652787934
 21
6.980300884
  0
LINE
  5
260
100
AcDbEntity
  8
03__ASM_ALL_CURVES
100
AcDbLine
 62
4
  6
CONTINUOUS
 10
8.7902787934
 20
7.0403008852
 11
8.7952787934
 21
7.0336342154
  0
LINE
  5
261
100
AcDbEntity
  8
03__ASM_ALL_CURVES
100
AcDbLine
 62
4
  6
CONTINUOUS
 10
8.0452787934
 20
8.230300884
 11
8.0402787934
 21
8.2436342177
  0
LINE
  5
262
100
AcDbEntity
  8
03__ASM_ALL_CURVES
100
AcDbLine
 62
4
  6
CONTINUOUS
 10
8.0752787934
 20
8.2836342154
 11
8.0802787934
 21
8.2703008852
  0
LINE
  5
263
100
AcDbEntity
  8
03__ASM_ALL_CURVES
100
AcDbLine
 62
4
  6
CONTINUOUS
 10
8.6852787934
 20
6.980300884
 11
8.6802787934
 21
6.9936342177
  0
LINE
  5
264
100
AcDbEntity
  8
03__ASM_ALL_CURVES
100
AcDbLine
 62
4
  6
CONTINUOUS
 10
8.3702787934
 20
7.0136342154
 11
8.3702787934
 21
7.0003008828
  0
LINE
  5
265
100
AcDbEntity
  8
03__ASM_ALL_CURVES
100
AcDbLine
 62
4
  6
CONTINUOUS
 10
8.3702787934
 20
6.7636342154
 11
8.3702787934
 21
6.7503008828
  0
LINE
  5
266
100
AcDbEntity
  8
03__ASM_ALL_CURVES
100
AcDbLine
 62
4
  6
CONTINUOUS
 10
8.4502787934
 20
8.2636342154
 11
8.4502787934
 21
8.2503008828
  0
LINE
  5
267
100
AcDbEntity
  8
03__ASM_ALL_CURVES
100
AcDbLine
 62
4
  6
CONTINUOUS
 10
8.4752787934
 20
6.7169675503
 11
8.4752787934
 21
6.7969675503
  0
LINE
  5
268
100
AcDbEntity
  8
03__ASM_ALL_CURVES
100
AcDbLine
 62
4
  6
CONTINUOUS
 10
8.4802787934
 20
7.0336342154
 11
8.4802787934
 21
7.0269675503
  0
LINE
  5
269
100
AcDbEntity
  8
03__ASM_ALL_CURVES
100
AcDbLine
 62
4
  6
CONTINUOUS
 10
8.4852787934
 20
6.9936342177
 11
8.4852787934
 21
6.9869675503
  0
LINE
  5
26A
100
AcDbEntity
  8
03__ASM_ALL_CURVES
100
AcDbLine
 62
4
  6
CONTINUOUS
 10
8.2902787934
 20
8.2969675503
 11
8.2852787934
 21
8.2636342154
  0
LINE
  5
26B
100
AcDbEntity
  8
03__ASM_ALL_CURVES
100
AcDbLine
 62
4
  6
CONTINUOUS
 10
8.1402787934
 20
6.7169675503
 11
8.1452787934
 21
6.7503008828
  0
LINE
  5
26C
100
AcDbEntity
  8
03__ASM_ALL_CURVES
100
AcDbLine
 62
4
  6
CONTINUOUS
 10
8.2102787934
 20
7.0469675503
 11
8.2052787934
 21
7.0136342154
  0
LINE
  5
26D
100
AcDbEntity
  8
03__ASM_ALL_CURVES
100
AcDbLine
 62
4
  6
CONTINUOUS
 10
8.2102787934
 20
6.7969675503
 11
8.2052787934
 21
6.7636342154
  0
LINE
  5
26E
100
AcDbEntity
  8
03__ASM_ALL_CURVES
100
AcDbLine
 62
4
  6
CONTINUOUS
 10
8.2052787934
 20
8.2369675503
 11
8.2002787934
 21
8.2169675503
  0
LINE
  5
26F
100
AcDbEntity
  8
03__ASM_ALL_CURVES
100
AcDbLine
 62
4
  6
CONTINUOUS
 10
8.0402787934
 20
8.2703008852
 11
8.0452787934
 21
8.2836342154
  0
LINE
  5
270
100
AcDbEntity
  8
03__ASM_ALL_CURVES
100
AcDbLine
 62
4
  6
CONTINUOUS
 10
8.0802787934
 20
8.2436342177
 11
8.0752787934
 21
8.230300884
  0
LINE
  5
271
100
AcDbEntity
  8
03__ASM_ALL_CURVES
100
AcDbLine
 62
4
  6
CONTINUOUS
 10
9.3792787934
 20
10.2219675503
 11
9.3926121283
 21
10.2319675503
  0
LINE
  5
272
100
AcDbEntity
  8
03__ASM_ALL_CURVES
100
AcDbLine
 62
4
  6
CONTINUOUS
 10
8.7802787934
 20
7.0003008828
 11
8.7652787934
 21
7.0069675503
  0
LINE
  5
273
100
AcDbEntity
  8
03__ASM_ALL_CURVES
100
AcDbLine
 62
4
  6
CONTINUOUS
 10
8.7802787934
 20
6.9669675503
 11
8.7702787934
 21
6.9736342171
  0
LINE
  5
274
100
AcDbEntity
  8
03__ASM_ALL_CURVES
100
AcDbLine
 62
4
  6
CONTINUOUS
 10
8.7002787934
 20
7.0469675503
 11
8.7102787934
 21
7.0403008852
  0
LINE
  5
275
100
AcDbEntity
  8
03__ASM_ALL_CURVES
100
AcDbLine
 62
4
  6
CONTINUOUS
 10
8.7802787934
 20
7.0469675503
 11
8.7902787934
 21
7.0403008852
  0
LINE
  5
276
100
AcDbEntity
  8
03__ASM_ALL_CURVES
100
AcDbLine
 62
4
  6
CONTINUOUS
 10
8.8552787934
 20
7.0469675503
 11
8.8652787934
 21
7.0336342154
  0
LINE
  5
277
100
AcDbEntity
  8
03__ASM_ALL_CURVES
100
AcDbLine
 62
4
  6
CONTINUOUS
 10
8.0502787934
 20
8.2236342171
 11
8.0452787934
 21
8.230300884
  0
LINE
  5
278
100
AcDbEntity
  8
03__ASM_ALL_CURVES
100
AcDbLine
 62
4
  6
CONTINUOUS
 10
8.0702787934
 20
8.2903008852
 11
8.0752787934
 21
8.2836342154
  0
LINE
  5
279
100
AcDbEntity
  8
03__ASM_ALL_CURVES
100
AcDbLine
 62
4
  6
CONTINUOUS
 10
8.1527787934
 20
8.2269675506
 11
8.1602787934
 21
8.2169675503
  0
LINE
  5
27A
100
AcDbEntity
  8
03__ASM_ALL_CURVES
100
AcDbLine
 62
4
  6
CONTINUOUS
 10
8.7152787934
 20
7.0336342154
 11
8.7202787934
 21
7.0203008852
  0
LINE
  5
27B
100
AcDbEntity
  8
03__ASM_ALL_CURVES
100
AcDbLine
 62
4
  6
CONTINUOUS
 10
8.7652787934
 20
7.0069675503
 11
8.7602787934
 21
7.0203008852
  0
LINE
  5
27C
100
AcDbEntity
  8
03__ASM_ALL_CURVES
100
AcDbLine
 62
4
  6
CONTINUOUS
 10
8.3202787934
 20
8.2569675503
 11
8.3252787934
 21
8.2436342177
  0
LINE
  5
27D
100
AcDbEntity
  8
03__ASM_ALL_CURVES
100
AcDbLine
 62
4
  6
CONTINUOUS
 10
8.7952787934
 20
7.0336342154
 11
8.8002787934
 21
7.0203008852
  0
LINE
  5
27E
100
AcDbEntity
  8
03__ASM_ALL_CURVES
100
AcDbLine
 62
4
  6
CONTINUOUS
 10
8.4502787934
 20
8.2503008828
 11
8.4552787934
 21
8.230300884
  0
LINE
  5
27F
100
AcDbEntity
  8
03__ASM_ALL_CURVES
100
AcDbLine
 62
4
  6
CONTINUOUS
 10
8.8652787934
 20
6.7836342154
 11
8.8702787934
 21
6.7636342154
  0
LINE
  5
280
100
AcDbEntity
  8
03__ASM_ALL_CURVES
100
AcDbLine
 62
4
  6
CONTINUOUS
 10
8.5152787934
 20
6.9869675503
 11
8.5152787934
 21
6.9936342177
  0
LINE
  5
281
100
AcDbEntity
  8
03__ASM_ALL_CURVES
100
AcDbLine
 62
4
  6
CONTINUOUS
 10
8.5202787934
 20
7.0269675503
 11
8.5202787934
 21
7.0336342154
  0
LINE
  5
282
100
AcDbEntity
  8
03__ASM_ALL_CURVES
100
AcDbLine
 62
4
  6
CONTINUOUS
 10
8.5202787934
 20
8.2436342177
 11
8.5202787934
 21
8.2703008852
  0
LINE
  5
283
100
AcDbEntity
  8
03__ASM_ALL_CURVES
100
AcDbLine
 62
4
  6
CONTINUOUS
 10
8.5552787934
 20
6.7169675503
 11
8.5552787934
 21
6.7969675503
  0
LINE
  5
284
100
AcDbEntity
  8
03__ASM_ALL_CURVES
100
AcDbLine
 62
4
  6
CONTINUOUS
 10
8.5602787934
 20
7.0336342154
 11
8.5602787934
 21
7.0269675503
  0
LINE
  5
285
100
AcDbEntity
  8
03__ASM_ALL_CURVES
100
AcDbLine
 62
4
  6
CONTINUOUS
 10
8.5652787934
 20
6.9936342177
 11
8.5652787934
 21
6.9869675503
  0
LINE
  5
286
100
AcDbEntity
  8
03__ASM_ALL_CURVES
100
AcDbLine
 62
4
  6
CONTINUOUS
 10
8.6327787934
 20
6.7169675503
 11
8.6327787934
 21
6.7269675506
  0
LINE
  5
287
100
AcDbEntity
  8
03__ASM_ALL_CURVES
100
AcDbLine
 62
4
  6
CONTINUOUS
 10
8.6327787934
 20
6.9669675503
 11
8.6327787934
 21
6.9769675506
  0
LINE
  5
288
100
AcDbEntity
  8
03__ASM_ALL_CURVES
100
AcDbLine
 62
4
  6
CONTINUOUS
 10
8.6327787934
 20
8.2169675503
 11
8.6327787934
 21
8.2269675506
  0
LINE
  5
289
100
AcDbEntity
  8
03__ASM_ALL_CURVES
100
AcDbLine
 62
4
  6
CONTINUOUS
 10
8.6802787934
 20
6.9936342177
 11
8.6802787934
 21
7.0203008852
  0
LINE
  5
28A
100
AcDbEntity
  8
03__ASM_ALL_CURVES
100
AcDbLine
 62
4
  6
CONTINUOUS
 10
8.4552787934
 20
8.2836342154
 11
8.4502787934
 21
8.2636342154
  0
LINE
  5
28B
100
AcDbEntity
  8
03__ASM_ALL_CURVES
100
AcDbLine
 62
4
  6
CONTINUOUS
 10
8.1452787934
 20
6.7503008828
 11
8.1502787934
 21
6.7703008852
  0
LINE
  5
28C
100
AcDbEntity
  8
03__ASM_ALL_CURVES
100
AcDbLine
 62
4
  6
CONTINUOUS
 10
8.3252787934
 20
8.2436342177
 11
8.3202787934
 21
8.230300884
  0
LINE
  5
28D
100
AcDbEntity
  8
03__ASM_ALL_CURVES
100
AcDbLine
 62
4
  6
CONTINUOUS
 10
9.3859454585
 20
10.1619675503
 11
9.3792787934
 21
10.1519675503
  0
LINE
  5
28E
100
AcDbEntity
  8
03__ASM_ALL_CURVES
100
AcDbLine
 62
4
  6
CONTINUOUS
 10
9.4059454585
 20
10.1319675503
 11
9.4259454609
 21
10.1619675503
  0
LINE
  5
28F
100
AcDbEntity
  8
03__ASM_ALL_CURVES
100
AcDbLine
 62
4
  6
CONTINUOUS
 10
8.0452787934
 20
8.2836342154
 11
8.0502787934
 21
8.2903008852
  0
LINE
  5
290
100
AcDbEntity
  8
03__ASM_ALL_CURVES
100
AcDbLine
 62
4
  6
CONTINUOUS
 10
9.3926121283
 20
10.1669675503
 11
9.3859454585
 21
10.1619675503
  0
LINE
  5
291
100
AcDbEntity
  8
03__ASM_ALL_CURVES
100
AcDbLine
 62
4
  6
CONTINUOUS
 10
9.4259454609
 20
10.1619675503
 11
9.432612126
 21
10.1669675503
  0
LINE
  5
292
100
AcDbEntity
  8
03__ASM_ALL_CURVES
100
AcDbLine
 62
4
  6
CONTINUOUS
 10
9.3992787934
 20
10.1269675503
 11
9.4059454585
 21
10.1319675503
  0
LINE
  5
293
100
AcDbEntity
  8
03__ASM_ALL_CURVES
100
AcDbLine
 62
4
  6
CONTINUOUS
 10
9.4526121266
 20
10.1319675503
 11
9.4392787934
 21
10.1219675503
  0
LINE
  5
294
100
AcDbEntity
  8
0
100
AcDbLine
 62
7
  6
CONTINUOUS
 10
9.3002787934
 20
6.8509675503
 11
9.3312787934
 21
6.8199675503
  0
LINE
  5
295
100
AcDbEntity
  8
03__ASM_ALL_CURVES
100
AcDbLine
 62
4
  6
CONTINUOUS
 10
8.2352787934
 20
8.2903008852
 11
8.2402787934
 21
8.2836342154
  0
LINE
  5
296
100
AcDbEntity
  8
03__ASM_ALL_CURVES
100
AcDbLine
 62
4
  6
CONTINUOUS
 10
8.2852787934
 20
8.2236342171
 11
8.2802787934
 21
8.230300884
  0
LINE
  5
297
100
AcDbEntity
  8
03__ASM_ALL_CURVES
100
AcDbLine
 62
4
  6
CONTINUOUS
 10
8.3152787934
 20
8.2636342154
 11
8.3202787934
 21
8.2569675503
  0
LINE
  5
298
100
AcDbEntity
  8
03__ASM_ALL_CURVES
100
AcDbLine
 62
4
  6
CONTINUOUS
 10
8.4552787934
 20
8.230300884
 11
8.4652787934
 21
8.2169675503
  0
LINE
  5
299
100
AcDbEntity
  8
03__ASM_ALL_CURVES
100
AcDbLine
 62
4
  6
CONTINUOUS
 10
8.5252787934
 20
8.230300884
 11
8.5202787934
 21
8.2436342177
  0
LINE
  5
29A
100
AcDbEntity
  8
03__ASM_ALL_CURVES
100
AcDbLine
 62
4
  6
CONTINUOUS
 10
8.5552787934
 20
8.2569675503
 11
8.5602787934
 21
8.2436342177
  0
LINE
  5
29B
100
AcDbEntity
  8
03__ASM_ALL_CURVES
100
AcDbLine
 62
4
  6
CONTINUOUS
 10
8.8652787934
 20
7.0336342154
 11
8.8702787934
 21
7.0136342154
  0
LINE
  5
29C
100
AcDbEntity
  8
03__ASM_ALL_CURVES
100
AcDbLine
 62
4
  6
CONTINUOUS
 10
8.7152787934
 20
6.7169675503
 11
8.7152787934
 21
6.7969675503
  0
LINE
  5
29D
100
AcDbEntity
  8
03__ASM_ALL_CURVES
100
AcDbLine
 62
4
  6
CONTINUOUS
 10
8.7202787934
 20
8.2836342154
 11
8.7202787934
 21
8.2769675503
  0
LINE
  5
29E
100
AcDbEntity
  8
03__ASM_ALL_CURVES
100
AcDbLine
 62
4
  6
CONTINUOUS
 10
8.7202787934
 20
7.0203008852
 11
8.7202787934
 21
6.9936342177
  0
LINE
  5
29F
100
AcDbEntity
  8
03__ASM_ALL_CURVES
100
AcDbLine
 62
4
  6
CONTINUOUS
 10
8.7252787934
 20
8.2436342177
 11
8.7252787934
 21
8.2369675503
  0
LINE
  5
2A0
100
AcDbEntity
  8
03__ASM_ALL_CURVES
100
AcDbLine
 62
4
  6
CONTINUOUS
 10
8.7602787934
 20
8.4936342177
 11
8.7602787934
 21
8.5203008852
  0
LINE
  5
2A1
100
AcDbEntity
  8
03__ASM_ALL_CURVES
100
AcDbLine
 62
4
  6
CONTINUOUS
 10
8.7952787934
 20
6.7169675503
 11
8.7952787934
 21
6.7969675503
  0
LINE
  5
2A2
100
AcDbEntity
  8
03__ASM_ALL_CURVES
100
AcDbLine
 62
4
  6
CONTINUOUS
 10
8.8002787934
 20
8.5203008852
 11
8.8002787934
 21
8.4936342177
  0
LINE
  5
2A3
100
AcDbEntity
  8
03__ASM_ALL_CURVES
100
AcDbLine
 62
4
  6
CONTINUOUS
 10
8.8002787934
 20
7.0203008852
 11
8.8002787934
 21
6.9936342177
  0
LINE
  5
2A4
100
AcDbEntity
  8
03__ASM_ALL_CURVES
100
AcDbLine
 62
4
  6
CONTINUOUS
 10
8.8702787934
 20
8.2636342154
 11
8.8702787934
 21
8.2503008828
  0
LINE
  5
2A5
100
AcDbEntity
  8
03__ASM_ALL_CURVES
100
AcDbLine
 62
4
  6
CONTINUOUS
 10
8.8702787934
 20
7.0136342154
 11
8.8702787934
 21
7.0003008828
  0
LINE
  5
2A6
100
AcDbEntity
  8
03__ASM_ALL_CURVES
100
AcDbLine
 62
4
  6
CONTINUOUS
 10
8.8702787934
 20
6.7636342154
 11
8.8702787934
 21
6.7503008828
  0
LINE
  5
2A7
100
AcDbEntity
  8
03__ASM_ALL_CURVES
100
AcDbLine
 62
4
  6
CONTINUOUS
 10
8.7702787934
 20
8.2969675503
 11
8.7652787934
 21
8.2636342154
  0
LINE
  5
2A8
100
AcDbEntity
  8
03__ASM_ALL_CURVES
100
AcDbLine
 62
4
  6
CONTINUOUS
 10
8.3752787934
 20
7.0336342154
 11
8.3702787934
 21
7.0136342154
  0
LINE
  5
2A9
100
AcDbEntity
  8
03__ASM_ALL_CURVES
100
AcDbLine
 62
4
  6
CONTINUOUS
 10
8.3752787934
 20
6.7836342154
 11
8.3702787934
 21
6.7636342154
  0
LINE
  5
2AA
100
AcDbEntity
  8
03__ASM_ALL_CURVES
100
AcDbLine
 62
4
  6
CONTINUOUS
 10
8.5202787934
 20
8.2703008852
 11
8.5252787934
 21
8.2836342154
  0
LINE
  5
2AB
100
AcDbEntity
  8
03__ASM_ALL_CURVES
100
AcDbLine
 62
4
  6
CONTINUOUS
 10
8.5202787934
 20
8.2436342177
 11
8.5252787934
 21
8.2569675503
  0
LINE
  5
2AC
100
AcDbEntity
  8
03__ASM_ALL_CURVES
100
AcDbLine
 62
4
  6
CONTINUOUS
 10
8.5602787934
 20
8.2436342177
 11
8.5552787934
 21
8.230300884
  0
LINE
  5
2AD
100
AcDbEntity
  8
03__ASM_ALL_CURVES
100
AcDbLine
 62
4
  6
CONTINUOUS
 10
8.7602787934
 20
8.5203008852
 11
8.7652787934
 21
8.5336342154
  0
LINE
  5
2AE
100
AcDbEntity
  8
03__ASM_ALL_CURVES
100
AcDbLine
 62
4
  6
CONTINUOUS
 10
8.1502787934
 20
6.7703008852
 11
8.1602787934
 21
6.7969675503
  0
LINE
  5
2AF
100
AcDbEntity
  8
03__ASM_ALL_CURVES
100
AcDbLine
 62
4
  6
CONTINUOUS
 10
8.8002787934
 20
8.4936342177
 11
8.7952787934
 21
8.480300884
  0
LINE
  5
2B0
100
AcDbEntity
  8
03__ASM_ALL_CURVES
100
AcDbLine
 62
4
  6
CONTINUOUS
 10
9.4592787934
 20
10.1419675503
 11
9.4526121266
 21
10.1319675503
  0
LINE
  5
2B1
100
AcDbEntity
  8
03__ASM_ALL_CURVES
100
AcDbLine
 62
4
  6
CONTINUOUS
 10
9.3792787934
 20
9.7469675503
 11
9.3859454585
 21
9.7569675503
  0
LINE
  5
2B2
100
AcDbEntity
  8
03__ASM_ALL_CURVES
100
AcDbLine
 62
4
  6
CONTINUOUS
 10
8.0752787934
 20
8.230300884
 11
8.0702787934
 21
8.2236342171
  0
LINE
  5
2B3
100
AcDbEntity
  8
03__ASM_ALL_CURVES
100
AcDbLine
 62
4
  6
CONTINUOUS
 10
8.2002787934
 20
8.2836342154
 11
8.2052787934
 21
8.2903008852
  0
LINE
  5
2B4
100
AcDbEntity
  8
03__ASM_ALL_CURVES
100
AcDbLine
 62
4
  6
CONTINUOUS
 10
8.2152787934
 20
8.2503008828
 11
8.2052787934
 21
8.2369675503
  0
LINE
  5
2B5
100
AcDbEntity
  8
03__ASM_ALL_CURVES
100
AcDbLine
 62
4
  6
CONTINUOUS
 10
8.2402787934
 20
8.2703008852
 11
8.2352787934
 21
8.2636342154
  0
LINE
  5
2B6
100
AcDbEntity
  8
03__ASM_ALL_CURVES
100
AcDbLine
 62
4
  6
CONTINUOUS
 10
9.4459454597
 20
9.9819675503
 11
9.4592787934
 21
9.9919675503
  0
LINE
  5
2B7
100
AcDbEntity
  8
03__ASM_ALL_CURVES
100
AcDbLine
 62
4
  6
CONTINUOUS
 10
9.3792787934
 20
9.8219675503
 11
9.3926121283
 21
9.8319675503
  0
LINE
  5
2B8
100
AcDbEntity
  8
03__ASM_ALL_CURVES
100
AcDbLine
 62
4
  6
CONTINUOUS
 10
9.3859454585
 20
9.7569675503
 11
9.3926121283
 21
9.7619675503
  0
LINE
  5
2B9
100
AcDbEntity
  8
03__ASM_ALL_CURVES
100
AcDbLine
 62
4
  6
CONTINUOUS
 10
8.6402787934
 20
6.7169675503
 11
8.6327787934
 21
6.7169675503
  0
LINE
  5
2BA
100
AcDbEntity
  8
03__ASM_ALL_CURVES
100
AcDbLine
 62
4
  6
CONTINUOUS
 10
8.2252787934
 20
6.7169675503
 11
8.2152787934
 21
6.7169675503
  0
LINE
  5
2BB
100
AcDbEntity
  8
03__ASM_ALL_CURVES
100
AcDbLine
 62
4
  6
CONTINUOUS
 10
8.0802787934
 20
6.7169675503
 11
8.0727787934
 21
6.7169675503
  0
LINE
  5
2BC
100
AcDbEntity
  8
03__ASM_ALL_CURVES
100
AcDbLine
 62
4
  6
CONTINUOUS
 10
8.4402787934
 20
6.7369675503
 11
8.4852787934
 21
6.7369675503
  0
LINE
  5
2BD
100
AcDbEntity
  8
03__ASM_ALL_CURVES
100
AcDbLine
 62
4
  6
CONTINUOUS
 10
8.5202787934
 20
6.7369675503
 11
8.5652787934
 21
6.7369675503
  0
LINE
  5
2BE
100
AcDbEntity
  8
03__ASM_ALL_CURVES
100
AcDbLine
 62
4
  6
CONTINUOUS
 10
8.6802787934
 20
6.7369675503
 11
8.7252787934
 21
6.7369675503
  0
LINE
  5
2BF
100
AcDbEntity
  8
03__ASM_ALL_CURVES
100
AcDbLine
 62
4
  6
CONTINUOUS
 10
8.7602787934
 20
6.7369675503
 11
8.8052787934
 21
6.7369675503
  0
LINE
  5
2C0
100
AcDbEntity
  8
03__ASM_ALL_CURVES
100
AcDbLine
 62
4
  6
CONTINUOUS
 10
9.2202787934
 20
6.7569675503
 11
8.9802787934
 21
6.7569675503
  0
LINE
  5
2C1
100
AcDbEntity
  8
0
100
AcDbLine
 62
7
  6
CONTINUOUS
 10
10.1122787701
 20
6.7569675503
 11
12.3632788168
 21
6.7569675503
  0
LINE
  5
2C2
100
AcDbEntity
  8
03__ASM_ALL_CURVES
100
AcDbLine
 62
4
  6
CONTINUOUS
 10
8.2152787934
 20
6.7703008852
 11
8.2252787934
 21
6.7703008852
  0
LINE
  5
2C3
100
AcDbEntity
  8
03__ASM_ALL_CURVES
100
AcDbLine
 62
4
  6
CONTINUOUS
 10
8.2402787934
 20
6.7969675503
 11
8.2102787934
 21
6.7969675503
  0
LINE
  5
2C4
100
AcDbEntity
  8
03__ASM_ALL_CURVES
100
AcDbLine
 62
4
  6
CONTINUOUS
 10
8.1602787934
 20
6.7969675503
 11
8.1202787934
 21
6.7969675503
  0
LINE
  5
2C5
100
AcDbEntity
  8
0
100
AcDbLine
 62
7
  6
CONTINUOUS
 10
13.1442787934
 20
6.8189675503
 11
12.3632788168
 21
6.8189675503
  0
LINE
  5
2C6
100
AcDbEntity
  8
0
100
AcDbLine
 62
7
  6
CONTINUOUS
 10
10.1122787701
 20
6.8199675503
 11
9.3312787934
 21
6.8199675503
  0
LINE
  5
2C7
100
AcDbEntity
  8
03__ASM_ALL_CURVES
100
AcDbLine
 62
4
  6
CONTINUOUS
 10
8.5302787934
 20
8.2236342171
 11
8.5252787934
 21
8.230300884
  0
LINE
  5
2C8
100
AcDbEntity
  8
03__ASM_ALL_CURVES
100
AcDbLine
 62
4
  6
CONTINUOUS
 10
8.5502787934
 20
8.2903008852
 11
8.5552787934
 21
8.2836342154
  0
LINE
  5
2C9
100
AcDbEntity
  8
03__ASM_ALL_CURVES
100
AcDbLine
 62
4
  6
CONTINUOUS
 10
8.6327787934
 20
8.2269675506
 11
8.6402787934
 21
8.2169675503
  0
LINE
  5
2CA
100
AcDbEntity
  8
03__ASM_ALL_CURVES
100
AcDbLine
 62
4
  6
CONTINUOUS
 10
8.6852787934
 20
8.2236342171
 11
8.6802787934
 21
8.230300884
  0
LINE
  5
2CB
100
AcDbEntity
  8
03__ASM_ALL_CURVES
100
AcDbLine
 62
4
  6
CONTINUOUS
 10
8.8002787934
 20
8.2569675503
 11
8.8052787934
 21
8.2436342177
  0
LINE
  5
2CC
100
AcDbEntity
  8
03__ASM_ALL_CURVES
100
AcDbLine
 62
4
  6
CONTINUOUS
 10
8.7652787934
 20
8.480300884
 11
8.7602787934
 21
8.4936342177
  0
LINE
  5
2CD
100
AcDbEntity
  8
03__ASM_ALL_CURVES
100
AcDbLine
 62
4
  6
CONTINUOUS
 10
8.7952787934
 20
8.5336342154
 11
8.8002787934
 21
8.5203008852
  0
LINE
  5
2CE
100
AcDbEntity
  8
03__ASM_ALL_CURVES
100
AcDbLine
 62
4
  6
CONTINUOUS
 10
8.8652787934
 20
8.2836342154
 11
8.8702787934
 21
8.2636342154
  0
LINE
  5
2CF
100
AcDbEntity
  8
03__ASM_ALL_CURVES
100
AcDbLine
 62
4
  6
CONTINUOUS
 10
8.8702787934
 20
8.2503008828
 11
8.8652787934
 21
8.230300884
  0
LINE
  5
2D0
100
AcDbEntity
  8
03__ASM_ALL_CURVES
100
AcDbLine
 62
4
  6
CONTINUOUS
 10
8.2452787934
 20
6.9936342177
 11
8.2402787934
 21
6.980300884
  0
LINE
  5
2D1
100
AcDbEntity
  8
03__ASM_ALL_CURVES
100
AcDbLine
 62
4
  6
CONTINUOUS
 10
8.8052787934
 20
8.2436342177
 11
8.8002787934
 21
8.230300884
  0
LINE
  5
2D2
100
AcDbEntity
  8
03__ASM_ALL_CURVES
100
AcDbLine
 62
4
  6
CONTINUOUS
 10
8.2452787934
 20
6.7436342177
 11
8.2402787934
 21
6.730300884
  0
LINE
  5
2D3
100
AcDbEntity
  8
03__ASM_ALL_CURVES
100
AcDbLine
 62
4
  6
CONTINUOUS
 10
9.4126121283
 20
9.7469675503
 11
9.4192787934
 21
9.7619675503
  0
LINE
  5
2D4
100
AcDbEntity
  8
03__ASM_ALL_CURVES
100
AcDbLine
 62
4
  6
CONTINUOUS
 10
9.4592787934
 20
9.7469675503
 11
9.4526121266
 21
9.7369675503
  0
LINE
  5
2D5
100
AcDbEntity
  8
03__ASM_ALL_CURVES
100
AcDbLine
 62
4
  6
CONTINUOUS
 10
9.3792787934
 20
9.5069675503
 11
9.3859454585
 21
9.5169675503
  0
LINE
  5
2D6
100
AcDbEntity
  8
03__ASM_ALL_CURVES
100
AcDbLine
 62
4
  6
CONTINUOUS
 10
9.4592787934
 20
9.5069675503
 11
9.4526121266
 21
9.4969675503
  0
LINE
  5
2D7
100
AcDbEntity
  8
03__ASM_ALL_CURVES
100
AcDbLine
 62
4
  6
CONTINUOUS
 10
8.3202787934
 20
8.230300884
 11
8.3152787934
 21
8.2236342171
  0
LINE
  5
2D8
100
AcDbEntity
  8
03__ASM_ALL_CURVES
100
AcDbLine
 62
4
  6
CONTINUOUS
 10
8.4652787934
 20
8.2969675503
 11
8.4552787934
 21
8.2836342154
  0
LINE
  5
2D9
100
AcDbEntity
  8
03__ASM_ALL_CURVES
100
AcDbLine
 62
4
  6
CONTINUOUS
 10
8.5252787934
 20
8.2836342154
 11
8.5302787934
 21
8.2903008852
  0
LINE
  5
2DA
100
AcDbEntity
  8
03__ASM_ALL_CURVES
100
AcDbLine
 62
4
  6
CONTINUOUS
 10
8.7652787934
 20
8.5336342154
 11
8.7702787934
 21
8.5403008852
  0
LINE
  5
2DB
100
AcDbEntity
  8
03__ASM_ALL_CURVES
100
AcDbLine
 62
4
  6
CONTINUOUS
 10
8.5552787934
 20
8.230300884
 11
8.5502787934
 21
8.2236342171
  0
LINE
  5
2DC
100
AcDbEntity
  8
03__ASM_ALL_CURVES
100
AcDbLine
 62
4
  6
CONTINUOUS
 10
9.4526121266
 20
9.7369675503
 11
9.4459454597
 21
9.7319675503
  0
LINE
  5
2DD
100
AcDbEntity
  8
03__ASM_ALL_CURVES
100
AcDbLine
 62
4
  6
CONTINUOUS
 10
9.4492787931
 20
9.5994675503
 11
9.4592787934
 21
9.6069675503
  0
LINE
  5
2DE
100
AcDbEntity
  8
03__ASM_ALL_CURVES
100
AcDbLine
 62
4
  6
CONTINUOUS
 10
9.3859454585
 20
9.5169675503
 11
9.3926121283
 21
9.5219675503
  0
LINE
  5
2DF
100
AcDbEntity
  8
03__ASM_ALL_CURVES
100
AcDbLine
 62
4
  6
CONTINUOUS
 10
9.4526121266
 20
9.4969675503
 11
9.4459454597
 21
9.4919675503
  0
LINE
  5
2E0
100
AcDbEntity
  8
03__ASM_ALL_CURVES
100
AcDbLine
 62
4
  6
CONTINUOUS
 10
9.4192787934
 20
9.7619675503
 11
9.432612126
 21
9.7669675503
  0
LINE
  5
2E1
100
AcDbEntity
  8
03__ASM_ALL_CURVES
100
AcDbLine
 62
4
  6
CONTINUOUS
 10
9.4459454597
 20
9.7319675503
 11
9.432612126
 21
9.7269675503
  0
LINE
  5
2E2
100
AcDbEntity
  8
03__ASM_ALL_CURVES
100
AcDbLine
 62
4
  6
CONTINUOUS
 10
8.6402787934
 20
6.9669675503
 11
8.6327787934
 21
6.9669675503
  0
LINE
  5
2E3
100
AcDbEntity
  8
03__ASM_ALL_CURVES
100
AcDbLine
 62
4
  6
CONTINUOUS
 10
8.5452787934
 20
6.9669675503
 11
8.5352787934
 21
6.9669675503
  0
LINE
  5
2E4
100
AcDbEntity
  8
03__ASM_ALL_CURVES
100
AcDbLine
 62
4
  6
CONTINUOUS
 10
8.4652787934
 20
6.9669675503
 11
8.4552787934
 21
6.9669675503
  0
LINE
  5
2E5
100
AcDbEntity
  8
03__ASM_ALL_CURVES
100
AcDbLine
 62
4
  6
CONTINUOUS
 10
8.2252787934
 20
6.9669675503
 11
8.2152787934
 21
6.9669675503
  0
LINE
  5
2E6
100
AcDbEntity
  8
03__ASM_ALL_CURVES
100
AcDbLine
 62
4
  6
CONTINUOUS
 10
8.1602787934
 20
6.9669675503
 11
8.1527787934
 21
6.9669675503
  0
LINE
  5
2E7
100
AcDbEntity
  8
03__ASM_ALL_CURVES
100
AcDbLine
 62
4
  6
CONTINUOUS
 10
9.2202787934
 20
7.0069675503
 11
8.9802787934
 21
7.0069675503
  0
LINE
  5
2E8
100
AcDbEntity
  8
03__ASM_ALL_CURVES
100
AcDbLine
 62
4
  6
CONTINUOUS
 10
8.4552787934
 20
7.0136342154
 11
8.4652787934
 21
7.0136342154
  0
LINE
  5
2E9
100
AcDbEntity
  8
03__ASM_ALL_CURVES
100
AcDbLine
 62
4
  6
CONTINUOUS
 10
8.5352787934
 20
7.0136342154
 11
8.5452787934
 21
7.0136342154
  0
LINE
  5
2EA
100
AcDbEntity
  8
03__ASM_ALL_CURVES
100
AcDbLine
 62
4
  6
CONTINUOUS
 10
8.2152787934
 20
7.0203008852
 11
8.2252787934
 21
7.0203008852
  0
LINE
  5
2EB
100
AcDbEntity
  8
03__ASM_ALL_CURVES
100
AcDbLine
 62
4
  6
CONTINUOUS
 10
8.2402787934
 20
7.0469675503
 11
8.2102787934
 21
7.0469675503
  0
LINE
  5
2EC
100
AcDbEntity
  8
03__ASM_ALL_CURVES
100
AcDbLine
 62
4
  6
CONTINUOUS
 10
8.4552787934
 20
7.0469675503
 11
8.4652787934
 21
7.0469675503
  0
LINE
  5
2ED
100
AcDbEntity
  8
03__ASM_ALL_CURVES
100
AcDbLine
 62
4
  6
CONTINUOUS
 10
8.5352787934
 20
7.0469675503
 11
8.5452787934
 21
7.0469675503
  0
LINE
  5
2EE
100
AcDbEntity
  8
03__ASM_ALL_CURVES
100
AcDbLine
 62
4
  6
CONTINUOUS
 10
8.0602787934
 20
8.2169675503
 11
8.0502787934
 21
8.2236342171
  0
LINE
  5
2EF
100
AcDbEntity
  8
03__ASM_ALL_CURVES
100
AcDbLine
 62
4
  6
CONTINUOUS
 10
8.0602787934
 20
8.2969675503
 11
8.0702787934
 21
8.2903008852
  0
LINE
  5
2F0
100
AcDbEntity
  8
03__ASM_ALL_CURVES
100
AcDbLine
 62
4
  6
CONTINUOUS
 10
8.2952787934
 20
8.2169675503
 11
8.2852787934
 21
8.2236342171
  0
LINE
  5
2F1
100
AcDbEntity
  8
03__ASM_ALL_CURVES
100
AcDbLine
 62
4
  6
CONTINUOUS
 10
8.2252787934
 20
8.2969675503
 11
8.2352787934
 21
8.2903008852
  0
LINE
  5
2F2
100
AcDbEntity
  8
03__ASM_ALL_CURVES
100
AcDbLine
 62
4
  6
CONTINUOUS
 10
8.3052787934
 20
8.2703008852
 11
8.3152787934
 21
8.2636342154
  0
LINE
  5
2F3
100
AcDbEntity
  8
03__ASM_ALL_CURVES
100
AcDbLine
 62
4
  6
CONTINUOUS
 10
8.7152787934
 20
8.2569675503
 11
8.7252787934
 21
8.2436342177
  0
LINE
  5
2F4
100
AcDbEntity
  8
03__ASM_ALL_CURVES
100
AcDbLine
 62
4
  6
CONTINUOUS
 10
8.7152787934
 20
8.2903008852
 11
8.7202787934
 21
8.2836342154
  0
LINE
  5
2F5
100
AcDbEntity
  8
03__ASM_ALL_CURVES
100
AcDbLine
 62
4
  6
CONTINUOUS
 10
8.7652787934
 20
8.2236342171
 11
8.7602787934
 21
8.230300884
  0
LINE
  5
2F6
100
AcDbEntity
  8
03__ASM_ALL_CURVES
100
AcDbLine
 62
4
  6
CONTINUOUS
 10
8.7952787934
 20
8.2636342154
 11
8.8002787934
 21
8.2569675503
  0
LINE
  5
2F7
100
AcDbEntity
  8
03__ASM_ALL_CURVES
100
AcDbLine
 62
4
  6
CONTINUOUS
 10
8.8552787934
 20
8.2969675503
 11
8.8652787934
 21
8.2836342154
  0
LINE
  5
2F8
100
AcDbEntity
  8
03__ASM_ALL_CURVES
100
AcDbLine
 62
4
  6
CONTINUOUS
 10
8.7702787934
 20
8.4736342171
 11
8.7652787934
 21
8.480300884
  0
LINE
  5
2F9
100
AcDbEntity
  8
0
100
AcDbLine
 62
7
  6
CONTINUOUS
 10
9.3002787934
 20
8.4139675503
 11
9.3002787934
 21
6.8509675503
  0
LINE
  5
2FA
100
AcDbEntity
  8
03__ASM_ALL_CURVES
100
AcDbLine
 62
4
  6
CONTINUOUS
 10
9.3002787934
 20
8.5869675503
 11
9.3002787934
 21
8.8269675503
  0
LINE
  5
2FB
100
AcDbEntity
  8
0
100
AcDbLine
 62
7
  6
CONTINUOUS
 10
9.3312787934
 20
8.4449675503
 11
9.3312787934
 21
6.8199675503
  0
LINE
  5
2FC
100
AcDbEntity
  8
03__ASM_ALL_CURVES
100
AcDbLine
 62
4
  6
CONTINUOUS
 10
9.3312787934
 20
8.5869675503
 11
9.3312787934
 21
8.6669675503
  0
LINE
  5
2FD
100
AcDbEntity
  8
03__ASM_ALL_CURVES
100
AcDbLine
 62
4
  6
CONTINUOUS
 10
8.8702787934
 20
7.0003008828
 11
8.8652787934
 21
6.980300884
  0
LINE
  5
2FE
100
AcDbEntity
  8
03__ASM_ALL_CURVES
100
AcDbLine
 62
4
  6
CONTINUOUS
 10
8.6802787934
 20
7.0203008852
 11
8.6852787934
 21
7.0336342154
  0
LINE
  5
2FF
100
AcDbEntity
  8
03__ASM_ALL_CURVES
100
AcDbLine
 62
4
  6
CONTINUOUS
 10
9.3792787934
 20
9.2719675503
 11
9.3859454585
 21
9.2819675503
  0
LINE
  5
300
100
AcDbEntity
  8
03__ASM_ALL_CURVES
100
AcDbLine
 62
4
  6
CONTINUOUS
 10
9.4126121283
 20
9.2719675503
 11
9.4192787934
 21
9.2819675503
  0
LINE
  5
301
100
AcDbEntity
  8
03__ASM_ALL_CURVES
100
AcDbLine
 62
4
  6
CONTINUOUS
 10
9.2602787934
 20
9.0269675503
 11
9.2669454585
 21
9.0369675503
  0
LINE
  5
302
100
AcDbEntity
  8
03__ASM_ALL_CURVES
100
AcDbLine
 62
4
  6
CONTINUOUS
 10
9.3792787934
 20
9.1869675503
 11
9.3859454585
 21
9.1969675503
  0
LINE
  5
303
100
AcDbEntity
  8
03__ASM_ALL_CURVES
100
AcDbLine
 62
4
  6
CONTINUOUS
 10
9.4592787934
 20
9.2619675503
 11
9.4526121266
 21
9.2519675503
  0
LINE
  5
304
100
AcDbEntity
  8
03__ASM_ALL_CURVES
100
AcDbLine
 62
4
  6
CONTINUOUS
 10
9.3402787934
 20
9.0269675503
 11
9.3336121266
 21
9.0169675503
  0
LINE
  5
305
100
AcDbEntity
  8
03__ASM_ALL_CURVES
100
AcDbLine
 62
4
  6
CONTINUOUS
 10
9.4592787934
 20
9.1869675503
 11
9.4526121266
 21
9.1769675503
  0
LINE
  5
306
100
AcDbEntity
  8
03__ASM_ALL_CURVES
100
AcDbLine
 62
4
  6
CONTINUOUS
 10
9.3792787934
 20
9.0269675503
 11
9.3859454585
 21
9.0369675503
  0
LINE
  5
307
100
AcDbEntity
  8
03__ASM_ALL_CURVES
100
AcDbLine
 62
4
  6
CONTINUOUS
 10
8.7952787934
 20
8.480300884
 11
8.7902787934
 21
8.4736342171
  0
LINE
  5
308
100
AcDbEntity
  8
03__ASM_ALL_CURVES
100
AcDbLine
 62
4
  6
CONTINUOUS
 10
8.7202787934
 20
8.2769675503
 11
8.7152787934
 21
8.2703008852
  0
LINE
  5
309
100
AcDbEntity
  8
03__ASM_ALL_CURVES
100
AcDbLine
 62
4
  6
CONTINUOUS
 10
8.7252787934
 20
8.2369675503
 11
8.7152787934
 21
8.2236342171
  0
LINE
  5
30A
100
AcDbEntity
  8
03__ASM_ALL_CURVES
100
AcDbLine
 62
4
  6
CONTINUOUS
 10
8.8002787934
 20
8.230300884
 11
8.7952787934
 21
8.2236342171
  0
LINE
  5
30B
100
AcDbEntity
  8
03__ASM_ALL_CURVES
100
AcDbLine
 62
4
  6
CONTINUOUS
 10
9.4459454597
 20
9.4219675503
 11
9.4592787934
 21
9.4319675503
  0
LINE
  5
30C
100
AcDbEntity
  8
03__ASM_ALL_CURVES
100
AcDbLine
 62
4
  6
CONTINUOUS
 10
9.3859454585
 20
9.2819675503
 11
9.3926121283
 21
9.2869675503
  0
LINE
  5
30D
100
AcDbEntity
  8
03__ASM_ALL_CURVES
100
AcDbLine
 62
4
  6
CONTINUOUS
 10
9.4192787934
 20
9.2819675503
 11
9.432612126
 21
9.2919675503
  0
LINE
  5
30E
100
AcDbEntity
  8
03__ASM_ALL_CURVES
100
AcDbLine
 62
4
  6
CONTINUOUS
 10
9.4526121266
 20
9.2519675503
 11
9.4459454597
 21
9.2469675503
  0
LINE
  5
30F
100
AcDbEntity
  8
03__ASM_ALL_CURVES
100
AcDbLine
 62
4
  6
CONTINUOUS
 10
9.3859454585
 20
9.1969675503
 11
9.3926121283
 21
9.2019675503
  0
LINE
  5
310
100
AcDbEntity
  8
03__ASM_ALL_CURVES
100
AcDbLine
 62
4
  6
CONTINUOUS
 10
9.3926121283
 20
9.5219675503
 11
9.4059454585
 21
9.5269675503
  0
LINE
  5
311
100
AcDbEntity
  8
03__ASM_ALL_CURVES
100
AcDbLine
 62
4
  6
CONTINUOUS
 10
9.4459454597
 20
9.4919675503
 11
9.432612126
 21
9.4869675503
  0
LINE
  5
312
100
AcDbEntity
  8
03__ASM_ALL_CURVES
100
AcDbLine
 62
4
  6
CONTINUOUS
 10
10.4402787934
 20
9.8469675503
 11
10.453612126
 21
9.8519675503
  0
LINE
  5
313
100
AcDbEntity
  8
0
100
AcDbLine
 62
7
  6
CONTINUOUS
 10
13.1752787934
 20
7.1939675503
 11
12.3632788168
 21
7.1939675503
  0
LINE
  5
314
100
AcDbEntity
  8
0
100
AcDbLine
 62
7
  6
CONTINUOUS
 10
9.3002787934
 20
7.1949675503
 11
10.1122787701
 21
7.1949675503
  0
LINE
  5
315
100
AcDbEntity
  8
03__ASM_ALL_CURVES
100
AcDbLine
 62
4
  6
CONTINUOUS
 10
8.5402787934
 20
8.2169675503
 11
8.5302787934
 21
8.2236342171
  0
LINE
  5
316
100
AcDbEntity
  8
03__ASM_ALL_CURVES
100
AcDbLine
 62
4
  6
CONTINUOUS
 10
8.5402787934
 20
8.2969675503
 11
8.5502787934
 21
8.2903008852
  0
LINE
  5
317
100
AcDbEntity
  8
03__ASM_ALL_CURVES
100
AcDbLine
 62
4
  6
CONTINUOUS
 10
8.6952787934
 20
8.2169675503
 11
8.6852787934
 21
8.2236342171
  0
LINE
  5
318
100
AcDbEntity
  8
03__ASM_ALL_CURVES
100
AcDbLine
 62
4
  6
CONTINUOUS
 10
8.7752787934
 20
8.2169675503
 11
8.7652787934
 21
8.2236342171
  0
LINE
  5
319
100
AcDbEntity
  8
03__ASM_ALL_CURVES
100
AcDbLine
 62
4
  6
CONTINUOUS
 10
8.7052787934
 20
8.2636342154
 11
8.7152787934
 21
8.2569675503
  0
LINE
  5
31A
100
AcDbEntity
  8
03__ASM_ALL_CURVES
100
AcDbLine
 62
4
  6
CONTINUOUS
 10
8.7902787934
 20
8.5403008852
 11
8.7952787934
 21
8.5336342154
  0
LINE
  5
31B
100
AcDbEntity
  8
03__ASM_ALL_CURVES
100
AcDbLine
 62
4
  6
CONTINUOUS
 10
9.3792787934
 20
10.1519675503
 11
9.3792787934
 21
10.1419675503
  0
LINE
  5
31C
100
AcDbEntity
  8
03__ASM_ALL_CURVES
100
AcDbLine
 62
4
  6
CONTINUOUS
 10
9.3792787934
 20
9.6869675503
 11
9.3792787934
 21
9.6469675503
  0
LINE
  5
31D
100
AcDbEntity
  8
03__ASM_ALL_CURVES
100
AcDbLine
 62
4
  6
CONTINUOUS
 10
9.3792787934
 20
9.2619675503
 11
9.3792787934
 21
9.2719675503
  0
LINE
  5
31E
100
AcDbEntity
  8
03__ASM_ALL_CURVES
100
AcDbLine
 62
4
  6
CONTINUOUS
 10
9.4126121283
 20
9.2619675503
 11
9.4126121283
 21
9.2719675503
  0
LINE
  5
31F
100
AcDbEntity
  8
03__ASM_ALL_CURVES
100
AcDbLine
 62
4
  6
CONTINUOUS
 10
9.4192787934
 20
8.7469675503
 11
9.4192787934
 21
8.8269675503
  0
LINE
  5
320
100
AcDbEntity
  8
03__ASM_ALL_CURVES
100
AcDbLine
 62
4
  6
CONTINUOUS
 10
9.4592787934
 20
10.1519675503
 11
9.4592787934
 21
10.1419675503
  0
LINE
  5
321
100
AcDbEntity
  8
03__ASM_ALL_CURVES
100
AcDbLine
 62
4
  6
CONTINUOUS
 10
9.4592787934
 20
9.6069675503
 11
9.4592787934
 21
9.5994675503
  0
LINE
  5
322
100
AcDbEntity
  8
03__ASM_ALL_CURVES
100
AcDbLine
 62
4
  6
CONTINUOUS
 10
9.4592787934
 20
9.2719675503
 11
9.4592787934
 21
9.2619675503
  0
LINE
  5
323
100
AcDbEntity
  8
03__ASM_ALL_CURVES
100
AcDbLine
 62
4
  6
CONTINUOUS
 10
9.4592787934
 20
9.1269675503
 11
9.4592787934
 21
9.1194675503
  0
LINE
  5
324
100
AcDbEntity
  8
03__ASM_ALL_CURVES
100
AcDbLine
 62
4
  6
CONTINUOUS
 10
9.4592787934
 20
10.0469675503
 11
9.4592787934
 21
10.0869675503
  0
LINE
  5
325
100
AcDbEntity
  8
03__ASM_ALL_CURVES
100
AcDbLine
 62
4
  6
CONTINUOUS
 10
8.8702787934
 20
6.7503008828
 11
8.8652787934
 21
6.730300884
  0
LINE
  5
326
100
AcDbEntity
  8
03__ASM_ALL_CURVES
100
AcDbLine
 62
4
  6
CONTINUOUS
 10
8.7202787934
 20
6.9936342177
 11
8.7152787934
 21
6.980300884
  0
LINE
  5
327
100
AcDbEntity
  8
03__ASM_ALL_CURVES
100
AcDbLine
 62
4
  6
CONTINUOUS
 10
8.7602787934
 20
7.0203008852
 11
8.7652787934
 21
7.0336342154
  0
LINE
  5
328
100
AcDbEntity
  8
03__ASM_ALL_CURVES
100
AcDbLine
 62
4
  6
CONTINUOUS
 10
8.8002787934
 20
7.0203008852
 11
8.7952787934
 21
7.0069675503
  0
LINE
  5
329
100
AcDbEntity
  8
03__ASM_ALL_CURVES
100
AcDbLine
 62
4
  6
CONTINUOUS
 10
8.8002787934
 20
6.9936342177
 11
8.7952787934
 21
6.980300884
  0
LINE
  5
32A
100
AcDbEntity
  8
03__ASM_ALL_CURVES
100
AcDbLine
 62
4
  6
CONTINUOUS
 10
9.4592787934
 20
9.0269675503
 11
9.4526121266
 21
9.0169675503
  0
LINE
  5
32B
100
AcDbEntity
  8
03__ASM_ALL_CURVES
100
AcDbLine
 62
4
  6
CONTINUOUS
 10
8.8652787934
 20
8.230300884
 11
8.8552787934
 21
8.2169675503
  0
LINE
  5
32C
100
AcDbEntity
  8
03__ASM_ALL_CURVES
100
AcDbLine
 62
4
  6
CONTINUOUS
 10
10.4002787934
 20
9.9019675503
 11
10.4136121283
 21
9.9119675503
  0
LINE
  5
32D
100
AcDbEntity
  8
03__ASM_ALL_CURVES
100
AcDbLine
 62
4
  6
CONTINUOUS
 10
9.4526121266
 20
9.1769675503
 11
9.4459454597
 21
9.1719675503
  0
LINE
  5
32E
100
AcDbEntity
  8
03__ASM_ALL_CURVES
100
AcDbLine
 62
4
  6
CONTINUOUS
 10
9.2669454585
 20
9.0369675503
 11
9.2736121283
 21
9.0419675503
  0
LINE
  5
32F
100
AcDbEntity
  8
03__ASM_ALL_CURVES
100
AcDbLine
 62
4
  6
CONTINUOUS
 10
9.4492787931
 20
9.1194675503
 11
9.4592787934
 21
9.1269675503
  0
LINE
  5
330
100
AcDbEntity
  8
03__ASM_ALL_CURVES
100
AcDbLine
 62
4
  6
CONTINUOUS
 10
9.3336121266
 20
9.0169675503
 11
9.3269454597
 21
9.0119675503
  0
LINE
  5
331
100
AcDbEntity
  8
03__ASM_ALL_CURVES
100
AcDbLine
 62
4
  6
CONTINUOUS
 10
10.4336121283
 20
9.8419675503
 11
10.4402787934
 21
9.8469675503
  0
LINE
  5
332
100
AcDbEntity
  8
03__ASM_ALL_CURVES
100
AcDbLine
 62
4
  6
CONTINUOUS
 10
9.3859454585
 20
9.0369675503
 11
9.3926121283
 21
9.0419675503
  0
LINE
  5
333
100
AcDbEntity
  8
03__ASM_ALL_CURVES
100
AcDbLine
 62
4
  6
CONTINUOUS
 10
10.4736121266
 20
9.8119675503
 11
10.4669454597
 21
9.8069675503
  0
LINE
  5
334
100
AcDbEntity
  8
03__ASM_ALL_CURVES
100
AcDbLine
 62
4
  6
CONTINUOUS
 10
10.4069454585
 20
9.7569675503
 11
10.4136121283
 21
9.7619675503
  0
LINE
  5
335
100
AcDbEntity
  8
03__ASM_ALL_CURVES
100
AcDbLine
 62
4
  6
CONTINUOUS
 10
9.4526121266
 20
9.0169675503
 11
9.4459454597
 21
9.0119675503
  0
LINE
  5
336
100
AcDbEntity
  8
03__ASM_ALL_CURVES
100
AcDbLine
 62
4
  6
CONTINUOUS
 10
10.4736121266
 20
9.7369675503
 11
10.4669454597
 21
9.7319675503
  0
LINE
  5
337
100
AcDbEntity
  8
03__ASM_ALL_CURVES
100
AcDbLine
 62
4
  6
CONTINUOUS
 10
8.0502787934
 20
8.2903008852
 11
8.0602787934
 21
8.2969675503
  0
LINE
  5
338
100
AcDbEntity
  8
03__ASM_ALL_CURVES
100
AcDbLine
 62
4
  6
CONTINUOUS
 10
8.0702787934
 20
8.2236342171
 11
8.0602787934
 21
8.2169675503
  0
LINE
  5
339
100
AcDbEntity
  8
03__ASM_ALL_CURVES
100
AcDbLine
 62
4
  6
CONTINUOUS
 10
8.2052787934
 20
8.2903008852
 11
8.2152787934
 21
8.2969675503
  0
LINE
  5
33A
100
AcDbEntity
  8
03__ASM_ALL_CURVES
100
AcDbLine
 62
4
  6
CONTINUOUS
 10
8.2352787934
 20
8.2636342154
 11
8.2152787934
 21
8.2503008828
  0
LINE
  5
33B
100
AcDbEntity
  8
03__ASM_ALL_CURVES
100
AcDbLine
 62
4
  6
CONTINUOUS
 10
8.2852787934
 20
8.2636342154
 11
8.2952787934
 21
8.2703008852
  0
LINE
  5
33C
100
AcDbEntity
  8
03__ASM_ALL_CURVES
100
AcDbLine
 62
4
  6
CONTINUOUS
 10
10.4136121283
 20
9.7619675503
 11
10.4269454585
 21
9.7669675503
  0
LINE
  5
33D
100
AcDbEntity
  8
03__ASM_ALL_CURVES
100
AcDbLine
 62
4
  6
CONTINUOUS
 10
10.4402787934
 20
9.7319675503
 11
10.4269454585
 21
9.7269675503
  0
LINE
  5
33E
100
AcDbEntity
  8
03__ASM_ALL_CURVES
100
AcDbLine
 62
4
  6
CONTINUOUS
 10
9.3926121283
 20
9.2019675503
 11
9.4059454585
 21
9.2069675503
  0
LINE
  5
33F
100
AcDbEntity
  8
03__ASM_ALL_CURVES
100
AcDbLine
 62
4
  6
CONTINUOUS
 10
8.5402787934
 20
8.2636342154
 11
8.5552787934
 21
8.2569675503
  0
LINE
  5
340
100
AcDbEntity
  8
03__ASM_ALL_CURVES
100
AcDbLine
 62
4
  6
CONTINUOUS
 10
8.7052787934
 20
8.2969675503
 11
8.7152787934
 21
8.2903008852
  0
LINE
  5
341
100
AcDbEntity
  8
03__ASM_ALL_CURVES
100
AcDbLine
 62
4
  6
CONTINUOUS
 10
8.7852787934
 20
8.2703008852
 11
8.7952787934
 21
8.2636342154
  0
LINE
  5
342
100
AcDbEntity
  8
03__ASM_ALL_CURVES
100
AcDbLine
 62
4
  6
CONTINUOUS
 10
8.7802787934
 20
8.4669675503
 11
8.7702787934
 21
8.4736342171
  0
LINE
  5
343
100
AcDbEntity
  8
03__ASM_ALL_CURVES
100
AcDbLine
 62
4
  6
CONTINUOUS
 10
8.4752787934
 20
6.7969675503
 11
8.4402787934
 21
6.7369675503
  0
LINE
  5
344
100
AcDbEntity
  8
03__ASM_ALL_CURVES
100
AcDbLine
 62
4
  6
CONTINUOUS
 10
8.5552787934
 20
6.7969675503
 11
8.5202787934
 21
6.7369675503
  0
LINE
  5
345
100
AcDbEntity
  8
03__ASM_ALL_CURVES
100
AcDbLine
 62
4
  6
CONTINUOUS
 10
10.4269454585
 20
9.8319675503
 11
10.4336121283
 21
9.8419675503
  0
LINE
  5
346
100
AcDbEntity
  8
03__ASM_ALL_CURVES
100
AcDbLine
 62
4
  6
CONTINUOUS
 10
10.4002787934
 20
9.7469675503
 11
10.4069454585
 21
9.7569675503
  0
LINE
  5
347
100
AcDbEntity
  8
03__ASM_ALL_CURVES
100
AcDbLine
 62
4
  6
CONTINUOUS
 10
8.2402787934
 20
6.980300884
 11
8.2352787934
 21
6.9736342171
  0
LINE
  5
348
100
AcDbEntity
  8
03__ASM_ALL_CURVES
100
AcDbLine
 62
4
  6
CONTINUOUS
 10
8.3852787934
 20
7.0469675503
 11
8.3752787934
 21
7.0336342154
  0
LINE
  5
349
100
AcDbEntity
  8
0
100
AcDbLine
 62
7
  6
CONTINUOUS
 10
9.3002787934
 20
8.4139675503
 11
9.3312787934
 21
8.4449675503
  0
LINE
  5
34A
100
AcDbEntity
  8
03__ASM_ALL_CURVES
100
AcDbLine
 62
4
  6
CONTINUOUS
 10
9.3312787934
 20
8.6669675503
 11
9.4192787934
 21
8.7469675503
  0
LINE
  5
34B
100
AcDbEntity
  8
03__ASM_ALL_CURVES
100
AcDbLine
 62
4
  6
CONTINUOUS
 10
10.4702787931
 20
9.6794675503
 11
10.4802787934
 21
9.6869675503
  0
LINE
  5
34C
100
AcDbEntity
  8
03__ASM_ALL_CURVES
100
AcDbLine
 62
4
  6
CONTINUOUS
 10
10.4069454585
 20
9.6019675503
 11
10.4136121283
 21
9.6069675503
  0
LINE
  5
34D
100
AcDbEntity
  8
03__ASM_ALL_CURVES
100
AcDbLine
 62
4
  6
CONTINUOUS
 10
10.4402787934
 20
9.6019675503
 11
10.453612126
 21
9.6119675503
  0
LINE
  5
34E
100
AcDbEntity
  8
03__ASM_ALL_CURVES
100
AcDbLine
 62
4
  6
CONTINUOUS
 10
10.4269454585
 20
9.5719675503
 11
10.4202787934
 21
9.5669675503
  0
LINE
  5
34F
100
AcDbEntity
  8
03__ASM_ALL_CURVES
100
AcDbLine
 62
4
  6
CONTINUOUS
 10
10.4069454585
 20
9.5219675503
 11
10.4136121283
 21
9.5269675503
  0
LINE
  5
350
100
AcDbEntity
  8
03__ASM_ALL_CURVES
100
AcDbLine
 62
4
  6
CONTINUOUS
 10
10.4736121266
 20
9.5719675503
 11
10.4602787934
 21
9.5619675503
  0
LINE
  5
351
100
AcDbEntity
  8
03__ASM_ALL_CURVES
100
AcDbLine
 62
4
  6
CONTINUOUS
 10
8.7702787934
 20
8.5403008852
 11
8.7802787934
 21
8.5469675503
  0
LINE
  5
352
100
AcDbEntity
  8
03__ASM_ALL_CURVES
100
AcDbLine
 62
4
  6
CONTINUOUS
 10
8.3152787934
 20
8.2236342171
 11
8.3052787934
 21
8.2169675503
  0
LINE
  5
353
100
AcDbEntity
  8
03__ASM_ALL_CURVES
100
AcDbLine
 62
4
  6
CONTINUOUS
 10
8.7902787934
 20
8.4736342171
 11
8.7802787934
 21
8.4669675503
  0
LINE
  5
354
100
AcDbEntity
  8
03__ASM_ALL_CURVES
100
AcDbLine
 62
4
  6
CONTINUOUS
 10
8.5302787934
 20
8.2903008852
 11
8.5402787934
 21
8.2969675503
  0
LINE
  5
355
100
AcDbEntity
  8
03__ASM_ALL_CURVES
100
AcDbLine
 62
4
  6
CONTINUOUS
 10
8.5502787934
 20
8.2236342171
 11
8.5402787934
 21
8.2169675503
  0
LINE
  5
356
100
AcDbEntity
  8
03__ASM_ALL_CURVES
100
AcDbLine
 62
4
  6
CONTINUOUS
 10
8.6852787934
 20
8.2903008852
 11
8.6952787934
 21
8.2969675503
  0
LINE
  5
357
100
AcDbEntity
  8
03__ASM_ALL_CURVES
100
AcDbLine
 62
4
  6
CONTINUOUS
 10
8.7152787934
 20
8.2703008852
 11
8.7052787934
 21
8.2636342154
  0
LINE
  5
358
100
AcDbEntity
  8
03__ASM_ALL_CURVES
100
AcDbLine
 62
4
  6
CONTINUOUS
 10
9.4459454597
 20
9.1719675503
 11
9.432612126
 21
9.1669675503
  0
LINE
  5
359
100
AcDbEntity
  8
03__ASM_ALL_CURVES
100
AcDbLine
 62
4
  6
CONTINUOUS
 10
9.2736121283
 20
9.0419675503
 11
9.2869454585
 21
9.0469675503
  0
LINE
  5
35A
100
AcDbEntity
  8
03__ASM_ALL_CURVES
100
AcDbLine
 62
4
  6
CONTINUOUS
 10
9.3926121283
 20
9.0419675503
 11
9.4059454585
 21
9.0469675503
  0
LINE
  5
35B
100
AcDbEntity
  8
03__ASM_ALL_CURVES
100
AcDbLine
 62
4
  6
CONTINUOUS
 10
9.3269454597
 20
9.0119675503
 11
9.313612126
 21
9.0069675503
  0
LINE
  5
35C
100
AcDbEntity
  8
03__ASM_ALL_CURVES
100
AcDbLine
 62
4
  6
CONTINUOUS
 10
9.4459454597
 20
9.0119675503
 11
9.432612126
 21
9.0069675503
  0
LINE
  5
35D
100
AcDbEntity
  8
03__ASM_ALL_CURVES
100
AcDbLine
 62
4
  6
CONTINUOUS
 10
8.7802787934
 20
8.5469675503
 11
8.7902787934
 21
8.5403008852
  0
LINE
  5
35E
100
AcDbEntity
  8
03__ASM_ALL_CURVES
100
AcDbLine
 62
4
  6
CONTINUOUS
 10
9.2669454585
 20
9.0169675503
 11
9.2602787934
 21
9.0269675503
  0
LINE
  5
35F
100
AcDbEntity
  8
03__ASM_ALL_CURVES
100
AcDbLine
 62
4
  6
CONTINUOUS
 10
10.4469454609
 20
9.7469675503
 11
10.4402787934
 21
9.7319675503
  0
LINE
  5
360
100
AcDbEntity
  8
03__ASM_ALL_CURVES
100
AcDbLine
 62
4
  6
CONTINUOUS
 10
8.7152787934
 20
6.7969675503
 11
8.6802787934
 21
6.7369675503
  0
LINE
  5
361
100
AcDbEntity
  8
03__ASM_ALL_CURVES
100
AcDbLine
 62
4
  6
CONTINUOUS
 10
8.7952787934
 20
6.7969675503
 11
8.7602787934
 21
6.7369675503
  0
LINE
  5
362
100
AcDbEntity
  8
03__ASM_ALL_CURVES
100
AcDbLine
 62
4
  6
CONTINUOUS
 10
10.4802787934
 20
9.8219675503
 11
10.4736121266
 21
9.8119675503
  0
LINE
  5
363
100
AcDbEntity
  8
03__ASM_ALL_CURVES
100
AcDbLine
 62
4
  6
CONTINUOUS
 10
10.4802787934
 20
9.7469675503
 11
10.4736121266
 21
9.7369675503
  0
LINE
  5
364
100
AcDbEntity
  8
03__ASM_ALL_CURVES
100
AcDbLine
 62
4
  6
CONTINUOUS
 10
10.4002787934
 20
9.5919675503
 11
10.4069454585
 21
9.6019675503
  0
LINE
  5
365
100
AcDbEntity
  8
03__ASM_ALL_CURVES
100
AcDbLine
 62
4
  6
CONTINUOUS
 10
10.4336121283
 20
9.5919675503
 11
10.4402787934
 21
9.6019675503
  0
LINE
  5
366
100
AcDbEntity
  8
03__ASM_ALL_CURVES
100
AcDbLine
 62
4
  6
CONTINUOUS
 10
10.4336121283
 20
9.5819675503
 11
10.4269454585
 21
9.5719675503
  0
LINE
  5
367
100
AcDbEntity
  8
03__ASM_ALL_CURVES
100
AcDbLine
 62
4
  6
CONTINUOUS
 10
10.4002787934
 20
9.5119675503
 11
10.4069454585
 21
9.5219675503
  0
LINE
  5
368
100
AcDbEntity
  8
03__ASM_ALL_CURVES
100
AcDbLine
 62
4
  6
CONTINUOUS
 10
10.4802787934
 20
9.5819675503
 11
10.4736121266
 21
9.5719675503
  0
LINE
  5
369
100
AcDbEntity
  8
03__ASM_ALL_CURVES
100
AcDbLine
 62
4
  6
CONTINUOUS
 10
8.2402787934
 20
6.730300884
 11
8.2352787934
 21
6.7236342171
  0
LINE
  5
36A
100
AcDbEntity
  8
03__ASM_ALL_CURVES
100
AcDbLine
 62
4
  6
CONTINUOUS
 10
8.4802787934
 20
7.0269675503
 11
8.4752787934
 21
7.0203008852
  0
LINE
  5
36B
100
AcDbEntity
  8
03__ASM_ALL_CURVES
100
AcDbLine
 62
4
  6
CONTINUOUS
 10
8.5202787934
 20
7.0336342154
 11
8.5252787934
 21
7.0403008852
  0
LINE
  5
36C
100
AcDbEntity
  8
03__ASM_ALL_CURVES
100
AcDbLine
 62
4
  6
CONTINUOUS
 10
8.4852787934
 20
6.9869675503
 11
8.4752787934
 21
6.9736342171
  0
LINE
  5
36D
100
AcDbEntity
  8
03__ASM_ALL_CURVES
100
AcDbLine
 62
4
  6
CONTINUOUS
 10
8.5152787934
 20
6.9936342177
 11
8.5252787934
 21
7.0069675503
  0
LINE
  5
36E
100
AcDbEntity
  8
03__ASM_ALL_CURVES
100
AcDbLine
 62
4
  6
CONTINUOUS
 10
8.3852787934
 20
6.7969675503
 11
8.3752787934
 21
6.7836342154
  0
LINE
  5
36F
100
AcDbEntity
  8
03__ASM_ALL_CURVES
100
AcDbLine
 62
4
  6
CONTINUOUS
 10
8.5602787934
 20
7.0269675503
 11
8.5552787934
 21
7.0203008852
  0
LINE
  5
370
100
AcDbEntity
  8
03__ASM_ALL_CURVES
100
AcDbLine
 62
4
  6
CONTINUOUS
 10
8.5652787934
 20
6.9869675503
 11
8.5552787934
 21
6.9736342171
  0
LINE
  5
371
100
AcDbEntity
  8
03__ASM_ALL_CURVES
100
AcDbLine
 62
4
  6
CONTINUOUS
 10
8.6852787934
 20
7.0336342154
 11
8.6902787934
 21
7.0403008852
  0
LINE
  5
372
100
AcDbEntity
  8
03__ASM_ALL_CURVES
100
AcDbLine
 62
4
  6
CONTINUOUS
 10
10.4669454597
 20
9.4219675503
 11
10.4802787934
 21
9.4319675503
  0
LINE
  5
373
100
AcDbEntity
  8
03__ASM_ALL_CURVES
100
AcDbLine
 62
4
  6
CONTINUOUS
 10
8.7652787934
 20
8.2636342154
 11
8.7752787934
 21
8.2703008852
  0
LINE
  5
374
100
AcDbEntity
  8
03__ASM_ALL_CURVES
100
AcDbLine
 62
4
  6
CONTINUOUS
 10
8.7152787934
 20
8.2236342171
 11
8.7052787934
 21
8.2169675503
  0
LINE
  5
375
100
AcDbEntity
  8
03__ASM_ALL_CURVES
100
AcDbLine
 62
4
  6
CONTINUOUS
 10
8.7952787934
 20
8.2236342171
 11
8.7852787934
 21
8.2169675503
  0
LINE
  5
376
100
AcDbEntity
  8
03__ASM_ALL_CURVES
100
AcDbLine
 62
4
  6
CONTINUOUS
 10
9.3336121266
 20
9.0369675503
 11
9.3402787934
 21
9.0269675503
  0
LINE
  5
377
100
AcDbEntity
  8
03__ASM_ALL_CURVES
100
AcDbLine
 62
4
  6
CONTINUOUS
 10
9.3859454585
 20
9.0169675503
 11
9.3792787934
 21
9.0269675503
  0
LINE
  5
378
100
AcDbEntity
  8
03__ASM_ALL_CURVES
100
AcDbLine
 62
4
  6
CONTINUOUS
 10
9.4526121266
 20
9.0369675503
 11
9.4592787934
 21
9.0269675503
  0
LINE
  5
379
100
AcDbEntity
  8
03__ASM_ALL_CURVES
100
AcDbLine
 62
4
  6
CONTINUOUS
 10
9.3859454585
 20
9.1769675503
 11
9.3792787934
 21
9.1869675503
  0
LINE
  5
37A
100
AcDbEntity
  8
0
100
AcDbLine
 62
7
  6
CONTINUOUS
 10
10.1122787701
 20
8.5069675503
 11
10.1122787701
 21
6.7569675503
  0
LINE
  5
37B
100
AcDbEntity
  8
03__ASM_ALL_CURVES
100
AcDbLine
 62
4
  6
CONTINUOUS
 10
8.7152787934
 20
6.980300884
 11
8.7102787934
 21
6.9736342171
  0
LINE
  5
37C
100
AcDbEntity
  8
03__ASM_ALL_CURVES
100
AcDbLine
 62
4
  6
CONTINUOUS
 10
8.7652787934
 20
7.0336342154
 11
8.7702787934
 21
7.0403008852
  0
LINE
  5
37D
100
AcDbEntity
  8
03__ASM_ALL_CURVES
100
AcDbLine
 62
4
  6
CONTINUOUS
 10
8.7952787934
 20
6.980300884
 11
8.7902787934
 21
6.9736342171
  0
LINE
  5
37E
100
AcDbEntity
  8
03__ASM_ALL_CURVES
100
AcDbLine
 62
4
  6
CONTINUOUS
 10
8.8652787934
 20
6.980300884
 11
8.8552787934
 21
6.9669675503
  0
LINE
  5
37F
100
AcDbEntity
  8
03__ASM_ALL_CURVES
100
AcDbLine
 62
4
  6
CONTINUOUS
 10
10.4702787931
 20
9.1194675503
 11
10.4802787934
 21
9.1269675503
  0
LINE
  5
380
100
AcDbEntity
  8
03__ASM_ALL_CURVES
100
AcDbLine
 62
4
  6
CONTINUOUS
 10
8.5252787934
 20
8.2569675503
 11
8.5402787934
 21
8.2636342154
  0
LINE
  5
381
100
AcDbEntity
  8
03__ASM_ALL_CURVES
100
AcDbLine
 62
4
  6
CONTINUOUS
 10
12.0076121283
 20
9.6019675503
 11
12.0209454585
 21
9.6069675503
  0
LINE
  5
382
100
AcDbEntity
  8
03__ASM_ALL_CURVES
100
AcDbLine
 62
4
  6
CONTINUOUS
 10
12.0342787934
 20
9.5719675503
 11
12.0209454585
 21
9.5669675503
  0
LINE
  5
383
100
AcDbEntity
  8
03__ASM_ALL_CURVES
100
AcDbLine
 62
4
  6
CONTINUOUS
 10
12.0342787934
 20
9.5219675503
 11
12.047612126
 21
9.5269675503
  0
LINE
  5
384
100
AcDbEntity
  8
03__ASM_ALL_CURVES
100
AcDbLine
 62
4
  6
CONTINUOUS
 10
12.0609454597
 20
9.4919675503
 11
12.047612126
 21
9.4869675503
  0
LINE
  5
385
100
AcDbEntity
  8
0
100
AcDbLine
 62
7
  6
CONTINUOUS
 10
13.1752787934
 20
8.0689675503
 11
12.3632788168
 21
8.0689675503
  0
LINE
  5
386
100
AcDbEntity
  8
0
100
AcDbLine
 62
7
  6
CONTINUOUS
 10
9.3002787934
 20
8.0699675503
 11
10.1122787701
 21
8.0699675503
  0
LINE
  5
387
100
AcDbEntity
  8
03__ASM_ALL_CURVES
100
AcDbLine
 62
4
  6
CONTINUOUS
 10
9.3859454585
 20
9.2519675503
 11
9.3792787934
 21
9.2619675503
  0
LINE
  5
388
100
AcDbEntity
  8
03__ASM_ALL_CURVES
100
AcDbLine
 62
4
  6
CONTINUOUS
 10
9.4526121266
 20
9.1969675503
 11
9.4592787934
 21
9.1869675503
  0
LINE
  5
389
100
AcDbEntity
  8
03__ASM_ALL_CURVES
100
AcDbLine
 62
4
  6
CONTINUOUS
 10
9.4059454585
 20
9.2819675503
 11
9.4126121283
 21
9.2719675503
  0
LINE
  5
38A
100
AcDbEntity
  8
03__ASM_ALL_CURVES
100
AcDbLine
 62
4
  6
CONTINUOUS
 10
9.4526121266
 20
9.2819675503
 11
9.4592787934
 21
9.2719675503
  0
LINE
  5
38B
100
AcDbEntity
  8
03__ASM_ALL_CURVES
100
AcDbLine
 62
4
  6
CONTINUOUS
 10
9.3859454585
 20
9.4969675503
 11
9.3792787934
 21
9.5069675503
  0
LINE
  5
38C
100
AcDbEntity
  8
03__ASM_ALL_CURVES
100
AcDbLine
 62
4
  6
CONTINUOUS
 10
9.4192787934
 20
9.7319675503
 11
9.4126121283
 21
9.7469675503
  0
LINE
  5
38D
100
AcDbEntity
  8
03__ASM_ALL_CURVES
100
AcDbLine
 62
4
  6
CONTINUOUS
 10
10.4002787934
 20
9.8469675503
 11
10.4002787934
 21
9.8169675503
  0
LINE
  5
38E
100
AcDbEntity
  8
03__ASM_ALL_CURVES
100
AcDbLine
 62
4
  6
CONTINUOUS
 10
10.4002787934
 20
9.5019675503
 11
10.4002787934
 21
9.5119675503
  0
LINE
  5
38F
100
AcDbEntity
  8
03__ASM_ALL_CURVES
100
AcDbLine
 62
4
  6
CONTINUOUS
 10
10.4002787934
 20
9.5819675503
 11
10.4002787934
 21
9.5919675503
  0
LINE
  5
390
100
AcDbEntity
  8
03__ASM_ALL_CURVES
100
AcDbLine
 62
4
  6
CONTINUOUS
 10
8.8652787934
 20
6.730300884
 11
8.8552787934
 21
6.7169675503
  0
LINE
  5
391
100
AcDbEntity
  8
03__ASM_ALL_CURVES
100
AcDbLine
 62
4
  6
CONTINUOUS
 10
11.9942787934
 20
9.9019675503
 11
12.0076121283
 21
9.9119675503
  0
LINE
  5
392
100
AcDbEntity
  8
03__ASM_ALL_CURVES
100
AcDbLine
 62
4
  6
CONTINUOUS
 10
13.1486121283
 20
9.8419675503
 11
13.1619454585
 21
9.8469675503
  0
LINE
  5
393
100
AcDbEntity
  8
03__ASM_ALL_CURVES
100
AcDbLine
 62
4
  6
CONTINUOUS
 10
13.1752787934
 20
9.8119675503
 11
13.1619454585
 21
9.8069675503
  0
LINE
  5
394
100
AcDbEntity
  8
03__ASM_ALL_CURVES
100
AcDbLine
 62
4
  6
CONTINUOUS
 10
13.0642787934
 20
9.7669675503
 11
13.077612126
 21
9.7719675503
  0
LINE
  5
395
100
AcDbEntity
  8
03__ASM_ALL_CURVES
100
AcDbLine
 62
4
  6
CONTINUOUS
 10
8.7852787934
 20
8.2169675503
 11
8.7752787934
 21
8.2169675503
  0
LINE
  5
396
100
AcDbEntity
  8
03__ASM_ALL_CURVES
100
AcDbLine
 62
4
  6
CONTINUOUS
 10
8.7052787934
 20
8.2169675503
 11
8.6952787934
 21
8.2169675503
  0
LINE
  5
397
100
AcDbEntity
  8
03__ASM_ALL_CURVES
100
AcDbLine
 62
4
  6
CONTINUOUS
 10
8.6402787934
 20
8.2169675503
 11
8.6327787934
 21
8.2169675503
  0
LINE
  5
398
100
AcDbEntity
  8
03__ASM_ALL_CURVES
100
AcDbLine
 62
4
  6
CONTINUOUS
 10
8.3052787934
 20
8.2169675503
 11
8.2952787934
 21
8.2169675503
  0
LINE
  5
399
100
AcDbEntity
  8
03__ASM_ALL_CURVES
100
AcDbLine
 62
4
  6
CONTINUOUS
 10
8.1602787934
 20
8.2169675503
 11
8.1527787934
 21
8.2169675503
  0
LINE
  5
39A
100
AcDbEntity
  8
03__ASM_ALL_CURVES
100
AcDbLine
 62
4
  6
CONTINUOUS
 10
8.2002787934
 20
8.2169675503
 11
8.2402787934
 21
8.2169675503
  0
LINE
  5
39B
100
AcDbEntity
  8
03__ASM_ALL_CURVES
100
AcDbLine
 62
4
  6
CONTINUOUS
 10
9.2202787934
 20
8.2569675503
 11
8.9802787934
 21
8.2569675503
  0
LINE
  5
39C
100
AcDbEntity
  8
03__ASM_ALL_CURVES
100
AcDbLine
 62
4
  6
CONTINUOUS
 10
8.6952787934
 20
8.2636342154
 11
8.7052787934
 21
8.2636342154
  0
LINE
  5
39D
100
AcDbEntity
  8
03__ASM_ALL_CURVES
100
AcDbLine
 62
4
  6
CONTINUOUS
 10
8.2952787934
 20
8.2703008852
 11
8.3052787934
 21
8.2703008852
  0
LINE
  5
39E
100
AcDbEntity
  8
03__ASM_ALL_CURVES
100
AcDbLine
 62
4
  6
CONTINUOUS
 10
8.7752787934
 20
8.2703008852
 11
8.7852787934
 21
8.2703008852
  0
LINE
  5
39F
100
AcDbEntity
  8
03__ASM_ALL_CURVES
100
AcDbLine
 62
4
  6
CONTINUOUS
 10
8.8002787934
 20
8.2969675503
 11
8.7702787934
 21
8.2969675503
  0
LINE
  5
3A0
100
AcDbEntity
  8
03__ASM_ALL_CURVES
100
AcDbLine
 62
4
  6
CONTINUOUS
 10
8.3202787934
 20
8.2969675503
 11
8.2902787934
 21
8.2969675503
  0
LINE
  5
3A1
100
AcDbEntity
  8
03__ASM_ALL_CURVES
100
AcDbLine
 62
4
  6
CONTINUOUS
 10
8.2152787934
 20
8.2969675503
 11
8.2252787934
 21
8.2969675503
  0
LINE
  5
3A2
100
AcDbEntity
  8
03__ASM_ALL_CURVES
100
AcDbLine
 62
4
  6
CONTINUOUS
 10
8.6952787934
 20
8.2969675503
 11
8.7052787934
 21
8.2969675503
  0
LINE
  5
3A3
100
AcDbEntity
  8
03__ASM_ALL_CURVES
100
AcDbLine
 62
4
  6
CONTINUOUS
 10
9.2736121283
 20
9.0119675503
 11
9.2669454585
 21
9.0169675503
  0
LINE
  5
3A4
100
AcDbEntity
  8
03__ASM_ALL_CURVES
100
AcDbLine
 62
4
  6
CONTINUOUS
 10
9.3269454597
 20
9.0419675503
 11
9.3336121266
 21
9.0369675503
  0
LINE
  5
3A5
100
AcDbEntity
  8
03__ASM_ALL_CURVES
100
AcDbLine
 62
4
  6
CONTINUOUS
 10
9.3926121283
 20
9.0119675503
 11
9.3859454585
 21
9.0169675503
  0
LINE
  5
3A6
100
AcDbEntity
  8
03__ASM_ALL_CURVES
100
AcDbLine
 62
4
  6
CONTINUOUS
 10
9.4459454597
 20
9.0419675503
 11
9.4526121266
 21
9.0369675503
  0
LINE
  5
3A7
100
AcDbEntity
  8
03__ASM_ALL_CURVES
100
AcDbLine
 62
4
  6
CONTINUOUS
 10
9.3926121283
 20
9.1719675503
 11
9.3859454585
 21
9.1769675503
  0
LINE
  5
3A8
100
AcDbEntity
  8
03__ASM_ALL_CURVES
100
AcDbLine
 62
4
  6
CONTINUOUS
 10
9.4526121266
 20
9.5169675503
 11
9.4592787934
 21
9.5069675503
  0
LINE
  5
3A9
100
AcDbEntity
  8
03__ASM_ALL_CURVES
100
AcDbLine
 62
4
  6
CONTINUOUS
 10
9.3859454585
 20
9.7369675503
 11
9.3792787934
 21
9.7469675503
  0
LINE
  5
3AA
100
AcDbEntity
  8
03__ASM_ALL_CURVES
100
AcDbLine
 62
4
  6
CONTINUOUS
 10
9.4526121266
 20
9.7569675503
 11
9.4592787934
 21
9.7469675503
  0
LINE
  5
3AB
100
AcDbEntity
  8
03__ASM_ALL_CURVES
100
AcDbLine
 62
4
  6
CONTINUOUS
 10
10.4269454585
 20
9.8219675503
 11
10.4269454585
 21
9.8319675503
  0
LINE
  5
3AC
100
AcDbEntity
  8
03__ASM_ALL_CURVES
100
AcDbLine
 62
4
  6
CONTINUOUS
 10
10.4336121283
 20
9.5819675503
 11
10.4336121283
 21
9.5919675503
  0
LINE
  5
3AD
100
AcDbEntity
  8
03__ASM_ALL_CURVES
100
AcDbLine
 62
4
  6
CONTINUOUS
 10
10.4402787934
 20
8.5869675503
 11
10.4402787934
 21
8.8269675503
  0
LINE
  5
3AE
100
AcDbEntity
  8
03__ASM_ALL_CURVES
100
AcDbLine
 62
4
  6
CONTINUOUS
 10
10.4602787934
 20
9.2469675503
 11
10.4602787934
 21
9.2919675503
  0
LINE
  5
3AF
100
AcDbEntity
  8
03__ASM_ALL_CURVES
100
AcDbLine
 62
4
  6
CONTINUOUS
 10
10.4802787934
 20
9.8319675503
 11
10.4802787934
 21
9.8219675503
  0
LINE
  5
3B0
100
AcDbEntity
  8
03__ASM_ALL_CURVES
100
AcDbLine
 62
4
  6
CONTINUOUS
 10
10.4802787934
 20
9.6869675503
 11
10.4802787934
 21
9.6794675503
  0
LINE
  5
3B1
100
AcDbEntity
  8
03__ASM_ALL_CURVES
100
AcDbLine
 62
4
  6
CONTINUOUS
 10
10.4802787934
 20
9.5919675503
 11
10.4802787934
 21
9.5819675503
  0
LINE
  5
3B2
100
AcDbEntity
  8
03__ASM_ALL_CURVES
100
AcDbLine
 62
4
  6
CONTINUOUS
 10
10.4802787934
 20
9.1269675503
 11
10.4802787934
 21
9.1194675503
  0
LINE
  5
3B3
100
AcDbEntity
  8
03__ASM_ALL_CURVES
100
AcDbLine
 62
4
  6
CONTINUOUS
 10
10.4802787934
 20
9.4869675503
 11
10.4802787934
 21
9.5269675503
  0
LINE
  5
3B4
100
AcDbEntity
  8
03__ASM_ALL_CURVES
100
AcDbLine
 62
4
  6
CONTINUOUS
 10
12.0009454585
 20
9.7619675503
 11
12.0076121283
 21
9.7669675503
  0
LINE
  5
3B5
100
AcDbEntity
  8
03__ASM_ALL_CURVES
100
AcDbLine
 62
4
  6
CONTINUOUS
 10
12.0342787934
 20
9.7619675503
 11
12.047612126
 21
9.7719675503
  0
LINE
  5
3B6
100
AcDbEntity
  8
03__ASM_ALL_CURVES
100
AcDbLine
 62
4
  6
CONTINUOUS
 10
12.0676121266
 20
9.7319675503
 11
12.0609454597
 21
9.7269675503
  0
LINE
  5
3B7
100
AcDbEntity
  8
03__ASM_ALL_CURVES
100
AcDbLine
 62
4
  6
CONTINUOUS
 10
12.0642787931
 20
9.6794675503
 11
12.0742787934
 21
9.6869675503
  0
LINE
  5
3B8
100
AcDbEntity
  8
03__ASM_ALL_CURVES
100
AcDbLine
 62
4
  6
CONTINUOUS
 10
12.0009454585
 20
9.5969675503
 11
12.0076121283
 21
9.6019675503
  0
LINE
  5
3B9
100
AcDbEntity
  8
03__ASM_ALL_CURVES
100
AcDbLine
 62
4
  6
CONTINUOUS
 10
8.2052787934
 20
7.0136342154
 11
8.2152787934
 21
7.0203008852
  0
LINE
  5
3BA
100
AcDbEntity
  8
03__ASM_ALL_CURVES
100
AcDbLine
 62
4
  6
CONTINUOUS
 10
8.2352787934
 20
6.9736342171
 11
8.2252787934
 21
6.9669675503
  0
LINE
  5
3BB
100
AcDbEntity
  8
03__ASM_ALL_CURVES
100
AcDbLine
 62
4
  6
CONTINUOUS
 10
13.0376121283
 20
9.5219675503
 11
13.0509454585
 21
9.5269675503
  0
LINE
  5
3BC
100
AcDbEntity
  8
03__ASM_ALL_CURVES
100
AcDbLine
 62
4
  6
CONTINUOUS
 10
13.0642787934
 20
9.4919675503
 11
13.0509454585
 21
9.4869675503
  0
LINE
  5
3BD
100
AcDbEntity
  8
03__ASM_ALL_CURVES
100
AcDbLine
 62
4
  6
CONTINUOUS
 10
13.1486121283
 20
9.5219675503
 11
13.1619454585
 21
9.5269675503
  0
LINE
  5
3BE
100
AcDbEntity
  8
03__ASM_ALL_CURVES
100
AcDbLine
 62
4
  6
CONTINUOUS
 10
13.1752787934
 20
9.4919675503
 11
13.1619454585
 21
9.4869675503
  0
LINE
  5
3BF
100
AcDbEntity
  8
0
100
AcDbLine
 62
7
  6
CONTINUOUS
 10
13.1442787934
 20
8.4439675503
 11
12.3632788168
 21
8.4439675503
  0
LINE
  5
3C0
100
AcDbEntity
  8
0
100
AcDbLine
 62
7
  6
CONTINUOUS
 10
9.3312787934
 20
8.4449675503
 11
10.1122787701
 21
8.4449675503
  0
LINE
  5
3C1
100
AcDbEntity
  8
03__ASM_ALL_CURVES
100
AcDbLine
 62
4
  6
CONTINUOUS
 10
9.2202787934
 20
8.5069675503
 11
8.9802787934
 21
8.5069675503
  0
LINE
  5
3C2
100
AcDbEntity
  8
0
100
AcDbLine
 62
7
  6
CONTINUOUS
 10
10.1122787701
 20
8.5069675503
 11
12.3632788168
 21
8.5069675503
  0
LINE
  5
3C3
100
AcDbEntity
  8
03__ASM_ALL_CURVES
100
AcDbLine
 62
4
  6
CONTINUOUS
 10
9.2869454585
 20
9.0069675503
 11
9.2736121283
 21
9.0119675503
  0
LINE
  5
3C4
100
AcDbEntity
  8
03__ASM_ALL_CURVES
100
AcDbLine
 62
4
  6
CONTINUOUS
 10
9.4459454597
 20
9.2019675503
 11
9.4526121266
 21
9.1969675503
  0
LINE
  5
3C5
100
AcDbEntity
  8
03__ASM_ALL_CURVES
100
AcDbLine
 62
4
  6
CONTINUOUS
 10
9.3992787934
 20
9.2869675503
 11
9.4059454585
 21
9.2819675503
  0
LINE
  5
3C6
100
AcDbEntity
  8
03__ASM_ALL_CURVES
100
AcDbLine
 62
4
  6
CONTINUOUS
 10
9.4392787934
 20
9.2919675503
 11
9.4526121266
 21
9.2819675503
  0
LINE
  5
3C7
100
AcDbEntity
  8
03__ASM_ALL_CURVES
100
AcDbLine
 62
4
  6
CONTINUOUS
 10
9.3792787934
 20
9.4319675503
 11
9.3926121283
 21
9.4219675503
  0
LINE
  5
3C8
100
AcDbEntity
  8
03__ASM_ALL_CURVES
100
AcDbLine
 62
4
  6
CONTINUOUS
 10
9.3792787934
 20
10.1419675503
 11
9.3859454585
 21
10.1319675503
  0
LINE
  5
3C9
100
AcDbEntity
  8
03__ASM_ALL_CURVES
100
AcDbLine
 62
4
  6
CONTINUOUS
 10
9.4526121266
 20
10.1619675503
 11
9.4592787934
 21
10.1519675503
  0
LINE
  5
3CA
100
AcDbEntity
  8
03__ASM_ALL_CURVES
100
AcDbLine
 62
4
  6
CONTINUOUS
 10
13.0242787934
 20
10.3019675503
 11
13.0376121283
 21
10.3119675503
  0
LINE
  5
3CB
100
AcDbEntity
  8
03__ASM_ALL_CURVES
100
AcDbLine
 62
4
  6
CONTINUOUS
 10
12.0676121266
 20
9.5769675503
 11
12.0609454597
 21
9.5719675503
  0
LINE
  5
3CC
100
AcDbEntity
  8
03__ASM_ALL_CURVES
100
AcDbLine
 62
4
  6
CONTINUOUS
 10
12.0009454585
 20
9.5169675503
 11
12.0076121283
 21
9.5219675503
  0
LINE
  5
3CD
100
AcDbEntity
  8
03__ASM_ALL_CURVES
100
AcDbLine
 62
4
  6
CONTINUOUS
 10
13.0376121283
 20
10.2469675503
 11
13.0309454585
 21
10.2419675503
  0
LINE
  5
3CE
100
AcDbEntity
  8
03__ASM_ALL_CURVES
100
AcDbLine
 62
4
  6
CONTINUOUS
 10
12.0676121266
 20
9.4969675503
 11
12.0609454597
 21
9.4919675503
  0
LINE
  5
3CF
100
AcDbEntity
  8
03__ASM_ALL_CURVES
100
AcDbLine
 62
4
  6
CONTINUOUS
 10
13.0709454609
 20
10.2419675503
 11
13.077612126
 21
10.2469675503
  0
LINE
  5
3D0
100
AcDbEntity
  8
03__ASM_ALL_CURVES
100
AcDbLine
 62
4
  6
CONTINUOUS
 10
13.0442787934
 20
10.2069675503
 11
13.0509454585
 21
10.2119675503
  0
LINE
  5
3D1
100
AcDbEntity
  8
03__ASM_ALL_CURVES
100
AcDbLine
 62
4
  6
CONTINUOUS
 10
13.0976121266
 20
10.2119675503
 11
13.0842787934
 21
10.2019675503
  0
LINE
  5
3D2
100
AcDbEntity
  8
03__ASM_ALL_CURVES
100
AcDbLine
 62
4
  6
CONTINUOUS
 10
12.0609454597
 20
9.4219675503
 11
12.0742787934
 21
9.4319675503
  0
LINE
  5
3D3
100
AcDbEntity
  8
03__ASM_ALL_CURVES
100
AcDbLine
 62
4
  6
CONTINUOUS
 10
12.0009454585
 20
9.2819675503
 11
12.0076121283
 21
9.2869675503
  0
LINE
  5
3D4
100
AcDbEntity
  8
03__ASM_ALL_CURVES
100
AcDbLine
 62
4
  6
CONTINUOUS
 10
8.4452787934
 20
7.0403008852
 11
8.4552787934
 21
7.0469675503
  0
LINE
  5
3D5
100
AcDbEntity
  8
03__ASM_ALL_CURVES
100
AcDbLine
 62
4
  6
CONTINUOUS
 10
8.4752787934
 20
7.0203008852
 11
8.4652787934
 21
7.0136342154
  0
LINE
  5
3D6
100
AcDbEntity
  8
03__ASM_ALL_CURVES
100
AcDbLine
 62
4
  6
CONTINUOUS
 10
8.5252787934
 20
7.0403008852
 11
8.5352787934
 21
7.0469675503
  0
LINE
  5
3D7
100
AcDbEntity
  8
03__ASM_ALL_CURVES
100
AcDbLine
 62
4
  6
CONTINUOUS
 10
8.4752787934
 20
6.9736342171
 11
8.4652787934
 21
6.9669675503
  0
LINE
  5
3D8
100
AcDbEntity
  8
03__ASM_ALL_CURVES
100
AcDbLine
 62
4
  6
CONTINUOUS
 10
8.5252787934
 20
7.0069675503
 11
8.5352787934
 21
7.0136342154
  0
LINE
  5
3D9
100
AcDbEntity
  8
03__ASM_ALL_CURVES
100
AcDbLine
 62
4
  6
CONTINUOUS
 10
8.5552787934
 20
7.0203008852
 11
8.5452787934
 21
7.0136342154
  0
LINE
  5
3DA
100
AcDbEntity
  8
03__ASM_ALL_CURVES
100
AcDbLine
 62
4
  6
CONTINUOUS
 10
8.2052787934
 20
6.7636342154
 11
8.2152787934
 21
6.7703008852
  0
LINE
  5
3DB
100
AcDbEntity
  8
03__ASM_ALL_CURVES
100
AcDbLine
 62
4
  6
CONTINUOUS
 10
8.5552787934
 20
6.9736342171
 11
8.5452787934
 21
6.9669675503
  0
LINE
  5
3DC
100
AcDbEntity
  8
03__ASM_ALL_CURVES
100
AcDbLine
 62
4
  6
CONTINUOUS
 10
8.6902787934
 20
7.0403008852
 11
8.7002787934
 21
7.0469675503
  0
LINE
  5
3DD
100
AcDbEntity
  8
03__ASM_ALL_CURVES
100
AcDbLine
 62
4
  6
CONTINUOUS
 10
8.2352787934
 20
6.7236342171
 11
8.2252787934
 21
6.7169675503
  0
LINE
  5
3DE
100
AcDbEntity
  8
03__ASM_ALL_CURVES
100
AcDbLine
 62
4
  6
CONTINUOUS
 10
8.7702787934
 20
7.0403008852
 11
8.7802787934
 21
7.0469675503
  0
LINE
  5
3DF
100
AcDbEntity
  8
03__ASM_ALL_CURVES
100
AcDbLine
 62
4
  6
CONTINUOUS
 10
8.7102787934
 20
6.9736342171
 11
8.7002787934
 21
6.9669675503
  0
LINE
  5
3E0
100
AcDbEntity
  8
03__ASM_ALL_CURVES
100
AcDbLine
 62
4
  6
CONTINUOUS
 10
9.4059454585
 20
9.0069675503
 11
9.3926121283
 21
9.0119675503
  0
LINE
  5
3E1
100
AcDbEntity
  8
03__ASM_ALL_CURVES
100
AcDbLine
 62
4
  6
CONTINUOUS
 10
9.313612126
 20
9.0469675503
 11
9.3269454597
 21
9.0419675503
  0
LINE
  5
3E2
100
AcDbEntity
  8
03__ASM_ALL_CURVES
100
AcDbLine
 62
4
  6
CONTINUOUS
 10
9.432612126
 20
9.0469675503
 11
9.4459454597
 21
9.0419675503
  0
LINE
  5
3E3
100
AcDbEntity
  8
03__ASM_ALL_CURVES
100
AcDbLine
 62
4
  6
CONTINUOUS
 10
9.4059454585
 20
9.1669675503
 11
9.3926121283
 21
9.1719675503
  0
LINE
  5
3E4
100
AcDbEntity
  8
03__ASM_ALL_CURVES
100
AcDbLine
 62
4
  6
CONTINUOUS
 10
9.432612126
 20
9.2069675503
 11
9.4459454597
 21
9.2019675503
  0
LINE
  5
3E5
100
AcDbEntity
  8
03__ASM_ALL_CURVES
100
AcDbLine
 62
4
  6
CONTINUOUS
 10
9.3926121283
 20
9.4919675503
 11
9.3859454585
 21
9.4969675503
  0
LINE
  5
3E6
100
AcDbEntity
  8
03__ASM_ALL_CURVES
100
AcDbLine
 62
4
  6
CONTINUOUS
 10
9.4459454597
 20
9.5219675503
 11
9.4526121266
 21
9.5169675503
  0
LINE
  5
3E7
100
AcDbEntity
  8
03__ASM_ALL_CURVES
100
AcDbLine
 62
4
  6
CONTINUOUS
 10
12.0342787934
 20
9.2819675503
 11
12.047612126
 21
9.2919675503
  0
LINE
  5
3E8
100
AcDbEntity
  8
03__ASM_ALL_CURVES
100
AcDbLine
 62
4
  6
CONTINUOUS
 10
13.0909454597
 20
10.0619675503
 11
13.1042787934
 21
10.0719675503
  0
LINE
  5
3E9
100
AcDbEntity
  8
03__ASM_ALL_CURVES
100
AcDbLine
 62
4
  6
CONTINUOUS
 10
12.0676121266
 20
9.2519675503
 11
12.0609454597
 21
9.2469675503
  0
LINE
  5
3EA
100
AcDbEntity
  8
03__ASM_ALL_CURVES
100
AcDbLine
 62
4
  6
CONTINUOUS
 10
13.0242787934
 20
9.9019675503
 11
13.0376121283
 21
9.9119675503
  0
LINE
  5
3EB
100
AcDbEntity
  8
03__ASM_ALL_CURVES
100
AcDbLine
 62
4
  6
CONTINUOUS
 10
12.0642787931
 20
9.1194675503
 11
12.0742787934
 21
9.1269675503
  0
LINE
  5
3EC
100
AcDbEntity
  8
03__ASM_ALL_CURVES
100
AcDbLine
 62
4
  6
CONTINUOUS
 10
13.0309454585
 20
9.8419675503
 11
13.0376121283
 21
9.8469675503
  0
LINE
  5
3ED
100
AcDbEntity
  8
03__ASM_ALL_CURVES
100
AcDbLine
 62
4
  6
CONTINUOUS
 10
13.1352787934
 20
9.9019675503
 11
13.1486121283
 21
9.9119675503
  0
LINE
  5
3EE
100
AcDbEntity
  8
03__ASM_ALL_CURVES
100
AcDbLine
 62
4
  6
CONTINUOUS
 10
13.0642787934
 20
9.8419675503
 11
13.077612126
 21
9.8519675503
  0
LINE
  5
3EF
100
AcDbEntity
  8
03__ASM_ALL_CURVES
100
AcDbLine
 62
4
  6
CONTINUOUS
 10
12.0009454585
 20
9.0419675503
 11
12.0076121283
 21
9.0469675503
  0
LINE
  5
3F0
100
AcDbEntity
  8
03__ASM_ALL_CURVES
100
AcDbLine
 62
4
  6
CONTINUOUS
 10
8.7902787934
 20
6.9736342171
 11
8.7802787934
 21
6.9669675503
  0
LINE
  5
3F1
100
AcDbEntity
  8
03__ASM_ALL_CURVES
100
AcDbLine
 62
4
  6
CONTINUOUS
 10
13.1819454609
 20
9.4169675503
 11
13.2019454597
 21
9.4219675503
  0
LINE
  5
3F2
100
AcDbEntity
  8
03__ASM_ALL_CURVES
100
AcDbLine
 62
4
  6
CONTINUOUS
 10
13.0709454609
 20
9.4169675503
 11
13.0909454597
 21
9.4219675503
  0
LINE
  5
3F3
100
AcDbEntity
  8
03__ASM_ALL_CURVES
100
AcDbLine
 62
4
  6
CONTINUOUS
 10
9.3926121283
 20
9.7319675503
 11
9.3859454585
 21
9.7369675503
  0
LINE
  5
3F4
100
AcDbEntity
  8
03__ASM_ALL_CURVES
100
AcDbLine
 62
4
  6
CONTINUOUS
 10
9.4459454597
 20
9.7619675503
 11
9.4526121266
 21
9.7569675503
  0
LINE
  5
3F5
100
AcDbEntity
  8
03__ASM_ALL_CURVES
100
AcDbLine
 62
4
  6
CONTINUOUS
 10
9.4459454597
 20
9.8319675503
 11
9.4592787934
 21
9.8219675503
  0
LINE
  5
3F6
100
AcDbEntity
  8
03__ASM_ALL_CURVES
100
AcDbLine
 62
4
  6
CONTINUOUS
 10
9.3792787934
 20
9.9919675503
 11
9.3926121283
 21
9.9819675503
  0
LINE
  5
3F7
100
AcDbEntity
  8
03__ASM_ALL_CURVES
100
AcDbLine
 62
4
  6
CONTINUOUS
 10
10.4069454585
 20
9.4919675503
 11
10.4002787934
 21
9.5019675503
  0
LINE
  5
3F8
100
AcDbEntity
  8
03__ASM_ALL_CURVES
100
AcDbLine
 62
4
  6
CONTINUOUS
 10
10.4336121283
 20
9.5219675503
 11
10.4469454609
 21
9.5019675503
  0
LINE
  5
3F9
100
AcDbEntity
  8
03__ASM_ALL_CURVES
100
AcDbLine
 62
4
  6
CONTINUOUS
 10
10.4069454585
 20
9.5719675503
 11
10.4002787934
 21
9.5819675503
  0
LINE
  5
3FA
100
AcDbEntity
  8
03__ASM_ALL_CURVES
100
AcDbLine
 62
4
  6
CONTINUOUS
 10
10.4402787934
 20
9.7619675503
 11
10.4469454609
 21
9.7469675503
  0
LINE
  5
3FB
100
AcDbEntity
  8
03__ASM_ALL_CURVES
100
AcDbLine
 62
4
  6
CONTINUOUS
 10
11.9942787934
 20
9.7519675503
 11
12.0009454585
 21
9.7619675503
  0
LINE
  5
3FC
100
AcDbEntity
  8
03__ASM_ALL_CURVES
100
AcDbLine
 62
4
  6
CONTINUOUS
 10
12.0276121283
 20
9.7519675503
 11
12.0342787934
 21
9.7619675503
  0
LINE
  5
3FD
100
AcDbEntity
  8
03__ASM_ALL_CURVES
100
AcDbLine
 62
4
  6
CONTINUOUS
 10
12.0742787934
 20
9.7419675503
 11
12.0676121266
 21
9.7319675503
  0
LINE
  5
3FE
100
AcDbEntity
  8
03__ASM_ALL_CURVES
100
AcDbLine
 62
4
  6
CONTINUOUS
 10
11.9942787934
 20
9.5869675503
 11
12.0009454585
 21
9.5969675503
  0
LINE
  5
3FF
100
AcDbEntity
  8
03__ASM_ALL_CURVES
100
AcDbLine
 62
4
  6
CONTINUOUS
 10
11.9942787934
 20
9.5069675503
 11
12.0009454585
 21
9.5169675503
  0
LINE
  5
400
100
AcDbEntity
  8
03__ASM_ALL_CURVES
100
AcDbLine
 62
4
  6
CONTINUOUS
 10
12.0742787934
 20
9.5869675503
 11
12.0676121266
 21
9.5769675503
  0
LINE
  5
401
100
AcDbEntity
  8
03__ASM_ALL_CURVES
100
AcDbLine
 62
4
  6
CONTINUOUS
 10
13.0976121266
 20
9.8119675503
 11
13.0909454597
 21
9.8069675503
  0
LINE
  5
402
100
AcDbEntity
  8
03__ASM_ALL_CURVES
100
AcDbLine
 62
4
  6
CONTINUOUS
 10
13.1419454585
 20
9.8369675503
 11
13.1486121283
 21
9.8419675503
  0
LINE
  5
403
100
AcDbEntity
  8
03__ASM_ALL_CURVES
100
AcDbLine
 62
4
  6
CONTINUOUS
 10
13.0576121283
 20
9.7619675503
 11
13.0642787934
 21
9.7669675503
  0
LINE
  5
404
100
AcDbEntity
  8
03__ASM_ALL_CURVES
100
AcDbLine
 62
4
  6
CONTINUOUS
 10
13.2086121266
 20
9.8169675503
 11
13.2019454597
 21
9.8119675503
  0
LINE
  5
405
100
AcDbEntity
  8
03__ASM_ALL_CURVES
100
AcDbLine
 62
4
  6
CONTINUOUS
 10
13.0976121266
 20
9.7319675503
 11
13.0909454597
 21
9.7269675503
  0
LINE
  5
406
100
AcDbEntity
  8
03__ASM_ALL_CURVES
100
AcDbLine
 62
4
  6
CONTINUOUS
 10
13.1419454585
 20
9.7619675503
 11
13.1486121283
 21
9.7669675503
  0
LINE
  5
407
100
AcDbEntity
  8
03__ASM_ALL_CURVES
100
AcDbLine
 62
4
  6
CONTINUOUS
 10
13.0942787931
 20
9.6794675503
 11
13.1042787934
 21
9.6869675503
  0
LINE
  5
408
100
AcDbEntity
  8
03__ASM_ALL_CURVES
100
AcDbLine
 62
4
  6
CONTINUOUS
 10
13.2052787931
 20
9.6794675503
 11
13.2152787934
 21
9.6869675503
  0
LINE
  5
409
100
AcDbEntity
  8
03__ASM_ALL_CURVES
100
AcDbLine
 62
4
  6
CONTINUOUS
 10
13.1419454585
 20
9.6019675503
 11
13.1486121283
 21
9.6069675503
  0
LINE
  5
40A
100
AcDbEntity
  8
03__ASM_ALL_CURVES
100
AcDbLine
 62
4
  6
CONTINUOUS
 10
13.0309454585
 20
9.5169675503
 11
13.0376121283
 21
9.5219675503
  0
LINE
  5
40B
100
AcDbEntity
  8
03__ASM_ALL_CURVES
100
AcDbLine
 62
4
  6
CONTINUOUS
 10
8.7952787934
 20
7.0069675503
 11
8.7802787934
 21
7.0003008828
  0
LINE
  5
40C
100
AcDbEntity
  8
03__ASM_ALL_CURVES
100
AcDbLine
 62
4
  6
CONTINUOUS
 10
12.0409454609
 20
9.4169675503
 11
12.0609454597
 21
9.4219675503
  0
LINE
  5
40D
100
AcDbEntity
  8
03__ASM_ALL_CURVES
100
AcDbLine
 62
4
  6
CONTINUOUS
 10
9.432612126
 20
9.0069675503
 11
9.4059454585
 21
9.0069675503
  0
LINE
  5
40E
100
AcDbEntity
  8
03__ASM_ALL_CURVES
100
AcDbLine
 62
4
  6
CONTINUOUS
 10
9.313612126
 20
9.0069675503
 11
9.2869454585
 21
9.0069675503
  0
LINE
  5
40F
100
AcDbEntity
  8
03__ASM_ALL_CURVES
100
AcDbLine
 62
4
  6
CONTINUOUS
 10
10.4002787934
 20
9.0269675503
 11
10.4802787934
 21
9.0269675503
  0
LINE
  5
410
100
AcDbEntity
  8
03__ASM_ALL_CURVES
100
AcDbLine
 62
4
  6
CONTINUOUS
 10
9.2869454585
 20
9.0469675503
 11
9.313612126
 21
9.0469675503
  0
LINE
  5
411
100
AcDbEntity
  8
03__ASM_ALL_CURVES
100
AcDbLine
 62
4
  6
CONTINUOUS
 10
9.4059454585
 20
9.0469675503
 11
9.432612126
 21
9.0469675503
  0
LINE
  5
412
100
AcDbEntity
  8
03__ASM_ALL_CURVES
100
AcDbLine
 62
4
  6
CONTINUOUS
 10
12.0076121283
 20
9.0469675503
 11
12.0209454585
 21
9.0469675503
  0
LINE
  5
413
100
AcDbEntity
  8
03__ASM_ALL_CURVES
100
AcDbLine
 62
4
  6
CONTINUOUS
 10
13.0376121283
 20
9.0469675503
 11
13.0442787934
 21
9.0469675503
  0
LINE
  5
414
100
AcDbEntity
  8
03__ASM_ALL_CURVES
100
AcDbLine
 62
4
  6
CONTINUOUS
 10
13.1486121283
 20
9.0469675503
 11
13.1552787934
 21
9.0469675503
  0
LINE
  5
415
100
AcDbEntity
  8
03__ASM_ALL_CURVES
100
AcDbLine
 62
4
  6
CONTINUOUS
 10
13.077612126
 20
9.0519675503
 11
13.0842787934
 21
9.0519675503
  0
LINE
  5
416
100
AcDbEntity
  8
03__ASM_ALL_CURVES
100
AcDbLine
 62
4
  6
CONTINUOUS
 10
13.188612126
 20
9.0519675503
 11
13.1952787934
 21
9.0519675503
  0
LINE
  5
417
100
AcDbEntity
  8
03__ASM_ALL_CURVES
100
AcDbLine
 62
4
  6
CONTINUOUS
 10
13.2152787934
 20
9.1194675503
 11
13.2052787931
 21
9.1194675503
  0
LINE
  5
418
100
AcDbEntity
  8
03__ASM_ALL_CURVES
100
AcDbLine
 62
4
  6
CONTINUOUS
 10
13.1042787934
 20
9.1194675503
 11
13.0942787931
 21
9.1194675503
  0
LINE
  5
419
100
AcDbEntity
  8
03__ASM_ALL_CURVES
100
AcDbLine
 62
4
  6
CONTINUOUS
 10
12.0742787934
 20
9.1194675503
 11
12.0642787931
 21
9.1194675503
  0
LINE
  5
41A
100
AcDbEntity
  8
03__ASM_ALL_CURVES
100
AcDbLine
 62
4
  6
CONTINUOUS
 10
10.4802787934
 20
9.1194675503
 11
10.4702787931
 21
9.1194675503
  0
LINE
  5
41B
100
AcDbEntity
  8
03__ASM_ALL_CURVES
100
AcDbLine
 62
4
  6
CONTINUOUS
 10
9.4592787934
 20
9.1194675503
 11
9.4492787931
 21
9.1194675503
  0
LINE
  5
41C
100
AcDbEntity
  8
03__ASM_ALL_CURVES
100
AcDbLine
 62
4
  6
CONTINUOUS
 10
13.1952787934
 20
9.1619675503
 11
13.188612126
 21
9.1619675503
  0
LINE
  5
41D
100
AcDbEntity
  8
03__ASM_ALL_CURVES
100
AcDbLine
 62
4
  6
CONTINUOUS
 10
13.0842787934
 20
9.1619675503
 11
13.077612126
 21
9.1619675503
  0
LINE
  5
41E
100
AcDbEntity
  8
03__ASM_ALL_CURVES
100
AcDbLine
 62
4
  6
CONTINUOUS
 10
13.1552787934
 20
9.1669675503
 11
13.1486121283
 21
9.1669675503
  0
LINE
  5
41F
100
AcDbEntity
  8
03__ASM_ALL_CURVES
100
AcDbLine
 62
4
  6
CONTINUOUS
 10
13.0442787934
 20
9.1669675503
 11
13.0376121283
 21
9.1669675503
  0
LINE
  5
420
100
AcDbEntity
  8
03__ASM_ALL_CURVES
100
AcDbLine
 62
4
  6
CONTINUOUS
 10
9.432612126
 20
9.1669675503
 11
9.4059454585
 21
9.1669675503
  0
LINE
  5
421
100
AcDbEntity
  8
03__ASM_ALL_CURVES
100
AcDbLine
 62
4
  6
CONTINUOUS
 10
9.3926121283
 20
9.4219675503
 11
9.4126121283
 21
9.4169675503
  0
LINE
  5
422
100
AcDbEntity
  8
03__ASM_ALL_CURVES
100
AcDbLine
 62
4
  6
CONTINUOUS
 10
9.4059454585
 20
9.4869675503
 11
9.3926121283
 21
9.4919675503
  0
LINE
  5
423
100
AcDbEntity
  8
03__ASM_ALL_CURVES
100
AcDbLine
 62
4
  6
CONTINUOUS
 10
9.432612126
 20
9.5269675503
 11
9.4459454597
 21
9.5219675503
  0
LINE
  5
424
100
AcDbEntity
  8
03__ASM_ALL_CURVES
100
AcDbLine
 62
4
  6
CONTINUOUS
 10
10.4002787934
 20
9.2819675503
 11
10.4602787934
 21
9.2469675503
  0
LINE
  5
425
100
AcDbEntity
  8
03__ASM_ALL_CURVES
100
AcDbLine
 62
4
  6
CONTINUOUS
 10
9.3859454585
 20
10.1319675503
 11
9.3926121283
 21
10.1269675503
  0
LINE
  5
426
100
AcDbEntity
  8
03__ASM_ALL_CURVES
100
AcDbLine
 62
4
  6
CONTINUOUS
 10
10.4002787934
 20
9.4319675503
 11
10.4136121283
 21
9.4219675503
  0
LINE
  5
427
100
AcDbEntity
  8
03__ASM_ALL_CURVES
100
AcDbLine
 62
4
  6
CONTINUOUS
 10
9.4459454597
 20
10.1669675503
 11
9.4526121266
 21
10.1619675503
  0
LINE
  5
428
100
AcDbEntity
  8
03__ASM_ALL_CURVES
100
AcDbLine
 62
4
  6
CONTINUOUS
 10
10.4402787934
 20
9.5719675503
 11
10.4336121283
 21
9.5819675503
  0
LINE
  5
429
100
AcDbEntity
  8
03__ASM_ALL_CURVES
100
AcDbLine
 62
4
  6
CONTINUOUS
 10
10.4269454585
 20
9.6019675503
 11
10.4336121283
 21
9.5919675503
  0
LINE
  5
42A
100
AcDbEntity
  8
03__ASM_ALL_CURVES
100
AcDbLine
 62
4
  6
CONTINUOUS
 10
10.4736121266
 20
9.6019675503
 11
10.4802787934
 21
9.5919675503
  0
LINE
  5
42B
100
AcDbEntity
  8
03__ASM_ALL_CURVES
100
AcDbLine
 62
4
  6
CONTINUOUS
 10
10.4069454585
 20
9.7369675503
 11
10.4002787934
 21
9.7469675503
  0
LINE
  5
42C
100
AcDbEntity
  8
03__ASM_ALL_CURVES
100
AcDbLine
 62
4
  6
CONTINUOUS
 10
10.4336121283
 20
9.8119675503
 11
10.4269454585
 21
9.8219675503
  0
LINE
  5
42D
100
AcDbEntity
  8
03__ASM_ALL_CURVES
100
AcDbLine
 62
4
  6
CONTINUOUS
 10
10.4736121266
 20
9.7569675503
 11
10.4802787934
 21
9.7469675503
  0
LINE
  5
42E
100
AcDbEntity
  8
03__ASM_ALL_CURVES
100
AcDbLine
 62
4
  6
CONTINUOUS
 10
10.4736121266
 20
9.8419675503
 11
10.4802787934
 21
9.8319675503
  0
LINE
  5
42F
100
AcDbEntity
  8
03__ASM_ALL_CURVES
100
AcDbLine
 62
4
  6
CONTINUOUS
 10
12.0742787934
 20
9.5069675503
 11
12.0676121266
 21
9.4969675503
  0
LINE
  5
430
100
AcDbEntity
  8
03__ASM_ALL_CURVES
100
AcDbLine
 62
4
  6
CONTINUOUS
 10
11.9942787934
 20
9.2719675503
 11
12.0009454585
 21
9.2819675503
  0
LINE
  5
431
100
AcDbEntity
  8
03__ASM_ALL_CURVES
100
AcDbLine
 62
4
  6
CONTINUOUS
 10
12.0276121283
 20
9.2719675503
 11
12.0342787934
 21
9.2819675503
  0
LINE
  5
432
100
AcDbEntity
  8
03__ASM_ALL_CURVES
100
AcDbLine
 62
4
  6
CONTINUOUS
 10
12.0742787934
 20
9.2619675503
 11
12.0676121266
 21
9.2519675503
  0
LINE
  5
433
100
AcDbEntity
  8
03__ASM_ALL_CURVES
100
AcDbLine
 62
4
  6
CONTINUOUS
 10
13.1752787934
 20
9.6019675503
 11
13.188612126
 21
9.6119675503
  0
LINE
  5
434
100
AcDbEntity
  8
03__ASM_ALL_CURVES
100
AcDbLine
 62
4
  6
CONTINUOUS
 10
13.1619454585
 20
9.5719675503
 11
13.1552787934
 21
9.5669675503
  0
LINE
  5
435
100
AcDbEntity
  8
03__ASM_ALL_CURVES
100
AcDbLine
 62
4
  6
CONTINUOUS
 10
13.0976121266
 20
9.4969675503
 11
13.0909454597
 21
9.4919675503
  0
LINE
  5
436
100
AcDbEntity
  8
03__ASM_ALL_CURVES
100
AcDbLine
 62
4
  6
CONTINUOUS
 10
13.2086121266
 20
9.5719675503
 11
13.1952787934
 21
9.5619675503
  0
LINE
  5
437
100
AcDbEntity
  8
03__ASM_ALL_CURVES
100
AcDbLine
 62
4
  6
CONTINUOUS
 10
13.1419454585
 20
9.5169675503
 11
13.1486121283
 21
9.5219675503
  0
LINE
  5
438
100
AcDbEntity
  8
03__ASM_ALL_CURVES
100
AcDbLine
 62
4
  6
CONTINUOUS
 10
13.0909454597
 20
9.4219675503
 11
13.1042787934
 21
9.4319675503
  0
LINE
  5
439
100
AcDbEntity
  8
03__ASM_ALL_CURVES
100
AcDbLine
 62
4
  6
CONTINUOUS
 10
13.2086121266
 20
9.4969675503
 11
13.2019454597
 21
9.4919675503
  0
LINE
  5
43A
100
AcDbEntity
  8
03__ASM_ALL_CURVES
100
AcDbLine
 62
4
  6
CONTINUOUS
 10
13.2019454597
 20
9.4219675503
 11
13.2152787934
 21
9.4319675503
  0
LINE
  5
43B
100
AcDbEntity
  8
03__ASM_ALL_CURVES
100
AcDbLine
 62
4
  6
CONTINUOUS
 10
13.1486121283
 20
9.9119675503
 11
13.1686121283
 21
9.9169675503
  0
LINE
  5
43C
100
AcDbEntity
  8
03__ASM_ALL_CURVES
100
AcDbLine
 62
4
  6
CONTINUOUS
 10
13.0376121283
 20
9.9119675503
 11
13.0576121283
 21
9.9169675503
  0
LINE
  5
43D
100
AcDbEntity
  8
03__ASM_ALL_CURVES
100
AcDbLine
 62
4
  6
CONTINUOUS
 10
10.4002787934
 20
9.1869675503
 11
10.4802787934
 21
9.1869675503
  0
LINE
  5
43E
100
AcDbEntity
  8
03__ASM_ALL_CURVES
100
AcDbLine
 62
4
  6
CONTINUOUS
 10
9.4059454585
 20
9.2069675503
 11
9.432612126
 21
9.2069675503
  0
LINE
  5
43F
100
AcDbEntity
  8
03__ASM_ALL_CURVES
100
AcDbLine
 62
4
  6
CONTINUOUS
 10
13.0376121283
 20
9.2069675503
 11
13.0442787934
 21
9.2069675503
  0
LINE
  5
440
100
AcDbEntity
  8
03__ASM_ALL_CURVES
100
AcDbLine
 62
4
  6
CONTINUOUS
 10
13.1486121283
 20
9.2069675503
 11
13.1552787934
 21
9.2069675503
  0
LINE
  5
441
100
AcDbEntity
  8
03__ASM_ALL_CURVES
100
AcDbLine
 62
4
  6
CONTINUOUS
 10
13.077612126
 20
9.2119675503
 11
13.0842787934
 21
9.2119675503
  0
LINE
  5
442
100
AcDbEntity
  8
03__ASM_ALL_CURVES
100
AcDbLine
 62
4
  6
CONTINUOUS
 10
13.188612126
 20
9.2119675503
 11
13.1952787934
 21
9.2119675503
  0
LINE
  5
443
100
AcDbEntity
  8
03__ASM_ALL_CURVES
100
AcDbLine
 62
4
  6
CONTINUOUS
 10
13.1042787934
 20
9.2819675503
 11
13.0242787934
 21
9.2819675503
  0
LINE
  5
444
100
AcDbEntity
  8
03__ASM_ALL_CURVES
100
AcDbLine
 62
4
  6
CONTINUOUS
 10
10.4802787934
 20
9.2819675503
 11
10.4002787934
 21
9.2819675503
  0
LINE
  5
445
100
AcDbEntity
  8
03__ASM_ALL_CURVES
100
AcDbLine
 62
4
  6
CONTINUOUS
 10
9.3926121283
 20
9.2869675503
 11
9.3992787934
 21
9.2869675503
  0
LINE
  5
446
100
AcDbEntity
  8
03__ASM_ALL_CURVES
100
AcDbLine
 62
4
  6
CONTINUOUS
 10
12.0076121283
 20
9.2869675503
 11
12.0142787934
 21
9.2869675503
  0
LINE
  5
447
100
AcDbEntity
  8
03__ASM_ALL_CURVES
100
AcDbLine
 62
4
  6
CONTINUOUS
 10
9.432612126
 20
9.2919675503
 11
9.4392787934
 21
9.2919675503
  0
LINE
  5
448
100
AcDbEntity
  8
03__ASM_ALL_CURVES
100
AcDbLine
 62
4
  6
CONTINUOUS
 10
12.047612126
 20
9.2919675503
 11
12.0542787934
 21
9.2919675503
  0
LINE
  5
449
100
AcDbEntity
  8
03__ASM_ALL_CURVES
100
AcDbLine
 62
4
  6
CONTINUOUS
 10
10.4136121283
 20
9.4219675503
 11
10.4336121283
 21
9.4169675503
  0
LINE
  5
44A
100
AcDbEntity
  8
03__ASM_ALL_CURVES
100
AcDbLine
 62
4
  6
CONTINUOUS
 10
12.0542787934
 20
9.0119675503
 11
12.0742787934
 21
9.0069675503
  0
LINE
  5
44B
100
AcDbEntity
  8
03__ASM_ALL_CURVES
100
AcDbLine
 62
4
  6
CONTINUOUS
 10
9.4259454609
 20
9.6719675503
 11
9.4059454585
 21
9.6769675503
  0
LINE
  5
44C
100
AcDbEntity
  8
03__ASM_ALL_CURVES
100
AcDbLine
 62
4
  6
CONTINUOUS
 10
9.4059454585
 20
9.6769675503
 11
9.3792787934
 21
9.6869675503
  0
LINE
  5
44D
100
AcDbEntity
  8
03__ASM_ALL_CURVES
100
AcDbLine
 62
4
  6
CONTINUOUS
 10
9.4059454585
 20
9.7269675503
 11
9.3926121283
 21
9.7319675503
  0
LINE
  5
44E
100
AcDbEntity
  8
03__ASM_ALL_CURVES
100
AcDbLine
 62
4
  6
CONTINUOUS
 10
9.432612126
 20
9.7269675503
 11
9.4192787934
 21
9.7319675503
  0
LINE
  5
44F
100
AcDbEntity
  8
03__ASM_ALL_CURVES
100
AcDbLine
 62
4
  6
CONTINUOUS
 10
9.432612126
 20
9.7669675503
 11
9.4459454597
 21
9.7619675503
  0
LINE
  5
450
100
AcDbEntity
  8
03__ASM_ALL_CURVES
100
AcDbLine
 62
4
  6
CONTINUOUS
 10
10.4136121283
 20
9.4869675503
 11
10.4069454585
 21
9.4919675503
  0
LINE
  5
451
100
AcDbEntity
  8
03__ASM_ALL_CURVES
100
AcDbLine
 62
4
  6
CONTINUOUS
 10
9.4459454597
 20
10.2319675503
 11
9.4592787934
 21
10.2219675503
  0
LINE
  5
452
100
AcDbEntity
  8
03__ASM_ALL_CURVES
100
AcDbLine
 62
4
  6
CONTINUOUS
 10
10.4469454609
 20
9.5019675503
 11
10.4602787934
 21
9.4919675503
  0
LINE
  5
453
100
AcDbEntity
  8
03__ASM_ALL_CURVES
100
AcDbLine
 62
4
  6
CONTINUOUS
 10
10.4269454585
 20
9.5269675503
 11
10.4336121283
 21
9.5219675503
  0
LINE
  5
454
100
AcDbEntity
  8
03__ASM_ALL_CURVES
100
AcDbLine
 62
4
  6
CONTINUOUS
 10
10.4136121283
 20
9.5669675503
 11
10.4069454585
 21
9.5719675503
  0
LINE
  5
455
100
AcDbEntity
  8
03__ASM_ALL_CURVES
100
AcDbLine
 62
4
  6
CONTINUOUS
 10
10.453612126
 20
9.5619675503
 11
10.4402787934
 21
9.5719675503
  0
LINE
  5
456
100
AcDbEntity
  8
03__ASM_ALL_CURVES
100
AcDbLine
 62
4
  6
CONTINUOUS
 10
10.4202787934
 20
9.6069675503
 11
10.4269454585
 21
9.6019675503
  0
LINE
  5
457
100
AcDbEntity
  8
03__ASM_ALL_CURVES
100
AcDbLine
 62
4
  6
CONTINUOUS
 10
10.4602787934
 20
9.6119675503
 11
10.4736121266
 21
9.6019675503
  0
LINE
  5
458
100
AcDbEntity
  8
03__ASM_ALL_CURVES
100
AcDbLine
 62
4
  6
CONTINUOUS
 10
10.4136121283
 20
9.7319675503
 11
10.4069454585
 21
9.7369675503
  0
LINE
  5
459
100
AcDbEntity
  8
03__ASM_ALL_CURVES
100
AcDbLine
 62
4
  6
CONTINUOUS
 10
12.0409454609
 20
9.5869675503
 11
12.0342787934
 21
9.5719675503
  0
LINE
  5
45A
100
AcDbEntity
  8
03__ASM_ALL_CURVES
100
AcDbLine
 62
4
  6
CONTINUOUS
 10
12.0276121283
 20
9.5069675503
 11
12.0342787934
 21
9.5219675503
  0
LINE
  5
45B
100
AcDbEntity
  8
03__ASM_ALL_CURVES
100
AcDbLine
 62
4
  6
CONTINUOUS
 10
11.9942787934
 20
9.0319675503
 11
12.0009454585
 21
9.0419675503
  0
LINE
  5
45C
100
AcDbEntity
  8
03__ASM_ALL_CURVES
100
AcDbLine
 62
4
  6
CONTINUOUS
 10
13.0309454585
 20
10.2419675503
 11
13.0242787934
 21
10.2319675503
  0
LINE
  5
45D
100
AcDbEntity
  8
03__ASM_ALL_CURVES
100
AcDbLine
 62
4
  6
CONTINUOUS
 10
13.0309454585
 20
9.2019675503
 11
13.0376121283
 21
9.2069675503
  0
LINE
  5
45E
100
AcDbEntity
  8
03__ASM_ALL_CURVES
100
AcDbLine
 62
4
  6
CONTINUOUS
 10
13.0642787934
 20
9.2019675503
 11
13.077612126
 21
9.2119675503
  0
LINE
  5
45F
100
AcDbEntity
  8
03__ASM_ALL_CURVES
100
AcDbLine
 62
4
  6
CONTINUOUS
 10
13.0509454585
 20
9.1719675503
 11
13.0442787934
 21
9.1669675503
  0
LINE
  5
460
100
AcDbEntity
  8
03__ASM_ALL_CURVES
100
AcDbLine
 62
4
  6
CONTINUOUS
 10
13.0976121266
 20
9.1719675503
 11
13.0842787934
 21
9.1619675503
  0
LINE
  5
461
100
AcDbEntity
  8
03__ASM_ALL_CURVES
100
AcDbLine
 62
4
  6
CONTINUOUS
 10
13.1419454585
 20
9.2019675503
 11
13.1486121283
 21
9.2069675503
  0
LINE
  5
462
100
AcDbEntity
  8
03__ASM_ALL_CURVES
100
AcDbLine
 62
4
  6
CONTINUOUS
 10
13.1752787934
 20
9.2019675503
 11
13.188612126
 21
9.2119675503
  0
LINE
  5
463
100
AcDbEntity
  8
03__ASM_ALL_CURVES
100
AcDbLine
 62
4
  6
CONTINUOUS
 10
13.1619454585
 20
9.1719675503
 11
13.1552787934
 21
9.1669675503
  0
LINE
  5
464
100
AcDbEntity
  8
03__ASM_ALL_CURVES
100
AcDbLine
 62
4
  6
CONTINUOUS
 10
13.0942787931
 20
9.1194675503
 11
13.1042787934
 21
9.1269675503
  0
LINE
  5
465
100
AcDbEntity
  8
03__ASM_ALL_CURVES
100
AcDbLine
 62
4
  6
CONTINUOUS
 10
13.0309454585
 20
9.0419675503
 11
13.0376121283
 21
9.0469675503
  0
LINE
  5
466
100
AcDbEntity
  8
03__ASM_ALL_CURVES
100
AcDbLine
 62
4
  6
CONTINUOUS
 10
13.2086121266
 20
9.1719675503
 11
13.1952787934
 21
9.1619675503
  0
LINE
  5
467
100
AcDbEntity
  8
03__ASM_ALL_CURVES
100
AcDbLine
 62
4
  6
CONTINUOUS
 10
13.0642787934
 20
9.0419675503
 11
13.077612126
 21
9.0519675503
  0
LINE
  5
468
100
AcDbEntity
  8
03__ASM_ALL_CURVES
100
AcDbLine
 62
4
  6
CONTINUOUS
 10
13.2052787931
 20
9.1194675503
 11
13.2152787934
 21
9.1269675503
  0
LINE
  5
469
100
AcDbEntity
  8
03__ASM_ALL_CURVES
100
AcDbLine
 62
4
  6
CONTINUOUS
 10
13.0709454609
 20
10.0569675503
 11
13.0909454597
 21
10.0619675503
  0
LINE
  5
46A
100
AcDbEntity
  8
03__ASM_ALL_CURVES
100
AcDbLine
 62
4
  6
CONTINUOUS
 10
10.4469454609
 20
9.4169675503
 11
10.4669454597
 21
9.4219675503
  0
LINE
  5
46B
100
AcDbEntity
  8
03__ASM_ALL_CURVES
100
AcDbLine
 62
4
  6
CONTINUOUS
 10
12.0076121283
 20
9.9119675503
 11
12.0276121283
 21
9.9169675503
  0
LINE
  5
46C
100
AcDbEntity
  8
03__ASM_ALL_CURVES
100
AcDbLine
 62
4
  6
CONTINUOUS
 10
9.4126121283
 20
9.4169675503
 11
9.4259454609
 21
9.4169675503
  0
LINE
  5
46D
100
AcDbEntity
  8
03__ASM_ALL_CURVES
100
AcDbLine
 62
4
  6
CONTINUOUS
 10
10.4336121283
 20
9.4169675503
 11
10.4469454609
 21
9.4169675503
  0
LINE
  5
46E
100
AcDbEntity
  8
03__ASM_ALL_CURVES
100
AcDbLine
 62
4
  6
CONTINUOUS
 10
12.0276121283
 20
9.4169675503
 11
12.0409454609
 21
9.4169675503
  0
LINE
  5
46F
100
AcDbEntity
  8
03__ASM_ALL_CURVES
100
AcDbLine
 62
4
  6
CONTINUOUS
 10
13.0576121283
 20
9.4169675503
 11
13.0709454609
 21
9.4169675503
  0
LINE
  5
470
100
AcDbEntity
  8
03__ASM_ALL_CURVES
100
AcDbLine
 62
4
  6
CONTINUOUS
 10
13.1686121283
 20
9.4169675503
 11
13.1819454609
 21
9.4169675503
  0
LINE
  5
471
100
AcDbEntity
  8
03__ASM_ALL_CURVES
100
AcDbLine
 62
4
  6
CONTINUOUS
 10
12.047612126
 20
9.4869675503
 11
12.0209454585
 21
9.4869675503
  0
LINE
  5
472
100
AcDbEntity
  8
03__ASM_ALL_CURVES
100
AcDbLine
 62
4
  6
CONTINUOUS
 10
9.432612126
 20
9.4869675503
 11
9.4059454585
 21
9.4869675503
  0
LINE
  5
473
100
AcDbEntity
  8
03__ASM_ALL_CURVES
100
AcDbLine
 62
4
  6
CONTINUOUS
 10
9.4059454585
 20
9.5269675503
 11
9.432612126
 21
9.5269675503
  0
LINE
  5
474
100
AcDbEntity
  8
03__ASM_ALL_CURVES
100
AcDbLine
 62
4
  6
CONTINUOUS
 10
10.4136121283
 20
9.5269675503
 11
10.4269454585
 21
9.5269675503
  0
LINE
  5
475
100
AcDbEntity
  8
03__ASM_ALL_CURVES
100
AcDbLine
 62
4
  6
CONTINUOUS
 10
13.0509454585
 20
9.5269675503
 11
13.077612126
 21
9.5269675503
  0
LINE
  5
476
100
AcDbEntity
  8
03__ASM_ALL_CURVES
100
AcDbLine
 62
4
  6
CONTINUOUS
 10
13.1619454585
 20
9.5269675503
 11
13.188612126
 21
9.5269675503
  0
LINE
  5
477
100
AcDbEntity
  8
03__ASM_ALL_CURVES
100
AcDbLine
 62
4
  6
CONTINUOUS
 10
13.1952787934
 20
9.5619675503
 11
13.188612126
 21
9.5619675503
  0
LINE
  5
478
100
AcDbEntity
  8
03__ASM_ALL_CURVES
100
AcDbLine
 62
4
  6
CONTINUOUS
 10
10.4602787934
 20
9.5619675503
 11
10.453612126
 21
9.5619675503
  0
LINE
  5
479
100
AcDbEntity
  8
03__ASM_ALL_CURVES
100
AcDbLine
 62
4
  6
CONTINUOUS
 10
13.1552787934
 20
9.5669675503
 11
13.1486121283
 21
9.5669675503
  0
LINE
  5
47A
100
AcDbEntity
  8
03__ASM_ALL_CURVES
100
AcDbLine
 62
4
  6
CONTINUOUS
 10
10.4202787934
 20
9.5669675503
 11
10.4136121283
 21
9.5669675503
  0
LINE
  5
47B
100
AcDbEntity
  8
03__ASM_ALL_CURVES
100
AcDbLine
 62
4
  6
CONTINUOUS
 10
9.4592787934
 20
9.5994675503
 11
9.4492787931
 21
9.5994675503
  0
LINE
  5
47C
100
AcDbEntity
  8
03__ASM_ALL_CURVES
100
AcDbLine
 62
4
  6
CONTINUOUS
 10
12.0742787934
 20
9.1869675503
 11
12.0409454609
 21
9.1919675503
  0
LINE
  5
47D
100
AcDbEntity
  8
03__ASM_ALL_CURVES
100
AcDbLine
 62
4
  6
CONTINUOUS
 10
9.4592787934
 20
9.6669675503
 11
9.4259454609
 21
9.6719675503
  0
LINE
  5
47E
100
AcDbEntity
  8
03__ASM_ALL_CURVES
100
AcDbLine
 62
4
  6
CONTINUOUS
 10
10.4602787934
 20
9.4919675503
 11
10.4802787934
 21
9.4869675503
  0
LINE
  5
47F
100
AcDbEntity
  8
03__ASM_ALL_CURVES
100
AcDbLine
 62
4
  6
CONTINUOUS
 10
9.4259454609
 20
9.8369675503
 11
9.4459454597
 21
9.8319675503
  0
LINE
  5
480
100
AcDbEntity
  8
03__ASM_ALL_CURVES
100
AcDbLine
 62
4
  6
CONTINUOUS
 10
12.0409454609
 20
9.1919675503
 11
12.0209454585
 21
9.1969675503
  0
LINE
  5
481
100
AcDbEntity
  8
03__ASM_ALL_CURVES
100
AcDbLine
 62
4
  6
CONTINUOUS
 10
10.4269454585
 20
9.7269675503
 11
10.4136121283
 21
9.7319675503
  0
LINE
  5
482
100
AcDbEntity
  8
03__ASM_ALL_CURVES
100
AcDbLine
 62
4
  6
CONTINUOUS
 10
10.4669454597
 20
9.7619675503
 11
10.4736121266
 21
9.7569675503
  0
LINE
  5
483
100
AcDbEntity
  8
03__ASM_ALL_CURVES
100
AcDbLine
 62
4
  6
CONTINUOUS
 10
10.4669454597
 20
9.8469675503
 11
10.4736121266
 21
9.8419675503
  0
LINE
  5
484
100
AcDbEntity
  8
03__ASM_ALL_CURVES
100
AcDbLine
 62
4
  6
CONTINUOUS
 10
10.4669454597
 20
9.9119675503
 11
10.4802787934
 21
9.9019675503
  0
LINE
  5
485
100
AcDbEntity
  8
03__ASM_ALL_CURVES
100
AcDbLine
 62
4
  6
CONTINUOUS
 10
13.0509454585
 20
10.2119675503
 11
13.0709454609
 21
10.2419675503
  0
LINE
  5
486
100
AcDbEntity
  8
03__ASM_ALL_CURVES
100
AcDbLine
 62
4
  6
CONTINUOUS
 10
13.1042787934
 20
10.2219675503
 11
13.0976121266
 21
10.2119675503
  0
LINE
  5
487
100
AcDbEntity
  8
03__ASM_ALL_CURVES
100
AcDbLine
 62
4
  6
CONTINUOUS
 10
13.0242787934
 20
9.8319675503
 11
13.0309454585
 21
9.8419675503
  0
LINE
  5
488
100
AcDbEntity
  8
03__ASM_ALL_CURVES
100
AcDbLine
 62
4
  6
CONTINUOUS
 10
13.0976121266
 20
9.0119675503
 11
13.0909454597
 21
9.0069675503
  0
LINE
  5
489
100
AcDbEntity
  8
03__ASM_ALL_CURVES
100
AcDbLine
 62
4
  6
CONTINUOUS
 10
13.1419454585
 20
9.0419675503
 11
13.1486121283
 21
9.0469675503
  0
LINE
  5
48A
100
AcDbEntity
  8
03__ASM_ALL_CURVES
100
AcDbLine
 62
4
  6
CONTINUOUS
 10
13.1752787934
 20
9.0419675503
 11
13.188612126
 21
9.0519675503
  0
LINE
  5
48B
100
AcDbEntity
  8
03__ASM_ALL_CURVES
100
AcDbLine
 62
4
  6
CONTINUOUS
 10
13.2086121266
 20
9.0119675503
 11
13.2019454597
 21
9.0069675503
  0
LINE
  5
48C
100
AcDbEntity
  8
03__ASM_ALL_CURVES
100
AcDbLine
 62
4
  6
CONTINUOUS
 10
13.0376121283
 20
10.3119675503
 11
13.0576121283
 21
10.3169675503
  0
LINE
  5
48D
100
AcDbEntity
  8
03__ASM_ALL_CURVES
100
AcDbLine
 62
4
  6
CONTINUOUS
 10
9.4259454609
 20
9.4169675503
 11
9.4459454597
 21
9.4219675503
  0
LINE
  5
48E
100
AcDbEntity
  8
03__ASM_ALL_CURVES
100
AcDbLine
 62
4
  6
CONTINUOUS
 10
10.4136121283
 20
9.6069675503
 11
10.4202787934
 21
9.6069675503
  0
LINE
  5
48F
100
AcDbEntity
  8
03__ASM_ALL_CURVES
100
AcDbLine
 62
4
  6
CONTINUOUS
 10
12.0209454585
 20
9.6069675503
 11
12.047612126
 21
9.6069675503
  0
LINE
  5
490
100
AcDbEntity
  8
03__ASM_ALL_CURVES
100
AcDbLine
 62
4
  6
CONTINUOUS
 10
13.1486121283
 20
9.6069675503
 11
13.1552787934
 21
9.6069675503
  0
LINE
  5
491
100
AcDbEntity
  8
03__ASM_ALL_CURVES
100
AcDbLine
 62
4
  6
CONTINUOUS
 10
10.453612126
 20
9.6119675503
 11
10.4602787934
 21
9.6119675503
  0
LINE
  5
492
100
AcDbEntity
  8
03__ASM_ALL_CURVES
100
AcDbLine
 62
4
  6
CONTINUOUS
 10
13.188612126
 20
9.6119675503
 11
13.1952787934
 21
9.6119675503
  0
LINE
  5
493
100
AcDbEntity
  8
03__ASM_ALL_CURVES
100
AcDbLine
 62
4
  6
CONTINUOUS
 10
13.2152787934
 20
9.6794675503
 11
13.2052787931
 21
9.6794675503
  0
LINE
  5
494
100
AcDbEntity
  8
03__ASM_ALL_CURVES
100
AcDbLine
 62
4
  6
CONTINUOUS
 10
13.1042787934
 20
9.6794675503
 11
13.0942787931
 21
9.6794675503
  0
LINE
  5
495
100
AcDbEntity
  8
03__ASM_ALL_CURVES
100
AcDbLine
 62
4
  6
CONTINUOUS
 10
12.0742787934
 20
9.6794675503
 11
12.0642787931
 21
9.6794675503
  0
LINE
  5
496
100
AcDbEntity
  8
03__ASM_ALL_CURVES
100
AcDbLine
 62
4
  6
CONTINUOUS
 10
10.4802787934
 20
9.6794675503
 11
10.4702787931
 21
9.6794675503
  0
LINE
  5
497
100
AcDbEntity
  8
03__ASM_ALL_CURVES
100
AcDbLine
 62
4
  6
CONTINUOUS
 10
9.432612126
 20
9.7269675503
 11
9.4059454585
 21
9.7269675503
  0
LINE
  5
498
100
AcDbEntity
  8
03__ASM_ALL_CURVES
100
AcDbLine
 62
4
  6
CONTINUOUS
 10
10.4269454585
 20
9.7669675503
 11
10.453612126
 21
9.7669675503
  0
LINE
  5
499
100
AcDbEntity
  8
03__ASM_ALL_CURVES
100
AcDbLine
 62
4
  6
CONTINUOUS
 10
12.0076121283
 20
9.7669675503
 11
12.0142787934
 21
9.7669675503
  0
LINE
  5
49A
100
AcDbEntity
  8
03__ASM_ALL_CURVES
100
AcDbLine
 62
4
  6
CONTINUOUS
 10
13.1486121283
 20
9.7669675503
 11
13.1619454585
 21
9.7669675503
  0
LINE
  5
49B
100
AcDbEntity
  8
03__ASM_ALL_CURVES
100
AcDbLine
 62
4
  6
CONTINUOUS
 10
12.047612126
 20
9.7719675503
 11
12.0542787934
 21
9.7719675503
  0
LINE
  5
49C
100
AcDbEntity
  8
03__ASM_ALL_CURVES
100
AcDbLine
 62
4
  6
CONTINUOUS
 10
13.2152787934
 20
9.2669675503
 11
13.1819454609
 21
9.2719675503
  0
LINE
  5
49D
100
AcDbEntity
  8
03__ASM_ALL_CURVES
100
AcDbLine
 62
4
  6
CONTINUOUS
 10
10.4002787934
 20
9.8169675503
 11
10.4336121283
 21
9.8119675503
  0
LINE
  5
49E
100
AcDbEntity
  8
03__ASM_ALL_CURVES
100
AcDbLine
 62
4
  6
CONTINUOUS
 10
9.3926121283
 20
9.9819675503
 11
9.4126121283
 21
9.9769675503
  0
LINE
  5
49F
100
AcDbEntity
  8
03__ASM_ALL_CURVES
100
AcDbLine
 62
4
  6
CONTINUOUS
 10
12.0076121283
 20
9.4219675503
 11
12.0276121283
 21
9.4169675503
  0
LINE
  5
4A0
100
AcDbEntity
  8
03__ASM_ALL_CURVES
100
AcDbLine
 62
4
  6
CONTINUOUS
 10
10.4269454585
 20
9.7669675503
 11
10.4402787934
 21
9.7619675503
  0
LINE
  5
4A1
100
AcDbEntity
  8
03__ASM_ALL_CURVES
100
AcDbLine
 62
4
  6
CONTINUOUS
 10
10.453612126
 20
9.7669675503
 11
10.4669454597
 21
9.7619675503
  0
LINE
  5
4A2
100
AcDbEntity
  8
03__ASM_ALL_CURVES
100
AcDbLine
 62
4
  6
CONTINUOUS
 10
12.0209454585
 20
9.1969675503
 11
11.9942787934
 21
9.2069675503
  0
LINE
  5
4A3
100
AcDbEntity
  8
03__ASM_ALL_CURVES
100
AcDbLine
 62
4
  6
CONTINUOUS
 10
10.453612126
 20
9.8519675503
 11
10.4669454597
 21
9.8469675503
  0
LINE
  5
4A4
100
AcDbEntity
  8
03__ASM_ALL_CURVES
100
AcDbLine
 62
4
  6
CONTINUOUS
 10
12.0076121283
 20
9.0069675503
 11
12.0009454585
 21
9.0119675503
  0
LINE
  5
4A5
100
AcDbEntity
  8
03__ASM_ALL_CURVES
100
AcDbLine
 62
4
  6
CONTINUOUS
 10
12.0409454609
 20
9.0219675503
 11
12.0542787934
 21
9.0119675503
  0
LINE
  5
4A6
100
AcDbEntity
  8
03__ASM_ALL_CURVES
100
AcDbLine
 62
4
  6
CONTINUOUS
 10
12.0209454585
 20
9.0469675503
 11
12.0276121283
 21
9.0419675503
  0
LINE
  5
4A7
100
AcDbEntity
  8
03__ASM_ALL_CURVES
100
AcDbLine
 62
4
  6
CONTINUOUS
 10
11.9942787934
 20
9.2069675503
 11
11.9942787934
 21
9.1669675503
  0
LINE
  5
4A8
100
AcDbEntity
  8
03__ASM_ALL_CURVES
100
AcDbLine
 62
4
  6
CONTINUOUS
 10
11.9942787934
 20
9.0219675503
 11
11.9942787934
 21
9.0319675503
  0
LINE
  5
4A9
100
AcDbEntity
  8
03__ASM_ALL_CURVES
100
AcDbLine
 62
4
  6
CONTINUOUS
 10
11.9942787934
 20
9.2619675503
 11
11.9942787934
 21
9.2719675503
  0
LINE
  5
4AA
100
AcDbEntity
  8
03__ASM_ALL_CURVES
100
AcDbLine
 62
4
  6
CONTINUOUS
 10
11.9942787934
 20
9.7419675503
 11
11.9942787934
 21
9.7519675503
  0
LINE
  5
4AB
100
AcDbEntity
  8
03__ASM_ALL_CURVES
100
AcDbLine
 62
4
  6
CONTINUOUS
 10
12.0276121283
 20
9.2619675503
 11
12.0276121283
 21
9.2719675503
  0
LINE
  5
4AC
100
AcDbEntity
  8
03__ASM_ALL_CURVES
100
AcDbLine
 62
4
  6
CONTINUOUS
 10
12.0276121283
 20
9.7419675503
 11
12.0276121283
 21
9.7519675503
  0
LINE
  5
4AD
100
AcDbEntity
  8
03__ASM_ALL_CURVES
100
AcDbLine
 62
4
  6
CONTINUOUS
 10
12.0342787934
 20
8.5869675503
 11
12.0342787934
 21
8.8269675503
  0
LINE
  5
4AE
100
AcDbEntity
  8
03__ASM_ALL_CURVES
100
AcDbLine
 62
4
  6
CONTINUOUS
 10
12.0542787934
 20
9.8069675503
 11
12.0542787934
 21
9.8519675503
  0
LINE
  5
4AF
100
AcDbEntity
  8
03__ASM_ALL_CURVES
100
AcDbLine
 62
4
  6
CONTINUOUS
 10
12.0742787934
 20
9.7519675503
 11
12.0742787934
 21
9.7419675503
  0
LINE
  5
4B0
100
AcDbEntity
  8
03__ASM_ALL_CURVES
100
AcDbLine
 62
4
  6
CONTINUOUS
 10
12.0742787934
 20
9.6869675503
 11
12.0742787934
 21
9.6794675503
  0
LINE
  5
4B1
100
AcDbEntity
  8
03__ASM_ALL_CURVES
100
AcDbLine
 62
4
  6
CONTINUOUS
 10
12.0742787934
 20
9.2719675503
 11
12.0742787934
 21
9.2619675503
  0
LINE
  5
4B2
100
AcDbEntity
  8
03__ASM_ALL_CURVES
100
AcDbLine
 62
4
  6
CONTINUOUS
 10
12.0742787934
 20
9.1269675503
 11
12.0742787934
 21
9.1194675503
  0
LINE
  5
4B3
100
AcDbEntity
  8
03__ASM_ALL_CURVES
100
AcDbLine
 62
4
  6
CONTINUOUS
 10
12.0742787934
 20
9.0069675503
 11
12.0742787934
 21
9.0469675503
  0
LINE
  5
4B4
100
AcDbEntity
  8
03__ASM_ALL_CURVES
100
AcDbLine
 62
4
  6
CONTINUOUS
 10
13.0576121283
 20
9.8319675503
 11
13.0642787934
 21
9.8419675503
  0
LINE
  5
4B5
100
AcDbEntity
  8
03__ASM_ALL_CURVES
100
AcDbLine
 62
4
  6
CONTINUOUS
 10
13.0509454585
 20
9.7519675503
 11
13.0576121283
 21
9.7619675503
  0
LINE
  5
4B6
100
AcDbEntity
  8
03__ASM_ALL_CURVES
100
AcDbLine
 62
4
  6
CONTINUOUS
 10
13.1042787934
 20
9.8219675503
 11
13.0976121266
 21
9.8119675503
  0
LINE
  5
4B7
100
AcDbEntity
  8
03__ASM_ALL_CURVES
100
AcDbLine
 62
4
  6
CONTINUOUS
 10
13.1352787934
 20
9.8269675503
 11
13.1419454585
 21
9.8369675503
  0
LINE
  5
4B8
100
AcDbEntity
  8
03__ASM_ALL_CURVES
100
AcDbLine
 62
4
  6
CONTINUOUS
 10
13.1042787934
 20
9.7419675503
 11
13.0976121266
 21
9.7319675503
  0
LINE
  5
4B9
100
AcDbEntity
  8
03__ASM_ALL_CURVES
100
AcDbLine
 62
4
  6
CONTINUOUS
 10
13.1352787934
 20
9.7519675503
 11
13.1419454585
 21
9.7619675503
  0
LINE
  5
4BA
100
AcDbEntity
  8
03__ASM_ALL_CURVES
100
AcDbLine
 62
4
  6
CONTINUOUS
 10
13.2152787934
 20
9.8269675503
 11
13.2086121266
 21
9.8169675503
  0
LINE
  5
4BB
100
AcDbEntity
  8
03__ASM_ALL_CURVES
100
AcDbLine
 62
4
  6
CONTINUOUS
 10
13.0242787934
 20
9.5069675503
 11
13.0309454585
 21
9.5169675503
  0
LINE
  5
4BC
100
AcDbEntity
  8
03__ASM_ALL_CURVES
100
AcDbLine
 62
4
  6
CONTINUOUS
 10
10.4136121283
 20
9.9119675503
 11
10.4336121283
 21
9.9169675503
  0
LINE
  5
4BD
100
AcDbEntity
  8
03__ASM_ALL_CURVES
100
AcDbLine
 62
4
  6
CONTINUOUS
 10
9.4126121283
 20
9.8369675503
 11
9.4259454609
 21
9.8369675503
  0
LINE
  5
4BE
100
AcDbEntity
  8
03__ASM_ALL_CURVES
100
AcDbLine
 62
4
  6
CONTINUOUS
 10
12.0742787934
 20
9.8419675503
 11
11.9942787934
 21
9.8419675503
  0
LINE
  5
4BF
100
AcDbEntity
  8
03__ASM_ALL_CURVES
100
AcDbLine
 62
4
  6
CONTINUOUS
 10
13.0376121283
 20
9.8469675503
 11
13.0442787934
 21
9.8469675503
  0
LINE
  5
4C0
100
AcDbEntity
  8
03__ASM_ALL_CURVES
100
AcDbLine
 62
4
  6
CONTINUOUS
 10
13.1619454585
 20
9.8469675503
 11
13.188612126
 21
9.8469675503
  0
LINE
  5
4C1
100
AcDbEntity
  8
03__ASM_ALL_CURVES
100
AcDbLine
 62
4
  6
CONTINUOUS
 10
13.077612126
 20
9.8519675503
 11
13.0842787934
 21
9.8519675503
  0
LINE
  5
4C2
100
AcDbEntity
  8
03__ASM_ALL_CURVES
100
AcDbLine
 62
4
  6
CONTINUOUS
 10
10.4336121283
 20
9.9169675503
 11
10.4469454609
 21
9.9169675503
  0
LINE
  5
4C3
100
AcDbEntity
  8
03__ASM_ALL_CURVES
100
AcDbLine
 62
4
  6
CONTINUOUS
 10
12.0276121283
 20
9.9169675503
 11
12.0409454609
 21
9.9169675503
  0
LINE
  5
4C4
100
AcDbEntity
  8
03__ASM_ALL_CURVES
100
AcDbLine
 62
4
  6
CONTINUOUS
 10
13.0576121283
 20
9.9169675503
 11
13.0709454609
 21
9.9169675503
  0
LINE
  5
4C5
100
AcDbEntity
  8
03__ASM_ALL_CURVES
100
AcDbLine
 62
4
  6
CONTINUOUS
 10
13.1686121283
 20
9.9169675503
 11
13.1819454609
 21
9.9169675503
  0
LINE
  5
4C6
100
AcDbEntity
  8
03__ASM_ALL_CURVES
100
AcDbLine
 62
4
  6
CONTINUOUS
 10
9.4126121283
 20
9.9769675503
 11
9.4259454609
 21
9.9769675503
  0
LINE
  5
4C7
100
AcDbEntity
  8
03__ASM_ALL_CURVES
100
AcDbLine
 62
4
  6
CONTINUOUS
 10
13.1042787934
 20
9.5869675503
 11
13.0709454609
 21
9.5919675503
  0
LINE
  5
4C8
100
AcDbEntity
  8
03__ASM_ALL_CURVES
100
AcDbLine
 62
4
  6
CONTINUOUS
 10
10.4469454609
 20
9.9169675503
 11
10.4669454597
 21
9.9119675503
  0
LINE
  5
4C9
100
AcDbEntity
  8
03__ASM_ALL_CURVES
100
AcDbLine
 62
4
  6
CONTINUOUS
 10
13.1819454609
 20
9.2719675503
 11
13.1619454585
 21
9.2769675503
  0
LINE
  5
4CA
100
AcDbEntity
  8
03__ASM_ALL_CURVES
100
AcDbLine
 62
4
  6
CONTINUOUS
 10
9.4259454609
 20
10.2369675503
 11
9.4459454597
 21
10.2319675503
  0
LINE
  5
4CB
100
AcDbEntity
  8
03__ASM_ALL_CURVES
100
AcDbLine
 62
4
  6
CONTINUOUS
 10
13.0376121283
 20
9.4219675503
 11
13.0576121283
 21
9.4169675503
  0
LINE
  5
4CC
100
AcDbEntity
  8
03__ASM_ALL_CURVES
100
AcDbLine
 62
4
  6
CONTINUOUS
 10
13.1486121283
 20
9.4219675503
 11
13.1686121283
 21
9.4169675503
  0
LINE
  5
4CD
100
AcDbEntity
  8
03__ASM_ALL_CURVES
100
AcDbLine
 62
4
  6
CONTINUOUS
 10
12.0209454585
 20
9.4869675503
 11
12.0076121283
 21
9.4919675503
  0
LINE
  5
4CE
100
AcDbEntity
  8
03__ASM_ALL_CURVES
100
AcDbLine
 62
4
  6
CONTINUOUS
 10
12.047612126
 20
9.4869675503
 11
12.0342787934
 21
9.4919675503
  0
LINE
  5
4CF
100
AcDbEntity
  8
03__ASM_ALL_CURVES
100
AcDbLine
 62
4
  6
CONTINUOUS
 10
12.047612126
 20
9.5269675503
 11
12.0609454597
 21
9.5219675503
  0
LINE
  5
4D0
100
AcDbEntity
  8
03__ASM_ALL_CURVES
100
AcDbLine
 62
4
  6
CONTINUOUS
 10
12.0209454585
 20
9.5669675503
 11
12.0076121283
 21
9.5719675503
  0
LINE
  5
4D1
100
AcDbEntity
  8
03__ASM_ALL_CURVES
100
AcDbLine
 62
4
  6
CONTINUOUS
 10
12.0142787934
 20
9.2869675503
 11
12.0209454585
 21
9.2819675503
  0
LINE
  5
4D2
100
AcDbEntity
  8
03__ASM_ALL_CURVES
100
AcDbLine
 62
4
  6
CONTINUOUS
 10
12.0542787934
 20
9.2919675503
 11
12.0676121266
 21
9.2819675503
  0
LINE
  5
4D3
100
AcDbEntity
  8
03__ASM_ALL_CURVES
100
AcDbLine
 62
4
  6
CONTINUOUS
 10
12.0009454585
 20
9.0119675503
 11
11.9942787934
 21
9.0219675503
  0
LINE
  5
4D4
100
AcDbEntity
  8
03__ASM_ALL_CURVES
100
AcDbLine
 62
4
  6
CONTINUOUS
 10
12.0276121283
 20
9.0419675503
 11
12.0409454609
 21
9.0219675503
  0
LINE
  5
4D5
100
AcDbEntity
  8
03__ASM_ALL_CURVES
100
AcDbLine
 62
4
  6
CONTINUOUS
 10
13.1352787934
 20
9.5919675503
 11
13.1419454585
 21
9.6019675503
  0
LINE
  5
4D6
100
AcDbEntity
  8
03__ASM_ALL_CURVES
100
AcDbLine
 62
4
  6
CONTINUOUS
 10
13.1042787934
 20
9.5069675503
 11
13.0976121266
 21
9.4969675503
  0
LINE
  5
4D7
100
AcDbEntity
  8
03__ASM_ALL_CURVES
100
AcDbLine
 62
4
  6
CONTINUOUS
 10
13.1686121283
 20
9.5919675503
 11
13.1752787934
 21
9.6019675503
  0
LINE
  5
4D8
100
AcDbEntity
  8
03__ASM_ALL_CURVES
100
AcDbLine
 62
4
  6
CONTINUOUS
 10
13.1686121283
 20
9.5819675503
 11
13.1619454585
 21
9.5719675503
  0
LINE
  5
4D9
100
AcDbEntity
  8
03__ASM_ALL_CURVES
100
AcDbLine
 62
4
  6
CONTINUOUS
 10
13.1352787934
 20
9.5069675503
 11
13.1419454585
 21
9.5169675503
  0
LINE
  5
4DA
100
AcDbEntity
  8
03__ASM_ALL_CURVES
100
AcDbLine
 62
4
  6
CONTINUOUS
 10
13.2152787934
 20
9.5819675503
 11
13.2086121266
 21
9.5719675503
  0
LINE
  5
4DB
100
AcDbEntity
  8
03__ASM_ALL_CURVES
100
AcDbLine
 62
4
  6
CONTINUOUS
 10
13.2152787934
 20
9.5069675503
 11
13.2086121266
 21
9.4969675503
  0
LINE
  5
4DC
100
AcDbEntity
  8
03__ASM_ALL_CURVES
100
AcDbLine
 62
4
  6
CONTINUOUS
 10
13.0242787934
 20
9.1919675503
 11
13.0309454585
 21
9.2019675503
  0
LINE
  5
4DD
100
AcDbEntity
  8
03__ASM_ALL_CURVES
100
AcDbLine
 62
4
  6
CONTINUOUS
 10
13.0576121283
 20
9.1919675503
 11
13.0642787934
 21
9.2019675503
  0
LINE
  5
4DE
100
AcDbEntity
  8
03__ASM_ALL_CURVES
100
AcDbLine
 62
4
  6
CONTINUOUS
 10
13.0576121283
 20
9.1819675503
 11
13.0509454585
 21
9.1719675503
  0
LINE
  5
4DF
100
AcDbEntity
  8
03__ASM_ALL_CURVES
100
AcDbLine
 62
4
  6
CONTINUOUS
 10
13.1042787934
 20
9.1819675503
 11
13.0976121266
 21
9.1719675503
  0
LINE
  5
4E0
100
AcDbEntity
  8
03__ASM_ALL_CURVES
100
AcDbLine
 62
4
  6
CONTINUOUS
 10
9.3926121283
 20
9.8319675503
 11
9.4126121283
 21
9.8369675503
  0
LINE
  5
4E1
100
AcDbEntity
  8
03__ASM_ALL_CURVES
100
AcDbLine
 62
4
  6
CONTINUOUS
 10
9.4259454609
 20
9.9769675503
 11
9.4459454597
 21
9.9819675503
  0
LINE
  5
4E2
100
AcDbEntity
  8
03__ASM_ALL_CURVES
100
AcDbLine
 62
4
  6
CONTINUOUS
 10
9.3792787934
 20
10.0469675503
 11
9.4592787934
 21
10.0469675503
  0
LINE
  5
4E3
100
AcDbEntity
  8
03__ASM_ALL_CURVES
100
AcDbLine
 62
4
  6
CONTINUOUS
 10
13.0576121283
 20
10.0569675503
 11
13.0709454609
 21
10.0569675503
  0
LINE
  5
4E4
100
AcDbEntity
  8
03__ASM_ALL_CURVES
100
AcDbLine
 62
4
  6
CONTINUOUS
 10
9.3926121283
 20
10.1269675503
 11
9.3992787934
 21
10.1269675503
  0
LINE
  5
4E5
100
AcDbEntity
  8
03__ASM_ALL_CURVES
100
AcDbLine
 62
4
  6
CONTINUOUS
 10
13.0242787934
 20
10.1269675503
 11
13.1042787934
 21
10.1269675503
  0
LINE
  5
4E6
100
AcDbEntity
  8
03__ASM_ALL_CURVES
100
AcDbLine
 62
4
  6
CONTINUOUS
 10
9.432612126
 20
10.1669675503
 11
9.4459454597
 21
10.1669675503
  0
LINE
  5
4E7
100
AcDbEntity
  8
03__ASM_ALL_CURVES
100
AcDbLine
 62
4
  6
CONTINUOUS
 10
13.0376121283
 20
10.2069675503
 11
13.0442787934
 21
10.2069675503
  0
LINE
  5
4E8
100
AcDbEntity
  8
03__ASM_ALL_CURVES
100
AcDbLine
 62
4
  6
CONTINUOUS
 10
9.4126121283
 20
10.2369675503
 11
9.4259454609
 21
10.2369675503
  0
LINE
  5
4E9
100
AcDbEntity
  8
03__ASM_ALL_CURVES
100
AcDbLine
 62
4
  6
CONTINUOUS
 10
13.0242787934
 20
9.7369675503
 11
13.0576121283
 21
9.7319675503
  0
LINE
  5
4EA
100
AcDbEntity
  8
03__ASM_ALL_CURVES
100
AcDbLine
 62
4
  6
CONTINUOUS
 10
13.0709454609
 20
9.5919675503
 11
13.0509454585
 21
9.5969675503
  0
LINE
  5
4EB
100
AcDbEntity
  8
03__ASM_ALL_CURVES
100
AcDbLine
 62
4
  6
CONTINUOUS
 10
12.0409454609
 20
9.9169675503
 11
12.0609454597
 21
9.9119675503
  0
LINE
  5
4EC
100
AcDbEntity
  8
03__ASM_ALL_CURVES
100
AcDbLine
 62
4
  6
CONTINUOUS
 10
12.0209454585
 20
9.6069675503
 11
12.0342787934
 21
9.6019675503
  0
LINE
  5
4ED
100
AcDbEntity
  8
03__ASM_ALL_CURVES
100
AcDbLine
 62
4
  6
CONTINUOUS
 10
12.047612126
 20
9.6069675503
 11
12.0609454597
 21
9.6019675503
  0
LINE
  5
4EE
100
AcDbEntity
  8
03__ASM_ALL_CURVES
100
AcDbLine
 62
4
  6
CONTINUOUS
 10
13.1619454585
 20
9.2769675503
 11
13.1352787934
 21
9.2869675503
  0
LINE
  5
4EF
100
AcDbEntity
  8
03__ASM_ALL_CURVES
100
AcDbLine
 62
4
  6
CONTINUOUS
 10
11.9942787934
 20
9.4319675503
 11
12.0076121283
 21
9.4219675503
  0
LINE
  5
4F0
100
AcDbEntity
  8
03__ASM_ALL_CURVES
100
AcDbLine
 62
4
  6
CONTINUOUS
 10
12.0076121283
 20
9.4919675503
 11
12.0009454585
 21
9.4969675503
  0
LINE
  5
4F1
100
AcDbEntity
  8
03__ASM_ALL_CURVES
100
AcDbLine
 62
4
  6
CONTINUOUS
 10
12.0609454597
 20
9.5219675503
 11
12.0676121266
 21
9.5169675503
  0
LINE
  5
4F2
100
AcDbEntity
  8
03__ASM_ALL_CURVES
100
AcDbLine
 62
4
  6
CONTINUOUS
 10
12.0076121283
 20
9.5719675503
 11
12.0009454585
 21
9.5769675503
  0
LINE
  5
4F3
100
AcDbEntity
  8
03__ASM_ALL_CURVES
100
AcDbLine
 62
4
  6
CONTINUOUS
 10
12.0009454585
 20
9.2519675503
 11
11.9942787934
 21
9.2619675503
  0
LINE
  5
4F4
100
AcDbEntity
  8
03__ASM_ALL_CURVES
100
AcDbLine
 62
4
  6
CONTINUOUS
 10
12.0209454585
 20
9.2819675503
 11
12.0276121283
 21
9.2719675503
  0
LINE
  5
4F5
100
AcDbEntity
  8
03__ASM_ALL_CURVES
100
AcDbLine
 62
4
  6
CONTINUOUS
 10
12.0676121266
 20
9.2819675503
 11
12.0742787934
 21
9.2719675503
  0
LINE
  5
4F6
100
AcDbEntity
  8
03__ASM_ALL_CURVES
100
AcDbLine
 62
4
  6
CONTINUOUS
 10
12.0009454585
 20
9.4969675503
 11
11.9942787934
 21
9.5069675503
  0
LINE
  5
4F7
100
AcDbEntity
  8
03__ASM_ALL_CURVES
100
AcDbLine
 62
4
  6
CONTINUOUS
 10
12.0342787934
 20
9.4919675503
 11
12.0276121283
 21
9.5069675503
  0
LINE
  5
4F8
100
AcDbEntity
  8
0
100
AcDbLine
 62
7
  6
CONTINUOUS
 10
12.3632788168
 20
8.5069675503
 11
12.3632788168
 21
6.7569675503
  0
LINE
  5
4F9
100
AcDbEntity
  8
03__ASM_ALL_CURVES
100
AcDbLine
 62
4
  6
CONTINUOUS
 10
13.1819454609
 20
9.8269675503
 11
13.1752787934
 21
9.8119675503
  0
LINE
  5
4FA
100
AcDbEntity
  8
03__ASM_ALL_CURVES
100
AcDbLine
 62
4
  6
CONTINUOUS
 10
13.0709454609
 20
9.5069675503
 11
13.0642787934
 21
9.4919675503
  0
LINE
  5
4FB
100
AcDbEntity
  8
03__ASM_ALL_CURVES
100
AcDbLine
 62
4
  6
CONTINUOUS
 10
13.0242787934
 20
9.0319675503
 11
13.0309454585
 21
9.0419675503
  0
LINE
  5
4FC
100
AcDbEntity
  8
03__ASM_ALL_CURVES
100
AcDbLine
 62
4
  6
CONTINUOUS
 10
13.1352787934
 20
9.1919675503
 11
13.1419454585
 21
9.2019675503
  0
LINE
  5
4FD
100
AcDbEntity
  8
03__ASM_ALL_CURVES
100
AcDbLine
 62
4
  6
CONTINUOUS
 10
13.0576121283
 20
9.0319675503
 11
13.0642787934
 21
9.0419675503
  0
LINE
  5
4FE
100
AcDbEntity
  8
03__ASM_ALL_CURVES
100
AcDbLine
 62
4
  6
CONTINUOUS
 10
13.1686121283
 20
9.1919675503
 11
13.1752787934
 21
9.2019675503
  0
LINE
  5
4FF
100
AcDbEntity
  8
03__ASM_ALL_CURVES
100
AcDbLine
 62
4
  6
CONTINUOUS
 10
13.1686121283
 20
9.1819675503
 11
13.1619454585
 21
9.1719675503
  0
LINE
  5
500
100
AcDbEntity
  8
03__ASM_ALL_CURVES
100
AcDbLine
 62
4
  6
CONTINUOUS
 10
13.1042787934
 20
9.0219675503
 11
13.0976121266
 21
9.0119675503
  0
LINE
  5
501
100
AcDbEntity
  8
03__ASM_ALL_CURVES
100
AcDbLine
 62
4
  6
CONTINUOUS
 10
13.2152787934
 20
9.1819675503
 11
13.2086121266
 21
9.1719675503
  0
LINE
  5
502
100
AcDbEntity
  8
03__ASM_ALL_CURVES
100
AcDbLine
 62
4
  6
CONTINUOUS
 10
13.1352787934
 20
9.0319675503
 11
13.1419454585
 21
9.0419675503
  0
LINE
  5
503
100
AcDbEntity
  8
03__ASM_ALL_CURVES
100
AcDbLine
 62
4
  6
CONTINUOUS
 10
13.1686121283
 20
9.0319675503
 11
13.1752787934
 21
9.0419675503
  0
LINE
  5
504
100
AcDbEntity
  8
03__ASM_ALL_CURVES
100
AcDbLine
 62
4
  6
CONTINUOUS
 10
13.2152787934
 20
9.0219675503
 11
13.2086121266
 21
9.0119675503
  0
LINE
  5
505
100
AcDbEntity
  8
03__ASM_ALL_CURVES
100
AcDbLine
 62
4
  6
CONTINUOUS
 10
13.077612126
 20
10.2469675503
 11
13.0909454597
 21
10.2469675503
  0
LINE
  5
506
100
AcDbEntity
  8
03__ASM_ALL_CURVES
100
AcDbLine
 62
4
  6
CONTINUOUS
 10
13.0576121283
 20
10.3169675503
 11
13.0709454609
 21
10.3169675503
  0
LINE
  5
507
100
AcDbEntity
  8
03__ASM_ALL_CURVES
100
AcDbLine
 62
4
  6
CONTINUOUS
 10
13.1952787934
 20
9.7319675503
 11
13.2152787934
 21
9.7269675503
  0
LINE
  5
508
100
AcDbEntity
  8
03__ASM_ALL_CURVES
100
AcDbLine
 62
4
  6
CONTINUOUS
 10
13.0509454585
 20
9.4869675503
 11
13.0376121283
 21
9.4919675503
  0
LINE
  5
509
100
AcDbEntity
  8
03__ASM_ALL_CURVES
100
AcDbLine
 62
4
  6
CONTINUOUS
 10
13.0509454585
 20
9.5269675503
 11
13.0642787934
 21
9.5219675503
  0
LINE
  5
50A
100
AcDbEntity
  8
03__ASM_ALL_CURVES
100
AcDbLine
 62
4
  6
CONTINUOUS
 10
13.1619454585
 20
9.4869675503
 11
13.1486121283
 21
9.4919675503
  0
LINE
  5
50B
100
AcDbEntity
  8
03__ASM_ALL_CURVES
100
AcDbLine
 62
4
  6
CONTINUOUS
 10
13.077612126
 20
9.5269675503
 11
13.0909454597
 21
9.5219675503
  0
LINE
  5
50C
100
AcDbEntity
  8
03__ASM_ALL_CURVES
100
AcDbLine
 62
4
  6
CONTINUOUS
 10
13.1619454585
 20
9.5269675503
 11
13.1752787934
 21
9.5219675503
  0
LINE
  5
50D
100
AcDbEntity
  8
03__ASM_ALL_CURVES
100
AcDbLine
 62
4
  6
CONTINUOUS
 10
13.188612126
 20
9.5269675503
 11
13.2019454597
 21
9.5219675503
  0
LINE
  5
50E
100
AcDbEntity
  8
03__ASM_ALL_CURVES
100
AcDbLine
 62
4
  6
CONTINUOUS
 10
13.0509454585
 20
9.5969675503
 11
13.0242787934
 21
9.6069675503
  0
LINE
  5
50F
100
AcDbEntity
  8
03__ASM_ALL_CURVES
100
AcDbLine
 62
4
  6
CONTINUOUS
 10
11.9942787934
 20
9.8419675503
 11
12.0542787934
 21
9.8069675503
  0
LINE
  5
510
100
AcDbEntity
  8
03__ASM_ALL_CURVES
100
AcDbLine
 62
4
  6
CONTINUOUS
 10
13.0242787934
 20
9.2819675503
 11
13.0842787934
 21
9.2469675503
  0
LINE
  5
511
100
AcDbEntity
  8
03__ASM_ALL_CURVES
100
AcDbLine
 62
4
  6
CONTINUOUS
 10
12.0609454597
 20
9.6019675503
 11
12.0676121266
 21
9.5969675503
  0
LINE
  5
512
100
AcDbEntity
  8
03__ASM_ALL_CURVES
100
AcDbLine
 62
4
  6
CONTINUOUS
 10
12.0142787934
 20
9.7669675503
 11
12.0209454585
 21
9.7619675503
  0
LINE
  5
513
100
AcDbEntity
  8
03__ASM_ALL_CURVES
100
AcDbLine
 62
4
  6
CONTINUOUS
 10
12.0542787934
 20
9.7719675503
 11
12.0676121266
 21
9.7619675503
  0
LINE
  5
514
100
AcDbEntity
  8
03__ASM_ALL_CURVES
100
AcDbLine
 62
4
  6
CONTINUOUS
 10
13.0442787934
 20
9.0469675503
 11
13.0509454585
 21
9.0419675503
  0
LINE
  5
515
100
AcDbEntity
  8
03__ASM_ALL_CURVES
100
AcDbLine
 62
4
  6
CONTINUOUS
 10
13.0842787934
 20
9.0519675503
 11
13.0976121266
 21
9.0419675503
  0
LINE
  5
516
100
AcDbEntity
  8
0
100
AcDbLine
 62
7
  6
CONTINUOUS
 10
13.1752787934
 20
8.4129675503
 11
13.1442787934
 21
8.4439675503
  0
LINE
  5
517
100
AcDbEntity
  8
03__ASM_ALL_CURVES
100
AcDbLine
 62
4
  6
CONTINUOUS
 10
13.1442787934
 20
8.6669675503
 11
13.0642787934
 21
8.7469675503
  0
LINE
  5
518
100
AcDbEntity
  8
03__ASM_ALL_CURVES
100
AcDbLine
 62
4
  6
CONTINUOUS
 10
12.0009454585
 20
9.5769675503
 11
11.9942787934
 21
9.5869675503
  0
LINE
  5
519
100
AcDbEntity
  8
03__ASM_ALL_CURVES
100
AcDbLine
 62
4
  6
CONTINUOUS
 10
12.0676121266
 20
9.5169675503
 11
12.0742787934
 21
9.5069675503
  0
LINE
  5
51A
100
AcDbEntity
  8
03__ASM_ALL_CURVES
100
AcDbLine
 62
4
  6
CONTINUOUS
 10
12.0676121266
 20
9.5969675503
 11
12.0742787934
 21
9.5869675503
  0
LINE
  5
51B
100
AcDbEntity
  8
03__ASM_ALL_CURVES
100
AcDbLine
 62
4
  6
CONTINUOUS
 10
12.0009454585
 20
9.7319675503
 11
11.9942787934
 21
9.7419675503
  0
LINE
  5
51C
100
AcDbEntity
  8
03__ASM_ALL_CURVES
100
AcDbLine
 62
4
  6
CONTINUOUS
 10
12.0209454585
 20
9.7619675503
 11
12.0276121283
 21
9.7519675503
  0
LINE
  5
51D
100
AcDbEntity
  8
03__ASM_ALL_CURVES
100
AcDbLine
 62
4
  6
CONTINUOUS
 10
12.0676121266
 20
9.7619675503
 11
12.0742787934
 21
9.7519675503
  0
LINE
  5
51E
100
AcDbEntity
  8
03__ASM_ALL_CURVES
100
AcDbLine
 62
4
  6
CONTINUOUS
 10
12.0342787934
 20
9.6019675503
 11
12.0409454609
 21
9.5869675503
  0
LINE
  5
51F
100
AcDbEntity
  8
03__ASM_ALL_CURVES
100
AcDbLine
 62
4
  6
CONTINUOUS
 10
13.1819454609
 20
9.5069675503
 11
13.1752787934
 21
9.4919675503
  0
LINE
  5
520
100
AcDbEntity
  8
03__ASM_ALL_CURVES
100
AcDbLine
 62
4
  6
CONTINUOUS
 10
9.3926121283
 20
10.2319675503
 11
9.4126121283
 21
10.2369675503
  0
LINE
  5
521
100
AcDbEntity
  8
03__ASM_ALL_CURVES
100
AcDbLine
 62
4
  6
CONTINUOUS
 10
13.0709454609
 20
9.9169675503
 11
13.0909454597
 21
9.9119675503
  0
LINE
  5
522
100
AcDbEntity
  8
03__ASM_ALL_CURVES
100
AcDbLine
 62
4
  6
CONTINUOUS
 10
13.1819454609
 20
9.9169675503
 11
13.2019454597
 21
9.9119675503
  0
LINE
  5
523
100
AcDbEntity
  8
03__ASM_ALL_CURVES
100
AcDbLine
 62
4
  6
CONTINUOUS
 10
13.0376121283
 20
10.0619675503
 11
13.0576121283
 21
10.0569675503
  0
LINE
  5
524
100
AcDbEntity
  8
03__ASM_ALL_CURVES
100
AcDbLine
 62
4
  6
CONTINUOUS
 10
13.077612126
 20
9.7719675503
 11
13.0909454597
 21
9.7669675503
  0
LINE
  5
525
100
AcDbEntity
  8
03__ASM_ALL_CURVES
100
AcDbLine
 62
4
  6
CONTINUOUS
 10
13.1619454585
 20
9.8069675503
 11
13.1486121283
 21
9.8119675503
  0
LINE
  5
526
100
AcDbEntity
  8
03__ASM_ALL_CURVES
100
AcDbLine
 62
4
  6
CONTINUOUS
 10
13.1619454585
 20
9.8469675503
 11
13.1752787934
 21
9.8419675503
  0
LINE
  5
527
100
AcDbEntity
  8
03__ASM_ALL_CURVES
100
AcDbLine
 62
4
  6
CONTINUOUS
 10
13.1552787934
 20
9.0469675503
 11
13.1619454585
 21
9.0419675503
  0
LINE
  5
528
100
AcDbEntity
  8
03__ASM_ALL_CURVES
100
AcDbLine
 62
4
  6
CONTINUOUS
 10
13.0376121283
 20
9.1669675503
 11
13.0309454585
 21
9.1719675503
  0
LINE
  5
529
100
AcDbEntity
  8
03__ASM_ALL_CURVES
100
AcDbLine
 62
4
  6
CONTINUOUS
 10
13.1952787934
 20
9.0519675503
 11
13.2086121266
 21
9.0419675503
  0
LINE
  5
52A
100
AcDbEntity
  8
03__ASM_ALL_CURVES
100
AcDbLine
 62
4
  6
CONTINUOUS
 10
12.0609454597
 20
9.9119675503
 11
12.0742787934
 21
9.9019675503
  0
LINE
  5
52B
100
AcDbEntity
  8
03__ASM_ALL_CURVES
100
AcDbLine
 62
4
  6
CONTINUOUS
 10
13.077612126
 20
9.1619675503
 11
13.0642787934
 21
9.1719675503
  0
LINE
  5
52C
100
AcDbEntity
  8
03__ASM_ALL_CURVES
100
AcDbLine
 62
4
  6
CONTINUOUS
 10
13.0442787934
 20
9.2069675503
 11
13.0509454585
 21
9.2019675503
  0
LINE
  5
52D
100
AcDbEntity
  8
03__ASM_ALL_CURVES
100
AcDbLine
 62
4
  6
CONTINUOUS
 10
13.0842787934
 20
9.2119675503
 11
13.0976121266
 21
9.2019675503
  0
LINE
  5
52E
100
AcDbEntity
  8
03__ASM_ALL_CURVES
100
AcDbLine
 62
4
  6
CONTINUOUS
 10
13.1486121283
 20
9.1669675503
 11
13.1419454585
 21
9.1719675503
  0
LINE
  5
52F
100
AcDbEntity
  8
03__ASM_ALL_CURVES
100
AcDbLine
 62
4
  6
CONTINUOUS
 10
13.188612126
 20
9.1619675503
 11
13.1752787934
 21
9.1719675503
  0
LINE
  5
530
100
AcDbEntity
  8
03__ASM_ALL_CURVES
100
AcDbLine
 62
4
  6
CONTINUOUS
 10
13.1552787934
 20
9.2069675503
 11
13.1619454585
 21
9.2019675503
  0
LINE
  5
531
100
AcDbEntity
  8
03__ASM_ALL_CURVES
100
AcDbLine
 62
4
  6
CONTINUOUS
 10
13.1952787934
 20
9.2119675503
 11
13.2086121266
 21
9.2019675503
  0
LINE
  5
532
100
AcDbEntity
  8
03__ASM_ALL_CURVES
100
AcDbLine
 62
4
  6
CONTINUOUS
 10
13.0709454609
 20
10.3169675503
 11
13.0909454597
 21
10.3119675503
  0
LINE
  5
533
100
AcDbEntity
  8
03__ASM_ALL_CURVES
100
AcDbLine
 62
4
  6
CONTINUOUS
 10
13.188612126
 20
9.8469675503
 11
13.2019454597
 21
9.8419675503
  0
LINE
  5
534
100
AcDbEntity
  8
03__ASM_ALL_CURVES
100
AcDbLine
 62
4
  6
CONTINUOUS
 10
13.0242787934
 20
9.4319675503
 11
13.0376121283
 21
9.4219675503
  0
LINE
  5
535
100
AcDbEntity
  8
03__ASM_ALL_CURVES
100
AcDbLine
 62
4
  6
CONTINUOUS
 10
13.0376121283
 20
9.4919675503
 11
13.0309454585
 21
9.4969675503
  0
LINE
  5
536
100
AcDbEntity
  8
03__ASM_ALL_CURVES
100
AcDbLine
 62
4
  6
CONTINUOUS
 10
13.1352787934
 20
9.4319675503
 11
13.1486121283
 21
9.4219675503
  0
LINE
  5
537
100
AcDbEntity
  8
03__ASM_ALL_CURVES
100
AcDbLine
 62
4
  6
CONTINUOUS
 10
13.0909454597
 20
9.5219675503
 11
13.0976121266
 21
9.5169675503
  0
LINE
  5
538
100
AcDbEntity
  8
03__ASM_ALL_CURVES
100
AcDbLine
 62
4
  6
CONTINUOUS
 10
13.1486121283
 20
9.4919675503
 11
13.1419454585
 21
9.4969675503
  0
LINE
  5
539
100
AcDbEntity
  8
03__ASM_ALL_CURVES
100
AcDbLine
 62
4
  6
CONTINUOUS
 10
13.0309454585
 20
9.0119675503
 11
13.0242787934
 21
9.0219675503
  0
LINE
  5
53A
100
AcDbEntity
  8
03__ASM_ALL_CURVES
100
AcDbLine
 62
4
  6
CONTINUOUS
 10
13.0509454585
 20
9.0419675503
 11
13.0576121283
 21
9.0319675503
  0
LINE
  5
53B
100
AcDbEntity
  8
03__ASM_ALL_CURVES
100
AcDbLine
 62
4
  6
CONTINUOUS
 10
13.0242787934
 20
10.2319675503
 11
13.0242787934
 21
10.2219675503
  0
LINE
  5
53C
100
AcDbEntity
  8
03__ASM_ALL_CURVES
100
AcDbLine
 62
4
  6
CONTINUOUS
 10
13.0242787934
 20
9.7669675503
 11
13.0242787934
 21
9.7369675503
  0
LINE
  5
53D
100
AcDbEntity
  8
03__ASM_ALL_CURVES
100
AcDbLine
 62
4
  6
CONTINUOUS
 10
13.0242787934
 20
9.6069675503
 11
13.0242787934
 21
9.5669675503
  0
LINE
  5
53E
100
AcDbEntity
  8
03__ASM_ALL_CURVES
100
AcDbLine
 62
4
  6
CONTINUOUS
 10
13.0242787934
 20
9.0219675503
 11
13.0242787934
 21
9.0319675503
  0
LINE
  5
53F
100
AcDbEntity
  8
03__ASM_ALL_CURVES
100
AcDbLine
 62
4
  6
CONTINUOUS
 10
13.0242787934
 20
9.1819675503
 11
13.0242787934
 21
9.1919675503
  0
LINE
  5
540
100
AcDbEntity
  8
03__ASM_ALL_CURVES
100
AcDbLine
 62
4
  6
CONTINUOUS
 10
13.0242787934
 20
9.8219675503
 11
13.0242787934
 21
9.8319675503
  0
LINE
  5
541
100
AcDbEntity
  8
03__ASM_ALL_CURVES
100
AcDbLine
 62
4
  6
CONTINUOUS
 10
13.0509454585
 20
9.7419675503
 11
13.0509454585
 21
9.7519675503
  0
LINE
  5
542
100
AcDbEntity
  8
03__ASM_ALL_CURVES
100
AcDbLine
 62
4
  6
CONTINUOUS
 10
13.0576121283
 20
9.0219675503
 11
13.0576121283
 21
9.0319675503
  0
LINE
  5
543
100
AcDbEntity
  8
03__ASM_ALL_CURVES
100
AcDbLine
 62
4
  6
CONTINUOUS
 10
13.0576121283
 20
9.1819675503
 11
13.0576121283
 21
9.1919675503
  0
LINE
  5
544
100
AcDbEntity
  8
03__ASM_ALL_CURVES
100
AcDbLine
 62
4
  6
CONTINUOUS
 10
13.0576121283
 20
9.8219675503
 11
13.0576121283
 21
9.8319675503
  0
LINE
  5
545
100
AcDbEntity
  8
03__ASM_ALL_CURVES
100
AcDbLine
 62
4
  6
CONTINUOUS
 10
13.0642787934
 20
8.7469675503
 11
13.0642787934
 21
8.8269675503
  0
LINE
  5
546
100
AcDbEntity
  8
03__ASM_ALL_CURVES
100
AcDbLine
 62
4
  6
CONTINUOUS
 10
13.0842787934
 20
9.2469675503
 11
13.0842787934
 21
9.2919675503
  0
LINE
  5
547
100
AcDbEntity
  8
03__ASM_ALL_CURVES
100
AcDbLine
 62
4
  6
CONTINUOUS
 10
13.1042787934
 20
10.2319675503
 11
13.1042787934
 21
10.2219675503
  0
LINE
  5
548
100
AcDbEntity
  8
03__ASM_ALL_CURVES
100
AcDbLine
 62
4
  6
CONTINUOUS
 10
13.1042787934
 20
9.8319675503
 11
13.1042787934
 21
9.8219675503
  0
LINE
  5
549
100
AcDbEntity
  8
03__ASM_ALL_CURVES
100
AcDbLine
 62
4
  6
CONTINUOUS
 10
13.1042787934
 20
9.7519675503
 11
13.1042787934
 21
9.7419675503
  0
LINE
  5
54A
100
AcDbEntity
  8
03__ASM_ALL_CURVES
100
AcDbLine
 62
4
  6
CONTINUOUS
 10
13.1042787934
 20
9.6869675503
 11
13.1042787934
 21
9.6794675503
  0
LINE
  5
54B
100
AcDbEntity
  8
03__ASM_ALL_CURVES
100
AcDbLine
 62
4
  6
CONTINUOUS
 10
13.1042787934
 20
9.1919675503
 11
13.1042787934
 21
9.1819675503
  0
LINE
  5
54C
100
AcDbEntity
  8
03__ASM_ALL_CURVES
100
AcDbLine
 62
4
  6
CONTINUOUS
 10
13.1042787934
 20
9.1269675503
 11
13.1042787934
 21
9.1194675503
  0
LINE
  5
54D
100
AcDbEntity
  8
03__ASM_ALL_CURVES
100
AcDbLine
 62
4
  6
CONTINUOUS
 10
13.1042787934
 20
9.0319675503
 11
13.1042787934
 21
9.0219675503
  0
LINE
  5
54E
100
AcDbEntity
  8
03__ASM_ALL_CURVES
100
AcDbLine
 62
4
  6
CONTINUOUS
 10
13.1042787934
 20
10.1269675503
 11
13.1042787934
 21
10.1669675503
  0
LINE
  5
54F
100
AcDbEntity
  8
03__ASM_ALL_CURVES
100
AcDbLine
 62
4
  6
CONTINUOUS
 10
13.1352787934
 20
9.2869675503
 11
13.1352787934
 21
9.2469675503
  0
LINE
  5
550
100
AcDbEntity
  8
03__ASM_ALL_CURVES
100
AcDbLine
 62
4
  6
CONTINUOUS
 10
13.1352787934
 20
9.0219675503
 11
13.1352787934
 21
9.0319675503
  0
LINE
  5
551
100
AcDbEntity
  8
03__ASM_ALL_CURVES
100
AcDbLine
 62
4
  6
CONTINUOUS
 10
13.1352787934
 20
9.1819675503
 11
13.1352787934
 21
9.1919675503
  0
LINE
  5
552
100
AcDbEntity
  8
03__ASM_ALL_CURVES
100
AcDbLine
 62
4
  6
CONTINUOUS
 10
13.1352787934
 20
9.5819675503
 11
13.1352787934
 21
9.5919675503
  0
LINE
  5
553
100
AcDbEntity
  8
03__ASM_ALL_CURVES
100
AcDbLine
 62
4
  6
CONTINUOUS
 10
13.1352787934
 20
9.7419675503
 11
13.1352787934
 21
9.7519675503
  0
LINE
  5
554
100
AcDbEntity
  8
0
100
AcDbLine
 62
7
  6
CONTINUOUS
 10
13.1442787934
 20
6.8189675503
 11
13.1442787934
 21
8.4439675503
  0
LINE
  5
555
100
AcDbEntity
  8
03__ASM_ALL_CURVES
100
AcDbLine
 62
4
  6
CONTINUOUS
 10
13.1442787934
 20
8.5869675503
 11
13.1442787934
 21
8.6669675503
  0
LINE
  5
556
100
AcDbEntity
  8
03__ASM_ALL_CURVES
100
AcDbLine
 62
4
  6
CONTINUOUS
 10
13.2019454597
 20
9.5219675503
 11
13.2086121266
 21
9.5169675503
  0
LINE
  5
557
100
AcDbEntity
  8
03__ASM_ALL_CURVES
100
AcDbLine
 62
4
  6
CONTINUOUS
 10
13.1486121283
 20
9.5669675503
 11
13.1419454585
 21
9.5719675503
  0
LINE
  5
558
100
AcDbEntity
  8
03__ASM_ALL_CURVES
100
AcDbLine
 62
4
  6
CONTINUOUS
 10
13.188612126
 20
9.5619675503
 11
13.1752787934
 21
9.5719675503
  0
LINE
  5
559
100
AcDbEntity
  8
03__ASM_ALL_CURVES
100
AcDbLine
 62
4
  6
CONTINUOUS
 10
13.1552787934
 20
9.6069675503
 11
13.1619454585
 21
9.6019675503
  0
LINE
  5
55A
100
AcDbEntity
  8
03__ASM_ALL_CURVES
100
AcDbLine
 62
4
  6
CONTINUOUS
 10
13.1952787934
 20
9.6119675503
 11
13.2086121266
 21
9.6019675503
  0
LINE
  5
55B
100
AcDbEntity
  8
03__ASM_ALL_CURVES
100
AcDbLine
 62
4
  6
CONTINUOUS
 10
13.0909454597
 20
9.7669675503
 11
13.0976121266
 21
9.7619675503
  0
LINE
  5
55C
100
AcDbEntity
  8
03__ASM_ALL_CURVES
100
AcDbLine
 62
4
  6
CONTINUOUS
 10
13.1486121283
 20
9.7269675503
 11
13.1419454585
 21
9.7319675503
  0
LINE
  5
55D
100
AcDbEntity
  8
03__ASM_ALL_CURVES
100
AcDbLine
 62
4
  6
CONTINUOUS
 10
13.1819454609
 20
9.7419675503
 11
13.1952787934
 21
9.7319675503
  0
LINE
  5
55E
100
AcDbEntity
  8
03__ASM_ALL_CURVES
100
AcDbLine
 62
4
  6
CONTINUOUS
 10
13.0442787934
 20
9.8469675503
 11
13.0509454585
 21
9.8419675503
  0
LINE
  5
55F
100
AcDbEntity
  8
03__ASM_ALL_CURVES
100
AcDbLine
 62
4
  6
CONTINUOUS
 10
13.1619454585
 20
9.7669675503
 11
13.1686121283
 21
9.7619675503
  0
LINE
  5
560
100
AcDbEntity
  8
03__ASM_ALL_CURVES
100
AcDbLine
 62
4
  6
CONTINUOUS
 10
13.0842787934
 20
9.8519675503
 11
13.0976121266
 21
9.8419675503
  0
LINE
  5
561
100
AcDbEntity
  8
03__ASM_ALL_CURVES
100
AcDbLine
 62
4
  6
CONTINUOUS
 10
13.1486121283
 20
9.8119675503
 11
13.1419454585
 21
9.8169675503
  0
LINE
  5
562
100
AcDbEntity
  8
03__ASM_ALL_CURVES
100
AcDbLine
 62
4
  6
CONTINUOUS
 10
13.0976121266
 20
9.0419675503
 11
13.1042787934
 21
9.0319675503
  0
LINE
  5
563
100
AcDbEntity
  8
03__ASM_ALL_CURVES
100
AcDbLine
 62
4
  6
CONTINUOUS
 10
13.0309454585
 20
9.1719675503
 11
13.0242787934
 21
9.1819675503
  0
LINE
  5
564
100
AcDbEntity
  8
03__ASM_ALL_CURVES
100
AcDbLine
 62
4
  6
CONTINUOUS
 10
13.1419454585
 20
9.0119675503
 11
13.1352787934
 21
9.0219675503
  0
LINE
  5
565
100
AcDbEntity
  8
03__ASM_ALL_CURVES
100
AcDbLine
 62
4
  6
CONTINUOUS
 10
13.0642787934
 20
9.1719675503
 11
13.0576121283
 21
9.1819675503
  0
LINE
  5
566
100
AcDbEntity
  8
03__ASM_ALL_CURVES
100
AcDbLine
 62
4
  6
CONTINUOUS
 10
13.0509454585
 20
9.2019675503
 11
13.0576121283
 21
9.1919675503
  0
LINE
  5
567
100
AcDbEntity
  8
03__ASM_ALL_CURVES
100
AcDbLine
 62
4
  6
CONTINUOUS
 10
13.1619454585
 20
9.0419675503
 11
13.1686121283
 21
9.0319675503
  0
LINE
  5
568
100
AcDbEntity
  8
03__ASM_ALL_CURVES
100
AcDbLine
 62
4
  6
CONTINUOUS
 10
13.0976121266
 20
9.2019675503
 11
13.1042787934
 21
9.1919675503
  0
LINE
  5
569
100
AcDbEntity
  8
03__ASM_ALL_CURVES
100
AcDbLine
 62
4
  6
CONTINUOUS
 10
13.2086121266
 20
9.0419675503
 11
13.2152787934
 21
9.0319675503
  0
LINE
  5
56A
100
AcDbEntity
  8
03__ASM_ALL_CURVES
100
AcDbLine
 62
4
  6
CONTINUOUS
 10
13.1419454585
 20
9.1719675503
 11
13.1352787934
 21
9.1819675503
  0
LINE
  5
56B
100
AcDbEntity
  8
03__ASM_ALL_CURVES
100
AcDbLine
 62
4
  6
CONTINUOUS
 10
13.1752787934
 20
9.1719675503
 11
13.1686121283
 21
9.1819675503
  0
LINE
  5
56C
100
AcDbEntity
  8
03__ASM_ALL_CURVES
100
AcDbLine
 62
4
  6
CONTINUOUS
 10
13.1619454585
 20
9.2019675503
 11
13.1686121283
 21
9.1919675503
  0
LINE
  5
56D
100
AcDbEntity
  8
03__ASM_ALL_CURVES
100
AcDbLine
 62
4
  6
CONTINUOUS
 10
13.2086121266
 20
9.2019675503
 11
13.2152787934
 21
9.1919675503
  0
LINE
  5
56E
100
AcDbEntity
  8
03__ASM_ALL_CURVES
100
AcDbLine
 62
4
  6
CONTINUOUS
 10
13.0309454585
 20
9.4969675503
 11
13.0242787934
 21
9.5069675503
  0
LINE
  5
56F
100
AcDbEntity
  8
03__ASM_ALL_CURVES
100
AcDbLine
 62
4
  6
CONTINUOUS
 10
13.1686121283
 20
9.0219675503
 11
13.1686121283
 21
9.0319675503
  0
LINE
  5
570
100
AcDbEntity
  8
03__ASM_ALL_CURVES
100
AcDbLine
 62
4
  6
CONTINUOUS
 10
13.1686121283
 20
9.1819675503
 11
13.1686121283
 21
9.1919675503
  0
LINE
  5
571
100
AcDbEntity
  8
03__ASM_ALL_CURVES
100
AcDbLine
 62
4
  6
CONTINUOUS
 10
13.1686121283
 20
9.5819675503
 11
13.1686121283
 21
9.5919675503
  0
LINE
  5
572
100
AcDbEntity
  8
0
100
AcDbLine
 62
7
  6
CONTINUOUS
 10
13.1752787934
 20
6.8499675503
 11
13.1752787934
 21
8.4129675503
  0
LINE
  5
573
100
AcDbEntity
  8
03__ASM_ALL_CURVES
100
AcDbLine
 62
4
  6
CONTINUOUS
 10
13.1752787934
 20
8.5869675503
 11
13.1752787934
 21
8.8269675503
  0
LINE
  5
574
100
AcDbEntity
  8
03__ASM_ALL_CURVES
100
AcDbLine
 62
4
  6
CONTINUOUS
 10
13.2152787934
 20
9.6869675503
 11
13.2152787934
 21
9.6794675503
  0
LINE
  5
575
100
AcDbEntity
  8
03__ASM_ALL_CURVES
100
AcDbLine
 62
4
  6
CONTINUOUS
 10
13.2152787934
 20
9.5919675503
 11
13.2152787934
 21
9.5819675503
  0
LINE
  5
576
100
AcDbEntity
  8
03__ASM_ALL_CURVES
100
AcDbLine
 62
4
  6
CONTINUOUS
 10
13.2152787934
 20
9.1919675503
 11
13.2152787934
 21
9.1819675503
  0
LINE
  5
577
100
AcDbEntity
  8
03__ASM_ALL_CURVES
100
AcDbLine
 62
4
  6
CONTINUOUS
 10
13.2152787934
 20
9.1269675503
 11
13.2152787934
 21
9.1194675503
  0
LINE
  5
578
100
AcDbEntity
  8
03__ASM_ALL_CURVES
100
AcDbLine
 62
4
  6
CONTINUOUS
 10
13.2152787934
 20
9.0319675503
 11
13.2152787934
 21
9.0219675503
  0
LINE
  5
579
100
AcDbEntity
  8
03__ASM_ALL_CURVES
100
AcDbLine
 62
4
  6
CONTINUOUS
 10
13.2152787934
 20
9.7269675503
 11
13.2152787934
 21
9.7669675503
  0
LINE
  5
57A
100
AcDbEntity
  8
03__ASM_ALL_CURVES
100
AcDbLine
 62
4
  6
CONTINUOUS
 10
13.0909454597
 20
9.9119675503
 11
13.1042787934
 21
9.9019675503
  0
LINE
  5
57B
100
AcDbEntity
  8
03__ASM_ALL_CURVES
100
AcDbLine
 62
4
  6
CONTINUOUS
 10
13.2019454597
 20
9.8419675503
 11
13.2086121266
 21
9.8369675503
  0
LINE
  5
57C
100
AcDbEntity
  8
03__ASM_ALL_CURVES
100
AcDbLine
 62
4
  6
CONTINUOUS
 10
13.2019454597
 20
9.9119675503
 11
13.2152787934
 21
9.9019675503
  0
LINE
  5
57D
100
AcDbEntity
  8
03__ASM_ALL_CURVES
100
AcDbLine
 62
4
  6
CONTINUOUS
 10
13.0242787934
 20
10.0719675503
 11
13.0376121283
 21
10.0619675503
  0
LINE
  5
57E
100
AcDbEntity
  8
03__ASM_ALL_CURVES
100
AcDbLine
 62
4
  6
CONTINUOUS
 10
13.0976121266
 20
9.5169675503
 11
13.1042787934
 21
9.5069675503
  0
LINE
  5
57F
100
AcDbEntity
  8
03__ASM_ALL_CURVES
100
AcDbLine
 62
4
  6
CONTINUOUS
 10
13.1419454585
 20
9.4969675503
 11
13.1352787934
 21
9.5069675503
  0
LINE
  5
580
100
AcDbEntity
  8
03__ASM_ALL_CURVES
100
AcDbLine
 62
4
  6
CONTINUOUS
 10
13.1419454585
 20
9.5719675503
 11
13.1352787934
 21
9.5819675503
  0
LINE
  5
581
100
AcDbEntity
  8
03__ASM_ALL_CURVES
100
AcDbLine
 62
4
  6
CONTINUOUS
 10
13.0576121283
 20
9.7319675503
 11
13.0509454585
 21
9.7419675503
  0
LINE
  5
582
100
AcDbEntity
  8
03__ASM_ALL_CURVES
100
AcDbLine
 62
4
  6
CONTINUOUS
 10
13.2086121266
 20
9.5169675503
 11
13.2152787934
 21
9.5069675503
  0
LINE
  5
583
100
AcDbEntity
  8
03__ASM_ALL_CURVES
100
AcDbLine
 62
4
  6
CONTINUOUS
 10
13.1752787934
 20
9.5719675503
 11
13.1686121283
 21
9.5819675503
  0
LINE
  5
584
100
AcDbEntity
  8
03__ASM_ALL_CURVES
100
AcDbLine
 62
4
  6
CONTINUOUS
 10
13.1619454585
 20
9.6019675503
 11
13.1686121283
 21
9.5919675503
  0
LINE
  5
585
100
AcDbEntity
  8
03__ASM_ALL_CURVES
100
AcDbLine
 62
4
  6
CONTINUOUS
 10
13.0309454585
 20
9.8119675503
 11
13.0242787934
 21
9.8219675503
  0
LINE
  5
586
100
AcDbEntity
  8
03__ASM_ALL_CURVES
100
AcDbLine
 62
4
  6
CONTINUOUS
 10
13.0976121266
 20
9.7619675503
 11
13.1042787934
 21
9.7519675503
  0
LINE
  5
587
100
AcDbEntity
  8
03__ASM_ALL_CURVES
100
AcDbLine
 62
4
  6
CONTINUOUS
 10
13.2086121266
 20
9.6019675503
 11
13.2152787934
 21
9.5919675503
  0
LINE
  5
588
100
AcDbEntity
  8
03__ASM_ALL_CURVES
100
AcDbLine
 62
4
  6
CONTINUOUS
 10
13.0509454585
 20
9.8419675503
 11
13.0576121283
 21
9.8319675503
  0
LINE
  5
589
100
AcDbEntity
  8
03__ASM_ALL_CURVES
100
AcDbLine
 62
4
  6
CONTINUOUS
 10
13.0642787934
 20
9.5219675503
 11
13.0709454609
 21
9.5069675503
  0
LINE
  5
58A
100
AcDbEntity
  8
03__ASM_ALL_CURVES
100
AcDbLine
 62
4
  6
CONTINUOUS
 10
13.1752787934
 20
9.5219675503
 11
13.1819454609
 21
9.5069675503
  0
LINE
  5
58B
100
AcDbEntity
  8
0
100
AcDbLine
 62
7
  6
CONTINUOUS
 10
13.1752787934
 20
6.8499675503
 11
13.1442787934
 21
6.8189675503
  0
LINE
  5
58C
100
AcDbEntity
  8
03__ASM_ALL_CURVES
100
AcDbLine
 62
4
  6
CONTINUOUS
 10
13.0309454585
 20
10.2119675503
 11
13.0376121283
 21
10.2069675503
  0
LINE
  5
58D
100
AcDbEntity
  8
03__ASM_ALL_CURVES
100
AcDbLine
 62
4
  6
CONTINUOUS
 10
13.0909454597
 20
10.2469675503
 11
13.0976121266
 21
10.2419675503
  0
LINE
  5
58E
100
AcDbEntity
  8
03__ASM_ALL_CURVES
100
AcDbLine
 62
4
  6
CONTINUOUS
 10
13.0909454597
 20
10.3119675503
 11
13.1042787934
 21
10.3019675503
  0
LINE
  5
58F
100
AcDbEntity
  8
03__ASM_ALL_CURVES
100
AcDbLine
 62
4
  6
CONTINUOUS
 10
13.1419454585
 20
9.7319675503
 11
13.1352787934
 21
9.7419675503
  0
LINE
  5
590
100
AcDbEntity
  8
03__ASM_ALL_CURVES
100
AcDbLine
 62
4
  6
CONTINUOUS
 10
13.0976121266
 20
9.8419675503
 11
13.1042787934
 21
9.8319675503
  0
LINE
  5
591
100
AcDbEntity
  8
03__ASM_ALL_CURVES
100
AcDbLine
 62
4
  6
CONTINUOUS
 10
13.1686121283
 20
9.7619675503
 11
13.1819454609
 21
9.7419675503
  0
LINE
  5
592
100
AcDbEntity
  8
03__ASM_ALL_CURVES
100
AcDbLine
 62
4
  6
CONTINUOUS
 10
13.1419454585
 20
9.8169675503
 11
13.1352787934
 21
9.8269675503
  0
LINE
  5
593
100
AcDbEntity
  8
03__ASM_ALL_CURVES
100
AcDbLine
 62
4
  6
CONTINUOUS
 10
13.2086121266
 20
9.8369675503
 11
13.2152787934
 21
9.8269675503
  0
LINE
  5
594
100
AcDbEntity
  8
03__ASM_ALL_CURVES
100
AcDbLine
 62
4
  6
CONTINUOUS
 10
13.0242787934
 20
10.2219675503
 11
13.0309454585
 21
10.2119675503
  0
LINE
  5
595
100
AcDbEntity
  8
03__ASM_ALL_CURVES
100
AcDbLine
 62
4
  6
CONTINUOUS
 10
13.0976121266
 20
10.2419675503
 11
13.1042787934
 21
10.2319675503
  0
LINE
  5
596
100
AcDbEntity
  8
03__ASM_ALL_CURVES
100
AcDbLine
 62
4
  6
CONTINUOUS
 10
13.1752787934
 20
9.8419675503
 11
13.1819454609
 21
9.8269675503
  0
CIRCLE
  5
597
100
AcDbEntity
  8
0
100
AcDbCircle
 62
7
  6
CONTINUOUS
 10
10.4402787791
 20
7.0069675503
 40
0.148
  0
CIRCLE
  5
598
100
AcDbEntity
  8
0
100
AcDbCircle
 62
7
  6
CONTINUOUS
 10
10.4402787791
 20
8.2569675503
 40
0.148
  0
CIRCLE
  5
599
100
AcDbEntity
  8
0
100
AcDbCircle
 62
7
  6
CONTINUOUS
 10
12.034278761
 20
7.0069675503
 40
0.148
  0
CIRCLE
  5
59A
100
AcDbEntity
  8
0
100
AcDbCircle
 62
7
  6
CONTINUOUS
 10
11.2372788297
 20
7.2099674997
 40
0.125
  0
CIRCLE
  5
59B
100
AcDbEntity
  8
0
100
AcDbCircle
 62
7
  6
CONTINUOUS
 10
11.6912788258
 20
6.9909675178
 40
0.078
  0
CIRCLE
  5
59C
100
AcDbEntity
  8
0
100
AcDbCircle
 62
7
  6
CONTINUOUS
 10
12.034278761
 20
8.2569675503
 40
0.148
  0
CIRCLE
  5
59D
100
AcDbEntity
  8
0
100
AcDbCircle
 62
7
  6
CONTINUOUS
 10
11.2372788297
 20
8.0539675412
 40
0.125
  0
CIRCLE
  5
59E
100
AcDbEntity
  8
0
100
AcDbCircle
 62
7
  6
CONTINUOUS
 10
11.2372788297
 20
7.6319675503
 40
0.065
  0
SPLINE
  5
59F
100
AcDbEntity
  8
0
100
AcDbSpline
 62
7
  6
CONTINUOUS
 70
0
 71
3
 72
26
 73
22
 74
20
 42
0.0000001
 43
0.0000001
 44
0.0000000001
 12
-0.1848127919
 22
0.014282896
 32
0.0
 13
-0.0134221696
 23
0.184859775
 33
0.0
 40
0.0
 40
0.0
 40
0.0
 40
0.0
 40
0.0480023792
 40
0.0961981962
 40
0.1446800331
 40
0.1935364251
 40
0.2428494375
 40
0.2926941319
 40
0.3431357175
 40
0.3942286857
 40
0.4460149862
 40
0.4985221821
 40
0.5517627752
 40
0.6057324305
 40
0.6604096751
 40
0.7157554713
 40
0.771713424
 40
0.8282107356
 40
0.8851595896
 40
0.9424592399
 40
1.0
 40
1.0
 40
1.0
 40
1.0
 10
10.8694081366
 20
7.4965148673
 30
0.0
 10
10.8664509854
 20
7.4967434049
 30
0.0
 10
10.8605431584
 20
7.4974303626
 30
0.0
 10
10.8517633264
 20
7.4991446863
 30
0.0
 10
10.8430905473
 20
7.501542918
 30
0.0
 10
10.8345622743
 20
7.5046226767
 30
0.0
 10
10.8262177093
 20
7.5083801449
 30
0.0
 10
10.8180977697
 20
7.5128095071
 30
0.0
 10
10.8102452322
 20
7.5179023347
 30
0.0
 10
10.802704704
 20
7.5236468717
 30
0.0
 10
10.7955224222
 20
7.5300273152
 30
0.0
 10
10.7887458832
 20
7.5370230975
 30
0.0
 10
10.7824233239
 20
7.5446081959
 30
0.0
 10
10.7766029974
 20
7.5527505683
 30
0.0
 10
10.7713323244
 20
7.5614116927
 30
0.0
 10
10.7666568879
 20
7.570546327
 30
0.0
 10
10.7626193469
 20
7.580102482
 30
0.0
 10
10.7592583059
 20
7.5900216596
 30
0.0
 10
10.756607199
 20
7.6002393692
 30
0.0
 10
10.7546932441
 20
7.610685995
 30
0.0
 10
10.7539232336
 20
7.6177438643
 30
0.0
 10
10.753665793
 20
7.6212895216
 30
0.0
 11
10.8694081366
 21
7.4965148673
 31
0.0
 11
10.8605724901
 21
7.4975417517
 31
0.0
 11
10.851806913
 21
7.4992525349
 31
0.0
 11
10.8431476251
 21
7.5016459348
 31
0.0
 11
10.8346320258
 21
7.5047197145
 31
0.0
 11
10.8262991578
 21
7.5084701965
 31
0.0
 11
10.8181897406
 21
7.512891789
 31
0.0
 11
10.8103464782
 21
7.5179762605
 31
0.0
 11
10.8028138934
 21
7.5237120985
 31
0.0
 11
10.7956381759
 21
7.5300837608
 31
0.0
 11
10.7888668678
 21
7.5370708989
 31
0.0
 11
10.7825482381
 21
7.5446477543
 31
0.0
 11
10.7767306665
 21
7.5527824735
 31
0.0
 11
10.7714617182
 21
7.5614367103
 31
0.0
 11
10.7667871598
 21
7.5705653421
 31
0.0
 11
10.7627498603
 21
7.5801164298
 31
0.0
 11
10.7593886371
 21
7.5900314681
 31
0.0
 11
10.7567371321
 21
7.6002458857
 31
0.0
 11
10.7548227612
 21
7.6106898408
 31
0.0
 11
10.753665793
 21
7.6212895216
 31
0.0
  0
SPLINE
  5
5A0
100
AcDbEntity
  8
0
100
AcDbSpline
 62
7
  6
CONTINUOUS
 70
0
 71
3
 72
8
 73
4
 74
2
 42
0.0000001
 43
0.0000001
 44
0.0000000001
 12
-0.0007739447
 22
0.0106593227
 32
0.0
 13
-0.0
 23
0.0106873812
 33
0.0
 40
0.0
 40
0.0
 40
0.0
 40
0.0
 40
1.0
 40
1.0
 40
1.0
 40
1.0
 10
10.753665793
 20
7.6212895216
 30
0.0
 10
10.7534078114
 20
7.6248426292
 30
0.0
 10
10.7532787429
 20
7.6284050896
 30
0.0
 10
10.7532787429
 20
7.6319675499
 30
0.0
 11
10.753665793
 21
7.6212895216
 31
0.0
 11
10.7532787429
 21
7.6319675499
 31
0.0
  0
SPLINE
  5
5A1
100
AcDbEntity
  8
0
100
AcDbSpline
 62
7
  6
CONTINUOUS
 70
0
 71
3
 72
8
 73
4
 74
2
 42
0.0000001
 43
0.0000001
 44
0.0000000001
 12
-0.000773957
 22
0.0106594072
 32
0.0
 13
-0.0
 23
0.0106874664
 33
0.0
 40
0.0
 40
0.0
 40
0.0
 40
0.0
 40
1.0
 40
1.0
 40
1.0
 40
1.0
 10
11.470665926
 20
7.6212894363
 30
0.0
 10
11.4704079404
 20
7.6248425721
 30
0.0
 10
11.4702788697
 20
7.6284050609
 30
0.0
 10
11.4702788697
 20
7.6319675497
 30
0.0
 11
11.470665926
 21
7.6212894363
 31
0.0
 11
11.4702788697
 21
7.6319675497
 31
0.0
  0
SPLINE
  5
5A2
100
AcDbEntity
  8
0
100
AcDbSpline
 62
7
  6
CONTINUOUS
 70
0
 71
3
 72
8
 73
4
 74
2
 42
0.0000001
 43
0.0000001
 44
0.0000000001
 12
0.0092811861
 22
-0.0006974483
 32
0.0
 13
0.0093045924
 23
0.0
 33
0.0
 40
0.0
 40
0.0
 40
0.0
 40
0.0
 40
1.0
 40
1.0
 40
1.0
 40
1.0
 10
11.5859808209
 20
7.5063777172
 30
0.0
 10
11.5890745496
 20
7.5061452345
 30
0.0
 10
11.5921773389
 20
7.5060288221
 30
0.0
 10
11.5952788697
 20
7.5060288221
 30
0.0
 11
11.5859808209
 21
7.5063777172
 31
0.0
 11
11.5952788697
 21
7.5060288221
 31
0.0
  0
SPLINE
  5
5A3
100
AcDbEntity
  8
0
100
AcDbSpline
 62
7
  6
CONTINUOUS
 70
0
 71
3
 72
18
 73
14
 74
12
 42
0.0000001
 43
0.0000001
 44
0.0000000001
 12
0.0628377176
 22
-0.0765253553
 32
0.0
 13
0.0986241138
 23
-0.0088611078
 33
0.0
 40
0.0
 40
0.0
 40
0.0
 40
0.0
 40
0.0749950175
 40
0.1697742593
 40
0.26443502
 40
0.3589801445
 40
0.4534149682
 40
0.5477473871
 40
0.6419874054
 40
0.736147165
 40
0.8302405018
 40
0.9242827123
 40
1.0
 40
1.0
 40
1.0
 40
1.0
 10
10.7819657705
 20
7.5516897501
 30
0.0
 10
10.7835366091
 20
7.5497767433
 30
0.0
 10
10.7872205685
 20
7.545551072
 30
0.0
 10
10.7933876255
 20
7.53936624
 30
0.0
 10
10.8004885715
 20
7.5332377722
 30
0.0
 10
10.8080187717
 20
7.5276642193
 30
0.0
 10
10.815935651
 20
7.5226753844
 30
0.0
 10
10.8241947828
 20
7.5182977337
 30
0.0
 10
10.8327501443
 20
7.5145543174
 30
0.0
 10
10.8415543809
 20
7.511464714
 30
0.0
 10
10.8505589712
 20
7.5090449864
 30
0.0
 10
10.859121221
 20
7.5074202778
 30
0.0
 10
10.8646864985
 20
7.5067502645
 30
0.0
 10
10.867175682
 20
7.5065266181
 30
0.0
 11
10.7819657705
 21
7.5516897501
 31
0.0
 11
10.7868450163
 21
7.5460932279
 31
0.0
 11
10.7934701956
 21
7.5394492319
 31
0.0
 11
10.8005645732
 21
7.5333266895
 31
0.0
 11
10.808087713
 21
7.5277585958
 31
0.0
 11
10.8159970688
 21
7.5227747106
 31
0.0
 11
10.8242482613
 21
7.518401451
 31
0.0
 11
10.8327953103
 21
7.5146618294
 31
0.0
 11
10.8415909054
 21
7.5115753848
 31
0.0
 11
10.8505866299
 21
7.5091581491
 31
0.0
 11
10.8597332001
 21
7.5074226151
 31
0.0
 11
10.867175682
 21
7.5065266181
 31
0.0
  0
SPLINE
  5
5A4
100
AcDbEntity
  8
0
100
AcDbSpline
 62
7
  6
CONTINUOUS
 70
0
 71
3
 72
9
 73
5
 74
3
 42
0.0000001
 43
0.0000001
 44
0.0000000001
 12
0.0110735325
 22
-0.0009949267
 32
0.0
 13
0.0111152494
 23
0.0
 33
0.0
 40
0.0
 40
0.0
 40
0.0
 40
0.0
 40
0.1628980426
 40
1.0
 40
1.0
 40
1.0
 40
1.0
 10
10.867175682
 20
7.5065266181
 30
0.0
 10
10.8677769675
 20
7.5064725942
 30
0.0
 10
10.871470624
 20
7.5061678882
 30
0.0
 10
10.8751772105
 20
7.5060288221
 30
0.0
 10
10.8782787429
 20
7.5060288221
 30
0.0
 11
10.867175682
 21
7.5065266181
 31
0.0
 11
10.8689806895
 21
7.5063777176
 31
0.0
 11
10.8782787429
 21
7.5060288221
 31
0.0
  0
SPLINE
  5
5A5
100
AcDbEntity
  8
0
100
AcDbSpline
 62
7
  6
CONTINUOUS
 70
0
 71
3
 72
8
 73
4
 74
2
 42
0.0000001
 43
0.0000001
 44
0.0000000001
 12
0.0088053437
 22
0.0013601571
 32
0.0
 13
0.0086853362
 23
0.0019879598
 33
0.0
 40
0.0
 40
0.0
 40
0.0
 40
0.0
 40
1.0
 40
1.0
 40
1.0
 40
1.0
 10
10.8972217104
 20
7.5074833461
 30
0.0
 10
10.9001568249
 20
7.5079367318
 30
0.0
 10
10.90307574
 20
7.508495495
 30
0.0
 10
10.9059708521
 20
7.5091581482
 30
0.0
 11
10.8972217104
 21
7.5074833461
 31
0.0
 11
10.9059708521
 21
7.5091581482
 31
0.0
  0
SPLINE
  5
5A6
100
AcDbEntity
  8
0
100
AcDbSpline
 62
7
  6
CONTINUOUS
 70
0
 71
3
 72
16
 73
12
 74
10
 42
0.0000001
 43
0.0000001
 44
0.0000000001
 12
0.0801374402
 22
0.0183424113
 32
0.0
 13
0.0521704205
 23
0.063534452
 33
0.0
 40
0.0
 40
0.0
 40
0.0
 40
0.0
 40
0.113332563
 40
0.2267451278
 40
0.3402543503
 40
0.4538748571
 40
0.5676187006
 40
0.6814953926
 40
0.7955113628
 40
0.9096700389
 40
1.0
 40
1.0
 40
1.0
 40
1.0
 10
10.9059708521
 20
7.5091581482
 30
0.0
 10
10.9089982459
 20
7.5098510791
 30
0.0
 10
10.9150030965
 20
7.5114647115
 30
0.0
 10
10.9238073283
 20
7.5145543124
 30
0.0
 10
10.9323626849
 20
7.5182977252
 30
0.0
 10
10.9406218116
 20
7.5226753712
 30
0.0
 10
10.9485386859
 20
7.5276642003
 30
0.0
 10
10.9560688817
 20
7.5332377464
 30
0.0
 10
10.9631698238
 20
7.5393662064
 30
0.0
 10
10.9693368932
 20
7.5455510455
 30
0.0
 10
10.9730208644
 20
7.5497767283
 30
0.0
 10
10.9745917151
 20
7.5516897499
 30
0.0
 11
10.9059708521
 21
7.5091581482
 31
0.0
 11
10.9149665721
 21
7.5115753822
 31
0.0
 11
10.9237621627
 21
7.5146618244
 31
0.0
 11
10.9323092068
 21
7.5184014424
 31
0.0
 11
10.9405603941
 21
7.5227746974
 31
0.0
 11
10.9484697449
 21
7.5277585767
 31
0.0
 11
10.9559928802
 21
7.5333266636
 31
0.0
 11
10.963087254
 21
7.5394491982
 31
0.0
 11
10.9697124304
 21
7.5460931857
 31
0.0
 11
10.9745917151
 21
7.5516897499
 31
0.0
  0
SPLINE
  5
5A7
100
AcDbEntity
  8
0
100
AcDbSpline
 62
7
  6
CONTINUOUS
 70
0
 71
3
 72
8
 73
4
 74
2
 42
0.0000001
 43
0.0000001
 44
0.0000000001
 12
0.0093045982
 22
0.0
 32
0.0
 13
0.0092811919
 23
0.0006974492
 33
0.0
 40
0.0
 40
0.0
 40
0.0
 40
0.0
 40
1.0
 40
1.0
 40
1.0
 40
1.0
 10
11.5952788697
 20
7.5060288221
 30
0.0
 10
11.5983804024
 20
7.5060288221
 30
0.0
 10
11.6014831937
 20
7.5061452346
 30
0.0
 10
11.6045769243
 20
7.5063777177
 30
0.0
 11
11.5952788697
 21
7.5060288221
 31
0.0
 11
11.6045769243
 21
7.5063777177
 31
0.0
  0
SPLINE
  5
5A8
100
AcDbEntity
  8
0
100
AcDbSpline
 62
7
  6
CONTINUOUS
 70
0
 71
3
 72
18
 73
14
 74
12
 42
0.0000001
 43
0.0000001
 44
0.0000000001
 12
0.1005527227
 22
0.0075561864
 32
0.0
 13
0.0639870325
 23
0.07792502
 33
0.0
 40
0.0
 40
0.0
 40
0.0
 40
0.0
 40
0.0923189447
 40
0.1846719705
 40
0.2770751928
 40
0.3695436346
 40
0.4620908841
 40
0.5547288668
 40
0.6474674093
 40
0.740314267
 40
0.8332746821
 40
0.9263514493
 40
1.0
 40
1.0
 40
1.0
 40
1.0
 10
11.6045769243
 20
7.5063777177
 30
0.0
 10
11.6076712314
 20
7.506610244
 30
0.0
 10
11.6138428565
 20
7.5073076532
 30
0.0
 10
11.6229986364
 20
7.5090449854
 30
0.0
 10
11.6320032231
 20
7.5114647115
 30
0.0
 10
11.6408074552
 20
7.5145543124
 30
0.0
 10
11.6493628118
 20
7.5182977252
 30
0.0
 10
11.6576219385
 20
7.5226753712
 30
0.0
 10
11.6655388127
 20
7.5276642003
 30
0.0
 10
11.6730690085
 20
7.5332377464
 30
0.0
 10
11.6801699506
 20
7.5393662064
 30
0.0
 10
11.6863370201
 20
7.5455510456
 30
0.0
 10
11.6900209913
 20
7.5497767285
 30
0.0
 10
11.6915918421
 20
7.5516897501
 30
0.0
 11
11.6045769243
 21
7.5063777177
 31
0.0
 11
11.6138244107
 21
7.5074226148
 31
0.0
 11
11.6229709781
 21
7.509158148
 31
0.0
 11
11.6319666989
 21
7.5115753822
 31
0.0
 11
11.6407622895
 21
7.5146618244
 31
0.0
 11
11.6493093336
 21
7.5184014424
 31
0.0
 11
11.6575605209
 21
7.5227746974
 31
0.0
 11
11.6654698717
 21
7.5277585767
 31
0.0
 11
11.672993007
 21
7.5333266636
 31
0.0
 11
11.6800873808
 21
7.5394491982
 31
0.0
 11
11.6867125572
 21
7.5460931857
 31
0.0
 11
11.6915918421
 21
7.5516897501
 31
0.0
  0
SPLINE
  5
5A9
100
AcDbEntity
  8
0
100
AcDbSpline
 62
7
  6
CONTINUOUS
 70
0
 71
3
 72
27
 73
23
 74
21
 42
0.0000001
 43
0.0000001
 44
0.0000000001
 12
0.0000000006
 22
-0.1960336958
 32
0.0
 13
-0.1954693352
 23
-0.0151065767
 33
0.0
 40
0.0
 40
0.0
 40
0.0
 40
0.0
 40
0.0545145426
 40
0.10891654
 40
0.1630918307
 40
0.2169354778
 40
0.2703522803
 40
0.323259235
 40
0.3755874485
 40
0.4272837693
 40
0.478311078
 40
0.5286493409
 40
0.5782942557
 40
0.6272576701
 40
0.6755657228
 40
0.7232579148
 40
0.7703859457
 40
0.8170112781
 40
0.8632049197
 40
0.9090444397
 40
0.9546135009
 40
1.0
 40
1.0
 40
1.0
 40
1.0
 10
11.7202788697
 20
7.6319675508
 30
0.0
 10
11.7202788697
 20
7.6284053217
 30
0.0
 10
11.7200210326
 20
7.6212882177
 30
0.0
 10
11.7188645018
 20
7.6106869462
 30
0.0
 10
11.7169506574
 20
7.600240484
 30
0.0
 10
11.7142996573
 20
7.5900228413
 30
0.0
 10
11.7109387292
 20
7.5801037072
 30
0.0
 10
11.7069013033
 20
7.5705475713
 30
0.0
 10
11.7022259759
 20
7.5614129249
 30
0.0
 10
11.6969554045
 20
7.5527517647
 30
0.0
 10
11.6911351594
 20
7.5446093229
 30
0.0
 10
11.6848126611
 20
7.5370241329
 30
0.0
 10
11.6780361543
 20
7.5300282367
 30
0.0
 10
11.6708538769
 20
7.5236476662
 30
0.0
 10
11.6633133252
 20
7.5179029965
 30
0.0
 10
11.6554607295
 20
7.5128100319
 30
0.0
 10
11.6473407055
 20
7.5083805396
 30
0.0
 10
11.6389960287
 20
7.5046229523
 30
0.0
 10
11.6304676284
 20
7.5015430931
 30
0.0
 10
11.6217947103
 20
7.4991447822
 30
0.0
 10
11.6130147115
 20
7.4974303979
 30
0.0
 10
11.6071067636
 20
7.4967434172
 30
0.0
 10
11.6041495406
 20
7.4965148723
 30
0.0
 11
11.7202788697
 21
7.6319675508
 31
0.0
 11
11.7198918699
 21
7.6212902145
 31
0.0
 11
11.7187350019
 21
7.6106908716
 31
0.0
 11
11.7168207271
 21
7.6002470008
 31
0.0
 11
11.7141693296
 21
7.5900326531
 31
0.0
 11
11.7108082199
 21
7.5801176596
 31
0.0
 11
11.7067710337
 21
7.5705665871
 31
0.0
 11
11.7020965895
 21
7.5614379527
 31
0.0
 11
11.6968277356
 21
7.5527836684
 31
0.0
 11
11.6910102553
 21
7.544648894
 31
0.0
 11
11.6846916782
 21
7.5370719368
 31
0.0
 11
11.6779204035
 21
7.5300846863
 31
0.0
 11
11.6707446942
 21
7.5237129006
 31
0.0
 11
11.6632120775
 21
7.5179769238
 31
0.0
 11
11.6553687669
 21
7.512892322
 31
0.0
 11
11.6472592545
 21
7.5084705938
 31
0.0
 11
11.6389262774
 21
7.5047199941
 31
0.0
 11
11.6304105497
 21
7.5016461137
 31
0.0
 11
11.6217511204
 21
7.4992526339
 31
0.0
 11
11.6129854001
 21
7.4975417949
 31
0.0
 11
11.6041495406
 21
7.4965148723
 31
0.0
  0
SPLINE
  5
5AA
100
AcDbEntity
  8
0
100
AcDbSpline
 62
7
  6
CONTINUOUS
 70
0
 71
3
 72
8
 73
4
 74
2
 42
0.0000001
 43
0.0000001
 44
0.0000000001
 12
-0.0088536574
 22
-0.0006842426
 32
0.0
 13
-0.0088772754
 23
0.0
 33
0.0
 40
0.0
 40
0.0
 40
0.0
 40
0.0
 40
1.0
 40
1.0
 40
1.0
 40
1.0
 10
11.6041495406
 20
7.4965148723
 30
0.0
 10
11.6011983215
 20
7.4962867914
 30
0.0
 10
11.5982379615
 20
7.4961725031
 30
0.0
 10
11.5952788697
 20
7.4961725031
 30
0.0
 11
11.6041495406
 21
7.4965148723
 31
0.0
 11
11.5952788697
 21
7.4961725031
 31
0.0
  0
SPLINE
  5
5AB
100
AcDbEntity
  8
0
100
AcDbSpline
 62
7
  6
CONTINUOUS
 70
0
 71
3
 72
28
 73
24
 74
22
 42
0.0000001
 43
0.0000001
 44
0.0000000001
 12
0.0000000003
 22
-0.2049129164
 32
0.0
 13
-0.2048680447
 23
0.0
 33
0.0
 40
0.0
 40
0.0
 40
0.0
 40
0.0
 40
0.0521542473
 40
0.104199434
 40
0.1560276759
 40
0.2075386055
 40
0.2586411401
 40
0.3092558203
 40
0.3593168287
 40
0.4087731663
 40
0.4575894957
 40
0.5057464662
 40
0.5532400827
 40
0.6000816971
 40
0.6462962147
 40
0.6919215636
 40
0.7370070477
 40
0.7816115969
 40
0.8258031197
 40
0.8696558074
 40
0.9132497301
 40
0.9566689268
 40
1.0
 40
1.0
 40
1.0
 40
1.0
 10
11.0032787429
 20
7.6319675505
 30
0.0
 10
11.0032787429
 20
7.6284051909
 30
0.0
 10
11.0030208903
 20
7.6212879209
 30
0.0
 10
11.0018643059
 20
7.6106864565
 30
0.0
 10
10.9999504055
 20
7.6002399075
 30
0.0
 10
10.9972993392
 20
7.5900221938
 30
0.0
 10
10.9939383384
 20
7.5801030076
 30
0.0
 10
10.9899008355
 20
7.5705468367
 30
0.0
 10
10.9852254334
 20
7.5614121792
 30
0.0
 10
10.9799547895
 20
7.552751024
 30
0.0
 10
10.9741344833
 20
7.5446086112
 30
0.0
 10
10.9678119347
 20
7.537023466
 30
0.0
 10
10.9610353937
 20
7.5300276301
 30
0.0
 10
10.9538530986
 20
7.523647131
 30
0.0
 10
10.9463125451
 20
7.5179025382
 30
0.0
 10
10.9384599714
 20
7.5128096575
 30
0.0
 10
10.9303399881
 20
7.5083802484
 30
0.0
 10
10.9219953738
 20
7.5046227408
 30
0.0
 10
10.9134670519
 20
7.5015429527
 30
0.0
 10
10.9047942278
 20
7.4991447013
 30
0.0
 10
10.8960143396
 20
7.4974303629
 30
0.0
 10
10.8871644518
 20
7.4964013058
 30
0.0
 10
10.8812377936
 20
7.4961725031
 30
0.0
 10
10.8782787429
 20
7.4961725031
 30
0.0
 11
11.0032787429
 21
7.6319675505
 31
0.0
 11
11.0028917147
 21
7.6212898236
 31
0.0
 11
11.001734803
 21
7.6106903785
 31
0.0
 11
10.9998204724
 21
7.6002464227
 31
0.0
 11
10.9971690087
 21
7.5900320037
 31
0.0
 11
10.9938078251
 21
7.580116955
 31
0.0
 11
10.9897705645
 21
7.5705658533
 31
0.0
 11
10.9850960409
 21
7.5614371988
 31
0.0
 11
10.9798271207
 21
7.5527829297
 31
0.0
 11
10.9740095721
 21
7.5446481741
 31
0.0
 11
10.96769095
 21
7.5370712681
 31
0.0
 11
10.9609196419
 21
7.5300840787
 31
0.0
 11
10.9537439099
 21
7.5237123597
 31
0.0
 11
10.946211299
 21
7.5179764655
 31
0.0
 11
10.9383680014
 21
7.5128919416
 31
0.0
 11
10.9302585373
 21
7.5084703005
 31
0.0
 11
10.9219256211
 21
7.5047197797
 31
0.0
 11
10.9134099707
 21
7.5016459698
 31
0.0
 11
10.9047506372
 21
7.49925255
 31
0.0
 11
10.8959850239
 21
7.4975417561
 31
0.0
 11
10.8871492909
 21
7.4965148628
 31
0.0
 11
10.8782787429
 21
7.4961725031
 31
0.0
  0
SPLINE
  5
5AC
100
AcDbEntity
  8
0
100
AcDbSpline
 62
7
  6
CONTINUOUS
 70
0
 71
3
 72
20
 73
16
 74
14
 42
0.0000001
 43
0.0000001
 44
0.0000000001
 12
0.0691401324
 22
0.0911385896
 32
0.0
 13
0.1143723166
 23
0.0
 33
0.0
 40
0.0
 40
0.0
 40
0.0
 40
0.0
 40
0.0690114614
 40
0.1483127784
 40
0.227227929
 40
0.3057212132
 40
0.3839305539
 40
0.4617155619
 40
0.5392658158
 40
0.6165050995
 40
0.693481432
 40
0.7703234717
 40
0.846926616
 40
0.9235133323
 40
1.0
 40
1.0
 40
1.0
 40
1.0
 10
11.4966080579
 20
7.5487400558
 30
0.0
 10
11.4981985451
 20
7.5508365915
 30
0.0
 10
11.5017558642
 20
7.5552366711
 30
0.0
 10
11.507644056
 20
7.5616008199
 30
0.0
 10
11.5142360257
 20
7.5677752702
 30
0.0
 10
11.5212200719
 20
7.5734365412
 30
0.0
 10
11.5285558143
 20
7.5785591161
 30
0.0
 10
11.5362083882
 20
7.5831251983
 30
0.0
 10
11.5441351586
 20
7.5871151213
 30
0.0
 10
11.5522989008
 20
7.5905150762
 30
0.0
 10
11.5606596178
 20
7.5933128789
 30
0.0
 10
11.5691758521
 20
7.5954981568
 30
0.0
 10
11.5778123094
 20
7.5970646462
 30
0.0
 10
11.586524933
 20
7.5980064234
 30
0.0
 10
11.5923628839
 20
7.598215967
 30
0.0
 10
11.5952788697
 20
7.598215967
 30
0.0
 11
11.4966080579
 21
7.5487400558
 31
0.0
 11
11.5015709677
 21
7.5548780972
 31
0.0
 11
11.5077309809
 21
7.5615351894
 31
0.0
 11
11.514318715
 21
7.5677048876
 31
0.0
 11
11.5212930761
 21
7.5733575907
 31
0.0
 11
11.5286272369
 21
7.5784784123
 31
0.0
 11
11.536267326
 21
7.58303647
 31
0.0
 11
11.5441901035
 21
7.5870238801
 31
0.0
 11
11.5523453188
 21
7.5904198561
 31
0.0
 11
11.5606943246
 21
7.5932133912
 31
0.0
 11
11.5692072019
 21
7.5953975267
 31
0.0
 11
11.5778278545
 21
7.5969609716
 31
0.0
 11
11.5865365424
 21
7.5979021654
 31
0.0
 11
11.5952788697
 21
7.598215967
 31
0.0
  0
SPLINE
  5
5AD
100
AcDbEntity
  8
0
100
AcDbSpline
 62
7
  6
CONTINUOUS
 70
0
 71
3
 72
20
 73
16
 74
14
 42
0.0000001
 43
0.0000001
 44
0.0000000001
 12
0.1143723145
 22
0.0
 32
0.0
 13
0.0691401336
 23
-0.0911385876
 33
0.0
 40
0.0
 40
0.0
 40
0.0
 40
0.0
 40
0.0764773656
 40
0.1530687178
 40
0.2296830844
 40
0.3065293084
 40
0.383489169
 40
0.4607219494
 40
0.5382776042
 40
0.6160681742
 40
0.6942769557
 40
0.7727671137
 40
0.8516835851
 40
0.9309838839
 40
1.0
 40
1.0
 40
1.0
 40
1.0
 10
11.5952788697
 20
7.598215967
 30
0.0
 10
11.5981945008
 20
7.598215967
 30
0.0
 10
11.6040322729
 20
7.5980064554
 30
0.0
 10
11.6127451524
 20
7.5970647083
 30
0.0
 10
11.6213823628
 20
7.5954980744
 30
0.0
 10
11.6298985409
 20
7.5933127375
 30
0.0
 10
11.6382585679
 20
7.5905151442
 30
0.0
 10
11.6464217182
 20
7.5871155159
 30
0.0
 10
11.6543486767
 20
7.5831255859
 30
0.0
 10
11.6620016094
 20
7.5785593283
 30
0.0
 10
11.6693374176
 20
7.5734367231
 30
0.0
 10
11.6763214106
 20
7.5677755312
 30
0.0
 10
11.682913326
 20
7.5616011802
 30
0.0
 10
11.6888016698
 20
7.555236915
 30
0.0
 10
11.6923590856
 20
7.5508367347
 30
0.0
 10
11.6939496801
 20
7.5487400576
 30
0.0
 11
11.5952788697
 21
7.598215967
 31
0.0
 11
11.604020135
 21
7.5979022418
 31
0.0
 11
11.6127293561
 21
7.596961048
 31
0.0
 11
11.6213512701
 21
7.5953973665
 31
0.0
 11
11.6298645931
 21
7.5932130434
 31
0.0
 11
11.6382118057
 21
7.5904200867
 31
0.0
 11
11.6463663625
 21
7.5870244648
 31
0.0
 11
11.6542897269
 21
7.583036847
 31
0.0
 11
11.6619303791
 21
7.5784784921
 31
0.0
 11
11.6692644947
 21
7.5733577177
 31
0.0
 11
11.6762385955
 21
7.5677052614
 31
0.0
 11
11.6828264638
 21
7.5615354859
 31
0.0
 11
11.6889864228
 21
7.5548785024
 31
0.0
 11
11.6939496801
 21
7.5487400576
 31
0.0
  0
SPLINE
  5
5AE
100
AcDbEntity
  8
0
100
AcDbSpline
 62
7
  6
CONTINUOUS
 70
0
 71
3
 72
20
 73
16
 74
14
 42
0.0000001
 43
0.0000001
 44
0.0000000001
 12
0.0691401036
 22
0.0911390098
 32
0.0
 13
0.1143726185
 23
0.0
 33
0.0
 40
0.0
 40
0.0
 40
0.0
 40
0.0
 40
0.0687794727
 40
0.1482030593
 40
0.2271324677
 40
0.3055358363
 40
0.383712841
 40
0.4617936278
 40
0.5395760944
 40
0.6168702603
 40
0.6937272819
 40
0.7704961451
 40
0.8470670057
 40
0.9235777659
 40
1.0
 40
1.0
 40
1.0
 40
1.0
 10
10.7796077389
 20
7.5487398023
 30
0.0
 10
10.7811928789
 20
7.5508292999
 30
0.0
 10
10.7847470994
 20
7.5552265035
 30
0.0
 10
10.7906318543
 20
7.5615889329
 30
0.0
 10
10.797224555
 20
7.5677652433
 30
0.0
 10
10.8042046706
 20
7.5734248277
 30
0.0
 10
10.8115448964
 20
7.5785525684
 30
0.0
 10
10.8192134844
 20
7.583128893
 30
0.0
 10
10.8271608952
 20
7.5871274304
 30
0.0
 10
10.8353316432
 20
7.5905273061
 30
0.0
 10
10.8436881719
 20
7.593321069
 30
0.0
 10
10.8521965333
 20
7.5955025593
 30
0.0
 10
10.8608264257
 20
7.5970665552
 30
0.0
 10
10.869532597
 20
7.5980067911
 30
0.0
 10
10.8753652059
 20
7.598215967
 30
0.0
 10
10.8782787429
 20
7.598215967
 30
0.0
 11
10.7796077389
 21
7.5487398023
 31
0.0
 11
10.7845533347
 21
7.5548577634
 31
0.0
 11
10.7907218204
 21
7.5615261009
 31
0.0
 11
10.797310176
 21
7.5676975558
 31
0.0
 11
10.8042758332
 21
7.5733447029
 31
0.0
 11
10.8116060274
 21
7.5784647863
 31
0.0
 11
10.8192748882
 21
7.5830406911
 31
0.0
 11
10.8272221237
 21
7.5870386335
 31
0.0
 11
10.8353842171
 21
7.5904344804
 31
0.0
 11
10.8437210954
 21
7.5932213272
 31
0.0
 11
10.8522263134
 21
7.5954017313
 31
0.0
 11
10.8608435838
 21
7.5969632624
 31
0.0
 11
10.8695437477
 21
7.5979026922
 31
0.0
 11
10.8782787429
 21
7.598215967
 31
0.0
  0
SPLINE
  5
5AF
100
AcDbEntity
  8
0
100
AcDbSpline
 62
7
  6
CONTINUOUS
 70
0
 71
3
 72
20
 73
16
 74
14
 42
0.0000001
 43
0.0000001
 44
0.0000000001
 12
0.1143726076
 22
0.0
 32
0.0
 13
0.0691401034
 23
-0.0911389931
 33
0.0
 40
0.0
 40
0.0
 40
0.0
 40
0.0
 40
0.0764240612
 40
0.1529349104
 40
0.2295077807
 40
0.3062756798
 40
0.3831330713
 40
0.4604293193
 40
0.5382101686
 40
0.6162851223
 40
0.6944550649
 40
0.7728609158
 40
0.851792247
 40
0.9312145261
 40
1.0
 40
1.0
 40
1.0
 40
1.0
 10
10.8782787429
 20
7.598215967
 30
0.0
 10
10.8811923493
 20
7.598215967
 30
0.0
 10
10.8870250308
 20
7.5980067835
 30
0.0
 10
10.8957313484
 20
7.5970665164
 30
0.0
 10
10.9043612788
 20
7.5955024894
 30
0.0
 10
10.9128696845
 20
7.5933209588
 30
0.0
 10
10.9212262582
 20
7.5905271539
 30
0.0
 10
10.9293970216
 20
7.5871272332
 30
0.0
 10
10.9373442315
 20
7.5831287549
 30
0.0
 10
10.9450123388
 20
7.5785527094
 30
0.0
 10
10.9523522635
 20
7.5734252355
 30
0.0
 10
10.9593323411
 20
7.5677657655
 30
0.0
 10
10.9659251597
 20
7.5615894089
 30
0.0
 10
10.9718101165
 20
7.5552268237
 30
0.0
 10
10.9753644616
 20
7.550829491
 30
0.0
 10
10.9769497399
 20
7.5487398114
 30
0.0
 11
10.8782787429
 21
7.598215967
 31
0.0
 11
10.8870139457
 21
7.5979026773
 31
0.0
 11
10.8957141173
 21
7.5969632313
 31
0.0
 11
10.9043316089
 21
7.5954016359
 31
0.0
 11
10.9128367122
 21
7.5932212323
 31
0.0
 11
10.9211736218
 21
7.5904343481
 31
0.0
 11
10.9293359206
 21
7.5870383773
 31
0.0
 11
10.9372829733
 21
7.5830404849
 31
0.0
 11
10.9449512569
 21
7.5784649165
 31
0.0
 11
10.9522808147
 21
7.5733453339
 31
0.0
 11
10.9592467325
 21
7.5676980589
 31
0.0
 11
10.9658352801
 21
7.5615264885
 31
0.0
 11
10.9720036963
 21
7.5548582917
 31
0.0
 11
10.9769497399
 21
7.5487398114
 31
0.0
  0
SPLINE
  5
5B0
100
AcDbEntity
  8
0
100
AcDbSpline
 62
7
  6
CONTINUOUS
 70
0
 71
3
 72
28
 73
24
 74
22
 42
0.0000001
 43
0.0000001
 44
0.0000000001
 12
-0.0000000004
 22
0.204912998
 32
0.0
 13
0.2048681264
 23
0.0
 33
0.0
 40
0.0
 40
0.0
 40
0.0
 40
0.0
 40
0.0521537723
 40
0.1041989623
 40
0.1560272083
 40
0.2075381426
 40
0.2586406824
 40
0.309255368
 40
0.3593163819
 40
0.4087727251
 40
0.4575890599
 40
0.5057460356
 40
0.5532396568
 40
0.6000812757
 40
0.6462957973
 40
0.6919211497
 40
0.737006637
 40
0.7816111889
 40
0.8258027141
 40
0.8696554039
 40
0.9132493286
 40
0.9566685269
 40
1.0
 40
1.0
 40
1.0
 40
1.0
 10
10.7532787429
 20
7.6319675499
 30
0.0
 10
10.7532787429
 20
7.6355298786
 30
0.0
 10
10.7535365922
 20
7.6426471192
 30
0.0
 10
10.754693167
 20
7.6532485568
 30
0.0
 10
10.7566070622
 20
7.6636951118
 30
0.0
 10
10.7592581241
 20
7.673912832
 30
0.0
 10
10.7626191214
 20
7.6838320249
 30
0.0
 10
10.7666566216
 20
7.6933882026
 30
0.0
 10
10.7713320218
 20
7.702522867
 30
0.0
 10
10.7766026646
 20
7.7111840289
 30
0.0
 10
10.7824229705
 20
7.7193264482
 30
0.0
 10
10.7887455194
 20
7.7269115996
 30
0.0
 10
10.7955220614
 20
7.7339074413
 30
0.0
 10
10.8027043581
 20
7.7402879458
 30
0.0
 10
10.8102449136
 20
7.7460325434
 30
0.0
 10
10.8180974898
 20
7.7511254285
 30
0.0
 10
10.826217476
 20
7.7555548416
 30
0.0
 10
10.8345620935
 20
7.7593123523
 30
0.0
 10
10.8430904188
 20
7.7623921432
 30
0.0
 10
10.8517632465
 20
7.7647903966
 30
0.0
 10
10.8605431384
 20
7.7665047367
 30
0.0
 10
10.8693930571
 20
7.7675337972
 30
0.0
 10
10.8753197452
 20
7.7677626006
 30
0.0
 10
10.8782788244
 20
7.7677626006
 30
0.0
 11
10.7532787429
 21
7.6319675499
 31
0.0
 11
10.7536657643
 21
7.642645184
 31
0.0
 11
10.7548226699
 21
7.6532446347
 31
0.0
 11
10.7567369954
 21
7.6636885966
 31
0.0
 11
10.7593884547
 21
7.6739030221
 31
0.0
 11
10.7627496348
 21
7.6838180776
 31
0.0
 11
10.7667868927
 21
7.6933691861
 31
0.0
 11
10.7714614145
 21
7.7024978473
 31
0.0
 11
10.7767303336
 21
7.7111521232
 31
0.0
 11
10.7825478819
 21
7.7192868852
 31
0.0
 11
10.7888665043
 21
7.7268637975
 31
0.0
 11
10.7956378134
 21
7.7338509926
 31
0.0
 11
10.8028135469
 21
7.740222717
 31
0.0
 11
10.8103461599
 21
7.7459586162
 31
0.0
 11
10.8181894599
 21
7.7510431444
 31
0.0
 11
10.8262989269
 21
7.7554647893
 31
0.0
 11
10.8346318462
 21
7.7592153134
 31
0.0
 11
10.8431475001
 21
7.762289126
 31
0.0
 11
10.8518068372
 21
7.7646825478
 31
0.0
 11
10.8605724541
 21
7.7663933433
 31
0.0
 11
10.869408191
 21
7.7674202375
 31
0.0
 11
10.8782788244
 21
7.7677626006
 31
0.0
  0
SPLINE
  5
5B1
100
AcDbEntity
  8
0
100
AcDbSpline
 62
7
  6
CONTINUOUS
 70
0
 71
3
 72
28
 73
24
 74
22
 42
0.0000001
 43
0.0000001
 44
0.0000000001
 12
-0.0000000007
 22
0.2049129995
 32
0.0
 13
0.2048681287
 23
0.0
 33
0.0
 40
0.0
 40
0.0
 40
0.0
 40
0.0
 40
0.0521518485
 40
0.1041965197
 40
0.1560243086
 40
0.207534825
 40
0.2586369934
 40
0.3092514067
 40
0.3593121567
 40
0.4087683951
 40
0.4575846106
 40
0.5057416375
 40
0.55323536
 40
0.6000771122
 40
0.6462919001
 40
0.6919175133
 40
0.7370034109
 40
0.7816083924
 40
0.8258003886
 40
0.8696536077
 40
0.9132480871
 40
0.9566678911
 40
1.0
 40
1.0
 40
1.0
 40
1.0
 10
11.4702788697
 20
7.6319675497
 30
0.0
 10
11.4702788697
 20
7.6355297469
 30
0.0
 10
11.4705367034
 20
7.6426468207
 30
0.0
 10
11.4716932245
 20
7.6532480647
 30
0.0
 10
11.4736070635
 20
7.6636945332
 30
0.0
 10
11.4762580591
 20
7.6739121825
 30
0.0
 10
11.4796189835
 20
7.6838313235
 30
0.0
 10
11.4836564067
 20
7.6933874664
 30
0.0
 10
11.4883317321
 20
7.7025221198
 30
0.0
 10
11.4936023024
 20
7.7111832869
 30
0.0
 10
11.4994225473
 20
7.7193257353
 30
0.0
 10
11.5057450459
 20
7.7269109318
 30
0.0
 10
11.5125215537
 20
7.7339068339
 30
0.0
 10
11.5197038328
 20
7.74028741
 30
0.0
 10
11.5272443866
 20
7.7460320847
 30
0.0
 10
11.5350969848
 20
7.7511250538
 30
0.0
 10
11.5432170117
 20
7.75555455
 30
0.0
 10
11.5515616918
 20
7.7593121406
 30
0.0
 10
11.5600900956
 20
7.7623920026
 30
0.0
 10
11.5687630174
 20
7.7647903157
 30
0.0
 10
11.5775430184
 20
7.7665047014
 30
0.0
 10
11.5863930577
 20
7.7675337907
 30
0.0
 10
11.5923198307
 20
7.7677626007
 30
0.0
 10
11.5952789534
 20
7.7677626007
 30
0.0
 11
11.4702788697
 21
7.6319675497
 31
0.0
 11
11.4706658626
 21
7.6426447906
 31
0.0
 11
11.4718227244
 21
7.6532441393
 31
0.0
 11
11.4737369939
 21
7.6636880164
 31
0.0
 11
11.4763883869
 21
7.6739023708
 31
0.0
 11
11.4797494929
 21
7.6838173711
 31
0.0
 11
11.4837866764
 21
7.6933684507
 31
0.0
 11
11.4884611187
 21
7.702497092
 31
0.0
 11
11.4937299715
 21
7.7111513832
 31
0.0
 11
11.4995474515
 21
7.7192861642
 31
0.0
 11
11.5058660289
 21
7.7268631278
 31
0.0
 11
11.5126373047
 21
7.7338503843
 31
0.0
 11
11.5198130155
 21
7.7402221755
 31
0.0
 11
11.5273456343
 21
7.7459581573
 31
0.0
 11
11.5351889475
 21
7.7510427637
 31
0.0
 11
11.5432984628
 21
7.7554644958
 31
0.0
 11
11.5516314432
 21
7.7592150988
 31
0.0
 11
11.5601471743
 21
7.762288982
 31
0.0
 11
11.5688066073
 21
7.7646824639
 31
0.0
 11
11.5775723314
 21
7.7663933045
 31
0.0
 11
11.5864081899
 21
7.7674202276
 31
0.0
 11
11.5952789534
 21
7.7677626007
 31
0.0
  0
SPLINE
  5
5B2
100
AcDbEntity
  8
0
100
AcDbSpline
 62
7
  6
CONTINUOUS
 70
0
 71
3
 72
8
 73
4
 74
2
 42
0.0000001
 43
0.0000001
 44
0.0000000001
 12
-0.0088772106
 22
0.0
 32
0.0
 13
-0.0088535932
 23
0.0006842327
 33
0.0
 40
0.0
 40
0.0
 40
0.0
 40
0.0
 40
1.0
 40
1.0
 40
1.0
 40
1.0
 10
10.8782787429
 20
7.4961725031
 30
0.0
 10
10.8753196727
 20
7.4961725031
 30
0.0
 10
10.8723593343
 20
7.4962867897
 30
0.0
 10
10.8694081366
 20
7.4965148673
 30
0.0
 11
10.8782787429
 21
7.4961725031
 31
0.0
 11
10.8694081366
 21
7.4965148673
 31
0.0
  0
SPLINE
  5
5B3
100
AcDbEntity
  8
0
100
AcDbSpline
 62
7
  6
CONTINUOUS
 70
0
 71
3
 72
27
 73
23
 74
21
 42
0.0000001
 43
0.0000001
 44
0.0000000001
 12
-0.1954694082
 22
0.0151064715
 32
0.0
 13
0.0000000001
 23
0.1960337605
 33
0.0
 40
0.0
 40
0.0
 40
0.0
 40
0.0
 40
0.0453866523
 40
0.0909555781
 40
0.136794917
 40
0.1829882524
 40
0.2296134531
 40
0.2767411481
 40
0.3244331668
 40
0.372740975
 40
0.421704145
 40
0.4713489175
 40
0.5216869279
 40
0.572714178
 40
0.6244103443
 40
0.6767385097
 40
0.7296453981
 40
0.7830621699
 40
0.8369058097
 40
0.8910810989
 40
0.9454831267
 40
1.0
 40
1.0
 40
1.0
 40
1.0
 10
10.8694081366
 20
7.4965148673
 30
0.0
 10
10.8664509026
 20
7.4967434113
 30
0.0
 10
10.8605429512
 20
7.4974303899
 30
0.0
 10
10.8517629594
 20
7.4991447694
 30
0.0
 10
10.8430900763
 20
7.501543065
 30
0.0
 10
10.8345617083
 20
7.504622903
 30
0.0
 10
10.82621707
 20
7.5083804598
 30
0.0
 10
10.818097073
 20
7.51280992
 30
0.0
 10
10.810244506
 20
7.5179028438
 30
0.0
 10
10.8027039733
 20
7.523647472
 30
0.0
 10
10.7955217079
 20
7.5300279986
 30
0.0
 10
10.7887452084
 20
7.5370238481
 30
0.0
 10
10.7824227043
 20
7.5446089988
 30
0.0
 10
10.7766024492
 20
7.5527514001
 30
0.0
 10
10.7713318569
 20
7.5614125315
 30
0.0
 10
10.766656506
 20
7.5705471499
 30
0.0
 10
10.7626190508
 20
7.5801032668
 30
0.0
 10
10.759258091
 20
7.5900223866
 30
0.0
 10
10.7566070572
 20
7.6002400215
 30
0.0
 10
10.7546931783
 20
7.6106864824
 30
0.0
 10
10.7535365968
 20
7.6212879072
 30
0.0
 10
10.7532787429
 20
7.6284051678
 30
0.0
 10
10.7532787429
 20
7.6319675503
 30
0.0
 11
10.8694081366
 21
7.4965148673
 31
0.0
 11
10.860572244
 21
7.49754179
 31
0.0
 11
10.8518065462
 21
7.4992526212
 31
0.0
 11
10.8431471468
 21
7.501646087
 31
0.0
 11
10.8346314698
 21
7.5047199396
 31
0.0
 11
10.8262985085
 21
7.5084705191
 31
0.0
 11
10.818189044
 21
7.5128922039
 31
0.0
 11
10.8103457492
 21
7.5179767733
 31
0.0
 11
10.8028131551
 21
7.5237127059
 31
0.0
 11
10.7956374629
 21
7.5300844434
 31
0.0
 11
10.7888661858
 21
7.5370716572
 31
0.0
 11
10.7825476155
 21
7.5446485599
 31
0.0
 11
10.7767301143
 21
7.5527833093
 31
0.0
 11
10.7714612464
 21
7.5614375535
 31
0.0
 11
10.7667867748
 21
7.5705661671
 31
0.0
 11
10.7627495608
 21
7.5801172175
 31
0.0
 11
10.7593884192
 21
7.5900321974
 31
0.0
 11
10.7567369878
 21
7.6002465384
 31
0.0
 11
10.7548226787
 21
7.6106904062
 31
0.0
 11
10.7536657761
 21
7.6212897548
 31
0.0
 11
10.7532787429
 21
7.6319675503
 31
0.0
  0
SPLINE
  5
5B4
100
AcDbEntity
  8
0
100
AcDbSpline
 62
7
  6
CONTINUOUS
 70
0
 71
3
 72
8
 73
4
 74
2
 42
0.0000001
 43
0.0000001
 44
0.0000000001
 12
-0.0088772743
 22
0.0
 32
0.0
 13
-0.0088536563
 23
0.0006842425
 33
0.0
 40
0.0
 40
0.0
 40
0.0
 40
0.0
 40
1.0
 40
1.0
 40
1.0
 40
1.0
 10
11.5952788697
 20
7.4961725031
 30
0.0
 10
11.5923197783
 20
7.4961725031
 30
0.0
 10
11.5893594187
 20
7.4962867914
 30
0.0
 10
11.5864081999
 20
7.4965148722
 30
0.0
 11
11.5952788697
 21
7.4961725031
 31
0.0
 11
11.5864081999
 21
7.4965148722
 31
0.0
  0
SPLINE
  5
5B5
100
AcDbEntity
  8
0
100
AcDbSpline
 62
7
  6
CONTINUOUS
 70
0
 71
3
 72
27
 73
23
 74
21
 42
0.0000001
 43
0.0000001
 44
0.0000000001
 12
-0.195469336
 22
0.0151065748
 32
0.0
 13
0.0000000001
 23
0.1960336968
 33
0.0
 40
0.0
 40
0.0
 40
0.0
 40
0.0
 40
0.0453863438
 40
0.0909552851
 40
0.1367946396
 40
0.1829879905
 40
0.2296132068
 40
0.2767409175
 40
0.324432952
 40
0.3727407761
 40
0.4217039622
 40
0.471348751
 40
0.5216867779
 40
0.5727140446
 40
0.6244102278
 40
0.6767384103
 40
0.7296453159
 40
0.7830621051
 40
0.8369057623
 40
0.8910810692
 40
0.9454831147
 40
1.0
 40
1.0
 40
1.0
 40
1.0
 10
11.5864081999
 20
7.4965148722
 30
0.0
 10
11.5834509871
 20
7.4967434163
 30
0.0
 10
11.577543057
 20
7.497430394
 30
0.0
 10
11.5687630858
 20
7.4991447695
 30
0.0
 10
11.5600902026
 20
7.5015430652
 30
0.0
 10
11.5515618345
 20
7.5046229032
 30
0.0
 10
11.5432171962
 20
7.5083804602
 30
0.0
 10
11.5350971991
 20
7.5128099205
 30
0.0
 10
11.527244632
 20
7.5179028443
 30
0.0
 10
11.5197040993
 20
7.5236474726
 30
0.0
 10
11.512521834
 20
7.5300279994
 30
0.0
 10
11.5057453345
 20
7.5370238489
 30
0.0
 10
11.4994228305
 20
7.5446089997
 30
0.0
 10
11.4936025754
 20
7.552751401
 30
0.0
 10
11.4883319832
 20
7.5614125325
 30
0.0
 10
11.4836566323
 20
7.5705471509
 30
0.0
 10
11.4796191772
 20
7.5801032679
 30
0.0
 10
11.4762582176
 20
7.5900223877
 30
0.0
 10
11.4736071838
 20
7.6002400226
 30
0.0
 10
11.471693305
 20
7.6106864835
 30
0.0
 10
11.4705367236
 20
7.6212879079
 30
0.0
 10
11.4702788697
 20
7.6284051681
 30
0.0
 10
11.4702788697
 20
7.6319675503
 30
0.0
 11
11.5864081999
 21
7.4965148722
 31
0.0
 11
11.5775723705
 21
7.49754179
 31
0.0
 11
11.5688066726
 21
7.4992526213
 31
0.0
 11
11.560147273
 21
7.5016460872
 31
0.0
 11
11.5516315959
 21
7.5047199399
 31
0.0
 11
11.5432986346
 21
7.5084705194
 31
0.0
 11
11.5351891701
 21
7.5128922043
 31
0.0
 11
11.5273458752
 21
7.5179767738
 31
0.0
 11
11.5198132812
 21
7.5237127065
 31
0.0
 11
11.512637589
 21
7.5300844441
 31
0.0
 11
11.5058663119
 21
7.537071658
 31
0.0
 11
11.4995477417
 21
7.5446485608
 31
0.0
 11
11.4937302405
 21
7.5527833101
 31
0.0
 11
11.4884613728
 21
7.5614375545
 31
0.0
 11
11.4837869012
 21
7.5705661681
 31
0.0
 11
11.4797496872
 21
7.5801172185
 31
0.0
 11
11.4763885457
 21
7.5900321984
 31
0.0
 11
11.4737371144
 21
7.6002465395
 31
0.0
 11
11.4718228053
 21
7.6106904073
 31
0.0
 11
11.4706659028
 21
7.621289756
 31
0.0
 11
11.4702788697
 21
7.6319675503
 31
0.0
  0
SPLINE
  5
5B6
100
AcDbEntity
  8
0
100
AcDbSpline
 62
7
  6
CONTINUOUS
 70
0
 71
3
 72
19
 73
15
 74
13
 42
0.0000001
 43
0.0000001
 44
0.0000000001
 12
0.0698931473
 22
-0.0851176353
 32
0.0
 13
0.1101109058
 23
-0.0
 33
0.0
 40
0.0
 40
0.0
 40
0.0
 40
0.0
 40
0.0674251623
 40
0.1526367622
 40
0.2377418459
 40
0.3227429502
 40
0.4076449183
 40
0.4924547836
 40
0.5771816048
 40
0.6618362608
 40
0.7464312062
 40
0.8309801962
 40
0.9154979841
 40
1.0
 40
1.0
 40
1.0
 40
1.0
 10
11.4989658974
 20
7.55168975
 30
0.0
 10
11.5005367497
 20
7.5497767266
 30
0.0
 10
11.5042207228
 20
7.5455510417
 30
0.0
 10
11.5103877951
 20
7.5393662005
 30
0.0
 10
11.5174887383
 20
7.5332377405
 30
0.0
 10
11.5250189356
 20
7.5276641942
 30
0.0
 10
11.5329358104
 20
7.5226753657
 30
0.0
 10
11.5411949378
 20
7.5182977203
 30
0.0
 10
11.549750294
 20
7.5145543086
 30
0.0
 10
11.5585545255
 20
7.5114647086
 30
0.0
 10
11.5675591109
 20
7.5090449836
 30
0.0
 10
11.5767148892
 20
7.5073076522
 30
0.0
 10
11.58597118
 20
7.5062616686
 30
0.0
 10
11.5921773385
 20
7.5060288221
 30
0.0
 10
11.5952788697
 20
7.5060288221
 30
0.0
 11
11.4989658974
 21
7.55168975
 31
0.0
 11
11.5038451872
 21
7.5460931804
 31
0.0
 11
11.5104703648
 21
7.5394491924
 31
0.0
 11
11.5175647404
 21
7.5333266573
 31
0.0
 11
11.5250878758
 21
7.5277585712
 31
0.0
 11
11.5329972292
 21
7.5227746912
 31
0.0
 11
11.5412484153
 21
7.5184014378
 31
0.0
 11
11.5497954602
 21
7.5146618203
 31
0.0
 11
11.5585910498
 21
7.5115753793
 31
0.0
 11
11.5675867692
 21
7.5091581462
 31
0.0
 11
11.5767333351
 21
7.5074226138
 31
0.0
 11
11.5859808198
 21
7.5063777173
 31
0.0
 11
11.5952788697
 21
7.5060288221
 31
0.0
  0
SPLINE
  5
5B7
100
AcDbEntity
  8
0
100
AcDbSpline
 62
7
  6
CONTINUOUS
 70
0
 71
3
 72
17
 73
13
 74
11
 42
0.0000001
 43
0.0000001
 44
0.0000000001
 12
0.0900500625
 22
0.0139099891
 32
0.0
 13
0.0578246771
 23
0.0704203482
 33
0.0
 40
0.0
 40
0.0
 40
0.0
 40
0.0
 40
0.0977827692
 40
0.2000333888
 40
0.3023561811
 40
0.4047662002
 40
0.5072765953
 40
0.6098983161
 40
0.7126398635
 40
0.8155070918
 40
0.9185030672
 40
1.0
 40
1.0
 40
1.0
 40
1.0
 10
10.8972217104
 20
7.5074833461
 30
0.0
 10
10.9001568252
 20
7.5079367318
 30
0.0
 10
10.9061280258
 20
7.5090797891
 30
0.0
 10
10.9150030995
 20
7.5114647124
 30
0.0
 10
10.9238073338
 20
7.5145543145
 30
0.0
 10
10.9323626925
 20
7.5182977287
 30
0.0
 10
10.9406218221
 20
7.5226753771
 30
0.0
 10
10.9485386987
 20
7.5276642089
 30
0.0
 10
10.9560688974
 20
7.5332377588
 30
0.0
 10
10.9631698416
 20
7.5393662228
 30
0.0
 10
10.9693369052
 20
7.5455510587
 30
0.0
 10
10.9730208705
 20
7.5497767358
 30
0.0
 10
10.9745917151
 20
7.55168975
 30
0.0
 11
10.8972217104
 21
7.5074833461
 31
0.0
 11
10.9059708529
 21
7.5091581484
 31
0.0
 11
10.9149665753
 21
7.5115753832
 31
0.0
 11
10.9237621676
 21
7.5146618263
 31
0.0
 11
10.932309215
 21
7.5184014464
 31
0.0
 11
10.9405604032
 21
7.5227747026
 31
0.0
 11
10.9484697584
 21
7.527758586
 31
0.0
 11
10.9559928953
 21
7.5333266757
 31
0.0
 11
10.9630872718
 21
7.5394492148
 31
0.0
 11
10.96971245
 21
7.5460932069
 31
0.0
 11
10.9745917151
 21
7.55168975
 31
0.0
  0
SPLINE
  5
5B8
100
AcDbEntity
  8
0
100
AcDbSpline
 62
7
  6
CONTINUOUS
 70
0
 71
3
 72
19
 73
15
 74
13
 42
0.0000001
 43
0.0000001
 44
0.0000000001
 12
0.110110906
 22
0.0
 32
0.0
 13
0.0698931473
 23
0.0851176357
 33
0.0
 40
0.0
 40
0.0
 40
0.0
 40
0.0
 40
0.0845020714
 40
0.1690199147
 40
0.2535689602
 40
0.3381639613
 40
0.422818673
 40
0.50754555
 40
0.5923554713
 40
0.6772574956
 40
0.7622586561
 40
0.8473637963
 40
0.9325754528
 40
1.0
 40
1.0
 40
1.0
 40
1.0
 10
11.5952788697
 20
7.5060288221
 30
0.0
 10
11.5983804029
 20
7.5060288221
 30
0.0
 10
11.6045865655
 20
7.5062616689
 30
0.0
 10
11.6138428623
 20
7.5073076539
 30
0.0
 10
11.6229986465
 20
7.5090449876
 30
0.0
 10
11.6320032374
 20
7.5114647158
 30
0.0
 10
11.6408074741
 20
7.5145543197
 30
0.0
 10
11.6493628349
 20
7.5182977362
 30
0.0
 10
11.6576219664
 20
7.5226753872
 30
0.0
 10
11.6655388447
 20
7.5276642219
 30
0.0
 10
11.6730690446
 20
7.533237775
 30
0.0
 10
11.6801699897
 20
7.5393662425
 30
0.0
 10
11.6863370458
 20
7.5455510738
 30
0.0
 10
11.6900210043
 20
7.5497767443
 30
0.0
 10
11.6915918422
 20
7.5516897503
 30
0.0
 11
11.5952788697
 21
7.5060288221
 31
0.0
 11
11.6045769258
 21
7.5063777178
 31
0.0
 11
11.6138244164
 21
7.5074226157
 31
0.0
 11
11.6229709882
 21
7.5091581503
 31
0.0
 11
11.6319667131
 21
7.5115753866
 31
0.0
 11
11.6407623078
 21
7.5146618316
 31
0.0
 11
11.6493093574
 21
7.5184014539
 31
0.0
 11
11.6575605475
 21
7.5227747127
 31
0.0
 11
11.6654699043
 21
7.527758599
 31
0.0
 11
11.6729930424
 21
7.5333266919
 31
0.0
 11
11.6800874198
 21
7.5394492345
 31
0.0
 11
11.6867125985
 21
7.5460932303
 31
0.0
 11
11.6915918422
 21
7.5516897503
 31
0.0
  0
SPLINE
  5
5B9
100
AcDbEntity
  8
0
100
AcDbSpline
 62
7
  6
CONTINUOUS
 70
0
 71
3
 72
17
 73
13
 74
11
 42
0.0000001
 43
0.0000001
 44
0.0000000001
 12
0.0580798168
 22
-0.0707310638
 32
0.0
 13
0.0904919642
 23
-0.0136782143
 33
0.0
 40
0.0
 40
0.0
 40
0.0
 40
0.0
 40
0.0811389701
 40
0.1836824886
 40
0.2860978257
 40
0.388388034
 40
0.490558942
 40
0.5926190134
 40
0.6945791497
 40
0.7964524424
 40
0.8982538796
 40
1.0
 40
1.0
 40
1.0
 40
1.0
 10
10.7819657706
 20
7.5516897499
 30
0.0
 10
10.7835366161
 20
7.5497767347
 30
0.0
 10
10.7872205824
 20
7.5455510567
 30
0.0
 10
10.793387647
 20
7.5393662202
 30
0.0
 10
10.8004885911
 20
7.5332377566
 30
0.0
 10
10.8080187896
 20
7.5276642072
 30
0.0
 10
10.815935666
 20
7.5226753757
 30
0.0
 10
10.8241947954
 20
7.5182977277
 30
0.0
 10
10.8327501537
 20
7.5145543138
 30
0.0
 10
10.8415543877
 20
7.511464712
 30
0.0
 10
10.8505589752
 20
7.5090449856
 30
0.0
 10
10.8566641326
 20
7.5078865166
 30
0.0
 10
10.8597332013
 20
7.5074226149
 30
0.0
 11
10.7819657706
 21
7.5516897499
 31
0.0
 11
10.7868450387
 21
7.5460932038
 31
0.0
 11
10.7934702168
 21
7.5394492121
 31
0.0
 11
10.8005645932
 21
7.5333266735
 31
0.0
 11
10.8080877299
 21
7.5277585842
 31
0.0
 11
10.8159970849
 21
7.5227747013
 31
0.0
 11
10.8242482729
 21
7.5184014454
 31
0.0
 11
10.83279532
 21
7.5146618256
 31
0.0
 11
10.8415909119
 21
7.5115753827
 31
0.0
 11
10.850586634
 21
7.5091581482
 31
0.0
 11
10.8597332013
 21
7.5074226149
 31
0.0
  0
SPLINE
  5
5BA
100
AcDbEntity
  8
0
100
AcDbSpline
 62
7
  6
CONTINUOUS
 70
0
 71
3
 72
9
 73
5
 74
3
 42
0.0000001
 43
0.0000001
 44
0.0000000001
 12
0.0110735325
 22
-0.0009949267
 32
0.0
 13
0.0111152494
 23
0.0
 33
0.0
 40
0.0
 40
0.0
 40
0.0
 40
0.0
 40
0.1628980977
 40
1.0
 40
1.0
 40
1.0
 40
1.0
 10
10.867175682
 20
7.5065266181
 30
0.0
 10
10.8677769677
 20
7.5064725942
 30
0.0
 10
10.8714706242
 20
7.5061678882
 30
0.0
 10
10.8751772107
 20
7.5060288221
 30
0.0
 10
10.8782787429
 20
7.5060288221
 30
0.0
 11
10.867175682
 21
7.5065266181
 31
0.0
 11
10.8689806901
 21
7.5063777175
 31
0.0
 11
10.8782787429
 21
7.5060288221
 31
0.0
  0
SPLINE
  5
5BB
100
AcDbEntity
  8
0
100
AcDbSpline
 62
7
  6
CONTINUOUS
 70
0
 71
3
 72
8
 73
4
 74
2
 42
0.0000001
 43
0.0000001
 44
0.0000000001
 12
-0.0
 22
-0.0106869641
 32
0.0
 13
-0.0007738843
 23
-0.010658909
 33
0.0
 40
0.0
 40
0.0
 40
0.0
 40
0.0
 40
1.0
 40
1.0
 40
1.0
 40
1.0
 10
11.7202788697
 20
7.6319675502
 30
0.0
 10
11.7202788697
 20
7.6284052289
 30
0.0
 10
11.7201498112
 20
7.6248429075
 30
0.0
 10
11.7198918498
 20
7.6212899378
 30
0.0
 11
11.7202788697
 21
7.6319675502
 31
0.0
 11
11.7198918498
 21
7.6212899378
 31
0.0
  0
SPLINE
  5
5BC
100
AcDbEntity
  8
0
100
AcDbSpline
 62
7
  6
CONTINUOUS
 70
0
 71
3
 72
26
 73
22
 74
20
 42
0.0000001
 43
0.0000001
 44
0.0000000001
 12
-0.0134216714
 22
-0.1848601636
 32
0.0
 13
-0.1848131371
 23
-0.0142830272
 33
0.0
 40
0.0
 40
0.0
 40
0.0
 40
0.0
 40
0.0575402991
 40
0.1148392889
 40
0.1717875058
 40
0.2282842414
 40
0.2842416939
 40
0.3395870546
 40
0.3942639757
 40
0.4482334115
 40
0.501473867
 40
0.5539811136
 40
0.6057674574
 40
0.6568606524
 40
0.7073025526
 40
0.7571475912
 40
0.8064611625
 40
0.855317968
 40
0.9038003663
 40
0.9519967598
 40
1.0
 40
1.0
 40
1.0
 40
1.0
 10
11.7198918498
 20
7.6212899378
 30
0.0
 10
11.7196344208
 20
7.6177443015
 30
0.0
 10
11.718864438
 20
7.6106864855
 30
0.0
 10
11.7169505372
 20
7.6002399399
 30
0.0
 10
11.714299499
 20
7.5900223116
 30
0.0
 10
11.7109385358
 20
7.5801031986
 30
0.0
 10
11.7069010779
 20
7.5705470887
 30
0.0
 10
11.7022257251
 20
7.5614124772
 30
0.0
 10
11.6969551319
 20
7.5527513526
 30
0.0
 10
11.6911348765
 20
7.5446089579
 30
0.0
 10
11.6848123728
 20
7.5370238134
 30
0.0
 10
11.6780358744
 20
7.5300279698
 30
0.0
 10
11.6708536106
 20
7.5236474485
 30
0.0
 10
11.66331308
 20
7.5179028252
 30
0.0
 10
11.6554605155
 20
7.5128099058
 30
0.0
 10
11.6473405213
 20
7.5083804494
 30
0.0
 10
11.6389958861
 20
7.5046228957
 30
0.0
 10
11.6304675215
 20
7.5015430604
 30
0.0
 10
11.6217946419
 20
7.4991447669
 30
0.0
 10
11.6130146762
 20
7.4974303932
 30
0.0
 10
11.6071067504
 20
7.4967434161
 30
0.0
 10
11.6041495406
 20
7.4965148723
 30
0.0
 11
11.7198918498
 21
7.6212899378
 31
0.0
 11
11.7187349211
 21
7.6106903183
 31
0.0
 11
11.7168206067
 21
7.6002464568
 31
0.0
 11
11.714169171
 21
7.5900321223
 31
0.0
 11
11.7108080259
 21
7.5801171493
 31
0.0
 11
11.7067708092
 21
7.5705661059
 31
0.0
 11
11.7020963358
 21
7.5614374992
 31
0.0
 11
11.6968274669
 21
7.5527832618
 31
0.0
 11
11.6910099655
 21
7.544648519
 31
0.0
 11
11.6846913956
 21
7.5370716225
 31
0.0
 11
11.6779201195
 21
7.5300844145
 31
0.0
 11
11.6707444289
 21
7.5237126824
 31
0.0
 11
11.663211837
 21
7.5179767546
 31
0.0
 11
11.6553685446
 21
7.5128921896
 31
0.0
 11
11.647259083
 21
7.5084705086
 31
0.0
 11
11.6389261248
 21
7.5047199323
 31
0.0
 11
11.6304104511
 21
7.5016460823
 31
0.0
 11
11.6217510551
 21
7.4992526186
 31
0.0
 11
11.6129853611
 21
7.4975417888
 31
0.0
 11
11.6041495406
 21
7.4965148723
 31
0.0
  0
SPLINE
  5
5BD
100
AcDbEntity
  8
0
100
AcDbSpline
 62
7
  6
CONTINUOUS
 70
0
 71
3
 72
8
 73
4
 74
2
 42
0.0000001
 43
0.0000001
 44
0.0000000001
 12
-0.0
 22
-0.0106871596
 32
0.0
 13
-0.0007739126
 23
-0.0106591029
 33
0.0
 40
0.0
 40
0.0
 40
0.0
 40
0.0
 40
1.0
 40
1.0
 40
1.0
 40
1.0
 10
11.0032787429
 20
7.6319675502
 30
0.0
 10
11.0032787429
 20
7.6284051637
 30
0.0
 10
11.0031496797
 20
7.6248427772
 30
0.0
 10
11.0028917088
 20
7.6212897429
 30
0.0
 11
11.0032787429
 21
7.6319675502
 31
0.0
 11
11.0028917088
 21
7.6212897429
 31
0.0
  0
SPLINE
  5
5BE
100
AcDbEntity
  8
0
100
AcDbSpline
 62
7
  6
CONTINUOUS
 70
0
 71
3
 72
8
 73
4
 74
2
 42
0.0000001
 43
0.0000001
 44
0.0000000001
 12
-0.0088535939
 22
-0.0006842328
 32
0.0
 13
-0.0088772113
 23
0.0
 33
0.0
 40
0.0
 40
0.0
 40
0.0
 40
0.0
 40
1.0
 40
1.0
 40
1.0
 40
1.0
 10
10.8871493499
 20
7.4965148673
 30
0.0
 10
10.8841981519
 20
7.4962867898
 30
0.0
 10
10.8812378133
 20
7.4961725031
 30
0.0
 10
10.8782787429
 20
7.4961725031
 30
0.0
 11
10.8871493499
 21
7.4965148673
 31
0.0
 11
10.8782787429
 21
7.4961725031
 31
0.0
  0
SPLINE
  5
5BF
100
AcDbEntity
  8
0
100
AcDbSpline
 62
7
  6
CONTINUOUS
 70
0
 71
3
 72
20
 73
16
 74
14
 42
0.0000001
 43
0.0000001
 44
0.0000000001
 12
0.0637087835
 22
0.0839910814
 32
0.0
 13
0.1051411578
 23
0.0077603227
 33
0.0
 40
0.0
 40
0.0
 40
0.0
 40
0.0
 40
0.0206534523
 40
0.1114855288
 40
0.2018554908
 40
0.2917657986
 40
0.3812292331
 40
0.4702683155
 40
0.5589147237
 40
0.6472083526
 40
0.7351963902
 40
0.8229323062
 40
0.9104744839
 40
0.9978853389
 40
1.0
 40
1.0
 40
1.0
 40
1.0
 10
11.4966032124
 20
7.548733663
 30
0.0
 10
11.4970418145
 20
7.5493118982
 30
0.0
 10
11.4994359396
 20
7.5524129927
 30
0.0
 10
11.5040276706
 20
7.5578259913
 30
0.0
 10
11.51072395
 20
7.5646119881
 30
0.0
 10
11.5178754127
 20
7.5708434656
 30
0.0
 10
11.5254380664
 20
7.5764910764
 30
0.0
 10
11.5333669781
 20
7.5815294015
 30
0.0
 10
11.5416166157
 20
7.585936759
 30
0.0
 10
11.5501411159
 20
7.5896949866
 30
0.0
 10
11.5588945093
 20
7.5927892131
 30
0.0
 10
11.5678307727
 20
7.5952076323
 30
0.0
 10
11.5769042103
 20
7.5969413008
 30
0.0
 10
11.5830906032
 20
7.5976451655
 30
0.0
 10
11.5862279895
 20
7.5978796161
 30
0.0
 10
11.5863021021
 20
7.5978850863
 30
0.0
 11
11.4966032124
 21
7.548733663
 31
0.0
 11
11.4979337406
 21
7.55045707
 31
0.0
 11
11.5041270455
 21
7.5577570633
 31
0.0
 11
11.5108174227
 21
7.5645361216
 31
0.0
 11
11.5179622245
 21
7.5707609186
 31
0.0
 11
11.5255174721
 21
7.5764022065
 31
0.0
 11
11.5334382585
 21
7.5814346634
 31
0.0
 11
11.5416790993
 21
7.5858367064
 31
0.0
 11
11.550194196
 21
7.589590264
 31
0.0
 11
11.5589376406
 21
7.5926805466
 31
0.0
 11
11.5678635572
 21
7.5950958215
 31
0.0
 11
11.5769261538
 21
7.5968272003
 31
0.0
 11
11.5860797799
 21
7.5978684726
 31
0.0
 11
11.5863021021
 21
7.5978850863
 31
0.0
  0
SPLINE
  5
5C0
100
AcDbEntity
  8
0
100
AcDbSpline
 62
7
  6
CONTINUOUS
 70
0
 71
3
 72
8
 73
4
 74
2
 42
0.0000001
 43
0.0000001
 44
0.0000000001
 12
0.0089611474
 22
0.0006614098
 32
0.0
 13
0.0089827762
 23
0.0
 33
0.0
 40
0.0
 40
0.0
 40
0.0
 40
0.0
 40
1.0
 40
1.0
 40
1.0
 40
1.0
 10
11.5863021021
 20
7.5978850863
 30
0.0
 10
11.5892891513
 20
7.5981055562
 30
0.0
 10
11.592284611
 20
7.598215967
 30
0.0
 10
11.5952788697
 20
7.598215967
 30
0.0
 11
11.5863021021
 21
7.5978850863
 31
0.0
 11
11.5952788697
 21
7.598215967
 31
0.0
  0
SPLINE
  5
5C1
100
AcDbEntity
  8
0
100
AcDbSpline
 62
7
  6
CONTINUOUS
 70
0
 71
3
 72
8
 73
4
 74
2
 42
0.0000001
 43
0.0000001
 44
0.0000000001
 12
0.0089822511
 22
0.0
 32
0.0
 13
0.0089606265
 23
-0.0006613326
 33
0.0
 40
0.0
 40
0.0
 40
0.0
 40
0.0
 40
1.0
 40
1.0
 40
1.0
 40
1.0
 10
11.5952788697
 20
7.598215967
 30
0.0
 10
11.5982729534
 20
7.598215967
 30
0.0
 10
11.6012682379
 20
7.5981055691
 30
0.0
 10
11.6042551134
 20
7.5978851249
 30
0.0
 11
11.5952788697
 21
7.598215967
 31
0.0
 11
11.6042551134
 21
7.5978851249
 31
0.0
  0
SPLINE
  5
5C2
100
AcDbEntity
  8
0
100
AcDbSpline
 62
7
  6
CONTINUOUS
 70
0
 71
3
 72
20
 73
16
 74
14
 42
0.0000001
 43
0.0000001
 44
0.0000000001
 12
0.1051337135
 22
-0.0077593178
 32
0.0
 13
0.063709525
 23
-0.0839811067
 33
0.0
 40
0.0
 40
0.0
 40
0.0
 40
0.0
 40
0.002119787
 40
0.0895368643
 40
0.1770852773
 40
0.2648274358
 40
0.3528217234
 40
0.4411216313
 40
0.5297743486
 40
0.6188197667
 40
0.7082895648
 40
0.7982062682
 40
0.8885826589
 40
0.9794211972
 40
1.0
 40
1.0
 40
1.0
 40
1.0
 10
11.6042551134
 20
7.5978851249
 30
0.0
 10
11.6043294005
 20
7.5978796422
 30
0.0
 10
11.6074669618
 20
7.5976451853
 30
0.0
 10
11.6136535289
 20
7.5969413008
 30
0.0
 10
11.6227269669
 20
7.5952076323
 30
0.0
 10
11.6316632304
 20
7.5927892131
 30
0.0
 10
11.6404166235
 20
7.5896949866
 30
0.0
 10
11.6489411234
 20
7.5859367591
 30
0.0
 10
11.6571907611
 20
7.5815294016
 30
0.0
 10
11.6651196729
 20
7.5764910765
 30
0.0
 10
11.6726823267
 20
7.5708434656
 30
0.0
 10
11.6798337893
 20
7.5646119882
 30
0.0
 10
11.6865300687
 20
7.5578259914
 30
0.0
 10
11.6911200684
 20
7.5524150339
 30
0.0
 10
11.6935126558
 20
7.5493161326
 30
0.0
 10
11.6939496777
 20
7.5487400557
 30
0.0
 11
11.6042551134
 21
7.5978851249
 31
0.0
 11
11.6044779588
 21
7.5978684726
 31
0.0
 11
11.6136315853
 21
7.5968272004
 31
0.0
 11
11.6226941827
 21
7.5950958214
 31
0.0
 11
11.6316200994
 21
7.5926805464
 31
0.0
 11
11.6403635431
 21
7.5895902641
 31
0.0
 11
11.6488786396
 21
7.5858367067
 31
0.0
 11
11.6571194808
 21
7.5814346636
 31
0.0
 11
11.6650402673
 21
7.5764022065
 31
0.0
 11
11.6725955148
 21
7.5707609187
 31
0.0
 11
11.6797403166
 21
7.5645361217
 31
0.0
 11
11.6864306938
 21
7.5577570634
 31
0.0
 11
11.6926239988
 21
7.5504570701
 31
0.0
 11
11.6939496777
 21
7.5487400557
 31
0.0
  0
SPLINE
  5
5C3
100
AcDbEntity
  8
0
100
AcDbSpline
 62
7
  6
CONTINUOUS
 70
0
 71
3
 72
20
 73
16
 74
14
 42
0.0000001
 43
0.0000001
 44
0.0000000001
 12
0.063710871
 22
0.0839938333
 32
0.0
 13
0.1051448302
 23
0.0077575983
 33
0.0
 40
0.0
 40
0.0
 40
0.0
 40
0.0
 40
0.0206526882
 40
0.1114818273
 40
0.2018488575
 40
0.2917562031
 40
0.3812166788
 40
0.4702529305
 40
0.5588965617
 40
0.6471873547
 40
0.7351724626
 40
0.8229054625
 40
0.9104447567
 40
0.9978526961
 40
1.0
 40
1.0
 40
1.0
 40
1.0
 10
10.7796030856
 20
7.548733663
 30
0.0
 10
10.7800416858
 20
7.5493118958
 30
0.0
 10
10.7824358098
 20
7.552412989
 30
0.0
 10
10.78702754
 20
7.5578259873
 30
0.0
 10
10.7937238205
 20
7.5646119856
 30
0.0
 10
10.8008752826
 20
7.5708434629
 30
0.0
 10
10.8084379373
 20
7.5764910749
 30
0.0
 10
10.8163668545
 20
7.5815294037
 30
0.0
 10
10.8246165008
 20
7.585936765
 30
0.0
 10
10.833141006
 20
7.5896949934
 30
0.0
 10
10.8418943989
 20
7.5927892181
 30
0.0
 10
10.8508306591
 20
7.5952076353
 30
0.0
 10
10.859904093
 20
7.5969413021
 30
0.0
 10
10.8660916266
 20
7.5976452962
 30
0.0
 10
10.869230161
 20
7.5978797878
 30
0.0
 10
10.8693054203
 20
7.5978853405
 30
0.0
 11
10.7796030856
 21
7.548733663
 31
0.0
 11
10.7809336081
 21
7.5504570628
 31
0.0
 11
10.7871269152
 21
7.5577570596
 31
0.0
 11
10.7938172944
 21
7.5645361203
 31
0.0
 11
10.8009620947
 21
7.5707609163
 31
0.0
 11
10.8085173397
 21
7.5764022027
 31
0.0
 11
10.8164381337
 21
7.5814346647
 31
0.0
 11
10.8246789868
 21
7.5858367134
 31
0.0
 11
10.8331940895
 21
7.589590272
 31
0.0
 11
10.8419375299
 21
7.5926805516
 31
0.0
 11
10.8508634426
 21
7.5950958244
 31
0.0
 11
10.8599260378
 21
7.596827202
 31
0.0
 11
10.8690796585
 21
7.597868473
 31
0.0
 11
10.8693054203
 21
7.5978853405
 31
0.0
  0
SPLINE
  5
5C4
100
AcDbEntity
  8
0
100
AcDbSpline
 62
7
  6
CONTINUOUS
 70
0
 71
3
 72
8
 73
4
 74
2
 42
0.0000001
 43
0.0000001
 44
0.0000000001
 12
0.0089577219
 22
0.0006609018
 32
0.0
 13
0.0089793229
 23
0.0
 33
0.0
 40
0.0
 40
0.0
 40
0.0
 40
0.0
 40
1.0
 40
1.0
 40
1.0
 40
1.0
 10
10.8693054203
 20
7.5978853405
 30
0.0
 10
10.8722913276
 20
7.5981056411
 30
0.0
 10
10.8752856352
 20
7.598215967
 30
0.0
 10
10.8782787429
 20
7.598215967
 30
0.0
 11
10.8693054203
 21
7.5978853405
 31
0.0
 11
10.8782787429
 21
7.598215967
 31
0.0
  0
SPLINE
  5
5C5
100
AcDbEntity
  8
0
100
AcDbSpline
 62
7
  6
CONTINUOUS
 70
0
 71
3
 72
8
 73
4
 74
2
 42
0.0000001
 43
0.0000001
 44
0.0000000001
 12
0.008979424
 22
0.0
 32
0.0
 13
0.0089578221
 23
-0.0006609167
 33
0.0
 40
0.0
 40
0.0
 40
0.0
 40
0.0
 40
1.0
 40
1.0
 40
1.0
 40
1.0
 10
10.8782787429
 20
7.598215967
 30
0.0
 10
10.8812718842
 20
7.598215967
 30
0.0
 10
10.8842662256
 20
7.5981056386
 30
0.0
 10
10.8872521663
 20
7.597885333
 30
0.0
 11
10.8782787429
 21
7.598215967
 31
0.0
 11
10.8872521663
 21
7.597885333
 31
0.0
  0
SPLINE
  5
5C6
100
AcDbEntity
  8
0
100
AcDbSpline
 62
7
  6
CONTINUOUS
 70
0
 71
3
 72
20
 73
16
 74
14
 42
0.0000001
 43
0.0000001
 44
0.0000000001
 12
0.1051370281
 22
-0.0077571103
 32
0.0
 13
0.0637112177
 23
-0.0839837596
 33
0.0
 40
0.0
 40
0.0
 40
0.0
 40
0.0
 40
0.0021465054
 40
0.0895609259
 40
0.1771067119
 40
0.2648462162
 40
0.3528378481
 40
0.4411351882
 40
0.5297853907
 40
0.6188282413
 40
0.7082953488
 40
0.7982093617
 40
0.8885830922
 40
0.9794189645
 40
1.0
 40
1.0
 40
1.0
 40
1.0
 10
10.8872521663
 20
7.597885333
 30
0.0
 10
10.8873273921
 20
7.5978797828
 30
0.0
 10
10.8904658928
 20
7.5976452924
 30
0.0
 10
10.8966533929
 20
7.5969413021
 30
0.0
 10
10.9057268269
 20
7.5952076352
 30
0.0
 10
10.9146630871
 20
7.5927892181
 30
0.0
 10
10.92341648
 20
7.5896949933
 30
0.0
 10
10.9319409852
 20
7.5859367649
 30
0.0
 10
10.9401906313
 20
7.5815294036
 30
0.0
 10
10.9481195484
 20
7.576491075
 30
0.0
 10
10.955682203
 20
7.570843463
 30
0.0
 10
10.9628336651
 20
7.5646119858
 30
0.0
 10
10.9695299456
 20
7.5578259875
 30
0.0
 10
10.9741200111
 20
7.5524149516
 30
0.0
 10
10.9765126566
 20
7.5493159672
 30
0.0
 10
10.9769497375
 20
7.5487398097
 30
0.0
 11
10.8872521663
 21
7.597885333
 31
0.0
 11
10.8874778274
 21
7.597868473
 31
0.0
 11
10.8966314481
 21
7.5968272019
 31
0.0
 11
10.9056940435
 21
7.5950958243
 31
0.0
 11
10.914619956
 21
7.5926805515
 31
0.0
 11
10.9233633965
 21
7.5895902719
 31
0.0
 11
10.9318784993
 21
7.5858367133
 31
0.0
 11
10.9401193522
 21
7.5814346646
 31
0.0
 11
10.9480401459
 21
7.5764022028
 31
0.0
 11
10.9555953908
 21
7.5707609164
 31
0.0
 11
10.9627401912
 21
7.5645361204
 31
0.0
 11
10.9694305704
 21
7.5577570597
 31
0.0
 11
10.9756238775
 21
7.5504570631
 31
0.0
 11
10.9769497375
 21
7.5487398097
 31
0.0
  0
SPLINE
  5
5C7
100
AcDbEntity
  8
0
100
AcDbSpline
 62
7
  6
CONTINUOUS
 70
0
 71
3
 72
28
 73
24
 74
22
 42
0.0000001
 43
0.0000001
 44
0.0000000001
 12
0.2048679611
 22
0.0
 32
0.0
 13
-0.0000000001
 23
-0.2049128319
 33
0.0
 40
0.0
 40
0.0
 40
0.0
 40
0.0
 40
0.0433316692
 40
0.0867513452
 40
0.1303457083
 40
0.1741987676
 40
0.2183904844
 40
0.2629953536
 40
0.3080809434
 40
0.3537064039
 40
0.399920971
 40
0.4467625018
 40
0.4942561002
 40
0.5424128972
 40
0.5912290678
 40
0.6406851691
 40
0.6907458838
 40
0.7413602441
 40
0.7924623934
 40
0.8439729136
 40
0.8958007122
 40
0.9478454242
 40
1.0
 40
1.0
 40
1.0
 40
1.0
 10
11.5952789534
 20
7.7677626007
 30
0.0
 10
11.5982380437
 20
7.7677626007
 30
0.0
 10
11.6041647726
 20
7.76753378
 30
0.0
 10
11.6130147577
 20
7.7665046954
 30
0.0
 10
11.6217947241
 20
7.7647903141
 30
0.0
 10
11.6304676024
 20
7.7623920144
 30
0.0
 10
11.6389959654
 20
7.7593121727
 30
0.0
 10
11.6473405987
 20
7.7555546128
 30
0.0
 10
11.6554605904
 20
7.7511251501
 30
0.0
 10
11.6633131522
 20
7.7460322245
 30
0.0
 10
11.6708536797
 20
7.7402875952
 30
0.0
 10
11.6780359398
 20
7.7339070681
 30
0.0
 10
11.6848124342
 20
7.7269112189
 30
0.0
 10
11.6911349334
 20
7.7193260691
 30
0.0
 10
11.6969551838
 20
7.7111836693
 30
0.0
 10
11.7022257717
 20
7.7025225401
 30
0.0
 10
11.7069011187
 20
7.6933879245
 30
0.0
 10
11.7109385704
 20
7.6838318108
 30
0.0
 10
11.7142995271
 20
7.6739126948
 30
0.0
 10
11.7169505585
 20
7.663695064
 30
0.0
 10
11.7188644357
 20
7.6532486077
 30
0.0
 10
11.720021016
 20
7.6426471879
 30
0.0
 10
11.7202788697
 20
7.6355299308
 30
0.0
 10
11.7202788697
 20
7.6319675502
 30
0.0
 11
11.5952789534
 21
7.7677626007
 31
0.0
 11
11.6041496193
 21
7.7674202222
 31
0.0
 11
11.612985444
 21
7.7663932989
 31
0.0
 11
11.6217511372
 21
7.7646824627
 31
0.0
 11
11.630410532
 21
7.7622889925
 31
0.0
 11
11.638926204
 21
7.7592151362
 31
0.0
 11
11.6472591602
 21
7.7554645536
 31
0.0
 11
11.6553686195
 21
7.7510428664
 31
0.0
 11
11.6632119091
 21
7.7459582952
 31
0.0
 11
11.6707444979
 21
7.7402223615
 31
0.0
 11
11.6779201849
 21
7.7338506235
 31
0.0
 11
11.6846914569
 21
7.7268634099
 31
0.0
 11
11.6910100223
 21
7.719286508
 31
0.0
 11
11.6968275188
 21
7.7111517603
 31
0.0
 11
11.7020963823
 21
7.7024975181
 31
0.0
 11
11.70677085
 21
7.6933689073
 31
0.0
 11
11.7108080605
 21
7.6838178602
 31
0.0
 11
11.7141691991
 21
7.6739028841
 31
0.0
 11
11.7168206281
 21
7.6636885472
 31
0.0
 11
11.7187349355
 21
7.6532446838
 31
0.0
 11
11.7198918369
 21
7.6426453399
 31
0.0
 11
11.7202788697
 21
7.6319675502
 31
0.0
  0
SPLINE
  5
5C8
100
AcDbEntity
  8
0
100
AcDbSpline
 62
7
  6
CONTINUOUS
 70
0
 71
3
 72
28
 73
24
 74
22
 42
0.0000001
 43
0.0000001
 44
0.0000000001
 12
0.2048679633
 22
0.0
 32
0.0
 13
-0.0000000001
 23
-0.204912834
 33
0.0
 40
0.0
 40
0.0
 40
0.0
 40
0.0
 40
0.0433316684
 40
0.0867513437
 40
0.130345706
 40
0.1741987646
 40
0.218390481
 40
0.2629953496
 40
0.308080939
 40
0.3537063993
 40
0.399920966
 40
0.4467624967
 40
0.4942560949
 40
0.5424128917
 40
0.5912290623
 40
0.6406851636
 40
0.6907458782
 40
0.7413602385
 40
0.7924623878
 40
0.843972908
 40
0.8958007066
 40
0.9478454187
 40
1.0
 40
1.0
 40
1.0
 40
1.0
 10
10.8782788244
 20
7.7677626006
 30
0.0
 10
10.8812379146
 20
7.7677626006
 30
0.0
 10
10.8871646435
 20
7.7675337802
 30
0.0
 10
10.8960146286
 20
7.7665046957
 30
0.0
 10
10.904794595
 20
7.7647903147
 30
0.0
 10
10.9134674733
 20
7.7623920152
 30
0.0
 10
10.9219958364
 20
7.7593121736
 30
0.0
 10
10.9303404697
 20
7.7555546138
 30
0.0
 10
10.9384604615
 20
7.7511251513
 30
0.0
 10
10.9463130235
 20
7.7460322259
 30
0.0
 10
10.953853551
 20
7.7402875967
 30
0.0
 10
10.9610358113
 20
7.7339070697
 30
0.0
 10
10.9678123059
 20
7.7269112205
 30
0.0
 10
10.9741348053
 20
7.7193260708
 30
0.0
 10
10.9799550559
 20
7.711183671
 30
0.0
 10
10.9852256439
 20
7.7025225418
 30
0.0
 10
10.9899009911
 20
7.6933879261
 30
0.0
 10
10.9939384429
 20
7.6838318124
 30
0.0
 10
10.9972993999
 20
7.6739126963
 30
0.0
 10
10.9999504314
 20
7.6636950655
 30
0.0
 10
11.0018643087
 20
7.653248609
 30
0.0
 10
11.0030208892
 20
7.6426471887
 30
0.0
 10
11.0032787429
 20
7.6355299312
 30
0.0
 10
11.0032787429
 20
7.6319675502
 30
0.0
 11
10.8782788244
 21
7.7677626006
 31
0.0
 11
10.8871494902
 21
7.7674202224
 31
0.0
 11
10.8959853149
 21
7.7663932992
 31
0.0
 11
10.9047510081
 21
7.7646824632
 31
0.0
 11
10.9134104028
 21
7.7622889933
 31
0.0
 11
10.9219260749
 21
7.7592151371
 31
0.0
 11
10.9302590312
 21
7.7554645547
 31
0.0
 11
10.9383684906
 21
7.7510428676
 31
0.0
 11
10.9462117803
 21
7.7459582965
 31
0.0
 11
10.9537443692
 21
7.7402223629
 31
0.0
 11
10.9609200564
 21
7.733850625
 31
0.0
 11
10.9676913286
 21
7.7268634115
 31
0.0
 11
10.9740098941
 21
7.7192865097
 31
0.0
 11
10.9798273909
 21
7.7111517619
 31
0.0
 11
10.9850962545
 21
7.7024975198
 31
0.0
 11
10.9897707224
 21
7.693368909
 31
0.0
 11
10.993807933
 21
7.6838178618
 31
0.0
 11
10.9971690718
 21
7.6739028856
 31
0.0
 11
10.9998205009
 21
7.6636885486
 31
0.0
 11
11.0017348084
 21
7.6532446852
 31
0.0
 11
11.00289171
 21
7.6426453411
 31
0.0
 11
11.0032787429
 21
7.6319675502
 31
0.0
  0
SPLINE
  5
5C9
100
AcDbEntity
  8
0
100
AcDbSpline
 62
7
  6
CONTINUOUS
 70
0
 71
3
 72
8
 73
4
 74
2
 42
0.0000001
 43
0.0000001
 44
0.0000000001
 12
0.0074131051
 22
-0.0011205198
 32
0.0
 13
0.0074675491
 23
-0.0006709389
 33
0.0
 40
0.0
 40
0.0
 40
0.0
 40
0.0
 40
1.0
 40
1.0
 40
1.0
 40
1.0
 10
10.8597332013
 20
7.5074226149
 30
0.0
 10
10.8622042364
 20
7.5070491083
 30
0.0
 10
10.8646864989
 20
7.5067502644
 30
0.0
 10
10.867175682
 20
7.5065266181
 30
0.0
 11
10.8597332013
 21
7.5074226149
 31
0.0
 11
10.867175682
 21
7.5065266181
 31
0.0
  0
ENDSEC
  0
SECTION
  2
OBJECTS
  0
DICTIONARY
  5
C
100
AcDbDictionary
280
0
281
1
  3
ACAD_GROUP
350
D
  3
ACAD_MLINESTYLE
350
17
  3
ACAD_LAYOUT
350
1A
  3
ACAD_PLOTSETTINGS
350
19
  3
ACAD_PLOTSTYLENAME
350
E
  0
DICTIONARY
  5
D
102
{ACAD_REACTORS
330
C
102
}
100
AcDbDictionary
280
0
281
1
  0
ACDBDICTIONARYWDFLT
  5
E
102
{ACAD_REACTORS
330
C
102
}
100
AcDbDictionary
281
1
  3
Normal
350
F
100
AcDbDictionaryWithDefault
340
F
  0
DICTIONARY
  5
17
102
{ACAD_REACTORS
330
C
102
}
100
AcDbDictionary
280
0
281
1
  3
Standard
350
18
  0
DICTIONARY
  5
19
102
{ACAD_REACTORS
330
C
102
}
100
AcDbDictionary
281
1
  0
DICTIONARY
  5
1A
102
{ACAD_REACTORS
330
C
102
}
100
AcDbDictionary
281
1
  3
Layout1
350
1E
  3
Model
350
22
  0
ACDBPLACEHOLDER
  5
F
102
{ACAD_REACTORS
330
E
102
}
  0
MLINESTYLE
  5
18
102
{ACAD_REACTORS
330
17
102
}
100
AcDbMlineStyle
  2
STANDARD
 70
0
  3

 62
256
 51
90.0
 52
90.0
 71
2
 49
0.5
 62
256
  6
BYLAYER
 49
-0.5
 62
256
  6
BYLAYER
  0
LAYOUT
  5
1E
102
{ACAD_REACTORS
330
1A
102
}
100
AcDbPlotSettings
  1

  2

  4

  6

 40
0.0
 41
0.0
 42
0.0
 43
0.0
 44
0.0
 45
0.0
 46
0.0
 47
0.0
 48
0.0
 49
0.0
140
0.0
141
0.0
142
1.0
143
1.0
 70
0
 72
0
 73
0
 74
0
  7

 75
0
147
1.0
148
0.0
149
0.0
100
AcDbLayout
  1
Layout1
 70
0
 71
0
 10
0.0
 20
0.0
 11
0.0
 21
0.0
 12
0.0
 22
0.0
 32
0.0
 14
0.0
 24
0.0
 34
0.0
 15
0.0
 25
0.0
 35
0.0
146
0.0
 13
0.0
 23
0.0
 33
0.0
 16
0.0
 26
0.0
 36
0.0
 17
0.0
 27
0.0
 37
0.0
 76
0
330
1B
331
0
345
0
346
0
  0
LAYOUT
  5
22
102
{ACAD_REACTORS
330
1A
102
}
100
AcDbPlotSettings
  1

  2

  4

  6

 40
0.0
 41
0.0
 42
0.0
 43
0.0
 44
0.0
 45
0.0
 46
0.0
 47
0.0
 48
0.0
 49
0.0
140
0.0
141
0.0
142
1.0
143
1.0
 70
0
 72
0
 73
0
 74
0
  7

 75
0
147
1.0
148
0.0
149
0.0
100
AcDbLayout
  1
Model
 70
0
 71
0
 10
0.0
 20
0.0
 11
0.0
 21
0.0
 12
0.0
 22
0.0
 32
0.0
 14
0.0
 24
0.0
 34
0.0
 15
0.0
 25
0.0
 35
0.0
146
0.0
 13
0.0
 23
0.0
 33
0.0
 16
0.0
 26
0.0
 36
0.0
 17
0.0
 27
0.0
 37
0.0
 76
0
330
1F
331
0
345
0
346
0
  0
ENDSEC
  0
EOF
