999
DXF file: GBF_assy_2.dxf
999
Pro/ENGINEER 2014200 by Parametric Technology Corporation
  0
SECTION
  2
HEADER
  9
$ACADVER
  1
AC1021
  9
$DWGCODEPAGE
  3
ANSI_1252
  9
$EXTMAX
 10
22.0
 20
17.0
 30
0.0
  9
$EXTMIN
 10
0.0
 20
0.0
 30
0.0
  9
$LIMMIN
 10
0.0
 20
0.0
  9
$LIMMAX
 10
22.0
 20
17.0
  9
$VIEWCTR
 10
11.0
 20
8.5
  9
$VIEWSIZE
 40
17.0
  9
$CLAYER
  8
0
  9
$LTSCALE
 40
1.21
  9
$CELTYPE
  6
BYLAYER
  9
$DIMSCALE
 40
1.0
  9
$DIMASZ
 40
0.1875
  9
$DIMEXO
 40
0.0625
  9
$DIMDLI
 40
0.836
  9
$DIMEXE
 40
0.125
  9
$DIMCEN
 40
0.198
  9
$DIMLFAC
 40
1.0
  9
$DIMBLK
  1
_FILLED
  9
$DIMTXT
 40
0.1
  9
$DIMTOL
 70
0
  9
$DIMLIM
 70
0
  9
$DIMTFAC
 40
1.0
  9
$DIMGAP
 40
0.09
  9
$DIMDSEP
 70
46
  9
$AUNITS
 70
0
  9
$PDMODE
 70
3
  9
$PDSIZE
 40
0.3125
  9
$HANDSEED
  5
3C2
  9
$TILEMODE
 70
1
  9
$MEASUREMENT
 70
0
  9
$INSUNITS
 70
1
  0
ENDSEC
  0
SECTION
  2
CLASSES
  0
CLASS
  1
ACDBDICTIONARYWDFLT
  2
AcDbDictionaryWithDefault
  3
AutoCAD 2000
 90
0
 91
1
280
0
281
0
  0
CLASS
  1
ACDBPLACEHOLDER
  2
AcDbPlaceHolder
  3
AutoCAD 2000
 90
0
 91
1
280
0
281
0
  0
CLASS
  1
LAYOUT
  2
AcDbLayout
  3
AutoCAD 2000
 90
0
 91
0
280
0
281
0
  0
CLASS
  1
RASTERVARIABLES
  2
AcDbRasterVariables
  3
ISM
 90
0
 91
1
280
0
281
0
  0
CLASS
  1
IMAGEDEF
  2
AcDbRasterImageDef
  3
ISM
 90
0
 91
1
280
0
281
0
  0
CLASS
  1
IMAGEDEF_REACTOR
  2
AcDbRasterImageDefReactor
  3
ISM
 90
0
 91
1
280
0
281
0
  0
CLASS
  1
IMAGE
  2
AcDbRasterImage
  3
ISM
 90
127
 91
1
280
0
281
1
  0
CLASS
  1
TABLESTYLE
  2
AcDbTableStyle
  3
ObjectDBX Classes
 90
2047
 91
1
280
0
281
0
  0
CLASS
  1
ACAD_TABLE
  2
AcDbTable
  3
ObjectDBX Classes
 90
1025
 91
2
280
0
281
1
  0
ENDSEC
  0
SECTION
  2
TABLES
  0
TABLE
  2
VPORT
  5
8
100
AcDbSymbolTable
 70
2
  0
VPORT
  5
1F4
100
AcDbSymbolTableRecord
100
AcDbViewportTableRecord
  2
*ACTIVE
 70
0
 10
0.0
 20
0.0
 11
1.0
 21
1.0
 12
11.0
 22
8.5
 13
0.0
 23
0.0
 14
1.0
 24
1.0
 15
0.0
 25
0.0
 16
0.0
 26
0.0
 36
1.0
 17
0.0
 27
0.0
 37
0.0
 40
17.0
 41
1.2941176471
 42
50.0
 43
0.0
 44
0.0
 50
0.0
 51
0.0
 71
0
 72
100
 73
1
 74
1
 75
0
 76
0
 77
0
 78
0
  0
ENDTAB
  0
TABLE
  2
LTYPE
  5
5
100
AcDbSymbolTable
 70
6
  0
LTYPE
  5
14
100
AcDbSymbolTableRecord
100
AcDbLinetypeTableRecord
  2
BYBLOCK
 70
0
  3

 72
65
 73
0
 40
0.0
  0
LTYPE
  5
15
100
AcDbSymbolTableRecord
100
AcDbLinetypeTableRecord
  2
BYLAYER
 70
0
  3

 72
65
 73
0
 40
0.0
  0
LTYPE
  5
16
100
AcDbSymbolTableRecord
100
AcDbLinetypeTableRecord
  2
CONTINUOUS
 70
64
  3
Solid line
 72
65
 73
0
 40
0.0
  0
LTYPE
  5
1F5
100
AcDbSymbolTableRecord
100
AcDbLinetypeTableRecord
  2
CENTER
 70
64
  3
____ _ ____ _ ____ _ ____ _ ____ _ ____ _ ____
 72
65
 73
4
 40
0.6
 49
0.375
 74
0
 49
-0.075
 74
0
 49
0.075
 74
0
 49
-0.075
 74
0
  0
LTYPE
  5
1F6
100
AcDbSymbolTableRecord
100
AcDbLinetypeTableRecord
  2
HIDDEN
 70
64
  3
- - - - - - - - - - - - - - - - - - - -
 72
65
 73
2
 40
0.2
 49
0.1
 74
0
 49
-0.1
 74
0
  0
LTYPE
  5
1F7
100
AcDbSymbolTableRecord
100
AcDbLinetypeTableRecord
  2
PHANTOM
 70
64
  3
_____ _ _ _____ _ _ _____ _ _ _____
 72
65
 73
6
 40
0.8
 49
0.45
 74
0
 49
-0.05
 74
0
 49
0.1
 74
0
 49
-0.05
 74
0
 49
0.1
 74
0
 49
-0.05
 74
0
  0
LTYPE
  5
1F8
100
AcDbSymbolTableRecord
100
AcDbLinetypeTableRecord
  2
DOT
 70
64
  3
. . . . . . . . . . . . . . . . . . . .
 72
65
 73
2
 40
0.2
 49
0.1
 74
0
 49
-0.1
 74
0
  0
LTYPE
  5
1F9
100
AcDbSymbolTableRecord
100
AcDbLinetypeTableRecord
  2
DASHED
 70
64
  3
- - - - - - - - - - - - - - - - - - - -
 72
65
 73
2
 40
0.2
 49
0.1
 74
0
 49
-0.1
 74
0
  0
ENDTAB
  0
TABLE
  2
LAYER
  5
2
100
AcDbSymbolTable
 70
36
  0
LAYER
  5
10
100
AcDbSymbolTableRecord
100
AcDbLayerTableRecord
  2
0
 70
0
 62
7
  6
CONTINUOUS
370
-3
390
F
  0
LAYER
  5
1FA
100
AcDbSymbolTableRecord
100
AcDbLayerTableRecord
  2
DEFAULT_1
 70
0
 62
7
  6
CENTER
370
-3
390
F
  0
LAYER
  5
1FB
100
AcDbSymbolTableRecord
100
AcDbLayerTableRecord
  2
DEFAULT_2
 70
0
 62
8
  6
HIDDEN
370
-3
390
F
  0
LAYER
  5
1FC
100
AcDbSymbolTableRecord
100
AcDbLayerTableRecord
  2
DEFAULT_3
 70
0
 62
7
  6
PHANTOM
370
-3
390
F
  0
LAYER
  5
1FD
100
AcDbSymbolTableRecord
100
AcDbLayerTableRecord
  2
01___PRT_ALL_DTM_PLN
 70
0
 62
7
  6
CONTINUOUS
370
-3
390
F
  0
LAYER
  5
1FE
100
AcDbSymbolTableRecord
100
AcDbLayerTableRecord
  2
01___PRT_DEF_DTM_PLN
 70
0
 62
7
  6
CONTINUOUS
370
-3
390
F
  0
LAYER
  5
1FF
100
AcDbSymbolTableRecord
100
AcDbLayerTableRecord
  2
02___PRT_ALL_AXES
 70
0
 62
7
  6
CONTINUOUS
370
-3
390
F
  0
LAYER
  5
200
100
AcDbSymbolTableRecord
100
AcDbLayerTableRecord
  2
03___PRT_ALL_CURVES
 70
0
 62
7
  6
CONTINUOUS
370
-3
390
F
  0
LAYER
  5
201
100
AcDbSymbolTableRecord
100
AcDbLayerTableRecord
  2
04___PRT_ALL_DTM_PNT
 70
0
 62
7
  6
CONTINUOUS
370
-3
390
F
  0
LAYER
  5
202
100
AcDbSymbolTableRecord
100
AcDbLayerTableRecord
  2
05___PRT_ALL_DTM_CSYS
 70
0
 62
7
  6
CONTINUOUS
370
-3
390
F
  0
LAYER
  5
203
100
AcDbSymbolTableRecord
100
AcDbLayerTableRecord
  2
05___PRT_DEF_DTM_CSYS
 70
0
 62
7
  6
CONTINUOUS
370
-3
390
F
  0
LAYER
  5
204
100
AcDbSymbolTableRecord
100
AcDbLayerTableRecord
  2
06___PRT_ALL_SURFS
 70
0
 62
7
  6
CONTINUOUS
370
-3
390
F
  0
LAYER
  5
205
100
AcDbSymbolTableRecord
100
AcDbLayerTableRecord
  2
DATUM_PLANES
 70
0
 62
7
  6
CONTINUOUS
370
-3
390
F
  0
LAYER
  5
206
100
AcDbSymbolTableRecord
100
AcDbLayerTableRecord
  2
DIMENSIONS
 70
0
 62
7
  6
CONTINUOUS
370
-3
390
F
  0
LAYER
  5
207
100
AcDbSymbolTableRecord
100
AcDbLayerTableRecord
  2
PARAMETERDIMENSIONS
 70
0
 62
7
  6
CONTINUOUS
370
-3
390
F
  0
LAYER
  5
208
100
AcDbSymbolTableRecord
100
AcDbLayerTableRecord
  2
PLANE
 70
0
 62
7
  6
CONTINUOUS
370
-3
390
F
  0
LAYER
  5
209
100
AcDbSymbolTableRecord
100
AcDbLayerTableRecord
  2
PORT_AREAS
 70
0
 62
7
  6
CONTINUOUS
370
-3
390
F
  0
LAYER
  5
20A
100
AcDbSymbolTableRecord
100
AcDbLayerTableRecord
  2
SUNNBOMCOSMETIC
 70
0
 62
7
  6
CONTINUOUS
370
-3
390
F
  0
LAYER
  5
20B
100
AcDbSymbolTableRecord
100
AcDbLayerTableRecord
  2
SUNNBOMSTAMPING
 70
0
 62
7
  6
CONTINUOUS
370
-3
390
F
  0
LAYER
  5
20C
100
AcDbSymbolTableRecord
100
AcDbLayerTableRecord
  2
THREADS
 70
0
 62
7
  6
CONTINUOUS
370
-3
390
F
  0
ENDTAB
  0
TABLE
  2
STYLE
  5
3
100
AcDbSymbolTable
 70
1
  0
STYLE
  5
11
100
AcDbSymbolTableRecord
100
AcDbTextStyleTableRecord
  2
STANDARD
 70
0
 40
0.0
 41
0.8
 50
0.0
 71
0
 42
0.2
  3
txt
  4

  0
STYLE
  5
20D
100
AcDbSymbolTableRecord
100
AcDbTextStyleTableRecord
  2
TEXTSTYLE_1
 70
0
 40
0.0
 41
0.8
 50
0.0
 71
0
 42
0.2
  3
gdt
  4

  0
ENDTAB
  0
TABLE
  2
VIEW
  5
6
100
AcDbSymbolTable
 70
0
  0
ENDTAB
  0
TABLE
  2
UCS
  5
7
100
AcDbSymbolTable
 70
0
  0
ENDTAB
  0
TABLE
  2
APPID
  5
9
100
AcDbSymbolTable
 70
1
  0
APPID
  5
20E
100
AcDbSymbolTableRecord
100
AcDbRegAppTableRecord
  2
ACAD
 70
0
  0
ENDTAB
  0
TABLE
  2
BLOCK_RECORD
  5
1
100
AcDbSymbolTable
 70
0
  0
BLOCK_RECORD
  5
20F
100
AcDbSymbolTableRecord
100
AcDbBlockTableRecord
  2
*Model_Space
  0
BLOCK_RECORD
  5
210
100
AcDbSymbolTableRecord
100
AcDbBlockTableRecord
  2
*Paper_Space
  0
BLOCK_RECORD
  5
211
100
AcDbSymbolTableRecord
100
AcDbBlockTableRecord
  2
SUN_FIRST_THIRD_ANGLE_BL0
  0
BLOCK_RECORD
  5
212
100
AcDbSymbolTableRecord
100
AcDbBlockTableRecord
  2
*T1
  0
BLOCK_RECORD
  5
213
100
AcDbSymbolTableRecord
100
AcDbBlockTableRecord
  2
*T2
  0
ENDTAB
  0
TABLE
  2
DIMSTYLE
  5
A
100
AcDbSymbolTable
 70
1
100
AcDbDimStyleTable
 71
0
  0
DIMSTYLE
105
214
100
AcDbSymbolTableRecord
100
AcDbDimStyleTableRecord
  2
STANDARD
 70
0
  3

  4

 40
1.0
 41
0.1875
 42
0.0625
 43
0.38
 44
0.125
 45
0.0
 46
0.0
 47
0.001
 48
0.001
140
0.1
141
0.09
142
0.0
143
25.4
144
1.0
145
0.0
146
1.0
147
0.09
 71
0.0
 72
0.0
 73
1
 74
1
 75
0
 76
0
 77
0
 78
4
170
0
171
2
172
0
173
0
174
0
175
0
176
0
177
0
178
0
270
2
271
3
272
3
273
2
274
2
275
0
280
0
281
0
282
0
283
1
284
4
285
0
286
0
287
3
288
0
340
11
278
46
  0
ENDTAB
  0
ENDSEC
  0
SECTION
  2
BLOCKS
  0
BLOCK
  5
20
100
AcDbEntity
  8
0
100
AcDbBlockBegin
  2
*Model_Space
 70
0
 10
0.0
 20
0.0
 30
0.0
  3
*Model_Space
  1

  0
ENDBLK
  5
21
100
AcDbEntity
  8
0
100
AcDbBlockEnd
  0
BLOCK
  5
1C
100
AcDbEntity
  8
0
100
AcDbBlockBegin
  2
*Paper_Space
 70
0
 10
0.0
 20
0.0
 30
0.0
  3
*Paper_Space
  1

  0
ENDBLK
  5
1D
100
AcDbEntity
  8
0
100
AcDbBlockEnd
  0
BLOCK
  5
215
100
AcDbEntity
  8
0
100
AcDbBlockBegin
 62
2
  6
CONTINUOUS
  2
SUN_FIRST_THIRD_ANGLE_BL0
 70
64
 10
20.4816717061
 20
1.2289683772
  3
SUN_FIRST_THIRD_ANGLE_BL0
  1

  0
TEXT
  5
216
100
AcDbEntity
  8
0
100
AcDbText
 62
2
  6
CONTINUOUS
 10
19.4750896608
 20
1.4136269581
  7
STANDARD
 40
0.08
  1
FIRST ANGLE
 41
0.8
 72
0
100
AcDbText
  0
TEXT
  5
217
100
AcDbEntity
  8
0
100
AcDbText
 62
2
  6
CONTINUOUS
 10
20.7842537513
 20
1.4047600029
  7
STANDARD
 40
0.08
  1
THIRD ANGLE
 41
0.8
 72
0
100
AcDbText
  0
LINE
  5
218
100
AcDbEntity
  8
0
100
AcDbLine
 62
7
  6
CONTINUOUS
 10
19.4767170086
 20
1.1727031207
 11
19.6334271527
 21
1.1717972817
  0
LINE
  5
219
100
AcDbEntity
  8
0
100
AcDbLine
 62
7
  6
CONTINUOUS
 10
19.6596964832
 20
1.1717972817
 11
19.6950230232
 21
1.171593082
  0
LINE
  5
21A
100
AcDbEntity
  8
0
100
AcDbLine
 62
7
  6
CONTINUOUS
 10
19.7194818561
 20
1.1708914427
 11
19.8852396156
 21
1.1699333054
  0
LINE
  5
21B
100
AcDbEntity
  8
0
100
AcDbLine
 62
7
  6
CONTINUOUS
 10
19.4758111696
 20
1.2723454088
 11
19.88525039
 21
1.3511534004
  0
LINE
  5
21C
100
AcDbEntity
  8
0
100
AcDbLine
 62
7
  6
CONTINUOUS
 10
19.88525039
 20
1.3511534004
 11
19.8831348489
 21
0.9851647912
  0
LINE
  5
21D
100
AcDbEntity
  8
0
100
AcDbLine
 62
7
  6
CONTINUOUS
 10
19.8831348489
 20
0.9851647912
 11
19.4767170086
 21
1.0658141206
  0
LINE
  5
21E
100
AcDbEntity
  8
0
100
AcDbLine
 62
7
  6
CONTINUOUS
 10
19.4767170086
 20
1.0658141206
 11
19.4779056764
 21
1.2714536432
  0
CIRCLE
  5
21F
100
AcDbEntity
  8
0
100
AcDbCircle
 62
7
  6
CONTINUOUS
 10
20.2068232291
 20
1.1717972817
 40
0.175742101
  0
CIRCLE
  5
220
100
AcDbEntity
  8
0
100
AcDbCircle
 62
7
  6
CONTINUOUS
 10
20.2068232291
 20
1.1717972817
 40
0.1005522074
  0
LINE
  5
221
100
AcDbEntity
  8
0
100
AcDbLine
 62
7
  6
CONTINUOUS
 10
20.2077290681
 20
1.3756110529
 11
20.2071171714
 21
1.2379342989
  0
LINE
  5
222
100
AcDbEntity
  8
0
100
AcDbLine
 62
7
  6
CONTINUOUS
 10
20.2077290681
 20
1.2016899681
 11
20.2074674401
 21
1.1428236749
  0
LINE
  5
223
100
AcDbEntity
  8
0
100
AcDbLine
 62
7
  6
CONTINUOUS
 10
20.208634907
 20
1.101141841
 11
20.2080230104
 21
0.963465087
  0
LINE
  5
224
100
AcDbEntity
  8
0
100
AcDbLine
 62
7
  6
CONTINUOUS
 10
20.0066328138
 20
1.1745147986
 11
20.1443095678
 21
1.1739029019
  0
LINE
  5
225
100
AcDbEntity
  8
0
100
AcDbLine
 62
7
  6
CONTINUOUS
 10
20.1832714155
 20
1.1727031207
 11
20.238153505
 21
1.172335442
  0
LINE
  5
226
100
AcDbEntity
  8
0
100
AcDbLine
 62
7
  6
CONTINUOUS
 10
20.2756669918
 20
1.1717972817
 11
20.407916871
 21
1.1712095044
  0
CIRCLE
  5
227
100
AcDbEntity
  8
0
100
AcDbCircle
 62
7
  6
CONTINUOUS
 10
20.7509457401
 20
1.1693297793
 40
0.1722024983
  0
CIRCLE
  5
228
100
AcDbEntity
  8
0
100
AcDbCircle
 62
7
  6
CONTINUOUS
 10
20.7509457401
 20
1.1693297793
 40
0.0985164967
  0
LINE
  5
229
100
AcDbEntity
  8
0
100
AcDbLine
 62
7
  6
CONTINUOUS
 10
20.7169767782
 20
1.170462078
 11
20.7825395137
 21
1.1682766535
  0
LINE
  5
22A
100
AcDbEntity
  8
0
100
AcDbLine
 62
7
  6
CONTINUOUS
 10
20.8177513651
 20
1.1693297793
 11
20.947965719
 21
1.1693297793
  0
LINE
  5
22B
100
AcDbEntity
  8
0
100
AcDbLine
 62
7
  6
CONTINUOUS
 10
20.6875370113
 20
1.170462078
 11
20.5573226574
 21
1.170462078
  0
LINE
  5
22C
100
AcDbEntity
  8
0
100
AcDbLine
 62
7
  6
CONTINUOUS
 10
20.7486811426
 20
1.1987695462
 11
20.7486811426
 21
1.1432869085
  0
LINE
  5
22D
100
AcDbEntity
  8
0
100
AcDbLine
 62
7
  6
CONTINUOUS
 10
20.7498134414
 20
1.1059210505
 11
20.7498134414
 21
0.9757066966
  0
LINE
  5
22E
100
AcDbEntity
  8
0
100
AcDbLine
 62
7
  6
CONTINUOUS
 10
20.7486811426
 20
1.2338708068
 11
20.7486811426
 21
1.3640851607
  0
LINE
  5
22F
100
AcDbEntity
  8
0
100
AcDbLine
 62
7
  6
CONTINUOUS
 10
21.0702539817
 20
1.2701043662
 11
21.4790138229
 21
1.3448360823
  0
LINE
  5
230
100
AcDbEntity
  8
0
100
AcDbLine
 62
7
  6
CONTINUOUS
 10
21.4790138229
 20
1.3448360823
 11
21.4790138229
 21
0.9779712941
  0
LINE
  5
231
100
AcDbEntity
  8
0
100
AcDbLine
 62
7
  6
CONTINUOUS
 10
21.4790138229
 20
0.9779712941
 11
21.069121683
 21
1.0617614
  0
LINE
  5
232
100
AcDbEntity
  8
0
100
AcDbLine
 62
7
  6
CONTINUOUS
 10
21.0702539817
 20
1.2701043662
 11
21.069121683
 21
1.0617614
  0
LINE
  5
233
100
AcDbEntity
  8
0
100
AcDbLine
 62
7
  6
CONTINUOUS
 10
21.4790138229
 20
1.1693297793
 11
21.3159628059
 21
1.1693297793
  0
LINE
  5
234
100
AcDbEntity
  8
0
100
AcDbLine
 62
7
  6
CONTINUOUS
 10
21.2876553377
 20
1.1693297793
 11
21.2502894796
 21
1.1693297793
  0
LINE
  5
235
100
AcDbEntity
  8
0
100
AcDbLine
 62
7
  6
CONTINUOUS
 10
21.2208497126
 20
1.1659328831
 11
21.0713862804
 21
1.1659328831
  0
LINE
  5
236
100
AcDbEntity
  8
0
100
AcDbLine
 62
7
  6
CONTINUOUS
 10
20.4796138713
 20
1.5284908897
 11
20.4766766948
 21
0.9294458646
  0
ENDBLK
  5
237
100
AcDbEntity
  8
0
  6
BYBLOCK
 62
0
100
AcDbBlockEnd
  0
BLOCK
  5
238
100
AcDbEntity
  8
0
100
AcDbBlockBegin
  2
*T1
 70
1
 10
0.0
 20
0.0
  3
*T1
  1

  0
LINE
  5
239
100
AcDbEntity
  8
0
100
AcDbLine
 62
2
  6
CONTINUOUS
 10
9.275
 20
0.0
 11
-0.0
 21
0.0
  0
LINE
  5
23A
100
AcDbEntity
  8
0
100
AcDbLine
 62
2
  6
CONTINUOUS
 10
9.275
 20
0.0
 11
9.275
 21
1.25
  0
LINE
  5
23B
100
AcDbEntity
  8
0
100
AcDbLine
 62
2
  6
CONTINUOUS
 10
9.275
 20
0.625
 11
-0.0
 21
0.625
  0
LINE
  5
23C
100
AcDbEntity
  8
0
100
AcDbLine
 62
2
  6
CONTINUOUS
 10
9.275
 20
1.25
 11
-0.0
 21
1.25
  0
LINE
  5
23D
100
AcDbEntity
  8
0
100
AcDbLine
 62
2
  6
CONTINUOUS
 10
6.8
 20
0.0
 11
6.8
 21
1.25
  0
LINE
  5
23E
100
AcDbEntity
  8
0
100
AcDbLine
 62
2
  6
CONTINUOUS
 10
6.4
 20
0.0
 11
6.4
 21
0.625
  0
LINE
  5
23F
100
AcDbEntity
  8
0
100
AcDbLine
 62
2
  6
CONTINUOUS
 10
5.9
 20
0.0
 11
5.9
 21
0.625
  0
LINE
  5
240
100
AcDbEntity
  8
0
100
AcDbLine
 62
2
  6
CONTINUOUS
 10
5.2
 20
0.0
 11
5.2
 21
0.625
  0
LINE
  5
241
100
AcDbEntity
  8
0
100
AcDbLine
 62
2
  6
CONTINUOUS
 10
4.1
 20
0.0
 11
4.1
 21
1.25
  0
LINE
  5
242
100
AcDbEntity
  8
0
100
AcDbLine
 62
2
  6
CONTINUOUS
 10
-0.0
 20
0.0
 11
-0.0
 21
1.25
  0
MTEXT
  5
243
100
AcDbEntity
  8
0
100
AcDbMText
 62
2
  6
CONTINUOUS
  7
STANDARD
 71
2
 72
1
 10
6.6
 20
0.325
 30
0.0
 11
1.0
 21
0.0
 31
0.0
 44
0.9
  1
2
 40
0.125
 41
0.2
  0
MTEXT
  5
244
100
AcDbEntity
  8
0
100
AcDbMText
 62
2
  6
CONTINUOUS
  7
STANDARD
 71
2
 72
1
 10
6.15
 20
0.325
 30
0.0
 11
1.0
 21
0.0
 31
0.0
 44
0.9
  1
C
 40
0.125
 41
0.2
  0
MTEXT
  5
245
100
AcDbEntity
  8
0
100
AcDbMText
 62
2
  6
CONTINUOUS
  7
STANDARD
 71
2
 72
1
 10
5.55
 20
0.325
 30
0.0
 11
1.0
 21
0.0
 31
0.0
 44
0.9
  1
1.000
 40
0.125
 41
1.0
  0
MTEXT
  5
246
100
AcDbEntity
  8
0
100
AcDbMText
 62
2
  6
CONTINUOUS
  7
STANDARD
 71
2
 72
1
 10
4.65
 20
0.325
 30
0.0
 11
1.0
 21
0.0
 31
0.0
 44
0.9
  1
Mar-30-21
 40
0.125
 41
1.8
  0
MTEXT
  5
247
100
AcDbEntity
  8
0
100
AcDbMText
 62
2
  6
CONTINUOUS
  7
STANDARD
 71
2
 72
1
 10
2.05
 20
0.4625
 30
0.0
 11
1.0
 21
0.0
 31
0.0
 44
0.9
  1
T-5A Sandwich ISO 03\PA and B to T
 40
0.125
 41
4.0
  0
MTEXT
  5
248
100
AcDbEntity
  8
0
100
AcDbMText
 62
2
  6
CONTINUOUS
  7
STANDARD
 71
1
 72
1
 10
6.45
 20
0.5625
 30
0.0
 11
1.0
 21
0.0
 31
0.0
 44
0.9
  1
SHEET
 40
0.06
 41
0.48
  0
MTEXT
  5
249
100
AcDbEntity
  8
0
100
AcDbMText
 62
2
  6
CONTINUOUS
  7
STANDARD
 71
1
 72
1
 10
5.95
 20
0.5625
 30
0.0
 11
1.0
 21
0.0
 31
0.0
 44
0.9
  1
DWG SIZE
 40
0.06
 41
0.768
  0
MTEXT
  5
24A
100
AcDbEntity
  8
0
100
AcDbMText
 62
2
  6
CONTINUOUS
  7
STANDARD
 71
1
 72
1
 10
5.25
 20
0.5625
 30
0.0
 11
1.0
 21
0.0
 31
0.0
 44
0.9
  1
SCALE
 40
0.06
 41
0.48
  0
MTEXT
  5
24B
100
AcDbEntity
  8
0
100
AcDbMText
 62
2
  6
CONTINUOUS
  7
STANDARD
 71
1
 72
1
 10
4.15
 20
0.5625
 30
0.0
 11
1.0
 21
0.0
 31
0.0
 44
0.9
  1
DATE
 40
0.06
 41
0.384
  0
MTEXT
  5
24C
100
AcDbEntity
  8
0
100
AcDbMText
 62
2
  6
CONTINUOUS
  7
STANDARD
 71
1
 72
1
 10
0.05
 20
0.5625
 30
0.0
 11
1.0
 21
0.0
 31
0.0
 44
0.9
  1
DESCRIPTION
 40
0.06
 41
1.056
  0
MTEXT
  5
24D
100
AcDbEntity
  8
0
100
AcDbMText
 62
2
  6
CONTINUOUS
  7
STANDARD
 71
2
 72
1
 10
5.45
 20
1.0375
 30
0.0
 11
1.0
 21
0.0
 31
0.0
 44
0.9
  1
ALL DIMENSIONS IN INCH\PVIEWS ARE THIRD ANGLE
 40
0.12
 41
4.224
  0
MTEXT
  5
24E
100
AcDbEntity
  8
0
100
AcDbMText
 62
2
  6
CONTINUOUS
  7
STANDARD
 71
2
 72
1
 10
2.05
 20
0.95
 30
0.0
 11
1.0
 21
0.0
 31
0.0
 44
0.9
  1
GBF
 40
0.125
 41
0.6
  0
MTEXT
  5
24F
100
AcDbEntity
  8
0
100
AcDbMText
 62
2
  6
CONTINUOUS
  7
STANDARD
 71
1
 72
1
 10
0.05
 20
1.1875
 30
0.0
 11
1.0
 21
0.0
 31
0.0
 44
0.9
  1
MODEL
 40
0.06
 41
0.48
  0
ENDBLK
  5
250
100
AcDbEntity
  8
0
  6
BYBLOCK
 62
0
100
AcDbBlockEnd
  0
BLOCK
  5
251
100
AcDbEntity
  8
0
100
AcDbBlockBegin
  2
*T2
 70
1
 10
0.0
 20
0.0
  3
*T2
  1

  0
LINE
  5
252
100
AcDbEntity
  8
0
100
AcDbLine
 62
2
  6
CONTINUOUS
 10
0.0
 20
0.0
 11
9.055
 21
0.0
  0
LINE
  5
253
100
AcDbEntity
  8
0
100
AcDbLine
 62
2
  6
CONTINUOUS
 10
0.0
 20
0.0
 11
0.0
 21
-2.094
  0
LINE
  5
254
100
AcDbEntity
  8
0
100
AcDbLine
 62
2
  6
CONTINUOUS
 10
0.0
 20
-0.344
 11
9.055
 21
-0.344
  0
LINE
  5
255
100
AcDbEntity
  8
0
100
AcDbLine
 62
2
  6
CONTINUOUS
 10
0.0
 20
-0.594
 11
9.055
 21
-0.594
  0
LINE
  5
256
100
AcDbEntity
  8
0
100
AcDbLine
 62
2
  6
CONTINUOUS
 10
0.0
 20
-0.844
 11
9.055
 21
-0.844
  0
LINE
  5
257
100
AcDbEntity
  8
0
100
AcDbLine
 62
2
  6
CONTINUOUS
 10
0.0
 20
-1.094
 11
9.055
 21
-1.094
  0
LINE
  5
258
100
AcDbEntity
  8
0
100
AcDbLine
 62
2
  6
CONTINUOUS
 10
0.0
 20
-1.344
 11
9.055
 21
-1.344
  0
LINE
  5
259
100
AcDbEntity
  8
0
100
AcDbLine
 62
2
  6
CONTINUOUS
 10
0.0
 20
-1.594
 11
9.055
 21
-1.594
  0
LINE
  5
25A
100
AcDbEntity
  8
0
100
AcDbLine
 62
2
  6
CONTINUOUS
 10
0.0
 20
-1.844
 11
9.055
 21
-1.844
  0
LINE
  5
25B
100
AcDbEntity
  8
0
100
AcDbLine
 62
2
  6
CONTINUOUS
 10
0.0
 20
-2.094
 11
9.055
 21
-2.094
  0
LINE
  5
25C
100
AcDbEntity
  8
0
100
AcDbLine
 62
2
  6
CONTINUOUS
 10
3.055
 20
0.0
 11
3.055
 21
-2.094
  0
LINE
  5
25D
100
AcDbEntity
  8
0
100
AcDbLine
 62
2
  6
CONTINUOUS
 10
9.055
 20
0.0
 11
9.055
 21
-2.094
  0
MTEXT
  5
25E
100
AcDbEntity
  8
0
100
AcDbMText
 62
2
  6
CONTINUOUS
  7
STANDARD
 71
2
 72
1
 10
1.5275
 20
-0.0995
 30
0.0
 11
1.0
 21
0.0
 31
0.0
 44
0.9
  1
Technical Data
 40
0.145
 41
3.248
  0
MTEXT
  5
25F
100
AcDbEntity
  8
0
100
AcDbMText
 62
2
  6
CONTINUOUS
  7
STANDARD
 71
2
 72
1
 10
4.555
 20
-0.0995
 30
0.0
 11
1.0
 21
0.0
 31
0.0
 44
0.9
  1
U.S. Units
 40
0.145
 41
2.32
  0
MTEXT
  5
260
100
AcDbEntity
  8
0
100
AcDbMText
 62
2
  6
CONTINUOUS
  7
STANDARD
 71
2
 72
1
 10
7.555
 20
-0.0995
 30
0.0
 11
1.0
 21
0.0
 31
0.0
 44
0.9
  1
Metric Units
 40
0.145
 41
2.784
  0
MTEXT
  5
261
100
AcDbEntity
  8
0
100
AcDbMText
 62
2
  6
CONTINUOUS
  7
STANDARD
 71
2
 72
1
 10
1.5275
 20
-0.4065
 30
0.0
 11
1.0
 21
0.0
 31
0.0
 44
0.9
  1
Cavity
 40
0.125
 41
1.2
  0
MTEXT
  5
262
100
AcDbEntity
  8
0
100
AcDbMText
 62
2
  6
CONTINUOUS
  7
STANDARD
 71
2
 72
1
 10
6.055
 20
-0.4065
 30
0.0
 11
1.0
 21
0.0
 31
0.0
 44
0.9
  1
T-5A
 40
0.125
 41
0.8
  0
MTEXT
  5
263
100
AcDbEntity
  8
0
100
AcDbMText
 62
2
  6
CONTINUOUS
  7
STANDARD
 71
2
 72
1
 10
1.5275
 20
-0.6565
 30
0.0
 11
1.0
 21
0.0
 31
0.0
 44
0.9
  1
Body Features
 40
0.125
 41
2.6
  0
MTEXT
  5
264
100
AcDbEntity
  8
0
100
AcDbMText
 62
2
  6
CONTINUOUS
  7
STANDARD
 71
2
 72
1
 10
6.055
 20
-0.6565
 30
0.0
 11
1.0
 21
0.0
 31
0.0
 44
0.9
  1
A and B to T
 40
0.125
 41
2.4
  0
MTEXT
  5
265
100
AcDbEntity
  8
0
100
AcDbMText
 62
2
  6
CONTINUOUS
  7
STANDARD
 71
2
 72
1
 10
1.5275
 20
-0.9065
 30
0.0
 11
1.0
 21
0.0
 31
0.0
 44
0.9
  1
Body Type
 40
0.125
 41
1.8
  0
MTEXT
  5
266
100
AcDbEntity
  8
0
100
AcDbMText
 62
2
  6
CONTINUOUS
  7
STANDARD
 71
2
 72
1
 10
6.055
 20
-0.9065
 30
0.0
 11
1.0
 21
0.0
 31
0.0
 44
0.9
  1
Sandwich
 40
0.125
 41
1.6
  0
MTEXT
  5
267
100
AcDbEntity
  8
0
100
AcDbMText
 62
2
  6
CONTINUOUS
  7
STANDARD
 71
2
 72
1
 10
1.5275
 20
-1.1565
 30
0.0
 11
1.0
 21
0.0
 31
0.0
 44
0.9
  1
Interface
 40
0.125
 41
1.8
  0
MTEXT
  5
268
100
AcDbEntity
  8
0
100
AcDbMText
 62
2
  6
CONTINUOUS
  7
STANDARD
 71
2
 72
1
 10
6.055
 20
-1.1565
 30
0.0
 11
1.0
 21
0.0
 31
0.0
 44
0.9
  1
ISO 03
 40
0.125
 41
1.2
  0
MTEXT
  5
269
100
AcDbEntity
  8
0
100
AcDbMText
 62
2
  6
CONTINUOUS
  7
STANDARD
 71
2
 72
1
 10
1.5275
 20
-1.4065
 30
0.0
 11
1.0
 21
0.0
 31
0.0
 44
0.9
  1
Open Cavity Quantity
 40
0.125
 41
4.0
  0
MTEXT
  5
26A
100
AcDbEntity
  8
0
100
AcDbMText
 62
2
  6
CONTINUOUS
  7
STANDARD
 71
2
 72
1
 10
6.055
 20
-1.4065
 30
0.0
 11
1.0
 21
0.0
 31
0.0
 44
0.9
  1
2
 40
0.125
 41
0.2
  0
MTEXT
  5
26B
100
AcDbEntity
  8
0
100
AcDbMText
 62
2
  6
CONTINUOUS
  7
STANDARD
 71
2
 72
1
 10
1.5275
 20
-1.6565
 30
0.0
 11
1.0
 21
0.0
 31
0.0
 44
0.9
  1
Stack Height
 40
0.125
 41
2.4
  0
MTEXT
  5
26C
100
AcDbEntity
  8
0
100
AcDbMText
 62
2
  6
CONTINUOUS
  7
STANDARD
 71
2
 72
1
 10
4.555
 20
-1.6565
 30
0.0
 11
1.0
 21
0.0
 31
0.0
 44
0.9
  1
1.75 in.
 40
0.125
 41
1.6
  0
MTEXT
  5
26D
100
AcDbEntity
  8
0
100
AcDbMText
 62
2
  6
CONTINUOUS
  7
STANDARD
 71
2
 72
1
 10
7.555
 20
-1.6565
 30
0.0
 11
1.0
 21
0.0
 31
0.0
 44
0.9
  1
44,5 mm
 40
0.125
 41
1.4
  0
MTEXT
  5
26E
100
AcDbEntity
  8
0
100
AcDbMText
 62
2
  6
CONTINUOUS
  7
STANDARD
 71
2
 72
1
 10
1.5275
 20
-1.9065
 30
0.0
 11
1.0
 21
0.0
 31
0.0
 44
0.9
  1
Weight
 40
0.125
 41
1.2
  0
MTEXT
  5
26F
100
AcDbEntity
  8
0
100
AcDbMText
 62
2
  6
CONTINUOUS
  7
STANDARD
 71
2
 72
1
 10
4.555
 20
-1.9065
 30
0.0
 11
1.0
 21
0.0
 31
0.0
 44
0.9
  1
1.123 lb.
 40
0.125
 41
1.8
  0
MTEXT
  5
270
100
AcDbEntity
  8
0
100
AcDbMText
 62
2
  6
CONTINUOUS
  7
STANDARD
 71
2
 72
1
 10
7.555
 20
-1.9065
 30
0.0
 11
1.0
 21
0.0
 31
0.0
 44
0.9
  1
0,509 kg.
 40
0.125
 41
1.8
  0
ENDBLK
  5
271
100
AcDbEntity
  8
0
  6
BYBLOCK
 62
0
100
AcDbBlockEnd
  0
ENDSEC
  0
SECTION
  2
ENTITIES
  0
IMAGE
  5
272
100
AcDbEntity
  8
0
100
AcDbRasterImage
 62
7
  6
CONTINUOUS
 10
19.2297077316
 20
0.3094318264
 30
0.0
 11
0.0066666667
 21
0.0
 31
0.0
 12
0.0
 22
0.0066666667
 32
0.0
 13
369.0
 23
92.0
340
       3BF
 70
9
280
0
281
50
282
50
283
0
360
       3B9
 71
1
 91
2
 14
-0.5
 24
-0.5
 14
368.5
 24
91.5
  0
INSERT
  5
273
100
AcDbEntity
  8
0
100
AcDbBlockReference
 62
2
  6
CONTINUOUS
  2
SUN_FIRST_THIRD_ANGLE_BL0
 10
20.4816717061
 20
1.2289683772
  0
ACAD_TABLE
  5
274
100
AcDbEntity
  8
0
 62
2
  6
CONTINUOUS
100
AcDbBlockReference
  2
*T1
 10
12.42375
 20
0.30125
 30
0.0
100
AcDbTable
342
       3C1
343
212
 11
1.0
 21
0.0
 31
0.0
 90
6
 91
4
 92
6
 93
20
 94
0
 95
0
 96
0
 70
1
 41
0.0
141
0.525
141
0.1
141
0.525
141
0.1
142
4.1
142
1.1
142
0.7
142
0.5
142
0.4
142
2.475
171
1
172
0
173
0
174
0
175
1
176
1
 91
33
178
0
145
0.0
301
CELL_VALUE
 90
4
  1
T-5A Sandwich ISO 03\PA and B to T
304
ACVALUE_END
170
2
140
0.125
171
1
172
0
173
0
174
0
175
1
176
1
 91
33
178
0
145
0.0
301
CELL_VALUE
 90
4
  1
Mar-30-21
304
ACVALUE_END
170
5
140
0.125
171
1
172
0
173
0
174
0
175
1
176
1
 91
33
178
0
145
0.0
301
CELL_VALUE
 90
4
  1
1.000
304
ACVALUE_END
170
5
140
0.125
171
1
172
0
173
0
174
0
175
1
176
1
 91
33
178
0
145
0.0
301
CELL_VALUE
 90
4
  1
C
304
ACVALUE_END
170
5
140
0.125
171
1
172
0
173
0
174
0
175
1
176
1
 91
33
178
0
145
0.0
301
CELL_VALUE
 90
4
  1
2
304
ACVALUE_END
170
5
140
0.125
171
1
172
0
173
0
174
0
175
1
176
1
 91
33
178
0
145
0.0
301
CELL_VALUE
 90
4
  1
 
304
ACVALUE_END
170
1
140
0.125
171
1
172
0
173
0
174
0
175
1
176
1
 91
33
178
0
145
0.0
301
CELL_VALUE
 90
4
  1
DESCRIPTION
304
ACVALUE_END
170
1
140
0.06
171
1
172
0
173
0
174
0
175
1
176
1
 91
33
178
0
145
0.0
301
CELL_VALUE
 90
4
  1
DATE
304
ACVALUE_END
170
1
140
0.06
171
1
172
0
173
0
174
0
175
1
176
1
 91
33
178
0
145
0.0
301
CELL_VALUE
 90
4
  1
SCALE
304
ACVALUE_END
170
1
140
0.06
171
1
172
0
173
0
174
0
175
1
176
1
 91
33
178
0
145
0.0
301
CELL_VALUE
 90
4
  1
DWG SIZE
304
ACVALUE_END
170
1
140
0.06
171
1
172
0
173
0
174
0
175
1
176
1
 91
33
178
0
145
0.0
301
CELL_VALUE
 90
4
  1
SHEET
304
ACVALUE_END
170
1
140
0.06
171
1
172
0
173
0
174
0
175
1
176
1
 91
33
178
0
145
0.0
301
CELL_VALUE
 90
4
  1
 
304
ACVALUE_END
170
1
140
0.125
171
1
172
0
173
0
174
0
175
1
176
1
 91
33
178
0
145
0.0
301
CELL_VALUE
 90
4
  1
GBF
304
ACVALUE_END
170
5
140
0.125
171
1
172
0
173
0
174
0
175
4
176
1
 91
33
178
0
145
0.0
301
CELL_VALUE
 90
4
  1
ALL DIMENSIONS IN INCH\PVIEWS ARE THIRD ANGLE
304
ACVALUE_END
170
5
140
0.12
171
1
172
0
173
1
174
0
175
1
176
1
 91
1
178
0
145
0.0
170
1
171
1
172
0
173
1
174
0
175
1
176
1
 91
1
178
0
145
0.0
170
1
171
1
172
0
173
1
174
0
175
1
176
1
 91
1
178
0
145
0.0
170
5
171
1
172
0
173
0
174
0
175
1
176
1
 91
33
178
0
145
0.0
301
CELL_VALUE
 90
4
  1
 
304
ACVALUE_END
170
1
140
0.125
171
1
172
0
173
0
174
0
175
1
176
1
 91
33
178
0
145
0.0
301
CELL_VALUE
 90
4
  1
MODEL
304
ACVALUE_END
170
1
140
0.06
171
1
172
0
173
0
174
0
175
1
176
1
 91
33
178
0
145
0.0
301
CELL_VALUE
 90
4
  1
 
304
ACVALUE_END
170
1
140
0.125
171
1
172
0
173
0
174
0
175
1
176
1
 91
33
178
0
145
0.0
301
CELL_VALUE
 90
4
  1
 
304
ACVALUE_END
170
1
140
0.125
171
1
172
0
173
0
174
0
175
1
176
1
 91
33
178
0
145
0.0
301
CELL_VALUE
 90
4
  1
 
304
ACVALUE_END
170
1
140
0.125
171
1
172
0
173
0
174
0
175
1
176
1
 91
33
178
0
145
0.0
301
CELL_VALUE
 90
4
  1
 
304
ACVALUE_END
170
1
140
0.125
171
1
172
0
173
0
174
0
175
1
176
1
 91
33
178
0
145
0.0
301
CELL_VALUE
 90
4
  1
 
304
ACVALUE_END
170
1
140
0.125
  0
ACAD_TABLE
  5
275
100
AcDbEntity
  8
0
 62
2
  6
CONTINUOUS
100
AcDbBlockReference
  2
*T2
 10
12.4237499994
 20
16.47875
 30
0.0
100
AcDbTable
342
       3C0
343
213
 11
1.0
 21
0.0
 31
0.0
 90
22
 91
8
 92
3
 93
16
 94
0
 95
0
 96
0
 41
0.028
141
0.344
141
0.25
141
0.25
141
0.25
141
0.25
141
0.25
141
0.25
141
0.25
142
3.055
142
3.0
142
3.0
171
1
172
0
173
0
174
0
175
1
176
1
 91
33
178
0
145
0.0
301
CELL_VALUE
 90
4
  1
Technical Data
304
ACVALUE_END
170
5
140
0.145
171
1
172
0
173
0
174
0
175
1
176
1
 91
33
178
0
145
0.0
301
CELL_VALUE
 90
4
  1
U.S. Units
304
ACVALUE_END
170
5
140
0.145
171
1
172
0
173
0
174
0
175
1
176
1
 91
33
178
0
145
0.0
301
CELL_VALUE
 90
4
  1
Metric Units
304
ACVALUE_END
170
5
140
0.145
171
1
172
0
173
0
174
0
175
1
176
1
 91
33
178
0
145
0.0
301
CELL_VALUE
 90
4
  1
Cavity
304
ACVALUE_END
170
5
140
0.125
171
1
172
0
173
0
174
0
175
2
176
1
 91
33
178
0
145
0.0
301
CELL_VALUE
 90
4
  1
T-5A
304
ACVALUE_END
170
5
140
0.125
171
1
172
0
173
1
174
0
175
1
176
1
 91
1
178
0
145
0.0
170
1
171
1
172
0
173
0
174
0
175
1
176
1
 91
33
178
0
145
0.0
301
CELL_VALUE
 90
4
  1
Body Features
304
ACVALUE_END
170
5
140
0.125
171
1
172
0
173
0
174
0
175
2
176
1
 91
33
178
0
145
0.0
301
CELL_VALUE
 90
4
  1
A and B to T
304
ACVALUE_END
170
5
140
0.125
171
1
172
0
173
1
174
0
175
1
176
1
 91
1
178
0
145
0.0
170
1
171
1
172
0
173
0
174
0
175
1
176
1
 91
33
178
0
145
0.0
301
CELL_VALUE
 90
4
  1
Body Type
304
ACVALUE_END
170
5
140
0.125
171
1
172
0
173
0
174
0
175
2
176
1
 91
33
178
0
145
0.0
301
CELL_VALUE
 90
4
  1
Sandwich
304
ACVALUE_END
170
5
140
0.125
171
1
172
0
173
1
174
0
175
1
176
1
 91
1
178
0
145
0.0
170
1
171
1
172
0
173
0
174
0
175
1
176
1
 91
33
178
0
145
0.0
301
CELL_VALUE
 90
4
  1
Interface
304
ACVALUE_END
170
5
140
0.125
171
1
172
0
173
0
174
0
175
2
176
1
 91
33
178
0
145
0.0
301
CELL_VALUE
 90
4
  1
ISO 03
304
ACVALUE_END
170
5
140
0.125
171
1
172
0
173
1
174
0
175
1
176
1
 91
1
178
0
145
0.0
170
1
171
1
172
0
173
0
174
0
175
1
176
1
 91
33
178
0
145
0.0
301
CELL_VALUE
 90
4
  1
Open Cavity Quantity
304
ACVALUE_END
170
5
140
0.125
171
1
172
0
173
0
174
0
175
2
176
1
 91
33
178
0
145
0.0
301
CELL_VALUE
 90
4
  1
2
304
ACVALUE_END
170
5
140
0.125
171
1
172
0
173
1
174
0
175
1
176
1
 91
1
178
0
145
0.0
170
1
171
1
172
0
173
0
174
0
175
1
176
1
 91
33
178
0
145
0.0
301
CELL_VALUE
 90
4
  1
Stack Height
304
ACVALUE_END
170
5
140
0.125
171
1
172
0
173
0
174
0
175
1
176
1
 91
33
178
0
145
0.0
301
CELL_VALUE
 90
4
  1
1.75 in.
304
ACVALUE_END
170
5
140
0.125
171
1
172
0
173
0
174
0
175
1
176
1
 91
33
178
0
145
0.0
301
CELL_VALUE
 90
4
  1
44,5 mm
304
ACVALUE_END
170
5
140
0.125
171
1
172
0
173
0
174
0
175
1
176
1
 91
33
178
0
145
0.0
301
CELL_VALUE
 90
4
  1
Weight
304
ACVALUE_END
170
5
140
0.125
171
1
172
0
173
0
174
0
175
1
176
1
 91
33
178
0
145
0.0
301
CELL_VALUE
 90
4
  1
1.123 lb.
304
ACVALUE_END
170
5
140
0.125
171
1
172
0
173
0
174
0
175
1
176
1
 91
33
178
0
145
0.0
301
CELL_VALUE
 90
4
  1
0,509 kg.
304
ACVALUE_END
170
5
140
0.125
  0
MTEXT
  5
276
100
AcDbEntity
  8
0
100
AcDbMText
 62
2
  6
CONTINUOUS
  7
STANDARD
 71
1
 72
1
 10
0.52125
 20
5.75995
 30
0.0
 11
1.0
 21
0.0
 31
0.0
 44
0.6
  3
Notes\P \P1. Important: Carefully consider\P   the maximum system pressure. The\P   pressure rating of the manifold is\P   dependent on the manifold material,\P   with the port type/size a secondary\P   consideration. Manifolds\P   constructed of alu
  1
minum are not\P   rated for pressures higher than\P   3000 psi (210 bar), regardless of\P   the port type/size specified.\P2. Items without balloons are\P   shipped loose.
 40
0.1
 41
3.04
  0
LINE
  5
277
100
AcDbEntity
  8
0
100
AcDbLine
 62
7
  6
CONTINUOUS
 10
0.30125
 20
0.30125
 11
0.30125
 21
16.69875
  0
LINE
  5
278
100
AcDbEntity
  8
0
100
AcDbLine
 62
7
  6
CONTINUOUS
 10
0.30125
 20
0.30125
 11
21.69875
 21
0.30125
  0
LINE
  5
279
100
AcDbEntity
  8
0
100
AcDbLine
 62
7
  6
CONTINUOUS
 10
0.30125
 20
16.69875
 11
21.69875
 21
16.69875
  0
LINE
  5
27A
100
AcDbEntity
  8
0
100
AcDbLine
 62
7
  6
CONTINUOUS
 10
21.69875
 20
0.30125
 11
21.69875
 21
16.69875
  0
LINE
  5
27B
100
AcDbEntity
  8
0
100
AcDbLine
 62
7
  6
CONTINUOUS
 10
8.1989602641
 20
8.9278881968
 11
8.1989602641
 21
8.0411682357
  0
LINE
  5
27C
100
AcDbEntity
  8
0
100
AcDbLine
 62
7
  6
CONTINUOUS
 10
8.2208805827
 20
8.9180615999
 11
8.2208805827
 21
8.0313416389
  0
LINE
  5
27D
100
AcDbEntity
  8
0
100
AcDbLine
 62
7
  6
CONTINUOUS
 10
8.5144604197
 20
9.5649164673
 11
8.2879939421
 21
9.3461666349
  0
LINE
  5
27E
100
AcDbEntity
  8
0
100
AcDbLine
 62
7
  6
CONTINUOUS
 10
8.5444041221
 20
9.5927835669
 11
8.3179376445
 21
9.3740337344
  0
LINE
  5
27F
100
AcDbEntity
  8
0
100
AcDbLine
 62
7
  6
CONTINUOUS
 10
8.5453203251
 20
9.5936524119
 11
8.5444041221
 21
9.5927835669
  0
LINE
  5
280
100
AcDbEntity
  8
0
100
AcDbLine
 62
7
  6
CONTINUOUS
 10
8.5153018347
 20
9.5657142239
 11
8.5144604197
 21
9.5649164673
  0
LINE
  5
281
100
AcDbEntity
  8
0
100
AcDbLine
 62
7
  6
CONTINUOUS
 10
8.5144604197
 20
9.5649164673
 11
8.5443960728
 21
9.5927922155
  0
LINE
  5
282
100
AcDbEntity
  8
0
100
AcDbLine
 62
7
  6
CONTINUOUS
 10
8.2879939421
 20
9.3461666349
 11
8.3179376445
 21
9.3740337344
  0
LINE
  5
283
100
AcDbEntity
  8
0
100
AcDbLine
 62
7
  6
CONTINUOUS
 10
8.2687252262
 20
7.7653498696
 11
8.2428497504
 21
7.7971651194
  0
LINE
  5
284
100
AcDbEntity
  8
0
100
AcDbLine
 62
7
  6
CONTINUOUS
 10
10.1301288683
 20
9.6330790684
 11
9.6901368424
 21
9.2080793821
  0
LINE
  5
285
100
AcDbEntity
  8
0
100
AcDbLine
 62
7
  6
CONTINUOUS
 10
8.1989602641
 20
8.0411682357
 11
8.2208805827
 21
8.0313416389
  0
LINE
  5
286
100
AcDbEntity
  8
0
100
AcDbLine
 62
7
  6
CONTINUOUS
 10
9.6901368424
 20
7.5177090859
 11
9.6901368424
 21
9.2080793821
  0
LINE
  5
287
100
AcDbEntity
  8
0
100
AcDbLine
 62
4
  6
CONTINUOUS
 10
9.8996932119
 20
9.2524953743
 11
9.8686349528
 21
9.222495398
  0
LINE
  5
288
100
AcDbEntity
  8
0
100
AcDbLine
 62
4
  6
CONTINUOUS
 10
10.1261533045
 20
9.1912390046
 11
10.1789523449
 21
9.2422389644
  0
LINE
  5
289
100
AcDbEntity
  8
0
100
AcDbLine
 62
4
  6
CONTINUOUS
 10
10.191873421
 20
9.1947197676
 11
10.2229316801
 21
9.2247197439
  0
LINE
  5
28A
100
AcDbEntity
  8
0
100
AcDbLine
 62
4
  6
CONTINUOUS
 10
10.2498289727
 20
9.1907005364
 11
10.2808872318
 21
9.2207005128
  0
LINE
  5
28B
100
AcDbEntity
  8
0
100
AcDbLine
 62
4
  6
CONTINUOUS
 10
10.5138860854
 20
9.4391887168
 11
10.5183229793
 21
9.4434744274
  0
LINE
  5
28C
100
AcDbEntity
  8
0
100
AcDbLine
 62
4
  6
CONTINUOUS
 10
10.1261533045
 20
9.1912390046
 11
10.1677713901
 21
9.2098958761
  0
LINE
  5
28D
100
AcDbEntity
  8
0
100
AcDbLine
 62
7
  6
CONTINUOUS
 10
13.3853766925
 20
7.6971124762
 11
13.3474096064
 21
7.6914390849
  0
LINE
  5
28E
100
AcDbEntity
  8
0
100
AcDbLine
 62
7
  6
CONTINUOUS
 10
9.6901368424
 20
7.5177090859
 11
11.8644359362
 21
7.3669209316
  0
LINE
  5
28F
100
AcDbEntity
  8
0
100
AcDbLine
 62
4
  6
CONTINUOUS
 10
10.1261533045
 20
9.1912390046
 11
10.1261532861
 21
9.2127821015
  0
LINE
  5
290
100
AcDbEntity
  8
0
100
AcDbLine
 62
4
  6
CONTINUOUS
 10
10.5540940602
 20
9.4180266417
 11
10.5585309545
 21
9.4223123528
  0
LINE
  5
291
100
AcDbEntity
  8
0
100
AcDbLine
 62
4
  6
CONTINUOUS
 10
10.6138328811
 20
9.4414442035
 11
10.5872115163
 21
9.4157299383
  0
LINE
  5
292
100
AcDbEntity
  8
0
100
AcDbLine
 62
4
  6
CONTINUOUS
 10
10.4602547035
 20
9.2559562553
 11
10.4913129626
 21
9.2859562317
  0
LINE
  5
293
100
AcDbEntity
  8
0
100
AcDbLine
 62
4
  6
CONTINUOUS
 10
10.645167068
 20
9.4117107071
 11
10.6717884328
 21
9.4374249724
  0
LINE
  5
294
100
AcDbEntity
  8
0
100
AcDbLine
 62
4
  6
CONTINUOUS
 10
10.6738476298
 20
9.4051282926
 11
10.7049058889
 21
9.435128269
  0
LINE
  5
295
100
AcDbEntity
  8
0
100
AcDbLine
 62
4
  6
CONTINUOUS
 10
10.5448316135
 20
9.2776512903
 11
10.5226471427
 21
9.2562227357
  0
LINE
  5
296
100
AcDbEntity
  8
0
100
AcDbLine
 62
4
  6
CONTINUOUS
 10
10.4837316628
 20
9.2066332037
 11
10.4526734037
 21
9.1766332273
  0
LINE
  5
297
100
AcDbEntity
  8
0
100
AcDbLine
 62
4
  6
CONTINUOUS
 10
10.7318031815
 20
9.4011090615
 11
10.7628614406
 21
9.4311090378
  0
LINE
  5
298
100
AcDbEntity
  8
0
100
AcDbLine
 62
4
  6
CONTINUOUS
 10
10.308824766
 20
9.2026861012
 11
10.3238337748
 21
9.2096836914
  0
LINE
  5
299
100
AcDbEntity
  8
0
100
AcDbLine
 62
4
  6
CONTINUOUS
 10
10.3957580936
 20
9.1966572545
 11
10.3807490849
 21
9.1896596643
  0
LINE
  5
29A
100
AcDbEntity
  8
0
100
AcDbLine
 62
4
  6
CONTINUOUS
 10
10.5406469729
 20
9.1866091766
 11
10.5556559816
 21
9.1936067667
  0
LINE
  5
29B
100
AcDbEntity
  8
0
100
AcDbLine
 62
4
  6
CONTINUOUS
 10
10.565126648
 20
9.2486833613
 11
10.6293023632
 21
9.2763866342
  0
LINE
  5
29C
100
AcDbEntity
  8
0
100
AcDbLine
 62
4
  6
CONTINUOUS
 10
10.9479512042
 20
9.3784634609
 11
11.0106479415
 21
9.404738165
  0
LINE
  5
29D
100
AcDbEntity
  8
0
100
AcDbLine
 62
7
  6
CONTINUOUS
 10
9.6901368424
 20
7.6540285383
 11
8.2919936196
 21
7.7509901001
  0
LINE
  5
29E
100
AcDbEntity
  8
0
100
AcDbLine
 62
7
  6
CONTINUOUS
 10
11.9396900807
 20
7.5136449327
 11
13.4185226433
 21
7.4110875461
  0
LINE
  5
29F
100
AcDbEntity
  8
0
100
AcDbLine
 62
4
  6
CONTINUOUS
 10
10.3083046452
 20
9.1946837032
 11
10.308824766
 21
9.2026861012
  0
LINE
  5
2A0
100
AcDbEntity
  8
0
100
AcDbLine
 62
4
  6
CONTINUOUS
 10
10.3962782144
 20
9.2046596524
 11
10.3957580936
 21
9.1966572545
  0
LINE
  5
2A1
100
AcDbEntity
  8
0
100
AcDbLine
 62
4
  6
CONTINUOUS
 10
10.6975964864
 20
9.2394965468
 11
10.7286547455
 21
9.2694965231
  0
LINE
  5
2A2
100
AcDbEntity
  8
0
100
AcDbLine
 62
4
  6
CONTINUOUS
 10
10.8559936456
 20
9.3924964235
 11
10.8870519046
 21
9.4224963999
  0
LINE
  5
2A3
100
AcDbEntity
  8
0
100
AcDbLine
 62
4
  6
CONTINUOUS
 10
10.6865760938
 20
9.1925658946
 11
10.6555178347
 21
9.1625659183
  0
LINE
  5
2A4
100
AcDbEntity
  8
0
100
AcDbLine
 62
4
  6
CONTINUOUS
 10
10.9256358601
 20
9.4083370668
 11
10.9056698367
 21
9.389051368
  0
LINE
  5
2A5
100
AcDbEntity
  8
0
100
AcDbLine
 62
4
  6
CONTINUOUS
 10
10.8324568117
 20
9.3054758849
 11
10.8546412825
 21
9.3269044395
  0
LINE
  5
2A6
100
AcDbEntity
  8
0
100
AcDbLine
 62
4
  6
CONTINUOUS
 10
10.7638313987
 20
9.23490314
 11
10.7948896578
 21
9.2649031164
  0
LINE
  5
2A7
100
AcDbEntity
  8
0
100
AcDbLine
 62
4
  6
CONTINUOUS
 10
10.7445316455
 20
9.1885466635
 11
10.7134733864
 21
9.1585466871
  0
LINE
  5
2A8
100
AcDbEntity
  8
0
100
AcDbLine
 62
4
  6
CONTINUOUS
 10
10.9037230465
 20
9.314313787
 11
10.885975469
 21
9.2971709426
  0
LINE
  5
2A9
100
AcDbEntity
  8
0
100
AcDbLine
 62
4
  6
CONTINUOUS
 10
10.9190929252
 20
9.2948742392
 11
10.9501511843
 21
9.3248742156
  0
LINE
  5
2AA
100
AcDbEntity
  8
0
100
AcDbLine
 62
4
  6
CONTINUOUS
 10
11.0127602491
 20
9.383921328
 11
11.0305078253
 21
9.4010641713
  0
LINE
  5
2AB
100
AcDbEntity
  8
0
100
AcDbLine
 62
4
  6
CONTINUOUS
 10
10.9953904815
 20
9.3171434494
 11
10.9887351398
 21
9.3107148825
  0
LINE
  5
2AC
100
AcDbEntity
  8
0
100
AcDbLine
 62
4
  6
CONTINUOUS
 10
11.0912762245
 20
9.4083333952
 11
11.0602179654
 21
9.3783334189
  0
LINE
  5
2AD
100
AcDbEntity
  8
0
100
AcDbLine
 62
4
  6
CONTINUOUS
 10
10.9881407126
 20
9.3015692856
 11
10.9814853713
 21
9.2951407192
  0
LINE
  5
2AE
100
AcDbEntity
  8
0
100
AcDbLine
 62
4
  6
CONTINUOUS
 10
11.4417693124
 20
9.384026617
 11
11.4367910869
 21
9.382075152
  0
LINE
  5
2AF
100
AcDbEntity
  8
0
100
AcDbLine
 62
7
  6
CONTINUOUS
 10
8.2208805827
 20
8.0313416389
 11
9.6901368424
 21
7.9294483712
  0
LINE
  5
2B0
100
AcDbEntity
  8
0
100
AcDbLine
 62
7
  6
CONTINUOUS
 10
13.3474096064
 20
7.6914390849
 11
11.8685770437
 21
7.7939964715
  0
LINE
  5
2B1
100
AcDbEntity
  8
0
100
AcDbLine
 62
7
  6
CONTINUOUS
 10
8.1989602641
 20
8.9278881968
 11
8.2208805827
 21
8.9180615999
  0
LINE
  5
2B2
100
AcDbEntity
  8
0
100
AcDbLine
 62
4
  6
CONTINUOUS
 10
10.5401268521
 20
9.1786067786
 11
10.5406469729
 21
9.1866091766
  0
LINE
  5
2B3
100
AcDbEntity
  8
0
100
AcDbLine
 62
4
  6
CONTINUOUS
 10
11.093335463
 20
9.3760367126
 11
11.1155199343
 21
9.3974652676
  0
LINE
  5
2B4
100
AcDbEntity
  8
0
100
AcDbLine
 62
4
  6
CONTINUOUS
 10
10.9421349759
 20
9.2271311557
 11
10.9643194467
 21
9.2485597103
  0
LINE
  5
2B5
100
AcDbEntity
  8
0
100
AcDbLine
 62
4
  6
CONTINUOUS
 10
11.0101659331
 20
9.2885583047
 11
11.0412241921
 21
9.318558281
  0
LINE
  5
2B6
100
AcDbEntity
  8
0
100
AcDbLine
 62
4
  6
CONTINUOUS
 10
11.1519384841
 20
9.3926429265
 11
11.1475015902
 21
9.3883572159
  0
LINE
  5
2B7
100
AcDbEntity
  8
0
100
AcDbLine
 62
4
  6
CONTINUOUS
 10
11.1700681831
 20
9.3730119858
 11
11.1767235246
 21
9.3794405524
  0
LINE
  5
2B8
100
AcDbEntity
  8
0
100
AcDbLine
 62
4
  6
CONTINUOUS
 10
11.0387275252
 20
9.2204324397
 11
11.0609119961
 21
9.2418609943
  0
LINE
  5
2B9
100
AcDbEntity
  8
0
100
AcDbLine
 62
4
  6
CONTINUOUS
 10
11.2175258994
 20
9.3674240766
 11
11.2352734768
 21
9.384566921
  0
LINE
  5
2BA
100
AcDbEntity
  8
0
100
AcDbLine
 62
4
  6
CONTINUOUS
 10
11.1188675478
 20
9.2378417631
 11
11.0966830769
 21
9.2164132085
  0
LINE
  5
2BB
100
AcDbEntity
  8
0
100
AcDbLine
 62
4
  6
CONTINUOUS
 10
11.272827813
 20
9.3865559292
 11
11.2528617889
 21
9.3672702297
  0
LINE
  5
2BC
100
AcDbEntity
  8
0
100
AcDbLine
 62
4
  6
CONTINUOUS
 10
11.1253636249
 20
9.209830795
 11
11.156421884
 21
9.2398307713
  0
LINE
  5
2BD
100
AcDbEntity
  8
0
100
AcDbLine
 62
4
  6
CONTINUOUS
 10
11.3003195605
 20
9.3616823167
 11
11.3225040318
 21
9.3831108717
  0
LINE
  5
2BE
100
AcDbEntity
  8
0
100
AcDbLine
 62
4
  6
CONTINUOUS
 10
11.33565545
 20
9.3615284698
 11
11.3644952619
 21
9.3893855906
  0
LINE
  5
2BF
100
AcDbEntity
  8
0
100
AcDbLine
 62
4
  6
CONTINUOUS
 10
11.2099405418
 20
9.2315258295
 11
11.187756071
 21
9.2100972749
  0
LINE
  5
2C0
100
AcDbEntity
  8
0
100
AcDbLine
 62
4
  6
CONTINUOUS
 10
10.6293023632
 20
9.2763866342
 11
10.6313615741
 21
9.2440899535
  0
LINE
  5
2C1
100
AcDbEntity
  8
0
100
AcDbLine
 62
4
  6
CONTINUOUS
 10
11.2302356177
 20
9.2025578976
 11
11.2612938768
 21
9.2325578739
  0
LINE
  5
2C2
100
AcDbEntity
  8
0
100
AcDbLine
 62
4
  6
CONTINUOUS
 10
11.4367910869
 20
9.382075152
 11
11.4390095348
 21
9.3842180082
  0
LINE
  5
2C3
100
AcDbEntity
  8
0
100
AcDbLine
 62
4
  6
CONTINUOUS
 10
11.4079512757
 20
9.3542180319
 11
11.430135747
 21
9.3756465869
  0
LINE
  5
2C4
100
AcDbEntity
  8
0
100
AcDbLine
 62
4
  6
CONTINUOUS
 10
11.4543263311
 20
9.3532986162
 11
11.4720739073
 21
9.3704414595
  0
LINE
  5
2C5
100
AcDbEntity
  8
0
100
AcDbLine
 62
4
  6
CONTINUOUS
 10
11.5399328946
 20
9.3588453073
 11
11.5465882355
 21
9.3652738733
  0
LINE
  5
2C6
100
AcDbEntity
  8
0
100
AcDbLine
 62
4
  6
CONTINUOUS
 10
11.5785167674
 20
9.3446859802
 11
11.585172109
 21
9.3511145469
  0
LINE
  5
2C7
100
AcDbEntity
  8
0
100
AcDbLine
 62
7
  6
CONTINUOUS
 10
11.183752794
 20
8.9326705875
 11
11.1336069585
 21
8.8842334271
  0
LINE
  5
2C8
100
AcDbEntity
  8
0
100
AcDbLine
 62
4
  6
CONTINUOUS
 10
12.1640467757
 20
9.457193018
 11
12.1790557844
 21
9.4641906082
  0
LINE
  5
2C9
100
AcDbEntity
  8
0
100
AcDbLine
 62
7
  6
CONTINUOUS
 10
13.3853766925
 20
8.5422976242
 11
13.3474096064
 21
8.536624233
  0
LINE
  5
2CA
100
AcDbEntity
  8
0
100
AcDbLine
 62
7
  6
CONTINUOUS
 10
11.2705840666
 20
8.8427521224
 11
11.220450285
 21
8.7943266051
  0
LINE
  5
2CB
100
AcDbEntity
  8
0
100
AcDbLine
 62
4
  6
CONTINUOUS
 10
10.2229316801
 20
9.2247197439
 11
10.2498289727
 21
9.1907005364
  0
LINE
  5
2CC
100
AcDbEntity
  8
0
100
AcDbLine
 62
4
  6
CONTINUOUS
 10
12.0952183508
 20
9.4432098597
 11
12.100394726
 21
9.4482098546
  0
LINE
  5
2CD
100
AcDbEntity
  8
0
100
AcDbLine
 62
7
  6
CONTINUOUS
 10
12.3044279621
 20
9.4822909141
 11
11.8644359362
 21
9.0572912278
  0
LINE
  5
2CE
100
AcDbEntity
  8
0
100
AcDbLine
 62
7
  6
CONTINUOUS
 10
13.3474096064
 20
8.536624233
 11
11.8685770437
 21
8.6391816195
  0
LINE
  5
2CF
100
AcDbEntity
  8
0
100
AcDbLine
 62
7
  6
CONTINUOUS
 10
8.2208805827
 20
8.9180615999
 11
9.6901368424
 21
8.8161683322
  0
LINE
  5
2D0
100
AcDbEntity
  8
0
100
AcDbLine
 62
4
  6
CONTINUOUS
 10
10.3176171567
 20
9.1886788995
 11
10.3083046452
 21
9.1946837032
  0
LINE
  5
2D1
100
AcDbEntity
  8
0
100
AcDbLine
 62
4
  6
CONTINUOUS
 10
10.960971778
 20
9.4081832187
 11
10.963625416
 21
9.3850321349
  0
LINE
  5
2D2
100
AcDbEntity
  8
0
100
AcDbLine
 62
7
  6
CONTINUOUS
 10
11.9656341055
 20
9.0951537541
 11
12.2032297928
 21
9.3246535783
  0
LINE
  5
2D3
100
AcDbEntity
  8
0
100
AcDbLine
 62
4
  6
CONTINUOUS
 10
10.3869657036
 20
9.2106644569
 11
10.3962782144
 21
9.2046596524
  0
LINE
  5
2D4
100
AcDbEntity
  8
0
100
AcDbLine
 62
4
  6
CONTINUOUS
 10
10.5494393636
 20
9.1726019748
 11
10.5401268521
 21
9.1786067786
  0
LINE
  5
2D5
100
AcDbEntity
  8
0
100
AcDbLine
 62
4
  6
CONTINUOUS
 10
10.6187879105
 20
9.1945875322
 11
10.6234441649
 21
9.1915851291
  0
LINE
  5
2D6
100
AcDbEntity
  8
0
100
AcDbLine
 62
4
  6
CONTINUOUS
 10
10.7049058889
 20
9.435128269
 11
10.7318031815
 21
9.4011090615
  0
LINE
  5
2D7
100
AcDbEntity
  8
0
100
AcDbLine
 62
7
  6
CONTINUOUS
 10
11.8644359362
 20
9.0572912278
 11
9.6901368424
 21
9.2080793821
  0
LINE
  5
2D8
100
AcDbEntity
  8
0
100
AcDbLine
 62
4
  6
CONTINUOUS
 10
10.4073304669
 20
9.2734067954
 11
10.4455712196
 21
9.2646302427
  0
LINE
  5
2D9
100
AcDbEntity
  8
0
100
AcDbLine
 62
4
  6
CONTINUOUS
 10
10.3295178563
 20
9.1851740936
 11
10.3176171567
 21
9.1886788995
  0
LINE
  5
2DA
100
AcDbEntity
  8
0
100
AcDbLine
 62
4
  6
CONTINUOUS
 10
10.3750650033
 20
9.2141692621
 11
10.3869657036
 21
9.2106644569
  0
LINE
  5
2DB
100
AcDbEntity
  8
0
100
AcDbLine
 62
4
  6
CONTINUOUS
 10
10.5613400632
 20
9.1690971689
 11
10.5494393636
 21
9.1726019748
  0
LINE
  5
2DC
100
AcDbEntity
  8
0
100
AcDbLine
 62
4
  6
CONTINUOUS
 10
10.6068872102
 20
9.1980923375
 11
10.6187879105
 21
9.1945875322
  0
LINE
  5
2DD
100
AcDbEntity
  8
0
100
AcDbLine
 62
4
  6
CONTINUOUS
 10
10.5327097794
 20
9.2830853527
 11
10.5448316135
 21
9.2776512903
  0
LINE
  5
2DE
100
AcDbEntity
  8
0
100
AcDbLine
 62
4
  6
CONTINUOUS
 10
12.1531739025
 20
9.4391906285
 11
12.143341269
 21
9.4371930332
  0
LINE
  5
2DF
100
AcDbEntity
  8
0
100
AcDbLine
 62
4
  6
CONTINUOUS
 10
12.1443815116
 20
9.4531978301
 11
12.1640467757
 21
9.457193018
  0
LINE
  5
2E0
100
AcDbEntity
  8
0
100
AcDbLine
 62
4
  6
CONTINUOUS
 10
12.100394726
 20
9.4482098546
 11
12.1102273595
 21
9.4502074499
  0
LINE
  5
2E1
100
AcDbEntity
  8
0
100
AcDbLine
 62
4
  6
CONTINUOUS
 10
10.6027386597
 20
9.1715851456
 11
10.5929060274
 21
9.1695875514
  0
LINE
  5
2E2
100
AcDbEntity
  8
0
100
AcDbLine
 62
4
  6
CONTINUOUS
 10
10.5556559816
 20
9.1936067667
 11
10.5753212467
 21
9.1976019556
  0
LINE
  5
2E3
100
AcDbEntity
  8
0
100
AcDbLine
 62
4
  6
CONTINUOUS
 10
10.3807490849
 20
9.1896596643
 11
10.3610838205
 21
9.1856644761
  0
LINE
  5
2E4
100
AcDbEntity
  8
0
100
AcDbLine
 62
4
  6
CONTINUOUS
 10
10.3238337748
 20
9.2096836914
 11
10.3434990398
 21
9.2136788803
  0
LINE
  5
2E5
100
AcDbEntity
  8
0
100
AcDbLine
 62
4
  6
CONTINUOUS
 10
11.187756071
 20
9.2100972749
 11
11.1667604555
 21
9.206959915
  0
LINE
  5
2E6
100
AcDbEntity
  8
0
100
AcDbLine
 62
4
  6
CONTINUOUS
 10
11.0966830769
 20
9.2164132085
 11
11.0756874614
 21
9.2132758486
  0
LINE
  5
2E7
100
AcDbEntity
  8
0
100
AcDbLine
 62
4
  6
CONTINUOUS
 10
11.0609119961
 20
9.2418609943
 11
11.0819076111
 21
9.2449983537
  0
LINE
  5
2E8
100
AcDbEntity
  8
0
100
AcDbLine
 62
4
  6
CONTINUOUS
 10
10.9643194467
 20
9.2485597103
 11
10.9853150618
 21
9.2516970697
  0
LINE
  5
2E9
100
AcDbEntity
  8
0
100
AcDbLine
 62
4
  6
CONTINUOUS
 10
11.5680189873
 20
9.3431172984
 11
11.5785167674
 21
9.3446859802
  0
LINE
  5
2EA
100
AcDbEntity
  8
0
100
AcDbLine
 62
4
  6
CONTINUOUS
 10
11.5465882355
 20
9.3652738733
 11
11.5570860163
 21
9.3668425558
  0
LINE
  5
2EB
100
AcDbEntity
  8
0
100
AcDbLine
 62
4
  6
CONTINUOUS
 10
10.9814853713
 20
9.2951407192
 11
10.9604897557
 21
9.2920033593
  0
LINE
  5
2EC
100
AcDbEntity
  8
0
100
AcDbLine
 62
4
  6
CONTINUOUS
 10
11.4720739073
 20
9.3704414595
 11
11.4825716881
 21
9.3720101421
  0
LINE
  5
2ED
100
AcDbEntity
  8
0
100
AcDbLine
 62
4
  6
CONTINUOUS
 10
10.9887351398
 20
9.3107148825
 11
10.9677395109
 21
9.307577524
  0
LINE
  5
2EE
100
AcDbEntity
  8
0
100
AcDbLine
 62
4
  6
CONTINUOUS
 10
10.5226471427
 20
9.2562227357
 11
10.5016515203
 21
9.2530853763
  0
LINE
  5
2EF
100
AcDbEntity
  8
0
100
AcDbLine
 62
4
  6
CONTINUOUS
 10
10.5929060274
 20
9.1695875514
 11
10.5758289511
 21
9.1680923611
  0
LINE
  5
2F0
100
AcDbEntity
  8
0
100
AcDbLine
 62
4
  6
CONTINUOUS
 10
10.5753212467
 20
9.1976019556
 11
10.5923983222
 21
9.1990971453
  0
LINE
  5
2F1
100
AcDbEntity
  8
0
100
AcDbLine
 62
4
  6
CONTINUOUS
 10
10.3610838205
 20
9.1856644761
 11
10.3440067442
 21
9.1841692858
  0
LINE
  5
2F2
100
AcDbEntity
  8
0
100
AcDbLine
 62
4
  6
CONTINUOUS
 10
10.3434990398
 20
9.2136788803
 11
10.3605761154
 21
9.2151740699
  0
LINE
  5
2F3
100
AcDbEntity
  8
0
100
AcDbLine
 62
4
  6
CONTINUOUS
 10
11.3704965144
 20
9.2066110032
 11
11.3204240472
 21
9.203958993
  0
LINE
  5
2F4
100
AcDbEntity
  8
0
100
AcDbLine
 62
4
  6
CONTINUOUS
 10
10.457402938
 20
9.2760588058
 11
10.4073304669
 21
9.2734067954
  0
LINE
  5
2F5
100
AcDbEntity
  8
0
100
AcDbLine
 62
4
  6
CONTINUOUS
 10
10.5758289511
 20
9.1680923611
 11
10.5613400632
 21
9.1690971689
  0
LINE
  5
2F6
100
AcDbEntity
  8
0
100
AcDbLine
 62
4
  6
CONTINUOUS
 10
10.3440067442
 20
9.1841692858
 11
10.3295178563
 21
9.1851740936
  0
LINE
  5
2F7
100
AcDbEntity
  8
0
100
AcDbLine
 62
4
  6
CONTINUOUS
 10
10.6710469642
 20
9.1775659064
 11
10.729002516
 21
9.1735466753
  0
LINE
  5
2F8
100
AcDbEntity
  8
0
100
AcDbLine
 62
7
  6
CONTINUOUS
 10
13.4444666682
 20
8.9925963675
 11
11.9656341055
 21
9.0951537541
  0
LINE
  5
2F9
100
AcDbEntity
  8
0
100
AcDbLine
 62
4
  6
CONTINUOUS
 10
10.3605761154
 20
9.2151740699
 11
10.3750650033
 21
9.2141692621
  0
LINE
  5
2FA
100
AcDbEntity
  8
0
100
AcDbLine
 62
4
  6
CONTINUOUS
 10
10.447509443
 20
9.2091452232
 11
10.5199538826
 21
9.2041211842
  0
LINE
  5
2FB
100
AcDbEntity
  8
0
100
AcDbLine
 62
4
  6
CONTINUOUS
 10
10.5923983222
 20
9.1990971453
 11
10.6068872102
 21
9.1980923375
  0
LINE
  5
2FC
100
AcDbEntity
  8
0
100
AcDbLine
 62
4
  6
CONTINUOUS
 10
10.1789523449
 20
9.2422389644
 11
10.8744189655
 21
9.1940081905
  0
LINE
  5
2FD
100
AcDbEntity
  8
0
100
AcDbLine
 62
7
  6
CONTINUOUS
 10
8.3179376445
 20
9.3740337344
 11
9.7585166819
 21
9.2741292389
  0
LINE
  5
2FE
100
AcDbEntity
  8
0
100
AcDbLine
 62
4
  6
CONTINUOUS
 10
11.1667604555
 20
9.206959915
 11
11.1253636249
 21
9.209830795
  0
LINE
  5
2FF
100
AcDbEntity
  8
0
100
AcDbLine
 62
4
  6
CONTINUOUS
 10
11.0756874614
 20
9.2132758486
 11
11.050849352
 21
9.2149983773
  0
LINE
  5
300
100
AcDbEntity
  8
0
100
AcDbLine
 62
4
  6
CONTINUOUS
 10
10.987374245
 20
9.219400391
 11
10.9542568027
 21
9.2216970934
  0
LINE
  5
301
100
AcDbEntity
  8
0
100
AcDbLine
 62
4
  6
CONTINUOUS
 10
10.5016515203
 20
9.2530853763
 11
10.4602547035
 21
9.2559562553
  0
LINE
  5
302
100
AcDbEntity
  8
0
100
AcDbLine
 62
4
  6
CONTINUOUS
 10
10.7638313987
 20
9.23490314
 11
10.8135075899
 21
9.2314580845
  0
LINE
  5
303
100
AcDbEntity
  8
0
100
AcDbLine
 62
4
  6
CONTINUOUS
 10
11.2302356177
 20
9.2025578976
 11
11.2799117812
 21
9.1991128439
  0
LINE
  5
304
100
AcDbEntity
  8
0
100
AcDbLine
 62
4
  6
CONTINUOUS
 10
10.5850395888
 20
9.2564892157
 11
10.629196197
 21
9.2534269445
  0
LINE
  5
305
100
AcDbEntity
  8
0
100
AcDbLine
 62
4
  6
CONTINUOUS
 10
11.2811006375
 20
9.2174040395
 11
11.2479831952
 21
9.219700742
  0
LINE
  5
306
100
AcDbEntity
  8
0
100
AcDbLine
 62
4
  6
CONTINUOUS
 10
10.8146964461
 20
9.2497492801
 11
10.7815789761
 21
9.2520459844
  0
LINE
  5
307
100
AcDbEntity
  8
0
100
AcDbLine
 62
4
  6
CONTINUOUS
 10
10.4913129626
 20
9.2859562317
 11
10.5327097794
 21
9.2830853527
  0
LINE
  5
308
100
AcDbEntity
  8
0
100
AcDbLine
 62
4
  6
CONTINUOUS
 10
10.6955372755
 20
9.2717932275
 11
10.7617721878
 21
9.2671998207
  0
LINE
  5
309
100
AcDbEntity
  8
0
100
AcDbLine
 62
4
  6
CONTINUOUS
 10
10.7948896578
 20
9.2649031164
 11
10.8445658489
 21
9.2614580608
  0
LINE
  5
30A
100
AcDbEntity
  8
0
100
AcDbLine
 62
4
  6
CONTINUOUS
 10
10.9853150618
 20
9.2516970697
 11
11.0184325041
 21
9.2494003673
  0
LINE
  5
30B
100
AcDbEntity
  8
0
100
AcDbLine
 62
4
  6
CONTINUOUS
 10
11.0819076111
 20
9.2449983537
 11
11.1067457205
 21
9.243275825
  0
LINE
  5
30C
100
AcDbEntity
  8
0
100
AcDbLine
 62
4
  6
CONTINUOUS
 10
11.156421884
 20
9.2398307713
 11
11.1978187145
 21
9.2369598914
  0
LINE
  5
30D
100
AcDbEntity
  8
0
100
AcDbLine
 62
4
  6
CONTINUOUS
 10
11.2612938768
 20
9.2325578739
 11
11.3109700403
 21
9.2291128203
  0
LINE
  5
30E
100
AcDbEntity
  8
0
100
AcDbLine
 62
4
  6
CONTINUOUS
 10
10.9604897557
 20
9.2920033593
 11
10.9190929252
 21
9.2948742392
  0
LINE
  5
30F
100
AcDbEntity
  8
0
100
AcDbLine
 62
4
  6
CONTINUOUS
 10
10.885975469
 20
9.2971709426
 11
10.8445786471
 21
9.300041822
  0
LINE
  5
310
100
AcDbEntity
  8
0
100
AcDbLine
 62
4
  6
CONTINUOUS
 10
10.9346220547
 20
9.3098742274
 11
10.9760188853
 21
9.3070033475
  0
LINE
  5
311
100
AcDbEntity
  8
0
100
AcDbLine
 62
4
  6
CONTINUOUS
 10
11.0775897016
 20
9.3022560935
 11
11.0279135105
 21
9.3057011491
  0
LINE
  5
312
100
AcDbEntity
  8
0
100
AcDbLine
 62
4
  6
CONTINUOUS
 10
10.8788849543
 20
9.3160363145
 11
10.9037230465
 21
9.314313787
  0
LINE
  5
313
100
AcDbEntity
  8
0
100
AcDbLine
 62
4
  6
CONTINUOUS
 10
10.8756369062
 20
9.3300417983
 11
10.9170337281
 21
9.327170919
  0
LINE
  5
314
100
AcDbEntity
  8
0
100
AcDbLine
 62
4
  6
CONTINUOUS
 10
10.9501511843
 20
9.3248742156
 11
10.9749892798
 21
9.3231516878
  0
LINE
  5
315
100
AcDbEntity
  8
0
100
AcDbLine
 62
4
  6
CONTINUOUS
 10
11.0412241921
 20
9.318558281
 11
11.0909003833
 21
9.3151132255
  0
LINE
  5
316
100
AcDbEntity
  8
0
100
AcDbLine
 62
4
  6
CONTINUOUS
 10
10.9749892798
 20
9.3231516878
 11
10.9825291572
 21
9.3218632262
  0
LINE
  5
317
100
AcDbEntity
  8
0
100
AcDbLine
 62
4
  6
CONTINUOUS
 10
11.3322557656
 20
9.2153875561
 11
11.3704965144
 21
9.2066110032
  0
LINE
  5
318
100
AcDbEntity
  8
0
100
AcDbLine
 62
4
  6
CONTINUOUS
 10
10.9825291572
 20
9.3218632262
 11
10.9953904815
 21
9.3171434494
  0
LINE
  5
319
100
AcDbEntity
  8
0
100
AcDbLine
 62
4
  6
CONTINUOUS
 10
10.5585309545
 20
9.4223123528
 11
10.5138860854
 21
9.4391887168
  0
LINE
  5
31A
100
AcDbEntity
  8
0
100
AcDbLine
 62
4
  6
CONTINUOUS
 10
10.4939200613
 20
9.4199030173
 11
10.499980979
 21
9.4171859858
  0
LINE
  5
31B
100
AcDbEntity
  8
0
100
AcDbLine
 62
4
  6
CONTINUOUS
 10
10.9542568027
 20
9.2216970934
 11
10.9421349759
 21
9.2271311557
  0
LINE
  5
31C
100
AcDbEntity
  8
0
100
AcDbLine
 62
4
  6
CONTINUOUS
 10
10.8445786471
 20
9.300041822
 11
10.8324568117
 21
9.3054758849
  0
LINE
  5
31D
100
AcDbEntity
  8
0
100
AcDbLine
 62
4
  6
CONTINUOUS
 10
10.5872115163
 20
9.4157299383
 11
10.59933335
 21
9.4102958755
  0
LINE
  5
31E
100
AcDbEntity
  8
0
100
AcDbLine
 62
4
  6
CONTINUOUS
 10
11.050849352
 20
9.2149983773
 11
11.0387275252
 21
9.2204324397
  0
LINE
  5
31F
100
AcDbEntity
  8
0
100
AcDbLine
 62
4
  6
CONTINUOUS
 10
10.5724360609
 20
9.4443150828
 11
10.578496977
 21
9.4415980507
  0
LINE
  5
320
100
AcDbEntity
  8
0
100
AcDbLine
 62
4
  6
CONTINUOUS
 10
11.1067457205
 20
9.243275825
 11
11.1188675478
 21
9.2378417631
  0
LINE
  5
321
100
AcDbEntity
  8
0
100
AcDbLine
 62
4
  6
CONTINUOUS
 10
10.9760188853
 20
9.3070033475
 11
10.9881407126
 21
9.3015692856
  0
LINE
  5
322
100
AcDbEntity
  8
0
100
AcDbLine
 62
4
  6
CONTINUOUS
 10
11.1978187145
 20
9.2369598914
 11
11.2099405418
 21
9.2315258295
  0
LINE
  5
323
100
AcDbEntity
  8
0
100
AcDbLine
 62
4
  6
CONTINUOUS
 10
10.9195749474
 20
9.4110540986
 11
10.9256358601
 21
9.4083370668
  0
LINE
  5
324
100
AcDbEntity
  8
0
100
AcDbLine
 62
4
  6
CONTINUOUS
 10
11.1486373766
 20
9.3951685652
 11
11.1519384841
 21
9.3926429265
  0
LINE
  5
325
100
AcDbEntity
  8
0
100
AcDbLine
 62
4
  6
CONTINUOUS
 10
11.2352734768
 20
9.384566921
 11
11.2314310377
 21
9.3894268053
  0
LINE
  5
326
100
AcDbEntity
  8
0
100
AcDbLine
 62
7
  6
CONTINUOUS
 10
11.8644359362
 20
7.3669209316
 11
11.8644359362
 21
9.0572912278
  0
LINE
  5
327
100
AcDbEntity
  8
0
100
AcDbLine
 62
7
  6
CONTINUOUS
 10
11.8685770437
 20
7.7939964715
 11
11.8685770437
 21
8.6391816195
  0
LINE
  5
328
100
AcDbEntity
  8
0
100
AcDbLine
 62
4
  6
CONTINUOUS
 10
10.8546412825
 20
9.3269044395
 11
10.8756369062
 21
9.3300417983
  0
LINE
  5
329
100
AcDbEntity
  8
0
100
AcDbLine
 62
4
  6
CONTINUOUS
 10
10.6241714525
 20
9.4085733472
 11
10.645167068
 21
9.4117107071
  0
LINE
  5
32A
100
AcDbEntity
  8
0
100
AcDbLine
 62
4
  6
CONTINUOUS
 10
10.5330984377
 20
9.4148892823
 11
10.5540940602
 21
9.4180266417
  0
LINE
  5
32B
100
AcDbEntity
  8
0
100
AcDbLine
 62
4
  6
CONTINUOUS
 10
10.5183229793
 20
9.4434744274
 11
10.539318603
 21
9.4466117863
  0
LINE
  5
32C
100
AcDbEntity
  8
0
100
AcDbLine
 62
4
  6
CONTINUOUS
 10
12.143341269
 20
9.4371930332
 11
12.1262641935
 21
9.4356978436
  0
LINE
  5
32D
100
AcDbEntity
  8
0
100
AcDbLine
 62
4
  6
CONTINUOUS
 10
12.1102273595
 20
9.4502074499
 11
12.1443815116
 21
9.4531978301
  0
LINE
  5
32E
100
AcDbEntity
  8
0
100
AcDbLine
 62
4
  6
CONTINUOUS
 10
11.1767235246
 20
9.3794405524
 11
11.1955006927
 21
9.3804350565
  0
LINE
  5
32F
100
AcDbEntity
  8
0
100
AcDbLine
 62
4
  6
CONTINUOUS
 10
11.0305078253
 20
9.4010641713
 11
11.0492849944
 21
9.4020586763
  0
LINE
  5
330
100
AcDbEntity
  8
0
100
AcDbLine
 62
4
  6
CONTINUOUS
 10
10.931392483
 20
9.3796118121
 11
10.9479512042
 21
9.3784634609
  0
LINE
  5
331
100
AcDbEntity
  8
0
100
AcDbLine
 62
4
  6
CONTINUOUS
 10
11.4935047697
 20
9.3482848769
 11
11.4603872168
 21
9.350581587
  0
LINE
  5
332
100
AcDbEntity
  8
0
100
AcDbLine
 62
4
  6
CONTINUOUS
 10
11.3582751122
 20
9.3576630855
 11
11.341716391
 21
9.3588114367
  0
LINE
  5
333
100
AcDbEntity
  8
0
100
AcDbLine
 62
4
  6
CONTINUOUS
 10
11.2175258994
 20
9.3674240766
 11
11.184408457
 21
9.369720779
  0
LINE
  5
334
100
AcDbEntity
  8
0
100
AcDbLine
 62
4
  6
CONTINUOUS
 10
11.0602179654
 20
9.3783334189
 11
11.0271005231
 21
9.3806301213
  0
LINE
  5
335
100
AcDbEntity
  8
0
100
AcDbLine
 62
4
  6
CONTINUOUS
 10
10.499980979
 20
9.4171859858
 11
10.5330984377
 21
9.4148892823
  0
LINE
  5
336
100
AcDbEntity
  8
0
100
AcDbLine
 62
4
  6
CONTINUOUS
 10
10.59933335
 20
9.4102958755
 11
10.6241714525
 21
9.4085733472
  0
LINE
  5
337
100
AcDbEntity
  8
0
100
AcDbLine
 62
4
  6
CONTINUOUS
 10
11.2589227299
 20
9.3645531966
 11
11.3003195605
 21
9.3616823167
  0
LINE
  5
338
100
AcDbEntity
  8
0
100
AcDbLine
 62
4
  6
CONTINUOUS
 10
11.534901545
 20
9.3454140008
 11
11.5680189873
 21
9.3431172984
  0
LINE
  5
339
100
AcDbEntity
  8
0
100
AcDbLine
 62
4
  6
CONTINUOUS
 10
11.1955006927
 20
9.3804350565
 11
11.228618135
 21
9.3781383541
  0
LINE
  5
33A
100
AcDbEntity
  8
0
100
AcDbLine
 62
4
  6
CONTINUOUS
 10
11.2314310377
 20
9.3894268053
 11
11.1900342072
 21
9.3922976853
  0
LINE
  5
33B
100
AcDbEntity
  8
0
100
AcDbLine
 62
4
  6
CONTINUOUS
 10
10.8781781169
 20
9.4139249786
 11
10.9195749474
 21
9.4110540986
  0
LINE
  5
33C
100
AcDbEntity
  8
0
100
AcDbLine
 62
4
  6
CONTINUOUS
 10
11.0492849944
 20
9.4020586763
 11
11.0824024367
 21
9.3997619739
  0
LINE
  5
33D
100
AcDbEntity
  8
0
100
AcDbLine
 62
4
  6
CONTINUOUS
 10
11.1155199343
 20
9.3974652676
 11
11.1486373766
 21
9.3951685652
  0
LINE
  5
33E
100
AcDbEntity
  8
0
100
AcDbLine
 62
4
  6
CONTINUOUS
 10
11.4825716881
 20
9.3720101421
 11
11.515689241
 21
9.369713432
  0
LINE
  5
33F
100
AcDbEntity
  8
0
100
AcDbLine
 62
4
  6
CONTINUOUS
 10
11.5570860163
 20
9.3668425558
 11
11.5902034586
 21
9.3645458534
  0
LINE
  5
340
100
AcDbEntity
  8
0
100
AcDbLine
 62
7
  6
CONTINUOUS
 10
13.6820623555
 20
9.2220961917
 11
12.2032297928
 21
9.3246535783
  0
LINE
  5
341
100
AcDbEntity
  8
0
100
AcDbLine
 62
4
  6
CONTINUOUS
 10
10.539318603
 20
9.4466117863
 11
10.5724360609
 21
9.4443150828
  0
LINE
  5
342
100
AcDbEntity
  8
0
100
AcDbLine
 62
4
  6
CONTINUOUS
 10
11.4390095348
 20
9.3842180082
 11
11.4417693124
 21
9.384026617
  0
LINE
  5
343
100
AcDbEntity
  8
0
100
AcDbLine
 62
7
  6
CONTINUOUS
 10
12.2291738177
 20
9.3365328389
 11
13.7080063804
 21
9.2339754523
  0
LINE
  5
344
100
AcDbEntity
  8
0
100
AcDbLine
 62
7
  6
CONTINUOUS
 10
8.5444041221
 20
9.5927835669
 11
9.9849831594
 21
9.4928790713
  0
LINE
  5
345
100
AcDbEntity
  8
0
100
AcDbLine
 62
7
  6
CONTINUOUS
 10
9.998195562
 20
9.5056412729
 11
8.5703481469
 21
9.6046628275
  0
LINE
  5
346
100
AcDbEntity
  8
0
100
AcDbLine
 62
4
  6
CONTINUOUS
 10
12.1262641935
 20
9.4356978436
 11
12.1117753055
 21
9.4367026514
  0
LINE
  5
347
100
AcDbEntity
  8
0
100
AcDbLine
 62
4
  6
CONTINUOUS
 10
11.5783717407
 20
9.3531172908
 11
11.546733263
 21
9.3568425634
  0
LINE
  5
348
100
AcDbEntity
  8
0
100
AcDbLine
 62
4
  6
CONTINUOUS
 10
11.0271005231
 20
9.3806301213
 11
11.0127602491
 21
9.383921328
  0
LINE
  5
349
100
AcDbEntity
  8
0
100
AcDbLine
 62
4
  6
CONTINUOUS
 10
11.184408457
 20
9.369720779
 11
11.1700681831
 21
9.3730119858
  0
LINE
  5
34A
100
AcDbEntity
  8
0
100
AcDbLine
 62
4
  6
CONTINUOUS
 10
11.546733263
 20
9.3568425634
 11
11.5399328946
 21
9.3588453073
  0
LINE
  5
34B
100
AcDbEntity
  8
0
100
AcDbLine
 62
4
  6
CONTINUOUS
 10
11.585172109
 20
9.3511145469
 11
11.5783717407
 21
9.3531172908
  0
LINE
  5
34C
100
AcDbEntity
  8
0
100
AcDbLine
 62
4
  6
CONTINUOUS
 10
11.2528617889
 20
9.3672702297
 11
11.2589227299
 21
9.3645531966
  0
LINE
  5
34D
100
AcDbEntity
  8
0
100
AcDbLine
 62
4
  6
CONTINUOUS
 10
11.341716391
 20
9.3588114367
 11
11.33565545
 21
9.3615284698
  0
LINE
  5
34E
100
AcDbEntity
  8
0
100
AcDbLine
 62
4
  6
CONTINUOUS
 10
11.4603872168
 20
9.350581587
 11
11.4543263311
 21
9.3532986162
  0
LINE
  5
34F
100
AcDbEntity
  8
0
100
AcDbLine
 62
4
  6
CONTINUOUS
 10
11.5288406592
 20
9.34813103
 11
11.534901545
 21
9.3454140008
  0
LINE
  5
350
100
AcDbEntity
  8
0
100
AcDbLine
 62
4
  6
CONTINUOUS
 10
11.5902034586
 20
9.3645458534
 11
11.5962643437
 21
9.3618288235
  0
LINE
  5
351
100
AcDbEntity
  8
0
100
AcDbLine
 62
4
  6
CONTINUOUS
 10
12.1790557844
 20
9.4641906082
 11
12.1211002327
 21
9.4682098394
  0
LINE
  5
352
100
AcDbEntity
  8
0
100
AcDbLine
 62
7
  6
CONTINUOUS
 10
12.3044279621
 20
9.4822909141
 11
10.1301288683
 21
9.6330790684
  0
LINE
  5
353
100
AcDbEntity
  8
0
100
AcDbLine
 62
4
  6
CONTINUOUS
 10
12.1117753055
 20
9.4367026514
 11
12.0998746052
 21
9.4402074566
  0
LINE
  5
354
100
AcDbEntity
  8
0
100
AcDbLine
 62
7
  6
CONTINUOUS
 10
12.3044279621
 20
9.3313139462
 11
12.3044279621
 21
9.4822909141
  0
LINE
  5
355
100
AcDbEntity
  8
0
100
AcDbLine
 62
7
  6
CONTINUOUS
 10
13.4444666682
 20
8.9925963675
 11
13.6820623555
 21
9.2220961917
  0
LINE
  5
356
100
AcDbEntity
  8
0
100
AcDbLine
 62
7
  6
CONTINUOUS
 10
13.4744103706
 20
8.9605760623
 11
13.7120060579
 21
9.1900758865
  0
LINE
  5
357
100
AcDbEntity
  8
0
100
AcDbLine
 62
7
  6
CONTINUOUS
 10
12.0112015101
 20
7.5086855982
 11
11.8644359362
 21
7.3669209316
  0
LINE
  5
358
100
AcDbEntity
  8
0
100
AcDbLine
 62
4
  6
CONTINUOUS
 10
12.0998746052
 20
9.4402074566
 11
12.0952183508
 21
9.4432098597
  0
LINE
  5
359
100
AcDbEntity
  8
0
100
AcDbLine
 62
7
  6
CONTINUOUS
 10
13.4744103706
 20
8.9605760623
 11
13.4444666682
 21
8.9925963675
  0
LINE
  5
35A
100
AcDbEntity
  8
0
100
AcDbLine
 62
7
  6
CONTINUOUS
 10
13.3474096064
 20
7.6914390849
 11
13.3474096064
 21
8.536624233
  0
LINE
  5
35B
100
AcDbEntity
  8
0
100
AcDbLine
 62
7
  6
CONTINUOUS
 10
13.3853766925
 20
7.6971124762
 11
13.3853766925
 21
8.5422976242
  0
LINE
  5
35C
100
AcDbEntity
  8
0
100
AcDbLine
 62
7
  6
CONTINUOUS
 10
13.7120060579
 20
7.6803337305
 11
13.4744103706
 21
7.4508339064
  0
LINE
  5
35D
100
AcDbEntity
  8
0
100
AcDbLine
 62
7
  6
CONTINUOUS
 10
13.4744103706
 20
7.4508339064
 11
13.4735689555
 21
7.4500361497
  0
LINE
  5
35E
100
AcDbEntity
  8
0
100
AcDbLine
 62
7
  6
CONTINUOUS
 10
13.4435504651
 20
7.4220979618
 11
13.473569907
 21
7.4500368859
  0
LINE
  5
35F
100
AcDbEntity
  8
0
100
AcDbLine
 62
7
  6
CONTINUOUS
 10
13.7120060579
 20
9.1900758865
 11
13.6820623555
 21
9.2220961917
  0
LINE
  5
360
100
AcDbEntity
  8
0
100
AcDbLine
 62
7
  6
CONTINUOUS
 10
13.7312747738
 20
9.2196156828
 11
13.7571502496
 21
9.187800433
  0
LINE
  5
361
100
AcDbEntity
  8
0
100
AcDbLine
 62
7
  6
CONTINUOUS
 10
13.8010397359
 20
8.9437973167
 11
13.8010397359
 21
8.0986121686
  0
ARC
  5
362
100
AcDbEntity
  8
0
100
AcDbCircle
 62
7
  6
CONTINUOUS
 10
11.4511058313
 20
8.442603429
 40
0.3262960262
100
AcDbArc
 50
190.7239758855
 51
191.9850635471
  0
ARC
  5
363
100
AcDbEntity
  8
0
100
AcDbCircle
 62
7
  6
CONTINUOUS
 10
11.4427585507
 20
8.4410152025
 40
0.3177989971
100
AcDbArc
 50
190.2538882577
 51
190.7226697545
  0
ARC
  5
364
100
AcDbEntity
  8
0
100
AcDbCircle
 62
7
  6
CONTINUOUS
 10
11.2210038507
 20
8.8704374332
 40
0.0568586932
100
AcDbArc
 50
297.141828301
 51
313.9884212823
  0
ARC
  5
365
100
AcDbEntity
  8
0
100
AcDbCircle
 62
7
  6
CONTINUOUS
 10
11.2096907338
 20
8.8821494918
 40
0.0568580397
100
AcDbArc
 50
134.0268337675
 51
150.8559668527
  0
SPLINE
  5
366
100
AcDbEntity
  8
0
100
AcDbSpline
 62
7
  6
CONTINUOUS
 70
0
 71
3
 72
16
 73
12
 74
0
 42
0.0000001
 43
0.0000001
 44
0.0000000001
 40
0.0
 40
0.0
 40
0.0
 40
0.0
 40
0.1233105971
 40
0.1850462084
 40
0.2468502289
 40
0.3707064937
 40
0.4950729004
 40
0.6200790416
 40
0.7458762914
 40
0.872562237
 40
1.0
 40
1.0
 40
1.0
 40
1.0
 10
11.2204502637
 20
8.7943266272
 30
0.0
 10
11.2190478337
 20
8.7929718489
 30
0.0
 10
11.2168310507
 20
8.7910504247
 30
0.0
 10
11.2136844164
 20
8.7887382439
 30
0.0
 10
11.2104111373
 20
8.7865926393
 30
0.0
 10
11.2060992302
 20
8.7842387389
 30
0.0
 10
11.2006389977
 20
8.7819703387
 30
0.0
 10
11.1949409721
 20
8.7802798986
 30
0.0
 10
11.1890623951
 20
8.7791827771
 30
0.0
 10
11.1830647067
 20
8.7786926169
 30
0.0
 10
11.1790389886
 20
8.778770229
 30
0.0
 10
11.1770286218
 20
8.7789096484
 30
0.0
  0
SPLINE
  5
367
100
AcDbEntity
  8
0
100
AcDbSpline
 62
7
  6
CONTINUOUS
 70
0
 71
3
 72
36
 73
32
 74
0
 42
0.0000001
 43
0.0000001
 44
0.0000000001
 40
0.0
 40
0.0
 40
0.0
 40
0.0
 40
0.0299427906
 40
0.0599093792
 40
0.0899225042
 40
0.1200047061
 40
0.1501758712
 40
0.1804545928
 40
0.2108568841
 40
0.2413952565
 40
0.2720803224
 40
0.3029184648
 40
0.3339129224
 40
0.365064304
 40
0.3963687075
 40
0.4278199406
 40
0.4910833282
 40
0.5229072105
 40
0.5548243912
 40
0.5868157515
 40
0.6188615863
 40
0.6509400776
 40
0.6830291082
 40
0.7471151504
 40
0.779106513
 40
0.8110224449
 40
0.8428416078
 40
0.8745492641
 40
0.9061380284
 40
0.9376013443
 40
1.0
 40
1.0
 40
1.0
 40
1.0
 10
11.1336069799
 20
8.884233405
 30
0.0
 10
11.1325853147
 20
8.8832464539
 30
0.0
 10
11.1306178108
 20
8.8811906453
 30
0.0
 10
11.1279151105
 20
8.8778846498
 30
0.0
 10
11.1254750305
 20
8.8743719444
 30
0.0
 10
11.1233107909
 20
8.8706717961
 30
0.0
 10
11.1214329062
 20
8.8668044003
 30
0.0
 10
11.1198529479
 20
8.8627897522
 30
0.0
 10
11.1185781176
 20
8.8586499028
 30
0.0
 10
11.117615236
 20
8.854406837
 30
0.0
 10
11.1169705673
 20
8.8500830797
 30
0.0
 10
11.1166458386
 20
8.845701988
 30
0.0
 10
11.1166438859
 20
8.8412867634
 30
0.0
 10
11.1169646517
 20
8.8368611974
 30
0.0
 10
11.1176053462
 20
8.832448366
 30
0.0
 10
11.1188853732
 20
8.8266045967
 30
0.0
 10
11.1207906948
 20
8.820886978
 30
0.0
 10
11.1232820096
 20
8.815397033
 30
0.0
 10
11.1254408965
 20
8.8113969541
 30
0.0
 10
11.1278751491
 20
8.8075461143
 30
0.0
 10
11.1305719691
 20
8.8038649288
 30
0.0
 10
11.1335162256
 20
8.8003720506
 30
0.0
 10
11.1377485463
 20
8.7959958433
 30
0.0
 10
11.1424162973
 20
8.792063981
 30
0.0
 10
11.1474408859
 20
8.7886481158
 30
0.0
 10
11.1513659126
 20
8.7863562323
 30
0.0
 10
11.1554275608
 20
8.7843468505
 30
0.0
 10
11.1596048462
 20
8.7826309681
 30
0.0
 10
11.1638763315
 20
8.781216539
 30
0.0
 10
11.1696476037
 20
8.7797497137
 30
0.0
 10
11.1740754553
 20
8.7791144512
 30
0.0
 10
11.1770286218
 20
8.7789096484
 30
0.0
  0
SPLINE
  5
368
100
AcDbEntity
  8
0
100
AcDbSpline
 62
7
  6
CONTINUOUS
 70
0
 71
3
 72
16
 73
12
 74
0
 42
0.0000001
 43
0.0000001
 44
0.0000000001
 40
0.0
 40
0.0
 40
0.0
 40
0.0
 40
0.127437763
 40
0.2541237086
 40
0.3799209584
 40
0.5049270996
 40
0.6292935063
 40
0.7531497711
 40
0.8149537916
 40
0.8766894029
 40
1.0
 40
1.0
 40
1.0
 40
1.0
 10
11.1770286218
 20
8.8996503838
 30
0.0
 10
11.1750182549
 20
8.8997898032
 30
0.0
 10
11.1709925368
 20
8.8998674153
 30
0.0
 10
11.1649948484
 20
8.8993772551
 30
0.0
 10
11.1591162714
 20
8.8982801336
 30
0.0
 10
11.1534182458
 20
8.8965896935
 30
0.0
 10
11.1479580133
 20
8.8943212933
 30
0.0
 10
11.1436461062
 20
8.8919673929
 30
0.0
 10
11.1403728271
 20
8.8898217883
 30
0.0
 10
11.1372261928
 20
8.8875096075
 30
0.0
 10
11.1350094098
 20
8.8855881833
 30
0.0
 10
11.1336069799
 20
8.884233405
 30
0.0
  0
SPLINE
  5
369
100
AcDbEntity
  8
0
100
AcDbSpline
 62
7
  6
CONTINUOUS
 70
0
 71
3
 72
41
 73
37
 74
0
 42
0.0000001
 43
0.0000001
 44
0.0000000001
 40
0.0
 40
0.0
 40
0.0
 40
0.0
 40
0.0311700808
 40
0.0621671806
 40
0.0929529236
 40
0.1235438726
 40
0.1539770671
 40
0.1842864269
 40
0.2145045168
 40
0.2446718723
 40
0.2597549847
 40
0.2748416421
 40
0.3050368899
 40
0.3353086247
 40
0.3656957864
 40
0.3962310357
 40
0.4269424
 40
0.4578492705
 40
0.4889645452
 40
0.5202918286
 40
0.5518274268
 40
0.5835592862
 40
0.6154682052
 40
0.6475288789
 40
0.6797098746
 40
0.7119764595
 40
0.7442894444
 40
0.7766100171
 40
0.8088980342
 40
0.8411144295
 40
0.8732187143
 40
0.9051805186
 40
0.9369849479
 40
0.9528274356
 40
0.968617979
 40
1.0
 40
1.0
 40
1.0
 40
1.0
 10
11.1728875204
 20
8.8848288095
 30
0.0
 10
11.1712732293
 20
8.884940761
 30
0.0
 10
11.1680404183
 20
8.8850063856
 30
0.0
 10
11.1632220158
 20
8.8846286669
 30
0.0
 10
11.158494896
 20
8.8837737795
 30
0.0
 10
11.1539069747
 20
8.8824519943
 30
0.0
 10
11.1495020984
 20
8.8806746425
 30
0.0
 10
11.1453215694
 20
8.878460375
 30
0.0
 10
11.1414068338
 20
8.8758291882
 30
0.0
 10
11.1383964366
 20
8.8733095003
 30
0.0
 10
11.1361593006
 20
8.8711152605
 30
0.0
 10
11.1340400439
 20
8.8688049957
 30
0.0
 10
11.1316195712
 20
8.8657086842
 30
0.0
 10
11.1291146841
 20
8.8617022602
 30
0.0
 10
11.1270325606
 20
8.8574409388
 30
0.0
 10
11.1253917874
 20
8.8529668608
 30
0.0
 10
11.1242100783
 20
8.8483225558
 30
0.0
 10
11.1234961976
 20
8.8435534453
 30
0.0
 10
11.123259569
 20
8.8387051617
 30
0.0
 10
11.1234994203
 20
8.8338245226
 30
0.0
 10
11.1242161074
 20
8.828958626
 30
0.0
 10
11.1253998821
 20
8.8241538713
 30
0.0
 10
11.1270416363
 20
8.8194569489
 30
0.0
 10
11.1291234446
 20
8.8149122985
 30
0.0
 10
11.1316268536
 20
8.8105641849
 30
0.0
 10
11.1345265786
 20
8.806453767
 30
0.0
 10
11.137795412
 20
8.8026208124
 30
0.0
 10
11.1414017652
 20
8.7991020081
 30
0.0
 10
11.1453110296
 20
8.7959309779
 30
0.0
 10
11.149485862
 20
8.7931389097
 30
0.0
 10
11.1538853424
 20
8.7907512224
 30
0.0
 10
11.1584684627
 20
8.7887924656
 30
0.0
 10
11.1624108373
 20
8.787530153
 30
0.0
 10
11.1656123548
 20
8.7867531717
 30
0.0
 10
11.1688254831
 20
8.786134048
 30
0.0
 10
11.171262253
 20
8.7858439415
 30
0.0
 10
11.1728875204
 20
8.7857312288
 30
0.0
  0
SPLINE
  5
36A
100
AcDbEntity
  8
0
100
AcDbSpline
 62
7
  6
CONTINUOUS
 70
0
 71
3
 72
36
 73
32
 74
0
 42
0.0000001
 43
0.0000001
 44
0.0000000001
 40
0.0
 40
0.0
 40
0.0
 40
0.0
 40
0.0623986557
 40
0.0938619716
 40
0.1254507359
 40
0.1571583922
 40
0.1889775551
 40
0.220893487
 40
0.2528848496
 40
0.3169708918
 40
0.3490599224
 40
0.3811384137
 40
0.4131842485
 40
0.4451756088
 40
0.4770927895
 40
0.5089166718
 40
0.5721800594
 40
0.6036312925
 40
0.634935696
 40
0.6660870776
 40
0.6970815352
 40
0.7279196776
 40
0.7586047435
 40
0.7891431159
 40
0.8195454072
 40
0.8498241288
 40
0.8799952939
 40
0.9100774958
 40
0.9400906208
 40
0.9700572094
 40
1.0
 40
1.0
 40
1.0
 40
1.0
 10
11.1770286218
 20
8.8996503838
 30
0.0
 10
11.1799817882
 20
8.899445581
 30
0.0
 10
11.1844096398
 20
8.8988103184
 30
0.0
 10
11.190180912
 20
8.8973434932
 30
0.0
 10
11.1944523973
 20
8.8959290641
 30
0.0
 10
11.1986296827
 20
8.8942131817
 30
0.0
 10
11.2026913309
 20
8.8922037999
 30
0.0
 10
11.2066163576
 20
8.8899119164
 30
0.0
 10
11.2116409462
 20
8.8864960512
 30
0.0
 10
11.2163086972
 20
8.8825641889
 30
0.0
 10
11.2205410179
 20
8.8781879816
 30
0.0
 10
11.2234852744
 20
8.8746951034
 30
0.0
 10
11.2261820945
 20
8.8710139179
 30
0.0
 10
11.228616347
 20
8.8671630781
 30
0.0
 10
11.2307752339
 20
8.8631629992
 30
0.0
 10
11.2332665487
 20
8.8576730542
 30
0.0
 10
11.2351718703
 20
8.8519554354
 30
0.0
 10
11.2364518973
 20
8.8461116662
 30
0.0
 10
11.2370925918
 20
8.8416988348
 30
0.0
 10
11.2374133576
 20
8.8372732688
 30
0.0
 10
11.2374114049
 20
8.8328580442
 30
0.0
 10
11.2370866762
 20
8.8284769525
 30
0.0
 10
11.2364420075
 20
8.8241531952
 30
0.0
 10
11.2354791259
 20
8.8199101294
 30
0.0
 10
11.2342042956
 20
8.81577028
 30
0.0
 10
11.2326243373
 20
8.8117556319
 30
0.0
 10
11.2307464526
 20
8.8078882361
 30
0.0
 10
11.228582213
 20
8.8041880878
 30
0.0
 10
11.226142133
 20
8.8006753824
 30
0.0
 10
11.2234394327
 20
8.7973693869
 30
0.0
 10
11.2214719288
 20
8.7953135783
 30
0.0
 10
11.2204502637
 20
8.7943266272
 30
0.0
  0
SPLINE
  5
36B
100
AcDbEntity
  8
0
100
AcDbSpline
 62
7
  6
CONTINUOUS
 70
0
 71
3
 72
41
 73
37
 74
0
 42
0.0000001
 43
0.0000001
 44
0.0000000001
 40
0.0
 40
0.0
 40
0.0
 40
0.0
 40
0.031382021
 40
0.0471725644
 40
0.0630150521
 40
0.0948194814
 40
0.1267812857
 40
0.1588855705
 40
0.1911019658
 40
0.2233899829
 40
0.2557105556
 40
0.2880235405
 40
0.3202901254
 40
0.3524711211
 40
0.3845317948
 40
0.4164407138
 40
0.4481725732
 40
0.4797081714
 40
0.5110354548
 40
0.5421507295
 40
0.5730576
 40
0.6037689643
 40
0.6343042136
 40
0.6646913753
 40
0.6949631101
 40
0.7251583579
 40
0.7402450153
 40
0.7553281277
 40
0.7854954832
 40
0.8157135731
 40
0.8460229329
 40
0.8764561274
 40
0.9070470764
 40
0.9378328194
 40
0.9688299192
 40
1.0
 40
1.0
 40
1.0
 40
1.0
 10
11.1728875204
 20
8.8848288095
 30
0.0
 10
11.1745127879
 20
8.8847160968
 30
0.0
 10
11.1769495578
 20
8.8844259903
 30
0.0
 10
11.1801626861
 20
8.8838068666
 30
0.0
 10
11.1833642036
 20
8.8830298853
 30
0.0
 10
11.1873065782
 20
8.8817675727
 30
0.0
 10
11.1918896985
 20
8.8798088159
 30
0.0
 10
11.1962891789
 20
8.8774211287
 30
0.0
 10
11.2004640113
 20
8.8746290604
 30
0.0
 10
11.2043732757
 20
8.8714580302
 30
0.0
 10
11.2079796289
 20
8.8679392259
 30
0.0
 10
11.2112484623
 20
8.8641062713
 30
0.0
 10
11.2141481873
 20
8.8599958534
 30
0.0
 10
11.2166515963
 20
8.8556477398
 30
0.0
 10
11.2187334046
 20
8.8511030895
 30
0.0
 10
11.2203751588
 20
8.846406167
 30
0.0
 10
11.2215589335
 20
8.8416014123
 30
0.0
 10
11.2222756206
 20
8.8367355157
 30
0.0
 10
11.2225154719
 20
8.8318548766
 30
0.0
 10
11.2222788433
 20
8.827006593
 30
0.0
 10
11.2215649626
 20
8.8222374825
 30
0.0
 10
11.2203832535
 20
8.8175931775
 30
0.0
 10
11.2187424803
 20
8.8131190995
 30
0.0
 10
11.2166603568
 20
8.8088577782
 30
0.0
 10
11.2141554697
 20
8.8048513541
 30
0.0
 10
11.211734997
 20
8.8017550426
 30
0.0
 10
11.2096157403
 20
8.7994447778
 30
0.0
 10
11.2073786043
 20
8.797250538
 30
0.0
 10
11.2043682071
 20
8.7947308501
 30
0.0
 10
11.2004534715
 20
8.7920996633
 30
0.0
 10
11.1962729425
 20
8.7898853958
 30
0.0
 10
11.1918680662
 20
8.788108044
 30
0.0
 10
11.1872801449
 20
8.7867862588
 30
0.0
 10
11.1825530251
 20
8.7859313715
 30
0.0
 10
11.1777346226
 20
8.7855536528
 30
0.0
 10
11.1745018116
 20
8.7856192773
 30
0.0
 10
11.1728875204
 20
8.7857312288
 30
0.0
  0
SPLINE
  5
36C
100
AcDbEntity
  8
0
100
AcDbSpline
 62
7
  6
CONTINUOUS
 70
0
 71
3
 72
40
 73
36
 74
0
 42
0.0000001
 43
0.0000001
 44
0.0000000001
 40
0.0
 40
0.0
 40
0.0
 40
0.0
 40
0.03107488
 40
0.0623076616
 40
0.093692525
 40
0.1252215479
 40
0.1568830941
 40
0.1886630657
 40
0.220544829
 40
0.2525097179
 40
0.2845373806
 40
0.3166062126
 40
0.3486937883
 40
0.3807773099
 40
0.4128340603
 40
0.4448418541
 40
0.4767794829
 40
0.5086271449
 40
0.5403668559
 40
0.5719828318
 40
0.6034618377
 40
0.6347934946
 40
0.6659705371
 40
0.6969890134
 40
0.7278484211
 40
0.7585517709
 40
0.7891055737
 40
0.8195197443
 40
0.8498074222
 40
0.8799847065
 40
0.9100703105
 40
0.9400851405
 40
0.9550759782
 40
0.9700577083
 40
1.0
 40
1.0
 40
1.0
 40
1.0
 10
10.8985100527
 20
7.8714725531
 30
0.0
 10
10.8985100527
 20
7.8744647355
 30
0.0
 10
10.8982868303
 20
7.880466606
 30
0.0
 10
10.89729027
 20
7.8894406636
 30
0.0
 10
10.8956366527
 20
7.89836205
 30
0.0
 10
10.8933352174
 20
7.9071810868
 30
0.0
 10
10.8903986421
 20
7.9158495564
 30
0.0
 10
10.8868431497
 20
7.9243198235
 30
0.0
 10
10.8826883087
 20
7.9325454199
 30
0.0
 10
10.8779569809
 20
7.9404812069
 30
0.0
 10
10.8726751715
 20
7.9480836423
 30
0.0
 10
10.8668718969
 20
7.9553110111
 30
0.0
 10
10.860579023
 20
7.962123653
 30
0.0
 10
10.853831093
 20
7.9684841772
 30
0.0
 10
10.8466651397
 20
7.9743576659
 30
0.0
 10
10.8391204837
 20
7.9797118636
 30
0.0
 10
10.8312385208
 20
7.9845173532
 30
0.0
 10
10.8230624974
 20
7.9887477159
 30
0.0
 10
10.8146372759
 20
7.9923796759
 30
0.0
 10
10.8060090925
 20
7.9953932279
 30
0.0
 10
10.7972253061
 20
7.9977717473
 30
0.0
 10
10.7883341431
 20
7.9995020838
 30
0.0
 10
10.7793844354
 20
8.0005746348
 30
0.0
 10
10.770425356
 20
8.0009834013
 30
0.0
 10
10.7615061522
 20
8.0007260251
 30
0.0
 10
10.7526758766
 20
7.9998038064
 30
0.0
 10
10.7439831214
 20
7.9982217041
 30
0.0
 10
10.7354757425
 20
7.9959883089
 30
0.0
 10
10.7272006252
 20
7.9931158263
 30
0.0
 10
10.7192033101
 20
7.9896199279
 30
0.0
 10
10.7115281553
 20
7.9855199968
 30
0.0
 10
10.7054322657
 20
7.9816163399
 30
0.0
 10
10.7007606299
 20
7.9782169959
 30
0.0
 10
10.6962331671
 20
7.9746395918
 30
0.0
 10
10.6930003558
 20
7.9717564316
 30
0.0
 10
10.6909266458
 20
7.9697533981
 30
0.0
  0
SPLINE
  5
36D
100
AcDbEntity
  8
0
100
AcDbSpline
 62
7
  6
CONTINUOUS
 70
0
 71
3
 72
40
 73
36
 74
0
 42
0.0000001
 43
0.0000001
 44
0.0000000001
 40
0.0
 40
0.0
 40
0.0
 40
0.0
 40
0.0310748083
 40
0.0623077235
 40
0.0936925297
 40
0.1252215857
 40
0.1568831309
 40
0.1886631126
 40
0.220544883
 40
0.2525097803
 40
0.284537452
 40
0.3166062937
 40
0.3486938795
 40
0.3807774113
 40
0.4128341708
 40
0.4448419718
 40
0.4767796049
 40
0.5086272684
 40
0.5403669783
 40
0.5719829514
 40
0.6034619535
 40
0.6347936066
 40
0.665970646
 40
0.6969891203
 40
0.7278485274
 40
0.758551878
 40
0.7891056823
 40
0.8195198548
 40
0.8498075344
 40
0.8649117406
 40
0.8799905944
 40
0.9100762
 40
0.940091032
 40
0.9700577044
 40
1.0
 40
1.0
 40
1.0
 40
1.0
 10
10.8985100527
 20
8.6867140389
 30
0.0
 10
10.8985100527
 20
8.6897062215
 30
0.0
 10
10.8982868247
 20
8.695708112
 30
0.0
 10
10.8972902675
 20
8.7046821924
 30
0.0
 10
10.89563663
 20
8.713603608
 30
0.0
 10
10.8933351886
 20
8.7224226631
 30
0.0
 10
10.8903985945
 20
8.731091154
 30
0.0
 10
10.8868430863
 20
8.7395614399
 30
0.0
 10
10.8826882253
 20
8.7477870538
 30
0.0
 10
10.8779568762
 20
8.7557228566
 30
0.0
 10
10.8726750431
 20
8.7633253057
 30
0.0
 10
10.8668717426
 20
8.7705526858
 30
0.0
 10
10.8605788402
 20
8.7773653357
 30
0.0
 10
10.8538308793
 20
8.7837258638
 30
0.0
 10
10.8466648925
 20
8.7895993507
 30
0.0
 10
10.8391202012
 20
8.7949535406
 30
0.0
 10
10.8312382029
 20
8.7997590171
 30
0.0
 10
10.823062145
 20
8.8039893622
 30
0.0
 10
10.8146368908
 20
8.8076213012
 30
0.0
 10
10.8060086767
 20
8.8106348296
 30
0.0
 10
10.7972248619
 20
8.8130133236
 30
0.0
 10
10.7883336727
 20
8.8147436331
 30
0.0
 10
10.7793839403
 20
8.8158161549
 30
0.0
 10
10.7704248395
 20
8.8162248903
 30
0.0
 10
10.7615056116
 20
8.8159674777
 30
0.0
 10
10.7526753327
 20
8.8150452266
 30
0.0
 10
10.7439825104
 20
8.8134630577
 30
0.0
 10
10.7354753183
 20
8.811229699
 30
0.0
 10
10.728572089
 20
8.8088333315
 30
0.0
 10
10.7231913552
 20
8.8066047439
 30
0.0
 10
10.717919547
 20
8.8041756366
 30
0.0
 10
10.7115273248
 20
8.800761002
 30
0.0
 10
10.7042164149
 20
8.7960792264
 30
0.0
 10
10.697310307
 20
8.7908418429
 30
0.0
 10
10.6929998355
 20
8.7869974175
 30
0.0
 10
10.690926127
 20
8.7849943721
 30
0.0
  0
SPLINE
  5
36E
100
AcDbEntity
  8
0
100
AcDbSpline
 62
7
  6
CONTINUOUS
 70
0
 71
3
 72
41
 73
37
 74
0
 42
0.0000001
 43
0.0000001
 44
0.0000000001
 40
0.0
 40
0.0
 40
0.0
 40
0.0
 40
0.031144444
 40
0.0624425093
 40
0.0938872508
 40
0.1254695847
 40
0.1571771078
 40
0.1889951283
 40
0.2209066801
 40
0.2528929859
 40
0.2849338014
 40
0.3170078274
 40
0.3490931225
 40
0.3811675283
 40
0.4132090962
 40
0.4451965119
 40
0.4771095115
 40
0.5089292827
 40
0.5406388458
 40
0.5722234075
 40
0.6036706813
 40
0.6349711679
 40
0.6661183875
 40
0.6971090579
 40
0.7279432122
 40
0.7586242475
 40
0.7891589026
 40
0.8195571573
 40
0.8498320547
 40
0.8649308931
 40
0.8800050545
 40
0.9100832586
 40
0.9400926739
 40
0.9550812746
 40
0.9700610358
 40
1.0
 40
1.0
 40
1.0
 40
1.0
 10
10.0079264544
 20
9.0875161575
 30
0.0
 10
10.0114173074
 20
9.087274066
 30
0.0
 10
10.0184011078
 20
9.0865331609
 30
0.0
 10
10.0287921267
 20
9.0846668515
 30
0.0
 10
10.0390718678
 20
9.0820526492
 30
0.0
 10
10.0491847643
 20
9.0787047019
 30
0.0
 10
10.059077127
 20
9.0746408941
 30
0.0
 10
10.0686961764
 20
9.0698829941
 30
0.0
 10
10.0779906723
 20
9.0644564151
 30
0.0
 10
10.0869110882
 20
9.0583901366
 30
0.0
 10
10.0954098961
 20
9.0517165262
 30
0.0
 10
10.1034418109
 20
9.0444711777
 30
0.0
 10
10.1109640304
 20
9.0366927195
 30
0.0
 10
10.1179364608
 20
9.0284226113
 30
0.0
 10
10.1243219282
 20
9.0197049254
 30
0.0
 10
10.130086375
 20
9.0105861142
 30
0.0
 10
10.1351990401
 20
9.0011147653
 30
0.0
 10
10.1396326221
 20
8.9913413458
 30
0.0
 10
10.1433634238
 20
8.9813179366
 30
0.0
 10
10.1463714793
 20
8.9710979582
 30
0.0
 10
10.1486406607
 20
8.9607358906
 30
0.0
 10
10.1501587665
 20
8.9502869859
 30
0.0
 10
10.1509175882
 20
8.9398069778
 30
0.0
 10
10.1509129596
 20
8.9293517903
 30
0.0
 10
10.1501447787
 20
8.9189772318
 30
0.0
 10
10.1486170336
 20
8.9087387398
 30
0.0
 10
10.1463377133
 20
8.898690936
 30
0.0
 10
10.1433190482
 20
8.8888878901
 30
0.0
 10
10.1401972489
 20
8.8809577997
 30
0.0
 10
10.1373484387
 20
8.8747909317
 30
0.0
 10
10.1342740358
 20
8.8687581465
 30
0.0
 10
10.1300053943
 20
8.8614611813
 30
0.0
 10
10.1251877297
 20
8.8545260795
 30
0.0
 10
10.1210245855
 20
8.8492250411
 30
0.0
 10
10.1166628082
 20
8.8440970583
 30
0.0
 10
10.1131682817
 20
8.8404463579
 30
0.0
 10
10.1107488552
 20
8.8381093735
 30
0.0
  0
SPLINE
  5
36F
100
AcDbEntity
  8
0
100
AcDbSpline
 62
7
  6
CONTINUOUS
 70
0
 71
3
 72
41
 73
37
 74
0
 42
0.0000001
 43
0.0000001
 44
0.0000000001
 40
0.0
 40
0.0
 40
0.0
 40
0.0
 40
0.031144444
 40
0.0624425093
 40
0.0938872508
 40
0.1254695847
 40
0.1571771078
 40
0.1889951283
 40
0.2209066801
 40
0.2528929859
 40
0.2849338014
 40
0.3170078274
 40
0.3490931225
 40
0.3811675283
 40
0.4132090962
 40
0.4451965119
 40
0.4771095115
 40
0.5089292827
 40
0.5406388458
 40
0.5722234075
 40
0.6036706813
 40
0.6349711679
 40
0.6661183875
 40
0.6971090579
 40
0.7279432122
 40
0.7586242475
 40
0.7891589026
 40
0.8195571573
 40
0.8498320547
 40
0.8649308931
 40
0.8800050545
 40
0.9100832586
 40
0.9400926739
 40
0.9550812746
 40
0.9700610358
 40
1.0
 40
1.0
 40
1.0
 40
1.0
 10
11.5466463242
 20
8.9808055721
 30
0.0
 10
11.5501371772
 20
8.9805634806
 30
0.0
 10
11.5571209776
 20
8.9798225755
 30
0.0
 10
11.5675119965
 20
8.9779562661
 30
0.0
 10
11.5777917376
 20
8.9753420638
 30
0.0
 10
11.5879046341
 20
8.9719941165
 30
0.0
 10
11.5977969968
 20
8.9679303087
 30
0.0
 10
11.6074160462
 20
8.9631724087
 30
0.0
 10
11.6167105421
 20
8.9577458296
 30
0.0
 10
11.6256309581
 20
8.9516795512
 30
0.0
 10
11.6341297659
 20
8.9450059408
 30
0.0
 10
11.6421616807
 20
8.9377605923
 30
0.0
 10
11.6496839002
 20
8.929982134
 30
0.0
 10
11.6566563306
 20
8.9217120258
 30
0.0
 10
11.663041798
 20
8.91299434
 30
0.0
 10
11.6688062448
 20
8.9038755288
 30
0.0
 10
11.67391891
 20
8.8944041799
 30
0.0
 10
11.6783524919
 20
8.8846307604
 30
0.0
 10
11.6820832937
 20
8.8746073512
 30
0.0
 10
11.6850913491
 20
8.8643873728
 30
0.0
 10
11.6873605306
 20
8.8540253052
 30
0.0
 10
11.6888786363
 20
8.8435764005
 30
0.0
 10
11.689637458
 20
8.8330963924
 30
0.0
 10
11.6896328295
 20
8.8226412049
 30
0.0
 10
11.6888646485
 20
8.8122666464
 30
0.0
 10
11.6873369035
 20
8.8020281544
 30
0.0
 10
11.6850575831
 20
8.7919803505
 30
0.0
 10
11.682038918
 20
8.7821773047
 30
0.0
 10
11.6789171187
 20
8.7742472143
 30
0.0
 10
11.6760683085
 20
8.7680803463
 30
0.0
 10
11.6729939057
 20
8.7620475611
 30
0.0
 10
11.6687252641
 20
8.7547505959
 30
0.0
 10
11.6639075995
 20
8.747815494
 30
0.0
 10
11.6597444553
 20
8.7425144557
 30
0.0
 10
11.655382678
 20
8.7373864728
 30
0.0
 10
11.6518881515
 20
8.7337357725
 30
0.0
 10
11.649468725
 20
8.731398788
 30
0.0
  0
SPLINE
  5
370
100
AcDbEntity
  8
0
100
AcDbSpline
 62
7
  6
CONTINUOUS
 70
0
 71
3
 72
41
 73
37
 74
0
 42
0.0000001
 43
0.0000001
 44
0.0000000001
 40
0.0
 40
0.0
 40
0.0
 40
0.0
 40
0.031144444
 40
0.0624425093
 40
0.0938872508
 40
0.1254695847
 40
0.1571771078
 40
0.1889951283
 40
0.2209066801
 40
0.2528929859
 40
0.2849338014
 40
0.3170078274
 40
0.3490931225
 40
0.3811675283
 40
0.4132090962
 40
0.4451965119
 40
0.4771095115
 40
0.5089292827
 40
0.5406388458
 40
0.5722234075
 40
0.6036706813
 40
0.6349711679
 40
0.6661183875
 40
0.6971090579
 40
0.7279432122
 40
0.7586242475
 40
0.7891589026
 40
0.8195571573
 40
0.8498320547
 40
0.8649308931
 40
0.8800050545
 40
0.9100832586
 40
0.9400926739
 40
0.9550812746
 40
0.9700610358
 40
1.0
 40
1.0
 40
1.0
 40
1.0
 10
11.5466463242
 20
7.7733982177
 30
0.0
 10
11.5501371772
 20
7.7731561262
 30
0.0
 10
11.5571209776
 20
7.7724152211
 30
0.0
 10
11.5675119965
 20
7.7705489117
 30
0.0
 10
11.5777917376
 20
7.7679347094
 30
0.0
 10
11.5879046341
 20
7.7645867621
 30
0.0
 10
11.5977969968
 20
7.7605229543
 30
0.0
 10
11.6074160462
 20
7.7557650543
 30
0.0
 10
11.6167105421
 20
7.7503384752
 30
0.0
 10
11.6256309581
 20
7.7442721967
 30
0.0
 10
11.6341297659
 20
7.7375985864
 30
0.0
 10
11.6421616807
 20
7.7303532379
 30
0.0
 10
11.6496839002
 20
7.7225747796
 30
0.0
 10
11.6566563306
 20
7.7143046714
 30
0.0
 10
11.663041798
 20
7.7055869856
 30
0.0
 10
11.6688062448
 20
7.6964681744
 30
0.0
 10
11.67391891
 20
7.6869968255
 30
0.0
 10
11.6783524919
 20
7.677223406
 30
0.0
 10
11.6820832937
 20
7.6671999968
 30
0.0
 10
11.6850913491
 20
7.6569800184
 30
0.0
 10
11.6873605306
 20
7.6466179508
 30
0.0
 10
11.6888786363
 20
7.6361690461
 30
0.0
 10
11.689637458
 20
7.625689038
 30
0.0
 10
11.6896328295
 20
7.6152338505
 30
0.0
 10
11.6888646485
 20
7.604859292
 30
0.0
 10
11.6873369035
 20
7.5946208
 30
0.0
 10
11.6850575831
 20
7.5845729961
 30
0.0
 10
11.682038918
 20
7.5747699503
 30
0.0
 10
11.6789171187
 20
7.5668398599
 30
0.0
 10
11.6760683085
 20
7.5606729919
 30
0.0
 10
11.6729939057
 20
7.5546402067
 30
0.0
 10
11.6687252641
 20
7.5473432415
 30
0.0
 10
11.6639075995
 20
7.5404081396
 30
0.0
 10
11.6597444553
 20
7.5351071013
 30
0.0
 10
11.655382678
 20
7.5299791184
 30
0.0
 10
11.6518881515
 20
7.5263284181
 30
0.0
 10
11.649468725
 20
7.5239914336
 30
0.0
  0
SPLINE
  5
371
100
AcDbEntity
  8
0
100
AcDbSpline
 62
7
  6
CONTINUOUS
 70
0
 71
3
 72
41
 73
37
 74
0
 42
0.0000001
 43
0.0000001
 44
0.0000000001
 40
0.0
 40
0.0
 40
0.0
 40
0.0
 40
0.031144444
 40
0.0624425093
 40
0.0938872508
 40
0.1254695847
 40
0.1571771078
 40
0.1889951283
 40
0.2209066801
 40
0.2528929859
 40
0.2849338014
 40
0.3170078274
 40
0.3490931225
 40
0.3811675283
 40
0.4132090962
 40
0.4451965119
 40
0.4771095115
 40
0.5089292827
 40
0.5406388458
 40
0.5722234075
 40
0.6036706813
 40
0.6349711679
 40
0.6661183875
 40
0.6971090579
 40
0.7279432122
 40
0.7586242475
 40
0.7891589026
 40
0.8195571573
 40
0.8498320547
 40
0.8649308931
 40
0.8800050545
 40
0.9100832586
 40
0.9400926739
 40
0.9550812746
 40
0.9700610358
 40
1.0
 40
1.0
 40
1.0
 40
1.0
 10
10.0079264544
 20
7.8801088031
 30
0.0
 10
10.0114173074
 20
7.8798667116
 30
0.0
 10
10.0184011078
 20
7.8791258065
 30
0.0
 10
10.0287921267
 20
7.8772594971
 30
0.0
 10
10.0390718678
 20
7.8746452948
 30
0.0
 10
10.0491847643
 20
7.8712973475
 30
0.0
 10
10.059077127
 20
7.8672335397
 30
0.0
 10
10.0686961764
 20
7.8624756397
 30
0.0
 10
10.0779906723
 20
7.8570490606
 30
0.0
 10
10.0869110882
 20
7.8509827822
 30
0.0
 10
10.0954098961
 20
7.8443091718
 30
0.0
 10
10.1034418109
 20
7.8370638233
 30
0.0
 10
10.1109640304
 20
7.8292853651
 30
0.0
 10
10.1179364608
 20
7.8210152569
 30
0.0
 10
10.1243219282
 20
7.812297571
 30
0.0
 10
10.130086375
 20
7.8031787598
 30
0.0
 10
10.1351990401
 20
7.7937074109
 30
0.0
 10
10.1396326221
 20
7.7839339914
 30
0.0
 10
10.1433634238
 20
7.7739105822
 30
0.0
 10
10.1463714793
 20
7.7636906038
 30
0.0
 10
10.1486406607
 20
7.7533285362
 30
0.0
 10
10.1501587665
 20
7.7428796315
 30
0.0
 10
10.1509175882
 20
7.7323996234
 30
0.0
 10
10.1509129596
 20
7.7219444359
 30
0.0
 10
10.1501447787
 20
7.7115698774
 30
0.0
 10
10.1486170336
 20
7.7013313854
 30
0.0
 10
10.1463377133
 20
7.6912835816
 30
0.0
 10
10.1433190482
 20
7.6814805357
 30
0.0
 10
10.1401972489
 20
7.6735504453
 30
0.0
 10
10.1373484387
 20
7.6673835773
 30
0.0
 10
10.1342740358
 20
7.6613507921
 30
0.0
 10
10.1300053943
 20
7.6540538269
 30
0.0
 10
10.1251877297
 20
7.6471187251
 30
0.0
 10
10.1210245855
 20
7.6418176867
 30
0.0
 10
10.1166628082
 20
7.6366897038
 30
0.0
 10
10.1131682817
 20
7.6330390035
 30
0.0
 10
10.1107488552
 20
7.630702019
 30
0.0
  0
SPLINE
  5
372
100
AcDbEntity
  8
0
100
AcDbSpline
 62
7
  6
CONTINUOUS
 70
0
 71
3
 72
39
 73
35
 74
0
 42
0.0000001
 43
0.0000001
 44
0.0000000001
 40
0.0
 40
0.0
 40
0.0
 40
0.0
 40
0.0310360481
 40
0.0622164995
 40
0.0935340783
 40
0.1249821907
 40
0.1565500366
 40
0.1882254697
 40
0.2199942467
 40
0.2518406228
 40
0.2837475688
 40
0.3156971026
 40
0.3476706065
 40
0.3796491469
 40
0.4116137917
 40
0.4435459217
 40
0.4754275321
 40
0.5072415237
 40
0.5389719802
 40
0.5706044236
 40
0.6021260484
 40
0.6335259342
 40
0.6647952339
 40
0.6959273341
 40
0.7269179878
 40
0.7577654151
 40
0.7884703645
 40
0.8190361355
 40
0.8494685602
 40
0.8797759398
 40
0.9099689355
 40
0.9400604113
 40
0.9700652296
 40
1.0
 40
1.0
 40
1.0
 40
1.0
 10
11.1245366781
 20
8.3850657448
 30
0.0
 10
11.1272770121
 20
8.384875702
 30
0.0
 10
11.1327591964
 20
8.3843069296
 30
0.0
 10
11.140922926
 20
8.3828983382
 30
0.0
 10
11.1490100688
 20
8.3809388824
 30
0.0
 10
11.1569823189
 20
8.3784382454
 30
0.0
 10
11.1648027727
 20
8.3754084106
 30
0.0
 10
11.1724351031
 20
8.3718640578
 30
0.0
 10
11.1798440687
 20
8.3678222039
 30
0.0
 10
11.1869955947
 20
8.3633022106
 30
0.0
 10
11.1938569605
 20
8.3583256198
 30
0.0
 10
11.2003969461
 20
8.3529160373
 30
0.0
 10
11.2065859623
 20
8.3470989787
 30
0.0
 10
11.2123961716
 20
8.3409017258
 30
0.0
 10
11.2178015944
 20
8.3343531752
 30
0.0
 10
11.2227782013
 20
8.327483686
 30
0.0
 10
11.2273039931
 20
8.3203249253
 30
0.0
 10
11.2313590711
 20
8.3129097173
 30
0.0
 10
11.2349257029
 20
8.3052718941
 30
0.0
 10
11.2379883594
 20
8.2974461395
 30
0.0
 10
11.2405337538
 20
8.2894678435
 30
0.0
 10
11.2425508713
 20
8.2813729588
 30
0.0
 10
11.244030994
 20
8.2731978605
 30
0.0
 10
11.2449677177
 20
8.2649792083
 30
0.0
 10
11.2453569697
 20
8.2567538108
 30
0.0
 10
11.2451970272
 20
8.2485584897
 30
0.0
 10
11.2444885091
 20
8.2404299452
 30
0.0
 10
11.2432343784
 20
8.2324046212
 30
0.0
 10
11.2414399422
 20
8.224518576
 30
0.0
 10
11.2391128356
 20
8.2168073325
 30
0.0
 10
11.2362630456
 20
8.2093057926
 30
0.0
 10
11.2329027636
 20
8.2020479034
 30
0.0
 10
11.2290468715
 20
8.1950672216
 30
0.0
 10
11.2261535044
 20
8.1906141804
 30
0.0
 10
11.2246309806
 20
8.188445891
 30
0.0
  0
SPLINE
  5
373
100
AcDbEntity
  8
0
100
AcDbSpline
 62
7
  6
CONTINUOUS
 70
0
 71
3
 72
39
 73
35
 74
0
 42
0.0000001
 43
0.0000001
 44
0.0000000001
 40
0.0
 40
0.0
 40
0.0
 40
0.0
 40
0.0310359474
 40
0.0622165681
 40
0.0935340753
 40
0.1249822152
 40
0.1565500645
 40
0.1882255044
 40
0.2199942896
 40
0.2518406686
 40
0.2837476165
 40
0.3156971527
 40
0.3476706618
 40
0.3796492094
 40
0.4116138597
 40
0.4435459891
 40
0.4754275946
 40
0.5072415822
 40
0.5389720385
 40
0.5706044848
 40
0.6021261118
 40
0.633525994
 40
0.6647952848
 40
0.6959273749
 40
0.7269180218
 40
0.7577654463
 40
0.7884703948
 40
0.819036163
 40
0.8494685815
 40
0.8797759527
 40
0.90996894
 40
0.9400604102
 40
0.9700652273
 40
1.0
 40
1.0
 40
1.0
 40
1.0
 10
10.4300361005
 20
8.4332295234
 30
0.0
 10
10.4327764304
 20
8.4330394809
 30
0.0
 10
10.4382586298
 20
8.4324707014
 30
0.0
 10
10.4464223748
 20
8.4310621143
 30
0.0
 10
10.4545095401
 20
8.4291026418
 30
0.0
 10
10.4624818016
 20
8.4266020045
 30
0.0
 10
10.4703022714
 20
8.4235721603
 30
0.0
 10
10.4779346153
 20
8.4200277974
 30
0.0
 10
10.4853435899
 20
8.4159859254
 30
0.0
 10
10.4924951211
 20
8.4114659102
 30
0.0
 10
10.4993564939
 20
8.4064893028
 30
0.0
 10
10.5058964879
 20
8.4010797057
 30
0.0
 10
10.5120855132
 20
8.3952626331
 30
0.0
 10
10.5178957298
 20
8.3890653641
 30
0.0
 10
10.5233011526
 20
8.3825167925
 30
0.0
 10
10.5282777478
 20
8.3756472761
 30
0.0
 10
10.5328035271
 20
8.368488491
 30
0.0
 10
10.5368585998
 20
8.3610732642
 30
0.0
 10
10.5404252305
 20
8.3534354243
 30
0.0
 10
10.5434878855
 20
8.3456096526
 30
0.0
 10
10.5460332706
 20
8.3376313377
 30
0.0
 10
10.5480503627
 20
8.3295364322
 30
0.0
 10
10.5495304548
 20
8.3213613156
 30
0.0
 10
10.550467153
 20
8.3131426484
 30
0.0
 10
10.5508563906
 20
8.3049172375
 30
0.0
 10
10.5506964363
 20
8.2967219032
 30
0.0
 10
10.5499879
 20
8.288593346
 30
0.0
 10
10.5487337345
 20
8.2805680136
 30
0.0
 10
10.5469392573
 20
8.2726819646
 30
0.0
 10
10.5446121113
 20
8.2649707204
 30
0.0
 10
10.5417622909
 20
8.2574691792
 30
0.0
 10
10.5384019853
 20
8.2502112874
 30
0.0
 10
10.5345460736
 20
8.2432305997
 30
0.0
 10
10.531652668
 20
8.2387775726
 30
0.0
 10
10.5301301398
 20
8.2366092805
 30
0.0
  0
SPLINE
  5
374
100
AcDbEntity
  8
0
100
AcDbSpline
 62
7
  6
CONTINUOUS
 70
0
 71
3
 72
39
 73
35
 74
0
 42
0.0000001
 43
0.0000001
 44
0.0000000001
 40
0.0
 40
0.0
 40
0.0
 40
0.0
 40
0.0311439303
 40
0.0624436618
 40
0.0938881473
 40
0.1254709891
 40
0.1571788504
 40
0.1889972145
 40
0.2209091267
 40
0.2528957783
 40
0.2849369507
 40
0.3170113397
 40
0.3490969953
 40
0.3811717566
 40
0.4132136819
 40
0.4452014627
 40
0.4771148294
 40
0.5089349609
 40
0.5406448809
 40
0.572229804
 40
0.6036774458
 40
0.6349782967
 40
0.6661258727
 40
0.697116898
 40
0.7279514126
 40
0.7586328123
 40
0.789167825
 40
0.8195664295
 40
0.849841675
 40
0.8800094157
 40
0.9100879723
 40
0.9400977325
 40
0.9700607032
 40
1.0
 40
1.0
 40
1.0
 40
1.0
 10
11.2153338088
 20
8.9390651702
 30
0.0
 10
11.2168669037
 20
8.9389588497
 30
0.0
 10
11.2199341172
 20
8.9386334275
 30
0.0
 10
11.2244977187
 20
8.9378138135
 30
0.0
 10
11.2290124807
 20
8.9366656462
 30
0.0
 10
11.2334539218
 20
8.935195312
 30
0.0
 10
11.2377985285
 20
8.9334105441
 30
0.0
 10
11.242023089
 20
8.931320937
 30
0.0
 10
11.2461051135
 20
8.9289376603
 30
0.0
 10
11.250022852
 20
8.9262734418
 30
0.0
 10
11.2537554324
 20
8.9233424977
 30
0.0
 10
11.2572829567
 20
8.9201604465
 30
0.0
 10
11.2605866232
 20
8.9167442534
 30
0.0
 10
11.2636488349
 20
8.9131121386
 30
0.0
 10
11.2664532687
 20
8.9092834583
 30
0.0
 10
11.2689849654
 20
8.9052786104
 30
0.0
 10
11.2712303999
 20
8.9011189252
 30
0.0
 10
11.2731775855
 20
8.8968265715
 30
0.0
 10
11.2748161276
 20
8.892424428
 30
0.0
 10
11.2761372591
 20
8.8879359545
 30
0.0
 10
11.2771338921
 20
8.883385075
 30
0.0
 10
11.2778006496
 20
8.878796053
 30
0.0
 10
11.2781339392
 20
8.87419337
 30
0.0
 10
11.2781319412
 20
8.8696015854
 30
0.0
 10
11.2777946123
 20
8.8650452104
 30
0.0
 10
11.277123689
 20
8.8605485809
 30
0.0
 10
11.2761226853
 20
8.8561357315
 30
0.0
 10
11.2747969144
 20
8.8518302544
 30
0.0
 10
11.2731534211
 20
8.8476551802
 30
0.0
 10
11.271200944
 20
8.8436328487
 30
0.0
 10
11.2689498966
 20
8.8397848215
 30
0.0
 10
11.2664122222
 20
8.8361316468
 30
0.0
 10
11.2636017494
 20
8.8326931396
 30
0.0
 10
11.2615553691
 20
8.8305552733
 30
0.0
 10
11.2604927947
 20
8.8295288936
 30
0.0
  0
SPLINE
  5
375
100
AcDbEntity
  8
0
100
AcDbSpline
 62
7
  6
CONTINUOUS
 70
0
 71
3
 72
39
 73
35
 74
0
 42
0.0000001
 43
0.0000001
 44
0.0000000001
 40
0.0
 40
0.0
 40
0.0
 40
0.0
 40
0.0311439303
 40
0.0624436618
 40
0.0938881473
 40
0.1254709891
 40
0.1571788504
 40
0.1889972145
 40
0.2209091267
 40
0.2528957783
 40
0.2849369507
 40
0.3170113397
 40
0.3490969953
 40
0.3811717566
 40
0.4132136819
 40
0.4452014627
 40
0.4771148294
 40
0.5089349609
 40
0.5406448809
 40
0.572229804
 40
0.6036774458
 40
0.6349782967
 40
0.6661258727
 40
0.697116898
 40
0.7279514126
 40
0.7586328123
 40
0.789167825
 40
0.8195664295
 40
0.849841675
 40
0.8800094157
 40
0.9100879723
 40
0.9400977325
 40
0.9700607032
 40
1.0
 40
1.0
 40
1.0
 40
1.0
 10
10.7777693173
 20
8.3502518481
 30
0.0
 10
10.7793024122
 20
8.3501455276
 30
0.0
 10
10.7823696256
 20
8.3498201054
 30
0.0
 10
10.7869332271
 20
8.3490004914
 30
0.0
 10
10.7914479892
 20
8.3478523241
 30
0.0
 10
10.7958894302
 20
8.3463819899
 30
0.0
 10
10.8002340369
 20
8.344597222
 30
0.0
 10
10.8044585975
 20
8.3425076149
 30
0.0
 10
10.8085406219
 20
8.3401243382
 30
0.0
 10
10.8124583604
 20
8.3374601197
 30
0.0
 10
10.8161909409
 20
8.3345291756
 30
0.0
 10
10.8197184651
 20
8.3313471244
 30
0.0
 10
10.8230221316
 20
8.3279309313
 30
0.0
 10
10.8260843433
 20
8.3242988165
 30
0.0
 10
10.8288887771
 20
8.3204701362
 30
0.0
 10
10.8314204739
 20
8.3164652883
 30
0.0
 10
10.8336659084
 20
8.3123056031
 30
0.0
 10
10.8356130939
 20
8.3080132494
 30
0.0
 10
10.837251636
 20
8.3036111059
 30
0.0
 10
10.8385727676
 20
8.2991226324
 30
0.0
 10
10.8395694006
 20
8.2945717529
 30
0.0
 10
10.840236158
 20
8.2899827309
 30
0.0
 10
10.8405694477
 20
8.2853800479
 30
0.0
 10
10.8405674497
 20
8.2807882633
 30
0.0
 10
10.8402301207
 20
8.2762318883
 30
0.0
 10
10.8395591975
 20
8.2717352588
 30
0.0
 10
10.8385581938
 20
8.2673224094
 30
0.0
 10
10.8372324228
 20
8.2630169323
 30
0.0
 10
10.8355889295
 20
8.2588418581
 30
0.0
 10
10.8336364524
 20
8.2548195266
 30
0.0
 10
10.831385405
 20
8.2509714994
 30
0.0
 10
10.8288477306
 20
8.2473183247
 30
0.0
 10
10.8260372578
 20
8.2438798175
 30
0.0
 10
10.8239908775
 20
8.2417419512
 30
0.0
 10
10.8229283032
 20
8.2407155715
 30
0.0
  0
SPLINE
  5
376
100
AcDbEntity
  8
0
100
AcDbSpline
 62
7
  6
CONTINUOUS
 70
0
 71
3
 72
53
 73
49
 74
0
 42
0.0000001
 43
0.0000001
 44
0.0000000001
 40
0.0
 40
0.0
 40
0.0
 40
0.0
 40
0.0417740113
 40
0.0840369498
 40
0.1266584959
 40
0.1695064843
 40
0.2124480935
 40
0.2553500426
 40
0.298079237
 40
0.3405032536
 40
0.382490879
 40
0.4239126346
 40
0.4646413116
 40
0.5045525112
 40
0.543525196
 40
0.5814422576
 40
0.6181911067
 40
0.6536642972
 40
0.6877601986
 40
0.720383738
 40
0.7361160079
 40
0.7514479787
 40
0.7663699923
 40
0.7808730391
 40
0.7949486907
 40
0.8085892839
 40
0.8217878242
 40
0.8345382246
 40
0.8468351953
 40
0.858674535
 40
0.8700530305
 40
0.8809687964
 40
0.8914212207
 40
0.9014113515
 40
0.9109419335
 40
0.9200178526
 40
0.9286463131
 40
0.9368373658
 40
0.9446042772
 40
0.9519641672
 40
0.9589385932
 40
0.9655542738
 40
0.9718437889
 40
0.9778461802
 40
0.9836073652
 40
0.9891800467
 40
0.99462308
 40
1.0
 40
1.0
 40
1.0
 40
1.0
 10
13.4197995984
 20
8.152472063
 30
0.0
 10
13.4197995984
 20
8.162546231
 30
0.0
 10
13.4199567661
 20
8.1828127928
 30
0.0
 10
13.4206515759
 20
8.2133507534
 30
0.0
 10
13.4218047897
 20
8.2441340711
 30
0.0
 10
13.423412627
 20
8.2750608456
 30
0.0
 10
13.4254697745
 20
8.3060287554
 30
0.0
 10
13.4279694326
 20
8.336935351
 30
0.0
 10
13.4309033207
 20
8.3676783796
 30
0.0
 10
13.4342617131
 20
8.3981561364
 30
0.0
 10
13.4380334671
 20
8.4282677991
 30
0.0
 10
13.4422060613
 20
8.4579137654
 30
0.0
 10
13.4467656355
 20
8.4869959855
 30
0.0
 10
13.4516970358
 20
8.5154182908
 30
0.0
 10
13.4569838642
 20
8.5430867151
 30
0.0
 10
13.4626085304
 20
8.5699098176
 30
0.0
 10
13.4685523123
 20
8.5957989738
 30
0.0
 10
13.4747954072
 20
8.6206687497
 30
0.0
 10
13.4813170299
 20
8.644436952
 30
0.0
 10
13.4870326044
 20
8.6634841218
 30
0.0
 10
13.491737352
 20
8.6781050807
 30
0.0
 10
13.4952791785
 20
8.6886146794
 30
0.0
 10
13.4988740477
 20
8.6987924076
 30
0.0
 10
13.5025189725
 20
8.7086298787
 30
0.0
 10
13.506210964
 20
8.7181189688
 30
0.0
 10
13.5099469194
 20
8.727251864
 30
0.0
 10
13.5137237961
 20
8.7360210314
 30
0.0
 10
13.517538412
 20
8.7444192682
 30
0.0
 10
13.5213876761
 20
8.7524396581
 30
0.0
 10
13.525268347
 20
8.7600756388
 30
0.0
 10
13.5291772978
 20
8.7673209373
 30
0.0
 10
13.5331112523
 20
8.7741696586
 30
0.0
 10
13.537067065
 20
8.7806161991
 30
0.0
 10
13.5410414586
 20
8.7866553538
 30
0.0
 10
13.5450312962
 20
8.7922822105
 30
0.0
 10
13.5490333463
 20
8.7974922667
 30
0.0
 10
13.5530445248
 20
8.8022813109
 30
0.0
 10
13.5570617119
 20
8.8066455293
 30
0.0
 10
13.5610819396
 20
8.8105813824
 30
0.0
 10
13.5651022764
 20
8.8140856677
 30
0.0
 10
13.5691199274
 20
8.817155403
 30
0.0
 10
13.5731321723
 20
8.8197877989
 30
0.0
 10
13.5771363161
 20
8.8219801845
 30
0.0
 10
13.5811296301
 20
8.8237298819
 30
0.0
 10
13.5851090284
 20
8.825034315
 30
0.0
 10
13.58907124
 20
8.8258909022
 30
0.0
 10
13.5930114459
 20
8.8262976505
 30
0.0
 10
13.5956274135
 20
8.8262677785
 30
0.0
 10
13.596920998
 20
8.8261780713
 30
0.0
  0
SPLINE
  5
377
100
AcDbEntity
  8
0
100
AcDbSpline
 62
7
  6
CONTINUOUS
 70
0
 71
3
 72
39
 73
35
 74
0
 42
0.0000001
 43
0.0000001
 44
0.0000000001
 40
0.0
 40
0.0
 40
0.0
 40
0.0
 40
0.0071625678
 40
0.0146567179
 40
0.0224900413
 40
0.0306687017
 40
0.0391977329
 40
0.0480809761
 40
0.0573207983
 40
0.0669183965
 40
0.0768741435
 40
0.0871874377
 40
0.1088799456
 40
0.131978928
 40
0.1564568622
 40
0.182278431
 40
0.2094015018
 40
0.2377780607
 40
0.2673549092
 40
0.2980741881
 40
0.3298737896
 40
0.3626878448
 40
0.3964471028
 40
0.4310792359
 40
0.4665091073
 40
0.5026591244
 40
0.5394495258
 40
0.5767986285
 40
0.6146230679
 40
0.6913563402
 40
0.7689609431
 40
0.8467367595
 40
0.9239813805
 40
1.0
 40
1.0
 40
1.0
 40
1.0
 10
8.2879939421
 20
9.3461666349
 30
0.0
 10
8.2872487975
 20
9.3454468805
 30
0.0
 10
8.2857594908
 20
9.3439369695
 30
0.0
 10
8.2835766345
 20
9.3415239806
 30
0.0
 10
8.2813965183
 20
9.3389139517
 30
0.0
 10
8.2792206013
 20
9.3361085679
 30
0.0
 10
8.2770500635
 20
9.3331095091
 30
0.0
 10
8.2748861838
 20
9.3299184821
 30
0.0
 10
8.2727301886
 20
9.3265373706
 30
0.0
 10
8.2705833527
 20
9.3229681899
 30
0.0
 10
8.2684469908
 20
9.3192130421
 30
0.0
 10
8.2655654769
 20
9.3138708644
 30
0.0
 10
8.2620074248
 20
9.3067361622
 30
0.0
 10
8.2578683611
 20
9.2976098525
 30
0.0
 10
8.2538009279
 20
9.2878017066
 30
0.0
 10
8.2498149486
 20
9.2773351636
 30
0.0
 10
8.2459200417
 20
9.2662351167
 30
0.0
 10
8.2421256325
 20
9.2545281098
 30
0.0
 10
8.2384409128
 20
9.2422421653
 30
0.0
 10
8.2348748172
 20
9.2294067415
 30
0.0
 10
8.2314359703
 20
9.2160526573
 30
0.0
 10
8.2281326958
 20
9.2022120003
 30
0.0
 10
8.2249729916
 20
9.1879180378
 30
0.0
 10
8.2219645122
 20
9.1732051421
 30
0.0
 10
8.2191145245
 20
9.1581087136
 30
0.0
 10
8.2164299148
 20
9.1426650802
 30
0.0
 10
8.2139171821
 20
9.1269114159
 30
0.0
 10
8.21158238
 20
9.1108856121
 30
0.0
 10
8.2087004961
 20
9.0891030686
 30
0.0
 10
8.2055873086
 20
9.0614803086
 30
0.0
 10
8.2026550886
 20
9.0280323413
 30
0.0
 10
8.2005373098
 20
8.9944486662
 30
0.0
 10
8.1992542898
 20
8.9610525303
 30
0.0
 10
8.1989602641
 20
8.9388835486
 30
0.0
 10
8.1989602641
 20
8.9278881968
 30
0.0
  0
SPLINE
  5
378
100
AcDbEntity
  8
0
100
AcDbSpline
 62
7
  6
CONTINUOUS
 70
0
 71
3
 72
31
 73
27
 74
0
 42
0.0000001
 43
0.0000001
 44
0.0000000001
 40
0.0
 40
0.0
 40
0.0
 40
0.0
 40
0.0851788837
 40
0.1685813066
 40
0.2498840119
 40
0.3287751356
 40
0.4049557415
 40
0.4781421254
 40
0.5480679845
 40
0.6144869819
 40
0.6463115569
 40
0.6771777789
 40
0.707061738
 40
0.7359417808
 40
0.7637980324
 40
0.7906132552
 40
0.8163724294
 40
0.8410636987
 40
0.8646780573
 40
0.8872104235
 40
0.9086595085
 40
0.9290290893
 40
0.948328174
 40
0.9665725896
 40
0.9837856077
 40
1.0
 40
1.0
 40
1.0
 40
1.0
 10
8.1989602641
 20
8.0411682357
 30
0.0
 10
8.1989602641
 20
8.0340406824
 30
0.0
 10
8.1990817213
 20
8.0199338817
 30
0.0
 10
8.1996387765
 20
7.9990305089
 30
0.0
 10
8.2005665726
 20
7.978666826
 30
0.0
 10
8.2018610759
 20
7.9589286198
 30
0.0
 10
8.2035166894
 20
7.9398989004
 30
0.0
 10
8.2055262423
 20
7.9216576172
 30
0.0
 10
8.207881107
 20
7.9042815067
 30
0.0
 10
8.2101538236
 20
7.8903920097
 30
0.0
 10
8.2121469877
 20
7.8797734739
 30
0.0
 10
8.2137003139
 20
7.8721840047
 30
0.0
 10
8.215331772
 20
7.8648631575
 30
0.0
 10
8.2170395931
 20
7.8578186063
 30
0.0
 10
8.2188220299
 20
7.8510577443
 30
0.0
 10
8.2206771285
 20
7.844587648
 30
0.0
 10
8.2226030001
 20
7.8384150897
 30
0.0
 10
8.2245975426
 20
7.8325465015
 30
0.0
 10
8.2266587354
 20
7.8269880021
 30
0.0
 10
8.2287843494
 20
7.8217453415
 30
0.0
 10
8.2309722564
 20
7.816823952
 30
0.0
 10
8.233220137
 20
7.8122288617
 30
0.0
 10
8.2355257862
 20
7.8079648032
 30
0.0
 10
8.2378868944
 20
7.8040360102
 30
0.0
 10
8.2403011138
 20
7.8004466768
 30
0.0
 10
8.2419939556
 20
7.7982173591
 30
0.0
 10
8.2428500445
 20
7.7971647613
 30
0.0
  0
SPLINE
  5
379
100
AcDbEntity
  8
0
100
AcDbSpline
 62
7
  6
CONTINUOUS
 70
0
 71
3
 72
21
 73
17
 74
0
 42
0.0000001
 43
0.0000001
 44
0.0000000001
 40
0.0
 40
0.0
 40
0.0
 40
0.0
 40
0.0623691583
 40
0.1247804644
 40
0.1872488335
 40
0.2497921165
 40
0.3124175403
 40
0.3751261038
 40
0.4379091668
 40
0.50074828
 40
0.5636144789
 40
0.6264684795
 40
0.6892612183
 40
0.7519348939
 40
0.8766138232
 40
1.0
 40
1.0
 40
1.0
 40
1.0
 10
11.1319224816
 20
8.3748458762
 30
0.0
 10
11.1331490483
 20
8.3725140428
 30
0.0
 10
11.1357639368
 20
8.3679314759
 30
0.0
 10
11.1401444072
 20
8.3613380497
 30
0.0
 10
11.144960532
 20
8.3550462808
 30
0.0
 10
11.1501853251
 20
8.3490779119
 30
0.0
 10
11.1557906648
 20
8.3434513641
 30
0.0
 10
11.161746877
 20
8.3381827121
 30
0.0
 10
11.1680234797
 20
8.3332858111
 30
0.0
 10
11.1745892699
 20
8.3287726609
 30
0.0
 10
11.1814125757
 20
8.3246537159
 30
0.0
 10
11.1884612384
 20
8.3209382153
 30
0.0
 10
11.1957030637
 20
8.3176342321
 30
0.0
 10
11.205553276
 20
8.3137949456
 30
0.0
 10
11.2181663621
 20
8.3100576169
 30
0.0
 10
11.228507459
 20
8.3082105634
 30
0.0
 10
11.2336824804
 20
8.3075876068
 30
0.0
  0
SPLINE
  5
37A
100
AcDbEntity
  8
0
100
AcDbSpline
 62
7
  6
CONTINUOUS
 70
0
 71
3
 72
39
 73
35
 74
0
 42
0.0000001
 43
0.0000001
 44
0.0000000001
 40
0.0
 40
0.0
 40
0.0
 40
0.0
 40
0.0760186195
 40
0.1532632405
 40
0.2310390569
 40
0.3086436598
 40
0.3853769321
 40
0.4232013715
 40
0.4605504742
 40
0.4973408756
 40
0.5334908927
 40
0.5689207641
 40
0.6035528972
 40
0.6373121552
 40
0.6701262104
 40
0.7019258119
 40
0.7326450908
 40
0.7622219393
 40
0.7905984982
 40
0.817721569
 40
0.8435431378
 40
0.868021072
 40
0.8911200544
 40
0.9128125623
 40
0.9231258565
 40
0.9330816035
 40
0.9426792017
 40
0.9519190239
 40
0.9608022671
 40
0.9693312983
 40
0.9775099587
 40
0.9853432821
 40
0.9928374322
 40
1.0
 40
1.0
 40
1.0
 40
1.0
 10
13.8010397359
 20
8.0986121686
 30
0.0
 10
13.8010397359
 20
8.0876168168
 30
0.0
 10
13.8007457102
 20
8.0654478351
 30
0.0
 10
13.7994626902
 20
8.0320516992
 30
0.0
 10
13.7973449114
 20
7.9984680241
 30
0.0
 10
13.7944126914
 20
7.9650200568
 30
0.0
 10
13.7912995039
 20
7.9373972969
 30
0.0
 10
13.78841762
 20
7.9156147533
 30
0.0
 10
13.7860828179
 20
7.8995889495
 30
0.0
 10
13.7835700852
 20
7.8838352852
 30
0.0
 10
13.7808854755
 20
7.8683916519
 30
0.0
 10
13.7780354878
 20
7.8532952233
 30
0.0
 10
13.7750270084
 20
7.8385823277
 30
0.0
 10
13.7718673042
 20
7.8242883651
 30
0.0
 10
13.7685640297
 20
7.8104477081
 30
0.0
 10
13.7651251828
 20
7.7970936239
 30
0.0
 10
13.7615590872
 20
7.7842582001
 30
0.0
 10
13.7578743675
 20
7.7719722556
 30
0.0
 10
13.7540799583
 20
7.7602652487
 30
0.0
 10
13.7501850514
 20
7.7491652019
 30
0.0
 10
13.7461990721
 20
7.7386986588
 30
0.0
 10
13.7421316389
 20
7.728890513
 30
0.0
 10
13.7379925752
 20
7.7197642032
 30
0.0
 10
13.7344345231
 20
7.712629501
 30
0.0
 10
13.7315530092
 20
7.7072873233
 30
0.0
 10
13.7294166473
 20
7.7035321756
 30
0.0
 10
13.7272698114
 20
7.6999629948
 30
0.0
 10
13.7251138162
 20
7.6965818833
 30
0.0
 10
13.7229499365
 20
7.6933908563
 30
0.0
 10
13.7207793987
 20
7.6903917975
 30
0.0
 10
13.7186034817
 20
7.6875864137
 30
0.0
 10
13.7164233655
 20
7.6849763848
 30
0.0
 10
13.7142405092
 20
7.6825633959
 30
0.0
 10
13.7127512025
 20
7.681053485
 30
0.0
 10
13.7120060579
 20
7.6803337305
 30
0.0
  0
SPLINE
  5
37B
100
AcDbEntity
  8
0
100
AcDbSpline
 62
7
  6
CONTINUOUS
 70
0
 71
3
 72
15
 73
11
 74
0
 42
0.0000001
 43
0.0000001
 44
0.0000000001
 40
0.0
 40
0.0
 40
0.0
 40
0.0
 40
0.1234394324
 40
0.2470466332
 40
0.3709825608
 40
0.4953948801
 40
0.6204121078
 40
0.7461393952
 40
0.8726516562
 40
1.0
 40
1.0
 40
1.0
 40
1.0
 10
10.8646119887
 20
7.789938505
 30
0.0
 10
10.8672959859
 20
7.7925310258
 30
0.0
 10
10.8724042862
 20
7.7980004141
 30
0.0
 10
10.8791886577
 20
7.8069540921
 30
0.0
 10
10.8850382418
 20
7.8165802832
 30
0.0
 10
10.8898980106
 20
7.8267888108
 30
0.0
 10
10.8937236665
 20
7.8374854002
 30
0.0
 10
10.896480121
 20
7.8485714001
 30
0.0
 10
10.898142471
 20
7.8599431349
 30
0.0
 10
10.8985100527
 20
7.8676227628
 30
0.0
 10
10.8985100527
 20
7.8714725531
 30
0.0
  0
SPLINE
  5
37C
100
AcDbEntity
  8
0
100
AcDbSpline
 62
7
  6
CONTINUOUS
 70
0
 71
3
 72
15
 73
11
 74
0
 42
0.0000001
 43
0.0000001
 44
0.0000000001
 40
0.0
 40
0.0
 40
0.0
 40
0.0
 40
0.123439423
 40
0.2470466239
 40
0.3709825581
 40
0.4953948958
 40
0.6204121019
 40
0.7461394398
 40
0.8726516719
 40
1.0
 40
1.0
 40
1.0
 40
1.0
 10
10.8646125075
 20
8.6051805026
 30
0.0
 10
10.8672964743
 20
8.6077730114
 30
0.0
 10
10.8724046935
 20
8.6132423934
 30
0.0
 10
10.8791889714
 20
8.6221960279
 30
0.0
 10
10.885038459
 20
8.6318221733
 30
0.0
 10
10.8898981415
 20
8.6420306407
 30
0.0
 10
10.8937237423
 20
8.6527271538
 30
0.0
 10
10.8964801532
 20
8.66381307
 30
0.0
 10
10.8981424782
 20
8.6751847151
 30
0.0
 10
10.8985100527
 20
8.68286428
 30
0.0
 10
10.8985100527
 20
8.6867140389
 30
0.0
  0
SPLINE
  5
37D
100
AcDbEntity
  8
0
100
AcDbSpline
 62
7
  6
CONTINUOUS
 70
0
 71
3
 72
15
 73
11
 74
0
 42
0.0000001
 43
0.0000001
 44
0.0000000001
 40
0.0
 40
0.0
 40
0.0
 40
0.0
 40
0.1233171376
 40
0.2468171981
 40
0.3706749826
 40
0.4950495853
 40
0.6200772313
 40
0.7458671002
 40
0.8724930137
 40
1.0
 40
1.0
 40
1.0
 40
1.0
 10
10.7326103314
 20
8.3342177598
 30
0.0
 10
10.7340689557
 20
8.3356266988
 30
0.0
 10
10.7371427245
 20
8.3382917276
 30
0.0
 10
10.7421594422
 20
8.3417741903
 30
0.0
 10
10.7475350346
 20
8.3447098631
 30
0.0
 10
10.7532144737
 20
8.3470685754
 30
0.0
 10
10.7591404711
 20
8.3488269147
 30
0.0
 10
10.7652533385
 20
8.3499672811
 30
0.0
 10
10.7714906651
 20
8.3504785816
 30
0.0
 10
10.7756774607
 20
8.3503969188
 30
0.0
 10
10.7777693173
 20
8.3502518481
 30
0.0
  0
SPLINE
  5
37E
100
AcDbEntity
  8
0
100
AcDbSpline
 62
7
  6
CONTINUOUS
 70
0
 71
3
 72
15
 73
11
 74
0
 42
0.0000001
 43
0.0000001
 44
0.0000000001
 40
0.0
 40
0.0
 40
0.0
 40
0.0
 40
0.1233171376
 40
0.2468171981
 40
0.3706749826
 40
0.4950495853
 40
0.6200772313
 40
0.7458671002
 40
0.8724930137
 40
1.0
 40
1.0
 40
1.0
 40
1.0
 10
11.1701748229
 20
8.9230310819
 30
0.0
 10
11.1716334473
 20
8.9244400209
 30
0.0
 10
11.1747072161
 20
8.9271050497
 30
0.0
 10
11.1797239338
 20
8.9305875124
 30
0.0
 10
11.1850995262
 20
8.9335231852
 30
0.0
 10
11.1907789653
 20
8.9358818975
 30
0.0
 10
11.1967049626
 20
8.9376402368
 30
0.0
 10
11.20281783
 20
8.9387806032
 30
0.0
 10
11.2090551566
 20
8.9392919037
 30
0.0
 10
11.2132419523
 20
8.9392102409
 30
0.0
 10
11.2153338088
 20
8.9390651702
 30
0.0
  0
SPLINE
  5
37F
100
AcDbEntity
  8
0
100
AcDbSpline
 62
7
  6
CONTINUOUS
 70
0
 71
3
 72
17
 73
13
 74
0
 42
0.0000001
 43
0.0000001
 44
0.0000000001
 40
0.0
 40
0.0
 40
0.0
 40
0.0
 40
0.0544358448
 40
0.1090885253
 40
0.2198402599
 40
0.3339491399
 40
0.4528985532
 40
0.5146194848
 40
0.5780176026
 40
0.7103219531
 40
0.8507493365
 40
1.0
 40
1.0
 40
1.0
 40
1.0
 10
8.5703481461
 20
9.6046628156
 30
0.0
 10
8.5698390504
 20
9.6046981251
 30
0.0
 10
8.5688161685
 20
9.6047355174
 30
0.0
 10
8.5667549252
 20
9.6046766312
 30
0.0
 10
8.5641475914
 20
9.6043470393
 30
0.0
 10
8.5610169483
 20
9.6035504671
 30
0.0
 10
8.5584286628
 20
9.6025654208
 30
0.0
 10
8.5563586452
 20
9.6015888599
 30
0.0
 10
8.5542288022
 20
9.6004522372
 30
0.0
 10
8.5515572994
 20
9.598772532
 30
0.0
 10
8.5483917458
 20
9.5963938273
 30
0.0
 10
8.5463445557
 20
9.5946056349
 30
0.0
 10
8.5453203251
 20
9.593652404
 30
0.0
  0
SPLINE
  5
380
100
AcDbEntity
  8
0
100
AcDbSpline
 62
7
  6
CONTINUOUS
 70
0
 71
3
 72
18
 73
14
 74
0
 42
0.0000001
 43
0.0000001
 44
0.0000000001
 40
0.0
 40
0.0
 40
0.0
 40
0.0
 40
0.1492438628
 40
0.2896566766
 40
0.4219552654
 40
0.4853510326
 40
0.5470696139
 40
0.6660130313
 40
0.7801157008
 40
0.8358361162
 40
0.8909169338
 40
0.9455668697
 40
1.0
 40
1.0
 40
1.0
 40
1.0
 10
8.2687252282
 20
7.7653498841
 30
0.0
 10
8.2696080724
 20
7.7642643792
 30
0.0
 10
8.2713887675
 20
7.7622107278
 30
0.0
 10
8.2741956992
 20
7.7594179178
 30
0.0
 10
8.2766097027
 20
7.7573855048
 30
0.0
 10
8.2785622948
 20
7.7559657668
 30
0.0
 10
8.280477736
 20
7.7547127721
 30
0.0
 10
8.2829050161
 20
7.7533798885
 30
0.0
 10
8.2854179478
 20
7.7523541565
 30
0.0
 10
8.2874368068
 20
7.7517417282
 30
0.0
 10
8.2889476573
 20
7.7513856786
 30
0.0
 10
8.2904662992
 20
7.751129579
 30
0.0
 10
8.2914845221
 20
7.7510254216
 30
0.0
 10
8.2919936205
 20
7.750990112
 30
0.0
  0
SPLINE
  5
381
100
AcDbEntity
  8
0
100
AcDbSpline
 62
7
  6
CONTINUOUS
 70
0
 71
3
 72
22
 73
18
 74
0
 42
0.0000001
 43
0.0000001
 44
0.0000000001
 40
0.0
 40
0.0
 40
0.0
 40
0.0
 40
0.062363855
 40
0.0935542601
 40
0.124751117
 40
0.1871662679
 40
0.249643374
 40
0.3122004066
 40
0.3748472963
 40
0.4375837404
 40
0.5003975513
 40
0.5632634984
 40
0.6261429443
 40
0.6889842701
 40
0.7517237959
 40
0.8765393483
 40
1.0
 40
1.0
 40
1.0
 40
1.0
 10
10.4328092882
 20
8.4328896364
 30
0.0
 10
10.4338956368
 20
8.4302411105
 30
0.0
 10
10.4356753362
 20
8.4263270539
 30
0.0
 10
10.4383343358
 20
8.4212543688
 30
0.0
 10
10.4411811514
 20
8.416281648
 30
0.0
 10
10.4450840616
 20
8.4102647246
 30
0.0
 10
10.4502841034
 20
8.4034002328
 30
0.0
 10
10.4559682156
 20
8.3969168167
 30
0.0
 10
10.4620998393
 20
8.3908384934
 30
0.0
 10
10.4686408531
 20
8.3851854868
 30
0.0
 10
10.4755518581
 20
8.379975118
 30
0.0
 10
10.4827926321
 20
8.3752221869
 30
0.0
 10
10.4903222041
 20
8.3709395286
 30
0.0
 10
10.4980994791
 20
8.367138178
 30
0.0
 10
10.5087224467
 20
8.3627334043
 30
0.0
 10
10.5223871845
 20
8.358475881
 30
0.0
 10
10.5336292275
 20
8.3564167123
 30
0.0
 10
10.5392561423
 20
8.3557424719
 30
0.0
  0
SPLINE
  5
382
100
AcDbEntity
  8
0
100
AcDbSpline
 62
7
  6
CONTINUOUS
 70
0
 71
3
 72
23
 73
19
 74
0
 42
0.0000001
 43
0.0000001
 44
0.0000000001
 40
0.0
 40
0.0
 40
0.0
 40
0.0
 40
0.0618931088
 40
0.1237213658
 40
0.1855181212
 40
0.2473173767
 40
0.30915321
 40
0.3710592329
 40
0.4330680497
 40
0.4952106879
 40
0.5575160455
 40
0.6200104682
 40
0.6827171944
 40
0.7456562739
 40
0.8088441542
 40
0.8722913566
 40
0.9360114703
 40
1.0
 40
1.0
 40
1.0
 40
1.0
 10
10.3299420612
 20
8.3865548118
 30
0.0
 10
10.3313113354
 20
8.388504849
 30
0.0
 10
10.3341755633
 20
8.392315405
 30
0.0
 10
10.3388319916
 20
8.3977371859
 30
0.0
 10
10.3438296111
 20
8.4028415887
 30
0.0
 10
10.3491500878
 20
8.4076088571
 30
0.0
 10
10.3547740778
 20
8.4120208349
 30
0.0
 10
10.3606809221
 20
8.4160605455
 30
0.0
 10
10.3668488447
 20
8.4197123725
 30
0.0
 10
10.3732549929
 20
8.4229620969
 30
0.0
 10
10.3798755048
 20
8.4257970192
 30
0.0
 10
10.3866855978
 20
8.4282060344
 30
0.0
 10
10.3936596903
 20
8.4301796583
 30
0.0
 10
10.4007715209
 20
8.4317100645
 30
0.0
 10
10.4079941316
 20
8.4327911131
 30
0.0
 10
10.4153003881
 20
8.4334186332
 30
0.0
 10
10.4226620322
 20
8.4335899143
 30
0.0
 10
10.4275785712
 20
8.4333999537
 30
0.0
 10
10.4300361005
 20
8.4332295234
 30
0.0
  0
SPLINE
  5
383
100
AcDbEntity
  8
0
100
AcDbSpline
 62
7
  6
CONTINUOUS
 70
0
 71
3
 72
47
 73
43
 74
0
 42
0.0000001
 43
0.0000001
 44
0.0000000001
 40
0.0
 40
0.0
 40
0.0
 40
0.0
 40
0.0063158967
 40
0.0126706977
 40
0.0191025471
 40
0.0256480963
 40
0.0323419829
 40
0.0392163382
 40
0.053614168
 40
0.0611948929
 40
0.0690566412
 40
0.077217773
 40
0.0856941569
 40
0.0944995551
 40
0.1036456891
 40
0.1131424521
 40
0.122998232
 40
0.1332198706
 40
0.1438129644
 40
0.1547820179
 40
0.1661303832
 40
0.1899727563
 40
0.2153522396
 40
0.2422681077
 40
0.2707104459
 40
0.3006614883
 40
0.3320967939
 40
0.3649861265
 40
0.3992940928
 40
0.4349806571
 40
0.4720016811
 40
0.5103093127
 40
0.5498522596
 40
0.5905760756
 40
0.6324234754
 40
0.6753345639
 40
0.7192469999
 40
0.7640961586
 40
0.8098155359
 40
0.8563366993
 40
0.9035889296
 40
1.0
 40
1.0
 40
1.0
 40
1.0
 10
13.5222025367
 20
7.7487658479
 30
0.0
 10
13.5212898349
 20
7.7488291417
 30
0.0
 10
13.5194631214
 20
7.7490308167
 30
0.0
 10
13.5167435191
 20
7.7495565033
 30
0.0
 10
13.5140421029
 20
7.7503053711
 30
0.0
 10
13.5113604352
 20
7.7512767687
 30
0.0
 10
13.5086995858
 20
7.7524701905
 30
0.0
 10
13.5051267793
 20
7.7543853929
 30
0.0
 10
13.5016509909
 20
7.7567298859
 30
0.0
 10
13.4982873194
 20
7.7594467966
 30
0.0
 10
13.4957466046
 20
7.761737469
 30
0.0
 10
13.4932330382
 20
7.7642446313
 30
0.0
 10
13.4907472131
 20
7.7669673578
 30
0.0
 10
13.4882901759
 20
7.7699044998
 30
0.0
 10
13.4858628252
 20
7.7730548573
 30
0.0
 10
13.4834660664
 20
7.7764171247
 30
0.0
 10
13.4811008791
 20
7.77998997
 30
0.0
 10
13.4787681539
 20
7.7837719216
 30
0.0
 10
13.4764688236
 20
7.7877614463
 30
0.0
 10
13.4742038143
 20
7.7919569503
 30
0.0
 10
13.4711809083
 20
7.7979218371
 30
0.0
 10
13.467504906
 20
7.8058923216
 30
0.0
 10
13.4633147632
 20
7.8160973607
 30
0.0
 10
13.4592826953
 20
7.8270783183
 30
0.0
 10
13.455415315
 20
7.8388172846
 30
0.0
 10
13.4517189574
 20
7.8512953045
 30
0.0
 10
13.4481997356
 20
7.8644920431
 30
0.0
 10
13.4448634951
 20
7.8783859564
 30
0.0
 10
13.4417157904
 20
7.892954293
 30
0.0
 10
13.4387618489
 20
7.9081731458
 30
0.0
 10
13.4360065908
 20
7.9240175101
 30
0.0
 10
13.4334546157
 20
7.9404613335
 30
0.0
 10
13.4311101778
 20
7.9574775515
 30
0.0
 10
13.4289771746
 20
7.9750381359
 30
0.0
 10
13.4270591614
 20
7.9931141543
 30
0.0
 10
13.425359344
 20
8.0116758193
 30
0.0
 10
13.4238805547
 20
8.0306925235
 30
0.0
 10
13.4226252469
 20
8.0501329163
 30
0.0
 10
13.4215955252
 20
8.0699649291
 30
0.0
 10
13.4207931019
 20
8.0901558347
 30
0.0
 10
13.42002299
 20
8.1176948197
 30
0.0
 10
13.4197995984
 20
8.138506366
 30
0.0
 10
13.4197995984
 20
8.152472063
 30
0.0
  0
SPLINE
  5
384
100
AcDbEntity
  8
0
100
AcDbSpline
 62
7
  6
CONTINUOUS
 70
0
 71
3
 72
23
 73
19
 74
0
 42
0.0000001
 43
0.0000001
 44
0.0000000001
 40
0.0
 40
0.0
 40
0.0
 40
0.0
 40
0.0618931122
 40
0.1237213821
 40
0.1855181539
 40
0.2473174096
 40
0.3091532335
 40
0.3710592552
 40
0.4330680792
 40
0.4952107185
 40
0.5575160637
 40
0.6200104738
 40
0.6827172207
 40
0.7456562654
 40
0.80884415
 40
0.8722914761
 40
0.9360111863
 40
1.0
 40
1.0
 40
1.0
 40
1.0
 10
11.0244423756
 20
8.3383906439
 30
0.0
 10
11.025811654
 20
8.3403406901
 30
0.0
 10
11.0286758568
 20
8.3441512893
 30
0.0
 10
11.0333322816
 20
8.3495731148
 30
0.0
 10
11.0383299151
 20
8.3546775464
 30
0.0
 10
11.0436504038
 20
8.3594448448
 30
0.0
 10
11.0492743949
 20
8.3638568673
 30
0.0
 10
11.0551812468
 20
8.3678966188
 30
0.0
 10
11.0613491889
 20
8.3715484715
 30
0.0
 10
11.0677553617
 20
8.3747982114
 30
0.0
 10
11.0743758909
 20
8.377633165
 30
0.0
 10
11.081186005
 20
8.3800422085
 30
0.0
 10
11.0881601229
 20
8.3820158485
 30
0.0
 10
11.0952719818
 20
8.3835462618
 30
0.0
 10
11.102494624
 20
8.3846273253
 30
0.0
 10
11.1098008994
 20
8.3852548496
 30
0.0
 10
11.1171625735
 20
8.3854261429
 30
0.0
 10
11.1220791279
 20
8.3852361765
 30
0.0
 10
11.1245366781
 20
8.3850657448
 30
0.0
  0
SPLINE
  5
385
100
AcDbEntity
  8
0
100
AcDbSpline
 62
7
  6
CONTINUOUS
 70
0
 71
3
 72
19
 73
15
 74
0
 42
0.0000001
 43
0.0000001
 44
0.0000000001
 40
0.0
 40
0.0
 40
0.0
 40
0.0
 40
0.0616584454
 40
0.1233399317
 40
0.185067215
 40
0.2468625626
 40
0.3087474945
 40
0.3707425066
 40
0.4328668994
 40
0.4951385746
 40
0.6201443393
 40
0.7459117862
 40
0.8725152911
 40
1.0
 40
1.0
 40
1.0
 40
1.0
 10
9.9051040536
 20
7.8436015256
 30
0.0
 10
9.9067649173
 20
7.8452057953
 30
0.0
 10
9.9101742795
 20
7.8483262369
 30
0.0
 10
9.9155335343
 20
7.8527261709
 30
0.0
 10
9.9211255228
 20
7.856835257
 30
0.0
 10
9.9269359224
 20
7.8606430145
 30
0.0
 10
9.9329501949
 20
7.8641398549
 30
0.0
 10
9.9391530949
 20
7.8673169615
 30
0.0
 10
9.945529211
 20
7.870166444
 30
0.0
 10
9.9542493499
 20
7.873522971
 30
0.0
 10
9.9655110517
 20
7.8768646887
 30
0.0
 10
9.9794287999
 20
7.8794608553
 30
0.0
 10
9.9936306723
 20
7.880625066
 30
0.0
 10
10.0031635175
 20
7.8804391139
 30
0.0
 10
10.0079264544
 20
7.8801088031
 30
0.0
  0
SPLINE
  5
386
100
AcDbEntity
  8
0
100
AcDbSpline
 62
7
  6
CONTINUOUS
 70
0
 71
3
 72
19
 73
15
 74
0
 42
0.0000001
 43
0.0000001
 44
0.0000000001
 40
0.0
 40
0.0
 40
0.0
 40
0.0
 40
0.0616584454
 40
0.1233399317
 40
0.185067215
 40
0.2468625626
 40
0.3087474945
 40
0.3707425066
 40
0.4328668994
 40
0.4951385746
 40
0.6201443393
 40
0.7459117862
 40
0.8725152911
 40
1.0
 40
1.0
 40
1.0
 40
1.0
 10
11.4438239234
 20
7.7368909402
 30
0.0
 10
11.4454847871
 20
7.7384952099
 30
0.0
 10
11.4488941493
 20
7.7416156515
 30
0.0
 10
11.4542534041
 20
7.7460155855
 30
0.0
 10
11.4598453926
 20
7.7501246716
 30
0.0
 10
11.4656557922
 20
7.7539324291
 30
0.0
 10
11.4716700647
 20
7.7574292695
 30
0.0
 10
11.4778729647
 20
7.7606063761
 30
0.0
 10
11.4842490808
 20
7.7634558586
 30
0.0
 10
11.4929692197
 20
7.7668123856
 30
0.0
 10
11.5042309215
 20
7.7701541033
 30
0.0
 10
11.5181486697
 20
7.7727502699
 30
0.0
 10
11.5323505421
 20
7.7739144806
 30
0.0
 10
11.5418833873
 20
7.7737285285
 30
0.0
 10
11.5466463242
 20
7.7733982177
 30
0.0
  0
SPLINE
  5
387
100
AcDbEntity
  8
0
100
AcDbSpline
 62
7
  6
CONTINUOUS
 70
0
 71
3
 72
19
 73
15
 74
0
 42
0.0000001
 43
0.0000001
 44
0.0000000001
 40
0.0
 40
0.0
 40
0.0
 40
0.0
 40
0.0616584454
 40
0.1233399317
 40
0.185067215
 40
0.2468625626
 40
0.3087474945
 40
0.3707425066
 40
0.4328668994
 40
0.4951385746
 40
0.6201443393
 40
0.7459117862
 40
0.8725152911
 40
1.0
 40
1.0
 40
1.0
 40
1.0
 10
11.4438239234
 20
8.9442982946
 30
0.0
 10
11.4454847871
 20
8.9459025643
 30
0.0
 10
11.4488941493
 20
8.9490230059
 30
0.0
 10
11.4542534041
 20
8.9534229399
 30
0.0
 10
11.4598453926
 20
8.957532026
 30
0.0
 10
11.4656557922
 20
8.9613397835
 30
0.0
 10
11.4716700647
 20
8.9648366239
 30
0.0
 10
11.4778729647
 20
8.9680137305
 30
0.0
 10
11.4842490808
 20
8.970863213
 30
0.0
 10
11.4929692197
 20
8.97421974
 30
0.0
 10
11.5042309215
 20
8.9775614577
 30
0.0
 10
11.5181486697
 20
8.9801576243
 30
0.0
 10
11.5323505421
 20
8.981321835
 30
0.0
 10
11.5418833873
 20
8.9811358829
 30
0.0
 10
11.5466463242
 20
8.9808055721
 30
0.0
  0
SPLINE
  5
388
100
AcDbEntity
  8
0
100
AcDbSpline
 62
7
  6
CONTINUOUS
 70
0
 71
3
 72
19
 73
15
 74
0
 42
0.0000001
 43
0.0000001
 44
0.0000000001
 40
0.0
 40
0.0
 40
0.0
 40
0.0
 40
0.0616584454
 40
0.1233399317
 40
0.185067215
 40
0.2468625626
 40
0.3087474945
 40
0.3707425066
 40
0.4328668994
 40
0.4951385746
 40
0.6201443393
 40
0.7459117862
 40
0.8725152911
 40
1.0
 40
1.0
 40
1.0
 40
1.0
 10
9.9051040536
 20
9.05100888
 30
0.0
 10
9.9067649173
 20
9.0526131497
 30
0.0
 10
9.9101742795
 20
9.0557335913
 30
0.0
 10
9.9155335343
 20
9.0601335253
 30
0.0
 10
9.9211255228
 20
9.0642426114
 30
0.0
 10
9.9269359224
 20
9.0680503689
 30
0.0
 10
9.9329501949
 20
9.0715472093
 30
0.0
 10
9.9391530949
 20
9.0747243159
 30
0.0
 10
9.945529211
 20
9.0775737984
 30
0.0
 10
9.9542493499
 20
9.0809303254
 30
0.0
 10
9.9655110517
 20
9.0842720431
 30
0.0
 10
9.9794287999
 20
9.0868682097
 30
0.0
 10
9.9936306723
 20
9.0880324204
 30
0.0
 10
10.0031635175
 20
9.0878464683
 30
0.0
 10
10.0079264544
 20
9.0875161575
 30
0.0
  0
SPLINE
  5
389
100
AcDbEntity
  8
0
100
AcDbSpline
 62
7
  6
CONTINUOUS
 70
0
 71
3
 72
31
 73
27
 74
0
 42
0.0000001
 43
0.0000001
 44
0.0000000001
 40
0.0
 40
0.0
 40
0.0
 40
0.0
 40
0.0162143923
 40
0.0334274104
 40
0.051671826
 40
0.0709709107
 40
0.0913404915
 40
0.1127895765
 40
0.1353219427
 40
0.1589363013
 40
0.1836275706
 40
0.2093867448
 40
0.2362019676
 40
0.2640582192
 40
0.292938262
 40
0.3228222211
 40
0.3536884431
 40
0.3855130181
 40
0.4519320155
 40
0.5218578746
 40
0.5950442585
 40
0.6712248644
 40
0.7501159881
 40
0.8314186934
 40
0.9148211163
 40
1.0
 40
1.0
 40
1.0
 40
1.0
 10
13.7571499555
 20
9.1878007911
 30
0.0
 10
13.7580060444
 20
9.1867481933
 30
0.0
 10
13.7596988862
 20
9.1845188757
 30
0.0
 10
13.7621131056
 20
9.1809295423
 30
0.0
 10
13.7644742138
 20
9.1770007492
 30
0.0
 10
13.766779863
 20
9.1727366907
 30
0.0
 10
13.7690277436
 20
9.1681416005
 30
0.0
 10
13.7712156506
 20
9.163220211
 30
0.0
 10
13.7733412646
 20
9.1579775503
 30
0.0
 10
13.7754024574
 20
9.1524190509
 30
0.0
 10
13.7773969999
 20
9.1465504627
 30
0.0
 10
13.7793228715
 20
9.1403779044
 30
0.0
 10
13.7811779701
 20
9.1339078081
 30
0.0
 10
13.7829604069
 20
9.1271469461
 30
0.0
 10
13.784668228
 20
9.1201023949
 30
0.0
 10
13.7862996861
 20
9.1127815477
 30
0.0
 10
13.7878530123
 20
9.1051920785
 30
0.0
 10
13.7898461764
 20
9.0945735427
 30
0.0
 10
13.792118893
 20
9.0806840457
 30
0.0
 10
13.7944737577
 20
9.0633079353
 30
0.0
 10
13.7964833106
 20
9.0450666521
 30
0.0
 10
13.7981389241
 20
9.0260369326
 30
0.0
 10
13.7994334274
 20
9.0062987265
 30
0.0
 10
13.8003612235
 20
8.9859350435
 30
0.0
 10
13.8009182787
 20
8.9650316707
 30
0.0
 10
13.8010397359
 20
8.9509248701
 30
0.0
 10
13.8010397359
 20
8.9437973167
 30
0.0
  0
SPLINE
  5
38A
100
AcDbEntity
  8
0
100
AcDbSpline
 62
7
  6
CONTINUOUS
 70
0
 71
3
 72
17
 73
13
 74
0
 42
0.0000001
 43
0.0000001
 44
0.0000000001
 40
0.0
 40
0.0
 40
0.0
 40
0.0
 40
0.1492506635
 40
0.2896780469
 40
0.4219823974
 40
0.4853805152
 40
0.5471014468
 40
0.6660508601
 40
0.7801597401
 40
0.8909114747
 40
0.9455641552
 40
1.0
 40
1.0
 40
1.0
 40
1.0
 10
13.4435504651
 20
7.4220979697
 30
0.0
 10
13.4425262345
 20
7.4211447388
 30
0.0
 10
13.4404790445
 20
7.4193565463
 30
0.0
 10
13.4373134908
 20
7.4169778417
 30
0.0
 10
13.4346419881
 20
7.4152981365
 30
0.0
 10
13.432512145
 20
7.4141615138
 30
0.0
 10
13.4304421274
 20
7.4131849528
 30
0.0
 10
13.4278538419
 20
7.4121999065
 30
0.0
 10
13.4247231988
 20
7.4114033344
 30
0.0
 10
13.422115865
 20
7.4110737424
 30
0.0
 10
13.4200546217
 20
7.4110148562
 30
0.0
 10
13.4190317398
 20
7.4110522485
 30
0.0
 10
13.4185226442
 20
7.411087558
 30
0.0
  0
SPLINE
  5
38B
100
AcDbEntity
  8
0
100
AcDbSpline
 62
7
  6
CONTINUOUS
 70
0
 71
3
 72
18
 73
14
 74
0
 42
0.0000001
 43
0.0000001
 44
0.0000000001
 40
0.0
 40
0.0
 40
0.0
 40
0.0
 40
0.0544331303
 40
0.1090830662
 40
0.1641638838
 40
0.2198842992
 40
0.3339869687
 40
0.4529303861
 40
0.5146489674
 40
0.5780447346
 40
0.7103433234
 40
0.8507561372
 40
1.0
 40
1.0
 40
1.0
 40
1.0
 10
13.7080063795
 20
9.2339754405
 30
0.0
 10
13.7085154779
 20
9.2339401308
 30
0.0
 10
13.7095337008
 20
9.2338359735
 30
0.0
 10
13.7110523427
 20
9.2335798738
 30
0.0
 10
13.7125631932
 20
9.2332238243
 30
0.0
 10
13.7145820522
 20
9.2326113959
 30
0.0
 10
13.7170949839
 20
9.2315856639
 30
0.0
 10
13.719522264
 20
9.2302527803
 30
0.0
 10
13.7214377052
 20
9.2289997857
 30
0.0
 10
13.7233902973
 20
9.2275800476
 30
0.0
 10
13.7258043008
 20
9.2255476346
 30
0.0
 10
13.7286112325
 20
9.2227548246
 30
0.0
 10
13.7303919276
 20
9.2207011732
 30
0.0
 10
13.7312747718
 20
9.2196156683
 30
0.0
  0
SPLINE
  5
38C
100
AcDbEntity
  8
0
100
AcDbSpline
 62
7
  6
CONTINUOUS
 70
0
 71
3
 72
39
 73
35
 74
0
 42
0.0000001
 43
0.0000001
 44
0.0000000001
 40
0.0
 40
0.0
 40
0.0
 40
0.0
 40
0.0311439303
 40
0.0624436618
 40
0.0938881473
 40
0.1254709891
 40
0.1571788504
 40
0.1889972145
 40
0.2209091267
 40
0.2528957783
 40
0.2849369507
 40
0.3170113397
 40
0.3490969953
 40
0.3811717566
 40
0.4132136819
 40
0.4452014627
 40
0.4771148294
 40
0.5089349609
 40
0.5406448809
 40
0.572229804
 40
0.6036774458
 40
0.6349782967
 40
0.6661258727
 40
0.697116898
 40
0.7279514126
 40
0.7586328123
 40
0.789167825
 40
0.8195664295
 40
0.849841675
 40
0.8800094157
 40
0.9100879723
 40
0.9400977325
 40
0.9700607032
 40
1.0
 40
1.0
 40
1.0
 40
1.0
 10
10.7777693173
 20
8.2246814832
 30
0.0
 10
10.7762362224
 20
8.2247878037
 30
0.0
 10
10.7731690089
 20
8.2251132259
 30
0.0
 10
10.7686054074
 20
8.2259328399
 30
0.0
 10
10.7640906453
 20
8.2270810072
 30
0.0
 10
10.7596492043
 20
8.2285513414
 30
0.0
 10
10.7553045976
 20
8.2303361093
 30
0.0
 10
10.7510800371
 20
8.2324257164
 30
0.0
 10
10.7469980126
 20
8.2348089931
 30
0.0
 10
10.7430802741
 20
8.2374732116
 30
0.0
 10
10.7393476936
 20
8.2404041557
 30
0.0
 10
10.7358201694
 20
8.2435862069
 30
0.0
 10
10.7325165029
 20
8.2470024
 30
0.0
 10
10.7294542912
 20
8.2506345148
 30
0.0
 10
10.7266498574
 20
8.2544631951
 30
0.0
 10
10.7241181606
 20
8.258468043
 30
0.0
 10
10.7218727261
 20
8.2626277283
 30
0.0
 10
10.7199255406
 20
8.2669200819
 30
0.0
 10
10.7182869985
 20
8.2713222254
 30
0.0
 10
10.716965867
 20
8.2758106989
 30
0.0
 10
10.7159692339
 20
8.2803615784
 30
0.0
 10
10.7153024765
 20
8.2849506004
 30
0.0
 10
10.7149691868
 20
8.2895532834
 30
0.0
 10
10.7149711848
 20
8.294145068
 30
0.0
 10
10.7153085138
 20
8.298701443
 30
0.0
 10
10.715979437
 20
8.3031980725
 30
0.0
 10
10.7169804407
 20
8.3076109219
 30
0.0
 10
10.7183062117
 20
8.3119163991
 30
0.0
 10
10.719949705
 20
8.3160914732
 30
0.0
 10
10.7219021821
 20
8.3201138047
 30
0.0
 10
10.7241532295
 20
8.3239618319
 30
0.0
 10
10.7266909039
 20
8.3276150066
 30
0.0
 10
10.7295013767
 20
8.3310535138
 30
0.0
 10
10.731547757
 20
8.3331913801
 30
0.0
 10
10.7326103314
 20
8.3342177598
 30
0.0
  0
SPLINE
  5
38D
100
AcDbEntity
  8
0
100
AcDbSpline
 62
7
  6
CONTINUOUS
 70
0
 71
3
 72
39
 73
35
 74
0
 42
0.0000001
 43
0.0000001
 44
0.0000000001
 40
0.0
 40
0.0
 40
0.0
 40
0.0
 40
0.0310360499
 40
0.062216503
 40
0.0935340824
 40
0.124982196
 40
0.1565500425
 40
0.1882254763
 40
0.2199942538
 40
0.2518406303
 40
0.2837475765
 40
0.3156971103
 40
0.3476706143
 40
0.3796491545
 40
0.4116137991
 40
0.4435459287
 40
0.4754275387
 40
0.5072415298
 40
0.5389719859
 40
0.5706044287
 40
0.6021260529
 40
0.6335259382
 40
0.6647952374
 40
0.6959273371
 40
0.7269179902
 40
0.757765417
 40
0.788470366
 40
0.8190361367
 40
0.8494685611
 40
0.8797759404
 40
0.9099689359
 40
0.9400604115
 40
0.9700652297
 40
1.0
 40
1.0
 40
1.0
 40
1.0
 10
11.1245366037
 20
8.1417707924
 30
0.0
 10
11.1217962704
 20
8.1419608352
 30
0.0
 10
11.116314088
 20
8.1425296162
 30
0.0
 10
11.1081503613
 20
8.1439382116
 30
0.0
 10
11.1000632214
 20
8.1458976706
 30
0.0
 10
11.0920909748
 20
8.1483983118
 30
0.0
 10
11.0842705244
 20
8.1514281496
 30
0.0
 10
11.0766381978
 20
8.1549725052
 30
0.0
 10
11.0692292361
 20
8.1590143614
 30
0.0
 10
11.062077714
 20
8.1635343567
 30
0.0
 10
11.0552163521
 20
8.168510949
 30
0.0
 10
11.0486763705
 20
8.1739205327
 30
0.0
 10
11.0424873583
 20
8.1797375921
 30
0.0
 10
11.0366771529
 20
8.1859348453
 30
0.0
 10
11.031271734
 20
8.1924833959
 30
0.0
 10
11.0262951308
 20
8.1993528848
 30
0.0
 10
11.0217693425
 20
8.2065116448
 30
0.0
 10
11.017714268
 20
8.2139268519
 30
0.0
 10
11.0141476393
 20
8.2215646738
 30
0.0
 10
11.0110849858
 20
8.2293904269
 30
0.0
 10
11.0085395941
 20
8.2373687211
 30
0.0
 10
11.006522479
 20
8.2454636039
 30
0.0
 10
11.0050423586
 20
8.2536387
 30
0.0
 10
11.0041056367
 20
8.2618573499
 30
0.0
 10
11.0037163863
 20
8.2700827451
 30
0.0
 10
11.00387633
 20
8.2782780637
 30
0.0
 10
11.0045848491
 20
8.2864066058
 30
0.0
 10
11.0058389805
 20
8.2944319273
 30
0.0
 10
11.007633417
 20
8.30231797
 30
0.0
 10
11.0099605236
 20
8.3100292111
 30
0.0
 10
11.0128103133
 20
8.3175307487
 30
0.0
 10
11.0161705947
 20
8.3247886356
 30
0.0
 10
11.020026486
 20
8.3317693153
 30
0.0
 10
11.0229198523
 20
8.3362223552
 30
0.0
 10
11.0244423756
 20
8.3383906439
 30
0.0
  0
SPLINE
  5
38E
100
AcDbEntity
  8
0
100
AcDbSpline
 62
7
  6
CONTINUOUS
 70
0
 71
3
 72
39
 73
35
 74
0
 42
0.0000001
 43
0.0000001
 44
0.0000000001
 40
0.0
 40
0.0
 40
0.0
 40
0.0
 40
0.0760186195
 40
0.1532632405
 40
0.2310390569
 40
0.3086436598
 40
0.3853769321
 40
0.4232013715
 40
0.4605504742
 40
0.4973408756
 40
0.5334908927
 40
0.5689207641
 40
0.6035528972
 40
0.6373121552
 40
0.6701262104
 40
0.7019258119
 40
0.7326450908
 40
0.7622219393
 40
0.7905984982
 40
0.817721569
 40
0.8435431378
 40
0.868021072
 40
0.8911200544
 40
0.9128125623
 40
0.9231258565
 40
0.9330816035
 40
0.9426792017
 40
0.9519190239
 40
0.9608022671
 40
0.9693312983
 40
0.9775099587
 40
0.9853432821
 40
0.9928374322
 40
1.0
 40
1.0
 40
1.0
 40
1.0
 10
13.3853766925
 20
8.5422976242
 30
0.0
 10
13.3853766925
 20
8.5532929761
 30
0.0
 10
13.3856707183
 20
8.5754619578
 30
0.0
 10
13.3869537382
 20
8.6088580936
 30
0.0
 10
13.3890715171
 20
8.6424417688
 30
0.0
 10
13.392003737
 20
8.675889736
 30
0.0
 10
13.3951169246
 20
8.703512496
 30
0.0
 10
13.3979988084
 20
8.7252950395
 30
0.0
 10
13.4003336105
 20
8.7413208434
 30
0.0
 10
13.4028463433
 20
8.7570745077
 30
0.0
 10
13.405530953
 20
8.772518141
 30
0.0
 10
13.4083809407
 20
8.7876145696
 30
0.0
 10
13.4113894201
 20
8.8023274652
 30
0.0
 10
13.4145491242
 20
8.8166214277
 30
0.0
 10
13.4178523988
 20
8.8304620847
 30
0.0
 10
13.4212912456
 20
8.8438161689
 30
0.0
 10
13.4248573413
 20
8.8566515927
 30
0.0
 10
13.428542061
 20
8.8689375373
 30
0.0
 10
13.4323364701
 20
8.8806445442
 30
0.0
 10
13.4362313771
 20
8.891744591
 30
0.0
 10
13.4402173564
 20
8.9022111341
 30
0.0
 10
13.4442847896
 20
8.9120192799
 30
0.0
 10
13.4484238532
 20
8.9211455897
 30
0.0
 10
13.4519819054
 20
8.9282802918
 30
0.0
 10
13.4548634193
 20
8.9336224696
 30
0.0
 10
13.4569997812
 20
8.9373776173
 30
0.0
 10
13.459146617
 20
8.9409467981
 30
0.0
 10
13.4613026122
 20
8.9443279096
 30
0.0
 10
13.4634664919
 20
8.9475189365
 30
0.0
 10
13.4656370298
 20
8.9505179954
 30
0.0
 10
13.4678129468
 20
8.9533233791
 30
0.0
 10
13.469993063
 20
8.9559334081
 30
0.0
 10
13.4721759193
 20
8.958346397
 30
0.0
 10
13.473665226
 20
8.9598563079
 30
0.0
 10
13.4744103706
 20
8.9605760623
 30
0.0
  0
SPLINE
  5
38F
100
AcDbEntity
  8
0
100
AcDbSpline
 62
7
  6
CONTINUOUS
 70
0
 71
3
 72
39
 73
35
 74
0
 42
0.0000001
 43
0.0000001
 44
0.0000000001
 40
0.0
 40
0.0
 40
0.0
 40
0.0
 40
0.0760185458
 40
0.1532632554
 40
0.2310390604
 40
0.3086436563
 40
0.3853769375
 40
0.42320137
 40
0.4605504649
 40
0.4973408779
 40
0.533490906
 40
0.5689207649
 40
0.6035528818
 40
0.6373121533
 40
0.6701262286
 40
0.7019258193
 40
0.7326450735
 40
0.7622219321
 40
0.790598514
 40
0.817721583
 40
0.8435431249
 40
0.868021063
 40
0.8911200625
 40
0.9128125786
 40
0.9231258585
 40
0.9330815931
 40
0.9426792004
 40
0.9519190187
 40
0.9608022954
 40
0.9693313294
 40
0.9775099463
 40
0.9853432204
 40
0.9928373695
 40
1.0
 40
1.0
 40
1.0
 40
1.0
 10
13.3474096064
 20
8.536624233
 30
0.0
 10
13.3474096064
 20
8.5486104334
 30
0.0
 10
13.347730128
 20
8.5727772036
 30
0.0
 10
13.3491287708
 20
8.6091828755
 30
0.0
 10
13.3514373901
 20
8.645792998
 30
0.0
 10
13.3546338624
 20
8.6822551691
 30
0.0
 10
13.3580275852
 20
8.7123671902
 30
0.0
 10
13.3611691817
 20
8.7361126936
 30
0.0
 10
13.3637143914
 20
8.7535826822
 30
0.0
 10
13.3664535552
 20
8.7707560116
 30
0.0
 10
13.3693800879
 20
8.78759137
 30
0.0
 10
13.3724869117
 20
8.8040482288
 30
0.0
 10
13.37576651
 20
8.8200869921
 30
0.0
 10
13.3792109494
 20
8.8356690773
 30
0.0
 10
13.3828118965
 20
8.8507570081
 30
0.0
 10
13.3865606431
 20
8.8653145093
 30
0.0
 10
13.39044811
 20
8.8793066073
 30
0.0
 10
13.3944648787
 20
8.8926997181
 30
0.0
 10
13.3986012205
 20
8.9054617239
 30
0.0
 10
13.4028471216
 20
8.9175620649
 30
0.0
 10
13.4071923117
 20
8.9289718062
 30
0.0
 10
13.4116262838
 20
8.9396638258
 30
0.0
 10
13.4161383403
 20
8.9496125716
 30
0.0
 10
13.4200170306
 20
8.9573902288
 30
0.0
 10
13.4231582192
 20
8.9632138186
 30
0.0
 10
13.4254871036
 20
8.9673073621
 30
0.0
 10
13.4278273932
 20
8.9711981896
 30
0.0
 10
13.4301776926
 20
8.9748839928
 30
0.0
 10
13.4325365729
 20
8.9783625893
 30
0.0
 10
13.434902711
 20
8.9816319113
 30
0.0
 10
13.4372747071
 20
8.9846900928
 30
0.0
 10
13.4396512703
 20
8.9875353226
 30
0.0
 10
13.4420308409
 20
8.9901657609
 30
0.0
 10
13.4436543669
 20
8.9918117446
 30
0.0
 10
13.4444666682
 20
8.9925963675
 30
0.0
  0
SPLINE
  5
390
100
AcDbEntity
  8
0
100
AcDbSpline
 62
7
  6
CONTINUOUS
 70
0
 71
3
 72
23
 73
19
 74
0
 42
0.0000001
 43
0.0000001
 44
0.0000000001
 40
0.0
 40
0.0
 40
0.0
 40
0.0
 40
0.0755954479
 40
0.1466391714
 40
0.2134657403
 40
0.2765145402
 40
0.3363265376
 40
0.3935471486
 40
0.4489234403
 40
0.5032885643
 40
0.5575265067
 40
0.6125277807
 40
0.6691438784
 40
0.7281492575
 40
0.7902198463
 40
0.8559237775
 40
0.9257267722
 40
1.0
 40
1.0
 40
1.0
 40
1.0
 10
13.7120060579
 20
9.1900758865
 30
0.0
 10
13.7129621073
 20
9.1909993593
 30
0.0
 10
13.7148729679
 20
9.1927339386
 30
0.0
 10
13.7178302032
 20
9.1950512657
 30
0.0
 10
13.7207840004
 20
9.1969974886
 30
0.0
 10
13.7237315865
 20
9.1985696951
 30
0.0
 10
13.7266705391
 20
9.1997649836
 30
0.0
 10
13.7295978016
 20
9.2005805331
 30
0.0
 10
13.7325095733
 20
9.2010133303
 30
0.0
 10
13.7354009718
 20
9.2010614692
 30
0.0
 10
13.738266447
 20
9.2007240839
 30
0.0
 10
13.7411004631
 20
9.2000023442
 30
0.0
 10
13.7438981699
 20
9.1988985258
 30
0.0
 10
13.7466559106
 20
9.1974159909
 30
0.0
 10
13.7493708271
 20
9.1955580077
 30
0.0
 10
13.7520408079
 20
9.1933279115
 30
0.0
 10
13.7546636059
 20
9.1907288965
 30
0.0
 10
13.7563259237
 20
9.1888139733
 30
0.0
 10
13.7571499555
 20
9.1878007911
 30
0.0
  0
SPLINE
  5
391
100
AcDbEntity
  8
0
100
AcDbSpline
 62
7
  6
CONTINUOUS
 70
0
 71
3
 72
18
 73
14
 74
0
 42
0.0000001
 43
0.0000001
 44
0.0000000001
 40
0.0
 40
0.0
 40
0.0
 40
0.0
 40
0.1504654776
 40
0.2917138659
 40
0.4244431221
 40
0.4879103299
 40
0.5496094336
 40
0.6682621302
 40
0.7817883943
 40
0.837138095
 40
0.8918079579
 40
0.9460193786
 40
1.0
 40
1.0
 40
1.0
 40
1.0
 10
13.6820623555
 20
9.2220961917
 30
0.0
 10
13.6831224923
 20
9.2231202053
 30
0.0
 10
13.6852413697
 20
9.2250415709
 30
0.0
 10
13.6885222034
 20
9.2276020729
 30
0.0
 10
13.6912934666
 20
9.2294129868
 30
0.0
 10
13.6935032791
 20
9.2306392877
 30
0.0
 10
13.6956480695
 20
9.2316920986
 30
0.0
 10
13.6983297599
 20
9.2327558912
 30
0.0
 10
13.7010591317
 20
9.2334819137
 30
0.0
 10
13.7032208972
 20
9.2338395105
 30
0.0
 10
13.704823054
 20
9.2339982495
 30
0.0
 10
13.7064187317
 20
9.2340495397
 30
0.0
 10
13.7074788604
 20
9.2340120277
 30
0.0
 10
13.7080063795
 20
9.2339754405
 30
0.0
  0
SPLINE
  5
392
100
AcDbEntity
  8
0
100
AcDbSpline
 62
7
  6
CONTINUOUS
 70
0
 71
3
 72
29
 73
25
 74
0
 42
0.0000001
 43
0.0000001
 44
0.0000000001
 40
0.0
 40
0.0
 40
0.0
 40
0.0
 40
0.0621856441
 40
0.124912325
 40
0.1881137674
 40
0.2516881415
 40
0.3155095794
 40
0.3794359609
 40
0.4433182678
 40
0.5070103554
 40
0.5703785891
 40
0.6333108015
 40
0.6646030599
 40
0.6957581849
 40
0.7267715138
 40
0.7576408942
 40
0.7883667359
 40
0.8189520995
 40
0.8494026586
 40
0.879726587
 40
0.9099344698
 40
0.9400391525
 40
0.970055477
 40
1.0
 40
1.0
 40
1.0
 40
1.0
 10
10.7938160845
 20
8.2401814711
 30
0.0
 10
10.7909876671
 20
8.2403776225
 30
0.0
 10
10.7853258833
 20
8.2411552374
 30
0.0
 10
10.7770333425
 20
8.2434331555
 30
0.0
 10
10.7690444845
 20
8.2467863158
 30
0.0
 10
10.7615049097
 20
8.251153609
 30
0.0
 10
10.7545495277
 20
8.2564559796
 30
0.0
 10
10.7483035087
 20
8.2625979018
 30
0.0
 10
10.7428790558
 20
8.2694687152
 30
0.0
 10
10.7383739417
 20
8.2769452736
 30
0.0
 10
10.7348696638
 20
8.2848922087
 30
0.0
 10
10.7328317811
 20
8.2918052017
 30
0.0
 10
10.731759836
 20
8.2974236534
 30
0.0
 10
10.7312380693
 20
8.3016559871
 30
0.0
 10
10.7309997289
 20
8.3058942543
 30
0.0
 10
10.7310458683
 20
8.3101194847
 30
0.0
 10
10.7313763745
 20
8.3143124827
 30
0.0
 10
10.731989734
 20
8.3184542685
 30
0.0
 10
10.7328831996
 20
8.3225260703
 30
0.0
 10
10.7340528068
 20
8.326509419
 30
0.0
 10
10.7354932539
 20
8.3303862303
 30
0.0
 10
10.7371980547
 20
8.334138985
 30
0.0
 10
10.7391593647
 20
8.3377504138
 30
0.0
 10
10.7406338865
 20
8.3400557265
 30
0.0
 10
10.7414103419
 20
8.3411786817
 30
0.0
  0
SPLINE
  5
393
100
AcDbEntity
  8
0
100
AcDbSpline
 62
7
  6
CONTINUOUS
 70
0
 71
3
 72
15
 73
11
 74
0
 42
0.0000001
 43
0.0000001
 44
0.0000000001
 40
0.0
 40
0.0
 40
0.0
 40
0.0
 40
0.1271141517
 40
0.2535593869
 40
0.3793352124
 40
0.5044868593
 40
0.6290586557
 40
0.7531152487
 40
0.8767330626
 40
1.0
 40
1.0
 40
1.0
 40
1.0
 10
10.7938160845
 20
8.2401814711
 30
0.0
 10
10.7954284798
 20
8.2400696511
 30
0.0
 10
10.7986547638
 20
8.2399699549
 30
0.0
 10
10.8034774338
 20
8.2401959678
 30
0.0
 10
10.8082430902
 20
8.2407967671
 30
0.0
 10
10.8129227935
 20
8.2417686643
 30
0.0
 10
10.817488735
 20
8.24310604
 30
0.0
 10
10.8219136361
 20
8.2448009819
 30
0.0
 10
10.8261706795
 20
8.2468431982
 30
0.0
 10
10.8288838351
 20
8.2484304725
 30
0.0
 10
10.8302028905
 20
8.2492770418
 30
0.0
  0
SPLINE
  5
394
100
AcDbEntity
  8
0
100
AcDbSpline
 62
7
  6
CONTINUOUS
 70
0
 71
3
 72
15
 73
11
 74
0
 42
0.0000001
 43
0.0000001
 44
0.0000000001
 40
0.0
 40
0.0
 40
0.0
 40
0.0
 40
0.1234394324
 40
0.2470466332
 40
0.3709825608
 40
0.4953948801
 40
0.6204121078
 40
0.7461393952
 40
0.8726516562
 40
1.0
 40
1.0
 40
1.0
 40
1.0
 10
10.6909266458
 20
7.9697533981
 30
0.0
 10
10.6882426486
 20
7.9671608773
 30
0.0
 10
10.6831343483
 20
7.961691489
 30
0.0
 10
10.6763499768
 20
7.952737811
 30
0.0
 10
10.6705003927
 20
7.9431116199
 30
0.0
 10
10.6656406239
 20
7.9329030923
 30
0.0
 10
10.661814968
 20
7.9222065029
 30
0.0
 10
10.6590585135
 20
7.911120503
 30
0.0
 10
10.6573961635
 20
7.8997487682
 30
0.0
 10
10.6570285818
 20
7.8920691403
 30
0.0
 10
10.6570285818
 20
7.88821935
 30
0.0
  0
SPLINE
  5
395
100
AcDbEntity
  8
0
100
AcDbSpline
 62
7
  6
CONTINUOUS
 70
0
 71
3
 72
41
 73
37
 74
0
 42
0.0000001
 43
0.0000001
 44
0.0000000001
 40
0.0
 40
0.0
 40
0.0
 40
0.0
 40
0.031144444
 40
0.0624425093
 40
0.0938872508
 40
0.1254695847
 40
0.1571771078
 40
0.1889951283
 40
0.2209066801
 40
0.2528929859
 40
0.2849338014
 40
0.3170078274
 40
0.3490931225
 40
0.3811675283
 40
0.4132090962
 40
0.4451965119
 40
0.4771095115
 40
0.5089292827
 40
0.5406388458
 40
0.5722234075
 40
0.6036706813
 40
0.6349711679
 40
0.6661183875
 40
0.6971090579
 40
0.7279432122
 40
0.7586242475
 40
0.7891589026
 40
0.8195571573
 40
0.8498320547
 40
0.8649308931
 40
0.8800050545
 40
0.9100832586
 40
0.9400926739
 40
0.9550812746
 40
0.9700610358
 40
1.0
 40
1.0
 40
1.0
 40
1.0
 10
10.0079264544
 20
8.801602096
 30
0.0
 10
10.0044356015
 20
8.8018441874
 30
0.0
 10
9.997451801
 20
8.8025850926
 30
0.0
 10
9.9870607821
 20
8.8044514019
 30
0.0
 10
9.976781041
 20
8.8070656042
 30
0.0
 10
9.9666681445
 20
8.8104135516
 30
0.0
 10
9.9567757819
 20
8.8144773593
 30
0.0
 10
9.9471567324
 20
8.8192352594
 30
0.0
 10
9.9378622365
 20
8.8246618384
 30
0.0
 10
9.9289418206
 20
8.8307281169
 30
0.0
 10
9.9204430127
 20
8.8374017273
 30
0.0
 10
9.912411098
 20
8.8446470757
 30
0.0
 10
9.9048888784
 20
8.852425534
 30
0.0
 10
9.8979164481
 20
8.8606956422
 30
0.0
 10
9.8915309807
 20
8.8694133281
 30
0.0
 10
9.8857665339
 20
8.8785321392
 30
0.0
 10
9.8806538687
 20
8.8880034881
 30
0.0
 10
9.8762202867
 20
8.8977769076
 30
0.0
 10
9.872489485
 20
8.9078003169
 30
0.0
 10
9.8694814295
 20
8.9180202952
 30
0.0
 10
9.8672122481
 20
8.9283823629
 30
0.0
 10
9.8656941424
 20
8.9388312676
 30
0.0
 10
9.8649353207
 20
8.9493112757
 30
0.0
 10
9.8649399492
 20
8.9597664632
 30
0.0
 10
9.8657081301
 20
8.9701410217
 30
0.0
 10
9.8672358752
 20
8.9803795136
 30
0.0
 10
9.8695151956
 20
8.9904273175
 30
0.0
 10
9.8725338606
 20
9.0002303633
 30
0.0
 10
9.8756556599
 20
9.0081604537
 30
0.0
 10
9.8785044702
 20
9.0143273218
 30
0.0
 10
9.881578873
 20
9.0203601069
 30
0.0
 10
9.8858475145
 20
9.0276570722
 30
0.0
 10
9.8906651791
 20
9.034592174
 30
0.0
 10
9.8948283233
 20
9.0398932123
 30
0.0
 10
9.8991901006
 20
9.0450211952
 30
0.0
 10
9.9026846271
 20
9.0486718956
 30
0.0
 10
9.9051040536
 20
9.05100888
 30
0.0
  0
SPLINE
  5
396
100
AcDbEntity
  8
0
100
AcDbSpline
 62
7
  6
CONTINUOUS
 70
0
 71
3
 72
39
 73
35
 74
0
 42
0.0000001
 43
0.0000001
 44
0.0000000001
 40
0.0
 40
0.0
 40
0.0
 40
0.0
 40
0.0310359475
 40
0.0622165684
 40
0.0935340756
 40
0.1249822156
 40
0.156550065
 40
0.188225505
 40
0.2199942902
 40
0.2518406692
 40
0.2837476171
 40
0.3156971534
 40
0.3476706625
 40
0.37964921
 40
0.4116138603
 40
0.4435459897
 40
0.4754275951
 40
0.5072415827
 40
0.538972039
 40
0.5706044852
 40
0.6021261122
 40
0.6335259944
 40
0.6647952851
 40
0.6959273752
 40
0.726918022
 40
0.7577654464
 40
0.7884703949
 40
0.8190361631
 40
0.8494685816
 40
0.8797759528
 40
0.90996894
 40
0.9400604102
 40
0.9700652273
 40
1.0
 40
1.0
 40
1.0
 40
1.0
 10
10.4300360942
 20
8.189934569
 30
0.0
 10
10.4272957644
 20
8.1901246116
 30
0.0
 10
10.4218135652
 20
8.1906933918
 30
0.0
 10
10.4136498204
 20
8.1921019792
 30
0.0
 10
10.4055626554
 20
8.194061452
 30
0.0
 10
10.3975903942
 20
8.1965620897
 30
0.0
 10
10.3897699247
 20
8.1995919341
 30
0.0
 10
10.3821375811
 20
8.2031362973
 30
0.0
 10
10.3747286068
 20
8.2071781695
 30
0.0
 10
10.367577076
 20
8.2116981848
 30
0.0
 10
10.3607157034
 20
8.2166747923
 30
0.0
 10
10.3541757098
 20
8.2220843896
 30
0.0
 10
10.3479866848
 20
8.2279014622
 30
0.0
 10
10.3421764686
 20
8.2340987312
 30
0.0
 10
10.336771046
 20
8.2406473029
 30
0.0
 10
10.3317944512
 20
8.2475168193
 30
0.0
 10
10.3272686722
 20
8.2546756043
 30
0.0
 10
10.3232135998
 20
8.262090831
 30
0.0
 10
10.3196469694
 20
8.2697286708
 30
0.0
 10
10.3165843146
 20
8.2775544423
 30
0.0
 10
10.3140389297
 20
8.285532757
 30
0.0
 10
10.3120218378
 20
8.2936276624
 30
0.0
 10
10.3105417459
 20
8.3018027788
 30
0.0
 10
10.3096050478
 20
8.3100214459
 30
0.0
 10
10.3092158104
 20
8.3182468565
 30
0.0
 10
10.3093757648
 20
8.3264421906
 30
0.0
 10
10.3100843012
 20
8.3345707476
 30
0.0
 10
10.3113384668
 20
8.3425960799
 30
0.0
 10
10.313132944
 20
8.3504821286
 30
0.0
 10
10.31546009
 20
8.3581933726
 30
0.0
 10
10.3183099104
 20
8.3656949136
 30
0.0
 10
10.3216702159
 20
8.3729528052
 30
0.0
 10
10.3255261275
 20
8.3799334927
 30
0.0
 10
10.3284195331
 20
8.3843865197
 30
0.0
 10
10.3299420612
 20
8.3865548118
 30
0.0
  0
SPLINE
  5
397
100
AcDbEntity
  8
0
100
AcDbSpline
 62
7
  6
CONTINUOUS
 70
0
 71
3
 72
15
 73
11
 74
0
 42
0.0000001
 43
0.0000001
 44
0.0000000001
 40
0.0
 40
0.0
 40
0.0
 40
0.0
 40
0.123439423
 40
0.2470466239
 40
0.3709825581
 40
0.4953948958
 40
0.6204121019
 40
0.7461394398
 40
0.8726516719
 40
1.0
 40
1.0
 40
1.0
 40
1.0
 10
10.690926127
 20
8.7849943721
 30
0.0
 10
10.6882421602
 20
8.7824018633
 30
0.0
 10
10.683133941
 20
8.7769324813
 30
0.0
 10
10.6763496631
 20
8.7679788468
 30
0.0
 10
10.6705001755
 20
8.7583527013
 30
0.0
 10
10.665640493
 20
8.748144234
 30
0.0
 10
10.6618148922
 20
8.7374477208
 30
0.0
 10
10.6590584813
 20
8.7263618047
 30
0.0
 10
10.6573961563
 20
8.7149901596
 30
0.0
 10
10.6570285818
 20
8.7073105947
 30
0.0
 10
10.6570285818
 20
8.7034608358
 30
0.0
  0
SPLINE
  5
398
100
AcDbEntity
  8
0
100
AcDbSpline
 62
7
  6
CONTINUOUS
 70
0
 71
3
 72
41
 73
37
 74
0
 42
0.0000001
 43
0.0000001
 44
0.0000000001
 40
0.0
 40
0.0
 40
0.0
 40
0.0
 40
0.031144444
 40
0.0624425093
 40
0.0938872508
 40
0.1254695847
 40
0.1571771078
 40
0.1889951283
 40
0.2209066801
 40
0.2528929859
 40
0.2849338014
 40
0.3170078274
 40
0.3490931225
 40
0.3811675283
 40
0.4132090962
 40
0.4451965119
 40
0.4771095115
 40
0.5089292827
 40
0.5406388458
 40
0.5722234075
 40
0.6036706813
 40
0.6349711679
 40
0.6661183875
 40
0.6971090579
 40
0.7279432122
 40
0.7586242475
 40
0.7891589026
 40
0.8195571573
 40
0.8498320547
 40
0.8649308931
 40
0.8800050545
 40
0.9100832586
 40
0.9400926739
 40
0.9550812746
 40
0.9700610358
 40
1.0
 40
1.0
 40
1.0
 40
1.0
 10
11.5466463242
 20
8.6948915106
 30
0.0
 10
11.5431554713
 20
8.695133602
 30
0.0
 10
11.5361716708
 20
8.6958745071
 30
0.0
 10
11.525780652
 20
8.6977408165
 30
0.0
 10
11.5155009108
 20
8.7003550188
 30
0.0
 10
11.5053880143
 20
8.7037029662
 30
0.0
 10
11.4954956517
 20
8.7077667739
 30
0.0
 10
11.4858766022
 20
8.712524674
 30
0.0
 10
11.4765821063
 20
8.717951253
 30
0.0
 10
11.4676616904
 20
8.7240175315
 30
0.0
 10
11.4591628826
 20
8.7306911419
 30
0.0
 10
11.4511309678
 20
8.7379364903
 30
0.0
 10
11.4436087483
 20
8.7457149486
 30
0.0
 10
11.4366363179
 20
8.7539850568
 30
0.0
 10
11.4302508505
 20
8.7627027427
 30
0.0
 10
11.4244864037
 20
8.7718215538
 30
0.0
 10
11.4193737385
 20
8.7812929027
 30
0.0
 10
11.4149401565
 20
8.7910663222
 30
0.0
 10
11.4112093548
 20
8.8010897315
 30
0.0
 10
11.4082012993
 20
8.8113097098
 30
0.0
 10
11.4059321179
 20
8.8216717775
 30
0.0
 10
11.4044140122
 20
8.8321206821
 30
0.0
 10
11.4036551905
 20
8.8426006903
 30
0.0
 10
11.403659819
 20
8.8530558778
 30
0.0
 10
11.4044279999
 20
8.8634304363
 30
0.0
 10
11.405955745
 20
8.8736689282
 30
0.0
 10
11.4082350654
 20
8.8837167321
 30
0.0
 10
11.4112537305
 20
8.8935197779
 30
0.0
 10
11.4143755298
 20
8.9014498683
 30
0.0
 10
11.41722434
 20
8.9076167363
 30
0.0
 10
11.4202987428
 20
8.9136495215
 30
0.0
 10
11.4245673844
 20
8.9209464867
 30
0.0
 10
11.4293850489
 20
8.9278815886
 30
0.0
 10
11.4335481931
 20
8.9331826269
 30
0.0
 10
11.4379099704
 20
8.9383106098
 30
0.0
 10
11.4414044969
 20
8.9419613101
 30
0.0
 10
11.4438239234
 20
8.9442982946
 30
0.0
  0
SPLINE
  5
399
100
AcDbEntity
  8
0
100
AcDbSpline
 62
7
  6
CONTINUOUS
 70
0
 71
3
 72
40
 73
36
 74
0
 42
0.0000001
 43
0.0000001
 44
0.0000000001
 40
0.0
 40
0.0
 40
0.0
 40
0.0
 40
0.0310748083
 40
0.0623077235
 40
0.0936925297
 40
0.1252215857
 40
0.1568831309
 40
0.1886631126
 40
0.220544883
 40
0.2525097803
 40
0.284537452
 40
0.3166062937
 40
0.3486938795
 40
0.3807774113
 40
0.4128341708
 40
0.4448419718
 40
0.4767796049
 40
0.5086272684
 40
0.5403669783
 40
0.5719829514
 40
0.6034619535
 40
0.6347936066
 40
0.665970646
 40
0.6969891203
 40
0.7278485274
 40
0.758551878
 40
0.7891056823
 40
0.8195198548
 40
0.8498075344
 40
0.8649117406
 40
0.8799905944
 40
0.9100762
 40
0.940091032
 40
0.9700577044
 40
1.0
 40
1.0
 40
1.0
 40
1.0
 10
10.6570285818
 20
8.7034608358
 30
0.0
 10
10.6570285818
 20
8.7004686531
 30
0.0
 10
10.6572518098
 20
8.6944667627
 30
0.0
 10
10.6582483671
 20
8.6854926822
 30
0.0
 10
10.6599020045
 20
8.6765712666
 30
0.0
 10
10.6622034459
 20
8.6677522116
 30
0.0
 10
10.66514004
 20
8.6590837207
 30
0.0
 10
10.6686955482
 20
8.6506134348
 30
0.0
 10
10.6728504093
 20
8.6423878209
 30
0.0
 10
10.6775817583
 20
8.634452018
 30
0.0
 10
10.6828635914
 20
8.6268495689
 30
0.0
 10
10.688666892
 20
8.6196221888
 30
0.0
 10
10.6949597943
 20
8.612809539
 30
0.0
 10
10.7017077552
 20
8.6064490109
 30
0.0
 10
10.708873742
 20
8.6005755239
 30
0.0
 10
10.7164184333
 20
8.595221334
 30
0.0
 10
10.7243004316
 20
8.5904158576
 30
0.0
 10
10.7324764895
 20
8.5861855124
 30
0.0
 10
10.7409017437
 20
8.5825535735
 30
0.0
 10
10.7495299578
 20
8.5795400451
 30
0.0
 10
10.7583137726
 20
8.577161551
 30
0.0
 10
10.7672049618
 20
8.5754312415
 30
0.0
 10
10.7761546942
 20
8.5743587197
 30
0.0
 10
10.785113795
 20
8.5739499843
 30
0.0
 10
10.7940330229
 20
8.5742073969
 30
0.0
 10
10.8028633018
 20
8.5751296481
 30
0.0
 10
10.8115561241
 20
8.576711817
 30
0.0
 10
10.8200633162
 20
8.5789451757
 30
0.0
 10
10.8269665455
 20
8.5813415431
 30
0.0
 10
10.8323472793
 20
8.5835701308
 30
0.0
 10
10.8376190875
 20
8.585999238
 30
0.0
 10
10.8440113097
 20
8.5894138726
 30
0.0
 10
10.8513222196
 20
8.5940956483
 30
0.0
 10
10.8582283275
 20
8.5993330318
 30
0.0
 10
10.862538799
 20
8.6031774571
 30
0.0
 10
10.8646125075
 20
8.6051805026
 30
0.0
  0
SPLINE
  5
39A
100
AcDbEntity
  8
0
100
AcDbSpline
 62
7
  6
CONTINUOUS
 70
0
 71
3
 72
39
 73
35
 74
0
 42
0.0000001
 43
0.0000001
 44
0.0000000001
 40
0.0
 40
0.0
 40
0.0
 40
0.0
 40
0.0071626305
 40
0.0146567796
 40
0.0224900537
 40
0.0306686706
 40
0.0391977046
 40
0.0480809813
 40
0.0573207996
 40
0.0669184069
 40
0.0768741415
 40
0.0871874214
 40
0.1088799375
 40
0.131978937
 40
0.1564568751
 40
0.182278417
 40
0.209401486
 40
0.2377780679
 40
0.2673549265
 40
0.2980741807
 40
0.3298737714
 40
0.3626878467
 40
0.3964471182
 40
0.4310792351
 40
0.466509094
 40
0.5026591221
 40
0.5394495351
 40
0.57679863
 40
0.6146230625
 40
0.6913563437
 40
0.7689609396
 40
0.8467367446
 40
0.9239814542
 40
1.0
 40
1.0
 40
1.0
 40
1.0
 10
8.3179376445
 20
9.3740337344
 30
0.0
 10
8.3171253432
 20
9.3732491116
 30
0.0
 10
8.3155018172
 20
9.3716031279
 30
0.0
 10
8.3131222466
 20
9.3689726896
 30
0.0
 10
8.3107456834
 20
9.3661274597
 30
0.0
 10
8.3083736873
 20
9.3630692783
 30
0.0
 10
8.3060075492
 20
9.3597999563
 30
0.0
 10
8.3036486689
 20
9.3563213597
 30
0.0
 10
8.3012983695
 20
9.3526355566
 30
0.0
 10
8.2989580799
 20
9.348744729
 30
0.0
 10
8.2966291956
 20
9.3446511856
 30
0.0
 10
8.2934880069
 20
9.3388275957
 30
0.0
 10
8.2896093166
 20
9.3310499385
 30
0.0
 10
8.2850972601
 20
9.3211011927
 30
0.0
 10
8.280663288
 20
9.3104091732
 30
0.0
 10
8.2763180979
 20
9.2989994319
 30
0.0
 10
8.2720721968
 20
9.2868990908
 30
0.0
 10
8.267935855
 20
9.274137085
 30
0.0
 10
8.2639190864
 20
9.2607439743
 30
0.0
 10
8.2600316194
 20
9.2467518762
 30
0.0
 10
8.2562828728
 20
9.232194375
 30
0.0
 10
8.2526819257
 20
9.2171064443
 30
0.0
 10
8.2492374863
 20
9.201524359
 30
0.0
 10
8.245957888
 20
9.1854855957
 30
0.0
 10
8.2428510642
 20
9.169028737
 30
0.0
 10
8.2399245315
 20
9.1521933785
 30
0.0
 10
8.2371853677
 20
9.1350200491
 30
0.0
 10
8.234640158
 20
9.1175500606
 30
0.0
 10
8.2314985615
 20
9.0938045571
 30
0.0
 10
8.2281048387
 20
9.0636925361
 30
0.0
 10
8.2249083664
 20
9.027230365
 30
0.0
 10
8.2225997471
 20
8.9906202424
 30
0.0
 10
8.2212011043
 20
8.9542145706
 30
0.0
 10
8.2208805827
 20
8.9300478003
 30
0.0
 10
8.2208805827
 20
8.9180615999
 30
0.0
  0
SPLINE
  5
39B
100
AcDbEntity
  8
0
100
AcDbSpline
 62
7
  6
CONTINUOUS
 70
0
 71
3
 72
53
 73
49
 74
0
 42
0.0000001
 43
0.0000001
 44
0.0000000001
 40
0.0
 40
0.0
 40
0.0
 40
0.0
 40
0.0417740113
 40
0.0840369498
 40
0.1266584959
 40
0.1695064843
 40
0.2124480935
 40
0.2553500426
 40
0.298079237
 40
0.3405032536
 40
0.382490879
 40
0.4239126346
 40
0.4646413116
 40
0.5045525112
 40
0.543525196
 40
0.5814422576
 40
0.6181911067
 40
0.6536642972
 40
0.6877601986
 40
0.720383738
 40
0.7361160079
 40
0.7514479787
 40
0.7663699923
 40
0.7808730391
 40
0.7949486907
 40
0.8085892839
 40
0.8217878242
 40
0.8345382246
 40
0.8468351953
 40
0.858674535
 40
0.8700530305
 40
0.8809687964
 40
0.8914212207
 40
0.9014113515
 40
0.9109419335
 40
0.9200178526
 40
0.9286463131
 40
0.9368373658
 40
0.9446042772
 40
0.9519641672
 40
0.9589385932
 40
0.9655542738
 40
0.9718437889
 40
0.9778461802
 40
0.9836073652
 40
0.9891800467
 40
0.99462308
 40
1.0
 40
1.0
 40
1.0
 40
1.0
 10
13.6993239364
 20
8.4224718562
 30
0.0
 10
13.6993239364
 20
8.4123976881
 30
0.0
 10
13.6991667687
 20
8.3921311263
 30
0.0
 10
13.6984719588
 20
8.3615931658
 30
0.0
 10
13.697318745
 20
8.330809848
 30
0.0
 10
13.6957109077
 20
8.2998830735
 30
0.0
 10
13.6936537602
 20
8.2689151638
 30
0.0
 10
13.6911541021
 20
8.2380085682
 30
0.0
 10
13.688220214
 20
8.2072655395
 30
0.0
 10
13.6848618217
 20
8.1767877827
 30
0.0
 10
13.6810900677
 20
8.1466761201
 30
0.0
 10
13.6769174734
 20
8.1170301538
 30
0.0
 10
13.6723578992
 20
8.0879479336
 30
0.0
 10
13.6674264989
 20
8.0595256283
 30
0.0
 10
13.6621396706
 20
8.031857204
 30
0.0
 10
13.6565150043
 20
8.0050341015
 30
0.0
 10
13.6505712225
 20
7.9791449454
 30
0.0
 10
13.6443281276
 20
7.9542751694
 30
0.0
 10
13.6378065048
 20
7.9305069672
 30
0.0
 10
13.6320909304
 20
7.9114597974
 30
0.0
 10
13.6273861827
 20
7.8968388384
 30
0.0
 10
13.6238443562
 20
7.8863292397
 30
0.0
 10
13.620249487
 20
7.8761515115
 30
0.0
 10
13.6166045622
 20
7.8663140404
 30
0.0
 10
13.6129125707
 20
7.8568249503
 30
0.0
 10
13.6091766153
 20
7.8476920551
 30
0.0
 10
13.6053997386
 20
7.8389228878
 30
0.0
 10
13.6015851228
 20
7.8305246509
 30
0.0
 10
13.5977358587
 20
7.8225042611
 30
0.0
 10
13.5938551878
 20
7.8148682803
 30
0.0
 10
13.589946237
 20
7.8076229819
 30
0.0
 10
13.5860122825
 20
7.8007742605
 30
0.0
 10
13.5820564697
 20
7.79432772
 30
0.0
 10
13.5780820762
 20
7.7882885653
 30
0.0
 10
13.5740922386
 20
7.7826617086
 30
0.0
 10
13.5700901884
 20
7.7774516524
 30
0.0
 10
13.5660790099
 20
7.7726626082
 30
0.0
 10
13.5620618229
 20
7.7682983899
 30
0.0
 10
13.5580415952
 20
7.7643625368
 30
0.0
 10
13.5540212584
 20
7.7608582514
 30
0.0
 10
13.5500036073
 20
7.7577885161
 30
0.0
 10
13.5459913625
 20
7.7551561203
 30
0.0
 10
13.5419872186
 20
7.7529637346
 30
0.0
 10
13.5379939046
 20
7.7512140372
 30
0.0
 10
13.5340145064
 20
7.7499096041
 30
0.0
 10
13.5300522947
 20
7.749053017
 30
0.0
 10
13.5261120888
 20
7.7486462686
 30
0.0
 10
13.5234961212
 20
7.7486761407
 30
0.0
 10
13.5222025367
 20
7.7487658479
 30
0.0
  0
SPLINE
  5
39C
100
AcDbEntity
  8
0
100
AcDbSpline
 62
7
  6
CONTINUOUS
 70
0
 71
3
 72
31
 73
27
 74
0
 42
0.0000001
 43
0.0000001
 44
0.0000000001
 40
0.0
 40
0.0
 40
0.0
 40
0.0
 40
0.0851788813
 40
0.1685809389
 40
0.249883622
 40
0.3287745949
 40
0.4049551209
 40
0.4781414285
 40
0.5480672398
 40
0.6144862131
 40
0.6463108357
 40
0.6771770133
 40
0.7070610423
 40
0.7359410463
 40
0.7637973898
 40
0.7906125804
 40
0.8163718673
 40
0.8410631119
 40
0.8646776016
 40
0.887209952
 40
0.9086591826
 40
0.9290287577
 40
0.948327997
 40
0.9665724178
 40
0.9837855919
 40
1.0
 40
1.0
 40
1.0
 40
1.0
 10
8.2208805827
 20
8.0313416389
 30
0.0
 10
8.2208805827
 20
8.0235717917
 30
0.0
 10
8.2210129826
 20
8.0081938012
 30
0.0
 10
8.2216202373
 20
7.9854067726
 30
0.0
 10
8.2226316318
 20
7.9632080809
 30
0.0
 10
8.2240427836
 20
7.9416912043
 30
0.0
 10
8.2258475805
 20
7.9209466635
 30
0.0
 10
8.228038213
 20
7.9010615989
 30
0.0
 10
8.2306052675
 20
7.8821196649
 30
0.0
 10
8.2330827868
 20
7.8669785289
 30
0.0
 10
8.235255532
 20
7.8554031079
 30
0.0
 10
8.2369488475
 20
7.8471297154
 30
0.0
 10
8.23872729
 20
7.8391491494
 30
0.0
 10
8.2405890276
 20
7.8314697767
 30
0.0
 10
8.2425320486
 20
7.8240996526
 30
0.0
 10
8.2445543397
 20
7.8170464986
 30
0.0
 10
8.2466537158
 20
7.8103176857
 30
0.0
 10
8.2488280209
 20
7.8039202422
 30
0.0
 10
8.2510749073
 20
7.7978608156
 30
0.0
 10
8.2533920998
 20
7.7921457036
 30
0.0
 10
8.2557771143
 20
7.7867807902
 30
0.0
 10
8.2582275951
 20
7.7817716042
 30
0.0
 10
8.2607409587
 20
7.7771232459
 30
0.0
 10
8.2633148724
 20
7.7728404012
 30
0.0
 10
8.2659465905
 20
7.7689275603
 30
0.0
 10
8.2677919979
 20
7.7664973413
 30
0.0
 10
8.2687252282
 20
7.7653498841
 30
0.0
  0
SPLINE
  5
39D
100
AcDbEntity
  8
0
100
AcDbSpline
 62
7
  6
CONTINUOUS
 70
0
 71
3
 72
36
 73
32
 74
0
 42
0.0000001
 43
0.0000001
 44
0.0000000001
 40
0.0
 40
0.0
 40
0.0
 40
0.0
 40
0.0914816311
 40
0.1807199149
 40
0.2672651504
 40
0.309392393
 40
0.3506858248
 40
0.3910949143
 40
0.4305707824
 40
0.4690664073
 40
0.5065366376
 40
0.542938378
 40
0.5782308784
 40
0.6123757617
 40
0.6453372845
 40
0.6770827029
 40
0.7075823782
 40
0.7368101835
 40
0.7647440228
 40
0.7913661339
 40
0.8166637912
 40
0.8406301692
 40
0.8632651135
 40
0.8845764836
 40
0.904581807
 40
0.9233101079
 40
0.9408045966
 40
0.9571259139
 40
0.9723558021
 40
0.9866015179
 40
1.0
 40
1.0
 40
1.0
 40
1.0
 10
13.6693802345
 20
8.4245484589
 30
0.0
 10
13.6693802345
 20
8.4373247837
 30
0.0
 10
13.6691322014
 20
8.4625649678
 30
0.0
 10
13.6679915215
 20
8.4998763804
 30
0.0
 10
13.6663954963
 20
8.5302708385
 30
0.0
 10
13.6647302597
 20
8.5539502817
 30
0.0
 10
13.663306563
 20
8.57118611
 30
0.0
 10
13.6616989531
 20
8.5880338314
 30
0.0
 10
13.6599096224
 20
8.6044702664
 30
0.0
 10
13.6579410858
 20
8.6204727841
 30
0.0
 10
13.6557960719
 20
8.6360193604
 30
0.0
 10
13.6534775445
 20
8.6510886029
 30
0.0
 10
13.650988749
 20
8.6656597912
 30
0.0
 10
13.6483331364
 20
8.6797128968
 30
0.0
 10
13.6455143782
 20
8.6932286156
 30
0.0
 10
13.6425364151
 20
8.7061884074
 30
0.0
 10
13.6394033694
 20
8.718574511
 30
0.0
 10
13.6361195662
 20
8.7303699768
 30
0.0
 10
13.6326895768
 20
8.741558711
 30
0.0
 10
13.6291181175
 20
8.7521254829
 30
0.0
 10
13.6254100714
 20
8.7620559613
 30
0.0
 10
13.6215705191
 20
8.7713367654
 30
0.0
 10
13.617604609
 20
8.7799554585
 30
0.0
 10
13.6135175646
 20
8.7879005843
 30
0.0
 10
13.6093146711
 20
8.795161715
 30
0.0
 10
13.6050010965
 20
8.8017293809
 30
0.0
 10
13.6005817983
 20
8.8075950692
 30
0.0
 10
13.5960616231
 20
8.8127510555
 30
0.0
 10
13.5914445122
 20
8.8171903465
 30
0.0
 10
13.5867356179
 20
8.8209053431
 30
0.0
 10
13.5834478688
 20
8.8229498782
 30
0.0
 10
13.5817986454
 20
8.8238339437
 30
0.0
  0
SPLINE
  5
39E
100
AcDbEntity
  8
0
100
AcDbSpline
 62
7
  6
CONTINUOUS
 70
0
 71
3
 72
50
 73
46
 74
0
 42
0.0000001
 43
0.0000001
 44
0.0000000001
 40
0.0
 40
0.0
 40
0.0
 40
0.0
 40
0.0400794048
 40
0.0806069206
 40
0.1214718593
 40
0.1625628266
 40
0.2037673571
 40
0.2449727126
 40
0.2860661066
 40
0.3269351573
 40
0.3674682585
 40
0.4075549808
 40
0.4470864653
 40
0.4859558249
 40
0.5240585503
 40
0.5612929244
 40
0.5975604497
 40
0.6327662927
 40
0.6668197529
 40
0.6996347672
 40
0.7311304634
 40
0.7612317837
 40
0.7898702082
 40
0.8036218114
 40
0.8169854463
 40
0.8299547963
 40
0.8425241921
 40
0.8546885826
 40
0.8664436998
 40
0.8777860001
 40
0.8887128976
 40
0.8992226891
 40
0.9093148582
 40
0.9189900079
 40
0.9282502402
 40
0.9370991276
 40
0.9455421759
 40
0.9535868759
 40
0.9612432589
 40
0.9685240716
 40
0.9754454243
 40
0.982027106
 40
0.9882932764
 40
0.9942728415
 40
1.0
 40
1.0
 40
1.0
 40
1.0
 10
13.6693802345
 20
8.4245484589
 30
0.0
 10
13.6693802345
 20
8.415091137
 30
0.0
 10
13.6692417422
 20
8.3960704913
 30
0.0
 10
13.6686288342
 20
8.3674131012
 30
0.0
 10
13.6676111595
 20
8.3385283462
 30
0.0
 10
13.6661916817
 20
8.3095006358
 30
0.0
 10
13.6643745219
 20
8.2804146243
 30
0.0
 10
13.6621649847
 20
8.2513552131
 30
0.0
 10
13.6595695191
 20
8.2224071967
 30
0.0
 10
13.6565957119
 20
8.1936550527
 30
0.0
 10
13.6532522599
 20
8.1651826802
 30
0.0
 10
13.6495489474
 20
8.1370731581
 30
0.0
 10
13.6454966168
 20
8.1094084992
 30
0.0
 10
13.6411071377
 20
8.082269409
 30
0.0
 10
13.6363933732
 20
8.0557350475
 30
0.0
 10
13.6313691427
 20
8.0298827951
 30
0.0
 10
13.6260491822
 20
8.0047880214
 30
0.0
 10
13.6204491023
 20
7.9805238624
 30
0.0
 10
13.6145853435
 20
7.9571609922
 30
0.0
 10
13.6084751263
 20
7.9347674309
 30
0.0
 10
13.6021364064
 20
7.9134082514
 30
0.0
 10
13.595587797
 20
7.8931456546
 30
0.0
 10
13.5898975137
 20
7.8770118325
 30
0.0
 10
13.585245109
 20
7.8647055601
 30
0.0
 10
13.5817625873
 20
7.855911016
 30
0.0
 10
13.5782421431
 20
7.8474328463
 30
0.0
 10
13.5746863453
 20
7.8392771981
 30
0.0
 10
13.571097762
 20
7.8314500031
 30
0.0
 10
13.5674790481
 20
7.8239569264
 30
0.0
 10
13.5638327899
 20
7.8168034089
 30
0.0
 10
13.5601616914
 20
7.8099946052
 30
0.0
 10
13.5564683501
 20
7.8035354504
 30
0.0
 10
13.5527555009
 20
7.7974305678
 30
0.0
 10
13.5490257361
 20
7.7916843714
 30
0.0
 10
13.5452817961
 20
7.7863009367
 30
0.0
 10
13.5415262457
 20
7.7812841461
 30
0.0
 10
13.5377617941
 20
7.7766375193
 30
0.0
 10
13.533990946
 20
7.7723644096
 30
0.0
 10
13.530216329
 20
7.7684677953
 30
0.0
 10
13.5264403493
 20
7.764950534
 30
0.0
 10
13.522665491
 20
7.7618151237
 30
0.0
 10
13.5188940701
 20
7.7590640322
 30
0.0
 10
13.5151283146
 20
7.7566993859
 30
0.0
 10
13.5113709174
 20
7.7547235607
 30
0.0
 10
13.5088229095
 20
7.7536457573
 30
0.0
 10
13.5075551913
 20
7.753177579
 30
0.0
  0
SPLINE
  5
39F
100
AcDbEntity
  8
0
100
AcDbSpline
 62
7
  6
CONTINUOUS
 70
0
 71
3
 72
55
 73
51
 74
0
 42
0.0000001
 43
0.0000001
 44
0.0000000001
 40
0.0
 40
0.0
 40
0.0
 40
0.0
 40
0.0416977467
 40
0.0838826715
 40
0.1264251894
 40
0.1691942496
 40
0.2120579454
 40
0.2548839861
 40
0.2975402332
 40
0.3398952121
 40
0.3818186331
 40
0.4231819137
 40
0.4638587045
 40
0.5037254239
 40
0.5426618009
 40
0.5805514357
 40
0.6172823809
 40
0.6527477565
 40
0.6868464109
 40
0.7194836512
 40
0.735226953
 40
0.7505727931
 40
0.7655115026
 40
0.7800340898
 40
0.7941321041
 40
0.8077978663
 40
0.8210243416
 40
0.8338053884
 40
0.8461356486
 40
0.8580108208
 40
0.8694275797
 40
0.8803838846
 40
0.8908789446
 40
0.9009135798
 40
0.9104902577
 40
0.9196135324
 40
0.9282901885
 40
0.936529792
 40
0.9443449852
 40
0.9517521818
 40
0.9587720361
 40
0.9654302643
 40
0.9717582132
 40
0.9748106146
 40
0.9777951537
 40
0.9835824254
 40
0.9891728274
 40
0.9946238154
 40
0.9973174823
 40
1.0
 40
1.0
 40
1.0
 40
1.0
 10
13.6660155897
 20
8.4212984614
 30
0.0
 10
13.6660155897
 20
8.4114939775
 30
0.0
 10
13.6658630514
 20
8.3917701517
 30
0.0
 10
13.6651886815
 20
8.3620501392
 30
0.0
 10
13.6640693667
 20
8.3320914322
 30
0.0
 10
13.6625087654
 20
8.3019926891
 30
0.0
 10
13.660512
 20
8.2718529219
 30
0.0
 10
13.6580856377
 20
8.2417713044
 30
0.0
 10
13.6552376705
 20
8.2118468118
 30
0.0
 10
13.6519774881
 20
8.1821779002
 30
0.0
 10
13.6483158472
 20
8.1528621788
 30
0.0
 10
13.644264837
 20
8.1239960865
 30
0.0
 10
13.6398378397
 20
8.0956745717
 30
0.0
 10
13.6350494874
 20
8.0679907757
 30
0.0
 10
13.6299156146
 20
8.0410357229
 30
0.0
 10
13.6244532082
 20
8.0148980107
 30
0.0
 10
13.6186803497
 20
7.9896635282
 30
0.0
 10
13.6126161664
 20
7.9654150965
 30
0.0
 10
13.6062807343
 20
7.9422324203
 30
0.0
 10
13.600728175
 20
7.9236484789
 30
0.0
 10
13.5961572748
 20
7.9093781433
 30
0.0
 10
13.5927156658
 20
7.8991169286
 30
0.0
 10
13.589222263
 20
7.8891769573
 30
0.0
 10
13.5856799745
 20
7.8795663729
 30
0.0
 10
13.5820916732
 20
7.8702930716
 30
0.0
 10
13.5784603691
 20
7.8613646466
 30
0.0
 10
13.5747889979
 20
7.852788424
 30
0.0
 10
13.5710806374
 20
7.8445714103
 30
0.0
 10
13.5673382789
 20
7.8367203364
 30
0.0
 10
13.5635650525
 20
7.8292415937
 30
0.0
 10
13.5597639889
 20
7.8221412926
 30
0.0
 10
13.5559382522
 20
7.8154251829
 30
0.0
 10
13.5520908913
 20
7.8090987304
 30
0.0
 10
13.548225078
 20
7.8031670192
 30
0.0
 10
13.5443438484
 20
7.7976348517
 30
0.0
 10
13.5404503438
 20
7.7925066292
 30
0.0
 10
13.5365475407
 20
7.7877864853
 30
0.0
 10
13.5326384943
 20
7.7834781441
 30
0.0
 10
13.5287260531
 20
7.7795850983
 30
0.0
 10
13.524813132
 20
7.7761104623
 30
0.0
 10
13.5209023342
 20
7.7730571714
 30
0.0
 10
13.5169966058
 20
7.7704279953
 30
0.0
 10
13.513709099
 20
7.7685706612
 30
0.0
 10
13.5110887282
 20
7.7673090094
 30
0.0
 10
13.5085310214
 20
7.7662171215
 30
0.0
 10
13.505334231
 20
7.765110483
 30
0.0
 10
13.5014754674
 20
7.7642031435
 30
0.0
 10
13.4982626099
 20
7.7638091413
 30
0.0
 10
13.4957174313
 20
7.7637153809
 30
0.0
 10
13.4944527236
 20
7.7637410397
 30
0.0
 10
13.4938227354
 20
7.7637719549
 30
0.0
  0
SPLINE
  5
3A0
100
AcDbEntity
  8
0
100
AcDbSpline
 62
7
  6
CONTINUOUS
 70
0
 71
3
 72
51
 73
47
 74
0
 42
0.0000001
 43
0.0000001
 44
0.0000000001
 40
0.0
 40
0.0
 40
0.0
 40
0.0
 40
0.040896426
 40
0.0822606396
 40
0.1239725894
 40
0.1659112502
 40
0.2079545673
 40
0.2499801802
 40
0.291865764
 40
0.3334895211
 40
0.3747306212
 40
0.4154696601
 40
0.4555891171
 40
0.4949738191
 40
0.5335114121
 40
0.5710928443
 40
0.607612866
 40
0.6429705536
 40
0.6770698674
 40
0.7098202595
 40
0.7411373501
 40
0.7709437065
 40
0.7852587025
 40
0.7991706092
 40
0.8126722096
 40
0.8257568204
 40
0.838418581
 40
0.8506522809
 40
0.8624536679
 40
0.8738193024
 40
0.8847468865
 40
0.8952351654
 40
0.9052842831
 40
0.9148957565
 40
0.9240728725
 40
0.9328207668
 40
0.9411468854
 40
0.949061206
 40
0.9565767909
 40
0.9637101805
 40
0.9704820429
 40
0.9769177116
 40
0.9830478378
 40
0.9889088722
 40
0.9945433872
 40
1.0
 40
1.0
 40
1.0
 40
1.0
 10
13.6457311485
 20
8.4198917282
 30
0.0
 10
13.6457311485
 20
8.4105612378
 30
0.0
 10
13.6455902026
 20
8.3917932558
 30
0.0
 10
13.6449667646
 20
8.3635149466
 30
0.0
 10
13.6439317943
 20
8.3350107219
 30
0.0
 10
13.6424884918
 20
8.3063691524
 30
0.0
 10
13.6406413181
 20
8.2776790832
 30
0.0
 10
13.6383960064
 20
8.2490295709
 30
0.0
 10
13.6357595289
 20
8.2205095241
 30
0.0
 10
13.6327400833
 20
8.1922074543
 30
0.0
 10
13.6293470635
 20
8.1642111897
 30
0.0
 10
13.6255910324
 20
8.1366076041
 30
0.0
 10
13.6214836893
 20
8.1094823437
 30
0.0
 10
13.6170378339
 20
8.0829195591
 30
0.0
 10
13.6122673275
 20
8.0570016403
 30
0.0
 10
13.6071870509
 20
8.0318089565
 30
0.0
 10
13.6018128589
 20
8.0074196028
 30
0.0
 10
13.5961615325
 20
7.9839091439
 30
0.0
 10
13.5902507252
 20
7.9613503921
 30
0.0
 10
13.5840989136
 20
7.9398130892
 30
0.0
 10
13.577725319
 20
7.9193639474
 30
0.0
 10
13.5721736502
 20
7.9030700894
 30
0.0
 10
13.5676266981
 20
7.8906346165
 30
0.0
 10
13.5642194233
 20
7.8817444552
 30
0.0
 10
13.5607718412
 20
7.8731716647
 30
0.0
 10
13.5572865377
 20
7.8649228762
 30
0.0
 10
13.5537662932
 20
7.8570044492
 30
0.0
 10
13.5502137684
 20
7.8494225084
 30
0.0
 10
13.5466317842
 20
7.8421828788
 30
0.0
 10
13.5430230426
 20
7.8352911488
 30
0.0
 10
13.5393903943
 20
7.8287525885
 30
0.0
 10
13.5357365662
 20
7.8225722287
 30
0.0
 10
13.5320644176
 20
7.8167547649
 30
0.0
 10
13.5283766786
 20
7.8113046518
 30
0.0
 10
13.5246761865
 20
7.8062259956
 30
0.0
 10
13.5209656425
 20
7.8015226644
 30
0.0
 10
13.5172478177
 20
7.7971981747
 30
0.0
 10
13.5135253378
 20
7.7932558179
 30
0.0
 10
13.5098008505
 20
7.7896985562
 30
0.0
 10
13.5060768526
 20
7.7865291645
 30
0.0
 10
13.5023558274
 20
7.7837501598
 30
0.0
 10
13.4986401276
 20
7.7813639502
 30
0.0
 10
13.4949321814
 20
7.7793728225
 30
0.0
 10
13.4912342557
 20
7.7777790136
 30
0.0
 10
13.4875495827
 20
7.7765848245
 30
0.0
 10
13.4850709199
 20
7.7760494456
 30
0.0
 10
13.4838416766
 20
7.7758524873
 30
0.0
  0
SPLINE
  5
3A1
100
AcDbEntity
  8
0
100
AcDbSpline
 62
7
  6
CONTINUOUS
 70
0
 71
3
 72
27
 73
23
 74
0
 42
0.0000001
 43
0.0000001
 44
0.0000000001
 40
0.0
 40
0.0
 40
0.0
 40
0.0
 40
0.0663339873
 40
0.1335510068
 40
0.2013503364
 40
0.2694261926
 40
0.3374719525
 40
0.4051809947
 40
0.4722486524
 40
0.5383739496
 40
0.6032613683
 40
0.6666226434
 40
0.7281786163
 40
0.7876611304
 40
0.8165450624
 40
0.8448160903
 40
0.8724447039
 40
0.8994025118
 40
0.9256622164
 40
0.9511978854
 40
0.9759848681
 40
1.0
 40
1.0
 40
1.0
 40
1.0
 10
13.5126135541
 20
8.4291234647
 30
0.0
 10
13.5126135541
 20
8.4174957374
 30
0.0
 10
13.5123945688
 20
8.3940849739
 30
0.0
 10
13.5114300713
 20
8.3588015691
 30
0.0
 10
13.5098314734
 20
8.3232354775
 30
0.0
 10
13.5076063776
 20
8.2875575818
 30
0.0
 10
13.5047654713
 20
8.2519392984
 30
0.0
 10
13.5013224122
 20
8.2165517059
 30
0.0
 10
13.4972937976
 20
8.1815647738
 30
0.0
 10
13.4926990653
 20
8.1471465244
 30
0.0
 10
13.4875604039
 20
8.113462235
 30
0.0
 10
13.4819026569
 20
8.0806735636
 30
0.0
 10
13.4757531755
 20
8.0489379988
 30
0.0
 10
13.4701907212
 20
8.0232508634
 30
0.0
 10
13.4655077393
 20
8.0033485038
 30
0.0
 10
13.4619259898
 20
7.9889243852
 30
0.0
 10
13.4582447366
 20
7.9748740845
 30
0.0
 10
13.4544684123
 20
7.9612144513
 30
0.0
 10
13.4506015405
 20
7.9479618928
 30
0.0
 10
13.4466488123
 20
7.9351322869
 30
0.0
 10
13.4426149896
 20
7.9227410779
 30
0.0
 10
13.4398300456
 20
7.9146519915
 30
0.0
 10
13.4384233366
 20
7.9106843553
 30
0.0
  0
SPLINE
  5
3A2
100
AcDbEntity
  8
0
100
AcDbSpline
 62
7
  6
CONTINUOUS
 70
0
 71
3
 72
18
 73
14
 74
0
 42
0.0000001
 43
0.0000001
 44
0.0000000001
 40
0.0
 40
0.0
 40
0.0
 40
0.0
 40
0.1253992547
 40
0.2527806588
 40
0.3810978734
 40
0.5092933987
 40
0.6363112743
 40
0.6990528653
 40
0.761110308
 40
0.8223569339
 40
0.8826682501
 40
0.9419222945
 40
1.0
 40
1.0
 40
1.0
 40
1.0
 10
13.4538258078
 20
8.4203388589
 30
0.0
 10
13.4538258078
 20
8.4060383812
 30
0.0
 10
13.4534605939
 20
8.3772102488
 30
0.0
 10
13.451864657
 20
8.3337754738
 30
0.0
 10
13.4492285439
 20
8.2900716883
 30
0.0
 10
13.4455752783
 20
8.2464829708
 30
0.0
 10
13.4416945948
 20
8.2104279569
 30
0.0
 10
13.438099976
 20
8.18193612
 30
0.0
 10
13.4351833633
 20
8.1609203939
 30
0.0
 10
13.4320417065
 20
8.140217419
 30
0.0
 10
13.4286818986
 20
8.1198726389
 30
0.0
 10
13.425111369
 20
8.0999308226
 30
0.0
 10
13.4225685832
 20
8.0867936386
 30
0.0
 10
13.4212619284
 20
8.0803006531
 30
0.0
  0
SPLINE
  5
3A3
100
AcDbEntity
  8
0
100
AcDbSpline
 62
7
  6
CONTINUOUS
 70
0
 71
3
 72
46
 73
42
 74
0
 42
0.0000001
 43
0.0000001
 44
0.0000000001
 40
0.0
 40
0.0
 40
0.0
 40
0.0
 40
0.0962179321
 40
0.1433793582
 40
0.1898144321
 40
0.2354531367
 40
0.2802275014
 40
0.324071612
 40
0.3669213586
 40
0.4087149267
 40
0.44939287
 40
0.4888982794
 40
0.527177126
 40
0.5641784756
 40
0.5998546959
 40
0.6341618385
 40
0.6670600894
 40
0.6985140982
 40
0.7284935159
 40
0.7569737929
 40
0.783936932
 40
0.8093724807
 40
0.833278991
 40
0.8556658329
 40
0.8662968471
 40
0.8765576546
 40
0.8864535496
 40
0.8959912037
 40
0.905178595
 40
0.9140252389
 40
0.9225424935
 40
0.9307435468
 40
0.9386437501
 40
0.946260857
 40
0.9607224925
 40
0.9676225635
 40
0.974336989
 40
0.9808971079
 40
0.9873367544
 40
0.9936918666
 40
1.0
 40
1.0
 40
1.0
 40
1.0
 10
13.6660155897
 20
8.4212984614
 30
0.0
 10
13.6660155897
 20
8.434881777
 30
0.0
 10
13.6657990399
 20
8.4551240387
 30
0.0
 10
13.6650526186
 20
8.4819106226
 30
0.0
 10
13.6642748436
 20
8.5015518937
 30
0.0
 10
13.6632767447
 20
8.5208457543
 30
0.0
 10
13.6620599658
 20
8.5397605845
 30
0.0
 10
13.6606265301
 20
8.5582653824
 30
0.0
 10
13.6589787932
 20
8.5763298572
 30
0.0
 10
13.6571194987
 20
8.5939244277
 30
0.0
 10
13.6550517266
 20
8.6110202947
 30
0.0
 10
13.6527788835
 20
8.6275894794
 30
0.0
 10
13.6503047371
 20
8.6436048816
 30
0.0
 10
13.6476333928
 20
8.6590403256
 30
0.0
 10
13.6447692625
 20
8.6738705943
 30
0.0
 10
13.6417170737
 20
8.6880714845
 30
0.0
 10
13.63848189
 20
8.7016198606
 30
0.0
 10
13.6350690548
 20
8.7144936855
 30
0.0
 10
13.6314841736
 20
8.7266720595
 30
0.0
 10
13.6277331458
 20
8.7381352993
 30
0.0
 10
13.6238221154
 20
8.7488649358
 30
0.0
 10
13.6197573835
 20
8.7588438788
 30
0.0
 10
13.6155454903
 20
8.7680560152
 30
0.0
 10
13.611857458
 20
8.7752003452
 30
0.0
 10
13.6088304979
 20
8.7805084143
 30
0.0
 10
13.6065669619
 20
8.7842196624
 30
0.0
 10
13.6042718006
 20
8.7877284428
 30
0.0
 10
13.6019459254
 20
8.7910333782
 30
0.0
 10
13.5995902307
 20
8.7941331322
 30
0.0
 10
13.5972055873
 20
8.7970264219
 30
0.0
 10
13.5947929227
 20
8.7997121233
 30
0.0
 10
13.592353177
 20
8.8021890579
 30
0.0
 10
13.5898869683
 20
8.8044563498
 30
0.0
 10
13.5866221339
 20
8.8071513505
 30
0.0
 10
13.5832483107
 20
8.8094869785
 30
0.0
 10
13.5797786868
 20
8.8114084523
 30
0.0
 10
13.5771951217
 20
8.8126130674
 30
0.0
 10
13.5745911685
 20
8.8136026752
 30
0.0
 10
13.5719678202
 20
8.814376724
 30
0.0
 10
13.5693265663
 20
8.8149345386
 30
0.0
 10
13.567551133
 20
8.8151624709
 30
0.0
 10
13.5666639734
 20
8.815239925
 30
0.0
  0
SPLINE
  5
3A4
100
AcDbEntity
  8
0
100
AcDbSpline
 62
7
  6
CONTINUOUS
 70
0
 71
3
 72
38
 73
34
 74
0
 42
0.0000001
 43
0.0000001
 44
0.0000000001
 40
0.0
 40
0.0
 40
0.0
 40
0.0
 40
0.093879478
 40
0.1853280888
 40
0.2299835865
 40
0.2738437448
 40
0.3168490931
 40
0.3589417088
 40
0.4000655241
 40
0.4401664261
 40
0.4791925008
 40
0.5170942074
 40
0.5538244727
 40
0.589339025
 40
0.6235966554
 40
0.6565593687
 40
0.6881928196
 40
0.7184667621
 40
0.7473553659
 40
0.7748378818
 40
0.8008994694
 40
0.8255319357
 40
0.8487349602
 40
0.8705177391
 40
0.8909007569
 40
0.909918333
 40
0.9276220156
 40
0.9440844753
 40
0.9594043551
 40
0.9737117155
 40
0.9871726893
 40
0.9936521696
 40
1.0
 40
1.0
 40
1.0
 40
1.0
 10
13.6457311485
 20
8.4198917282
 30
0.0
 10
13.6457311485
 20
8.4326632949
 30
0.0
 10
13.6454722081
 20
8.4578765462
 30
0.0
 10
13.6444714328
 20
8.4891507742
 30
0.0
 10
13.6432620267
 20
8.5136041088
 30
0.0
 10
13.642164673
 20
8.5314632827
 30
0.0
 10
13.6408715916
 20
8.548959771
 30
0.0
 10
13.6393847327
 20
8.5660672623
 30
0.0
 10
13.6377063733
 20
8.5827599905
 30
0.0
 10
13.6358390469
 20
8.5990128257
 30
0.0
 10
13.6337855978
 20
8.6148013102
 30
0.0
 10
13.6315491623
 20
8.6301016943
 30
0.0
 10
13.6291331243
 20
8.6448909674
 30
0.0
 10
13.626541156
 20
8.6591469034
 30
0.0
 10
13.6237772162
 20
8.672848099
 30
0.0
 10
13.6208454903
 20
8.6859739962
 30
0.0
 10
13.6177504226
 20
8.6985049277
 30
0.0
 10
13.6144967302
 20
8.7104221602
 30
0.0
 10
13.6110893269
 20
8.7217079104
 30
0.0
 10
13.6075333373
 20
8.7323453889
 30
0.0
 10
13.6038341238
 20
8.7423188547
 30
0.0
 10
13.5999971838
 20
8.7516136239
 30
0.0
 10
13.5960281252
 20
8.760216107
 30
0.0
 10
13.5919326839
 20
8.768113873
 30
0.0
 10
13.5877165563
 20
8.7752956306
 30
0.0
 10
13.583385299
 20
8.7817511968
 30
0.0
 10
13.578944241
 20
8.7874714955
 30
0.0
 10
13.5743983756
 20
8.7924482751
 30
0.0
 10
13.5697518043
 20
8.7966738312
 30
0.0
 10
13.5650095111
 20
8.8001400548
 30
0.0
 10
13.5609283056
 20
8.8024176806
 30
0.0
 10
13.5576394871
 20
8.8038287502
 30
0.0
 10
13.5559890554
 20
8.8044013323
 30
0.0
 10
13.5551631895
 20
8.8046537271
 30
0.0
  0
SPLINE
  5
3A5
100
AcDbEntity
  8
0
100
AcDbSpline
 62
7
  6
CONTINUOUS
 70
0
 71
3
 72
19
 73
15
 74
0
 42
0.0000001
 43
0.0000001
 44
0.0000000001
 40
0.0
 40
0.0
 40
0.0
 40
0.0
 40
0.1406398686
 40
0.2780101764
 40
0.4114770516
 40
0.5404277674
 40
0.6030276771
 40
0.664283086
 40
0.7241266893
 40
0.7824936911
 40
0.8393221167
 40
0.8945527135
 40
0.9481295377
 40
1.0
 40
1.0
 40
1.0
 40
1.0
 10
13.5126135541
 20
8.4291234647
 30
0.0
 10
13.5126135541
 20
8.4408224546
 30
0.0
 10
13.5123959436
 20
8.4639491346
 30
0.0
 10
13.5113961487
 20
8.4981651213
 30
0.0
 10
13.5097315836
 20
8.5313818967
 30
0.0
 10
13.5077790722
 20
8.5583502253
 30
0.0
 10
13.5058802686
 20
8.5792942063
 30
0.0
 10
13.5043102432
 20
8.5944945833
 30
0.0
 10
13.5025822964
 20
8.6093233944
 30
0.0
 10
13.5006985915
 20
8.6237619687
 30
0.0
 10
13.4986615589
 20
8.6377921013
 30
0.0
 10
13.4964737499
 20
8.6513961356
 30
0.0
 10
13.4941379796
 20
8.6645568817
 30
0.0
 10
13.4924563787
 20
8.6731662771
 30
0.0
 10
13.491589575
 20
8.6773931075
 30
0.0
  0
SPLINE
  5
3A6
100
AcDbEntity
  8
0
100
AcDbSpline
 62
7
  6
CONTINUOUS
 70
0
 71
3
 72
11
 73
7
 74
0
 42
0.0000001
 43
0.0000001
 44
0.0000000001
 40
0.0
 40
0.0
 40
0.0
 40
0.0
 40
0.2568495116
 40
0.509555839
 40
0.7574774702
 40
1.0
 40
1.0
 40
1.0
 40
1.0
 10
13.4538258078
 20
8.4203388589
 30
0.0
 10
13.4538258078
 20
8.4281629941
 30
0.0
 10
13.4537180317
 20
8.4436852916
 30
0.0
 10
13.4532255346
 20
8.4667550731
 30
0.0
 10
13.4524047405
 20
8.4893788299
 30
0.0
 10
13.4516310706
 20
8.5042994162
 30
0.0
 10
13.4511876852
 20
8.5116738065
 30
0.0
  0
SPLINE
  5
3A7
100
AcDbEntity
  8
0
100
AcDbSpline
 62
7
  6
CONTINUOUS
 70
0
 71
3
 72
15
 73
11
 74
0
 42
0.0000001
 43
0.0000001
 44
0.0000000001
 40
0.0
 40
0.0
 40
0.0
 40
0.0
 40
0.1233171376
 40
0.2468171981
 40
0.3706749826
 40
0.4950495853
 40
0.6200772313
 40
0.7458671002
 40
0.8724930137
 40
1.0
 40
1.0
 40
1.0
 40
1.0
 10
10.8229283032
 20
8.2407155715
 30
0.0
 10
10.8214696788
 20
8.2393066325
 30
0.0
 10
10.81839591
 20
8.2366416038
 30
0.0
 10
10.8133791923
 20
8.233159141
 30
0.0
 10
10.8080035999
 20
8.2302234682
 30
0.0
 10
10.8023241608
 20
8.227864756
 30
0.0
 10
10.7963981635
 20
8.2261064166
 30
0.0
 10
10.7902852961
 20
8.2249660502
 30
0.0
 10
10.7840479695
 20
8.2244547497
 30
0.0
 10
10.7798611738
 20
8.2245364125
 30
0.0
 10
10.7777693173
 20
8.2246814832
 30
0.0
  0
SPLINE
  5
3A8
100
AcDbEntity
  8
0
100
AcDbSpline
 62
7
  6
CONTINUOUS
 70
0
 71
3
 72
23
 73
19
 74
0
 42
0.0000001
 43
0.0000001
 44
0.0000000001
 40
0.0
 40
0.0
 40
0.0
 40
0.0
 40
0.0618931087
 40
0.1237213656
 40
0.1855181209
 40
0.2473173764
 40
0.3091532096
 40
0.3710592325
 40
0.4330680493
 40
0.4952106874
 40
0.557516045
 40
0.6200104677
 40
0.682717194
 40
0.7456562736
 40
0.808844154
 40
0.8722913564
 40
0.9360114703
 40
1.0
 40
1.0
 40
1.0
 40
1.0
 10
10.5301301398
 20
8.2366092805
 30
0.0
 10
10.5287608656
 20
8.2346592432
 30
0.0
 10
10.5258966375
 20
8.230848687
 30
0.0
 10
10.5212402089
 20
8.2254269059
 30
0.0
 10
10.5162425891
 20
8.2203225027
 30
0.0
 10
10.5109221121
 20
8.2155552342
 30
0.0
 10
10.5052981217
 20
8.2111432563
 30
0.0
 10
10.499391277
 20
8.2071035455
 30
0.0
 10
10.493223354
 20
8.2034517185
 30
0.0
 10
10.4868172054
 20
8.200201994
 30
0.0
 10
10.480196693
 20
8.1973670718
 30
0.0
 10
10.4733865996
 20
8.1949580567
 30
0.0
 10
10.4664125066
 20
8.192984433
 30
0.0
 10
10.4593006756
 20
8.191454027
 30
0.0
 10
10.4520780644
 20
8.1903729786
 30
0.0
 10
10.4447718075
 20
8.1897454587
 30
0.0
 10
10.4374101629
 20
8.189574178
 30
0.0
 10
10.4324936237
 20
8.1897641388
 30
0.0
 10
10.4300360942
 20
8.189934569
 30
0.0
  0
SPLINE
  5
3A9
100
AcDbEntity
  8
0
100
AcDbSpline
 62
7
  6
CONTINUOUS
 70
0
 71
3
 72
39
 73
35
 74
0
 42
0.0000001
 43
0.0000001
 44
0.0000000001
 40
0.0
 40
0.0
 40
0.0
 40
0.0
 40
0.0760185458
 40
0.1532632554
 40
0.2310390604
 40
0.3086436563
 40
0.3853769375
 40
0.42320137
 40
0.4605504649
 40
0.4973408779
 40
0.533490906
 40
0.5689207649
 40
0.6035528818
 40
0.6373121533
 40
0.6701262286
 40
0.7019258193
 40
0.7326450735
 40
0.7622219321
 40
0.790598514
 40
0.817721583
 40
0.8435431249
 40
0.868021063
 40
0.8911200625
 40
0.9128125786
 40
0.9231258585
 40
0.9330815931
 40
0.9426792004
 40
0.9519190187
 40
0.9608022954
 40
0.9693313294
 40
0.9775099463
 40
0.9853432204
 40
0.9928373695
 40
1.0
 40
1.0
 40
1.0
 40
1.0
 10
11.8685770437
 20
8.6391816195
 30
0.0
 10
11.8685770437
 20
8.6511678199
 30
0.0
 10
11.8688975653
 20
8.6753345902
 30
0.0
 10
11.8702962082
 20
8.711740262
 30
0.0
 10
11.8726048274
 20
8.7483503846
 30
0.0
 10
11.8758012997
 20
8.7848125557
 30
0.0
 10
11.8791950225
 20
8.8149245767
 30
0.0
 10
11.882336619
 20
8.8386700802
 30
0.0
 10
11.8848818287
 20
8.8561400687
 30
0.0
 10
11.8876209926
 20
8.8733133981
 30
0.0
 10
11.8905475252
 20
8.8901487566
 30
0.0
 10
11.893654349
 20
8.9066056153
 30
0.0
 10
11.8969339474
 20
8.9226443786
 30
0.0
 10
11.9003783867
 20
8.9382264639
 30
0.0
 10
11.9039793339
 20
8.9533143946
 30
0.0
 10
11.9077280804
 20
8.9678718959
 30
0.0
 10
11.9116155474
 20
8.9818639939
 30
0.0
 10
11.9156323161
 20
8.9952571046
 30
0.0
 10
11.9197686578
 20
9.0080191104
 30
0.0
 10
11.9240145589
 20
9.0201194515
 30
0.0
 10
11.928359749
 20
9.0315291928
 30
0.0
 10
11.9327937211
 20
9.0422212123
 30
0.0
 10
11.9373057777
 20
9.0521699582
 30
0.0
 10
11.9411844679
 20
9.0599476153
 30
0.0
 10
11.9443256566
 20
9.0657712052
 30
0.0
 10
11.9466545409
 20
9.0698647487
 30
0.0
 10
11.9489948305
 20
9.0737555762
 30
0.0
 10
11.9513451299
 20
9.0774413793
 30
0.0
 10
11.9537040102
 20
9.0809199759
 30
0.0
 10
11.9560701483
 20
9.0841892979
 30
0.0
 10
11.9584421444
 20
9.0872474793
 30
0.0
 10
11.9608187077
 20
9.0900927092
 30
0.0
 10
11.9631982782
 20
9.0927231475
 30
0.0
 10
11.9648218042
 20
9.0943691312
 30
0.0
 10
11.9656341055
 20
9.0951537541
 30
0.0
  0
SPLINE
  5
3AA
100
AcDbEntity
  8
0
100
AcDbSpline
 62
7
  6
CONTINUOUS
 70
0
 71
3
 72
40
 73
36
 74
0
 42
0.0000001
 43
0.0000001
 44
0.0000000001
 40
0.0
 40
0.0
 40
0.0
 40
0.0
 40
0.03107488
 40
0.0623076616
 40
0.093692525
 40
0.1252215479
 40
0.1568830941
 40
0.1886630657
 40
0.220544829
 40
0.2525097179
 40
0.2845373806
 40
0.3166062126
 40
0.3486937883
 40
0.3807773099
 40
0.4128340603
 40
0.4448418541
 40
0.4767794829
 40
0.5086271449
 40
0.5403668559
 40
0.5719828318
 40
0.6034618377
 40
0.6347934946
 40
0.6659705371
 40
0.6969890134
 40
0.7278484211
 40
0.7585517709
 40
0.7891055737
 40
0.8195197443
 40
0.8498074222
 40
0.8799847065
 40
0.9100703105
 40
0.9400851405
 40
0.9550759782
 40
0.9700577083
 40
1.0
 40
1.0
 40
1.0
 40
1.0
 10
10.6570285818
 20
7.88821935
 30
0.0
 10
10.6570285818
 20
7.8852271676
 30
0.0
 10
10.6572518042
 20
7.8792252972
 30
0.0
 10
10.6582483646
 20
7.8702512395
 30
0.0
 10
10.6599019818
 20
7.8613298531
 30
0.0
 10
10.6622034171
 20
7.8525108164
 30
0.0
 10
10.6651399925
 20
7.8438423467
 30
0.0
 10
10.6686954848
 20
7.8353720796
 30
0.0
 10
10.6728503258
 20
7.8271464832
 30
0.0
 10
10.6775816536
 20
7.8192106962
 30
0.0
 10
10.682863463
 20
7.8116082608
 30
0.0
 10
10.6886667376
 20
7.804380892
 30
0.0
 10
10.6949596116
 20
7.7975682501
 30
0.0
 10
10.7017075415
 20
7.7912077259
 30
0.0
 10
10.7088734948
 20
7.7853342372
 30
0.0
 10
10.7164181509
 20
7.7799800395
 30
0.0
 10
10.7243001137
 20
7.7751745499
 30
0.0
 10
10.7324761372
 20
7.7709441872
 30
0.0
 10
10.7409013586
 20
7.7673122272
 30
0.0
 10
10.749529542
 20
7.7642986752
 30
0.0
 10
10.7583133284
 20
7.7619201558
 30
0.0
 10
10.7672044914
 20
7.7601898193
 30
0.0
 10
10.7761541991
 20
7.7591172684
 30
0.0
 10
10.7851132785
 20
7.7587085018
 30
0.0
 10
10.7940324823
 20
7.758965878
 30
0.0
 10
10.8028627579
 20
7.7598880968
 30
0.0
 10
10.8115555131
 20
7.7614701991
 30
0.0
 10
10.820062892
 20
7.7637035942
 30
0.0
 10
10.8283380093
 20
7.7665760769
 30
0.0
 10
10.8363353244
 20
7.7700719752
 30
0.0
 10
10.8440104792
 20
7.7741719063
 30
0.0
 10
10.8501063688
 20
7.7780755632
 30
0.0
 10
10.8547780046
 20
7.7814749073
 30
0.0
 10
10.8593054674
 20
7.7850523113
 30
0.0
 10
10.8625382788
 20
7.7879354715
 30
0.0
 10
10.8646119887
 20
7.789938505
 30
0.0
  0
SPLINE
  5
3AB
100
AcDbEntity
  8
0
100
AcDbSpline
 62
7
  6
CONTINUOUS
 70
0
 71
3
 72
23
 73
19
 74
0
 42
0.0000001
 43
0.0000001
 44
0.0000000001
 40
0.0
 40
0.0
 40
0.0
 40
0.0
 40
0.0618931113
 40
0.1237213802
 40
0.185518151
 40
0.2473174059
 40
0.309153229
 40
0.3710592501
 40
0.4330680736
 40
0.4952107128
 40
0.557516058
 40
0.6200104683
 40
0.6827172157
 40
0.7456562613
 40
0.808844147
 40
0.8722914744
 40
0.9360111861
 40
1.0
 40
1.0
 40
1.0
 40
1.0
 10
11.2246309806
 20
8.188445891
 30
0.0
 10
11.2232617014
 20
8.1864958436
 30
0.0
 10
11.2203974967
 20
8.1826852421
 30
0.0
 10
11.2157410686
 20
8.1772634135
 30
0.0
 10
11.2107434315
 20
8.1721589791
 30
0.0
 10
11.2054229387
 20
8.1673916785
 30
0.0
 10
11.1997989432
 20
8.1629796542
 30
0.0
 10
11.1938920866
 20
8.1589399015
 30
0.0
 10
11.1877241396
 20
8.1552880482
 30
0.0
 10
11.1813179617
 20
8.1520383081
 30
0.0
 10
11.1746974273
 20
8.149203355
 30
0.0
 10
11.1678873078
 20
8.1467943126
 30
0.0
 10
11.1609131845
 20
8.1448206742
 30
0.0
 10
11.1538013202
 20
8.1432902632
 30
0.0
 10
11.1465786728
 20
8.1422092025
 30
0.0
 10
11.1392723921
 20
8.1415816819
 30
0.0
 10
11.131910713
 20
8.1414103927
 30
0.0
 10
11.1269941556
 20
8.1416003606
 30
0.0
 10
11.1245366037
 20
8.1417707924
 30
0.0
  0
SPLINE
  5
3AC
100
AcDbEntity
  8
0
100
AcDbSpline
 62
7
  6
CONTINUOUS
 70
0
 71
3
 72
18
 73
14
 74
0
 42
0.0000001
 43
0.0000001
 44
0.0000000001
 40
0.0
 40
0.0
 40
0.0
 40
0.0
 40
0.150465277
 40
0.2917135888
 40
0.4244428697
 40
0.4879101177
 40
0.5496092744
 40
0.6682620957
 40
0.7817884661
 40
0.8371381947
 40
0.8918080597
 40
0.9460194495
 40
1.0
 40
1.0
 40
1.0
 40
1.0
 10
12.2032297928
 20
9.3246535783
 30
0.0
 10
12.2042899167
 20
9.3256775794
 30
0.0
 10
12.2064087684
 20
9.3275989231
 30
0.0
 10
12.2096895608
 20
9.3301594005
 30
0.0
 10
12.2124607888
 20
9.3319703022
 30
0.0
 10
12.2146705736
 20
9.3331965991
 30
0.0
 10
12.2168153375
 20
9.3342494099
 30
0.0
 10
12.2194969946
 20
9.3353132087
 30
0.0
 10
12.2222263328
 20
9.336039247
 30
0.0
 10
12.2243880726
 20
9.336396862
 30
0.0
 10
12.2259902102
 20
9.3365556172
 30
0.0
 10
12.227585869
 20
9.3366069263
 30
0.0
 10
12.2286459857
 20
9.3365694287
 30
0.0
 10
12.2291734989
 20
9.3365328491
 30
0.0
  0
SPLINE
  5
3AD
100
AcDbEntity
  8
0
100
AcDbSpline
 62
7
  6
CONTINUOUS
 70
0
 71
3
 72
19
 73
15
 74
0
 42
0.0000001
 43
0.0000001
 44
0.0000000001
 40
0.0
 40
0.0
 40
0.0
 40
0.0
 40
0.0616584454
 40
0.1233399317
 40
0.185067215
 40
0.2468625626
 40
0.3087474945
 40
0.3707425066
 40
0.4328668994
 40
0.4951385746
 40
0.6201443393
 40
0.7459117862
 40
0.8725152911
 40
1.0
 40
1.0
 40
1.0
 40
1.0
 10
10.1107488552
 20
7.630702019
 30
0.0
 10
10.1090879915
 20
7.6290977493
 30
0.0
 10
10.1056786294
 20
7.6259773078
 30
0.0
 10
10.1003193745
 20
7.6215773738
 30
0.0
 10
10.094727386
 20
7.6174682877
 30
0.0
 10
10.0889169864
 20
7.6136605301
 30
0.0
 10
10.0829027139
 20
7.6101636898
 30
0.0
 10
10.0766998139
 20
7.6069865831
 30
0.0
 10
10.0703236978
 20
7.6041371007
 30
0.0
 10
10.0616035589
 20
7.6007805736
 30
0.0
 10
10.0503418572
 20
7.597438856
 30
0.0
 10
10.036424109
 20
7.5948426893
 30
0.0
 10
10.0222222366
 20
7.5936784786
 30
0.0
 10
10.0126893913
 20
7.5938644308
 30
0.0
 10
10.0079264544
 20
7.5941947416
 30
0.0
  0
SPLINE
  5
3AE
100
AcDbEntity
  8
0
100
AcDbSpline
 62
7
  6
CONTINUOUS
 70
0
 71
3
 72
19
 73
15
 74
0
 42
0.0000001
 43
0.0000001
 44
0.0000000001
 40
0.0
 40
0.0
 40
0.0
 40
0.0
 40
0.0616584454
 40
0.1233399317
 40
0.185067215
 40
0.2468625626
 40
0.3087474945
 40
0.3707425066
 40
0.4328668994
 40
0.4951385746
 40
0.6201443393
 40
0.7459117862
 40
0.8725152911
 40
1.0
 40
1.0
 40
1.0
 40
1.0
 10
11.649468725
 20
7.5239914336
 30
0.0
 10
11.6478078613
 20
7.5223871639
 30
0.0
 10
11.6443984992
 20
7.5192667224
 30
0.0
 10
11.6390392443
 20
7.5148667884
 30
0.0
 10
11.6334472558
 20
7.5107577023
 30
0.0
 10
11.6276368562
 20
7.5069499447
 30
0.0
 10
11.6216225837
 20
7.5034531044
 30
0.0
 10
11.6154196837
 20
7.5002759977
 30
0.0
 10
11.6090435676
 20
7.4974265152
 30
0.0
 10
11.6003234288
 20
7.4940699882
 30
0.0
 10
11.589061727
 20
7.4907282705
 30
0.0
 10
11.5751439788
 20
7.4881321039
 30
0.0
 10
11.5609421064
 20
7.4869678932
 30
0.0
 10
11.5514092612
 20
7.4871538454
 30
0.0
 10
11.5466463242
 20
7.4874841562
 30
0.0
  0
SPLINE
  5
3AF
100
AcDbEntity
  8
0
100
AcDbSpline
 62
7
  6
CONTINUOUS
 70
0
 71
3
 72
19
 73
15
 74
0
 42
0.0000001
 43
0.0000001
 44
0.0000000001
 40
0.0
 40
0.0
 40
0.0
 40
0.0
 40
0.0616584454
 40
0.1233399317
 40
0.185067215
 40
0.2468625626
 40
0.3087474945
 40
0.3707425066
 40
0.4328668994
 40
0.4951385746
 40
0.6201443393
 40
0.7459117862
 40
0.8725152911
 40
1.0
 40
1.0
 40
1.0
 40
1.0
 10
11.649468725
 20
8.731398788
 30
0.0
 10
11.6478078613
 20
8.7297945183
 30
0.0
 10
11.6443984992
 20
8.7266740768
 30
0.0
 10
11.6390392443
 20
8.7222741428
 30
0.0
 10
11.6334472558
 20
8.7181650567
 30
0.0
 10
11.6276368562
 20
8.7143572991
 30
0.0
 10
11.6216225837
 20
8.7108604588
 30
0.0
 10
11.6154196837
 20
8.7076833521
 30
0.0
 10
11.6090435676
 20
8.7048338696
 30
0.0
 10
11.6003234288
 20
8.7014773426
 30
0.0
 10
11.589061727
 20
8.6981356249
 30
0.0
 10
11.5751439788
 20
8.6955394583
 30
0.0
 10
11.5609421064
 20
8.6943752476
 30
0.0
 10
11.5514092612
 20
8.6945611998
 30
0.0
 10
11.5466463242
 20
8.6948915106
 30
0.0
  0
SPLINE
  5
3B0
100
AcDbEntity
  8
0
100
AcDbSpline
 62
7
  6
CONTINUOUS
 70
0
 71
3
 72
19
 73
15
 74
0
 42
0.0000001
 43
0.0000001
 44
0.0000000001
 40
0.0
 40
0.0
 40
0.0
 40
0.0
 40
0.0616584454
 40
0.1233399317
 40
0.185067215
 40
0.2468625626
 40
0.3087474945
 40
0.3707425066
 40
0.4328668994
 40
0.4951385746
 40
0.6201443393
 40
0.7459117862
 40
0.8725152911
 40
1.0
 40
1.0
 40
1.0
 40
1.0
 10
10.1107488552
 20
8.8381093735
 30
0.0
 10
10.1090879915
 20
8.8365051037
 30
0.0
 10
10.1056786294
 20
8.8333846622
 30
0.0
 10
10.1003193745
 20
8.8289847282
 30
0.0
 10
10.094727386
 20
8.8248756421
 30
0.0
 10
10.0889169864
 20
8.8210678845
 30
0.0
 10
10.0829027139
 20
8.8175710442
 30
0.0
 10
10.0766998139
 20
8.8143939375
 30
0.0
 10
10.0703236978
 20
8.8115444551
 30
0.0
 10
10.0616035589
 20
8.808187928
 30
0.0
 10
10.0503418572
 20
8.8048462104
 30
0.0
 10
10.036424109
 20
8.8022500437
 30
0.0
 10
10.0222222366
 20
8.801085833
 30
0.0
 10
10.0126893913
 20
8.8012717852
 30
0.0
 10
10.0079264544
 20
8.801602096
 30
0.0
  0
SPLINE
  5
3B1
100
AcDbEntity
  8
0
100
AcDbSpline
 62
7
  6
CONTINUOUS
 70
0
 71
3
 72
53
 73
49
 74
0
 42
0.0000001
 43
0.0000001
 44
0.0000000001
 40
0.0
 40
0.0
 40
0.0
 40
0.0
 40
0.0095821603
 40
0.0187371838
 40
0.0274872302
 40
0.0358598335
 40
0.0515978114
 40
0.0590555925
 40
0.0662983352
 40
0.0733795061
 40
0.080356772
 40
0.0872905952
 40
0.0942426898
 40
0.1012742186
 40
0.1084441701
 40
0.1158078304
 40
0.1234158648
 40
0.131313715
 40
0.1395412652
 40
0.1481332074
 40
0.1571191227
 40
0.1665239627
 40
0.1763687164
 40
0.1866705196
 40
0.1974434102
 40
0.208698671
 40
0.2204449374
 40
0.2326889046
 40
0.2454352722
 40
0.2586870155
 40
0.2724458384
 40
0.3014825337
 40
0.3325362976
 40
0.365580377
 40
0.400575222
 40
0.4374705007
 40
0.4762065478
 40
0.5167153987
 40
0.558921816
 40
0.6027441125
 40
0.6480947745
 40
0.6948809482
 40
0.7430049461
 40
0.7923649942
 40
0.8428553916
 40
0.8943659478
 40
0.9467875089
 40
1.0
 40
1.0
 40
1.0
 40
1.0
 10
13.4735689552
 20
7.450036008
 30
0.0
 10
13.4728613516
 20
7.4493774849
 30
0.0
 10
13.4714467061
 20
7.4481224407
 30
0.0
 10
13.469276309
 20
7.446394645
 30
0.0
 10
13.4671078422
 20
7.4448666765
 30
0.0
 10
13.4642804901
 20
7.4431336187
 30
0.0
 10
13.4613960638
 20
7.4417498359
 30
0.0
 10
13.4584809796
 20
7.4407751091
 30
0.0
 10
13.4563414666
 20
7.4402614889
 30
0.0
 10
13.454211722
 20
7.4399532822
 30
0.0
 10
13.4520932558
 20
7.439850838
 30
0.0
 10
13.4499878269
 20
7.4399545312
 30
0.0
 10
13.4478972196
 20
7.4402642569
 30
0.0
 10
13.4458231513
 20
7.4407795961
 30
0.0
 10
13.4437672557
 20
7.4415000043
 30
0.0
 10
13.4417309288
 20
7.4424245319
 30
0.0
 10
13.4397154319
 20
7.4435522515
 30
0.0
 10
13.4377219138
 20
7.4448821698
 30
0.0
 10
13.4357513451
 20
7.4464131483
 30
0.0
 10
13.4338047586
 20
7.4481441627
 30
0.0
 10
13.4318831013
 20
7.4500740494
 30
0.0
 10
13.429987305
 20
7.45220159
 30
0.0
 10
13.4281184104
 20
7.454525563
 30
0.0
 10
13.4262773456
 20
7.4570445584
 30
0.0
 10
13.4244651223
 20
7.4597571267
 30
0.0
 10
13.4226827767
 20
7.462661712
 30
0.0
 10
13.42093125
 20
7.4657565974
 30
0.0
 10
13.4192115902
 20
7.4690400102
 30
0.0
 10
13.4175247842
 20
7.4725100266
 30
0.0
 10
13.415871752
 20
7.4761646139
 30
0.0
 10
13.4136745933
 20
7.4813746809
 30
0.0
 10
13.4110298629
 20
7.4883420674
 30
0.0
 10
13.4080604048
 20
7.4972579342
 30
0.0
 10
13.4052477009
 20
7.506852303
 30
0.0
 10
13.4025984654
 20
7.5171025684
 30
0.0
 10
13.400119058
 20
7.5279847368
 30
0.0
 10
13.3978154622
 20
7.5394731557
 30
0.0
 10
13.3956932216
 20
7.5515406819
 30
0.0
 10
13.3937574505
 20
7.5641587413
 30
0.0
 10
13.3920128223
 20
7.5772974275
 30
0.0
 10
13.390463559
 20
7.5909255712
 30
0.0
 10
13.3891133916
 20
7.6050108059
 30
0.0
 10
13.3879655698
 20
7.6195196714
 30
0.0
 10
13.3870228712
 20
7.6344176993
 30
0.0
 10
13.3862875951
 20
7.6496693954
 30
0.0
 10
13.3857614705
 20
7.6652387301
 30
0.0
 10
13.3854458446
 20
7.6810883521
 30
0.0
 10
13.3853766925
 20
7.6917445534
 30
0.0
 10
13.3853766925
 20
7.6971124762
 30
0.0
  0
SPLINE
  5
3B2
100
AcDbEntity
  8
0
100
AcDbSpline
 62
7
  6
CONTINUOUS
 70
0
 71
3
 72
47
 73
43
 74
0
 42
0.0000001
 43
0.0000001
 44
0.0000000001
 40
0.0
 40
0.0
 40
0.0
 40
0.0
 40
0.0063158967
 40
0.0126706977
 40
0.0191025471
 40
0.0256480963
 40
0.0323419829
 40
0.0392163382
 40
0.053614168
 40
0.0611948929
 40
0.0690566412
 40
0.077217773
 40
0.0856941569
 40
0.0944995551
 40
0.1036456891
 40
0.1131424521
 40
0.122998232
 40
0.1332198706
 40
0.1438129644
 40
0.1547820179
 40
0.1661303832
 40
0.1899727563
 40
0.2153522396
 40
0.2422681077
 40
0.2707104459
 40
0.3006614883
 40
0.3320967939
 40
0.3649861265
 40
0.3992940928
 40
0.4349806571
 40
0.4720016811
 40
0.5103093127
 40
0.5498522596
 40
0.5905760756
 40
0.6324234754
 40
0.6753345639
 40
0.7192469999
 40
0.7640961586
 40
0.8098155359
 40
0.8563366993
 40
0.9035889296
 40
1.0
 40
1.0
 40
1.0
 40
1.0
 10
13.596920998
 20
8.8261780713
 30
0.0
 10
13.5978336999
 20
8.8261147774
 30
0.0
 10
13.5996604134
 20
8.8259131025
 30
0.0
 10
13.6023800157
 20
8.8253874158
 30
0.0
 10
13.6050814319
 20
8.8246385481
 30
0.0
 10
13.6077630996
 20
8.8236671504
 30
0.0
 10
13.6104239489
 20
8.8224737287
 30
0.0
 10
13.6139967554
 20
8.8205585263
 30
0.0
 10
13.6174725439
 20
8.8182140333
 30
0.0
 10
13.6208362154
 20
8.8154971226
 30
0.0
 10
13.6233769301
 20
8.8132064501
 30
0.0
 10
13.6258904966
 20
8.8106992878
 30
0.0
 10
13.6283763216
 20
8.8079765614
 30
0.0
 10
13.6308333588
 20
8.8050394193
 30
0.0
 10
13.6332607096
 20
8.8018890618
 30
0.0
 10
13.6356574684
 20
8.7985267945
 30
0.0
 10
13.6380226557
 20
8.7949539491
 30
0.0
 10
13.6403553808
 20
8.7911719976
 30
0.0
 10
13.6426547111
 20
8.7871824729
 30
0.0
 10
13.6449197205
 20
8.7829869689
 30
0.0
 10
13.6479426264
 20
8.7770220821
 30
0.0
 10
13.6516186288
 20
8.7690515975
 30
0.0
 10
13.6558087715
 20
8.7588465584
 30
0.0
 10
13.6598408395
 20
8.7478656009
 30
0.0
 10
13.6637082197
 20
8.7361266345
 30
0.0
 10
13.6674045773
 20
8.7236486146
 30
0.0
 10
13.6709237991
 20
8.7104518761
 30
0.0
 10
13.6742600396
 20
8.6965579627
 30
0.0
 10
13.6774077443
 20
8.6819896261
 30
0.0
 10
13.6803616859
 20
8.6667707734
 30
0.0
 10
13.6831169439
 20
8.650926409
 30
0.0
 10
13.685668919
 20
8.6344825856
 30
0.0
 10
13.6880133569
 20
8.6174663676
 30
0.0
 10
13.6901463601
 20
8.5999057832
 30
0.0
 10
13.6920643733
 20
8.5818297649
 30
0.0
 10
13.6937641908
 20
8.5632680998
 30
0.0
 10
13.69524298
 20
8.5442513956
 30
0.0
 10
13.6964982879
 20
8.5248110028
 30
0.0
 10
13.6975280095
 20
8.5049789901
 30
0.0
 10
13.6983304328
 20
8.4847880845
 30
0.0
 10
13.6991005448
 20
8.4572490994
 30
0.0
 10
13.6993239364
 20
8.4364375531
 30
0.0
 10
13.6993239364
 20
8.4224718562
 30
0.0
  0
SPLINE
  5
3B3
100
AcDbEntity
  8
0
100
AcDbSpline
 62
7
  6
CONTINUOUS
 70
0
 71
3
 72
39
 73
35
 74
0
 42
0.0000001
 43
0.0000001
 44
0.0000000001
 40
0.0
 40
0.0
 40
0.0
 40
0.0
 40
0.00631605
 40
0.0126710036
 40
0.0191030137
 40
0.0256487366
 40
0.0323427745
 40
0.0392173093
 40
0.0536154999
 40
0.0690527098
 40
0.0856860775
 40
0.103634432
 40
0.1229846057
 40
0.1437975285
 40
0.1661136281
 40
0.1899566057
 40
0.2153367
 40
0.2422532743
 40
0.2706963086
 40
0.3006480514
 40
0.3320841722
 40
0.3649743116
 40
0.3992830784
 40
0.4349705379
 40
0.4719924585
 40
0.5103010083
 40
0.5498449224
 40
0.5905696991
 40
0.6324181177
 40
0.6753302619
 40
0.7192436941
 40
0.8098127521
 40
0.903586456
 40
1.0
 40
1.0
 40
1.0
 40
1.0
 10
13.4185226442
 20
7.411087558
 30
0.0
 10
13.4178888242
 20
7.411131518
 30
0.0
 10
13.4166202761
 20
7.411271585
 30
0.0
 10
13.4147316619
 20
7.4116366334
 30
0.0
 10
13.4128556807
 20
7.4121566916
 30
0.0
 10
13.4109934197
 20
7.4128313062
 30
0.0
 10
13.4091456128
 20
7.4136600397
 30
0.0
 10
13.406664429
 20
7.4149901181
 30
0.0
 10
13.4035941492
 20
7.4170611338
 30
0.0
 10
13.4000429173
 20
7.4201139901
 30
0.0
 10
13.3965707701
 20
7.4237655917
 30
0.0
 10
13.3931817759
 20
7.428009236
 30
0.0
 10
13.3898795959
 20
7.4328382697
 30
0.0
 10
13.3866685368
 20
7.4382452318
 30
0.0
 10
13.3835531925
 20
7.4442218391
 30
0.0
 10
13.3805382485
 20
7.4507587696
 30
0.0
 10
13.3776284071
 20
7.4578457036
 30
0.0
 10
13.3748283815
 20
7.4654713471
 30
0.0
 10
13.372142702
 20
7.4736234148
 30
0.0
 10
13.3695757796
 20
7.4822887002
 30
0.0
 10
13.3671318932
 20
7.4914531059
 30
0.0
 10
13.3648150633
 20
7.501101655
 30
0.0
 10
13.3626291501
 20
7.511218549
 30
0.0
 10
13.3605778154
 20
7.5217871932
 30
0.0
 10
13.3586644431
 20
7.5327902198
 30
0.0
 10
13.3568922382
 20
7.544209535
 30
0.0
 10
13.3552641652
 20
7.5560263445
 30
0.0
 10
13.3537829079
 20
7.5682211869
 30
0.0
 10
13.3524509638
 20
7.5807739671
 30
0.0
 10
13.3512705274
 20
7.5936640137
 30
0.0
 10
13.3498871025
 20
7.6114552092
 30
0.0
 10
13.3485616823
 20
7.6343803453
 30
0.0
 10
13.3476150399
 20
7.6626086308
 30
0.0
 10
13.3474096064
 20
7.6817406759
 30
0.0
 10
13.3474096064
 20
7.6914390849
 30
0.0
  0
SPLINE
  5
3B4
100
AcDbEntity
  8
0
100
AcDbSpline
 62
7
  6
CONTINUOUS
 70
0
 71
3
 72
39
 73
35
 74
0
 42
0.0000001
 43
0.0000001
 44
0.0000000001
 40
0.0
 40
0.0
 40
0.0
 40
0.0
 40
0.0063160566
 40
0.0126710106
 40
0.0191030154
 40
0.0256487277
 40
0.0323427504
 40
0.039217266
 40
0.0536154085
 40
0.0690525617
 40
0.0856858679
 40
0.1036341595
 40
0.1229842714
 40
0.1437971352
 40
0.1661131805
 40
0.1899561089
 40
0.2153361604
 40
0.2422526985
 40
0.2706957037
 40
0.3006474247
 40
0.3320835311
 40
0.3649736636
 40
0.3992824308
 40
0.434969898
 40
0.4719918335
 40
0.5103004051
 40
0.5498443477
 40
0.5905691592
 40
0.6324176188
 40
0.6753298096
 40
0.7192432939
 40
0.8098124703
 40
0.9035863088
 40
1.0
 40
1.0
 40
1.0
 40
1.0
 10
11.9396903994
 20
7.5136449225
 30
0.0
 10
11.9390565775
 20
7.513688874
 30
0.0
 10
11.9377880255
 20
7.5138289241
 30
0.0
 10
11.9358994043
 20
7.5141939481
 30
0.0
 10
11.9340234161
 20
7.5147139827
 30
0.0
 10
11.9321611479
 20
7.5153885747
 30
0.0
 10
11.9303133339
 20
7.5162172864
 30
0.0
 10
11.9278321407
 20
7.5175473364
 30
0.0
 10
11.9247618486
 20
7.5196183189
 30
0.0
 10
11.9212106019
 20
7.5226711401
 30
0.0
 10
11.9177384399
 20
7.5263227101
 30
0.0
 10
11.9143494312
 20
7.5305663263
 30
0.0
 10
11.911047237
 20
7.5353953354
 30
0.0
 10
11.9078361637
 20
7.5408022765
 30
0.0
 10
11.9047208055
 20
7.5467788663
 30
0.0
 10
11.901705848
 20
7.5533157827
 30
0.0
 10
11.8987959932
 20
7.560402706
 30
0.0
 10
11.8959959547
 20
7.5680283424
 30
0.0
 10
11.8933102625
 20
7.5761804062
 30
0.0
 10
11.8907433279
 20
7.584845691
 30
0.0
 10
11.8882994298
 20
7.5940100995
 30
0.0
 10
11.8859825886
 20
7.6036586545
 30
0.0
 10
11.8837966647
 20
7.6137755575
 30
0.0
 10
11.8817453198
 20
7.6243442137
 30
0.0
 10
11.8798319379
 20
7.6353472551
 30
0.0
 10
11.8780597242
 20
7.6467665879
 30
0.0
 10
11.876431643
 20
7.6585834176
 30
0.0
 10
11.8749503781
 20
7.6707782828
 30
0.0
 10
11.8736184272
 20
7.683331088
 30
0.0
 10
11.8724379847
 20
7.6962211619
 30
0.0
 10
11.8710545526
 20
7.7140123976
 30
0.0
 10
11.8697291256
 20
7.7369375884
 30
0.0
 10
11.8687824783
 20
7.7651659438
 30
0.0
 10
11.8685770437
 20
7.7842980374
 30
0.0
 10
11.8685770437
 20
7.7939964715
 30
0.0
  0
SPLINE
  5
3B5
100
AcDbEntity
  8
0
100
AcDbSpline
 62
7
  6
CONTINUOUS
 70
0
 71
3
 72
41
 73
37
 74
0
 42
0.0000001
 43
0.0000001
 44
0.0000000001
 40
0.0
 40
0.0
 40
0.0
 40
0.0
 40
0.031144444
 40
0.0624425093
 40
0.0938872508
 40
0.1254695847
 40
0.1571771078
 40
0.1889951283
 40
0.2209066801
 40
0.2528929859
 40
0.2849338014
 40
0.3170078274
 40
0.3490931225
 40
0.3811675283
 40
0.4132090962
 40
0.4451965119
 40
0.4771095115
 40
0.5089292827
 40
0.5406388458
 40
0.5722234075
 40
0.6036706813
 40
0.6349711679
 40
0.6661183875
 40
0.6971090579
 40
0.7279432122
 40
0.7586242475
 40
0.7891589026
 40
0.8195571573
 40
0.8498320547
 40
0.8649308931
 40
0.8800050545
 40
0.9100832586
 40
0.9400926739
 40
0.9550812746
 40
0.9700610358
 40
1.0
 40
1.0
 40
1.0
 40
1.0
 10
11.5466463242
 20
7.4874841562
 30
0.0
 10
11.5431554713
 20
7.4877262476
 30
0.0
 10
11.5361716708
 20
7.4884671527
 30
0.0
 10
11.525780652
 20
7.4903334621
 30
0.0
 10
11.5155009108
 20
7.4929476644
 30
0.0
 10
11.5053880143
 20
7.4962956118
 30
0.0
 10
11.4954956517
 20
7.5003594195
 30
0.0
 10
11.4858766022
 20
7.5051173196
 30
0.0
 10
11.4765821063
 20
7.5105438986
 30
0.0
 10
11.4676616904
 20
7.5166101771
 30
0.0
 10
11.4591628826
 20
7.5232837875
 30
0.0
 10
11.4511309678
 20
7.5305291359
 30
0.0
 10
11.4436087483
 20
7.5383075942
 30
0.0
 10
11.4366363179
 20
7.5465777024
 30
0.0
 10
11.4302508505
 20
7.5552953883
 30
0.0
 10
11.4244864037
 20
7.5644141994
 30
0.0
 10
11.4193737385
 20
7.5738855483
 30
0.0
 10
11.4149401565
 20
7.5836589678
 30
0.0
 10
11.4112093548
 20
7.5936823771
 30
0.0
 10
11.4082012993
 20
7.6039023554
 30
0.0
 10
11.4059321179
 20
7.6142644231
 30
0.0
 10
11.4044140122
 20
7.6247133277
 30
0.0
 10
11.4036551905
 20
7.6351933359
 30
0.0
 10
11.403659819
 20
7.6456485234
 30
0.0
 10
11.4044279999
 20
7.6560230819
 30
0.0
 10
11.405955745
 20
7.6662615738
 30
0.0
 10
11.4082350654
 20
7.6763093777
 30
0.0
 10
11.4112537305
 20
7.6861124235
 30
0.0
 10
11.4143755298
 20
7.6940425139
 30
0.0
 10
11.41722434
 20
7.7002093819
 30
0.0
 10
11.4202987428
 20
7.7062421671
 30
0.0
 10
11.4245673844
 20
7.7135391323
 30
0.0
 10
11.4293850489
 20
7.7204742342
 30
0.0
 10
11.4335481931
 20
7.7257752725
 30
0.0
 10
11.4379099704
 20
7.7309032554
 30
0.0
 10
11.4414044969
 20
7.7345539557
 30
0.0
 10
11.4438239234
 20
7.7368909402
 30
0.0
  0
SPLINE
  5
3B6
100
AcDbEntity
  8
0
100
AcDbSpline
 62
7
  6
CONTINUOUS
 70
0
 71
3
 72
41
 73
37
 74
0
 42
0.0000001
 43
0.0000001
 44
0.0000000001
 40
0.0
 40
0.0
 40
0.0
 40
0.0
 40
0.031144444
 40
0.0624425093
 40
0.0938872508
 40
0.1254695847
 40
0.1571771078
 40
0.1889951283
 40
0.2209066801
 40
0.2528929859
 40
0.2849338014
 40
0.3170078274
 40
0.3490931225
 40
0.3811675283
 40
0.4132090962
 40
0.4451965119
 40
0.4771095115
 40
0.5089292827
 40
0.5406388458
 40
0.5722234075
 40
0.6036706813
 40
0.6349711679
 40
0.6661183875
 40
0.6971090579
 40
0.7279432122
 40
0.7586242475
 40
0.7891589026
 40
0.8195571573
 40
0.8498320547
 40
0.8649308931
 40
0.8800050545
 40
0.9100832586
 40
0.9400926739
 40
0.9550812746
 40
0.9700610358
 40
1.0
 40
1.0
 40
1.0
 40
1.0
 10
10.0079264544
 20
7.5941947416
 30
0.0
 10
10.0044356015
 20
7.594436833
 30
0.0
 10
9.997451801
 20
7.5951777381
 30
0.0
 10
9.9870607821
 20
7.5970440475
 30
0.0
 10
9.976781041
 20
7.5996582498
 30
0.0
 10
9.9666681445
 20
7.6030061972
 30
0.0
 10
9.9567757819
 20
7.6070700049
 30
0.0
 10
9.9471567324
 20
7.611827905
 30
0.0
 10
9.9378622365
 20
7.617254484
 30
0.0
 10
9.9289418206
 20
7.6233207625
 30
0.0
 10
9.9204430127
 20
7.6299943729
 30
0.0
 10
9.912411098
 20
7.6372397213
 30
0.0
 10
9.9048888784
 20
7.6450181796
 30
0.0
 10
9.8979164481
 20
7.6532882878
 30
0.0
 10
9.8915309807
 20
7.6620059737
 30
0.0
 10
9.8857665339
 20
7.6711247848
 30
0.0
 10
9.8806538687
 20
7.6805961337
 30
0.0
 10
9.8762202867
 20
7.6903695532
 30
0.0
 10
9.872489485
 20
7.7003929625
 30
0.0
 10
9.8694814295
 20
7.7106129408
 30
0.0
 10
9.8672122481
 20
7.7209750085
 30
0.0
 10
9.8656941424
 20
7.7314239132
 30
0.0
 10
9.8649353207
 20
7.7419039213
 30
0.0
 10
9.8649399492
 20
7.7523591088
 30
0.0
 10
9.8657081301
 20
7.7627336673
 30
0.0
 10
9.8672358752
 20
7.7729721592
 30
0.0
 10
9.8695151956
 20
7.7830199631
 30
0.0
 10
9.8725338606
 20
7.7928230089
 30
0.0
 10
9.8756556599
 20
7.8007530993
 30
0.0
 10
9.8785044702
 20
7.8069199674
 30
0.0
 10
9.881578873
 20
7.8129527525
 30
0.0
 10
9.8858475145
 20
7.8202497177
 30
0.0
 10
9.8906651791
 20
7.8271848196
 30
0.0
 10
9.8948283233
 20
7.8324858579
 30
0.0
 10
9.8991901006
 20
7.8376138408
 30
0.0
 10
9.9026846271
 20
7.8412645411
 30
0.0
 10
9.9051040536
 20
7.8436015256
 30
0.0
  0
SPLINE
  5
3B7
100
AcDbEntity
  8
0
100
AcDbSpline
 62
4
  6
CONTINUOUS
 70
0
 71
3
 72
325
 73
321
 74
0
 42
0.0000001
 43
0.0000001
 44
0.0000000001
 40
0.0
 40
0.0
 40
0.0
 40
0.0
 40
0.015625
 40
0.03125
 40
0.0390625
 40
0.046875
 40
0.05078125
 40
0.0546875
 40
0.05859375
 40
0.060546875
 40
0.0615234375
 40
0.0625
 40
0.0634765625
 40
0.064453125
 40
0.06640625
 40
0.0703125
 40
0.07421875
 40
0.078125
 40
0.0859375
 40
0.09375
 40
0.1015625
 40
0.109375
 40
0.11328125
 40
0.1171875
 40
0.12109375
 40
0.123046875
 40
0.1240234375
 40
0.125
 40
0.1259765625
 40
0.126953125
 40
0.12890625
 40
0.1328125
 40
0.13671875
 40
0.140625
 40
0.1484375
 40
0.15625
 40
0.1640625
 40
0.171875
 40
0.17578125
 40
0.1796875
 40
0.18359375
 40
0.185546875
 40
0.1865234375
 40
0.1875
 40
0.1884765625
 40
0.189453125
 40
0.19140625
 40
0.1953125
 40
0.19921875
 40
0.203125
 40
0.2109375
 40
0.21875
 40
0.2265625
 40
0.234375
 40
0.23828125
 40
0.2421875
 40
0.244140625
 40
0.24609375
 40
0.248046875
 40
0.2490234375
 40
0.2495117188
 40
0.25
 40
0.2504882812
 40
0.2509765625
 40
0.251953125
 40
0.25390625
 40
0.255859375
 40
0.2578125
 40
0.26171875
 40
0.265625
 40
0.2734375
 40
0.28125
 40
0.2890625
 40
0.296875
 40
0.30078125
 40
0.3046875
 40
0.306640625
 40
0.30859375
 40
0.310546875
 40
0.3115234375
 40
0.3120117188
 40
0.3125
 40
0.3129882812
 40
0.3134765625
 40
0.314453125
 40
0.31640625
 40
0.318359375
 40
0.3203125
 40
0.32421875
 40
0.328125
 40
0.3359375
 40
0.34375
 40
0.3515625
 40
0.359375
 40
0.36328125
 40
0.3671875
 40
0.369140625
 40
0.37109375
 40
0.373046875
 40
0.3740234375
 40
0.3745117188
 40
0.375
 40
0.3754882812
 40
0.3759765625
 40
0.376953125
 40
0.37890625
 40
0.380859375
 40
0.3828125
 40
0.38671875
 40
0.390625
 40
0.3984375
 40
0.40625
 40
0.4140625
 40
0.41796875
 40
0.421875
 40
0.42578125
 40
0.4296875
 40
0.431640625
 40
0.43359375
 40
0.435546875
 40
0.4365234375
 40
0.4370117188
 40
0.4375
 40
0.4379882812
 40
0.4384765625
 40
0.439453125
 40
0.44140625
 40
0.443359375
 40
0.4453125
 40
0.44921875
 40
0.453125
 40
0.4609375
 40
0.46875
 40
0.4765625
 40
0.48046875
 40
0.484375
 40
0.48828125
 40
0.4921875
 40
0.494140625
 40
0.49609375
 40
0.4970703125
 40
0.498046875
 40
0.4990234375
 40
0.4995117188
 40
0.4997558594
 40
0.5
 40
0.5002441406
 40
0.5004882812
 40
0.5009765625
 40
0.501953125
 40
0.5029296875
 40
0.50390625
 40
0.505859375
 40
0.5078125
 40
0.51171875
 40
0.515625
 40
0.51953125
 40
0.5234375
 40
0.53125
 40
0.5390625
 40
0.54296875
 40
0.546875
 40
0.55078125
 40
0.5546875
 40
0.556640625
 40
0.55859375
 40
0.5595703125
 40
0.560546875
 40
0.5615234375
 40
0.5620117188
 40
0.5622558594
 40
0.5625
 40
0.5627441406
 40
0.5629882812
 40
0.5634765625
 40
0.564453125
 40
0.5654296875
 40
0.56640625
 40
0.568359375
 40
0.5703125
 40
0.57421875
 40
0.578125
 40
0.58203125
 40
0.5859375
 40
0.59375
 40
0.6015625
 40
0.60546875
 40
0.609375
 40
0.61328125
 40
0.6171875
 40
0.619140625
 40
0.62109375
 40
0.6220703125
 40
0.623046875
 40
0.6240234375
 40
0.6245117188
 40
0.6247558594
 40
0.625
 40
0.6252441406
 40
0.6254882812
 40
0.6259765625
 40
0.626953125
 40
0.6279296875
 40
0.62890625
 40
0.630859375
 40
0.6328125
 40
0.63671875
 40
0.640625
 40
0.64453125
 40
0.6484375
 40
0.65625
 40
0.6640625
 40
0.66796875
 40
0.671875
 40
0.67578125
 40
0.6796875
 40
0.681640625
 40
0.68359375
 40
0.6845703125
 40
0.685546875
 40
0.6865234375
 40
0.6870117188
 40
0.6872558594
 40
0.6875
 40
0.6877441406
 40
0.6879882812
 40
0.6884765625
 40
0.689453125
 40
0.6904296875
 40
0.69140625
 40
0.693359375
 40
0.6953125
 40
0.69921875
 40
0.703125
 40
0.70703125
 40
0.7109375
 40
0.71875
 40
0.7265625
 40
0.734375
 40
0.73828125
 40
0.7421875
 40
0.744140625
 40
0.74609375
 40
0.748046875
 40
0.7490234375
 40
0.7495117188
 40
0.75
 40
0.7504882812
 40
0.7509765625
 40
0.751953125
 40
0.75390625
 40
0.755859375
 40
0.7578125
 40
0.76171875
 40
0.765625
 40
0.7734375
 40
0.78125
 40
0.7890625
 40
0.796875
 40
0.80078125
 40
0.8046875
 40
0.806640625
 40
0.80859375
 40
0.810546875
 40
0.8115234375
 40
0.8120117188
 40
0.8125
 40
0.8129882812
 40
0.8134765625
 40
0.814453125
 40
0.81640625
 40
0.818359375
 40
0.8203125
 40
0.82421875
 40
0.828125
 40
0.8359375
 40
0.84375
 40
0.8515625
 40
0.859375
 40
0.86328125
 40
0.8671875
 40
0.869140625
 40
0.87109375
 40
0.873046875
 40
0.8740234375
 40
0.8745117188
 40
0.875
 40
0.8754882812
 40
0.8759765625
 40
0.876953125
 40
0.87890625
 40
0.880859375
 40
0.8828125
 40
0.88671875
 40
0.890625
 40
0.8984375
 40
0.90625
 40
0.9140625
 40
0.921875
 40
0.92578125
 40
0.9296875
 40
0.931640625
 40
0.93359375
 40
0.935546875
 40
0.9365234375
 40
0.9370117188
 40
0.9375
 40
0.9379882812
 40
0.9384765625
 40
0.939453125
 40
0.94140625
 40
0.943359375
 40
0.9453125
 40
0.94921875
 40
0.953125
 40
0.9609375
 40
0.96875
 40
0.9765625
 40
0.984375
 40
1.0
 40
1.0
 40
1.0
 40
1.0
 10
10.6760026519
 20
9.4747527478
 30
0.0
 10
10.672787148
 20
9.4748905229
 30
0.0
 10
10.6663561392
 20
9.4751660696
 30
0.0
 10
10.6583173825
 20
9.4755105201
 30
0.0
 10
10.6518863681
 20
9.4757860448
 30
0.0
 10
10.6478670048
 20
9.4759583285
 30
0.0
 10
10.6446514666
 20
9.4760959705
 30
0.0
 10
10.642239943
 20
9.4761997084
 30
0.0
 10
10.6402299266
 20
9.4762845457
 30
0.0
 10
10.6388237264
 20
9.4763470932
 30
0.0
 10
10.6380189166
 20
9.4763778984
 30
0.0
 10
10.6374188778
 20
9.4764149079
 30
0.0
 10
10.6368051983
 20
9.476398763
 30
0.0
 10
10.6359917169
 20
9.4763957774
 30
0.0
 10
10.6345659077
 20
9.476381914
 30
0.0
 10
10.6325301963
 20
9.4763666254
 30
0.0
 10
10.6300868466
 20
9.476346346
 30
0.0
 10
10.6268292202
 20
9.4763199823
 30
0.0
 10
10.6227571285
 20
9.4762867943
 30
0.0
 10
10.6178706403
 20
9.4762470754
 30
0.0
 10
10.6129841585
 20
9.4762073033
 30
0.0
 10
10.6089120507
 20
9.4761742482
 30
0.0
 10
10.6056544566
 20
9.4761476187
 30
0.0
 10
10.6032110084
 20
9.47612815
 30
0.0
 10
10.601175605
 20
9.476110325
 30
0.0
 10
10.599749246
 20
9.4761009896
 30
0.0
 10
10.5989366455
 20
9.476090749
 30
0.0
 10
10.5983202601
 20
9.4760968888
 30
0.0
 10
10.5977303841
 20
9.4760502009
 30
0.0
 10
10.596934636
 20
9.4760063771
 30
0.0
 10
10.595546385
 20
9.4759211002
 30
0.0
 10
10.593560917
 20
9.4758037645
 30
0.0
 10
10.5911793195
 20
9.4756610405
 30
0.0
 10
10.5880035191
 20
9.475471413
 30
0.0
 10
10.5840338858
 20
9.4752341469
 30
0.0
 10
10.5792702694
 20
9.4749495335
 30
0.0
 10
10.574506691
 20
9.4746648671
 30
0.0
 10
10.5705369626
 20
9.4744277335
 30
0.0
 10
10.5673613524
 20
9.4742378409
 30
0.0
 10
10.5649791749
 20
9.4740959258
 30
0.0
 10
10.5629955212
 20
9.4739760593
 30
0.0
 10
10.5616040314
 20
9.4738953003
 30
0.0
 10
10.5608134726
 20
9.4738442376
 30
0.0
 10
10.5602076567
 20
9.4738197856
 30
0.0
 10
10.559651139
 20
9.4737424109
 30
0.0
 10
10.5588919195
 20
9.4736577047
 30
0.0
 10
10.5575712973
 20
9.4735008679
 30
0.0
 10
10.5556805055
 20
9.4732813121
 30
0.0
 10
10.5534133483
 20
9.4730159204
 30
0.0
 10
10.5503898456
 20
9.4726627371
 30
0.0
 10
10.5466106825
 20
9.4722210271
 30
0.0
 10
10.542075593
 20
9.4716910746
 30
0.0
 10
10.5375405341
 20
9.4711610935
 30
0.0
 10
10.5337612947
 20
9.4707194553
 30
0.0
 10
10.5307379446
 20
9.4703661285
 30
0.0
 10
10.5288482589
 20
9.4701453333
 30
0.0
 10
10.5273367206
 20
9.4699686196
 30
0.0
 10
10.5262024914
 20
9.4698362966
 30
0.0
 10
10.5252591307
 20
9.4697253521
 30
0.0
 10
10.5245951865
 20
9.4696490163
 30
0.0
 10
10.524221398
 20
9.4696033263
 30
0.0
 10
10.5239252582
 20
9.4695748887
 30
0.0
 10
10.5236895081
 20
9.4695241665
 30
0.0
 10
10.52335411
 20
9.46946431
 30
0.0
 10
10.5227769777
 20
9.4693559394
 30
0.0
 10
10.5219473719
 20
9.4692030178
 30
0.0
 10
10.5209540413
 20
9.4690187014
 30
0.0
 10
10.5196288334
 20
9.4687732292
 30
0.0
 10
10.5179725861
 20
9.4684662921
 30
0.0
 10
10.5153224436
 20
9.4679752469
 30
0.0
 10
10.5120098162
 20
9.4673614217
 30
0.0
 10
10.50803464
 20
9.46662484
 30
0.0
 10
10.5040594761
 20
9.4658882542
 30
0.0
 10
10.500746818
 20
9.4652744392
 30
0.0
 10
10.498096737
 20
9.4647833737
 30
0.0
 10
10.4964403334
 20
9.4644764882
 30
0.0
 10
10.4951154464
 20
9.4642309101
 30
0.0
 10
10.4941211353
 20
9.4640469174
 30
0.0
 10
10.4932945971
 20
9.4638929828
 30
0.0
 10
10.4927119887
 20
9.4637864206
 30
0.0
 10
10.4923853648
 20
9.4637236667
 30
0.0
 10
10.4921226631
 20
9.4636818442
 30
0.0
 10
10.491927749
 20
9.4636199806
 30
0.0
 10
10.4916442183
 20
9.4635444864
 30
0.0
 10
10.4911590564
 20
9.4634091144
 30
0.0
 10
10.4904602083
 20
9.4632174287
 30
0.0
 10
10.4896240559
 20
9.4629866771
 30
0.0
 10
10.4885083249
 20
9.4626792627
 30
0.0
 10
10.4871139561
 20
9.4622949077
 30
0.0
 10
10.484882801
 20
9.4616799883
 30
0.0
 10
10.4820939143
 20
9.4609113222
 30
0.0
 10
10.4787472238
 20
9.4599889306
 30
0.0
 10
10.4754005476
 20
9.4590665354
 30
0.0
 10
10.472611625
 20
9.4582978781
 30
0.0
 10
10.4703805416
 20
9.4576829413
 30
0.0
 10
10.4689859906
 20
9.4572986305
 30
0.0
 10
10.4678706335
 20
9.4569911253
 30
0.0
 10
10.4670333389
 20
9.4567606512
 30
0.0
 10
10.4663380645
 20
9.456568097
 30
0.0
 10
10.4658465229
 20
9.4564342756
 30
0.0
 10
10.4655732141
 20
9.456356297
 30
0.0
 10
10.4653469018
 20
9.4563020646
 30
0.0
 10
10.4652021262
 20
9.4562315805
 30
0.0
 10
10.4649806511
 20
9.4561432706
 30
0.0
 10
10.4646063208
 20
9.4559860869
 30
0.0
 10
10.4640646355
 20
9.4557629197
 30
0.0
 10
10.4634175784
 20
9.455494528
 30
0.0
 10
10.4625537999
 20
9.4551368789
 30
0.0
 10
10.4614744314
 20
9.4546897468
 30
0.0
 10
10.4597472437
 20
9.4539743749
 30
0.0
 10
10.4575883268
 20
9.4530801465
 30
0.0
 10
10.4549975981
 20
9.4520070782
 30
0.0
 10
10.4528386622
 20
9.4511128535
 30
0.0
 10
10.4511115164
 20
9.4503974734
 30
0.0
 10
10.4498161454
 20
9.4498609402
 30
0.0
 10
10.4485208193
 20
9.4493243998
 30
0.0
 10
10.4474412412
 20
9.4488773049
 30
0.0
 10
10.4465778916
 20
9.4485195795
 30
0.0
 10
10.4459295245
 20
9.4482514208
 30
0.0
 10
10.4453919378
 20
9.4480275248
 30
0.0
 10
10.4450102908
 20
9.4478716422
 30
0.0
 10
10.4448005391
 20
9.4477812477
 30
0.0
 10
10.4446197529
 20
9.4477171666
 30
0.0
 10
10.44452869
 20
9.4476388857
 30
0.0
 10
10.4443759764
 20
9.4475394642
 30
0.0
 10
10.4441233091
 20
9.4473631688
 30
0.0
 10
10.4437547323
 20
9.4471125248
 30
0.0
 10
10.4433157033
 20
9.4468112355
 30
0.0
 10
10.4427291916
 20
9.4464096968
 30
0.0
 10
10.4419964421
 20
9.4459077118
 30
0.0
 10
10.4408238249
 20
9.4451045702
 30
0.0
 10
10.4393581283
 20
9.4441006314
 30
0.0
 10
10.4375992602
 20
9.4428959099
 30
0.0
 10
10.436133544
 20
9.4418919742
 30
0.0
 10
10.4349609699
 20
9.4410888258
 30
0.0
 10
10.4340815383
 20
9.4404864645
 30
0.0
 10
10.4332021115
 20
9.4398841031
 30
0.0
 10
10.4324692405
 20
9.4393821359
 30
0.0
 10
10.4318829782
 20
9.4389805606
 30
0.0
 10
10.4315164856
 20
9.4387295796
 30
0.0
 10
10.4312234717
 20
9.4385287866
 30
0.0
 10
10.4310032179
 20
9.4383782143
 30
0.0
 10
10.4308212427
 20
9.438252666
 30
0.0
 10
10.4306907797
 20
9.4381649222
 30
0.0
 10
10.4306210392
 20
9.4381145643
 30
0.0
 10
10.4305551845
 20
9.4380774115
 30
0.0
 10
10.4305411221
 20
9.4380379058
 30
0.0
 10
10.4305043066
 20
9.4379860523
 30
0.0
 10
10.4304482966
 20
9.4378949263
 30
0.0
 10
10.4303638817
 20
9.4377649462
 30
0.0
 10
10.4302644674
 20
9.4376088846
 30
0.0
 10
10.4301312571
 20
9.4374008322
 30
0.0
 10
10.4299649694
 20
9.4371407565
 30
0.0
 10
10.4296987834
 20
9.4367246412
 30
0.0
 10
10.429366094
 20
9.436204495
 30
0.0
 10
10.4289668482
 20
9.4355803205
 30
0.0
 10
10.4285676074
 20
9.4349561457
 30
0.0
 10
10.4280352845
 20
9.4341239127
 30
0.0
 10
10.4273698816
 20
9.4330836215
 30
0.0
 10
10.4267044783
 20
9.4320433303
 30
0.0
 10
10.4261721561
 20
9.4312110973
 30
0.0
 10
10.4257729132
 20
9.4305869226
 30
0.0
 10
10.4253736752
 20
9.4299627478
 30
0.0
 10
10.4250409616
 20
9.4294426024
 30
0.0
 10
10.424774825
 20
9.4290264854
 30
0.0
 10
10.4246084115
 20
9.4287664137
 30
0.0
 10
10.4244754595
 20
9.4285583533
 30
0.0
 10
10.4243752563
 20
9.4284023163
 30
0.0
 10
10.4242933096
 20
9.4282722588
 30
0.0
 10
10.4242328933
 20
9.428181271
 30
0.0
 10
10.4242031378
 20
9.4281291961
 30
0.0
 10
10.4241673893
 20
9.4280903707
 30
0.0
 10
10.4241829841
 20
9.4280506628
 30
0.0
 10
10.424185868
 20
9.4279980267
 30
0.0
 10
10.424199259
 20
9.4279057701
 30
0.0
 10
10.4242140266
 20
9.42777405
 30
0.0
 10
10.424233615
 20
9.4276159538
 30
0.0
 10
10.4242590807
 20
9.42740517
 30
0.0
 10
10.4242911361
 20
9.4271416865
 30
0.0
 10
10.4243422999
 20
9.426720115
 30
0.0
 10
10.4244062975
 20
9.4261931498
 30
0.0
 10
10.4244830762
 20
9.425560792
 30
0.0
 10
10.4245598599
 20
9.424928434
 30
0.0
 10
10.4246622363
 20
9.4240852902
 30
0.0
 10
10.4247902076
 20
9.4230313603
 30
0.0
 10
10.4249181784
 20
9.4219774304
 30
0.0
 10
10.4250205556
 20
9.4211342866
 30
0.0
 10
10.4250973372
 20
9.4205019286
 30
0.0
 10
10.4251741236
 20
9.4198695708
 30
0.0
 10
10.4252380972
 20
9.4193426055
 30
0.0
 10
10.42528931
 20
9.4189210344
 30
0.0
 10
10.4253212406
 20
9.4186575498
 30
0.0
 10
10.4253469625
 20
9.4184467682
 30
0.0
 10
10.4253657679
 20
9.4182886656
 30
0.0
 10
10.4253829855
 20
9.4181569654
 30
0.0
 10
10.4253920028
 20
9.4180646732
 30
0.0
 10
10.4254018944
 20
9.4180120942
 30
0.0
 10
10.4253959638
 20
9.4179722111
 30
0.0
 10
10.425441061
 20
9.4179340434
 30
0.0
 10
10.4254833915
 20
9.4178825547
 30
0.0
 10
10.4255657628
 20
9.4177927283
 30
0.0
 10
10.4256791004
 20
9.4176642592
 30
0.0
 10
10.4258169614
 20
9.4175101586
 30
0.0
 10
10.4260001278
 20
9.4173046694
 30
0.0
 10
10.4262293077
 20
9.4170478153
 30
0.0
 10
10.4265958716
 20
9.4166368447
 30
0.0
 10
10.427054119
 20
9.4161231328
 30
0.0
 10
10.4276039976
 20
9.4155066779
 30
0.0
 10
10.4281538811
 20
9.4148902231
 30
0.0
 10
10.4288870574
 20
9.4140682834
 30
0.0
 10
10.4298035285
 20
9.4130408588
 30
0.0
 10
10.430719999
 20
9.4120134341
 30
0.0
 10
10.431453176
 20
9.4111914945
 30
0.0
 10
10.4320030575
 20
9.4105750396
 30
0.0
 10
10.4325529439
 20
9.4099585851
 30
0.0
 10
10.4330111672
 20
9.409444872
 30
0.0
 10
10.4333777801
 20
9.4090339037
 30
0.0
 10
10.4336068354
 20
9.4087770436
 30
0.0
 10
10.4337902576
 20
9.4085715667
 30
0.0
 10
10.4339273372
 20
9.4084174286
 30
0.0
 10
10.4340431194
 20
9.4082890769
 30
0.0
 10
10.4341211266
 20
9.4081990409
 30
0.0
 10
10.4341704495
 20
9.4081478881
 30
0.0
 10
10.4341940684
 20
9.4081086889
 30
0.0
 10
10.4342688066
 20
9.4080726796
 30
0.0
 10
10.4343506266
 20
9.4080235545
 30
0.0
 10
10.4345021194
 20
9.4079381041
 30
0.0
 10
10.4347141942
 20
9.4078157609
 30
0.0
 10
10.4349705432
 20
9.4076690652
 30
0.0
 10
10.4353116924
 20
9.4074734303
 30
0.0
 10
10.4357383512
 20
9.4072289006
 30
0.0
 10
10.4364208812
 20
9.4068376454
 30
0.0
 10
10.4372740862
 20
9.406348579
 30
0.0
 10
10.438297914
 20
9.4057616981
 30
0.0
 10
10.4393217466
 20
9.4051748176
 30
0.0
 10
10.4406868553
 20
9.4043923101
 30
0.0
 10
10.44239324
 20
9.4034141755
 30
0.0
 10
10.4444409097
 20
9.4022404155
 30
0.0
 10
10.4461472755
 20
9.4012622775
 30
0.0
 10
10.4475124256
 20
9.4004797775
 30
0.0
 10
10.4483655136
 20
9.3999906913
 30
0.0
 10
10.4490482836
 20
9.3995994767
 30
0.0
 10
10.4495595409
 20
9.3993059169
 30
0.0
 10
10.449988198
 20
9.3990617573
 30
0.0
 10
10.450283137
 20
9.3988899161
 30
0.0
 10
10.4504596696
 20
9.3987931726
 30
0.0
 10
10.4505695442
 20
9.398716526
 30
0.0
 10
10.45076552
 20
9.3986555094
 30
0.0
 10
10.450996788
 20
9.3985687021
 30
0.0
 10
10.4514155
 20
9.3984193294
 30
0.0
 10
10.4520063443
 20
9.3982046118
 30
0.0
 10
10.4527184889
 20
9.3979475191
 30
0.0
 10
10.4536669212
 20
9.3976045304
 30
0.0
 10
10.4548528361
 20
9.3971758624
 30
0.0
 10
10.4567500906
 20
9.3964899556
 30
0.0
 10
10.459121731
 20
9.3956325852
 30
0.0
 10
10.4619676666
 20
9.3946037348
 30
0.0
 10
10.4648136179
 20
9.3935748875
 30
0.0
 10
10.4671852191
 20
9.3927175092
 30
0.0
 10
10.469082552
 20
9.3920316183
 30
0.0
 10
10.4702682675
 20
9.3916029099
 30
0.0
 10
10.4712171092
 20
9.3912600042
 30
0.0
 10
10.4719280029
 20
9.3910026577
 30
0.0
 10
10.472522761
 20
9.3907887341
 30
0.0
 10
10.4729344862
 20
9.3906379441
 30
0.0
 10
10.4731769488
 20
9.3905534077
 30
0.0
 10
10.4733385386
 20
9.3904854155
 30
0.0
 10
10.4735775614
 20
9.3904349681
 30
0.0
 10
10.4738692489
 20
9.390361585
 30
0.0
 10
10.4743922864
 20
9.3902360159
 30
0.0
 10
10.4751329036
 20
9.3900551409
 30
0.0
 10
10.4760244604
 20
9.3898387289
 30
0.0
 10
10.4772122191
 20
9.3895499567
 30
0.0
 10
10.4786972543
 20
9.3891890678
 30
0.0
 10
10.4810731223
 20
9.3886116029
 30
0.0
 10
10.4840430223
 20
9.3878897865
 30
0.0
 10
10.4876068729
 20
9.3870235999
 30
0.0
 10
10.491170737
 20
9.3861574171
 30
0.0
 10
10.4941406034
 20
9.3854355914
 30
0.0
 10
10.4965165387
 20
9.384858145
 30
0.0
 10
10.4980014028
 20
9.384497209
 30
0.0
 10
10.4991895126
 20
9.3842085335
 30
0.0
 10
10.5000799968
 20
9.3839918259
 30
0.0
 10
10.5008239699
 20
9.3838118758
 30
0.0
 10
10.5013410165
 20
9.3836846556
 30
0.0
 10
10.5016423029
 20
9.3836139181
 30
0.0
 10
10.501851841
 20
9.3835553443
 30
0.0
 10
10.5021241707
 20
9.3835178736
 30
0.0
 10
10.5024653745
 20
9.3834605517
 30
0.0
 10
10.5030726859
 20
9.383363668
 30
0.0
 10
10.5039349384
 20
9.3832234696
 30
0.0
 10
10.5049719252
 20
9.383055999
 30
0.0
 10
10.5063537765
 20
9.3828324369
 30
0.0
 10
10.5080813637
 20
9.382553076
 30
0.0
 10
10.5108453507
 20
9.3821060473
 30
0.0
 10
10.514300387
 20
9.3815472791
 30
0.0
 10
10.5184464068
 20
9.3808767491
 30
0.0
 10
10.5225924378
 20
9.3802062234
 30
0.0
 10
10.5260474459
 20
9.3796474445
 30
0.0
 10
10.5288114893
 20
9.3792004371
 30
0.0
 10
10.530538933
 20
9.3789210221
 30
0.0
 10
10.5319210789
 20
9.378697571
 30
0.0
 10
10.5329571657
 20
9.3785297613
 30
0.0
 10
10.5338222341
 20
9.3783906238
 30
0.0
 10
10.5344245188
 20
9.3782918463
 30
0.0
 10
10.5347737766
 20
9.3782375587
 30
0.0
 10
10.535021367
 20
9.3781907678
 30
0.0
 10
10.5353238217
 20
9.378167199
 30
0.0
 10
10.5357079574
 20
9.3781276738
 30
0.0
 10
10.5363891113
 20
9.3780622787
 30
0.0
 10
10.5373575268
 20
9.3779668841
 30
0.0
 10
10.5385216206
 20
9.3778532551
 30
0.0
 10
10.5400730487
 20
9.3777014548
 30
0.0
 10
10.5420125725
 20
9.3775118054
 30
0.0
 10
10.5451156773
 20
9.3772083098
 30
0.0
 10
10.548994604
 20
9.3768289598
 30
0.0
 10
10.5536492964
 20
9.3763737315
 30
0.0
 10
10.5583039941
 20
9.3759185054
 30
0.0
 10
10.5645102558
 20
9.3753115365
 30
0.0
 10
10.5691649525
 20
9.37485631
 30
0.0
 10
10.5722680835
 20
9.3745528256
 30
0.0
  0
SPLINE
  5
3B8
100
AcDbEntity
  8
0
100
AcDbSpline
 62
4
  6
CONTINUOUS
 70
0
 71
3
 72
325
 73
321
 74
0
 42
0.0000001
 43
0.0000001
 44
0.0000000001
 40
0.0
 40
0.0
 40
0.0
 40
0.0
 40
0.015625
 40
0.03125
 40
0.0390625
 40
0.046875
 40
0.05078125
 40
0.0546875
 40
0.05859375
 40
0.060546875
 40
0.0615234375
 40
0.0625
 40
0.0634765625
 40
0.064453125
 40
0.06640625
 40
0.0703125
 40
0.07421875
 40
0.078125
 40
0.0859375
 40
0.09375
 40
0.1015625
 40
0.109375
 40
0.11328125
 40
0.1171875
 40
0.12109375
 40
0.123046875
 40
0.1240234375
 40
0.125
 40
0.1259765625
 40
0.126953125
 40
0.12890625
 40
0.1328125
 40
0.13671875
 40
0.140625
 40
0.1484375
 40
0.15625
 40
0.1640625
 40
0.171875
 40
0.17578125
 40
0.1796875
 40
0.18359375
 40
0.185546875
 40
0.1865234375
 40
0.1875
 40
0.1884765625
 40
0.189453125
 40
0.19140625
 40
0.1953125
 40
0.19921875
 40
0.203125
 40
0.2109375
 40
0.21875
 40
0.2265625
 40
0.234375
 40
0.23828125
 40
0.2421875
 40
0.244140625
 40
0.24609375
 40
0.248046875
 40
0.2490234375
 40
0.2495117188
 40
0.25
 40
0.2504882812
 40
0.2509765625
 40
0.251953125
 40
0.25390625
 40
0.255859375
 40
0.2578125
 40
0.26171875
 40
0.265625
 40
0.2734375
 40
0.28125
 40
0.2890625
 40
0.296875
 40
0.30078125
 40
0.3046875
 40
0.306640625
 40
0.30859375
 40
0.310546875
 40
0.3115234375
 40
0.3120117188
 40
0.3125
 40
0.3129882812
 40
0.3134765625
 40
0.314453125
 40
0.31640625
 40
0.318359375
 40
0.3203125
 40
0.32421875
 40
0.328125
 40
0.3359375
 40
0.34375
 40
0.3515625
 40
0.359375
 40
0.36328125
 40
0.3671875
 40
0.369140625
 40
0.37109375
 40
0.373046875
 40
0.3740234375
 40
0.3745117188
 40
0.375
 40
0.3754882812
 40
0.3759765625
 40
0.376953125
 40
0.37890625
 40
0.380859375
 40
0.3828125
 40
0.38671875
 40
0.390625
 40
0.3984375
 40
0.40625
 40
0.4140625
 40
0.41796875
 40
0.421875
 40
0.42578125
 40
0.4296875
 40
0.431640625
 40
0.43359375
 40
0.435546875
 40
0.4365234375
 40
0.4370117188
 40
0.4375
 40
0.4379882812
 40
0.4384765625
 40
0.439453125
 40
0.44140625
 40
0.443359375
 40
0.4453125
 40
0.44921875
 40
0.453125
 40
0.4609375
 40
0.46875
 40
0.4765625
 40
0.48046875
 40
0.484375
 40
0.48828125
 40
0.4921875
 40
0.494140625
 40
0.49609375
 40
0.4970703125
 40
0.498046875
 40
0.4990234375
 40
0.4995117188
 40
0.4997558594
 40
0.5
 40
0.5002441406
 40
0.5004882812
 40
0.5009765625
 40
0.501953125
 40
0.5029296875
 40
0.50390625
 40
0.505859375
 40
0.5078125
 40
0.51171875
 40
0.515625
 40
0.51953125
 40
0.5234375
 40
0.53125
 40
0.5390625
 40
0.54296875
 40
0.546875
 40
0.55078125
 40
0.5546875
 40
0.556640625
 40
0.55859375
 40
0.5595703125
 40
0.560546875
 40
0.5615234375
 40
0.5620117188
 40
0.5622558594
 40
0.5625
 40
0.5627441406
 40
0.5629882812
 40
0.5634765625
 40
0.564453125
 40
0.5654296875
 40
0.56640625
 40
0.568359375
 40
0.5703125
 40
0.57421875
 40
0.578125
 40
0.58203125
 40
0.5859375
 40
0.59375
 40
0.6015625
 40
0.60546875
 40
0.609375
 40
0.61328125
 40
0.6171875
 40
0.619140625
 40
0.62109375
 40
0.6220703125
 40
0.623046875
 40
0.6240234375
 40
0.6245117188
 40
0.6247558594
 40
0.625
 40
0.6252441406
 40
0.6254882812
 40
0.6259765625
 40
0.626953125
 40
0.6279296875
 40
0.62890625
 40
0.630859375
 40
0.6328125
 40
0.63671875
 40
0.640625
 40
0.64453125
 40
0.6484375
 40
0.65625
 40
0.6640625
 40
0.66796875
 40
0.671875
 40
0.67578125
 40
0.6796875
 40
0.681640625
 40
0.68359375
 40
0.6845703125
 40
0.685546875
 40
0.6865234375
 40
0.6870117188
 40
0.6872558594
 40
0.6875
 40
0.6877441406
 40
0.6879882812
 40
0.6884765625
 40
0.689453125
 40
0.6904296875
 40
0.69140625
 40
0.693359375
 40
0.6953125
 40
0.69921875
 40
0.703125
 40
0.70703125
 40
0.7109375
 40
0.71875
 40
0.7265625
 40
0.734375
 40
0.73828125
 40
0.7421875
 40
0.744140625
 40
0.74609375
 40
0.748046875
 40
0.7490234375
 40
0.7495117188
 40
0.75
 40
0.7504882812
 40
0.7509765625
 40
0.751953125
 40
0.75390625
 40
0.755859375
 40
0.7578125
 40
0.76171875
 40
0.765625
 40
0.7734375
 40
0.78125
 40
0.7890625
 40
0.796875
 40
0.80078125
 40
0.8046875
 40
0.806640625
 40
0.80859375
 40
0.810546875
 40
0.8115234375
 40
0.8120117188
 40
0.8125
 40
0.8129882812
 40
0.8134765625
 40
0.814453125
 40
0.81640625
 40
0.818359375
 40
0.8203125
 40
0.82421875
 40
0.828125
 40
0.8359375
 40
0.84375
 40
0.8515625
 40
0.859375
 40
0.86328125
 40
0.8671875
 40
0.869140625
 40
0.87109375
 40
0.873046875
 40
0.8740234375
 40
0.8745117188
 40
0.875
 40
0.8754882812
 40
0.8759765625
 40
0.876953125
 40
0.87890625
 40
0.880859375
 40
0.8828125
 40
0.88671875
 40
0.890625
 40
0.8984375
 40
0.90625
 40
0.9140625
 40
0.921875
 40
0.92578125
 40
0.9296875
 40
0.931640625
 40
0.93359375
 40
0.935546875
 40
0.9365234375
 40
0.9370117188
 40
0.9375
 40
0.9379882812
 40
0.9384765625
 40
0.939453125
 40
0.94140625
 40
0.943359375
 40
0.9453125
 40
0.94921875
 40
0.953125
 40
0.9609375
 40
0.96875
 40
0.9765625
 40
0.984375
 40
1.0
 40
1.0
 40
1.0
 40
1.0
 10
10.5722680666
 20
9.3745528268
 30
0.0
 10
10.5754835705
 20
9.3744150517
 30
0.0
 10
10.5819145793
 20
9.3741395049
 30
0.0
 10
10.589953336
 20
9.3737950544
 30
0.0
 10
10.5963843504
 20
9.3735195298
 30
0.0
 10
10.6004037138
 20
9.3733472461
 30
0.0
 10
10.6036192519
 20
9.3732096041
 30
0.0
 10
10.6060307755
 20
9.3731058662
 30
0.0
 10
10.6080407919
 20
9.3730210289
 30
0.0
 10
10.6094469921
 20
9.3729584813
 30
0.0
 10
10.6102518019
 20
9.3729276762
 30
0.0
 10
10.6108518407
 20
9.3728906667
 30
0.0
 10
10.6114655202
 20
9.3729068115
 30
0.0
 10
10.6122790016
 20
9.3729097972
 30
0.0
 10
10.6137048108
 20
9.3729236606
 30
0.0
 10
10.6157405222
 20
9.3729389491
 30
0.0
 10
10.6181838719
 20
9.3729592285
 30
0.0
 10
10.6214414983
 20
9.3729855923
 30
0.0
 10
10.62551359
 20
9.3730187802
 30
0.0
 10
10.6304000782
 20
9.3730584992
 30
0.0
 10
10.63528656
 20
9.3730982713
 30
0.0
 10
10.6393586678
 20
9.3731313263
 30
0.0
 10
10.642616262
 20
9.3731579559
 30
0.0
 10
10.6450597101
 20
9.3731774245
 30
0.0
 10
10.6470951135
 20
9.3731952495
 30
0.0
 10
10.6485214725
 20
9.373204585
 30
0.0
 10
10.649334073
 20
9.3732148255
 30
0.0
 10
10.6499504584
 20
9.3732086857
 30
0.0
 10
10.6505403344
 20
9.3732553737
 30
0.0
 10
10.6513360825
 20
9.3732991974
 30
0.0
 10
10.6527243335
 20
9.3733844744
 30
0.0
 10
10.6547098015
 20
9.37350181
 30
0.0
 10
10.657091399
 20
9.3736445341
 30
0.0
 10
10.6602671994
 20
9.3738341615
 30
0.0
 10
10.6642368328
 20
9.3740714277
 30
0.0
 10
10.6690004491
 20
9.374356041
 30
0.0
 10
10.6737640275
 20
9.3746407075
 30
0.0
 10
10.6777337559
 20
9.374877841
 30
0.0
 10
10.6809093661
 20
9.3750677337
 30
0.0
 10
10.6832915436
 20
9.3752096487
 30
0.0
 10
10.6852751973
 20
9.3753295153
 30
0.0
 10
10.6866666871
 20
9.3754102742
 30
0.0
 10
10.6874572459
 20
9.3754613369
 30
0.0
 10
10.6880630618
 20
9.375485789
 30
0.0
 10
10.6886195795
 20
9.3755631636
 30
0.0
 10
10.689378799
 20
9.3756478699
 30
0.0
 10
10.6906994212
 20
9.3758047066
 30
0.0
 10
10.692590213
 20
9.3760242624
 30
0.0
 10
10.6948573702
 20
9.3762896542
 30
0.0
 10
10.6978808729
 20
9.3766428375
 30
0.0
 10
10.701660036
 20
9.3770845474
 30
0.0
 10
10.7061951255
 20
9.3776144999
 30
0.0
 10
10.7107301844
 20
9.378144481
 30
0.0
 10
10.7145094238
 20
9.3785861193
 30
0.0
 10
10.7175327739
 20
9.378939446
 30
0.0
 10
10.7194224596
 20
9.3791602412
 30
0.0
 10
10.7209339979
 20
9.3793369549
 30
0.0
 10
10.7220682271
 20
9.3794692779
 30
0.0
 10
10.7230115878
 20
9.3795802225
 30
0.0
 10
10.723675532
 20
9.3796565582
 30
0.0
 10
10.7240493205
 20
9.3797022482
 30
0.0
 10
10.7243454603
 20
9.3797306858
 30
0.0
 10
10.7245812105
 20
9.3797814081
 30
0.0
 10
10.7249166085
 20
9.3798412646
 30
0.0
 10
10.7254937408
 20
9.3799496351
 30
0.0
 10
10.7263233466
 20
9.3801025568
 30
0.0
 10
10.7273166772
 20
9.3802868732
 30
0.0
 10
10.7286418851
 20
9.3805323453
 30
0.0
 10
10.7302981324
 20
9.3808392824
 30
0.0
 10
10.7329482749
 20
9.3813303276
 30
0.0
 10
10.7362609023
 20
9.3819441528
 30
0.0
 10
10.7402360785
 20
9.3826807346
 30
0.0
 10
10.7442112424
 20
9.3834173203
 30
0.0
 10
10.7475239005
 20
9.3840311354
 30
0.0
 10
10.7501739815
 20
9.3845222009
 30
0.0
 10
10.7518303851
 20
9.3848290864
 30
0.0
 10
10.7531552721
 20
9.3850746645
 30
0.0
 10
10.7541495832
 20
9.3852586571
 30
0.0
 10
10.7549761214
 20
9.3854125917
 30
0.0
 10
10.7555587298
 20
9.385519154
 30
0.0
 10
10.7558853537
 20
9.3855819079
 30
0.0
 10
10.7561480554
 20
9.3856237303
 30
0.0
 10
10.7563429696
 20
9.3856855939
 30
0.0
 10
10.7566265002
 20
9.3857610882
 30
0.0
 10
10.7571116621
 20
9.3858964601
 30
0.0
 10
10.7578105102
 20
9.3860881458
 30
0.0
 10
10.7586466626
 20
9.3863188975
 30
0.0
 10
10.7597623936
 20
9.3866263118
 30
0.0
 10
10.7611567624
 20
9.3870106669
 30
0.0
 10
10.7633879175
 20
9.3876255863
 30
0.0
 10
10.7661768042
 20
9.3883942523
 30
0.0
 10
10.7695234948
 20
9.389316644
 30
0.0
 10
10.7728701709
 20
9.3902390391
 30
0.0
 10
10.7756590935
 20
9.3910076964
 30
0.0
 10
10.7778901769
 20
9.3916226333
 30
0.0
 10
10.7792847279
 20
9.3920069441
 30
0.0
 10
10.780400085
 20
9.3923144492
 30
0.0
 10
10.7812373796
 20
9.3925449233
 30
0.0
 10
10.781932654
 20
9.3927374776
 30
0.0
 10
10.7824241956
 20
9.392871299
 30
0.0
 10
10.7826975044
 20
9.3929492776
 30
0.0
 10
10.7829238167
 20
9.39300351
 30
0.0
 10
10.7830685924
 20
9.393073994
 30
0.0
 10
10.7832900674
 20
9.393162304
 30
0.0
 10
10.7836643977
 20
9.3933194876
 30
0.0
 10
10.784206083
 20
9.3935426548
 30
0.0
 10
10.7848531401
 20
9.3938110465
 30
0.0
 10
10.7857169186
 20
9.3941686956
 30
0.0
 10
10.7867962871
 20
9.3946158278
 30
0.0
 10
10.7885234748
 20
9.3953311996
 30
0.0
 10
10.7906823917
 20
9.396225428
 30
0.0
 10
10.7932731204
 20
9.3972984964
 30
0.0
 10
10.7954320563
 20
9.398192721
 30
0.0
 10
10.7971592021
 20
9.3989081011
 30
0.0
 10
10.7984545731
 20
9.3994446344
 30
0.0
 10
10.7997498992
 20
9.3999811747
 30
0.0
 10
10.8008294773
 20
9.4004282696
 30
0.0
 10
10.8016928269
 20
9.400785995
 30
0.0
 10
10.802341194
 20
9.4010541537
 30
0.0
 10
10.8028787807
 20
9.4012780497
 30
0.0
 10
10.8032604278
 20
9.4014339324
 30
0.0
 10
10.8034701794
 20
9.4015243269
 30
0.0
 10
10.8036509656
 20
9.4015884079
 30
0.0
 10
10.8037420285
 20
9.4016666889
 30
0.0
 10
10.8038947421
 20
9.4017661104
 30
0.0
 10
10.8041474095
 20
9.4019424058
 30
0.0
 10
10.8045159862
 20
9.4021930498
 30
0.0
 10
10.8049550152
 20
9.4024943391
 30
0.0
 10
10.8055415269
 20
9.4028958777
 30
0.0
 10
10.8062742764
 20
9.4033978628
 30
0.0
 10
10.8074468936
 20
9.4042010043
 30
0.0
 10
10.8089125902
 20
9.4052049431
 30
0.0
 10
10.8106714583
 20
9.4064096646
 30
0.0
 10
10.8121371745
 20
9.4074136004
 30
0.0
 10
10.8133097486
 20
9.4082167487
 30
0.0
 10
10.8141891802
 20
9.40881911
 30
0.0
 10
10.815068607
 20
9.4094214715
 30
0.0
 10
10.815801478
 20
9.4099234386
 30
0.0
 10
10.8163877403
 20
9.410325014
 30
0.0
 10
10.8167542329
 20
9.410575995
 30
0.0
 10
10.8170472468
 20
9.410776788
 30
0.0
 10
10.8172675006
 20
9.4109273603
 30
0.0
 10
10.8174494758
 20
9.4110529085
 30
0.0
 10
10.8175799388
 20
9.4111406524
 30
0.0
 10
10.8176496794
 20
9.4111910102
 30
0.0
 10
10.817715534
 20
9.4112281631
 30
0.0
 10
10.8177295964
 20
9.4112676687
 30
0.0
 10
10.8177664119
 20
9.4113195222
 30
0.0
 10
10.8178224219
 20
9.4114106482
 30
0.0
 10
10.8179068369
 20
9.4115406283
 30
0.0
 10
10.8180062512
 20
9.41169669
 30
0.0
 10
10.8181394615
 20
9.4119047423
 30
0.0
 10
10.8183057491
 20
9.412164818
 30
0.0
 10
10.8185719351
 20
9.4125809334
 30
0.0
 10
10.8189046245
 20
9.4131010795
 30
0.0
 10
10.8193038703
 20
9.4137252541
 30
0.0
 10
10.8197031111
 20
9.4143494289
 30
0.0
 10
10.820235434
 20
9.4151816618
 30
0.0
 10
10.8209008369
 20
9.4162219531
 30
0.0
 10
10.8215662402
 20
9.4172622443
 30
0.0
 10
10.8220985624
 20
9.4180944773
 30
0.0
 10
10.8224978053
 20
9.418718652
 30
0.0
 10
10.8228970433
 20
9.4193428268
 30
0.0
 10
10.8232297569
 20
9.4198629722
 30
0.0
 10
10.8234958936
 20
9.4202790891
 30
0.0
 10
10.823662307
 20
9.4205391608
 30
0.0
 10
10.823795259
 20
9.4207472213
 30
0.0
 10
10.8238954622
 20
9.4209032582
 30
0.0
 10
10.8239774089
 20
9.4210333157
 30
0.0
 10
10.8240378252
 20
9.4211243035
 30
0.0
 10
10.8240675807
 20
9.4211763785
 30
0.0
 10
10.8241033292
 20
9.4212152038
 30
0.0
 10
10.8240877344
 20
9.4212549118
 30
0.0
 10
10.8240848505
 20
9.4213075479
 30
0.0
 10
10.8240714595
 20
9.4213998044
 30
0.0
 10
10.8240566919
 20
9.4215315245
 30
0.0
 10
10.8240371035
 20
9.4216896208
 30
0.0
 10
10.8240116378
 20
9.4219004045
 30
0.0
 10
10.8239795824
 20
9.4221638881
 30
0.0
 10
10.8239284186
 20
9.4225854596
 30
0.0
 10
10.823864421
 20
9.4231124247
 30
0.0
 10
10.8237876423
 20
9.4237447826
 30
0.0
 10
10.8237108587
 20
9.4243771405
 30
0.0
 10
10.8236084822
 20
9.4252202844
 30
0.0
 10
10.8234805109
 20
9.4262742142
 30
0.0
 10
10.8233525401
 20
9.4273281441
 30
0.0
 10
10.8232501629
 20
9.428171288
 30
0.0
 10
10.8231733813
 20
9.4288036459
 30
0.0
 10
10.8230965949
 20
9.4294360037
 30
0.0
 10
10.8230326213
 20
9.429962969
 30
0.0
 10
10.8229814085
 20
9.4303845402
 30
0.0
 10
10.822949478
 20
9.4306480247
 30
0.0
 10
10.822923756
 20
9.4308588064
 30
0.0
 10
10.8229049507
 20
9.431016909
 30
0.0
 10
10.8228877331
 20
9.4311486092
 30
0.0
 10
10.8228787157
 20
9.4312409013
 30
0.0
 10
10.8228688241
 20
9.4312934804
 30
0.0
 10
10.8228747547
 20
9.4313333634
 30
0.0
 10
10.8228296575
 20
9.4313715312
 30
0.0
 10
10.822787327
 20
9.4314230198
 30
0.0
 10
10.8227049557
 20
9.4315128462
 30
0.0
 10
10.8225916181
 20
9.4316413153
 30
0.0
 10
10.8224537572
 20
9.4317954159
 30
0.0
 10
10.8222705908
 20
9.4320009051
 30
0.0
 10
10.8220414108
 20
9.4322577592
 30
0.0
 10
10.8216748469
 20
9.4326687299
 30
0.0
 10
10.8212165995
 20
9.4331824418
 30
0.0
 10
10.8206667209
 20
9.4337988967
 30
0.0
 10
10.8201168374
 20
9.4344153514
 30
0.0
 10
10.8193836611
 20
9.4352372911
 30
0.0
 10
10.8184671901
 20
9.4362647158
 30
0.0
 10
10.8175507195
 20
9.4372921404
 30
0.0
 10
10.8168175425
 20
9.4381140801
 30
0.0
 10
10.816267661
 20
9.4387305349
 30
0.0
 10
10.8157177747
 20
9.4393469895
 30
0.0
 10
10.8152595513
 20
9.4398607025
 30
0.0
 10
10.8148929384
 20
9.4402716709
 30
0.0
 10
10.8146638831
 20
9.4405285309
 30
0.0
 10
10.8144804609
 20
9.4407340078
 30
0.0
 10
10.8143433813
 20
9.4408881459
 30
0.0
 10
10.8142275991
 20
9.4410164977
 30
0.0
 10
10.8141495919
 20
9.4411065336
 30
0.0
 10
10.814100269
 20
9.4411576865
 30
0.0
 10
10.8140766501
 20
9.4411968856
 30
0.0
 10
10.8140019119
 20
9.4412328949
 30
0.0
 10
10.8139200919
 20
9.44128202
 30
0.0
 10
10.8137685991
 20
9.4413674705
 30
0.0
 10
10.8135565243
 20
9.4414898136
 30
0.0
 10
10.8133001753
 20
9.4416365094
 30
0.0
 10
10.8129590261
 20
9.4418321442
 30
0.0
 10
10.8125323673
 20
9.4420766739
 30
0.0
 10
10.8118498373
 20
9.4424679292
 30
0.0
 10
10.8109966323
 20
9.4429569956
 30
0.0
 10
10.8099728045
 20
9.4435438764
 30
0.0
 10
10.8089489719
 20
9.444130757
 30
0.0
 10
10.8075838632
 20
9.4449132644
 30
0.0
 10
10.8058774786
 20
9.445891399
 30
0.0
 10
10.8038298088
 20
9.447065159
 30
0.0
 10
10.802123443
 20
9.448043297
 30
0.0
 10
10.8007582929
 20
9.448825797
 30
0.0
 10
10.7999052049
 20
9.4493148832
 30
0.0
 10
10.7992224349
 20
9.4497060978
 30
0.0
 10
10.7987111777
 20
9.4499996577
 30
0.0
 10
10.7982825205
 20
9.4502438172
 30
0.0
 10
10.7979875815
 20
9.4504156585
 30
0.0
 10
10.797811049
 20
9.450512402
 30
0.0
 10
10.7977011743
 20
9.4505890485
 30
0.0
 10
10.7975051985
 20
9.4506500651
 30
0.0
 10
10.7972739305
 20
9.4507368724
 30
0.0
 10
10.7968552185
 20
9.4508862451
 30
0.0
 10
10.7962643742
 20
9.4511009627
 30
0.0
 10
10.7955522296
 20
9.4513580554
 30
0.0
 10
10.7946037973
 20
9.4517010442
 30
0.0
 10
10.7934178824
 20
9.4521297122
 30
0.0
 10
10.7915206279
 20
9.452815619
 30
0.0
 10
10.7891489875
 20
9.4536729893
 30
0.0
 10
10.7863030519
 20
9.4547018398
 30
0.0
 10
10.7834571006
 20
9.455730687
 30
0.0
 10
10.7810854994
 20
9.4565880653
 30
0.0
 10
10.7791881665
 20
9.4572739562
 30
0.0
 10
10.778002451
 20
9.4577026646
 30
0.0
 10
10.7770536093
 20
9.4580455704
 30
0.0
 10
10.7763427156
 20
9.4583029168
 30
0.0
 10
10.7757479575
 20
9.4585168404
 30
0.0
 10
10.7753362323
 20
9.4586676305
 30
0.0
 10
10.7750937697
 20
9.4587521669
 30
0.0
 10
10.7749321799
 20
9.458820159
 30
0.0
 10
10.7746931571
 20
9.4588706065
 30
0.0
 10
10.7744014696
 20
9.4589439895
 30
0.0
 10
10.7738784321
 20
9.4590695586
 30
0.0
 10
10.7731378149
 20
9.4592504336
 30
0.0
 10
10.7722462582
 20
9.4594668456
 30
0.0
 10
10.7710584994
 20
9.4597556178
 30
0.0
 10
10.7695734642
 20
9.4601165067
 30
0.0
 10
10.7671975962
 20
9.4606939717
 30
0.0
 10
10.7642276962
 20
9.4614157881
 30
0.0
 10
10.7606638456
 20
9.4622819746
 30
0.0
 10
10.7570999815
 20
9.4631481574
 30
0.0
 10
10.7541301152
 20
9.4638699831
 30
0.0
 10
10.7517541798
 20
9.4644474295
 30
0.0
 10
10.7502693157
 20
9.4648083656
 30
0.0
 10
10.7490812059
 20
9.465097041
 30
0.0
 10
10.7481907217
 20
9.4653137486
 30
0.0
 10
10.7474467486
 20
9.4654936987
 30
0.0
 10
10.746929702
 20
9.4656209189
 30
0.0
 10
10.7466284156
 20
9.4656916564
 30
0.0
 10
10.7464188775
 20
9.4657502303
 30
0.0
 10
10.7461465479
 20
9.4657877009
 30
0.0
 10
10.745805344
 20
9.4658450229
 30
0.0
 10
10.7451980326
 20
9.4659419066
 30
0.0
 10
10.7443357801
 20
9.466082105
 30
0.0
 10
10.7432987934
 20
9.4662495755
 30
0.0
 10
10.741916942
 20
9.4664731377
 30
0.0
 10
10.7401893548
 20
9.4667524985
 30
0.0
 10
10.7374253678
 20
9.4671995273
 30
0.0
 10
10.7339703315
 20
9.4677582955
 30
0.0
 10
10.7298243117
 20
9.4684288254
 30
0.0
 10
10.7256782807
 20
9.4690993512
 30
0.0
 10
10.7222232726
 20
9.46965813
 30
0.0
 10
10.7194592292
 20
9.4701051375
 30
0.0
 10
10.7177317855
 20
9.4703845524
 30
0.0
 10
10.7163496396
 20
9.4706080036
 30
0.0
 10
10.7153135528
 20
9.4707758132
 30
0.0
 10
10.7144484845
 20
9.4709149507
 30
0.0
 10
10.7138461997
 20
9.4710137282
 30
0.0
 10
10.7134969419
 20
9.4710680159
 30
0.0
 10
10.7132493515
 20
9.4711148067
 30
0.0
 10
10.7129468968
 20
9.4711383755
 30
0.0
 10
10.7125627611
 20
9.4711779007
 30
0.0
 10
10.7118816072
 20
9.4712432958
 30
0.0
 10
10.7109131918
 20
9.4713386904
 30
0.0
 10
10.7097490979
 20
9.4714523194
 30
0.0
 10
10.7081976698
 20
9.4716041198
 30
0.0
 10
10.706258146
 20
9.4717937692
 30
0.0
 10
10.7031550412
 20
9.4720972647
 30
0.0
 10
10.6992761145
 20
9.4724766147
 30
0.0
 10
10.6946214221
 20
9.472931843
 30
0.0
 10
10.6899667245
 20
9.4733870691
 30
0.0
 10
10.6837604627
 20
9.4739940381
 30
0.0
 10
10.679105766
 20
9.4744492646
 30
0.0
 10
10.676002635
 20
9.4747527489
 30
0.0
  0
ENDSEC
  0
SECTION
  2
OBJECTS
  0
DICTIONARY
  5
C
100
AcDbDictionary
280
0
281
1
  3
ACAD_GROUP
350
D
  3
ACAD_MLINESTYLE
350
17
  3
ACAD_LAYOUT
350
1A
  3
ACAD_PLOTSETTINGS
350
19
  3
ACAD_PLOTSTYLENAME
350
E
  3
ACAD_IMAGE_DICT
350
       3BA
  3
ACAD_IMAGE_VARS
350
       3BB
  3
ACAD_TABLESTYLE
350
       3BC
  0
IMAGEDEF_REACTOR
  5
3B9
100
AcDbRasterImageDefReactor
 90
2
330
272
  0
DICTIONARY
  5
D
102
{ACAD_REACTORS
330
C
102
}
100
AcDbDictionary
280
0
281
1
  0
ACDBDICTIONARYWDFLT
  5
E
102
{ACAD_REACTORS
330
C
102
}
100
AcDbDictionary
281
1
  3
Normal
350
F
100
AcDbDictionaryWithDefault
340
F
  0
DICTIONARY
  5
3BA
330
C
100
AcDbDictionary
281
1
  3
GBF_assy_2_img_1
350
       3BF
  0
RASTERVARIABLES
  5
3BB
330
C
100
AcDbRasterVariables
 90
0
 70
0
 71
1
 72
5
  0
DICTIONARY
  5
17
102
{ACAD_REACTORS
330
C
102
}
100
AcDbDictionary
280
0
281
1
  3
Standard
350
18
  0
DICTIONARY
  5
3BC
330
C
100
AcDbDictionary
281
1
  3
Standard
350
       3C0
  3
Standard1
350
       3C1
  0
DICTIONARY
  5
19
102
{ACAD_REACTORS
330
C
102
}
100
AcDbDictionary
281
1
  0
DICTIONARY
  5
1A
102
{ACAD_REACTORS
330
C
102
}
100
AcDbDictionary
281
1
  3
Model
350
3BD
  3
Layout1
350
3BE
  0
ACDBPLACEHOLDER
  5
F
102
{ACAD_REACTORS
330
E
102
}
  0
MLINESTYLE
  5
18
102
{ACAD_REACTORS
330
17
102
}
100
AcDbMlineStyle
  2
STANDARD
 70
0
  3

 62
256
 51
90.0
 52
90.0
 71
2
 49
0.5
 62
256
  6
BYLAYER
 49
-0.5
 62
256
  6
BYLAYER
  0
LAYOUT
  5
3BD
102
{ACAD_REACTORS
330
1A
102
}
100
AcDbPlotSettings
  1

  2
none_device
  4
ANSI_C_(22.00_x_17.00_Inches)
  6

 40
0.0
 41
0.0
 42
0.0
 43
0.0
 44
558.8
 45
431.8
 46
0.0
 47
0.0
 48
0.0
 49
0.0
140
0.0
141
0.0
142
1.0
143
1.0
 70
1024
 72
0
 73
0
 74
0
  7

 75
0
147
1.0
148
0.0
149
0.0
100
AcDbLayout
  1
Model
 70
0
 71
0
 10
0.0
 20
0.0
 11
22.0
 21
17.0
 12
0.0
 22
0.0
 32
0.0
 14
0.0
 24
0.0
 34
0.0
 15
0.0
 25
0.0
 35
0.0
146
0.0
 13
0.0
 23
0.0
 33
0.0
 16
1.0
 26
0.0
 36
0.0
 17
0.0
 27
1.0
 37
0.0
 76
0
330
20F
345
0
346
0
  0
LAYOUT
  5
3BE
102
{ACAD_REACTORS
330
1A
102
}
100
AcDbPlotSettings
  1

  2
none_device
  4
ANSI_C_(22.00_x_17.00_Inches)
  6

 40
0.0
 41
0.0
 42
0.0
 43
0.0
 44
558.8
 45
431.8
 46
0.0
 47
0.0
 48
0.0
 49
0.0
140
0.0
141
0.0
142
1.0
143
1.0
 70
0
 72
0
 73
0
 74
0
  7

 75
0
147
1.0
148
0.0
149
0.0
100
AcDbLayout
  1
Layout1
 70
0
 71
1
 10
0.0
 20
0.0
 11
22.0
 21
17.0
 12
0.0
 22
0.0
 32
0.0
 14
0.0
 24
0.0
 34
0.0
 15
0.0
 25
0.0
 35
0.0
146
0.0
 13
0.0
 23
0.0
 33
0.0
 16
1.0
 26
0.0
 36
0.0
 17
0.0
 27
1.0
 37
0.0
 76
0
330
210
345
0
346
0
  0
IMAGEDEF
  5
3BF
102
{ACAD_REACTORS
330
3BA
330
3B9
102
}
100
AcDbRasterImageDef
 90
0
  1
GBF_assy_2_img_1.png
 10
369.0
 20
92.0
 11
0.0066666667
 21
0.0066666667
280
1
281
0
  0
TABLESTYLE
  5
3C0
102
{ACAD_REACTORS
330
3BC
330
275
102
}
330
3BC
100
AcDbTableStyle
  3
Standard
 70
0
 71
0
 40
0.06
 41
0.06
280
1
281
1
  7
Standard
140
0.18
170
1
 62
0
 63
7
283
0
  7
Standard
140
0.18
170
1
 62
0
 63
7
283
0
  7
Standard
140
0.18
170
1
 62
0
 63
7
283
0
  0
TABLESTYLE
  5
3C1
102
{ACAD_REACTORS
330
3BC
330
274
102
}
330
3BC
100
AcDbTableStyle
  3
Standard1
 70
1
 71
0
 40
0.06
 41
0.06
280
1
281
1
  7
Standard
140
0.18
170
1
 62
0
 63
7
283
0
  7
Standard
140
0.18
170
1
 62
0
 63
7
283
0
  7
Standard
140
0.18
170
1
 62
0
 63
7
283
0
  0
ENDSEC
  0
EOF
