999
DXF file: GAL_assy_2.dxf
999
Pro/ENGINEER 2014200 by Parametric Technology Corporation
  0
SECTION
  2
HEADER
  9
$ACADVER
  1
AC1021
  9
$DWGCODEPAGE
  3
ANSI_1252
  9
$EXTMAX
 10
22.0
 20
17.0
 30
0.0
  9
$EXTMIN
 10
0.0
 20
0.0
 30
0.0
  9
$LIMMIN
 10
0.0
 20
0.0
  9
$LIMMAX
 10
22.0
 20
17.0
  9
$VIEWCTR
 10
11.0
 20
8.5
  9
$VIEWSIZE
 40
17.0
  9
$CLAYER
  8
0
  9
$LTSCALE
 40
1.21
  9
$CELTYPE
  6
BYLAYER
  9
$DIMSCALE
 40
1.0
  9
$DIMASZ
 40
0.1875
  9
$DIMEXO
 40
0.0625
  9
$DIMDLI
 40
0.836
  9
$DIMEXE
 40
0.125
  9
$DIMCEN
 40
0.198
  9
$DIMLFAC
 40
1.0
  9
$DIMBLK
  1
_FILLED
  9
$DIMTXT
 40
0.1
  9
$DIMTOL
 70
0
  9
$DIMLIM
 70
0
  9
$DIMTFAC
 40
1.0
  9
$DIMGAP
 40
0.09
  9
$DIMDSEP
 70
46
  9
$AUNITS
 70
0
  9
$PDMODE
 70
3
  9
$PDSIZE
 40
0.3125
  9
$HANDSEED
  5
31A
  9
$TILEMODE
 70
1
  9
$MEASUREMENT
 70
0
  9
$INSUNITS
 70
1
  0
ENDSEC
  0
SECTION
  2
CLASSES
  0
CLASS
  1
ACDBDICTIONARYWDFLT
  2
AcDbDictionaryWithDefault
  3
AutoCAD 2000
 90
0
 91
1
280
0
281
0
  0
CLASS
  1
ACDBPLACEHOLDER
  2
AcDbPlaceHolder
  3
AutoCAD 2000
 90
0
 91
1
280
0
281
0
  0
CLASS
  1
LAYOUT
  2
AcDbLayout
  3
AutoCAD 2000
 90
0
 91
0
280
0
281
0
  0
CLASS
  1
RASTERVARIABLES
  2
AcDbRasterVariables
  3
ISM
 90
0
 91
1
280
0
281
0
  0
CLASS
  1
IMAGEDEF
  2
AcDbRasterImageDef
  3
ISM
 90
0
 91
1
280
0
281
0
  0
CLASS
  1
IMAGEDEF_REACTOR
  2
AcDbRasterImageDefReactor
  3
ISM
 90
0
 91
1
280
0
281
0
  0
CLASS
  1
IMAGE
  2
AcDbRasterImage
  3
ISM
 90
127
 91
1
280
0
281
1
  0
CLASS
  1
TABLESTYLE
  2
AcDbTableStyle
  3
ObjectDBX Classes
 90
2047
 91
1
280
0
281
0
  0
CLASS
  1
ACAD_TABLE
  2
AcDbTable
  3
ObjectDBX Classes
 90
1025
 91
3
280
0
281
1
  0
ENDSEC
  0
SECTION
  2
TABLES
  0
TABLE
  2
VPORT
  5
8
100
AcDbSymbolTable
 70
2
  0
VPORT
  5
1F4
100
AcDbSymbolTableRecord
100
AcDbViewportTableRecord
  2
*ACTIVE
 70
0
 10
0.0
 20
0.0
 11
1.0
 21
1.0
 12
11.0
 22
8.5
 13
0.0
 23
0.0
 14
1.0
 24
1.0
 15
0.0
 25
0.0
 16
0.0
 26
0.0
 36
1.0
 17
0.0
 27
0.0
 37
0.0
 40
17.0
 41
1.2941176471
 42
50.0
 43
0.0
 44
0.0
 50
0.0
 51
0.0
 71
0
 72
100
 73
1
 74
1
 75
0
 76
0
 77
0
 78
0
  0
ENDTAB
  0
TABLE
  2
LTYPE
  5
5
100
AcDbSymbolTable
 70
6
  0
LTYPE
  5
14
100
AcDbSymbolTableRecord
100
AcDbLinetypeTableRecord
  2
BYBLOCK
 70
0
  3

 72
65
 73
0
 40
0.0
  0
LTYPE
  5
15
100
AcDbSymbolTableRecord
100
AcDbLinetypeTableRecord
  2
BYLAYER
 70
0
  3

 72
65
 73
0
 40
0.0
  0
LTYPE
  5
16
100
AcDbSymbolTableRecord
100
AcDbLinetypeTableRecord
  2
CONTINUOUS
 70
64
  3
Solid line
 72
65
 73
0
 40
0.0
  0
LTYPE
  5
1F5
100
AcDbSymbolTableRecord
100
AcDbLinetypeTableRecord
  2
CENTER
 70
64
  3
____ _ ____ _ ____ _ ____ _ ____ _ ____ _ ____
 72
65
 73
4
 40
0.6
 49
0.375
 74
0
 49
-0.075
 74
0
 49
0.075
 74
0
 49
-0.075
 74
0
  0
LTYPE
  5
1F6
100
AcDbSymbolTableRecord
100
AcDbLinetypeTableRecord
  2
HIDDEN
 70
64
  3
- - - - - - - - - - - - - - - - - - - -
 72
65
 73
2
 40
0.2
 49
0.1
 74
0
 49
-0.1
 74
0
  0
LTYPE
  5
1F7
100
AcDbSymbolTableRecord
100
AcDbLinetypeTableRecord
  2
PHANTOM
 70
64
  3
_____ _ _ _____ _ _ _____ _ _ _____
 72
65
 73
6
 40
0.8
 49
0.45
 74
0
 49
-0.05
 74
0
 49
0.1
 74
0
 49
-0.05
 74
0
 49
0.1
 74
0
 49
-0.05
 74
0
  0
LTYPE
  5
1F8
100
AcDbSymbolTableRecord
100
AcDbLinetypeTableRecord
  2
DOT
 70
64
  3
. . . . . . . . . . . . . . . . . . . .
 72
65
 73
2
 40
0.2
 49
0.1
 74
0
 49
-0.1
 74
0
  0
LTYPE
  5
1F9
100
AcDbSymbolTableRecord
100
AcDbLinetypeTableRecord
  2
DASHED
 70
64
  3
- - - - - - - - - - - - - - - - - - - -
 72
65
 73
2
 40
0.2
 49
0.1
 74
0
 49
-0.1
 74
0
  0
ENDTAB
  0
TABLE
  2
LAYER
  5
2
100
AcDbSymbolTable
 70
36
  0
LAYER
  5
10
100
AcDbSymbolTableRecord
100
AcDbLayerTableRecord
  2
0
 70
0
 62
7
  6
CONTINUOUS
370
-3
390
F
  0
LAYER
  5
1FA
100
AcDbSymbolTableRecord
100
AcDbLayerTableRecord
  2
DEFAULT_1
 70
0
 62
7
  6
CENTER
370
-3
390
F
  0
LAYER
  5
1FB
100
AcDbSymbolTableRecord
100
AcDbLayerTableRecord
  2
DEFAULT_2
 70
0
 62
8
  6
HIDDEN
370
-3
390
F
  0
LAYER
  5
1FC
100
AcDbSymbolTableRecord
100
AcDbLayerTableRecord
  2
DEFAULT_3
 70
0
 62
7
  6
PHANTOM
370
-3
390
F
  0
LAYER
  5
1FD
100
AcDbSymbolTableRecord
100
AcDbLayerTableRecord
  2
DATUM_PLANES
 70
0
 62
7
  6
CONTINUOUS
370
-3
390
F
  0
LAYER
  5
1FE
100
AcDbSymbolTableRecord
100
AcDbLayerTableRecord
  2
PORT_AREAS
 70
0
 62
7
  6
CONTINUOUS
370
-3
390
F
  0
LAYER
  5
1FF
100
AcDbSymbolTableRecord
100
AcDbLayerTableRecord
  2
SUNNBOMCOSMETIC
 70
0
 62
7
  6
CONTINUOUS
370
-3
390
F
  0
LAYER
  5
200
100
AcDbSymbolTableRecord
100
AcDbLayerTableRecord
  2
SUNNBOMSTAMPING
 70
0
 62
7
  6
CONTINUOUS
370
-3
390
F
  0
LAYER
  5
201
100
AcDbSymbolTableRecord
100
AcDbLayerTableRecord
  2
THREADS
 70
0
 62
7
  6
CONTINUOUS
370
-3
390
F
  0
ENDTAB
  0
TABLE
  2
STYLE
  5
3
100
AcDbSymbolTable
 70
1
  0
STYLE
  5
11
100
AcDbSymbolTableRecord
100
AcDbTextStyleTableRecord
  2
STANDARD
 70
0
 40
0.0
 41
0.8
 50
0.0
 71
0
 42
0.2
  3
txt
  4

  0
STYLE
  5
202
100
AcDbSymbolTableRecord
100
AcDbTextStyleTableRecord
  2
TEXTSTYLE_1
 70
0
 40
0.0
 41
0.8
 50
0.0
 71
0
 42
0.2
  3
gdt
  4

  0
ENDTAB
  0
TABLE
  2
VIEW
  5
6
100
AcDbSymbolTable
 70
0
  0
ENDTAB
  0
TABLE
  2
UCS
  5
7
100
AcDbSymbolTable
 70
0
  0
ENDTAB
  0
TABLE
  2
APPID
  5
9
100
AcDbSymbolTable
 70
1
  0
APPID
  5
203
100
AcDbSymbolTableRecord
100
AcDbRegAppTableRecord
  2
ACAD
 70
0
  0
ENDTAB
  0
TABLE
  2
BLOCK_RECORD
  5
1
100
AcDbSymbolTable
 70
0
  0
BLOCK_RECORD
  5
204
100
AcDbSymbolTableRecord
100
AcDbBlockTableRecord
  2
*Model_Space
  0
BLOCK_RECORD
  5
205
100
AcDbSymbolTableRecord
100
AcDbBlockTableRecord
  2
*Paper_Space
  0
BLOCK_RECORD
  5
206
100
AcDbSymbolTableRecord
100
AcDbBlockTableRecord
  2
SUN_FIRST_THIRD_ANGLE_BL0
  0
BLOCK_RECORD
  5
207
100
AcDbSymbolTableRecord
100
AcDbBlockTableRecord
  2
*T1
  0
BLOCK_RECORD
  5
208
100
AcDbSymbolTableRecord
100
AcDbBlockTableRecord
  2
*T2
  0
BLOCK_RECORD
  5
209
100
AcDbSymbolTableRecord
100
AcDbBlockTableRecord
  2
*T3
  0
ENDTAB
  0
TABLE
  2
DIMSTYLE
  5
A
100
AcDbSymbolTable
 70
1
100
AcDbDimStyleTable
 71
0
  0
DIMSTYLE
105
20A
100
AcDbSymbolTableRecord
100
AcDbDimStyleTableRecord
  2
STANDARD
 70
0
  3

  4

 40
1.0
 41
0.1875
 42
0.0625
 43
0.38
 44
0.125
 45
0.0
 46
0.0
 47
0.001
 48
0.001
140
0.1
141
0.09
142
0.0
143
25.4
144
1.0
145
0.0
146
1.0
147
0.09
 71
0.0
 72
0.0
 73
1
 74
1
 75
0
 76
0
 77
0
 78
4
170
0
171
2
172
0
173
0
174
0
175
0
176
0
177
0
178
0
270
2
271
3
272
3
273
2
274
2
275
0
280
0
281
0
282
0
283
1
284
4
285
0
286
0
287
3
288
0
340
11
278
46
  0
ENDTAB
  0
ENDSEC
  0
SECTION
  2
BLOCKS
  0
BLOCK
  5
20
100
AcDbEntity
  8
0
100
AcDbBlockBegin
  2
*Model_Space
 70
0
 10
0.0
 20
0.0
 30
0.0
  3
*Model_Space
  1

  0
ENDBLK
  5
21
100
AcDbEntity
  8
0
100
AcDbBlockEnd
  0
BLOCK
  5
1C
100
AcDbEntity
  8
0
100
AcDbBlockBegin
  2
*Paper_Space
 70
0
 10
0.0
 20
0.0
 30
0.0
  3
*Paper_Space
  1

  0
ENDBLK
  5
1D
100
AcDbEntity
  8
0
100
AcDbBlockEnd
  0
BLOCK
  5
20B
100
AcDbEntity
  8
0
100
AcDbBlockBegin
 62
2
  6
CONTINUOUS
  2
SUN_FIRST_THIRD_ANGLE_BL0
 70
64
 10
20.4816717061
 20
1.2289683772
  3
SUN_FIRST_THIRD_ANGLE_BL0
  1

  0
TEXT
  5
20C
100
AcDbEntity
  8
0
100
AcDbText
 62
2
  6
CONTINUOUS
 10
19.4750896608
 20
1.4136269581
  7
STANDARD
 40
0.08
  1
FIRST ANGLE
 41
0.8
 72
0
100
AcDbText
  0
TEXT
  5
20D
100
AcDbEntity
  8
0
100
AcDbText
 62
2
  6
CONTINUOUS
 10
20.7842537513
 20
1.4047600029
  7
STANDARD
 40
0.08
  1
THIRD ANGLE
 41
0.8
 72
0
100
AcDbText
  0
LINE
  5
20E
100
AcDbEntity
  8
0
100
AcDbLine
 62
7
  6
CONTINUOUS
 10
19.4767170086
 20
1.1727031207
 11
19.6334271527
 21
1.1717972817
  0
LINE
  5
20F
100
AcDbEntity
  8
0
100
AcDbLine
 62
7
  6
CONTINUOUS
 10
19.6596964832
 20
1.1717972817
 11
19.6950230232
 21
1.171593082
  0
LINE
  5
210
100
AcDbEntity
  8
0
100
AcDbLine
 62
7
  6
CONTINUOUS
 10
19.7194818561
 20
1.1708914427
 11
19.8852396156
 21
1.1699333054
  0
LINE
  5
211
100
AcDbEntity
  8
0
100
AcDbLine
 62
7
  6
CONTINUOUS
 10
19.4758111696
 20
1.2723454088
 11
19.88525039
 21
1.3511534004
  0
LINE
  5
212
100
AcDbEntity
  8
0
100
AcDbLine
 62
7
  6
CONTINUOUS
 10
19.88525039
 20
1.3511534004
 11
19.8831348489
 21
0.9851647912
  0
LINE
  5
213
100
AcDbEntity
  8
0
100
AcDbLine
 62
7
  6
CONTINUOUS
 10
19.8831348489
 20
0.9851647912
 11
19.4767170086
 21
1.0658141206
  0
LINE
  5
214
100
AcDbEntity
  8
0
100
AcDbLine
 62
7
  6
CONTINUOUS
 10
19.4767170086
 20
1.0658141206
 11
19.4779056764
 21
1.2714536432
  0
CIRCLE
  5
215
100
AcDbEntity
  8
0
100
AcDbCircle
 62
7
  6
CONTINUOUS
 10
20.2068232291
 20
1.1717972817
 40
0.175742101
  0
CIRCLE
  5
216
100
AcDbEntity
  8
0
100
AcDbCircle
 62
7
  6
CONTINUOUS
 10
20.2068232291
 20
1.1717972817
 40
0.1005522074
  0
LINE
  5
217
100
AcDbEntity
  8
0
100
AcDbLine
 62
7
  6
CONTINUOUS
 10
20.2077290681
 20
1.3756110529
 11
20.2071171714
 21
1.2379342989
  0
LINE
  5
218
100
AcDbEntity
  8
0
100
AcDbLine
 62
7
  6
CONTINUOUS
 10
20.2077290681
 20
1.2016899681
 11
20.2074674401
 21
1.1428236749
  0
LINE
  5
219
100
AcDbEntity
  8
0
100
AcDbLine
 62
7
  6
CONTINUOUS
 10
20.208634907
 20
1.101141841
 11
20.2080230104
 21
0.963465087
  0
LINE
  5
21A
100
AcDbEntity
  8
0
100
AcDbLine
 62
7
  6
CONTINUOUS
 10
20.0066328138
 20
1.1745147986
 11
20.1443095678
 21
1.1739029019
  0
LINE
  5
21B
100
AcDbEntity
  8
0
100
AcDbLine
 62
7
  6
CONTINUOUS
 10
20.1832714155
 20
1.1727031207
 11
20.238153505
 21
1.172335442
  0
LINE
  5
21C
100
AcDbEntity
  8
0
100
AcDbLine
 62
7
  6
CONTINUOUS
 10
20.2756669918
 20
1.1717972817
 11
20.407916871
 21
1.1712095044
  0
CIRCLE
  5
21D
100
AcDbEntity
  8
0
100
AcDbCircle
 62
7
  6
CONTINUOUS
 10
20.7509457401
 20
1.1693297793
 40
0.1722024983
  0
CIRCLE
  5
21E
100
AcDbEntity
  8
0
100
AcDbCircle
 62
7
  6
CONTINUOUS
 10
20.7509457401
 20
1.1693297793
 40
0.0985164967
  0
LINE
  5
21F
100
AcDbEntity
  8
0
100
AcDbLine
 62
7
  6
CONTINUOUS
 10
20.7169767782
 20
1.170462078
 11
20.7825395137
 21
1.1682766535
  0
LINE
  5
220
100
AcDbEntity
  8
0
100
AcDbLine
 62
7
  6
CONTINUOUS
 10
20.8177513651
 20
1.1693297793
 11
20.947965719
 21
1.1693297793
  0
LINE
  5
221
100
AcDbEntity
  8
0
100
AcDbLine
 62
7
  6
CONTINUOUS
 10
20.6875370113
 20
1.170462078
 11
20.5573226574
 21
1.170462078
  0
LINE
  5
222
100
AcDbEntity
  8
0
100
AcDbLine
 62
7
  6
CONTINUOUS
 10
20.7486811426
 20
1.1987695462
 11
20.7486811426
 21
1.1432869085
  0
LINE
  5
223
100
AcDbEntity
  8
0
100
AcDbLine
 62
7
  6
CONTINUOUS
 10
20.7498134414
 20
1.1059210505
 11
20.7498134414
 21
0.9757066966
  0
LINE
  5
224
100
AcDbEntity
  8
0
100
AcDbLine
 62
7
  6
CONTINUOUS
 10
20.7486811426
 20
1.2338708068
 11
20.7486811426
 21
1.3640851607
  0
LINE
  5
225
100
AcDbEntity
  8
0
100
AcDbLine
 62
7
  6
CONTINUOUS
 10
21.0702539817
 20
1.2701043662
 11
21.4790138229
 21
1.3448360823
  0
LINE
  5
226
100
AcDbEntity
  8
0
100
AcDbLine
 62
7
  6
CONTINUOUS
 10
21.4790138229
 20
1.3448360823
 11
21.4790138229
 21
0.9779712941
  0
LINE
  5
227
100
AcDbEntity
  8
0
100
AcDbLine
 62
7
  6
CONTINUOUS
 10
21.4790138229
 20
0.9779712941
 11
21.069121683
 21
1.0617614
  0
LINE
  5
228
100
AcDbEntity
  8
0
100
AcDbLine
 62
7
  6
CONTINUOUS
 10
21.0702539817
 20
1.2701043662
 11
21.069121683
 21
1.0617614
  0
LINE
  5
229
100
AcDbEntity
  8
0
100
AcDbLine
 62
7
  6
CONTINUOUS
 10
21.4790138229
 20
1.1693297793
 11
21.3159628059
 21
1.1693297793
  0
LINE
  5
22A
100
AcDbEntity
  8
0
100
AcDbLine
 62
7
  6
CONTINUOUS
 10
21.2876553377
 20
1.1693297793
 11
21.2502894796
 21
1.1693297793
  0
LINE
  5
22B
100
AcDbEntity
  8
0
100
AcDbLine
 62
7
  6
CONTINUOUS
 10
21.2208497126
 20
1.1659328831
 11
21.0713862804
 21
1.1659328831
  0
LINE
  5
22C
100
AcDbEntity
  8
0
100
AcDbLine
 62
7
  6
CONTINUOUS
 10
20.4796138713
 20
1.5284908897
 11
20.4766766948
 21
0.9294458646
  0
ENDBLK
  5
22D
100
AcDbEntity
  8
0
  6
BYBLOCK
 62
0
100
AcDbBlockEnd
  0
BLOCK
  5
22E
100
AcDbEntity
  8
0
100
AcDbBlockBegin
  2
*T1
 70
1
 10
0.0
 20
0.0
  3
*T1
  1

  0
LINE
  5
22F
100
AcDbEntity
  8
0
100
AcDbLine
 62
2
  6
CONTINUOUS
 10
9.275
 20
0.0
 11
-0.0
 21
0.0
  0
LINE
  5
230
100
AcDbEntity
  8
0
100
AcDbLine
 62
2
  6
CONTINUOUS
 10
9.275
 20
0.0
 11
9.275
 21
1.25
  0
LINE
  5
231
100
AcDbEntity
  8
0
100
AcDbLine
 62
2
  6
CONTINUOUS
 10
9.275
 20
0.625
 11
-0.0
 21
0.625
  0
LINE
  5
232
100
AcDbEntity
  8
0
100
AcDbLine
 62
2
  6
CONTINUOUS
 10
9.275
 20
1.25
 11
-0.0
 21
1.25
  0
LINE
  5
233
100
AcDbEntity
  8
0
100
AcDbLine
 62
2
  6
CONTINUOUS
 10
6.8
 20
0.0
 11
6.8
 21
1.25
  0
LINE
  5
234
100
AcDbEntity
  8
0
100
AcDbLine
 62
2
  6
CONTINUOUS
 10
6.4
 20
0.0
 11
6.4
 21
0.625
  0
LINE
  5
235
100
AcDbEntity
  8
0
100
AcDbLine
 62
2
  6
CONTINUOUS
 10
5.9
 20
0.0
 11
5.9
 21
0.625
  0
LINE
  5
236
100
AcDbEntity
  8
0
100
AcDbLine
 62
2
  6
CONTINUOUS
 10
5.2
 20
0.0
 11
5.2
 21
0.625
  0
LINE
  5
237
100
AcDbEntity
  8
0
100
AcDbLine
 62
2
  6
CONTINUOUS
 10
4.1
 20
0.0
 11
4.1
 21
1.25
  0
LINE
  5
238
100
AcDbEntity
  8
0
100
AcDbLine
 62
2
  6
CONTINUOUS
 10
-0.0
 20
0.0
 11
-0.0
 21
1.25
  0
MTEXT
  5
239
100
AcDbEntity
  8
0
100
AcDbMText
 62
2
  6
CONTINUOUS
  7
STANDARD
 71
2
 72
1
 10
6.6
 20
0.325
 30
0.0
 11
1.0
 21
0.0
 31
0.0
 44
0.9
  1
2
 40
0.125
 41
0.2
  0
MTEXT
  5
23A
100
AcDbEntity
  8
0
100
AcDbMText
 62
2
  6
CONTINUOUS
  7
STANDARD
 71
2
 72
1
 10
6.15
 20
0.325
 30
0.0
 11
1.0
 21
0.0
 31
0.0
 44
0.9
  1
C
 40
0.125
 41
0.2
  0
MTEXT
  5
23B
100
AcDbEntity
  8
0
100
AcDbMText
 62
2
  6
CONTINUOUS
  7
STANDARD
 71
2
 72
1
 10
5.55
 20
0.325
 30
0.0
 11
1.0
 21
0.0
 31
0.0
 44
0.9
  1
2.000
 40
0.125
 41
1.0
  0
MTEXT
  5
23C
100
AcDbEntity
  8
0
100
AcDbMText
 62
2
  6
CONTINUOUS
  7
STANDARD
 71
2
 72
1
 10
4.65
 20
0.325
 30
0.0
 11
1.0
 21
0.0
 31
0.0
 44
0.9
  1
May-30-24
 40
0.125
 41
1.8
  0
MTEXT
  5
23D
100
AcDbEntity
  8
0
100
AcDbMText
 62
2
  6
CONTINUOUS
  7
STANDARD
 71
2
 72
1
 10
2.05
 20
0.4625
 30
0.0
 11
1.0
 21
0.0
 31
0.0
 44
0.9
  1
T-13A Line mount\PNinety degree
 40
0.125
 41
3.2
  0
MTEXT
  5
23E
100
AcDbEntity
  8
0
100
AcDbMText
 62
2
  6
CONTINUOUS
  7
STANDARD
 71
1
 72
1
 10
6.45
 20
0.5625
 30
0.0
 11
1.0
 21
0.0
 31
0.0
 44
0.9
  1
SHEET
 40
0.06
 41
0.48
  0
MTEXT
  5
23F
100
AcDbEntity
  8
0
100
AcDbMText
 62
2
  6
CONTINUOUS
  7
STANDARD
 71
1
 72
1
 10
5.95
 20
0.5625
 30
0.0
 11
1.0
 21
0.0
 31
0.0
 44
0.9
  1
DWG SIZE
 40
0.06
 41
0.768
  0
MTEXT
  5
240
100
AcDbEntity
  8
0
100
AcDbMText
 62
2
  6
CONTINUOUS
  7
STANDARD
 71
1
 72
1
 10
5.25
 20
0.5625
 30
0.0
 11
1.0
 21
0.0
 31
0.0
 44
0.9
  1
SCALE
 40
0.06
 41
0.48
  0
MTEXT
  5
241
100
AcDbEntity
  8
0
100
AcDbMText
 62
2
  6
CONTINUOUS
  7
STANDARD
 71
1
 72
1
 10
4.15
 20
0.5625
 30
0.0
 11
1.0
 21
0.0
 31
0.0
 44
0.9
  1
DATE
 40
0.06
 41
0.384
  0
MTEXT
  5
242
100
AcDbEntity
  8
0
100
AcDbMText
 62
2
  6
CONTINUOUS
  7
STANDARD
 71
1
 72
1
 10
0.05
 20
0.5625
 30
0.0
 11
1.0
 21
0.0
 31
0.0
 44
0.9
  1
DESCRIPTION
 40
0.06
 41
1.056
  0
MTEXT
  5
243
100
AcDbEntity
  8
0
100
AcDbMText
 62
2
  6
CONTINUOUS
  7
STANDARD
 71
2
 72
1
 10
5.45
 20
1.0375
 30
0.0
 11
1.0
 21
0.0
 31
0.0
 44
0.9
  1
ALL DIMENSIONS IN INCH\PVIEWS ARE THIRD ANGLE
 40
0.12
 41
4.224
  0
MTEXT
  5
244
100
AcDbEntity
  8
0
100
AcDbMText
 62
2
  6
CONTINUOUS
  7
STANDARD
 71
2
 72
1
 10
2.05
 20
0.95
 30
0.0
 11
1.0
 21
0.0
 31
0.0
 44
0.9
  1
GAL
 40
0.125
 41
0.6
  0
MTEXT
  5
245
100
AcDbEntity
  8
0
100
AcDbMText
 62
2
  6
CONTINUOUS
  7
STANDARD
 71
1
 72
1
 10
0.05
 20
1.1875
 30
0.0
 11
1.0
 21
0.0
 31
0.0
 44
0.9
  1
MODEL
 40
0.06
 41
0.48
  0
ENDBLK
  5
246
100
AcDbEntity
  8
0
  6
BYBLOCK
 62
0
100
AcDbBlockEnd
  0
BLOCK
  5
247
100
AcDbEntity
  8
0
100
AcDbBlockBegin
  2
*T2
 70
1
 10
0.0
 20
0.0
  3
*T2
  1

  0
LINE
  5
248
100
AcDbEntity
  8
0
100
AcDbLine
 62
2
  6
CONTINUOUS
 10
0.0
 20
0.0
 11
9.055
 21
0.0
  0
LINE
  5
249
100
AcDbEntity
  8
0
100
AcDbLine
 62
2
  6
CONTINUOUS
 10
0.0
 20
0.0
 11
0.0
 21
-2.594
  0
LINE
  5
24A
100
AcDbEntity
  8
0
100
AcDbLine
 62
2
  6
CONTINUOUS
 10
0.0
 20
-0.344
 11
9.055
 21
-0.344
  0
LINE
  5
24B
100
AcDbEntity
  8
0
100
AcDbLine
 62
2
  6
CONTINUOUS
 10
0.0
 20
-0.594
 11
9.055
 21
-0.594
  0
LINE
  5
24C
100
AcDbEntity
  8
0
100
AcDbLine
 62
2
  6
CONTINUOUS
 10
0.0
 20
-0.844
 11
9.055
 21
-0.844
  0
LINE
  5
24D
100
AcDbEntity
  8
0
100
AcDbLine
 62
2
  6
CONTINUOUS
 10
0.0
 20
-1.094
 11
9.055
 21
-1.094
  0
LINE
  5
24E
100
AcDbEntity
  8
0
100
AcDbLine
 62
2
  6
CONTINUOUS
 10
0.0
 20
-1.344
 11
9.055
 21
-1.344
  0
LINE
  5
24F
100
AcDbEntity
  8
0
100
AcDbLine
 62
2
  6
CONTINUOUS
 10
0.0
 20
-1.594
 11
9.055
 21
-1.594
  0
LINE
  5
250
100
AcDbEntity
  8
0
100
AcDbLine
 62
2
  6
CONTINUOUS
 10
0.0
 20
-1.844
 11
9.055
 21
-1.844
  0
LINE
  5
251
100
AcDbEntity
  8
0
100
AcDbLine
 62
2
  6
CONTINUOUS
 10
0.0
 20
-2.094
 11
9.055
 21
-2.094
  0
LINE
  5
252
100
AcDbEntity
  8
0
100
AcDbLine
 62
2
  6
CONTINUOUS
 10
0.0
 20
-2.344
 11
9.055
 21
-2.344
  0
LINE
  5
253
100
AcDbEntity
  8
0
100
AcDbLine
 62
2
  6
CONTINUOUS
 10
0.0
 20
-2.594
 11
9.055
 21
-2.594
  0
LINE
  5
254
100
AcDbEntity
  8
0
100
AcDbLine
 62
2
  6
CONTINUOUS
 10
3.055
 20
0.0
 11
3.055
 21
-2.594
  0
LINE
  5
255
100
AcDbEntity
  8
0
100
AcDbLine
 62
2
  6
CONTINUOUS
 10
9.055
 20
0.0
 11
9.055
 21
-2.594
  0
MTEXT
  5
256
100
AcDbEntity
  8
0
100
AcDbMText
 62
2
  6
CONTINUOUS
  7
STANDARD
 71
2
 72
1
 10
1.5275
 20
-0.0995
 30
0.0
 11
1.0
 21
0.0
 31
0.0
 44
0.9
  1
Technical Data
 40
0.145
 41
3.248
  0
MTEXT
  5
257
100
AcDbEntity
  8
0
100
AcDbMText
 62
2
  6
CONTINUOUS
  7
STANDARD
 71
2
 72
1
 10
4.555
 20
-0.0995
 30
0.0
 11
1.0
 21
0.0
 31
0.0
 44
0.9
  1
U.S. Units
 40
0.145
 41
2.32
  0
MTEXT
  5
258
100
AcDbEntity
  8
0
100
AcDbMText
 62
2
  6
CONTINUOUS
  7
STANDARD
 71
2
 72
1
 10
7.555
 20
-0.0995
 30
0.0
 11
1.0
 21
0.0
 31
0.0
 44
0.9
  1
Metric Units
 40
0.145
 41
2.784
  0
MTEXT
  5
259
100
AcDbEntity
  8
0
100
AcDbMText
 62
2
  6
CONTINUOUS
  7
STANDARD
 71
2
 72
1
 10
1.5275
 20
-0.4065
 30
0.0
 11
1.0
 21
0.0
 31
0.0
 44
0.9
  1
Cavity
 40
0.125
 41
1.2
  0
MTEXT
  5
25A
100
AcDbEntity
  8
0
100
AcDbMText
 62
2
  6
CONTINUOUS
  7
STANDARD
 71
2
 72
1
 10
6.055
 20
-0.4065
 30
0.0
 11
1.0
 21
0.0
 31
0.0
 44
0.9
  1
T-13A
 40
0.125
 41
1.0
  0
MTEXT
  5
25B
100
AcDbEntity
  8
0
100
AcDbMText
 62
2
  6
CONTINUOUS
  7
STANDARD
 71
2
 72
1
 10
1.5275
 20
-0.6565
 30
0.0
 11
1.0
 21
0.0
 31
0.0
 44
0.9
  1
Body Features
 40
0.125
 41
2.6
  0
MTEXT
  5
25C
100
AcDbEntity
  8
0
100
AcDbMText
 62
2
  6
CONTINUOUS
  7
STANDARD
 71
2
 72
1
 10
6.055
 20
-0.6565
 30
0.0
 11
1.0
 21
0.0
 31
0.0
 44
0.9
  1
Ninety degree
 40
0.125
 41
2.6
  0
MTEXT
  5
25D
100
AcDbEntity
  8
0
100
AcDbMText
 62
2
  6
CONTINUOUS
  7
STANDARD
 71
2
 72
1
 10
1.5275
 20
-0.9065
 30
0.0
 11
1.0
 21
0.0
 31
0.0
 44
0.9
  1
Body Type
 40
0.125
 41
1.8
  0
MTEXT
  5
25E
100
AcDbEntity
  8
0
100
AcDbMText
 62
2
  6
CONTINUOUS
  7
STANDARD
 71
2
 72
1
 10
6.055
 20
-0.9065
 30
0.0
 11
1.0
 21
0.0
 31
0.0
 44
0.9
  1
Line mount
 40
0.125
 41
2.0
  0
MTEXT
  5
25F
100
AcDbEntity
  8
0
100
AcDbMText
 62
2
  6
CONTINUOUS
  7
STANDARD
 71
2
 72
1
 10
1.5275
 20
-1.1565
 30
0.0
 11
1.0
 21
0.0
 31
0.0
 44
0.9
  1
Interface
 40
0.125
 41
1.8
  0
MTEXT
  5
260
100
AcDbEntity
  8
0
100
AcDbMText
 62
2
  6
CONTINUOUS
  7
STANDARD
 71
2
 72
1
 10
6.055
 20
-1.1565
 30
0.0
 11
1.0
 21
0.0
 31
0.0
 44
0.9
  1
None
 40
0.125
 41
0.8
  0
MTEXT
  5
261
100
AcDbEntity
  8
0
100
AcDbMText
 62
2
  6
CONTINUOUS
  7
STANDARD
 71
2
 72
1
 10
1.5275
 20
-1.4065
 30
0.0
 11
1.0
 21
0.0
 31
0.0
 44
0.9
  1
Open Cavity Quantity
 40
0.125
 41
4.0
  0
MTEXT
  5
262
100
AcDbEntity
  8
0
100
AcDbMText
 62
2
  6
CONTINUOUS
  7
STANDARD
 71
2
 72
1
 10
6.055
 20
-1.4065
 30
0.0
 11
1.0
 21
0.0
 31
0.0
 44
0.9
  1
1
 40
0.125
 41
0.2
  0
MTEXT
  5
263
100
AcDbEntity
  8
0
100
AcDbMText
 62
2
  6
CONTINUOUS
  7
STANDARD
 71
2
 72
1
 10
1.5275
 20
-1.6565
 30
0.0
 11
1.0
 21
0.0
 31
0.0
 44
0.9
  1
Weight
 40
0.125
 41
1.2
  0
MTEXT
  5
264
100
AcDbEntity
  8
0
100
AcDbMText
 62
2
  6
CONTINUOUS
  7
STANDARD
 71
2
 72
1
 10
4.555
 20
-1.6565
 30
0.0
 11
1.0
 21
0.0
 31
0.0
 44
0.9
  1
0.745 lb.
 40
0.125
 41
1.8
  0
MTEXT
  5
265
100
AcDbEntity
  8
0
100
AcDbMText
 62
2
  6
CONTINUOUS
  7
STANDARD
 71
2
 72
1
 10
7.555
 20
-1.6565
 30
0.0
 11
1.0
 21
0.0
 31
0.0
 44
0.9
  1
0,338 kg.
 40
0.125
 41
1.8
  0
MTEXT
  5
266
100
AcDbEntity
  8
0
100
AcDbMText
 62
2
  6
CONTINUOUS
  7
STANDARD
 71
2
 72
1
 10
1.5275
 20
-1.9065
 30
0.0
 11
1.0
 21
0.0
 31
0.0
 44
0.9
  1
Mounting Hole Diameter
 40
0.125
 41
4.4
  0
MTEXT
  5
267
100
AcDbEntity
  8
0
100
AcDbMText
 62
2
  6
CONTINUOUS
  7
STANDARD
 71
2
 72
1
 10
4.555
 20
-1.9065
 30
0.0
 11
1.0
 21
0.0
 31
0.0
 44
0.9
  1
.34 in.
 40
0.125
 41
1.4
  0
MTEXT
  5
268
100
AcDbEntity
  8
0
100
AcDbMText
 62
2
  6
CONTINUOUS
  7
STANDARD
 71
2
 72
1
 10
7.555
 20
-1.9065
 30
0.0
 11
1.0
 21
0.0
 31
0.0
 44
0.9
  1
8.6 mm
 40
0.125
 41
1.2
  0
MTEXT
  5
269
100
AcDbEntity
  8
0
100
AcDbMText
 62
2
  6
CONTINUOUS
  7
STANDARD
 71
2
 72
1
 10
1.5275
 20
-2.1565
 30
0.0
 11
1.0
 21
0.0
 31
0.0
 44
0.9
  1
Mounting Hole Depth
 40
0.125
 41
3.8
  0
MTEXT
  5
26A
100
AcDbEntity
  8
0
100
AcDbMText
 62
2
  6
CONTINUOUS
  7
STANDARD
 71
2
 72
1
 10
6.055
 20
-2.1565
 30
0.0
 11
1.0
 21
0.0
 31
0.0
 44
0.9
  1
Through
 40
0.125
 41
1.4
  0
MTEXT
  5
26B
100
AcDbEntity
  8
0
100
AcDbMText
 62
2
  6
CONTINUOUS
  7
STANDARD
 71
2
 72
1
 10
1.5275
 20
-2.4065
 30
0.0
 11
1.0
 21
0.0
 31
0.0
 44
0.9
  1
Mounting Hole Quantity
 40
0.125
 41
4.4
  0
MTEXT
  5
26C
100
AcDbEntity
  8
0
100
AcDbMText
 62
2
  6
CONTINUOUS
  7
STANDARD
 71
2
 72
1
 10
6.055
 20
-2.4065
 30
0.0
 11
1.0
 21
0.0
 31
0.0
 44
0.9
  1
1
 40
0.125
 41
0.2
  0
ENDBLK
  5
26D
100
AcDbEntity
  8
0
  6
BYBLOCK
 62
0
100
AcDbBlockEnd
  0
BLOCK
  5
26E
100
AcDbEntity
  8
0
100
AcDbBlockBegin
  2
*T3
 70
1
 10
0.0
 20
0.0
  3
*T3
  1

  0
LINE
  5
26F
100
AcDbEntity
  8
0
100
AcDbLine
 62
2
  6
CONTINUOUS
 10
0.0
 20
0.0
 11
4.6
 21
0.0
  0
LINE
  5
270
100
AcDbEntity
  8
0
100
AcDbLine
 62
2
  6
CONTINUOUS
 10
0.0
 20
0.0
 11
0.0
 21
-0.93775
  0
LINE
  5
271
100
AcDbEntity
  8
0
100
AcDbLine
 62
2
  6
CONTINUOUS
 10
0.0
 20
-0.34375
 11
4.6
 21
-0.34375
  0
LINE
  5
272
100
AcDbEntity
  8
0
100
AcDbLine
 62
2
  6
CONTINUOUS
 10
0.0
 20
-0.68775
 11
4.6
 21
-0.68775
  0
LINE
  5
273
100
AcDbEntity
  8
0
100
AcDbLine
 62
2
  6
CONTINUOUS
 10
0.0
 20
-0.93775
 11
4.6
 21
-0.93775
  0
LINE
  5
274
100
AcDbEntity
  8
0
100
AcDbLine
 62
2
  6
CONTINUOUS
 10
1.3
 20
-0.34375
 11
1.3
 21
-0.93775
  0
LINE
  5
275
100
AcDbEntity
  8
0
100
AcDbLine
 62
2
  6
CONTINUOUS
 10
3.3
 20
-0.34375
 11
3.3
 21
-0.93775
  0
LINE
  5
276
100
AcDbEntity
  8
0
100
AcDbLine
 62
2
  6
CONTINUOUS
 10
4.6
 20
0.0
 11
4.6
 21
-0.93775
  0
MTEXT
  5
277
100
AcDbEntity
  8
0
100
AcDbMText
 62
2
  6
CONTINUOUS
  7
STANDARD
 71
2
 72
1
 10
2.3
 20
-0.099375
 30
0.0
 11
1.0
 21
0.0
 31
0.0
 44
0.9
  1
Port Headings
 40
0.145
 41
3.016
  0
MTEXT
  5
278
100
AcDbEntity
  8
0
100
AcDbMText
 62
2
  6
CONTINUOUS
  7
STANDARD
 71
2
 72
1
 10
0.65
 20
-0.44325
 30
0.0
 11
1.0
 21
0.0
 31
0.0
 44
0.9
  1
Product
 40
0.145
 41
1.624
  0
MTEXT
  5
279
100
AcDbEntity
  8
0
100
AcDbMText
 62
2
  6
CONTINUOUS
  7
STANDARD
 71
2
 72
1
 10
2.3
 20
-0.44325
 30
0.0
 11
1.0
 21
0.0
 31
0.0
 44
0.9
  1
Port
 40
0.145
 41
0.928
  0
MTEXT
  5
27A
100
AcDbEntity
  8
0
100
AcDbMText
 62
2
  6
CONTINUOUS
  7
STANDARD
 71
2
 72
1
 10
3.95
 20
-0.44325
 30
0.0
 11
1.0
 21
0.0
 31
0.0
 44
0.9
  1
Size
 40
0.145
 41
0.928
  0
MTEXT
  5
27B
100
AcDbEntity
  8
0
100
AcDbMText
 62
2
  6
CONTINUOUS
  7
STANDARD
 71
2
 72
1
 10
0.65
 20
-0.75025
 30
0.0
 11
1.0
 21
0.0
 31
0.0
 44
0.9
  1
GAL
 40
0.125
 41
0.6
  0
MTEXT
  5
27C
100
AcDbEntity
  8
0
100
AcDbMText
 62
2
  6
CONTINUOUS
  7
STANDARD
 71
2
 72
1
 10
2.3
 20
-0.75025
 30
0.0
 11
1.0
 21
0.0
 31
0.0
 44
0.9
  1
All Ports
 40
0.125
 41
1.8
  0
MTEXT
  5
27D
100
AcDbEntity
  8
0
100
AcDbMText
 62
2
  6
CONTINUOUS
  7
STANDARD
 71
2
 72
1
 10
3.95
 20
-0.75025
 30
0.0
 11
1.0
 21
0.0
 31
0.0
 44
0.9
  1
SAE 12
 40
0.125
 41
1.2
  0
ENDBLK
  5
27E
100
AcDbEntity
  8
0
  6
BYBLOCK
 62
0
100
AcDbBlockEnd
  0
ENDSEC
  0
SECTION
  2
ENTITIES
  0
IMAGE
  5
27F
100
AcDbEntity
  8
0
100
AcDbRasterImage
 62
7
  6
CONTINUOUS
 10
19.2297077316
 20
0.3094318264
 30
0.0
 11
0.0066666667
 21
0.0
 31
0.0
 12
0.0
 22
0.0066666667
 32
0.0
 13
369.0
 23
92.0
340
       317
 70
9
280
0
281
50
282
50
283
0
360
       311
 71
1
 91
2
 14
-0.5
 24
-0.5
 14
368.5
 24
91.5
  0
INSERT
  5
280
100
AcDbEntity
  8
0
100
AcDbBlockReference
 62
2
  6
CONTINUOUS
  2
SUN_FIRST_THIRD_ANGLE_BL0
 10
20.4816717061
 20
1.2289683772
  0
ACAD_TABLE
  5
281
100
AcDbEntity
  8
0
 62
2
  6
CONTINUOUS
100
AcDbBlockReference
  2
*T1
 10
12.42375
 20
0.30125
 30
0.0
100
AcDbTable
342
       319
343
207
 11
1.0
 21
0.0
 31
0.0
 90
6
 91
4
 92
6
 93
20
 94
0
 95
0
 96
0
 70
1
 41
0.0
141
0.525
141
0.1
141
0.525
141
0.1
142
4.1
142
1.1
142
0.7
142
0.5
142
0.4
142
2.475
171
1
172
0
173
0
174
0
175
1
176
1
 91
33
178
0
145
0.0
301
CELL_VALUE
 90
4
  1
T-13A Line mount\PNinety degree
304
ACVALUE_END
170
2
140
0.125
171
1
172
0
173
0
174
0
175
1
176
1
 91
33
178
0
145
0.0
301
CELL_VALUE
 90
4
  1
May-30-24
304
ACVALUE_END
170
5
140
0.125
171
1
172
0
173
0
174
0
175
1
176
1
 91
33
178
0
145
0.0
301
CELL_VALUE
 90
4
  1
2.000
304
ACVALUE_END
170
5
140
0.125
171
1
172
0
173
0
174
0
175
1
176
1
 91
33
178
0
145
0.0
301
CELL_VALUE
 90
4
  1
C
304
ACVALUE_END
170
5
140
0.125
171
1
172
0
173
0
174
0
175
1
176
1
 91
33
178
0
145
0.0
301
CELL_VALUE
 90
4
  1
2
304
ACVALUE_END
170
5
140
0.125
171
1
172
0
173
0
174
0
175
1
176
1
 91
33
178
0
145
0.0
301
CELL_VALUE
 90
4
  1
 
304
ACVALUE_END
170
1
140
0.125
171
1
172
0
173
0
174
0
175
1
176
1
 91
33
178
0
145
0.0
301
CELL_VALUE
 90
4
  1
DESCRIPTION
304
ACVALUE_END
170
1
140
0.06
171
1
172
0
173
0
174
0
175
1
176
1
 91
33
178
0
145
0.0
301
CELL_VALUE
 90
4
  1
DATE
304
ACVALUE_END
170
1
140
0.06
171
1
172
0
173
0
174
0
175
1
176
1
 91
33
178
0
145
0.0
301
CELL_VALUE
 90
4
  1
SCALE
304
ACVALUE_END
170
1
140
0.06
171
1
172
0
173
0
174
0
175
1
176
1
 91
33
178
0
145
0.0
301
CELL_VALUE
 90
4
  1
DWG SIZE
304
ACVALUE_END
170
1
140
0.06
171
1
172
0
173
0
174
0
175
1
176
1
 91
33
178
0
145
0.0
301
CELL_VALUE
 90
4
  1
SHEET
304
ACVALUE_END
170
1
140
0.06
171
1
172
0
173
0
174
0
175
1
176
1
 91
33
178
0
145
0.0
301
CELL_VALUE
 90
4
  1
 
304
ACVALUE_END
170
1
140
0.125
171
1
172
0
173
0
174
0
175
1
176
1
 91
33
178
0
145
0.0
301
CELL_VALUE
 90
4
  1
GAL
304
ACVALUE_END
170
5
140
0.125
171
1
172
0
173
0
174
0
175
4
176
1
 91
33
178
0
145
0.0
301
CELL_VALUE
 90
4
  1
ALL DIMENSIONS IN INCH\PVIEWS ARE THIRD ANGLE
304
ACVALUE_END
170
5
140
0.12
171
1
172
0
173
1
174
0
175
1
176
1
 91
1
178
0
145
0.0
170
1
171
1
172
0
173
1
174
0
175
1
176
1
 91
1
178
0
145
0.0
170
1
171
1
172
0
173
1
174
0
175
1
176
1
 91
1
178
0
145
0.0
170
5
171
1
172
0
173
0
174
0
175
1
176
1
 91
33
178
0
145
0.0
301
CELL_VALUE
 90
4
  1
 
304
ACVALUE_END
170
1
140
0.125
171
1
172
0
173
0
174
0
175
1
176
1
 91
33
178
0
145
0.0
301
CELL_VALUE
 90
4
  1
MODEL
304
ACVALUE_END
170
1
140
0.06
171
1
172
0
173
0
174
0
175
1
176
1
 91
33
178
0
145
0.0
301
CELL_VALUE
 90
4
  1
 
304
ACVALUE_END
170
1
140
0.125
171
1
172
0
173
0
174
0
175
1
176
1
 91
33
178
0
145
0.0
301
CELL_VALUE
 90
4
  1
 
304
ACVALUE_END
170
1
140
0.125
171
1
172
0
173
0
174
0
175
1
176
1
 91
33
178
0
145
0.0
301
CELL_VALUE
 90
4
  1
 
304
ACVALUE_END
170
1
140
0.125
171
1
172
0
173
0
174
0
175
1
176
1
 91
33
178
0
145
0.0
301
CELL_VALUE
 90
4
  1
 
304
ACVALUE_END
170
1
140
0.125
171
1
172
0
173
0
174
0
175
1
176
1
 91
33
178
0
145
0.0
301
CELL_VALUE
 90
4
  1
 
304
ACVALUE_END
170
1
140
0.125
  0
ACAD_TABLE
  5
282
100
AcDbEntity
  8
0
 62
2
  6
CONTINUOUS
100
AcDbBlockReference
  2
*T2
 10
12.4237499994
 20
16.47875
 30
0.0
100
AcDbTable
342
       318
343
208
 11
1.0
 21
0.0
 31
0.0
 90
22
 91
10
 92
3
 93
16
 94
0
 95
0
 96
0
 41
0.028
141
0.344
141
0.25
141
0.25
141
0.25
141
0.25
141
0.25
141
0.25
141
0.25
141
0.25
141
0.25
142
3.055
142
3.0
142
3.0
171
1
172
0
173
0
174
0
175
1
176
1
 91
33
178
0
145
0.0
301
CELL_VALUE
 90
4
  1
Technical Data
304
ACVALUE_END
170
5
140
0.145
171
1
172
0
173
0
174
0
175
1
176
1
 91
33
178
0
145
0.0
301
CELL_VALUE
 90
4
  1
U.S. Units
304
ACVALUE_END
170
5
140
0.145
171
1
172
0
173
0
174
0
175
1
176
1
 91
33
178
0
145
0.0
301
CELL_VALUE
 90
4
  1
Metric Units
304
ACVALUE_END
170
5
140
0.145
171
1
172
0
173
0
174
0
175
1
176
1
 91
33
178
0
145
0.0
301
CELL_VALUE
 90
4
  1
Cavity
304
ACVALUE_END
170
5
140
0.125
171
1
172
0
173
0
174
0
175
2
176
1
 91
33
178
0
145
0.0
301
CELL_VALUE
 90
4
  1
T-13A
304
ACVALUE_END
170
5
140
0.125
171
1
172
0
173
1
174
0
175
1
176
1
 91
1
178
0
145
0.0
170
1
171
1
172
0
173
0
174
0
175
1
176
1
 91
33
178
0
145
0.0
301
CELL_VALUE
 90
4
  1
Body Features
304
ACVALUE_END
170
5
140
0.125
171
1
172
0
173
0
174
0
175
2
176
1
 91
33
178
0
145
0.0
301
CELL_VALUE
 90
4
  1
Ninety degree
304
ACVALUE_END
170
5
140
0.125
171
1
172
0
173
1
174
0
175
1
176
1
 91
1
178
0
145
0.0
170
1
171
1
172
0
173
0
174
0
175
1
176
1
 91
33
178
0
145
0.0
301
CELL_VALUE
 90
4
  1
Body Type
304
ACVALUE_END
170
5
140
0.125
171
1
172
0
173
0
174
0
175
2
176
1
 91
33
178
0
145
0.0
301
CELL_VALUE
 90
4
  1
Line mount
304
ACVALUE_END
170
5
140
0.125
171
1
172
0
173
1
174
0
175
1
176
1
 91
1
178
0
145
0.0
170
1
171
1
172
0
173
0
174
0
175
1
176
1
 91
33
178
0
145
0.0
301
CELL_VALUE
 90
4
  1
Interface
304
ACVALUE_END
170
5
140
0.125
171
1
172
0
173
0
174
0
175
2
176
1
 91
33
178
0
145
0.0
301
CELL_VALUE
 90
4
  1
None
304
ACVALUE_END
170
5
140
0.125
171
1
172
0
173
1
174
0
175
1
176
1
 91
1
178
0
145
0.0
170
1
171
1
172
0
173
0
174
0
175
1
176
1
 91
33
178
0
145
0.0
301
CELL_VALUE
 90
4
  1
Open Cavity Quantity
304
ACVALUE_END
170
5
140
0.125
171
1
172
0
173
0
174
0
175
2
176
1
 91
33
178
0
145
0.0
301
CELL_VALUE
 90
4
  1
1
304
ACVALUE_END
170
5
140
0.125
171
1
172
0
173
1
174
0
175
1
176
1
 91
1
178
0
145
0.0
170
1
171
1
172
0
173
0
174
0
175
1
176
1
 91
33
178
0
145
0.0
301
CELL_VALUE
 90
4
  1
Weight
304
ACVALUE_END
170
5
140
0.125
171
1
172
0
173
0
174
0
175
1
176
1
 91
33
178
0
145
0.0
301
CELL_VALUE
 90
4
  1
0.745 lb.
304
ACVALUE_END
170
5
140
0.125
171
1
172
0
173
0
174
0
175
1
176
1
 91
33
178
0
145
0.0
301
CELL_VALUE
 90
4
  1
0,338 kg.
304
ACVALUE_END
170
5
140
0.125
171
1
172
0
173
0
174
0
175
1
176
1
 91
33
178
0
145
0.0
301
CELL_VALUE
 90
4
  1
Mounting Hole Diameter
304
ACVALUE_END
170
5
140
0.125
171
1
172
0
173
0
174
0
175
1
176
1
 91
33
178
0
145
0.0
301
CELL_VALUE
 90
4
  1
.34 in.
304
ACVALUE_END
170
5
140
0.125
171
1
172
0
173
0
174
0
175
1
176
1
 91
33
178
0
145
0.0
301
CELL_VALUE
 90
4
  1
8.6 mm
304
ACVALUE_END
170
5
140
0.125
171
1
172
0
173
0
174
0
175
1
176
1
 91
33
178
0
145
0.0
301
CELL_VALUE
 90
4
  1
Mounting Hole Depth
304
ACVALUE_END
170
5
140
0.125
171
1
172
0
173
0
174
0
175
2
176
1
 91
33
178
0
145
0.0
301
CELL_VALUE
 90
4
  1
Through
304
ACVALUE_END
170
5
140
0.125
171
1
172
0
173
1
174
0
175
1
176
1
 91
1
178
0
145
0.0
170
1
171
1
172
0
173
0
174
0
175
1
176
1
 91
33
178
0
145
0.0
301
CELL_VALUE
 90
4
  1
Mounting Hole Quantity
304
ACVALUE_END
170
5
140
0.125
171
1
172
0
173
0
174
0
175
2
176
1
 91
33
178
0
145
0.0
301
CELL_VALUE
 90
4
  1
1
304
ACVALUE_END
170
5
140
0.125
171
1
172
0
173
1
174
0
175
1
176
1
 91
1
178
0
145
0.0
170
1
  0
ACAD_TABLE
  5
283
100
AcDbEntity
  8
0
 62
2
  6
CONTINUOUS
100
AcDbBlockReference
  2
*T3
 10
0.52125
 20
1.459
 30
0.0
100
AcDbTable
342
       318
343
209
 11
1.0
 21
0.0
 31
0.0
 90
22
 91
3
 92
3
 93
16
 94
0
 95
0
 96
0
 41
0.05
141
0.34375
141
0.344
141
0.25
142
1.3
142
2.0
142
1.3
171
1
172
0
173
0
174
0
175
3
176
1
 91
33
178
0
145
0.0
301
CELL_VALUE
 90
4
  1
Port Headings
304
ACVALUE_END
170
5
140
0.145
171
1
172
0
173
1
174
0
175
1
176
1
 91
1
178
0
145
0.0
170
1
171
1
172
0
173
1
174
0
175
1
176
1
 91
1
178
0
145
0.0
170
1
171
1
172
0
173
0
174
0
175
1
176
1
 91
33
178
0
145
0.0
301
CELL_VALUE
 90
4
  1
Product
304
ACVALUE_END
170
5
140
0.145
171
1
172
0
173
0
174
0
175
1
176
1
 91
33
178
0
145
0.0
301
CELL_VALUE
 90
4
  1
Port
304
ACVALUE_END
170
5
140
0.145
171
1
172
0
173
0
174
0
175
1
176
1
 91
33
178
0
145
0.0
301
CELL_VALUE
 90
4
  1
Size
304
ACVALUE_END
170
5
140
0.145
171
1
172
0
173
0
174
0
175
1
176
1
 91
33
178
0
145
0.0
301
CELL_VALUE
 90
4
  1
GAL
304
ACVALUE_END
170
5
140
0.125
171
1
172
0
173
0
174
0
175
1
176
1
 91
33
178
0
145
0.0
301
CELL_VALUE
 90
4
  1
All Ports
304
ACVALUE_END
170
5
140
0.125
171
1
172
0
173
0
174
0
175
1
176
1
 91
33
178
0
145
0.0
301
CELL_VALUE
 90
4
  1
SAE 12
304
ACVALUE_END
170
5
140
0.125
  0
MTEXT
  5
284
100
AcDbEntity
  8
0
100
AcDbMText
 62
2
  6
CONTINUOUS
  7
STANDARD
 71
1
 72
1
 10
0.52125
 20
5.75995
 30
0.0
 11
1.0
 21
0.0
 31
0.0
 44
0.6
  3
Notes\P \P1. Important: Carefully consider\P   the maximum system pressure. The\P   pressure rating of the manifold is\P   dependent on the manifold material,\P   with the port type/size a secondary\P   consideration. Manifolds\P   constructed of alu
  3
minum are not\P   rated for pressures higher than\P   3000 psi (210 bar), regardless of\P   the port type/size specified.\P2. This drawing is for reference\P   only. It is generated by an\P   automated process and does not fall\P   under Sun's docume
  1
nt control\P   process.
 40
0.1
 41
3.04
  0
LINE
  5
285
100
AcDbEntity
  8
0
100
AcDbLine
 62
7
  6
CONTINUOUS
 10
0.30125
 20
0.30125
 11
0.30125
 21
16.69875
  0
LINE
  5
286
100
AcDbEntity
  8
0
100
AcDbLine
 62
7
  6
CONTINUOUS
 10
0.30125
 20
0.30125
 11
21.69875
 21
0.30125
  0
LINE
  5
287
100
AcDbEntity
  8
0
100
AcDbLine
 62
7
  6
CONTINUOUS
 10
0.30125
 20
16.69875
 11
21.69875
 21
16.69875
  0
LINE
  5
288
100
AcDbEntity
  8
0
100
AcDbLine
 62
7
  6
CONTINUOUS
 10
21.69875
 20
0.30125
 11
21.69875
 21
16.69875
  0
LINE
  5
289
100
AcDbEntity
  8
0
100
AcDbLine
 62
7
  6
CONTINUOUS
 10
7.7139941022
 20
10.4992950878
 11
8.4904505967
 21
11.2492945133
  0
LINE
  5
28A
100
AcDbEntity
  8
0
100
AcDbLine
 62
7
  6
CONTINUOUS
 10
7.7139941022
 20
6.152628612
 11
7.7139941022
 21
10.4992950878
  0
LINE
  5
28B
100
AcDbEntity
  8
0
100
AcDbLine
 62
4
  6
CONTINUOUS
 10
8.9696977597
 20
6.2587304471
 11
8.9503792332
 21
6.2745590794
  0
LINE
  5
28C
100
AcDbEntity
  8
0
100
AcDbLine
 62
4
  6
CONTINUOUS
 10
9.0662903436
 20
6.2954983925
 11
9.1049273757
 21
6.2638411293
  0
LINE
  5
28D
100
AcDbEntity
  8
0
100
AcDbLine
 62
4
  6
CONTINUOUS
 10
9.0083347849
 20
6.3719620637
 11
9.0276533114
 21
6.3561334315
  0
LINE
  5
28E
100
AcDbEntity
  8
0
100
AcDbLine
 62
4
  6
CONTINUOUS
 10
8.9503792332
 20
6.2745590794
 11
8.9310607206
 21
6.3048765987
  0
LINE
  5
28F
100
AcDbEntity
  8
0
100
AcDbLine
 62
7
  6
CONTINUOUS
 10
13.5095494033
 20
5.7507054867
 11
7.7139941022
 21
6.152628612
  0
LINE
  5
290
100
AcDbEntity
  8
0
100
AcDbLine
 62
4
  6
CONTINUOUS
 10
9.1049273757
 20
6.2638411293
 11
9.1628829275
 21
6.2453330102
  0
LINE
  5
291
100
AcDbEntity
  8
0
100
AcDbLine
 62
4
  6
CONTINUOUS
 10
9.0276533114
 20
6.3561334315
 11
9.0662903436
 21
6.2954983925
  0
LINE
  5
292
100
AcDbEntity
  8
0
100
AcDbLine
 62
4
  6
CONTINUOUS
 10
8.9696977597
 20
6.3746415506
 11
9.0083347849
 21
6.3719620637
  0
LINE
  5
293
100
AcDbEntity
  8
0
100
AcDbLine
 62
4
  6
CONTINUOUS
 10
8.9310607206
 20
6.3048765987
 11
8.9310607206
 21
6.3338543745
  0
LINE
  5
294
100
AcDbEntity
  8
0
100
AcDbLine
 62
4
  6
CONTINUOUS
 10
9.046971824
 20
7.2502070013
 11
9.046971824
 21
7.1342958979
  0
LINE
  5
295
100
AcDbEntity
  8
0
100
AcDbLine
 62
4
  6
CONTINUOUS
 10
9.046971824
 20
7.4820292082
 11
9.046971824
 21
7.5979403116
  0
LINE
  5
296
100
AcDbEntity
  8
0
100
AcDbLine
 62
4
  6
CONTINUOUS
 10
9.1049273757
 20
9.0650261703
 11
9.1049273757
 21
9.0940039462
  0
LINE
  5
297
100
AcDbEntity
  8
0
100
AcDbLine
 62
4
  6
CONTINUOUS
 10
9.1628829275
 20
8.7277625168
 11
9.1628829275
 21
8.6504884478
  0
LINE
  5
298
100
AcDbEntity
  8
0
100
AcDbLine
 62
4
  6
CONTINUOUS
 10
9.1628829275
 20
7.9376351596
 11
9.1628829275
 21
7.8217240562
  0
LINE
  5
299
100
AcDbEntity
  8
0
100
AcDbLine
 62
4
  6
CONTINUOUS
 10
9.1628829275
 20
6.2453330102
 11
9.1628829275
 21
6.3612441137
  0
LINE
  5
29A
100
AcDbEntity
  8
0
100
AcDbLine
 62
4
  6
CONTINUOUS
 10
9.1628829275
 20
7.1262574356
 11
9.1628829275
 21
7.242168539
  0
LINE
  5
29B
100
AcDbEntity
  8
0
100
AcDbLine
 62
4
  6
CONTINUOUS
 10
9.1628829275
 20
8.2254810686
 11
9.1628829275
 21
8.341392172
  0
LINE
  5
29C
100
AcDbEntity
  8
0
100
AcDbLine
 62
4
  6
CONTINUOUS
 10
9.1628829275
 20
8.418666241
 11
9.1628829275
 21
8.5345773444
  0
LINE
  5
29D
100
AcDbEntity
  8
0
100
AcDbLine
 62
4
  6
CONTINUOUS
 10
9.1628829275
 20
9.152769896
 11
9.1628829275
 21
9.2686809995
  0
LINE
  5
29E
100
AcDbEntity
  8
0
100
AcDbLine
 62
4
  6
CONTINUOUS
 10
9.1628829275
 20
9.3459550684
 11
9.1628829275
 21
9.4618661718
  0
LINE
  5
29F
100
AcDbEntity
  8
0
100
AcDbLine
 62
4
  6
CONTINUOUS
 10
9.2015199619
 20
8.6091719259
 11
9.2015199619
 21
8.7250830293
  0
LINE
  5
2A0
100
AcDbEntity
  8
0
100
AcDbLine
 62
4
  6
CONTINUOUS
 10
9.2208384792
 20
9.3419358373
 11
9.2208384792
 21
9.4578469407
  0
LINE
  5
2A1
100
AcDbEntity
  8
0
100
AcDbLine
 62
4
  6
CONTINUOUS
 10
9.2787940309
 20
9.4538277095
 11
9.2787940309
 21
9.3379166061
  0
LINE
  5
2A2
100
AcDbEntity
  8
0
100
AcDbLine
 62
4
  6
CONTINUOUS
 10
9.2787940309
 20
8.7197240545
 11
9.2787940309
 21
8.603812951
  0
LINE
  5
2A3
100
AcDbEntity
  8
0
100
AcDbLine
 62
4
  6
CONTINUOUS
 10
9.2787940309
 20
8.3333537097
 11
9.2787940309
 21
8.2174426062
  0
LINE
  5
2A4
100
AcDbEntity
  8
0
100
AcDbLine
 62
4
  6
CONTINUOUS
 10
9.2787940309
 20
8.1401685373
 11
9.2787940309
 21
8.0242574339
  0
LINE
  5
2A5
100
AcDbEntity
  8
0
100
AcDbLine
 62
4
  6
CONTINUOUS
 10
9.2787940309
 20
7.4079967318
 11
9.2787940309
 21
7.2920856284
  0
LINE
  5
2A6
100
AcDbEntity
  8
0
100
AcDbLine
 62
4
  6
CONTINUOUS
 10
9.2787940309
 20
7.2341300767
 11
9.2787940309
 21
7.1182189733
  0
LINE
  5
2A7
100
AcDbEntity
  8
0
100
AcDbLine
 62
4
  6
CONTINUOUS
 10
9.2787940309
 20
8.7969981234
 11
9.2787940309
 21
8.9129092268
  0
LINE
  5
2A8
100
AcDbEntity
  8
0
100
AcDbLine
 62
4
  6
CONTINUOUS
 10
9.2787940309
 20
9.1447314337
 11
9.2787940309
 21
9.2606425371
  0
LINE
  5
2A9
100
AcDbEntity
  8
0
100
AcDbLine
 62
4
  6
CONTINUOUS
 10
9.3947051343
 20
8.132130075
 11
9.3947051343
 21
8.054856006
  0
LINE
  5
2AA
100
AcDbEntity
  8
0
100
AcDbLine
 62
4
  6
CONTINUOUS
 10
9.046971824
 20
7.1342958979
 11
9.1628829275
 21
7.1262574356
  0
LINE
  5
2AB
100
AcDbEntity
  8
0
100
AcDbLine
 62
4
  6
CONTINUOUS
 10
9.7192562239
 20
7.9881917022
 11
9.7192562239
 21
8.070985346
  0
LINE
  5
2AC
100
AcDbEntity
  8
0
100
AcDbLine
 62
4
  6
CONTINUOUS
 10
9.8186085924
 20
8.0144190516
 11
9.8186085924
 21
8.0640952358
  0
LINE
  5
2AD
100
AcDbEntity
  8
0
100
AcDbLine
 62
4
  6
CONTINUOUS
 10
9.8848435116
 20
8.147815045
 11
9.8848435116
 21
8.2361282614
  0
LINE
  5
2AE
100
AcDbEntity
  8
0
100
AcDbLine
 62
4
  6
CONTINUOUS
 10
9.1628829275
 20
7.242168539
 11
9.2787940309
 21
7.2341300767
  0
LINE
  5
2AF
100
AcDbEntity
  8
0
100
AcDbLine
 62
4
  6
CONTINUOUS
 10
9.2787940309
 20
7.2920856284
 11
9.046971824
 21
7.3081625531
  0
LINE
  5
2B0
100
AcDbEntity
  8
0
100
AcDbLine
 62
4
  6
CONTINUOUS
 10
10.4610872859
 20
7.3047540393
 11
10.229265079
 21
7.3208309639
  0
LINE
  5
2B1
100
AcDbEntity
  8
0
100
AcDbLine
 62
4
  6
CONTINUOUS
 10
9.046971824
 20
7.4240736565
 11
9.2787940309
 21
7.4079967318
  0
LINE
  5
2B2
100
AcDbEntity
  8
0
100
AcDbLine
 62
4
  6
CONTINUOUS
 10
9.046971824
 20
7.4820292082
 11
9.2787940309
 21
7.4659522835
  0
LINE
  5
2B3
100
AcDbEntity
  8
0
100
AcDbLine
 62
4
  6
CONTINUOUS
 10
10.2623825352
 20
7.4344453501
 11
10.4279698263
 21
7.4229618325
  0
LINE
  5
2B4
100
AcDbEntity
  8
0
100
AcDbLine
 62
4
  6
CONTINUOUS
 10
10.4610872859
 20
7.5144979282
 11
10.229265079
 21
7.5968097651
  0
LINE
  5
2B5
100
AcDbEntity
  8
0
100
AcDbLine
 62
4
  6
CONTINUOUS
 10
9.7523736801
 20
7.9527775392
 11
9.7192562239
 21
7.9881917022
  0
LINE
  5
2B6
100
AcDbEntity
  8
0
100
AcDbLine
 62
4
  6
CONTINUOUS
 10
10.4279698263
 20
7.4229618325
 11
10.4610872859
 21
7.3875476727
  0
LINE
  5
2B7
100
AcDbEntity
  8
0
100
AcDbLine
 62
4
  6
CONTINUOUS
 10
10.3175782954
 20
7.2705498064
 11
10.3617349105
 21
7.1791743115
  0
LINE
  5
2B8
100
AcDbEntity
  8
0
100
AcDbLine
 62
4
  6
CONTINUOUS
 10
9.9510784308
 20
8.0549084213
 11
9.9510784308
 21
7.9721147775
  0
LINE
  5
2B9
100
AcDbEntity
  8
0
100
AcDbLine
 62
4
  6
CONTINUOUS
 10
9.9510784308
 20
8.3198480982
 11
9.9510784308
 21
8.4026417316
  0
LINE
  5
2BA
100
AcDbEntity
  8
0
100
AcDbLine
 62
4
  6
CONTINUOUS
 10
10.3175782954
 20
9.0202554616
 11
10.3617349105
 21
9.1055064063
  0
LINE
  5
2BB
100
AcDbEntity
  8
0
100
AcDbLine
 62
4
  6
CONTINUOUS
 10
9.046971824
 20
7.5979403116
 11
9.2787940309
 21
7.581863387
  0
LINE
  5
2BC
100
AcDbEntity
  8
0
100
AcDbLine
 62
4
  6
CONTINUOUS
 10
10.229265079
 20
7.3208309639
 11
10.229265079
 21
7.4036245974
  0
LINE
  5
2BD
100
AcDbEntity
  8
0
100
AcDbLine
 62
4
  6
CONTINUOUS
 10
10.229265079
 20
7.7292795897
 11
10.229265079
 21
7.8617494143
  0
LINE
  5
2BE
100
AcDbEntity
  8
0
100
AcDbLine
 62
4
  6
CONTINUOUS
 10
10.229265079
 20
7.9279843543
 11
10.229265079
 21
8.0273367365
  0
LINE
  5
2BF
100
AcDbEntity
  8
0
100
AcDbLine
 62
4
  6
CONTINUOUS
 10
10.229265079
 20
8.3088351622
 11
10.229265079
 21
8.3750700468
  0
LINE
  5
2C0
100
AcDbEntity
  8
0
100
AcDbLine
 62
4
  6
CONTINUOUS
 10
10.229265079
 20
8.5020202609
 11
10.229265079
 21
8.5516964796
  0
LINE
  5
2C1
100
AcDbEntity
  8
0
100
AcDbLine
 62
4
  6
CONTINUOUS
 10
10.229265079
 20
8.6510488066
 11
10.229265079
 21
8.7338424677
  0
LINE
  5
2C2
100
AcDbEntity
  8
0
100
AcDbLine
 62
4
  6
CONTINUOUS
 10
10.229265079
 20
8.8607927923
 11
10.229265079
 21
8.9601451193
  0
LINE
  5
2C3
100
AcDbEntity
  8
0
100
AcDbLine
 62
4
  6
CONTINUOUS
 10
10.3286174475
 20
8.9201375668
 11
10.3286174475
 21
8.8539026821
  0
LINE
  5
2C4
100
AcDbEntity
  8
0
100
AcDbLine
 62
4
  6
CONTINUOUS
 10
10.3286174475
 20
7.9873291841
 11
10.3286174475
 21
7.9210942441
  0
LINE
  5
2C5
100
AcDbEntity
  8
0
100
AcDbLine
 62
4
  6
CONTINUOUS
 10
10.3948523667
 20
7.5411696395
 11
10.3948523667
 21
7.6294828559
  0
LINE
  5
2C6
100
AcDbEntity
  8
0
100
AcDbLine
 62
4
  6
CONTINUOUS
 10
10.4610872859
 20
8.7177655431
 11
10.4610872859
 21
8.634971882
  0
LINE
  5
2C7
100
AcDbEntity
  8
0
100
AcDbLine
 62
4
  6
CONTINUOUS
 10
10.4610872859
 20
8.535619555
 11
10.4610872859
 21
8.4859433362
  0
LINE
  5
2C8
100
AcDbEntity
  8
0
100
AcDbLine
 62
4
  6
CONTINUOUS
 10
10.4610872859
 20
8.3589931222
 11
10.4610872859
 21
8.2927582375
  0
LINE
  5
2C9
100
AcDbEntity
  8
0
100
AcDbLine
 62
4
  6
CONTINUOUS
 10
10.4610872859
 20
7.3875476727
 11
10.4610872859
 21
7.3047540393
  0
LINE
  5
2CA
100
AcDbEntity
  8
0
100
AcDbLine
 62
4
  6
CONTINUOUS
 10
10.4610872859
 20
7.9119074296
 11
10.4610872859
 21
8.0112598119
  0
LINE
  5
2CB
100
AcDbEntity
  8
0
100
AcDbLine
 62
4
  6
CONTINUOUS
 10
10.4610872859
 20
8.8447158677
 11
10.4610872859
 21
8.9440681946
  0
LINE
  5
2CC
100
AcDbEntity
  8
0
100
AcDbLine
 62
4
  6
CONTINUOUS
 10
10.229265079
 20
8.7338424677
 11
10.2623825352
 21
8.7646632067
  0
LINE
  5
2CD
100
AcDbEntity
  8
0
100
AcDbLine
 62
4
  6
CONTINUOUS
 10
10.229265079
 20
8.5516964796
 11
10.2623825352
 21
8.5825172186
  0
LINE
  5
2CE
100
AcDbEntity
  8
0
100
AcDbLine
 62
4
  6
CONTINUOUS
 10
10.229265079
 20
7.5968097651
 11
10.4610872859
 21
7.6469677804
  0
LINE
  5
2CF
100
AcDbEntity
  8
0
100
AcDbLine
 62
4
  6
CONTINUOUS
 10
9.2787940309
 20
7.8136855938
 11
9.046971824
 21
7.8297625185
  0
LINE
  5
2D0
100
AcDbEntity
  8
0
100
AcDbLine
 62
4
  6
CONTINUOUS
 10
10.4610872859
 20
7.779437605
 11
10.229265079
 21
7.7955145297
  0
LINE
  5
2D1
100
AcDbEntity
  8
0
100
AcDbLine
 62
4
  6
CONTINUOUS
 10
9.2787940309
 20
7.9295966973
 11
9.1628829275
 21
7.9376351596
  0
LINE
  5
2D2
100
AcDbEntity
  8
0
100
AcDbLine
 62
4
  6
CONTINUOUS
 10
9.9179609712
 20
7.9412940215
 11
9.7523736801
 21
7.9527775392
  0
LINE
  5
2D3
100
AcDbEntity
  8
0
100
AcDbLine
 62
4
  6
CONTINUOUS
 10
10.4610872859
 20
7.9119074296
 11
10.229265079
 21
7.9279843543
  0
LINE
  5
2D4
100
AcDbEntity
  8
0
100
AcDbLine
 62
4
  6
CONTINUOUS
 10
9.2787940309
 20
8.0242574339
 11
9.1628829275
 21
8.0322958962
  0
LINE
  5
2D5
100
AcDbEntity
  8
0
100
AcDbLine
 62
4
  6
CONTINUOUS
 10
9.9510784308
 20
8.1211433336
 11
9.7192562239
 21
8.2034551706
  0
LINE
  5
2D6
100
AcDbEntity
  8
0
100
AcDbLine
 62
4
  6
CONTINUOUS
 10
10.2623825352
 20
8.2734210165
 11
10.229265079
 21
8.3088351622
  0
LINE
  5
2D7
100
AcDbEntity
  8
0
100
AcDbLine
 62
4
  6
CONTINUOUS
 10
10.2623825352
 20
8.4666061152
 11
10.229265079
 21
8.5020202609
  0
LINE
  5
2D8
100
AcDbEntity
  8
0
100
AcDbLine
 62
4
  6
CONTINUOUS
 10
8.9310607206
 20
6.3338543745
 11
8.9503792332
 21
6.361492407
  0
LINE
  5
2D9
100
AcDbEntity
  8
0
100
AcDbLine
 62
4
  6
CONTINUOUS
 10
10.4610872859
 20
8.4859433362
 11
10.4279698263
 21
8.4551225975
  0
LINE
  5
2DA
100
AcDbEntity
  8
0
100
AcDbLine
 62
4
  6
CONTINUOUS
 10
9.9510784308
 20
7.9721147775
 11
9.9179609712
 21
7.9412940215
  0
LINE
  5
2DB
100
AcDbEntity
  8
0
100
AcDbLine
 62
4
  6
CONTINUOUS
 10
9.8186085924
 20
8.0640952358
 11
9.9510784308
 21
8.0549084213
  0
LINE
  5
2DC
100
AcDbEntity
  8
0
100
AcDbLine
 62
4
  6
CONTINUOUS
 10
9.1628829275
 20
8.1482069996
 11
9.3947051343
 21
8.132130075
  0
LINE
  5
2DD
100
AcDbEntity
  8
0
100
AcDbLine
 62
4
  6
CONTINUOUS
 10
9.2787940309
 20
8.2174426062
 11
9.1628829275
 21
8.2254810686
  0
LINE
  5
2DE
100
AcDbEntity
  8
0
100
AcDbLine
 62
4
  6
CONTINUOUS
 10
9.046971824
 20
8.3494306343
 11
9.2787940309
 21
8.3333537097
  0
LINE
  5
2DF
100
AcDbEntity
  8
0
100
AcDbLine
 62
4
  6
CONTINUOUS
 10
10.4279698263
 20
8.2619374988
 11
10.2623825352
 21
8.2734210165
  0
LINE
  5
2E0
100
AcDbEntity
  8
0
100
AcDbLine
 62
4
  6
CONTINUOUS
 10
9.7192562239
 20
8.3359250228
 11
9.9510784308
 21
8.3198480982
  0
LINE
  5
2E1
100
AcDbEntity
  8
0
100
AcDbLine
 62
4
  6
CONTINUOUS
 10
10.4279698263
 20
8.5710337009
 11
10.4610872859
 21
8.535619555
  0
LINE
  5
2E2
100
AcDbEntity
  8
0
100
AcDbLine
 62
4
  6
CONTINUOUS
 10
10.3617349105
 20
9.1055064063
 11
10.4058915222
 21
9.0141309185
  0
LINE
  5
2E3
100
AcDbEntity
  8
0
100
AcDbLine
 62
4
  6
CONTINUOUS
 10
10.4610872859
 20
8.2927582375
 11
10.4279698263
 21
8.2619374988
  0
LINE
  5
2E4
100
AcDbEntity
  8
0
100
AcDbLine
 62
4
  6
CONTINUOUS
 10
9.7192562239
 20
8.2034551706
 11
9.9510784308
 21
8.2536131582
  0
LINE
  5
2E5
100
AcDbEntity
  8
0
100
AcDbLine
 62
4
  6
CONTINUOUS
 10
9.1628829275
 20
8.418666241
 11
9.2787940309
 21
8.4106277786
  0
LINE
  5
2E6
100
AcDbEntity
  8
0
100
AcDbLine
 62
4
  6
CONTINUOUS
 10
10.4279698263
 20
8.4551225975
 11
10.2623825352
 21
8.4666061152
  0
LINE
  5
2E7
100
AcDbEntity
  8
0
100
AcDbLine
 62
4
  6
CONTINUOUS
 10
9.2787940309
 20
8.603812951
 11
9.2015199619
 21
8.6091719259
  0
LINE
  5
2E8
100
AcDbEntity
  8
0
100
AcDbLine
 62
4
  6
CONTINUOUS
 10
10.2623825352
 20
8.5825172186
 11
10.4279698263
 21
8.5710337009
  0
LINE
  5
2E9
100
AcDbEntity
  8
0
100
AcDbLine
 62
4
  6
CONTINUOUS
 10
10.4279698263
 20
8.753179689
 11
10.4610872859
 21
8.7177655431
  0
LINE
  5
2EA
100
AcDbEntity
  8
0
100
AcDbLine
 62
4
  6
CONTINUOUS
 10
10.3617349105
 20
7.1791743115
 11
10.4058915222
 21
7.2644252634
  0
LINE
  5
2EB
100
AcDbEntity
  8
0
100
AcDbLine
 62
4
  6
CONTINUOUS
 10
10.229265079
 20
7.4036245974
 11
10.2623825352
 21
7.4344453501
  0
LINE
  5
2EC
100
AcDbEntity
  8
0
100
AcDbLine
 62
4
  6
CONTINUOUS
 10
10.4610872859
 20
8.634971882
 11
10.229265079
 21
8.6510488066
  0
LINE
  5
2ED
100
AcDbEntity
  8
0
100
AcDbLine
 62
4
  6
CONTINUOUS
 10
9.1628829275
 20
8.7277625168
 11
9.2787940309
 21
8.7197240545
  0
LINE
  5
2EE
100
AcDbEntity
  8
0
100
AcDbLine
 62
4
  6
CONTINUOUS
 10
9.1628829275
 20
8.8050365857
 11
9.2787940309
 21
8.7969981234
  0
LINE
  5
2EF
100
AcDbEntity
  8
0
100
AcDbLine
 62
4
  6
CONTINUOUS
 10
10.2623825352
 20
8.7646632067
 11
10.4279698263
 21
8.753179689
  0
LINE
  5
2F0
100
AcDbEntity
  8
0
100
AcDbLine
 62
4
  6
CONTINUOUS
 10
9.2787940309
 20
8.9129092268
 11
9.1628829275
 21
8.9209476892
  0
LINE
  5
2F1
100
AcDbEntity
  8
0
100
AcDbLine
 62
4
  6
CONTINUOUS
 10
10.4610872859
 20
8.8447158677
 11
10.229265079
 21
8.8607927923
  0
LINE
  5
2F2
100
AcDbEntity
  8
0
100
AcDbLine
 62
4
  6
CONTINUOUS
 10
13.0845420169
 20
8.6779576076
 11
13.3163642237
 21
8.6618806829
  0
LINE
  5
2F3
100
AcDbEntity
  8
0
100
AcDbLine
 62
7
  6
CONTINUOUS
 10
13.5095494033
 20
10.0973719626
 11
14.2860058978
 21
10.847371388
  0
LINE
  5
2F4
100
AcDbEntity
  8
0
100
AcDbLine
 62
4
  6
CONTINUOUS
 10
9.2787940309
 20
8.9901832958
 11
9.046971824
 21
9.0062602204
  0
LINE
  5
2F5
100
AcDbEntity
  8
0
100
AcDbLine
 62
4
  6
CONTINUOUS
 10
9.2787940309
 20
9.0674573647
 11
9.1628829275
 21
9.0754958271
  0
LINE
  5
2F6
100
AcDbEntity
  8
0
100
AcDbLine
 62
4
  6
CONTINUOUS
 10
9.1628829275
 20
9.152769896
 11
9.2787940309
 21
9.1447314337
  0
LINE
  5
2F7
100
AcDbEntity
  8
0
100
AcDbLine
 62
4
  6
CONTINUOUS
 10
8.9503792332
 20
6.361492407
 11
8.9696977597
 21
6.3746415506
  0
LINE
  5
2F8
100
AcDbEntity
  8
0
100
AcDbLine
 62
4
  6
CONTINUOUS
 10
9.1628829275
 20
9.3459550684
 11
9.2208384792
 21
9.3419358373
  0
LINE
  5
2F9
100
AcDbEntity
  8
0
100
AcDbLine
 62
4
  6
CONTINUOUS
 10
9.2208384792
 20
9.4578469407
 11
9.2787940309
 21
9.4538277095
  0
LINE
  5
2FA
100
AcDbEntity
  8
0
100
AcDbLine
 62
7
  6
CONTINUOUS
 10
13.5095494033
 20
10.0973719626
 11
7.7139941022
 21
10.4992950878
  0
LINE
  5
2FB
100
AcDbEntity
  8
0
100
AcDbLine
 62
7
  6
CONTINUOUS
 10
13.5095494033
 20
5.7507054867
 11
13.5095494033
 21
10.0973719626
  0
LINE
  5
2FC
100
AcDbEntity
  8
0
100
AcDbLine
 62
7
  6
CONTINUOUS
 10
14.2860058978
 20
10.847371388
 11
8.4904505967
 21
11.2492945133
  0
LINE
  5
2FD
100
AcDbEntity
  8
0
100
AcDbLine
 62
7
  6
CONTINUOUS
 10
14.2860058978
 20
10.847371388
 11
14.2860058978
 21
6.5007049122
  0
LINE
  5
2FE
100
AcDbEntity
  8
0
100
AcDbLine
 62
7
  6
CONTINUOUS
 10
14.2860058978
 20
6.5007049122
 11
13.5095494033
 21
5.7507054867
  0
SPLINE
  5
2FF
100
AcDbEntity
  8
0
100
AcDbSpline
 62
7
  6
CONTINUOUS
 70
0
 71
3
 72
23
 73
19
 74
0
 42
0.0000001
 43
0.0000001
 44
0.0000000001
 40
0.0
 40
0.0
 40
0.0
 40
0.0
 40
0.0764224449
 40
0.1504663304
 40
0.2222018644
 40
0.2917109085
 40
0.3590900072
 40
0.4244474941
 40
0.4879039322
 40
0.5495927797
 40
0.6096609977
 40
0.6682702188
 40
0.7255962294
 40
0.7818281329
 40
0.8371677443
 40
0.8918276443
 40
0.9460291863
 40
1.0
 40
1.0
 40
1.0
 40
1.0
 10
13.8977776506
 20
10.3226530933
 30
0.0
 10
13.8998873386
 20
10.3246908957
 30
0.0
 10
13.9041058783
 20
10.3286367351
 30
0.0
 10
13.9105342062
 20
10.3342437281
 30
0.0
 10
13.9169596213
 20
10.3394421922
 30
0.0
 10
13.9233802034
 20
10.3442303023
 30
0.0
 10
13.9297941691
 20
10.3486067155
 30
0.0
 10
13.9361998941
 20
10.3525701133
 30
0.0
 10
13.9425957036
 20
10.3561192719
 30
0.0
 10
13.94897984
 20
10.3592530875
 30
0.0
 10
13.9553505962
 20
10.3619703654
 30
0.0
 10
13.9617061706
 20
10.3642701246
 30
0.0
 10
13.9680447309
 20
10.3661515026
 30
0.0
 10
13.9743644401
 20
10.3676135804
 30
0.0
 10
13.9806632962
 20
10.3686557569
 30
0.0
 10
13.9869393906
 20
10.3692774768
 30
0.0
 10
13.9931902685
 20
10.3694783036
 30
0.0
 10
13.9973431634
 20
10.3693313841
 30
0.0
 10
13.9994096457
 20
10.3691880662
 30
0.0
  0
SPLINE
  5
300
100
AcDbEntity
  8
0
100
AcDbSpline
 62
7
  6
CONTINUOUS
 70
0
 71
3
 72
23
 73
19
 74
0
 42
0.0000001
 43
0.0000001
 44
0.0000000001
 40
0.0
 40
0.0
 40
0.0
 40
0.0
 40
0.0637764154
 40
0.1273451281
 40
0.190701988
 40
0.253856063
 40
0.3168132283
 40
0.3795820791
 40
0.4421733864
 40
0.5045993414
 40
0.5668738629
 40
0.629012379
 40
0.6910316532
 40
0.7529496461
 40
0.8147853522
 40
0.8765586034
 40
0.9382898574
 40
1.0
 40
1.0
 40
1.0
 40
1.0
 10
13.2989775833
 20
6.308159016
 30
0.0
 10
13.2989775833
 20
6.3028515829
 30
0.0
 10
13.2987235197
 20
6.292252204
 30
0.0
 10
13.2975769566
 20
6.2764176395
 30
0.0
 10
13.2956678555
 20
6.2607085499
 30
0.0
 10
13.2930008153
 20
6.2451619211
 30
0.0
 10
13.2895818063
 20
6.2298132219
 30
0.0
 10
13.285418738
 20
6.2146979348
 30
0.0
 10
13.2805211866
 20
6.1998508932
 30
0.0
 10
13.2749003386
 20
6.1853063499
 30
0.0
 10
13.2685691743
 20
6.171097838
 30
0.0
 10
13.2615422837
 20
6.1572581164
 30
0.0
 10
13.2538358117
 20
6.1438191295
 30
0.0
 10
13.2454674889
 20
6.1308118867
 30
0.0
 10
13.2364566731
 20
6.1182663945
 30
0.0
 10
13.2268240254
 20
6.1062114964
 30
0.0
 10
13.2165920954
 20
6.0946754156
 30
0.0
 10
13.2093856712
 20
6.0873469559
 30
0.0
 10
13.2056919547
 20
6.0837790987
 30
0.0
  0
SPLINE
  5
301
100
AcDbEntity
  8
0
100
AcDbSpline
 62
7
  6
CONTINUOUS
 70
0
 71
3
 72
43
 73
39
 74
0
 42
0.0000001
 43
0.0000001
 44
0.0000000001
 40
0.0
 40
0.0
 40
0.0
 40
0.0
 40
0.0149723098
 40
0.0299476795
 40
0.0449291474
 40
0.05991972
 40
0.0749223413
 40
0.0899398895
 40
0.1049751458
 40
0.1200307886
 40
0.1502075383
 40
0.1804946787
 40
0.2109083087
 40
0.2414615673
 40
0.2721643694
 40
0.303023226
 40
0.3340411482
 40
0.3652176339
 40
0.3965487319
 40
0.4280271774
 40
0.4596425917
 40
0.4913817403
 40
0.5232288393
 40
0.555165905
 40
0.5871731364
 40
0.6192293252
 40
0.6513122868
 40
0.6833993039
 40
0.7154675788
 40
0.7474946857
 40
0.7794590188
 40
0.8113402295
 40
0.8431196416
 40
0.8747806564
 40
0.906309065
 40
0.9376935582
 40
0.9689254026
 40
1.0
 40
1.0
 40
1.0
 40
1.0
 10
12.727706204
 20
6.5786261183
 30
0.0
 10
12.7305598985
 20
6.5813825764
 30
0.0
 10
12.7363781065
 20
6.5867832347
 30
0.0
 10
12.7454214662
 20
6.5945318081
 30
0.0
 10
12.754769275
 20
6.6019183537
 30
0.0
 10
12.7644085686
 20
6.6089324322
 30
0.0
 10
12.7743260955
 20
6.6155645073
 30
0.0
 10
12.7845081445
 20
6.6218054098
 30
0.0
 10
12.794940949
 20
6.6276466017
 30
0.0
 10
12.8091752232
 20
6.6348959107
 30
0.0
 10
12.8275323869
 20
6.6429207504
 30
0.0
 10
12.850305021
 20
6.6508257331
 30
0.0
 10
12.8737174985
 20
6.656972274
 30
0.0
 10
12.8976399714
 20
6.6613263552
 30
0.0
 10
12.921940959
 20
6.663864452
 30
0.0
 10
12.9464866754
 20
6.6645728864
 30
0.0
 10
12.9711421427
 20
6.6634480885
 30
0.0
 10
12.9957718273
 20
6.6604965444
 30
0.0
 10
13.0202404052
 20
6.6557347622
 30
0.0
 10
13.0444134888
 20
6.6491891651
 30
0.0
 10
13.0681583574
 20
6.6408959413
 30
0.0
 10
13.0913446781
 20
6.630900845
 30
0.0
 10
13.113845209
 20
6.619258932
 30
0.0
 10
13.1355364876
 20
6.6060342583
 30
0.0
 10
13.1562994994
 20
6.5912995281
 30
0.0
 10
13.1760203216
 20
6.5751356972
 30
0.0
 10
13.1945907414
 20
6.5576315314
 30
0.0
 10
13.2119088419
 20
6.5388831239
 30
0.0
 10
13.2278795563
 20
6.5189933729
 30
0.0
 10
13.2424151842
 20
6.4980714236
 30
0.0
 10
13.2554358765
 20
6.4762320803
 30
0.0
 10
13.2668700616
 20
6.4535951735
 30
0.0
 10
13.2766548436
 20
6.4302849267
 30
0.0
 10
13.2847363236
 20
6.4064292302
 30
0.0
 10
13.291069962
 20
6.3821591377
 30
0.0
 10
13.2956206682
 20
6.3576074623
 30
0.0
 10
13.2983633032
 20
6.3329107705
 30
0.0
 10
13.2989775833
 20
6.3163935988
 30
0.0
 10
13.2989775833
 20
6.308159016
 30
0.0
  0
SPLINE
  5
302
100
AcDbEntity
  8
0
100
AcDbSpline
 62
7
  6
CONTINUOUS
 70
0
 71
3
 72
107
 73
103
 74
0
 42
0.0000001
 43
0.0000001
 44
0.0000000001
 40
0.0
 40
0.0
 40
0.0
 40
0.0
 40
0.0013572612
 40
0.0027170797
 40
0.0040819966
 40
0.0054545211
 40
0.0068371186
 40
0.0082321971
 40
0.0110684612
 40
0.013981638
 40
0.0169879164
 40
0.0201018459
 40
0.0233363318
 40
0.0267026481
 40
0.0302105686
 40
0.0338684409
 40
0.0376833717
 40
0.0416613006
 40
0.0458071887
 40
0.0501250693
 40
0.0546182177
 40
0.0592891779
 40
0.0641399047
 40
0.0691717748
 40
0.0743856998
 40
0.0797821307
 40
0.085361142
 40
0.0911224386
 40
0.0970654107
 40
0.1031891498
 40
0.1094924768
 40
0.1159739692
 40
0.1226319653
 40
0.129464604
 40
0.1364698079
 40
0.1436453353
 40
0.1509887461
 40
0.1584974632
 40
0.1661687264
 40
0.1739996594
 40
0.1819872169
 40
0.190128253
 40
0.198419467
 40
0.2068574681
 40
0.2154387256
 40
0.2330162676
 40
0.251122054
 40
0.2697243673
 40
0.2887901232
 40
0.3082849955
 40
0.3281735335
 40
0.3484192745
 40
0.368984852
 40
0.3898321014
 40
0.4109221623
 40
0.4322155806
 40
0.4536724082
 40
0.4752523025
 40
0.4969146253
 40
0.5186185408
 40
0.5403231135
 40
0.5619874067
 40
0.5835705797
 40
0.6050319862
 40
0.6263312728
 40
0.647428477
 40
0.6682841272
 40
0.6888593425
 40
0.7091159341
 40
0.7290165084
 40
0.748524572
 40
0.7676046402
 40
0.7862223487
 40
0.8043445717
 40
0.8219395458
 40
0.8389770046
 40
0.8472777515
 40
0.8554285212
 40
0.8634260347
 40
0.8712671072
 40
0.8789487159
 40
0.8864679446
 40
0.8938220534
 40
0.9010084264
 40
0.9080246393
 40
0.914868415
 40
0.9215376844
 40
0.9280305565
 40
0.9343453681
 40
0.9404806728
 40
0.9464352792
 40
0.9522082616
 40
0.9577989849
 40
0.9632071405
 40
0.9684327659
 40
0.9734763106
 40
0.9783386302
 40
0.9830210709
 40
0.9875255286
 40
0.9918546207
 40
0.996011541
 40
1.0
 40
1.0
 40
1.0
 40
1.0
 10
13.7961456554
 20
7.4382278747
 30
0.0
 10
13.7947757497
 20
7.4383228826
 30
0.0
 10
13.7920372299
 20
7.438574679
 30
0.0
 10
13.7879444324
 20
7.4391368754
 30
0.0
 10
13.7838654734
 20
7.4398835988
 30
0.0
 10
13.7798010309
 20
7.4408147033
 30
0.0
 10
13.7757515486
 20
7.4419300964
 30
0.0
 10
13.7703438999
 20
7.443672084
 30
0.0
 10
13.7636096729
 20
7.446323459
 30
0.0
 10
13.7556457679
 20
7.4502226529
 30
0.0
 10
13.7477572366
 20
7.454854149
 30
0.0
 10
13.739948131
 20
7.4602144891
 30
0.0
 10
13.7322218611
 20
7.4663003872
 30
0.0
 10
13.7245817112
 20
7.4731081836
 30
0.0
 10
13.717031073
 20
7.4806342638
 30
0.0
 10
13.7095731264
 20
7.4888745997
 30
0.0
 10
13.7022113052
 20
7.4978251074
 30
0.0
 10
13.6949488161
 20
7.5074812385
 30
0.0
 10
13.6877891401
 20
7.5178382996
 30
0.0
 10
13.6807355141
 20
7.5288911223
 30
0.0
 10
13.6737914197
 20
7.5406343261
 30
0.0
 10
13.6669600946
 20
7.5530620762
 30
0.0
 10
13.6602449684
 20
7.5661682785
 30
0.0
 10
13.6536492479
 20
7.5799464172
 30
0.0
 10
13.6471762688
 20
7.5943896866
 30
0.0
 10
13.6408291808
 20
7.6094908931
 30
0.0
 10
13.6346111967
 20
7.6252425341
 30
0.0
 10
13.6285253883
 20
7.6416367492
 30
0.0
 10
13.6225748263
 20
7.6586653601
 30
0.0
 10
13.6167624885
 20
7.6763198544
 30
0.0
 10
13.6110912911
 20
7.6945914009
 30
0.0
 10
13.605564104
 20
7.7134708529
 30
0.0
 10
13.6001836814
 20
7.7329487493
 30
0.0
 10
13.5949527724
 20
7.753015328
 30
0.0
 10
13.5898739653
 20
7.773660522
 30
0.0
 10
13.5849498768
 20
7.7948739738
 30
0.0
 10
13.5801829269
 20
7.8166450339
 30
0.0
 10
13.5755755884
 20
7.8389627715
 30
0.0
 10
13.5711301129
 20
7.8618159778
 30
0.0
 10
13.5668488181
 20
7.8851931719
 30
0.0
 10
13.5627337881
 20
7.9090826095
 30
0.0
 10
13.5587871734
 20
7.9334722845
 30
0.0
 10
13.5550108966
 20
7.9583499373
 30
0.0
 10
13.5514069136
 20
7.9837030779
 30
0.0
 10
13.5467969109
 20
8.0184015712
 30
0.0
 10
13.5414907435
 20
8.0628728282
 30
0.0
 10
13.5358876428
 20
8.1175115679
 30
0.0
 10
13.5310105961
 20
8.1737313106
 30
0.0
 10
13.5268695042
 20
8.2314189667
 30
0.0
 10
13.5234728114
 20
8.2904586395
 30
0.0
 10
13.5208274406
 20
8.3507316435
 30
0.0
 10
13.5189387941
 20
8.4121168088
 30
0.0
 10
13.5178107402
 20
8.474490711
 30
0.0
 10
13.5174456072
 20
8.5377279273
 30
0.0
 10
13.5178441792
 20
8.6017012892
 30
0.0
 10
13.5190056958
 20
8.666282141
 30
0.0
 10
13.5209278534
 20
8.7313405996
 30
0.0
 10
13.5236068111
 20
8.7967458176
 30
0.0
 10
13.5270371981
 20
8.8623662471
 30
0.0
 10
13.5312121254
 20
8.9280699059
 30
0.0
 10
13.5361231995
 20
8.993724644
 30
0.0
 10
13.5417605395
 20
9.0591984099
 30
0.0
 10
13.548112797
 20
9.1243595176
 30
0.0
 10
13.5551671788
 20
9.1890769128
 30
0.0
 10
13.5629094726
 20
9.2532204367
 30
0.0
 10
13.5713240753
 20
9.3166610901
 30
0.0
 10
13.5803940242
 20
9.3792712937
 30
0.0
 10
13.5901010307
 20
9.4409251464
 30
0.0
 10
13.6004255162
 20
9.5014986809
 30
0.0
 10
13.611346652
 20
9.5608701152
 30
0.0
 10
13.6228423997
 20
9.6189200989
 30
0.0
 10
13.6348895555
 20
9.6755319627
 30
0.0
 10
13.6474637964
 20
9.7305919373
 30
0.0
 10
13.6605397277
 20
9.7839894578
 30
0.0
 10
13.6740909377
 20
9.8356171434
 30
0.0
 10
13.6858564374
 20
9.8774333824
 30
0.0
 10
13.6954966597
 20
9.9099156407
 30
0.0
 10
13.7027658127
 20
9.9335599599
 30
0.0
 10
13.7101328636
 20
9.9566863323
 30
0.0
 10
13.7175941994
 20
9.9792831457
 30
0.0
 10
13.7251459804
 20
10.0013390524
 30
0.0
 10
13.732784481
 20
10.0228429653
 30
0.0
 10
13.7405057805
 20
10.0437840955
 30
0.0
 10
13.7483060618
 20
10.0641519191
 30
0.0
 10
13.7561813325
 20
10.0839362243
 30
0.0
 10
13.7641276885
 20
10.1031270748
 30
0.0
 10
13.7721410795
 20
10.1217148563
 30
0.0
 10
13.7802175186
 20
10.1396902432
 30
0.0
 10
13.7883529122
 20
10.1570442382
 30
0.0
 10
13.7965431963
 20
10.1737681491
 30
0.0
 10
13.8047842496
 20
10.1898536139
 30
0.0
 10
13.8130719403
 20
10.2052925962
 30
0.0
 10
13.8214021333
 20
10.2200773831
 30
0.0
 10
13.8297706376
 20
10.234200617
 30
0.0
 10
13.8381733285
 20
10.2476552562
 30
0.0
 10
13.8466059871
 20
10.2604346404
 30
0.0
 10
13.855064495
 20
10.2725323807
 30
0.0
 10
13.8635445894
 20
10.2839425302
 30
0.0
 10
13.8720422429
 20
10.2946594346
 30
0.0
 10
13.8805534009
 20
10.3046779689
 30
0.0
 10
13.8890736937
 20
10.3139927284
 30
0.0
 10
13.8948752525
 20
10.3198495919
 30
0.0
 10
13.8977776506
 20
10.3226530933
 30
0.0
  0
SPLINE
  5
303
100
AcDbEntity
  8
0
100
AcDbSpline
 62
7
  6
CONTINUOUS
 70
0
 71
3
 72
98
 73
94
 74
0
 42
0.0000001
 43
0.0000001
 44
0.0000000001
 40
0.0
 40
0.0
 40
0.0
 40
0.0
 40
0.0027966105
 40
0.0056681242
 40
0.0086296273
 40
0.0116947345
 40
0.0148755166
 40
0.018182594
 40
0.0216251714
 40
0.0252111741
 40
0.0289473623
 40
0.0328394227
 40
0.0368921374
 40
0.0411094129
 40
0.0454944568
 40
0.0500497886
 40
0.0547773638
 40
0.0596786192
 40
0.0647545114
 40
0.0700056156
 40
0.0754320907
 40
0.0810338029
 40
0.0868102738
 40
0.0927607703
 40
0.0988842964
 40
0.1051796086
 40
0.1116452737
 40
0.1182796171
 40
0.1250808191
 40
0.1320468444
 40
0.1391755212
 40
0.14646451
 40
0.15391132
 40
0.1615133429
 40
0.1771716496
 40
0.1934161697
 40
0.21022161
 40
0.2275610373
 40
0.2454060217
 40
0.2637267658
 40
0.2824922267
 40
0.3016702276
 40
0.3212275628
 40
0.3411300976
 40
0.3613428651
 40
0.3818301597
 40
0.4025556285
 40
0.423482363
 40
0.4445729895
 40
0.4657897573
 40
0.4870946273
 40
0.5084493586
 40
0.5298155968
 40
0.5511549607
 40
0.5724291305
 40
0.5935999357
 40
0.614629442
 40
0.6354800396
 40
0.6561145305
 40
0.6764962179
 40
0.6965889966
 40
0.7163574454
 40
0.7357669192
 40
0.7547836439
 40
0.7733748138
 40
0.7915086938
 40
0.8091547262
 40
0.8262836453
 40
0.8428676036
 40
0.8588803064
 40
0.8742971623
 40
0.8817750922
 40
0.889095697
 40
0.8962564812
 40
0.9032550672
 40
0.9100892428
 40
0.9167569642
 40
0.9232563386
 40
0.929585695
 40
0.9357435185
 40
0.9417285517
 40
0.9475397356
 40
0.9531762803
 40
0.9586376695
 40
0.9639236716
 40
0.9690344244
 40
0.9739703847
 40
0.97873244
 40
0.9833218911
 40
0.9877406322
 40
0.9919911626
 40
0.9960764597
 40
1.0
 40
1.0
 40
1.0
 40
1.0
 10
13.7367440709
 20
7.7648758539
 30
0.0
 10
13.7346734363
 20
7.7656079415
 30
0.0
 10
13.7305363923
 20
7.7672660335
 30
0.0
 10
13.7244559312
 20
7.7702725866
 30
0.0
 10
13.7184313697
 20
7.7738249724
 30
0.0
 10
13.7124660531
 20
7.7779207875
 30
0.0
 10
13.7065622482
 20
7.7825574912
 30
0.0
 10
13.7007225405
 20
7.7877326134
 30
0.0
 10
13.6949492783
 20
7.7934434044
 30
0.0
 10
13.6892448901
 20
7.799687041
 30
0.0
 10
13.6836118344
 20
7.8064605255
 30
0.0
 10
13.6780524692
 20
7.8137605858
 30
0.0
 10
13.6725693511
 20
7.8215838466
 30
0.0
 10
13.6671648182
 20
7.8299265683
 30
0.0
 10
13.6618414267
 20
7.8387848912
 30
0.0
 10
13.6566015499
 20
7.8481546199
 30
0.0
 10
13.6514476469
 20
7.8580313634
 30
0.0
 10
13.646382142
 20
7.8684104703
 30
0.0
 10
13.64140736
 20
7.8792870233
 30
0.0
 10
13.6365257377
 20
7.8906559013
 30
0.0
 10
13.6317394913
 20
7.9025116896
 30
0.0
 10
13.6270509907
 20
7.9148487835
 30
0.0
 10
13.6224624003
 20
7.9276613019
 30
0.0
 10
13.6179759496
 20
7.9409431564
 30
0.0
 10
13.613593785
 20
7.9546880185
 30
0.0
 10
13.6093179687
 20
7.9688893317
 30
0.0
 10
13.6051506147
 20
7.9835403281
 30
0.0
 10
13.6010936415
 20
7.9986340054
 30
0.0
 10
13.5971490764
 20
8.0141631621
 30
0.0
 10
13.5933187461
 20
8.0301203719
 30
0.0
 10
13.5896045301
 20
8.0464980115
 30
0.0
 10
13.5860082063
 20
8.0632882443
 30
0.0
 10
13.5825314625
 20
8.0804830563
 30
0.0
 10
13.5780130833
 20
8.1041714086
 30
0.0
 10
13.5726887383
 20
8.1347375895
 30
0.0
 10
13.5668632592
 20
8.1725453298
 30
0.0
 10
13.5615516276
 20
8.211761263
 30
0.0
 10
13.556764118
 20
8.2523103027
 30
0.0
 10
13.5525100138
 20
8.294114951
 30
0.0
 10
13.5487975541
 20
8.337095223
 30
0.0
 10
13.5456339335
 20
8.381168873
 30
0.0
 10
13.543025285
 20
8.4262515402
 30
0.0
 10
13.5409766706
 20
8.4722569191
 30
0.0
 10
13.5394920715
 20
8.5190969258
 30
0.0
 10
13.5385743817
 20
8.5666818681
 30
0.0
 10
13.5382254034
 20
8.6149206184
 30
0.0
 10
13.5384458389
 20
8.6637207892
 30
0.0
 10
13.5392352934
 20
8.7129889122
 30
0.0
 10
13.5405922776
 20
8.7626306202
 30
0.0
 10
13.5425142101
 20
8.812550828
 30
0.0
 10
13.5449974231
 20
8.8626539157
 30
0.0
 10
13.5480371693
 20
8.9128439111
 30
0.0
 10
13.5516276319
 20
8.9630246744
 30
0.0
 10
13.5557619328
 20
9.0131000833
 30
0.0
 10
13.5604321449
 20
9.0629742187
 30
0.0
 10
13.5656293113
 20
9.1125515489
 30
0.0
 10
13.5713434615
 20
9.1617371136
 30
0.0
 10
13.5775636307
 20
9.2104367054
 30
0.0
 10
13.5842778803
 20
9.2585570508
 30
0.0
 10
13.5914733207
 20
9.3060059897
 30
0.0
 10
13.5991361359
 20
9.3526926543
 30
0.0
 10
13.6072516046
 20
9.3985276464
 30
0.0
 10
13.6158041333
 20
9.4434232096
 30
0.0
 10
13.6247772858
 20
9.4872933984
 30
0.0
 10
13.6341538136
 20
9.5300542442
 30
0.0
 10
13.6439156892
 20
9.5716239182
 30
0.0
 10
13.6540441395
 20
9.6119228966
 30
0.0
 10
13.6645196836
 20
9.6508741002
 30
0.0
 10
13.6753221663
 20
9.6884031214
 30
0.0
 10
13.6864307972
 20
9.7244381276
 30
0.0
 10
13.6960200144
 20
9.7534519824
 30
0.0
 10
13.703838279
 20
9.7758562856
 30
0.0
 10
13.709705637
 20
9.792073048
 30
0.0
 10
13.715633321
 20
9.8078664035
 30
0.0
 10
13.7216185438
 20
9.8232288095
 30
0.0
 10
13.7276584285
 20
9.8381529194
 30
0.0
 10
13.7337500519
 20
9.8526316108
 30
0.0
 10
13.7398905535
 20
9.8666579544
 30
0.0
 10
13.7460769152
 20
9.8802252741
 30
0.0
 10
13.7523062585
 20
9.8933270759
 30
0.0
 10
13.7585755317
 20
9.9059571344
 30
0.0
 10
13.764881788
 20
9.9181094199
 30
0.0
 10
13.7712220009
 20
9.9297781513
 30
0.0
 10
13.7775931245
 20
9.9409577918
 30
0.0
 10
13.7839921886
 20
9.9516430125
 30
0.0
 10
13.7904160799
 20
9.9618287877
 30
0.0
 10
13.7968618554
 20
9.9715102443
 30
0.0
 10
13.8033263614
 20
9.9806828339
 30
0.0
 10
13.8098066332
 20
9.9893422125
 30
0.0
 10
13.8162996786
 20
9.9974843596
 30
0.0
 10
13.8228025955
 20
10.0051055185
 30
0.0
 10
13.829312111
 20
10.0122017472
 30
0.0
 10
13.8337421923
 20
10.0166692314
 30
0.0
 10
13.8359583926
 20
10.0188099166
 30
0.0
  0
SPLINE
  5
304
100
AcDbEntity
  8
0
100
AcDbSpline
 62
7
  6
CONTINUOUS
 70
0
 71
3
 72
15
 73
11
 74
0
 42
0.0000001
 43
0.0000001
 44
0.0000000001
 40
0.0
 40
0.0
 40
0.0
 40
0.0
 40
0.1084410121
 40
0.2203195438
 40
0.3363916335
 40
0.4573228386
 40
0.5836920395
 40
0.7159966226
 40
0.8546549992
 40
1.0
 40
1.0
 40
1.0
 40
1.0
 10
13.8954868221
 20
10.0538668768
 30
0.0
 10
13.8930079367
 20
10.0533608798
 30
0.0
 10
13.8880179726
 20
10.0520920151
 30
0.0
 10
13.8806052302
 20
10.0494863591
 30
0.0
 10
13.8731684979
 20
10.0461558536
 30
0.0
 10
13.8657129579
 20
10.0421042545
 30
0.0
 10
13.8582425336
 20
10.0373348121
 30
0.0
 10
13.850761134
 20
10.0318511472
 30
0.0
 10
13.8432732878
 20
10.0256572873
 30
0.0
 10
13.8383973818
 20
10.0211657994
 30
0.0
 10
13.8359583926
 20
10.0188099166
 30
0.0
  0
SPLINE
  5
305
100
AcDbEntity
  8
0
100
AcDbSpline
 62
7
  6
CONTINUOUS
 70
0
 71
3
 72
43
 73
39
 74
0
 42
0.0000001
 43
0.0000001
 44
0.0000000001
 40
0.0
 40
0.0
 40
0.0
 40
0.0
 40
0.0149723098
 40
0.0299476795
 40
0.0449291474
 40
0.05991972
 40
0.0749223413
 40
0.0899398895
 40
0.1049751458
 40
0.1200307886
 40
0.1502075383
 40
0.1804946787
 40
0.2109083087
 40
0.2414615673
 40
0.2721643694
 40
0.303023226
 40
0.3340411482
 40
0.3652176339
 40
0.3965487319
 40
0.4280271774
 40
0.4596425917
 40
0.4913817403
 40
0.5232288393
 40
0.555165905
 40
0.5871731364
 40
0.6192293252
 40
0.6513122868
 40
0.6833993039
 40
0.7154675788
 40
0.7474946857
 40
0.7794590188
 40
0.8113402295
 40
0.8431196416
 40
0.8747806564
 40
0.906309065
 40
0.9376935582
 40
0.9689254026
 40
1.0
 40
1.0
 40
1.0
 40
1.0
 10
13.2056919547
 20
6.0837790987
 30
0.0
 10
13.2028382602
 20
6.0810226406
 30
0.0
 10
13.1970200522
 20
6.0756219823
 30
0.0
 10
13.1879766925
 20
6.0678734089
 30
0.0
 10
13.1786288837
 20
6.0604868633
 30
0.0
 10
13.1689895901
 20
6.0534727848
 30
0.0
 10
13.1590720632
 20
6.0468407097
 30
0.0
 10
13.1488900141
 20
6.0405998072
 30
0.0
 10
13.1384572097
 20
6.0347586153
 30
0.0
 10
13.1242229355
 20
6.0275093063
 30
0.0
 10
13.1058657718
 20
6.0194844666
 30
0.0
 10
13.0830931376
 20
6.0115794839
 30
0.0
 10
13.0596806602
 20
6.005432943
 30
0.0
 10
13.0357581872
 20
6.0010788619
 30
0.0
 10
13.0114571997
 20
5.998540765
 30
0.0
 10
12.9869114833
 20
5.9978323306
 30
0.0
 10
12.962256016
 20
5.9989571286
 30
0.0
 10
12.9376263314
 20
6.0019086726
 30
0.0
 10
12.9131577534
 20
6.0066704548
 30
0.0
 10
12.8889846699
 20
6.013216052
 30
0.0
 10
12.8652398013
 20
6.0215092757
 30
0.0
 10
12.8420534805
 20
6.0315043721
 30
0.0
 10
12.8195529497
 20
6.0431462851
 30
0.0
 10
12.797861671
 20
6.0563709588
 30
0.0
 10
12.7770986593
 20
6.0711056889
 30
0.0
 10
12.757377837
 20
6.0872695198
 30
0.0
 10
12.7388074173
 20
6.1047736856
 30
0.0
 10
12.7214893167
 20
6.1235220932
 30
0.0
 10
12.7055186024
 20
6.1434118441
 30
0.0
 10
12.6909829745
 20
6.1643337934
 30
0.0
 10
12.6779622822
 20
6.1861731367
 30
0.0
 10
12.6665280971
 20
6.2088100435
 30
0.0
 10
12.6567433151
 20
6.2321202904
 30
0.0
 10
12.648661835
 20
6.2559759868
 30
0.0
 10
12.6423281967
 20
6.2802460793
 30
0.0
 10
12.6377774905
 20
6.3047977547
 30
0.0
 10
12.6350348555
 20
6.3294944465
 30
0.0
 10
12.6344205754
 20
6.3460116183
 30
0.0
 10
12.6344205754
 20
6.354246201
 30
0.0
  0
SPLINE
  5
306
100
AcDbEntity
  8
0
100
AcDbSpline
 62
7
  6
CONTINUOUS
 70
0
 71
3
 72
23
 73
19
 74
0
 42
0.0000001
 43
0.0000001
 44
0.0000000001
 40
0.0
 40
0.0
 40
0.0
 40
0.0
 40
0.0637764154
 40
0.1273451281
 40
0.190701988
 40
0.253856063
 40
0.3168132283
 40
0.3795820791
 40
0.4421733864
 40
0.5045993414
 40
0.5668738629
 40
0.629012379
 40
0.6910316532
 40
0.7529496461
 40
0.8147853522
 40
0.8765586034
 40
0.9382898574
 40
1.0
 40
1.0
 40
1.0
 40
1.0
 10
12.6344205754
 20
6.354246201
 30
0.0
 10
12.6344205754
 20
6.3595536341
 30
0.0
 10
12.6346746389
 20
6.3701530131
 30
0.0
 10
12.635821202
 20
6.3859875775
 30
0.0
 10
12.6377303032
 20
6.4016966672
 30
0.0
 10
12.6403973434
 20
6.417243296
 30
0.0
 10
12.6438163524
 20
6.4325919951
 30
0.0
 10
12.6479794207
 20
6.4477072822
 30
0.0
 10
12.6528769721
 20
6.4625543238
 30
0.0
 10
12.6584978201
 20
6.4770988672
 30
0.0
 10
12.6648289844
 20
6.4913073791
 30
0.0
 10
12.671855875
 20
6.5051471007
 30
0.0
 10
12.679562347
 20
6.5185860876
 30
0.0
 10
12.6879306698
 20
6.5315933304
 30
0.0
 10
12.6969414856
 20
6.5441388225
 30
0.0
 10
12.7065741333
 20
6.5561937207
 30
0.0
 10
12.7168060633
 20
6.5677298015
 30
0.0
 10
12.7240124875
 20
6.5750582611
 30
0.0
 10
12.727706204
 20
6.5786261183
 30
0.0
  0
SPLINE
  5
307
100
AcDbEntity
  8
0
100
AcDbSpline
 62
7
  6
CONTINUOUS
 70
0
 71
3
 72
103
 73
99
 74
0
 42
0.0000001
 43
0.0000001
 44
0.0000000001
 40
0.0
 40
0.0
 40
0.0
 40
0.0
 40
0.0039105693
 40
0.0079815186
 40
0.0122162991
 40
0.016617891
 40
0.0211887781
 40
0.025930806
 40
0.0308452854
 40
0.0359330956
 40
0.0411947196
 40
0.0466302983
 40
0.0522396139
 40
0.0580221852
 40
0.0639772248
 40
0.0701037341
 40
0.0764004506
 40
0.0828659293
 40
0.089498506
 40
0.0962963477
 40
0.1032574444
 40
0.1103796213
 40
0.1176605645
 40
0.1250977974
 40
0.132688734
 40
0.1404306302
 40
0.1483206521
 40
0.1563558187
 40
0.1645330672
 40
0.1728492062
 40
0.1898847982
 40
0.2074353874
 40
0.2254721971
 40
0.2439651717
 40
0.2628830897
 40
0.2821936684
 40
0.3018636646
 40
0.3218589703
 40
0.3421447063
 40
0.3626853127
 40
0.3834446383
 40
0.4043860286
 40
0.4254724132
 40
0.4466663923
 40
0.4679303224
 40
0.4892264021
 40
0.5105167578
 40
0.5317635285
 40
0.5529289515
 40
0.5739754479
 40
0.5948657082
 40
0.6155627786
 40
0.6360301476
 40
0.6562318335
 40
0.6761324725
 40
0.695697409
 40
0.7148927862
 40
0.7336856409
 40
0.7520440004
 40
0.7699369839
 40
0.7873349102
 40
0.804209412
 40
0.8124419854
 40
0.8205337362
 40
0.828481531
 40
0.8362823758
 40
0.8439333587
 40
0.8514317162
 40
0.8587747856
 40
0.865960055
 40
0.8729851414
 40
0.8798478121
 40
0.8865459983
 40
0.8930777826
 40
0.8994414499
 40
0.9056354461
 40
0.9116584576
 40
0.9175093556
 40
0.9231872881
 40
0.9286916323
 40
0.9340220778
 40
0.9391786096
 40
0.9441615687
 40
0.94897168
 40
0.9536100854
 40
0.9580784225
 40
0.9623788373
 40
0.9665141084
 40
0.9704876568
 40
0.9743037016
 40
0.9779672893
 40
0.9814844597
 40
0.9848623111
 40
0.9881091506
 40
0.9912345876
 40
0.9942496345
 40
0.9971667823
 40
1.0
 40
1.0
 40
1.0
 40
1.0
 10
13.8359583926
 20
7.4890500277
 30
0.0
 10
13.8387749832
 20
7.4917706455
 30
0.0
 10
13.8444052297
 20
7.4974471788
 30
0.0
 10
13.8526790845
 20
7.506461584
 30
0.0
 10
13.8609446018
 20
7.5161399054
 30
0.0
 10
13.8691977339
 20
7.5264771987
 30
0.0
 10
13.8774347828
 20
7.5374687824
 30
0.0
 10
13.8856520364
 20
7.5491095462
 30
0.0
 10
13.8938456525
 20
7.5613940695
 30
0.0
 10
13.9020117719
 20
7.5743165905
 30
0.0
 10
13.9101466175
 20
7.587871033
 30
0.0
 10
13.9182463106
 20
7.6020510646
 30
0.0
 10
13.9263071183
 20
7.6168499923
 30
0.0
 10
13.9343251415
 20
7.6322608819
 30
0.0
 10
13.9422966891
 20
7.6482764402
 30
0.0
 10
13.9502178959
 20
7.6648891429
 30
0.0
 10
13.9580850955
 20
7.6820911253
 30
0.0
 10
13.9658944907
 20
7.699874281
 30
0.0
 10
13.9736424283
 20
7.718230193
 30
0.0
 10
13.9813252054
 20
7.7371501891
 30
0.0
 10
13.988939182
 20
7.7566253175
 30
0.0
 10
13.9964807613
 20
7.7766463604
 30
0.0
 10
14.0039463265
 20
7.7972038461
 30
0.0
 10
14.0113323875
 20
7.8182880334
 30
0.0
 10
14.0186353706
 20
7.8398889464
 30
0.0
 10
14.0258518827
 20
7.8619963434
 30
0.0
 10
14.0329784216
 20
7.8845997611
 30
0.0
 10
14.0400116715
 20
7.9076884771
 30
0.0
 10
14.0469482484
 20
7.9312515714
 30
0.0
 10
14.0561373599
 20
7.9635454518
 30
0.0
 10
14.0673466782
 20
8.0050214627
 30
0.0
 10
14.080255383
 20
8.0561140246
 30
0.0
 10
14.0927023929
 20
8.1088216429
 30
0.0
 10
14.1046640165
 20
8.163044358
 30
0.0
 10
14.116117482
 20
8.2186794774
 30
0.0
 10
14.1270409928
 20
8.2756215623
 30
0.0
 10
14.1374137651
 20
8.3337626906
 30
0.0
 10
14.1472160675
 20
8.3929926486
 30
0.0
 10
14.1564292581
 20
8.4531991468
 30
0.0
 10
14.1650358191
 20
8.5142680333
 30
0.0
 10
14.1730193905
 20
8.576083513
 30
0.0
 10
14.1803648008
 20
8.6385283679
 30
0.0
 10
14.1870580947
 20
8.7014841819
 30
0.0
 10
14.1930865596
 20
8.7648315662
 30
0.0
 10
14.1984387494
 20
8.8284503866
 30
0.0
 10
14.2031045062
 20
8.8922199925
 30
0.0
 10
14.2070749796
 20
8.9560194463
 30
0.0
 10
14.2103426432
 20
9.0197277534
 30
0.0
 10
14.2129013093
 20
9.0832240925
 30
0.0
 10
14.2147461405
 20
9.1463880455
 30
0.0
 10
14.2158736597
 20
9.2090998267
 30
0.0
 10
14.216281756
 20
9.2712405113
 30
0.0
 10
14.215969691
 20
9.3326922619
 30
0.0
 10
14.2149380996
 20
9.3933385539
 30
0.0
 10
14.2131889891
 20
9.4530643978
 30
0.0
 10
14.2107257362
 20
9.5117565591
 30
0.0
 10
14.2075530811
 20
9.5693037737
 30
0.0
 10
14.20367712
 20
9.6255969667
 30
0.0
 10
14.1991052914
 20
9.6805294451
 30
0.0
 10
14.1938463752
 20
9.7339971653
 30
0.0
 10
14.1879104312
 20
9.7858987176
 30
0.0
 10
14.1823646782
 20
9.8281021399
 30
0.0
 10
14.1775876605
 20
9.8610023474
 30
0.0
 10
14.1738724095
 20
9.8850228364
 30
0.0
 10
14.169997
 20
9.9085799781
 30
0.0
 10
14.1659633305
 20
9.9316626235
 30
0.0
 10
14.1617732529
 20
9.9542598329
 30
0.0
 10
14.157428822
 20
9.9763609005
 30
0.0
 10
14.1529320544
 20
9.9979553581
 30
0.0
 10
14.1482851211
 20
10.0190329784
 30
0.0
 10
14.1434902191
 20
10.0395837826
 30
0.0
 10
14.1385496186
 20
10.0595980418
 30
0.0
 10
14.1334656993
 20
10.0790662883
 30
0.0
 10
14.1282408241
 20
10.0979793092
 30
0.0
 10
14.122877546
 20
10.1163281695
 30
0.0
 10
14.1173783247
 20
10.1341041896
 30
0.0
 10
14.1117458637
 20
10.1512989871
 30
0.0
 10
14.1059827351
 20
10.1679044347
 30
0.0
 10
14.1000917585
 20
10.1839127186
 30
0.0
 10
14.0940756387
 20
10.1993162861
 30
0.0
 10
14.0879372736
 20
10.2141079033
 30
0.0
 10
14.0816795139
 20
10.2282806154
 30
0.0
 10
14.0753053032
 20
10.2418277772
 30
0.0
 10
14.0688176374
 20
10.2547430553
 30
0.0
 10
14.0622194803
 20
10.2670203974
 30
0.0
 10
14.0555139528
 20
10.2786541104
 30
0.0
 10
14.0487040222
 20
10.2896387365
 30
0.0
 10
14.0417928901
 20
10.2999692272
 30
0.0
 10
14.0347835206
 20
10.309640716
 30
0.0
 10
14.0276791288
 20
10.3186487734
 30
0.0
 10
14.0204826786
 20
10.3269891097
 30
0.0
 10
14.0131973278
 20
10.3346578422
 30
0.0
 10
14.0058260584
 20
10.3416512109
 30
0.0
 10
13.998371934
 20
10.347965757
 30
0.0
 10
13.9908380606
 20
10.353598144
 30
0.0
 10
13.9832273399
 20
10.3585452433
 30
0.0
 10
13.9755437541
 20
10.3628038264
 30
0.0
 10
13.9703063354
 20
10.3652133654
 30
0.0
 10
13.9676835214
 20
10.3662951328
 30
0.0
  0
SPLINE
  5
308
100
AcDbEntity
  8
0
100
AcDbSpline
 62
7
  6
CONTINUOUS
 70
0
 71
3
 72
15
 73
11
 74
0
 42
0.0000001
 43
0.0000001
 44
0.0000000001
 40
0.0
 40
0.0
 40
0.0
 40
0.0
 40
0.1438949135
 40
0.2816904095
 40
0.413657577
 40
0.5401332826
 40
0.6615144151
 40
0.7782588279
 40
0.8908896182
 40
1.0
 40
1.0
 40
1.0
 40
1.0
 10
13.8359583926
 20
7.4890500277
 30
0.0
 10
13.8330879721
 20
7.4862774143
 30
0.0
 10
13.8273492479
 20
7.4809714081
 30
0.0
 10
13.8185532296
 20
7.4735986631
 30
0.0
 10
13.8097639243
 20
7.4669926506
 30
0.0
 10
13.8009859515
 20
7.4611573935
 30
0.0
 10
13.7922232951
 20
7.4560964466
 30
0.0
 10
13.7834799137
 20
7.4518129551
 30
0.0
 10
13.7747608552
 20
7.4483105447
 30
0.0
 10
13.7688837576
 20
7.4464722312
 30
0.0
 10
13.7659599886
 20
7.4456919323
 30
0.0
  0
SPLINE
  5
309
100
AcDbEntity
  8
0
100
AcDbSpline
 62
7
  6
CONTINUOUS
 70
0
 71
3
 72
24
 73
20
 74
0
 42
0.0000001
 43
0.0000001
 44
0.0000000001
 40
0.0
 40
0.0
 40
0.0
 40
0.0
 40
0.0781375804
 40
0.1532318114
 40
0.2254027467
 40
0.2947970419
 40
0.3615884182
 40
0.3940729271
 40
0.4259834725
 40
0.4881916252
 40
0.5484740551
 40
0.6071134961
 40
0.6644199051
 40
0.7207277502
 40
0.7763913227
 40
0.8317783637
 40
0.8872626982
 40
0.9432160374
 40
1.0
 40
1.0
 40
1.0
 40
1.0
 10
13.8359583926
 20
7.7971803845
 30
0.0
 10
13.8338926332
 20
7.7951850141
 30
0.0
 10
13.8297623783
 20
7.7913527373
 30
0.0
 10
13.8234430624
 20
7.7859903433
 30
0.0
 10
13.8171279115
 20
7.781133071
 30
0.0
 10
13.8108199746
 20
7.7767836121
 30
0.0
 10
13.8055230293
 20
7.7735544213
 30
0.0
 10
13.801294433
 20
7.7712355011
 30
0.0
 10
13.7971453384
 20
7.7691269085
 30
0.0
 10
13.7919632776
 20
7.7668015416
 30
0.0
 10
13.7857089653
 20
7.7645028479
 30
0.0
 10
13.7794747276
 20
7.7627212421
 30
0.0
 10
13.7732636784
 20
7.7614583223
 30
0.0
 10
13.7670790146
 20
7.7607153118
 30
0.0
 10
13.7609241826
 20
7.7604929666
 30
0.0
 10
13.7548028116
 20
7.7607918421
 30
0.0
 10
13.7487184209
 20
7.7616116696
 30
0.0
 10
13.7426750819
 20
7.7629517888
 30
0.0
 10
13.738711894
 20
7.764180116
 30
0.0
 10
13.7367440709
 20
7.7648758539
 30
0.0
  0
SPLINE
  5
30A
100
AcDbEntity
  8
0
100
AcDbSpline
 62
7
  6
CONTINUOUS
 70
0
 71
3
 72
107
 73
103
 74
0
 42
0.0000001
 43
0.0000001
 44
0.0000000001
 40
0.0
 40
0.0
 40
0.0
 40
0.0
 40
0.0013572612
 40
0.0027170797
 40
0.0040819966
 40
0.0054545211
 40
0.0068371186
 40
0.0082321971
 40
0.0110684612
 40
0.013981638
 40
0.0169879164
 40
0.0201018459
 40
0.0233363318
 40
0.0267026481
 40
0.0302105686
 40
0.0338684409
 40
0.0376833717
 40
0.0416613006
 40
0.0458071887
 40
0.0501250693
 40
0.0546182177
 40
0.0592891779
 40
0.0641399047
 40
0.0691717748
 40
0.0743856998
 40
0.0797821307
 40
0.085361142
 40
0.0911224386
 40
0.0970654107
 40
0.1031891498
 40
0.1094924768
 40
0.1159739692
 40
0.1226319653
 40
0.129464604
 40
0.1364698079
 40
0.1436453353
 40
0.1509887461
 40
0.1584974632
 40
0.1661687264
 40
0.1739996594
 40
0.1819872169
 40
0.190128253
 40
0.198419467
 40
0.2068574681
 40
0.2154387256
 40
0.2330162676
 40
0.251122054
 40
0.2697243673
 40
0.2887901232
 40
0.3082849955
 40
0.3281735335
 40
0.3484192745
 40
0.368984852
 40
0.3898321014
 40
0.4109221623
 40
0.4322155806
 40
0.4536724082
 40
0.4752523025
 40
0.4969146253
 40
0.5186185408
 40
0.5403231135
 40
0.5619874067
 40
0.5835705797
 40
0.6050319862
 40
0.6263312728
 40
0.647428477
 40
0.6682841272
 40
0.6888593425
 40
0.7091159341
 40
0.7290165084
 40
0.748524572
 40
0.7676046402
 40
0.7862223487
 40
0.8043445717
 40
0.8219395458
 40
0.8389770046
 40
0.8472777515
 40
0.8554285212
 40
0.8634260347
 40
0.8712671072
 40
0.8789487159
 40
0.8864679446
 40
0.8938220534
 40
0.9010084264
 40
0.9080246393
 40
0.914868415
 40
0.9215376844
 40
0.9280305565
 40
0.9343453681
 40
0.9404806728
 40
0.9464352792
 40
0.9522082616
 40
0.9577989849
 40
0.9632071405
 40
0.9684327659
 40
0.9734763106
 40
0.9783386302
 40
0.9830210709
 40
0.9875255286
 40
0.9918546207
 40
0.996011541
 40
1.0
 40
1.0
 40
1.0
 40
1.0
 10
13.9994096457
 20
10.3691880662
 30
0.0
 10
14.0007795515
 20
10.3690930583
 30
0.0
 10
14.0035180712
 20
10.3688412619
 30
0.0
 10
14.0076108687
 20
10.3682790655
 30
0.0
 10
14.0116898277
 20
10.3675323421
 30
0.0
 10
14.0157542703
 20
10.3666012376
 30
0.0
 10
14.0198037525
 20
10.3654858445
 30
0.0
 10
14.0252114013
 20
10.3637438569
 30
0.0
 10
14.0319456282
 20
10.3610924819
 30
0.0
 10
14.0399095332
 20
10.357193288
 30
0.0
 10
14.0477980646
 20
10.3525617919
 30
0.0
 10
14.0556071701
 20
10.3472014518
 30
0.0
 10
14.06333344
 20
10.3411155537
 30
0.0
 10
14.0709735899
 20
10.3343077573
 30
0.0
 10
14.0785242281
 20
10.3267816771
 30
0.0
 10
14.0859821748
 20
10.3185413412
 30
0.0
 10
14.0933439959
 20
10.3095908335
 30
0.0
 10
14.100606485
 20
10.2999347024
 30
0.0
 10
14.107766161
 20
10.2895776413
 30
0.0
 10
14.1148197871
 20
10.2785248186
 30
0.0
 10
14.1217638815
 20
10.2667816148
 30
0.0
 10
14.1285952066
 20
10.2543538647
 30
0.0
 10
14.1353103327
 20
10.2412476624
 30
0.0
 10
14.1419060532
 20
10.2274695237
 30
0.0
 10
14.1483790323
 20
10.2130262543
 30
0.0
 10
14.1547261203
 20
10.1979250478
 30
0.0
 10
14.1609441045
 20
10.1821734068
 30
0.0
 10
14.1670299128
 20
10.1657791917
 30
0.0
 10
14.1729804748
 20
10.1487505808
 30
0.0
 10
14.1787928126
 20
10.1310960865
 30
0.0
 10
14.18446401
 20
10.11282454
 30
0.0
 10
14.1899911972
 20
10.093945088
 30
0.0
 10
14.1953716198
 20
10.0744671916
 30
0.0
 10
14.2006025288
 20
10.0544006129
 30
0.0
 10
14.2056813358
 20
10.0337554189
 30
0.0
 10
14.2106054244
 20
10.0125419671
 30
0.0
 10
14.2153723743
 20
9.990770907
 30
0.0
 10
14.2199797128
 20
9.9684531694
 30
0.0
 10
14.2244251882
 20
9.9455999631
 30
0.0
 10
14.228706483
 20
9.922222769
 30
0.0
 10
14.2328215131
 20
9.8983333314
 30
0.0
 10
14.2367681278
 20
9.8739436564
 30
0.0
 10
14.2405444045
 20
9.8490660036
 30
0.0
 10
14.2441483876
 20
9.823712863
 30
0.0
 10
14.2487583902
 20
9.7890143697
 30
0.0
 10
14.2540645576
 20
9.7445431127
 30
0.0
 10
14.2596676583
 20
9.689904373
 30
0.0
 10
14.2645447051
 20
9.6336846303
 30
0.0
 10
14.2686857969
 20
9.5759969742
 30
0.0
 10
14.2720824897
 20
9.5169573014
 30
0.0
 10
14.2747278605
 20
9.4566842974
 30
0.0
 10
14.276616507
 20
9.3952991321
 30
0.0
 10
14.2777445609
 20
9.3329252299
 30
0.0
 10
14.278109694
 20
9.2696880136
 30
0.0
 10
14.2777111219
 20
9.2057146517
 30
0.0
 10
14.2765496053
 20
9.1411337999
 30
0.0
 10
14.2746274477
 20
9.0760753413
 30
0.0
 10
14.2719484901
 20
9.0106701233
 30
0.0
 10
14.268518103
 20
8.9450496938
 30
0.0
 10
14.2643431757
 20
8.879346035
 30
0.0
 10
14.2594321016
 20
8.8136912969
 30
0.0
 10
14.2537947616
 20
8.748217531
 30
0.0
 10
14.2474425041
 20
8.6830564233
 30
0.0
 10
14.2403881223
 20
8.6183390281
 30
0.0
 10
14.2326458286
 20
8.5541955042
 30
0.0
 10
14.2242312258
 20
8.4907548508
 30
0.0
 10
14.2151612769
 20
8.4281446472
 30
0.0
 10
14.2054542705
 20
8.3664907945
 30
0.0
 10
14.1951297849
 20
8.30591726
 30
0.0
 10
14.1842086491
 20
8.2465458257
 30
0.0
 10
14.1727129014
 20
8.188495842
 30
0.0
 10
14.1606657456
 20
8.1318839782
 30
0.0
 10
14.1480915047
 20
8.0768240036
 30
0.0
 10
14.1350155734
 20
8.0234264831
 30
0.0
 10
14.1214643634
 20
7.9717987975
 30
0.0
 10
14.1096988637
 20
7.9299825585
 30
0.0
 10
14.1000586414
 20
7.8975003002
 30
0.0
 10
14.0927894884
 20
7.873855981
 30
0.0
 10
14.0854224375
 20
7.8507296086
 30
0.0
 10
14.0779611017
 20
7.8281327952
 30
0.0
 10
14.0704093207
 20
7.8060768885
 30
0.0
 10
14.0627708201
 20
7.7845729756
 30
0.0
 10
14.0550495207
 20
7.7636318454
 30
0.0
 10
14.0472492393
 20
7.7432640218
 30
0.0
 10
14.0393739686
 20
7.7234797166
 30
0.0
 10
14.0314276126
 20
7.7042888661
 30
0.0
 10
14.0234142216
 20
7.6857010846
 30
0.0
 10
14.0153377826
 20
7.6677256977
 30
0.0
 10
14.0072023889
 20
7.6503717027
 30
0.0
 10
13.9990121049
 20
7.6336477918
 30
0.0
 10
13.9907710515
 20
7.617562327
 30
0.0
 10
13.9824833608
 20
7.6021233447
 30
0.0
 10
13.9741531678
 20
7.5873385578
 30
0.0
 10
13.9657846635
 20
7.5732153239
 30
0.0
 10
13.9573819726
 20
7.5597606847
 30
0.0
 10
13.9489493141
 20
7.5469813005
 30
0.0
 10
13.9404908061
 20
7.5348835602
 30
0.0
 10
13.9320107118
 20
7.5234734107
 30
0.0
 10
13.9235130583
 20
7.5127565063
 30
0.0
 10
13.9150019002
 20
7.5027379721
 30
0.0
 10
13.9064816075
 20
7.4934232125
 30
0.0
 10
13.9006800487
 20
7.487566349
 30
0.0
 10
13.8977776506
 20
7.4847628476
 30
0.0
  0
SPLINE
  5
30B
100
AcDbEntity
  8
0
100
AcDbSpline
 62
7
  6
CONTINUOUS
 70
0
 71
3
 72
23
 73
19
 74
0
 42
0.0000001
 43
0.0000001
 44
0.0000000001
 40
0.0
 40
0.0
 40
0.0
 40
0.0
 40
0.0764224449
 40
0.1504663304
 40
0.2222018644
 40
0.2917109085
 40
0.3590900072
 40
0.4244474941
 40
0.4879039322
 40
0.5495927797
 40
0.6096609977
 40
0.6682702188
 40
0.7255962294
 40
0.7818281329
 40
0.8371677443
 40
0.8918276443
 40
0.9460291863
 40
1.0
 40
1.0
 40
1.0
 40
1.0
 10
13.8977776506
 20
7.4847628476
 30
0.0
 10
13.8956679625
 20
7.4827250452
 30
0.0
 10
13.8914494228
 20
7.4787792058
 30
0.0
 10
13.8850210949
 20
7.4731722128
 30
0.0
 10
13.8785956798
 20
7.4679737487
 30
0.0
 10
13.8721750977
 20
7.4631856386
 30
0.0
 10
13.865761132
 20
7.4588092254
 30
0.0
 10
13.859355407
 20
7.4548458276
 30
0.0
 10
13.8529595975
 20
7.451296669
 30
0.0
 10
13.8465754612
 20
7.4481628534
 30
0.0
 10
13.8402047049
 20
7.4454455755
 30
0.0
 10
13.8338491305
 20
7.4431458163
 30
0.0
 10
13.8275105703
 20
7.4412644383
 30
0.0
 10
13.821190861
 20
7.4398023605
 30
0.0
 10
13.8148920049
 20
7.438760184
 30
0.0
 10
13.8086159105
 20
7.4381384641
 30
0.0
 10
13.8023650326
 20
7.4379376373
 30
0.0
 10
13.7982121377
 20
7.4380845568
 30
0.0
 10
13.7961456554
 20
7.4382278747
 30
0.0
  0
SPLINE
  5
30C
100
AcDbEntity
  8
0
100
AcDbSpline
 62
7
  6
CONTINUOUS
 70
0
 71
3
 72
105
 73
101
 74
0
 42
0.0000001
 43
0.0000001
 44
0.0000000001
 40
0.0
 40
0.0
 40
0.0
 40
0.0
 40
0.0040523345
 40
0.0082800171
 40
0.0126869499
 40
0.0172764538
 40
0.0220512604
 40
0.0270133536
 40
0.0321640798
 40
0.0375042852
 40
0.0430343457
 40
0.0487542504
 40
0.0546635631
 40
0.0607615505
 40
0.0670471223
 40
0.0735189452
 40
0.0801753874
 40
0.0870145988
 40
0.0940344912
 40
0.1012327662
 40
0.1086069419
 40
0.1161543281
 40
0.1238720946
 40
0.1317572088
 40
0.1398065249
 40
0.148016711
 40
0.1563843314
 40
0.1649057915
 40
0.1823951114
 40
0.2004537993
 40
0.2190490449
 40
0.2381464597
 40
0.2577102222
 40
0.2777032137
 40
0.298087147
 40
0.3188226893
 40
0.3398695812
 40
0.361186753
 40
0.3827324386
 40
0.4044642883
 40
0.4263394806
 40
0.4483148318
 40
0.4703469067
 40
0.4923921274
 40
0.5144068834
 40
0.53634764
 40
0.5581710486
 40
0.5798340558
 40
0.6012940141
 40
0.6225087927
 40
0.6434368891
 40
0.664037542
 40
0.684270846
 40
0.7040978691
 40
0.7234807728
 40
0.7423829378
 40
0.7607690943
 40
0.7786054622
 40
0.7958599008
 40
0.8042594411
 40
0.8125022859
 40
0.8205849471
 40
0.8285040866
 40
0.836256509
 40
0.8438391621
 40
0.8512491761
 40
0.8584838209
 40
0.8655405875
 40
0.8724171169
 40
0.8791113014
 40
0.8856212149
 40
0.8919452039
 40
0.8980818502
 40
0.9040300277
 40
0.9097889189
 40
0.915358027
 40
0.9207372528
 40
0.9259268699
 40
0.930927652
 40
0.9357408367
 40
0.9403682796
 40
0.9448124434
 40
0.9490765522
 40
0.9531646403
 40
0.9570816897
 40
0.9608337541
 40
0.9644280754
 40
0.9678732719
 40
0.9695432397
 40
0.9711798519
 40
0.9743587309
 40
0.9774238038
 40
0.9803903768
 40
0.9832755203
 40
0.9860979742
 40
0.9888778757
 40
0.9916363875
 40
0.9943952098
 40
0.9971760358
 40
1.0
 40
1.0
 40
1.0
 40
1.0
 10
13.8359583926
 20
7.7971803845
 30
0.0
 10
13.8382864671
 20
7.799429132
 30
0.0
 10
13.8429398973
 20
7.8041320262
 30
0.0
 10
13.8497705188
 20
7.811620827
 30
0.0
 10
13.8565934725
 20
7.8196872469
 30
0.0
 10
13.8634050482
 20
7.8283267086
 30
0.0
 10
13.8702018631
 20
7.8375348634
 30
0.0
 10
13.8769805101
 20
7.8473069626
 30
0.0
 10
13.8837374807
 20
7.8576379456
 30
0.0
 10
13.8904692155
 20
7.8685224352
 30
0.0
 10
13.8971722708
 20
7.8799547332
 30
0.0
 10
13.9038430706
 20
7.8919289081
 30
0.0
 10
13.9104782121
 20
7.90443867
 30
0.0
 10
13.9170741112
 20
7.9174775025
 30
0.0
 10
13.9236273932
 20
7.9310385423
 30
0.0
 10
13.9301345268
 20
7.9451146997
 30
0.0
 10
13.9365921465
 20
7.959698567
 30
0.0
 10
13.9429968064
 20
7.9747824927
 30
0.0
 10
13.9493451432
 20
7.9903585422
 30
0.0
 10
13.9556338153
 20
8.0064185218
 30
0.0
 10
13.9618594708
 20
8.0229539856
 30
0.0
 10
13.9680188739
 20
8.0399562212
 30
0.0
 10
13.9741087051
 20
8.0574162857
 30
0.0
 10
13.9801258229
 20
8.0753249718
 30
0.0
 10
13.9860669729
 20
8.0936728559
 30
0.0
 10
13.9919290842
 20
8.1124502574
 30
0.0
 10
13.9977090184
 20
8.1316473003
 30
0.0
 10
14.005368197
 20
8.1580175121
 30
0.0
 10
14.014703736
 20
8.1919595698
 30
0.0
 10
14.0254364666
 20
8.2338554408
 30
0.0
 10
14.0357710813
 20
8.2771728321
 30
0.0
 10
14.0456856921
 20
8.3218203805
 30
0.0
 10
14.0551592949
 20
8.3677040486
 30
0.0
 10
14.0641718285
 20
8.4147271233
 30
0.0
 10
14.0727042124
 20
8.4627904817
 30
0.0
 10
14.0807383878
 20
8.5117927875
 30
0.0
 10
14.0882573544
 20
8.561630712
 30
0.0
 10
14.0952452073
 20
8.6121991531
 30
0.0
 10
14.1016871697
 20
8.6633914589
 30
0.0
 10
14.107569623
 20
8.7150996559
 30
0.0
 10
14.1128801353
 20
8.7672146776
 30
0.0
 10
14.1176074874
 20
8.8196265958
 30
0.0
 10
14.1217416963
 20
8.8722248535
 30
0.0
 10
14.1252740361
 20
8.9248984993
 30
0.0
 10
14.1281970566
 20
8.9775364215
 30
0.0
 10
14.130504599
 20
9.0300275841
 30
0.0
 10
14.1321918087
 20
9.0822612612
 30
0.0
 10
14.1332551465
 20
9.1341272723
 30
0.0
 10
14.1336923972
 20
9.185516216
 30
0.0
 10
14.1335026736
 20
9.2363197019
 30
0.0
 10
14.1326864193
 20
9.2864305813
 30
0.0
 10
14.1312454073
 20
9.335743174
 30
0.0
 10
14.129182738
 20
9.3841534935
 30
0.0
 10
14.1265028329
 20
9.4315594679
 30
0.0
 10
14.1232114269
 20
9.4778611622
 30
0.0
 10
14.1193155545
 20
9.5229609769
 30
0.0
 10
14.1148235477
 20
9.5667639174
 30
0.0
 10
14.109744975
 20
9.6091775892
 30
0.0
 10
14.1049916669
 20
9.6435908806
 30
0.0
 10
14.1008938764
 20
9.6703543385
 30
0.0
 10
14.0977083621
 20
9.6898451415
 30
0.0
 10
14.0943848956
 20
9.7089235201
 30
0.0
 10
14.0909252262
 20
9.7275794344
 30
0.0
 10
14.0873312011
 20
9.7458030512
 30
0.0
 10
14.0836046879
 20
9.7635847702
 30
0.0
 10
14.0797477118
 20
9.7809152273
 30
0.0
 10
14.075762243
 20
9.7977852952
 30
0.0
 10
14.0716504714
 20
9.814186098
 30
0.0
 10
14.0674144843
 20
9.8301090015
 30
0.0
 10
14.0630566045
 20
9.8455456382
 30
0.0
 10
14.0585790611
 20
9.860487889
 30
0.0
 10
14.0539842731
 20
9.8749279111
 30
0.0
 10
14.0492746313
 20
9.8888581235
 30
0.0
 10
14.044452622
 20
9.9022712222
 30
0.0
 10
14.0395208038
 20
9.9151601888
 30
0.0
 10
14.034481713
 20
9.9275182704
 30
0.0
 10
14.0293380635
 20
9.939339034
 30
0.0
 10
14.0240924388
 20
9.9506162915
 30
0.0
 10
14.0187476719
 20
9.9613442118
 30
0.0
 10
14.0133064051
 20
9.9715171898
 30
0.0
 10
14.0077715308
 20
9.9811299987
 30
0.0
 10
14.0021457638
 20
9.9901776376
 30
0.0
 10
13.9964319873
 20
9.998655467
 30
0.0
 10
13.9906329832
 20
10.0065591058
 30
0.0
 10
13.9847515741
 20
10.013884448
 30
0.0
 10
13.9787905419
 20
10.0206277542
 30
0.0
 10
13.9727527628
 20
10.0267852359
 30
0.0
 10
13.9676071405
 20
10.031473452
 30
0.0
 10
13.9634557936
 20
10.0349171714
 30
0.0
 10
13.9593647157
 20
10.0380960707
 30
0.0
 10
13.9542055347
 20
10.0417115863
 30
0.0
 10
13.9478880473
 20
10.0454945649
 30
0.0
 10
13.9415078399
 20
10.0486767652
 30
0.0
 10
13.9350683111
 20
10.0512553099
 30
0.0
 10
13.9285731721
 20
10.0532278929
 30
0.0
 10
13.9220265197
 20
10.0545924519
 30
0.0
 10
13.9154329019
 20
10.0553475311
 30
0.0
 10
13.9087969062
 20
10.0554924601
 30
0.0
 10
13.9021239655
 20
10.0550272996
 30
0.0
 10
13.8976968812
 20
10.0543180002
 30
0.0
 10
13.8954868221
 20
10.0538668768
 30
0.0
  0
SPLINE
  5
30D
100
AcDbEntity
  8
0
100
AcDbSpline
 62
7
  6
CONTINUOUS
 70
0
 71
3
 72
69
 73
65
 74
0
 42
0.0000001
 43
0.0000001
 44
0.0000000001
 40
0.0
 40
0.0
 40
0.0
 40
0.0
 40
0.0046769696
 40
0.0094808856
 40
0.0144117526
 40
0.0194693848
 40
0.0299632958
 40
0.0409589456
 40
0.0524505293
 40
0.064430607
 40
0.0768903227
 40
0.0898195592
 40
0.1032070154
 40
0.1170403342
 40
0.1313062118
 40
0.1459904359
 40
0.1610779621
 40
0.1765530027
 40
0.1923990537
 40
0.2085989379
 40
0.2251348838
 40
0.2419885522
 40
0.2591410606
 40
0.2765730527
 40
0.2942647297
 40
0.312195866
 40
0.3303458693
 40
0.3486938158
 40
0.3672184658
 40
0.3858983139
 40
0.4047116262
 40
0.4236364608
 40
0.461731753
 40
0.5000063215
 40
0.5382808361
 40
0.5763759683
 40
0.5953006804
 40
0.6141138442
 40
0.6327935223
 40
0.6513179709
 40
0.6696656892
 40
0.6878154468
 40
0.7057463067
 40
0.7234376785
 40
0.7408693518
 40
0.7580215138
 40
0.7748748043
 40
0.7914103615
 40
0.8076098354
 40
0.823455442
 40
0.8389300287
 40
0.8540170871
 40
0.8687008086
 40
0.8829661733
 40
0.8967989741
 40
0.9101858798
 40
0.9231145532
 40
0.9355737095
 40
0.9475532013
 40
0.9590441841
 40
0.9700392449
 40
0.9805325497
 40
0.990520099
 40
1.0
 40
1.0
 40
1.0
 40
1.0
 10
13.6161346076
 20
7.9470432617
 30
0.0
 10
13.6177747602
 20
7.9496703349
 30
0.0
 10
13.6210483027
 20
7.9550279651
 30
0.0
 10
13.6258767229
 20
7.9632601863
 30
0.0
 10
13.6306875188
 20
7.9717933336
 30
0.0
 10
13.6371559884
 20
7.9837152837
 30
0.0
 10
13.6451766559
 20
7.9993612944
 30
0.0
 10
13.6545928452
 20
8.0190696064
 30
0.0
 10
13.6639032632
 20
8.0399106511
 30
0.0
 10
13.6730962882
 20
8.0618584524
 30
0.0
 10
13.6821604407
 20
8.0848858453
 30
0.0
 10
13.6910843436
 20
8.1089642279
 30
0.0
 10
13.699856836
 20
8.1340636513
 30
0.0
 10
13.7084669375
 20
8.1601528608
 30
0.0
 10
13.7169038314
 20
8.1871993619
 30
0.0
 10
13.7251569458
 20
8.2151694336
 30
0.0
 10
13.7332159541
 20
8.2440281807
 30
0.0
 10
13.7410707366
 20
8.2737396001
 30
0.0
 10
13.748711441
 20
8.3042666083
 30
0.0
 10
13.7561285146
 20
8.3355710849
 30
0.0
 10
13.7633126523
 20
8.3676139418
 30
0.0
 10
13.7702548369
 20
8.4003551633
 30
0.0
 10
13.776946395
 20
8.4337538453
 30
0.0
 10
13.783378941
 20
8.467768265
 30
0.0
 10
13.7895443975
 20
8.5023559308
 30
0.0
 10
13.7954350639
 20
8.5374736226
 30
0.0
 10
13.8010435675
 20
8.5730774583
 30
0.0
 10
13.8063628642
 20
8.609122951
 30
0.0
 10
13.8113863104
 20
8.6455650569
 30
0.0
 10
13.8161076222
 20
8.6823582228
 30
0.0
 10
13.8205208926
 20
8.7194565052
 30
0.0
 10
13.8259988835
 20
8.7693733833
 30
0.0
 10
13.8320341786
 20
8.8321907917
 30
0.0
 10
13.8379542369
 20
8.9078796274
 30
0.0
 10
13.8425378597
 20
8.9836610315
 30
0.0
 10
13.8452307756
 20
9.0467099942
 30
0.0
 10
13.8466950119
 20
9.096904919
 30
0.0
 10
13.8474444895
 20
9.1342569734
 30
0.0
 10
13.8478467747
 20
9.171349297
 30
0.0
 10
13.8479013342
 20
9.2081355704
 30
0.0
 10
13.8476081291
 20
9.2445698113
 30
0.0
 10
13.8469675455
 20
9.2806064907
 30
0.0
 10
13.8459803764
 20
9.3162005733
 30
0.0
 10
13.8446478771
 20
9.3513075815
 30
0.0
 10
13.8429717458
 20
9.3858836497
 30
0.0
 10
13.8409540785
 20
9.4198855744
 30
0.0
 10
13.8385974149
 20
9.4532708753
 30
0.0
 10
13.8359047452
 20
9.4859978497
 30
0.0
 10
13.8328794487
 20
9.5180256167
 30
0.0
 10
13.8295253214
 20
9.5493141752
 30
0.0
 10
13.8258466119
 20
9.579824461
 30
0.0
 10
13.8218479476
 20
9.6095183843
 30
0.0
 10
13.8175343405
 20
9.6383588823
 30
0.0
 10
13.8129112476
 20
9.66630998
 30
0.0
 10
13.8079844932
 20
9.6933368235
 30
0.0
 10
13.8027602508
 20
9.7194057231
 30
0.0
 10
13.7972451171
 20
9.7444842195
 30
0.0
 10
13.7914460423
 20
9.7685411174
 30
0.0
 10
13.7853702863
 20
9.7915465128
 30
0.0
 10
13.7790254845
 20
9.8134718799
 30
0.0
 10
13.772419619
 20
9.8342900568
 30
0.0
 10
13.7655608694
 20
9.8539754468
 30
0.0
 10
13.7584578995
 20
9.8725034598
 30
0.0
 10
13.7534343905
 20
9.8843791264
 30
0.0
 10
13.7508764928
 20
9.8901118286
 30
0.0
  0
SPLINE
  5
30E
100
AcDbEntity
  8
0
100
AcDbSpline
 62
7
  6
CONTINUOUS
 70
0
 71
3
 72
54
 73
50
 74
0
 42
0.0000001
 43
0.0000001
 44
0.0000000001
 40
0.0
 40
0.0
 40
0.0
 40
0.0
 40
0.0115894684
 40
0.023535593
 40
0.0358315881
 40
0.0484701709
 40
0.0614434974
 40
0.0747433118
 40
0.0883608587
 40
0.1022870192
 40
0.1165122463
 40
0.1310266517
 40
0.1458199926
 40
0.1608816959
 40
0.1762009013
 40
0.1917664308
 40
0.2075668724
 40
0.2235905187
 40
0.2562592436
 40
0.2896749365
 40
0.3237365117
 40
0.3583402534
 40
0.393380267
 40
0.428748922
 40
0.4643372897
 40
0.500035578
 40
0.5357335638
 40
0.5713210251
 40
0.6066881727
 40
0.6417260835
 40
0.6763271352
 40
0.7103854441
 40
0.7437973082
 40
0.7764616582
 40
0.8082805194
 40
0.8238434116
 40
0.8391598471
 40
0.854218663
 40
0.8690090014
 40
0.883520281
 40
0.8977422867
 40
0.9116650988
 40
0.9252792182
 40
0.9385754821
 40
0.9515451889
 40
0.9641800428
 40
0.9764722417
 40
0.9884144843
 40
1.0
 40
1.0
 40
1.0
 40
1.0
 10
13.5711274607
 20
8.1458361486
 30
0.0
 10
13.5734147455
 20
8.1514742179
 30
0.0
 10
13.5779577086
 20
8.1629654805
 30
0.0
 10
13.5845844002
 20
8.1805716931
 30
0.0
 10
13.5911224975
 20
8.1987972415
 30
0.0
 10
13.5975665092
 20
8.2176270969
 30
0.0
 10
13.6039112006
 20
8.237045799
 30
0.0
 10
13.6101512603
 20
8.2570373907
 30
0.0
 10
13.6162816073
 20
8.2775854293
 30
0.0
 10
13.6222971275
 20
8.2986730208
 30
0.0
 10
13.6281928961
 20
8.3202828158
 30
0.0
 10
13.6339640281
 20
8.3423970362
 30
0.0
 10
13.6396057626
 20
8.3649974855
 30
0.0
 10
13.6451134629
 20
8.3880655622
 30
0.0
 10
13.6504825514
 20
8.4115822837
 30
0.0
 10
13.6557086424
 20
8.4355282851
 30
0.0
 10
13.6607873872
 20
8.4598838745
 30
0.0
 10
13.6673994372
 20
8.493090501
 30
0.0
 10
13.6752566107
 20
8.535476717
 30
0.0
 10
13.6839742954
 20
8.5873269654
 30
0.0
 10
13.6920116261
 20
8.6403147025
 30
0.0
 10
13.6993420456
 20
8.6942654375
 30
0.0
 10
13.7059413245
 20
8.7490016447
 30
0.0
 10
13.7117876685
 20
8.8043431494
 30
0.0
 10
13.7168617805
 20
8.8601077824
 30
0.0
 10
13.7211469265
 20
8.9161119688
 30
0.0
 10
13.7246289891
 20
8.9721713406
 30
0.0
 10
13.7272965145
 20
9.0281013461
 30
0.0
 10
13.7291407511
 20
9.0837178621
 30
0.0
 10
13.7301556796
 20
9.1388378031
 30
0.0
 10
13.7303380344
 20
9.1932797333
 30
0.0
 10
13.7296873113
 20
9.2468644521
 30
0.0
 10
13.7282057875
 20
9.2994156514
 30
0.0
 10
13.7258984594
 20
9.3507602808
 30
0.0
 10
13.7232751786
 20
9.3927043256
 30
0.0
 10
13.7207595865
 20
9.4255244538
 30
0.0
 10
13.718685847
 20
9.4495526347
 30
0.0
 10
13.7164129378
 20
9.4731553683
 30
0.0
 10
13.7139427507
 20
9.4963132443
 30
0.0
 10
13.71127729
 20
9.5190072013
 30
0.0
 10
13.7084188184
 20
9.5412185605
 30
0.0
 10
13.7053696357
 20
9.5629290497
 30
0.0
 10
13.7021323339
 20
9.5841208046
 30
0.0
 10
13.6987095281
 20
9.604776397
 30
0.0
 10
13.6951041045
 20
9.6248788418
 30
0.0
 10
13.6913190099
 20
9.6444116083
 30
0.0
 10
13.6873573903
 20
9.6633586675
 30
0.0
 10
13.683222542
 20
9.6817043787
 30
0.0
 10
13.6803080195
 20
9.6937081937
 30
0.0
 10
13.6788202528
 20
9.6996057186
 30
0.0
  0
SPLINE
  5
30F
100
AcDbEntity
  8
0
100
AcDbSpline
 62
4
  6
CONTINUOUS
 70
0
 71
3
 72
403
 73
399
 74
0
 42
0.0000001
 43
0.0000001
 44
0.0000000001
 40
0.0
 40
0.0
 40
0.0
 40
0.0
 40
0.015625
 40
0.0234375
 40
0.03125
 40
0.0390625
 40
0.04296875
 40
0.046875
 40
0.05078125
 40
0.0546875
 40
0.056640625
 40
0.05859375
 40
0.0595703125
 40
0.060546875
 40
0.0615234375
 40
0.0620117188
 40
0.0622558594
 40
0.0625
 40
0.0627441406
 40
0.0629882812
 40
0.0634765625
 40
0.064453125
 40
0.0654296875
 40
0.06640625
 40
0.068359375
 40
0.0703125
 40
0.07421875
 40
0.078125
 40
0.08203125
 40
0.0859375
 40
0.09375
 40
0.1015625
 40
0.10546875
 40
0.109375
 40
0.11328125
 40
0.1171875
 40
0.119140625
 40
0.12109375
 40
0.1220703125
 40
0.123046875
 40
0.1240234375
 40
0.1245117188
 40
0.1247558594
 40
0.125
 40
0.1252441406
 40
0.1254882812
 40
0.1259765625
 40
0.126953125
 40
0.1279296875
 40
0.12890625
 40
0.130859375
 40
0.1328125
 40
0.13671875
 40
0.140625
 40
0.14453125
 40
0.1484375
 40
0.15625
 40
0.1640625
 40
0.16796875
 40
0.171875
 40
0.17578125
 40
0.1796875
 40
0.181640625
 40
0.18359375
 40
0.1845703125
 40
0.185546875
 40
0.1865234375
 40
0.1870117188
 40
0.1872558594
 40
0.1875
 40
0.1877441406
 40
0.1879882812
 40
0.1884765625
 40
0.189453125
 40
0.1904296875
 40
0.19140625
 40
0.193359375
 40
0.1953125
 40
0.19921875
 40
0.203125
 40
0.20703125
 40
0.2109375
 40
0.21875
 40
0.2265625
 40
0.23046875
 40
0.234375
 40
0.23828125
 40
0.2421875
 40
0.244140625
 40
0.24609375
 40
0.2470703125
 40
0.248046875
 40
0.2490234375
 40
0.2495117188
 40
0.2497558594
 40
0.25
 40
0.2502441406
 40
0.2504882812
 40
0.2509765625
 40
0.251953125
 40
0.2529296875
 40
0.25390625
 40
0.255859375
 40
0.2578125
 40
0.26171875
 40
0.265625
 40
0.26953125
 40
0.2734375
 40
0.28125
 40
0.2890625
 40
0.29296875
 40
0.296875
 40
0.30078125
 40
0.3046875
 40
0.306640625
 40
0.30859375
 40
0.3095703125
 40
0.310546875
 40
0.3115234375
 40
0.3120117188
 40
0.3122558594
 40
0.3125
 40
0.3127441406
 40
0.3129882812
 40
0.3134765625
 40
0.314453125
 40
0.3154296875
 40
0.31640625
 40
0.318359375
 40
0.3203125
 40
0.32421875
 40
0.328125
 40
0.33203125
 40
0.3359375
 40
0.34375
 40
0.3515625
 40
0.35546875
 40
0.359375
 40
0.36328125
 40
0.3671875
 40
0.369140625
 40
0.37109375
 40
0.3720703125
 40
0.373046875
 40
0.3740234375
 40
0.3745117188
 40
0.3747558594
 40
0.375
 40
0.3752441406
 40
0.3754882812
 40
0.3759765625
 40
0.376953125
 40
0.3779296875
 40
0.37890625
 40
0.380859375
 40
0.3828125
 40
0.38671875
 40
0.390625
 40
0.39453125
 40
0.3984375
 40
0.40625
 40
0.4140625
 40
0.41796875
 40
0.421875
 40
0.42578125
 40
0.4296875
 40
0.431640625
 40
0.43359375
 40
0.4345703125
 40
0.435546875
 40
0.4365234375
 40
0.4370117188
 40
0.4372558594
 40
0.4375
 40
0.4377441406
 40
0.4379882812
 40
0.4384765625
 40
0.439453125
 40
0.4404296875
 40
0.44140625
 40
0.443359375
 40
0.4453125
 40
0.44921875
 40
0.453125
 40
0.45703125
 40
0.4609375
 40
0.46875
 40
0.4765625
 40
0.48046875
 40
0.484375
 40
0.48828125
 40
0.4921875
 40
0.494140625
 40
0.49609375
 40
0.4970703125
 40
0.498046875
 40
0.4990234375
 40
0.4995117188
 40
0.4997558594
 40
0.5
 40
0.5002441406
 40
0.5004882812
 40
0.5009765625
 40
0.501953125
 40
0.5029296875
 40
0.50390625
 40
0.505859375
 40
0.5078125
 40
0.51171875
 40
0.515625
 40
0.51953125
 40
0.5234375
 40
0.53125
 40
0.5390625
 40
0.54296875
 40
0.546875
 40
0.55078125
 40
0.5546875
 40
0.556640625
 40
0.55859375
 40
0.5595703125
 40
0.560546875
 40
0.5615234375
 40
0.5620117188
 40
0.5622558594
 40
0.5625
 40
0.5627441406
 40
0.5629882812
 40
0.5634765625
 40
0.564453125
 40
0.5654296875
 40
0.56640625
 40
0.568359375
 40
0.5703125
 40
0.57421875
 40
0.578125
 40
0.58203125
 40
0.5859375
 40
0.59375
 40
0.6015625
 40
0.60546875
 40
0.609375
 40
0.61328125
 40
0.6171875
 40
0.619140625
 40
0.62109375
 40
0.6220703125
 40
0.623046875
 40
0.6240234375
 40
0.6245117188
 40
0.6247558594
 40
0.625
 40
0.6252441406
 40
0.6254882812
 40
0.6259765625
 40
0.626953125
 40
0.6279296875
 40
0.62890625
 40
0.630859375
 40
0.6328125
 40
0.63671875
 40
0.640625
 40
0.64453125
 40
0.6484375
 40
0.65625
 40
0.6640625
 40
0.66796875
 40
0.671875
 40
0.67578125
 40
0.6796875
 40
0.681640625
 40
0.68359375
 40
0.6845703125
 40
0.685546875
 40
0.6865234375
 40
0.6870117188
 40
0.6872558594
 40
0.6875
 40
0.6877441406
 40
0.6879882812
 40
0.6884765625
 40
0.689453125
 40
0.6904296875
 40
0.69140625
 40
0.693359375
 40
0.6953125
 40
0.69921875
 40
0.703125
 40
0.70703125
 40
0.7109375
 40
0.71875
 40
0.7265625
 40
0.73046875
 40
0.734375
 40
0.73828125
 40
0.7421875
 40
0.744140625
 40
0.74609375
 40
0.7470703125
 40
0.748046875
 40
0.7490234375
 40
0.7495117188
 40
0.7497558594
 40
0.75
 40
0.7502441406
 40
0.7504882812
 40
0.7509765625
 40
0.751953125
 40
0.7529296875
 40
0.75390625
 40
0.755859375
 40
0.7578125
 40
0.76171875
 40
0.765625
 40
0.76953125
 40
0.7734375
 40
0.78125
 40
0.7890625
 40
0.79296875
 40
0.796875
 40
0.80078125
 40
0.8046875
 40
0.806640625
 40
0.80859375
 40
0.8095703125
 40
0.810546875
 40
0.8115234375
 40
0.8120117188
 40
0.8122558594
 40
0.8125
 40
0.8127441406
 40
0.8129882812
 40
0.8134765625
 40
0.814453125
 40
0.8154296875
 40
0.81640625
 40
0.818359375
 40
0.8203125
 40
0.82421875
 40
0.828125
 40
0.83203125
 40
0.8359375
 40
0.84375
 40
0.8515625
 40
0.85546875
 40
0.859375
 40
0.86328125
 40
0.8671875
 40
0.869140625
 40
0.87109375
 40
0.8720703125
 40
0.873046875
 40
0.8740234375
 40
0.8745117188
 40
0.8747558594
 40
0.875
 40
0.8752441406
 40
0.8754882812
 40
0.8759765625
 40
0.876953125
 40
0.8779296875
 40
0.87890625
 40
0.880859375
 40
0.8828125
 40
0.88671875
 40
0.890625
 40
0.89453125
 40
0.8984375
 40
0.90625
 40
0.9140625
 40
0.91796875
 40
0.921875
 40
0.92578125
 40
0.9296875
 40
0.931640625
 40
0.93359375
 40
0.9345703125
 40
0.935546875
 40
0.9365234375
 40
0.9370117188
 40
0.9372558594
 40
0.9375
 40
0.9377441406
 40
0.9379882812
 40
0.9384765625
 40
0.939453125
 40
0.9404296875
 40
0.94140625
 40
0.943359375
 40
0.9453125
 40
0.94921875
 40
0.953125
 40
0.95703125
 40
0.9609375
 40
0.96875
 40
0.9765625
 40
0.984375
 40
1.0
 40
1.0
 40
1.0
 40
1.0
 10
9.1628829275
 20
7.0103463321
 30
0.0
 10
9.168511407
 20
7.010507873
 30
0.0
 10
9.1769541262
 20
7.0107501843
 30
0.0
 10
9.1882110852
 20
7.011073266
 30
0.0
 10
9.1966538044
 20
7.0113155774
 30
0.0
 10
9.2036894038
 20
7.0115175032
 30
0.0
 10
9.2093178832
 20
7.0116790446
 30
0.0
 10
9.2135392432
 20
7.0118001985
 30
0.0
 10
9.2177606015
 20
7.0119213608
 30
0.0
 10
9.2212784052
 20
7.012022303
 30
0.0
 10
9.2240926367
 20
7.012103116
 30
0.0
 10
9.2258515577
 20
7.0121534892
 30
0.0
 10
9.2272586341
 20
7.0121940967
 30
0.0
 10
9.2283141067
 20
7.0122237065
 30
0.0
 10
9.2291931416
 20
7.0122510722
 30
0.0
 10
9.2298094974
 20
7.0122649473
 30
0.0
 10
9.2301600902
 20
7.0122811216
 30
0.0
 10
9.2304275718
 20
7.0122700243
 30
0.0
 10
9.2306777108
 20
7.0123477161
 30
0.0
 10
9.2310172787
 20
7.0124203345
 30
0.0
 10
9.2316087042
 20
7.0125618466
 30
0.0
 10
9.2324550712
 20
7.0127564627
 30
0.0
 10
9.2334700809
 20
7.012993231
 30
0.0
 10
9.2348236474
 20
7.0133077943
 30
0.0
 10
9.2365155301
 20
7.0137013845
 30
0.0
 10
9.2392225847
 20
7.0143309131
 30
0.0
 10
9.2426063884
 20
7.0151178979
 30
0.0
 10
9.246666959
 20
7.016062248
 30
0.0
 10
9.250727528
 20
7.0170066065
 30
0.0
 10
9.2561416206
 20
7.0182657482
 30
0.0
 10
9.2629092361
 20
7.0198396764
 30
0.0
 10
9.2696768518
 20
7.0214136039
 30
0.0
 10
9.275090944
 20
7.0226727468
 30
0.0
 10
9.2791515141
 20
7.0236171018
 30
0.0
 10
9.2832120808
 20
7.0245614649
 30
0.0
 10
9.2865958966
 20
7.0253484089
 30
0.0
 10
9.2893029265
 20
7.0259780208
 30
0.0
 10
9.2909948719
 20
7.0263713992
 30
0.0
 10
9.2923483098
 20
7.0266863973
 30
0.0
 10
9.2933637124
 20
7.026921837
 30
0.0
 10
9.2942088501
 20
7.0271206101
 30
0.0
 10
9.2948024701
 20
7.0272547012
 30
0.0
 10
9.2951385218
 20
7.0273392099
 30
0.0
 10
9.2953994616
 20
7.0273803785
 30
0.0
 10
9.2956263769
 20
7.0275064565
 30
0.0
 10
9.2959407988
 20
7.027644943
 30
0.0
 10
9.2964855075
 20
7.0279010939
 30
0.0
 10
9.2972665537
 20
7.0282598092
 30
0.0
 10
9.2982025718
 20
7.0286933555
 30
0.0
 10
9.2994510281
 20
7.0292703388
 30
0.0
 10
9.3010114504
 20
7.0299919372
 30
0.0
 10
9.3035082089
 20
7.0311462882
 30
0.0
 10
9.3066291286
 20
7.0325892978
 30
0.0
 10
9.3103742444
 20
7.0343208789
 30
0.0
 10
9.314119357
 20
7.0360524682
 30
0.0
 10
9.3191128415
 20
7.038361251
 30
0.0
 10
9.3253546968
 20
7.0412472306
 30
0.0
 10
9.3315965523
 20
7.0441332095
 30
0.0
 10
9.3365900364
 20
7.0464419934
 30
0.0
 10
9.3403351505
 20
7.0481735793
 30
0.0
 10
9.3440802604
 20
7.0499051731
 30
0.0
 10
9.3472011984
 20
7.0513481432
 30
0.0
 10
9.3496979197
 20
7.0525025748
 30
0.0
 10
9.3512584367
 20
7.0532239681
 30
0.0
 10
9.3525066986
 20
7.0538013722
 30
0.0
 10
9.3534433105
 20
7.0542336329
 30
0.0
 10
9.3542224986
 20
7.0545963708
 30
0.0
 10
9.3547705243
 20
7.0548453407
 30
0.0
 10
9.3550796315
 20
7.0549953329
 30
0.0
 10
9.3553228719
 20
7.0550860693
 30
0.0
 10
9.3555224976
 20
7.055259975
 30
0.0
 10
9.3558038785
 20
7.0554628389
 30
0.0
 10
9.356289207
 20
7.0558313673
 30
0.0
 10
9.3569862392
 20
7.0563507697
 30
0.0
 10
9.3578210916
 20
7.0569770774
 30
0.0
 10
9.3589347822
 20
7.0578110978
 30
0.0
 10
9.3603267057
 20
7.0588539851
 30
0.0
 10
9.3625538894
 20
7.0605224026
 30
0.0
 10
9.3653378326
 20
7.0626079938
 30
0.0
 10
9.3686785801
 20
7.0651106736
 30
0.0
 10
9.3720193233
 20
7.0676133612
 30
0.0
 10
9.3764736492
 20
7.0709502754
 30
0.0
 10
9.3820415559
 20
7.0751214191
 30
0.0
 10
9.3876094631
 20
7.0792925621
 30
0.0
 10
9.3920637882
 20
7.0826294772
 30
0.0
 10
9.3954045337
 20
7.085132162
 30
0.0
 10
9.3987452726
 20
7.0876348528
 30
0.0
 10
9.4015292425
 20
7.0897204095
 30
0.0
 10
9.4037563717
 20
7.0913888973
 30
0.0
 10
9.4051484338
 20
7.0924316057
 30
0.0
 10
9.40626184
 20
7.0932659933
 30
0.0
 10
9.4070975611
 20
7.0938911795
 30
0.0
 10
9.4077918755
 20
7.0944140908
 30
0.0
 10
9.4082820556
 20
7.0947763552
 30
0.0
 10
9.4085556631
 20
7.0949892555
 30
0.0
 10
9.4087791663
 20
7.0951323327
 30
0.0
 10
9.4089327268
 20
7.0953388558
 30
0.0
 10
9.4091618709
 20
7.0955920893
 30
0.0
 10
9.4095515061
 20
7.096045559
 30
0.0
 10
9.4101140706
 20
7.0966879821
 30
0.0
 10
9.4107866043
 20
7.0974611972
 30
0.0
 10
9.4116842044
 20
7.0984913447
 30
0.0
 10
9.4128059003
 20
7.0997793051
 30
0.0
 10
9.4146007838
 20
7.1018398875
 30
0.0
 10
9.4168443298
 20
7.1044156685
 30
0.0
 10
9.41953661
 20
7.1075065829
 30
0.0
 10
9.4222288835
 20
7.1105975034
 30
0.0
 10
9.4258185838
 20
7.1147187286
 30
0.0
 10
9.4303057084
 20
7.1198702609
 30
0.0
 10
9.4347928335
 20
7.1250217927
 30
0.0
 10
9.4383825329
 20
7.1291430187
 30
0.0
 10
9.4410748093
 20
7.1322339368
 30
0.0
 10
9.4437670786
 20
7.1353248601
 30
0.0
 10
9.4460106585
 20
7.1379006133
 30
0.0
 10
9.4478054729
 20
7.1399612523
 30
0.0
 10
9.4489273446
 20
7.1412490685
 30
0.0
 10
9.4498245838
 20
7.1422795121
 30
0.0
 10
9.45049822
 20
7.1430518226
 30
0.0
 10
9.451057335
 20
7.143697076
 30
0.0
 10
9.4514531283
 20
7.1441454932
 30
0.0
 10
9.4516724055
 20
7.1444068221
 30
0.0
 10
9.4518562738
 20
7.1445884786
 30
0.0
 10
9.451965946
 20
7.1448249505
 30
0.0
 10
9.4521380561
 20
7.1451211262
 30
0.0
 10
9.4524271905
 20
7.145648342
 30
0.0
 10
9.4528465439
 20
7.1463968501
 30
0.0
 10
9.4533470695
 20
7.1472970533
 30
0.0
 10
9.4540153796
 20
7.148496628
 30
0.0
 10
9.4548504444
 20
7.1499963348
 30
0.0
 10
9.4561867285
 20
7.1523957323
 30
0.0
 10
9.4578570217
 20
7.155395025
 30
0.0
 10
9.4598614001
 20
7.1589941565
 30
0.0
 10
9.4618657714
 20
7.1625932934
 30
0.0
 10
9.4645382689
 20
7.1673921406
 30
0.0
 10
9.4678788899
 20
7.1733907004
 30
0.0
 10
9.4712195116
 20
7.1793892598
 30
0.0
 10
9.4738920081
 20
7.1841881077
 30
0.0
 10
9.4758963825
 20
7.1877872426
 30
0.0
 10
9.4779007491
 20
7.1913863813
 30
0.0
 10
9.4795710791
 20
7.1943856517
 30
0.0
 10
9.4809072881
 20
7.1967850947
 30
0.0
 10
9.481742544
 20
7.1982846858
 30
0.0
 10
9.4824104619
 20
7.1994844979
 30
0.0
 10
9.4829121856
 20
7.2003839756
 30
0.0
 10
9.4833277905
 20
7.2011347536
 30
0.0
 10
9.4836236166
 20
7.2016579173
 30
0.0
 10
9.483785005
 20
7.2019605855
 30
0.0
 10
9.4839276108
 20
7.2021771146
 30
0.0
 10
9.4839877861
 20
7.2024336728
 30
0.0
 10
9.4840967725
 20
7.2027617879
 30
0.0
 10
9.4842741023
 20
7.2033424946
 30
0.0
 10
9.4845344344
 20
7.2041686746
 30
0.0
 10
9.484843835
 20
7.2051615464
 30
0.0
 10
9.4852574163
 20
7.2064848669
 30
0.0
 10
9.4857740344
 20
7.2081391917
 30
0.0
 10
9.4866008237
 20
7.210786014
 30
0.0
 10
9.4876342416
 20
7.2140945753
 30
0.0
 10
9.4888743726
 20
7.2180648346
 30
0.0
 10
9.4901144956
 20
7.2220350976
 30
0.0
 10
9.4917679958
 20
7.2273287804
 30
0.0
 10
9.49383487
 20
7.2339458843
 30
0.0
 10
9.4959017449
 20
7.240562988
 30
0.0
 10
9.497555244
 20
7.2458566712
 30
0.0
 10
9.4987953705
 20
7.2498269329
 30
0.0
 10
9.5000354886
 20
7.2537971975
 30
0.0
 10
9.5010689464
 20
7.2571057419
 30
0.0
 10
9.5018956543
 20
7.2597525987
 30
0.0
 10
9.5024124797
 20
7.2614068358
 30
0.0
 10
9.5028256355
 20
7.2627303364
 30
0.0
 10
9.5031363361
 20
7.263722658
 30
0.0
 10
9.503392601
 20
7.2645505594
 30
0.0
 10
9.5035771913
 20
7.2651281931
 30
0.0
 10
9.5036745446
 20
7.2654612319
 30
0.0
 10
9.5037704532
 20
7.2657026658
 30
0.0
 10
9.5037788507
 20
7.2659759994
 30
0.0
 10
9.5038205723
 20
7.2663293172
 30
0.0
 10
9.5038793629
 20
7.2669528075
 30
0.0
 10
9.503970785
 20
7.2678407976
 30
0.0
 10
9.5040773089
 20
7.2689075459
 30
0.0
 10
9.5042204524
 20
7.2703294717
 30
0.0
 10
9.5043990011
 20
7.2721070177
 30
0.0
 10
9.5046848918
 20
7.2749510138
 30
0.0
 10
9.5050421821
 20
7.2785060355
 30
0.0
 10
9.5054709618
 20
7.2827720502
 30
0.0
 10
9.5058997332
 20
7.2870380679
 30
0.0
 10
9.5064714312
 20
7.2927260904
 30
0.0
 10
9.5071860527
 20
7.299836119
 30
0.0
 10
9.507900675
 20
7.3069461474
 30
0.0
 10
9.5084723718
 20
7.3126341701
 30
0.0
 10
9.5089011468
 20
7.3169001872
 30
0.0
 10
9.509329913
 20
7.3211662042
 30
0.0
 10
9.5096872453
 20
7.3247212188
 30
0.0
 10
9.5099730505
 20
7.3275652293
 30
0.0
 10
9.5101518168
 20
7.3293427386
 30
0.0
 10
9.5102945136
 20
7.3307647399
 30
0.0
 10
9.5104024021
 20
7.3318312574
 30
0.0
 10
9.5104895546
 20
7.3327199697
 30
0.0
 10
9.5105559672
 20
7.3333421707
 30
0.0
 10
9.5105854765
 20
7.3336975544
 30
0.0
 10
9.5106313861
 20
7.3339645422
 30
0.0
 10
9.5105864056
 20
7.3342298095
 30
0.0
 10
9.510558135
 20
7.3345840993
 30
0.0
 10
9.5104938903
 20
7.3352038268
 30
0.0
 10
9.5104098347
 20
7.336089298
 30
0.0
 10
9.5103056625
 20
7.3371518009
 30
0.0
 10
9.5101679207
 20
7.3385684933
 30
0.0
 10
9.5099953482
 20
7.3403393513
 30
0.0
 10
9.5097194532
 20
7.3431727283
 30
0.0
 10
9.5093745085
 20
7.3467144481
 30
0.0
 10
9.5089606075
 20
7.3509645124
 30
0.0
 10
9.5085466977
 20
7.3552145766
 30
0.0
 10
9.5079948211
 20
7.3608813289
 30
0.0
 10
9.5073049742
 20
7.3679647693
 30
0.0
 10
9.506615128
 20
7.3750482097
 30
0.0
 10
9.5060632502
 20
7.380714962
 30
0.0
 10
9.505649344
 20
7.3849650264
 30
0.0
 10
9.5052354294
 20
7.3892150898
 30
0.0
 10
9.5048905268
 20
7.3927568127
 30
0.0
 10
9.5046145462
 20
7.3955901834
 30
0.0
 10
9.5044421914
 20
7.3973610573
 30
0.0
 10
9.5043040028
 20
7.3987777171
 30
0.0
 10
9.5042011957
 20
7.3998403194
 30
0.0
 10
9.5041128688
 20
7.4007254797
 30
0.0
 10
9.5040562492
 20
7.4013457622
 30
0.0
 10
9.5040157612
 20
7.4016991629
 30
0.0
 10
9.5040083086
 20
7.4019671613
 30
0.0
 10
9.5039132696
 20
7.4022238912
 30
0.0
 10
9.503817102
 20
7.4025701284
 30
0.0
 10
9.5036345745
 20
7.4031742122
 30
0.0
 10
9.5033812627
 20
7.4040381464
 30
0.0
 10
9.5030741032
 20
7.4050744577
 30
0.0
 10
9.5026656698
 20
7.4064563492
 30
0.0
 10
9.502154747
 20
7.4081836645
 30
0.0
 10
9.5013374836
 20
7.4109473965
 30
0.0
 10
9.5003158312
 20
7.414402052
 30
0.0
 10
9.4990898796
 20
7.4185476427
 30
0.0
 10
9.4978639197
 20
7.4226932323
 30
0.0
 10
9.4962293094
 20
7.4282206855
 30
0.0
 10
9.4941860454
 20
7.4351300018
 30
0.0
 10
9.4921427822
 20
7.4420393183
 30
0.0
 10
9.4905081707
 20
7.4475667712
 30
0.0
 10
9.4892822142
 20
7.4517123616
 30
0.0
 10
9.4880562498
 20
7.4558579493
 30
0.0
 10
9.4870346374
 20
7.4593126142
 30
0.0
 10
9.4862172924
 20
7.4620763271
 30
0.0
 10
9.4857065772
 20
7.4638036908
 30
0.0
 10
9.4852977178
 20
7.4651854832
 30
0.0
 10
9.4849918597
 20
7.4662220971
 30
0.0
 10
9.4847344761
 20
7.4670850844
 30
0.0
 10
9.4845592174
 20
7.4676908586
 30
0.0
 10
9.4844514033
 20
7.4680343872
 30
0.0
 10
9.4843921385
 20
7.4682994371
 30
0.0
 10
9.484250324
 20
7.4685361873
 30
0.0
 10
9.4840900321
 20
7.4688617254
 30
0.0
 10
9.4837961056
 20
7.469426818
 30
0.0
 10
9.4833832246
 20
7.4702364976
 30
0.0
 10
9.4828847651
 20
7.471207084
 30
0.0
 10
9.4822212012
 20
7.4725015585
 30
0.0
 10
9.4813913871
 20
7.4741195287
 30
0.0
 10
9.4800638853
 20
7.4767083497
 30
0.0
 10
9.4784044392
 20
7.4799443524
 30
0.0
 10
9.4764131334
 20
7.4838275657
 30
0.0
 10
9.4744218197
 20
7.4877107764
 30
0.0
 10
9.4717667376
 20
7.4928883915
 30
0.0
 10
9.4684478838
 20
7.49936041
 30
0.0
 10
9.4651290308
 20
7.5058324289
 30
0.0
 10
9.4624739475
 20
7.5110100435
 30
0.0
 10
9.4604826371
 20
7.5148932555
 30
0.0
 10
9.458491319
 20
7.5187764638
 30
0.0
 10
9.4568319112
 20
7.5220124821
 30
0.0
 10
9.4555043314
 20
7.5246012713
 30
0.0
 10
9.4546747158
 20
7.5262193224
 30
0.0
 10
9.4540107445
 20
7.5275136309
 30
0.0
 10
9.4535135295
 20
7.5284847248
 30
0.0
 10
9.4530967548
 20
7.5292928163
 30
0.0
 10
9.4528097792
 20
7.5298607439
 30
0.0
 10
9.4526383503
 20
7.5301817397
 30
0.0
 10
9.4525307452
 20
7.5304324425
 30
0.0
 10
9.4523429953
 20
7.5306450887
 30
0.0
 10
9.4521206176
 20
7.5309418916
 30
0.0
 10
9.4517184316
 20
7.5314551118
 30
0.0
 10
9.4511506898
 20
7.532191517
 30
0.0
 10
9.4504664849
 20
7.5330738192
 30
0.0
 10
9.4495552298
 20
7.5342507055
 30
0.0
 10
9.4484158122
 20
7.5357216479
 30
0.0
 10
9.4465929391
 20
7.5380752483
 30
0.0
 10
9.4443142807
 20
7.541017217
 30
0.0
 10
9.4415799194
 20
7.544547593
 30
0.0
 10
9.4388455503
 20
7.5480779654
 30
0.0
 10
9.4351997277
 20
7.5527851299
 30
0.0
 10
9.4306424483
 20
7.558669085
 30
0.0
 10
9.4260851696
 20
7.5645530406
 30
0.0
 10
9.422439346
 20
7.5692602044
 30
0.0
 10
9.4197049798
 20
7.5727905789
 30
0.0
 10
9.4169706079
 20
7.5763209471
 30
0.0
 10
9.4146919822
 20
7.5792629402
 30
0.0
 10
9.4128690425
 20
7.5816164908
 30
0.0
 10
9.4117297942
 20
7.5830875599
 30
0.0
 10
9.4108181917
 20
7.584264186
 30
0.0
 10
9.4101350481
 20
7.5851472833
 30
0.0
 10
9.4095639859
 20
7.585881201
 30
0.0
 10
9.4091677274
 20
7.5863988617
 30
0.0
 10
9.4089358523
 20
7.5866885498
 30
0.0
 10
9.4087772751
 20
7.5869230504
 30
0.0
 10
9.4085601026
 20
7.5870916718
 30
0.0
 10
9.4082909779
 20
7.5873394798
 30
0.0
 10
9.4078104869
 20
7.5877624371
 30
0.0
 10
9.4071290498
 20
7.5883722595
 30
0.0
 10
9.4063091943
 20
7.5891016504
 30
0.0
 10
9.405216798
 20
7.5900750084
 30
0.0
 10
9.4038510477
 20
7.5912914194
 30
0.0
 10
9.4016659897
 20
7.5932378372
 30
0.0
 10
9.3989346184
 20
7.5956708044
 30
0.0
 10
9.3956569937
 20
7.5985903886
 30
0.0
 10
9.3923793634
 20
7.6015099666
 30
0.0
 10
9.3880091916
 20
7.6054027394
 30
0.0
 10
9.3825464762
 20
7.6102687045
 30
0.0
 10
9.3770837612
 20
7.6151346702
 30
0.0
 10
9.3727135887
 20
7.6190274421
 30
0.0
 10
9.3694359606
 20
7.6219470228
 30
0.0
 10
9.3661583277
 20
7.6248665967
 30
0.0
 10
9.3634269818
 20
7.6272995961
 30
0.0
 10
9.3612418719
 20
7.6292459483
 30
0.0
 10
9.3598762537
 20
7.630462526
 30
0.0
 10
9.3587835863
 20
7.6314355419
 30
0.0
 10
9.357964559
 20
7.6321659779
 30
0.0
 10
9.3572805308
 20
7.6327725303
 30
0.0
 10
9.3568046653
 20
7.6332013251
 30
0.0
 10
9.3565281295
 20
7.6334397801
 30
0.0
 10
9.3563337217
 20
7.6336371306
 30
0.0
 10
9.3560896439
 20
7.6337637297
 30
0.0
 10
9.3557815324
 20
7.6339572074
 30
0.0
 10
9.355234265
 20
7.6342842949
 30
0.0
 10
9.3544566747
 20
7.6347575744
 30
0.0
 10
9.3535217599
 20
7.6353229366
 30
0.0
 10
9.3522758378
 20
7.6360776516
 30
0.0
 10
9.3507182191
 20
7.6370207377
 30
0.0
 10
9.3482261499
 20
7.6385298473
 30
0.0
 10
9.345111022
 20
7.6404161754
 30
0.0
 10
9.3413728863
 20
7.6426797944
 30
0.0
 10
9.3376347459
 20
7.6449434066
 30
0.0
 10
9.3326505603
 20
7.6479615586
 30
0.0
 10
9.3264203277
 20
7.6517342477
 30
0.0
 10
9.3201900954
 20
7.6555069374
 30
0.0
 10
9.3152059092
 20
7.6585250884
 30
0.0
 10
9.3114677705
 20
7.6607887036
 30
0.0
 10
9.3077296284
 20
7.6630523112
 30
0.0
 10
9.3046145203
 20
7.6649386747
 30
0.0
 10
9.3021224109
 20
7.6664477121
 30
0.0
 10
9.3005648946
 20
7.6673909821
 30
0.0
 10
9.2993187622
 20
7.6681453196
 30
0.0
 10
9.2983844898
 20
7.6687118353
 30
0.0
 10
9.2976048896
 20
7.6691815057
 30
0.0
 10
9.2970612102
 20
7.6695150361
 30
0.0
 10
9.2967473498
 20
7.6696981907
 30
0.0
 10
9.2965209309
 20
7.6698564987
 30
0.0
 10
9.2962601995
 20
7.6699347558
 30
0.0
 10
9.2959245262
 20
7.6700670212
 30
0.0
 10
9.2953315216
 20
7.6702854761
 30
0.0
 10
9.2944872875
 20
7.670604356
 30
0.0
 10
9.2934729587
 20
7.6709841006
 30
0.0
 10
9.2921209563
 20
7.6714914436
 30
0.0
 10
9.2904308039
 20
7.6721252741
 30
0.0
 10
9.2877266435
 20
7.6731395976
 30
0.0
 10
9.2843464145
 20
7.6744074352
 30
0.0
 10
9.2802901518
 20
7.6759288689
 30
0.0
 10
9.2762338859
 20
7.677450295
 30
0.0
 10
9.2708255325
 20
7.6794788657
 30
0.0
 10
9.2640650904
 20
7.6820145782
 30
0.0
 10
9.2573046485
 20
7.6845502913
 30
0.0
 10
9.2518962947
 20
7.686578861
 30
0.0
 10
9.24784003
 20
7.6881002904
 30
0.0
 10
9.2437837628
 20
7.6896217116
 30
0.0
 10
9.2404035479
 20
7.6908895881
 30
0.0
 10
9.2376993587
 20
7.6919038322
 30
0.0
 10
9.2360092797
 20
7.6925378649
 30
0.0
 10
9.2346571266
 20
7.6930447929
 30
0.0
 10
9.2336432579
 20
7.6934258055
 30
0.0
 10
9.2327975845
 20
7.6937407181
 30
0.0
 10
9.2322071494
 20
7.6939662552
 30
0.0
 10
9.231867359
 20
7.694087173
 30
0.0
 10
9.2316192739
 20
7.6942002863
 30
0.0
 10
9.2313453578
 20
7.69422768
 30
0.0
 10
9.2309891465
 20
7.6942941049
 30
0.0
 10
9.2303615787
 20
7.6943964175
 30
0.0
 10
9.2294672481
 20
7.6945498617
 30
0.0
 10
9.2283931119
 20
7.6947308771
 30
0.0
 10
9.2269612584
 20
7.69497332
 30
0.0
 10
9.2251713292
 20
7.6952760007
 30
0.0
 10
9.2223075052
 20
7.6957604983
 30
0.0
 10
9.2187277038
 20
7.6963660487
 30
0.0
 10
9.2144319512
 20
7.6970927399
 30
0.0
 10
9.2101361962
 20
7.6978194228
 30
0.0
 10
9.2044085238
 20
7.6987883363
 30
0.0
 10
9.1972489329
 20
7.6999994772
 30
0.0
 10
9.1886574239
 20
7.7014528467
 30
0.0
 10
9.1772020787
 20
7.7033906725
 30
0.0
 10
9.1686105697
 20
7.7048440419
 30
0.0
 10
9.1628828971
 20
7.7058129548
 30
0.0
  0
SPLINE
  5
310
100
AcDbEntity
  8
0
100
AcDbSpline
 62
4
  6
CONTINUOUS
 70
0
 71
3
 72
403
 73
399
 74
0
 42
0.0000001
 43
0.0000001
 44
0.0000000001
 40
0.0
 40
0.0
 40
0.0
 40
0.0
 40
0.015625
 40
0.0234375
 40
0.03125
 40
0.0390625
 40
0.04296875
 40
0.046875
 40
0.05078125
 40
0.0546875
 40
0.056640625
 40
0.05859375
 40
0.0595703125
 40
0.060546875
 40
0.0615234375
 40
0.0620117188
 40
0.0622558594
 40
0.0625
 40
0.0627441406
 40
0.0629882812
 40
0.0634765625
 40
0.064453125
 40
0.0654296875
 40
0.06640625
 40
0.068359375
 40
0.0703125
 40
0.07421875
 40
0.078125
 40
0.08203125
 40
0.0859375
 40
0.09375
 40
0.1015625
 40
0.10546875
 40
0.109375
 40
0.11328125
 40
0.1171875
 40
0.119140625
 40
0.12109375
 40
0.1220703125
 40
0.123046875
 40
0.1240234375
 40
0.1245117188
 40
0.1247558594
 40
0.125
 40
0.1252441406
 40
0.1254882812
 40
0.1259765625
 40
0.126953125
 40
0.1279296875
 40
0.12890625
 40
0.130859375
 40
0.1328125
 40
0.13671875
 40
0.140625
 40
0.14453125
 40
0.1484375
 40
0.15625
 40
0.1640625
 40
0.16796875
 40
0.171875
 40
0.17578125
 40
0.1796875
 40
0.181640625
 40
0.18359375
 40
0.1845703125
 40
0.185546875
 40
0.1865234375
 40
0.1870117188
 40
0.1872558594
 40
0.1875
 40
0.1877441406
 40
0.1879882812
 40
0.1884765625
 40
0.189453125
 40
0.1904296875
 40
0.19140625
 40
0.193359375
 40
0.1953125
 40
0.19921875
 40
0.203125
 40
0.20703125
 40
0.2109375
 40
0.21875
 40
0.2265625
 40
0.23046875
 40
0.234375
 40
0.23828125
 40
0.2421875
 40
0.244140625
 40
0.24609375
 40
0.2470703125
 40
0.248046875
 40
0.2490234375
 40
0.2495117188
 40
0.2497558594
 40
0.25
 40
0.2502441406
 40
0.2504882812
 40
0.2509765625
 40
0.251953125
 40
0.2529296875
 40
0.25390625
 40
0.255859375
 40
0.2578125
 40
0.26171875
 40
0.265625
 40
0.26953125
 40
0.2734375
 40
0.28125
 40
0.2890625
 40
0.29296875
 40
0.296875
 40
0.30078125
 40
0.3046875
 40
0.306640625
 40
0.30859375
 40
0.3095703125
 40
0.310546875
 40
0.3115234375
 40
0.3120117188
 40
0.3122558594
 40
0.3125
 40
0.3127441406
 40
0.3129882812
 40
0.3134765625
 40
0.314453125
 40
0.3154296875
 40
0.31640625
 40
0.318359375
 40
0.3203125
 40
0.32421875
 40
0.328125
 40
0.33203125
 40
0.3359375
 40
0.34375
 40
0.3515625
 40
0.35546875
 40
0.359375
 40
0.36328125
 40
0.3671875
 40
0.369140625
 40
0.37109375
 40
0.3720703125
 40
0.373046875
 40
0.3740234375
 40
0.3745117188
 40
0.3747558594
 40
0.375
 40
0.3752441406
 40
0.3754882812
 40
0.3759765625
 40
0.376953125
 40
0.3779296875
 40
0.37890625
 40
0.380859375
 40
0.3828125
 40
0.38671875
 40
0.390625
 40
0.39453125
 40
0.3984375
 40
0.40625
 40
0.4140625
 40
0.41796875
 40
0.421875
 40
0.42578125
 40
0.4296875
 40
0.431640625
 40
0.43359375
 40
0.4345703125
 40
0.435546875
 40
0.4365234375
 40
0.4370117188
 40
0.4372558594
 40
0.4375
 40
0.4377441406
 40
0.4379882812
 40
0.4384765625
 40
0.439453125
 40
0.4404296875
 40
0.44140625
 40
0.443359375
 40
0.4453125
 40
0.44921875
 40
0.453125
 40
0.45703125
 40
0.4609375
 40
0.46875
 40
0.4765625
 40
0.48046875
 40
0.484375
 40
0.48828125
 40
0.4921875
 40
0.494140625
 40
0.49609375
 40
0.4970703125
 40
0.498046875
 40
0.4990234375
 40
0.4995117188
 40
0.4997558594
 40
0.5
 40
0.5002441406
 40
0.5004882812
 40
0.5009765625
 40
0.501953125
 40
0.5029296875
 40
0.50390625
 40
0.505859375
 40
0.5078125
 40
0.51171875
 40
0.515625
 40
0.51953125
 40
0.5234375
 40
0.53125
 40
0.5390625
 40
0.54296875
 40
0.546875
 40
0.55078125
 40
0.5546875
 40
0.556640625
 40
0.55859375
 40
0.5595703125
 40
0.560546875
 40
0.5615234375
 40
0.5620117188
 40
0.5622558594
 40
0.5625
 40
0.5627441406
 40
0.5629882812
 40
0.5634765625
 40
0.564453125
 40
0.5654296875
 40
0.56640625
 40
0.568359375
 40
0.5703125
 40
0.57421875
 40
0.578125
 40
0.58203125
 40
0.5859375
 40
0.59375
 40
0.6015625
 40
0.60546875
 40
0.609375
 40
0.61328125
 40
0.6171875
 40
0.619140625
 40
0.62109375
 40
0.6220703125
 40
0.623046875
 40
0.6240234375
 40
0.6245117188
 40
0.6247558594
 40
0.625
 40
0.6252441406
 40
0.6254882812
 40
0.6259765625
 40
0.626953125
 40
0.6279296875
 40
0.62890625
 40
0.630859375
 40
0.6328125
 40
0.63671875
 40
0.640625
 40
0.64453125
 40
0.6484375
 40
0.65625
 40
0.6640625
 40
0.66796875
 40
0.671875
 40
0.67578125
 40
0.6796875
 40
0.681640625
 40
0.68359375
 40
0.6845703125
 40
0.685546875
 40
0.6865234375
 40
0.6870117188
 40
0.6872558594
 40
0.6875
 40
0.6877441406
 40
0.6879882812
 40
0.6884765625
 40
0.689453125
 40
0.6904296875
 40
0.69140625
 40
0.693359375
 40
0.6953125
 40
0.69921875
 40
0.703125
 40
0.70703125
 40
0.7109375
 40
0.71875
 40
0.7265625
 40
0.73046875
 40
0.734375
 40
0.73828125
 40
0.7421875
 40
0.744140625
 40
0.74609375
 40
0.7470703125
 40
0.748046875
 40
0.7490234375
 40
0.7495117188
 40
0.7497558594
 40
0.75
 40
0.7502441406
 40
0.7504882812
 40
0.7509765625
 40
0.751953125
 40
0.7529296875
 40
0.75390625
 40
0.755859375
 40
0.7578125
 40
0.76171875
 40
0.765625
 40
0.76953125
 40
0.7734375
 40
0.78125
 40
0.7890625
 40
0.79296875
 40
0.796875
 40
0.80078125
 40
0.8046875
 40
0.806640625
 40
0.80859375
 40
0.8095703125
 40
0.810546875
 40
0.8115234375
 40
0.8120117188
 40
0.8122558594
 40
0.8125
 40
0.8127441406
 40
0.8129882812
 40
0.8134765625
 40
0.814453125
 40
0.8154296875
 40
0.81640625
 40
0.818359375
 40
0.8203125
 40
0.82421875
 40
0.828125
 40
0.83203125
 40
0.8359375
 40
0.84375
 40
0.8515625
 40
0.85546875
 40
0.859375
 40
0.86328125
 40
0.8671875
 40
0.869140625
 40
0.87109375
 40
0.8720703125
 40
0.873046875
 40
0.8740234375
 40
0.8745117188
 40
0.8747558594
 40
0.875
 40
0.8752441406
 40
0.8754882812
 40
0.8759765625
 40
0.876953125
 40
0.8779296875
 40
0.87890625
 40
0.880859375
 40
0.8828125
 40
0.88671875
 40
0.890625
 40
0.89453125
 40
0.8984375
 40
0.90625
 40
0.9140625
 40
0.91796875
 40
0.921875
 40
0.92578125
 40
0.9296875
 40
0.931640625
 40
0.93359375
 40
0.9345703125
 40
0.935546875
 40
0.9365234375
 40
0.9370117188
 40
0.9372558594
 40
0.9375
 40
0.9377441406
 40
0.9379882812
 40
0.9384765625
 40
0.939453125
 40
0.9404296875
 40
0.94140625
 40
0.943359375
 40
0.9453125
 40
0.94921875
 40
0.953125
 40
0.95703125
 40
0.9609375
 40
0.96875
 40
0.9765625
 40
0.984375
 40
1.0
 40
1.0
 40
1.0
 40
1.0
 10
9.1628829275
 20
7.7058129527
 30
0.0
 10
9.157254448
 20
7.7056514119
 30
0.0
 10
9.1488117287
 20
7.7054091006
 30
0.0
 10
9.1375547697
 20
7.7050860189
 30
0.0
 10
9.1291120505
 20
7.7048437075
 30
0.0
 10
9.1220764511
 20
7.7046417817
 30
0.0
 10
9.1164479717
 20
7.7044802403
 30
0.0
 10
9.1122266117
 20
7.7043590864
 30
0.0
 10
9.1080052534
 20
7.7042379241
 30
0.0
 10
9.1044874497
 20
7.7041369819
 30
0.0
 10
9.1016732182
 20
7.7040561689
 30
0.0
 10
9.0999142972
 20
7.7040057957
 30
0.0
 10
9.0985072208
 20
7.7039651882
 30
0.0
 10
9.0974517482
 20
7.7039355784
 30
0.0
 10
9.0965727134
 20
7.7039082127
 30
0.0
 10
9.0959563575
 20
7.7038943376
 30
0.0
 10
9.0956057647
 20
7.7038781633
 30
0.0
 10
9.0953382831
 20
7.7038892606
 30
0.0
 10
9.0950881441
 20
7.7038115688
 30
0.0
 10
9.0947485762
 20
7.7037389503
 30
0.0
 10
9.0941571507
 20
7.7035974383
 30
0.0
 10
9.0933107837
 20
7.7034028222
 30
0.0
 10
9.0922957741
 20
7.7031660539
 30
0.0
 10
9.0909422075
 20
7.7028514906
 30
0.0
 10
9.0892503248
 20
7.7024579003
 30
0.0
 10
9.0865432702
 20
7.7018283717
 30
0.0
 10
9.0831594665
 20
7.7010413869
 30
0.0
 10
9.0790988959
 20
7.7000970369
 30
0.0
 10
9.0750383269
 20
7.6991526784
 30
0.0
 10
9.0696242343
 20
7.6978935367
 30
0.0
 10
9.0628566188
 20
7.6963196085
 30
0.0
 10
9.0560890031
 20
7.694745681
 30
0.0
 10
9.0506749109
 20
7.6934865381
 30
0.0
 10
9.0466143409
 20
7.6925421831
 30
0.0
 10
9.0425537741
 20
7.6915978199
 30
0.0
 10
9.0391699583
 20
7.690810876
 30
0.0
 10
9.0364629284
 20
7.6901812641
 30
0.0
 10
9.034770983
 20
7.6897878857
 30
0.0
 10
9.0334175451
 20
7.6894728875
 30
0.0
 10
9.0324021425
 20
7.6892374478
 30
0.0
 10
9.0315570048
 20
7.6890386748
 30
0.0
 10
9.0309633848
 20
7.6889045837
 30
0.0
 10
9.0306273331
 20
7.6888200749
 30
0.0
 10
9.0303663933
 20
7.6887789064
 30
0.0
 10
9.030139478
 20
7.6886528284
 30
0.0
 10
9.0298250561
 20
7.6885143418
 30
0.0
 10
9.0292803474
 20
7.688258191
 30
0.0
 10
9.0284993012
 20
7.6878994757
 30
0.0
 10
9.0275632831
 20
7.6874659293
 30
0.0
 10
9.0263148269
 20
7.6868889461
 30
0.0
 10
9.0247544045
 20
7.6861673477
 30
0.0
 10
9.022257646
 20
7.6850129967
 30
0.0
 10
9.0191367263
 20
7.6835699871
 30
0.0
 10
9.0153916105
 20
7.681838406
 30
0.0
 10
9.011646498
 20
7.6801068167
 30
0.0
 10
9.0066530134
 20
7.6777980339
 30
0.0
 10
9.0004111582
 20
7.6749120543
 30
0.0
 10
8.9941693026
 20
7.6720260754
 30
0.0
 10
8.9891758185
 20
7.6697172914
 30
0.0
 10
8.9854307044
 20
7.6679857056
 30
0.0
 10
8.9816855945
 20
7.6662541117
 30
0.0
 10
8.9785646565
 20
7.6648111417
 30
0.0
 10
8.9760679353
 20
7.6636567101
 30
0.0
 10
8.9745074182
 20
7.6629353167
 30
0.0
 10
8.9732591563
 20
7.6623579127
 30
0.0
 10
8.9723225444
 20
7.6619256519
 30
0.0
 10
8.9715433563
 20
7.6615629141
 30
0.0
 10
8.9709953306
 20
7.6613139442
 30
0.0
 10
8.9706862234
 20
7.661163952
 30
0.0
 10
8.9704429831
 20
7.6610732156
 30
0.0
 10
8.9702433573
 20
7.6608993099
 30
0.0
 10
8.9699619764
 20
7.660696446
 30
0.0
 10
8.9694766479
 20
7.6603279176
 30
0.0
 10
8.9687796157
 20
7.6598085152
 30
0.0
 10
8.9679447633
 20
7.6591822075
 30
0.0
 10
8.9668310727
 20
7.658348187
 30
0.0
 10
8.9654391492
 20
7.6573052998
 30
0.0
 10
8.9632119655
 20
7.6556368823
 30
0.0
 10
8.9604280223
 20
7.6535512911
 30
0.0
 10
8.9570872748
 20
7.6510486113
 30
0.0
 10
8.9537465316
 20
7.6485459236
 30
0.0
 10
8.9492922057
 20
7.6452090095
 30
0.0
 10
8.943724299
 20
7.6410378658
 30
0.0
 10
8.9381563918
 20
7.6368667228
 30
0.0
 10
8.9337020668
 20
7.6335298077
 30
0.0
 10
8.9303613212
 20
7.6310271229
 30
0.0
 10
8.9270205823
 20
7.6285244321
 30
0.0
 10
8.9242366124
 20
7.6264388753
 30
0.0
 10
8.9220094832
 20
7.6247703876
 30
0.0
 10
8.9206174211
 20
7.6237276791
 30
0.0
 10
8.9195040149
 20
7.6228932916
 30
0.0
 10
8.9186682938
 20
7.6222681054
 30
0.0
 10
8.9179739794
 20
7.6217451941
 30
0.0
 10
8.9174837993
 20
7.6213829297
 30
0.0
 10
8.9172101918
 20
7.6211700294
 30
0.0
 10
8.9169866886
 20
7.6210269522
 30
0.0
 10
8.9168331281
 20
7.6208204291
 30
0.0
 10
8.916603984
 20
7.6205671956
 30
0.0
 10
8.9162143488
 20
7.6201137259
 30
0.0
 10
8.9156517843
 20
7.6194713028
 30
0.0
 10
8.9149792506
 20
7.6186980877
 30
0.0
 10
8.9140816505
 20
7.6176679401
 30
0.0
 10
8.9129599546
 20
7.6163799798
 30
0.0
 10
8.9111650711
 20
7.6143193973
 30
0.0
 10
8.9089215251
 20
7.6117436164
 30
0.0
 10
8.906229245
 20
7.608652702
 30
0.0
 10
8.9035369715
 20
7.6055617815
 30
0.0
 10
8.8999472711
 20
7.6014405563
 30
0.0
 10
8.8954601466
 20
7.596289024
 30
0.0
 10
8.8909730214
 20
7.5911374922
 30
0.0
 10
8.887383322
 20
7.5870162662
 30
0.0
 10
8.8846910456
 20
7.5839253481
 30
0.0
 10
8.8819987763
 20
7.5808344248
 30
0.0
 10
8.8797551964
 20
7.5782586716
 30
0.0
 10
8.8779603821
 20
7.5761980325
 30
0.0
 10
8.8768385104
 20
7.5749102164
 30
0.0
 10
8.8759412711
 20
7.5738797727
 30
0.0
 10
8.8752676349
 20
7.5731074622
 30
0.0
 10
8.87470852
 20
7.5724622089
 30
0.0
 10
8.8743127266
 20
7.5720137917
 30
0.0
 10
8.8740934494
 20
7.5717524628
 30
0.0
 10
8.8739095812
 20
7.5715708063
 30
0.0
 10
8.8737999089
 20
7.5713343344
 30
0.0
 10
8.8736277988
 20
7.5710381587
 30
0.0
 10
8.8733386644
 20
7.5705109428
 30
0.0
 10
8.872919311
 20
7.5697624348
 30
0.0
 10
8.8724187854
 20
7.5688622315
 30
0.0
 10
8.8717504753
 20
7.5676626569
 30
0.0
 10
8.8709154105
 20
7.5661629501
 30
0.0
 10
8.8695791264
 20
7.5637635526
 30
0.0
 10
8.8679088332
 20
7.5607642599
 30
0.0
 10
8.8659044548
 20
7.5571651283
 30
0.0
 10
8.8639000835
 20
7.5535659915
 30
0.0
 10
8.861227586
 20
7.5487671442
 30
0.0
 10
8.857886965
 20
7.5427685845
 30
0.0
 10
8.8545463433
 20
7.5367700251
 30
0.0
 10
8.8518738468
 20
7.5319711772
 30
0.0
 10
8.8498694724
 20
7.5283720423
 30
0.0
 10
8.8478651058
 20
7.5247729036
 30
0.0
 10
8.8461947758
 20
7.5217736332
 30
0.0
 10
8.8448585668
 20
7.5193741902
 30
0.0
 10
8.8440233109
 20
7.5178745991
 30
0.0
 10
8.843355393
 20
7.516674787
 30
0.0
 10
8.8428536693
 20
7.5157753093
 30
0.0
 10
8.8424380644
 20
7.5150245313
 30
0.0
 10
8.8421422383
 20
7.5145013675
 30
0.0
 10
8.8419808499
 20
7.5141986994
 30
0.0
 10
8.8418382441
 20
7.5139821703
 30
0.0
 10
8.8417780689
 20
7.5137256121
 30
0.0
 10
8.8416690824
 20
7.513397497
 30
0.0
 10
8.8414917526
 20
7.5128167902
 30
0.0
 10
8.8412314206
 20
7.5119906103
 30
0.0
 10
8.8409220199
 20
7.5109977385
 30
0.0
 10
8.8405084386
 20
7.509674418
 30
0.0
 10
8.8399918205
 20
7.5080200932
 30
0.0
 10
8.8391650312
 20
7.5053732709
 30
0.0
 10
8.8381316133
 20
7.5020647096
 30
0.0
 10
8.8368914823
 20
7.4980944503
 30
0.0
 10
8.8356513593
 20
7.4941241872
 30
0.0
 10
8.8339978591
 20
7.4888305045
 30
0.0
 10
8.8319309849
 20
7.4822134005
 30
0.0
 10
8.82986411
 20
7.4755962969
 30
0.0
 10
8.8282106109
 20
7.4703026137
 30
0.0
 10
8.8269704844
 20
7.466332352
 30
0.0
 10
8.8257303663
 20
7.4623620873
 30
0.0
 10
8.8246969085
 20
7.4590535429
 30
0.0
 10
8.8238702006
 20
7.4564066861
 30
0.0
 10
8.8233533752
 20
7.4547524491
 30
0.0
 10
8.8229402194
 20
7.4534289485
 30
0.0
 10
8.8226295188
 20
7.4524366269
 30
0.0
 10
8.8223732539
 20
7.4516087255
 30
0.0
 10
8.8221886636
 20
7.4510310918
 30
0.0
 10
8.8220913103
 20
7.450698053
 30
0.0
 10
8.8219954017
 20
7.450456619
 30
0.0
 10
8.8219870042
 20
7.4501832855
 30
0.0
 10
8.8219452827
 20
7.4498299677
 30
0.0
 10
8.821886492
 20
7.4492064774
 30
0.0
 10
8.8217950699
 20
7.4483184873
 30
0.0
 10
8.821688546
 20
7.447251739
 30
0.0
 10
8.8215454026
 20
7.4458298132
 30
0.0
 10
8.8213668538
 20
7.4440522671
 30
0.0
 10
8.8210809632
 20
7.4412082711
 30
0.0
 10
8.8207236728
 20
7.4376532493
 30
0.0
 10
8.8202948931
 20
7.4333872347
 30
0.0
 10
8.8198661217
 20
7.429121217
 30
0.0
 10
8.8192944237
 20
7.4234331944
 30
0.0
 10
8.8185798022
 20
7.4163231659
 30
0.0
 10
8.81786518
 20
7.4092131375
 30
0.0
 10
8.8172934831
 20
7.4035251147
 30
0.0
 10
8.8168647082
 20
7.3992590976
 30
0.0
 10
8.8164359419
 20
7.3949930807
 30
0.0
 10
8.8160786096
 20
7.3914380661
 30
0.0
 10
8.8157928044
 20
7.3885940555
 30
0.0
 10
8.8156140381
 20
7.3868165463
 30
0.0
 10
8.8154713413
 20
7.3853945449
 30
0.0
 10
8.8153634528
 20
7.3843280275
 30
0.0
 10
8.8152763003
 20
7.3834393151
 30
0.0
 10
8.8152098877
 20
7.3828171141
 30
0.0
 10
8.8151803784
 20
7.3824617305
 30
0.0
 10
8.8151344688
 20
7.3821947426
 30
0.0
 10
8.8151794493
 20
7.3819294754
 30
0.0
 10
8.8152077199
 20
7.3815751856
 30
0.0
 10
8.8152719646
 20
7.3809554581
 30
0.0
 10
8.8153560202
 20
7.3800699869
 30
0.0
 10
8.8154601924
 20
7.379007484
 30
0.0
 10
8.8155979342
 20
7.3775907916
 30
0.0
 10
8.8157705067
 20
7.3758199336
 30
0.0
 10
8.8160464017
 20
7.3729865566
 30
0.0
 10
8.8163913464
 20
7.3694448368
 30
0.0
 10
8.8168052474
 20
7.3651947725
 30
0.0
 10
8.8172191572
 20
7.3609447083
 30
0.0
 10
8.8177710338
 20
7.3552779559
 30
0.0
 10
8.8184608808
 20
7.3481945156
 30
0.0
 10
8.8191507269
 20
7.3411110751
 30
0.0
 10
8.8197026048
 20
7.3354443229
 30
0.0
 10
8.8201165109
 20
7.3311942584
 30
0.0
 10
8.8205304255
 20
7.3269441951
 30
0.0
 10
8.8208753282
 20
7.3234024722
 30
0.0
 10
8.8211513088
 20
7.3205691015
 30
0.0
 10
8.8213236636
 20
7.3187982276
 30
0.0
 10
8.8214618522
 20
7.3173815678
 30
0.0
 10
8.8215646592
 20
7.3163189655
 30
0.0
 10
8.8216529862
 20
7.3154338051
 30
0.0
 10
8.8217096057
 20
7.3148135227
 30
0.0
 10
8.8217500937
 20
7.314460122
 30
0.0
 10
8.8217575463
 20
7.3141921236
 30
0.0
 10
8.8218525853
 20
7.3139353937
 30
0.0
 10
8.8219487529
 20
7.3135891565
 30
0.0
 10
8.8221312804
 20
7.3129850727
 30
0.0
 10
8.8223845922
 20
7.3121211385
 30
0.0
 10
8.8226917517
 20
7.3110848272
 30
0.0
 10
8.8231001852
 20
7.3097029357
 30
0.0
 10
8.8236111079
 20
7.3079756204
 30
0.0
 10
8.8244283714
 20
7.3052118884
 30
0.0
 10
8.8254500238
 20
7.3017572329
 30
0.0
 10
8.8266759753
 20
7.2976116422
 30
0.0
 10
8.8279019352
 20
7.2934660526
 30
0.0
 10
8.8295365455
 20
7.2879385994
 30
0.0
 10
8.8315798095
 20
7.2810292831
 30
0.0
 10
8.8336230728
 20
7.2741199666
 30
0.0
 10
8.8352576842
 20
7.2685925137
 30
0.0
 10
8.8364836407
 20
7.2644469233
 30
0.0
 10
8.8377096051
 20
7.2603013356
 30
0.0
 10
8.8387312175
 20
7.2568466707
 30
0.0
 10
8.8395485625
 20
7.2540829577
 30
0.0
 10
8.8400592777
 20
7.2523555941
 30
0.0
 10
8.8404681371
 20
7.2509738017
 30
0.0
 10
8.8407739952
 20
7.2499371878
 30
0.0
 10
8.8410313788
 20
7.2490742005
 30
0.0
 10
8.8412066375
 20
7.2484684263
 30
0.0
 10
8.8413144516
 20
7.2481248977
 30
0.0
 10
8.8413737164
 20
7.2478598478
 30
0.0
 10
8.841515531
 20
7.2476230976
 30
0.0
 10
8.8416758228
 20
7.2472975594
 30
0.0
 10
8.8419697493
 20
7.2467324669
 30
0.0
 10
8.8423826303
 20
7.2459227873
 30
0.0
 10
8.8428810898
 20
7.2449522009
 30
0.0
 10
8.8435446538
 20
7.2436577263
 30
0.0
 10
8.8443744678
 20
7.2420397562
 30
0.0
 10
8.8457019696
 20
7.2394509352
 30
0.0
 10
8.8473614157
 20
7.2362149325
 30
0.0
 10
8.8493527215
 20
7.2323317191
 30
0.0
 10
8.8513440352
 20
7.2284485085
 30
0.0
 10
8.8539991173
 20
7.2232708934
 30
0.0
 10
8.8573179711
 20
7.2167988748
 30
0.0
 10
8.8606368241
 20
7.210326856
 30
0.0
 10
8.8632919074
 20
7.2051492413
 30
0.0
 10
8.8652832178
 20
7.2012660294
 30
0.0
 10
8.8672745359
 20
7.197382821
 30
0.0
 10
8.8689339437
 20
7.1941468028
 30
0.0
 10
8.8702615235
 20
7.1915580135
 30
0.0
 10
8.8710911391
 20
7.1899399625
 30
0.0
 10
8.8717551104
 20
7.188645654
 30
0.0
 10
8.8722523254
 20
7.1876745601
 30
0.0
 10
8.8726691001
 20
7.1868664686
 30
0.0
 10
8.8729560758
 20
7.186298541
 30
0.0
 10
8.8731275046
 20
7.1859775452
 30
0.0
 10
8.8732351098
 20
7.1857268424
 30
0.0
 10
8.8734228596
 20
7.1855141962
 30
0.0
 10
8.8736452373
 20
7.1852173933
 30
0.0
 10
8.8740474233
 20
7.1847041731
 30
0.0
 10
8.8746151651
 20
7.1839677679
 30
0.0
 10
8.87529937
 20
7.1830854657
 30
0.0
 10
8.8762106252
 20
7.1819085794
 30
0.0
 10
8.8773500427
 20
7.180437637
 30
0.0
 10
8.8791729159
 20
7.1780840366
 30
0.0
 10
8.8814515742
 20
7.1751420679
 30
0.0
 10
8.8841859356
 20
7.1716116919
 30
0.0
 10
8.8869203046
 20
7.1680813195
 30
0.0
 10
8.8905661272
 20
7.163374155
 30
0.0
 10
8.8951234066
 20
7.1574901998
 30
0.0
 10
8.8996806853
 20
7.1516062443
 30
0.0
 10
8.9033265089
 20
7.1468990805
 30
0.0
 10
8.9060608751
 20
7.143368706
 30
0.0
 10
8.908795247
 20
7.1398383378
 30
0.0
 10
8.9110738727
 20
7.1368963447
 30
0.0
 10
8.9128968124
 20
7.1345427941
 30
0.0
 10
8.9140360607
 20
7.133071725
 30
0.0
 10
8.9149476632
 20
7.1318950988
 30
0.0
 10
8.9156308068
 20
7.1310120016
 30
0.0
 10
8.916201869
 20
7.1302780839
 30
0.0
 10
8.9165981276
 20
7.1297604232
 30
0.0
 10
8.9168300026
 20
7.1294707351
 30
0.0
 10
8.9169885798
 20
7.1292362345
 30
0.0
 10
8.9172057524
 20
7.1290676131
 30
0.0
 10
8.9174748771
 20
7.1288198051
 30
0.0
 10
8.917955368
 20
7.1283968477
 30
0.0
 10
8.9186368051
 20
7.1277870254
 30
0.0
 10
8.9194566606
 20
7.1270576345
 30
0.0
 10
8.9205490569
 20
7.1260842765
 30
0.0
 10
8.9219148072
 20
7.1248678655
 30
0.0
 10
8.9240998652
 20
7.1229214477
 30
0.0
 10
8.9268312365
 20
7.1204884805
 30
0.0
 10
8.9301088612
 20
7.1175688963
 30
0.0
 10
8.9333864915
 20
7.1146493183
 30
0.0
 10
8.9377566633
 20
7.1107565455
 30
0.0
 10
8.9432193787
 20
7.1058905804
 30
0.0
 10
8.9486820937
 20
7.1010246147
 30
0.0
 10
8.9530522662
 20
7.0971318428
 30
0.0
 10
8.9563298943
 20
7.0942122621
 30
0.0
 10
8.9596075272
 20
7.0912926882
 30
0.0
 10
8.9623388731
 20
7.0888596888
 30
0.0
 10
8.964523983
 20
7.0869133366
 30
0.0
 10
8.9658896012
 20
7.0856967589
 30
0.0
 10
8.9669822686
 20
7.084723743
 30
0.0
 10
8.967801296
 20
7.083993307
 30
0.0
 10
8.9684853241
 20
7.0833867545
 30
0.0
 10
8.9689611896
 20
7.0829579598
 30
0.0
 10
8.9692377254
 20
7.0827195047
 30
0.0
 10
8.9694321333
 20
7.0825221543
 30
0.0
 10
8.969676211
 20
7.0823955552
 30
0.0
 10
8.9699843225
 20
7.0822020775
 30
0.0
 10
8.9705315899
 20
7.0818749899
 30
0.0
 10
8.9713091802
 20
7.0814017105
 30
0.0
 10
8.972244095
 20
7.0808363483
 30
0.0
 10
8.9734900172
 20
7.0800816333
 30
0.0
 10
8.9750476358
 20
7.0791385472
 30
0.0
 10
8.977539705
 20
7.0776294375
 30
0.0
 10
8.9806548329
 20
7.0757431095
 30
0.0
 10
8.9843929686
 20
7.0734794905
 30
0.0
 10
8.988131109
 20
7.0712158783
 30
0.0
 10
8.9931152946
 20
7.0681977263
 30
0.0
 10
8.9993455272
 20
7.0644250372
 30
0.0
 10
9.0055757595
 20
7.0606523475
 30
0.0
 10
9.0105599457
 20
7.0576341965
 30
0.0
 10
9.0142980844
 20
7.0553705812
 30
0.0
 10
9.0180362265
 20
7.0531069737
 30
0.0
 10
9.0211513346
 20
7.0512206101
 30
0.0
 10
9.023643444
 20
7.0497115727
 30
0.0
 10
9.0252009603
 20
7.0487683028
 30
0.0
 10
9.0264470927
 20
7.0480139653
 30
0.0
 10
9.0273813651
 20
7.0474474496
 30
0.0
 10
9.0281609653
 20
7.0469777792
 30
0.0
 10
9.0287046447
 20
7.0466442488
 30
0.0
 10
9.0290185051
 20
7.0464610941
 30
0.0
 10
9.029244924
 20
7.0463027861
 30
0.0
 10
9.0295056554
 20
7.0462245291
 30
0.0
 10
9.0298413287
 20
7.0460922636
 30
0.0
 10
9.0304343333
 20
7.0458738088
 30
0.0
 10
9.0312785674
 20
7.0455549289
 30
0.0
 10
9.0322928962
 20
7.0451751843
 30
0.0
 10
9.0336448987
 20
7.0446678413
 30
0.0
 10
9.035335051
 20
7.0440340108
 30
0.0
 10
9.0380392114
 20
7.0430196873
 30
0.0
 10
9.0414194405
 20
7.0417518497
 30
0.0
 10
9.0454757031
 20
7.040230416
 30
0.0
 10
9.049531969
 20
7.0387089899
 30
0.0
 10
9.0549403224
 20
7.0366804191
 30
0.0
 10
9.0617007645
 20
7.0341447067
 30
0.0
 10
9.0684612064
 20
7.0316089936
 30
0.0
 10
9.0738695602
 20
7.0295804239
 30
0.0
 10
9.0779258249
 20
7.0280589945
 30
0.0
 10
9.0819820921
 20
7.0265375733
 30
0.0
 10
9.085362307
 20
7.0252696967
 30
0.0
 10
9.0880664962
 20
7.0242554527
 30
0.0
 10
9.0897565752
 20
7.02362142
 30
0.0
 10
9.0911087283
 20
7.023114492
 30
0.0
 10
9.092122597
 20
7.0227334794
 30
0.0
 10
9.0929682705
 20
7.0224185668
 30
0.0
 10
9.0935587055
 20
7.0221930297
 30
0.0
 10
9.0938984959
 20
7.0220721119
 30
0.0
 10
9.094146581
 20
7.0219589985
 30
0.0
 10
9.0944204971
 20
7.0219316049
 30
0.0
 10
9.0947767084
 20
7.02186518
 30
0.0
 10
9.0954042762
 20
7.0217628674
 30
0.0
 10
9.0962986069
 20
7.0216094232
 30
0.0
 10
9.0973727431
 20
7.0214284077
 30
0.0
 10
9.0988045965
 20
7.0211859649
 30
0.0
 10
9.1005945258
 20
7.0208832842
 30
0.0
 10
9.1034583497
 20
7.0203987866
 30
0.0
 10
9.1070381512
 20
7.0197932362
 30
0.0
 10
9.1113339037
 20
7.019066545
 30
0.0
 10
9.1156296587
 20
7.018339862
 30
0.0
 10
9.1213573312
 20
7.0173709485
 30
0.0
 10
9.128516922
 20
7.0161598077
 30
0.0
 10
9.137108431
 20
7.0147064382
 30
0.0
 10
9.1485637763
 20
7.0127686124
 30
0.0
 10
9.1571552852
 20
7.011315243
 30
0.0
 10
9.1628829579
 20
7.01034633
 30
0.0
  0
ENDSEC
  0
SECTION
  2
OBJECTS
  0
DICTIONARY
  5
C
100
AcDbDictionary
280
0
281
1
  3
ACAD_GROUP
350
D
  3
ACAD_MLINESTYLE
350
17
  3
ACAD_LAYOUT
350
1A
  3
ACAD_PLOTSETTINGS
350
19
  3
ACAD_PLOTSTYLENAME
350
E
  3
ACAD_IMAGE_DICT
350
       312
  3
ACAD_IMAGE_VARS
350
       313
  3
ACAD_TABLESTYLE
350
       314
  0
IMAGEDEF_REACTOR
  5
311
100
AcDbRasterImageDefReactor
 90
2
330
27F
  0
DICTIONARY
  5
D
102
{ACAD_REACTORS
330
C
102
}
100
AcDbDictionary
280
0
281
1
  0
ACDBDICTIONARYWDFLT
  5
E
102
{ACAD_REACTORS
330
C
102
}
100
AcDbDictionary
281
1
  3
Normal
350
F
100
AcDbDictionaryWithDefault
340
F
  0
DICTIONARY
  5
312
330
C
100
AcDbDictionary
281
1
  3
GAL_assy_2_img_1
350
       317
  0
RASTERVARIABLES
  5
313
330
C
100
AcDbRasterVariables
 90
0
 70
0
 71
1
 72
5
  0
DICTIONARY
  5
17
102
{ACAD_REACTORS
330
C
102
}
100
AcDbDictionary
280
0
281
1
  3
Standard
350
18
  0
DICTIONARY
  5
314
330
C
100
AcDbDictionary
281
1
  3
Standard
350
       318
  3
Standard1
350
       319
  0
DICTIONARY
  5
19
102
{ACAD_REACTORS
330
C
102
}
100
AcDbDictionary
281
1
  0
DICTIONARY
  5
1A
102
{ACAD_REACTORS
330
C
102
}
100
AcDbDictionary
281
1
  3
Model
350
315
  3
Layout1
350
316
  0
ACDBPLACEHOLDER
  5
F
102
{ACAD_REACTORS
330
E
102
}
  0
MLINESTYLE
  5
18
102
{ACAD_REACTORS
330
17
102
}
100
AcDbMlineStyle
  2
STANDARD
 70
0
  3

 62
256
 51
90.0
 52
90.0
 71
2
 49
0.5
 62
256
  6
BYLAYER
 49
-0.5
 62
256
  6
BYLAYER
  0
LAYOUT
  5
315
102
{ACAD_REACTORS
330
1A
102
}
100
AcDbPlotSettings
  1

  2
none_device
  4
ANSI_C_(22.00_x_17.00_Inches)
  6

 40
0.0
 41
0.0
 42
0.0
 43
0.0
 44
558.8
 45
431.8
 46
0.0
 47
0.0
 48
0.0
 49
0.0
140
0.0
141
0.0
142
1.0
143
1.0
 70
1024
 72
0
 73
0
 74
0
  7

 75
0
147
1.0
148
0.0
149
0.0
100
AcDbLayout
  1
Model
 70
0
 71
0
 10
0.0
 20
0.0
 11
22.0
 21
17.0
 12
0.0
 22
0.0
 32
0.0
 14
0.0
 24
0.0
 34
0.0
 15
0.0
 25
0.0
 35
0.0
146
0.0
 13
0.0
 23
0.0
 33
0.0
 16
1.0
 26
0.0
 36
0.0
 17
0.0
 27
1.0
 37
0.0
 76
0
330
204
345
0
346
0
  0
LAYOUT
  5
316
102
{ACAD_REACTORS
330
1A
102
}
100
AcDbPlotSettings
  1

  2
none_device
  4
ANSI_C_(22.00_x_17.00_Inches)
  6

 40
0.0
 41
0.0
 42
0.0
 43
0.0
 44
558.8
 45
431.8
 46
0.0
 47
0.0
 48
0.0
 49
0.0
140
0.0
141
0.0
142
1.0
143
1.0
 70
0
 72
0
 73
0
 74
0
  7

 75
0
147
1.0
148
0.0
149
0.0
100
AcDbLayout
  1
Layout1
 70
0
 71
1
 10
0.0
 20
0.0
 11
22.0
 21
17.0
 12
0.0
 22
0.0
 32
0.0
 14
0.0
 24
0.0
 34
0.0
 15
0.0
 25
0.0
 35
0.0
146
0.0
 13
0.0
 23
0.0
 33
0.0
 16
1.0
 26
0.0
 36
0.0
 17
0.0
 27
1.0
 37
0.0
 76
0
330
205
345
0
346
0
  0
IMAGEDEF
  5
317
102
{ACAD_REACTORS
330
312
330
311
102
}
100
AcDbRasterImageDef
 90
0
  1
GAL_assy_2_img_1.png
 10
369.0
 20
92.0
 11
0.0066666667
 21
0.0066666667
280
1
281
0
  0
TABLESTYLE
  5
318
102
{ACAD_REACTORS
330
314
330
282
330
283
102
}
330
314
100
AcDbTableStyle
  3
Standard
 70
0
 71
0
 40
0.06
 41
0.06
280
1
281
1
  7
Standard
140
0.18
170
1
 62
0
 63
7
283
0
  7
Standard
140
0.18
170
1
 62
0
 63
7
283
0
  7
Standard
140
0.18
170
1
 62
0
 63
7
283
0
  0
TABLESTYLE
  5
319
102
{ACAD_REACTORS
330
314
330
281
102
}
330
314
100
AcDbTableStyle
  3
Standard1
 70
1
 71
0
 40
0.06
 41
0.06
280
1
281
1
  7
Standard
140
0.18
170
1
 62
0
 63
7
283
0
  7
Standard
140
0.18
170
1
 62
0
 63
7
283
0
  7
Standard
140
0.18
170
1
 62
0
 63
7
283
0
  0
ENDSEC
  0
EOF
