999
DXF file: GAK_assy_2.dxf
999
Pro/ENGINEER 2014200 by Parametric Technology Corporation
  0
SECTION
  2
HEADER
  9
$ACADVER
  1
AC1021
  9
$DWGCODEPAGE
  3
ANSI_1252
  9
$EXTMAX
 10
22.0
 20
17.0
 30
0.0
  9
$EXTMIN
 10
0.0
 20
0.0
 30
0.0
  9
$LIMMIN
 10
0.0
 20
0.0
  9
$LIMMAX
 10
22.0
 20
17.0
  9
$VIEWCTR
 10
11.0
 20
8.5
  9
$VIEWSIZE
 40
17.0
  9
$CLAYER
  8
0
  9
$LTSCALE
 40
1.21
  9
$CELTYPE
  6
BYLAYER
  9
$DIMSCALE
 40
1.0
  9
$DIMASZ
 40
0.1875
  9
$DIMEXO
 40
0.0625
  9
$DIMDLI
 40
0.836
  9
$DIMEXE
 40
0.125
  9
$DIMCEN
 40
0.198
  9
$DIMLFAC
 40
1.0
  9
$DIMBLK
  1
_FILLED
  9
$DIMTXT
 40
0.1
  9
$DIMTOL
 70
0
  9
$DIMLIM
 70
0
  9
$DIMTFAC
 40
1.0
  9
$DIMGAP
 40
0.09
  9
$DIMDSEP
 70
46
  9
$AUNITS
 70
0
  9
$PDMODE
 70
3
  9
$PDSIZE
 40
0.3125
  9
$HANDSEED
  5
335
  9
$TILEMODE
 70
1
  9
$MEASUREMENT
 70
0
  9
$INSUNITS
 70
1
  0
ENDSEC
  0
SECTION
  2
CLASSES
  0
CLASS
  1
ACDBDICTIONARYWDFLT
  2
AcDbDictionaryWithDefault
  3
AutoCAD 2000
 90
0
 91
1
280
0
281
0
  0
CLASS
  1
ACDBPLACEHOLDER
  2
AcDbPlaceHolder
  3
AutoCAD 2000
 90
0
 91
1
280
0
281
0
  0
CLASS
  1
LAYOUT
  2
AcDbLayout
  3
AutoCAD 2000
 90
0
 91
0
280
0
281
0
  0
CLASS
  1
RASTERVARIABLES
  2
AcDbRasterVariables
  3
ISM
 90
0
 91
1
280
0
281
0
  0
CLASS
  1
IMAGEDEF
  2
AcDbRasterImageDef
  3
ISM
 90
0
 91
1
280
0
281
0
  0
CLASS
  1
IMAGEDEF_REACTOR
  2
AcDbRasterImageDefReactor
  3
ISM
 90
0
 91
1
280
0
281
0
  0
CLASS
  1
IMAGE
  2
AcDbRasterImage
  3
ISM
 90
127
 91
1
280
0
281
1
  0
CLASS
  1
TABLESTYLE
  2
AcDbTableStyle
  3
ObjectDBX Classes
 90
2047
 91
1
280
0
281
0
  0
CLASS
  1
ACAD_TABLE
  2
AcDbTable
  3
ObjectDBX Classes
 90
1025
 91
3
280
0
281
1
  0
ENDSEC
  0
SECTION
  2
TABLES
  0
TABLE
  2
VPORT
  5
8
100
AcDbSymbolTable
 70
2
  0
VPORT
  5
1F4
100
AcDbSymbolTableRecord
100
AcDbViewportTableRecord
  2
*ACTIVE
 70
0
 10
0.0
 20
0.0
 11
1.0
 21
1.0
 12
11.0
 22
8.5
 13
0.0
 23
0.0
 14
1.0
 24
1.0
 15
0.0
 25
0.0
 16
0.0
 26
0.0
 36
1.0
 17
0.0
 27
0.0
 37
0.0
 40
17.0
 41
1.2941176471
 42
50.0
 43
0.0
 44
0.0
 50
0.0
 51
0.0
 71
0
 72
100
 73
1
 74
1
 75
0
 76
0
 77
0
 78
0
  0
ENDTAB
  0
TABLE
  2
LTYPE
  5
5
100
AcDbSymbolTable
 70
6
  0
LTYPE
  5
14
100
AcDbSymbolTableRecord
100
AcDbLinetypeTableRecord
  2
BYBLOCK
 70
0
  3

 72
65
 73
0
 40
0.0
  0
LTYPE
  5
15
100
AcDbSymbolTableRecord
100
AcDbLinetypeTableRecord
  2
BYLAYER
 70
0
  3

 72
65
 73
0
 40
0.0
  0
LTYPE
  5
16
100
AcDbSymbolTableRecord
100
AcDbLinetypeTableRecord
  2
CONTINUOUS
 70
64
  3
Solid line
 72
65
 73
0
 40
0.0
  0
LTYPE
  5
1F5
100
AcDbSymbolTableRecord
100
AcDbLinetypeTableRecord
  2
CENTER
 70
64
  3
____ _ ____ _ ____ _ ____ _ ____ _ ____ _ ____
 72
65
 73
4
 40
0.6
 49
0.375
 74
0
 49
-0.075
 74
0
 49
0.075
 74
0
 49
-0.075
 74
0
  0
LTYPE
  5
1F6
100
AcDbSymbolTableRecord
100
AcDbLinetypeTableRecord
  2
HIDDEN
 70
64
  3
- - - - - - - - - - - - - - - - - - - -
 72
65
 73
2
 40
0.2
 49
0.1
 74
0
 49
-0.1
 74
0
  0
LTYPE
  5
1F7
100
AcDbSymbolTableRecord
100
AcDbLinetypeTableRecord
  2
PHANTOM
 70
64
  3
_____ _ _ _____ _ _ _____ _ _ _____
 72
65
 73
6
 40
0.8
 49
0.45
 74
0
 49
-0.05
 74
0
 49
0.1
 74
0
 49
-0.05
 74
0
 49
0.1
 74
0
 49
-0.05
 74
0
  0
LTYPE
  5
1F8
100
AcDbSymbolTableRecord
100
AcDbLinetypeTableRecord
  2
DOT
 70
64
  3
. . . . . . . . . . . . . . . . . . . .
 72
65
 73
2
 40
0.2
 49
0.1
 74
0
 49
-0.1
 74
0
  0
LTYPE
  5
1F9
100
AcDbSymbolTableRecord
100
AcDbLinetypeTableRecord
  2
DASHED
 70
64
  3
- - - - - - - - - - - - - - - - - - - -
 72
65
 73
2
 40
0.2
 49
0.1
 74
0
 49
-0.1
 74
0
  0
ENDTAB
  0
TABLE
  2
LAYER
  5
2
100
AcDbSymbolTable
 70
36
  0
LAYER
  5
10
100
AcDbSymbolTableRecord
100
AcDbLayerTableRecord
  2
0
 70
0
 62
7
  6
CONTINUOUS
370
-3
390
F
  0
LAYER
  5
1FA
100
AcDbSymbolTableRecord
100
AcDbLayerTableRecord
  2
DEFAULT_1
 70
0
 62
7
  6
CENTER
370
-3
390
F
  0
LAYER
  5
1FB
100
AcDbSymbolTableRecord
100
AcDbLayerTableRecord
  2
DEFAULT_2
 70
0
 62
8
  6
HIDDEN
370
-3
390
F
  0
LAYER
  5
1FC
100
AcDbSymbolTableRecord
100
AcDbLayerTableRecord
  2
DEFAULT_3
 70
0
 62
7
  6
PHANTOM
370
-3
390
F
  0
LAYER
  5
1FD
100
AcDbSymbolTableRecord
100
AcDbLayerTableRecord
  2
DATUM_PLANES
 70
0
 62
7
  6
CONTINUOUS
370
-3
390
F
  0
LAYER
  5
1FE
100
AcDbSymbolTableRecord
100
AcDbLayerTableRecord
  2
PORT_AREAS
 70
0
 62
7
  6
CONTINUOUS
370
-3
390
F
  0
LAYER
  5
1FF
100
AcDbSymbolTableRecord
100
AcDbLayerTableRecord
  2
SUNNBOMCOSMETIC
 70
0
 62
7
  6
CONTINUOUS
370
-3
390
F
  0
LAYER
  5
200
100
AcDbSymbolTableRecord
100
AcDbLayerTableRecord
  2
SUNNBOMSTAMPING
 70
0
 62
7
  6
CONTINUOUS
370
-3
390
F
  0
LAYER
  5
201
100
AcDbSymbolTableRecord
100
AcDbLayerTableRecord
  2
THREADS
 70
0
 62
7
  6
CONTINUOUS
370
-3
390
F
  0
ENDTAB
  0
TABLE
  2
STYLE
  5
3
100
AcDbSymbolTable
 70
1
  0
STYLE
  5
11
100
AcDbSymbolTableRecord
100
AcDbTextStyleTableRecord
  2
STANDARD
 70
0
 40
0.0
 41
0.8
 50
0.0
 71
0
 42
0.2
  3
txt
  4

  0
STYLE
  5
202
100
AcDbSymbolTableRecord
100
AcDbTextStyleTableRecord
  2
TEXTSTYLE_1
 70
0
 40
0.0
 41
0.8
 50
0.0
 71
0
 42
0.2
  3
gdt
  4

  0
ENDTAB
  0
TABLE
  2
VIEW
  5
6
100
AcDbSymbolTable
 70
0
  0
ENDTAB
  0
TABLE
  2
UCS
  5
7
100
AcDbSymbolTable
 70
0
  0
ENDTAB
  0
TABLE
  2
APPID
  5
9
100
AcDbSymbolTable
 70
1
  0
APPID
  5
203
100
AcDbSymbolTableRecord
100
AcDbRegAppTableRecord
  2
ACAD
 70
0
  0
ENDTAB
  0
TABLE
  2
BLOCK_RECORD
  5
1
100
AcDbSymbolTable
 70
0
  0
BLOCK_RECORD
  5
204
100
AcDbSymbolTableRecord
100
AcDbBlockTableRecord
  2
*Model_Space
  0
BLOCK_RECORD
  5
205
100
AcDbSymbolTableRecord
100
AcDbBlockTableRecord
  2
*Paper_Space
  0
BLOCK_RECORD
  5
206
100
AcDbSymbolTableRecord
100
AcDbBlockTableRecord
  2
SUN_FIRST_THIRD_ANGLE_BL0
  0
BLOCK_RECORD
  5
207
100
AcDbSymbolTableRecord
100
AcDbBlockTableRecord
  2
*T1
  0
BLOCK_RECORD
  5
208
100
AcDbSymbolTableRecord
100
AcDbBlockTableRecord
  2
*T2
  0
BLOCK_RECORD
  5
209
100
AcDbSymbolTableRecord
100
AcDbBlockTableRecord
  2
*T3
  0
ENDTAB
  0
TABLE
  2
DIMSTYLE
  5
A
100
AcDbSymbolTable
 70
1
100
AcDbDimStyleTable
 71
0
  0
DIMSTYLE
105
20A
100
AcDbSymbolTableRecord
100
AcDbDimStyleTableRecord
  2
STANDARD
 70
0
  3

  4

 40
1.0
 41
0.1875
 42
0.0625
 43
0.38
 44
0.125
 45
0.0
 46
0.0
 47
0.001
 48
0.001
140
0.1
141
0.09
142
0.0
143
25.4
144
1.0
145
0.0
146
1.0
147
0.09
 71
0.0
 72
0.0
 73
1
 74
1
 75
0
 76
0
 77
0
 78
4
170
0
171
2
172
0
173
0
174
0
175
0
176
0
177
0
178
0
270
2
271
3
272
3
273
2
274
2
275
0
280
0
281
0
282
0
283
1
284
4
285
0
286
0
287
3
288
0
340
11
278
46
  0
ENDTAB
  0
ENDSEC
  0
SECTION
  2
BLOCKS
  0
BLOCK
  5
20
100
AcDbEntity
  8
0
100
AcDbBlockBegin
  2
*Model_Space
 70
0
 10
0.0
 20
0.0
 30
0.0
  3
*Model_Space
  1

  0
ENDBLK
  5
21
100
AcDbEntity
  8
0
100
AcDbBlockEnd
  0
BLOCK
  5
1C
100
AcDbEntity
  8
0
100
AcDbBlockBegin
  2
*Paper_Space
 70
0
 10
0.0
 20
0.0
 30
0.0
  3
*Paper_Space
  1

  0
ENDBLK
  5
1D
100
AcDbEntity
  8
0
100
AcDbBlockEnd
  0
BLOCK
  5
20B
100
AcDbEntity
  8
0
100
AcDbBlockBegin
 62
2
  6
CONTINUOUS
  2
SUN_FIRST_THIRD_ANGLE_BL0
 70
64
 10
20.4816717061
 20
1.2289683772
  3
SUN_FIRST_THIRD_ANGLE_BL0
  1

  0
TEXT
  5
20C
100
AcDbEntity
  8
0
100
AcDbText
 62
2
  6
CONTINUOUS
 10
19.4750896608
 20
1.4136269581
  7
STANDARD
 40
0.08
  1
FIRST ANGLE
 41
0.8
 72
0
100
AcDbText
  0
TEXT
  5
20D
100
AcDbEntity
  8
0
100
AcDbText
 62
2
  6
CONTINUOUS
 10
20.7842537513
 20
1.4047600029
  7
STANDARD
 40
0.08
  1
THIRD ANGLE
 41
0.8
 72
0
100
AcDbText
  0
LINE
  5
20E
100
AcDbEntity
  8
0
100
AcDbLine
 62
7
  6
CONTINUOUS
 10
19.4767170086
 20
1.1727031207
 11
19.6334271527
 21
1.1717972817
  0
LINE
  5
20F
100
AcDbEntity
  8
0
100
AcDbLine
 62
7
  6
CONTINUOUS
 10
19.6596964832
 20
1.1717972817
 11
19.6950230232
 21
1.171593082
  0
LINE
  5
210
100
AcDbEntity
  8
0
100
AcDbLine
 62
7
  6
CONTINUOUS
 10
19.7194818561
 20
1.1708914427
 11
19.8852396156
 21
1.1699333054
  0
LINE
  5
211
100
AcDbEntity
  8
0
100
AcDbLine
 62
7
  6
CONTINUOUS
 10
19.4758111696
 20
1.2723454088
 11
19.88525039
 21
1.3511534004
  0
LINE
  5
212
100
AcDbEntity
  8
0
100
AcDbLine
 62
7
  6
CONTINUOUS
 10
19.88525039
 20
1.3511534004
 11
19.8831348489
 21
0.9851647912
  0
LINE
  5
213
100
AcDbEntity
  8
0
100
AcDbLine
 62
7
  6
CONTINUOUS
 10
19.8831348489
 20
0.9851647912
 11
19.4767170086
 21
1.0658141206
  0
LINE
  5
214
100
AcDbEntity
  8
0
100
AcDbLine
 62
7
  6
CONTINUOUS
 10
19.4767170086
 20
1.0658141206
 11
19.4779056764
 21
1.2714536432
  0
CIRCLE
  5
215
100
AcDbEntity
  8
0
100
AcDbCircle
 62
7
  6
CONTINUOUS
 10
20.2068232291
 20
1.1717972817
 40
0.175742101
  0
CIRCLE
  5
216
100
AcDbEntity
  8
0
100
AcDbCircle
 62
7
  6
CONTINUOUS
 10
20.2068232291
 20
1.1717972817
 40
0.1005522074
  0
LINE
  5
217
100
AcDbEntity
  8
0
100
AcDbLine
 62
7
  6
CONTINUOUS
 10
20.2077290681
 20
1.3756110529
 11
20.2071171714
 21
1.2379342989
  0
LINE
  5
218
100
AcDbEntity
  8
0
100
AcDbLine
 62
7
  6
CONTINUOUS
 10
20.2077290681
 20
1.2016899681
 11
20.2074674401
 21
1.1428236749
  0
LINE
  5
219
100
AcDbEntity
  8
0
100
AcDbLine
 62
7
  6
CONTINUOUS
 10
20.208634907
 20
1.101141841
 11
20.2080230104
 21
0.963465087
  0
LINE
  5
21A
100
AcDbEntity
  8
0
100
AcDbLine
 62
7
  6
CONTINUOUS
 10
20.0066328138
 20
1.1745147986
 11
20.1443095678
 21
1.1739029019
  0
LINE
  5
21B
100
AcDbEntity
  8
0
100
AcDbLine
 62
7
  6
CONTINUOUS
 10
20.1832714155
 20
1.1727031207
 11
20.238153505
 21
1.172335442
  0
LINE
  5
21C
100
AcDbEntity
  8
0
100
AcDbLine
 62
7
  6
CONTINUOUS
 10
20.2756669918
 20
1.1717972817
 11
20.407916871
 21
1.1712095044
  0
CIRCLE
  5
21D
100
AcDbEntity
  8
0
100
AcDbCircle
 62
7
  6
CONTINUOUS
 10
20.7509457401
 20
1.1693297793
 40
0.1722024983
  0
CIRCLE
  5
21E
100
AcDbEntity
  8
0
100
AcDbCircle
 62
7
  6
CONTINUOUS
 10
20.7509457401
 20
1.1693297793
 40
0.0985164967
  0
LINE
  5
21F
100
AcDbEntity
  8
0
100
AcDbLine
 62
7
  6
CONTINUOUS
 10
20.7169767782
 20
1.170462078
 11
20.7825395137
 21
1.1682766535
  0
LINE
  5
220
100
AcDbEntity
  8
0
100
AcDbLine
 62
7
  6
CONTINUOUS
 10
20.8177513651
 20
1.1693297793
 11
20.947965719
 21
1.1693297793
  0
LINE
  5
221
100
AcDbEntity
  8
0
100
AcDbLine
 62
7
  6
CONTINUOUS
 10
20.6875370113
 20
1.170462078
 11
20.5573226574
 21
1.170462078
  0
LINE
  5
222
100
AcDbEntity
  8
0
100
AcDbLine
 62
7
  6
CONTINUOUS
 10
20.7486811426
 20
1.1987695462
 11
20.7486811426
 21
1.1432869085
  0
LINE
  5
223
100
AcDbEntity
  8
0
100
AcDbLine
 62
7
  6
CONTINUOUS
 10
20.7498134414
 20
1.1059210505
 11
20.7498134414
 21
0.9757066966
  0
LINE
  5
224
100
AcDbEntity
  8
0
100
AcDbLine
 62
7
  6
CONTINUOUS
 10
20.7486811426
 20
1.2338708068
 11
20.7486811426
 21
1.3640851607
  0
LINE
  5
225
100
AcDbEntity
  8
0
100
AcDbLine
 62
7
  6
CONTINUOUS
 10
21.0702539817
 20
1.2701043662
 11
21.4790138229
 21
1.3448360823
  0
LINE
  5
226
100
AcDbEntity
  8
0
100
AcDbLine
 62
7
  6
CONTINUOUS
 10
21.4790138229
 20
1.3448360823
 11
21.4790138229
 21
0.9779712941
  0
LINE
  5
227
100
AcDbEntity
  8
0
100
AcDbLine
 62
7
  6
CONTINUOUS
 10
21.4790138229
 20
0.9779712941
 11
21.069121683
 21
1.0617614
  0
LINE
  5
228
100
AcDbEntity
  8
0
100
AcDbLine
 62
7
  6
CONTINUOUS
 10
21.0702539817
 20
1.2701043662
 11
21.069121683
 21
1.0617614
  0
LINE
  5
229
100
AcDbEntity
  8
0
100
AcDbLine
 62
7
  6
CONTINUOUS
 10
21.4790138229
 20
1.1693297793
 11
21.3159628059
 21
1.1693297793
  0
LINE
  5
22A
100
AcDbEntity
  8
0
100
AcDbLine
 62
7
  6
CONTINUOUS
 10
21.2876553377
 20
1.1693297793
 11
21.2502894796
 21
1.1693297793
  0
LINE
  5
22B
100
AcDbEntity
  8
0
100
AcDbLine
 62
7
  6
CONTINUOUS
 10
21.2208497126
 20
1.1659328831
 11
21.0713862804
 21
1.1659328831
  0
LINE
  5
22C
100
AcDbEntity
  8
0
100
AcDbLine
 62
7
  6
CONTINUOUS
 10
20.4796138713
 20
1.5284908897
 11
20.4766766948
 21
0.9294458646
  0
ENDBLK
  5
22D
100
AcDbEntity
  8
0
  6
BYBLOCK
 62
0
100
AcDbBlockEnd
  0
BLOCK
  5
22E
100
AcDbEntity
  8
0
100
AcDbBlockBegin
  2
*T1
 70
1
 10
0.0
 20
0.0
  3
*T1
  1

  0
LINE
  5
22F
100
AcDbEntity
  8
0
100
AcDbLine
 62
2
  6
CONTINUOUS
 10
9.275
 20
0.0
 11
-0.0
 21
0.0
  0
LINE
  5
230
100
AcDbEntity
  8
0
100
AcDbLine
 62
2
  6
CONTINUOUS
 10
9.275
 20
0.0
 11
9.275
 21
1.25
  0
LINE
  5
231
100
AcDbEntity
  8
0
100
AcDbLine
 62
2
  6
CONTINUOUS
 10
9.275
 20
0.625
 11
-0.0
 21
0.625
  0
LINE
  5
232
100
AcDbEntity
  8
0
100
AcDbLine
 62
2
  6
CONTINUOUS
 10
9.275
 20
1.25
 11
-0.0
 21
1.25
  0
LINE
  5
233
100
AcDbEntity
  8
0
100
AcDbLine
 62
2
  6
CONTINUOUS
 10
6.8
 20
0.0
 11
6.8
 21
1.25
  0
LINE
  5
234
100
AcDbEntity
  8
0
100
AcDbLine
 62
2
  6
CONTINUOUS
 10
6.4
 20
0.0
 11
6.4
 21
0.625
  0
LINE
  5
235
100
AcDbEntity
  8
0
100
AcDbLine
 62
2
  6
CONTINUOUS
 10
5.9
 20
0.0
 11
5.9
 21
0.625
  0
LINE
  5
236
100
AcDbEntity
  8
0
100
AcDbLine
 62
2
  6
CONTINUOUS
 10
5.2
 20
0.0
 11
5.2
 21
0.625
  0
LINE
  5
237
100
AcDbEntity
  8
0
100
AcDbLine
 62
2
  6
CONTINUOUS
 10
4.1
 20
0.0
 11
4.1
 21
1.25
  0
LINE
  5
238
100
AcDbEntity
  8
0
100
AcDbLine
 62
2
  6
CONTINUOUS
 10
-0.0
 20
0.0
 11
-0.0
 21
1.25
  0
MTEXT
  5
239
100
AcDbEntity
  8
0
100
AcDbMText
 62
2
  6
CONTINUOUS
  7
STANDARD
 71
2
 72
1
 10
6.6
 20
0.325
 30
0.0
 11
1.0
 21
0.0
 31
0.0
 44
0.9
  1
2
 40
0.125
 41
0.2
  0
MTEXT
  5
23A
100
AcDbEntity
  8
0
100
AcDbMText
 62
2
  6
CONTINUOUS
  7
STANDARD
 71
2
 72
1
 10
6.15
 20
0.325
 30
0.0
 11
1.0
 21
0.0
 31
0.0
 44
0.9
  1
C
 40
0.125
 41
0.2
  0
MTEXT
  5
23B
100
AcDbEntity
  8
0
100
AcDbMText
 62
2
  6
CONTINUOUS
  7
STANDARD
 71
2
 72
1
 10
5.55
 20
0.325
 30
0.0
 11
1.0
 21
0.0
 31
0.0
 44
0.9
  1
2.000
 40
0.125
 41
1.0
  0
MTEXT
  5
23C
100
AcDbEntity
  8
0
100
AcDbMText
 62
2
  6
CONTINUOUS
  7
STANDARD
 71
2
 72
1
 10
4.65
 20
0.325
 30
0.0
 11
1.0
 21
0.0
 31
0.0
 44
0.9
  1
Aug-21-19
 40
0.125
 41
1.8
  0
MTEXT
  5
23D
100
AcDbEntity
  8
0
100
AcDbMText
 62
2
  6
CONTINUOUS
  7
STANDARD
 71
2
 72
1
 10
2.05
 20
0.4625
 30
0.0
 11
1.0
 21
0.0
 31
0.0
 44
0.9
  1
T-13A Line mount\PNinety degree
 40
0.125
 41
3.2
  0
MTEXT
  5
23E
100
AcDbEntity
  8
0
100
AcDbMText
 62
2
  6
CONTINUOUS
  7
STANDARD
 71
1
 72
1
 10
6.45
 20
0.5625
 30
0.0
 11
1.0
 21
0.0
 31
0.0
 44
0.9
  1
SHEET
 40
0.06
 41
0.48
  0
MTEXT
  5
23F
100
AcDbEntity
  8
0
100
AcDbMText
 62
2
  6
CONTINUOUS
  7
STANDARD
 71
1
 72
1
 10
5.95
 20
0.5625
 30
0.0
 11
1.0
 21
0.0
 31
0.0
 44
0.9
  1
DWG SIZE
 40
0.06
 41
0.768
  0
MTEXT
  5
240
100
AcDbEntity
  8
0
100
AcDbMText
 62
2
  6
CONTINUOUS
  7
STANDARD
 71
1
 72
1
 10
5.25
 20
0.5625
 30
0.0
 11
1.0
 21
0.0
 31
0.0
 44
0.9
  1
SCALE
 40
0.06
 41
0.48
  0
MTEXT
  5
241
100
AcDbEntity
  8
0
100
AcDbMText
 62
2
  6
CONTINUOUS
  7
STANDARD
 71
1
 72
1
 10
4.15
 20
0.5625
 30
0.0
 11
1.0
 21
0.0
 31
0.0
 44
0.9
  1
DATE
 40
0.06
 41
0.384
  0
MTEXT
  5
242
100
AcDbEntity
  8
0
100
AcDbMText
 62
2
  6
CONTINUOUS
  7
STANDARD
 71
1
 72
1
 10
0.05
 20
0.5625
 30
0.0
 11
1.0
 21
0.0
 31
0.0
 44
0.9
  1
DESCRIPTION
 40
0.06
 41
1.056
  0
MTEXT
  5
243
100
AcDbEntity
  8
0
100
AcDbMText
 62
2
  6
CONTINUOUS
  7
STANDARD
 71
2
 72
1
 10
5.45
 20
1.0375
 30
0.0
 11
1.0
 21
0.0
 31
0.0
 44
0.9
  1
ALL DIMENSIONS IN INCH\PVIEWS ARE THIRD ANGLE
 40
0.12
 41
4.224
  0
MTEXT
  5
244
100
AcDbEntity
  8
0
100
AcDbMText
 62
2
  6
CONTINUOUS
  7
STANDARD
 71
2
 72
1
 10
2.05
 20
0.95
 30
0.0
 11
1.0
 21
0.0
 31
0.0
 44
0.9
  1
GAK
 40
0.125
 41
0.6
  0
MTEXT
  5
245
100
AcDbEntity
  8
0
100
AcDbMText
 62
2
  6
CONTINUOUS
  7
STANDARD
 71
1
 72
1
 10
0.05
 20
1.1875
 30
0.0
 11
1.0
 21
0.0
 31
0.0
 44
0.9
  1
MODEL
 40
0.06
 41
0.48
  0
ENDBLK
  5
246
100
AcDbEntity
  8
0
  6
BYBLOCK
 62
0
100
AcDbBlockEnd
  0
BLOCK
  5
247
100
AcDbEntity
  8
0
100
AcDbBlockBegin
  2
*T2
 70
1
 10
0.0
 20
0.0
  3
*T2
  1

  0
LINE
  5
248
100
AcDbEntity
  8
0
100
AcDbLine
 62
2
  6
CONTINUOUS
 10
0.0
 20
0.0
 11
9.055
 21
0.0
  0
LINE
  5
249
100
AcDbEntity
  8
0
100
AcDbLine
 62
2
  6
CONTINUOUS
 10
0.0
 20
0.0
 11
0.0
 21
-2.594
  0
LINE
  5
24A
100
AcDbEntity
  8
0
100
AcDbLine
 62
2
  6
CONTINUOUS
 10
0.0
 20
-0.344
 11
9.055
 21
-0.344
  0
LINE
  5
24B
100
AcDbEntity
  8
0
100
AcDbLine
 62
2
  6
CONTINUOUS
 10
0.0
 20
-0.594
 11
9.055
 21
-0.594
  0
LINE
  5
24C
100
AcDbEntity
  8
0
100
AcDbLine
 62
2
  6
CONTINUOUS
 10
0.0
 20
-0.844
 11
9.055
 21
-0.844
  0
LINE
  5
24D
100
AcDbEntity
  8
0
100
AcDbLine
 62
2
  6
CONTINUOUS
 10
0.0
 20
-1.094
 11
9.055
 21
-1.094
  0
LINE
  5
24E
100
AcDbEntity
  8
0
100
AcDbLine
 62
2
  6
CONTINUOUS
 10
0.0
 20
-1.344
 11
9.055
 21
-1.344
  0
LINE
  5
24F
100
AcDbEntity
  8
0
100
AcDbLine
 62
2
  6
CONTINUOUS
 10
0.0
 20
-1.594
 11
9.055
 21
-1.594
  0
LINE
  5
250
100
AcDbEntity
  8
0
100
AcDbLine
 62
2
  6
CONTINUOUS
 10
0.0
 20
-1.844
 11
9.055
 21
-1.844
  0
LINE
  5
251
100
AcDbEntity
  8
0
100
AcDbLine
 62
2
  6
CONTINUOUS
 10
0.0
 20
-2.094
 11
9.055
 21
-2.094
  0
LINE
  5
252
100
AcDbEntity
  8
0
100
AcDbLine
 62
2
  6
CONTINUOUS
 10
0.0
 20
-2.344
 11
9.055
 21
-2.344
  0
LINE
  5
253
100
AcDbEntity
  8
0
100
AcDbLine
 62
2
  6
CONTINUOUS
 10
0.0
 20
-2.594
 11
9.055
 21
-2.594
  0
LINE
  5
254
100
AcDbEntity
  8
0
100
AcDbLine
 62
2
  6
CONTINUOUS
 10
3.055
 20
0.0
 11
3.055
 21
-2.594
  0
LINE
  5
255
100
AcDbEntity
  8
0
100
AcDbLine
 62
2
  6
CONTINUOUS
 10
9.055
 20
0.0
 11
9.055
 21
-2.594
  0
MTEXT
  5
256
100
AcDbEntity
  8
0
100
AcDbMText
 62
2
  6
CONTINUOUS
  7
STANDARD
 71
2
 72
1
 10
1.5275
 20
-0.0995
 30
0.0
 11
1.0
 21
0.0
 31
0.0
 44
0.9
  1
Technical Data
 40
0.145
 41
3.248
  0
MTEXT
  5
257
100
AcDbEntity
  8
0
100
AcDbMText
 62
2
  6
CONTINUOUS
  7
STANDARD
 71
2
 72
1
 10
4.555
 20
-0.0995
 30
0.0
 11
1.0
 21
0.0
 31
0.0
 44
0.9
  1
U.S. Units
 40
0.145
 41
2.32
  0
MTEXT
  5
258
100
AcDbEntity
  8
0
100
AcDbMText
 62
2
  6
CONTINUOUS
  7
STANDARD
 71
2
 72
1
 10
7.555
 20
-0.0995
 30
0.0
 11
1.0
 21
0.0
 31
0.0
 44
0.9
  1
Metric Units
 40
0.145
 41
2.784
  0
MTEXT
  5
259
100
AcDbEntity
  8
0
100
AcDbMText
 62
2
  6
CONTINUOUS
  7
STANDARD
 71
2
 72
1
 10
1.5275
 20
-0.4065
 30
0.0
 11
1.0
 21
0.0
 31
0.0
 44
0.9
  1
Cavity
 40
0.125
 41
1.2
  0
MTEXT
  5
25A
100
AcDbEntity
  8
0
100
AcDbMText
 62
2
  6
CONTINUOUS
  7
STANDARD
 71
2
 72
1
 10
6.055
 20
-0.4065
 30
0.0
 11
1.0
 21
0.0
 31
0.0
 44
0.9
  1
T-13A
 40
0.125
 41
1.0
  0
MTEXT
  5
25B
100
AcDbEntity
  8
0
100
AcDbMText
 62
2
  6
CONTINUOUS
  7
STANDARD
 71
2
 72
1
 10
1.5275
 20
-0.6565
 30
0.0
 11
1.0
 21
0.0
 31
0.0
 44
0.9
  1
Body Features
 40
0.125
 41
2.6
  0
MTEXT
  5
25C
100
AcDbEntity
  8
0
100
AcDbMText
 62
2
  6
CONTINUOUS
  7
STANDARD
 71
2
 72
1
 10
6.055
 20
-0.6565
 30
0.0
 11
1.0
 21
0.0
 31
0.0
 44
0.9
  1
Ninety degree
 40
0.125
 41
2.6
  0
MTEXT
  5
25D
100
AcDbEntity
  8
0
100
AcDbMText
 62
2
  6
CONTINUOUS
  7
STANDARD
 71
2
 72
1
 10
1.5275
 20
-0.9065
 30
0.0
 11
1.0
 21
0.0
 31
0.0
 44
0.9
  1
Body Type
 40
0.125
 41
1.8
  0
MTEXT
  5
25E
100
AcDbEntity
  8
0
100
AcDbMText
 62
2
  6
CONTINUOUS
  7
STANDARD
 71
2
 72
1
 10
6.055
 20
-0.9065
 30
0.0
 11
1.0
 21
0.0
 31
0.0
 44
0.9
  1
Line mount
 40
0.125
 41
2.0
  0
MTEXT
  5
25F
100
AcDbEntity
  8
0
100
AcDbMText
 62
2
  6
CONTINUOUS
  7
STANDARD
 71
2
 72
1
 10
1.5275
 20
-1.1565
 30
0.0
 11
1.0
 21
0.0
 31
0.0
 44
0.9
  1
Interface
 40
0.125
 41
1.8
  0
MTEXT
  5
260
100
AcDbEntity
  8
0
100
AcDbMText
 62
2
  6
CONTINUOUS
  7
STANDARD
 71
2
 72
1
 10
6.055
 20
-1.1565
 30
0.0
 11
1.0
 21
0.0
 31
0.0
 44
0.9
  1
None
 40
0.125
 41
0.8
  0
MTEXT
  5
261
100
AcDbEntity
  8
0
100
AcDbMText
 62
2
  6
CONTINUOUS
  7
STANDARD
 71
2
 72
1
 10
1.5275
 20
-1.4065
 30
0.0
 11
1.0
 21
0.0
 31
0.0
 44
0.9
  1
Open Cavity Quantity
 40
0.125
 41
4.0
  0
MTEXT
  5
262
100
AcDbEntity
  8
0
100
AcDbMText
 62
2
  6
CONTINUOUS
  7
STANDARD
 71
2
 72
1
 10
6.055
 20
-1.4065
 30
0.0
 11
1.0
 21
0.0
 31
0.0
 44
0.9
  1
1
 40
0.125
 41
0.2
  0
MTEXT
  5
263
100
AcDbEntity
  8
0
100
AcDbMText
 62
2
  6
CONTINUOUS
  7
STANDARD
 71
2
 72
1
 10
1.5275
 20
-1.6565
 30
0.0
 11
1.0
 21
0.0
 31
0.0
 44
0.9
  1
Weight
 40
0.125
 41
1.2
  0
MTEXT
  5
264
100
AcDbEntity
  8
0
100
AcDbMText
 62
2
  6
CONTINUOUS
  7
STANDARD
 71
2
 72
1
 10
4.555
 20
-1.6565
 30
0.0
 11
1.0
 21
0.0
 31
0.0
 44
0.9
  1
0.798 lb.
 40
0.125
 41
1.8
  0
MTEXT
  5
265
100
AcDbEntity
  8
0
100
AcDbMText
 62
2
  6
CONTINUOUS
  7
STANDARD
 71
2
 72
1
 10
7.555
 20
-1.6565
 30
0.0
 11
1.0
 21
0.0
 31
0.0
 44
0.9
  1
0,362 kg.
 40
0.125
 41
1.8
  0
MTEXT
  5
266
100
AcDbEntity
  8
0
100
AcDbMText
 62
2
  6
CONTINUOUS
  7
STANDARD
 71
2
 72
1
 10
1.5275
 20
-1.9065
 30
0.0
 11
1.0
 21
0.0
 31
0.0
 44
0.9
  1
Mounting Hole Diameter
 40
0.125
 41
4.4
  0
MTEXT
  5
267
100
AcDbEntity
  8
0
100
AcDbMText
 62
2
  6
CONTINUOUS
  7
STANDARD
 71
2
 72
1
 10
4.555
 20
-1.9065
 30
0.0
 11
1.0
 21
0.0
 31
0.0
 44
0.9
  1
.34 in.
 40
0.125
 41
1.4
  0
MTEXT
  5
268
100
AcDbEntity
  8
0
100
AcDbMText
 62
2
  6
CONTINUOUS
  7
STANDARD
 71
2
 72
1
 10
7.555
 20
-1.9065
 30
0.0
 11
1.0
 21
0.0
 31
0.0
 44
0.9
  1
8.6 mm
 40
0.125
 41
1.2
  0
MTEXT
  5
269
100
AcDbEntity
  8
0
100
AcDbMText
 62
2
  6
CONTINUOUS
  7
STANDARD
 71
2
 72
1
 10
1.5275
 20
-2.1565
 30
0.0
 11
1.0
 21
0.0
 31
0.0
 44
0.9
  1
Mounting Hole Depth
 40
0.125
 41
3.8
  0
MTEXT
  5
26A
100
AcDbEntity
  8
0
100
AcDbMText
 62
2
  6
CONTINUOUS
  7
STANDARD
 71
2
 72
1
 10
6.055
 20
-2.1565
 30
0.0
 11
1.0
 21
0.0
 31
0.0
 44
0.9
  1
Through
 40
0.125
 41
1.4
  0
MTEXT
  5
26B
100
AcDbEntity
  8
0
100
AcDbMText
 62
2
  6
CONTINUOUS
  7
STANDARD
 71
2
 72
1
 10
1.5275
 20
-2.4065
 30
0.0
 11
1.0
 21
0.0
 31
0.0
 44
0.9
  1
Mounting Hole Quantity
 40
0.125
 41
4.4
  0
MTEXT
  5
26C
100
AcDbEntity
  8
0
100
AcDbMText
 62
2
  6
CONTINUOUS
  7
STANDARD
 71
2
 72
1
 10
6.055
 20
-2.4065
 30
0.0
 11
1.0
 21
0.0
 31
0.0
 44
0.9
  1
1
 40
0.125
 41
0.2
  0
ENDBLK
  5
26D
100
AcDbEntity
  8
0
  6
BYBLOCK
 62
0
100
AcDbBlockEnd
  0
BLOCK
  5
26E
100
AcDbEntity
  8
0
100
AcDbBlockBegin
  2
*T3
 70
1
 10
0.0
 20
0.0
  3
*T3
  1

  0
LINE
  5
26F
100
AcDbEntity
  8
0
100
AcDbLine
 62
2
  6
CONTINUOUS
 10
0.0
 20
0.0
 11
4.6
 21
0.0
  0
LINE
  5
270
100
AcDbEntity
  8
0
100
AcDbLine
 62
2
  6
CONTINUOUS
 10
0.0
 20
0.0
 11
0.0
 21
-0.93775
  0
LINE
  5
271
100
AcDbEntity
  8
0
100
AcDbLine
 62
2
  6
CONTINUOUS
 10
0.0
 20
-0.34375
 11
4.6
 21
-0.34375
  0
LINE
  5
272
100
AcDbEntity
  8
0
100
AcDbLine
 62
2
  6
CONTINUOUS
 10
0.0
 20
-0.68775
 11
4.6
 21
-0.68775
  0
LINE
  5
273
100
AcDbEntity
  8
0
100
AcDbLine
 62
2
  6
CONTINUOUS
 10
0.0
 20
-0.93775
 11
4.6
 21
-0.93775
  0
LINE
  5
274
100
AcDbEntity
  8
0
100
AcDbLine
 62
2
  6
CONTINUOUS
 10
1.3
 20
-0.34375
 11
1.3
 21
-0.93775
  0
LINE
  5
275
100
AcDbEntity
  8
0
100
AcDbLine
 62
2
  6
CONTINUOUS
 10
3.3
 20
-0.34375
 11
3.3
 21
-0.93775
  0
LINE
  5
276
100
AcDbEntity
  8
0
100
AcDbLine
 62
2
  6
CONTINUOUS
 10
4.6
 20
0.0
 11
4.6
 21
-0.93775
  0
MTEXT
  5
277
100
AcDbEntity
  8
0
100
AcDbMText
 62
2
  6
CONTINUOUS
  7
STANDARD
 71
2
 72
1
 10
2.3
 20
-0.099375
 30
0.0
 11
1.0
 21
0.0
 31
0.0
 44
0.9
  1
Port Headings
 40
0.145
 41
3.016
  0
MTEXT
  5
278
100
AcDbEntity
  8
0
100
AcDbMText
 62
2
  6
CONTINUOUS
  7
STANDARD
 71
2
 72
1
 10
0.65
 20
-0.44325
 30
0.0
 11
1.0
 21
0.0
 31
0.0
 44
0.9
  1
Product
 40
0.145
 41
1.624
  0
MTEXT
  5
279
100
AcDbEntity
  8
0
100
AcDbMText
 62
2
  6
CONTINUOUS
  7
STANDARD
 71
2
 72
1
 10
2.3
 20
-0.44325
 30
0.0
 11
1.0
 21
0.0
 31
0.0
 44
0.9
  1
Port
 40
0.145
 41
0.928
  0
MTEXT
  5
27A
100
AcDbEntity
  8
0
100
AcDbMText
 62
2
  6
CONTINUOUS
  7
STANDARD
 71
2
 72
1
 10
3.95
 20
-0.44325
 30
0.0
 11
1.0
 21
0.0
 31
0.0
 44
0.9
  1
Size
 40
0.145
 41
0.928
  0
MTEXT
  5
27B
100
AcDbEntity
  8
0
100
AcDbMText
 62
2
  6
CONTINUOUS
  7
STANDARD
 71
2
 72
1
 10
0.65
 20
-0.75025
 30
0.0
 11
1.0
 21
0.0
 31
0.0
 44
0.9
  1
GAK
 40
0.125
 41
0.6
  0
MTEXT
  5
27C
100
AcDbEntity
  8
0
100
AcDbMText
 62
2
  6
CONTINUOUS
  7
STANDARD
 71
2
 72
1
 10
2.3
 20
-0.75025
 30
0.0
 11
1.0
 21
0.0
 31
0.0
 44
0.9
  1
All Ports
 40
0.125
 41
1.8
  0
MTEXT
  5
27D
100
AcDbEntity
  8
0
100
AcDbMText
 62
2
  6
CONTINUOUS
  7
STANDARD
 71
2
 72
1
 10
3.95
 20
-0.75025
 30
0.0
 11
1.0
 21
0.0
 31
0.0
 44
0.9
  1
SAE 10
 40
0.125
 41
1.2
  0
ENDBLK
  5
27E
100
AcDbEntity
  8
0
  6
BYBLOCK
 62
0
100
AcDbBlockEnd
  0
ENDSEC
  0
SECTION
  2
ENTITIES
  0
IMAGE
  5
27F
100
AcDbEntity
  8
0
100
AcDbRasterImage
 62
7
  6
CONTINUOUS
 10
19.2297077316
 20
0.3094318264
 30
0.0
 11
0.0066666667
 21
0.0
 31
0.0
 12
0.0
 22
0.0066666667
 32
0.0
 13
369.0
 23
92.0
340
       332
 70
9
280
0
281
50
282
50
283
0
360
       32C
 71
1
 91
2
 14
-0.5
 24
-0.5
 14
368.5
 24
91.5
  0
INSERT
  5
280
100
AcDbEntity
  8
0
100
AcDbBlockReference
 62
2
  6
CONTINUOUS
  2
SUN_FIRST_THIRD_ANGLE_BL0
 10
20.4816717061
 20
1.2289683772
  0
ACAD_TABLE
  5
281
100
AcDbEntity
  8
0
 62
2
  6
CONTINUOUS
100
AcDbBlockReference
  2
*T1
 10
12.42375
 20
0.30125
 30
0.0
100
AcDbTable
342
       334
343
207
 11
1.0
 21
0.0
 31
0.0
 90
6
 91
4
 92
6
 93
20
 94
0
 95
0
 96
0
 70
1
 41
0.0
141
0.525
141
0.1
141
0.525
141
0.1
142
4.1
142
1.1
142
0.7
142
0.5
142
0.4
142
2.475
171
1
172
0
173
0
174
0
175
1
176
1
 91
33
178
0
145
0.0
301
CELL_VALUE
 90
4
  1
T-13A Line mount\PNinety degree
304
ACVALUE_END
170
2
140
0.125
171
1
172
0
173
0
174
0
175
1
176
1
 91
33
178
0
145
0.0
301
CELL_VALUE
 90
4
  1
Aug-21-19
304
ACVALUE_END
170
5
140
0.125
171
1
172
0
173
0
174
0
175
1
176
1
 91
33
178
0
145
0.0
301
CELL_VALUE
 90
4
  1
2.000
304
ACVALUE_END
170
5
140
0.125
171
1
172
0
173
0
174
0
175
1
176
1
 91
33
178
0
145
0.0
301
CELL_VALUE
 90
4
  1
C
304
ACVALUE_END
170
5
140
0.125
171
1
172
0
173
0
174
0
175
1
176
1
 91
33
178
0
145
0.0
301
CELL_VALUE
 90
4
  1
2
304
ACVALUE_END
170
5
140
0.125
171
1
172
0
173
0
174
0
175
1
176
1
 91
33
178
0
145
0.0
301
CELL_VALUE
 90
4
  1
 
304
ACVALUE_END
170
1
140
0.125
171
1
172
0
173
0
174
0
175
1
176
1
 91
33
178
0
145
0.0
301
CELL_VALUE
 90
4
  1
DESCRIPTION
304
ACVALUE_END
170
1
140
0.06
171
1
172
0
173
0
174
0
175
1
176
1
 91
33
178
0
145
0.0
301
CELL_VALUE
 90
4
  1
DATE
304
ACVALUE_END
170
1
140
0.06
171
1
172
0
173
0
174
0
175
1
176
1
 91
33
178
0
145
0.0
301
CELL_VALUE
 90
4
  1
SCALE
304
ACVALUE_END
170
1
140
0.06
171
1
172
0
173
0
174
0
175
1
176
1
 91
33
178
0
145
0.0
301
CELL_VALUE
 90
4
  1
DWG SIZE
304
ACVALUE_END
170
1
140
0.06
171
1
172
0
173
0
174
0
175
1
176
1
 91
33
178
0
145
0.0
301
CELL_VALUE
 90
4
  1
SHEET
304
ACVALUE_END
170
1
140
0.06
171
1
172
0
173
0
174
0
175
1
176
1
 91
33
178
0
145
0.0
301
CELL_VALUE
 90
4
  1
 
304
ACVALUE_END
170
1
140
0.125
171
1
172
0
173
0
174
0
175
1
176
1
 91
33
178
0
145
0.0
301
CELL_VALUE
 90
4
  1
GAK
304
ACVALUE_END
170
5
140
0.125
171
1
172
0
173
0
174
0
175
4
176
1
 91
33
178
0
145
0.0
301
CELL_VALUE
 90
4
  1
ALL DIMENSIONS IN INCH\PVIEWS ARE THIRD ANGLE
304
ACVALUE_END
170
5
140
0.12
171
1
172
0
173
1
174
0
175
1
176
1
 91
1
178
0
145
0.0
170
1
171
1
172
0
173
1
174
0
175
1
176
1
 91
1
178
0
145
0.0
170
1
171
1
172
0
173
1
174
0
175
1
176
1
 91
1
178
0
145
0.0
170
5
171
1
172
0
173
0
174
0
175
1
176
1
 91
33
178
0
145
0.0
301
CELL_VALUE
 90
4
  1
 
304
ACVALUE_END
170
1
140
0.125
171
1
172
0
173
0
174
0
175
1
176
1
 91
33
178
0
145
0.0
301
CELL_VALUE
 90
4
  1
MODEL
304
ACVALUE_END
170
1
140
0.06
171
1
172
0
173
0
174
0
175
1
176
1
 91
33
178
0
145
0.0
301
CELL_VALUE
 90
4
  1
 
304
ACVALUE_END
170
1
140
0.125
171
1
172
0
173
0
174
0
175
1
176
1
 91
33
178
0
145
0.0
301
CELL_VALUE
 90
4
  1
 
304
ACVALUE_END
170
1
140
0.125
171
1
172
0
173
0
174
0
175
1
176
1
 91
33
178
0
145
0.0
301
CELL_VALUE
 90
4
  1
 
304
ACVALUE_END
170
1
140
0.125
171
1
172
0
173
0
174
0
175
1
176
1
 91
33
178
0
145
0.0
301
CELL_VALUE
 90
4
  1
 
304
ACVALUE_END
170
1
140
0.125
171
1
172
0
173
0
174
0
175
1
176
1
 91
33
178
0
145
0.0
301
CELL_VALUE
 90
4
  1
 
304
ACVALUE_END
170
1
140
0.125
  0
ACAD_TABLE
  5
282
100
AcDbEntity
  8
0
 62
2
  6
CONTINUOUS
100
AcDbBlockReference
  2
*T2
 10
12.4237499994
 20
16.47875
 30
0.0
100
AcDbTable
342
       333
343
208
 11
1.0
 21
0.0
 31
0.0
 90
22
 91
10
 92
3
 93
16
 94
0
 95
0
 96
0
 41
0.028
141
0.344
141
0.25
141
0.25
141
0.25
141
0.25
141
0.25
141
0.25
141
0.25
141
0.25
141
0.25
142
3.055
142
3.0
142
3.0
171
1
172
0
173
0
174
0
175
1
176
1
 91
33
178
0
145
0.0
301
CELL_VALUE
 90
4
  1
Technical Data
304
ACVALUE_END
170
5
140
0.145
171
1
172
0
173
0
174
0
175
1
176
1
 91
33
178
0
145
0.0
301
CELL_VALUE
 90
4
  1
U.S. Units
304
ACVALUE_END
170
5
140
0.145
171
1
172
0
173
0
174
0
175
1
176
1
 91
33
178
0
145
0.0
301
CELL_VALUE
 90
4
  1
Metric Units
304
ACVALUE_END
170
5
140
0.145
171
1
172
0
173
0
174
0
175
1
176
1
 91
33
178
0
145
0.0
301
CELL_VALUE
 90
4
  1
Cavity
304
ACVALUE_END
170
5
140
0.125
171
1
172
0
173
0
174
0
175
2
176
1
 91
33
178
0
145
0.0
301
CELL_VALUE
 90
4
  1
T-13A
304
ACVALUE_END
170
5
140
0.125
171
1
172
0
173
1
174
0
175
1
176
1
 91
1
178
0
145
0.0
170
1
171
1
172
0
173
0
174
0
175
1
176
1
 91
33
178
0
145
0.0
301
CELL_VALUE
 90
4
  1
Body Features
304
ACVALUE_END
170
5
140
0.125
171
1
172
0
173
0
174
0
175
2
176
1
 91
33
178
0
145
0.0
301
CELL_VALUE
 90
4
  1
Ninety degree
304
ACVALUE_END
170
5
140
0.125
171
1
172
0
173
1
174
0
175
1
176
1
 91
1
178
0
145
0.0
170
1
171
1
172
0
173
0
174
0
175
1
176
1
 91
33
178
0
145
0.0
301
CELL_VALUE
 90
4
  1
Body Type
304
ACVALUE_END
170
5
140
0.125
171
1
172
0
173
0
174
0
175
2
176
1
 91
33
178
0
145
0.0
301
CELL_VALUE
 90
4
  1
Line mount
304
ACVALUE_END
170
5
140
0.125
171
1
172
0
173
1
174
0
175
1
176
1
 91
1
178
0
145
0.0
170
1
171
1
172
0
173
0
174
0
175
1
176
1
 91
33
178
0
145
0.0
301
CELL_VALUE
 90
4
  1
Interface
304
ACVALUE_END
170
5
140
0.125
171
1
172
0
173
0
174
0
175
2
176
1
 91
33
178
0
145
0.0
301
CELL_VALUE
 90
4
  1
None
304
ACVALUE_END
170
5
140
0.125
171
1
172
0
173
1
174
0
175
1
176
1
 91
1
178
0
145
0.0
170
1
171
1
172
0
173
0
174
0
175
1
176
1
 91
33
178
0
145
0.0
301
CELL_VALUE
 90
4
  1
Open Cavity Quantity
304
ACVALUE_END
170
5
140
0.125
171
1
172
0
173
0
174
0
175
2
176
1
 91
33
178
0
145
0.0
301
CELL_VALUE
 90
4
  1
1
304
ACVALUE_END
170
5
140
0.125
171
1
172
0
173
1
174
0
175
1
176
1
 91
1
178
0
145
0.0
170
1
171
1
172
0
173
0
174
0
175
1
176
1
 91
33
178
0
145
0.0
301
CELL_VALUE
 90
4
  1
Weight
304
ACVALUE_END
170
5
140
0.125
171
1
172
0
173
0
174
0
175
1
176
1
 91
33
178
0
145
0.0
301
CELL_VALUE
 90
4
  1
0.798 lb.
304
ACVALUE_END
170
5
140
0.125
171
1
172
0
173
0
174
0
175
1
176
1
 91
33
178
0
145
0.0
301
CELL_VALUE
 90
4
  1
0,362 kg.
304
ACVALUE_END
170
5
140
0.125
171
1
172
0
173
0
174
0
175
1
176
1
 91
33
178
0
145
0.0
301
CELL_VALUE
 90
4
  1
Mounting Hole Diameter
304
ACVALUE_END
170
5
140
0.125
171
1
172
0
173
0
174
0
175
1
176
1
 91
33
178
0
145
0.0
301
CELL_VALUE
 90
4
  1
.34 in.
304
ACVALUE_END
170
5
140
0.125
171
1
172
0
173
0
174
0
175
1
176
1
 91
33
178
0
145
0.0
301
CELL_VALUE
 90
4
  1
8.6 mm
304
ACVALUE_END
170
5
140
0.125
171
1
172
0
173
0
174
0
175
1
176
1
 91
33
178
0
145
0.0
301
CELL_VALUE
 90
4
  1
Mounting Hole Depth
304
ACVALUE_END
170
5
140
0.125
171
1
172
0
173
0
174
0
175
2
176
1
 91
33
178
0
145
0.0
301
CELL_VALUE
 90
4
  1
Through
304
ACVALUE_END
170
5
140
0.125
171
1
172
0
173
1
174
0
175
1
176
1
 91
1
178
0
145
0.0
170
1
171
1
172
0
173
0
174
0
175
1
176
1
 91
33
178
0
145
0.0
301
CELL_VALUE
 90
4
  1
Mounting Hole Quantity
304
ACVALUE_END
170
5
140
0.125
171
1
172
0
173
0
174
0
175
2
176
1
 91
33
178
0
145
0.0
301
CELL_VALUE
 90
4
  1
1
304
ACVALUE_END
170
5
140
0.125
171
1
172
0
173
1
174
0
175
1
176
1
 91
1
178
0
145
0.0
170
1
  0
ACAD_TABLE
  5
283
100
AcDbEntity
  8
0
 62
2
  6
CONTINUOUS
100
AcDbBlockReference
  2
*T3
 10
0.52125
 20
1.459
 30
0.0
100
AcDbTable
342
       333
343
209
 11
1.0
 21
0.0
 31
0.0
 90
22
 91
3
 92
3
 93
16
 94
0
 95
0
 96
0
 41
0.05
141
0.34375
141
0.344
141
0.25
142
1.3
142
2.0
142
1.3
171
1
172
0
173
0
174
0
175
3
176
1
 91
33
178
0
145
0.0
301
CELL_VALUE
 90
4
  1
Port Headings
304
ACVALUE_END
170
5
140
0.145
171
1
172
0
173
1
174
0
175
1
176
1
 91
1
178
0
145
0.0
170
1
171
1
172
0
173
1
174
0
175
1
176
1
 91
1
178
0
145
0.0
170
1
171
1
172
0
173
0
174
0
175
1
176
1
 91
33
178
0
145
0.0
301
CELL_VALUE
 90
4
  1
Product
304
ACVALUE_END
170
5
140
0.145
171
1
172
0
173
0
174
0
175
1
176
1
 91
33
178
0
145
0.0
301
CELL_VALUE
 90
4
  1
Port
304
ACVALUE_END
170
5
140
0.145
171
1
172
0
173
0
174
0
175
1
176
1
 91
33
178
0
145
0.0
301
CELL_VALUE
 90
4
  1
Size
304
ACVALUE_END
170
5
140
0.145
171
1
172
0
173
0
174
0
175
1
176
1
 91
33
178
0
145
0.0
301
CELL_VALUE
 90
4
  1
GAK
304
ACVALUE_END
170
5
140
0.125
171
1
172
0
173
0
174
0
175
1
176
1
 91
33
178
0
145
0.0
301
CELL_VALUE
 90
4
  1
All Ports
304
ACVALUE_END
170
5
140
0.125
171
1
172
0
173
0
174
0
175
1
176
1
 91
33
178
0
145
0.0
301
CELL_VALUE
 90
4
  1
SAE 10
304
ACVALUE_END
170
5
140
0.125
  0
MTEXT
  5
284
100
AcDbEntity
  8
0
100
AcDbMText
 62
2
  6
CONTINUOUS
  7
STANDARD
 71
1
 72
1
 10
0.52125
 20
5.75995
 30
0.0
 11
1.0
 21
0.0
 31
0.0
 44
0.6
  3
Notes\P \P1. Important: Carefully consider\P   the maximum system pressure. The\P   pressure rating of the manifold is\P   dependent on the manifold material,\P   with the port type/size a secondary\P   consideration. Manifolds\P   constructed of alu
  1
minum are not\P   rated for pressures higher than\P   3000 psi (210 bar), regardless of\P   the port type/size specified.
 40
0.1
 41
3.04
  0
LINE
  5
285
100
AcDbEntity
  8
0
100
AcDbLine
 62
7
  6
CONTINUOUS
 10
0.30125
 20
0.30125
 11
0.30125
 21
16.69875
  0
LINE
  5
286
100
AcDbEntity
  8
0
100
AcDbLine
 62
7
  6
CONTINUOUS
 10
0.30125
 20
0.30125
 11
21.69875
 21
0.30125
  0
LINE
  5
287
100
AcDbEntity
  8
0
100
AcDbLine
 62
7
  6
CONTINUOUS
 10
0.30125
 20
16.69875
 11
21.69875
 21
16.69875
  0
LINE
  5
288
100
AcDbEntity
  8
0
100
AcDbLine
 62
7
  6
CONTINUOUS
 10
21.69875
 20
0.30125
 11
21.69875
 21
16.69875
  0
LINE
  5
289
100
AcDbEntity
  8
0
100
AcDbLine
 62
7
  6
CONTINUOUS
 10
7.7139941022
 20
10.4992950878
 11
8.4904505967
 21
11.2492945133
  0
LINE
  5
28A
100
AcDbEntity
  8
0
100
AcDbLine
 62
7
  6
CONTINUOUS
 10
7.7139941022
 20
6.152628612
 11
7.7139941022
 21
10.4992950878
  0
LINE
  5
28B
100
AcDbEntity
  8
0
100
AcDbLine
 62
4
  6
CONTINUOUS
 10
8.9696977597
 20
6.2587304471
 11
8.9503792332
 21
6.2745590794
  0
LINE
  5
28C
100
AcDbEntity
  8
0
100
AcDbLine
 62
4
  6
CONTINUOUS
 10
9.0662903436
 20
6.2954983925
 11
9.1049273757
 21
6.2638411293
  0
LINE
  5
28D
100
AcDbEntity
  8
0
100
AcDbLine
 62
4
  6
CONTINUOUS
 10
9.0083347849
 20
6.3719620637
 11
9.0276533114
 21
6.3561334315
  0
LINE
  5
28E
100
AcDbEntity
  8
0
100
AcDbLine
 62
4
  6
CONTINUOUS
 10
8.9503792332
 20
6.2745590794
 11
8.9310607206
 21
6.3048765987
  0
LINE
  5
28F
100
AcDbEntity
  8
0
100
AcDbLine
 62
7
  6
CONTINUOUS
 10
13.5095494033
 20
5.7507054867
 11
7.7139941022
 21
6.152628612
  0
LINE
  5
290
100
AcDbEntity
  8
0
100
AcDbLine
 62
4
  6
CONTINUOUS
 10
9.1049273757
 20
6.2638411293
 11
9.1628829275
 21
6.2453330102
  0
LINE
  5
291
100
AcDbEntity
  8
0
100
AcDbLine
 62
4
  6
CONTINUOUS
 10
9.0276533114
 20
6.3561334315
 11
9.0662903436
 21
6.2954983925
  0
LINE
  5
292
100
AcDbEntity
  8
0
100
AcDbLine
 62
4
  6
CONTINUOUS
 10
8.9696977597
 20
6.3746415506
 11
9.0083347849
 21
6.3719620637
  0
LINE
  5
293
100
AcDbEntity
  8
0
100
AcDbLine
 62
4
  6
CONTINUOUS
 10
9.0800892802
 20
7.1466260971
 11
9.046971824
 21
7.1820402601
  0
LINE
  5
294
100
AcDbEntity
  8
0
100
AcDbLine
 62
4
  6
CONTINUOUS
 10
8.9310607206
 20
6.3048765987
 11
8.9310607206
 21
6.3338543745
  0
LINE
  5
295
100
AcDbEntity
  8
0
100
AcDbLine
 62
4
  6
CONTINUOUS
 10
9.2787940309
 20
7.2156395231
 11
9.2456765713
 21
7.2510536829
  0
LINE
  5
296
100
AcDbEntity
  8
0
100
AcDbLine
 62
4
  6
CONTINUOUS
 10
9.2787940309
 20
7.3977855527
 11
9.2456765713
 21
7.4331996986
  0
LINE
  5
297
100
AcDbEntity
  8
0
100
AcDbLine
 62
4
  6
CONTINUOUS
 10
9.046971824
 20
7.1820402601
 11
9.046971824
 21
7.2482751758
  0
LINE
  5
298
100
AcDbEntity
  8
0
100
AcDbLine
 62
4
  6
CONTINUOUS
 10
9.046971824
 20
8.9814221237
 11
9.046971824
 21
8.986941679
  0
LINE
  5
299
100
AcDbEntity
  8
0
100
AcDbLine
 62
4
  6
CONTINUOUS
 10
9.1132067363
 20
8.5794192984
 11
9.1132067363
 21
8.4966256373
  0
LINE
  5
29A
100
AcDbEntity
  8
0
100
AcDbLine
 62
4
  6
CONTINUOUS
 10
9.1132067363
 20
7.8729134566
 11
9.1132067363
 21
7.9557071177
  0
LINE
  5
29B
100
AcDbEntity
  8
0
100
AcDbLine
 62
4
  6
CONTINUOUS
 10
9.1132067363
 20
8.2151272116
 11
9.1132067363
 21
8.2813620963
  0
LINE
  5
29C
100
AcDbEntity
  8
0
100
AcDbLine
 62
4
  6
CONTINUOUS
 10
9.1132067363
 20
8.3475970915
 11
9.1132067363
 21
8.4138319762
  0
LINE
  5
29D
100
AcDbEntity
  8
0
100
AcDbLine
 62
4
  6
CONTINUOUS
 10
9.1132067363
 20
9.0817005992
 11
9.1132067363
 21
9.1479357049
  0
LINE
  5
29E
100
AcDbEntity
  8
0
100
AcDbLine
 62
4
  6
CONTINUOUS
 10
9.1132067363
 20
9.2307292555
 11
9.1132067363
 21
9.2969641402
  0
LINE
  5
29F
100
AcDbEntity
  8
0
100
AcDbLine
 62
4
  6
CONTINUOUS
 10
9.1628829275
 20
6.2453330102
 11
9.1628829275
 21
6.3612441137
  0
LINE
  5
2A0
100
AcDbEntity
  8
0
100
AcDbLine
 62
4
  6
CONTINUOUS
 10
9.1960003836
 20
8.5240013207
 11
9.1960003836
 21
8.5902362053
  0
LINE
  5
2A1
100
AcDbEntity
  8
0
100
AcDbLine
 62
4
  6
CONTINUOUS
 10
9.2787940309
 20
9.1364521871
 11
9.2787940309
 21
9.0702170813
  0
LINE
  5
2A2
100
AcDbEntity
  8
0
100
AcDbLine
 62
4
  6
CONTINUOUS
 10
9.2787940309
 20
8.865992872
 11
9.2787940309
 21
8.8328754297
  0
LINE
  5
2A3
100
AcDbEntity
  8
0
100
AcDbLine
 62
4
  6
CONTINUOUS
 10
9.2787940309
 20
8.5844944464
 11
9.2787940309
 21
8.5182595617
  0
LINE
  5
2A4
100
AcDbEntity
  8
0
100
AcDbLine
 62
4
  6
CONTINUOUS
 10
9.2787940309
 20
8.2698785784
 11
9.2787940309
 21
8.2036436938
  0
LINE
  5
2A5
100
AcDbEntity
  8
0
100
AcDbLine
 62
4
  6
CONTINUOUS
 10
9.2787940309
 20
7.1494046056
 11
9.2787940309
 21
7.2156395231
  0
LINE
  5
2A6
100
AcDbEntity
  8
0
100
AcDbLine
 62
4
  6
CONTINUOUS
 10
9.2787940309
 20
7.3481093477
 11
9.2787940309
 21
7.3977855527
  0
LINE
  5
2A7
100
AcDbEntity
  8
0
100
AcDbLine
 62
4
  6
CONTINUOUS
 10
9.2787940309
 20
8.6672881075
 11
9.2787940309
 21
8.7500817686
  0
LINE
  5
2A8
100
AcDbEntity
  8
0
100
AcDbLine
 62
4
  6
CONTINUOUS
 10
9.2787940309
 20
9.2192457376
 11
9.2787940309
 21
9.2854806223
  0
LINE
  5
2A9
100
AcDbEntity
  8
0
100
AcDbLine
 62
4
  6
CONTINUOUS
 10
9.2015199596
 20
9.2908395973
 11
9.1904808076
 21
9.2253702804
  0
LINE
  5
2AA
100
AcDbEntity
  8
0
100
AcDbLine
 62
4
  6
CONTINUOUS
 10
9.2125591117
 20
9.3066326954
 11
9.2015199596
 21
9.2908395973
  0
LINE
  5
2AB
100
AcDbEntity
  8
0
100
AcDbLine
 62
4
  6
CONTINUOUS
 10
9.1904808076
 20
9.2253702804
 11
9.1794416555
 21
9.2095771823
  0
LINE
  5
2AC
100
AcDbEntity
  8
0
100
AcDbLine
 62
4
  6
CONTINUOUS
 10
9.1132067363
 20
9.2969641402
 11
9.1297654713
 21
9.3123744539
  0
LINE
  5
2AD
100
AcDbEntity
  8
0
100
AcDbLine
 62
4
  6
CONTINUOUS
 10
9.2622353011
 20
9.2038354235
 11
9.2787940309
 21
9.2192457376
  0
LINE
  5
2AE
100
AcDbEntity
  8
0
100
AcDbLine
 62
4
  6
CONTINUOUS
 10
9.1297654713
 20
8.1808614171
 11
9.1132067363
 21
8.2151272116
  0
LINE
  5
2AF
100
AcDbEntity
  8
0
100
AcDbLine
 62
4
  6
CONTINUOUS
 10
9.3339897946
 20
8.0231894217
 11
9.3339897946
 21
8.0563068641
  0
LINE
  5
2B0
100
AcDbEntity
  8
0
100
AcDbLine
 62
4
  6
CONTINUOUS
 10
9.2787940309
 20
8.5182595617
 11
9.2622353011
 21
8.4862904712
  0
LINE
  5
2B1
100
AcDbEntity
  8
0
100
AcDbLine
 62
4
  6
CONTINUOUS
 10
9.2787940309
 20
8.2036436938
 11
9.2622353011
 21
8.1716746032
  0
LINE
  5
2B2
100
AcDbEntity
  8
0
100
AcDbLine
 62
4
  6
CONTINUOUS
 10
9.2787940309
 20
9.0702170813
 11
9.2622353011
 21
9.0548067672
  0
LINE
  5
2B3
100
AcDbEntity
  8
0
100
AcDbLine
 62
4
  6
CONTINUOUS
 10
9.2787940309
 20
8.8328754297
 11
9.2622353011
 21
8.8174650051
  0
LINE
  5
2B4
100
AcDbEntity
  8
0
100
AcDbLine
 62
4
  6
CONTINUOUS
 10
9.1132067363
 20
7.1443293937
 11
9.0800892802
 21
7.1466260971
  0
LINE
  5
2B5
100
AcDbEntity
  8
0
100
AcDbLine
 62
4
  6
CONTINUOUS
 10
9.2125591117
 20
8.4897355266
 11
9.1960003836
 21
8.5240013207
  0
LINE
  5
2B6
100
AcDbEntity
  8
0
100
AcDbLine
 62
4
  6
CONTINUOUS
 10
9.7192562239
 20
7.9716329248
 11
9.7192562239
 21
8.0544265686
  0
LINE
  5
2B7
100
AcDbEntity
  8
0
100
AcDbLine
 62
4
  6
CONTINUOUS
 10
9.8186085924
 20
7.9978602742
 11
9.8186085924
 21
8.0475364584
  0
LINE
  5
2B8
100
AcDbEntity
  8
0
100
AcDbLine
 62
4
  6
CONTINUOUS
 10
9.8848435116
 20
8.1312562676
 11
9.8848435116
 21
8.219569484
  0
LINE
  5
2B9
100
AcDbEntity
  8
0
100
AcDbLine
 62
4
  6
CONTINUOUS
 10
9.2622353011
 20
8.6518776829
 11
9.2787940309
 21
8.6672881075
  0
LINE
  5
2BA
100
AcDbEntity
  8
0
100
AcDbLine
 62
4
  6
CONTINUOUS
 10
9.2456765713
 20
7.2510536829
 11
9.2125591117
 21
7.2533503865
  0
LINE
  5
2BB
100
AcDbEntity
  8
0
100
AcDbLine
 62
4
  6
CONTINUOUS
 10
9.046971824
 20
7.3310688162
 11
9.2456765713
 21
7.3172885952
  0
LINE
  5
2BC
100
AcDbEntity
  8
0
100
AcDbLine
 62
4
  6
CONTINUOUS
 10
10.4610872859
 20
7.3047540968
 11
10.229265079
 21
7.3208310215
  0
LINE
  5
2BD
100
AcDbEntity
  8
0
100
AcDbLine
 62
4
  6
CONTINUOUS
 10
9.2456765713
 20
7.4331996986
 11
9.046971824
 21
7.4469799197
  0
LINE
  5
2BE
100
AcDbEntity
  8
0
100
AcDbLine
 62
4
  6
CONTINUOUS
 10
9.2787940309
 20
7.4971379073
 11
9.046971824
 21
7.5132148319
  0
LINE
  5
2BF
100
AcDbEntity
  8
0
100
AcDbLine
 62
4
  6
CONTINUOUS
 10
10.2623825352
 20
7.4344454077
 11
10.4279698263
 21
7.4229618901
  0
LINE
  5
2C0
100
AcDbEntity
  8
0
100
AcDbLine
 62
4
  6
CONTINUOUS
 10
10.4610872859
 20
7.5144979858
 11
10.229265079
 21
7.5968098227
  0
LINE
  5
2C1
100
AcDbEntity
  8
0
100
AcDbLine
 62
4
  6
CONTINUOUS
 10
9.7523736801
 20
7.9362187618
 11
9.7192562239
 21
7.9716329248
  0
LINE
  5
2C2
100
AcDbEntity
  8
0
100
AcDbLine
 62
4
  6
CONTINUOUS
 10
10.4279698263
 20
7.4229618901
 11
10.4610872859
 21
7.3875477303
  0
LINE
  5
2C3
100
AcDbEntity
  8
0
100
AcDbLine
 62
4
  6
CONTINUOUS
 10
10.3175782954
 20
7.270549864
 11
10.3617349105
 21
7.179174369
  0
LINE
  5
2C4
100
AcDbEntity
  8
0
100
AcDbLine
 62
4
  6
CONTINUOUS
 10
9.9510784308
 20
8.0383496439
 11
9.9510784308
 21
7.9555560001
  0
LINE
  5
2C5
100
AcDbEntity
  8
0
100
AcDbLine
 62
4
  6
CONTINUOUS
 10
10.3175782954
 20
9.0202555192
 11
10.3617349105
 21
9.1055064639
  0
LINE
  5
2C6
100
AcDbEntity
  8
0
100
AcDbLine
 62
4
  6
CONTINUOUS
 10
9.1132067363
 20
7.9557071177
 11
9.1297654713
 21
7.9711174867
  0
LINE
  5
2C7
100
AcDbEntity
  8
0
100
AcDbLine
 62
4
  6
CONTINUOUS
 10
9.1132067363
 20
8.4138319762
 11
9.1297654713
 21
8.4237227346
  0
LINE
  5
2C8
100
AcDbEntity
  8
0
100
AcDbLine
 62
4
  6
CONTINUOUS
 10
9.1463241925
 20
8.5936812609
 11
9.1132067363
 21
8.5794192984
  0
LINE
  5
2C9
100
AcDbEntity
  8
0
100
AcDbLine
 62
4
  6
CONTINUOUS
 10
9.2787940309
 20
7.6130490107
 11
9.046971824
 21
7.6291259354
  0
LINE
  5
2CA
100
AcDbEntity
  8
0
100
AcDbLine
 62
4
  6
CONTINUOUS
 10
9.3339897946
 20
8.0563068641
 11
9.1132067363
 21
8.1378531058
  0
LINE
  5
2CB
100
AcDbEntity
  8
0
100
AcDbLine
 62
4
  6
CONTINUOUS
 10
9.8738043595
 20
8.3086482958
 11
9.7192562239
 21
8.4352773212
  0
LINE
  5
2CC
100
AcDbEntity
  8
0
100
AcDbLine
 62
4
  6
CONTINUOUS
 10
9.1297654713
 20
9.0639935811
 11
9.1132067363
 21
9.0817005992
  0
LINE
  5
2CD
100
AcDbEntity
  8
0
100
AcDbLine
 62
4
  6
CONTINUOUS
 10
9.1297654713
 20
9.2130222374
 11
9.1132067363
 21
9.2307292555
  0
LINE
  5
2CE
100
AcDbEntity
  8
0
100
AcDbLine
 62
4
  6
CONTINUOUS
 10
10.229265079
 20
7.3208310215
 11
10.229265079
 21
7.4036246549
  0
LINE
  5
2CF
100
AcDbEntity
  8
0
100
AcDbLine
 62
4
  6
CONTINUOUS
 10
10.229265079
 20
7.7292796473
 11
10.229265079
 21
7.8617494719
  0
LINE
  5
2D0
100
AcDbEntity
  8
0
100
AcDbLine
 62
4
  6
CONTINUOUS
 10
10.229265079
 20
7.9279844119
 11
10.229265079
 21
8.0273367941
  0
LINE
  5
2D1
100
AcDbEntity
  8
0
100
AcDbLine
 62
4
  6
CONTINUOUS
 10
10.229265079
 20
8.3088352198
 11
10.229265079
 21
8.3750701044
  0
LINE
  5
2D2
100
AcDbEntity
  8
0
100
AcDbLine
 62
4
  6
CONTINUOUS
 10
10.229265079
 20
8.5020203184
 11
10.229265079
 21
8.5516965372
  0
LINE
  5
2D3
100
AcDbEntity
  8
0
100
AcDbLine
 62
4
  6
CONTINUOUS
 10
10.229265079
 20
8.6510488642
 11
10.229265079
 21
8.7338425253
  0
LINE
  5
2D4
100
AcDbEntity
  8
0
100
AcDbLine
 62
4
  6
CONTINUOUS
 10
10.229265079
 20
8.8607928499
 11
10.229265079
 21
8.9601451769
  0
LINE
  5
2D5
100
AcDbEntity
  8
0
100
AcDbLine
 62
4
  6
CONTINUOUS
 10
10.3286174475
 20
8.9201376244
 11
10.3286174475
 21
8.8539027397
  0
LINE
  5
2D6
100
AcDbEntity
  8
0
100
AcDbLine
 62
4
  6
CONTINUOUS
 10
10.3286174475
 20
7.9873292416
 11
10.3286174475
 21
7.9210943017
  0
LINE
  5
2D7
100
AcDbEntity
  8
0
100
AcDbLine
 62
4
  6
CONTINUOUS
 10
10.3948523667
 20
7.5411696971
 11
10.3948523667
 21
7.6294829135
  0
LINE
  5
2D8
100
AcDbEntity
  8
0
100
AcDbLine
 62
4
  6
CONTINUOUS
 10
10.4610872859
 20
8.7177656007
 11
10.4610872859
 21
8.6349719396
  0
LINE
  5
2D9
100
AcDbEntity
  8
0
100
AcDbLine
 62
4
  6
CONTINUOUS
 10
10.4610872859
 20
8.5356196126
 11
10.4610872859
 21
8.4859433938
  0
LINE
  5
2DA
100
AcDbEntity
  8
0
100
AcDbLine
 62
4
  6
CONTINUOUS
 10
10.4610872859
 20
8.3589931798
 11
10.4610872859
 21
8.2927582951
  0
LINE
  5
2DB
100
AcDbEntity
  8
0
100
AcDbLine
 62
4
  6
CONTINUOUS
 10
10.4610872859
 20
7.3875477303
 11
10.4610872859
 21
7.3047540968
  0
LINE
  5
2DC
100
AcDbEntity
  8
0
100
AcDbLine
 62
4
  6
CONTINUOUS
 10
10.4610872859
 20
7.9119074872
 11
10.4610872859
 21
8.0112598695
  0
LINE
  5
2DD
100
AcDbEntity
  8
0
100
AcDbLine
 62
4
  6
CONTINUOUS
 10
10.4610872859
 20
8.8447159252
 11
10.4610872859
 21
8.9440682522
  0
LINE
  5
2DE
100
AcDbEntity
  8
0
100
AcDbLine
 62
4
  6
CONTINUOUS
 10
10.229265079
 20
8.7338425253
 11
10.2623825352
 21
8.7646632643
  0
LINE
  5
2DF
100
AcDbEntity
  8
0
100
AcDbLine
 62
4
  6
CONTINUOUS
 10
10.229265079
 20
8.5516965372
 11
10.2623825352
 21
8.5825172762
  0
LINE
  5
2E0
100
AcDbEntity
  8
0
100
AcDbLine
 62
4
  6
CONTINUOUS
 10
10.229265079
 20
7.5968098227
 11
10.4610872859
 21
7.646967838
  0
LINE
  5
2E1
100
AcDbEntity
  8
0
100
AcDbLine
 62
4
  6
CONTINUOUS
 10
10.4610872859
 20
7.7794376626
 11
10.229265079
 21
7.7955145873
  0
LINE
  5
2E2
100
AcDbEntity
  8
0
100
AcDbLine
 62
4
  6
CONTINUOUS
 10
9.2787940309
 20
7.8614299388
 11
9.046971824
 21
7.8775068634
  0
LINE
  5
2E3
100
AcDbEntity
  8
0
100
AcDbLine
 62
4
  6
CONTINUOUS
 10
9.1297654713
 20
7.9711174867
 11
9.2787940309
 21
7.960782321
  0
LINE
  5
2E4
100
AcDbEntity
  8
0
100
AcDbLine
 62
4
  6
CONTINUOUS
 10
9.9179609712
 20
7.9247352441
 11
9.7523736801
 21
7.9362187618
  0
LINE
  5
2E5
100
AcDbEntity
  8
0
100
AcDbLine
 62
4
  6
CONTINUOUS
 10
10.4610872859
 20
7.9119074872
 11
10.229265079
 21
7.9279844119
  0
LINE
  5
2E6
100
AcDbEntity
  8
0
100
AcDbLine
 62
4
  6
CONTINUOUS
 10
9.8186085924
 20
8.0475364584
 11
9.9510784308
 21
8.0383496439
  0
LINE
  5
2E7
100
AcDbEntity
  8
0
100
AcDbLine
 62
4
  6
CONTINUOUS
 10
9.9510784308
 20
8.1045845562
 11
9.7192562239
 21
8.1868963932
  0
LINE
  5
2E8
100
AcDbEntity
  8
0
100
AcDbLine
 62
4
  6
CONTINUOUS
 10
9.2787940309
 20
9.2854806223
 11
9.2622353011
 21
9.30318764
  0
LINE
  5
2E9
100
AcDbEntity
  8
0
100
AcDbLine
 62
4
  6
CONTINUOUS
 10
10.2623825352
 20
8.273421074
 11
10.229265079
 21
8.3088352198
  0
LINE
  5
2EA
100
AcDbEntity
  8
0
100
AcDbLine
 62
4
  6
CONTINUOUS
 10
10.2623825352
 20
8.4666061727
 11
10.229265079
 21
8.5020203184
  0
LINE
  5
2EB
100
AcDbEntity
  8
0
100
AcDbLine
 62
4
  6
CONTINUOUS
 10
8.9310607206
 20
6.3338543745
 11
8.9503792332
 21
6.361492407
  0
LINE
  5
2EC
100
AcDbEntity
  8
0
100
AcDbLine
 62
4
  6
CONTINUOUS
 10
9.2125591117
 20
7.2533503865
 11
9.1132067363
 21
7.1443293937
  0
LINE
  5
2ED
100
AcDbEntity
  8
0
100
AcDbLine
 62
4
  6
CONTINUOUS
 10
9.046971824
 20
7.2482751758
 11
9.063530559
 21
7.2636855517
  0
LINE
  5
2EE
100
AcDbEntity
  8
0
100
AcDbLine
 62
4
  6
CONTINUOUS
 10
10.4610872859
 20
8.4859433938
 11
10.4279698263
 21
8.4551226551
  0
LINE
  5
2EF
100
AcDbEntity
  8
0
100
AcDbLine
 62
4
  6
CONTINUOUS
 10
9.2456765713
 20
7.3172885952
 11
9.2787940309
 21
7.3481093477
  0
LINE
  5
2F0
100
AcDbEntity
  8
0
100
AcDbLine
 62
4
  6
CONTINUOUS
 10
9.9510784308
 20
7.9555560001
 11
9.9179609712
 21
7.9247352441
  0
LINE
  5
2F1
100
AcDbEntity
  8
0
100
AcDbLine
 62
4
  6
CONTINUOUS
 10
9.8186085924
 20
8.3621522988
 11
9.9510784308
 21
8.4192003966
  0
LINE
  5
2F2
100
AcDbEntity
  8
0
100
AcDbLine
 62
4
  6
CONTINUOUS
 10
9.2622353011
 20
8.1716746032
 11
9.1297654713
 21
8.1808614171
  0
LINE
  5
2F3
100
AcDbEntity
  8
0
100
AcDbLine
 62
4
  6
CONTINUOUS
 10
9.046971824
 20
8.2859555031
 11
9.2787940309
 21
8.2698785784
  0
LINE
  5
2F4
100
AcDbEntity
  8
0
100
AcDbLine
 62
4
  6
CONTINUOUS
 10
9.2787940309
 20
8.3361135736
 11
9.1132067363
 21
8.3475970915
  0
LINE
  5
2F5
100
AcDbEntity
  8
0
100
AcDbLine
 62
4
  6
CONTINUOUS
 10
10.4279698263
 20
8.2619375564
 11
10.2623825352
 21
8.273421074
  0
LINE
  5
2F6
100
AcDbEntity
  8
0
100
AcDbLine
 62
4
  6
CONTINUOUS
 10
9.9510784308
 20
8.3032893208
 11
9.7192562239
 21
8.3193662454
  0
LINE
  5
2F7
100
AcDbEntity
  8
0
100
AcDbLine
 62
4
  6
CONTINUOUS
 10
9.046971824
 20
8.986941679
 11
9.063530559
 21
8.9802737715
  0
LINE
  5
2F8
100
AcDbEntity
  8
0
100
AcDbLine
 62
4
  6
CONTINUOUS
 10
10.4279698263
 20
8.5710337585
 11
10.4610872859
 21
8.5356196126
  0
LINE
  5
2F9
100
AcDbEntity
  8
0
100
AcDbLine
 62
4
  6
CONTINUOUS
 10
10.3617349105
 20
9.1055064639
 11
10.4058915222
 21
9.0141309761
  0
LINE
  5
2FA
100
AcDbEntity
  8
0
100
AcDbLine
 62
4
  6
CONTINUOUS
 10
10.4610872859
 20
8.2927582951
 11
10.4279698263
 21
8.2619375564
  0
LINE
  5
2FB
100
AcDbEntity
  8
0
100
AcDbLine
 62
4
  6
CONTINUOUS
 10
9.2622353011
 20
7.1339942276
 11
9.2787940309
 21
7.1494046056
  0
LINE
  5
2FC
100
AcDbEntity
  8
0
100
AcDbLine
 62
4
  6
CONTINUOUS
 10
9.1132067363
 20
8.0385007788
 11
9.2787940309
 21
8.0766934797
  0
LINE
  5
2FD
100
AcDbEntity
  8
0
100
AcDbLine
 62
4
  6
CONTINUOUS
 10
9.7192562239
 20
8.1868963932
 11
9.9510784308
 21
8.2370543808
  0
LINE
  5
2FE
100
AcDbEntity
  8
0
100
AcDbLine
 62
4
  6
CONTINUOUS
 10
9.1297654713
 20
8.4237227346
 11
9.1628829275
 21
8.4214260312
  0
LINE
  5
2FF
100
AcDbEntity
  8
0
100
AcDbLine
 62
4
  6
CONTINUOUS
 10
9.2622353011
 20
8.4862904712
 11
9.2125591117
 21
8.4897355266
  0
LINE
  5
300
100
AcDbEntity
  8
0
100
AcDbLine
 62
4
  6
CONTINUOUS
 10
10.4279698263
 20
8.4551226551
 11
10.2623825352
 21
8.4666061727
  0
LINE
  5
301
100
AcDbEntity
  8
0
100
AcDbLine
 62
4
  6
CONTINUOUS
 10
9.2787940309
 20
8.5844944464
 11
9.1463241925
 21
8.5936812609
  0
LINE
  5
302
100
AcDbEntity
  8
0
100
AcDbLine
 62
4
  6
CONTINUOUS
 10
9.1132067363
 20
8.6622128489
 11
9.2622353011
 21
8.6518776829
  0
LINE
  5
303
100
AcDbEntity
  8
0
100
AcDbLine
 62
4
  6
CONTINUOUS
 10
10.2623825352
 20
8.5825172762
 11
10.4279698263
 21
8.5710337585
  0
LINE
  5
304
100
AcDbEntity
  8
0
100
AcDbLine
 62
4
  6
CONTINUOUS
 10
10.4279698263
 20
8.7531797466
 11
10.4610872859
 21
8.7177656007
  0
LINE
  5
305
100
AcDbEntity
  8
0
100
AcDbLine
 62
4
  6
CONTINUOUS
 10
10.3617349105
 20
7.179174369
 11
10.4058915222
 21
7.2644253209
  0
LINE
  5
306
100
AcDbEntity
  8
0
100
AcDbLine
 62
4
  6
CONTINUOUS
 10
10.229265079
 20
7.4036246549
 11
10.2623825352
 21
7.4344454077
  0
LINE
  5
307
100
AcDbEntity
  8
0
100
AcDbLine
 62
4
  6
CONTINUOUS
 10
9.046971824
 20
7.5132148319
 11
9.2787940309
 21
7.6130490107
  0
LINE
  5
308
100
AcDbEntity
  8
0
100
AcDbLine
 62
4
  6
CONTINUOUS
 10
10.4610872859
 20
8.6349719396
 11
10.229265079
 21
8.6510488642
  0
LINE
  5
309
100
AcDbEntity
  8
0
100
AcDbLine
 62
4
  6
CONTINUOUS
 10
9.2787940309
 20
8.7500817686
 11
9.1132067363
 21
8.7615652865
  0
LINE
  5
30A
100
AcDbEntity
  8
0
100
AcDbLine
 62
4
  6
CONTINUOUS
 10
9.2622353011
 20
8.8174650051
 11
9.046971824
 21
8.8323935779
  0
LINE
  5
30B
100
AcDbEntity
  8
0
100
AcDbLine
 62
4
  6
CONTINUOUS
 10
10.2623825352
 20
8.7646632643
 11
10.4279698263
 21
8.7531797466
  0
LINE
  5
30C
100
AcDbEntity
  8
0
100
AcDbLine
 62
4
  6
CONTINUOUS
 10
10.4610872859
 20
8.8447159252
 11
10.229265079
 21
8.8607928499
  0
LINE
  5
30D
100
AcDbEntity
  8
0
100
AcDbLine
 62
4
  6
CONTINUOUS
 10
13.0845420169
 20
8.6779576076
 11
13.3163642237
 21
8.6618806829
  0
LINE
  5
30E
100
AcDbEntity
  8
0
100
AcDbLine
 62
7
  6
CONTINUOUS
 10
13.5095494033
 20
10.0973719626
 11
14.2860058978
 21
10.847371388
  0
LINE
  5
30F
100
AcDbEntity
  8
0
100
AcDbLine
 62
4
  6
CONTINUOUS
 10
9.2787940309
 20
8.965345199
 11
9.1132067363
 21
8.9768287169
  0
LINE
  5
310
100
AcDbEntity
  8
0
100
AcDbLine
 62
4
  6
CONTINUOUS
 10
9.063530559
 20
8.9802737715
 11
9.046971824
 21
8.9814221237
  0
LINE
  5
311
100
AcDbEntity
  8
0
100
AcDbLine
 62
4
  6
CONTINUOUS
 10
9.2622353011
 20
9.0548067672
 11
9.1297654713
 21
9.0639935811
  0
LINE
  5
312
100
AcDbEntity
  8
0
100
AcDbLine
 62
4
  6
CONTINUOUS
 10
9.1794416555
 20
9.2095771823
 11
9.1297654713
 21
9.2130222374
  0
LINE
  5
313
100
AcDbEntity
  8
0
100
AcDbLine
 62
4
  6
CONTINUOUS
 10
8.9503792332
 20
6.361492407
 11
8.9696977597
 21
6.3746415506
  0
LINE
  5
314
100
AcDbEntity
  8
0
100
AcDbLine
 62
4
  6
CONTINUOUS
 10
9.2622353011
 20
9.30318764
 11
9.2125591117
 21
9.3066326954
  0
LINE
  5
315
100
AcDbEntity
  8
0
100
AcDbLine
 62
7
  6
CONTINUOUS
 10
13.5095494033
 20
10.0973719626
 11
7.7139941022
 21
10.4992950878
  0
LINE
  5
316
100
AcDbEntity
  8
0
100
AcDbLine
 62
7
  6
CONTINUOUS
 10
13.5095494033
 20
5.7507054867
 11
13.5095494033
 21
10.0973719626
  0
LINE
  5
317
100
AcDbEntity
  8
0
100
AcDbLine
 62
7
  6
CONTINUOUS
 10
14.2860058978
 20
10.847371388
 11
8.4904505967
 21
11.2492945133
  0
LINE
  5
318
100
AcDbEntity
  8
0
100
AcDbLine
 62
7
  6
CONTINUOUS
 10
14.2860058978
 20
10.847371388
 11
14.2860058978
 21
6.5007049122
  0
LINE
  5
319
100
AcDbEntity
  8
0
100
AcDbLine
 62
7
  6
CONTINUOUS
 10
14.2860058978
 20
6.5007049122
 11
13.5095494033
 21
5.7507054867
  0
SPLINE
  5
31A
100
AcDbEntity
  8
0
100
AcDbSpline
 62
7
  6
CONTINUOUS
 70
0
 71
3
 72
23
 73
19
 74
0
 42
0.0000001
 43
0.0000001
 44
0.0000000001
 40
0.0
 40
0.0
 40
0.0
 40
0.0
 40
0.0764222838
 40
0.1504661461
 40
0.2222018012
 40
0.2917109382
 40
0.3590900495
 40
0.4244475032
 40
0.4879038951
 40
0.5495927372
 40
0.6096609962
 40
0.6682702169
 40
0.7255962326
 40
0.7818281432
 40
0.8371677418
 40
0.8918276491
 40
0.9460291917
 40
1.0
 40
1.0
 40
1.0
 40
1.0
 10
13.8977776506
 20
10.1970827285
 30
0.0
 10
13.8997006352
 20
10.1989401891
 30
0.0
 10
13.903545846
 20
10.202536832
 30
0.0
 10
13.9094052904
 20
10.2076476251
 30
0.0
 10
13.9152620833
 20
10.2123860524
 30
0.0
 10
13.921114474
 20
10.2167504388
 30
0.0
 10
13.9269608308
 20
10.2207395566
 30
0.0
 10
13.9327996687
 20
10.2243522122
 30
0.0
 10
13.9386294725
 20
10.2275872796
 30
0.0
 10
13.9444486371
 20
10.2304437631
 30
0.0
 10
13.9502556022
 20
10.2329205838
 30
0.0
 10
13.9560487358
 20
10.2350168191
 30
0.0
 10
13.9618263568
 20
10.2367317053
 30
0.0
 10
13.9675867935
 20
10.2380644064
 30
0.0
 10
13.9733282264
 20
10.239014345
 30
0.0
 10
13.9790489086
 20
10.2395810572
 30
0.0
 10
13.9847466079
 20
10.2397641194
 30
0.0
 10
13.988531987
 20
10.2396301962
 30
0.0
 10
13.9904155934
 20
10.2394995621
 30
0.0
  0
SPLINE
  5
31B
100
AcDbEntity
  8
0
100
AcDbSpline
 62
7
  6
CONTINUOUS
 70
0
 71
3
 72
23
 73
19
 74
0
 42
0.0000001
 43
0.0000001
 44
0.0000000001
 40
0.0
 40
0.0
 40
0.0
 40
0.0
 40
0.0637764154
 40
0.1273451281
 40
0.190701988
 40
0.253856063
 40
0.3168132283
 40
0.3795820791
 40
0.4421733864
 40
0.5045993414
 40
0.5668738629
 40
0.629012379
 40
0.6910316532
 40
0.7529496461
 40
0.8147853522
 40
0.8765586034
 40
0.9382898574
 40
1.0
 40
1.0
 40
1.0
 40
1.0
 10
13.2989775833
 20
6.308159016
 30
0.0
 10
13.2989775833
 20
6.3028515829
 30
0.0
 10
13.2987235197
 20
6.292252204
 30
0.0
 10
13.2975769566
 20
6.2764176395
 30
0.0
 10
13.2956678555
 20
6.2607085499
 30
0.0
 10
13.2930008153
 20
6.2451619211
 30
0.0
 10
13.2895818063
 20
6.2298132219
 30
0.0
 10
13.285418738
 20
6.2146979348
 30
0.0
 10
13.2805211866
 20
6.1998508932
 30
0.0
 10
13.2749003386
 20
6.1853063499
 30
0.0
 10
13.2685691743
 20
6.171097838
 30
0.0
 10
13.2615422837
 20
6.1572581164
 30
0.0
 10
13.2538358117
 20
6.1438191295
 30
0.0
 10
13.2454674889
 20
6.1308118867
 30
0.0
 10
13.2364566731
 20
6.1182663945
 30
0.0
 10
13.2268240254
 20
6.1062114964
 30
0.0
 10
13.2165920954
 20
6.0946754156
 30
0.0
 10
13.2093856712
 20
6.0873469559
 30
0.0
 10
13.2056919547
 20
6.0837790987
 30
0.0
  0
SPLINE
  5
31C
100
AcDbEntity
  8
0
100
AcDbSpline
 62
7
  6
CONTINUOUS
 70
0
 71
3
 72
43
 73
39
 74
0
 42
0.0000001
 43
0.0000001
 44
0.0000000001
 40
0.0
 40
0.0
 40
0.0
 40
0.0
 40
0.0149723098
 40
0.0299476795
 40
0.0449291474
 40
0.05991972
 40
0.0749223413
 40
0.0899398895
 40
0.1049751458
 40
0.1200307886
 40
0.1502075383
 40
0.1804946787
 40
0.2109083087
 40
0.2414615673
 40
0.2721643694
 40
0.303023226
 40
0.3340411482
 40
0.3652176339
 40
0.3965487319
 40
0.4280271774
 40
0.4596425917
 40
0.4913817403
 40
0.5232288393
 40
0.555165905
 40
0.5871731364
 40
0.6192293252
 40
0.6513122868
 40
0.6833993039
 40
0.7154675788
 40
0.7474946857
 40
0.7794590188
 40
0.8113402295
 40
0.8431196416
 40
0.8747806564
 40
0.906309065
 40
0.9376935582
 40
0.9689254026
 40
1.0
 40
1.0
 40
1.0
 40
1.0
 10
12.727706204
 20
6.5786261183
 30
0.0
 10
12.7305598985
 20
6.5813825764
 30
0.0
 10
12.7363781065
 20
6.5867832347
 30
0.0
 10
12.7454214662
 20
6.5945318081
 30
0.0
 10
12.754769275
 20
6.6019183537
 30
0.0
 10
12.7644085686
 20
6.6089324322
 30
0.0
 10
12.7743260955
 20
6.6155645073
 30
0.0
 10
12.7845081445
 20
6.6218054098
 30
0.0
 10
12.794940949
 20
6.6276466017
 30
0.0
 10
12.8091752232
 20
6.6348959107
 30
0.0
 10
12.8275323869
 20
6.6429207504
 30
0.0
 10
12.850305021
 20
6.6508257331
 30
0.0
 10
12.8737174985
 20
6.656972274
 30
0.0
 10
12.8976399714
 20
6.6613263552
 30
0.0
 10
12.921940959
 20
6.663864452
 30
0.0
 10
12.9464866754
 20
6.6645728864
 30
0.0
 10
12.9711421427
 20
6.6634480885
 30
0.0
 10
12.9957718273
 20
6.6604965444
 30
0.0
 10
13.0202404052
 20
6.6557347622
 30
0.0
 10
13.0444134888
 20
6.6491891651
 30
0.0
 10
13.0681583574
 20
6.6408959413
 30
0.0
 10
13.0913446781
 20
6.630900845
 30
0.0
 10
13.113845209
 20
6.619258932
 30
0.0
 10
13.1355364876
 20
6.6060342583
 30
0.0
 10
13.1562994994
 20
6.5912995281
 30
0.0
 10
13.1760203216
 20
6.5751356972
 30
0.0
 10
13.1945907414
 20
6.5576315314
 30
0.0
 10
13.2119088419
 20
6.5388831239
 30
0.0
 10
13.2278795563
 20
6.5189933729
 30
0.0
 10
13.2424151842
 20
6.4980714236
 30
0.0
 10
13.2554358765
 20
6.4762320803
 30
0.0
 10
13.2668700616
 20
6.4535951735
 30
0.0
 10
13.2766548436
 20
6.4302849267
 30
0.0
 10
13.2847363236
 20
6.4064292302
 30
0.0
 10
13.291069962
 20
6.3821591377
 30
0.0
 10
13.2956206682
 20
6.3576074623
 30
0.0
 10
13.2983633032
 20
6.3329107705
 30
0.0
 10
13.2989775833
 20
6.3163935988
 30
0.0
 10
13.2989775833
 20
6.308159016
 30
0.0
  0
SPLINE
  5
31D
100
AcDbEntity
  8
0
100
AcDbSpline
 62
7
  6
CONTINUOUS
 70
0
 71
3
 72
106
 73
102
 74
0
 42
0.0000001
 43
0.0000001
 44
0.0000000001
 40
0.0
 40
0.0
 40
0.0
 40
0.0
 40
0.0013572614
 40
0.0027170801
 40
0.0040819972
 40
0.0054545222
 40
0.0068371197
 40
0.0082321976
 40
0.0110684626
 40
0.0139816382
 40
0.0169879175
 40
0.0201018457
 40
0.0233363321
 40
0.0267026476
 40
0.0302105675
 40
0.0338684402
 40
0.037683369
 40
0.0416612997
 40
0.0458071843
 40
0.0501250681
 40
0.0546182117
 40
0.0592891763
 40
0.0641398973
 40
0.0691717727
 40
0.0743856914
 40
0.079782128
 40
0.0853611333
 40
0.0911224352
 40
0.0970654022
 40
0.1031891457
 40
0.1094924693
 40
0.1159739645
 40
0.1226319594
 40
0.1294645988
 40
0.1364698038
 40
0.1436453299
 40
0.1509887441
 40
0.1584974579
 40
0.1661687265
 40
0.1739996546
 40
0.1819872188
 40
0.1901282493
 40
0.1984194707
 40
0.2154385539
 40
0.2330160976
 40
0.2511218856
 40
0.2697242008
 40
0.2887899589
 40
0.3082848336
 40
0.3281733744
 40
0.3484191186
 40
0.3689846999
 40
0.3898319534
 40
0.4109220189
 40
0.432215442
 40
0.4536722745
 40
0.4752521738
 40
0.4969145015
 40
0.5186184218
 40
0.5403229993
 40
0.5619872972
 40
0.5835704748
 40
0.6050318861
 40
0.6263311775
 40
0.6474283868
 40
0.6682840422
 40
0.6888592629
 40
0.7091158602
 40
0.7290164402
 40
0.7485245095
 40
0.7676045831
 40
0.7862222967
 40
0.8043445243
 40
0.8219395028
 40
0.8389769656
 40
0.8472777114
 40
0.855428486
 40
0.8634259994
 40
0.8712670756
 40
0.8789486853
 40
0.8864679163
 40
0.8938220274
 40
0.9010084015
 40
0.9080246176
 40
0.9148683932
 40
0.9215376665
 40
0.9280305379
 40
0.9343453534
 40
0.9404806572
 40
0.9464352674
 40
0.9522082492
 40
0.9577989756
 40
0.9632071305
 40
0.9684327588
 40
0.9734763047
 40
0.9783386256
 40
0.9830210644
 40
0.9875255238
 40
0.9918546226
 40
0.9960115463
 40
1.0
 40
1.0
 40
1.0
 40
1.0
 10
13.8051397077
 20
7.5679163788
 30
0.0
 10
13.8038910325
 20
7.5680029783
 30
0.0
 10
13.8013948593
 20
7.5682324866
 30
0.0
 10
13.7976642545
 20
7.5687449187
 30
0.0
 10
13.7939462656
 20
7.5694255638
 30
0.0
 10
13.7902415089
 20
7.5702742734
 30
0.0
 10
13.786550388
 20
7.5712909557
 30
0.0
 10
13.7816212854
 20
7.5728787633
 30
0.0
 10
13.7754830175
 20
7.5752955232
 30
0.0
 10
13.7682238696
 20
7.5788496264
 30
0.0
 10
13.7610334488
 20
7.5830712687
 30
0.0
 10
13.7539154033
 20
7.587957223
 30
0.0
 10
13.7468728804
 20
7.5935045501
 30
0.0
 10
13.739908845
 20
7.5997098772
 30
0.0
 10
13.733026403
 20
7.6065699278
 30
0.0
 10
13.7262284561
 20
7.6140810293
 30
0.0
 10
13.7195181116
 20
7.6222394453
 30
0.0
 10
13.712898335
 20
7.6310410559
 30
0.0
 10
13.7063722373
 20
7.6404815478
 30
0.0
 10
13.6999428487
 20
7.6505562513
 30
0.0
 10
13.6936132473
 20
7.6612602175
 30
0.0
 10
13.6873864928
 20
7.6725881736
 30
0.0
 10
13.6812655925
 20
7.6845345197
 30
0.0
 10
13.6752535955
 20
7.69709336
 30
0.0
 10
13.669353412
 20
7.7102584508
 30
0.0
 10
13.6635680443
 20
7.7240232713
 30
0.0
 10
13.6579002917
 20
7.7383809513
 30
0.0
 10
13.652353078
 20
7.7533243529
 30
0.0
 10
13.6469290871
 20
7.7688459994
 30
0.0
 10
13.6416311364
 20
7.7849381494
 30
0.0
 10
13.6364617957
 20
7.8015927397
 30
0.0
 10
13.6314237519
 20
7.8188014426
 30
0.0
 10
13.6265194636
 20
7.836555628
 30
0.0
 10
13.6217514684
 20
7.8548464015
 30
0.0
 10
13.6171221144
 20
7.8736645847
 30
0.0
 10
13.6126337772
 20
7.8930007379
 30
0.0
 10
13.6082886922
 20
7.9128451535
 30
0.0
 10
13.6040890649
 20
7.9331878684
 30
0.0
 10
13.6000370136
 20
7.9540186647
 30
0.0
 10
13.5961345687
 20
7.9753270802
 30
0.0
 10
13.5923837284
 20
7.9971024029
 30
0.0
 10
13.5887863314
 20
8.0193337097
 30
0.0
 10
13.5841566906
 20
8.0498337712
 30
0.0
 10
13.578779197
 20
8.0890203783
 30
0.0
 10
13.573020563
 20
8.1372827939
 30
0.0
 10
13.5679133291
 20
8.1870863425
 30
0.0
 10
13.5634678704
 20
8.2383308563
 30
0.0
 10
13.559693245
 20
8.2909134155
 30
0.0
 10
13.5565971406
 20
8.3447283347
 30
0.0
 10
13.5541858701
 20
8.3996674445
 30
0.0
 10
13.5524643573
 20
8.4556202945
 30
0.0
 10
13.5514361283
 20
8.512474384
 30
0.0
 10
13.5511033056
 20
8.5701153891
 30
0.0
 10
13.5514666043
 20
8.6284273952
 30
0.0
 10
13.5525253308
 20
8.6872931316
 30
0.0
 10
13.5542773855
 20
8.746594209
 30
0.0
 10
13.556719267
 20
8.8062113592
 30
0.0
 10
13.5598460799
 20
8.8660246755
 30
0.0
 10
13.5636515447
 20
8.9259138555
 30
0.0
 10
13.5681280105
 20
8.9857584439
 30
0.0
 10
13.5732664708
 20
9.0454380752
 30
0.0
 10
13.5790565813
 20
9.1048327173
 30
0.0
 10
13.585486681
 20
9.1638229135
 30
0.0
 10
13.5925438153
 20
9.222290024
 30
0.0
 10
13.6002137619
 20
9.2801164655
 30
0.0
 10
13.6084810593
 20
9.3371859491
 30
0.0
 10
13.6173290373
 20
9.3933837153
 30
0.0
 10
13.6267398504
 20
9.4485967673
 30
0.0
 10
13.6366945129
 20
9.5027141
 30
0.0
 10
13.6471729371
 20
9.5556269246
 30
0.0
 10
13.6581539727
 20
9.607228896
 30
0.0
 10
13.6696154494
 20
9.6574163127
 30
0.0
 10
13.6815342186
 20
9.7060883945
 30
0.0
 10
13.6938862093
 20
9.7531472625
 30
0.0
 10
13.7046105086
 20
9.7912629518
 30
0.0
 10
13.7133976261
 20
9.8208706729
 30
0.0
 10
13.7200234809
 20
9.8424225776
 30
0.0
 10
13.7267385897
 20
9.86350237
 30
0.0
 10
13.7335396241
 20
9.8840994684
 30
0.0
 10
13.74042311
 20
9.9042035271
 30
0.0
 10
13.7473856365
 20
9.9238044412
 30
0.0
 10
13.7544236336
 20
9.9428923769
 30
0.0
 10
13.7615336295
 20
9.9614577396
 30
0.0
 10
13.7687119672
 20
9.9794912249
 30
0.0
 10
13.7759551149
 20
9.9969837701
 30
0.0
 10
13.7832593468
 20
10.0139266194
 30
0.0
 10
13.7906210681
 20
10.0303112631
 30
0.0
 10
13.7980365045
 20
10.0461295108
 30
0.0
 10
13.8055019966
 20
10.0613734279
 30
0.0
 10
13.8130137427
 20
10.0760354052
 30
0.0
 10
13.8205680205
 20
10.0901081037
 30
0.0
 10
13.8281610191
 20
10.1035845069
 30
0.0
 10
13.8357889562
 20
10.1164578952
 30
0.0
 10
13.8434480404
 20
10.1287218631
 30
0.0
 10
13.8511344531
 20
10.1403703271
 30
0.0
 10
13.8588444158
 20
10.1513974723
 30
0.0
 10
13.8665740593
 20
10.1617978728
 30
0.0
 10
13.8743197097
 20
10.1715663825
 30
0.0
 10
13.8820776753
 20
10.1806983264
 30
0.0
 10
13.8898439626
 20
10.1891887721
 30
0.0
 10
13.8951321058
 20
10.1945273283
 30
0.0
 10
13.8977776506
 20
10.1970827285
 30
0.0
  0
SPLINE
  5
31E
100
AcDbEntity
  8
0
100
AcDbSpline
 62
7
  6
CONTINUOUS
 70
0
 71
3
 72
97
 73
93
 74
0
 42
0.0000001
 43
0.0000001
 44
0.0000000001
 40
0.0
 40
0.0
 40
0.0
 40
0.0
 40
0.0027966032
 40
0.0056681052
 40
0.0086296025
 40
0.0116946887
 40
0.0148754648
 40
0.0181825206
 40
0.0216250839
 40
0.0252110726
 40
0.0289472349
 40
0.0328392889
 40
0.0368919734
 40
0.0411092399
 40
0.0454942611
 40
0.0500495726
 40
0.0547771365
 40
0.0596783634
 40
0.0647542496
 40
0.0700053275
 40
0.0754317904
 40
0.0810334857
 40
0.0868099355
 40
0.0927604239
 40
0.0988839274
 40
0.1051792315
 40
0.111644879
 40
0.118279209
 40
0.1250804
 40
0.1320464097
 40
0.1391750781
 40
0.146464054
 40
0.1615126387
 40
0.1771709271
 40
0.1934154307
 40
0.2102208586
 40
0.2275602788
 40
0.2454052571
 40
0.2637259952
 40
0.2824914512
 40
0.3016694502
 40
0.3212267889
 40
0.3411293316
 40
0.3613421079
 40
0.3818294107
 40
0.4025548887
 40
0.4234816352
 40
0.4445722774
 40
0.4657890631
 40
0.4870939516
 40
0.5084487023
 40
0.5298149615
 40
0.5511543482
 40
0.5724285418
 40
0.5935993712
 40
0.6146289026
 40
0.6354795263
 40
0.6561140444
 40
0.6764957586
 40
0.6965885635
 40
0.7163570394
 40
0.735766542
 40
0.7547832965
 40
0.773374495
 40
0.7915083991
 40
0.8091544534
 40
0.826283397
 40
0.8428673835
 40
0.8588801158
 40
0.8742969973
 40
0.8817749275
 40
0.8890955506
 40
0.8962563434
 40
0.9032549366
 40
0.9100891307
 40
0.9167568507
 40
0.9232562447
 40
0.9295856022
 40
0.935743438
 40
0.9417284821
 40
0.9475396684
 40
0.9531762278
 40
0.958637615
 40
0.9639236306
 40
0.9690343913
 40
0.9739703576
 40
0.9787324142
 40
0.9833218588
 40
0.9877406176
 40
0.9919911764
 40
0.996076482
 40
1.0
 40
1.0
 40
1.0
 40
1.0
 10
13.7544308541
 20
7.9686490346
 30
0.0
 10
13.7527293331
 20
7.9692506079
 30
0.0
 10
13.7493297539
 20
7.9706130712
 30
0.0
 10
13.7443331731
 20
7.9730835886
 30
0.0
 10
13.7393825761
 20
7.9760027092
 30
0.0
 10
13.7344805833
 20
7.9793682799
 30
0.0
 10
13.7296292289
 20
7.9831784357
 30
0.0
 10
13.7248304654
 20
7.9874309417
 30
0.0
 10
13.7200863491
 20
7.9921236797
 30
0.0
 10
13.7153988299
 20
7.9972542729
 30
0.0
 10
13.7107698774
 20
8.0028202322
 30
0.0
 10
13.7062015664
 20
8.0088189566
 30
0.0
 10
13.7016958079
 20
8.0152475553
 30
0.0
 10
13.6972547181
 20
8.0221030683
 30
0.0
 10
13.6928802451
 20
8.0293822401
 30
0.0
 10
13.6885744149
 20
8.0370816651
 30
0.0
 10
13.6843392612
 20
8.0451977347
 30
0.0
 10
13.6801766856
 20
8.0537265968
 30
0.0
 10
13.6760887388
 20
8.0626642568
 30
0.0
 10
13.6720772712
 20
8.0720064589
 30
0.0
 10
13.6681442294
 20
8.0817487895
 30
0.0
 10
13.6642914878
 20
8.0918866229
 30
0.0
 10
13.6605208358
 20
8.1024151316
 30
0.0
 10
13.6568341509
 20
8.1133293204
 30
0.0
 10
13.6532331163
 20
8.1246239751
 30
0.0
 10
13.6497195161
 20
8.1362937213
 30
0.0
 10
13.6462950113
 20
8.1483329867
 30
0.0
 10
13.6429612258
 20
8.160736023
 30
0.0
 10
13.6397198113
 20
8.1734969124
 30
0.0
 10
13.6365722585
 20
8.1866095478
 30
0.0
 10
13.6335201249
 20
8.2000676799
 30
0.0
 10
13.6295374445
 20
8.2186617785
 30
0.0
 10
13.6248196977
 20
8.2427257744
 30
0.0
 10
13.6196196788
 20
8.2725774182
 30
0.0
 10
13.6148326381
 20
8.3036455817
 30
0.0
 10
13.6104678305
 20
8.3358708008
 30
0.0
 10
13.6065337243
 20
8.3691915276
 30
0.0
 10
13.6030379353
 20
8.4035440322
 30
0.0
 10
13.5999872353
 20
8.4388625972
 30
0.0
 10
13.5973875364
 20
8.4750796361
 30
0.0
 10
13.5952438803
 20
8.5121258309
 30
0.0
 10
13.5935604309
 20
8.549930263
 30
0.0
 10
13.5923404608
 20
8.5884205487
 30
0.0
 10
13.5915863419
 20
8.6275229807
 30
0.0
 10
13.5912995517
 20
8.6671626733
 30
0.0
 10
13.5914806686
 20
8.7072637095
 30
0.0
 10
13.5921293716
 20
8.7477492856
 30
0.0
 10
13.5932444426
 20
8.7885418568
 30
0.0
 10
13.594823758
 20
8.8295632865
 30
0.0
 10
13.5968643
 20
8.8707349982
 30
0.0
 10
13.5993621659
 20
8.9119781277
 30
0.0
 10
13.6023125747
 20
8.953213674
 30
0.0
 10
13.6057098771
 20
8.9943626494
 30
0.0
 10
13.6095475647
 20
9.0353462322
 30
0.0
 10
13.6138182731
 20
9.07608592
 30
0.0
 10
13.6185138077
 20
9.1165036803
 30
0.0
 10
13.6236251578
 20
9.1565220996
 30
0.0
 10
13.6291425134
 20
9.1960645307
 30
0.0
 10
13.635055286
 20
9.2350552403
 30
0.0
 10
13.6413521208
 20
9.273419559
 30
0.0
 10
13.6480209181
 20
9.3110840265
 30
0.0
 10
13.6550488643
 20
9.3479765311
 30
0.0
 10
13.6624224536
 20
9.3840264463
 30
0.0
 10
13.6701275138
 20
9.4191647677
 30
0.0
 10
13.6781492356
 20
9.4533242499
 30
0.0
 10
13.6864721879
 20
9.4864395484
 30
0.0
 10
13.6950803586
 20
9.518447331
 30
0.0
 10
13.7039571837
 20
9.5492864568
 30
0.0
 10
13.7130855877
 20
9.5788978913
 30
0.0
 10
13.7209654136
 20
9.6027397568
 30
0.0
 10
13.7273900199
 20
9.621150272
 30
0.0
 10
13.7322114444
 20
9.6344762463
 30
0.0
 10
13.737082463
 20
9.6474542875
 30
0.0
 10
13.7420007707
 20
9.6600781977
 30
0.0
 10
13.7469639607
 20
9.6723419502
 30
0.0
 10
13.7519697225
 20
9.6842396704
 30
0.0
 10
13.7570155879
 20
9.6957656928
 30
0.0
 10
13.7620991907
 20
9.7069145038
 30
0.0
 10
13.7672180823
 20
9.7176807883
 30
0.0
 10
13.7723697892
 20
9.7280594227
 30
0.0
 10
13.7775519104
 20
9.7380454413
 30
0.0
 10
13.782761892
 20
9.7476341186
 30
0.0
 10
13.7879973227
 20
9.7568208717
 30
0.0
 10
13.7932556733
 20
9.7656013587
 30
0.0
 10
13.7985344545
 20
9.7739714205
 30
0.0
 10
13.8038312069
 20
9.7819270614
 30
0.0
 10
13.8091433325
 20
9.7894645486
 30
0.0
 10
13.8144684391
 20
9.7965803006
 30
0.0
 10
13.8198040374
 20
9.8032710492
 30
0.0
 10
13.8251477724
 20
9.8095336733
 30
0.0
 10
13.8304969015
 20
9.8153649315
 30
0.0
 10
13.8341372641
 20
9.8190360353
 30
0.0
 10
13.8359583926
 20
9.8207951105
 30
0.0
  0
SPLINE
  5
31F
100
AcDbEntity
  8
0
100
AcDbSpline
 62
7
  6
CONTINUOUS
 70
0
 71
3
 72
15
 73
11
 74
0
 42
0.0000001
 43
0.0000001
 44
0.0000000001
 40
0.0
 40
0.0
 40
0.0
 40
0.0
 40
0.1084409212
 40
0.2203195529
 40
0.336391487
 40
0.4573222829
 40
0.583691468
 40
0.7159969023
 40
0.8546558342
 40
1.0
 40
1.0
 40
1.0
 40
1.0
 10
13.8848756864
 20
9.8496028717
 30
0.0
 10
13.8828386732
 20
9.8491870787
 30
0.0
 10
13.8787381776
 20
9.8481444485
 30
0.0
 10
13.8726467889
 20
9.8460032653
 30
0.0
 10
13.8665356773
 20
9.8432664805
 30
0.0
 10
13.8604091174
 20
9.8399371215
 30
0.0
 10
13.8542703122
 20
9.8360178627
 30
0.0
 10
13.8481224803
 20
9.8315116716
 30
0.0
 10
13.8419693663
 20
9.8264218873
 30
0.0
 10
13.8379626099
 20
9.8227310359
 30
0.0
 10
13.8359583926
 20
9.8207951105
 30
0.0
  0
SPLINE
  5
320
100
AcDbEntity
  8
0
100
AcDbSpline
 62
7
  6
CONTINUOUS
 70
0
 71
3
 72
43
 73
39
 74
0
 42
0.0000001
 43
0.0000001
 44
0.0000000001
 40
0.0
 40
0.0
 40
0.0
 40
0.0
 40
0.0149723098
 40
0.0299476795
 40
0.0449291474
 40
0.05991972
 40
0.0749223413
 40
0.0899398895
 40
0.1049751458
 40
0.1200307886
 40
0.1502075383
 40
0.1804946787
 40
0.2109083087
 40
0.2414615673
 40
0.2721643694
 40
0.303023226
 40
0.3340411482
 40
0.3652176339
 40
0.3965487319
 40
0.4280271774
 40
0.4596425917
 40
0.4913817403
 40
0.5232288393
 40
0.555165905
 40
0.5871731364
 40
0.6192293252
 40
0.6513122868
 40
0.6833993039
 40
0.7154675788
 40
0.7474946857
 40
0.7794590188
 40
0.8113402295
 40
0.8431196416
 40
0.8747806564
 40
0.906309065
 40
0.9376935582
 40
0.9689254026
 40
1.0
 40
1.0
 40
1.0
 40
1.0
 10
13.2056919547
 20
6.0837790987
 30
0.0
 10
13.2028382602
 20
6.0810226406
 30
0.0
 10
13.1970200522
 20
6.0756219823
 30
0.0
 10
13.1879766925
 20
6.0678734089
 30
0.0
 10
13.1786288837
 20
6.0604868633
 30
0.0
 10
13.1689895901
 20
6.0534727848
 30
0.0
 10
13.1590720632
 20
6.0468407097
 30
0.0
 10
13.1488900141
 20
6.0405998072
 30
0.0
 10
13.1384572097
 20
6.0347586153
 30
0.0
 10
13.1242229355
 20
6.0275093063
 30
0.0
 10
13.1058657718
 20
6.0194844666
 30
0.0
 10
13.0830931376
 20
6.0115794839
 30
0.0
 10
13.0596806602
 20
6.005432943
 30
0.0
 10
13.0357581872
 20
6.0010788619
 30
0.0
 10
13.0114571997
 20
5.998540765
 30
0.0
 10
12.9869114833
 20
5.9978323306
 30
0.0
 10
12.962256016
 20
5.9989571286
 30
0.0
 10
12.9376263314
 20
6.0019086726
 30
0.0
 10
12.9131577534
 20
6.0066704548
 30
0.0
 10
12.8889846699
 20
6.013216052
 30
0.0
 10
12.8652398013
 20
6.0215092757
 30
0.0
 10
12.8420534805
 20
6.0315043721
 30
0.0
 10
12.8195529497
 20
6.0431462851
 30
0.0
 10
12.797861671
 20
6.0563709588
 30
0.0
 10
12.7770986593
 20
6.0711056889
 30
0.0
 10
12.757377837
 20
6.0872695198
 30
0.0
 10
12.7388074173
 20
6.1047736856
 30
0.0
 10
12.7214893167
 20
6.1235220932
 30
0.0
 10
12.7055186024
 20
6.1434118441
 30
0.0
 10
12.6909829745
 20
6.1643337934
 30
0.0
 10
12.6779622822
 20
6.1861731367
 30
0.0
 10
12.6665280971
 20
6.2088100435
 30
0.0
 10
12.6567433151
 20
6.2321202904
 30
0.0
 10
12.648661835
 20
6.2559759868
 30
0.0
 10
12.6423281967
 20
6.2802460793
 30
0.0
 10
12.6377774905
 20
6.3047977547
 30
0.0
 10
12.6350348555
 20
6.3294944465
 30
0.0
 10
12.6344205754
 20
6.3460116183
 30
0.0
 10
12.6344205754
 20
6.354246201
 30
0.0
  0
SPLINE
  5
321
100
AcDbEntity
  8
0
100
AcDbSpline
 62
7
  6
CONTINUOUS
 70
0
 71
3
 72
23
 73
19
 74
0
 42
0.0000001
 43
0.0000001
 44
0.0000000001
 40
0.0
 40
0.0
 40
0.0
 40
0.0
 40
0.0637764154
 40
0.1273451281
 40
0.190701988
 40
0.253856063
 40
0.3168132283
 40
0.3795820791
 40
0.4421733864
 40
0.5045993414
 40
0.5668738629
 40
0.629012379
 40
0.6910316532
 40
0.7529496461
 40
0.8147853522
 40
0.8765586034
 40
0.9382898574
 40
1.0
 40
1.0
 40
1.0
 40
1.0
 10
12.6344205754
 20
6.354246201
 30
0.0
 10
12.6344205754
 20
6.3595536341
 30
0.0
 10
12.6346746389
 20
6.3701530131
 30
0.0
 10
12.635821202
 20
6.3859875775
 30
0.0
 10
12.6377303032
 20
6.4016966672
 30
0.0
 10
12.6403973434
 20
6.417243296
 30
0.0
 10
12.6438163524
 20
6.4325919951
 30
0.0
 10
12.6479794207
 20
6.4477072822
 30
0.0
 10
12.6528769721
 20
6.4625543238
 30
0.0
 10
12.6584978201
 20
6.4770988672
 30
0.0
 10
12.6648289844
 20
6.4913073791
 30
0.0
 10
12.671855875
 20
6.5051471007
 30
0.0
 10
12.679562347
 20
6.5185860876
 30
0.0
 10
12.6879306698
 20
6.5315933304
 30
0.0
 10
12.6969414856
 20
6.5441388225
 30
0.0
 10
12.7065741333
 20
6.5561937207
 30
0.0
 10
12.7168060633
 20
6.5677298015
 30
0.0
 10
12.7240124875
 20
6.5750582611
 30
0.0
 10
12.727706204
 20
6.5786261183
 30
0.0
  0
SPLINE
  5
322
100
AcDbEntity
  8
0
100
AcDbSpline
 62
7
  6
CONTINUOUS
 70
0
 71
3
 72
101
 73
97
 74
0
 42
0.0000001
 43
0.0000001
 44
0.0000000001
 40
0.0
 40
0.0
 40
0.0
 40
0.0
 40
0.0039020765
 40
0.0079636664
 40
0.0121881897
 40
0.0165785956
 40
0.0211373523
 40
0.0258663076
 40
0.0307667646
 40
0.0358396074
 40
0.0410853169
 40
0.0465040492
 40
0.052095594
 40
0.0578594853
 40
0.0637949539
 40
0.0699010138
 40
0.0761764323
 40
0.0826197745
 40
0.0892294146
 40
0.0960035295
 40
0.102940151
 40
0.1100371195
 40
0.1172921605
 40
0.1247028223
 40
0.1322665507
 40
0.1399806399
 40
0.1478422789
 40
0.1558485364
 40
0.1722824666
 40
0.1892570691
 40
0.2067452731
 40
0.2247186184
 40
0.2431473755
 40
0.2620006562
 40
0.2812465184
 40
0.3008520639
 40
0.3207835336
 40
0.3410064002
 40
0.3614854578
 40
0.3821849099
 40
0.4030684562
 40
0.4240993783
 40
0.4452406247
 40
0.4664548958
 40
0.4877047278
 40
0.5089525773
 40
0.5301609052
 40
0.5512922612
 40
0.572309368
 40
0.5931752053
 40
0.6138530948
 40
0.6343067852
 40
0.6545005381
 40
0.6743992149
 40
0.693968365
 40
0.7131743162
 40
0.7319842671
 40
0.750366382
 40
0.7682898901
 40
0.7857251904
 40
0.8026439633
 40
0.819019292
 40
0.82699526
 40
0.8348259862
 40
0.8425085534
 40
0.8500401844
 40
0.8574181927
 40
0.8646400557
 40
0.8717033511
 40
0.8786058315
 40
0.8853453774
 40
0.8919200458
 40
0.8983280624
 40
0.9045678294
 40
0.9106379664
 40
0.9165372773
 40
0.922264833
 40
0.927819916
 40
0.9332021205
 40
0.9384113078
 40
0.9434476935
 40
0.9483118446
 40
0.953004735
 40
0.957527801
 40
0.961882963
 40
0.9660727396
 40
0.9701002525
 40
0.9739693806
 40
0.9776847793
 40
0.9812520442
 40
0.9846777729
 40
0.9879697077
 40
0.9911368398
 40
0.9941895034
 40
0.997139479
 40
1.0
 40
1.0
 40
1.0
 40
1.0
 10
13.8359583926
 20
7.6146203925
 30
0.0
 10
13.8385171249
 20
7.6170919384
 30
0.0
 10
13.8436319478
 20
7.6222480757
 30
0.0
 10
13.8511488902
 20
7.6304347301
 30
0.0
 10
13.8586583173
 20
7.639222617
 30
0.0
 10
13.8661565562
 20
7.6486072714
 30
0.0
 10
13.8736402801
 20
7.6585844608
 30
0.0
 10
13.8811061246
 20
7.6691495916
 30
0.0
 10
13.8885506532
 20
7.6802977647
 30
0.0
 10
13.8959703456
 20
7.6920238004
 30
0.0
 10
13.9033618252
 20
7.7043222039
 30
0.0
 10
13.9107215613
 20
7.7171872805
 30
0.0
 10
13.9180462068
 20
7.7306129887
 30
0.0
 10
13.9253322336
 20
7.7445930831
 30
0.0
 10
13.9325763012
 20
7.7591209921
 30
0.0
 10
13.9397749454
 20
7.7741899283
 30
0.0
 10
13.9469248155
 20
7.7897928152
 30
0.0
 10
13.9540225369
 20
7.8059223351
 30
0.0
 10
13.9610647483
 20
7.8225709184
 30
0.0
 10
13.9680481734
 20
7.8397307365
 30
0.0
 10
13.9749694594
 20
7.8573937375
 30
0.0
 10
13.9818254165
 20
7.8755516044
 30
0.0
 10
13.9886127338
 20
7.8941958123
 30
0.0
 10
13.9953282841
 20
7.9133175789
 30
0.0
 10
14.0019688384
 20
7.9329079183
 30
0.0
 10
14.0085313052
 20
7.9529576013
 30
0.0
 10
14.0150125833
 20
7.9734572093
 30
0.0
 10
14.0236166741
 20
8.0016218663
 30
0.0
 10
14.0341350491
 20
8.0378869627
 30
0.0
 10
14.0462783327
 20
8.0826740469
 30
0.0
 10
14.0580269101
 20
8.1290154708
 30
0.0
 10
14.0693585576
 20
8.1768239402
 30
0.0
 10
14.0802518398
 20
8.2260095372
 30
0.0
 10
14.0906861566
 20
8.2764796781
 30
0.0
 10
14.1006417797
 20
8.3281393525
 30
0.0
 10
14.1100998911
 20
8.3808912881
 30
0.0
 10
14.1190426182
 20
8.4346361421
 30
0.0
 10
14.1274530662
 20
8.4892726902
 30
0.0
 10
14.1353153491
 20
8.5446980199
 30
0.0
 10
14.1426146199
 20
8.6008077263
 30
0.0
 10
14.1493370979
 20
8.6574961095
 30
0.0
 10
14.1554700945
 20
8.7146563748
 30
0.0
 10
14.1610020366
 20
8.7721808352
 30
0.0
 10
14.1659224889
 20
8.8299611144
 30
0.0
 10
14.1702221725
 20
8.8878883519
 30
0.0
 10
14.1738929843
 20
8.9458534091
 30
0.0
 10
14.176928012
 20
9.0037470761
 30
0.0
 10
14.179321546
 20
9.0614602778
 30
0.0
 10
14.1810690905
 20
9.1188842812
 30
0.0
 10
14.182167372
 20
9.1759108998
 30
0.0
 10
14.1826143461
 20
9.2324326988
 30
0.0
 10
14.1824092011
 20
9.288343198
 30
0.0
 10
14.1815523605
 20
9.3435370737
 30
0.0
 10
14.1800454825
 20
9.397910358
 30
0.0
 10
14.1778914572
 20
9.4513606366
 30
0.0
 10
14.1750944037
 20
9.503787245
 30
0.0
 10
14.1716596618
 20
9.5550914596
 30
0.0
 10
14.1675937831
 20
9.6051766899
 30
0.0
 10
14.1629045162
 20
9.6539486479
 30
0.0
 10
14.1576008045
 20
9.70131559
 30
0.0
 10
14.1516927283
 20
9.7471882784
 30
0.0
 10
14.1462284257
 20
9.7844171663
 30
0.0
 10
14.1415529536
 20
9.8133826156
 30
0.0
 10
14.1379331875
 20
9.8344897357
 30
0.0
 10
14.1341712516
 20
9.8551603643
 30
0.0
 10
14.1302689661
 20
9.8753847881
 30
0.0
 10
14.1262281071
 20
9.8951534849
 30
0.0
 10
14.1220506583
 20
9.914457155
 30
0.0
 10
14.1177385221
 20
9.9332867164
 30
0.0
 10
14.1132937942
 20
9.9516333154
 30
0.0
 10
14.108718533
 20
9.9694883255
 30
0.0
 10
14.1040149156
 20
9.9868433555
 30
0.0
 10
14.0991851704
 20
10.0036902544
 30
0.0
 10
14.0942315401
 20
10.0200211074
 30
0.0
 10
14.0891564195
 20
10.0358282595
 30
0.0
 10
14.083962119
 20
10.0511042863
 30
0.0
 10
14.0786511744
 20
10.065842046
 30
0.0
 10
14.0732259853
 20
10.0800346228
 30
0.0
 10
14.067689184
 20
10.0936753994
 30
0.0
 10
14.0620432894
 20
10.1067579913
 30
0.0
 10
14.0562909814
 20
10.1192763104
 30
0.0
 10
14.050434917
 20
10.1312245282
 30
0.0
 10
14.0444777865
 20
10.1425970868
 30
0.0
 10
14.0384223791
 20
10.1533887352
 30
0.0
 10
14.0322713757
 20
10.1635944451
 30
0.0
 10
14.0260276602
 20
10.1732095509
 30
0.0
 10
14.0196939041
 20
10.1822295543
 30
0.0
 10
14.0132730169
 20
10.1906503535
 30
0.0
 10
14.0067676775
 20
10.198467979
 30
0.0
 10
14.0001807401
 20
10.205678827
 30
0.0
 10
13.9935149156
 20
10.2122794324
 30
0.0
 10
13.9867729522
 20
10.2182665802
 30
0.0
 10
13.9799576723
 20
10.2236372271
 30
0.0
 10
13.9730716428
 20
10.2283884676
 30
0.0
 10
13.966118413
 20
10.2325173687
 30
0.0
 10
13.9613736353
 20
10.2348862906
 30
0.0
 10
13.9589966715
 20
10.2359592333
 30
0.0
  0
SPLINE
  5
323
100
AcDbEntity
  8
0
100
AcDbSpline
 62
7
  6
CONTINUOUS
 70
0
 71
3
 72
15
 73
11
 74
0
 42
0.0000001
 43
0.0000001
 44
0.0000000001
 40
0.0
 40
0.0
 40
0.0
 40
0.0
 40
0.1432147794
 40
0.2805952906
 40
0.4123866275
 40
0.5388915559
 40
0.6604668112
 40
0.7775222193
 40
0.8905241636
 40
1.0
 40
1.0
 40
1.0
 40
1.0
 10
13.8359583926
 20
7.6146203925
 30
0.0
 10
13.8334434243
 20
7.6121911195
 30
0.0
 10
13.8284151958
 20
7.6075341723
 30
0.0
 10
13.8207148301
 20
7.6010413733
 30
0.0
 10
13.8130199813
 20
7.595193035
 30
0.0
 10
13.8053344341
 20
7.5899924606
 30
0.0
 10
13.7976614652
 20
7.5854424884
 30
0.0
 10
13.7900042566
 20
7.5815456758
 30
0.0
 10
13.7823669026
 20
7.5783048293
 30
0.0
 10
13.7772168356
 20
7.576558186
 30
0.0
 10
13.774653287
 20
7.575801526
 30
0.0
  0
SPLINE
  5
324
100
AcDbEntity
  8
0
100
AcDbSpline
 62
7
  6
CONTINUOUS
 70
0
 71
3
 72
23
 73
19
 74
0
 42
0.0000001
 43
0.0000001
 44
0.0000000001
 40
0.0
 40
0.0
 40
0.0
 40
0.0
 40
0.0781375591
 40
0.1532324207
 40
0.225404499
 40
0.2947995775
 40
0.3615914594
 40
0.4259789479
 40
0.4881876203
 40
0.5484707417
 40
0.6071106996
 40
0.6644176572
 40
0.7207259502
 40
0.7763899655
 40
0.8317774216
 40
0.8872621346
 40
0.943215743
 40
1.0
 40
1.0
 40
1.0
 40
1.0
 10
13.8359583926
 20
7.9951951906
 30
0.0
 10
13.8342609062
 20
7.9935555446
 30
0.0
 10
13.8308669573
 20
7.9904064557
 30
0.0
 10
13.8256741679
 20
7.9860000022
 30
0.0
 10
13.8204848272
 20
7.9820086056
 30
0.0
 10
13.8153012877
 20
7.9784344509
 30
0.0
 10
13.810125668
 20
7.9752791856
 30
0.0
 10
13.8049599433
 20
7.9725445185
 30
0.0
 10
13.7998062843
 20
7.9702318952
 30
0.0
 10
13.7946668578
 20
7.9683428861
 30
0.0
 10
13.7895439924
 20
7.9668788963
 30
0.0
 10
13.7844401819
 20
7.9658410377
 30
0.0
 10
13.7793580457
 20
7.9652304612
 30
0.0
 10
13.7743004278
 20
7.9650477209
 30
0.0
 10
13.7692702983
 20
7.965293219
 30
0.0
 10
13.7642705696
 20
7.9659669032
 30
0.0
 10
13.7593045518
 20
7.967068
 30
0.0
 10
13.7560478761
 20
7.968077336
 30
0.0
 10
13.7544308541
 20
7.9686490346
 30
0.0
  0
SPLINE
  5
325
100
AcDbEntity
  8
0
100
AcDbSpline
 62
7
  6
CONTINUOUS
 70
0
 71
3
 72
106
 73
102
 74
0
 42
0.0000001
 43
0.0000001
 44
0.0000000001
 40
0.0
 40
0.0
 40
0.0
 40
0.0
 40
0.0013572614
 40
0.0027170801
 40
0.0040819972
 40
0.0054545222
 40
0.0068371197
 40
0.0082321976
 40
0.0110684626
 40
0.0139816382
 40
0.0169879175
 40
0.0201018457
 40
0.0233363321
 40
0.0267026476
 40
0.0302105675
 40
0.0338684402
 40
0.037683369
 40
0.0416612997
 40
0.0458071843
 40
0.0501250681
 40
0.0546182117
 40
0.0592891763
 40
0.0641398973
 40
0.0691717727
 40
0.0743856914
 40
0.079782128
 40
0.0853611333
 40
0.0911224352
 40
0.0970654022
 40
0.1031891457
 40
0.1094924693
 40
0.1159739645
 40
0.1226319594
 40
0.1294645988
 40
0.1364698038
 40
0.1436453299
 40
0.1509887441
 40
0.1584974579
 40
0.1661687265
 40
0.1739996546
 40
0.1819872188
 40
0.1901282493
 40
0.1984194707
 40
0.2154385539
 40
0.2330160976
 40
0.2511218856
 40
0.2697242008
 40
0.2887899589
 40
0.3082848336
 40
0.3281733744
 40
0.3484191186
 40
0.3689846999
 40
0.3898319534
 40
0.4109220189
 40
0.432215442
 40
0.4536722745
 40
0.4752521738
 40
0.4969145015
 40
0.5186184218
 40
0.5403229993
 40
0.5619872972
 40
0.5835704748
 40
0.6050318861
 40
0.6263311775
 40
0.6474283868
 40
0.6682840422
 40
0.6888592629
 40
0.7091158602
 40
0.7290164402
 40
0.7485245095
 40
0.7676045831
 40
0.7862222967
 40
0.8043445243
 40
0.8219395028
 40
0.8389769656
 40
0.8472777114
 40
0.855428486
 40
0.8634259994
 40
0.8712670756
 40
0.8789486853
 40
0.8864679163
 40
0.8938220274
 40
0.9010084015
 40
0.9080246176
 40
0.9148683932
 40
0.9215376665
 40
0.9280305379
 40
0.9343453534
 40
0.9404806572
 40
0.9464352674
 40
0.9522082492
 40
0.9577989756
 40
0.9632071305
 40
0.9684327588
 40
0.9734763047
 40
0.9783386256
 40
0.9830210644
 40
0.9875255238
 40
0.9918546226
 40
0.9960115463
 40
1.0
 40
1.0
 40
1.0
 40
1.0
 10
13.9904155934
 20
10.2394995621
 30
0.0
 10
13.9916642686
 20
10.2394129626
 30
0.0
 10
13.9941604418
 20
10.2391834543
 30
0.0
 10
13.9978910466
 20
10.2386710222
 30
0.0
 10
14.0016090356
 20
10.2379903771
 30
0.0
 10
14.0053137922
 20
10.2371416675
 30
0.0
 10
14.0090049131
 20
10.2361249852
 30
0.0
 10
14.0139340157
 20
10.2345371776
 30
0.0
 10
14.0200722836
 20
10.2321204177
 30
0.0
 10
14.0273314315
 20
10.2285663145
 30
0.0
 10
14.0345218523
 20
10.2243446722
 30
0.0
 10
14.0416398979
 20
10.2194587179
 30
0.0
 10
14.0486824208
 20
10.2139113908
 30
0.0
 10
14.0556464561
 20
10.2077060637
 30
0.0
 10
14.0625288981
 20
10.2008460131
 30
0.0
 10
14.0693268451
 20
10.1933349116
 30
0.0
 10
14.0760371895
 20
10.1851764956
 30
0.0
 10
14.0826569661
 20
10.176374885
 30
0.0
 10
14.0891830638
 20
10.1669343931
 30
0.0
 10
14.0956124524
 20
10.1568596896
 30
0.0
 10
14.1019420538
 20
10.1461557234
 30
0.0
 10
14.1081688083
 20
10.1348277673
 30
0.0
 10
14.1142897086
 20
10.1228814212
 30
0.0
 10
14.1203017057
 20
10.1103225809
 30
0.0
 10
14.1262018891
 20
10.0971574901
 30
0.0
 10
14.1319872568
 20
10.0833926696
 30
0.0
 10
14.1376550094
 20
10.0690349896
 30
0.0
 10
14.1432022232
 20
10.054091588
 30
0.0
 10
14.1486262141
 20
10.0385699415
 30
0.0
 10
14.1539241648
 20
10.0224777915
 30
0.0
 10
14.1590935055
 20
10.0058232012
 30
0.0
 10
14.1641315492
 20
9.9886144983
 30
0.0
 10
14.1690358375
 20
9.9708603129
 30
0.0
 10
14.1738038327
 20
9.9525695394
 30
0.0
 10
14.1784331867
 20
9.9337513562
 30
0.0
 10
14.1829215239
 20
9.914415203
 30
0.0
 10
14.1872666089
 20
9.8945707874
 30
0.0
 10
14.1914662363
 20
9.8742280725
 30
0.0
 10
14.1955182875
 20
9.8533972762
 30
0.0
 10
14.1994207325
 20
9.8320888608
 30
0.0
 10
14.2031715727
 20
9.810313538
 30
0.0
 10
14.2067689698
 20
9.7880822312
 30
0.0
 10
14.2113986105
 20
9.7575821697
 30
0.0
 10
14.2167761041
 20
9.7183955626
 30
0.0
 10
14.2225347382
 20
9.670133147
 30
0.0
 10
14.227641972
 20
9.6203295984
 30
0.0
 10
14.2320874307
 20
9.5690850846
 30
0.0
 10
14.2358620561
 20
9.5165025254
 30
0.0
 10
14.2389581606
 20
9.4626876062
 30
0.0
 10
14.241369431
 20
9.4077484964
 30
0.0
 10
14.2430909439
 20
9.3517956464
 30
0.0
 10
14.2441191728
 20
9.2949415569
 30
0.0
 10
14.2444519955
 20
9.2373005518
 30
0.0
 10
14.2440886969
 20
9.1789885457
 30
0.0
 10
14.2430299704
 20
9.1201228093
 30
0.0
 10
14.2412779157
 20
9.0608217319
 30
0.0
 10
14.2388360341
 20
9.0012045817
 30
0.0
 10
14.2357092212
 20
8.9413912654
 30
0.0
 10
14.2319037564
 20
8.8815020854
 30
0.0
 10
14.2274272906
 20
8.821657497
 30
0.0
 10
14.2222888304
 20
8.7619778657
 30
0.0
 10
14.2164987199
 20
8.7025832236
 30
0.0
 10
14.2100686202
 20
8.6435930274
 30
0.0
 10
14.2030114859
 20
8.5851259169
 30
0.0
 10
14.1953415392
 20
8.5272994754
 30
0.0
 10
14.1870742418
 20
8.4702299918
 30
0.0
 10
14.1782262638
 20
8.4140322256
 30
0.0
 10
14.1688154508
 20
8.3588191736
 30
0.0
 10
14.1588607882
 20
8.3047018409
 30
0.0
 10
14.148382364
 20
8.2517890163
 30
0.0
 10
14.1374013284
 20
8.2001870449
 30
0.0
 10
14.1259398518
 20
8.1499996282
 30
0.0
 10
14.1140210825
 20
8.1013275464
 30
0.0
 10
14.1016690918
 20
8.0542686784
 30
0.0
 10
14.0909447926
 20
8.0161529891
 30
0.0
 10
14.082157675
 20
7.986545268
 30
0.0
 10
14.0755318202
 20
7.9649933633
 30
0.0
 10
14.0688167114
 20
7.9439135709
 30
0.0
 10
14.062015677
 20
7.9233164725
 30
0.0
 10
14.0551321911
 20
7.9032124138
 30
0.0
 10
14.0481696646
 20
7.8836114997
 30
0.0
 10
14.0411316675
 20
7.864523564
 30
0.0
 10
14.0340216717
 20
7.8459582013
 30
0.0
 10
14.0268433339
 20
7.827924716
 30
0.0
 10
14.0196001862
 20
7.8104321708
 30
0.0
 10
14.0122959544
 20
7.7934893215
 30
0.0
 10
14.004934233
 20
7.7771046778
 30
0.0
 10
13.9975187966
 20
7.7612864301
 30
0.0
 10
13.9900533046
 20
7.746042513
 30
0.0
 10
13.9825415585
 20
7.7313805357
 30
0.0
 10
13.9749872806
 20
7.7173078372
 30
0.0
 10
13.967394282
 20
7.703831434
 30
0.0
 10
13.9597663449
 20
7.6909580457
 30
0.0
 10
13.9521072607
 20
7.6786940778
 30
0.0
 10
13.944420848
 20
7.6670456138
 30
0.0
 10
13.9367108854
 20
7.6560184686
 30
0.0
 10
13.9289812418
 20
7.6456180681
 30
0.0
 10
13.9212355914
 20
7.6358495584
 30
0.0
 10
13.9134776258
 20
7.6267176145
 30
0.0
 10
13.9057113385
 20
7.6182271688
 30
0.0
 10
13.9004231954
 20
7.6128886126
 30
0.0
 10
13.8977776506
 20
7.6103332124
 30
0.0
  0
SPLINE
  5
326
100
AcDbEntity
  8
0
100
AcDbSpline
 62
7
  6
CONTINUOUS
 70
0
 71
3
 72
23
 73
19
 74
0
 42
0.0000001
 43
0.0000001
 44
0.0000000001
 40
0.0
 40
0.0
 40
0.0
 40
0.0
 40
0.0764222838
 40
0.1504661461
 40
0.2222018012
 40
0.2917109382
 40
0.3590900495
 40
0.4244475032
 40
0.4879038951
 40
0.5495927372
 40
0.6096609962
 40
0.6682702169
 40
0.7255962326
 40
0.7818281432
 40
0.8371677418
 40
0.8918276491
 40
0.9460291917
 40
1.0
 40
1.0
 40
1.0
 40
1.0
 10
13.8977776506
 20
7.6103332124
 30
0.0
 10
13.8958546659
 20
7.6084757518
 30
0.0
 10
13.8920094552
 20
7.6048791089
 30
0.0
 10
13.8861500107
 20
7.5997683158
 30
0.0
 10
13.8802932178
 20
7.5950298885
 30
0.0
 10
13.8744408272
 20
7.5906655021
 30
0.0
 10
13.8685944704
 20
7.5866763843
 30
0.0
 10
13.8627556324
 20
7.5830637287
 30
0.0
 10
13.8569258286
 20
7.5798286613
 30
0.0
 10
13.851106664
 20
7.5769721778
 30
0.0
 10
13.8452996989
 20
7.5744953571
 30
0.0
 10
13.8395065653
 20
7.5723991218
 30
0.0
 10
13.8337289443
 20
7.5706842356
 30
0.0
 10
13.8279685077
 20
7.5693515345
 30
0.0
 10
13.8222270748
 20
7.5684015959
 30
0.0
 10
13.8165063926
 20
7.5678348837
 30
0.0
 10
13.8108086932
 20
7.5676518215
 30
0.0
 10
13.8070233141
 20
7.5677857447
 30
0.0
 10
13.8051397077
 20
7.5679163788
 30
0.0
  0
SPLINE
  5
327
100
AcDbEntity
  8
0
100
AcDbSpline
 62
7
  6
CONTINUOUS
 70
0
 71
3
 72
100
 73
96
 74
0
 42
0.0000001
 43
0.0000001
 44
0.0000000001
 40
0.0
 40
0.0
 40
0.0
 40
0.0
 40
0.0040523119
 40
0.0082800044
 40
0.0126869653
 40
0.0172764822
 40
0.0220512783
 40
0.0270133742
 40
0.0321641017
 40
0.0375043177
 40
0.043034381
 40
0.0487542869
 40
0.0546636083
 40
0.0607615923
 40
0.0670471777
 40
0.0735189941
 40
0.0801754499
 40
0.0870146586
 40
0.0940345591
 40
0.1012328393
 40
0.1086070148
 40
0.1161544138
 40
0.1238721741
 40
0.1317573046
 40
0.1480165877
 40
0.1649054723
 40
0.1823947994
 40
0.2004534976
 40
0.2190487565
 40
0.2381461854
 40
0.2577099618
 40
0.2777029665
 40
0.2980869127
 40
0.3188224682
 40
0.3398693744
 40
0.361186562
 40
0.3827322639
 40
0.4044641304
 40
0.4263393398
 40
0.4483147091
 40
0.4703468031
 40
0.4923920441
 40
0.5144068208
 40
0.5363475983
 40
0.5581710281
 40
0.5798340578
 40
0.6012940405
 40
0.6225088455
 40
0.6434369695
 40
0.6640376497
 40
0.68427098
 40
0.7040980293
 40
0.7234809602
 40
0.7423831541
 40
0.7607693418
 40
0.7786057428
 40
0.7958602148
 40
0.812502421
 40
0.8285040161
 40
0.836256457
 40
0.8438391251
 40
0.8512491583
 40
0.8584838191
 40
0.8655406021
 40
0.8724171518
 40
0.879111349
 40
0.8856212871
 40
0.8919452863
 40
0.8980819581
 40
0.9040301471
 40
0.9097890589
 40
0.9153581851
 40
0.9207374238
 40
0.9259270667
 40
0.9309278556
 40
0.9357410701
 40
0.9403685185
 40
0.9448127083
 40
0.9490768278
 40
0.9531649335
 40
0.9570820015
 40
0.9608340748
 40
0.9644284196
 40
0.9678736202
 40
0.9711798009
 40
0.9743586848
 40
0.977423773
 40
0.9803903539
 40
0.9832755055
 40
0.9860979674
 40
0.9888778726
 40
0.9916363884
 40
0.994395213
 40
0.9971760372
 40
1.0
 40
1.0
 40
1.0
 40
1.0
 10
13.8359583926
 20
7.9951951906
 30
0.0
 10
13.8378714489
 20
7.9970430613
 30
0.0
 10
13.8416953395
 20
8.000907605
 30
0.0
 10
13.8473083269
 20
8.007061443
 30
0.0
 10
13.8529150378
 20
8.0136899433
 30
0.0
 10
13.8585123732
 20
8.0207893371
 30
0.0
 10
13.864097586
 20
8.0283560217
 30
0.0
 10
13.8696678372
 20
8.036386134
 30
0.0
 10
13.8752203196
 20
8.0448754899
 30
0.0
 10
13.8807520365
 20
8.0538197015
 30
0.0
 10
13.8862602009
 20
8.0632140587
 30
0.0
 10
13.8917418587
 20
8.0730536965
 30
0.0
 10
13.8971941946
 20
8.0833334521
 30
0.0
 10
13.9026143249
 20
8.0940479533
 30
0.0
 10
13.9079993797
 20
8.105191588
 30
0.0
 10
13.9133465755
 20
8.116758497
 30
0.0
 10
13.9186530213
 20
8.1287426274
 30
0.0
 10
13.9239160006
 20
8.1411376619
 30
0.0
 10
13.9291326624
 20
8.1539371022
 30
0.0
 10
13.934300307
 20
8.1671342028
 30
0.0
 10
13.9394161827
 20
8.1807220259
 30
0.0
 10
13.9444775759
 20
8.1946934159
 30
0.0
 10
13.9494818698
 20
8.2090410227
 30
0.0
 10
13.9561425547
 20
8.2288654387
 30
0.0
 10
13.964295363
 20
8.254536775
 30
0.0
 10
13.9737124117
 20
8.2864133346
 30
0.0
 10
13.9828403607
 20
8.3196003413
 30
0.0
 10
13.991659859
 20
8.3540278396
 30
0.0
 10
14.0001522139
 20
8.3896233878
 30
0.0
 10
14.0082994339
 20
8.4263119993
 30
0.0
 10
14.0160842617
 20
8.4640163714
 30
0.0
 10
14.0234902125
 20
8.5026570376
 30
0.0
 10
14.0305016073
 20
8.5421525433
 30
0.0
 10
14.0371036061
 20
8.5824196185
 30
0.0
 10
14.0432822382
 20
8.6233733552
 30
0.0
 10
14.0490244323
 20
8.6649273874
 30
0.0
 10
14.0543180473
 20
8.7069940747
 30
0.0
 10
14.0591518932
 20
8.7494846903
 30
0.0
 10
14.0635157546
 20
8.7923096102
 30
0.0
 10
14.0674004122
 20
8.8353785027
 30
0.0
 10
14.0707976617
 20
8.8786005198
 30
0.0
 10
14.0737003317
 20
8.9218844879
 30
0.0
 10
14.0761022978
 20
8.9651391021
 30
0.0
 10
14.0779985009
 20
9.0082731191
 30
0.0
 10
14.079384954
 20
9.0511955517
 30
0.0
 10
14.0802587504
 20
9.0938158616
 30
0.0
 10
14.0806180694
 20
9.1360441506
 30
0.0
 10
14.0804621811
 20
9.1777913504
 30
0.0
 10
14.0797914483
 20
9.2189694113
 30
0.0
 10
14.0786073255
 20
9.2594914898
 30
0.0
 10
14.0769123605
 20
9.2992721354
 30
0.0
 10
14.0747101888
 20
9.3382274729
 30
0.0
 10
14.072005524
 20
9.3762753821
 30
0.0
 10
14.0688041484
 20
9.4133356705
 30
0.0
 10
14.0651129033
 20
9.4493302518
 30
0.0
 10
14.0609396718
 20
9.4841832963
 30
0.0
 10
14.0562933727
 20
9.5178214642
 30
0.0
 10
14.0511839089
 20
9.5501738402
 30
0.0
 10
14.0465012142
 20
9.5762739148
 30
0.0
 10
14.042521458
 20
9.5964537947
 30
0.0
 10
14.0394592259
 20
9.6110657506
 30
0.0
 10
14.0362898148
 20
9.6253068768
 30
0.0
 10
14.0330148046
 20
9.6391696863
 30
0.0
 10
14.0296360061
 20
9.6526468824
 30
0.0
 10
14.0261551485
 20
9.6657313725
 30
0.0
 10
14.0225740998
 20
9.6784162767
 30
0.0
 10
14.0188947583
 20
9.6906949303
 30
0.0
 10
14.0151190247
 20
9.7025608777
 30
0.0
 10
14.0112489609
 20
9.7140079026
 30
0.0
 10
14.0072865167
 20
9.7250299881
 30
0.0
 10
14.0032338659
 20
9.7356213792
 30
0.0
 10
13.9990930606
 20
9.7457765224
 30
0.0
 10
13.9948663116
 20
9.7554901242
 30
0.0
 10
13.9905558183
 20
9.7647571235
 30
0.0
 10
13.9861637786
 20
9.7735726861
 30
0.0
 10
13.9816925348
 20
9.7819322661
 30
0.0
 10
13.9771442723
 20
9.7898314949
 30
0.0
 10
13.9725214067
 20
9.7972663395
 30
0.0
 10
13.9678261565
 20
9.8042329218
 30
0.0
 10
13.9630609027
 20
9.8107276801
 30
0.0
 10
13.9582279353
 20
9.8167472503
 30
0.0
 10
13.9533295204
 20
9.8222884702
 30
0.0
 10
13.9483680095
 20
9.827348469
 30
0.0
 10
13.9433455582
 20
9.8319243995
 30
0.0
 10
13.9382645393
 20
9.8360137701
 30
0.0
 10
13.9331271315
 20
9.8396139839
 30
0.0
 10
13.9279357665
 20
9.8427227331
 30
0.0
 10
13.9226929135
 20
9.8453376765
 30
0.0
 10
13.9174013031
 20
9.8474566019
 30
0.0
 10
13.9120640098
 20
9.8490776218
 30
0.0
 10
13.9066843655
 20
9.8501989186
 30
0.0
 10
13.901266145
 20
9.8508195017
 30
0.0
 10
13.895813092
 20
9.8509385671
 30
0.0
 10
13.8903296793
 20
9.8505564246
 30
0.0
 10
13.8866917761
 20
9.84997357
 30
0.0
 10
13.8848756864
 20
9.8496028717
 30
0.0
  0
SPLINE
  5
328
100
AcDbEntity
  8
0
100
AcDbSpline
 62
7
  6
CONTINUOUS
 70
0
 71
3
 72
73
 73
69
 74
0
 42
0.0000001
 43
0.0000001
 44
0.0000000001
 40
0.0
 40
0.0
 40
0.0
 40
0.0
 40
0.004468656
 40
0.009069814
 40
0.0138038478
 40
0.0186709063
 40
0.0236709904
 40
0.0288039292
 40
0.0394664965
 40
0.05065456
 40
0.062361669
 40
0.0745795928
 40
0.0872985571
 40
0.1005073535
 40
0.1141934901
 40
0.1283433469
 40
0.1429422243
 40
0.1579744351
 40
0.1734234206
 40
0.1892717767
 40
0.2055013136
 40
0.2220931517
 40
0.2390277414
 40
0.2562849051
 40
0.2738439205
 40
0.291683541
 40
0.3097820282
 40
0.3281172265
 40
0.3466665858
 40
0.3654071912
 40
0.3843158288
 40
0.4033690118
 40
0.4225430115
 40
0.4611572388
 40
0.4999659745
 40
0.538775022
 40
0.5773901822
 40
0.5965648797
 40
0.6156189133
 40
0.6345285529
 40
0.6532703101
 40
0.6718209691
 40
0.6901576131
 40
0.7082576892
 40
0.7260990394
 40
0.7436599225
 40
0.7609190884
 40
0.7778558116
 40
0.7944499107
 40
0.8106818317
 40
0.8265326909
 40
0.8419842938
 40
0.8570192309
 40
0.871620938
 40
0.8857737222
 40
0.899462877
 40
0.9126747754
 40
0.9253969181
 40
0.9376180875
 40
0.9493285003
 40
0.960519915
 40
0.9711858672
 40
0.9763205083
 40
0.9813222999
 40
0.9861910673
 40
0.9909268045
 40
0.9955296552
 40
1.0
 40
1.0
 40
1.0
 40
1.0
 10
13.6611503863
 20
8.1005346882
 30
0.0
 10
13.6625592995
 20
8.1025869694
 30
0.0
 10
13.6653720682
 20
8.1067847143
 30
0.0
 10
13.6695182675
 20
8.1132614736
 30
0.0
 10
13.6736516703
 20
8.120008109
 30
0.0
 10
13.6777709198
 20
8.1270223112
 30
0.0
 10
13.6818746596
 20
8.1343017939
 30
0.0
 10
13.6873938207
 20
8.1444876921
 30
0.0
 10
13.6942350481
 20
8.1578752998
 30
0.0
 10
13.702260254
 20
8.1747615853
 30
0.0
 10
13.7101913118
 20
8.1926442961
 30
0.0
 10
13.7180176358
 20
8.2114996449
 30
0.0
 10
13.725728751
 20
8.2313027285
 30
0.0
 10
13.7333143519
 20
8.2520272643
 30
0.0
 10
13.7407643101
 20
8.2736457218
 30
0.0
 10
13.7480686245
 20
8.2961293669
 30
0.0
 10
13.7552175168
 20
8.3194482806
 30
0.0
 10
13.762201437
 20
8.3435714052
 30
0.0
 10
13.7690110101
 20
8.3684666113
 30
0.0
 10
13.7756371151
 20
8.3941007216
 30
0.0
 10
13.7820709048
 20
8.4204395553
 30
0.0
 10
13.7883037476
 20
8.4474479952
 30
0.0
 10
13.7943272934
 20
8.4750900212
 30
0.0
 10
13.8001335055
 20
8.5033287539
 30
0.0
 10
13.8057145996
 20
8.5321265224
 30
0.0
 10
13.811063097
 20
8.5614449051
 30
0.0
 10
13.8161718679
 20
8.5912447747
 30
0.0
 10
13.8210340675
 20
8.6214863654
 30
0.0
 10
13.8256431782
 20
8.65212932
 30
0.0
 10
13.8299930628
 20
8.6831327395
 30
0.0
 10
13.8340778922
 20
8.7144552363
 30
0.0
 10
13.8378922077
 20
8.7460550378
 30
0.0
 10
13.8426213242
 20
8.7885996072
 30
0.0
 10
13.8478175225
 20
8.8421628113
 30
0.0
 10
13.8528880305
 20
8.9067169288
 30
0.0
 10
13.856780705
 20
8.9713532849
 30
0.0
 10
13.8590311542
 20
9.0251219488
 30
0.0
 10
13.860222624
 20
9.0679133459
 30
0.0
 10
13.8608087128
 20
9.0997385465
 30
0.0
 10
13.8610886029
 20
9.1313267094
 30
0.0
 10
13.8610619315
 20
9.1626357059
 30
0.0
 10
13.8607287568
 20
9.1936237376
 30
0.0
 10
13.8600895089
 20
9.2242494468
 30
0.0
 10
13.8591450693
 20
9.2544719597
 30
0.0
 10
13.8578967257
 20
9.2842509428
 30
0.0
 10
13.8563461366
 20
9.3135466551
 30
0.0
 10
13.8544954019
 20
9.3423200062
 30
0.0
 10
13.8523470295
 20
9.3705326066
 30
0.0
 10
13.8499038861
 20
9.3981468156
 30
0.0
 10
13.8471692664
 20
9.4251257999
 30
0.0
 10
13.8441468701
 20
9.4514335815
 30
0.0
 10
13.8408407394
 20
9.4770350797
 30
0.0
 10
13.8372553248
 20
9.5018961691
 30
0.0
 10
13.8333954746
 20
9.5259837277
 30
0.0
 10
13.8292663586
 20
9.5492656698
 30
0.0
 10
13.8248735283
 20
9.5717110058
 30
0.0
 10
13.8202229207
 20
9.5932898888
 30
0.0
 10
13.8153207656
 20
9.6139736462
 30
0.0
 10
13.8101736389
 20
9.6337348163
 30
0.0
 10
13.8047884757
 20
9.6525472799
 30
0.0
 10
13.799172476
 20
9.6703860076
 30
0.0
 10
13.7942459288
 20
9.6845951899
 30
0.0
 10
13.7901865747
 20
9.6954498208
 30
0.0
 10
13.7871276251
 20
9.7032294116
 30
0.0
 10
13.7840166843
 20
9.7107484338
 30
0.0
 10
13.7808547824
 20
9.7180044304
 30
0.0
 10
13.7776429453
 20
9.7249949275
 30
0.0
 10
13.7754369813
 20
9.7295430577
 30
0.0
 10
13.77432506
 20
9.7317713329
 30
0.0
  0
SPLINE
  5
329
100
AcDbEntity
  8
0
100
AcDbSpline
 62
7
  6
CONTINUOUS
 70
0
 71
3
 72
54
 73
50
 74
0
 42
0.0000001
 43
0.0000001
 44
0.0000000001
 40
0.0
 40
0.0
 40
0.0
 40
0.0
 40
0.0112171566
 40
0.0228200438
 40
0.0348020836
 40
0.0471560147
 40
0.0598739066
 40
0.0729472822
 40
0.0863670551
 40
0.1001236916
 40
0.1142071087
 40
0.1286068385
 40
0.1433119336
 40
0.158311095
 40
0.1735926198
 40
0.1891444709
 40
0.2049542811
 40
0.2210093622
 40
0.2538028841
 40
0.2874185354
 40
0.3217457107
 40
0.3566706328
 40
0.3920768987
 40
0.4278460141
 40
0.463857921
 40
0.499991521
 40
0.5361251959
 40
0.5721373271
 40
0.607906815
 40
0.6433135996
 40
0.678239184
 40
0.7125671622
 40
0.746183754
 40
0.7789783509
 40
0.8108440765
 40
0.8263965831
 40
0.8416787809
 40
0.8566786549
 40
0.8713844832
 40
0.8857849768
 40
0.8998691854
 40
0.9136266323
 40
0.9270472511
 40
0.9401214805
 40
0.9528402657
 40
0.9651950909
 40
0.9771780633
 40
0.9887818811
 40
1.0
 40
1.0
 40
1.0
 40
1.0
 10
13.6216013145
 20
8.2614925303
 30
0.0
 10
13.6235995641
 20
8.2660711904
 30
0.0
 10
13.6275695305
 20
8.2754277818
 30
0.0
 10
13.6333549706
 20
8.2898079847
 30
0.0
 10
13.6390675111
 20
8.3047605565
 30
0.0
 10
13.6447019552
 20
8.3202720531
 30
0.0
 10
13.6502532887
 20
8.3363286098
 30
0.0
 10
13.6557164574
 20
8.3529158526
 30
0.0
 10
13.6610866153
 20
8.3700189164
 30
0.0
 10
13.6663588576
 20
8.3876224829
 30
0.0
 10
13.6715285131
 20
8.4057107655
 30
0.0
 10
13.676590865
 20
8.4242675515
 30
0.0
 10
13.6815414137
 20
8.4432761954
 30
0.0
 10
13.6863756654
 20
8.462719649
 30
0.0
 10
13.6910892963
 20
8.4825804703
 30
0.0
 10
13.6956780555
 20
8.5028408356
 30
0.0
 10
13.7001378247
 20
8.5234825827
 30
0.0
 10
13.7059477006
 20
8.5516872725
 30
0.0
 10
13.7128493884
 20
8.5877617978
 30
0.0
 10
13.7204988077
 20
8.631971349
 30
0.0
 10
13.7275451539
 20
8.6772419022
 30
0.0
 10
13.7339630346
 20
8.7234109627
 30
0.0
 10
13.7397293158
 20
8.7703129397
 30
0.0
 10
13.744823231
 20
8.8177795478
 30
0.0
 10
13.7492264473
 20
8.8656404719
 30
0.0
 10
13.7529231322
 20
8.9137239686
 30
0.0
 10
13.7559000093
 20
8.961857491
 30
0.0
 10
13.7581464066
 20
9.0098683107
 30
0.0
 10
13.7596542948
 20
9.0575841425
 30
0.0
 10
13.7604183175
 20
9.1048337659
 30
0.0
 10
13.7604358121
 20
9.1514476488
 30
0.0
 10
13.7597068186
 20
9.1972585458
 30
0.0
 10
13.7582340974
 20
9.2421021664
 30
0.0
 10
13.7560230671
 20
9.2858175539
 30
0.0
 10
13.7535526397
 20
9.3214583419
 30
0.0
 10
13.7512034306
 20
9.349284238
 30
0.0
 10
13.7492768552
 20
9.3696065523
 30
0.0
 10
13.7471732356
 20
9.3895321725
 30
0.0
 10
13.7448943864
 20
9.4090432466
 30
0.0
 10
13.7424424354
 20
9.4281222625
 30
0.0
 10
13.7398195337
 20
9.4467521132
 30
0.0
 10
13.7370280999
 20
9.4649160899
 30
0.0
 10
13.7340706168
 20
9.48259791
 30
0.0
 10
13.730949773
 20
9.499781725
 30
0.0
 10
13.7276683852
 20
9.5164521413
 30
0.0
 10
13.7242293945
 20
9.5325942233
 30
0.0
 10
13.7206359393
 20
9.5481935473
 30
0.0
 10
13.7168912215
 20
9.5632360753
 30
0.0
 10
13.7142510774
 20
9.5730520422
 30
0.0
 10
13.7129040981
 20
9.5778631813
 30
0.0
  0
SPLINE
  5
32A
100
AcDbEntity
  8
0
100
AcDbSpline
 62
4
  6
CONTINUOUS
 70
0
 71
3
 72
403
 73
399
 74
0
 42
0.0000001
 43
0.0000001
 44
0.0000000001
 40
0.0
 40
0.0
 40
0.0
 40
0.0
 40
0.015625
 40
0.0234375
 40
0.03125
 40
0.0390625
 40
0.04296875
 40
0.046875
 40
0.05078125
 40
0.0546875
 40
0.056640625
 40
0.05859375
 40
0.0595703125
 40
0.060546875
 40
0.0615234375
 40
0.0620117188
 40
0.0622558594
 40
0.0625
 40
0.0627441406
 40
0.0629882812
 40
0.0634765625
 40
0.064453125
 40
0.0654296875
 40
0.06640625
 40
0.068359375
 40
0.0703125
 40
0.07421875
 40
0.078125
 40
0.08203125
 40
0.0859375
 40
0.09375
 40
0.1015625
 40
0.10546875
 40
0.109375
 40
0.11328125
 40
0.1171875
 40
0.119140625
 40
0.12109375
 40
0.1220703125
 40
0.123046875
 40
0.1240234375
 40
0.1245117188
 40
0.1247558594
 40
0.125
 40
0.1252441406
 40
0.1254882812
 40
0.1259765625
 40
0.126953125
 40
0.1279296875
 40
0.12890625
 40
0.130859375
 40
0.1328125
 40
0.13671875
 40
0.140625
 40
0.14453125
 40
0.1484375
 40
0.15625
 40
0.1640625
 40
0.16796875
 40
0.171875
 40
0.17578125
 40
0.1796875
 40
0.181640625
 40
0.18359375
 40
0.1845703125
 40
0.185546875
 40
0.1865234375
 40
0.1870117188
 40
0.1872558594
 40
0.1875
 40
0.1877441406
 40
0.1879882812
 40
0.1884765625
 40
0.189453125
 40
0.1904296875
 40
0.19140625
 40
0.193359375
 40
0.1953125
 40
0.19921875
 40
0.203125
 40
0.20703125
 40
0.2109375
 40
0.21875
 40
0.2265625
 40
0.23046875
 40
0.234375
 40
0.23828125
 40
0.2421875
 40
0.244140625
 40
0.24609375
 40
0.2470703125
 40
0.248046875
 40
0.2490234375
 40
0.2495117188
 40
0.2497558594
 40
0.25
 40
0.2502441406
 40
0.2504882812
 40
0.2509765625
 40
0.251953125
 40
0.2529296875
 40
0.25390625
 40
0.255859375
 40
0.2578125
 40
0.26171875
 40
0.265625
 40
0.26953125
 40
0.2734375
 40
0.28125
 40
0.2890625
 40
0.29296875
 40
0.296875
 40
0.30078125
 40
0.3046875
 40
0.306640625
 40
0.30859375
 40
0.3095703125
 40
0.310546875
 40
0.3115234375
 40
0.3120117188
 40
0.3122558594
 40
0.3125
 40
0.3127441406
 40
0.3129882812
 40
0.3134765625
 40
0.314453125
 40
0.3154296875
 40
0.31640625
 40
0.318359375
 40
0.3203125
 40
0.32421875
 40
0.328125
 40
0.33203125
 40
0.3359375
 40
0.34375
 40
0.3515625
 40
0.35546875
 40
0.359375
 40
0.36328125
 40
0.3671875
 40
0.369140625
 40
0.37109375
 40
0.3720703125
 40
0.373046875
 40
0.3740234375
 40
0.3745117188
 40
0.3747558594
 40
0.375
 40
0.3752441406
 40
0.3754882812
 40
0.3759765625
 40
0.376953125
 40
0.3779296875
 40
0.37890625
 40
0.380859375
 40
0.3828125
 40
0.38671875
 40
0.390625
 40
0.39453125
 40
0.3984375
 40
0.40625
 40
0.4140625
 40
0.41796875
 40
0.421875
 40
0.42578125
 40
0.4296875
 40
0.431640625
 40
0.43359375
 40
0.4345703125
 40
0.435546875
 40
0.4365234375
 40
0.4370117188
 40
0.4372558594
 40
0.4375
 40
0.4377441406
 40
0.4379882812
 40
0.4384765625
 40
0.439453125
 40
0.4404296875
 40
0.44140625
 40
0.443359375
 40
0.4453125
 40
0.44921875
 40
0.453125
 40
0.45703125
 40
0.4609375
 40
0.46875
 40
0.4765625
 40
0.48046875
 40
0.484375
 40
0.48828125
 40
0.4921875
 40
0.494140625
 40
0.49609375
 40
0.4970703125
 40
0.498046875
 40
0.4990234375
 40
0.4995117188
 40
0.4997558594
 40
0.5
 40
0.5002441406
 40
0.5004882812
 40
0.5009765625
 40
0.501953125
 40
0.5029296875
 40
0.50390625
 40
0.505859375
 40
0.5078125
 40
0.51171875
 40
0.515625
 40
0.51953125
 40
0.5234375
 40
0.53125
 40
0.5390625
 40
0.54296875
 40
0.546875
 40
0.55078125
 40
0.5546875
 40
0.556640625
 40
0.55859375
 40
0.5595703125
 40
0.560546875
 40
0.5615234375
 40
0.5620117188
 40
0.5622558594
 40
0.5625
 40
0.5627441406
 40
0.5629882812
 40
0.5634765625
 40
0.564453125
 40
0.5654296875
 40
0.56640625
 40
0.568359375
 40
0.5703125
 40
0.57421875
 40
0.578125
 40
0.58203125
 40
0.5859375
 40
0.59375
 40
0.6015625
 40
0.60546875
 40
0.609375
 40
0.61328125
 40
0.6171875
 40
0.619140625
 40
0.62109375
 40
0.6220703125
 40
0.623046875
 40
0.6240234375
 40
0.6245117188
 40
0.6247558594
 40
0.625
 40
0.6252441406
 40
0.6254882812
 40
0.6259765625
 40
0.626953125
 40
0.6279296875
 40
0.62890625
 40
0.630859375
 40
0.6328125
 40
0.63671875
 40
0.640625
 40
0.64453125
 40
0.6484375
 40
0.65625
 40
0.6640625
 40
0.66796875
 40
0.671875
 40
0.67578125
 40
0.6796875
 40
0.681640625
 40
0.68359375
 40
0.6845703125
 40
0.685546875
 40
0.6865234375
 40
0.6870117188
 40
0.6872558594
 40
0.6875
 40
0.6877441406
 40
0.6879882812
 40
0.6884765625
 40
0.689453125
 40
0.6904296875
 40
0.69140625
 40
0.693359375
 40
0.6953125
 40
0.69921875
 40
0.703125
 40
0.70703125
 40
0.7109375
 40
0.71875
 40
0.7265625
 40
0.73046875
 40
0.734375
 40
0.73828125
 40
0.7421875
 40
0.744140625
 40
0.74609375
 40
0.7470703125
 40
0.748046875
 40
0.7490234375
 40
0.7495117188
 40
0.7497558594
 40
0.75
 40
0.7502441406
 40
0.7504882812
 40
0.7509765625
 40
0.751953125
 40
0.7529296875
 40
0.75390625
 40
0.755859375
 40
0.7578125
 40
0.76171875
 40
0.765625
 40
0.76953125
 40
0.7734375
 40
0.78125
 40
0.7890625
 40
0.79296875
 40
0.796875
 40
0.80078125
 40
0.8046875
 40
0.806640625
 40
0.80859375
 40
0.8095703125
 40
0.810546875
 40
0.8115234375
 40
0.8120117188
 40
0.8122558594
 40
0.8125
 40
0.8127441406
 40
0.8129882812
 40
0.8134765625
 40
0.814453125
 40
0.8154296875
 40
0.81640625
 40
0.818359375
 40
0.8203125
 40
0.82421875
 40
0.828125
 40
0.83203125
 40
0.8359375
 40
0.84375
 40
0.8515625
 40
0.85546875
 40
0.859375
 40
0.86328125
 40
0.8671875
 40
0.869140625
 40
0.87109375
 40
0.8720703125
 40
0.873046875
 40
0.8740234375
 40
0.8745117188
 40
0.8747558594
 40
0.875
 40
0.8752441406
 40
0.8754882812
 40
0.8759765625
 40
0.876953125
 40
0.8779296875
 40
0.87890625
 40
0.880859375
 40
0.8828125
 40
0.88671875
 40
0.890625
 40
0.89453125
 40
0.8984375
 40
0.90625
 40
0.9140625
 40
0.91796875
 40
0.921875
 40
0.92578125
 40
0.9296875
 40
0.931640625
 40
0.93359375
 40
0.9345703125
 40
0.935546875
 40
0.9365234375
 40
0.9370117188
 40
0.9372558594
 40
0.9375
 40
0.9377441406
 40
0.9379882812
 40
0.9384765625
 40
0.939453125
 40
0.9404296875
 40
0.94140625
 40
0.943359375
 40
0.9453125
 40
0.94921875
 40
0.953125
 40
0.95703125
 40
0.9609375
 40
0.96875
 40
0.9765625
 40
0.984375
 40
1.0
 40
1.0
 40
1.0
 40
1.0
 10
9.1628829275
 20
7.7618366548
 30
0.0
 10
9.1566165536
 20
7.761656806
 30
0.0
 10
9.1472169929
 20
7.7613870328
 30
0.0
 10
9.1346842452
 20
7.7610273352
 30
0.0
 10
9.1252846845
 20
7.7607575618
 30
0.0
 10
9.1174517171
 20
7.7605327511
 30
0.0
 10
9.1111853434
 20
7.7603529016
 30
0.0
 10
9.1064855626
 20
7.760218017
 30
0.0
 10
9.1017857837
 20
7.7600831229
 30
0.0
 10
9.0978692955
 20
7.7599707406
 30
0.0
 10
9.0947361179
 20
7.7598807688
 30
0.0
 10
9.0927778525
 20
7.7598246867
 30
0.0
 10
9.0912113074
 20
7.7597794769
 30
0.0
 10
9.0900362146
 20
7.7597465114
 30
0.0
 10
9.0890575558
 20
7.7597160443
 30
0.0
 10
9.0883713462
 20
7.7597005966
 30
0.0
 10
9.0879810196
 20
7.7596825893
 30
0.0
 10
9.0876832234
 20
7.7596949443
 30
0.0
 10
9.0874047353
 20
7.7596084474
 30
0.0
 10
9.087026683
 20
7.7595275988
 30
0.0
 10
9.0863682294
 20
7.7593700487
 30
0.0
 10
9.0854259408
 20
7.7591533762
 30
0.0
 10
9.0842958967
 20
7.7588897741
 30
0.0
 10
9.0827889259
 20
7.7585395603
 30
0.0
 10
9.0809052965
 20
7.7581013632
 30
0.0
 10
9.0778914424
 20
7.757400488
 30
0.0
 10
9.074124141
 20
7.7565243116
 30
0.0
 10
9.0696033723
 20
7.7554729352
 30
0.0
 10
9.0650826055
 20
7.7544215494
 30
0.0
 10
9.0590549158
 20
7.753019705
 30
0.0
 10
9.0515203039
 20
7.7512673982
 30
0.0
 10
9.0439856917
 20
7.7495150923
 30
0.0
 10
9.0379580024
 20
7.7481132465
 30
0.0
 10
9.0334372344
 20
7.7470618646
 30
0.0
 10
9.02891647
 20
7.7460104737
 30
0.0
 10
9.0251491551
 20
7.7451343427
 30
0.0
 10
9.0221353285
 20
7.7444333748
 30
0.0
 10
9.0202516293
 20
7.7439954136
 30
0.0
 10
9.0187448017
 20
7.7436447156
 30
0.0
 10
9.0176143202
 20
7.7433825927
 30
0.0
 10
9.0166734003
 20
7.743161292
 30
0.0
 10
9.0160125033
 20
7.743012004
 30
0.0
 10
9.0156383658
 20
7.7429179176
 30
0.0
 10
9.0153478527
 20
7.7428720832
 30
0.0
 10
9.0150952204
 20
7.7427317164
 30
0.0
 10
9.014745164
 20
7.7425775347
 30
0.0
 10
9.0141387217
 20
7.7422923535
 30
0.0
 10
9.0132691569
 20
7.7418929838
 30
0.0
 10
9.0122270568
 20
7.7414103021
 30
0.0
 10
9.0108371088
 20
7.7407679274
 30
0.0
 10
9.0090998386
 20
7.7399645479
 30
0.0
 10
9.0063201141
 20
7.7386793705
 30
0.0
 10
9.0028454902
 20
7.7370728198
 30
0.0
 10
8.9986759279
 20
7.7351449928
 30
0.0
 10
8.9945063693
 20
7.7332171567
 30
0.0
 10
8.9889469565
 20
7.7306467119
 30
0.0
 10
8.981997691
 20
7.7274336546
 30
0.0
 10
8.9750484251
 20
7.7242205981
 30
0.0
 10
8.9694890129
 20
7.7216501519
 30
0.0
 10
8.9653194525
 20
7.7197223197
 30
0.0
 10
8.9611498967
 20
7.7177944785
 30
0.0
 10
8.9576752525
 20
7.7161879718
 30
0.0
 10
8.9548955695
 20
7.7149027047
 30
0.0
 10
8.9531581938
 20
7.7140995534
 30
0.0
 10
8.9517684623
 20
7.7134567102
 30
0.0
 10
8.950725701
 20
7.71297546
 30
0.0
 10
8.9498582049
 20
7.7125716118
 30
0.0
 10
8.9492480696
 20
7.7122944253
 30
0.0
 10
8.9489039303
 20
7.712127434
 30
0.0
 10
8.9486331227
 20
7.7120264142
 30
0.0
 10
8.9484108727
 20
7.7118327991
 30
0.0
 10
8.9480976019
 20
7.711606944
 30
0.0
 10
8.9475572695
 20
7.7111966491
 30
0.0
 10
8.9467812404
 20
7.710618381
 30
0.0
 10
8.9458517713
 20
7.7099210918
 30
0.0
 10
8.9446118625
 20
7.708992549
 30
0.0
 10
8.9430621876
 20
7.7078314679
 30
0.0
 10
8.9405825898
 20
7.7059739631
 30
0.0
 10
8.937483133
 20
7.7036520048
 30
0.0
 10
8.9337637675
 20
7.7008656881
 30
0.0
 10
8.9300444067
 20
7.6980793624
 30
0.0
 10
8.9250852573
 20
7.6943642647
 30
0.0
 10
8.9188863211
 20
7.6897203914
 30
0.0
 10
8.9126873845
 20
7.6850765188
 30
0.0
 10
8.9077282359
 20
7.68136142
 30
0.0
 10
8.9040088725
 20
7.6785750976
 30
0.0
 10
8.9002895166
 20
7.6757887685
 30
0.0
 10
8.8971900301
 20
7.6734668487
 30
0.0
 10
8.8947104928
 20
7.6716092657
 30
0.0
 10
8.8931606638
 20
7.6704483836
 30
0.0
 10
8.8919210715
 20
7.6695194321
 30
0.0
 10
8.8909906354
 20
7.6688233915
 30
0.0
 10
8.8902176319
 20
7.6682412169
 30
0.0
 10
8.8896718981
 20
7.6678378958
 30
0.0
 10
8.8893672818
 20
7.6676008669
 30
0.0
 10
8.8891184482
 20
7.6674415742
 30
0.0
 10
8.8889474842
 20
7.6672116452
 30
0.0
 10
8.8886923704
 20
7.6669297119
 30
0.0
 10
8.8882585766
 20
7.666424849
 30
0.0
 10
8.8876322547
 20
7.6657096179
 30
0.0
 10
8.8868835005
 20
7.6648487718
 30
0.0
 10
8.8858841724
 20
7.6637018742
 30
0.0
 10
8.884635351
 20
7.6622679449
 30
0.0
 10
8.8826370474
 20
7.6599738298
 30
0.0
 10
8.8801392329
 20
7.6571061271
 30
0.0
 10
8.8771418276
 20
7.653664909
 30
0.0
 10
8.8741444298
 20
7.6502236842
 30
0.0
 10
8.8701478967
 20
7.6456353868
 30
0.0
 10
8.8651522314
 20
7.6399000142
 30
0.0
 10
8.8601565654
 20
7.6341646421
 30
0.0
 10
8.8561600334
 20
7.6295763439
 30
0.0
 10
8.8531626323
 20
7.6261351217
 30
0.0
 10
8.8501652392
 20
7.6226938937
 30
0.0
 10
8.8476673869
 20
7.6198262219
 30
0.0
 10
8.8456691603
 20
7.6175320437
 30
0.0
 10
8.8444201431
 20
7.616098275
 30
0.0
 10
8.8434212168
 20
7.6149510478
 30
0.0
 10
8.8426712351
 20
7.6140912088
 30
0.0
 10
8.8420487538
 20
7.6133728267
 30
0.0
 10
8.8416081039
 20
7.6128735889
 30
0.0
 10
8.8413639752
 20
7.6125826427
 30
0.0
 10
8.8411592686
 20
7.6123803984
 30
0.0
 10
8.8410371668
 20
7.6121171264
 30
0.0
 10
8.8408455509
 20
7.6117873842
 30
0.0
 10
8.8405236479
 20
7.6112004172
 30
0.0
 10
8.8400567678
 20
7.6103670782
 30
0.0
 10
8.8394995159
 20
7.6093648519
 30
0.0
 10
8.8387554641
 20
7.6080293254
 30
0.0
 10
8.8378257586
 20
7.6063596519
 30
0.0
 10
8.836338029
 20
7.6036883227
 30
0.0
 10
8.8344784359
 20
7.6003491102
 30
0.0
 10
8.8322468946
 20
7.596342077
 30
0.0
 10
8.8300153612
 20
7.592335038
 30
0.0
 10
8.8270399806
 20
7.5869923214
 30
0.0
 10
8.8233207559
 20
7.5803139249
 30
0.0
 10
8.8196015305
 20
7.5736355288
 30
0.0
 10
8.816626151
 20
7.5682928114
 30
0.0
 10
8.8143946142
 20
7.5642857746
 30
0.0
 10
8.8121630861
 20
7.5602787334
 30
0.0
 10
8.810303452
 20
7.5569395458
 30
0.0
 10
8.8088158059
 20
7.5542681659
 30
0.0
 10
8.8078858877
 20
7.5525986212
 30
0.0
 10
8.8071422725
 20
7.5512628303
 30
0.0
 10
8.8065836867
 20
7.5502614118
 30
0.0
 10
8.8061209799
 20
7.5494255457
 30
0.0
 10
8.8057916269
 20
7.54884309
 30
0.0
 10
8.8056119478
 20
7.5485061195
 30
0.0
 10
8.80545318
 20
7.5482650504
 30
0.0
 10
8.8053861849
 20
7.5479794155
 30
0.0
 10
8.8052648467
 20
7.5476141141
 30
0.0
 10
8.8050674195
 20
7.5469675939
 30
0.0
 10
8.8047775831
 20
7.5460477802
 30
0.0
 10
8.804433117
 20
7.544942383
 30
0.0
 10
8.8039726632
 20
7.5434690861
 30
0.0
 10
8.8033974951
 20
7.5416272712
 30
0.0
 10
8.8024770029
 20
7.5386804757
 30
0.0
 10
8.8013264644
 20
7.5349969441
 30
0.0
 10
8.7999457852
 20
7.5305767222
 30
0.0
 10
8.7985651149
 20
7.5261564959
 30
0.0
 10
8.796724218
 20
7.5202628625
 30
0.0
 10
8.7944230981
 20
7.5128958201
 30
0.0
 10
8.7921219773
 20
7.505528778
 30
0.0
 10
8.7902810817
 20
7.499635144
 30
0.0
 10
8.7889004076
 20
7.4952149194
 30
0.0
 10
8.7875197427
 20
7.4907946914
 30
0.0
 10
8.7863691597
 20
7.4871111786
 30
0.0
 10
8.7854487582
 20
7.4841643447
 30
0.0
 10
8.7848733593
 20
7.4823226275
 30
0.0
 10
8.7844133792
 20
7.4808491301
 30
0.0
 10
8.7840674659
 20
7.4797443454
 30
0.0
 10
8.7837821575
 20
7.4788226152
 30
0.0
 10
8.783576647
 20
7.4781795163
 30
0.0
 10
8.7834682604
 20
7.4778087331
 30
0.0
 10
8.7833614822
 20
7.4775399367
 30
0.0
 10
8.7833521329
 20
7.4772356253
 30
0.0
 10
8.7833056829
 20
7.4768422649
 30
0.0
 10
8.7832402293
 20
7.4761481123
 30
0.0
 10
8.7831384461
 20
7.4751594833
 30
0.0
 10
8.7830198495
 20
7.4739718369
 30
0.0
 10
8.7828604831
 20
7.4723887595
 30
0.0
 10
8.7826616988
 20
7.4704097582
 30
0.0
 10
8.7823434072
 20
7.4672434426
 30
0.0
 10
8.7819456239
 20
7.4632855184
 30
0.0
 10
8.7814682492
 20
7.4585360221
 30
0.0
 10
8.7809908838
 20
7.4537865224
 30
0.0
 10
8.7803543932
 20
7.4474538573
 30
0.0
 10
8.7795587813
 20
7.4395380255
 30
0.0
 10
8.7787631686
 20
7.4316221939
 30
0.0
 10
8.7781266794
 20
7.4252895285
 30
0.0
 10
8.77764931
 20
7.4205400295
 30
0.0
 10
8.7771719502
 20
7.4157905307
 30
0.0
 10
8.7767741203
 20
7.4118326144
 30
0.0
 10
8.7764559238
 20
7.4086662826
 30
0.0
 10
8.7762568973
 20
7.4066873224
 30
0.0
 10
8.7760980282
 20
7.4051041608
 30
0.0
 10
8.7759779123
 20
7.4039167714
 30
0.0
 10
8.7758808826
 20
7.4029273383
 30
0.0
 10
8.7758069432
 20
7.4022346212
 30
0.0
 10
8.7757740895
 20
7.4018389608
 30
0.0
 10
8.7757229768
 20
7.4015417143
 30
0.0
 10
8.7757730552
 20
7.4012463834
 30
0.0
 10
8.7758045297
 20
7.4008519408
 30
0.0
 10
8.7758760555
 20
7.4001619775
 30
0.0
 10
8.7759696374
 20
7.3991761528
 30
0.0
 10
8.7760856158
 20
7.397993233
 30
0.0
 10
8.7762389683
 20
7.3964159821
 30
0.0
 10
8.776431099
 20
7.3944444269
 30
0.0
 10
8.7767382622
 20
7.3912899338
 30
0.0
 10
8.7771223005
 20
7.3873468191
 30
0.0
 10
8.7775831104
 20
7.3826150808
 30
0.0
 10
8.7780439299
 20
7.3778833427
 30
0.0
 10
8.7786583525
 20
7.3715743584
 30
0.0
 10
8.7794263821
 20
7.3636881281
 30
0.0
 10
8.7801944109
 20
7.3558018978
 30
0.0
 10
8.7808088349
 20
7.3494929136
 30
0.0
 10
8.7812696504
 20
7.3447611752
 30
0.0
 10
8.7817304752
 20
7.340029438
 30
0.0
 10
8.7821144669
 20
7.3360863199
 30
0.0
 10
8.7824217253
 20
7.3329318338
 30
0.0
 10
8.7826136137
 20
7.3309602609
 30
0.0
 10
8.7827674636
 20
7.3293830462
 30
0.0
 10
8.7828819221
 20
7.3282000157
 30
0.0
 10
8.7829802595
 20
7.3272145372
 30
0.0
 10
8.7830432959
 20
7.3265239561
 30
0.0
 10
8.7830883725
 20
7.3261305033
 30
0.0
 10
8.7830966698
 20
7.3258321318
 30
0.0
 10
8.7832024799
 20
7.3255463057
 30
0.0
 10
8.7833095464
 20
7.3251608283
 30
0.0
 10
8.7835127604
 20
7.3244882817
 30
0.0
 10
8.7837947809
 20
7.323526435
 30
0.0
 10
8.7841367518
 20
7.3223726751
 30
0.0
 10
8.7845914744
 20
7.3208341692
 30
0.0
 10
8.7851603017
 20
7.3189110915
 30
0.0
 10
8.7860701883
 20
7.3158341366
 30
0.0
 10
8.787207628
 20
7.3119879534
 30
0.0
 10
8.7885725207
 20
7.3073725291
 30
0.0
 10
8.7899374228
 20
7.302757106
 30
0.0
 10
8.7917572889
 20
7.2966032081
 30
0.0
 10
8.7940321228
 20
7.288910836
 30
0.0
 10
8.7963069559
 20
7.2812184636
 30
0.0
 10
8.7981268233
 20
7.275064566
 30
0.0
 10
8.7994917215
 20
7.270449142
 30
0.0
 10
8.8008566286
 20
7.2658337211
 30
0.0
 10
8.8019940237
 20
7.2619875275
 30
0.0
 10
8.8029040011
 20
7.2589105937
 30
0.0
 10
8.8034725974
 20
7.2569874623
 30
0.0
 10
8.8039277942
 20
7.2554490667
 30
0.0
 10
8.8042683162
 20
7.2542949699
 30
0.0
 10
8.8045548699
 20
7.2533341774
 30
0.0
 10
8.8047499914
 20
7.2526597487
 30
0.0
 10
8.8048700243
 20
7.2522772869
 30
0.0
 10
8.8049360058
 20
7.251982198
 30
0.0
 10
8.8050938927
 20
7.2517186161
 30
0.0
 10
8.8052723509
 20
7.2513561836
 30
0.0
 10
8.8055995891
 20
7.2507270473
 30
0.0
 10
8.8060592633
 20
7.2498256039
 30
0.0
 10
8.8066142148
 20
7.2487450178
 30
0.0
 10
8.8073529827
 20
7.2473038361
 30
0.0
 10
8.8082768424
 20
7.245502496
 30
0.0
 10
8.8097547944
 20
7.2426202753
 30
0.0
 10
8.811602311
 20
7.2390175256
 30
0.0
 10
8.8138192981
 20
7.2346942148
 30
0.0
 10
8.8160362941
 20
7.2303709069
 30
0.0
 10
8.8189922855
 20
7.2246064954
 30
0.0
 10
8.822687276
 20
7.2174009815
 30
0.0
 10
8.8263822658
 20
7.2101954672
 30
0.0
 10
8.8293382584
 20
7.2044310562
 30
0.0
 10
8.8315552507
 20
7.2001077468
 30
0.0
 10
8.8337722515
 20
7.1957844416
 30
0.0
 10
8.8356197256
 20
7.1921816745
 30
0.0
 10
8.8370977644
 20
7.1892994892
 30
0.0
 10
8.8380214031
 20
7.187498059
 30
0.0
 10
8.8387606245
 20
7.1860570623
 30
0.0
 10
8.8393141905
 20
7.184975911
 30
0.0
 10
8.8397781997
 20
7.1840762358
 30
0.0
 10
8.8400976992
 20
7.1834439431
 30
0.0
 10
8.8402885567
 20
7.1830865678
 30
0.0
 10
8.8404083571
 20
7.182807452
 30
0.0
 10
8.8406173852
 20
7.1825707059
 30
0.0
 10
8.8408649658
 20
7.1822402653
 30
0.0
 10
8.8413127328
 20
7.1816688802
 30
0.0
 10
8.8419448187
 20
7.1808490157
 30
0.0
 10
8.8427065668
 20
7.1798667193
 30
0.0
 10
8.8437210976
 20
7.1785564525
 30
0.0
 10
8.8449896491
 20
7.1769188033
 30
0.0
 10
8.8470191145
 20
7.1742984616
 30
0.0
 10
8.8495560208
 20
7.1710230697
 30
0.0
 10
8.8526002765
 20
7.1670925844
 30
0.0
 10
8.8556445406
 20
7.1631621031
 30
0.0
 10
8.8597035566
 20
7.15792146
 30
0.0
 10
8.8647773275
 20
7.1513706566
 30
0.0
 10
8.8698510979
 20
7.1448198528
 30
0.0
 10
8.8739101148
 20
7.1395792104
 30
0.0
 10
8.8769543759
 20
7.1356487268
 30
0.0
 10
8.8799986432
 20
7.1317182502
 30
0.0
 10
8.8825355132
 20
7.1284428312
 30
0.0
 10
8.8845650527
 20
7.1258225449
 30
0.0
 10
8.8858334158
 20
7.1241847546
 30
0.0
 10
8.8868483332
 20
7.1228747775
 30
0.0
 10
8.8876088998
 20
7.1218915959
 30
0.0
 10
8.8882446824
 20
7.1210745008
 30
0.0
 10
8.8886858502
 20
7.1204981719
 30
0.0
 10
8.8889440044
 20
7.1201756525
 30
0.0
 10
8.8891205538
 20
7.1199145752
 30
0.0
 10
8.8893623392
 20
7.1197268433
 30
0.0
 10
8.8896619647
 20
7.1194509505
 30
0.0
 10
8.8901969113
 20
7.1189800579
 30
0.0
 10
8.8909555779
 20
7.1183011224
 30
0.0
 10
8.8918683503
 20
7.1174890672
 30
0.0
 10
8.8930845516
 20
7.1164053953
 30
0.0
 10
8.8946050869
 20
7.1150511244
 30
0.0
 10
8.8970377848
 20
7.1128841126
 30
0.0
 10
8.9000787116
 20
7.1101754091
 30
0.0
 10
8.9037278004
 20
7.1069249386
 30
0.0
 10
8.9073768955
 20
7.1036744752
 30
0.0
 10
8.9122423534
 20
7.0993405215
 30
0.0
 10
8.9183241765
 20
7.0939230803
 30
0.0
 10
8.9244059992
 20
7.0885056384
 30
0.0
 10
8.9292714579
 20
7.0841716858
 30
0.0
 10
8.9329205506
 20
7.0809212193
 30
0.0
 10
8.9365696485
 20
7.0776707603
 30
0.0
 10
8.939610547
 20
7.074962021
 30
0.0
 10
8.9420433026
 20
7.0727950822
 30
0.0
 10
8.9435636909
 20
7.0714406257
 30
0.0
 10
8.9447801939
 20
7.0703573346
 30
0.0
 10
8.9456920444
 20
7.0695441159
 30
0.0
 10
8.9464535957
 20
7.0688688208
 30
0.0
 10
8.9469833926
 20
7.0683914294
 30
0.0
 10
8.9472912692
 20
7.0681259494
 30
0.0
 10
8.9475077099
 20
7.0679062326
 30
0.0
 10
8.9477794498
 20
7.0677652856
 30
0.0
 10
8.9481224806
 20
7.0675498804
 30
0.0
 10
8.9487317717
 20
7.0671857229
 30
0.0
 10
8.9495974889
 20
7.0666588052
 30
0.0
 10
8.9506383607
 20
7.0660293686
 30
0.0
 10
8.9520254873
 20
7.0651891192
 30
0.0
 10
8.9537596361
 20
7.06413915
 30
0.0
 10
8.9565341398
 20
7.0624590079
 30
0.0
 10
8.9600023155
 20
7.060358896
 30
0.0
 10
8.9641641066
 20
7.0578387335
 30
0.0
 10
8.9683259029
 20
7.0553185786
 30
0.0
 10
8.9738749629
 20
7.0519583694
 30
0.0
 10
8.9808112886
 20
7.0477581089
 30
0.0
 10
8.9877476138
 20
7.0435578477
 30
0.0
 10
8.9932966744
 20
7.0401976396
 30
0.0
 10
8.9974584689
 20
7.0376774812
 30
0.0
 10
9.001620267
 20
7.0351573315
 30
0.0
 10
9.0050884208
 20
7.0330571801
 30
0.0
 10
9.0078629692
 20
7.0313771185
 30
0.0
 10
9.009597004
 20
7.0303269445
 30
0.0
 10
9.0109843647
 20
7.0294871155
 30
0.0
 10
9.0120245213
 20
7.0288563946
 30
0.0
 10
9.0128924763
 20
7.028333495
 30
0.0
 10
9.0134977726
 20
7.0279621645
 30
0.0
 10
9.0138472039
 20
7.0277582523
 30
0.0
 10
9.0140992836
 20
7.0275820027
 30
0.0
 10
9.0143895646
 20
7.0274948765
 30
0.0
 10
9.0147632809
 20
7.027347621
 30
0.0
 10
9.0154234927
 20
7.027104408
 30
0.0
 10
9.0163634066
 20
7.0267493883
 30
0.0
 10
9.0174926926
 20
7.026326606
 30
0.0
 10
9.0189979221
 20
7.0257617641
 30
0.0
 10
9.020879625
 20
7.0250560995
 30
0.0
 10
9.0238902569
 20
7.0239268193
 30
0.0
 10
9.0276535786
 20
7.0225152935
 30
0.0
 10
9.032169551
 20
7.0208214306
 30
0.0
 10
9.036685527
 20
7.0191275762
 30
0.0
 10
9.0427068271
 20
7.0168691008
 30
0.0
 10
9.0502334527
 20
7.0140460076
 30
0.0
 10
9.0577600781
 20
7.0112229136
 30
0.0
 10
9.0637813786
 20
7.0089644394
 30
0.0
 10
9.0682973533
 20
7.0072705813
 30
0.0
 10
9.0728133307
 20
7.0055767324
 30
0.0
 10
9.0765766367
 20
7.0041651632
 30
0.0
 10
9.0795873007
 20
7.0030359715
 30
0.0
 10
9.081468922
 20
7.0023300817
 30
0.0
 10
9.0829743191
 20
7.0017657019
 30
0.0
 10
9.0841030929
 20
7.0013415079
 30
0.0
 10
9.0850446093
 20
7.0009909052
 30
0.0
 10
9.0857019604
 20
7.0007398072
 30
0.0
 10
9.0860802603
 20
7.0006051854
 30
0.0
 10
9.0863564618
 20
7.0004792525
 30
0.0
 10
9.0866614217
 20
7.0004487542
 30
0.0
 10
9.0870580036
 20
7.0003748012
 30
0.0
 10
9.0877566957
 20
7.0002608931
 30
0.0
 10
9.0887523839
 20
7.0000900587
 30
0.0
 10
9.0899482555
 20
6.9998885281
 30
0.0
 10
9.0915423857
 20
6.9996186084
 30
0.0
 10
9.0935351736
 20
6.9992816238
 30
0.0
 10
9.0967235642
 20
6.9987422166
 30
0.0
 10
9.1007090765
 20
6.9980680371
 30
0.0
 10
9.105491681
 20
6.9972589876
 30
0.0
 10
9.1102742882
 20
6.9964499472
 30
0.0
 10
9.1166510969
 20
6.9953712235
 30
0.0
 10
9.1246221081
 20
6.99402282
 30
0.0
 10
9.1341873214
 20
6.9924047353
 30
0.0
 10
9.1469409391
 20
6.9902472892
 30
0.0
 10
9.1565061524
 20
6.9886292046
 30
0.0
 10
9.1628829613
 20
6.9875504816
 30
0.0
  0
SPLINE
  5
32B
100
AcDbEntity
  8
0
100
AcDbSpline
 62
4
  6
CONTINUOUS
 70
0
 71
3
 72
403
 73
399
 74
0
 42
0.0000001
 43
0.0000001
 44
0.0000000001
 40
0.0
 40
0.0
 40
0.0
 40
0.0
 40
0.015625
 40
0.0234375
 40
0.03125
 40
0.0390625
 40
0.04296875
 40
0.046875
 40
0.05078125
 40
0.0546875
 40
0.056640625
 40
0.05859375
 40
0.0595703125
 40
0.060546875
 40
0.0615234375
 40
0.0620117188
 40
0.0622558594
 40
0.0625
 40
0.0627441406
 40
0.0629882812
 40
0.0634765625
 40
0.064453125
 40
0.0654296875
 40
0.06640625
 40
0.068359375
 40
0.0703125
 40
0.07421875
 40
0.078125
 40
0.08203125
 40
0.0859375
 40
0.09375
 40
0.1015625
 40
0.10546875
 40
0.109375
 40
0.11328125
 40
0.1171875
 40
0.119140625
 40
0.12109375
 40
0.1220703125
 40
0.123046875
 40
0.1240234375
 40
0.1245117188
 40
0.1247558594
 40
0.125
 40
0.1252441406
 40
0.1254882812
 40
0.1259765625
 40
0.126953125
 40
0.1279296875
 40
0.12890625
 40
0.130859375
 40
0.1328125
 40
0.13671875
 40
0.140625
 40
0.14453125
 40
0.1484375
 40
0.15625
 40
0.1640625
 40
0.16796875
 40
0.171875
 40
0.17578125
 40
0.1796875
 40
0.181640625
 40
0.18359375
 40
0.1845703125
 40
0.185546875
 40
0.1865234375
 40
0.1870117188
 40
0.1872558594
 40
0.1875
 40
0.1877441406
 40
0.1879882812
 40
0.1884765625
 40
0.189453125
 40
0.1904296875
 40
0.19140625
 40
0.193359375
 40
0.1953125
 40
0.19921875
 40
0.203125
 40
0.20703125
 40
0.2109375
 40
0.21875
 40
0.2265625
 40
0.23046875
 40
0.234375
 40
0.23828125
 40
0.2421875
 40
0.244140625
 40
0.24609375
 40
0.2470703125
 40
0.248046875
 40
0.2490234375
 40
0.2495117188
 40
0.2497558594
 40
0.25
 40
0.2502441406
 40
0.2504882812
 40
0.2509765625
 40
0.251953125
 40
0.2529296875
 40
0.25390625
 40
0.255859375
 40
0.2578125
 40
0.26171875
 40
0.265625
 40
0.26953125
 40
0.2734375
 40
0.28125
 40
0.2890625
 40
0.29296875
 40
0.296875
 40
0.30078125
 40
0.3046875
 40
0.306640625
 40
0.30859375
 40
0.3095703125
 40
0.310546875
 40
0.3115234375
 40
0.3120117188
 40
0.3122558594
 40
0.3125
 40
0.3127441406
 40
0.3129882812
 40
0.3134765625
 40
0.314453125
 40
0.3154296875
 40
0.31640625
 40
0.318359375
 40
0.3203125
 40
0.32421875
 40
0.328125
 40
0.33203125
 40
0.3359375
 40
0.34375
 40
0.3515625
 40
0.35546875
 40
0.359375
 40
0.36328125
 40
0.3671875
 40
0.369140625
 40
0.37109375
 40
0.3720703125
 40
0.373046875
 40
0.3740234375
 40
0.3745117188
 40
0.3747558594
 40
0.375
 40
0.3752441406
 40
0.3754882812
 40
0.3759765625
 40
0.376953125
 40
0.3779296875
 40
0.37890625
 40
0.380859375
 40
0.3828125
 40
0.38671875
 40
0.390625
 40
0.39453125
 40
0.3984375
 40
0.40625
 40
0.4140625
 40
0.41796875
 40
0.421875
 40
0.42578125
 40
0.4296875
 40
0.431640625
 40
0.43359375
 40
0.4345703125
 40
0.435546875
 40
0.4365234375
 40
0.4370117188
 40
0.4372558594
 40
0.4375
 40
0.4377441406
 40
0.4379882812
 40
0.4384765625
 40
0.439453125
 40
0.4404296875
 40
0.44140625
 40
0.443359375
 40
0.4453125
 40
0.44921875
 40
0.453125
 40
0.45703125
 40
0.4609375
 40
0.46875
 40
0.4765625
 40
0.48046875
 40
0.484375
 40
0.48828125
 40
0.4921875
 40
0.494140625
 40
0.49609375
 40
0.4970703125
 40
0.498046875
 40
0.4990234375
 40
0.4995117188
 40
0.4997558594
 40
0.5
 40
0.5002441406
 40
0.5004882812
 40
0.5009765625
 40
0.501953125
 40
0.5029296875
 40
0.50390625
 40
0.505859375
 40
0.5078125
 40
0.51171875
 40
0.515625
 40
0.51953125
 40
0.5234375
 40
0.53125
 40
0.5390625
 40
0.54296875
 40
0.546875
 40
0.55078125
 40
0.5546875
 40
0.556640625
 40
0.55859375
 40
0.5595703125
 40
0.560546875
 40
0.5615234375
 40
0.5620117188
 40
0.5622558594
 40
0.5625
 40
0.5627441406
 40
0.5629882812
 40
0.5634765625
 40
0.564453125
 40
0.5654296875
 40
0.56640625
 40
0.568359375
 40
0.5703125
 40
0.57421875
 40
0.578125
 40
0.58203125
 40
0.5859375
 40
0.59375
 40
0.6015625
 40
0.60546875
 40
0.609375
 40
0.61328125
 40
0.6171875
 40
0.619140625
 40
0.62109375
 40
0.6220703125
 40
0.623046875
 40
0.6240234375
 40
0.6245117188
 40
0.6247558594
 40
0.625
 40
0.6252441406
 40
0.6254882812
 40
0.6259765625
 40
0.626953125
 40
0.6279296875
 40
0.62890625
 40
0.630859375
 40
0.6328125
 40
0.63671875
 40
0.640625
 40
0.64453125
 40
0.6484375
 40
0.65625
 40
0.6640625
 40
0.66796875
 40
0.671875
 40
0.67578125
 40
0.6796875
 40
0.681640625
 40
0.68359375
 40
0.6845703125
 40
0.685546875
 40
0.6865234375
 40
0.6870117188
 40
0.6872558594
 40
0.6875
 40
0.6877441406
 40
0.6879882812
 40
0.6884765625
 40
0.689453125
 40
0.6904296875
 40
0.69140625
 40
0.693359375
 40
0.6953125
 40
0.69921875
 40
0.703125
 40
0.70703125
 40
0.7109375
 40
0.71875
 40
0.7265625
 40
0.73046875
 40
0.734375
 40
0.73828125
 40
0.7421875
 40
0.744140625
 40
0.74609375
 40
0.7470703125
 40
0.748046875
 40
0.7490234375
 40
0.7495117188
 40
0.7497558594
 40
0.75
 40
0.7502441406
 40
0.7504882812
 40
0.7509765625
 40
0.751953125
 40
0.7529296875
 40
0.75390625
 40
0.755859375
 40
0.7578125
 40
0.76171875
 40
0.765625
 40
0.76953125
 40
0.7734375
 40
0.78125
 40
0.7890625
 40
0.79296875
 40
0.796875
 40
0.80078125
 40
0.8046875
 40
0.806640625
 40
0.80859375
 40
0.8095703125
 40
0.810546875
 40
0.8115234375
 40
0.8120117188
 40
0.8122558594
 40
0.8125
 40
0.8127441406
 40
0.8129882812
 40
0.8134765625
 40
0.814453125
 40
0.8154296875
 40
0.81640625
 40
0.818359375
 40
0.8203125
 40
0.82421875
 40
0.828125
 40
0.83203125
 40
0.8359375
 40
0.84375
 40
0.8515625
 40
0.85546875
 40
0.859375
 40
0.86328125
 40
0.8671875
 40
0.869140625
 40
0.87109375
 40
0.8720703125
 40
0.873046875
 40
0.8740234375
 40
0.8745117188
 40
0.8747558594
 40
0.875
 40
0.8752441406
 40
0.8754882812
 40
0.8759765625
 40
0.876953125
 40
0.8779296875
 40
0.87890625
 40
0.880859375
 40
0.8828125
 40
0.88671875
 40
0.890625
 40
0.89453125
 40
0.8984375
 40
0.90625
 40
0.9140625
 40
0.91796875
 40
0.921875
 40
0.92578125
 40
0.9296875
 40
0.931640625
 40
0.93359375
 40
0.9345703125
 40
0.935546875
 40
0.9365234375
 40
0.9370117188
 40
0.9372558594
 40
0.9375
 40
0.9377441406
 40
0.9379882812
 40
0.9384765625
 40
0.939453125
 40
0.9404296875
 40
0.94140625
 40
0.943359375
 40
0.9453125
 40
0.94921875
 40
0.953125
 40
0.95703125
 40
0.9609375
 40
0.96875
 40
0.9765625
 40
0.984375
 40
1.0
 40
1.0
 40
1.0
 40
1.0
 10
9.1628829275
 20
6.9875504839
 30
0.0
 10
9.1691493013
 20
6.9877303327
 30
0.0
 10
9.178548862
 20
6.988000106
 30
0.0
 10
9.1910816097
 20
6.9883598036
 30
0.0
 10
9.2004811705
 20
6.988629577
 30
0.0
 10
9.2083141378
 20
6.9888543877
 30
0.0
 10
9.2145805115
 20
6.9890342371
 30
0.0
 10
9.2192802923
 20
6.9891691218
 30
0.0
 10
9.2239800712
 20
6.9893040159
 30
0.0
 10
9.2278965594
 20
6.9894163981
 30
0.0
 10
9.2310297371
 20
6.9895063699
 30
0.0
 10
9.2329880024
 20
6.9895624521
 30
0.0
 10
9.2345545476
 20
6.9896076618
 30
0.0
 10
9.2357296403
 20
6.9896406273
 30
0.0
 10
9.2367082992
 20
6.9896710945
 30
0.0
 10
9.2373945087
 20
6.9896865422
 30
0.0
 10
9.2377848354
 20
6.9897045495
 30
0.0
 10
9.2380826315
 20
6.9896921945
 30
0.0
 10
9.2383611196
 20
6.9897786914
 30
0.0
 10
9.2387391719
 20
6.9898595399
 30
0.0
 10
9.2393976255
 20
6.99001709
 30
0.0
 10
9.2403399141
 20
6.9902337626
 30
0.0
 10
9.2414699582
 20
6.9904973646
 30
0.0
 10
9.242976929
 20
6.9908475784
 30
0.0
 10
9.2448605584
 20
6.9912857756
 30
0.0
 10
9.2478744125
 20
6.9919866508
 30
0.0
 10
9.251641714
 20
6.9928628272
 30
0.0
 10
9.2561624826
 20
6.9939142035
 30
0.0
 10
9.2606832494
 20
6.9949655893
 30
0.0
 10
9.2667109392
 20
6.9963674338
 30
0.0
 10
9.2742455511
 20
6.9981197405
 30
0.0
 10
9.2817801632
 20
6.9998720465
 30
0.0
 10
9.2878078526
 20
7.0012738922
 30
0.0
 10
9.2923286205
 20
7.0023252741
 30
0.0
 10
9.2968493849
 20
7.0033766651
 30
0.0
 10
9.3006166998
 20
7.0042527961
 30
0.0
 10
9.3036305264
 20
7.0049537639
 30
0.0
 10
9.3055142256
 20
7.0053917252
 30
0.0
 10
9.3070210532
 20
7.0057424232
 30
0.0
 10
9.3081515347
 20
7.006004546
 30
0.0
 10
9.3090924547
 20
7.0062258467
 30
0.0
 10
9.3097533516
 20
7.0063751348
 30
0.0
 10
9.3101274891
 20
7.0064692212
 30
0.0
 10
9.3104180022
 20
7.0065150555
 30
0.0
 10
9.3106706345
 20
7.0066554223
 30
0.0
 10
9.3110206909
 20
7.0068096041
 30
0.0
 10
9.3116271333
 20
7.0070947853
 30
0.0
 10
9.3124966981
 20
7.007494155
 30
0.0
 10
9.3135387981
 20
7.0079768366
 30
0.0
 10
9.3149287461
 20
7.0086192113
 30
0.0
 10
9.3166660163
 20
7.0094225909
 30
0.0
 10
9.3194457408
 20
7.0107077683
 30
0.0
 10
9.3229203647
 20
7.012314319
 30
0.0
 10
9.327089927
 20
7.014242146
 30
0.0
 10
9.3312594856
 20
7.016169982
 30
0.0
 10
9.3368188984
 20
7.0187404269
 30
0.0
 10
9.3437681639
 20
7.0219534842
 30
0.0
 10
9.3507174298
 20
7.0251665407
 30
0.0
 10
9.356276842
 20
7.0277369868
 30
0.0
 10
9.3604464024
 20
7.0296648191
 30
0.0
 10
9.3646159582
 20
7.0315926602
 30
0.0
 10
9.3680906024
 20
7.0331991669
 30
0.0
 10
9.3708702854
 20
7.0344844341
 30
0.0
 10
9.3726076611
 20
7.0352875853
 30
0.0
 10
9.3739973926
 20
7.0359304285
 30
0.0
 10
9.3750401539
 20
7.0364116788
 30
0.0
 10
9.37590765
 20
7.036815527
 30
0.0
 10
9.3765177853
 20
7.0370927134
 30
0.0
 10
9.3768619247
 20
7.0372597048
 30
0.0
 10
9.3771327322
 20
7.0373607246
 30
0.0
 10
9.3773549822
 20
7.0375543396
 30
0.0
 10
9.377668253
 20
7.0377801948
 30
0.0
 10
9.3782085854
 20
7.0381904897
 30
0.0
 10
9.3789846145
 20
7.0387687578
 30
0.0
 10
9.3799140836
 20
7.039466047
 30
0.0
 10
9.3811539924
 20
7.0403945897
 30
0.0
 10
9.3827036673
 20
7.0415556709
 30
0.0
 10
9.3851832651
 20
7.0434131757
 30
0.0
 10
9.3882827219
 20
7.0457351339
 30
0.0
 10
9.3920020874
 20
7.0485214507
 30
0.0
 10
9.3957214482
 20
7.0513077763
 30
0.0
 10
9.4006805976
 20
7.055022874
 30
0.0
 10
9.4068795338
 20
7.0596667473
 30
0.0
 10
9.4130784705
 20
7.06431062
 30
0.0
 10
9.418037619
 20
7.0680257188
 30
0.0
 10
9.4217569824
 20
7.0708120411
 30
0.0
 10
9.4254763384
 20
7.0735983702
 30
0.0
 10
9.4285758249
 20
7.0759202901
 30
0.0
 10
9.4310553621
 20
7.0777778731
 30
0.0
 10
9.4326051912
 20
7.0789387552
 30
0.0
 10
9.4338447835
 20
7.0798677066
 30
0.0
 10
9.4347752196
 20
7.0805637473
 30
0.0
 10
9.435548223
 20
7.0811459219
 30
0.0
 10
9.4360939568
 20
7.0815492429
 30
0.0
 10
9.4363985731
 20
7.0817862719
 30
0.0
 10
9.4366474068
 20
7.0819455646
 30
0.0
 10
9.4368183707
 20
7.0821754936
 30
0.0
 10
9.4370734845
 20
7.0824574269
 30
0.0
 10
9.4375072784
 20
7.0829622898
 30
0.0
 10
9.4381336002
 20
7.0836775208
 30
0.0
 10
9.4388823544
 20
7.084538367
 30
0.0
 10
9.4398816825
 20
7.0856852646
 30
0.0
 10
9.4411305039
 20
7.0871191938
 30
0.0
 10
9.4431288075
 20
7.0894133089
 30
0.0
 10
9.445626622
 20
7.0922810117
 30
0.0
 10
9.4486240273
 20
7.0957222297
 30
0.0
 10
9.4516214251
 20
7.0991634546
 30
0.0
 10
9.4556179582
 20
7.103751752
 30
0.0
 10
9.4606136235
 20
7.1094871246
 30
0.0
 10
9.4656092895
 20
7.1152224966
 30
0.0
 10
9.4696058215
 20
7.1198107949
 30
0.0
 10
9.4726032226
 20
7.1232520171
 30
0.0
 10
9.4756006157
 20
7.1266932451
 30
0.0
 10
9.478098468
 20
7.1295609169
 30
0.0
 10
9.4800966947
 20
7.1318550951
 30
0.0
 10
9.4813457118
 20
7.1332888637
 30
0.0
 10
9.4823446382
 20
7.134436091
 30
0.0
 10
9.4830946199
 20
7.13529593
 30
0.0
 10
9.4837171011
 20
7.1360143121
 30
0.0
 10
9.484157751
 20
7.1365135499
 30
0.0
 10
9.4844018797
 20
7.1368044961
 30
0.0
 10
9.4846065863
 20
7.1370067403
 30
0.0
 10
9.4847286881
 20
7.1372700124
 30
0.0
 10
9.484920304
 20
7.1375997546
 30
0.0
 10
9.485242207
 20
7.1381867216
 30
0.0
 10
9.4857090871
 20
7.1390200606
 30
0.0
 10
9.486266339
 20
7.1400222869
 30
0.0
 10
9.4870103908
 20
7.1413578133
 30
0.0
 10
9.4879400963
 20
7.1430274868
 30
0.0
 10
9.4894278259
 20
7.1456988161
 30
0.0
 10
9.4912874191
 20
7.1490380286
 30
0.0
 10
9.4935189603
 20
7.1530450617
 30
0.0
 10
9.4957504937
 20
7.1570521007
 30
0.0
 10
9.4987258743
 20
7.1623948174
 30
0.0
 10
9.502445099
 20
7.1690732139
 30
0.0
 10
9.5061643244
 20
7.17575161
 30
0.0
 10
9.5091397039
 20
7.1810943273
 30
0.0
 10
9.5113712408
 20
7.1851013642
 30
0.0
 10
9.5136027689
 20
7.1891084053
 30
0.0
 10
9.515462403
 20
7.192447593
 30
0.0
 10
9.516950049
 20
7.1951189729
 30
0.0
 10
9.5178799672
 20
7.1967885176
 30
0.0
 10
9.5186235824
 20
7.1981243084
 30
0.0
 10
9.5191821682
 20
7.199125727
 30
0.0
 10
9.519644875
 20
7.1999615931
 30
0.0
 10
9.519974228
 20
7.2005440488
 30
0.0
 10
9.5201539071
 20
7.2008810193
 30
0.0
 10
9.5203126749
 20
7.2011220884
 30
0.0
 10
9.52037967
 20
7.2014077232
 30
0.0
 10
9.5205010082
 20
7.2017730246
 30
0.0
 10
9.5206984354
 20
7.2024195448
 30
0.0
 10
9.5209882718
 20
7.2033393585
 30
0.0
 10
9.5213327379
 20
7.2044447558
 30
0.0
 10
9.5217931917
 20
7.2059180526
 30
0.0
 10
9.5223683599
 20
7.2077598675
 30
0.0
 10
9.523288852
 20
7.2107066631
 30
0.0
 10
9.5244393906
 20
7.2143901946
 30
0.0
 10
9.5258200697
 20
7.2188104166
 30
0.0
 10
9.52720074
 20
7.2232306428
 30
0.0
 10
9.5290416369
 20
7.2291242763
 30
0.0
 10
9.5313427569
 20
7.2364913187
 30
0.0
 10
9.5336438776
 20
7.2438583608
 30
0.0
 10
9.5354847732
 20
7.2497519948
 30
0.0
 10
9.5368654474
 20
7.2541722194
 30
0.0
 10
9.5382461122
 20
7.2585924474
 30
0.0
 10
9.5393966953
 20
7.2622759601
 30
0.0
 10
9.5403170967
 20
7.2652227941
 30
0.0
 10
9.5408924956
 20
7.2670645113
 30
0.0
 10
9.5413524757
 20
7.2685380087
 30
0.0
 10
9.541698389
 20
7.2696427933
 30
0.0
 10
9.5419836974
 20
7.2705645236
 30
0.0
 10
9.5421892079
 20
7.2712076224
 30
0.0
 10
9.5422975945
 20
7.2715784057
 30
0.0
 10
9.5424043727
 20
7.2718472021
 30
0.0
 10
9.542413722
 20
7.2721515134
 30
0.0
 10
9.542460172
 20
7.2725448739
 30
0.0
 10
9.5425256256
 20
7.2732390265
 30
0.0
 10
9.5426274088
 20
7.2742276555
 30
0.0
 10
9.5427460054
 20
7.2754153019
 30
0.0
 10
9.5429053718
 20
7.2769983793
 30
0.0
 10
9.5431041561
 20
7.2789773805
 30
0.0
 10
9.5434224477
 20
7.2821436962
 30
0.0
 10
9.543820231
 20
7.2861016204
 30
0.0
 10
9.5442976057
 20
7.2908511167
 30
0.0
 10
9.5447749712
 20
7.2956006164
 30
0.0
 10
9.5454114617
 20
7.3019332815
 30
0.0
 10
9.5462070736
 20
7.3098491133
 30
0.0
 10
9.5470026863
 20
7.3177649449
 30
0.0
 10
9.5476391755
 20
7.3240976102
 30
0.0
 10
9.548116545
 20
7.3288471093
 30
0.0
 10
9.5485939047
 20
7.3335966081
 30
0.0
 10
9.5489917347
 20
7.3375545244
 30
0.0
 10
9.5493099311
 20
7.3407208561
 30
0.0
 10
9.5495089576
 20
7.3426998164
 30
0.0
 10
9.5496678267
 20
7.3442829779
 30
0.0
 10
9.5497879426
 20
7.3454703673
 30
0.0
 10
9.5498849724
 20
7.3464598004
 30
0.0
 10
9.5499589117
 20
7.3471525176
 30
0.0
 10
9.5499917654
 20
7.347548178
 30
0.0
 10
9.5500428781
 20
7.3478454245
 30
0.0
 10
9.5499927998
 20
7.3481407553
 30
0.0
 10
9.5499613252
 20
7.348535198
 30
0.0
 10
9.5498897994
 20
7.3492251613
 30
0.0
 10
9.5497962175
 20
7.3502109859
 30
0.0
 10
9.5496802391
 20
7.3513939058
 30
0.0
 10
9.5495268866
 20
7.3529711567
 30
0.0
 10
9.5493347559
 20
7.3549427119
 30
0.0
 10
9.5490275928
 20
7.3580972049
 30
0.0
 10
9.5486435544
 20
7.3620403196
 30
0.0
 10
9.5481827446
 20
7.366772058
 30
0.0
 10
9.547721925
 20
7.3715037961
 30
0.0
 10
9.5471075024
 20
7.3778127804
 30
0.0
 10
9.5463394728
 20
7.3856990106
 30
0.0
 10
9.545571444
 20
7.393585241
 30
0.0
 10
9.5449570201
 20
7.3998942251
 30
0.0
 10
9.5444962045
 20
7.4046259636
 30
0.0
 10
9.5440353797
 20
7.4093577008
 30
0.0
 10
9.543651388
 20
7.4133008189
 30
0.0
 10
9.5433441296
 20
7.416455305
 30
0.0
 10
9.5431522413
 20
7.4184268779
 30
0.0
 10
9.5429983913
 20
7.4200040925
 30
0.0
 10
9.5428839328
 20
7.421187123
 30
0.0
 10
9.5427855954
 20
7.4221726016
 30
0.0
 10
9.542722559
 20
7.4228631827
 30
0.0
 10
9.5426774824
 20
7.4232566354
 30
0.0
 10
9.5426691851
 20
7.423555007
 30
0.0
 10
9.542563375
 20
7.423840833
 30
0.0
 10
9.5424563085
 20
7.4242263104
 30
0.0
 10
9.5422530945
 20
7.424898857
 30
0.0
 10
9.541971074
 20
7.4258607038
 30
0.0
 10
9.5416291031
 20
7.4270144637
 30
0.0
 10
9.5411743805
 20
7.4285529695
 30
0.0
 10
9.5406055532
 20
7.4304760473
 30
0.0
 10
9.5396956666
 20
7.4335530022
 30
0.0
 10
9.5385582269
 20
7.4373991854
 30
0.0
 10
9.5371933342
 20
7.4420146097
 30
0.0
 10
9.5358284321
 20
7.4466300328
 30
0.0
 10
9.534008566
 20
7.4527839306
 30
0.0
 10
9.5317337321
 20
7.4604763028
 30
0.0
 10
9.529458899
 20
7.4681686752
 30
0.0
 10
9.5276390316
 20
7.4743225727
 30
0.0
 10
9.5262741334
 20
7.4789379967
 30
0.0
 10
9.5249092264
 20
7.4835534177
 30
0.0
 10
9.5237718312
 20
7.4873996112
 30
0.0
 10
9.5228618538
 20
7.490476545
 30
0.0
 10
9.5222932575
 20
7.4923996765
 30
0.0
 10
9.5218380607
 20
7.4939380721
 30
0.0
 10
9.5214975387
 20
7.4950921689
 30
0.0
 10
9.521210985
 20
7.4960529614
 30
0.0
 10
9.5210158636
 20
7.4967273901
 30
0.0
 10
9.5208958306
 20
7.4971098519
 30
0.0
 10
9.5208298491
 20
7.4974049408
 30
0.0
 10
9.5206719622
 20
7.4976685226
 30
0.0
 10
9.520493504
 20
7.4980309551
 30
0.0
 10
9.5201662658
 20
7.4986600915
 30
0.0
 10
9.5197065916
 20
7.4995615348
 30
0.0
 10
9.5191516401
 20
7.5006421209
 30
0.0
 10
9.5184128722
 20
7.5020833026
 30
0.0
 10
9.5174890125
 20
7.5038846427
 30
0.0
 10
9.5160110605
 20
7.5067668635
 30
0.0
 10
9.5141635439
 20
7.5103696131
 30
0.0
 10
9.5119465568
 20
7.514692924
 30
0.0
 10
9.5097295609
 20
7.5190162318
 30
0.0
 10
9.5067735694
 20
7.5247806433
 30
0.0
 10
9.5030785789
 20
7.5319861573
 30
0.0
 10
9.4993835892
 20
7.5391916716
 30
0.0
 10
9.4964275965
 20
7.5449560826
 30
0.0
 10
9.4942106042
 20
7.5492793919
 30
0.0
 10
9.4919936034
 20
7.5536026972
 30
0.0
 10
9.4901461293
 20
7.5572054642
 30
0.0
 10
9.4886680905
 20
7.5600876496
 30
0.0
 10
9.4877444518
 20
7.5618890798
 30
0.0
 10
9.4870052304
 20
7.5633300765
 30
0.0
 10
9.4864516644
 20
7.5644112277
 30
0.0
 10
9.4859876552
 20
7.565310903
 30
0.0
 10
9.4856681557
 20
7.5659431956
 30
0.0
 10
9.4854772982
 20
7.566300571
 30
0.0
 10
9.4853574978
 20
7.5665796867
 30
0.0
 10
9.4851484697
 20
7.5668164329
 30
0.0
 10
9.4849008891
 20
7.5671468734
 30
0.0
 10
9.4844531221
 20
7.5677182586
 30
0.0
 10
9.4838210362
 20
7.568538123
 30
0.0
 10
9.4830592881
 20
7.5695204195
 30
0.0
 10
9.4820447573
 20
7.5708306863
 30
0.0
 10
9.4807762059
 20
7.5724683355
 30
0.0
 10
9.4787467404
 20
7.5750886772
 30
0.0
 10
9.4762098341
 20
7.578364069
 30
0.0
 10
9.4731655784
 20
7.5822945544
 30
0.0
 10
9.4701213143
 20
7.5862250356
 30
0.0
 10
9.4660622984
 20
7.5914656788
 30
0.0
 10
9.4609885274
 20
7.5980164821
 30
0.0
 10
9.455914757
 20
7.604567286
 30
0.0
 10
9.4518557401
 20
7.6098079283
 30
0.0
 10
9.448811479
 20
7.6137384119
 30
0.0
 10
9.4457672117
 20
7.6176688885
 30
0.0
 10
9.4432303417
 20
7.6209443076
 30
0.0
 10
9.4412008022
 20
7.6235645938
 30
0.0
 10
9.4399324391
 20
7.6252023842
 30
0.0
 10
9.4389175217
 20
7.6265123613
 30
0.0
 10
9.4381569551
 20
7.6274955428
 30
0.0
 10
9.4375211725
 20
7.6283126379
 30
0.0
 10
9.4370800047
 20
7.6288889668
 30
0.0
 10
9.4368218505
 20
7.6292114862
 30
0.0
 10
9.4366453012
 20
7.6294725636
 30
0.0
 10
9.4364035157
 20
7.6296602954
 30
0.0
 10
9.4361038902
 20
7.6299361883
 30
0.0
 10
9.4355689436
 20
7.6304070808
 30
0.0
 10
9.434810277
 20
7.6310860164
 30
0.0
 10
9.4338975046
 20
7.6318980715
 30
0.0
 10
9.4326813033
 20
7.6329817435
 30
0.0
 10
9.431160768
 20
7.6343360144
 30
0.0
 10
9.4287280701
 20
7.6365030262
 30
0.0
 10
9.4256871433
 20
7.6392117297
 30
0.0
 10
9.4220380545
 20
7.6424622001
 30
0.0
 10
9.4183889595
 20
7.6457126636
 30
0.0
 10
9.4135235016
 20
7.6500466173
 30
0.0
 10
9.4074416784
 20
7.6554640585
 30
0.0
 10
9.4013598557
 20
7.6608815003
 30
0.0
 10
9.396494397
 20
7.665215453
 30
0.0
 10
9.3928453044
 20
7.6684659195
 30
0.0
 10
9.3891962064
 20
7.6717163785
 30
0.0
 10
9.386155308
 20
7.6744251177
 30
0.0
 10
9.3837225523
 20
7.6765920566
 30
0.0
 10
9.382202164
 20
7.677946513
 30
0.0
 10
9.380985661
 20
7.6790298041
 30
0.0
 10
9.3800738105
 20
7.6798430229
 30
0.0
 10
9.3793122592
 20
7.6805183179
 30
0.0
 10
9.3787824623
 20
7.6809957094
 30
0.0
 10
9.3784745857
 20
7.6812611894
 30
0.0
 10
9.378258145
 20
7.6814809062
 30
0.0
 10
9.3779864052
 20
7.6816218532
 30
0.0
 10
9.3776433743
 20
7.6818372583
 30
0.0
 10
9.3770340833
 20
7.6822014158
 30
0.0
 10
9.376168366
 20
7.6827283336
 30
0.0
 10
9.3751274942
 20
7.6833577702
 30
0.0
 10
9.3737403676
 20
7.6841980196
 30
0.0
 10
9.3720062188
 20
7.6852479887
 30
0.0
 10
9.3692317151
 20
7.6869281308
 30
0.0
 10
9.3657635394
 20
7.6890282427
 30
0.0
 10
9.3616017483
 20
7.6915484052
 30
0.0
 10
9.357439952
 20
7.6940685601
 30
0.0
 10
9.351890892
 20
7.6974287694
 30
0.0
 10
9.3449545664
 20
7.7016290299
 30
0.0
 10
9.3380182411
 20
7.7058292911
 30
0.0
 10
9.3324691805
 20
7.7091894992
 30
0.0
 10
9.328307386
 20
7.7117096575
 30
0.0
 10
9.3241455879
 20
7.7142298073
 30
0.0
 10
9.3206774342
 20
7.7163299587
 30
0.0
 10
9.3179028857
 20
7.7180100203
 30
0.0
 10
9.3161688509
 20
7.7190601942
 30
0.0
 10
9.3147814902
 20
7.7199000233
 30
0.0
 10
9.3137413336
 20
7.7205307441
 30
0.0
 10
9.3128733787
 20
7.7210536438
 30
0.0
 10
9.3122680823
 20
7.7214249743
 30
0.0
 10
9.311918651
 20
7.7216288865
 30
0.0
 10
9.3116665713
 20
7.7218051361
 30
0.0
 10
9.3113762903
 20
7.7218922623
 30
0.0
 10
9.3110025741
 20
7.7220395178
 30
0.0
 10
9.3103423622
 20
7.7222827308
 30
0.0
 10
9.3094024483
 20
7.7226377504
 30
0.0
 10
9.3082731623
 20
7.7230605328
 30
0.0
 10
9.3067679328
 20
7.7236253746
 30
0.0
 10
9.3048862299
 20
7.7243310393
 30
0.0
 10
9.301875598
 20
7.7254603194
 30
0.0
 10
9.2981122763
 20
7.7268718453
 30
0.0
 10
9.2935963039
 20
7.7285657082
 30
0.0
 10
9.2890803279
 20
7.7302595625
 30
0.0
 10
9.2830590278
 20
7.732518038
 30
0.0
 10
9.2755324022
 20
7.7353411312
 30
0.0
 10
9.2680057769
 20
7.7381642251
 30
0.0
 10
9.2619844763
 20
7.7404226994
 30
0.0
 10
9.2574685016
 20
7.7421165574
 30
0.0
 10
9.2529525242
 20
7.7438104064
 30
0.0
 10
9.2491892182
 20
7.7452219756
 30
0.0
 10
9.2461785542
 20
7.7463511673
 30
0.0
 10
9.244296933
 20
7.7470570571
 30
0.0
 10
9.2427915359
 20
7.7476214369
 30
0.0
 10
9.241662762
 20
7.7480456309
 30
0.0
 10
9.2407212456
 20
7.7483962336
 30
0.0
 10
9.2400638945
 20
7.7486473316
 30
0.0
 10
9.2396855946
 20
7.7487819534
 30
0.0
 10
9.2394093931
 20
7.7489078863
 30
0.0
 10
9.2391044333
 20
7.7489383846
 30
0.0
 10
9.2387078513
 20
7.7490123376
 30
0.0
 10
9.2380091592
 20
7.7491262456
 30
0.0
 10
9.2370134711
 20
7.7492970801
 30
0.0
 10
9.2358175994
 20
7.7494986107
 30
0.0
 10
9.2342234692
 20
7.7497685304
 30
0.0
 10
9.2322306814
 20
7.7501055149
 30
0.0
 10
9.2290422907
 20
7.7506449222
 30
0.0
 10
9.2250567784
 20
7.7513191017
 30
0.0
 10
9.2202741739
 20
7.7521281512
 30
0.0
 10
9.2154915667
 20
7.7529371916
 30
0.0
 10
9.209114758
 20
7.7540159153
 30
0.0
 10
9.2011437468
 20
7.7553643188
 30
0.0
 10
9.1915785335
 20
7.7569824035
 30
0.0
 10
9.1788249158
 20
7.7591398495
 30
0.0
 10
9.1692597025
 20
7.7607579341
 30
0.0
 10
9.1628828936
 20
7.7618366572
 30
0.0
  0
ENDSEC
  0
SECTION
  2
OBJECTS
  0
DICTIONARY
  5
C
100
AcDbDictionary
280
0
281
1
  3
ACAD_GROUP
350
D
  3
ACAD_MLINESTYLE
350
17
  3
ACAD_LAYOUT
350
1A
  3
ACAD_PLOTSETTINGS
350
19
  3
ACAD_PLOTSTYLENAME
350
E
  3
ACAD_IMAGE_DICT
350
       32D
  3
ACAD_IMAGE_VARS
350
       32E
  3
ACAD_TABLESTYLE
350
       32F
  0
IMAGEDEF_REACTOR
  5
32C
100
AcDbRasterImageDefReactor
 90
2
330
27F
  0
DICTIONARY
  5
D
102
{ACAD_REACTORS
330
C
102
}
100
AcDbDictionary
280
0
281
1
  0
ACDBDICTIONARYWDFLT
  5
E
102
{ACAD_REACTORS
330
C
102
}
100
AcDbDictionary
281
1
  3
Normal
350
F
100
AcDbDictionaryWithDefault
340
F
  0
DICTIONARY
  5
32D
330
C
100
AcDbDictionary
281
1
  3
GAK_assy_2_img_1
350
       332
  0
RASTERVARIABLES
  5
32E
330
C
100
AcDbRasterVariables
 90
0
 70
0
 71
1
 72
5
  0
DICTIONARY
  5
17
102
{ACAD_REACTORS
330
C
102
}
100
AcDbDictionary
280
0
281
1
  3
Standard
350
18
  0
DICTIONARY
  5
32F
330
C
100
AcDbDictionary
281
1
  3
Standard
350
       333
  3
Standard1
350
       334
  0
DICTIONARY
  5
19
102
{ACAD_REACTORS
330
C
102
}
100
AcDbDictionary
281
1
  0
DICTIONARY
  5
1A
102
{ACAD_REACTORS
330
C
102
}
100
AcDbDictionary
281
1
  3
Model
350
330
  3
Layout1
350
331
  0
ACDBPLACEHOLDER
  5
F
102
{ACAD_REACTORS
330
E
102
}
  0
MLINESTYLE
  5
18
102
{ACAD_REACTORS
330
17
102
}
100
AcDbMlineStyle
  2
STANDARD
 70
0
  3

 62
256
 51
90.0
 52
90.0
 71
2
 49
0.5
 62
256
  6
BYLAYER
 49
-0.5
 62
256
  6
BYLAYER
  0
LAYOUT
  5
330
102
{ACAD_REACTORS
330
1A
102
}
100
AcDbPlotSettings
  1

  2
none_device
  4
ANSI_C_(22.00_x_17.00_Inches)
  6

 40
0.0
 41
0.0
 42
0.0
 43
0.0
 44
558.8
 45
431.8
 46
0.0
 47
0.0
 48
0.0
 49
0.0
140
0.0
141
0.0
142
1.0
143
1.0
 70
1024
 72
0
 73
0
 74
0
  7

 75
0
147
1.0
148
0.0
149
0.0
100
AcDbLayout
  1
Model
 70
0
 71
0
 10
0.0
 20
0.0
 11
22.0
 21
17.0
 12
0.0
 22
0.0
 32
0.0
 14
0.0
 24
0.0
 34
0.0
 15
0.0
 25
0.0
 35
0.0
146
0.0
 13
0.0
 23
0.0
 33
0.0
 16
1.0
 26
0.0
 36
0.0
 17
0.0
 27
1.0
 37
0.0
 76
0
330
204
345
0
346
0
  0
LAYOUT
  5
331
102
{ACAD_REACTORS
330
1A
102
}
100
AcDbPlotSettings
  1

  2
none_device
  4
ANSI_C_(22.00_x_17.00_Inches)
  6

 40
0.0
 41
0.0
 42
0.0
 43
0.0
 44
558.8
 45
431.8
 46
0.0
 47
0.0
 48
0.0
 49
0.0
140
0.0
141
0.0
142
1.0
143
1.0
 70
0
 72
0
 73
0
 74
0
  7

 75
0
147
1.0
148
0.0
149
0.0
100
AcDbLayout
  1
Layout1
 70
0
 71
1
 10
0.0
 20
0.0
 11
22.0
 21
17.0
 12
0.0
 22
0.0
 32
0.0
 14
0.0
 24
0.0
 34
0.0
 15
0.0
 25
0.0
 35
0.0
146
0.0
 13
0.0
 23
0.0
 33
0.0
 16
1.0
 26
0.0
 36
0.0
 17
0.0
 27
1.0
 37
0.0
 76
0
330
205
345
0
346
0
  0
IMAGEDEF
  5
332
102
{ACAD_REACTORS
330
32D
330
32C
102
}
100
AcDbRasterImageDef
 90
0
  1
GAK_assy_2_img_1.png
 10
369.0
 20
92.0
 11
0.0066666667
 21
0.0066666667
280
1
281
0
  0
TABLESTYLE
  5
333
102
{ACAD_REACTORS
330
32F
330
282
330
283
102
}
330
32F
100
AcDbTableStyle
  3
Standard
 70
0
 71
0
 40
0.06
 41
0.06
280
1
281
1
  7
Standard
140
0.18
170
1
 62
0
 63
7
283
0
  7
Standard
140
0.18
170
1
 62
0
 63
7
283
0
  7
Standard
140
0.18
170
1
 62
0
 63
7
283
0
  0
TABLESTYLE
  5
334
102
{ACAD_REACTORS
330
32F
330
281
102
}
330
32F
100
AcDbTableStyle
  3
Standard1
 70
1
 71
0
 40
0.06
 41
0.06
280
1
281
1
  7
Standard
140
0.18
170
1
 62
0
 63
7
283
0
  7
Standard
140
0.18
170
1
 62
0
 63
7
283
0
  7
Standard
140
0.18
170
1
 62
0
 63
7
283
0
  0
ENDSEC
  0
EOF
