999
DXF file: GAH_assy_2.dxf
999
Pro/ENGINEER 2014200 by Parametric Technology Corporation
  0
SECTION
  2
HEADER
  9
$ACADVER
  1
AC1021
  9
$DWGCODEPAGE
  3
ANSI_1252
  9
$EXTMAX
 10
22.0
 20
17.0
 30
0.0
  9
$EXTMIN
 10
0.0
 20
0.0
 30
0.0
  9
$LIMMIN
 10
0.0
 20
0.0
  9
$LIMMAX
 10
22.0
 20
17.0
  9
$VIEWCTR
 10
11.0
 20
8.5
  9
$VIEWSIZE
 40
17.0
  9
$CLAYER
  8
0
  9
$LTSCALE
 40
1.21
  9
$CELTYPE
  6
BYLAYER
  9
$DIMSCALE
 40
1.0
  9
$DIMASZ
 40
0.1875
  9
$DIMEXO
 40
0.0625
  9
$DIMDLI
 40
0.836
  9
$DIMEXE
 40
0.125
  9
$DIMCEN
 40
0.198
  9
$DIMLFAC
 40
1.0
  9
$DIMBLK
  1
_FILLED
  9
$DIMTXT
 40
0.1
  9
$DIMTOL
 70
0
  9
$DIMLIM
 70
0
  9
$DIMTFAC
 40
1.0
  9
$DIMGAP
 40
0.09
  9
$DIMDSEP
 70
46
  9
$AUNITS
 70
0
  9
$PDMODE
 70
3
  9
$PDSIZE
 40
0.3125
  9
$HANDSEED
  5
31B
  9
$TILEMODE
 70
1
  9
$MEASUREMENT
 70
0
  9
$INSUNITS
 70
1
  0
ENDSEC
  0
SECTION
  2
CLASSES
  0
CLASS
  1
ACDBDICTIONARYWDFLT
  2
AcDbDictionaryWithDefault
  3
AutoCAD 2000
 90
0
 91
1
280
0
281
0
  0
CLASS
  1
ACDBPLACEHOLDER
  2
AcDbPlaceHolder
  3
AutoCAD 2000
 90
0
 91
1
280
0
281
0
  0
CLASS
  1
LAYOUT
  2
AcDbLayout
  3
AutoCAD 2000
 90
0
 91
0
280
0
281
0
  0
CLASS
  1
RASTERVARIABLES
  2
AcDbRasterVariables
  3
ISM
 90
0
 91
1
280
0
281
0
  0
CLASS
  1
IMAGEDEF
  2
AcDbRasterImageDef
  3
ISM
 90
0
 91
1
280
0
281
0
  0
CLASS
  1
IMAGEDEF_REACTOR
  2
AcDbRasterImageDefReactor
  3
ISM
 90
0
 91
1
280
0
281
0
  0
CLASS
  1
IMAGE
  2
AcDbRasterImage
  3
ISM
 90
127
 91
1
280
0
281
1
  0
CLASS
  1
TABLESTYLE
  2
AcDbTableStyle
  3
ObjectDBX Classes
 90
2047
 91
1
280
0
281
0
  0
CLASS
  1
ACAD_TABLE
  2
AcDbTable
  3
ObjectDBX Classes
 90
1025
 91
3
280
0
281
1
  0
ENDSEC
  0
SECTION
  2
TABLES
  0
TABLE
  2
VPORT
  5
8
100
AcDbSymbolTable
 70
2
  0
VPORT
  5
1F4
100
AcDbSymbolTableRecord
100
AcDbViewportTableRecord
  2
*ACTIVE
 70
0
 10
0.0
 20
0.0
 11
1.0
 21
1.0
 12
11.0
 22
8.5
 13
0.0
 23
0.0
 14
1.0
 24
1.0
 15
0.0
 25
0.0
 16
0.0
 26
0.0
 36
1.0
 17
0.0
 27
0.0
 37
0.0
 40
17.0
 41
1.2941176471
 42
50.0
 43
0.0
 44
0.0
 50
0.0
 51
0.0
 71
0
 72
100
 73
1
 74
1
 75
0
 76
0
 77
0
 78
0
  0
ENDTAB
  0
TABLE
  2
LTYPE
  5
5
100
AcDbSymbolTable
 70
6
  0
LTYPE
  5
14
100
AcDbSymbolTableRecord
100
AcDbLinetypeTableRecord
  2
BYBLOCK
 70
0
  3

 72
65
 73
0
 40
0.0
  0
LTYPE
  5
15
100
AcDbSymbolTableRecord
100
AcDbLinetypeTableRecord
  2
BYLAYER
 70
0
  3

 72
65
 73
0
 40
0.0
  0
LTYPE
  5
16
100
AcDbSymbolTableRecord
100
AcDbLinetypeTableRecord
  2
CONTINUOUS
 70
64
  3
Solid line
 72
65
 73
0
 40
0.0
  0
LTYPE
  5
1F5
100
AcDbSymbolTableRecord
100
AcDbLinetypeTableRecord
  2
CENTER
 70
64
  3
____ _ ____ _ ____ _ ____ _ ____ _ ____ _ ____
 72
65
 73
4
 40
0.6
 49
0.375
 74
0
 49
-0.075
 74
0
 49
0.075
 74
0
 49
-0.075
 74
0
  0
LTYPE
  5
1F6
100
AcDbSymbolTableRecord
100
AcDbLinetypeTableRecord
  2
HIDDEN
 70
64
  3
- - - - - - - - - - - - - - - - - - - -
 72
65
 73
2
 40
0.2
 49
0.1
 74
0
 49
-0.1
 74
0
  0
LTYPE
  5
1F7
100
AcDbSymbolTableRecord
100
AcDbLinetypeTableRecord
  2
PHANTOM
 70
64
  3
_____ _ _ _____ _ _ _____ _ _ _____
 72
65
 73
6
 40
0.8
 49
0.45
 74
0
 49
-0.05
 74
0
 49
0.1
 74
0
 49
-0.05
 74
0
 49
0.1
 74
0
 49
-0.05
 74
0
  0
LTYPE
  5
1F8
100
AcDbSymbolTableRecord
100
AcDbLinetypeTableRecord
  2
DOT
 70
64
  3
. . . . . . . . . . . . . . . . . . . .
 72
65
 73
2
 40
0.2
 49
0.1
 74
0
 49
-0.1
 74
0
  0
LTYPE
  5
1F9
100
AcDbSymbolTableRecord
100
AcDbLinetypeTableRecord
  2
DASHED
 70
64
  3
- - - - - - - - - - - - - - - - - - - -
 72
65
 73
2
 40
0.2
 49
0.1
 74
0
 49
-0.1
 74
0
  0
ENDTAB
  0
TABLE
  2
LAYER
  5
2
100
AcDbSymbolTable
 70
36
  0
LAYER
  5
10
100
AcDbSymbolTableRecord
100
AcDbLayerTableRecord
  2
0
 70
0
 62
7
  6
CONTINUOUS
370
-3
390
F
  0
LAYER
  5
1FA
100
AcDbSymbolTableRecord
100
AcDbLayerTableRecord
  2
DEFAULT_1
 70
0
 62
7
  6
CENTER
370
-3
390
F
  0
LAYER
  5
1FB
100
AcDbSymbolTableRecord
100
AcDbLayerTableRecord
  2
DEFAULT_2
 70
0
 62
8
  6
HIDDEN
370
-3
390
F
  0
LAYER
  5
1FC
100
AcDbSymbolTableRecord
100
AcDbLayerTableRecord
  2
DEFAULT_3
 70
0
 62
7
  6
PHANTOM
370
-3
390
F
  0
LAYER
  5
1FD
100
AcDbSymbolTableRecord
100
AcDbLayerTableRecord
  2
DATUM_PLANES
 70
0
 62
7
  6
CONTINUOUS
370
-3
390
F
  0
LAYER
  5
1FE
100
AcDbSymbolTableRecord
100
AcDbLayerTableRecord
  2
PORT_AREAS
 70
0
 62
7
  6
CONTINUOUS
370
-3
390
F
  0
LAYER
  5
1FF
100
AcDbSymbolTableRecord
100
AcDbLayerTableRecord
  2
SUNNBOMCOSMETIC
 70
0
 62
7
  6
CONTINUOUS
370
-3
390
F
  0
LAYER
  5
200
100
AcDbSymbolTableRecord
100
AcDbLayerTableRecord
  2
SUNNBOMSTAMPING
 70
0
 62
7
  6
CONTINUOUS
370
-3
390
F
  0
LAYER
  5
201
100
AcDbSymbolTableRecord
100
AcDbLayerTableRecord
  2
THREADS
 70
0
 62
7
  6
CONTINUOUS
370
-3
390
F
  0
ENDTAB
  0
TABLE
  2
STYLE
  5
3
100
AcDbSymbolTable
 70
1
  0
STYLE
  5
11
100
AcDbSymbolTableRecord
100
AcDbTextStyleTableRecord
  2
STANDARD
 70
0
 40
0.0
 41
0.8
 50
0.0
 71
0
 42
0.2
  3
txt
  4

  0
STYLE
  5
202
100
AcDbSymbolTableRecord
100
AcDbTextStyleTableRecord
  2
TEXTSTYLE_1
 70
0
 40
0.0
 41
0.8
 50
0.0
 71
0
 42
0.2
  3
gdt
  4

  0
ENDTAB
  0
TABLE
  2
VIEW
  5
6
100
AcDbSymbolTable
 70
0
  0
ENDTAB
  0
TABLE
  2
UCS
  5
7
100
AcDbSymbolTable
 70
0
  0
ENDTAB
  0
TABLE
  2
APPID
  5
9
100
AcDbSymbolTable
 70
1
  0
APPID
  5
203
100
AcDbSymbolTableRecord
100
AcDbRegAppTableRecord
  2
ACAD
 70
0
  0
ENDTAB
  0
TABLE
  2
BLOCK_RECORD
  5
1
100
AcDbSymbolTable
 70
0
  0
BLOCK_RECORD
  5
204
100
AcDbSymbolTableRecord
100
AcDbBlockTableRecord
  2
*Model_Space
  0
BLOCK_RECORD
  5
205
100
AcDbSymbolTableRecord
100
AcDbBlockTableRecord
  2
*Paper_Space
  0
BLOCK_RECORD
  5
206
100
AcDbSymbolTableRecord
100
AcDbBlockTableRecord
  2
SUN_FIRST_THIRD_ANGLE_BL0
  0
BLOCK_RECORD
  5
207
100
AcDbSymbolTableRecord
100
AcDbBlockTableRecord
  2
*T1
  0
BLOCK_RECORD
  5
208
100
AcDbSymbolTableRecord
100
AcDbBlockTableRecord
  2
*T2
  0
BLOCK_RECORD
  5
209
100
AcDbSymbolTableRecord
100
AcDbBlockTableRecord
  2
*T3
  0
ENDTAB
  0
TABLE
  2
DIMSTYLE
  5
A
100
AcDbSymbolTable
 70
1
100
AcDbDimStyleTable
 71
0
  0
DIMSTYLE
105
20A
100
AcDbSymbolTableRecord
100
AcDbDimStyleTableRecord
  2
STANDARD
 70
0
  3

  4

 40
1.0
 41
0.1875
 42
0.0625
 43
0.38
 44
0.125
 45
0.0
 46
0.0
 47
0.001
 48
0.001
140
0.1
141
0.09
142
0.0
143
25.4
144
1.0
145
0.0
146
1.0
147
0.09
 71
0.0
 72
0.0
 73
1
 74
1
 75
0
 76
0
 77
0
 78
4
170
0
171
2
172
0
173
0
174
0
175
0
176
0
177
0
178
0
270
2
271
3
272
3
273
2
274
2
275
0
280
0
281
0
282
0
283
1
284
4
285
0
286
0
287
3
288
0
340
11
278
46
  0
ENDTAB
  0
ENDSEC
  0
SECTION
  2
BLOCKS
  0
BLOCK
  5
20
100
AcDbEntity
  8
0
100
AcDbBlockBegin
  2
*Model_Space
 70
0
 10
0.0
 20
0.0
 30
0.0
  3
*Model_Space
  1

  0
ENDBLK
  5
21
100
AcDbEntity
  8
0
100
AcDbBlockEnd
  0
BLOCK
  5
1C
100
AcDbEntity
  8
0
100
AcDbBlockBegin
  2
*Paper_Space
 70
0
 10
0.0
 20
0.0
 30
0.0
  3
*Paper_Space
  1

  0
ENDBLK
  5
1D
100
AcDbEntity
  8
0
100
AcDbBlockEnd
  0
BLOCK
  5
20B
100
AcDbEntity
  8
0
100
AcDbBlockBegin
 62
2
  6
CONTINUOUS
  2
SUN_FIRST_THIRD_ANGLE_BL0
 70
64
 10
20.4816717061
 20
1.2289683772
  3
SUN_FIRST_THIRD_ANGLE_BL0
  1

  0
TEXT
  5
20C
100
AcDbEntity
  8
0
100
AcDbText
 62
2
  6
CONTINUOUS
 10
19.4750896608
 20
1.4136269581
  7
STANDARD
 40
0.08
  1
FIRST ANGLE
 41
0.8
 72
0
100
AcDbText
  0
TEXT
  5
20D
100
AcDbEntity
  8
0
100
AcDbText
 62
2
  6
CONTINUOUS
 10
20.7842537513
 20
1.4047600029
  7
STANDARD
 40
0.08
  1
THIRD ANGLE
 41
0.8
 72
0
100
AcDbText
  0
LINE
  5
20E
100
AcDbEntity
  8
0
100
AcDbLine
 62
7
  6
CONTINUOUS
 10
19.4767170086
 20
1.1727031207
 11
19.6334271527
 21
1.1717972817
  0
LINE
  5
20F
100
AcDbEntity
  8
0
100
AcDbLine
 62
7
  6
CONTINUOUS
 10
19.6596964832
 20
1.1717972817
 11
19.6950230232
 21
1.171593082
  0
LINE
  5
210
100
AcDbEntity
  8
0
100
AcDbLine
 62
7
  6
CONTINUOUS
 10
19.7194818561
 20
1.1708914427
 11
19.8852396156
 21
1.1699333054
  0
LINE
  5
211
100
AcDbEntity
  8
0
100
AcDbLine
 62
7
  6
CONTINUOUS
 10
19.4758111696
 20
1.2723454088
 11
19.88525039
 21
1.3511534004
  0
LINE
  5
212
100
AcDbEntity
  8
0
100
AcDbLine
 62
7
  6
CONTINUOUS
 10
19.88525039
 20
1.3511534004
 11
19.8831348489
 21
0.9851647912
  0
LINE
  5
213
100
AcDbEntity
  8
0
100
AcDbLine
 62
7
  6
CONTINUOUS
 10
19.8831348489
 20
0.9851647912
 11
19.4767170086
 21
1.0658141206
  0
LINE
  5
214
100
AcDbEntity
  8
0
100
AcDbLine
 62
7
  6
CONTINUOUS
 10
19.4767170086
 20
1.0658141206
 11
19.4779056764
 21
1.2714536432
  0
CIRCLE
  5
215
100
AcDbEntity
  8
0
100
AcDbCircle
 62
7
  6
CONTINUOUS
 10
20.2068232291
 20
1.1717972817
 40
0.175742101
  0
CIRCLE
  5
216
100
AcDbEntity
  8
0
100
AcDbCircle
 62
7
  6
CONTINUOUS
 10
20.2068232291
 20
1.1717972817
 40
0.1005522074
  0
LINE
  5
217
100
AcDbEntity
  8
0
100
AcDbLine
 62
7
  6
CONTINUOUS
 10
20.2077290681
 20
1.3756110529
 11
20.2071171714
 21
1.2379342989
  0
LINE
  5
218
100
AcDbEntity
  8
0
100
AcDbLine
 62
7
  6
CONTINUOUS
 10
20.2077290681
 20
1.2016899681
 11
20.2074674401
 21
1.1428236749
  0
LINE
  5
219
100
AcDbEntity
  8
0
100
AcDbLine
 62
7
  6
CONTINUOUS
 10
20.208634907
 20
1.101141841
 11
20.2080230104
 21
0.963465087
  0
LINE
  5
21A
100
AcDbEntity
  8
0
100
AcDbLine
 62
7
  6
CONTINUOUS
 10
20.0066328138
 20
1.1745147986
 11
20.1443095678
 21
1.1739029019
  0
LINE
  5
21B
100
AcDbEntity
  8
0
100
AcDbLine
 62
7
  6
CONTINUOUS
 10
20.1832714155
 20
1.1727031207
 11
20.238153505
 21
1.172335442
  0
LINE
  5
21C
100
AcDbEntity
  8
0
100
AcDbLine
 62
7
  6
CONTINUOUS
 10
20.2756669918
 20
1.1717972817
 11
20.407916871
 21
1.1712095044
  0
CIRCLE
  5
21D
100
AcDbEntity
  8
0
100
AcDbCircle
 62
7
  6
CONTINUOUS
 10
20.7509457401
 20
1.1693297793
 40
0.1722024983
  0
CIRCLE
  5
21E
100
AcDbEntity
  8
0
100
AcDbCircle
 62
7
  6
CONTINUOUS
 10
20.7509457401
 20
1.1693297793
 40
0.0985164967
  0
LINE
  5
21F
100
AcDbEntity
  8
0
100
AcDbLine
 62
7
  6
CONTINUOUS
 10
20.7169767782
 20
1.170462078
 11
20.7825395137
 21
1.1682766535
  0
LINE
  5
220
100
AcDbEntity
  8
0
100
AcDbLine
 62
7
  6
CONTINUOUS
 10
20.8177513651
 20
1.1693297793
 11
20.947965719
 21
1.1693297793
  0
LINE
  5
221
100
AcDbEntity
  8
0
100
AcDbLine
 62
7
  6
CONTINUOUS
 10
20.6875370113
 20
1.170462078
 11
20.5573226574
 21
1.170462078
  0
LINE
  5
222
100
AcDbEntity
  8
0
100
AcDbLine
 62
7
  6
CONTINUOUS
 10
20.7486811426
 20
1.1987695462
 11
20.7486811426
 21
1.1432869085
  0
LINE
  5
223
100
AcDbEntity
  8
0
100
AcDbLine
 62
7
  6
CONTINUOUS
 10
20.7498134414
 20
1.1059210505
 11
20.7498134414
 21
0.9757066966
  0
LINE
  5
224
100
AcDbEntity
  8
0
100
AcDbLine
 62
7
  6
CONTINUOUS
 10
20.7486811426
 20
1.2338708068
 11
20.7486811426
 21
1.3640851607
  0
LINE
  5
225
100
AcDbEntity
  8
0
100
AcDbLine
 62
7
  6
CONTINUOUS
 10
21.0702539817
 20
1.2701043662
 11
21.4790138229
 21
1.3448360823
  0
LINE
  5
226
100
AcDbEntity
  8
0
100
AcDbLine
 62
7
  6
CONTINUOUS
 10
21.4790138229
 20
1.3448360823
 11
21.4790138229
 21
0.9779712941
  0
LINE
  5
227
100
AcDbEntity
  8
0
100
AcDbLine
 62
7
  6
CONTINUOUS
 10
21.4790138229
 20
0.9779712941
 11
21.069121683
 21
1.0617614
  0
LINE
  5
228
100
AcDbEntity
  8
0
100
AcDbLine
 62
7
  6
CONTINUOUS
 10
21.0702539817
 20
1.2701043662
 11
21.069121683
 21
1.0617614
  0
LINE
  5
229
100
AcDbEntity
  8
0
100
AcDbLine
 62
7
  6
CONTINUOUS
 10
21.4790138229
 20
1.1693297793
 11
21.3159628059
 21
1.1693297793
  0
LINE
  5
22A
100
AcDbEntity
  8
0
100
AcDbLine
 62
7
  6
CONTINUOUS
 10
21.2876553377
 20
1.1693297793
 11
21.2502894796
 21
1.1693297793
  0
LINE
  5
22B
100
AcDbEntity
  8
0
100
AcDbLine
 62
7
  6
CONTINUOUS
 10
21.2208497126
 20
1.1659328831
 11
21.0713862804
 21
1.1659328831
  0
LINE
  5
22C
100
AcDbEntity
  8
0
100
AcDbLine
 62
7
  6
CONTINUOUS
 10
20.4796138713
 20
1.5284908897
 11
20.4766766948
 21
0.9294458646
  0
ENDBLK
  5
22D
100
AcDbEntity
  8
0
  6
BYBLOCK
 62
0
100
AcDbBlockEnd
  0
BLOCK
  5
22E
100
AcDbEntity
  8
0
100
AcDbBlockBegin
  2
*T1
 70
1
 10
0.0
 20
0.0
  3
*T1
  1

  0
LINE
  5
22F
100
AcDbEntity
  8
0
100
AcDbLine
 62
2
  6
CONTINUOUS
 10
9.275
 20
0.0
 11
-0.0
 21
0.0
  0
LINE
  5
230
100
AcDbEntity
  8
0
100
AcDbLine
 62
2
  6
CONTINUOUS
 10
9.275
 20
0.0
 11
9.275
 21
1.25
  0
LINE
  5
231
100
AcDbEntity
  8
0
100
AcDbLine
 62
2
  6
CONTINUOUS
 10
9.275
 20
0.625
 11
-0.0
 21
0.625
  0
LINE
  5
232
100
AcDbEntity
  8
0
100
AcDbLine
 62
2
  6
CONTINUOUS
 10
9.275
 20
1.25
 11
-0.0
 21
1.25
  0
LINE
  5
233
100
AcDbEntity
  8
0
100
AcDbLine
 62
2
  6
CONTINUOUS
 10
6.8
 20
0.0
 11
6.8
 21
1.25
  0
LINE
  5
234
100
AcDbEntity
  8
0
100
AcDbLine
 62
2
  6
CONTINUOUS
 10
6.4
 20
0.0
 11
6.4
 21
0.625
  0
LINE
  5
235
100
AcDbEntity
  8
0
100
AcDbLine
 62
2
  6
CONTINUOUS
 10
5.9
 20
0.0
 11
5.9
 21
0.625
  0
LINE
  5
236
100
AcDbEntity
  8
0
100
AcDbLine
 62
2
  6
CONTINUOUS
 10
5.2
 20
0.0
 11
5.2
 21
0.625
  0
LINE
  5
237
100
AcDbEntity
  8
0
100
AcDbLine
 62
2
  6
CONTINUOUS
 10
4.1
 20
0.0
 11
4.1
 21
1.25
  0
LINE
  5
238
100
AcDbEntity
  8
0
100
AcDbLine
 62
2
  6
CONTINUOUS
 10
-0.0
 20
0.0
 11
-0.0
 21
1.25
  0
MTEXT
  5
239
100
AcDbEntity
  8
0
100
AcDbMText
 62
2
  6
CONTINUOUS
  7
STANDARD
 71
2
 72
1
 10
6.6
 20
0.325
 30
0.0
 11
1.0
 21
0.0
 31
0.0
 44
0.9
  1
2
 40
0.125
 41
0.2
  0
MTEXT
  5
23A
100
AcDbEntity
  8
0
100
AcDbMText
 62
2
  6
CONTINUOUS
  7
STANDARD
 71
2
 72
1
 10
6.15
 20
0.325
 30
0.0
 11
1.0
 21
0.0
 31
0.0
 44
0.9
  1
C
 40
0.125
 41
0.2
  0
MTEXT
  5
23B
100
AcDbEntity
  8
0
100
AcDbMText
 62
2
  6
CONTINUOUS
  7
STANDARD
 71
2
 72
1
 10
5.55
 20
0.325
 30
0.0
 11
1.0
 21
0.0
 31
0.0
 44
0.9
  1
2.000
 40
0.125
 41
1.0
  0
MTEXT
  5
23C
100
AcDbEntity
  8
0
100
AcDbMText
 62
2
  6
CONTINUOUS
  7
STANDARD
 71
2
 72
1
 10
4.65
 20
0.325
 30
0.0
 11
1.0
 21
0.0
 31
0.0
 44
0.9
  1
Feb-27-24
 40
0.125
 41
1.8
  0
MTEXT
  5
23D
100
AcDbEntity
  8
0
100
AcDbMText
 62
2
  6
CONTINUOUS
  7
STANDARD
 71
2
 72
1
 10
2.05
 20
0.4625
 30
0.0
 11
1.0
 21
0.0
 31
0.0
 44
0.9
  1
T-13A Line mount\PNinety degree
 40
0.125
 41
3.2
  0
MTEXT
  5
23E
100
AcDbEntity
  8
0
100
AcDbMText
 62
2
  6
CONTINUOUS
  7
STANDARD
 71
1
 72
1
 10
6.45
 20
0.5625
 30
0.0
 11
1.0
 21
0.0
 31
0.0
 44
0.9
  1
SHEET
 40
0.06
 41
0.48
  0
MTEXT
  5
23F
100
AcDbEntity
  8
0
100
AcDbMText
 62
2
  6
CONTINUOUS
  7
STANDARD
 71
1
 72
1
 10
5.95
 20
0.5625
 30
0.0
 11
1.0
 21
0.0
 31
0.0
 44
0.9
  1
DWG SIZE
 40
0.06
 41
0.768
  0
MTEXT
  5
240
100
AcDbEntity
  8
0
100
AcDbMText
 62
2
  6
CONTINUOUS
  7
STANDARD
 71
1
 72
1
 10
5.25
 20
0.5625
 30
0.0
 11
1.0
 21
0.0
 31
0.0
 44
0.9
  1
SCALE
 40
0.06
 41
0.48
  0
MTEXT
  5
241
100
AcDbEntity
  8
0
100
AcDbMText
 62
2
  6
CONTINUOUS
  7
STANDARD
 71
1
 72
1
 10
4.15
 20
0.5625
 30
0.0
 11
1.0
 21
0.0
 31
0.0
 44
0.9
  1
DATE
 40
0.06
 41
0.384
  0
MTEXT
  5
242
100
AcDbEntity
  8
0
100
AcDbMText
 62
2
  6
CONTINUOUS
  7
STANDARD
 71
1
 72
1
 10
0.05
 20
0.5625
 30
0.0
 11
1.0
 21
0.0
 31
0.0
 44
0.9
  1
DESCRIPTION
 40
0.06
 41
1.056
  0
MTEXT
  5
243
100
AcDbEntity
  8
0
100
AcDbMText
 62
2
  6
CONTINUOUS
  7
STANDARD
 71
2
 72
1
 10
5.45
 20
1.0375
 30
0.0
 11
1.0
 21
0.0
 31
0.0
 44
0.9
  1
ALL DIMENSIONS IN INCH\PVIEWS ARE THIRD ANGLE
 40
0.12
 41
4.224
  0
MTEXT
  5
244
100
AcDbEntity
  8
0
100
AcDbMText
 62
2
  6
CONTINUOUS
  7
STANDARD
 71
2
 72
1
 10
2.05
 20
0.95
 30
0.0
 11
1.0
 21
0.0
 31
0.0
 44
0.9
  1
GAH
 40
0.125
 41
0.6
  0
MTEXT
  5
245
100
AcDbEntity
  8
0
100
AcDbMText
 62
2
  6
CONTINUOUS
  7
STANDARD
 71
1
 72
1
 10
0.05
 20
1.1875
 30
0.0
 11
1.0
 21
0.0
 31
0.0
 44
0.9
  1
MODEL
 40
0.06
 41
0.48
  0
ENDBLK
  5
246
100
AcDbEntity
  8
0
  6
BYBLOCK
 62
0
100
AcDbBlockEnd
  0
BLOCK
  5
247
100
AcDbEntity
  8
0
100
AcDbBlockBegin
  2
*T2
 70
1
 10
0.0
 20
0.0
  3
*T2
  1

  0
LINE
  5
248
100
AcDbEntity
  8
0
100
AcDbLine
 62
2
  6
CONTINUOUS
 10
0.0
 20
0.0
 11
9.055
 21
0.0
  0
LINE
  5
249
100
AcDbEntity
  8
0
100
AcDbLine
 62
2
  6
CONTINUOUS
 10
0.0
 20
0.0
 11
0.0
 21
-2.594
  0
LINE
  5
24A
100
AcDbEntity
  8
0
100
AcDbLine
 62
2
  6
CONTINUOUS
 10
0.0
 20
-0.344
 11
9.055
 21
-0.344
  0
LINE
  5
24B
100
AcDbEntity
  8
0
100
AcDbLine
 62
2
  6
CONTINUOUS
 10
0.0
 20
-0.594
 11
9.055
 21
-0.594
  0
LINE
  5
24C
100
AcDbEntity
  8
0
100
AcDbLine
 62
2
  6
CONTINUOUS
 10
0.0
 20
-0.844
 11
9.055
 21
-0.844
  0
LINE
  5
24D
100
AcDbEntity
  8
0
100
AcDbLine
 62
2
  6
CONTINUOUS
 10
0.0
 20
-1.094
 11
9.055
 21
-1.094
  0
LINE
  5
24E
100
AcDbEntity
  8
0
100
AcDbLine
 62
2
  6
CONTINUOUS
 10
0.0
 20
-1.344
 11
9.055
 21
-1.344
  0
LINE
  5
24F
100
AcDbEntity
  8
0
100
AcDbLine
 62
2
  6
CONTINUOUS
 10
0.0
 20
-1.594
 11
9.055
 21
-1.594
  0
LINE
  5
250
100
AcDbEntity
  8
0
100
AcDbLine
 62
2
  6
CONTINUOUS
 10
0.0
 20
-1.844
 11
9.055
 21
-1.844
  0
LINE
  5
251
100
AcDbEntity
  8
0
100
AcDbLine
 62
2
  6
CONTINUOUS
 10
0.0
 20
-2.094
 11
9.055
 21
-2.094
  0
LINE
  5
252
100
AcDbEntity
  8
0
100
AcDbLine
 62
2
  6
CONTINUOUS
 10
0.0
 20
-2.344
 11
9.055
 21
-2.344
  0
LINE
  5
253
100
AcDbEntity
  8
0
100
AcDbLine
 62
2
  6
CONTINUOUS
 10
0.0
 20
-2.594
 11
9.055
 21
-2.594
  0
LINE
  5
254
100
AcDbEntity
  8
0
100
AcDbLine
 62
2
  6
CONTINUOUS
 10
3.055
 20
0.0
 11
3.055
 21
-2.594
  0
LINE
  5
255
100
AcDbEntity
  8
0
100
AcDbLine
 62
2
  6
CONTINUOUS
 10
9.055
 20
0.0
 11
9.055
 21
-2.594
  0
MTEXT
  5
256
100
AcDbEntity
  8
0
100
AcDbMText
 62
2
  6
CONTINUOUS
  7
STANDARD
 71
2
 72
1
 10
1.5275
 20
-0.0995
 30
0.0
 11
1.0
 21
0.0
 31
0.0
 44
0.9
  1
Technical Data
 40
0.145
 41
3.248
  0
MTEXT
  5
257
100
AcDbEntity
  8
0
100
AcDbMText
 62
2
  6
CONTINUOUS
  7
STANDARD
 71
2
 72
1
 10
4.555
 20
-0.0995
 30
0.0
 11
1.0
 21
0.0
 31
0.0
 44
0.9
  1
U.S. Units
 40
0.145
 41
2.32
  0
MTEXT
  5
258
100
AcDbEntity
  8
0
100
AcDbMText
 62
2
  6
CONTINUOUS
  7
STANDARD
 71
2
 72
1
 10
7.555
 20
-0.0995
 30
0.0
 11
1.0
 21
0.0
 31
0.0
 44
0.9
  1
Metric Units
 40
0.145
 41
2.784
  0
MTEXT
  5
259
100
AcDbEntity
  8
0
100
AcDbMText
 62
2
  6
CONTINUOUS
  7
STANDARD
 71
2
 72
1
 10
1.5275
 20
-0.4065
 30
0.0
 11
1.0
 21
0.0
 31
0.0
 44
0.9
  1
Cavity
 40
0.125
 41
1.2
  0
MTEXT
  5
25A
100
AcDbEntity
  8
0
100
AcDbMText
 62
2
  6
CONTINUOUS
  7
STANDARD
 71
2
 72
1
 10
6.055
 20
-0.4065
 30
0.0
 11
1.0
 21
0.0
 31
0.0
 44
0.9
  1
T-13A
 40
0.125
 41
1.0
  0
MTEXT
  5
25B
100
AcDbEntity
  8
0
100
AcDbMText
 62
2
  6
CONTINUOUS
  7
STANDARD
 71
2
 72
1
 10
1.5275
 20
-0.6565
 30
0.0
 11
1.0
 21
0.0
 31
0.0
 44
0.9
  1
Body Features
 40
0.125
 41
2.6
  0
MTEXT
  5
25C
100
AcDbEntity
  8
0
100
AcDbMText
 62
2
  6
CONTINUOUS
  7
STANDARD
 71
2
 72
1
 10
6.055
 20
-0.6565
 30
0.0
 11
1.0
 21
0.0
 31
0.0
 44
0.9
  1
Ninety degree
 40
0.125
 41
2.6
  0
MTEXT
  5
25D
100
AcDbEntity
  8
0
100
AcDbMText
 62
2
  6
CONTINUOUS
  7
STANDARD
 71
2
 72
1
 10
1.5275
 20
-0.9065
 30
0.0
 11
1.0
 21
0.0
 31
0.0
 44
0.9
  1
Body Type
 40
0.125
 41
1.8
  0
MTEXT
  5
25E
100
AcDbEntity
  8
0
100
AcDbMText
 62
2
  6
CONTINUOUS
  7
STANDARD
 71
2
 72
1
 10
6.055
 20
-0.9065
 30
0.0
 11
1.0
 21
0.0
 31
0.0
 44
0.9
  1
Line mount
 40
0.125
 41
2.0
  0
MTEXT
  5
25F
100
AcDbEntity
  8
0
100
AcDbMText
 62
2
  6
CONTINUOUS
  7
STANDARD
 71
2
 72
1
 10
1.5275
 20
-1.1565
 30
0.0
 11
1.0
 21
0.0
 31
0.0
 44
0.9
  1
Interface
 40
0.125
 41
1.8
  0
MTEXT
  5
260
100
AcDbEntity
  8
0
100
AcDbMText
 62
2
  6
CONTINUOUS
  7
STANDARD
 71
2
 72
1
 10
6.055
 20
-1.1565
 30
0.0
 11
1.0
 21
0.0
 31
0.0
 44
0.9
  1
None
 40
0.125
 41
0.8
  0
MTEXT
  5
261
100
AcDbEntity
  8
0
100
AcDbMText
 62
2
  6
CONTINUOUS
  7
STANDARD
 71
2
 72
1
 10
1.5275
 20
-1.4065
 30
0.0
 11
1.0
 21
0.0
 31
0.0
 44
0.9
  1
Open Cavity Quantity
 40
0.125
 41
4.0
  0
MTEXT
  5
262
100
AcDbEntity
  8
0
100
AcDbMText
 62
2
  6
CONTINUOUS
  7
STANDARD
 71
2
 72
1
 10
6.055
 20
-1.4065
 30
0.0
 11
1.0
 21
0.0
 31
0.0
 44
0.9
  1
1
 40
0.125
 41
0.2
  0
MTEXT
  5
263
100
AcDbEntity
  8
0
100
AcDbMText
 62
2
  6
CONTINUOUS
  7
STANDARD
 71
2
 72
1
 10
1.5275
 20
-1.6565
 30
0.0
 11
1.0
 21
0.0
 31
0.0
 44
0.9
  1
Weight
 40
0.125
 41
1.2
  0
MTEXT
  5
264
100
AcDbEntity
  8
0
100
AcDbMText
 62
2
  6
CONTINUOUS
  7
STANDARD
 71
2
 72
1
 10
4.555
 20
-1.6565
 30
0.0
 11
1.0
 21
0.0
 31
0.0
 44
0.9
  1
0.340 lb.
 40
0.125
 41
1.8
  0
MTEXT
  5
265
100
AcDbEntity
  8
0
100
AcDbMText
 62
2
  6
CONTINUOUS
  7
STANDARD
 71
2
 72
1
 10
7.555
 20
-1.6565
 30
0.0
 11
1.0
 21
0.0
 31
0.0
 44
0.9
  1
0,154 kg.
 40
0.125
 41
1.8
  0
MTEXT
  5
266
100
AcDbEntity
  8
0
100
AcDbMText
 62
2
  6
CONTINUOUS
  7
STANDARD
 71
2
 72
1
 10
1.5275
 20
-1.9065
 30
0.0
 11
1.0
 21
0.0
 31
0.0
 44
0.9
  1
Mounting Hole Diameter
 40
0.125
 41
4.4
  0
MTEXT
  5
267
100
AcDbEntity
  8
0
100
AcDbMText
 62
2
  6
CONTINUOUS
  7
STANDARD
 71
2
 72
1
 10
4.555
 20
-1.9065
 30
0.0
 11
1.0
 21
0.0
 31
0.0
 44
0.9
  1
.34 in.
 40
0.125
 41
1.4
  0
MTEXT
  5
268
100
AcDbEntity
  8
0
100
AcDbMText
 62
2
  6
CONTINUOUS
  7
STANDARD
 71
2
 72
1
 10
7.555
 20
-1.9065
 30
0.0
 11
1.0
 21
0.0
 31
0.0
 44
0.9
  1
8.6 mm
 40
0.125
 41
1.2
  0
MTEXT
  5
269
100
AcDbEntity
  8
0
100
AcDbMText
 62
2
  6
CONTINUOUS
  7
STANDARD
 71
2
 72
1
 10
1.5275
 20
-2.1565
 30
0.0
 11
1.0
 21
0.0
 31
0.0
 44
0.9
  1
Mounting Hole Depth
 40
0.125
 41
3.8
  0
MTEXT
  5
26A
100
AcDbEntity
  8
0
100
AcDbMText
 62
2
  6
CONTINUOUS
  7
STANDARD
 71
2
 72
1
 10
6.055
 20
-2.1565
 30
0.0
 11
1.0
 21
0.0
 31
0.0
 44
0.9
  1
Through
 40
0.125
 41
1.4
  0
MTEXT
  5
26B
100
AcDbEntity
  8
0
100
AcDbMText
 62
2
  6
CONTINUOUS
  7
STANDARD
 71
2
 72
1
 10
1.5275
 20
-2.4065
 30
0.0
 11
1.0
 21
0.0
 31
0.0
 44
0.9
  1
Mounting Hole Quantity
 40
0.125
 41
4.4
  0
MTEXT
  5
26C
100
AcDbEntity
  8
0
100
AcDbMText
 62
2
  6
CONTINUOUS
  7
STANDARD
 71
2
 72
1
 10
6.055
 20
-2.4065
 30
0.0
 11
1.0
 21
0.0
 31
0.0
 44
0.9
  1
1
 40
0.125
 41
0.2
  0
ENDBLK
  5
26D
100
AcDbEntity
  8
0
  6
BYBLOCK
 62
0
100
AcDbBlockEnd
  0
BLOCK
  5
26E
100
AcDbEntity
  8
0
100
AcDbBlockBegin
  2
*T3
 70
1
 10
0.0
 20
0.0
  3
*T3
  1

  0
LINE
  5
26F
100
AcDbEntity
  8
0
100
AcDbLine
 62
2
  6
CONTINUOUS
 10
0.0
 20
0.0
 11
4.6
 21
0.0
  0
LINE
  5
270
100
AcDbEntity
  8
0
100
AcDbLine
 62
2
  6
CONTINUOUS
 10
0.0
 20
0.0
 11
0.0
 21
-0.93775
  0
LINE
  5
271
100
AcDbEntity
  8
0
100
AcDbLine
 62
2
  6
CONTINUOUS
 10
0.0
 20
-0.34375
 11
4.6
 21
-0.34375
  0
LINE
  5
272
100
AcDbEntity
  8
0
100
AcDbLine
 62
2
  6
CONTINUOUS
 10
0.0
 20
-0.68775
 11
4.6
 21
-0.68775
  0
LINE
  5
273
100
AcDbEntity
  8
0
100
AcDbLine
 62
2
  6
CONTINUOUS
 10
0.0
 20
-0.93775
 11
4.6
 21
-0.93775
  0
LINE
  5
274
100
AcDbEntity
  8
0
100
AcDbLine
 62
2
  6
CONTINUOUS
 10
1.3
 20
-0.34375
 11
1.3
 21
-0.93775
  0
LINE
  5
275
100
AcDbEntity
  8
0
100
AcDbLine
 62
2
  6
CONTINUOUS
 10
3.3
 20
-0.34375
 11
3.3
 21
-0.93775
  0
LINE
  5
276
100
AcDbEntity
  8
0
100
AcDbLine
 62
2
  6
CONTINUOUS
 10
4.6
 20
0.0
 11
4.6
 21
-0.93775
  0
MTEXT
  5
277
100
AcDbEntity
  8
0
100
AcDbMText
 62
2
  6
CONTINUOUS
  7
STANDARD
 71
2
 72
1
 10
2.3
 20
-0.099375
 30
0.0
 11
1.0
 21
0.0
 31
0.0
 44
0.9
  1
Port Headings
 40
0.145
 41
3.016
  0
MTEXT
  5
278
100
AcDbEntity
  8
0
100
AcDbMText
 62
2
  6
CONTINUOUS
  7
STANDARD
 71
2
 72
1
 10
0.65
 20
-0.44325
 30
0.0
 11
1.0
 21
0.0
 31
0.0
 44
0.9
  1
Product
 40
0.145
 41
1.624
  0
MTEXT
  5
279
100
AcDbEntity
  8
0
100
AcDbMText
 62
2
  6
CONTINUOUS
  7
STANDARD
 71
2
 72
1
 10
2.3
 20
-0.44325
 30
0.0
 11
1.0
 21
0.0
 31
0.0
 44
0.9
  1
Port
 40
0.145
 41
0.928
  0
MTEXT
  5
27A
100
AcDbEntity
  8
0
100
AcDbMText
 62
2
  6
CONTINUOUS
  7
STANDARD
 71
2
 72
1
 10
3.95
 20
-0.44325
 30
0.0
 11
1.0
 21
0.0
 31
0.0
 44
0.9
  1
Size
 40
0.145
 41
0.928
  0
MTEXT
  5
27B
100
AcDbEntity
  8
0
100
AcDbMText
 62
2
  6
CONTINUOUS
  7
STANDARD
 71
2
 72
1
 10
0.65
 20
-0.75025
 30
0.0
 11
1.0
 21
0.0
 31
0.0
 44
0.9
  1
GAH
 40
0.125
 41
0.6
  0
MTEXT
  5
27C
100
AcDbEntity
  8
0
100
AcDbMText
 62
2
  6
CONTINUOUS
  7
STANDARD
 71
2
 72
1
 10
2.3
 20
-0.75025
 30
0.0
 11
1.0
 21
0.0
 31
0.0
 44
0.9
  1
All Ports
 40
0.125
 41
1.8
  0
MTEXT
  5
27D
100
AcDbEntity
  8
0
100
AcDbMText
 62
2
  6
CONTINUOUS
  7
STANDARD
 71
2
 72
1
 10
3.95
 20
-0.75025
 30
0.0
 11
1.0
 21
0.0
 31
0.0
 44
0.9
  1
SAE 4
 40
0.125
 41
1.0
  0
ENDBLK
  5
27E
100
AcDbEntity
  8
0
  6
BYBLOCK
 62
0
100
AcDbBlockEnd
  0
ENDSEC
  0
SECTION
  2
ENTITIES
  0
IMAGE
  5
27F
100
AcDbEntity
  8
0
100
AcDbRasterImage
 62
7
  6
CONTINUOUS
 10
19.2297077316
 20
0.3094318264
 30
0.0
 11
0.0066666667
 21
0.0
 31
0.0
 12
0.0
 22
0.0066666667
 32
0.0
 13
369.0
 23
92.0
340
       318
 70
9
280
0
281
50
282
50
283
0
360
       312
 71
1
 91
2
 14
-0.5
 24
-0.5
 14
368.5
 24
91.5
  0
INSERT
  5
280
100
AcDbEntity
  8
0
100
AcDbBlockReference
 62
2
  6
CONTINUOUS
  2
SUN_FIRST_THIRD_ANGLE_BL0
 10
20.4816717061
 20
1.2289683772
  0
ACAD_TABLE
  5
281
100
AcDbEntity
  8
0
 62
2
  6
CONTINUOUS
100
AcDbBlockReference
  2
*T1
 10
12.42375
 20
0.30125
 30
0.0
100
AcDbTable
342
       31A
343
207
 11
1.0
 21
0.0
 31
0.0
 90
6
 91
4
 92
6
 93
20
 94
0
 95
0
 96
0
 70
1
 41
0.0
141
0.525
141
0.1
141
0.525
141
0.1
142
4.1
142
1.1
142
0.7
142
0.5
142
0.4
142
2.475
171
1
172
0
173
0
174
0
175
1
176
1
 91
33
178
0
145
0.0
301
CELL_VALUE
 90
4
  1
T-13A Line mount\PNinety degree
304
ACVALUE_END
170
2
140
0.125
171
1
172
0
173
0
174
0
175
1
176
1
 91
33
178
0
145
0.0
301
CELL_VALUE
 90
4
  1
Feb-27-24
304
ACVALUE_END
170
5
140
0.125
171
1
172
0
173
0
174
0
175
1
176
1
 91
33
178
0
145
0.0
301
CELL_VALUE
 90
4
  1
2.000
304
ACVALUE_END
170
5
140
0.125
171
1
172
0
173
0
174
0
175
1
176
1
 91
33
178
0
145
0.0
301
CELL_VALUE
 90
4
  1
C
304
ACVALUE_END
170
5
140
0.125
171
1
172
0
173
0
174
0
175
1
176
1
 91
33
178
0
145
0.0
301
CELL_VALUE
 90
4
  1
2
304
ACVALUE_END
170
5
140
0.125
171
1
172
0
173
0
174
0
175
1
176
1
 91
33
178
0
145
0.0
301
CELL_VALUE
 90
4
  1
 
304
ACVALUE_END
170
1
140
0.125
171
1
172
0
173
0
174
0
175
1
176
1
 91
33
178
0
145
0.0
301
CELL_VALUE
 90
4
  1
DESCRIPTION
304
ACVALUE_END
170
1
140
0.06
171
1
172
0
173
0
174
0
175
1
176
1
 91
33
178
0
145
0.0
301
CELL_VALUE
 90
4
  1
DATE
304
ACVALUE_END
170
1
140
0.06
171
1
172
0
173
0
174
0
175
1
176
1
 91
33
178
0
145
0.0
301
CELL_VALUE
 90
4
  1
SCALE
304
ACVALUE_END
170
1
140
0.06
171
1
172
0
173
0
174
0
175
1
176
1
 91
33
178
0
145
0.0
301
CELL_VALUE
 90
4
  1
DWG SIZE
304
ACVALUE_END
170
1
140
0.06
171
1
172
0
173
0
174
0
175
1
176
1
 91
33
178
0
145
0.0
301
CELL_VALUE
 90
4
  1
SHEET
304
ACVALUE_END
170
1
140
0.06
171
1
172
0
173
0
174
0
175
1
176
1
 91
33
178
0
145
0.0
301
CELL_VALUE
 90
4
  1
 
304
ACVALUE_END
170
1
140
0.125
171
1
172
0
173
0
174
0
175
1
176
1
 91
33
178
0
145
0.0
301
CELL_VALUE
 90
4
  1
GAH
304
ACVALUE_END
170
5
140
0.125
171
1
172
0
173
0
174
0
175
4
176
1
 91
33
178
0
145
0.0
301
CELL_VALUE
 90
4
  1
ALL DIMENSIONS IN INCH\PVIEWS ARE THIRD ANGLE
304
ACVALUE_END
170
5
140
0.12
171
1
172
0
173
1
174
0
175
1
176
1
 91
1
178
0
145
0.0
170
1
171
1
172
0
173
1
174
0
175
1
176
1
 91
1
178
0
145
0.0
170
1
171
1
172
0
173
1
174
0
175
1
176
1
 91
1
178
0
145
0.0
170
5
171
1
172
0
173
0
174
0
175
1
176
1
 91
33
178
0
145
0.0
301
CELL_VALUE
 90
4
  1
 
304
ACVALUE_END
170
1
140
0.125
171
1
172
0
173
0
174
0
175
1
176
1
 91
33
178
0
145
0.0
301
CELL_VALUE
 90
4
  1
MODEL
304
ACVALUE_END
170
1
140
0.06
171
1
172
0
173
0
174
0
175
1
176
1
 91
33
178
0
145
0.0
301
CELL_VALUE
 90
4
  1
 
304
ACVALUE_END
170
1
140
0.125
171
1
172
0
173
0
174
0
175
1
176
1
 91
33
178
0
145
0.0
301
CELL_VALUE
 90
4
  1
 
304
ACVALUE_END
170
1
140
0.125
171
1
172
0
173
0
174
0
175
1
176
1
 91
33
178
0
145
0.0
301
CELL_VALUE
 90
4
  1
 
304
ACVALUE_END
170
1
140
0.125
171
1
172
0
173
0
174
0
175
1
176
1
 91
33
178
0
145
0.0
301
CELL_VALUE
 90
4
  1
 
304
ACVALUE_END
170
1
140
0.125
171
1
172
0
173
0
174
0
175
1
176
1
 91
33
178
0
145
0.0
301
CELL_VALUE
 90
4
  1
 
304
ACVALUE_END
170
1
140
0.125
  0
ACAD_TABLE
  5
282
100
AcDbEntity
  8
0
 62
2
  6
CONTINUOUS
100
AcDbBlockReference
  2
*T2
 10
12.4237499994
 20
16.47875
 30
0.0
100
AcDbTable
342
       319
343
208
 11
1.0
 21
0.0
 31
0.0
 90
22
 91
10
 92
3
 93
16
 94
0
 95
0
 96
0
 41
0.028
141
0.344
141
0.25
141
0.25
141
0.25
141
0.25
141
0.25
141
0.25
141
0.25
141
0.25
141
0.25
142
3.055
142
3.0
142
3.0
171
1
172
0
173
0
174
0
175
1
176
1
 91
33
178
0
145
0.0
301
CELL_VALUE
 90
4
  1
Technical Data
304
ACVALUE_END
170
5
140
0.145
171
1
172
0
173
0
174
0
175
1
176
1
 91
33
178
0
145
0.0
301
CELL_VALUE
 90
4
  1
U.S. Units
304
ACVALUE_END
170
5
140
0.145
171
1
172
0
173
0
174
0
175
1
176
1
 91
33
178
0
145
0.0
301
CELL_VALUE
 90
4
  1
Metric Units
304
ACVALUE_END
170
5
140
0.145
171
1
172
0
173
0
174
0
175
1
176
1
 91
33
178
0
145
0.0
301
CELL_VALUE
 90
4
  1
Cavity
304
ACVALUE_END
170
5
140
0.125
171
1
172
0
173
0
174
0
175
2
176
1
 91
33
178
0
145
0.0
301
CELL_VALUE
 90
4
  1
T-13A
304
ACVALUE_END
170
5
140
0.125
171
1
172
0
173
1
174
0
175
1
176
1
 91
1
178
0
145
0.0
170
1
171
1
172
0
173
0
174
0
175
1
176
1
 91
33
178
0
145
0.0
301
CELL_VALUE
 90
4
  1
Body Features
304
ACVALUE_END
170
5
140
0.125
171
1
172
0
173
0
174
0
175
2
176
1
 91
33
178
0
145
0.0
301
CELL_VALUE
 90
4
  1
Ninety degree
304
ACVALUE_END
170
5
140
0.125
171
1
172
0
173
1
174
0
175
1
176
1
 91
1
178
0
145
0.0
170
1
171
1
172
0
173
0
174
0
175
1
176
1
 91
33
178
0
145
0.0
301
CELL_VALUE
 90
4
  1
Body Type
304
ACVALUE_END
170
5
140
0.125
171
1
172
0
173
0
174
0
175
2
176
1
 91
33
178
0
145
0.0
301
CELL_VALUE
 90
4
  1
Line mount
304
ACVALUE_END
170
5
140
0.125
171
1
172
0
173
1
174
0
175
1
176
1
 91
1
178
0
145
0.0
170
1
171
1
172
0
173
0
174
0
175
1
176
1
 91
33
178
0
145
0.0
301
CELL_VALUE
 90
4
  1
Interface
304
ACVALUE_END
170
5
140
0.125
171
1
172
0
173
0
174
0
175
2
176
1
 91
33
178
0
145
0.0
301
CELL_VALUE
 90
4
  1
None
304
ACVALUE_END
170
5
140
0.125
171
1
172
0
173
1
174
0
175
1
176
1
 91
1
178
0
145
0.0
170
1
171
1
172
0
173
0
174
0
175
1
176
1
 91
33
178
0
145
0.0
301
CELL_VALUE
 90
4
  1
Open Cavity Quantity
304
ACVALUE_END
170
5
140
0.125
171
1
172
0
173
0
174
0
175
2
176
1
 91
33
178
0
145
0.0
301
CELL_VALUE
 90
4
  1
1
304
ACVALUE_END
170
5
140
0.125
171
1
172
0
173
1
174
0
175
1
176
1
 91
1
178
0
145
0.0
170
1
171
1
172
0
173
0
174
0
175
1
176
1
 91
33
178
0
145
0.0
301
CELL_VALUE
 90
4
  1
Weight
304
ACVALUE_END
170
5
140
0.125
171
1
172
0
173
0
174
0
175
1
176
1
 91
33
178
0
145
0.0
301
CELL_VALUE
 90
4
  1
0.340 lb.
304
ACVALUE_END
170
5
140
0.125
171
1
172
0
173
0
174
0
175
1
176
1
 91
33
178
0
145
0.0
301
CELL_VALUE
 90
4
  1
0,154 kg.
304
ACVALUE_END
170
5
140
0.125
171
1
172
0
173
0
174
0
175
1
176
1
 91
33
178
0
145
0.0
301
CELL_VALUE
 90
4
  1
Mounting Hole Diameter
304
ACVALUE_END
170
5
140
0.125
171
1
172
0
173
0
174
0
175
1
176
1
 91
33
178
0
145
0.0
301
CELL_VALUE
 90
4
  1
.34 in.
304
ACVALUE_END
170
5
140
0.125
171
1
172
0
173
0
174
0
175
1
176
1
 91
33
178
0
145
0.0
301
CELL_VALUE
 90
4
  1
8.6 mm
304
ACVALUE_END
170
5
140
0.125
171
1
172
0
173
0
174
0
175
1
176
1
 91
33
178
0
145
0.0
301
CELL_VALUE
 90
4
  1
Mounting Hole Depth
304
ACVALUE_END
170
5
140
0.125
171
1
172
0
173
0
174
0
175
2
176
1
 91
33
178
0
145
0.0
301
CELL_VALUE
 90
4
  1
Through
304
ACVALUE_END
170
5
140
0.125
171
1
172
0
173
1
174
0
175
1
176
1
 91
1
178
0
145
0.0
170
1
171
1
172
0
173
0
174
0
175
1
176
1
 91
33
178
0
145
0.0
301
CELL_VALUE
 90
4
  1
Mounting Hole Quantity
304
ACVALUE_END
170
5
140
0.125
171
1
172
0
173
0
174
0
175
2
176
1
 91
33
178
0
145
0.0
301
CELL_VALUE
 90
4
  1
1
304
ACVALUE_END
170
5
140
0.125
171
1
172
0
173
1
174
0
175
1
176
1
 91
1
178
0
145
0.0
170
1
  0
ACAD_TABLE
  5
283
100
AcDbEntity
  8
0
 62
2
  6
CONTINUOUS
100
AcDbBlockReference
  2
*T3
 10
0.52125
 20
1.459
 30
0.0
100
AcDbTable
342
       319
343
209
 11
1.0
 21
0.0
 31
0.0
 90
22
 91
3
 92
3
 93
16
 94
0
 95
0
 96
0
 41
0.05
141
0.34375
141
0.344
141
0.25
142
1.3
142
2.0
142
1.3
171
1
172
0
173
0
174
0
175
3
176
1
 91
33
178
0
145
0.0
301
CELL_VALUE
 90
4
  1
Port Headings
304
ACVALUE_END
170
5
140
0.145
171
1
172
0
173
1
174
0
175
1
176
1
 91
1
178
0
145
0.0
170
1
171
1
172
0
173
1
174
0
175
1
176
1
 91
1
178
0
145
0.0
170
1
171
1
172
0
173
0
174
0
175
1
176
1
 91
33
178
0
145
0.0
301
CELL_VALUE
 90
4
  1
Product
304
ACVALUE_END
170
5
140
0.145
171
1
172
0
173
0
174
0
175
1
176
1
 91
33
178
0
145
0.0
301
CELL_VALUE
 90
4
  1
Port
304
ACVALUE_END
170
5
140
0.145
171
1
172
0
173
0
174
0
175
1
176
1
 91
33
178
0
145
0.0
301
CELL_VALUE
 90
4
  1
Size
304
ACVALUE_END
170
5
140
0.145
171
1
172
0
173
0
174
0
175
1
176
1
 91
33
178
0
145
0.0
301
CELL_VALUE
 90
4
  1
GAH
304
ACVALUE_END
170
5
140
0.125
171
1
172
0
173
0
174
0
175
1
176
1
 91
33
178
0
145
0.0
301
CELL_VALUE
 90
4
  1
All Ports
304
ACVALUE_END
170
5
140
0.125
171
1
172
0
173
0
174
0
175
1
176
1
 91
33
178
0
145
0.0
301
CELL_VALUE
 90
4
  1
SAE 4
304
ACVALUE_END
170
5
140
0.125
  0
MTEXT
  5
284
100
AcDbEntity
  8
0
100
AcDbMText
 62
2
  6
CONTINUOUS
  7
STANDARD
 71
1
 72
1
 10
0.52125
 20
5.75995
 30
0.0
 11
1.0
 21
0.0
 31
0.0
 44
0.6
  3
Notes\P \P1. Important: Carefully consider\P   the maximum system pressure. The\P   pressure rating of the manifold is\P   dependent on the manifold material,\P   with the port type/size a secondary\P   consideration. Manifolds\P   constructed of alu
  3
minum are not\P   rated for pressures higher than\P   3000 psi (210 bar), regardless of\P   the port type/size specified.\P2. This drawing is for reference\P   only. It is generated by an\P   automated process and does not fall\P   under Sun's docume
  1
nt control\P   process.
 40
0.1
 41
3.04
  0
LINE
  5
285
100
AcDbEntity
  8
0
100
AcDbLine
 62
7
  6
CONTINUOUS
 10
0.30125
 20
0.30125
 11
0.30125
 21
16.69875
  0
LINE
  5
286
100
AcDbEntity
  8
0
100
AcDbLine
 62
7
  6
CONTINUOUS
 10
0.30125
 20
0.30125
 11
21.69875
 21
0.30125
  0
LINE
  5
287
100
AcDbEntity
  8
0
100
AcDbLine
 62
7
  6
CONTINUOUS
 10
0.30125
 20
16.69875
 11
21.69875
 21
16.69875
  0
LINE
  5
288
100
AcDbEntity
  8
0
100
AcDbLine
 62
7
  6
CONTINUOUS
 10
21.69875
 20
0.30125
 11
21.69875
 21
16.69875
  0
LINE
  5
289
100
AcDbEntity
  8
0
100
AcDbLine
 62
7
  6
CONTINUOUS
 10
9.1116765247
 20
10.4094652817
 11
9.7587236035
 21
11.0344648029
  0
LINE
  5
28A
100
AcDbEntity
  8
0
100
AcDbLine
 62
7
  6
CONTINUOUS
 10
12.2412763965
 20
5.9655351971
 11
9.1116765247
 21
6.1825736854
  0
LINE
  5
28B
100
AcDbEntity
  8
0
100
AcDbLine
 62
7
  6
CONTINUOUS
 10
9.1116765247
 20
6.1825736854
 11
9.1116765247
 21
10.4094652817
  0
LINE
  5
28C
100
AcDbEntity
  8
0
100
AcDbLine
 62
4
  6
CONTINUOUS
 10
9.7171740247
 20
7.0667672711
 11
9.80548725
 21
7.0164861154
  0
LINE
  5
28D
100
AcDbEntity
  8
0
100
AcDbLine
 62
4
  6
CONTINUOUS
 10
9.3193505922
 20
9.0041297626
 11
9.3048617043
 21
8.9471790187
  0
LINE
  5
28E
100
AcDbEntity
  8
0
100
AcDbLine
 62
4
  6
CONTINUOUS
 10
9.3048617043
 20
9.1403641865
 11
9.3193505922
 21
9.1586779051
  0
LINE
  5
28F
100
AcDbEntity
  8
0
100
AcDbLine
 62
4
  6
CONTINUOUS
 10
9.9324375014
 20
7.1843085327
 11
9.9655549583
 21
7.1488943724
  0
LINE
  5
290
100
AcDbEntity
  8
0
100
AcDbLine
 62
4
  6
CONTINUOUS
 10
9.4207728077
 20
9.1323257241
 11
9.4207728077
 21
9.0936886989
  0
LINE
  5
291
100
AcDbEntity
  8
0
100
AcDbLine
 62
4
  6
CONTINUOUS
 10
9.3483283681
 20
9.0407571792
 11
9.3193505922
 21
9.0041297626
  0
LINE
  5
292
100
AcDbEntity
  8
0
100
AcDbLine
 62
4
  6
CONTINUOUS
 10
9.4207728077
 20
9.0936886989
 11
9.4062839198
 21
9.0753749802
  0
LINE
  5
293
100
AcDbEntity
  8
0
100
AcDbLine
 62
4
  6
CONTINUOUS
 10
11.2626554015
 20
6.860235396
 11
11.1798617386
 21
6.865977156
  0
LINE
  5
294
100
AcDbEntity
  8
0
100
AcDbLine
 62
4
  6
CONTINUOUS
 10
11.0805094093
 20
6.8728672634
 11
11.0308331895
 21
6.876312321
  0
LINE
  5
295
100
AcDbEntity
  8
0
100
AcDbLine
 62
4
  6
CONTINUOUS
 10
10.9038829726
 20
6.8851163484
 11
10.8376480865
 21
6.8897097534
  0
LINE
  5
296
100
AcDbEntity
  8
0
100
AcDbLine
 62
4
  6
CONTINUOUS
 10
9.9324375014
 20
6.9524863207
 11
9.8496438661
 21
6.9582280788
  0
LINE
  5
297
100
AcDbEntity
  8
0
100
AcDbLine
 62
4
  6
CONTINUOUS
 10
10.45679727
 20
6.9161218472
 11
10.5561496545
 21
6.9092317359
  0
LINE
  5
298
100
AcDbEntity
  8
0
100
AcDbLine
 62
4
  6
CONTINUOUS
 10
11.3896057289
 20
6.8514313609
 11
11.4889580581
 21
6.8445412534
  0
LINE
  5
299
100
AcDbEntity
  8
0
100
AcDbLine
 62
4
  6
CONTINUOUS
 10
10.0814660643
 20
7.0083860754
 11
10.1697792827
 21
7.0022615329
  0
LINE
  5
29A
100
AcDbEntity
  8
0
100
AcDbLine
 62
4
  6
CONTINUOUS
 10
11.4558406151
 20
6.9793077973
 11
11.3896057289
 21
6.9839012022
  0
LINE
  5
29B
100
AcDbEntity
  8
0
100
AcDbLine
 62
4
  6
CONTINUOUS
 10
10.5230322115
 20
7.0439982798
 11
10.45679727
 21
7.0485916886
  0
LINE
  5
29C
100
AcDbEntity
  8
0
100
AcDbLine
 62
4
  6
CONTINUOUS
 10
9.581116459
 20
8.3909660112
 11
9.581116459
 21
8.2750549052
  0
LINE
  5
29D
100
AcDbEntity
  8
0
100
AcDbLine
 62
4
  6
CONTINUOUS
 10
9.697027565
 20
8.2670164427
 11
9.697027565
 21
8.1511053366
  0
LINE
  5
29E
100
AcDbEntity
  8
0
100
AcDbLine
 62
4
  6
CONTINUOUS
 10
9.754983118
 20
8.1470861054
 11
9.754983118
 21
8.3789083174
  0
LINE
  5
29F
100
AcDbEntity
  8
0
100
AcDbLine
 62
4
  6
CONTINUOUS
 10
9.3193505922
 20
9.1586779051
 11
9.3483283681
 21
9.1759868022
  0
LINE
  5
2A0
100
AcDbEntity
  8
0
100
AcDbLine
 62
4
  6
CONTINUOUS
 10
9.4062839198
 20
9.0753749802
 11
9.3483283681
 21
9.0407571792
  0
LINE
  5
2A1
100
AcDbEntity
  8
0
100
AcDbLine
 62
4
  6
CONTINUOUS
 10
9.8496438661
 20
7.1900502908
 11
9.9324375014
 21
7.1843085327
  0
LINE
  5
2A2
100
AcDbEntity
  8
0
100
AcDbLine
 62
4
  6
CONTINUOUS
 10
10.2580925011
 20
7.1617242818
 11
10.3905623286
 21
7.152537468
  0
LINE
  5
2A3
100
AcDbEntity
  8
0
100
AcDbLine
 62
4
  6
CONTINUOUS
 10
10.45679727
 20
7.1479440593
 11
10.5561496545
 21
7.141053948
  0
LINE
  5
2A4
100
AcDbEntity
  8
0
100
AcDbLine
 62
4
  6
CONTINUOUS
 10
10.8376480865
 20
7.1215319654
 11
10.9038829726
 21
7.1169385605
  0
LINE
  5
2A5
100
AcDbEntity
  8
0
100
AcDbLine
 62
4
  6
CONTINUOUS
 10
11.0308331895
 20
7.108134533
 11
11.0805094093
 21
7.1046894755
  0
LINE
  5
2A6
100
AcDbEntity
  8
0
100
AcDbLine
 62
4
  6
CONTINUOUS
 10
11.1798617386
 20
7.097799368
 11
11.2626554015
 21
7.092057608
  0
LINE
  5
2A7
100
AcDbEntity
  8
0
100
AcDbLine
 62
4
  6
CONTINUOUS
 10
11.3896057289
 20
7.0832535729
 11
11.4889580581
 21
7.0763634655
  0
LINE
  5
2A8
100
AcDbEntity
  8
0
100
AcDbLine
 62
4
  6
CONTINUOUS
 10
9.8496438661
 20
6.9582280788
 11
9.8496438661
 21
7.1900502908
  0
LINE
  5
2A9
100
AcDbEntity
  8
0
100
AcDbLine
 62
4
  6
CONTINUOUS
 10
9.870894224
 20
8.3708698549
 11
9.870894224
 21
8.1390476429
  0
LINE
  5
2AA
100
AcDbEntity
  8
0
100
AcDbLine
 62
4
  6
CONTINUOUS
 10
9.928849777
 20
8.3668506237
 11
9.928849777
 21
8.1350284116
  0
LINE
  5
2AB
100
AcDbEntity
  8
0
100
AcDbLine
 62
4
  6
CONTINUOUS
 10
9.9655549583
 20
7.1488943724
 11
9.9655549583
 21
6.9833070776
  0
LINE
  5
2AC
100
AcDbEntity
  8
0
100
AcDbLine
 62
4
  6
CONTINUOUS
 10
10.547870265
 20
7.4198147801
 11
10.4650766193
 21
7.4255565389
  0
LINE
  5
2AD
100
AcDbEntity
  8
0
100
AcDbLine
 62
4
  6
CONTINUOUS
 10
10.6361834833
 20
7.4799251582
 11
10.7244967017
 21
7.4738006158
  0
LINE
  5
2AE
100
AcDbEntity
  8
0
100
AcDbLine
 62
4
  6
CONTINUOUS
 10
11.5551929443
 20
6.9834568421
 11
11.6435061626
 21
6.9331756836
  0
LINE
  5
2AF
100
AcDbEntity
  8
0
100
AcDbLine
 62
4
  6
CONTINUOUS
 10
10.8376480865
 20
6.8897097534
 11
10.8045306434
 21
6.9251239162
  0
LINE
  5
2B0
100
AcDbEntity
  8
0
100
AcDbLine
 62
4
  6
CONTINUOUS
 10
10.4650766193
 20
7.4255565389
 11
10.4319591589
 21
7.4609707029
  0
LINE
  5
2B1
100
AcDbEntity
  8
0
100
AcDbLine
 62
4
  6
CONTINUOUS
 10
11.0308331895
 20
6.876312321
 11
10.9977157464
 21
6.9117264838
  0
LINE
  5
2B2
100
AcDbEntity
  8
0
100
AcDbLine
 62
4
  6
CONTINUOUS
 10
10.1256226735
 20
7.1709110955
 11
10.1918576149
 21
6.9344954747
  0
LINE
  5
2B3
100
AcDbEntity
  8
0
100
AcDbLine
 62
4
  6
CONTINUOUS
 10
10.0447608831
 20
8.3588121612
 11
10.0447608831
 21
8.1269899491
  0
LINE
  5
2B4
100
AcDbEntity
  8
0
100
AcDbLine
 62
4
  6
CONTINUOUS
 10
10.4981940796
 20
7.5557296766
 11
10.547870265
 21
7.5522846214
  0
LINE
  5
2B5
100
AcDbEntity
  8
0
100
AcDbLine
 62
4
  6
CONTINUOUS
 10
10.8128099477
 20
7.533910992
 11
10.9287210261
 21
7.5258725314
  0
LINE
  5
2B6
100
AcDbEntity
  8
0
100
AcDbLine
 62
4
  6
CONTINUOUS
 10
10.4650766193
 20
7.6573787509
 11
10.547870265
 21
7.6516369921
  0
LINE
  5
2B7
100
AcDbEntity
  8
0
100
AcDbLine
 62
4
  6
CONTINUOUS
 10
11.0805094093
 20
7.1046894755
 11
11.1136268524
 21
7.0692753161
  0
LINE
  5
2B8
100
AcDbEntity
  8
0
100
AcDbLine
 62
4
  6
CONTINUOUS
 10
9.4062839198
 20
9.1526490584
 11
9.4207728077
 21
9.1323257241
  0
LINE
  5
2B9
100
AcDbEntity
  8
0
100
AcDbLine
 62
4
  6
CONTINUOUS
 10
10.2765830951
 20
8.1109130241
 11
10.2765830951
 21
8.3427352362
  0
LINE
  5
2BA
100
AcDbEntity
  8
0
100
AcDbLine
 62
4
  6
CONTINUOUS
 10
10.3243274425
 20
6.9253086609
 11
10.3243274425
 21
7.157130873
  0
LINE
  5
2BB
100
AcDbEntity
  8
0
100
AcDbLine
 62
4
  6
CONTINUOUS
 10
10.3924942011
 20
8.1028745616
 11
10.3924942011
 21
8.2187856676
  0
LINE
  5
2BC
100
AcDbEntity
  8
0
100
AcDbLine
 62
4
  6
CONTINUOUS
 10
11.2626554015
 20
7.092057608
 11
11.2957728446
 21
7.0566434487
  0
LINE
  5
2BD
100
AcDbEntity
  8
0
100
AcDbLine
 62
4
  6
CONTINUOUS
 10
10.4319591589
 20
7.4609707029
 11
10.4319591589
 21
7.6265579977
  0
LINE
  5
2BE
100
AcDbEntity
  8
0
100
AcDbLine
 62
4
  6
CONTINUOUS
 10
10.45679727
 20
6.9161218472
 11
10.45679727
 21
7.1479440593
  0
LINE
  5
2BF
100
AcDbEntity
  8
0
100
AcDbLine
 62
4
  6
CONTINUOUS
 10
10.4871549377
 20
8.0963098172
 11
10.4871549377
 21
8.2122209233
  0
LINE
  5
2C0
100
AcDbEntity
  8
0
100
AcDbLine
 62
4
  6
CONTINUOUS
 10
10.547870265
 20
7.5522846214
 11
10.547870265
 21
7.4198147801
  0
LINE
  5
2C1
100
AcDbEntity
  8
0
100
AcDbLine
 62
4
  6
CONTINUOUS
 10
10.6030660437
 20
8.2041824608
 11
10.6030660437
 21
7.9723602487
  0
LINE
  5
2C2
100
AcDbEntity
  8
0
100
AcDbLine
 62
4
  6
CONTINUOUS
 10
10.0593877597
 20
6.9436822904
 11
10.1256226735
 21
7.1709110955
  0
LINE
  5
2C3
100
AcDbEntity
  8
0
100
AcDbLine
 62
4
  6
CONTINUOUS
 10
10.6030660437
 20
7.9723602487
 11
10.525791973
 21
7.9777192237
  0
LINE
  5
2C4
100
AcDbEntity
  8
0
100
AcDbLine
 62
4
  6
CONTINUOUS
 10
11.9167252453
 20
7.9971687797
 11
11.8008141393
 21
8.0052072422
  0
LINE
  5
2C5
100
AcDbEntity
  8
0
100
AcDbLine
 62
4
  6
CONTINUOUS
 10
11.1826215738
 20
8.0480790422
 11
11.0667104678
 21
8.0561175047
  0
LINE
  5
2C6
100
AcDbEntity
  8
0
100
AcDbLine
 62
4
  6
CONTINUOUS
 10
10.7962512204
 20
8.0748739172
 11
10.6803401144
 21
8.0829123797
  0
LINE
  5
2C7
100
AcDbEntity
  8
0
100
AcDbLine
 62
4
  6
CONTINUOUS
 10
10.6030660437
 20
8.0882713547
 11
10.4871549377
 21
8.0963098172
  0
LINE
  5
2C8
100
AcDbEntity
  8
0
100
AcDbLine
 62
4
  6
CONTINUOUS
 10
9.870894224
 20
8.1390476429
 11
9.754983118
 21
8.1470861054
  0
LINE
  5
2C9
100
AcDbEntity
  8
0
100
AcDbLine
 62
4
  6
CONTINUOUS
 10
9.697027565
 20
8.1511053366
 11
9.581116459
 21
8.1591437991
  0
LINE
  5
2CA
100
AcDbEntity
  8
0
100
AcDbLine
 62
4
  6
CONTINUOUS
 10
11.2598956445
 20
8.0427200672
 11
11.3758067505
 21
8.0346816047
  0
LINE
  5
2CB
100
AcDbEntity
  8
0
100
AcDbLine
 62
4
  6
CONTINUOUS
 10
11.6076289626
 20
8.0186046797
 11
11.7235400686
 21
8.0105662172
  0
LINE
  5
2CC
100
AcDbEntity
  8
0
100
AcDbLine
 62
4
  6
CONTINUOUS
 10
9.3773061439
 20
9.1739771866
 11
9.4062839198
 21
9.1526490584
  0
LINE
  5
2CD
100
AcDbEntity
  8
0
100
AcDbLine
 62
4
  6
CONTINUOUS
 10
10.6803400925
 20
7.6424501784
 11
10.7465750063
 21
7.4060345594
  0
LINE
  5
2CE
100
AcDbEntity
  8
0
100
AcDbLine
 62
4
  6
CONTINUOUS
 10
10.6803401144
 20
8.0829123797
 11
10.6803401144
 21
8.1988234857
  0
LINE
  5
2CF
100
AcDbEntity
  8
0
100
AcDbLine
 62
4
  6
CONTINUOUS
 10
10.7962512204
 20
8.3066961293
 11
10.7962512204
 21
8.0748739172
  0
LINE
  5
2D0
100
AcDbEntity
  8
0
100
AcDbLine
 62
4
  6
CONTINUOUS
 10
10.8045306434
 20
6.9251239162
 11
10.8045306434
 21
7.090711211
  0
LINE
  5
2D1
100
AcDbEntity
  8
0
100
AcDbLine
 62
4
  6
CONTINUOUS
 10
10.8128099477
 20
7.4014411507
 11
10.8128099477
 21
7.6332633627
  0
LINE
  5
2D2
100
AcDbEntity
  8
0
100
AcDbLine
 62
7
  6
CONTINUOUS
 10
12.2412763965
 20
10.1924267934
 11
12.8883234753
 21
10.8174263146
  0
LINE
  5
2D3
100
AcDbEntity
  8
0
100
AcDbLine
 62
4
  6
CONTINUOUS
 10
11.8008141393
 20
8.0631627952
 11
11.9167252453
 21
8.0551243327
  0
LINE
  5
2D4
100
AcDbEntity
  8
0
100
AcDbLine
 62
4
  6
CONTINUOUS
 10
11.0667104678
 20
8.1333915754
 11
11.1826215738
 21
8.1253531129
  0
LINE
  5
2D5
100
AcDbEntity
  8
0
100
AcDbLine
 62
4
  6
CONTINUOUS
 10
11.1826215738
 20
8.1639901482
 11
11.1053475032
 21
8.1693491232
  0
LINE
  5
2D6
100
AcDbEntity
  8
0
100
AcDbLine
 62
4
  6
CONTINUOUS
 10
10.3924942011
 20
8.2187856676
 11
10.2765830951
 21
8.2268241301
  0
LINE
  5
2D7
100
AcDbEntity
  8
0
100
AcDbLine
 62
4
  6
CONTINUOUS
 10
9.581116459
 20
8.2750549052
 11
9.697027565
 21
8.2670164427
  0
LINE
  5
2D8
100
AcDbEntity
  8
0
100
AcDbLine
 62
4
  6
CONTINUOUS
 10
10.6803401144
 20
8.1988234857
 11
10.7962512204
 21
8.1907850232
  0
LINE
  5
2D9
100
AcDbEntity
  8
0
100
AcDbLine
 62
4
  6
CONTINUOUS
 10
10.8735252911
 20
8.1854260482
 11
10.9894363971
 21
8.1773875857
  0
LINE
  5
2DA
100
AcDbEntity
  8
0
100
AcDbLine
 62
4
  6
CONTINUOUS
 10
11.6076289626
 20
8.1345157857
 11
11.7235400686
 21
8.1264773232
  0
LINE
  5
2DB
100
AcDbEntity
  8
0
100
AcDbLine
 62
4
  6
CONTINUOUS
 10
11.8008141393
 20
8.1211183482
 11
11.9167252453
 21
8.1130798857
  0
LINE
  5
2DC
100
AcDbEntity
  8
0
100
AcDbLine
 62
4
  6
CONTINUOUS
 10
11.5158660037
 20
8.1988351215
 11
11.5448437802
 21
8.1968255059
  0
LINE
  5
2DD
100
AcDbEntity
  8
0
100
AcDbLine
 62
4
  6
CONTINUOUS
 10
9.697027565
 20
8.3829275487
 11
9.581116459
 21
8.3909660112
  0
LINE
  5
2DE
100
AcDbEntity
  8
0
100
AcDbLine
 62
4
  6
CONTINUOUS
 10
9.928849777
 20
8.3668506237
 11
10.0447608831
 21
8.3588121612
  0
LINE
  5
2DF
100
AcDbEntity
  8
0
100
AcDbLine
 62
4
  6
CONTINUOUS
 10
10.8735252911
 20
8.1854260482
 11
10.8735252911
 21
8.0695149422
  0
LINE
  5
2E0
100
AcDbEntity
  8
0
100
AcDbLine
 62
4
  6
CONTINUOUS
 10
10.9287210261
 20
7.6252249021
 11
10.9287210261
 21
7.3934026901
  0
LINE
  5
2E1
100
AcDbEntity
  8
0
100
AcDbLine
 62
4
  6
CONTINUOUS
 10
10.9977157464
 20
6.9117264838
 11
10.9977157464
 21
7.0773137786
  0
LINE
  5
2E2
100
AcDbEntity
  8
0
100
AcDbLine
 62
4
  6
CONTINUOUS
 10
10.6141051788
 20
7.4152213732
 11
10.6803400925
 21
7.6424501784
  0
LINE
  5
2E3
100
AcDbEntity
  8
0
100
AcDbLine
 62
4
  6
CONTINUOUS
 10
11.0667104678
 20
8.0561175047
 11
11.0667104678
 21
8.1333915754
  0
LINE
  5
2E4
100
AcDbEntity
  8
0
100
AcDbLine
 62
4
  6
CONTINUOUS
 10
11.1136268524
 20
7.0692753161
 11
11.1136268524
 21
6.9036880213
  0
LINE
  5
2E5
100
AcDbEntity
  8
0
100
AcDbLine
 62
4
  6
CONTINUOUS
 10
11.1594393952
 20
6.4655682344
 11
11.1594393952
 21
6.2337460276
  0
LINE
  5
2E6
100
AcDbEntity
  8
0
100
AcDbLine
 62
4
  6
CONTINUOUS
 10
11.1798617386
 20
6.865977156
 11
11.1798617386
 21
7.097799368
  0
LINE
  5
2E7
100
AcDbEntity
  8
0
100
AcDbLine
 62
4
  6
CONTINUOUS
 10
11.1826215738
 20
8.1639901482
 11
11.1826215738
 21
8.0480790422
  0
LINE
  5
2E8
100
AcDbEntity
  8
0
100
AcDbLine
 62
4
  6
CONTINUOUS
 10
11.2598956445
 20
8.1586311732
 11
11.2598956445
 21
8.0427200672
  0
LINE
  5
2E9
100
AcDbEntity
  8
0
100
AcDbLine
 62
4
  6
CONTINUOUS
 10
11.2957728446
 20
7.0566434487
 11
11.2957728446
 21
6.8910561538
  0
LINE
  5
2EA
100
AcDbEntity
  8
0
100
AcDbLine
 62
4
  6
CONTINUOUS
 10
11.3758067505
 20
8.0346816047
 11
11.3758067505
 21
8.1505927107
  0
LINE
  5
2EB
100
AcDbEntity
  8
0
100
AcDbLine
 62
4
  6
CONTINUOUS
 10
11.3896057289
 20
6.8514313609
 11
11.3896057289
 21
7.0832535729
  0
LINE
  5
2EC
100
AcDbEntity
  8
0
100
AcDbLine
 62
4
  6
CONTINUOUS
 10
10.4319591589
 20
7.6265579977
 11
10.4650766193
 21
7.6573787509
  0
LINE
  5
2ED
100
AcDbEntity
  8
0
100
AcDbLine
 62
4
  6
CONTINUOUS
 10
9.9655549583
 20
6.9833070776
 11
9.9324375014
 21
6.9524863207
  0
LINE
  5
2EE
100
AcDbEntity
  8
0
100
AcDbLine
 62
4
  6
CONTINUOUS
 10
9.3048617043
 20
8.9471790187
 11
9.4207728077
 21
8.9391405563
  0
LINE
  5
2EF
100
AcDbEntity
  8
0
100
AcDbLine
 62
4
  6
CONTINUOUS
 10
11.4530808212
 20
8.0293226297
 11
11.4530808212
 21
8.2611448417
  0
LINE
  5
2F0
100
AcDbEntity
  8
0
100
AcDbLine
 62
4
  6
CONTINUOUS
 10
11.5303548919
 20
8.0239636547
 11
11.5303548919
 21
8.1398747607
  0
LINE
  5
2F1
100
AcDbEntity
  8
0
100
AcDbLine
 62
4
  6
CONTINUOUS
 10
11.6076289626
 20
8.1345157857
 11
11.6076289626
 21
8.0186046797
  0
LINE
  5
2F2
100
AcDbEntity
  8
0
100
AcDbLine
 62
4
  6
CONTINUOUS
 10
9.3483283681
 20
9.1759868022
 11
9.3773061439
 21
9.1739771866
  0
LINE
  5
2F3
100
AcDbEntity
  8
0
100
AcDbLine
 62
4
  6
CONTINUOUS
 10
11.8008141393
 20
8.1211183482
 11
11.8008141393
 21
8.0631627952
  0
LINE
  5
2F4
100
AcDbEntity
  8
0
100
AcDbLine
 62
4
  6
CONTINUOUS
 10
9.80548725
 20
7.1047993442
 11
9.7171740247
 21
7.0667672711
  0
LINE
  5
2F5
100
AcDbEntity
  8
0
100
AcDbLine
 62
4
  6
CONTINUOUS
 10
11.9167252453
 20
8.0551243327
 11
11.9167252453
 21
7.9971687797
  0
LINE
  5
2F6
100
AcDbEntity
  8
0
100
AcDbLine
 62
4
  6
CONTINUOUS
 10
10.8045306434
 20
7.090711211
 11
10.8376480865
 21
7.1215319654
  0
LINE
  5
2F7
100
AcDbEntity
  8
0
100
AcDbLine
 62
4
  6
CONTINUOUS
 10
10.9977157464
 20
7.0773137786
 11
11.0308331895
 21
7.108134533
  0
LINE
  5
2F8
100
AcDbEntity
  8
0
100
AcDbLine
 62
7
  6
CONTINUOUS
 10
12.2412763965
 20
10.1924267934
 11
12.2412763965
 21
5.9655351971
  0
LINE
  5
2F9
100
AcDbEntity
  8
0
100
AcDbLine
 62
4
  6
CONTINUOUS
 10
11.1136268524
 20
6.9036880213
 11
11.0805094093
 21
6.8728672634
  0
LINE
  5
2FA
100
AcDbEntity
  8
0
100
AcDbLine
 62
4
  6
CONTINUOUS
 10
11.2957728446
 20
6.8910561538
 11
11.2626554015
 21
6.860235396
  0
LINE
  5
2FB
100
AcDbEntity
  8
0
100
AcDbLine
 62
4
  6
CONTINUOUS
 10
11.6435061626
 20
6.9331756836
 11
11.5551929443
 21
6.8951436134
  0
LINE
  5
2FC
100
AcDbEntity
  8
0
100
AcDbLine
 62
7
  6
CONTINUOUS
 10
12.8883234753
 20
10.8174263146
 11
12.8883234753
 21
6.5905347183
  0
LINE
  5
2FD
100
AcDbEntity
  8
0
100
AcDbLine
 62
7
  6
CONTINUOUS
 10
9.1116765247
 20
10.4094652817
 11
12.2412763965
 21
10.1924267934
  0
LINE
  5
2FE
100
AcDbEntity
  8
0
100
AcDbLine
 62
7
  6
CONTINUOUS
 10
9.7587236035
 20
11.0344648029
 11
12.8883234753
 21
10.8174263146
  0
LINE
  5
2FF
100
AcDbEntity
  8
0
100
AcDbLine
 62
7
  6
CONTINUOUS
 10
12.2412763965
 20
5.9655351971
 11
12.8883234753
 21
6.5905347183
  0
SPLINE
  5
300
100
AcDbEntity
  8
0
100
AcDbSpline
 62
7
  6
CONTINUOUS
 70
0
 71
3
 72
49
 73
45
 74
0
 42
0.0000001
 43
0.0000001
 44
0.0000000001
 40
0.0
 40
0.0
 40
0.0
 40
0.0
 40
0.0311433193
 40
0.062439643
 40
0.0938831404
 40
0.1254640328
 40
0.1571701696
 40
0.1889867823
 40
0.220896928
 40
0.252881823
 40
0.2849212258
 40
0.3169938379
 40
0.3490777191
 40
0.3811507111
 40
0.4131908663
 40
0.4451768715
 40
0.4770884637
 40
0.5089068314
 40
0.5406149947
 40
0.5721981612
 40
0.6036440456
 40
0.6349431495
 40
0.6660889932
 40
0.6970782942
 40
0.7125167375
 40
0.7279163395
 40
0.7432776328
 40
0.7586013528
 40
0.7738884498
 40
0.7891400702
 40
0.8043575623
 40
0.8195424669
 40
0.8346965046
 40
0.8498215788
 40
0.8649197522
 40
0.8799932467
 40
0.895044427
 40
0.9100757844
 40
0.9250899313
 40
0.9400895763
 40
0.9550775157
 40
0.9700566161
 40
0.9850297926
 40
1.0
 40
1.0
 40
1.0
 40
1.0
 10
9.6545268487
 20
7.0200557154
 30
0.0
 10
9.6626407891
 20
7.0194930118
 30
0.0
 10
9.6788733836
 20
7.0177709353
 30
0.0
 10
9.7030254787
 20
7.0134329521
 30
0.0
 10
9.7269188796
 20
7.0073567682
 30
0.0
 10
9.7504245548
 20
6.9995750228
 30
0.0
 10
9.7734176166
 20
6.9901294426
 30
0.0
 10
9.795775411
 20
6.9790705326
 30
0.0
 10
9.8173788343
 20
6.9664573987
 30
0.0
 10
9.8381127757
 20
6.9523573955
 30
0.0
 10
9.8578667671
 20
6.9368457618
 30
0.0
 10
9.8765355504
 20
6.9200052252
 30
0.0
 10
9.8940196327
 20
6.9019255635
 30
0.0
 10
9.910225817
 20
6.8827031397
 30
0.0
 10
9.9250677087
 20
6.8624404017
 30
0.0
 10
9.9384661513
 20
6.8412453218
 30
0.0
 10
9.9503496461
 20
6.819230833
 30
0.0
 10
9.9606547307
 20
6.7965142328
 30
0.0
 10
9.9693263134
 20
6.7732165747
 30
0.0
 10
9.9763179954
 20
6.7494620138
 30
0.0
 10
9.9815923038
 20
6.7253772443
 30
0.0
 10
9.9851208612
 20
6.7010904515
 30
0.0
 10
9.9868846549
 20
6.67673206
 30
0.0
 10
9.9868755424
 20
6.6564531069
 30
0.0
 10
9.9859777814
 20
6.6403281606
 30
0.0
 10
9.9848626695
 20
6.6283114288
 30
0.0
 10
9.9833064217
 20
6.6163741856
 30
0.0
 10
9.9813110559
 20
6.6045321776
 30
0.0
 10
9.9788793253
 20
6.5928012599
 30
0.0
 10
9.9760143606
 20
6.581197109
 30
0.0
 10
9.9727200616
 20
6.5697352128
 30
0.0
 10
9.9690007929
 20
6.5584308875
 30
0.0
 10
9.9648614799
 20
6.5472992507
 30
0.0
 10
9.960307728
 20
6.5363551428
 30
0.0
 10
9.9553455084
 20
6.5256132312
 30
0.0
 10
9.949981535
 20
6.5150878297
 30
0.0
 10
9.9442229222
 20
6.5047930242
 30
0.0
 10
9.9380773476
 20
6.4947425816
 30
0.0
 10
9.9315530807
 20
6.484949894
 30
0.0
 10
9.9246587398
 20
6.4754281077
 30
0.0
 10
9.9174036363
 20
6.4661898963
 30
0.0
 10
9.9097973588
 20
6.4572476043
 30
0.0
 10
9.9018502513
 20
6.4486133405
 30
0.0
 10
9.8963314541
 20
6.4430695967
 30
0.0
 10
9.8935194272
 20
6.4403533903
 30
0.0
  0
SPLINE
  5
301
100
AcDbEntity
  8
0
100
AcDbSpline
 62
7
  6
CONTINUOUS
 70
0
 71
3
 72
56
 73
52
 74
0
 42
0.0000001
 43
0.0000001
 44
0.0000000001
 40
0.0
 40
0.0
 40
0.0
 40
0.0
 40
0.04819767
 40
0.0958287999
 40
0.1428184574
 40
0.1890960021
 40
0.2345906274
 40
0.2792338175
 40
0.3229587609
 40
0.3657007211
 40
0.4073972055
 40
0.447988157
 40
0.4874161815
 40
0.5256267868
 40
0.5625686641
 40
0.5981939778
 40
0.6324586991
 40
0.6490685131
 40
0.6653236227
 40
0.6812197653
 40
0.6967530693
 40
0.7119199208
 40
0.7267171674
 40
0.7411419932
 40
0.7551920189
 40
0.768865364
 40
0.7821605602
 40
0.7950767741
 40
0.8076136724
 40
0.8197715991
 40
0.831551607
 40
0.842955453
 40
0.8539858326
 40
0.8646462836
 40
0.8749414472
 40
0.8848770999
 40
0.8944602695
 40
0.903699487
 40
0.9126047878
 40
0.9211880502
 40
0.9294630638
 40
0.9374457581
 40
0.9451544345
 40
0.9526098277
 40
0.9598353668
 40
0.9668571361
 40
0.9737039215
 40
0.9804070763
 40
0.9870002242
 40
0.9935189075
 40
1.0
 40
1.0
 40
1.0
 40
1.0
 10
11.1442088172
 20
10.3727408321
 30
0.0
 10
11.1329295623
 20
10.3735230511
 30
0.0
 10
11.1105121452
 20
10.3752042049
 30
0.0
 10
11.0771335976
 20
10.3780948867
 30
0.0
 10
11.0442397696
 20
10.3813361196
 30
0.0
 10
11.0118859527
 20
10.38492238
 30
0.0
 10
10.9801260299
 20
10.3888476986
 30
0.0
 10
10.9490131847
 20
10.3931054578
 30
0.0
 10
10.9185993964
 20
10.3976885116
 30
0.0
 10
10.8889354951
 20
10.4025891514
 30
0.0
 10
10.8600710407
 20
10.4077991379
 30
0.0
 10
10.8320542464
 20
10.4133097119
 30
0.0
 10
10.8049318929
 20
10.4191116074
 30
0.0
 10
10.7787492571
 20
10.4251950716
 30
0.0
 10
10.7535499745
 20
10.4315498692
 30
0.0
 10
10.7293761527
 20
10.4381653154
 30
0.0
 10
10.7099231127
 20
10.4439443219
 30
0.0
 10
10.6949095597
 20
10.4486968109
 30
0.0
 10
10.6840472456
 20
10.4522824339
 30
0.0
 10
10.6734705395
 20
10.4559247545
 30
0.0
 10
10.6631838353
 20
10.4596222198
 30
0.0
 10
10.6531914369
 20
10.4633733307
 30
0.0
 10
10.6434975009
 20
10.4671764774
 30
0.0
 10
10.6341060702
 20
10.4710300887
 30
0.0
 10
10.6250210603
 20
10.474932567
 30
0.0
 10
10.6162462413
 20
10.4788822443
 30
0.0
 10
10.6077852797
 20
10.4828775309
 30
0.0
 10
10.5996416741
 20
10.4869167078
 30
0.0
 10
10.5918188162
 20
10.4909981335
 30
0.0
 10
10.5843199494
 20
10.4951201094
 30
0.0
 10
10.5771481671
 20
10.4992809027
 30
0.0
 10
10.5703064613
 20
10.5034788533
 30
0.0
 10
10.5637976279
 20
10.5077121722
 30
0.0
 10
10.5576243792
 20
10.5119791847
 30
0.0
 10
10.5517892474
 20
10.5162781302
 30
0.0
 10
10.5462946288
 20
10.5206072652
 30
0.0
 10
10.5411428217
 20
10.5249649027
 30
0.0
 10
10.5363359084
 20
10.5293492501
 30
0.0
 10
10.5318759385
 20
10.5337586559
 30
0.0
 10
10.5277647468
 20
10.5381913622
 30
0.0
 10
10.5240040934
 20
10.5426456813
 30
0.0
 10
10.5205956537
 20
10.547119942
 30
0.0
 10
10.5175409058
 20
10.5516123953
 30
0.0
 10
10.5148413887
 20
10.5561213947
 30
0.0
 10
10.5124983931
 20
10.5606451438
 30
0.0
 10
10.5105132454
 20
10.5651818731
 30
0.0
 10
10.5088871442
 20
10.569729706
 30
0.0
 10
10.5076210887
 20
10.5742866038
 30
0.0
 10
10.5067160953
 20
10.5788505825
 30
0.0
 10
10.506172747
 20
10.5834189976
 30
0.0
 10
10.5060518446
 20
10.5864698823
 30
0.0
 10
10.5060518389
 20
10.5879902354
 30
0.0
  0
SPLINE
  5
302
100
AcDbEntity
  8
0
100
AcDbSpline
 62
7
  6
CONTINUOUS
 70
0
 71
3
 72
26
 73
22
 74
0
 42
0.0000001
 43
0.0000001
 44
0.0000000001
 40
0.0
 40
0.0
 40
0.0
 40
0.0
 40
0.0616472045
 40
0.0924807904
 40
0.123322998
 40
0.1850390226
 40
0.2468231026
 40
0.2777501789
 40
0.3087022495
 40
0.3706859571
 40
0.4327990275
 40
0.4950593404
 40
0.5574831709
 40
0.6200850423
 40
0.6828775537
 40
0.7143512732
 40
0.7458764653
 40
0.8090800663
 40
0.8724988925
 40
0.9361394865
 40
1.0
 40
1.0
 40
1.0
 40
1.0
 10
9.4155342702
 20
6.9352010327
 30
0.0
 10
9.419394656
 20
6.9389298748
 30
0.0
 10
9.4253379558
 20
6.944369444
 30
0.0
 10
9.4335447448
 20
6.9512939713
 30
0.0
 10
9.4419394409
 20
6.9579994935
 30
0.0
 10
9.4527733263
 20
6.9659605069
 30
0.0
 10
9.4640243914
 20
6.9733336306
 30
0.0
 10
9.4732597305
 20
6.9788699125
 30
0.0
 10
9.4826545963
 20
6.9841663818
 30
0.0
 10
9.4946754732
 20
6.9903234706
 30
0.0
 10
9.5094951611
 20
6.9969463681
 30
0.0
 10
9.5246799008
 20
7.0027910444
 30
0.0
 10
9.5401912527
 20
7.007842687
 30
0.0
 10
9.5559899475
 20
7.0120886013
 30
0.0
 10
9.5693522435
 20
7.0149444524
 30
0.0
 10
9.5801437684
 20
7.0168173275
 30
0.0
 10
9.5910153455
 20
7.0184170494
 30
0.0
 10
9.6047110704
 20
7.0198959978
 30
0.0
 10
9.6212564883
 20
7.0208333172
 30
0.0
 10
9.6378850492
 20
7.0209324093
 30
0.0
 10
9.6489802725
 20
7.0204403718
 30
0.0
 10
9.6545268487
 20
7.0200557154
 30
0.0
  0
SPLINE
  5
303
100
AcDbEntity
  8
0
100
AcDbSpline
 62
7
  6
CONTINUOUS
 70
0
 71
3
 72
64
 73
60
 74
0
 42
0.0000001
 43
0.0000001
 44
0.0000000001
 40
0.0
 40
0.0
 40
0.0
 40
0.0
 40
0.0027758387
 40
0.0055595824
 40
0.0083590655
 40
0.0111819794
 40
0.0140358014
 40
0.0169277481
 40
0.019864731
 40
0.022853302
 40
0.0290079858
 40
0.035438301
 40
0.0387696712
 40
0.0421838346
 40
0.0492745804
 40
0.0567385318
 40
0.0645975212
 40
0.0728690988
 40
0.0815670104
 40
0.0907018291
 40
0.1002813132
 40
0.1103108419
 40
0.1207937351
 40
0.1317314688
 40
0.1431239945
 40
0.1549698042
 40
0.1672662038
 40
0.1800093531
 40
0.1931944186
 40
0.2068156777
 40
0.2208665351
 40
0.2353396907
 40
0.2502270833
 40
0.2655200476
 40
0.2812092867
 40
0.2972849401
 40
0.3137366413
 40
0.3305534868
 40
0.3477241574
 40
0.3652368476
 40
0.3830793755
 40
0.4012391539
 40
0.4197032268
 40
0.438458316
 40
0.4574907861
 40
0.4767867365
 40
0.4963319481
 40
0.5361116867
 40
0.576711777
 40
0.6180102065
 40
0.6598821184
 40
0.7022003471
 40
0.7448359455
 40
0.7876587066
 40
0.8305376891
 40
0.8733417056
 40
0.915939974
 40
0.9582021531
 40
1.0
 40
1.0
 40
1.0
 40
1.0
 10
12.2280518233
 20
10.587991099
 30
0.0
 10
12.2280518273
 20
10.5869272352
 30
0.0
 10
12.2279928107
 20
10.5847960097
 30
0.0
 10
12.227727382
 20
10.5816017988
 30
0.0
 10
12.2272850543
 20
10.5784089562
 30
0.0
 10
12.2266659492
 20
10.5752183402
 30
0.0
 10
12.2258702877
 20
10.5720306155
 30
0.0
 10
12.2248982937
 20
10.5688465006
 30
0.0
 10
12.223750155
 20
10.5656666311
 30
0.0
 10
12.2219676982
 20
10.5613919731
 30
0.0
 10
12.2192819511
 20
10.5560517937
 30
0.0
 10
12.2160780974
 20
10.5508524687
 30
0.0
 10
12.2131827431
 20
10.5467139958
 30
0.0
 10
12.2099815878
 20
10.542484945
 30
0.0
 10
12.2055307895
 20
10.5372220887
 30
0.0
 10
12.1995703474
 20
10.5310290913
 30
0.0
 10
12.1929294414
 20
10.5248846617
 30
0.0
 10
12.1856136247
 20
10.5187935325
 30
0.0
 10
12.1776287441
 20
10.5127600482
 30
0.0
 10
12.1689811376
 20
10.5067888616
 30
0.0
 10
12.1596777117
 20
10.5008845486
 30
0.0
 10
12.1497258961
 20
10.4950517527
 30
0.0
 10
12.1391336577
 20
10.4892951417
 30
0.0
 10
12.1279095366
 20
10.4836192825
 30
0.0
 10
12.1160625682
 20
10.4780288264
 30
0.0
 10
12.1036023597
 20
10.4725282499
 30
0.0
 10
12.0905390042
 20
10.4671220818
 30
0.0
 10
12.0768831242
 20
10.4618147171
 30
0.0
 10
12.062645835
 20
10.4566104945
 30
0.0
 10
12.0478387344
 20
10.4515137102
 30
0.0
 10
12.0324739098
 20
10.4465284981
 30
0.0
 10
12.0165638986
 20
10.4416590055
 30
0.0
 10
12.0001217071
 20
10.436909183
 30
0.0
 10
11.9831607733
 20
10.4322829669
 30
0.0
 10
11.9656949709
 20
10.4277841468
 30
0.0
 10
11.9477385911
 20
10.4234164098
 30
0.0
 10
11.9293063283
 20
10.4191833763
 30
0.0
 10
11.9104132746
 20
10.415088483
 30
0.0
 10
11.8910748982
 20
10.4111351416
 30
0.0
 10
11.8713070384
 20
10.4073265626
 30
0.0
 10
11.8511258867
 20
10.4036659002
 30
0.0
 10
11.8305479754
 20
10.4001561581
 30
0.0
 10
11.8095901643
 20
10.3968002064
 30
0.0
 10
11.7882696236
 20
10.3936008324
 30
0.0
 10
11.7666038286
 20
10.3905606294
 30
0.0
 10
11.7446105165
 20
10.3876821214
 30
0.0
 10
11.7146987744
 20
10.3840416154
 30
0.0
 10
11.6766220325
 20
10.379919612
 30
0.0
 10
11.6301787476
 20
10.3756812311
 30
0.0
 10
11.5828732677
 20
10.3721365051
 30
0.0
 10
11.5348606636
 20
10.3692971231
 30
0.0
 10
11.4862982027
 20
10.3671724674
 30
0.0
 10
11.4373450062
 20
10.3657695534
 30
0.0
 10
11.3881614745
 20
10.3650930108
 30
0.0
 10
11.3389087745
 20
10.3651450735
 30
0.0
 10
11.2897482807
 20
10.3659255625
 30
0.0
 10
11.2408411188
 20
10.367431916
 30
0.0
 10
11.1923475899
 20
10.3696591307
 30
0.0
 10
11.1601898139
 20
10.3716325462
 30
0.0
 10
11.1442088172
 20
10.3727408321
 30
0.0
  0
SPLINE
  5
304
100
AcDbEntity
  8
0
100
AcDbSpline
 62
7
  6
CONTINUOUS
 70
0
 71
3
 72
56
 73
52
 74
0
 42
0.0000001
 43
0.0000001
 44
0.0000000001
 40
0.0
 40
0.0
 40
0.0
 40
0.0
 40
0.04819767
 40
0.0958287999
 40
0.1428184574
 40
0.1890960021
 40
0.2345906274
 40
0.2792338175
 40
0.3229587609
 40
0.3657007211
 40
0.4073972055
 40
0.447988157
 40
0.4874161815
 40
0.5256267868
 40
0.5625686641
 40
0.5981939778
 40
0.6324586991
 40
0.6490685131
 40
0.6653236227
 40
0.6812197653
 40
0.6967530693
 40
0.7119199208
 40
0.7267171674
 40
0.7411419932
 40
0.7551920189
 40
0.768865364
 40
0.7821605602
 40
0.7950767741
 40
0.8076136724
 40
0.8197715991
 40
0.831551607
 40
0.842955453
 40
0.8539858326
 40
0.8646462836
 40
0.8749414472
 40
0.8848770999
 40
0.8944602695
 40
0.903699487
 40
0.9126047878
 40
0.9211880502
 40
0.9294630638
 40
0.9374457581
 40
0.9451544345
 40
0.9526098277
 40
0.9598353668
 40
0.9668571361
 40
0.9737039215
 40
0.9804070763
 40
0.9870002242
 40
0.9935189075
 40
1.0
 40
1.0
 40
1.0
 40
1.0
 10
11.5898948451
 20
10.8032405023
 30
0.0
 10
11.6011740999
 20
10.8024582833
 30
0.0
 10
11.6235915171
 20
10.8007771295
 30
0.0
 10
11.6569700647
 20
10.7978864477
 30
0.0
 10
11.6898638926
 20
10.7946452148
 30
0.0
 10
11.7222177096
 20
10.7910589544
 30
0.0
 10
11.7539776323
 20
10.7871336358
 30
0.0
 10
11.7850904776
 20
10.7828758766
 30
0.0
 10
11.8155042659
 20
10.7782928228
 30
0.0
 10
11.8451681671
 20
10.773392183
 30
0.0
 10
11.8740326215
 20
10.7681821965
 30
0.0
 10
11.9020494158
 20
10.7626716225
 30
0.0
 10
11.9291717694
 20
10.756869727
 30
0.0
 10
11.9553544052
 20
10.7507862628
 30
0.0
 10
11.9805536878
 20
10.7444314652
 30
0.0
 10
12.0047275096
 20
10.737816019
 30
0.0
 10
12.0241805496
 20
10.7320370124
 30
0.0
 10
12.0391941026
 20
10.7272845234
 30
0.0
 10
12.0500564166
 20
10.7236989005
 30
0.0
 10
12.0606331228
 20
10.7200565799
 30
0.0
 10
12.0709198269
 20
10.7163591146
 30
0.0
 10
12.0809122254
 20
10.7126080037
 30
0.0
 10
12.0906061614
 20
10.708804857
 30
0.0
 10
12.0999975921
 20
10.7049512457
 30
0.0
 10
12.1090826019
 20
10.7010487674
 30
0.0
 10
12.117857421
 20
10.6970990901
 30
0.0
 10
12.1263183825
 20
10.6931038035
 30
0.0
 10
12.1344619882
 20
10.6890646266
 30
0.0
 10
12.1422848461
 20
10.6849832009
 30
0.0
 10
12.1497837129
 20
10.680861225
 30
0.0
 10
12.1569554952
 20
10.6767004317
 30
0.0
 10
12.163797201
 20
10.6725024811
 30
0.0
 10
12.1703060343
 20
10.6682691622
 30
0.0
 10
12.1764792831
 20
10.6640021497
 30
0.0
 10
12.1823144148
 20
10.6597032042
 30
0.0
 10
12.1878090335
 20
10.6553740692
 30
0.0
 10
12.1929608406
 20
10.6510164317
 30
0.0
 10
12.1977677539
 20
10.6466320843
 30
0.0
 10
12.2022277238
 20
10.6422226785
 30
0.0
 10
12.2063389155
 20
10.6377899722
 30
0.0
 10
12.2100995689
 20
10.633335653
 30
0.0
 10
12.2135080086
 20
10.6288613924
 30
0.0
 10
12.2165627564
 20
10.6243689391
 30
0.0
 10
12.2192622736
 20
10.6198599397
 30
0.0
 10
12.2216052692
 20
10.6153361906
 30
0.0
 10
12.2235904168
 20
10.6107994613
 30
0.0
 10
12.2252165181
 20
10.6062516284
 30
0.0
 10
12.2264825736
 20
10.6016947306
 30
0.0
 10
12.2273875669
 20
10.5971307519
 30
0.0
 10
12.2279309153
 20
10.5925623368
 30
0.0
 10
12.2280518176
 20
10.5895114521
 30
0.0
 10
12.2280518233
 20
10.587991099
 30
0.0
  0
SPLINE
  5
305
100
AcDbEntity
  8
0
100
AcDbSpline
 62
7
  6
CONTINUOUS
 70
0
 71
3
 72
49
 73
45
 74
0
 42
0.0000001
 43
0.0000001
 44
0.0000000001
 40
0.0
 40
0.0
 40
0.0
 40
0.0
 40
0.0311433193
 40
0.062439643
 40
0.0938831404
 40
0.1254640328
 40
0.1571701696
 40
0.1889867823
 40
0.220896928
 40
0.252881823
 40
0.2849212258
 40
0.3169938379
 40
0.3490777191
 40
0.3811507111
 40
0.4131908663
 40
0.4451768715
 40
0.4770884637
 40
0.5089068314
 40
0.5406149947
 40
0.5721981612
 40
0.6036440456
 40
0.6349431495
 40
0.6660889932
 40
0.6970782942
 40
0.7125167375
 40
0.7279163395
 40
0.7432776328
 40
0.7586013528
 40
0.7738884498
 40
0.7891400702
 40
0.8043575623
 40
0.8195424669
 40
0.8346965046
 40
0.8498215788
 40
0.8649197522
 40
0.8799932467
 40
0.895044427
 40
0.9100757844
 40
0.9250899313
 40
0.9400895763
 40
0.9550775157
 40
0.9700566161
 40
0.9850297926
 40
1.0
 40
1.0
 40
1.0
 40
1.0
 10
9.6545268487
 20
6.3554987076
 30
0.0
 10
9.6464129083
 20
6.3560614113
 30
0.0
 10
9.6301803137
 20
6.3577834877
 30
0.0
 10
9.6060282187
 20
6.362121471
 30
0.0
 10
9.5821348177
 20
6.3681976549
 30
0.0
 10
9.5586291426
 20
6.3759794002
 30
0.0
 10
9.5356360807
 20
6.3854249804
 30
0.0
 10
9.5132782863
 20
6.3964838904
 30
0.0
 10
9.4916748631
 20
6.4090970243
 30
0.0
 10
9.4709409216
 20
6.4231970275
 30
0.0
 10
9.4511869302
 20
6.4387086613
 30
0.0
 10
9.4325181469
 20
6.4555491978
 30
0.0
 10
9.4150340646
 20
6.4736288595
 30
0.0
 10
9.3988278804
 20
6.4928512833
 30
0.0
 10
9.3839859886
 20
6.5131140214
 30
0.0
 10
9.3705875461
 20
6.5343091013
 30
0.0
 10
9.3587040513
 20
6.5563235901
 30
0.0
 10
9.3483989667
 20
6.5790401902
 30
0.0
 10
9.339727384
 20
6.6023378483
 30
0.0
 10
9.3327357019
 20
6.6260924093
 30
0.0
 10
9.3274613936
 20
6.6501771787
 30
0.0
 10
9.3239328362
 20
6.6744639716
 30
0.0
 10
9.3221690424
 20
6.698822363
 30
0.0
 10
9.322178155
 20
6.7191013162
 30
0.0
 10
9.3230759159
 20
6.7352262624
 30
0.0
 10
9.3241910278
 20
6.7472429942
 30
0.0
 10
9.3257472756
 20
6.7591802374
 30
0.0
 10
9.3277426414
 20
6.7710222454
 30
0.0
 10
9.330174372
 20
6.7827531632
 30
0.0
 10
9.3330393368
 20
6.794357314
 30
0.0
 10
9.3363336357
 20
6.8058192102
 30
0.0
 10
9.3400529045
 20
6.8171235355
 30
0.0
 10
9.3441922174
 20
6.8282551724
 30
0.0
 10
9.3487459693
 20
6.8391992802
 30
0.0
 10
9.3537081889
 20
6.8499411919
 30
0.0
 10
9.3590721623
 20
6.8604665933
 30
0.0
 10
9.3648307752
 20
6.8707613988
 30
0.0
 10
9.3709763497
 20
6.8808118414
 30
0.0
 10
9.3775006166
 20
6.890604529
 30
0.0
 10
9.3843949575
 20
6.9001263153
 30
0.0
 10
9.391650061
 20
6.9093645268
 30
0.0
 10
9.3992563385
 20
6.9183068187
 30
0.0
 10
9.4072034461
 20
6.9269410825
 30
0.0
 10
9.4127222433
 20
6.9324848264
 30
0.0
 10
9.4155342702
 20
6.9352010327
 30
0.0
  0
SPLINE
  5
306
100
AcDbEntity
  8
0
100
AcDbSpline
 62
7
  6
CONTINUOUS
 70
0
 71
3
 72
26
 73
22
 74
0
 42
0.0000001
 43
0.0000001
 44
0.0000000001
 40
0.0
 40
0.0
 40
0.0
 40
0.0
 40
0.0616472045
 40
0.0924807904
 40
0.123322998
 40
0.1850390226
 40
0.2468231026
 40
0.2777501789
 40
0.3087022495
 40
0.3706859571
 40
0.4327990275
 40
0.4950593404
 40
0.5574831709
 40
0.6200850423
 40
0.6828775537
 40
0.7143512732
 40
0.7458764653
 40
0.8090800663
 40
0.8724988925
 40
0.9361394865
 40
1.0
 40
1.0
 40
1.0
 40
1.0
 10
9.8935194272
 20
6.4403533903
 30
0.0
 10
9.8896590414
 20
6.4366245482
 30
0.0
 10
9.8837157415
 20
6.431184979
 30
0.0
 10
9.8755089526
 20
6.4242604517
 30
0.0
 10
9.8671142564
 20
6.4175549296
 30
0.0
 10
9.8562803711
 20
6.4095939162
 30
0.0
 10
9.8450293059
 20
6.4022207924
 30
0.0
 10
9.8357939669
 20
6.3966845106
 30
0.0
 10
9.826399101
 20
6.3913880412
 30
0.0
 10
9.8143782242
 20
6.3852309524
 30
0.0
 10
9.7995585363
 20
6.378608055
 30
0.0
 10
9.7843737965
 20
6.3727633786
 30
0.0
 10
9.7688624447
 20
6.367711736
 30
0.0
 10
9.7530637499
 20
6.3634658218
 30
0.0
 10
9.7397014538
 20
6.3606099706
 30
0.0
 10
9.728909929
 20
6.3587370956
 30
0.0
 10
9.7180383518
 20
6.3571373737
 30
0.0
 10
9.7043426269
 20
6.3556584252
 30
0.0
 10
9.6877972091
 20
6.3547211058
 30
0.0
 10
9.6711686482
 20
6.3546220137
 30
0.0
 10
9.6600734249
 20
6.3551140512
 30
0.0
 10
9.6545268487
 20
6.3554987076
 30
0.0
  0
SPLINE
  5
307
100
AcDbEntity
  8
0
100
AcDbSpline
 62
7
  6
CONTINUOUS
 70
0
 71
3
 72
64
 73
60
 74
0
 42
0.0000001
 43
0.0000001
 44
0.0000000001
 40
0.0
 40
0.0
 40
0.0
 40
0.0
 40
0.0027758387
 40
0.0055595824
 40
0.0083590655
 40
0.0111819794
 40
0.0140358014
 40
0.0169277481
 40
0.019864731
 40
0.022853302
 40
0.0290079858
 40
0.035438301
 40
0.0387696712
 40
0.0421838346
 40
0.0492745804
 40
0.0567385318
 40
0.0645975212
 40
0.0728690988
 40
0.0815670104
 40
0.0907018291
 40
0.1002813132
 40
0.1103108419
 40
0.1207937351
 40
0.1317314688
 40
0.1431239945
 40
0.1549698042
 40
0.1672662038
 40
0.1800093531
 40
0.1931944186
 40
0.2068156777
 40
0.2208665351
 40
0.2353396907
 40
0.2502270833
 40
0.2655200476
 40
0.2812092867
 40
0.2972849401
 40
0.3137366413
 40
0.3305534868
 40
0.3477241574
 40
0.3652368476
 40
0.3830793755
 40
0.4012391539
 40
0.4197032268
 40
0.438458316
 40
0.4574907861
 40
0.4767867365
 40
0.4963319481
 40
0.5361116867
 40
0.576711777
 40
0.6180102065
 40
0.6598821184
 40
0.7022003471
 40
0.7448359455
 40
0.7876587066
 40
0.8305376891
 40
0.8733417056
 40
0.915939974
 40
0.9582021531
 40
1.0
 40
1.0
 40
1.0
 40
1.0
 10
10.5060518389
 20
10.5879902354
 30
0.0
 10
10.506051835
 20
10.5890540992
 30
0.0
 10
10.5061108516
 20
10.5911853247
 30
0.0
 10
10.5063762803
 20
10.5943795356
 30
0.0
 10
10.506818608
 20
10.5975723782
 30
0.0
 10
10.507437713
 20
10.6007629942
 30
0.0
 10
10.5082333746
 20
10.6039507188
 30
0.0
 10
10.5092053686
 20
10.6071348338
 30
0.0
 10
10.5103535073
 20
10.6103147033
 30
0.0
 10
10.5121359641
 20
10.6145893613
 30
0.0
 10
10.5148217111
 20
10.6199295407
 30
0.0
 10
10.5180255648
 20
10.6251288657
 30
0.0
 10
10.5209209192
 20
10.6292673386
 30
0.0
 10
10.5241220745
 20
10.6334963894
 30
0.0
 10
10.5285728728
 20
10.6387592457
 30
0.0
 10
10.5345333149
 20
10.6449522431
 30
0.0
 10
10.5411742209
 20
10.6510966727
 30
0.0
 10
10.5484900376
 20
10.6571878019
 30
0.0
 10
10.5564749181
 20
10.6632212862
 30
0.0
 10
10.5651225247
 20
10.6691924728
 30
0.0
 10
10.5744259506
 20
10.6750967858
 30
0.0
 10
10.5843777661
 20
10.6809295817
 30
0.0
 10
10.5949700045
 20
10.6866861927
 30
0.0
 10
10.6061941257
 20
10.6923620519
 30
0.0
 10
10.618041094
 20
10.697952508
 30
0.0
 10
10.6305013026
 20
10.7034530845
 30
0.0
 10
10.6435646581
 20
10.7088592525
 30
0.0
 10
10.6572205381
 20
10.7141666173
 30
0.0
 10
10.6714578273
 20
10.7193708399
 30
0.0
 10
10.6862649279
 20
10.7244676242
 30
0.0
 10
10.7016297525
 20
10.7294528363
 30
0.0
 10
10.7175397637
 20
10.7343223289
 30
0.0
 10
10.7339819552
 20
10.7390721514
 30
0.0
 10
10.750942889
 20
10.7436983675
 30
0.0
 10
10.7684086914
 20
10.7481971876
 30
0.0
 10
10.7863650711
 20
10.7525649246
 30
0.0
 10
10.8047973339
 20
10.7567979581
 30
0.0
 10
10.8236903877
 20
10.7608928513
 30
0.0
 10
10.843028764
 20
10.7648461927
 30
0.0
 10
10.8627966239
 20
10.7686547718
 30
0.0
 10
10.8829777755
 20
10.7723154342
 30
0.0
 10
10.9035556869
 20
10.7758251763
 30
0.0
 10
10.924513498
 20
10.779181128
 30
0.0
 10
10.9458340386
 20
10.782380502
 30
0.0
 10
10.9674998337
 20
10.785420705
 30
0.0
 10
10.9894931457
 20
10.7882992129
 30
0.0
 10
11.0194048879
 20
10.791939719
 30
0.0
 10
11.0574816298
 20
10.7960617224
 30
0.0
 10
11.1039249147
 20
10.8003001033
 30
0.0
 10
11.1512303946
 20
10.8038448293
 30
0.0
 10
11.1992429987
 20
10.8066842113
 30
0.0
 10
11.2478054596
 20
10.808808867
 30
0.0
 10
11.296758656
 20
10.810211781
 30
0.0
 10
11.3459421878
 20
10.8108883236
 30
0.0
 10
11.3951948878
 20
10.8108362609
 30
0.0
 10
11.4443553815
 20
10.8100557719
 30
0.0
 10
11.4932625434
 20
10.8085494184
 30
0.0
 10
11.5417560724
 20
10.8063222036
 30
0.0
 10
11.5739138483
 20
10.8043487882
 30
0.0
 10
11.5898948451
 20
10.8032405023
 30
0.0
  0
SPLINE
  5
308
100
AcDbEntity
  8
0
100
AcDbSpline
 62
7
  6
CONTINUOUS
 70
0
 71
3
 72
56
 73
52
 74
0
 42
0.0000001
 43
0.0000001
 44
0.0000000001
 40
0.0
 40
0.0
 40
0.0
 40
0.0
 40
0.0060329021
 40
0.0123311368
 40
0.018923079
 40
0.0258327668
 40
0.0330801924
 40
0.0406818503
 40
0.048651059
 40
0.0569984568
 40
0.0657322691
 40
0.0748586881
 40
0.0843820843
 40
0.094305264
 40
0.1046296481
 40
0.1153554219
 40
0.1264817026
 40
0.1380066009
 40
0.14992739
 40
0.1622404984
 40
0.1749416864
 40
0.1880259876
 40
0.2014878912
 40
0.215321251
 40
0.2295194666
 40
0.2440753775
 40
0.2589814329
 40
0.2742295891
 40
0.2898114564
 40
0.3057182133
 40
0.3219407236
 40
0.338469476
 40
0.3552946669
 40
0.3724061696
 40
0.3897935831
 40
0.4074462311
 40
0.4435029084
 40
0.4804863049
 40
0.5183027122
 40
0.5568554057
 40
0.5960450421
 40
0.6357700453
 40
0.6759269843
 40
0.7164109446
 40
0.7571158968
 40
0.7979350591
 40
0.8387612707
 40
0.8794873215
 40
0.9200064173
 40
0.9602122648
 40
1.0
 40
1.0
 40
1.0
 40
1.0
 10
10.513859763
 20
10.5580461185
 30
0.0
 10
10.5149036194
 20
10.5600385618
 30
0.0
 10
10.5172082328
 20
10.5640233655
 30
0.0
 10
10.521193844
 20
10.5698520368
 30
0.0
 10
10.5257738028
 20
10.5756487287
 30
0.0
 10
10.5309443221
 20
10.5814093283
 30
0.0
 10
10.536701594
 20
10.5871306176
 30
0.0
 10
10.5430415802
 20
10.5928089424
 30
0.0
 10
10.5499598305
 20
10.5984407965
 30
0.0
 10
10.557451621
 20
10.604022474
 30
0.0
 10
10.5655117821
 20
10.6095503403
 30
0.0
 10
10.5741347964
 20
10.6150206571
 30
0.0
 10
10.5833147192
 20
10.6204297318
 30
0.0
 10
10.5930452184
 20
10.6257738512
 30
0.0
 10
10.6033195615
 20
10.6310493201
 30
0.0
 10
10.614130614
 20
10.6362524941
 30
0.0
 10
10.6254708657
 20
10.6413797169
 30
0.0
 10
10.6373324046
 20
10.6464274417
 30
0.0
 10
10.6497069632
 20
10.6513920826
 30
0.0
 10
10.6625858817
 20
10.6562702079
 30
0.0
 10
10.6759601599
 20
10.6610583273
 30
0.0
 10
10.6898204208
 20
10.6657531356
 30
0.0
 10
10.7041569596
 20
10.6703512592
 30
0.0
 10
10.7189597132
 20
10.6748495262
 30
0.0
 10
10.7342183016
 20
10.6792446986
 30
0.0
 10
10.7499220076
 20
10.6835337427
 30
0.0
 10
10.7660598074
 20
10.6877135727
 30
0.0
 10
10.7826203616
 20
10.6917812975
 30
0.0
 10
10.799592036
 20
10.6957339975
 30
0.0
 10
10.8169629018
 20
10.6995689292
 30
0.0
 10
10.8347207493
 20
10.703283351
 30
0.0
 10
10.852853094
 20
10.7068746724
 30
0.0
 10
10.8713471876
 20
10.7103403402
 30
0.0
 10
10.8901900217
 20
10.7136779201
 30
0.0
 10
10.9093683596
 20
10.7168850669
 30
0.0
 10
10.9355531722
 20
10.7210133387
 30
0.0
 10
10.9690254739
 20
10.725822955
 30
0.0
 10
11.0100338715
 20
10.7310003369
 30
0.0
 10
11.0520463938
 20
10.7356086852
 30
0.0
 10
11.0949448331
 20
10.7396349555
 30
0.0
 10
11.1386086023
 20
10.7430677374
 30
0.0
 10
11.182914908
 20
10.7458973093
 30
0.0
 10
11.2277391469
 20
10.7481156584
 30
0.0
 10
11.2729552467
 20
10.7497165041
 30
0.0
 10
11.3184360265
 20
10.7506953141
 30
0.0
 10
11.3640535576
 20
10.7510493185
 30
0.0
 10
11.4096795205
 20
10.7507775132
 30
0.0
 10
11.4551855817
 20
10.7498806721
 30
0.0
 10
11.500443735
 20
10.7483613247
 30
0.0
 10
11.5453266017
 20
10.7462237902
 30
0.0
 10
11.5750958085
 20
10.7443794152
 30
0.0
 10
11.5898948451
 20
10.7433530985
 30
0.0
  0
SPLINE
  5
309
100
AcDbEntity
  8
0
100
AcDbSpline
 62
7
  6
CONTINUOUS
 70
0
 71
3
 72
60
 73
56
 74
0
 42
0.0000001
 43
0.0000001
 44
0.0000000001
 40
0.0
 40
0.0
 40
0.0
 40
0.0
 40
0.0027698302
 40
0.0055602808
 40
0.0083786455
 40
0.0112319789
 40
0.0141270469
 40
0.0170703014
 40
0.0231238908
 40
0.0294388078
 40
0.0360534016
 40
0.0430001359
 40
0.0503060897
 40
0.0579934751
 40
0.0660802243
 40
0.0745805892
 40
0.0835055668
 40
0.0928634557
 40
0.1026601003
 40
0.112899344
 40
0.1235831807
 40
0.13471206
 40
0.1462850346
 40
0.1582999063
 40
0.1707534134
 40
0.1836412433
 40
0.1969582504
 40
0.2106984002
 40
0.2248549649
 40
0.2394204797
 40
0.2543868609
 40
0.2697454272
 40
0.2854869202
 40
0.3016015999
 40
0.3180791862
 40
0.3349089982
 40
0.3520798681
 40
0.3695802678
 40
0.3873982555
 40
0.4055215427
 40
0.4239375047
 40
0.4615949214
 40
0.5002638447
 40
0.5398329351
 40
0.5801871714
 40
0.6212083789
 40
0.6627757424
 40
0.7047663074
 40
0.7470554771
 40
0.7895175017
 40
0.8320259747
 40
0.8744542802
 40
0.9166762261
 40
0.9585660571
 40
1.0
 40
1.0
 40
1.0
 40
1.0
 10
10.5323007731
 20
10.5333799519
 30
0.0
 10
10.5323970379
 20
10.5344000439
 30
0.0
 10
10.5326459565
 20
10.5364429897
 30
0.0
 10
10.5331851435
 20
10.5394965878
 30
0.0
 10
10.53389112
 20
10.542547759
 30
0.0
 10
10.5347636654
 20
10.5455957145
 30
0.0
 10
10.5358025509
 20
10.5486399166
 30
0.0
 10
10.5374241052
 20
10.5527308009
 30
0.0
 10
10.5398831556
 20
10.5578428019
 30
0.0
 10
10.5434671265
 20
10.5638906441
 30
0.0
 10
10.5477079166
 20
10.569905727
 30
0.0
 10
10.5526011475
 20
10.5758836871
 30
0.0
 10
10.558142581
 20
10.5818206868
 30
0.0
 10
10.5643276168
 20
10.5877126935
 30
0.0
 10
10.571151318
 20
10.5935556558
 30
0.0
 10
10.5786083827
 20
10.5993453395
 30
0.0
 10
10.5866929775
 20
10.6050775681
 30
0.0
 10
10.5953988745
 20
10.6107479614
 30
0.0
 10
10.6047192646
 20
10.6163522763
 30
0.0
 10
10.6146469085
 20
10.6218861175
 30
0.0
 10
10.6251740164
 20
10.6273452175
 30
0.0
 10
10.6362923319
 20
10.6327252676
 30
0.0
 10
10.647993101
 20
10.6380220165
 30
0.0
 10
10.6602670824
 20
10.6432312951
 30
0.0
 10
10.6731045811
 20
10.6483489151
 30
0.0
 10
10.686495416
 20
10.653370862
 30
0.0
 10
10.7004289788
 20
10.6582930651
 30
0.0
 10
10.7148941957
 20
10.6631116551
 30
0.0
 10
10.7298795784
 20
10.6678227335
 30
0.0
 10
10.7453732052
 20
10.6724225647
 30
0.0
 10
10.7613627483
 20
10.6769074597
 30
0.0
 10
10.7778354788
 20
10.6812738207
 30
0.0
 10
10.794778275
 20
10.6855181826
 30
0.0
 10
10.8121776412
 20
10.6896371071
 30
0.0
 10
10.8300197088
 20
10.6936273488
 30
0.0
 10
10.848290258
 20
10.6974856632
 30
0.0
 10
10.8669747209
 20
10.7012090089
 30
0.0
 10
10.8860582006
 20
10.7047943732
 30
0.0
 10
10.905525474
 20
10.7082389029
 30
0.0
 10
10.9253610313
 20
10.7115398555
 30
0.0
 10
10.9524793622
 20
10.715777487
 30
0.0
 10
10.9871834151
 20
10.7206869985
 30
0.0
 10
11.0297369676
 20
10.7259235618
 30
0.0
 10
11.0733664513
 20
10.7305311393
 30
0.0
 10
11.1179326511
 20
10.734494928
 30
0.0
 10
11.1632934923
 20
10.7378021761
 30
0.0
 10
11.2093042999
 20
10.7404422517
 30
0.0
 10
11.255818321
 20
10.7424066696
 30
0.0
 10
11.3026871824
 20
10.7436891179
 30
0.0
 10
11.3497613736
 20
10.7442854772
 30
0.0
 10
11.3968907194
 20
10.7441938292
 30
0.0
 10
11.443924888
 20
10.743414475
 30
0.0
 10
11.4907138038
 20
10.7419499043
 30
0.0
 10
11.5371081581
 20
10.7398048511
 30
0.0
 10
11.5678749097
 20
10.7379135134
 30
0.0
 10
11.5831655554
 20
10.7368531035
 30
0.0
  0
SPLINE
  5
30A
100
AcDbEntity
  8
0
100
AcDbSpline
 62
7
  6
CONTINUOUS
 70
0
 71
3
 72
57
 73
53
 74
0
 42
0.0000001
 43
0.0000001
 44
0.0000000001
 40
0.0
 40
0.0
 40
0.0
 40
0.0
 40
0.0057795528
 40
0.0117809464
 40
0.0180419582
 40
0.0245951572
 40
0.0314681712
 40
0.0386840514
 40
0.0462618194
 40
0.0542168585
 40
0.0625614892
 40
0.0713052488
 40
0.0804553941
 40
0.0900170697
 40
0.0999937039
 40
0.1103871137
 40
0.1211977853
 40
0.1324249637
 40
0.1440668211
 40
0.1561205634
 40
0.1685824971
 40
0.1814481676
 40
0.1947123424
 40
0.2083691789
 40
0.2224121505
 40
0.2368342271
 40
0.2516277769
 40
0.2667847342
 40
0.2822965109
 40
0.2981541269
 40
0.3143481566
 40
0.3308688071
 40
0.3477059117
 40
0.3648489534
 40
0.3822871051
 40
0.4000092051
 40
0.4180038353
 40
0.4362592626
 40
0.4735040758
 40
0.5116454274
 40
0.5505812911
 40
0.5902066632
 40
0.630413997
 40
0.6710936261
 40
0.7121341803
 40
0.7534229977
 40
0.7948465299
 40
0.8362907586
 40
0.8776415614
 40
0.9187852468
 40
0.959608585
 40
1.0
 40
1.0
 40
1.0
 40
1.0
 10
10.5566489246
 20
10.5127537536
 30
0.0
 10
10.5573526421
 20
10.514684731
 30
0.0
 10
10.5589752117
 20
10.5185544573
 30
0.0
 10
10.5619658896
 20
10.5242384745
 30
0.0
 10
10.5655508118
 20
10.529895836
 30
0.0
 10
10.5697262355
 20
10.5355222761
 30
0.0
 10
10.5744886707
 20
10.5411144978
 30
0.0
 10
10.5798342702
 20
10.5466690179
 30
0.0
 10
10.5857590676
 20
10.5521822578
 30
0.0
 10
10.5922586607
 20
10.5576506923
 30
0.0
 10
10.5993284116
 20
10.5630705735
 30
0.0
 10
10.606963182
 20
10.5684382767
 30
0.0
 10
10.6151575301
 20
10.573749971
 30
0.0
 10
10.6239055145
 20
10.5790019741
 30
0.0
 10
10.6332008452
 20
10.58419046
 30
0.0
 10
10.6430367659
 20
10.5893117347
 30
0.0
 10
10.6534061425
 20
10.594362041
 30
0.0
 10
10.6643014144
 20
10.5993377106
 30
0.0
 10
10.675714629
 20
10.6042350955
 30
0.0
 10
10.6876374417
 20
10.6090505841
 30
0.0
 10
10.7000611138
 20
10.6137806598
 30
0.0
 10
10.7129765414
 20
10.6184217952
 30
0.0
 10
10.7263742348
 20
10.6229706162
 30
0.0
 10
10.7402443584
 20
10.6274237057
 30
0.0
 10
10.7545767066
 20
10.6317778352
 30
0.0
 10
10.7693607421
 20
10.6360297243
 30
0.0
 10
10.7845855785
 20
10.6401762883
 30
0.0
 10
10.8002400097
 20
10.6442144082
 30
0.0
 10
10.8163125031
 20
10.6481411421
 30
0.0
 10
10.8327912192
 20
10.6519535517
 30
0.0
 10
10.8496640145
 20
10.6556488401
 30
0.0
 10
10.8669184532
 20
10.6592242634
 30
0.0
 10
10.8845418169
 20
10.6626771766
 30
0.0
 10
10.9025211123
 20
10.6660050379
 30
0.0
 10
10.9208430842
 20
10.6692053649
 30
0.0
 10
10.9394942185
 20
10.6722758185
 30
0.0
 10
10.9584607753
 20
10.6752141043
 30
0.0
 10
10.9843234678
 20
10.6789777289
 30
0.0
 10
11.017338854
 20
10.6833285961
 30
0.0
 10
11.0577294053
 20
10.6879559497
 30
0.0
 10
11.0990321772
 20
10.6920099034
 30
0.0
 10
11.1411253143
 20
10.6954784282
 30
0.0
 10
11.1838847385
 20
10.6983512147
 30
0.0
 10
11.2271843567
 20
10.7006197316
 30
0.0
 10
11.2708964816
 20
10.7022772419
 30
0.0
 10
11.3148921983
 20
10.703318824
 30
0.0
 10
11.3590417528
 20
10.7037413863
 30
0.0
 10
11.4032149288
 20
10.7035436717
 30
0.0
 10
11.4472814556
 20
10.7027262728
 30
0.0
 10
11.4911113499
 20
10.7012916051
 30
0.0
 10
11.5345752844
 20
10.6992439498
 30
0.0
 10
11.5634015746
 20
10.6974631253
 30
0.0
 10
11.57773036
 20
10.6964694207
 30
0.0
  0
SPLINE
  5
30B
100
AcDbEntity
  8
0
100
AcDbSpline
 62
7
  6
CONTINUOUS
 70
0
 71
3
 72
23
 73
19
 74
0
 42
0.0000001
 43
0.0000001
 44
0.0000000001
 40
0.0
 40
0.0
 40
0.0
 40
0.0
 40
0.0554290444
 40
0.1125594884
 40
0.1712430116
 40
0.2313252639
 40
0.2926465927
 40
0.3550427388
 40
0.4183455083
 40
0.4823834297
 40
0.5469823989
 40
0.6119663182
 40
0.6771577249
 40
0.7423784383
 40
0.8074501266
 40
0.8721951357
 40
0.936436547
 40
1.0
 40
1.0
 40
1.0
 40
1.0
 10
10.9044701397
 20
10.4000877896
 30
0.0
 10
10.9167561665
 20
10.4022839294
 30
0.0
 10
10.9417512871
 20
10.4064898973
 30
0.0
 10
10.9798902807
 20
10.4121737235
 30
0.0
 10
11.0191629474
 20
10.4173163824
 30
0.0
 10
11.0594541752
 20
10.4219026631
 30
0.0
 10
11.100646107
 20
10.4259190364
 30
0.0
 10
11.1426181492
 20
10.4293536496
 30
0.0
 10
11.1852474254
 20
10.4321963717
 30
0.0
 10
11.2284091146
 20
10.4344388189
 30
0.0
 10
11.2719768278
 20
10.4360743792
 30
0.0
 10
11.3158229782
 20
10.4370982303
 30
0.0
 10
11.3598191604
 20
10.4375073547
 30
0.0
 10
11.4038365217
 20
10.437300544
 30
0.0
 10
11.4477461616
 20
10.4364784131
 30
0.0
 10
11.4914194705
 20
10.4350433748
 30
0.0
 10
11.5347284859
 20
10.4329996806
 30
0.0
 10
11.5634522927
 20
10.4312244192
 30
0.0
 10
11.57773036
 20
10.4302342319
 30
0.0
  0
SPLINE
  5
30C
100
AcDbEntity
  8
0
100
AcDbSpline
 62
7
  6
CONTINUOUS
 70
0
 71
3
 72
50
 73
46
 74
0
 42
0.0000001
 43
0.0000001
 44
0.0000000001
 40
0.0
 40
0.0
 40
0.0
 40
0.0
 40
0.0139823345
 40
0.0212975043
 40
0.0288477603
 40
0.0366465299
 40
0.0447056823
 40
0.0530356909
 40
0.0616456211
 40
0.0705433641
 40
0.0797357238
 40
0.0892284211
 40
0.0990263341
 40
0.1091334871
 40
0.1195531043
 40
0.1302878043
 40
0.1413395151
 40
0.1527095926
 40
0.1643989364
 40
0.1764078763
 40
0.1887363446
 40
0.2013838959
 40
0.2143496229
 40
0.2276323415
 40
0.2412305245
 40
0.2693649218
 40
0.298735431
 40
0.3293198949
 40
0.361092481
 40
0.3940241125
 40
0.4280827768
 40
0.4632337286
 40
0.499439723
 40
0.5366612609
 40
0.5748567473
 40
0.6139825991
 40
0.6539934344
 40
0.6948422299
 40
0.7364804127
 40
0.7788579199
 40
0.8219235156
 40
0.8656246538
 40
0.909907296
 40
0.9547185213
 40
1.0
 40
1.0
 40
1.0
 40
1.0
 10
12.2203054265
 20
10.5579284621
 30
0.0
 10
12.2188551326
 20
10.5607078292
 30
0.0
 10
12.2163969444
 20
10.5648156453
 30
0.0
 10
12.2126701484
 20
10.5701036929
 30
0.0
 10
12.2095477841
 20
10.5741154406
 30
0.0
 10
12.2061420632
 20
10.5781107958
 30
0.0
 10
12.2024539604
 20
10.582088901
 30
0.0
 10
12.1984847532
 20
10.5860483505
 30
0.0
 10
12.1942358129
 20
10.5899879669
 30
0.0
 10
12.1897085566
 20
10.5939064723
 30
0.0
 10
12.1849044732
 20
10.5978025765
 30
0.0
 10
12.1798252022
 20
10.6016750676
 30
0.0
 10
12.1744724089
 20
10.6055226477
 30
0.0
 10
12.1688478752
 20
10.6093440512
 30
0.0
 10
12.1629534963
 20
10.6131380577
 30
0.0
 10
12.1567912099
 20
10.6169033651
 30
0.0
 10
12.1503630857
 20
10.6206387458
 30
0.0
 10
12.1436712769
 20
10.6243429738
 30
0.0
 10
12.1367179988
 20
10.6280147673
 30
0.0
 10
12.1295055962
 20
10.6316529391
 30
0.0
 10
12.1220364799
 20
10.6352562634
 30
0.0
 10
12.1143131397
 20
10.6388235027
 30
0.0
 10
12.1063381841
 20
10.6423534987
 30
0.0
 10
12.0981142681
 20
10.6458450556
 30
0.0
 10
12.0866910385
 20
10.6505004425
 30
0.0
 10
12.0718028895
 20
10.6562066516
 30
0.0
 10
12.0531857352
 20
10.6628069173
 30
0.0
 10
12.0336450867
 20
10.6692264586
 30
0.0
 10
12.0132072267
 20
10.6754566114
 30
0.0
 10
11.9918995086
 20
10.6814889588
 30
0.0
 10
11.9697505208
 20
10.6873153283
 30
0.0
 10
11.9467900021
 20
10.692927839
 30
0.0
 10
11.9230488113
 20
10.6983189075
 30
0.0
 10
11.8985588631
 20
10.7034812352
 30
0.0
 10
11.87335309
 20
10.7084078233
 30
0.0
 10
11.8474654082
 20
10.7130920168
 30
0.0
 10
11.8209306595
 20
10.7175274833
 30
0.0
 10
11.7937845553
 20
10.7217082152
 30
0.0
 10
11.7660636458
 20
10.725628549
 30
0.0
 10
11.7378052493
 20
10.7292832009
 30
0.0
 10
11.7090474162
 20
10.7326672237
 30
0.0
 10
11.6798289587
 20
10.7357760196
 30
0.0
 10
11.6501889467
 20
10.738605442
 30
0.0
 10
11.6201676914
 20
10.7411515814
 30
0.0
 10
11.6000231509
 20
10.7426506981
 30
0.0
 10
11.5898948451
 20
10.7433530985
 30
0.0
  0
SPLINE
  5
30D
100
AcDbEntity
  8
0
100
AcDbSpline
 62
7
  6
CONTINUOUS
 70
0
 71
3
 72
55
 73
51
 74
0
 42
0.0000001
 43
0.0000001
 44
0.0000000001
 40
0.0
 40
0.0
 40
0.0
 40
0.0
 40
0.0064578511
 40
0.0129938029
 40
0.0196414486
 40
0.0264325735
 40
0.033396762
 40
0.0405611763
 40
0.0479505034
 40
0.0555868446
 40
0.0634899033
 40
0.0716770278
 40
0.0801633686
 40
0.088962137
 40
0.0980846285
 40
0.1075405485
 40
0.1173380827
 40
0.1274840332
 40
0.1379840698
 40
0.1488426738
 40
0.1600634113
 40
0.1716489474
 40
0.1836010955
 40
0.1959210297
 40
0.2086091619
 40
0.2216653596
 40
0.235088932
 40
0.248878619
 40
0.2630327813
 40
0.277549249
 40
0.2924254967
 40
0.3076586299
 40
0.3232453333
 40
0.3391820515
 40
0.3720888951
 40
0.4063450059
 40
0.4419113217
 40
0.4787449324
 40
0.5167994548
 40
0.556025335
 40
0.5963701112
 40
0.6377786322
 40
0.6801932805
 40
0.7235542017
 40
0.7677994554
 40
0.8128652213
 40
0.8586860608
 40
0.9051943342
 40
0.9523229478
 40
1.0
 40
1.0
 40
1.0
 40
1.0
 10
12.2018071649
 20
10.5333344305
 30
0.0
 10
12.2016713757
 20
10.5347859753
 30
0.0
 10
12.2012849946
 20
10.5376972268
 30
0.0
 10
12.2003701278
 20
10.5420399371
 30
0.0
 10
12.1991181833
 20
10.5463761534
 30
0.0
 10
12.1975299491
 20
10.5507035919
 30
0.0
 10
12.1956064233
 20
10.5550205399
 30
0.0
 10
12.1933487317
 20
10.5593252789
 30
0.0
 10
12.1907579665
 20
10.5636161195
 30
0.0
 10
12.1878354677
 20
10.567891516
 30
0.0
 10
12.184582507
 20
10.5721498571
 30
0.0
 10
12.1810005118
 20
10.5763895855
 30
0.0
 10
12.1770910181
 20
10.5806091759
 30
0.0
 10
12.1728555741
 20
10.5848070013
 30
0.0
 10
12.1682959502
 20
10.5889815531
 30
0.0
 10
12.1634139394
 20
10.5931312127
 30
0.0
 10
12.158211491
 20
10.597254393
 30
0.0
 10
12.152690697
 20
10.6013495436
 30
0.0
 10
12.1468537124
 20
10.6054150095
 30
0.0
 10
12.1407028921
 20
10.6094492589
 30
0.0
 10
12.1342406637
 20
10.6134506721
 30
0.0
 10
12.1274695981
 20
10.6174176587
 30
0.0
 10
12.1203924115
 20
10.6213486855
 30
0.0
 10
12.1130119033
 20
10.6252421274
 30
0.0
 10
12.1053310437
 20
10.6290964807
 30
0.0
 10
12.0973528952
 20
10.6329101801
 30
0.0
 10
12.0890806482
 20
10.6366816829
 30
0.0
 10
12.0805176294
 20
10.6404095176
 30
0.0
 10
12.0716672563
 20
10.6440921321
 30
0.0
 10
12.0625330928
 20
10.6477280875
 30
0.0
 10
12.0531188006
 20
10.6513159071
 30
0.0
 10
12.0434281597
 20
10.6548541229
 30
0.0
 10
12.0334650624
 20
10.6583413683
 30
0.0
 10
12.019675647
 20
10.6629705204
 30
0.0
 10
12.0017814631
 20
10.6686104851
 30
0.0
 10
11.9795096344
 20
10.6750828546
 30
0.0
 10
11.9562516526
 20
10.6813193415
 30
0.0
 10
11.9320449569
 20
10.6873098493
 30
0.0
 10
11.9069283934
 20
10.6930446758
 30
0.0
 10
11.8809423348
 20
10.6985145301
 30
0.0
 10
11.8541285618
 20
10.7037105461
 30
0.0
 10
11.826530214
 20
10.7086243098
 30
0.0
 10
11.7981917083
 20
10.7132478689
 30
0.0
 10
11.7691586647
 20
10.7175737361
 30
0.0
 10
11.7394778271
 20
10.7215949071
 30
0.0
 10
11.7091969655
 20
10.725304873
 30
0.0
 10
11.6783649433
 20
10.7286976092
 30
0.0
 10
11.6470311865
 20
10.7317676878
 30
0.0
 10
11.6152464937
 20
10.734510054
 30
0.0
 10
11.593903026
 20
10.7361084574
 30
0.0
 10
11.5831655554
 20
10.7368531035
 30
0.0
  0
SPLINE
  5
30E
100
AcDbEntity
  8
0
100
AcDbSpline
 62
7
  6
CONTINUOUS
 70
0
 71
3
 72
53
 73
49
 74
0
 42
0.0000001
 43
0.0000001
 44
0.0000000001
 40
0.0
 40
0.0
 40
0.0
 40
0.0
 40
0.0066456688
 40
0.0134607748
 40
0.0204679551
 40
0.0276877732
 40
0.0351387044
 40
0.0428373014
 40
0.0507981836
 40
0.0590342213
 40
0.0675567086
 40
0.0763753708
 40
0.0854986396
 40
0.0949337069
 40
0.1046865966
 40
0.1147624067
 40
0.1251652526
 40
0.1358984329
 40
0.1469645525
 40
0.1583654407
 40
0.1701023754
 40
0.1821760579
 40
0.1945866111
 40
0.2073337675
 40
0.220416747
 40
0.2338343705
 40
0.2475851386
 40
0.2616671054
 40
0.2760780644
 40
0.2908154943
 40
0.3212575411
 40
0.3529680801
 40
0.3859174014
 40
0.4200722372
 40
0.455396135
 40
0.4918497511
 40
0.5293910785
 40
0.5679756222
 40
0.6075566336
 40
0.6480852921
 40
0.689510853
 40
0.731780776
 40
0.7748408515
 40
0.8186354637
 40
0.863107606
 40
0.9081984832
 40
0.9538502908
 40
1.0
 40
1.0
 40
1.0
 40
1.0
 10
12.1774379418
 20
10.5127998144
 30
0.0
 10
12.1769476266
 20
10.5141420536
 30
0.0
 10
12.1758643772
 20
10.5168286418
 30
0.0
 10
12.1739665119
 20
10.5208023766
 30
0.0
 10
12.171777738
 20
10.5247652177
 30
0.0
 10
12.1692990962
 20
10.528715564
 30
0.0
 10
12.1665316529
 20
10.5326522015
 30
0.0
 10
12.163476449
 20
10.5365737573
 30
0.0
 10
12.1601346919
 20
10.5404789649
 30
0.0
 10
12.156507635
 20
10.5443665366
 30
0.0
 10
12.1525965618
 20
10.5482351243
 30
0.0
 10
12.1484029353
 20
10.5520834757
 30
0.0
 10
12.1439282318
 20
10.5559102516
 30
0.0
 10
12.1391740424
 20
10.5597141259
 30
0.0
 10
12.1341420892
 20
10.5634938269
 30
0.0
 10
12.1288341276
 20
10.567247986
 30
0.0
 10
12.1232520659
 20
10.570975316
 30
0.0
 10
12.1173978945
 20
10.5746745152
 30
0.0
 10
12.1112736759
 20
10.5783442305
 30
0.0
 10
12.1048816194
 20
10.5819832087
 30
0.0
 10
12.0982239934
 20
10.5855901282
 30
0.0
 10
12.0913031728
 20
10.5891636901
 30
0.0
 10
12.0841216481
 20
10.5927026561
 30
0.0
 10
12.0766819721
 20
10.5962057132
 30
0.0
 10
12.0689868199
 20
10.5996716292
 30
0.0
 10
12.0610389523
 20
10.6030991696
 30
0.0
 10
12.0528412068
 20
10.6064870646
 30
0.0
 10
12.0443965414
 20
10.6098341347
 30
0.0
 10
12.0357079718
 20
10.6131391686
 30
0.0
 10
12.0236720298
 20
10.6175357082
 30
0.0
 10
12.0080345403
 20
10.622909738
 30
0.0
 10
11.9885443376
 20
10.6291045597
 30
0.0
 10
11.9681596179
 20
10.6351040621
 30
0.0
 10
11.9469097102
 20
10.6408995743
 30
0.0
 10
11.9248250755
 20
10.646482716
 30
0.0
 10
11.9019374303
 20
10.651845404
 30
0.0
 10
11.8782796543
 20
10.6569798674
 30
0.0
 10
11.8538857633
 20
10.6618786846
 30
0.0
 10
11.8287908439
 20
10.6665347689
 30
0.0
 10
11.8030309953
 20
10.67094138
 30
0.0
 10
11.7766432814
 20
10.6750921338
 30
0.0
 10
11.7496656896
 20
10.6789810325
 30
0.0
 10
11.7221370522
 20
10.6826024575
 30
0.0
 10
11.6940969874
 20
10.6859511676
 30
0.0
 10
11.6655859553
 20
10.6890222958
 30
0.0
 10
11.6366447553
 20
10.6918114643
 30
0.0
 10
11.6073154177
 20
10.6943145545
 30
0.0
 10
11.5876299651
 20
10.6957828807
 30
0.0
 10
11.57773036
 20
10.6964694207
 30
0.0
  0
SPLINE
  5
30F
100
AcDbEntity
  8
0
100
AcDbSpline
 62
7
  6
CONTINUOUS
 70
0
 71
3
 72
15
 73
11
 74
0
 42
0.0000001
 43
0.0000001
 44
0.0000000001
 40
0.0
 40
0.0
 40
0.0
 40
0.0
 40
0.1163172855
 40
0.2355156576
 40
0.357402619
 40
0.4817789554
 40
0.6084399633
 40
0.7371739623
 40
0.8677685432
 40
1.0
 40
1.0
 40
1.0
 40
1.0
 10
11.8294769312
 20
10.4001157716
 30
0.0
 10
11.8197952236
 20
10.401845515
 30
0.0
 10
11.8001636221
 20
10.4051907222
 30
0.0
 10
11.7702994663
 20
10.4098185611
 30
0.0
 10
11.7396971477
 20
10.4141119934
 30
0.0
 10
11.7084127269
 20
10.41806311
 30
0.0
 10
11.6765034984
 20
10.4216646214
 30
0.0
 10
11.6440276765
 20
10.4249099521
 30
0.0
 10
11.611044957
 20
10.4277930603
 30
0.0
 10
11.5888841789
 20
10.4294607119
 30
0.0
 10
11.57773036
 20
10.4302342319
 30
0.0
  0
SPLINE
  5
310
100
AcDbEntity
  8
0
100
AcDbSpline
 62
4
  6
CONTINUOUS
 70
0
 71
3
 72
403
 73
399
 74
0
 42
0.0000001
 43
0.0000001
 44
0.0000000001
 40
0.0
 40
0.0
 40
0.0
 40
0.0
 40
0.015625
 40
0.0234375
 40
0.03125
 40
0.0390625
 40
0.04296875
 40
0.046875
 40
0.05078125
 40
0.0546875
 40
0.056640625
 40
0.05859375
 40
0.0595703125
 40
0.060546875
 40
0.0615234375
 40
0.0620117188
 40
0.0622558594
 40
0.0625
 40
0.0627441406
 40
0.0629882812
 40
0.0634765625
 40
0.064453125
 40
0.0654296875
 40
0.06640625
 40
0.068359375
 40
0.0703125
 40
0.07421875
 40
0.078125
 40
0.08203125
 40
0.0859375
 40
0.09375
 40
0.1015625
 40
0.10546875
 40
0.109375
 40
0.11328125
 40
0.1171875
 40
0.119140625
 40
0.12109375
 40
0.1220703125
 40
0.123046875
 40
0.1240234375
 40
0.1245117188
 40
0.1247558594
 40
0.125
 40
0.1252441406
 40
0.1254882812
 40
0.1259765625
 40
0.126953125
 40
0.1279296875
 40
0.12890625
 40
0.130859375
 40
0.1328125
 40
0.13671875
 40
0.140625
 40
0.14453125
 40
0.1484375
 40
0.15625
 40
0.1640625
 40
0.16796875
 40
0.171875
 40
0.17578125
 40
0.1796875
 40
0.181640625
 40
0.18359375
 40
0.1845703125
 40
0.185546875
 40
0.1865234375
 40
0.1870117188
 40
0.1872558594
 40
0.1875
 40
0.1877441406
 40
0.1879882812
 40
0.1884765625
 40
0.189453125
 40
0.1904296875
 40
0.19140625
 40
0.193359375
 40
0.1953125
 40
0.19921875
 40
0.203125
 40
0.20703125
 40
0.2109375
 40
0.21875
 40
0.2265625
 40
0.23046875
 40
0.234375
 40
0.23828125
 40
0.2421875
 40
0.244140625
 40
0.24609375
 40
0.2470703125
 40
0.248046875
 40
0.2490234375
 40
0.2495117188
 40
0.2497558594
 40
0.25
 40
0.2502441406
 40
0.2504882812
 40
0.2509765625
 40
0.251953125
 40
0.2529296875
 40
0.25390625
 40
0.255859375
 40
0.2578125
 40
0.26171875
 40
0.265625
 40
0.26953125
 40
0.2734375
 40
0.28125
 40
0.2890625
 40
0.29296875
 40
0.296875
 40
0.30078125
 40
0.3046875
 40
0.306640625
 40
0.30859375
 40
0.3095703125
 40
0.310546875
 40
0.3115234375
 40
0.3120117188
 40
0.3122558594
 40
0.3125
 40
0.3127441406
 40
0.3129882812
 40
0.3134765625
 40
0.314453125
 40
0.3154296875
 40
0.31640625
 40
0.318359375
 40
0.3203125
 40
0.32421875
 40
0.328125
 40
0.33203125
 40
0.3359375
 40
0.34375
 40
0.3515625
 40
0.35546875
 40
0.359375
 40
0.36328125
 40
0.3671875
 40
0.369140625
 40
0.37109375
 40
0.3720703125
 40
0.373046875
 40
0.3740234375
 40
0.3745117188
 40
0.3747558594
 40
0.375
 40
0.3752441406
 40
0.3754882812
 40
0.3759765625
 40
0.376953125
 40
0.3779296875
 40
0.37890625
 40
0.380859375
 40
0.3828125
 40
0.38671875
 40
0.390625
 40
0.39453125
 40
0.3984375
 40
0.40625
 40
0.4140625
 40
0.41796875
 40
0.421875
 40
0.42578125
 40
0.4296875
 40
0.431640625
 40
0.43359375
 40
0.4345703125
 40
0.435546875
 40
0.4365234375
 40
0.4370117188
 40
0.4372558594
 40
0.4375
 40
0.4377441406
 40
0.4379882812
 40
0.4384765625
 40
0.439453125
 40
0.4404296875
 40
0.44140625
 40
0.443359375
 40
0.4453125
 40
0.44921875
 40
0.453125
 40
0.45703125
 40
0.4609375
 40
0.46875
 40
0.4765625
 40
0.48046875
 40
0.484375
 40
0.48828125
 40
0.4921875
 40
0.494140625
 40
0.49609375
 40
0.4970703125
 40
0.498046875
 40
0.4990234375
 40
0.4995117188
 40
0.4997558594
 40
0.5
 40
0.5002441406
 40
0.5004882812
 40
0.5009765625
 40
0.501953125
 40
0.5029296875
 40
0.50390625
 40
0.505859375
 40
0.5078125
 40
0.51171875
 40
0.515625
 40
0.51953125
 40
0.5234375
 40
0.53125
 40
0.5390625
 40
0.54296875
 40
0.546875
 40
0.55078125
 40
0.5546875
 40
0.556640625
 40
0.55859375
 40
0.5595703125
 40
0.560546875
 40
0.5615234375
 40
0.5620117188
 40
0.5622558594
 40
0.5625
 40
0.5627441406
 40
0.5629882812
 40
0.5634765625
 40
0.564453125
 40
0.5654296875
 40
0.56640625
 40
0.568359375
 40
0.5703125
 40
0.57421875
 40
0.578125
 40
0.58203125
 40
0.5859375
 40
0.59375
 40
0.6015625
 40
0.60546875
 40
0.609375
 40
0.61328125
 40
0.6171875
 40
0.619140625
 40
0.62109375
 40
0.6220703125
 40
0.623046875
 40
0.6240234375
 40
0.6245117188
 40
0.6247558594
 40
0.625
 40
0.6252441406
 40
0.6254882812
 40
0.6259765625
 40
0.626953125
 40
0.6279296875
 40
0.62890625
 40
0.630859375
 40
0.6328125
 40
0.63671875
 40
0.640625
 40
0.64453125
 40
0.6484375
 40
0.65625
 40
0.6640625
 40
0.66796875
 40
0.671875
 40
0.67578125
 40
0.6796875
 40
0.681640625
 40
0.68359375
 40
0.6845703125
 40
0.685546875
 40
0.6865234375
 40
0.6870117188
 40
0.6872558594
 40
0.6875
 40
0.6877441406
 40
0.6879882812
 40
0.6884765625
 40
0.689453125
 40
0.6904296875
 40
0.69140625
 40
0.693359375
 40
0.6953125
 40
0.69921875
 40
0.703125
 40
0.70703125
 40
0.7109375
 40
0.71875
 40
0.7265625
 40
0.73046875
 40
0.734375
 40
0.73828125
 40
0.7421875
 40
0.744140625
 40
0.74609375
 40
0.7470703125
 40
0.748046875
 40
0.7490234375
 40
0.7495117188
 40
0.7497558594
 40
0.75
 40
0.7502441406
 40
0.7504882812
 40
0.7509765625
 40
0.751953125
 40
0.7529296875
 40
0.75390625
 40
0.755859375
 40
0.7578125
 40
0.76171875
 40
0.765625
 40
0.76953125
 40
0.7734375
 40
0.78125
 40
0.7890625
 40
0.79296875
 40
0.796875
 40
0.80078125
 40
0.8046875
 40
0.806640625
 40
0.80859375
 40
0.8095703125
 40
0.810546875
 40
0.8115234375
 40
0.8120117188
 40
0.8122558594
 40
0.8125
 40
0.8127441406
 40
0.8129882812
 40
0.8134765625
 40
0.814453125
 40
0.8154296875
 40
0.81640625
 40
0.818359375
 40
0.8203125
 40
0.82421875
 40
0.828125
 40
0.83203125
 40
0.8359375
 40
0.84375
 40
0.8515625
 40
0.85546875
 40
0.859375
 40
0.86328125
 40
0.8671875
 40
0.869140625
 40
0.87109375
 40
0.8720703125
 40
0.873046875
 40
0.8740234375
 40
0.8745117188
 40
0.8747558594
 40
0.875
 40
0.8752441406
 40
0.8754882812
 40
0.8759765625
 40
0.876953125
 40
0.8779296875
 40
0.87890625
 40
0.880859375
 40
0.8828125
 40
0.88671875
 40
0.890625
 40
0.89453125
 40
0.8984375
 40
0.90625
 40
0.9140625
 40
0.91796875
 40
0.921875
 40
0.92578125
 40
0.9296875
 40
0.931640625
 40
0.93359375
 40
0.9345703125
 40
0.935546875
 40
0.9365234375
 40
0.9370117188
 40
0.9372558594
 40
0.9375
 40
0.9377441406
 40
0.9379882812
 40
0.9384765625
 40
0.939453125
 40
0.9404296875
 40
0.94140625
 40
0.943359375
 40
0.9453125
 40
0.94921875
 40
0.953125
 40
0.95703125
 40
0.9609375
 40
0.96875
 40
0.9765625
 40
0.984375
 40
1.0
 40
1.0
 40
1.0
 40
1.0
 10
9.4652053529
 20
8.2830933677
 30
0.0
 10
9.4657572302
 20
8.2774266152
 30
0.0
 10
9.4665850461
 20
8.2689264866
 30
0.0
 10
9.4676888006
 20
8.2575929817
 30
0.0
 10
9.4685166165
 20
8.2490928531
 30
0.0
 10
9.4692064628
 20
8.2420094125
 30
0.0
 10
9.4697583406
 20
8.2363426601
 30
0.0
 10
9.4701722468
 20
8.2320925956
 30
0.0
 10
9.4705861614
 20
8.2278425321
 30
0.0
 10
9.4709310641
 20
8.2243008092
 30
0.0
 10
9.4712070447
 20
8.2214674383
 30
0.0
 10
9.4713793995
 20
8.2196965645
 30
0.0
 10
9.4715175881
 20
8.2182799046
 30
0.0
 10
9.4716203951
 20
8.2172173023
 30
0.0
 10
9.4717087221
 20
8.2163321419
 30
0.0
 10
9.4717653417
 20
8.2157118594
 30
0.0
 10
9.4718058296
 20
8.2153584588
 30
0.0
 10
9.4718132822
 20
8.2150904604
 30
0.0
 10
9.4719083212
 20
8.2148337304
 30
0.0
 10
9.4720044888
 20
8.2144874932
 30
0.0
 10
9.4721870164
 20
8.2138834094
 30
0.0
 10
9.4724403282
 20
8.2130194752
 30
0.0
 10
9.4727474877
 20
8.2119831639
 30
0.0
 10
9.4731559211
 20
8.2106012724
 30
0.0
 10
9.4736668439
 20
8.208873957
 30
0.0
 10
9.4744841073
 20
8.206110225
 30
0.0
 10
9.4755057598
 20
8.2026555693
 30
0.0
 10
9.4767317113
 20
8.1985099786
 30
0.0
 10
9.4779576713
 20
8.1943643889
 30
0.0
 10
9.4795922816
 20
8.1888369356
 30
0.0
 10
9.4816355456
 20
8.1819276191
 30
0.0
 10
9.4836788089
 20
8.1750183024
 30
0.0
 10
9.4853134204
 20
8.1694908494
 30
0.0
 10
9.4865393769
 20
8.1653452589
 30
0.0
 10
9.4877653414
 20
8.1611996711
 30
0.0
 10
9.4887869538
 20
8.1577450062
 30
0.0
 10
9.4896042988
 20
8.1549812931
 30
0.0
 10
9.4901150141
 20
8.1532539295
 30
0.0
 10
9.4905238735
 20
8.151872137
 30
0.0
 10
9.4908297316
 20
8.1508355231
 30
0.0
 10
9.4910871151
 20
8.1499725358
 30
0.0
 10
9.4912623739
 20
8.1493667615
 30
0.0
 10
9.4913701879
 20
8.1490232329
 30
0.0
 10
9.4914294527
 20
8.148758183
 30
0.0
 10
9.4915712673
 20
8.1485214329
 30
0.0
 10
9.4917315592
 20
8.1481958947
 30
0.0
 10
9.4920254856
 20
8.1476308021
 30
0.0
 10
9.4924383667
 20
8.1468211225
 30
0.0
 10
9.4929368262
 20
8.1458505361
 30
0.0
 10
9.4936003902
 20
8.1445560615
 30
0.0
 10
9.4944302042
 20
8.1429380913
 30
0.0
 10
9.4957577061
 20
8.1403492702
 30
0.0
 10
9.4974171522
 20
8.1371132675
 30
0.0
 10
9.499408458
 20
8.133230054
 30
0.0
 10
9.5013997718
 20
8.1293468433
 30
0.0
 10
9.504054854
 20
8.1241692281
 30
0.0
 10
9.5073737078
 20
8.1176972094
 30
0.0
 10
9.5106925609
 20
8.1112251904
 30
0.0
 10
9.5133476442
 20
8.1060475756
 30
0.0
 10
9.5153389547
 20
8.1021643636
 30
0.0
 10
9.5173302728
 20
8.0982811552
 30
0.0
 10
9.5189896807
 20
8.0950451368
 30
0.0
 10
9.5203172605
 20
8.0924563475
 30
0.0
 10
9.5211468761
 20
8.0908382964
 30
0.0
 10
9.5218108475
 20
8.0895439879
 30
0.0
 10
9.5223080625
 20
8.088572894
 30
0.0
 10
9.5227248372
 20
8.0877648024
 30
0.0
 10
9.5230118128
 20
8.0871968749
 30
0.0
 10
9.5231832417
 20
8.0868758791
 30
0.0
 10
9.5232908468
 20
8.0866251763
 30
0.0
 10
9.5234785967
 20
8.08641253
 30
0.0
 10
9.5237009744
 20
8.0861157271
 30
0.0
 10
9.5241031604
 20
8.085602507
 30
0.0
 10
9.5246709022
 20
8.0848661017
 30
0.0
 10
9.5253551071
 20
8.0839837995
 30
0.0
 10
9.5262663623
 20
8.0828069132
 30
0.0
 10
9.5274057798
 20
8.0813359707
 30
0.0
 10
9.5292286531
 20
8.0789823703
 30
0.0
 10
9.5315073115
 20
8.0760404015
 30
0.0
 10
9.5342416729
 20
8.0725100254
 30
0.0
 10
9.536976042
 20
8.0689796529
 30
0.0
 10
9.5406218647
 20
8.0642724883
 30
0.0
 10
9.5451791441
 20
8.0583885331
 30
0.0
 10
9.549736423
 20
8.0525045774
 30
0.0
 10
9.5533822467
 20
8.0477974135
 30
0.0
 10
9.556116613
 20
8.0442670389
 30
0.0
 10
9.5588509848
 20
8.0407366706
 30
0.0
 10
9.5611296106
 20
8.0377946774
 30
0.0
 10
9.5629525504
 20
8.0354411269
 30
0.0
 10
9.5640917987
 20
8.0339700576
 30
0.0
 10
9.5650034012
 20
8.0327934315
 30
0.0
 10
9.5656865449
 20
8.0319103343
 30
0.0
 10
9.5662576071
 20
8.0311764165
 30
0.0
 10
9.5666538656
 20
8.0306587558
 30
0.0
 10
9.5668857406
 20
8.0303690677
 30
0.0
 10
9.5670443179
 20
8.0301345671
 30
0.0
 10
9.5672614904
 20
8.0299659457
 30
0.0
 10
9.5675306151
 20
8.0297181377
 30
0.0
 10
9.5680111061
 20
8.0292951803
 30
0.0
 10
9.5686925432
 20
8.028685358
 30
0.0
 10
9.5695123987
 20
8.0279559671
 30
0.0
 10
9.570604795
 20
8.026982609
 30
0.0
 10
9.5719705453
 20
8.025766198
 30
0.0
 10
9.5741556034
 20
8.0238197802
 30
0.0
 10
9.5768869748
 20
8.0213868129
 30
0.0
 10
9.5801645996
 20
8.0184672286
 30
0.0
 10
9.58344223
 20
8.0155476506
 30
0.0
 10
9.5878124018
 20
8.0116548777
 30
0.0
 10
9.5932751174
 20
8.0067889125
 30
0.0
 10
9.5987378325
 20
8.0019229466
 30
0.0
 10
9.6031080051
 20
7.9980301747
 30
0.0
 10
9.6063856332
 20
7.9951105939
 30
0.0
 10
9.6096632662
 20
7.9921910199
 30
0.0
 10
9.6123946122
 20
7.9897580205
 30
0.0
 10
9.6145797221
 20
7.9878116682
 30
0.0
 10
9.6159453404
 20
7.9865950905
 30
0.0
 10
9.6170380078
 20
7.9856220746
 30
0.0
 10
9.6178570351
 20
7.9848916386
 30
0.0
 10
9.6185410633
 20
7.9842850861
 30
0.0
 10
9.6190169288
 20
7.9838562914
 30
0.0
 10
9.6192934647
 20
7.9836178363
 30
0.0
 10
9.6194878725
 20
7.9834204858
 30
0.0
 10
9.6197319502
 20
7.9832938867
 30
0.0
 10
9.6200400617
 20
7.9831004091
 30
0.0
 10
9.6205873292
 20
7.9827733215
 30
0.0
 10
9.6213649195
 20
7.982300042
 30
0.0
 10
9.6222998343
 20
7.9817346798
 30
0.0
 10
9.6235457565
 20
7.9809799648
 30
0.0
 10
9.6251033752
 20
7.9800368787
 30
0.0
 10
9.6275954444
 20
7.978527769
 30
0.0
 10
9.6307105724
 20
7.9766414409
 30
0.0
 10
9.6344487081
 20
7.9743778219
 30
0.0
 10
9.6381868487
 20
7.9721142096
 30
0.0
 10
9.6431710344
 20
7.9690960575
 30
0.0
 10
9.6494012671
 20
7.9653233684
 30
0.0
 10
9.6556314995
 20
7.9615506785
 30
0.0
 10
9.6606156858
 20
7.9585325275
 30
0.0
 10
9.6643538247
 20
7.9562689122
 30
0.0
 10
9.6680919668
 20
7.9540053046
 30
0.0
 10
9.671207075
 20
7.952118941
 30
0.0
 10
9.6736991845
 20
7.9506099036
 30
0.0
 10
9.6752567008
 20
7.9496666336
 30
0.0
 10
9.6765028332
 20
7.9489122961
 30
0.0
 10
9.6774371056
 20
7.9483457803
 30
0.0
 10
9.6782167058
 20
7.94787611
 30
0.0
 10
9.6787603852
 20
7.9475425796
 30
0.0
 10
9.6790742457
 20
7.9473594249
 30
0.0
 10
9.6793006646
 20
7.9472011169
 30
0.0
 10
9.679561396
 20
7.9471228598
 30
0.0
 10
9.6798970693
 20
7.9469905944
 30
0.0
 10
9.6804900739
 20
7.9467721396
 30
0.0
 10
9.681334308
 20
7.9464532596
 30
0.0
 10
9.6823486368
 20
7.946073515
 30
0.0
 10
9.6837006393
 20
7.945566172
 30
0.0
 10
9.6853907917
 20
7.9449323415
 30
0.0
 10
9.6880949521
 20
7.943918018
 30
0.0
 10
9.6914751813
 20
7.9426501804
 30
0.0
 10
9.695531444
 20
7.9411287466
 30
0.0
 10
9.69958771
 20
7.9396073205
 30
0.0
 10
9.7049960635
 20
7.9375787497
 30
0.0
 10
9.7117565058
 20
7.9350430372
 30
0.0
 10
9.7185169479
 20
7.932507324
 30
0.0
 10
9.7239253018
 20
7.9304787543
 30
0.0
 10
9.7279815666
 20
7.9289573248
 30
0.0
 10
9.7320378338
 20
7.9274359036
 30
0.0
 10
9.7354180488
 20
7.926168027
 30
0.0
 10
9.7381222381
 20
7.925153783
 30
0.0
 10
9.7398123171
 20
7.9245197502
 30
0.0
 10
9.7411644702
 20
7.9240128223
 30
0.0
 10
9.742178339
 20
7.9236318096
 30
0.0
 10
9.7430240124
 20
7.923316897
 30
0.0
 10
9.7436144476
 20
7.9230913599
 30
0.0
 10
9.7439542379
 20
7.9229704421
 30
0.0
 10
9.7442023231
 20
7.9228573288
 30
0.0
 10
9.744476239
 20
7.9228299351
 30
0.0
 10
9.7448324502
 20
7.9227635102
 30
0.0
 10
9.7454600177
 20
7.9226611976
 30
0.0
 10
9.746354348
 20
7.9225077535
 30
0.0
 10
9.7474284837
 20
7.922326738
 30
0.0
 10
9.7488603366
 20
7.9220842952
 30
0.0
 10
9.7506502651
 20
7.9217816145
 30
0.0
 10
9.7535140878
 20
7.9212971171
 30
0.0
 10
9.7570938878
 20
7.9206915667
 30
0.0
 10
9.7613896385
 20
7.9199648757
 30
0.0
 10
9.7656853917
 20
7.9192381928
 30
0.0
 10
9.7714130617
 20
7.9182692795
 30
0.0
 10
9.7785726496
 20
7.9170581389
 30
0.0
 10
9.7857322374
 20
7.9158469975
 30
0.0
 10
9.7914599076
 20
7.9148780854
 30
0.0
 10
9.7957556604
 20
7.914151399
 30
0.0
 10
9.8000514125
 20
7.9134247213
 30
0.0
 10
9.8036312083
 20
7.9128191293
 30
0.0
 10
9.8064950396
 20
7.9123347167
 30
0.0
 10
9.8082849463
 20
7.91203182
 30
0.0
 10
9.8097168438
 20
7.9117898207
 30
0.0
 10
9.8107908433
 20
7.9116074501
 30
0.0
 10
9.8116855997
 20
7.911458246
 30
0.0
 10
9.8123124065
 20
7.9113483643
 30
0.0
 10
9.8126698366
 20
7.9112940671
 30
0.0
 10
9.8129400083
 20
7.911229421
 30
0.0
 10
9.8132021561
 20
7.9112562215
 30
0.0
 10
9.8135544854
 20
7.911260058
 30
0.0
 10
9.8141697575
 20
7.9112816334
 30
0.0
 10
9.8150493995
 20
7.9113046856
 30
0.0
 10
9.8161046781
 20
7.911335674
 30
0.0
 10
9.817511818
 20
7.9113758303
 30
0.0
 10
9.8192707081
 20
7.9114264234
 30
0.0
 10
9.8220849518
 20
7.91150715
 30
0.0
 10
9.8256027497
 20
7.9116081345
 30
0.0
 10
9.82982411
 20
7.9117292832
 30
0.0
 10
9.8340454695
 20
7.9118504407
 30
0.0
 10
9.8396739492
 20
7.912011981
 30
0.0
 10
9.8467095487
 20
7.9122139074
 30
0.0
 10
9.8537451483
 20
7.9124158331
 30
0.0
 10
9.8593736278
 20
7.9125773746
 30
0.0
 10
9.8635949879
 20
7.9126985285
 30
0.0
 10
9.8678163463
 20
7.9128196908
 30
0.0
 10
9.8713341501
 20
7.912920633
 30
0.0
 10
9.8741483816
 20
7.913001446
 30
0.0
 10
9.8759073026
 20
7.9130518192
 30
0.0
 10
9.8773143791
 20
7.9130924267
 30
0.0
 10
9.8783698517
 20
7.9131220365
 30
0.0
 10
9.8792488866
 20
7.9131494022
 30
0.0
 10
9.8798652425
 20
7.9131632773
 30
0.0
 10
9.8802158353
 20
7.9131794516
 30
0.0
 10
9.8804833169
 20
7.9131683543
 30
0.0
 10
9.8807334559
 20
7.9132460461
 30
0.0
 10
9.8810730238
 20
7.9133186645
 30
0.0
 10
9.8816644493
 20
7.9134601766
 30
0.0
 10
9.8825108163
 20
7.9136547927
 30
0.0
 10
9.883525826
 20
7.913891561
 30
0.0
 10
9.8848793925
 20
7.9142061243
 30
0.0
 10
9.8865712753
 20
7.9145997146
 30
0.0
 10
9.8892783299
 20
7.9152292432
 30
0.0
 10
9.8926621337
 20
7.916016228
 30
0.0
 10
9.8967227045
 20
7.916960578
 30
0.0
 10
9.9007832735
 20
7.9179049366
 30
0.0
 10
9.9061973662
 20
7.9191640783
 30
0.0
 10
9.9129649819
 20
7.9207380066
 30
0.0
 10
9.9197325977
 20
7.9223119341
 30
0.0
 10
9.9251466901
 20
7.923571077
 30
0.0
 10
9.9292072602
 20
7.9245154321
 30
0.0
 10
9.9332678271
 20
7.9254597952
 30
0.0
 10
9.9366516429
 20
7.9262467392
 30
0.0
 10
9.9393586729
 20
7.9268763511
 30
0.0
 10
9.9410506183
 20
7.9272697295
 30
0.0
 10
9.9424040563
 20
7.9275847277
 30
0.0
 10
9.9434194589
 20
7.9278201674
 30
0.0
 10
9.9442645966
 20
7.9280189404
 30
0.0
 10
9.9448582166
 20
7.9281530315
 30
0.0
 10
9.9451942683
 20
7.9282375403
 30
0.0
 10
9.9454552082
 20
7.9282787088
 30
0.0
 10
9.9456821235
 20
7.9284047868
 30
0.0
 10
9.9459965453
 20
7.9285432734
 30
0.0
 10
9.9465412541
 20
7.9287994242
 30
0.0
 10
9.9473223003
 20
7.9291581395
 30
0.0
 10
9.9482583184
 20
7.9295916859
 30
0.0
 10
9.9495067747
 20
7.9301686692
 30
0.0
 10
9.951067197
 20
7.9308902676
 30
0.0
 10
9.9535639556
 20
7.9320446186
 30
0.0
 10
9.9566848753
 20
7.9334876282
 30
0.0
 10
9.9604299912
 20
7.9352192094
 30
0.0
 10
9.9641751039
 20
7.9369507987
 30
0.0
 10
9.9691685885
 20
7.9392595816
 30
0.0
 10
9.9754104439
 20
7.9421455612
 30
0.0
 10
9.9816522997
 20
7.9450315402
 30
0.0
 10
9.9866457838
 20
7.9473403242
 30
0.0
 10
9.990390898
 20
7.9490719101
 30
0.0
 10
9.994136008
 20
7.950803504
 30
0.0
 10
9.9972569461
 20
7.9522464741
 30
0.0
 10
9.9997536674
 20
7.9534009057
 30
0.0
 10
10.0013141845
 20
7.9541222991
 30
0.0
 10
10.0025624464
 20
7.9546997032
 30
0.0
 10
10.0034990583
 20
7.9551319639
 30
0.0
 10
10.0042782465
 20
7.9554947017
 30
0.0
 10
10.0048262722
 20
7.9557436716
 30
0.0
 10
10.0051353794
 20
7.9558936639
 30
0.0
 10
10.0053786197
 20
7.9559844002
 30
0.0
 10
10.0055782455
 20
7.956158306
 30
0.0
 10
10.0058596264
 20
7.9563611699
 30
0.0
 10
10.0063449549
 20
7.9567296982
 30
0.0
 10
10.0070419871
 20
7.9572491007
 30
0.0
 10
10.0078768395
 20
7.9578754084
 30
0.0
 10
10.0089905301
 20
7.9587094288
 30
0.0
 10
10.0103824537
 20
7.9597523162
 30
0.0
 10
10.0126096374
 20
7.9614207337
 30
0.0
 10
10.0153935807
 20
7.9635063249
 30
0.0
 10
10.0187343282
 20
7.9660090047
 30
0.0
 10
10.0220750716
 20
7.9685116925
 30
0.0
 10
10.0265293975
 20
7.9718486067
 30
0.0
 10
10.0320973043
 20
7.9760197504
 30
0.0
 10
10.0376652117
 20
7.9801908936
 30
0.0
 10
10.0421195368
 20
7.9835278088
 30
0.0
 10
10.0454602825
 20
7.9860304936
 30
0.0
 10
10.0488010214
 20
7.9885331844
 30
0.0
 10
10.0515849914
 20
7.9906187413
 30
0.0
 10
10.0538121207
 20
7.992287229
 30
0.0
 10
10.0552041827
 20
7.9933299375
 30
0.0
 10
10.056317589
 20
7.9941643251
 30
0.0
 10
10.0571533101
 20
7.9947895113
 30
0.0
 10
10.0578476246
 20
7.9953124226
 30
0.0
 10
10.0583378046
 20
7.995674687
 30
0.0
 10
10.0586114121
 20
7.9958875873
 30
0.0
 10
10.0588349154
 20
7.9960306646
 30
0.0
 10
10.0589884758
 20
7.9962371877
 30
0.0
 10
10.0592176199
 20
7.9964904212
 30
0.0
 10
10.0596072552
 20
7.9969438908
 30
0.0
 10
10.0601698197
 20
7.9975863139
 30
0.0
 10
10.0608423534
 20
7.9983595291
 30
0.0
 10
10.0617399535
 20
7.9993896767
 30
0.0
 10
10.0628616495
 20
8.0006776371
 30
0.0
 10
10.064656533
 20
8.0027382195
 30
0.0
 10
10.066900079
 20
8.0053140005
 30
0.0
 10
10.0695923593
 20
8.008404915
 30
0.0
 10
10.0722846328
 20
8.0114958356
 30
0.0
 10
10.0758743332
 20
8.0156170609
 30
0.0
 10
10.0803614579
 20
8.0207685933
 30
0.0
 10
10.0848485831
 20
8.0259201252
 30
0.0
 10
10.0884382826
 20
8.0300413513
 30
0.0
 10
10.0911305591
 20
8.0331322694
 30
0.0
 10
10.0938228284
 20
8.0362231929
 30
0.0
 10
10.0960664084
 20
8.0387989461
 30
0.0
 10
10.0978612228
 20
8.0408595852
 30
0.0
 10
10.0989830945
 20
8.0421474014
 30
0.0
 10
10.0998803337
 20
8.043177845
 30
0.0
 10
10.10055397
 20
8.0439501556
 30
0.0
 10
10.1011130849
 20
8.0445954089
 30
0.0
 10
10.1015088783
 20
8.0450438261
 30
0.0
 10
10.1017281555
 20
8.045305155
 30
0.0
 10
10.1019120238
 20
8.0454868116
 30
0.0
 10
10.102021696
 20
8.0457232835
 30
0.0
 10
10.1021938061
 20
8.0460194591
 30
0.0
 10
10.1024829405
 20
8.046546675
 30
0.0
 10
10.1029022939
 20
8.0472951831
 30
0.0
 10
10.1034028196
 20
8.0481953864
 30
0.0
 10
10.1040711296
 20
8.049394961
 30
0.0
 10
10.1049061945
 20
8.0508946678
 30
0.0
 10
10.1062424786
 20
8.0532940654
 30
0.0
 10
10.1079127718
 20
8.0562933581
 30
0.0
 10
10.1099171503
 20
8.0598924898
 30
0.0
 10
10.1119215216
 20
8.0634916267
 30
0.0
 10
10.1145940192
 20
8.0682904741
 30
0.0
 10
10.1179346403
 20
8.074289034
 30
0.0
 10
10.121275262
 20
8.0802875935
 30
0.0
 10
10.1239477586
 20
8.0850864415
 30
0.0
 10
10.1259521331
 20
8.0886855765
 30
0.0
 10
10.1279564997
 20
8.0922847153
 30
0.0
 10
10.1296268297
 20
8.0952839857
 30
0.0
 10
10.1309630388
 20
8.0976834288
 30
0.0
 10
10.1317982947
 20
8.0991830199
 30
0.0
 10
10.1324662126
 20
8.1003828321
 30
0.0
 10
10.1329679363
 20
8.1012823098
 30
0.0
 10
10.1333835412
 20
8.1020330878
 30
0.0
 10
10.1336793673
 20
8.1025562516
 30
0.0
 10
10.1338407557
 20
8.1028589197
 30
0.0
 10
10.1339833615
 20
8.1030754488
 30
0.0
 10
10.1340435368
 20
8.1033320071
 30
0.0
 10
10.1341525232
 20
8.1036601221
 30
0.0
 10
10.134329853
 20
8.1042408289
 30
0.0
 10
10.1345901851
 20
8.1050670089
 30
0.0
 10
10.1348995858
 20
8.1060598807
 30
0.0
 10
10.1353131671
 20
8.1073832012
 30
0.0
 10
10.1358297852
 20
8.1090375261
 30
0.0
 10
10.1366565745
 20
8.1116843484
 30
0.0
 10
10.1376899924
 20
8.1149929098
 30
0.0
 10
10.1389301234
 20
8.1189631692
 30
0.0
 10
10.1401702465
 20
8.1229334323
 30
0.0
 10
10.1418237467
 20
8.1282271152
 30
0.0
 10
10.143890621
 20
8.1348442193
 30
0.0
 10
10.1459574959
 20
8.1414613231
 30
0.0
 10
10.147610995
 20
8.1467550064
 30
0.0
 10
10.1488511215
 20
8.1507252682
 30
0.0
 10
10.1500912397
 20
8.1546955329
 30
0.0
 10
10.1511246975
 20
8.1580040774
 30
0.0
 10
10.1519514054
 20
8.1606509343
 30
0.0
 10
10.1524682308
 20
8.1623051713
 30
0.0
 10
10.1528813866
 20
8.163628672
 30
0.0
 10
10.1531920872
 20
8.1646209936
 30
0.0
 10
10.1534483522
 20
8.165448895
 30
0.0
 10
10.1536329425
 20
8.1660265287
 30
0.0
 10
10.1537302958
 20
8.1663595676
 30
0.0
 10
10.1538262043
 20
8.1666010015
 30
0.0
 10
10.1538346019
 20
8.1668743352
 30
0.0
 10
10.1538763234
 20
8.1672276531
 30
0.0
 10
10.1539351141
 20
8.1678511437
 30
0.0
 10
10.1540265362
 20
8.1687391343
 30
0.0
 10
10.1541330601
 20
8.1698058831
 30
0.0
 10
10.1542762035
 20
8.1712278095
 30
0.0
 10
10.1544547523
 20
8.1730053564
 30
0.0
 10
10.1547406429
 20
8.1758493538
 30
0.0
 10
10.1550979333
 20
8.1794043772
 30
0.0
 10
10.155526713
 20
8.1836703938
 30
0.0
 10
10.1559554844
 20
8.1879364135
 30
0.0
 10
10.1565271825
 20
8.1936244387
 30
0.0
 10
10.157241804
 20
8.2007344706
 30
0.0
 10
10.1580993504
 20
8.2092665087
 30
0.0
 10
10.1592427453
 20
8.2206425595
 30
0.0
 10
10.1601002916
 20
8.2291745976
 30
0.0
 10
10.1606719891
 20
8.234862623
 30
0.0
  0
SPLINE
  5
311
100
AcDbEntity
  8
0
100
AcDbSpline
 62
4
  6
CONTINUOUS
 70
0
 71
3
 72
403
 73
399
 74
0
 42
0.0000001
 43
0.0000001
 44
0.0000000001
 40
0.0
 40
0.0
 40
0.0
 40
0.0
 40
0.015625
 40
0.0234375
 40
0.03125
 40
0.0390625
 40
0.04296875
 40
0.046875
 40
0.05078125
 40
0.0546875
 40
0.056640625
 40
0.05859375
 40
0.0595703125
 40
0.060546875
 40
0.0615234375
 40
0.0620117188
 40
0.0622558594
 40
0.0625
 40
0.0627441406
 40
0.0629882812
 40
0.0634765625
 40
0.064453125
 40
0.0654296875
 40
0.06640625
 40
0.068359375
 40
0.0703125
 40
0.07421875
 40
0.078125
 40
0.08203125
 40
0.0859375
 40
0.09375
 40
0.1015625
 40
0.10546875
 40
0.109375
 40
0.11328125
 40
0.1171875
 40
0.119140625
 40
0.12109375
 40
0.1220703125
 40
0.123046875
 40
0.1240234375
 40
0.1245117188
 40
0.1247558594
 40
0.125
 40
0.1252441406
 40
0.1254882812
 40
0.1259765625
 40
0.126953125
 40
0.1279296875
 40
0.12890625
 40
0.130859375
 40
0.1328125
 40
0.13671875
 40
0.140625
 40
0.14453125
 40
0.1484375
 40
0.15625
 40
0.1640625
 40
0.16796875
 40
0.171875
 40
0.17578125
 40
0.1796875
 40
0.181640625
 40
0.18359375
 40
0.1845703125
 40
0.185546875
 40
0.1865234375
 40
0.1870117188
 40
0.1872558594
 40
0.1875
 40
0.1877441406
 40
0.1879882812
 40
0.1884765625
 40
0.189453125
 40
0.1904296875
 40
0.19140625
 40
0.193359375
 40
0.1953125
 40
0.19921875
 40
0.203125
 40
0.20703125
 40
0.2109375
 40
0.21875
 40
0.2265625
 40
0.23046875
 40
0.234375
 40
0.23828125
 40
0.2421875
 40
0.244140625
 40
0.24609375
 40
0.2470703125
 40
0.248046875
 40
0.2490234375
 40
0.2495117188
 40
0.2497558594
 40
0.25
 40
0.2502441406
 40
0.2504882812
 40
0.2509765625
 40
0.251953125
 40
0.2529296875
 40
0.25390625
 40
0.255859375
 40
0.2578125
 40
0.26171875
 40
0.265625
 40
0.26953125
 40
0.2734375
 40
0.28125
 40
0.2890625
 40
0.29296875
 40
0.296875
 40
0.30078125
 40
0.3046875
 40
0.306640625
 40
0.30859375
 40
0.3095703125
 40
0.310546875
 40
0.3115234375
 40
0.3120117188
 40
0.3122558594
 40
0.3125
 40
0.3127441406
 40
0.3129882812
 40
0.3134765625
 40
0.314453125
 40
0.3154296875
 40
0.31640625
 40
0.318359375
 40
0.3203125
 40
0.32421875
 40
0.328125
 40
0.33203125
 40
0.3359375
 40
0.34375
 40
0.3515625
 40
0.35546875
 40
0.359375
 40
0.36328125
 40
0.3671875
 40
0.369140625
 40
0.37109375
 40
0.3720703125
 40
0.373046875
 40
0.3740234375
 40
0.3745117188
 40
0.3747558594
 40
0.375
 40
0.3752441406
 40
0.3754882812
 40
0.3759765625
 40
0.376953125
 40
0.3779296875
 40
0.37890625
 40
0.380859375
 40
0.3828125
 40
0.38671875
 40
0.390625
 40
0.39453125
 40
0.3984375
 40
0.40625
 40
0.4140625
 40
0.41796875
 40
0.421875
 40
0.42578125
 40
0.4296875
 40
0.431640625
 40
0.43359375
 40
0.4345703125
 40
0.435546875
 40
0.4365234375
 40
0.4370117188
 40
0.4372558594
 40
0.4375
 40
0.4377441406
 40
0.4379882812
 40
0.4384765625
 40
0.439453125
 40
0.4404296875
 40
0.44140625
 40
0.443359375
 40
0.4453125
 40
0.44921875
 40
0.453125
 40
0.45703125
 40
0.4609375
 40
0.46875
 40
0.4765625
 40
0.48046875
 40
0.484375
 40
0.48828125
 40
0.4921875
 40
0.494140625
 40
0.49609375
 40
0.4970703125
 40
0.498046875
 40
0.4990234375
 40
0.4995117188
 40
0.4997558594
 40
0.5
 40
0.5002441406
 40
0.5004882812
 40
0.5009765625
 40
0.501953125
 40
0.5029296875
 40
0.50390625
 40
0.505859375
 40
0.5078125
 40
0.51171875
 40
0.515625
 40
0.51953125
 40
0.5234375
 40
0.53125
 40
0.5390625
 40
0.54296875
 40
0.546875
 40
0.55078125
 40
0.5546875
 40
0.556640625
 40
0.55859375
 40
0.5595703125
 40
0.560546875
 40
0.5615234375
 40
0.5620117188
 40
0.5622558594
 40
0.5625
 40
0.5627441406
 40
0.5629882812
 40
0.5634765625
 40
0.564453125
 40
0.5654296875
 40
0.56640625
 40
0.568359375
 40
0.5703125
 40
0.57421875
 40
0.578125
 40
0.58203125
 40
0.5859375
 40
0.59375
 40
0.6015625
 40
0.60546875
 40
0.609375
 40
0.61328125
 40
0.6171875
 40
0.619140625
 40
0.62109375
 40
0.6220703125
 40
0.623046875
 40
0.6240234375
 40
0.6245117188
 40
0.6247558594
 40
0.625
 40
0.6252441406
 40
0.6254882812
 40
0.6259765625
 40
0.626953125
 40
0.6279296875
 40
0.62890625
 40
0.630859375
 40
0.6328125
 40
0.63671875
 40
0.640625
 40
0.64453125
 40
0.6484375
 40
0.65625
 40
0.6640625
 40
0.66796875
 40
0.671875
 40
0.67578125
 40
0.6796875
 40
0.681640625
 40
0.68359375
 40
0.6845703125
 40
0.685546875
 40
0.6865234375
 40
0.6870117188
 40
0.6872558594
 40
0.6875
 40
0.6877441406
 40
0.6879882812
 40
0.6884765625
 40
0.689453125
 40
0.6904296875
 40
0.69140625
 40
0.693359375
 40
0.6953125
 40
0.69921875
 40
0.703125
 40
0.70703125
 40
0.7109375
 40
0.71875
 40
0.7265625
 40
0.73046875
 40
0.734375
 40
0.73828125
 40
0.7421875
 40
0.744140625
 40
0.74609375
 40
0.7470703125
 40
0.748046875
 40
0.7490234375
 40
0.7495117188
 40
0.7497558594
 40
0.75
 40
0.7502441406
 40
0.7504882812
 40
0.7509765625
 40
0.751953125
 40
0.7529296875
 40
0.75390625
 40
0.755859375
 40
0.7578125
 40
0.76171875
 40
0.765625
 40
0.76953125
 40
0.7734375
 40
0.78125
 40
0.7890625
 40
0.79296875
 40
0.796875
 40
0.80078125
 40
0.8046875
 40
0.806640625
 40
0.80859375
 40
0.8095703125
 40
0.810546875
 40
0.8115234375
 40
0.8120117188
 40
0.8122558594
 40
0.8125
 40
0.8127441406
 40
0.8129882812
 40
0.8134765625
 40
0.814453125
 40
0.8154296875
 40
0.81640625
 40
0.818359375
 40
0.8203125
 40
0.82421875
 40
0.828125
 40
0.83203125
 40
0.8359375
 40
0.84375
 40
0.8515625
 40
0.85546875
 40
0.859375
 40
0.86328125
 40
0.8671875
 40
0.869140625
 40
0.87109375
 40
0.8720703125
 40
0.873046875
 40
0.8740234375
 40
0.8745117188
 40
0.8747558594
 40
0.875
 40
0.8752441406
 40
0.8754882812
 40
0.8759765625
 40
0.876953125
 40
0.8779296875
 40
0.87890625
 40
0.880859375
 40
0.8828125
 40
0.88671875
 40
0.890625
 40
0.89453125
 40
0.8984375
 40
0.90625
 40
0.9140625
 40
0.91796875
 40
0.921875
 40
0.92578125
 40
0.9296875
 40
0.931640625
 40
0.93359375
 40
0.9345703125
 40
0.935546875
 40
0.9365234375
 40
0.9370117188
 40
0.9372558594
 40
0.9375
 40
0.9377441406
 40
0.9379882812
 40
0.9384765625
 40
0.939453125
 40
0.9404296875
 40
0.94140625
 40
0.943359375
 40
0.9453125
 40
0.94921875
 40
0.953125
 40
0.95703125
 40
0.9609375
 40
0.96875
 40
0.9765625
 40
0.984375
 40
1.0
 40
1.0
 40
1.0
 40
1.0
 10
10.1606719891
 20
8.2348625926
 30
0.0
 10
10.1601201118
 20
8.2405293451
 30
0.0
 10
10.1592922959
 20
8.2490294737
 30
0.0
 10
10.1581885415
 20
8.2603629786
 30
0.0
 10
10.1573607255
 20
8.2688631073
 30
0.0
 10
10.1566708792
 20
8.2759465478
 30
0.0
 10
10.1561190014
 20
8.2816133002
 30
0.0
 10
10.1557050952
 20
8.2858633648
 30
0.0
 10
10.1552911806
 20
8.2901134282
 30
0.0
 10
10.154946278
 20
8.2936551512
 30
0.0
 10
10.1546702973
 20
8.296488522
 30
0.0
 10
10.1544979425
 20
8.2982593959
 30
0.0
 10
10.1543597539
 20
8.2996760557
 30
0.0
 10
10.1542569469
 20
8.300738658
 30
0.0
 10
10.1541686199
 20
8.3016238184
 30
0.0
 10
10.1541120004
 20
8.3022441009
 30
0.0
 10
10.1540715124
 20
8.3025975015
 30
0.0
 10
10.1540640598
 20
8.3028655
 30
0.0
 10
10.1539690208
 20
8.3031222299
 30
0.0
 10
10.1538728532
 20
8.3034684671
 30
0.0
 10
10.1536903256
 20
8.3040725509
 30
0.0
 10
10.1534370138
 20
8.3049364852
 30
0.0
 10
10.1531298543
 20
8.3059727964
 30
0.0
 10
10.1527214209
 20
8.307354688
 30
0.0
 10
10.1522104981
 20
8.3090820033
 30
0.0
 10
10.1513932347
 20
8.3118457354
 30
0.0
 10
10.1503715823
 20
8.315300391
 30
0.0
 10
10.1491456307
 20
8.3194459818
 30
0.0
 10
10.1479196707
 20
8.3235915715
 30
0.0
 10
10.1462850604
 20
8.3291190248
 30
0.0
 10
10.1442417964
 20
8.3360283412
 30
0.0
 10
10.1421985331
 20
8.3429376579
 30
0.0
 10
10.1405639216
 20
8.3484651109
 30
0.0
 10
10.1393379651
 20
8.3526107014
 30
0.0
 10
10.1381120006
 20
8.3567562892
 30
0.0
 10
10.1370903882
 20
8.3602109541
 30
0.0
 10
10.1362730432
 20
8.3629746672
 30
0.0
 10
10.135762328
 20
8.3647020308
 30
0.0
 10
10.1353534685
 20
8.3660838233
 30
0.0
 10
10.1350476104
 20
8.3671204372
 30
0.0
 10
10.1347902269
 20
8.3679834245
 30
0.0
 10
10.1346149681
 20
8.3685891988
 30
0.0
 10
10.1345071541
 20
8.3689327274
 30
0.0
 10
10.1344478893
 20
8.3691977773
 30
0.0
 10
10.1343060747
 20
8.3694345275
 30
0.0
 10
10.1341457829
 20
8.3697600656
 30
0.0
 10
10.1338518564
 20
8.3703251582
 30
0.0
 10
10.1334389753
 20
8.3711348378
 30
0.0
 10
10.1329405158
 20
8.3721054242
 30
0.0
 10
10.1322769518
 20
8.3733998988
 30
0.0
 10
10.1314471378
 20
8.375017869
 30
0.0
 10
10.130119636
 20
8.3776066901
 30
0.0
 10
10.1284601898
 20
8.3808426928
 30
0.0
 10
10.126468884
 20
8.3847259063
 30
0.0
 10
10.1244775702
 20
8.388609117
 30
0.0
 10
10.121822488
 20
8.3937867322
 30
0.0
 10
10.1185036342
 20
8.4002587509
 30
0.0
 10
10.1151847811
 20
8.4067307699
 30
0.0
 10
10.1125296978
 20
8.4119083847
 30
0.0
 10
10.1105383873
 20
8.4157915967
 30
0.0
 10
10.1085470692
 20
8.4196748051
 30
0.0
 10
10.1068876613
 20
8.4229108235
 30
0.0
 10
10.1055600815
 20
8.4254996128
 30
0.0
 10
10.1047304659
 20
8.4271176639
 30
0.0
 10
10.1040664945
 20
8.4284119724
 30
0.0
 10
10.1035692796
 20
8.4293830663
 30
0.0
 10
10.1031525048
 20
8.4301911579
 30
0.0
 10
10.1028655292
 20
8.4307590854
 30
0.0
 10
10.1026941003
 20
8.4310800813
 30
0.0
 10
10.1025864952
 20
8.431330784
 30
0.0
 10
10.1023987453
 20
8.4315434303
 30
0.0
 10
10.1021763676
 20
8.4318402332
 30
0.0
 10
10.1017741816
 20
8.4323534534
 30
0.0
 10
10.1012064398
 20
8.4330898586
 30
0.0
 10
10.1005222349
 20
8.4339721608
 30
0.0
 10
10.0996109797
 20
8.4351490472
 30
0.0
 10
10.0984715622
 20
8.4366199896
 30
0.0
 10
10.0966486889
 20
8.43897359
 30
0.0
 10
10.0943700306
 20
8.4419155588
 30
0.0
 10
10.0916356691
 20
8.4454459349
 30
0.0
 10
10.0889013001
 20
8.4489763074
 30
0.0
 10
10.0852554773
 20
8.453683472
 30
0.0
 10
10.0806981979
 20
8.4595674272
 30
0.0
 10
10.076140919
 20
8.4654513829
 30
0.0
 10
10.0724950953
 20
8.4701585468
 30
0.0
 10
10.0697607291
 20
8.4736889214
 30
0.0
 10
10.0670263572
 20
8.4772192897
 30
0.0
 10
10.0647477314
 20
8.4801612829
 30
0.0
 10
10.0629247917
 20
8.4825148335
 30
0.0
 10
10.0617855433
 20
8.4839859027
 30
0.0
 10
10.0608739408
 20
8.4851625288
 30
0.0
 10
10.0601907972
 20
8.4860456261
 30
0.0
 10
10.0596197349
 20
8.4867795438
 30
0.0
 10
10.0592234764
 20
8.4872972045
 30
0.0
 10
10.0589916014
 20
8.4875868926
 30
0.0
 10
10.0588330241
 20
8.4878213932
 30
0.0
 10
10.0586158516
 20
8.4879900147
 30
0.0
 10
10.0583467269
 20
8.4882378226
 30
0.0
 10
10.0578662359
 20
8.48866078
 30
0.0
 10
10.0571847988
 20
8.4892706023
 30
0.0
 10
10.0563649433
 20
8.4899999933
 30
0.0
 10
10.055272547
 20
8.4909733513
 30
0.0
 10
10.0539067967
 20
8.4921897623
 30
0.0
 10
10.0517217386
 20
8.4941361801
 30
0.0
 10
10.0489903672
 20
8.4965691474
 30
0.0
 10
10.0457127424
 20
8.4994887317
 30
0.0
 10
10.0424351121
 20
8.5024083097
 30
0.0
 10
10.0380649402
 20
8.5063010826
 30
0.0
 10
10.0326022246
 20
8.5111670479
 30
0.0
 10
10.0271395095
 20
8.5160330137
 30
0.0
 10
10.022769337
 20
8.5199257857
 30
0.0
 10
10.0194917088
 20
8.5228453664
 30
0.0
 10
10.0162140758
 20
8.5257649404
 30
0.0
 10
10.0134827298
 20
8.5281979398
 30
0.0
 10
10.0112976199
 20
8.5301442921
 30
0.0
 10
10.0099320017
 20
8.5313608698
 30
0.0
 10
10.0088393342
 20
8.5323338857
 30
0.0
 10
10.0080203069
 20
8.5330643218
 30
0.0
 10
10.0073362787
 20
8.5336708742
 30
0.0
 10
10.0068604132
 20
8.5340996689
 30
0.0
 10
10.0065838774
 20
8.534338124
 30
0.0
 10
10.0063894695
 20
8.5345354745
 30
0.0
 10
10.0061453918
 20
8.5346620736
 30
0.0
 10
10.0058372803
 20
8.5348555513
 30
0.0
 10
10.0052900129
 20
8.5351826388
 30
0.0
 10
10.0045124225
 20
8.5356559183
 30
0.0
 10
10.0035775077
 20
8.5362212805
 30
0.0
 10
10.0023315855
 20
8.5369759955
 30
0.0
 10
10.0007739668
 20
8.5379190816
 30
0.0
 10
9.9982818976
 20
8.5394281913
 30
0.0
 10
9.9951667696
 20
8.5413145194
 30
0.0
 10
9.9914286339
 20
8.5435781385
 30
0.0
 10
9.9876904933
 20
8.5458417507
 30
0.0
 10
9.9827063076
 20
8.5488599028
 30
0.0
 10
9.9764760749
 20
8.552632592
 30
0.0
 10
9.9702458425
 20
8.5564052818
 30
0.0
 10
9.9652616562
 20
8.5594234328
 30
0.0
 10
9.9615235174
 20
8.5616870481
 30
0.0
 10
9.9577853752
 20
8.5639506558
 30
0.0
 10
9.954670267
 20
8.5658370193
 30
0.0
 10
9.9521781575
 20
8.5673460567
 30
0.0
 10
9.9506206413
 20
8.5682893268
 30
0.0
 10
9.9493745088
 20
8.5690436642
 30
0.0
 10
9.9484402364
 20
8.56961018
 30
0.0
 10
9.9476606362
 20
8.5700798503
 30
0.0
 10
9.9471169568
 20
8.5704133807
 30
0.0
 10
9.9468030963
 20
8.5705965354
 30
0.0
 10
9.9465766774
 20
8.5707548434
 30
0.0
 10
9.946315946
 20
8.5708331005
 30
0.0
 10
9.9459802727
 20
8.5709653659
 30
0.0
 10
9.9453872681
 20
8.5711838208
 30
0.0
 10
9.944543034
 20
8.5715027007
 30
0.0
 10
9.9435287052
 20
8.5718824453
 30
0.0
 10
9.9421767027
 20
8.5723897883
 30
0.0
 10
9.9404865503
 20
8.5730236188
 30
0.0
 10
9.9377823899
 20
8.5740379424
 30
0.0
 10
9.9344021607
 20
8.57530578
 30
0.0
 10
9.930345898
 20
8.5768272137
 30
0.0
 10
9.926289632
 20
8.5783486398
 30
0.0
 10
9.9208812785
 20
8.5803772106
 30
0.0
 10
9.9141208362
 20
8.5829129231
 30
0.0
 10
9.9073603941
 20
8.5854486363
 30
0.0
 10
9.9019520402
 20
8.5874772061
 30
0.0
 10
9.8978957754
 20
8.5889986355
 30
0.0
 10
9.8938395082
 20
8.5905200567
 30
0.0
 10
9.8904592932
 20
8.5917879333
 30
0.0
 10
9.8877551039
 20
8.5928021773
 30
0.0
 10
9.8860650249
 20
8.5934362101
 30
0.0
 10
9.8847128718
 20
8.5939431381
 30
0.0
 10
9.883699003
 20
8.5943241507
 30
0.0
 10
9.8828533296
 20
8.5946390633
 30
0.0
 10
9.8822628945
 20
8.5948646004
 30
0.0
 10
9.8819231041
 20
8.5949855182
 30
0.0
 10
9.8816750189
 20
8.5950986316
 30
0.0
 10
9.881401103
 20
8.5951260252
 30
0.0
 10
9.8810448918
 20
8.5951924501
 30
0.0
 10
9.8804173243
 20
8.5952947627
 30
0.0
 10
9.879522994
 20
8.5954482068
 30
0.0
 10
9.8784488583
 20
8.5956292223
 30
0.0
 10
9.8770170054
 20
8.5958716651
 30
0.0
 10
9.875227077
 20
8.5961743458
 30
0.0
 10
9.8723632542
 20
8.5966588433
 30
0.0
 10
9.8687834543
 20
8.5972643936
 30
0.0
 10
9.8644877035
 20
8.5979910846
 30
0.0
 10
9.8601919503
 20
8.5987177675
 30
0.0
 10
9.8544642803
 20
8.5996866808
 30
0.0
 10
9.8473046924
 20
8.6008978214
 30
0.0
 10
9.8401451046
 20
8.6021089628
 30
0.0
 10
9.8344174344
 20
8.6030778749
 30
0.0
 10
9.8301216816
 20
8.6038045614
 30
0.0
 10
9.8258259295
 20
8.604531239
 30
0.0
 10
9.8222461337
 20
8.605136831
 30
0.0
 10
9.8193823025
 20
8.6056212436
 30
0.0
 10
9.8175923957
 20
8.6059241404
 30
0.0
 10
9.8161604983
 20
8.6061661396
 30
0.0
 10
9.8150864987
 20
8.6063485102
 30
0.0
 10
9.8141917423
 20
8.6064977143
 30
0.0
 10
9.8135649355
 20
8.6066075961
 30
0.0
 10
9.8132075054
 20
8.6066618932
 30
0.0
 10
9.8129373337
 20
8.6067265393
 30
0.0
 10
9.8126751859
 20
8.6066997388
 30
0.0
 10
9.8123228566
 20
8.6066959024
 30
0.0
 10
9.8117075845
 20
8.6066743269
 30
0.0
 10
9.8108279425
 20
8.6066512747
 30
0.0
 10
9.809772664
 20
8.6066202863
 30
0.0
 10
9.808365524
 20
8.60658013
 30
0.0
 10
9.8066066339
 20
8.606529537
 30
0.0
 10
9.8037923902
 20
8.6064488104
 30
0.0
 10
9.8002745923
 20
8.6063478258
 30
0.0
 10
9.796053232
 20
8.6062266771
 30
0.0
 10
9.7918318725
 20
8.6061055196
 30
0.0
 10
9.7862033928
 20
8.6059439794
 30
0.0
 10
9.7791677933
 20
8.6057420529
 30
0.0
 10
9.7721321937
 20
8.6055401272
 30
0.0
 10
9.7665037142
 20
8.6053785857
 30
0.0
 10
9.7622823542
 20
8.6052574319
 30
0.0
 10
9.7580609958
 20
8.6051362695
 30
0.0
 10
9.7545431919
 20
8.6050353273
 30
0.0
 10
9.7517289604
 20
8.6049545143
 30
0.0
 10
9.7499700394
 20
8.6049041411
 30
0.0
 10
9.7485629629
 20
8.6048635336
 30
0.0
 10
9.7475074903
 20
8.6048339239
 30
0.0
 10
9.7466284554
 20
8.6048065582
 30
0.0
 10
9.7460120995
 20
8.604792683
 30
0.0
 10
9.7456615067
 20
8.6047765088
 30
0.0
 10
9.7453940251
 20
8.604787606
 30
0.0
 10
9.7451438861
 20
8.6047099142
 30
0.0
 10
9.7448043182
 20
8.6046372958
 30
0.0
 10
9.7442128928
 20
8.6044957837
 30
0.0
 10
9.7433665257
 20
8.6043011677
 30
0.0
 10
9.742351516
 20
8.6040643993
 30
0.0
 10
9.7409979495
 20
8.603749836
 30
0.0
 10
9.7393060667
 20
8.6033562458
 30
0.0
 10
9.7365990121
 20
8.6027267172
 30
0.0
 10
9.7332152083
 20
8.6019397323
 30
0.0
 10
9.7291546376
 20
8.6009953823
 30
0.0
 10
9.7250940685
 20
8.6000510238
 30
0.0
 10
9.7196799758
 20
8.598791882
 30
0.0
 10
9.7129123601
 20
8.5972179537
 30
0.0
 10
9.7061447443
 20
8.5956440262
 30
0.0
 10
9.7007306519
 20
8.5943848833
 30
0.0
 10
9.6966700818
 20
8.5934405283
 30
0.0
 10
9.692609515
 20
8.5924961651
 30
0.0
 10
9.6892256991
 20
8.5917092211
 30
0.0
 10
9.6865186691
 20
8.5910796092
 30
0.0
 10
9.6848267237
 20
8.5906862308
 30
0.0
 10
9.6834732857
 20
8.5903712327
 30
0.0
 10
9.6824578831
 20
8.590135793
 30
0.0
 10
9.6816127454
 20
8.5899370199
 30
0.0
 10
9.6810191254
 20
8.5898029288
 30
0.0
 10
9.6806830737
 20
8.5897184201
 30
0.0
 10
9.6804221339
 20
8.5896772515
 30
0.0
 10
9.6801952186
 20
8.5895511735
 30
0.0
 10
9.6798807967
 20
8.5894126869
 30
0.0
 10
9.679336088
 20
8.5891565361
 30
0.0
 10
9.6785550417
 20
8.5887978208
 30
0.0
 10
9.6776190237
 20
8.5883642744
 30
0.0
 10
9.6763705674
 20
8.5877872911
 30
0.0
 10
9.674810145
 20
8.5870656928
 30
0.0
 10
9.6723133864
 20
8.5859113417
 30
0.0
 10
9.6691924667
 20
8.5844683321
 30
0.0
 10
9.6654473508
 20
8.5827367509
 30
0.0
 10
9.6617022381
 20
8.5810051616
 30
0.0
 10
9.6567087535
 20
8.5786963788
 30
0.0
 10
9.6504668981
 20
8.5758103991
 30
0.0
 10
9.6442250424
 20
8.5729244201
 30
0.0
 10
9.6392315582
 20
8.5706156361
 30
0.0
 10
9.635486444
 20
8.5688840502
 30
0.0
 10
9.631741334
 20
8.5671524563
 30
0.0
 10
9.628620396
 20
8.5657094862
 30
0.0
 10
9.6261236746
 20
8.5645550546
 30
0.0
 10
9.6245631576
 20
8.5638336613
 30
0.0
 10
9.6233148956
 20
8.5632562572
 30
0.0
 10
9.6223782837
 20
8.5628239965
 30
0.0
 10
9.6215990956
 20
8.5624612586
 30
0.0
 10
9.6210510698
 20
8.5622122887
 30
0.0
 10
9.6207419626
 20
8.5620622965
 30
0.0
 10
9.6204987223
 20
8.5619715601
 30
0.0
 10
9.6202990965
 20
8.5617976544
 30
0.0
 10
9.6200177156
 20
8.5615947904
 30
0.0
 10
9.6195323871
 20
8.5612262621
 30
0.0
 10
9.6188353549
 20
8.5607068596
 30
0.0
 10
9.6180005025
 20
8.5600805519
 30
0.0
 10
9.6168868119
 20
8.5592465315
 30
0.0
 10
9.6154948883
 20
8.5582036442
 30
0.0
 10
9.6132677046
 20
8.5565352267
 30
0.0
 10
9.6104837613
 20
8.5544496354
 30
0.0
 10
9.6071430138
 20
8.5519469556
 30
0.0
 10
9.6038022704
 20
8.5494442679
 30
0.0
 10
9.5993479445
 20
8.5461073537
 30
0.0
 10
9.5937800377
 20
8.5419362099
 30
0.0
 10
9.5882121304
 20
8.5377650667
 30
0.0
 10
9.5837578052
 20
8.5344281515
 30
0.0
 10
9.5804170596
 20
8.5319254667
 30
0.0
 10
9.5770763206
 20
8.5294227759
 30
0.0
 10
9.5742923506
 20
8.5273372191
 30
0.0
 10
9.5720652214
 20
8.5256687313
 30
0.0
 10
9.5706731593
 20
8.5246260228
 30
0.0
 10
9.569559753
 20
8.5237916353
 30
0.0
 10
9.5687240319
 20
8.5231664491
 30
0.0
 10
9.5680297174
 20
8.5226435377
 30
0.0
 10
9.5675395374
 20
8.5222812733
 30
0.0
 10
9.5672659299
 20
8.522068373
 30
0.0
 10
9.5670424266
 20
8.5219252958
 30
0.0
 10
9.5668888662
 20
8.5217187727
 30
0.0
 10
9.5666597221
 20
8.5214655392
 30
0.0
 10
9.5662700868
 20
8.5210120695
 30
0.0
 10
9.5657075223
 20
8.5203696464
 30
0.0
 10
9.5650349886
 20
8.5195964312
 30
0.0
 10
9.5641373885
 20
8.5185662837
 30
0.0
 10
9.5630156926
 20
8.5172783232
 30
0.0
 10
9.5612208091
 20
8.5152177408
 30
0.0
 10
9.558977263
 20
8.5126419598
 30
0.0
 10
9.5562849828
 20
8.5095510453
 30
0.0
 10
9.5535927092
 20
8.5064601248
 30
0.0
 10
9.5500030088
 20
8.5023388995
 30
0.0
 10
9.5455158841
 20
8.4971873671
 30
0.0
 10
9.5410287589
 20
8.4920358352
 30
0.0
 10
9.5374390594
 20
8.4879146091
 30
0.0
 10
9.5347467829
 20
8.4848236909
 30
0.0
 10
9.5320545136
 20
8.4817327675
 30
0.0
 10
9.5298109337
 20
8.4791570143
 30
0.0
 10
9.5280161192
 20
8.4770963751
 30
0.0
 10
9.5268942475
 20
8.475808559
 30
0.0
 10
9.5259970083
 20
8.4747781153
 30
0.0
 10
9.525323372
 20
8.4740058048
 30
0.0
 10
9.5247642571
 20
8.4733605514
 30
0.0
 10
9.5243684637
 20
8.4729121342
 30
0.0
 10
9.5241491865
 20
8.4726508053
 30
0.0
 10
9.5239653182
 20
8.4724691488
 30
0.0
 10
9.523855646
 20
8.4722326768
 30
0.0
 10
9.5236835359
 20
8.4719365012
 30
0.0
 10
9.5233944015
 20
8.4714092853
 30
0.0
 10
9.5229750481
 20
8.4706607772
 30
0.0
 10
9.5224745224
 20
8.469760574
 30
0.0
 10
9.5218062124
 20
8.4685609993
 30
0.0
 10
9.5209711475
 20
8.4670612925
 30
0.0
 10
9.5196348634
 20
8.4646618949
 30
0.0
 10
9.5179645702
 20
8.4616626022
 30
0.0
 10
9.5159601917
 20
8.4580634705
 30
0.0
 10
9.5139558204
 20
8.4544643336
 30
0.0
 10
9.5112833228
 20
8.4496654862
 30
0.0
 10
9.5079427017
 20
8.4436669263
 30
0.0
 10
9.50460208
 20
8.4376683668
 30
0.0
 10
9.5019295834
 20
8.4328695188
 30
0.0
 10
9.4999252089
 20
8.4292703838
 30
0.0
 10
9.4979208423
 20
8.425671245
 30
0.0
 10
9.4962505123
 20
8.4226719746
 30
0.0
 10
9.4949143032
 20
8.4202725315
 30
0.0
 10
9.4940790473
 20
8.4187729404
 30
0.0
 10
9.4934111294
 20
8.4175731283
 30
0.0
 10
9.4929094057
 20
8.4166736505
 30
0.0
 10
9.4924938008
 20
8.4159228725
 30
0.0
 10
9.4921979747
 20
8.4153997088
 30
0.0
 10
9.4920365863
 20
8.4150970406
 30
0.0
 10
9.4918939805
 20
8.4148805115
 30
0.0
 10
9.4918338052
 20
8.4146239532
 30
0.0
 10
9.4917248188
 20
8.4142958382
 30
0.0
 10
9.491547489
 20
8.4137151314
 30
0.0
 10
9.4912871569
 20
8.4128889514
 30
0.0
 10
9.4909777563
 20
8.4118960796
 30
0.0
 10
9.490564175
 20
8.4105727591
 30
0.0
 10
9.4900475568
 20
8.4089184343
 30
0.0
 10
9.4892207675
 20
8.4062716119
 30
0.0
 10
9.4881873496
 20
8.4029630505
 30
0.0
 10
9.4869472186
 20
8.3989927912
 30
0.0
 10
9.4857070955
 20
8.395022528
 30
0.0
 10
9.4840535953
 20
8.3897288451
 30
0.0
 10
9.481986721
 20
8.383111741
 30
0.0
 10
9.4799198461
 20
8.3764946372
 30
0.0
 10
9.478266347
 20
8.3712009539
 30
0.0
 10
9.4770262205
 20
8.3672306922
 30
0.0
 10
9.4757861023
 20
8.3632604274
 30
0.0
 10
9.4747526445
 20
8.3599518829
 30
0.0
 10
9.4739259366
 20
8.3573050261
 30
0.0
 10
9.4734091112
 20
8.355650789
 30
0.0
 10
9.4729959554
 20
8.3543272883
 30
0.0
 10
9.4726852548
 20
8.3533349668
 30
0.0
 10
9.4724289898
 20
8.3525070653
 30
0.0
 10
9.4722443995
 20
8.3519294316
 30
0.0
 10
9.4721470462
 20
8.3515963927
 30
0.0
 10
9.4720511377
 20
8.3513549589
 30
0.0
 10
9.4720427401
 20
8.3510816251
 30
0.0
 10
9.4720010186
 20
8.3507283072
 30
0.0
 10
9.4719422279
 20
8.3501048166
 30
0.0
 10
9.4718508059
 20
8.349216826
 30
0.0
 10
9.471744282
 20
8.3481500773
 30
0.0
 10
9.4716011385
 20
8.3467281508
 30
0.0
 10
9.4714225898
 20
8.3449506039
 30
0.0
 10
9.4711366991
 20
8.3421066065
 30
0.0
 10
9.4707794087
 20
8.3385515831
 30
0.0
 10
9.470350629
 20
8.3342855665
 30
0.0
 10
9.4699218576
 20
8.3300195468
 30
0.0
 10
9.4693501595
 20
8.3243315216
 30
0.0
 10
9.468635538
 20
8.3172214897
 30
0.0
 10
9.4677779916
 20
8.3086894516
 30
0.0
 10
9.4666345967
 20
8.2973134008
 30
0.0
 10
9.4657770504
 20
8.2887813627
 30
0.0
 10
9.4652053529
 20
8.2830933373
 30
0.0
  0
ENDSEC
  0
SECTION
  2
OBJECTS
  0
DICTIONARY
  5
C
100
AcDbDictionary
280
0
281
1
  3
ACAD_GROUP
350
D
  3
ACAD_MLINESTYLE
350
17
  3
ACAD_LAYOUT
350
1A
  3
ACAD_PLOTSETTINGS
350
19
  3
ACAD_PLOTSTYLENAME
350
E
  3
ACAD_IMAGE_DICT
350
       313
  3
ACAD_IMAGE_VARS
350
       314
  3
ACAD_TABLESTYLE
350
       315
  0
IMAGEDEF_REACTOR
  5
312
100
AcDbRasterImageDefReactor
 90
2
330
27F
  0
DICTIONARY
  5
D
102
{ACAD_REACTORS
330
C
102
}
100
AcDbDictionary
280
0
281
1
  0
ACDBDICTIONARYWDFLT
  5
E
102
{ACAD_REACTORS
330
C
102
}
100
AcDbDictionary
281
1
  3
Normal
350
F
100
AcDbDictionaryWithDefault
340
F
  0
DICTIONARY
  5
313
330
C
100
AcDbDictionary
281
1
  3
GAH_assy_2_img_1
350
       318
  0
RASTERVARIABLES
  5
314
330
C
100
AcDbRasterVariables
 90
0
 70
0
 71
1
 72
5
  0
DICTIONARY
  5
17
102
{ACAD_REACTORS
330
C
102
}
100
AcDbDictionary
280
0
281
1
  3
Standard
350
18
  0
DICTIONARY
  5
315
330
C
100
AcDbDictionary
281
1
  3
Standard
350
       319
  3
Standard1
350
       31A
  0
DICTIONARY
  5
19
102
{ACAD_REACTORS
330
C
102
}
100
AcDbDictionary
281
1
  0
DICTIONARY
  5
1A
102
{ACAD_REACTORS
330
C
102
}
100
AcDbDictionary
281
1
  3
Model
350
316
  3
Layout1
350
317
  0
ACDBPLACEHOLDER
  5
F
102
{ACAD_REACTORS
330
E
102
}
  0
MLINESTYLE
  5
18
102
{ACAD_REACTORS
330
17
102
}
100
AcDbMlineStyle
  2
STANDARD
 70
0
  3

 62
256
 51
90.0
 52
90.0
 71
2
 49
0.5
 62
256
  6
BYLAYER
 49
-0.5
 62
256
  6
BYLAYER
  0
LAYOUT
  5
316
102
{ACAD_REACTORS
330
1A
102
}
100
AcDbPlotSettings
  1

  2
none_device
  4
ANSI_C_(22.00_x_17.00_Inches)
  6

 40
0.0
 41
0.0
 42
0.0
 43
0.0
 44
558.8
 45
431.8
 46
0.0
 47
0.0
 48
0.0
 49
0.0
140
0.0
141
0.0
142
1.0
143
1.0
 70
1024
 72
0
 73
0
 74
0
  7

 75
0
147
1.0
148
0.0
149
0.0
100
AcDbLayout
  1
Model
 70
0
 71
0
 10
0.0
 20
0.0
 11
22.0
 21
17.0
 12
0.0
 22
0.0
 32
0.0
 14
0.0
 24
0.0
 34
0.0
 15
0.0
 25
0.0
 35
0.0
146
0.0
 13
0.0
 23
0.0
 33
0.0
 16
1.0
 26
0.0
 36
0.0
 17
0.0
 27
1.0
 37
0.0
 76
0
330
204
345
0
346
0
  0
LAYOUT
  5
317
102
{ACAD_REACTORS
330
1A
102
}
100
AcDbPlotSettings
  1

  2
none_device
  4
ANSI_C_(22.00_x_17.00_Inches)
  6

 40
0.0
 41
0.0
 42
0.0
 43
0.0
 44
558.8
 45
431.8
 46
0.0
 47
0.0
 48
0.0
 49
0.0
140
0.0
141
0.0
142
1.0
143
1.0
 70
0
 72
0
 73
0
 74
0
  7

 75
0
147
1.0
148
0.0
149
0.0
100
AcDbLayout
  1
Layout1
 70
0
 71
1
 10
0.0
 20
0.0
 11
22.0
 21
17.0
 12
0.0
 22
0.0
 32
0.0
 14
0.0
 24
0.0
 34
0.0
 15
0.0
 25
0.0
 35
0.0
146
0.0
 13
0.0
 23
0.0
 33
0.0
 16
1.0
 26
0.0
 36
0.0
 17
0.0
 27
1.0
 37
0.0
 76
0
330
205
345
0
346
0
  0
IMAGEDEF
  5
318
102
{ACAD_REACTORS
330
313
330
312
102
}
100
AcDbRasterImageDef
 90
0
  1
GAH_assy_2_img_1.png
 10
369.0
 20
92.0
 11
0.0066666667
 21
0.0066666667
280
1
281
0
  0
TABLESTYLE
  5
319
102
{ACAD_REACTORS
330
315
330
282
330
283
102
}
330
315
100
AcDbTableStyle
  3
Standard
 70
0
 71
0
 40
0.06
 41
0.06
280
1
281
1
  7
Standard
140
0.18
170
1
 62
0
 63
7
283
0
  7
Standard
140
0.18
170
1
 62
0
 63
7
283
0
  7
Standard
140
0.18
170
1
 62
0
 63
7
283
0
  0
TABLESTYLE
  5
31A
102
{ACAD_REACTORS
330
315
330
281
102
}
330
315
100
AcDbTableStyle
  3
Standard1
 70
1
 71
0
 40
0.06
 41
0.06
280
1
281
1
  7
Standard
140
0.18
170
1
 62
0
 63
7
283
0
  7
Standard
140
0.18
170
1
 62
0
 63
7
283
0
  7
Standard
140
0.18
170
1
 62
0
 63
7
283
0
  0
ENDSEC
  0
EOF
