999
DXF file: GAD_assy_2.dxf
999
Pro/ENGINEER 2014200 by Parametric Technology Corporation
  0
SECTION
  2
HEADER
  9
$ACADVER
  1
AC1021
  9
$DWGCODEPAGE
  3
ANSI_1252
  9
$EXTMAX
 10
22.0
 20
17.0
 30
0.0
  9
$EXTMIN
 10
0.0
 20
0.0
 30
0.0
  9
$LIMMIN
 10
0.0
 20
0.0
  9
$LIMMAX
 10
22.0
 20
17.0
  9
$VIEWCTR
 10
11.0
 20
8.5
  9
$VIEWSIZE
 40
17.0
  9
$CLAYER
  8
0
  9
$LTSCALE
 40
1.21
  9
$CELTYPE
  6
BYLAYER
  9
$DIMSCALE
 40
1.0
  9
$DIMASZ
 40
0.1875
  9
$DIMEXO
 40
0.0625
  9
$DIMDLI
 40
0.836
  9
$DIMEXE
 40
0.125
  9
$DIMCEN
 40
0.198
  9
$DIMLFAC
 40
1.0
  9
$DIMBLK
  1
_FILLED
  9
$DIMTXT
 40
0.1
  9
$DIMTOL
 70
0
  9
$DIMLIM
 70
0
  9
$DIMTFAC
 40
1.0
  9
$DIMGAP
 40
0.09
  9
$DIMDSEP
 70
46
  9
$AUNITS
 70
0
  9
$PDMODE
 70
3
  9
$PDSIZE
 40
0.3125
  9
$HANDSEED
  5
332
  9
$TILEMODE
 70
1
  9
$MEASUREMENT
 70
0
  9
$INSUNITS
 70
1
  0
ENDSEC
  0
SECTION
  2
CLASSES
  0
CLASS
  1
ACDBDICTIONARYWDFLT
  2
AcDbDictionaryWithDefault
  3
AutoCAD 2000
 90
0
 91
1
280
0
281
0
  0
CLASS
  1
ACDBPLACEHOLDER
  2
AcDbPlaceHolder
  3
AutoCAD 2000
 90
0
 91
1
280
0
281
0
  0
CLASS
  1
LAYOUT
  2
AcDbLayout
  3
AutoCAD 2000
 90
0
 91
0
280
0
281
0
  0
CLASS
  1
RASTERVARIABLES
  2
AcDbRasterVariables
  3
ISM
 90
0
 91
1
280
0
281
0
  0
CLASS
  1
IMAGEDEF
  2
AcDbRasterImageDef
  3
ISM
 90
0
 91
1
280
0
281
0
  0
CLASS
  1
IMAGEDEF_REACTOR
  2
AcDbRasterImageDefReactor
  3
ISM
 90
0
 91
1
280
0
281
0
  0
CLASS
  1
IMAGE
  2
AcDbRasterImage
  3
ISM
 90
127
 91
1
280
0
281
1
  0
CLASS
  1
TABLESTYLE
  2
AcDbTableStyle
  3
ObjectDBX Classes
 90
2047
 91
1
280
0
281
0
  0
CLASS
  1
ACAD_TABLE
  2
AcDbTable
  3
ObjectDBX Classes
 90
1025
 91
3
280
0
281
1
  0
ENDSEC
  0
SECTION
  2
TABLES
  0
TABLE
  2
VPORT
  5
8
100
AcDbSymbolTable
 70
2
  0
VPORT
  5
1F4
100
AcDbSymbolTableRecord
100
AcDbViewportTableRecord
  2
*ACTIVE
 70
0
 10
0.0
 20
0.0
 11
1.0
 21
1.0
 12
11.0
 22
8.5
 13
0.0
 23
0.0
 14
1.0
 24
1.0
 15
0.0
 25
0.0
 16
0.0
 26
0.0
 36
1.0
 17
0.0
 27
0.0
 37
0.0
 40
17.0
 41
1.2941176471
 42
50.0
 43
0.0
 44
0.0
 50
0.0
 51
0.0
 71
0
 72
100
 73
1
 74
1
 75
0
 76
0
 77
0
 78
0
  0
ENDTAB
  0
TABLE
  2
LTYPE
  5
5
100
AcDbSymbolTable
 70
6
  0
LTYPE
  5
14
100
AcDbSymbolTableRecord
100
AcDbLinetypeTableRecord
  2
BYBLOCK
 70
0
  3

 72
65
 73
0
 40
0.0
  0
LTYPE
  5
15
100
AcDbSymbolTableRecord
100
AcDbLinetypeTableRecord
  2
BYLAYER
 70
0
  3

 72
65
 73
0
 40
0.0
  0
LTYPE
  5
16
100
AcDbSymbolTableRecord
100
AcDbLinetypeTableRecord
  2
CONTINUOUS
 70
64
  3
Solid line
 72
65
 73
0
 40
0.0
  0
LTYPE
  5
1F5
100
AcDbSymbolTableRecord
100
AcDbLinetypeTableRecord
  2
CENTER
 70
64
  3
____ _ ____ _ ____ _ ____ _ ____ _ ____ _ ____
 72
65
 73
4
 40
0.6
 49
0.375
 74
0
 49
-0.075
 74
0
 49
0.075
 74
0
 49
-0.075
 74
0
  0
LTYPE
  5
1F6
100
AcDbSymbolTableRecord
100
AcDbLinetypeTableRecord
  2
HIDDEN
 70
64
  3
- - - - - - - - - - - - - - - - - - - -
 72
65
 73
2
 40
0.2
 49
0.1
 74
0
 49
-0.1
 74
0
  0
LTYPE
  5
1F7
100
AcDbSymbolTableRecord
100
AcDbLinetypeTableRecord
  2
PHANTOM
 70
64
  3
_____ _ _ _____ _ _ _____ _ _ _____
 72
65
 73
6
 40
0.8
 49
0.45
 74
0
 49
-0.05
 74
0
 49
0.1
 74
0
 49
-0.05
 74
0
 49
0.1
 74
0
 49
-0.05
 74
0
  0
LTYPE
  5
1F8
100
AcDbSymbolTableRecord
100
AcDbLinetypeTableRecord
  2
DOT
 70
64
  3
. . . . . . . . . . . . . . . . . . . .
 72
65
 73
2
 40
0.2
 49
0.1
 74
0
 49
-0.1
 74
0
  0
LTYPE
  5
1F9
100
AcDbSymbolTableRecord
100
AcDbLinetypeTableRecord
  2
DASHED
 70
64
  3
- - - - - - - - - - - - - - - - - - - -
 72
65
 73
2
 40
0.2
 49
0.1
 74
0
 49
-0.1
 74
0
  0
ENDTAB
  0
TABLE
  2
LAYER
  5
2
100
AcDbSymbolTable
 70
36
  0
LAYER
  5
10
100
AcDbSymbolTableRecord
100
AcDbLayerTableRecord
  2
0
 70
0
 62
7
  6
CONTINUOUS
370
-3
390
F
  0
LAYER
  5
1FA
100
AcDbSymbolTableRecord
100
AcDbLayerTableRecord
  2
DEFAULT_1
 70
0
 62
7
  6
CENTER
370
-3
390
F
  0
LAYER
  5
1FB
100
AcDbSymbolTableRecord
100
AcDbLayerTableRecord
  2
DEFAULT_2
 70
0
 62
8
  6
HIDDEN
370
-3
390
F
  0
LAYER
  5
1FC
100
AcDbSymbolTableRecord
100
AcDbLayerTableRecord
  2
DEFAULT_3
 70
0
 62
7
  6
PHANTOM
370
-3
390
F
  0
LAYER
  5
1FD
100
AcDbSymbolTableRecord
100
AcDbLayerTableRecord
  2
DATUM_PLANES
 70
0
 62
7
  6
CONTINUOUS
370
-3
390
F
  0
LAYER
  5
1FE
100
AcDbSymbolTableRecord
100
AcDbLayerTableRecord
  2
PORT_AREAS
 70
0
 62
7
  6
CONTINUOUS
370
-3
390
F
  0
LAYER
  5
1FF
100
AcDbSymbolTableRecord
100
AcDbLayerTableRecord
  2
SUNNBOMCOSMETIC
 70
0
 62
7
  6
CONTINUOUS
370
-3
390
F
  0
LAYER
  5
200
100
AcDbSymbolTableRecord
100
AcDbLayerTableRecord
  2
SUNNBOMSTAMPING
 70
0
 62
7
  6
CONTINUOUS
370
-3
390
F
  0
LAYER
  5
201
100
AcDbSymbolTableRecord
100
AcDbLayerTableRecord
  2
THREADS
 70
0
 62
7
  6
CONTINUOUS
370
-3
390
F
  0
ENDTAB
  0
TABLE
  2
STYLE
  5
3
100
AcDbSymbolTable
 70
1
  0
STYLE
  5
11
100
AcDbSymbolTableRecord
100
AcDbTextStyleTableRecord
  2
STANDARD
 70
0
 40
0.0
 41
0.8
 50
0.0
 71
0
 42
0.2
  3
txt
  4

  0
STYLE
  5
202
100
AcDbSymbolTableRecord
100
AcDbTextStyleTableRecord
  2
TEXTSTYLE_1
 70
0
 40
0.0
 41
0.8
 50
0.0
 71
0
 42
0.2
  3
gdt
  4

  0
ENDTAB
  0
TABLE
  2
VIEW
  5
6
100
AcDbSymbolTable
 70
0
  0
ENDTAB
  0
TABLE
  2
UCS
  5
7
100
AcDbSymbolTable
 70
0
  0
ENDTAB
  0
TABLE
  2
APPID
  5
9
100
AcDbSymbolTable
 70
1
  0
APPID
  5
203
100
AcDbSymbolTableRecord
100
AcDbRegAppTableRecord
  2
ACAD
 70
0
  0
ENDTAB
  0
TABLE
  2
BLOCK_RECORD
  5
1
100
AcDbSymbolTable
 70
0
  0
BLOCK_RECORD
  5
204
100
AcDbSymbolTableRecord
100
AcDbBlockTableRecord
  2
*Model_Space
  0
BLOCK_RECORD
  5
205
100
AcDbSymbolTableRecord
100
AcDbBlockTableRecord
  2
*Paper_Space
  0
BLOCK_RECORD
  5
206
100
AcDbSymbolTableRecord
100
AcDbBlockTableRecord
  2
SUN_FIRST_THIRD_ANGLE_BL0
  0
BLOCK_RECORD
  5
207
100
AcDbSymbolTableRecord
100
AcDbBlockTableRecord
  2
*T1
  0
BLOCK_RECORD
  5
208
100
AcDbSymbolTableRecord
100
AcDbBlockTableRecord
  2
*T2
  0
BLOCK_RECORD
  5
209
100
AcDbSymbolTableRecord
100
AcDbBlockTableRecord
  2
*T3
  0
ENDTAB
  0
TABLE
  2
DIMSTYLE
  5
A
100
AcDbSymbolTable
 70
1
100
AcDbDimStyleTable
 71
0
  0
DIMSTYLE
105
20A
100
AcDbSymbolTableRecord
100
AcDbDimStyleTableRecord
  2
STANDARD
 70
0
  3

  4

 40
1.0
 41
0.1875
 42
0.0625
 43
0.38
 44
0.125
 45
0.0
 46
0.0
 47
0.001
 48
0.001
140
0.1
141
0.09
142
0.0
143
25.4
144
1.0
145
0.0
146
1.0
147
0.09
 71
0.0
 72
0.0
 73
1
 74
1
 75
0
 76
0
 77
0
 78
4
170
0
171
2
172
0
173
0
174
0
175
0
176
0
177
0
178
0
270
2
271
3
272
3
273
2
274
2
275
0
280
0
281
0
282
0
283
1
284
4
285
0
286
0
287
3
288
0
340
11
278
46
  0
ENDTAB
  0
ENDSEC
  0
SECTION
  2
BLOCKS
  0
BLOCK
  5
20
100
AcDbEntity
  8
0
100
AcDbBlockBegin
  2
*Model_Space
 70
0
 10
0.0
 20
0.0
 30
0.0
  3
*Model_Space
  1

  0
ENDBLK
  5
21
100
AcDbEntity
  8
0
100
AcDbBlockEnd
  0
BLOCK
  5
1C
100
AcDbEntity
  8
0
100
AcDbBlockBegin
  2
*Paper_Space
 70
0
 10
0.0
 20
0.0
 30
0.0
  3
*Paper_Space
  1

  0
ENDBLK
  5
1D
100
AcDbEntity
  8
0
100
AcDbBlockEnd
  0
BLOCK
  5
20B
100
AcDbEntity
  8
0
100
AcDbBlockBegin
 62
2
  6
CONTINUOUS
  2
SUN_FIRST_THIRD_ANGLE_BL0
 70
64
 10
20.4816717061
 20
1.2289683772
  3
SUN_FIRST_THIRD_ANGLE_BL0
  1

  0
TEXT
  5
20C
100
AcDbEntity
  8
0
100
AcDbText
 62
2
  6
CONTINUOUS
 10
19.4750896608
 20
1.4136269581
  7
STANDARD
 40
0.08
  1
FIRST ANGLE
 41
0.8
 72
0
100
AcDbText
  0
TEXT
  5
20D
100
AcDbEntity
  8
0
100
AcDbText
 62
2
  6
CONTINUOUS
 10
20.7842537513
 20
1.4047600029
  7
STANDARD
 40
0.08
  1
THIRD ANGLE
 41
0.8
 72
0
100
AcDbText
  0
LINE
  5
20E
100
AcDbEntity
  8
0
100
AcDbLine
 62
7
  6
CONTINUOUS
 10
19.4767170086
 20
1.1727031207
 11
19.6334271527
 21
1.1717972817
  0
LINE
  5
20F
100
AcDbEntity
  8
0
100
AcDbLine
 62
7
  6
CONTINUOUS
 10
19.6596964832
 20
1.1717972817
 11
19.6950230232
 21
1.171593082
  0
LINE
  5
210
100
AcDbEntity
  8
0
100
AcDbLine
 62
7
  6
CONTINUOUS
 10
19.7194818561
 20
1.1708914427
 11
19.8852396156
 21
1.1699333054
  0
LINE
  5
211
100
AcDbEntity
  8
0
100
AcDbLine
 62
7
  6
CONTINUOUS
 10
19.4758111696
 20
1.2723454088
 11
19.88525039
 21
1.3511534004
  0
LINE
  5
212
100
AcDbEntity
  8
0
100
AcDbLine
 62
7
  6
CONTINUOUS
 10
19.88525039
 20
1.3511534004
 11
19.8831348489
 21
0.9851647912
  0
LINE
  5
213
100
AcDbEntity
  8
0
100
AcDbLine
 62
7
  6
CONTINUOUS
 10
19.8831348489
 20
0.9851647912
 11
19.4767170086
 21
1.0658141206
  0
LINE
  5
214
100
AcDbEntity
  8
0
100
AcDbLine
 62
7
  6
CONTINUOUS
 10
19.4767170086
 20
1.0658141206
 11
19.4779056764
 21
1.2714536432
  0
CIRCLE
  5
215
100
AcDbEntity
  8
0
100
AcDbCircle
 62
7
  6
CONTINUOUS
 10
20.2068232291
 20
1.1717972817
 40
0.175742101
  0
CIRCLE
  5
216
100
AcDbEntity
  8
0
100
AcDbCircle
 62
7
  6
CONTINUOUS
 10
20.2068232291
 20
1.1717972817
 40
0.1005522074
  0
LINE
  5
217
100
AcDbEntity
  8
0
100
AcDbLine
 62
7
  6
CONTINUOUS
 10
20.2077290681
 20
1.3756110529
 11
20.2071171714
 21
1.2379342989
  0
LINE
  5
218
100
AcDbEntity
  8
0
100
AcDbLine
 62
7
  6
CONTINUOUS
 10
20.2077290681
 20
1.2016899681
 11
20.2074674401
 21
1.1428236749
  0
LINE
  5
219
100
AcDbEntity
  8
0
100
AcDbLine
 62
7
  6
CONTINUOUS
 10
20.208634907
 20
1.101141841
 11
20.2080230104
 21
0.963465087
  0
LINE
  5
21A
100
AcDbEntity
  8
0
100
AcDbLine
 62
7
  6
CONTINUOUS
 10
20.0066328138
 20
1.1745147986
 11
20.1443095678
 21
1.1739029019
  0
LINE
  5
21B
100
AcDbEntity
  8
0
100
AcDbLine
 62
7
  6
CONTINUOUS
 10
20.1832714155
 20
1.1727031207
 11
20.238153505
 21
1.172335442
  0
LINE
  5
21C
100
AcDbEntity
  8
0
100
AcDbLine
 62
7
  6
CONTINUOUS
 10
20.2756669918
 20
1.1717972817
 11
20.407916871
 21
1.1712095044
  0
CIRCLE
  5
21D
100
AcDbEntity
  8
0
100
AcDbCircle
 62
7
  6
CONTINUOUS
 10
20.7509457401
 20
1.1693297793
 40
0.1722024983
  0
CIRCLE
  5
21E
100
AcDbEntity
  8
0
100
AcDbCircle
 62
7
  6
CONTINUOUS
 10
20.7509457401
 20
1.1693297793
 40
0.0985164967
  0
LINE
  5
21F
100
AcDbEntity
  8
0
100
AcDbLine
 62
7
  6
CONTINUOUS
 10
20.7169767782
 20
1.170462078
 11
20.7825395137
 21
1.1682766535
  0
LINE
  5
220
100
AcDbEntity
  8
0
100
AcDbLine
 62
7
  6
CONTINUOUS
 10
20.8177513651
 20
1.1693297793
 11
20.947965719
 21
1.1693297793
  0
LINE
  5
221
100
AcDbEntity
  8
0
100
AcDbLine
 62
7
  6
CONTINUOUS
 10
20.6875370113
 20
1.170462078
 11
20.5573226574
 21
1.170462078
  0
LINE
  5
222
100
AcDbEntity
  8
0
100
AcDbLine
 62
7
  6
CONTINUOUS
 10
20.7486811426
 20
1.1987695462
 11
20.7486811426
 21
1.1432869085
  0
LINE
  5
223
100
AcDbEntity
  8
0
100
AcDbLine
 62
7
  6
CONTINUOUS
 10
20.7498134414
 20
1.1059210505
 11
20.7498134414
 21
0.9757066966
  0
LINE
  5
224
100
AcDbEntity
  8
0
100
AcDbLine
 62
7
  6
CONTINUOUS
 10
20.7486811426
 20
1.2338708068
 11
20.7486811426
 21
1.3640851607
  0
LINE
  5
225
100
AcDbEntity
  8
0
100
AcDbLine
 62
7
  6
CONTINUOUS
 10
21.0702539817
 20
1.2701043662
 11
21.4790138229
 21
1.3448360823
  0
LINE
  5
226
100
AcDbEntity
  8
0
100
AcDbLine
 62
7
  6
CONTINUOUS
 10
21.4790138229
 20
1.3448360823
 11
21.4790138229
 21
0.9779712941
  0
LINE
  5
227
100
AcDbEntity
  8
0
100
AcDbLine
 62
7
  6
CONTINUOUS
 10
21.4790138229
 20
0.9779712941
 11
21.069121683
 21
1.0617614
  0
LINE
  5
228
100
AcDbEntity
  8
0
100
AcDbLine
 62
7
  6
CONTINUOUS
 10
21.0702539817
 20
1.2701043662
 11
21.069121683
 21
1.0617614
  0
LINE
  5
229
100
AcDbEntity
  8
0
100
AcDbLine
 62
7
  6
CONTINUOUS
 10
21.4790138229
 20
1.1693297793
 11
21.3159628059
 21
1.1693297793
  0
LINE
  5
22A
100
AcDbEntity
  8
0
100
AcDbLine
 62
7
  6
CONTINUOUS
 10
21.2876553377
 20
1.1693297793
 11
21.2502894796
 21
1.1693297793
  0
LINE
  5
22B
100
AcDbEntity
  8
0
100
AcDbLine
 62
7
  6
CONTINUOUS
 10
21.2208497126
 20
1.1659328831
 11
21.0713862804
 21
1.1659328831
  0
LINE
  5
22C
100
AcDbEntity
  8
0
100
AcDbLine
 62
7
  6
CONTINUOUS
 10
20.4796138713
 20
1.5284908897
 11
20.4766766948
 21
0.9294458646
  0
ENDBLK
  5
22D
100
AcDbEntity
  8
0
  6
BYBLOCK
 62
0
100
AcDbBlockEnd
  0
BLOCK
  5
22E
100
AcDbEntity
  8
0
100
AcDbBlockBegin
  2
*T1
 70
1
 10
0.0
 20
0.0
  3
*T1
  1

  0
LINE
  5
22F
100
AcDbEntity
  8
0
100
AcDbLine
 62
2
  6
CONTINUOUS
 10
9.275
 20
0.0
 11
-0.0
 21
0.0
  0
LINE
  5
230
100
AcDbEntity
  8
0
100
AcDbLine
 62
2
  6
CONTINUOUS
 10
9.275
 20
0.0
 11
9.275
 21
1.25
  0
LINE
  5
231
100
AcDbEntity
  8
0
100
AcDbLine
 62
2
  6
CONTINUOUS
 10
9.275
 20
0.625
 11
-0.0
 21
0.625
  0
LINE
  5
232
100
AcDbEntity
  8
0
100
AcDbLine
 62
2
  6
CONTINUOUS
 10
9.275
 20
1.25
 11
-0.0
 21
1.25
  0
LINE
  5
233
100
AcDbEntity
  8
0
100
AcDbLine
 62
2
  6
CONTINUOUS
 10
6.8
 20
0.0
 11
6.8
 21
1.25
  0
LINE
  5
234
100
AcDbEntity
  8
0
100
AcDbLine
 62
2
  6
CONTINUOUS
 10
6.4
 20
0.0
 11
6.4
 21
0.625
  0
LINE
  5
235
100
AcDbEntity
  8
0
100
AcDbLine
 62
2
  6
CONTINUOUS
 10
5.9
 20
0.0
 11
5.9
 21
0.625
  0
LINE
  5
236
100
AcDbEntity
  8
0
100
AcDbLine
 62
2
  6
CONTINUOUS
 10
5.2
 20
0.0
 11
5.2
 21
0.625
  0
LINE
  5
237
100
AcDbEntity
  8
0
100
AcDbLine
 62
2
  6
CONTINUOUS
 10
4.1
 20
0.0
 11
4.1
 21
1.25
  0
LINE
  5
238
100
AcDbEntity
  8
0
100
AcDbLine
 62
2
  6
CONTINUOUS
 10
-0.0
 20
0.0
 11
-0.0
 21
1.25
  0
MTEXT
  5
239
100
AcDbEntity
  8
0
100
AcDbMText
 62
2
  6
CONTINUOUS
  7
STANDARD
 71
2
 72
1
 10
6.6
 20
0.325
 30
0.0
 11
1.0
 21
0.0
 31
0.0
 44
0.9
  1
2
 40
0.125
 41
0.2
  0
MTEXT
  5
23A
100
AcDbEntity
  8
0
100
AcDbMText
 62
2
  6
CONTINUOUS
  7
STANDARD
 71
2
 72
1
 10
6.15
 20
0.325
 30
0.0
 11
1.0
 21
0.0
 31
0.0
 44
0.9
  1
C
 40
0.125
 41
0.2
  0
MTEXT
  5
23B
100
AcDbEntity
  8
0
100
AcDbMText
 62
2
  6
CONTINUOUS
  7
STANDARD
 71
2
 72
1
 10
5.55
 20
0.325
 30
0.0
 11
1.0
 21
0.0
 31
0.0
 44
0.9
  1
2.000
 40
0.125
 41
1.0
  0
MTEXT
  5
23C
100
AcDbEntity
  8
0
100
AcDbMText
 62
2
  6
CONTINUOUS
  7
STANDARD
 71
2
 72
1
 10
4.65
 20
0.325
 30
0.0
 11
1.0
 21
0.0
 31
0.0
 44
0.9
  1
Jul-19-19
 40
0.125
 41
1.8
  0
MTEXT
  5
23D
100
AcDbEntity
  8
0
100
AcDbMText
 62
2
  6
CONTINUOUS
  7
STANDARD
 71
2
 72
1
 10
2.05
 20
0.4625
 30
0.0
 11
1.0
 21
0.0
 31
0.0
 44
0.9
  1
T-13A Line mount\PNinety degree
 40
0.125
 41
3.2
  0
MTEXT
  5
23E
100
AcDbEntity
  8
0
100
AcDbMText
 62
2
  6
CONTINUOUS
  7
STANDARD
 71
1
 72
1
 10
6.45
 20
0.5625
 30
0.0
 11
1.0
 21
0.0
 31
0.0
 44
0.9
  1
SHEET
 40
0.06
 41
0.48
  0
MTEXT
  5
23F
100
AcDbEntity
  8
0
100
AcDbMText
 62
2
  6
CONTINUOUS
  7
STANDARD
 71
1
 72
1
 10
5.95
 20
0.5625
 30
0.0
 11
1.0
 21
0.0
 31
0.0
 44
0.9
  1
DWG SIZE
 40
0.06
 41
0.768
  0
MTEXT
  5
240
100
AcDbEntity
  8
0
100
AcDbMText
 62
2
  6
CONTINUOUS
  7
STANDARD
 71
1
 72
1
 10
5.25
 20
0.5625
 30
0.0
 11
1.0
 21
0.0
 31
0.0
 44
0.9
  1
SCALE
 40
0.06
 41
0.48
  0
MTEXT
  5
241
100
AcDbEntity
  8
0
100
AcDbMText
 62
2
  6
CONTINUOUS
  7
STANDARD
 71
1
 72
1
 10
4.15
 20
0.5625
 30
0.0
 11
1.0
 21
0.0
 31
0.0
 44
0.9
  1
DATE
 40
0.06
 41
0.384
  0
MTEXT
  5
242
100
AcDbEntity
  8
0
100
AcDbMText
 62
2
  6
CONTINUOUS
  7
STANDARD
 71
1
 72
1
 10
0.05
 20
0.5625
 30
0.0
 11
1.0
 21
0.0
 31
0.0
 44
0.9
  1
DESCRIPTION
 40
0.06
 41
1.056
  0
MTEXT
  5
243
100
AcDbEntity
  8
0
100
AcDbMText
 62
2
  6
CONTINUOUS
  7
STANDARD
 71
2
 72
1
 10
5.45
 20
1.0375
 30
0.0
 11
1.0
 21
0.0
 31
0.0
 44
0.9
  1
ALL DIMENSIONS IN INCH\PVIEWS ARE THIRD ANGLE
 40
0.12
 41
4.224
  0
MTEXT
  5
244
100
AcDbEntity
  8
0
100
AcDbMText
 62
2
  6
CONTINUOUS
  7
STANDARD
 71
2
 72
1
 10
2.05
 20
0.95
 30
0.0
 11
1.0
 21
0.0
 31
0.0
 44
0.9
  1
GAD
 40
0.125
 41
0.6
  0
MTEXT
  5
245
100
AcDbEntity
  8
0
100
AcDbMText
 62
2
  6
CONTINUOUS
  7
STANDARD
 71
1
 72
1
 10
0.05
 20
1.1875
 30
0.0
 11
1.0
 21
0.0
 31
0.0
 44
0.9
  1
MODEL
 40
0.06
 41
0.48
  0
ENDBLK
  5
246
100
AcDbEntity
  8
0
  6
BYBLOCK
 62
0
100
AcDbBlockEnd
  0
BLOCK
  5
247
100
AcDbEntity
  8
0
100
AcDbBlockBegin
  2
*T2
 70
1
 10
0.0
 20
0.0
  3
*T2
  1

  0
LINE
  5
248
100
AcDbEntity
  8
0
100
AcDbLine
 62
2
  6
CONTINUOUS
 10
0.0
 20
0.0
 11
9.055
 21
0.0
  0
LINE
  5
249
100
AcDbEntity
  8
0
100
AcDbLine
 62
2
  6
CONTINUOUS
 10
0.0
 20
0.0
 11
0.0
 21
-2.594
  0
LINE
  5
24A
100
AcDbEntity
  8
0
100
AcDbLine
 62
2
  6
CONTINUOUS
 10
0.0
 20
-0.344
 11
9.055
 21
-0.344
  0
LINE
  5
24B
100
AcDbEntity
  8
0
100
AcDbLine
 62
2
  6
CONTINUOUS
 10
0.0
 20
-0.594
 11
9.055
 21
-0.594
  0
LINE
  5
24C
100
AcDbEntity
  8
0
100
AcDbLine
 62
2
  6
CONTINUOUS
 10
0.0
 20
-0.844
 11
9.055
 21
-0.844
  0
LINE
  5
24D
100
AcDbEntity
  8
0
100
AcDbLine
 62
2
  6
CONTINUOUS
 10
0.0
 20
-1.094
 11
9.055
 21
-1.094
  0
LINE
  5
24E
100
AcDbEntity
  8
0
100
AcDbLine
 62
2
  6
CONTINUOUS
 10
0.0
 20
-1.344
 11
9.055
 21
-1.344
  0
LINE
  5
24F
100
AcDbEntity
  8
0
100
AcDbLine
 62
2
  6
CONTINUOUS
 10
0.0
 20
-1.594
 11
9.055
 21
-1.594
  0
LINE
  5
250
100
AcDbEntity
  8
0
100
AcDbLine
 62
2
  6
CONTINUOUS
 10
0.0
 20
-1.844
 11
9.055
 21
-1.844
  0
LINE
  5
251
100
AcDbEntity
  8
0
100
AcDbLine
 62
2
  6
CONTINUOUS
 10
0.0
 20
-2.094
 11
9.055
 21
-2.094
  0
LINE
  5
252
100
AcDbEntity
  8
0
100
AcDbLine
 62
2
  6
CONTINUOUS
 10
0.0
 20
-2.344
 11
9.055
 21
-2.344
  0
LINE
  5
253
100
AcDbEntity
  8
0
100
AcDbLine
 62
2
  6
CONTINUOUS
 10
0.0
 20
-2.594
 11
9.055
 21
-2.594
  0
LINE
  5
254
100
AcDbEntity
  8
0
100
AcDbLine
 62
2
  6
CONTINUOUS
 10
3.055
 20
0.0
 11
3.055
 21
-2.594
  0
LINE
  5
255
100
AcDbEntity
  8
0
100
AcDbLine
 62
2
  6
CONTINUOUS
 10
9.055
 20
0.0
 11
9.055
 21
-2.594
  0
MTEXT
  5
256
100
AcDbEntity
  8
0
100
AcDbMText
 62
2
  6
CONTINUOUS
  7
STANDARD
 71
2
 72
1
 10
1.5275
 20
-0.0995
 30
0.0
 11
1.0
 21
0.0
 31
0.0
 44
0.9
  1
Technical Data
 40
0.145
 41
3.248
  0
MTEXT
  5
257
100
AcDbEntity
  8
0
100
AcDbMText
 62
2
  6
CONTINUOUS
  7
STANDARD
 71
2
 72
1
 10
4.555
 20
-0.0995
 30
0.0
 11
1.0
 21
0.0
 31
0.0
 44
0.9
  1
U.S. Units
 40
0.145
 41
2.32
  0
MTEXT
  5
258
100
AcDbEntity
  8
0
100
AcDbMText
 62
2
  6
CONTINUOUS
  7
STANDARD
 71
2
 72
1
 10
7.555
 20
-0.0995
 30
0.0
 11
1.0
 21
0.0
 31
0.0
 44
0.9
  1
Metric Units
 40
0.145
 41
2.784
  0
MTEXT
  5
259
100
AcDbEntity
  8
0
100
AcDbMText
 62
2
  6
CONTINUOUS
  7
STANDARD
 71
2
 72
1
 10
1.5275
 20
-0.4065
 30
0.0
 11
1.0
 21
0.0
 31
0.0
 44
0.9
  1
Cavity
 40
0.125
 41
1.2
  0
MTEXT
  5
25A
100
AcDbEntity
  8
0
100
AcDbMText
 62
2
  6
CONTINUOUS
  7
STANDARD
 71
2
 72
1
 10
6.055
 20
-0.4065
 30
0.0
 11
1.0
 21
0.0
 31
0.0
 44
0.9
  1
T-13A
 40
0.125
 41
1.0
  0
MTEXT
  5
25B
100
AcDbEntity
  8
0
100
AcDbMText
 62
2
  6
CONTINUOUS
  7
STANDARD
 71
2
 72
1
 10
1.5275
 20
-0.6565
 30
0.0
 11
1.0
 21
0.0
 31
0.0
 44
0.9
  1
Body Features
 40
0.125
 41
2.6
  0
MTEXT
  5
25C
100
AcDbEntity
  8
0
100
AcDbMText
 62
2
  6
CONTINUOUS
  7
STANDARD
 71
2
 72
1
 10
6.055
 20
-0.6565
 30
0.0
 11
1.0
 21
0.0
 31
0.0
 44
0.9
  1
Ninety degree
 40
0.125
 41
2.6
  0
MTEXT
  5
25D
100
AcDbEntity
  8
0
100
AcDbMText
 62
2
  6
CONTINUOUS
  7
STANDARD
 71
2
 72
1
 10
1.5275
 20
-0.9065
 30
0.0
 11
1.0
 21
0.0
 31
0.0
 44
0.9
  1
Body Type
 40
0.125
 41
1.8
  0
MTEXT
  5
25E
100
AcDbEntity
  8
0
100
AcDbMText
 62
2
  6
CONTINUOUS
  7
STANDARD
 71
2
 72
1
 10
6.055
 20
-0.9065
 30
0.0
 11
1.0
 21
0.0
 31
0.0
 44
0.9
  1
Line mount
 40
0.125
 41
2.0
  0
MTEXT
  5
25F
100
AcDbEntity
  8
0
100
AcDbMText
 62
2
  6
CONTINUOUS
  7
STANDARD
 71
2
 72
1
 10
1.5275
 20
-1.1565
 30
0.0
 11
1.0
 21
0.0
 31
0.0
 44
0.9
  1
Interface
 40
0.125
 41
1.8
  0
MTEXT
  5
260
100
AcDbEntity
  8
0
100
AcDbMText
 62
2
  6
CONTINUOUS
  7
STANDARD
 71
2
 72
1
 10
6.055
 20
-1.1565
 30
0.0
 11
1.0
 21
0.0
 31
0.0
 44
0.9
  1
None
 40
0.125
 41
0.8
  0
MTEXT
  5
261
100
AcDbEntity
  8
0
100
AcDbMText
 62
2
  6
CONTINUOUS
  7
STANDARD
 71
2
 72
1
 10
1.5275
 20
-1.4065
 30
0.0
 11
1.0
 21
0.0
 31
0.0
 44
0.9
  1
Open Cavity Quantity
 40
0.125
 41
4.0
  0
MTEXT
  5
262
100
AcDbEntity
  8
0
100
AcDbMText
 62
2
  6
CONTINUOUS
  7
STANDARD
 71
2
 72
1
 10
6.055
 20
-1.4065
 30
0.0
 11
1.0
 21
0.0
 31
0.0
 44
0.9
  1
1
 40
0.125
 41
0.2
  0
MTEXT
  5
263
100
AcDbEntity
  8
0
100
AcDbMText
 62
2
  6
CONTINUOUS
  7
STANDARD
 71
2
 72
1
 10
1.5275
 20
-1.6565
 30
0.0
 11
1.0
 21
0.0
 31
0.0
 44
0.9
  1
Weight
 40
0.125
 41
1.2
  0
MTEXT
  5
264
100
AcDbEntity
  8
0
100
AcDbMText
 62
2
  6
CONTINUOUS
  7
STANDARD
 71
2
 72
1
 10
4.555
 20
-1.6565
 30
0.0
 11
1.0
 21
0.0
 31
0.0
 44
0.9
  1
0.774 lb.
 40
0.125
 41
1.8
  0
MTEXT
  5
265
100
AcDbEntity
  8
0
100
AcDbMText
 62
2
  6
CONTINUOUS
  7
STANDARD
 71
2
 72
1
 10
7.555
 20
-1.6565
 30
0.0
 11
1.0
 21
0.0
 31
0.0
 44
0.9
  1
0,351 kg.
 40
0.125
 41
1.8
  0
MTEXT
  5
266
100
AcDbEntity
  8
0
100
AcDbMText
 62
2
  6
CONTINUOUS
  7
STANDARD
 71
2
 72
1
 10
1.5275
 20
-1.9065
 30
0.0
 11
1.0
 21
0.0
 31
0.0
 44
0.9
  1
Mounting Hole Diameter
 40
0.125
 41
4.4
  0
MTEXT
  5
267
100
AcDbEntity
  8
0
100
AcDbMText
 62
2
  6
CONTINUOUS
  7
STANDARD
 71
2
 72
1
 10
4.555
 20
-1.9065
 30
0.0
 11
1.0
 21
0.0
 31
0.0
 44
0.9
  1
.34 in.
 40
0.125
 41
1.4
  0
MTEXT
  5
268
100
AcDbEntity
  8
0
100
AcDbMText
 62
2
  6
CONTINUOUS
  7
STANDARD
 71
2
 72
1
 10
7.555
 20
-1.9065
 30
0.0
 11
1.0
 21
0.0
 31
0.0
 44
0.9
  1
8.6 mm
 40
0.125
 41
1.2
  0
MTEXT
  5
269
100
AcDbEntity
  8
0
100
AcDbMText
 62
2
  6
CONTINUOUS
  7
STANDARD
 71
2
 72
1
 10
1.5275
 20
-2.1565
 30
0.0
 11
1.0
 21
0.0
 31
0.0
 44
0.9
  1
Mounting Hole Depth
 40
0.125
 41
3.8
  0
MTEXT
  5
26A
100
AcDbEntity
  8
0
100
AcDbMText
 62
2
  6
CONTINUOUS
  7
STANDARD
 71
2
 72
1
 10
6.055
 20
-2.1565
 30
0.0
 11
1.0
 21
0.0
 31
0.0
 44
0.9
  1
Through
 40
0.125
 41
1.4
  0
MTEXT
  5
26B
100
AcDbEntity
  8
0
100
AcDbMText
 62
2
  6
CONTINUOUS
  7
STANDARD
 71
2
 72
1
 10
1.5275
 20
-2.4065
 30
0.0
 11
1.0
 21
0.0
 31
0.0
 44
0.9
  1
Mounting Hole Quantity
 40
0.125
 41
4.4
  0
MTEXT
  5
26C
100
AcDbEntity
  8
0
100
AcDbMText
 62
2
  6
CONTINUOUS
  7
STANDARD
 71
2
 72
1
 10
6.055
 20
-2.4065
 30
0.0
 11
1.0
 21
0.0
 31
0.0
 44
0.9
  1
1
 40
0.125
 41
0.2
  0
ENDBLK
  5
26D
100
AcDbEntity
  8
0
  6
BYBLOCK
 62
0
100
AcDbBlockEnd
  0
BLOCK
  5
26E
100
AcDbEntity
  8
0
100
AcDbBlockBegin
  2
*T3
 70
1
 10
0.0
 20
0.0
  3
*T3
  1

  0
LINE
  5
26F
100
AcDbEntity
  8
0
100
AcDbLine
 62
2
  6
CONTINUOUS
 10
0.0
 20
0.0
 11
4.6
 21
0.0
  0
LINE
  5
270
100
AcDbEntity
  8
0
100
AcDbLine
 62
2
  6
CONTINUOUS
 10
0.0
 20
0.0
 11
0.0
 21
-0.93775
  0
LINE
  5
271
100
AcDbEntity
  8
0
100
AcDbLine
 62
2
  6
CONTINUOUS
 10
0.0
 20
-0.34375
 11
4.6
 21
-0.34375
  0
LINE
  5
272
100
AcDbEntity
  8
0
100
AcDbLine
 62
2
  6
CONTINUOUS
 10
0.0
 20
-0.68775
 11
4.6
 21
-0.68775
  0
LINE
  5
273
100
AcDbEntity
  8
0
100
AcDbLine
 62
2
  6
CONTINUOUS
 10
0.0
 20
-0.93775
 11
4.6
 21
-0.93775
  0
LINE
  5
274
100
AcDbEntity
  8
0
100
AcDbLine
 62
2
  6
CONTINUOUS
 10
1.3
 20
-0.34375
 11
1.3
 21
-0.93775
  0
LINE
  5
275
100
AcDbEntity
  8
0
100
AcDbLine
 62
2
  6
CONTINUOUS
 10
3.3
 20
-0.34375
 11
3.3
 21
-0.93775
  0
LINE
  5
276
100
AcDbEntity
  8
0
100
AcDbLine
 62
2
  6
CONTINUOUS
 10
4.6
 20
0.0
 11
4.6
 21
-0.93775
  0
MTEXT
  5
277
100
AcDbEntity
  8
0
100
AcDbMText
 62
2
  6
CONTINUOUS
  7
STANDARD
 71
2
 72
1
 10
2.3
 20
-0.099375
 30
0.0
 11
1.0
 21
0.0
 31
0.0
 44
0.9
  1
Port Headings
 40
0.145
 41
3.016
  0
MTEXT
  5
278
100
AcDbEntity
  8
0
100
AcDbMText
 62
2
  6
CONTINUOUS
  7
STANDARD
 71
2
 72
1
 10
0.65
 20
-0.44325
 30
0.0
 11
1.0
 21
0.0
 31
0.0
 44
0.9
  1
Product
 40
0.145
 41
1.624
  0
MTEXT
  5
279
100
AcDbEntity
  8
0
100
AcDbMText
 62
2
  6
CONTINUOUS
  7
STANDARD
 71
2
 72
1
 10
2.3
 20
-0.44325
 30
0.0
 11
1.0
 21
0.0
 31
0.0
 44
0.9
  1
Port
 40
0.145
 41
0.928
  0
MTEXT
  5
27A
100
AcDbEntity
  8
0
100
AcDbMText
 62
2
  6
CONTINUOUS
  7
STANDARD
 71
2
 72
1
 10
3.95
 20
-0.44325
 30
0.0
 11
1.0
 21
0.0
 31
0.0
 44
0.9
  1
Size
 40
0.145
 41
0.928
  0
MTEXT
  5
27B
100
AcDbEntity
  8
0
100
AcDbMText
 62
2
  6
CONTINUOUS
  7
STANDARD
 71
2
 72
1
 10
0.65
 20
-0.75025
 30
0.0
 11
1.0
 21
0.0
 31
0.0
 44
0.9
  1
GAD
 40
0.125
 41
0.6
  0
MTEXT
  5
27C
100
AcDbEntity
  8
0
100
AcDbMText
 62
2
  6
CONTINUOUS
  7
STANDARD
 71
2
 72
1
 10
2.3
 20
-0.75025
 30
0.0
 11
1.0
 21
0.0
 31
0.0
 44
0.9
  1
All Ports
 40
0.125
 41
1.8
  0
MTEXT
  5
27D
100
AcDbEntity
  8
0
100
AcDbMText
 62
2
  6
CONTINUOUS
  7
STANDARD
 71
2
 72
1
 10
3.95
 20
-0.75025
 30
0.0
 11
1.0
 21
0.0
 31
0.0
 44
0.9
  1
3/4" NPTF
 40
0.125
 41
1.8
  0
ENDBLK
  5
27E
100
AcDbEntity
  8
0
  6
BYBLOCK
 62
0
100
AcDbBlockEnd
  0
ENDSEC
  0
SECTION
  2
ENTITIES
  0
IMAGE
  5
27F
100
AcDbEntity
  8
0
100
AcDbRasterImage
 62
7
  6
CONTINUOUS
 10
19.2297077316
 20
0.3094318264
 30
0.0
 11
0.0066666667
 21
0.0
 31
0.0
 12
0.0
 22
0.0066666667
 32
0.0
 13
369.0
 23
92.0
340
       32F
 70
9
280
0
281
50
282
50
283
0
360
       329
 71
1
 91
2
 14
-0.5
 24
-0.5
 14
368.5
 24
91.5
  0
INSERT
  5
280
100
AcDbEntity
  8
0
100
AcDbBlockReference
 62
2
  6
CONTINUOUS
  2
SUN_FIRST_THIRD_ANGLE_BL0
 10
20.4816717061
 20
1.2289683772
  0
ACAD_TABLE
  5
281
100
AcDbEntity
  8
0
 62
2
  6
CONTINUOUS
100
AcDbBlockReference
  2
*T1
 10
12.42375
 20
0.30125
 30
0.0
100
AcDbTable
342
       331
343
207
 11
1.0
 21
0.0
 31
0.0
 90
6
 91
4
 92
6
 93
20
 94
0
 95
0
 96
0
 70
1
 41
0.0
141
0.525
141
0.1
141
0.525
141
0.1
142
4.1
142
1.1
142
0.7
142
0.5
142
0.4
142
2.475
171
1
172
0
173
0
174
0
175
1
176
1
 91
33
178
0
145
0.0
301
CELL_VALUE
 90
4
  1
T-13A Line mount\PNinety degree
304
ACVALUE_END
170
2
140
0.125
171
1
172
0
173
0
174
0
175
1
176
1
 91
33
178
0
145
0.0
301
CELL_VALUE
 90
4
  1
Jul-19-19
304
ACVALUE_END
170
5
140
0.125
171
1
172
0
173
0
174
0
175
1
176
1
 91
33
178
0
145
0.0
301
CELL_VALUE
 90
4
  1
2.000
304
ACVALUE_END
170
5
140
0.125
171
1
172
0
173
0
174
0
175
1
176
1
 91
33
178
0
145
0.0
301
CELL_VALUE
 90
4
  1
C
304
ACVALUE_END
170
5
140
0.125
171
1
172
0
173
0
174
0
175
1
176
1
 91
33
178
0
145
0.0
301
CELL_VALUE
 90
4
  1
2
304
ACVALUE_END
170
5
140
0.125
171
1
172
0
173
0
174
0
175
1
176
1
 91
33
178
0
145
0.0
301
CELL_VALUE
 90
4
  1
 
304
ACVALUE_END
170
1
140
0.125
171
1
172
0
173
0
174
0
175
1
176
1
 91
33
178
0
145
0.0
301
CELL_VALUE
 90
4
  1
DESCRIPTION
304
ACVALUE_END
170
1
140
0.06
171
1
172
0
173
0
174
0
175
1
176
1
 91
33
178
0
145
0.0
301
CELL_VALUE
 90
4
  1
DATE
304
ACVALUE_END
170
1
140
0.06
171
1
172
0
173
0
174
0
175
1
176
1
 91
33
178
0
145
0.0
301
CELL_VALUE
 90
4
  1
SCALE
304
ACVALUE_END
170
1
140
0.06
171
1
172
0
173
0
174
0
175
1
176
1
 91
33
178
0
145
0.0
301
CELL_VALUE
 90
4
  1
DWG SIZE
304
ACVALUE_END
170
1
140
0.06
171
1
172
0
173
0
174
0
175
1
176
1
 91
33
178
0
145
0.0
301
CELL_VALUE
 90
4
  1
SHEET
304
ACVALUE_END
170
1
140
0.06
171
1
172
0
173
0
174
0
175
1
176
1
 91
33
178
0
145
0.0
301
CELL_VALUE
 90
4
  1
 
304
ACVALUE_END
170
1
140
0.125
171
1
172
0
173
0
174
0
175
1
176
1
 91
33
178
0
145
0.0
301
CELL_VALUE
 90
4
  1
GAD
304
ACVALUE_END
170
5
140
0.125
171
1
172
0
173
0
174
0
175
4
176
1
 91
33
178
0
145
0.0
301
CELL_VALUE
 90
4
  1
ALL DIMENSIONS IN INCH\PVIEWS ARE THIRD ANGLE
304
ACVALUE_END
170
5
140
0.12
171
1
172
0
173
1
174
0
175
1
176
1
 91
1
178
0
145
0.0
170
1
171
1
172
0
173
1
174
0
175
1
176
1
 91
1
178
0
145
0.0
170
1
171
1
172
0
173
1
174
0
175
1
176
1
 91
1
178
0
145
0.0
170
5
171
1
172
0
173
0
174
0
175
1
176
1
 91
33
178
0
145
0.0
301
CELL_VALUE
 90
4
  1
 
304
ACVALUE_END
170
1
140
0.125
171
1
172
0
173
0
174
0
175
1
176
1
 91
33
178
0
145
0.0
301
CELL_VALUE
 90
4
  1
MODEL
304
ACVALUE_END
170
1
140
0.06
171
1
172
0
173
0
174
0
175
1
176
1
 91
33
178
0
145
0.0
301
CELL_VALUE
 90
4
  1
 
304
ACVALUE_END
170
1
140
0.125
171
1
172
0
173
0
174
0
175
1
176
1
 91
33
178
0
145
0.0
301
CELL_VALUE
 90
4
  1
 
304
ACVALUE_END
170
1
140
0.125
171
1
172
0
173
0
174
0
175
1
176
1
 91
33
178
0
145
0.0
301
CELL_VALUE
 90
4
  1
 
304
ACVALUE_END
170
1
140
0.125
171
1
172
0
173
0
174
0
175
1
176
1
 91
33
178
0
145
0.0
301
CELL_VALUE
 90
4
  1
 
304
ACVALUE_END
170
1
140
0.125
171
1
172
0
173
0
174
0
175
1
176
1
 91
33
178
0
145
0.0
301
CELL_VALUE
 90
4
  1
 
304
ACVALUE_END
170
1
140
0.125
  0
ACAD_TABLE
  5
282
100
AcDbEntity
  8
0
 62
2
  6
CONTINUOUS
100
AcDbBlockReference
  2
*T2
 10
12.4237499994
 20
16.47875
 30
0.0
100
AcDbTable
342
       330
343
208
 11
1.0
 21
0.0
 31
0.0
 90
22
 91
10
 92
3
 93
16
 94
0
 95
0
 96
0
 41
0.028
141
0.344
141
0.25
141
0.25
141
0.25
141
0.25
141
0.25
141
0.25
141
0.25
141
0.25
141
0.25
142
3.055
142
3.0
142
3.0
171
1
172
0
173
0
174
0
175
1
176
1
 91
33
178
0
145
0.0
301
CELL_VALUE
 90
4
  1
Technical Data
304
ACVALUE_END
170
5
140
0.145
171
1
172
0
173
0
174
0
175
1
176
1
 91
33
178
0
145
0.0
301
CELL_VALUE
 90
4
  1
U.S. Units
304
ACVALUE_END
170
5
140
0.145
171
1
172
0
173
0
174
0
175
1
176
1
 91
33
178
0
145
0.0
301
CELL_VALUE
 90
4
  1
Metric Units
304
ACVALUE_END
170
5
140
0.145
171
1
172
0
173
0
174
0
175
1
176
1
 91
33
178
0
145
0.0
301
CELL_VALUE
 90
4
  1
Cavity
304
ACVALUE_END
170
5
140
0.125
171
1
172
0
173
0
174
0
175
2
176
1
 91
33
178
0
145
0.0
301
CELL_VALUE
 90
4
  1
T-13A
304
ACVALUE_END
170
5
140
0.125
171
1
172
0
173
1
174
0
175
1
176
1
 91
1
178
0
145
0.0
170
1
171
1
172
0
173
0
174
0
175
1
176
1
 91
33
178
0
145
0.0
301
CELL_VALUE
 90
4
  1
Body Features
304
ACVALUE_END
170
5
140
0.125
171
1
172
0
173
0
174
0
175
2
176
1
 91
33
178
0
145
0.0
301
CELL_VALUE
 90
4
  1
Ninety degree
304
ACVALUE_END
170
5
140
0.125
171
1
172
0
173
1
174
0
175
1
176
1
 91
1
178
0
145
0.0
170
1
171
1
172
0
173
0
174
0
175
1
176
1
 91
33
178
0
145
0.0
301
CELL_VALUE
 90
4
  1
Body Type
304
ACVALUE_END
170
5
140
0.125
171
1
172
0
173
0
174
0
175
2
176
1
 91
33
178
0
145
0.0
301
CELL_VALUE
 90
4
  1
Line mount
304
ACVALUE_END
170
5
140
0.125
171
1
172
0
173
1
174
0
175
1
176
1
 91
1
178
0
145
0.0
170
1
171
1
172
0
173
0
174
0
175
1
176
1
 91
33
178
0
145
0.0
301
CELL_VALUE
 90
4
  1
Interface
304
ACVALUE_END
170
5
140
0.125
171
1
172
0
173
0
174
0
175
2
176
1
 91
33
178
0
145
0.0
301
CELL_VALUE
 90
4
  1
None
304
ACVALUE_END
170
5
140
0.125
171
1
172
0
173
1
174
0
175
1
176
1
 91
1
178
0
145
0.0
170
1
171
1
172
0
173
0
174
0
175
1
176
1
 91
33
178
0
145
0.0
301
CELL_VALUE
 90
4
  1
Open Cavity Quantity
304
ACVALUE_END
170
5
140
0.125
171
1
172
0
173
0
174
0
175
2
176
1
 91
33
178
0
145
0.0
301
CELL_VALUE
 90
4
  1
1
304
ACVALUE_END
170
5
140
0.125
171
1
172
0
173
1
174
0
175
1
176
1
 91
1
178
0
145
0.0
170
1
171
1
172
0
173
0
174
0
175
1
176
1
 91
33
178
0
145
0.0
301
CELL_VALUE
 90
4
  1
Weight
304
ACVALUE_END
170
5
140
0.125
171
1
172
0
173
0
174
0
175
1
176
1
 91
33
178
0
145
0.0
301
CELL_VALUE
 90
4
  1
0.774 lb.
304
ACVALUE_END
170
5
140
0.125
171
1
172
0
173
0
174
0
175
1
176
1
 91
33
178
0
145
0.0
301
CELL_VALUE
 90
4
  1
0,351 kg.
304
ACVALUE_END
170
5
140
0.125
171
1
172
0
173
0
174
0
175
1
176
1
 91
33
178
0
145
0.0
301
CELL_VALUE
 90
4
  1
Mounting Hole Diameter
304
ACVALUE_END
170
5
140
0.125
171
1
172
0
173
0
174
0
175
1
176
1
 91
33
178
0
145
0.0
301
CELL_VALUE
 90
4
  1
.34 in.
304
ACVALUE_END
170
5
140
0.125
171
1
172
0
173
0
174
0
175
1
176
1
 91
33
178
0
145
0.0
301
CELL_VALUE
 90
4
  1
8.6 mm
304
ACVALUE_END
170
5
140
0.125
171
1
172
0
173
0
174
0
175
1
176
1
 91
33
178
0
145
0.0
301
CELL_VALUE
 90
4
  1
Mounting Hole Depth
304
ACVALUE_END
170
5
140
0.125
171
1
172
0
173
0
174
0
175
2
176
1
 91
33
178
0
145
0.0
301
CELL_VALUE
 90
4
  1
Through
304
ACVALUE_END
170
5
140
0.125
171
1
172
0
173
1
174
0
175
1
176
1
 91
1
178
0
145
0.0
170
1
171
1
172
0
173
0
174
0
175
1
176
1
 91
33
178
0
145
0.0
301
CELL_VALUE
 90
4
  1
Mounting Hole Quantity
304
ACVALUE_END
170
5
140
0.125
171
1
172
0
173
0
174
0
175
2
176
1
 91
33
178
0
145
0.0
301
CELL_VALUE
 90
4
  1
1
304
ACVALUE_END
170
5
140
0.125
171
1
172
0
173
1
174
0
175
1
176
1
 91
1
178
0
145
0.0
170
1
  0
ACAD_TABLE
  5
283
100
AcDbEntity
  8
0
 62
2
  6
CONTINUOUS
100
AcDbBlockReference
  2
*T3
 10
0.52125
 20
1.459
 30
0.0
100
AcDbTable
342
       330
343
209
 11
1.0
 21
0.0
 31
0.0
 90
22
 91
3
 92
3
 93
16
 94
0
 95
0
 96
0
 41
0.05
141
0.34375
141
0.344
141
0.25
142
1.3
142
2.0
142
1.3
171
1
172
0
173
0
174
0
175
3
176
1
 91
33
178
0
145
0.0
301
CELL_VALUE
 90
4
  1
Port Headings
304
ACVALUE_END
170
5
140
0.145
171
1
172
0
173
1
174
0
175
1
176
1
 91
1
178
0
145
0.0
170
1
171
1
172
0
173
1
174
0
175
1
176
1
 91
1
178
0
145
0.0
170
1
171
1
172
0
173
0
174
0
175
1
176
1
 91
33
178
0
145
0.0
301
CELL_VALUE
 90
4
  1
Product
304
ACVALUE_END
170
5
140
0.145
171
1
172
0
173
0
174
0
175
1
176
1
 91
33
178
0
145
0.0
301
CELL_VALUE
 90
4
  1
Port
304
ACVALUE_END
170
5
140
0.145
171
1
172
0
173
0
174
0
175
1
176
1
 91
33
178
0
145
0.0
301
CELL_VALUE
 90
4
  1
Size
304
ACVALUE_END
170
5
140
0.145
171
1
172
0
173
0
174
0
175
1
176
1
 91
33
178
0
145
0.0
301
CELL_VALUE
 90
4
  1
GAD
304
ACVALUE_END
170
5
140
0.125
171
1
172
0
173
0
174
0
175
1
176
1
 91
33
178
0
145
0.0
301
CELL_VALUE
 90
4
  1
All Ports
304
ACVALUE_END
170
5
140
0.125
171
1
172
0
173
0
174
0
175
1
176
1
 91
33
178
0
145
0.0
301
CELL_VALUE
 90
4
  1
3/4" NPTF
304
ACVALUE_END
170
5
140
0.125
  0
MTEXT
  5
284
100
AcDbEntity
  8
0
100
AcDbMText
 62
2
  6
CONTINUOUS
  7
STANDARD
 71
1
 72
1
 10
0.52125
 20
5.75995
 30
0.0
 11
1.0
 21
0.0
 31
0.0
 44
0.6
  3
Notes\P \P1. Important: Carefully consider\P   the maximum system pressure. The\P   pressure rating of the manifold is\P   dependent on the manifold material,\P   with the port type/size a secondary\P   consideration. Manifolds\P   constructed of alu
  1
minum are not\P   rated for pressures higher than\P   3000 psi (210 bar), regardless of\P   the port type/size specified.
 40
0.1
 41
3.04
  0
LINE
  5
285
100
AcDbEntity
  8
0
100
AcDbLine
 62
7
  6
CONTINUOUS
 10
0.30125
 20
0.30125
 11
0.30125
 21
16.69875
  0
LINE
  5
286
100
AcDbEntity
  8
0
100
AcDbLine
 62
7
  6
CONTINUOUS
 10
0.30125
 20
0.30125
 11
21.69875
 21
0.30125
  0
LINE
  5
287
100
AcDbEntity
  8
0
100
AcDbLine
 62
7
  6
CONTINUOUS
 10
0.30125
 20
16.69875
 11
21.69875
 21
16.69875
  0
LINE
  5
288
100
AcDbEntity
  8
0
100
AcDbLine
 62
7
  6
CONTINUOUS
 10
21.69875
 20
0.30125
 11
21.69875
 21
16.69875
  0
LINE
  5
289
100
AcDbEntity
  8
0
100
AcDbLine
 62
7
  6
CONTINUOUS
 10
7.7139941022
 20
10.4992950878
 11
8.4904505967
 21
11.2492945133
  0
LINE
  5
28A
100
AcDbEntity
  8
0
100
AcDbLine
 62
7
  6
CONTINUOUS
 10
7.7139941022
 20
6.152628612
 11
7.7139941022
 21
10.4992950878
  0
LINE
  5
28B
100
AcDbEntity
  8
0
100
AcDbLine
 62
4
  6
CONTINUOUS
 10
8.9696977597
 20
6.2587304471
 11
8.9503792332
 21
6.2745590794
  0
LINE
  5
28C
100
AcDbEntity
  8
0
100
AcDbLine
 62
4
  6
CONTINUOUS
 10
9.0662903436
 20
6.2954983925
 11
9.1049273757
 21
6.2638411293
  0
LINE
  5
28D
100
AcDbEntity
  8
0
100
AcDbLine
 62
4
  6
CONTINUOUS
 10
9.0083347849
 20
6.3719620637
 11
9.0276533114
 21
6.3561334315
  0
LINE
  5
28E
100
AcDbEntity
  8
0
100
AcDbLine
 62
4
  6
CONTINUOUS
 10
8.9503792332
 20
6.2745590794
 11
8.9310607206
 21
6.3048765987
  0
LINE
  5
28F
100
AcDbEntity
  8
0
100
AcDbLine
 62
7
  6
CONTINUOUS
 10
13.5095494033
 20
5.7507054867
 11
7.7139941022
 21
6.152628612
  0
LINE
  5
290
100
AcDbEntity
  8
0
100
AcDbLine
 62
4
  6
CONTINUOUS
 10
9.1049273757
 20
6.2638411293
 11
9.1628829275
 21
6.2453330102
  0
LINE
  5
291
100
AcDbEntity
  8
0
100
AcDbLine
 62
4
  6
CONTINUOUS
 10
9.0276533114
 20
6.3561334315
 11
9.0662903436
 21
6.2954983925
  0
LINE
  5
292
100
AcDbEntity
  8
0
100
AcDbLine
 62
4
  6
CONTINUOUS
 10
8.9696977597
 20
6.3746415506
 11
9.0083347849
 21
6.3719620637
  0
LINE
  5
293
100
AcDbEntity
  8
0
100
AcDbLine
 62
4
  6
CONTINUOUS
 10
9.0800892802
 20
7.1466260971
 11
9.046971824
 21
7.1820402601
  0
LINE
  5
294
100
AcDbEntity
  8
0
100
AcDbLine
 62
4
  6
CONTINUOUS
 10
8.9310607206
 20
6.3048765987
 11
8.9310607206
 21
6.3338543745
  0
LINE
  5
295
100
AcDbEntity
  8
0
100
AcDbLine
 62
4
  6
CONTINUOUS
 10
9.2787940309
 20
7.2156395231
 11
9.2456765713
 21
7.2510536829
  0
LINE
  5
296
100
AcDbEntity
  8
0
100
AcDbLine
 62
4
  6
CONTINUOUS
 10
9.2787940309
 20
7.3977855527
 11
9.2456765713
 21
7.4331996986
  0
LINE
  5
297
100
AcDbEntity
  8
0
100
AcDbLine
 62
4
  6
CONTINUOUS
 10
9.046971824
 20
7.1820402601
 11
9.046971824
 21
7.2482751758
  0
LINE
  5
298
100
AcDbEntity
  8
0
100
AcDbLine
 62
4
  6
CONTINUOUS
 10
9.046971824
 20
8.9814221237
 11
9.046971824
 21
8.986941679
  0
LINE
  5
299
100
AcDbEntity
  8
0
100
AcDbLine
 62
4
  6
CONTINUOUS
 10
9.1132067363
 20
8.5794192984
 11
9.1132067363
 21
8.4966256373
  0
LINE
  5
29A
100
AcDbEntity
  8
0
100
AcDbLine
 62
4
  6
CONTINUOUS
 10
9.1132067363
 20
7.8729134566
 11
9.1132067363
 21
7.9557071177
  0
LINE
  5
29B
100
AcDbEntity
  8
0
100
AcDbLine
 62
4
  6
CONTINUOUS
 10
9.1132067363
 20
8.2151272116
 11
9.1132067363
 21
8.2813620963
  0
LINE
  5
29C
100
AcDbEntity
  8
0
100
AcDbLine
 62
4
  6
CONTINUOUS
 10
9.1132067363
 20
8.3475970915
 11
9.1132067363
 21
8.4138319762
  0
LINE
  5
29D
100
AcDbEntity
  8
0
100
AcDbLine
 62
4
  6
CONTINUOUS
 10
9.1132067363
 20
9.0817005992
 11
9.1132067363
 21
9.1479357049
  0
LINE
  5
29E
100
AcDbEntity
  8
0
100
AcDbLine
 62
4
  6
CONTINUOUS
 10
9.1132067363
 20
9.2307292555
 11
9.1132067363
 21
9.2969641402
  0
LINE
  5
29F
100
AcDbEntity
  8
0
100
AcDbLine
 62
4
  6
CONTINUOUS
 10
9.1628829275
 20
6.2453330102
 11
9.1628829275
 21
6.3612441137
  0
LINE
  5
2A0
100
AcDbEntity
  8
0
100
AcDbLine
 62
4
  6
CONTINUOUS
 10
9.1960003836
 20
8.5240013207
 11
9.1960003836
 21
8.5902362053
  0
LINE
  5
2A1
100
AcDbEntity
  8
0
100
AcDbLine
 62
4
  6
CONTINUOUS
 10
9.2787940309
 20
9.1364521871
 11
9.2787940309
 21
9.0702170813
  0
LINE
  5
2A2
100
AcDbEntity
  8
0
100
AcDbLine
 62
4
  6
CONTINUOUS
 10
9.2787940309
 20
8.865992872
 11
9.2787940309
 21
8.8328754297
  0
LINE
  5
2A3
100
AcDbEntity
  8
0
100
AcDbLine
 62
4
  6
CONTINUOUS
 10
9.2787940309
 20
8.5844944464
 11
9.2787940309
 21
8.5182595617
  0
LINE
  5
2A4
100
AcDbEntity
  8
0
100
AcDbLine
 62
4
  6
CONTINUOUS
 10
9.2787940309
 20
8.2698785784
 11
9.2787940309
 21
8.2036436938
  0
LINE
  5
2A5
100
AcDbEntity
  8
0
100
AcDbLine
 62
4
  6
CONTINUOUS
 10
9.2787940309
 20
7.1494046056
 11
9.2787940309
 21
7.2156395231
  0
LINE
  5
2A6
100
AcDbEntity
  8
0
100
AcDbLine
 62
4
  6
CONTINUOUS
 10
9.2787940309
 20
7.3481093477
 11
9.2787940309
 21
7.3977855527
  0
LINE
  5
2A7
100
AcDbEntity
  8
0
100
AcDbLine
 62
4
  6
CONTINUOUS
 10
9.2787940309
 20
8.6672881075
 11
9.2787940309
 21
8.7500817686
  0
LINE
  5
2A8
100
AcDbEntity
  8
0
100
AcDbLine
 62
4
  6
CONTINUOUS
 10
9.2787940309
 20
9.2192457376
 11
9.2787940309
 21
9.2854806223
  0
LINE
  5
2A9
100
AcDbEntity
  8
0
100
AcDbLine
 62
4
  6
CONTINUOUS
 10
9.2015199596
 20
9.2908395973
 11
9.1904808076
 21
9.2253702804
  0
LINE
  5
2AA
100
AcDbEntity
  8
0
100
AcDbLine
 62
4
  6
CONTINUOUS
 10
9.2125591117
 20
9.3066326954
 11
9.2015199596
 21
9.2908395973
  0
LINE
  5
2AB
100
AcDbEntity
  8
0
100
AcDbLine
 62
4
  6
CONTINUOUS
 10
9.1904808076
 20
9.2253702804
 11
9.1794416555
 21
9.2095771823
  0
LINE
  5
2AC
100
AcDbEntity
  8
0
100
AcDbLine
 62
4
  6
CONTINUOUS
 10
9.1132067363
 20
9.2969641402
 11
9.1297654713
 21
9.3123744539
  0
LINE
  5
2AD
100
AcDbEntity
  8
0
100
AcDbLine
 62
4
  6
CONTINUOUS
 10
9.2622353011
 20
9.2038354235
 11
9.2787940309
 21
9.2192457376
  0
LINE
  5
2AE
100
AcDbEntity
  8
0
100
AcDbLine
 62
4
  6
CONTINUOUS
 10
9.1297654713
 20
8.1808614171
 11
9.1132067363
 21
8.2151272116
  0
LINE
  5
2AF
100
AcDbEntity
  8
0
100
AcDbLine
 62
4
  6
CONTINUOUS
 10
9.3339897946
 20
8.0231894217
 11
9.3339897946
 21
8.0563068641
  0
LINE
  5
2B0
100
AcDbEntity
  8
0
100
AcDbLine
 62
4
  6
CONTINUOUS
 10
9.2787940309
 20
8.5182595617
 11
9.2622353011
 21
8.4862904712
  0
LINE
  5
2B1
100
AcDbEntity
  8
0
100
AcDbLine
 62
4
  6
CONTINUOUS
 10
9.2787940309
 20
8.2036436938
 11
9.2622353011
 21
8.1716746032
  0
LINE
  5
2B2
100
AcDbEntity
  8
0
100
AcDbLine
 62
4
  6
CONTINUOUS
 10
9.2787940309
 20
9.0702170813
 11
9.2622353011
 21
9.0548067672
  0
LINE
  5
2B3
100
AcDbEntity
  8
0
100
AcDbLine
 62
4
  6
CONTINUOUS
 10
9.2787940309
 20
8.8328754297
 11
9.2622353011
 21
8.8174650051
  0
LINE
  5
2B4
100
AcDbEntity
  8
0
100
AcDbLine
 62
4
  6
CONTINUOUS
 10
9.1132067363
 20
7.1443293937
 11
9.0800892802
 21
7.1466260971
  0
LINE
  5
2B5
100
AcDbEntity
  8
0
100
AcDbLine
 62
4
  6
CONTINUOUS
 10
9.2125591117
 20
8.4897355266
 11
9.1960003836
 21
8.5240013207
  0
LINE
  5
2B6
100
AcDbEntity
  8
0
100
AcDbLine
 62
4
  6
CONTINUOUS
 10
9.7192562239
 20
7.9716329248
 11
9.7192562239
 21
8.0544265686
  0
LINE
  5
2B7
100
AcDbEntity
  8
0
100
AcDbLine
 62
4
  6
CONTINUOUS
 10
9.7192562239
 20
8.3193662454
 11
9.7192562239
 21
8.4021598789
  0
LINE
  5
2B8
100
AcDbEntity
  8
0
100
AcDbLine
 62
4
  6
CONTINUOUS
 10
9.8186085924
 20
7.9978602742
 11
9.8186085924
 21
8.0475364584
  0
LINE
  5
2B9
100
AcDbEntity
  8
0
100
AcDbLine
 62
4
  6
CONTINUOUS
 10
9.8848435116
 20
8.1312562676
 11
9.8848435116
 21
8.219569484
  0
LINE
  5
2BA
100
AcDbEntity
  8
0
100
AcDbLine
 62
4
  6
CONTINUOUS
 10
9.2622353011
 20
8.6518776829
 11
9.2787940309
 21
8.6672881075
  0
LINE
  5
2BB
100
AcDbEntity
  8
0
100
AcDbLine
 62
4
  6
CONTINUOUS
 10
9.2456765713
 20
7.2510536829
 11
9.2125591117
 21
7.2533503865
  0
LINE
  5
2BC
100
AcDbEntity
  8
0
100
AcDbLine
 62
4
  6
CONTINUOUS
 10
9.046971824
 20
7.3310688162
 11
9.2456765713
 21
7.3172885952
  0
LINE
  5
2BD
100
AcDbEntity
  8
0
100
AcDbLine
 62
4
  6
CONTINUOUS
 10
10.4610872859
 20
7.3047540968
 11
10.229265079
 21
7.3208310215
  0
LINE
  5
2BE
100
AcDbEntity
  8
0
100
AcDbLine
 62
4
  6
CONTINUOUS
 10
9.2456765713
 20
7.4331996986
 11
9.046971824
 21
7.4469799197
  0
LINE
  5
2BF
100
AcDbEntity
  8
0
100
AcDbLine
 62
4
  6
CONTINUOUS
 10
9.2787940309
 20
7.4971379073
 11
9.046971824
 21
7.5132148319
  0
LINE
  5
2C0
100
AcDbEntity
  8
0
100
AcDbLine
 62
4
  6
CONTINUOUS
 10
10.2623825352
 20
7.4344454077
 11
10.4279698263
 21
7.4229618901
  0
LINE
  5
2C1
100
AcDbEntity
  8
0
100
AcDbLine
 62
4
  6
CONTINUOUS
 10
10.4610872859
 20
7.5144979858
 11
10.229265079
 21
7.5968098227
  0
LINE
  5
2C2
100
AcDbEntity
  8
0
100
AcDbLine
 62
4
  6
CONTINUOUS
 10
9.7523736801
 20
7.9362187618
 11
9.7192562239
 21
7.9716329248
  0
LINE
  5
2C3
100
AcDbEntity
  8
0
100
AcDbLine
 62
4
  6
CONTINUOUS
 10
10.4279698263
 20
7.4229618901
 11
10.4610872859
 21
7.3875477303
  0
LINE
  5
2C4
100
AcDbEntity
  8
0
100
AcDbLine
 62
4
  6
CONTINUOUS
 10
10.3175782954
 20
7.270549864
 11
10.3617349105
 21
7.179174369
  0
LINE
  5
2C5
100
AcDbEntity
  8
0
100
AcDbLine
 62
4
  6
CONTINUOUS
 10
9.9510784308
 20
8.3860829542
 11
9.9510784308
 21
8.3032893208
  0
LINE
  5
2C6
100
AcDbEntity
  8
0
100
AcDbLine
 62
4
  6
CONTINUOUS
 10
9.9510784308
 20
8.0383496439
 11
9.9510784308
 21
7.9555560001
  0
LINE
  5
2C7
100
AcDbEntity
  8
0
100
AcDbLine
 62
4
  6
CONTINUOUS
 10
10.3175782954
 20
9.0202555192
 11
10.3617349105
 21
9.1055064639
  0
LINE
  5
2C8
100
AcDbEntity
  8
0
100
AcDbLine
 62
4
  6
CONTINUOUS
 10
9.1132067363
 20
7.9557071177
 11
9.1297654713
 21
7.9711174867
  0
LINE
  5
2C9
100
AcDbEntity
  8
0
100
AcDbLine
 62
4
  6
CONTINUOUS
 10
9.1132067363
 20
8.4138319762
 11
9.1297654713
 21
8.4237227346
  0
LINE
  5
2CA
100
AcDbEntity
  8
0
100
AcDbLine
 62
4
  6
CONTINUOUS
 10
9.1463241925
 20
8.5936812609
 11
9.1132067363
 21
8.5794192984
  0
LINE
  5
2CB
100
AcDbEntity
  8
0
100
AcDbLine
 62
4
  6
CONTINUOUS
 10
9.2787940309
 20
7.6130490107
 11
9.046971824
 21
7.6291259354
  0
LINE
  5
2CC
100
AcDbEntity
  8
0
100
AcDbLine
 62
4
  6
CONTINUOUS
 10
9.3339897946
 20
8.0563068641
 11
9.1132067363
 21
8.1378531058
  0
LINE
  5
2CD
100
AcDbEntity
  8
0
100
AcDbLine
 62
4
  6
CONTINUOUS
 10
9.1297654713
 20
9.0639935811
 11
9.1132067363
 21
9.0817005992
  0
LINE
  5
2CE
100
AcDbEntity
  8
0
100
AcDbLine
 62
4
  6
CONTINUOUS
 10
9.1297654713
 20
9.2130222374
 11
9.1132067363
 21
9.2307292555
  0
LINE
  5
2CF
100
AcDbEntity
  8
0
100
AcDbLine
 62
4
  6
CONTINUOUS
 10
9.9179609712
 20
8.4214971002
 11
9.9510784308
 21
8.3860829542
  0
LINE
  5
2D0
100
AcDbEntity
  8
0
100
AcDbLine
 62
4
  6
CONTINUOUS
 10
10.229265079
 20
7.3208310215
 11
10.229265079
 21
7.4036246549
  0
LINE
  5
2D1
100
AcDbEntity
  8
0
100
AcDbLine
 62
4
  6
CONTINUOUS
 10
10.229265079
 20
7.7292796473
 11
10.229265079
 21
7.8617494719
  0
LINE
  5
2D2
100
AcDbEntity
  8
0
100
AcDbLine
 62
4
  6
CONTINUOUS
 10
10.229265079
 20
7.9279844119
 11
10.229265079
 21
8.0273367941
  0
LINE
  5
2D3
100
AcDbEntity
  8
0
100
AcDbLine
 62
4
  6
CONTINUOUS
 10
10.229265079
 20
8.3088352198
 11
10.229265079
 21
8.3750701044
  0
LINE
  5
2D4
100
AcDbEntity
  8
0
100
AcDbLine
 62
4
  6
CONTINUOUS
 10
10.229265079
 20
8.5020203184
 11
10.229265079
 21
8.5516965372
  0
LINE
  5
2D5
100
AcDbEntity
  8
0
100
AcDbLine
 62
4
  6
CONTINUOUS
 10
10.229265079
 20
8.6510488642
 11
10.229265079
 21
8.7338425253
  0
LINE
  5
2D6
100
AcDbEntity
  8
0
100
AcDbLine
 62
4
  6
CONTINUOUS
 10
10.229265079
 20
8.8607928499
 11
10.229265079
 21
8.9601451769
  0
LINE
  5
2D7
100
AcDbEntity
  8
0
100
AcDbLine
 62
4
  6
CONTINUOUS
 10
10.3286174475
 20
8.9201376244
 11
10.3286174475
 21
8.8539027397
  0
LINE
  5
2D8
100
AcDbEntity
  8
0
100
AcDbLine
 62
4
  6
CONTINUOUS
 10
10.3286174475
 20
7.9873292416
 11
10.3286174475
 21
7.9210943017
  0
LINE
  5
2D9
100
AcDbEntity
  8
0
100
AcDbLine
 62
4
  6
CONTINUOUS
 10
10.3948523667
 20
7.5411696971
 11
10.3948523667
 21
7.6294829135
  0
LINE
  5
2DA
100
AcDbEntity
  8
0
100
AcDbLine
 62
4
  6
CONTINUOUS
 10
10.4610872859
 20
8.7177656007
 11
10.4610872859
 21
8.6349719396
  0
LINE
  5
2DB
100
AcDbEntity
  8
0
100
AcDbLine
 62
4
  6
CONTINUOUS
 10
10.4610872859
 20
8.5356196126
 11
10.4610872859
 21
8.4859433938
  0
LINE
  5
2DC
100
AcDbEntity
  8
0
100
AcDbLine
 62
4
  6
CONTINUOUS
 10
10.4610872859
 20
8.3589931798
 11
10.4610872859
 21
8.2927582951
  0
LINE
  5
2DD
100
AcDbEntity
  8
0
100
AcDbLine
 62
4
  6
CONTINUOUS
 10
10.4610872859
 20
7.3875477303
 11
10.4610872859
 21
7.3047540968
  0
LINE
  5
2DE
100
AcDbEntity
  8
0
100
AcDbLine
 62
4
  6
CONTINUOUS
 10
10.4610872859
 20
7.9119074872
 11
10.4610872859
 21
8.0112598695
  0
LINE
  5
2DF
100
AcDbEntity
  8
0
100
AcDbLine
 62
4
  6
CONTINUOUS
 10
10.4610872859
 20
8.8447159252
 11
10.4610872859
 21
8.9440682522
  0
LINE
  5
2E0
100
AcDbEntity
  8
0
100
AcDbLine
 62
4
  6
CONTINUOUS
 10
9.7192562239
 20
8.4021598789
 11
9.7523736801
 21
8.4329806178
  0
LINE
  5
2E1
100
AcDbEntity
  8
0
100
AcDbLine
 62
4
  6
CONTINUOUS
 10
10.229265079
 20
8.7338425253
 11
10.2623825352
 21
8.7646632643
  0
LINE
  5
2E2
100
AcDbEntity
  8
0
100
AcDbLine
 62
4
  6
CONTINUOUS
 10
10.229265079
 20
8.5516965372
 11
10.2623825352
 21
8.5825172762
  0
LINE
  5
2E3
100
AcDbEntity
  8
0
100
AcDbLine
 62
4
  6
CONTINUOUS
 10
10.229265079
 20
7.5968098227
 11
10.4610872859
 21
7.646967838
  0
LINE
  5
2E4
100
AcDbEntity
  8
0
100
AcDbLine
 62
4
  6
CONTINUOUS
 10
10.4610872859
 20
7.7794376626
 11
10.229265079
 21
7.7955145873
  0
LINE
  5
2E5
100
AcDbEntity
  8
0
100
AcDbLine
 62
4
  6
CONTINUOUS
 10
9.2787940309
 20
7.8614299388
 11
9.046971824
 21
7.8775068634
  0
LINE
  5
2E6
100
AcDbEntity
  8
0
100
AcDbLine
 62
4
  6
CONTINUOUS
 10
9.1297654713
 20
7.9711174867
 11
9.2787940309
 21
7.960782321
  0
LINE
  5
2E7
100
AcDbEntity
  8
0
100
AcDbLine
 62
4
  6
CONTINUOUS
 10
9.9179609712
 20
7.9247352441
 11
9.7523736801
 21
7.9362187618
  0
LINE
  5
2E8
100
AcDbEntity
  8
0
100
AcDbLine
 62
4
  6
CONTINUOUS
 10
10.4610872859
 20
7.9119074872
 11
10.229265079
 21
7.9279844119
  0
LINE
  5
2E9
100
AcDbEntity
  8
0
100
AcDbLine
 62
4
  6
CONTINUOUS
 10
9.8186085924
 20
8.0475364584
 11
9.9510784308
 21
8.0383496439
  0
LINE
  5
2EA
100
AcDbEntity
  8
0
100
AcDbLine
 62
4
  6
CONTINUOUS
 10
9.9510784308
 20
8.1045845562
 11
9.7192562239
 21
8.1868963932
  0
LINE
  5
2EB
100
AcDbEntity
  8
0
100
AcDbLine
 62
4
  6
CONTINUOUS
 10
9.2787940309
 20
9.2854806223
 11
9.2622353011
 21
9.30318764
  0
LINE
  5
2EC
100
AcDbEntity
  8
0
100
AcDbLine
 62
4
  6
CONTINUOUS
 10
10.2623825352
 20
8.273421074
 11
10.229265079
 21
8.3088352198
  0
LINE
  5
2ED
100
AcDbEntity
  8
0
100
AcDbLine
 62
4
  6
CONTINUOUS
 10
10.2623825352
 20
8.4666061727
 11
10.229265079
 21
8.5020203184
  0
LINE
  5
2EE
100
AcDbEntity
  8
0
100
AcDbLine
 62
4
  6
CONTINUOUS
 10
8.9310607206
 20
6.3338543745
 11
8.9503792332
 21
6.361492407
  0
LINE
  5
2EF
100
AcDbEntity
  8
0
100
AcDbLine
 62
4
  6
CONTINUOUS
 10
9.2125591117
 20
7.2533503865
 11
9.1132067363
 21
7.1443293937
  0
LINE
  5
2F0
100
AcDbEntity
  8
0
100
AcDbLine
 62
4
  6
CONTINUOUS
 10
9.046971824
 20
7.2482751758
 11
9.063530559
 21
7.2636855517
  0
LINE
  5
2F1
100
AcDbEntity
  8
0
100
AcDbLine
 62
4
  6
CONTINUOUS
 10
10.4610872859
 20
8.4859433938
 11
10.4279698263
 21
8.4551226551
  0
LINE
  5
2F2
100
AcDbEntity
  8
0
100
AcDbLine
 62
4
  6
CONTINUOUS
 10
9.2456765713
 20
7.3172885952
 11
9.2787940309
 21
7.3481093477
  0
LINE
  5
2F3
100
AcDbEntity
  8
0
100
AcDbLine
 62
4
  6
CONTINUOUS
 10
9.9510784308
 20
7.9555560001
 11
9.9179609712
 21
7.9247352441
  0
LINE
  5
2F4
100
AcDbEntity
  8
0
100
AcDbLine
 62
4
  6
CONTINUOUS
 10
9.2622353011
 20
8.1716746032
 11
9.1297654713
 21
8.1808614171
  0
LINE
  5
2F5
100
AcDbEntity
  8
0
100
AcDbLine
 62
4
  6
CONTINUOUS
 10
9.046971824
 20
8.2859555031
 11
9.2787940309
 21
8.2698785784
  0
LINE
  5
2F6
100
AcDbEntity
  8
0
100
AcDbLine
 62
4
  6
CONTINUOUS
 10
9.2787940309
 20
8.3361135736
 11
9.1132067363
 21
8.3475970915
  0
LINE
  5
2F7
100
AcDbEntity
  8
0
100
AcDbLine
 62
4
  6
CONTINUOUS
 10
10.4279698263
 20
8.2619375564
 11
10.2623825352
 21
8.273421074
  0
LINE
  5
2F8
100
AcDbEntity
  8
0
100
AcDbLine
 62
4
  6
CONTINUOUS
 10
9.9510784308
 20
8.3032893208
 11
9.7192562239
 21
8.3193662454
  0
LINE
  5
2F9
100
AcDbEntity
  8
0
100
AcDbLine
 62
4
  6
CONTINUOUS
 10
9.046971824
 20
8.986941679
 11
9.063530559
 21
8.9802737715
  0
LINE
  5
2FA
100
AcDbEntity
  8
0
100
AcDbLine
 62
4
  6
CONTINUOUS
 10
10.4279698263
 20
8.5710337585
 11
10.4610872859
 21
8.5356196126
  0
LINE
  5
2FB
100
AcDbEntity
  8
0
100
AcDbLine
 62
4
  6
CONTINUOUS
 10
10.3617349105
 20
9.1055064639
 11
10.4058915222
 21
9.0141309761
  0
LINE
  5
2FC
100
AcDbEntity
  8
0
100
AcDbLine
 62
4
  6
CONTINUOUS
 10
10.4610872859
 20
8.2927582951
 11
10.4279698263
 21
8.2619375564
  0
LINE
  5
2FD
100
AcDbEntity
  8
0
100
AcDbLine
 62
4
  6
CONTINUOUS
 10
9.2622353011
 20
7.1339942276
 11
9.2787940309
 21
7.1494046056
  0
LINE
  5
2FE
100
AcDbEntity
  8
0
100
AcDbLine
 62
4
  6
CONTINUOUS
 10
9.1132067363
 20
8.0385007788
 11
9.2787940309
 21
8.0766934797
  0
LINE
  5
2FF
100
AcDbEntity
  8
0
100
AcDbLine
 62
4
  6
CONTINUOUS
 10
9.7192562239
 20
8.1868963932
 11
9.9510784308
 21
8.2370543808
  0
LINE
  5
300
100
AcDbEntity
  8
0
100
AcDbLine
 62
4
  6
CONTINUOUS
 10
9.1297654713
 20
8.4237227346
 11
9.1628829275
 21
8.4214260312
  0
LINE
  5
301
100
AcDbEntity
  8
0
100
AcDbLine
 62
4
  6
CONTINUOUS
 10
9.7523736801
 20
8.4329806178
 11
9.9179609712
 21
8.4214971002
  0
LINE
  5
302
100
AcDbEntity
  8
0
100
AcDbLine
 62
4
  6
CONTINUOUS
 10
9.2622353011
 20
8.4862904712
 11
9.2125591117
 21
8.4897355266
  0
LINE
  5
303
100
AcDbEntity
  8
0
100
AcDbLine
 62
4
  6
CONTINUOUS
 10
10.4279698263
 20
8.4551226551
 11
10.2623825352
 21
8.4666061727
  0
LINE
  5
304
100
AcDbEntity
  8
0
100
AcDbLine
 62
4
  6
CONTINUOUS
 10
9.2787940309
 20
8.5844944464
 11
9.1463241925
 21
8.5936812609
  0
LINE
  5
305
100
AcDbEntity
  8
0
100
AcDbLine
 62
4
  6
CONTINUOUS
 10
9.1132067363
 20
8.6622128489
 11
9.2622353011
 21
8.6518776829
  0
LINE
  5
306
100
AcDbEntity
  8
0
100
AcDbLine
 62
4
  6
CONTINUOUS
 10
10.2623825352
 20
8.5825172762
 11
10.4279698263
 21
8.5710337585
  0
LINE
  5
307
100
AcDbEntity
  8
0
100
AcDbLine
 62
4
  6
CONTINUOUS
 10
10.4279698263
 20
8.7531797466
 11
10.4610872859
 21
8.7177656007
  0
LINE
  5
308
100
AcDbEntity
  8
0
100
AcDbLine
 62
4
  6
CONTINUOUS
 10
10.3617349105
 20
7.179174369
 11
10.4058915222
 21
7.2644253209
  0
LINE
  5
309
100
AcDbEntity
  8
0
100
AcDbLine
 62
4
  6
CONTINUOUS
 10
10.229265079
 20
7.4036246549
 11
10.2623825352
 21
7.4344454077
  0
LINE
  5
30A
100
AcDbEntity
  8
0
100
AcDbLine
 62
4
  6
CONTINUOUS
 10
9.046971824
 20
7.5132148319
 11
9.2787940309
 21
7.6130490107
  0
LINE
  5
30B
100
AcDbEntity
  8
0
100
AcDbLine
 62
4
  6
CONTINUOUS
 10
10.4610872859
 20
8.6349719396
 11
10.229265079
 21
8.6510488642
  0
LINE
  5
30C
100
AcDbEntity
  8
0
100
AcDbLine
 62
4
  6
CONTINUOUS
 10
9.2787940309
 20
8.7500817686
 11
9.1132067363
 21
8.7615652865
  0
LINE
  5
30D
100
AcDbEntity
  8
0
100
AcDbLine
 62
4
  6
CONTINUOUS
 10
9.2622353011
 20
8.8174650051
 11
9.046971824
 21
8.8323935779
  0
LINE
  5
30E
100
AcDbEntity
  8
0
100
AcDbLine
 62
4
  6
CONTINUOUS
 10
10.2623825352
 20
8.7646632643
 11
10.4279698263
 21
8.7531797466
  0
LINE
  5
30F
100
AcDbEntity
  8
0
100
AcDbLine
 62
4
  6
CONTINUOUS
 10
10.4610872859
 20
8.8447159252
 11
10.229265079
 21
8.8607928499
  0
LINE
  5
310
100
AcDbEntity
  8
0
100
AcDbLine
 62
4
  6
CONTINUOUS
 10
13.0845420169
 20
8.6779576076
 11
13.3163642237
 21
8.6618806829
  0
LINE
  5
311
100
AcDbEntity
  8
0
100
AcDbLine
 62
7
  6
CONTINUOUS
 10
13.5095494033
 20
10.0973719626
 11
14.2860058978
 21
10.847371388
  0
LINE
  5
312
100
AcDbEntity
  8
0
100
AcDbLine
 62
4
  6
CONTINUOUS
 10
9.2787940309
 20
8.965345199
 11
9.1132067363
 21
8.9768287169
  0
LINE
  5
313
100
AcDbEntity
  8
0
100
AcDbLine
 62
4
  6
CONTINUOUS
 10
9.063530559
 20
8.9802737715
 11
9.046971824
 21
8.9814221237
  0
LINE
  5
314
100
AcDbEntity
  8
0
100
AcDbLine
 62
4
  6
CONTINUOUS
 10
9.2622353011
 20
9.0548067672
 11
9.1297654713
 21
9.0639935811
  0
LINE
  5
315
100
AcDbEntity
  8
0
100
AcDbLine
 62
4
  6
CONTINUOUS
 10
9.1794416555
 20
9.2095771823
 11
9.1297654713
 21
9.2130222374
  0
LINE
  5
316
100
AcDbEntity
  8
0
100
AcDbLine
 62
4
  6
CONTINUOUS
 10
8.9503792332
 20
6.361492407
 11
8.9696977597
 21
6.3746415506
  0
LINE
  5
317
100
AcDbEntity
  8
0
100
AcDbLine
 62
4
  6
CONTINUOUS
 10
9.2622353011
 20
9.30318764
 11
9.2125591117
 21
9.3066326954
  0
LINE
  5
318
100
AcDbEntity
  8
0
100
AcDbLine
 62
7
  6
CONTINUOUS
 10
13.8977776506
 20
9.9372486658
 11
13.9003935327
 21
9.9397291148
  0
LINE
  5
319
100
AcDbEntity
  8
0
100
AcDbLine
 62
7
  6
CONTINUOUS
 10
13.5095494033
 20
10.0973719626
 11
7.7139941022
 21
10.4992950878
  0
LINE
  5
31A
100
AcDbEntity
  8
0
100
AcDbLine
 62
7
  6
CONTINUOUS
 10
13.5095494033
 20
5.7507054867
 11
13.5095494033
 21
10.0973719626
  0
LINE
  5
31B
100
AcDbEntity
  8
0
100
AcDbLine
 62
7
  6
CONTINUOUS
 10
14.2860058978
 20
10.847371388
 11
8.4904505967
 21
11.2492945133
  0
LINE
  5
31C
100
AcDbEntity
  8
0
100
AcDbLine
 62
7
  6
CONTINUOUS
 10
14.2860058978
 20
10.847371388
 11
14.2860058978
 21
6.5007049122
  0
LINE
  5
31D
100
AcDbEntity
  8
0
100
AcDbLine
 62
7
  6
CONTINUOUS
 10
14.2860058978
 20
6.5007049122
 11
13.5095494033
 21
5.7507054867
  0
SPLINE
  5
31E
100
AcDbEntity
  8
0
100
AcDbSpline
 62
7
  6
CONTINUOUS
 70
0
 71
3
 72
23
 73
19
 74
0
 42
0.0000001
 43
0.0000001
 44
0.0000000001
 40
0.0
 40
0.0
 40
0.0
 40
0.0
 40
0.0637764154
 40
0.1273451281
 40
0.190701988
 40
0.253856063
 40
0.3168132283
 40
0.3795820791
 40
0.4421733864
 40
0.5045993414
 40
0.5668738629
 40
0.629012379
 40
0.6910316532
 40
0.7529496461
 40
0.8147853522
 40
0.8765586034
 40
0.9382898574
 40
1.0
 40
1.0
 40
1.0
 40
1.0
 10
13.2989775833
 20
6.308159016
 30
0.0
 10
13.2989775833
 20
6.3028515829
 30
0.0
 10
13.2987235197
 20
6.292252204
 30
0.0
 10
13.2975769566
 20
6.2764176395
 30
0.0
 10
13.2956678555
 20
6.2607085499
 30
0.0
 10
13.2930008153
 20
6.2451619211
 30
0.0
 10
13.2895818063
 20
6.2298132219
 30
0.0
 10
13.285418738
 20
6.2146979348
 30
0.0
 10
13.2805211866
 20
6.1998508932
 30
0.0
 10
13.2749003386
 20
6.1853063499
 30
0.0
 10
13.2685691743
 20
6.171097838
 30
0.0
 10
13.2615422837
 20
6.1572581164
 30
0.0
 10
13.2538358117
 20
6.1438191295
 30
0.0
 10
13.2454674889
 20
6.1308118867
 30
0.0
 10
13.2364566731
 20
6.1182663945
 30
0.0
 10
13.2268240254
 20
6.1062114964
 30
0.0
 10
13.2165920954
 20
6.0946754156
 30
0.0
 10
13.2093856712
 20
6.0873469559
 30
0.0
 10
13.2056919547
 20
6.0837790987
 30
0.0
  0
SPLINE
  5
31F
100
AcDbEntity
  8
0
100
AcDbSpline
 62
7
  6
CONTINUOUS
 70
0
 71
3
 72
43
 73
39
 74
0
 42
0.0000001
 43
0.0000001
 44
0.0000000001
 40
0.0
 40
0.0
 40
0.0
 40
0.0
 40
0.0149723098
 40
0.0299476795
 40
0.0449291474
 40
0.05991972
 40
0.0749223413
 40
0.0899398895
 40
0.1049751458
 40
0.1200307886
 40
0.1502075383
 40
0.1804946787
 40
0.2109083087
 40
0.2414615673
 40
0.2721643694
 40
0.303023226
 40
0.3340411482
 40
0.3652176339
 40
0.3965487319
 40
0.4280271774
 40
0.4596425917
 40
0.4913817403
 40
0.5232288393
 40
0.555165905
 40
0.5871731364
 40
0.6192293252
 40
0.6513122868
 40
0.6833993039
 40
0.7154675788
 40
0.7474946857
 40
0.7794590188
 40
0.8113402295
 40
0.8431196416
 40
0.8747806564
 40
0.906309065
 40
0.9376935582
 40
0.9689254026
 40
1.0
 40
1.0
 40
1.0
 40
1.0
 10
12.727706204
 20
6.5786261183
 30
0.0
 10
12.7305598985
 20
6.5813825764
 30
0.0
 10
12.7363781065
 20
6.5867832347
 30
0.0
 10
12.7454214662
 20
6.5945318081
 30
0.0
 10
12.754769275
 20
6.6019183537
 30
0.0
 10
12.7644085686
 20
6.6089324322
 30
0.0
 10
12.7743260955
 20
6.6155645073
 30
0.0
 10
12.7845081445
 20
6.6218054098
 30
0.0
 10
12.794940949
 20
6.6276466017
 30
0.0
 10
12.8091752232
 20
6.6348959107
 30
0.0
 10
12.8275323869
 20
6.6429207504
 30
0.0
 10
12.850305021
 20
6.6508257331
 30
0.0
 10
12.8737174985
 20
6.656972274
 30
0.0
 10
12.8976399714
 20
6.6613263552
 30
0.0
 10
12.921940959
 20
6.663864452
 30
0.0
 10
12.9464866754
 20
6.6645728864
 30
0.0
 10
12.9711421427
 20
6.6634480885
 30
0.0
 10
12.9957718273
 20
6.6604965444
 30
0.0
 10
13.0202404052
 20
6.6557347622
 30
0.0
 10
13.0444134888
 20
6.6491891651
 30
0.0
 10
13.0681583574
 20
6.6408959413
 30
0.0
 10
13.0913446781
 20
6.630900845
 30
0.0
 10
13.113845209
 20
6.619258932
 30
0.0
 10
13.1355364876
 20
6.6060342583
 30
0.0
 10
13.1562994994
 20
6.5912995281
 30
0.0
 10
13.1760203216
 20
6.5751356972
 30
0.0
 10
13.1945907414
 20
6.5576315314
 30
0.0
 10
13.2119088419
 20
6.5388831239
 30
0.0
 10
13.2278795563
 20
6.5189933729
 30
0.0
 10
13.2424151842
 20
6.4980714236
 30
0.0
 10
13.2554358765
 20
6.4762320803
 30
0.0
 10
13.2668700616
 20
6.4535951735
 30
0.0
 10
13.2766548436
 20
6.4302849267
 30
0.0
 10
13.2847363236
 20
6.4064292302
 30
0.0
 10
13.291069962
 20
6.3821591377
 30
0.0
 10
13.2956206682
 20
6.3576074623
 30
0.0
 10
13.2983633032
 20
6.3329107705
 30
0.0
 10
13.2989775833
 20
6.3163935988
 30
0.0
 10
13.2989775833
 20
6.308159016
 30
0.0
  0
SPLINE
  5
320
100
AcDbEntity
  8
0
100
AcDbSpline
 62
7
  6
CONTINUOUS
 70
0
 71
3
 72
92
 73
88
 74
0
 42
0.0000001
 43
0.0000001
 44
0.0000000001
 40
0.0
 40
0.0
 40
0.0
 40
0.0
 40
0.0036898706
 40
0.0075219725
 40
0.011499783
 40
0.0156261917
 40
0.0199035661
 40
0.0243337621
 40
0.0289182474
 40
0.0336580702
 40
0.0385539466
 40
0.0436062894
 40
0.0488151954
 40
0.0541805434
 40
0.0597019389
 40
0.0653787877
 40
0.0712103028
 40
0.0771954822
 40
0.0833331924
 40
0.0896221022
 40
0.0960607506
 40
0.1026475402
 40
0.1162582073
 40
0.1304389966
 40
0.145172755
 40
0.1604407102
 40
0.1762226146
 40
0.1924968814
 40
0.2092406981
 40
0.2264301257
 40
0.2440401876
 40
0.2620449499
 40
0.2804176084
 40
0.2991305651
 40
0.3181554994
 40
0.3374634363
 40
0.357024811
 40
0.3768095408
 40
0.3967870919
 40
0.4169265425
 40
0.4371966462
 40
0.4575658943
 40
0.4780025824
 40
0.4984748732
 40
0.5189508595
 40
0.5393986254
 40
0.5597863108
 40
0.5800821757
 40
0.6002546624
 40
0.6202724577
 40
0.6401045564
 40
0.6597203278
 40
0.6790895815
 40
0.6981826306
 40
0.7169703562
 40
0.7354242753
 40
0.7535166145
 40
0.7712203834
 40
0.7885094448
 40
0.8053585917
 40
0.8217436307
 40
0.8376414766
 40
0.8530302549
 40
0.8678894036
 40
0.8821997959
 40
0.889143759
 40
0.8959441016
 40
0.9025988849
 40
0.9091063299
 40
0.915464761
 40
0.9216726417
 40
0.9277286017
 40
0.9336313888
 40
0.9393799586
 40
0.9449734172
 40
0.9504110687
 40
0.9556924447
 40
0.9608172679
 40
0.9657855563
 40
0.97059757
 40
0.9752538665
 40
0.9797553374
 40
0.9841032193
 40
0.9882992614
 40
0.9923456468
 40
0.9962449121
 40
1.0
 40
1.0
 40
1.0
 40
1.0
 10
13.7573582342
 20
7.8772449933
 30
0.0
 10
13.7557047882
 20
7.8792779913
 30
0.0
 10
13.7524198572
 20
7.8834926775
 30
0.0
 10
13.7476450143
 20
7.8901204782
 30
0.0
 10
13.7429327717
 20
7.8971690175
 30
0.0
 10
13.7382851114
 20
7.9046352788
 30
0.0
 10
13.7337039028
 20
7.912516276
 30
0.0
 10
13.7291909185
 20
7.9208087409
 30
0.0
 10
13.7247480676
 20
7.9295093174
 30
0.0
 10
13.7203771056
 20
7.9386144132
 30
0.0
 10
13.7160798316
 20
7.948120295
 30
0.0
 10
13.71185805
 20
7.958023063
 30
0.0
 10
13.7077134314
 20
7.9683186194
 30
0.0
 10
13.7036477638
 20
7.9790027381
 30
0.0
 10
13.6996626761
 20
7.9900709934
 30
0.0
 10
13.6957598344
 20
8.0015188159
 30
0.0
 10
13.6919408878
 20
8.0133414755
 30
0.0
 10
13.6882073639
 20
8.0255340693
 30
0.0
 10
13.6845608813
 20
8.0380915596
 30
0.0
 10
13.6810029107
 20
8.0510087315
 30
0.0
 10
13.6775349298
 20
8.0642802474
 30
0.0
 10
13.6729832216
 20
8.0826414467
 30
0.0
 10
13.6675411183
 20
8.1064445624
 30
0.0
 10
13.6614610137
 20
8.1360291723
 30
0.0
 10
13.6557723584
 20
8.166889008
 30
0.0
 10
13.6504846907
 20
8.1989728295
 30
0.0
 10
13.6456068828
 20
8.2322275048
 30
0.0
 10
13.6411471211
 20
8.2665978704
 30
0.0
 10
13.637112893
 20
8.302026904
 30
0.0
 10
13.6335109749
 20
8.3384558021
 30
0.0
 10
13.6303474192
 20
8.3758240806
 30
0.0
 10
13.6276275318
 20
8.4140696757
 30
0.0
 10
13.6253558797
 20
8.4531290543
 30
0.0
 10
13.6235362813
 20
8.492937326
 30
0.0
 10
13.6221718015
 20
8.5334283509
 30
0.0
 10
13.6212647465
 20
8.5745348461
 30
0.0
 10
13.6208166468
 20
8.6161884982
 30
0.0
 10
13.6208282688
 20
8.6583200797
 30
0.0
 10
13.6212996135
 20
8.7008595683
 30
0.0
 10
13.6222299166
 20
8.7437362625
 30
0.0
 10
13.6236176513
 20
8.7868788967
 30
0.0
 10
13.6254605172
 20
8.8302157608
 30
0.0
 10
13.6277554551
 20
8.8736748211
 30
0.0
 10
13.6304986546
 20
8.9171838411
 30
0.0
 10
13.6336855595
 20
8.960670501
 30
0.0
 10
13.6373108773
 20
9.0040625171
 30
0.0
 10
13.6413685752
 20
9.047287764
 30
0.0
 10
13.6458518978
 20
9.0902743959
 30
0.0
 10
13.6507533831
 20
9.1329509649
 30
0.0
 10
13.6560648727
 20
9.1752465385
 30
0.0
 10
13.6617775281
 20
9.2170908182
 30
0.0
 10
13.6678818338
 20
9.2584142605
 30
0.0
 10
13.674367617
 20
9.299148194
 30
0.0
 10
13.6812240713
 20
9.339224931
 30
0.0
 10
13.6884397719
 20
9.3785778775
 30
0.0
 10
13.6960026974
 20
9.4171416466
 30
0.0
 10
13.7039002405
 20
9.454852174
 30
0.0
 10
13.7121192279
 20
9.4916468271
 30
0.0
 10
13.720645952
 20
9.5274645063
 30
0.0
 10
13.7294661906
 20
9.5622457435
 30
0.0
 10
13.7385652328
 20
9.5959328096
 30
0.0
 10
13.7479278987
 20
9.6284698051
 30
0.0
 10
13.7575385568
 20
9.65980282
 30
0.0
 10
13.7673811713
 20
9.689879814
 30
0.0
 10
13.7758454881
 20
9.7140922677
 30
0.0
 10
13.7827286144
 20
9.7327899418
 30
0.0
 10
13.7878869279
 20
9.7463279641
 30
0.0
 10
13.7930908523
 20
9.7595158106
 30
0.0
 10
13.7983381944
 20
9.772348032
 30
0.0
 10
13.8036267865
 20
9.784819301
 30
0.0
 10
13.8089544497
 20
9.7969244424
 30
0.0
 10
13.8143189193
 20
9.8086584543
 30
0.0
 10
13.8197180327
 20
9.8200164576
 30
0.0
 10
13.8251494923
 20
9.8309937685
 30
0.0
 10
13.8306110714
 20
9.8415858394
 30
0.0
 10
13.8361005209
 20
9.851788284
 30
0.0
 10
13.8416155147
 20
9.8615969089
 30
0.0
 10
13.8471538453
 20
9.8710076389
 30
0.0
 10
13.8527131679
 20
9.8800166273
 30
0.0
 10
13.8582912319
 20
9.8886201523
 30
0.0
 10
13.8638857483
 20
9.896814659
 30
0.0
 10
13.8694943543
 20
9.9045968008
 30
0.0
 10
13.8751148584
 20
9.9119633662
 30
0.0
 10
13.8807449733
 20
9.9189114256
 30
0.0
 10
13.8863825415
 20
9.9254381468
 30
0.0
 10
13.8920250209
 20
9.9315405899
 30
0.0
 10
13.8958595384
 20
9.9353959117
 30
0.0
 10
13.8977776506
 20
9.9372486658
 30
0.0
  0
SPLINE
  5
321
100
AcDbEntity
  8
0
100
AcDbSpline
 62
7
  6
CONTINUOUS
 70
0
 71
3
 72
38
 73
34
 74
0
 42
0.0000001
 43
0.0000001
 44
0.0000000001
 40
0.0
 40
0.0
 40
0.0
 40
0.0
 40
0.0383795296
 40
0.0755854781
 40
0.1116517858
 40
0.1466174271
 40
0.1805285861
 40
0.2134374209
 40
0.2454018514
 40
0.2764859704
 40
0.3067602261
 40
0.3363016873
 40
0.365194456
 40
0.3935291172
 40
0.4214022252
 40
0.448915817
 40
0.4761763154
 40
0.50329337
 40
0.5303785864
 40
0.5575439701
 40
0.5849004859
 40
0.6125565624
 40
0.6406167984
 40
0.6691810206
 40
0.6983432585
 40
0.7281912017
 40
0.7902423727
 40
0.8226074553
 40
0.855942757
 40
0.8903032537
 40
0.9257379536
 40
0.9622906653
 40
1.0
 40
1.0
 40
1.0
 40
1.0
 10
13.8977776506
 20
7.8701672751
 30
0.0
 10
13.896267396
 20
7.8687084811
 30
0.0
 10
13.8932474484
 20
7.8658821978
 30
0.0
 10
13.8886468099
 20
7.8618619394
 30
0.0
 10
13.8840481713
 20
7.8581288805
 30
0.0
 10
13.8794528717
 20
7.8546843329
 30
0.0
 10
13.8748621671
 20
7.8515292607
 30
0.0
 10
13.8702772148
 20
7.848664536
 30
0.0
 10
13.8656991285
 20
7.8460910416
 30
0.0
 10
13.8611291149
 20
7.84380953
 30
0.0
 10
13.8565683883
 20
7.8418207464
 30
0.0
 10
13.8520181487
 20
7.8401254808
 30
0.0
 10
13.8474796766
 20
7.8387243224
 30
0.0
 10
13.8429542609
 20
7.8376178083
 30
0.0
 10
13.8384432132
 20
7.83680651
 30
0.0
 10
13.8339479279
 20
7.8362907684
 30
0.0
 10
13.829469825
 20
7.8360708289
 30
0.0
 10
13.8250103569
 20
7.8361469351
 30
0.0
 10
13.8205710017
 20
7.836519049
 30
0.0
 10
13.8161532156
 20
7.8371869957
 30
0.0
 10
13.8117584534
 20
7.8381505875
 30
0.0
 10
13.8073881158
 20
7.8394093731
 30
0.0
 10
13.8030435205
 20
7.8409627933
 30
0.0
 10
13.7987260167
 20
7.8428102825
 30
0.0
 10
13.7944366913
 20
7.8449511946
 30
0.0
 10
13.788683187
 20
7.8482378113
 30
0.0
 10
13.7830610865
 20
7.8520851526
 30
0.0
 10
13.7775856228
 20
7.856431583
 30
0.0
 10
13.7734545363
 20
7.8600265842
 30
0.0
 10
13.7693585582
 20
7.8639093299
 30
0.0
 10
13.7652984057
 20
7.8680788871
 30
0.0
 10
13.7612752928
 20
7.8725340097
 30
0.0
 10
13.7586599745
 20
7.8756444357
 30
0.0
 10
13.7573582342
 20
7.8772449933
 30
0.0
  0
SPLINE
  5
322
100
AcDbEntity
  8
0
100
AcDbSpline
 62
7
  6
CONTINUOUS
 70
0
 71
3
 72
15
 73
11
 74
0
 42
0.0000001
 43
0.0000001
 44
0.0000000001
 40
0.0
 40
0.0
 40
0.0
 40
0.0
 40
0.1453360012
 40
0.2839901821
 40
0.4162938932
 40
0.5426638683
 40
0.6635973439
 40
0.7796730938
 40
0.8915557888
 40
1.0
 40
1.0
 40
1.0
 40
1.0
 10
13.7393658057
 20
8.0395650187
 30
0.0
 10
13.7374451736
 20
8.0377098305
 30
0.0
 10
13.7336055166
 20
8.034172828
 30
0.0
 10
13.7277090797
 20
8.0292949897
 30
0.0
 10
13.7218177012
 20
8.0249761383
 30
0.0
 10
13.7159349668
 20
8.0212194709
 30
0.0
 10
13.7100639588
 20
8.0180278282
 30
0.0
 10
13.7042077434
 20
8.0154037705
 30
0.0
 10
13.6983704129
 20
8.0133501946
 30
0.0
 10
13.6944409025
 20
8.0123497085
 30
0.0
 10
13.6924888127
 20
8.0119505401
 30
0.0
  0
SPLINE
  5
323
100
AcDbEntity
  8
0
100
AcDbSpline
 62
7
  6
CONTINUOUS
 70
0
 71
3
 72
97
 73
93
 74
0
 42
0.0000001
 43
0.0000001
 44
0.0000000001
 40
0.0
 40
0.0
 40
0.0
 40
0.0
 40
0.0039237738
 40
0.0080093616
 40
0.0122602299
 40
0.0166793261
 40
0.0212691364
 40
0.0260315873
 40
0.0309679765
 40
0.0360791886
 40
0.0413656842
 40
0.0468275796
 40
0.0524646749
 40
0.0582764246
 40
0.0642620591
 40
0.0704205115
 40
0.0767505114
 40
0.0832505728
 40
0.0899189845
 40
0.0967538939
 40
0.103753225
 40
0.1109147776
 40
0.1182361815
 40
0.1257149125
 40
0.1411334518
 40
0.15714791
 40
0.173733682
 40
0.1908644617
 40
0.2085123935
 40
0.2266482066
 40
0.245241336
 40
0.2642600331
 40
0.2836714795
 40
0.3034418901
 40
0.32353661
 40
0.3439202085
 40
0.3645565697
 40
0.3854089846
 40
0.4064402445
 40
0.427612729
 40
0.4488884937
 40
0.4702293572
 40
0.4915969887
 40
0.5129529973
 40
0.5342590193
 40
0.5554768049
 40
0.5765683043
 40
0.5974957567
 40
0.6182217809
 40
0.6387094625
 40
0.6589224429
 40
0.6788250083
 40
0.6983821823
 40
0.7175598237
 40
0.7363247244
 40
0.7546447056
 40
0.7724887225
 40
0.7898269745
 40
0.8066310262
 40
0.8228739457
 40
0.8385304433
 40
0.8535770332
 40
0.8608649367
 40
0.8679924835
 40
0.8749573233
 40
0.8817572972
 40
0.8883903637
 40
0.8948547033
 40
0.9011486558
 40
0.9072707666
 40
0.9132198227
 40
0.918994803
 40
0.9245949946
 40
0.9300199218
 40
0.9352694362
 40
0.9403437345
 40
0.9452433536
 40
0.9499692953
 40
0.9545229752
 40
0.9589063629
 40
0.9631220008
 40
0.9671730712
 40
0.9710635352
 40
0.974798143
 40
0.9783826263
 40
0.9818237475
 40
0.9851294417
 40
0.988308955
 40
0.9913728974
 40
0.9943333915
 40
0.9972040528
 40
1.0
 40
1.0
 40
1.0
 40
1.0
 10
13.7393658057
 20
8.0395650187
 30
0.0
 10
13.7411119507
 20
8.0412516654
 30
0.0
 10
13.7446024241
 20
8.0447716294
 30
0.0
 10
13.7497312962
 20
8.0503628415
 30
0.0
 10
13.7548549952
 20
8.0563676974
 30
0.0
 10
13.7599708912
 20
8.0627830884
 30
0.0
 10
13.7650767255
 20
8.0696060214
 30
0.0
 10
13.7701701109
 20
8.076833362
 30
0.0
 10
13.7752487532
 20
8.0844616755
 30
0.0
 10
13.7803101609
 20
8.0924873819
 30
0.0
 10
13.7853519756
 20
8.1009066491
 30
0.0
 10
13.7903718098
 20
8.1097154884
 30
0.0
 10
13.7953672381
 20
8.1189097357
 30
0.0
 10
13.8003359481
 20
8.1284849958
 30
0.0
 10
13.8052754904
 20
8.1384367366
 30
0.0
 10
13.8101835627
 20
8.1487601957
 30
0.0
 10
13.8150577925
 20
8.1594504595
 30
0.0
 10
13.819895832
 20
8.1705024302
 30
0.0
 10
13.8246954119
 20
8.18191082
 30
0.0
 10
13.829454165
 20
8.1936701955
 30
0.0
 10
13.8341698758
 20
8.2057749225
 30
0.0
 10
13.838840236
 20
8.2182192211
 30
0.0
 10
13.8434630353
 20
8.2309971471
 30
0.0
 10
13.8496229578
 20
8.2486505112
 30
0.0
 10
13.8571781177
 20
8.2715118549
 30
0.0
 10
13.8659303624
 20
8.2999054778
 30
0.0
 10
13.8744413426
 20
8.3294762849
 30
0.0
 10
13.8826946835
 20
8.3601676585
 30
0.0
 10
13.8906745007
 20
8.3919209608
 30
0.0
 10
13.8983654392
 20
8.4246754525
 30
0.0
 10
13.9057527013
 20
8.4583684644
 30
0.0
 10
13.9128220857
 20
8.4929355046
 30
0.0
 10
13.9195600023
 20
8.528310394
 30
0.0
 10
13.9259535001
 20
8.5644253982
 30
0.0
 10
13.9319902921
 20
8.6012113585
 30
0.0
 10
13.937658776
 20
8.6385978232
 30
0.0
 10
13.942948064
 20
8.6765131809
 30
0.0
 10
13.9478480031
 20
8.7148848006
 30
0.0
 10
13.9523491875
 20
8.7536391745
 30
0.0
 10
13.9564429778
 20
8.7927020608
 30
0.0
 10
13.9601215171
 20
8.831998624
 30
0.0
 10
13.9633777453
 20
8.8714535784
 30
0.0
 10
13.9662054227
 20
8.9109913323
 30
0.0
 10
13.9685991342
 20
8.9505361356
 30
0.0
 10
13.9705542971
 20
8.9900122255
 30
0.0
 10
13.9720671716
 20
9.0293439711
 30
0.0
 10
13.973134866
 20
9.0684560175
 30
0.0
 10
13.9737553468
 20
9.1072734326
 30
0.0
 10
13.9739274484
 20
9.1457218523
 30
0.0
 10
13.9736508663
 20
9.1837276234
 30
0.0
 10
13.9729261581
 20
9.2212179442
 30
0.0
 10
13.971754744
 20
9.2581210024
 30
0.0
 10
13.970138902
 20
9.2943661162
 30
0.0
 10
13.9680817736
 20
9.3298838739
 30
0.0
 10
13.9655873556
 20
9.3646062698
 30
0.0
 10
13.9626604864
 20
9.3984668337
 30
0.0
 10
13.9593068392
 20
9.4314007563
 30
0.0
 10
13.955532912
 20
9.4633450222
 30
0.0
 10
13.9513460117
 20
9.494238522
 30
0.0
 10
13.946754263
 20
9.5240222401
 30
0.0
 10
13.9417665452
 20
9.5526391596
 30
0.0
 10
13.9372415149
 20
9.5757074171
 30
0.0
 10
13.9334215927
 20
9.5935317911
 30
0.0
 10
13.9304942367
 20
9.6064325754
 30
0.0
 10
13.9274753962
 20
9.6190019973
 30
0.0
 10
13.9243665644
 20
9.6312340653
 30
0.0
 10
13.9211691711
 20
9.643122924
 30
0.0
 10
13.917884802
 20
9.6546629001
 30
0.0
 10
13.914515013
 20
9.6658484823
 30
0.0
 10
13.9110613993
 20
9.6766743291
 30
0.0
 10
13.9075256709
 20
9.6871352877
 30
0.0
 10
13.9039094427
 20
9.6972263594
 30
0.0
 10
13.9002145166
 20
9.7069427563
 30
0.0
 10
13.8964426069
 20
9.7162798501
 30
0.0
 10
13.8925955141
 20
9.7252332071
 30
0.0
 10
13.8886751031
 20
9.7337985964
 30
0.0
 10
13.8846831499
 20
9.741971939
 30
0.0
 10
13.8806216217
 20
9.7497494062
 30
0.0
 10
13.8764923406
 20
9.7571273054
 30
0.0
 10
13.8722972598
 20
9.7641021791
 30
0.0
 10
13.8680383194
 20
9.7706707624
 30
0.0
 10
13.8637173901
 20
9.7768299364
 30
0.0
 10
13.8593365002
 20
9.7825768641
 30
0.0
 10
13.8548974815
 20
9.7879087747
 30
0.0
 10
13.8504023259
 20
9.7928231775
 30
0.0
 10
13.8458529191
 20
9.7973176849
 30
0.0
 10
13.8412511339
 20
9.8013900212
 30
0.0
 10
13.8365989403
 20
9.805038155
 30
0.0
 10
13.8318982119
 20
9.8082599438
 30
0.0
 10
13.8271509014
 20
9.811053602
 30
0.0
 10
13.8223595219
 20
9.8134170622
 30
0.0
 10
13.819099683
 20
9.8147197462
 30
0.0
 10
13.8174681207
 20
9.8152947085
 30
0.0
  0
SPLINE
  5
324
100
AcDbEntity
  8
0
100
AcDbSpline
 62
7
  6
CONTINUOUS
 70
0
 71
3
 72
43
 73
39
 74
0
 42
0.0000001
 43
0.0000001
 44
0.0000000001
 40
0.0
 40
0.0
 40
0.0
 40
0.0
 40
0.0149723098
 40
0.0299476795
 40
0.0449291474
 40
0.05991972
 40
0.0749223413
 40
0.0899398895
 40
0.1049751458
 40
0.1200307886
 40
0.1502075383
 40
0.1804946787
 40
0.2109083087
 40
0.2414615673
 40
0.2721643694
 40
0.303023226
 40
0.3340411482
 40
0.3652176339
 40
0.3965487319
 40
0.4280271774
 40
0.4596425917
 40
0.4913817403
 40
0.5232288393
 40
0.555165905
 40
0.5871731364
 40
0.6192293252
 40
0.6513122868
 40
0.6833993039
 40
0.7154675788
 40
0.7474946857
 40
0.7794590188
 40
0.8113402295
 40
0.8431196416
 40
0.8747806564
 40
0.906309065
 40
0.9376935582
 40
0.9689254026
 40
1.0
 40
1.0
 40
1.0
 40
1.0
 10
13.2056919547
 20
6.0837790987
 30
0.0
 10
13.2028382602
 20
6.0810226406
 30
0.0
 10
13.1970200522
 20
6.0756219823
 30
0.0
 10
13.1879766925
 20
6.0678734089
 30
0.0
 10
13.1786288837
 20
6.0604868633
 30
0.0
 10
13.1689895901
 20
6.0534727848
 30
0.0
 10
13.1590720632
 20
6.0468407097
 30
0.0
 10
13.1488900141
 20
6.0405998072
 30
0.0
 10
13.1384572097
 20
6.0347586153
 30
0.0
 10
13.1242229355
 20
6.0275093063
 30
0.0
 10
13.1058657718
 20
6.0194844666
 30
0.0
 10
13.0830931376
 20
6.0115794839
 30
0.0
 10
13.0596806602
 20
6.005432943
 30
0.0
 10
13.0357581872
 20
6.0010788619
 30
0.0
 10
13.0114571997
 20
5.998540765
 30
0.0
 10
12.9869114833
 20
5.9978323306
 30
0.0
 10
12.962256016
 20
5.9989571286
 30
0.0
 10
12.9376263314
 20
6.0019086726
 30
0.0
 10
12.9131577534
 20
6.0066704548
 30
0.0
 10
12.8889846699
 20
6.013216052
 30
0.0
 10
12.8652398013
 20
6.0215092757
 30
0.0
 10
12.8420534805
 20
6.0315043721
 30
0.0
 10
12.8195529497
 20
6.0431462851
 30
0.0
 10
12.797861671
 20
6.0563709588
 30
0.0
 10
12.7770986593
 20
6.0711056889
 30
0.0
 10
12.757377837
 20
6.0872695198
 30
0.0
 10
12.7388074173
 20
6.1047736856
 30
0.0
 10
12.7214893167
 20
6.1235220932
 30
0.0
 10
12.7055186024
 20
6.1434118441
 30
0.0
 10
12.6909829745
 20
6.1643337934
 30
0.0
 10
12.6779622822
 20
6.1861731367
 30
0.0
 10
12.6665280971
 20
6.2088100435
 30
0.0
 10
12.6567433151
 20
6.2321202904
 30
0.0
 10
12.648661835
 20
6.2559759868
 30
0.0
 10
12.6423281967
 20
6.2802460793
 30
0.0
 10
12.6377774905
 20
6.3047977547
 30
0.0
 10
12.6350348555
 20
6.3294944465
 30
0.0
 10
12.6344205754
 20
6.3460116183
 30
0.0
 10
12.6344205754
 20
6.354246201
 30
0.0
  0
SPLINE
  5
325
100
AcDbEntity
  8
0
100
AcDbSpline
 62
7
  6
CONTINUOUS
 70
0
 71
3
 72
23
 73
19
 74
0
 42
0.0000001
 43
0.0000001
 44
0.0000000001
 40
0.0
 40
0.0
 40
0.0
 40
0.0
 40
0.0637764154
 40
0.1273451281
 40
0.190701988
 40
0.253856063
 40
0.3168132283
 40
0.3795820791
 40
0.4421733864
 40
0.5045993414
 40
0.5668738629
 40
0.629012379
 40
0.6910316532
 40
0.7529496461
 40
0.8147853522
 40
0.8765586034
 40
0.9382898574
 40
1.0
 40
1.0
 40
1.0
 40
1.0
 10
12.6344205754
 20
6.354246201
 30
0.0
 10
12.6344205754
 20
6.3595536341
 30
0.0
 10
12.6346746389
 20
6.3701530131
 30
0.0
 10
12.635821202
 20
6.3859875775
 30
0.0
 10
12.6377303032
 20
6.4016966672
 30
0.0
 10
12.6403973434
 20
6.417243296
 30
0.0
 10
12.6438163524
 20
6.4325919951
 30
0.0
 10
12.6479794207
 20
6.4477072822
 30
0.0
 10
12.6528769721
 20
6.4625543238
 30
0.0
 10
12.6584978201
 20
6.4770988672
 30
0.0
 10
12.6648289844
 20
6.4913073791
 30
0.0
 10
12.671855875
 20
6.5051471007
 30
0.0
 10
12.679562347
 20
6.5185860876
 30
0.0
 10
12.6879306698
 20
6.5315933304
 30
0.0
 10
12.6969414856
 20
6.5441388225
 30
0.0
 10
12.7065741333
 20
6.5561937207
 30
0.0
 10
12.7168060633
 20
6.5677298015
 30
0.0
 10
12.7240124875
 20
6.5750582611
 30
0.0
 10
12.727706204
 20
6.5786261183
 30
0.0
  0
SPLINE
  5
326
100
AcDbEntity
  8
0
100
AcDbSpline
 62
7
  6
CONTINUOUS
 70
0
 71
3
 72
106
 73
102
 74
0
 42
0.0000001
 43
0.0000001
 44
0.0000000001
 40
0.0
 40
0.0
 40
0.0
 40
0.0
 40
0.0039488156
 40
0.0077208642
 40
0.0113255466
 40
0.014774449
 40
0.0180811375
 40
0.0212612834
 40
0.0243327965
 40
0.0273158649
 40
0.0302327157
 40
0.0331072823
 40
0.0359646543
 40
0.0388304194
 40
0.0417299252
 40
0.0446875655
 40
0.0477262125
 40
0.0508667678
 40
0.0541279623
 40
0.0575262394
 40
0.0610758525
 40
0.0647889515
 40
0.0686758091
 40
0.0727449745
 40
0.077003508
 40
0.0814571322
 40
0.0861104225
 40
0.090966936
 40
0.0960293458
 40
0.1012995509
 40
0.1067787576
 40
0.1124675783
 40
0.1183660687
 40
0.1244738232
 40
0.1307899754
 40
0.1373132952
 40
0.1440421612
 40
0.1509746603
 40
0.1581085392
 40
0.1654413071
 40
0.172970172
 40
0.1806921447
 40
0.188603967
 40
0.1967022127
 40
0.204983215
 40
0.21344316
 40
0.2220780184
 40
0.2308836293
 40
0.2489893614
 40
0.267724132
 40
0.2870492975
 40
0.3069242466
 40
0.3273065936
 40
0.3481523576
 40
0.3694161329
 40
0.3910512513
 40
0.4130099399
 40
0.4352434751
 40
0.4577023334
 40
0.4803363409
 40
0.503094821
 40
0.5259267415
 40
0.5487808608
 40
0.5716058744
 40
0.5943505605
 40
0.6169639263
 40
0.6393953542
 40
0.6615947493
 40
0.6835126873
 40
0.7051005635
 40
0.7263107448
 40
0.7470967239
 40
0.7674132772
 40
0.7872166286
 40
0.8064646206
 40
0.8251168952
 40
0.8431350894
 40
0.851895138
 40
0.8604832935
 40
0.8688954368
 40
0.8771275902
 40
0.8851759819
 40
0.8930370073
 40
0.9007072834
 40
0.908183626
 40
0.9154630921
 40
0.9225429765
 40
0.9294208407
 40
0.936094532
 40
0.9425621999
 40
0.9488223409
 40
0.9548738017
 40
0.9607158522
 40
0.9663481874
 40
0.9717710355
 40
0.9769851372
 40
0.9819918705
 40
0.9867933161
 40
0.9913924996
 40
0.9957932223
 40
1.0
 40
1.0
 40
1.0
 40
1.0
 10
13.9003935331
 20
9.9397292922
 30
0.0
 10
13.9026010793
 20
9.9417837758
 30
0.0
 10
13.9070142137
 20
9.9456986415
 30
0.0
 10
13.9137857566
 20
9.951086538
 30
0.0
 10
13.9205502519
 20
9.9558486422
 30
0.0
 10
13.9273038824
 20
9.9599816506
 30
0.0
 10
13.9340433311
 20
9.9634825838
 30
0.0
 10
13.9407649624
 20
9.9663486436
 30
0.0
 10
13.9474650318
 20
9.9685768677
 30
0.0
 10
13.9541393159
 20
9.9701648427
 30
0.0
 10
13.9607832505
 20
9.9711101716
 30
0.0
 10
13.9673917052
 20
9.9714114225
 30
0.0
 10
13.9739592097
 20
9.9710675901
 30
0.0
 10
13.9804801624
 20
9.9700790985
 30
0.0
 10
13.9869490902
 20
9.9684469598
 30
0.0
 10
13.9933610317
 20
9.9661734533
 30
0.0
 10
13.9997114586
 20
9.9632610808
 30
0.0
 10
14.0059965333
 20
9.9597130632
 30
0.0
 10
14.0122126762
 20
9.9555324923
 30
0.0
 10
14.0183567657
 20
9.9507228392
 30
0.0
 10
14.0244256452
 20
9.9452874406
 30
0.0
 10
14.0304163795
 20
9.9392299596
 30
0.0
 10
14.0363258659
 20
9.9325540975
 30
0.0
 10
14.0421511097
 20
9.9252639172
 30
0.0
 10
14.0478889607
 20
9.9173636819
 30
0.0
 10
14.0535363334
 20
9.9088580368
 30
0.0
 10
14.0590900577
 20
9.8997519269
 30
0.0
 10
14.0645470035
 20
9.8900506747
 30
0.0
 10
14.069904036
 20
9.8797599523
 30
0.0
 10
14.0751580354
 20
9.8688857927
 30
0.0
 10
14.0803059479
 20
9.857434598
 30
0.0
 10
14.0853447081
 20
9.8454131135
 30
0.0
 10
14.0902713745
 20
9.8328284554
 30
0.0
 10
14.0950829681
 20
9.8196880685
 30
0.0
 10
14.0997766795
 20
9.8059997605
 30
0.0
 10
14.1043496398
 20
9.7917716565
 30
0.0
 10
14.1087991838
 20
9.7770122308
 30
0.0
 10
14.1131225709
 20
9.7617302665
 30
0.0
 10
14.1173172878
 20
9.7459348797
 30
0.0
 10
14.1213807366
 20
9.7296354872
 30
0.0
 10
14.1253105611
 20
9.7128418213
 30
0.0
 10
14.1291043185
 20
9.6955639075
 30
0.0
 10
14.1327598129
 20
9.6778120687
 30
0.0
 10
14.1362747674
 20
9.659596913
 30
0.0
 10
14.1396471498
 20
9.6409293264
 30
0.0
 10
14.1428748545
 20
9.621820476
 30
0.0
 10
14.1459560316
 20
9.6022817695
 30
0.0
 10
14.1499028358
 20
9.5754236818
 30
0.0
 10
14.1544438086
 20
9.5408589782
 30
0.0
 10
14.1592316227
 20
9.4982318394
 30
0.0
 10
14.1633955697
 20
9.4541820061
 30
0.0
 10
14.1669255634
 20
9.4088149046
 30
0.0
 10
14.1698130203
 20
9.36223897
 30
0.0
 10
14.1720509212
 20
9.31456561
 30
0.0
 10
14.1736338146
 20
9.2659088679
 30
0.0
 10
14.1745578314
 20
9.216385162
 30
0.0
 10
14.1748206926
 20
9.1661129988
 30
0.0
 10
14.1744217133
 20
9.1152126874
 30
0.0
 10
14.1733618036
 20
9.0638060486
 30
0.0
 10
14.1716434656
 20
9.0120161215
 30
0.0
 10
14.1692707871
 20
8.9599668671
 30
0.0
 10
14.1662494309
 20
8.9077828698
 30
0.0
 10
14.162586621
 20
8.8555890382
 30
0.0
 10
14.1582911256
 20
8.8035103041
 30
0.0
 10
14.1533732353
 20
8.7516713226
 30
0.0
 10
14.1478447388
 20
8.7001961722
 30
0.0
 10
14.1417188949
 20
8.6492080561
 30
0.0
 10
14.1350104012
 20
8.5988290059
 30
0.0
 10
14.1277353587
 20
8.5491795874
 30
0.0
 10
14.1199112345
 20
8.5003786102
 30
0.0
 10
14.1115568197
 20
8.4525428399
 30
0.0
 10
14.1026921861
 20
8.4057867168
 30
0.0
 10
14.0933386383
 20
8.3602220729
 30
0.0
 10
14.0835186627
 20
8.315957878
 30
0.0
 10
14.0732558778
 20
8.2730999045
 30
0.0
 10
14.0625749663
 20
8.2317507064
 30
0.0
 10
14.053262104
 20
8.1983267687
 30
0.0
 10
14.0456119848
 20
8.172423605
 30
0.0
 10
14.039839791
 20
8.153616252
 30
0.0
 10
14.0339827376
 20
8.13525787
 30
0.0
 10
14.0280442653
 20
8.1173594258
 30
0.0
 10
14.0220279836
 20
8.0999316177
 30
0.0
 10
14.0159374601
 20
8.082984864
 30
0.0
 10
14.0097763767
 20
8.0665292859
 30
0.0
 10
14.0035484022
 20
8.0505747137
 30
0.0
 10
13.9972572837
 20
8.0351306697
 30
0.0
 10
13.9909067822
 20
8.0202063691
 30
0.0
 10
13.9845006979
 20
8.005810712
 30
0.0
 10
13.9780428748
 20
7.9919522724
 30
0.0
 10
13.9715371522
 20
7.9786393059
 30
0.0
 10
13.9649874445
 20
7.96587972
 30
0.0
 10
13.9583976168
 20
7.9536811073
 30
0.0
 10
13.951771643
 20
7.9420506835
 30
0.0
 10
13.9451133906
 20
7.9309953524
 30
0.0
 10
13.9384268589
 20
7.9205216148
 30
0.0
 10
13.9317159145
 20
7.9106356978
 30
0.0
 10
13.9249845948
 20
7.9013433704
 30
0.0
 10
13.9182366894
 20
7.8926501047
 30
0.0
 10
13.9114760217
 20
7.8845608306
 30
0.0
 10
13.9047066861
 20
7.8770807208
 30
0.0
 10
13.9000883673
 20
7.8723992562
 30
0.0
 10
13.8977776506
 20
7.8701672751
 30
0.0
  0
SPLINE
  5
327
100
AcDbEntity
  8
0
100
AcDbSpline
 62
4
  6
CONTINUOUS
 70
0
 71
3
 72
403
 73
399
 74
0
 42
0.0000001
 43
0.0000001
 44
0.0000000001
 40
0.0
 40
0.0
 40
0.0
 40
0.0
 40
0.015625
 40
0.0234375
 40
0.03125
 40
0.0390625
 40
0.04296875
 40
0.046875
 40
0.05078125
 40
0.0546875
 40
0.056640625
 40
0.05859375
 40
0.0595703125
 40
0.060546875
 40
0.0615234375
 40
0.0620117188
 40
0.0622558594
 40
0.0625
 40
0.0627441406
 40
0.0629882812
 40
0.0634765625
 40
0.064453125
 40
0.0654296875
 40
0.06640625
 40
0.068359375
 40
0.0703125
 40
0.07421875
 40
0.078125
 40
0.08203125
 40
0.0859375
 40
0.09375
 40
0.1015625
 40
0.10546875
 40
0.109375
 40
0.11328125
 40
0.1171875
 40
0.119140625
 40
0.12109375
 40
0.1220703125
 40
0.123046875
 40
0.1240234375
 40
0.1245117188
 40
0.1247558594
 40
0.125
 40
0.1252441406
 40
0.1254882812
 40
0.1259765625
 40
0.126953125
 40
0.1279296875
 40
0.12890625
 40
0.130859375
 40
0.1328125
 40
0.13671875
 40
0.140625
 40
0.14453125
 40
0.1484375
 40
0.15625
 40
0.1640625
 40
0.16796875
 40
0.171875
 40
0.17578125
 40
0.1796875
 40
0.181640625
 40
0.18359375
 40
0.1845703125
 40
0.185546875
 40
0.1865234375
 40
0.1870117188
 40
0.1872558594
 40
0.1875
 40
0.1877441406
 40
0.1879882812
 40
0.1884765625
 40
0.189453125
 40
0.1904296875
 40
0.19140625
 40
0.193359375
 40
0.1953125
 40
0.19921875
 40
0.203125
 40
0.20703125
 40
0.2109375
 40
0.21875
 40
0.2265625
 40
0.23046875
 40
0.234375
 40
0.23828125
 40
0.2421875
 40
0.244140625
 40
0.24609375
 40
0.2470703125
 40
0.248046875
 40
0.2490234375
 40
0.2495117188
 40
0.2497558594
 40
0.25
 40
0.2502441406
 40
0.2504882812
 40
0.2509765625
 40
0.251953125
 40
0.2529296875
 40
0.25390625
 40
0.255859375
 40
0.2578125
 40
0.26171875
 40
0.265625
 40
0.26953125
 40
0.2734375
 40
0.28125
 40
0.2890625
 40
0.29296875
 40
0.296875
 40
0.30078125
 40
0.3046875
 40
0.306640625
 40
0.30859375
 40
0.3095703125
 40
0.310546875
 40
0.3115234375
 40
0.3120117188
 40
0.3122558594
 40
0.3125
 40
0.3127441406
 40
0.3129882812
 40
0.3134765625
 40
0.314453125
 40
0.3154296875
 40
0.31640625
 40
0.318359375
 40
0.3203125
 40
0.32421875
 40
0.328125
 40
0.33203125
 40
0.3359375
 40
0.34375
 40
0.3515625
 40
0.35546875
 40
0.359375
 40
0.36328125
 40
0.3671875
 40
0.369140625
 40
0.37109375
 40
0.3720703125
 40
0.373046875
 40
0.3740234375
 40
0.3745117188
 40
0.3747558594
 40
0.375
 40
0.3752441406
 40
0.3754882812
 40
0.3759765625
 40
0.376953125
 40
0.3779296875
 40
0.37890625
 40
0.380859375
 40
0.3828125
 40
0.38671875
 40
0.390625
 40
0.39453125
 40
0.3984375
 40
0.40625
 40
0.4140625
 40
0.41796875
 40
0.421875
 40
0.42578125
 40
0.4296875
 40
0.431640625
 40
0.43359375
 40
0.4345703125
 40
0.435546875
 40
0.4365234375
 40
0.4370117188
 40
0.4372558594
 40
0.4375
 40
0.4377441406
 40
0.4379882812
 40
0.4384765625
 40
0.439453125
 40
0.4404296875
 40
0.44140625
 40
0.443359375
 40
0.4453125
 40
0.44921875
 40
0.453125
 40
0.45703125
 40
0.4609375
 40
0.46875
 40
0.4765625
 40
0.48046875
 40
0.484375
 40
0.48828125
 40
0.4921875
 40
0.494140625
 40
0.49609375
 40
0.4970703125
 40
0.498046875
 40
0.4990234375
 40
0.4995117188
 40
0.4997558594
 40
0.5
 40
0.5002441406
 40
0.5004882812
 40
0.5009765625
 40
0.501953125
 40
0.5029296875
 40
0.50390625
 40
0.505859375
 40
0.5078125
 40
0.51171875
 40
0.515625
 40
0.51953125
 40
0.5234375
 40
0.53125
 40
0.5390625
 40
0.54296875
 40
0.546875
 40
0.55078125
 40
0.5546875
 40
0.556640625
 40
0.55859375
 40
0.5595703125
 40
0.560546875
 40
0.5615234375
 40
0.5620117188
 40
0.5622558594
 40
0.5625
 40
0.5627441406
 40
0.5629882812
 40
0.5634765625
 40
0.564453125
 40
0.5654296875
 40
0.56640625
 40
0.568359375
 40
0.5703125
 40
0.57421875
 40
0.578125
 40
0.58203125
 40
0.5859375
 40
0.59375
 40
0.6015625
 40
0.60546875
 40
0.609375
 40
0.61328125
 40
0.6171875
 40
0.619140625
 40
0.62109375
 40
0.6220703125
 40
0.623046875
 40
0.6240234375
 40
0.6245117188
 40
0.6247558594
 40
0.625
 40
0.6252441406
 40
0.6254882812
 40
0.6259765625
 40
0.626953125
 40
0.6279296875
 40
0.62890625
 40
0.630859375
 40
0.6328125
 40
0.63671875
 40
0.640625
 40
0.64453125
 40
0.6484375
 40
0.65625
 40
0.6640625
 40
0.66796875
 40
0.671875
 40
0.67578125
 40
0.6796875
 40
0.681640625
 40
0.68359375
 40
0.6845703125
 40
0.685546875
 40
0.6865234375
 40
0.6870117188
 40
0.6872558594
 40
0.6875
 40
0.6877441406
 40
0.6879882812
 40
0.6884765625
 40
0.689453125
 40
0.6904296875
 40
0.69140625
 40
0.693359375
 40
0.6953125
 40
0.69921875
 40
0.703125
 40
0.70703125
 40
0.7109375
 40
0.71875
 40
0.7265625
 40
0.73046875
 40
0.734375
 40
0.73828125
 40
0.7421875
 40
0.744140625
 40
0.74609375
 40
0.7470703125
 40
0.748046875
 40
0.7490234375
 40
0.7495117188
 40
0.7497558594
 40
0.75
 40
0.7502441406
 40
0.7504882812
 40
0.7509765625
 40
0.751953125
 40
0.7529296875
 40
0.75390625
 40
0.755859375
 40
0.7578125
 40
0.76171875
 40
0.765625
 40
0.76953125
 40
0.7734375
 40
0.78125
 40
0.7890625
 40
0.79296875
 40
0.796875
 40
0.80078125
 40
0.8046875
 40
0.806640625
 40
0.80859375
 40
0.8095703125
 40
0.810546875
 40
0.8115234375
 40
0.8120117188
 40
0.8122558594
 40
0.8125
 40
0.8127441406
 40
0.8129882812
 40
0.8134765625
 40
0.814453125
 40
0.8154296875
 40
0.81640625
 40
0.818359375
 40
0.8203125
 40
0.82421875
 40
0.828125
 40
0.83203125
 40
0.8359375
 40
0.84375
 40
0.8515625
 40
0.85546875
 40
0.859375
 40
0.86328125
 40
0.8671875
 40
0.869140625
 40
0.87109375
 40
0.8720703125
 40
0.873046875
 40
0.8740234375
 40
0.8745117188
 40
0.8747558594
 40
0.875
 40
0.8752441406
 40
0.8754882812
 40
0.8759765625
 40
0.876953125
 40
0.8779296875
 40
0.87890625
 40
0.880859375
 40
0.8828125
 40
0.88671875
 40
0.890625
 40
0.89453125
 40
0.8984375
 40
0.90625
 40
0.9140625
 40
0.91796875
 40
0.921875
 40
0.92578125
 40
0.9296875
 40
0.931640625
 40
0.93359375
 40
0.9345703125
 40
0.935546875
 40
0.9365234375
 40
0.9370117188
 40
0.9372558594
 40
0.9375
 40
0.9377441406
 40
0.9379882812
 40
0.9384765625
 40
0.939453125
 40
0.9404296875
 40
0.94140625
 40
0.943359375
 40
0.9453125
 40
0.94921875
 40
0.953125
 40
0.95703125
 40
0.9609375
 40
0.96875
 40
0.9765625
 40
0.984375
 40
1.0
 40
1.0
 40
1.0
 40
1.0
 10
9.1628829275
 20
7.7618366548
 30
0.0
 10
9.1566165536
 20
7.761656806
 30
0.0
 10
9.1472169929
 20
7.7613870328
 30
0.0
 10
9.1346842452
 20
7.7610273352
 30
0.0
 10
9.1252846845
 20
7.7607575618
 30
0.0
 10
9.1174517171
 20
7.7605327511
 30
0.0
 10
9.1111853434
 20
7.7603529016
 30
0.0
 10
9.1064855626
 20
7.760218017
 30
0.0
 10
9.1017857837
 20
7.7600831229
 30
0.0
 10
9.0978692955
 20
7.7599707406
 30
0.0
 10
9.0947361179
 20
7.7598807688
 30
0.0
 10
9.0927778525
 20
7.7598246867
 30
0.0
 10
9.0912113074
 20
7.7597794769
 30
0.0
 10
9.0900362146
 20
7.7597465114
 30
0.0
 10
9.0890575558
 20
7.7597160443
 30
0.0
 10
9.0883713462
 20
7.7597005966
 30
0.0
 10
9.0879810196
 20
7.7596825893
 30
0.0
 10
9.0876832234
 20
7.7596949443
 30
0.0
 10
9.0874047353
 20
7.7596084474
 30
0.0
 10
9.087026683
 20
7.7595275988
 30
0.0
 10
9.0863682294
 20
7.7593700487
 30
0.0
 10
9.0854259408
 20
7.7591533762
 30
0.0
 10
9.0842958967
 20
7.7588897741
 30
0.0
 10
9.0827889259
 20
7.7585395603
 30
0.0
 10
9.0809052965
 20
7.7581013632
 30
0.0
 10
9.0778914424
 20
7.757400488
 30
0.0
 10
9.074124141
 20
7.7565243116
 30
0.0
 10
9.0696033723
 20
7.7554729352
 30
0.0
 10
9.0650826055
 20
7.7544215494
 30
0.0
 10
9.0590549158
 20
7.753019705
 30
0.0
 10
9.0515203039
 20
7.7512673982
 30
0.0
 10
9.0439856917
 20
7.7495150923
 30
0.0
 10
9.0379580024
 20
7.7481132465
 30
0.0
 10
9.0334372344
 20
7.7470618646
 30
0.0
 10
9.02891647
 20
7.7460104737
 30
0.0
 10
9.0251491551
 20
7.7451343427
 30
0.0
 10
9.0221353285
 20
7.7444333748
 30
0.0
 10
9.0202516293
 20
7.7439954136
 30
0.0
 10
9.0187448017
 20
7.7436447156
 30
0.0
 10
9.0176143202
 20
7.7433825927
 30
0.0
 10
9.0166734003
 20
7.743161292
 30
0.0
 10
9.0160125033
 20
7.743012004
 30
0.0
 10
9.0156383658
 20
7.7429179176
 30
0.0
 10
9.0153478527
 20
7.7428720832
 30
0.0
 10
9.0150952204
 20
7.7427317164
 30
0.0
 10
9.014745164
 20
7.7425775347
 30
0.0
 10
9.0141387217
 20
7.7422923535
 30
0.0
 10
9.0132691569
 20
7.7418929838
 30
0.0
 10
9.0122270568
 20
7.7414103021
 30
0.0
 10
9.0108371088
 20
7.7407679274
 30
0.0
 10
9.0090998386
 20
7.7399645479
 30
0.0
 10
9.0063201141
 20
7.7386793705
 30
0.0
 10
9.0028454902
 20
7.7370728198
 30
0.0
 10
8.9986759279
 20
7.7351449928
 30
0.0
 10
8.9945063693
 20
7.7332171567
 30
0.0
 10
8.9889469565
 20
7.7306467119
 30
0.0
 10
8.981997691
 20
7.7274336546
 30
0.0
 10
8.9750484251
 20
7.7242205981
 30
0.0
 10
8.9694890129
 20
7.7216501519
 30
0.0
 10
8.9653194525
 20
7.7197223197
 30
0.0
 10
8.9611498967
 20
7.7177944785
 30
0.0
 10
8.9576752525
 20
7.7161879718
 30
0.0
 10
8.9548955695
 20
7.7149027047
 30
0.0
 10
8.9531581938
 20
7.7140995534
 30
0.0
 10
8.9517684623
 20
7.7134567102
 30
0.0
 10
8.950725701
 20
7.71297546
 30
0.0
 10
8.9498582049
 20
7.7125716118
 30
0.0
 10
8.9492480696
 20
7.7122944253
 30
0.0
 10
8.9489039303
 20
7.712127434
 30
0.0
 10
8.9486331227
 20
7.7120264142
 30
0.0
 10
8.9484108727
 20
7.7118327991
 30
0.0
 10
8.9480976019
 20
7.711606944
 30
0.0
 10
8.9475572695
 20
7.7111966491
 30
0.0
 10
8.9467812404
 20
7.710618381
 30
0.0
 10
8.9458517713
 20
7.7099210918
 30
0.0
 10
8.9446118625
 20
7.708992549
 30
0.0
 10
8.9430621876
 20
7.7078314679
 30
0.0
 10
8.9405825898
 20
7.7059739631
 30
0.0
 10
8.937483133
 20
7.7036520048
 30
0.0
 10
8.9337637675
 20
7.7008656881
 30
0.0
 10
8.9300444067
 20
7.6980793624
 30
0.0
 10
8.9250852573
 20
7.6943642647
 30
0.0
 10
8.9188863211
 20
7.6897203914
 30
0.0
 10
8.9126873845
 20
7.6850765188
 30
0.0
 10
8.9077282359
 20
7.68136142
 30
0.0
 10
8.9040088725
 20
7.6785750976
 30
0.0
 10
8.9002895166
 20
7.6757887685
 30
0.0
 10
8.8971900301
 20
7.6734668487
 30
0.0
 10
8.8947104928
 20
7.6716092657
 30
0.0
 10
8.8931606638
 20
7.6704483836
 30
0.0
 10
8.8919210715
 20
7.6695194321
 30
0.0
 10
8.8909906354
 20
7.6688233915
 30
0.0
 10
8.8902176319
 20
7.6682412169
 30
0.0
 10
8.8896718981
 20
7.6678378958
 30
0.0
 10
8.8893672818
 20
7.6676008669
 30
0.0
 10
8.8891184482
 20
7.6674415742
 30
0.0
 10
8.8889474842
 20
7.6672116452
 30
0.0
 10
8.8886923704
 20
7.6669297119
 30
0.0
 10
8.8882585766
 20
7.666424849
 30
0.0
 10
8.8876322547
 20
7.6657096179
 30
0.0
 10
8.8868835005
 20
7.6648487718
 30
0.0
 10
8.8858841724
 20
7.6637018742
 30
0.0
 10
8.884635351
 20
7.6622679449
 30
0.0
 10
8.8826370474
 20
7.6599738298
 30
0.0
 10
8.8801392329
 20
7.6571061271
 30
0.0
 10
8.8771418276
 20
7.653664909
 30
0.0
 10
8.8741444298
 20
7.6502236842
 30
0.0
 10
8.8701478967
 20
7.6456353868
 30
0.0
 10
8.8651522314
 20
7.6399000142
 30
0.0
 10
8.8601565654
 20
7.6341646421
 30
0.0
 10
8.8561600334
 20
7.6295763439
 30
0.0
 10
8.8531626323
 20
7.6261351217
 30
0.0
 10
8.8501652392
 20
7.6226938937
 30
0.0
 10
8.8476673869
 20
7.6198262219
 30
0.0
 10
8.8456691603
 20
7.6175320437
 30
0.0
 10
8.8444201431
 20
7.616098275
 30
0.0
 10
8.8434212168
 20
7.6149510478
 30
0.0
 10
8.8426712351
 20
7.6140912088
 30
0.0
 10
8.8420487538
 20
7.6133728267
 30
0.0
 10
8.8416081039
 20
7.6128735889
 30
0.0
 10
8.8413639752
 20
7.6125826427
 30
0.0
 10
8.8411592686
 20
7.6123803984
 30
0.0
 10
8.8410371668
 20
7.6121171264
 30
0.0
 10
8.8408455509
 20
7.6117873842
 30
0.0
 10
8.8405236479
 20
7.6112004172
 30
0.0
 10
8.8400567678
 20
7.6103670782
 30
0.0
 10
8.8394995159
 20
7.6093648519
 30
0.0
 10
8.8387554641
 20
7.6080293254
 30
0.0
 10
8.8378257586
 20
7.6063596519
 30
0.0
 10
8.836338029
 20
7.6036883227
 30
0.0
 10
8.8344784359
 20
7.6003491102
 30
0.0
 10
8.8322468946
 20
7.596342077
 30
0.0
 10
8.8300153612
 20
7.592335038
 30
0.0
 10
8.8270399806
 20
7.5869923214
 30
0.0
 10
8.8233207559
 20
7.5803139249
 30
0.0
 10
8.8196015305
 20
7.5736355288
 30
0.0
 10
8.816626151
 20
7.5682928114
 30
0.0
 10
8.8143946142
 20
7.5642857746
 30
0.0
 10
8.8121630861
 20
7.5602787334
 30
0.0
 10
8.810303452
 20
7.5569395458
 30
0.0
 10
8.8088158059
 20
7.5542681659
 30
0.0
 10
8.8078858877
 20
7.5525986212
 30
0.0
 10
8.8071422725
 20
7.5512628303
 30
0.0
 10
8.8065836867
 20
7.5502614118
 30
0.0
 10
8.8061209799
 20
7.5494255457
 30
0.0
 10
8.8057916269
 20
7.54884309
 30
0.0
 10
8.8056119478
 20
7.5485061195
 30
0.0
 10
8.80545318
 20
7.5482650504
 30
0.0
 10
8.8053861849
 20
7.5479794155
 30
0.0
 10
8.8052648467
 20
7.5476141141
 30
0.0
 10
8.8050674195
 20
7.5469675939
 30
0.0
 10
8.8047775831
 20
7.5460477802
 30
0.0
 10
8.804433117
 20
7.544942383
 30
0.0
 10
8.8039726632
 20
7.5434690861
 30
0.0
 10
8.8033974951
 20
7.5416272712
 30
0.0
 10
8.8024770029
 20
7.5386804757
 30
0.0
 10
8.8013264644
 20
7.5349969441
 30
0.0
 10
8.7999457852
 20
7.5305767222
 30
0.0
 10
8.7985651149
 20
7.5261564959
 30
0.0
 10
8.796724218
 20
7.5202628625
 30
0.0
 10
8.7944230981
 20
7.5128958201
 30
0.0
 10
8.7921219773
 20
7.505528778
 30
0.0
 10
8.7902810817
 20
7.499635144
 30
0.0
 10
8.7889004076
 20
7.4952149194
 30
0.0
 10
8.7875197427
 20
7.4907946914
 30
0.0
 10
8.7863691597
 20
7.4871111786
 30
0.0
 10
8.7854487582
 20
7.4841643447
 30
0.0
 10
8.7848733593
 20
7.4823226275
 30
0.0
 10
8.7844133792
 20
7.4808491301
 30
0.0
 10
8.7840674659
 20
7.4797443454
 30
0.0
 10
8.7837821575
 20
7.4788226152
 30
0.0
 10
8.783576647
 20
7.4781795163
 30
0.0
 10
8.7834682604
 20
7.4778087331
 30
0.0
 10
8.7833614822
 20
7.4775399367
 30
0.0
 10
8.7833521329
 20
7.4772356253
 30
0.0
 10
8.7833056829
 20
7.4768422649
 30
0.0
 10
8.7832402293
 20
7.4761481123
 30
0.0
 10
8.7831384461
 20
7.4751594833
 30
0.0
 10
8.7830198495
 20
7.4739718369
 30
0.0
 10
8.7828604831
 20
7.4723887595
 30
0.0
 10
8.7826616988
 20
7.4704097582
 30
0.0
 10
8.7823434072
 20
7.4672434426
 30
0.0
 10
8.7819456239
 20
7.4632855184
 30
0.0
 10
8.7814682492
 20
7.4585360221
 30
0.0
 10
8.7809908838
 20
7.4537865224
 30
0.0
 10
8.7803543932
 20
7.4474538573
 30
0.0
 10
8.7795587813
 20
7.4395380255
 30
0.0
 10
8.7787631686
 20
7.4316221939
 30
0.0
 10
8.7781266794
 20
7.4252895285
 30
0.0
 10
8.77764931
 20
7.4205400295
 30
0.0
 10
8.7771719502
 20
7.4157905307
 30
0.0
 10
8.7767741203
 20
7.4118326144
 30
0.0
 10
8.7764559238
 20
7.4086662826
 30
0.0
 10
8.7762568973
 20
7.4066873224
 30
0.0
 10
8.7760980282
 20
7.4051041608
 30
0.0
 10
8.7759779123
 20
7.4039167714
 30
0.0
 10
8.7758808826
 20
7.4029273383
 30
0.0
 10
8.7758069432
 20
7.4022346212
 30
0.0
 10
8.7757740895
 20
7.4018389608
 30
0.0
 10
8.7757229768
 20
7.4015417143
 30
0.0
 10
8.7757730552
 20
7.4012463834
 30
0.0
 10
8.7758045297
 20
7.4008519408
 30
0.0
 10
8.7758760555
 20
7.4001619775
 30
0.0
 10
8.7759696374
 20
7.3991761528
 30
0.0
 10
8.7760856158
 20
7.397993233
 30
0.0
 10
8.7762389683
 20
7.3964159821
 30
0.0
 10
8.776431099
 20
7.3944444269
 30
0.0
 10
8.7767382622
 20
7.3912899338
 30
0.0
 10
8.7771223005
 20
7.3873468191
 30
0.0
 10
8.7775831104
 20
7.3826150808
 30
0.0
 10
8.7780439299
 20
7.3778833427
 30
0.0
 10
8.7786583525
 20
7.3715743584
 30
0.0
 10
8.7794263821
 20
7.3636881281
 30
0.0
 10
8.7801944109
 20
7.3558018978
 30
0.0
 10
8.7808088349
 20
7.3494929136
 30
0.0
 10
8.7812696504
 20
7.3447611752
 30
0.0
 10
8.7817304752
 20
7.340029438
 30
0.0
 10
8.7821144669
 20
7.3360863199
 30
0.0
 10
8.7824217253
 20
7.3329318338
 30
0.0
 10
8.7826136137
 20
7.3309602609
 30
0.0
 10
8.7827674636
 20
7.3293830462
 30
0.0
 10
8.7828819221
 20
7.3282000157
 30
0.0
 10
8.7829802595
 20
7.3272145372
 30
0.0
 10
8.7830432959
 20
7.3265239561
 30
0.0
 10
8.7830883725
 20
7.3261305033
 30
0.0
 10
8.7830966698
 20
7.3258321318
 30
0.0
 10
8.7832024799
 20
7.3255463057
 30
0.0
 10
8.7833095464
 20
7.3251608283
 30
0.0
 10
8.7835127604
 20
7.3244882817
 30
0.0
 10
8.7837947809
 20
7.323526435
 30
0.0
 10
8.7841367518
 20
7.3223726751
 30
0.0
 10
8.7845914744
 20
7.3208341692
 30
0.0
 10
8.7851603017
 20
7.3189110915
 30
0.0
 10
8.7860701883
 20
7.3158341366
 30
0.0
 10
8.787207628
 20
7.3119879534
 30
0.0
 10
8.7885725207
 20
7.3073725291
 30
0.0
 10
8.7899374228
 20
7.302757106
 30
0.0
 10
8.7917572889
 20
7.2966032081
 30
0.0
 10
8.7940321228
 20
7.288910836
 30
0.0
 10
8.7963069559
 20
7.2812184636
 30
0.0
 10
8.7981268233
 20
7.275064566
 30
0.0
 10
8.7994917215
 20
7.270449142
 30
0.0
 10
8.8008566286
 20
7.2658337211
 30
0.0
 10
8.8019940237
 20
7.2619875275
 30
0.0
 10
8.8029040011
 20
7.2589105937
 30
0.0
 10
8.8034725974
 20
7.2569874623
 30
0.0
 10
8.8039277942
 20
7.2554490667
 30
0.0
 10
8.8042683162
 20
7.2542949699
 30
0.0
 10
8.8045548699
 20
7.2533341774
 30
0.0
 10
8.8047499914
 20
7.2526597487
 30
0.0
 10
8.8048700243
 20
7.2522772869
 30
0.0
 10
8.8049360058
 20
7.251982198
 30
0.0
 10
8.8050938927
 20
7.2517186161
 30
0.0
 10
8.8052723509
 20
7.2513561836
 30
0.0
 10
8.8055995891
 20
7.2507270473
 30
0.0
 10
8.8060592633
 20
7.2498256039
 30
0.0
 10
8.8066142148
 20
7.2487450178
 30
0.0
 10
8.8073529827
 20
7.2473038361
 30
0.0
 10
8.8082768424
 20
7.245502496
 30
0.0
 10
8.8097547944
 20
7.2426202753
 30
0.0
 10
8.811602311
 20
7.2390175256
 30
0.0
 10
8.8138192981
 20
7.2346942148
 30
0.0
 10
8.8160362941
 20
7.2303709069
 30
0.0
 10
8.8189922855
 20
7.2246064954
 30
0.0
 10
8.822687276
 20
7.2174009815
 30
0.0
 10
8.8263822658
 20
7.2101954672
 30
0.0
 10
8.8293382584
 20
7.2044310562
 30
0.0
 10
8.8315552507
 20
7.2001077468
 30
0.0
 10
8.8337722515
 20
7.1957844416
 30
0.0
 10
8.8356197256
 20
7.1921816745
 30
0.0
 10
8.8370977644
 20
7.1892994892
 30
0.0
 10
8.8380214031
 20
7.187498059
 30
0.0
 10
8.8387606245
 20
7.1860570623
 30
0.0
 10
8.8393141905
 20
7.184975911
 30
0.0
 10
8.8397781997
 20
7.1840762358
 30
0.0
 10
8.8400976992
 20
7.1834439431
 30
0.0
 10
8.8402885567
 20
7.1830865678
 30
0.0
 10
8.8404083571
 20
7.182807452
 30
0.0
 10
8.8406173852
 20
7.1825707059
 30
0.0
 10
8.8408649658
 20
7.1822402653
 30
0.0
 10
8.8413127328
 20
7.1816688802
 30
0.0
 10
8.8419448187
 20
7.1808490157
 30
0.0
 10
8.8427065668
 20
7.1798667193
 30
0.0
 10
8.8437210976
 20
7.1785564525
 30
0.0
 10
8.8449896491
 20
7.1769188033
 30
0.0
 10
8.8470191145
 20
7.1742984616
 30
0.0
 10
8.8495560208
 20
7.1710230697
 30
0.0
 10
8.8526002765
 20
7.1670925844
 30
0.0
 10
8.8556445406
 20
7.1631621031
 30
0.0
 10
8.8597035566
 20
7.15792146
 30
0.0
 10
8.8647773275
 20
7.1513706566
 30
0.0
 10
8.8698510979
 20
7.1448198528
 30
0.0
 10
8.8739101148
 20
7.1395792104
 30
0.0
 10
8.8769543759
 20
7.1356487268
 30
0.0
 10
8.8799986432
 20
7.1317182502
 30
0.0
 10
8.8825355132
 20
7.1284428312
 30
0.0
 10
8.8845650527
 20
7.1258225449
 30
0.0
 10
8.8858334158
 20
7.1241847546
 30
0.0
 10
8.8868483332
 20
7.1228747775
 30
0.0
 10
8.8876088998
 20
7.1218915959
 30
0.0
 10
8.8882446824
 20
7.1210745008
 30
0.0
 10
8.8886858502
 20
7.1204981719
 30
0.0
 10
8.8889440044
 20
7.1201756525
 30
0.0
 10
8.8891205538
 20
7.1199145752
 30
0.0
 10
8.8893623392
 20
7.1197268433
 30
0.0
 10
8.8896619647
 20
7.1194509505
 30
0.0
 10
8.8901969113
 20
7.1189800579
 30
0.0
 10
8.8909555779
 20
7.1183011224
 30
0.0
 10
8.8918683503
 20
7.1174890672
 30
0.0
 10
8.8930845516
 20
7.1164053953
 30
0.0
 10
8.8946050869
 20
7.1150511244
 30
0.0
 10
8.8970377848
 20
7.1128841126
 30
0.0
 10
8.9000787116
 20
7.1101754091
 30
0.0
 10
8.9037278004
 20
7.1069249386
 30
0.0
 10
8.9073768955
 20
7.1036744752
 30
0.0
 10
8.9122423534
 20
7.0993405215
 30
0.0
 10
8.9183241765
 20
7.0939230803
 30
0.0
 10
8.9244059992
 20
7.0885056384
 30
0.0
 10
8.9292714579
 20
7.0841716858
 30
0.0
 10
8.9329205506
 20
7.0809212193
 30
0.0
 10
8.9365696485
 20
7.0776707603
 30
0.0
 10
8.939610547
 20
7.074962021
 30
0.0
 10
8.9420433026
 20
7.0727950822
 30
0.0
 10
8.9435636909
 20
7.0714406257
 30
0.0
 10
8.9447801939
 20
7.0703573346
 30
0.0
 10
8.9456920444
 20
7.0695441159
 30
0.0
 10
8.9464535957
 20
7.0688688208
 30
0.0
 10
8.9469833926
 20
7.0683914294
 30
0.0
 10
8.9472912692
 20
7.0681259494
 30
0.0
 10
8.9475077099
 20
7.0679062326
 30
0.0
 10
8.9477794498
 20
7.0677652856
 30
0.0
 10
8.9481224806
 20
7.0675498804
 30
0.0
 10
8.9487317717
 20
7.0671857229
 30
0.0
 10
8.9495974889
 20
7.0666588052
 30
0.0
 10
8.9506383607
 20
7.0660293686
 30
0.0
 10
8.9520254873
 20
7.0651891192
 30
0.0
 10
8.9537596361
 20
7.06413915
 30
0.0
 10
8.9565341398
 20
7.0624590079
 30
0.0
 10
8.9600023155
 20
7.060358896
 30
0.0
 10
8.9641641066
 20
7.0578387335
 30
0.0
 10
8.9683259029
 20
7.0553185786
 30
0.0
 10
8.9738749629
 20
7.0519583694
 30
0.0
 10
8.9808112886
 20
7.0477581089
 30
0.0
 10
8.9877476138
 20
7.0435578477
 30
0.0
 10
8.9932966744
 20
7.0401976396
 30
0.0
 10
8.9974584689
 20
7.0376774812
 30
0.0
 10
9.001620267
 20
7.0351573315
 30
0.0
 10
9.0050884208
 20
7.0330571801
 30
0.0
 10
9.0078629692
 20
7.0313771185
 30
0.0
 10
9.009597004
 20
7.0303269445
 30
0.0
 10
9.0109843647
 20
7.0294871155
 30
0.0
 10
9.0120245213
 20
7.0288563946
 30
0.0
 10
9.0128924763
 20
7.028333495
 30
0.0
 10
9.0134977726
 20
7.0279621645
 30
0.0
 10
9.0138472039
 20
7.0277582523
 30
0.0
 10
9.0140992836
 20
7.0275820027
 30
0.0
 10
9.0143895646
 20
7.0274948765
 30
0.0
 10
9.0147632809
 20
7.027347621
 30
0.0
 10
9.0154234927
 20
7.027104408
 30
0.0
 10
9.0163634066
 20
7.0267493883
 30
0.0
 10
9.0174926926
 20
7.026326606
 30
0.0
 10
9.0189979221
 20
7.0257617641
 30
0.0
 10
9.020879625
 20
7.0250560995
 30
0.0
 10
9.0238902569
 20
7.0239268193
 30
0.0
 10
9.0276535786
 20
7.0225152935
 30
0.0
 10
9.032169551
 20
7.0208214306
 30
0.0
 10
9.036685527
 20
7.0191275762
 30
0.0
 10
9.0427068271
 20
7.0168691008
 30
0.0
 10
9.0502334527
 20
7.0140460076
 30
0.0
 10
9.0577600781
 20
7.0112229136
 30
0.0
 10
9.0637813786
 20
7.0089644394
 30
0.0
 10
9.0682973533
 20
7.0072705813
 30
0.0
 10
9.0728133307
 20
7.0055767324
 30
0.0
 10
9.0765766367
 20
7.0041651632
 30
0.0
 10
9.0795873007
 20
7.0030359715
 30
0.0
 10
9.081468922
 20
7.0023300817
 30
0.0
 10
9.0829743191
 20
7.0017657019
 30
0.0
 10
9.0841030929
 20
7.0013415079
 30
0.0
 10
9.0850446093
 20
7.0009909052
 30
0.0
 10
9.0857019604
 20
7.0007398072
 30
0.0
 10
9.0860802603
 20
7.0006051854
 30
0.0
 10
9.0863564618
 20
7.0004792525
 30
0.0
 10
9.0866614217
 20
7.0004487542
 30
0.0
 10
9.0870580036
 20
7.0003748012
 30
0.0
 10
9.0877566957
 20
7.0002608931
 30
0.0
 10
9.0887523839
 20
7.0000900587
 30
0.0
 10
9.0899482555
 20
6.9998885281
 30
0.0
 10
9.0915423857
 20
6.9996186084
 30
0.0
 10
9.0935351736
 20
6.9992816238
 30
0.0
 10
9.0967235642
 20
6.9987422166
 30
0.0
 10
9.1007090765
 20
6.9980680371
 30
0.0
 10
9.105491681
 20
6.9972589876
 30
0.0
 10
9.1102742882
 20
6.9964499472
 30
0.0
 10
9.1166510969
 20
6.9953712235
 30
0.0
 10
9.1246221081
 20
6.99402282
 30
0.0
 10
9.1341873214
 20
6.9924047353
 30
0.0
 10
9.1469409391
 20
6.9902472892
 30
0.0
 10
9.1565061524
 20
6.9886292046
 30
0.0
 10
9.1628829613
 20
6.9875504816
 30
0.0
  0
SPLINE
  5
328
100
AcDbEntity
  8
0
100
AcDbSpline
 62
4
  6
CONTINUOUS
 70
0
 71
3
 72
403
 73
399
 74
0
 42
0.0000001
 43
0.0000001
 44
0.0000000001
 40
0.0
 40
0.0
 40
0.0
 40
0.0
 40
0.015625
 40
0.0234375
 40
0.03125
 40
0.0390625
 40
0.04296875
 40
0.046875
 40
0.05078125
 40
0.0546875
 40
0.056640625
 40
0.05859375
 40
0.0595703125
 40
0.060546875
 40
0.0615234375
 40
0.0620117188
 40
0.0622558594
 40
0.0625
 40
0.0627441406
 40
0.0629882812
 40
0.0634765625
 40
0.064453125
 40
0.0654296875
 40
0.06640625
 40
0.068359375
 40
0.0703125
 40
0.07421875
 40
0.078125
 40
0.08203125
 40
0.0859375
 40
0.09375
 40
0.1015625
 40
0.10546875
 40
0.109375
 40
0.11328125
 40
0.1171875
 40
0.119140625
 40
0.12109375
 40
0.1220703125
 40
0.123046875
 40
0.1240234375
 40
0.1245117188
 40
0.1247558594
 40
0.125
 40
0.1252441406
 40
0.1254882812
 40
0.1259765625
 40
0.126953125
 40
0.1279296875
 40
0.12890625
 40
0.130859375
 40
0.1328125
 40
0.13671875
 40
0.140625
 40
0.14453125
 40
0.1484375
 40
0.15625
 40
0.1640625
 40
0.16796875
 40
0.171875
 40
0.17578125
 40
0.1796875
 40
0.181640625
 40
0.18359375
 40
0.1845703125
 40
0.185546875
 40
0.1865234375
 40
0.1870117188
 40
0.1872558594
 40
0.1875
 40
0.1877441406
 40
0.1879882812
 40
0.1884765625
 40
0.189453125
 40
0.1904296875
 40
0.19140625
 40
0.193359375
 40
0.1953125
 40
0.19921875
 40
0.203125
 40
0.20703125
 40
0.2109375
 40
0.21875
 40
0.2265625
 40
0.23046875
 40
0.234375
 40
0.23828125
 40
0.2421875
 40
0.244140625
 40
0.24609375
 40
0.2470703125
 40
0.248046875
 40
0.2490234375
 40
0.2495117188
 40
0.2497558594
 40
0.25
 40
0.2502441406
 40
0.2504882812
 40
0.2509765625
 40
0.251953125
 40
0.2529296875
 40
0.25390625
 40
0.255859375
 40
0.2578125
 40
0.26171875
 40
0.265625
 40
0.26953125
 40
0.2734375
 40
0.28125
 40
0.2890625
 40
0.29296875
 40
0.296875
 40
0.30078125
 40
0.3046875
 40
0.306640625
 40
0.30859375
 40
0.3095703125
 40
0.310546875
 40
0.3115234375
 40
0.3120117188
 40
0.3122558594
 40
0.3125
 40
0.3127441406
 40
0.3129882812
 40
0.3134765625
 40
0.314453125
 40
0.3154296875
 40
0.31640625
 40
0.318359375
 40
0.3203125
 40
0.32421875
 40
0.328125
 40
0.33203125
 40
0.3359375
 40
0.34375
 40
0.3515625
 40
0.35546875
 40
0.359375
 40
0.36328125
 40
0.3671875
 40
0.369140625
 40
0.37109375
 40
0.3720703125
 40
0.373046875
 40
0.3740234375
 40
0.3745117188
 40
0.3747558594
 40
0.375
 40
0.3752441406
 40
0.3754882812
 40
0.3759765625
 40
0.376953125
 40
0.3779296875
 40
0.37890625
 40
0.380859375
 40
0.3828125
 40
0.38671875
 40
0.390625
 40
0.39453125
 40
0.3984375
 40
0.40625
 40
0.4140625
 40
0.41796875
 40
0.421875
 40
0.42578125
 40
0.4296875
 40
0.431640625
 40
0.43359375
 40
0.4345703125
 40
0.435546875
 40
0.4365234375
 40
0.4370117188
 40
0.4372558594
 40
0.4375
 40
0.4377441406
 40
0.4379882812
 40
0.4384765625
 40
0.439453125
 40
0.4404296875
 40
0.44140625
 40
0.443359375
 40
0.4453125
 40
0.44921875
 40
0.453125
 40
0.45703125
 40
0.4609375
 40
0.46875
 40
0.4765625
 40
0.48046875
 40
0.484375
 40
0.48828125
 40
0.4921875
 40
0.494140625
 40
0.49609375
 40
0.4970703125
 40
0.498046875
 40
0.4990234375
 40
0.4995117188
 40
0.4997558594
 40
0.5
 40
0.5002441406
 40
0.5004882812
 40
0.5009765625
 40
0.501953125
 40
0.5029296875
 40
0.50390625
 40
0.505859375
 40
0.5078125
 40
0.51171875
 40
0.515625
 40
0.51953125
 40
0.5234375
 40
0.53125
 40
0.5390625
 40
0.54296875
 40
0.546875
 40
0.55078125
 40
0.5546875
 40
0.556640625
 40
0.55859375
 40
0.5595703125
 40
0.560546875
 40
0.5615234375
 40
0.5620117188
 40
0.5622558594
 40
0.5625
 40
0.5627441406
 40
0.5629882812
 40
0.5634765625
 40
0.564453125
 40
0.5654296875
 40
0.56640625
 40
0.568359375
 40
0.5703125
 40
0.57421875
 40
0.578125
 40
0.58203125
 40
0.5859375
 40
0.59375
 40
0.6015625
 40
0.60546875
 40
0.609375
 40
0.61328125
 40
0.6171875
 40
0.619140625
 40
0.62109375
 40
0.6220703125
 40
0.623046875
 40
0.6240234375
 40
0.6245117188
 40
0.6247558594
 40
0.625
 40
0.6252441406
 40
0.6254882812
 40
0.6259765625
 40
0.626953125
 40
0.6279296875
 40
0.62890625
 40
0.630859375
 40
0.6328125
 40
0.63671875
 40
0.640625
 40
0.64453125
 40
0.6484375
 40
0.65625
 40
0.6640625
 40
0.66796875
 40
0.671875
 40
0.67578125
 40
0.6796875
 40
0.681640625
 40
0.68359375
 40
0.6845703125
 40
0.685546875
 40
0.6865234375
 40
0.6870117188
 40
0.6872558594
 40
0.6875
 40
0.6877441406
 40
0.6879882812
 40
0.6884765625
 40
0.689453125
 40
0.6904296875
 40
0.69140625
 40
0.693359375
 40
0.6953125
 40
0.69921875
 40
0.703125
 40
0.70703125
 40
0.7109375
 40
0.71875
 40
0.7265625
 40
0.73046875
 40
0.734375
 40
0.73828125
 40
0.7421875
 40
0.744140625
 40
0.74609375
 40
0.7470703125
 40
0.748046875
 40
0.7490234375
 40
0.7495117188
 40
0.7497558594
 40
0.75
 40
0.7502441406
 40
0.7504882812
 40
0.7509765625
 40
0.751953125
 40
0.7529296875
 40
0.75390625
 40
0.755859375
 40
0.7578125
 40
0.76171875
 40
0.765625
 40
0.76953125
 40
0.7734375
 40
0.78125
 40
0.7890625
 40
0.79296875
 40
0.796875
 40
0.80078125
 40
0.8046875
 40
0.806640625
 40
0.80859375
 40
0.8095703125
 40
0.810546875
 40
0.8115234375
 40
0.8120117188
 40
0.8122558594
 40
0.8125
 40
0.8127441406
 40
0.8129882812
 40
0.8134765625
 40
0.814453125
 40
0.8154296875
 40
0.81640625
 40
0.818359375
 40
0.8203125
 40
0.82421875
 40
0.828125
 40
0.83203125
 40
0.8359375
 40
0.84375
 40
0.8515625
 40
0.85546875
 40
0.859375
 40
0.86328125
 40
0.8671875
 40
0.869140625
 40
0.87109375
 40
0.8720703125
 40
0.873046875
 40
0.8740234375
 40
0.8745117188
 40
0.8747558594
 40
0.875
 40
0.8752441406
 40
0.8754882812
 40
0.8759765625
 40
0.876953125
 40
0.8779296875
 40
0.87890625
 40
0.880859375
 40
0.8828125
 40
0.88671875
 40
0.890625
 40
0.89453125
 40
0.8984375
 40
0.90625
 40
0.9140625
 40
0.91796875
 40
0.921875
 40
0.92578125
 40
0.9296875
 40
0.931640625
 40
0.93359375
 40
0.9345703125
 40
0.935546875
 40
0.9365234375
 40
0.9370117188
 40
0.9372558594
 40
0.9375
 40
0.9377441406
 40
0.9379882812
 40
0.9384765625
 40
0.939453125
 40
0.9404296875
 40
0.94140625
 40
0.943359375
 40
0.9453125
 40
0.94921875
 40
0.953125
 40
0.95703125
 40
0.9609375
 40
0.96875
 40
0.9765625
 40
0.984375
 40
1.0
 40
1.0
 40
1.0
 40
1.0
 10
9.1628829275
 20
6.9875504839
 30
0.0
 10
9.1691493013
 20
6.9877303327
 30
0.0
 10
9.178548862
 20
6.988000106
 30
0.0
 10
9.1910816097
 20
6.9883598036
 30
0.0
 10
9.2004811705
 20
6.988629577
 30
0.0
 10
9.2083141378
 20
6.9888543877
 30
0.0
 10
9.2145805115
 20
6.9890342371
 30
0.0
 10
9.2192802923
 20
6.9891691218
 30
0.0
 10
9.2239800712
 20
6.9893040159
 30
0.0
 10
9.2278965594
 20
6.9894163981
 30
0.0
 10
9.2310297371
 20
6.9895063699
 30
0.0
 10
9.2329880024
 20
6.9895624521
 30
0.0
 10
9.2345545476
 20
6.9896076618
 30
0.0
 10
9.2357296403
 20
6.9896406273
 30
0.0
 10
9.2367082992
 20
6.9896710945
 30
0.0
 10
9.2373945087
 20
6.9896865422
 30
0.0
 10
9.2377848354
 20
6.9897045495
 30
0.0
 10
9.2380826315
 20
6.9896921945
 30
0.0
 10
9.2383611196
 20
6.9897786914
 30
0.0
 10
9.2387391719
 20
6.9898595399
 30
0.0
 10
9.2393976255
 20
6.99001709
 30
0.0
 10
9.2403399141
 20
6.9902337626
 30
0.0
 10
9.2414699582
 20
6.9904973646
 30
0.0
 10
9.242976929
 20
6.9908475784
 30
0.0
 10
9.2448605584
 20
6.9912857756
 30
0.0
 10
9.2478744125
 20
6.9919866508
 30
0.0
 10
9.251641714
 20
6.9928628272
 30
0.0
 10
9.2561624826
 20
6.9939142035
 30
0.0
 10
9.2606832494
 20
6.9949655893
 30
0.0
 10
9.2667109392
 20
6.9963674338
 30
0.0
 10
9.2742455511
 20
6.9981197405
 30
0.0
 10
9.2817801632
 20
6.9998720465
 30
0.0
 10
9.2878078526
 20
7.0012738922
 30
0.0
 10
9.2923286205
 20
7.0023252741
 30
0.0
 10
9.2968493849
 20
7.0033766651
 30
0.0
 10
9.3006166998
 20
7.0042527961
 30
0.0
 10
9.3036305264
 20
7.0049537639
 30
0.0
 10
9.3055142256
 20
7.0053917252
 30
0.0
 10
9.3070210532
 20
7.0057424232
 30
0.0
 10
9.3081515347
 20
7.006004546
 30
0.0
 10
9.3090924547
 20
7.0062258467
 30
0.0
 10
9.3097533516
 20
7.0063751348
 30
0.0
 10
9.3101274891
 20
7.0064692212
 30
0.0
 10
9.3104180022
 20
7.0065150555
 30
0.0
 10
9.3106706345
 20
7.0066554223
 30
0.0
 10
9.3110206909
 20
7.0068096041
 30
0.0
 10
9.3116271333
 20
7.0070947853
 30
0.0
 10
9.3124966981
 20
7.007494155
 30
0.0
 10
9.3135387981
 20
7.0079768366
 30
0.0
 10
9.3149287461
 20
7.0086192113
 30
0.0
 10
9.3166660163
 20
7.0094225909
 30
0.0
 10
9.3194457408
 20
7.0107077683
 30
0.0
 10
9.3229203647
 20
7.012314319
 30
0.0
 10
9.327089927
 20
7.014242146
 30
0.0
 10
9.3312594856
 20
7.016169982
 30
0.0
 10
9.3368188984
 20
7.0187404269
 30
0.0
 10
9.3437681639
 20
7.0219534842
 30
0.0
 10
9.3507174298
 20
7.0251665407
 30
0.0
 10
9.356276842
 20
7.0277369868
 30
0.0
 10
9.3604464024
 20
7.0296648191
 30
0.0
 10
9.3646159582
 20
7.0315926602
 30
0.0
 10
9.3680906024
 20
7.0331991669
 30
0.0
 10
9.3708702854
 20
7.0344844341
 30
0.0
 10
9.3726076611
 20
7.0352875853
 30
0.0
 10
9.3739973926
 20
7.0359304285
 30
0.0
 10
9.3750401539
 20
7.0364116788
 30
0.0
 10
9.37590765
 20
7.036815527
 30
0.0
 10
9.3765177853
 20
7.0370927134
 30
0.0
 10
9.3768619247
 20
7.0372597048
 30
0.0
 10
9.3771327322
 20
7.0373607246
 30
0.0
 10
9.3773549822
 20
7.0375543396
 30
0.0
 10
9.377668253
 20
7.0377801948
 30
0.0
 10
9.3782085854
 20
7.0381904897
 30
0.0
 10
9.3789846145
 20
7.0387687578
 30
0.0
 10
9.3799140836
 20
7.039466047
 30
0.0
 10
9.3811539924
 20
7.0403945897
 30
0.0
 10
9.3827036673
 20
7.0415556709
 30
0.0
 10
9.3851832651
 20
7.0434131757
 30
0.0
 10
9.3882827219
 20
7.0457351339
 30
0.0
 10
9.3920020874
 20
7.0485214507
 30
0.0
 10
9.3957214482
 20
7.0513077763
 30
0.0
 10
9.4006805976
 20
7.055022874
 30
0.0
 10
9.4068795338
 20
7.0596667473
 30
0.0
 10
9.4130784705
 20
7.06431062
 30
0.0
 10
9.418037619
 20
7.0680257188
 30
0.0
 10
9.4217569824
 20
7.0708120411
 30
0.0
 10
9.4254763384
 20
7.0735983702
 30
0.0
 10
9.4285758249
 20
7.0759202901
 30
0.0
 10
9.4310553621
 20
7.0777778731
 30
0.0
 10
9.4326051912
 20
7.0789387552
 30
0.0
 10
9.4338447835
 20
7.0798677066
 30
0.0
 10
9.4347752196
 20
7.0805637473
 30
0.0
 10
9.435548223
 20
7.0811459219
 30
0.0
 10
9.4360939568
 20
7.0815492429
 30
0.0
 10
9.4363985731
 20
7.0817862719
 30
0.0
 10
9.4366474068
 20
7.0819455646
 30
0.0
 10
9.4368183707
 20
7.0821754936
 30
0.0
 10
9.4370734845
 20
7.0824574269
 30
0.0
 10
9.4375072784
 20
7.0829622898
 30
0.0
 10
9.4381336002
 20
7.0836775208
 30
0.0
 10
9.4388823544
 20
7.084538367
 30
0.0
 10
9.4398816825
 20
7.0856852646
 30
0.0
 10
9.4411305039
 20
7.0871191938
 30
0.0
 10
9.4431288075
 20
7.0894133089
 30
0.0
 10
9.445626622
 20
7.0922810117
 30
0.0
 10
9.4486240273
 20
7.0957222297
 30
0.0
 10
9.4516214251
 20
7.0991634546
 30
0.0
 10
9.4556179582
 20
7.103751752
 30
0.0
 10
9.4606136235
 20
7.1094871246
 30
0.0
 10
9.4656092895
 20
7.1152224966
 30
0.0
 10
9.4696058215
 20
7.1198107949
 30
0.0
 10
9.4726032226
 20
7.1232520171
 30
0.0
 10
9.4756006157
 20
7.1266932451
 30
0.0
 10
9.478098468
 20
7.1295609169
 30
0.0
 10
9.4800966947
 20
7.1318550951
 30
0.0
 10
9.4813457118
 20
7.1332888637
 30
0.0
 10
9.4823446382
 20
7.134436091
 30
0.0
 10
9.4830946199
 20
7.13529593
 30
0.0
 10
9.4837171011
 20
7.1360143121
 30
0.0
 10
9.484157751
 20
7.1365135499
 30
0.0
 10
9.4844018797
 20
7.1368044961
 30
0.0
 10
9.4846065863
 20
7.1370067403
 30
0.0
 10
9.4847286881
 20
7.1372700124
 30
0.0
 10
9.484920304
 20
7.1375997546
 30
0.0
 10
9.485242207
 20
7.1381867216
 30
0.0
 10
9.4857090871
 20
7.1390200606
 30
0.0
 10
9.486266339
 20
7.1400222869
 30
0.0
 10
9.4870103908
 20
7.1413578133
 30
0.0
 10
9.4879400963
 20
7.1430274868
 30
0.0
 10
9.4894278259
 20
7.1456988161
 30
0.0
 10
9.4912874191
 20
7.1490380286
 30
0.0
 10
9.4935189603
 20
7.1530450617
 30
0.0
 10
9.4957504937
 20
7.1570521007
 30
0.0
 10
9.4987258743
 20
7.1623948174
 30
0.0
 10
9.502445099
 20
7.1690732139
 30
0.0
 10
9.5061643244
 20
7.17575161
 30
0.0
 10
9.5091397039
 20
7.1810943273
 30
0.0
 10
9.5113712408
 20
7.1851013642
 30
0.0
 10
9.5136027689
 20
7.1891084053
 30
0.0
 10
9.515462403
 20
7.192447593
 30
0.0
 10
9.516950049
 20
7.1951189729
 30
0.0
 10
9.5178799672
 20
7.1967885176
 30
0.0
 10
9.5186235824
 20
7.1981243084
 30
0.0
 10
9.5191821682
 20
7.199125727
 30
0.0
 10
9.519644875
 20
7.1999615931
 30
0.0
 10
9.519974228
 20
7.2005440488
 30
0.0
 10
9.5201539071
 20
7.2008810193
 30
0.0
 10
9.5203126749
 20
7.2011220884
 30
0.0
 10
9.52037967
 20
7.2014077232
 30
0.0
 10
9.5205010082
 20
7.2017730246
 30
0.0
 10
9.5206984354
 20
7.2024195448
 30
0.0
 10
9.5209882718
 20
7.2033393585
 30
0.0
 10
9.5213327379
 20
7.2044447558
 30
0.0
 10
9.5217931917
 20
7.2059180526
 30
0.0
 10
9.5223683599
 20
7.2077598675
 30
0.0
 10
9.523288852
 20
7.2107066631
 30
0.0
 10
9.5244393906
 20
7.2143901946
 30
0.0
 10
9.5258200697
 20
7.2188104166
 30
0.0
 10
9.52720074
 20
7.2232306428
 30
0.0
 10
9.5290416369
 20
7.2291242763
 30
0.0
 10
9.5313427569
 20
7.2364913187
 30
0.0
 10
9.5336438776
 20
7.2438583608
 30
0.0
 10
9.5354847732
 20
7.2497519948
 30
0.0
 10
9.5368654474
 20
7.2541722194
 30
0.0
 10
9.5382461122
 20
7.2585924474
 30
0.0
 10
9.5393966953
 20
7.2622759601
 30
0.0
 10
9.5403170967
 20
7.2652227941
 30
0.0
 10
9.5408924956
 20
7.2670645113
 30
0.0
 10
9.5413524757
 20
7.2685380087
 30
0.0
 10
9.541698389
 20
7.2696427933
 30
0.0
 10
9.5419836974
 20
7.2705645236
 30
0.0
 10
9.5421892079
 20
7.2712076224
 30
0.0
 10
9.5422975945
 20
7.2715784057
 30
0.0
 10
9.5424043727
 20
7.2718472021
 30
0.0
 10
9.542413722
 20
7.2721515134
 30
0.0
 10
9.542460172
 20
7.2725448739
 30
0.0
 10
9.5425256256
 20
7.2732390265
 30
0.0
 10
9.5426274088
 20
7.2742276555
 30
0.0
 10
9.5427460054
 20
7.2754153019
 30
0.0
 10
9.5429053718
 20
7.2769983793
 30
0.0
 10
9.5431041561
 20
7.2789773805
 30
0.0
 10
9.5434224477
 20
7.2821436962
 30
0.0
 10
9.543820231
 20
7.2861016204
 30
0.0
 10
9.5442976057
 20
7.2908511167
 30
0.0
 10
9.5447749712
 20
7.2956006164
 30
0.0
 10
9.5454114617
 20
7.3019332815
 30
0.0
 10
9.5462070736
 20
7.3098491133
 30
0.0
 10
9.5470026863
 20
7.3177649449
 30
0.0
 10
9.5476391755
 20
7.3240976102
 30
0.0
 10
9.548116545
 20
7.3288471093
 30
0.0
 10
9.5485939047
 20
7.3335966081
 30
0.0
 10
9.5489917347
 20
7.3375545244
 30
0.0
 10
9.5493099311
 20
7.3407208561
 30
0.0
 10
9.5495089576
 20
7.3426998164
 30
0.0
 10
9.5496678267
 20
7.3442829779
 30
0.0
 10
9.5497879426
 20
7.3454703673
 30
0.0
 10
9.5498849724
 20
7.3464598004
 30
0.0
 10
9.5499589117
 20
7.3471525176
 30
0.0
 10
9.5499917654
 20
7.347548178
 30
0.0
 10
9.5500428781
 20
7.3478454245
 30
0.0
 10
9.5499927998
 20
7.3481407553
 30
0.0
 10
9.5499613252
 20
7.348535198
 30
0.0
 10
9.5498897994
 20
7.3492251613
 30
0.0
 10
9.5497962175
 20
7.3502109859
 30
0.0
 10
9.5496802391
 20
7.3513939058
 30
0.0
 10
9.5495268866
 20
7.3529711567
 30
0.0
 10
9.5493347559
 20
7.3549427119
 30
0.0
 10
9.5490275928
 20
7.3580972049
 30
0.0
 10
9.5486435544
 20
7.3620403196
 30
0.0
 10
9.5481827446
 20
7.366772058
 30
0.0
 10
9.547721925
 20
7.3715037961
 30
0.0
 10
9.5471075024
 20
7.3778127804
 30
0.0
 10
9.5463394728
 20
7.3856990106
 30
0.0
 10
9.545571444
 20
7.393585241
 30
0.0
 10
9.5449570201
 20
7.3998942251
 30
0.0
 10
9.5444962045
 20
7.4046259636
 30
0.0
 10
9.5440353797
 20
7.4093577008
 30
0.0
 10
9.543651388
 20
7.4133008189
 30
0.0
 10
9.5433441296
 20
7.416455305
 30
0.0
 10
9.5431522413
 20
7.4184268779
 30
0.0
 10
9.5429983913
 20
7.4200040925
 30
0.0
 10
9.5428839328
 20
7.421187123
 30
0.0
 10
9.5427855954
 20
7.4221726016
 30
0.0
 10
9.542722559
 20
7.4228631827
 30
0.0
 10
9.5426774824
 20
7.4232566354
 30
0.0
 10
9.5426691851
 20
7.423555007
 30
0.0
 10
9.542563375
 20
7.423840833
 30
0.0
 10
9.5424563085
 20
7.4242263104
 30
0.0
 10
9.5422530945
 20
7.424898857
 30
0.0
 10
9.541971074
 20
7.4258607038
 30
0.0
 10
9.5416291031
 20
7.4270144637
 30
0.0
 10
9.5411743805
 20
7.4285529695
 30
0.0
 10
9.5406055532
 20
7.4304760473
 30
0.0
 10
9.5396956666
 20
7.4335530022
 30
0.0
 10
9.5385582269
 20
7.4373991854
 30
0.0
 10
9.5371933342
 20
7.4420146097
 30
0.0
 10
9.5358284321
 20
7.4466300328
 30
0.0
 10
9.534008566
 20
7.4527839306
 30
0.0
 10
9.5317337321
 20
7.4604763028
 30
0.0
 10
9.529458899
 20
7.4681686752
 30
0.0
 10
9.5276390316
 20
7.4743225727
 30
0.0
 10
9.5262741334
 20
7.4789379967
 30
0.0
 10
9.5249092264
 20
7.4835534177
 30
0.0
 10
9.5237718312
 20
7.4873996112
 30
0.0
 10
9.5228618538
 20
7.490476545
 30
0.0
 10
9.5222932575
 20
7.4923996765
 30
0.0
 10
9.5218380607
 20
7.4939380721
 30
0.0
 10
9.5214975387
 20
7.4950921689
 30
0.0
 10
9.521210985
 20
7.4960529614
 30
0.0
 10
9.5210158636
 20
7.4967273901
 30
0.0
 10
9.5208958306
 20
7.4971098519
 30
0.0
 10
9.5208298491
 20
7.4974049408
 30
0.0
 10
9.5206719622
 20
7.4976685226
 30
0.0
 10
9.520493504
 20
7.4980309551
 30
0.0
 10
9.5201662658
 20
7.4986600915
 30
0.0
 10
9.5197065916
 20
7.4995615348
 30
0.0
 10
9.5191516401
 20
7.5006421209
 30
0.0
 10
9.5184128722
 20
7.5020833026
 30
0.0
 10
9.5174890125
 20
7.5038846427
 30
0.0
 10
9.5160110605
 20
7.5067668635
 30
0.0
 10
9.5141635439
 20
7.5103696131
 30
0.0
 10
9.5119465568
 20
7.514692924
 30
0.0
 10
9.5097295609
 20
7.5190162318
 30
0.0
 10
9.5067735694
 20
7.5247806433
 30
0.0
 10
9.5030785789
 20
7.5319861573
 30
0.0
 10
9.4993835892
 20
7.5391916716
 30
0.0
 10
9.4964275965
 20
7.5449560826
 30
0.0
 10
9.4942106042
 20
7.5492793919
 30
0.0
 10
9.4919936034
 20
7.5536026972
 30
0.0
 10
9.4901461293
 20
7.5572054642
 30
0.0
 10
9.4886680905
 20
7.5600876496
 30
0.0
 10
9.4877444518
 20
7.5618890798
 30
0.0
 10
9.4870052304
 20
7.5633300765
 30
0.0
 10
9.4864516644
 20
7.5644112277
 30
0.0
 10
9.4859876552
 20
7.565310903
 30
0.0
 10
9.4856681557
 20
7.5659431956
 30
0.0
 10
9.4854772982
 20
7.566300571
 30
0.0
 10
9.4853574978
 20
7.5665796867
 30
0.0
 10
9.4851484697
 20
7.5668164329
 30
0.0
 10
9.4849008891
 20
7.5671468734
 30
0.0
 10
9.4844531221
 20
7.5677182586
 30
0.0
 10
9.4838210362
 20
7.568538123
 30
0.0
 10
9.4830592881
 20
7.5695204195
 30
0.0
 10
9.4820447573
 20
7.5708306863
 30
0.0
 10
9.4807762059
 20
7.5724683355
 30
0.0
 10
9.4787467404
 20
7.5750886772
 30
0.0
 10
9.4762098341
 20
7.578364069
 30
0.0
 10
9.4731655784
 20
7.5822945544
 30
0.0
 10
9.4701213143
 20
7.5862250356
 30
0.0
 10
9.4660622984
 20
7.5914656788
 30
0.0
 10
9.4609885274
 20
7.5980164821
 30
0.0
 10
9.455914757
 20
7.604567286
 30
0.0
 10
9.4518557401
 20
7.6098079283
 30
0.0
 10
9.448811479
 20
7.6137384119
 30
0.0
 10
9.4457672117
 20
7.6176688885
 30
0.0
 10
9.4432303417
 20
7.6209443076
 30
0.0
 10
9.4412008022
 20
7.6235645938
 30
0.0
 10
9.4399324391
 20
7.6252023842
 30
0.0
 10
9.4389175217
 20
7.6265123613
 30
0.0
 10
9.4381569551
 20
7.6274955428
 30
0.0
 10
9.4375211725
 20
7.6283126379
 30
0.0
 10
9.4370800047
 20
7.6288889668
 30
0.0
 10
9.4368218505
 20
7.6292114862
 30
0.0
 10
9.4366453012
 20
7.6294725636
 30
0.0
 10
9.4364035157
 20
7.6296602954
 30
0.0
 10
9.4361038902
 20
7.6299361883
 30
0.0
 10
9.4355689436
 20
7.6304070808
 30
0.0
 10
9.434810277
 20
7.6310860164
 30
0.0
 10
9.4338975046
 20
7.6318980715
 30
0.0
 10
9.4326813033
 20
7.6329817435
 30
0.0
 10
9.431160768
 20
7.6343360144
 30
0.0
 10
9.4287280701
 20
7.6365030262
 30
0.0
 10
9.4256871433
 20
7.6392117297
 30
0.0
 10
9.4220380545
 20
7.6424622001
 30
0.0
 10
9.4183889595
 20
7.6457126636
 30
0.0
 10
9.4135235016
 20
7.6500466173
 30
0.0
 10
9.4074416784
 20
7.6554640585
 30
0.0
 10
9.4013598557
 20
7.6608815003
 30
0.0
 10
9.396494397
 20
7.665215453
 30
0.0
 10
9.3928453044
 20
7.6684659195
 30
0.0
 10
9.3891962064
 20
7.6717163785
 30
0.0
 10
9.386155308
 20
7.6744251177
 30
0.0
 10
9.3837225523
 20
7.6765920566
 30
0.0
 10
9.382202164
 20
7.677946513
 30
0.0
 10
9.380985661
 20
7.6790298041
 30
0.0
 10
9.3800738105
 20
7.6798430229
 30
0.0
 10
9.3793122592
 20
7.6805183179
 30
0.0
 10
9.3787824623
 20
7.6809957094
 30
0.0
 10
9.3784745857
 20
7.6812611894
 30
0.0
 10
9.378258145
 20
7.6814809062
 30
0.0
 10
9.3779864052
 20
7.6816218532
 30
0.0
 10
9.3776433743
 20
7.6818372583
 30
0.0
 10
9.3770340833
 20
7.6822014158
 30
0.0
 10
9.376168366
 20
7.6827283336
 30
0.0
 10
9.3751274942
 20
7.6833577702
 30
0.0
 10
9.3737403676
 20
7.6841980196
 30
0.0
 10
9.3720062188
 20
7.6852479887
 30
0.0
 10
9.3692317151
 20
7.6869281308
 30
0.0
 10
9.3657635394
 20
7.6890282427
 30
0.0
 10
9.3616017483
 20
7.6915484052
 30
0.0
 10
9.357439952
 20
7.6940685601
 30
0.0
 10
9.351890892
 20
7.6974287694
 30
0.0
 10
9.3449545664
 20
7.7016290299
 30
0.0
 10
9.3380182411
 20
7.7058292911
 30
0.0
 10
9.3324691805
 20
7.7091894992
 30
0.0
 10
9.328307386
 20
7.7117096575
 30
0.0
 10
9.3241455879
 20
7.7142298073
 30
0.0
 10
9.3206774342
 20
7.7163299587
 30
0.0
 10
9.3179028857
 20
7.7180100203
 30
0.0
 10
9.3161688509
 20
7.7190601942
 30
0.0
 10
9.3147814902
 20
7.7199000233
 30
0.0
 10
9.3137413336
 20
7.7205307441
 30
0.0
 10
9.3128733787
 20
7.7210536438
 30
0.0
 10
9.3122680823
 20
7.7214249743
 30
0.0
 10
9.311918651
 20
7.7216288865
 30
0.0
 10
9.3116665713
 20
7.7218051361
 30
0.0
 10
9.3113762903
 20
7.7218922623
 30
0.0
 10
9.3110025741
 20
7.7220395178
 30
0.0
 10
9.3103423622
 20
7.7222827308
 30
0.0
 10
9.3094024483
 20
7.7226377504
 30
0.0
 10
9.3082731623
 20
7.7230605328
 30
0.0
 10
9.3067679328
 20
7.7236253746
 30
0.0
 10
9.3048862299
 20
7.7243310393
 30
0.0
 10
9.301875598
 20
7.7254603194
 30
0.0
 10
9.2981122763
 20
7.7268718453
 30
0.0
 10
9.2935963039
 20
7.7285657082
 30
0.0
 10
9.2890803279
 20
7.7302595625
 30
0.0
 10
9.2830590278
 20
7.732518038
 30
0.0
 10
9.2755324022
 20
7.7353411312
 30
0.0
 10
9.2680057769
 20
7.7381642251
 30
0.0
 10
9.2619844763
 20
7.7404226994
 30
0.0
 10
9.2574685016
 20
7.7421165574
 30
0.0
 10
9.2529525242
 20
7.7438104064
 30
0.0
 10
9.2491892182
 20
7.7452219756
 30
0.0
 10
9.2461785542
 20
7.7463511673
 30
0.0
 10
9.244296933
 20
7.7470570571
 30
0.0
 10
9.2427915359
 20
7.7476214369
 30
0.0
 10
9.241662762
 20
7.7480456309
 30
0.0
 10
9.2407212456
 20
7.7483962336
 30
0.0
 10
9.2400638945
 20
7.7486473316
 30
0.0
 10
9.2396855946
 20
7.7487819534
 30
0.0
 10
9.2394093931
 20
7.7489078863
 30
0.0
 10
9.2391044333
 20
7.7489383846
 30
0.0
 10
9.2387078513
 20
7.7490123376
 30
0.0
 10
9.2380091592
 20
7.7491262456
 30
0.0
 10
9.2370134711
 20
7.7492970801
 30
0.0
 10
9.2358175994
 20
7.7494986107
 30
0.0
 10
9.2342234692
 20
7.7497685304
 30
0.0
 10
9.2322306814
 20
7.7501055149
 30
0.0
 10
9.2290422907
 20
7.7506449222
 30
0.0
 10
9.2250567784
 20
7.7513191017
 30
0.0
 10
9.2202741739
 20
7.7521281512
 30
0.0
 10
9.2154915667
 20
7.7529371916
 30
0.0
 10
9.209114758
 20
7.7540159153
 30
0.0
 10
9.2011437468
 20
7.7553643188
 30
0.0
 10
9.1915785335
 20
7.7569824035
 30
0.0
 10
9.1788249158
 20
7.7591398495
 30
0.0
 10
9.1692597025
 20
7.7607579341
 30
0.0
 10
9.1628828936
 20
7.7618366572
 30
0.0
  0
ENDSEC
  0
SECTION
  2
OBJECTS
  0
DICTIONARY
  5
C
100
AcDbDictionary
280
0
281
1
  3
ACAD_GROUP
350
D
  3
ACAD_MLINESTYLE
350
17
  3
ACAD_LAYOUT
350
1A
  3
ACAD_PLOTSETTINGS
350
19
  3
ACAD_PLOTSTYLENAME
350
E
  3
ACAD_IMAGE_DICT
350
       32A
  3
ACAD_IMAGE_VARS
350
       32B
  3
ACAD_TABLESTYLE
350
       32C
  0
IMAGEDEF_REACTOR
  5
329
100
AcDbRasterImageDefReactor
 90
2
330
27F
  0
DICTIONARY
  5
D
102
{ACAD_REACTORS
330
C
102
}
100
AcDbDictionary
280
0
281
1
  0
ACDBDICTIONARYWDFLT
  5
E
102
{ACAD_REACTORS
330
C
102
}
100
AcDbDictionary
281
1
  3
Normal
350
F
100
AcDbDictionaryWithDefault
340
F
  0
DICTIONARY
  5
32A
330
C
100
AcDbDictionary
281
1
  3
GAD_assy_2_img_1
350
       32F
  0
RASTERVARIABLES
  5
32B
330
C
100
AcDbRasterVariables
 90
0
 70
0
 71
1
 72
5
  0
DICTIONARY
  5
17
102
{ACAD_REACTORS
330
C
102
}
100
AcDbDictionary
280
0
281
1
  3
Standard
350
18
  0
DICTIONARY
  5
32C
330
C
100
AcDbDictionary
281
1
  3
Standard
350
       330
  3
Standard1
350
       331
  0
DICTIONARY
  5
19
102
{ACAD_REACTORS
330
C
102
}
100
AcDbDictionary
281
1
  0
DICTIONARY
  5
1A
102
{ACAD_REACTORS
330
C
102
}
100
AcDbDictionary
281
1
  3
Model
350
32D
  3
Layout1
350
32E
  0
ACDBPLACEHOLDER
  5
F
102
{ACAD_REACTORS
330
E
102
}
  0
MLINESTYLE
  5
18
102
{ACAD_REACTORS
330
17
102
}
100
AcDbMlineStyle
  2
STANDARD
 70
0
  3

 62
256
 51
90.0
 52
90.0
 71
2
 49
0.5
 62
256
  6
BYLAYER
 49
-0.5
 62
256
  6
BYLAYER
  0
LAYOUT
  5
32D
102
{ACAD_REACTORS
330
1A
102
}
100
AcDbPlotSettings
  1

  2
none_device
  4
ANSI_C_(22.00_x_17.00_Inches)
  6

 40
0.0
 41
0.0
 42
0.0
 43
0.0
 44
558.8
 45
431.8
 46
0.0
 47
0.0
 48
0.0
 49
0.0
140
0.0
141
0.0
142
1.0
143
1.0
 70
1024
 72
0
 73
0
 74
0
  7

 75
0
147
1.0
148
0.0
149
0.0
100
AcDbLayout
  1
Model
 70
0
 71
0
 10
0.0
 20
0.0
 11
22.0
 21
17.0
 12
0.0
 22
0.0
 32
0.0
 14
0.0
 24
0.0
 34
0.0
 15
0.0
 25
0.0
 35
0.0
146
0.0
 13
0.0
 23
0.0
 33
0.0
 16
1.0
 26
0.0
 36
0.0
 17
0.0
 27
1.0
 37
0.0
 76
0
330
204
345
0
346
0
  0
LAYOUT
  5
32E
102
{ACAD_REACTORS
330
1A
102
}
100
AcDbPlotSettings
  1

  2
none_device
  4
ANSI_C_(22.00_x_17.00_Inches)
  6

 40
0.0
 41
0.0
 42
0.0
 43
0.0
 44
558.8
 45
431.8
 46
0.0
 47
0.0
 48
0.0
 49
0.0
140
0.0
141
0.0
142
1.0
143
1.0
 70
0
 72
0
 73
0
 74
0
  7

 75
0
147
1.0
148
0.0
149
0.0
100
AcDbLayout
  1
Layout1
 70
0
 71
1
 10
0.0
 20
0.0
 11
22.0
 21
17.0
 12
0.0
 22
0.0
 32
0.0
 14
0.0
 24
0.0
 34
0.0
 15
0.0
 25
0.0
 35
0.0
146
0.0
 13
0.0
 23
0.0
 33
0.0
 16
1.0
 26
0.0
 36
0.0
 17
0.0
 27
1.0
 37
0.0
 76
0
330
205
345
0
346
0
  0
IMAGEDEF
  5
32F
102
{ACAD_REACTORS
330
32A
330
329
102
}
100
AcDbRasterImageDef
 90
0
  1
GAD_assy_2_img_1.png
 10
369.0
 20
92.0
 11
0.0066666667
 21
0.0066666667
280
1
281
0
  0
TABLESTYLE
  5
330
102
{ACAD_REACTORS
330
32C
330
282
330
283
102
}
330
32C
100
AcDbTableStyle
  3
Standard
 70
0
 71
0
 40
0.06
 41
0.06
280
1
281
1
  7
Standard
140
0.18
170
1
 62
0
 63
7
283
0
  7
Standard
140
0.18
170
1
 62
0
 63
7
283
0
  7
Standard
140
0.18
170
1
 62
0
 63
7
283
0
  0
TABLESTYLE
  5
331
102
{ACAD_REACTORS
330
32C
330
281
102
}
330
32C
100
AcDbTableStyle
  3
Standard1
 70
1
 71
0
 40
0.06
 41
0.06
280
1
281
1
  7
Standard
140
0.18
170
1
 62
0
 63
7
283
0
  7
Standard
140
0.18
170
1
 62
0
 63
7
283
0
  7
Standard
140
0.18
170
1
 62
0
 63
7
283
0
  0
ENDSEC
  0
EOF
